  0
SECTION
  2
HEADER
  9
$ACADVER
  1
AC1021
  9
$ACADMAINTVER
 70
    25
  9
$DWGCODEPAGE
  3
ANSI_1256
  9
$INSBASE
 10
0.0
 20
0.0
 30
0.0
  9
$EXTMIN
 10
81.657
 20
-114.9874
 30
0.0
  9
$EXTMAX
 10
196.3072
 20
133.9758
 30
0.0
  9
$LIMMIN
 10
0.0
 20
0.0
  9
$LIMMAX
 10
12.0
 20
9.0
  9
$ORTHOMODE
 70
     0
  9
$REGENMODE
 70
     1
  9
$FILLMODE
 70
     1
  9
$QTEXTMODE
 70
     0
  9
$MIRRTEXT
 70
     1
  9
$LTSCALE
 40
1.0
  9
$ATTMODE
 70
     1
  9
$TEXTSIZE
 40
0.2
  9
$TRACEWID
 40
0.05
  9
$TEXTSTYLE
  7
Standard
  9
$CLAYER
  8
0
  9
$CELTYPE
  6
ByLayer
  9
$CECOLOR
 62
   256
  9
$CELTSCALE
 40
1.0
  9
$DISPSILH
 70
     0
  9
$DIMSCALE
 40
1.0
  9
$DIMASZ
 40
0.18
  9
$DIMEXO
 40
0.0625
  9
$DIMDLI
 40
0.38
  9
$DIMRND
 40
0.0
  9
$DIMDLE
 40
0.0
  9
$DIMEXE
 40
0.18
  9
$DIMTP
 40
0.0
  9
$DIMTM
 40
0.0
  9
$DIMTXT
 40
0.18
  9
$DIMCEN
 40
0.09
  9
$DIMTSZ
 40
0.0
  9
$DIMTOL
 70
     0
  9
$DIMLIM
 70
     0
  9
$DIMTIH
 70
     1
  9
$DIMTOH
 70
     1
  9
$DIMSE1
 70
     0
  9
$DIMSE2
 70
     0
  9
$DIMTAD
 70
     0
  9
$DIMZIN
 70
     0
  9
$DIMBLK
  1

  9
$DIMASO
 70
     1
  9
$DIMSHO
 70
     1
  9
$DIMPOST
  1

  9
$DIMAPOST
  1

  9
$DIMALT
 70
     0
  9
$DIMALTD
 70
     2
  9
$DIMALTF
 40
25.4
  9
$DIMLFAC
 40
1.0
  9
$DIMTOFL
 70
     0
  9
$DIMTVP
 40
0.0
  9
$DIMTIX
 70
     0
  9
$DIMSOXD
 70
     0
  9
$DIMSAH
 70
     0
  9
$DIMBLK1
  1

  9
$DIMBLK2
  1

  9
$DIMSTYLE
  2
Standard
  9
$DIMCLRD
 70
     0
  9
$DIMCLRE
 70
     0
  9
$DIMCLRT
 70
     0
  9
$DIMTFAC
 40
1.0
  9
$DIMGAP
 40
0.09
  9
$DIMJUST
 70
     0
  9
$DIMSD1
 70
     0
  9
$DIMSD2
 70
     0
  9
$DIMTOLJ
 70
     1
  9
$DIMTZIN
 70
     0
  9
$DIMALTZ
 70
     0
  9
$DIMALTTZ
 70
     0
  9
$DIMUPT
 70
     0
  9
$DIMDEC
 70
     4
  9
$DIMTDEC
 70
     4
  9
$DIMALTU
 70
     2
  9
$DIMALTTD
 70
     2
  9
$DIMTXSTY
  7
Standard
  9
$DIMAUNIT
 70
     0
  9
$DIMADEC
 70
     0
  9
$DIMALTRND
 40
0.0
  9
$DIMAZIN
 70
     0
  9
$DIMDSEP
 70
    46
  9
$DIMATFIT
 70
     3
  9
$DIMFRAC
 70
     0
  9
$DIMLDRBLK
  1

  9
$DIMLUNIT
 70
     2
  9
$DIMLWD
 70
    -2
  9
$DIMLWE
 70
    -2
  9
$DIMTMOVE
 70
     0
  9
$DIMFXL
 40
1.0
  9
$DIMFXLON
 70
     0
  9
$DIMJOGANG
 40
0.7853981633974483
  9
$DIMTFILL
 70
     0
  9
$DIMTFILLCLR
 70
     0
  9
$DIMARCSYM
 70
     0
  9
$DIMLTYPE
  6

  9
$DIMLTEX1
  6

  9
$DIMLTEX2
  6

  9
$LUNITS
 70
     2
  9
$LUPREC
 70
     4
  9
$SKETCHINC
 40
0.1
  9
$FILLETRAD
 40
0.5
  9
$AUNITS
 70
     0
  9
$AUPREC
 70
     0
  9
$MENU
  1
.
  9
$ELEVATION
 40
0.0
  9
$PELEVATION
 40
0.0
  9
$THICKNESS
 40
0.0
  9
$LIMCHECK
 70
     0
  9
$CHAMFERA
 40
0.5
  9
$CHAMFERB
 40
0.5
  9
$CHAMFERC
 40
1.0
  9
$CHAMFERD
 40
0.0
  9
$SKPOLY
 70
     0
  9
$TDCREATE
 40
2458492.400689479
  9
$TDUCREATE
 40
2458492.234022812
  9
$TDUPDATE
 40
2458492.400689607
  9
$TDUUPDATE
 40
2458492.23402294
  9
$TDINDWG
 40
0.0000000116
  9
$TDUSRTIMER
 40
0.0000000116
  9
$USRTIMER
 70
     1
  9
$ANGBASE
 50
0.0
  9
$ANGDIR
 70
     0
  9
$PDMODE
 70
     0
  9
$PDSIZE
 40
0.0
  9
$PLINEWID
 40
0.0
  9
$SPLFRAME
 70
     0
  9
$SPLINETYPE
 70
     6
  9
$SPLINESEGS
 70
     8
  9
$HANDSEED
  5
12B
  9
$SURFTAB1
 70
     6
  9
$SURFTAB2
 70
     6
  9
$SURFTYPE
 70
     6
  9
$SURFU
 70
     6
  9
$SURFV
 70
     6
  9
$UCSBASE
  2

  9
$UCSNAME
  2

  9
$UCSORG
 10
0.0
 20
0.0
 30
0.0
  9
$UCSXDIR
 10
1.0
 20
0.0
 30
0.0
  9
$UCSYDIR
 10
0.0
 20
1.0
 30
0.0
  9
$UCSORTHOREF
  2

  9
$UCSORTHOVIEW
 70
     0
  9
$UCSORGTOP
 10
0.0
 20
0.0
 30
0.0
  9
$UCSORGBOTTOM
 10
0.0
 20
0.0
 30
0.0
  9
$UCSORGLEFT
 10
0.0
 20
0.0
 30
0.0
  9
$UCSORGRIGHT
 10
0.0
 20
0.0
 30
0.0
  9
$UCSORGFRONT
 10
0.0
 20
0.0
 30
0.0
  9
$UCSORGBACK
 10
0.0
 20
0.0
 30
0.0
  9
$PUCSBASE
  2

  9
$PUCSNAME
  2

  9
$PUCSORG
 10
0.0
 20
0.0
 30
0.0
  9
$PUCSXDIR
 10
1.0
 20
0.0
 30
0.0
  9
$PUCSYDIR
 10
0.0
 20
1.0
 30
0.0
  9
$PUCSORTHOREF
  2

  9
$PUCSORTHOVIEW
 70
     0
  9
$PUCSORGTOP
 10
0.0
 20
0.0
 30
0.0
  9
$PUCSORGBOTTOM
 10
0.0
 20
0.0
 30
0.0
  9
$PUCSORGLEFT
 10
0.0
 20
0.0
 30
0.0
  9
$PUCSORGRIGHT
 10
0.0
 20
0.0
 30
0.0
  9
$PUCSORGFRONT
 10
0.0
 20
0.0
 30
0.0
  9
$PUCSORGBACK
 10
0.0
 20
0.0
 30
0.0
  9
$USERI1
 70
     0
  9
$USERI2
 70
     0
  9
$USERI3
 70
     0
  9
$USERI4
 70
     0
  9
$USERI5
 70
     0
  9
$USERR1
 40
0.0
  9
$USERR2
 40
0.0
  9
$USERR3
 40
0.0
  9
$USERR4
 40
0.0
  9
$USERR5
 40
0.0
  9
$WORLDVIEW
 70
     1
  9
$SHADEDGE
 70
     3
  9
$SHADEDIF
 70
    70
  9
$TILEMODE
 70
     1
  9
$MAXACTVP
 70
    64
  9
$PINSBASE
 10
0.0
 20
0.0
 30
0.0
  9
$PLIMCHECK
 70
     0
  9
$PEXTMIN
 10
1.000000000000000E+20
 20
1.000000000000000E+20
 30
1.000000000000000E+20
  9
$PEXTMAX
 10
-1.000000000000000E+20
 20
-1.000000000000000E+20
 30
-1.000000000000000E+20
  9
$PLIMMIN
 10
0.0
 20
0.0
  9
$PLIMMAX
 10
12.0
 20
9.0
  9
$UNITMODE
 70
     0
  9
$VISRETAIN
 70
     1
  9
$PLINEGEN
 70
     0
  9
$PSLTSCALE
 70
     1
  9
$TREEDEPTH
 70
  3020
  9
$CMLSTYLE
  2
Standard
  9
$CMLJUST
 70
     0
  9
$CMLSCALE
 40
1.0
  9
$PROXYGRAPHICS
 70
     1
  9
$MEASUREMENT
 70
     0
  9
$CELWEIGHT
370
    -1
  9
$ENDCAPS
280
     0
  9
$JOINSTYLE
280
     0
  9
$LWDISPLAY
290
     0
  9
$INSUNITS
 70
     4
  9
$HYPERLINKBASE
  1

  9
$STYLESHEET
  1

  9
$XEDIT
290
     1
  9
$CEPSNTYPE
380
     0
  9
$PSTYLEMODE
290
     1
  9
$FINGERPRINTGUID
  2
{4F6D66CA-E834-4870-A1CB-FEF80941E5DA}
  9
$VERSIONGUID
  2
{FAEB1C32-E019-11D5-929B-00C0DF256EC4}
  9
$EXTNAMES
290
     1
  9
$PSVPSCALE
 40
0.0
  9
$OLESTARTUP
290
     0
  9
$SORTENTS
280
   127
  9
$INDEXCTL
280
     0
  9
$HIDETEXT
280
     1
  9
$XCLIPFRAME
290
     0
  9
$HALOGAP
280
     0
  9
$OBSCOLOR
 70
   257
  9
$OBSLTYPE
280
     0
  9
$INTERSECTIONDISPLAY
280
     0
  9
$INTERSECTIONCOLOR
 70
   257
  9
$DIMASSOC
280
     2
  9
$PROJECTNAME
  1

  9
$CAMERADISPLAY
290
     0
  9
$LENSLENGTH
 40
50.0
  9
$CAMERAHEIGHT
 40
0.0
  9
$STEPSPERSEC
 40
2.0
  9
$STEPSIZE
 40
6.0
  9
$3DDWFPREC
 40
2.0
  9
$PSOLWIDTH
 40
0.25
  9
$PSOLHEIGHT
 40
4.0
  9
$LOFTANG1
 40
1.570796326794897
  9
$LOFTANG2
 40
1.570796326794897
  9
$LOFTMAG1
 40
0.0
  9
$LOFTMAG2
 40
0.0
  9
$LOFTPARAM
 70
     7
  9
$LOFTNORMALS
280
     1
  9
$LATITUDE
 40
37.795
  9
$LONGITUDE
 40
-122.394
  9
$NORTHDIRECTION
 40
0.0
  9
$TIMEZONE
 70
 -8000
  9
$LIGHTGLYPHDISPLAY
280
     1
  9
$TILEMODELIGHTSYNCH
280
     1
  9
$SOLIDHIST
280
     1
  9
$SHOWHIST
280
     1
  9
$DWFFRAME
280
     2
  9
$DGNFRAME
280
     2
  9
$REALWORLDSCALE
290
     1
  9
$INTERFERECOLOR
 62
   256
  9
$CSHADOW
280
     0
  9
$SHADOWPLANELOCATION
 40
0.0
  0
ENDSEC
  0
SECTION
  2
CLASSES
  0
CLASS
  1
ACDBDICTIONARYWDFLT
  2
AcDbDictionaryWithDefault
  3
ObjectDBX Classes
 90
        0
 91
        4
280
     0
281
     0
  0
CLASS
  1
VISUALSTYLE
  2
AcDbVisualStyle
  3
ObjectDBX Classes
 90
     4095
 91
        4
280
     0
281
     0
  0
CLASS
  1
MATERIAL
  2
AcDbMaterial
  3
ObjectDBX Classes
 90
     1153
 91
        4
280
     0
281
     0
  0
ENDSEC
  0
SECTION
  2
TABLES
  0
TABLE
  2
VPORT
  5
8
330
0
100
AcDbSymbolTable
 70
     1
  0
VPORT
  5
29
330
8
100
AcDbSymbolTableRecord
100
AcDbViewportTableRecord
  2
*Active
 70
     0
 10
0.0
 20
0.0
 11
1.0
 21
1.0
 12
10.42990654205607
 22
4.5
 13
0.0
 23
0.0
 14
0.5
 24
0.5
 15
0.5
 25
0.5
 16
0.0
 26
0.0
 36
1.0
 17
0.0
 27
0.0
 37
0.0
 40
9.0
 41
1.972972972850329
 42
50.0
 43
0.0
 44
0.0
 50
0.0
 51
0.0
 71
     0
 72
   100
 73
     1
 74
     3
 75
     0
 76
     0
 77
     0
 78
     0
281
     0
 65
     1
110
0.0
120
0.0
130
0.0
111
1.0
121
0.0
131
0.0
112
0.0
122
1.0
132
0.0
 79
     0
146
0.0
 60
     3
 61
     5
292
     1
282
     1
141
0.0
142
0.0
 63
   250
  0
ENDTAB
  0
TABLE
  2
LTYPE
  5
5
330
0
100
AcDbSymbolTable
 70
     1
  0
LTYPE
  5
14
330
5
100
AcDbSymbolTableRecord
100
AcDbLinetypeTableRecord
  2
ByBlock
 70
     0
  3

 72
    65
 73
     0
 40
0.0
  0
LTYPE
  5
15
330
5
100
AcDbSymbolTableRecord
100
AcDbLinetypeTableRecord
  2
ByLayer
 70
     0
  3

 72
    65
 73
     0
 40
0.0
  0
LTYPE
  5
16
330
5
100
AcDbSymbolTableRecord
100
AcDbLinetypeTableRecord
  2
Continuous
 70
     0
  3
Solid line
 72
    65
 73
     0
 40
0.0
  0
ENDTAB
  0
TABLE
  2
LAYER
  5
2
330
0
100
AcDbSymbolTable
 70
     2
  0
LAYER
  5
10
330
2
100
AcDbSymbolTableRecord
100
AcDbLayerTableRecord
  2
0
 70
     0
 62
     7
  6
Continuous
370
    -3
390
F
347
3E
  0
LAYER
  5
40
330
2
100
AcDbSymbolTableRecord
100
AcDbLayerTableRecord
  2
layer 1
 70
     0
 62
     7
  6
Continuous
370
    -3
390
F
347
3E
  0
ENDTAB
  0
TABLE
  2
STYLE
  5
3
330
0
100
AcDbSymbolTable
 70
     1
  0
STYLE
  5
11
330
3
100
AcDbSymbolTableRecord
100
AcDbTextStyleTableRecord
  2
Standard
 70
     0
 40
0.0
 41
1.0
 50
0.0
 71
     0
 42
0.2
  3
txt
  4

  0
ENDTAB
  0
TABLE
  2
VIEW
  5
6
330
0
100
AcDbSymbolTable
 70
     0
  0
ENDTAB
  0
TABLE
  2
UCS
  5
7
330
0
100
AcDbSymbolTable
 70
     0
  0
ENDTAB
  0
TABLE
  2
APPID
  5
9
330
0
100
AcDbSymbolTable
 70
     2
  0
APPID
  5
12
330
9
100
AcDbSymbolTableRecord
100
AcDbRegAppTableRecord
  2
ACAD
 70
     0
  0
APPID
  5
3F
330
9
100
AcDbSymbolTableRecord
100
AcDbRegAppTableRecord
  2
ODA
 70
     0
  0
ENDTAB
  0
TABLE
  2
DIMSTYLE
  5
A
330
0
100
AcDbSymbolTable
 70
     1
100
AcDbDimStyleTable
  0
DIMSTYLE
105
27
330
A
100
AcDbSymbolTableRecord
100
AcDbDimStyleTableRecord
  2
Standard
 70
     0
178
     0
340
11
  0
ENDTAB
  0
TABLE
  2
BLOCK_RECORD
  5
1
330
0
100
AcDbSymbolTable
 70
     1
  0
BLOCK_RECORD
  5
1F
330
1
100
AcDbSymbolTableRecord
100
AcDbBlockTableRecord
  2
*Model_Space
340
22
 70
     0
280
     1
281
     0
  0
BLOCK_RECORD
  5
1B
330
1
100
AcDbSymbolTableRecord
100
AcDbBlockTableRecord
  2
*Paper_Space
340
1E
 70
     0
280
     1
281
     0
  0
BLOCK_RECORD
  5
23
330
1
100
AcDbSymbolTableRecord
100
AcDbBlockTableRecord
  2
*Paper_Space0
340
26
 70
     0
280
     1
281
     0
  0
ENDTAB
  0
ENDSEC
  0
SECTION
  2
BLOCKS
  0
BLOCK
  5
20
330
1F
100
AcDbEntity
  8
0
100
AcDbBlockBegin
  2
*Model_Space
 70
     0
 10
0.0
 20
0.0
 30
0.0
  3
*Model_Space
  1

  0
ENDBLK
  5
21
330
1F
100
AcDbEntity
  8
0
100
AcDbBlockEnd
  0
BLOCK
  5
1C
330
1B
100
AcDbEntity
 67
     1
  8
0
100
AcDbBlockBegin
  2
*Paper_Space
 70
     0
 10
0.0
 20
0.0
 30
0.0
  3
*Paper_Space
  1

  0
ENDBLK
  5
1D
330
1B
100
AcDbEntity
 67
     1
  8
0
100
AcDbBlockEnd
  0
BLOCK
  5
24
330
23
100
AcDbEntity
  8
0
100
AcDbBlockBegin
  2
*Paper_Space0
 70
     0
 10
0.0
 20
0.0
 30
0.0
  3
*Paper_Space0
  1

  0
ENDBLK
  5
25
330
23
100
AcDbEntity
  8
0
100
AcDbBlockEnd
  0
ENDSEC
  0
SECTION
  2
ENTITIES
  0
SPLINE
  5
41
330
1F
100
AcDbEntity
  8
layer 1
 62
   250
100
AcDbSpline
210
0.0
220
0.0
230
1.0
 70
    11
 71
     3
 72
    48
 73
    44
 74
     0
 42
0.0000000001
 43
0.0000000001
 12
1.0
 22
0.0
 32
0.0
 13
1.0
 23
0.0
 33
0.0
 40
0.0
 40
0.0
 40
0.0
 40
0.0
 40
0.0833333333333333
 40
0.0833333333333333
 40
0.0833333333333333
 40
0.0833333333333333
 40
0.1666666666666667
 40
0.1666666666666667
 40
0.1666666666666667
 40
0.1666666666666667
 40
0.25
 40
0.25
 40
0.25
 40
0.25
 40
0.3333333333333333
 40
0.3333333333333333
 40
0.3333333333333333
 40
0.3333333333333333
 40
0.4166666666666667
 40
0.4166666666666667
 40
0.4166666666666667
 40
0.4166666666666667
 40
0.5
 40
0.5
 40
0.5
 40
0.5
 40
0.5833333333333334
 40
0.5833333333333334
 40
0.5833333333333334
 40
0.5833333333333334
 40
0.6666666666666666
 40
0.6666666666666666
 40
0.6666666666666666
 40
0.6666666666666666
 40
0.75
 40
0.75
 40
0.75
 40
0.75
 40
0.8333333333333334
 40
0.8333333333333334
 40
0.8333333333333334
 40
0.8333333333333334
 40
1.0
 40
1.0
 40
1.0
 40
1.0
 10
196.3072
 20
-114.9874
 30
0.0
 10
196.3072
 20
-114.9874
 30
0.0
 10
196.3072
 20
87.437
 30
0.0
 10
196.3072
 20
87.437
 30
0.0
 10
196.3072
 20
87.437
 30
0.0
 10
196.3072
 20
87.437
 30
0.0
 10
186.0837
 20
87.437
 30
0.0
 10
186.0837
 20
87.437
 30
0.0
 10
186.0837
 20
87.437
 30
0.0
 10
185.8323
 20
104.0675
 30
0.0
 10
177.9579
 20
112.1222
 30
0.0
 10
164.8428
 20
113.5068
 30
0.0
 10
164.8428
 20
113.5068
 30
0.0
 10
164.8428
 20
113.5068
 30
0.0
 10
167.4532
 20
118.4597
 30
0.0
 10
167.4532
 20
118.4597
 30
0.0
 10
167.4532
 20
118.4597
 30
0.0
 10
158.704
 20
118.9312
 30
0.0
 10
146.353
 20
121.1636
 30
0.0
 10
138.9821
 20
133.9758
 30
0.0
 10
138.9821
 20
133.9758
 30
0.0
 10
131.6112
 20
121.1636
 30
0.0
 10
119.2602
 20
118.9312
 30
0.0
 10
110.511
 20
118.4597
 30
0.0
 10
110.511
 20
118.4597
 30
0.0
 10
110.511
 20
118.4597
 30
0.0
 10
113.1214
 20
113.5068
 30
0.0
 10
113.1214
 20
113.5068
 30
0.0
 10
113.1214
 20
113.5068
 30
0.0
 10
100.0063
 20
112.1222
 30
0.0
 10
92.1319
 20
104.0675
 30
0.0
 10
91.8805
 20
87.437
 30
0.0
 10
91.8805
 20
87.437
 30
0.0
 10
91.8805
 20
87.437
 30
0.0
 10
81.657
 20
87.437
 30
0.0
 10
81.657
 20
87.437
 30
0.0
 10
81.657
 20
87.437
 30
0.0
 10
81.657
 20
87.437
 30
0.0
 10
81.657
 20
-114.9874
 30
0.0
 10
81.657
 20
-114.9874
 30
0.0
 10
81.657
 20
-114.9874
 30
0.0
 10
81.657
 20
-114.9874
 30
0.0
 10
196.3072
 20
-114.9874
 30
0.0
 10
196.3072
 20
-114.9874
 30
0.0
  0
SPLINE
  5
42
330
1F
100
AcDbEntity
  8
layer 1
 62
   250
100
AcDbSpline
210
0.0
220
0.0
230
1.0
 70
    11
 71
     3
 72
    20
 73
    16
 74
     0
 42
0.0000000001
 43
0.0000000001
 12
1.0
 22
0.0
 32
0.0
 13
1.0
 23
0.0
 33
0.0
 40
0.0
 40
0.0
 40
0.0
 40
0.0
 40
0.2
 40
0.2
 40
0.2
 40
0.2
 40
0.4
 40
0.4
 40
0.4
 40
0.4
 40
0.6
 40
0.6
 40
0.6
 40
0.6
 40
1.0
 40
1.0
 40
1.0
 40
1.0
 10
155.6101
 20
117.7564
 30
0.0
 10
158.8305
 20
116.5562
 30
0.0
 10
161.1237
 20
116.3893
 30
0.0
 10
163.5722
 20
116.4774
 30
0.0
 10
163.5722
 20
116.4774
 30
0.0
 10
162.9015
 20
115.0828
 30
0.0
 10
162.0911
 20
113.6891
 30
0.0
 10
161.1176
 20
112.3769
 30
0.0
 10
161.1176
 20
112.3769
 30
0.0
 10
160.6699
 20
112.4885
 30
0.0
 10
160.365
 20
112.603
 30
0.0
 10
159.7797
 20
112.7145
 30
0.0
 10
159.7797
 20
112.7145
 30
0.0
 10
159.4234
 20
115.0837
 30
0.0
 10
157.6388
 20
116.8087
 30
0.0
 10
155.6101
 20
117.7564
 30
0.0
  0
SPLINE
  5
43
330
1F
100
AcDbEntity
  8
layer 1
 62
   250
100
AcDbSpline
210
0.0
220
0.0
230
1.0
 70
    11
 71
     3
 72
    20
 73
    16
 74
     0
 42
0.0000000001
 43
0.0000000001
 12
1.0
 22
0.0
 32
0.0
 13
1.0
 23
0.0
 33
0.0
 40
0.0
 40
0.0
 40
0.0
 40
0.0
 40
0.2
 40
0.2
 40
0.2
 40
0.2
 40
0.4
 40
0.4
 40
0.4
 40
0.4
 40
0.6
 40
0.6
 40
0.6
 40
0.6
 40
1.0
 40
1.0
 40
1.0
 40
1.0
 10
152.3754
 20
118.7588
 30
0.0
 10
150.3629
 20
118.7902
 30
0.0
 10
148.9441
 20
118.3694
 30
0.0
 10
147.935
 20
117.6481
 30
0.0
 10
147.935
 20
117.6481
 30
0.0
 10
147.4793
 20
121.0168
 30
0.0
 10
144.8982
 20
122.3313
 30
0.0
 10
143.3644
 20
122.1076
 30
0.0
 10
143.3644
 20
122.1076
 30
0.0
 10
143.9087
 20
123.7196
 30
0.0
 10
142.2226
 20
124.588
 30
0.0
 10
141.8307
 20
125.7594
 30
0.0
 10
141.8307
 20
125.7594
 30
0.0
 10
144.8308
 20
122.5962
 30
0.0
 10
148.617
 20
120.3827
 30
0.0
 10
152.3754
 20
118.7588
 30
0.0
  0
SPLINE
  5
44
330
1F
100
AcDbEntity
  8
layer 1
 62
   250
100
AcDbSpline
210
0.0
220
0.0
230
1.0
 70
    11
 71
     3
 72
    20
 73
    16
 74
     0
 42
0.0000000001
 43
0.0000000001
 12
1.0
 22
0.0
 32
0.0
 13
1.0
 23
0.0
 33
0.0
 40
0.0
 40
0.0
 40
0.0
 40
0.0
 40
0.2
 40
0.2
 40
0.2
 40
0.2
 40
0.4
 40
0.4
 40
0.4
 40
0.4
 40
0.6
 40
0.6
 40
0.6
 40
0.6
 40
1.0
 40
1.0
 40
1.0
 40
1.0
 10
122.79
 20
117.6463
 30
0.0
 10
119.5695
 20
116.4461
 30
0.0
 10
117.001
 20
116.3893
 30
0.0
 10
114.5525
 20
116.4774
 30
0.0
 10
114.5525
 20
116.4774
 30
0.0
 10
115.2232
 20
115.0828
 30
0.0
 10
116.0336
 20
113.6891
 30
0.0
 10
117.0071
 20
112.3769
 30
0.0
 10
117.0071
 20
112.3769
 30
0.0
 10
117.4548
 20
112.4885
 30
0.0
 10
118.0351
 20
112.603
 30
0.0
 10
118.6204
 20
112.7145
 30
0.0
 10
118.6204
 20
112.7145
 30
0.0
 10
118.9767
 20
115.0837
 30
0.0
 10
120.7613
 20
116.6986
 30
0.0
 10
122.79
 20
117.6463
 30
0.0
  0
SPLINE
  5
45
330
1F
100
AcDbEntity
  8
layer 1
 62
   250
100
AcDbSpline
210
0.0
220
0.0
230
1.0
 70
    11
 71
     3
 72
    20
 73
    16
 74
     0
 42
0.0000000001
 43
0.0000000001
 12
1.0
 22
0.0
 32
0.0
 13
1.0
 23
0.0
 33
0.0
 40
0.0
 40
0.0
 40
0.0
 40
0.0
 40
0.2
 40
0.2
 40
0.2
 40
0.2
 40
0.4
 40
0.4
 40
0.4
 40
0.4
 40
0.6
 40
0.6
 40
0.6
 40
0.6
 40
1.0
 40
1.0
 40
1.0
 40
1.0
 10
125.7493
 20
118.7588
 30
0.0
 10
127.7619
 20
118.7902
 30
0.0
 10
129.1806
 20
118.3694
 30
0.0
 10
130.1897
 20
117.6481
 30
0.0
 10
130.1897
 20
117.6481
 30
0.0
 10
130.6454
 20
121.0168
 30
0.0
 10
133.2265
 20
122.3313
 30
0.0
 10
134.7603
 20
122.1076
 30
0.0
 10
134.7603
 20
122.1076
 30
0.0
 10
134.2161
 20
123.7196
 30
0.0
 10
135.9021
 20
124.588
 30
0.0
 10
136.2941
 20
125.7594
 30
0.0
 10
136.2941
 20
125.7594
 30
0.0
 10
133.2939
 20
122.5962
 30
0.0
 10
129.5077
 20
120.3827
 30
0.0
 10
125.7493
 20
118.7588
 30
0.0
  0
SPLINE
  5
46
330
1F
100
AcDbEntity
  8
layer 1
 62
   250
100
AcDbSpline
210
0.0
220
0.0
230
1.0
 70
    11
 71
     3
 72
    36
 73
    32
 74
     0
 42
0.0000000001
 43
0.0000000001
 12
1.0
 22
0.0
 32
0.0
 13
1.0
 23
0.0
 33
0.0
 40
0.0
 40
0.0
 40
0.0
 40
0.0
 40
0.1111111111111111
 40
0.1111111111111111
 40
0.1111111111111111
 40
0.1111111111111111
 40
0.2222222222222222
 40
0.2222222222222222
 40
0.2222222222222222
 40
0.2222222222222222
 40
0.3333333333333333
 40
0.3333333333333333
 40
0.3333333333333333
 40
0.3333333333333333
 40
0.4444444444444444
 40
0.4444444444444444
 40
0.4444444444444444
 40
0.4444444444444444
 40
0.5555555555555556
 40
0.5555555555555556
 40
0.5555555555555556
 40
0.5555555555555556
 40
0.6666666666666666
 40
0.6666666666666666
 40
0.6666666666666666
 40
0.6666666666666666
 40
0.7777777777777778
 40
0.7777777777777778
 40
0.7777777777777778
 40
0.7777777777777778
 40
1.0
 40
1.0
 40
1.0
 40
1.0
 10
146.5662
 20
109.9911
 30
0.0
 10
145.581
 20
109.2201
 30
0.0
 10
144.6601
 20
108.4491
 30
0.0
 10
143.8355
 20
107.6138
 30
0.0
 10
143.8355
 20
107.6138
 30
0.0
 10
141.5255
 20
109.6839
 30
0.0
 10
139.7683
 20
112.641
 30
0.0
 10
141.1211
 20
114.9746
 30
0.0
 10
141.1211
 20
114.9746
 30
0.0
 10
141.4793
 20
115.5925
 30
0.0
 10
144.032
 20
116.9518
 30
0.0
 10
143.9319
 20
113.7176
 30
0.0
 10
143.9319
 20
113.7176
 30
0.0
 10
145.0563
 20
113.6212
 30
0.0
 10
146.4377
 20
113.9104
 30
0.0
 10
147.0159
 20
114.842
 30
0.0
 10
147.0159
 20
114.842
 30
0.0
 10
149.8965
 20
116.0949
 30
0.0
 10
152.8734
 20
115.7736
 30
0.0
 10
153.6337
 20
112.5932
 30
0.0
 10
153.6337
 20
112.5932
 30
0.0
 10
152.3166
 20
112.6468
 30
0.0
 10
150.9352
 20
112.3148
 30
0.0
 10
150.0357
 20
111.8865
 30
0.0
 10
150.0357
 20
111.8865
 30
0.0
 10
150.5863
 20
113.6769
 30
0.0
 10
148.2335
 20
114.3461
 30
0.0
 10
146.8256
 20
113.5268
 30
0.0
 10
146.8256
 20
113.5268
 30
0.0
 10
145.4498
 20
112.7262
 30
0.0
 10
145.0376
 20
110.5815
 30
0.0
 10
146.5662
 20
109.9911
 30
0.0
  0
SPLINE
  5
47
330
1F
100
AcDbEntity
  8
layer 1
 62
   250
100
AcDbSpline
210
0.0
220
0.0
230
1.0
 70
    11
 71
     3
 72
    36
 73
    32
 74
     0
 42
0.0000000001
 43
0.0000000001
 12
1.0
 22
0.0
 32
0.0
 13
1.0
 23
0.0
 33
0.0
 40
0.0
 40
0.0
 40
0.0
 40
0.0
 40
0.1111111111111111
 40
0.1111111111111111
 40
0.1111111111111111
 40
0.1111111111111111
 40
0.2222222222222222
 40
0.2222222222222222
 40
0.2222222222222222
 40
0.2222222222222222
 40
0.3333333333333333
 40
0.3333333333333333
 40
0.3333333333333333
 40
0.3333333333333333
 40
0.4444444444444444
 40
0.4444444444444444
 40
0.4444444444444444
 40
0.4444444444444444
 40
0.5555555555555556
 40
0.5555555555555556
 40
0.5555555555555556
 40
0.5555555555555556
 40
0.6666666666666666
 40
0.6666666666666666
 40
0.6666666666666666
 40
0.6666666666666666
 40
0.7777777777777778
 40
0.7777777777777778
 40
0.7777777777777778
 40
0.7777777777777778
 40
1.0
 40
1.0
 40
1.0
 40
1.0
 10
131.5528
 20
109.9911
 30
0.0
 10
132.538
 20
109.2201
 30
0.0
 10
133.4589
 20
108.4491
 30
0.0
 10
134.2834
 20
107.6138
 30
0.0
 10
134.2834
 20
107.6138
 30
0.0
 10
136.5934
 20
109.6839
 30
0.0
 10
138.3507
 20
112.641
 30
0.0
 10
136.9978
 20
114.9746
 30
0.0
 10
136.9978
 20
114.9746
 30
0.0
 10
136.6396
 20
115.5925
 30
0.0
 10
134.087
 20
116.9518
 30
0.0
 10
134.187
 20
113.7176
 30
0.0
 10
134.187
 20
113.7176
 30
0.0
 10
133.0627
 20
113.6212
 30
0.0
 10
131.6813
 20
113.9104
 30
0.0
 10
131.103
 20
114.842
 30
0.0
 10
131.103
 20
114.842
 30
0.0
 10
128.2225
 20
116.0949
 30
0.0
 10
125.2456
 20
115.7736
 30
0.0
 10
124.4853
 20
112.5932
 30
0.0
 10
124.4853
 20
112.5932
 30
0.0
 10
125.8024
 20
112.6468
 30
0.0
 10
127.1838
 20
112.3148
 30
0.0
 10
128.0833
 20
111.8865
 30
0.0
 10
128.0833
 20
111.8865
 30
0.0
 10
127.5326
 20
113.6769
 30
0.0
 10
129.8855
 20
114.3461
 30
0.0
 10
131.2933
 20
113.5268
 30
0.0
 10
131.2933
 20
113.5268
 30
0.0
 10
132.6691
 20
112.7262
 30
0.0
 10
133.0814
 20
110.5815
 30
0.0
 10
131.5528
 20
109.9911
 30
0.0
  0
SPLINE
  5
48
330
1F
100
AcDbEntity
  8
layer 1
 62
   250
100
AcDbSpline
210
0.0
220
0.0
230
1.0
 70
    11
 71
     3
 72
    36
 73
    32
 74
     0
 42
0.0000000001
 43
0.0000000001
 12
1.0
 22
0.0
 32
0.0
 13
1.0
 23
0.0
 33
0.0
 40
0.0
 40
0.0
 40
0.0
 40
0.0
 40
0.1111111111111111
 40
0.1111111111111111
 40
0.1111111111111111
 40
0.1111111111111111
 40
0.2222222222222222
 40
0.2222222222222222
 40
0.2222222222222222
 40
0.2222222222222222
 40
0.3333333333333333
 40
0.3333333333333333
 40
0.3333333333333333
 40
0.3333333333333333
 40
0.4444444444444444
 40
0.4444444444444444
 40
0.4444444444444444
 40
0.4444444444444444
 40
0.5555555555555556
 40
0.5555555555555556
 40
0.5555555555555556
 40
0.5555555555555556
 40
0.6666666666666666
 40
0.6666666666666666
 40
0.6666666666666666
 40
0.6666666666666666
 40
0.7777777777777778
 40
0.7777777777777778
 40
0.7777777777777778
 40
0.7777777777777778
 40
1.0
 40
1.0
 40
1.0
 40
1.0
 10
145.4418
 20
105.333
 30
0.0
 10
147.2515
 20
103.1699
 30
0.0
 10
147.9048
 20
99.1756
 30
0.0
 10
147.1766
 20
97.2696
 30
0.0
 10
147.1766
 20
97.2696
 30
0.0
 10
147.9154
 20
97.7729
 30
0.0
 10
148.9113
 20
98.3404
 30
0.0
 10
149.5859
 20
98.5867
 30
0.0
 10
149.5859
 20
98.5867
 30
0.0
 10
149.6749
 20
100.9378
 30
0.0
 10
150.0382
 20
102.6243
 30
0.0
 10
151.1659
 20
104.1705
 30
0.0
 10
151.1659
 20
104.1705
 30
0.0
 10
152.3768
 20
105.8307
 30
0.0
 10
153.8646
 20
108.1941
 30
0.0
 10
154.0513
 20
110.0554
 30
0.0
 10
154.0513
 20
110.0554
 30
0.0
 10
152.8841
 20
110.2053
 30
0.0
 10
151.8454
 20
109.7448
 30
0.0
 10
150.9352
 20
109.3486
 30
0.0
 10
150.9352
 20
109.3486
 30
0.0
 10
152.7515
 20
108.6737
 30
0.0
 10
151.7338
 20
106.813
 30
0.0
 10
150.8231
 20
106.2977
 30
0.0
 10
150.8231
 20
106.2977
 30
0.0
 10
149.8537
 20
105.7491
 30
0.0
 10
147.7097
 20
105.8359
 30
0.0
 10
148.0118
 20
107.646
 30
0.0
 10
148.0118
 20
107.646
 30
0.0
 10
147.3693
 20
107.2819
 30
0.0
 10
146.2449
 20
106.1468
 30
0.0
 10
145.4418
 20
105.333
 30
0.0
  0
SPLINE
  5
49
330
1F
100
AcDbEntity
  8
layer 1
 62
   250
100
AcDbSpline
210
0.0
220
0.0
230
1.0
 70
    11
 71
     3
 72
    36
 73
    32
 74
     0
 42
0.0000000001
 43
0.0000000001
 12
1.0
 22
0.0
 32
0.0
 13
1.0
 23
0.0
 33
0.0
 40
0.0
 40
0.0
 40
0.0
 40
0.0
 40
0.1111111111111111
 40
0.1111111111111111
 40
0.1111111111111111
 40
0.1111111111111111
 40
0.2222222222222222
 40
0.2222222222222222
 40
0.2222222222222222
 40
0.2222222222222222
 40
0.3333333333333333
 40
0.3333333333333333
 40
0.3333333333333333
 40
0.3333333333333333
 40
0.4444444444444444
 40
0.4444444444444444
 40
0.4444444444444444
 40
0.4444444444444444
 40
0.5555555555555556
 40
0.5555555555555556
 40
0.5555555555555556
 40
0.5555555555555556
 40
0.6666666666666666
 40
0.6666666666666666
 40
0.6666666666666666
 40
0.6666666666666666
 40
0.7777777777777778
 40
0.7777777777777778
 40
0.7777777777777778
 40
0.7777777777777778
 40
1.0
 40
1.0
 40
1.0
 40
1.0
 10
132.656
 20
105.333
 30
0.0
 10
130.8463
 20
103.1699
 30
0.0
 10
130.1931
 20
99.1756
 30
0.0
 10
130.9213
 20
97.2696
 30
0.0
 10
130.9213
 20
97.2696
 30
0.0
 10
130.1824
 20
97.7729
 30
0.0
 10
129.1865
 20
98.3404
 30
0.0
 10
128.5119
 20
98.5867
 30
0.0
 10
128.5119
 20
98.5867
 30
0.0
 10
128.4229
 20
100.9378
 30
0.0
 10
128.0596
 20
102.6243
 30
0.0
 10
126.9319
 20
104.1705
 30
0.0
 10
126.9319
 20
104.1705
 30
0.0
 10
125.7211
 20
105.8307
 30
0.0
 10
124.2332
 20
108.1941
 30
0.0
 10
124.0465
 20
110.0554
 30
0.0
 10
124.0465
 20
110.0554
 30
0.0
 10
125.2137
 20
110.2053
 30
0.0
 10
126.2525
 20
109.7448
 30
0.0
 10
127.1626
 20
109.3486
 30
0.0
 10
127.1626
 20
109.3486
 30
0.0
 10
125.3463
 20
108.6737
 30
0.0
 10
126.364
 20
106.813
 30
0.0
 10
127.2747
 20
106.2977
 30
0.0
 10
127.2747
 20
106.2977
 30
0.0
 10
128.2441
 20
105.7491
 30
0.0
 10
130.3882
 20
105.8359
 30
0.0
 10
130.086
 20
107.646
 30
0.0
 10
130.086
 20
107.646
 30
0.0
 10
130.7285
 20
107.2819
 30
0.0
 10
131.8529
 20
106.1468
 30
0.0
 10
132.656
 20
105.333
 30
0.0
  0
SPLINE
  5
4A
330
1F
100
AcDbEntity
  8
layer 1
 62
   250
100
AcDbSpline
210
0.0
220
0.0
230
1.0
 70
    11
 71
     3
 72
    16
 73
    12
 74
     0
 42
0.0000000001
 43
0.0000000001
 12
1.0
 22
0.0
 32
0.0
 13
1.0
 23
0.0
 33
0.0
 40
0.0
 40
0.0
 40
0.0
 40
0.0
 40
0.25
 40
0.25
 40
0.25
 40
0.25
 40
0.5
 40
0.5
 40
0.5
 40
0.5
 40
1.0
 40
1.0
 40
1.0
 40
1.0
 10
160.0266
 20
99.7111
 30
0.0
 10
158.1954
 20
100.1394
 30
0.0
 10
154.8866
 20
99.9895
 30
0.0
 10
152.7663
 20
99.6147
 30
0.0
 10
152.7663
 20
99.6147
 30
0.0
 10
153.2696
 20
102.0134
 30
0.0
 10
155.7494
 20
103.3869
 30
0.0
 10
157.8742
 20
103.3091
 30
0.0
 10
157.8742
 20
103.3091
 30
0.0
 10
159.2891
 20
103.2573
 30
0.0
 10
160.9475
 20
102.1847
 30
0.0
 10
160.0266
 20
99.7111
 30
0.0
  0
SPLINE
  5
4B
330
1F
100
AcDbEntity
  8
layer 1
 62
   250
100
AcDbSpline
210
0.0
220
0.0
230
1.0
 70
    11
 71
     3
 72
    16
 73
    12
 74
     0
 42
0.0000000001
 43
0.0000000001
 12
1.0
 22
0.0
 32
0.0
 13
1.0
 23
0.0
 33
0.0
 40
0.0
 40
0.0
 40
0.0
 40
0.0
 40
0.25
 40
0.25
 40
0.25
 40
0.25
 40
0.5
 40
0.5
 40
0.5
 40
0.5
 40
1.0
 40
1.0
 40
1.0
 40
1.0
 10
118.2319
 20
99.7111
 30
0.0
 10
120.063
 20
100.1394
 30
0.0
 10
123.3719
 20
99.9895
 30
0.0
 10
125.4921
 20
99.6147
 30
0.0
 10
125.4921
 20
99.6147
 30
0.0
 10
124.9889
 20
102.0134
 30
0.0
 10
122.509
 20
103.3869
 30
0.0
 10
120.3842
 20
103.3091
 30
0.0
 10
120.3842
 20
103.3091
 30
0.0
 10
118.9694
 20
103.2573
 30
0.0
 10
117.311
 20
102.1847
 30
0.0
 10
118.2319
 20
99.7111
 30
0.0
  0
SPLINE
  5
4C
330
1F
100
AcDbEntity
  8
layer 1
 62
   250
100
AcDbSpline
210
0.0
220
0.0
230
1.0
 70
    11
 71
     3
 72
    16
 73
    12
 74
     0
 42
0.0000000001
 43
0.0000000001
 12
1.0
 22
0.0
 32
0.0
 13
1.0
 23
0.0
 33
0.0
 40
0.0
 40
0.0
 40
0.0
 40
0.0
 40
0.25
 40
0.25
 40
0.25
 40
0.25
 40
0.5
 40
0.5
 40
0.5
 40
0.5
 40
1.0
 40
1.0
 40
1.0
 40
1.0
 10
170.0175
 20
107.903
 30
0.0
 10
168.6361
 20
109.1345
 30
0.0
 10
166.2267
 20
110.5266
 30
0.0
 10
163.0785
 20
111.4367
 30
0.0
 10
163.0785
 20
111.4367
 30
0.0
 10
166.0982
 20
111.3082
 30
0.0
 10
168.7646
 20
110.8585
 30
0.0
 10
171.5595
 20
109.702
 30
0.0
 10
171.5595
 20
109.702
 30
0.0
 10
170.5957
 20
110.0768
 30
0.0
 10
169.632
 20
108.7489
 30
0.0
 10
170.0175
 20
107.903
 30
0.0
  0
SPLINE
  5
4D
330
1F
100
AcDbEntity
  8
layer 1
 62
   250
100
AcDbSpline
210
0.0
220
0.0
230
1.0
 70
    11
 71
     3
 72
    16
 73
    12
 74
     0
 42
0.0000000001
 43
0.0000000001
 12
1.0
 22
0.0
 32
0.0
 13
1.0
 23
0.0
 33
0.0
 40
0.0
 40
0.0
 40
0.0
 40
0.0
 40
0.25
 40
0.25
 40
0.25
 40
0.25
 40
0.5
 40
0.5
 40
0.5
 40
0.5
 40
1.0
 40
1.0
 40
1.0
 40
1.0
 10
108.3695
 20
107.9672
 30
0.0
 10
109.7508
 20
109.1987
 30
0.0
 10
112.2245
 20
110.5908
 30
0.0
 10
115.3727
 20
111.501
 30
0.0
 10
115.3727
 20
111.501
 30
0.0
 10
112.353
 20
111.3725
 30
0.0
 10
109.8151
 20
110.987
 30
0.0
 10
107.0202
 20
109.8305
 30
0.0
 10
107.0202
 20
109.8305
 30
0.0
 10
107.7912
 20
109.6913
 30
0.0
 10
108.4016
 20
109.1345
 30
0.0
 10
108.3695
 20
107.9672
 30
0.0
  0
SPLINE
  5
4E
330
1F
100
AcDbEntity
  8
layer 1
 62
   250
100
AcDbSpline
210
0.0
220
0.0
230
1.0
 70
    11
 71
     3
 72
    16
 73
    12
 74
     0
 42
0.0000000001
 43
0.0000000001
 12
1.0
 22
0.0
 32
0.0
 13
1.0
 23
0.0
 33
0.0
 40
0.0
 40
0.0
 40
0.0
 40
0.0
 40
0.25
 40
0.25
 40
0.25
 40
0.25
 40
0.5
 40
0.5
 40
0.5
 40
0.5
 40
1.0
 40
1.0
 40
1.0
 40
1.0
 10
172.9409
 20
105.0438
 30
0.0
 10
176.1855
 20
102.1311
 30
0.0
 10
179.5265
 20
98.8009
 30
0.0
 10
182.8675
 20
95.4384
 30
0.0
 10
182.8675
 20
95.4384
 30
0.0
 10
181.5397
 20
100.1394
 30
0.0
 10
179.6336
 20
104.4549
 30
0.0
 10
175.3181
 20
107.4853
 30
0.0
 10
175.3181
 20
107.4853
 30
0.0
 10
175.7786
 20
106.0504
 30
0.0
 10
175.0504
 20
104.4227
 30
0.0
 10
172.9409
 20
105.0438
 30
0.0
  0
SPLINE
  5
4F
330
1F
100
AcDbEntity
  8
layer 1
 62
   250
100
AcDbSpline
210
0.0
220
0.0
230
1.0
 70
    11
 71
     3
 72
    16
 73
    12
 74
     0
 42
0.0000000001
 43
0.0000000001
 12
1.0
 22
0.0
 32
0.0
 13
1.0
 23
0.0
 33
0.0
 40
0.0
 40
0.0
 40
0.0
 40
0.0
 40
0.25
 40
0.25
 40
0.25
 40
0.25
 40
0.5
 40
0.5
 40
0.5
 40
0.5
 40
1.0
 40
1.0
 40
1.0
 40
1.0
 10
105.4782
 20
105.0117
 30
0.0
 10
102.2336
 20
102.099
 30
0.0
 10
98.475
 20
98.5117
 30
0.0
 10
95.2946
 20
95.1493
 30
0.0
 10
95.2946
 20
95.1493
 30
0.0
 10
96.6224
 20
99.8503
 30
0.0
 10
98.9461
 20
104.8404
 30
0.0
 10
103.2616
 20
107.8708
 30
0.0
 10
103.2616
 20
107.8708
 30
0.0
 10
102.5441
 20
106.211
 30
0.0
 10
103.8184
 20
104.7119
 30
0.0
 10
105.4782
 20
105.0117
 30
0.0
  0
SPLINE
  5
50
330
1F
100
AcDbEntity
  8
layer 1
 62
   250
100
AcDbSpline
210
0.0
220
0.0
230
1.0
 70
    11
 71
     3
 72
    40
 73
    36
 74
     0
 42
0.0000000001
 43
0.0000000001
 12
1.0
 22
0.0
 32
0.0
 13
1.0
 23
0.0
 33
0.0
 40
0.0
 40
0.0
 40
0.0
 40
0.0
 40
0.1
 40
0.1
 40
0.1
 40
0.1
 40
0.2
 40
0.2
 40
0.2
 40
0.2
 40
0.3
 40
0.3
 40
0.3
 40
0.3
 40
0.4
 40
0.4
 40
0.4
 40
0.4
 40
0.5
 40
0.5
 40
0.5
 40
0.5
 40
0.6
 40
0.6
 40
0.6
 40
0.6
 40
0.7
 40
0.7
 40
0.7
 40
0.7
 40
0.8
 40
0.8
 40
0.8
 40
0.8
 40
1.0
 40
1.0
 40
1.0
 40
1.0
 10
166.7407
 20
97.8157
 30
0.0
 10
167.9722
 20
97.1411
 30
0.0
 10
168.9788
 20
96.4022
 30
0.0
 10
170.1138
 20
95.5348
 30
0.0
 10
170.1138
 20
95.5348
 30
0.0
 10
170.2316
 20
96.4236
 30
0.0
 10
170.2209
 20
97.0554
 30
0.0
 10
170.2102
 20
98.137
 30
0.0
 10
170.2102
 20
98.137
 30
0.0
 10
168.0472
 20
98.8544
 30
0.0
 10
166.2053
 20
100.889
 30
0.0
 10
166.6765
 20
103.2448
 30
0.0
 10
166.6765
 20
103.2448
 30
0.0
 10
168.018
 20
102.5039
 30
0.0
 10
168.6825
 20
103.1092
 30
0.0
 10
168.7117
 20
103.6471
 30
0.0
 10
168.7117
 20
103.6471
 30
0.0
 10
168.841
 20
106.0306
 30
0.0
 10
162.6658
 20
109.7251
 30
0.0
 10
159.5126
 20
110.0232
 30
0.0
 10
159.5126
 20
110.0232
 30
0.0
 10
159.4055
 20
109.3165
 30
0.0
 10
159.2984
 20
108.9952
 30
0.0
 10
159.1592
 20
108.674
 30
0.0
 10
159.1592
 20
108.674
 30
0.0
 10
163.234
 20
109.2921
 30
0.0
 10
163.8915
 20
106.5698
 30
0.0
 10
164.1971
 20
105.3608
 30
0.0
 10
164.1971
 20
105.3608
 30
0.0
 10
164.6009
 20
103.764
 30
0.0
 10
164.1657
 20
101.8497
 30
0.0
 10
163.2712
 20
100.3215
 30
0.0
 10
163.2712
 20
100.3215
 30
0.0
 10
165.1666
 20
101.071
 30
0.0
 10
167.1583
 20
99.5076
 30
0.0
 10
166.7407
 20
97.8157
 30
0.0
  0
SPLINE
  5
51
330
1F
100
AcDbEntity
  8
layer 1
 62
   250
100
AcDbSpline
210
0.0
220
0.0
230
1.0
 70
    11
 71
     3
 72
    40
 73
    36
 74
     0
 42
0.0000000001
 43
0.0000000001
 12
1.0
 22
0.0
 32
0.0
 13
1.0
 23
0.0
 33
0.0
 40
0.0
 40
0.0
 40
0.0
 40
0.0
 40
0.1
 40
0.1
 40
0.1
 40
0.1
 40
0.2
 40
0.2
 40
0.2
 40
0.2
 40
0.3
 40
0.3
 40
0.3
 40
0.3
 40
0.4
 40
0.4
 40
0.4
 40
0.4
 40
0.5
 40
0.5
 40
0.5
 40
0.5
 40
0.6
 40
0.6
 40
0.6
 40
0.6
 40
0.7
 40
0.7
 40
0.7
 40
0.7
 40
0.8
 40
0.8
 40
0.8
 40
0.8
 40
1.0
 40
1.0
 40
1.0
 40
1.0
 10
111.4856
 20
97.7836
 30
0.0
 10
110.2541
 20
97.1089
 30
0.0
 10
109.5366
 20
96.5949
 30
0.0
 10
108.4016
 20
95.7276
 30
0.0
 10
108.4016
 20
95.7276
 30
0.0
 10
108.2838
 20
96.6163
 30
0.0
 10
108.2303
 20
97.0232
 30
0.0
 10
108.241
 20
98.1048
 30
0.0
 10
108.241
 20
98.1048
 30
0.0
 10
110.404
 20
98.8223
 30
0.0
 10
112.278
 20
100.9532
 30
0.0
 10
111.8069
 20
103.3091
 30
0.0
 10
111.8069
 20
103.3091
 30
0.0
 10
110.4653
 20
102.5682
 30
0.0
 10
109.6755
 20
103.1085
 30
0.0
 10
109.6753
 20
103.6471
 30
0.0
 10
109.6753
 20
103.6471
 30
0.0
 10
109.6745
 20
105.613
 30
0.0
 10
114.9822
 20
109.5002
 30
0.0
 10
118.8744
 20
110.0232
 30
0.0
 10
118.8744
 20
110.0232
 30
0.0
 10
118.9814
 20
109.3165
 30
0.0
 10
119.0885
 20
108.9952
 30
0.0
 10
119.2277
 20
108.674
 30
0.0
 10
119.2277
 20
108.674
 30
0.0
 10
115.3778
 20
109.26
 30
0.0
 10
114.3991
 20
106.5698
 30
0.0
 10
114.0934
 20
105.3608
 30
0.0
 10
114.0934
 20
105.3608
 30
0.0
 10
113.6897
 20
103.764
 30
0.0
 10
114.2212
 20
101.8497
 30
0.0
 10
115.1157
 20
100.3215
 30
0.0
 10
115.1157
 20
100.3215
 30
0.0
 10
113.2204
 20
101.071
 30
0.0
 10
111.2286
 20
99.4755
 30
0.0
 10
111.4856
 20
97.7836
 30
0.0
  0
SPLINE
  5
52
330
1F
100
AcDbEntity
  8
layer 1
 62
   250
100
AcDbSpline
210
0.0
220
0.0
230
1.0
 70
    11
 71
     3
 72
    36
 73
    32
 74
     0
 42
0.0000000001
 43
0.0000000001
 12
1.0
 22
0.0
 32
0.0
 13
1.0
 23
0.0
 33
0.0
 40
0.0
 40
0.0
 40
0.0
 40
0.0
 40
0.1111111111111111
 40
0.1111111111111111
 40
0.1111111111111111
 40
0.1111111111111111
 40
0.2222222222222222
 40
0.2222222222222222
 40
0.2222222222222222
 40
0.2222222222222222
 40
0.3333333333333333
 40
0.3333333333333333
 40
0.3333333333333333
 40
0.3333333333333333
 40
0.4444444444444444
 40
0.4444444444444444
 40
0.4444444444444444
 40
0.4444444444444444
 40
0.5555555555555556
 40
0.5555555555555556
 40
0.5555555555555556
 40
0.5555555555555556
 40
0.6666666666666666
 40
0.6666666666666666
 40
0.6666666666666666
 40
0.6666666666666666
 40
0.7777777777777778
 40
0.7777777777777778
 40
0.7777777777777778
 40
0.7777777777777778
 40
1.0
 40
1.0
 40
1.0
 40
1.0
 10
178.3379
 20
92.7721
 30
0.0
 10
177.2563
 20
93.104
 30
0.0
 10
174.697
 20
92.665
 30
0.0
 10
174.515
 20
90.1057
 30
0.0
 10
174.515
 20
90.1057
 30
0.0
 10
173.9046
 20
91.3371
 30
0.0
 10
173.1015
 20
92.408
 30
0.0
 10
172.2341
 20
93.4146
 30
0.0
 10
172.2341
 20
93.4146
 30
0.0
 10
172.2984
 20
94.7317
 30
0.0
 10
172.4269
 20
96.1131
 30
0.0
 10
172.3947
 20
97.366
 30
0.0
 10
172.3947
 20
97.366
 30
0.0
 10
174.1063
 20
97.2776
 30
0.0
 10
177.9228
 20
96.0005
 30
0.0
 10
179.7346
 20
95.1734
 30
0.0
 10
179.7346
 20
95.1734
 30
0.0
 10
180.7172
 20
94.7248
 30
0.0
 10
182.7373
 20
94.1828
 30
0.0
 10
183.0281
 20
94.7959
 30
0.0
 10
183.0281
 20
94.7959
 30
0.0
 10
183.5635
 20
93.0183
 30
0.0
 10
183.7134
 20
90.2127
 30
0.0
 10
183.6706
 20
87.9212
 30
0.0
 10
183.6706
 20
87.9212
 30
0.0
 10
183.1185
 20
89.3512
 30
0.0
 10
181.3027
 20
90.0204
 30
0.0
 10
179.8347
 20
90.1755
 30
0.0
 10
179.8347
 20
90.1755
 30
0.0
 10
178.6112
 20
90.3048
 30
0.0
 10
177.8607
 20
91.4754
 30
0.0
 10
178.3379
 20
92.7721
 30
0.0
  0
SPLINE
  5
53
330
1F
100
AcDbEntity
  8
layer 1
 62
   250
100
AcDbSpline
210
0.0
220
0.0
230
1.0
 70
    11
 71
     3
 72
    36
 73
    32
 74
     0
 42
0.0000000001
 43
0.0000000001
 12
1.0
 22
0.0
 32
0.0
 13
1.0
 23
0.0
 33
0.0
 40
0.0
 40
0.0
 40
0.0
 40
0.0
 40
0.1111111111111111
 40
0.1111111111111111
 40
0.1111111111111111
 40
0.1111111111111111
 40
0.2222222222222222
 40
0.2222222222222222
 40
0.2222222222222222
 40
0.2222222222222222
 40
0.3333333333333333
 40
0.3333333333333333
 40
0.3333333333333333
 40
0.3333333333333333
 40
0.4444444444444444
 40
0.4444444444444444
 40
0.4444444444444444
 40
0.4444444444444444
 40
0.5555555555555556
 40
0.5555555555555556
 40
0.5555555555555556
 40
0.5555555555555556
 40
0.6666666666666666
 40
0.6666666666666666
 40
0.6666666666666666
 40
0.6666666666666666
 40
0.7777777777777778
 40
0.7777777777777778
 40
0.7777777777777778
 40
0.7777777777777778
 40
1.0
 40
1.0
 40
1.0
 40
1.0
 10
100.0491
 20
92.9006
 30
0.0
 10
101.1307
 20
93.2325
 30
0.0
 10
103.5936
 20
92.8577
 30
0.0
 10
103.9362
 20
90.3306
 30
0.0
 10
103.9362
 20
90.3306
 30
0.0
 10
104.5466
 20
91.562
 30
0.0
 10
105.3818
 20
92.408
 30
0.0
 10
106.2492
 20
93.4146
 30
0.0
 10
106.2492
 20
93.4146
 30
0.0
 10
106.0886
 20
94.7317
 30
0.0
 10
105.9601
 20
96.1131
 30
0.0
 10
105.9922
 20
97.366
 30
0.0
 10
105.9922
 20
97.366
 30
0.0
 10
104.2806
 20
97.2776
 30
0.0
 10
100.3035
 20
95.904
 30
0.0
 10
98.4917
 20
95.077
 30
0.0
 10
98.4917
 20
95.077
 30
0.0
 10
97.5092
 20
94.6285
 30
0.0
 10
95.489
 20
94.0543
 30
0.0
 10
95.1982
 20
94.6674
 30
0.0
 10
95.1982
 20
94.6674
 30
0.0
 10
94.6628
 20
92.8898
 30
0.0
 10
94.5129
 20
90.1164
 30
0.0
 10
94.5557
 20
87.8248
 30
0.0
 10
94.5557
 20
87.8248
 30
0.0
 10
95.1079
 20
89.2549
 30
0.0
 10
96.988
 20
90.0848
 30
0.0
 10
98.4559
 20
90.2398
 30
0.0
 10
98.4559
 20
90.2398
 30
0.0
 10
99.6792
 20
90.369
 30
0.0
 10
100.5905
 20
91.2184
 30
0.0
 10
100.0491
 20
92.9006
 30
0.0
  0
SPLINE
  5
54
330
1F
100
AcDbEntity
  8
layer 1
 62
   250
100
AcDbSpline
210
0.0
220
0.0
230
1.0
 70
    11
 71
     3
 72
    36
 73
    32
 74
     0
 42
0.0000000001
 43
0.0000000001
 12
1.0
 22
0.0
 32
0.0
 13
1.0
 23
0.0
 33
0.0
 40
0.0
 40
0.0
 40
0.0
 40
0.0
 40
0.1111111111111111
 40
0.1111111111111111
 40
0.1111111111111111
 40
0.1111111111111111
 40
0.2222222222222222
 40
0.2222222222222222
 40
0.2222222222222222
 40
0.2222222222222222
 40
0.3333333333333333
 40
0.3333333333333333
 40
0.3333333333333333
 40
0.3333333333333333
 40
0.4444444444444444
 40
0.4444444444444444
 40
0.4444444444444444
 40
0.4444444444444444
 40
0.5555555555555556
 40
0.5555555555555556
 40
0.5555555555555556
 40
0.5555555555555556
 40
0.6666666666666666
 40
0.6666666666666666
 40
0.6666666666666666
 40
0.6666666666666666
 40
0.7777777777777778
 40
0.7777777777777778
 40
0.7777777777777778
 40
0.7777777777777778
 40
1.0
 40
1.0
 40
1.0
 40
1.0
 10
158.1954
 20
94.3141
 30
0.0
 10
159.6303
 20
91.6477
 30
0.0
 10
155.4434
 20
92.0011
 30
0.0
 10
154.0192
 20
91.4228
 30
0.0
 10
154.0192
 20
91.4228
 30
0.0
 10
152.9484
 20
92.7827
 30
0.0
 10
152.1345
 20
94.8173
 30
0.0
 10
152.2523
 20
96.7877
 30
0.0
 10
152.2523
 20
96.7877
 30
0.0
 10
154.5439
 20
97.5372
 30
0.0
 10
157.6065
 20
97.6122
 30
0.0
 10
159.8017
 20
97.4623
 30
0.0
 10
159.8017
 20
97.4623
 30
0.0
 10
160.0051
 20
93.7251
 30
0.0
 10
164.9631
 20
93.8429
 30
0.0
 10
165.8412
 20
95.4706
 30
0.0
 10
165.8412
 20
95.4706
 30
0.0
 10
167.2119
 20
94.9458
 30
0.0
 10
168.3898
 20
94.1641
 30
0.0
 10
169.375
 20
93.0933
 30
0.0
 10
169.375
 20
93.0933
 30
0.0
 10
168.6575
 20
91.1122
 30
0.0
 10
167.0405
 20
89.9023
 30
0.0
 10
165.7127
 20
89.3026
 30
0.0
 10
165.7127
 20
89.3026
 30
0.0
 10
165.1716
 20
90.6393
 30
0.0
 10
163.9467
 20
91.3846
 30
0.0
 10
162.7893
 20
91.4871
 30
0.0
 10
162.7893
 20
91.4871
 30
0.0
 10
162.7251
 20
93.8107
 30
0.0
 10
159.6732
 20
94.721
 30
0.0
 10
158.1954
 20
94.3141
 30
0.0
  0
SPLINE
  5
55
330
1F
100
AcDbEntity
  8
layer 1
 62
   250
100
AcDbSpline
210
0.0
220
0.0
230
1.0
 70
    11
 71
     3
 72
    20
 73
    16
 74
     0
 42
0.0000000001
 43
0.0000000001
 12
1.0
 22
0.0
 32
0.0
 13
1.0
 23
0.0
 33
0.0
 40
0.0
 40
0.0
 40
0.0
 40
0.0
 40
0.2
 40
0.2
 40
0.2
 40
0.2
 40
0.4
 40
0.4
 40
0.4
 40
0.4
 40
0.6
 40
0.6
 40
0.6
 40
0.6
 40
1.0
 40
1.0
 40
1.0
 40
1.0
 10
171.1097
 20
91.1979
 30
0.0
 10
170.1888
 20
89.2597
 30
0.0
 10
168.4647
 20
87.6106
 30
0.0
 10
166.291
 20
86.8932
 30
0.0
 10
166.291
 20
86.8932
 30
0.0
 10
166.6871
 20
86.5613
 30
0.0
 10
167.0191
 20
86.1329
 30
0.0
 10
167.1262
 20
85.7688
 30
0.0
 10
167.1262
 20
85.7688
 30
0.0
 10
168.8824
 20
86.0687
 30
0.0
 10
171.5701
 20
86.0473
 30
0.0
 10
173.6797
 20
85.8973
 30
0.0
 10
173.6797
 20
85.8973
 30
0.0
 10
173.155
 20
87.6427
 30
0.0
 10
172.3733
 20
89.5488
 30
0.0
 10
171.1097
 20
91.1979
 30
0.0
  0
SPLINE
  5
56
330
1F
100
AcDbEntity
  8
layer 1
 62
   250
100
AcDbSpline
210
0.0
220
0.0
230
1.0
 70
    11
 71
     3
 72
    36
 73
    32
 74
     0
 42
0.0000000001
 43
0.0000000001
 12
1.0
 22
0.0
 32
0.0
 13
1.0
 23
0.0
 33
0.0
 40
0.0
 40
0.0
 40
0.0
 40
0.0
 40
0.1111111111111111
 40
0.1111111111111111
 40
0.1111111111111111
 40
0.1111111111111111
 40
0.2222222222222222
 40
0.2222222222222222
 40
0.2222222222222222
 40
0.2222222222222222
 40
0.3333333333333333
 40
0.3333333333333333
 40
0.3333333333333333
 40
0.3333333333333333
 40
0.4444444444444444
 40
0.4444444444444444
 40
0.4444444444444444
 40
0.4444444444444444
 40
0.5555555555555556
 40
0.5555555555555556
 40
0.5555555555555556
 40
0.5555555555555556
 40
0.6666666666666666
 40
0.6666666666666666
 40
0.6666666666666666
 40
0.6666666666666666
 40
0.7777777777777778
 40
0.7777777777777778
 40
0.7777777777777778
 40
0.7777777777777778
 40
1.0
 40
1.0
 40
1.0
 40
1.0
 10
120.3864
 20
94.4011
 30
0.0
 10
118.9515
 20
91.7347
 30
0.0
 10
122.921
 20
92.088
 30
0.0
 10
124.3452
 20
91.5098
 30
0.0
 10
124.3452
 20
91.5098
 30
0.0
 10
125.416
 20
92.8697
 30
0.0
 10
126.0124
 20
94.8173
 30
0.0
 10
125.8946
 20
96.7877
 30
0.0
 10
125.8946
 20
96.7877
 30
0.0
 10
123.603
 20
97.5372
 30
0.0
 10
120.7579
 20
97.6992
 30
0.0
 10
118.5627
 20
97.5493
 30
0.0
 10
118.5627
 20
97.5493
 30
0.0
 10
118.3592
 20
93.8121
 30
0.0
 10
113.4448
 20
93.7559
 30
0.0
 10
112.5666
 20
95.3836
 30
0.0
 10
112.5666
 20
95.3836
 30
0.0
 10
111.196
 20
94.8589
 30
0.0
 10
110.1051
 20
94.0771
 30
0.0
 10
109.1199
 20
93.0063
 30
0.0
 10
109.1199
 20
93.0063
 30
0.0
 10
109.8374
 20
91.0253
 30
0.0
 10
111.4108
 20
90.0327
 30
0.0
 10
112.7386
 20
89.433
 30
0.0
 10
112.7386
 20
89.433
 30
0.0
 10
113.2798
 20
90.7698
 30
0.0
 10
114.6786
 20
91.4715
 30
0.0
 10
115.836
 20
91.574
 30
0.0
 10
115.836
 20
91.574
 30
0.0
 10
115.9002
 20
93.8977
 30
0.0
 10
118.9086
 20
94.808
 30
0.0
 10
120.3864
 20
94.4011
 30
0.0
  0
SPLINE
  5
57
330
1F
100
AcDbEntity
  8
layer 1
 62
   250
100
AcDbSpline
210
0.0
220
0.0
230
1.0
 70
    11
 71
     3
 72
    20
 73
    16
 74
     0
 42
0.0000000001
 43
0.0000000001
 12
1.0
 22
0.0
 32
0.0
 13
1.0
 23
0.0
 33
0.0
 40
0.0
 40
0.0
 40
0.0
 40
0.0
 40
0.2
 40
0.2
 40
0.2
 40
0.2
 40
0.4
 40
0.4
 40
0.4
 40
0.4
 40
0.6
 40
0.6
 40
0.6
 40
0.6
 40
1.0
 40
1.0
 40
1.0
 40
1.0
 10
107.3416
 20
91.111
 30
0.0
 10
108.2626
 20
89.1727
 30
0.0
 10
109.8996
 20
87.6976
 30
0.0
 10
112.0734
 20
86.9802
 30
0.0
 10
112.0734
 20
86.9802
 30
0.0
 10
111.6772
 20
86.6482
 30
0.0
 10
111.3453
 20
86.2199
 30
0.0
 10
111.2382
 20
85.8558
 30
0.0
 10
111.2382
 20
85.8558
 30
0.0
 10
109.482
 20
86.1556
 30
0.0
 10
106.7942
 20
86.1342
 30
0.0
 10
104.6846
 20
85.9843
 30
0.0
 10
104.6846
 20
85.9843
 30
0.0
 10
105.2094
 20
87.7297
 30
0.0
 10
106.0781
 20
89.4619
 30
0.0
 10
107.3416
 20
91.111
 30
0.0
  0
SPLINE
  5
58
330
1F
100
AcDbEntity
  8
layer 1
 62
   250
100
AcDbSpline
210
0.0
220
0.0
230
1.0
 70
    11
 71
     3
 72
    16
 73
    12
 74
     0
 42
0.0000000001
 43
0.0000000001
 12
1.0
 22
0.0
 32
0.0
 13
1.0
 23
0.0
 33
0.0
 40
0.0
 40
0.0
 40
0.0
 40
0.0
 40
0.25
 40
0.25
 40
0.25
 40
0.25
 40
0.5
 40
0.5
 40
0.5
 40
0.5
 40
1.0
 40
1.0
 40
1.0
 40
1.0
 10
160.4893
 20
84.0871
 30
0.0
 10
157.3869
 20
83.3767
 30
0.0
 10
153.6756
 20
80.4048
 30
0.0
 10
151.791
 20
77.3024
 30
0.0
 10
151.791
 20
77.3024
 30
0.0
 10
150.8342
 20
77.9258
 30
0.0
 10
149.7034
 20
78.6361
 30
0.0
 10
148.7466
 20
79.2595
 30
0.0
 10
148.7466
 20
79.2595
 30
0.0
 10
150.3702
 20
83.8261
 30
0.0
 10
156.2561
 20
86.0007
 30
0.0
 10
160.4893
 20
84.0871
 30
0.0
  0
SPLINE
  5
59
330
1F
100
AcDbEntity
  8
layer 1
 62
   250
100
AcDbSpline
210
0.0
220
0.0
230
1.0
 70
    11
 71
     3
 72
    40
 73
    36
 74
     0
 42
0.0000000001
 43
0.0000000001
 12
1.0
 22
0.0
 32
0.0
 13
1.0
 23
0.0
 33
0.0
 40
0.0
 40
0.0
 40
0.0
 40
0.0
 40
0.1
 40
0.1
 40
0.1
 40
0.1
 40
0.2
 40
0.2
 40
0.2
 40
0.2
 40
0.3
 40
0.3
 40
0.3
 40
0.3
 40
0.4
 40
0.4
 40
0.4
 40
0.4
 40
0.5
 40
0.5
 40
0.5
 40
0.5
 40
0.6
 40
0.6
 40
0.6
 40
0.6
 40
0.7
 40
0.7
 40
0.7
 40
0.7
 40
0.8
 40
0.8
 40
0.8
 40
0.8
 40
1.0
 40
1.0
 40
1.0
 40
1.0
 10
167.7089
 20
76.1716
 30
0.0
 10
162.8668
 20
75.0408
 30
0.0
 10
159.0685
 20
74.3015
 30
0.0
 10
154.1395
 20
76.0412
 30
0.0
 10
154.1395
 20
76.0412
 30
0.0
 10
155.8212
 20
78.7376
 30
0.0
 10
158.9381
 20
81.6081
 30
0.0
 10
162.7074
 20
82.1735
 30
0.0
 10
162.7074
 20
82.1735
 30
0.0
 10
163.5627
 20
80.7092
 30
0.0
 10
163.7656
 20
79.158
 30
0.0
 10
163.8381
 20
77.6503
 30
0.0
 10
163.8381
 20
77.6503
 30
0.0
 10
165.7808
 20
77.8678
 30
0.0
 10
167.8973
 20
79.216
 30
0.0
 10
167.7089
 20
83.2173
 30
0.0
 10
167.7089
 20
83.2173
 30
0.0
 10
170.0429
 20
83.7971
 30
0.0
 10
172.0725
 20
83.5942
 30
0.0
 10
174.3196
 20
83.3042
 30
0.0
 10
174.3196
 20
83.3042
 30
0.0
 10
174.769
 20
81.0137
 30
0.0
 10
174.6095
 20
78.8101
 30
0.0
 10
174.4936
 20
76.7805
 30
0.0
 10
174.4936
 20
76.7805
 30
0.0
 10
173.6238
 20
76.8095
 30
0.0
 10
172.8844
 20
76.9254
 30
0.0
 10
172.0146
 20
76.824
 30
0.0
 10
172.0146
 20
76.824
 30
0.0
 10
172.9158
 20
78.9689
 30
0.0
 10
171.072
 20
79.5972
 30
0.0
 10
169.347
 20
79.5009
 30
0.0
 10
169.347
 20
79.5009
 30
0.0
 10
167.4343
 20
79.3943
 30
0.0
 10
166.5904
 20
77.5239
 30
0.0
 10
167.7089
 20
76.1716
 30
0.0
  0
SPLINE
  5
5A
330
1F
100
AcDbEntity
  8
layer 1
 62
   250
100
AcDbSpline
210
0.0
220
0.0
230
1.0
 70
    11
 71
     3
 72
    20
 73
    16
 74
     0
 42
0.0000000001
 43
0.0000000001
 12
1.0
 22
0.0
 32
0.0
 13
1.0
 23
0.0
 33
0.0
 40
0.0
 40
0.0
 40
0.0
 40
0.0
 40
0.2
 40
0.2
 40
0.2
 40
0.2
 40
0.4
 40
0.4
 40
0.4
 40
0.4
 40
0.6
 40
0.6
 40
0.6
 40
0.6
 40
1.0
 40
1.0
 40
1.0
 40
1.0
 10
161.1417
 20
70.0393
 30
0.0
 10
158.1262
 20
70.7352
 30
0.0
 10
154.8933
 20
70.9526
 30
0.0
 10
151.3996
 20
70.0393
 30
0.0
 10
151.3996
 20
70.0393
 30
0.0
 10
151.53
 20
71.402
 30
0.0
 10
152.0519
 20
72.5473
 30
0.0
 10
152.7043
 20
73.7361
 30
0.0
 10
152.7043
 20
73.7361
 30
0.0
 10
155.8792
 20
72.5038
 30
0.0
 10
159.3585
 20
72.1414
 30
0.0
 10
162.7509
 20
72.5183
 30
0.0
 10
162.7509
 20
72.5183
 30
0.0
 10
162.0695
 20
71.779
 30
0.0
 10
161.4751
 20
70.9091
 30
0.0
 10
161.1417
 20
70.0393
 30
0.0
  0
SPLINE
  5
5B
330
1F
100
AcDbEntity
  8
layer 1
 62
   250
100
AcDbSpline
210
0.0
220
0.0
230
1.0
 70
    11
 71
     3
 72
    16
 73
    12
 74
     0
 42
0.0000000001
 43
0.0000000001
 12
1.0
 22
0.0
 32
0.0
 13
1.0
 23
0.0
 33
0.0
 40
0.0
 40
0.0
 40
0.0
 40
0.0
 40
0.25
 40
0.25
 40
0.25
 40
0.25
 40
0.5
 40
0.5
 40
0.5
 40
0.5
 40
1.0
 40
1.0
 40
1.0
 40
1.0
 10
182.0611
 20
81.0862
 30
0.0
 10
179.9155
 20
80.7527
 30
0.0
 10
177.7264
 20
78.8536
 30
0.0
 10
176.9726
 20
76.9545
 30
0.0
 10
176.9726
 20
76.9545
 30
0.0
 10
177.1321
 20
78.3462
 30
0.0
 10
177.2916
 20
81.0862
 30
0.0
 10
176.8421
 20
82.7823
 30
0.0
 10
176.8421
 20
82.7823
 30
0.0
 10
178.8718
 20
82.5069
 30
0.0
 10
180.9013
 20
81.7095
 30
0.0
 10
182.0611
 20
81.0862
 30
0.0
  0
SPLINE
  5
5C
330
1F
100
AcDbEntity
  8
layer 1
 62
   250
100
AcDbSpline
210
0.0
220
0.0
230
1.0
 70
    11
 71
     3
 72
    16
 73
    12
 74
     0
 42
0.0000000001
 43
0.0000000001
 12
1.0
 22
0.0
 32
0.0
 13
1.0
 23
0.0
 33
0.0
 40
0.0
 40
0.0
 40
0.0
 40
0.0
 40
0.25
 40
0.25
 40
0.25
 40
0.25
 40
0.5
 40
0.5
 40
0.5
 40
0.5
 40
1.0
 40
1.0
 40
1.0
 40
1.0
 10
117.8982
 20
84.218
 30
0.0
 10
121.0007
 20
83.5076
 30
0.0
 10
124.7676
 20
80.4801
 30
0.0
 10
126.6522
 20
77.3777
 30
0.0
 10
126.6522
 20
77.3777
 30
0.0
 10
127.6368
 20
77.862
 30
0.0
 10
128.99
 20
78.6558
 30
0.0
 10
129.8078
 20
79.3904
 30
0.0
 10
129.8078
 20
79.3904
 30
0.0
 10
128.1841
 20
83.957
 30
0.0
 10
122.1314
 20
86.1316
 30
0.0
 10
117.8982
 20
84.218
 30
0.0
  0
SPLINE
  5
5D
330
1F
100
AcDbEntity
  8
layer 1
 62
   250
100
AcDbSpline
210
0.0
220
0.0
230
1.0
 70
    11
 71
     3
 72
    40
 73
    36
 74
     0
 42
0.0000000001
 43
0.0000000001
 12
1.0
 22
0.0
 32
0.0
 13
1.0
 23
0.0
 33
0.0
 40
0.0
 40
0.0
 40
0.0
 40
0.0
 40
0.1
 40
0.1
 40
0.1
 40
0.1
 40
0.2
 40
0.2
 40
0.2
 40
0.2
 40
0.3
 40
0.3
 40
0.3
 40
0.3
 40
0.4
 40
0.4
 40
0.4
 40
0.4
 40
0.5
 40
0.5
 40
0.5
 40
0.5
 40
0.6
 40
0.6
 40
0.6
 40
0.6
 40
0.7
 40
0.7
 40
0.7
 40
0.7
 40
0.8
 40
0.8
 40
0.8
 40
0.8
 40
1.0
 40
1.0
 40
1.0
 40
1.0
 10
110.7342
 20
76.2469
 30
0.0
 10
115.5763
 20
74.8659
 30
0.0
 10
119.5692
 20
74.488
 30
0.0
 10
124.4982
 20
76.2277
 30
0.0
 10
124.4982
 20
76.2277
 30
0.0
 10
122.8166
 20
78.9241
 30
0.0
 10
119.6315
 20
81.6834
 30
0.0
 10
115.8622
 20
82.2488
 30
0.0
 10
115.8622
 20
82.2488
 30
0.0
 10
115.0069
 20
80.7845
 30
0.0
 10
114.7829
 20
79.2966
 30
0.0
 10
114.7104
 20
77.7889
 30
0.0
 10
114.7104
 20
77.7889
 30
0.0
 10
112.7678
 20
78.0063
 30
0.0
 10
110.5458
 20
79.2913
 30
0.0
 10
110.7342
 20
83.2926
 30
0.0
 10
110.7342
 20
83.2926
 30
0.0
 10
108.4002
 20
83.8724
 30
0.0
 10
106.3706
 20
83.6695
 30
0.0
 10
104.1235
 20
83.3795
 30
0.0
 10
104.1235
 20
83.3795
 30
0.0
 10
103.6741
 20
81.0889
 30
0.0
 10
103.8336
 20
78.8854
 30
0.0
 10
103.9496
 20
76.8558
 30
0.0
 10
103.9496
 20
76.8558
 30
0.0
 10
104.8194
 20
76.8848
 30
0.0
 10
105.5587
 20
77.0007
 30
0.0
 10
106.4286
 20
76.8993
 30
0.0
 10
106.4286
 20
76.8993
 30
0.0
 10
105.5273
 20
79.0442
 30
0.0
 10
107.3711
 20
79.6725
 30
0.0
 10
109.0962
 20
79.5762
 30
0.0
 10
109.0962
 20
79.5762
 30
0.0
 10
111.0089
 20
79.4696
 30
0.0
 10
111.8527
 20
77.5992
 30
0.0
 10
110.7342
 20
76.2469
 30
0.0
  0
SPLINE
  5
5E
330
1F
100
AcDbEntity
  8
layer 1
 62
   250
100
AcDbSpline
210
0.0
220
0.0
230
1.0
 70
    11
 71
     3
 72
    20
 73
    16
 74
     0
 42
0.0000000001
 43
0.0000000001
 12
1.0
 22
0.0
 32
0.0
 13
1.0
 23
0.0
 33
0.0
 40
0.0
 40
0.0
 40
0.0
 40
0.0
 40
0.2
 40
0.2
 40
0.2
 40
0.2
 40
0.4
 40
0.4
 40
0.4
 40
0.4
 40
0.6
 40
0.6
 40
0.6
 40
0.6
 40
1.0
 40
1.0
 40
1.0
 40
1.0
 10
117.3015
 20
70.1146
 30
0.0
 10
120.3169
 20
70.8105
 30
0.0
 10
123.5498
 20
71.0279
 30
0.0
 10
127.0436
 20
70.1146
 30
0.0
 10
127.0436
 20
70.1146
 30
0.0
 10
126.9131
 20
71.4773
 30
0.0
 10
126.3912
 20
72.6226
 30
0.0
 10
125.7388
 20
73.8114
 30
0.0
 10
125.7388
 20
73.8114
 30
0.0
 10
122.5639
 20
72.5791
 30
0.0
 10
119.0846
 20
72.2167
 30
0.0
 10
115.6923
 20
72.5936
 30
0.0
 10
115.6923
 20
72.5936
 30
0.0
 10
116.3737
 20
71.8543
 30
0.0
 10
116.968
 20
70.9844
 30
0.0
 10
117.3015
 20
70.1146
 30
0.0
  0
SPLINE
  5
5F
330
1F
100
AcDbEntity
  8
layer 1
 62
   250
100
AcDbSpline
210
0.0
220
0.0
230
1.0
 70
    11
 71
     3
 72
    16
 73
    12
 74
     0
 42
0.0000000001
 43
0.0000000001
 12
1.0
 22
0.0
 32
0.0
 13
1.0
 23
0.0
 33
0.0
 40
0.0
 40
0.0
 40
0.0
 40
0.0
 40
0.25
 40
0.25
 40
0.25
 40
0.25
 40
0.5
 40
0.5
 40
0.5
 40
0.5
 40
1.0
 40
1.0
 40
1.0
 40
1.0
 10
96.382
 20
81.1615
 30
0.0
 10
98.5276
 20
80.828
 30
0.0
 10
100.7167
 20
78.9289
 30
0.0
 10
101.4705
 20
77.0298
 30
0.0
 10
101.4705
 20
77.0298
 30
0.0
 10
101.311
 20
78.4215
 30
0.0
 10
101.1516
 20
81.1615
 30
0.0
 10
101.601
 20
82.8576
 30
0.0
 10
101.601
 20
82.8576
 30
0.0
 10
99.5714
 20
82.5822
 30
0.0
 10
97.5418
 20
81.7848
 30
0.0
 10
96.382
 20
81.1615
 30
0.0
  0
SPLINE
  5
60
330
1F
100
AcDbEntity
  8
layer 1
 62
   250
100
AcDbSpline
210
0.0
220
0.0
230
1.0
 70
    11
 71
     3
 72
    36
 73
    32
 74
     0
 42
0.0000000001
 43
0.0000000001
 12
1.0
 22
0.0
 32
0.0
 13
1.0
 23
0.0
 33
0.0
 40
0.0
 40
0.0
 40
0.0
 40
0.0
 40
0.1111111111111111
 40
0.1111111111111111
 40
0.1111111111111111
 40
0.1111111111111111
 40
0.2222222222222222
 40
0.2222222222222222
 40
0.2222222222222222
 40
0.2222222222222222
 40
0.3333333333333333
 40
0.3333333333333333
 40
0.3333333333333333
 40
0.3333333333333333
 40
0.4444444444444444
 40
0.4444444444444444
 40
0.4444444444444444
 40
0.4444444444444444
 40
0.5555555555555556
 40
0.5555555555555556
 40
0.5555555555555556
 40
0.5555555555555556
 40
0.6666666666666666
 40
0.6666666666666666
 40
0.6666666666666666
 40
0.6666666666666666
 40
0.7777777777777778
 40
0.7777777777777778
 40
0.7777777777777778
 40
0.7777777777777778
 40
1.0
 40
1.0
 40
1.0
 40
1.0
 10
144.5371
 20
67.223
 30
0.0
 10
144.254
 20
67.0732
 30
0.0
 10
143.971
 20
66.9233
 30
0.0
 10
143.6879
 20
66.7735
 30
0.0
 10
143.6879
 20
66.7735
 30
0.0
 10
142.2228
 20
69.3375
 30
0.0
 10
140.9075
 20
72.1513
 30
0.0
 10
140.6411
 20
75.7143
 30
0.0
 10
140.6411
 20
75.7143
 30
0.0
 10
142.1062
 20
74.7736
 30
0.0
 10
144.1408
 20
75.5732
 30
0.0
 10
143.9377
 20
78.0869
 30
0.0
 10
143.9377
 20
78.0869
 30
0.0
 10
143.7846
 20
79.9812
 30
0.0
 10
142.0729
 20
81.2503
 30
0.0
 10
140.741
 20
80.3595
 30
0.0
 10
140.741
 20
80.3595
 30
0.0
 10
140.7576
 20
81.4584
 30
0.0
 10
140.7243
 20
82.6572
 30
0.0
 10
141.2405
 20
84.2555
 30
0.0
 10
141.2405
 20
84.2555
 30
0.0
 10
142.4892
 20
81.9912
 30
0.0
 10
144.1375
 20
79.8267
 30
0.0
 10
145.7358
 20
78.2617
 30
0.0
 10
145.7358
 20
78.2617
 30
0.0
 10
145.4861
 20
76.4302
 30
0.0
 10
145.4361
 20
74.7486
 30
0.0
 10
145.536
 20
73.1669
 30
0.0
 10
145.536
 20
73.1669
 30
0.0
 10
143.4881
 20
72.8839
 30
0.0
 10
142.2394
 20
69.1044
 30
0.0
 10
144.5371
 20
67.223
 30
0.0
  0
SPLINE
  5
61
330
1F
100
AcDbEntity
  8
layer 1
 62
   250
100
AcDbSpline
210
0.0
220
0.0
230
1.0
 70
    11
 71
     3
 72
    36
 73
    32
 74
     0
 42
0.0000000001
 43
0.0000000001
 12
1.0
 22
0.0
 32
0.0
 13
1.0
 23
0.0
 33
0.0
 40
0.0
 40
0.0
 40
0.0
 40
0.0
 40
0.1111111111111111
 40
0.1111111111111111
 40
0.1111111111111111
 40
0.1111111111111111
 40
0.2222222222222222
 40
0.2222222222222222
 40
0.2222222222222222
 40
0.2222222222222222
 40
0.3333333333333333
 40
0.3333333333333333
 40
0.3333333333333333
 40
0.3333333333333333
 40
0.4444444444444444
 40
0.4444444444444444
 40
0.4444444444444444
 40
0.4444444444444444
 40
0.5555555555555556
 40
0.5555555555555556
 40
0.5555555555555556
 40
0.5555555555555556
 40
0.6666666666666666
 40
0.6666666666666666
 40
0.6666666666666666
 40
0.6666666666666666
 40
0.7777777777777778
 40
0.7777777777777778
 40
0.7777777777777778
 40
0.7777777777777778
 40
1.0
 40
1.0
 40
1.0
 40
1.0
 10
133.7482
 20
67.1731
 30
0.0
 10
134.0312
 20
67.0232
 30
0.0
 10
134.447
 20
66.7849
 30
0.0
 10
134.73
 20
66.6351
 30
0.0
 10
134.73
 20
66.6351
 30
0.0
 10
135.9297
 20
69.2433
 30
0.0
 10
137.4777
 20
72.3011
 30
0.0
 10
137.4444
 20
75.6144
 30
0.0
 10
137.4444
 20
75.6144
 30
0.0
 10
136.0791
 20
74.9234
 30
0.0
 10
134.4672
 20
75.5761
 30
0.0
 10
134.3475
 20
78.0369
 30
0.0
 10
134.3475
 20
78.0369
 30
0.0
 10
134.2503
 20
80.0373
 30
0.0
 10
136.0125
 20
81.2003
 30
0.0
 10
137.3445
 20
80.3096
 30
0.0
 10
137.3445
 20
80.3096
 30
0.0
 10
137.3778
 20
81.4084
 30
0.0
 10
137.3611
 20
82.6572
 30
0.0
 10
136.8949
 20
84.1057
 30
0.0
 10
136.8949
 20
84.1057
 30
0.0
 10
135.6462
 20
81.8413
 30
0.0
 10
134.2976
 20
80.0548
 30
0.0
 10
132.6992
 20
78.4898
 30
0.0
 10
132.6992
 20
78.4898
 30
0.0
 10
132.949
 20
76.6583
 30
0.0
 10
133.0489
 20
74.6987
 30
0.0
 10
132.949
 20
73.117
 30
0.0
 10
132.949
 20
73.117
 30
0.0
 10
134.9969
 20
72.8339
 30
0.0
 10
136.0458
 20
69.0545
 30
0.0
 10
133.7482
 20
67.1731
 30
0.0
  0
SPLINE
  5
62
330
1F
100
AcDbEntity
  8
layer 1
 62
   250
100
AcDbSpline
210
0.0
220
0.0
230
1.0
 70
    11
 71
     3
 72
    16
 73
    12
 74
     0
 42
0.0000000001
 43
0.0000000001
 12
1.0
 22
0.0
 32
0.0
 13
1.0
 23
0.0
 33
0.0
 40
0.0
 40
0.0
 40
0.0
 40
0.0
 40
0.25
 40
0.25
 40
0.25
 40
0.25
 40
0.5
 40
0.5
 40
0.5
 40
0.5
 40
1.0
 40
1.0
 40
1.0
 40
1.0
 10
140.691
 20
102.5866
 30
0.0
 10
139.8086
 20
101.0216
 30
0.0
 10
139.4257
 20
99.3566
 30
0.0
 10
139.2425
 20
97.2421
 30
0.0
 10
139.2425
 20
97.2421
 30
0.0
 10
139.1093
 20
99.5065
 30
0.0
 10
138.4766
 20
101.0715
 30
0.0
 10
137.6941
 20
102.7864
 30
0.0
 10
137.6941
 20
102.7864
 30
0.0
 10
138.6598
 20
102.9363
 30
0.0
 10
139.7253
 20
102.8364
 30
0.0
 10
140.691
 20
102.5866
 30
0.0
  0
SPLINE
  5
63
330
1F
100
AcDbEntity
  8
layer 1
 62
   250
100
AcDbSpline
210
0.0
220
0.0
230
1.0
 70
    11
 71
     3
 72
    16
 73
    12
 74
     0
 42
0.0000000001
 43
0.0000000001
 12
1.0
 22
0.0
 32
0.0
 13
1.0
 23
0.0
 33
0.0
 40
0.0
 40
0.0
 40
0.0
 40
0.0
 40
0.25
 40
0.25
 40
0.25
 40
0.25
 40
0.5
 40
0.5
 40
0.5
 40
0.5
 40
1.0
 40
1.0
 40
1.0
 40
1.0
 10
143.9377
 20
96.7427
 30
0.0
 10
143.484
 20
94.8449
 30
0.0
 10
142.8222
 20
93.0132
 30
0.0
 10
141.69
 20
91.6479
 30
0.0
 10
141.69
 20
91.6479
 30
0.0
 10
141.3737
 20
94.9945
 30
0.0
 10
142.0563
 20
98.4909
 30
0.0
 10
143.1385
 20
101.288
 30
0.0
 10
143.1385
 20
101.288
 30
0.0
 10
144.0875
 20
100.4056
 30
0.0
 10
144.3687
 20
98.5457
 30
0.0
 10
143.9377
 20
96.7427
 30
0.0
  0
SPLINE
  5
64
330
1F
100
AcDbEntity
  8
layer 1
 62
   250
100
AcDbSpline
210
0.0
220
0.0
230
1.0
 70
    11
 71
     3
 72
    16
 73
    12
 74
     0
 42
0.0000000001
 43
0.0000000001
 12
1.0
 22
0.0
 32
0.0
 13
1.0
 23
0.0
 33
0.0
 40
0.0
 40
0.0
 40
0.0
 40
0.0
 40
0.25
 40
0.25
 40
0.25
 40
0.25
 40
0.5
 40
0.5
 40
0.5
 40
0.5
 40
1.0
 40
1.0
 40
1.0
 40
1.0
 10
134.3581
 20
96.7277
 30
0.0
 10
134.8282
 20
94.7612
 30
0.0
 10
135.564
 20
92.5631
 30
0.0
 10
136.7372
 20
91.1484
 30
0.0
 10
136.7372
 20
91.1484
 30
0.0
 10
137.3148
 20
94.7162
 30
0.0
 10
136.3577
 20
98.6891
 30
0.0
 10
135.2362
 20
101.5877
 30
0.0
 10
135.2362
 20
101.5877
 30
0.0
 10
134.2528
 20
100.6733
 30
0.0
 10
133.9115
 20
98.596
 30
0.0
 10
134.3581
 20
96.7277
 30
0.0
  0
SPLINE
  5
65
330
1F
100
AcDbEntity
  8
layer 1
 62
   250
100
AcDbSpline
210
0.0
220
0.0
230
1.0
 70
    11
 71
     3
 72
    20
 73
    16
 74
     0
 42
0.0000000001
 43
0.0000000001
 12
1.0
 22
0.0
 32
0.0
 13
1.0
 23
0.0
 33
0.0
 40
0.0
 40
0.0
 40
0.0
 40
0.0
 40
0.2
 40
0.2
 40
0.2
 40
0.2
 40
0.4
 40
0.4
 40
0.4
 40
0.4
 40
0.6
 40
0.6
 40
0.6
 40
0.6
 40
1.0
 40
1.0
 40
1.0
 40
1.0
 10
139.8419
 20
87.5521
 30
0.0
 10
139.5922
 20
87.1026
 30
0.0
 10
139.3924
 20
86.653
 30
0.0
 10
139.1426
 20
86.1536
 30
0.0
 10
139.1426
 20
86.1536
 30
0.0
 10
138.9761
 20
86.6364
 30
0.0
 10
138.7097
 20
87.2191
 30
0.0
 10
138.5432
 20
87.702
 30
0.0
 10
138.5432
 20
87.702
 30
0.0
 10
138.793
 20
88.3513
 30
0.0
 10
139.0927
 20
89.3503
 30
0.0
 10
139.2425
 20
90.549
 30
0.0
 10
139.2425
 20
90.549
 30
0.0
 10
139.409
 20
89.317
 30
0.0
 10
139.5256
 20
88.5344
 30
0.0
 10
139.8419
 20
87.5521
 30
0.0
  0
SPLINE
  5
66
330
1F
100
AcDbEntity
  8
layer 1
 62
   250
100
AcDbSpline
210
0.0
220
0.0
230
1.0
 70
    11
 71
     3
 72
    32
 73
    28
 74
     0
 42
0.0000000001
 43
0.0000000001
 12
1.0
 22
0.0
 32
0.0
 13
1.0
 23
0.0
 33
0.0
 40
0.0
 40
0.0
 40
0.0
 40
0.0
 40
0.125
 40
0.125
 40
0.125
 40
0.125
 40
0.25
 40
0.25
 40
0.25
 40
0.25
 40
0.375
 40
0.375
 40
0.375
 40
0.375
 40
0.5
 40
0.5
 40
0.5
 40
0.5
 40
0.625
 40
0.625
 40
0.625
 40
0.625
 40
0.75
 40
0.75
 40
0.75
 40
0.75
 40
1.0
 40
1.0
 40
1.0
 40
1.0
 10
150.6807
 20
85.8539
 30
0.0
 10
148.5663
 20
85.0214
 30
0.0
 10
147.201
 20
82.9402
 30
0.0
 10
146.4351
 20
81.2586
 30
0.0
 10
146.4351
 20
81.2586
 30
0.0
 10
144.9533
 20
82.7571
 30
0.0
 10
143.4215
 20
85.1546
 30
0.0
 10
142.4392
 20
87.5521
 30
0.0
 10
142.4392
 20
87.5521
 30
0.0
 10
142.5391
 20
87.6187
 30
0.0
 10
142.639
 20
87.6853
 30
0.0
 10
142.7389
 20
87.7519
 30
0.0
 10
142.7389
 20
87.7519
 30
0.0
 10
146.1687
 20
84.6717
 30
0.0
 10
150.8472
 20
89.8831
 30
0.0
 10
146.1354
 20
92.7468
 30
0.0
 10
146.1354
 20
92.7468
 30
0.0
 10
146.9845
 20
93.9122
 30
0.0
 10
148.1833
 20
94.9279
 30
0.0
 10
149.7317
 20
95.6438
 30
0.0
 10
149.7317
 20
95.6438
 30
0.0
 10
149.9482
 20
93.6958
 30
0.0
 10
150.5642
 20
91.9476
 30
0.0
 10
151.5798
 20
90.2493
 30
0.0
 10
151.5798
 20
90.2493
 30
0.0
 10
149.7317
 20
89.4835
 30
0.0
 10
148.8326
 20
86.7696
 30
0.0
 10
150.6807
 20
85.8539
 30
0.0
  0
SPLINE
  5
67
330
1F
100
AcDbEntity
  8
layer 1
 62
   250
100
AcDbSpline
210
0.0
220
0.0
230
1.0
 70
    11
 71
     3
 72
    32
 73
    28
 74
     0
 42
0.0000000001
 43
0.0000000001
 12
1.0
 22
0.0
 32
0.0
 13
1.0
 23
0.0
 33
0.0
 40
0.0
 40
0.0
 40
0.0
 40
0.0
 40
0.125
 40
0.125
 40
0.125
 40
0.125
 40
0.25
 40
0.25
 40
0.25
 40
0.25
 40
0.375
 40
0.375
 40
0.375
 40
0.375
 40
0.5
 40
0.5
 40
0.5
 40
0.5
 40
0.625
 40
0.625
 40
0.625
 40
0.625
 40
0.75
 40
0.75
 40
0.75
 40
0.75
 40
1.0
 40
1.0
 40
1.0
 40
1.0
 10
127.7543
 20
86.0037
 30
0.0
 10
129.719
 20
84.8715
 30
0.0
 10
131.1785
 20
82.8568
 30
0.0
 10
131.9444
 20
81.1752
 30
0.0
 10
131.9444
 20
81.1752
 30
0.0
 10
133.4262
 20
82.6736
 30
0.0
 10
134.8137
 20
84.755
 30
0.0
 10
135.7961
 20
87.1525
 30
0.0
 10
135.7961
 20
87.1525
 30
0.0
 10
135.6962
 20
87.2191
 30
0.0
 10
135.3465
 20
87.7852
 30
0.0
 10
135.2466
 20
87.8518
 30
0.0
 10
135.2466
 20
87.8518
 30
0.0
 10
131.8168
 20
84.2222
 30
0.0
 10
127.6378
 20
90.0828
 30
0.0
 10
131.8501
 20
92.6968
 30
0.0
 10
131.8501
 20
92.6968
 30
0.0
 10
131.1508
 20
93.9122
 30
0.0
 10
130.1519
 20
94.778
 30
0.0
 10
128.6035
 20
95.4939
 30
0.0
 10
128.6035
 20
95.4939
 30
0.0
 10
128.387
 20
93.5459
 30
0.0
 10
127.771
 20
92.0475
 30
0.0
 10
126.7554
 20
90.3492
 30
0.0
 10
126.7554
 20
90.3492
 30
0.0
 10
128.3537
 20
89.6333
 30
0.0
 10
129.5025
 20
87.0193
 30
0.0
 10
127.7543
 20
86.0037
 30
0.0
  0
SPLINE
  5
68
330
1F
100
AcDbEntity
  8
layer 1
 62
   250
100
AcDbSpline
210
0.0
220
0.0
230
1.0
 70
    11
 71
     3
 72
    36
 73
    32
 74
     0
 42
0.0000000001
 43
0.0000000001
 12
1.0
 22
0.0
 32
0.0
 13
1.0
 23
0.0
 33
0.0
 40
0.0
 40
0.0
 40
0.0
 40
0.0
 40
0.1111111111111111
 40
0.1111111111111111
 40
0.1111111111111111
 40
0.1111111111111111
 40
0.2222222222222222
 40
0.2222222222222222
 40
0.2222222222222222
 40
0.2222222222222222
 40
0.3333333333333333
 40
0.3333333333333333
 40
0.3333333333333333
 40
0.3333333333333333
 40
0.4444444444444444
 40
0.4444444444444444
 40
0.4444444444444444
 40
0.4444444444444444
 40
0.5555555555555556
 40
0.5555555555555556
 40
0.5555555555555556
 40
0.5555555555555556
 40
0.6666666666666666
 40
0.6666666666666666
 40
0.6666666666666666
 40
0.6666666666666666
 40
0.7777777777777778
 40
0.7777777777777778
 40
0.7777777777777778
 40
0.7777777777777778
 40
1.0
 40
1.0
 40
1.0
 40
1.0
 10
177.4032
 20
58.3322
 30
0.0
 10
176.5874
 20
60.2469
 30
0.0
 10
175.4719
 20
61.9118
 30
0.0
 10
173.9568
 20
63.327
 30
0.0
 10
173.9568
 20
63.327
 30
0.0
 10
178.0359
 20
63.2438
 30
0.0
 10
181.3658
 20
65.2084
 30
0.0
 10
182.3482
 20
69.6705
 30
0.0
 10
182.3482
 20
69.6705
 30
0.0
 10
183.1227
 20
68.7903
 30
0.0
 10
184.0986
 20
66.9827
 30
0.0
 10
184.3461
 20
65.4249
 30
0.0
 10
184.3461
 20
65.4249
 30
0.0
 10
182.5407
 20
66.2106
 30
0.0
 10
181.5653
 20
64.589
 30
0.0
 10
181.6363
 20
62.9664
 30
0.0
 10
181.6363
 20
62.9664
 30
0.0
 10
181.6743
 20
62.1005
 30
0.0
 10
182.1577
 20
59.8337
 30
0.0
 10
184.1963
 20
60.7297
 30
0.0
 10
184.1963
 20
60.7297
 30
0.0
 10
183.8459
 20
58.9482
 30
0.0
 10
183.1212
 20
57.4918
 30
0.0
 10
182.498
 20
56.2343
 30
0.0
 10
182.498
 20
56.2343
 30
0.0
 10
181.6489
 20
57.2333
 30
0.0
 10
181.2493
 20
58.482
 30
0.0
 10
181.9486
 20
59.6808
 30
0.0
 10
181.9486
 20
59.6808
 30
0.0
 10
180.5001
 20
60.3301
 30
0.0
 10
178.3523
 20
59.6808
 30
0.0
 10
177.4032
 20
58.3322
 30
0.0
  0
SPLINE
  5
69
330
1F
100
AcDbEntity
  8
layer 1
 62
   250
100
AcDbSpline
210
0.0
220
0.0
230
1.0
 70
    11
 71
     3
 72
    16
 73
    12
 74
     0
 42
0.0000000001
 43
0.0000000001
 12
1.0
 22
0.0
 32
0.0
 13
1.0
 23
0.0
 33
0.0
 40
0.0
 40
0.0
 40
0.0
 40
0.0
 40
0.25
 40
0.25
 40
0.25
 40
0.25
 40
0.5
 40
0.5
 40
0.5
 40
0.5
 40
1.0
 40
1.0
 40
1.0
 40
1.0
 10
178.7116
 20
68.3563
 30
0.0
 10
177.3563
 20
66.3986
 30
0.0
 10
174.5703
 20
65.7209
 30
0.0
 10
172.0102
 20
66.1727
 30
0.0
 10
172.0102
 20
66.1727
 30
0.0
 10
173.9428
 20
67.779
 30
0.0
 10
175.0472
 20
69.3853
 30
0.0
 10
175.6998
 20
71.6694
 30
0.0
 10
175.6998
 20
71.6694
 30
0.0
 10
175.3484
 20
69.1594
 30
0.0
 10
176.8041
 20
67.8543
 30
0.0
 10
178.7116
 20
68.3563
 30
0.0
  0
SPLINE
  5
6A
330
1F
100
AcDbEntity
  8
layer 1
 62
   250
100
AcDbSpline
210
0.0
220
0.0
230
1.0
 70
    11
 71
     3
 72
    16
 73
    12
 74
     0
 42
0.0000000001
 43
0.0000000001
 12
1.0
 22
0.0
 32
0.0
 13
1.0
 23
0.0
 33
0.0
 40
0.0
 40
0.0
 40
0.0
 40
0.0
 40
0.25
 40
0.25
 40
0.25
 40
0.25
 40
0.5
 40
0.5
 40
0.5
 40
0.5
 40
1.0
 40
1.0
 40
1.0
 40
1.0
 10
174.0152
 20
74.258
 30
0.0
 10
173.1743
 20
71.0541
 30
0.0
 10
170.9852
 20
68.7201
 30
0.0
 10
169.2311
 20
67.2124
 30
0.0
 10
169.2311
 20
67.2124
 30
0.0
 10
170.13
 20
69.9958
 30
0.0
 10
168.0713
 20
72.1269
 30
0.0
 10
165.1429
 20
71.2571
 30
0.0
 10
165.1429
 20
71.2571
 30
0.0
 10
167.1725
 20
73.4606
 30
0.0
 10
170.8548
 20
74.7944
 30
0.0
 10
174.0152
 20
74.258
 30
0.0
  0
SPLINE
  5
6B
330
1F
100
AcDbEntity
  8
layer 1
 62
   250
100
AcDbSpline
210
0.0
220
0.0
230
1.0
 70
    11
 71
     3
 72
    36
 73
    32
 74
     0
 42
0.0000000001
 43
0.0000000001
 12
1.0
 22
0.0
 32
0.0
 13
1.0
 23
0.0
 33
0.0
 40
0.0
 40
0.0
 40
0.0
 40
0.0
 40
0.1111111111111111
 40
0.1111111111111111
 40
0.1111111111111111
 40
0.1111111111111111
 40
0.2222222222222222
 40
0.2222222222222222
 40
0.2222222222222222
 40
0.2222222222222222
 40
0.3333333333333333
 40
0.3333333333333333
 40
0.3333333333333333
 40
0.3333333333333333
 40
0.4444444444444444
 40
0.4444444444444444
 40
0.4444444444444444
 40
0.4444444444444444
 40
0.5555555555555556
 40
0.5555555555555556
 40
0.5555555555555556
 40
0.5555555555555556
 40
0.6666666666666666
 40
0.6666666666666666
 40
0.6666666666666666
 40
0.6666666666666666
 40
0.7777777777777778
 40
0.7777777777777778
 40
0.7777777777777778
 40
0.7777777777777778
 40
1.0
 40
1.0
 40
1.0
 40
1.0
 10
101.0786
 20
58.2569
 30
0.0
 10
101.8944
 20
60.1716
 30
0.0
 10
103.0099
 20
61.8365
 30
0.0
 10
104.525
 20
63.2517
 30
0.0
 10
104.525
 20
63.2517
 30
0.0
 10
100.4459
 20
63.1685
 30
0.0
 10
97.116
 20
65.1331
 30
0.0
 10
96.1337
 20
69.5952
 30
0.0
 10
96.1337
 20
69.5952
 30
0.0
 10
95.3591
 20
68.715
 30
0.0
 10
94.3832
 20
66.9074
 30
0.0
 10
94.1357
 20
65.3496
 30
0.0
 10
94.1357
 20
65.3496
 30
0.0
 10
95.9411
 20
66.1353
 30
0.0
 10
96.9166
 20
64.5137
 30
0.0
 10
96.8455
 20
62.8911
 30
0.0
 10
96.8455
 20
62.8911
 30
0.0
 10
96.8075
 20
62.0252
 30
0.0
 10
96.3241
 20
59.7584
 30
0.0
 10
94.2856
 20
60.6544
 30
0.0
 10
94.2856
 20
60.6544
 30
0.0
 10
94.636
 20
58.8729
 30
0.0
 10
95.3606
 20
57.4165
 30
0.0
 10
95.9838
 20
56.159
 30
0.0
 10
95.9838
 20
56.159
 30
0.0
 10
96.8329
 20
57.158
 30
0.0
 10
97.2325
 20
58.4067
 30
0.0
 10
96.5333
 20
59.6055
 30
0.0
 10
96.5333
 20
59.6055
 30
0.0
 10
97.9818
 20
60.2548
 30
0.0
 10
100.1296
 20
59.6055
 30
0.0
 10
101.0786
 20
58.2569
 30
0.0
  0
SPLINE
  5
6C
330
1F
100
AcDbEntity
  8
layer 1
 62
   250
100
AcDbSpline
210
0.0
220
0.0
230
1.0
 70
    11
 71
     3
 72
    16
 73
    12
 74
     0
 42
0.0000000001
 43
0.0000000001
 12
1.0
 22
0.0
 32
0.0
 13
1.0
 23
0.0
 33
0.0
 40
0.0
 40
0.0
 40
0.0
 40
0.0
 40
0.25
 40
0.25
 40
0.25
 40
0.25
 40
0.5
 40
0.5
 40
0.5
 40
0.5
 40
1.0
 40
1.0
 40
1.0
 40
1.0
 10
99.7702
 20
68.281
 30
0.0
 10
101.1255
 20
66.3233
 30
0.0
 10
103.9115
 20
65.6457
 30
0.0
 10
106.4716
 20
66.0974
 30
0.0
 10
106.4716
 20
66.0974
 30
0.0
 10
104.539
 20
67.7037
 30
0.0
 10
103.4346
 20
69.31
 30
0.0
 10
102.7821
 20
71.5941
 30
0.0
 10
102.7821
 20
71.5941
 30
0.0
 10
103.1335
 20
69.0842
 30
0.0
 10
101.6777
 20
67.779
 30
0.0
 10
99.7702
 20
68.281
 30
0.0
  0
SPLINE
  5
6D
330
1F
100
AcDbEntity
  8
layer 1
 62
   250
100
AcDbSpline
210
0.0
220
0.0
230
1.0
 70
    11
 71
     3
 72
    16
 73
    12
 74
     0
 42
0.0000000001
 43
0.0000000001
 12
1.0
 22
0.0
 32
0.0
 13
1.0
 23
0.0
 33
0.0
 40
0.0
 40
0.0
 40
0.0
 40
0.0
 40
0.25
 40
0.25
 40
0.25
 40
0.25
 40
0.5
 40
0.5
 40
0.5
 40
0.5
 40
1.0
 40
1.0
 40
1.0
 40
1.0
 10
104.4667
 20
74.1827
 30
0.0
 10
105.3075
 20
70.9788
 30
0.0
 10
107.4966
 20
68.6448
 30
0.0
 10
109.2507
 20
67.1371
 30
0.0
 10
109.2507
 20
67.1371
 30
0.0
 10
108.3519
 20
69.9205
 30
0.0
 10
110.4105
 20
72.0516
 30
0.0
 10
113.3389
 20
71.1818
 30
0.0
 10
113.3389
 20
71.1818
 30
0.0
 10
111.3093
 20
73.3853
 30
0.0
 10
107.6271
 20
74.7191
 30
0.0
 10
104.4667
 20
74.1827
 30
0.0
  0
SPLINE
  5
6E
330
1F
100
AcDbEntity
  8
layer 1
 62
   250
100
AcDbSpline
210
0.0
220
0.0
230
1.0
 70
    11
 71
     3
 72
    24
 73
    20
 74
     0
 42
0.0000000001
 43
0.0000000001
 12
1.0
 22
0.0
 32
0.0
 13
1.0
 23
0.0
 33
0.0
 40
0.0
 40
0.0
 40
0.0
 40
0.0
 40
0.1666666666666667
 40
0.1666666666666667
 40
0.1666666666666667
 40
0.1666666666666667
 40
0.3333333333333333
 40
0.3333333333333333
 40
0.3333333333333333
 40
0.3333333333333333
 40
0.5
 40
0.5
 40
0.5
 40
0.5
 40
0.6666666666666666
 40
0.6666666666666666
 40
0.6666666666666666
 40
0.6666666666666666
 40
1.0
 40
1.0
 40
1.0
 40
1.0
 10
185.9401
 20
81.8344
 30
0.0
 10
185.2875
 20
82.5372
 30
0.0
 10
184.4843
 20
83.2399
 30
0.0
 10
183.6812
 20
83.7168
 30
0.0
 10
183.6812
 20
83.7168
 30
0.0
 10
184.4342
 20
84.1296
 30
0.0
 10
184.66
 20
84.6176
 30
0.0
 10
184.8859
 20
85.4069
 30
0.0
 10
184.8859
 20
85.4069
 30
0.0
 10
184.8859
 20
85.4069
 30
0.0
 10
187.5966
 20
85.4069
 30
0.0
 10
187.5966
 20
85.4069
 30
0.0
 10
187.5966
 20
85.4069
 30
0.0
 10
186.9691
 20
84.1659
 30
0.0
 10
187.0193
 20
83.0755
 30
0.0
 10
187.7472
 20
81.9097
 30
0.0
 10
187.7472
 20
81.9097
 30
0.0
 10
187.1448
 20
81.985
 30
0.0
 10
186.6178
 20
81.8344
 30
0.0
 10
185.9401
 20
81.8344
 30
0.0
  0
SPLINE
  5
6F
330
1F
100
AcDbEntity
  8
layer 1
 62
   250
100
AcDbSpline
210
0.0
220
0.0
230
1.0
 70
    11
 71
     3
 72
    16
 73
    12
 74
     0
 42
0.0000000001
 43
0.0000000001
 12
1.0
 22
0.0
 32
0.0
 13
1.0
 23
0.0
 33
0.0
 40
0.0
 40
0.0
 40
0.0
 40
0.0
 40
0.25
 40
0.25
 40
0.25
 40
0.25
 40
0.5
 40
0.5
 40
0.5
 40
0.5
 40
1.0
 40
1.0
 40
1.0
 40
1.0
 10
193.7603
 20
73.2506
 30
0.0
 10
193.0359
 20
75.7103
 30
0.0
 10
191.3328
 20
77.7182
 30
0.0
 10
190.0061
 20
78.8225
 30
0.0
 10
190.0061
 20
78.8225
 30
0.0
 10
191.3328
 20
78.9982
 30
0.0
 10
192.81
 20
79.4751
 30
0.0
 10
193.7603
 20
80.9308
 30
0.0
 10
193.7603
 20
80.9308
 30
0.0
 10
193.7603
 20
80.9308
 30
0.0
 10
193.7603
 20
73.2506
 30
0.0
 10
193.7603
 20
73.2506
 30
0.0
  0
SPLINE
  5
70
330
1F
100
AcDbEntity
  8
layer 1
 62
   250
100
AcDbSpline
210
0.0
220
0.0
230
1.0
 70
    11
 71
     3
 72
    24
 73
    20
 74
     0
 42
0.0000000001
 43
0.0000000001
 12
1.0
 22
0.0
 32
0.0
 13
1.0
 23
0.0
 33
0.0
 40
0.0
 40
0.0
 40
0.0
 40
0.0
 40
0.1666666666666667
 40
0.1666666666666667
 40
0.1666666666666667
 40
0.1666666666666667
 40
0.3333333333333333
 40
0.3333333333333333
 40
0.3333333333333333
 40
0.3333333333333333
 40
0.5
 40
0.5
 40
0.5
 40
0.5
 40
0.6666666666666666
 40
0.6666666666666666
 40
0.6666666666666666
 40
0.6666666666666666
 40
1.0
 40
1.0
 40
1.0
 40
1.0
 10
92.6801
 20
81.8344
 30
0.0
 10
93.3327
 20
82.5372
 30
0.0
 10
94.1359
 20
83.2399
 30
0.0
 10
94.939
 20
83.7168
 30
0.0
 10
94.939
 20
83.7168
 30
0.0
 10
94.186
 20
84.1296
 30
0.0
 10
93.9602
 20
84.6176
 30
0.0
 10
93.7343
 20
85.4069
 30
0.0
 10
93.7343
 20
85.4069
 30
0.0
 10
93.7343
 20
85.4069
 30
0.0
 10
91.0236
 20
85.4069
 30
0.0
 10
91.0236
 20
85.4069
 30
0.0
 10
91.0236
 20
85.4069
 30
0.0
 10
91.6511
 20
84.1659
 30
0.0
 10
91.6009
 20
83.0755
 30
0.0
 10
90.873
 20
81.9097
 30
0.0
 10
90.873
 20
81.9097
 30
0.0
 10
91.4754
 20
81.985
 30
0.0
 10
92.0024
 20
81.8344
 30
0.0
 10
92.6801
 20
81.8344
 30
0.0
  0
SPLINE
  5
71
330
1F
100
AcDbEntity
  8
layer 1
 62
   250
100
AcDbSpline
210
0.0
220
0.0
230
1.0
 70
    11
 71
     3
 72
    16
 73
    12
 74
     0
 42
0.0000000001
 43
0.0000000001
 12
1.0
 22
0.0
 32
0.0
 13
1.0
 23
0.0
 33
0.0
 40
0.0
 40
0.0
 40
0.0
 40
0.0
 40
0.25
 40
0.25
 40
0.25
 40
0.25
 40
0.5
 40
0.5
 40
0.5
 40
0.5
 40
1.0
 40
1.0
 40
1.0
 40
1.0
 10
84.8599
 20
73.2506
 30
0.0
 10
85.5843
 20
75.7103
 30
0.0
 10
87.2874
 20
77.7182
 30
0.0
 10
88.6141
 20
78.8225
 30
0.0
 10
88.6141
 20
78.8225
 30
0.0
 10
87.2874
 20
78.9982
 30
0.0
 10
85.8102
 20
79.4751
 30
0.0
 10
84.8599
 20
80.9308
 30
0.0
 10
84.8599
 20
80.9308
 30
0.0
 10
84.8599
 20
80.9308
 30
0.0
 10
84.8599
 20
73.2506
 30
0.0
 10
84.8599
 20
73.2506
 30
0.0
  0
SPLINE
  5
72
330
1F
100
AcDbEntity
  8
layer 1
 62
   250
100
AcDbSpline
210
0.0
220
0.0
230
1.0
 70
    11
 71
     3
 72
    56
 73
    52
 74
     0
 42
0.0000000001
 43
0.0000000001
 12
1.0
 22
0.0
 32
0.0
 13
1.0
 23
0.0
 33
0.0
 40
0.0
 40
0.0
 40
0.0
 40
0.0
 40
0.0714285714285714
 40
0.0714285714285714
 40
0.0714285714285714
 40
0.0714285714285714
 40
0.1428571428571428
 40
0.1428571428571428
 40
0.1428571428571428
 40
0.1428571428571428
 40
0.2142857142857143
 40
0.2142857142857143
 40
0.2142857142857143
 40
0.2142857142857143
 40
0.2857142857142857
 40
0.2857142857142857
 40
0.2857142857142857
 40
0.2857142857142857
 40
0.3571428571428572
 40
0.3571428571428572
 40
0.3571428571428572
 40
0.3571428571428572
 40
0.4285714285714285
 40
0.4285714285714285
 40
0.4285714285714285
 40
0.4285714285714285
 40
0.5
 40
0.5
 40
0.5
 40
0.5
 40
0.5714285714285714
 40
0.5714285714285714
 40
0.5714285714285714
 40
0.5714285714285714
 40
0.6428571428571429
 40
0.6428571428571429
 40
0.6428571428571429
 40
0.6428571428571429
 40
0.7142857142857143
 40
0.7142857142857143
 40
0.7142857142857143
 40
0.7142857142857143
 40
0.7857142857142857
 40
0.7857142857142857
 40
0.7857142857142857
 40
0.7857142857142857
 40
0.8571428571428571
 40
0.8571428571428571
 40
0.8571428571428571
 40
0.8571428571428571
 40
1.0
 40
1.0
 40
1.0
 40
1.0
 10
184.6218
 20
42.0857
 30
0.0
 10
185.7075
 20
42.726
 30
0.0
 10
187.5448
 20
42.9487
 30
0.0
 10
189.0481
 20
42.2527
 30
0.0
 10
189.0481
 20
42.2527
 30
0.0
 10
184.8776
 20
46.3788
 30
0.0
 10
184.9303
 20
50.3575
 30
0.0
 10
185.4781
 20
54.0845
 30
0.0
 10
185.4781
 20
54.0845
 30
0.0
 10
186.0015
 20
57.6458
 30
0.0
 10
190.1259
 20
60.8347
 30
0.0
 10
190.8854
 20
63.2984
 30
0.0
 10
190.8854
 20
63.2984
 30
0.0
 10
189.7614
 20
62.973
 30
0.0
 10
187.4927
 20
63.24
 30
0.0
 10
188.0068
 20
66.8663
 30
0.0
 10
188.0068
 20
66.8663
 30
0.0
 10
188.4279
 20
69.8366
 30
0.0
 10
190.7679
 20
70.1465
 30
0.0
 10
191.3029
 20
69.3114
 30
0.0
 10
191.3029
 20
69.3114
 30
0.0
 10
191.1637
 20
73.682
 30
0.0
 10
188.5192
 20
76.4658
 30
0.0
 10
186.125
 20
77.8299
 30
0.0
 10
186.125
 20
77.8299
 30
0.0
 10
184.2877
 20
77.7464
 30
0.0
 10
183.3691
 20
75.241
 30
0.0
 10
183.1185
 20
73.5707
 30
0.0
 10
183.1185
 20
73.5707
 30
0.0
 10
183.3691
 20
73.2366
 30
0.0
 10
183.6196
 20
72.9026
 30
0.0
 10
183.8702
 20
72.5685
 30
0.0
 10
183.8702
 20
72.5685
 30
0.0
 10
186.0694
 20
74.3223
 30
0.0
 10
188.6862
 20
74.0718
 30
0.0
 10
189.4656
 20
70.8147
 30
0.0
 10
189.4656
 20
70.8147
 30
0.0
 10
187.0907
 20
70.1479
 30
0.0
 10
187.0501
 20
67.6351
 30
0.0
 10
187.4226
 20
64.8764
 30
0.0
 10
187.4226
 20
64.8764
 30
0.0
 10
187.8874
 20
61.4349
 30
0.0
 10
186.4225
 20
56.5628
 30
0.0
 10
184.4548
 20
53.9448
 30
0.0
 10
184.4548
 20
53.9448
 30
0.0
 10
185.3191
 20
52.3845
 30
0.0
 10
184.6519
 20
50.4349
 30
0.0
 10
184.0372
 20
49.5185
 30
0.0
 10
184.0372
 20
49.5185
 30
0.0
 10
185.8188
 20
46.9573
 30
0.0
 10
184.6775
 20
44.5633
 30
0.0
 10
184.6218
 20
42.0857
 30
0.0
  0
SPLINE
  5
73
330
1F
100
AcDbEntity
  8
layer 1
 62
   250
100
AcDbSpline
210
0.0
220
0.0
230
1.0
 70
    11
 71
     3
 72
    56
 73
    52
 74
     0
 42
0.0000000001
 43
0.0000000001
 12
1.0
 22
0.0
 32
0.0
 13
1.0
 23
0.0
 33
0.0
 40
0.0
 40
0.0
 40
0.0
 40
0.0
 40
0.0714285714285714
 40
0.0714285714285714
 40
0.0714285714285714
 40
0.0714285714285714
 40
0.1428571428571428
 40
0.1428571428571428
 40
0.1428571428571428
 40
0.1428571428571428
 40
0.2142857142857143
 40
0.2142857142857143
 40
0.2142857142857143
 40
0.2142857142857143
 40
0.2857142857142857
 40
0.2857142857142857
 40
0.2857142857142857
 40
0.2857142857142857
 40
0.3571428571428572
 40
0.3571428571428572
 40
0.3571428571428572
 40
0.3571428571428572
 40
0.4285714285714285
 40
0.4285714285714285
 40
0.4285714285714285
 40
0.4285714285714285
 40
0.5
 40
0.5
 40
0.5
 40
0.5
 40
0.5714285714285714
 40
0.5714285714285714
 40
0.5714285714285714
 40
0.5714285714285714
 40
0.6428571428571429
 40
0.6428571428571429
 40
0.6428571428571429
 40
0.6428571428571429
 40
0.7142857142857143
 40
0.7142857142857143
 40
0.7142857142857143
 40
0.7142857142857143
 40
0.7857142857142857
 40
0.7857142857142857
 40
0.7857142857142857
 40
0.7857142857142857
 40
0.8571428571428571
 40
0.8571428571428571
 40
0.8571428571428571
 40
0.8571428571428571
 40
1.0
 40
1.0
 40
1.0
 40
1.0
 10
93.925
 20
42.0857
 30
0.0
 10
92.8394
 20
42.726
 30
0.0
 10
91.002
 20
42.9487
 30
0.0
 10
89.4988
 20
42.2527
 30
0.0
 10
89.4988
 20
42.2527
 30
0.0
 10
93.6693
 20
46.3788
 30
0.0
 10
93.6165
 20
50.3575
 30
0.0
 10
93.0688
 20
54.0845
 30
0.0
 10
93.0688
 20
54.0845
 30
0.0
 10
92.5454
 20
57.6458
 30
0.0
 10
88.4209
 20
60.8347
 30
0.0
 10
87.6615
 20
63.2984
 30
0.0
 10
87.6615
 20
63.2984
 30
0.0
 10
88.7854
 20
62.973
 30
0.0
 10
91.0541
 20
63.24
 30
0.0
 10
90.5401
 20
66.8663
 30
0.0
 10
90.5401
 20
66.8663
 30
0.0
 10
90.119
 20
69.8366
 30
0.0
 10
87.7789
 20
70.1465
 30
0.0
 10
87.2439
 20
69.3114
 30
0.0
 10
87.2439
 20
69.3114
 30
0.0
 10
87.3831
 20
73.682
 30
0.0
 10
90.0277
 20
76.4658
 30
0.0
 10
92.4218
 20
77.8299
 30
0.0
 10
92.4218
 20
77.8299
 30
0.0
 10
94.2591
 20
77.7464
 30
0.0
 10
95.1778
 20
75.241
 30
0.0
 10
95.4283
 20
73.5707
 30
0.0
 10
95.4283
 20
73.5707
 30
0.0
 10
95.1778
 20
73.2366
 30
0.0
 10
94.9272
 20
72.9026
 30
0.0
 10
94.6767
 20
72.5685
 30
0.0
 10
94.6767
 20
72.5685
 30
0.0
 10
92.4774
 20
74.3223
 30
0.0
 10
89.8606
 20
74.0718
 30
0.0
 10
89.0812
 20
70.8147
 30
0.0
 10
89.0812
 20
70.8147
 30
0.0
 10
91.4561
 20
70.1479
 30
0.0
 10
91.4968
 20
67.6351
 30
0.0
 10
91.1242
 20
64.8764
 30
0.0
 10
91.1242
 20
64.8764
 30
0.0
 10
90.6594
 20
61.4349
 30
0.0
 10
92.1243
 20
56.5628
 30
0.0
 10
94.0921
 20
53.9448
 30
0.0
 10
94.0921
 20
53.9448
 30
0.0
 10
93.2277
 20
52.3845
 30
0.0
 10
93.8949
 20
50.4349
 30
0.0
 10
94.5096
 20
49.5185
 30
0.0
 10
94.5096
 20
49.5185
 30
0.0
 10
92.728
 20
46.9573
 30
0.0
 10
93.8693
 20
44.5633
 30
0.0
 10
93.925
 20
42.0857
 30
0.0
  0
SPLINE
  5
74
330
1F
100
AcDbEntity
  8
layer 1
 62
   250
100
AcDbSpline
210
0.0
220
0.0
230
1.0
 70
    11
 71
     3
 72
    16
 73
    12
 74
     0
 42
0.0000000001
 43
0.0000000001
 12
1.0
 22
0.0
 32
0.0
 13
1.0
 23
0.0
 33
0.0
 40
0.0
 40
0.0
 40
0.0
 40
0.0
 40
0.25
 40
0.25
 40
0.25
 40
0.25
 40
0.5
 40
0.5
 40
0.5
 40
0.5
 40
1.0
 40
1.0
 40
1.0
 40
1.0
 10
190.5513
 20
49.435
 30
0.0
 10
190.6596
 20
45.3254
 30
0.0
 10
193.136
 20
44.2014
 30
0.0
 10
193.7603
 20
42.1692
 30
0.0
 10
193.7603
 20
42.1692
 30
0.0
 10
193.7603
 20
42.1692
 30
0.0
 10
193.7603
 20
55.0305
 30
0.0
 10
193.7603
 20
55.0305
 30
0.0
 10
193.7603
 20
55.0305
 30
0.0
 10
191.4289
 20
53.9625
 30
0.0
 10
190.4926
 20
51.6655
 30
0.0
 10
190.5513
 20
49.435
 30
0.0
  0
SPLINE
  5
75
330
1F
100
AcDbEntity
  8
layer 1
 62
   250
100
AcDbSpline
210
0.0
220
0.0
230
1.0
 70
    11
 71
     3
 72
    16
 73
    12
 74
     0
 42
0.0000000001
 43
0.0000000001
 12
1.0
 22
0.0
 32
0.0
 13
1.0
 23
0.0
 33
0.0
 40
0.0
 40
0.0
 40
0.0
 40
0.0
 40
0.25
 40
0.25
 40
0.25
 40
0.25
 40
0.5
 40
0.5
 40
0.5
 40
0.5
 40
1.0
 40
1.0
 40
1.0
 40
1.0
 10
88.0689
 20
49.435
 30
0.0
 10
87.9606
 20
45.3254
 30
0.0
 10
85.4842
 20
44.2014
 30
0.0
 10
84.8599
 20
42.1692
 30
0.0
 10
84.8599
 20
42.1692
 30
0.0
 10
84.8599
 20
42.1692
 30
0.0
 10
84.8599
 20
55.0305
 30
0.0
 10
84.8599
 20
55.0305
 30
0.0
 10
84.8599
 20
55.0305
 30
0.0
 10
87.1913
 20
53.9625
 30
0.0
 10
88.1276
 20
51.6655
 30
0.0
 10
88.0689
 20
49.435
 30
0.0
  0
SPLINE
  5
76
330
1F
100
AcDbEntity
  8
layer 1
 62
   250
100
AcDbSpline
210
0.0
220
0.0
230
1.0
 70
    11
 71
     3
 72
    20
 73
    16
 74
     0
 42
0.0000000001
 43
0.0000000001
 12
1.0
 22
0.0
 32
0.0
 13
1.0
 23
0.0
 33
0.0
 40
0.0
 40
0.0
 40
0.0
 40
0.0
 40
0.2
 40
0.2
 40
0.2
 40
0.2
 40
0.4
 40
0.4
 40
0.4
 40
0.4
 40
0.6
 40
0.6
 40
0.6
 40
0.6
 40
1.0
 40
1.0
 40
1.0
 40
1.0
 10
193.7603
 20
24.4403
 30
0.0
 10
192.6747
 20
30.1608
 30
0.0
 10
186.9763
 20
36.0572
 30
0.0
 10
183.9227
 20
37.6362
 30
0.0
 10
183.9227
 20
37.6362
 30
0.0
 10
185.4151
 20
38.7413
 30
0.0
 10
187.5494
 20
37.6925
 30
0.0
 10
188.6055
 20
35.1023
 30
0.0
 10
188.6055
 20
35.1023
 30
0.0
 10
189.6042
 20
32.653
 30
0.0
 10
193.0191
 20
31.9899
 30
0.0
 10
193.7603
 20
32.824
 30
0.0
 10
193.7603
 20
32.824
 30
0.0
 10
193.7603
 20
32.824
 30
0.0
 10
193.7603
 20
24.4403
 30
0.0
 10
193.7603
 20
24.4403
 30
0.0
  0
SPLINE
  5
77
330
1F
100
AcDbEntity
  8
layer 1
 62
   250
100
AcDbSpline
210
0.0
220
0.0
230
1.0
 70
    11
 71
     3
 72
    20
 73
    16
 74
     0
 42
0.0000000001
 43
0.0000000001
 12
1.0
 22
0.0
 32
0.0
 13
1.0
 23
0.0
 33
0.0
 40
0.0
 40
0.0
 40
0.0
 40
0.0
 40
0.2
 40
0.2
 40
0.2
 40
0.2
 40
0.4
 40
0.4
 40
0.4
 40
0.4
 40
0.6
 40
0.6
 40
0.6
 40
0.6
 40
1.0
 40
1.0
 40
1.0
 40
1.0
 10
84.8599
 20
27.0344
 30
0.0
 10
86.3346
 20
31.9969
 30
0.0
 10
91.4935
 20
36.0572
 30
0.0
 10
94.5471
 20
37.6362
 30
0.0
 10
94.5471
 20
37.6362
 30
0.0
 10
93.0547
 20
38.7413
 30
0.0
 10
90.8452
 20
37.8428
 30
0.0
 10
89.7891
 20
35.2527
 30
0.0
 10
89.7891
 20
35.2527
 30
0.0
 10
88.7905
 20
32.8034
 30
0.0
 10
85.6011
 20
31.9899
 30
0.0
 10
84.8599
 20
32.824
 30
0.0
 10
84.8599
 20
32.824
 30
0.0
 10
84.8599
 20
32.824
 30
0.0
 10
84.8599
 20
27.0344
 30
0.0
 10
84.8599
 20
27.0344
 30
0.0
  0
SPLINE
  5
78
330
1F
100
AcDbEntity
  8
layer 1
 62
   250
100
AcDbSpline
210
0.0
220
0.0
230
1.0
 70
    11
 71
     3
 72
    52
 73
    48
 74
     0
 42
0.0000000001
 43
0.0000000001
 12
1.0
 22
0.0
 32
0.0
 13
1.0
 23
0.0
 33
0.0
 40
0.0
 40
0.0
 40
0.0
 40
0.0
 40
0.0769230769230769
 40
0.0769230769230769
 40
0.0769230769230769
 40
0.0769230769230769
 40
0.1538461538461539
 40
0.1538461538461539
 40
0.1538461538461539
 40
0.1538461538461539
 40
0.2307692307692308
 40
0.2307692307692308
 40
0.2307692307692308
 40
0.2307692307692308
 40
0.3076923076923077
 40
0.3076923076923077
 40
0.3076923076923077
 40
0.3076923076923077
 40
0.3846153846153846
 40
0.3846153846153846
 40
0.3846153846153846
 40
0.3846153846153846
 40
0.4615384615384616
 40
0.4615384615384616
 40
0.4615384615384616
 40
0.4615384615384616
 40
0.5384615384615384
 40
0.5384615384615384
 40
0.5384615384615384
 40
0.5384615384615384
 40
0.6153846153846154
 40
0.6153846153846154
 40
0.6153846153846154
 40
0.6153846153846154
 40
0.6923076923076923
 40
0.6923076923076923
 40
0.6923076923076923
 40
0.6923076923076923
 40
0.7692307692307693
 40
0.7692307692307693
 40
0.7692307692307693
 40
0.7692307692307693
 40
0.8461538461538461
 40
0.8461538461538461
 40
0.8461538461538461
 40
0.8461538461538461
 40
1.0
 40
1.0
 40
1.0
 40
1.0
 10
142.945
 20
47.9009
 30
0.0
 10
142.5763
 20
48.9774
 30
0.0
 10
141.7211
 20
49.5673
 30
0.0
 10
140.6446
 20
49.4493
 30
0.0
 10
140.6446
 20
49.4493
 30
0.0
 10
140.4529
 20
51.3958
 30
0.0
 10
140.3939
 20
53.5635
 30
0.0
 10
140.4676
 20
55.5542
 30
0.0
 10
140.4676
 20
55.5542
 30
0.0
 10
142.9648
 20
54.7217
 30
0.0
 10
144.0707
 20
55.6464
 30
0.0
 10
144.8199
 20
57.0718
 30
0.0
 10
144.8199
 20
57.0718
 30
0.0
 10
145.7241
 20
58.7921
 30
0.0
 10
145.7709
 20
61.4355
 30
0.0
 10
144.7146
 20
63.9596
 30
0.0
 10
144.7146
 20
63.9596
 30
0.0
 10
145.7173
 20
64.8001
 30
0.0
 10
146.8527
 20
65.5522
 30
0.0
 10
148.0325
 20
66.083
 30
0.0
 10
148.0325
 20
66.083
 30
0.0
 10
148.1799
 20
65.9208
 30
0.0
 10
148.3273
 20
65.7586
 30
0.0
 10
148.4748
 20
65.5964
 30
0.0
 10
148.4748
 20
65.5964
 30
0.0
 10
148.2619
 20
62.5572
 30
0.0
 10
149.0483
 20
59.7096
 30
0.0
 10
150.1559
 20
57.191
 30
0.0
 10
150.1559
 20
57.191
 30
0.0
 10
150.0232
 20
57.1026
 30
0.0
 10
149.802
 20
56.9699
 30
0.0
 10
149.6693
 20
56.8814
 30
0.0
 10
149.6693
 20
56.8814
 30
0.0
 10
148.4896
 20
58.238
 30
0.0
 10
146.2924
 20
57.6039
 30
0.0
 10
145.5551
 20
56.2178
 30
0.0
 10
145.5551
 20
56.2178
 30
0.0
 10
147.4278
 20
55.6869
 30
0.0
 10
146.9447
 20
53.5522
 30
0.0
 10
146.1633
 20
52.5957
 30
0.0
 10
146.1633
 20
52.5957
 30
0.0
 10
145.2646
 20
51.4957
 30
0.0
 10
144.8325
 20
50.3561
 30
0.0
 10
144.803
 20
49.1396
 30
0.0
 10
144.803
 20
49.1396
 30
0.0
 10
144.0804
 20
48.9332
 30
0.0
 10
143.5791
 20
48.3728
 30
0.0
 10
142.945
 20
47.9009
 30
0.0
  0
SPLINE
  5
79
330
1F
100
AcDbEntity
  8
layer 1
 62
   250
100
AcDbSpline
210
0.0
220
0.0
230
1.0
 70
    11
 71
     3
 72
    52
 73
    48
 74
     0
 42
0.0000000001
 43
0.0000000001
 12
1.0
 22
0.0
 32
0.0
 13
1.0
 23
0.0
 33
0.0
 40
0.0
 40
0.0
 40
0.0
 40
0.0
 40
0.0769230769230769
 40
0.0769230769230769
 40
0.0769230769230769
 40
0.0769230769230769
 40
0.1538461538461539
 40
0.1538461538461539
 40
0.1538461538461539
 40
0.1538461538461539
 40
0.2307692307692308
 40
0.2307692307692308
 40
0.2307692307692308
 40
0.2307692307692308
 40
0.3076923076923077
 40
0.3076923076923077
 40
0.3076923076923077
 40
0.3076923076923077
 40
0.3846153846153846
 40
0.3846153846153846
 40
0.3846153846153846
 40
0.3846153846153846
 40
0.4615384615384616
 40
0.4615384615384616
 40
0.4615384615384616
 40
0.4615384615384616
 40
0.5384615384615384
 40
0.5384615384615384
 40
0.5384615384615384
 40
0.5384615384615384
 40
0.6153846153846154
 40
0.6153846153846154
 40
0.6153846153846154
 40
0.6153846153846154
 40
0.6923076923076923
 40
0.6923076923076923
 40
0.6923076923076923
 40
0.6923076923076923
 40
0.7692307692307693
 40
0.7692307692307693
 40
0.7692307692307693
 40
0.7692307692307693
 40
0.8461538461538461
 40
0.8461538461538461
 40
0.8461538461538461
 40
0.8461538461538461
 40
1.0
 40
1.0
 40
1.0
 40
1.0
 10
135.0962
 20
47.8567
 30
0.0
 10
135.4649
 20
48.9332
 30
0.0
 10
136.4529
 20
49.523
 30
0.0
 10
137.5294
 20
49.405
 30
0.0
 10
137.5294
 20
49.405
 30
0.0
 10
137.7211
 20
51.3515
 30
0.0
 10
137.7358
 20
53.5192
 30
0.0
 10
137.6621
 20
55.51
 30
0.0
 10
137.6621
 20
55.51
 30
0.0
 10
135.1649
 20
54.6775
 30
0.0
 10
134.1475
 20
55.6465
 30
0.0
 10
133.3983
 20
57.0718
 30
0.0
 10
133.3983
 20
57.0718
 30
0.0
 10
132.4941
 20
58.7921
 30
0.0
 10
132.5357
 20
61.3912
 30
0.0
 10
133.5921
 20
63.9153
 30
0.0
 10
133.5921
 20
63.9153
 30
0.0
 10
132.5894
 20
64.7559
 30
0.0
 10
131.5424
 20
65.5522
 30
0.0
 10
130.3627
 20
66.083
 30
0.0
 10
130.3627
 20
66.083
 30
0.0
 10
130.2153
 20
65.9208
 30
0.0
 10
130.0678
 20
65.7586
 30
0.0
 10
129.9203
 20
65.5964
 30
0.0
 10
129.9203
 20
65.5964
 30
0.0
 10
130.1332
 20
62.5572
 30
0.0
 10
129.5238
 20
59.6654
 30
0.0
 10
128.2835
 20
57.1468
 30
0.0
 10
128.2835
 20
57.1468
 30
0.0
 10
128.4162
 20
57.0583
 30
0.0
 10
128.4604
 20
57.0141
 30
0.0
 10
128.5932
 20
56.9256
 30
0.0
 10
128.5932
 20
56.9256
 30
0.0
 10
130.0383
 20
58.0168
 30
0.0
 10
131.6162
 20
57.4712
 30
0.0
 10
132.3534
 20
56.0851
 30
0.0
 10
132.3534
 20
56.0851
 30
0.0
 10
130.4807
 20
55.5542
 30
0.0
 10
131.1409
 20
53.5521
 30
0.0
 10
131.9222
 20
52.5957
 30
0.0
 10
131.9222
 20
52.5957
 30
0.0
 10
132.8208
 20
51.4958
 30
0.0
 10
133.1203
 20
50.3119
 30
0.0
 10
133.1497
 20
49.0954
 30
0.0
 10
133.1497
 20
49.0954
 30
0.0
 10
133.8723
 20
48.889
 30
0.0
 10
134.4622
 20
48.3286
 30
0.0
 10
135.0962
 20
47.8567
 30
0.0
  0
SPLINE
  5
7A
330
1F
100
AcDbEntity
  8
layer 1
 62
   250
100
AcDbSpline
210
0.0
220
0.0
230
1.0
 70
    11
 71
     3
 72
    20
 73
    16
 74
     0
 42
0.0000000001
 43
0.0000000001
 12
1.0
 22
0.0
 32
0.0
 13
1.0
 23
0.0
 33
0.0
 40
0.0
 40
0.0
 40
0.0
 40
0.0
 40
0.2
 40
0.2
 40
0.2
 40
0.2
 40
0.4
 40
0.4
 40
0.4
 40
0.4
 40
0.6
 40
0.6
 40
0.6
 40
0.6
 40
1.0
 40
1.0
 40
1.0
 40
1.0
 10
160.3308
 20
67.5871
 30
0.0
 10
159.9916
 20
66.4074
 30
0.0
 10
159.8736
 20
65.2277
 30
0.0
 10
159.8884
 20
64.0923
 30
0.0
 10
159.8884
 20
64.0923
 30
0.0
 10
157.4111
 20
63.9596
 30
0.0
 10
153.7392
 20
64.4904
 30
0.0
 10
150.9964
 20
66.6581
 30
0.0
 10
150.9964
 20
66.6581
 30
0.0
 10
150.9964
 20
66.8498
 30
0.0
 10
150.9964
 20
67.13
 30
0.0
 10
150.9964
 20
67.3217
 30
0.0
 10
150.9964
 20
67.3217
 30
0.0
 10
152.9725
 20
68.2654
 30
0.0
 10
158.0009
 20
68.5456
 30
0.0
 10
160.3308
 20
67.5871
 30
0.0
  0
SPLINE
  5
7B
330
1F
100
AcDbEntity
  8
layer 1
 62
   250
100
AcDbSpline
210
0.0
220
0.0
230
1.0
 70
    11
 71
     3
 72
    20
 73
    16
 74
     0
 42
0.0000000001
 43
0.0000000001
 12
1.0
 22
0.0
 32
0.0
 13
1.0
 23
0.0
 33
0.0
 40
0.0
 40
0.0
 40
0.0
 40
0.0
 40
0.2
 40
0.2
 40
0.2
 40
0.2
 40
0.4
 40
0.4
 40
0.4
 40
0.4
 40
0.6
 40
0.6
 40
0.6
 40
0.6
 40
1.0
 40
1.0
 40
1.0
 40
1.0
 10
118.1271
 20
67.5871
 30
0.0
 10
118.4663
 20
66.4074
 30
0.0
 10
118.5843
 20
65.2277
 30
0.0
 10
118.5695
 20
64.0923
 30
0.0
 10
118.5695
 20
64.0923
 30
0.0
 10
121.0469
 20
63.9596
 30
0.0
 10
124.7187
 20
64.4904
 30
0.0
 10
127.4615
 20
66.6581
 30
0.0
 10
127.4615
 20
66.6581
 30
0.0
 10
127.4615
 20
66.8498
 30
0.0
 10
127.4615
 20
67.13
 30
0.0
 10
127.4615
 20
67.3217
 30
0.0
 10
127.4615
 20
67.3217
 30
0.0
 10
125.4855
 20
68.2654
 30
0.0
 10
120.457
 20
68.5456
 30
0.0
 10
118.1271
 20
67.5871
 30
0.0
  0
SPLINE
  5
7C
330
1F
100
AcDbEntity
  8
layer 1
 62
   250
100
AcDbSpline
210
0.0
220
0.0
230
1.0
 70
    11
 71
     3
 72
    32
 73
    28
 74
     0
 42
0.0000000001
 43
0.0000000001
 12
1.0
 22
0.0
 32
0.0
 13
1.0
 23
0.0
 33
0.0
 40
0.0
 40
0.0
 40
0.0
 40
0.0
 40
0.125
 40
0.125
 40
0.125
 40
0.125
 40
0.25
 40
0.25
 40
0.25
 40
0.25
 40
0.375
 40
0.375
 40
0.375
 40
0.375
 40
0.5
 40
0.5
 40
0.5
 40
0.5
 40
0.625
 40
0.625
 40
0.625
 40
0.625
 40
0.75
 40
0.75
 40
0.75
 40
0.75
 40
1.0
 40
1.0
 40
1.0
 40
1.0
 10
167.9841
 20
55.0234
 30
0.0
 10
164.7841
 20
54.1828
 30
0.0
 10
166.0081
 20
49.759
 30
0.0
 10
167.8071
 20
49.4493
 30
0.0
 10
167.8071
 20
49.4493
 30
0.0
 10
164.6367
 20
49.464
 30
0.0
 10
159.4313
 20
51.204
 30
0.0
 10
156.3051
 20
54.1386
 30
0.0
 10
156.3051
 20
54.1386
 30
0.0
 10
157.6175
 20
55.4215
 30
0.0
 10
160.5668
 20
55.5542
 30
0.0
 10
163.0294
 20
55.2003
 30
0.0
 10
163.0294
 20
55.2003
 30
0.0
 10
163.5455
 20
58.238
 30
0.0
 10
156.3641
 20
59.3735
 30
0.0
 10
152.3678
 20
58.1643
 30
0.0
 10
152.3678
 20
58.1643
 30
0.0
 10
151.5421
 20
59.9043
 30
0.0
 10
150.9817
 20
61.6444
 30
0.0
 10
150.9522
 20
63.5614
 30
0.0
 10
150.9522
 20
63.5614
 30
0.0
 10
153.5328
 20
61.9836
 30
0.0
 10
157.6175
 20
61.5559
 30
0.0
 10
160.2866
 20
61.6592
 30
0.0
 10
160.2866
 20
61.6592
 30
0.0
 10
160.7732
 20
58.179
 30
0.0
 10
164.7104
 20
55.6279
 30
0.0
 10
167.9841
 20
55.0234
 30
0.0
  0
SPLINE
  5
7D
330
1F
100
AcDbEntity
  8
layer 1
 62
   250
100
AcDbSpline
210
0.0
220
0.0
230
1.0
 70
    11
 71
     3
 72
    32
 73
    28
 74
     0
 42
0.0000000001
 43
0.0000000001
 12
1.0
 22
0.0
 32
0.0
 13
1.0
 23
0.0
 33
0.0
 40
0.0
 40
0.0
 40
0.0
 40
0.0
 40
0.125
 40
0.125
 40
0.125
 40
0.125
 40
0.25
 40
0.25
 40
0.25
 40
0.25
 40
0.375
 40
0.375
 40
0.375
 40
0.375
 40
0.5
 40
0.5
 40
0.5
 40
0.5
 40
0.625
 40
0.625
 40
0.625
 40
0.625
 40
0.75
 40
0.75
 40
0.75
 40
0.75
 40
1.0
 40
1.0
 40
1.0
 40
1.0
 10
110.3853
 20
55.0676
 30
0.0
 10
113.5853
 20
54.2271
 30
0.0
 10
112.4056
 20
49.9359
 30
0.0
 10
110.7835
 20
49.4493
 30
0.0
 10
110.7835
 20
49.4493
 30
0.0
 10
113.9539
 20
49.464
 30
0.0
 10
119.0709
 20
51.1598
 30
0.0
 10
122.1971
 20
54.0943
 30
0.0
 10
122.1971
 20
54.0943
 30
0.0
 10
120.8846
 20
55.3773
 30
0.0
 10
117.6699
 20
55.8196
 30
0.0
 10
115.1189
 20
55.333
 30
0.0
 10
115.1189
 20
55.333
 30
0.0
 10
114.6027
 20
58.3707
 30
0.0
 10
122.2265
 20
59.3735
 30
0.0
 10
126.2228
 20
58.1643
 30
0.0
 10
126.2228
 20
58.1643
 30
0.0
 10
127.0485
 20
59.9043
 30
0.0
 10
127.6089
 20
61.7771
 30
0.0
 10
127.6384
 20
63.6941
 30
0.0
 10
127.6384
 20
63.6941
 30
0.0
 10
125.0578
 20
62.1163
 30
0.0
 10
120.9289
 20
61.5117
 30
0.0
 10
118.2598
 20
61.6149
 30
0.0
 10
118.2598
 20
61.6149
 30
0.0
 10
117.5078
 20
58.1348
 30
0.0
 10
114.7207
 20
56.0261
 30
0.0
 10
110.3853
 20
55.0676
 30
0.0
  0
SPLINE
  5
7E
330
1F
100
AcDbEntity
  8
layer 1
 62
   250
100
AcDbSpline
210
0.0
220
0.0
230
1.0
 70
    11
 71
     3
 72
    36
 73
    32
 74
     0
 42
0.0000000001
 43
0.0000000001
 12
1.0
 22
0.0
 32
0.0
 13
1.0
 23
0.0
 33
0.0
 40
0.0
 40
0.0
 40
0.0
 40
0.0
 40
0.1111111111111111
 40
0.1111111111111111
 40
0.1111111111111111
 40
0.1111111111111111
 40
0.2222222222222222
 40
0.2222222222222222
 40
0.2222222222222222
 40
0.2222222222222222
 40
0.3333333333333333
 40
0.3333333333333333
 40
0.3333333333333333
 40
0.3333333333333333
 40
0.4444444444444444
 40
0.4444444444444444
 40
0.4444444444444444
 40
0.4444444444444444
 40
0.5555555555555556
 40
0.5555555555555556
 40
0.5555555555555556
 40
0.5555555555555556
 40
0.6666666666666666
 40
0.6666666666666666
 40
0.6666666666666666
 40
0.6666666666666666
 40
0.7777777777777778
 40
0.7777777777777778
 40
0.7777777777777778
 40
0.7777777777777778
 40
1.0
 40
1.0
 40
1.0
 40
1.0
 10
166.7896
 20
62.8536
 30
0.0
 10
165.9542
 20
60.5156
 30
0.0
 10
166.3909
 20
58.6349
 30
0.0
 10
169.8086
 20
57.4576
 30
0.0
 10
169.8086
 20
57.4576
 30
0.0
 10
174.565
 20
55.8192
 30
0.0
 10
174.2217
 20
51.4602
 30
0.0
 10
172.0983
 20
50.1571
 30
0.0
 10
172.0983
 20
50.1571
 30
0.0
 10
173.5434
 20
50.452
 30
0.0
 10
175.1212
 20
50.9239
 30
0.0
 10
176.0355
 20
51.5727
 30
0.0
 10
176.0355
 20
51.5727
 30
0.0
 10
175.8551
 20
54.4202
 30
0.0
 10
175.1508
 20
57.0318
 30
0.0
 10
173.5139
 20
59.403
 30
0.0
 10
173.5139
 20
59.403
 30
0.0
 10
173.2706
 20
58.3634
 30
0.0
 10
171.7577
 20
57.2383
 30
0.0
 10
169.9748
 20
59.0103
 30
0.0
 10
169.9748
 20
59.0103
 30
0.0
 10
168.7008
 20
60.2765
 30
0.0
 10
169.5988
 20
62.2343
 30
0.0
 10
170.6827
 20
62.4555
 30
0.0
 10
170.6827
 20
62.4555
 30
0.0
 10
170.1518
 20
63.06
 30
0.0
 10
169.6209
 20
63.6204
 30
0.0
 10
168.9573
 20
64.1365
 30
0.0
 10
168.9573
 20
64.1365
 30
0.0
 10
168.3675
 20
63.6646
 30
0.0
 10
167.5565
 20
63.1927
 30
0.0
 10
166.7896
 20
62.8536
 30
0.0
  0
SPLINE
  5
7F
330
1F
100
AcDbEntity
  8
layer 1
 62
   250
100
AcDbSpline
210
0.0
220
0.0
230
1.0
 70
    11
 71
     3
 72
    36
 73
    32
 74
     0
 42
0.0000000001
 43
0.0000000001
 12
1.0
 22
0.0
 32
0.0
 13
1.0
 23
0.0
 33
0.0
 40
0.0
 40
0.0
 40
0.0
 40
0.0
 40
0.1111111111111111
 40
0.1111111111111111
 40
0.1111111111111111
 40
0.1111111111111111
 40
0.2222222222222222
 40
0.2222222222222222
 40
0.2222222222222222
 40
0.2222222222222222
 40
0.3333333333333333
 40
0.3333333333333333
 40
0.3333333333333333
 40
0.3333333333333333
 40
0.4444444444444444
 40
0.4444444444444444
 40
0.4444444444444444
 40
0.4444444444444444
 40
0.5555555555555556
 40
0.5555555555555556
 40
0.5555555555555556
 40
0.5555555555555556
 40
0.6666666666666666
 40
0.6666666666666666
 40
0.6666666666666666
 40
0.6666666666666666
 40
0.7777777777777778
 40
0.7777777777777778
 40
0.7777777777777778
 40
0.7777777777777778
 40
1.0
 40
1.0
 40
1.0
 40
1.0
 10
111.6223
 20
62.9288
 30
0.0
 10
112.7584
 20
60.9668
 30
0.0
 10
112.1713
 20
58.71
 30
0.0
 10
108.7537
 20
57.5328
 30
0.0
 10
108.7537
 20
57.5328
 30
0.0
 10
103.9973
 20
55.8944
 30
0.0
 10
104.4909
 20
51.6106
 30
0.0
 10
106.1632
 20
50.2323
 30
0.0
 10
106.1632
 20
50.2323
 30
0.0
 10
104.7182
 20
50.5272
 30
0.0
 10
103.441
 20
50.9991
 30
0.0
 10
102.5268
 20
51.6479
 30
0.0
 10
102.5268
 20
51.6479
 30
0.0
 10
102.7072
 20
54.4954
 30
0.0
 10
103.5619
 20
57.3325
 30
0.0
 10
104.8228
 20
58.8767
 30
0.0
 10
104.8228
 20
58.8767
 30
0.0
 10
105.3668
 20
57.8371
 30
0.0
 10
107.0596
 20
57.1495
 30
0.0
 10
108.6627
 20
59.0855
 30
0.0
 10
108.6627
 20
59.0855
 30
0.0
 10
109.711
 20
60.3516
 30
0.0
 10
108.9635
 20
62.3094
 30
0.0
 10
107.8796
 20
62.5306
 30
0.0
 10
107.8796
 20
62.5306
 30
0.0
 10
108.4105
 20
63.1352
 30
0.0
 10
108.791
 20
63.47
 30
0.0
 10
109.4546
 20
63.9861
 30
0.0
 10
109.4546
 20
63.9861
 30
0.0
 10
110.0444
 20
63.5142
 30
0.0
 10
110.7802
 20
63.1927
 30
0.0
 10
111.6223
 20
62.9288
 30
0.0
  0
SPLINE
  5
80
330
1F
100
AcDbEntity
  8
layer 1
 62
   250
100
AcDbSpline
210
0.0
220
0.0
230
1.0
 70
    11
 71
     3
 72
    24
 73
    20
 74
     0
 42
0.0000000001
 43
0.0000000001
 12
1.0
 22
0.0
 32
0.0
 13
1.0
 23
0.0
 33
0.0
 40
0.0
 40
0.0
 40
0.0
 40
0.0
 40
0.1666666666666667
 40
0.1666666666666667
 40
0.1666666666666667
 40
0.1666666666666667
 40
0.3333333333333333
 40
0.3333333333333333
 40
0.3333333333333333
 40
0.3333333333333333
 40
0.5
 40
0.5
 40
0.5
 40
0.5
 40
0.6666666666666666
 40
0.6666666666666666
 40
0.6666666666666666
 40
0.6666666666666666
 40
1.0
 40
1.0
 40
1.0
 40
1.0
 10
147.9061
 20
74.273
 30
0.0
 10
148.0705
 20
74.4721
 30
0.0
 10
148.2066
 20
74.8448
 30
0.0
 10
148.0957
 20
75.4176
 30
0.0
 10
148.0957
 20
75.4176
 30
0.0
 10
148.7335
 20
75.5131
 30
0.0
 10
149.8759
 20
74.563
 30
0.0
 10
150.012
 20
73.5898
 30
0.0
 10
150.012
 20
73.5898
 30
0.0
 10
150.1788
 20
74.0439
 30
0.0
 10
150.3734
 20
74.498
 30
0.0
 10
150.5402
 20
74.9522
 30
0.0
 10
150.5402
 20
74.9522
 30
0.0
 10
149.6969
 20
75.4804
 30
0.0
 10
148.8536
 20
75.953
 30
0.0
 10
147.9824
 20
76.5925
 30
0.0
 10
147.9824
 20
76.5925
 30
0.0
 10
147.9176
 20
76.2681
 30
0.0
 10
147.8151
 20
75.0981
 30
0.0
 10
147.9061
 20
74.273
 30
0.0
  0
SPLINE
  5
81
330
1F
100
AcDbEntity
  8
layer 1
 62
   250
100
AcDbSpline
210
0.0
220
0.0
230
1.0
 70
    11
 71
     3
 72
    24
 73
    20
 74
     0
 42
0.0000000001
 43
0.0000000001
 12
1.0
 22
0.0
 32
0.0
 13
1.0
 23
0.0
 33
0.0
 40
0.0
 40
0.0
 40
0.0
 40
0.0
 40
0.1666666666666667
 40
0.1666666666666667
 40
0.1666666666666667
 40
0.1666666666666667
 40
0.3333333333333333
 40
0.3333333333333333
 40
0.3333333333333333
 40
0.3333333333333333
 40
0.5
 40
0.5
 40
0.5
 40
0.5
 40
0.6666666666666666
 40
0.6666666666666666
 40
0.6666666666666666
 40
0.6666666666666666
 40
1.0
 40
1.0
 40
1.0
 40
1.0
 10
130.4537
 20
74.1144
 30
0.0
 10
130.279
 20
74.355
 30
0.0
 10
130.1161
 20
74.8143
 30
0.0
 10
130.161
 20
75.3153
 30
0.0
 10
130.161
 20
75.3153
 30
0.0
 10
129.5411
 20
75.3841
 30
0.0
 10
128.5564
 20
74.5908
 30
0.0
 10
128.4203
 20
73.6176
 30
0.0
 10
128.4203
 20
73.6176
 30
0.0
 10
128.2535
 20
74.0717
 30
0.0
 10
128.0589
 20
74.5258
 30
0.0
 10
127.8921
 20
74.98
 30
0.0
 10
127.8921
 20
74.98
 30
0.0
 10
128.7354
 20
75.5082
 30
0.0
 10
129.6098
 20
75.9912
 30
0.0
 10
130.481
 20
76.6307
 30
0.0
 10
130.481
 20
76.6307
 30
0.0
 10
130.6286
 20
75.9232
 30
0.0
 10
130.5965
 20
74.6704
 30
0.0
 10
130.4537
 20
74.1144
 30
0.0
  0
SPLINE
  5
82
330
1F
100
AcDbEntity
  8
layer 1
 62
   250
100
AcDbSpline
210
0.0
220
0.0
230
1.0
 70
    11
 71
     3
 72
    20
 73
    16
 74
     0
 42
0.0000000001
 43
0.0000000001
 12
1.0
 22
0.0
 32
0.0
 13
1.0
 23
0.0
 33
0.0
 40
0.0
 40
0.0
 40
0.0
 40
0.0
 40
0.2
 40
0.2
 40
0.2
 40
0.2
 40
0.4
 40
0.4
 40
0.4
 40
0.4
 40
0.6
 40
0.6
 40
0.6
 40
0.6
 40
1.0
 40
1.0
 40
1.0
 40
1.0
 10
173.5825
 20
42.2887
 30
0.0
 10
173.6411
 20
45.8171
 30
0.0
 10
169.1632
 20
46.9542
 30
0.0
 10
167.569
 20
45.4889
 30
0.0
 10
167.569
 20
45.4889
 30
0.0
 10
167.2173
 20
46.1687
 30
0.0
 10
166.725
 20
46.708
 30
0.0
 10
166.0568
 20
47.2824
 30
0.0
 10
166.0568
 20
47.2824
 30
0.0
 10
168.495
 20
46.9776
 30
0.0
 10
172.3751
 20
46.9893
 30
0.0
 10
175.9387
 20
48.5132
 30
0.0
 10
175.9387
 20
48.5132
 30
0.0
 10
175.7628
 20
46.2977
 30
0.0
 10
174.7078
 20
43.7657
 30
0.0
 10
173.5825
 20
42.2887
 30
0.0
  0
SPLINE
  5
83
330
1F
100
AcDbEntity
  8
layer 1
 62
   250
100
AcDbSpline
210
0.0
220
0.0
230
1.0
 70
    11
 71
     3
 72
    20
 73
    16
 74
     0
 42
0.0000000001
 43
0.0000000001
 12
1.0
 22
0.0
 32
0.0
 13
1.0
 23
0.0
 33
0.0
 40
0.0
 40
0.0
 40
0.0
 40
0.0
 40
0.2
 40
0.2
 40
0.2
 40
0.2
 40
0.4
 40
0.4
 40
0.4
 40
0.4
 40
0.6
 40
0.6
 40
0.6
 40
0.6
 40
1.0
 40
1.0
 40
1.0
 40
1.0
 10
180.9324
 20
38.9127
 30
0.0
 10
180.0766
 20
39.5926
 30
0.0
 10
177.4977
 20
40.589
 30
0.0
 10
176.1848
 20
40.9875
 30
0.0
 10
176.1848
 20
40.9875
 30
0.0
 10
176.9233
 20
42.3004
 30
0.0
 10
178.2245
 20
45.6881
 30
0.0
 10
178.3652
 20
47.6341
 30
0.0
 10
178.3652
 20
47.6341
 30
0.0
 10
179.7835
 20
46.6259
 30
0.0
 10
182.3625
 20
43.121
 30
0.0
 10
183.394
 20
40.9875
 30
0.0
 10
183.394
 20
40.9875
 30
0.0
 10
182.55
 20
40.4952
 30
0.0
 10
181.6357
 20
39.7567
 30
0.0
 10
180.9324
 20
38.9127
 30
0.0
  0
SPLINE
  5
84
330
1F
100
AcDbEntity
  8
layer 1
 62
   250
100
AcDbSpline
210
0.0
220
0.0
230
1.0
 70
    11
 71
     3
 72
    20
 73
    16
 74
     0
 42
0.0000000001
 43
0.0000000001
 12
1.0
 22
0.0
 32
0.0
 13
1.0
 23
0.0
 33
0.0
 40
0.0
 40
0.0
 40
0.0
 40
0.0
 40
0.2
 40
0.2
 40
0.2
 40
0.2
 40
0.4
 40
0.4
 40
0.4
 40
0.4
 40
0.6
 40
0.6
 40
0.6
 40
0.6
 40
1.0
 40
1.0
 40
1.0
 40
1.0
 10
104.9017
 20
42.2535
 30
0.0
 10
105.019
 20
46.0985
 30
0.0
 10
109.3562
 20
46.8135
 30
0.0
 10
110.9504
 20
45.3482
 30
0.0
 10
110.9504
 20
45.3482
 30
0.0
 10
111.3021
 20
46.0281
 30
0.0
 10
111.8296
 20
46.708
 30
0.0
 10
112.6033
 20
47.2824
 30
0.0
 10
112.6033
 20
47.2824
 30
0.0
 10
110.1651
 20
46.9776
 30
0.0
 10
106.285
 20
46.9893
 30
0.0
 10
102.7214
 20
48.5132
 30
0.0
 10
102.7214
 20
48.5132
 30
0.0
 10
102.8972
 20
46.2977
 30
0.0
 10
103.7764
 20
43.7305
 30
0.0
 10
104.9017
 20
42.2535
 30
0.0
  0
SPLINE
  5
85
330
1F
100
AcDbEntity
  8
layer 1
 62
   250
100
AcDbSpline
210
0.0
220
0.0
230
1.0
 70
    11
 71
     3
 72
    20
 73
    16
 74
     0
 42
0.0000000001
 43
0.0000000001
 12
1.0
 22
0.0
 32
0.0
 13
1.0
 23
0.0
 33
0.0
 40
0.0
 40
0.0
 40
0.0
 40
0.0
 40
0.2
 40
0.2
 40
0.2
 40
0.2
 40
0.4
 40
0.4
 40
0.4
 40
0.4
 40
0.6
 40
0.6
 40
0.6
 40
0.6
 40
1.0
 40
1.0
 40
1.0
 40
1.0
 10
97.7277
 20
38.9127
 30
0.0
 10
98.5834
 20
39.5926
 30
0.0
 10
101.1624
 20
40.589
 30
0.0
 10
102.4752
 20
40.9875
 30
0.0
 10
102.4752
 20
40.9875
 30
0.0
 10
101.7367
 20
42.3004
 30
0.0
 10
100.33
 20
45.6881
 30
0.0
 10
100.1894
 20
47.6341
 30
0.0
 10
100.1894
 20
47.6341
 30
0.0
 10
98.771
 20
46.6259
 30
0.0
 10
96.2976
 20
43.121
 30
0.0
 10
95.266
 20
40.9875
 30
0.0
 10
95.266
 20
40.9875
 30
0.0
 10
96.11
 20
40.4952
 30
0.0
 10
97.0244
 20
39.7567
 30
0.0
 10
97.7277
 20
38.9127
 30
0.0
  0
SPLINE
  5
86
330
1F
100
AcDbEntity
  8
layer 1
 62
   250
100
AcDbSpline
210
0.0
220
0.0
230
1.0
 70
    11
 71
     3
 72
    28
 73
    24
 74
     0
 42
0.0000000001
 43
0.0000000001
 12
1.0
 22
0.0
 32
0.0
 13
1.0
 23
0.0
 33
0.0
 40
0.0
 40
0.0
 40
0.0
 40
0.0
 40
0.1428571428571428
 40
0.1428571428571428
 40
0.1428571428571428
 40
0.1428571428571428
 40
0.2857142857142857
 40
0.2857142857142857
 40
0.2857142857142857
 40
0.2857142857142857
 40
0.4285714285714285
 40
0.4285714285714285
 40
0.4285714285714285
 40
0.4285714285714285
 40
0.5714285714285714
 40
0.5714285714285714
 40
0.5714285714285714
 40
0.5714285714285714
 40
0.7142857142857143
 40
0.7142857142857143
 40
0.7142857142857143
 40
0.7142857142857143
 40
1.0
 40
1.0
 40
1.0
 40
1.0
 10
153.6787
 20
36.1407
 30
0.0
 10
152.7178
 20
35.2837
 30
0.0
 10
151.9906
 20
34.4656
 30
0.0
 10
151.2245
 20
33.4138
 30
0.0
 10
151.2245
 20
33.4138
 30
0.0
 10
145.8357
 20
34.7513
 30
0.0
 10
142.083
 20
39.8285
 30
0.0
 10
141.2129
 20
44.3603
 30
0.0
 10
141.2129
 20
44.3603
 30
0.0
 10
141.8626
 20
44.2742
 30
0.0
 10
142.379
 20
44.369
 30
0.0
 10
143.1734
 20
44.7562
 30
0.0
 10
143.1734
 20
44.7562
 30
0.0
 10
144.4695
 20
45.3881
 30
0.0
 10
145.3155
 20
45.1317
 30
0.0
 10
145.5736
 20
42.0887
 30
0.0
 10
145.5736
 20
42.0887
 30
0.0
 10
145.8779
 20
38.4994
 30
0.0
 10
149.9512
 20
37.7987
 30
0.0
 10
150.835
 20
40.231
 30
0.0
 10
150.835
 20
40.231
 30
0.0
 10
151.3933
 20
38.8676
 30
0.0
 10
152.6139
 20
37.1146
 30
0.0
 10
153.6787
 20
36.1407
 30
0.0
  0
SPLINE
  5
87
330
1F
100
AcDbEntity
  8
layer 1
 62
   250
100
AcDbSpline
210
0.0
220
0.0
230
1.0
 70
    11
 71
     3
 72
    28
 73
    24
 74
     0
 42
0.0000000001
 43
0.0000000001
 12
1.0
 22
0.0
 32
0.0
 13
1.0
 23
0.0
 33
0.0
 40
0.0
 40
0.0
 40
0.0
 40
0.0
 40
0.1428571428571428
 40
0.1428571428571428
 40
0.1428571428571428
 40
0.1428571428571428
 40
0.2857142857142857
 40
0.2857142857142857
 40
0.2857142857142857
 40
0.2857142857142857
 40
0.4285714285714285
 40
0.4285714285714285
 40
0.4285714285714285
 40
0.4285714285714285
 40
0.5714285714285714
 40
0.5714285714285714
 40
0.5714285714285714
 40
0.5714285714285714
 40
0.7142857142857143
 40
0.7142857142857143
 40
0.7142857142857143
 40
0.7142857142857143
 40
1.0
 40
1.0
 40
1.0
 40
1.0
 10
124.7614
 20
36.3051
 30
0.0
 10
125.7223
 20
35.448
 30
0.0
 10
126.5317
 20
34.5889
 30
0.0
 10
127.2978
 20
33.5371
 30
0.0
 10
127.2978
 20
33.5371
 30
0.0
 10
132.7277
 20
34.7924
 30
0.0
 10
136.1517
 20
39.8285
 30
0.0
 10
137.0217
 20
44.3603
 30
0.0
 10
137.0217
 20
44.3603
 30
0.0
 10
136.3721
 20
44.2742
 30
0.0
 10
135.6911
 20
44.3691
 30
0.0
 10
134.8969
 20
44.7562
 30
0.0
 10
134.8969
 20
44.7562
 30
0.0
 10
133.6008
 20
45.388
 30
0.0
 10
132.919
 20
44.885
 30
0.0
 10
132.5789
 20
41.9243
 30
0.0
 10
132.5789
 20
41.9243
 30
0.0
 10
132.1678
 20
38.3458
 30
0.0
 10
128.3656
 20
38.0042
 30
0.0
 10
127.2764
 20
40.0256
 30
0.0
 10
127.2764
 20
40.0256
 30
0.0
 10
126.7181
 20
38.6621
 30
0.0
 10
125.8262
 20
37.279
 30
0.0
 10
124.7614
 20
36.3051
 30
0.0
  0
SPLINE
  5
88
330
1F
100
AcDbEntity
  8
layer 1
 62
   250
100
AcDbSpline
210
0.0
220
0.0
230
1.0
 70
    11
 71
     3
 72
    32
 73
    28
 74
     0
 42
0.0000000001
 43
0.0000000001
 12
1.0
 22
0.0
 32
0.0
 13
1.0
 23
0.0
 33
0.0
 40
0.0
 40
0.0
 40
0.0
 40
0.0
 40
0.125
 40
0.125
 40
0.125
 40
0.125
 40
0.25
 40
0.25
 40
0.25
 40
0.25
 40
0.375
 40
0.375
 40
0.375
 40
0.375
 40
0.5
 40
0.5
 40
0.5
 40
0.5
 40
0.625
 40
0.625
 40
0.625
 40
0.625
 40
0.75
 40
0.75
 40
0.75
 40
0.75
 40
1.0
 40
1.0
 40
1.0
 40
1.0
 10
162.2746
 20
40.539
 30
0.0
 10
159.8776
 20
40.0732
 30
0.0
 10
157.2642
 20
38.8962
 30
0.0
 10
155.667
 20
37.6989
 30
0.0
 10
155.667
 20
37.6989
 30
0.0
 10
151.9141
 20
41.8079
 30
0.0
 10
151.6459
 20
48.757
 30
0.0
 10
154.262
 20
52.3318
 30
0.0
 10
154.262
 20
52.3318
 30
0.0
 10
154.851
 20
51.5374
 30
0.0
 10
155.8508
 20
51.0717
 30
0.0
 10
156.6863
 20
50.4417
 30
0.0
 10
156.6863
 20
50.4417
 30
0.0
 10
154.6162
 20
50.0862
 30
0.0
 10
153.9841
 20
46.9853
 30
0.0
 10
156.4026
 20
45.4656
 30
0.0
 10
156.4026
 20
45.4656
 30
0.0
 10
159.308
 20
43.64
 30
0.0
 10
161.4476
 20
46.1503
 30
0.0
 10
160.7132
 20
48.1406
 30
0.0
 10
160.7132
 20
48.1406
 30
0.0
 10
162.7402
 20
47.4421
 30
0.0
 10
164.5619
 20
46.045
 30
0.0
 10
165.6851
 20
44.196
 30
0.0
 10
165.6851
 20
44.196
 30
0.0
 10
163.6853
 20
44.6616
 30
0.0
 10
161.8911
 20
42.703
 30
0.0
 10
162.2746
 20
40.539
 30
0.0
  0
SPLINE
  5
89
330
1F
100
AcDbEntity
  8
layer 1
 62
   250
100
AcDbSpline
210
0.0
220
0.0
230
1.0
 70
    11
 71
     3
 72
    32
 73
    28
 74
     0
 42
0.0000000001
 43
0.0000000001
 12
1.0
 22
0.0
 32
0.0
 13
1.0
 23
0.0
 33
0.0
 40
0.0
 40
0.0
 40
0.0
 40
0.0
 40
0.125
 40
0.125
 40
0.125
 40
0.125
 40
0.25
 40
0.25
 40
0.25
 40
0.25
 40
0.375
 40
0.375
 40
0.375
 40
0.375
 40
0.5
 40
0.5
 40
0.5
 40
0.5
 40
0.625
 40
0.625
 40
0.625
 40
0.625
 40
0.75
 40
0.75
 40
0.75
 40
0.75
 40
1.0
 40
1.0
 40
1.0
 40
1.0
 10
116.0954
 20
40.6622
 30
0.0
 10
117.9582
 20
40.3609
 30
0.0
 10
121.0536
 20
39.2788
 30
0.0
 10
122.5876
 20
38.0324
 30
0.0
 10
122.5876
 20
38.0324
 30
0.0
 10
126.3405
 20
42.1415
 30
0.0
 10
126.6419
 20
48.6748
 30
0.0
 10
124.0258
 20
52.2497
 30
0.0
 10
124.0258
 20
52.2497
 30
0.0
 10
123.4368
 20
51.5785
 30
0.0
 10
122.9301
 20
51.1539
 30
0.0
 10
122.0946
 20
50.6471
 30
0.0
 10
122.0946
 20
50.6471
 30
0.0
 10
123.7948
 20
50.2917
 30
0.0
 10
124.626
 20
46.8161
 30
0.0
 10
122.1317
 20
45.4245
 30
0.0
 10
122.1317
 20
45.4245
 30
0.0
 10
119.5963
 20
44.01
 30
0.0
 10
116.9224
 20
46.0271
 30
0.0
 10
117.6568
 20
48.0174
 30
0.0
 10
117.6568
 20
48.0174
 30
0.0
 10
115.6297
 20
47.3188
 30
0.0
 10
114.219
 20
46.2916
 30
0.0
 10
113.0958
 20
44.4425
 30
0.0
 10
113.0958
 20
44.4425
 30
0.0
 10
115.0956
 20
44.6616
 30
0.0
 10
116.4789
 20
42.8263
 30
0.0
 10
116.0954
 20
40.6622
 30
0.0
  0
SPLINE
  5
8A
330
1F
100
AcDbEntity
  8
layer 1
 62
   250
100
AcDbSpline
210
0.0
220
0.0
230
1.0
 70
    11
 71
     3
 72
    36
 73
    32
 74
     0
 42
0.0000000001
 43
0.0000000001
 12
1.0
 22
0.0
 32
0.0
 13
1.0
 23
0.0
 33
0.0
 40
0.0
 40
0.0
 40
0.0
 40
0.0
 40
0.1111111111111111
 40
0.1111111111111111
 40
0.1111111111111111
 40
0.1111111111111111
 40
0.2222222222222222
 40
0.2222222222222222
 40
0.2222222222222222
 40
0.2222222222222222
 40
0.3333333333333333
 40
0.3333333333333333
 40
0.3333333333333333
 40
0.3333333333333333
 40
0.4444444444444444
 40
0.4444444444444444
 40
0.4444444444444444
 40
0.4444444444444444
 40
0.5555555555555556
 40
0.5555555555555556
 40
0.5555555555555556
 40
0.5555555555555556
 40
0.6666666666666666
 40
0.6666666666666666
 40
0.6666666666666666
 40
0.6666666666666666
 40
0.7777777777777778
 40
0.7777777777777778
 40
0.7777777777777778
 40
0.7777777777777778
 40
1.0
 40
1.0
 40
1.0
 40
1.0
 10
142.8389
 20
26.3628
 30
0.0
 10
143.233
 20
27.2476
 30
0.0
 10
143.145
 20
29.4899
 30
0.0
 10
141.442
 20
30.9004
 30
0.0
 10
141.442
 20
30.9004
 30
0.0
 10
139.2874
 20
32.6849
 30
0.0
 10
140.3816
 20
34.064
 30
0.0
 10
138.9641
 20
34.152
 30
0.0
 10
138.9641
 20
34.152
 30
0.0
 10
137.5099
 20
34.2422
 30
0.0
 10
138.3459
 20
32.3209
 30
0.0
 10
137.1095
 20
31.3992
 30
0.0
 10
137.1095
 20
31.3992
 30
0.0
 10
135.3157
 20
30.0619
 30
0.0
 10
134.6161
 20
27.9803
 30
0.0
 10
134.9907
 20
26.7737
 30
0.0
 10
134.9907
 20
26.7737
 30
0.0
 10
134.4018
 20
27.4448
 30
0.0
 10
133.8539
 20
28.0749
 30
0.0
 10
133.1005
 20
28.7461
 30
0.0
 10
133.1005
 20
28.7461
 30
0.0
 10
135.7029
 20
31.5128
 30
0.0
 10
138.3875
 20
36.334
 30
0.0
 10
139.1408
 20
40.8266
 30
0.0
 10
139.1408
 20
40.8266
 30
0.0
 10
139.7982
 20
36.0327
 30
0.0
 10
142.7567
 20
31.5676
 30
0.0
 10
145.3454
 20
28.6228
 30
0.0
 10
145.3454
 20
28.6228
 30
0.0
 10
144.5099
 20
27.8695
 30
0.0
 10
143.6744
 20
27.1161
 30
0.0
 10
142.8389
 20
26.3628
 30
0.0
  0
SPLINE
  5
8B
330
1F
100
AcDbEntity
  8
layer 1
 62
   250
100
AcDbSpline
210
0.0
220
0.0
230
1.0
 70
    11
 71
     3
 72
    48
 73
    44
 74
     0
 42
0.0000000001
 43
0.0000000001
 12
1.0
 22
0.0
 32
0.0
 13
1.0
 23
0.0
 33
0.0
 40
0.0
 40
0.0
 40
0.0
 40
0.0
 40
0.0833333333333333
 40
0.0833333333333333
 40
0.0833333333333333
 40
0.0833333333333333
 40
0.1666666666666667
 40
0.1666666666666667
 40
0.1666666666666667
 40
0.1666666666666667
 40
0.25
 40
0.25
 40
0.25
 40
0.25
 40
0.3333333333333333
 40
0.3333333333333333
 40
0.3333333333333333
 40
0.3333333333333333
 40
0.4166666666666667
 40
0.4166666666666667
 40
0.4166666666666667
 40
0.4166666666666667
 40
0.5
 40
0.5
 40
0.5
 40
0.5
 40
0.5833333333333334
 40
0.5833333333333334
 40
0.5833333333333334
 40
0.5833333333333334
 40
0.6666666666666666
 40
0.6666666666666666
 40
0.6666666666666666
 40
0.6666666666666666
 40
0.75
 40
0.75
 40
0.75
 40
0.75
 40
0.8333333333333334
 40
0.8333333333333334
 40
0.8333333333333334
 40
0.8333333333333334
 40
1.0
 40
1.0
 40
1.0
 40
1.0
 10
165.6029
 20
30.1842
 30
0.0
 10
162.48
 20
31.6224
 30
0.0
 10
157.5492
 20
32.6496
 30
0.0
 10
154.0155
 20
32.7729
 30
0.0
 10
154.0155
 20
32.7729
 30
0.0
 10
154.3716
 20
33.3893
 30
0.0
 10
155.1796
 20
34.0467
 30
0.0
 10
155.8645
 20
34.5809
 30
0.0
 10
155.8645
 20
34.5809
 30
0.0
 10
161.535
 20
32.677
 30
0.0
 10
165.0687
 20
32.9509
 30
0.0
 10
169.3421
 20
34.6631
 30
0.0
 10
169.3421
 20
34.6631
 30
0.0
 10
169.913
 20
34.3776
 30
0.0
 10
171.3228
 20
33.6487
 30
0.0
 10
171.7333
 20
32.635
 30
0.0
 10
171.7333
 20
32.635
 30
0.0
 10
172.2221
 20
31.4277
 30
0.0
 10
173.789
 20
31.9976
 30
0.0
 10
173.6347
 20
32.9413
 30
0.0
 10
173.6347
 20
32.9413
 30
0.0
 10
173.3459
 20
34.7071
 30
0.0
 10
173.8375
 20
37.6467
 30
0.0
 10
173.862
 20
38.3201
 30
0.0
 10
173.862
 20
38.3201
 30
0.0
 10
175.7795
 20
38.2516
 30
0.0
 10
177.8608
 20
37.6078
 30
0.0
 10
179.6552
 20
36.7997
 30
0.0
 10
179.6552
 20
36.7997
 30
0.0
 10
178.5892
 20
34.8542
 30
0.0
 10
178.5463
 20
32.6633
 30
0.0
 10
179.0394
 20
30.5951
 30
0.0
 10
179.0394
 20
30.5951
 30
0.0
 10
178.7107
 20
30.4034
 30
0.0
 10
178.4641
 20
29.924
 30
0.0
 10
178.4641
 20
29.609
 30
0.0
 10
178.4641
 20
29.609
 30
0.0
 10
176.5465
 20
30.7047
 30
0.0
 10
173.6429
 20
31.1019
 30
0.0
 10
171.2733
 20
30.7184
 30
0.0
 10
171.2733
 20
30.7184
 30
0.0
 10
170.3967
 20
32.9236
 30
0.0
 10
166.2329
 20
33.3619
 30
0.0
 10
165.6029
 20
30.1842
 30
0.0
  0
SPLINE
  5
8C
330
1F
100
AcDbEntity
  8
layer 1
 62
   250
100
AcDbSpline
210
0.0
220
0.0
230
1.0
 70
    11
 71
     3
 72
    48
 73
    44
 74
     0
 42
0.0000000001
 43
0.0000000001
 12
1.0
 22
0.0
 32
0.0
 13
1.0
 23
0.0
 33
0.0
 40
0.0
 40
0.0
 40
0.0
 40
0.0
 40
0.0833333333333333
 40
0.0833333333333333
 40
0.0833333333333333
 40
0.0833333333333333
 40
0.1666666666666667
 40
0.1666666666666667
 40
0.1666666666666667
 40
0.1666666666666667
 40
0.25
 40
0.25
 40
0.25
 40
0.25
 40
0.3333333333333333
 40
0.3333333333333333
 40
0.3333333333333333
 40
0.3333333333333333
 40
0.4166666666666667
 40
0.4166666666666667
 40
0.4166666666666667
 40
0.4166666666666667
 40
0.5
 40
0.5
 40
0.5
 40
0.5
 40
0.5833333333333334
 40
0.5833333333333334
 40
0.5833333333333334
 40
0.5833333333333334
 40
0.6666666666666666
 40
0.6666666666666666
 40
0.6666666666666666
 40
0.6666666666666666
 40
0.75
 40
0.75
 40
0.75
 40
0.75
 40
0.8333333333333334
 40
0.8333333333333334
 40
0.8333333333333334
 40
0.8333333333333334
 40
1.0
 40
1.0
 40
1.0
 40
1.0
 10
112.7609
 20
30.1842
 30
0.0
 10
115.8837
 20
31.6224
 30
0.0
 10
120.8146
 20
32.6496
 30
0.0
 10
124.3483
 20
32.7729
 30
0.0
 10
124.3483
 20
32.7729
 30
0.0
 10
123.9922
 20
33.3893
 30
0.0
 10
123.1841
 20
34.0467
 30
0.0
 10
122.4993
 20
34.5809
 30
0.0
 10
122.4993
 20
34.5809
 30
0.0
 10
116.8288
 20
32.677
 30
0.0
 10
113.2951
 20
32.9509
 30
0.0
 10
109.0217
 20
34.6631
 30
0.0
 10
109.0217
 20
34.6631
 30
0.0
 10
108.4507
 20
34.3776
 30
0.0
 10
107.041
 20
33.6487
 30
0.0
 10
106.6305
 20
32.635
 30
0.0
 10
106.6305
 20
32.635
 30
0.0
 10
106.1417
 20
31.4277
 30
0.0
 10
104.5748
 20
31.9976
 30
0.0
 10
104.7291
 20
32.9413
 30
0.0
 10
104.7291
 20
32.9413
 30
0.0
 10
105.0179
 20
34.7071
 30
0.0
 10
104.5263
 20
37.6467
 30
0.0
 10
104.5018
 20
38.3201
 30
0.0
 10
104.5018
 20
38.3201
 30
0.0
 10
102.5842
 20
38.2516
 30
0.0
 10
100.4613
 20
37.6078
 30
0.0
 10
98.667
 20
36.7997
 30
0.0
 10
98.667
 20
36.7997
 30
0.0
 10
99.8997
 20
34.8959
 30
0.0
 10
99.8175
 20
32.6633
 30
0.0
 10
99.3244
 20
30.5951
 30
0.0
 10
99.3244
 20
30.5951
 30
0.0
 10
99.6531
 20
30.4034
 30
0.0
 10
99.8997
 20
29.924
 30
0.0
 10
99.8997
 20
29.609
 30
0.0
 10
99.8997
 20
29.609
 30
0.0
 10
101.8172
 20
30.7047
 30
0.0
 10
104.7209
 20
31.1019
 30
0.0
 10
107.0904
 20
30.7184
 30
0.0
 10
107.0904
 20
30.7184
 30
0.0
 10
107.9671
 20
32.9236
 30
0.0
 10
112.1309
 20
33.3619
 30
0.0
 10
112.7609
 20
30.1842
 30
0.0
  0
SPLINE
  5
8D
330
1F
100
AcDbEntity
  8
layer 1
 62
   250
100
AcDbSpline
210
0.0
220
0.0
230
1.0
 70
    11
 71
     3
 72
    16
 73
    12
 74
     0
 42
0.0000000001
 43
0.0000000001
 12
1.0
 22
0.0
 32
0.0
 13
1.0
 23
0.0
 33
0.0
 40
0.0
 40
0.0
 40
0.0
 40
0.0
 40
0.25
 40
0.25
 40
0.25
 40
0.25
 40
0.5
 40
0.5
 40
0.5
 40
0.5
 40
1.0
 40
1.0
 40
1.0
 40
1.0
 10
166.2795
 20
35.9735
 30
0.0
 10
164.2565
 20
35.1223
 30
0.0
 10
160.9717
 20
35.1423
 30
0.0
 10
158.1376
 20
36.304
 30
0.0
 10
158.1376
 20
36.304
 30
0.0
 10
159.1791
 20
37.0551
 30
0.0
 10
161.3322
 20
37.9264
 30
0.0
 10
162.9146
 20
38.1968
 30
0.0
 10
162.9146
 20
38.1968
 30
0.0
 10
163.6556
 20
37.2453
 30
0.0
 10
165.0877
 20
36.4442
 30
0.0
 10
166.2795
 20
35.9735
 30
0.0
  0
SPLINE
  5
8E
330
1F
100
AcDbEntity
  8
layer 1
 62
   250
100
AcDbSpline
210
0.0
220
0.0
230
1.0
 70
    11
 71
     3
 72
    16
 73
    12
 74
     0
 42
0.0000000001
 43
0.0000000001
 12
1.0
 22
0.0
 32
0.0
 13
1.0
 23
0.0
 33
0.0
 40
0.0
 40
0.0
 40
0.0
 40
0.0
 40
0.25
 40
0.25
 40
0.25
 40
0.25
 40
0.5
 40
0.5
 40
0.5
 40
0.5
 40
1.0
 40
1.0
 40
1.0
 40
1.0
 10
112.1705
 20
35.9435
 30
0.0
 10
114.1934
 20
35.0923
 30
0.0
 10
117.4783
 20
35.1123
 30
0.0
 10
120.3124
 20
36.2739
 30
0.0
 10
120.3124
 20
36.2739
 30
0.0
 10
119.2709
 20
37.025
 30
0.0
 10
117.1177
 20
37.8963
 30
0.0
 10
115.5354
 20
38.1667
 30
0.0
 10
115.5354
 20
38.1667
 30
0.0
 10
114.7943
 20
37.2153
 30
0.0
 10
113.3623
 20
36.4141
 30
0.0
 10
112.1705
 20
35.9435
 30
0.0
  0
SPLINE
  5
8F
330
1F
100
AcDbEntity
  8
layer 1
 62
   250
100
AcDbSpline
210
0.0
220
0.0
230
1.0
 70
    11
 71
     3
 72
    20
 73
    16
 74
     0
 42
0.0000000001
 43
0.0000000001
 12
1.0
 22
0.0
 32
0.0
 13
1.0
 23
0.0
 33
0.0
 40
0.0
 40
0.0
 40
0.0
 40
0.0
 40
0.2
 40
0.2
 40
0.2
 40
0.2
 40
0.4
 40
0.4
 40
0.4
 40
0.4
 40
0.6
 40
0.6
 40
0.6
 40
0.6
 40
1.0
 40
1.0
 40
1.0
 40
1.0
 10
181.9154
 20
23.1929
 30
0.0
 10
179.4716
 20
25.6594
 30
0.0
 10
175.9025
 20
25.9095
 30
0.0
 10
173.1178
 20
23.8748
 30
0.0
 10
173.1178
 20
23.8748
 30
0.0
 10
172.2198
 20
24.9319
 30
0.0
 10
171.2536
 20
25.989
 30
0.0
 10
170.3557
 20
27.0461
 30
0.0
 10
170.3557
 20
27.0461
 30
0.0
 10
170.9695
 20
27.1939
 30
0.0
 10
171.481
 20
27.7167
 30
0.0
 10
171.5833
 20
28.2737
 30
0.0
 10
171.5833
 20
28.2737
 30
0.0
 10
175.7093
 20
29.2398
 30
0.0
 10
180.0059
 20
26.796
 30
0.0
 10
181.9154
 20
23.1929
 30
0.0
  0
SPLINE
  5
90
330
1F
100
AcDbEntity
  8
layer 1
 62
   250
100
AcDbSpline
210
0.0
220
0.0
230
1.0
 70
    11
 71
     3
 72
    20
 73
    16
 74
     0
 42
0.0000000001
 43
0.0000000001
 12
1.0
 22
0.0
 32
0.0
 13
1.0
 23
0.0
 33
0.0
 40
0.0
 40
0.0
 40
0.0
 40
0.0
 40
0.2
 40
0.2
 40
0.2
 40
0.2
 40
0.4
 40
0.4
 40
0.4
 40
0.4
 40
0.6
 40
0.6
 40
0.6
 40
0.6
 40
1.0
 40
1.0
 40
1.0
 40
1.0
 10
96.2574
 20
23.2611
 30
0.0
 10
98.7012
 20
25.7276
 30
0.0
 10
102.2703
 20
25.9777
 30
0.0
 10
105.0551
 20
23.943
 30
0.0
 10
105.0551
 20
23.943
 30
0.0
 10
105.953
 20
25.0001
 30
0.0
 10
106.9192
 20
26.0572
 30
0.0
 10
107.8172
 20
27.1143
 30
0.0
 10
107.8172
 20
27.1143
 30
0.0
 10
107.2034
 20
27.2621
 30
0.0
 10
106.6919
 20
27.7849
 30
0.0
 10
106.5896
 20
28.3419
 30
0.0
 10
106.5896
 20
28.3419
 30
0.0
 10
102.4635
 20
29.308
 30
0.0
 10
98.167
 20
26.8642
 30
0.0
 10
96.2574
 20
23.2611
 30
0.0
  0
SPLINE
  5
91
330
1F
100
AcDbEntity
  8
layer 1
 62
   250
100
AcDbSpline
210
0.0
220
0.0
230
1.0
 70
    11
 71
     3
 72
    56
 73
    52
 74
     0
 42
0.0000000001
 43
0.0000000001
 12
1.0
 22
0.0
 32
0.0
 13
1.0
 23
0.0
 33
0.0
 40
0.0
 40
0.0
 40
0.0
 40
0.0
 40
0.0714285714285714
 40
0.0714285714285714
 40
0.0714285714285714
 40
0.0714285714285714
 40
0.1428571428571428
 40
0.1428571428571428
 40
0.1428571428571428
 40
0.1428571428571428
 40
0.2142857142857143
 40
0.2142857142857143
 40
0.2142857142857143
 40
0.2142857142857143
 40
0.2857142857142857
 40
0.2857142857142857
 40
0.2857142857142857
 40
0.2857142857142857
 40
0.3571428571428572
 40
0.3571428571428572
 40
0.3571428571428572
 40
0.3571428571428572
 40
0.4285714285714285
 40
0.4285714285714285
 40
0.4285714285714285
 40
0.4285714285714285
 40
0.5
 40
0.5
 40
0.5
 40
0.5
 40
0.5714285714285714
 40
0.5714285714285714
 40
0.5714285714285714
 40
0.5714285714285714
 40
0.6428571428571429
 40
0.6428571428571429
 40
0.6428571428571429
 40
0.6428571428571429
 40
0.7142857142857143
 40
0.7142857142857143
 40
0.7142857142857143
 40
0.7142857142857143
 40
0.7857142857142857
 40
0.7857142857142857
 40
0.7857142857142857
 40
0.7857142857142857
 40
0.8571428571428571
 40
0.8571428571428571
 40
0.8571428571428571
 40
0.8571428571428571
 40
1.0
 40
1.0
 40
1.0
 40
1.0
 10
187.5916
 20
27.4353
 30
0.0
 10
187.1445
 20
26.3195
 30
0.0
 10
187.6559
 20
25.8676
 30
0.0
 10
188.0498
 20
25.9434
 30
0.0
 10
188.0498
 20
25.9434
 30
0.0
 10
188.4962
 20
26.0293
 30
0.0
 10
188.9328
 20
26.2821
 30
0.0
 10
188.8447
 20
27.4807
 30
0.0
 10
188.8447
 20
27.4807
 30
0.0
 10
188.6065
 20
30.7177
 30
0.0
 10
184.2856
 20
34.6493
 30
0.0
 10
181.9093
 20
35.8925
 30
0.0
 10
181.9093
 20
35.8925
 30
0.0
 10
181.251
 20
34.8873
 30
0.0
 10
180.7836
 20
33.0897
 30
0.0
 10
181.2997
 20
31.3854
 30
0.0
 10
181.2997
 20
31.3854
 30
0.0
 10
181.5266
 20
31.5373
 30
0.0
 10
181.5929
 20
31.773
 30
0.0
 10
181.708
 20
32.0925
 30
0.0
 10
181.708
 20
32.0925
 30
0.0
 10
184.2218
 20
31.1914
 30
0.0
 10
185.3718
 20
27.3335
 30
0.0
 10
182.7854
 20
26.6547
 30
0.0
 10
182.7854
 20
26.6547
 30
0.0
 10
183.8056
 20
24.8738
 30
0.0
 10
184.8026
 20
22.8965
 30
0.0
 10
185.3196
 20
20.724
 30
0.0
 10
185.3196
 20
20.724
 30
0.0
 10
187.6456
 20
20.4892
 30
0.0
 10
187.7348
 20
16.5809
 30
0.0
 10
185.8956
 20
16.387
 30
0.0
 10
185.8956
 20
16.387
 30
0.0
 10
188.2853
 20
15.2517
 30
0.0
 10
189.7417
 20
13.861
 30
0.0
 10
191.0968
 20
11.7469
 30
0.0
 10
191.0968
 20
11.7469
 30
0.0
 10
191.4259
 20
13.2753
 30
0.0
 10
191.1816
 20
15.6221
 30
0.0
 10
190.0496
 20
17.1115
 30
0.0
 10
190.0496
 20
17.1115
 30
0.0
 10
188.6561
 20
18.9448
 30
0.0
 10
188.6785
 20
20.3693
 30
0.0
 10
189.3022
 20
21.6523
 30
0.0
 10
189.3022
 20
21.6523
 30
0.0
 10
188.1512
 20
20.9182
 30
0.0
 10
186.2484
 20
21.4904
 30
0.0
 10
185.5462
 20
22.697
 30
0.0
 10
185.5462
 20
22.697
 30
0.0
 10
184.333
 20
24.7817
 30
0.0
 10
185.6468
 20
27.6221
 30
0.0
 10
187.5916
 20
27.4353
 30
0.0
  0
SPLINE
  5
92
330
1F
100
AcDbEntity
  8
layer 1
 62
   250
100
AcDbSpline
210
0.0
220
0.0
230
1.0
 70
    11
 71
     3
 72
    56
 73
    52
 74
     0
 42
0.0000000001
 43
0.0000000001
 12
1.0
 22
0.0
 32
0.0
 13
1.0
 23
0.0
 33
0.0
 40
0.0
 40
0.0
 40
0.0
 40
0.0
 40
0.0714285714285714
 40
0.0714285714285714
 40
0.0714285714285714
 40
0.0714285714285714
 40
0.1428571428571428
 40
0.1428571428571428
 40
0.1428571428571428
 40
0.1428571428571428
 40
0.2142857142857143
 40
0.2142857142857143
 40
0.2142857142857143
 40
0.2142857142857143
 40
0.2857142857142857
 40
0.2857142857142857
 40
0.2857142857142857
 40
0.2857142857142857
 40
0.3571428571428572
 40
0.3571428571428572
 40
0.3571428571428572
 40
0.3571428571428572
 40
0.4285714285714285
 40
0.4285714285714285
 40
0.4285714285714285
 40
0.4285714285714285
 40
0.5
 40
0.5
 40
0.5
 40
0.5
 40
0.5714285714285714
 40
0.5714285714285714
 40
0.5714285714285714
 40
0.5714285714285714
 40
0.6428571428571429
 40
0.6428571428571429
 40
0.6428571428571429
 40
0.6428571428571429
 40
0.7142857142857143
 40
0.7142857142857143
 40
0.7142857142857143
 40
0.7142857142857143
 40
0.7857142857142857
 40
0.7857142857142857
 40
0.7857142857142857
 40
0.7857142857142857
 40
0.8571428571428571
 40
0.8571428571428571
 40
0.8571428571428571
 40
0.8571428571428571
 40
1.0
 40
1.0
 40
1.0
 40
1.0
 10
90.9249
 20
27.3818
 30
0.0
 10
91.3721
 20
26.266
 30
0.0
 10
90.6466
 20
25.8675
 30
0.0
 10
90.2526
 20
25.9434
 30
0.0
 10
90.2526
 20
25.9434
 30
0.0
 10
89.8061
 20
26.0294
 30
0.0
 10
89.2625
 20
26.2819
 30
0.0
 10
89.3507
 20
27.4807
 30
0.0
 10
89.3507
 20
27.4807
 30
0.0
 10
89.589
 20
30.7178
 30
0.0
 10
93.8897
 20
34.8794
 30
0.0
 10
96.5002
 20
36.1065
 30
0.0
 10
96.5002
 20
36.1065
 30
0.0
 10
97.1585
 20
35.1014
 30
0.0
 10
97.7329
 20
33.0897
 30
0.0
 10
97.2168
 20
31.3854
 30
0.0
 10
97.2168
 20
31.3854
 30
0.0
 10
96.9899
 20
31.5373
 30
0.0
 10
96.9356
 20
31.8305
 30
0.0
 10
96.8206
 20
32.15
 30
0.0
 10
96.8206
 20
32.15
 30
0.0
 10
94.6131
 20
31.3902
 30
0.0
 10
93.3364
 20
27.8165
 30
0.0
 10
95.5813
 20
26.6012
 30
0.0
 10
95.5813
 20
26.6012
 30
0.0
 10
94.5611
 20
24.8202
 30
0.0
 10
93.6231
 20
22.878
 30
0.0
 10
93.1061
 20
20.7055
 30
0.0
 10
93.1061
 20
20.7055
 30
0.0
 10
91.1703
 20
20.2756
 30
0.0
 10
90.5687
 20
17.0151
 30
0.0
 10
92.4078
 20
16.3335
 30
0.0
 10
92.4078
 20
16.3335
 30
0.0
 10
90.0181
 20
15.1981
 30
0.0
 10
88.5065
 20
13.5938
 30
0.0
 10
87.1513
 20
11.4797
 30
0.0
 10
87.1513
 20
11.4797
 30
0.0
 10
86.5783
 20
13.0081
 30
0.0
 10
86.9601
 20
15.6755
 30
0.0
 10
88.0923
 20
17.165
 30
0.0
 10
88.0923
 20
17.165
 30
0.0
 10
89.4859
 20
18.9985
 30
0.0
 10
89.6239
 20
20.3613
 30
0.0
 10
89.0002
 20
21.6443
 30
0.0
 10
89.0002
 20
21.6443
 30
0.0
 10
90.1513
 20
20.9102
 30
0.0
 10
91.8399
 20
21.5973
 30
0.0
 10
92.5422
 20
22.804
 30
0.0
 10
92.5422
 20
22.804
 30
0.0
 10
93.7555
 20
24.8888
 30
0.0
 10
92.6556
 20
27.3545
 30
0.0
 10
90.9249
 20
27.3818
 30
0.0
  0
SPLINE
  5
93
330
1F
100
AcDbEntity
  8
layer 1
 62
   250
100
AcDbSpline
210
0.0
220
0.0
230
1.0
 70
    11
 71
     3
 72
    28
 73
    24
 74
     0
 42
0.0000000001
 43
0.0000000001
 12
1.0
 22
0.0
 32
0.0
 13
1.0
 23
0.0
 33
0.0
 40
0.0
 40
0.0
 40
0.0
 40
0.0
 40
0.1428571428571428
 40
0.1428571428571428
 40
0.1428571428571428
 40
0.1428571428571428
 40
0.2857142857142857
 40
0.2857142857142857
 40
0.2857142857142857
 40
0.2857142857142857
 40
0.4285714285714285
 40
0.4285714285714285
 40
0.4285714285714285
 40
0.4285714285714285
 40
0.5714285714285714
 40
0.5714285714285714
 40
0.5714285714285714
 40
0.5714285714285714
 40
0.7142857142857143
 40
0.7142857142857143
 40
0.7142857142857143
 40
0.7142857142857143
 40
1.0
 40
1.0
 40
1.0
 40
1.0
 10
182.0054
 20
18.3188
 30
0.0
 10
180.1423
 20
21.2811
 30
0.0
 10
176.4434
 20
20.6493
 30
0.0
 10
176.3707
 20
18.3758
 30
0.0
 10
176.3707
 20
18.3758
 30
0.0
 10
176.3491
 20
17.699
 30
0.0
 10
176.8871
 20
16.6471
 30
0.0
 10
177.9914
 20
16.4794
 30
0.0
 10
177.9914
 20
16.4794
 30
0.0
 10
179.0977
 20
16.3114
 30
0.0
 10
180.5881
 20
17.3249
 30
0.0
 10
181.5381
 20
16.8897
 30
0.0
 10
181.5381
 20
16.8897
 30
0.0
 10
181.3458
 20
16.8347
 30
0.0
 10
181.0984
 20
16.6698
 30
0.0
 10
180.8786
 20
16.4774
 30
0.0
 10
180.8786
 20
16.4774
 30
0.0
 10
179.1691
 20
16.0364
 30
0.0
 10
175.1723
 20
14.956
 30
0.0
 10
175.2497
 20
18.7415
 30
0.0
 10
175.2497
 20
18.7415
 30
0.0
 10
175.2928
 20
20.8494
 30
0.0
 10
179.6949
 20
23.0869
 30
0.0
 10
182.0054
 20
18.3188
 30
0.0
  0
SPLINE
  5
94
330
1F
100
AcDbEntity
  8
layer 1
 62
   250
100
AcDbSpline
210
0.0
220
0.0
230
1.0
 70
    11
 71
     3
 72
    28
 73
    24
 74
     0
 42
0.0000000001
 43
0.0000000001
 12
1.0
 22
0.0
 32
0.0
 13
1.0
 23
0.0
 33
0.0
 40
0.0
 40
0.0
 40
0.0
 40
0.0
 40
0.1428571428571428
 40
0.1428571428571428
 40
0.1428571428571428
 40
0.1428571428571428
 40
0.2857142857142857
 40
0.2857142857142857
 40
0.2857142857142857
 40
0.2857142857142857
 40
0.4285714285714285
 40
0.4285714285714285
 40
0.4285714285714285
 40
0.4285714285714285
 40
0.5714285714285714
 40
0.5714285714285714
 40
0.5714285714285714
 40
0.5714285714285714
 40
0.7142857142857143
 40
0.7142857142857143
 40
0.7142857142857143
 40
0.7142857142857143
 40
1.0
 40
1.0
 40
1.0
 40
1.0
 10
96.1603
 20
18.3188
 30
0.0
 10
98.0234
 20
21.2811
 30
0.0
 10
101.9166
 20
20.6504
 30
0.0
 10
101.9049
 20
18.3758
 30
0.0
 10
101.9049
 20
18.3758
 30
0.0
 10
101.899
 20
17.2319
 30
0.0
 10
101.3335
 20
16.647
 30
0.0
 10
100.2293
 20
16.4794
 30
0.0
 10
100.2293
 20
16.4794
 30
0.0
 10
99.1231
 20
16.3114
 30
0.0
 10
97.6326
 20
17.3249
 30
0.0
 10
96.6825
 20
16.8897
 30
0.0
 10
96.6825
 20
16.8897
 30
0.0
 10
96.8749
 20
16.8347
 30
0.0
 10
97.1222
 20
16.6698
 30
0.0
 10
97.3421
 20
16.4774
 30
0.0
 10
97.3421
 20
16.4774
 30
0.0
 10
99.0516
 20
16.0364
 30
0.0
 10
103.0483
 20
14.956
 30
0.0
 10
102.971
 20
18.7415
 30
0.0
 10
102.971
 20
18.7415
 30
0.0
 10
102.9278
 20
20.8494
 30
0.0
 10
98.4708
 20
23.0869
 30
0.0
 10
96.1603
 20
18.3188
 30
0.0
  0
SPLINE
  5
95
330
1F
100
AcDbEntity
  8
layer 1
 62
   250
100
AcDbSpline
210
0.0
220
0.0
230
1.0
 70
    11
 71
     3
 72
    36
 73
    32
 74
     0
 42
0.0000000001
 43
0.0000000001
 12
1.0
 22
0.0
 32
0.0
 13
1.0
 23
0.0
 33
0.0
 40
0.0
 40
0.0
 40
0.0
 40
0.0
 40
0.1111111111111111
 40
0.1111111111111111
 40
0.1111111111111111
 40
0.1111111111111111
 40
0.2222222222222222
 40
0.2222222222222222
 40
0.2222222222222222
 40
0.2222222222222222
 40
0.3333333333333333
 40
0.3333333333333333
 40
0.3333333333333333
 40
0.3333333333333333
 40
0.4444444444444444
 40
0.4444444444444444
 40
0.4444444444444444
 40
0.4444444444444444
 40
0.5555555555555556
 40
0.5555555555555556
 40
0.5555555555555556
 40
0.5555555555555556
 40
0.6666666666666666
 40
0.6666666666666666
 40
0.6666666666666666
 40
0.6666666666666666
 40
0.7777777777777778
 40
0.7777777777777778
 40
0.7777777777777778
 40
0.7777777777777778
 40
1.0
 40
1.0
 40
1.0
 40
1.0
 10
168.9224
 20
10.118
 30
0.0
 10
170.1631
 20
9.5698
 30
0.0
 10
171.7933
 20
8.5023
 30
0.0
 10
172.6444
 20
7.8243
 30
0.0
 10
172.6444
 20
7.8243
 30
0.0
 10
173.2503
 20
9.137
 30
0.0
 10
173.5965
 20
11.575
 30
0.0
 10
173.2503
 20
13.4504
 30
0.0
 10
173.2503
 20
13.4504
 30
0.0
 10
171.2906
 20
13.8284
 30
0.0
 10
171.6986
 20
17.9994
 30
0.0
 10
167.1321
 20
19.9003
 30
0.0
 10
167.1321
 20
19.9003
 30
0.0
 10
166.353
 20
20.2246
 30
0.0
 10
166.2221
 20
21.7004
 30
0.0
 10
167.3111
 20
21.8116
 30
0.0
 10
167.3111
 20
21.8116
 30
0.0
 10
168.3144
 20
21.9142
 30
0.0
 10
169.6029
 20
22.177
 30
0.0
 10
170.2641
 20
22.5388
 30
0.0
 10
170.2641
 20
22.5388
 30
0.0
 10
169.4851
 20
24.1834
 30
0.0
 10
167.8405
 20
25.7414
 30
0.0
 10
166.1094
 20
26.607
 30
0.0
 10
166.1094
 20
26.607
 30
0.0
 10
160.7661
 20
22.2657
 30
0.0
 10
162.219
 20
16.9503
 30
0.0
 10
165.4742
 20
15.2048
 30
0.0
 10
165.4742
 20
15.2048
 30
0.0
 10
167.6733
 20
14.0256
 30
0.0
 10
169.1914
 20
11.7903
 30
0.0
 10
168.9224
 20
10.118
 30
0.0
  0
SPLINE
  5
96
330
1F
100
AcDbEntity
  8
layer 1
 62
   250
100
AcDbSpline
210
0.0
220
0.0
230
1.0
 70
    11
 71
     3
 72
    36
 73
    32
 74
     0
 42
0.0000000001
 43
0.0000000001
 12
1.0
 22
0.0
 32
0.0
 13
1.0
 23
0.0
 33
0.0
 40
0.0
 40
0.0
 40
0.0
 40
0.0
 40
0.1111111111111111
 40
0.1111111111111111
 40
0.1111111111111111
 40
0.1111111111111111
 40
0.2222222222222222
 40
0.2222222222222222
 40
0.2222222222222222
 40
0.2222222222222222
 40
0.3333333333333333
 40
0.3333333333333333
 40
0.3333333333333333
 40
0.3333333333333333
 40
0.4444444444444444
 40
0.4444444444444444
 40
0.4444444444444444
 40
0.4444444444444444
 40
0.5555555555555556
 40
0.5555555555555556
 40
0.5555555555555556
 40
0.5555555555555556
 40
0.6666666666666666
 40
0.6666666666666666
 40
0.6666666666666666
 40
0.6666666666666666
 40
0.7777777777777778
 40
0.7777777777777778
 40
0.7777777777777778
 40
0.7777777777777778
 40
1.0
 40
1.0
 40
1.0
 40
1.0
 10
109.4303
 20
10.118
 30
0.0
 10
108.1897
 20
9.5698
 30
0.0
 10
106.5595
 20
8.5023
 30
0.0
 10
105.7084
 20
7.8243
 30
0.0
 10
105.7084
 20
7.8243
 30
0.0
 10
105.1025
 20
9.137
 30
0.0
 10
104.7563
 20
11.575
 30
0.0
 10
105.1025
 20
13.4504
 30
0.0
 10
105.1025
 20
13.4504
 30
0.0
 10
107.0622
 20
13.8284
 30
0.0
 10
106.6541
 20
17.9994
 30
0.0
 10
111.2207
 20
19.9003
 30
0.0
 10
111.2207
 20
19.9003
 30
0.0
 10
111.9998
 20
20.2246
 30
0.0
 10
112.1307
 20
21.7004
 30
0.0
 10
111.0417
 20
21.8116
 30
0.0
 10
111.0417
 20
21.8116
 30
0.0
 10
110.0384
 20
21.9142
 30
0.0
 10
108.7499
 20
22.177
 30
0.0
 10
108.0887
 20
22.5388
 30
0.0
 10
108.0887
 20
22.5388
 30
0.0
 10
108.8677
 20
24.1834
 30
0.0
 10
110.5123
 20
25.7414
 30
0.0
 10
112.2434
 20
26.607
 30
0.0
 10
112.2434
 20
26.607
 30
0.0
 10
117.5866
 20
22.2657
 30
0.0
 10
116.1338
 20
16.9503
 30
0.0
 10
112.8786
 20
15.2048
 30
0.0
 10
112.8786
 20
15.2048
 30
0.0
 10
110.6795
 20
14.0256
 30
0.0
 10
109.1614
 20
11.7903
 30
0.0
 10
109.4303
 20
10.118
 30
0.0
  0
SPLINE
  5
97
330
1F
100
AcDbEntity
  8
layer 1
 62
   250
100
AcDbSpline
210
0.0
220
0.0
230
1.0
 70
    11
 71
     3
 72
    28
 73
    24
 74
     0
 42
0.0000000001
 43
0.0000000001
 12
1.0
 22
0.0
 32
0.0
 13
1.0
 23
0.0
 33
0.0
 40
0.0
 40
0.0
 40
0.0
 40
0.0
 40
0.1428571428571428
 40
0.1428571428571428
 40
0.1428571428571428
 40
0.1428571428571428
 40
0.2857142857142857
 40
0.2857142857142857
 40
0.2857142857142857
 40
0.2857142857142857
 40
0.4285714285714285
 40
0.4285714285714285
 40
0.4285714285714285
 40
0.4285714285714285
 40
0.5714285714285714
 40
0.5714285714285714
 40
0.5714285714285714
 40
0.5714285714285714
 40
0.7142857142857143
 40
0.7142857142857143
 40
0.7142857142857143
 40
0.7142857142857143
 40
1.0
 40
1.0
 40
1.0
 40
1.0
 10
145.0989
 20
16.8112
 30
0.0
 10
148.5854
 20
13.6037
 30
0.0
 10
146.2146
 20
10.8668
 30
0.0
 10
145.9879
 20
8.2869
 30
0.0
 10
145.9879
 20
8.2869
 30
0.0
 10
147.2081
 20
9.5071
 30
0.0
 10
148.2715
 20
10.3613
 30
0.0
 10
149.701
 20
10.954
 30
0.0
 10
149.701
 20
10.954
 30
0.0
 10
147.9577
 20
14.4753
 30
0.0
 10
147.0513
 20
20.5068
 30
0.0
 10
148.4459
 20
26.2769
 30
0.0
 10
148.4459
 20
26.2769
 30
0.0
 10
148.0972
 20
26.5035
 30
0.0
 10
147.7486
 20
26.7301
 30
0.0
 10
147.3999
 20
26.9568
 30
0.0
 10
147.3999
 20
26.9568
 30
0.0
 10
145.186
 20
25.6319
 30
0.0
 10
143.7043
 20
23.2611
 30
0.0
 10
143.0593
 20
21.0996
 30
0.0
 10
143.0593
 20
21.0996
 30
0.0
 10
145.2732
 20
21.5005
 30
0.0
 10
146.6504
 20
19.1297
 30
0.0
 10
145.0989
 20
16.8112
 30
0.0
  0
SPLINE
  5
98
330
1F
100
AcDbEntity
  8
layer 1
 62
   250
100
AcDbSpline
210
0.0
220
0.0
230
1.0
 70
    11
 71
     3
 72
    28
 73
    24
 74
     0
 42
0.0000000001
 43
0.0000000001
 12
1.0
 22
0.0
 32
0.0
 13
1.0
 23
0.0
 33
0.0
 40
0.0
 40
0.0
 40
0.0
 40
0.0
 40
0.1428571428571428
 40
0.1428571428571428
 40
0.1428571428571428
 40
0.1428571428571428
 40
0.2857142857142857
 40
0.2857142857142857
 40
0.2857142857142857
 40
0.2857142857142857
 40
0.4285714285714285
 40
0.4285714285714285
 40
0.4285714285714285
 40
0.4285714285714285
 40
0.5714285714285714
 40
0.5714285714285714
 40
0.5714285714285714
 40
0.5714285714285714
 40
0.7142857142857143
 40
0.7142857142857143
 40
0.7142857142857143
 40
0.7142857142857143
 40
1.0
 40
1.0
 40
1.0
 40
1.0
 10
133.2275
 20
16.7066
 30
0.0
 10
129.7411
 20
13.4991
 30
0.0
 10
132.1119
 20
10.7622
 30
0.0
 10
132.3385
 20
8.1823
 30
0.0
 10
132.3385
 20
8.1823
 30
0.0
 10
131.1183
 20
9.4025
 30
0.0
 10
130.0549
 20
10.2567
 30
0.0
 10
128.6254
 20
10.8494
 30
0.0
 10
128.6254
 20
10.8494
 30
0.0
 10
130.3687
 20
14.3707
 30
0.0
 10
131.2229
 20
20.6114
 30
0.0
 10
129.8283
 20
26.3815
 30
0.0
 10
129.8283
 20
26.3815
 30
0.0
 10
130.1769
 20
26.6081
 30
0.0
 10
130.421
 20
26.7301
 30
0.0
 10
130.7696
 20
26.9568
 30
0.0
 10
130.7696
 20
26.9568
 30
0.0
 10
132.722
 20
25.4227
 30
0.0
 10
134.6221
 20
23.1565
 30
0.0
 10
135.2671
 20
20.995
 30
0.0
 10
135.2671
 20
20.995
 30
0.0
 10
133.0532
 20
21.3959
 30
0.0
 10
131.676
 20
19.0251
 30
0.0
 10
133.2275
 20
16.7066
 30
0.0
  0
SPLINE
  5
99
330
1F
100
AcDbEntity
  8
layer 1
 62
   250
100
AcDbSpline
210
0.0
220
0.0
230
1.0
 70
    11
 71
     3
 72
    44
 73
    40
 74
     0
 42
0.0000000001
 43
0.0000000001
 12
1.0
 22
0.0
 32
0.0
 13
1.0
 23
0.0
 33
0.0
 40
0.0
 40
0.0
 40
0.0
 40
0.0
 40
0.0909090909090909
 40
0.0909090909090909
 40
0.0909090909090909
 40
0.0909090909090909
 40
0.1818181818181818
 40
0.1818181818181818
 40
0.1818181818181818
 40
0.1818181818181818
 40
0.2727272727272727
 40
0.2727272727272727
 40
0.2727272727272727
 40
0.2727272727272727
 40
0.3636363636363636
 40
0.3636363636363636
 40
0.3636363636363636
 40
0.3636363636363636
 40
0.4545454545454545
 40
0.4545454545454545
 40
0.4545454545454545
 40
0.4545454545454545
 40
0.5454545454545454
 40
0.5454545454545454
 40
0.5454545454545454
 40
0.5454545454545454
 40
0.6363636363636364
 40
0.6363636363636364
 40
0.6363636363636364
 40
0.6363636363636364
 40
0.7272727272727273
 40
0.7272727272727273
 40
0.7272727272727273
 40
0.7272727272727273
 40
0.8181818181818182
 40
0.8181818181818182
 40
0.8181818181818182
 40
0.8181818181818182
 40
1.0
 40
1.0
 40
1.0
 40
1.0
 10
151.0724
 20
15.9339
 30
0.0
 10
153.4413
 20
17.7702
 30
0.0
 10
156.2855
 20
15.4578
 30
0.0
 10
154.6692
 20
12.366
 30
0.0
 10
154.6692
 20
12.366
 30
0.0
 10
156.5767
 20
12.769
 30
0.0
 10
160.3463
 20
12.8543
 30
0.0
 10
162.9843
 20
12.4706
 30
0.0
 10
162.9843
 20
12.4706
 30
0.0
 10
158.2545
 20
14.3356
 30
0.0
 10
155.8283
 20
16.8442
 30
0.0
 10
155.4909
 20
20.4321
 30
0.0
 10
155.4909
 20
20.4321
 30
0.0
 10
155.2396
 20
23.1033
 30
0.0
 10
156.5656
 20
26.8268
 30
0.0
 10
158.722
 20
27.0678
 30
0.0
 10
158.722
 20
27.0678
 30
0.0
 10
159.5659
 20
27.1621
 30
0.0
 10
160.9814
 20
26.922
 30
0.0
 10
161.5723
 20
25.8062
 30
0.0
 10
161.5723
 20
25.8062
 30
0.0
 10
162.287
 20
26.6333
 30
0.0
 10
162.6646
 20
27.1795
 30
0.0
 10
163.5479
 20
27.838
 30
0.0
 10
163.5479
 20
27.838
 30
0.0
 10
161.8518
 20
29.0852
 30
0.0
 10
158.0631
 20
30.4675
 30
0.0
 10
156.28
 20
29.7781
 30
0.0
 10
156.28
 20
29.7781
 30
0.0
 10
155.292
 20
29.3961
 30
0.0
 10
156.2026
 20
27.9914
 30
0.0
 10
157.4236
 20
29.0525
 30
0.0
 10
157.4236
 20
29.0525
 30
0.0
 10
157.4575
 20
25.6221
 30
0.0
 10
155.0221
 20
24.7649
 30
0.0
 10
151.024
 20
25.4402
 30
0.0
 10
151.024
 20
25.4402
 30
0.0
 10
150.3093
 20
22.2152
 30
0.0
 10
150.5203
 20
18.8973
 30
0.0
 10
151.0724
 20
15.9339
 30
0.0
  0
SPLINE
  5
9A
330
1F
100
AcDbEntity
  8
layer 1
 62
   250
100
AcDbSpline
210
0.0
220
0.0
230
1.0
 70
    11
 71
     3
 72
    44
 73
    40
 74
     0
 42
0.0000000001
 43
0.0000000001
 12
1.0
 22
0.0
 32
0.0
 13
1.0
 23
0.0
 33
0.0
 40
0.0
 40
0.0
 40
0.0
 40
0.0
 40
0.0909090909090909
 40
0.0909090909090909
 40
0.0909090909090909
 40
0.0909090909090909
 40
0.1818181818181818
 40
0.1818181818181818
 40
0.1818181818181818
 40
0.1818181818181818
 40
0.2727272727272727
 40
0.2727272727272727
 40
0.2727272727272727
 40
0.2727272727272727
 40
0.3636363636363636
 40
0.3636363636363636
 40
0.3636363636363636
 40
0.3636363636363636
 40
0.4545454545454545
 40
0.4545454545454545
 40
0.4545454545454545
 40
0.4545454545454545
 40
0.5454545454545454
 40
0.5454545454545454
 40
0.5454545454545454
 40
0.5454545454545454
 40
0.6363636363636364
 40
0.6363636363636364
 40
0.6363636363636364
 40
0.6363636363636364
 40
0.7272727272727273
 40
0.7272727272727273
 40
0.7272727272727273
 40
0.7272727272727273
 40
0.8181818181818182
 40
0.8181818181818182
 40
0.8181818181818182
 40
0.8181818181818182
 40
1.0
 40
1.0
 40
1.0
 40
1.0
 10
127.3631
 20
15.9339
 30
0.0
 10
124.9942
 20
17.7702
 30
0.0
 10
121.9252
 20
15.4016
 30
0.0
 10
123.5416
 20
12.3098
 30
0.0
 10
123.5416
 20
12.3098
 30
0.0
 10
121.4093
 20
12.7128
 30
0.0
 10
118.0892
 20
12.8543
 30
0.0
 10
115.4512
 20
12.4706
 30
0.0
 10
115.4512
 20
12.4706
 30
0.0
 10
120.2372
 20
13.9984
 30
0.0
 10
122.7034
 20
16.7393
 30
0.0
 10
123.1132
 20
20.3197
 30
0.0
 10
123.1132
 20
20.3197
 30
0.0
 10
123.4768
 20
23.4966
 30
0.0
 10
121.7718
 20
26.3811
 30
0.0
 10
119.7135
 20
27.0678
 30
0.0
 10
119.7135
 20
27.0678
 30
0.0
 10
118.5886
 20
27.443
 30
0.0
 10
117.3417
 20
26.922
 30
0.0
 10
116.8632
 20
25.8062
 30
0.0
 10
116.8632
 20
25.8062
 30
0.0
 10
116.1485
 20
26.6333
 30
0.0
 10
115.5462
 20
27.4042
 30
0.0
 10
114.6628
 20
28.0628
 30
0.0
 10
114.6628
 20
28.0628
 30
0.0
 10
116.359
 20
29.31
 30
0.0
 10
120.2601
 20
30.5236
 30
0.0
 10
122.0432
 20
29.8343
 30
0.0
 10
122.0432
 20
29.8343
 30
0.0
 10
123.0311
 20
29.4524
 30
0.0
 10
122.1767
 20
27.3733
 30
0.0
 10
120.7871
 20
28.9963
 30
0.0
 10
120.7871
 20
28.9963
 30
0.0
 10
120.7533
 20
25.5659
 30
0.0
 10
123.4134
 20
24.7649
 30
0.0
 10
127.4115
 20
25.4402
 30
0.0
 10
127.4115
 20
25.4402
 30
0.0
 10
128.1262
 20
22.2152
 30
0.0
 10
127.9152
 20
18.8973
 30
0.0
 10
127.3631
 20
15.9339
 30
0.0
  0
SPLINE
  5
9B
330
1F
100
AcDbEntity
  8
layer 1
 62
   250
100
AcDbSpline
210
0.0
220
0.0
230
1.0
 70
    11
 71
     3
 72
    20
 73
    16
 74
     0
 42
0.0000000001
 43
0.0000000001
 12
1.0
 22
0.0
 32
0.0
 13
1.0
 23
0.0
 33
0.0
 40
0.0
 40
0.0
 40
0.0
 40
0.0
 40
0.2
 40
0.2
 40
0.2
 40
0.2
 40
0.4
 40
0.4
 40
0.4
 40
0.4
 40
0.6
 40
0.6
 40
0.6
 40
0.6
 40
1.0
 40
1.0
 40
1.0
 40
1.0
 10
181.7862
 20
12.0173
 30
0.0
 10
180.9434
 20
9.4512
 30
0.0
 10
179.37
 20
7.728
 30
0.0
 10
177.7404
 20
6.3981
 30
0.0
 10
177.7404
 20
6.3981
 30
0.0
 10
178.0026
 20
8.2525
 30
0.0
 10
177.8715
 20
9.9944
 30
0.0
 10
177.4594
 20
11.905
 30
0.0
 10
177.4594
 20
11.905
 30
0.0
 10
178.4709
 20
12.0361
 30
0.0
 10
179.5386
 20
12.5043
 30
0.0
 10
180.269
 20
13.1412
 30
0.0
 10
180.269
 20
13.1412
 30
0.0
 10
180.5687
 20
12.7104
 30
0.0
 10
180.9808
 20
12.2796
 30
0.0
 10
181.7862
 20
12.0173
 30
0.0
  0
SPLINE
  5
9C
330
1F
100
AcDbEntity
  8
layer 1
 62
   250
100
AcDbSpline
210
0.0
220
0.0
230
1.0
 70
    11
 71
     3
 72
    32
 73
    28
 74
     0
 42
0.0000000001
 43
0.0000000001
 12
1.0
 22
0.0
 32
0.0
 13
1.0
 23
0.0
 33
0.0
 40
0.0
 40
0.0
 40
0.0
 40
0.0
 40
0.125
 40
0.125
 40
0.125
 40
0.125
 40
0.25
 40
0.25
 40
0.25
 40
0.25
 40
0.375
 40
0.375
 40
0.375
 40
0.375
 40
0.5
 40
0.5
 40
0.5
 40
0.5
 40
0.625
 40
0.625
 40
0.625
 40
0.625
 40
0.75
 40
0.75
 40
0.75
 40
0.75
 40
1.0
 40
1.0
 40
1.0
 40
1.0
 10
180.4938
 20
4.3752
 30
0.0
 10
183.8033
 20
3.9678
 30
0.0
 10
182.7485
 20
0.736
 30
0.0
 10
181.2322
 20
-1.3418
 30
0.0
 10
181.2322
 20
-1.3418
 30
0.0
 10
180.1553
 20
-2.8173
 30
0.0
 10
180.087
 20
-5.0546
 30
0.0
 10
179.9881
 20
-6.4699
 30
0.0
 10
179.9881
 20
-6.4699
 30
0.0
 10
180.063
 20
-3.2669
 30
0.0
 10
179.2951
 20
0.6103
 30
0.0
 10
177.4032
 20
3.0828
 30
0.0
 10
177.4032
 20
3.0828
 30
0.0
 10
180.6437
 20
4.8997
 30
0.0
 10
184.7832
 20
9.5823
 30
0.0
 10
184.8206
 20
13.8717
 30
0.0
 10
184.8206
 20
13.8717
 30
0.0
 10
187.1807
 20
12.7478
 30
0.0
 10
188.6417
 20
10.7249
 30
0.0
 10
189.8779
 20
8.5334
 30
0.0
 10
189.8779
 20
8.5334
 30
0.0
 10
188.342
 20
5.7987
 30
0.0
 10
186.9746
 20
5.7613
 30
0.0
 10
185.8883
 20
4.6562
 30
0.0
 10
185.8883
 20
4.6562
 30
0.0
 10
184.7457
 20
6.3607
 30
0.0
 10
181.9174
 20
6.6042
 30
0.0
 10
180.4938
 20
4.3752
 30
0.0
  0
SPLINE
  5
9D
330
1F
100
AcDbEntity
  8
layer 1
 62
   250
100
AcDbSpline
210
0.0
220
0.0
230
1.0
 70
    11
 71
     3
 72
    20
 73
    16
 74
     0
 42
0.0000000001
 43
0.0000000001
 12
1.0
 22
0.0
 32
0.0
 13
1.0
 23
0.0
 33
0.0
 40
0.0
 40
0.0
 40
0.0
 40
0.0
 40
0.2
 40
0.2
 40
0.2
 40
0.2
 40
0.4
 40
0.4
 40
0.4
 40
0.4
 40
0.6
 40
0.6
 40
0.6
 40
0.6
 40
1.0
 40
1.0
 40
1.0
 40
1.0
 10
96.6664
 20
11.9611
 30
0.0
 10
97.5093
 20
9.395
 30
0.0
 10
99.195
 20
7.728
 30
0.0
 10
100.8246
 20
6.3981
 30
0.0
 10
100.8246
 20
6.3981
 30
0.0
 10
100.5624
 20
8.2525
 30
0.0
 10
100.6373
 20
10.6125
 30
0.0
 10
101.0494
 20
11.905
 30
0.0
 10
101.0494
 20
11.905
 30
0.0
 10
100.0379
 20
12.0361
 30
0.0
 10
98.7455
 20
12.5043
 30
0.0
 10
98.015
 20
13.1412
 30
0.0
 10
98.015
 20
13.1412
 30
0.0
 10
97.7153
 20
12.7104
 30
0.0
 10
97.3032
 20
12.1672
 30
0.0
 10
96.6664
 20
11.9611
 30
0.0
  0
SPLINE
  5
9E
330
1F
100
AcDbEntity
  8
layer 1
 62
   250
100
AcDbSpline
210
0.0
220
0.0
230
1.0
 70
    11
 71
     3
 72
    32
 73
    28
 74
     0
 42
0.0000000001
 43
0.0000000001
 12
1.0
 22
0.0
 32
0.0
 13
1.0
 23
0.0
 33
0.0
 40
0.0
 40
0.0
 40
0.0
 40
0.0
 40
0.125
 40
0.125
 40
0.125
 40
0.125
 40
0.25
 40
0.25
 40
0.25
 40
0.25
 40
0.375
 40
0.375
 40
0.375
 40
0.375
 40
0.5
 40
0.5
 40
0.5
 40
0.5
 40
0.625
 40
0.625
 40
0.625
 40
0.625
 40
0.75
 40
0.75
 40
0.75
 40
0.75
 40
1.0
 40
1.0
 40
1.0
 40
1.0
 10
97.6779
 20
4.2628
 30
0.0
 10
94.3684
 20
3.8554
 30
0.0
 10
95.5356
 20
0.9045
 30
0.0
 10
97.0519
 20
-1.1732
 30
0.0
 10
97.0519
 20
-1.1732
 30
0.0
 10
98.1287
 20
-2.6487
 30
0.0
 10
98.2533
 20
-4.9984
 30
0.0
 10
98.3522
 20
-6.4137
 30
0.0
 10
98.3522
 20
-6.4137
 30
0.0
 10
98.2772
 20
-3.2107
 30
0.0
 10
99.2138
 20
0.4417
 30
0.0
 10
101.1056
 20
2.9142
 30
0.0
 10
101.1056
 20
2.9142
 30
0.0
 10
97.8652
 20
4.7311
 30
0.0
 10
93.3885
 20
9.7509
 30
0.0
 10
93.3511
 20
14.0403
 30
0.0
 10
93.3511
 20
14.0403
 30
0.0
 10
91.3281
 20
12.6916
 30
0.0
 10
89.6986
 20
10.8935
 30
0.0
 10
88.4623
 20
8.702
 30
0.0
 10
88.4623
 20
8.702
 30
0.0
 10
89.9983
 20
5.9673
 30
0.0
 10
91.5342
 20
5.8737
 30
0.0
 10
92.6206
 20
4.7685
 30
0.0
 10
92.6206
 20
4.7685
 30
0.0
 10
93.7631
 20
6.473
 30
0.0
 10
96.3105
 20
6.6603
 30
0.0
 10
97.6779
 20
4.2628
 30
0.0
  0
SPLINE
  5
9F
330
1F
100
AcDbEntity
  8
layer 1
 62
   250
100
AcDbSpline
210
0.0
220
0.0
230
1.0
 70
    11
 71
     3
 72
    16
 73
    12
 74
     0
 42
0.0000000001
 43
0.0000000001
 12
1.0
 22
0.0
 32
0.0
 13
1.0
 23
0.0
 33
0.0
 40
0.0
 40
0.0
 40
0.0
 40
0.0
 40
0.25
 40
0.25
 40
0.25
 40
0.25
 40
0.5
 40
0.5
 40
0.5
 40
0.5
 40
1.0
 40
1.0
 40
1.0
 40
1.0
 10
193.7603
 20
11.5116
 30
0.0
 10
193.7603
 20
11.5116
 30
0.0
 10
193.7603
 20
7.8591
 30
0.0
 10
193.7603
 20
7.8591
 30
0.0
 10
193.7603
 20
7.8591
 30
0.0
 10
193.5768
 20
8.2712
 30
0.0
 10
193.2699
 20
8.7295
 30
0.0
 10
193.0709
 20
9.0491
 30
0.0
 10
193.0709
 20
9.0491
 30
0.0
 10
193.3624
 20
9.7465
 30
0.0
 10
193.623
 20
10.5982
 30
0.0
 10
193.7603
 20
11.5116
 30
0.0
  0
SPLINE
  5
A0
330
1F
100
AcDbEntity
  8
layer 1
 62
   250
100
AcDbSpline
210
0.0
220
0.0
230
1.0
 70
    11
 71
     3
 72
    16
 73
    12
 74
     0
 42
0.0000000001
 43
0.0000000001
 12
1.0
 22
0.0
 32
0.0
 13
1.0
 23
0.0
 33
0.0
 40
0.0
 40
0.0
 40
0.0
 40
0.0
 40
0.25
 40
0.25
 40
0.25
 40
0.25
 40
0.5
 40
0.5
 40
0.5
 40
0.5
 40
1.0
 40
1.0
 40
1.0
 40
1.0
 10
84.8599
 20
10.4937
 30
0.0
 10
84.8599
 20
10.4937
 30
0.0
 10
84.8599
 20
7.8591
 30
0.0
 10
84.8599
 20
7.8591
 30
0.0
 10
84.8599
 20
7.8591
 30
0.0
 10
85.0434
 20
8.2712
 30
0.0
 10
85.1961
 20
8.4211
 30
0.0
 10
85.395
 20
8.7406
 30
0.0
 10
85.395
 20
8.7406
 30
0.0
 10
85.1961
 20
9.0988
 30
0.0
 10
84.9663
 20
9.7037
 30
0.0
 10
84.8599
 20
10.4937
 30
0.0
  0
SPLINE
  5
A1
330
1F
100
AcDbEntity
  8
layer 1
 62
   250
100
AcDbSpline
210
0.0
220
0.0
230
1.0
 70
    11
 71
     3
 72
    28
 73
    24
 74
     0
 42
0.0000000001
 43
0.0000000001
 12
1.0
 22
0.0
 32
0.0
 13
1.0
 23
0.0
 33
0.0
 40
0.0
 40
0.0
 40
0.0
 40
0.0
 40
0.1428571428571428
 40
0.1428571428571428
 40
0.1428571428571428
 40
0.1428571428571428
 40
0.2857142857142857
 40
0.2857142857142857
 40
0.2857142857142857
 40
0.2857142857142857
 40
0.4285714285714285
 40
0.4285714285714285
 40
0.4285714285714285
 40
0.4285714285714285
 40
0.5714285714285714
 40
0.5714285714285714
 40
0.5714285714285714
 40
0.5714285714285714
 40
0.7142857142857143
 40
0.7142857142857143
 40
0.7142857142857143
 40
0.7142857142857143
 40
1.0
 40
1.0
 40
1.0
 40
1.0
 10
191.4875
 20
5.5574
 30
0.0
 10
190.0405
 20
3.6227
 30
0.0
 10
186.9692
 20
-0.3143
 30
0.0
 10
186.8783
 20
-4.5146
 30
0.0
 10
186.8783
 20
-4.5146
 30
0.0
 10
186.7727
 20
-9.3879
 30
0.0
 10
188.9837
 20
-13.3834
 30
0.0
 10
191.1461
 20
-16.6838
 30
0.0
 10
191.1461
 20
-16.6838
 30
0.0
 10
191.6012
 20
-15.7896
 30
0.0
 10
191.9102
 20
-14.6028
 30
0.0
 10
192.0728
 20
-13.3183
 30
0.0
 10
192.0728
 20
-13.3183
 30
0.0
 10
189.9873
 20
-13.1148
 30
0.0
 10
188.4964
 20
-11.544
 30
0.0
 10
188.5013
 20
-8.8773
 30
0.0
 10
188.5013
 20
-8.8773
 30
0.0
 10
188.5052
 20
-6.7612
 30
0.0
 10
189.08
 20
-4.588
 30
0.0
 10
190.5538
 20
-2.7523
 30
0.0
 10
190.5538
 20
-2.7523
 30
0.0
 10
191.5205
 20
-1.5484
 30
0.0
 10
192.4474
 20
1.9858
 30
0.0
 10
191.4875
 20
5.5574
 30
0.0
  0
SPLINE
  5
A2
330
1F
100
AcDbEntity
  8
layer 1
 62
   250
100
AcDbSpline
210
0.0
220
0.0
230
1.0
 70
    11
 71
     3
 72
    28
 73
    24
 74
     0
 42
0.0000000001
 43
0.0000000001
 12
1.0
 22
0.0
 32
0.0
 13
1.0
 23
0.0
 33
0.0
 40
0.0
 40
0.0
 40
0.0
 40
0.0
 40
0.1428571428571428
 40
0.1428571428571428
 40
0.1428571428571428
 40
0.1428571428571428
 40
0.2857142857142857
 40
0.2857142857142857
 40
0.2857142857142857
 40
0.2857142857142857
 40
0.4285714285714285
 40
0.4285714285714285
 40
0.4285714285714285
 40
0.4285714285714285
 40
0.5714285714285714
 40
0.5714285714285714
 40
0.5714285714285714
 40
0.5714285714285714
 40
0.7142857142857143
 40
0.7142857142857143
 40
0.7142857142857143
 40
0.7142857142857143
 40
1.0
 40
1.0
 40
1.0
 40
1.0
 10
86.9571
 20
5.5574
 30
0.0
 10
88.4041
 20
3.6227
 30
0.0
 10
91.4754
 20
-0.3143
 30
0.0
 10
91.5663
 20
-4.5146
 30
0.0
 10
91.5663
 20
-4.5146
 30
0.0
 10
91.6719
 20
-9.3879
 30
0.0
 10
89.4609
 20
-13.3834
 30
0.0
 10
87.2985
 20
-16.6838
 30
0.0
 10
87.2985
 20
-16.6838
 30
0.0
 10
86.8433
 20
-15.7896
 30
0.0
 10
86.5344
 20
-14.6028
 30
0.0
 10
86.3718
 20
-13.3183
 30
0.0
 10
86.3718
 20
-13.3183
 30
0.0
 10
88.4573
 20
-13.1148
 30
0.0
 10
89.9482
 20
-11.544
 30
0.0
 10
89.9432
 20
-8.8773
 30
0.0
 10
89.9432
 20
-8.8773
 30
0.0
 10
89.9393
 20
-6.7612
 30
0.0
 10
89.3646
 20
-4.588
 30
0.0
 10
87.8908
 20
-2.7523
 30
0.0
 10
87.8908
 20
-2.7523
 30
0.0
 10
86.9241
 20
-1.5484
 30
0.0
 10
85.9971
 20
1.9858
 30
0.0
 10
86.9571
 20
5.5574
 30
0.0
  0
SPLINE
  5
A3
330
1F
100
AcDbEntity
  8
layer 1
 62
   250
100
AcDbSpline
210
0.0
220
0.0
230
1.0
 70
    11
 71
     3
 72
    36
 73
    32
 74
     0
 42
0.0000000001
 43
0.0000000001
 12
1.0
 22
0.0
 32
0.0
 13
1.0
 23
0.0
 33
0.0
 40
0.0
 40
0.0
 40
0.0
 40
0.0
 40
0.1111111111111111
 40
0.1111111111111111
 40
0.1111111111111111
 40
0.1111111111111111
 40
0.2222222222222222
 40
0.2222222222222222
 40
0.2222222222222222
 40
0.2222222222222222
 40
0.3333333333333333
 40
0.3333333333333333
 40
0.3333333333333333
 40
0.3333333333333333
 40
0.4444444444444444
 40
0.4444444444444444
 40
0.4444444444444444
 40
0.4444444444444444
 40
0.5555555555555556
 40
0.5555555555555556
 40
0.5555555555555556
 40
0.5555555555555556
 40
0.6666666666666666
 40
0.6666666666666666
 40
0.6666666666666666
 40
0.6666666666666666
 40
0.7777777777777778
 40
0.7777777777777778
 40
0.7777777777777778
 40
0.7777777777777778
 40
1.0
 40
1.0
 40
1.0
 40
1.0
 10
158.5079
 20
0.29
 30
0.0
 10
157.668
 20
1.2878
 30
0.0
 10
155.755
 20
1.9341
 30
0.0
 10
152.5094
 20
2.0698
 30
0.0
 10
152.5094
 20
2.0698
 30
0.0
 10
149.7837
 20
2.1838
 30
0.0
 10
147.2129
 20
3.74
 30
0.0
 10
146.6897
 20
4.8172
 30
0.0
 10
146.6897
 20
4.8172
 30
0.0
 10
147.9128
 20
6.3183
 30
0.0
 10
149.6124
 20
7.6077
 30
0.0
 10
151.2645
 20
8.3436
 30
0.0
 10
151.2645
 20
8.3436
 30
0.0
 10
151.7569
 20
7.7876
 30
0.0
 10
152.2493
 20
7.2316
 30
0.0
 10
152.7418
 20
6.6757
 30
0.0
 10
152.7418
 20
6.6757
 30
0.0
 10
151.4844
 20
6.3972
 30
0.0
 10
151.2342
 20
4.351
 30
0.0
 10
152.5141
 20
3.4324
 30
0.0
 10
152.5141
 20
3.4324
 30
0.0
 10
154.8765
 20
1.7369
 30
0.0
 10
156.2161
 20
3.331
 30
0.0
 10
155.8393
 20
4.2453
 30
0.0
 10
155.8393
 20
4.2453
 30
0.0
 10
158.079
 20
2.6569
 30
0.0
 10
160.7953
 20
1.8785
 30
0.0
 10
163.6545
 20
1.6243
 30
0.0
 10
163.6545
 20
1.6243
 30
0.0
 10
161.4783
 20
1.6085
 30
0.0
 10
159.588
 20
1.2114
 30
0.0
 10
158.5079
 20
0.29
 30
0.0
  0
SPLINE
  5
A4
330
1F
100
AcDbEntity
  8
layer 1
 62
   250
100
AcDbSpline
210
0.0
220
0.0
230
1.0
 70
    11
 71
     3
 72
    36
 73
    32
 74
     0
 42
0.0000000001
 43
0.0000000001
 12
1.0
 22
0.0
 32
0.0
 13
1.0
 23
0.0
 33
0.0
 40
0.0
 40
0.0
 40
0.0
 40
0.0
 40
0.1111111111111111
 40
0.1111111111111111
 40
0.1111111111111111
 40
0.1111111111111111
 40
0.2222222222222222
 40
0.2222222222222222
 40
0.2222222222222222
 40
0.2222222222222222
 40
0.3333333333333333
 40
0.3333333333333333
 40
0.3333333333333333
 40
0.3333333333333333
 40
0.4444444444444444
 40
0.4444444444444444
 40
0.4444444444444444
 40
0.4444444444444444
 40
0.5555555555555556
 40
0.5555555555555556
 40
0.5555555555555556
 40
0.5555555555555556
 40
0.6666666666666666
 40
0.6666666666666666
 40
0.6666666666666666
 40
0.6666666666666666
 40
0.7777777777777778
 40
0.7777777777777778
 40
0.7777777777777778
 40
0.7777777777777778
 40
1.0
 40
1.0
 40
1.0
 40
1.0
 10
119.7652
 20
0.1471
 30
0.0
 10
120.6051
 20
1.1448
 30
0.0
 10
122.5657
 20
1.7434
 30
0.0
 10
125.8114
 20
1.8792
 30
0.0
 10
125.8114
 20
1.8792
 30
0.0
 10
128.5371
 20
1.9933
 30
0.0
 10
131.2985
 20
3.8353
 30
0.0
 10
131.8217
 20
4.9125
 30
0.0
 10
131.8217
 20
4.9125
 30
0.0
 10
130.408
 20
6.4136
 30
0.0
 10
128.7084
 20
7.6077
 30
0.0
 10
127.0563
 20
8.3436
 30
0.0
 10
127.0563
 20
8.3436
 30
0.0
 10
126.5639
 20
7.7876
 30
0.0
 10
126.0714
 20
7.2316
 30
0.0
 10
125.579
 20
6.6757
 30
0.0
 10
125.579
 20
6.6757
 30
0.0
 10
126.8364
 20
6.3972
 30
0.0
 10
127.4011
 20
4.2687
 30
0.0
 10
125.759
 20
3.2418
 30
0.0
 10
125.759
 20
3.2418
 30
0.0
 10
123.8924
 20
2.0745
 30
0.0
 10
122.343
 20
3.4739
 30
0.0
 10
122.4815
 20
4.2453
 30
0.0
 10
122.4815
 20
4.2453
 30
0.0
 10
120.2418
 20
2.6569
 30
0.0
 10
117.5255
 20
1.8785
 30
0.0
 10
114.6663
 20
1.6243
 30
0.0
 10
114.6663
 20
1.6243
 30
0.0
 10
116.8425
 20
1.6085
 30
0.0
 10
118.6851
 20
1.0684
 30
0.0
 10
119.7652
 20
0.1471
 30
0.0
  0
SPLINE
  5
A5
330
1F
100
AcDbEntity
  8
layer 1
 62
   250
100
AcDbSpline
210
0.0
220
0.0
230
1.0
 70
    11
 71
     3
 72
    32
 73
    28
 74
     0
 42
0.0000000001
 43
0.0000000001
 12
1.0
 22
0.0
 32
0.0
 13
1.0
 23
0.0
 33
0.0
 40
0.0
 40
0.0
 40
0.0
 40
0.0
 40
0.125
 40
0.125
 40
0.125
 40
0.125
 40
0.25
 40
0.25
 40
0.25
 40
0.25
 40
0.375
 40
0.375
 40
0.375
 40
0.375
 40
0.5
 40
0.5
 40
0.5
 40
0.5
 40
0.625
 40
0.625
 40
0.625
 40
0.625
 40
0.75
 40
0.75
 40
0.75
 40
0.75
 40
1.0
 40
1.0
 40
1.0
 40
1.0
 10
129.3373
 20
-10.0331
 30
0.0
 10
130.0865
 20
-10.4365
 30
0.0
 10
130.5668
 20
-10.6574
 30
0.0
 10
131.1864
 20
-11.1473
 30
0.0
 10
131.1864
 20
-11.1473
 30
0.0
 10
131.8825
 20
-10.1212
 30
0.0
 10
133.5545
 20
-8.7433
 30
0.0
 10
134.3646
 20
-7.2677
 30
0.0
 10
134.3646
 20
-7.2677
 30
0.0
 10
135.809
 20
-4.6369
 30
0.0
 10
135.7679
 20
-1.3169
 30
0.0
 10
134.4619
 20
1.4984
 30
0.0
 10
134.4619
 20
1.4984
 30
0.0
 10
132.2334
 20
-1.2072
 30
0.0
 10
126.3251
 20
-0.8523
 30
0.0
 10
124.8756
 20
-0.8166
 30
0.0
 10
124.8756
 20
-0.8166
 30
0.0
 10
126.3596
 20
-2.1998
 30
0.0
 10
126.0042
 20
-4.2746
 30
0.0
 10
125.1973
 20
-5.3504
 30
0.0
 10
125.1973
 20
-5.3504
 30
0.0
 10
125.327
 20
-6.0276
 30
0.0
 10
125.644
 20
-6.7624
 30
0.0
 10
125.7737
 20
-7.4396
 30
0.0
 10
125.7737
 20
-7.4396
 30
0.0
 10
127.2433
 20
-6.748
 30
0.0
 10
129.2509
 20
-7.4828
 30
0.0
 10
129.3373
 20
-10.0331
 30
0.0
  0
SPLINE
  5
A6
330
1F
100
AcDbEntity
  8
layer 1
 62
   250
100
AcDbSpline
210
0.0
220
0.0
230
1.0
 70
    11
 71
     3
 72
    40
 73
    36
 74
     0
 42
0.0000000001
 43
0.0000000001
 12
1.0
 22
0.0
 32
0.0
 13
1.0
 23
0.0
 33
0.0
 40
0.0
 40
0.0
 40
0.0
 40
0.0
 40
0.1
 40
0.1
 40
0.1
 40
0.1
 40
0.2
 40
0.2
 40
0.2
 40
0.2
 40
0.3
 40
0.3
 40
0.3
 40
0.3
 40
0.4
 40
0.4
 40
0.4
 40
0.4
 40
0.5
 40
0.5
 40
0.5
 40
0.5
 40
0.6
 40
0.6
 40
0.6
 40
0.6
 40
0.7
 40
0.7
 40
0.7
 40
0.7
 40
0.8
 40
0.8
 40
0.8
 40
0.8
 40
1.0
 40
1.0
 40
1.0
 40
1.0
 10
117.4095
 20
-7.2135
 30
0.0
 10
118.7483
 20
-6.9266
 30
0.0
 10
121.7642
 20
-7.1693
 30
0.0
 10
123.2407
 20
-7.5235
 30
0.0
 10
123.2407
 20
-7.5235
 30
0.0
 10
123.2459
 20
-7.2218
 30
0.0
 10
123.0232
 20
-6.666
 30
0.0
 10
122.8719
 20
-6.3308
 30
0.0
 10
122.8719
 20
-6.3308
 30
0.0
 10
120.4128
 20
-6.3581
 30
0.0
 10
118.3618
 20
-5.1758
 30
0.0
 10
118.5667
 20
-2.2987
 30
0.0
 10
118.5667
 20
-2.2987
 30
0.0
 10
114.3496
 20
-0.4239
 30
0.0
 10
109.1436
 20
-0.7203
 30
0.0
 10
108.7201
 20
-6.5126
 30
0.0
 10
108.7201
 20
-6.5126
 30
0.0
 10
105.2501
 20
-4.846
 30
0.0
 10
103.6622
 20
-2.472
 30
0.0
 10
102.6513
 20
0.1782
 30
0.0
 10
102.6513
 20
0.1782
 30
0.0
 10
101.3672
 20
-1.9939
 30
0.0
 10
100.8355
 20
-4.8816
 30
0.0
 10
100.9038
 20
-8.0373
 30
0.0
 10
100.9038
 20
-8.0373
 30
0.0
 10
102.3676
 20
-9.58
 30
0.0
 10
102.9824
 20
-11.4716
 30
0.0
 10
103.1463
 20
-13.4798
 30
0.0
 10
103.1463
 20
-13.4798
 30
0.0
 10
104.772
 20
-11.417
 30
0.0
 10
107.4716
 20
-9.641
 30
0.0
 10
109.9579
 20
-8.3979
 30
0.0
 10
109.9579
 20
-8.3979
 30
0.0
 10
109.9716
 20
-3.7667
 30
0.0
 10
115.9614
 20
-3.1152
 30
0.0
 10
117.4095
 20
-7.2135
 30
0.0
  0
SPLINE
  5
A7
330
1F
100
AcDbEntity
  8
layer 1
 62
   250
100
AcDbSpline
210
0.0
220
0.0
230
1.0
 70
    11
 71
     3
 72
    32
 73
    28
 74
     0
 42
0.0000000001
 43
0.0000000001
 12
1.0
 22
0.0
 32
0.0
 13
1.0
 23
0.0
 33
0.0
 40
0.0
 40
0.0
 40
0.0
 40
0.0
 40
0.125
 40
0.125
 40
0.125
 40
0.125
 40
0.25
 40
0.25
 40
0.25
 40
0.25
 40
0.375
 40
0.375
 40
0.375
 40
0.375
 40
0.5
 40
0.5
 40
0.5
 40
0.5
 40
0.625
 40
0.625
 40
0.625
 40
0.625
 40
0.75
 40
0.75
 40
0.75
 40
0.75
 40
1.0
 40
1.0
 40
1.0
 40
1.0
 10
149.2207
 20
-10.01
 30
0.0
 10
148.4715
 20
-10.4134
 30
0.0
 10
147.7222
 20
-10.9033
 30
0.0
 10
147.1027
 20
-11.3932
 30
0.0
 10
147.1027
 20
-11.3932
 30
0.0
 10
146.4066
 20
-10.3671
 30
0.0
 10
144.8691
 20
-8.7203
 30
0.0
 10
144.0589
 20
-7.2446
 30
0.0
 10
144.0589
 20
-7.2446
 30
0.0
 10
142.6145
 20
-4.6138
 30
0.0
 10
142.3194
 20
-1.63
 30
0.0
 10
143.8608
 20
1.1852
 30
0.0
 10
143.8608
 20
1.1852
 30
0.0
 10
146.0893
 20
-1.5203
 30
0.0
 10
152.3674
 20
-0.9301
 30
0.0
 10
153.4135
 20
-1.0625
 30
0.0
 10
153.4135
 20
-1.0625
 30
0.0
 10
151.9295
 20
-2.4457
 30
0.0
 10
152.2176
 20
-4.5205
 30
0.0
 10
153.3271
 20
-5.4282
 30
0.0
 10
153.3271
 20
-5.4282
 30
0.0
 10
153.1974
 20
-6.1054
 30
0.0
 10
152.9813
 20
-6.7393
 30
0.0
 10
152.8516
 20
-7.4165
 30
0.0
 10
152.8516
 20
-7.4165
 30
0.0
 10
151.3819
 20
-6.7249
 30
0.0
 10
149.3072
 20
-7.4597
 30
0.0
 10
149.2207
 20
-10.01
 30
0.0
  0
SPLINE
  5
A8
330
1F
100
AcDbEntity
  8
layer 1
 62
   250
100
AcDbSpline
210
0.0
220
0.0
230
1.0
 70
    11
 71
     3
 72
    40
 73
    36
 74
     0
 42
0.0000000001
 43
0.0000000001
 12
1.0
 22
0.0
 32
0.0
 13
1.0
 23
0.0
 33
0.0
 40
0.0
 40
0.0
 40
0.0
 40
0.0
 40
0.1
 40
0.1
 40
0.1
 40
0.1
 40
0.2
 40
0.2
 40
0.2
 40
0.2
 40
0.3
 40
0.3
 40
0.3
 40
0.3
 40
0.4
 40
0.4
 40
0.4
 40
0.4
 40
0.5
 40
0.5
 40
0.5
 40
0.5
 40
0.6
 40
0.6
 40
0.6
 40
0.6
 40
0.7
 40
0.7
 40
0.7
 40
0.7
 40
0.8
 40
0.8
 40
0.8
 40
0.8
 40
1.0
 40
1.0
 40
1.0
 40
1.0
 10
161.2494
 20
-7.2913
 30
0.0
 10
159.9106
 20
-7.0044
 30
0.0
 10
157.0964
 20
-7.0454
 30
0.0
 10
155.5527
 20
-7.3323
 30
0.0
 10
155.5527
 20
-7.3323
 30
0.0
 10
155.6483
 20
-6.9635
 30
0.0
 10
155.7029
 20
-6.6766
 30
0.0
 10
155.9215
 20
-6.3077
 30
0.0
 10
155.9215
 20
-6.3077
 30
0.0
 10
158.3805
 20
-6.335
 30
0.0
 10
159.692
 20
-4.682
 30
0.0
 10
159.4871
 20
-2.5782
 30
0.0
 10
159.4871
 20
-2.5782
 30
0.0
 10
163.4351
 20
-0.5017
 30
0.0
 10
169.1455
 20
-0.9662
 30
0.0
 10
169.569
 20
-6.7585
 30
0.0
 10
169.569
 20
-6.7585
 30
0.0
 10
173.0389
 20
-5.0919
 30
0.0
 10
174.8285
 20
-2.4826
 30
0.0
 10
175.8395
 20
0.1677
 30
0.0
 10
175.8395
 20
0.1677
 30
0.0
 10
177.1236
 20
-2.0045
 30
0.0
 10
177.5881
 20
-4.7913
 30
0.0
 10
177.5198
 20
-7.9471
 30
0.0
 10
177.5198
 20
-7.9471
 30
0.0
 10
175.9214
 20
-9.4225
 30
0.0
 10
175.3067
 20
-11.7175
 30
0.0
 10
175.1428
 20
-13.7257
 30
0.0
 10
175.1428
 20
-13.7257
 30
0.0
 10
173.5171
 20
-11.6629
 30
0.0
 10
171.1537
 20
-9.8869
 30
0.0
 10
168.6674
 20
-8.6438
 30
0.0
 10
168.6674
 20
-8.6438
 30
0.0
 10
168.6537
 20
-4.0126
 30
0.0
 10
162.6974
 20
-3.193
 30
0.0
 10
161.2494
 20
-7.2913
 30
0.0
  0
SPLINE
  5
A9
330
1F
100
AcDbEntity
  8
layer 1
 62
   250
100
AcDbSpline
210
0.0
220
0.0
230
1.0
 70
    11
 71
     3
 72
    24
 73
    20
 74
     0
 42
0.0000000001
 43
0.0000000001
 12
1.0
 22
0.0
 32
0.0
 13
1.0
 23
0.0
 33
0.0
 40
0.0
 40
0.0
 40
0.0
 40
0.0
 40
0.1666666666666667
 40
0.1666666666666667
 40
0.1666666666666667
 40
0.1666666666666667
 40
0.3333333333333333
 40
0.3333333333333333
 40
0.3333333333333333
 40
0.3333333333333333
 40
0.5
 40
0.5
 40
0.5
 40
0.5
 40
0.6666666666666666
 40
0.6666666666666666
 40
0.6666666666666666
 40
0.6666666666666666
 40
1.0
 40
1.0
 40
1.0
 40
1.0
 10
168.7621
 20
-20.4035
 30
0.0
 10
169.3171
 20
-15.6861
 30
0.0
 10
166.8752
 20
-13.3996
 30
0.0
 10
164.733
 20
-11.5459
 30
0.0
 10
164.733
 20
-11.5459
 30
0.0
 10
166.1315
 20
-11.7568
 30
0.0
 10
167.1638
 20
-11.4016
 30
0.0
 10
167.5301
 20
-10.9798
 30
0.0
 10
167.5301
 20
-10.9798
 30
0.0
 10
168.8509
 20
-11.4571
 30
0.0
 10
170.3716
 20
-12.334
 30
0.0
 10
171.526
 20
-13.444
 30
0.0
 10
171.526
 20
-13.444
 30
0.0
 10
169.2172
 20
-15.0645
 30
0.0
 10
170.8378
 20
-19.0493
 30
0.0
 10
173.2575
 20
-18.1724
 30
0.0
 10
173.2575
 20
-18.1724
 30
0.0
 10
172.5915
 20
-19.1825
 30
0.0
 10
170.5603
 20
-20.1926
 30
0.0
 10
168.7621
 20
-20.4035
 30
0.0
  0
SPLINE
  5
AA
330
1F
100
AcDbEntity
  8
layer 1
 62
   250
100
AcDbSpline
210
0.0
220
0.0
230
1.0
 70
    11
 71
     3
 72
    28
 73
    24
 74
     0
 42
0.0000000001
 43
0.0000000001
 12
1.0
 22
0.0
 32
0.0
 13
1.0
 23
0.0
 33
0.0
 40
0.0
 40
0.0
 40
0.0
 40
0.0
 40
0.1428571428571428
 40
0.1428571428571428
 40
0.1428571428571428
 40
0.1428571428571428
 40
0.2857142857142857
 40
0.2857142857142857
 40
0.2857142857142857
 40
0.2857142857142857
 40
0.4285714285714285
 40
0.4285714285714285
 40
0.4285714285714285
 40
0.4285714285714285
 40
0.5714285714285714
 40
0.5714285714285714
 40
0.5714285714285714
 40
0.5714285714285714
 40
0.7142857142857143
 40
0.7142857142857143
 40
0.7142857142857143
 40
0.7142857142857143
 40
1.0
 40
1.0
 40
1.0
 40
1.0
 10
184.5126
 20
-20.7365
 30
0.0
 10
186.1855
 20
-19.7954
 30
0.0
 10
185.4927
 20
-17.4674
 30
0.0
 10
183.2801
 20
-16.8191
 30
0.0
 10
183.2801
 20
-16.8191
 30
0.0
 10
181.4627
 20
-16.2867
 30
0.0
 10
179.806
 20
-17.7281
 30
0.0
 10
180.8497
 20
-19.5377
 30
0.0
 10
180.8497
 20
-19.5377
 30
0.0
 10
179.9173
 20
-19.0049
 30
0.0
 10
178.4189
 20
-17.8727
 30
0.0
 10
177.3866
 20
-16.4742
 30
0.0
 10
177.3866
 20
-16.4742
 30
0.0
 10
178.0625
 20
-14.8702
 30
0.0
 10
179.306
 20
-12.3225
 30
0.0
 10
181.8766
 20
-12.6644
 30
0.0
 10
181.8766
 20
-12.6644
 30
0.0
 10
184.8829
 20
-13.0642
 30
0.0
 10
188.2931
 20
-16.7362
 30
0.0
 10
189.6074
 20
-19.1381
 30
0.0
 10
189.6074
 20
-19.1381
 30
0.0
 10
188.3753
 20
-20.237
 30
0.0
 10
186.5105
 20
-20.7365
 30
0.0
 10
184.5126
 20
-20.7365
 30
0.0
  0
SPLINE
  5
AB
330
1F
100
AcDbEntity
  8
layer 1
 62
   250
100
AcDbSpline
210
0.0
220
0.0
230
1.0
 70
    11
 71
     3
 72
    24
 73
    20
 74
     0
 42
0.0000000001
 43
0.0000000001
 12
1.0
 22
0.0
 32
0.0
 13
1.0
 23
0.0
 33
0.0
 40
0.0
 40
0.0
 40
0.0
 40
0.0
 40
0.1666666666666667
 40
0.1666666666666667
 40
0.1666666666666667
 40
0.1666666666666667
 40
0.3333333333333333
 40
0.3333333333333333
 40
0.3333333333333333
 40
0.3333333333333333
 40
0.5
 40
0.5
 40
0.5
 40
0.5
 40
0.6666666666666666
 40
0.6666666666666666
 40
0.6666666666666666
 40
0.6666666666666666
 40
1.0
 40
1.0
 40
1.0
 40
1.0
 10
109.6478
 20
-20.4316
 30
0.0
 10
109.0928
 20
-15.7143
 30
0.0
 10
111.5629
 20
-13.3996
 30
0.0
 10
113.7051
 20
-11.5459
 30
0.0
 10
113.7051
 20
-11.5459
 30
0.0
 10
112.3066
 20
-11.7568
 30
0.0
 10
111.077
 20
-11.2889
 30
0.0
 10
110.7108
 20
-10.8671
 30
0.0
 10
110.7108
 20
-10.8671
 30
0.0
 10
109.3899
 20
-11.5135
 30
0.0
 10
107.8974
 20
-12.334
 30
0.0
 10
106.743
 20
-13.444
 30
0.0
 10
106.743
 20
-13.444
 30
0.0
 10
109.8125
 20
-14.8391
 30
0.0
 10
107.6848
 20
-19.3592
 30
0.0
 10
105.0115
 20
-18.1724
 30
0.0
 10
105.0115
 20
-18.1724
 30
0.0
 10
105.6775
 20
-19.1825
 30
0.0
 10
107.8496
 20
-20.2208
 30
0.0
 10
109.6478
 20
-20.4316
 30
0.0
  0
SPLINE
  5
AC
330
1F
100
AcDbEntity
  8
layer 1
 62
   250
100
AcDbSpline
210
0.0
220
0.0
230
1.0
 70
    11
 71
     3
 72
    28
 73
    24
 74
     0
 42
0.0000000001
 43
0.0000000001
 12
1.0
 22
0.0
 32
0.0
 13
1.0
 23
0.0
 33
0.0
 40
0.0
 40
0.0
 40
0.0
 40
0.0
 40
0.1428571428571428
 40
0.1428571428571428
 40
0.1428571428571428
 40
0.1428571428571428
 40
0.2857142857142857
 40
0.2857142857142857
 40
0.2857142857142857
 40
0.2857142857142857
 40
0.4285714285714285
 40
0.4285714285714285
 40
0.4285714285714285
 40
0.4285714285714285
 40
0.5714285714285714
 40
0.5714285714285714
 40
0.5714285714285714
 40
0.5714285714285714
 40
0.7142857142857143
 40
0.7142857142857143
 40
0.7142857142857143
 40
0.7142857142857143
 40
1.0
 40
1.0
 40
1.0
 40
1.0
 10
93.7564
 20
-20.7365
 30
0.0
 10
92.0835
 20
-19.7954
 30
0.0
 10
92.8327
 20
-17.3264
 30
0.0
 10
95.0453
 20
-16.6782
 30
0.0
 10
95.0453
 20
-16.6782
 30
0.0
 10
96.8625
 20
-16.1458
 30
0.0
 10
98.4348
 20
-17.6999
 30
0.0
 10
97.6165
 20
-19.5095
 30
0.0
 10
97.6165
 20
-19.5095
 30
0.0
 10
98.5489
 20
-18.9767
 30
0.0
 10
99.8501
 20
-17.8727
 30
0.0
 10
100.8824
 20
-16.4742
 30
0.0
 10
100.8824
 20
-16.4742
 30
0.0
 10
100.2065
 20
-14.8702
 30
0.0
 10
98.963
 20
-12.3225
 30
0.0
 10
96.3924
 20
-12.6644
 30
0.0
 10
96.3924
 20
-12.6644
 30
0.0
 10
93.3861
 20
-13.0641
 30
0.0
 10
90.0886
 20
-16.5953
 30
0.0
 10
88.7744
 20
-18.9972
 30
0.0
 10
88.7744
 20
-18.9972
 30
0.0
 10
90.0064
 20
-20.0961
 30
0.0
 10
91.7585
 20
-20.7365
 30
0.0
 10
93.7564
 20
-20.7365
 30
0.0
  0
SPLINE
  5
AD
330
1F
100
AcDbEntity
  8
layer 1
 62
   250
100
AcDbSpline
210
0.0
220
0.0
230
1.0
 70
    11
 71
     3
 72
    20
 73
    16
 74
     0
 42
0.0000000001
 43
0.0000000001
 12
1.0
 22
0.0
 32
0.0
 13
1.0
 23
0.0
 33
0.0
 40
0.0
 40
0.0
 40
0.0
 40
0.0
 40
0.2
 40
0.2
 40
0.2
 40
0.2
 40
0.4
 40
0.4
 40
0.4
 40
0.4
 40
0.6
 40
0.6
 40
0.6
 40
0.6
 40
1.0
 40
1.0
 40
1.0
 40
1.0
 10
141.7038
 20
3.1805
 30
0.0
 10
140.4477
 20
1.0626
 30
0.0
 10
139.1644
 20
-3.5097
 30
0.0
 10
139.0514
 20
-6.8831
 30
0.0
 10
139.0514
 20
-6.8831
 30
0.0
 10
138.8214
 20
-2.9779
 30
0.0
 10
137.911
 20
1.2005
 30
0.0
 10
136.4018
 20
3.3363
 30
0.0
 10
136.4018
 20
3.3363
 30
0.0
 10
137.3858
 20
4.5385
 30
0.0
 10
138.5874
 20
6.9397
 30
0.0
 10
139.0542
 20
8.3842
 30
0.0
 10
139.0542
 20
8.3842
 30
0.0
 10
139.5836
 20
6.677
 30
0.0
 10
140.7662
 20
4.479
 30
0.0
 10
141.7038
 20
3.1805
 30
0.0
  0
SPLINE
  5
AE
330
1F
100
AcDbEntity
  8
layer 1
 62
   250
100
AcDbSpline
210
0.0
220
0.0
230
1.0
 70
    11
 71
     3
 72
    24
 73
    20
 74
     0
 42
0.0000000001
 43
0.0000000001
 12
1.0
 22
0.0
 32
0.0
 13
1.0
 23
0.0
 33
0.0
 40
0.0
 40
0.0
 40
0.0
 40
0.0
 40
0.1666666666666667
 40
0.1666666666666667
 40
0.1666666666666667
 40
0.1666666666666667
 40
0.3333333333333333
 40
0.3333333333333333
 40
0.3333333333333333
 40
0.3333333333333333
 40
0.5
 40
0.5
 40
0.5
 40
0.5
 40
0.6666666666666666
 40
0.6666666666666666
 40
0.6666666666666666
 40
0.6666666666666666
 40
1.0
 40
1.0
 40
1.0
 40
1.0
 10
141.5948
 20
-18.3297
 30
0.0
 10
140.3387
 20
-16.2043
 30
0.0
 10
139.2734
 20
-12.8235
 30
0.0
 10
139.0514
 20
-8.681
 30
0.0
 10
139.0514
 20
-8.681
 30
0.0
 10
138.9303
 20
-13.3033
 30
0.0
 10
137.8565
 20
-16.3457
 30
0.0
 10
136.9467
 20
-18.1605
 30
0.0
 10
136.9467
 20
-18.1605
 30
0.0
 10
137.2768
 20
-19.4723
 30
0.0
 10
137.6612
 20
-20.7308
 30
0.0
 10
138.128
 20
-21.7977
 30
0.0
 10
138.128
 20
-21.7977
 30
0.0
 10
138.4678
 20
-20.44
 30
0.0
 10
139.7253
 20
-20.536
 30
0.0
 10
140.1961
 20
-21.812
 30
0.0
 10
140.1961
 20
-21.812
 30
0.0
 10
140.5047
 20
-20.7662
 30
0.0
 10
141.1627
 20
-19.2561
 30
0.0
 10
141.5948
 20
-18.3297
 30
0.0
  0
SPLINE
  5
AF
330
1F
100
AcDbEntity
  8
layer 1
 62
   250
100
AcDbSpline
210
0.0
220
0.0
230
1.0
 70
    11
 71
     3
 72
    20
 73
    16
 74
     0
 42
0.0000000001
 43
0.0000000001
 12
1.0
 22
0.0
 32
0.0
 13
1.0
 23
0.0
 33
0.0
 40
0.0
 40
0.0
 40
0.0
 40
0.0
 40
0.2
 40
0.2
 40
0.2
 40
0.2
 40
0.4
 40
0.4
 40
0.4
 40
0.4
 40
0.6
 40
0.6
 40
0.6
 40
0.6
 40
1.0
 40
1.0
 40
1.0
 40
1.0
 10
150.4462
 20
-27.5376
 30
0.0
 10
148.2656
 20
-27.9057
 30
0.0
 10
145.9577
 20
-29.1659
 30
0.0
 10
144.4143
 20
-30.596
 30
0.0
 10
144.4143
 20
-30.596
 30
0.0
 10
143.3949
 20
-29.2509
 30
0.0
 10
142.5453
 20
-28.0757
 30
0.0
 10
141.5683
 20
-26.5181
 30
0.0
 10
141.5683
 20
-26.5181
 30
0.0
 10
142.0356
 20
-24.5925
 30
0.0
 10
142.6303
 20
-22.6668
 30
0.0
 10
143.3099
 20
-21.081
 30
0.0
 10
143.3099
 20
-21.081
 30
0.0
 10
145.0656
 20
-23.6863
 30
0.0
 10
147.416
 20
-25.9942
 30
0.0
 10
150.4462
 20
-27.5376
 30
0.0
  0
SPLINE
  5
B0
330
1F
100
AcDbEntity
  8
layer 1
 62
   250
100
AcDbSpline
210
0.0
220
0.0
230
1.0
 70
    11
 71
     3
 72
    16
 73
    12
 74
     0
 42
0.0000000001
 43
0.0000000001
 12
1.0
 22
0.0
 32
0.0
 13
1.0
 23
0.0
 33
0.0
 40
0.0
 40
0.0
 40
0.0
 40
0.0
 40
0.25
 40
0.25
 40
0.25
 40
0.25
 40
0.5
 40
0.5
 40
0.5
 40
0.5
 40
1.0
 40
1.0
 40
1.0
 40
1.0
 10
156.4779
 20
-34.6738
 30
0.0
 10
155.7417
 20
-33.442
 30
0.0
 10
155.2603
 20
-31.6154
 30
0.0
 10
155.1612
 20
-30.0013
 30
0.0
 10
155.1612
 20
-30.0013
 30
0.0
 10
156.5063
 20
-29.888
 30
0.0
 10
158.8709
 20
-31.0066
 30
0.0
 10
160.8957
 20
-31.0632
 30
0.0
 10
160.8957
 20
-31.0632
 30
0.0
 10
159.1824
 20
-31.7712
 30
0.0
 10
157.5965
 20
-33.0313
 30
0.0
 10
156.4779
 20
-34.6738
 30
0.0
  0
SPLINE
  5
B1
330
1F
100
AcDbEntity
  8
layer 1
 62
   250
100
AcDbSpline
210
0.0
220
0.0
230
1.0
 70
    11
 71
     3
 72
    56
 73
    52
 74
     0
 42
0.0000000001
 43
0.0000000001
 12
1.0
 22
0.0
 32
0.0
 13
1.0
 23
0.0
 33
0.0
 40
0.0
 40
0.0
 40
0.0
 40
0.0
 40
0.0714285714285714
 40
0.0714285714285714
 40
0.0714285714285714
 40
0.0714285714285714
 40
0.1428571428571428
 40
0.1428571428571428
 40
0.1428571428571428
 40
0.1428571428571428
 40
0.2142857142857143
 40
0.2142857142857143
 40
0.2142857142857143
 40
0.2142857142857143
 40
0.2857142857142857
 40
0.2857142857142857
 40
0.2857142857142857
 40
0.2857142857142857
 40
0.3571428571428572
 40
0.3571428571428572
 40
0.3571428571428572
 40
0.3571428571428572
 40
0.4285714285714285
 40
0.4285714285714285
 40
0.4285714285714285
 40
0.4285714285714285
 40
0.5
 40
0.5
 40
0.5
 40
0.5
 40
0.5714285714285714
 40
0.5714285714285714
 40
0.5714285714285714
 40
0.5714285714285714
 40
0.6428571428571429
 40
0.6428571428571429
 40
0.6428571428571429
 40
0.6428571428571429
 40
0.7142857142857143
 40
0.7142857142857143
 40
0.7142857142857143
 40
0.7142857142857143
 40
0.7857142857142857
 40
0.7857142857142857
 40
0.7857142857142857
 40
0.7857142857142857
 40
0.8571428571428571
 40
0.8571428571428571
 40
0.8571428571428571
 40
0.8571428571428571
 40
1.0
 40
1.0
 40
1.0
 40
1.0
 10
161.1505
 20
-28.727
 30
0.0
 10
159.3665
 20
-28.557
 30
0.0
 10
157.2851
 20
-27.8774
 30
0.0
 10
155.2886
 20
-27.0703
 30
0.0
 10
155.2886
 20
-27.0703
 30
0.0
 10
155.8116
 20
-24.5934
 30
0.0
 10
157.6595
 20
-22.5632
 30
0.0
 10
158.8344
 20
-22.6028
 30
0.0
 10
158.8344
 20
-22.6028
 30
0.0
 10
159.9171
 20
-22.6394
 30
0.0
 10
161.2602
 20
-23.4695
 30
0.0
 10
159.0691
 20
-24.819
 30
0.0
 10
159.0691
 20
-24.819
 30
0.0
 10
161.3346
 20
-27.75
 30
0.0
 10
166.1911
 20
-26.8579
 30
0.0
 10
168.0744
 20
-22.9075
 30
0.0
 10
168.0744
 20
-22.9075
 30
0.0
 10
171.5292
 20
-22.8934
 30
0.0
 10
174.5593
 20
-21.1377
 30
0.0
 10
175.8478
 20
-18.9146
 30
0.0
 10
175.8478
 20
-18.9146
 30
0.0
 10
176.8955
 20
-22.1004
 30
0.0
 10
177.0938
 20
-25.5411
 30
0.0
 10
176.6974
 20
-29.2367
 30
0.0
 10
176.6974
 20
-29.2367
 30
0.0
 10
175.6354
 20
-29.0101
 30
0.0
 10
174.6584
 20
-28.8685
 30
0.0
 10
173.554
 20
-28.7694
 30
0.0
 10
173.554
 20
-28.7694
 30
0.0
 10
174.5403
 20
-28.1569
 30
0.0
 10
176.033
 20
-26.5432
 30
0.0
 10
175.9936
 20
-24.907
 30
0.0
 10
175.9936
 20
-24.907
 30
0.0
 10
175.963
 20
-23.6343
 30
0.0
 10
175.3808
 20
-22.4338
 30
0.0
 10
173.4279
 20
-22.1509
 30
0.0
 10
173.4279
 20
-22.1509
 30
0.0
 10
170.8169
 20
-21.7726
 30
0.0
 10
169.5823
 20
-26.5146
 30
0.0
 10
172.7469
 20
-26.4332
 30
0.0
 10
172.7469
 20
-26.4332
 30
0.0
 10
171.6142
 20
-27.2119
 30
0.0
 10
170.4814
 20
-27.9906
 30
0.0
 10
169.3487
 20
-28.7694
 30
0.0
 10
169.3487
 20
-28.7694
 30
0.0
 10
168.0886
 20
-28.642
 30
0.0
 10
164.2372
 20
-29.4916
 30
0.0
 10
165.5682
 20
-27.2402
 30
0.0
 10
165.5682
 20
-27.2402
 30
0.0
 10
165.1135
 20
-26.5854
 30
0.0
 10
161.686
 20
-26.7388
 30
0.0
 10
161.1505
 20
-28.727
 30
0.0
  0
SPLINE
  5
B2
330
1F
100
AcDbEntity
  8
layer 1
 62
   250
100
AcDbSpline
210
0.0
220
0.0
230
1.0
 70
    11
 71
     3
 72
    32
 73
    28
 74
     0
 42
0.0000000001
 43
0.0000000001
 12
1.0
 22
0.0
 32
0.0
 13
1.0
 23
0.0
 33
0.0
 40
0.0
 40
0.0
 40
0.0
 40
0.0
 40
0.125
 40
0.125
 40
0.125
 40
0.125
 40
0.25
 40
0.25
 40
0.25
 40
0.25
 40
0.375
 40
0.375
 40
0.375
 40
0.375
 40
0.5
 40
0.5
 40
0.5
 40
0.5
 40
0.625
 40
0.625
 40
0.625
 40
0.625
 40
0.75
 40
0.75
 40
0.75
 40
0.75
 40
1.0
 40
1.0
 40
1.0
 40
1.0
 10
153.0373
 20
-25.881
 30
0.0
 10
151.4231
 20
-25.2438
 30
0.0
 10
148.747
 20
-23.6296
 30
0.0
 10
147.94
 20
-21.2934
 30
0.0
 10
147.94
 20
-21.2934
 30
0.0
 10
150.8143
 20
-21.3358
 30
0.0
 10
150.8427
 20
-16.4084
 30
0.0
 10
147.7701
 20
-15.9837
 30
0.0
 10
147.7701
 20
-15.9837
 30
0.0
 10
147.8267
 20
-15.3607
 30
0.0
 10
147.8834
 20
-14.8226
 30
0.0
 10
147.8125
 20
-14.1996
 30
0.0
 10
147.8125
 20
-14.1996
 30
0.0
 10
148.6479
 20
-13.5058
 30
0.0
 10
149.4408
 20
-12.9395
 30
0.0
 10
150.3187
 20
-12.5005
 30
0.0
 10
150.3187
 20
-12.5005
 30
0.0
 10
151.2249
 20
-12.9819
 30
0.0
 10
152.301
 20
-12.8686
 30
0.0
 10
152.9099
 20
-12.4155
 30
0.0
 10
152.9099
 20
-12.4155
 30
0.0
 10
153.193
 20
-15.4456
 30
0.0
 10
155.2603
 20
-18.5182
 30
0.0
 10
157.455
 20
-19.9766
 30
0.0
 10
157.455
 20
-19.9766
 30
0.0
 10
155.2178
 20
-20.8827
 30
0.0
 10
153.6603
 20
-23.5305
 30
0.0
 10
153.0373
 20
-25.881
 30
0.0
  0
SPLINE
  5
B3
330
1F
100
AcDbEntity
  8
layer 1
 62
   250
100
AcDbSpline
210
0.0
220
0.0
230
1.0
 70
    11
 71
     3
 72
    16
 73
    12
 74
     0
 42
0.0000000001
 43
0.0000000001
 12
1.0
 22
0.0
 32
0.0
 13
1.0
 23
0.0
 33
0.0
 40
0.0
 40
0.0
 40
0.0
 40
0.0
 40
0.25
 40
0.25
 40
0.25
 40
0.25
 40
0.5
 40
0.5
 40
0.5
 40
0.5
 40
1.0
 40
1.0
 40
1.0
 40
1.0
 10
165.7369
 20
-38.3269
 30
0.0
 10
163.8271
 20
-38.6243
 30
0.0
 10
160.8958
 20
-38.072
 30
0.0
 10
158.6443
 20
-36.3729
 30
0.0
 10
158.6443
 20
-36.3729
 30
0.0
 10
160.4565
 20
-34.0791
 30
0.0
 10
163.2456
 20
-32.3376
 30
0.0
 10
166.5452
 20
-31.6579
 30
0.0
 10
166.5452
 20
-31.6579
 30
0.0
 10
165.2432
 20
-33.5694
 30
0.0
 10
165.0025
 20
-36.5428
 30
0.0
 10
165.7369
 20
-38.3269
 30
0.0
  0
SPLINE
  5
B4
330
1F
100
AcDbEntity
  8
layer 1
 62
   250
100
AcDbSpline
210
0.0
220
0.0
230
1.0
 70
    11
 71
     3
 72
    16
 73
    12
 74
     0
 42
0.0000000001
 43
0.0000000001
 12
1.0
 22
0.0
 32
0.0
 13
1.0
 23
0.0
 33
0.0
 40
0.0
 40
0.0
 40
0.0
 40
0.0
 40
0.25
 40
0.25
 40
0.25
 40
0.25
 40
0.5
 40
0.5
 40
0.5
 40
0.5
 40
1.0
 40
1.0
 40
1.0
 40
1.0
 10
171.7758
 20
-36.5004
 30
0.0
 10
173.4845
 20
-35.6083
 30
0.0
 10
175.4221
 20
-32.5075
 30
0.0
 10
175.8902
 20
-31.4455
 30
0.0
 10
175.8902
 20
-31.4455
 30
0.0
 10
175.1577
 20
-31.2331
 30
0.0
 10
173.0432
 20
-31.0208
 30
0.0
 10
171.7274
 20
-31.1057
 30
0.0
 10
171.7274
 20
-31.1057
 30
0.0
 10
170.5826
 20
-33.1871
 30
0.0
 10
171.1269
 20
-36.0756
 30
0.0
 10
171.7758
 20
-36.5004
 30
0.0
  0
SPLINE
  5
B5
330
1F
100
AcDbEntity
  8
layer 1
 62
   250
100
AcDbSpline
210
0.0
220
0.0
230
1.0
 70
    11
 71
     3
 72
    20
 73
    16
 74
     0
 42
0.0000000001
 43
0.0000000001
 12
1.0
 22
0.0
 32
0.0
 13
1.0
 23
0.0
 33
0.0
 40
0.0
 40
0.0
 40
0.0
 40
0.0
 40
0.2
 40
0.2
 40
0.2
 40
0.2
 40
0.4
 40
0.4
 40
0.4
 40
0.4
 40
0.6
 40
0.6
 40
0.6
 40
0.6
 40
1.0
 40
1.0
 40
1.0
 40
1.0
 10
159.8467
 20
-18.9479
 30
0.0
 10
157.3445
 20
-17.3458
 30
0.0
 10
154.9503
 20
-13.1514
 30
0.0
 10
154.9324
 20
-10.0912
 30
0.0
 10
154.9324
 20
-10.0912
 30
0.0
 10
156.6965
 20
-9.4072
 30
0.0
 10
159.2167
 20
-9.3712
 30
0.0
 10
161.1968
 20
-9.4972
 30
0.0
 10
161.1968
 20
-9.4972
 30
0.0
 10
160.8686
 20
-11.6869
 30
0.0
 10
163.8373
 20
-13.5944
 30
0.0
 10
163.5063
 20
-15.7422
 30
0.0
 10
163.5063
 20
-15.7422
 30
0.0
 10
163.2935
 20
-17.1237
 30
0.0
 10
162.9928
 20
-18.3114
 30
0.0
 10
159.8467
 20
-18.9479
 30
0.0
  0
SPLINE
  5
B6
330
1F
100
AcDbEntity
  8
layer 1
 62
   250
100
AcDbSpline
210
0.0
220
0.0
230
1.0
 70
    11
 71
     3
 72
    20
 73
    16
 74
     0
 42
0.0000000001
 43
0.0000000001
 12
1.0
 22
0.0
 32
0.0
 13
1.0
 23
0.0
 33
0.0
 40
0.0
 40
0.0
 40
0.0
 40
0.0
 40
0.2
 40
0.2
 40
0.2
 40
0.2
 40
0.4
 40
0.4
 40
0.4
 40
0.4
 40
0.6
 40
0.6
 40
0.6
 40
0.6
 40
1.0
 40
1.0
 40
1.0
 40
1.0
 10
127.9381
 20
-27.5376
 30
0.0
 10
130.1187
 20
-27.9057
 30
0.0
 10
132.092
 20
-29.099
 30
0.0
 10
133.6354
 20
-30.5291
 30
0.0
 10
133.6354
 20
-30.5291
 30
0.0
 10
134.6548
 20
-29.184
 30
0.0
 10
135.7386
 20
-27.808
 30
0.0
 10
136.7156
 20
-26.2504
 30
0.0
 10
136.7156
 20
-26.2504
 30
0.0
 10
136.2483
 20
-24.3248
 30
0.0
 10
135.754
 20
-22.6668
 30
0.0
 10
135.0744
 20
-21.081
 30
0.0
 10
135.0744
 20
-21.081
 30
0.0
 10
133.3186
 20
-23.6863
 30
0.0
 10
130.9682
 20
-25.9942
 30
0.0
 10
127.9381
 20
-27.5376
 30
0.0
  0
SPLINE
  5
B7
330
1F
100
AcDbEntity
  8
layer 1
 62
   250
100
AcDbSpline
210
0.0
220
0.0
230
1.0
 70
    11
 71
     3
 72
    16
 73
    12
 74
     0
 42
0.0000000001
 43
0.0000000001
 12
1.0
 22
0.0
 32
0.0
 13
1.0
 23
0.0
 33
0.0
 40
0.0
 40
0.0
 40
0.0
 40
0.0
 40
0.25
 40
0.25
 40
0.25
 40
0.25
 40
0.5
 40
0.5
 40
0.5
 40
0.5
 40
1.0
 40
1.0
 40
1.0
 40
1.0
 10
122.0281
 20
-34.4303
 30
0.0
 10
122.7644
 20
-33.1984
 30
0.0
 10
123.124
 20
-31.6154
 30
0.0
 10
123.2231
 20
-30.0013
 30
0.0
 10
123.2231
 20
-30.0013
 30
0.0
 10
121.878
 20
-29.888
 30
0.0
 10
119.7917
 20
-30.8674
 30
0.0
 10
117.767
 20
-30.9241
 30
0.0
 10
117.767
 20
-30.9241
 30
0.0
 10
119.4803
 20
-31.632
 30
0.0
 10
120.9095
 20
-32.7878
 30
0.0
 10
122.0281
 20
-34.4303
 30
0.0
  0
SPLINE
  5
B8
330
1F
100
AcDbEntity
  8
layer 1
 62
   250
100
AcDbSpline
210
0.0
220
0.0
230
1.0
 70
    11
 71
     3
 72
    56
 73
    52
 74
     0
 42
0.0000000001
 43
0.0000000001
 12
1.0
 22
0.0
 32
0.0
 13
1.0
 23
0.0
 33
0.0
 40
0.0
 40
0.0
 40
0.0
 40
0.0
 40
0.0714285714285714
 40
0.0714285714285714
 40
0.0714285714285714
 40
0.0714285714285714
 40
0.1428571428571428
 40
0.1428571428571428
 40
0.1428571428571428
 40
0.1428571428571428
 40
0.2142857142857143
 40
0.2142857142857143
 40
0.2142857142857143
 40
0.2142857142857143
 40
0.2857142857142857
 40
0.2857142857142857
 40
0.2857142857142857
 40
0.2857142857142857
 40
0.3571428571428572
 40
0.3571428571428572
 40
0.3571428571428572
 40
0.3571428571428572
 40
0.4285714285714285
 40
0.4285714285714285
 40
0.4285714285714285
 40
0.4285714285714285
 40
0.5
 40
0.5
 40
0.5
 40
0.5
 40
0.5714285714285714
 40
0.5714285714285714
 40
0.5714285714285714
 40
0.5714285714285714
 40
0.6428571428571429
 40
0.6428571428571429
 40
0.6428571428571429
 40
0.6428571428571429
 40
0.7142857142857143
 40
0.7142857142857143
 40
0.7142857142857143
 40
0.7142857142857143
 40
0.7857142857142857
 40
0.7857142857142857
 40
0.7857142857142857
 40
0.7857142857142857
 40
0.8571428571428571
 40
0.8571428571428571
 40
0.8571428571428571
 40
0.8571428571428571
 40
1.0
 40
1.0
 40
1.0
 40
1.0
 10
117.401
 20
-28.66
 30
0.0
 10
119.1851
 20
-28.4901
 30
0.0
 10
121.0992
 20
-27.8774
 30
0.0
 10
123.0957
 20
-27.0703
 30
0.0
 10
123.0957
 20
-27.0703
 30
0.0
 10
122.5727
 20
-24.5934
 30
0.0
 10
120.7248
 20
-22.5632
 30
0.0
 10
119.5499
 20
-22.6028
 30
0.0
 10
119.5499
 20
-22.6028
 30
0.0
 10
118.4672
 20
-22.6394
 30
0.0
 10
117.124
 20
-23.4695
 30
0.0
 10
119.3152
 20
-24.819
 30
0.0
 10
119.3152
 20
-24.819
 30
0.0
 10
117.0497
 20
-27.75
 30
0.0
 10
112.1262
 20
-26.7241
 30
0.0
 10
110.243
 20
-22.7737
 30
0.0
 10
110.243
 20
-22.7737
 30
0.0
 10
106.7881
 20
-22.7595
 30
0.0
 10
103.9254
 20
-21.2046
 30
0.0
 10
102.6369
 20
-18.9815
 30
0.0
 10
102.6369
 20
-18.9815
 30
0.0
 10
101.288
 20
-21.9666
 30
0.0
 10
101.2236
 20
-25.3404
 30
0.0
 10
101.62
 20
-29.0359
 30
0.0
 10
101.62
 20
-29.0359
 30
0.0
 10
102.6819
 20
-28.8094
 30
0.0
 10
103.5251
 20
-28.7347
 30
0.0
 10
104.6295
 20
-28.6356
 30
0.0
 10
104.6295
 20
-28.6356
 30
0.0
 10
103.6432
 20
-28.023
 30
0.0
 10
102.6525
 20
-26.5096
 30
0.0
 10
102.6918
 20
-24.8735
 30
0.0
 10
102.6918
 20
-24.8735
 30
0.0
 10
102.7223
 20
-23.601
 30
0.0
 10
103.2256
 20
-22.2966
 30
0.0
 10
105.1906
 20
-22.1174
 30
0.0
 10
105.1906
 20
-22.1174
 30
0.0
 10
108.2364
 20
-21.8396
 30
0.0
 10
109.2369
 20
-26.5146
 30
0.0
 10
106.0723
 20
-26.4332
 30
0.0
 10
106.0723
 20
-26.4332
 30
0.0
 10
107.2051
 20
-27.2119
 30
0.0
 10
108.204
 20
-27.9237
 30
0.0
 10
109.3367
 20
-28.7025
 30
0.0
 10
109.3367
 20
-28.7025
 30
0.0
 10
110.5969
 20
-28.5751
 30
0.0
 10
114.6155
 20
-29.6923
 30
0.0
 10
113.2176
 20
-26.9726
 30
0.0
 10
113.2176
 20
-26.9726
 30
0.0
 10
113.7057
 20
-26.6523
 30
0.0
 10
116.8656
 20
-26.6719
 30
0.0
 10
117.401
 20
-28.66
 30
0.0
  0
SPLINE
  5
B9
330
1F
100
AcDbEntity
  8
layer 1
 62
   250
100
AcDbSpline
210
0.0
220
0.0
230
1.0
 70
    11
 71
     3
 72
    32
 73
    28
 74
     0
 42
0.0000000001
 43
0.0000000001
 12
1.0
 22
0.0
 32
0.0
 13
1.0
 23
0.0
 33
0.0
 40
0.0
 40
0.0
 40
0.0
 40
0.0
 40
0.125
 40
0.125
 40
0.125
 40
0.125
 40
0.25
 40
0.25
 40
0.25
 40
0.25
 40
0.375
 40
0.375
 40
0.375
 40
0.375
 40
0.5
 40
0.5
 40
0.5
 40
0.5
 40
0.625
 40
0.625
 40
0.625
 40
0.625
 40
0.75
 40
0.75
 40
0.75
 40
0.75
 40
1.0
 40
1.0
 40
1.0
 40
1.0
 10
125.4139
 20
-25.814
 30
0.0
 10
127.1642
 20
-25.01
 30
0.0
 10
129.3729
 20
-23.5628
 30
0.0
 10
130.1432
 20
-21.2264
 30
0.0
 10
130.1432
 20
-21.2264
 30
0.0
 10
127.2688
 20
-21.2689
 30
0.0
 10
127.207
 20
-16.4084
 30
0.0
 10
130.2796
 20
-15.9837
 30
0.0
 10
130.2796
 20
-15.9837
 30
0.0
 10
130.156
 20
-15.3607
 30
0.0
 10
130.066
 20
-14.4546
 30
0.0
 10
130.1368
 20
-13.8315
 30
0.0
 10
130.1368
 20
-13.8315
 30
0.0
 10
129.3014
 20
-13.1378
 30
0.0
 10
128.8431
 20
-12.7387
 30
0.0
 10
128.2663
 20
-12.4001
 30
0.0
 10
128.2663
 20
-12.4001
 30
0.0
 10
127.3601
 20
-12.8816
 30
0.0
 10
126.1837
 20
-12.8686
 30
0.0
 10
125.5748
 20
-12.4155
 30
0.0
 10
125.5748
 20
-12.4155
 30
0.0
 10
125.2916
 20
-15.4456
 30
0.0
 10
123.3248
 20
-18.4847
 30
0.0
 10
121.1301
 20
-19.9431
 30
0.0
 10
121.1301
 20
-19.9431
 30
0.0
 10
123.3672
 20
-20.8493
 30
0.0
 10
124.7909
 20
-23.4636
 30
0.0
 10
125.4139
 20
-25.814
 30
0.0
  0
SPLINE
  5
BA
330
1F
100
AcDbEntity
  8
layer 1
 62
   250
100
AcDbSpline
210
0.0
220
0.0
230
1.0
 70
    11
 71
     3
 72
    16
 73
    12
 74
     0
 42
0.0000000001
 43
0.0000000001
 12
1.0
 22
0.0
 32
0.0
 13
1.0
 23
0.0
 33
0.0
 40
0.0
 40
0.0
 40
0.0
 40
0.0
 40
0.25
 40
0.25
 40
0.25
 40
0.25
 40
0.5
 40
0.5
 40
0.5
 40
0.5
 40
1.0
 40
1.0
 40
1.0
 40
1.0
 10
113.0475
 20
-38.3443
 30
0.0
 10
114.9573
 20
-38.6416
 30
0.0
 10
118.2018
 20
-38.1242
 30
0.0
 10
120.4532
 20
-36.4251
 30
0.0
 10
120.4532
 20
-36.4251
 30
0.0
 10
118.6411
 20
-34.1313
 30
0.0
 10
115.4518
 20
-32.2854
 30
0.0
 10
112.1522
 20
-31.6057
 30
0.0
 10
112.1522
 20
-31.6057
 30
0.0
 10
113.4542
 20
-33.5172
 30
0.0
 10
113.5732
 20
-36.5255
 30
0.0
 10
113.0475
 20
-38.3443
 30
0.0
  0
SPLINE
  5
BB
330
1F
100
AcDbEntity
  8
layer 1
 62
   250
100
AcDbSpline
210
0.0
220
0.0
230
1.0
 70
    11
 71
     3
 72
    16
 73
    12
 74
     0
 42
0.0000000001
 43
0.0000000001
 12
1.0
 22
0.0
 32
0.0
 13
1.0
 23
0.0
 33
0.0
 40
0.0
 40
0.0
 40
0.0
 40
0.0
 40
0.25
 40
0.25
 40
0.25
 40
0.25
 40
0.5
 40
0.5
 40
0.5
 40
0.5
 40
1.0
 40
1.0
 40
1.0
 40
1.0
 10
107.0434
 20
-36.57
 30
0.0
 10
105.3347
 20
-35.6779
 30
0.0
 10
103.3275
 20
-32.4379
 30
0.0
 10
102.8594
 20
-31.3759
 30
0.0
 10
102.8594
 20
-31.3759
 30
0.0
 10
103.5919
 20
-31.1636
 30
0.0
 10
105.6891
 20
-30.9512
 30
0.0
 10
107.0048
 20
-31.0361
 30
0.0
 10
107.0048
 20
-31.0361
 30
0.0
 10
108.1496
 20
-33.1175
 30
0.0
 10
107.6923
 20
-35.7972
 30
0.0
 10
107.0434
 20
-36.57
 30
0.0
  0
SPLINE
  5
BC
330
1F
100
AcDbEntity
  8
layer 1
 62
   250
100
AcDbSpline
210
0.0
220
0.0
230
1.0
 70
    11
 71
     3
 72
    20
 73
    16
 74
     0
 42
0.0000000001
 43
0.0000000001
 12
1.0
 22
0.0
 32
0.0
 13
1.0
 23
0.0
 33
0.0
 40
0.0
 40
0.0
 40
0.0
 40
0.0
 40
0.2
 40
0.2
 40
0.2
 40
0.2
 40
0.4
 40
0.4
 40
0.4
 40
0.4
 40
0.6
 40
0.6
 40
0.6
 40
0.6
 40
1.0
 40
1.0
 40
1.0
 40
1.0
 10
118.9588
 20
-18.8141
 30
0.0
 10
121.4611
 20
-17.2119
 30
0.0
 10
123.6545
 20
-13.5857
 30
0.0
 10
123.5523
 20
-10.2251
 30
0.0
 10
123.5523
 20
-10.2251
 30
0.0
 10
121.7882
 20
-9.541
 30
0.0
 10
119.3684
 20
-9.4046
 30
0.0
 10
117.3882
 20
-9.5306
 30
0.0
 10
117.3882
 20
-9.5306
 30
0.0
 10
117.3149
 20
-12.1553
 30
0.0
 10
114.9152
 20
-13.7283
 30
0.0
 10
115.1122
 20
-15.8091
 30
0.0
 10
115.1122
 20
-15.8091
 30
0.0
 10
115.2439
 20
-17.2005
 30
0.0
 10
115.8128
 20
-18.1776
 30
0.0
 10
118.9588
 20
-18.8141
 30
0.0
  0
SPLINE
  5
BD
330
1F
100
AcDbEntity
  8
layer 1
 62
   250
100
AcDbSpline
210
0.0
220
0.0
230
1.0
 70
    11
 71
     3
 72
    16
 73
    12
 74
     0
 42
0.0000000001
 43
0.0000000001
 12
1.0
 22
0.0
 32
0.0
 13
1.0
 23
0.0
 33
0.0
 40
0.0
 40
0.0
 40
0.0
 40
0.0
 40
0.25
 40
0.25
 40
0.25
 40
0.25
 40
0.5
 40
0.5
 40
0.5
 40
0.5
 40
1.0
 40
1.0
 40
1.0
 40
1.0
 10
193.7603
 20
-23.6035
 30
0.0
 10
193.523
 20
-21.9811
 30
0.0
 10
193.1656
 20
-20.7794
 30
0.0
 10
192.8082
 20
-19.5175
 30
0.0
 10
192.8082
 20
-19.5175
 30
0.0
 10
193.2257
 20
-18.8966
 30
0.0
 10
193.463
 20
-18.3358
 30
0.0
 10
193.7603
 20
-17.4745
 30
0.0
 10
193.7603
 20
-17.4745
 30
0.0
 10
193.7603
 20
-17.4745
 30
0.0
 10
193.7603
 20
-23.6035
 30
0.0
 10
193.7603
 20
-23.6035
 30
0.0
  0
SPLINE
  5
BE
330
1F
100
AcDbEntity
  8
layer 1
 62
   250
100
AcDbSpline
210
0.0
220
0.0
230
1.0
 70
    11
 71
     3
 72
    16
 73
    12
 74
     0
 42
0.0000000001
 43
0.0000000001
 12
1.0
 22
0.0
 32
0.0
 13
1.0
 23
0.0
 33
0.0
 40
0.0
 40
0.0
 40
0.0
 40
0.0
 40
0.25
 40
0.25
 40
0.25
 40
0.25
 40
0.5
 40
0.5
 40
0.5
 40
0.5
 40
1.0
 40
1.0
 40
1.0
 40
1.0
 10
193.7603
 20
-50.1022
 30
0.0
 10
192.3614
 20
-48.4197
 30
0.0
 10
191.4737
 20
-46.8311
 30
0.0
 10
191.4262
 20
-45.3553
 30
0.0
 10
191.4262
 20
-45.3553
 30
0.0
 10
191.383
 20
-44.0134
 30
0.0
 10
192.3013
 20
-42.3108
 30
0.0
 10
193.7603
 20
-41.8101
 30
0.0
 10
193.7603
 20
-41.8101
 30
0.0
 10
193.7603
 20
-41.8101
 30
0.0
 10
193.7603
 20
-50.1022
 30
0.0
 10
193.7603
 20
-50.1022
 30
0.0
  0
SPLINE
  5
BF
330
1F
100
AcDbEntity
  8
layer 1
 62
   250
100
AcDbSpline
210
0.0
220
0.0
230
1.0
 70
    11
 71
     3
 72
    16
 73
    12
 74
     0
 42
0.0000000001
 43
0.0000000001
 12
1.0
 22
0.0
 32
0.0
 13
1.0
 23
0.0
 33
0.0
 40
0.0
 40
0.0
 40
0.0
 40
0.0
 40
0.25
 40
0.25
 40
0.25
 40
0.25
 40
0.5
 40
0.5
 40
0.5
 40
0.5
 40
1.0
 40
1.0
 40
1.0
 40
1.0
 10
84.8599
 20
-22.4769
 30
0.0
 10
85.1698
 20
-21.0363
 30
0.0
 10
85.3819
 20
-20.2343
 30
0.0
 10
85.5939
 20
-19.5902
 30
0.0
 10
85.5939
 20
-19.5902
 30
0.0
 10
85.4308
 20
-19.2237
 30
0.0
 10
85.1572
 20
-18.7356
 30
0.0
 10
84.8599
 20
-18.2014
 30
0.0
 10
84.8599
 20
-18.2014
 30
0.0
 10
84.8599
 20
-18.2014
 30
0.0
 10
84.8599
 20
-22.4769
 30
0.0
 10
84.8599
 20
-22.4769
 30
0.0
  0
SPLINE
  5
C0
330
1F
100
AcDbEntity
  8
layer 1
 62
   250
100
AcDbSpline
210
0.0
220
0.0
230
1.0
 70
    11
 71
     3
 72
    16
 73
    12
 74
     0
 42
0.0000000001
 43
0.0000000001
 12
1.0
 22
0.0
 32
0.0
 13
1.0
 23
0.0
 33
0.0
 40
0.0
 40
0.0
 40
0.0
 40
0.0
 40
0.25
 40
0.25
 40
0.25
 40
0.25
 40
0.5
 40
0.5
 40
0.5
 40
0.5
 40
1.0
 40
1.0
 40
1.0
 40
1.0
 10
84.8599
 20
-49.6661
 30
0.0
 10
86.2588
 20
-47.9836
 30
0.0
 10
87.0376
 20
-46.8674
 30
0.0
 10
87.085
 20
-45.3916
 30
0.0
 10
87.085
 20
-45.3916
 30
0.0
 10
87.1281
 20
-44.0499
 30
0.0
 10
86.3189
 20
-42.5289
 30
0.0
 10
84.8599
 20
-42.0281
 30
0.0
 10
84.8599
 20
-42.0281
 30
0.0
 10
84.8599
 20
-42.0281
 30
0.0
 10
84.8599
 20
-49.6661
 30
0.0
 10
84.8599
 20
-49.6661
 30
0.0
  0
SPLINE
  5
C1
330
1F
100
AcDbEntity
  8
layer 1
 62
   250
100
AcDbSpline
210
0.0
220
0.0
230
1.0
 70
    11
 71
     3
 72
    36
 73
    32
 74
     0
 42
0.0000000001
 43
0.0000000001
 12
1.0
 22
0.0
 32
0.0
 13
1.0
 23
0.0
 33
0.0
 40
0.0
 40
0.0
 40
0.0
 40
0.0
 40
0.1111111111111111
 40
0.1111111111111111
 40
0.1111111111111111
 40
0.1111111111111111
 40
0.2222222222222222
 40
0.2222222222222222
 40
0.2222222222222222
 40
0.2222222222222222
 40
0.3333333333333333
 40
0.3333333333333333
 40
0.3333333333333333
 40
0.3333333333333333
 40
0.4444444444444444
 40
0.4444444444444444
 40
0.4444444444444444
 40
0.4444444444444444
 40
0.5555555555555556
 40
0.5555555555555556
 40
0.5555555555555556
 40
0.5555555555555556
 40
0.6666666666666666
 40
0.6666666666666666
 40
0.6666666666666666
 40
0.6666666666666666
 40
0.7777777777777778
 40
0.7777777777777778
 40
0.7777777777777778
 40
0.7777777777777778
 40
1.0
 40
1.0
 40
1.0
 40
1.0
 10
188.9311
 20
-30.8871
 30
0.0
 10
189.1452
 20
-26.9799
 30
0.0
 10
181.7053
 20
-25.9629
 30
0.0
 10
180.0996
 20
-30.0843
 30
0.0
 10
180.0996
 20
-30.0843
 30
0.0
 10
179.8677
 20
-30.0307
 30
0.0
 10
179.6358
 20
-29.8702
 30
0.0
 10
179.4038
 20
-29.8166
 30
0.0
 10
179.4038
 20
-29.8166
 30
0.0
 10
179.4573
 20
-27.5151
 30
0.0
 10
179.5109
 20
-24.1966
 30
0.0
 10
178.7615
 20
-21.0387
 30
0.0
 10
178.7615
 20
-21.0387
 30
0.0
 10
183.2932
 20
-24.1788
 30
0.0
 10
188.0925
 20
-23.144
 30
0.0
 10
190.6438
 20
-21.3599
 30
0.0
 10
190.6438
 20
-21.3599
 30
0.0
 10
191.3522
 20
-23.5146
 30
0.0
 10
192.0315
 20
-26.9406
 30
0.0
 10
191.4116
 20
-30.3769
 30
0.0
 10
191.4116
 20
-30.3769
 30
0.0
 10
190.9735
 20
-32.8051
 30
0.0
 10
189.6181
 20
-34.9445
 30
0.0
 10
188.9311
 20
-36.8283
 30
0.0
 10
188.9311
 20
-36.8283
 30
0.0
 10
188.1103
 20
-35.9362
 30
0.0
 10
187.2361
 20
-34.9371
 30
0.0
 10
186.1478
 20
-34.045
 30
0.0
 10
186.1478
 20
-34.045
 30
0.0
 10
186.3084
 20
-32.5999
 30
0.0
 10
186.469
 20
-30.0307
 30
0.0
 10
188.9311
 20
-30.8871
 30
0.0
  0
SPLINE
  5
C2
330
1F
100
AcDbEntity
  8
layer 1
 62
   250
100
AcDbSpline
210
0.0
220
0.0
230
1.0
 70
    11
 71
     3
 72
    36
 73
    32
 74
     0
 42
0.0000000001
 43
0.0000000001
 12
1.0
 22
0.0
 32
0.0
 13
1.0
 23
0.0
 33
0.0
 40
0.0
 40
0.0
 40
0.0
 40
0.0
 40
0.1111111111111111
 40
0.1111111111111111
 40
0.1111111111111111
 40
0.1111111111111111
 40
0.2222222222222222
 40
0.2222222222222222
 40
0.2222222222222222
 40
0.2222222222222222
 40
0.3333333333333333
 40
0.3333333333333333
 40
0.3333333333333333
 40
0.3333333333333333
 40
0.4444444444444444
 40
0.4444444444444444
 40
0.4444444444444444
 40
0.4444444444444444
 40
0.5555555555555556
 40
0.5555555555555556
 40
0.5555555555555556
 40
0.5555555555555556
 40
0.6666666666666666
 40
0.6666666666666666
 40
0.6666666666666666
 40
0.6666666666666666
 40
0.7777777777777778
 40
0.7777777777777778
 40
0.7777777777777778
 40
0.7777777777777778
 40
1.0
 40
1.0
 40
1.0
 40
1.0
 10
89.6441
 20
-30.9942
 30
0.0
 10
89.43
 20
-26.6587
 30
0.0
 10
96.5487
 20
-25.5347
 30
0.0
 10
98.315
 20
-30.0843
 30
0.0
 10
98.315
 20
-30.0843
 30
0.0
 10
98.5469
 20
-30.0307
 30
0.0
 10
98.4577
 20
-29.9237
 30
0.0
 10
98.6896
 20
-29.8702
 30
0.0
 10
98.6896
 20
-29.8702
 30
0.0
 10
98.6361
 20
-27.5686
 30
0.0
 10
98.422
 20
-24.2502
 30
0.0
 10
99.1714
 20
-21.0922
 30
0.0
 10
99.1714
 20
-21.0922
 30
0.0
 10
94.6397
 20
-24.2323
 30
0.0
 10
90.0544
 20
-23.144
 30
0.0
 10
87.5031
 20
-21.3599
 30
0.0
 10
87.5031
 20
-21.3599
 30
0.0
 10
86.7948
 20
-23.5146
 30
0.0
 10
86.2761
 20
-26.9942
 30
0.0
 10
86.8959
 20
-30.4304
 30
0.0
 10
86.8959
 20
-30.4304
 30
0.0
 10
87.334
 20
-32.8586
 30
0.0
 10
88.7965
 20
-35.2122
 30
0.0
 10
89.4835
 20
-37.0959
 30
0.0
 10
89.4835
 20
-37.0959
 30
0.0
 10
90.2507
 20
-36.0433
 30
0.0
 10
91.6602
 20
-34.5624
 30
0.0
 10
92.4809
 20
-33.938
 30
0.0
 10
92.4809
 20
-33.938
 30
0.0
 10
92.3203
 20
-32.4928
 30
0.0
 10
92.1062
 20
-30.1378
 30
0.0
 10
89.6441
 20
-30.9942
 30
0.0
  0
SPLINE
  5
C3
330
1F
100
AcDbEntity
  8
layer 1
 62
   250
100
AcDbSpline
210
0.0
220
0.0
230
1.0
 70
    11
 71
     3
 72
    36
 73
    32
 74
     0
 42
0.0000000001
 43
0.0000000001
 12
1.0
 22
0.0
 32
0.0
 13
1.0
 23
0.0
 33
0.0
 40
0.0
 40
0.0
 40
0.0
 40
0.0
 40
0.1111111111111111
 40
0.1111111111111111
 40
0.1111111111111111
 40
0.1111111111111111
 40
0.2222222222222222
 40
0.2222222222222222
 40
0.2222222222222222
 40
0.2222222222222222
 40
0.3333333333333333
 40
0.3333333333333333
 40
0.3333333333333333
 40
0.3333333333333333
 40
0.4444444444444444
 40
0.4444444444444444
 40
0.4444444444444444
 40
0.4444444444444444
 40
0.5555555555555556
 40
0.5555555555555556
 40
0.5555555555555556
 40
0.5555555555555556
 40
0.6666666666666666
 40
0.6666666666666666
 40
0.6666666666666666
 40
0.6666666666666666
 40
0.7777777777777778
 40
0.7777777777777778
 40
0.7777777777777778
 40
0.7777777777777778
 40
1.0
 40
1.0
 40
1.0
 40
1.0
 10
151.3037
 20
-44.3216
 30
0.0
 10
150.2868
 20
-44.8926
 30
0.0
 10
149.2698
 20
-45.5171
 30
0.0
 10
148.2528
 20
-46.0879
 30
0.0
 10
148.2528
 20
-46.0879
 30
0.0
 10
148.7914
 20
-44.0507
 30
0.0
 10
148.8691
 20
-41.5642
 30
0.0
 10
148.7926
 20
-39.4183
 30
0.0
 10
148.7926
 20
-39.4183
 30
0.0
 10
148.7441
 20
-38.0594
 30
0.0
 10
149.4376
 20
-36.2897
 30
0.0
 10
150.9826
 20
-36.7748
 30
0.0
 10
150.9826
 20
-36.7748
 30
0.0
 10
150.8412
 20
-35.0741
 30
0.0
 10
149.695
 20
-32.7439
 30
0.0
 10
146.7007
 20
-33.938
 30
0.0
 10
146.7007
 20
-33.938
 30
0.0
 10
146.5223
 20
-33.492
 30
0.0
 10
146.2368
 20
-32.9389
 30
0.0
 10
145.9513
 20
-32.4928
 30
0.0
 10
145.9513
 20
-32.4928
 30
0.0
 10
147.2716
 20
-31.1547
 30
0.0
 10
149.9834
 20
-29.9772
 30
0.0
 10
152.4812
 20
-29.8702
 30
0.0
 10
152.4812
 20
-29.8702
 30
0.0
 10
152.8202
 20
-32.1896
 30
0.0
 10
153.4268
 20
-34.6695
 30
0.0
 10
154.7292
 20
-36.5607
 30
0.0
 10
154.7292
 20
-36.5607
 30
0.0
 10
151.8925
 20
-36.1325
 30
0.0
 10
149.0557
 20
-40.8426
 30
0.0
 10
151.3037
 20
-44.3216
 30
0.0
  0
SPLINE
  5
C4
330
1F
100
AcDbEntity
  8
layer 1
 62
   250
100
AcDbSpline
210
0.0
220
0.0
230
1.0
 70
    11
 71
     3
 72
    36
 73
    32
 74
     0
 42
0.0000000001
 43
0.0000000001
 12
1.0
 22
0.0
 32
0.0
 13
1.0
 23
0.0
 33
0.0
 40
0.0
 40
0.0
 40
0.0
 40
0.0
 40
0.1111111111111111
 40
0.1111111111111111
 40
0.1111111111111111
 40
0.1111111111111111
 40
0.2222222222222222
 40
0.2222222222222222
 40
0.2222222222222222
 40
0.2222222222222222
 40
0.3333333333333333
 40
0.3333333333333333
 40
0.3333333333333333
 40
0.3333333333333333
 40
0.4444444444444444
 40
0.4444444444444444
 40
0.4444444444444444
 40
0.4444444444444444
 40
0.5555555555555556
 40
0.5555555555555556
 40
0.5555555555555556
 40
0.5555555555555556
 40
0.6666666666666666
 40
0.6666666666666666
 40
0.6666666666666666
 40
0.6666666666666666
 40
0.7777777777777778
 40
0.7777777777777778
 40
0.7777777777777778
 40
0.7777777777777778
 40
1.0
 40
1.0
 40
1.0
 40
1.0
 10
127.2179
 20
-44.3216
 30
0.0
 10
128.2349
 20
-44.8926
 30
0.0
 10
128.9307
 20
-45.3565
 30
0.0
 10
129.8406
 20
-46.0344
 30
0.0
 10
129.8406
 20
-46.0344
 30
0.0
 10
129.302
 20
-43.9972
 30
0.0
 10
129.2245
 20
-41.35
 30
0.0
 10
129.3009
 20
-39.2042
 30
0.0
 10
129.3009
 20
-39.2042
 30
0.0
 10
129.3493
 20
-37.8454
 30
0.0
 10
128.8164
 20
-36.2362
 30
0.0
 10
127.2714
 20
-36.7212
 30
0.0
 10
127.2714
 20
-36.7212
 30
0.0
 10
127.4128
 20
-35.0206
 30
0.0
 10
128.452
 20
-32.6904
 30
0.0
 10
131.4463
 20
-33.8845
 30
0.0
 10
131.4463
 20
-33.8845
 30
0.0
 10
131.6247
 20
-33.4385
 30
0.0
 10
131.9102
 20
-32.8854
 30
0.0
 10
132.1957
 20
-32.4393
 30
0.0
 10
132.1957
 20
-32.4393
 30
0.0
 10
130.8754
 20
-31.0477
 30
0.0
 10
128.5917
 20
-29.7631
 30
0.0
 10
126.0939
 20
-29.6561
 30
0.0
 10
126.0939
 20
-29.6561
 30
0.0
 10
126.0226
 20
-31.9755
 30
0.0
 10
125.0413
 20
-34.6695
 30
0.0
 10
123.7389
 20
-36.5607
 30
0.0
 10
123.7389
 20
-36.5607
 30
0.0
 10
126.8433
 20
-36.079
 30
0.0
 10
129.8406
 20
-40.5214
 30
0.0
 10
127.2179
 20
-44.3216
 30
0.0
  0
SPLINE
  5
C5
330
1F
100
AcDbEntity
  8
layer 1
 62
   250
100
AcDbSpline
210
0.0
220
0.0
230
1.0
 70
    11
 71
     3
 72
    16
 73
    12
 74
     0
 42
0.0000000001
 43
0.0000000001
 12
1.0
 22
0.0
 32
0.0
 13
1.0
 23
0.0
 33
0.0
 40
0.0
 40
0.0
 40
0.0
 40
0.0
 40
0.25
 40
0.25
 40
0.25
 40
0.25
 40
0.5
 40
0.5
 40
0.5
 40
0.5
 40
1.0
 40
1.0
 40
1.0
 40
1.0
 10
140.0122
 20
-35.876
 30
0.0
 10
139.6075
 20
-36.6011
 30
0.0
 10
139.3546
 20
-37.1745
 30
0.0
 10
139.051
 20
-38.1525
 30
0.0
 10
139.051
 20
-38.1525
 30
0.0
 10
138.7981
 20
-37.3262
 30
0.0
 10
138.4946
 20
-36.7023
 30
0.0
 10
138.0393
 20
-35.876
 30
0.0
 10
138.0393
 20
-35.876
 30
0.0
 10
138.6969
 20
-35.8254
 30
0.0
 10
139.4052
 20
-35.876
 30
0.0
 10
140.0122
 20
-35.876
 30
0.0
  0
SPLINE
  5
C6
330
1F
100
AcDbEntity
  8
layer 1
 62
   250
100
AcDbSpline
210
0.0
220
0.0
230
1.0
 70
    11
 71
     3
 72
    48
 73
    44
 74
     0
 42
0.0000000001
 43
0.0000000001
 12
1.0
 22
0.0
 32
0.0
 13
1.0
 23
0.0
 33
0.0
 40
0.0
 40
0.0
 40
0.0
 40
0.0
 40
0.0833333333333333
 40
0.0833333333333333
 40
0.0833333333333333
 40
0.0833333333333333
 40
0.1666666666666667
 40
0.1666666666666667
 40
0.1666666666666667
 40
0.1666666666666667
 40
0.25
 40
0.25
 40
0.25
 40
0.25
 40
0.3333333333333333
 40
0.3333333333333333
 40
0.3333333333333333
 40
0.3333333333333333
 40
0.4166666666666667
 40
0.4166666666666667
 40
0.4166666666666667
 40
0.4166666666666667
 40
0.5
 40
0.5
 40
0.5
 40
0.5
 40
0.5833333333333334
 40
0.5833333333333334
 40
0.5833333333333334
 40
0.5833333333333334
 40
0.6666666666666666
 40
0.6666666666666666
 40
0.6666666666666666
 40
0.6666666666666666
 40
0.75
 40
0.75
 40
0.75
 40
0.75
 40
0.8333333333333334
 40
0.8333333333333334
 40
0.8333333333333334
 40
0.8333333333333334
 40
1.0
 40
1.0
 40
1.0
 40
1.0
 10
142.6429
 20
-36.6348
 30
0.0
 10
145.3161
 20
-37.9565
 30
0.0
 10
145.9646
 20
-40.7663
 30
0.0
 10
145.7962
 20
-42.8879
 30
0.0
 10
145.7962
 20
-42.8879
 30
0.0
 10
145.3658
 20
-48.3098
 30
0.0
 10
140.9028
 20
-51.3773
 30
0.0
 10
139.2028
 20
-57.8822
 30
0.0
 10
139.2028
 20
-57.8822
 30
0.0
 10
137.892
 20
-52.3831
 30
0.0
 10
132.4118
 20
-47.8733
 30
0.0
 10
132.3723
 20
-42.761
 30
0.0
 10
132.3723
 20
-42.761
 30
0.0
 10
132.355
 20
-40.527
 30
0.0
 10
133.1606
 20
-37.3411
 30
0.0
 10
135.5098
 20
-36.5337
 30
0.0
 10
135.5098
 20
-36.5337
 30
0.0
 10
136.1337
 20
-37.5792
 30
0.0
 10
136.96
 20
-38.827
 30
0.0
 10
137.2298
 20
-40.1255
 30
0.0
 10
137.2298
 20
-40.1255
 30
0.0
 10
136.1169
 20
-39.5422
 30
0.0
 10
133.6869
 20
-39.7278
 30
0.0
 10
133.6173
 20
-42.6011
 30
0.0
 10
133.6173
 20
-42.6011
 30
0.0
 10
133.4998
 20
-47.4576
 30
0.0
 10
136.5569
 20
-47.7802
 30
0.0
 10
137.9843
 20
-52.1846
 30
0.0
 10
137.9843
 20
-52.1846
 30
0.0
 10
138.2826
 20
-53.1049
 30
0.0
 10
139.86
 20
-53.0605
 30
0.0
 10
140.1098
 20
-52.2243
 30
0.0
 10
140.1098
 20
-52.2243
 30
0.0
 10
141.2422
 20
-48.4333
 30
0.0
 10
144.38
 20
-47.4638
 30
0.0
 10
144.4062
 20
-42.8319
 30
0.0
 10
144.4062
 20
-42.8319
 30
0.0
 10
144.418
 20
-40.7456
 30
0.0
 10
142.963
 20
-39.4434
 30
0.0
 10
141.024
 20
-40.0243
 30
0.0
 10
141.024
 20
-40.0243
 30
0.0
 10
141.3107
 20
-38.8439
 30
0.0
 10
141.9515
 20
-37.4611
 30
0.0
 10
142.6429
 20
-36.6348
 30
0.0
  0
SPLINE
  5
C7
330
1F
100
AcDbEntity
  8
layer 1
 62
   250
100
AcDbSpline
210
0.0
220
0.0
230
1.0
 70
    11
 71
     3
 72
    44
 73
    40
 74
     0
 42
0.0000000001
 43
0.0000000001
 12
1.0
 22
0.0
 32
0.0
 13
1.0
 23
0.0
 33
0.0
 40
0.0
 40
0.0
 40
0.0
 40
0.0
 40
0.0909090909090909
 40
0.0909090909090909
 40
0.0909090909090909
 40
0.0909090909090909
 40
0.1818181818181818
 40
0.1818181818181818
 40
0.1818181818181818
 40
0.1818181818181818
 40
0.2727272727272727
 40
0.2727272727272727
 40
0.2727272727272727
 40
0.2727272727272727
 40
0.3636363636363636
 40
0.3636363636363636
 40
0.3636363636363636
 40
0.3636363636363636
 40
0.4545454545454545
 40
0.4545454545454545
 40
0.4545454545454545
 40
0.4545454545454545
 40
0.5454545454545454
 40
0.5454545454545454
 40
0.5454545454545454
 40
0.5454545454545454
 40
0.6363636363636364
 40
0.6363636363636364
 40
0.6363636363636364
 40
0.6363636363636364
 40
0.7272727272727273
 40
0.7272727272727273
 40
0.7272727272727273
 40
0.7272727272727273
 40
0.8181818181818182
 40
0.8181818181818182
 40
0.8181818181818182
 40
0.8181818181818182
 40
1.0
 40
1.0
 40
1.0
 40
1.0
 10
148.7895
 20
-66.3306
 30
0.0
 10
147.2213
 20
-67.258
 30
0.0
 10
145.5264
 20
-68.3879
 30
0.0
 10
144.0088
 20
-69.8718
 30
0.0
 10
144.0088
 20
-69.8718
 30
0.0
 10
140.3158
 20
-65.0658
 30
0.0
 10
141.0746
 20
-59.4505
 30
0.0
 10
143.3005
 20
-55.6057
 30
0.0
 10
143.3005
 20
-55.6057
 30
0.0
 10
144.1297
 20
-58.4655
 30
0.0
 10
148.139
 20
-58.6576
 30
0.0
 10
149.9674
 20
-55.9919
 30
0.0
 10
149.9674
 20
-55.9919
 30
0.0
 10
151.7483
 20
-53.3954
 30
0.0
 10
150.2865
 20
-49.9199
 30
0.0
 10
147.2465
 20
-49.9397
 30
0.0
 10
147.2465
 20
-49.9397
 30
0.0
 10
148.2582
 20
-48.7762
 30
0.0
 10
150.8889
 20
-47.2585
 30
0.0
 10
152.2042
 20
-46.8538
 30
0.0
 10
152.2042
 20
-46.8538
 30
0.0
 10
151.7826
 20
-50.0915
 30
0.0
 10
152.5752
 20
-53.3798
 30
0.0
 10
153.7218
 20
-56.314
 30
0.0
 10
153.7218
 20
-56.314
 30
0.0
 10
152.3728
 20
-56.7524
 30
0.0
 10
151.2261
 20
-57.6967
 30
0.0
 10
150.4336
 20
-59.0964
 30
0.0
 10
150.4336
 20
-59.0964
 30
0.0
 10
148.8147
 20
-58.641
 30
0.0
 10
147.2465
 20
-61.5246
 30
0.0
 10
145.2735
 20
-59.754
 30
0.0
 10
145.2735
 20
-59.754
 30
0.0
 10
143.5029
 20
-62.4521
 30
0.0
 10
146.0323
 20
-65.4537
 30
0.0
 10
148.7641
 20
-65.167
 30
0.0
 10
148.7641
 20
-65.167
 30
0.0
 10
148.7515
 20
-65.5549
 30
0.0
 10
148.7895
 20
-65.9427
 30
0.0
 10
148.7895
 20
-66.3306
 30
0.0
  0
SPLINE
  5
C8
330
1F
100
AcDbEntity
  8
layer 1
 62
   250
100
AcDbSpline
210
0.0
220
0.0
230
1.0
 70
    11
 71
     3
 72
    44
 73
    40
 74
     0
 42
0.0000000001
 43
0.0000000001
 12
1.0
 22
0.0
 32
0.0
 13
1.0
 23
0.0
 33
0.0
 40
0.0
 40
0.0
 40
0.0
 40
0.0
 40
0.0909090909090909
 40
0.0909090909090909
 40
0.0909090909090909
 40
0.0909090909090909
 40
0.1818181818181818
 40
0.1818181818181818
 40
0.1818181818181818
 40
0.1818181818181818
 40
0.2727272727272727
 40
0.2727272727272727
 40
0.2727272727272727
 40
0.2727272727272727
 40
0.3636363636363636
 40
0.3636363636363636
 40
0.3636363636363636
 40
0.3636363636363636
 40
0.4545454545454545
 40
0.4545454545454545
 40
0.4545454545454545
 40
0.4545454545454545
 40
0.5454545454545454
 40
0.5454545454545454
 40
0.5454545454545454
 40
0.5454545454545454
 40
0.6363636363636364
 40
0.6363636363636364
 40
0.6363636363636364
 40
0.6363636363636364
 40
0.7272727272727273
 40
0.7272727272727273
 40
0.7272727272727273
 40
0.7272727272727273
 40
0.8181818181818182
 40
0.8181818181818182
 40
0.8181818181818182
 40
0.8181818181818182
 40
1.0
 40
1.0
 40
1.0
 40
1.0
 10
130.1439
 20
-66.389
 30
0.0
 10
131.7122
 20
-67.258
 30
0.0
 10
133.0196
 20
-68.0957
 30
0.0
 10
134.4789
 20
-69.5796
 30
0.0
 10
134.4789
 20
-69.5796
 30
0.0
 10
138.1719
 20
-64.7737
 30
0.0
 10
137.0624
 20
-59.2167
 30
0.0
 10
134.8365
 20
-55.372
 30
0.0
 10
134.8365
 20
-55.372
 30
0.0
 10
134.0658
 20
-58.0565
 30
0.0
 10
129.998
 20
-58.4822
 30
0.0
 10
128.4034
 20
-56.1672
 30
0.0
 10
128.4034
 20
-56.1672
 30
0.0
 10
126.6174
 20
-53.5743
 30
0.0
 10
127.8505
 20
-49.9784
 30
0.0
 10
130.8906
 20
-49.9982
 30
0.0
 10
130.8906
 20
-49.9982
 30
0.0
 10
129.8788
 20
-48.8346
 30
0.0
 10
127.5988
 20
-47.317
 30
0.0
 10
126.2835
 20
-46.9123
 30
0.0
 10
126.2835
 20
-46.9123
 30
0.0
 10
126.705
 20
-50.1499
 30
0.0
 10
126.2631
 20
-53.2045
 30
0.0
 10
125.1164
 20
-56.1387
 30
0.0
 10
125.1164
 20
-56.1387
 30
0.0
 10
126.4654
 20
-56.7524
 30
0.0
 10
127.729
 20
-57.6383
 30
0.0
 10
128.5215
 20
-59.0379
 30
0.0
 10
128.5215
 20
-59.0379
 30
0.0
 10
130.1404
 20
-58.5826
 30
0.0
 10
131.5334
 20
-61.5831
 30
0.0
 10
133.5063
 20
-59.8124
 30
0.0
 10
133.5063
 20
-59.8124
 30
0.0
 10
135.2769
 20
-62.5105
 30
0.0
 10
132.8642
 20
-65.5121
 30
0.0
 10
130.1324
 20
-65.2255
 30
0.0
 10
130.1324
 20
-65.2255
 30
0.0
 10
130.183
 20
-65.6133
 30
0.0
 10
130.1439
 20
-66.0012
 30
0.0
 10
130.1439
 20
-66.389
 30
0.0
  0
SPLINE
  5
C9
330
1F
100
AcDbEntity
  8
layer 1
 62
   250
100
AcDbSpline
210
0.0
220
0.0
230
1.0
 70
    11
 71
     3
 72
    52
 73
    48
 74
     0
 42
0.0000000001
 43
0.0000000001
 12
1.0
 22
0.0
 32
0.0
 13
1.0
 23
0.0
 33
0.0
 40
0.0
 40
0.0
 40
0.0
 40
0.0
 40
0.0769230769230769
 40
0.0769230769230769
 40
0.0769230769230769
 40
0.0769230769230769
 40
0.1538461538461539
 40
0.1538461538461539
 40
0.1538461538461539
 40
0.1538461538461539
 40
0.2307692307692308
 40
0.2307692307692308
 40
0.2307692307692308
 40
0.2307692307692308
 40
0.3076923076923077
 40
0.3076923076923077
 40
0.3076923076923077
 40
0.3076923076923077
 40
0.3846153846153846
 40
0.3846153846153846
 40
0.3846153846153846
 40
0.3846153846153846
 40
0.4615384615384616
 40
0.4615384615384616
 40
0.4615384615384616
 40
0.4615384615384616
 40
0.5384615384615384
 40
0.5384615384615384
 40
0.5384615384615384
 40
0.5384615384615384
 40
0.6153846153846154
 40
0.6153846153846154
 40
0.6153846153846154
 40
0.6153846153846154
 40
0.6923076923076923
 40
0.6923076923076923
 40
0.6923076923076923
 40
0.6923076923076923
 40
0.7692307692307693
 40
0.7692307692307693
 40
0.7692307692307693
 40
0.7692307692307693
 40
0.8461538461538461
 40
0.8461538461538461
 40
0.8461538461538461
 40
0.8461538461538461
 40
1.0
 40
1.0
 40
1.0
 40
1.0
 10
163.5345
 20
-50.3603
 30
0.0
 10
165.7939
 20
-58.2488
 30
0.0
 10
157.9444
 20
-55.3272
 30
0.0
 10
155.9966
 20
-56.0284
 30
0.0
 10
155.9966
 20
-56.0284
 30
0.0
 10
154.9253
 20
-53.0093
 30
0.0
 10
154.3215
 20
-49.1722
 30
0.0
 10
154.8864
 20
-45.8609
 30
0.0
 10
154.8864
 20
-45.8609
 30
0.0
 10
156.0745
 20
-45.8025
 30
0.0
 10
158.8988
 20
-45.5688
 30
0.0
 10
157.808
 20
-48.6073
 30
0.0
 10
157.808
 20
-48.6073
 30
0.0
 10
159.9506
 20
-48.393
 30
0.0
 10
160.866
 20
-46.718
 30
0.0
 10
160.8466
 20
-45.3935
 30
0.0
 10
160.8466
 20
-45.3935
 30
0.0
 10
162.3074
 20
-45.1792
 30
0.0
 10
163.9435
 20
-45.3156
 30
0.0
 10
165.4044
 20
-45.8025
 30
0.0
 10
165.4044
 20
-45.8025
 30
0.0
 10
164.9369
 20
-48.0619
 30
0.0
 10
165.6381
 20
-50.6135
 30
0.0
 10
168.5598
 20
-51.529
 30
0.0
 10
168.5598
 20
-51.529
 30
0.0
 10
168.4305
 20
-50.0621
 30
0.0
 10
168.4122
 20
-48.2999
 30
0.0
 10
169.3779
 20
-47.7308
 30
0.0
 10
169.3779
 20
-47.7308
 30
0.0
 10
171.2672
 20
-48.6463
 30
0.0
 10
173.0981
 20
-50.3798
 30
0.0
 10
173.9941
 20
-52.2302
 30
0.0
 10
173.9941
 20
-52.2302
 30
0.0
 10
171.8424
 20
-51.4894
 30
0.0
 10
170.5698
 20
-53.6915
 30
0.0
 10
170.8686
 20
-56.2262
 30
0.0
 10
170.8686
 20
-56.2262
 30
0.0
 10
171.1746
 20
-58.8216
 30
0.0
 10
173.7549
 20
-60.588
 30
0.0
 10
174.2863
 20
-62.5729
 30
0.0
 10
174.2863
 20
-62.5729
 30
0.0
 10
172.0074
 20
-63.2936
 30
0.0
 10
168.4429
 20
-63.6637
 30
0.0
 10
165.2875
 20
-62.7482
 30
0.0
 10
165.2875
 20
-62.7482
 30
0.0
 10
169.7479
 20
-59.846
 30
0.0
 10
169.0078
 20
-51.3342
 30
0.0
 10
163.5345
 20
-50.3603
 30
0.0
  0
SPLINE
  5
CA
330
1F
100
AcDbEntity
  8
layer 1
 62
   250
100
AcDbSpline
210
0.0
220
0.0
230
1.0
 70
    11
 71
     3
 72
    52
 73
    48
 74
     0
 42
0.0000000001
 43
0.0000000001
 12
1.0
 22
0.0
 32
0.0
 13
1.0
 23
0.0
 33
0.0
 40
0.0
 40
0.0
 40
0.0
 40
0.0
 40
0.0769230769230769
 40
0.0769230769230769
 40
0.0769230769230769
 40
0.0769230769230769
 40
0.1538461538461539
 40
0.1538461538461539
 40
0.1538461538461539
 40
0.1538461538461539
 40
0.2307692307692308
 40
0.2307692307692308
 40
0.2307692307692308
 40
0.2307692307692308
 40
0.3076923076923077
 40
0.3076923076923077
 40
0.3076923076923077
 40
0.3076923076923077
 40
0.3846153846153846
 40
0.3846153846153846
 40
0.3846153846153846
 40
0.3846153846153846
 40
0.4615384615384616
 40
0.4615384615384616
 40
0.4615384615384616
 40
0.4615384615384616
 40
0.5384615384615384
 40
0.5384615384615384
 40
0.5384615384615384
 40
0.5384615384615384
 40
0.6153846153846154
 40
0.6153846153846154
 40
0.6153846153846154
 40
0.6153846153846154
 40
0.6923076923076923
 40
0.6923076923076923
 40
0.6923076923076923
 40
0.6923076923076923
 40
0.7692307692307693
 40
0.7692307692307693
 40
0.7692307692307693
 40
0.7692307692307693
 40
0.8461538461538461
 40
0.8461538461538461
 40
0.8461538461538461
 40
0.8461538461538461
 40
1.0
 40
1.0
 40
1.0
 40
1.0
 10
115.3245
 20
-50.4494
 30
0.0
 10
113.0651
 20
-58.3379
 30
0.0
 10
120.8701
 20
-55.1489
 30
0.0
 10
122.8179
 20
-55.8501
 30
0.0
 10
122.8179
 20
-55.8501
 30
0.0
 10
123.8892
 20
-52.8311
 30
0.0
 10
124.4039
 20
-49.2167
 30
0.0
 10
123.5271
 20
-45.8609
 30
0.0
 10
123.5271
 20
-45.8609
 30
0.0
 10
122.339
 20
-45.8025
 30
0.0
 10
119.782
 20
-45.5688
 30
0.0
 10
120.8728
 20
-48.6073
 30
0.0
 10
120.8728
 20
-48.6073
 30
0.0
 10
118.8639
 20
-48.1257
 30
0.0
 10
117.8593
 20
-46.6288
 30
0.0
 10
117.8788
 20
-45.3043
 30
0.0
 10
117.8788
 20
-45.3043
 30
0.0
 10
116.418
 20
-45.0901
 30
0.0
 10
114.8149
 20
-45.2063
 30
0.0
 10
113.3541
 20
-45.6933
 30
0.0
 10
113.3541
 20
-45.6933
 30
0.0
 10
113.8216
 20
-47.9527
 30
0.0
 10
113.0427
 20
-50.7846
 30
0.0
 10
110.1656
 20
-51.3953
 30
0.0
 10
110.1656
 20
-51.3953
 30
0.0
 10
110.4731
 20
-49.9284
 30
0.0
 10
110.2686
 20
-48.1216
 30
0.0
 10
109.303
 20
-47.5526
 30
0.0
 10
109.303
 20
-47.5526
 30
0.0
 10
107.4136
 20
-48.468
 30
0.0
 10
105.4936
 20
-50.2907
 30
0.0
 10
104.553
 20
-52.0965
 30
0.0
 10
104.553
 20
-52.0965
 30
0.0
 10
106.7047
 20
-51.3558
 30
0.0
 10
108.1555
 20
-53.6024
 30
0.0
 10
107.7231
 20
-56.2262
 30
0.0
 10
107.7231
 20
-56.2262
 30
0.0
 10
107.2981
 20
-58.8047
 30
0.0
 10
104.7477
 20
-60.6326
 30
0.0
 10
104.2163
 20
-62.6175
 30
0.0
 10
104.2163
 20
-62.6175
 30
0.0
 10
106.2279
 20
-63.5164
 30
0.0
 10
110.7726
 20
-63.6637
 30
0.0
 10
113.7498
 20
-62.6145
 30
0.0
 10
113.7498
 20
-62.6145
 30
0.0
 10
109.2894
 20
-59.7123
 30
0.0
 10
109.5839
 20
-51.0668
 30
0.0
 10
115.3245
 20
-50.4494
 30
0.0
  0
SPLINE
  5
CB
330
1F
100
AcDbEntity
  8
layer 1
 62
   250
100
AcDbSpline
210
0.0
220
0.0
230
1.0
 70
    11
 71
     3
 72
    40
 73
    36
 74
     0
 42
0.0000000001
 43
0.0000000001
 12
1.0
 22
0.0
 32
0.0
 13
1.0
 23
0.0
 33
0.0
 40
0.0
 40
0.0
 40
0.0
 40
0.0
 40
0.1
 40
0.1
 40
0.1
 40
0.1
 40
0.2
 40
0.2
 40
0.2
 40
0.2
 40
0.3
 40
0.3
 40
0.3
 40
0.3
 40
0.4
 40
0.4
 40
0.4
 40
0.4
 40
0.5
 40
0.5
 40
0.5
 40
0.5
 40
0.6
 40
0.6
 40
0.6
 40
0.6
 40
0.7
 40
0.7
 40
0.7
 40
0.7
 40
0.8
 40
0.8
 40
0.8
 40
0.8
 40
1.0
 40
1.0
 40
1.0
 40
1.0
 10
178.9729
 20
-40.7092
 30
0.0
 10
177.271
 20
-39.7892
 30
0.0
 10
175.776
 20
-39.0762
 30
0.0
 10
173.936
 20
-38.1562
 30
0.0
 10
173.936
 20
-38.1562
 30
0.0
 10
175.523
 20
-36.9372
 30
0.0
 10
176.696
 20
-35.6492
 30
0.0
 10
177.524
 20
-34.2232
 30
0.0
 10
177.524
 20
-34.2232
 30
0.0
 10
177.961
 20
-38.0412
 30
0.0
 10
182.8139
 20
-38.5472
 30
0.0
 10
184.9069
 20
-36.4312
 30
0.0
 10
184.9069
 20
-36.4312
 30
0.0
 10
185.8269
 20
-37.3282
 30
0.0
 10
186.8159
 20
-38.5012
 30
0.0
 10
187.6669
 20
-39.9502
 30
0.0
 10
187.6669
 20
-39.9502
 30
0.0
 10
186.3789
 20
-43.2622
 30
0.0
 10
186.5399
 20
-47.4021
 30
0.0
 10
190.0129
 20
-50.0931
 30
0.0
 10
190.0129
 20
-50.0931
 30
0.0
 10
187.3449
 20
-49.5411
 30
0.0
 10
185.9879
 20
-51.3351
 30
0.0
 10
184.4929
 20
-54.4401
 30
0.0
 10
184.4929
 20
-54.4401
 30
0.0
 10
185.7579
 20
-50.0931
 30
0.0
 10
185.0219
 20
-47.2641
 30
0.0
 10
183.2509
 20
-43.9522
 30
0.0
 10
183.2509
 20
-43.9522
 30
0.0
 10
184.5274
 20
-44.3202
 30
0.0
 10
185.8964
 20
-41.1654
 30
0.0
 10
182.9317
 20
-39.079
 30
0.0
 10
182.9317
 20
-39.079
 30
0.0
 10
180.5312
 20
-37.3897
 30
0.0
 10
178.559
 20
-39.2717
 30
0.0
 10
178.9729
 20
-40.7092
 30
0.0
  0
SPLINE
  5
CC
330
1F
100
AcDbEntity
  8
layer 1
 62
   250
100
AcDbSpline
210
0.0
220
0.0
230
1.0
 70
    11
 71
     3
 72
    40
 73
    36
 74
     0
 42
0.0000000001
 43
0.0000000001
 12
1.0
 22
0.0
 32
0.0
 13
1.0
 23
0.0
 33
0.0
 40
0.0
 40
0.0
 40
0.0
 40
0.0
 40
0.1
 40
0.1
 40
0.1
 40
0.1
 40
0.2
 40
0.2
 40
0.2
 40
0.2
 40
0.3
 40
0.3
 40
0.3
 40
0.3
 40
0.4
 40
0.4
 40
0.4
 40
0.4
 40
0.5
 40
0.5
 40
0.5
 40
0.5
 40
0.6
 40
0.6
 40
0.6
 40
0.6
 40
0.7
 40
0.7
 40
0.7
 40
0.7
 40
0.8
 40
0.8
 40
0.8
 40
0.8
 40
1.0
 40
1.0
 40
1.0
 40
1.0
 10
99.6925
 20
-40.5022
 30
0.0
 10
101.3945
 20
-39.5822
 30
0.0
 10
103.0275
 20
-38.9382
 30
0.0
 10
104.8675
 20
-38.1562
 30
0.0
 10
104.8675
 20
-38.1562
 30
0.0
 10
103.2805
 20
-36.9372
 30
0.0
 10
102.1075
 20
-35.3042
 30
0.0
 10
101.2105
 20
-34.1542
 30
0.0
 10
101.2105
 20
-34.1542
 30
0.0
 10
100.7735
 20
-37.9722
 30
0.0
 10
95.9895
 20
-38.5472
 30
0.0
 10
93.8965
 20
-36.4312
 30
0.0
 10
93.8965
 20
-36.4312
 30
0.0
 10
92.9765
 20
-37.3282
 30
0.0
 10
91.9876
 20
-38.5012
 30
0.0
 10
91.1366
 20
-39.9502
 30
0.0
 10
91.1366
 20
-39.9502
 30
0.0
 10
91.8726
 20
-43.3312
 30
0.0
 10
91.8496
 20
-46.7811
 30
0.0
 10
88.9286
 20
-49.6791
 30
0.0
 10
88.9286
 20
-49.6791
 30
0.0
 10
90.7686
 20
-49.8861
 30
0.0
 10
92.8156
 20
-51.0591
 30
0.0
 10
94.0345
 20
-54.5781
 30
0.0
 10
94.0345
 20
-54.5781
 30
0.0
 10
93.0455
 20
-50.0931
 30
0.0
 10
93.7815
 20
-47.2641
 30
0.0
 10
95.5525
 20
-43.9522
 30
0.0
 10
95.5525
 20
-43.9522
 30
0.0
 10
94.4141
 20
-43.4232
 30
0.0
 10
92.9761
 20
-41.0964
 30
0.0
 10
95.9407
 20
-39.01
 30
0.0
 10
95.9407
 20
-39.01
 30
0.0
 10
98.3412
 20
-37.3207
 30
0.0
 10
100.1065
 20
-39.0647
 30
0.0
 10
99.6925
 20
-40.5022
 30
0.0
  0
SPLINE
  5
CD
330
1F
100
AcDbEntity
  8
layer 1
 62
   250
100
AcDbSpline
210
0.0
220
0.0
230
1.0
 70
    11
 71
     3
 72
    28
 73
    24
 74
     0
 42
0.0000000001
 43
0.0000000001
 12
1.0
 22
0.0
 32
0.0
 13
1.0
 23
0.0
 33
0.0
 40
0.0
 40
0.0
 40
0.0
 40
0.0
 40
0.1428571428571428
 40
0.1428571428571428
 40
0.1428571428571428
 40
0.1428571428571428
 40
0.2857142857142857
 40
0.2857142857142857
 40
0.2857142857142857
 40
0.2857142857142857
 40
0.4285714285714285
 40
0.4285714285714285
 40
0.4285714285714285
 40
0.4285714285714285
 40
0.5714285714285714
 40
0.5714285714285714
 40
0.5714285714285714
 40
0.5714285714285714
 40
0.7142857142857143
 40
0.7142857142857143
 40
0.7142857142857143
 40
0.7142857142857143
 40
1.0
 40
1.0
 40
1.0
 40
1.0
 10
177.938
 20
-54.7161
 30
0.0
 10
179.4976
 20
-55.3328
 30
0.0
 10
180.4439
 20
-53.689
 30
0.0
 10
179.6595
 20
-51.4816
 30
0.0
 10
179.6595
 20
-51.4816
 30
0.0
 10
179.1481
 20
-50.0428
 30
0.0
 10
177.2824
 20
-48.9244
 30
0.0
 10
176.144
 20
-50.6451
 30
0.0
 10
176.144
 20
-50.6451
 30
0.0
 10
175.339
 20
-49.4031
 30
0.0
 10
174.465
 20
-48.3681
 30
0.0
 10
173.315
 20
-47.3331
 30
0.0
 10
173.315
 20
-47.3331
 30
0.0
 10
177.662
 20
-47.7011
 30
0.0
 10
178.49
 20
-44.7572
 30
0.0
 10
177.248
 20
-43.4002
 30
0.0
 10
177.248
 20
-43.4002
 30
0.0
 10
182.3309
 20
-44.5732
 30
0.0
 10
184.8609
 20
-53.8881
 30
0.0
 10
178.6279
 20
-60.374
 30
0.0
 10
178.6279
 20
-60.374
 30
0.0
 10
178.7199
 20
-58.3501
 30
0.0
 10
178.26
 20
-56.1881
 30
0.0
 10
177.938
 20
-54.7161
 30
0.0
  0
SPLINE
  5
CE
330
1F
100
AcDbEntity
  8
layer 1
 62
   250
100
AcDbSpline
210
0.0
220
0.0
230
1.0
 70
    11
 71
     3
 72
    28
 73
    24
 74
     0
 42
0.0000000001
 43
0.0000000001
 12
1.0
 22
0.0
 32
0.0
 13
1.0
 23
0.0
 33
0.0
 40
0.0
 40
0.0
 40
0.0
 40
0.0
 40
0.1428571428571428
 40
0.1428571428571428
 40
0.1428571428571428
 40
0.1428571428571428
 40
0.2857142857142857
 40
0.2857142857142857
 40
0.2857142857142857
 40
0.2857142857142857
 40
0.4285714285714285
 40
0.4285714285714285
 40
0.4285714285714285
 40
0.4285714285714285
 40
0.5714285714285714
 40
0.5714285714285714
 40
0.5714285714285714
 40
0.5714285714285714
 40
0.7142857142857143
 40
0.7142857142857143
 40
0.7142857142857143
 40
0.7142857142857143
 40
1.0
 40
1.0
 40
1.0
 40
1.0
 10
100.7275
 20
-54.7161
 30
0.0
 10
99.5128
 20
-54.9188
 30
0.0
 10
98.4286
 20
-53.689
 30
0.0
 10
99.213
 20
-51.4816
 30
0.0
 10
99.213
 20
-51.4816
 30
0.0
 10
99.7243
 20
-50.0428
 30
0.0
 10
101.521
 20
-48.9934
 30
0.0
 10
102.6595
 20
-50.7141
 30
0.0
 10
102.6595
 20
-50.7141
 30
0.0
 10
103.4645
 20
-49.4721
 30
0.0
 10
104.4765
 20
-48.3681
 30
0.0
 10
105.6265
 20
-47.3331
 30
0.0
 10
105.6265
 20
-47.3331
 30
0.0
 10
102.0385
 20
-48.0461
 30
0.0
 10
100.2445
 20
-45.2401
 30
0.0
 10
101.3485
 20
-43.5382
 30
0.0
 10
101.3485
 20
-43.5382
 30
0.0
 10
96.4725
 20
-44.7112
 30
0.0
 10
93.9425
 20
-53.8191
 30
0.0
 10
99.8305
 20
-59.96
 30
0.0
 10
99.8305
 20
-59.96
 30
0.0
 10
99.9455
 20
-58.1431
 30
0.0
 10
100.1985
 20
-56.0501
 30
0.0
 10
100.7275
 20
-54.7161
 30
0.0
  0
SPLINE
  5
CF
330
1F
100
AcDbEntity
  8
layer 1
 62
   250
100
AcDbSpline
210
0.0
220
0.0
230
1.0
 70
    11
 71
     3
 72
    24
 73
    20
 74
     0
 42
0.0000000001
 43
0.0000000001
 12
1.0
 22
0.0
 32
0.0
 13
1.0
 23
0.0
 33
0.0
 40
0.0
 40
0.0
 40
0.0
 40
0.0
 40
0.1666666666666667
 40
0.1666666666666667
 40
0.1666666666666667
 40
0.1666666666666667
 40
0.3333333333333333
 40
0.3333333333333333
 40
0.3333333333333333
 40
0.3333333333333333
 40
0.5
 40
0.5
 40
0.5
 40
0.5
 40
0.6666666666666666
 40
0.6666666666666666
 40
0.6666666666666666
 40
0.6666666666666666
 40
1.0
 40
1.0
 40
1.0
 40
1.0
 10
160.8951
 20
-42.8482
 30
0.0
 10
160.6651
 20
-41.9512
 30
0.0
 10
160.2971
 20
-41.0542
 30
0.0
 10
159.5841
 20
-40.1572
 30
0.0
 10
159.5841
 20
-40.1572
 30
0.0
 10
161.5621
 20
-40.9162
 30
0.0
 10
165.196
 20
-41.2612
 30
0.0
 10
166.967
 20
-40.7782
 30
0.0
 10
166.967
 20
-40.7782
 30
0.0
 10
167.381
 20
-41.1002
 30
0.0
 10
168.071
 20
-41.5602
 30
0.0
 10
168.623
 20
-41.7442
 30
0.0
 10
168.623
 20
-41.7442
 30
0.0
 10
167.772
 20
-42.1352
 30
0.0
 10
167.128
 20
-42.8022
 30
0.0
 10
166.484
 20
-43.5382
 30
0.0
 10
166.484
 20
-43.5382
 30
0.0
 10
164.897
 20
-43.0322
 30
0.0
 10
162.8271
 20
-42.8022
 30
0.0
 10
160.8951
 20
-42.8482
 30
0.0
  0
SPLINE
  5
D0
330
1F
100
AcDbEntity
  8
layer 1
 62
   250
100
AcDbSpline
210
0.0
220
0.0
230
1.0
 70
    11
 71
     3
 72
    24
 73
    20
 74
     0
 42
0.0000000001
 43
0.0000000001
 12
1.0
 22
0.0
 32
0.0
 13
1.0
 23
0.0
 33
0.0
 40
0.0
 40
0.0
 40
0.0
 40
0.0
 40
0.1666666666666667
 40
0.1666666666666667
 40
0.1666666666666667
 40
0.1666666666666667
 40
0.3333333333333333
 40
0.3333333333333333
 40
0.3333333333333333
 40
0.3333333333333333
 40
0.5
 40
0.5
 40
0.5
 40
0.5
 40
0.6666666666666666
 40
0.6666666666666666
 40
0.6666666666666666
 40
0.6666666666666666
 40
1.0
 40
1.0
 40
1.0
 40
1.0
 10
117.9084
 20
-42.7792
 30
0.0
 10
118.1384
 20
-41.8822
 30
0.0
 10
118.5064
 20
-40.9852
 30
0.0
 10
119.2194
 20
-40.0882
 30
0.0
 10
119.2194
 20
-40.0882
 30
0.0
 10
117.2414
 20
-40.8472
 30
0.0
 10
113.6074
 20
-41.1922
 30
0.0
 10
111.8364
 20
-40.7092
 30
0.0
 10
111.8364
 20
-40.7092
 30
0.0
 10
111.4224
 20
-41.0312
 30
0.0
 10
110.7324
 20
-41.4912
 30
0.0
 10
110.1804
 20
-41.6752
 30
0.0
 10
110.1804
 20
-41.6752
 30
0.0
 10
111.0314
 20
-42.0662
 30
0.0
 10
111.6754
 20
-42.7332
 30
0.0
 10
112.3194
 20
-43.4692
 30
0.0
 10
112.3194
 20
-43.4692
 30
0.0
 10
113.9064
 20
-42.9632
 30
0.0
 10
115.9764
 20
-42.7332
 30
0.0
 10
117.9084
 20
-42.7792
 30
0.0
  0
SPLINE
  5
D1
330
1F
100
AcDbEntity
  8
layer 1
 62
   250
100
AcDbSpline
210
0.0
220
0.0
230
1.0
 70
    11
 71
     3
 72
    24
 73
    20
 74
     0
 42
0.0000000001
 43
0.0000000001
 12
1.0
 22
0.0
 32
0.0
 13
1.0
 23
0.0
 33
0.0
 40
0.0
 40
0.0
 40
0.0
 40
0.0
 40
0.1666666666666667
 40
0.1666666666666667
 40
0.1666666666666667
 40
0.1666666666666667
 40
0.3333333333333333
 40
0.3333333333333333
 40
0.3333333333333333
 40
0.3333333333333333
 40
0.5
 40
0.5
 40
0.5
 40
0.5
 40
0.6666666666666666
 40
0.6666666666666666
 40
0.6666666666666666
 40
0.6666666666666666
 40
1.0
 40
1.0
 40
1.0
 40
1.0
 10
184.8839
 20
-66.9321
 30
0.0
 10
182.479
 20
-66.3227
 30
0.0
 10
179.6294
 20
-67.6404
 30
0.0
 10
176.681
 20
-69.2546
 30
0.0
 10
176.681
 20
-69.2546
 30
0.0
 10
177.6199
 20
-67.6239
 30
0.0
 10
178.1635
 20
-65.4496
 30
0.0
 10
178.5094
 20
-63.5225
 30
0.0
 10
178.5094
 20
-63.5225
 30
0.0
 10
181.7872
 20
-61.0682
 30
0.0
 10
183.4838
 20
-58.021
 30
0.0
 10
184.1427
 20
-55.6655
 30
0.0
 10
184.1427
 20
-55.6655
 30
0.0
 10
183.5167
 20
-59.2893
 30
0.0
 10
183.8791
 20
-62.666
 30
0.0
 10
186.0205
 20
-65.1037
 30
0.0
 10
186.0205
 20
-65.1037
 30
0.0
 10
185.6251
 20
-65.6803
 30
0.0
 10
185.2792
 20
-66.3556
 30
0.0
 10
184.8839
 20
-66.9321
 30
0.0
  0
SPLINE
  5
D2
330
1F
100
AcDbEntity
  8
layer 1
 62
   250
100
AcDbSpline
210
0.0
220
0.0
230
1.0
 70
    11
 71
     3
 72
    24
 73
    20
 74
     0
 42
0.0000000001
 43
0.0000000001
 12
1.0
 22
0.0
 32
0.0
 13
1.0
 23
0.0
 33
0.0
 40
0.0
 40
0.0
 40
0.0
 40
0.0
 40
0.1666666666666667
 40
0.1666666666666667
 40
0.1666666666666667
 40
0.1666666666666667
 40
0.3333333333333333
 40
0.3333333333333333
 40
0.3333333333333333
 40
0.3333333333333333
 40
0.5
 40
0.5
 40
0.5
 40
0.5
 40
0.6666666666666666
 40
0.6666666666666666
 40
0.6666666666666666
 40
0.6666666666666666
 40
1.0
 40
1.0
 40
1.0
 40
1.0
 10
93.4168
 20
-66.7344
 30
0.0
 10
95.8217
 20
-66.125
 30
0.0
 10
98.8195
 20
-67.4921
 30
0.0
 10
101.7679
 20
-69.1064
 30
0.0
 10
101.7679
 20
-69.1064
 30
0.0
 10
100.829
 20
-67.4757
 30
0.0
 10
100.3349
 20
-65.3508
 30
0.0
 10
99.989
 20
-63.4236
 30
0.0
 10
99.989
 20
-63.4236
 30
0.0
 10
96.7112
 20
-60.9694
 30
0.0
 10
94.8663
 20
-57.8233
 30
0.0
 10
94.2074
 20
-55.4678
 30
0.0
 10
94.2074
 20
-55.4678
 30
0.0
 10
94.8334
 20
-59.0916
 30
0.0
 10
94.3722
 20
-62.5671
 30
0.0
 10
92.2308
 20
-65.0049
 30
0.0
 10
92.2308
 20
-65.0049
 30
0.0
 10
92.6262
 20
-65.5815
 30
0.0
 10
93.0215
 20
-66.1579
 30
0.0
 10
93.4168
 20
-66.7344
 30
0.0
  0
SPLINE
  5
D3
330
1F
100
AcDbEntity
  8
layer 1
 62
   250
100
AcDbSpline
210
0.0
220
0.0
230
1.0
 70
    11
 71
     3
 72
    16
 73
    12
 74
     0
 42
0.0000000001
 43
0.0000000001
 12
1.0
 22
0.0
 32
0.0
 13
1.0
 23
0.0
 33
0.0
 40
0.0
 40
0.0
 40
0.0
 40
0.0
 40
0.25
 40
0.25
 40
0.25
 40
0.25
 40
0.5
 40
0.5
 40
0.5
 40
0.5
 40
1.0
 40
1.0
 40
1.0
 40
1.0
 10
192.6421
 20
-56.3573
 30
0.0
 10
191.9997
 20
-59.5198
 30
0.0
 10
189.6277
 20
-61.7435
 30
0.0
 10
188.0959
 20
-62.8801
 30
0.0
 10
188.0959
 20
-62.8801
 30
0.0
 10
187.0087
 20
-61.0023
 30
0.0
 10
186.9953
 20
-59.1262
 30
0.0
 10
187.997
 20
-57.5432
 30
0.0
 10
187.997
 20
-57.5432
 30
0.0
 10
188.9553
 20
-56.029
 30
0.0
 10
191.7032
 20
-57.7409
 30
0.0
 10
192.6421
 20
-56.3573
 30
0.0
  0
SPLINE
  5
D4
330
1F
100
AcDbEntity
  8
layer 1
 62
   250
100
AcDbSpline
210
0.0
220
0.0
230
1.0
 70
    11
 71
     3
 72
    16
 73
    12
 74
     0
 42
0.0000000001
 43
0.0000000001
 12
1.0
 22
0.0
 32
0.0
 13
1.0
 23
0.0
 33
0.0
 40
0.0
 40
0.0
 40
0.0
 40
0.0
 40
0.25
 40
0.25
 40
0.25
 40
0.25
 40
0.5
 40
0.5
 40
0.5
 40
0.5
 40
1.0
 40
1.0
 40
1.0
 40
1.0
 10
85.8318
 20
-56.5055
 30
0.0
 10
86.4742
 20
-59.6681
 30
0.0
 10
88.8461
 20
-61.8918
 30
0.0
 10
90.3779
 20
-63.0283
 30
0.0
 10
90.3779
 20
-63.0283
 30
0.0
 10
91.4651
 20
-61.1505
 30
0.0
 10
91.2975
 20
-59.2248
 30
0.0
 10
90.3779
 20
-57.5927
 30
0.0
 10
90.3779
 20
-57.5927
 30
0.0
 10
89.4691
 20
-55.9795
 30
0.0
 10
86.7706
 20
-57.8892
 30
0.0
 10
85.8318
 20
-56.5055
 30
0.0
  0
SPLINE
  5
D5
330
1F
100
AcDbEntity
  8
layer 1
 62
   250
100
AcDbSpline
210
0.0
220
0.0
230
1.0
 70
    11
 71
     3
 72
    16
 73
    12
 74
     0
 42
0.0000000001
 43
0.0000000001
 12
1.0
 22
0.0
 32
0.0
 13
1.0
 23
0.0
 33
0.0
 40
0.0
 40
0.0
 40
0.0
 40
0.0
 40
0.25
 40
0.25
 40
0.25
 40
0.25
 40
0.5
 40
0.5
 40
0.5
 40
0.5
 40
1.0
 40
1.0
 40
1.0
 40
1.0
 10
193.7603
 20
-59.6681
 30
0.0
 10
193.7603
 20
-59.6681
 30
0.0
 10
193.7603
 20
-71.6759
 30
0.0
 10
193.7603
 20
-71.6759
 30
0.0
 10
193.7603
 20
-71.6759
 30
0.0
 10
192.8934
 20
-69.2052
 30
0.0
 10
191.5324
 20
-67.2286
 30
0.0
 10
190.0231
 20
-65.5979
 30
0.0
 10
190.0231
 20
-65.5979
 30
0.0
 10
191.0876
 20
-63.5389
 30
0.0
 10
193.0911
 20
-61.6283
 30
0.0
 10
193.7603
 20
-59.6681
 30
0.0
  0
SPLINE
  5
D6
330
1F
100
AcDbEntity
  8
layer 1
 62
   250
100
AcDbSpline
210
0.0
220
0.0
230
1.0
 70
    11
 71
     3
 72
    16
 73
    12
 74
     0
 42
0.0000000001
 43
0.0000000001
 12
1.0
 22
0.0
 32
0.0
 13
1.0
 23
0.0
 33
0.0
 40
0.0
 40
0.0
 40
0.0
 40
0.0
 40
0.25
 40
0.25
 40
0.25
 40
0.25
 40
0.5
 40
0.5
 40
0.5
 40
0.5
 40
1.0
 40
1.0
 40
1.0
 40
1.0
 10
84.8599
 20
-60.6564
 30
0.0
 10
84.8599
 20
-60.6564
 30
0.0
 10
84.8599
 20
-71.1818
 30
0.0
 10
84.8599
 20
-71.1818
 30
0.0
 10
84.8599
 20
-71.1818
 30
0.0
 10
85.7268
 20
-68.711
 30
0.0
 10
86.8408
 20
-67.2286
 30
0.0
 10
88.3501
 20
-65.5979
 30
0.0
 10
88.3501
 20
-65.5979
 30
0.0
 10
87.2855
 20
-63.5389
 30
0.0
 10
85.5291
 20
-62.2212
 30
0.0
 10
84.8599
 20
-60.6564
 30
0.0
  0
SPLINE
  5
D7
330
1F
100
AcDbEntity
  8
layer 1
 62
   250
100
AcDbSpline
210
0.0
220
0.0
230
1.0
 70
    11
 71
     3
 72
    28
 73
    24
 74
     0
 42
0.0000000001
 43
0.0000000001
 12
1.0
 22
0.0
 32
0.0
 13
1.0
 23
0.0
 33
0.0
 40
0.0
 40
0.0
 40
0.0
 40
0.0
 40
0.1428571428571428
 40
0.1428571428571428
 40
0.1428571428571428
 40
0.1428571428571428
 40
0.2857142857142857
 40
0.2857142857142857
 40
0.2857142857142857
 40
0.2857142857142857
 40
0.4285714285714285
 40
0.4285714285714285
 40
0.4285714285714285
 40
0.4285714285714285
 40
0.5714285714285714
 40
0.5714285714285714
 40
0.5714285714285714
 40
0.5714285714285714
 40
0.7142857142857143
 40
0.7142857142857143
 40
0.7142857142857143
 40
0.7142857142857143
 40
1.0
 40
1.0
 40
1.0
 40
1.0
 10
141.3493
 20
-74.2949
 30
0.0
 10
141.0528
 20
-73.7019
 30
0.0
 10
140.6064
 20
-71.521
 30
0.0
 10
139.1751
 20
-71.4289
 30
0.0
 10
139.1751
 20
-71.4289
 30
0.0
 10
138.0378
 20
-71.3556
 30
0.0
 10
137.3961
 20
-72.516
 30
0.0
 10
136.9514
 20
-73.8996
 30
0.0
 10
136.9514
 20
-73.8996
 30
0.0
 10
136.6879
 20
-73.2902
 30
0.0
 10
136.4495
 20
-72.809
 30
0.0
 10
136.1859
 20
-72.1995
 30
0.0
 10
136.1859
 20
-72.1995
 30
0.0
 10
137.6684
 20
-70.3877
 30
0.0
 10
138.7303
 20
-68.2993
 30
0.0
 10
139.0268
 20
-65.845
 30
0.0
 10
139.0268
 20
-65.845
 30
0.0
 10
139.5045
 20
-68.151
 30
0.0
 10
140.7728
 20
-70.5065
 30
0.0
 10
142.2388
 20
-72.4666
 30
0.0
 10
142.2388
 20
-72.4666
 30
0.0
 10
141.9258
 20
-73.1255
 30
0.0
 10
141.6622
 20
-73.6361
 30
0.0
 10
141.3493
 20
-74.2949
 30
0.0
  0
SPLINE
  5
D8
330
1F
100
AcDbEntity
  8
layer 1
 62
   250
100
AcDbSpline
210
0.0
220
0.0
230
1.0
 70
    11
 71
     3
 72
    16
 73
    12
 74
     0
 42
0.0000000001
 43
0.0000000001
 12
1.0
 22
0.0
 32
0.0
 13
1.0
 23
0.0
 33
0.0
 40
0.0
 40
0.0
 40
0.0
 40
0.0
 40
0.25
 40
0.25
 40
0.25
 40
0.25
 40
0.5
 40
0.5
 40
0.5
 40
0.5
 40
1.0
 40
1.0
 40
1.0
 40
1.0
 10
150.9757
 20
-62.5
 30
0.0
 10
152.0894
 20
-62.3626
 30
0.0
 10
151.8177
 20
-64.3936
 30
0.0
 10
150.8294
 20
-65.003
 30
0.0
 10
150.8294
 20
-65.003
 30
0.0
 10
150.813
 20
-64.6901
 30
0.0
 10
150.8155
 20
-64.3296
 30
0.0
 10
150.837
 20
-64.0166
 30
0.0
 10
150.837
 20
-64.0166
 30
0.0
 10
151.1176
 20
-63.6783
 30
0.0
 10
151.1494
 20
-62.9352
 30
0.0
 10
150.9757
 20
-62.5
 30
0.0
  0
SPLINE
  5
D9
330
1F
100
AcDbEntity
  8
layer 1
 62
   250
100
AcDbSpline
210
0.0
220
0.0
230
1.0
 70
    11
 71
     3
 72
    16
 73
    12
 74
     0
 42
0.0000000001
 43
0.0000000001
 12
1.0
 22
0.0
 32
0.0
 13
1.0
 23
0.0
 33
0.0
 40
0.0
 40
0.0
 40
0.0
 40
0.0
 40
0.25
 40
0.25
 40
0.25
 40
0.25
 40
0.5
 40
0.5
 40
0.5
 40
0.5
 40
1.0
 40
1.0
 40
1.0
 40
1.0
 10
127.6657
 20
-62.6563
 30
0.0
 10
126.552
 20
-62.5189
 30
0.0
 10
126.8238
 20
-64.5499
 30
0.0
 10
127.8121
 20
-65.1592
 30
0.0
 10
127.8121
 20
-65.1592
 30
0.0
 10
127.8285
 20
-64.8463
 30
0.0
 10
127.826
 20
-64.4858
 30
0.0
 10
127.8045
 20
-64.1729
 30
0.0
 10
127.8045
 20
-64.1729
 30
0.0
 10
127.5239
 20
-63.8345
 30
0.0
 10
127.4921
 20
-63.0915
 30
0.0
 10
127.6657
 20
-62.6563
 30
0.0
  0
SPLINE
  5
DA
330
1F
100
AcDbEntity
  8
layer 1
 62
   250
100
AcDbSpline
210
0.0
220
0.0
230
1.0
 70
    11
 71
     3
 72
    36
 73
    32
 74
     0
 42
0.0000000001
 43
0.0000000001
 12
1.0
 22
0.0
 32
0.0
 13
1.0
 23
0.0
 33
0.0
 40
0.0
 40
0.0
 40
0.0
 40
0.0
 40
0.1111111111111111
 40
0.1111111111111111
 40
0.1111111111111111
 40
0.1111111111111111
 40
0.2222222222222222
 40
0.2222222222222222
 40
0.2222222222222222
 40
0.2222222222222222
 40
0.3333333333333333
 40
0.3333333333333333
 40
0.3333333333333333
 40
0.3333333333333333
 40
0.4444444444444444
 40
0.4444444444444444
 40
0.4444444444444444
 40
0.4444444444444444
 40
0.5555555555555556
 40
0.5555555555555556
 40
0.5555555555555556
 40
0.5555555555555556
 40
0.6666666666666666
 40
0.6666666666666666
 40
0.6666666666666666
 40
0.6666666666666666
 40
0.7777777777777778
 40
0.7777777777777778
 40
0.7777777777777778
 40
0.7777777777777778
 40
1.0
 40
1.0
 40
1.0
 40
1.0
 10
163.611
 20
-64.6912
 30
0.0
 10
163.3433
 20
-66.6537
 30
0.0
 10
160.9345
 20
-66.7628
 30
0.0
 10
158.5313
 20
-65.9641
 30
0.0
 10
158.5313
 20
-65.9641
 30
0.0
 10
156.7744
 20
-65.3802
 30
0.0
 10
154.7103
 20
-65.3889
 30
0.0
 10
153.2986
 20
-65.3944
 30
0.0
 10
153.2986
 20
-65.3944
 30
0.0
 10
154.7569
 20
-63.5845
 30
0.0
 10
154.2621
 20
-60.798
 30
0.0
 10
152.6345
 20
-59.8475
 30
0.0
 10
152.6345
 20
-59.8475
 30
0.0
 10
153.3246
 20
-59.1965
 30
0.0
 10
154.1319
 20
-58.8189
 30
0.0
 10
154.9392
 20
-58.5975
 30
0.0
 10
154.9392
 20
-58.5975
 30
0.0
 10
155.46
 20
-59.4569
 30
0.0
 10
156.3715
 20
-60.2772
 30
0.0
 10
157.2048
 20
-61.0584
 30
0.0
 10
157.2048
 20
-61.0584
 30
0.0
 10
156.7491
 20
-60.9152
 30
0.0
 10
156.1762
 20
-60.772
 30
0.0
 10
155.7204
 20
-60.6287
 30
0.0
 10
155.7204
 20
-60.6287
 30
0.0
 10
155.8399
 20
-63.5339
 30
0.0
 10
159.2366
 20
-64.5085
 30
0.0
 10
162.0095
 20
-63.7537
 30
0.0
 10
162.0095
 20
-63.7537
 30
0.0
 10
162.4522
 20
-64.0923
 30
0.0
 10
163.1293
 20
-64.4699
 30
0.0
 10
163.611
 20
-64.6912
 30
0.0
  0
SPLINE
  5
DB
330
1F
100
AcDbEntity
  8
layer 1
 62
   250
100
AcDbSpline
210
0.0
220
0.0
230
1.0
 70
    11
 71
     3
 72
    36
 73
    32
 74
     0
 42
0.0000000001
 43
0.0000000001
 12
1.0
 22
0.0
 32
0.0
 13
1.0
 23
0.0
 33
0.0
 40
0.0
 40
0.0
 40
0.0
 40
0.0
 40
0.1111111111111111
 40
0.1111111111111111
 40
0.1111111111111111
 40
0.1111111111111111
 40
0.2222222222222222
 40
0.2222222222222222
 40
0.2222222222222222
 40
0.2222222222222222
 40
0.3333333333333333
 40
0.3333333333333333
 40
0.3333333333333333
 40
0.3333333333333333
 40
0.4444444444444444
 40
0.4444444444444444
 40
0.4444444444444444
 40
0.4444444444444444
 40
0.5555555555555556
 40
0.5555555555555556
 40
0.5555555555555556
 40
0.5555555555555556
 40
0.6666666666666666
 40
0.6666666666666666
 40
0.6666666666666666
 40
0.6666666666666666
 40
0.7777777777777778
 40
0.7777777777777778
 40
0.7777777777777778
 40
0.7777777777777778
 40
1.0
 40
1.0
 40
1.0
 40
1.0
 10
115.0956
 20
-64.574
 30
0.0
 10
115.2852
 20
-66.7318
 30
0.0
 10
117.7331
 20
-66.5674
 30
0.0
 10
120.1363
 20
-65.7688
 30
0.0
 10
120.1363
 20
-65.7688
 30
0.0
 10
121.893
 20
-65.185
 30
0.0
 10
123.8792
 20
-65.1545
 30
0.0
 10
125.2518
 20
-65.2381
 30
0.0
 10
125.2518
 20
-65.2381
 30
0.0
 10
123.7935
 20
-63.4282
 30
0.0
 10
124.4054
 20
-60.6808
 30
0.0
 10
126.033
 20
-59.7303
 30
0.0
 10
126.033
 20
-59.7303
 30
0.0
 10
125.2648
 20
-59.1183
 30
0.0
 10
124.6528
 20
-58.7798
 30
0.0
 10
123.8455
 20
-58.6756
 30
0.0
 10
123.8455
 20
-58.6756
 30
0.0
 10
123.3247
 20
-59.535
 30
0.0
 10
122.4914
 20
-60.2381
 30
0.0
 10
121.658
 20
-61.0194
 30
0.0
 10
121.658
 20
-61.0194
 30
0.0
 10
122.1927
 20
-60.9416
 30
0.0
 10
122.8434
 20
-60.8113
 30
0.0
 10
123.1815
 20
-60.6287
 30
0.0
 10
123.1815
 20
-60.6287
 30
0.0
 10
123.0229
 20
-63.4167
 30
0.0
 10
119.1575
 20
-64.4695
 30
0.0
 10
116.3846
 20
-63.7147
 30
0.0
 10
116.3846
 20
-63.7147
 30
0.0
 10
115.9419
 20
-64.0532
 30
0.0
 10
115.6164
 20
-64.4308
 30
0.0
 10
115.0956
 20
-64.574
 30
0.0
  0
SPLINE
  5
DC
330
1F
100
AcDbEntity
  8
layer 1
 62
   250
100
AcDbSpline
210
0.0
220
0.0
230
1.0
 70
    11
 71
     3
 72
    32
 73
    28
 74
     0
 42
0.0000000001
 43
0.0000000001
 12
1.0
 22
0.0
 32
0.0
 13
1.0
 23
0.0
 33
0.0
 40
0.0
 40
0.0
 40
0.0
 40
0.0
 40
0.125
 40
0.125
 40
0.125
 40
0.125
 40
0.25
 40
0.25
 40
0.25
 40
0.25
 40
0.375
 40
0.375
 40
0.375
 40
0.375
 40
0.5
 40
0.5
 40
0.5
 40
0.5
 40
0.625
 40
0.625
 40
0.625
 40
0.625
 40
0.75
 40
0.75
 40
0.75
 40
0.75
 40
1.0
 40
1.0
 40
1.0
 40
1.0
 10
185.2125
 20
-82.2302
 30
0.0
 10
184.1839
 20
-81.9308
 30
0.0
 10
182.8045
 20
-81.9054
 30
0.0
 10
181.6578
 20
-82.0349
 30
0.0
 10
181.6578
 20
-82.0349
 30
0.0
 10
181.7879
 20
-81.9372
 30
0.0
 10
181.8995
 20
-81.8162
 30
0.0
 10
181.9703
 20
-81.6443
 30
0.0
 10
181.9703
 20
-81.6443
 30
0.0
 10
175.9547
 20
-80.5375
 30
0.0
 10
175.0172
 20
-70.7589
 30
0.0
 10
183.8453
 20
-69.3006
 30
0.0
 10
183.8453
 20
-69.3006
 30
0.0
 10
183.1813
 20
-71.1235
 30
0.0
 10
182.8688
 20
-72.7511
 30
0.0
 10
182.9078
 20
-74.535
 30
0.0
 10
182.9078
 20
-74.535
 30
0.0
 10
181.7309
 20
-73.5729
 30
0.0
 10
180.173
 20
-74.9173
 30
0.0
 10
180.469
 20
-76.5554
 30
0.0
 10
180.469
 20
-76.5554
 30
0.0
 10
180.9719
 20
-79.3387
 30
0.0
 10
183.2456
 20
-78.844
 30
0.0
 10
183.2985
 20
-78.0115
 30
0.0
 10
183.2985
 20
-78.0115
 30
0.0
 10
183.624
 20
-79.574
 30
0.0
 10
184.4183
 20
-80.9412
 30
0.0
 10
185.2125
 20
-82.2302
 30
0.0
  0
SPLINE
  5
DD
330
1F
100
AcDbEntity
  8
layer 1
 62
   250
100
AcDbSpline
210
0.0
220
0.0
230
1.0
 70
    11
 71
     3
 72
    32
 73
    28
 74
     0
 42
0.0000000001
 43
0.0000000001
 12
1.0
 22
0.0
 32
0.0
 13
1.0
 23
0.0
 33
0.0
 40
0.0
 40
0.0
 40
0.0
 40
0.0
 40
0.125
 40
0.125
 40
0.125
 40
0.125
 40
0.25
 40
0.25
 40
0.25
 40
0.25
 40
0.375
 40
0.375
 40
0.375
 40
0.375
 40
0.5
 40
0.5
 40
0.5
 40
0.5
 40
0.625
 40
0.625
 40
0.625
 40
0.625
 40
0.75
 40
0.75
 40
0.75
 40
0.75
 40
1.0
 40
1.0
 40
1.0
 40
1.0
 10
93.259
 20
-82.2693
 30
0.0
 10
94.2876
 20
-81.9698
 30
0.0
 10
95.6669
 20
-81.9444
 30
0.0
 10
96.8136
 20
-82.074
 30
0.0
 10
96.8136
 20
-82.074
 30
0.0
 10
96.6836
 20
-81.9762
 30
0.0
 10
96.572
 20
-81.8553
 30
0.0
 10
96.5011
 20
-81.6834
 30
0.0
 10
96.5011
 20
-81.6834
 30
0.0
 10
102.673
 20
-80.8891
 30
0.0
 10
103.7277
 20
-70.4855
 30
0.0
 10
94.6261
 20
-69.2225
 30
0.0
 10
94.6261
 20
-69.2225
 30
0.0
 10
95.2902
 20
-71.0454
 30
0.0
 10
95.6027
 20
-72.7902
 30
0.0
 10
95.5636
 20
-74.574
 30
0.0
 10
95.5636
 20
-74.574
 30
0.0
 10
96.7406
 20
-73.612
 30
0.0
 10
98.1786
 20
-74.8713
 30
0.0
 10
97.9243
 20
-76.5164
 30
0.0
 10
97.9243
 20
-76.5164
 30
0.0
 10
97.5797
 20
-78.746
 30
0.0
 10
95.6927
 20
-78.8045
 30
0.0
 10
95.0954
 20
-78.1668
 30
0.0
 10
95.0954
 20
-78.1668
 30
0.0
 10
94.7698
 20
-79.7293
 30
0.0
 10
94.0532
 20
-80.9802
 30
0.0
 10
93.259
 20
-82.2693
 30
0.0
  0
SPLINE
  5
DE
330
1F
100
AcDbEntity
  8
layer 1
 62
   250
100
AcDbSpline
210
0.0
220
0.0
230
1.0
 70
    11
 71
     3
 72
    16
 73
    12
 74
     0
 42
0.0000000001
 43
0.0000000001
 12
1.0
 22
0.0
 32
0.0
 13
1.0
 23
0.0
 33
0.0
 40
0.0
 40
0.0
 40
0.0
 40
0.0
 40
0.25
 40
0.25
 40
0.25
 40
0.25
 40
0.5
 40
0.5
 40
0.5
 40
0.5
 40
1.0
 40
1.0
 40
1.0
 40
1.0
 10
107.869
 20
-65.7459
 30
0.0
 10
108.7675
 20
-67.5167
 30
0.0
 10
108.2596
 20
-69.8735
 30
0.0
 10
105.4081
 20
-70.0818
 30
0.0
 10
105.4081
 20
-70.0818
 30
0.0
 10
104.2623
 20
-68.6105
 30
0.0
 10
103.9367
 20
-66.7876
 30
0.0
 10
103.8065
 20
-65.1209
 30
0.0
 10
103.8065
 20
-65.1209
 30
0.0
 10
104.8742
 20
-65.5636
 30
0.0
 10
106.9185
 20
-65.772
 30
0.0
 10
107.869
 20
-65.7459
 30
0.0
  0
SPLINE
  5
DF
330
1F
100
AcDbEntity
  8
layer 1
 62
   250
100
AcDbSpline
210
0.0
220
0.0
230
1.0
 70
    11
 71
     3
 72
    16
 73
    12
 74
     0
 42
0.0000000001
 43
0.0000000001
 12
1.0
 22
0.0
 32
0.0
 13
1.0
 23
0.0
 33
0.0
 40
0.0
 40
0.0
 40
0.0
 40
0.0
 40
0.25
 40
0.25
 40
0.25
 40
0.25
 40
0.5
 40
0.5
 40
0.5
 40
0.5
 40
1.0
 40
1.0
 40
1.0
 40
1.0
 10
170.6813
 20
-65.6678
 30
0.0
 10
169.7829
 20
-67.4386
 30
0.0
 10
170.2907
 20
-69.7954
 30
0.0
 10
173.1422
 20
-70.0037
 30
0.0
 10
173.1422
 20
-70.0037
 30
0.0
 10
174.2881
 20
-68.5324
 30
0.0
 10
174.6136
 20
-66.7095
 30
0.0
 10
174.7438
 20
-65.0428
 30
0.0
 10
174.7438
 20
-65.0428
 30
0.0
 10
173.6761
 20
-65.4855
 30
0.0
 10
171.6318
 20
-65.6938
 30
0.0
 10
170.6813
 20
-65.6678
 30
0.0
  0
SPLINE
  5
E0
330
1F
100
AcDbEntity
  8
layer 1
 62
   250
100
AcDbSpline
210
0.0
220
0.0
230
1.0
 70
    11
 71
     3
 72
    20
 73
    16
 74
     0
 42
0.0000000001
 43
0.0000000001
 12
1.0
 22
0.0
 32
0.0
 13
1.0
 23
0.0
 33
0.0
 40
0.0
 40
0.0
 40
0.0
 40
0.0
 40
0.2
 40
0.2
 40
0.2
 40
0.2
 40
0.4
 40
0.4
 40
0.4
 40
0.4
 40
0.6
 40
0.6
 40
0.6
 40
0.6
 40
1.0
 40
1.0
 40
1.0
 40
1.0
 10
151.2385
 20
-73.5288
 30
0.0
 10
150.3765
 20
-73.3925
 30
0.0
 10
149.9966
 20
-74.5686
 30
0.0
 10
150.1422
 20
-75.5282
 30
0.0
 10
150.1422
 20
-75.5282
 30
0.0
 10
148.7394
 20
-74.4711
 30
0.0
 10
146.6485
 20
-72.8317
 30
0.0
 10
145.2129
 20
-71.9137
 30
0.0
 10
145.2129
 20
-71.9137
 30
0.0
 10
146.1521
 20
-70.6658
 30
0.0
 10
147.6709
 20
-69.3213
 30
0.0
 10
149.0448
 20
-68.846
 30
0.0
 10
149.0448
 20
-68.846
 30
0.0
 10
149.6161
 20
-70.5585
 30
0.0
 10
150.1842
 20
-72.0577
 30
0.0
 10
151.2385
 20
-73.5288
 30
0.0
  0
SPLINE
  5
E1
330
1F
100
AcDbEntity
  8
layer 1
 62
   250
100
AcDbSpline
210
0.0
220
0.0
230
1.0
 70
    11
 71
     3
 72
    56
 73
    52
 74
     0
 42
0.0000000001
 43
0.0000000001
 12
1.0
 22
0.0
 32
0.0
 13
1.0
 23
0.0
 33
0.0
 40
0.0
 40
0.0
 40
0.0
 40
0.0
 40
0.0714285714285714
 40
0.0714285714285714
 40
0.0714285714285714
 40
0.0714285714285714
 40
0.1428571428571428
 40
0.1428571428571428
 40
0.1428571428571428
 40
0.1428571428571428
 40
0.2142857142857143
 40
0.2142857142857143
 40
0.2142857142857143
 40
0.2142857142857143
 40
0.2857142857142857
 40
0.2857142857142857
 40
0.2857142857142857
 40
0.2857142857142857
 40
0.3571428571428572
 40
0.3571428571428572
 40
0.3571428571428572
 40
0.3571428571428572
 40
0.4285714285714285
 40
0.4285714285714285
 40
0.4285714285714285
 40
0.4285714285714285
 40
0.5
 40
0.5
 40
0.5
 40
0.5
 40
0.5714285714285714
 40
0.5714285714285714
 40
0.5714285714285714
 40
0.5714285714285714
 40
0.6428571428571429
 40
0.6428571428571429
 40
0.6428571428571429
 40
0.6428571428571429
 40
0.7142857142857143
 40
0.7142857142857143
 40
0.7142857142857143
 40
0.7142857142857143
 40
0.7857142857142857
 40
0.7857142857142857
 40
0.7857142857142857
 40
0.7857142857142857
 40
0.8571428571428571
 40
0.8571428571428571
 40
0.8571428571428571
 40
0.8571428571428571
 40
1.0
 40
1.0
 40
1.0
 40
1.0
 10
151.9629
 20
-77.1026
 30
0.0
 10
153.2104
 20
-77.6254
 30
0.0
 10
154.2195
 20
-77.3956
 30
0.0
 10
154.0182
 20
-75.6003
 30
0.0
 10
154.0182
 20
-75.6003
 30
0.0
 10
157.3849
 20
-77.4851
 30
0.0
 10
159.5926
 20
-77.7279
 30
0.0
 10
162.5248
 20
-77.6809
 30
0.0
 10
162.5248
 20
-77.6809
 30
0.0
 10
162.3185
 20
-81.0935
 30
0.0
 10
159.7941
 20
-82.671
 30
0.0
 10
157.1732
 20
-82.6548
 30
0.0
 10
157.1732
 20
-82.6548
 30
0.0
 10
157.9125
 20
-86.8763
 30
0.0
 10
164.246
 20
-86.3364
 30
0.0
 10
165.7658
 20
-83.4872
 30
0.0
 10
165.7658
 20
-83.4872
 30
0.0
 10
169.122
 20
-85.2332
 30
0.0
 10
173.3958
 20
-84.2748
 30
0.0
 10
173.0816
 20
-79.984
 30
0.0
 10
173.0816
 20
-79.984
 30
0.0
 10
174.1566
 20
-82.1494
 30
0.0
 10
175.7145
 20
-82.8178
 30
0.0
 10
177.7554
 20
-83.0032
 30
0.0
 10
177.7554
 20
-83.0032
 30
0.0
 10
176.4592
 20
-83.4971
 30
0.0
 10
175.591
 20
-84.1909
 30
0.0
 10
174.7294
 20
-85.0712
 30
0.0
 10
174.7294
 20
-85.0712
 30
0.0
 10
172.5796
 20
-84.724
 30
0.0
 10
169.9879
 20
-84.8992
 30
0.0
 10
168.255
 20
-86.0008
 30
0.0
 10
168.255
 20
-86.0008
 30
0.0
 10
166.1265
 20
-87.3538
 30
0.0
 10
163.6446
 20
-89.7712
 30
0.0
 10
160.889
 20
-87.0674
 30
0.0
 10
160.889
 20
-87.0674
 30
0.0
 10
159.6831
 20
-88.6927
 30
0.0
 10
161.1816
 20
-91.2356
 30
0.0
 10
163.2114
 20
-91.3638
 30
0.0
 10
163.2114
 20
-91.3638
 30
0.0
 10
162.9695
 20
-91.8476
 30
0.0
 10
162.7276
 20
-92.3314
 30
0.0
 10
162.4857
 20
-92.8153
 30
0.0
 10
162.4857
 20
-92.8153
 30
0.0
 10
160.9275
 20
-91.4132
 30
0.0
 10
159.6107
 20
-90.3009
 30
0.0
 10
157.5696
 20
-90.058
 30
0.0
 10
157.5696
 20
-90.058
 30
0.0
 10
158.4835
 20
-85.5935
 30
0.0
 10
156.5661
 20
-81.4938
 30
0.0
 10
151.9629
 20
-77.1026
 30
0.0
  0
SPLINE
  5
E2
330
1F
100
AcDbEntity
  8
layer 1
 62
   250
100
AcDbSpline
210
0.0
220
0.0
230
1.0
 70
    11
 71
     3
 72
    20
 73
    16
 74
     0
 42
0.0000000001
 43
0.0000000001
 12
1.0
 22
0.0
 32
0.0
 13
1.0
 23
0.0
 33
0.0
 40
0.0
 40
0.0
 40
0.0
 40
0.0
 40
0.2
 40
0.2
 40
0.2
 40
0.2
 40
0.4
 40
0.4
 40
0.4
 40
0.4
 40
0.6
 40
0.6
 40
0.6
 40
0.6
 40
1.0
 40
1.0
 40
1.0
 40
1.0
 10
127.2632
 20
-73.4353
 30
0.0
 10
128.1252
 20
-73.299
 30
0.0
 10
128.4817
 20
-74.3115
 30
0.0
 10
128.3361
 20
-75.2711
 30
0.0
 10
128.3361
 20
-75.2711
 30
0.0
 10
129.7389
 20
-74.214
 30
0.0
 10
131.7363
 20
-72.5746
 30
0.0
 10
133.1719
 20
-71.6566
 30
0.0
 10
133.1719
 20
-71.6566
 30
0.0
 10
132.2327
 20
-70.4087
 30
0.0
 10
130.9476
 20
-69.2044
 30
0.0
 10
129.5737
 20
-68.7292
 30
0.0
 10
129.5737
 20
-68.7292
 30
0.0
 10
129.2596
 20
-70.4417
 30
0.0
 10
128.3642
 20
-72.2915
 30
0.0
 10
127.2632
 20
-73.4353
 30
0.0
  0
SPLINE
  5
E3
330
1F
100
AcDbEntity
  8
layer 1
 62
   250
100
AcDbSpline
210
0.0
220
0.0
230
1.0
 70
    11
 71
     3
 72
    56
 73
    52
 74
     0
 42
0.0000000001
 43
0.0000000001
 12
1.0
 22
0.0
 32
0.0
 13
1.0
 23
0.0
 33
0.0
 40
0.0
 40
0.0
 40
0.0
 40
0.0
 40
0.0714285714285714
 40
0.0714285714285714
 40
0.0714285714285714
 40
0.0714285714285714
 40
0.1428571428571428
 40
0.1428571428571428
 40
0.1428571428571428
 40
0.1428571428571428
 40
0.2142857142857143
 40
0.2142857142857143
 40
0.2142857142857143
 40
0.2142857142857143
 40
0.2857142857142857
 40
0.2857142857142857
 40
0.2857142857142857
 40
0.2857142857142857
 40
0.3571428571428572
 40
0.3571428571428572
 40
0.3571428571428572
 40
0.3571428571428572
 40
0.4285714285714285
 40
0.4285714285714285
 40
0.4285714285714285
 40
0.4285714285714285
 40
0.5
 40
0.5
 40
0.5
 40
0.5
 40
0.5714285714285714
 40
0.5714285714285714
 40
0.5714285714285714
 40
0.5714285714285714
 40
0.6428571428571429
 40
0.6428571428571429
 40
0.6428571428571429
 40
0.6428571428571429
 40
0.7142857142857143
 40
0.7142857142857143
 40
0.7142857142857143
 40
0.7142857142857143
 40
0.7857142857142857
 40
0.7857142857142857
 40
0.7857142857142857
 40
0.7857142857142857
 40
0.8571428571428571
 40
0.8571428571428571
 40
0.8571428571428571
 40
0.8571428571428571
 40
1.0
 40
1.0
 40
1.0
 40
1.0
 10
126.6323
 20
-76.8688
 30
0.0
 10
125.3848
 20
-77.3916
 30
0.0
 10
124.3289
 20
-76.4373
 30
0.0
 10
124.8107
 20
-75.4133
 30
0.0
 10
124.8107
 20
-75.4133
 30
0.0
 10
121.444
 20
-77.2981
 30
0.0
 10
119.1943
 20
-77.7279
 30
0.0
 10
116.2622
 20
-77.6809
 30
0.0
 10
116.2622
 20
-77.6809
 30
0.0
 10
116.4685
 20
-81.0935
 30
0.0
 10
118.8478
 20
-82.671
 30
0.0
 10
121.4687
 20
-82.6548
 30
0.0
 10
121.4687
 20
-82.6548
 30
0.0
 10
120.7295
 20
-86.8763
 30
0.0
 10
113.7602
 20
-86.5098
 30
0.0
 10
112.8761
 20
-83.4872
 30
0.0
 10
112.8761
 20
-83.4872
 30
0.0
 10
109.5199
 20
-85.2332
 30
0.0
 10
105.2461
 20
-84.2748
 30
0.0
 10
105.5603
 20
-79.984
 30
0.0
 10
105.5603
 20
-79.984
 30
0.0
 10
104.4853
 20
-82.1494
 30
0.0
 10
102.9274
 20
-82.8178
 30
0.0
 10
100.8865
 20
-83.0032
 30
0.0
 10
100.8865
 20
-83.0032
 30
0.0
 10
102.1827
 20
-83.4971
 30
0.0
 10
103.1892
 20
-84.3291
 30
0.0
 10
104.0507
 20
-85.2094
 30
0.0
 10
104.0507
 20
-85.2094
 30
0.0
 10
106.2005
 20
-84.8622
 30
0.0
 10
108.8651
 20
-84.9013
 30
0.0
 10
110.598
 20
-86.0028
 30
0.0
 10
110.598
 20
-86.0028
 30
0.0
 10
112.7265
 20
-87.3558
 30
0.0
 10
115.3358
 20
-89.7712
 30
0.0
 10
118.0913
 20
-87.0674
 30
0.0
 10
118.0913
 20
-87.0674
 30
0.0
 10
119.2973
 20
-88.6927
 30
0.0
 10
117.7504
 20
-91.1872
 30
0.0
 10
115.7206
 20
-91.3154
 30
0.0
 10
115.7206
 20
-91.3154
 30
0.0
 10
115.8732
 20
-91.5312
 30
0.0
 10
116.0296
 20
-91.8368
 30
0.0
 10
116.197
 20
-92.1717
 30
0.0
 10
116.197
 20
-92.1717
 30
0.0
 10
117.0301
 20
-91.1564
 30
0.0
 10
119.1279
 20
-90.1559
 30
0.0
 10
120.5405
 20
-90.058
 30
0.0
 10
120.5405
 20
-90.058
 30
0.0
 10
119.6266
 20
-85.5935
 30
0.0
 10
122.0291
 20
-81.26
 30
0.0
 10
126.6323
 20
-76.8688
 30
0.0
  0
SPLINE
  5
E4
330
1F
100
AcDbEntity
  8
layer 1
 62
   250
100
AcDbSpline
210
0.0
220
0.0
230
1.0
 70
    11
 71
     3
 72
    16
 73
    12
 74
     0
 42
0.0000000001
 43
0.0000000001
 12
1.0
 22
0.0
 32
0.0
 13
1.0
 23
0.0
 33
0.0
 40
0.0
 40
0.0
 40
0.0
 40
0.0
 40
0.25
 40
0.25
 40
0.25
 40
0.25
 40
0.5
 40
0.5
 40
0.5
 40
0.5
 40
1.0
 40
1.0
 40
1.0
 40
1.0
 10
158.2153
 20
-68.9599
 30
0.0
 10
156.3078
 20
-67.7748
 30
0.0
 10
153.3483
 20
-67.5256
 30
0.0
 10
151.3983
 20
-68.2831
 30
0.0
 10
151.3983
 20
-68.2831
 30
0.0
 10
152.9132
 20
-73.3918
 30
0.0
 10
157.1355
 20
-75.2612
 30
0.0
 10
162.5666
 20
-75.4869
 30
0.0
 10
162.5666
 20
-75.4869
 30
0.0
 10
162.0348
 20
-72.1348
 30
0.0
 10
160.494
 20
-70.3756
 30
0.0
 10
158.2153
 20
-68.9599
 30
0.0
  0
SPLINE
  5
E5
330
1F
100
AcDbEntity
  8
layer 1
 62
   250
100
AcDbSpline
210
0.0
220
0.0
230
1.0
 70
    11
 71
     3
 72
    16
 73
    12
 74
     0
 42
0.0000000001
 43
0.0000000001
 12
1.0
 22
0.0
 32
0.0
 13
1.0
 23
0.0
 33
0.0
 40
0.0
 40
0.0
 40
0.0
 40
0.0
 40
0.25
 40
0.25
 40
0.25
 40
0.25
 40
0.5
 40
0.5
 40
0.5
 40
0.5
 40
1.0
 40
1.0
 40
1.0
 40
1.0
 10
120.6008
 20
-68.8632
 30
0.0
 10
122.5083
 20
-67.6781
 30
0.0
 10
125.4678
 20
-67.4289
 30
0.0
 10
127.4178
 20
-68.1864
 30
0.0
 10
127.4178
 20
-68.1864
 30
0.0
 10
125.9029
 20
-73.2951
 30
0.0
 10
121.6806
 20
-75.1645
 30
0.0
 10
116.2495
 20
-75.3902
 30
0.0
 10
116.2495
 20
-75.3902
 30
0.0
 10
116.7813
 20
-72.0381
 30
0.0
 10
118.3221
 20
-70.2789
 30
0.0
 10
120.6008
 20
-68.8632
 30
0.0
  0
SPLINE
  5
E6
330
1F
100
AcDbEntity
  8
layer 1
 62
   250
100
AcDbSpline
210
0.0
220
0.0
230
1.0
 70
    11
 71
     3
 72
    24
 73
    20
 74
     0
 42
0.0000000001
 43
0.0000000001
 12
1.0
 22
0.0
 32
0.0
 13
1.0
 23
0.0
 33
0.0
 40
0.0
 40
0.0
 40
0.0
 40
0.0
 40
0.1666666666666667
 40
0.1666666666666667
 40
0.1666666666666667
 40
0.1666666666666667
 40
0.3333333333333333
 40
0.3333333333333333
 40
0.3333333333333333
 40
0.3333333333333333
 40
0.5
 40
0.5
 40
0.5
 40
0.5
 40
0.6666666666666666
 40
0.6666666666666666
 40
0.6666666666666666
 40
0.6666666666666666
 40
1.0
 40
1.0
 40
1.0
 40
1.0
 10
169.1419
 20
-73.7463
 30
0.0
 10
168.1749
 20
-74.2459
 30
0.0
 10
167.208
 20
-74.6005
 30
0.0
 10
165.9993
 20
-74.8583
 30
0.0
 10
165.9993
 20
-74.8583
 30
0.0
 10
165.3224
 20
-73.279
 30
0.0
 10
164.7906
 20
-71.9414
 30
0.0
 10
163.6302
 20
-70.4104
 30
0.0
 10
163.6302
 20
-70.4104
 30
0.0
 10
166.789
 20
-70.3137
 30
0.0
 10
167.1919
 20
-66.3975
 30
0.0
 10
165.1774
 20
-65.1888
 30
0.0
 10
165.1774
 20
-65.1888
 30
0.0
 10
166.6439
 20
-65.5756
 30
0.0
 10
167.9654
 20
-65.6723
 30
0.0
 10
169.3836
 20
-65.6723
 30
0.0
 10
169.3836
 20
-65.6723
 30
0.0
 10
166.4505
 20
-67.5256
 30
0.0
 10
166.9501
 20
-71.9897
 30
0.0
 10
169.1419
 20
-73.7463
 30
0.0
  0
SPLINE
  5
E7
330
1F
100
AcDbEntity
  8
layer 1
 62
   250
100
AcDbSpline
210
0.0
220
0.0
230
1.0
 70
    11
 71
     3
 72
    24
 73
    20
 74
     0
 42
0.0000000001
 43
0.0000000001
 12
1.0
 22
0.0
 32
0.0
 13
1.0
 23
0.0
 33
0.0
 40
0.0
 40
0.0
 40
0.0
 40
0.0
 40
0.1666666666666667
 40
0.1666666666666667
 40
0.1666666666666667
 40
0.1666666666666667
 40
0.3333333333333333
 40
0.3333333333333333
 40
0.3333333333333333
 40
0.3333333333333333
 40
0.5
 40
0.5
 40
0.5
 40
0.5
 40
0.6666666666666666
 40
0.6666666666666666
 40
0.6666666666666666
 40
0.6666666666666666
 40
1.0
 40
1.0
 40
1.0
 40
1.0
 10
109.3841
 20
-73.7463
 30
0.0
 10
110.3511
 20
-74.2459
 30
0.0
 10
111.5114
 20
-74.6005
 30
0.0
 10
112.7201
 20
-74.8583
 30
0.0
 10
112.7201
 20
-74.8583
 30
0.0
 10
113.397
 20
-73.279
 30
0.0
 10
114.0255
 20
-71.9414
 30
0.0
 10
115.1859
 20
-70.4104
 30
0.0
 10
115.1859
 20
-70.4104
 30
0.0
 10
112.0271
 20
-70.3137
 30
0.0
 10
111.6242
 20
-66.3491
 30
0.0
 10
113.6387
 20
-65.1405
 30
0.0
 10
113.6387
 20
-65.1405
 30
0.0
 10
112.1722
 20
-65.5272
 30
0.0
 10
110.6573
 20
-65.8173
 30
0.0
 10
109.2391
 20
-65.8173
 30
0.0
 10
109.2391
 20
-65.8173
 30
0.0
 10
112.1722
 20
-67.6706
 30
0.0
 10
111.5759
 20
-71.9897
 30
0.0
 10
109.3841
 20
-73.7463
 30
0.0
  0
SPLINE
  5
E8
330
1F
100
AcDbEntity
  8
layer 1
 62
   250
100
AcDbSpline
210
0.0
220
0.0
230
1.0
 70
    11
 71
     3
 72
    24
 73
    20
 74
     0
 42
0.0000000001
 43
0.0000000001
 12
1.0
 22
0.0
 32
0.0
 13
1.0
 23
0.0
 33
0.0
 40
0.0
 40
0.0
 40
0.0
 40
0.0
 40
0.1666666666666667
 40
0.1666666666666667
 40
0.1666666666666667
 40
0.1666666666666667
 40
0.3333333333333333
 40
0.3333333333333333
 40
0.3333333333333333
 40
0.3333333333333333
 40
0.5
 40
0.5
 40
0.5
 40
0.5
 40
0.6666666666666666
 40
0.6666666666666666
 40
0.6666666666666666
 40
0.6666666666666666
 40
1.0
 40
1.0
 40
1.0
 40
1.0
 10
171.7527
 20
-77.8559
 30
0.0
 10
170.9791
 20
-81.1274
 30
0.0
 10
166.986
 20
-79.8059
 30
0.0
 10
166.6106
 20
-77.132
 30
0.0
 10
166.6106
 20
-77.132
 30
0.0
 10
168.5445
 20
-76.6968
 30
0.0
 10
170.6407
 20
-75.8253
 30
0.0
 10
171.7527
 20
-74.9067
 30
0.0
 10
171.7527
 20
-74.9067
 30
0.0
 10
171.9299
 20
-74.9067
 30
0.0
 10
172.1555
 20
-75.0517
 30
0.0
 10
172.3328
 20
-75.0517
 30
0.0
 10
172.3328
 20
-75.0517
 30
0.0
 10
172.22
 20
-75.9542
 30
0.0
 10
172.3318
 20
-77.6786
 30
0.0
 10
172.7508
 20
-79.0646
 30
0.0
 10
172.7508
 20
-79.0646
 30
0.0
 10
172.5082
 20
-78.5133
 30
0.0
 10
172.1225
 20
-78.1103
 30
0.0
 10
171.7527
 20
-77.8559
 30
0.0
  0
SPLINE
  5
E9
330
1F
100
AcDbEntity
  8
layer 1
 62
   250
100
AcDbSpline
210
0.0
220
0.0
230
1.0
 70
    11
 71
     3
 72
    24
 73
    20
 74
     0
 42
0.0000000001
 43
0.0000000001
 12
1.0
 22
0.0
 32
0.0
 13
1.0
 23
0.0
 33
0.0
 40
0.0
 40
0.0
 40
0.0
 40
0.0
 40
0.1666666666666667
 40
0.1666666666666667
 40
0.1666666666666667
 40
0.1666666666666667
 40
0.3333333333333333
 40
0.3333333333333333
 40
0.3333333333333333
 40
0.3333333333333333
 40
0.5
 40
0.5
 40
0.5
 40
0.5
 40
0.6666666666666666
 40
0.6666666666666666
 40
0.6666666666666666
 40
0.6666666666666666
 40
1.0
 40
1.0
 40
1.0
 40
1.0
 10
106.7873
 20
-77.8559
 30
0.0
 10
107.5609
 20
-81.1274
 30
0.0
 10
111.6991
 20
-80.1444
 30
0.0
 10
111.9777
 20
-77.277
 30
0.0
 10
111.9777
 20
-77.277
 30
0.0
 10
110.0438
 20
-76.8419
 30
0.0
 10
107.8993
 20
-75.8253
 30
0.0
 10
106.7873
 20
-74.9067
 30
0.0
 10
106.7873
 20
-74.9067
 30
0.0
 10
106.6101
 20
-74.9067
 30
0.0
 10
106.3844
 20
-75.0517
 30
0.0
 10
106.2072
 20
-75.0517
 30
0.0
 10
106.2072
 20
-75.0517
 30
0.0
 10
106.32
 20
-75.9542
 30
0.0
 10
106.2082
 20
-77.6786
 30
0.0
 10
105.7892
 20
-79.0646
 30
0.0
 10
105.7892
 20
-79.0646
 30
0.0
 10
106.0318
 20
-78.5133
 30
0.0
 10
106.4175
 20
-78.1103
 30
0.0
 10
106.7873
 20
-77.8559
 30
0.0
  0
SPLINE
  5
EA
330
1F
100
AcDbEntity
  8
layer 1
 62
   250
100
AcDbSpline
210
0.0
220
0.0
230
1.0
 70
    11
 71
     3
 72
    20
 73
    16
 74
     0
 42
0.0000000001
 43
0.0000000001
 12
1.0
 22
0.0
 32
0.0
 13
1.0
 23
0.0
 33
0.0
 40
0.0
 40
0.0
 40
0.0
 40
0.0
 40
0.2
 40
0.2
 40
0.2
 40
0.2
 40
0.4
 40
0.4
 40
0.4
 40
0.4
 40
0.6
 40
0.6
 40
0.6
 40
0.6
 40
1.0
 40
1.0
 40
1.0
 40
1.0
 10
188.6708
 20
-70.0878
 30
0.0
 10
194.589
 20
-73.6334
 30
0.0
 10
192.6383
 20
-81.0147
 30
0.0
 10
190.6084
 20
-84.2836
 30
0.0
 10
190.6084
 20
-84.2836
 30
0.0
 10
188.8949
 20
-82.5832
 30
0.0
 10
186.8255
 20
-81.0411
 30
0.0
 10
186.2192
 20
-78.9453
 30
0.0
 10
186.2192
 20
-78.9453
 30
0.0
 10
187.7152
 20
-80.5138
 30
0.0
 10
190.2098
 20
-79.2747
 30
0.0
 10
190.732
 20
-77.2796
 30
0.0
 10
190.732
 20
-77.2796
 30
0.0
 10
191.2542
 20
-75.2844
 30
0.0
 10
189.0135
 20
-71.9397
 30
0.0
 10
188.6708
 20
-70.0878
 30
0.0
  0
SPLINE
  5
EB
330
1F
100
AcDbEntity
  8
layer 1
 62
   250
100
AcDbSpline
210
0.0
220
0.0
230
1.0
 70
    11
 71
     3
 72
    20
 73
    16
 74
     0
 42
0.0000000001
 43
0.0000000001
 12
1.0
 22
0.0
 32
0.0
 13
1.0
 23
0.0
 33
0.0
 40
0.0
 40
0.0
 40
0.0
 40
0.0
 40
0.2
 40
0.2
 40
0.2
 40
0.2
 40
0.4
 40
0.4
 40
0.4
 40
0.4
 40
0.6
 40
0.6
 40
0.6
 40
0.6
 40
1.0
 40
1.0
 40
1.0
 40
1.0
 10
89.6345
 20
-70.0482
 30
0.0
 10
83.7163
 20
-73.5939
 30
0.0
 10
85.588
 20
-80.8565
 30
0.0
 10
87.8156
 20
-84.2045
 30
0.0
 10
87.8156
 20
-84.2045
 30
0.0
 10
89.5291
 20
-82.5042
 30
0.0
 10
91.5985
 20
-80.962
 30
0.0
 10
92.2048
 20
-78.8662
 30
0.0
 10
92.2048
 20
-78.8662
 30
0.0
 10
90.7088
 20
-80.4348
 30
0.0
 10
88.2141
 20
-79.1956
 30
0.0
 10
87.692
 20
-77.2005
 30
0.0
 10
87.692
 20
-77.2005
 30
0.0
 10
87.1698
 20
-75.2054
 30
0.0
 10
89.4105
 20
-71.9001
 30
0.0
 10
89.6345
 20
-70.0482
 30
0.0
  0
SPLINE
  5
EC
330
1F
100
AcDbEntity
  8
layer 1
 62
   250
100
AcDbSpline
210
0.0
220
0.0
230
1.0
 70
    11
 71
     3
 72
    20
 73
    16
 74
     0
 42
0.0000000001
 43
0.0000000001
 12
1.0
 22
0.0
 32
0.0
 13
1.0
 23
0.0
 33
0.0
 40
0.0
 40
0.0
 40
0.0
 40
0.0
 40
0.2
 40
0.2
 40
0.2
 40
0.2
 40
0.4
 40
0.4
 40
0.4
 40
0.4
 40
0.6
 40
0.6
 40
0.6
 40
0.6
 40
1.0
 40
1.0
 40
1.0
 40
1.0
 10
145.0117
 20
-83.8486
 30
0.0
 10
147.0191
 20
-80.9884
 30
0.0
 10
145.0286
 20
-77.6536
 30
0.0
 10
142.965
 20
-76.4541
 30
0.0
 10
142.965
 20
-76.4541
 30
0.0
 10
143.1558
 20
-75.7028
 30
0.0
 10
143.4698
 20
-74.8329
 30
0.0
 10
143.8342
 20
-74.2793
 30
0.0
 10
143.8342
 20
-74.2793
 30
0.0
 10
147.7704
 20
-77.4559
 30
0.0
 10
152.1833
 20
-82.7282
 30
0.0
 10
151.1011
 20
-88.4751
 30
0.0
 10
151.1011
 20
-88.4751
 30
0.0
 10
150.8207
 20
-84.7976
 30
0.0
 10
148.5104
 20
-83.4532
 30
0.0
 10
145.0117
 20
-83.8486
 30
0.0
  0
SPLINE
  5
ED
330
1F
100
AcDbEntity
  8
layer 1
 62
   250
100
AcDbSpline
210
0.0
220
0.0
230
1.0
 70
    11
 71
     3
 72
    20
 73
    16
 74
     0
 42
0.0000000001
 43
0.0000000001
 12
1.0
 22
0.0
 32
0.0
 13
1.0
 23
0.0
 33
0.0
 40
0.0
 40
0.0
 40
0.0
 40
0.0
 40
0.2
 40
0.2
 40
0.2
 40
0.2
 40
0.4
 40
0.4
 40
0.4
 40
0.4
 40
0.6
 40
0.6
 40
0.6
 40
0.6
 40
1.0
 40
1.0
 40
1.0
 40
1.0
 10
133.0453
 20
-83.8486
 30
0.0
 10
131.2
 20
-80.8302
 30
0.0
 10
133.2298
 20
-77.2977
 30
0.0
 10
135.2992
 20
-76.0982
 30
0.0
 10
135.2992
 20
-76.0982
 30
0.0
 10
135.1015
 20
-75.3469
 30
0.0
 10
134.9434
 20
-74.9911
 30
0.0
 10
134.5875
 20
-74.4375
 30
0.0
 10
134.5875
 20
-74.4375
 30
0.0
 10
130.6464
 20
-77.614
 30
0.0
 10
126.1122
 20
-82.6096
 30
0.0
 10
126.9557
 20
-88.1192
 30
0.0
 10
126.9557
 20
-88.1192
 30
0.0
 10
127.2457
 20
-84.4417
 30
0.0
 10
129.8687
 20
-83.6509
 30
0.0
 10
133.0453
 20
-83.8486
 30
0.0
  0
SPLINE
  5
EE
330
1F
100
AcDbEntity
  8
layer 1
 62
   250
100
AcDbSpline
210
0.0
220
0.0
230
1.0
 70
    11
 71
     3
 72
    20
 73
    16
 74
     0
 42
0.0000000001
 43
0.0000000001
 12
1.0
 22
0.0
 32
0.0
 13
1.0
 23
0.0
 33
0.0
 40
0.0
 40
0.0
 40
0.0
 40
0.0
 40
0.2
 40
0.2
 40
0.2
 40
0.2
 40
0.4
 40
0.4
 40
0.4
 40
0.4
 40
0.6
 40
0.6
 40
0.6
 40
0.6
 40
1.0
 40
1.0
 40
1.0
 40
1.0
 10
141.0219
 20
-85.4699
 30
0.0
 10
140.1125
 20
-86.0894
 30
0.0
 10
139.4007
 20
-87.1043
 30
0.0
 10
139.1239
 20
-88.0401
 30
0.0
 10
139.1239
 20
-88.0401
 30
0.0
 10
138.7548
 20
-87.0911
 30
0.0
 10
138.2276
 20
-86.2212
 30
0.0
 10
137.5026
 20
-85.7071
 30
0.0
 10
137.5026
 20
-85.7071
 30
0.0
 10
133.6524
 20
-80.6712
 30
0.0
 10
137.755
 20
-80.6296
 30
0.0
 10
138.8767
 20
-80.6339
 30
0.0
 10
138.8767
 20
-80.6339
 30
0.0
 10
140.0707
 20
-80.6383
 30
0.0
 10
144.3874
 20
-80.8323
 30
0.0
 10
141.0219
 20
-85.4699
 30
0.0
  0
SPLINE
  5
EF
330
1F
100
AcDbEntity
  8
layer 1
 62
   250
100
AcDbSpline
210
0.0
220
0.0
230
1.0
 70
    11
 71
     3
 72
    28
 73
    24
 74
     0
 42
0.0000000001
 43
0.0000000001
 12
1.0
 22
0.0
 32
0.0
 13
1.0
 23
0.0
 33
0.0
 40
0.0
 40
0.0
 40
0.0
 40
0.0
 40
0.1428571428571428
 40
0.1428571428571428
 40
0.1428571428571428
 40
0.1428571428571428
 40
0.2857142857142857
 40
0.2857142857142857
 40
0.2857142857142857
 40
0.2857142857142857
 40
0.4285714285714285
 40
0.4285714285714285
 40
0.4285714285714285
 40
0.4285714285714285
 40
0.5714285714285714
 40
0.5714285714285714
 40
0.5714285714285714
 40
0.5714285714285714
 40
0.7142857142857143
 40
0.7142857142857143
 40
0.7142857142857143
 40
0.7142857142857143
 40
1.0
 40
1.0
 40
1.0
 40
1.0
 10
127.419
 20
-89.78
 30
0.0
 10
128.8689
 20
-92.5744
 30
0.0
 10
132.2959
 20
-94.8151
 30
0.0
 10
134.8135
 20
-96.8977
 30
0.0
 10
134.8135
 20
-96.8977
 30
0.0
 10
136.0384
 20
-95.3106
 30
0.0
 10
136.9099
 20
-93.5814
 30
0.0
 10
137.0335
 20
-92.0363
 30
0.0
 10
137.0335
 20
-92.0363
 30
0.0
 10
137.1311
 20
-90.8164
 30
0.0
 10
136.6851
 20
-89.6192
 30
0.0
 10
135.875
 20
-89.5476
 30
0.0
 10
135.875
 20
-89.5476
 30
0.0
 10
134.9653
 20
-89.4672
 30
0.0
 10
134.5054
 20
-90.2557
 30
0.0
 10
135.6439
 20
-91.0849
 30
0.0
 10
135.6439
 20
-91.0849
 30
0.0
 10
135.0559
 20
-93.3722
 30
0.0
 10
130.9256
 20
-93.1866
 30
0.0
 10
130.4805
 20
-90.609
 30
0.0
 10
130.4805
 20
-90.609
 30
0.0
 10
130.1435
 20
-88.6571
 30
0.0
 10
128.602
 20
-87.801
 30
0.0
 10
127.419
 20
-89.78
 30
0.0
  0
SPLINE
  5
F0
330
1F
100
AcDbEntity
  8
layer 1
 62
   250
100
AcDbSpline
210
0.0
220
0.0
230
1.0
 70
    11
 71
     3
 72
    28
 73
    24
 74
     0
 42
0.0000000001
 43
0.0000000001
 12
1.0
 22
0.0
 32
0.0
 13
1.0
 23
0.0
 33
0.0
 40
0.0
 40
0.0
 40
0.0
 40
0.0
 40
0.1428571428571428
 40
0.1428571428571428
 40
0.1428571428571428
 40
0.1428571428571428
 40
0.2857142857142857
 40
0.2857142857142857
 40
0.2857142857142857
 40
0.2857142857142857
 40
0.4285714285714285
 40
0.4285714285714285
 40
0.4285714285714285
 40
0.4285714285714285
 40
0.5714285714285714
 40
0.5714285714285714
 40
0.5714285714285714
 40
0.5714285714285714
 40
0.7142857142857143
 40
0.7142857142857143
 40
0.7142857142857143
 40
0.7142857142857143
 40
1.0
 40
1.0
 40
1.0
 40
1.0
 10
150.6703
 20
-89.8986
 30
0.0
 10
149.2204
 20
-92.693
 30
0.0
 10
145.912
 20
-94.8546
 30
0.0
 10
143.3945
 20
-96.9372
 30
0.0
 10
143.3945
 20
-96.9372
 30
0.0
 10
142.0509
 20
-95.3106
 30
0.0
 10
141.14
 20
-93.3047
 30
0.0
 10
141.0163
 20
-91.7595
 30
0.0
 10
141.0163
 20
-91.7595
 30
0.0
 10
140.9186
 20
-90.5395
 30
0.0
 10
141.325
 20
-89.6588
 30
0.0
 10
142.1353
 20
-89.5871
 30
0.0
 10
142.1353
 20
-89.5871
 30
0.0
 10
143.045
 20
-89.5066
 30
0.0
 10
143.3862
 20
-90.058
 30
0.0
 10
142.4455
 20
-91.2035
 30
0.0
 10
142.4455
 20
-91.2035
 30
0.0
 10
143.0334
 20
-93.4908
 30
0.0
 10
147.2428
 20
-92.989
 30
0.0
 10
147.5693
 20
-90.6881
 30
0.0
 10
147.5693
 20
-90.6881
 30
0.0
 10
147.8475
 20
-88.727
 30
0.0
 10
149.6851
 20
-87.6428
 30
0.0
 10
150.6703
 20
-89.8986
 30
0.0
  0
SPLINE
  5
F1
330
1F
100
AcDbEntity
  8
layer 1
 62
   250
100
AcDbSpline
210
0.0
220
0.0
230
1.0
 70
    11
 71
     3
 72
    20
 73
    16
 74
     0
 42
0.0000000001
 43
0.0000000001
 12
1.0
 22
0.0
 32
0.0
 13
1.0
 23
0.0
 33
0.0
 40
0.0
 40
0.0
 40
0.0
 40
0.0
 40
0.2
 40
0.2
 40
0.2
 40
0.2
 40
0.4
 40
0.4
 40
0.4
 40
0.4
 40
0.6
 40
0.6
 40
0.6
 40
0.6
 40
1.0
 40
1.0
 40
1.0
 40
1.0
 10
141.3383
 20
-98.7957
 30
0.0
 10
140.3761
 20
-99.7448
 30
0.0
 10
139.7697
 20
-100.8519
 30
0.0
 10
139.0843
 20
-102.0382
 30
0.0
 10
139.0843
 20
-102.0382
 30
0.0
 10
138.478
 20
-100.9047
 30
0.0
 10
137.7531
 20
-99.7316
 30
0.0
 10
136.9095
 20
-98.7957
 30
0.0
 10
136.9095
 20
-98.7957
 30
0.0
 10
137.5422
 20
-97.7544
 30
0.0
 10
138.6494
 20
-96.1596
 30
0.0
 10
138.9657
 20
-94.6437
 30
0.0
 10
138.9657
 20
-94.6437
 30
0.0
 10
139.5061
 20
-96.2255
 30
0.0
 10
140.3233
 20
-97.3326
 30
0.0
 10
141.3383
 20
-98.7957
 30
0.0
  0
SPLINE
  5
F2
330
1F
100
AcDbEntity
  8
layer 1
 62
   250
100
AcDbSpline
210
0.0
220
0.0
230
1.0
 70
    11
 71
     3
 72
    16
 73
    12
 74
     0
 42
0.0000000001
 43
0.0000000001
 12
1.0
 22
0.0
 32
0.0
 13
1.0
 23
0.0
 33
0.0
 40
0.0
 40
0.0
 40
0.0
 40
0.0
 40
0.25
 40
0.25
 40
0.25
 40
0.25
 40
0.5
 40
0.5
 40
0.5
 40
0.5
 40
1.0
 40
1.0
 40
1.0
 40
1.0
 10
144.4621
 20
-105.7948
 30
0.0
 10
144.9628
 20
-104.2479
 30
0.0
 10
143.7504
 20
-102.3809
 30
0.0
 10
142.92
 20
-101.2474
 30
0.0
 10
142.92
 20
-101.2474
 30
0.0
 10
142.1423
 20
-102.5655
 30
0.0
 10
141.3864
 20
-104.3285
 30
0.0
 10
141.9314
 20
-105.8343
 30
0.0
 10
141.9314
 20
-105.8343
 30
0.0
 10
142.25
 20
-106.7144
 30
0.0
 10
144.0016
 20
-107.2178
 30
0.0
 10
144.4621
 20
-105.7948
 30
0.0
  0
SPLINE
  5
F3
330
1F
100
AcDbEntity
  8
layer 1
 62
   250
100
AcDbSpline
210
0.0
220
0.0
230
1.0
 70
    11
 71
     3
 72
    16
 73
    12
 74
     0
 42
0.0000000001
 43
0.0000000001
 12
1.0
 22
0.0
 32
0.0
 13
1.0
 23
0.0
 33
0.0
 40
0.0
 40
0.0
 40
0.0
 40
0.0
 40
0.25
 40
0.25
 40
0.25
 40
0.25
 40
0.5
 40
0.5
 40
0.5
 40
0.5
 40
1.0
 40
1.0
 40
1.0
 40
1.0
 10
133.6927
 20
-105.6761
 30
0.0
 10
133.1921
 20
-104.1292
 30
0.0
 10
134.4045
 20
-102.2623
 30
0.0
 10
135.2349
 20
-101.1287
 30
0.0
 10
135.2349
 20
-101.1287
 30
0.0
 10
136.0126
 20
-102.4468
 30
0.0
 10
136.7685
 20
-104.2099
 30
0.0
 10
136.2235
 20
-105.7157
 30
0.0
 10
136.2235
 20
-105.7157
 30
0.0
 10
135.9049
 20
-106.5958
 30
0.0
 10
134.1533
 20
-107.0992
 30
0.0
 10
133.6927
 20
-105.6761
 30
0.0
  0
SPLINE
  5
F4
330
1F
100
AcDbEntity
  8
layer 1
 62
   250
100
AcDbSpline
210
0.0
220
0.0
230
1.0
 70
    11
 71
     3
 72
    40
 73
    36
 74
     0
 42
0.0000000001
 43
0.0000000001
 12
1.0
 22
0.0
 32
0.0
 13
1.0
 23
0.0
 33
0.0
 40
0.0
 40
0.0
 40
0.0
 40
0.0
 40
0.1
 40
0.1
 40
0.1
 40
0.1
 40
0.2
 40
0.2
 40
0.2
 40
0.2
 40
0.3
 40
0.3
 40
0.3
 40
0.3
 40
0.4
 40
0.4
 40
0.4
 40
0.4
 40
0.5
 40
0.5
 40
0.5
 40
0.5
 40
0.6
 40
0.6
 40
0.6
 40
0.6
 40
0.7
 40
0.7
 40
0.7
 40
0.7
 40
0.8
 40
0.8
 40
0.8
 40
0.8
 40
1.0
 40
1.0
 40
1.0
 40
1.0
 10
163.2054
 20
-100.5356
 30
0.0
 10
165.4988
 20
-102.7764
 30
0.0
 10
167.5946
 20
-105.4916
 30
0.0
 10
170.4417
 20
-107.1392
 30
0.0
 10
170.4417
 20
-107.1392
 30
0.0
 10
162.1377
 20
-108.4046
 30
0.0
 10
151.738
 20
-106.8624
 30
0.0
 10
144.818
 20
-98.9539
 30
0.0
 10
144.818
 20
-98.9539
 30
0.0
 10
146.7916
 20
-96.9024
 30
0.0
 10
152.4867
 20
-95.6848
 30
0.0
 10
156.0479
 20
-96.2182
 30
0.0
 10
156.0479
 20
-96.2182
 30
0.0
 10
158.0456
 20
-96.5174
 30
0.0
 10
159.8323
 20
-97.3304
 30
0.0
 10
161.1491
 20
-98.7562
 30
0.0
 10
161.1491
 20
-98.7562
 30
0.0
 10
161.36
 20
-100.3643
 30
0.0
 10
160.3451
 20
-102.8818
 30
0.0
 10
158.9348
 20
-103.2245
 30
0.0
 10
158.9348
 20
-103.2245
 30
0.0
 10
160.7532
 20
-101.5806
 30
0.0
 10
159.0185
 20
-98.8004
 30
0.0
 10
156.7918
 20
-98.8209
 30
0.0
 10
156.7918
 20
-98.8209
 30
0.0
 10
154.0568
 20
-98.8462
 30
0.0
 10
153.471
 20
-100.9465
 30
0.0
 10
153.5457
 20
-101.9951
 30
0.0
 10
153.5457
 20
-101.9951
 30
0.0
 10
153.6876
 20
-103.9831
 30
0.0
 10
155.2791
 20
-105.5503
 30
0.0
 10
158.099
 20
-105.4004
 30
0.0
 10
158.099
 20
-105.4004
 30
0.0
 10
160.3386
 20
-105.2813
 30
0.0
 10
162.7754
 20
-103.6463
 30
0.0
 10
163.2054
 20
-100.5356
 30
0.0
  0
SPLINE
  5
F5
330
1F
100
AcDbEntity
  8
layer 1
 62
   250
100
AcDbSpline
210
0.0
220
0.0
230
1.0
 70
    11
 71
     3
 72
    40
 73
    36
 74
     0
 42
0.0000000001
 43
0.0000000001
 12
1.0
 22
0.0
 32
0.0
 13
1.0
 23
0.0
 33
0.0
 40
0.0
 40
0.0
 40
0.0
 40
0.0
 40
0.1
 40
0.1
 40
0.1
 40
0.1
 40
0.2
 40
0.2
 40
0.2
 40
0.2
 40
0.3
 40
0.3
 40
0.3
 40
0.3
 40
0.4
 40
0.4
 40
0.4
 40
0.4
 40
0.5
 40
0.5
 40
0.5
 40
0.5
 40
0.6
 40
0.6
 40
0.6
 40
0.6
 40
0.7
 40
0.7
 40
0.7
 40
0.7
 40
0.8
 40
0.8
 40
0.8
 40
0.8
 40
1.0
 40
1.0
 40
1.0
 40
1.0
 10
114.7261
 20
-100.6938
 30
0.0
 10
112.4326
 20
-102.9345
 30
0.0
 10
110.93
 20
-105.3334
 30
0.0
 10
108.0829
 20
-106.9811
 30
0.0
 10
108.0829
 20
-106.9811
 30
0.0
 10
116.3869
 20
-108.2464
 30
0.0
 10
126.1934
 20
-106.7438
 30
0.0
 10
133.1134
 20
-98.8353
 30
0.0
 10
133.1134
 20
-98.8353
 30
0.0
 10
131.1398
 20
-96.7838
 30
0.0
 10
125.6029
 20
-95.6848
 30
0.0
 10
122.0417
 20
-96.2182
 30
0.0
 10
122.0417
 20
-96.2182
 30
0.0
 10
120.0441
 20
-96.5174
 30
0.0
 10
118.2573
 20
-97.3304
 30
0.0
 10
116.9405
 20
-98.7562
 30
0.0
 10
116.9405
 20
-98.7562
 30
0.0
 10
116.7296
 20
-100.3643
 30
0.0
 10
117.7445
 20
-102.8818
 30
0.0
 10
119.1548
 20
-103.2245
 30
0.0
 10
119.1548
 20
-103.2245
 30
0.0
 10
117.3364
 20
-101.5806
 30
0.0
 10
119.0711
 20
-98.8004
 30
0.0
 10
121.2978
 20
-98.8209
 30
0.0
 10
121.2978
 20
-98.8209
 30
0.0
 10
124.0328
 20
-98.8462
 30
0.0
 10
124.6186
 20
-100.9465
 30
0.0
 10
124.5439
 20
-101.9951
 30
0.0
 10
124.5439
 20
-101.9951
 30
0.0
 10
124.402
 20
-103.9831
 30
0.0
 10
122.8105
 20
-105.5502
 30
0.0
 10
119.9906
 20
-105.4004
 30
0.0
 10
119.9906
 20
-105.4004
 30
0.0
 10
117.751
 20
-105.2813
 30
0.0
 10
115.1561
 20
-103.8045
 30
0.0
 10
114.7261
 20
-100.6938
 30
0.0
  0
SPLINE
  5
F6
330
1F
100
AcDbEntity
  8
layer 1
 62
   250
100
AcDbSpline
210
0.0
220
0.0
230
1.0
 70
    11
 71
     3
 72
    36
 73
    32
 74
     0
 42
0.0000000001
 43
0.0000000001
 12
1.0
 22
0.0
 32
0.0
 13
1.0
 23
0.0
 33
0.0
 40
0.0
 40
0.0
 40
0.0
 40
0.0
 40
0.1111111111111111
 40
0.1111111111111111
 40
0.1111111111111111
 40
0.1111111111111111
 40
0.2222222222222222
 40
0.2222222222222222
 40
0.2222222222222222
 40
0.2222222222222222
 40
0.3333333333333333
 40
0.3333333333333333
 40
0.3333333333333333
 40
0.3333333333333333
 40
0.4444444444444444
 40
0.4444444444444444
 40
0.4444444444444444
 40
0.4444444444444444
 40
0.5555555555555556
 40
0.5555555555555556
 40
0.5555555555555556
 40
0.5555555555555556
 40
0.6666666666666666
 40
0.6666666666666666
 40
0.6666666666666666
 40
0.6666666666666666
 40
0.7777777777777778
 40
0.7777777777777778
 40
0.7777777777777778
 40
0.7777777777777778
 40
1.0
 40
1.0
 40
1.0
 40
1.0
 10
173.4469
 20
-106.2693
 30
0.0
 10
170.5076
 20
-104.6085
 30
0.0
 10
168.5173
 20
-102.3941
 30
0.0
 10
164.1544
 20
-95.1183
 30
0.0
 10
164.1544
 20
-95.1183
 30
0.0
 10
164.9079
 20
-93.9205
 30
0.0
 10
165.8232
 20
-93.0011
 30
0.0
 10
167.6185
 20
-92.5615
 30
0.0
 10
167.6185
 20
-92.5615
 30
0.0
 10
168.9287
 20
-92.2408
 30
0.0
 10
170.645
 20
-92.5579
 30
0.0
 10
171.6675
 20
-91.9153
 30
0.0
 10
171.6675
 20
-91.9153
 30
0.0
 10
171.5225
 20
-93.6947
 30
0.0
 10
171.6148
 20
-95.2764
 30
0.0
 10
172.2211
 20
-97.0559
 30
0.0
 10
172.2211
 20
-97.0559
 30
0.0
 10
171.4449
 20
-96.2354
 30
0.0
 10
169.1935
 20
-97.4696
 30
0.0
 10
170.5469
 20
-100.0984
 30
0.0
 10
170.5469
 20
-100.0984
 30
0.0
 10
171.978
 20
-102.8779
 30
0.0
 10
174.9934
 20
-101.4315
 30
0.0
 10
174.3959
 20
-99.7843
 30
0.0
 10
174.3959
 20
-99.7843
 30
0.0
 10
176.2676
 20
-101.5637
 30
0.0
 10
178.7324
 20
-101.366
 30
0.0
 10
180.7623
 20
-100.6542
 30
0.0
 10
180.7623
 20
-100.6542
 30
0.0
 10
178.9961
 20
-103.6463
 30
0.0
 10
176.1622
 20
-105.2544
 30
0.0
 10
173.4469
 20
-106.2693
 30
0.0
  0
SPLINE
  5
F7
330
1F
100
AcDbEntity
  8
layer 1
 62
   250
100
AcDbSpline
210
0.0
220
0.0
230
1.0
 70
    11
 71
     3
 72
    36
 73
    32
 74
     0
 42
0.0000000001
 43
0.0000000001
 12
1.0
 22
0.0
 32
0.0
 13
1.0
 23
0.0
 33
0.0
 40
0.0
 40
0.0
 40
0.0
 40
0.0
 40
0.1111111111111111
 40
0.1111111111111111
 40
0.1111111111111111
 40
0.1111111111111111
 40
0.2222222222222222
 40
0.2222222222222222
 40
0.2222222222222222
 40
0.2222222222222222
 40
0.3333333333333333
 40
0.3333333333333333
 40
0.3333333333333333
 40
0.3333333333333333
 40
0.4444444444444444
 40
0.4444444444444444
 40
0.4444444444444444
 40
0.4444444444444444
 40
0.5555555555555556
 40
0.5555555555555556
 40
0.5555555555555556
 40
0.5555555555555556
 40
0.6666666666666666
 40
0.6666666666666666
 40
0.6666666666666666
 40
0.6666666666666666
 40
0.7777777777777778
 40
0.7777777777777778
 40
0.7777777777777778
 40
0.7777777777777778
 40
1.0
 40
1.0
 40
1.0
 40
1.0
 10
104.6452
 20
-106.2693
 30
0.0
 10
108.1579
 20
-104.2712
 30
0.0
 10
109.9121
 20
-101.5847
 30
0.0
 10
114.275
 20
-94.3088
 30
0.0
 10
114.275
 20
-94.3088
 30
0.0
 10
113.2516
 20
-93.2459
 30
0.0
 10
112.4437
 20
-92.6452
 30
0.0
 10
111.0132
 20
-92.4266
 30
0.0
 10
111.0132
 20
-92.4266
 30
0.0
 10
109.7427
 20
-92.2325
 30
0.0
 10
108.0205
 20
-92.4567
 30
0.0
 10
106.998
 20
-91.8141
 30
0.0
 10
106.998
 20
-91.8141
 30
0.0
 10
107.3453
 20
-93.3237
 30
0.0
 10
107.253
 20
-95.5125
 30
0.0
 10
106.4444
 20
-97.0559
 30
0.0
 10
106.4444
 20
-97.0559
 30
0.0
 10
107.2205
 20
-96.2354
 30
0.0
 10
109.3895
 20
-97.4627
 30
0.0
 10
108.2534
 20
-100.0984
 30
0.0
 10
108.2534
 20
-100.0984
 30
0.0
 10
107.1532
 20
-102.6509
 30
0.0
 10
103.7395
 20
-101.3303
 30
0.0
 10
104.337
 20
-99.6831
 30
0.0
 10
104.337
 20
-99.6831
 30
0.0
 10
102.4653
 20
-101.4625
 30
0.0
 10
99.3597
 20
-101.5684
 30
0.0
 10
97.1612
 20
-100.4519
 30
0.0
 10
97.1612
 20
-100.4519
 30
0.0
 10
98.9274
 20
-103.4439
 30
0.0
 10
101.9299
 20
-105.2544
 30
0.0
 10
104.6452
 20
-106.2693
 30
0.0
  0
SPLINE
  5
F8
330
1F
100
AcDbEntity
  8
layer 1
 62
   250
100
AcDbSpline
210
0.0
220
0.0
230
1.0
 70
    11
 71
     3
 72
    24
 73
    20
 74
     0
 42
0.0000000001
 43
0.0000000001
 12
1.0
 22
0.0
 32
0.0
 13
1.0
 23
0.0
 33
0.0
 40
0.0
 40
0.0
 40
0.0
 40
0.0
 40
0.1666666666666667
 40
0.1666666666666667
 40
0.1666666666666667
 40
0.1666666666666667
 40
0.3333333333333333
 40
0.3333333333333333
 40
0.3333333333333333
 40
0.3333333333333333
 40
0.5
 40
0.5
 40
0.5
 40
0.5
 40
0.6666666666666666
 40
0.6666666666666666
 40
0.6666666666666666
 40
0.6666666666666666
 40
1.0
 40
1.0
 40
1.0
 40
1.0
 10
186.6553
 20
-106.5319
 30
0.0
 10
185.3624
 20
-107.2964
 30
0.0
 10
182.7937
 20
-107.9822
 30
0.0
 10
181.1974
 20
-107.971
 30
0.0
 10
181.1974
 20
-107.971
 30
0.0
 10
181.0118
 20
-107.111
 30
0.0
 10
180.7195
 20
-106.1722
 30
0.0
 10
179.7752
 20
-105.5876
 30
0.0
 10
179.7752
 20
-105.5876
 30
0.0
 10
181.9112
 20
-104.025
 30
0.0
 10
182.8667
 20
-101.5855
 30
0.0
 10
183.3164
 20
-99.9554
 30
0.0
 10
183.3164
 20
-99.9554
 30
0.0
 10
184.2201
 20
-99.6998
 30
0.0
 10
185.9842
 20
-99.9046
 30
0.0
 10
186.6214
 20
-101.5547
 30
0.0
 10
186.6214
 20
-101.5547
 30
0.0
 10
187.1495
 20
-102.922
 30
0.0
 10
186.0456
 20
-104.598
 30
0.0
 10
186.6553
 20
-106.5319
 30
0.0
  0
SPLINE
  5
F9
330
1F
100
AcDbEntity
  8
layer 1
 62
   250
100
AcDbSpline
210
0.0
220
0.0
230
1.0
 70
    11
 71
     3
 72
    24
 73
    20
 74
     0
 42
0.0000000001
 43
0.0000000001
 12
1.0
 22
0.0
 32
0.0
 13
1.0
 23
0.0
 33
0.0
 40
0.0
 40
0.0
 40
0.0
 40
0.0
 40
0.1666666666666667
 40
0.1666666666666667
 40
0.1666666666666667
 40
0.1666666666666667
 40
0.3333333333333333
 40
0.3333333333333333
 40
0.3333333333333333
 40
0.3333333333333333
 40
0.5
 40
0.5
 40
0.5
 40
0.5
 40
0.6666666666666666
 40
0.6666666666666666
 40
0.6666666666666666
 40
0.6666666666666666
 40
1.0
 40
1.0
 40
1.0
 40
1.0
 10
92.0202
 20
-106.7343
 30
0.0
 10
93.3805
 20
-107.4313
 30
0.0
 10
95.4153
 20
-107.7911
 30
0.0
 10
96.9779
 20
-107.881
 30
0.0
 10
96.9779
 20
-107.881
 30
0.0
 10
97.214
 20
-106.9592
 30
0.0
 10
97.5175
 20
-106.1385
 30
0.0
 10
98.3269
 20
-105.5539
 30
0.0
 10
98.3269
 20
-105.5539
 30
0.0
 10
96.1909
 20
-103.9913
 30
0.0
 10
95.2354
 20
-101.6529
 30
0.0
 10
94.7857
 20
-100.0228
 30
0.0
 10
94.7857
 20
-100.0228
 30
0.0
 10
93.9494
 20
-100.0034
 30
0.0
 10
92.5223
 20
-100.1073
 30
0.0
 10
92.1552
 20
-101.5547
 30
0.0
 10
92.1552
 20
-101.5547
 30
0.0
 10
91.795
 20
-102.9751
 30
0.0
 10
92.7985
 20
-104.6654
 30
0.0
 10
92.0202
 20
-106.7343
 30
0.0
  0
SPLINE
  5
FA
330
1F
100
AcDbEntity
  8
layer 1
 62
   250
100
AcDbSpline
210
0.0
220
0.0
230
1.0
 70
    11
 71
     3
 72
    52
 73
    48
 74
     0
 42
0.0000000001
 43
0.0000000001
 12
1.0
 22
0.0
 32
0.0
 13
1.0
 23
0.0
 33
0.0
 40
0.0
 40
0.0
 40
0.0
 40
0.0
 40
0.0769230769230769
 40
0.0769230769230769
 40
0.0769230769230769
 40
0.0769230769230769
 40
0.1538461538461539
 40
0.1538461538461539
 40
0.1538461538461539
 40
0.1538461538461539
 40
0.2307692307692308
 40
0.2307692307692308
 40
0.2307692307692308
 40
0.2307692307692308
 40
0.3076923076923077
 40
0.3076923076923077
 40
0.3076923076923077
 40
0.3076923076923077
 40
0.3846153846153846
 40
0.3846153846153846
 40
0.3846153846153846
 40
0.3846153846153846
 40
0.4615384615384616
 40
0.4615384615384616
 40
0.4615384615384616
 40
0.4615384615384616
 40
0.5384615384615384
 40
0.5384615384615384
 40
0.5384615384615384
 40
0.5384615384615384
 40
0.6153846153846154
 40
0.6153846153846154
 40
0.6153846153846154
 40
0.6153846153846154
 40
0.6923076923076923
 40
0.6923076923076923
 40
0.6923076923076923
 40
0.6923076923076923
 40
0.7692307692307693
 40
0.7692307692307693
 40
0.7692307692307693
 40
0.7692307692307693
 40
0.8461538461538461
 40
0.8461538461538461
 40
0.8461538461538461
 40
0.8461538461538461
 40
1.0
 40
1.0
 40
1.0
 40
1.0
 10
180.7601
 20
-87.6946
 30
0.0
 10
179.9857
 20
-86.9363
 30
0.0
 10
178.7757
 20
-86.178
 30
0.0
 10
177.4204
 20
-85.7586
 30
0.0
 10
177.4204
 20
-85.7586
 30
0.0
 10
179.8082
 20
-83.9678
 30
0.0
 10
185.6808
 20
-82.9513
 30
0.0
 10
189.5207
 20
-86.5814
 30
0.0
 10
189.5207
 20
-86.5814
 30
0.0
 10
187.3104
 20
-91.0666
 30
0.0
 10
188.5849
 20
-95.4065
 30
0.0
 10
192.57
 20
-94.374
 30
0.0
 10
192.57
 20
-94.374
 30
0.0
 10
192.7152
 20
-97.1006
 30
0.0
 10
191.9407
 20
-100.5532
 30
0.0
 10
190.2951
 20
-103.425
 30
0.0
 10
190.2951
 20
-103.425
 30
0.0
 10
189.7627
 20
-103.5379
 30
0.0
 10
189.1335
 20
-104.0864
 30
0.0
 10
188.8431
 20
-105.2158
 30
0.0
 10
188.8431
 20
-105.2158
 30
0.0
 10
188.8592
 20
-103.4815
 30
0.0
 10
190.6866
 20
-101.5534
 30
0.0
 10
190.5431
 20
-99.7102
 30
0.0
 10
190.5431
 20
-99.7102
 30
0.0
 10
190.3959
 20
-97.8185
 30
0.0
 10
189.432
 20
-96.3019
 30
0.0
 10
187.9235
 20
-95.6808
 30
0.0
 10
187.9235
 20
-95.6808
 30
0.0
 10
189.6981
 20
-94.5192
 30
0.0
 10
188.714
 20
-91.6151
 30
0.0
 10
187.0522
 20
-91.6151
 30
0.0
 10
187.0522
 20
-91.6151
 30
0.0
 10
186.9554
 20
-93.6964
 30
0.0
 10
184.971
 20
-93.2124
 30
0.0
 10
183.9546
 20
-93.2608
 30
0.0
 10
183.9546
 20
-93.2608
 30
0.0
 10
183.7448
 20
-92.3573
 30
0.0
 10
183.5351
 20
-91.6958
 30
0.0
 10
183.0834
 20
-90.7923
 30
0.0
 10
183.0834
 20
-90.7923
 30
0.0
 10
185.2009
 20
-90.8679
 30
0.0
 10
185.1866
 20
-88.9107
 30
0.0
 10
184.499
 20
-87.6795
 30
0.0
 10
184.499
 20
-87.6795
 30
0.0
 10
183.7436
 20
-86.3267
 30
0.0
 10
181.1674
 20
-85.7535
 30
0.0
 10
180.7601
 20
-87.6946
 30
0.0
  0
SPLINE
  5
FB
330
1F
100
AcDbEntity
  8
layer 1
 62
   250
100
AcDbSpline
210
0.0
220
0.0
230
1.0
 70
    11
 71
     3
 72
    20
 73
    16
 74
     0
 42
0.0000000001
 43
0.0000000001
 12
1.0
 22
0.0
 32
0.0
 13
1.0
 23
0.0
 33
0.0
 40
0.0
 40
0.0
 40
0.0
 40
0.0
 40
0.2
 40
0.2
 40
0.2
 40
0.2
 40
0.4
 40
0.4
 40
0.4
 40
0.4
 40
0.6
 40
0.6
 40
0.6
 40
0.6
 40
1.0
 40
1.0
 40
1.0
 40
1.0
 10
178.8725
 20
-98.3429
 30
0.0
 10
174.5164
 20
-98.843
 30
0.0
 10
173.3547
 20
-94.6482
 30
0.0
 10
174.226
 20
-91.1795
 30
0.0
 10
174.226
 20
-91.1795
 30
0.0
 10
177.0816
 20
-92.4864
 30
0.0
 10
178.3401
 20
-90.3083
 30
0.0
 10
177.8076
 20
-88.5659
 30
0.0
 10
177.8076
 20
-88.5659
 30
0.0
 10
179.6952
 20
-89.0983
 30
0.0
 10
180.7601
 20
-90.7439
 30
0.0
 10
181.3409
 20
-92.7768
 30
0.0
 10
181.3409
 20
-92.7768
 30
0.0
 10
179.1629
 20
-92.6638
 30
0.0
 10
176.5492
 20
-95.6001
 30
0.0
 10
178.8725
 20
-98.3429
 30
0.0
  0
SPLINE
  5
FC
330
1F
100
AcDbEntity
  8
layer 1
 62
   250
100
AcDbSpline
210
0.0
220
0.0
230
1.0
 70
    11
 71
     3
 72
    52
 73
    48
 74
     0
 42
0.0000000001
 43
0.0000000001
 12
1.0
 22
0.0
 32
0.0
 13
1.0
 23
0.0
 33
0.0
 40
0.0
 40
0.0
 40
0.0
 40
0.0
 40
0.0769230769230769
 40
0.0769230769230769
 40
0.0769230769230769
 40
0.0769230769230769
 40
0.1538461538461539
 40
0.1538461538461539
 40
0.1538461538461539
 40
0.1538461538461539
 40
0.2307692307692308
 40
0.2307692307692308
 40
0.2307692307692308
 40
0.2307692307692308
 40
0.3076923076923077
 40
0.3076923076923077
 40
0.3076923076923077
 40
0.3076923076923077
 40
0.3846153846153846
 40
0.3846153846153846
 40
0.3846153846153846
 40
0.3846153846153846
 40
0.4615384615384616
 40
0.4615384615384616
 40
0.4615384615384616
 40
0.4615384615384616
 40
0.5384615384615384
 40
0.5384615384615384
 40
0.5384615384615384
 40
0.5384615384615384
 40
0.6153846153846154
 40
0.6153846153846154
 40
0.6153846153846154
 40
0.6153846153846154
 40
0.6923076923076923
 40
0.6923076923076923
 40
0.6923076923076923
 40
0.6923076923076923
 40
0.7692307692307693
 40
0.7692307692307693
 40
0.7692307692307693
 40
0.7692307692307693
 40
0.8461538461538461
 40
0.8461538461538461
 40
0.8461538461538461
 40
0.8461538461538461
 40
1.0
 40
1.0
 40
1.0
 40
1.0
 10
98.2811
 20
-87.7915
 30
0.0
 10
99.0556
 20
-87.0332
 30
0.0
 10
99.9268
 20
-86.4685
 30
0.0
 10
101.282
 20
-86.049
 30
0.0
 10
101.282
 20
-86.049
 30
0.0
 10
98.8942
 20
-84.2582
 30
0.0
 10
92.7312
 20
-82.8061
 30
0.0
 10
88.8913
 20
-86.4362
 30
0.0
 10
88.8913
 20
-86.4362
 30
0.0
 10
91.1017
 20
-90.9214
 30
0.0
 10
89.8271
 20
-95.3097
 30
0.0
 10
85.8421
 20
-94.2772
 30
0.0
 10
85.8421
 20
-94.2772
 30
0.0
 10
85.6969
 20
-97.0038
 30
0.0
 10
86.4713
 20
-100.408
 30
0.0
 10
88.1169
 20
-103.2798
 30
0.0
 10
88.1169
 20
-103.2798
 30
0.0
 10
88.6977
 20
-103.2959
 30
0.0
 10
89.4237
 20
-103.6992
 30
0.0
 10
89.7141
 20
-105.0222
 30
0.0
 10
89.7141
 20
-105.0222
 30
0.0
 10
90.2788
 20
-103.5783
 30
0.0
 10
87.9191
 20
-102.1341
 30
0.0
 10
88.1593
 20
-99.565
 30
0.0
 10
88.1593
 20
-99.565
 30
0.0
 10
88.3359
 20
-97.676
 30
0.0
 10
88.9801
 20
-96.2535
 30
0.0
 10
90.4886
 20
-95.6324
 30
0.0
 10
90.4886
 20
-95.6324
 30
0.0
 10
89.1011
 20
-93.9384
 30
0.0
 10
90.1336
 20
-91.6151
 30
0.0
 10
91.7954
 20
-91.6151
 30
0.0
 10
91.7954
 20
-91.6151
 30
0.0
 10
91.8922
 20
-93.6964
 30
0.0
 10
94.1186
 20
-93.0188
 30
0.0
 10
95.1351
 20
-93.0672
 30
0.0
 10
95.1351
 20
-93.0672
 30
0.0
 10
95.3448
 20
-92.1637
 30
0.0
 10
95.5546
 20
-91.6474
 30
0.0
 10
96.0063
 20
-90.7439
 30
0.0
 10
96.0063
 20
-90.7439
 30
0.0
 10
93.8887
 20
-90.8195
 30
0.0
 10
93.9999
 20
-88.9589
 30
0.0
 10
94.6874
 20
-87.7279
 30
0.0
 10
94.6874
 20
-87.7279
 30
0.0
 10
95.4428
 20
-86.3752
 30
0.0
 10
97.8738
 20
-85.8503
 30
0.0
 10
98.2811
 20
-87.7915
 30
0.0
  0
SPLINE
  5
FD
330
1F
100
AcDbEntity
  8
layer 1
 62
   250
100
AcDbSpline
210
0.0
220
0.0
230
1.0
 70
    11
 71
     3
 72
    20
 73
    16
 74
     0
 42
0.0000000001
 43
0.0000000001
 12
1.0
 22
0.0
 32
0.0
 13
1.0
 23
0.0
 33
0.0
 40
0.0
 40
0.0
 40
0.0
 40
0.0
 40
0.2
 40
0.2
 40
0.2
 40
0.2
 40
0.4
 40
0.4
 40
0.4
 40
0.4
 40
0.6
 40
0.6
 40
0.6
 40
0.6
 40
1.0
 40
1.0
 40
1.0
 40
1.0
 10
100.072
 20
-98.1493
 30
0.0
 10
104.4281
 20
-98.6494
 30
0.0
 10
105.5897
 20
-94.7934
 30
0.0
 10
104.7185
 20
-91.3247
 30
0.0
 10
104.7185
 20
-91.3247
 30
0.0
 10
102.3952
 20
-92.1959
 30
0.0
 10
100.6528
 20
-90.5503
 30
0.0
 10
101.3788
 20
-88.5659
 30
0.0
 10
101.3788
 20
-88.5659
 30
0.0
 10
99.4912
 20
-89.0983
 30
0.0
 10
98.2811
 20
-91.1311
 30
0.0
 10
97.7003
 20
-93.164
 30
0.0
 10
97.7003
 20
-93.164
 30
0.0
 10
99.8784
 20
-93.051
 30
0.0
 10
101.8144
 20
-95.6969
 30
0.0
 10
100.072
 20
-98.1493
 30
0.0
  0
SPLINE
  5
FE
330
1F
100
AcDbEntity
  8
layer 1
 62
   250
100
AcDbSpline
210
0.0
220
0.0
230
1.0
 70
    11
 71
     3
 72
    16
 73
    12
 74
     0
 42
0.0000000001
 43
0.0000000001
 12
1.0
 22
0.0
 32
0.0
 13
1.0
 23
0.0
 33
0.0
 40
0.0
 40
0.0
 40
0.0
 40
0.0
 40
0.25
 40
0.25
 40
0.25
 40
0.25
 40
0.5
 40
0.5
 40
0.5
 40
0.5
 40
1.0
 40
1.0
 40
1.0
 40
1.0
 10
193.7603
 20
-101.1985
 30
0.0
 10
193.7603
 20
-101.1985
 30
0.0
 10
193.7603
 20
-104.903
 30
0.0
 10
193.7603
 20
-104.903
 30
0.0
 10
193.7603
 20
-104.903
 30
0.0
 10
193.5794
 20
-104.3682
 30
0.0
 10
193.205
 20
-103.9822
 30
0.0
 10
192.8306
 20
-103.7749
 30
0.0
 10
192.8306
 20
-103.7749
 30
0.0
 10
193.205
 20
-103.0402
 30
0.0
 10
193.5646
 20
-102.0673
 30
0.0
 10
193.7603
 20
-101.1985
 30
0.0
  0
SPLINE
  5
FF
330
1F
100
AcDbEntity
  8
layer 1
 62
   250
100
AcDbSpline
210
0.0
220
0.0
230
1.0
 70
    11
 71
     3
 72
    16
 73
    12
 74
     0
 42
0.0000000001
 43
0.0000000001
 12
1.0
 22
0.0
 32
0.0
 13
1.0
 23
0.0
 33
0.0
 40
0.0
 40
0.0
 40
0.0
 40
0.0
 40
0.25
 40
0.25
 40
0.25
 40
0.25
 40
0.5
 40
0.5
 40
0.5
 40
0.5
 40
1.0
 40
1.0
 40
1.0
 40
1.0
 10
84.8599
 20
-102.2128
 30
0.0
 10
84.8599
 20
-102.2128
 30
0.0
 10
84.8599
 20
-105.5891
 30
0.0
 10
84.8599
 20
-105.5891
 30
0.0
 10
84.8599
 20
-105.5891
 30
0.0
 10
85.1302
 20
-104.8753
 30
0.0
 10
85.4152
 20
-104.2805
 30
0.0
 10
85.7001
 20
-104.0434
 30
0.0
 10
85.7001
 20
-104.0434
 30
0.0
 10
85.3555
 20
-103.5473
 30
0.0
 10
85.0855
 20
-102.8727
 30
0.0
 10
84.8599
 20
-102.2128
 30
0.0
  0
SPLINE
  5
100
330
1F
100
AcDbEntity
  8
layer 1
 62
   250
100
AcDbSpline
210
0.0
220
0.0
230
1.0
 70
    11
 71
     3
 72
    16
 73
    12
 74
     0
 42
0.0000000001
 43
0.0000000001
 12
1.0
 22
0.0
 32
0.0
 13
1.0
 23
0.0
 33
0.0
 40
0.0
 40
0.0
 40
0.0
 40
0.0
 40
0.25
 40
0.25
 40
0.25
 40
0.25
 40
0.5
 40
0.5
 40
0.5
 40
0.5
 40
1.0
 40
1.0
 40
1.0
 40
1.0
 10
175.2555
 20
-111.1533
 30
0.0
 10
175.2555
 20
-111.1533
 30
0.0
 10
165.839
 20
-111.1252
 30
0.0
 10
165.839
 20
-111.1252
 30
0.0
 10
165.839
 20
-111.1252
 30
0.0
 10
168.6019
 20
-110.665
 30
0.0
 10
171.8258
 20
-109.8743
 30
0.0
 10
174.4317
 20
-108.8445
 30
0.0
 10
174.4317
 20
-108.8445
 30
0.0
 10
174.2797
 20
-109.7003
 30
0.0
 10
174.6445
 20
-110.6042
 30
0.0
 10
175.2555
 20
-111.1533
 30
0.0
  0
SPLINE
  5
101
330
1F
100
AcDbEntity
  8
layer 1
 62
   250
100
AcDbSpline
210
0.0
220
0.0
230
1.0
 70
    11
 71
     3
 72
    24
 73
    20
 74
     0
 42
0.0000000001
 43
0.0000000001
 12
1.0
 22
0.0
 32
0.0
 13
1.0
 23
0.0
 33
0.0
 40
0.0
 40
0.0
 40
0.0
 40
0.0
 40
0.1666666666666667
 40
0.1666666666666667
 40
0.1666666666666667
 40
0.1666666666666667
 40
0.3333333333333333
 40
0.3333333333333333
 40
0.3333333333333333
 40
0.3333333333333333
 40
0.5
 40
0.5
 40
0.5
 40
0.5
 40
0.6666666666666666
 40
0.6666666666666666
 40
0.6666666666666666
 40
0.6666666666666666
 40
1.0
 40
1.0
 40
1.0
 40
1.0
 10
193.7603
 20
-111.1533
 30
0.0
 10
193.7603
 20
-111.1533
 30
0.0
 10
180.2378
 20
-111.1252
 30
0.0
 10
180.2378
 20
-111.1252
 30
0.0
 10
180.2378
 20
-111.1252
 30
0.0
 10
180.6074
 20
-110.7915
 30
0.0
 10
180.8742
 20
-110.4394
 30
0.0
 10
181.0066
 20
-109.9244
 30
0.0
 10
181.0066
 20
-109.9244
 30
0.0
 10
183.5771
 20
-109.8082
 30
0.0
 10
186.5413
 20
-109.0732
 30
0.0
 10
187.9869
 20
-108.2539
 30
0.0
 10
187.9869
 20
-108.2539
 30
0.0
 10
190.1738
 20
-110.3634
 30
0.0
 10
193.5138
 20
-109.5199
 30
0.0
 10
193.7603
 20
-106.9892
 30
0.0
 10
193.7603
 20
-106.9892
 30
0.0
 10
193.7603
 20
-106.9892
 30
0.0
 10
193.7603
 20
-111.1533
 30
0.0
 10
193.7603
 20
-111.1533
 30
0.0
  0
SPLINE
  5
102
330
1F
100
AcDbEntity
  8
layer 1
 62
   250
100
AcDbSpline
210
0.0
220
0.0
230
1.0
 70
    11
 71
     3
 72
    16
 73
    12
 74
     0
 42
0.0000000001
 43
0.0000000001
 12
1.0
 22
0.0
 32
0.0
 13
1.0
 23
0.0
 33
0.0
 40
0.0
 40
0.0
 40
0.0
 40
0.0
 40
0.25
 40
0.25
 40
0.25
 40
0.25
 40
0.5
 40
0.5
 40
0.5
 40
0.5
 40
1.0
 40
1.0
 40
1.0
 40
1.0
 10
102.8558
 20
-111.1533
 30
0.0
 10
102.8558
 20
-111.1533
 30
0.0
 10
112.6858
 20
-111.1252
 30
0.0
 10
112.6858
 20
-111.1252
 30
0.0
 10
112.6858
 20
-111.1252
 30
0.0
 10
109.4458
 20
-110.665
 30
0.0
 10
106.1901
 20
-109.8743
 30
0.0
 10
103.5842
 20
-108.8445
 30
0.0
 10
103.5842
 20
-108.8445
 30
0.0
 10
103.7362
 20
-109.7003
 30
0.0
 10
103.4668
 20
-110.6042
 30
0.0
 10
102.8558
 20
-111.1533
 30
0.0
  0
SPLINE
  5
103
330
1F
100
AcDbEntity
  8
layer 1
 62
   250
100
AcDbSpline
210
0.0
220
0.0
230
1.0
 70
    11
 71
     3
 72
    24
 73
    20
 74
     0
 42
0.0000000001
 43
0.0000000001
 12
1.0
 22
0.0
 32
0.0
 13
1.0
 23
0.0
 33
0.0
 40
0.0
 40
0.0
 40
0.0
 40
0.0
 40
0.1666666666666667
 40
0.1666666666666667
 40
0.1666666666666667
 40
0.1666666666666667
 40
0.3333333333333333
 40
0.3333333333333333
 40
0.3333333333333333
 40
0.3333333333333333
 40
0.5
 40
0.5
 40
0.5
 40
0.5
 40
0.6666666666666666
 40
0.6666666666666666
 40
0.6666666666666666
 40
0.6666666666666666
 40
1.0
 40
1.0
 40
1.0
 40
1.0
 10
84.8599
 20
-111.1533
 30
0.0
 10
84.8599
 20
-111.1533
 30
0.0
 10
98.0961
 20
-111.1252
 30
0.0
 10
98.0961
 20
-111.1252
 30
0.0
 10
98.0961
 20
-111.1252
 30
0.0
 10
97.7265
 20
-110.7915
 30
0.0
 10
97.3325
 20
-110.3758
 30
0.0
 10
97.2001
 20
-109.8608
 30
0.0
 10
97.2001
 20
-109.8608
 30
0.0
 10
94.6297
 20
-109.7446
 30
0.0
 10
92.0471
 20
-109.1687
 30
0.0
 10
90.6015
 20
-108.3493
 30
0.0
 10
90.6015
 20
-108.3493
 30
0.0
 10
88.4146
 20
-110.3316
 30
0.0
 10
85.1461
 20
-109.7426
 30
0.0
 10
84.8599
 20
-106.4167
 30
0.0
 10
84.8599
 20
-106.4167
 30
0.0
 10
84.8599
 20
-106.4167
 30
0.0
 10
84.8599
 20
-111.1533
 30
0.0
 10
84.8599
 20
-111.1533
 30
0.0
  0
SPLINE
  5
104
330
1F
100
AcDbEntity
  8
layer 1
 62
   250
100
AcDbSpline
210
0.0
220
0.0
230
1.0
 70
    11
 71
     3
 72
    16
 73
    12
 74
     0
 42
0.0000000001
 43
0.0000000001
 12
1.0
 22
0.0
 32
0.0
 13
1.0
 23
0.0
 33
0.0
 40
0.0
 40
0.0
 40
0.0
 40
0.0
 40
0.25
 40
0.25
 40
0.25
 40
0.25
 40
0.5
 40
0.5
 40
0.5
 40
0.5
 40
1.0
 40
1.0
 40
1.0
 40
1.0
 10
154.622
 20
-111.1533
 30
0.0
 10
154.622
 20
-111.1533
 30
0.0
 10
146.1493
 20
-111.1161
 30
0.0
 10
146.1493
 20
-111.1161
 30
0.0
 10
146.1493
 20
-111.1161
 30
0.0
 10
147.1728
 20
-110.6866
 30
0.0
 10
147.8518
 20
-109.832
 30
0.0
 10
148.2547
 20
-108.9992
 30
0.0
 10
148.2547
 20
-108.9992
 30
0.0
 10
150.0782
 20
-109.8847
 30
0.0
 10
152.0988
 20
-110.713
 30
0.0
 10
154.622
 20
-111.1533
 30
0.0
  0
SPLINE
  5
105
330
1F
100
AcDbEntity
  8
layer 1
 62
   250
100
AcDbSpline
210
0.0
220
0.0
230
1.0
 70
    11
 71
     3
 72
    16
 73
    12
 74
     0
 42
0.0000000001
 43
0.0000000001
 12
1.0
 22
0.0
 32
0.0
 13
1.0
 23
0.0
 33
0.0
 40
0.0
 40
0.0
 40
0.0
 40
0.0
 40
0.25
 40
0.25
 40
0.25
 40
0.25
 40
0.5
 40
0.5
 40
0.5
 40
0.5
 40
1.0
 40
1.0
 40
1.0
 40
1.0
 10
136.0502
 20
-111.1533
 30
0.0
 10
136.0502
 20
-111.1533
 30
0.0
 10
141.7665
 20
-111.1533
 30
0.0
 10
141.7665
 20
-111.1533
 30
0.0
 10
141.7665
 20
-111.1533
 30
0.0
 10
140.5196
 20
-110.6494
 30
0.0
 10
139.4308
 20
-109.8693
 30
0.0
 10
139.1024
 20
-108.8502
 30
0.0
 10
139.1024
 20
-108.8502
 30
0.0
 10
138.6571
 20
-109.8847
 30
0.0
 10
137.6794
 20
-110.7875
 30
0.0
 10
136.0502
 20
-111.1533
 30
0.0
  0
SPLINE
  5
106
330
1F
100
AcDbEntity
  8
layer 1
 62
   250
100
AcDbSpline
210
0.0
220
0.0
230
1.0
 70
    11
 71
     3
 72
    16
 73
    12
 74
     0
 42
0.0000000001
 43
0.0000000001
 12
1.0
 22
0.0
 32
0.0
 13
1.0
 23
0.0
 33
0.0
 40
0.0
 40
0.0
 40
0.0
 40
0.0
 40
0.25
 40
0.25
 40
0.25
 40
0.25
 40
0.5
 40
0.5
 40
0.5
 40
0.5
 40
1.0
 40
1.0
 40
1.0
 40
1.0
 10
123.1753
 20
-111.1533
 30
0.0
 10
123.1753
 20
-111.1533
 30
0.0
 10
132.2812
 20
-111.1533
 30
0.0
 10
132.2812
 20
-111.1533
 30
0.0
 10
132.2812
 20
-111.1533
 30
0.0
 10
131.3322
 20
-110.7611
 30
0.0
 10
130.2062
 20
-109.8693
 30
0.0
 10
129.8033
 20
-109.1109
 30
0.0
 10
129.8033
 20
-109.1109
 30
0.0
 10
128.0171
 20
-110.071
 30
0.0
 10
125.6985
 20
-110.713
 30
0.0
 10
123.1753
 20
-111.1533
 30
0.0
  0
SPLINE
  5
107
330
1F
100
AcDbEntity
  8
layer 1
 62
   250
100
AcDbSpline
210
0.0
220
0.0
230
1.0
 70
    11
 71
     3
 72
    24
 73
    20
 74
     0
 42
0.0000000001
 43
0.0000000001
 12
1.0
 22
0.0
 32
0.0
 13
1.0
 23
0.0
 33
0.0
 40
0.0
 40
0.0
 40
0.0
 40
0.0
 40
0.1666666666666667
 40
0.1666666666666667
 40
0.1666666666666667
 40
0.1666666666666667
 40
0.3333333333333333
 40
0.3333333333333333
 40
0.3333333333333333
 40
0.3333333333333333
 40
0.5
 40
0.5
 40
0.5
 40
0.5
 40
0.6666666666666666
 40
0.6666666666666666
 40
0.6666666666666666
 40
0.6666666666666666
 40
1.0
 40
1.0
 40
1.0
 40
1.0
 10
169.4781
 20
3.3994
 30
0.0
 10
162.6227
 20
3.4915
 30
0.0
 10
156.5414
 20
5.6845
 30
0.0
 10
153.943
 20
9.536
 30
0.0
 10
153.943
 20
9.536
 30
0.0
 10
156.0622
 20
10.2731
 30
0.0
 10
159.2319
 20
10.7338
 30
0.0
 10
161.6276
 20
10.1442
 30
0.0
 10
161.6276
 20
10.1442
 30
0.0
 10
161.2774
 20
5.7398
 30
0.0
 10
167.0087
 20
5.2607
 30
0.0
 10
168.2065
 20
7.988
 30
0.0
 10
168.2065
 20
7.988
 30
0.0
 10
169.3675
 20
7.3799
 30
0.0
 10
170.5285
 20
6.7165
 30
0.0
 10
171.5236
 20
5.6108
 30
0.0
 10
171.5236
 20
5.6108
 30
0.0
 10
171.026
 20
4.8184
 30
0.0
 10
170.3073
 20
4.0813
 30
0.0
 10
169.4781
 20
3.3994
 30
0.0
  0
SPLINE
  5
108
330
1F
100
AcDbEntity
  8
layer 1
 62
   250
100
AcDbSpline
210
0.0
220
0.0
230
1.0
 70
    11
 71
     3
 72
    24
 73
    20
 74
     0
 42
0.0000000001
 43
0.0000000001
 12
1.0
 22
0.0
 32
0.0
 13
1.0
 23
0.0
 33
0.0
 40
0.0
 40
0.0
 40
0.0
 40
0.0
 40
0.1666666666666667
 40
0.1666666666666667
 40
0.1666666666666667
 40
0.1666666666666667
 40
0.3333333333333333
 40
0.3333333333333333
 40
0.3333333333333333
 40
0.3333333333333333
 40
0.5
 40
0.5
 40
0.5
 40
0.5
 40
0.6666666666666666
 40
0.6666666666666666
 40
0.6666666666666666
 40
0.6666666666666666
 40
1.0
 40
1.0
 40
1.0
 40
1.0
 10
108.941
 20
3.4547
 30
0.0
 10
115.7963
 20
3.5468
 30
0.0
 10
121.7671
 20
5.6293
 30
0.0
 10
124.3655
 20
9.4807
 30
0.0
 10
124.3655
 20
9.4807
 30
0.0
 10
122.3016
 20
10.1073
 30
0.0
 10
119.4083
 20
10.6785
 30
0.0
 10
116.9573
 20
10.1994
 30
0.0
 10
116.9573
 20
10.1994
 30
0.0
 10
117.4181
 20
5.6845
 30
0.0
 10
111.2998
 20
5.2054
 30
0.0
 10
110.102
 20
7.9328
 30
0.0
 10
110.102
 20
7.9328
 30
0.0
 10
108.941
 20
7.3246
 30
0.0
 10
107.9459
 20
6.8271
 30
0.0
 10
106.9507
 20
5.7214
 30
0.0
 10
106.9507
 20
5.7214
 30
0.0
 10
107.4483
 20
4.929
 30
0.0
 10
108.1117
 20
4.1366
 30
0.0
 10
108.941
 20
3.4547
 30
0.0
  0
ENDSEC
  0
SECTION
  2
OBJECTS
  0
DICTIONARY
  5
C
330
0
100
AcDbDictionary
281
     1
  3
ACAD_GROUP
350
D
  3
ACAD_LAYOUT
350
1A
  3
ACAD_MATERIAL
350
3B
  3
ACAD_MLEADERSTYLE
350
12A
  3
ACAD_MLINESTYLE
350
17
  3
ACAD_PLOTSETTINGS
350
19
  3
ACAD_PLOTSTYLENAME
350
E
  3
ACAD_TABLESTYLE
350
129
  3
ACAD_VISUALSTYLE
350
2A
  0
DICTIONARY
  5
D
102
{ACAD_REACTORS
330
C
102
}
330
C
100
AcDbDictionary
281
     1
  0
DICTIONARY
  5
1A
102
{ACAD_REACTORS
330
C
102
}
330
C
100
AcDbDictionary
281
     1
  3
Layout1
350
1E
  3
Layout2
350
26
  3
Model
350
22
  0
DICTIONARY
  5
3B
102
{ACAD_REACTORS
330
C
102
}
330
C
100
AcDbDictionary
281
     1
  3
ByBlock
350
3D
  3
ByLayer
350
3C
  3
Global
350
3E
  0
DICTIONARY
  5
12A
102
{ACAD_REACTORS
330
C
102
}
330
C
100
AcDbDictionary
281
     1
  0
DICTIONARY
  5
17
102
{ACAD_REACTORS
330
C
102
}
330
C
100
AcDbDictionary
281
     1
  3
Standard
350
18
  0
DICTIONARY
  5
19
102
{ACAD_REACTORS
330
C
102
}
330
C
100
AcDbDictionary
281
     1
  0
ACDBDICTIONARYWDFLT
  5
E
102
{ACAD_REACTORS
330
C
102
}
330
C
100
AcDbDictionary
281
     1
  3
Normal
350
F
100
AcDbDictionaryWithDefault
340
F
  0
DICTIONARY
  5
129
102
{ACAD_REACTORS
330
C
102
}
330
C
100
AcDbDictionary
281
     1
  0
DICTIONARY
  5
2A
102
{ACAD_REACTORS
330
C
102
}
330
C
100
AcDbDictionary
281
     1
  3
2dWireframe
350
2F
  3
3D Hidden
350
31
  3
3dWireframe
350
30
  3
Basic
350
32
  3
Brighten
350
36
  3
ColorChange
350
3A
  3
Conceptual
350
34
  3
Dim
350
35
  3
Facepattern
350
39
  3
Flat
350
2B
  3
FlatWithEdges
350
2C
  3
Gouraud
350
2D
  3
GouraudWithEdges
350
2E
  3
Linepattern
350
38
  3
Realistic
350
33
  3
Thicken
350
37
  0
LAYOUT
  5
1E
102
{ACAD_REACTORS
330
1A
102
}
330
1A
100
AcDbPlotSettings
  1

  2
none_device
  4

  6

 40
0.0
 41
0.0
 42
0.0
 43
0.0
 44
0.0
 45
0.0
 46
0.0
 47
0.0
 48
0.0
 49
0.0
140
0.0
141
0.0
142
1.0
143
1.0
 70
   688
 72
     0
 73
     0
 74
     5
  7

 75
    16
 76
     0
 77
     2
 78
   300
147
1.0
148
0.0
149
0.0
100
AcDbLayout
  1
Layout1
 70
     1
 71
     1
 10
0.0
 20
0.0
 11
12.0
 21
9.0
 12
0.0
 22
0.0
 32
0.0
 14
1.000000000000000E+20
 24
1.000000000000000E+20
 34
1.000000000000000E+20
 15
-1.000000000000000E+20
 25
-1.000000000000000E+20
 35
-1.000000000000000E+20
146
0.0
 13
0.0
 23
0.0
 33
0.0
 16
1.0
 26
0.0
 36
0.0
 17
0.0
 27
1.0
 37
0.0
 76
     0
330
1B
  0
LAYOUT
  5
26
102
{ACAD_REACTORS
330
1A
102
}
330
1A
100
AcDbPlotSettings
  1

  2
none_device
  4

  6

 40
0.0
 41
0.0
 42
0.0
 43
0.0
 44
0.0
 45
0.0
 46
0.0
 47
0.0
 48
0.0
 49
0.0
140
0.0
141
0.0
142
1.0
143
1.0
 70
   688
 72
     0
 73
     0
 74
     5
  7

 75
    16
 76
     0
 77
     2
 78
   300
147
1.0
148
0.0
149
0.0
100
AcDbLayout
  1
Layout2
 70
     1
 71
     2
 10
0.0
 20
0.0
 11
0.0
 21
0.0
 12
0.0
 22
0.0
 32
0.0
 14
0.0
 24
0.0
 34
0.0
 15
0.0
 25
0.0
 35
0.0
146
0.0
 13
0.0
 23
0.0
 33
0.0
 16
1.0
 26
0.0
 36
0.0
 17
0.0
 27
1.0
 37
0.0
 76
     0
330
23
  0
LAYOUT
  5
22
102
{ACAD_REACTORS
330
1A
102
}
330
1A
100
AcDbPlotSettings
  1

  2
none_device
  4

  6

 40
0.0
 41
0.0
 42
0.0
 43
0.0
 44
0.0
 45
0.0
 46
0.0
 47
0.0
 48
0.0
 49
0.0
140
0.0
141
0.0
142
1.0
143
1.0
 70
  1712
 72
     0
 73
     0
 74
     0
  7

 75
     0
 76
     0
 77
     2
 78
   300
147
1.0
148
0.0
149
0.0
100
AcDbLayout
  1
Model
 70
     1
 71
     0
 10
0.0
 20
0.0
 11
12.0
 21
9.0
 12
0.0
 22
0.0
 32
0.0
 14
81.657
 24
-114.9874
 34
0.0
 15
196.3072
 25
133.9758
 35
0.0
146
0.0
 13
0.0
 23
0.0
 33
0.0
 16
1.0
 26
0.0
 36
0.0
 17
0.0
 27
1.0
 37
0.0
 76
     0
330
1F
331
29
  0
MATERIAL
  5
3D
102
{ACAD_REACTORS
330
3B
102
}
330
3B
100
AcDbMaterial
  1
ByBlock
 72
     1
 94
      127
  0
MATERIAL
  5
3C
102
{ACAD_REACTORS
330
3B
102
}
330
3B
100
AcDbMaterial
  1
ByLayer
 72
     1
 94
      127
  0
MATERIAL
  5
3E
102
{ACAD_REACTORS
330
3B
102
}
330
3B
100
AcDbMaterial
  1
Global
 72
     1
 94
      127
  0
MLINESTYLE
  5
18
102
{ACAD_REACTORS
330
17
102
}
330
17
100
AcDbMlineStyle
  2
Standard
 70
     0
  3

 62
   256
 51
90.0
 52
90.0
 71
     2
 49
0.5
 62
   256
  6
BYLAYER
 49
-0.5
 62
   256
  6
BYLAYER
  0
ACDBPLACEHOLDER
  5
F
102
{ACAD_REACTORS
330
E
102
}
330
E
  0
VISUALSTYLE
  5
2F
102
{ACAD_REACTORS
330
2A
102
}
102
{ACAD_XDICTIONARY
360
111
102
}
330
2A
100
AcDbVisualStyle
  2
2dWireframe
 70
     4
 71
     0
 72
     2
 73
     0
 90
        0
 40
-0.6
 41
-30.0
 62
     5
 63
     7
421
 16777215
 74
     1
 91
        4
 64
     7
 65
   257
 75
     1
175
     1
 42
1.0
 92
        0
 66
   257
 43
1.0
 76
     1
 77
     6
 78
     2
 67
     7
 79
     5
170
     0
171
     0
290
     0
174
     0
 93
        1
 44
0.0
173
     0
291
     0
 45
0.0
  0
VISUALSTYLE
  5
31
102
{ACAD_REACTORS
330
2A
102
}
102
{ACAD_XDICTIONARY
360
115
102
}
330
2A
100
AcDbVisualStyle
  2
3D Hidden
 70
     6
 71
     1
 72
     2
 73
     2
 90
        0
 40
-0.6
 41
-30.0
 62
     5
 63
     7
421
 16777215
 74
     2
 91
        2
 64
     7
 65
   257
 75
     2
175
     1
 42
40.0
 92
        0
 66
   257
 43
1.0
 76
     1
 77
     6
 78
     2
 67
     7
 79
     3
170
     0
171
     0
290
     0
174
     0
 93
        1
 44
0.0
173
     0
291
     0
 45
0.0
  0
VISUALSTYLE
  5
30
102
{ACAD_REACTORS
330
2A
102
}
102
{ACAD_XDICTIONARY
360
113
102
}
330
2A
100
AcDbVisualStyle
  2
3dWireframe
 70
     5
 71
     0
 72
     2
 73
     0
 90
        0
 40
-0.6
 41
-30.0
 62
     5
 63
     7
421
 16777215
 74
     1
 91
        4
 64
     7
 65
   257
 75
     1
175
     1
 42
1.0
 92
        0
 66
   257
 43
1.0
 76
     1
 77
     6
 78
     2
 67
     7
 79
     5
170
     0
171
     0
290
     0
174
     0
 93
        1
 44
0.0
173
     0
291
     0
 45
0.0
  0
VISUALSTYLE
  5
32
102
{ACAD_REACTORS
330
2A
102
}
102
{ACAD_XDICTIONARY
360
117
102
}
330
2A
100
AcDbVisualStyle
  2
Basic
 70
     7
 71
     1
 72
     0
 73
     1
 90
        0
 40
-0.6
 41
-30.0
 62
     5
 63
     7
421
 16777215
 74
     0
 91
        4
 64
     7
 65
   257
 75
     1
175
     1
 42
1.0
 92
        8
 66
     7
 43
1.0
 76
     1
 77
     6
 78
     2
 67
     7
 79
     5
170
     0
171
     0
290
     0
174
     0
 93
        1
 44
0.0
173
     0
291
     1
 45
0.0
  0
VISUALSTYLE
  5
36
102
{ACAD_REACTORS
330
2A
102
}
102
{ACAD_XDICTIONARY
360
11F
102
}
330
2A
100
AcDbVisualStyle
  2
Brighten
 70
    12
 71
     2
 72
     2
 73
     0
 90
        0
 40
-0.6
 41
-30.0
 62
     5
 63
     7
421
 16777215
 74
     1
 91
        4
 64
     7
 65
   257
 75
     1
175
     1
 42
1.0
 92
        8
 66
     7
 43
1.0
 76
     1
 77
     6
 78
     2
 67
     7
 79
     5
170
     0
171
     0
290
     0
174
     0
 93
        1
 44
50.0
173
     0
291
     1
 45
0.0
  0
VISUALSTYLE
  5
3A
102
{ACAD_REACTORS
330
2A
102
}
102
{ACAD_XDICTIONARY
360
127
102
}
330
2A
100
AcDbVisualStyle
  2
ColorChange
 70
    16
 71
     2
 72
     2
 73
     3
 90
        0
 40
-0.6
 41
-30.0
 62
     5
 63
     8
421
  8421504
 74
     1
 91
        4
 64
     7
 65
   257
 75
     1
175
     1
 42
1.0
 92
        8
 66
     8
424
  8421504
 43
1.0
 76
     1
 77
     6
 78
     2
 67
     7
 79
     5
170
     0
171
     0
290
     0
174
     0
 93
        1
 44
0.0
173
     0
291
     1
 45
0.0
  0
VISUALSTYLE
  5
34
102
{ACAD_REACTORS
330
2A
102
}
102
{ACAD_XDICTIONARY
360
11B
102
}
330
2A
100
AcDbVisualStyle
  2
Conceptual
 70
     9
 71
     3
 72
     2
 73
     0
 90
        0
 40
-0.6
 41
-30.0
 62
     5
 63
     7
421
 16777215
 74
     2
 91
        2
 64
     7
 65
   257
 75
     1
175
     1
 42
40.0
 92
        8
 66
     7
 43
1.0
 76
     1
 77
     6
 78
     2
 67
     7
 79
     3
170
     0
171
     0
290
     0
174
     0
 93
        1
 44
0.0
173
     0
291
     0
 45
0.0
  0
VISUALSTYLE
  5
35
102
{ACAD_REACTORS
330
2A
102
}
102
{ACAD_XDICTIONARY
360
11D
102
}
330
2A
100
AcDbVisualStyle
  2
Dim
 70
    11
 71
     2
 72
     2
 73
     0
 90
        0
 40
-0.6
 41
-30.0
 62
     5
 63
     7
421
 16777215
 74
     1
 91
        4
 64
     7
 65
   257
 75
     1
175
     1
 42
1.0
 92
        8
 66
     7
 43
1.0
 76
     1
 77
     6
 78
     2
 67
     7
 79
     5
170
     0
171
     0
290
     0
174
     0
 93
        1
 44
-50.0
173
     0
291
     1
 45
0.0
  0
VISUALSTYLE
  5
39
102
{ACAD_REACTORS
330
2A
102
}
102
{ACAD_XDICTIONARY
360
125
102
}
330
2A
100
AcDbVisualStyle
  2
Facepattern
 70
    15
 71
     2
 72
     2
 73
     0
 90
        0
 40
-0.6
 41
-30.0
 62
     5
 63
     7
421
 16777215
 74
     1
 91
        4
 64
     7
 65
   257
 75
     1
175
     1
 42
1.0
 92
        8
 66
     7
 43
1.0
 76
     1
 77
     6
 78
     2
 67
     7
 79
     5
170
     0
171
     0
290
     0
174
     0
 93
        1
 44
0.0
173
     0
291
     1
 45
0.0
  0
VISUALSTYLE
  5
2B
102
{ACAD_REACTORS
330
2A
102
}
102
{ACAD_XDICTIONARY
360
109
102
}
330
2A
100
AcDbVisualStyle
  2
Flat
 70
     0
 71
     2
 72
     1
 73
     1
 90
        2
 40
-0.6
 41
30.0
 62
     5
 63
     7
421
 16777215
 74
     0
 91
        4
 64
     7
 65
   257
 75
     1
175
     1
 42
1.0
 92
        8
 66
     7
 43
1.0
 76
     1
 77
     6
 78
     2
 67
     7
 79
     5
170
     0
171
     0
290
     0
174
     0
 93
       13
 44
0.0
173
     0
291
     1
 45
0.0
  0
VISUALSTYLE
  5
2C
102
{ACAD_REACTORS
330
2A
102
}
102
{ACAD_XDICTIONARY
360
10B
102
}
330
2A
100
AcDbVisualStyle
  2
FlatWithEdges
 70
     1
 71
     2
 72
     1
 73
     1
 90
        2
 40
-0.6
 41
30.0
 62
     5
 63
     7
421
 16777215
 74
     1
 91
        4
 64
     7
 65
   257
 75
     1
175
     1
 42
1.0
 92
        0
 66
   257
 43
1.0
 76
     1
 77
     6
 78
     2
 67
     7
 79
     5
170
     0
171
     0
290
     0
174
     0
 93
       13
 44
0.0
173
     0
291
     1
 45
0.0
  0
VISUALSTYLE
  5
2D
102
{ACAD_REACTORS
330
2A
102
}
102
{ACAD_XDICTIONARY
360
10D
102
}
330
2A
100
AcDbVisualStyle
  2
Gouraud
 70
     2
 71
     2
 72
     2
 73
     1
 90
        2
 40
-0.6
 41
30.0
 62
     5
 63
     7
421
 16777215
 74
     0
 91
        4
 64
     7
 65
   257
 75
     1
175
     1
 42
1.0
 92
        0
 66
     7
 43
1.0
 76
     1
 77
     6
 78
     2
 67
     7
 79
     5
170
     0
171
     0
290
     0
174
     0
 93
       13
 44
0.0
173
     0
291
     1
 45
0.0
  0
VISUALSTYLE
  5
2E
102
{ACAD_REACTORS
330
2A
102
}
102
{ACAD_XDICTIONARY
360
10F
102
}
330
2A
100
AcDbVisualStyle
  2
GouraudWithEdges
 70
     3
 71
     2
 72
     2
 73
     1
 90
        2
 40
-0.6
 41
30.0
 62
     5
 63
     7
421
 16777215
 74
     1
 91
        4
 64
     7
 65
   257
 75
     1
175
     1
 42
1.0
 92
        0
 66
   257
 43
1.0
 76
     1
 77
     6
 78
     2
 67
     7
 79
     5
170
     0
171
     0
290
     0
174
     0
 93
       13
 44
0.0
173
     0
291
     1
 45
0.0
  0
VISUALSTYLE
  5
38
102
{ACAD_REACTORS
330
2A
102
}
102
{ACAD_XDICTIONARY
360
123
102
}
330
2A
100
AcDbVisualStyle
  2
Linepattern
 70
    14
 71
     2
 72
     2
 73
     0
 90
        0
 40
-0.6
 41
-30.0
 62
     5
 63
     7
421
 16777215
 74
     1
 91
        4
 64
     7
 65
   257
 75
     7
175
     7
 42
1.0
 92
        8
 66
     7
 43
1.0
 76
     1
 77
     6
 78
     2
 67
     7
 79
     5
170
     0
171
     0
290
     0
174
     0
 93
        1
 44
0.0
173
     0
291
     1
 45
0.0
  0
VISUALSTYLE
  5
33
102
{ACAD_REACTORS
330
2A
102
}
102
{ACAD_XDICTIONARY
360
119
102
}
330
2A
100
AcDbVisualStyle
  2
Realistic
 70
     8
 71
     2
 72
     2
 73
     0
 90
        0
 40
-0.6
 41
-30.0
 62
     5
 63
     7
421
 16777215
 74
     1
 91
        0
 64
     7
 65
   257
 75
     1
175
     1
 42
1.0
 92
        8
 66
     8
424
  7895160
 43
1.0
 76
     1
 77
     6
 78
     2
 67
     7
 79
     5
170
     0
171
     0
290
     0
174
     0
 93
       13
 44
0.0
173
     0
291
     0
 45
0.0
  0
VISUALSTYLE
  5
37
102
{ACAD_REACTORS
330
2A
102
}
102
{ACAD_XDICTIONARY
360
121
102
}
330
2A
100
AcDbVisualStyle
  2
Thicken
 70
    13
 71
     2
 72
     2
 73
     0
 90
        0
 40
-0.6
 41
-30.0
 62
     5
 63
     7
421
 16777215
 74
     1
 91
        4
 64
     7
 65
   257
 75
     1
175
     1
 42
1.0
 92
       12
 66
     7
 43
1.0
 76
     1
 77
     6
 78
     2
 67
     7
 79
     5
170
     0
171
     0
290
     0
174
     0
 93
        1
 44
0.0
173
     0
291
     1
 45
0.0
  0
DICTIONARY
  5
111
330
2F
100
AcDbDictionary
280
     1
281
     1
  3
ACAD_XREC_ROUNDTRIP
360
112
  0
DICTIONARY
  5
115
330
31
100
AcDbDictionary
280
     1
281
     1
  3
ACAD_XREC_ROUNDTRIP
360
116
  0
DICTIONARY
  5
113
330
30
100
AcDbDictionary
280
     1
281
     1
  3
ACAD_XREC_ROUNDTRIP
360
114
  0
DICTIONARY
  5
117
330
32
100
AcDbDictionary
280
     1
281
     1
  3
ACAD_XREC_ROUNDTRIP
360
118
  0
DICTIONARY
  5
11F
330
36
100
AcDbDictionary
280
     1
281
     1
  3
ACAD_XREC_ROUNDTRIP
360
120
  0
DICTIONARY
  5
127
330
3A
100
AcDbDictionary
280
     1
281
     1
  3
ACAD_XREC_ROUNDTRIP
360
128
  0
DICTIONARY
  5
11B
330
34
100
AcDbDictionary
280
     1
281
     1
  3
ACAD_XREC_ROUNDTRIP
360
11C
  0
DICTIONARY
  5
11D
330
35
100
AcDbDictionary
280
     1
281
     1
  3
ACAD_XREC_ROUNDTRIP
360
11E
  0
DICTIONARY
  5
125
330
39
100
AcDbDictionary
280
     1
281
     1
  3
ACAD_XREC_ROUNDTRIP
360
126
  0
DICTIONARY
  5
109
330
2B
100
AcDbDictionary
280
     1
281
     1
  3
ACAD_XREC_ROUNDTRIP
360
10A
  0
DICTIONARY
  5
10B
330
2C
100
AcDbDictionary
280
     1
281
     1
  3
ACAD_XREC_ROUNDTRIP
360
10C
  0
DICTIONARY
  5
10D
330
2D
100
AcDbDictionary
280
     1
281
     1
  3
ACAD_XREC_ROUNDTRIP
360
10E
  0
DICTIONARY
  5
10F
330
2E
100
AcDbDictionary
280
     1
281
     1
  3
ACAD_XREC_ROUNDTRIP
360
110
  0
DICTIONARY
  5
123
330
38
100
AcDbDictionary
280
     1
281
     1
  3
ACAD_XREC_ROUNDTRIP
360
124
  0
DICTIONARY
  5
119
330
33
100
AcDbDictionary
280
     1
281
     1
  3
ACAD_XREC_ROUNDTRIP
360
11A
  0
DICTIONARY
  5
121
330
37
100
AcDbDictionary
280
     1
281
     1
  3
ACAD_XREC_ROUNDTRIP
360
122
  0
XRECORD
  5
112
102
{ACAD_REACTORS
330
111
102
}
330
111
100
AcDbXrecord
280
     1
102
RTVSPropertyOp0
 70
     1
102
RTVSPropertyOp1
 70
     1
102
RTVSPropertyOp2
 70
     1
102
RTVSPropertyOp3
 70
     1
102
RTVSPropertyOp4
 70
     1
102
RTVSPropertyOp5
 70
     1
102
RTVSPropertyOp6
 70
     1
102
RTVSPropertyOp7
 70
     1
102
RTVSPropertyOp8
 70
     1
102
RTVSPropertyOp9
 70
     1
102
RTVSPropertyOp10
 70
     1
102
RTVSPropertyOp11
 70
     1
102
RTVSPropertyOp12
 70
     1
102
RTVSPropertyOp13
 70
     1
102
RTVSPropertyOp14
 70
     1
102
RTVSPropertyOp15
 70
     1
102
RTVSPropertyOp16
 70
     1
102
RTVSPropertyOp17
 70
     1
102
RTVSPropertyOp18
 70
     1
102
RTVSPropertyOp19
 70
     1
102
RTVSPropertyOp20
 70
     1
102
RTVSPropertyOp21
 70
     1
102
RTVSPropertyOp22
 70
     1
102
RTVSPropertyOp23
 70
     1
102
RTVSPropertyOp24
 70
     1
102
RTVSPropertyOp25
 70
     1
102
RTVSPropertyOp26
 70
     1
102
RTVSPropertyOp27
 70
     1
102
RTVSPropertyOp28
 70
     1
102
RTVSPropertyOp29
 70
     1
102
RTVSPropertyOp30
 70
     1
102
RTVSPropertyOp31
 70
     1
102
RTVSPropertyOp32
 70
     1
  0
XRECORD
  5
116
102
{ACAD_REACTORS
330
115
102
}
330
115
100
AcDbXrecord
280
     1
102
RTVSPropertyOp0
 70
     1
102
RTVSPropertyOp1
 70
     1
102
RTVSPropertyOp2
 70
     1
102
RTVSPropertyOp3
 70
     1
102
RTVSPropertyOp4
 70
     1
102
RTVSPropertyOp5
 70
     1
102
RTVSPropertyOp6
 70
     1
102
RTVSPropertyOp7
 70
     1
102
RTVSPropertyOp8
 70
     1
102
RTVSPropertyOp9
 70
     1
102
RTVSPropertyOp10
 70
     1
102
RTVSPropertyOp11
 70
     1
102
RTVSPropertyOp12
 70
     1
102
RTVSPropertyOp13
 70
     1
102
RTVSPropertyOp14
 70
     1
102
RTVSPropertyOp15
 70
     1
102
RTVSPropertyOp16
 70
     1
102
RTVSPropertyOp17
 70
     1
102
RTVSPropertyOp18
 70
     1
102
RTVSPropertyOp19
 70
     1
102
RTVSPropertyOp20
 70
     1
102
RTVSPropertyOp21
 70
     1
102
RTVSPropertyOp22
 70
     1
102
RTVSPropertyOp23
 70
     1
102
RTVSPropertyOp24
 70
     1
102
RTVSPropertyOp25
 70
     1
102
RTVSPropertyOp26
 70
     1
102
RTVSPropertyOp27
 70
     1
102
RTVSPropertyOp28
 70
     1
102
RTVSPropertyOp29
 70
     1
102
RTVSPropertyOp30
 70
     1
102
RTVSPropertyOp31
 70
     1
102
RTVSPropertyOp32
 70
     1
  0
XRECORD
  5
114
102
{ACAD_REACTORS
330
113
102
}
330
113
100
AcDbXrecord
280
     1
102
RTVSPropertyOp0
 70
     1
102
RTVSPropertyOp1
 70
     1
102
RTVSPropertyOp2
 70
     1
102
RTVSPropertyOp3
 70
     1
102
RTVSPropertyOp4
 70
     1
102
RTVSPropertyOp5
 70
     1
102
RTVSPropertyOp6
 70
     1
102
RTVSPropertyOp7
 70
     1
102
RTVSPropertyOp8
 70
     1
102
RTVSPropertyOp9
 70
     1
102
RTVSPropertyOp10
 70
     1
102
RTVSPropertyOp11
 70
     1
102
RTVSPropertyOp12
 70
     1
102
RTVSPropertyOp13
 70
     1
102
RTVSPropertyOp14
 70
     1
102
RTVSPropertyOp15
 70
     1
102
RTVSPropertyOp16
 70
     1
102
RTVSPropertyOp17
 70
     1
102
RTVSPropertyOp18
 70
     1
102
RTVSPropertyOp19
 70
     1
102
RTVSPropertyOp20
 70
     1
102
RTVSPropertyOp21
 70
     1
102
RTVSPropertyOp22
 70
     1
102
RTVSPropertyOp23
 70
     1
102
RTVSPropertyOp24
 70
     1
102
RTVSPropertyOp25
 70
     1
102
RTVSPropertyOp26
 70
     1
102
RTVSPropertyOp27
 70
     1
102
RTVSPropertyOp28
 70
     1
102
RTVSPropertyOp29
 70
     1
102
RTVSPropertyOp30
 70
     1
102
RTVSPropertyOp31
 70
     1
102
RTVSPropertyOp32
 70
     1
  0
XRECORD
  5
118
102
{ACAD_REACTORS
330
117
102
}
330
117
100
AcDbXrecord
280
     1
102
RTVSPropertyOp0
 70
     1
102
RTVSPropertyOp1
 70
     1
102
RTVSPropertyOp2
 70
     1
102
RTVSPropertyOp3
 70
     1
102
RTVSPropertyOp4
 70
     1
102
RTVSPropertyOp5
 70
     1
102
RTVSPropertyOp6
 70
     1
102
RTVSPropertyOp7
 70
     1
102
RTVSPropertyOp8
 70
     1
102
RTVSPropertyOp9
 70
     1
102
RTVSPropertyOp10
 70
     1
102
RTVSPropertyOp11
 70
     1
102
RTVSPropertyOp12
 70
     1
102
RTVSPropertyOp13
 70
     1
102
RTVSPropertyOp14
 70
     1
102
RTVSPropertyOp15
 70
     1
102
RTVSPropertyOp16
 70
     1
102
RTVSPropertyOp17
 70
     1
102
RTVSPropertyOp18
 70
     1
102
RTVSPropertyOp19
 70
     1
102
RTVSPropertyOp20
 70
     1
102
RTVSPropertyOp21
 70
     1
102
RTVSPropertyOp22
 70
     1
102
RTVSPropertyOp23
 70
     1
102
RTVSPropertyOp24
 70
     1
102
RTVSPropertyOp25
 70
     1
102
RTVSPropertyOp26
 70
     1
102
RTVSPropertyOp27
 70
     1
102
RTVSPropertyOp28
 70
     1
102
RTVSPropertyOp29
 70
     1
102
RTVSPropertyOp30
 70
     1
102
RTVSPropertyOp31
 70
     1
102
RTVSPropertyOp32
 70
     1
  0
XRECORD
  5
120
102
{ACAD_REACTORS
330
11F
102
}
330
11F
100
AcDbXrecord
280
     1
102
RTVSPropertyOp0
 70
     1
102
RTVSPropertyOp1
 70
     1
102
RTVSPropertyOp2
 70
     1
102
RTVSPropertyOp3
 70
     1
102
RTVSPropertyOp4
 70
     1
102
RTVSPropertyOp5
 70
     1
102
RTVSPropertyOp6
 70
     1
102
RTVSPropertyOp7
 70
     1
102
RTVSPropertyOp8
 70
     1
102
RTVSPropertyOp9
 70
     1
102
RTVSPropertyOp10
 70
     1
102
RTVSPropertyOp11
 70
     1
102
RTVSPropertyOp12
 70
     1
102
RTVSPropertyOp13
 70
     1
102
RTVSPropertyOp14
 70
     1
102
RTVSPropertyOp15
 70
     1
102
RTVSPropertyOp16
 70
     1
102
RTVSPropertyOp17
 70
     1
102
RTVSPropertyOp18
 70
     1
102
RTVSPropertyOp19
 70
     1
102
RTVSPropertyOp20
 70
     1
102
RTVSPropertyOp21
 70
     1
102
RTVSPropertyOp22
 70
     1
102
RTVSPropertyOp23
 70
     1
102
RTVSPropertyOp24
 70
     1
102
RTVSPropertyOp25
 70
     1
102
RTVSPropertyOp26
 70
     1
102
RTVSPropertyOp27
 70
     1
102
RTVSPropertyOp28
 70
     1
102
RTVSPropertyOp29
 70
     1
102
RTVSPropertyOp30
 70
     1
102
RTVSPropertyOp31
 70
     1
102
RTVSPropertyOp32
 70
     1
  0
XRECORD
  5
128
102
{ACAD_REACTORS
330
127
102
}
330
127
100
AcDbXrecord
280
     1
102
RTVSPropertyOp0
 70
     1
102
RTVSPropertyOp1
 70
     1
102
RTVSPropertyOp2
 70
     1
102
RTVSPropertyOp3
 70
     1
102
RTVSPropertyOp4
 70
     1
102
RTVSPropertyOp5
 70
     1
102
RTVSPropertyOp6
 70
     1
102
RTVSPropertyOp7
 70
     1
102
RTVSPropertyOp8
 70
     1
102
RTVSPropertyOp9
 70
     1
102
RTVSPropertyOp10
 70
     1
102
RTVSPropertyOp11
 70
     1
102
RTVSPropertyOp12
 70
     1
102
RTVSPropertyOp13
 70
     1
102
RTVSPropertyOp14
 70
     1
102
RTVSPropertyOp15
 70
     1
102
RTVSPropertyOp16
 70
     1
102
RTVSPropertyOp17
 70
     1
102
RTVSPropertyOp18
 70
     1
102
RTVSPropertyOp19
 70
     1
102
RTVSPropertyOp20
 70
     1
102
RTVSPropertyOp21
 70
     1
102
RTVSPropertyOp22
 70
     1
102
RTVSPropertyOp23
 70
     1
102
RTVSPropertyOp24
 70
     1
102
RTVSPropertyOp25
 70
     1
102
RTVSPropertyOp26
 70
     1
102
RTVSPropertyOp27
 70
     1
102
RTVSPropertyOp28
 70
     1
102
RTVSPropertyOp29
 70
     1
102
RTVSPropertyOp30
 70
     1
102
RTVSPropertyOp31
 70
     1
102
RTVSPropertyOp32
 70
     1
  0
XRECORD
  5
11C
102
{ACAD_REACTORS
330
11B
102
}
330
11B
100
AcDbXrecord
280
     1
102
RTVSPropertyOp0
 70
     1
102
RTVSPropertyOp1
 70
     1
102
RTVSPropertyOp2
 70
     1
102
RTVSPropertyOp3
 70
     1
102
RTVSPropertyOp4
 70
     1
102
RTVSPropertyOp5
 70
     1
102
RTVSPropertyOp6
 70
     1
102
RTVSPropertyOp7
 70
     1
102
RTVSPropertyOp8
 70
     1
102
RTVSPropertyOp9
 70
     1
102
RTVSPropertyOp10
 70
     1
102
RTVSPropertyOp11
 70
     1
102
RTVSPropertyOp12
 70
     1
102
RTVSPropertyOp13
 70
     1
102
RTVSPropertyOp14
 70
     1
102
RTVSPropertyOp15
 70
     1
102
RTVSPropertyOp16
 70
     1
102
RTVSPropertyOp17
 70
     1
102
RTVSPropertyOp18
 70
     1
102
RTVSPropertyOp19
 70
     1
102
RTVSPropertyOp20
 70
     1
102
RTVSPropertyOp21
 70
     1
102
RTVSPropertyOp22
 70
     1
102
RTVSPropertyOp23
 70
     1
102
RTVSPropertyOp24
 70
     1
102
RTVSPropertyOp25
 70
     1
102
RTVSPropertyOp26
 70
     1
102
RTVSPropertyOp27
 70
     1
102
RTVSPropertyOp28
 70
     1
102
RTVSPropertyOp29
 70
     1
102
RTVSPropertyOp30
 70
     1
102
RTVSPropertyOp31
 70
     1
102
RTVSPropertyOp32
 70
     1
  0
XRECORD
  5
11E
102
{ACAD_REACTORS
330
11D
102
}
330
11D
100
AcDbXrecord
280
     1
102
RTVSPropertyOp0
 70
     1
102
RTVSPropertyOp1
 70
     1
102
RTVSPropertyOp2
 70
     1
102
RTVSPropertyOp3
 70
     1
102
RTVSPropertyOp4
 70
     1
102
RTVSPropertyOp5
 70
     1
102
RTVSPropertyOp6
 70
     1
102
RTVSPropertyOp7
 70
     1
102
RTVSPropertyOp8
 70
     1
102
RTVSPropertyOp9
 70
     1
102
RTVSPropertyOp10
 70
     1
102
RTVSPropertyOp11
 70
     1
102
RTVSPropertyOp12
 70
     1
102
RTVSPropertyOp13
 70
     1
102
RTVSPropertyOp14
 70
     1
102
RTVSPropertyOp15
 70
     1
102
RTVSPropertyOp16
 70
     1
102
RTVSPropertyOp17
 70
     1
102
RTVSPropertyOp18
 70
     1
102
RTVSPropertyOp19
 70
     1
102
RTVSPropertyOp20
 70
     1
102
RTVSPropertyOp21
 70
     1
102
RTVSPropertyOp22
 70
     1
102
RTVSPropertyOp23
 70
     1
102
RTVSPropertyOp24
 70
     1
102
RTVSPropertyOp25
 70
     1
102
RTVSPropertyOp26
 70
     1
102
RTVSPropertyOp27
 70
     1
102
RTVSPropertyOp28
 70
     1
102
RTVSPropertyOp29
 70
     1
102
RTVSPropertyOp30
 70
     1
102
RTVSPropertyOp31
 70
     1
102
RTVSPropertyOp32
 70
     1
  0
XRECORD
  5
126
102
{ACAD_REACTORS
330
125
102
}
330
125
100
AcDbXrecord
280
     1
102
RTVSPropertyOp0
 70
     1
102
RTVSPropertyOp1
 70
     1
102
RTVSPropertyOp2
 70
     1
102
RTVSPropertyOp3
 70
     1
102
RTVSPropertyOp4
 70
     1
102
RTVSPropertyOp5
 70
     1
102
RTVSPropertyOp6
 70
     1
102
RTVSPropertyOp7
 70
     1
102
RTVSPropertyOp8
 70
     1
102
RTVSPropertyOp9
 70
     1
102
RTVSPropertyOp10
 70
     1
102
RTVSPropertyOp11
 70
     1
102
RTVSPropertyOp12
 70
     1
102
RTVSPropertyOp13
 70
     1
102
RTVSPropertyOp14
 70
     1
102
RTVSPropertyOp15
 70
     1
102
RTVSPropertyOp16
 70
     1
102
RTVSPropertyOp17
 70
     1
102
RTVSPropertyOp18
 70
     1
102
RTVSPropertyOp19
 70
     1
102
RTVSPropertyOp20
 70
     1
102
RTVSPropertyOp21
 70
     1
102
RTVSPropertyOp22
 70
     1
102
RTVSPropertyOp23
 70
     1
102
RTVSPropertyOp24
 70
     1
102
RTVSPropertyOp25
 70
     1
102
RTVSPropertyOp26
 70
     1
102
RTVSPropertyOp27
 70
     1
102
RTVSPropertyOp28
 70
     1
102
RTVSPropertyOp29
 70
     1
102
RTVSPropertyOp30
 70
     1
102
RTVSPropertyOp31
 70
     1
102
RTVSPropertyOp32
 70
     1
  0
XRECORD
  5
10A
102
{ACAD_REACTORS
330
109
102
}
330
109
100
AcDbXrecord
280
     1
102
RTVSPropertyOp0
 70
     1
102
RTVSPropertyOp1
 70
     1
102
RTVSPropertyOp2
 70
     1
102
RTVSPropertyOp3
 70
     1
102
RTVSPropertyOp4
 70
     1
102
RTVSPropertyOp5
 70
     1
102
RTVSPropertyOp6
 70
     1
102
RTVSPropertyOp7
 70
     1
102
RTVSPropertyOp8
 70
     1
102
RTVSPropertyOp9
 70
     1
102
RTVSPropertyOp10
 70
     1
102
RTVSPropertyOp11
 70
     1
102
RTVSPropertyOp12
 70
     1
102
RTVSPropertyOp13
 70
     1
102
RTVSPropertyOp14
 70
     1
102
RTVSPropertyOp15
 70
     1
102
RTVSPropertyOp16
 70
     1
102
RTVSPropertyOp17
 70
     1
102
RTVSPropertyOp18
 70
     1
102
RTVSPropertyOp19
 70
     1
102
RTVSPropertyOp20
 70
     1
102
RTVSPropertyOp21
 70
     1
102
RTVSPropertyOp22
 70
     1
102
RTVSPropertyOp23
 70
     1
102
RTVSPropertyOp24
 70
     1
102
RTVSPropertyOp25
 70
     1
102
RTVSPropertyOp26
 70
     1
102
RTVSPropertyOp27
 70
     1
102
RTVSPropertyOp28
 70
     1
102
RTVSPropertyOp29
 70
     1
102
RTVSPropertyOp30
 70
     1
102
RTVSPropertyOp31
 70
     1
102
RTVSPropertyOp32
 70
     1
  0
XRECORD
  5
10C
102
{ACAD_REACTORS
330
10B
102
}
330
10B
100
AcDbXrecord
280
     1
102
RTVSPropertyOp0
 70
     1
102
RTVSPropertyOp1
 70
     1
102
RTVSPropertyOp2
 70
     1
102
RTVSPropertyOp3
 70
     1
102
RTVSPropertyOp4
 70
     1
102
RTVSPropertyOp5
 70
     1
102
RTVSPropertyOp6
 70
     1
102
RTVSPropertyOp7
 70
     1
102
RTVSPropertyOp8
 70
     1
102
RTVSPropertyOp9
 70
     1
102
RTVSPropertyOp10
 70
     1
102
RTVSPropertyOp11
 70
     1
102
RTVSPropertyOp12
 70
     1
102
RTVSPropertyOp13
 70
     1
102
RTVSPropertyOp14
 70
     1
102
RTVSPropertyOp15
 70
     1
102
RTVSPropertyOp16
 70
     1
102
RTVSPropertyOp17
 70
     1
102
RTVSPropertyOp18
 70
     1
102
RTVSPropertyOp19
 70
     1
102
RTVSPropertyOp20
 70
     1
102
RTVSPropertyOp21
 70
     1
102
RTVSPropertyOp22
 70
     1
102
RTVSPropertyOp23
 70
     1
102
RTVSPropertyOp24
 70
     1
102
RTVSPropertyOp25
 70
     1
102
RTVSPropertyOp26
 70
     1
102
RTVSPropertyOp27
 70
     1
102
RTVSPropertyOp28
 70
     1
102
RTVSPropertyOp29
 70
     1
102
RTVSPropertyOp30
 70
     1
102
RTVSPropertyOp31
 70
     1
102
RTVSPropertyOp32
 70
     1
  0
XRECORD
  5
10E
102
{ACAD_REACTORS
330
10D
102
}
330
10D
100
AcDbXrecord
280
     1
102
RTVSPropertyOp0
 70
     1
102
RTVSPropertyOp1
 70
     1
102
RTVSPropertyOp2
 70
     1
102
RTVSPropertyOp3
 70
     1
102
RTVSPropertyOp4
 70
     1
102
RTVSPropertyOp5
 70
     1
102
RTVSPropertyOp6
 70
     1
102
RTVSPropertyOp7
 70
     1
102
RTVSPropertyOp8
 70
     1
102
RTVSPropertyOp9
 70
     1
102
RTVSPropertyOp10
 70
     1
102
RTVSPropertyOp11
 70
     1
102
RTVSPropertyOp12
 70
     1
102
RTVSPropertyOp13
 70
     1
102
RTVSPropertyOp14
 70
     1
102
RTVSPropertyOp15
 70
     1
102
RTVSPropertyOp16
 70
     1
102
RTVSPropertyOp17
 70
     1
102
RTVSPropertyOp18
 70
     1
102
RTVSPropertyOp19
 70
     1
102
RTVSPropertyOp20
 70
     1
102
RTVSPropertyOp21
 70
     1
102
RTVSPropertyOp22
 70
     1
102
RTVSPropertyOp23
 70
     1
102
RTVSPropertyOp24
 70
     1
102
RTVSPropertyOp25
 70
     1
102
RTVSPropertyOp26
 70
     1
102
RTVSPropertyOp27
 70
     1
102
RTVSPropertyOp28
 70
     1
102
RTVSPropertyOp29
 70
     1
102
RTVSPropertyOp30
 70
     1
102
RTVSPropertyOp31
 70
     1
102
RTVSPropertyOp32
 70
     1
  0
XRECORD
  5
110
102
{ACAD_REACTORS
330
10F
102
}
330
10F
100
AcDbXrecord
280
     1
102
RTVSPropertyOp0
 70
     1
102
RTVSPropertyOp1
 70
     1
102
RTVSPropertyOp2
 70
     1
102
RTVSPropertyOp3
 70
     1
102
RTVSPropertyOp4
 70
     1
102
RTVSPropertyOp5
 70
     1
102
RTVSPropertyOp6
 70
     1
102
RTVSPropertyOp7
 70
     1
102
RTVSPropertyOp8
 70
     1
102
RTVSPropertyOp9
 70
     1
102
RTVSPropertyOp10
 70
     1
102
RTVSPropertyOp11
 70
     1
102
RTVSPropertyOp12
 70
     1
102
RTVSPropertyOp13
 70
     1
102
RTVSPropertyOp14
 70
     1
102
RTVSPropertyOp15
 70
     1
102
RTVSPropertyOp16
 70
     1
102
RTVSPropertyOp17
 70
     1
102
RTVSPropertyOp18
 70
     1
102
RTVSPropertyOp19
 70
     1
102
RTVSPropertyOp20
 70
     1
102
RTVSPropertyOp21
 70
     1
102
RTVSPropertyOp22
 70
     1
102
RTVSPropertyOp23
 70
     1
102
RTVSPropertyOp24
 70
     1
102
RTVSPropertyOp25
 70
     1
102
RTVSPropertyOp26
 70
     1
102
RTVSPropertyOp27
 70
     1
102
RTVSPropertyOp28
 70
     1
102
RTVSPropertyOp29
 70
     1
102
RTVSPropertyOp30
 70
     1
102
RTVSPropertyOp31
 70
     1
102
RTVSPropertyOp32
 70
     1
  0
XRECORD
  5
124
102
{ACAD_REACTORS
330
123
102
}
330
123
100
AcDbXrecord
280
     1
102
RTVSPropertyOp0
 70
     1
102
RTVSPropertyOp1
 70
     1
102
RTVSPropertyOp2
 70
     1
102
RTVSPropertyOp3
 70
     1
102
RTVSPropertyOp4
 70
     1
102
RTVSPropertyOp5
 70
     1
102
RTVSPropertyOp6
 70
     1
102
RTVSPropertyOp7
 70
     1
102
RTVSPropertyOp8
 70
     1
102
RTVSPropertyOp9
 70
     1
102
RTVSPropertyOp10
 70
     1
102
RTVSPropertyOp11
 70
     1
102
RTVSPropertyOp12
 70
     1
102
RTVSPropertyOp13
 70
     1
102
RTVSPropertyOp14
 70
     1
102
RTVSPropertyOp15
 70
     1
102
RTVSPropertyOp16
 70
     1
102
RTVSPropertyOp17
 70
     1
102
RTVSPropertyOp18
 70
     1
102
RTVSPropertyOp19
 70
     1
102
RTVSPropertyOp20
 70
     1
102
RTVSPropertyOp21
 70
     1
102
RTVSPropertyOp22
 70
     1
102
RTVSPropertyOp23
 70
     1
102
RTVSPropertyOp24
 70
     1
102
RTVSPropertyOp25
 70
     1
102
RTVSPropertyOp26
 70
     1
102
RTVSPropertyOp27
 70
     1
102
RTVSPropertyOp28
 70
     1
102
RTVSPropertyOp29
 70
     1
102
RTVSPropertyOp30
 70
     1
102
RTVSPropertyOp31
 70
     1
102
RTVSPropertyOp32
 70
     1
  0
XRECORD
  5
11A
102
{ACAD_REACTORS
330
119
102
}
330
119
100
AcDbXrecord
280
     1
102
RTVSPropertyOp0
 70
     1
102
RTVSPropertyOp1
 70
     1
102
RTVSPropertyOp2
 70
     1
102
RTVSPropertyOp3
 70
     1
102
RTVSPropertyOp4
 70
     1
102
RTVSPropertyOp5
 70
     1
102
RTVSPropertyOp6
 70
     1
102
RTVSPropertyOp7
 70
     1
102
RTVSPropertyOp8
 70
     1
102
RTVSPropertyOp9
 70
     1
102
RTVSPropertyOp10
 70
     1
102
RTVSPropertyOp11
 70
     1
102
RTVSPropertyOp12
 70
     1
102
RTVSPropertyOp13
 70
     1
102
RTVSPropertyOp14
 70
     1
102
RTVSPropertyOp15
 70
     1
102
RTVSPropertyOp16
 70
     1
102
RTVSPropertyOp17
 70
     1
102
RTVSPropertyOp18
 70
     1
102
RTVSPropertyOp19
 70
     1
102
RTVSPropertyOp20
 70
     1
102
RTVSPropertyOp21
 70
     1
102
RTVSPropertyOp22
 70
     1
102
RTVSPropertyOp23
 70
     1
102
RTVSPropertyOp24
 70
     1
102
RTVSPropertyOp25
 70
     1
102
RTVSPropertyOp26
 70
     1
102
RTVSPropertyOp27
 70
     1
102
RTVSPropertyOp28
 70
     1
102
RTVSPropertyOp29
 70
     1
102
RTVSPropertyOp30
 70
     1
102
RTVSPropertyOp31
 70
     1
102
RTVSPropertyOp32
 70
     1
  0
XRECORD
  5
122
102
{ACAD_REACTORS
330
121
102
}
330
121
100
AcDbXrecord
280
     1
102
RTVSPropertyOp0
 70
     1
102
RTVSPropertyOp1
 70
     1
102
RTVSPropertyOp2
 70
     1
102
RTVSPropertyOp3
 70
     1
102
RTVSPropertyOp4
 70
     1
102
RTVSPropertyOp5
 70
     1
102
RTVSPropertyOp6
 70
     1
102
RTVSPropertyOp7
 70
     1
102
RTVSPropertyOp8
 70
     1
102
RTVSPropertyOp9
 70
     1
102
RTVSPropertyOp10
 70
     1
102
RTVSPropertyOp11
 70
     1
102
RTVSPropertyOp12
 70
     1
102
RTVSPropertyOp13
 70
     1
102
RTVSPropertyOp14
 70
     1
102
RTVSPropertyOp15
 70
     1
102
RTVSPropertyOp16
 70
     1
102
RTVSPropertyOp17
 70
     1
102
RTVSPropertyOp18
 70
     1
102
RTVSPropertyOp19
 70
     1
102
RTVSPropertyOp20
 70
     1
102
RTVSPropertyOp21
 70
     1
102
RTVSPropertyOp22
 70
     1
102
RTVSPropertyOp23
 70
     1
102
RTVSPropertyOp24
 70
     1
102
RTVSPropertyOp25
 70
     1
102
RTVSPropertyOp26
 70
     1
102
RTVSPropertyOp27
 70
     1
102
RTVSPropertyOp28
 70
     1
102
RTVSPropertyOp29
 70
     1
102
RTVSPropertyOp30
 70
     1
102
RTVSPropertyOp31
 70
     1
102
RTVSPropertyOp32
 70
     1
  0
ENDSEC
  0
EOF
