  0
SECTION
  2
HEADER
  9
$ACADVER
  1
AC1021
  9
$ACADMAINTVER
 70
    25
  9
$DWGCODEPAGE
  3
ANSI_1256
  9
$INSBASE
 10
0.0
 20
0.0
 30
0.0
  9
$EXTMIN
 10
-24.7085
 20
-114.4884
 30
0.0
  9
$EXTMAX
 10
64.8897
 20
131.9066
 30
0.0
  9
$LIMMIN
 10
0.0
 20
0.0
  9
$LIMMAX
 10
12.0
 20
9.0
  9
$ORTHOMODE
 70
     0
  9
$REGENMODE
 70
     1
  9
$FILLMODE
 70
     1
  9
$QTEXTMODE
 70
     0
  9
$MIRRTEXT
 70
     1
  9
$LTSCALE
 40
1.0
  9
$ATTMODE
 70
     1
  9
$TEXTSIZE
 40
0.2
  9
$TRACEWID
 40
0.05
  9
$TEXTSTYLE
  7
Standard
  9
$CLAYER
  8
0
  9
$CELTYPE
  6
ByLayer
  9
$CECOLOR
 62
   256
  9
$CELTSCALE
 40
1.0
  9
$DISPSILH
 70
     0
  9
$DIMSCALE
 40
1.0
  9
$DIMASZ
 40
0.18
  9
$DIMEXO
 40
0.0625
  9
$DIMDLI
 40
0.38
  9
$DIMRND
 40
0.0
  9
$DIMDLE
 40
0.0
  9
$DIMEXE
 40
0.18
  9
$DIMTP
 40
0.0
  9
$DIMTM
 40
0.0
  9
$DIMTXT
 40
0.18
  9
$DIMCEN
 40
0.09
  9
$DIMTSZ
 40
0.0
  9
$DIMTOL
 70
     0
  9
$DIMLIM
 70
     0
  9
$DIMTIH
 70
     1
  9
$DIMTOH
 70
     1
  9
$DIMSE1
 70
     0
  9
$DIMSE2
 70
     0
  9
$DIMTAD
 70
     0
  9
$DIMZIN
 70
     0
  9
$DIMBLK
  1

  9
$DIMASO
 70
     1
  9
$DIMSHO
 70
     1
  9
$DIMPOST
  1

  9
$DIMAPOST
  1

  9
$DIMALT
 70
     0
  9
$DIMALTD
 70
     2
  9
$DIMALTF
 40
25.4
  9
$DIMLFAC
 40
1.0
  9
$DIMTOFL
 70
     0
  9
$DIMTVP
 40
0.0
  9
$DIMTIX
 70
     0
  9
$DIMSOXD
 70
     0
  9
$DIMSAH
 70
     0
  9
$DIMBLK1
  1

  9
$DIMBLK2
  1

  9
$DIMSTYLE
  2
Standard
  9
$DIMCLRD
 70
     0
  9
$DIMCLRE
 70
     0
  9
$DIMCLRT
 70
     0
  9
$DIMTFAC
 40
1.0
  9
$DIMGAP
 40
0.09
  9
$DIMJUST
 70
     0
  9
$DIMSD1
 70
     0
  9
$DIMSD2
 70
     0
  9
$DIMTOLJ
 70
     1
  9
$DIMTZIN
 70
     0
  9
$DIMALTZ
 70
     0
  9
$DIMALTTZ
 70
     0
  9
$DIMUPT
 70
     0
  9
$DIMDEC
 70
     4
  9
$DIMTDEC
 70
     4
  9
$DIMALTU
 70
     2
  9
$DIMALTTD
 70
     2
  9
$DIMTXSTY
  7
Standard
  9
$DIMAUNIT
 70
     0
  9
$DIMADEC
 70
     0
  9
$DIMALTRND
 40
0.0
  9
$DIMAZIN
 70
     0
  9
$DIMDSEP
 70
    46
  9
$DIMATFIT
 70
     3
  9
$DIMFRAC
 70
     0
  9
$DIMLDRBLK
  1

  9
$DIMLUNIT
 70
     2
  9
$DIMLWD
 70
    -2
  9
$DIMLWE
 70
    -2
  9
$DIMTMOVE
 70
     0
  9
$DIMFXL
 40
1.0
  9
$DIMFXLON
 70
     0
  9
$DIMJOGANG
 40
0.7853981633974483
  9
$DIMTFILL
 70
     0
  9
$DIMTFILLCLR
 70
     0
  9
$DIMARCSYM
 70
     0
  9
$DIMLTYPE
  6

  9
$DIMLTEX1
  6

  9
$DIMLTEX2
  6

  9
$LUNITS
 70
     2
  9
$LUPREC
 70
     4
  9
$SKETCHINC
 40
0.1
  9
$FILLETRAD
 40
0.5
  9
$AUNITS
 70
     0
  9
$AUPREC
 70
     0
  9
$MENU
  1
.
  9
$ELEVATION
 40
0.0
  9
$PELEVATION
 40
0.0
  9
$THICKNESS
 40
0.0
  9
$LIMCHECK
 70
     0
  9
$CHAMFERA
 40
0.5
  9
$CHAMFERB
 40
0.5
  9
$CHAMFERC
 40
1.0
  9
$CHAMFERD
 40
0.0
  9
$SKPOLY
 70
     0
  9
$TDCREATE
 40
2458492.400477766
  9
$TDUCREATE
 40
2458492.2338111
  9
$TDUPDATE
 40
2458492.400477859
  9
$TDUUPDATE
 40
2458492.233811192
  9
$TDINDWG
 40
0.0000000116
  9
$TDUSRTIMER
 40
0.0000000116
  9
$USRTIMER
 70
     1
  9
$ANGBASE
 50
0.0
  9
$ANGDIR
 70
     0
  9
$PDMODE
 70
     0
  9
$PDSIZE
 40
0.0
  9
$PLINEWID
 40
0.0
  9
$SPLFRAME
 70
     0
  9
$SPLINETYPE
 70
     6
  9
$SPLINESEGS
 70
     8
  9
$HANDSEED
  5
8B
  9
$SURFTAB1
 70
     6
  9
$SURFTAB2
 70
     6
  9
$SURFTYPE
 70
     6
  9
$SURFU
 70
     6
  9
$SURFV
 70
     6
  9
$UCSBASE
  2

  9
$UCSNAME
  2

  9
$UCSORG
 10
0.0
 20
0.0
 30
0.0
  9
$UCSXDIR
 10
1.0
 20
0.0
 30
0.0
  9
$UCSYDIR
 10
0.0
 20
1.0
 30
0.0
  9
$UCSORTHOREF
  2

  9
$UCSORTHOVIEW
 70
     0
  9
$UCSORGTOP
 10
0.0
 20
0.0
 30
0.0
  9
$UCSORGBOTTOM
 10
0.0
 20
0.0
 30
0.0
  9
$UCSORGLEFT
 10
0.0
 20
0.0
 30
0.0
  9
$UCSORGRIGHT
 10
0.0
 20
0.0
 30
0.0
  9
$UCSORGFRONT
 10
0.0
 20
0.0
 30
0.0
  9
$UCSORGBACK
 10
0.0
 20
0.0
 30
0.0
  9
$PUCSBASE
  2

  9
$PUCSNAME
  2

  9
$PUCSORG
 10
0.0
 20
0.0
 30
0.0
  9
$PUCSXDIR
 10
1.0
 20
0.0
 30
0.0
  9
$PUCSYDIR
 10
0.0
 20
1.0
 30
0.0
  9
$PUCSORTHOREF
  2

  9
$PUCSORTHOVIEW
 70
     0
  9
$PUCSORGTOP
 10
0.0
 20
0.0
 30
0.0
  9
$PUCSORGBOTTOM
 10
0.0
 20
0.0
 30
0.0
  9
$PUCSORGLEFT
 10
0.0
 20
0.0
 30
0.0
  9
$PUCSORGRIGHT
 10
0.0
 20
0.0
 30
0.0
  9
$PUCSORGFRONT
 10
0.0
 20
0.0
 30
0.0
  9
$PUCSORGBACK
 10
0.0
 20
0.0
 30
0.0
  9
$USERI1
 70
     0
  9
$USERI2
 70
     0
  9
$USERI3
 70
     0
  9
$USERI4
 70
     0
  9
$USERI5
 70
     0
  9
$USERR1
 40
0.0
  9
$USERR2
 40
0.0
  9
$USERR3
 40
0.0
  9
$USERR4
 40
0.0
  9
$USERR5
 40
0.0
  9
$WORLDVIEW
 70
     1
  9
$SHADEDGE
 70
     3
  9
$SHADEDIF
 70
    70
  9
$TILEMODE
 70
     1
  9
$MAXACTVP
 70
    64
  9
$PINSBASE
 10
0.0
 20
0.0
 30
0.0
  9
$PLIMCHECK
 70
     0
  9
$PEXTMIN
 10
1.000000000000000E+20
 20
1.000000000000000E+20
 30
1.000000000000000E+20
  9
$PEXTMAX
 10
-1.000000000000000E+20
 20
-1.000000000000000E+20
 30
-1.000000000000000E+20
  9
$PLIMMIN
 10
0.0
 20
0.0
  9
$PLIMMAX
 10
12.0
 20
9.0
  9
$UNITMODE
 70
     0
  9
$VISRETAIN
 70
     1
  9
$PLINEGEN
 70
     0
  9
$PSLTSCALE
 70
     1
  9
$TREEDEPTH
 70
  3020
  9
$CMLSTYLE
  2
Standard
  9
$CMLJUST
 70
     0
  9
$CMLSCALE
 40
1.0
  9
$PROXYGRAPHICS
 70
     1
  9
$MEASUREMENT
 70
     0
  9
$CELWEIGHT
370
    -1
  9
$ENDCAPS
280
     0
  9
$JOINSTYLE
280
     0
  9
$LWDISPLAY
290
     0
  9
$INSUNITS
 70
     4
  9
$HYPERLINKBASE
  1

  9
$STYLESHEET
  1

  9
$XEDIT
290
     1
  9
$CEPSNTYPE
380
     0
  9
$PSTYLEMODE
290
     1
  9
$FINGERPRINTGUID
  2
{7146EF67-5CDC-48D5-A8A8-A17B2EB74FC2}
  9
$VERSIONGUID
  2
{FAEB1C32-E019-11D5-929B-00C0DF256EC4}
  9
$EXTNAMES
290
     1
  9
$PSVPSCALE
 40
0.0
  9
$OLESTARTUP
290
     0
  9
$SORTENTS
280
   127
  9
$INDEXCTL
280
     0
  9
$HIDETEXT
280
     1
  9
$XCLIPFRAME
290
     0
  9
$HALOGAP
280
     0
  9
$OBSCOLOR
 70
   257
  9
$OBSLTYPE
280
     0
  9
$INTERSECTIONDISPLAY
280
     0
  9
$INTERSECTIONCOLOR
 70
   257
  9
$DIMASSOC
280
     2
  9
$PROJECTNAME
  1

  9
$CAMERADISPLAY
290
     0
  9
$LENSLENGTH
 40
50.0
  9
$CAMERAHEIGHT
 40
0.0
  9
$STEPSPERSEC
 40
2.0
  9
$STEPSIZE
 40
6.0
  9
$3DDWFPREC
 40
2.0
  9
$PSOLWIDTH
 40
0.25
  9
$PSOLHEIGHT
 40
4.0
  9
$LOFTANG1
 40
1.570796326794897
  9
$LOFTANG2
 40
1.570796326794897
  9
$LOFTMAG1
 40
0.0
  9
$LOFTMAG2
 40
0.0
  9
$LOFTPARAM
 70
     7
  9
$LOFTNORMALS
280
     1
  9
$LATITUDE
 40
37.795
  9
$LONGITUDE
 40
-122.394
  9
$NORTHDIRECTION
 40
0.0
  9
$TIMEZONE
 70
 -8000
  9
$LIGHTGLYPHDISPLAY
280
     1
  9
$TILEMODELIGHTSYNCH
280
     1
  9
$SOLIDHIST
280
     1
  9
$SHOWHIST
280
     1
  9
$DWFFRAME
280
     2
  9
$DGNFRAME
280
     2
  9
$REALWORLDSCALE
290
     1
  9
$INTERFERECOLOR
 62
   256
  9
$CSHADOW
280
     0
  9
$SHADOWPLANELOCATION
 40
0.0
  0
ENDSEC
  0
SECTION
  2
CLASSES
  0
CLASS
  1
ACDBDICTIONARYWDFLT
  2
AcDbDictionaryWithDefault
  3
ObjectDBX Classes
 90
        0
 91
        4
280
     0
281
     0
  0
CLASS
  1
VISUALSTYLE
  2
AcDbVisualStyle
  3
ObjectDBX Classes
 90
     4095
 91
        4
280
     0
281
     0
  0
CLASS
  1
MATERIAL
  2
AcDbMaterial
  3
ObjectDBX Classes
 90
     1153
 91
        4
280
     0
281
     0
  0
ENDSEC
  0
SECTION
  2
TABLES
  0
TABLE
  2
VPORT
  5
8
330
0
100
AcDbSymbolTable
 70
     1
  0
VPORT
  5
29
330
8
100
AcDbSymbolTableRecord
100
AcDbViewportTableRecord
  2
*Active
 70
     0
 10
0.0
 20
0.0
 11
1.0
 21
1.0
 12
10.42990654205607
 22
4.5
 13
0.0
 23
0.0
 14
0.5
 24
0.5
 15
0.5
 25
0.5
 16
0.0
 26
0.0
 36
1.0
 17
0.0
 27
0.0
 37
0.0
 40
9.0
 41
1.972972972850329
 42
50.0
 43
0.0
 44
0.0
 50
0.0
 51
0.0
 71
     0
 72
   100
 73
     1
 74
     3
 75
     0
 76
     0
 77
     0
 78
     0
281
     0
 65
     1
110
0.0
120
0.0
130
0.0
111
1.0
121
0.0
131
0.0
112
0.0
122
1.0
132
0.0
 79
     0
146
0.0
 60
     3
 61
     5
292
     1
282
     1
141
0.0
142
0.0
 63
   250
  0
ENDTAB
  0
TABLE
  2
LTYPE
  5
5
330
0
100
AcDbSymbolTable
 70
     1
  0
LTYPE
  5
14
330
5
100
AcDbSymbolTableRecord
100
AcDbLinetypeTableRecord
  2
ByBlock
 70
     0
  3

 72
    65
 73
     0
 40
0.0
  0
LTYPE
  5
15
330
5
100
AcDbSymbolTableRecord
100
AcDbLinetypeTableRecord
  2
ByLayer
 70
     0
  3

 72
    65
 73
     0
 40
0.0
  0
LTYPE
  5
16
330
5
100
AcDbSymbolTableRecord
100
AcDbLinetypeTableRecord
  2
Continuous
 70
     0
  3
Solid line
 72
    65
 73
     0
 40
0.0
  0
ENDTAB
  0
TABLE
  2
LAYER
  5
2
330
0
100
AcDbSymbolTable
 70
     2
  0
LAYER
  5
10
330
2
100
AcDbSymbolTableRecord
100
AcDbLayerTableRecord
  2
0
 70
     0
 62
     7
  6
Continuous
370
    -3
390
F
347
3E
  0
LAYER
  5
40
330
2
100
AcDbSymbolTableRecord
100
AcDbLayerTableRecord
  2
layer 1
 70
     0
 62
     7
  6
Continuous
370
    -3
390
F
347
3E
  0
ENDTAB
  0
TABLE
  2
STYLE
  5
3
330
0
100
AcDbSymbolTable
 70
     1
  0
STYLE
  5
11
330
3
100
AcDbSymbolTableRecord
100
AcDbTextStyleTableRecord
  2
Standard
 70
     0
 40
0.0
 41
1.0
 50
0.0
 71
     0
 42
0.2
  3
txt
  4

  0
ENDTAB
  0
TABLE
  2
VIEW
  5
6
330
0
100
AcDbSymbolTable
 70
     0
  0
ENDTAB
  0
TABLE
  2
UCS
  5
7
330
0
100
AcDbSymbolTable
 70
     0
  0
ENDTAB
  0
TABLE
  2
APPID
  5
9
330
0
100
AcDbSymbolTable
 70
     2
  0
APPID
  5
12
330
9
100
AcDbSymbolTableRecord
100
AcDbRegAppTableRecord
  2
ACAD
 70
     0
  0
APPID
  5
3F
330
9
100
AcDbSymbolTableRecord
100
AcDbRegAppTableRecord
  2
ODA
 70
     0
  0
ENDTAB
  0
TABLE
  2
DIMSTYLE
  5
A
330
0
100
AcDbSymbolTable
 70
     1
100
AcDbDimStyleTable
  0
DIMSTYLE
105
27
330
A
100
AcDbSymbolTableRecord
100
AcDbDimStyleTableRecord
  2
Standard
 70
     0
178
     0
340
11
  0
ENDTAB
  0
TABLE
  2
BLOCK_RECORD
  5
1
330
0
100
AcDbSymbolTable
 70
     1
  0
BLOCK_RECORD
  5
1F
330
1
100
AcDbSymbolTableRecord
100
AcDbBlockTableRecord
  2
*Model_Space
340
22
 70
     0
280
     1
281
     0
  0
BLOCK_RECORD
  5
1B
330
1
100
AcDbSymbolTableRecord
100
AcDbBlockTableRecord
  2
*Paper_Space
340
1E
 70
     0
280
     1
281
     0
  0
BLOCK_RECORD
  5
23
330
1
100
AcDbSymbolTableRecord
100
AcDbBlockTableRecord
  2
*Paper_Space0
340
26
 70
     0
280
     1
281
     0
  0
ENDTAB
  0
ENDSEC
  0
SECTION
  2
BLOCKS
  0
BLOCK
  5
20
330
1F
100
AcDbEntity
  8
0
100
AcDbBlockBegin
  2
*Model_Space
 70
     0
 10
0.0
 20
0.0
 30
0.0
  3
*Model_Space
  1

  0
ENDBLK
  5
21
330
1F
100
AcDbEntity
  8
0
100
AcDbBlockEnd
  0
BLOCK
  5
1C
330
1B
100
AcDbEntity
 67
     1
  8
0
100
AcDbBlockBegin
  2
*Paper_Space
 70
     0
 10
0.0
 20
0.0
 30
0.0
  3
*Paper_Space
  1

  0
ENDBLK
  5
1D
330
1B
100
AcDbEntity
 67
     1
  8
0
100
AcDbBlockEnd
  0
BLOCK
  5
24
330
23
100
AcDbEntity
  8
0
100
AcDbBlockBegin
  2
*Paper_Space0
 70
     0
 10
0.0
 20
0.0
 30
0.0
  3
*Paper_Space0
  1

  0
ENDBLK
  5
25
330
23
100
AcDbEntity
  8
0
100
AcDbBlockEnd
  0
ENDSEC
  0
SECTION
  2
ENTITIES
  0
SPLINE
  5
41
330
1F
100
AcDbEntity
  8
layer 1
 62
   250
100
AcDbSpline
210
0.0
220
0.0
230
1.0
 70
    11
 71
     3
 72
    52
 73
    48
 74
     0
 42
0.0000000001
 43
0.0000000001
 12
1.0
 22
0.0
 32
0.0
 13
1.0
 23
0.0
 33
0.0
 40
0.0
 40
0.0
 40
0.0
 40
0.0
 40
0.0769230769230769
 40
0.0769230769230769
 40
0.0769230769230769
 40
0.0769230769230769
 40
0.1538461538461539
 40
0.1538461538461539
 40
0.1538461538461539
 40
0.1538461538461539
 40
0.2307692307692308
 40
0.2307692307692308
 40
0.2307692307692308
 40
0.2307692307692308
 40
0.3076923076923077
 40
0.3076923076923077
 40
0.3076923076923077
 40
0.3076923076923077
 40
0.3846153846153846
 40
0.3846153846153846
 40
0.3846153846153846
 40
0.3846153846153846
 40
0.4615384615384616
 40
0.4615384615384616
 40
0.4615384615384616
 40
0.4615384615384616
 40
0.5384615384615384
 40
0.5384615384615384
 40
0.5384615384615384
 40
0.5384615384615384
 40
0.6153846153846154
 40
0.6153846153846154
 40
0.6153846153846154
 40
0.6153846153846154
 40
0.6923076923076923
 40
0.6923076923076923
 40
0.6923076923076923
 40
0.6923076923076923
 40
0.7692307692307693
 40
0.7692307692307693
 40
0.7692307692307693
 40
0.7692307692307693
 40
0.8461538461538461
 40
0.8461538461538461
 40
0.8461538461538461
 40
0.8461538461538461
 40
1.0
 40
1.0
 40
1.0
 40
1.0
 10
30.312
 20
8.7091
 30
0.0
 10
30.312
 20
10.862
 30
0.0
 10
24.663
 20
11.8264
 30
0.0
 10
22.6332
 20
9.9382
 30
0.0
 10
22.6332
 20
9.9382
 30
0.0
 10
23.926
 20
12.4179
 30
0.0
 10
23.354
 20
13.6882
 30
0.0
 10
22.8768
 20
14.073
 30
0.0
 10
22.8768
 20
14.073
 30
0.0
 10
22.1991
 20
14.6195
 30
0.0
 10
20.6046
 20
14.0953
 30
0.0
 10
20.0906
 20
13.189
 30
0.0
 10
20.0906
 20
13.189
 30
0.0
 10
19.5767
 20
14.0953
 30
0.0
 10
17.9821
 20
14.6195
 30
0.0
 10
17.3044
 20
14.073
 30
0.0
 10
17.3044
 20
14.073
 30
0.0
 10
16.8272
 20
13.6882
 30
0.0
 10
16.2553
 20
12.4179
 30
0.0
 10
17.548
 20
9.9382
 30
0.0
 10
17.548
 20
9.9382
 30
0.0
 10
15.5182
 20
11.8264
 30
0.0
 10
9.8693
 20
10.862
 30
0.0
 10
9.8693
 20
8.7091
 30
0.0
 10
9.8693
 20
8.7091
 30
0.0
 10
9.8693
 20
6.5562
 30
0.0
 10
15.5182
 20
5.5917
 30
0.0
 10
17.548
 20
7.48
 30
0.0
 10
17.548
 20
7.48
 30
0.0
 10
16.2553
 20
5.0003
 30
0.0
 10
16.8272
 20
3.73
 30
0.0
 10
17.3044
 20
3.3452
 30
0.0
 10
17.3044
 20
3.3452
 30
0.0
 10
17.9821
 20
2.7986
 30
0.0
 10
19.5767
 20
3.3229
 30
0.0
 10
20.0906
 20
4.2292
 30
0.0
 10
20.0906
 20
4.2292
 30
0.0
 10
20.6046
 20
3.3229
 30
0.0
 10
22.1991
 20
2.7986
 30
0.0
 10
22.8768
 20
3.3452
 30
0.0
 10
22.8768
 20
3.3452
 30
0.0
 10
23.354
 20
3.73
 30
0.0
 10
23.926
 20
5.0003
 30
0.0
 10
22.6332
 20
7.48
 30
0.0
 10
22.6332
 20
7.48
 30
0.0
 10
24.663
 20
5.5917
 30
0.0
 10
30.312
 20
6.5562
 30
0.0
 10
30.312
 20
8.7091
 30
0.0
  0
SPLINE
  5
42
330
1F
100
AcDbEntity
  8
layer 1
 62
   250
100
AcDbSpline
210
0.0
220
0.0
230
1.0
 70
    11
 71
     3
 72
    68
 73
    64
 74
     0
 42
0.0000000001
 43
0.0000000001
 12
1.0
 22
0.0
 32
0.0
 13
1.0
 23
0.0
 33
0.0
 40
0.0
 40
0.0
 40
0.0
 40
0.0
 40
0.0588235294117647
 40
0.0588235294117647
 40
0.0588235294117647
 40
0.0588235294117647
 40
0.1176470588235294
 40
0.1176470588235294
 40
0.1176470588235294
 40
0.1176470588235294
 40
0.1764705882352941
 40
0.1764705882352941
 40
0.1764705882352941
 40
0.1764705882352941
 40
0.2352941176470588
 40
0.2352941176470588
 40
0.2352941176470588
 40
0.2352941176470588
 40
0.2941176470588235
 40
0.2941176470588235
 40
0.2941176470588235
 40
0.2941176470588235
 40
0.3529411764705883
 40
0.3529411764705883
 40
0.3529411764705883
 40
0.3529411764705883
 40
0.4117647058823529
 40
0.4117647058823529
 40
0.4117647058823529
 40
0.4117647058823529
 40
0.4705882352941176
 40
0.4705882352941176
 40
0.4705882352941176
 40
0.4705882352941176
 40
0.5294117647058824
 40
0.5294117647058824
 40
0.5294117647058824
 40
0.5294117647058824
 40
0.5882352941176471
 40
0.5882352941176471
 40
0.5882352941176471
 40
0.5882352941176471
 40
0.6470588235294118
 40
0.6470588235294118
 40
0.6470588235294118
 40
0.6470588235294118
 40
0.7058823529411765
 40
0.7058823529411765
 40
0.7058823529411765
 40
0.7058823529411765
 40
0.7647058823529411
 40
0.7647058823529411
 40
0.7647058823529411
 40
0.7647058823529411
 40
0.8235294117647058
 40
0.8235294117647058
 40
0.8235294117647058
 40
0.8235294117647058
 40
0.8823529411764706
 40
0.8823529411764706
 40
0.8823529411764706
 40
0.8823529411764706
 40
1.0
 40
1.0
 40
1.0
 40
1.0
 10
20.0906
 20
16.9226
 30
0.0
 10
21.8061
 20
18.8435
 30
0.0
 10
25.1558
 20
18.2701
 30
0.0
 10
26.0113
 20
15.5463
 30
0.0
 10
26.0113
 20
15.5463
 30
0.0
 10
28.3767
 20
17.84
 30
0.0
 10
34.0398
 20
21.6929
 30
0.0
 10
34.2149
 20
27.0185
 30
0.0
 10
34.2149
 20
27.0185
 30
0.0
 10
34.2981
 20
29.5532
 30
0.0
 10
32.8137
 20
32.1398
 30
0.0
 10
29.5044
 20
32.2463
 30
0.0
 10
29.5044
 20
32.2463
 30
0.0
 10
27.6024
 20
32.3073
 30
0.0
 10
25.5393
 20
31.4897
 30
0.0
 10
25.0052
 20
29.831
 30
0.0
 10
25.0052
 20
29.831
 30
0.0
 10
24.9445
 20
29.6425
 30
0.0
 10
25.0863
 20
29.466
 30
0.0
 10
25.3347
 20
29.524
 30
0.0
 10
25.3347
 20
29.524
 30
0.0
 10
27.7015
 20
30.0769
 30
0.0
 10
29.9954
 20
28.682
 30
0.0
 10
29.9411
 20
25.4675
 30
0.0
 10
29.9411
 20
25.4675
 30
0.0
 10
29.8955
 20
22.7618
 30
0.0
 10
27.6688
 20
21.0434
 30
0.0
 10
24.8673
 20
21.0144
 30
0.0
 10
24.8673
 20
21.0144
 30
0.0
 10
22.5917
 20
20.9909
 30
0.0
 10
20.6263
 20
22.7285
 30
0.0
 10
20.0906
 20
24.5778
 30
0.0
 10
20.0906
 20
24.5778
 30
0.0
 10
19.5549
 20
22.7285
 30
0.0
 10
17.5895
 20
20.9909
 30
0.0
 10
15.3139
 20
21.0144
 30
0.0
 10
15.3139
 20
21.0144
 30
0.0
 10
12.5124
 20
21.0434
 30
0.0
 10
10.2858
 20
22.7618
 30
0.0
 10
10.2401
 20
25.4675
 30
0.0
 10
10.2401
 20
25.4675
 30
0.0
 10
10.1859
 20
28.682
 30
0.0
 10
12.4797
 20
30.0769
 30
0.0
 10
14.8465
 20
29.524
 30
0.0
 10
14.8465
 20
29.524
 30
0.0
 10
15.095
 20
29.466
 30
0.0
 10
15.2367
 20
29.6425
 30
0.0
 10
15.176
 20
29.831
 30
0.0
 10
15.176
 20
29.831
 30
0.0
 10
14.6419
 20
31.4897
 30
0.0
 10
12.5788
 20
32.3073
 30
0.0
 10
10.6769
 20
32.2463
 30
0.0
 10
10.6769
 20
32.2463
 30
0.0
 10
7.3676
 20
32.1398
 30
0.0
 10
5.8831
 20
29.5532
 30
0.0
 10
5.9664
 20
27.0185
 30
0.0
 10
5.9664
 20
27.0185
 30
0.0
 10
6.1414
 20
21.6929
 30
0.0
 10
11.8046
 20
17.84
 30
0.0
 10
14.17
 20
15.5463
 30
0.0
 10
14.17
 20
15.5463
 30
0.0
 10
15.0254
 20
18.2701
 30
0.0
 10
18.3751
 20
18.8435
 30
0.0
 10
20.0906
 20
16.9226
 30
0.0
  0
SPLINE
  5
43
330
1F
100
AcDbEntity
  8
layer 1
 62
   250
100
AcDbSpline
210
0.0
220
0.0
230
1.0
 70
    11
 71
     3
 72
   132
 73
   128
 74
     0
 42
0.0000000001
 43
0.0000000001
 12
1.0
 22
0.0
 32
0.0
 13
1.0
 23
0.0
 33
0.0
 40
0.0
 40
0.0
 40
0.0
 40
0.0
 40
0.0303030303030303
 40
0.0303030303030303
 40
0.0303030303030303
 40
0.0303030303030303
 40
0.0606060606060606
 40
0.0606060606060606
 40
0.0606060606060606
 40
0.0606060606060606
 40
0.0909090909090909
 40
0.0909090909090909
 40
0.0909090909090909
 40
0.0909090909090909
 40
0.1212121212121212
 40
0.1212121212121212
 40
0.1212121212121212
 40
0.1212121212121212
 40
0.1515151515151515
 40
0.1515151515151515
 40
0.1515151515151515
 40
0.1515151515151515
 40
0.1818181818181818
 40
0.1818181818181818
 40
0.1818181818181818
 40
0.1818181818181818
 40
0.2121212121212121
 40
0.2121212121212121
 40
0.2121212121212121
 40
0.2121212121212121
 40
0.2424242424242424
 40
0.2424242424242424
 40
0.2424242424242424
 40
0.2424242424242424
 40
0.2727272727272727
 40
0.2727272727272727
 40
0.2727272727272727
 40
0.2727272727272727
 40
0.303030303030303
 40
0.303030303030303
 40
0.303030303030303
 40
0.303030303030303
 40
0.3333333333333333
 40
0.3333333333333333
 40
0.3333333333333333
 40
0.3333333333333333
 40
0.3636363636363636
 40
0.3636363636363636
 40
0.3636363636363636
 40
0.3636363636363636
 40
0.3939393939393939
 40
0.3939393939393939
 40
0.3939393939393939
 40
0.3939393939393939
 40
0.4242424242424243
 40
0.4242424242424243
 40
0.4242424242424243
 40
0.4242424242424243
 40
0.4545454545454545
 40
0.4545454545454545
 40
0.4545454545454545
 40
0.4545454545454545
 40
0.4848484848484849
 40
0.4848484848484849
 40
0.4848484848484849
 40
0.4848484848484849
 40
0.5151515151515151
 40
0.5151515151515151
 40
0.5151515151515151
 40
0.5151515151515151
 40
0.5454545454545454
 40
0.5454545454545454
 40
0.5454545454545454
 40
0.5454545454545454
 40
0.5757575757575758
 40
0.5757575757575758
 40
0.5757575757575758
 40
0.5757575757575758
 40
0.6060606060606061
 40
0.6060606060606061
 40
0.6060606060606061
 40
0.6060606060606061
 40
0.6363636363636364
 40
0.6363636363636364
 40
0.6363636363636364
 40
0.6363636363636364
 40
0.6666666666666666
 40
0.6666666666666666
 40
0.6666666666666666
 40
0.6666666666666666
 40
0.696969696969697
 40
0.696969696969697
 40
0.696969696969697
 40
0.696969696969697
 40
0.7272727272727273
 40
0.7272727272727273
 40
0.7272727272727273
 40
0.7272727272727273
 40
0.7575757575757576
 40
0.7575757575757576
 40
0.7575757575757576
 40
0.7575757575757576
 40
0.7878787878787878
 40
0.7878787878787878
 40
0.7878787878787878
 40
0.7878787878787878
 40
0.8181818181818182
 40
0.8181818181818182
 40
0.8181818181818182
 40
0.8181818181818182
 40
0.8484848484848485
 40
0.8484848484848485
 40
0.8484848484848485
 40
0.8484848484848485
 40
0.8787878787878788
 40
0.8787878787878788
 40
0.8787878787878788
 40
0.8787878787878788
 40
0.9090909090909091
 40
0.9090909090909091
 40
0.9090909090909091
 40
0.9090909090909091
 40
0.9393939393939394
 40
0.9393939393939394
 40
0.9393939393939394
 40
0.9393939393939394
 40
1.0
 40
1.0
 40
1.0
 40
1.0
 10
20.0906
 20
31.1841
 30
0.0
 10
21.394
 20
34.3356
 30
0.0
 10
25.4403
 20
36.5728
 30
0.0
 10
29.0782
 20
36.5446
 30
0.0
 10
29.0782
 20
36.5446
 30
0.0
 10
33.1941
 20
36.5125
 30
0.0
 10
37.3006
 20
34.5858
 30
0.0
 10
38.5451
 20
29.1819
 30
0.0
 10
38.5451
 20
29.1819
 30
0.0
 10
38.6897
 20
28.5541
 30
0.0
 10
39.1668
 20
28.5465
 30
0.0
 10
39.3867
 20
29.0653
 30
0.0
 10
39.3867
 20
29.0653
 30
0.0
 10
40.6631
 20
32.0773
 30
0.0
 10
40.8167
 20
34.5802
 30
0.0
 10
40.3591
 20
38.0043
 30
0.0
 10
40.3591
 20
38.0043
 30
0.0
 10
41.1144
 20
37.2407
 30
0.0
 10
41.7441
 20
36.1452
 30
0.0
 10
42.1882
 20
34.5858
 30
0.0
 10
42.1882
 20
34.5858
 30
0.0
 10
42.3096
 20
34.1591
 30
0.0
 10
42.7878
 20
33.9468
 30
0.0
 10
43.0227
 20
34.3568
 30
0.0
 10
43.0227
 20
34.3568
 30
0.0
 10
45.4255
 20
38.5517
 30
0.0
 10
46.5846
 20
42.361
 30
0.0
 10
46.4582
 20
46.0536
 30
0.0
 10
46.4582
 20
46.0536
 30
0.0
 10
46.2723
 20
51.4868
 30
0.0
 10
43.4456
 20
56.7296
 30
0.0
 10
35.2412
 20
56.8184
 30
0.0
 10
35.2412
 20
56.8184
 30
0.0
 10
31.2874
 20
56.8612
 30
0.0
 10
29.0972
 20
54.5446
 30
0.0
 10
28.6666
 20
52.529
 30
0.0
 10
28.6666
 20
52.529
 30
0.0
 10
28.1786
 20
50.2447
 30
0.0
 10
29.4168
 20
47.2687
 30
0.0
 10
32.3157
 20
47.2531
 30
0.0
 10
32.3157
 20
47.2531
 30
0.0
 10
34.871
 20
47.2393
 30
0.0
 10
36.546
 20
48.9098
 30
0.0
 10
36.9351
 20
52.0164
 30
0.0
 10
36.9351
 20
52.0164
 30
0.0
 10
39.346
 20
49.7642
 30
0.0
 10
39.7849
 20
46.7854
 30
0.0
 10
39.5923
 20
44.9327
 30
0.0
 10
39.5923
 20
44.9327
 30
0.0
 10
39.1002
 20
40.1989
 30
0.0
 10
32.7982
 20
38.8887
 30
0.0
 10
30.1399
 20
41.7807
 30
0.0
 10
30.1399
 20
41.7807
 30
0.0
 10
28.7946
 20
40.262
 30
0.0
 10
25.619
 20
39.5898
 30
0.0
 10
23.0867
 20
41.6519
 30
0.0
 10
23.0867
 20
41.6519
 30
0.0
 10
20.6686
 20
43.621
 30
0.0
 10
21.9372
 20
47.9585
 30
0.0
 10
23.8609
 20
49.2639
 30
0.0
 10
23.8609
 20
49.2639
 30
0.0
 10
22.432
 20
49.78
 30
0.0
 10
20.9508
 20
51.0702
 30
0.0
 10
20.0906
 20
52.3604
 30
0.0
 10
20.0906
 20
52.3604
 30
0.0
 10
19.2305
 20
51.0702
 30
0.0
 10
17.7492
 20
49.78
 30
0.0
 10
16.3203
 20
49.2639
 30
0.0
 10
16.3203
 20
49.2639
 30
0.0
 10
18.244
 20
47.9585
 30
0.0
 10
19.5126
 20
43.621
 30
0.0
 10
17.0946
 20
41.6519
 30
0.0
 10
17.0946
 20
41.6519
 30
0.0
 10
14.5622
 20
39.5898
 30
0.0
 10
11.3866
 20
40.262
 30
0.0
 10
10.0413
 20
41.7807
 30
0.0
 10
10.0413
 20
41.7807
 30
0.0
 10
7.383
 20
38.8887
 30
0.0
 10
1.081
 20
40.1989
 30
0.0
 10
0.5889
 20
44.9327
 30
0.0
 10
0.5889
 20
44.9327
 30
0.0
 10
0.3964
 20
46.7854
 30
0.0
 10
0.8352
 20
49.7642
 30
0.0
 10
3.2462
 20
52.0164
 30
0.0
 10
3.2462
 20
52.0164
 30
0.0
 10
3.6352
 20
48.9098
 30
0.0
 10
5.3103
 20
47.2393
 30
0.0
 10
7.8655
 20
47.2531
 30
0.0
 10
7.8655
 20
47.2531
 30
0.0
 10
10.7645
 20
47.2687
 30
0.0
 10
12.0026
 20
50.2447
 30
0.0
 10
11.5146
 20
52.529
 30
0.0
 10
11.5146
 20
52.529
 30
0.0
 10
11.084
 20
54.5446
 30
0.0
 10
8.8939
 20
56.8612
 30
0.0
 10
4.94
 20
56.8184
 30
0.0
 10
4.94
 20
56.8184
 30
0.0
 10
-3.2644
 20
56.7296
 30
0.0
 10
-6.0911
 20
51.4868
 30
0.0
 10
-6.277
 20
46.0536
 30
0.0
 10
-6.277
 20
46.0536
 30
0.0
 10
-6.4033
 20
42.361
 30
0.0
 10
-5.2443
 20
38.5517
 30
0.0
 10
-2.8415
 20
34.3568
 30
0.0
 10
-2.8415
 20
34.3568
 30
0.0
 10
-2.6066
 20
33.9468
 30
0.0
 10
-2.1284
 20
34.1591
 30
0.0
 10
-2.007
 20
34.5858
 30
0.0
 10
-2.007
 20
34.5858
 30
0.0
 10
-1.5629
 20
36.1452
 30
0.0
 10
-0.9332
 20
37.2407
 30
0.0
 10
-0.1778
 20
38.0043
 30
0.0
 10
-0.1778
 20
38.0043
 30
0.0
 10
-0.6355
 20
34.5802
 30
0.0
 10
-0.4819
 20
32.0773
 30
0.0
 10
0.7945
 20
29.0653
 30
0.0
 10
0.7945
 20
29.0653
 30
0.0
 10
1.0144
 20
28.5465
 30
0.0
 10
1.4915
 20
28.5541
 30
0.0
 10
1.6361
 20
29.1819
 30
0.0
 10
1.6361
 20
29.1819
 30
0.0
 10
2.8806
 20
34.5858
 30
0.0
 10
6.9871
 20
36.5125
 30
0.0
 10
11.103
 20
36.5446
 30
0.0
 10
11.103
 20
36.5446
 30
0.0
 10
14.7409
 20
36.5728
 30
0.0
 10
18.7872
 20
34.3356
 30
0.0
 10
20.0906
 20
31.1841
 30
0.0
  0
SPLINE
  5
44
330
1F
100
AcDbEntity
  8
layer 1
 62
   250
100
AcDbSpline
210
0.0
220
0.0
230
1.0
 70
    11
 71
     3
 72
    20
 73
    16
 74
     0
 42
0.0000000001
 43
0.0000000001
 12
1.0
 22
0.0
 32
0.0
 13
1.0
 23
0.0
 33
0.0
 40
0.0
 40
0.0
 40
0.0
 40
0.0
 40
0.2
 40
0.2
 40
0.2
 40
0.2
 40
0.4
 40
0.4
 40
0.4
 40
0.4
 40
0.6
 40
0.6
 40
0.6
 40
0.6
 40
1.0
 40
1.0
 40
1.0
 40
1.0
 10
20.0906
 20
55.8073
 30
0.0
 10
23.369
 20
57.4471
 30
0.0
 10
27.3373
 20
61.5603
 30
0.0
 10
27.4518
 20
65.118
 30
0.0
 10
27.4518
 20
65.118
 30
0.0
 10
27.6565
 20
71.4771
 30
0.0
 10
22.4269
 20
71.6171
 30
0.0
 10
20.0906
 20
69.6902
 30
0.0
 10
20.0906
 20
69.6902
 30
0.0
 10
17.7543
 20
71.6171
 30
0.0
 10
12.5247
 20
71.4771
 30
0.0
 10
12.7295
 20
65.118
 30
0.0
 10
12.7295
 20
65.118
 30
0.0
 10
12.8439
 20
61.5603
 30
0.0
 10
16.8122
 20
57.4471
 30
0.0
 10
20.0906
 20
55.8073
 30
0.0
  0
SPLINE
  5
45
330
1F
100
AcDbEntity
  8
layer 1
 62
   250
100
AcDbSpline
210
0.0
220
0.0
230
1.0
 70
    11
 71
     3
 72
    92
 73
    88
 74
     0
 42
0.0000000001
 43
0.0000000001
 12
1.0
 22
0.0
 32
0.0
 13
1.0
 23
0.0
 33
0.0
 40
0.0
 40
0.0
 40
0.0
 40
0.0
 40
0.0434782608695652
 40
0.0434782608695652
 40
0.0434782608695652
 40
0.0434782608695652
 40
0.0869565217391304
 40
0.0869565217391304
 40
0.0869565217391304
 40
0.0869565217391304
 40
0.1304347826086956
 40
0.1304347826086956
 40
0.1304347826086956
 40
0.1304347826086956
 40
0.1739130434782609
 40
0.1739130434782609
 40
0.1739130434782609
 40
0.1739130434782609
 40
0.2173913043478261
 40
0.2173913043478261
 40
0.2173913043478261
 40
0.2173913043478261
 40
0.2608695652173913
 40
0.2608695652173913
 40
0.2608695652173913
 40
0.2608695652173913
 40
0.3043478260869565
 40
0.3043478260869565
 40
0.3043478260869565
 40
0.3043478260869565
 40
0.3478260869565217
 40
0.3478260869565217
 40
0.3478260869565217
 40
0.3478260869565217
 40
0.391304347826087
 40
0.391304347826087
 40
0.391304347826087
 40
0.391304347826087
 40
0.4347826086956522
 40
0.4347826086956522
 40
0.4347826086956522
 40
0.4347826086956522
 40
0.4782608695652174
 40
0.4782608695652174
 40
0.4782608695652174
 40
0.4782608695652174
 40
0.5217391304347826
 40
0.5217391304347826
 40
0.5217391304347826
 40
0.5217391304347826
 40
0.5652173913043478
 40
0.5652173913043478
 40
0.5652173913043478
 40
0.5652173913043478
 40
0.6086956521739131
 40
0.6086956521739131
 40
0.6086956521739131
 40
0.6086956521739131
 40
0.6521739130434783
 40
0.6521739130434783
 40
0.6521739130434783
 40
0.6521739130434783
 40
0.6956521739130435
 40
0.6956521739130435
 40
0.6956521739130435
 40
0.6956521739130435
 40
0.7391304347826086
 40
0.7391304347826086
 40
0.7391304347826086
 40
0.7391304347826086
 40
0.782608695652174
 40
0.782608695652174
 40
0.782608695652174
 40
0.782608695652174
 40
0.8260869565217391
 40
0.8260869565217391
 40
0.8260869565217391
 40
0.8260869565217391
 40
0.8695652173913043
 40
0.8695652173913043
 40
0.8695652173913043
 40
0.8695652173913043
 40
0.9130434782608695
 40
0.9130434782608695
 40
0.9130434782608695
 40
0.9130434782608695
 40
1.0
 40
1.0
 40
1.0
 40
1.0
 10
20.0906
 20
74.7283
 30
0.0
 10
21.7306
 20
77.4665
 30
0.0
 10
28.1114
 20
77.0509
 30
0.0
 10
29.2874
 20
72.2555
 30
0.0
 10
29.2874
 20
72.2555
 30
0.0
 10
32.8046
 20
76.784
 30
0.0
 10
36.6285
 20
81.147
 30
0.0
 10
36.7064
 20
85.1498
 30
0.0
 10
36.7064
 20
85.1498
 30
0.0
 10
36.7853
 20
89.2064
 30
0.0
 10
34.3505
 20
92.0216
 30
0.0
 10
31.6816
 20
92.6102
 30
0.0
 10
31.6816
 20
92.6102
 30
0.0
 10
28.8259
 20
93.2399
 30
0.0
 10
25.9735
 20
92.7376
 30
0.0
 10
24.2628
 20
89.822
 30
0.0
 10
24.2628
 20
89.822
 30
0.0
 10
23.6562
 20
88.7884
 30
0.0
 10
23.3023
 20
86.58
 30
0.0
 10
24.407
 20
84.6846
 30
0.0
 10
24.407
 20
84.6846
 30
0.0
 10
24.5097
 20
84.5083
 30
0.0
 10
24.7666
 20
84.5979
 30
0.0
 10
24.7503
 20
84.7937
 30
0.0
 10
24.7503
 20
84.7937
 30
0.0
 10
24.6629
 20
85.8398
 30
0.0
 10
24.9717
 20
86.7432
 30
0.0
 10
25.3985
 20
87.4096
 30
0.0
 10
25.3985
 20
87.4096
 30
0.0
 10
26.1632
 20
88.6034
 30
0.0
 10
28.016
 20
89.4118
 30
0.0
 10
29.6674
 20
88.9335
 30
0.0
 10
29.6674
 20
88.9335
 30
0.0
 10
31.874
 20
88.2943
 30
0.0
 10
32.6489
 20
86.3598
 30
0.0
 10
32.221
 20
83.9906
 30
0.0
 10
32.221
 20
83.9906
 30
0.0
 10
31.7511
 20
81.3891
 30
0.0
 10
29.9093
 20
79.9075
 30
0.0
 10
27.0833
 20
79.7785
 30
0.0
 10
27.0833
 20
79.7785
 30
0.0
 10
24.0646
 20
79.6406
 30
0.0
 10
20.8866
 20
81.3359
 30
0.0
 10
20.0906
 20
84.1779
 30
0.0
 10
20.0906
 20
84.1779
 30
0.0
 10
19.2946
 20
81.3359
 30
0.0
 10
16.1166
 20
79.6406
 30
0.0
 10
13.0979
 20
79.7785
 30
0.0
 10
13.0979
 20
79.7785
 30
0.0
 10
10.2719
 20
79.9075
 30
0.0
 10
8.4301
 20
81.3891
 30
0.0
 10
7.9603
 20
83.9906
 30
0.0
 10
7.9603
 20
83.9906
 30
0.0
 10
7.5323
 20
86.3598
 30
0.0
 10
8.3072
 20
88.2943
 30
0.0
 10
10.5138
 20
88.9335
 30
0.0
 10
10.5138
 20
88.9335
 30
0.0
 10
12.1652
 20
89.4118
 30
0.0
 10
14.018
 20
88.6034
 30
0.0
 10
14.7827
 20
87.4096
 30
0.0
 10
14.7827
 20
87.4096
 30
0.0
 10
15.2095
 20
86.7432
 30
0.0
 10
15.5183
 20
85.8398
 30
0.0
 10
15.4309
 20
84.7937
 30
0.0
 10
15.4309
 20
84.7937
 30
0.0
 10
15.4146
 20
84.5979
 30
0.0
 10
15.6715
 20
84.5083
 30
0.0
 10
15.7742
 20
84.6846
 30
0.0
 10
15.7742
 20
84.6846
 30
0.0
 10
16.879
 20
86.58
 30
0.0
 10
16.5251
 20
88.7884
 30
0.0
 10
15.9185
 20
89.822
 30
0.0
 10
15.9185
 20
89.822
 30
0.0
 10
14.2077
 20
92.7376
 30
0.0
 10
11.3554
 20
93.2399
 30
0.0
 10
8.4996
 20
92.6102
 30
0.0
 10
8.4996
 20
92.6102
 30
0.0
 10
5.8307
 20
92.0216
 30
0.0
 10
3.3959
 20
89.2064
 30
0.0
 10
3.4749
 20
85.1498
 30
0.0
 10
3.4749
 20
85.1498
 30
0.0
 10
3.5527
 20
81.147
 30
0.0
 10
7.3766
 20
76.784
 30
0.0
 10
10.8938
 20
72.2555
 30
0.0
 10
10.8938
 20
72.2555
 30
0.0
 10
12.0698
 20
77.0509
 30
0.0
 10
18.4506
 20
77.4665
 30
0.0
 10
20.0906
 20
74.7283
 30
0.0
  0
SPLINE
  5
46
330
1F
100
AcDbEntity
  8
layer 1
 62
   250
100
AcDbSpline
210
0.0
220
0.0
230
1.0
 70
    11
 71
     3
 72
    48
 73
    44
 74
     0
 42
0.0000000001
 43
0.0000000001
 12
1.0
 22
0.0
 32
0.0
 13
1.0
 23
0.0
 33
0.0
 40
0.0
 40
0.0
 40
0.0
 40
0.0
 40
0.0833333333333333
 40
0.0833333333333333
 40
0.0833333333333333
 40
0.0833333333333333
 40
0.1666666666666667
 40
0.1666666666666667
 40
0.1666666666666667
 40
0.1666666666666667
 40
0.25
 40
0.25
 40
0.25
 40
0.25
 40
0.3333333333333333
 40
0.3333333333333333
 40
0.3333333333333333
 40
0.3333333333333333
 40
0.4166666666666667
 40
0.4166666666666667
 40
0.4166666666666667
 40
0.4166666666666667
 40
0.5
 40
0.5
 40
0.5
 40
0.5
 40
0.5833333333333334
 40
0.5833333333333334
 40
0.5833333333333334
 40
0.5833333333333334
 40
0.6666666666666666
 40
0.6666666666666666
 40
0.6666666666666666
 40
0.6666666666666666
 40
0.75
 40
0.75
 40
0.75
 40
0.75
 40
0.8333333333333334
 40
0.8333333333333334
 40
0.8333333333333334
 40
0.8333333333333334
 40
1.0
 40
1.0
 40
1.0
 40
1.0
 10
35.8392
 20
61.2037
 30
0.0
 10
45.3454
 20
60.2978
 30
0.0
 10
50.5889
 20
54.3952
 30
0.0
 10
50.3073
 20
45.455
 30
0.0
 10
50.3073
 20
45.455
 30
0.0
 10
50.1221
 20
39.5784
 30
0.0
 10
47.2278
 20
34.5165
 30
0.0
 10
44.2819
 20
29.916
 30
0.0
 10
44.2819
 20
29.916
 30
0.0
 10
47.9326
 20
31.4609
 30
0.0
 10
50.7446
 20
32.067
 30
0.0
 10
53.8941
 20
35.0829
 30
0.0
 10
53.8941
 20
35.0829
 30
0.0
 10
52.8954
 20
35.7015
 30
0.0
 10
52.173
 20
36.385
 30
0.0
 10
51.6102
 20
37.2617
 30
0.0
 10
51.6102
 20
37.2617
 30
0.0
 10
53.7138
 20
38.6722
 30
0.0
 10
55.5371
 20
40.8845
 30
0.0
 10
56.8107
 20
43.8657
 30
0.0
 10
56.8107
 20
43.8657
 30
0.0
 10
55.819
 20
44.1269
 30
0.0
 10
54.5068
 20
44.6426
 30
0.0
 10
53.5751
 20
45.1385
 30
0.0
 10
53.5751
 20
45.1385
 30
0.0
 10
54.9912
 20
46.8894
 30
0.0
 10
55.6821
 20
49.9405
 30
0.0
 10
55.9729
 20
53.3452
 30
0.0
 10
55.9729
 20
53.3452
 30
0.0
 10
54.7678
 20
52.8092
 30
0.0
 10
53.8965
 20
52.6964
 30
0.0
 10
52.6612
 20
52.7178
 30
0.0
 10
52.6612
 20
52.7178
 30
0.0
 10
52.9504
 20
55.5143
 30
0.0
 10
52.5418
 20
58.2352
 30
0.0
 10
51.5959
 20
60.9762
 30
0.0
 10
51.5959
 20
60.9762
 30
0.0
 10
50.8356
 20
60.3683
 30
0.0
 10
49.5723
 20
59.7363
 30
0.0
 10
48.5672
 20
59.6163
 30
0.0
 10
48.5672
 20
59.6163
 30
0.0
 10
45.9206
 20
61.8128
 30
0.0
 10
37.8811
 20
65.7612
 30
0.0
 10
35.8392
 20
61.2037
 30
0.0
  0
SPLINE
  5
47
330
1F
100
AcDbEntity
  8
layer 1
 62
   250
100
AcDbSpline
210
0.0
220
0.0
230
1.0
 70
    11
 71
     3
 72
    44
 73
    40
 74
     0
 42
0.0000000001
 43
0.0000000001
 12
1.0
 22
0.0
 32
0.0
 13
1.0
 23
0.0
 33
0.0
 40
0.0
 40
0.0
 40
0.0
 40
0.0
 40
0.0909090909090909
 40
0.0909090909090909
 40
0.0909090909090909
 40
0.0909090909090909
 40
0.1818181818181818
 40
0.1818181818181818
 40
0.1818181818181818
 40
0.1818181818181818
 40
0.2727272727272727
 40
0.2727272727272727
 40
0.2727272727272727
 40
0.2727272727272727
 40
0.3636363636363636
 40
0.3636363636363636
 40
0.3636363636363636
 40
0.3636363636363636
 40
0.4545454545454545
 40
0.4545454545454545
 40
0.4545454545454545
 40
0.4545454545454545
 40
0.5454545454545454
 40
0.5454545454545454
 40
0.5454545454545454
 40
0.5454545454545454
 40
0.6363636363636364
 40
0.6363636363636364
 40
0.6363636363636364
 40
0.6363636363636364
 40
0.7272727272727273
 40
0.7272727272727273
 40
0.7272727272727273
 40
0.7272727272727273
 40
0.8181818181818182
 40
0.8181818181818182
 40
0.8181818181818182
 40
0.8181818181818182
 40
1.0
 40
1.0
 40
1.0
 40
1.0
 10
41.3702
 20
8.7091
 30
0.0
 10
38.8628
 20
10.0284
 30
0.0
 10
38.8685
 20
14.7881
 30
0.0
 10
42.2265
 20
15.9093
 30
0.0
 10
42.2265
 20
15.9093
 30
0.0
 10
42.5707
 20
16.0242
 30
0.0
 10
42.522
 20
16.3276
 30
0.0
 10
42.2517
 20
16.4773
 30
0.0
 10
42.2517
 20
16.4773
 30
0.0
 10
38.1635
 20
18.7408
 30
0.0
 10
33.2431
 20
14.9227
 30
0.0
 10
30.7211
 20
12.5882
 30
0.0
 10
30.7211
 20
12.5882
 30
0.0
 10
30.2223
 20
12.1265
 30
0.0
 10
30.361
 20
11.2219
 30
0.0
 10
31.1469
 20
11.4701
 30
0.0
 10
31.1469
 20
11.4701
 30
0.0
 10
34.1149
 20
12.4074
 30
0.0
 10
37.1866
 20
11.6041
 30
0.0
 10
36.8903
 20
8.7091
 30
0.0
 10
36.8903
 20
8.7091
 30
0.0
 10
37.1866
 20
5.8141
 30
0.0
 10
34.1149
 20
5.0108
 30
0.0
 10
31.1469
 20
5.9481
 30
0.0
 10
31.1469
 20
5.9481
 30
0.0
 10
30.361
 20
6.1963
 30
0.0
 10
30.2223
 20
5.2917
 30
0.0
 10
30.7211
 20
4.8299
 30
0.0
 10
30.7211
 20
4.8299
 30
0.0
 10
33.2431
 20
2.4955
 30
0.0
 10
38.1635
 20
-1.3227
 30
0.0
 10
42.2517
 20
0.9409
 30
0.0
 10
42.2517
 20
0.9409
 30
0.0
 10
42.522
 20
1.0906
 30
0.0
 10
42.5707
 20
1.394
 30
0.0
 10
42.2265
 20
1.5089
 30
0.0
 10
42.2265
 20
1.5089
 30
0.0
 10
38.8685
 20
2.6301
 30
0.0
 10
38.8628
 20
7.3898
 30
0.0
 10
41.3702
 20
8.7091
 30
0.0
  0
SPLINE
  5
48
330
1F
100
AcDbEntity
  8
layer 1
 62
   250
100
AcDbSpline
210
0.0
220
0.0
230
1.0
 70
    11
 71
     3
 72
    44
 73
    40
 74
     0
 42
0.0000000001
 43
0.0000000001
 12
1.0
 22
0.0
 32
0.0
 13
1.0
 23
0.0
 33
0.0
 40
0.0
 40
0.0
 40
0.0
 40
0.0
 40
0.0909090909090909
 40
0.0909090909090909
 40
0.0909090909090909
 40
0.0909090909090909
 40
0.1818181818181818
 40
0.1818181818181818
 40
0.1818181818181818
 40
0.1818181818181818
 40
0.2727272727272727
 40
0.2727272727272727
 40
0.2727272727272727
 40
0.2727272727272727
 40
0.3636363636363636
 40
0.3636363636363636
 40
0.3636363636363636
 40
0.3636363636363636
 40
0.4545454545454545
 40
0.4545454545454545
 40
0.4545454545454545
 40
0.4545454545454545
 40
0.5454545454545454
 40
0.5454545454545454
 40
0.5454545454545454
 40
0.5454545454545454
 40
0.6363636363636364
 40
0.6363636363636364
 40
0.6363636363636364
 40
0.6363636363636364
 40
0.7272727272727273
 40
0.7272727272727273
 40
0.7272727272727273
 40
0.7272727272727273
 40
0.8181818181818182
 40
0.8181818181818182
 40
0.8181818181818182
 40
0.8181818181818182
 40
1.0
 40
1.0
 40
1.0
 40
1.0
 10
52.8704
 20
8.7091
 30
0.0
 10
51.9694
 20
9.0996
 30
0.0
 10
51.2149
 20
10.652
 30
0.0
 10
51.2156
 20
12.316
 30
0.0
 10
51.2156
 20
12.316
 30
0.0
 10
51.2163
 20
14.2019
 30
0.0
 10
52.4072
 20
16.83
 30
0.0
 10
55.3992
 20
16.4911
 30
0.0
 10
55.3992
 20
16.4911
 30
0.0
 10
53.9425
 20
21.752
 30
0.0
 10
47.1925
 20
22.3843
 30
0.0
 10
42.3604
 20
20.3758
 30
0.0
 10
42.3604
 20
20.3758
 30
0.0
 10
42.0165
 20
20.2329
 30
0.0
 10
42.2926
 20
19.9191
 30
0.0
 10
42.5634
 20
19.8871
 30
0.0
 10
42.5634
 20
19.8871
 30
0.0
 10
47.2654
 20
19.3313
 30
0.0
 10
52.0224
 20
13.5166
 30
0.0
 10
48.0419
 20
8.7091
 30
0.0
 10
48.0419
 20
8.7091
 30
0.0
 10
52.0224
 20
3.9016
 30
0.0
 10
47.2654
 20
-1.9131
 30
0.0
 10
42.5634
 20
-2.469
 30
0.0
 10
42.5634
 20
-2.469
 30
0.0
 10
42.2926
 20
-2.5009
 30
0.0
 10
42.0165
 20
-2.8147
 30
0.0
 10
42.3604
 20
-2.9576
 30
0.0
 10
42.3604
 20
-2.9576
 30
0.0
 10
47.1925
 20
-4.9662
 30
0.0
 10
53.9425
 20
-4.3338
 30
0.0
 10
55.3992
 20
0.927
 30
0.0
 10
55.3992
 20
0.927
 30
0.0
 10
52.4072
 20
0.5881
 30
0.0
 10
51.2163
 20
3.2163
 30
0.0
 10
51.2156
 20
5.1022
 30
0.0
 10
51.2156
 20
5.1022
 30
0.0
 10
51.2149
 20
6.7662
 30
0.0
 10
51.9694
 20
8.3186
 30
0.0
 10
52.8704
 20
8.7091
 30
0.0
  0
SPLINE
  5
49
330
1F
100
AcDbEntity
  8
layer 1
 62
   250
100
AcDbSpline
210
0.0
220
0.0
230
1.0
 70
    11
 71
     3
 72
    32
 73
    28
 74
     0
 42
0.0000000001
 43
0.0000000001
 12
1.0
 22
0.0
 32
0.0
 13
1.0
 23
0.0
 33
0.0
 40
0.0
 40
0.0
 40
0.0
 40
0.0
 40
0.125
 40
0.125
 40
0.125
 40
0.125
 40
0.25
 40
0.25
 40
0.25
 40
0.25
 40
0.375
 40
0.375
 40
0.375
 40
0.375
 40
0.5
 40
0.5
 40
0.5
 40
0.5
 40
0.625
 40
0.625
 40
0.625
 40
0.625
 40
0.75
 40
0.75
 40
0.75
 40
0.75
 40
1.0
 40
1.0
 40
1.0
 40
1.0
 10
20.0906
 20
122.8592
 30
0.0
 10
21.2887
 20
122.1036
 30
0.0
 10
23.9775
 20
121.9257
 30
0.0
 10
26.1553
 20
123.1331
 30
0.0
 10
26.1553
 20
123.1331
 30
0.0
 10
29.5173
 20
124.9972
 30
0.0
 10
33.8473
 20
126.0079
 30
0.0
 10
38.742
 20
125.1409
 30
0.0
 10
38.742
 20
125.1409
 30
0.0
 10
39.0404
 20
125.7553
 30
0.0
 10
39.2654
 20
126.6332
 30
0.0
 10
39.4549
 20
127.4267
 30
0.0
 10
39.4549
 20
127.4267
 30
0.0
 10
39.4549
 20
127.4267
 30
0.0
 10
0.7263
 20
127.4267
 30
0.0
 10
0.7263
 20
127.4267
 30
0.0
 10
0.7263
 20
127.4267
 30
0.0
 10
0.9158
 20
126.6332
 30
0.0
 10
1.1408
 20
125.7553
 30
0.0
 10
1.4392
 20
125.1409
 30
0.0
 10
1.4392
 20
125.1409
 30
0.0
 10
6.3339
 20
126.0079
 30
0.0
 10
10.6639
 20
124.9972
 30
0.0
 10
14.0259
 20
123.1331
 30
0.0
 10
14.0259
 20
123.1331
 30
0.0
 10
16.2037
 20
121.9257
 30
0.0
 10
18.8926
 20
122.1036
 30
0.0
 10
20.0906
 20
122.8592
 30
0.0
  0
SPLINE
  5
4A
330
1F
100
AcDbEntity
  8
layer 1
 62
   250
100
AcDbSpline
210
0.0
220
0.0
230
1.0
 70
    11
 71
     3
 72
    56
 73
    52
 74
     0
 42
0.0000000001
 43
0.0000000001
 12
1.0
 22
0.0
 32
0.0
 13
1.0
 23
0.0
 33
0.0
 40
0.0
 40
0.0
 40
0.0
 40
0.0
 40
0.0714285714285714
 40
0.0714285714285714
 40
0.0714285714285714
 40
0.0714285714285714
 40
0.1428571428571428
 40
0.1428571428571428
 40
0.1428571428571428
 40
0.1428571428571428
 40
0.2142857142857143
 40
0.2142857142857143
 40
0.2142857142857143
 40
0.2142857142857143
 40
0.2857142857142857
 40
0.2857142857142857
 40
0.2857142857142857
 40
0.2857142857142857
 40
0.3571428571428572
 40
0.3571428571428572
 40
0.3571428571428572
 40
0.3571428571428572
 40
0.4285714285714285
 40
0.4285714285714285
 40
0.4285714285714285
 40
0.4285714285714285
 40
0.5
 40
0.5
 40
0.5
 40
0.5
 40
0.5714285714285714
 40
0.5714285714285714
 40
0.5714285714285714
 40
0.5714285714285714
 40
0.6428571428571429
 40
0.6428571428571429
 40
0.6428571428571429
 40
0.6428571428571429
 40
0.7142857142857143
 40
0.7142857142857143
 40
0.7142857142857143
 40
0.7142857142857143
 40
0.7857142857142857
 40
0.7857142857142857
 40
0.7857142857142857
 40
0.7857142857142857
 40
0.8571428571428571
 40
0.8571428571428571
 40
0.8571428571428571
 40
0.8571428571428571
 40
1.0
 40
1.0
 40
1.0
 40
1.0
 10
60.4098
 20
81.0675
 30
0.0
 10
59.9609
 20
83.3573
 30
0.0
 10
58.1972
 20
84.5149
 30
0.0
 10
56.9854
 20
84.8672
 30
0.0
 10
56.9854
 20
84.8672
 30
0.0
 10
57.4538
 20
85.2978
 30
0.0
 10
58.1225
 20
86.2453
 30
0.0
 10
58.325
 20
87.238
 30
0.0
 10
58.325
 20
87.238
 30
0.0
 10
57.0745
 20
88.066
 30
0.0
 10
54.1604
 20
88.6846
 30
0.0
 10
51.6884
 20
88.452
 30
0.0
 10
51.6884
 20
88.452
 30
0.0
 10
51.0889
 20
88.3956
 30
0.0
 10
50.8365
 20
88.9057
 30
0.0
 10
51.254
 20
89.252
 30
0.0
 10
51.254
 20
89.252
 30
0.0
 10
53.9723
 20
91.5067
 30
0.0
 10
56.2522
 20
94.6121
 30
0.0
 10
57.7982
 20
97.6069
 30
0.0
 10
57.7982
 20
97.6069
 30
0.0
 10
56.839
 20
97.8995
 30
0.0
 10
55.8438
 20
98.4657
 30
0.0
 10
54.9366
 20
99.1657
 30
0.0
 10
54.9366
 20
99.1657
 30
0.0
 10
56.5369
 20
101.8009
 30
0.0
 10
58.202
 20
106.0997
 30
0.0
 10
58.6212
 20
110.1001
 30
0.0
 10
58.6212
 20
110.1001
 30
0.0
 10
57.6087
 20
110.1677
 30
0.0
 10
55.9132
 20
110.4402
 30
0.0
 10
55.0716
 20
110.6785
 30
0.0
 10
55.0716
 20
110.6785
 30
0.0
 10
55.8935
 20
115.3198
 30
0.0
 10
56.1852
 20
119.9775
 30
0.0
 10
54.0618
 20
124.4431
 30
0.0
 10
54.0618
 20
124.4431
 30
0.0
 10
52.9964
 20
123.5853
 30
0.0
 10
51.3847
 20
122.6933
 30
0.0
 10
50.1487
 20
122.177
 30
0.0
 10
50.1487
 20
122.177
 30
0.0
 10
49.0265
 20
124.1806
 30
0.0
 10
47.7205
 20
126.1713
 30
0.0
 10
45.8501
 20
127.4267
 30
0.0
 10
45.8501
 20
127.4267
 30
0.0
 10
45.8501
 20
127.4267
 30
0.0
 10
60.4098
 20
127.4267
 30
0.0
 10
60.4098
 20
127.4267
 30
0.0
 10
60.4098
 20
127.4267
 30
0.0
 10
60.4098
 20
127.4267
 30
0.0
 10
60.4098
 20
81.0675
 30
0.0
 10
60.4098
 20
81.0675
 30
0.0
  0
SPLINE
  5
4B
330
1F
100
AcDbEntity
  8
layer 1
 62
   250
100
AcDbSpline
210
0.0
220
0.0
230
1.0
 70
    11
 71
     3
 72
    96
 73
    92
 74
     0
 42
0.0000000001
 43
0.0000000001
 12
1.0
 22
0.0
 32
0.0
 13
1.0
 23
0.0
 33
0.0
 40
0.0
 40
0.0
 40
0.0
 40
0.0
 40
0.0416666666666667
 40
0.0416666666666667
 40
0.0416666666666667
 40
0.0416666666666667
 40
0.0833333333333333
 40
0.0833333333333333
 40
0.0833333333333333
 40
0.0833333333333333
 40
0.125
 40
0.125
 40
0.125
 40
0.125
 40
0.1666666666666667
 40
0.1666666666666667
 40
0.1666666666666667
 40
0.1666666666666667
 40
0.2083333333333333
 40
0.2083333333333333
 40
0.2083333333333333
 40
0.2083333333333333
 40
0.25
 40
0.25
 40
0.25
 40
0.25
 40
0.2916666666666667
 40
0.2916666666666667
 40
0.2916666666666667
 40
0.2916666666666667
 40
0.3333333333333333
 40
0.3333333333333333
 40
0.3333333333333333
 40
0.3333333333333333
 40
0.375
 40
0.375
 40
0.375
 40
0.375
 40
0.4166666666666667
 40
0.4166666666666667
 40
0.4166666666666667
 40
0.4166666666666667
 40
0.4583333333333333
 40
0.4583333333333333
 40
0.4583333333333333
 40
0.4583333333333333
 40
0.5
 40
0.5
 40
0.5
 40
0.5
 40
0.5416666666666666
 40
0.5416666666666666
 40
0.5416666666666666
 40
0.5416666666666666
 40
0.5833333333333334
 40
0.5833333333333334
 40
0.5833333333333334
 40
0.5833333333333334
 40
0.625
 40
0.625
 40
0.625
 40
0.625
 40
0.6666666666666666
 40
0.6666666666666666
 40
0.6666666666666666
 40
0.6666666666666666
 40
0.7083333333333334
 40
0.7083333333333334
 40
0.7083333333333334
 40
0.7083333333333334
 40
0.75
 40
0.75
 40
0.75
 40
0.75
 40
0.7916666666666666
 40
0.7916666666666666
 40
0.7916666666666666
 40
0.7916666666666666
 40
0.8333333333333334
 40
0.8333333333333334
 40
0.8333333333333334
 40
0.8333333333333334
 40
0.875
 40
0.875
 40
0.875
 40
0.875
 40
0.9166666666666666
 40
0.9166666666666666
 40
0.9166666666666666
 40
0.9166666666666666
 40
1.0
 40
1.0
 40
1.0
 40
1.0
 10
57.8779
 20
74.9417
 30
0.0
 10
59.1681
 20
75.1199
 30
0.0
 10
60.2617
 20
76.0476
 30
0.0
 10
60.4098
 20
78.1098
 30
0.0
 10
60.4098
 20
78.1098
 30
0.0
 10
60.4098
 20
78.1098
 30
0.0
 10
60.4098
 20
45.5972
 30
0.0
 10
60.4098
 20
45.5972
 30
0.0
 10
60.4098
 20
45.5972
 30
0.0
 10
59.5563
 20
45.7927
 30
0.0
 10
57.9232
 20
46.2216
 30
0.0
 10
57.2929
 20
46.5238
 30
0.0
 10
57.2929
 20
46.5238
 30
0.0
 10
58.3323
 20
49.1949
 30
0.0
 10
59.0766
 20
54.4322
 30
0.0
 10
58.8354
 20
56.6639
 30
0.0
 10
58.8354
 20
56.6639
 30
0.0
 10
58.1369
 20
56.3659
 30
0.0
 10
56.8426
 20
56.1117
 30
0.0
 10
56.0059
 20
56.1231
 30
0.0
 10
56.0059
 20
56.1231
 30
0.0
 10
55.8055
 20
59.1637
 30
0.0
 10
54.8099
 20
63.3781
 30
0.0
 10
52.425
 20
65.657
 30
0.0
 10
52.425
 20
65.657
 30
0.0
 10
51.5261
 20
64.8733
 30
0.0
 10
50.1034
 20
63.8147
 30
0.0
 10
48.6472
 20
63.4765
 30
0.0
 10
48.6472
 20
63.4765
 30
0.0
 10
45.9329
 20
66.9109
 30
0.0
 10
38.3288
 20
68.0379
 30
0.0
 10
33.5505
 20
65.7221
 30
0.0
 10
33.5505
 20
65.7221
 30
0.0
 10
33.1955
 20
65.5501
 30
0.0
 10
32.6354
 20
66.0387
 30
0.0
 10
33.04
 20
66.3959
 30
0.0
 10
33.04
 20
66.3959
 30
0.0
 10
35.7538
 20
68.7905
 30
0.0
 10
39.0064
 20
69.9965
 30
0.0
 10
41.9414
 20
70.4982
 30
0.0
 10
41.9414
 20
70.4982
 30
0.0
 10
40.9258
 20
71.1545
 30
0.0
 10
39.4384
 20
71.544
 30
0.0
 10
37.6568
 20
72.0152
 30
0.0
 10
37.6568
 20
72.0152
 30
0.0
 10
37.5082
 20
72.0546
 30
0.0
 10
37.2947
 20
72.4537
 30
0.0
 10
37.5232
 20
72.7758
 30
0.0
 10
37.5232
 20
72.7758
 30
0.0
 10
40.6431
 20
77.1742
 30
0.0
 10
46.373
 20
82.9907
 30
0.0
 10
49.5376
 20
82.5895
 30
0.0
 10
49.5376
 20
82.5895
 30
0.0
 10
50.5526
 20
82.4609
 30
0.0
 10
52.0891
 20
82.2257
 30
0.0
 10
51.8329
 20
79.4875
 30
0.0
 10
51.8329
 20
79.4875
 30
0.0
 10
51.6384
 20
77.4087
 30
0.0
 10
48.596
 20
76.2528
 30
0.0
 10
46.5187
 20
78.365
 30
0.0
 10
46.5187
 20
78.365
 30
0.0
 10
44.4444
 20
76.1342
 30
0.0
 10
46.1155
 20
71.9255
 30
0.0
 10
48.9611
 20
71.993
 30
0.0
 10
48.9611
 20
71.993
 30
0.0
 10
50.7089
 20
72.0343
 30
0.0
 10
51.5365
 20
72.7743
 30
0.0
 10
52.0879
 20
73.6326
 30
0.0
 10
52.0879
 20
73.6326
 30
0.0
 10
52.3404
 20
74.0257
 30
0.0
 10
53.2901
 20
73.7867
 30
0.0
 10
52.7366
 20
72.9117
 30
0.0
 10
52.7366
 20
72.9117
 30
0.0
 10
52.222
 20
72.0979
 30
0.0
 10
51.6545
 20
71.314
 30
0.0
 10
51.6619
 20
70.4177
 30
0.0
 10
51.6619
 20
70.4177
 30
0.0
 10
51.68
 20
68.2015
 30
0.0
 10
53.3563
 20
67.0363
 30
0.0
 10
55.4614
 20
67.0617
 30
0.0
 10
55.4614
 20
67.0617
 30
0.0
 10
58.1334
 20
67.094
 30
0.0
 10
59.0711
 20
68.6203
 30
0.0
 10
59.0487
 20
70.6152
 30
0.0
 10
59.0487
 20
70.6152
 30
0.0
 10
59.0273
 20
72.5295
 30
0.0
 10
57.8135
 20
73.3818
 30
0.0
 10
57.4407
 20
73.9676
 30
0.0
 10
57.4407
 20
73.9676
 30
0.0
 10
57.0785
 20
74.537
 30
0.0
 10
57.5938
 20
74.9025
 30
0.0
 10
57.8779
 20
74.9417
 30
0.0
  0
SPLINE
  5
4C
330
1F
100
AcDbEntity
  8
layer 1
 62
   250
100
AcDbSpline
210
0.0
220
0.0
230
1.0
 70
    11
 71
     3
 72
   100
 73
    96
 74
     0
 42
0.0000000001
 43
0.0000000001
 12
1.0
 22
0.0
 32
0.0
 13
1.0
 23
0.0
 33
0.0
 40
0.0
 40
0.0
 40
0.0
 40
0.0
 40
0.04
 40
0.04
 40
0.04
 40
0.04
 40
0.08
 40
0.08
 40
0.08
 40
0.08
 40
0.12
 40
0.12
 40
0.12
 40
0.12
 40
0.16
 40
0.16
 40
0.16
 40
0.16
 40
0.2
 40
0.2
 40
0.2
 40
0.2
 40
0.24
 40
0.24
 40
0.24
 40
0.24
 40
0.28
 40
0.28
 40
0.28
 40
0.28
 40
0.32
 40
0.32
 40
0.32
 40
0.32
 40
0.36
 40
0.36
 40
0.36
 40
0.36
 40
0.4
 40
0.4
 40
0.4
 40
0.4
 40
0.44
 40
0.44
 40
0.44
 40
0.44
 40
0.48
 40
0.48
 40
0.48
 40
0.48
 40
0.52
 40
0.52
 40
0.52
 40
0.52
 40
0.56
 40
0.56
 40
0.56
 40
0.56
 40
0.6
 40
0.6
 40
0.6
 40
0.6
 40
0.64
 40
0.64
 40
0.64
 40
0.64
 40
0.68
 40
0.68
 40
0.68
 40
0.68
 40
0.72
 40
0.72
 40
0.72
 40
0.72
 40
0.76
 40
0.76
 40
0.76
 40
0.76
 40
0.8
 40
0.8
 40
0.8
 40
0.8
 40
0.84
 40
0.84
 40
0.84
 40
0.84
 40
0.88
 40
0.88
 40
0.88
 40
0.88
 40
0.92
 40
0.92
 40
0.92
 40
0.92
 40
1.0
 40
1.0
 40
1.0
 40
1.0
 10
20.0906
 20
91.0871
 30
0.0
 10
21.4506
 20
94.6168
 30
0.0
 10
25.8625
 20
96.9767
 30
0.0
 10
30.1934
 20
96.7813
 30
0.0
 10
30.1934
 20
96.7813
 30
0.0
 10
34.2974
 20
96.5961
 30
0.0
 10
38.9286
 20
94.4897
 30
0.0
 10
40.7788
 20
90.1707
 30
0.0
 10
40.7788
 20
90.1707
 30
0.0
 10
42.6924
 20
92.622
 30
0.0
 10
45.4235
 20
96.4463
 30
0.0
 10
45.6393
 20
102.2731
 30
0.0
 10
45.6393
 20
102.2731
 30
0.0
 10
45.9635
 20
111.0263
 30
0.0
 10
41.1409
 20
114.5254
 30
0.0
 10
35.3305
 20
114.5802
 30
0.0
 10
35.3305
 20
114.5802
 30
0.0
 10
29.2455
 20
114.6375
 30
0.0
 10
29.0199
 20
106.6116
 30
0.0
 10
33.7245
 20
106.1082
 30
0.0
 10
33.7245
 20
106.1082
 30
0.0
 10
36.6938
 20
105.7905
 30
0.0
 10
38.8375
 20
106.9442
 30
0.0
 10
40.0971
 20
109.0798
 30
0.0
 10
40.0971
 20
109.0798
 30
0.0
 10
42.11
 20
104.3579
 30
0.0
 10
40.166
 20
101.4806
 30
0.0
 10
36.336
 20
102.2257
 30
0.0
 10
36.336
 20
102.2257
 30
0.0
 10
35.9913
 20
97.1313
 30
0.0
 10
27.8178
 20
99.4901
 30
0.0
 10
26.7657
 20
103.3092
 30
0.0
 10
26.7657
 20
103.3092
 30
0.0
 10
26.1205
 20
102.4563
 30
0.0
 10
24.5992
 20
101.3758
 30
0.0
 10
23.5194
 20
100.8784
 30
0.0
 10
23.5194
 20
100.8784
 30
0.0
 10
22.859
 20
102.5427
 30
0.0
 10
22.6063
 20
104.2959
 30
0.0
 10
22.6314
 20
106.0052
 30
0.0
 10
22.6314
 20
106.0052
 30
0.0
 10
22.6956
 20
110.3744
 30
0.0
 10
24.7819
 20
114.2522
 30
0.0
 10
29.2936
 20
115.5597
 30
0.0
 10
29.2936
 20
115.5597
 30
0.0
 10
26.6339
 20
115.7885
 30
0.0
 10
20.8983
 20
118.7361
 30
0.0
 10
20.0906
 20
121.0518
 30
0.0
 10
20.0906
 20
121.0518
 30
0.0
 10
19.2829
 20
118.7361
 30
0.0
 10
13.5474
 20
115.7885
 30
0.0
 10
10.8876
 20
115.5597
 30
0.0
 10
10.8876
 20
115.5597
 30
0.0
 10
15.3994
 20
114.2522
 30
0.0
 10
17.4857
 20
110.3744
 30
0.0
 10
17.5498
 20
106.0052
 30
0.0
 10
17.5498
 20
106.0052
 30
0.0
 10
17.5749
 20
104.2959
 30
0.0
 10
17.3223
 20
102.5427
 30
0.0
 10
16.6618
 20
100.8784
 30
0.0
 10
16.6618
 20
100.8784
 30
0.0
 10
15.582
 20
101.3758
 30
0.0
 10
14.0608
 20
102.4563
 30
0.0
 10
13.4155
 20
103.3092
 30
0.0
 10
13.4155
 20
103.3092
 30
0.0
 10
12.3634
 20
99.4901
 30
0.0
 10
4.19
 20
97.1313
 30
0.0
 10
3.8452
 20
102.2257
 30
0.0
 10
3.8452
 20
102.2257
 30
0.0
 10
0.0152
 20
101.4806
 30
0.0
 10
-1.9288
 20
104.3579
 30
0.0
 10
0.0841
 20
109.0798
 30
0.0
 10
0.0841
 20
109.0798
 30
0.0
 10
1.3438
 20
106.9442
 30
0.0
 10
3.4874
 20
105.7905
 30
0.0
 10
6.4567
 20
106.1082
 30
0.0
 10
6.4567
 20
106.1082
 30
0.0
 10
11.1614
 20
106.6116
 30
0.0
 10
10.9357
 20
114.6375
 30
0.0
 10
4.8507
 20
114.5802
 30
0.0
 10
4.8507
 20
114.5802
 30
0.0
 10
-0.9597
 20
114.5254
 30
0.0
 10
-5.7823
 20
111.0263
 30
0.0
 10
-5.4581
 20
102.2731
 30
0.0
 10
-5.4581
 20
102.2731
 30
0.0
 10
-5.2423
 20
96.4463
 30
0.0
 10
-2.5112
 20
92.622
 30
0.0
 10
-0.5976
 20
90.1707
 30
0.0
 10
-0.5976
 20
90.1707
 30
0.0
 10
1.2526
 20
94.4897
 30
0.0
 10
5.8838
 20
96.5961
 30
0.0
 10
9.9879
 20
96.7813
 30
0.0
 10
9.9879
 20
96.7813
 30
0.0
 10
14.3187
 20
96.9767
 30
0.0
 10
18.7306
 20
94.6168
 30
0.0
 10
20.0906
 20
91.0871
 30
0.0
  0
SPLINE
  5
4D
330
1F
100
AcDbEntity
  8
layer 1
 62
   250
100
AcDbSpline
210
0.0
220
0.0
230
1.0
 70
    11
 71
     3
 72
    56
 73
    52
 74
     0
 42
0.0000000001
 43
0.0000000001
 12
1.0
 22
0.0
 32
0.0
 13
1.0
 23
0.0
 33
0.0
 40
0.0
 40
0.0
 40
0.0
 40
0.0
 40
0.0714285714285714
 40
0.0714285714285714
 40
0.0714285714285714
 40
0.0714285714285714
 40
0.1428571428571428
 40
0.1428571428571428
 40
0.1428571428571428
 40
0.1428571428571428
 40
0.2142857142857143
 40
0.2142857142857143
 40
0.2142857142857143
 40
0.2142857142857143
 40
0.2857142857142857
 40
0.2857142857142857
 40
0.2857142857142857
 40
0.2857142857142857
 40
0.3571428571428572
 40
0.3571428571428572
 40
0.3571428571428572
 40
0.3571428571428572
 40
0.4285714285714285
 40
0.4285714285714285
 40
0.4285714285714285
 40
0.4285714285714285
 40
0.5
 40
0.5
 40
0.5
 40
0.5
 40
0.5714285714285714
 40
0.5714285714285714
 40
0.5714285714285714
 40
0.5714285714285714
 40
0.6428571428571429
 40
0.6428571428571429
 40
0.6428571428571429
 40
0.6428571428571429
 40
0.7142857142857143
 40
0.7142857142857143
 40
0.7142857142857143
 40
0.7142857142857143
 40
0.7857142857142857
 40
0.7857142857142857
 40
0.7857142857142857
 40
0.7857142857142857
 40
0.8571428571428571
 40
0.8571428571428571
 40
0.8571428571428571
 40
0.8571428571428571
 40
1.0
 40
1.0
 40
1.0
 40
1.0
 10
25.9475
 20
119.6424
 30
0.0
 10
28.8995
 20
118.1558
 30
0.0
 10
32.5317
 20
118.4553
 30
0.0
 10
33.4246
 20
118.4616
 30
0.0
 10
33.4246
 20
118.4616
 30
0.0
 10
45.0566
 20
118.544
 30
0.0
 10
49.6576
 20
111.4424
 30
0.0
 10
49.5774
 20
103.6354
 30
0.0
 10
49.5774
 20
103.6354
 30
0.0
 10
49.5101
 20
97.0731
 30
0.0
 10
47.364
 20
92.8272
 30
0.0
 10
43.9188
 20
88.3417
 30
0.0
 10
43.9188
 20
88.3417
 30
0.0
 10
47.6068
 20
88.1341
 30
0.0
 10
52.0465
 20
92.6402
 30
0.0
 10
54.0601
 20
96.6517
 30
0.0
 10
54.0601
 20
96.6517
 30
0.0
 10
53.1858
 20
97.0541
 30
0.0
 10
52.0757
 20
97.8728
 30
0.0
 10
51.5379
 20
98.6032
 30
0.0
 10
51.5379
 20
98.6032
 30
0.0
 10
53.2145
 20
100.9752
 30
0.0
 10
54.5569
 20
105.0083
 30
0.0
 10
55.0891
 20
107.485
 30
0.0
 10
55.0891
 20
107.485
 30
0.0
 10
54.0269
 20
107.653
 30
0.0
 10
52.4998
 20
107.946
 30
0.0
 10
51.5498
 20
108.2968
 30
0.0
 10
51.5498
 20
108.2968
 30
0.0
 10
52.3173
 20
111.5971
 30
0.0
 10
52.9413
 20
116.9345
 30
0.0
 10
51.7826
 20
119.406
 30
0.0
 10
51.7826
 20
119.406
 30
0.0
 10
50.8086
 20
118.7858
 30
0.0
 10
49.6231
 20
118.3119
 30
0.0
 10
48.48
 20
117.92
 30
0.0
 10
48.48
 20
117.92
 30
0.0
 10
47.5401
 20
120.5589
 30
0.0
 10
45.4358
 20
123.0656
 30
0.0
 10
42.7165
 20
124.4491
 30
0.0
 10
42.7165
 20
124.4491
 30
0.0
 10
42.5379
 20
123.4122
 30
0.0
 10
42.1405
 20
122.1786
 30
0.0
 10
41.603
 20
121.2492
 30
0.0
 10
41.603
 20
121.2492
 30
0.0
 10
33.6276
 20
124.736
 30
0.0
 10
32.4623
 20
121.2886
 30
0.0
 10
26.0134
 20
120.4087
 30
0.0
 10
26.0134
 20
120.4087
 30
0.0
 10
25.6302
 20
120.3565
 30
0.0
 10
25.6763
 20
119.779
 30
0.0
 10
25.9475
 20
119.6424
 30
0.0
  0
SPLINE
  5
4E
330
1F
100
AcDbEntity
  8
layer 1
 62
   250
100
AcDbSpline
210
0.0
220
0.0
230
1.0
 70
    11
 71
     3
 72
    20
 73
    16
 74
     0
 42
0.0000000001
 43
0.0000000001
 12
1.0
 22
0.0
 32
0.0
 13
1.0
 23
0.0
 33
0.0
 40
0.0
 40
0.0
 40
0.0
 40
0.0
 40
0.2
 40
0.2
 40
0.2
 40
0.2
 40
0.4
 40
0.4
 40
0.4
 40
0.4
 40
0.6
 40
0.6
 40
0.6
 40
0.6
 40
1.0
 40
1.0
 40
1.0
 40
1.0
 10
64.8897
 20
131.9066
 30
0.0
 10
64.8897
 20
131.9066
 30
0.0
 10
-24.7085
 20
131.9066
 30
0.0
 10
-24.7085
 20
131.9066
 30
0.0
 10
-24.7085
 20
131.9066
 30
0.0
 10
-24.7085
 20
131.9066
 30
0.0
 10
-24.7085
 20
-114.4884
 30
0.0
 10
-24.7085
 20
-114.4884
 30
0.0
 10
-24.7085
 20
-114.4884
 30
0.0
 10
-24.7085
 20
-114.4884
 30
0.0
 10
64.8897
 20
-114.4884
 30
0.0
 10
64.8897
 20
-114.4884
 30
0.0
 10
64.8897
 20
-114.4884
 30
0.0
 10
64.8897
 20
-114.4884
 30
0.0
 10
64.8897
 20
131.9066
 30
0.0
 10
64.8897
 20
131.9066
 30
0.0
  0
SPLINE
  5
4F
330
1F
100
AcDbEntity
  8
layer 1
 62
   250
100
AcDbSpline
210
0.0
220
0.0
230
1.0
 70
    11
 71
     3
 72
    16
 73
    12
 74
     0
 42
0.0000000001
 43
0.0000000001
 12
1.0
 22
0.0
 32
0.0
 13
1.0
 23
0.0
 33
0.0
 40
0.0
 40
0.0
 40
0.0
 40
0.0
 40
0.25
 40
0.25
 40
0.25
 40
0.25
 40
0.5
 40
0.5
 40
0.5
 40
0.5
 40
1.0
 40
1.0
 40
1.0
 40
1.0
 10
60.4098
 20
11.0588
 30
0.0
 10
60.177
 20
10.1895
 30
0.0
 10
59.8755
 20
9.4791
 30
0.0
 10
59.0333
 20
8.7091
 30
0.0
 10
59.0333
 20
8.7091
 30
0.0
 10
59.8755
 20
7.9391
 30
0.0
 10
60.177
 20
7.2287
 30
0.0
 10
60.4098
 20
6.3594
 30
0.0
 10
60.4098
 20
6.3594
 30
0.0
 10
60.4098
 20
6.3594
 30
0.0
 10
60.4098
 20
11.0588
 30
0.0
 10
60.4098
 20
11.0588
 30
0.0
  0
SPLINE
  5
50
330
1F
100
AcDbEntity
  8
layer 1
 62
   250
100
AcDbSpline
210
0.0
220
0.0
230
1.0
 70
    11
 71
     3
 72
    40
 73
    36
 74
     0
 42
0.0000000001
 43
0.0000000001
 12
1.0
 22
0.0
 32
0.0
 13
1.0
 23
0.0
 33
0.0
 40
0.0
 40
0.0
 40
0.0
 40
0.0
 40
0.1
 40
0.1
 40
0.1
 40
0.1
 40
0.2
 40
0.2
 40
0.2
 40
0.2
 40
0.3
 40
0.3
 40
0.3
 40
0.3
 40
0.4
 40
0.4
 40
0.4
 40
0.4
 40
0.5
 40
0.5
 40
0.5
 40
0.5
 40
0.6
 40
0.6
 40
0.6
 40
0.6
 40
0.7
 40
0.7
 40
0.7
 40
0.7
 40
0.8
 40
0.8
 40
0.8
 40
0.8
 40
1.0
 40
1.0
 40
1.0
 40
1.0
 10
60.4098
 20
16.288
 30
0.0
 10
59.0415
 20
21.1757
 30
0.0
 10
56.04
 20
24.612
 30
0.0
 10
47.0425
 20
24.6632
 30
0.0
 10
47.0425
 20
24.6632
 30
0.0
 10
46.3113
 20
24.6673
 30
0.0
 10
46.4177
 20
25.2456
 30
0.0
 10
47.0341
 20
25.485
 30
0.0
 10
47.0341
 20
25.485
 30
0.0
 10
48.4885
 20
26.0503
 30
0.0
 10
49.6442
 20
26.3919
 30
0.0
 10
51.8496
 20
26.709
 30
0.0
 10
51.8496
 20
26.709
 30
0.0
 10
50.762
 20
27.1779
 30
0.0
 10
49.478
 20
27.4987
 30
0.0
 10
48.5645
 20
27.7044
 30
0.0
 10
48.5645
 20
27.7044
 30
0.0
 10
48.2034
 20
27.7857
 30
0.0
 10
48.1942
 20
28.4177
 30
0.0
 10
48.5166
 20
28.5376
 30
0.0
 10
48.5166
 20
28.5376
 30
0.0
 10
51.4683
 20
29.6366
 30
0.0
 10
54.948
 20
31.704
 30
0.0
 10
57.7761
 20
35.0635
 30
0.0
 10
57.7761
 20
35.0635
 30
0.0
 10
56.7463
 20
35.6118
 30
0.0
 10
56.2419
 20
36.2914
 30
0.0
 10
55.4747
 20
37.1023
 30
0.0
 10
55.4747
 20
37.1023
 30
0.0
 10
57.2072
 20
38.4671
 30
0.0
 10
59.2022
 20
41.1446
 30
0.0
 10
60.4098
 20
43.4284
 30
0.0
 10
60.4098
 20
43.4284
 30
0.0
 10
60.4098
 20
43.4284
 30
0.0
 10
60.4098
 20
16.288
 30
0.0
 10
60.4098
 20
16.288
 30
0.0
  0
SPLINE
  5
51
330
1F
100
AcDbEntity
  8
layer 1
 62
   250
100
AcDbSpline
210
0.0
220
0.0
230
1.0
 70
    11
 71
     3
 72
    48
 73
    44
 74
     0
 42
0.0000000001
 43
0.0000000001
 12
1.0
 22
0.0
 32
0.0
 13
1.0
 23
0.0
 33
0.0
 40
0.0
 40
0.0
 40
0.0
 40
0.0
 40
0.0833333333333333
 40
0.0833333333333333
 40
0.0833333333333333
 40
0.0833333333333333
 40
0.1666666666666667
 40
0.1666666666666667
 40
0.1666666666666667
 40
0.1666666666666667
 40
0.25
 40
0.25
 40
0.25
 40
0.25
 40
0.3333333333333333
 40
0.3333333333333333
 40
0.3333333333333333
 40
0.3333333333333333
 40
0.4166666666666667
 40
0.4166666666666667
 40
0.4166666666666667
 40
0.4166666666666667
 40
0.5
 40
0.5
 40
0.5
 40
0.5
 40
0.5833333333333334
 40
0.5833333333333334
 40
0.5833333333333334
 40
0.5833333333333334
 40
0.6666666666666666
 40
0.6666666666666666
 40
0.6666666666666666
 40
0.6666666666666666
 40
0.75
 40
0.75
 40
0.75
 40
0.75
 40
0.8333333333333334
 40
0.8333333333333334
 40
0.8333333333333334
 40
0.8333333333333334
 40
1.0
 40
1.0
 40
1.0
 40
1.0
 10
4.3421
 20
61.2037
 30
0.0
 10
-5.1642
 20
60.2978
 30
0.0
 10
-10.4077
 20
54.3952
 30
0.0
 10
-10.126
 20
45.455
 30
0.0
 10
-10.126
 20
45.455
 30
0.0
 10
-9.9409
 20
39.5784
 30
0.0
 10
-7.0465
 20
34.5165
 30
0.0
 10
-4.1007
 20
29.916
 30
0.0
 10
-4.1007
 20
29.916
 30
0.0
 10
-7.7513
 20
31.4609
 30
0.0
 10
-10.5634
 20
32.067
 30
0.0
 10
-13.7129
 20
35.0829
 30
0.0
 10
-13.7129
 20
35.0829
 30
0.0
 10
-12.7142
 20
35.7015
 30
0.0
 10
-11.9918
 20
36.385
 30
0.0
 10
-11.429
 20
37.2617
 30
0.0
 10
-11.429
 20
37.2617
 30
0.0
 10
-13.5326
 20
38.6722
 30
0.0
 10
-15.3559
 20
40.8845
 30
0.0
 10
-16.6295
 20
43.8657
 30
0.0
 10
-16.6295
 20
43.8657
 30
0.0
 10
-15.6378
 20
44.1269
 30
0.0
 10
-14.3256
 20
44.6426
 30
0.0
 10
-13.3939
 20
45.1385
 30
0.0
 10
-13.3939
 20
45.1385
 30
0.0
 10
-14.81
 20
46.8894
 30
0.0
 10
-15.5009
 20
49.9405
 30
0.0
 10
-15.7917
 20
53.3452
 30
0.0
 10
-15.7917
 20
53.3452
 30
0.0
 10
-14.5866
 20
52.8092
 30
0.0
 10
-13.7152
 20
52.6964
 30
0.0
 10
-12.48
 20
52.7178
 30
0.0
 10
-12.48
 20
52.7178
 30
0.0
 10
-12.7692
 20
55.5143
 30
0.0
 10
-12.3606
 20
58.2352
 30
0.0
 10
-11.4147
 20
60.9762
 30
0.0
 10
-11.4147
 20
60.9762
 30
0.0
 10
-10.6543
 20
60.3683
 30
0.0
 10
-9.3911
 20
59.7363
 30
0.0
 10
-8.3859
 20
59.6163
 30
0.0
 10
-8.3859
 20
59.6163
 30
0.0
 10
-5.7394
 20
61.8128
 30
0.0
 10
2.3001
 20
65.7612
 30
0.0
 10
4.3421
 20
61.2037
 30
0.0
  0
SPLINE
  5
52
330
1F
100
AcDbEntity
  8
layer 1
 62
   250
100
AcDbSpline
210
0.0
220
0.0
230
1.0
 70
    11
 71
     3
 72
    44
 73
    40
 74
     0
 42
0.0000000001
 43
0.0000000001
 12
1.0
 22
0.0
 32
0.0
 13
1.0
 23
0.0
 33
0.0
 40
0.0
 40
0.0
 40
0.0
 40
0.0
 40
0.0909090909090909
 40
0.0909090909090909
 40
0.0909090909090909
 40
0.0909090909090909
 40
0.1818181818181818
 40
0.1818181818181818
 40
0.1818181818181818
 40
0.1818181818181818
 40
0.2727272727272727
 40
0.2727272727272727
 40
0.2727272727272727
 40
0.2727272727272727
 40
0.3636363636363636
 40
0.3636363636363636
 40
0.3636363636363636
 40
0.3636363636363636
 40
0.4545454545454545
 40
0.4545454545454545
 40
0.4545454545454545
 40
0.4545454545454545
 40
0.5454545454545454
 40
0.5454545454545454
 40
0.5454545454545454
 40
0.5454545454545454
 40
0.6363636363636364
 40
0.6363636363636364
 40
0.6363636363636364
 40
0.6363636363636364
 40
0.7272727272727273
 40
0.7272727272727273
 40
0.7272727272727273
 40
0.7272727272727273
 40
0.8181818181818182
 40
0.8181818181818182
 40
0.8181818181818182
 40
0.8181818181818182
 40
1.0
 40
1.0
 40
1.0
 40
1.0
 10
3.291
 20
8.7091
 30
0.0
 10
2.9946
 20
11.6041
 30
0.0
 10
6.0664
 20
12.4074
 30
0.0
 10
9.0343
 20
11.4701
 30
0.0
 10
9.0343
 20
11.4701
 30
0.0
 10
9.8202
 20
11.2219
 30
0.0
 10
9.959
 20
12.1265
 30
0.0
 10
9.4601
 20
12.5882
 30
0.0
 10
9.4601
 20
12.5882
 30
0.0
 10
6.9382
 20
14.9227
 30
0.0
 10
2.0178
 20
18.7408
 30
0.0
 10
-2.0705
 20
16.4773
 30
0.0
 10
-2.0705
 20
16.4773
 30
0.0
 10
-2.3407
 20
16.3276
 30
0.0
 10
-2.3895
 20
16.0242
 30
0.0
 10
-2.0453
 20
15.9093
 30
0.0
 10
-2.0453
 20
15.9093
 30
0.0
 10
1.3127
 20
14.7881
 30
0.0
 10
1.3185
 20
10.0284
 30
0.0
 10
-1.189
 20
8.7091
 30
0.0
 10
-1.189
 20
8.7091
 30
0.0
 10
1.3185
 20
7.3898
 30
0.0
 10
1.3127
 20
2.6301
 30
0.0
 10
-2.0453
 20
1.5089
 30
0.0
 10
-2.0453
 20
1.5089
 30
0.0
 10
-2.3895
 20
1.394
 30
0.0
 10
-2.3407
 20
1.0906
 30
0.0
 10
-2.0705
 20
0.9409
 30
0.0
 10
-2.0705
 20
0.9409
 30
0.0
 10
2.0178
 20
-1.3227
 30
0.0
 10
6.9382
 20
2.4955
 30
0.0
 10
9.4601
 20
4.8299
 30
0.0
 10
9.4601
 20
4.8299
 30
0.0
 10
9.959
 20
5.2917
 30
0.0
 10
9.8202
 20
6.1963
 30
0.0
 10
9.0343
 20
5.9481
 30
0.0
 10
9.0343
 20
5.9481
 30
0.0
 10
6.0664
 20
5.0108
 30
0.0
 10
2.9946
 20
5.8141
 30
0.0
 10
3.291
 20
8.7091
 30
0.0
  0
SPLINE
  5
53
330
1F
100
AcDbEntity
  8
layer 1
 62
   250
100
AcDbSpline
210
0.0
220
0.0
230
1.0
 70
    11
 71
     3
 72
    44
 73
    40
 74
     0
 42
0.0000000001
 43
0.0000000001
 12
1.0
 22
0.0
 32
0.0
 13
1.0
 23
0.0
 33
0.0
 40
0.0
 40
0.0
 40
0.0
 40
0.0
 40
0.0909090909090909
 40
0.0909090909090909
 40
0.0909090909090909
 40
0.0909090909090909
 40
0.1818181818181818
 40
0.1818181818181818
 40
0.1818181818181818
 40
0.1818181818181818
 40
0.2727272727272727
 40
0.2727272727272727
 40
0.2727272727272727
 40
0.2727272727272727
 40
0.3636363636363636
 40
0.3636363636363636
 40
0.3636363636363636
 40
0.3636363636363636
 40
0.4545454545454545
 40
0.4545454545454545
 40
0.4545454545454545
 40
0.4545454545454545
 40
0.5454545454545454
 40
0.5454545454545454
 40
0.5454545454545454
 40
0.5454545454545454
 40
0.6363636363636364
 40
0.6363636363636364
 40
0.6363636363636364
 40
0.6363636363636364
 40
0.7272727272727273
 40
0.7272727272727273
 40
0.7272727272727273
 40
0.7272727272727273
 40
0.8181818181818182
 40
0.8181818181818182
 40
0.8181818181818182
 40
0.8181818181818182
 40
1.0
 40
1.0
 40
1.0
 40
1.0
 10
-7.8607
 20
8.7091
 30
0.0
 10
-11.8412
 20
13.5166
 30
0.0
 10
-7.0842
 20
19.3313
 30
0.0
 10
-2.3822
 20
19.8871
 30
0.0
 10
-2.3822
 20
19.8871
 30
0.0
 10
-2.1114
 20
19.9191
 30
0.0
 10
-1.8353
 20
20.2329
 30
0.0
 10
-2.1791
 20
20.3758
 30
0.0
 10
-2.1791
 20
20.3758
 30
0.0
 10
-7.0113
 20
22.3843
 30
0.0
 10
-13.7613
 20
21.752
 30
0.0
 10
-15.218
 20
16.4911
 30
0.0
 10
-15.218
 20
16.4911
 30
0.0
 10
-12.226
 20
16.83
 30
0.0
 10
-11.0351
 20
14.2019
 30
0.0
 10
-11.0343
 20
12.316
 30
0.0
 10
-11.0343
 20
12.316
 30
0.0
 10
-11.0337
 20
10.652
 30
0.0
 10
-11.7882
 20
9.0996
 30
0.0
 10
-12.6892
 20
8.7091
 30
0.0
 10
-12.6892
 20
8.7091
 30
0.0
 10
-11.7882
 20
8.3186
 30
0.0
 10
-11.0337
 20
6.7662
 30
0.0
 10
-11.0343
 20
5.1022
 30
0.0
 10
-11.0343
 20
5.1022
 30
0.0
 10
-11.0351
 20
3.2163
 30
0.0
 10
-12.226
 20
0.5881
 30
0.0
 10
-15.218
 20
0.927
 30
0.0
 10
-15.218
 20
0.927
 30
0.0
 10
-13.7613
 20
-4.3338
 30
0.0
 10
-7.0113
 20
-4.9662
 30
0.0
 10
-2.1791
 20
-2.9576
 30
0.0
 10
-2.1791
 20
-2.9576
 30
0.0
 10
-1.8353
 20
-2.8147
 30
0.0
 10
-2.1114
 20
-2.5009
 30
0.0
 10
-2.3822
 20
-2.469
 30
0.0
 10
-2.3822
 20
-2.469
 30
0.0
 10
-7.0842
 20
-1.9131
 30
0.0
 10
-11.8412
 20
3.9016
 30
0.0
 10
-7.8607
 20
8.7091
 30
0.0
  0
SPLINE
  5
54
330
1F
100
AcDbEntity
  8
layer 1
 62
   250
100
AcDbSpline
210
0.0
220
0.0
230
1.0
 70
    11
 71
     3
 72
    56
 73
    52
 74
     0
 42
0.0000000001
 43
0.0000000001
 12
1.0
 22
0.0
 32
0.0
 13
1.0
 23
0.0
 33
0.0
 40
0.0
 40
0.0
 40
0.0
 40
0.0
 40
0.0714285714285714
 40
0.0714285714285714
 40
0.0714285714285714
 40
0.0714285714285714
 40
0.1428571428571428
 40
0.1428571428571428
 40
0.1428571428571428
 40
0.1428571428571428
 40
0.2142857142857143
 40
0.2142857142857143
 40
0.2142857142857143
 40
0.2142857142857143
 40
0.2857142857142857
 40
0.2857142857142857
 40
0.2857142857142857
 40
0.2857142857142857
 40
0.3571428571428572
 40
0.3571428571428572
 40
0.3571428571428572
 40
0.3571428571428572
 40
0.4285714285714285
 40
0.4285714285714285
 40
0.4285714285714285
 40
0.4285714285714285
 40
0.5
 40
0.5
 40
0.5
 40
0.5
 40
0.5714285714285714
 40
0.5714285714285714
 40
0.5714285714285714
 40
0.5714285714285714
 40
0.6428571428571429
 40
0.6428571428571429
 40
0.6428571428571429
 40
0.6428571428571429
 40
0.7142857142857143
 40
0.7142857142857143
 40
0.7142857142857143
 40
0.7142857142857143
 40
0.7857142857142857
 40
0.7857142857142857
 40
0.7857142857142857
 40
0.7857142857142857
 40
0.8571428571428571
 40
0.8571428571428571
 40
0.8571428571428571
 40
0.8571428571428571
 40
1.0
 40
1.0
 40
1.0
 40
1.0
 10
-20.2286
 20
81.0675
 30
0.0
 10
-19.7797
 20
83.3573
 30
0.0
 10
-18.0159
 20
84.5149
 30
0.0
 10
-16.8041
 20
84.8672
 30
0.0
 10
-16.8041
 20
84.8672
 30
0.0
 10
-17.2726
 20
85.2978
 30
0.0
 10
-17.9412
 20
86.2453
 30
0.0
 10
-18.1437
 20
87.238
 30
0.0
 10
-18.1437
 20
87.238
 30
0.0
 10
-16.8933
 20
88.066
 30
0.0
 10
-13.9792
 20
88.6846
 30
0.0
 10
-11.5072
 20
88.452
 30
0.0
 10
-11.5072
 20
88.452
 30
0.0
 10
-10.9077
 20
88.3956
 30
0.0
 10
-10.6552
 20
88.9057
 30
0.0
 10
-11.0728
 20
89.252
 30
0.0
 10
-11.0728
 20
89.252
 30
0.0
 10
-13.7911
 20
91.5067
 30
0.0
 10
-16.071
 20
94.6121
 30
0.0
 10
-17.617
 20
97.6069
 30
0.0
 10
-17.617
 20
97.6069
 30
0.0
 10
-16.6577
 20
97.8995
 30
0.0
 10
-15.6625
 20
98.4657
 30
0.0
 10
-14.7554
 20
99.1657
 30
0.0
 10
-14.7554
 20
99.1657
 30
0.0
 10
-16.3557
 20
101.8009
 30
0.0
 10
-18.0208
 20
106.0997
 30
0.0
 10
-18.44
 20
110.1001
 30
0.0
 10
-18.44
 20
110.1001
 30
0.0
 10
-17.4275
 20
110.1677
 30
0.0
 10
-15.732
 20
110.4402
 30
0.0
 10
-14.8904
 20
110.6785
 30
0.0
 10
-14.8904
 20
110.6785
 30
0.0
 10
-15.7123
 20
115.3198
 30
0.0
 10
-16.004
 20
119.9775
 30
0.0
 10
-13.8805
 20
124.4431
 30
0.0
 10
-13.8805
 20
124.4431
 30
0.0
 10
-12.8152
 20
123.5853
 30
0.0
 10
-11.2035
 20
122.6933
 30
0.0
 10
-9.9674
 20
122.177
 30
0.0
 10
-9.9674
 20
122.177
 30
0.0
 10
-8.8452
 20
124.1806
 30
0.0
 10
-7.5392
 20
126.1713
 30
0.0
 10
-5.6689
 20
127.4267
 30
0.0
 10
-5.6689
 20
127.4267
 30
0.0
 10
-5.6689
 20
127.4267
 30
0.0
 10
-20.2286
 20
127.4267
 30
0.0
 10
-20.2286
 20
127.4267
 30
0.0
 10
-20.2286
 20
127.4267
 30
0.0
 10
-20.2286
 20
127.4267
 30
0.0
 10
-20.2286
 20
81.0675
 30
0.0
 10
-20.2286
 20
81.0675
 30
0.0
  0
SPLINE
  5
55
330
1F
100
AcDbEntity
  8
layer 1
 62
   250
100
AcDbSpline
210
0.0
220
0.0
230
1.0
 70
    11
 71
     3
 72
    96
 73
    92
 74
     0
 42
0.0000000001
 43
0.0000000001
 12
1.0
 22
0.0
 32
0.0
 13
1.0
 23
0.0
 33
0.0
 40
0.0
 40
0.0
 40
0.0
 40
0.0
 40
0.0416666666666667
 40
0.0416666666666667
 40
0.0416666666666667
 40
0.0416666666666667
 40
0.0833333333333333
 40
0.0833333333333333
 40
0.0833333333333333
 40
0.0833333333333333
 40
0.125
 40
0.125
 40
0.125
 40
0.125
 40
0.1666666666666667
 40
0.1666666666666667
 40
0.1666666666666667
 40
0.1666666666666667
 40
0.2083333333333333
 40
0.2083333333333333
 40
0.2083333333333333
 40
0.2083333333333333
 40
0.25
 40
0.25
 40
0.25
 40
0.25
 40
0.2916666666666667
 40
0.2916666666666667
 40
0.2916666666666667
 40
0.2916666666666667
 40
0.3333333333333333
 40
0.3333333333333333
 40
0.3333333333333333
 40
0.3333333333333333
 40
0.375
 40
0.375
 40
0.375
 40
0.375
 40
0.4166666666666667
 40
0.4166666666666667
 40
0.4166666666666667
 40
0.4166666666666667
 40
0.4583333333333333
 40
0.4583333333333333
 40
0.4583333333333333
 40
0.4583333333333333
 40
0.5
 40
0.5
 40
0.5
 40
0.5
 40
0.5416666666666666
 40
0.5416666666666666
 40
0.5416666666666666
 40
0.5416666666666666
 40
0.5833333333333334
 40
0.5833333333333334
 40
0.5833333333333334
 40
0.5833333333333334
 40
0.625
 40
0.625
 40
0.625
 40
0.625
 40
0.6666666666666666
 40
0.6666666666666666
 40
0.6666666666666666
 40
0.6666666666666666
 40
0.7083333333333334
 40
0.7083333333333334
 40
0.7083333333333334
 40
0.7083333333333334
 40
0.75
 40
0.75
 40
0.75
 40
0.75
 40
0.7916666666666666
 40
0.7916666666666666
 40
0.7916666666666666
 40
0.7916666666666666
 40
0.8333333333333334
 40
0.8333333333333334
 40
0.8333333333333334
 40
0.8333333333333334
 40
0.875
 40
0.875
 40
0.875
 40
0.875
 40
0.9166666666666666
 40
0.9166666666666666
 40
0.9166666666666666
 40
0.9166666666666666
 40
1.0
 40
1.0
 40
1.0
 40
1.0
 10
-17.6966
 20
74.9417
 30
0.0
 10
-18.9868
 20
75.1199
 30
0.0
 10
-20.0805
 20
76.0476
 30
0.0
 10
-20.2286
 20
78.1098
 30
0.0
 10
-20.2286
 20
78.1098
 30
0.0
 10
-20.2286
 20
78.1098
 30
0.0
 10
-20.2286
 20
45.5972
 30
0.0
 10
-20.2286
 20
45.5972
 30
0.0
 10
-20.2286
 20
45.5972
 30
0.0
 10
-19.375
 20
45.7927
 30
0.0
 10
-17.742
 20
46.2216
 30
0.0
 10
-17.1117
 20
46.5238
 30
0.0
 10
-17.1117
 20
46.5238
 30
0.0
 10
-18.1511
 20
49.1949
 30
0.0
 10
-18.8953
 20
54.4322
 30
0.0
 10
-18.6542
 20
56.6639
 30
0.0
 10
-18.6542
 20
56.6639
 30
0.0
 10
-17.9557
 20
56.3659
 30
0.0
 10
-16.6613
 20
56.1117
 30
0.0
 10
-15.8247
 20
56.1231
 30
0.0
 10
-15.8247
 20
56.1231
 30
0.0
 10
-15.6242
 20
59.1637
 30
0.0
 10
-14.6287
 20
63.3781
 30
0.0
 10
-12.2438
 20
65.657
 30
0.0
 10
-12.2438
 20
65.657
 30
0.0
 10
-11.3449
 20
64.8733
 30
0.0
 10
-9.9222
 20
63.8147
 30
0.0
 10
-8.466
 20
63.4765
 30
0.0
 10
-8.466
 20
63.4765
 30
0.0
 10
-5.7516
 20
66.9109
 30
0.0
 10
1.8525
 20
68.0379
 30
0.0
 10
6.6307
 20
65.7221
 30
0.0
 10
6.6307
 20
65.7221
 30
0.0
 10
6.9858
 20
65.5501
 30
0.0
 10
7.5459
 20
66.0387
 30
0.0
 10
7.1412
 20
66.3959
 30
0.0
 10
7.1412
 20
66.3959
 30
0.0
 10
4.4274
 20
68.7905
 30
0.0
 10
1.1749
 20
69.9965
 30
0.0
 10
-1.7601
 20
70.4982
 30
0.0
 10
-1.7601
 20
70.4982
 30
0.0
 10
-0.7445
 20
71.1545
 30
0.0
 10
0.7428
 20
71.544
 30
0.0
 10
2.5244
 20
72.0152
 30
0.0
 10
2.5244
 20
72.0152
 30
0.0
 10
2.6731
 20
72.0546
 30
0.0
 10
2.8865
 20
72.4537
 30
0.0
 10
2.6581
 20
72.7758
 30
0.0
 10
2.6581
 20
72.7758
 30
0.0
 10
-0.4619
 20
77.1742
 30
0.0
 10
-6.1918
 20
82.9907
 30
0.0
 10
-9.3564
 20
82.5895
 30
0.0
 10
-9.3564
 20
82.5895
 30
0.0
 10
-10.3714
 20
82.4609
 30
0.0
 10
-11.9079
 20
82.2257
 30
0.0
 10
-11.6517
 20
79.4875
 30
0.0
 10
-11.6517
 20
79.4875
 30
0.0
 10
-11.4571
 20
77.4087
 30
0.0
 10
-8.4148
 20
76.2528
 30
0.0
 10
-6.3375
 20
78.365
 30
0.0
 10
-6.3375
 20
78.365
 30
0.0
 10
-4.2632
 20
76.1342
 30
0.0
 10
-5.9343
 20
71.9255
 30
0.0
 10
-8.7798
 20
71.993
 30
0.0
 10
-8.7798
 20
71.993
 30
0.0
 10
-10.5277
 20
72.0343
 30
0.0
 10
-11.3553
 20
72.7743
 30
0.0
 10
-11.9067
 20
73.6326
 30
0.0
 10
-11.9067
 20
73.6326
 30
0.0
 10
-12.1591
 20
74.0257
 30
0.0
 10
-13.1089
 20
73.7867
 30
0.0
 10
-12.5554
 20
72.9117
 30
0.0
 10
-12.5554
 20
72.9117
 30
0.0
 10
-12.0408
 20
72.0979
 30
0.0
 10
-11.4733
 20
71.314
 30
0.0
 10
-11.4806
 20
70.4177
 30
0.0
 10
-11.4806
 20
70.4177
 30
0.0
 10
-11.4988
 20
68.2015
 30
0.0
 10
-13.1751
 20
67.0363
 30
0.0
 10
-15.2802
 20
67.0617
 30
0.0
 10
-15.2802
 20
67.0617
 30
0.0
 10
-17.9522
 20
67.094
 30
0.0
 10
-18.8899
 20
68.6203
 30
0.0
 10
-18.8675
 20
70.6152
 30
0.0
 10
-18.8675
 20
70.6152
 30
0.0
 10
-18.8461
 20
72.5295
 30
0.0
 10
-17.6322
 20
73.3818
 30
0.0
 10
-17.2595
 20
73.9676
 30
0.0
 10
-17.2595
 20
73.9676
 30
0.0
 10
-16.8973
 20
74.537
 30
0.0
 10
-17.4126
 20
74.9025
 30
0.0
 10
-17.6966
 20
74.9417
 30
0.0
  0
SPLINE
  5
56
330
1F
100
AcDbEntity
  8
layer 1
 62
   250
100
AcDbSpline
210
0.0
220
0.0
230
1.0
 70
    11
 71
     3
 72
    56
 73
    52
 74
     0
 42
0.0000000001
 43
0.0000000001
 12
1.0
 22
0.0
 32
0.0
 13
1.0
 23
0.0
 33
0.0
 40
0.0
 40
0.0
 40
0.0
 40
0.0
 40
0.0714285714285714
 40
0.0714285714285714
 40
0.0714285714285714
 40
0.0714285714285714
 40
0.1428571428571428
 40
0.1428571428571428
 40
0.1428571428571428
 40
0.1428571428571428
 40
0.2142857142857143
 40
0.2142857142857143
 40
0.2142857142857143
 40
0.2142857142857143
 40
0.2857142857142857
 40
0.2857142857142857
 40
0.2857142857142857
 40
0.2857142857142857
 40
0.3571428571428572
 40
0.3571428571428572
 40
0.3571428571428572
 40
0.3571428571428572
 40
0.4285714285714285
 40
0.4285714285714285
 40
0.4285714285714285
 40
0.4285714285714285
 40
0.5
 40
0.5
 40
0.5
 40
0.5
 40
0.5714285714285714
 40
0.5714285714285714
 40
0.5714285714285714
 40
0.5714285714285714
 40
0.6428571428571429
 40
0.6428571428571429
 40
0.6428571428571429
 40
0.6428571428571429
 40
0.7142857142857143
 40
0.7142857142857143
 40
0.7142857142857143
 40
0.7142857142857143
 40
0.7857142857142857
 40
0.7857142857142857
 40
0.7857142857142857
 40
0.7857142857142857
 40
0.8571428571428571
 40
0.8571428571428571
 40
0.8571428571428571
 40
0.8571428571428571
 40
1.0
 40
1.0
 40
1.0
 40
1.0
 10
14.2337
 20
119.6424
 30
0.0
 10
11.2818
 20
118.1558
 30
0.0
 10
7.6496
 20
118.4553
 30
0.0
 10
6.7566
 20
118.4616
 30
0.0
 10
6.7566
 20
118.4616
 30
0.0
 10
-4.8754
 20
118.544
 30
0.0
 10
-9.4763
 20
111.4424
 30
0.0
 10
-9.3961
 20
103.6354
 30
0.0
 10
-9.3961
 20
103.6354
 30
0.0
 10
-9.3288
 20
97.0731
 30
0.0
 10
-7.1827
 20
92.8272
 30
0.0
 10
-3.7376
 20
88.3417
 30
0.0
 10
-3.7376
 20
88.3417
 30
0.0
 10
-7.4255
 20
88.1341
 30
0.0
 10
-11.8652
 20
92.6402
 30
0.0
 10
-13.8789
 20
96.6517
 30
0.0
 10
-13.8789
 20
96.6517
 30
0.0
 10
-13.0046
 20
97.0541
 30
0.0
 10
-11.8945
 20
97.8728
 30
0.0
 10
-11.3567
 20
98.6032
 30
0.0
 10
-11.3567
 20
98.6032
 30
0.0
 10
-13.0333
 20
100.9752
 30
0.0
 10
-14.3757
 20
105.0083
 30
0.0
 10
-14.9079
 20
107.485
 30
0.0
 10
-14.9079
 20
107.485
 30
0.0
 10
-13.8457
 20
107.653
 30
0.0
 10
-12.3186
 20
107.946
 30
0.0
 10
-11.3685
 20
108.2968
 30
0.0
 10
-11.3685
 20
108.2968
 30
0.0
 10
-12.1361
 20
111.5971
 30
0.0
 10
-12.7601
 20
116.9345
 30
0.0
 10
-11.6014
 20
119.406
 30
0.0
 10
-11.6014
 20
119.406
 30
0.0
 10
-10.6273
 20
118.7858
 30
0.0
 10
-9.4418
 20
118.3119
 30
0.0
 10
-8.2988
 20
117.92
 30
0.0
 10
-8.2988
 20
117.92
 30
0.0
 10
-7.3589
 20
120.5589
 30
0.0
 10
-5.2546
 20
123.0656
 30
0.0
 10
-2.5353
 20
124.4491
 30
0.0
 10
-2.5353
 20
124.4491
 30
0.0
 10
-2.3566
 20
123.4122
 30
0.0
 10
-1.9593
 20
122.1786
 30
0.0
 10
-1.4218
 20
121.2492
 30
0.0
 10
-1.4218
 20
121.2492
 30
0.0
 10
6.5537
 20
124.736
 30
0.0
 10
7.7189
 20
121.2886
 30
0.0
 10
14.1678
 20
120.4087
 30
0.0
 10
14.1678
 20
120.4087
 30
0.0
 10
14.551
 20
120.3565
 30
0.0
 10
14.505
 20
119.779
 30
0.0
 10
14.2337
 20
119.6424
 30
0.0
  0
SPLINE
  5
57
330
1F
100
AcDbEntity
  8
layer 1
 62
   250
100
AcDbSpline
210
0.0
220
0.0
230
1.0
 70
    11
 71
     3
 72
    16
 73
    12
 74
     0
 42
0.0000000001
 43
0.0000000001
 12
1.0
 22
0.0
 32
0.0
 13
1.0
 23
0.0
 33
0.0
 40
0.0
 40
0.0
 40
0.0
 40
0.0
 40
0.25
 40
0.25
 40
0.25
 40
0.25
 40
0.5
 40
0.5
 40
0.5
 40
0.5
 40
1.0
 40
1.0
 40
1.0
 40
1.0
 10
-18.8521
 20
8.7091
 30
0.0
 10
-19.6942
 20
9.4791
 30
0.0
 10
-19.9957
 20
10.1895
 30
0.0
 10
-20.2286
 20
11.0588
 30
0.0
 10
-20.2286
 20
11.0588
 30
0.0
 10
-20.2286
 20
11.0588
 30
0.0
 10
-20.2286
 20
6.3594
 30
0.0
 10
-20.2286
 20
6.3594
 30
0.0
 10
-20.2286
 20
6.3594
 30
0.0
 10
-19.9957
 20
7.2287
 30
0.0
 10
-19.6942
 20
7.9391
 30
0.0
 10
-18.8521
 20
8.7091
 30
0.0
  0
SPLINE
  5
58
330
1F
100
AcDbEntity
  8
layer 1
 62
   250
100
AcDbSpline
210
0.0
220
0.0
230
1.0
 70
    11
 71
     3
 72
    40
 73
    36
 74
     0
 42
0.0000000001
 43
0.0000000001
 12
1.0
 22
0.0
 32
0.0
 13
1.0
 23
0.0
 33
0.0
 40
0.0
 40
0.0
 40
0.0
 40
0.0
 40
0.1
 40
0.1
 40
0.1
 40
0.1
 40
0.2
 40
0.2
 40
0.2
 40
0.2
 40
0.3
 40
0.3
 40
0.3
 40
0.3
 40
0.4
 40
0.4
 40
0.4
 40
0.4
 40
0.5
 40
0.5
 40
0.5
 40
0.5
 40
0.6
 40
0.6
 40
0.6
 40
0.6
 40
0.7
 40
0.7
 40
0.7
 40
0.7
 40
0.8
 40
0.8
 40
0.8
 40
0.8
 40
1.0
 40
1.0
 40
1.0
 40
1.0
 10
-20.2286
 20
16.288
 30
0.0
 10
-18.8603
 20
21.1757
 30
0.0
 10
-15.8588
 20
24.612
 30
0.0
 10
-6.8613
 20
24.6632
 30
0.0
 10
-6.8613
 20
24.6632
 30
0.0
 10
-6.1301
 20
24.6673
 30
0.0
 10
-6.2365
 20
25.2456
 30
0.0
 10
-6.8529
 20
25.485
 30
0.0
 10
-6.8529
 20
25.485
 30
0.0
 10
-8.3073
 20
26.0503
 30
0.0
 10
-9.463
 20
26.3919
 30
0.0
 10
-11.6684
 20
26.709
 30
0.0
 10
-11.6684
 20
26.709
 30
0.0
 10
-10.5807
 20
27.1779
 30
0.0
 10
-9.2968
 20
27.4987
 30
0.0
 10
-8.3832
 20
27.7044
 30
0.0
 10
-8.3832
 20
27.7044
 30
0.0
 10
-8.0222
 20
27.7857
 30
0.0
 10
-8.013
 20
28.4177
 30
0.0
 10
-8.3354
 20
28.5376
 30
0.0
 10
-8.3354
 20
28.5376
 30
0.0
 10
-11.2871
 20
29.6366
 30
0.0
 10
-14.7668
 20
31.704
 30
0.0
 10
-17.5948
 20
35.0635
 30
0.0
 10
-17.5948
 20
35.0635
 30
0.0
 10
-16.5651
 20
35.6118
 30
0.0
 10
-16.0607
 20
36.2914
 30
0.0
 10
-15.2935
 20
37.1023
 30
0.0
 10
-15.2935
 20
37.1023
 30
0.0
 10
-17.026
 20
38.4671
 30
0.0
 10
-19.021
 20
41.1446
 30
0.0
 10
-20.2286
 20
43.4284
 30
0.0
 10
-20.2286
 20
43.4284
 30
0.0
 10
-20.2286
 20
43.4284
 30
0.0
 10
-20.2286
 20
16.288
 30
0.0
 10
-20.2286
 20
16.288
 30
0.0
  0
SPLINE
  5
59
330
1F
100
AcDbEntity
  8
layer 1
 62
   250
100
AcDbSpline
210
0.0
220
0.0
230
1.0
 70
    11
 71
     3
 72
    68
 73
    64
 74
     0
 42
0.0000000001
 43
0.0000000001
 12
1.0
 22
0.0
 32
0.0
 13
1.0
 23
0.0
 33
0.0
 40
0.0
 40
0.0
 40
0.0
 40
0.0
 40
0.0588235294117647
 40
0.0588235294117647
 40
0.0588235294117647
 40
0.0588235294117647
 40
0.1176470588235294
 40
0.1176470588235294
 40
0.1176470588235294
 40
0.1176470588235294
 40
0.1764705882352941
 40
0.1764705882352941
 40
0.1764705882352941
 40
0.1764705882352941
 40
0.2352941176470588
 40
0.2352941176470588
 40
0.2352941176470588
 40
0.2352941176470588
 40
0.2941176470588235
 40
0.2941176470588235
 40
0.2941176470588235
 40
0.2941176470588235
 40
0.3529411764705883
 40
0.3529411764705883
 40
0.3529411764705883
 40
0.3529411764705883
 40
0.4117647058823529
 40
0.4117647058823529
 40
0.4117647058823529
 40
0.4117647058823529
 40
0.4705882352941176
 40
0.4705882352941176
 40
0.4705882352941176
 40
0.4705882352941176
 40
0.5294117647058824
 40
0.5294117647058824
 40
0.5294117647058824
 40
0.5294117647058824
 40
0.5882352941176471
 40
0.5882352941176471
 40
0.5882352941176471
 40
0.5882352941176471
 40
0.6470588235294118
 40
0.6470588235294118
 40
0.6470588235294118
 40
0.6470588235294118
 40
0.7058823529411765
 40
0.7058823529411765
 40
0.7058823529411765
 40
0.7058823529411765
 40
0.7647058823529411
 40
0.7647058823529411
 40
0.7647058823529411
 40
0.7647058823529411
 40
0.8235294117647058
 40
0.8235294117647058
 40
0.8235294117647058
 40
0.8235294117647058
 40
0.8823529411764706
 40
0.8823529411764706
 40
0.8823529411764706
 40
0.8823529411764706
 40
1.0
 40
1.0
 40
1.0
 40
1.0
 10
20.0906
 20
0.4956
 30
0.0
 10
21.8061
 20
-1.4254
 30
0.0
 10
25.1558
 20
-0.8519
 30
0.0
 10
26.0113
 20
1.8719
 30
0.0
 10
26.0113
 20
1.8719
 30
0.0
 10
28.3767
 20
-0.4219
 30
0.0
 10
34.0398
 20
-4.2747
 30
0.0
 10
34.2149
 20
-9.6003
 30
0.0
 10
34.2149
 20
-9.6003
 30
0.0
 10
34.2981
 20
-12.135
 30
0.0
 10
32.8137
 20
-14.7216
 30
0.0
 10
29.5044
 20
-14.8281
 30
0.0
 10
29.5044
 20
-14.8281
 30
0.0
 10
27.6024
 20
-14.8892
 30
0.0
 10
25.5393
 20
-14.0715
 30
0.0
 10
25.0052
 20
-12.4128
 30
0.0
 10
25.0052
 20
-12.4128
 30
0.0
 10
24.9445
 20
-12.2243
 30
0.0
 10
25.0863
 20
-12.0478
 30
0.0
 10
25.3347
 20
-12.1058
 30
0.0
 10
25.3347
 20
-12.1058
 30
0.0
 10
27.7015
 20
-12.6587
 30
0.0
 10
29.9954
 20
-11.2638
 30
0.0
 10
29.9411
 20
-8.0494
 30
0.0
 10
29.9411
 20
-8.0494
 30
0.0
 10
29.8955
 20
-5.3436
 30
0.0
 10
27.6688
 20
-3.6252
 30
0.0
 10
24.8673
 20
-3.5962
 30
0.0
 10
24.8673
 20
-3.5962
 30
0.0
 10
22.5917
 20
-3.5727
 30
0.0
 10
20.6263
 20
-5.3103
 30
0.0
 10
20.0906
 20
-7.1596
 30
0.0
 10
20.0906
 20
-7.1596
 30
0.0
 10
19.5549
 20
-5.3103
 30
0.0
 10
17.5895
 20
-3.5727
 30
0.0
 10
15.3139
 20
-3.5962
 30
0.0
 10
15.3139
 20
-3.5962
 30
0.0
 10
12.5124
 20
-3.6252
 30
0.0
 10
10.2858
 20
-5.3436
 30
0.0
 10
10.2401
 20
-8.0494
 30
0.0
 10
10.2401
 20
-8.0494
 30
0.0
 10
10.1859
 20
-11.2638
 30
0.0
 10
12.4797
 20
-12.6587
 30
0.0
 10
14.8465
 20
-12.1058
 30
0.0
 10
14.8465
 20
-12.1058
 30
0.0
 10
15.095
 20
-12.0478
 30
0.0
 10
15.2367
 20
-12.2243
 30
0.0
 10
15.176
 20
-12.4128
 30
0.0
 10
15.176
 20
-12.4128
 30
0.0
 10
14.6419
 20
-14.0715
 30
0.0
 10
12.5788
 20
-14.8892
 30
0.0
 10
10.6769
 20
-14.8281
 30
0.0
 10
10.6769
 20
-14.8281
 30
0.0
 10
7.3676
 20
-14.7216
 30
0.0
 10
5.8831
 20
-12.135
 30
0.0
 10
5.9664
 20
-9.6003
 30
0.0
 10
5.9664
 20
-9.6003
 30
0.0
 10
6.1414
 20
-4.2747
 30
0.0
 10
11.8046
 20
-0.4219
 30
0.0
 10
14.17
 20
1.8719
 30
0.0
 10
14.17
 20
1.8719
 30
0.0
 10
15.0254
 20
-0.8519
 30
0.0
 10
18.3751
 20
-1.4254
 30
0.0
 10
20.0906
 20
0.4956
 30
0.0
  0
SPLINE
  5
5A
330
1F
100
AcDbEntity
  8
layer 1
 62
   250
100
AcDbSpline
210
0.0
220
0.0
230
1.0
 70
    11
 71
     3
 72
   132
 73
   128
 74
     0
 42
0.0000000001
 43
0.0000000001
 12
1.0
 22
0.0
 32
0.0
 13
1.0
 23
0.0
 33
0.0
 40
0.0
 40
0.0
 40
0.0
 40
0.0
 40
0.0303030303030303
 40
0.0303030303030303
 40
0.0303030303030303
 40
0.0303030303030303
 40
0.0606060606060606
 40
0.0606060606060606
 40
0.0606060606060606
 40
0.0606060606060606
 40
0.0909090909090909
 40
0.0909090909090909
 40
0.0909090909090909
 40
0.0909090909090909
 40
0.1212121212121212
 40
0.1212121212121212
 40
0.1212121212121212
 40
0.1212121212121212
 40
0.1515151515151515
 40
0.1515151515151515
 40
0.1515151515151515
 40
0.1515151515151515
 40
0.1818181818181818
 40
0.1818181818181818
 40
0.1818181818181818
 40
0.1818181818181818
 40
0.2121212121212121
 40
0.2121212121212121
 40
0.2121212121212121
 40
0.2121212121212121
 40
0.2424242424242424
 40
0.2424242424242424
 40
0.2424242424242424
 40
0.2424242424242424
 40
0.2727272727272727
 40
0.2727272727272727
 40
0.2727272727272727
 40
0.2727272727272727
 40
0.303030303030303
 40
0.303030303030303
 40
0.303030303030303
 40
0.303030303030303
 40
0.3333333333333333
 40
0.3333333333333333
 40
0.3333333333333333
 40
0.3333333333333333
 40
0.3636363636363636
 40
0.3636363636363636
 40
0.3636363636363636
 40
0.3636363636363636
 40
0.3939393939393939
 40
0.3939393939393939
 40
0.3939393939393939
 40
0.3939393939393939
 40
0.4242424242424243
 40
0.4242424242424243
 40
0.4242424242424243
 40
0.4242424242424243
 40
0.4545454545454545
 40
0.4545454545454545
 40
0.4545454545454545
 40
0.4545454545454545
 40
0.4848484848484849
 40
0.4848484848484849
 40
0.4848484848484849
 40
0.4848484848484849
 40
0.5151515151515151
 40
0.5151515151515151
 40
0.5151515151515151
 40
0.5151515151515151
 40
0.5454545454545454
 40
0.5454545454545454
 40
0.5454545454545454
 40
0.5454545454545454
 40
0.5757575757575758
 40
0.5757575757575758
 40
0.5757575757575758
 40
0.5757575757575758
 40
0.6060606060606061
 40
0.6060606060606061
 40
0.6060606060606061
 40
0.6060606060606061
 40
0.6363636363636364
 40
0.6363636363636364
 40
0.6363636363636364
 40
0.6363636363636364
 40
0.6666666666666666
 40
0.6666666666666666
 40
0.6666666666666666
 40
0.6666666666666666
 40
0.696969696969697
 40
0.696969696969697
 40
0.696969696969697
 40
0.696969696969697
 40
0.7272727272727273
 40
0.7272727272727273
 40
0.7272727272727273
 40
0.7272727272727273
 40
0.7575757575757576
 40
0.7575757575757576
 40
0.7575757575757576
 40
0.7575757575757576
 40
0.7878787878787878
 40
0.7878787878787878
 40
0.7878787878787878
 40
0.7878787878787878
 40
0.8181818181818182
 40
0.8181818181818182
 40
0.8181818181818182
 40
0.8181818181818182
 40
0.8484848484848485
 40
0.8484848484848485
 40
0.8484848484848485
 40
0.8484848484848485
 40
0.8787878787878788
 40
0.8787878787878788
 40
0.8787878787878788
 40
0.8787878787878788
 40
0.9090909090909091
 40
0.9090909090909091
 40
0.9090909090909091
 40
0.9090909090909091
 40
0.9393939393939394
 40
0.9393939393939394
 40
0.9393939393939394
 40
0.9393939393939394
 40
1.0
 40
1.0
 40
1.0
 40
1.0
 10
20.0906
 20
-13.7659
 30
0.0
 10
21.394
 20
-16.9174
 30
0.0
 10
25.4403
 20
-19.1546
 30
0.0
 10
29.0782
 20
-19.1264
 30
0.0
 10
29.0782
 20
-19.1264
 30
0.0
 10
33.1941
 20
-19.0943
 30
0.0
 10
37.3006
 20
-17.1676
 30
0.0
 10
38.5451
 20
-11.7638
 30
0.0
 10
38.5451
 20
-11.7638
 30
0.0
 10
38.6897
 20
-11.1359
 30
0.0
 10
39.1668
 20
-11.1283
 30
0.0
 10
39.3867
 20
-11.6472
 30
0.0
 10
39.3867
 20
-11.6472
 30
0.0
 10
40.6631
 20
-14.6591
 30
0.0
 10
40.8167
 20
-17.162
 30
0.0
 10
40.3591
 20
-20.5862
 30
0.0
 10
40.3591
 20
-20.5862
 30
0.0
 10
41.1144
 20
-19.8226
 30
0.0
 10
41.7441
 20
-18.727
 30
0.0
 10
42.1882
 20
-17.1676
 30
0.0
 10
42.1882
 20
-17.1676
 30
0.0
 10
42.3096
 20
-16.7409
 30
0.0
 10
42.7878
 20
-16.5286
 30
0.0
 10
43.0227
 20
-16.9386
 30
0.0
 10
43.0227
 20
-16.9386
 30
0.0
 10
45.4255
 20
-21.1335
 30
0.0
 10
46.5846
 20
-24.9429
 30
0.0
 10
46.4582
 20
-28.6354
 30
0.0
 10
46.4582
 20
-28.6354
 30
0.0
 10
46.2723
 20
-34.0687
 30
0.0
 10
43.4456
 20
-39.3114
 30
0.0
 10
35.2412
 20
-39.4002
 30
0.0
 10
35.2412
 20
-39.4002
 30
0.0
 10
31.2874
 20
-39.443
 30
0.0
 10
29.0972
 20
-37.1264
 30
0.0
 10
28.6666
 20
-35.1108
 30
0.0
 10
28.6666
 20
-35.1108
 30
0.0
 10
28.1786
 20
-32.8265
 30
0.0
 10
29.4168
 20
-29.8505
 30
0.0
 10
32.3157
 20
-29.8349
 30
0.0
 10
32.3157
 20
-29.8349
 30
0.0
 10
34.871
 20
-29.8212
 30
0.0
 10
36.546
 20
-31.4916
 30
0.0
 10
36.9351
 20
-34.5982
 30
0.0
 10
36.9351
 20
-34.5982
 30
0.0
 10
39.346
 20
-32.346
 30
0.0
 10
39.7849
 20
-29.3672
 30
0.0
 10
39.5923
 20
-27.5146
 30
0.0
 10
39.5923
 20
-27.5146
 30
0.0
 10
39.1002
 20
-22.7808
 30
0.0
 10
32.7982
 20
-21.4705
 30
0.0
 10
30.1399
 20
-24.3625
 30
0.0
 10
30.1399
 20
-24.3625
 30
0.0
 10
28.7946
 20
-22.8438
 30
0.0
 10
25.619
 20
-22.1716
 30
0.0
 10
23.0867
 20
-24.2337
 30
0.0
 10
23.0867
 20
-24.2337
 30
0.0
 10
20.6686
 20
-26.2028
 30
0.0
 10
21.9372
 20
-30.5403
 30
0.0
 10
23.8609
 20
-31.8457
 30
0.0
 10
23.8609
 20
-31.8457
 30
0.0
 10
22.432
 20
-32.3618
 30
0.0
 10
20.9508
 20
-33.652
 30
0.0
 10
20.0906
 20
-34.9422
 30
0.0
 10
20.0906
 20
-34.9422
 30
0.0
 10
19.2305
 20
-33.652
 30
0.0
 10
17.7492
 20
-32.3618
 30
0.0
 10
16.3203
 20
-31.8457
 30
0.0
 10
16.3203
 20
-31.8457
 30
0.0
 10
18.244
 20
-30.5403
 30
0.0
 10
19.5126
 20
-26.2028
 30
0.0
 10
17.0946
 20
-24.2337
 30
0.0
 10
17.0946
 20
-24.2337
 30
0.0
 10
14.5622
 20
-22.1716
 30
0.0
 10
11.3866
 20
-22.8438
 30
0.0
 10
10.0413
 20
-24.3625
 30
0.0
 10
10.0413
 20
-24.3625
 30
0.0
 10
7.383
 20
-21.4705
 30
0.0
 10
1.081
 20
-22.7808
 30
0.0
 10
0.5889
 20
-27.5146
 30
0.0
 10
0.5889
 20
-27.5146
 30
0.0
 10
0.3964
 20
-29.3672
 30
0.0
 10
0.8352
 20
-32.346
 30
0.0
 10
3.2462
 20
-34.5982
 30
0.0
 10
3.2462
 20
-34.5982
 30
0.0
 10
3.6352
 20
-31.4916
 30
0.0
 10
5.3103
 20
-29.8212
 30
0.0
 10
7.8655
 20
-29.8349
 30
0.0
 10
7.8655
 20
-29.8349
 30
0.0
 10
10.7645
 20
-29.8505
 30
0.0
 10
12.0026
 20
-32.8265
 30
0.0
 10
11.5146
 20
-35.1108
 30
0.0
 10
11.5146
 20
-35.1108
 30
0.0
 10
11.084
 20
-37.1264
 30
0.0
 10
8.8939
 20
-39.443
 30
0.0
 10
4.94
 20
-39.4002
 30
0.0
 10
4.94
 20
-39.4002
 30
0.0
 10
-3.2644
 20
-39.3114
 30
0.0
 10
-6.0911
 20
-34.0687
 30
0.0
 10
-6.277
 20
-28.6354
 30
0.0
 10
-6.277
 20
-28.6354
 30
0.0
 10
-6.4033
 20
-24.9429
 30
0.0
 10
-5.2443
 20
-21.1335
 30
0.0
 10
-2.8415
 20
-16.9386
 30
0.0
 10
-2.8415
 20
-16.9386
 30
0.0
 10
-2.6066
 20
-16.5286
 30
0.0
 10
-2.1284
 20
-16.7409
 30
0.0
 10
-2.007
 20
-17.1676
 30
0.0
 10
-2.007
 20
-17.1676
 30
0.0
 10
-1.5629
 20
-18.727
 30
0.0
 10
-0.9332
 20
-19.8226
 30
0.0
 10
-0.1778
 20
-20.5862
 30
0.0
 10
-0.1778
 20
-20.5862
 30
0.0
 10
-0.6355
 20
-17.162
 30
0.0
 10
-0.4819
 20
-14.6591
 30
0.0
 10
0.7945
 20
-11.6472
 30
0.0
 10
0.7945
 20
-11.6472
 30
0.0
 10
1.0144
 20
-11.1283
 30
0.0
 10
1.4915
 20
-11.1359
 30
0.0
 10
1.6361
 20
-11.7638
 30
0.0
 10
1.6361
 20
-11.7638
 30
0.0
 10
2.8806
 20
-17.1676
 30
0.0
 10
6.9871
 20
-19.0943
 30
0.0
 10
11.103
 20
-19.1264
 30
0.0
 10
11.103
 20
-19.1264
 30
0.0
 10
14.7409
 20
-19.1546
 30
0.0
 10
18.7872
 20
-16.9174
 30
0.0
 10
20.0906
 20
-13.7659
 30
0.0
  0
SPLINE
  5
5B
330
1F
100
AcDbEntity
  8
layer 1
 62
   250
100
AcDbSpline
210
0.0
220
0.0
230
1.0
 70
    11
 71
     3
 72
    20
 73
    16
 74
     0
 42
0.0000000001
 43
0.0000000001
 12
1.0
 22
0.0
 32
0.0
 13
1.0
 23
0.0
 33
0.0
 40
0.0
 40
0.0
 40
0.0
 40
0.0
 40
0.2
 40
0.2
 40
0.2
 40
0.2
 40
0.4
 40
0.4
 40
0.4
 40
0.4
 40
0.6
 40
0.6
 40
0.6
 40
0.6
 40
1.0
 40
1.0
 40
1.0
 40
1.0
 10
20.0906
 20
-38.3891
 30
0.0
 10
23.369
 20
-40.029
 30
0.0
 10
27.3373
 20
-44.1421
 30
0.0
 10
27.4518
 20
-47.6998
 30
0.0
 10
27.4518
 20
-47.6998
 30
0.0
 10
27.6565
 20
-54.0589
 30
0.0
 10
22.4269
 20
-54.1989
 30
0.0
 10
20.0906
 20
-52.272
 30
0.0
 10
20.0906
 20
-52.272
 30
0.0
 10
17.7543
 20
-54.1989
 30
0.0
 10
12.5247
 20
-54.0589
 30
0.0
 10
12.7295
 20
-47.6998
 30
0.0
 10
12.7295
 20
-47.6998
 30
0.0
 10
12.8439
 20
-44.1421
 30
0.0
 10
16.8122
 20
-40.029
 30
0.0
 10
20.0906
 20
-38.3891
 30
0.0
  0
SPLINE
  5
5C
330
1F
100
AcDbEntity
  8
layer 1
 62
   250
100
AcDbSpline
210
0.0
220
0.0
230
1.0
 70
    11
 71
     3
 72
    92
 73
    88
 74
     0
 42
0.0000000001
 43
0.0000000001
 12
1.0
 22
0.0
 32
0.0
 13
1.0
 23
0.0
 33
0.0
 40
0.0
 40
0.0
 40
0.0
 40
0.0
 40
0.0434782608695652
 40
0.0434782608695652
 40
0.0434782608695652
 40
0.0434782608695652
 40
0.0869565217391304
 40
0.0869565217391304
 40
0.0869565217391304
 40
0.0869565217391304
 40
0.1304347826086956
 40
0.1304347826086956
 40
0.1304347826086956
 40
0.1304347826086956
 40
0.1739130434782609
 40
0.1739130434782609
 40
0.1739130434782609
 40
0.1739130434782609
 40
0.2173913043478261
 40
0.2173913043478261
 40
0.2173913043478261
 40
0.2173913043478261
 40
0.2608695652173913
 40
0.2608695652173913
 40
0.2608695652173913
 40
0.2608695652173913
 40
0.3043478260869565
 40
0.3043478260869565
 40
0.3043478260869565
 40
0.3043478260869565
 40
0.3478260869565217
 40
0.3478260869565217
 40
0.3478260869565217
 40
0.3478260869565217
 40
0.391304347826087
 40
0.391304347826087
 40
0.391304347826087
 40
0.391304347826087
 40
0.4347826086956522
 40
0.4347826086956522
 40
0.4347826086956522
 40
0.4347826086956522
 40
0.4782608695652174
 40
0.4782608695652174
 40
0.4782608695652174
 40
0.4782608695652174
 40
0.5217391304347826
 40
0.5217391304347826
 40
0.5217391304347826
 40
0.5217391304347826
 40
0.5652173913043478
 40
0.5652173913043478
 40
0.5652173913043478
 40
0.5652173913043478
 40
0.6086956521739131
 40
0.6086956521739131
 40
0.6086956521739131
 40
0.6086956521739131
 40
0.6521739130434783
 40
0.6521739130434783
 40
0.6521739130434783
 40
0.6521739130434783
 40
0.6956521739130435
 40
0.6956521739130435
 40
0.6956521739130435
 40
0.6956521739130435
 40
0.7391304347826086
 40
0.7391304347826086
 40
0.7391304347826086
 40
0.7391304347826086
 40
0.782608695652174
 40
0.782608695652174
 40
0.782608695652174
 40
0.782608695652174
 40
0.8260869565217391
 40
0.8260869565217391
 40
0.8260869565217391
 40
0.8260869565217391
 40
0.8695652173913043
 40
0.8695652173913043
 40
0.8695652173913043
 40
0.8695652173913043
 40
0.9130434782608695
 40
0.9130434782608695
 40
0.9130434782608695
 40
0.9130434782608695
 40
1.0
 40
1.0
 40
1.0
 40
1.0
 10
20.0906
 20
-57.3101
 30
0.0
 10
21.7306
 20
-60.0483
 30
0.0
 10
28.1114
 20
-59.6327
 30
0.0
 10
29.2874
 20
-54.8373
 30
0.0
 10
29.2874
 20
-54.8373
 30
0.0
 10
32.8046
 20
-59.3658
 30
0.0
 10
36.6285
 20
-63.7288
 30
0.0
 10
36.7064
 20
-67.7316
 30
0.0
 10
36.7064
 20
-67.7316
 30
0.0
 10
36.7853
 20
-71.7883
 30
0.0
 10
34.3505
 20
-74.6034
 30
0.0
 10
31.6816
 20
-75.192
 30
0.0
 10
31.6816
 20
-75.192
 30
0.0
 10
28.8259
 20
-75.8218
 30
0.0
 10
25.9735
 20
-75.3194
 30
0.0
 10
24.2628
 20
-72.4038
 30
0.0
 10
24.2628
 20
-72.4038
 30
0.0
 10
23.6562
 20
-71.3702
 30
0.0
 10
23.3023
 20
-69.1618
 30
0.0
 10
24.407
 20
-67.2665
 30
0.0
 10
24.407
 20
-67.2665
 30
0.0
 10
24.5097
 20
-67.0901
 30
0.0
 10
24.7666
 20
-67.1797
 30
0.0
 10
24.7503
 20
-67.3756
 30
0.0
 10
24.7503
 20
-67.3756
 30
0.0
 10
24.6629
 20
-68.4216
 30
0.0
 10
24.9717
 20
-69.325
 30
0.0
 10
25.3985
 20
-69.9914
 30
0.0
 10
25.3985
 20
-69.9914
 30
0.0
 10
26.1632
 20
-71.1853
 30
0.0
 10
28.016
 20
-71.9937
 30
0.0
 10
29.6674
 20
-71.5153
 30
0.0
 10
29.6674
 20
-71.5153
 30
0.0
 10
31.874
 20
-70.8762
 30
0.0
 10
32.6489
 20
-68.9416
 30
0.0
 10
32.221
 20
-66.5724
 30
0.0
 10
32.221
 20
-66.5724
 30
0.0
 10
31.7511
 20
-63.9709
 30
0.0
 10
29.9093
 20
-62.4893
 30
0.0
 10
27.0833
 20
-62.3603
 30
0.0
 10
27.0833
 20
-62.3603
 30
0.0
 10
24.0646
 20
-62.2224
 30
0.0
 10
20.8866
 20
-63.9177
 30
0.0
 10
20.0906
 20
-66.7597
 30
0.0
 10
20.0906
 20
-66.7597
 30
0.0
 10
19.2946
 20
-63.9177
 30
0.0
 10
16.1166
 20
-62.2224
 30
0.0
 10
13.0979
 20
-62.3603
 30
0.0
 10
13.0979
 20
-62.3603
 30
0.0
 10
10.2719
 20
-62.4893
 30
0.0
 10
8.4301
 20
-63.9709
 30
0.0
 10
7.9603
 20
-66.5724
 30
0.0
 10
7.9603
 20
-66.5724
 30
0.0
 10
7.5323
 20
-68.9416
 30
0.0
 10
8.3072
 20
-70.8762
 30
0.0
 10
10.5138
 20
-71.5153
 30
0.0
 10
10.5138
 20
-71.5153
 30
0.0
 10
12.1652
 20
-71.9937
 30
0.0
 10
14.018
 20
-71.1853
 30
0.0
 10
14.7827
 20
-69.9914
 30
0.0
 10
14.7827
 20
-69.9914
 30
0.0
 10
15.2095
 20
-69.325
 30
0.0
 10
15.5183
 20
-68.4216
 30
0.0
 10
15.4309
 20
-67.3756
 30
0.0
 10
15.4309
 20
-67.3756
 30
0.0
 10
15.4146
 20
-67.1797
 30
0.0
 10
15.6715
 20
-67.0901
 30
0.0
 10
15.7742
 20
-67.2665
 30
0.0
 10
15.7742
 20
-67.2665
 30
0.0
 10
16.879
 20
-69.1618
 30
0.0
 10
16.5251
 20
-71.3702
 30
0.0
 10
15.9185
 20
-72.4038
 30
0.0
 10
15.9185
 20
-72.4038
 30
0.0
 10
14.2077
 20
-75.3194
 30
0.0
 10
11.3554
 20
-75.8218
 30
0.0
 10
8.4996
 20
-75.192
 30
0.0
 10
8.4996
 20
-75.192
 30
0.0
 10
5.8307
 20
-74.6034
 30
0.0
 10
3.3959
 20
-71.7883
 30
0.0
 10
3.4749
 20
-67.7316
 30
0.0
 10
3.4749
 20
-67.7316
 30
0.0
 10
3.5527
 20
-63.7288
 30
0.0
 10
7.3766
 20
-59.3658
 30
0.0
 10
10.8938
 20
-54.8373
 30
0.0
 10
10.8938
 20
-54.8373
 30
0.0
 10
12.0698
 20
-59.6327
 30
0.0
 10
18.4506
 20
-60.0483
 30
0.0
 10
20.0906
 20
-57.3101
 30
0.0
  0
SPLINE
  5
5D
330
1F
100
AcDbEntity
  8
layer 1
 62
   250
100
AcDbSpline
210
0.0
220
0.0
230
1.0
 70
    11
 71
     3
 72
    48
 73
    44
 74
     0
 42
0.0000000001
 43
0.0000000001
 12
1.0
 22
0.0
 32
0.0
 13
1.0
 23
0.0
 33
0.0
 40
0.0
 40
0.0
 40
0.0
 40
0.0
 40
0.0833333333333333
 40
0.0833333333333333
 40
0.0833333333333333
 40
0.0833333333333333
 40
0.1666666666666667
 40
0.1666666666666667
 40
0.1666666666666667
 40
0.1666666666666667
 40
0.25
 40
0.25
 40
0.25
 40
0.25
 40
0.3333333333333333
 40
0.3333333333333333
 40
0.3333333333333333
 40
0.3333333333333333
 40
0.4166666666666667
 40
0.4166666666666667
 40
0.4166666666666667
 40
0.4166666666666667
 40
0.5
 40
0.5
 40
0.5
 40
0.5
 40
0.5833333333333334
 40
0.5833333333333334
 40
0.5833333333333334
 40
0.5833333333333334
 40
0.6666666666666666
 40
0.6666666666666666
 40
0.6666666666666666
 40
0.6666666666666666
 40
0.75
 40
0.75
 40
0.75
 40
0.75
 40
0.8333333333333334
 40
0.8333333333333334
 40
0.8333333333333334
 40
0.8333333333333334
 40
1.0
 40
1.0
 40
1.0
 40
1.0
 10
35.8392
 20
-43.7855
 30
0.0
 10
45.3454
 20
-42.8796
 30
0.0
 10
50.5889
 20
-36.977
 30
0.0
 10
50.3073
 20
-28.0368
 30
0.0
 10
50.3073
 20
-28.0368
 30
0.0
 10
50.1221
 20
-22.1602
 30
0.0
 10
47.2278
 20
-17.0983
 30
0.0
 10
44.2819
 20
-12.4978
 30
0.0
 10
44.2819
 20
-12.4978
 30
0.0
 10
47.9326
 20
-14.0427
 30
0.0
 10
50.7446
 20
-14.6488
 30
0.0
 10
53.8941
 20
-17.6647
 30
0.0
 10
53.8941
 20
-17.6647
 30
0.0
 10
52.8954
 20
-18.2834
 30
0.0
 10
52.173
 20
-18.9668
 30
0.0
 10
51.6102
 20
-19.8435
 30
0.0
 10
51.6102
 20
-19.8435
 30
0.0
 10
53.7138
 20
-21.254
 30
0.0
 10
55.5371
 20
-23.4663
 30
0.0
 10
56.8107
 20
-26.4476
 30
0.0
 10
56.8107
 20
-26.4476
 30
0.0
 10
55.819
 20
-26.7087
 30
0.0
 10
54.5068
 20
-27.2244
 30
0.0
 10
53.5751
 20
-27.7203
 30
0.0
 10
53.5751
 20
-27.7203
 30
0.0
 10
54.9912
 20
-29.4713
 30
0.0
 10
55.6821
 20
-32.5223
 30
0.0
 10
55.9729
 20
-35.927
 30
0.0
 10
55.9729
 20
-35.927
 30
0.0
 10
54.7678
 20
-35.391
 30
0.0
 10
53.8965
 20
-35.2782
 30
0.0
 10
52.6612
 20
-35.2996
 30
0.0
 10
52.6612
 20
-35.2996
 30
0.0
 10
52.9504
 20
-38.0961
 30
0.0
 10
52.5418
 20
-40.817
 30
0.0
 10
51.5959
 20
-43.558
 30
0.0
 10
51.5959
 20
-43.558
 30
0.0
 10
50.8356
 20
-42.9501
 30
0.0
 10
49.5723
 20
-42.3181
 30
0.0
 10
48.5672
 20
-42.1981
 30
0.0
 10
48.5672
 20
-42.1981
 30
0.0
 10
45.9206
 20
-44.3946
 30
0.0
 10
37.8811
 20
-48.343
 30
0.0
 10
35.8392
 20
-43.7855
 30
0.0
  0
SPLINE
  5
5E
330
1F
100
AcDbEntity
  8
layer 1
 62
   250
100
AcDbSpline
210
0.0
220
0.0
230
1.0
 70
    11
 71
     3
 72
    32
 73
    28
 74
     0
 42
0.0000000001
 43
0.0000000001
 12
1.0
 22
0.0
 32
0.0
 13
1.0
 23
0.0
 33
0.0
 40
0.0
 40
0.0
 40
0.0
 40
0.0
 40
0.125
 40
0.125
 40
0.125
 40
0.125
 40
0.25
 40
0.25
 40
0.25
 40
0.25
 40
0.375
 40
0.375
 40
0.375
 40
0.375
 40
0.5
 40
0.5
 40
0.5
 40
0.5
 40
0.625
 40
0.625
 40
0.625
 40
0.625
 40
0.75
 40
0.75
 40
0.75
 40
0.75
 40
1.0
 40
1.0
 40
1.0
 40
1.0
 10
20.0906
 20
-105.441
 30
0.0
 10
21.2887
 20
-104.6855
 30
0.0
 10
23.9775
 20
-104.5075
 30
0.0
 10
26.1553
 20
-105.715
 30
0.0
 10
26.1553
 20
-105.715
 30
0.0
 10
29.5173
 20
-107.579
 30
0.0
 10
33.8473
 20
-108.5897
 30
0.0
 10
38.742
 20
-107.7227
 30
0.0
 10
38.742
 20
-107.7227
 30
0.0
 10
39.0404
 20
-108.3372
 30
0.0
 10
39.2654
 20
-109.215
 30
0.0
 10
39.4549
 20
-110.0085
 30
0.0
 10
39.4549
 20
-110.0085
 30
0.0
 10
39.4549
 20
-110.0085
 30
0.0
 10
0.7263
 20
-110.0085
 30
0.0
 10
0.7263
 20
-110.0085
 30
0.0
 10
0.7263
 20
-110.0085
 30
0.0
 10
0.9158
 20
-109.215
 30
0.0
 10
1.1408
 20
-108.3372
 30
0.0
 10
1.4392
 20
-107.7227
 30
0.0
 10
1.4392
 20
-107.7227
 30
0.0
 10
6.3339
 20
-108.5897
 30
0.0
 10
10.6639
 20
-107.579
 30
0.0
 10
14.0259
 20
-105.715
 30
0.0
 10
14.0259
 20
-105.715
 30
0.0
 10
16.2037
 20
-104.5075
 30
0.0
 10
18.8926
 20
-104.6855
 30
0.0
 10
20.0906
 20
-105.441
 30
0.0
  0
SPLINE
  5
5F
330
1F
100
AcDbEntity
  8
layer 1
 62
   250
100
AcDbSpline
210
0.0
220
0.0
230
1.0
 70
    11
 71
     3
 72
    56
 73
    52
 74
     0
 42
0.0000000001
 43
0.0000000001
 12
1.0
 22
0.0
 32
0.0
 13
1.0
 23
0.0
 33
0.0
 40
0.0
 40
0.0
 40
0.0
 40
0.0
 40
0.0714285714285714
 40
0.0714285714285714
 40
0.0714285714285714
 40
0.0714285714285714
 40
0.1428571428571428
 40
0.1428571428571428
 40
0.1428571428571428
 40
0.1428571428571428
 40
0.2142857142857143
 40
0.2142857142857143
 40
0.2142857142857143
 40
0.2142857142857143
 40
0.2857142857142857
 40
0.2857142857142857
 40
0.2857142857142857
 40
0.2857142857142857
 40
0.3571428571428572
 40
0.3571428571428572
 40
0.3571428571428572
 40
0.3571428571428572
 40
0.4285714285714285
 40
0.4285714285714285
 40
0.4285714285714285
 40
0.4285714285714285
 40
0.5
 40
0.5
 40
0.5
 40
0.5
 40
0.5714285714285714
 40
0.5714285714285714
 40
0.5714285714285714
 40
0.5714285714285714
 40
0.6428571428571429
 40
0.6428571428571429
 40
0.6428571428571429
 40
0.6428571428571429
 40
0.7142857142857143
 40
0.7142857142857143
 40
0.7142857142857143
 40
0.7142857142857143
 40
0.7857142857142857
 40
0.7857142857142857
 40
0.7857142857142857
 40
0.7857142857142857
 40
0.8571428571428571
 40
0.8571428571428571
 40
0.8571428571428571
 40
0.8571428571428571
 40
1.0
 40
1.0
 40
1.0
 40
1.0
 10
60.4098
 20
-63.6493
 30
0.0
 10
59.9609
 20
-65.9391
 30
0.0
 10
58.1972
 20
-67.0967
 30
0.0
 10
56.9854
 20
-67.449
 30
0.0
 10
56.9854
 20
-67.449
 30
0.0
 10
57.4538
 20
-67.8797
 30
0.0
 10
58.1225
 20
-68.8272
 30
0.0
 10
58.325
 20
-69.8198
 30
0.0
 10
58.325
 20
-69.8198
 30
0.0
 10
57.0745
 20
-70.6478
 30
0.0
 10
54.1604
 20
-71.2665
 30
0.0
 10
51.6884
 20
-71.0338
 30
0.0
 10
51.6884
 20
-71.0338
 30
0.0
 10
51.0889
 20
-70.9774
 30
0.0
 10
50.8365
 20
-71.4876
 30
0.0
 10
51.254
 20
-71.8338
 30
0.0
 10
51.254
 20
-71.8338
 30
0.0
 10
53.9723
 20
-74.0885
 30
0.0
 10
56.2522
 20
-77.1939
 30
0.0
 10
57.7982
 20
-80.1888
 30
0.0
 10
57.7982
 20
-80.1888
 30
0.0
 10
56.839
 20
-80.4813
 30
0.0
 10
55.8438
 20
-81.0476
 30
0.0
 10
54.9366
 20
-81.7476
 30
0.0
 10
54.9366
 20
-81.7476
 30
0.0
 10
56.5369
 20
-84.3827
 30
0.0
 10
58.202
 20
-88.6816
 30
0.0
 10
58.6212
 20
-92.6819
 30
0.0
 10
58.6212
 20
-92.6819
 30
0.0
 10
57.6087
 20
-92.7495
 30
0.0
 10
55.9132
 20
-93.022
 30
0.0
 10
55.0716
 20
-93.2604
 30
0.0
 10
55.0716
 20
-93.2604
 30
0.0
 10
55.8935
 20
-97.9017
 30
0.0
 10
56.1852
 20
-102.5593
 30
0.0
 10
54.0618
 20
-107.0249
 30
0.0
 10
54.0618
 20
-107.0249
 30
0.0
 10
52.9964
 20
-106.1671
 30
0.0
 10
51.3847
 20
-105.2751
 30
0.0
 10
50.1487
 20
-104.7588
 30
0.0
 10
50.1487
 20
-104.7588
 30
0.0
 10
49.0265
 20
-106.7625
 30
0.0
 10
47.7205
 20
-108.7531
 30
0.0
 10
45.8501
 20
-110.0085
 30
0.0
 10
45.8501
 20
-110.0085
 30
0.0
 10
45.8501
 20
-110.0085
 30
0.0
 10
60.4098
 20
-110.0085
 30
0.0
 10
60.4098
 20
-110.0085
 30
0.0
 10
60.4098
 20
-110.0085
 30
0.0
 10
60.4098
 20
-110.0085
 30
0.0
 10
60.4098
 20
-63.6493
 30
0.0
 10
60.4098
 20
-63.6493
 30
0.0
  0
SPLINE
  5
60
330
1F
100
AcDbEntity
  8
layer 1
 62
   250
100
AcDbSpline
210
0.0
220
0.0
230
1.0
 70
    11
 71
     3
 72
    96
 73
    92
 74
     0
 42
0.0000000001
 43
0.0000000001
 12
1.0
 22
0.0
 32
0.0
 13
1.0
 23
0.0
 33
0.0
 40
0.0
 40
0.0
 40
0.0
 40
0.0
 40
0.0416666666666667
 40
0.0416666666666667
 40
0.0416666666666667
 40
0.0416666666666667
 40
0.0833333333333333
 40
0.0833333333333333
 40
0.0833333333333333
 40
0.0833333333333333
 40
0.125
 40
0.125
 40
0.125
 40
0.125
 40
0.1666666666666667
 40
0.1666666666666667
 40
0.1666666666666667
 40
0.1666666666666667
 40
0.2083333333333333
 40
0.2083333333333333
 40
0.2083333333333333
 40
0.2083333333333333
 40
0.25
 40
0.25
 40
0.25
 40
0.25
 40
0.2916666666666667
 40
0.2916666666666667
 40
0.2916666666666667
 40
0.2916666666666667
 40
0.3333333333333333
 40
0.3333333333333333
 40
0.3333333333333333
 40
0.3333333333333333
 40
0.375
 40
0.375
 40
0.375
 40
0.375
 40
0.4166666666666667
 40
0.4166666666666667
 40
0.4166666666666667
 40
0.4166666666666667
 40
0.4583333333333333
 40
0.4583333333333333
 40
0.4583333333333333
 40
0.4583333333333333
 40
0.5
 40
0.5
 40
0.5
 40
0.5
 40
0.5416666666666666
 40
0.5416666666666666
 40
0.5416666666666666
 40
0.5416666666666666
 40
0.5833333333333334
 40
0.5833333333333334
 40
0.5833333333333334
 40
0.5833333333333334
 40
0.625
 40
0.625
 40
0.625
 40
0.625
 40
0.6666666666666666
 40
0.6666666666666666
 40
0.6666666666666666
 40
0.6666666666666666
 40
0.7083333333333334
 40
0.7083333333333334
 40
0.7083333333333334
 40
0.7083333333333334
 40
0.75
 40
0.75
 40
0.75
 40
0.75
 40
0.7916666666666666
 40
0.7916666666666666
 40
0.7916666666666666
 40
0.7916666666666666
 40
0.8333333333333334
 40
0.8333333333333334
 40
0.8333333333333334
 40
0.8333333333333334
 40
0.875
 40
0.875
 40
0.875
 40
0.875
 40
0.9166666666666666
 40
0.9166666666666666
 40
0.9166666666666666
 40
0.9166666666666666
 40
1.0
 40
1.0
 40
1.0
 40
1.0
 10
57.8779
 20
-57.5236
 30
0.0
 10
59.1681
 20
-57.7018
 30
0.0
 10
60.2617
 20
-58.6294
 30
0.0
 10
60.4098
 20
-60.6916
 30
0.0
 10
60.4098
 20
-60.6916
 30
0.0
 10
60.4098
 20
-60.6916
 30
0.0
 10
60.4098
 20
-28.179
 30
0.0
 10
60.4098
 20
-28.179
 30
0.0
 10
60.4098
 20
-28.179
 30
0.0
 10
59.5563
 20
-28.3745
 30
0.0
 10
57.9232
 20
-28.8034
 30
0.0
 10
57.2929
 20
-29.1056
 30
0.0
 10
57.2929
 20
-29.1056
 30
0.0
 10
58.3323
 20
-31.7767
 30
0.0
 10
59.0766
 20
-37.014
 30
0.0
 10
58.8354
 20
-39.2458
 30
0.0
 10
58.8354
 20
-39.2458
 30
0.0
 10
58.1369
 20
-38.9477
 30
0.0
 10
56.8426
 20
-38.6935
 30
0.0
 10
56.0059
 20
-38.7049
 30
0.0
 10
56.0059
 20
-38.7049
 30
0.0
 10
55.8055
 20
-41.7455
 30
0.0
 10
54.8099
 20
-45.9599
 30
0.0
 10
52.425
 20
-48.2388
 30
0.0
 10
52.425
 20
-48.2388
 30
0.0
 10
51.5261
 20
-47.4551
 30
0.0
 10
50.1034
 20
-46.3965
 30
0.0
 10
48.6472
 20
-46.0584
 30
0.0
 10
48.6472
 20
-46.0584
 30
0.0
 10
45.9329
 20
-49.4928
 30
0.0
 10
38.3288
 20
-50.6197
 30
0.0
 10
33.5505
 20
-48.3039
 30
0.0
 10
33.5505
 20
-48.3039
 30
0.0
 10
33.1955
 20
-48.1319
 30
0.0
 10
32.6354
 20
-48.6205
 30
0.0
 10
33.04
 20
-48.9777
 30
0.0
 10
33.04
 20
-48.9777
 30
0.0
 10
35.7538
 20
-51.3723
 30
0.0
 10
39.0064
 20
-52.5783
 30
0.0
 10
41.9414
 20
-53.0801
 30
0.0
 10
41.9414
 20
-53.0801
 30
0.0
 10
40.9258
 20
-53.7364
 30
0.0
 10
39.4384
 20
-54.1258
 30
0.0
 10
37.6568
 20
-54.5971
 30
0.0
 10
37.6568
 20
-54.5971
 30
0.0
 10
37.5082
 20
-54.6364
 30
0.0
 10
37.2947
 20
-55.0355
 30
0.0
 10
37.5232
 20
-55.3576
 30
0.0
 10
37.5232
 20
-55.3576
 30
0.0
 10
40.6431
 20
-59.756
 30
0.0
 10
46.373
 20
-65.5725
 30
0.0
 10
49.5376
 20
-65.1713
 30
0.0
 10
49.5376
 20
-65.1713
 30
0.0
 10
50.5526
 20
-65.0428
 30
0.0
 10
52.0891
 20
-64.8076
 30
0.0
 10
51.8329
 20
-62.0693
 30
0.0
 10
51.8329
 20
-62.0693
 30
0.0
 10
51.6384
 20
-59.9905
 30
0.0
 10
48.596
 20
-58.8346
 30
0.0
 10
46.5187
 20
-60.9468
 30
0.0
 10
46.5187
 20
-60.9468
 30
0.0
 10
44.4444
 20
-58.716
 30
0.0
 10
46.1155
 20
-54.5074
 30
0.0
 10
48.9611
 20
-54.5748
 30
0.0
 10
48.9611
 20
-54.5748
 30
0.0
 10
50.7089
 20
-54.6161
 30
0.0
 10
51.5365
 20
-55.3561
 30
0.0
 10
52.0879
 20
-56.2144
 30
0.0
 10
52.0879
 20
-56.2144
 30
0.0
 10
52.3404
 20
-56.6075
 30
0.0
 10
53.2901
 20
-56.3685
 30
0.0
 10
52.7366
 20
-55.4935
 30
0.0
 10
52.7366
 20
-55.4935
 30
0.0
 10
52.222
 20
-54.6797
 30
0.0
 10
51.6545
 20
-53.8958
 30
0.0
 10
51.6619
 20
-52.9995
 30
0.0
 10
51.6619
 20
-52.9995
 30
0.0
 10
51.68
 20
-50.7833
 30
0.0
 10
53.3563
 20
-49.6181
 30
0.0
 10
55.4614
 20
-49.6435
 30
0.0
 10
55.4614
 20
-49.6435
 30
0.0
 10
58.1334
 20
-49.6758
 30
0.0
 10
59.0711
 20
-51.2021
 30
0.0
 10
59.0487
 20
-53.197
 30
0.0
 10
59.0487
 20
-53.197
 30
0.0
 10
59.0273
 20
-55.1114
 30
0.0
 10
57.8135
 20
-55.9637
 30
0.0
 10
57.4407
 20
-56.5494
 30
0.0
 10
57.4407
 20
-56.5494
 30
0.0
 10
57.0785
 20
-57.1188
 30
0.0
 10
57.5938
 20
-57.4844
 30
0.0
 10
57.8779
 20
-57.5236
 30
0.0
  0
SPLINE
  5
61
330
1F
100
AcDbEntity
  8
layer 1
 62
   250
100
AcDbSpline
210
0.0
220
0.0
230
1.0
 70
    11
 71
     3
 72
   100
 73
    96
 74
     0
 42
0.0000000001
 43
0.0000000001
 12
1.0
 22
0.0
 32
0.0
 13
1.0
 23
0.0
 33
0.0
 40
0.0
 40
0.0
 40
0.0
 40
0.0
 40
0.04
 40
0.04
 40
0.04
 40
0.04
 40
0.08
 40
0.08
 40
0.08
 40
0.08
 40
0.12
 40
0.12
 40
0.12
 40
0.12
 40
0.16
 40
0.16
 40
0.16
 40
0.16
 40
0.2
 40
0.2
 40
0.2
 40
0.2
 40
0.24
 40
0.24
 40
0.24
 40
0.24
 40
0.28
 40
0.28
 40
0.28
 40
0.28
 40
0.32
 40
0.32
 40
0.32
 40
0.32
 40
0.36
 40
0.36
 40
0.36
 40
0.36
 40
0.4
 40
0.4
 40
0.4
 40
0.4
 40
0.44
 40
0.44
 40
0.44
 40
0.44
 40
0.48
 40
0.48
 40
0.48
 40
0.48
 40
0.52
 40
0.52
 40
0.52
 40
0.52
 40
0.56
 40
0.56
 40
0.56
 40
0.56
 40
0.6
 40
0.6
 40
0.6
 40
0.6
 40
0.64
 40
0.64
 40
0.64
 40
0.64
 40
0.68
 40
0.68
 40
0.68
 40
0.68
 40
0.72
 40
0.72
 40
0.72
 40
0.72
 40
0.76
 40
0.76
 40
0.76
 40
0.76
 40
0.8
 40
0.8
 40
0.8
 40
0.8
 40
0.84
 40
0.84
 40
0.84
 40
0.84
 40
0.88
 40
0.88
 40
0.88
 40
0.88
 40
0.92
 40
0.92
 40
0.92
 40
0.92
 40
1.0
 40
1.0
 40
1.0
 40
1.0
 10
20.0906
 20
-73.6689
 30
0.0
 10
21.4506
 20
-77.1987
 30
0.0
 10
25.8625
 20
-79.5586
 30
0.0
 10
30.1934
 20
-79.3631
 30
0.0
 10
30.1934
 20
-79.3631
 30
0.0
 10
34.2974
 20
-79.1779
 30
0.0
 10
38.9286
 20
-77.0715
 30
0.0
 10
40.7788
 20
-72.7526
 30
0.0
 10
40.7788
 20
-72.7526
 30
0.0
 10
42.6924
 20
-75.2039
 30
0.0
 10
45.4235
 20
-79.0281
 30
0.0
 10
45.6393
 20
-84.8549
 30
0.0
 10
45.6393
 20
-84.8549
 30
0.0
 10
45.9635
 20
-93.6081
 30
0.0
 10
41.1409
 20
-97.1073
 30
0.0
 10
35.3305
 20
-97.162
 30
0.0
 10
35.3305
 20
-97.162
 30
0.0
 10
29.2455
 20
-97.2194
 30
0.0
 10
29.0199
 20
-89.1934
 30
0.0
 10
33.7245
 20
-88.6901
 30
0.0
 10
33.7245
 20
-88.6901
 30
0.0
 10
36.6938
 20
-88.3723
 30
0.0
 10
38.8375
 20
-89.526
 30
0.0
 10
40.0971
 20
-91.6616
 30
0.0
 10
40.0971
 20
-91.6616
 30
0.0
 10
42.11
 20
-86.9398
 30
0.0
 10
40.166
 20
-84.0624
 30
0.0
 10
36.336
 20
-84.8076
 30
0.0
 10
36.336
 20
-84.8076
 30
0.0
 10
35.9913
 20
-79.7131
 30
0.0
 10
27.8178
 20
-82.0719
 30
0.0
 10
26.7657
 20
-85.891
 30
0.0
 10
26.7657
 20
-85.891
 30
0.0
 10
26.1205
 20
-85.0382
 30
0.0
 10
24.5992
 20
-83.9576
 30
0.0
 10
23.5194
 20
-83.4602
 30
0.0
 10
23.5194
 20
-83.4602
 30
0.0
 10
22.859
 20
-85.1245
 30
0.0
 10
22.6063
 20
-86.8777
 30
0.0
 10
22.6314
 20
-88.587
 30
0.0
 10
22.6314
 20
-88.587
 30
0.0
 10
22.6956
 20
-92.9562
 30
0.0
 10
24.7819
 20
-96.834
 30
0.0
 10
29.2936
 20
-98.1416
 30
0.0
 10
29.2936
 20
-98.1416
 30
0.0
 10
26.6339
 20
-98.3704
 30
0.0
 10
20.8983
 20
-101.3179
 30
0.0
 10
20.0906
 20
-103.6336
 30
0.0
 10
20.0906
 20
-103.6336
 30
0.0
 10
19.2829
 20
-101.3179
 30
0.0
 10
13.5474
 20
-98.3704
 30
0.0
 10
10.8876
 20
-98.1416
 30
0.0
 10
10.8876
 20
-98.1416
 30
0.0
 10
15.3994
 20
-96.834
 30
0.0
 10
17.4857
 20
-92.9562
 30
0.0
 10
17.5498
 20
-88.587
 30
0.0
 10
17.5498
 20
-88.587
 30
0.0
 10
17.5749
 20
-86.8777
 30
0.0
 10
17.3223
 20
-85.1245
 30
0.0
 10
16.6618
 20
-83.4602
 30
0.0
 10
16.6618
 20
-83.4602
 30
0.0
 10
15.582
 20
-83.9576
 30
0.0
 10
14.0608
 20
-85.0382
 30
0.0
 10
13.4155
 20
-85.891
 30
0.0
 10
13.4155
 20
-85.891
 30
0.0
 10
12.3634
 20
-82.0719
 30
0.0
 10
4.19
 20
-79.7131
 30
0.0
 10
3.8452
 20
-84.8076
 30
0.0
 10
3.8452
 20
-84.8076
 30
0.0
 10
0.0152
 20
-84.0624
 30
0.0
 10
-1.9288
 20
-86.9398
 30
0.0
 10
0.0841
 20
-91.6616
 30
0.0
 10
0.0841
 20
-91.6616
 30
0.0
 10
1.3438
 20
-89.526
 30
0.0
 10
3.4874
 20
-88.3723
 30
0.0
 10
6.4567
 20
-88.6901
 30
0.0
 10
6.4567
 20
-88.6901
 30
0.0
 10
11.1614
 20
-89.1934
 30
0.0
 10
10.9357
 20
-97.2194
 30
0.0
 10
4.8507
 20
-97.162
 30
0.0
 10
4.8507
 20
-97.162
 30
0.0
 10
-0.9597
 20
-97.1073
 30
0.0
 10
-5.7823
 20
-93.6081
 30
0.0
 10
-5.4581
 20
-84.8549
 30
0.0
 10
-5.4581
 20
-84.8549
 30
0.0
 10
-5.2423
 20
-79.0281
 30
0.0
 10
-2.5112
 20
-75.2039
 30
0.0
 10
-0.5976
 20
-72.7526
 30
0.0
 10
-0.5976
 20
-72.7526
 30
0.0
 10
1.2526
 20
-77.0715
 30
0.0
 10
5.8838
 20
-79.1779
 30
0.0
 10
9.9879
 20
-79.3631
 30
0.0
 10
9.9879
 20
-79.3631
 30
0.0
 10
14.3187
 20
-79.5586
 30
0.0
 10
18.7306
 20
-77.1987
 30
0.0
 10
20.0906
 20
-73.6689
 30
0.0
  0
SPLINE
  5
62
330
1F
100
AcDbEntity
  8
layer 1
 62
   250
100
AcDbSpline
210
0.0
220
0.0
230
1.0
 70
    11
 71
     3
 72
    56
 73
    52
 74
     0
 42
0.0000000001
 43
0.0000000001
 12
1.0
 22
0.0
 32
0.0
 13
1.0
 23
0.0
 33
0.0
 40
0.0
 40
0.0
 40
0.0
 40
0.0
 40
0.0714285714285714
 40
0.0714285714285714
 40
0.0714285714285714
 40
0.0714285714285714
 40
0.1428571428571428
 40
0.1428571428571428
 40
0.1428571428571428
 40
0.1428571428571428
 40
0.2142857142857143
 40
0.2142857142857143
 40
0.2142857142857143
 40
0.2142857142857143
 40
0.2857142857142857
 40
0.2857142857142857
 40
0.2857142857142857
 40
0.2857142857142857
 40
0.3571428571428572
 40
0.3571428571428572
 40
0.3571428571428572
 40
0.3571428571428572
 40
0.4285714285714285
 40
0.4285714285714285
 40
0.4285714285714285
 40
0.4285714285714285
 40
0.5
 40
0.5
 40
0.5
 40
0.5
 40
0.5714285714285714
 40
0.5714285714285714
 40
0.5714285714285714
 40
0.5714285714285714
 40
0.6428571428571429
 40
0.6428571428571429
 40
0.6428571428571429
 40
0.6428571428571429
 40
0.7142857142857143
 40
0.7142857142857143
 40
0.7142857142857143
 40
0.7142857142857143
 40
0.7857142857142857
 40
0.7857142857142857
 40
0.7857142857142857
 40
0.7857142857142857
 40
0.8571428571428571
 40
0.8571428571428571
 40
0.8571428571428571
 40
0.8571428571428571
 40
1.0
 40
1.0
 40
1.0
 40
1.0
 10
25.9475
 20
-102.2242
 30
0.0
 10
28.8995
 20
-100.7377
 30
0.0
 10
32.5317
 20
-101.0371
 30
0.0
 10
33.4246
 20
-101.0434
 30
0.0
 10
33.4246
 20
-101.0434
 30
0.0
 10
45.0566
 20
-101.1258
 30
0.0
 10
49.6576
 20
-94.0242
 30
0.0
 10
49.5774
 20
-86.2173
 30
0.0
 10
49.5774
 20
-86.2173
 30
0.0
 10
49.5101
 20
-79.6549
 30
0.0
 10
47.364
 20
-75.409
 30
0.0
 10
43.9188
 20
-70.9235
 30
0.0
 10
43.9188
 20
-70.9235
 30
0.0
 10
47.6068
 20
-70.7159
 30
0.0
 10
52.0465
 20
-75.222
 30
0.0
 10
54.0601
 20
-79.2335
 30
0.0
 10
54.0601
 20
-79.2335
 30
0.0
 10
53.1858
 20
-79.6359
 30
0.0
 10
52.0757
 20
-80.4547
 30
0.0
 10
51.5379
 20
-81.185
 30
0.0
 10
51.5379
 20
-81.185
 30
0.0
 10
53.2145
 20
-83.557
 30
0.0
 10
54.5569
 20
-87.5901
 30
0.0
 10
55.0891
 20
-90.0669
 30
0.0
 10
55.0891
 20
-90.0669
 30
0.0
 10
54.0269
 20
-90.2349
 30
0.0
 10
52.4998
 20
-90.5278
 30
0.0
 10
51.5498
 20
-90.8786
 30
0.0
 10
51.5498
 20
-90.8786
 30
0.0
 10
52.3173
 20
-94.179
 30
0.0
 10
52.9413
 20
-99.5163
 30
0.0
 10
51.7826
 20
-101.9878
 30
0.0
 10
51.7826
 20
-101.9878
 30
0.0
 10
50.8086
 20
-101.3676
 30
0.0
 10
49.6231
 20
-100.8937
 30
0.0
 10
48.48
 20
-100.5018
 30
0.0
 10
48.48
 20
-100.5018
 30
0.0
 10
47.5401
 20
-103.1407
 30
0.0
 10
45.4358
 20
-105.6474
 30
0.0
 10
42.7165
 20
-107.0309
 30
0.0
 10
42.7165
 20
-107.0309
 30
0.0
 10
42.5379
 20
-105.9941
 30
0.0
 10
42.1405
 20
-104.7604
 30
0.0
 10
41.603
 20
-103.831
 30
0.0
 10
41.603
 20
-103.831
 30
0.0
 10
33.6276
 20
-107.3179
 30
0.0
 10
32.4623
 20
-103.8705
 30
0.0
 10
26.0134
 20
-102.9905
 30
0.0
 10
26.0134
 20
-102.9905
 30
0.0
 10
25.6302
 20
-102.9383
 30
0.0
 10
25.6763
 20
-102.3608
 30
0.0
 10
25.9475
 20
-102.2242
 30
0.0
  0
SPLINE
  5
63
330
1F
100
AcDbEntity
  8
layer 1
 62
   250
100
AcDbSpline
210
0.0
220
0.0
230
1.0
 70
    11
 71
     3
 72
    40
 73
    36
 74
     0
 42
0.0000000001
 43
0.0000000001
 12
1.0
 22
0.0
 32
0.0
 13
1.0
 23
0.0
 33
0.0
 40
0.0
 40
0.0
 40
0.0
 40
0.0
 40
0.1
 40
0.1
 40
0.1
 40
0.1
 40
0.2
 40
0.2
 40
0.2
 40
0.2
 40
0.3
 40
0.3
 40
0.3
 40
0.3
 40
0.4
 40
0.4
 40
0.4
 40
0.4
 40
0.5
 40
0.5
 40
0.5
 40
0.5
 40
0.6
 40
0.6
 40
0.6
 40
0.6
 40
0.7
 40
0.7
 40
0.7
 40
0.7
 40
0.8
 40
0.8
 40
0.8
 40
0.8
 40
1.0
 40
1.0
 40
1.0
 40
1.0
 10
60.4098
 20
1.1302
 30
0.0
 10
59.0415
 20
-3.7575
 30
0.0
 10
56.04
 20
-7.1938
 30
0.0
 10
47.0425
 20
-7.245
 30
0.0
 10
47.0425
 20
-7.245
 30
0.0
 10
46.3113
 20
-7.2491
 30
0.0
 10
46.4177
 20
-7.8274
 30
0.0
 10
47.0341
 20
-8.0668
 30
0.0
 10
47.0341
 20
-8.0668
 30
0.0
 10
48.4885
 20
-8.6321
 30
0.0
 10
49.6442
 20
-8.9737
 30
0.0
 10
51.8496
 20
-9.2908
 30
0.0
 10
51.8496
 20
-9.2908
 30
0.0
 10
50.762
 20
-9.7597
 30
0.0
 10
49.478
 20
-10.0805
 30
0.0
 10
48.5645
 20
-10.2862
 30
0.0
 10
48.5645
 20
-10.2862
 30
0.0
 10
48.2034
 20
-10.3675
 30
0.0
 10
48.1942
 20
-10.9995
 30
0.0
 10
48.5166
 20
-11.1194
 30
0.0
 10
48.5166
 20
-11.1194
 30
0.0
 10
51.4683
 20
-12.2185
 30
0.0
 10
54.948
 20
-14.2858
 30
0.0
 10
57.7761
 20
-17.6453
 30
0.0
 10
57.7761
 20
-17.6453
 30
0.0
 10
56.7463
 20
-18.1937
 30
0.0
 10
56.2419
 20
-18.8733
 30
0.0
 10
55.4747
 20
-19.6841
 30
0.0
 10
55.4747
 20
-19.6841
 30
0.0
 10
57.2072
 20
-21.0489
 30
0.0
 10
59.2022
 20
-23.7265
 30
0.0
 10
60.4098
 20
-26.0102
 30
0.0
 10
60.4098
 20
-26.0102
 30
0.0
 10
60.4098
 20
-26.0102
 30
0.0
 10
60.4098
 20
1.1302
 30
0.0
 10
60.4098
 20
1.1302
 30
0.0
  0
SPLINE
  5
64
330
1F
100
AcDbEntity
  8
layer 1
 62
   250
100
AcDbSpline
210
0.0
220
0.0
230
1.0
 70
    11
 71
     3
 72
    48
 73
    44
 74
     0
 42
0.0000000001
 43
0.0000000001
 12
1.0
 22
0.0
 32
0.0
 13
1.0
 23
0.0
 33
0.0
 40
0.0
 40
0.0
 40
0.0
 40
0.0
 40
0.0833333333333333
 40
0.0833333333333333
 40
0.0833333333333333
 40
0.0833333333333333
 40
0.1666666666666667
 40
0.1666666666666667
 40
0.1666666666666667
 40
0.1666666666666667
 40
0.25
 40
0.25
 40
0.25
 40
0.25
 40
0.3333333333333333
 40
0.3333333333333333
 40
0.3333333333333333
 40
0.3333333333333333
 40
0.4166666666666667
 40
0.4166666666666667
 40
0.4166666666666667
 40
0.4166666666666667
 40
0.5
 40
0.5
 40
0.5
 40
0.5
 40
0.5833333333333334
 40
0.5833333333333334
 40
0.5833333333333334
 40
0.5833333333333334
 40
0.6666666666666666
 40
0.6666666666666666
 40
0.6666666666666666
 40
0.6666666666666666
 40
0.75
 40
0.75
 40
0.75
 40
0.75
 40
0.8333333333333334
 40
0.8333333333333334
 40
0.8333333333333334
 40
0.8333333333333334
 40
1.0
 40
1.0
 40
1.0
 40
1.0
 10
4.3421
 20
-43.7855
 30
0.0
 10
-5.1642
 20
-42.8796
 30
0.0
 10
-10.4077
 20
-36.977
 30
0.0
 10
-10.126
 20
-28.0368
 30
0.0
 10
-10.126
 20
-28.0368
 30
0.0
 10
-9.9409
 20
-22.1602
 30
0.0
 10
-7.0465
 20
-17.0983
 30
0.0
 10
-4.1007
 20
-12.4978
 30
0.0
 10
-4.1007
 20
-12.4978
 30
0.0
 10
-7.7513
 20
-14.0427
 30
0.0
 10
-10.5634
 20
-14.6488
 30
0.0
 10
-13.7129
 20
-17.6647
 30
0.0
 10
-13.7129
 20
-17.6647
 30
0.0
 10
-12.7142
 20
-18.2834
 30
0.0
 10
-11.9918
 20
-18.9668
 30
0.0
 10
-11.429
 20
-19.8435
 30
0.0
 10
-11.429
 20
-19.8435
 30
0.0
 10
-13.5326
 20
-21.254
 30
0.0
 10
-15.3559
 20
-23.4663
 30
0.0
 10
-16.6295
 20
-26.4476
 30
0.0
 10
-16.6295
 20
-26.4476
 30
0.0
 10
-15.6378
 20
-26.7087
 30
0.0
 10
-14.3256
 20
-27.2244
 30
0.0
 10
-13.3939
 20
-27.7203
 30
0.0
 10
-13.3939
 20
-27.7203
 30
0.0
 10
-14.81
 20
-29.4713
 30
0.0
 10
-15.5009
 20
-32.5223
 30
0.0
 10
-15.7917
 20
-35.927
 30
0.0
 10
-15.7917
 20
-35.927
 30
0.0
 10
-14.5866
 20
-35.391
 30
0.0
 10
-13.7152
 20
-35.2782
 30
0.0
 10
-12.48
 20
-35.2996
 30
0.0
 10
-12.48
 20
-35.2996
 30
0.0
 10
-12.7692
 20
-38.0961
 30
0.0
 10
-12.3606
 20
-40.817
 30
0.0
 10
-11.4147
 20
-43.558
 30
0.0
 10
-11.4147
 20
-43.558
 30
0.0
 10
-10.6543
 20
-42.9501
 30
0.0
 10
-9.3911
 20
-42.3181
 30
0.0
 10
-8.3859
 20
-42.1981
 30
0.0
 10
-8.3859
 20
-42.1981
 30
0.0
 10
-5.7394
 20
-44.3946
 30
0.0
 10
2.3001
 20
-48.343
 30
0.0
 10
4.3421
 20
-43.7855
 30
0.0
  0
SPLINE
  5
65
330
1F
100
AcDbEntity
  8
layer 1
 62
   250
100
AcDbSpline
210
0.0
220
0.0
230
1.0
 70
    11
 71
     3
 72
    56
 73
    52
 74
     0
 42
0.0000000001
 43
0.0000000001
 12
1.0
 22
0.0
 32
0.0
 13
1.0
 23
0.0
 33
0.0
 40
0.0
 40
0.0
 40
0.0
 40
0.0
 40
0.0714285714285714
 40
0.0714285714285714
 40
0.0714285714285714
 40
0.0714285714285714
 40
0.1428571428571428
 40
0.1428571428571428
 40
0.1428571428571428
 40
0.1428571428571428
 40
0.2142857142857143
 40
0.2142857142857143
 40
0.2142857142857143
 40
0.2142857142857143
 40
0.2857142857142857
 40
0.2857142857142857
 40
0.2857142857142857
 40
0.2857142857142857
 40
0.3571428571428572
 40
0.3571428571428572
 40
0.3571428571428572
 40
0.3571428571428572
 40
0.4285714285714285
 40
0.4285714285714285
 40
0.4285714285714285
 40
0.4285714285714285
 40
0.5
 40
0.5
 40
0.5
 40
0.5
 40
0.5714285714285714
 40
0.5714285714285714
 40
0.5714285714285714
 40
0.5714285714285714
 40
0.6428571428571429
 40
0.6428571428571429
 40
0.6428571428571429
 40
0.6428571428571429
 40
0.7142857142857143
 40
0.7142857142857143
 40
0.7142857142857143
 40
0.7142857142857143
 40
0.7857142857142857
 40
0.7857142857142857
 40
0.7857142857142857
 40
0.7857142857142857
 40
0.8571428571428571
 40
0.8571428571428571
 40
0.8571428571428571
 40
0.8571428571428571
 40
1.0
 40
1.0
 40
1.0
 40
1.0
 10
-20.2286
 20
-63.6493
 30
0.0
 10
-19.7797
 20
-65.9391
 30
0.0
 10
-18.0159
 20
-67.0967
 30
0.0
 10
-16.8041
 20
-67.449
 30
0.0
 10
-16.8041
 20
-67.449
 30
0.0
 10
-17.2726
 20
-67.8797
 30
0.0
 10
-17.9412
 20
-68.8272
 30
0.0
 10
-18.1437
 20
-69.8198
 30
0.0
 10
-18.1437
 20
-69.8198
 30
0.0
 10
-16.8933
 20
-70.6478
 30
0.0
 10
-13.9792
 20
-71.2665
 30
0.0
 10
-11.5072
 20
-71.0338
 30
0.0
 10
-11.5072
 20
-71.0338
 30
0.0
 10
-10.9077
 20
-70.9774
 30
0.0
 10
-10.6552
 20
-71.4876
 30
0.0
 10
-11.0728
 20
-71.8338
 30
0.0
 10
-11.0728
 20
-71.8338
 30
0.0
 10
-13.7911
 20
-74.0885
 30
0.0
 10
-16.071
 20
-77.1939
 30
0.0
 10
-17.617
 20
-80.1888
 30
0.0
 10
-17.617
 20
-80.1888
 30
0.0
 10
-16.6577
 20
-80.4813
 30
0.0
 10
-15.6625
 20
-81.0476
 30
0.0
 10
-14.7554
 20
-81.7476
 30
0.0
 10
-14.7554
 20
-81.7476
 30
0.0
 10
-16.3557
 20
-84.3827
 30
0.0
 10
-18.0208
 20
-88.6816
 30
0.0
 10
-18.44
 20
-92.6819
 30
0.0
 10
-18.44
 20
-92.6819
 30
0.0
 10
-17.4275
 20
-92.7495
 30
0.0
 10
-15.732
 20
-93.022
 30
0.0
 10
-14.8904
 20
-93.2604
 30
0.0
 10
-14.8904
 20
-93.2604
 30
0.0
 10
-15.7123
 20
-97.9017
 30
0.0
 10
-16.004
 20
-102.5593
 30
0.0
 10
-13.8805
 20
-107.0249
 30
0.0
 10
-13.8805
 20
-107.0249
 30
0.0
 10
-12.8152
 20
-106.1671
 30
0.0
 10
-11.2035
 20
-105.2751
 30
0.0
 10
-9.9674
 20
-104.7588
 30
0.0
 10
-9.9674
 20
-104.7588
 30
0.0
 10
-8.8452
 20
-106.7625
 30
0.0
 10
-7.5392
 20
-108.7531
 30
0.0
 10
-5.6689
 20
-110.0085
 30
0.0
 10
-5.6689
 20
-110.0085
 30
0.0
 10
-5.6689
 20
-110.0085
 30
0.0
 10
-20.2286
 20
-110.0085
 30
0.0
 10
-20.2286
 20
-110.0085
 30
0.0
 10
-20.2286
 20
-110.0085
 30
0.0
 10
-20.2286
 20
-110.0085
 30
0.0
 10
-20.2286
 20
-63.6493
 30
0.0
 10
-20.2286
 20
-63.6493
 30
0.0
  0
SPLINE
  5
66
330
1F
100
AcDbEntity
  8
layer 1
 62
   250
100
AcDbSpline
210
0.0
220
0.0
230
1.0
 70
    11
 71
     3
 72
    96
 73
    92
 74
     0
 42
0.0000000001
 43
0.0000000001
 12
1.0
 22
0.0
 32
0.0
 13
1.0
 23
0.0
 33
0.0
 40
0.0
 40
0.0
 40
0.0
 40
0.0
 40
0.0416666666666667
 40
0.0416666666666667
 40
0.0416666666666667
 40
0.0416666666666667
 40
0.0833333333333333
 40
0.0833333333333333
 40
0.0833333333333333
 40
0.0833333333333333
 40
0.125
 40
0.125
 40
0.125
 40
0.125
 40
0.1666666666666667
 40
0.1666666666666667
 40
0.1666666666666667
 40
0.1666666666666667
 40
0.2083333333333333
 40
0.2083333333333333
 40
0.2083333333333333
 40
0.2083333333333333
 40
0.25
 40
0.25
 40
0.25
 40
0.25
 40
0.2916666666666667
 40
0.2916666666666667
 40
0.2916666666666667
 40
0.2916666666666667
 40
0.3333333333333333
 40
0.3333333333333333
 40
0.3333333333333333
 40
0.3333333333333333
 40
0.375
 40
0.375
 40
0.375
 40
0.375
 40
0.4166666666666667
 40
0.4166666666666667
 40
0.4166666666666667
 40
0.4166666666666667
 40
0.4583333333333333
 40
0.4583333333333333
 40
0.4583333333333333
 40
0.4583333333333333
 40
0.5
 40
0.5
 40
0.5
 40
0.5
 40
0.5416666666666666
 40
0.5416666666666666
 40
0.5416666666666666
 40
0.5416666666666666
 40
0.5833333333333334
 40
0.5833333333333334
 40
0.5833333333333334
 40
0.5833333333333334
 40
0.625
 40
0.625
 40
0.625
 40
0.625
 40
0.6666666666666666
 40
0.6666666666666666
 40
0.6666666666666666
 40
0.6666666666666666
 40
0.7083333333333334
 40
0.7083333333333334
 40
0.7083333333333334
 40
0.7083333333333334
 40
0.75
 40
0.75
 40
0.75
 40
0.75
 40
0.7916666666666666
 40
0.7916666666666666
 40
0.7916666666666666
 40
0.7916666666666666
 40
0.8333333333333334
 40
0.8333333333333334
 40
0.8333333333333334
 40
0.8333333333333334
 40
0.875
 40
0.875
 40
0.875
 40
0.875
 40
0.9166666666666666
 40
0.9166666666666666
 40
0.9166666666666666
 40
0.9166666666666666
 40
1.0
 40
1.0
 40
1.0
 40
1.0
 10
-17.6966
 20
-57.5236
 30
0.0
 10
-18.9868
 20
-57.7018
 30
0.0
 10
-20.0805
 20
-58.6294
 30
0.0
 10
-20.2286
 20
-60.6916
 30
0.0
 10
-20.2286
 20
-60.6916
 30
0.0
 10
-20.2286
 20
-60.6916
 30
0.0
 10
-20.2286
 20
-28.179
 30
0.0
 10
-20.2286
 20
-28.179
 30
0.0
 10
-20.2286
 20
-28.179
 30
0.0
 10
-19.375
 20
-28.3745
 30
0.0
 10
-17.742
 20
-28.8034
 30
0.0
 10
-17.1117
 20
-29.1056
 30
0.0
 10
-17.1117
 20
-29.1056
 30
0.0
 10
-18.1511
 20
-31.7767
 30
0.0
 10
-18.8953
 20
-37.014
 30
0.0
 10
-18.6542
 20
-39.2458
 30
0.0
 10
-18.6542
 20
-39.2458
 30
0.0
 10
-17.9557
 20
-38.9477
 30
0.0
 10
-16.6613
 20
-38.6935
 30
0.0
 10
-15.8247
 20
-38.7049
 30
0.0
 10
-15.8247
 20
-38.7049
 30
0.0
 10
-15.6242
 20
-41.7455
 30
0.0
 10
-14.6287
 20
-45.9599
 30
0.0
 10
-12.2438
 20
-48.2388
 30
0.0
 10
-12.2438
 20
-48.2388
 30
0.0
 10
-11.3449
 20
-47.4551
 30
0.0
 10
-9.9222
 20
-46.3965
 30
0.0
 10
-8.466
 20
-46.0584
 30
0.0
 10
-8.466
 20
-46.0584
 30
0.0
 10
-5.7516
 20
-49.4928
 30
0.0
 10
1.8525
 20
-50.6197
 30
0.0
 10
6.6307
 20
-48.3039
 30
0.0
 10
6.6307
 20
-48.3039
 30
0.0
 10
6.9858
 20
-48.1319
 30
0.0
 10
7.5459
 20
-48.6205
 30
0.0
 10
7.1412
 20
-48.9777
 30
0.0
 10
7.1412
 20
-48.9777
 30
0.0
 10
4.4274
 20
-51.3723
 30
0.0
 10
1.1749
 20
-52.5783
 30
0.0
 10
-1.7601
 20
-53.0801
 30
0.0
 10
-1.7601
 20
-53.0801
 30
0.0
 10
-0.7445
 20
-53.7364
 30
0.0
 10
0.7428
 20
-54.1258
 30
0.0
 10
2.5244
 20
-54.5971
 30
0.0
 10
2.5244
 20
-54.5971
 30
0.0
 10
2.6731
 20
-54.6364
 30
0.0
 10
2.8865
 20
-55.0355
 30
0.0
 10
2.6581
 20
-55.3576
 30
0.0
 10
2.6581
 20
-55.3576
 30
0.0
 10
-0.4619
 20
-59.756
 30
0.0
 10
-6.1918
 20
-65.5725
 30
0.0
 10
-9.3564
 20
-65.1713
 30
0.0
 10
-9.3564
 20
-65.1713
 30
0.0
 10
-10.3714
 20
-65.0428
 30
0.0
 10
-11.9079
 20
-64.8076
 30
0.0
 10
-11.6517
 20
-62.0693
 30
0.0
 10
-11.6517
 20
-62.0693
 30
0.0
 10
-11.4571
 20
-59.9905
 30
0.0
 10
-8.4148
 20
-58.8346
 30
0.0
 10
-6.3375
 20
-60.9468
 30
0.0
 10
-6.3375
 20
-60.9468
 30
0.0
 10
-4.2632
 20
-58.716
 30
0.0
 10
-5.9343
 20
-54.5074
 30
0.0
 10
-8.7798
 20
-54.5748
 30
0.0
 10
-8.7798
 20
-54.5748
 30
0.0
 10
-10.5277
 20
-54.6161
 30
0.0
 10
-11.3553
 20
-55.3561
 30
0.0
 10
-11.9067
 20
-56.2144
 30
0.0
 10
-11.9067
 20
-56.2144
 30
0.0
 10
-12.1591
 20
-56.6075
 30
0.0
 10
-13.1089
 20
-56.3685
 30
0.0
 10
-12.5554
 20
-55.4935
 30
0.0
 10
-12.5554
 20
-55.4935
 30
0.0
 10
-12.0408
 20
-54.6797
 30
0.0
 10
-11.4733
 20
-53.8958
 30
0.0
 10
-11.4806
 20
-52.9995
 30
0.0
 10
-11.4806
 20
-52.9995
 30
0.0
 10
-11.4988
 20
-50.7833
 30
0.0
 10
-13.1751
 20
-49.6181
 30
0.0
 10
-15.2802
 20
-49.6435
 30
0.0
 10
-15.2802
 20
-49.6435
 30
0.0
 10
-17.9522
 20
-49.6758
 30
0.0
 10
-18.8899
 20
-51.2021
 30
0.0
 10
-18.8675
 20
-53.197
 30
0.0
 10
-18.8675
 20
-53.197
 30
0.0
 10
-18.8461
 20
-55.1114
 30
0.0
 10
-17.6322
 20
-55.9637
 30
0.0
 10
-17.2595
 20
-56.5494
 30
0.0
 10
-17.2595
 20
-56.5494
 30
0.0
 10
-16.8973
 20
-57.1188
 30
0.0
 10
-17.4126
 20
-57.4844
 30
0.0
 10
-17.6966
 20
-57.5236
 30
0.0
  0
SPLINE
  5
67
330
1F
100
AcDbEntity
  8
layer 1
 62
   250
100
AcDbSpline
210
0.0
220
0.0
230
1.0
 70
    11
 71
     3
 72
    56
 73
    52
 74
     0
 42
0.0000000001
 43
0.0000000001
 12
1.0
 22
0.0
 32
0.0
 13
1.0
 23
0.0
 33
0.0
 40
0.0
 40
0.0
 40
0.0
 40
0.0
 40
0.0714285714285714
 40
0.0714285714285714
 40
0.0714285714285714
 40
0.0714285714285714
 40
0.1428571428571428
 40
0.1428571428571428
 40
0.1428571428571428
 40
0.1428571428571428
 40
0.2142857142857143
 40
0.2142857142857143
 40
0.2142857142857143
 40
0.2142857142857143
 40
0.2857142857142857
 40
0.2857142857142857
 40
0.2857142857142857
 40
0.2857142857142857
 40
0.3571428571428572
 40
0.3571428571428572
 40
0.3571428571428572
 40
0.3571428571428572
 40
0.4285714285714285
 40
0.4285714285714285
 40
0.4285714285714285
 40
0.4285714285714285
 40
0.5
 40
0.5
 40
0.5
 40
0.5
 40
0.5714285714285714
 40
0.5714285714285714
 40
0.5714285714285714
 40
0.5714285714285714
 40
0.6428571428571429
 40
0.6428571428571429
 40
0.6428571428571429
 40
0.6428571428571429
 40
0.7142857142857143
 40
0.7142857142857143
 40
0.7142857142857143
 40
0.7142857142857143
 40
0.7857142857142857
 40
0.7857142857142857
 40
0.7857142857142857
 40
0.7857142857142857
 40
0.8571428571428571
 40
0.8571428571428571
 40
0.8571428571428571
 40
0.8571428571428571
 40
1.0
 40
1.0
 40
1.0
 40
1.0
 10
14.2337
 20
-102.2242
 30
0.0
 10
11.2818
 20
-100.7377
 30
0.0
 10
7.6496
 20
-101.0371
 30
0.0
 10
6.7566
 20
-101.0434
 30
0.0
 10
6.7566
 20
-101.0434
 30
0.0
 10
-4.8754
 20
-101.1258
 30
0.0
 10
-9.4763
 20
-94.0242
 30
0.0
 10
-9.3961
 20
-86.2173
 30
0.0
 10
-9.3961
 20
-86.2173
 30
0.0
 10
-9.3288
 20
-79.6549
 30
0.0
 10
-7.1827
 20
-75.409
 30
0.0
 10
-3.7376
 20
-70.9235
 30
0.0
 10
-3.7376
 20
-70.9235
 30
0.0
 10
-7.4255
 20
-70.7159
 30
0.0
 10
-11.8652
 20
-75.222
 30
0.0
 10
-13.8789
 20
-79.2335
 30
0.0
 10
-13.8789
 20
-79.2335
 30
0.0
 10
-13.0046
 20
-79.6359
 30
0.0
 10
-11.8945
 20
-80.4547
 30
0.0
 10
-11.3567
 20
-81.185
 30
0.0
 10
-11.3567
 20
-81.185
 30
0.0
 10
-13.0333
 20
-83.557
 30
0.0
 10
-14.3757
 20
-87.5901
 30
0.0
 10
-14.9079
 20
-90.0669
 30
0.0
 10
-14.9079
 20
-90.0669
 30
0.0
 10
-13.8457
 20
-90.2349
 30
0.0
 10
-12.3186
 20
-90.5278
 30
0.0
 10
-11.3685
 20
-90.8786
 30
0.0
 10
-11.3685
 20
-90.8786
 30
0.0
 10
-12.1361
 20
-94.179
 30
0.0
 10
-12.7601
 20
-99.5163
 30
0.0
 10
-11.6014
 20
-101.9878
 30
0.0
 10
-11.6014
 20
-101.9878
 30
0.0
 10
-10.6273
 20
-101.3676
 30
0.0
 10
-9.4418
 20
-100.8937
 30
0.0
 10
-8.2988
 20
-100.5018
 30
0.0
 10
-8.2988
 20
-100.5018
 30
0.0
 10
-7.3589
 20
-103.1407
 30
0.0
 10
-5.2546
 20
-105.6474
 30
0.0
 10
-2.5353
 20
-107.0309
 30
0.0
 10
-2.5353
 20
-107.0309
 30
0.0
 10
-2.3566
 20
-105.9941
 30
0.0
 10
-1.9593
 20
-104.7604
 30
0.0
 10
-1.4218
 20
-103.831
 30
0.0
 10
-1.4218
 20
-103.831
 30
0.0
 10
6.5537
 20
-107.3179
 30
0.0
 10
7.7189
 20
-103.8705
 30
0.0
 10
14.1678
 20
-102.9905
 30
0.0
 10
14.1678
 20
-102.9905
 30
0.0
 10
14.551
 20
-102.9383
 30
0.0
 10
14.505
 20
-102.3608
 30
0.0
 10
14.2337
 20
-102.2242
 30
0.0
  0
SPLINE
  5
68
330
1F
100
AcDbEntity
  8
layer 1
 62
   250
100
AcDbSpline
210
0.0
220
0.0
230
1.0
 70
    11
 71
     3
 72
    40
 73
    36
 74
     0
 42
0.0000000001
 43
0.0000000001
 12
1.0
 22
0.0
 32
0.0
 13
1.0
 23
0.0
 33
0.0
 40
0.0
 40
0.0
 40
0.0
 40
0.0
 40
0.1
 40
0.1
 40
0.1
 40
0.1
 40
0.2
 40
0.2
 40
0.2
 40
0.2
 40
0.3
 40
0.3
 40
0.3
 40
0.3
 40
0.4
 40
0.4
 40
0.4
 40
0.4
 40
0.5
 40
0.5
 40
0.5
 40
0.5
 40
0.6
 40
0.6
 40
0.6
 40
0.6
 40
0.7
 40
0.7
 40
0.7
 40
0.7
 40
0.8
 40
0.8
 40
0.8
 40
0.8
 40
1.0
 40
1.0
 40
1.0
 40
1.0
 10
-20.2286
 20
1.1302
 30
0.0
 10
-18.8603
 20
-3.7575
 30
0.0
 10
-15.8588
 20
-7.1938
 30
0.0
 10
-6.8613
 20
-7.245
 30
0.0
 10
-6.8613
 20
-7.245
 30
0.0
 10
-6.1301
 20
-7.2491
 30
0.0
 10
-6.2365
 20
-7.8274
 30
0.0
 10
-6.8529
 20
-8.0668
 30
0.0
 10
-6.8529
 20
-8.0668
 30
0.0
 10
-8.3073
 20
-8.6321
 30
0.0
 10
-9.463
 20
-8.9737
 30
0.0
 10
-11.6684
 20
-9.2908
 30
0.0
 10
-11.6684
 20
-9.2908
 30
0.0
 10
-10.5807
 20
-9.7597
 30
0.0
 10
-9.2968
 20
-10.0805
 30
0.0
 10
-8.3832
 20
-10.2862
 30
0.0
 10
-8.3832
 20
-10.2862
 30
0.0
 10
-8.0222
 20
-10.3675
 30
0.0
 10
-8.013
 20
-10.9995
 30
0.0
 10
-8.3354
 20
-11.1194
 30
0.0
 10
-8.3354
 20
-11.1194
 30
0.0
 10
-11.2871
 20
-12.2185
 30
0.0
 10
-14.7668
 20
-14.2858
 30
0.0
 10
-17.5948
 20
-17.6453
 30
0.0
 10
-17.5948
 20
-17.6453
 30
0.0
 10
-16.5651
 20
-18.1937
 30
0.0
 10
-16.0607
 20
-18.8733
 30
0.0
 10
-15.2935
 20
-19.6841
 30
0.0
 10
-15.2935
 20
-19.6841
 30
0.0
 10
-17.026
 20
-21.0489
 30
0.0
 10
-19.021
 20
-23.7265
 30
0.0
 10
-20.2286
 20
-26.0102
 30
0.0
 10
-20.2286
 20
-26.0102
 30
0.0
 10
-20.2286
 20
-26.0102
 30
0.0
 10
-20.2286
 20
1.1302
 30
0.0
 10
-20.2286
 20
1.1302
 30
0.0
  0
ENDSEC
  0
SECTION
  2
OBJECTS
  0
DICTIONARY
  5
C
330
0
100
AcDbDictionary
281
     1
  3
ACAD_GROUP
350
D
  3
ACAD_LAYOUT
350
1A
  3
ACAD_MATERIAL
350
3B
  3
ACAD_MLEADERSTYLE
350
8A
  3
ACAD_MLINESTYLE
350
17
  3
ACAD_PLOTSETTINGS
350
19
  3
ACAD_PLOTSTYLENAME
350
E
  3
ACAD_TABLESTYLE
350
89
  3
ACAD_VISUALSTYLE
350
2A
  0
DICTIONARY
  5
D
102
{ACAD_REACTORS
330
C
102
}
330
C
100
AcDbDictionary
281
     1
  0
DICTIONARY
  5
1A
102
{ACAD_REACTORS
330
C
102
}
330
C
100
AcDbDictionary
281
     1
  3
Layout1
350
1E
  3
Layout2
350
26
  3
Model
350
22
  0
DICTIONARY
  5
3B
102
{ACAD_REACTORS
330
C
102
}
330
C
100
AcDbDictionary
281
     1
  3
ByBlock
350
3D
  3
ByLayer
350
3C
  3
Global
350
3E
  0
DICTIONARY
  5
8A
102
{ACAD_REACTORS
330
C
102
}
330
C
100
AcDbDictionary
281
     1
  0
DICTIONARY
  5
17
102
{ACAD_REACTORS
330
C
102
}
330
C
100
AcDbDictionary
281
     1
  3
Standard
350
18
  0
DICTIONARY
  5
19
102
{ACAD_REACTORS
330
C
102
}
330
C
100
AcDbDictionary
281
     1
  0
ACDBDICTIONARYWDFLT
  5
E
102
{ACAD_REACTORS
330
C
102
}
330
C
100
AcDbDictionary
281
     1
  3
Normal
350
F
100
AcDbDictionaryWithDefault
340
F
  0
DICTIONARY
  5
89
102
{ACAD_REACTORS
330
C
102
}
330
C
100
AcDbDictionary
281
     1
  0
DICTIONARY
  5
2A
102
{ACAD_REACTORS
330
C
102
}
330
C
100
AcDbDictionary
281
     1
  3
2dWireframe
350
2F
  3
3D Hidden
350
31
  3
3dWireframe
350
30
  3
Basic
350
32
  3
Brighten
350
36
  3
ColorChange
350
3A
  3
Conceptual
350
34
  3
Dim
350
35
  3
Facepattern
350
39
  3
Flat
350
2B
  3
FlatWithEdges
350
2C
  3
Gouraud
350
2D
  3
GouraudWithEdges
350
2E
  3
Linepattern
350
38
  3
Realistic
350
33
  3
Thicken
350
37
  0
LAYOUT
  5
1E
102
{ACAD_REACTORS
330
1A
102
}
330
1A
100
AcDbPlotSettings
  1

  2
none_device
  4

  6

 40
0.0
 41
0.0
 42
0.0
 43
0.0
 44
0.0
 45
0.0
 46
0.0
 47
0.0
 48
0.0
 49
0.0
140
0.0
141
0.0
142
1.0
143
1.0
 70
   688
 72
     0
 73
     0
 74
     5
  7

 75
    16
 76
     0
 77
     2
 78
   300
147
1.0
148
0.0
149
0.0
100
AcDbLayout
  1
Layout1
 70
     1
 71
     1
 10
0.0
 20
0.0
 11
12.0
 21
9.0
 12
0.0
 22
0.0
 32
0.0
 14
1.000000000000000E+20
 24
1.000000000000000E+20
 34
1.000000000000000E+20
 15
-1.000000000000000E+20
 25
-1.000000000000000E+20
 35
-1.000000000000000E+20
146
0.0
 13
0.0
 23
0.0
 33
0.0
 16
1.0
 26
0.0
 36
0.0
 17
0.0
 27
1.0
 37
0.0
 76
     0
330
1B
  0
LAYOUT
  5
26
102
{ACAD_REACTORS
330
1A
102
}
330
1A
100
AcDbPlotSettings
  1

  2
none_device
  4

  6

 40
0.0
 41
0.0
 42
0.0
 43
0.0
 44
0.0
 45
0.0
 46
0.0
 47
0.0
 48
0.0
 49
0.0
140
0.0
141
0.0
142
1.0
143
1.0
 70
   688
 72
     0
 73
     0
 74
     5
  7

 75
    16
 76
     0
 77
     2
 78
   300
147
1.0
148
0.0
149
0.0
100
AcDbLayout
  1
Layout2
 70
     1
 71
     2
 10
0.0
 20
0.0
 11
0.0
 21
0.0
 12
0.0
 22
0.0
 32
0.0
 14
0.0
 24
0.0
 34
0.0
 15
0.0
 25
0.0
 35
0.0
146
0.0
 13
0.0
 23
0.0
 33
0.0
 16
1.0
 26
0.0
 36
0.0
 17
0.0
 27
1.0
 37
0.0
 76
     0
330
23
  0
LAYOUT
  5
22
102
{ACAD_REACTORS
330
1A
102
}
330
1A
100
AcDbPlotSettings
  1

  2
none_device
  4

  6

 40
0.0
 41
0.0
 42
0.0
 43
0.0
 44
0.0
 45
0.0
 46
0.0
 47
0.0
 48
0.0
 49
0.0
140
0.0
141
0.0
142
1.0
143
1.0
 70
  1712
 72
     0
 73
     0
 74
     0
  7

 75
     0
 76
     0
 77
     2
 78
   300
147
1.0
148
0.0
149
0.0
100
AcDbLayout
  1
Model
 70
     1
 71
     0
 10
0.0
 20
0.0
 11
12.0
 21
9.0
 12
0.0
 22
0.0
 32
0.0
 14
-24.7085
 24
-114.4884
 34
0.0
 15
64.8897
 25
131.9066
 35
0.0
146
0.0
 13
0.0
 23
0.0
 33
0.0
 16
1.0
 26
0.0
 36
0.0
 17
0.0
 27
1.0
 37
0.0
 76
     0
330
1F
331
29
  0
MATERIAL
  5
3D
102
{ACAD_REACTORS
330
3B
102
}
330
3B
100
AcDbMaterial
  1
ByBlock
 72
     1
 94
      127
  0
MATERIAL
  5
3C
102
{ACAD_REACTORS
330
3B
102
}
330
3B
100
AcDbMaterial
  1
ByLayer
 72
     1
 94
      127
  0
MATERIAL
  5
3E
102
{ACAD_REACTORS
330
3B
102
}
330
3B
100
AcDbMaterial
  1
Global
 72
     1
 94
      127
  0
MLINESTYLE
  5
18
102
{ACAD_REACTORS
330
17
102
}
330
17
100
AcDbMlineStyle
  2
Standard
 70
     0
  3

 62
   256
 51
90.0
 52
90.0
 71
     2
 49
0.5
 62
   256
  6
BYLAYER
 49
-0.5
 62
   256
  6
BYLAYER
  0
ACDBPLACEHOLDER
  5
F
102
{ACAD_REACTORS
330
E
102
}
330
E
  0
VISUALSTYLE
  5
2F
102
{ACAD_REACTORS
330
2A
102
}
102
{ACAD_XDICTIONARY
360
71
102
}
330
2A
100
AcDbVisualStyle
  2
2dWireframe
 70
     4
 71
     0
 72
     2
 73
     0
 90
        0
 40
-0.6
 41
-30.0
 62
     5
 63
     7
421
 16777215
 74
     1
 91
        4
 64
     7
 65
   257
 75
     1
175
     1
 42
1.0
 92
        0
 66
   257
 43
1.0
 76
     1
 77
     6
 78
     2
 67
     7
 79
     5
170
     0
171
     0
290
     0
174
     0
 93
        1
 44
0.0
173
     0
291
     0
 45
0.0
  0
VISUALSTYLE
  5
31
102
{ACAD_REACTORS
330
2A
102
}
102
{ACAD_XDICTIONARY
360
75
102
}
330
2A
100
AcDbVisualStyle
  2
3D Hidden
 70
     6
 71
     1
 72
     2
 73
     2
 90
        0
 40
-0.6
 41
-30.0
 62
     5
 63
     7
421
 16777215
 74
     2
 91
        2
 64
     7
 65
   257
 75
     2
175
     1
 42
40.0
 92
        0
 66
   257
 43
1.0
 76
     1
 77
     6
 78
     2
 67
     7
 79
     3
170
     0
171
     0
290
     0
174
     0
 93
        1
 44
0.0
173
     0
291
     0
 45
0.0
  0
VISUALSTYLE
  5
30
102
{ACAD_REACTORS
330
2A
102
}
102
{ACAD_XDICTIONARY
360
73
102
}
330
2A
100
AcDbVisualStyle
  2
3dWireframe
 70
     5
 71
     0
 72
     2
 73
     0
 90
        0
 40
-0.6
 41
-30.0
 62
     5
 63
     7
421
 16777215
 74
     1
 91
        4
 64
     7
 65
   257
 75
     1
175
     1
 42
1.0
 92
        0
 66
   257
 43
1.0
 76
     1
 77
     6
 78
     2
 67
     7
 79
     5
170
     0
171
     0
290
     0
174
     0
 93
        1
 44
0.0
173
     0
291
     0
 45
0.0
  0
VISUALSTYLE
  5
32
102
{ACAD_REACTORS
330
2A
102
}
102
{ACAD_XDICTIONARY
360
77
102
}
330
2A
100
AcDbVisualStyle
  2
Basic
 70
     7
 71
     1
 72
     0
 73
     1
 90
        0
 40
-0.6
 41
-30.0
 62
     5
 63
     7
421
 16777215
 74
     0
 91
        4
 64
     7
 65
   257
 75
     1
175
     1
 42
1.0
 92
        8
 66
     7
 43
1.0
 76
     1
 77
     6
 78
     2
 67
     7
 79
     5
170
     0
171
     0
290
     0
174
     0
 93
        1
 44
0.0
173
     0
291
     1
 45
0.0
  0
VISUALSTYLE
  5
36
102
{ACAD_REACTORS
330
2A
102
}
102
{ACAD_XDICTIONARY
360
7F
102
}
330
2A
100
AcDbVisualStyle
  2
Brighten
 70
    12
 71
     2
 72
     2
 73
     0
 90
        0
 40
-0.6
 41
-30.0
 62
     5
 63
     7
421
 16777215
 74
     1
 91
        4
 64
     7
 65
   257
 75
     1
175
     1
 42
1.0
 92
        8
 66
     7
 43
1.0
 76
     1
 77
     6
 78
     2
 67
     7
 79
     5
170
     0
171
     0
290
     0
174
     0
 93
        1
 44
50.0
173
     0
291
     1
 45
0.0
  0
VISUALSTYLE
  5
3A
102
{ACAD_REACTORS
330
2A
102
}
102
{ACAD_XDICTIONARY
360
87
102
}
330
2A
100
AcDbVisualStyle
  2
ColorChange
 70
    16
 71
     2
 72
     2
 73
     3
 90
        0
 40
-0.6
 41
-30.0
 62
     5
 63
     8
421
  8421504
 74
     1
 91
        4
 64
     7
 65
   257
 75
     1
175
     1
 42
1.0
 92
        8
 66
     8
424
  8421504
 43
1.0
 76
     1
 77
     6
 78
     2
 67
     7
 79
     5
170
     0
171
     0
290
     0
174
     0
 93
        1
 44
0.0
173
     0
291
     1
 45
0.0
  0
VISUALSTYLE
  5
34
102
{ACAD_REACTORS
330
2A
102
}
102
{ACAD_XDICTIONARY
360
7B
102
}
330
2A
100
AcDbVisualStyle
  2
Conceptual
 70
     9
 71
     3
 72
     2
 73
     0
 90
        0
 40
-0.6
 41
-30.0
 62
     5
 63
     7
421
 16777215
 74
     2
 91
        2
 64
     7
 65
   257
 75
     1
175
     1
 42
40.0
 92
        8
 66
     7
 43
1.0
 76
     1
 77
     6
 78
     2
 67
     7
 79
     3
170
     0
171
     0
290
     0
174
     0
 93
        1
 44
0.0
173
     0
291
     0
 45
0.0
  0
VISUALSTYLE
  5
35
102
{ACAD_REACTORS
330
2A
102
}
102
{ACAD_XDICTIONARY
360
7D
102
}
330
2A
100
AcDbVisualStyle
  2
Dim
 70
    11
 71
     2
 72
     2
 73
     0
 90
        0
 40
-0.6
 41
-30.0
 62
     5
 63
     7
421
 16777215
 74
     1
 91
        4
 64
     7
 65
   257
 75
     1
175
     1
 42
1.0
 92
        8
 66
     7
 43
1.0
 76
     1
 77
     6
 78
     2
 67
     7
 79
     5
170
     0
171
     0
290
     0
174
     0
 93
        1
 44
-50.0
173
     0
291
     1
 45
0.0
  0
VISUALSTYLE
  5
39
102
{ACAD_REACTORS
330
2A
102
}
102
{ACAD_XDICTIONARY
360
85
102
}
330
2A
100
AcDbVisualStyle
  2
Facepattern
 70
    15
 71
     2
 72
     2
 73
     0
 90
        0
 40
-0.6
 41
-30.0
 62
     5
 63
     7
421
 16777215
 74
     1
 91
        4
 64
     7
 65
   257
 75
     1
175
     1
 42
1.0
 92
        8
 66
     7
 43
1.0
 76
     1
 77
     6
 78
     2
 67
     7
 79
     5
170
     0
171
     0
290
     0
174
     0
 93
        1
 44
0.0
173
     0
291
     1
 45
0.0
  0
VISUALSTYLE
  5
2B
102
{ACAD_REACTORS
330
2A
102
}
102
{ACAD_XDICTIONARY
360
69
102
}
330
2A
100
AcDbVisualStyle
  2
Flat
 70
     0
 71
     2
 72
     1
 73
     1
 90
        2
 40
-0.6
 41
30.0
 62
     5
 63
     7
421
 16777215
 74
     0
 91
        4
 64
     7
 65
   257
 75
     1
175
     1
 42
1.0
 92
        8
 66
     7
 43
1.0
 76
     1
 77
     6
 78
     2
 67
     7
 79
     5
170
     0
171
     0
290
     0
174
     0
 93
       13
 44
0.0
173
     0
291
     1
 45
0.0
  0
VISUALSTYLE
  5
2C
102
{ACAD_REACTORS
330
2A
102
}
102
{ACAD_XDICTIONARY
360
6B
102
}
330
2A
100
AcDbVisualStyle
  2
FlatWithEdges
 70
     1
 71
     2
 72
     1
 73
     1
 90
        2
 40
-0.6
 41
30.0
 62
     5
 63
     7
421
 16777215
 74
     1
 91
        4
 64
     7
 65
   257
 75
     1
175
     1
 42
1.0
 92
        0
 66
   257
 43
1.0
 76
     1
 77
     6
 78
     2
 67
     7
 79
     5
170
     0
171
     0
290
     0
174
     0
 93
       13
 44
0.0
173
     0
291
     1
 45
0.0
  0
VISUALSTYLE
  5
2D
102
{ACAD_REACTORS
330
2A
102
}
102
{ACAD_XDICTIONARY
360
6D
102
}
330
2A
100
AcDbVisualStyle
  2
Gouraud
 70
     2
 71
     2
 72
     2
 73
     1
 90
        2
 40
-0.6
 41
30.0
 62
     5
 63
     7
421
 16777215
 74
     0
 91
        4
 64
     7
 65
   257
 75
     1
175
     1
 42
1.0
 92
        0
 66
     7
 43
1.0
 76
     1
 77
     6
 78
     2
 67
     7
 79
     5
170
     0
171
     0
290
     0
174
     0
 93
       13
 44
0.0
173
     0
291
     1
 45
0.0
  0
VISUALSTYLE
  5
2E
102
{ACAD_REACTORS
330
2A
102
}
102
{ACAD_XDICTIONARY
360
6F
102
}
330
2A
100
AcDbVisualStyle
  2
GouraudWithEdges
 70
     3
 71
     2
 72
     2
 73
     1
 90
        2
 40
-0.6
 41
30.0
 62
     5
 63
     7
421
 16777215
 74
     1
 91
        4
 64
     7
 65
   257
 75
     1
175
     1
 42
1.0
 92
        0
 66
   257
 43
1.0
 76
     1
 77
     6
 78
     2
 67
     7
 79
     5
170
     0
171
     0
290
     0
174
     0
 93
       13
 44
0.0
173
     0
291
     1
 45
0.0
  0
VISUALSTYLE
  5
38
102
{ACAD_REACTORS
330
2A
102
}
102
{ACAD_XDICTIONARY
360
83
102
}
330
2A
100
AcDbVisualStyle
  2
Linepattern
 70
    14
 71
     2
 72
     2
 73
     0
 90
        0
 40
-0.6
 41
-30.0
 62
     5
 63
     7
421
 16777215
 74
     1
 91
        4
 64
     7
 65
   257
 75
     7
175
     7
 42
1.0
 92
        8
 66
     7
 43
1.0
 76
     1
 77
     6
 78
     2
 67
     7
 79
     5
170
     0
171
     0
290
     0
174
     0
 93
        1
 44
0.0
173
     0
291
     1
 45
0.0
  0
VISUALSTYLE
  5
33
102
{ACAD_REACTORS
330
2A
102
}
102
{ACAD_XDICTIONARY
360
79
102
}
330
2A
100
AcDbVisualStyle
  2
Realistic
 70
     8
 71
     2
 72
     2
 73
     0
 90
        0
 40
-0.6
 41
-30.0
 62
     5
 63
     7
421
 16777215
 74
     1
 91
        0
 64
     7
 65
   257
 75
     1
175
     1
 42
1.0
 92
        8
 66
     8
424
  7895160
 43
1.0
 76
     1
 77
     6
 78
     2
 67
     7
 79
     5
170
     0
171
     0
290
     0
174
     0
 93
       13
 44
0.0
173
     0
291
     0
 45
0.0
  0
VISUALSTYLE
  5
37
102
{ACAD_REACTORS
330
2A
102
}
102
{ACAD_XDICTIONARY
360
81
102
}
330
2A
100
AcDbVisualStyle
  2
Thicken
 70
    13
 71
     2
 72
     2
 73
     0
 90
        0
 40
-0.6
 41
-30.0
 62
     5
 63
     7
421
 16777215
 74
     1
 91
        4
 64
     7
 65
   257
 75
     1
175
     1
 42
1.0
 92
       12
 66
     7
 43
1.0
 76
     1
 77
     6
 78
     2
 67
     7
 79
     5
170
     0
171
     0
290
     0
174
     0
 93
        1
 44
0.0
173
     0
291
     1
 45
0.0
  0
DICTIONARY
  5
71
330
2F
100
AcDbDictionary
280
     1
281
     1
  3
ACAD_XREC_ROUNDTRIP
360
72
  0
DICTIONARY
  5
75
330
31
100
AcDbDictionary
280
     1
281
     1
  3
ACAD_XREC_ROUNDTRIP
360
76
  0
DICTIONARY
  5
73
330
30
100
AcDbDictionary
280
     1
281
     1
  3
ACAD_XREC_ROUNDTRIP
360
74
  0
DICTIONARY
  5
77
330
32
100
AcDbDictionary
280
     1
281
     1
  3
ACAD_XREC_ROUNDTRIP
360
78
  0
DICTIONARY
  5
7F
330
36
100
AcDbDictionary
280
     1
281
     1
  3
ACAD_XREC_ROUNDTRIP
360
80
  0
DICTIONARY
  5
87
330
3A
100
AcDbDictionary
280
     1
281
     1
  3
ACAD_XREC_ROUNDTRIP
360
88
  0
DICTIONARY
  5
7B
330
34
100
AcDbDictionary
280
     1
281
     1
  3
ACAD_XREC_ROUNDTRIP
360
7C
  0
DICTIONARY
  5
7D
330
35
100
AcDbDictionary
280
     1
281
     1
  3
ACAD_XREC_ROUNDTRIP
360
7E
  0
DICTIONARY
  5
85
330
39
100
AcDbDictionary
280
     1
281
     1
  3
ACAD_XREC_ROUNDTRIP
360
86
  0
DICTIONARY
  5
69
330
2B
100
AcDbDictionary
280
     1
281
     1
  3
ACAD_XREC_ROUNDTRIP
360
6A
  0
DICTIONARY
  5
6B
330
2C
100
AcDbDictionary
280
     1
281
     1
  3
ACAD_XREC_ROUNDTRIP
360
6C
  0
DICTIONARY
  5
6D
330
2D
100
AcDbDictionary
280
     1
281
     1
  3
ACAD_XREC_ROUNDTRIP
360
6E
  0
DICTIONARY
  5
6F
330
2E
100
AcDbDictionary
280
     1
281
     1
  3
ACAD_XREC_ROUNDTRIP
360
70
  0
DICTIONARY
  5
83
330
38
100
AcDbDictionary
280
     1
281
     1
  3
ACAD_XREC_ROUNDTRIP
360
84
  0
DICTIONARY
  5
79
330
33
100
AcDbDictionary
280
     1
281
     1
  3
ACAD_XREC_ROUNDTRIP
360
7A
  0
DICTIONARY
  5
81
330
37
100
AcDbDictionary
280
     1
281
     1
  3
ACAD_XREC_ROUNDTRIP
360
82
  0
XRECORD
  5
72
102
{ACAD_REACTORS
330
71
102
}
330
71
100
AcDbXrecord
280
     1
102
RTVSPropertyOp0
 70
     1
102
RTVSPropertyOp1
 70
     1
102
RTVSPropertyOp2
 70
     1
102
RTVSPropertyOp3
 70
     1
102
RTVSPropertyOp4
 70
     1
102
RTVSPropertyOp5
 70
     1
102
RTVSPropertyOp6
 70
     1
102
RTVSPropertyOp7
 70
     1
102
RTVSPropertyOp8
 70
     1
102
RTVSPropertyOp9
 70
     1
102
RTVSPropertyOp10
 70
     1
102
RTVSPropertyOp11
 70
     1
102
RTVSPropertyOp12
 70
     1
102
RTVSPropertyOp13
 70
     1
102
RTVSPropertyOp14
 70
     1
102
RTVSPropertyOp15
 70
     1
102
RTVSPropertyOp16
 70
     1
102
RTVSPropertyOp17
 70
     1
102
RTVSPropertyOp18
 70
     1
102
RTVSPropertyOp19
 70
     1
102
RTVSPropertyOp20
 70
     1
102
RTVSPropertyOp21
 70
     1
102
RTVSPropertyOp22
 70
     1
102
RTVSPropertyOp23
 70
     1
102
RTVSPropertyOp24
 70
     1
102
RTVSPropertyOp25
 70
     1
102
RTVSPropertyOp26
 70
     1
102
RTVSPropertyOp27
 70
     1
102
RTVSPropertyOp28
 70
     1
102
RTVSPropertyOp29
 70
     1
102
RTVSPropertyOp30
 70
     1
102
RTVSPropertyOp31
 70
     1
102
RTVSPropertyOp32
 70
     1
  0
XRECORD
  5
76
102
{ACAD_REACTORS
330
75
102
}
330
75
100
AcDbXrecord
280
     1
102
RTVSPropertyOp0
 70
     1
102
RTVSPropertyOp1
 70
     1
102
RTVSPropertyOp2
 70
     1
102
RTVSPropertyOp3
 70
     1
102
RTVSPropertyOp4
 70
     1
102
RTVSPropertyOp5
 70
     1
102
RTVSPropertyOp6
 70
     1
102
RTVSPropertyOp7
 70
     1
102
RTVSPropertyOp8
 70
     1
102
RTVSPropertyOp9
 70
     1
102
RTVSPropertyOp10
 70
     1
102
RTVSPropertyOp11
 70
     1
102
RTVSPropertyOp12
 70
     1
102
RTVSPropertyOp13
 70
     1
102
RTVSPropertyOp14
 70
     1
102
RTVSPropertyOp15
 70
     1
102
RTVSPropertyOp16
 70
     1
102
RTVSPropertyOp17
 70
     1
102
RTVSPropertyOp18
 70
     1
102
RTVSPropertyOp19
 70
     1
102
RTVSPropertyOp20
 70
     1
102
RTVSPropertyOp21
 70
     1
102
RTVSPropertyOp22
 70
     1
102
RTVSPropertyOp23
 70
     1
102
RTVSPropertyOp24
 70
     1
102
RTVSPropertyOp25
 70
     1
102
RTVSPropertyOp26
 70
     1
102
RTVSPropertyOp27
 70
     1
102
RTVSPropertyOp28
 70
     1
102
RTVSPropertyOp29
 70
     1
102
RTVSPropertyOp30
 70
     1
102
RTVSPropertyOp31
 70
     1
102
RTVSPropertyOp32
 70
     1
  0
XRECORD
  5
74
102
{ACAD_REACTORS
330
73
102
}
330
73
100
AcDbXrecord
280
     1
102
RTVSPropertyOp0
 70
     1
102
RTVSPropertyOp1
 70
     1
102
RTVSPropertyOp2
 70
     1
102
RTVSPropertyOp3
 70
     1
102
RTVSPropertyOp4
 70
     1
102
RTVSPropertyOp5
 70
     1
102
RTVSPropertyOp6
 70
     1
102
RTVSPropertyOp7
 70
     1
102
RTVSPropertyOp8
 70
     1
102
RTVSPropertyOp9
 70
     1
102
RTVSPropertyOp10
 70
     1
102
RTVSPropertyOp11
 70
     1
102
RTVSPropertyOp12
 70
     1
102
RTVSPropertyOp13
 70
     1
102
RTVSPropertyOp14
 70
     1
102
RTVSPropertyOp15
 70
     1
102
RTVSPropertyOp16
 70
     1
102
RTVSPropertyOp17
 70
     1
102
RTVSPropertyOp18
 70
     1
102
RTVSPropertyOp19
 70
     1
102
RTVSPropertyOp20
 70
     1
102
RTVSPropertyOp21
 70
     1
102
RTVSPropertyOp22
 70
     1
102
RTVSPropertyOp23
 70
     1
102
RTVSPropertyOp24
 70
     1
102
RTVSPropertyOp25
 70
     1
102
RTVSPropertyOp26
 70
     1
102
RTVSPropertyOp27
 70
     1
102
RTVSPropertyOp28
 70
     1
102
RTVSPropertyOp29
 70
     1
102
RTVSPropertyOp30
 70
     1
102
RTVSPropertyOp31
 70
     1
102
RTVSPropertyOp32
 70
     1
  0
XRECORD
  5
78
102
{ACAD_REACTORS
330
77
102
}
330
77
100
AcDbXrecord
280
     1
102
RTVSPropertyOp0
 70
     1
102
RTVSPropertyOp1
 70
     1
102
RTVSPropertyOp2
 70
     1
102
RTVSPropertyOp3
 70
     1
102
RTVSPropertyOp4
 70
     1
102
RTVSPropertyOp5
 70
     1
102
RTVSPropertyOp6
 70
     1
102
RTVSPropertyOp7
 70
     1
102
RTVSPropertyOp8
 70
     1
102
RTVSPropertyOp9
 70
     1
102
RTVSPropertyOp10
 70
     1
102
RTVSPropertyOp11
 70
     1
102
RTVSPropertyOp12
 70
     1
102
RTVSPropertyOp13
 70
     1
102
RTVSPropertyOp14
 70
     1
102
RTVSPropertyOp15
 70
     1
102
RTVSPropertyOp16
 70
     1
102
RTVSPropertyOp17
 70
     1
102
RTVSPropertyOp18
 70
     1
102
RTVSPropertyOp19
 70
     1
102
RTVSPropertyOp20
 70
     1
102
RTVSPropertyOp21
 70
     1
102
RTVSPropertyOp22
 70
     1
102
RTVSPropertyOp23
 70
     1
102
RTVSPropertyOp24
 70
     1
102
RTVSPropertyOp25
 70
     1
102
RTVSPropertyOp26
 70
     1
102
RTVSPropertyOp27
 70
     1
102
RTVSPropertyOp28
 70
     1
102
RTVSPropertyOp29
 70
     1
102
RTVSPropertyOp30
 70
     1
102
RTVSPropertyOp31
 70
     1
102
RTVSPropertyOp32
 70
     1
  0
XRECORD
  5
80
102
{ACAD_REACTORS
330
7F
102
}
330
7F
100
AcDbXrecord
280
     1
102
RTVSPropertyOp0
 70
     1
102
RTVSPropertyOp1
 70
     1
102
RTVSPropertyOp2
 70
     1
102
RTVSPropertyOp3
 70
     1
102
RTVSPropertyOp4
 70
     1
102
RTVSPropertyOp5
 70
     1
102
RTVSPropertyOp6
 70
     1
102
RTVSPropertyOp7
 70
     1
102
RTVSPropertyOp8
 70
     1
102
RTVSPropertyOp9
 70
     1
102
RTVSPropertyOp10
 70
     1
102
RTVSPropertyOp11
 70
     1
102
RTVSPropertyOp12
 70
     1
102
RTVSPropertyOp13
 70
     1
102
RTVSPropertyOp14
 70
     1
102
RTVSPropertyOp15
 70
     1
102
RTVSPropertyOp16
 70
     1
102
RTVSPropertyOp17
 70
     1
102
RTVSPropertyOp18
 70
     1
102
RTVSPropertyOp19
 70
     1
102
RTVSPropertyOp20
 70
     1
102
RTVSPropertyOp21
 70
     1
102
RTVSPropertyOp22
 70
     1
102
RTVSPropertyOp23
 70
     1
102
RTVSPropertyOp24
 70
     1
102
RTVSPropertyOp25
 70
     1
102
RTVSPropertyOp26
 70
     1
102
RTVSPropertyOp27
 70
     1
102
RTVSPropertyOp28
 70
     1
102
RTVSPropertyOp29
 70
     1
102
RTVSPropertyOp30
 70
     1
102
RTVSPropertyOp31
 70
     1
102
RTVSPropertyOp32
 70
     1
  0
XRECORD
  5
88
102
{ACAD_REACTORS
330
87
102
}
330
87
100
AcDbXrecord
280
     1
102
RTVSPropertyOp0
 70
     1
102
RTVSPropertyOp1
 70
     1
102
RTVSPropertyOp2
 70
     1
102
RTVSPropertyOp3
 70
     1
102
RTVSPropertyOp4
 70
     1
102
RTVSPropertyOp5
 70
     1
102
RTVSPropertyOp6
 70
     1
102
RTVSPropertyOp7
 70
     1
102
RTVSPropertyOp8
 70
     1
102
RTVSPropertyOp9
 70
     1
102
RTVSPropertyOp10
 70
     1
102
RTVSPropertyOp11
 70
     1
102
RTVSPropertyOp12
 70
     1
102
RTVSPropertyOp13
 70
     1
102
RTVSPropertyOp14
 70
     1
102
RTVSPropertyOp15
 70
     1
102
RTVSPropertyOp16
 70
     1
102
RTVSPropertyOp17
 70
     1
102
RTVSPropertyOp18
 70
     1
102
RTVSPropertyOp19
 70
     1
102
RTVSPropertyOp20
 70
     1
102
RTVSPropertyOp21
 70
     1
102
RTVSPropertyOp22
 70
     1
102
RTVSPropertyOp23
 70
     1
102
RTVSPropertyOp24
 70
     1
102
RTVSPropertyOp25
 70
     1
102
RTVSPropertyOp26
 70
     1
102
RTVSPropertyOp27
 70
     1
102
RTVSPropertyOp28
 70
     1
102
RTVSPropertyOp29
 70
     1
102
RTVSPropertyOp30
 70
     1
102
RTVSPropertyOp31
 70
     1
102
RTVSPropertyOp32
 70
     1
  0
XRECORD
  5
7C
102
{ACAD_REACTORS
330
7B
102
}
330
7B
100
AcDbXrecord
280
     1
102
RTVSPropertyOp0
 70
     1
102
RTVSPropertyOp1
 70
     1
102
RTVSPropertyOp2
 70
     1
102
RTVSPropertyOp3
 70
     1
102
RTVSPropertyOp4
 70
     1
102
RTVSPropertyOp5
 70
     1
102
RTVSPropertyOp6
 70
     1
102
RTVSPropertyOp7
 70
     1
102
RTVSPropertyOp8
 70
     1
102
RTVSPropertyOp9
 70
     1
102
RTVSPropertyOp10
 70
     1
102
RTVSPropertyOp11
 70
     1
102
RTVSPropertyOp12
 70
     1
102
RTVSPropertyOp13
 70
     1
102
RTVSPropertyOp14
 70
     1
102
RTVSPropertyOp15
 70
     1
102
RTVSPropertyOp16
 70
     1
102
RTVSPropertyOp17
 70
     1
102
RTVSPropertyOp18
 70
     1
102
RTVSPropertyOp19
 70
     1
102
RTVSPropertyOp20
 70
     1
102
RTVSPropertyOp21
 70
     1
102
RTVSPropertyOp22
 70
     1
102
RTVSPropertyOp23
 70
     1
102
RTVSPropertyOp24
 70
     1
102
RTVSPropertyOp25
 70
     1
102
RTVSPropertyOp26
 70
     1
102
RTVSPropertyOp27
 70
     1
102
RTVSPropertyOp28
 70
     1
102
RTVSPropertyOp29
 70
     1
102
RTVSPropertyOp30
 70
     1
102
RTVSPropertyOp31
 70
     1
102
RTVSPropertyOp32
 70
     1
  0
XRECORD
  5
7E
102
{ACAD_REACTORS
330
7D
102
}
330
7D
100
AcDbXrecord
280
     1
102
RTVSPropertyOp0
 70
     1
102
RTVSPropertyOp1
 70
     1
102
RTVSPropertyOp2
 70
     1
102
RTVSPropertyOp3
 70
     1
102
RTVSPropertyOp4
 70
     1
102
RTVSPropertyOp5
 70
     1
102
RTVSPropertyOp6
 70
     1
102
RTVSPropertyOp7
 70
     1
102
RTVSPropertyOp8
 70
     1
102
RTVSPropertyOp9
 70
     1
102
RTVSPropertyOp10
 70
     1
102
RTVSPropertyOp11
 70
     1
102
RTVSPropertyOp12
 70
     1
102
RTVSPropertyOp13
 70
     1
102
RTVSPropertyOp14
 70
     1
102
RTVSPropertyOp15
 70
     1
102
RTVSPropertyOp16
 70
     1
102
RTVSPropertyOp17
 70
     1
102
RTVSPropertyOp18
 70
     1
102
RTVSPropertyOp19
 70
     1
102
RTVSPropertyOp20
 70
     1
102
RTVSPropertyOp21
 70
     1
102
RTVSPropertyOp22
 70
     1
102
RTVSPropertyOp23
 70
     1
102
RTVSPropertyOp24
 70
     1
102
RTVSPropertyOp25
 70
     1
102
RTVSPropertyOp26
 70
     1
102
RTVSPropertyOp27
 70
     1
102
RTVSPropertyOp28
 70
     1
102
RTVSPropertyOp29
 70
     1
102
RTVSPropertyOp30
 70
     1
102
RTVSPropertyOp31
 70
     1
102
RTVSPropertyOp32
 70
     1
  0
XRECORD
  5
86
102
{ACAD_REACTORS
330
85
102
}
330
85
100
AcDbXrecord
280
     1
102
RTVSPropertyOp0
 70
     1
102
RTVSPropertyOp1
 70
     1
102
RTVSPropertyOp2
 70
     1
102
RTVSPropertyOp3
 70
     1
102
RTVSPropertyOp4
 70
     1
102
RTVSPropertyOp5
 70
     1
102
RTVSPropertyOp6
 70
     1
102
RTVSPropertyOp7
 70
     1
102
RTVSPropertyOp8
 70
     1
102
RTVSPropertyOp9
 70
     1
102
RTVSPropertyOp10
 70
     1
102
RTVSPropertyOp11
 70
     1
102
RTVSPropertyOp12
 70
     1
102
RTVSPropertyOp13
 70
     1
102
RTVSPropertyOp14
 70
     1
102
RTVSPropertyOp15
 70
     1
102
RTVSPropertyOp16
 70
     1
102
RTVSPropertyOp17
 70
     1
102
RTVSPropertyOp18
 70
     1
102
RTVSPropertyOp19
 70
     1
102
RTVSPropertyOp20
 70
     1
102
RTVSPropertyOp21
 70
     1
102
RTVSPropertyOp22
 70
     1
102
RTVSPropertyOp23
 70
     1
102
RTVSPropertyOp24
 70
     1
102
RTVSPropertyOp25
 70
     1
102
RTVSPropertyOp26
 70
     1
102
RTVSPropertyOp27
 70
     1
102
RTVSPropertyOp28
 70
     1
102
RTVSPropertyOp29
 70
     1
102
RTVSPropertyOp30
 70
     1
102
RTVSPropertyOp31
 70
     1
102
RTVSPropertyOp32
 70
     1
  0
XRECORD
  5
6A
102
{ACAD_REACTORS
330
69
102
}
330
69
100
AcDbXrecord
280
     1
102
RTVSPropertyOp0
 70
     1
102
RTVSPropertyOp1
 70
     1
102
RTVSPropertyOp2
 70
     1
102
RTVSPropertyOp3
 70
     1
102
RTVSPropertyOp4
 70
     1
102
RTVSPropertyOp5
 70
     1
102
RTVSPropertyOp6
 70
     1
102
RTVSPropertyOp7
 70
     1
102
RTVSPropertyOp8
 70
     1
102
RTVSPropertyOp9
 70
     1
102
RTVSPropertyOp10
 70
     1
102
RTVSPropertyOp11
 70
     1
102
RTVSPropertyOp12
 70
     1
102
RTVSPropertyOp13
 70
     1
102
RTVSPropertyOp14
 70
     1
102
RTVSPropertyOp15
 70
     1
102
RTVSPropertyOp16
 70
     1
102
RTVSPropertyOp17
 70
     1
102
RTVSPropertyOp18
 70
     1
102
RTVSPropertyOp19
 70
     1
102
RTVSPropertyOp20
 70
     1
102
RTVSPropertyOp21
 70
     1
102
RTVSPropertyOp22
 70
     1
102
RTVSPropertyOp23
 70
     1
102
RTVSPropertyOp24
 70
     1
102
RTVSPropertyOp25
 70
     1
102
RTVSPropertyOp26
 70
     1
102
RTVSPropertyOp27
 70
     1
102
RTVSPropertyOp28
 70
     1
102
RTVSPropertyOp29
 70
     1
102
RTVSPropertyOp30
 70
     1
102
RTVSPropertyOp31
 70
     1
102
RTVSPropertyOp32
 70
     1
  0
XRECORD
  5
6C
102
{ACAD_REACTORS
330
6B
102
}
330
6B
100
AcDbXrecord
280
     1
102
RTVSPropertyOp0
 70
     1
102
RTVSPropertyOp1
 70
     1
102
RTVSPropertyOp2
 70
     1
102
RTVSPropertyOp3
 70
     1
102
RTVSPropertyOp4
 70
     1
102
RTVSPropertyOp5
 70
     1
102
RTVSPropertyOp6
 70
     1
102
RTVSPropertyOp7
 70
     1
102
RTVSPropertyOp8
 70
     1
102
RTVSPropertyOp9
 70
     1
102
RTVSPropertyOp10
 70
     1
102
RTVSPropertyOp11
 70
     1
102
RTVSPropertyOp12
 70
     1
102
RTVSPropertyOp13
 70
     1
102
RTVSPropertyOp14
 70
     1
102
RTVSPropertyOp15
 70
     1
102
RTVSPropertyOp16
 70
     1
102
RTVSPropertyOp17
 70
     1
102
RTVSPropertyOp18
 70
     1
102
RTVSPropertyOp19
 70
     1
102
RTVSPropertyOp20
 70
     1
102
RTVSPropertyOp21
 70
     1
102
RTVSPropertyOp22
 70
     1
102
RTVSPropertyOp23
 70
     1
102
RTVSPropertyOp24
 70
     1
102
RTVSPropertyOp25
 70
     1
102
RTVSPropertyOp26
 70
     1
102
RTVSPropertyOp27
 70
     1
102
RTVSPropertyOp28
 70
     1
102
RTVSPropertyOp29
 70
     1
102
RTVSPropertyOp30
 70
     1
102
RTVSPropertyOp31
 70
     1
102
RTVSPropertyOp32
 70
     1
  0
XRECORD
  5
6E
102
{ACAD_REACTORS
330
6D
102
}
330
6D
100
AcDbXrecord
280
     1
102
RTVSPropertyOp0
 70
     1
102
RTVSPropertyOp1
 70
     1
102
RTVSPropertyOp2
 70
     1
102
RTVSPropertyOp3
 70
     1
102
RTVSPropertyOp4
 70
     1
102
RTVSPropertyOp5
 70
     1
102
RTVSPropertyOp6
 70
     1
102
RTVSPropertyOp7
 70
     1
102
RTVSPropertyOp8
 70
     1
102
RTVSPropertyOp9
 70
     1
102
RTVSPropertyOp10
 70
     1
102
RTVSPropertyOp11
 70
     1
102
RTVSPropertyOp12
 70
     1
102
RTVSPropertyOp13
 70
     1
102
RTVSPropertyOp14
 70
     1
102
RTVSPropertyOp15
 70
     1
102
RTVSPropertyOp16
 70
     1
102
RTVSPropertyOp17
 70
     1
102
RTVSPropertyOp18
 70
     1
102
RTVSPropertyOp19
 70
     1
102
RTVSPropertyOp20
 70
     1
102
RTVSPropertyOp21
 70
     1
102
RTVSPropertyOp22
 70
     1
102
RTVSPropertyOp23
 70
     1
102
RTVSPropertyOp24
 70
     1
102
RTVSPropertyOp25
 70
     1
102
RTVSPropertyOp26
 70
     1
102
RTVSPropertyOp27
 70
     1
102
RTVSPropertyOp28
 70
     1
102
RTVSPropertyOp29
 70
     1
102
RTVSPropertyOp30
 70
     1
102
RTVSPropertyOp31
 70
     1
102
RTVSPropertyOp32
 70
     1
  0
XRECORD
  5
70
102
{ACAD_REACTORS
330
6F
102
}
330
6F
100
AcDbXrecord
280
     1
102
RTVSPropertyOp0
 70
     1
102
RTVSPropertyOp1
 70
     1
102
RTVSPropertyOp2
 70
     1
102
RTVSPropertyOp3
 70
     1
102
RTVSPropertyOp4
 70
     1
102
RTVSPropertyOp5
 70
     1
102
RTVSPropertyOp6
 70
     1
102
RTVSPropertyOp7
 70
     1
102
RTVSPropertyOp8
 70
     1
102
RTVSPropertyOp9
 70
     1
102
RTVSPropertyOp10
 70
     1
102
RTVSPropertyOp11
 70
     1
102
RTVSPropertyOp12
 70
     1
102
RTVSPropertyOp13
 70
     1
102
RTVSPropertyOp14
 70
     1
102
RTVSPropertyOp15
 70
     1
102
RTVSPropertyOp16
 70
     1
102
RTVSPropertyOp17
 70
     1
102
RTVSPropertyOp18
 70
     1
102
RTVSPropertyOp19
 70
     1
102
RTVSPropertyOp20
 70
     1
102
RTVSPropertyOp21
 70
     1
102
RTVSPropertyOp22
 70
     1
102
RTVSPropertyOp23
 70
     1
102
RTVSPropertyOp24
 70
     1
102
RTVSPropertyOp25
 70
     1
102
RTVSPropertyOp26
 70
     1
102
RTVSPropertyOp27
 70
     1
102
RTVSPropertyOp28
 70
     1
102
RTVSPropertyOp29
 70
     1
102
RTVSPropertyOp30
 70
     1
102
RTVSPropertyOp31
 70
     1
102
RTVSPropertyOp32
 70
     1
  0
XRECORD
  5
84
102
{ACAD_REACTORS
330
83
102
}
330
83
100
AcDbXrecord
280
     1
102
RTVSPropertyOp0
 70
     1
102
RTVSPropertyOp1
 70
     1
102
RTVSPropertyOp2
 70
     1
102
RTVSPropertyOp3
 70
     1
102
RTVSPropertyOp4
 70
     1
102
RTVSPropertyOp5
 70
     1
102
RTVSPropertyOp6
 70
     1
102
RTVSPropertyOp7
 70
     1
102
RTVSPropertyOp8
 70
     1
102
RTVSPropertyOp9
 70
     1
102
RTVSPropertyOp10
 70
     1
102
RTVSPropertyOp11
 70
     1
102
RTVSPropertyOp12
 70
     1
102
RTVSPropertyOp13
 70
     1
102
RTVSPropertyOp14
 70
     1
102
RTVSPropertyOp15
 70
     1
102
RTVSPropertyOp16
 70
     1
102
RTVSPropertyOp17
 70
     1
102
RTVSPropertyOp18
 70
     1
102
RTVSPropertyOp19
 70
     1
102
RTVSPropertyOp20
 70
     1
102
RTVSPropertyOp21
 70
     1
102
RTVSPropertyOp22
 70
     1
102
RTVSPropertyOp23
 70
     1
102
RTVSPropertyOp24
 70
     1
102
RTVSPropertyOp25
 70
     1
102
RTVSPropertyOp26
 70
     1
102
RTVSPropertyOp27
 70
     1
102
RTVSPropertyOp28
 70
     1
102
RTVSPropertyOp29
 70
     1
102
RTVSPropertyOp30
 70
     1
102
RTVSPropertyOp31
 70
     1
102
RTVSPropertyOp32
 70
     1
  0
XRECORD
  5
7A
102
{ACAD_REACTORS
330
79
102
}
330
79
100
AcDbXrecord
280
     1
102
RTVSPropertyOp0
 70
     1
102
RTVSPropertyOp1
 70
     1
102
RTVSPropertyOp2
 70
     1
102
RTVSPropertyOp3
 70
     1
102
RTVSPropertyOp4
 70
     1
102
RTVSPropertyOp5
 70
     1
102
RTVSPropertyOp6
 70
     1
102
RTVSPropertyOp7
 70
     1
102
RTVSPropertyOp8
 70
     1
102
RTVSPropertyOp9
 70
     1
102
RTVSPropertyOp10
 70
     1
102
RTVSPropertyOp11
 70
     1
102
RTVSPropertyOp12
 70
     1
102
RTVSPropertyOp13
 70
     1
102
RTVSPropertyOp14
 70
     1
102
RTVSPropertyOp15
 70
     1
102
RTVSPropertyOp16
 70
     1
102
RTVSPropertyOp17
 70
     1
102
RTVSPropertyOp18
 70
     1
102
RTVSPropertyOp19
 70
     1
102
RTVSPropertyOp20
 70
     1
102
RTVSPropertyOp21
 70
     1
102
RTVSPropertyOp22
 70
     1
102
RTVSPropertyOp23
 70
     1
102
RTVSPropertyOp24
 70
     1
102
RTVSPropertyOp25
 70
     1
102
RTVSPropertyOp26
 70
     1
102
RTVSPropertyOp27
 70
     1
102
RTVSPropertyOp28
 70
     1
102
RTVSPropertyOp29
 70
     1
102
RTVSPropertyOp30
 70
     1
102
RTVSPropertyOp31
 70
     1
102
RTVSPropertyOp32
 70
     1
  0
XRECORD
  5
82
102
{ACAD_REACTORS
330
81
102
}
330
81
100
AcDbXrecord
280
     1
102
RTVSPropertyOp0
 70
     1
102
RTVSPropertyOp1
 70
     1
102
RTVSPropertyOp2
 70
     1
102
RTVSPropertyOp3
 70
     1
102
RTVSPropertyOp4
 70
     1
102
RTVSPropertyOp5
 70
     1
102
RTVSPropertyOp6
 70
     1
102
RTVSPropertyOp7
 70
     1
102
RTVSPropertyOp8
 70
     1
102
RTVSPropertyOp9
 70
     1
102
RTVSPropertyOp10
 70
     1
102
RTVSPropertyOp11
 70
     1
102
RTVSPropertyOp12
 70
     1
102
RTVSPropertyOp13
 70
     1
102
RTVSPropertyOp14
 70
     1
102
RTVSPropertyOp15
 70
     1
102
RTVSPropertyOp16
 70
     1
102
RTVSPropertyOp17
 70
     1
102
RTVSPropertyOp18
 70
     1
102
RTVSPropertyOp19
 70
     1
102
RTVSPropertyOp20
 70
     1
102
RTVSPropertyOp21
 70
     1
102
RTVSPropertyOp22
 70
     1
102
RTVSPropertyOp23
 70
     1
102
RTVSPropertyOp24
 70
     1
102
RTVSPropertyOp25
 70
     1
102
RTVSPropertyOp26
 70
     1
102
RTVSPropertyOp27
 70
     1
102
RTVSPropertyOp28
 70
     1
102
RTVSPropertyOp29
 70
     1
102
RTVSPropertyOp30
 70
     1
102
RTVSPropertyOp31
 70
     1
102
RTVSPropertyOp32
 70
     1
  0
ENDSEC
  0
EOF
