  0
SECTION
  2
HEADER
  9
$ACADVER
  1
AC1021
  9
$ACADMAINTVER
 70
    25
  9
$DWGCODEPAGE
  3
ANSI_1256
  9
$INSBASE
 10
0.0
 20
0.0
 30
0.0
  9
$EXTMIN
 10
-187.4801
 20
-114.6689
 30
0.0
  9
$EXTMAX
 10
-38.983
 20
131.909
 30
0.0
  9
$LIMMIN
 10
0.0
 20
0.0
  9
$LIMMAX
 10
12.0
 20
9.0
  9
$ORTHOMODE
 70
     0
  9
$REGENMODE
 70
     1
  9
$FILLMODE
 70
     1
  9
$QTEXTMODE
 70
     0
  9
$MIRRTEXT
 70
     1
  9
$LTSCALE
 40
1.0
  9
$ATTMODE
 70
     1
  9
$TEXTSIZE
 40
0.2
  9
$TRACEWID
 40
0.05
  9
$TEXTSTYLE
  7
Standard
  9
$CLAYER
  8
0
  9
$CELTYPE
  6
ByLayer
  9
$CECOLOR
 62
   256
  9
$CELTSCALE
 40
1.0
  9
$DISPSILH
 70
     0
  9
$DIMSCALE
 40
1.0
  9
$DIMASZ
 40
0.18
  9
$DIMEXO
 40
0.0625
  9
$DIMDLI
 40
0.38
  9
$DIMRND
 40
0.0
  9
$DIMDLE
 40
0.0
  9
$DIMEXE
 40
0.18
  9
$DIMTP
 40
0.0
  9
$DIMTM
 40
0.0
  9
$DIMTXT
 40
0.18
  9
$DIMCEN
 40
0.09
  9
$DIMTSZ
 40
0.0
  9
$DIMTOL
 70
     0
  9
$DIMLIM
 70
     0
  9
$DIMTIH
 70
     1
  9
$DIMTOH
 70
     1
  9
$DIMSE1
 70
     0
  9
$DIMSE2
 70
     0
  9
$DIMTAD
 70
     0
  9
$DIMZIN
 70
     0
  9
$DIMBLK
  1

  9
$DIMASO
 70
     1
  9
$DIMSHO
 70
     1
  9
$DIMPOST
  1

  9
$DIMAPOST
  1

  9
$DIMALT
 70
     0
  9
$DIMALTD
 70
     2
  9
$DIMALTF
 40
25.4
  9
$DIMLFAC
 40
1.0
  9
$DIMTOFL
 70
     0
  9
$DIMTVP
 40
0.0
  9
$DIMTIX
 70
     0
  9
$DIMSOXD
 70
     0
  9
$DIMSAH
 70
     0
  9
$DIMBLK1
  1

  9
$DIMBLK2
  1

  9
$DIMSTYLE
  2
Standard
  9
$DIMCLRD
 70
     0
  9
$DIMCLRE
 70
     0
  9
$DIMCLRT
 70
     0
  9
$DIMTFAC
 40
1.0
  9
$DIMGAP
 40
0.09
  9
$DIMJUST
 70
     0
  9
$DIMSD1
 70
     0
  9
$DIMSD2
 70
     0
  9
$DIMTOLJ
 70
     1
  9
$DIMTZIN
 70
     0
  9
$DIMALTZ
 70
     0
  9
$DIMALTTZ
 70
     0
  9
$DIMUPT
 70
     0
  9
$DIMDEC
 70
     4
  9
$DIMTDEC
 70
     4
  9
$DIMALTU
 70
     2
  9
$DIMALTTD
 70
     2
  9
$DIMTXSTY
  7
Standard
  9
$DIMAUNIT
 70
     0
  9
$DIMADEC
 70
     0
  9
$DIMALTRND
 40
0.0
  9
$DIMAZIN
 70
     0
  9
$DIMDSEP
 70
    46
  9
$DIMATFIT
 70
     3
  9
$DIMFRAC
 70
     0
  9
$DIMLDRBLK
  1

  9
$DIMLUNIT
 70
     2
  9
$DIMLWD
 70
    -2
  9
$DIMLWE
 70
    -2
  9
$DIMTMOVE
 70
     0
  9
$DIMFXL
 40
1.0
  9
$DIMFXLON
 70
     0
  9
$DIMJOGANG
 40
0.7853981633974483
  9
$DIMTFILL
 70
     0
  9
$DIMTFILLCLR
 70
     0
  9
$DIMARCSYM
 70
     0
  9
$DIMLTYPE
  6

  9
$DIMLTEX1
  6

  9
$DIMLTEX2
  6

  9
$LUNITS
 70
     2
  9
$LUPREC
 70
     4
  9
$SKETCHINC
 40
0.1
  9
$FILLETRAD
 40
0.5
  9
$AUNITS
 70
     0
  9
$AUPREC
 70
     0
  9
$MENU
  1
.
  9
$ELEVATION
 40
0.0
  9
$PELEVATION
 40
0.0
  9
$THICKNESS
 40
0.0
  9
$LIMCHECK
 70
     0
  9
$CHAMFERA
 40
0.5
  9
$CHAMFERB
 40
0.5
  9
$CHAMFERC
 40
1.0
  9
$CHAMFERD
 40
0.0
  9
$SKPOLY
 70
     0
  9
$TDCREATE
 40
2458492.399727338
  9
$TDUCREATE
 40
2458492.233060671
  9
$TDUPDATE
 40
2458492.399727488
  9
$TDUUPDATE
 40
2458492.233060822
  9
$TDINDWG
 40
0.0000000116
  9
$TDUSRTIMER
 40
0.0000000116
  9
$USRTIMER
 70
     1
  9
$ANGBASE
 50
0.0
  9
$ANGDIR
 70
     0
  9
$PDMODE
 70
     0
  9
$PDSIZE
 40
0.0
  9
$PLINEWID
 40
0.0
  9
$SPLFRAME
 70
     0
  9
$SPLINETYPE
 70
     6
  9
$SPLINESEGS
 70
     8
  9
$HANDSEED
  5
BD
  9
$SURFTAB1
 70
     6
  9
$SURFTAB2
 70
     6
  9
$SURFTYPE
 70
     6
  9
$SURFU
 70
     6
  9
$SURFV
 70
     6
  9
$UCSBASE
  2

  9
$UCSNAME
  2

  9
$UCSORG
 10
0.0
 20
0.0
 30
0.0
  9
$UCSXDIR
 10
1.0
 20
0.0
 30
0.0
  9
$UCSYDIR
 10
0.0
 20
1.0
 30
0.0
  9
$UCSORTHOREF
  2

  9
$UCSORTHOVIEW
 70
     0
  9
$UCSORGTOP
 10
0.0
 20
0.0
 30
0.0
  9
$UCSORGBOTTOM
 10
0.0
 20
0.0
 30
0.0
  9
$UCSORGLEFT
 10
0.0
 20
0.0
 30
0.0
  9
$UCSORGRIGHT
 10
0.0
 20
0.0
 30
0.0
  9
$UCSORGFRONT
 10
0.0
 20
0.0
 30
0.0
  9
$UCSORGBACK
 10
0.0
 20
0.0
 30
0.0
  9
$PUCSBASE
  2

  9
$PUCSNAME
  2

  9
$PUCSORG
 10
0.0
 20
0.0
 30
0.0
  9
$PUCSXDIR
 10
1.0
 20
0.0
 30
0.0
  9
$PUCSYDIR
 10
0.0
 20
1.0
 30
0.0
  9
$PUCSORTHOREF
  2

  9
$PUCSORTHOVIEW
 70
     0
  9
$PUCSORGTOP
 10
0.0
 20
0.0
 30
0.0
  9
$PUCSORGBOTTOM
 10
0.0
 20
0.0
 30
0.0
  9
$PUCSORGLEFT
 10
0.0
 20
0.0
 30
0.0
  9
$PUCSORGRIGHT
 10
0.0
 20
0.0
 30
0.0
  9
$PUCSORGFRONT
 10
0.0
 20
0.0
 30
0.0
  9
$PUCSORGBACK
 10
0.0
 20
0.0
 30
0.0
  9
$USERI1
 70
     0
  9
$USERI2
 70
     0
  9
$USERI3
 70
     0
  9
$USERI4
 70
     0
  9
$USERI5
 70
     0
  9
$USERR1
 40
0.0
  9
$USERR2
 40
0.0
  9
$USERR3
 40
0.0
  9
$USERR4
 40
0.0
  9
$USERR5
 40
0.0
  9
$WORLDVIEW
 70
     1
  9
$SHADEDGE
 70
     3
  9
$SHADEDIF
 70
    70
  9
$TILEMODE
 70
     1
  9
$MAXACTVP
 70
    64
  9
$PINSBASE
 10
0.0
 20
0.0
 30
0.0
  9
$PLIMCHECK
 70
     0
  9
$PEXTMIN
 10
1.000000000000000E+20
 20
1.000000000000000E+20
 30
1.000000000000000E+20
  9
$PEXTMAX
 10
-1.000000000000000E+20
 20
-1.000000000000000E+20
 30
-1.000000000000000E+20
  9
$PLIMMIN
 10
0.0
 20
0.0
  9
$PLIMMAX
 10
12.0
 20
9.0
  9
$UNITMODE
 70
     0
  9
$VISRETAIN
 70
     1
  9
$PLINEGEN
 70
     0
  9
$PSLTSCALE
 70
     1
  9
$TREEDEPTH
 70
  3020
  9
$CMLSTYLE
  2
Standard
  9
$CMLJUST
 70
     0
  9
$CMLSCALE
 40
1.0
  9
$PROXYGRAPHICS
 70
     1
  9
$MEASUREMENT
 70
     0
  9
$CELWEIGHT
370
    -1
  9
$ENDCAPS
280
     0
  9
$JOINSTYLE
280
     0
  9
$LWDISPLAY
290
     0
  9
$INSUNITS
 70
     4
  9
$HYPERLINKBASE
  1

  9
$STYLESHEET
  1

  9
$XEDIT
290
     1
  9
$CEPSNTYPE
380
     0
  9
$PSTYLEMODE
290
     1
  9
$FINGERPRINTGUID
  2
{0871B750-6DF6-406A-BC3E-E4BE25DA269F}
  9
$VERSIONGUID
  2
{FAEB1C32-E019-11D5-929B-00C0DF256EC4}
  9
$EXTNAMES
290
     1
  9
$PSVPSCALE
 40
0.0
  9
$OLESTARTUP
290
     0
  9
$SORTENTS
280
   127
  9
$INDEXCTL
280
     0
  9
$HIDETEXT
280
     1
  9
$XCLIPFRAME
290
     0
  9
$HALOGAP
280
     0
  9
$OBSCOLOR
 70
   257
  9
$OBSLTYPE
280
     0
  9
$INTERSECTIONDISPLAY
280
     0
  9
$INTERSECTIONCOLOR
 70
   257
  9
$DIMASSOC
280
     2
  9
$PROJECTNAME
  1

  9
$CAMERADISPLAY
290
     0
  9
$LENSLENGTH
 40
50.0
  9
$CAMERAHEIGHT
 40
0.0
  9
$STEPSPERSEC
 40
2.0
  9
$STEPSIZE
 40
6.0
  9
$3DDWFPREC
 40
2.0
  9
$PSOLWIDTH
 40
0.25
  9
$PSOLHEIGHT
 40
4.0
  9
$LOFTANG1
 40
1.570796326794897
  9
$LOFTANG2
 40
1.570796326794897
  9
$LOFTMAG1
 40
0.0
  9
$LOFTMAG2
 40
0.0
  9
$LOFTPARAM
 70
     7
  9
$LOFTNORMALS
280
     1
  9
$LATITUDE
 40
37.795
  9
$LONGITUDE
 40
-122.394
  9
$NORTHDIRECTION
 40
0.0
  9
$TIMEZONE
 70
 -8000
  9
$LIGHTGLYPHDISPLAY
280
     1
  9
$TILEMODELIGHTSYNCH
280
     1
  9
$SOLIDHIST
280
     1
  9
$SHOWHIST
280
     1
  9
$DWFFRAME
280
     2
  9
$DGNFRAME
280
     2
  9
$REALWORLDSCALE
290
     1
  9
$INTERFERECOLOR
 62
   256
  9
$CSHADOW
280
     0
  9
$SHADOWPLANELOCATION
 40
0.0
  0
ENDSEC
  0
SECTION
  2
CLASSES
  0
CLASS
  1
ACDBDICTIONARYWDFLT
  2
AcDbDictionaryWithDefault
  3
ObjectDBX Classes
 90
        0
 91
        4
280
     0
281
     0
  0
CLASS
  1
VISUALSTYLE
  2
AcDbVisualStyle
  3
ObjectDBX Classes
 90
     4095
 91
        4
280
     0
281
     0
  0
CLASS
  1
MATERIAL
  2
AcDbMaterial
  3
ObjectDBX Classes
 90
     1153
 91
        4
280
     0
281
     0
  0
ENDSEC
  0
SECTION
  2
TABLES
  0
TABLE
  2
VPORT
  5
8
330
0
100
AcDbSymbolTable
 70
     1
  0
VPORT
  5
29
330
8
100
AcDbSymbolTableRecord
100
AcDbViewportTableRecord
  2
*Active
 70
     0
 10
0.0
 20
0.0
 11
1.0
 21
1.0
 12
10.42990654205607
 22
4.5
 13
0.0
 23
0.0
 14
0.5
 24
0.5
 15
0.5
 25
0.5
 16
0.0
 26
0.0
 36
1.0
 17
0.0
 27
0.0
 37
0.0
 40
9.0
 41
1.972972972850329
 42
50.0
 43
0.0
 44
0.0
 50
0.0
 51
0.0
 71
     0
 72
   100
 73
     1
 74
     3
 75
     0
 76
     0
 77
     0
 78
     0
281
     0
 65
     1
110
0.0
120
0.0
130
0.0
111
1.0
121
0.0
131
0.0
112
0.0
122
1.0
132
0.0
 79
     0
146
0.0
 60
     3
 61
     5
292
     1
282
     1
141
0.0
142
0.0
 63
   250
  0
ENDTAB
  0
TABLE
  2
LTYPE
  5
5
330
0
100
AcDbSymbolTable
 70
     1
  0
LTYPE
  5
14
330
5
100
AcDbSymbolTableRecord
100
AcDbLinetypeTableRecord
  2
ByBlock
 70
     0
  3

 72
    65
 73
     0
 40
0.0
  0
LTYPE
  5
15
330
5
100
AcDbSymbolTableRecord
100
AcDbLinetypeTableRecord
  2
ByLayer
 70
     0
  3

 72
    65
 73
     0
 40
0.0
  0
LTYPE
  5
16
330
5
100
AcDbSymbolTableRecord
100
AcDbLinetypeTableRecord
  2
Continuous
 70
     0
  3
Solid line
 72
    65
 73
     0
 40
0.0
  0
ENDTAB
  0
TABLE
  2
LAYER
  5
2
330
0
100
AcDbSymbolTable
 70
     2
  0
LAYER
  5
10
330
2
100
AcDbSymbolTableRecord
100
AcDbLayerTableRecord
  2
0
 70
     0
 62
     7
  6
Continuous
370
    -3
390
F
347
3E
  0
LAYER
  5
40
330
2
100
AcDbSymbolTableRecord
100
AcDbLayerTableRecord
  2
layer 1
 70
     0
 62
     7
  6
Continuous
370
    -3
390
F
347
3E
  0
ENDTAB
  0
TABLE
  2
STYLE
  5
3
330
0
100
AcDbSymbolTable
 70
     1
  0
STYLE
  5
11
330
3
100
AcDbSymbolTableRecord
100
AcDbTextStyleTableRecord
  2
Standard
 70
     0
 40
0.0
 41
1.0
 50
0.0
 71
     0
 42
0.2
  3
txt
  4

  0
ENDTAB
  0
TABLE
  2
VIEW
  5
6
330
0
100
AcDbSymbolTable
 70
     0
  0
ENDTAB
  0
TABLE
  2
UCS
  5
7
330
0
100
AcDbSymbolTable
 70
     0
  0
ENDTAB
  0
TABLE
  2
APPID
  5
9
330
0
100
AcDbSymbolTable
 70
     2
  0
APPID
  5
12
330
9
100
AcDbSymbolTableRecord
100
AcDbRegAppTableRecord
  2
ACAD
 70
     0
  0
APPID
  5
3F
330
9
100
AcDbSymbolTableRecord
100
AcDbRegAppTableRecord
  2
ODA
 70
     0
  0
ENDTAB
  0
TABLE
  2
DIMSTYLE
  5
A
330
0
100
AcDbSymbolTable
 70
     1
100
AcDbDimStyleTable
  0
DIMSTYLE
105
27
330
A
100
AcDbSymbolTableRecord
100
AcDbDimStyleTableRecord
  2
Standard
 70
     0
178
     0
340
11
  0
ENDTAB
  0
TABLE
  2
BLOCK_RECORD
  5
1
330
0
100
AcDbSymbolTable
 70
     1
  0
BLOCK_RECORD
  5
1F
330
1
100
AcDbSymbolTableRecord
100
AcDbBlockTableRecord
  2
*Model_Space
340
22
 70
     0
280
     1
281
     0
  0
BLOCK_RECORD
  5
1B
330
1
100
AcDbSymbolTableRecord
100
AcDbBlockTableRecord
  2
*Paper_Space
340
1E
 70
     0
280
     1
281
     0
  0
BLOCK_RECORD
  5
23
330
1
100
AcDbSymbolTableRecord
100
AcDbBlockTableRecord
  2
*Paper_Space0
340
26
 70
     0
280
     1
281
     0
  0
ENDTAB
  0
ENDSEC
  0
SECTION
  2
BLOCKS
  0
BLOCK
  5
20
330
1F
100
AcDbEntity
  8
0
100
AcDbBlockBegin
  2
*Model_Space
 70
     0
 10
0.0
 20
0.0
 30
0.0
  3
*Model_Space
  1

  0
ENDBLK
  5
21
330
1F
100
AcDbEntity
  8
0
100
AcDbBlockEnd
  0
BLOCK
  5
1C
330
1B
100
AcDbEntity
 67
     1
  8
0
100
AcDbBlockBegin
  2
*Paper_Space
 70
     0
 10
0.0
 20
0.0
 30
0.0
  3
*Paper_Space
  1

  0
ENDBLK
  5
1D
330
1B
100
AcDbEntity
 67
     1
  8
0
100
AcDbBlockEnd
  0
BLOCK
  5
24
330
23
100
AcDbEntity
  8
0
100
AcDbBlockBegin
  2
*Paper_Space0
 70
     0
 10
0.0
 20
0.0
 30
0.0
  3
*Paper_Space0
  1

  0
ENDBLK
  5
25
330
23
100
AcDbEntity
  8
0
100
AcDbBlockEnd
  0
ENDSEC
  0
SECTION
  2
ENTITIES
  0
SPLINE
  5
41
330
1F
100
AcDbEntity
  8
layer 1
370
    13
100
AcDbSpline
210
0.0
220
0.0
230
1.0
 70
    11
 71
     3
 72
    20
 73
    16
 74
     0
 42
0.0000000001
 43
0.0000000001
 12
1.0
 22
0.0
 32
0.0
 13
1.0
 23
0.0
 33
0.0
 40
0.0
 40
0.0
 40
0.0
 40
0.0
 40
0.2
 40
0.2
 40
0.2
 40
0.2
 40
0.4
 40
0.4
 40
0.4
 40
0.4
 40
0.6
 40
0.6
 40
0.6
 40
0.6
 40
1.0
 40
1.0
 40
1.0
 40
1.0
 10
-39.0492
 20
-114.6027
 30
0.0
 10
-39.0492
 20
-114.6027
 30
0.0
 10
-39.0492
 20
131.8428
 30
0.0
 10
-39.0492
 20
131.8428
 30
0.0
 10
-39.0492
 20
131.8428
 30
0.0
 10
-39.0492
 20
131.8428
 30
0.0
 10
-187.4139
 20
131.8428
 30
0.0
 10
-187.4139
 20
131.8428
 30
0.0
 10
-187.4139
 20
131.8428
 30
0.0
 10
-187.4139
 20
131.8428
 30
0.0
 10
-187.4139
 20
-114.6027
 30
0.0
 10
-187.4139
 20
-114.6027
 30
0.0
 10
-187.4139
 20
-114.6027
 30
0.0
 10
-187.4139
 20
-114.6027
 30
0.0
 10
-39.0492
 20
-114.6027
 30
0.0
 10
-39.0492
 20
-114.6027
 30
0.0
  0
SPLINE
  5
42
330
1F
100
AcDbEntity
  8
layer 1
 62
     7
370
    25
100
AcDbSpline
210
0.0
220
0.0
230
1.0
 70
    11
 71
     3
 72
    24
 73
    20
 74
     0
 42
0.0000000001
 43
0.0000000001
 12
1.0
 22
0.0
 32
0.0
 13
1.0
 23
0.0
 33
0.0
 40
0.0
 40
0.0
 40
0.0
 40
0.0
 40
0.1666666666666667
 40
0.1666666666666667
 40
0.1666666666666667
 40
0.1666666666666667
 40
0.3333333333333333
 40
0.3333333333333333
 40
0.3333333333333333
 40
0.3333333333333333
 40
0.5
 40
0.5
 40
0.5
 40
0.5
 40
0.6666666666666666
 40
0.6666666666666666
 40
0.6666666666666666
 40
0.6666666666666666
 40
1.0
 40
1.0
 40
1.0
 40
1.0
 10
-135.7438
 20
8.6449
 30
0.0
 10
-125.2815
 20
4.5784
 30
0.0
 10
-118.9828
 20
-1.8848
 30
0.0
 10
-113.6736
 20
-10.7726
 30
0.0
 10
-113.6736
 20
-10.7726
 30
0.0
 10
-108.3644
 20
-1.8848
 30
0.0
 10
-102.0656
 20
4.5784
 30
0.0
 10
-91.6033
 20
8.6449
 30
0.0
 10
-91.6033
 20
8.6449
 30
0.0
 10
-100.2788
 20
11.911
 30
0.0
 10
-107.8177
 20
19.2397
 30
0.0
 10
-113.7058
 20
28.0624
 30
0.0
 10
-113.7058
 20
28.0624
 30
0.0
 10
-119.5938
 20
19.2397
 30
0.0
 10
-127.0684
 20
11.911
 30
0.0
 10
-135.7439
 20
8.6449
 30
0.0
 10
-135.7439
 20
8.6449
 30
0.0
 10
-135.7439
 20
8.6449
 30
0.0
 10
-135.7438
 20
8.6449
 30
0.0
 10
-135.7438
 20
8.6449
 30
0.0
  0
SPLINE
  5
43
330
1F
100
AcDbEntity
  8
layer 1
 62
     7
370
    25
100
AcDbSpline
210
0.0
220
0.0
230
1.0
 70
    11
 71
     3
 72
    20
 73
    16
 74
     0
 42
0.0000000001
 43
0.0000000001
 12
1.0
 22
0.0
 32
0.0
 13
1.0
 23
0.0
 33
0.0
 40
0.0
 40
0.0
 40
0.0
 40
0.0
 40
0.2
 40
0.2
 40
0.2
 40
0.2
 40
0.4
 40
0.4
 40
0.4
 40
0.4
 40
0.6
 40
0.6
 40
0.6
 40
0.6
 40
1.0
 40
1.0
 40
1.0
 40
1.0
 10
-132.6093
 20
51.8633
 30
0.0
 10
-125.9917
 20
56.2905
 30
0.0
 10
-116.5505
 20
53.1035
 30
0.0
 10
-113.7058
 20
47.1849
 30
0.0
 10
-113.7058
 20
47.1849
 30
0.0
 10
-110.861
 20
52.6892
 30
0.0
 10
-101.3555
 20
56.2905
 30
0.0
 10
-94.738
 20
51.8633
 30
0.0
 10
-94.738
 20
51.8633
 30
0.0
 10
-104.3658
 20
62.165
 30
0.0
 10
-111.3802
 20
80.0283
 30
0.0
 10
-113.7058
 20
96.5906
 30
0.0
 10
-113.7058
 20
96.5906
 30
0.0
 10
-116.0313
 20
79.8902
 30
0.0
 10
-122.9814
 20
62.165
 30
0.0
 10
-132.6093
 20
51.8633
 30
0.0
  0
SPLINE
  5
44
330
1F
100
AcDbEntity
  8
layer 1
 62
     7
370
    25
100
AcDbSpline
210
0.0
220
0.0
230
1.0
 70
    11
 71
     3
 72
    24
 73
    20
 74
     0
 42
0.0000000001
 43
0.0000000001
 12
1.0
 22
0.0
 32
0.0
 13
1.0
 23
0.0
 33
0.0
 40
0.0
 40
0.0
 40
0.0
 40
0.0
 40
0.1666666666666667
 40
0.1666666666666667
 40
0.1666666666666667
 40
0.1666666666666667
 40
0.3333333333333333
 40
0.3333333333333333
 40
0.3333333333333333
 40
0.3333333333333333
 40
0.5
 40
0.5
 40
0.5
 40
0.5
 40
0.6666666666666666
 40
0.6666666666666666
 40
0.6666666666666666
 40
0.6666666666666666
 40
1.0
 40
1.0
 40
1.0
 40
1.0
 10
-126.4351
 20
46.9229
 30
0.0
 10
-129.8836
 20
46.8371
 30
0.0
 10
-131.9523
 20
45.132
 30
0.0
 10
-132.2274
 20
41.3323
 30
0.0
 10
-132.2274
 20
41.3323
 30
0.0
 10
-122.1036
 20
43.6841
 30
0.0
 10
-122.0014
 20
31.0741
 30
0.0
 10
-130.154
 20
31.0376
 30
0.0
 10
-130.154
 20
31.0376
 30
0.0
 10
-127.0939
 20
29.2524
 30
0.0
 10
-124.9111
 20
27.0206
 30
0.0
 10
-122.9334
 20
24.1558
 30
0.0
 10
-122.9334
 20
24.1558
 30
0.0
 10
-119.8638
 20
27.3639
 30
0.0
 10
-117.7528
 20
32.3436
 30
0.0
 10
-117.1692
 20
35.9041
 30
0.0
 10
-117.1692
 20
35.9041
 30
0.0
 10
-116.4292
 20
42.6839
 30
0.0
 10
-121.1636
 20
46.9009
 30
0.0
 10
-126.4351
 20
46.9229
 30
0.0
  0
SPLINE
  5
45
330
1F
100
AcDbEntity
  8
layer 1
 62
     7
370
    25
100
AcDbSpline
210
0.0
220
0.0
230
1.0
 70
    11
 71
     3
 72
    16
 73
    12
 74
     0
 42
0.0000000001
 43
0.0000000001
 12
1.0
 22
0.0
 32
0.0
 13
1.0
 23
0.0
 33
0.0
 40
0.0
 40
0.0
 40
0.0
 40
0.0
 40
0.25
 40
0.25
 40
0.25
 40
0.25
 40
0.5
 40
0.5
 40
0.5
 40
0.5
 40
1.0
 40
1.0
 40
1.0
 40
1.0
 10
-118.0565
 20
125.2504
 30
0.0
 10
-118.0565
 20
125.2504
 30
0.0
 10
-136.5994
 20
125.2504
 30
0.0
 10
-136.5994
 20
125.2504
 30
0.0
 10
-136.5994
 20
125.2504
 30
0.0
 10
-123.1954
 20
121.2786
 30
0.0
 10
-119.7262
 20
114.6228
 30
0.0
 10
-118.7873
 20
99.0545
 30
0.0
 10
-118.7873
 20
99.0545
 30
0.0
 10
-117.1417
 20
105.8517
 30
0.0
 10
-116.7797
 20
117.1695
 30
0.0
 10
-118.0565
 20
125.2504
 30
0.0
  0
SPLINE
  5
46
330
1F
100
AcDbEntity
  8
layer 1
 62
     7
370
    25
100
AcDbSpline
210
0.0
220
0.0
230
1.0
 70
    11
 71
     3
 72
    16
 73
    12
 74
     0
 42
0.0000000001
 43
0.0000000001
 12
1.0
 22
0.0
 32
0.0
 13
1.0
 23
0.0
 33
0.0
 40
0.0
 40
0.0
 40
0.0
 40
0.0
 40
0.25
 40
0.25
 40
0.25
 40
0.25
 40
0.5
 40
0.5
 40
0.5
 40
0.5
 40
1.0
 40
1.0
 40
1.0
 40
1.0
 10
-126.7044
 20
112.9979
 30
0.0
 10
-129.0209
 20
110.8451
 30
0.0
 10
-129.8104
 20
109.9924
 30
0.0
 10
-132.7899
 20
107.2482
 30
0.0
 10
-132.7899
 20
107.2482
 30
0.0
 10
-129.3232
 20
108.1619
 30
0.0
 10
-125.727
 20
107.072
 30
0.0
 10
-123.631
 20
103.8433
 30
0.0
 10
-123.631
 20
103.8433
 30
0.0
 10
-123.461
 20
106.2734
 30
0.0
 10
-124.702
 20
111.7638
 30
0.0
 10
-126.7044
 20
112.9979
 30
0.0
  0
SPLINE
  5
47
330
1F
100
AcDbEntity
  8
layer 1
 62
     7
370
    25
100
AcDbSpline
210
0.0
220
0.0
230
1.0
 70
    11
 71
     3
 72
    16
 73
    12
 74
     0
 42
0.0000000001
 43
0.0000000001
 12
1.0
 22
0.0
 32
0.0
 13
1.0
 23
0.0
 33
0.0
 40
0.0
 40
0.0
 40
0.0
 40
0.0
 40
0.25
 40
0.25
 40
0.25
 40
0.25
 40
0.5
 40
0.5
 40
0.5
 40
0.5
 40
1.0
 40
1.0
 40
1.0
 40
1.0
 10
-126.7379
 20
74.9905
 30
0.0
 10
-130.837
 20
70.5456
 30
0.0
 10
-135.6155
 20
67.653
 30
0.0
 10
-140.0708
 20
66.7401
 30
0.0
 10
-140.0708
 20
66.7401
 30
0.0
 10
-137.0972
 20
65.1377
 30
0.0
 10
-135.4949
 20
61.3862
 30
0.0
 10
-135.3758
 20
57.8309
 30
0.0
 10
-135.3758
 20
57.8309
 30
0.0
 10
-131.3943
 20
62.9489
 30
0.0
 10
-128.5136
 20
69.2259
 30
0.0
 10
-126.7379
 20
74.9905
 30
0.0
  0
SPLINE
  5
48
330
1F
100
AcDbEntity
  8
layer 1
 62
     7
370
    25
100
AcDbSpline
210
0.0
220
0.0
230
1.0
 70
    11
 71
     3
 72
    36
 73
    32
 74
     0
 42
0.0000000001
 43
0.0000000001
 12
1.0
 22
0.0
 32
0.0
 13
1.0
 23
0.0
 33
0.0
 40
0.0
 40
0.0
 40
0.0
 40
0.0
 40
0.1111111111111111
 40
0.1111111111111111
 40
0.1111111111111111
 40
0.1111111111111111
 40
0.2222222222222222
 40
0.2222222222222222
 40
0.2222222222222222
 40
0.2222222222222222
 40
0.3333333333333333
 40
0.3333333333333333
 40
0.3333333333333333
 40
0.3333333333333333
 40
0.4444444444444444
 40
0.4444444444444444
 40
0.4444444444444444
 40
0.4444444444444444
 40
0.5555555555555556
 40
0.5555555555555556
 40
0.5555555555555556
 40
0.5555555555555556
 40
0.6666666666666666
 40
0.6666666666666666
 40
0.6666666666666666
 40
0.6666666666666666
 40
0.7777777777777778
 40
0.7777777777777778
 40
0.7777777777777778
 40
0.7777777777777778
 40
1.0
 40
1.0
 40
1.0
 40
1.0
 10
-138.824
 20
29.4243
 30
0.0
 10
-144.0711
 20
30.4152
 30
0.0
 10
-148.3661
 20
28.6317
 30
0.0
 10
-149.7217
 20
23.6956
 30
0.0
 10
-149.7217
 20
23.6956
 30
0.0
 10
-150.1493
 20
21.2382
 30
0.0
 10
-150.4249
 20
16.7334
 30
0.0
 10
-147.2631
 20
16.2929
 30
0.0
 10
-147.2631
 20
16.2929
 30
0.0
 10
-148.377
 20
20.3509
 30
0.0
 10
-145.7161
 20
23.5777
 30
0.0
 10
-141.6679
 20
22.4043
 30
0.0
 10
-141.6679
 20
22.4043
 30
0.0
 10
-138.1791
 20
21.3017
 30
0.0
 10
-137.8381
 20
15.5251
 30
0.0
 10
-140.6546
 20
13.6821
 30
0.0
 10
-140.6546
 20
13.6821
 30
0.0
 10
-140.9624
 20
13.4267
 30
0.0
 10
-140.9041
 20
13.1279
 30
0.0
 10
-140.5661
 20
13.2284
 30
0.0
 10
-140.5661
 20
13.2284
 30
0.0
 10
-135.2335
 20
14.1771
 30
0.0
 10
-129.2227
 20
17.5733
 30
0.0
 10
-126.1157
 20
20.7444
 30
0.0
 10
-126.1157
 20
20.7444
 30
0.0
 10
-130.8207
 20
25.2332
 30
0.0
 10
-133.325
 20
28.1658
 30
0.0
 10
-138.824
 20
29.4243
 30
0.0
 10
-138.824
 20
29.4243
 30
0.0
 10
-138.824
 20
29.4243
 30
0.0
 10
-138.824
 20
29.4243
 30
0.0
 10
-138.824
 20
29.4243
 30
0.0
  0
SPLINE
  5
49
330
1F
100
AcDbEntity
  8
layer 1
 62
     7
370
    25
100
AcDbSpline
210
0.0
220
0.0
230
1.0
 70
    11
 71
     3
 72
    16
 73
    12
 74
     0
 42
0.0000000001
 43
0.0000000001
 12
1.0
 22
0.0
 32
0.0
 13
1.0
 23
0.0
 33
0.0
 40
0.0
 40
0.0
 40
0.0
 40
0.0
 40
0.25
 40
0.25
 40
0.25
 40
0.25
 40
0.5
 40
0.5
 40
0.5
 40
0.5
 40
1.0
 40
1.0
 40
1.0
 40
1.0
 10
-131.3872
 20
117.6952
 30
0.0
 10
-134.6532
 20
119.8961
 30
0.0
 10
-138.1496
 20
120.7416
 30
0.0
 10
-141.4679
 20
120.9879
 30
0.0
 10
-141.4679
 20
120.9879
 30
0.0
 10
-138.6685
 20
119.2663
 30
0.0
 10
-136.9827
 20
115.9975
 30
0.0
 10
-138.5528
 20
110.2654
 30
0.0
 10
-138.5528
 20
110.2654
 30
0.0
 10
-135.984
 20
112.8403
 30
0.0
 10
-134.3296
 20
114.6048
 30
0.0
 10
-131.3872
 20
117.6952
 30
0.0
  0
SPLINE
  5
4A
330
1F
100
AcDbEntity
  8
layer 1
 62
     7
370
    25
100
AcDbSpline
210
0.0
220
0.0
230
1.0
 70
    11
 71
     3
 72
    16
 73
    12
 74
     0
 42
0.0000000001
 43
0.0000000001
 12
1.0
 22
0.0
 32
0.0
 13
1.0
 23
0.0
 33
0.0
 40
0.0
 40
0.0
 40
0.0
 40
0.0
 40
0.25
 40
0.25
 40
0.25
 40
0.25
 40
0.5
 40
0.5
 40
0.5
 40
0.5
 40
1.0
 40
1.0
 40
1.0
 40
1.0
 10
-137.8991
 20
44.4043
 30
0.0
 10
-140.6334
 20
40.7162
 30
0.0
 10
-144.326
 20
36.5251
 30
0.0
 10
-147.2508
 20
33.1833
 30
0.0
 10
-147.2508
 20
33.1833
 30
0.0
 10
-144.0026
 20
34.9682
 30
0.0
 10
-139.7836
 20
34.9882
 30
0.0
 10
-136.6938
 20
33.9097
 30
0.0
 10
-136.6938
 20
33.9097
 30
0.0
 10
-138.611
 20
36.704
 30
0.0
 10
-139.1946
 20
41.0302
 30
0.0
 10
-137.8991
 20
44.4043
 30
0.0
  0
SPLINE
  5
4B
330
1F
100
AcDbEntity
  8
layer 1
 62
     7
370
    25
100
AcDbSpline
210
0.0
220
0.0
230
1.0
 70
    11
 71
     3
 72
    20
 73
    16
 74
     0
 42
0.0000000001
 43
0.0000000001
 12
1.0
 22
0.0
 32
0.0
 13
1.0
 23
0.0
 33
0.0
 40
0.0
 40
0.0
 40
0.0
 40
0.0
 40
0.2
 40
0.2
 40
0.2
 40
0.2
 40
0.4
 40
0.4
 40
0.4
 40
0.4
 40
0.6
 40
0.6
 40
0.6
 40
0.6
 40
1.0
 40
1.0
 40
1.0
 40
1.0
 10
-139.8879
 20
79.0642
 30
0.0
 10
-141.9031
 20
75.1033
 30
0.0
 10
-149.23
 20
76.2409
 30
0.0
 10
-149.4399
 20
81.5916
 30
0.0
 10
-149.4399
 20
81.5916
 30
0.0
 10
-155.0804
 20
73.6984
 30
0.0
 10
-144.5685
 20
67.8362
 30
0.0
 10
-136.8202
 20
73.7064
 30
0.0
 10
-136.8202
 20
73.7064
 30
0.0
 10
-138.1092
 20
75.0159
 30
0.0
 10
-139.217
 20
77.43
 30
0.0
 10
-139.8879
 20
79.0642
 30
0.0
 10
-139.8879
 20
79.0642
 30
0.0
 10
-139.8879
 20
79.0642
 30
0.0
 10
-139.8879
 20
79.0642
 30
0.0
 10
-139.8879
 20
79.0642
 30
0.0
  0
SPLINE
  5
4C
330
1F
100
AcDbEntity
  8
layer 1
 62
     7
370
    25
100
AcDbSpline
210
0.0
220
0.0
230
1.0
 70
    11
 71
     3
 72
    20
 73
    16
 74
     0
 42
0.0000000001
 43
0.0000000001
 12
1.0
 22
0.0
 32
0.0
 13
1.0
 23
0.0
 33
0.0
 40
0.0
 40
0.0
 40
0.0
 40
0.0
 40
0.2
 40
0.2
 40
0.2
 40
0.2
 40
0.4
 40
0.4
 40
0.4
 40
0.4
 40
0.6
 40
0.6
 40
0.6
 40
0.6
 40
1.0
 40
1.0
 40
1.0
 40
1.0
 10
-141.596
 20
97.6725
 30
0.0
 10
-143.787
 20
94.799
 30
0.0
 10
-146.7414
 20
91.1285
 30
0.0
 10
-149.0792
 20
88.1976
 30
0.0
 10
-149.0792
 20
88.1976
 30
0.0
 10
-146.0937
 20
88.8229
 30
0.0
 10
-144.2232
 20
88.0576
 30
0.0
 10
-142.0323
 20
86.4647
 30
0.0
 10
-142.0323
 20
86.4647
 30
0.0
 10
-142.7702
 20
91.035
 30
0.0
 10
-142.2319
 20
94.2199
 30
0.0
 10
-141.596
 20
97.6725
 30
0.0
 10
-141.596
 20
97.6725
 30
0.0
 10
-141.596
 20
97.6725
 30
0.0
 10
-141.596
 20
97.6725
 30
0.0
 10
-141.596
 20
97.6725
 30
0.0
  0
SPLINE
  5
4D
330
1F
100
AcDbEntity
  8
layer 1
 62
     7
370
    25
100
AcDbSpline
210
0.0
220
0.0
230
1.0
 70
    11
 71
     3
 72
    20
 73
    16
 74
     0
 42
0.0000000001
 43
0.0000000001
 12
1.0
 22
0.0
 32
0.0
 13
1.0
 23
0.0
 33
0.0
 40
0.0
 40
0.0
 40
0.0
 40
0.0
 40
0.2
 40
0.2
 40
0.2
 40
0.2
 40
0.4
 40
0.4
 40
0.4
 40
0.4
 40
0.6
 40
0.6
 40
0.6
 40
0.6
 40
1.0
 40
1.0
 40
1.0
 40
1.0
 10
-155.3701
 20
60.7754
 30
0.0
 10
-153.916
 20
60.2041
 30
0.0
 10
-152.4772
 20
57.1795
 30
0.0
 10
-152.3572
 20
55.1271
 30
0.0
 10
-152.3572
 20
55.1271
 30
0.0
 10
-150.9247
 20
58.6109
 30
0.0
 10
-143.957
 20
59.3546
 30
0.0
 10
-142.8232
 20
52.8129
 30
0.0
 10
-142.8232
 20
52.8129
 30
0.0
 10
-137.8825
 20
62.4435
 30
0.0
 10
-148.5697
 20
66.5555
 30
0.0
 10
-155.3701
 20
60.7754
 30
0.0
 10
-155.3701
 20
60.7754
 30
0.0
 10
-155.3701
 20
60.7754
 30
0.0
 10
-155.3701
 20
60.7754
 30
0.0
 10
-155.3701
 20
60.7754
 30
0.0
  0
SPLINE
  5
4E
330
1F
100
AcDbEntity
  8
layer 1
 62
     7
370
    25
100
AcDbSpline
210
0.0
220
0.0
230
1.0
 70
    11
 71
     3
 72
    20
 73
    16
 74
     0
 42
0.0000000001
 43
0.0000000001
 12
1.0
 22
0.0
 32
0.0
 13
1.0
 23
0.0
 33
0.0
 40
0.0
 40
0.0
 40
0.0
 40
0.0
 40
0.2
 40
0.2
 40
0.2
 40
0.2
 40
0.4
 40
0.4
 40
0.4
 40
0.4
 40
0.6
 40
0.6
 40
0.6
 40
0.6
 40
1.0
 40
1.0
 40
1.0
 40
1.0
 10
-150.2185
 20
47.9303
 30
0.0
 10
-149.9106
 20
44.751
 30
0.0
 10
-149.7636
 20
40.5082
 30
0.0
 10
-150.6163
 20
37.3806
 30
0.0
 10
-150.6163
 20
37.3806
 30
0.0
 10
-148.6987
 20
39.6691
 30
0.0
 10
-145.7603
 20
43.0898
 30
0.0
 10
-143.3744
 20
46.12
 30
0.0
 10
-143.3744
 20
46.12
 30
0.0
 10
-146.8364
 20
45.336
 30
0.0
 10
-149.3878
 20
46.3127
 30
0.0
 10
-150.2185
 20
47.9303
 30
0.0
 10
-150.2185
 20
47.9303
 30
0.0
 10
-150.2185
 20
47.9303
 30
0.0
 10
-150.2185
 20
47.9303
 30
0.0
 10
-150.2185
 20
47.9303
 30
0.0
  0
SPLINE
  5
4F
330
1F
100
AcDbEntity
  8
layer 1
 62
     7
370
    25
100
AcDbSpline
210
0.0
220
0.0
230
1.0
 70
    11
 71
     3
 72
    20
 73
    16
 74
     0
 42
0.0000000001
 43
0.0000000001
 12
1.0
 22
0.0
 32
0.0
 13
1.0
 23
0.0
 33
0.0
 40
0.0
 40
0.0
 40
0.0
 40
0.0
 40
0.2
 40
0.2
 40
0.2
 40
0.2
 40
0.4
 40
0.4
 40
0.4
 40
0.4
 40
0.6
 40
0.6
 40
0.6
 40
0.6
 40
1.0
 40
1.0
 40
1.0
 40
1.0
 10
-155.6548
 20
100.6353
 30
0.0
 10
-153.7604
 20
99.2294
 30
0.0
 10
-153.2769
 20
95.3448
 30
0.0
 10
-154.0901
 20
91.7216
 30
0.0
 10
-154.0901
 20
91.7216
 30
0.0
 10
-151.5957
 20
94.7757
 30
0.0
 10
-149.6609
 20
97.7346
 30
0.0
 10
-147.1488
 20
100.4882
 30
0.0
 10
-147.1488
 20
100.4882
 30
0.0
 10
-150.3943
 20
99.6904
 30
0.0
 10
-153.0475
 20
99.7755
 30
0.0
 10
-155.6548
 20
100.6353
 30
0.0
 10
-155.6548
 20
100.6353
 30
0.0
 10
-155.6548
 20
100.6353
 30
0.0
 10
-155.6548
 20
100.6353
 30
0.0
 10
-155.6548
 20
100.6353
 30
0.0
  0
SPLINE
  5
50
330
1F
100
AcDbEntity
  8
layer 1
 62
     7
370
    25
100
AcDbSpline
210
0.0
220
0.0
230
1.0
 70
    11
 71
     3
 72
    16
 73
    12
 74
     0
 42
0.0000000001
 43
0.0000000001
 12
1.0
 22
0.0
 32
0.0
 13
1.0
 23
0.0
 33
0.0
 40
0.0
 40
0.0
 40
0.0
 40
0.0
 40
0.25
 40
0.25
 40
0.25
 40
0.25
 40
0.5
 40
0.5
 40
0.5
 40
0.5
 40
1.0
 40
1.0
 40
1.0
 40
1.0
 10
-153.0443
 20
27.026
 30
0.0
 10
-156.0459
 20
24.0557
 30
0.0
 10
-159.7192
 20
20.4567
 30
0.0
 10
-162.5084
 20
17.917
 30
0.0
 10
-162.5084
 20
17.917
 30
0.0
 10
-159.9916
 20
15.643
 30
0.0
 10
-155.433
 20
14.0776
 30
0.0
 10
-151.3015
 20
13.4679
 30
0.0
 10
-151.3015
 20
13.4679
 30
0.0
 10
-155.6856
 20
16.1938
 30
0.0
 10
-155.4074
 20
23.6782
 30
0.0
 10
-153.0443
 20
27.026
 30
0.0
  0
SPLINE
  5
51
330
1F
100
AcDbEntity
  8
layer 1
 62
     7
370
    25
100
AcDbSpline
210
0.0
220
0.0
230
1.0
 70
    11
 71
     3
 72
    16
 73
    12
 74
     0
 42
0.0000000001
 43
0.0000000001
 12
1.0
 22
0.0
 32
0.0
 13
1.0
 23
0.0
 33
0.0
 40
0.0
 40
0.0
 40
0.0
 40
0.0
 40
0.25
 40
0.25
 40
0.25
 40
0.25
 40
0.5
 40
0.5
 40
0.5
 40
0.5
 40
1.0
 40
1.0
 40
1.0
 40
1.0
 10
-157.112
 20
76.257
 30
0.0
 10
-159.7122
 20
70.4355
 30
0.0
 10
-161.8998
 20
65.9482
 30
0.0
 10
-165.5315
 20
59.6607
 30
0.0
 10
-165.5315
 20
59.6607
 30
0.0
 10
-160.7543
 20
63.7951
 30
0.0
 10
-156.2282
 20
66.8505
 30
0.0
 10
-152.4675
 20
67.5753
 30
0.0
 10
-152.4675
 20
67.5753
 30
0.0
 10
-155.1032
 20
68.4705
 30
0.0
 10
-157.6169
 20
72.075
 30
0.0
 10
-157.112
 20
76.257
 30
0.0
  0
SPLINE
  5
52
330
1F
100
AcDbEntity
  8
layer 1
 62
     7
370
    25
100
AcDbSpline
210
0.0
220
0.0
230
1.0
 70
    11
 71
     3
 72
    24
 73
    20
 74
     0
 42
0.0000000001
 43
0.0000000001
 12
1.0
 22
0.0
 32
0.0
 13
1.0
 23
0.0
 33
0.0
 40
0.0
 40
0.0
 40
0.0
 40
0.0
 40
0.1666666666666667
 40
0.1666666666666667
 40
0.1666666666666667
 40
0.1666666666666667
 40
0.3333333333333333
 40
0.3333333333333333
 40
0.3333333333333333
 40
0.3333333333333333
 40
0.5
 40
0.5
 40
0.5
 40
0.5
 40
0.6666666666666666
 40
0.6666666666666666
 40
0.6666666666666666
 40
0.6666666666666666
 40
1.0
 40
1.0
 40
1.0
 40
1.0
 10
-159.5782
 20
58.0047
 30
0.0
 10
-164.2118
 20
54.6826
 30
0.0
 10
-167.3664
 20
46.9789
 30
0.0
 10
-168.2938
 20
42.3902
 30
0.0
 10
-168.2938
 20
42.3902
 30
0.0
 10
-165.5793
 20
45.7638
 30
0.0
 10
-160.8297
 20
44.9004
 30
0.0
 10
-159.9097
 20
40.9426
 30
0.0
 10
-159.9097
 20
40.9426
 30
0.0
 10
-158.9285
 20
36.6464
 30
0.0
 10
-162.6028
 20
34.2159
 30
0.0
 10
-166.4362
 20
35.9166
 30
0.0
 10
-166.4362
 20
35.9166
 30
0.0
 10
-167.2807
 20
28.945
 30
0.0
 10
-157.3574
 20
29.2067
 30
0.0
 10
-155.4979
 20
36.3317
 30
0.0
 10
-155.4979
 20
36.3317
 30
0.0
 10
-153.7381
 20
44.3363
 30
0.0
 10
-155.5803
 20
50.6147
 30
0.0
 10
-159.5782
 20
58.0047
 30
0.0
  0
SPLINE
  5
53
330
1F
100
AcDbEntity
  8
layer 1
 62
     7
370
    25
100
AcDbSpline
210
0.0
220
0.0
230
1.0
 70
    11
 71
     3
 72
    16
 73
    12
 74
     0
 42
0.0000000001
 43
0.0000000001
 12
1.0
 22
0.0
 32
0.0
 13
1.0
 23
0.0
 33
0.0
 40
0.0
 40
0.0
 40
0.0
 40
0.0
 40
0.25
 40
0.25
 40
0.25
 40
0.25
 40
0.5
 40
0.5
 40
0.5
 40
0.5
 40
1.0
 40
1.0
 40
1.0
 40
1.0
 10
-180.3715
 20
125.2504
 30
0.0
 10
-180.3715
 20
125.2504
 30
0.0
 10
-180.3715
 20
102.4699
 30
0.0
 10
-180.3715
 20
102.4699
 30
0.0
 10
-180.3715
 20
102.4699
 30
0.0
 10
-177.7363
 20
112.9386
 30
0.0
 10
-169.6652
 20
122.4548
 30
0.0
 10
-158.1714
 20
125.2504
 30
0.0
 10
-158.1714
 20
125.2504
 30
0.0
 10
-158.1714
 20
125.2504
 30
0.0
 10
-180.3715
 20
125.2504
 30
0.0
 10
-180.3715
 20
125.2504
 30
0.0
  0
SPLINE
  5
54
330
1F
100
AcDbEntity
  8
layer 1
 62
     7
370
    25
100
AcDbSpline
210
0.0
220
0.0
230
1.0
 70
    11
 71
     3
 72
    16
 73
    12
 74
     0
 42
0.0000000001
 43
0.0000000001
 12
1.0
 22
0.0
 32
0.0
 13
1.0
 23
0.0
 33
0.0
 40
0.0
 40
0.0
 40
0.0
 40
0.0
 40
0.25
 40
0.25
 40
0.25
 40
0.25
 40
0.5
 40
0.5
 40
0.5
 40
0.5
 40
1.0
 40
1.0
 40
1.0
 40
1.0
 10
-168.5224
 20
30.4261
 30
0.0
 10
-168.4029
 20
27.7865
 30
0.0
 10
-167.2689
 20
24.7031
 30
0.0
 10
-165.6297
 20
21.6413
 30
0.0
 10
-165.6297
 20
21.6413
 30
0.0
 10
-165.4543
 20
21.6998
 30
0.0
 10
-162.172
 20
25.0405
 30
0.0
 10
-160.0561
 20
27.1314
 30
0.0
 10
-160.0561
 20
27.1314
 30
0.0
 10
-164.3099
 20
27.5597
 30
0.0
 10
-165.8758
 20
28.242
 30
0.0
 10
-168.5224
 20
30.4261
 30
0.0
  0
SPLINE
  5
55
330
1F
100
AcDbEntity
  8
layer 1
 62
     7
370
    25
100
AcDbSpline
210
0.0
220
0.0
230
1.0
 70
    11
 71
     3
 72
    16
 73
    12
 74
     0
 42
0.0000000001
 43
0.0000000001
 12
1.0
 22
0.0
 32
0.0
 13
1.0
 23
0.0
 33
0.0
 40
0.0
 40
0.0
 40
0.0
 40
0.0
 40
0.25
 40
0.25
 40
0.25
 40
0.25
 40
0.5
 40
0.5
 40
0.5
 40
0.5
 40
1.0
 40
1.0
 40
1.0
 40
1.0
 10
-160.443
 20
82.2157
 30
0.0
 10
-167.7744
 20
78.5103
 30
0.0
 10
-179.0644
 20
83.9856
 30
0.0
 10
-180.3716
 20
90.0512
 30
0.0
 10
-180.3716
 20
90.0512
 30
0.0
 10
-180.3716
 20
90.0512
 30
0.0
 10
-180.3716
 20
28.4013
 30
0.0
 10
-180.3716
 20
28.4013
 30
0.0
 10
-180.3716
 20
28.4013
 30
0.0
 10
-176.4693
 20
49.1424
 30
0.0
 10
-170.6596
 20
65.3413
 30
0.0
 10
-160.443
 20
82.2157
 30
0.0
  0
SPLINE
  5
56
330
1F
100
AcDbEntity
  8
layer 1
 62
     7
370
    25
100
AcDbSpline
210
0.0
220
0.0
230
1.0
 70
    11
 71
     3
 72
    36
 73
    32
 74
     0
 42
0.0000000001
 43
0.0000000001
 12
1.0
 22
0.0
 32
0.0
 13
1.0
 23
0.0
 33
0.0
 40
0.0
 40
0.0
 40
0.0
 40
0.0
 40
0.1111111111111111
 40
0.1111111111111111
 40
0.1111111111111111
 40
0.1111111111111111
 40
0.2222222222222222
 40
0.2222222222222222
 40
0.2222222222222222
 40
0.2222222222222222
 40
0.3333333333333333
 40
0.3333333333333333
 40
0.3333333333333333
 40
0.3333333333333333
 40
0.4444444444444444
 40
0.4444444444444444
 40
0.4444444444444444
 40
0.4444444444444444
 40
0.5555555555555556
 40
0.5555555555555556
 40
0.5555555555555556
 40
0.5555555555555556
 40
0.6666666666666666
 40
0.6666666666666666
 40
0.6666666666666666
 40
0.6666666666666666
 40
0.7777777777777778
 40
0.7777777777777778
 40
0.7777777777777778
 40
0.7777777777777778
 40
1.0
 40
1.0
 40
1.0
 40
1.0
 10
-153.6427
 20
105.0074
 30
0.0
 10
-148.3955
 20
104.0165
 30
0.0
 10
-144.1005
 20
105.8
 30
0.0
 10
-142.7449
 20
110.736
 30
0.0
 10
-142.7449
 20
110.736
 30
0.0
 10
-142.3173
 20
113.1935
 30
0.0
 10
-142.0417
 20
117.6983
 30
0.0
 10
-145.2035
 20
118.1387
 30
0.0
 10
-145.2035
 20
118.1387
 30
0.0
 10
-144.0896
 20
114.0808
 30
0.0
 10
-146.7505
 20
110.8539
 30
0.0
 10
-150.7987
 20
112.0274
 30
0.0
 10
-150.7987
 20
112.0274
 30
0.0
 10
-154.2876
 20
113.13
 30
0.0
 10
-154.6285
 20
118.9066
 30
0.0
 10
-151.812
 20
120.7495
 30
0.0
 10
-151.812
 20
120.7495
 30
0.0
 10
-151.5042
 20
121.005
 30
0.0
 10
-151.5625
 20
121.3037
 30
0.0
 10
-151.9006
 20
121.2033
 30
0.0
 10
-151.9006
 20
121.2033
 30
0.0
 10
-157.2331
 20
120.2546
 30
0.0
 10
-163.2439
 20
116.8584
 30
0.0
 10
-166.3509
 20
113.6873
 30
0.0
 10
-166.3509
 20
113.6873
 30
0.0
 10
-161.646
 20
109.1985
 30
0.0
 10
-159.1416
 20
106.2658
 30
0.0
 10
-153.6426
 20
105.0074
 30
0.0
 10
-153.6426
 20
105.0074
 30
0.0
 10
-153.6426
 20
105.0074
 30
0.0
 10
-153.6427
 20
105.0074
 30
0.0
 10
-153.6427
 20
105.0074
 30
0.0
  0
SPLINE
  5
57
330
1F
100
AcDbEntity
  8
layer 1
 62
     7
370
    25
100
AcDbSpline
210
0.0
220
0.0
230
1.0
 70
    11
 71
     3
 72
    24
 73
    20
 74
     0
 42
0.0000000001
 43
0.0000000001
 12
1.0
 22
0.0
 32
0.0
 13
1.0
 23
0.0
 33
0.0
 40
0.0
 40
0.0
 40
0.0
 40
0.0
 40
0.1666666666666667
 40
0.1666666666666667
 40
0.1666666666666667
 40
0.1666666666666667
 40
0.3333333333333333
 40
0.3333333333333333
 40
0.3333333333333333
 40
0.3333333333333333
 40
0.5
 40
0.5
 40
0.5
 40
0.5
 40
0.6666666666666666
 40
0.6666666666666666
 40
0.6666666666666666
 40
0.6666666666666666
 40
1.0
 40
1.0
 40
1.0
 40
1.0
 10
-165.6822
 20
87.2724
 30
0.0
 10
-162.2337
 20
87.3582
 30
0.0
 10
-160.1651
 20
89.0633
 30
0.0
 10
-159.8899
 20
92.863
 30
0.0
 10
-159.8899
 20
92.863
 30
0.0
 10
-170.0137
 20
90.5112
 30
0.0
 10
-170.1159
 20
103.1212
 30
0.0
 10
-161.9633
 20
103.1576
 30
0.0
 10
-161.9633
 20
103.1576
 30
0.0
 10
-165.0235
 20
104.9428
 30
0.0
 10
-167.2062
 20
107.1747
 30
0.0
 10
-169.184
 20
110.0394
 30
0.0
 10
-169.184
 20
110.0394
 30
0.0
 10
-172.2535
 20
106.8314
 30
0.0
 10
-174.3645
 20
101.8517
 30
0.0
 10
-174.9481
 20
98.2912
 30
0.0
 10
-174.9481
 20
98.2912
 30
0.0
 10
-175.6881
 20
91.5114
 30
0.0
 10
-170.9537
 20
87.2944
 30
0.0
 10
-165.6822
 20
87.2724
 30
0.0
  0
SPLINE
  5
58
330
1F
100
AcDbEntity
  8
layer 1
 62
     7
370
    25
100
AcDbSpline
210
0.0
220
0.0
230
1.0
 70
    11
 71
     3
 72
    24
 73
    20
 74
     0
 42
0.0000000001
 43
0.0000000001
 12
1.0
 22
0.0
 32
0.0
 13
1.0
 23
0.0
 33
0.0
 40
0.0
 40
0.0
 40
0.0
 40
0.0
 40
0.1666666666666667
 40
0.1666666666666667
 40
0.1666666666666667
 40
0.1666666666666667
 40
0.3333333333333333
 40
0.3333333333333333
 40
0.3333333333333333
 40
0.3333333333333333
 40
0.5
 40
0.5
 40
0.5
 40
0.5
 40
0.6666666666666666
 40
0.6666666666666666
 40
0.6666666666666666
 40
0.6666666666666666
 40
1.0
 40
1.0
 40
1.0
 40
1.0
 10
-132.8457
 20
75.986
 30
0.0
 10
-128.2121
 20
79.308
 30
0.0
 10
-125.0574
 20
87.0118
 30
0.0
 10
-124.13
 20
91.6004
 30
0.0
 10
-124.13
 20
91.6004
 30
0.0
 10
-126.8446
 20
88.2268
 30
0.0
 10
-131.5942
 20
89.0902
 30
0.0
 10
-132.5142
 20
93.048
 30
0.0
 10
-132.5142
 20
93.048
 30
0.0
 10
-133.4953
 20
97.3442
 30
0.0
 10
-129.8211
 20
99.7747
 30
0.0
 10
-125.9876
 20
98.074
 30
0.0
 10
-125.9876
 20
98.074
 30
0.0
 10
-126.1051
 20
104.2927
 30
0.0
 10
-135.0665
 20
104.7839
 30
0.0
 10
-136.926
 20
97.6589
 30
0.0
 10
-136.926
 20
97.6589
 30
0.0
 10
-138.6858
 20
89.6543
 30
0.0
 10
-136.8436
 20
83.3759
 30
0.0
 10
-132.8457
 20
75.986
 30
0.0
  0
SPLINE
  5
59
330
1F
100
AcDbEntity
  8
layer 1
 62
     7
370
    25
100
AcDbSpline
210
0.0
220
0.0
230
1.0
 70
    11
 71
     3
 72
    24
 73
    20
 74
     0
 42
0.0000000001
 43
0.0000000001
 12
1.0
 22
0.0
 32
0.0
 13
1.0
 23
0.0
 33
0.0
 40
0.0
 40
0.0
 40
0.0
 40
0.0
 40
0.1666666666666667
 40
0.1666666666666667
 40
0.1666666666666667
 40
0.1666666666666667
 40
0.3333333333333333
 40
0.3333333333333333
 40
0.3333333333333333
 40
0.3333333333333333
 40
0.5
 40
0.5
 40
0.5
 40
0.5
 40
0.6666666666666666
 40
0.6666666666666666
 40
0.6666666666666666
 40
0.6666666666666666
 40
1.0
 40
1.0
 40
1.0
 40
1.0
 10
-132.6093
 20
-34.5735
 30
0.0
 10
-125.9917
 20
-39.0007
 30
0.0
 10
-116.5505
 20
-35.8137
 30
0.0
 10
-113.6736
 20
-30.1023
 30
0.0
 10
-113.6736
 20
-30.1023
 30
0.0
 10
-110.7967
 20
-35.8137
 30
0.0
 10
-101.3555
 20
-39.0007
 30
0.0
 10
-94.7379
 20
-34.5735
 30
0.0
 10
-94.7379
 20
-34.5735
 30
0.0
 10
-104.3657
 20
-44.8752
 30
0.0
 10
-111.3802
 20
-62.4622
 30
0.0
 10
-113.7057
 20
-79.1626
 30
0.0
 10
-113.7057
 20
-79.1626
 30
0.0
 10
-116.0312
 20
-62.6003
 30
0.0
 10
-122.9814
 20
-44.8752
 30
0.0
 10
-132.6092
 20
-34.5735
 30
0.0
 10
-132.6092
 20
-34.5735
 30
0.0
 10
-132.6092
 20
-34.5735
 30
0.0
 10
-132.6093
 20
-34.5735
 30
0.0
 10
-132.6093
 20
-34.5735
 30
0.0
  0
SPLINE
  5
5A
330
1F
100
AcDbEntity
  8
layer 1
 62
     7
370
    25
100
AcDbSpline
210
0.0
220
0.0
230
1.0
 70
    11
 71
     3
 72
    24
 73
    20
 74
     0
 42
0.0000000001
 43
0.0000000001
 12
1.0
 22
0.0
 32
0.0
 13
1.0
 23
0.0
 33
0.0
 40
0.0
 40
0.0
 40
0.0
 40
0.0
 40
0.1666666666666667
 40
0.1666666666666667
 40
0.1666666666666667
 40
0.1666666666666667
 40
0.3333333333333333
 40
0.3333333333333333
 40
0.3333333333333333
 40
0.3333333333333333
 40
0.5
 40
0.5
 40
0.5
 40
0.5
 40
0.6666666666666666
 40
0.6666666666666666
 40
0.6666666666666666
 40
0.6666666666666666
 40
1.0
 40
1.0
 40
1.0
 40
1.0
 10
-126.4351
 20
-29.6331
 30
0.0
 10
-129.8836
 20
-29.5473
 30
0.0
 10
-131.9523
 20
-27.8422
 30
0.0
 10
-132.2274
 20
-24.0425
 30
0.0
 10
-132.2274
 20
-24.0425
 30
0.0
 10
-122.1036
 20
-26.3943
 30
0.0
 10
-122.0014
 20
-13.7842
 30
0.0
 10
-130.154
 20
-13.7478
 30
0.0
 10
-130.154
 20
-13.7478
 30
0.0
 10
-127.0939
 20
-11.9626
 30
0.0
 10
-124.9111
 20
-9.7308
 30
0.0
 10
-122.9334
 20
-6.866
 30
0.0
 10
-122.9334
 20
-6.866
 30
0.0
 10
-119.8638
 20
-10.074
 30
0.0
 10
-117.7528
 20
-15.0538
 30
0.0
 10
-117.1692
 20
-18.6143
 30
0.0
 10
-117.1692
 20
-18.6143
 30
0.0
 10
-116.4292
 20
-25.3941
 30
0.0
 10
-121.1636
 20
-29.611
 30
0.0
 10
-126.4351
 20
-29.6331
 30
0.0
  0
SPLINE
  5
5B
330
1F
100
AcDbEntity
  8
layer 1
 62
     7
370
    25
100
AcDbSpline
210
0.0
220
0.0
230
1.0
 70
    11
 71
     3
 72
    16
 73
    12
 74
     0
 42
0.0000000001
 43
0.0000000001
 12
1.0
 22
0.0
 32
0.0
 13
1.0
 23
0.0
 33
0.0
 40
0.0
 40
0.0
 40
0.0
 40
0.0
 40
0.25
 40
0.25
 40
0.25
 40
0.25
 40
0.5
 40
0.5
 40
0.5
 40
0.5
 40
1.0
 40
1.0
 40
1.0
 40
1.0
 10
-118.0565
 20
-107.9606
 30
0.0
 10
-118.0565
 20
-107.9606
 30
0.0
 10
-136.5994
 20
-107.9606
 30
0.0
 10
-136.5994
 20
-107.9606
 30
0.0
 10
-136.5994
 20
-107.9606
 30
0.0
 10
-123.1954
 20
-103.9888
 30
0.0
 10
-119.7262
 20
-97.333
 30
0.0
 10
-118.7873
 20
-81.7647
 30
0.0
 10
-118.7873
 20
-81.7647
 30
0.0
 10
-117.1417
 20
-88.5619
 30
0.0
 10
-116.7797
 20
-99.8797
 30
0.0
 10
-118.0565
 20
-107.9606
 30
0.0
  0
SPLINE
  5
5C
330
1F
100
AcDbEntity
  8
layer 1
 62
     7
370
    25
100
AcDbSpline
210
0.0
220
0.0
230
1.0
 70
    11
 71
     3
 72
    16
 73
    12
 74
     0
 42
0.0000000001
 43
0.0000000001
 12
1.0
 22
0.0
 32
0.0
 13
1.0
 23
0.0
 33
0.0
 40
0.0
 40
0.0
 40
0.0
 40
0.0
 40
0.25
 40
0.25
 40
0.25
 40
0.25
 40
0.5
 40
0.5
 40
0.5
 40
0.5
 40
1.0
 40
1.0
 40
1.0
 40
1.0
 10
-126.7044
 20
-95.7081
 30
0.0
 10
-129.0209
 20
-93.5553
 30
0.0
 10
-129.8104
 20
-92.7026
 30
0.0
 10
-132.7899
 20
-89.9584
 30
0.0
 10
-132.7899
 20
-89.9584
 30
0.0
 10
-129.3232
 20
-90.8721
 30
0.0
 10
-125.727
 20
-89.7822
 30
0.0
 10
-123.631
 20
-86.5535
 30
0.0
 10
-123.631
 20
-86.5535
 30
0.0
 10
-123.461
 20
-88.9835
 30
0.0
 10
-124.702
 20
-94.474
 30
0.0
 10
-126.7044
 20
-95.7081
 30
0.0
  0
SPLINE
  5
5D
330
1F
100
AcDbEntity
  8
layer 1
 62
     7
370
    25
100
AcDbSpline
210
0.0
220
0.0
230
1.0
 70
    11
 71
     3
 72
    16
 73
    12
 74
     0
 42
0.0000000001
 43
0.0000000001
 12
1.0
 22
0.0
 32
0.0
 13
1.0
 23
0.0
 33
0.0
 40
0.0
 40
0.0
 40
0.0
 40
0.0
 40
0.25
 40
0.25
 40
0.25
 40
0.25
 40
0.5
 40
0.5
 40
0.5
 40
0.5
 40
1.0
 40
1.0
 40
1.0
 40
1.0
 10
-126.7379
 20
-57.7007
 30
0.0
 10
-130.837
 20
-53.2558
 30
0.0
 10
-135.6155
 20
-50.3631
 30
0.0
 10
-140.0708
 20
-49.4503
 30
0.0
 10
-140.0708
 20
-49.4503
 30
0.0
 10
-137.0972
 20
-47.8479
 30
0.0
 10
-135.4949
 20
-44.0964
 30
0.0
 10
-135.3758
 20
-40.5411
 30
0.0
 10
-135.3758
 20
-40.5411
 30
0.0
 10
-131.3943
 20
-45.6591
 30
0.0
 10
-128.5136
 20
-51.9361
 30
0.0
 10
-126.7379
 20
-57.7007
 30
0.0
  0
SPLINE
  5
5E
330
1F
100
AcDbEntity
  8
layer 1
 62
     7
370
    25
100
AcDbSpline
210
0.0
220
0.0
230
1.0
 70
    11
 71
     3
 72
    36
 73
    32
 74
     0
 42
0.0000000001
 43
0.0000000001
 12
1.0
 22
0.0
 32
0.0
 13
1.0
 23
0.0
 33
0.0
 40
0.0
 40
0.0
 40
0.0
 40
0.0
 40
0.1111111111111111
 40
0.1111111111111111
 40
0.1111111111111111
 40
0.1111111111111111
 40
0.2222222222222222
 40
0.2222222222222222
 40
0.2222222222222222
 40
0.2222222222222222
 40
0.3333333333333333
 40
0.3333333333333333
 40
0.3333333333333333
 40
0.3333333333333333
 40
0.4444444444444444
 40
0.4444444444444444
 40
0.4444444444444444
 40
0.4444444444444444
 40
0.5555555555555556
 40
0.5555555555555556
 40
0.5555555555555556
 40
0.5555555555555556
 40
0.6666666666666666
 40
0.6666666666666666
 40
0.6666666666666666
 40
0.6666666666666666
 40
0.7777777777777778
 40
0.7777777777777778
 40
0.7777777777777778
 40
0.7777777777777778
 40
1.0
 40
1.0
 40
1.0
 40
1.0
 10
-138.824
 20
-12.1344
 30
0.0
 10
-144.0711
 20
-13.1254
 30
0.0
 10
-148.3661
 20
-11.3418
 30
0.0
 10
-149.7217
 20
-6.4058
 30
0.0
 10
-149.7217
 20
-6.4058
 30
0.0
 10
-150.1493
 20
-3.9484
 30
0.0
 10
-150.4249
 20
0.5564
 30
0.0
 10
-147.2631
 20
0.9969
 30
0.0
 10
-147.2631
 20
0.9969
 30
0.0
 10
-148.377
 20
-3.0611
 30
0.0
 10
-145.7161
 20
-6.2879
 30
0.0
 10
-141.6679
 20
-5.1145
 30
0.0
 10
-141.6679
 20
-5.1145
 30
0.0
 10
-138.1791
 20
-4.0119
 30
0.0
 10
-137.8381
 20
1.7647
 30
0.0
 10
-140.6546
 20
3.6077
 30
0.0
 10
-140.6546
 20
3.6077
 30
0.0
 10
-140.9624
 20
3.8631
 30
0.0
 10
-140.9041
 20
4.1619
 30
0.0
 10
-140.5661
 20
4.0614
 30
0.0
 10
-140.5661
 20
4.0614
 30
0.0
 10
-135.2335
 20
3.1127
 30
0.0
 10
-129.2227
 20
-0.2834
 30
0.0
 10
-126.1157
 20
-3.4546
 30
0.0
 10
-126.1157
 20
-3.4546
 30
0.0
 10
-130.8207
 20
-7.9434
 30
0.0
 10
-133.325
 20
-10.876
 30
0.0
 10
-138.824
 20
-12.1344
 30
0.0
 10
-138.824
 20
-12.1344
 30
0.0
 10
-138.824
 20
-12.1344
 30
0.0
 10
-138.824
 20
-12.1344
 30
0.0
 10
-138.824
 20
-12.1344
 30
0.0
  0
SPLINE
  5
5F
330
1F
100
AcDbEntity
  8
layer 1
 62
     7
370
    25
100
AcDbSpline
210
0.0
220
0.0
230
1.0
 70
    11
 71
     3
 72
    16
 73
    12
 74
     0
 42
0.0000000001
 43
0.0000000001
 12
1.0
 22
0.0
 32
0.0
 13
1.0
 23
0.0
 33
0.0
 40
0.0
 40
0.0
 40
0.0
 40
0.0
 40
0.25
 40
0.25
 40
0.25
 40
0.25
 40
0.5
 40
0.5
 40
0.5
 40
0.5
 40
1.0
 40
1.0
 40
1.0
 40
1.0
 10
-131.3872
 20
-100.4054
 30
0.0
 10
-134.6532
 20
-102.6063
 30
0.0
 10
-138.1496
 20
-103.4518
 30
0.0
 10
-141.4679
 20
-103.6981
 30
0.0
 10
-141.4679
 20
-103.6981
 30
0.0
 10
-138.6685
 20
-101.9765
 30
0.0
 10
-136.9827
 20
-98.7077
 30
0.0
 10
-138.5528
 20
-92.9756
 30
0.0
 10
-138.5528
 20
-92.9756
 30
0.0
 10
-135.984
 20
-95.5505
 30
0.0
 10
-134.3296
 20
-97.315
 30
0.0
 10
-131.3872
 20
-100.4054
 30
0.0
  0
SPLINE
  5
60
330
1F
100
AcDbEntity
  8
layer 1
 62
     7
370
    25
100
AcDbSpline
210
0.0
220
0.0
230
1.0
 70
    11
 71
     3
 72
    16
 73
    12
 74
     0
 42
0.0000000001
 43
0.0000000001
 12
1.0
 22
0.0
 32
0.0
 13
1.0
 23
0.0
 33
0.0
 40
0.0
 40
0.0
 40
0.0
 40
0.0
 40
0.25
 40
0.25
 40
0.25
 40
0.25
 40
0.5
 40
0.5
 40
0.5
 40
0.5
 40
1.0
 40
1.0
 40
1.0
 40
1.0
 10
-137.8991
 20
-27.1145
 30
0.0
 10
-140.6334
 20
-23.4264
 30
0.0
 10
-144.326
 20
-19.2353
 30
0.0
 10
-147.2508
 20
-15.8935
 30
0.0
 10
-147.2508
 20
-15.8935
 30
0.0
 10
-144.0026
 20
-17.6784
 30
0.0
 10
-139.7836
 20
-17.6983
 30
0.0
 10
-136.6938
 20
-16.6199
 30
0.0
 10
-136.6938
 20
-16.6199
 30
0.0
 10
-138.611
 20
-19.4142
 30
0.0
 10
-139.1946
 20
-23.7404
 30
0.0
 10
-137.8991
 20
-27.1145
 30
0.0
  0
SPLINE
  5
61
330
1F
100
AcDbEntity
  8
layer 1
 62
     7
370
    25
100
AcDbSpline
210
0.0
220
0.0
230
1.0
 70
    11
 71
     3
 72
    20
 73
    16
 74
     0
 42
0.0000000001
 43
0.0000000001
 12
1.0
 22
0.0
 32
0.0
 13
1.0
 23
0.0
 33
0.0
 40
0.0
 40
0.0
 40
0.0
 40
0.0
 40
0.2
 40
0.2
 40
0.2
 40
0.2
 40
0.4
 40
0.4
 40
0.4
 40
0.4
 40
0.6
 40
0.6
 40
0.6
 40
0.6
 40
1.0
 40
1.0
 40
1.0
 40
1.0
 10
-139.8879
 20
-61.7744
 30
0.0
 10
-141.9031
 20
-57.8135
 30
0.0
 10
-149.23
 20
-58.9511
 30
0.0
 10
-149.4399
 20
-64.3018
 30
0.0
 10
-149.4399
 20
-64.3018
 30
0.0
 10
-155.0804
 20
-56.4086
 30
0.0
 10
-144.5685
 20
-50.5464
 30
0.0
 10
-136.8202
 20
-56.4166
 30
0.0
 10
-136.8202
 20
-56.4166
 30
0.0
 10
-138.1092
 20
-57.7261
 30
0.0
 10
-139.217
 20
-60.1402
 30
0.0
 10
-139.8879
 20
-61.7744
 30
0.0
 10
-139.8879
 20
-61.7744
 30
0.0
 10
-139.8879
 20
-61.7744
 30
0.0
 10
-139.8879
 20
-61.7744
 30
0.0
 10
-139.8879
 20
-61.7744
 30
0.0
  0
SPLINE
  5
62
330
1F
100
AcDbEntity
  8
layer 1
 62
     7
370
    25
100
AcDbSpline
210
0.0
220
0.0
230
1.0
 70
    11
 71
     3
 72
    20
 73
    16
 74
     0
 42
0.0000000001
 43
0.0000000001
 12
1.0
 22
0.0
 32
0.0
 13
1.0
 23
0.0
 33
0.0
 40
0.0
 40
0.0
 40
0.0
 40
0.0
 40
0.2
 40
0.2
 40
0.2
 40
0.2
 40
0.4
 40
0.4
 40
0.4
 40
0.4
 40
0.6
 40
0.6
 40
0.6
 40
0.6
 40
1.0
 40
1.0
 40
1.0
 40
1.0
 10
-141.596
 20
-80.3826
 30
0.0
 10
-143.787
 20
-77.5092
 30
0.0
 10
-146.7414
 20
-73.8387
 30
0.0
 10
-149.0792
 20
-70.9078
 30
0.0
 10
-149.0792
 20
-70.9078
 30
0.0
 10
-146.0937
 20
-71.5331
 30
0.0
 10
-144.2232
 20
-70.7678
 30
0.0
 10
-142.0323
 20
-69.1749
 30
0.0
 10
-142.0323
 20
-69.1749
 30
0.0
 10
-142.7702
 20
-73.7452
 30
0.0
 10
-142.2319
 20
-76.9301
 30
0.0
 10
-141.596
 20
-80.3826
 30
0.0
 10
-141.596
 20
-80.3826
 30
0.0
 10
-141.596
 20
-80.3826
 30
0.0
 10
-141.596
 20
-80.3826
 30
0.0
 10
-141.596
 20
-80.3826
 30
0.0
  0
SPLINE
  5
63
330
1F
100
AcDbEntity
  8
layer 1
 62
     7
370
    25
100
AcDbSpline
210
0.0
220
0.0
230
1.0
 70
    11
 71
     3
 72
    20
 73
    16
 74
     0
 42
0.0000000001
 43
0.0000000001
 12
1.0
 22
0.0
 32
0.0
 13
1.0
 23
0.0
 33
0.0
 40
0.0
 40
0.0
 40
0.0
 40
0.0
 40
0.2
 40
0.2
 40
0.2
 40
0.2
 40
0.4
 40
0.4
 40
0.4
 40
0.4
 40
0.6
 40
0.6
 40
0.6
 40
0.6
 40
1.0
 40
1.0
 40
1.0
 40
1.0
 10
-155.3701
 20
-43.4856
 30
0.0
 10
-153.916
 20
-42.9143
 30
0.0
 10
-152.4772
 20
-39.8896
 30
0.0
 10
-152.3572
 20
-37.8373
 30
0.0
 10
-152.3572
 20
-37.8373
 30
0.0
 10
-150.9247
 20
-41.3211
 30
0.0
 10
-143.957
 20
-42.0648
 30
0.0
 10
-142.8232
 20
-35.523
 30
0.0
 10
-142.8232
 20
-35.523
 30
0.0
 10
-137.8825
 20
-45.1537
 30
0.0
 10
-148.5697
 20
-49.2657
 30
0.0
 10
-155.3701
 20
-43.4856
 30
0.0
 10
-155.3701
 20
-43.4856
 30
0.0
 10
-155.3701
 20
-43.4856
 30
0.0
 10
-155.3701
 20
-43.4856
 30
0.0
 10
-155.3701
 20
-43.4856
 30
0.0
  0
SPLINE
  5
64
330
1F
100
AcDbEntity
  8
layer 1
 62
     7
370
    25
100
AcDbSpline
210
0.0
220
0.0
230
1.0
 70
    11
 71
     3
 72
    20
 73
    16
 74
     0
 42
0.0000000001
 43
0.0000000001
 12
1.0
 22
0.0
 32
0.0
 13
1.0
 23
0.0
 33
0.0
 40
0.0
 40
0.0
 40
0.0
 40
0.0
 40
0.2
 40
0.2
 40
0.2
 40
0.2
 40
0.4
 40
0.4
 40
0.4
 40
0.4
 40
0.6
 40
0.6
 40
0.6
 40
0.6
 40
1.0
 40
1.0
 40
1.0
 40
1.0
 10
-150.2185
 20
-30.6405
 30
0.0
 10
-149.9106
 20
-27.4612
 30
0.0
 10
-149.7636
 20
-23.2184
 30
0.0
 10
-150.6163
 20
-20.0908
 30
0.0
 10
-150.6163
 20
-20.0908
 30
0.0
 10
-148.6987
 20
-22.3793
 30
0.0
 10
-145.7603
 20
-25.8
 30
0.0
 10
-143.3744
 20
-28.8301
 30
0.0
 10
-143.3744
 20
-28.8301
 30
0.0
 10
-146.8364
 20
-28.0461
 30
0.0
 10
-149.3878
 20
-29.0229
 30
0.0
 10
-150.2185
 20
-30.6405
 30
0.0
 10
-150.2185
 20
-30.6405
 30
0.0
 10
-150.2185
 20
-30.6405
 30
0.0
 10
-150.2185
 20
-30.6405
 30
0.0
 10
-150.2185
 20
-30.6405
 30
0.0
  0
SPLINE
  5
65
330
1F
100
AcDbEntity
  8
layer 1
 62
     7
370
    25
100
AcDbSpline
210
0.0
220
0.0
230
1.0
 70
    11
 71
     3
 72
    20
 73
    16
 74
     0
 42
0.0000000001
 43
0.0000000001
 12
1.0
 22
0.0
 32
0.0
 13
1.0
 23
0.0
 33
0.0
 40
0.0
 40
0.0
 40
0.0
 40
0.0
 40
0.2
 40
0.2
 40
0.2
 40
0.2
 40
0.4
 40
0.4
 40
0.4
 40
0.4
 40
0.6
 40
0.6
 40
0.6
 40
0.6
 40
1.0
 40
1.0
 40
1.0
 40
1.0
 10
-155.6548
 20
-83.3454
 30
0.0
 10
-153.7604
 20
-81.9396
 30
0.0
 10
-153.2769
 20
-78.055
 30
0.0
 10
-154.0901
 20
-74.4318
 30
0.0
 10
-154.0901
 20
-74.4318
 30
0.0
 10
-151.5957
 20
-77.4859
 30
0.0
 10
-149.6609
 20
-80.4448
 30
0.0
 10
-147.1488
 20
-83.1984
 30
0.0
 10
-147.1488
 20
-83.1984
 30
0.0
 10
-150.3943
 20
-82.4005
 30
0.0
 10
-153.0475
 20
-82.4857
 30
0.0
 10
-155.6548
 20
-83.3455
 30
0.0
 10
-155.6548
 20
-83.3455
 30
0.0
 10
-155.6548
 20
-83.3455
 30
0.0
 10
-155.6548
 20
-83.3454
 30
0.0
 10
-155.6548
 20
-83.3454
 30
0.0
  0
SPLINE
  5
66
330
1F
100
AcDbEntity
  8
layer 1
 62
     7
370
    25
100
AcDbSpline
210
0.0
220
0.0
230
1.0
 70
    11
 71
     3
 72
    16
 73
    12
 74
     0
 42
0.0000000001
 43
0.0000000001
 12
1.0
 22
0.0
 32
0.0
 13
1.0
 23
0.0
 33
0.0
 40
0.0
 40
0.0
 40
0.0
 40
0.0
 40
0.25
 40
0.25
 40
0.25
 40
0.25
 40
0.5
 40
0.5
 40
0.5
 40
0.5
 40
1.0
 40
1.0
 40
1.0
 40
1.0
 10
-153.0443
 20
-9.7362
 30
0.0
 10
-156.0459
 20
-6.7659
 30
0.0
 10
-159.7192
 20
-3.1669
 30
0.0
 10
-162.5084
 20
-0.6272
 30
0.0
 10
-162.5084
 20
-0.6272
 30
0.0
 10
-159.9916
 20
1.6468
 30
0.0
 10
-155.433
 20
3.2122
 30
0.0
 10
-151.3015
 20
3.8219
 30
0.0
 10
-151.3015
 20
3.8219
 30
0.0
 10
-155.6856
 20
1.096
 30
0.0
 10
-155.4074
 20
-6.3884
 30
0.0
 10
-153.0443
 20
-9.7362
 30
0.0
  0
SPLINE
  5
67
330
1F
100
AcDbEntity
  8
layer 1
 62
     7
370
    25
100
AcDbSpline
210
0.0
220
0.0
230
1.0
 70
    11
 71
     3
 72
    16
 73
    12
 74
     0
 42
0.0000000001
 43
0.0000000001
 12
1.0
 22
0.0
 32
0.0
 13
1.0
 23
0.0
 33
0.0
 40
0.0
 40
0.0
 40
0.0
 40
0.0
 40
0.25
 40
0.25
 40
0.25
 40
0.25
 40
0.5
 40
0.5
 40
0.5
 40
0.5
 40
1.0
 40
1.0
 40
1.0
 40
1.0
 10
-157.112
 20
-58.9671
 30
0.0
 10
-159.7122
 20
-53.1457
 30
0.0
 10
-161.8998
 20
-48.6584
 30
0.0
 10
-165.5315
 20
-42.3709
 30
0.0
 10
-165.5315
 20
-42.3709
 30
0.0
 10
-160.7543
 20
-46.5053
 30
0.0
 10
-156.2282
 20
-49.5606
 30
0.0
 10
-152.4675
 20
-50.2855
 30
0.0
 10
-152.4675
 20
-50.2855
 30
0.0
 10
-155.1032
 20
-51.1807
 30
0.0
 10
-157.6169
 20
-54.7852
 30
0.0
 10
-157.112
 20
-58.9671
 30
0.0
  0
SPLINE
  5
68
330
1F
100
AcDbEntity
  8
layer 1
 62
     7
370
    25
100
AcDbSpline
210
0.0
220
0.0
230
1.0
 70
    11
 71
     3
 72
    20
 73
    16
 74
     0
 42
0.0000000001
 43
0.0000000001
 12
1.0
 22
0.0
 32
0.0
 13
1.0
 23
0.0
 33
0.0
 40
0.0
 40
0.0
 40
0.0
 40
0.0
 40
0.2
 40
0.2
 40
0.2
 40
0.2
 40
0.4
 40
0.4
 40
0.4
 40
0.4
 40
0.6
 40
0.6
 40
0.6
 40
0.6
 40
1.0
 40
1.0
 40
1.0
 40
1.0
 10
-173.2048
 20
-18.2994
 30
0.0
 10
-176.8653
 20
-0.4672
 30
0.0
 10
-177.4236
 20
18.7091
 30
0.0
 10
-173.2048
 20
35.5892
 30
0.0
 10
-173.2048
 20
35.5892
 30
0.0
 10
-172.8932
 20
23.5779
 30
0.0
 10
-170.4209
 20
11.6667
 30
0.0
 10
-154.1375
 20
8.6449
 30
0.0
 10
-154.1375
 20
8.6449
 30
0.0
 10
-170.421
 20
5.6231
 30
0.0
 10
-172.8932
 20
-6.2881
 30
0.0
 10
-173.2048
 20
-18.2995
 30
0.0
 10
-173.2048
 20
-18.2995
 30
0.0
 10
-173.2048
 20
-18.2995
 30
0.0
 10
-173.2048
 20
-18.2994
 30
0.0
 10
-173.2048
 20
-18.2994
 30
0.0
  0
SPLINE
  5
69
330
1F
100
AcDbEntity
  8
layer 1
 62
     7
370
    25
100
AcDbSpline
210
0.0
220
0.0
230
1.0
 70
    11
 71
     3
 72
    24
 73
    20
 74
     0
 42
0.0000000001
 43
0.0000000001
 12
1.0
 22
0.0
 32
0.0
 13
1.0
 23
0.0
 33
0.0
 40
0.0
 40
0.0
 40
0.0
 40
0.0
 40
0.1666666666666667
 40
0.1666666666666667
 40
0.1666666666666667
 40
0.1666666666666667
 40
0.3333333333333333
 40
0.3333333333333333
 40
0.3333333333333333
 40
0.3333333333333333
 40
0.5
 40
0.5
 40
0.5
 40
0.5
 40
0.6666666666666666
 40
0.6666666666666666
 40
0.6666666666666666
 40
0.6666666666666666
 40
1.0
 40
1.0
 40
1.0
 40
1.0
 10
-159.5782
 20
-40.7148
 30
0.0
 10
-164.2118
 20
-37.3928
 30
0.0
 10
-167.3664
 20
-29.689
 30
0.0
 10
-168.2938
 20
-25.1004
 30
0.0
 10
-168.2938
 20
-25.1004
 30
0.0
 10
-165.5793
 20
-28.474
 30
0.0
 10
-160.8297
 20
-27.6106
 30
0.0
 10
-159.9097
 20
-23.6528
 30
0.0
 10
-159.9097
 20
-23.6528
 30
0.0
 10
-158.9285
 20
-19.3566
 30
0.0
 10
-162.6028
 20
-16.9261
 30
0.0
 10
-166.4362
 20
-18.6268
 30
0.0
 10
-166.4362
 20
-18.6268
 30
0.0
 10
-167.2807
 20
-11.6552
 30
0.0
 10
-157.3574
 20
-11.9169
 30
0.0
 10
-155.4979
 20
-19.0419
 30
0.0
 10
-155.4979
 20
-19.0419
 30
0.0
 10
-153.7381
 20
-27.0465
 30
0.0
 10
-155.5803
 20
-33.3249
 30
0.0
 10
-159.5782
 20
-40.7148
 30
0.0
  0
SPLINE
  5
6A
330
1F
100
AcDbEntity
  8
layer 1
 62
     7
370
    25
100
AcDbSpline
210
0.0
220
0.0
230
1.0
 70
    11
 71
     3
 72
    16
 73
    12
 74
     0
 42
0.0000000001
 43
0.0000000001
 12
1.0
 22
0.0
 32
0.0
 13
1.0
 23
0.0
 33
0.0
 40
0.0
 40
0.0
 40
0.0
 40
0.0
 40
0.25
 40
0.25
 40
0.25
 40
0.25
 40
0.5
 40
0.5
 40
0.5
 40
0.5
 40
1.0
 40
1.0
 40
1.0
 40
1.0
 10
-180.3715
 20
-107.9606
 30
0.0
 10
-180.3715
 20
-107.9606
 30
0.0
 10
-180.3715
 20
-85.1801
 30
0.0
 10
-180.3715
 20
-85.1801
 30
0.0
 10
-180.3715
 20
-85.1801
 30
0.0
 10
-177.7363
 20
-95.6488
 30
0.0
 10
-169.6652
 20
-105.165
 30
0.0
 10
-158.1714
 20
-107.9606
 30
0.0
 10
-158.1714
 20
-107.9606
 30
0.0
 10
-158.1714
 20
-107.9606
 30
0.0
 10
-180.3715
 20
-107.9606
 30
0.0
 10
-180.3715
 20
-107.9606
 30
0.0
  0
SPLINE
  5
6B
330
1F
100
AcDbEntity
  8
layer 1
 62
     7
370
    25
100
AcDbSpline
210
0.0
220
0.0
230
1.0
 70
    11
 71
     3
 72
    16
 73
    12
 74
     0
 42
0.0000000001
 43
0.0000000001
 12
1.0
 22
0.0
 32
0.0
 13
1.0
 23
0.0
 33
0.0
 40
0.0
 40
0.0
 40
0.0
 40
0.0
 40
0.25
 40
0.25
 40
0.25
 40
0.25
 40
0.5
 40
0.5
 40
0.5
 40
0.5
 40
1.0
 40
1.0
 40
1.0
 40
1.0
 10
-168.5224
 20
-13.1363
 30
0.0
 10
-168.4029
 20
-10.4967
 30
0.0
 10
-167.2689
 20
-7.4133
 30
0.0
 10
-165.6297
 20
-4.3515
 30
0.0
 10
-165.6297
 20
-4.3515
 30
0.0
 10
-165.4543
 20
-4.41
 30
0.0
 10
-162.172
 20
-7.7507
 30
0.0
 10
-160.0561
 20
-9.8416
 30
0.0
 10
-160.0561
 20
-9.8416
 30
0.0
 10
-164.3099
 20
-10.2699
 30
0.0
 10
-165.8758
 20
-10.9522
 30
0.0
 10
-168.5224
 20
-13.1363
 30
0.0
  0
SPLINE
  5
6C
330
1F
100
AcDbEntity
  8
layer 1
 62
     7
370
    25
100
AcDbSpline
210
0.0
220
0.0
230
1.0
 70
    11
 71
     3
 72
    16
 73
    12
 74
     0
 42
0.0000000001
 43
0.0000000001
 12
1.0
 22
0.0
 32
0.0
 13
1.0
 23
0.0
 33
0.0
 40
0.0
 40
0.0
 40
0.0
 40
0.0
 40
0.25
 40
0.25
 40
0.25
 40
0.25
 40
0.5
 40
0.5
 40
0.5
 40
0.5
 40
1.0
 40
1.0
 40
1.0
 40
1.0
 10
-160.443
 20
-64.9259
 30
0.0
 10
-167.7744
 20
-61.2205
 30
0.0
 10
-179.0644
 20
-66.6958
 30
0.0
 10
-180.3716
 20
-72.7614
 30
0.0
 10
-180.3716
 20
-72.7614
 30
0.0
 10
-180.3716
 20
-72.7614
 30
0.0
 10
-180.3716
 20
-11.1115
 30
0.0
 10
-180.3716
 20
-11.1115
 30
0.0
 10
-180.3716
 20
-11.1115
 30
0.0
 10
-176.4693
 20
-31.8526
 30
0.0
 10
-170.6596
 20
-48.0515
 30
0.0
 10
-160.443
 20
-64.9259
 30
0.0
  0
SPLINE
  5
6D
330
1F
100
AcDbEntity
  8
layer 1
 62
     7
370
    25
100
AcDbSpline
210
0.0
220
0.0
230
1.0
 70
    11
 71
     3
 72
    36
 73
    32
 74
     0
 42
0.0000000001
 43
0.0000000001
 12
1.0
 22
0.0
 32
0.0
 13
1.0
 23
0.0
 33
0.0
 40
0.0
 40
0.0
 40
0.0
 40
0.0
 40
0.1111111111111111
 40
0.1111111111111111
 40
0.1111111111111111
 40
0.1111111111111111
 40
0.2222222222222222
 40
0.2222222222222222
 40
0.2222222222222222
 40
0.2222222222222222
 40
0.3333333333333333
 40
0.3333333333333333
 40
0.3333333333333333
 40
0.3333333333333333
 40
0.4444444444444444
 40
0.4444444444444444
 40
0.4444444444444444
 40
0.4444444444444444
 40
0.5555555555555556
 40
0.5555555555555556
 40
0.5555555555555556
 40
0.5555555555555556
 40
0.6666666666666666
 40
0.6666666666666666
 40
0.6666666666666666
 40
0.6666666666666666
 40
0.7777777777777778
 40
0.7777777777777778
 40
0.7777777777777778
 40
0.7777777777777778
 40
1.0
 40
1.0
 40
1.0
 40
1.0
 10
-153.6427
 20
-87.7176
 30
0.0
 10
-148.3955
 20
-86.7267
 30
0.0
 10
-144.1005
 20
-88.5102
 30
0.0
 10
-142.7449
 20
-93.4462
 30
0.0
 10
-142.7449
 20
-93.4462
 30
0.0
 10
-142.3173
 20
-95.9037
 30
0.0
 10
-142.0417
 20
-100.4085
 30
0.0
 10
-145.2035
 20
-100.8489
 30
0.0
 10
-145.2035
 20
-100.8489
 30
0.0
 10
-144.0896
 20
-96.791
 30
0.0
 10
-146.7505
 20
-93.5641
 30
0.0
 10
-150.7987
 20
-94.7375
 30
0.0
 10
-150.7987
 20
-94.7375
 30
0.0
 10
-154.2876
 20
-95.8402
 30
0.0
 10
-154.6285
 20
-101.6168
 30
0.0
 10
-151.812
 20
-103.4597
 30
0.0
 10
-151.812
 20
-103.4597
 30
0.0
 10
-151.5042
 20
-103.7152
 30
0.0
 10
-151.5625
 20
-104.0139
 30
0.0
 10
-151.9006
 20
-103.9135
 30
0.0
 10
-151.9006
 20
-103.9135
 30
0.0
 10
-157.2331
 20
-102.9647
 30
0.0
 10
-163.2439
 20
-99.5686
 30
0.0
 10
-166.3509
 20
-96.3975
 30
0.0
 10
-166.3509
 20
-96.3975
 30
0.0
 10
-161.646
 20
-91.9087
 30
0.0
 10
-159.1416
 20
-88.976
 30
0.0
 10
-153.6426
 20
-87.7176
 30
0.0
 10
-153.6426
 20
-87.7176
 30
0.0
 10
-153.6426
 20
-87.7176
 30
0.0
 10
-153.6427
 20
-87.7176
 30
0.0
 10
-153.6427
 20
-87.7176
 30
0.0
  0
SPLINE
  5
6E
330
1F
100
AcDbEntity
  8
layer 1
 62
     7
370
    25
100
AcDbSpline
210
0.0
220
0.0
230
1.0
 70
    11
 71
     3
 72
    24
 73
    20
 74
     0
 42
0.0000000001
 43
0.0000000001
 12
1.0
 22
0.0
 32
0.0
 13
1.0
 23
0.0
 33
0.0
 40
0.0
 40
0.0
 40
0.0
 40
0.0
 40
0.1666666666666667
 40
0.1666666666666667
 40
0.1666666666666667
 40
0.1666666666666667
 40
0.3333333333333333
 40
0.3333333333333333
 40
0.3333333333333333
 40
0.3333333333333333
 40
0.5
 40
0.5
 40
0.5
 40
0.5
 40
0.6666666666666666
 40
0.6666666666666666
 40
0.6666666666666666
 40
0.6666666666666666
 40
1.0
 40
1.0
 40
1.0
 40
1.0
 10
-165.6822
 20
-69.9826
 30
0.0
 10
-162.2337
 20
-70.0683
 30
0.0
 10
-160.1651
 20
-71.7734
 30
0.0
 10
-159.8899
 20
-75.5732
 30
0.0
 10
-159.8899
 20
-75.5732
 30
0.0
 10
-170.0137
 20
-73.2214
 30
0.0
 10
-170.1159
 20
-85.8314
 30
0.0
 10
-161.9633
 20
-85.8678
 30
0.0
 10
-161.9633
 20
-85.8678
 30
0.0
 10
-165.0235
 20
-87.653
 30
0.0
 10
-167.2062
 20
-89.8849
 30
0.0
 10
-169.184
 20
-92.7496
 30
0.0
 10
-169.184
 20
-92.7496
 30
0.0
 10
-172.2535
 20
-89.5416
 30
0.0
 10
-174.3645
 20
-84.5619
 30
0.0
 10
-174.9481
 20
-81.0014
 30
0.0
 10
-174.9481
 20
-81.0014
 30
0.0
 10
-175.6881
 20
-74.2216
 30
0.0
 10
-170.9537
 20
-70.0046
 30
0.0
 10
-165.6822
 20
-69.9826
 30
0.0
  0
SPLINE
  5
6F
330
1F
100
AcDbEntity
  8
layer 1
 62
     7
370
    25
100
AcDbSpline
210
0.0
220
0.0
230
1.0
 70
    11
 71
     3
 72
    24
 73
    20
 74
     0
 42
0.0000000001
 43
0.0000000001
 12
1.0
 22
0.0
 32
0.0
 13
1.0
 23
0.0
 33
0.0
 40
0.0
 40
0.0
 40
0.0
 40
0.0
 40
0.1666666666666667
 40
0.1666666666666667
 40
0.1666666666666667
 40
0.1666666666666667
 40
0.3333333333333333
 40
0.3333333333333333
 40
0.3333333333333333
 40
0.3333333333333333
 40
0.5
 40
0.5
 40
0.5
 40
0.5
 40
0.6666666666666666
 40
0.6666666666666666
 40
0.6666666666666666
 40
0.6666666666666666
 40
1.0
 40
1.0
 40
1.0
 40
1.0
 10
-132.8457
 20
-58.6961
 30
0.0
 10
-128.2121
 20
-62.0182
 30
0.0
 10
-125.0574
 20
-69.7219
 30
0.0
 10
-124.13
 20
-74.3106
 30
0.0
 10
-124.13
 20
-74.3106
 30
0.0
 10
-126.8446
 20
-70.937
 30
0.0
 10
-131.5942
 20
-71.8004
 30
0.0
 10
-132.5142
 20
-75.7582
 30
0.0
 10
-132.5142
 20
-75.7582
 30
0.0
 10
-133.4953
 20
-80.0544
 30
0.0
 10
-129.8211
 20
-82.4849
 30
0.0
 10
-125.9876
 20
-80.7842
 30
0.0
 10
-125.9876
 20
-80.7842
 30
0.0
 10
-126.1051
 20
-87.0029
 30
0.0
 10
-135.0665
 20
-87.4941
 30
0.0
 10
-136.926
 20
-80.3691
 30
0.0
 10
-136.926
 20
-80.3691
 30
0.0
 10
-138.6858
 20
-72.3645
 30
0.0
 10
-136.8436
 20
-66.0861
 30
0.0
 10
-132.8457
 20
-58.6961
 30
0.0
  0
SPLINE
  5
70
330
1F
100
AcDbEntity
  8
layer 1
 62
     7
370
    25
100
AcDbSpline
210
0.0
220
0.0
230
1.0
 70
    11
 71
     3
 72
    24
 73
    20
 74
     0
 42
0.0000000001
 43
0.0000000001
 12
1.0
 22
0.0
 32
0.0
 13
1.0
 23
0.0
 33
0.0
 40
0.0
 40
0.0
 40
0.0
 40
0.0
 40
0.1666666666666667
 40
0.1666666666666667
 40
0.1666666666666667
 40
0.1666666666666667
 40
0.3333333333333333
 40
0.3333333333333333
 40
0.3333333333333333
 40
0.3333333333333333
 40
0.5
 40
0.5
 40
0.5
 40
0.5
 40
0.6666666666666666
 40
0.6666666666666666
 40
0.6666666666666666
 40
0.6666666666666666
 40
1.0
 40
1.0
 40
1.0
 40
1.0
 10
-100.9121
 20
46.9229
 30
0.0
 10
-97.4636
 20
46.8371
 30
0.0
 10
-95.3949
 20
45.132
 30
0.0
 10
-95.1198
 20
41.3323
 30
0.0
 10
-95.1198
 20
41.3323
 30
0.0
 10
-105.2436
 20
43.6841
 30
0.0
 10
-105.3457
 20
31.0741
 30
0.0
 10
-97.1932
 20
31.0376
 30
0.0
 10
-97.1932
 20
31.0376
 30
0.0
 10
-100.2533
 20
29.2524
 30
0.0
 10
-102.436
 20
27.0206
 30
0.0
 10
-104.4138
 20
24.1558
 30
0.0
 10
-104.4138
 20
24.1558
 30
0.0
 10
-107.4833
 20
27.3639
 30
0.0
 10
-109.5944
 20
32.3436
 30
0.0
 10
-110.1779
 20
35.9041
 30
0.0
 10
-110.1779
 20
35.9041
 30
0.0
 10
-110.918
 20
42.6839
 30
0.0
 10
-106.1835
 20
46.9009
 30
0.0
 10
-100.9121
 20
46.9229
 30
0.0
  0
SPLINE
  5
71
330
1F
100
AcDbEntity
  8
layer 1
 62
     7
370
    25
100
AcDbSpline
210
0.0
220
0.0
230
1.0
 70
    11
 71
     3
 72
    20
 73
    16
 74
     0
 42
0.0000000001
 43
0.0000000001
 12
1.0
 22
0.0
 32
0.0
 13
1.0
 23
0.0
 33
0.0
 40
0.0
 40
0.0
 40
0.0
 40
0.0
 40
0.2
 40
0.2
 40
0.2
 40
0.2
 40
0.4
 40
0.4
 40
0.4
 40
0.4
 40
0.6
 40
0.6
 40
0.6
 40
0.6
 40
1.0
 40
1.0
 40
1.0
 40
1.0
 10
-109.2907
 20
125.2504
 30
0.0
 10
-109.2907
 20
125.2504
 30
0.0
 10
-90.7478
 20
125.2504
 30
0.0
 10
-90.7478
 20
125.2504
 30
0.0
 10
-90.7478
 20
125.2504
 30
0.0
 10
-104.1518
 20
121.2786
 30
0.0
 10
-107.621
 20
114.6228
 30
0.0
 10
-108.5598
 20
99.0545
 30
0.0
 10
-108.5598
 20
99.0545
 30
0.0
 10
-110.2055
 20
105.8517
 30
0.0
 10
-110.5674
 20
117.1695
 30
0.0
 10
-109.2907
 20
125.2504
 30
0.0
 10
-109.2907
 20
125.2504
 30
0.0
 10
-109.2907
 20
125.2504
 30
0.0
 10
-109.2907
 20
125.2504
 30
0.0
 10
-109.2907
 20
125.2504
 30
0.0
  0
SPLINE
  5
72
330
1F
100
AcDbEntity
  8
layer 1
 62
     7
370
    25
100
AcDbSpline
210
0.0
220
0.0
230
1.0
 70
    11
 71
     3
 72
    16
 73
    12
 74
     0
 42
0.0000000001
 43
0.0000000001
 12
1.0
 22
0.0
 32
0.0
 13
1.0
 23
0.0
 33
0.0
 40
0.0
 40
0.0
 40
0.0
 40
0.0
 40
0.25
 40
0.25
 40
0.25
 40
0.25
 40
0.5
 40
0.5
 40
0.5
 40
0.5
 40
1.0
 40
1.0
 40
1.0
 40
1.0
 10
-100.6427
 20
112.9979
 30
0.0
 10
-98.3262
 20
110.8451
 30
0.0
 10
-97.5368
 20
109.9924
 30
0.0
 10
-94.5572
 20
107.2482
 30
0.0
 10
-94.5572
 20
107.2482
 30
0.0
 10
-98.024
 20
108.1619
 30
0.0
 10
-101.6202
 20
107.072
 30
0.0
 10
-103.7162
 20
103.8433
 30
0.0
 10
-103.7162
 20
103.8433
 30
0.0
 10
-103.8862
 20
106.2734
 30
0.0
 10
-102.6452
 20
111.7638
 30
0.0
 10
-100.6427
 20
112.9979
 30
0.0
  0
SPLINE
  5
73
330
1F
100
AcDbEntity
  8
layer 1
 62
     7
370
    25
100
AcDbSpline
210
0.0
220
0.0
230
1.0
 70
    11
 71
     3
 72
    16
 73
    12
 74
     0
 42
0.0000000001
 43
0.0000000001
 12
1.0
 22
0.0
 32
0.0
 13
1.0
 23
0.0
 33
0.0
 40
0.0
 40
0.0
 40
0.0
 40
0.0
 40
0.25
 40
0.25
 40
0.25
 40
0.25
 40
0.5
 40
0.5
 40
0.5
 40
0.5
 40
1.0
 40
1.0
 40
1.0
 40
1.0
 10
-100.6092
 20
74.9905
 30
0.0
 10
-96.5101
 20
70.5456
 30
0.0
 10
-91.7317
 20
67.653
 30
0.0
 10
-87.2763
 20
66.7401
 30
0.0
 10
-87.2763
 20
66.7401
 30
0.0
 10
-90.25
 20
65.1377
 30
0.0
 10
-91.8523
 20
61.3862
 30
0.0
 10
-91.9713
 20
57.8309
 30
0.0
 10
-91.9713
 20
57.8309
 30
0.0
 10
-95.9529
 20
62.9489
 30
0.0
 10
-98.8335
 20
69.2259
 30
0.0
 10
-100.6092
 20
74.9905
 30
0.0
  0
SPLINE
  5
74
330
1F
100
AcDbEntity
  8
layer 1
 62
     7
370
    25
100
AcDbSpline
210
0.0
220
0.0
230
1.0
 70
    11
 71
     3
 72
    36
 73
    32
 74
     0
 42
0.0000000001
 43
0.0000000001
 12
1.0
 22
0.0
 32
0.0
 13
1.0
 23
0.0
 33
0.0
 40
0.0
 40
0.0
 40
0.0
 40
0.0
 40
0.1111111111111111
 40
0.1111111111111111
 40
0.1111111111111111
 40
0.1111111111111111
 40
0.2222222222222222
 40
0.2222222222222222
 40
0.2222222222222222
 40
0.2222222222222222
 40
0.3333333333333333
 40
0.3333333333333333
 40
0.3333333333333333
 40
0.3333333333333333
 40
0.4444444444444444
 40
0.4444444444444444
 40
0.4444444444444444
 40
0.4444444444444444
 40
0.5555555555555556
 40
0.5555555555555556
 40
0.5555555555555556
 40
0.5555555555555556
 40
0.6666666666666666
 40
0.6666666666666666
 40
0.6666666666666666
 40
0.6666666666666666
 40
0.7777777777777778
 40
0.7777777777777778
 40
0.7777777777777778
 40
0.7777777777777778
 40
1.0
 40
1.0
 40
1.0
 40
1.0
 10
-88.5232
 20
29.4243
 30
0.0
 10
-83.2761
 20
30.4152
 30
0.0
 10
-78.981
 20
28.6317
 30
0.0
 10
-77.6255
 20
23.6956
 30
0.0
 10
-77.6255
 20
23.6956
 30
0.0
 10
-77.1978
 20
21.2382
 30
0.0
 10
-76.9222
 20
16.7334
 30
0.0
 10
-80.0841
 20
16.2929
 30
0.0
 10
-80.0841
 20
16.2929
 30
0.0
 10
-78.9701
 20
20.3509
 30
0.0
 10
-81.631
 20
23.5777
 30
0.0
 10
-85.6792
 20
22.4043
 30
0.0
 10
-85.6792
 20
22.4043
 30
0.0
 10
-89.1681
 20
21.3017
 30
0.0
 10
-89.509
 20
15.5251
 30
0.0
 10
-86.6925
 20
13.6821
 30
0.0
 10
-86.6925
 20
13.6821
 30
0.0
 10
-86.3847
 20
13.4267
 30
0.0
 10
-86.4431
 20
13.1279
 30
0.0
 10
-86.7811
 20
13.2284
 30
0.0
 10
-86.7811
 20
13.2284
 30
0.0
 10
-92.1136
 20
14.1771
 30
0.0
 10
-98.1245
 20
17.5733
 30
0.0
 10
-101.2315
 20
20.7444
 30
0.0
 10
-101.2315
 20
20.7444
 30
0.0
 10
-96.5265
 20
25.2332
 30
0.0
 10
-94.0222
 20
28.1658
 30
0.0
 10
-88.5231
 20
29.4243
 30
0.0
 10
-88.5231
 20
29.4243
 30
0.0
 10
-88.5231
 20
29.4243
 30
0.0
 10
-88.5232
 20
29.4243
 30
0.0
 10
-88.5232
 20
29.4243
 30
0.0
  0
SPLINE
  5
75
330
1F
100
AcDbEntity
  8
layer 1
 62
     7
370
    25
100
AcDbSpline
210
0.0
220
0.0
230
1.0
 70
    11
 71
     3
 72
    16
 73
    12
 74
     0
 42
0.0000000001
 43
0.0000000001
 12
1.0
 22
0.0
 32
0.0
 13
1.0
 23
0.0
 33
0.0
 40
0.0
 40
0.0
 40
0.0
 40
0.0
 40
0.25
 40
0.25
 40
0.25
 40
0.25
 40
0.5
 40
0.5
 40
0.5
 40
0.5
 40
1.0
 40
1.0
 40
1.0
 40
1.0
 10
-95.9599
 20
117.6952
 30
0.0
 10
-92.6939
 20
119.8961
 30
0.0
 10
-89.1976
 20
120.7416
 30
0.0
 10
-85.8793
 20
120.9879
 30
0.0
 10
-85.8793
 20
120.9879
 30
0.0
 10
-88.6787
 20
119.2663
 30
0.0
 10
-90.3645
 20
115.9975
 30
0.0
 10
-88.7943
 20
110.2654
 30
0.0
 10
-88.7943
 20
110.2654
 30
0.0
 10
-91.3632
 20
112.8403
 30
0.0
 10
-93.0175
 20
114.6048
 30
0.0
 10
-95.9599
 20
117.6952
 30
0.0
  0
SPLINE
  5
76
330
1F
100
AcDbEntity
  8
layer 1
 62
     7
370
    25
100
AcDbSpline
210
0.0
220
0.0
230
1.0
 70
    11
 71
     3
 72
    16
 73
    12
 74
     0
 42
0.0000000001
 43
0.0000000001
 12
1.0
 22
0.0
 32
0.0
 13
1.0
 23
0.0
 33
0.0
 40
0.0
 40
0.0
 40
0.0
 40
0.0
 40
0.25
 40
0.25
 40
0.25
 40
0.25
 40
0.5
 40
0.5
 40
0.5
 40
0.5
 40
1.0
 40
1.0
 40
1.0
 40
1.0
 10
-89.4481
 20
44.4043
 30
0.0
 10
-86.7138
 20
40.7162
 30
0.0
 10
-83.0212
 20
36.5251
 30
0.0
 10
-80.0963
 20
33.1833
 30
0.0
 10
-80.0963
 20
33.1833
 30
0.0
 10
-83.3446
 20
34.9682
 30
0.0
 10
-87.5636
 20
34.9882
 30
0.0
 10
-90.6534
 20
33.9097
 30
0.0
 10
-90.6534
 20
33.9097
 30
0.0
 10
-88.7362
 20
36.704
 30
0.0
 10
-88.1526
 20
41.0302
 30
0.0
 10
-89.4481
 20
44.4043
 30
0.0
  0
SPLINE
  5
77
330
1F
100
AcDbEntity
  8
layer 1
 62
     7
370
    25
100
AcDbSpline
210
0.0
220
0.0
230
1.0
 70
    11
 71
     3
 72
    20
 73
    16
 74
     0
 42
0.0000000001
 43
0.0000000001
 12
1.0
 22
0.0
 32
0.0
 13
1.0
 23
0.0
 33
0.0
 40
0.0
 40
0.0
 40
0.0
 40
0.0
 40
0.2
 40
0.2
 40
0.2
 40
0.2
 40
0.4
 40
0.4
 40
0.4
 40
0.4
 40
0.6
 40
0.6
 40
0.6
 40
0.6
 40
1.0
 40
1.0
 40
1.0
 40
1.0
 10
-87.4592
 20
79.0642
 30
0.0
 10
-85.4441
 20
75.1033
 30
0.0
 10
-78.1172
 20
76.2409
 30
0.0
 10
-77.9072
 20
81.5916
 30
0.0
 10
-77.9072
 20
81.5916
 30
0.0
 10
-72.2668
 20
73.6984
 30
0.0
 10
-82.7786
 20
67.8362
 30
0.0
 10
-90.527
 20
73.7064
 30
0.0
 10
-90.527
 20
73.7064
 30
0.0
 10
-89.2379
 20
75.0159
 30
0.0
 10
-88.1301
 20
77.43
 30
0.0
 10
-87.4592
 20
79.0642
 30
0.0
 10
-87.4592
 20
79.0642
 30
0.0
 10
-87.4592
 20
79.0642
 30
0.0
 10
-87.4592
 20
79.0642
 30
0.0
 10
-87.4592
 20
79.0642
 30
0.0
  0
SPLINE
  5
78
330
1F
100
AcDbEntity
  8
layer 1
 62
     7
370
    25
100
AcDbSpline
210
0.0
220
0.0
230
1.0
 70
    11
 71
     3
 72
    20
 73
    16
 74
     0
 42
0.0000000001
 43
0.0000000001
 12
1.0
 22
0.0
 32
0.0
 13
1.0
 23
0.0
 33
0.0
 40
0.0
 40
0.0
 40
0.0
 40
0.0
 40
0.2
 40
0.2
 40
0.2
 40
0.2
 40
0.4
 40
0.4
 40
0.4
 40
0.4
 40
0.6
 40
0.6
 40
0.6
 40
0.6
 40
1.0
 40
1.0
 40
1.0
 40
1.0
 10
-85.7512
 20
97.6725
 30
0.0
 10
-83.5601
 20
94.799
 30
0.0
 10
-80.6058
 20
91.1285
 30
0.0
 10
-78.268
 20
88.1976
 30
0.0
 10
-78.268
 20
88.1976
 30
0.0
 10
-81.2534
 20
88.8229
 30
0.0
 10
-83.1239
 20
88.0576
 30
0.0
 10
-85.3149
 20
86.4647
 30
0.0
 10
-85.3149
 20
86.4647
 30
0.0
 10
-84.577
 20
91.035
 30
0.0
 10
-85.1152
 20
94.2199
 30
0.0
 10
-85.7511
 20
97.6725
 30
0.0
 10
-85.7511
 20
97.6725
 30
0.0
 10
-85.7511
 20
97.6725
 30
0.0
 10
-85.7512
 20
97.6725
 30
0.0
 10
-85.7512
 20
97.6725
 30
0.0
  0
SPLINE
  5
79
330
1F
100
AcDbEntity
  8
layer 1
 62
     7
370
    25
100
AcDbSpline
210
0.0
220
0.0
230
1.0
 70
    11
 71
     3
 72
    20
 73
    16
 74
     0
 42
0.0000000001
 43
0.0000000001
 12
1.0
 22
0.0
 32
0.0
 13
1.0
 23
0.0
 33
0.0
 40
0.0
 40
0.0
 40
0.0
 40
0.0
 40
0.2
 40
0.2
 40
0.2
 40
0.2
 40
0.4
 40
0.4
 40
0.4
 40
0.4
 40
0.6
 40
0.6
 40
0.6
 40
0.6
 40
1.0
 40
1.0
 40
1.0
 40
1.0
 10
-71.9771
 20
60.7754
 30
0.0
 10
-73.4311
 20
60.2041
 30
0.0
 10
-74.87
 20
57.1795
 30
0.0
 10
-74.99
 20
55.1271
 30
0.0
 10
-74.99
 20
55.1271
 30
0.0
 10
-76.4224
 20
58.6109
 30
0.0
 10
-83.3902
 20
59.3546
 30
0.0
 10
-84.5239
 20
52.8129
 30
0.0
 10
-84.5239
 20
52.8129
 30
0.0
 10
-89.4646
 20
62.4435
 30
0.0
 10
-78.7775
 20
66.5555
 30
0.0
 10
-71.9771
 20
60.7754
 30
0.0
 10
-71.9771
 20
60.7754
 30
0.0
 10
-71.9771
 20
60.7754
 30
0.0
 10
-71.9771
 20
60.7754
 30
0.0
 10
-71.9771
 20
60.7754
 30
0.0
  0
SPLINE
  5
7A
330
1F
100
AcDbEntity
  8
layer 1
 62
     7
370
    25
100
AcDbSpline
210
0.0
220
0.0
230
1.0
 70
    11
 71
     3
 72
    20
 73
    16
 74
     0
 42
0.0000000001
 43
0.0000000001
 12
1.0
 22
0.0
 32
0.0
 13
1.0
 23
0.0
 33
0.0
 40
0.0
 40
0.0
 40
0.0
 40
0.0
 40
0.2
 40
0.2
 40
0.2
 40
0.2
 40
0.4
 40
0.4
 40
0.4
 40
0.4
 40
0.6
 40
0.6
 40
0.6
 40
0.6
 40
1.0
 40
1.0
 40
1.0
 40
1.0
 10
-77.1287
 20
47.9303
 30
0.0
 10
-77.4366
 20
44.751
 30
0.0
 10
-77.5836
 20
40.5082
 30
0.0
 10
-76.7309
 20
37.3806
 30
0.0
 10
-76.7309
 20
37.3806
 30
0.0
 10
-78.6485
 20
39.6691
 30
0.0
 10
-81.5869
 20
43.0898
 30
0.0
 10
-83.9727
 20
46.12
 30
0.0
 10
-83.9727
 20
46.12
 30
0.0
 10
-80.5108
 20
45.336
 30
0.0
 10
-77.9594
 20
46.3127
 30
0.0
 10
-77.1287
 20
47.9303
 30
0.0
 10
-77.1287
 20
47.9303
 30
0.0
 10
-77.1287
 20
47.9303
 30
0.0
 10
-77.1287
 20
47.9303
 30
0.0
 10
-77.1287
 20
47.9303
 30
0.0
  0
SPLINE
  5
7B
330
1F
100
AcDbEntity
  8
layer 1
 62
     7
370
    25
100
AcDbSpline
210
0.0
220
0.0
230
1.0
 70
    11
 71
     3
 72
    20
 73
    16
 74
     0
 42
0.0000000001
 43
0.0000000001
 12
1.0
 22
0.0
 32
0.0
 13
1.0
 23
0.0
 33
0.0
 40
0.0
 40
0.0
 40
0.0
 40
0.0
 40
0.2
 40
0.2
 40
0.2
 40
0.2
 40
0.4
 40
0.4
 40
0.4
 40
0.4
 40
0.6
 40
0.6
 40
0.6
 40
0.6
 40
1.0
 40
1.0
 40
1.0
 40
1.0
 10
-71.6924
 20
100.6353
 30
0.0
 10
-73.5868
 20
99.2294
 30
0.0
 10
-74.0703
 20
95.3448
 30
0.0
 10
-73.257
 20
91.7216
 30
0.0
 10
-73.257
 20
91.7216
 30
0.0
 10
-75.7514
 20
94.7757
 30
0.0
 10
-77.6863
 20
97.7346
 30
0.0
 10
-80.1984
 20
100.4882
 30
0.0
 10
-80.1984
 20
100.4882
 30
0.0
 10
-76.9529
 20
99.6904
 30
0.0
 10
-74.2996
 20
99.7755
 30
0.0
 10
-71.6923
 20
100.6353
 30
0.0
 10
-71.6923
 20
100.6353
 30
0.0
 10
-71.6923
 20
100.6353
 30
0.0
 10
-71.6924
 20
100.6353
 30
0.0
 10
-71.6924
 20
100.6353
 30
0.0
  0
SPLINE
  5
7C
330
1F
100
AcDbEntity
  8
layer 1
 62
     7
370
    25
100
AcDbSpline
210
0.0
220
0.0
230
1.0
 70
    11
 71
     3
 72
    16
 73
    12
 74
     0
 42
0.0000000001
 43
0.0000000001
 12
1.0
 22
0.0
 32
0.0
 13
1.0
 23
0.0
 33
0.0
 40
0.0
 40
0.0
 40
0.0
 40
0.0
 40
0.25
 40
0.25
 40
0.25
 40
0.25
 40
0.5
 40
0.5
 40
0.5
 40
0.5
 40
1.0
 40
1.0
 40
1.0
 40
1.0
 10
-74.3029
 20
27.026
 30
0.0
 10
-71.3013
 20
24.0557
 30
0.0
 10
-67.628
 20
20.4567
 30
0.0
 10
-64.8388
 20
17.917
 30
0.0
 10
-64.8388
 20
17.917
 30
0.0
 10
-67.3556
 20
15.643
 30
0.0
 10
-71.9142
 20
14.0776
 30
0.0
 10
-76.0456
 20
13.4679
 30
0.0
 10
-76.0456
 20
13.4679
 30
0.0
 10
-71.6616
 20
16.1938
 30
0.0
 10
-71.9398
 20
23.6782
 30
0.0
 10
-74.3029
 20
27.026
 30
0.0
  0
SPLINE
  5
7D
330
1F
100
AcDbEntity
  8
layer 1
 62
     7
370
    25
100
AcDbSpline
210
0.0
220
0.0
230
1.0
 70
    11
 71
     3
 72
    16
 73
    12
 74
     0
 42
0.0000000001
 43
0.0000000001
 12
1.0
 22
0.0
 32
0.0
 13
1.0
 23
0.0
 33
0.0
 40
0.0
 40
0.0
 40
0.0
 40
0.0
 40
0.25
 40
0.25
 40
0.25
 40
0.25
 40
0.5
 40
0.5
 40
0.5
 40
0.5
 40
1.0
 40
1.0
 40
1.0
 40
1.0
 10
-70.2351
 20
76.257
 30
0.0
 10
-67.635
 20
70.4355
 30
0.0
 10
-65.4474
 20
65.9482
 30
0.0
 10
-61.8156
 20
59.6607
 30
0.0
 10
-61.8156
 20
59.6607
 30
0.0
 10
-66.5929
 20
63.7951
 30
0.0
 10
-71.1189
 20
66.8505
 30
0.0
 10
-74.8796
 20
67.5753
 30
0.0
 10
-74.8796
 20
67.5753
 30
0.0
 10
-72.244
 20
68.4705
 30
0.0
 10
-69.7303
 20
72.075
 30
0.0
 10
-70.2351
 20
76.257
 30
0.0
  0
SPLINE
  5
7E
330
1F
100
AcDbEntity
  8
layer 1
 62
     7
370
    25
100
AcDbSpline
210
0.0
220
0.0
230
1.0
 70
    11
 71
     3
 72
    24
 73
    20
 74
     0
 42
0.0000000001
 43
0.0000000001
 12
1.0
 22
0.0
 32
0.0
 13
1.0
 23
0.0
 33
0.0
 40
0.0
 40
0.0
 40
0.0
 40
0.0
 40
0.1666666666666667
 40
0.1666666666666667
 40
0.1666666666666667
 40
0.1666666666666667
 40
0.3333333333333333
 40
0.3333333333333333
 40
0.3333333333333333
 40
0.3333333333333333
 40
0.5
 40
0.5
 40
0.5
 40
0.5
 40
0.6666666666666666
 40
0.6666666666666666
 40
0.6666666666666666
 40
0.6666666666666666
 40
1.0
 40
1.0
 40
1.0
 40
1.0
 10
-67.769
 20
58.0047
 30
0.0
 10
-63.1354
 20
54.6826
 30
0.0
 10
-59.9807
 20
46.9789
 30
0.0
 10
-59.0533
 20
42.3902
 30
0.0
 10
-59.0533
 20
42.3902
 30
0.0
 10
-61.7679
 20
45.7638
 30
0.0
 10
-66.5175
 20
44.9004
 30
0.0
 10
-67.4374
 20
40.9426
 30
0.0
 10
-67.4374
 20
40.9426
 30
0.0
 10
-68.4186
 20
36.6464
 30
0.0
 10
-64.7444
 20
34.2159
 30
0.0
 10
-60.9109
 20
35.9166
 30
0.0
 10
-60.9109
 20
35.9166
 30
0.0
 10
-60.0664
 20
28.945
 30
0.0
 10
-69.9897
 20
29.2067
 30
0.0
 10
-71.8492
 20
36.3317
 30
0.0
 10
-71.8492
 20
36.3317
 30
0.0
 10
-73.609
 20
44.3363
 30
0.0
 10
-71.7669
 20
50.6147
 30
0.0
 10
-67.769
 20
58.0047
 30
0.0
  0
SPLINE
  5
7F
330
1F
100
AcDbEntity
  8
layer 1
 62
     7
370
    25
100
AcDbSpline
210
0.0
220
0.0
230
1.0
 70
    11
 71
     3
 72
    16
 73
    12
 74
     0
 42
0.0000000001
 43
0.0000000001
 12
1.0
 22
0.0
 32
0.0
 13
1.0
 23
0.0
 33
0.0
 40
0.0
 40
0.0
 40
0.0
 40
0.0
 40
0.25
 40
0.25
 40
0.25
 40
0.25
 40
0.5
 40
0.5
 40
0.5
 40
0.5
 40
1.0
 40
1.0
 40
1.0
 40
1.0
 10
-46.9756
 20
125.2504
 30
0.0
 10
-46.9756
 20
125.2504
 30
0.0
 10
-46.9756
 20
102.4699
 30
0.0
 10
-46.9756
 20
102.4699
 30
0.0
 10
-46.9756
 20
102.4699
 30
0.0
 10
-49.6109
 20
112.9386
 30
0.0
 10
-57.682
 20
122.4548
 30
0.0
 10
-69.1758
 20
125.2504
 30
0.0
 10
-69.1758
 20
125.2504
 30
0.0
 10
-69.1758
 20
125.2504
 30
0.0
 10
-46.9756
 20
125.2504
 30
0.0
 10
-46.9756
 20
125.2504
 30
0.0
  0
SPLINE
  5
80
330
1F
100
AcDbEntity
  8
layer 1
 62
     7
370
    25
100
AcDbSpline
210
0.0
220
0.0
230
1.0
 70
    11
 71
     3
 72
    16
 73
    12
 74
     0
 42
0.0000000001
 43
0.0000000001
 12
1.0
 22
0.0
 32
0.0
 13
1.0
 23
0.0
 33
0.0
 40
0.0
 40
0.0
 40
0.0
 40
0.0
 40
0.25
 40
0.25
 40
0.25
 40
0.25
 40
0.5
 40
0.5
 40
0.5
 40
0.5
 40
1.0
 40
1.0
 40
1.0
 40
1.0
 10
-58.8248
 20
30.4261
 30
0.0
 10
-58.9442
 20
27.7865
 30
0.0
 10
-60.0783
 20
24.7031
 30
0.0
 10
-61.7174
 20
21.6413
 30
0.0
 10
-61.7174
 20
21.6413
 30
0.0
 10
-61.8928
 20
21.6998
 30
0.0
 10
-65.1751
 20
25.0405
 30
0.0
 10
-67.291
 20
27.1314
 30
0.0
 10
-67.291
 20
27.1314
 30
0.0
 10
-63.0373
 20
27.5597
 30
0.0
 10
-61.4714
 20
28.242
 30
0.0
 10
-58.8248
 20
30.4261
 30
0.0
  0
SPLINE
  5
81
330
1F
100
AcDbEntity
  8
layer 1
 62
     7
370
    25
100
AcDbSpline
210
0.0
220
0.0
230
1.0
 70
    11
 71
     3
 72
    16
 73
    12
 74
     0
 42
0.0000000001
 43
0.0000000001
 12
1.0
 22
0.0
 32
0.0
 13
1.0
 23
0.0
 33
0.0
 40
0.0
 40
0.0
 40
0.0
 40
0.0
 40
0.25
 40
0.25
 40
0.25
 40
0.25
 40
0.5
 40
0.5
 40
0.5
 40
0.5
 40
1.0
 40
1.0
 40
1.0
 40
1.0
 10
-66.9042
 20
82.2157
 30
0.0
 10
-59.5728
 20
78.5103
 30
0.0
 10
-48.2827
 20
83.9856
 30
0.0
 10
-46.9756
 20
90.0512
 30
0.0
 10
-46.9756
 20
90.0512
 30
0.0
 10
-46.9756
 20
90.0512
 30
0.0
 10
-46.9756
 20
28.4013
 30
0.0
 10
-46.9756
 20
28.4013
 30
0.0
 10
-46.9756
 20
28.4013
 30
0.0
 10
-50.8779
 20
49.1424
 30
0.0
 10
-56.6876
 20
65.3413
 30
0.0
 10
-66.9042
 20
82.2157
 30
0.0
  0
SPLINE
  5
82
330
1F
100
AcDbEntity
  8
layer 1
 62
     7
370
    25
100
AcDbSpline
210
0.0
220
0.0
230
1.0
 70
    11
 71
     3
 72
    36
 73
    32
 74
     0
 42
0.0000000001
 43
0.0000000001
 12
1.0
 22
0.0
 32
0.0
 13
1.0
 23
0.0
 33
0.0
 40
0.0
 40
0.0
 40
0.0
 40
0.0
 40
0.1111111111111111
 40
0.1111111111111111
 40
0.1111111111111111
 40
0.1111111111111111
 40
0.2222222222222222
 40
0.2222222222222222
 40
0.2222222222222222
 40
0.2222222222222222
 40
0.3333333333333333
 40
0.3333333333333333
 40
0.3333333333333333
 40
0.3333333333333333
 40
0.4444444444444444
 40
0.4444444444444444
 40
0.4444444444444444
 40
0.4444444444444444
 40
0.5555555555555556
 40
0.5555555555555556
 40
0.5555555555555556
 40
0.5555555555555556
 40
0.6666666666666666
 40
0.6666666666666666
 40
0.6666666666666666
 40
0.6666666666666666
 40
0.7777777777777778
 40
0.7777777777777778
 40
0.7777777777777778
 40
0.7777777777777778
 40
1.0
 40
1.0
 40
1.0
 40
1.0
 10
-73.7045
 20
105.0074
 30
0.0
 10
-78.9516
 20
104.0165
 30
0.0
 10
-83.2467
 20
105.8
 30
0.0
 10
-84.6022
 20
110.736
 30
0.0
 10
-84.6022
 20
110.736
 30
0.0
 10
-85.0299
 20
113.1935
 30
0.0
 10
-85.3055
 20
117.6983
 30
0.0
 10
-82.1437
 20
118.1387
 30
0.0
 10
-82.1437
 20
118.1387
 30
0.0
 10
-83.2576
 20
114.0808
 30
0.0
 10
-80.5967
 20
110.8539
 30
0.0
 10
-76.5485
 20
112.0274
 30
0.0
 10
-76.5485
 20
112.0274
 30
0.0
 10
-73.0596
 20
113.13
 30
0.0
 10
-72.7187
 20
118.9066
 30
0.0
 10
-75.5352
 20
120.7495
 30
0.0
 10
-75.5352
 20
120.7495
 30
0.0
 10
-75.843
 20
121.005
 30
0.0
 10
-75.7846
 20
121.3037
 30
0.0
 10
-75.4466
 20
121.2033
 30
0.0
 10
-75.4466
 20
121.2033
 30
0.0
 10
-70.1141
 20
120.2546
 30
0.0
 10
-64.1032
 20
116.8584
 30
0.0
 10
-60.9962
 20
113.6873
 30
0.0
 10
-60.9962
 20
113.6873
 30
0.0
 10
-65.7012
 20
109.1985
 30
0.0
 10
-68.2055
 20
106.2658
 30
0.0
 10
-73.7046
 20
105.0074
 30
0.0
 10
-73.7046
 20
105.0074
 30
0.0
 10
-73.7046
 20
105.0074
 30
0.0
 10
-73.7045
 20
105.0074
 30
0.0
 10
-73.7045
 20
105.0074
 30
0.0
  0
SPLINE
  5
83
330
1F
100
AcDbEntity
  8
layer 1
 62
     7
370
    25
100
AcDbSpline
210
0.0
220
0.0
230
1.0
 70
    11
 71
     3
 72
    24
 73
    20
 74
     0
 42
0.0000000001
 43
0.0000000001
 12
1.0
 22
0.0
 32
0.0
 13
1.0
 23
0.0
 33
0.0
 40
0.0
 40
0.0
 40
0.0
 40
0.0
 40
0.1666666666666667
 40
0.1666666666666667
 40
0.1666666666666667
 40
0.1666666666666667
 40
0.3333333333333333
 40
0.3333333333333333
 40
0.3333333333333333
 40
0.3333333333333333
 40
0.5
 40
0.5
 40
0.5
 40
0.5
 40
0.6666666666666666
 40
0.6666666666666666
 40
0.6666666666666666
 40
0.6666666666666666
 40
1.0
 40
1.0
 40
1.0
 40
1.0
 10
-61.6649
 20
87.2724
 30
0.0
 10
-65.1135
 20
87.3582
 30
0.0
 10
-67.1821
 20
89.0633
 30
0.0
 10
-67.4572
 20
92.863
 30
0.0
 10
-67.4572
 20
92.863
 30
0.0
 10
-57.3334
 20
90.5112
 30
0.0
 10
-57.2313
 20
103.1212
 30
0.0
 10
-65.3838
 20
103.1576
 30
0.0
 10
-65.3838
 20
103.1576
 30
0.0
 10
-62.3237
 20
104.9428
 30
0.0
 10
-60.141
 20
107.1747
 30
0.0
 10
-58.1632
 20
110.0394
 30
0.0
 10
-58.1632
 20
110.0394
 30
0.0
 10
-55.0937
 20
106.8314
 30
0.0
 10
-52.9826
 20
101.8517
 30
0.0
 10
-52.3991
 20
98.2912
 30
0.0
 10
-52.3991
 20
98.2912
 30
0.0
 10
-51.6591
 20
91.5114
 30
0.0
 10
-56.3935
 20
87.2944
 30
0.0
 10
-61.6649
 20
87.2724
 30
0.0
  0
SPLINE
  5
84
330
1F
100
AcDbEntity
  8
layer 1
 62
     7
370
    25
100
AcDbSpline
210
0.0
220
0.0
230
1.0
 70
    11
 71
     3
 72
    24
 73
    20
 74
     0
 42
0.0000000001
 43
0.0000000001
 12
1.0
 22
0.0
 32
0.0
 13
1.0
 23
0.0
 33
0.0
 40
0.0
 40
0.0
 40
0.0
 40
0.0
 40
0.1666666666666667
 40
0.1666666666666667
 40
0.1666666666666667
 40
0.1666666666666667
 40
0.3333333333333333
 40
0.3333333333333333
 40
0.3333333333333333
 40
0.3333333333333333
 40
0.5
 40
0.5
 40
0.5
 40
0.5
 40
0.6666666666666666
 40
0.6666666666666666
 40
0.6666666666666666
 40
0.6666666666666666
 40
1.0
 40
1.0
 40
1.0
 40
1.0
 10
-94.5015
 20
75.986
 30
0.0
 10
-99.1351
 20
79.308
 30
0.0
 10
-102.2897
 20
87.0118
 30
0.0
 10
-103.2171
 20
91.6004
 30
0.0
 10
-103.2171
 20
91.6004
 30
0.0
 10
-100.5026
 20
88.2268
 30
0.0
 10
-95.753
 20
89.0902
 30
0.0
 10
-94.833
 20
93.048
 30
0.0
 10
-94.833
 20
93.048
 30
0.0
 10
-93.8518
 20
97.3442
 30
0.0
 10
-97.5261
 20
99.7747
 30
0.0
 10
-101.3595
 20
98.074
 30
0.0
 10
-101.3595
 20
98.074
 30
0.0
 10
-101.2421
 20
104.2927
 30
0.0
 10
-92.2807
 20
104.7839
 30
0.0
 10
-90.4212
 20
97.6589
 30
0.0
 10
-90.4212
 20
97.6589
 30
0.0
 10
-88.6614
 20
89.6543
 30
0.0
 10
-90.5036
 20
83.3759
 30
0.0
 10
-94.5015
 20
75.986
 30
0.0
  0
SPLINE
  5
85
330
1F
100
AcDbEntity
  8
layer 1
 62
     7
370
    25
100
AcDbSpline
210
0.0
220
0.0
230
1.0
 70
    11
 71
     3
 72
    24
 73
    20
 74
     0
 42
0.0000000001
 43
0.0000000001
 12
1.0
 22
0.0
 32
0.0
 13
1.0
 23
0.0
 33
0.0
 40
0.0
 40
0.0
 40
0.0
 40
0.0
 40
0.1666666666666667
 40
0.1666666666666667
 40
0.1666666666666667
 40
0.1666666666666667
 40
0.3333333333333333
 40
0.3333333333333333
 40
0.3333333333333333
 40
0.3333333333333333
 40
0.5
 40
0.5
 40
0.5
 40
0.5
 40
0.6666666666666666
 40
0.6666666666666666
 40
0.6666666666666666
 40
0.6666666666666666
 40
1.0
 40
1.0
 40
1.0
 40
1.0
 10
-100.9121
 20
-29.6331
 30
0.0
 10
-97.4636
 20
-29.5473
 30
0.0
 10
-95.3949
 20
-27.8422
 30
0.0
 10
-95.1198
 20
-24.0425
 30
0.0
 10
-95.1198
 20
-24.0425
 30
0.0
 10
-105.2436
 20
-26.3943
 30
0.0
 10
-105.3457
 20
-13.7842
 30
0.0
 10
-97.1932
 20
-13.7478
 30
0.0
 10
-97.1932
 20
-13.7478
 30
0.0
 10
-100.2533
 20
-11.9626
 30
0.0
 10
-102.436
 20
-9.7308
 30
0.0
 10
-104.4138
 20
-6.866
 30
0.0
 10
-104.4138
 20
-6.866
 30
0.0
 10
-107.4833
 20
-10.074
 30
0.0
 10
-109.5944
 20
-15.0538
 30
0.0
 10
-110.1779
 20
-18.6143
 30
0.0
 10
-110.1779
 20
-18.6143
 30
0.0
 10
-110.918
 20
-25.3941
 30
0.0
 10
-106.1835
 20
-29.611
 30
0.0
 10
-100.9121
 20
-29.6331
 30
0.0
  0
SPLINE
  5
86
330
1F
100
AcDbEntity
  8
layer 1
 62
     7
370
    25
100
AcDbSpline
210
0.0
220
0.0
230
1.0
 70
    11
 71
     3
 72
    16
 73
    12
 74
     0
 42
0.0000000001
 43
0.0000000001
 12
1.0
 22
0.0
 32
0.0
 13
1.0
 23
0.0
 33
0.0
 40
0.0
 40
0.0
 40
0.0
 40
0.0
 40
0.25
 40
0.25
 40
0.25
 40
0.25
 40
0.5
 40
0.5
 40
0.5
 40
0.5
 40
1.0
 40
1.0
 40
1.0
 40
1.0
 10
-109.2907
 20
-107.9606
 30
0.0
 10
-109.2907
 20
-107.9606
 30
0.0
 10
-90.7478
 20
-107.9606
 30
0.0
 10
-90.7478
 20
-107.9606
 30
0.0
 10
-90.7478
 20
-107.9606
 30
0.0
 10
-104.1518
 20
-103.9888
 30
0.0
 10
-107.621
 20
-97.333
 30
0.0
 10
-108.5599
 20
-81.7647
 30
0.0
 10
-108.5599
 20
-81.7647
 30
0.0
 10
-110.2055
 20
-88.5619
 30
0.0
 10
-110.5675
 20
-99.8797
 30
0.0
 10
-109.2907
 20
-107.9606
 30
0.0
  0
SPLINE
  5
87
330
1F
100
AcDbEntity
  8
layer 1
 62
     7
370
    25
100
AcDbSpline
210
0.0
220
0.0
230
1.0
 70
    11
 71
     3
 72
    16
 73
    12
 74
     0
 42
0.0000000001
 43
0.0000000001
 12
1.0
 22
0.0
 32
0.0
 13
1.0
 23
0.0
 33
0.0
 40
0.0
 40
0.0
 40
0.0
 40
0.0
 40
0.25
 40
0.25
 40
0.25
 40
0.25
 40
0.5
 40
0.5
 40
0.5
 40
0.5
 40
1.0
 40
1.0
 40
1.0
 40
1.0
 10
-100.6427
 20
-95.7081
 30
0.0
 10
-98.3262
 20
-93.5553
 30
0.0
 10
-97.5368
 20
-92.7026
 30
0.0
 10
-94.5572
 20
-89.9584
 30
0.0
 10
-94.5572
 20
-89.9584
 30
0.0
 10
-98.024
 20
-90.8721
 30
0.0
 10
-101.6202
 20
-89.7822
 30
0.0
 10
-103.7162
 20
-86.5535
 30
0.0
 10
-103.7162
 20
-86.5535
 30
0.0
 10
-103.8862
 20
-88.9835
 30
0.0
 10
-102.6452
 20
-94.474
 30
0.0
 10
-100.6427
 20
-95.7081
 30
0.0
  0
SPLINE
  5
88
330
1F
100
AcDbEntity
  8
layer 1
 62
     7
370
    25
100
AcDbSpline
210
0.0
220
0.0
230
1.0
 70
    11
 71
     3
 72
    16
 73
    12
 74
     0
 42
0.0000000001
 43
0.0000000001
 12
1.0
 22
0.0
 32
0.0
 13
1.0
 23
0.0
 33
0.0
 40
0.0
 40
0.0
 40
0.0
 40
0.0
 40
0.25
 40
0.25
 40
0.25
 40
0.25
 40
0.5
 40
0.5
 40
0.5
 40
0.5
 40
1.0
 40
1.0
 40
1.0
 40
1.0
 10
-100.6092
 20
-57.7007
 30
0.0
 10
-96.5101
 20
-53.2558
 30
0.0
 10
-91.7317
 20
-50.3631
 30
0.0
 10
-87.2763
 20
-49.4503
 30
0.0
 10
-87.2763
 20
-49.4503
 30
0.0
 10
-90.25
 20
-47.8479
 30
0.0
 10
-91.8523
 20
-44.0964
 30
0.0
 10
-91.9713
 20
-40.5411
 30
0.0
 10
-91.9713
 20
-40.5411
 30
0.0
 10
-95.9529
 20
-45.6591
 30
0.0
 10
-98.8335
 20
-51.9361
 30
0.0
 10
-100.6092
 20
-57.7007
 30
0.0
  0
SPLINE
  5
89
330
1F
100
AcDbEntity
  8
layer 1
 62
     7
370
    25
100
AcDbSpline
210
0.0
220
0.0
230
1.0
 70
    11
 71
     3
 72
    36
 73
    32
 74
     0
 42
0.0000000001
 43
0.0000000001
 12
1.0
 22
0.0
 32
0.0
 13
1.0
 23
0.0
 33
0.0
 40
0.0
 40
0.0
 40
0.0
 40
0.0
 40
0.1111111111111111
 40
0.1111111111111111
 40
0.1111111111111111
 40
0.1111111111111111
 40
0.2222222222222222
 40
0.2222222222222222
 40
0.2222222222222222
 40
0.2222222222222222
 40
0.3333333333333333
 40
0.3333333333333333
 40
0.3333333333333333
 40
0.3333333333333333
 40
0.4444444444444444
 40
0.4444444444444444
 40
0.4444444444444444
 40
0.4444444444444444
 40
0.5555555555555556
 40
0.5555555555555556
 40
0.5555555555555556
 40
0.5555555555555556
 40
0.6666666666666666
 40
0.6666666666666666
 40
0.6666666666666666
 40
0.6666666666666666
 40
0.7777777777777778
 40
0.7777777777777778
 40
0.7777777777777778
 40
0.7777777777777778
 40
1.0
 40
1.0
 40
1.0
 40
1.0
 10
-88.5232
 20
-12.1344
 30
0.0
 10
-83.2761
 20
-13.1254
 30
0.0
 10
-78.981
 20
-11.3418
 30
0.0
 10
-77.6255
 20
-6.4058
 30
0.0
 10
-77.6255
 20
-6.4058
 30
0.0
 10
-77.1978
 20
-3.9484
 30
0.0
 10
-76.9222
 20
0.5564
 30
0.0
 10
-80.0841
 20
0.9969
 30
0.0
 10
-80.0841
 20
0.9969
 30
0.0
 10
-78.9701
 20
-3.0611
 30
0.0
 10
-81.631
 20
-6.2879
 30
0.0
 10
-85.6792
 20
-5.1145
 30
0.0
 10
-85.6792
 20
-5.1145
 30
0.0
 10
-89.1681
 20
-4.0119
 30
0.0
 10
-89.509
 20
1.7647
 30
0.0
 10
-86.6925
 20
3.6077
 30
0.0
 10
-86.6925
 20
3.6077
 30
0.0
 10
-86.3847
 20
3.8631
 30
0.0
 10
-86.4431
 20
4.1619
 30
0.0
 10
-86.7811
 20
4.0614
 30
0.0
 10
-86.7811
 20
4.0614
 30
0.0
 10
-92.1136
 20
3.1127
 30
0.0
 10
-98.1245
 20
-0.2834
 30
0.0
 10
-101.2315
 20
-3.4546
 30
0.0
 10
-101.2315
 20
-3.4546
 30
0.0
 10
-96.5265
 20
-7.9434
 30
0.0
 10
-94.0222
 20
-10.876
 30
0.0
 10
-88.5231
 20
-12.1344
 30
0.0
 10
-88.5231
 20
-12.1344
 30
0.0
 10
-88.5231
 20
-12.1344
 30
0.0
 10
-88.5232
 20
-12.1344
 30
0.0
 10
-88.5232
 20
-12.1344
 30
0.0
  0
SPLINE
  5
8A
330
1F
100
AcDbEntity
  8
layer 1
 62
     7
370
    25
100
AcDbSpline
210
0.0
220
0.0
230
1.0
 70
    11
 71
     3
 72
    16
 73
    12
 74
     0
 42
0.0000000001
 43
0.0000000001
 12
1.0
 22
0.0
 32
0.0
 13
1.0
 23
0.0
 33
0.0
 40
0.0
 40
0.0
 40
0.0
 40
0.0
 40
0.25
 40
0.25
 40
0.25
 40
0.25
 40
0.5
 40
0.5
 40
0.5
 40
0.5
 40
1.0
 40
1.0
 40
1.0
 40
1.0
 10
-95.9599
 20
-100.4054
 30
0.0
 10
-92.6939
 20
-102.6063
 30
0.0
 10
-89.1976
 20
-103.4518
 30
0.0
 10
-85.8793
 20
-103.6981
 30
0.0
 10
-85.8793
 20
-103.6981
 30
0.0
 10
-88.6787
 20
-101.9765
 30
0.0
 10
-90.3645
 20
-98.7077
 30
0.0
 10
-88.7943
 20
-92.9756
 30
0.0
 10
-88.7943
 20
-92.9756
 30
0.0
 10
-91.3632
 20
-95.5505
 30
0.0
 10
-93.0175
 20
-97.315
 30
0.0
 10
-95.9599
 20
-100.4054
 30
0.0
  0
SPLINE
  5
8B
330
1F
100
AcDbEntity
  8
layer 1
 62
     7
370
    25
100
AcDbSpline
210
0.0
220
0.0
230
1.0
 70
    11
 71
     3
 72
    16
 73
    12
 74
     0
 42
0.0000000001
 43
0.0000000001
 12
1.0
 22
0.0
 32
0.0
 13
1.0
 23
0.0
 33
0.0
 40
0.0
 40
0.0
 40
0.0
 40
0.0
 40
0.25
 40
0.25
 40
0.25
 40
0.25
 40
0.5
 40
0.5
 40
0.5
 40
0.5
 40
1.0
 40
1.0
 40
1.0
 40
1.0
 10
-89.4481
 20
-27.1145
 30
0.0
 10
-86.7138
 20
-23.4264
 30
0.0
 10
-83.0212
 20
-19.2353
 30
0.0
 10
-80.0963
 20
-15.8935
 30
0.0
 10
-80.0963
 20
-15.8935
 30
0.0
 10
-83.3446
 20
-17.6784
 30
0.0
 10
-87.5636
 20
-17.6983
 30
0.0
 10
-90.6534
 20
-16.6199
 30
0.0
 10
-90.6534
 20
-16.6199
 30
0.0
 10
-88.7362
 20
-19.4142
 30
0.0
 10
-88.1526
 20
-23.7404
 30
0.0
 10
-89.4481
 20
-27.1145
 30
0.0
  0
SPLINE
  5
8C
330
1F
100
AcDbEntity
  8
layer 1
 62
     7
370
    25
100
AcDbSpline
210
0.0
220
0.0
230
1.0
 70
    11
 71
     3
 72
    20
 73
    16
 74
     0
 42
0.0000000001
 43
0.0000000001
 12
1.0
 22
0.0
 32
0.0
 13
1.0
 23
0.0
 33
0.0
 40
0.0
 40
0.0
 40
0.0
 40
0.0
 40
0.2
 40
0.2
 40
0.2
 40
0.2
 40
0.4
 40
0.4
 40
0.4
 40
0.4
 40
0.6
 40
0.6
 40
0.6
 40
0.6
 40
1.0
 40
1.0
 40
1.0
 40
1.0
 10
-87.4592
 20
-61.7744
 30
0.0
 10
-85.4441
 20
-57.8135
 30
0.0
 10
-78.1172
 20
-58.9511
 30
0.0
 10
-77.9072
 20
-64.3018
 30
0.0
 10
-77.9072
 20
-64.3018
 30
0.0
 10
-72.2668
 20
-56.4086
 30
0.0
 10
-82.7786
 20
-50.5464
 30
0.0
 10
-90.527
 20
-56.4166
 30
0.0
 10
-90.527
 20
-56.4166
 30
0.0
 10
-89.2379
 20
-57.7261
 30
0.0
 10
-88.1301
 20
-60.1402
 30
0.0
 10
-87.4592
 20
-61.7744
 30
0.0
 10
-87.4592
 20
-61.7744
 30
0.0
 10
-87.4592
 20
-61.7744
 30
0.0
 10
-87.4592
 20
-61.7744
 30
0.0
 10
-87.4592
 20
-61.7744
 30
0.0
  0
SPLINE
  5
8D
330
1F
100
AcDbEntity
  8
layer 1
 62
     7
370
    25
100
AcDbSpline
210
0.0
220
0.0
230
1.0
 70
    11
 71
     3
 72
    20
 73
    16
 74
     0
 42
0.0000000001
 43
0.0000000001
 12
1.0
 22
0.0
 32
0.0
 13
1.0
 23
0.0
 33
0.0
 40
0.0
 40
0.0
 40
0.0
 40
0.0
 40
0.2
 40
0.2
 40
0.2
 40
0.2
 40
0.4
 40
0.4
 40
0.4
 40
0.4
 40
0.6
 40
0.6
 40
0.6
 40
0.6
 40
1.0
 40
1.0
 40
1.0
 40
1.0
 10
-85.7512
 20
-80.3826
 30
0.0
 10
-83.5601
 20
-77.5092
 30
0.0
 10
-80.6058
 20
-73.8387
 30
0.0
 10
-78.268
 20
-70.9078
 30
0.0
 10
-78.268
 20
-70.9078
 30
0.0
 10
-81.2534
 20
-71.5331
 30
0.0
 10
-83.1239
 20
-70.7678
 30
0.0
 10
-85.3149
 20
-69.1749
 30
0.0
 10
-85.3149
 20
-69.1749
 30
0.0
 10
-84.577
 20
-73.7452
 30
0.0
 10
-85.1152
 20
-76.9301
 30
0.0
 10
-85.7511
 20
-80.3826
 30
0.0
 10
-85.7511
 20
-80.3826
 30
0.0
 10
-85.7511
 20
-80.3826
 30
0.0
 10
-85.7512
 20
-80.3826
 30
0.0
 10
-85.7512
 20
-80.3826
 30
0.0
  0
SPLINE
  5
8E
330
1F
100
AcDbEntity
  8
layer 1
 62
     7
370
    25
100
AcDbSpline
210
0.0
220
0.0
230
1.0
 70
    11
 71
     3
 72
    20
 73
    16
 74
     0
 42
0.0000000001
 43
0.0000000001
 12
1.0
 22
0.0
 32
0.0
 13
1.0
 23
0.0
 33
0.0
 40
0.0
 40
0.0
 40
0.0
 40
0.0
 40
0.2
 40
0.2
 40
0.2
 40
0.2
 40
0.4
 40
0.4
 40
0.4
 40
0.4
 40
0.6
 40
0.6
 40
0.6
 40
0.6
 40
1.0
 40
1.0
 40
1.0
 40
1.0
 10
-71.9771
 20
-43.4856
 30
0.0
 10
-73.4311
 20
-42.9143
 30
0.0
 10
-74.87
 20
-39.8896
 30
0.0
 10
-74.99
 20
-37.8373
 30
0.0
 10
-74.99
 20
-37.8373
 30
0.0
 10
-76.4224
 20
-41.3211
 30
0.0
 10
-83.3902
 20
-42.0648
 30
0.0
 10
-84.5239
 20
-35.523
 30
0.0
 10
-84.5239
 20
-35.523
 30
0.0
 10
-89.4646
 20
-45.1537
 30
0.0
 10
-78.7775
 20
-49.2657
 30
0.0
 10
-71.9771
 20
-43.4856
 30
0.0
 10
-71.9771
 20
-43.4856
 30
0.0
 10
-71.9771
 20
-43.4856
 30
0.0
 10
-71.9771
 20
-43.4856
 30
0.0
 10
-71.9771
 20
-43.4856
 30
0.0
  0
SPLINE
  5
8F
330
1F
100
AcDbEntity
  8
layer 1
 62
     7
370
    25
100
AcDbSpline
210
0.0
220
0.0
230
1.0
 70
    11
 71
     3
 72
    20
 73
    16
 74
     0
 42
0.0000000001
 43
0.0000000001
 12
1.0
 22
0.0
 32
0.0
 13
1.0
 23
0.0
 33
0.0
 40
0.0
 40
0.0
 40
0.0
 40
0.0
 40
0.2
 40
0.2
 40
0.2
 40
0.2
 40
0.4
 40
0.4
 40
0.4
 40
0.4
 40
0.6
 40
0.6
 40
0.6
 40
0.6
 40
1.0
 40
1.0
 40
1.0
 40
1.0
 10
-77.1287
 20
-30.6405
 30
0.0
 10
-77.4366
 20
-27.4612
 30
0.0
 10
-77.5836
 20
-23.2184
 30
0.0
 10
-76.7309
 20
-20.0908
 30
0.0
 10
-76.7309
 20
-20.0908
 30
0.0
 10
-78.6485
 20
-22.3793
 30
0.0
 10
-81.5869
 20
-25.8
 30
0.0
 10
-83.9727
 20
-28.8301
 30
0.0
 10
-83.9727
 20
-28.8301
 30
0.0
 10
-80.5108
 20
-28.0461
 30
0.0
 10
-77.9594
 20
-29.0229
 30
0.0
 10
-77.1287
 20
-30.6405
 30
0.0
 10
-77.1287
 20
-30.6405
 30
0.0
 10
-77.1287
 20
-30.6405
 30
0.0
 10
-77.1287
 20
-30.6405
 30
0.0
 10
-77.1287
 20
-30.6405
 30
0.0
  0
SPLINE
  5
90
330
1F
100
AcDbEntity
  8
layer 1
 62
     7
370
    25
100
AcDbSpline
210
0.0
220
0.0
230
1.0
 70
    11
 71
     3
 72
    20
 73
    16
 74
     0
 42
0.0000000001
 43
0.0000000001
 12
1.0
 22
0.0
 32
0.0
 13
1.0
 23
0.0
 33
0.0
 40
0.0
 40
0.0
 40
0.0
 40
0.0
 40
0.2
 40
0.2
 40
0.2
 40
0.2
 40
0.4
 40
0.4
 40
0.4
 40
0.4
 40
0.6
 40
0.6
 40
0.6
 40
0.6
 40
1.0
 40
1.0
 40
1.0
 40
1.0
 10
-71.6924
 20
-83.3454
 30
0.0
 10
-73.5868
 20
-81.9396
 30
0.0
 10
-74.0703
 20
-78.055
 30
0.0
 10
-73.257
 20
-74.4318
 30
0.0
 10
-73.257
 20
-74.4318
 30
0.0
 10
-75.7514
 20
-77.4859
 30
0.0
 10
-77.6863
 20
-80.4448
 30
0.0
 10
-80.1984
 20
-83.1984
 30
0.0
 10
-80.1984
 20
-83.1984
 30
0.0
 10
-76.9529
 20
-82.4005
 30
0.0
 10
-74.2996
 20
-82.4857
 30
0.0
 10
-71.6923
 20
-83.3455
 30
0.0
 10
-71.6923
 20
-83.3455
 30
0.0
 10
-71.6923
 20
-83.3455
 30
0.0
 10
-71.6924
 20
-83.3454
 30
0.0
 10
-71.6924
 20
-83.3454
 30
0.0
  0
SPLINE
  5
91
330
1F
100
AcDbEntity
  8
layer 1
 62
     7
370
    25
100
AcDbSpline
210
0.0
220
0.0
230
1.0
 70
    11
 71
     3
 72
    16
 73
    12
 74
     0
 42
0.0000000001
 43
0.0000000001
 12
1.0
 22
0.0
 32
0.0
 13
1.0
 23
0.0
 33
0.0
 40
0.0
 40
0.0
 40
0.0
 40
0.0
 40
0.25
 40
0.25
 40
0.25
 40
0.25
 40
0.5
 40
0.5
 40
0.5
 40
0.5
 40
1.0
 40
1.0
 40
1.0
 40
1.0
 10
-74.3029
 20
-9.7362
 30
0.0
 10
-71.3013
 20
-6.7659
 30
0.0
 10
-67.628
 20
-3.1669
 30
0.0
 10
-64.8388
 20
-0.6272
 30
0.0
 10
-64.8388
 20
-0.6272
 30
0.0
 10
-67.3556
 20
1.6468
 30
0.0
 10
-71.9142
 20
3.2122
 30
0.0
 10
-76.0456
 20
3.8219
 30
0.0
 10
-76.0456
 20
3.8219
 30
0.0
 10
-71.6616
 20
1.096
 30
0.0
 10
-71.9398
 20
-6.3884
 30
0.0
 10
-74.3029
 20
-9.7362
 30
0.0
  0
SPLINE
  5
92
330
1F
100
AcDbEntity
  8
layer 1
 62
     7
370
    25
100
AcDbSpline
210
0.0
220
0.0
230
1.0
 70
    11
 71
     3
 72
    16
 73
    12
 74
     0
 42
0.0000000001
 43
0.0000000001
 12
1.0
 22
0.0
 32
0.0
 13
1.0
 23
0.0
 33
0.0
 40
0.0
 40
0.0
 40
0.0
 40
0.0
 40
0.25
 40
0.25
 40
0.25
 40
0.25
 40
0.5
 40
0.5
 40
0.5
 40
0.5
 40
1.0
 40
1.0
 40
1.0
 40
1.0
 10
-70.2351
 20
-58.9671
 30
0.0
 10
-67.635
 20
-53.1457
 30
0.0
 10
-65.4474
 20
-48.6584
 30
0.0
 10
-61.8156
 20
-42.3709
 30
0.0
 10
-61.8156
 20
-42.3709
 30
0.0
 10
-66.5929
 20
-46.5053
 30
0.0
 10
-71.1189
 20
-49.5606
 30
0.0
 10
-74.8796
 20
-50.2855
 30
0.0
 10
-74.8796
 20
-50.2855
 30
0.0
 10
-72.244
 20
-51.1807
 30
0.0
 10
-69.7303
 20
-54.7852
 30
0.0
 10
-70.2351
 20
-58.9671
 30
0.0
  0
SPLINE
  5
93
330
1F
100
AcDbEntity
  8
layer 1
 62
     7
370
    25
100
AcDbSpline
210
0.0
220
0.0
230
1.0
 70
    11
 71
     3
 72
    20
 73
    16
 74
     0
 42
0.0000000001
 43
0.0000000001
 12
1.0
 22
0.0
 32
0.0
 13
1.0
 23
0.0
 33
0.0
 40
0.0
 40
0.0
 40
0.0
 40
0.0
 40
0.2
 40
0.2
 40
0.2
 40
0.2
 40
0.4
 40
0.4
 40
0.4
 40
0.4
 40
0.6
 40
0.6
 40
0.6
 40
0.6
 40
1.0
 40
1.0
 40
1.0
 40
1.0
 10
-54.1424
 20
-18.2994
 30
0.0
 10
-50.4819
 20
-0.4672
 30
0.0
 10
-49.9236
 20
18.7091
 30
0.0
 10
-54.1424
 20
35.5892
 30
0.0
 10
-54.1424
 20
35.5892
 30
0.0
 10
-54.454
 20
23.5779
 30
0.0
 10
-56.9262
 20
11.6667
 30
0.0
 10
-73.2096
 20
8.6449
 30
0.0
 10
-73.2096
 20
8.6449
 30
0.0
 10
-56.9262
 20
5.6231
 30
0.0
 10
-54.454
 20
-6.2881
 30
0.0
 10
-54.1424
 20
-18.2995
 30
0.0
 10
-54.1424
 20
-18.2995
 30
0.0
 10
-54.1424
 20
-18.2995
 30
0.0
 10
-54.1424
 20
-18.2994
 30
0.0
 10
-54.1424
 20
-18.2994
 30
0.0
  0
SPLINE
  5
94
330
1F
100
AcDbEntity
  8
layer 1
 62
     7
370
    25
100
AcDbSpline
210
0.0
220
0.0
230
1.0
 70
    11
 71
     3
 72
    24
 73
    20
 74
     0
 42
0.0000000001
 43
0.0000000001
 12
1.0
 22
0.0
 32
0.0
 13
1.0
 23
0.0
 33
0.0
 40
0.0
 40
0.0
 40
0.0
 40
0.0
 40
0.1666666666666667
 40
0.1666666666666667
 40
0.1666666666666667
 40
0.1666666666666667
 40
0.3333333333333333
 40
0.3333333333333333
 40
0.3333333333333333
 40
0.3333333333333333
 40
0.5
 40
0.5
 40
0.5
 40
0.5
 40
0.6666666666666666
 40
0.6666666666666666
 40
0.6666666666666666
 40
0.6666666666666666
 40
1.0
 40
1.0
 40
1.0
 40
1.0
 10
-67.769
 20
-40.7148
 30
0.0
 10
-63.1354
 20
-37.3928
 30
0.0
 10
-59.9807
 20
-29.689
 30
0.0
 10
-59.0533
 20
-25.1004
 30
0.0
 10
-59.0533
 20
-25.1004
 30
0.0
 10
-61.7679
 20
-28.474
 30
0.0
 10
-66.5175
 20
-27.6106
 30
0.0
 10
-67.4374
 20
-23.6528
 30
0.0
 10
-67.4374
 20
-23.6528
 30
0.0
 10
-68.4186
 20
-19.3566
 30
0.0
 10
-64.7444
 20
-16.9261
 30
0.0
 10
-60.9109
 20
-18.6268
 30
0.0
 10
-60.9109
 20
-18.6268
 30
0.0
 10
-60.0664
 20
-11.6552
 30
0.0
 10
-69.9897
 20
-11.9169
 30
0.0
 10
-71.8492
 20
-19.0419
 30
0.0
 10
-71.8492
 20
-19.0419
 30
0.0
 10
-73.609
 20
-27.0465
 30
0.0
 10
-71.7669
 20
-33.3249
 30
0.0
 10
-67.769
 20
-40.7148
 30
0.0
  0
SPLINE
  5
95
330
1F
100
AcDbEntity
  8
layer 1
 62
     7
370
    25
100
AcDbSpline
210
0.0
220
0.0
230
1.0
 70
    11
 71
     3
 72
    16
 73
    12
 74
     0
 42
0.0000000001
 43
0.0000000001
 12
1.0
 22
0.0
 32
0.0
 13
1.0
 23
0.0
 33
0.0
 40
0.0
 40
0.0
 40
0.0
 40
0.0
 40
0.25
 40
0.25
 40
0.25
 40
0.25
 40
0.5
 40
0.5
 40
0.5
 40
0.5
 40
1.0
 40
1.0
 40
1.0
 40
1.0
 10
-46.9756
 20
-107.9606
 30
0.0
 10
-46.9756
 20
-107.9606
 30
0.0
 10
-46.9756
 20
-85.1801
 30
0.0
 10
-46.9756
 20
-85.1801
 30
0.0
 10
-46.9756
 20
-85.1801
 30
0.0
 10
-49.6109
 20
-95.6488
 30
0.0
 10
-57.682
 20
-105.165
 30
0.0
 10
-69.1758
 20
-107.9606
 30
0.0
 10
-69.1758
 20
-107.9606
 30
0.0
 10
-69.1758
 20
-107.9606
 30
0.0
 10
-46.9756
 20
-107.9606
 30
0.0
 10
-46.9756
 20
-107.9606
 30
0.0
  0
SPLINE
  5
96
330
1F
100
AcDbEntity
  8
layer 1
 62
     7
370
    25
100
AcDbSpline
210
0.0
220
0.0
230
1.0
 70
    11
 71
     3
 72
    16
 73
    12
 74
     0
 42
0.0000000001
 43
0.0000000001
 12
1.0
 22
0.0
 32
0.0
 13
1.0
 23
0.0
 33
0.0
 40
0.0
 40
0.0
 40
0.0
 40
0.0
 40
0.25
 40
0.25
 40
0.25
 40
0.25
 40
0.5
 40
0.5
 40
0.5
 40
0.5
 40
1.0
 40
1.0
 40
1.0
 40
1.0
 10
-58.8248
 20
-13.1363
 30
0.0
 10
-58.9442
 20
-10.4967
 30
0.0
 10
-60.0783
 20
-7.4133
 30
0.0
 10
-61.7174
 20
-4.3515
 30
0.0
 10
-61.7174
 20
-4.3515
 30
0.0
 10
-61.8928
 20
-4.41
 30
0.0
 10
-65.1751
 20
-7.7507
 30
0.0
 10
-67.291
 20
-9.8416
 30
0.0
 10
-67.291
 20
-9.8416
 30
0.0
 10
-63.0373
 20
-10.2699
 30
0.0
 10
-61.4714
 20
-10.9522
 30
0.0
 10
-58.8248
 20
-13.1363
 30
0.0
  0
SPLINE
  5
97
330
1F
100
AcDbEntity
  8
layer 1
 62
     7
370
    25
100
AcDbSpline
210
0.0
220
0.0
230
1.0
 70
    11
 71
     3
 72
    16
 73
    12
 74
     0
 42
0.0000000001
 43
0.0000000001
 12
1.0
 22
0.0
 32
0.0
 13
1.0
 23
0.0
 33
0.0
 40
0.0
 40
0.0
 40
0.0
 40
0.0
 40
0.25
 40
0.25
 40
0.25
 40
0.25
 40
0.5
 40
0.5
 40
0.5
 40
0.5
 40
1.0
 40
1.0
 40
1.0
 40
1.0
 10
-66.9042
 20
-64.9259
 30
0.0
 10
-59.5728
 20
-61.2205
 30
0.0
 10
-48.2827
 20
-66.6958
 30
0.0
 10
-46.9756
 20
-72.7614
 30
0.0
 10
-46.9756
 20
-72.7614
 30
0.0
 10
-46.9756
 20
-72.7614
 30
0.0
 10
-46.9756
 20
-11.1115
 30
0.0
 10
-46.9756
 20
-11.1115
 30
0.0
 10
-46.9756
 20
-11.1115
 30
0.0
 10
-50.8779
 20
-31.8526
 30
0.0
 10
-56.6876
 20
-48.0515
 30
0.0
 10
-66.9042
 20
-64.9259
 30
0.0
  0
SPLINE
  5
98
330
1F
100
AcDbEntity
  8
layer 1
 62
     7
370
    25
100
AcDbSpline
210
0.0
220
0.0
230
1.0
 70
    11
 71
     3
 72
    36
 73
    32
 74
     0
 42
0.0000000001
 43
0.0000000001
 12
1.0
 22
0.0
 32
0.0
 13
1.0
 23
0.0
 33
0.0
 40
0.0
 40
0.0
 40
0.0
 40
0.0
 40
0.1111111111111111
 40
0.1111111111111111
 40
0.1111111111111111
 40
0.1111111111111111
 40
0.2222222222222222
 40
0.2222222222222222
 40
0.2222222222222222
 40
0.2222222222222222
 40
0.3333333333333333
 40
0.3333333333333333
 40
0.3333333333333333
 40
0.3333333333333333
 40
0.4444444444444444
 40
0.4444444444444444
 40
0.4444444444444444
 40
0.4444444444444444
 40
0.5555555555555556
 40
0.5555555555555556
 40
0.5555555555555556
 40
0.5555555555555556
 40
0.6666666666666666
 40
0.6666666666666666
 40
0.6666666666666666
 40
0.6666666666666666
 40
0.7777777777777778
 40
0.7777777777777778
 40
0.7777777777777778
 40
0.7777777777777778
 40
1.0
 40
1.0
 40
1.0
 40
1.0
 10
-73.7045
 20
-87.7176
 30
0.0
 10
-78.9516
 20
-86.7267
 30
0.0
 10
-83.2467
 20
-88.5102
 30
0.0
 10
-84.6022
 20
-93.4462
 30
0.0
 10
-84.6022
 20
-93.4462
 30
0.0
 10
-85.0299
 20
-95.9037
 30
0.0
 10
-85.3055
 20
-100.4085
 30
0.0
 10
-82.1437
 20
-100.8489
 30
0.0
 10
-82.1437
 20
-100.8489
 30
0.0
 10
-83.2576
 20
-96.791
 30
0.0
 10
-80.5967
 20
-93.5641
 30
0.0
 10
-76.5485
 20
-94.7375
 30
0.0
 10
-76.5485
 20
-94.7375
 30
0.0
 10
-73.0596
 20
-95.8402
 30
0.0
 10
-72.7187
 20
-101.6168
 30
0.0
 10
-75.5352
 20
-103.4597
 30
0.0
 10
-75.5352
 20
-103.4597
 30
0.0
 10
-75.843
 20
-103.7152
 30
0.0
 10
-75.7846
 20
-104.0139
 30
0.0
 10
-75.4466
 20
-103.9135
 30
0.0
 10
-75.4466
 20
-103.9135
 30
0.0
 10
-70.1141
 20
-102.9647
 30
0.0
 10
-64.1032
 20
-99.5686
 30
0.0
 10
-60.9962
 20
-96.3975
 30
0.0
 10
-60.9962
 20
-96.3975
 30
0.0
 10
-65.7012
 20
-91.9087
 30
0.0
 10
-68.2055
 20
-88.976
 30
0.0
 10
-73.7046
 20
-87.7176
 30
0.0
 10
-73.7046
 20
-87.7176
 30
0.0
 10
-73.7046
 20
-87.7176
 30
0.0
 10
-73.7045
 20
-87.7176
 30
0.0
 10
-73.7045
 20
-87.7176
 30
0.0
  0
SPLINE
  5
99
330
1F
100
AcDbEntity
  8
layer 1
 62
     7
370
    25
100
AcDbSpline
210
0.0
220
0.0
230
1.0
 70
    11
 71
     3
 72
    24
 73
    20
 74
     0
 42
0.0000000001
 43
0.0000000001
 12
1.0
 22
0.0
 32
0.0
 13
1.0
 23
0.0
 33
0.0
 40
0.0
 40
0.0
 40
0.0
 40
0.0
 40
0.1666666666666667
 40
0.1666666666666667
 40
0.1666666666666667
 40
0.1666666666666667
 40
0.3333333333333333
 40
0.3333333333333333
 40
0.3333333333333333
 40
0.3333333333333333
 40
0.5
 40
0.5
 40
0.5
 40
0.5
 40
0.6666666666666666
 40
0.6666666666666666
 40
0.6666666666666666
 40
0.6666666666666666
 40
1.0
 40
1.0
 40
1.0
 40
1.0
 10
-61.6649
 20
-69.9826
 30
0.0
 10
-65.1135
 20
-70.0683
 30
0.0
 10
-67.1821
 20
-71.7734
 30
0.0
 10
-67.4572
 20
-75.5732
 30
0.0
 10
-67.4572
 20
-75.5732
 30
0.0
 10
-57.3334
 20
-73.2214
 30
0.0
 10
-57.2313
 20
-85.8314
 30
0.0
 10
-65.3838
 20
-85.8678
 30
0.0
 10
-65.3838
 20
-85.8678
 30
0.0
 10
-62.3237
 20
-87.653
 30
0.0
 10
-60.141
 20
-89.8849
 30
0.0
 10
-58.1632
 20
-92.7496
 30
0.0
 10
-58.1632
 20
-92.7496
 30
0.0
 10
-55.0937
 20
-89.5416
 30
0.0
 10
-52.9826
 20
-84.5619
 30
0.0
 10
-52.3991
 20
-81.0014
 30
0.0
 10
-52.3991
 20
-81.0014
 30
0.0
 10
-51.6591
 20
-74.2216
 30
0.0
 10
-56.3935
 20
-70.0046
 30
0.0
 10
-61.6649
 20
-69.9826
 30
0.0
  0
SPLINE
  5
9A
330
1F
100
AcDbEntity
  8
layer 1
 62
     7
370
    25
100
AcDbSpline
210
0.0
220
0.0
230
1.0
 70
    11
 71
     3
 72
    24
 73
    20
 74
     0
 42
0.0000000001
 43
0.0000000001
 12
1.0
 22
0.0
 32
0.0
 13
1.0
 23
0.0
 33
0.0
 40
0.0
 40
0.0
 40
0.0
 40
0.0
 40
0.1666666666666667
 40
0.1666666666666667
 40
0.1666666666666667
 40
0.1666666666666667
 40
0.3333333333333333
 40
0.3333333333333333
 40
0.3333333333333333
 40
0.3333333333333333
 40
0.5
 40
0.5
 40
0.5
 40
0.5
 40
0.6666666666666666
 40
0.6666666666666666
 40
0.6666666666666666
 40
0.6666666666666666
 40
1.0
 40
1.0
 40
1.0
 40
1.0
 10
-94.5015
 20
-58.6961
 30
0.0
 10
-99.1351
 20
-62.0182
 30
0.0
 10
-102.2897
 20
-69.7219
 30
0.0
 10
-103.2171
 20
-74.3106
 30
0.0
 10
-103.2171
 20
-74.3106
 30
0.0
 10
-100.5026
 20
-70.937
 30
0.0
 10
-95.753
 20
-71.8004
 30
0.0
 10
-94.833
 20
-75.7582
 30
0.0
 10
-94.833
 20
-75.7582
 30
0.0
 10
-93.8518
 20
-80.0544
 30
0.0
 10
-97.5261
 20
-82.4849
 30
0.0
 10
-101.3595
 20
-80.7842
 30
0.0
 10
-101.3595
 20
-80.7842
 30
0.0
 10
-101.2421
 20
-87.0029
 30
0.0
 10
-92.2807
 20
-87.4941
 30
0.0
 10
-90.4212
 20
-80.3691
 30
0.0
 10
-90.4212
 20
-80.3691
 30
0.0
 10
-88.6614
 20
-72.3645
 30
0.0
 10
-90.5036
 20
-66.0861
 30
0.0
 10
-94.5015
 20
-58.6961
 30
0.0
  0
ENDSEC
  0
SECTION
  2
OBJECTS
  0
DICTIONARY
  5
C
330
0
100
AcDbDictionary
281
     1
  3
ACAD_GROUP
350
D
  3
ACAD_LAYOUT
350
1A
  3
ACAD_MATERIAL
350
3B
  3
ACAD_MLEADERSTYLE
350
BC
  3
ACAD_MLINESTYLE
350
17
  3
ACAD_PLOTSETTINGS
350
19
  3
ACAD_PLOTSTYLENAME
350
E
  3
ACAD_TABLESTYLE
350
BB
  3
ACAD_VISUALSTYLE
350
2A
  0
DICTIONARY
  5
D
102
{ACAD_REACTORS
330
C
102
}
330
C
100
AcDbDictionary
281
     1
  0
DICTIONARY
  5
1A
102
{ACAD_REACTORS
330
C
102
}
330
C
100
AcDbDictionary
281
     1
  3
Layout1
350
1E
  3
Layout2
350
26
  3
Model
350
22
  0
DICTIONARY
  5
3B
102
{ACAD_REACTORS
330
C
102
}
330
C
100
AcDbDictionary
281
     1
  3
ByBlock
350
3D
  3
ByLayer
350
3C
  3
Global
350
3E
  0
DICTIONARY
  5
BC
102
{ACAD_REACTORS
330
C
102
}
330
C
100
AcDbDictionary
281
     1
  0
DICTIONARY
  5
17
102
{ACAD_REACTORS
330
C
102
}
330
C
100
AcDbDictionary
281
     1
  3
Standard
350
18
  0
DICTIONARY
  5
19
102
{ACAD_REACTORS
330
C
102
}
330
C
100
AcDbDictionary
281
     1
  0
ACDBDICTIONARYWDFLT
  5
E
102
{ACAD_REACTORS
330
C
102
}
330
C
100
AcDbDictionary
281
     1
  3
Normal
350
F
100
AcDbDictionaryWithDefault
340
F
  0
DICTIONARY
  5
BB
102
{ACAD_REACTORS
330
C
102
}
330
C
100
AcDbDictionary
281
     1
  0
DICTIONARY
  5
2A
102
{ACAD_REACTORS
330
C
102
}
330
C
100
AcDbDictionary
281
     1
  3
2dWireframe
350
2F
  3
3D Hidden
350
31
  3
3dWireframe
350
30
  3
Basic
350
32
  3
Brighten
350
36
  3
ColorChange
350
3A
  3
Conceptual
350
34
  3
Dim
350
35
  3
Facepattern
350
39
  3
Flat
350
2B
  3
FlatWithEdges
350
2C
  3
Gouraud
350
2D
  3
GouraudWithEdges
350
2E
  3
Linepattern
350
38
  3
Realistic
350
33
  3
Thicken
350
37
  0
LAYOUT
  5
1E
102
{ACAD_REACTORS
330
1A
102
}
330
1A
100
AcDbPlotSettings
  1

  2
none_device
  4

  6

 40
0.0
 41
0.0
 42
0.0
 43
0.0
 44
0.0
 45
0.0
 46
0.0
 47
0.0
 48
0.0
 49
0.0
140
0.0
141
0.0
142
1.0
143
1.0
 70
   688
 72
     0
 73
     0
 74
     5
  7

 75
    16
 76
     0
 77
     2
 78
   300
147
1.0
148
0.0
149
0.0
100
AcDbLayout
  1
Layout1
 70
     1
 71
     1
 10
0.0
 20
0.0
 11
12.0
 21
9.0
 12
0.0
 22
0.0
 32
0.0
 14
1.000000000000000E+20
 24
1.000000000000000E+20
 34
1.000000000000000E+20
 15
-1.000000000000000E+20
 25
-1.000000000000000E+20
 35
-1.000000000000000E+20
146
0.0
 13
0.0
 23
0.0
 33
0.0
 16
1.0
 26
0.0
 36
0.0
 17
0.0
 27
1.0
 37
0.0
 76
     0
330
1B
  0
LAYOUT
  5
26
102
{ACAD_REACTORS
330
1A
102
}
330
1A
100
AcDbPlotSettings
  1

  2
none_device
  4

  6

 40
0.0
 41
0.0
 42
0.0
 43
0.0
 44
0.0
 45
0.0
 46
0.0
 47
0.0
 48
0.0
 49
0.0
140
0.0
141
0.0
142
1.0
143
1.0
 70
   688
 72
     0
 73
     0
 74
     5
  7

 75
    16
 76
     0
 77
     2
 78
   300
147
1.0
148
0.0
149
0.0
100
AcDbLayout
  1
Layout2
 70
     1
 71
     2
 10
0.0
 20
0.0
 11
0.0
 21
0.0
 12
0.0
 22
0.0
 32
0.0
 14
0.0
 24
0.0
 34
0.0
 15
0.0
 25
0.0
 35
0.0
146
0.0
 13
0.0
 23
0.0
 33
0.0
 16
1.0
 26
0.0
 36
0.0
 17
0.0
 27
1.0
 37
0.0
 76
     0
330
23
  0
LAYOUT
  5
22
102
{ACAD_REACTORS
330
1A
102
}
330
1A
100
AcDbPlotSettings
  1

  2
none_device
  4

  6

 40
0.0
 41
0.0
 42
0.0
 43
0.0
 44
0.0
 45
0.0
 46
0.0
 47
0.0
 48
0.0
 49
0.0
140
0.0
141
0.0
142
1.0
143
1.0
 70
  1712
 72
     0
 73
     0
 74
     0
  7

 75
     0
 76
     0
 77
     2
 78
   300
147
1.0
148
0.0
149
0.0
100
AcDbLayout
  1
Model
 70
     1
 71
     0
 10
0.0
 20
0.0
 11
12.0
 21
9.0
 12
0.0
 22
0.0
 32
0.0
 14
-187.4801
 24
-114.6689
 34
0.0
 15
-38.983
 25
131.909
 35
0.0
146
0.0
 13
0.0
 23
0.0
 33
0.0
 16
1.0
 26
0.0
 36
0.0
 17
0.0
 27
1.0
 37
0.0
 76
     0
330
1F
331
29
  0
MATERIAL
  5
3D
102
{ACAD_REACTORS
330
3B
102
}
330
3B
100
AcDbMaterial
  1
ByBlock
 72
     1
 94
      127
  0
MATERIAL
  5
3C
102
{ACAD_REACTORS
330
3B
102
}
330
3B
100
AcDbMaterial
  1
ByLayer
 72
     1
 94
      127
  0
MATERIAL
  5
3E
102
{ACAD_REACTORS
330
3B
102
}
330
3B
100
AcDbMaterial
  1
Global
 72
     1
 94
      127
  0
MLINESTYLE
  5
18
102
{ACAD_REACTORS
330
17
102
}
330
17
100
AcDbMlineStyle
  2
Standard
 70
     0
  3

 62
   256
 51
90.0
 52
90.0
 71
     2
 49
0.5
 62
   256
  6
BYLAYER
 49
-0.5
 62
   256
  6
BYLAYER
  0
ACDBPLACEHOLDER
  5
F
102
{ACAD_REACTORS
330
E
102
}
330
E
  0
VISUALSTYLE
  5
2F
102
{ACAD_REACTORS
330
2A
102
}
102
{ACAD_XDICTIONARY
360
A3
102
}
330
2A
100
AcDbVisualStyle
  2
2dWireframe
 70
     4
 71
     0
 72
     2
 73
     0
 90
        0
 40
-0.6
 41
-30.0
 62
     5
 63
     7
421
 16777215
 74
     1
 91
        4
 64
     7
 65
   257
 75
     1
175
     1
 42
1.0
 92
        0
 66
   257
 43
1.0
 76
     1
 77
     6
 78
     2
 67
     7
 79
     5
170
     0
171
     0
290
     0
174
     0
 93
        1
 44
0.0
173
     0
291
     0
 45
0.0
  0
VISUALSTYLE
  5
31
102
{ACAD_REACTORS
330
2A
102
}
102
{ACAD_XDICTIONARY
360
A7
102
}
330
2A
100
AcDbVisualStyle
  2
3D Hidden
 70
     6
 71
     1
 72
     2
 73
     2
 90
        0
 40
-0.6
 41
-30.0
 62
     5
 63
     7
421
 16777215
 74
     2
 91
        2
 64
     7
 65
   257
 75
     2
175
     1
 42
40.0
 92
        0
 66
   257
 43
1.0
 76
     1
 77
     6
 78
     2
 67
     7
 79
     3
170
     0
171
     0
290
     0
174
     0
 93
        1
 44
0.0
173
     0
291
     0
 45
0.0
  0
VISUALSTYLE
  5
30
102
{ACAD_REACTORS
330
2A
102
}
102
{ACAD_XDICTIONARY
360
A5
102
}
330
2A
100
AcDbVisualStyle
  2
3dWireframe
 70
     5
 71
     0
 72
     2
 73
     0
 90
        0
 40
-0.6
 41
-30.0
 62
     5
 63
     7
421
 16777215
 74
     1
 91
        4
 64
     7
 65
   257
 75
     1
175
     1
 42
1.0
 92
        0
 66
   257
 43
1.0
 76
     1
 77
     6
 78
     2
 67
     7
 79
     5
170
     0
171
     0
290
     0
174
     0
 93
        1
 44
0.0
173
     0
291
     0
 45
0.0
  0
VISUALSTYLE
  5
32
102
{ACAD_REACTORS
330
2A
102
}
102
{ACAD_XDICTIONARY
360
A9
102
}
330
2A
100
AcDbVisualStyle
  2
Basic
 70
     7
 71
     1
 72
     0
 73
     1
 90
        0
 40
-0.6
 41
-30.0
 62
     5
 63
     7
421
 16777215
 74
     0
 91
        4
 64
     7
 65
   257
 75
     1
175
     1
 42
1.0
 92
        8
 66
     7
 43
1.0
 76
     1
 77
     6
 78
     2
 67
     7
 79
     5
170
     0
171
     0
290
     0
174
     0
 93
        1
 44
0.0
173
     0
291
     1
 45
0.0
  0
VISUALSTYLE
  5
36
102
{ACAD_REACTORS
330
2A
102
}
102
{ACAD_XDICTIONARY
360
B1
102
}
330
2A
100
AcDbVisualStyle
  2
Brighten
 70
    12
 71
     2
 72
     2
 73
     0
 90
        0
 40
-0.6
 41
-30.0
 62
     5
 63
     7
421
 16777215
 74
     1
 91
        4
 64
     7
 65
   257
 75
     1
175
     1
 42
1.0
 92
        8
 66
     7
 43
1.0
 76
     1
 77
     6
 78
     2
 67
     7
 79
     5
170
     0
171
     0
290
     0
174
     0
 93
        1
 44
50.0
173
     0
291
     1
 45
0.0
  0
VISUALSTYLE
  5
3A
102
{ACAD_REACTORS
330
2A
102
}
102
{ACAD_XDICTIONARY
360
B9
102
}
330
2A
100
AcDbVisualStyle
  2
ColorChange
 70
    16
 71
     2
 72
     2
 73
     3
 90
        0
 40
-0.6
 41
-30.0
 62
     5
 63
     8
421
  8421504
 74
     1
 91
        4
 64
     7
 65
   257
 75
     1
175
     1
 42
1.0
 92
        8
 66
     8
424
  8421504
 43
1.0
 76
     1
 77
     6
 78
     2
 67
     7
 79
     5
170
     0
171
     0
290
     0
174
     0
 93
        1
 44
0.0
173
     0
291
     1
 45
0.0
  0
VISUALSTYLE
  5
34
102
{ACAD_REACTORS
330
2A
102
}
102
{ACAD_XDICTIONARY
360
AD
102
}
330
2A
100
AcDbVisualStyle
  2
Conceptual
 70
     9
 71
     3
 72
     2
 73
     0
 90
        0
 40
-0.6
 41
-30.0
 62
     5
 63
     7
421
 16777215
 74
     2
 91
        2
 64
     7
 65
   257
 75
     1
175
     1
 42
40.0
 92
        8
 66
     7
 43
1.0
 76
     1
 77
     6
 78
     2
 67
     7
 79
     3
170
     0
171
     0
290
     0
174
     0
 93
        1
 44
0.0
173
     0
291
     0
 45
0.0
  0
VISUALSTYLE
  5
35
102
{ACAD_REACTORS
330
2A
102
}
102
{ACAD_XDICTIONARY
360
AF
102
}
330
2A
100
AcDbVisualStyle
  2
Dim
 70
    11
 71
     2
 72
     2
 73
     0
 90
        0
 40
-0.6
 41
-30.0
 62
     5
 63
     7
421
 16777215
 74
     1
 91
        4
 64
     7
 65
   257
 75
     1
175
     1
 42
1.0
 92
        8
 66
     7
 43
1.0
 76
     1
 77
     6
 78
     2
 67
     7
 79
     5
170
     0
171
     0
290
     0
174
     0
 93
        1
 44
-50.0
173
     0
291
     1
 45
0.0
  0
VISUALSTYLE
  5
39
102
{ACAD_REACTORS
330
2A
102
}
102
{ACAD_XDICTIONARY
360
B7
102
}
330
2A
100
AcDbVisualStyle
  2
Facepattern
 70
    15
 71
     2
 72
     2
 73
     0
 90
        0
 40
-0.6
 41
-30.0
 62
     5
 63
     7
421
 16777215
 74
     1
 91
        4
 64
     7
 65
   257
 75
     1
175
     1
 42
1.0
 92
        8
 66
     7
 43
1.0
 76
     1
 77
     6
 78
     2
 67
     7
 79
     5
170
     0
171
     0
290
     0
174
     0
 93
        1
 44
0.0
173
     0
291
     1
 45
0.0
  0
VISUALSTYLE
  5
2B
102
{ACAD_REACTORS
330
2A
102
}
102
{ACAD_XDICTIONARY
360
9B
102
}
330
2A
100
AcDbVisualStyle
  2
Flat
 70
     0
 71
     2
 72
     1
 73
     1
 90
        2
 40
-0.6
 41
30.0
 62
     5
 63
     7
421
 16777215
 74
     0
 91
        4
 64
     7
 65
   257
 75
     1
175
     1
 42
1.0
 92
        8
 66
     7
 43
1.0
 76
     1
 77
     6
 78
     2
 67
     7
 79
     5
170
     0
171
     0
290
     0
174
     0
 93
       13
 44
0.0
173
     0
291
     1
 45
0.0
  0
VISUALSTYLE
  5
2C
102
{ACAD_REACTORS
330
2A
102
}
102
{ACAD_XDICTIONARY
360
9D
102
}
330
2A
100
AcDbVisualStyle
  2
FlatWithEdges
 70
     1
 71
     2
 72
     1
 73
     1
 90
        2
 40
-0.6
 41
30.0
 62
     5
 63
     7
421
 16777215
 74
     1
 91
        4
 64
     7
 65
   257
 75
     1
175
     1
 42
1.0
 92
        0
 66
   257
 43
1.0
 76
     1
 77
     6
 78
     2
 67
     7
 79
     5
170
     0
171
     0
290
     0
174
     0
 93
       13
 44
0.0
173
     0
291
     1
 45
0.0
  0
VISUALSTYLE
  5
2D
102
{ACAD_REACTORS
330
2A
102
}
102
{ACAD_XDICTIONARY
360
9F
102
}
330
2A
100
AcDbVisualStyle
  2
Gouraud
 70
     2
 71
     2
 72
     2
 73
     1
 90
        2
 40
-0.6
 41
30.0
 62
     5
 63
     7
421
 16777215
 74
     0
 91
        4
 64
     7
 65
   257
 75
     1
175
     1
 42
1.0
 92
        0
 66
     7
 43
1.0
 76
     1
 77
     6
 78
     2
 67
     7
 79
     5
170
     0
171
     0
290
     0
174
     0
 93
       13
 44
0.0
173
     0
291
     1
 45
0.0
  0
VISUALSTYLE
  5
2E
102
{ACAD_REACTORS
330
2A
102
}
102
{ACAD_XDICTIONARY
360
A1
102
}
330
2A
100
AcDbVisualStyle
  2
GouraudWithEdges
 70
     3
 71
     2
 72
     2
 73
     1
 90
        2
 40
-0.6
 41
30.0
 62
     5
 63
     7
421
 16777215
 74
     1
 91
        4
 64
     7
 65
   257
 75
     1
175
     1
 42
1.0
 92
        0
 66
   257
 43
1.0
 76
     1
 77
     6
 78
     2
 67
     7
 79
     5
170
     0
171
     0
290
     0
174
     0
 93
       13
 44
0.0
173
     0
291
     1
 45
0.0
  0
VISUALSTYLE
  5
38
102
{ACAD_REACTORS
330
2A
102
}
102
{ACAD_XDICTIONARY
360
B5
102
}
330
2A
100
AcDbVisualStyle
  2
Linepattern
 70
    14
 71
     2
 72
     2
 73
     0
 90
        0
 40
-0.6
 41
-30.0
 62
     5
 63
     7
421
 16777215
 74
     1
 91
        4
 64
     7
 65
   257
 75
     7
175
     7
 42
1.0
 92
        8
 66
     7
 43
1.0
 76
     1
 77
     6
 78
     2
 67
     7
 79
     5
170
     0
171
     0
290
     0
174
     0
 93
        1
 44
0.0
173
     0
291
     1
 45
0.0
  0
VISUALSTYLE
  5
33
102
{ACAD_REACTORS
330
2A
102
}
102
{ACAD_XDICTIONARY
360
AB
102
}
330
2A
100
AcDbVisualStyle
  2
Realistic
 70
     8
 71
     2
 72
     2
 73
     0
 90
        0
 40
-0.6
 41
-30.0
 62
     5
 63
     7
421
 16777215
 74
     1
 91
        0
 64
     7
 65
   257
 75
     1
175
     1
 42
1.0
 92
        8
 66
     8
424
  7895160
 43
1.0
 76
     1
 77
     6
 78
     2
 67
     7
 79
     5
170
     0
171
     0
290
     0
174
     0
 93
       13
 44
0.0
173
     0
291
     0
 45
0.0
  0
VISUALSTYLE
  5
37
102
{ACAD_REACTORS
330
2A
102
}
102
{ACAD_XDICTIONARY
360
B3
102
}
330
2A
100
AcDbVisualStyle
  2
Thicken
 70
    13
 71
     2
 72
     2
 73
     0
 90
        0
 40
-0.6
 41
-30.0
 62
     5
 63
     7
421
 16777215
 74
     1
 91
        4
 64
     7
 65
   257
 75
     1
175
     1
 42
1.0
 92
       12
 66
     7
 43
1.0
 76
     1
 77
     6
 78
     2
 67
     7
 79
     5
170
     0
171
     0
290
     0
174
     0
 93
        1
 44
0.0
173
     0
291
     1
 45
0.0
  0
DICTIONARY
  5
A3
330
2F
100
AcDbDictionary
280
     1
281
     1
  3
ACAD_XREC_ROUNDTRIP
360
A4
  0
DICTIONARY
  5
A7
330
31
100
AcDbDictionary
280
     1
281
     1
  3
ACAD_XREC_ROUNDTRIP
360
A8
  0
DICTIONARY
  5
A5
330
30
100
AcDbDictionary
280
     1
281
     1
  3
ACAD_XREC_ROUNDTRIP
360
A6
  0
DICTIONARY
  5
A9
330
32
100
AcDbDictionary
280
     1
281
     1
  3
ACAD_XREC_ROUNDTRIP
360
AA
  0
DICTIONARY
  5
B1
330
36
100
AcDbDictionary
280
     1
281
     1
  3
ACAD_XREC_ROUNDTRIP
360
B2
  0
DICTIONARY
  5
B9
330
3A
100
AcDbDictionary
280
     1
281
     1
  3
ACAD_XREC_ROUNDTRIP
360
BA
  0
DICTIONARY
  5
AD
330
34
100
AcDbDictionary
280
     1
281
     1
  3
ACAD_XREC_ROUNDTRIP
360
AE
  0
DICTIONARY
  5
AF
330
35
100
AcDbDictionary
280
     1
281
     1
  3
ACAD_XREC_ROUNDTRIP
360
B0
  0
DICTIONARY
  5
B7
330
39
100
AcDbDictionary
280
     1
281
     1
  3
ACAD_XREC_ROUNDTRIP
360
B8
  0
DICTIONARY
  5
9B
330
2B
100
AcDbDictionary
280
     1
281
     1
  3
ACAD_XREC_ROUNDTRIP
360
9C
  0
DICTIONARY
  5
9D
330
2C
100
AcDbDictionary
280
     1
281
     1
  3
ACAD_XREC_ROUNDTRIP
360
9E
  0
DICTIONARY
  5
9F
330
2D
100
AcDbDictionary
280
     1
281
     1
  3
ACAD_XREC_ROUNDTRIP
360
A0
  0
DICTIONARY
  5
A1
330
2E
100
AcDbDictionary
280
     1
281
     1
  3
ACAD_XREC_ROUNDTRIP
360
A2
  0
DICTIONARY
  5
B5
330
38
100
AcDbDictionary
280
     1
281
     1
  3
ACAD_XREC_ROUNDTRIP
360
B6
  0
DICTIONARY
  5
AB
330
33
100
AcDbDictionary
280
     1
281
     1
  3
ACAD_XREC_ROUNDTRIP
360
AC
  0
DICTIONARY
  5
B3
330
37
100
AcDbDictionary
280
     1
281
     1
  3
ACAD_XREC_ROUNDTRIP
360
B4
  0
XRECORD
  5
A4
102
{ACAD_REACTORS
330
A3
102
}
330
A3
100
AcDbXrecord
280
     1
102
RTVSPropertyOp0
 70
     1
102
RTVSPropertyOp1
 70
     1
102
RTVSPropertyOp2
 70
     1
102
RTVSPropertyOp3
 70
     1
102
RTVSPropertyOp4
 70
     1
102
RTVSPropertyOp5
 70
     1
102
RTVSPropertyOp6
 70
     1
102
RTVSPropertyOp7
 70
     1
102
RTVSPropertyOp8
 70
     1
102
RTVSPropertyOp9
 70
     1
102
RTVSPropertyOp10
 70
     1
102
RTVSPropertyOp11
 70
     1
102
RTVSPropertyOp12
 70
     1
102
RTVSPropertyOp13
 70
     1
102
RTVSPropertyOp14
 70
     1
102
RTVSPropertyOp15
 70
     1
102
RTVSPropertyOp16
 70
     1
102
RTVSPropertyOp17
 70
     1
102
RTVSPropertyOp18
 70
     1
102
RTVSPropertyOp19
 70
     1
102
RTVSPropertyOp20
 70
     1
102
RTVSPropertyOp21
 70
     1
102
RTVSPropertyOp22
 70
     1
102
RTVSPropertyOp23
 70
     1
102
RTVSPropertyOp24
 70
     1
102
RTVSPropertyOp25
 70
     1
102
RTVSPropertyOp26
 70
     1
102
RTVSPropertyOp27
 70
     1
102
RTVSPropertyOp28
 70
     1
102
RTVSPropertyOp29
 70
     1
102
RTVSPropertyOp30
 70
     1
102
RTVSPropertyOp31
 70
     1
102
RTVSPropertyOp32
 70
     1
  0
XRECORD
  5
A8
102
{ACAD_REACTORS
330
A7
102
}
330
A7
100
AcDbXrecord
280
     1
102
RTVSPropertyOp0
 70
     1
102
RTVSPropertyOp1
 70
     1
102
RTVSPropertyOp2
 70
     1
102
RTVSPropertyOp3
 70
     1
102
RTVSPropertyOp4
 70
     1
102
RTVSPropertyOp5
 70
     1
102
RTVSPropertyOp6
 70
     1
102
RTVSPropertyOp7
 70
     1
102
RTVSPropertyOp8
 70
     1
102
RTVSPropertyOp9
 70
     1
102
RTVSPropertyOp10
 70
     1
102
RTVSPropertyOp11
 70
     1
102
RTVSPropertyOp12
 70
     1
102
RTVSPropertyOp13
 70
     1
102
RTVSPropertyOp14
 70
     1
102
RTVSPropertyOp15
 70
     1
102
RTVSPropertyOp16
 70
     1
102
RTVSPropertyOp17
 70
     1
102
RTVSPropertyOp18
 70
     1
102
RTVSPropertyOp19
 70
     1
102
RTVSPropertyOp20
 70
     1
102
RTVSPropertyOp21
 70
     1
102
RTVSPropertyOp22
 70
     1
102
RTVSPropertyOp23
 70
     1
102
RTVSPropertyOp24
 70
     1
102
RTVSPropertyOp25
 70
     1
102
RTVSPropertyOp26
 70
     1
102
RTVSPropertyOp27
 70
     1
102
RTVSPropertyOp28
 70
     1
102
RTVSPropertyOp29
 70
     1
102
RTVSPropertyOp30
 70
     1
102
RTVSPropertyOp31
 70
     1
102
RTVSPropertyOp32
 70
     1
  0
XRECORD
  5
A6
102
{ACAD_REACTORS
330
A5
102
}
330
A5
100
AcDbXrecord
280
     1
102
RTVSPropertyOp0
 70
     1
102
RTVSPropertyOp1
 70
     1
102
RTVSPropertyOp2
 70
     1
102
RTVSPropertyOp3
 70
     1
102
RTVSPropertyOp4
 70
     1
102
RTVSPropertyOp5
 70
     1
102
RTVSPropertyOp6
 70
     1
102
RTVSPropertyOp7
 70
     1
102
RTVSPropertyOp8
 70
     1
102
RTVSPropertyOp9
 70
     1
102
RTVSPropertyOp10
 70
     1
102
RTVSPropertyOp11
 70
     1
102
RTVSPropertyOp12
 70
     1
102
RTVSPropertyOp13
 70
     1
102
RTVSPropertyOp14
 70
     1
102
RTVSPropertyOp15
 70
     1
102
RTVSPropertyOp16
 70
     1
102
RTVSPropertyOp17
 70
     1
102
RTVSPropertyOp18
 70
     1
102
RTVSPropertyOp19
 70
     1
102
RTVSPropertyOp20
 70
     1
102
RTVSPropertyOp21
 70
     1
102
RTVSPropertyOp22
 70
     1
102
RTVSPropertyOp23
 70
     1
102
RTVSPropertyOp24
 70
     1
102
RTVSPropertyOp25
 70
     1
102
RTVSPropertyOp26
 70
     1
102
RTVSPropertyOp27
 70
     1
102
RTVSPropertyOp28
 70
     1
102
RTVSPropertyOp29
 70
     1
102
RTVSPropertyOp30
 70
     1
102
RTVSPropertyOp31
 70
     1
102
RTVSPropertyOp32
 70
     1
  0
XRECORD
  5
AA
102
{ACAD_REACTORS
330
A9
102
}
330
A9
100
AcDbXrecord
280
     1
102
RTVSPropertyOp0
 70
     1
102
RTVSPropertyOp1
 70
     1
102
RTVSPropertyOp2
 70
     1
102
RTVSPropertyOp3
 70
     1
102
RTVSPropertyOp4
 70
     1
102
RTVSPropertyOp5
 70
     1
102
RTVSPropertyOp6
 70
     1
102
RTVSPropertyOp7
 70
     1
102
RTVSPropertyOp8
 70
     1
102
RTVSPropertyOp9
 70
     1
102
RTVSPropertyOp10
 70
     1
102
RTVSPropertyOp11
 70
     1
102
RTVSPropertyOp12
 70
     1
102
RTVSPropertyOp13
 70
     1
102
RTVSPropertyOp14
 70
     1
102
RTVSPropertyOp15
 70
     1
102
RTVSPropertyOp16
 70
     1
102
RTVSPropertyOp17
 70
     1
102
RTVSPropertyOp18
 70
     1
102
RTVSPropertyOp19
 70
     1
102
RTVSPropertyOp20
 70
     1
102
RTVSPropertyOp21
 70
     1
102
RTVSPropertyOp22
 70
     1
102
RTVSPropertyOp23
 70
     1
102
RTVSPropertyOp24
 70
     1
102
RTVSPropertyOp25
 70
     1
102
RTVSPropertyOp26
 70
     1
102
RTVSPropertyOp27
 70
     1
102
RTVSPropertyOp28
 70
     1
102
RTVSPropertyOp29
 70
     1
102
RTVSPropertyOp30
 70
     1
102
RTVSPropertyOp31
 70
     1
102
RTVSPropertyOp32
 70
     1
  0
XRECORD
  5
B2
102
{ACAD_REACTORS
330
B1
102
}
330
B1
100
AcDbXrecord
280
     1
102
RTVSPropertyOp0
 70
     1
102
RTVSPropertyOp1
 70
     1
102
RTVSPropertyOp2
 70
     1
102
RTVSPropertyOp3
 70
     1
102
RTVSPropertyOp4
 70
     1
102
RTVSPropertyOp5
 70
     1
102
RTVSPropertyOp6
 70
     1
102
RTVSPropertyOp7
 70
     1
102
RTVSPropertyOp8
 70
     1
102
RTVSPropertyOp9
 70
     1
102
RTVSPropertyOp10
 70
     1
102
RTVSPropertyOp11
 70
     1
102
RTVSPropertyOp12
 70
     1
102
RTVSPropertyOp13
 70
     1
102
RTVSPropertyOp14
 70
     1
102
RTVSPropertyOp15
 70
     1
102
RTVSPropertyOp16
 70
     1
102
RTVSPropertyOp17
 70
     1
102
RTVSPropertyOp18
 70
     1
102
RTVSPropertyOp19
 70
     1
102
RTVSPropertyOp20
 70
     1
102
RTVSPropertyOp21
 70
     1
102
RTVSPropertyOp22
 70
     1
102
RTVSPropertyOp23
 70
     1
102
RTVSPropertyOp24
 70
     1
102
RTVSPropertyOp25
 70
     1
102
RTVSPropertyOp26
 70
     1
102
RTVSPropertyOp27
 70
     1
102
RTVSPropertyOp28
 70
     1
102
RTVSPropertyOp29
 70
     1
102
RTVSPropertyOp30
 70
     1
102
RTVSPropertyOp31
 70
     1
102
RTVSPropertyOp32
 70
     1
  0
XRECORD
  5
BA
102
{ACAD_REACTORS
330
B9
102
}
330
B9
100
AcDbXrecord
280
     1
102
RTVSPropertyOp0
 70
     1
102
RTVSPropertyOp1
 70
     1
102
RTVSPropertyOp2
 70
     1
102
RTVSPropertyOp3
 70
     1
102
RTVSPropertyOp4
 70
     1
102
RTVSPropertyOp5
 70
     1
102
RTVSPropertyOp6
 70
     1
102
RTVSPropertyOp7
 70
     1
102
RTVSPropertyOp8
 70
     1
102
RTVSPropertyOp9
 70
     1
102
RTVSPropertyOp10
 70
     1
102
RTVSPropertyOp11
 70
     1
102
RTVSPropertyOp12
 70
     1
102
RTVSPropertyOp13
 70
     1
102
RTVSPropertyOp14
 70
     1
102
RTVSPropertyOp15
 70
     1
102
RTVSPropertyOp16
 70
     1
102
RTVSPropertyOp17
 70
     1
102
RTVSPropertyOp18
 70
     1
102
RTVSPropertyOp19
 70
     1
102
RTVSPropertyOp20
 70
     1
102
RTVSPropertyOp21
 70
     1
102
RTVSPropertyOp22
 70
     1
102
RTVSPropertyOp23
 70
     1
102
RTVSPropertyOp24
 70
     1
102
RTVSPropertyOp25
 70
     1
102
RTVSPropertyOp26
 70
     1
102
RTVSPropertyOp27
 70
     1
102
RTVSPropertyOp28
 70
     1
102
RTVSPropertyOp29
 70
     1
102
RTVSPropertyOp30
 70
     1
102
RTVSPropertyOp31
 70
     1
102
RTVSPropertyOp32
 70
     1
  0
XRECORD
  5
AE
102
{ACAD_REACTORS
330
AD
102
}
330
AD
100
AcDbXrecord
280
     1
102
RTVSPropertyOp0
 70
     1
102
RTVSPropertyOp1
 70
     1
102
RTVSPropertyOp2
 70
     1
102
RTVSPropertyOp3
 70
     1
102
RTVSPropertyOp4
 70
     1
102
RTVSPropertyOp5
 70
     1
102
RTVSPropertyOp6
 70
     1
102
RTVSPropertyOp7
 70
     1
102
RTVSPropertyOp8
 70
     1
102
RTVSPropertyOp9
 70
     1
102
RTVSPropertyOp10
 70
     1
102
RTVSPropertyOp11
 70
     1
102
RTVSPropertyOp12
 70
     1
102
RTVSPropertyOp13
 70
     1
102
RTVSPropertyOp14
 70
     1
102
RTVSPropertyOp15
 70
     1
102
RTVSPropertyOp16
 70
     1
102
RTVSPropertyOp17
 70
     1
102
RTVSPropertyOp18
 70
     1
102
RTVSPropertyOp19
 70
     1
102
RTVSPropertyOp20
 70
     1
102
RTVSPropertyOp21
 70
     1
102
RTVSPropertyOp22
 70
     1
102
RTVSPropertyOp23
 70
     1
102
RTVSPropertyOp24
 70
     1
102
RTVSPropertyOp25
 70
     1
102
RTVSPropertyOp26
 70
     1
102
RTVSPropertyOp27
 70
     1
102
RTVSPropertyOp28
 70
     1
102
RTVSPropertyOp29
 70
     1
102
RTVSPropertyOp30
 70
     1
102
RTVSPropertyOp31
 70
     1
102
RTVSPropertyOp32
 70
     1
  0
XRECORD
  5
B0
102
{ACAD_REACTORS
330
AF
102
}
330
AF
100
AcDbXrecord
280
     1
102
RTVSPropertyOp0
 70
     1
102
RTVSPropertyOp1
 70
     1
102
RTVSPropertyOp2
 70
     1
102
RTVSPropertyOp3
 70
     1
102
RTVSPropertyOp4
 70
     1
102
RTVSPropertyOp5
 70
     1
102
RTVSPropertyOp6
 70
     1
102
RTVSPropertyOp7
 70
     1
102
RTVSPropertyOp8
 70
     1
102
RTVSPropertyOp9
 70
     1
102
RTVSPropertyOp10
 70
     1
102
RTVSPropertyOp11
 70
     1
102
RTVSPropertyOp12
 70
     1
102
RTVSPropertyOp13
 70
     1
102
RTVSPropertyOp14
 70
     1
102
RTVSPropertyOp15
 70
     1
102
RTVSPropertyOp16
 70
     1
102
RTVSPropertyOp17
 70
     1
102
RTVSPropertyOp18
 70
     1
102
RTVSPropertyOp19
 70
     1
102
RTVSPropertyOp20
 70
     1
102
RTVSPropertyOp21
 70
     1
102
RTVSPropertyOp22
 70
     1
102
RTVSPropertyOp23
 70
     1
102
RTVSPropertyOp24
 70
     1
102
RTVSPropertyOp25
 70
     1
102
RTVSPropertyOp26
 70
     1
102
RTVSPropertyOp27
 70
     1
102
RTVSPropertyOp28
 70
     1
102
RTVSPropertyOp29
 70
     1
102
RTVSPropertyOp30
 70
     1
102
RTVSPropertyOp31
 70
     1
102
RTVSPropertyOp32
 70
     1
  0
XRECORD
  5
B8
102
{ACAD_REACTORS
330
B7
102
}
330
B7
100
AcDbXrecord
280
     1
102
RTVSPropertyOp0
 70
     1
102
RTVSPropertyOp1
 70
     1
102
RTVSPropertyOp2
 70
     1
102
RTVSPropertyOp3
 70
     1
102
RTVSPropertyOp4
 70
     1
102
RTVSPropertyOp5
 70
     1
102
RTVSPropertyOp6
 70
     1
102
RTVSPropertyOp7
 70
     1
102
RTVSPropertyOp8
 70
     1
102
RTVSPropertyOp9
 70
     1
102
RTVSPropertyOp10
 70
     1
102
RTVSPropertyOp11
 70
     1
102
RTVSPropertyOp12
 70
     1
102
RTVSPropertyOp13
 70
     1
102
RTVSPropertyOp14
 70
     1
102
RTVSPropertyOp15
 70
     1
102
RTVSPropertyOp16
 70
     1
102
RTVSPropertyOp17
 70
     1
102
RTVSPropertyOp18
 70
     1
102
RTVSPropertyOp19
 70
     1
102
RTVSPropertyOp20
 70
     1
102
RTVSPropertyOp21
 70
     1
102
RTVSPropertyOp22
 70
     1
102
RTVSPropertyOp23
 70
     1
102
RTVSPropertyOp24
 70
     1
102
RTVSPropertyOp25
 70
     1
102
RTVSPropertyOp26
 70
     1
102
RTVSPropertyOp27
 70
     1
102
RTVSPropertyOp28
 70
     1
102
RTVSPropertyOp29
 70
     1
102
RTVSPropertyOp30
 70
     1
102
RTVSPropertyOp31
 70
     1
102
RTVSPropertyOp32
 70
     1
  0
XRECORD
  5
9C
102
{ACAD_REACTORS
330
9B
102
}
330
9B
100
AcDbXrecord
280
     1
102
RTVSPropertyOp0
 70
     1
102
RTVSPropertyOp1
 70
     1
102
RTVSPropertyOp2
 70
     1
102
RTVSPropertyOp3
 70
     1
102
RTVSPropertyOp4
 70
     1
102
RTVSPropertyOp5
 70
     1
102
RTVSPropertyOp6
 70
     1
102
RTVSPropertyOp7
 70
     1
102
RTVSPropertyOp8
 70
     1
102
RTVSPropertyOp9
 70
     1
102
RTVSPropertyOp10
 70
     1
102
RTVSPropertyOp11
 70
     1
102
RTVSPropertyOp12
 70
     1
102
RTVSPropertyOp13
 70
     1
102
RTVSPropertyOp14
 70
     1
102
RTVSPropertyOp15
 70
     1
102
RTVSPropertyOp16
 70
     1
102
RTVSPropertyOp17
 70
     1
102
RTVSPropertyOp18
 70
     1
102
RTVSPropertyOp19
 70
     1
102
RTVSPropertyOp20
 70
     1
102
RTVSPropertyOp21
 70
     1
102
RTVSPropertyOp22
 70
     1
102
RTVSPropertyOp23
 70
     1
102
RTVSPropertyOp24
 70
     1
102
RTVSPropertyOp25
 70
     1
102
RTVSPropertyOp26
 70
     1
102
RTVSPropertyOp27
 70
     1
102
RTVSPropertyOp28
 70
     1
102
RTVSPropertyOp29
 70
     1
102
RTVSPropertyOp30
 70
     1
102
RTVSPropertyOp31
 70
     1
102
RTVSPropertyOp32
 70
     1
  0
XRECORD
  5
9E
102
{ACAD_REACTORS
330
9D
102
}
330
9D
100
AcDbXrecord
280
     1
102
RTVSPropertyOp0
 70
     1
102
RTVSPropertyOp1
 70
     1
102
RTVSPropertyOp2
 70
     1
102
RTVSPropertyOp3
 70
     1
102
RTVSPropertyOp4
 70
     1
102
RTVSPropertyOp5
 70
     1
102
RTVSPropertyOp6
 70
     1
102
RTVSPropertyOp7
 70
     1
102
RTVSPropertyOp8
 70
     1
102
RTVSPropertyOp9
 70
     1
102
RTVSPropertyOp10
 70
     1
102
RTVSPropertyOp11
 70
     1
102
RTVSPropertyOp12
 70
     1
102
RTVSPropertyOp13
 70
     1
102
RTVSPropertyOp14
 70
     1
102
RTVSPropertyOp15
 70
     1
102
RTVSPropertyOp16
 70
     1
102
RTVSPropertyOp17
 70
     1
102
RTVSPropertyOp18
 70
     1
102
RTVSPropertyOp19
 70
     1
102
RTVSPropertyOp20
 70
     1
102
RTVSPropertyOp21
 70
     1
102
RTVSPropertyOp22
 70
     1
102
RTVSPropertyOp23
 70
     1
102
RTVSPropertyOp24
 70
     1
102
RTVSPropertyOp25
 70
     1
102
RTVSPropertyOp26
 70
     1
102
RTVSPropertyOp27
 70
     1
102
RTVSPropertyOp28
 70
     1
102
RTVSPropertyOp29
 70
     1
102
RTVSPropertyOp30
 70
     1
102
RTVSPropertyOp31
 70
     1
102
RTVSPropertyOp32
 70
     1
  0
XRECORD
  5
A0
102
{ACAD_REACTORS
330
9F
102
}
330
9F
100
AcDbXrecord
280
     1
102
RTVSPropertyOp0
 70
     1
102
RTVSPropertyOp1
 70
     1
102
RTVSPropertyOp2
 70
     1
102
RTVSPropertyOp3
 70
     1
102
RTVSPropertyOp4
 70
     1
102
RTVSPropertyOp5
 70
     1
102
RTVSPropertyOp6
 70
     1
102
RTVSPropertyOp7
 70
     1
102
RTVSPropertyOp8
 70
     1
102
RTVSPropertyOp9
 70
     1
102
RTVSPropertyOp10
 70
     1
102
RTVSPropertyOp11
 70
     1
102
RTVSPropertyOp12
 70
     1
102
RTVSPropertyOp13
 70
     1
102
RTVSPropertyOp14
 70
     1
102
RTVSPropertyOp15
 70
     1
102
RTVSPropertyOp16
 70
     1
102
RTVSPropertyOp17
 70
     1
102
RTVSPropertyOp18
 70
     1
102
RTVSPropertyOp19
 70
     1
102
RTVSPropertyOp20
 70
     1
102
RTVSPropertyOp21
 70
     1
102
RTVSPropertyOp22
 70
     1
102
RTVSPropertyOp23
 70
     1
102
RTVSPropertyOp24
 70
     1
102
RTVSPropertyOp25
 70
     1
102
RTVSPropertyOp26
 70
     1
102
RTVSPropertyOp27
 70
     1
102
RTVSPropertyOp28
 70
     1
102
RTVSPropertyOp29
 70
     1
102
RTVSPropertyOp30
 70
     1
102
RTVSPropertyOp31
 70
     1
102
RTVSPropertyOp32
 70
     1
  0
XRECORD
  5
A2
102
{ACAD_REACTORS
330
A1
102
}
330
A1
100
AcDbXrecord
280
     1
102
RTVSPropertyOp0
 70
     1
102
RTVSPropertyOp1
 70
     1
102
RTVSPropertyOp2
 70
     1
102
RTVSPropertyOp3
 70
     1
102
RTVSPropertyOp4
 70
     1
102
RTVSPropertyOp5
 70
     1
102
RTVSPropertyOp6
 70
     1
102
RTVSPropertyOp7
 70
     1
102
RTVSPropertyOp8
 70
     1
102
RTVSPropertyOp9
 70
     1
102
RTVSPropertyOp10
 70
     1
102
RTVSPropertyOp11
 70
     1
102
RTVSPropertyOp12
 70
     1
102
RTVSPropertyOp13
 70
     1
102
RTVSPropertyOp14
 70
     1
102
RTVSPropertyOp15
 70
     1
102
RTVSPropertyOp16
 70
     1
102
RTVSPropertyOp17
 70
     1
102
RTVSPropertyOp18
 70
     1
102
RTVSPropertyOp19
 70
     1
102
RTVSPropertyOp20
 70
     1
102
RTVSPropertyOp21
 70
     1
102
RTVSPropertyOp22
 70
     1
102
RTVSPropertyOp23
 70
     1
102
RTVSPropertyOp24
 70
     1
102
RTVSPropertyOp25
 70
     1
102
RTVSPropertyOp26
 70
     1
102
RTVSPropertyOp27
 70
     1
102
RTVSPropertyOp28
 70
     1
102
RTVSPropertyOp29
 70
     1
102
RTVSPropertyOp30
 70
     1
102
RTVSPropertyOp31
 70
     1
102
RTVSPropertyOp32
 70
     1
  0
XRECORD
  5
B6
102
{ACAD_REACTORS
330
B5
102
}
330
B5
100
AcDbXrecord
280
     1
102
RTVSPropertyOp0
 70
     1
102
RTVSPropertyOp1
 70
     1
102
RTVSPropertyOp2
 70
     1
102
RTVSPropertyOp3
 70
     1
102
RTVSPropertyOp4
 70
     1
102
RTVSPropertyOp5
 70
     1
102
RTVSPropertyOp6
 70
     1
102
RTVSPropertyOp7
 70
     1
102
RTVSPropertyOp8
 70
     1
102
RTVSPropertyOp9
 70
     1
102
RTVSPropertyOp10
 70
     1
102
RTVSPropertyOp11
 70
     1
102
RTVSPropertyOp12
 70
     1
102
RTVSPropertyOp13
 70
     1
102
RTVSPropertyOp14
 70
     1
102
RTVSPropertyOp15
 70
     1
102
RTVSPropertyOp16
 70
     1
102
RTVSPropertyOp17
 70
     1
102
RTVSPropertyOp18
 70
     1
102
RTVSPropertyOp19
 70
     1
102
RTVSPropertyOp20
 70
     1
102
RTVSPropertyOp21
 70
     1
102
RTVSPropertyOp22
 70
     1
102
RTVSPropertyOp23
 70
     1
102
RTVSPropertyOp24
 70
     1
102
RTVSPropertyOp25
 70
     1
102
RTVSPropertyOp26
 70
     1
102
RTVSPropertyOp27
 70
     1
102
RTVSPropertyOp28
 70
     1
102
RTVSPropertyOp29
 70
     1
102
RTVSPropertyOp30
 70
     1
102
RTVSPropertyOp31
 70
     1
102
RTVSPropertyOp32
 70
     1
  0
XRECORD
  5
AC
102
{ACAD_REACTORS
330
AB
102
}
330
AB
100
AcDbXrecord
280
     1
102
RTVSPropertyOp0
 70
     1
102
RTVSPropertyOp1
 70
     1
102
RTVSPropertyOp2
 70
     1
102
RTVSPropertyOp3
 70
     1
102
RTVSPropertyOp4
 70
     1
102
RTVSPropertyOp5
 70
     1
102
RTVSPropertyOp6
 70
     1
102
RTVSPropertyOp7
 70
     1
102
RTVSPropertyOp8
 70
     1
102
RTVSPropertyOp9
 70
     1
102
RTVSPropertyOp10
 70
     1
102
RTVSPropertyOp11
 70
     1
102
RTVSPropertyOp12
 70
     1
102
RTVSPropertyOp13
 70
     1
102
RTVSPropertyOp14
 70
     1
102
RTVSPropertyOp15
 70
     1
102
RTVSPropertyOp16
 70
     1
102
RTVSPropertyOp17
 70
     1
102
RTVSPropertyOp18
 70
     1
102
RTVSPropertyOp19
 70
     1
102
RTVSPropertyOp20
 70
     1
102
RTVSPropertyOp21
 70
     1
102
RTVSPropertyOp22
 70
     1
102
RTVSPropertyOp23
 70
     1
102
RTVSPropertyOp24
 70
     1
102
RTVSPropertyOp25
 70
     1
102
RTVSPropertyOp26
 70
     1
102
RTVSPropertyOp27
 70
     1
102
RTVSPropertyOp28
 70
     1
102
RTVSPropertyOp29
 70
     1
102
RTVSPropertyOp30
 70
     1
102
RTVSPropertyOp31
 70
     1
102
RTVSPropertyOp32
 70
     1
  0
XRECORD
  5
B4
102
{ACAD_REACTORS
330
B3
102
}
330
B3
100
AcDbXrecord
280
     1
102
RTVSPropertyOp0
 70
     1
102
RTVSPropertyOp1
 70
     1
102
RTVSPropertyOp2
 70
     1
102
RTVSPropertyOp3
 70
     1
102
RTVSPropertyOp4
 70
     1
102
RTVSPropertyOp5
 70
     1
102
RTVSPropertyOp6
 70
     1
102
RTVSPropertyOp7
 70
     1
102
RTVSPropertyOp8
 70
     1
102
RTVSPropertyOp9
 70
     1
102
RTVSPropertyOp10
 70
     1
102
RTVSPropertyOp11
 70
     1
102
RTVSPropertyOp12
 70
     1
102
RTVSPropertyOp13
 70
     1
102
RTVSPropertyOp14
 70
     1
102
RTVSPropertyOp15
 70
     1
102
RTVSPropertyOp16
 70
     1
102
RTVSPropertyOp17
 70
     1
102
RTVSPropertyOp18
 70
     1
102
RTVSPropertyOp19
 70
     1
102
RTVSPropertyOp20
 70
     1
102
RTVSPropertyOp21
 70
     1
102
RTVSPropertyOp22
 70
     1
102
RTVSPropertyOp23
 70
     1
102
RTVSPropertyOp24
 70
     1
102
RTVSPropertyOp25
 70
     1
102
RTVSPropertyOp26
 70
     1
102
RTVSPropertyOp27
 70
     1
102
RTVSPropertyOp28
 70
     1
102
RTVSPropertyOp29
 70
     1
102
RTVSPropertyOp30
 70
     1
102
RTVSPropertyOp31
 70
     1
102
RTVSPropertyOp32
 70
     1
  0
ENDSEC
  0
EOF
