  0
SECTION
  2
HEADER
  9
$ACADVER
  1
AC1021
  9
$ACADMAINTVER
 70
    25
  9
$DWGCODEPAGE
  3
ANSI_1256
  9
$INSBASE
 10
0.0
 20
0.0
 30
0.0
  9
$EXTMIN
 10
-88.4382
 20
-115.0257
 30
0.0
  9
$EXTMAX
 10
35.0454
 20
131.8653
 30
0.0
  9
$LIMMIN
 10
0.0
 20
0.0
  9
$LIMMAX
 10
12.0
 20
9.0
  9
$ORTHOMODE
 70
     0
  9
$REGENMODE
 70
     1
  9
$FILLMODE
 70
     1
  9
$QTEXTMODE
 70
     0
  9
$MIRRTEXT
 70
     1
  9
$LTSCALE
 40
1.0
  9
$ATTMODE
 70
     1
  9
$TEXTSIZE
 40
0.2
  9
$TRACEWID
 40
0.05
  9
$TEXTSTYLE
  7
Standard
  9
$CLAYER
  8
0
  9
$CELTYPE
  6
ByLayer
  9
$CECOLOR
 62
   256
  9
$CELTSCALE
 40
1.0
  9
$DISPSILH
 70
     0
  9
$DIMSCALE
 40
1.0
  9
$DIMASZ
 40
0.18
  9
$DIMEXO
 40
0.0625
  9
$DIMDLI
 40
0.38
  9
$DIMRND
 40
0.0
  9
$DIMDLE
 40
0.0
  9
$DIMEXE
 40
0.18
  9
$DIMTP
 40
0.0
  9
$DIMTM
 40
0.0
  9
$DIMTXT
 40
0.18
  9
$DIMCEN
 40
0.09
  9
$DIMTSZ
 40
0.0
  9
$DIMTOL
 70
     0
  9
$DIMLIM
 70
     0
  9
$DIMTIH
 70
     1
  9
$DIMTOH
 70
     1
  9
$DIMSE1
 70
     0
  9
$DIMSE2
 70
     0
  9
$DIMTAD
 70
     0
  9
$DIMZIN
 70
     0
  9
$DIMBLK
  1

  9
$DIMASO
 70
     1
  9
$DIMSHO
 70
     1
  9
$DIMPOST
  1

  9
$DIMAPOST
  1

  9
$DIMALT
 70
     0
  9
$DIMALTD
 70
     2
  9
$DIMALTF
 40
25.4
  9
$DIMLFAC
 40
1.0
  9
$DIMTOFL
 70
     0
  9
$DIMTVP
 40
0.0
  9
$DIMTIX
 70
     0
  9
$DIMSOXD
 70
     0
  9
$DIMSAH
 70
     0
  9
$DIMBLK1
  1

  9
$DIMBLK2
  1

  9
$DIMSTYLE
  2
Standard
  9
$DIMCLRD
 70
     0
  9
$DIMCLRE
 70
     0
  9
$DIMCLRT
 70
     0
  9
$DIMTFAC
 40
1.0
  9
$DIMGAP
 40
0.09
  9
$DIMJUST
 70
     0
  9
$DIMSD1
 70
     0
  9
$DIMSD2
 70
     0
  9
$DIMTOLJ
 70
     1
  9
$DIMTZIN
 70
     0
  9
$DIMALTZ
 70
     0
  9
$DIMALTTZ
 70
     0
  9
$DIMUPT
 70
     0
  9
$DIMDEC
 70
     4
  9
$DIMTDEC
 70
     4
  9
$DIMALTU
 70
     2
  9
$DIMALTTD
 70
     2
  9
$DIMTXSTY
  7
Standard
  9
$DIMAUNIT
 70
     0
  9
$DIMADEC
 70
     0
  9
$DIMALTRND
 40
0.0
  9
$DIMAZIN
 70
     0
  9
$DIMDSEP
 70
    46
  9
$DIMATFIT
 70
     3
  9
$DIMFRAC
 70
     0
  9
$DIMLDRBLK
  1

  9
$DIMLUNIT
 70
     2
  9
$DIMLWD
 70
    -2
  9
$DIMLWE
 70
    -2
  9
$DIMTMOVE
 70
     0
  9
$DIMFXL
 40
1.0
  9
$DIMFXLON
 70
     0
  9
$DIMJOGANG
 40
0.7853981633974483
  9
$DIMTFILL
 70
     0
  9
$DIMTFILLCLR
 70
     0
  9
$DIMARCSYM
 70
     0
  9
$DIMLTYPE
  6

  9
$DIMLTEX1
  6

  9
$DIMLTEX2
  6

  9
$LUNITS
 70
     2
  9
$LUPREC
 70
     4
  9
$SKETCHINC
 40
0.1
  9
$FILLETRAD
 40
0.5
  9
$AUNITS
 70
     0
  9
$AUPREC
 70
     0
  9
$MENU
  1
.
  9
$ELEVATION
 40
0.0
  9
$PELEVATION
 40
0.0
  9
$THICKNESS
 40
0.0
  9
$LIMCHECK
 70
     0
  9
$CHAMFERA
 40
0.5
  9
$CHAMFERB
 40
0.5
  9
$CHAMFERC
 40
1.0
  9
$CHAMFERD
 40
0.0
  9
$SKPOLY
 70
     0
  9
$TDCREATE
 40
2458492.382600694
  9
$TDUCREATE
 40
2458492.215934028
  9
$TDUPDATE
 40
2458492.382600868
  9
$TDUUPDATE
 40
2458492.215934202
  9
$TDINDWG
 40
0.0000000116
  9
$TDUSRTIMER
 40
0.0000000116
  9
$USRTIMER
 70
     1
  9
$ANGBASE
 50
0.0
  9
$ANGDIR
 70
     0
  9
$PDMODE
 70
     0
  9
$PDSIZE
 40
0.0
  9
$PLINEWID
 40
0.0
  9
$SPLFRAME
 70
     0
  9
$SPLINETYPE
 70
     6
  9
$SPLINESEGS
 70
     8
  9
$HANDSEED
  5
9F
  9
$SURFTAB1
 70
     6
  9
$SURFTAB2
 70
     6
  9
$SURFTYPE
 70
     6
  9
$SURFU
 70
     6
  9
$SURFV
 70
     6
  9
$UCSBASE
  2

  9
$UCSNAME
  2

  9
$UCSORG
 10
0.0
 20
0.0
 30
0.0
  9
$UCSXDIR
 10
1.0
 20
0.0
 30
0.0
  9
$UCSYDIR
 10
0.0
 20
1.0
 30
0.0
  9
$UCSORTHOREF
  2

  9
$UCSORTHOVIEW
 70
     0
  9
$UCSORGTOP
 10
0.0
 20
0.0
 30
0.0
  9
$UCSORGBOTTOM
 10
0.0
 20
0.0
 30
0.0
  9
$UCSORGLEFT
 10
0.0
 20
0.0
 30
0.0
  9
$UCSORGRIGHT
 10
0.0
 20
0.0
 30
0.0
  9
$UCSORGFRONT
 10
0.0
 20
0.0
 30
0.0
  9
$UCSORGBACK
 10
0.0
 20
0.0
 30
0.0
  9
$PUCSBASE
  2

  9
$PUCSNAME
  2

  9
$PUCSORG
 10
0.0
 20
0.0
 30
0.0
  9
$PUCSXDIR
 10
1.0
 20
0.0
 30
0.0
  9
$PUCSYDIR
 10
0.0
 20
1.0
 30
0.0
  9
$PUCSORTHOREF
  2

  9
$PUCSORTHOVIEW
 70
     0
  9
$PUCSORGTOP
 10
0.0
 20
0.0
 30
0.0
  9
$PUCSORGBOTTOM
 10
0.0
 20
0.0
 30
0.0
  9
$PUCSORGLEFT
 10
0.0
 20
0.0
 30
0.0
  9
$PUCSORGRIGHT
 10
0.0
 20
0.0
 30
0.0
  9
$PUCSORGFRONT
 10
0.0
 20
0.0
 30
0.0
  9
$PUCSORGBACK
 10
0.0
 20
0.0
 30
0.0
  9
$USERI1
 70
     0
  9
$USERI2
 70
     0
  9
$USERI3
 70
     0
  9
$USERI4
 70
     0
  9
$USERI5
 70
     0
  9
$USERR1
 40
0.0
  9
$USERR2
 40
0.0
  9
$USERR3
 40
0.0
  9
$USERR4
 40
0.0
  9
$USERR5
 40
0.0
  9
$WORLDVIEW
 70
     1
  9
$SHADEDGE
 70
     3
  9
$SHADEDIF
 70
    70
  9
$TILEMODE
 70
     1
  9
$MAXACTVP
 70
    64
  9
$PINSBASE
 10
0.0
 20
0.0
 30
0.0
  9
$PLIMCHECK
 70
     0
  9
$PEXTMIN
 10
1.000000000000000E+20
 20
1.000000000000000E+20
 30
1.000000000000000E+20
  9
$PEXTMAX
 10
-1.000000000000000E+20
 20
-1.000000000000000E+20
 30
-1.000000000000000E+20
  9
$PLIMMIN
 10
0.0
 20
0.0
  9
$PLIMMAX
 10
12.0
 20
9.0
  9
$UNITMODE
 70
     0
  9
$VISRETAIN
 70
     1
  9
$PLINEGEN
 70
     0
  9
$PSLTSCALE
 70
     1
  9
$TREEDEPTH
 70
  3020
  9
$CMLSTYLE
  2
Standard
  9
$CMLJUST
 70
     0
  9
$CMLSCALE
 40
1.0
  9
$PROXYGRAPHICS
 70
     1
  9
$MEASUREMENT
 70
     0
  9
$CELWEIGHT
370
    -1
  9
$ENDCAPS
280
     0
  9
$JOINSTYLE
280
     0
  9
$LWDISPLAY
290
     0
  9
$INSUNITS
 70
     4
  9
$HYPERLINKBASE
  1

  9
$STYLESHEET
  1

  9
$XEDIT
290
     1
  9
$CEPSNTYPE
380
     0
  9
$PSTYLEMODE
290
     1
  9
$FINGERPRINTGUID
  2
{0C4E5505-422C-441C-8560-E14308167C9F}
  9
$VERSIONGUID
  2
{FAEB1C32-E019-11D5-929B-00C0DF256EC4}
  9
$EXTNAMES
290
     1
  9
$PSVPSCALE
 40
0.0
  9
$OLESTARTUP
290
     0
  9
$SORTENTS
280
   127
  9
$INDEXCTL
280
     0
  9
$HIDETEXT
280
     1
  9
$XCLIPFRAME
290
     0
  9
$HALOGAP
280
     0
  9
$OBSCOLOR
 70
   257
  9
$OBSLTYPE
280
     0
  9
$INTERSECTIONDISPLAY
280
     0
  9
$INTERSECTIONCOLOR
 70
   257
  9
$DIMASSOC
280
     2
  9
$PROJECTNAME
  1

  9
$CAMERADISPLAY
290
     0
  9
$LENSLENGTH
 40
50.0
  9
$CAMERAHEIGHT
 40
0.0
  9
$STEPSPERSEC
 40
2.0
  9
$STEPSIZE
 40
6.0
  9
$3DDWFPREC
 40
2.0
  9
$PSOLWIDTH
 40
0.25
  9
$PSOLHEIGHT
 40
4.0
  9
$LOFTANG1
 40
1.570796326794897
  9
$LOFTANG2
 40
1.570796326794897
  9
$LOFTMAG1
 40
0.0
  9
$LOFTMAG2
 40
0.0
  9
$LOFTPARAM
 70
     7
  9
$LOFTNORMALS
280
     1
  9
$LATITUDE
 40
37.795
  9
$LONGITUDE
 40
-122.394
  9
$NORTHDIRECTION
 40
0.0
  9
$TIMEZONE
 70
 -8000
  9
$LIGHTGLYPHDISPLAY
280
     1
  9
$TILEMODELIGHTSYNCH
280
     1
  9
$SOLIDHIST
280
     1
  9
$SHOWHIST
280
     1
  9
$DWFFRAME
280
     2
  9
$DGNFRAME
280
     2
  9
$REALWORLDSCALE
290
     1
  9
$INTERFERECOLOR
 62
   256
  9
$CSHADOW
280
     0
  9
$SHADOWPLANELOCATION
 40
0.0
  0
ENDSEC
  0
SECTION
  2
CLASSES
  0
CLASS
  1
ACDBDICTIONARYWDFLT
  2
AcDbDictionaryWithDefault
  3
ObjectDBX Classes
 90
        0
 91
        4
280
     0
281
     0
  0
CLASS
  1
VISUALSTYLE
  2
AcDbVisualStyle
  3
ObjectDBX Classes
 90
     4095
 91
        4
280
     0
281
     0
  0
CLASS
  1
MATERIAL
  2
AcDbMaterial
  3
ObjectDBX Classes
 90
     1153
 91
        4
280
     0
281
     0
  0
ENDSEC
  0
SECTION
  2
TABLES
  0
TABLE
  2
VPORT
  5
8
330
0
100
AcDbSymbolTable
 70
     1
  0
VPORT
  5
29
330
8
100
AcDbSymbolTableRecord
100
AcDbViewportTableRecord
  2
*Active
 70
     0
 10
0.0
 20
0.0
 11
1.0
 21
1.0
 12
10.42990654205607
 22
4.5
 13
0.0
 23
0.0
 14
0.5
 24
0.5
 15
0.5
 25
0.5
 16
0.0
 26
0.0
 36
1.0
 17
0.0
 27
0.0
 37
0.0
 40
9.0
 41
1.972972972850329
 42
50.0
 43
0.0
 44
0.0
 50
0.0
 51
0.0
 71
     0
 72
   100
 73
     1
 74
     3
 75
     0
 76
     0
 77
     0
 78
     0
281
     0
 65
     1
110
0.0
120
0.0
130
0.0
111
1.0
121
0.0
131
0.0
112
0.0
122
1.0
132
0.0
 79
     0
146
0.0
 60
     3
 61
     5
292
     1
282
     1
141
0.0
142
0.0
 63
   250
  0
ENDTAB
  0
TABLE
  2
LTYPE
  5
5
330
0
100
AcDbSymbolTable
 70
     1
  0
LTYPE
  5
14
330
5
100
AcDbSymbolTableRecord
100
AcDbLinetypeTableRecord
  2
ByBlock
 70
     0
  3

 72
    65
 73
     0
 40
0.0
  0
LTYPE
  5
15
330
5
100
AcDbSymbolTableRecord
100
AcDbLinetypeTableRecord
  2
ByLayer
 70
     0
  3

 72
    65
 73
     0
 40
0.0
  0
LTYPE
  5
16
330
5
100
AcDbSymbolTableRecord
100
AcDbLinetypeTableRecord
  2
Continuous
 70
     0
  3
Solid line
 72
    65
 73
     0
 40
0.0
  0
ENDTAB
  0
TABLE
  2
LAYER
  5
2
330
0
100
AcDbSymbolTable
 70
     2
  0
LAYER
  5
10
330
2
100
AcDbSymbolTableRecord
100
AcDbLayerTableRecord
  2
0
 70
     0
 62
     7
  6
Continuous
370
    -3
390
F
347
3E
  0
LAYER
  5
40
330
2
100
AcDbSymbolTableRecord
100
AcDbLayerTableRecord
  2
layer 1
 70
     0
 62
     7
  6
Continuous
370
    -3
390
F
347
3E
  0
ENDTAB
  0
TABLE
  2
STYLE
  5
3
330
0
100
AcDbSymbolTable
 70
     1
  0
STYLE
  5
11
330
3
100
AcDbSymbolTableRecord
100
AcDbTextStyleTableRecord
  2
Standard
 70
     0
 40
0.0
 41
1.0
 50
0.0
 71
     0
 42
0.2
  3
txt
  4

  0
ENDTAB
  0
TABLE
  2
VIEW
  5
6
330
0
100
AcDbSymbolTable
 70
     0
  0
ENDTAB
  0
TABLE
  2
UCS
  5
7
330
0
100
AcDbSymbolTable
 70
     0
  0
ENDTAB
  0
TABLE
  2
APPID
  5
9
330
0
100
AcDbSymbolTable
 70
     2
  0
APPID
  5
12
330
9
100
AcDbSymbolTableRecord
100
AcDbRegAppTableRecord
  2
ACAD
 70
     0
  0
APPID
  5
3F
330
9
100
AcDbSymbolTableRecord
100
AcDbRegAppTableRecord
  2
ODA
 70
     0
  0
ENDTAB
  0
TABLE
  2
DIMSTYLE
  5
A
330
0
100
AcDbSymbolTable
 70
     1
100
AcDbDimStyleTable
  0
DIMSTYLE
105
27
330
A
100
AcDbSymbolTableRecord
100
AcDbDimStyleTableRecord
  2
Standard
 70
     0
178
     0
340
11
  0
ENDTAB
  0
TABLE
  2
BLOCK_RECORD
  5
1
330
0
100
AcDbSymbolTable
 70
     1
  0
BLOCK_RECORD
  5
1F
330
1
100
AcDbSymbolTableRecord
100
AcDbBlockTableRecord
  2
*Model_Space
340
22
 70
     0
280
     1
281
     0
  0
BLOCK_RECORD
  5
1B
330
1
100
AcDbSymbolTableRecord
100
AcDbBlockTableRecord
  2
*Paper_Space
340
1E
 70
     0
280
     1
281
     0
  0
BLOCK_RECORD
  5
23
330
1
100
AcDbSymbolTableRecord
100
AcDbBlockTableRecord
  2
*Paper_Space0
340
26
 70
     0
280
     1
281
     0
  0
ENDTAB
  0
ENDSEC
  0
SECTION
  2
BLOCKS
  0
BLOCK
  5
20
330
1F
100
AcDbEntity
  8
0
100
AcDbBlockBegin
  2
*Model_Space
 70
     0
 10
0.0
 20
0.0
 30
0.0
  3
*Model_Space
  1

  0
ENDBLK
  5
21
330
1F
100
AcDbEntity
  8
0
100
AcDbBlockEnd
  0
BLOCK
  5
1C
330
1B
100
AcDbEntity
 67
     1
  8
0
100
AcDbBlockBegin
  2
*Paper_Space
 70
     0
 10
0.0
 20
0.0
 30
0.0
  3
*Paper_Space
  1

  0
ENDBLK
  5
1D
330
1B
100
AcDbEntity
 67
     1
  8
0
100
AcDbBlockEnd
  0
BLOCK
  5
24
330
23
100
AcDbEntity
  8
0
100
AcDbBlockBegin
  2
*Paper_Space0
 70
     0
 10
0.0
 20
0.0
 30
0.0
  3
*Paper_Space0
  1

  0
ENDBLK
  5
25
330
23
100
AcDbEntity
  8
0
100
AcDbBlockEnd
  0
ENDSEC
  0
SECTION
  2
ENTITIES
  0
LWPOLYLINE
  5
41
330
1F
100
AcDbEntity
  8
layer 1
 62
   250
370
     9
100
AcDbPolyline
 90
        5
 70
     1
 43
0.0
 10
-88.4001
 20
-114.9876
 10
35.0073
 20
-114.9876
 10
35.0073
 20
131.8272
 10
-88.4001
 20
131.8272
 10
-88.4001
 20
-114.9876
  0
SPLINE
  5
42
330
1F
100
AcDbEntity
  8
layer 1
 62
     7
100
AcDbSpline
210
0.0
220
0.0
230
1.0
 70
    11
 71
     3
 72
    20
 73
    16
 74
     0
 42
0.0000000001
 43
0.0000000001
 12
1.0
 22
0.0
 32
0.0
 13
1.0
 23
0.0
 33
0.0
 40
0.0
 40
0.0
 40
0.0
 40
0.0
 40
0.2
 40
0.2
 40
0.2
 40
0.2
 40
0.4
 40
0.4
 40
0.4
 40
0.4
 40
0.6
 40
0.6
 40
0.6
 40
0.6
 40
1.0
 40
1.0
 40
1.0
 40
1.0
 10
-44.8952
 20
113.7573
 30
0.0
 10
-44.8952
 20
113.7573
 30
0.0
 10
-8.8457
 20
113.7573
 30
0.0
 10
-8.8457
 20
113.7573
 30
0.0
 10
-8.8457
 20
113.7573
 30
0.0
 10
-8.8457
 20
113.7573
 30
0.0
 10
-8.8457
 20
107.6815
 30
0.0
 10
-8.8457
 20
107.6815
 30
0.0
 10
-8.8457
 20
107.6815
 30
0.0
 10
-8.8457
 20
107.6815
 30
0.0
 10
-44.8952
 20
107.6815
 30
0.0
 10
-44.8952
 20
107.6815
 30
0.0
 10
-44.8952
 20
107.6815
 30
0.0
 10
-44.8952
 20
107.6815
 30
0.0
 10
-44.8952
 20
113.7573
 30
0.0
 10
-44.8952
 20
113.7573
 30
0.0
  0
SPLINE
  5
43
330
1F
100
AcDbEntity
  8
layer 1
 62
     7
100
AcDbSpline
210
0.0
220
0.0
230
1.0
 70
    11
 71
     3
 72
    20
 73
    16
 74
     0
 42
0.0000000001
 43
0.0000000001
 12
1.0
 22
0.0
 32
0.0
 13
1.0
 23
0.0
 33
0.0
 40
0.0
 40
0.0
 40
0.0
 40
0.0
 40
0.2
 40
0.2
 40
0.2
 40
0.2
 40
0.4
 40
0.4
 40
0.4
 40
0.4
 40
0.6
 40
0.6
 40
0.6
 40
0.6
 40
1.0
 40
1.0
 40
1.0
 40
1.0
 10
-44.8952
 20
103.5881
 30
0.0
 10
-44.8952
 20
103.5881
 30
0.0
 10
-8.8457
 20
103.5881
 30
0.0
 10
-8.8457
 20
103.5881
 30
0.0
 10
-8.8457
 20
103.5881
 30
0.0
 10
-8.8457
 20
103.5881
 30
0.0
 10
-8.8457
 20
97.5123
 30
0.0
 10
-8.8457
 20
97.5123
 30
0.0
 10
-8.8457
 20
97.5123
 30
0.0
 10
-8.8457
 20
97.5123
 30
0.0
 10
-44.8952
 20
97.5123
 30
0.0
 10
-44.8952
 20
97.5123
 30
0.0
 10
-44.8952
 20
97.5123
 30
0.0
 10
-44.8952
 20
97.5123
 30
0.0
 10
-44.8952
 20
103.5881
 30
0.0
 10
-44.8952
 20
103.5881
 30
0.0
  0
SPLINE
  5
44
330
1F
100
AcDbEntity
  8
layer 1
 62
     7
100
AcDbSpline
210
0.0
220
0.0
230
1.0
 70
    11
 71
     3
 72
    36
 73
    32
 74
     0
 42
0.0000000001
 43
0.0000000001
 12
1.0
 22
0.0
 32
0.0
 13
1.0
 23
0.0
 33
0.0
 40
0.0
 40
0.0
 40
0.0
 40
0.0
 40
0.1111111111111111
 40
0.1111111111111111
 40
0.1111111111111111
 40
0.1111111111111111
 40
0.2222222222222222
 40
0.2222222222222222
 40
0.2222222222222222
 40
0.2222222222222222
 40
0.3333333333333333
 40
0.3333333333333333
 40
0.3333333333333333
 40
0.3333333333333333
 40
0.4444444444444444
 40
0.4444444444444444
 40
0.4444444444444444
 40
0.4444444444444444
 40
0.5555555555555556
 40
0.5555555555555556
 40
0.5555555555555556
 40
0.5555555555555556
 40
0.6666666666666666
 40
0.6666666666666666
 40
0.6666666666666666
 40
0.6666666666666666
 40
0.7777777777777778
 40
0.7777777777777778
 40
0.7777777777777778
 40
0.7777777777777778
 40
1.0
 40
1.0
 40
1.0
 40
1.0
 10
-81.1472
 20
103.7429
 30
0.0
 10
-81.1472
 20
103.7429
 30
0.0
 10
-73.8968
 20
103.7429
 30
0.0
 10
-73.8968
 20
103.7429
 30
0.0
 10
-73.8968
 20
103.7429
 30
0.0
 10
-73.8968
 20
103.7429
 30
0.0
 10
-73.8968
 20
93.5215
 30
0.0
 10
-73.8968
 20
93.5215
 30
0.0
 10
-73.8968
 20
93.5215
 30
0.0
 10
-73.8968
 20
93.5215
 30
0.0
 10
-61.7453
 20
93.5123
 30
0.0
 10
-61.7453
 20
93.5123
 30
0.0
 10
-61.7453
 20
93.5123
 30
0.0
 10
-61.7453
 20
93.5123
 30
0.0
 10
-61.7453
 20
75.9261
 30
0.0
 10
-61.7453
 20
75.9261
 30
0.0
 10
-61.7453
 20
75.9261
 30
0.0
 10
-61.7453
 20
75.9261
 30
0.0
 10
-73.8881
 20
75.9246
 30
0.0
 10
-73.8881
 20
75.9246
 30
0.0
 10
-73.8881
 20
75.9246
 30
0.0
 10
-73.8881
 20
75.9246
 30
0.0
 10
-73.8881
 20
65.6373
 30
0.0
 10
-73.8881
 20
65.6373
 30
0.0
 10
-73.8881
 20
65.6373
 30
0.0
 10
-73.8881
 20
65.6373
 30
0.0
 10
-81.1472
 20
65.6373
 30
0.0
 10
-81.1472
 20
65.6373
 30
0.0
 10
-81.1472
 20
65.6373
 30
0.0
 10
-81.1472
 20
65.6373
 30
0.0
 10
-81.1472
 20
103.7429
 30
0.0
 10
-81.1472
 20
103.7429
 30
0.0
  0
SPLINE
  5
45
330
1F
100
AcDbEntity
  8
layer 1
 62
     7
100
AcDbSpline
210
0.0
220
0.0
230
1.0
 70
    11
 71
     3
 72
    36
 73
    32
 74
     0
 42
0.0000000001
 43
0.0000000001
 12
1.0
 22
0.0
 32
0.0
 13
1.0
 23
0.0
 33
0.0
 40
0.0
 40
0.0
 40
0.0
 40
0.0
 40
0.1111111111111111
 40
0.1111111111111111
 40
0.1111111111111111
 40
0.1111111111111111
 40
0.2222222222222222
 40
0.2222222222222222
 40
0.2222222222222222
 40
0.2222222222222222
 40
0.3333333333333333
 40
0.3333333333333333
 40
0.3333333333333333
 40
0.3333333333333333
 40
0.4444444444444444
 40
0.4444444444444444
 40
0.4444444444444444
 40
0.4444444444444444
 40
0.5555555555555556
 40
0.5555555555555556
 40
0.5555555555555556
 40
0.5555555555555556
 40
0.6666666666666666
 40
0.6666666666666666
 40
0.6666666666666666
 40
0.6666666666666666
 40
0.7777777777777778
 40
0.7777777777777778
 40
0.7777777777777778
 40
0.7777777777777778
 40
1.0
 40
1.0
 40
1.0
 40
1.0
 10
-69.2321
 20
103.7429
 30
0.0
 10
-69.2321
 20
103.7429
 30
0.0
 10
-49.6224
 20
103.7429
 30
0.0
 10
-49.6224
 20
103.7429
 30
0.0
 10
-49.6224
 20
103.7429
 30
0.0
 10
-49.6224
 20
103.7429
 30
0.0
 10
-49.6224
 20
93.5353
 30
0.0
 10
-49.6224
 20
93.5353
 30
0.0
 10
-49.6224
 20
93.5353
 30
0.0
 10
-49.6224
 20
93.5353
 30
0.0
 10
-37.6502
 20
93.5307
 30
0.0
 10
-37.6502
 20
93.5307
 30
0.0
 10
-37.6502
 20
93.5307
 30
0.0
 10
-37.6502
 20
93.5307
 30
0.0
 10
-37.6929
 20
86.2825
 30
0.0
 10
-37.6929
 20
86.2825
 30
0.0
 10
-37.6929
 20
86.2825
 30
0.0
 10
-37.6929
 20
86.2825
 30
0.0
 10
-56.9828
 20
86.281
 30
0.0
 10
-56.9828
 20
86.281
 30
0.0
 10
-56.9828
 20
86.281
 30
0.0
 10
-56.9828
 20
86.281
 30
0.0
 10
-56.9828
 20
97.6509
 30
0.0
 10
-56.9828
 20
97.6509
 30
0.0
 10
-56.9828
 20
97.6509
 30
0.0
 10
-56.9828
 20
97.6509
 30
0.0
 10
-69.2321
 20
97.6509
 30
0.0
 10
-69.2321
 20
97.6509
 30
0.0
 10
-69.2321
 20
97.6509
 30
0.0
 10
-69.2321
 20
97.6509
 30
0.0
 10
-69.2321
 20
103.7429
 30
0.0
 10
-69.2321
 20
103.7429
 30
0.0
  0
SPLINE
  5
46
330
1F
100
AcDbEntity
  8
layer 1
 62
     7
100
AcDbSpline
210
0.0
220
0.0
230
1.0
 70
    11
 71
     3
 72
    36
 73
    32
 74
     0
 42
0.0000000001
 43
0.0000000001
 12
1.0
 22
0.0
 32
0.0
 13
1.0
 23
0.0
 33
0.0
 40
0.0
 40
0.0
 40
0.0
 40
0.0
 40
0.1111111111111111
 40
0.1111111111111111
 40
0.1111111111111111
 40
0.1111111111111111
 40
0.2222222222222222
 40
0.2222222222222222
 40
0.2222222222222222
 40
0.2222222222222222
 40
0.3333333333333333
 40
0.3333333333333333
 40
0.3333333333333333
 40
0.3333333333333333
 40
0.4444444444444444
 40
0.4444444444444444
 40
0.4444444444444444
 40
0.4444444444444444
 40
0.5555555555555556
 40
0.5555555555555556
 40
0.5555555555555556
 40
0.5555555555555556
 40
0.6666666666666666
 40
0.6666666666666666
 40
0.6666666666666666
 40
0.6666666666666666
 40
0.7777777777777778
 40
0.7777777777777778
 40
0.7777777777777778
 40
0.7777777777777778
 40
1.0
 40
1.0
 40
1.0
 40
1.0
 10
-69.2311
 20
107.8048
 30
0.0
 10
-69.2311
 20
107.8048
 30
0.0
 10
-49.6214
 20
107.8048
 30
0.0
 10
-49.6214
 20
107.8048
 30
0.0
 10
-49.6214
 20
107.8048
 30
0.0
 10
-49.6214
 20
107.8048
 30
0.0
 10
-49.6214
 20
118.0124
 30
0.0
 10
-49.6214
 20
118.0124
 30
0.0
 10
-49.6214
 20
118.0124
 30
0.0
 10
-49.6214
 20
118.0124
 30
0.0
 10
-37.6493
 20
118.017
 30
0.0
 10
-37.6493
 20
118.017
 30
0.0
 10
-37.6493
 20
118.017
 30
0.0
 10
-37.6493
 20
118.017
 30
0.0
 10
-37.6919
 20
125.2652
 30
0.0
 10
-37.6919
 20
125.2652
 30
0.0
 10
-37.6919
 20
125.2652
 30
0.0
 10
-37.6919
 20
125.2652
 30
0.0
 10
-56.9818
 20
125.2667
 30
0.0
 10
-56.9818
 20
125.2667
 30
0.0
 10
-56.9818
 20
125.2667
 30
0.0
 10
-56.9818
 20
125.2667
 30
0.0
 10
-56.9818
 20
113.8968
 30
0.0
 10
-56.9818
 20
113.8968
 30
0.0
 10
-56.9818
 20
113.8968
 30
0.0
 10
-56.9818
 20
113.8968
 30
0.0
 10
-69.2311
 20
113.8968
 30
0.0
 10
-69.2311
 20
113.8968
 30
0.0
 10
-69.2311
 20
113.8968
 30
0.0
 10
-69.2311
 20
113.8968
 30
0.0
 10
-69.2311
 20
107.8048
 30
0.0
 10
-69.2311
 20
107.8048
 30
0.0
  0
SPLINE
  5
47
330
1F
100
AcDbEntity
  8
layer 1
 62
     7
100
AcDbSpline
210
0.0
220
0.0
230
1.0
 70
    11
 71
     3
 72
    20
 73
    16
 74
     0
 42
0.0000000001
 43
0.0000000001
 12
1.0
 22
0.0
 32
0.0
 13
1.0
 23
0.0
 33
0.0
 40
0.0
 40
0.0
 40
0.0
 40
0.0
 40
0.2
 40
0.2
 40
0.2
 40
0.2
 40
0.4
 40
0.4
 40
0.4
 40
0.4
 40
0.6
 40
0.6
 40
0.6
 40
0.6
 40
1.0
 40
1.0
 40
1.0
 40
1.0
 10
-34.1663
 20
125.2286
 30
0.0
 10
-34.1663
 20
125.2286
 30
0.0
 10
-19.3316
 20
125.2286
 30
0.0
 10
-19.3316
 20
125.2286
 30
0.0
 10
-19.3316
 20
125.2286
 30
0.0
 10
-19.3316
 20
125.2286
 30
0.0
 10
-19.3316
 20
118.0992
 30
0.0
 10
-19.3316
 20
118.0992
 30
0.0
 10
-19.3316
 20
118.0992
 30
0.0
 10
-19.3316
 20
118.0992
 30
0.0
 10
-34.1663
 20
118.0992
 30
0.0
 10
-34.1663
 20
118.0992
 30
0.0
 10
-34.1663
 20
118.0992
 30
0.0
 10
-34.1663
 20
118.0992
 30
0.0
 10
-34.1663
 20
125.2286
 30
0.0
 10
-34.1663
 20
125.2286
 30
0.0
  0
SPLINE
  5
48
330
1F
100
AcDbEntity
  8
layer 1
 62
     7
100
AcDbSpline
210
0.0
220
0.0
230
1.0
 70
    11
 71
     3
 72
    28
 73
    24
 74
     0
 42
0.0000000001
 43
0.0000000001
 12
1.0
 22
0.0
 32
0.0
 13
1.0
 23
0.0
 33
0.0
 40
0.0
 40
0.0
 40
0.0
 40
0.0
 40
0.1428571428571428
 40
0.1428571428571428
 40
0.1428571428571428
 40
0.1428571428571428
 40
0.2857142857142857
 40
0.2857142857142857
 40
0.2857142857142857
 40
0.2857142857142857
 40
0.4285714285714285
 40
0.4285714285714285
 40
0.4285714285714285
 40
0.4285714285714285
 40
0.5714285714285714
 40
0.5714285714285714
 40
0.5714285714285714
 40
0.5714285714285714
 40
0.7142857142857143
 40
0.7142857142857143
 40
0.7142857142857143
 40
0.7142857142857143
 40
1.0
 40
1.0
 40
1.0
 40
1.0
 10
-81.0901
 20
107.8048
 30
0.0
 10
-81.0901
 20
107.8048
 30
0.0
 10
-73.7845
 20
107.8048
 30
0.0
 10
-73.7845
 20
107.8048
 30
0.0
 10
-73.7845
 20
107.8048
 30
0.0
 10
-73.7845
 20
107.8048
 30
0.0
 10
-73.7845
 20
118.0124
 30
0.0
 10
-73.7845
 20
118.0124
 30
0.0
 10
-73.7845
 20
118.0124
 30
0.0
 10
-73.7845
 20
118.0124
 30
0.0
 10
-61.8124
 20
118.017
 30
0.0
 10
-61.8124
 20
118.017
 30
0.0
 10
-61.8124
 20
118.017
 30
0.0
 10
-61.8124
 20
118.017
 30
0.0
 10
-61.8551
 20
125.2652
 30
0.0
 10
-61.8551
 20
125.2652
 30
0.0
 10
-61.8551
 20
125.2652
 30
0.0
 10
-61.8551
 20
125.2652
 30
0.0
 10
-81.1449
 20
125.2667
 30
0.0
 10
-81.1449
 20
125.2667
 30
0.0
 10
-81.1449
 20
125.2667
 30
0.0
 10
-81.1449
 20
125.2667
 30
0.0
 10
-81.0901
 20
107.8048
 30
0.0
 10
-81.0901
 20
107.8048
 30
0.0
  0
SPLINE
  5
49
330
1F
100
AcDbEntity
  8
layer 1
 62
     7
100
AcDbSpline
210
0.0
220
0.0
230
1.0
 70
    11
 71
     3
 72
    20
 73
    16
 74
     0
 42
0.0000000001
 43
0.0000000001
 12
1.0
 22
0.0
 32
0.0
 13
1.0
 23
0.0
 33
0.0
 40
0.0
 40
0.0
 40
0.0
 40
0.0
 40
0.2
 40
0.2
 40
0.2
 40
0.2
 40
0.4
 40
0.4
 40
0.4
 40
0.4
 40
0.6
 40
0.6
 40
0.6
 40
0.6
 40
1.0
 40
1.0
 40
1.0
 40
1.0
 10
-34.1663
 20
93.5413
 30
0.0
 10
-34.1663
 20
93.5413
 30
0.0
 10
-19.3316
 20
93.5413
 30
0.0
 10
-19.3316
 20
93.5413
 30
0.0
 10
-19.3316
 20
93.5413
 30
0.0
 10
-19.3316
 20
93.5413
 30
0.0
 10
-19.3316
 20
86.4119
 30
0.0
 10
-19.3316
 20
86.4119
 30
0.0
 10
-19.3316
 20
86.4119
 30
0.0
 10
-19.3316
 20
86.4119
 30
0.0
 10
-34.1663
 20
86.4119
 30
0.0
 10
-34.1663
 20
86.4119
 30
0.0
 10
-34.1663
 20
86.4119
 30
0.0
 10
-34.1663
 20
86.4119
 30
0.0
 10
-34.1663
 20
93.5413
 30
0.0
 10
-34.1663
 20
93.5413
 30
0.0
  0
SPLINE
  5
4A
330
1F
100
AcDbEntity
  8
layer 1
 62
     7
100
AcDbSpline
210
0.0
220
0.0
230
1.0
 70
    11
 71
     3
 72
    36
 73
    32
 74
     0
 42
0.0000000001
 43
0.0000000001
 12
1.0
 22
0.0
 32
0.0
 13
1.0
 23
0.0
 33
0.0
 40
0.0
 40
0.0
 40
0.0
 40
0.0
 40
0.1111111111111111
 40
0.1111111111111111
 40
0.1111111111111111
 40
0.1111111111111111
 40
0.2222222222222222
 40
0.2222222222222222
 40
0.2222222222222222
 40
0.2222222222222222
 40
0.3333333333333333
 40
0.3333333333333333
 40
0.3333333333333333
 40
0.3333333333333333
 40
0.4444444444444444
 40
0.4444444444444444
 40
0.4444444444444444
 40
0.4444444444444444
 40
0.5555555555555556
 40
0.5555555555555556
 40
0.5555555555555556
 40
0.5555555555555556
 40
0.6666666666666666
 40
0.6666666666666666
 40
0.6666666666666666
 40
0.6666666666666666
 40
0.7777777777777778
 40
0.7777777777777778
 40
0.7777777777777778
 40
0.7777777777777778
 40
1.0
 40
1.0
 40
1.0
 40
1.0
 10
27.7341
 20
103.7429
 30
0.0
 10
27.7341
 20
103.7429
 30
0.0
 10
20.4837
 20
103.7429
 30
0.0
 10
20.4837
 20
103.7429
 30
0.0
 10
20.4837
 20
103.7429
 30
0.0
 10
20.4837
 20
103.7429
 30
0.0
 10
20.4837
 20
93.5215
 30
0.0
 10
20.4837
 20
93.5215
 30
0.0
 10
20.4837
 20
93.5215
 30
0.0
 10
20.4837
 20
93.5215
 30
0.0
 10
8.3321
 20
93.5123
 30
0.0
 10
8.3321
 20
93.5123
 30
0.0
 10
8.3321
 20
93.5123
 30
0.0
 10
8.3321
 20
93.5123
 30
0.0
 10
8.3321
 20
75.9261
 30
0.0
 10
8.3321
 20
75.9261
 30
0.0
 10
8.3321
 20
75.9261
 30
0.0
 10
8.3321
 20
75.9261
 30
0.0
 10
20.475
 20
75.9246
 30
0.0
 10
20.475
 20
75.9246
 30
0.0
 10
20.475
 20
75.9246
 30
0.0
 10
20.475
 20
75.9246
 30
0.0
 10
20.475
 20
65.6373
 30
0.0
 10
20.475
 20
65.6373
 30
0.0
 10
20.475
 20
65.6373
 30
0.0
 10
20.475
 20
65.6373
 30
0.0
 10
27.7341
 20
65.6373
 30
0.0
 10
27.7341
 20
65.6373
 30
0.0
 10
27.7341
 20
65.6373
 30
0.0
 10
27.7341
 20
65.6373
 30
0.0
 10
27.7341
 20
103.7429
 30
0.0
 10
27.7341
 20
103.7429
 30
0.0
  0
SPLINE
  5
4B
330
1F
100
AcDbEntity
  8
layer 1
 62
     7
100
AcDbSpline
210
0.0
220
0.0
230
1.0
 70
    11
 71
     3
 72
    36
 73
    32
 74
     0
 42
0.0000000001
 43
0.0000000001
 12
1.0
 22
0.0
 32
0.0
 13
1.0
 23
0.0
 33
0.0
 40
0.0
 40
0.0
 40
0.0
 40
0.0
 40
0.1111111111111111
 40
0.1111111111111111
 40
0.1111111111111111
 40
0.1111111111111111
 40
0.2222222222222222
 40
0.2222222222222222
 40
0.2222222222222222
 40
0.2222222222222222
 40
0.3333333333333333
 40
0.3333333333333333
 40
0.3333333333333333
 40
0.3333333333333333
 40
0.4444444444444444
 40
0.4444444444444444
 40
0.4444444444444444
 40
0.4444444444444444
 40
0.5555555555555556
 40
0.5555555555555556
 40
0.5555555555555556
 40
0.5555555555555556
 40
0.6666666666666666
 40
0.6666666666666666
 40
0.6666666666666666
 40
0.6666666666666666
 40
0.7777777777777778
 40
0.7777777777777778
 40
0.7777777777777778
 40
0.7777777777777778
 40
1.0
 40
1.0
 40
1.0
 40
1.0
 10
15.8189
 20
103.7429
 30
0.0
 10
15.8189
 20
103.7429
 30
0.0
 10
-3.7908
 20
103.7429
 30
0.0
 10
-3.7908
 20
103.7429
 30
0.0
 10
-3.7908
 20
103.7429
 30
0.0
 10
-3.7908
 20
103.7429
 30
0.0
 10
-3.7908
 20
93.5353
 30
0.0
 10
-3.7908
 20
93.5353
 30
0.0
 10
-3.7908
 20
93.5353
 30
0.0
 10
-3.7908
 20
93.5353
 30
0.0
 10
-15.7629
 20
93.5307
 30
0.0
 10
-15.7629
 20
93.5307
 30
0.0
 10
-15.7629
 20
93.5307
 30
0.0
 10
-15.7629
 20
93.5307
 30
0.0
 10
-15.7202
 20
86.2825
 30
0.0
 10
-15.7202
 20
86.2825
 30
0.0
 10
-15.7202
 20
86.2825
 30
0.0
 10
-15.7202
 20
86.2825
 30
0.0
 10
3.5696
 20
86.281
 30
0.0
 10
3.5696
 20
86.281
 30
0.0
 10
3.5696
 20
86.281
 30
0.0
 10
3.5696
 20
86.281
 30
0.0
 10
3.5696
 20
97.6509
 30
0.0
 10
3.5696
 20
97.6509
 30
0.0
 10
3.5696
 20
97.6509
 30
0.0
 10
3.5696
 20
97.6509
 30
0.0
 10
15.8189
 20
97.6509
 30
0.0
 10
15.8189
 20
97.6509
 30
0.0
 10
15.8189
 20
97.6509
 30
0.0
 10
15.8189
 20
97.6509
 30
0.0
 10
15.8189
 20
103.7429
 30
0.0
 10
15.8189
 20
103.7429
 30
0.0
  0
SPLINE
  5
4C
330
1F
100
AcDbEntity
  8
layer 1
 62
     7
100
AcDbSpline
210
0.0
220
0.0
230
1.0
 70
    11
 71
     3
 72
    36
 73
    32
 74
     0
 42
0.0000000001
 43
0.0000000001
 12
1.0
 22
0.0
 32
0.0
 13
1.0
 23
0.0
 33
0.0
 40
0.0
 40
0.0
 40
0.0
 40
0.0
 40
0.1111111111111111
 40
0.1111111111111111
 40
0.1111111111111111
 40
0.1111111111111111
 40
0.2222222222222222
 40
0.2222222222222222
 40
0.2222222222222222
 40
0.2222222222222222
 40
0.3333333333333333
 40
0.3333333333333333
 40
0.3333333333333333
 40
0.3333333333333333
 40
0.4444444444444444
 40
0.4444444444444444
 40
0.4444444444444444
 40
0.4444444444444444
 40
0.5555555555555556
 40
0.5555555555555556
 40
0.5555555555555556
 40
0.5555555555555556
 40
0.6666666666666666
 40
0.6666666666666666
 40
0.6666666666666666
 40
0.6666666666666666
 40
0.7777777777777778
 40
0.7777777777777778
 40
0.7777777777777778
 40
0.7777777777777778
 40
1.0
 40
1.0
 40
1.0
 40
1.0
 10
15.818
 20
107.8048
 30
0.0
 10
15.818
 20
107.8048
 30
0.0
 10
-3.7918
 20
107.8048
 30
0.0
 10
-3.7918
 20
107.8048
 30
0.0
 10
-3.7918
 20
107.8048
 30
0.0
 10
-3.7918
 20
107.8048
 30
0.0
 10
-3.7918
 20
118.0124
 30
0.0
 10
-3.7918
 20
118.0124
 30
0.0
 10
-3.7918
 20
118.0124
 30
0.0
 10
-3.7918
 20
118.0124
 30
0.0
 10
-15.7639
 20
118.017
 30
0.0
 10
-15.7639
 20
118.017
 30
0.0
 10
-15.7639
 20
118.017
 30
0.0
 10
-15.7639
 20
118.017
 30
0.0
 10
-15.7212
 20
125.2652
 30
0.0
 10
-15.7212
 20
125.2652
 30
0.0
 10
-15.7212
 20
125.2652
 30
0.0
 10
-15.7212
 20
125.2652
 30
0.0
 10
3.5687
 20
125.2667
 30
0.0
 10
3.5687
 20
125.2667
 30
0.0
 10
3.5687
 20
125.2667
 30
0.0
 10
3.5687
 20
125.2667
 30
0.0
 10
3.5687
 20
113.8968
 30
0.0
 10
3.5687
 20
113.8968
 30
0.0
 10
3.5687
 20
113.8968
 30
0.0
 10
3.5687
 20
113.8968
 30
0.0
 10
15.818
 20
113.8968
 30
0.0
 10
15.818
 20
113.8968
 30
0.0
 10
15.818
 20
113.8968
 30
0.0
 10
15.818
 20
113.8968
 30
0.0
 10
15.818
 20
107.8048
 30
0.0
 10
15.818
 20
107.8048
 30
0.0
  0
SPLINE
  5
4D
330
1F
100
AcDbEntity
  8
layer 1
 62
     7
100
AcDbSpline
210
0.0
220
0.0
230
1.0
 70
    11
 71
     3
 72
    28
 73
    24
 74
     0
 42
0.0000000001
 43
0.0000000001
 12
1.0
 22
0.0
 32
0.0
 13
1.0
 23
0.0
 33
0.0
 40
0.0
 40
0.0
 40
0.0
 40
0.0
 40
0.1428571428571428
 40
0.1428571428571428
 40
0.1428571428571428
 40
0.1428571428571428
 40
0.2857142857142857
 40
0.2857142857142857
 40
0.2857142857142857
 40
0.2857142857142857
 40
0.4285714285714285
 40
0.4285714285714285
 40
0.4285714285714285
 40
0.4285714285714285
 40
0.5714285714285714
 40
0.5714285714285714
 40
0.5714285714285714
 40
0.5714285714285714
 40
0.7142857142857143
 40
0.7142857142857143
 40
0.7142857142857143
 40
0.7142857142857143
 40
1.0
 40
1.0
 40
1.0
 40
1.0
 10
27.6769
 20
107.8048
 30
0.0
 10
27.6769
 20
107.8048
 30
0.0
 10
20.3713
 20
107.8048
 30
0.0
 10
20.3713
 20
107.8048
 30
0.0
 10
20.3713
 20
107.8048
 30
0.0
 10
20.3713
 20
107.8048
 30
0.0
 10
20.3713
 20
118.0124
 30
0.0
 10
20.3713
 20
118.0124
 30
0.0
 10
20.3713
 20
118.0124
 30
0.0
 10
20.3713
 20
118.0124
 30
0.0
 10
8.3992
 20
118.017
 30
0.0
 10
8.3992
 20
118.017
 30
0.0
 10
8.3992
 20
118.017
 30
0.0
 10
8.3992
 20
118.017
 30
0.0
 10
8.4419
 20
125.2652
 30
0.0
 10
8.4419
 20
125.2652
 30
0.0
 10
8.4419
 20
125.2652
 30
0.0
 10
8.4419
 20
125.2652
 30
0.0
 10
27.7318
 20
125.2667
 30
0.0
 10
27.7318
 20
125.2667
 30
0.0
 10
27.7318
 20
125.2667
 30
0.0
 10
27.7318
 20
125.2667
 30
0.0
 10
27.6769
 20
107.8048
 30
0.0
 10
27.6769
 20
107.8048
 30
0.0
  0
SPLINE
  5
4E
330
1F
100
AcDbEntity
  8
layer 1
 62
     7
100
AcDbSpline
210
0.0
220
0.0
230
1.0
 70
    11
 71
     3
 72
    20
 73
    16
 74
     0
 42
0.0000000001
 43
0.0000000001
 12
1.0
 22
0.0
 32
0.0
 13
1.0
 23
0.0
 33
0.0
 40
0.0
 40
0.0
 40
0.0
 40
0.0
 40
0.2
 40
0.2
 40
0.2
 40
0.2
 40
0.4
 40
0.4
 40
0.4
 40
0.4
 40
0.6
 40
0.6
 40
0.6
 40
0.6
 40
1.0
 40
1.0
 40
1.0
 40
1.0
 10
-44.8952
 20
71.4862
 30
0.0
 10
-44.8952
 20
71.4862
 30
0.0
 10
-8.8457
 20
71.4862
 30
0.0
 10
-8.8457
 20
71.4862
 30
0.0
 10
-8.8457
 20
71.4862
 30
0.0
 10
-8.8457
 20
71.4862
 30
0.0
 10
-8.8457
 20
65.4104
 30
0.0
 10
-8.8457
 20
65.4104
 30
0.0
 10
-8.8457
 20
65.4104
 30
0.0
 10
-8.8457
 20
65.4104
 30
0.0
 10
-44.8952
 20
65.4104
 30
0.0
 10
-44.8952
 20
65.4104
 30
0.0
 10
-44.8952
 20
65.4104
 30
0.0
 10
-44.8952
 20
65.4104
 30
0.0
 10
-44.8952
 20
71.4862
 30
0.0
 10
-44.8952
 20
71.4862
 30
0.0
  0
SPLINE
  5
4F
330
1F
100
AcDbEntity
  8
layer 1
 62
     7
100
AcDbSpline
210
0.0
220
0.0
230
1.0
 70
    11
 71
     3
 72
    20
 73
    16
 74
     0
 42
0.0000000001
 43
0.0000000001
 12
1.0
 22
0.0
 32
0.0
 13
1.0
 23
0.0
 33
0.0
 40
0.0
 40
0.0
 40
0.0
 40
0.0
 40
0.2
 40
0.2
 40
0.2
 40
0.2
 40
0.4
 40
0.4
 40
0.4
 40
0.4
 40
0.6
 40
0.6
 40
0.6
 40
0.6
 40
1.0
 40
1.0
 40
1.0
 40
1.0
 10
-44.8952
 20
61.317
 30
0.0
 10
-44.8952
 20
61.317
 30
0.0
 10
-8.8457
 20
61.317
 30
0.0
 10
-8.8457
 20
61.317
 30
0.0
 10
-8.8457
 20
61.317
 30
0.0
 10
-8.8457
 20
61.317
 30
0.0
 10
-8.8457
 20
55.2412
 30
0.0
 10
-8.8457
 20
55.2412
 30
0.0
 10
-8.8457
 20
55.2412
 30
0.0
 10
-8.8457
 20
55.2412
 30
0.0
 10
-44.8952
 20
55.2412
 30
0.0
 10
-44.8952
 20
55.2412
 30
0.0
 10
-44.8952
 20
55.2412
 30
0.0
 10
-44.8952
 20
55.2412
 30
0.0
 10
-44.8952
 20
61.317
 30
0.0
 10
-44.8952
 20
61.317
 30
0.0
  0
SPLINE
  5
50
330
1F
100
AcDbEntity
  8
layer 1
 62
     7
100
AcDbSpline
210
0.0
220
0.0
230
1.0
 70
    11
 71
     3
 72
    36
 73
    32
 74
     0
 42
0.0000000001
 43
0.0000000001
 12
1.0
 22
0.0
 32
0.0
 13
1.0
 23
0.0
 33
0.0
 40
0.0
 40
0.0
 40
0.0
 40
0.0
 40
0.1111111111111111
 40
0.1111111111111111
 40
0.1111111111111111
 40
0.1111111111111111
 40
0.2222222222222222
 40
0.2222222222222222
 40
0.2222222222222222
 40
0.2222222222222222
 40
0.3333333333333333
 40
0.3333333333333333
 40
0.3333333333333333
 40
0.3333333333333333
 40
0.4444444444444444
 40
0.4444444444444444
 40
0.4444444444444444
 40
0.4444444444444444
 40
0.5555555555555556
 40
0.5555555555555556
 40
0.5555555555555556
 40
0.5555555555555556
 40
0.6666666666666666
 40
0.6666666666666666
 40
0.6666666666666666
 40
0.6666666666666666
 40
0.7777777777777778
 40
0.7777777777777778
 40
0.7777777777777778
 40
0.7777777777777778
 40
1.0
 40
1.0
 40
1.0
 40
1.0
 10
-81.1472
 20
61.4718
 30
0.0
 10
-81.1472
 20
61.4718
 30
0.0
 10
-73.8968
 20
61.4718
 30
0.0
 10
-73.8968
 20
61.4718
 30
0.0
 10
-73.8968
 20
61.4718
 30
0.0
 10
-73.8968
 20
61.4718
 30
0.0
 10
-73.8968
 20
51.2504
 30
0.0
 10
-73.8968
 20
51.2504
 30
0.0
 10
-73.8968
 20
51.2504
 30
0.0
 10
-73.8968
 20
51.2504
 30
0.0
 10
-61.7453
 20
51.2412
 30
0.0
 10
-61.7453
 20
51.2412
 30
0.0
 10
-61.7453
 20
51.2412
 30
0.0
 10
-61.7453
 20
51.2412
 30
0.0
 10
-61.7453
 20
44.0635
 30
0.0
 10
-61.7453
 20
44.0635
 30
0.0
 10
-61.7453
 20
44.0635
 30
0.0
 10
-61.7453
 20
44.0635
 30
0.0
 10
-73.8881
 20
44.062
 30
0.0
 10
-73.8881
 20
44.062
 30
0.0
 10
-73.8881
 20
44.062
 30
0.0
 10
-73.8881
 20
44.062
 30
0.0
 10
-73.8881
 20
31.2001
 30
0.0
 10
-73.8881
 20
31.2001
 30
0.0
 10
-73.8881
 20
31.2001
 30
0.0
 10
-73.8881
 20
31.2001
 30
0.0
 10
-81.1472
 20
31.2001
 30
0.0
 10
-81.1472
 20
31.2001
 30
0.0
 10
-81.1472
 20
31.2001
 30
0.0
 10
-81.1472
 20
31.2001
 30
0.0
 10
-81.1472
 20
61.4718
 30
0.0
 10
-81.1472
 20
61.4718
 30
0.0
  0
SPLINE
  5
51
330
1F
100
AcDbEntity
  8
layer 1
 62
     7
100
AcDbSpline
210
0.0
220
0.0
230
1.0
 70
    11
 71
     3
 72
    36
 73
    32
 74
     0
 42
0.0000000001
 43
0.0000000001
 12
1.0
 22
0.0
 32
0.0
 13
1.0
 23
0.0
 33
0.0
 40
0.0
 40
0.0
 40
0.0
 40
0.0
 40
0.1111111111111111
 40
0.1111111111111111
 40
0.1111111111111111
 40
0.1111111111111111
 40
0.2222222222222222
 40
0.2222222222222222
 40
0.2222222222222222
 40
0.2222222222222222
 40
0.3333333333333333
 40
0.3333333333333333
 40
0.3333333333333333
 40
0.3333333333333333
 40
0.4444444444444444
 40
0.4444444444444444
 40
0.4444444444444444
 40
0.4444444444444444
 40
0.5555555555555556
 40
0.5555555555555556
 40
0.5555555555555556
 40
0.5555555555555556
 40
0.6666666666666666
 40
0.6666666666666666
 40
0.6666666666666666
 40
0.6666666666666666
 40
0.7777777777777778
 40
0.7777777777777778
 40
0.7777777777777778
 40
0.7777777777777778
 40
1.0
 40
1.0
 40
1.0
 40
1.0
 10
-69.2321
 20
61.4718
 30
0.0
 10
-69.2321
 20
61.4718
 30
0.0
 10
-49.6224
 20
61.4718
 30
0.0
 10
-49.6224
 20
61.4718
 30
0.0
 10
-49.6224
 20
61.4718
 30
0.0
 10
-49.6224
 20
61.4718
 30
0.0
 10
-49.6224
 20
51.2642
 30
0.0
 10
-49.6224
 20
51.2642
 30
0.0
 10
-49.6224
 20
51.2642
 30
0.0
 10
-49.6224
 20
51.2642
 30
0.0
 10
-37.6502
 20
51.2596
 30
0.0
 10
-37.6502
 20
51.2596
 30
0.0
 10
-37.6502
 20
51.2596
 30
0.0
 10
-37.6502
 20
51.2596
 30
0.0
 10
-37.6929
 20
44.0114
 30
0.0
 10
-37.6929
 20
44.0114
 30
0.0
 10
-37.6929
 20
44.0114
 30
0.0
 10
-37.6929
 20
44.0114
 30
0.0
 10
-56.9828
 20
44.0099
 30
0.0
 10
-56.9828
 20
44.0099
 30
0.0
 10
-56.9828
 20
44.0099
 30
0.0
 10
-56.9828
 20
44.0099
 30
0.0
 10
-56.9828
 20
55.3798
 30
0.0
 10
-56.9828
 20
55.3798
 30
0.0
 10
-56.9828
 20
55.3798
 30
0.0
 10
-56.9828
 20
55.3798
 30
0.0
 10
-69.2321
 20
55.3798
 30
0.0
 10
-69.2321
 20
55.3798
 30
0.0
 10
-69.2321
 20
55.3798
 30
0.0
 10
-69.2321
 20
55.3798
 30
0.0
 10
-69.2321
 20
61.4718
 30
0.0
 10
-69.2321
 20
61.4718
 30
0.0
  0
SPLINE
  5
52
330
1F
100
AcDbEntity
  8
layer 1
 62
     7
100
AcDbSpline
210
0.0
220
0.0
230
1.0
 70
    11
 71
     3
 72
    36
 73
    32
 74
     0
 42
0.0000000001
 43
0.0000000001
 12
1.0
 22
0.0
 32
0.0
 13
1.0
 23
0.0
 33
0.0
 40
0.0
 40
0.0
 40
0.0
 40
0.0
 40
0.1111111111111111
 40
0.1111111111111111
 40
0.1111111111111111
 40
0.1111111111111111
 40
0.2222222222222222
 40
0.2222222222222222
 40
0.2222222222222222
 40
0.2222222222222222
 40
0.3333333333333333
 40
0.3333333333333333
 40
0.3333333333333333
 40
0.3333333333333333
 40
0.4444444444444444
 40
0.4444444444444444
 40
0.4444444444444444
 40
0.4444444444444444
 40
0.5555555555555556
 40
0.5555555555555556
 40
0.5555555555555556
 40
0.5555555555555556
 40
0.6666666666666666
 40
0.6666666666666666
 40
0.6666666666666666
 40
0.6666666666666666
 40
0.7777777777777778
 40
0.7777777777777778
 40
0.7777777777777778
 40
0.7777777777777778
 40
1.0
 40
1.0
 40
1.0
 40
1.0
 10
-69.2311
 20
65.5337
 30
0.0
 10
-69.2311
 20
65.5337
 30
0.0
 10
-49.6214
 20
65.5337
 30
0.0
 10
-49.6214
 20
65.5337
 30
0.0
 10
-49.6214
 20
65.5337
 30
0.0
 10
-49.6214
 20
65.5337
 30
0.0
 10
-49.6214
 20
75.7413
 30
0.0
 10
-49.6214
 20
75.7413
 30
0.0
 10
-49.6214
 20
75.7413
 30
0.0
 10
-49.6214
 20
75.7413
 30
0.0
 10
-37.6493
 20
75.7459
 30
0.0
 10
-37.6493
 20
75.7459
 30
0.0
 10
-37.6493
 20
75.7459
 30
0.0
 10
-37.6493
 20
75.7459
 30
0.0
 10
-37.6919
 20
82.9941
 30
0.0
 10
-37.6919
 20
82.9941
 30
0.0
 10
-37.6919
 20
82.9941
 30
0.0
 10
-37.6919
 20
82.9941
 30
0.0
 10
-56.9818
 20
82.9957
 30
0.0
 10
-56.9818
 20
82.9957
 30
0.0
 10
-56.9818
 20
82.9957
 30
0.0
 10
-56.9818
 20
82.9957
 30
0.0
 10
-56.9818
 20
71.6258
 30
0.0
 10
-56.9818
 20
71.6258
 30
0.0
 10
-56.9818
 20
71.6258
 30
0.0
 10
-56.9818
 20
71.6258
 30
0.0
 10
-69.2311
 20
71.6258
 30
0.0
 10
-69.2311
 20
71.6258
 30
0.0
 10
-69.2311
 20
71.6258
 30
0.0
 10
-69.2311
 20
71.6258
 30
0.0
 10
-69.2311
 20
65.5337
 30
0.0
 10
-69.2311
 20
65.5337
 30
0.0
  0
SPLINE
  5
53
330
1F
100
AcDbEntity
  8
layer 1
 62
     7
100
AcDbSpline
210
0.0
220
0.0
230
1.0
 70
    11
 71
     3
 72
    20
 73
    16
 74
     0
 42
0.0000000001
 43
0.0000000001
 12
1.0
 22
0.0
 32
0.0
 13
1.0
 23
0.0
 33
0.0
 40
0.0
 40
0.0
 40
0.0
 40
0.0
 40
0.2
 40
0.2
 40
0.2
 40
0.2
 40
0.4
 40
0.4
 40
0.4
 40
0.4
 40
0.6
 40
0.6
 40
0.6
 40
0.6
 40
1.0
 40
1.0
 40
1.0
 40
1.0
 10
-34.1663
 20
82.9575
 30
0.0
 10
-34.1663
 20
82.9575
 30
0.0
 10
-19.3316
 20
82.9575
 30
0.0
 10
-19.3316
 20
82.9575
 30
0.0
 10
-19.3316
 20
82.9575
 30
0.0
 10
-19.3316
 20
82.9575
 30
0.0
 10
-19.3316
 20
75.8281
 30
0.0
 10
-19.3316
 20
75.8281
 30
0.0
 10
-19.3316
 20
75.8281
 30
0.0
 10
-19.3316
 20
75.8281
 30
0.0
 10
-34.1663
 20
75.8281
 30
0.0
 10
-34.1663
 20
75.8281
 30
0.0
 10
-34.1663
 20
75.8281
 30
0.0
 10
-34.1663
 20
75.8281
 30
0.0
 10
-34.1663
 20
82.9575
 30
0.0
 10
-34.1663
 20
82.9575
 30
0.0
  0
SPLINE
  5
54
330
1F
100
AcDbEntity
  8
layer 1
 62
     7
100
AcDbSpline
210
0.0
220
0.0
230
1.0
 70
    11
 71
     3
 72
    20
 73
    16
 74
     0
 42
0.0000000001
 43
0.0000000001
 12
1.0
 22
0.0
 32
0.0
 13
1.0
 23
0.0
 33
0.0
 40
0.0
 40
0.0
 40
0.0
 40
0.0
 40
0.2
 40
0.2
 40
0.2
 40
0.2
 40
0.4
 40
0.4
 40
0.4
 40
0.4
 40
0.6
 40
0.6
 40
0.6
 40
0.6
 40
1.0
 40
1.0
 40
1.0
 40
1.0
 10
-34.1663
 20
51.2702
 30
0.0
 10
-34.1663
 20
51.2702
 30
0.0
 10
-19.3316
 20
51.2702
 30
0.0
 10
-19.3316
 20
51.2702
 30
0.0
 10
-19.3316
 20
51.2702
 30
0.0
 10
-19.3316
 20
51.2702
 30
0.0
 10
-19.3316
 20
44.1409
 30
0.0
 10
-19.3316
 20
44.1409
 30
0.0
 10
-19.3316
 20
44.1409
 30
0.0
 10
-19.3316
 20
44.1409
 30
0.0
 10
-34.1663
 20
44.1409
 30
0.0
 10
-34.1663
 20
44.1409
 30
0.0
 10
-34.1663
 20
44.1409
 30
0.0
 10
-34.1663
 20
44.1409
 30
0.0
 10
-34.1663
 20
51.2702
 30
0.0
 10
-34.1663
 20
51.2702
 30
0.0
  0
SPLINE
  5
55
330
1F
100
AcDbEntity
  8
layer 1
 62
     7
100
AcDbSpline
210
0.0
220
0.0
230
1.0
 70
    11
 71
     3
 72
    36
 73
    32
 74
     0
 42
0.0000000001
 43
0.0000000001
 12
1.0
 22
0.0
 32
0.0
 13
1.0
 23
0.0
 33
0.0
 40
0.0
 40
0.0
 40
0.0
 40
0.0
 40
0.1111111111111111
 40
0.1111111111111111
 40
0.1111111111111111
 40
0.1111111111111111
 40
0.2222222222222222
 40
0.2222222222222222
 40
0.2222222222222222
 40
0.2222222222222222
 40
0.3333333333333333
 40
0.3333333333333333
 40
0.3333333333333333
 40
0.3333333333333333
 40
0.4444444444444444
 40
0.4444444444444444
 40
0.4444444444444444
 40
0.4444444444444444
 40
0.5555555555555556
 40
0.5555555555555556
 40
0.5555555555555556
 40
0.5555555555555556
 40
0.6666666666666666
 40
0.6666666666666666
 40
0.6666666666666666
 40
0.6666666666666666
 40
0.7777777777777778
 40
0.7777777777777778
 40
0.7777777777777778
 40
0.7777777777777778
 40
1.0
 40
1.0
 40
1.0
 40
1.0
 10
15.8189
 20
61.4718
 30
0.0
 10
15.8189
 20
61.4718
 30
0.0
 10
-3.7908
 20
61.4718
 30
0.0
 10
-3.7908
 20
61.4718
 30
0.0
 10
-3.7908
 20
61.4718
 30
0.0
 10
-3.7908
 20
61.4718
 30
0.0
 10
-3.7908
 20
51.2642
 30
0.0
 10
-3.7908
 20
51.2642
 30
0.0
 10
-3.7908
 20
51.2642
 30
0.0
 10
-3.7908
 20
51.2642
 30
0.0
 10
-15.7629
 20
51.2596
 30
0.0
 10
-15.7629
 20
51.2596
 30
0.0
 10
-15.7629
 20
51.2596
 30
0.0
 10
-15.7629
 20
51.2596
 30
0.0
 10
-15.7202
 20
44.0114
 30
0.0
 10
-15.7202
 20
44.0114
 30
0.0
 10
-15.7202
 20
44.0114
 30
0.0
 10
-15.7202
 20
44.0114
 30
0.0
 10
3.5696
 20
44.0099
 30
0.0
 10
3.5696
 20
44.0099
 30
0.0
 10
3.5696
 20
44.0099
 30
0.0
 10
3.5696
 20
44.0099
 30
0.0
 10
3.5696
 20
55.3798
 30
0.0
 10
3.5696
 20
55.3798
 30
0.0
 10
3.5696
 20
55.3798
 30
0.0
 10
3.5696
 20
55.3798
 30
0.0
 10
15.8189
 20
55.3798
 30
0.0
 10
15.8189
 20
55.3798
 30
0.0
 10
15.8189
 20
55.3798
 30
0.0
 10
15.8189
 20
55.3798
 30
0.0
 10
15.8189
 20
61.4718
 30
0.0
 10
15.8189
 20
61.4718
 30
0.0
  0
SPLINE
  5
56
330
1F
100
AcDbEntity
  8
layer 1
 62
     7
100
AcDbSpline
210
0.0
220
0.0
230
1.0
 70
    11
 71
     3
 72
    36
 73
    32
 74
     0
 42
0.0000000001
 43
0.0000000001
 12
1.0
 22
0.0
 32
0.0
 13
1.0
 23
0.0
 33
0.0
 40
0.0
 40
0.0
 40
0.0
 40
0.0
 40
0.1111111111111111
 40
0.1111111111111111
 40
0.1111111111111111
 40
0.1111111111111111
 40
0.2222222222222222
 40
0.2222222222222222
 40
0.2222222222222222
 40
0.2222222222222222
 40
0.3333333333333333
 40
0.3333333333333333
 40
0.3333333333333333
 40
0.3333333333333333
 40
0.4444444444444444
 40
0.4444444444444444
 40
0.4444444444444444
 40
0.4444444444444444
 40
0.5555555555555556
 40
0.5555555555555556
 40
0.5555555555555556
 40
0.5555555555555556
 40
0.6666666666666666
 40
0.6666666666666666
 40
0.6666666666666666
 40
0.6666666666666666
 40
0.7777777777777778
 40
0.7777777777777778
 40
0.7777777777777778
 40
0.7777777777777778
 40
1.0
 40
1.0
 40
1.0
 40
1.0
 10
15.818
 20
65.5337
 30
0.0
 10
15.818
 20
65.5337
 30
0.0
 10
-3.7918
 20
65.5337
 30
0.0
 10
-3.7918
 20
65.5337
 30
0.0
 10
-3.7918
 20
65.5337
 30
0.0
 10
-3.7918
 20
65.5337
 30
0.0
 10
-3.7918
 20
75.7413
 30
0.0
 10
-3.7918
 20
75.7413
 30
0.0
 10
-3.7918
 20
75.7413
 30
0.0
 10
-3.7918
 20
75.7413
 30
0.0
 10
-15.7639
 20
75.7459
 30
0.0
 10
-15.7639
 20
75.7459
 30
0.0
 10
-15.7639
 20
75.7459
 30
0.0
 10
-15.7639
 20
75.7459
 30
0.0
 10
-15.7212
 20
82.9941
 30
0.0
 10
-15.7212
 20
82.9941
 30
0.0
 10
-15.7212
 20
82.9941
 30
0.0
 10
-15.7212
 20
82.9941
 30
0.0
 10
3.5687
 20
82.9957
 30
0.0
 10
3.5687
 20
82.9957
 30
0.0
 10
3.5687
 20
82.9957
 30
0.0
 10
3.5687
 20
82.9957
 30
0.0
 10
3.5687
 20
71.6258
 30
0.0
 10
3.5687
 20
71.6258
 30
0.0
 10
3.5687
 20
71.6258
 30
0.0
 10
3.5687
 20
71.6258
 30
0.0
 10
15.818
 20
71.6258
 30
0.0
 10
15.818
 20
71.6258
 30
0.0
 10
15.818
 20
71.6258
 30
0.0
 10
15.818
 20
71.6258
 30
0.0
 10
15.818
 20
65.5337
 30
0.0
 10
15.818
 20
65.5337
 30
0.0
  0
SPLINE
  5
57
330
1F
100
AcDbEntity
  8
layer 1
 62
     7
100
AcDbSpline
210
0.0
220
0.0
230
1.0
 70
    11
 71
     3
 72
    36
 73
    32
 74
     0
 42
0.0000000001
 43
0.0000000001
 12
1.0
 22
0.0
 32
0.0
 13
1.0
 23
0.0
 33
0.0
 40
0.0
 40
0.0
 40
0.0
 40
0.0
 40
0.1111111111111111
 40
0.1111111111111111
 40
0.1111111111111111
 40
0.1111111111111111
 40
0.2222222222222222
 40
0.2222222222222222
 40
0.2222222222222222
 40
0.2222222222222222
 40
0.3333333333333333
 40
0.3333333333333333
 40
0.3333333333333333
 40
0.3333333333333333
 40
0.4444444444444444
 40
0.4444444444444444
 40
0.4444444444444444
 40
0.4444444444444444
 40
0.5555555555555556
 40
0.5555555555555556
 40
0.5555555555555556
 40
0.5555555555555556
 40
0.6666666666666666
 40
0.6666666666666666
 40
0.6666666666666666
 40
0.6666666666666666
 40
0.7777777777777778
 40
0.7777777777777778
 40
0.7777777777777778
 40
0.7777777777777778
 40
1.0
 40
1.0
 40
1.0
 40
1.0
 10
27.6508
 20
61.4718
 30
0.0
 10
27.6508
 20
61.4718
 30
0.0
 10
20.4005
 20
61.4718
 30
0.0
 10
20.4005
 20
61.4718
 30
0.0
 10
20.4005
 20
61.4718
 30
0.0
 10
20.4005
 20
61.4718
 30
0.0
 10
20.4005
 20
51.2504
 30
0.0
 10
20.4005
 20
51.2504
 30
0.0
 10
20.4005
 20
51.2504
 30
0.0
 10
20.4005
 20
51.2504
 30
0.0
 10
8.2489
 20
51.2412
 30
0.0
 10
8.2489
 20
51.2412
 30
0.0
 10
8.2489
 20
51.2412
 30
0.0
 10
8.2489
 20
51.2412
 30
0.0
 10
8.2489
 20
44.0635
 30
0.0
 10
8.2489
 20
44.0635
 30
0.0
 10
8.2489
 20
44.0635
 30
0.0
 10
8.2489
 20
44.0635
 30
0.0
 10
20.3917
 20
44.062
 30
0.0
 10
20.3917
 20
44.062
 30
0.0
 10
20.3917
 20
44.062
 30
0.0
 10
20.3917
 20
44.062
 30
0.0
 10
20.3917
 20
31.2001
 30
0.0
 10
20.3917
 20
31.2001
 30
0.0
 10
20.3917
 20
31.2001
 30
0.0
 10
20.3917
 20
31.2001
 30
0.0
 10
27.6508
 20
31.2001
 30
0.0
 10
27.6508
 20
31.2001
 30
0.0
 10
27.6508
 20
31.2001
 30
0.0
 10
27.6508
 20
31.2001
 30
0.0
 10
27.6508
 20
61.4718
 30
0.0
 10
27.6508
 20
61.4718
 30
0.0
  0
SPLINE
  5
58
330
1F
100
AcDbEntity
  8
layer 1
 62
     7
100
AcDbSpline
210
0.0
220
0.0
230
1.0
 70
    11
 71
     3
 72
    20
 73
    16
 74
     0
 42
0.0000000001
 43
0.0000000001
 12
1.0
 22
0.0
 32
0.0
 13
1.0
 23
0.0
 33
0.0
 40
0.0
 40
0.0
 40
0.0
 40
0.0
 40
0.2
 40
0.2
 40
0.2
 40
0.2
 40
0.4
 40
0.4
 40
0.4
 40
0.4
 40
0.6
 40
0.6
 40
0.6
 40
0.6
 40
1.0
 40
1.0
 40
1.0
 40
1.0
 10
-44.8952
 20
-96.9177
 30
0.0
 10
-44.8952
 20
-96.9177
 30
0.0
 10
-8.8457
 20
-96.9177
 30
0.0
 10
-8.8457
 20
-96.9177
 30
0.0
 10
-8.8457
 20
-96.9177
 30
0.0
 10
-8.8457
 20
-96.9177
 30
0.0
 10
-8.8457
 20
-90.8419
 30
0.0
 10
-8.8457
 20
-90.8419
 30
0.0
 10
-8.8457
 20
-90.8419
 30
0.0
 10
-8.8457
 20
-90.8419
 30
0.0
 10
-44.8952
 20
-90.8419
 30
0.0
 10
-44.8952
 20
-90.8419
 30
0.0
 10
-44.8952
 20
-90.8419
 30
0.0
 10
-44.8952
 20
-90.8419
 30
0.0
 10
-44.8952
 20
-96.9177
 30
0.0
 10
-44.8952
 20
-96.9177
 30
0.0
  0
SPLINE
  5
59
330
1F
100
AcDbEntity
  8
layer 1
 62
     7
100
AcDbSpline
210
0.0
220
0.0
230
1.0
 70
    11
 71
     3
 72
    20
 73
    16
 74
     0
 42
0.0000000001
 43
0.0000000001
 12
1.0
 22
0.0
 32
0.0
 13
1.0
 23
0.0
 33
0.0
 40
0.0
 40
0.0
 40
0.0
 40
0.0
 40
0.2
 40
0.2
 40
0.2
 40
0.2
 40
0.4
 40
0.4
 40
0.4
 40
0.4
 40
0.6
 40
0.6
 40
0.6
 40
0.6
 40
1.0
 40
1.0
 40
1.0
 40
1.0
 10
-44.8952
 20
-86.7484
 30
0.0
 10
-44.8952
 20
-86.7484
 30
0.0
 10
-8.8457
 20
-86.7484
 30
0.0
 10
-8.8457
 20
-86.7484
 30
0.0
 10
-8.8457
 20
-86.7484
 30
0.0
 10
-8.8457
 20
-86.7484
 30
0.0
 10
-8.8457
 20
-80.6727
 30
0.0
 10
-8.8457
 20
-80.6727
 30
0.0
 10
-8.8457
 20
-80.6727
 30
0.0
 10
-8.8457
 20
-80.6727
 30
0.0
 10
-44.8952
 20
-80.6727
 30
0.0
 10
-44.8952
 20
-80.6727
 30
0.0
 10
-44.8952
 20
-80.6727
 30
0.0
 10
-44.8952
 20
-80.6727
 30
0.0
 10
-44.8952
 20
-86.7484
 30
0.0
 10
-44.8952
 20
-86.7484
 30
0.0
  0
SPLINE
  5
5A
330
1F
100
AcDbEntity
  8
layer 1
 62
     7
100
AcDbSpline
210
0.0
220
0.0
230
1.0
 70
    11
 71
     3
 72
    36
 73
    32
 74
     0
 42
0.0000000001
 43
0.0000000001
 12
1.0
 22
0.0
 32
0.0
 13
1.0
 23
0.0
 33
0.0
 40
0.0
 40
0.0
 40
0.0
 40
0.0
 40
0.1111111111111111
 40
0.1111111111111111
 40
0.1111111111111111
 40
0.1111111111111111
 40
0.2222222222222222
 40
0.2222222222222222
 40
0.2222222222222222
 40
0.2222222222222222
 40
0.3333333333333333
 40
0.3333333333333333
 40
0.3333333333333333
 40
0.3333333333333333
 40
0.4444444444444444
 40
0.4444444444444444
 40
0.4444444444444444
 40
0.4444444444444444
 40
0.5555555555555556
 40
0.5555555555555556
 40
0.5555555555555556
 40
0.5555555555555556
 40
0.6666666666666666
 40
0.6666666666666666
 40
0.6666666666666666
 40
0.6666666666666666
 40
0.7777777777777778
 40
0.7777777777777778
 40
0.7777777777777778
 40
0.7777777777777778
 40
1.0
 40
1.0
 40
1.0
 40
1.0
 10
-81.1472
 20
-86.9033
 30
0.0
 10
-81.1472
 20
-86.9033
 30
0.0
 10
-73.8968
 20
-86.9033
 30
0.0
 10
-73.8968
 20
-86.9033
 30
0.0
 10
-73.8968
 20
-86.9033
 30
0.0
 10
-73.8968
 20
-86.9033
 30
0.0
 10
-73.8968
 20
-76.6819
 30
0.0
 10
-73.8968
 20
-76.6819
 30
0.0
 10
-73.8968
 20
-76.6819
 30
0.0
 10
-73.8968
 20
-76.6819
 30
0.0
 10
-61.7453
 20
-76.6727
 30
0.0
 10
-61.7453
 20
-76.6727
 30
0.0
 10
-61.7453
 20
-76.6727
 30
0.0
 10
-61.7453
 20
-76.6727
 30
0.0
 10
-61.7453
 20
-59.0865
 30
0.0
 10
-61.7453
 20
-59.0865
 30
0.0
 10
-61.7453
 20
-59.0865
 30
0.0
 10
-61.7453
 20
-59.0865
 30
0.0
 10
-73.8881
 20
-59.085
 30
0.0
 10
-73.8881
 20
-59.085
 30
0.0
 10
-73.8881
 20
-59.085
 30
0.0
 10
-73.8881
 20
-59.085
 30
0.0
 10
-73.8881
 20
-48.7976
 30
0.0
 10
-73.8881
 20
-48.7976
 30
0.0
 10
-73.8881
 20
-48.7976
 30
0.0
 10
-73.8881
 20
-48.7976
 30
0.0
 10
-81.1472
 20
-48.7976
 30
0.0
 10
-81.1472
 20
-48.7976
 30
0.0
 10
-81.1472
 20
-48.7976
 30
0.0
 10
-81.1472
 20
-48.7976
 30
0.0
 10
-81.1472
 20
-86.9033
 30
0.0
 10
-81.1472
 20
-86.9033
 30
0.0
  0
SPLINE
  5
5B
330
1F
100
AcDbEntity
  8
layer 1
 62
     7
100
AcDbSpline
210
0.0
220
0.0
230
1.0
 70
    11
 71
     3
 72
    36
 73
    32
 74
     0
 42
0.0000000001
 43
0.0000000001
 12
1.0
 22
0.0
 32
0.0
 13
1.0
 23
0.0
 33
0.0
 40
0.0
 40
0.0
 40
0.0
 40
0.0
 40
0.1111111111111111
 40
0.1111111111111111
 40
0.1111111111111111
 40
0.1111111111111111
 40
0.2222222222222222
 40
0.2222222222222222
 40
0.2222222222222222
 40
0.2222222222222222
 40
0.3333333333333333
 40
0.3333333333333333
 40
0.3333333333333333
 40
0.3333333333333333
 40
0.4444444444444444
 40
0.4444444444444444
 40
0.4444444444444444
 40
0.4444444444444444
 40
0.5555555555555556
 40
0.5555555555555556
 40
0.5555555555555556
 40
0.5555555555555556
 40
0.6666666666666666
 40
0.6666666666666666
 40
0.6666666666666666
 40
0.6666666666666666
 40
0.7777777777777778
 40
0.7777777777777778
 40
0.7777777777777778
 40
0.7777777777777778
 40
1.0
 40
1.0
 40
1.0
 40
1.0
 10
-69.2321
 20
-86.9033
 30
0.0
 10
-69.2321
 20
-86.9033
 30
0.0
 10
-49.6224
 20
-86.9033
 30
0.0
 10
-49.6224
 20
-86.9033
 30
0.0
 10
-49.6224
 20
-86.9033
 30
0.0
 10
-49.6224
 20
-86.9033
 30
0.0
 10
-49.6224
 20
-76.6957
 30
0.0
 10
-49.6224
 20
-76.6957
 30
0.0
 10
-49.6224
 20
-76.6957
 30
0.0
 10
-49.6224
 20
-76.6957
 30
0.0
 10
-37.6502
 20
-76.6911
 30
0.0
 10
-37.6502
 20
-76.6911
 30
0.0
 10
-37.6502
 20
-76.6911
 30
0.0
 10
-37.6502
 20
-76.6911
 30
0.0
 10
-37.6929
 20
-69.4429
 30
0.0
 10
-37.6929
 20
-69.4429
 30
0.0
 10
-37.6929
 20
-69.4429
 30
0.0
 10
-37.6929
 20
-69.4429
 30
0.0
 10
-56.9828
 20
-69.4413
 30
0.0
 10
-56.9828
 20
-69.4413
 30
0.0
 10
-56.9828
 20
-69.4413
 30
0.0
 10
-56.9828
 20
-69.4413
 30
0.0
 10
-56.9828
 20
-80.8112
 30
0.0
 10
-56.9828
 20
-80.8112
 30
0.0
 10
-56.9828
 20
-80.8112
 30
0.0
 10
-56.9828
 20
-80.8112
 30
0.0
 10
-69.2321
 20
-80.8112
 30
0.0
 10
-69.2321
 20
-80.8112
 30
0.0
 10
-69.2321
 20
-80.8112
 30
0.0
 10
-69.2321
 20
-80.8112
 30
0.0
 10
-69.2321
 20
-86.9033
 30
0.0
 10
-69.2321
 20
-86.9033
 30
0.0
  0
SPLINE
  5
5C
330
1F
100
AcDbEntity
  8
layer 1
 62
     7
100
AcDbSpline
210
0.0
220
0.0
230
1.0
 70
    11
 71
     3
 72
    36
 73
    32
 74
     0
 42
0.0000000001
 43
0.0000000001
 12
1.0
 22
0.0
 32
0.0
 13
1.0
 23
0.0
 33
0.0
 40
0.0
 40
0.0
 40
0.0
 40
0.0
 40
0.1111111111111111
 40
0.1111111111111111
 40
0.1111111111111111
 40
0.1111111111111111
 40
0.2222222222222222
 40
0.2222222222222222
 40
0.2222222222222222
 40
0.2222222222222222
 40
0.3333333333333333
 40
0.3333333333333333
 40
0.3333333333333333
 40
0.3333333333333333
 40
0.4444444444444444
 40
0.4444444444444444
 40
0.4444444444444444
 40
0.4444444444444444
 40
0.5555555555555556
 40
0.5555555555555556
 40
0.5555555555555556
 40
0.5555555555555556
 40
0.6666666666666666
 40
0.6666666666666666
 40
0.6666666666666666
 40
0.6666666666666666
 40
0.7777777777777778
 40
0.7777777777777778
 40
0.7777777777777778
 40
0.7777777777777778
 40
1.0
 40
1.0
 40
1.0
 40
1.0
 10
-69.2311
 20
-90.9652
 30
0.0
 10
-69.2311
 20
-90.9652
 30
0.0
 10
-49.6214
 20
-90.9652
 30
0.0
 10
-49.6214
 20
-90.9652
 30
0.0
 10
-49.6214
 20
-90.9652
 30
0.0
 10
-49.6214
 20
-90.9652
 30
0.0
 10
-49.6214
 20
-101.1728
 30
0.0
 10
-49.6214
 20
-101.1728
 30
0.0
 10
-49.6214
 20
-101.1728
 30
0.0
 10
-49.6214
 20
-101.1728
 30
0.0
 10
-37.6493
 20
-101.1774
 30
0.0
 10
-37.6493
 20
-101.1774
 30
0.0
 10
-37.6493
 20
-101.1774
 30
0.0
 10
-37.6493
 20
-101.1774
 30
0.0
 10
-37.6919
 20
-108.4256
 30
0.0
 10
-37.6919
 20
-108.4256
 30
0.0
 10
-37.6919
 20
-108.4256
 30
0.0
 10
-37.6919
 20
-108.4256
 30
0.0
 10
-56.9818
 20
-108.4271
 30
0.0
 10
-56.9818
 20
-108.4271
 30
0.0
 10
-56.9818
 20
-108.4271
 30
0.0
 10
-56.9818
 20
-108.4271
 30
0.0
 10
-56.9818
 20
-97.0572
 30
0.0
 10
-56.9818
 20
-97.0572
 30
0.0
 10
-56.9818
 20
-97.0572
 30
0.0
 10
-56.9818
 20
-97.0572
 30
0.0
 10
-69.2311
 20
-97.0572
 30
0.0
 10
-69.2311
 20
-97.0572
 30
0.0
 10
-69.2311
 20
-97.0572
 30
0.0
 10
-69.2311
 20
-97.0572
 30
0.0
 10
-69.2311
 20
-90.9652
 30
0.0
 10
-69.2311
 20
-90.9652
 30
0.0
  0
SPLINE
  5
5D
330
1F
100
AcDbEntity
  8
layer 1
 62
     7
100
AcDbSpline
210
0.0
220
0.0
230
1.0
 70
    11
 71
     3
 72
    20
 73
    16
 74
     0
 42
0.0000000001
 43
0.0000000001
 12
1.0
 22
0.0
 32
0.0
 13
1.0
 23
0.0
 33
0.0
 40
0.0
 40
0.0
 40
0.0
 40
0.0
 40
0.2
 40
0.2
 40
0.2
 40
0.2
 40
0.4
 40
0.4
 40
0.4
 40
0.4
 40
0.6
 40
0.6
 40
0.6
 40
0.6
 40
1.0
 40
1.0
 40
1.0
 40
1.0
 10
-34.1663
 20
-108.3889
 30
0.0
 10
-34.1663
 20
-108.3889
 30
0.0
 10
-19.3316
 20
-108.3889
 30
0.0
 10
-19.3316
 20
-108.3889
 30
0.0
 10
-19.3316
 20
-108.3889
 30
0.0
 10
-19.3316
 20
-108.3889
 30
0.0
 10
-19.3316
 20
-101.2596
 30
0.0
 10
-19.3316
 20
-101.2596
 30
0.0
 10
-19.3316
 20
-101.2596
 30
0.0
 10
-19.3316
 20
-101.2596
 30
0.0
 10
-34.1663
 20
-101.2596
 30
0.0
 10
-34.1663
 20
-101.2596
 30
0.0
 10
-34.1663
 20
-101.2596
 30
0.0
 10
-34.1663
 20
-101.2596
 30
0.0
 10
-34.1663
 20
-108.3889
 30
0.0
 10
-34.1663
 20
-108.3889
 30
0.0
  0
SPLINE
  5
5E
330
1F
100
AcDbEntity
  8
layer 1
 62
     7
100
AcDbSpline
210
0.0
220
0.0
230
1.0
 70
    11
 71
     3
 72
    28
 73
    24
 74
     0
 42
0.0000000001
 43
0.0000000001
 12
1.0
 22
0.0
 32
0.0
 13
1.0
 23
0.0
 33
0.0
 40
0.0
 40
0.0
 40
0.0
 40
0.0
 40
0.1428571428571428
 40
0.1428571428571428
 40
0.1428571428571428
 40
0.1428571428571428
 40
0.2857142857142857
 40
0.2857142857142857
 40
0.2857142857142857
 40
0.2857142857142857
 40
0.4285714285714285
 40
0.4285714285714285
 40
0.4285714285714285
 40
0.4285714285714285
 40
0.5714285714285714
 40
0.5714285714285714
 40
0.5714285714285714
 40
0.5714285714285714
 40
0.7142857142857143
 40
0.7142857142857143
 40
0.7142857142857143
 40
0.7142857142857143
 40
1.0
 40
1.0
 40
1.0
 40
1.0
 10
-81.0901
 20
-90.9652
 30
0.0
 10
-81.0901
 20
-90.9652
 30
0.0
 10
-73.7845
 20
-90.9652
 30
0.0
 10
-73.7845
 20
-90.9652
 30
0.0
 10
-73.7845
 20
-90.9652
 30
0.0
 10
-73.7845
 20
-90.9652
 30
0.0
 10
-73.7845
 20
-101.1728
 30
0.0
 10
-73.7845
 20
-101.1728
 30
0.0
 10
-73.7845
 20
-101.1728
 30
0.0
 10
-73.7845
 20
-101.1728
 30
0.0
 10
-61.8124
 20
-101.1774
 30
0.0
 10
-61.8124
 20
-101.1774
 30
0.0
 10
-61.8124
 20
-101.1774
 30
0.0
 10
-61.8124
 20
-101.1774
 30
0.0
 10
-61.8551
 20
-108.4256
 30
0.0
 10
-61.8551
 20
-108.4256
 30
0.0
 10
-61.8551
 20
-108.4256
 30
0.0
 10
-61.8551
 20
-108.4256
 30
0.0
 10
-81.1449
 20
-108.4271
 30
0.0
 10
-81.1449
 20
-108.4271
 30
0.0
 10
-81.1449
 20
-108.4271
 30
0.0
 10
-81.1449
 20
-108.4271
 30
0.0
 10
-81.0901
 20
-90.9652
 30
0.0
 10
-81.0901
 20
-90.9652
 30
0.0
  0
SPLINE
  5
5F
330
1F
100
AcDbEntity
  8
layer 1
 62
     7
100
AcDbSpline
210
0.0
220
0.0
230
1.0
 70
    11
 71
     3
 72
    20
 73
    16
 74
     0
 42
0.0000000001
 43
0.0000000001
 12
1.0
 22
0.0
 32
0.0
 13
1.0
 23
0.0
 33
0.0
 40
0.0
 40
0.0
 40
0.0
 40
0.0
 40
0.2
 40
0.2
 40
0.2
 40
0.2
 40
0.4
 40
0.4
 40
0.4
 40
0.4
 40
0.6
 40
0.6
 40
0.6
 40
0.6
 40
1.0
 40
1.0
 40
1.0
 40
1.0
 10
-34.1663
 20
-76.7017
 30
0.0
 10
-34.1663
 20
-76.7017
 30
0.0
 10
-19.3316
 20
-76.7017
 30
0.0
 10
-19.3316
 20
-76.7017
 30
0.0
 10
-19.3316
 20
-76.7017
 30
0.0
 10
-19.3316
 20
-76.7017
 30
0.0
 10
-19.3316
 20
-69.5723
 30
0.0
 10
-19.3316
 20
-69.5723
 30
0.0
 10
-19.3316
 20
-69.5723
 30
0.0
 10
-19.3316
 20
-69.5723
 30
0.0
 10
-34.1663
 20
-69.5723
 30
0.0
 10
-34.1663
 20
-69.5723
 30
0.0
 10
-34.1663
 20
-69.5723
 30
0.0
 10
-34.1663
 20
-69.5723
 30
0.0
 10
-34.1663
 20
-76.7017
 30
0.0
 10
-34.1663
 20
-76.7017
 30
0.0
  0
SPLINE
  5
60
330
1F
100
AcDbEntity
  8
layer 1
 62
     7
100
AcDbSpline
210
0.0
220
0.0
230
1.0
 70
    11
 71
     3
 72
    36
 73
    32
 74
     0
 42
0.0000000001
 43
0.0000000001
 12
1.0
 22
0.0
 32
0.0
 13
1.0
 23
0.0
 33
0.0
 40
0.0
 40
0.0
 40
0.0
 40
0.0
 40
0.1111111111111111
 40
0.1111111111111111
 40
0.1111111111111111
 40
0.1111111111111111
 40
0.2222222222222222
 40
0.2222222222222222
 40
0.2222222222222222
 40
0.2222222222222222
 40
0.3333333333333333
 40
0.3333333333333333
 40
0.3333333333333333
 40
0.3333333333333333
 40
0.4444444444444444
 40
0.4444444444444444
 40
0.4444444444444444
 40
0.4444444444444444
 40
0.5555555555555556
 40
0.5555555555555556
 40
0.5555555555555556
 40
0.5555555555555556
 40
0.6666666666666666
 40
0.6666666666666666
 40
0.6666666666666666
 40
0.6666666666666666
 40
0.7777777777777778
 40
0.7777777777777778
 40
0.7777777777777778
 40
0.7777777777777778
 40
1.0
 40
1.0
 40
1.0
 40
1.0
 10
27.7341
 20
-86.9033
 30
0.0
 10
27.7341
 20
-86.9033
 30
0.0
 10
20.4837
 20
-86.9033
 30
0.0
 10
20.4837
 20
-86.9033
 30
0.0
 10
20.4837
 20
-86.9033
 30
0.0
 10
20.4837
 20
-86.9033
 30
0.0
 10
20.4837
 20
-76.6819
 30
0.0
 10
20.4837
 20
-76.6819
 30
0.0
 10
20.4837
 20
-76.6819
 30
0.0
 10
20.4837
 20
-76.6819
 30
0.0
 10
8.3321
 20
-76.6727
 30
0.0
 10
8.3321
 20
-76.6727
 30
0.0
 10
8.3321
 20
-76.6727
 30
0.0
 10
8.3321
 20
-76.6727
 30
0.0
 10
8.3321
 20
-59.0865
 30
0.0
 10
8.3321
 20
-59.0865
 30
0.0
 10
8.3321
 20
-59.0865
 30
0.0
 10
8.3321
 20
-59.0865
 30
0.0
 10
20.475
 20
-59.085
 30
0.0
 10
20.475
 20
-59.085
 30
0.0
 10
20.475
 20
-59.085
 30
0.0
 10
20.475
 20
-59.085
 30
0.0
 10
20.475
 20
-48.7976
 30
0.0
 10
20.475
 20
-48.7976
 30
0.0
 10
20.475
 20
-48.7976
 30
0.0
 10
20.475
 20
-48.7976
 30
0.0
 10
27.7341
 20
-48.7976
 30
0.0
 10
27.7341
 20
-48.7976
 30
0.0
 10
27.7341
 20
-48.7976
 30
0.0
 10
27.7341
 20
-48.7976
 30
0.0
 10
27.7341
 20
-86.9033
 30
0.0
 10
27.7341
 20
-86.9033
 30
0.0
  0
SPLINE
  5
61
330
1F
100
AcDbEntity
  8
layer 1
 62
     7
100
AcDbSpline
210
0.0
220
0.0
230
1.0
 70
    11
 71
     3
 72
    36
 73
    32
 74
     0
 42
0.0000000001
 43
0.0000000001
 12
1.0
 22
0.0
 32
0.0
 13
1.0
 23
0.0
 33
0.0
 40
0.0
 40
0.0
 40
0.0
 40
0.0
 40
0.1111111111111111
 40
0.1111111111111111
 40
0.1111111111111111
 40
0.1111111111111111
 40
0.2222222222222222
 40
0.2222222222222222
 40
0.2222222222222222
 40
0.2222222222222222
 40
0.3333333333333333
 40
0.3333333333333333
 40
0.3333333333333333
 40
0.3333333333333333
 40
0.4444444444444444
 40
0.4444444444444444
 40
0.4444444444444444
 40
0.4444444444444444
 40
0.5555555555555556
 40
0.5555555555555556
 40
0.5555555555555556
 40
0.5555555555555556
 40
0.6666666666666666
 40
0.6666666666666666
 40
0.6666666666666666
 40
0.6666666666666666
 40
0.7777777777777778
 40
0.7777777777777778
 40
0.7777777777777778
 40
0.7777777777777778
 40
1.0
 40
1.0
 40
1.0
 40
1.0
 10
15.8189
 20
-86.9033
 30
0.0
 10
15.8189
 20
-86.9033
 30
0.0
 10
-3.7908
 20
-86.9033
 30
0.0
 10
-3.7908
 20
-86.9033
 30
0.0
 10
-3.7908
 20
-86.9033
 30
0.0
 10
-3.7908
 20
-86.9033
 30
0.0
 10
-3.7908
 20
-76.6957
 30
0.0
 10
-3.7908
 20
-76.6957
 30
0.0
 10
-3.7908
 20
-76.6957
 30
0.0
 10
-3.7908
 20
-76.6957
 30
0.0
 10
-15.7629
 20
-76.6911
 30
0.0
 10
-15.7629
 20
-76.6911
 30
0.0
 10
-15.7629
 20
-76.6911
 30
0.0
 10
-15.7629
 20
-76.6911
 30
0.0
 10
-15.7202
 20
-69.4429
 30
0.0
 10
-15.7202
 20
-69.4429
 30
0.0
 10
-15.7202
 20
-69.4429
 30
0.0
 10
-15.7202
 20
-69.4429
 30
0.0
 10
3.5696
 20
-69.4413
 30
0.0
 10
3.5696
 20
-69.4413
 30
0.0
 10
3.5696
 20
-69.4413
 30
0.0
 10
3.5696
 20
-69.4413
 30
0.0
 10
3.5696
 20
-80.8112
 30
0.0
 10
3.5696
 20
-80.8112
 30
0.0
 10
3.5696
 20
-80.8112
 30
0.0
 10
3.5696
 20
-80.8112
 30
0.0
 10
15.8189
 20
-80.8112
 30
0.0
 10
15.8189
 20
-80.8112
 30
0.0
 10
15.8189
 20
-80.8112
 30
0.0
 10
15.8189
 20
-80.8112
 30
0.0
 10
15.8189
 20
-86.9033
 30
0.0
 10
15.8189
 20
-86.9033
 30
0.0
  0
SPLINE
  5
62
330
1F
100
AcDbEntity
  8
layer 1
 62
     7
100
AcDbSpline
210
0.0
220
0.0
230
1.0
 70
    11
 71
     3
 72
    36
 73
    32
 74
     0
 42
0.0000000001
 43
0.0000000001
 12
1.0
 22
0.0
 32
0.0
 13
1.0
 23
0.0
 33
0.0
 40
0.0
 40
0.0
 40
0.0
 40
0.0
 40
0.1111111111111111
 40
0.1111111111111111
 40
0.1111111111111111
 40
0.1111111111111111
 40
0.2222222222222222
 40
0.2222222222222222
 40
0.2222222222222222
 40
0.2222222222222222
 40
0.3333333333333333
 40
0.3333333333333333
 40
0.3333333333333333
 40
0.3333333333333333
 40
0.4444444444444444
 40
0.4444444444444444
 40
0.4444444444444444
 40
0.4444444444444444
 40
0.5555555555555556
 40
0.5555555555555556
 40
0.5555555555555556
 40
0.5555555555555556
 40
0.6666666666666666
 40
0.6666666666666666
 40
0.6666666666666666
 40
0.6666666666666666
 40
0.7777777777777778
 40
0.7777777777777778
 40
0.7777777777777778
 40
0.7777777777777778
 40
1.0
 40
1.0
 40
1.0
 40
1.0
 10
15.818
 20
-90.9652
 30
0.0
 10
15.818
 20
-90.9652
 30
0.0
 10
-3.7918
 20
-90.9652
 30
0.0
 10
-3.7918
 20
-90.9652
 30
0.0
 10
-3.7918
 20
-90.9652
 30
0.0
 10
-3.7918
 20
-90.9652
 30
0.0
 10
-3.7918
 20
-101.1728
 30
0.0
 10
-3.7918
 20
-101.1728
 30
0.0
 10
-3.7918
 20
-101.1728
 30
0.0
 10
-3.7918
 20
-101.1728
 30
0.0
 10
-15.7639
 20
-101.1774
 30
0.0
 10
-15.7639
 20
-101.1774
 30
0.0
 10
-15.7639
 20
-101.1774
 30
0.0
 10
-15.7639
 20
-101.1774
 30
0.0
 10
-15.7212
 20
-108.4256
 30
0.0
 10
-15.7212
 20
-108.4256
 30
0.0
 10
-15.7212
 20
-108.4256
 30
0.0
 10
-15.7212
 20
-108.4256
 30
0.0
 10
3.5687
 20
-108.4271
 30
0.0
 10
3.5687
 20
-108.4271
 30
0.0
 10
3.5687
 20
-108.4271
 30
0.0
 10
3.5687
 20
-108.4271
 30
0.0
 10
3.5687
 20
-97.0572
 30
0.0
 10
3.5687
 20
-97.0572
 30
0.0
 10
3.5687
 20
-97.0572
 30
0.0
 10
3.5687
 20
-97.0572
 30
0.0
 10
15.818
 20
-97.0572
 30
0.0
 10
15.818
 20
-97.0572
 30
0.0
 10
15.818
 20
-97.0572
 30
0.0
 10
15.818
 20
-97.0572
 30
0.0
 10
15.818
 20
-90.9652
 30
0.0
 10
15.818
 20
-90.9652
 30
0.0
  0
SPLINE
  5
63
330
1F
100
AcDbEntity
  8
layer 1
 62
     7
100
AcDbSpline
210
0.0
220
0.0
230
1.0
 70
    11
 71
     3
 72
    28
 73
    24
 74
     0
 42
0.0000000001
 43
0.0000000001
 12
1.0
 22
0.0
 32
0.0
 13
1.0
 23
0.0
 33
0.0
 40
0.0
 40
0.0
 40
0.0
 40
0.0
 40
0.1428571428571428
 40
0.1428571428571428
 40
0.1428571428571428
 40
0.1428571428571428
 40
0.2857142857142857
 40
0.2857142857142857
 40
0.2857142857142857
 40
0.2857142857142857
 40
0.4285714285714285
 40
0.4285714285714285
 40
0.4285714285714285
 40
0.4285714285714285
 40
0.5714285714285714
 40
0.5714285714285714
 40
0.5714285714285714
 40
0.5714285714285714
 40
0.7142857142857143
 40
0.7142857142857143
 40
0.7142857142857143
 40
0.7142857142857143
 40
1.0
 40
1.0
 40
1.0
 40
1.0
 10
27.6769
 20
-90.9652
 30
0.0
 10
27.6769
 20
-90.9652
 30
0.0
 10
20.3713
 20
-90.9652
 30
0.0
 10
20.3713
 20
-90.9652
 30
0.0
 10
20.3713
 20
-90.9652
 30
0.0
 10
20.3713
 20
-90.9652
 30
0.0
 10
20.3713
 20
-101.1728
 30
0.0
 10
20.3713
 20
-101.1728
 30
0.0
 10
20.3713
 20
-101.1728
 30
0.0
 10
20.3713
 20
-101.1728
 30
0.0
 10
8.3992
 20
-101.1774
 30
0.0
 10
8.3992
 20
-101.1774
 30
0.0
 10
8.3992
 20
-101.1774
 30
0.0
 10
8.3992
 20
-101.1774
 30
0.0
 10
8.4419
 20
-108.4256
 30
0.0
 10
8.4419
 20
-108.4256
 30
0.0
 10
8.4419
 20
-108.4256
 30
0.0
 10
8.4419
 20
-108.4256
 30
0.0
 10
27.7318
 20
-108.4271
 30
0.0
 10
27.7318
 20
-108.4271
 30
0.0
 10
27.7318
 20
-108.4271
 30
0.0
 10
27.7318
 20
-108.4271
 30
0.0
 10
27.6769
 20
-90.9652
 30
0.0
 10
27.6769
 20
-90.9652
 30
0.0
  0
SPLINE
  5
64
330
1F
100
AcDbEntity
  8
layer 1
 62
     7
100
AcDbSpline
210
0.0
220
0.0
230
1.0
 70
    11
 71
     3
 72
    20
 73
    16
 74
     0
 42
0.0000000001
 43
0.0000000001
 12
1.0
 22
0.0
 32
0.0
 13
1.0
 23
0.0
 33
0.0
 40
0.0
 40
0.0
 40
0.0
 40
0.0
 40
0.2
 40
0.2
 40
0.2
 40
0.2
 40
0.4
 40
0.4
 40
0.4
 40
0.4
 40
0.6
 40
0.6
 40
0.6
 40
0.6
 40
1.0
 40
1.0
 40
1.0
 40
1.0
 10
-44.8952
 20
-54.6466
 30
0.0
 10
-44.8952
 20
-54.6466
 30
0.0
 10
-8.8457
 20
-54.6466
 30
0.0
 10
-8.8457
 20
-54.6466
 30
0.0
 10
-8.8457
 20
-54.6466
 30
0.0
 10
-8.8457
 20
-54.6466
 30
0.0
 10
-8.8457
 20
-48.5708
 30
0.0
 10
-8.8457
 20
-48.5708
 30
0.0
 10
-8.8457
 20
-48.5708
 30
0.0
 10
-8.8457
 20
-48.5708
 30
0.0
 10
-44.8952
 20
-48.5708
 30
0.0
 10
-44.8952
 20
-48.5708
 30
0.0
 10
-44.8952
 20
-48.5708
 30
0.0
 10
-44.8952
 20
-48.5708
 30
0.0
 10
-44.8952
 20
-54.6466
 30
0.0
 10
-44.8952
 20
-54.6466
 30
0.0
  0
SPLINE
  5
65
330
1F
100
AcDbEntity
  8
layer 1
 62
     7
100
AcDbSpline
210
0.0
220
0.0
230
1.0
 70
    11
 71
     3
 72
    20
 73
    16
 74
     0
 42
0.0000000001
 43
0.0000000001
 12
1.0
 22
0.0
 32
0.0
 13
1.0
 23
0.0
 33
0.0
 40
0.0
 40
0.0
 40
0.0
 40
0.0
 40
0.2
 40
0.2
 40
0.2
 40
0.2
 40
0.4
 40
0.4
 40
0.4
 40
0.4
 40
0.6
 40
0.6
 40
0.6
 40
0.6
 40
1.0
 40
1.0
 40
1.0
 40
1.0
 10
-44.8952
 20
-44.4774
 30
0.0
 10
-44.8952
 20
-44.4774
 30
0.0
 10
-8.8457
 20
-44.4774
 30
0.0
 10
-8.8457
 20
-44.4774
 30
0.0
 10
-8.8457
 20
-44.4774
 30
0.0
 10
-8.8457
 20
-44.4774
 30
0.0
 10
-8.8457
 20
-38.4016
 30
0.0
 10
-8.8457
 20
-38.4016
 30
0.0
 10
-8.8457
 20
-38.4016
 30
0.0
 10
-8.8457
 20
-38.4016
 30
0.0
 10
-44.8952
 20
-38.4016
 30
0.0
 10
-44.8952
 20
-38.4016
 30
0.0
 10
-44.8952
 20
-38.4016
 30
0.0
 10
-44.8952
 20
-38.4016
 30
0.0
 10
-44.8952
 20
-44.4774
 30
0.0
 10
-44.8952
 20
-44.4774
 30
0.0
  0
SPLINE
  5
66
330
1F
100
AcDbEntity
  8
layer 1
 62
     7
100
AcDbSpline
210
0.0
220
0.0
230
1.0
 70
    11
 71
     3
 72
    36
 73
    32
 74
     0
 42
0.0000000001
 43
0.0000000001
 12
1.0
 22
0.0
 32
0.0
 13
1.0
 23
0.0
 33
0.0
 40
0.0
 40
0.0
 40
0.0
 40
0.0
 40
0.1111111111111111
 40
0.1111111111111111
 40
0.1111111111111111
 40
0.1111111111111111
 40
0.2222222222222222
 40
0.2222222222222222
 40
0.2222222222222222
 40
0.2222222222222222
 40
0.3333333333333333
 40
0.3333333333333333
 40
0.3333333333333333
 40
0.3333333333333333
 40
0.4444444444444444
 40
0.4444444444444444
 40
0.4444444444444444
 40
0.4444444444444444
 40
0.5555555555555556
 40
0.5555555555555556
 40
0.5555555555555556
 40
0.5555555555555556
 40
0.6666666666666666
 40
0.6666666666666666
 40
0.6666666666666666
 40
0.6666666666666666
 40
0.7777777777777778
 40
0.7777777777777778
 40
0.7777777777777778
 40
0.7777777777777778
 40
1.0
 40
1.0
 40
1.0
 40
1.0
 10
-81.1472
 20
-44.6322
 30
0.0
 10
-81.1472
 20
-44.6322
 30
0.0
 10
-73.8968
 20
-44.6322
 30
0.0
 10
-73.8968
 20
-44.6322
 30
0.0
 10
-73.8968
 20
-44.6322
 30
0.0
 10
-73.8968
 20
-44.6322
 30
0.0
 10
-73.8968
 20
-34.4108
 30
0.0
 10
-73.8968
 20
-34.4108
 30
0.0
 10
-73.8968
 20
-34.4108
 30
0.0
 10
-73.8968
 20
-34.4108
 30
0.0
 10
-61.7453
 20
-34.4016
 30
0.0
 10
-61.7453
 20
-34.4016
 30
0.0
 10
-61.7453
 20
-34.4016
 30
0.0
 10
-61.7453
 20
-34.4016
 30
0.0
 10
-61.7453
 20
-27.2239
 30
0.0
 10
-61.7453
 20
-27.2239
 30
0.0
 10
-61.7453
 20
-27.2239
 30
0.0
 10
-61.7453
 20
-27.2239
 30
0.0
 10
-73.8881
 20
-27.2224
 30
0.0
 10
-73.8881
 20
-27.2224
 30
0.0
 10
-73.8881
 20
-27.2224
 30
0.0
 10
-73.8881
 20
-27.2224
 30
0.0
 10
-73.8881
 20
-17.7339
 30
0.0
 10
-73.8881
 20
-17.7339
 30
0.0
 10
-73.8881
 20
-17.7339
 30
0.0
 10
-73.8881
 20
-17.7339
 30
0.0
 10
-81.1472
 20
-17.7339
 30
0.0
 10
-81.1472
 20
-17.7339
 30
0.0
 10
-81.1472
 20
-17.7339
 30
0.0
 10
-81.1472
 20
-17.7339
 30
0.0
 10
-81.1472
 20
-44.6322
 30
0.0
 10
-81.1472
 20
-44.6322
 30
0.0
  0
SPLINE
  5
67
330
1F
100
AcDbEntity
  8
layer 1
 62
     7
100
AcDbSpline
210
0.0
220
0.0
230
1.0
 70
    11
 71
     3
 72
    36
 73
    32
 74
     0
 42
0.0000000001
 43
0.0000000001
 12
1.0
 22
0.0
 32
0.0
 13
1.0
 23
0.0
 33
0.0
 40
0.0
 40
0.0
 40
0.0
 40
0.0
 40
0.1111111111111111
 40
0.1111111111111111
 40
0.1111111111111111
 40
0.1111111111111111
 40
0.2222222222222222
 40
0.2222222222222222
 40
0.2222222222222222
 40
0.2222222222222222
 40
0.3333333333333333
 40
0.3333333333333333
 40
0.3333333333333333
 40
0.3333333333333333
 40
0.4444444444444444
 40
0.4444444444444444
 40
0.4444444444444444
 40
0.4444444444444444
 40
0.5555555555555556
 40
0.5555555555555556
 40
0.5555555555555556
 40
0.5555555555555556
 40
0.6666666666666666
 40
0.6666666666666666
 40
0.6666666666666666
 40
0.6666666666666666
 40
0.7777777777777778
 40
0.7777777777777778
 40
0.7777777777777778
 40
0.7777777777777778
 40
1.0
 40
1.0
 40
1.0
 40
1.0
 10
-69.2321
 20
-44.6322
 30
0.0
 10
-69.2321
 20
-44.6322
 30
0.0
 10
-49.6224
 20
-44.6322
 30
0.0
 10
-49.6224
 20
-44.6322
 30
0.0
 10
-49.6224
 20
-44.6322
 30
0.0
 10
-49.6224
 20
-44.6322
 30
0.0
 10
-49.6224
 20
-34.4246
 30
0.0
 10
-49.6224
 20
-34.4246
 30
0.0
 10
-49.6224
 20
-34.4246
 30
0.0
 10
-49.6224
 20
-34.4246
 30
0.0
 10
-37.6502
 20
-34.42
 30
0.0
 10
-37.6502
 20
-34.42
 30
0.0
 10
-37.6502
 20
-34.42
 30
0.0
 10
-37.6502
 20
-34.42
 30
0.0
 10
-37.6929
 20
-27.1718
 30
0.0
 10
-37.6929
 20
-27.1718
 30
0.0
 10
-37.6929
 20
-27.1718
 30
0.0
 10
-37.6929
 20
-27.1718
 30
0.0
 10
-56.9828
 20
-27.1703
 30
0.0
 10
-56.9828
 20
-27.1703
 30
0.0
 10
-56.9828
 20
-27.1703
 30
0.0
 10
-56.9828
 20
-27.1703
 30
0.0
 10
-56.9828
 20
-38.5402
 30
0.0
 10
-56.9828
 20
-38.5402
 30
0.0
 10
-56.9828
 20
-38.5402
 30
0.0
 10
-56.9828
 20
-38.5402
 30
0.0
 10
-69.2321
 20
-38.5402
 30
0.0
 10
-69.2321
 20
-38.5402
 30
0.0
 10
-69.2321
 20
-38.5402
 30
0.0
 10
-69.2321
 20
-38.5402
 30
0.0
 10
-69.2321
 20
-44.6322
 30
0.0
 10
-69.2321
 20
-44.6322
 30
0.0
  0
SPLINE
  5
68
330
1F
100
AcDbEntity
  8
layer 1
 62
     7
100
AcDbSpline
210
0.0
220
0.0
230
1.0
 70
    11
 71
     3
 72
    36
 73
    32
 74
     0
 42
0.0000000001
 43
0.0000000001
 12
1.0
 22
0.0
 32
0.0
 13
1.0
 23
0.0
 33
0.0
 40
0.0
 40
0.0
 40
0.0
 40
0.0
 40
0.1111111111111111
 40
0.1111111111111111
 40
0.1111111111111111
 40
0.1111111111111111
 40
0.2222222222222222
 40
0.2222222222222222
 40
0.2222222222222222
 40
0.2222222222222222
 40
0.3333333333333333
 40
0.3333333333333333
 40
0.3333333333333333
 40
0.3333333333333333
 40
0.4444444444444444
 40
0.4444444444444444
 40
0.4444444444444444
 40
0.4444444444444444
 40
0.5555555555555556
 40
0.5555555555555556
 40
0.5555555555555556
 40
0.5555555555555556
 40
0.6666666666666666
 40
0.6666666666666666
 40
0.6666666666666666
 40
0.6666666666666666
 40
0.7777777777777778
 40
0.7777777777777778
 40
0.7777777777777778
 40
0.7777777777777778
 40
1.0
 40
1.0
 40
1.0
 40
1.0
 10
-69.2311
 20
-48.6941
 30
0.0
 10
-69.2311
 20
-48.6941
 30
0.0
 10
-49.6214
 20
-48.6941
 30
0.0
 10
-49.6214
 20
-48.6941
 30
0.0
 10
-49.6214
 20
-48.6941
 30
0.0
 10
-49.6214
 20
-48.6941
 30
0.0
 10
-49.6214
 20
-58.9017
 30
0.0
 10
-49.6214
 20
-58.9017
 30
0.0
 10
-49.6214
 20
-58.9017
 30
0.0
 10
-49.6214
 20
-58.9017
 30
0.0
 10
-37.6493
 20
-58.9063
 30
0.0
 10
-37.6493
 20
-58.9063
 30
0.0
 10
-37.6493
 20
-58.9063
 30
0.0
 10
-37.6493
 20
-58.9063
 30
0.0
 10
-37.6919
 20
-66.1545
 30
0.0
 10
-37.6919
 20
-66.1545
 30
0.0
 10
-37.6919
 20
-66.1545
 30
0.0
 10
-37.6919
 20
-66.1545
 30
0.0
 10
-56.9818
 20
-66.156
 30
0.0
 10
-56.9818
 20
-66.156
 30
0.0
 10
-56.9818
 20
-66.156
 30
0.0
 10
-56.9818
 20
-66.156
 30
0.0
 10
-56.9818
 20
-54.7861
 30
0.0
 10
-56.9818
 20
-54.7861
 30
0.0
 10
-56.9818
 20
-54.7861
 30
0.0
 10
-56.9818
 20
-54.7861
 30
0.0
 10
-69.2311
 20
-54.7861
 30
0.0
 10
-69.2311
 20
-54.7861
 30
0.0
 10
-69.2311
 20
-54.7861
 30
0.0
 10
-69.2311
 20
-54.7861
 30
0.0
 10
-69.2311
 20
-48.6941
 30
0.0
 10
-69.2311
 20
-48.6941
 30
0.0
  0
SPLINE
  5
69
330
1F
100
AcDbEntity
  8
layer 1
 62
     7
100
AcDbSpline
210
0.0
220
0.0
230
1.0
 70
    11
 71
     3
 72
    20
 73
    16
 74
     0
 42
0.0000000001
 43
0.0000000001
 12
1.0
 22
0.0
 32
0.0
 13
1.0
 23
0.0
 33
0.0
 40
0.0
 40
0.0
 40
0.0
 40
0.0
 40
0.2
 40
0.2
 40
0.2
 40
0.2
 40
0.4
 40
0.4
 40
0.4
 40
0.4
 40
0.6
 40
0.6
 40
0.6
 40
0.6
 40
1.0
 40
1.0
 40
1.0
 40
1.0
 10
-34.1663
 20
-66.1179
 30
0.0
 10
-34.1663
 20
-66.1179
 30
0.0
 10
-19.3316
 20
-66.1179
 30
0.0
 10
-19.3316
 20
-66.1179
 30
0.0
 10
-19.3316
 20
-66.1179
 30
0.0
 10
-19.3316
 20
-66.1179
 30
0.0
 10
-19.3316
 20
-58.9885
 30
0.0
 10
-19.3316
 20
-58.9885
 30
0.0
 10
-19.3316
 20
-58.9885
 30
0.0
 10
-19.3316
 20
-58.9885
 30
0.0
 10
-34.1663
 20
-58.9885
 30
0.0
 10
-34.1663
 20
-58.9885
 30
0.0
 10
-34.1663
 20
-58.9885
 30
0.0
 10
-34.1663
 20
-58.9885
 30
0.0
 10
-34.1663
 20
-66.1179
 30
0.0
 10
-34.1663
 20
-66.1179
 30
0.0
  0
SPLINE
  5
6A
330
1F
100
AcDbEntity
  8
layer 1
 62
     7
100
AcDbSpline
210
0.0
220
0.0
230
1.0
 70
    11
 71
     3
 72
    20
 73
    16
 74
     0
 42
0.0000000001
 43
0.0000000001
 12
1.0
 22
0.0
 32
0.0
 13
1.0
 23
0.0
 33
0.0
 40
0.0
 40
0.0
 40
0.0
 40
0.0
 40
0.2
 40
0.2
 40
0.2
 40
0.2
 40
0.4
 40
0.4
 40
0.4
 40
0.4
 40
0.6
 40
0.6
 40
0.6
 40
0.6
 40
1.0
 40
1.0
 40
1.0
 40
1.0
 10
-34.1663
 20
-34.4306
 30
0.0
 10
-34.1663
 20
-34.4306
 30
0.0
 10
-19.3316
 20
-34.4306
 30
0.0
 10
-19.3316
 20
-34.4306
 30
0.0
 10
-19.3316
 20
-34.4306
 30
0.0
 10
-19.3316
 20
-34.4306
 30
0.0
 10
-19.3316
 20
-27.3012
 30
0.0
 10
-19.3316
 20
-27.3012
 30
0.0
 10
-19.3316
 20
-27.3012
 30
0.0
 10
-19.3316
 20
-27.3012
 30
0.0
 10
-34.1663
 20
-27.3012
 30
0.0
 10
-34.1663
 20
-27.3012
 30
0.0
 10
-34.1663
 20
-27.3012
 30
0.0
 10
-34.1663
 20
-27.3012
 30
0.0
 10
-34.1663
 20
-34.4306
 30
0.0
 10
-34.1663
 20
-34.4306
 30
0.0
  0
SPLINE
  5
6B
330
1F
100
AcDbEntity
  8
layer 1
 62
     7
100
AcDbSpline
210
0.0
220
0.0
230
1.0
 70
    11
 71
     3
 72
    36
 73
    32
 74
     0
 42
0.0000000001
 43
0.0000000001
 12
1.0
 22
0.0
 32
0.0
 13
1.0
 23
0.0
 33
0.0
 40
0.0
 40
0.0
 40
0.0
 40
0.0
 40
0.1111111111111111
 40
0.1111111111111111
 40
0.1111111111111111
 40
0.1111111111111111
 40
0.2222222222222222
 40
0.2222222222222222
 40
0.2222222222222222
 40
0.2222222222222222
 40
0.3333333333333333
 40
0.3333333333333333
 40
0.3333333333333333
 40
0.3333333333333333
 40
0.4444444444444444
 40
0.4444444444444444
 40
0.4444444444444444
 40
0.4444444444444444
 40
0.5555555555555556
 40
0.5555555555555556
 40
0.5555555555555556
 40
0.5555555555555556
 40
0.6666666666666666
 40
0.6666666666666666
 40
0.6666666666666666
 40
0.6666666666666666
 40
0.7777777777777778
 40
0.7777777777777778
 40
0.7777777777777778
 40
0.7777777777777778
 40
1.0
 40
1.0
 40
1.0
 40
1.0
 10
15.8189
 20
-44.6322
 30
0.0
 10
15.8189
 20
-44.6322
 30
0.0
 10
-3.7908
 20
-44.6322
 30
0.0
 10
-3.7908
 20
-44.6322
 30
0.0
 10
-3.7908
 20
-44.6322
 30
0.0
 10
-3.7908
 20
-44.6322
 30
0.0
 10
-3.7908
 20
-34.4246
 30
0.0
 10
-3.7908
 20
-34.4246
 30
0.0
 10
-3.7908
 20
-34.4246
 30
0.0
 10
-3.7908
 20
-34.4246
 30
0.0
 10
-15.7629
 20
-34.42
 30
0.0
 10
-15.7629
 20
-34.42
 30
0.0
 10
-15.7629
 20
-34.42
 30
0.0
 10
-15.7629
 20
-34.42
 30
0.0
 10
-15.7202
 20
-27.1718
 30
0.0
 10
-15.7202
 20
-27.1718
 30
0.0
 10
-15.7202
 20
-27.1718
 30
0.0
 10
-15.7202
 20
-27.1718
 30
0.0
 10
3.5696
 20
-27.1703
 30
0.0
 10
3.5696
 20
-27.1703
 30
0.0
 10
3.5696
 20
-27.1703
 30
0.0
 10
3.5696
 20
-27.1703
 30
0.0
 10
3.5696
 20
-38.5402
 30
0.0
 10
3.5696
 20
-38.5402
 30
0.0
 10
3.5696
 20
-38.5402
 30
0.0
 10
3.5696
 20
-38.5402
 30
0.0
 10
15.8189
 20
-38.5402
 30
0.0
 10
15.8189
 20
-38.5402
 30
0.0
 10
15.8189
 20
-38.5402
 30
0.0
 10
15.8189
 20
-38.5402
 30
0.0
 10
15.8189
 20
-44.6322
 30
0.0
 10
15.8189
 20
-44.6322
 30
0.0
  0
SPLINE
  5
6C
330
1F
100
AcDbEntity
  8
layer 1
 62
     7
100
AcDbSpline
210
0.0
220
0.0
230
1.0
 70
    11
 71
     3
 72
    36
 73
    32
 74
     0
 42
0.0000000001
 43
0.0000000001
 12
1.0
 22
0.0
 32
0.0
 13
1.0
 23
0.0
 33
0.0
 40
0.0
 40
0.0
 40
0.0
 40
0.0
 40
0.1111111111111111
 40
0.1111111111111111
 40
0.1111111111111111
 40
0.1111111111111111
 40
0.2222222222222222
 40
0.2222222222222222
 40
0.2222222222222222
 40
0.2222222222222222
 40
0.3333333333333333
 40
0.3333333333333333
 40
0.3333333333333333
 40
0.3333333333333333
 40
0.4444444444444444
 40
0.4444444444444444
 40
0.4444444444444444
 40
0.4444444444444444
 40
0.5555555555555556
 40
0.5555555555555556
 40
0.5555555555555556
 40
0.5555555555555556
 40
0.6666666666666666
 40
0.6666666666666666
 40
0.6666666666666666
 40
0.6666666666666666
 40
0.7777777777777778
 40
0.7777777777777778
 40
0.7777777777777778
 40
0.7777777777777778
 40
1.0
 40
1.0
 40
1.0
 40
1.0
 10
15.818
 20
-48.6941
 30
0.0
 10
15.818
 20
-48.6941
 30
0.0
 10
-3.7918
 20
-48.6941
 30
0.0
 10
-3.7918
 20
-48.6941
 30
0.0
 10
-3.7918
 20
-48.6941
 30
0.0
 10
-3.7918
 20
-48.6941
 30
0.0
 10
-3.7918
 20
-58.9017
 30
0.0
 10
-3.7918
 20
-58.9017
 30
0.0
 10
-3.7918
 20
-58.9017
 30
0.0
 10
-3.7918
 20
-58.9017
 30
0.0
 10
-15.7639
 20
-58.9063
 30
0.0
 10
-15.7639
 20
-58.9063
 30
0.0
 10
-15.7639
 20
-58.9063
 30
0.0
 10
-15.7639
 20
-58.9063
 30
0.0
 10
-15.7212
 20
-66.1545
 30
0.0
 10
-15.7212
 20
-66.1545
 30
0.0
 10
-15.7212
 20
-66.1545
 30
0.0
 10
-15.7212
 20
-66.1545
 30
0.0
 10
3.5687
 20
-66.156
 30
0.0
 10
3.5687
 20
-66.156
 30
0.0
 10
3.5687
 20
-66.156
 30
0.0
 10
3.5687
 20
-66.156
 30
0.0
 10
3.5687
 20
-54.7861
 30
0.0
 10
3.5687
 20
-54.7861
 30
0.0
 10
3.5687
 20
-54.7861
 30
0.0
 10
3.5687
 20
-54.7861
 30
0.0
 10
15.818
 20
-54.7861
 30
0.0
 10
15.818
 20
-54.7861
 30
0.0
 10
15.818
 20
-54.7861
 30
0.0
 10
15.818
 20
-54.7861
 30
0.0
 10
15.818
 20
-48.6941
 30
0.0
 10
15.818
 20
-48.6941
 30
0.0
  0
SPLINE
  5
6D
330
1F
100
AcDbEntity
  8
layer 1
 62
     7
100
AcDbSpline
210
0.0
220
0.0
230
1.0
 70
    11
 71
     3
 72
    36
 73
    32
 74
     0
 42
0.0000000001
 43
0.0000000001
 12
1.0
 22
0.0
 32
0.0
 13
1.0
 23
0.0
 33
0.0
 40
0.0
 40
0.0
 40
0.0
 40
0.0
 40
0.1111111111111111
 40
0.1111111111111111
 40
0.1111111111111111
 40
0.1111111111111111
 40
0.2222222222222222
 40
0.2222222222222222
 40
0.2222222222222222
 40
0.2222222222222222
 40
0.3333333333333333
 40
0.3333333333333333
 40
0.3333333333333333
 40
0.3333333333333333
 40
0.4444444444444444
 40
0.4444444444444444
 40
0.4444444444444444
 40
0.4444444444444444
 40
0.5555555555555556
 40
0.5555555555555556
 40
0.5555555555555556
 40
0.5555555555555556
 40
0.6666666666666666
 40
0.6666666666666666
 40
0.6666666666666666
 40
0.6666666666666666
 40
0.7777777777777778
 40
0.7777777777777778
 40
0.7777777777777778
 40
0.7777777777777778
 40
1.0
 40
1.0
 40
1.0
 40
1.0
 10
27.6508
 20
-44.6322
 30
0.0
 10
27.6508
 20
-44.6322
 30
0.0
 10
20.4005
 20
-44.6322
 30
0.0
 10
20.4005
 20
-44.6322
 30
0.0
 10
20.4005
 20
-44.6322
 30
0.0
 10
20.4005
 20
-44.6322
 30
0.0
 10
20.4005
 20
-34.4108
 30
0.0
 10
20.4005
 20
-34.4108
 30
0.0
 10
20.4005
 20
-34.4108
 30
0.0
 10
20.4005
 20
-34.4108
 30
0.0
 10
8.2489
 20
-34.4016
 30
0.0
 10
8.2489
 20
-34.4016
 30
0.0
 10
8.2489
 20
-34.4016
 30
0.0
 10
8.2489
 20
-34.4016
 30
0.0
 10
8.2489
 20
-27.2239
 30
0.0
 10
8.2489
 20
-27.2239
 30
0.0
 10
8.2489
 20
-27.2239
 30
0.0
 10
8.2489
 20
-27.2239
 30
0.0
 10
20.3917
 20
-27.2224
 30
0.0
 10
20.3917
 20
-27.2224
 30
0.0
 10
20.3917
 20
-27.2224
 30
0.0
 10
20.3917
 20
-27.2224
 30
0.0
 10
20.3917
 20
-17.8075
 30
0.0
 10
20.3917
 20
-17.8075
 30
0.0
 10
20.3917
 20
-17.8075
 30
0.0
 10
20.3917
 20
-17.8075
 30
0.0
 10
27.6508
 20
-17.8075
 30
0.0
 10
27.6508
 20
-17.8075
 30
0.0
 10
27.6508
 20
-17.8075
 30
0.0
 10
27.6508
 20
-17.8075
 30
0.0
 10
27.6508
 20
-44.6322
 30
0.0
 10
27.6508
 20
-44.6322
 30
0.0
  0
SPLINE
  5
6E
330
1F
100
AcDbEntity
  8
layer 1
 62
     7
100
AcDbSpline
210
0.0
220
0.0
230
1.0
 70
    11
 71
     3
 72
    36
 73
    32
 74
     0
 42
0.0000000001
 43
0.0000000001
 12
1.0
 22
0.0
 32
0.0
 13
1.0
 23
0.0
 33
0.0
 40
0.0
 40
0.0
 40
0.0
 40
0.0
 40
0.1111111111111111
 40
0.1111111111111111
 40
0.1111111111111111
 40
0.1111111111111111
 40
0.2222222222222222
 40
0.2222222222222222
 40
0.2222222222222222
 40
0.2222222222222222
 40
0.3333333333333333
 40
0.3333333333333333
 40
0.3333333333333333
 40
0.3333333333333333
 40
0.4444444444444444
 40
0.4444444444444444
 40
0.4444444444444444
 40
0.4444444444444444
 40
0.5555555555555556
 40
0.5555555555555556
 40
0.5555555555555556
 40
0.5555555555555556
 40
0.6666666666666666
 40
0.6666666666666666
 40
0.6666666666666666
 40
0.6666666666666666
 40
0.7777777777777778
 40
0.7777777777777778
 40
0.7777777777777778
 40
0.7777777777777778
 40
1.0
 40
1.0
 40
1.0
 40
1.0
 10
-36.6793
 20
10.5405
 30
0.0
 10
-36.6793
 20
10.5405
 30
0.0
 10
-36.6793
 20
27.5256
 30
0.0
 10
-36.6793
 20
27.5256
 30
0.0
 10
-36.6793
 20
27.5256
 30
0.0
 10
-36.6793
 20
27.5256
 30
0.0
 10
-48.5583
 20
27.5256
 30
0.0
 10
-48.5583
 20
27.5256
 30
0.0
 10
-48.5583
 20
27.5256
 30
0.0
 10
-48.5583
 20
27.5256
 30
0.0
 10
-48.5629
 20
39.4977
 30
0.0
 10
-48.5629
 20
39.4977
 30
0.0
 10
-48.5629
 20
39.4977
 30
0.0
 10
-48.5629
 20
39.4977
 30
0.0
 10
-57.0041
 20
39.455
 30
0.0
 10
-57.0041
 20
39.455
 30
0.0
 10
-57.0041
 20
39.455
 30
0.0
 10
-57.0041
 20
39.455
 30
0.0
 10
-57.0056
 20
21.4377
 30
0.0
 10
-57.0056
 20
21.4377
 30
0.0
 10
-57.0056
 20
21.4377
 30
0.0
 10
-57.0056
 20
21.4377
 30
0.0
 10
-44.9196
 20
21.4377
 30
0.0
 10
-44.9196
 20
21.4377
 30
0.0
 10
-44.9196
 20
21.4377
 30
0.0
 10
-44.9196
 20
21.4377
 30
0.0
 10
-44.9196
 20
10.5405
 30
0.0
 10
-44.9196
 20
10.5405
 30
0.0
 10
-44.9196
 20
10.5405
 30
0.0
 10
-44.9196
 20
10.5405
 30
0.0
 10
-36.6793
 20
10.5405
 30
0.0
 10
-36.6793
 20
10.5405
 30
0.0
  0
SPLINE
  5
6F
330
1F
100
AcDbEntity
  8
layer 1
 62
     7
100
AcDbSpline
210
0.0
220
0.0
230
1.0
 70
    11
 71
     3
 72
    36
 73
    32
 74
     0
 42
0.0000000001
 43
0.0000000001
 12
1.0
 22
0.0
 32
0.0
 13
1.0
 23
0.0
 33
0.0
 40
0.0
 40
0.0
 40
0.0
 40
0.0
 40
0.1111111111111111
 40
0.1111111111111111
 40
0.1111111111111111
 40
0.1111111111111111
 40
0.2222222222222222
 40
0.2222222222222222
 40
0.2222222222222222
 40
0.2222222222222222
 40
0.3333333333333333
 40
0.3333333333333333
 40
0.3333333333333333
 40
0.3333333333333333
 40
0.4444444444444444
 40
0.4444444444444444
 40
0.4444444444444444
 40
0.4444444444444444
 40
0.5555555555555556
 40
0.5555555555555556
 40
0.5555555555555556
 40
0.5555555555555556
 40
0.6666666666666666
 40
0.6666666666666666
 40
0.6666666666666666
 40
0.6666666666666666
 40
0.7777777777777778
 40
0.7777777777777778
 40
0.7777777777777778
 40
0.7777777777777778
 40
1.0
 40
1.0
 40
1.0
 40
1.0
 10
-61.5572
 20
10.5405
 30
0.0
 10
-61.5572
 20
10.5405
 30
0.0
 10
-61.5572
 20
39.4561
 30
0.0
 10
-61.5572
 20
39.4561
 30
0.0
 10
-61.5572
 20
39.4561
 30
0.0
 10
-61.5572
 20
39.4561
 30
0.0
 10
-69.0615
 20
39.4561
 30
0.0
 10
-69.0615
 20
39.4561
 30
0.0
 10
-69.0615
 20
39.4561
 30
0.0
 10
-69.0615
 20
39.4561
 30
0.0
 10
-69.0661
 20
27.5671
 30
0.0
 10
-69.0661
 20
27.5671
 30
0.0
 10
-69.0661
 20
27.5671
 30
0.0
 10
-69.0661
 20
27.5671
 30
0.0
 10
-81.0862
 20
27.5244
 30
0.0
 10
-81.0862
 20
27.5244
 30
0.0
 10
-81.0862
 20
27.5244
 30
0.0
 10
-81.0862
 20
27.5244
 30
0.0
 10
-81.0877
 20
20.0856
 30
0.0
 10
-81.0877
 20
20.0856
 30
0.0
 10
-81.0877
 20
20.0856
 30
0.0
 10
-81.0877
 20
20.0856
 30
0.0
 10
-69.0017
 20
20.0856
 30
0.0
 10
-69.0017
 20
20.0856
 30
0.0
 10
-69.0017
 20
20.0856
 30
0.0
 10
-69.0017
 20
20.0856
 30
0.0
 10
-69.0017
 20
10.5405
 30
0.0
 10
-69.0017
 20
10.5405
 30
0.0
 10
-69.0017
 20
10.5405
 30
0.0
 10
-69.0017
 20
10.5405
 30
0.0
 10
-61.5572
 20
10.5405
 30
0.0
 10
-61.5572
 20
10.5405
 30
0.0
  0
SPLINE
  5
70
330
1F
100
AcDbEntity
  8
layer 1
 62
     7
100
AcDbSpline
210
0.0
220
0.0
230
1.0
 70
    11
 71
     3
 72
    20
 73
    16
 74
     0
 42
0.0000000001
 43
0.0000000001
 12
1.0
 22
0.0
 32
0.0
 13
1.0
 23
0.0
 33
0.0
 40
0.0
 40
0.0
 40
0.0
 40
0.0
 40
0.2
 40
0.2
 40
0.2
 40
0.2
 40
0.4
 40
0.4
 40
0.4
 40
0.4
 40
0.6
 40
0.6
 40
0.6
 40
0.6
 40
1.0
 40
1.0
 40
1.0
 40
1.0
 10
-81.0728
 20
18.0711
 30
0.0
 10
-81.0728
 20
18.0711
 30
0.0
 10
-73.835
 20
18.0711
 30
0.0
 10
-73.835
 20
18.0711
 30
0.0
 10
-73.835
 20
18.0711
 30
0.0
 10
-73.835
 20
18.0711
 30
0.0
 10
-73.835
 20
-0.6202
 30
0.0
 10
-73.835
 20
-0.6202
 30
0.0
 10
-73.835
 20
-0.6202
 30
0.0
 10
-73.835
 20
-0.6202
 30
0.0
 10
-81.0728
 20
-0.6202
 30
0.0
 10
-81.0728
 20
-0.6202
 30
0.0
 10
-81.0728
 20
-0.6202
 30
0.0
 10
-81.0728
 20
-0.6202
 30
0.0
 10
-81.0728
 20
18.0711
 30
0.0
 10
-81.0728
 20
18.0711
 30
0.0
  0
SPLINE
  5
71
330
1F
100
AcDbEntity
  8
layer 1
 62
     7
100
AcDbSpline
210
0.0
220
0.0
230
1.0
 70
    11
 71
     3
 72
    20
 73
    16
 74
     0
 42
0.0000000001
 43
0.0000000001
 12
1.0
 22
0.0
 32
0.0
 13
1.0
 23
0.0
 33
0.0
 40
0.0
 40
0.0
 40
0.0
 40
0.0
 40
0.2
 40
0.2
 40
0.2
 40
0.2
 40
0.4
 40
0.4
 40
0.4
 40
0.4
 40
0.6
 40
0.6
 40
0.6
 40
0.6
 40
1.0
 40
1.0
 40
1.0
 40
1.0
 10
-56.8538
 20
18.0711
 30
0.0
 10
-56.8538
 20
18.0711
 30
0.0
 10
-49.6159
 20
18.0711
 30
0.0
 10
-49.6159
 20
18.0711
 30
0.0
 10
-49.6159
 20
18.0711
 30
0.0
 10
-49.6159
 20
18.0711
 30
0.0
 10
-49.6159
 20
-0.6202
 30
0.0
 10
-49.6159
 20
-0.6202
 30
0.0
 10
-49.6159
 20
-0.6202
 30
0.0
 10
-49.6159
 20
-0.6202
 30
0.0
 10
-56.8538
 20
-0.6202
 30
0.0
 10
-56.8538
 20
-0.6202
 30
0.0
 10
-56.8538
 20
-0.6202
 30
0.0
 10
-56.8538
 20
-0.6202
 30
0.0
 10
-56.8538
 20
18.0711
 30
0.0
 10
-56.8538
 20
18.0711
 30
0.0
  0
SPLINE
  5
72
330
1F
100
AcDbEntity
  8
layer 1
 62
     7
100
AcDbSpline
210
0.0
220
0.0
230
1.0
 70
    11
 71
     3
 72
    36
 73
    32
 74
     0
 42
0.0000000001
 43
0.0000000001
 12
1.0
 22
0.0
 32
0.0
 13
1.0
 23
0.0
 33
0.0
 40
0.0
 40
0.0
 40
0.0
 40
0.0
 40
0.1111111111111111
 40
0.1111111111111111
 40
0.1111111111111111
 40
0.1111111111111111
 40
0.2222222222222222
 40
0.2222222222222222
 40
0.2222222222222222
 40
0.2222222222222222
 40
0.3333333333333333
 40
0.3333333333333333
 40
0.3333333333333333
 40
0.3333333333333333
 40
0.4444444444444444
 40
0.4444444444444444
 40
0.4444444444444444
 40
0.4444444444444444
 40
0.5555555555555556
 40
0.5555555555555556
 40
0.5555555555555556
 40
0.5555555555555556
 40
0.6666666666666666
 40
0.6666666666666666
 40
0.6666666666666666
 40
0.6666666666666666
 40
0.7777777777777778
 40
0.7777777777777778
 40
0.7777777777777778
 40
0.7777777777777778
 40
1.0
 40
1.0
 40
1.0
 40
1.0
 10
-61.5572
 20
-22.3083
 30
0.0
 10
-61.5572
 20
-22.3083
 30
0.0
 10
-61.5572
 20
6.6072
 30
0.0
 10
-61.5572
 20
6.6072
 30
0.0
 10
-61.5572
 20
6.6072
 30
0.0
 10
-61.5572
 20
6.6072
 30
0.0
 10
-69.0615
 20
6.6072
 30
0.0
 10
-69.0615
 20
6.6072
 30
0.0
 10
-69.0615
 20
6.6072
 30
0.0
 10
-69.0615
 20
6.6072
 30
0.0
 10
-69.0661
 20
-5.2818
 30
0.0
 10
-69.0661
 20
-5.2818
 30
0.0
 10
-69.0661
 20
-5.2818
 30
0.0
 10
-69.0661
 20
-5.2818
 30
0.0
 10
-81.0862
 20
-5.3245
 30
0.0
 10
-81.0862
 20
-5.3245
 30
0.0
 10
-81.0862
 20
-5.3245
 30
0.0
 10
-81.0862
 20
-5.3245
 30
0.0
 10
-81.0877
 20
-12.7633
 30
0.0
 10
-81.0877
 20
-12.7633
 30
0.0
 10
-81.0877
 20
-12.7633
 30
0.0
 10
-81.0877
 20
-12.7633
 30
0.0
 10
-69.0017
 20
-12.7633
 30
0.0
 10
-69.0017
 20
-12.7633
 30
0.0
 10
-69.0017
 20
-12.7633
 30
0.0
 10
-69.0017
 20
-12.7633
 30
0.0
 10
-69.0017
 20
-22.3083
 30
0.0
 10
-69.0017
 20
-22.3083
 30
0.0
 10
-69.0017
 20
-22.3083
 30
0.0
 10
-69.0017
 20
-22.3083
 30
0.0
 10
-61.5572
 20
-22.3083
 30
0.0
 10
-61.5572
 20
-22.3083
 30
0.0
  0
SPLINE
  5
73
330
1F
100
AcDbEntity
  8
layer 1
 62
     7
100
AcDbSpline
210
0.0
220
0.0
230
1.0
 70
    11
 71
     3
 72
    36
 73
    32
 74
     0
 42
0.0000000001
 43
0.0000000001
 12
1.0
 22
0.0
 32
0.0
 13
1.0
 23
0.0
 33
0.0
 40
0.0
 40
0.0
 40
0.0
 40
0.0
 40
0.1111111111111111
 40
0.1111111111111111
 40
0.1111111111111111
 40
0.1111111111111111
 40
0.2222222222222222
 40
0.2222222222222222
 40
0.2222222222222222
 40
0.2222222222222222
 40
0.3333333333333333
 40
0.3333333333333333
 40
0.3333333333333333
 40
0.3333333333333333
 40
0.4444444444444444
 40
0.4444444444444444
 40
0.4444444444444444
 40
0.4444444444444444
 40
0.5555555555555556
 40
0.5555555555555556
 40
0.5555555555555556
 40
0.5555555555555556
 40
0.6666666666666666
 40
0.6666666666666666
 40
0.6666666666666666
 40
0.6666666666666666
 40
0.7777777777777778
 40
0.7777777777777778
 40
0.7777777777777778
 40
0.7777777777777778
 40
1.0
 40
1.0
 40
1.0
 40
1.0
 10
-36.6793
 20
6.7373
 30
0.0
 10
-36.6793
 20
6.7373
 30
0.0
 10
-36.6793
 20
-10.2478
 30
0.0
 10
-36.6793
 20
-10.2478
 30
0.0
 10
-36.6793
 20
-10.2478
 30
0.0
 10
-36.6793
 20
-10.2478
 30
0.0
 10
-48.5583
 20
-10.2478
 30
0.0
 10
-48.5583
 20
-10.2478
 30
0.0
 10
-48.5583
 20
-10.2478
 30
0.0
 10
-48.5583
 20
-10.2478
 30
0.0
 10
-48.5629
 20
-22.2199
 30
0.0
 10
-48.5629
 20
-22.2199
 30
0.0
 10
-48.5629
 20
-22.2199
 30
0.0
 10
-48.5629
 20
-22.2199
 30
0.0
 10
-57.0041
 20
-22.1772
 30
0.0
 10
-57.0041
 20
-22.1772
 30
0.0
 10
-57.0041
 20
-22.1772
 30
0.0
 10
-57.0041
 20
-22.1772
 30
0.0
 10
-57.0056
 20
-4.1599
 30
0.0
 10
-57.0056
 20
-4.1599
 30
0.0
 10
-57.0056
 20
-4.1599
 30
0.0
 10
-57.0056
 20
-4.1599
 30
0.0
 10
-44.9196
 20
-4.1599
 30
0.0
 10
-44.9196
 20
-4.1599
 30
0.0
 10
-44.9196
 20
-4.1599
 30
0.0
 10
-44.9196
 20
-4.1599
 30
0.0
 10
-44.9196
 20
6.7373
 30
0.0
 10
-44.9196
 20
6.7373
 30
0.0
 10
-44.9196
 20
6.7373
 30
0.0
 10
-44.9196
 20
6.7373
 30
0.0
 10
-36.6793
 20
6.7373
 30
0.0
 10
-36.6793
 20
6.7373
 30
0.0
  0
SPLINE
  5
74
330
1F
100
AcDbEntity
  8
layer 1
 62
     7
100
AcDbSpline
210
0.0
220
0.0
230
1.0
 70
    11
 71
     3
 72
    20
 73
    16
 74
     0
 42
0.0000000001
 43
0.0000000001
 12
1.0
 22
0.0
 32
0.0
 13
1.0
 23
0.0
 33
0.0
 40
0.0
 40
0.0
 40
0.0
 40
0.0
 40
0.2
 40
0.2
 40
0.2
 40
0.2
 40
0.4
 40
0.4
 40
0.4
 40
0.4
 40
0.6
 40
0.6
 40
0.6
 40
0.6
 40
1.0
 40
1.0
 40
1.0
 40
1.0
 10
-44.7641
 20
39.4145
 30
0.0
 10
-44.7641
 20
39.4145
 30
0.0
 10
-8.7735
 20
39.4145
 30
0.0
 10
-8.7735
 20
39.4145
 30
0.0
 10
-8.7735
 20
39.4145
 30
0.0
 10
-8.7735
 20
39.4145
 30
0.0
 10
-8.7735
 20
30.8712
 30
0.0
 10
-8.7735
 20
30.8712
 30
0.0
 10
-8.7735
 20
30.8712
 30
0.0
 10
-8.7735
 20
30.8712
 30
0.0
 10
-44.7641
 20
30.8712
 30
0.0
 10
-44.7641
 20
30.8712
 30
0.0
 10
-44.7641
 20
30.8712
 30
0.0
 10
-44.7641
 20
30.8712
 30
0.0
 10
-44.7641
 20
39.4145
 30
0.0
 10
-44.7641
 20
39.4145
 30
0.0
  0
SPLINE
  5
75
330
1F
100
AcDbEntity
  8
layer 1
 62
     7
100
AcDbSpline
210
0.0
220
0.0
230
1.0
 70
    11
 71
     3
 72
    20
 73
    16
 74
     0
 42
0.0000000001
 43
0.0000000001
 12
1.0
 22
0.0
 32
0.0
 13
1.0
 23
0.0
 33
0.0
 40
0.0
 40
0.0
 40
0.0
 40
0.0
 40
0.2
 40
0.2
 40
0.2
 40
0.2
 40
0.4
 40
0.4
 40
0.4
 40
0.4
 40
0.6
 40
0.6
 40
0.6
 40
0.6
 40
1.0
 40
1.0
 40
1.0
 40
1.0
 10
-44.7641
 20
-13.7104
 30
0.0
 10
-44.7641
 20
-13.7104
 30
0.0
 10
-8.7735
 20
-13.7104
 30
0.0
 10
-8.7735
 20
-13.7104
 30
0.0
 10
-8.7735
 20
-13.7104
 30
0.0
 10
-8.7735
 20
-13.7104
 30
0.0
 10
-8.7735
 20
-22.2538
 30
0.0
 10
-8.7735
 20
-22.2538
 30
0.0
 10
-8.7735
 20
-22.2538
 30
0.0
 10
-8.7735
 20
-22.2538
 30
0.0
 10
-44.7641
 20
-22.2538
 30
0.0
 10
-44.7641
 20
-22.2538
 30
0.0
 10
-44.7641
 20
-22.2538
 30
0.0
 10
-44.7641
 20
-22.2538
 30
0.0
 10
-44.7641
 20
-13.7104
 30
0.0
 10
-44.7641
 20
-13.7104
 30
0.0
  0
SPLINE
  5
76
330
1F
100
AcDbEntity
  8
layer 1
 62
     7
100
AcDbSpline
210
0.0
220
0.0
230
1.0
 70
    11
 71
     3
 72
    20
 73
    16
 74
     0
 42
0.0000000001
 43
0.0000000001
 12
1.0
 22
0.0
 32
0.0
 13
1.0
 23
0.0
 33
0.0
 40
0.0
 40
0.0
 40
0.0
 40
0.0
 40
0.2
 40
0.2
 40
0.2
 40
0.2
 40
0.4
 40
0.4
 40
0.4
 40
0.4
 40
0.6
 40
0.6
 40
0.6
 40
0.6
 40
1.0
 40
1.0
 40
1.0
 40
1.0
 10
-33.2683
 20
-10.3056
 30
0.0
 10
-33.2683
 20
-10.3056
 30
0.0
 10
-33.2683
 20
27.5019
 30
0.0
 10
-33.2683
 20
27.5019
 30
0.0
 10
-33.2683
 20
27.5019
 30
0.0
 10
-33.2683
 20
27.5019
 30
0.0
 10
-20.9049
 20
27.5019
 30
0.0
 10
-20.9049
 20
27.5019
 30
0.0
 10
-20.9049
 20
27.5019
 30
0.0
 10
-20.9049
 20
27.5019
 30
0.0
 10
-20.9049
 20
-10.3056
 30
0.0
 10
-20.9049
 20
-10.3056
 30
0.0
 10
-20.9049
 20
-10.3056
 30
0.0
 10
-20.9049
 20
-10.3056
 30
0.0
 10
-33.2683
 20
-10.3056
 30
0.0
 10
-33.2683
 20
-10.3056
 30
0.0
  0
SPLINE
  5
77
330
1F
100
AcDbEntity
  8
layer 1
 62
     7
100
AcDbSpline
210
0.0
220
0.0
230
1.0
 70
    11
 71
     3
 72
    36
 73
    32
 74
     0
 42
0.0000000001
 43
0.0000000001
 12
1.0
 22
0.0
 32
0.0
 13
1.0
 23
0.0
 33
0.0
 40
0.0
 40
0.0
 40
0.0
 40
0.0
 40
0.1111111111111111
 40
0.1111111111111111
 40
0.1111111111111111
 40
0.1111111111111111
 40
0.2222222222222222
 40
0.2222222222222222
 40
0.2222222222222222
 40
0.2222222222222222
 40
0.3333333333333333
 40
0.3333333333333333
 40
0.3333333333333333
 40
0.3333333333333333
 40
0.4444444444444444
 40
0.4444444444444444
 40
0.4444444444444444
 40
0.4444444444444444
 40
0.5555555555555556
 40
0.5555555555555556
 40
0.5555555555555556
 40
0.5555555555555556
 40
0.6666666666666666
 40
0.6666666666666666
 40
0.6666666666666666
 40
0.6666666666666666
 40
0.7777777777777778
 40
0.7777777777777778
 40
0.7777777777777778
 40
0.7777777777777778
 40
1.0
 40
1.0
 40
1.0
 40
1.0
 10
-16.6541
 20
10.5405
 30
0.0
 10
-16.6541
 20
10.5405
 30
0.0
 10
-16.6541
 20
27.5256
 30
0.0
 10
-16.6541
 20
27.5256
 30
0.0
 10
-16.6541
 20
27.5256
 30
0.0
 10
-16.6541
 20
27.5256
 30
0.0
 10
-4.7751
 20
27.5256
 30
0.0
 10
-4.7751
 20
27.5256
 30
0.0
 10
-4.7751
 20
27.5256
 30
0.0
 10
-4.7751
 20
27.5256
 30
0.0
 10
-4.7705
 20
39.4977
 30
0.0
 10
-4.7705
 20
39.4977
 30
0.0
 10
-4.7705
 20
39.4977
 30
0.0
 10
-4.7705
 20
39.4977
 30
0.0
 10
3.6707
 20
39.455
 30
0.0
 10
3.6707
 20
39.455
 30
0.0
 10
3.6707
 20
39.455
 30
0.0
 10
3.6707
 20
39.455
 30
0.0
 10
3.6722
 20
21.4377
 30
0.0
 10
3.6722
 20
21.4377
 30
0.0
 10
3.6722
 20
21.4377
 30
0.0
 10
3.6722
 20
21.4377
 30
0.0
 10
-8.4138
 20
21.4377
 30
0.0
 10
-8.4138
 20
21.4377
 30
0.0
 10
-8.4138
 20
21.4377
 30
0.0
 10
-8.4138
 20
21.4377
 30
0.0
 10
-8.4138
 20
10.5405
 30
0.0
 10
-8.4138
 20
10.5405
 30
0.0
 10
-8.4138
 20
10.5405
 30
0.0
 10
-8.4138
 20
10.5405
 30
0.0
 10
-16.6541
 20
10.5405
 30
0.0
 10
-16.6541
 20
10.5405
 30
0.0
  0
SPLINE
  5
78
330
1F
100
AcDbEntity
  8
layer 1
 62
     7
100
AcDbSpline
210
0.0
220
0.0
230
1.0
 70
    11
 71
     3
 72
    36
 73
    32
 74
     0
 42
0.0000000001
 43
0.0000000001
 12
1.0
 22
0.0
 32
0.0
 13
1.0
 23
0.0
 33
0.0
 40
0.0
 40
0.0
 40
0.0
 40
0.0
 40
0.1111111111111111
 40
0.1111111111111111
 40
0.1111111111111111
 40
0.1111111111111111
 40
0.2222222222222222
 40
0.2222222222222222
 40
0.2222222222222222
 40
0.2222222222222222
 40
0.3333333333333333
 40
0.3333333333333333
 40
0.3333333333333333
 40
0.3333333333333333
 40
0.4444444444444444
 40
0.4444444444444444
 40
0.4444444444444444
 40
0.4444444444444444
 40
0.5555555555555556
 40
0.5555555555555556
 40
0.5555555555555556
 40
0.5555555555555556
 40
0.6666666666666666
 40
0.6666666666666666
 40
0.6666666666666666
 40
0.6666666666666666
 40
0.7777777777777778
 40
0.7777777777777778
 40
0.7777777777777778
 40
0.7777777777777778
 40
1.0
 40
1.0
 40
1.0
 40
1.0
 10
8.2239
 20
10.5405
 30
0.0
 10
8.2239
 20
10.5405
 30
0.0
 10
8.2239
 20
39.4561
 30
0.0
 10
8.2239
 20
39.4561
 30
0.0
 10
8.2239
 20
39.4561
 30
0.0
 10
8.2239
 20
39.4561
 30
0.0
 10
15.7281
 20
39.4561
 30
0.0
 10
15.7281
 20
39.4561
 30
0.0
 10
15.7281
 20
39.4561
 30
0.0
 10
15.7281
 20
39.4561
 30
0.0
 10
15.7327
 20
27.5671
 30
0.0
 10
15.7327
 20
27.5671
 30
0.0
 10
15.7327
 20
27.5671
 30
0.0
 10
15.7327
 20
27.5671
 30
0.0
 10
27.7528
 20
27.5244
 30
0.0
 10
27.7528
 20
27.5244
 30
0.0
 10
27.7528
 20
27.5244
 30
0.0
 10
27.7528
 20
27.5244
 30
0.0
 10
27.7543
 20
20.0856
 30
0.0
 10
27.7543
 20
20.0856
 30
0.0
 10
27.7543
 20
20.0856
 30
0.0
 10
27.7543
 20
20.0856
 30
0.0
 10
15.6683
 20
20.0856
 30
0.0
 10
15.6683
 20
20.0856
 30
0.0
 10
15.6683
 20
20.0856
 30
0.0
 10
15.6683
 20
20.0856
 30
0.0
 10
15.6683
 20
10.5405
 30
0.0
 10
15.6683
 20
10.5405
 30
0.0
 10
15.6683
 20
10.5405
 30
0.0
 10
15.6683
 20
10.5405
 30
0.0
 10
8.2239
 20
10.5405
 30
0.0
 10
8.2239
 20
10.5405
 30
0.0
  0
SPLINE
  5
79
330
1F
100
AcDbEntity
  8
layer 1
 62
     7
100
AcDbSpline
210
0.0
220
0.0
230
1.0
 70
    11
 71
     3
 72
    20
 73
    16
 74
     0
 42
0.0000000001
 43
0.0000000001
 12
1.0
 22
0.0
 32
0.0
 13
1.0
 23
0.0
 33
0.0
 40
0.0
 40
0.0
 40
0.0
 40
0.0
 40
0.2
 40
0.2
 40
0.2
 40
0.2
 40
0.4
 40
0.4
 40
0.4
 40
0.4
 40
0.6
 40
0.6
 40
0.6
 40
0.6
 40
1.0
 40
1.0
 40
1.0
 40
1.0
 10
27.7395
 20
18.0711
 30
0.0
 10
27.7395
 20
18.0711
 30
0.0
 10
20.5016
 20
18.0711
 30
0.0
 10
20.5016
 20
18.0711
 30
0.0
 10
20.5016
 20
18.0711
 30
0.0
 10
20.5016
 20
18.0711
 30
0.0
 10
20.5016
 20
-0.6202
 30
0.0
 10
20.5016
 20
-0.6202
 30
0.0
 10
20.5016
 20
-0.6202
 30
0.0
 10
20.5016
 20
-0.6202
 30
0.0
 10
27.7395
 20
-0.6202
 30
0.0
 10
27.7395
 20
-0.6202
 30
0.0
 10
27.7395
 20
-0.6202
 30
0.0
 10
27.7395
 20
-0.6202
 30
0.0
 10
27.7395
 20
18.0711
 30
0.0
 10
27.7395
 20
18.0711
 30
0.0
  0
SPLINE
  5
7A
330
1F
100
AcDbEntity
  8
layer 1
 62
     7
100
AcDbSpline
210
0.0
220
0.0
230
1.0
 70
    11
 71
     3
 72
    20
 73
    16
 74
     0
 42
0.0000000001
 43
0.0000000001
 12
1.0
 22
0.0
 32
0.0
 13
1.0
 23
0.0
 33
0.0
 40
0.0
 40
0.0
 40
0.0
 40
0.0
 40
0.2
 40
0.2
 40
0.2
 40
0.2
 40
0.4
 40
0.4
 40
0.4
 40
0.4
 40
0.6
 40
0.6
 40
0.6
 40
0.6
 40
1.0
 40
1.0
 40
1.0
 40
1.0
 10
3.5204
 20
18.0711
 30
0.0
 10
3.5204
 20
18.0711
 30
0.0
 10
-3.7175
 20
18.0711
 30
0.0
 10
-3.7175
 20
18.0711
 30
0.0
 10
-3.7175
 20
18.0711
 30
0.0
 10
-3.7175
 20
18.0711
 30
0.0
 10
-3.7175
 20
-0.6202
 30
0.0
 10
-3.7175
 20
-0.6202
 30
0.0
 10
-3.7175
 20
-0.6202
 30
0.0
 10
-3.7175
 20
-0.6202
 30
0.0
 10
3.5204
 20
-0.6202
 30
0.0
 10
3.5204
 20
-0.6202
 30
0.0
 10
3.5204
 20
-0.6202
 30
0.0
 10
3.5204
 20
-0.6202
 30
0.0
 10
3.5204
 20
18.0711
 30
0.0
 10
3.5204
 20
18.0711
 30
0.0
  0
SPLINE
  5
7B
330
1F
100
AcDbEntity
  8
layer 1
 62
     7
100
AcDbSpline
210
0.0
220
0.0
230
1.0
 70
    11
 71
     3
 72
    36
 73
    32
 74
     0
 42
0.0000000001
 43
0.0000000001
 12
1.0
 22
0.0
 32
0.0
 13
1.0
 23
0.0
 33
0.0
 40
0.0
 40
0.0
 40
0.0
 40
0.0
 40
0.1111111111111111
 40
0.1111111111111111
 40
0.1111111111111111
 40
0.1111111111111111
 40
0.2222222222222222
 40
0.2222222222222222
 40
0.2222222222222222
 40
0.2222222222222222
 40
0.3333333333333333
 40
0.3333333333333333
 40
0.3333333333333333
 40
0.3333333333333333
 40
0.4444444444444444
 40
0.4444444444444444
 40
0.4444444444444444
 40
0.4444444444444444
 40
0.5555555555555556
 40
0.5555555555555556
 40
0.5555555555555556
 40
0.5555555555555556
 40
0.6666666666666666
 40
0.6666666666666666
 40
0.6666666666666666
 40
0.6666666666666666
 40
0.7777777777777778
 40
0.7777777777777778
 40
0.7777777777777778
 40
0.7777777777777778
 40
1.0
 40
1.0
 40
1.0
 40
1.0
 10
8.2239
 20
-22.3083
 30
0.0
 10
8.2239
 20
-22.3083
 30
0.0
 10
8.2239
 20
6.6072
 30
0.0
 10
8.2239
 20
6.6072
 30
0.0
 10
8.2239
 20
6.6072
 30
0.0
 10
8.2239
 20
6.6072
 30
0.0
 10
15.7281
 20
6.6072
 30
0.0
 10
15.7281
 20
6.6072
 30
0.0
 10
15.7281
 20
6.6072
 30
0.0
 10
15.7281
 20
6.6072
 30
0.0
 10
15.7327
 20
-5.2818
 30
0.0
 10
15.7327
 20
-5.2818
 30
0.0
 10
15.7327
 20
-5.2818
 30
0.0
 10
15.7327
 20
-5.2818
 30
0.0
 10
27.7528
 20
-5.3245
 30
0.0
 10
27.7528
 20
-5.3245
 30
0.0
 10
27.7528
 20
-5.3245
 30
0.0
 10
27.7528
 20
-5.3245
 30
0.0
 10
27.7543
 20
-12.7633
 30
0.0
 10
27.7543
 20
-12.7633
 30
0.0
 10
27.7543
 20
-12.7633
 30
0.0
 10
27.7543
 20
-12.7633
 30
0.0
 10
15.6683
 20
-12.7633
 30
0.0
 10
15.6683
 20
-12.7633
 30
0.0
 10
15.6683
 20
-12.7633
 30
0.0
 10
15.6683
 20
-12.7633
 30
0.0
 10
15.6683
 20
-22.3083
 30
0.0
 10
15.6683
 20
-22.3083
 30
0.0
 10
15.6683
 20
-22.3083
 30
0.0
 10
15.6683
 20
-22.3083
 30
0.0
 10
8.2239
 20
-22.3083
 30
0.0
 10
8.2239
 20
-22.3083
 30
0.0
  0
SPLINE
  5
7C
330
1F
100
AcDbEntity
  8
layer 1
 62
     7
100
AcDbSpline
210
0.0
220
0.0
230
1.0
 70
    11
 71
     3
 72
    36
 73
    32
 74
     0
 42
0.0000000001
 43
0.0000000001
 12
1.0
 22
0.0
 32
0.0
 13
1.0
 23
0.0
 33
0.0
 40
0.0
 40
0.0
 40
0.0
 40
0.0
 40
0.1111111111111111
 40
0.1111111111111111
 40
0.1111111111111111
 40
0.1111111111111111
 40
0.2222222222222222
 40
0.2222222222222222
 40
0.2222222222222222
 40
0.2222222222222222
 40
0.3333333333333333
 40
0.3333333333333333
 40
0.3333333333333333
 40
0.3333333333333333
 40
0.4444444444444444
 40
0.4444444444444444
 40
0.4444444444444444
 40
0.4444444444444444
 40
0.5555555555555556
 40
0.5555555555555556
 40
0.5555555555555556
 40
0.5555555555555556
 40
0.6666666666666666
 40
0.6666666666666666
 40
0.6666666666666666
 40
0.6666666666666666
 40
0.7777777777777778
 40
0.7777777777777778
 40
0.7777777777777778
 40
0.7777777777777778
 40
1.0
 40
1.0
 40
1.0
 40
1.0
 10
-16.6541
 20
6.7373
 30
0.0
 10
-16.6541
 20
6.7373
 30
0.0
 10
-16.6541
 20
-10.2478
 30
0.0
 10
-16.6541
 20
-10.2478
 30
0.0
 10
-16.6541
 20
-10.2478
 30
0.0
 10
-16.6541
 20
-10.2478
 30
0.0
 10
-4.7751
 20
-10.2478
 30
0.0
 10
-4.7751
 20
-10.2478
 30
0.0
 10
-4.7751
 20
-10.2478
 30
0.0
 10
-4.7751
 20
-10.2478
 30
0.0
 10
-4.7705
 20
-22.2199
 30
0.0
 10
-4.7705
 20
-22.2199
 30
0.0
 10
-4.7705
 20
-22.2199
 30
0.0
 10
-4.7705
 20
-22.2199
 30
0.0
 10
3.6707
 20
-22.1772
 30
0.0
 10
3.6707
 20
-22.1772
 30
0.0
 10
3.6707
 20
-22.1772
 30
0.0
 10
3.6707
 20
-22.1772
 30
0.0
 10
3.6722
 20
-4.1599
 30
0.0
 10
3.6722
 20
-4.1599
 30
0.0
 10
3.6722
 20
-4.1599
 30
0.0
 10
3.6722
 20
-4.1599
 30
0.0
 10
-8.4138
 20
-4.1599
 30
0.0
 10
-8.4138
 20
-4.1599
 30
0.0
 10
-8.4138
 20
-4.1599
 30
0.0
 10
-8.4138
 20
-4.1599
 30
0.0
 10
-8.4138
 20
6.7373
 30
0.0
 10
-8.4138
 20
6.7373
 30
0.0
 10
-8.4138
 20
6.7373
 30
0.0
 10
-8.4138
 20
6.7373
 30
0.0
 10
-16.6541
 20
6.7373
 30
0.0
 10
-16.6541
 20
6.7373
 30
0.0
  0
ENDSEC
  0
SECTION
  2
OBJECTS
  0
DICTIONARY
  5
C
330
0
100
AcDbDictionary
281
     1
  3
ACAD_GROUP
350
D
  3
ACAD_LAYOUT
350
1A
  3
ACAD_MATERIAL
350
3B
  3
ACAD_MLEADERSTYLE
350
9E
  3
ACAD_MLINESTYLE
350
17
  3
ACAD_PLOTSETTINGS
350
19
  3
ACAD_PLOTSTYLENAME
350
E
  3
ACAD_TABLESTYLE
350
9D
  3
ACAD_VISUALSTYLE
350
2A
  0
DICTIONARY
  5
D
102
{ACAD_REACTORS
330
C
102
}
330
C
100
AcDbDictionary
281
     1
  0
DICTIONARY
  5
1A
102
{ACAD_REACTORS
330
C
102
}
330
C
100
AcDbDictionary
281
     1
  3
Layout1
350
1E
  3
Layout2
350
26
  3
Model
350
22
  0
DICTIONARY
  5
3B
102
{ACAD_REACTORS
330
C
102
}
330
C
100
AcDbDictionary
281
     1
  3
ByBlock
350
3D
  3
ByLayer
350
3C
  3
Global
350
3E
  0
DICTIONARY
  5
9E
102
{ACAD_REACTORS
330
C
102
}
330
C
100
AcDbDictionary
281
     1
  0
DICTIONARY
  5
17
102
{ACAD_REACTORS
330
C
102
}
330
C
100
AcDbDictionary
281
     1
  3
Standard
350
18
  0
DICTIONARY
  5
19
102
{ACAD_REACTORS
330
C
102
}
330
C
100
AcDbDictionary
281
     1
  0
ACDBDICTIONARYWDFLT
  5
E
102
{ACAD_REACTORS
330
C
102
}
330
C
100
AcDbDictionary
281
     1
  3
Normal
350
F
100
AcDbDictionaryWithDefault
340
F
  0
DICTIONARY
  5
9D
102
{ACAD_REACTORS
330
C
102
}
330
C
100
AcDbDictionary
281
     1
  0
DICTIONARY
  5
2A
102
{ACAD_REACTORS
330
C
102
}
330
C
100
AcDbDictionary
281
     1
  3
2dWireframe
350
2F
  3
3D Hidden
350
31
  3
3dWireframe
350
30
  3
Basic
350
32
  3
Brighten
350
36
  3
ColorChange
350
3A
  3
Conceptual
350
34
  3
Dim
350
35
  3
Facepattern
350
39
  3
Flat
350
2B
  3
FlatWithEdges
350
2C
  3
Gouraud
350
2D
  3
GouraudWithEdges
350
2E
  3
Linepattern
350
38
  3
Realistic
350
33
  3
Thicken
350
37
  0
LAYOUT
  5
1E
102
{ACAD_REACTORS
330
1A
102
}
330
1A
100
AcDbPlotSettings
  1

  2
none_device
  4

  6

 40
0.0
 41
0.0
 42
0.0
 43
0.0
 44
0.0
 45
0.0
 46
0.0
 47
0.0
 48
0.0
 49
0.0
140
0.0
141
0.0
142
1.0
143
1.0
 70
   688
 72
     0
 73
     0
 74
     5
  7

 75
    16
 76
     0
 77
     2
 78
   300
147
1.0
148
0.0
149
0.0
100
AcDbLayout
  1
Layout1
 70
     1
 71
     1
 10
0.0
 20
0.0
 11
12.0
 21
9.0
 12
0.0
 22
0.0
 32
0.0
 14
1.000000000000000E+20
 24
1.000000000000000E+20
 34
1.000000000000000E+20
 15
-1.000000000000000E+20
 25
-1.000000000000000E+20
 35
-1.000000000000000E+20
146
0.0
 13
0.0
 23
0.0
 33
0.0
 16
1.0
 26
0.0
 36
0.0
 17
0.0
 27
1.0
 37
0.0
 76
     0
330
1B
  0
LAYOUT
  5
26
102
{ACAD_REACTORS
330
1A
102
}
330
1A
100
AcDbPlotSettings
  1

  2
none_device
  4

  6

 40
0.0
 41
0.0
 42
0.0
 43
0.0
 44
0.0
 45
0.0
 46
0.0
 47
0.0
 48
0.0
 49
0.0
140
0.0
141
0.0
142
1.0
143
1.0
 70
   688
 72
     0
 73
     0
 74
     5
  7

 75
    16
 76
     0
 77
     2
 78
   300
147
1.0
148
0.0
149
0.0
100
AcDbLayout
  1
Layout2
 70
     1
 71
     2
 10
0.0
 20
0.0
 11
0.0
 21
0.0
 12
0.0
 22
0.0
 32
0.0
 14
0.0
 24
0.0
 34
0.0
 15
0.0
 25
0.0
 35
0.0
146
0.0
 13
0.0
 23
0.0
 33
0.0
 16
1.0
 26
0.0
 36
0.0
 17
0.0
 27
1.0
 37
0.0
 76
     0
330
23
  0
LAYOUT
  5
22
102
{ACAD_REACTORS
330
1A
102
}
330
1A
100
AcDbPlotSettings
  1

  2
none_device
  4

  6

 40
0.0
 41
0.0
 42
0.0
 43
0.0
 44
0.0
 45
0.0
 46
0.0
 47
0.0
 48
0.0
 49
0.0
140
0.0
141
0.0
142
1.0
143
1.0
 70
  1712
 72
     0
 73
     0
 74
     0
  7

 75
     0
 76
     0
 77
     2
 78
   300
147
1.0
148
0.0
149
0.0
100
AcDbLayout
  1
Model
 70
     1
 71
     0
 10
0.0
 20
0.0
 11
12.0
 21
9.0
 12
0.0
 22
0.0
 32
0.0
 14
-88.4382
 24
-115.0257
 34
0.0
 15
35.0454
 25
131.8653
 35
0.0
146
0.0
 13
0.0
 23
0.0
 33
0.0
 16
1.0
 26
0.0
 36
0.0
 17
0.0
 27
1.0
 37
0.0
 76
     0
330
1F
331
29
  0
MATERIAL
  5
3D
102
{ACAD_REACTORS
330
3B
102
}
330
3B
100
AcDbMaterial
  1
ByBlock
 72
     1
 94
      127
  0
MATERIAL
  5
3C
102
{ACAD_REACTORS
330
3B
102
}
330
3B
100
AcDbMaterial
  1
ByLayer
 72
     1
 94
      127
  0
MATERIAL
  5
3E
102
{ACAD_REACTORS
330
3B
102
}
330
3B
100
AcDbMaterial
  1
Global
 72
     1
 94
      127
  0
MLINESTYLE
  5
18
102
{ACAD_REACTORS
330
17
102
}
330
17
100
AcDbMlineStyle
  2
Standard
 70
     0
  3

 62
   256
 51
90.0
 52
90.0
 71
     2
 49
0.5
 62
   256
  6
BYLAYER
 49
-0.5
 62
   256
  6
BYLAYER
  0
ACDBPLACEHOLDER
  5
F
102
{ACAD_REACTORS
330
E
102
}
330
E
  0
VISUALSTYLE
  5
2F
102
{ACAD_REACTORS
330
2A
102
}
102
{ACAD_XDICTIONARY
360
85
102
}
330
2A
100
AcDbVisualStyle
  2
2dWireframe
 70
     4
 71
     0
 72
     2
 73
     0
 90
        0
 40
-0.6
 41
-30.0
 62
     5
 63
     7
421
 16777215
 74
     1
 91
        4
 64
     7
 65
   257
 75
     1
175
     1
 42
1.0
 92
        0
 66
   257
 43
1.0
 76
     1
 77
     6
 78
     2
 67
     7
 79
     5
170
     0
171
     0
290
     0
174
     0
 93
        1
 44
0.0
173
     0
291
     0
 45
0.0
  0
VISUALSTYLE
  5
31
102
{ACAD_REACTORS
330
2A
102
}
102
{ACAD_XDICTIONARY
360
89
102
}
330
2A
100
AcDbVisualStyle
  2
3D Hidden
 70
     6
 71
     1
 72
     2
 73
     2
 90
        0
 40
-0.6
 41
-30.0
 62
     5
 63
     7
421
 16777215
 74
     2
 91
        2
 64
     7
 65
   257
 75
     2
175
     1
 42
40.0
 92
        0
 66
   257
 43
1.0
 76
     1
 77
     6
 78
     2
 67
     7
 79
     3
170
     0
171
     0
290
     0
174
     0
 93
        1
 44
0.0
173
     0
291
     0
 45
0.0
  0
VISUALSTYLE
  5
30
102
{ACAD_REACTORS
330
2A
102
}
102
{ACAD_XDICTIONARY
360
87
102
}
330
2A
100
AcDbVisualStyle
  2
3dWireframe
 70
     5
 71
     0
 72
     2
 73
     0
 90
        0
 40
-0.6
 41
-30.0
 62
     5
 63
     7
421
 16777215
 74
     1
 91
        4
 64
     7
 65
   257
 75
     1
175
     1
 42
1.0
 92
        0
 66
   257
 43
1.0
 76
     1
 77
     6
 78
     2
 67
     7
 79
     5
170
     0
171
     0
290
     0
174
     0
 93
        1
 44
0.0
173
     0
291
     0
 45
0.0
  0
VISUALSTYLE
  5
32
102
{ACAD_REACTORS
330
2A
102
}
102
{ACAD_XDICTIONARY
360
8B
102
}
330
2A
100
AcDbVisualStyle
  2
Basic
 70
     7
 71
     1
 72
     0
 73
     1
 90
        0
 40
-0.6
 41
-30.0
 62
     5
 63
     7
421
 16777215
 74
     0
 91
        4
 64
     7
 65
   257
 75
     1
175
     1
 42
1.0
 92
        8
 66
     7
 43
1.0
 76
     1
 77
     6
 78
     2
 67
     7
 79
     5
170
     0
171
     0
290
     0
174
     0
 93
        1
 44
0.0
173
     0
291
     1
 45
0.0
  0
VISUALSTYLE
  5
36
102
{ACAD_REACTORS
330
2A
102
}
102
{ACAD_XDICTIONARY
360
93
102
}
330
2A
100
AcDbVisualStyle
  2
Brighten
 70
    12
 71
     2
 72
     2
 73
     0
 90
        0
 40
-0.6
 41
-30.0
 62
     5
 63
     7
421
 16777215
 74
     1
 91
        4
 64
     7
 65
   257
 75
     1
175
     1
 42
1.0
 92
        8
 66
     7
 43
1.0
 76
     1
 77
     6
 78
     2
 67
     7
 79
     5
170
     0
171
     0
290
     0
174
     0
 93
        1
 44
50.0
173
     0
291
     1
 45
0.0
  0
VISUALSTYLE
  5
3A
102
{ACAD_REACTORS
330
2A
102
}
102
{ACAD_XDICTIONARY
360
9B
102
}
330
2A
100
AcDbVisualStyle
  2
ColorChange
 70
    16
 71
     2
 72
     2
 73
     3
 90
        0
 40
-0.6
 41
-30.0
 62
     5
 63
     8
421
  8421504
 74
     1
 91
        4
 64
     7
 65
   257
 75
     1
175
     1
 42
1.0
 92
        8
 66
     8
424
  8421504
 43
1.0
 76
     1
 77
     6
 78
     2
 67
     7
 79
     5
170
     0
171
     0
290
     0
174
     0
 93
        1
 44
0.0
173
     0
291
     1
 45
0.0
  0
VISUALSTYLE
  5
34
102
{ACAD_REACTORS
330
2A
102
}
102
{ACAD_XDICTIONARY
360
8F
102
}
330
2A
100
AcDbVisualStyle
  2
Conceptual
 70
     9
 71
     3
 72
     2
 73
     0
 90
        0
 40
-0.6
 41
-30.0
 62
     5
 63
     7
421
 16777215
 74
     2
 91
        2
 64
     7
 65
   257
 75
     1
175
     1
 42
40.0
 92
        8
 66
     7
 43
1.0
 76
     1
 77
     6
 78
     2
 67
     7
 79
     3
170
     0
171
     0
290
     0
174
     0
 93
        1
 44
0.0
173
     0
291
     0
 45
0.0
  0
VISUALSTYLE
  5
35
102
{ACAD_REACTORS
330
2A
102
}
102
{ACAD_XDICTIONARY
360
91
102
}
330
2A
100
AcDbVisualStyle
  2
Dim
 70
    11
 71
     2
 72
     2
 73
     0
 90
        0
 40
-0.6
 41
-30.0
 62
     5
 63
     7
421
 16777215
 74
     1
 91
        4
 64
     7
 65
   257
 75
     1
175
     1
 42
1.0
 92
        8
 66
     7
 43
1.0
 76
     1
 77
     6
 78
     2
 67
     7
 79
     5
170
     0
171
     0
290
     0
174
     0
 93
        1
 44
-50.0
173
     0
291
     1
 45
0.0
  0
VISUALSTYLE
  5
39
102
{ACAD_REACTORS
330
2A
102
}
102
{ACAD_XDICTIONARY
360
99
102
}
330
2A
100
AcDbVisualStyle
  2
Facepattern
 70
    15
 71
     2
 72
     2
 73
     0
 90
        0
 40
-0.6
 41
-30.0
 62
     5
 63
     7
421
 16777215
 74
     1
 91
        4
 64
     7
 65
   257
 75
     1
175
     1
 42
1.0
 92
        8
 66
     7
 43
1.0
 76
     1
 77
     6
 78
     2
 67
     7
 79
     5
170
     0
171
     0
290
     0
174
     0
 93
        1
 44
0.0
173
     0
291
     1
 45
0.0
  0
VISUALSTYLE
  5
2B
102
{ACAD_REACTORS
330
2A
102
}
102
{ACAD_XDICTIONARY
360
7D
102
}
330
2A
100
AcDbVisualStyle
  2
Flat
 70
     0
 71
     2
 72
     1
 73
     1
 90
        2
 40
-0.6
 41
30.0
 62
     5
 63
     7
421
 16777215
 74
     0
 91
        4
 64
     7
 65
   257
 75
     1
175
     1
 42
1.0
 92
        8
 66
     7
 43
1.0
 76
     1
 77
     6
 78
     2
 67
     7
 79
     5
170
     0
171
     0
290
     0
174
     0
 93
       13
 44
0.0
173
     0
291
     1
 45
0.0
  0
VISUALSTYLE
  5
2C
102
{ACAD_REACTORS
330
2A
102
}
102
{ACAD_XDICTIONARY
360
7F
102
}
330
2A
100
AcDbVisualStyle
  2
FlatWithEdges
 70
     1
 71
     2
 72
     1
 73
     1
 90
        2
 40
-0.6
 41
30.0
 62
     5
 63
     7
421
 16777215
 74
     1
 91
        4
 64
     7
 65
   257
 75
     1
175
     1
 42
1.0
 92
        0
 66
   257
 43
1.0
 76
     1
 77
     6
 78
     2
 67
     7
 79
     5
170
     0
171
     0
290
     0
174
     0
 93
       13
 44
0.0
173
     0
291
     1
 45
0.0
  0
VISUALSTYLE
  5
2D
102
{ACAD_REACTORS
330
2A
102
}
102
{ACAD_XDICTIONARY
360
81
102
}
330
2A
100
AcDbVisualStyle
  2
Gouraud
 70
     2
 71
     2
 72
     2
 73
     1
 90
        2
 40
-0.6
 41
30.0
 62
     5
 63
     7
421
 16777215
 74
     0
 91
        4
 64
     7
 65
   257
 75
     1
175
     1
 42
1.0
 92
        0
 66
     7
 43
1.0
 76
     1
 77
     6
 78
     2
 67
     7
 79
     5
170
     0
171
     0
290
     0
174
     0
 93
       13
 44
0.0
173
     0
291
     1
 45
0.0
  0
VISUALSTYLE
  5
2E
102
{ACAD_REACTORS
330
2A
102
}
102
{ACAD_XDICTIONARY
360
83
102
}
330
2A
100
AcDbVisualStyle
  2
GouraudWithEdges
 70
     3
 71
     2
 72
     2
 73
     1
 90
        2
 40
-0.6
 41
30.0
 62
     5
 63
     7
421
 16777215
 74
     1
 91
        4
 64
     7
 65
   257
 75
     1
175
     1
 42
1.0
 92
        0
 66
   257
 43
1.0
 76
     1
 77
     6
 78
     2
 67
     7
 79
     5
170
     0
171
     0
290
     0
174
     0
 93
       13
 44
0.0
173
     0
291
     1
 45
0.0
  0
VISUALSTYLE
  5
38
102
{ACAD_REACTORS
330
2A
102
}
102
{ACAD_XDICTIONARY
360
97
102
}
330
2A
100
AcDbVisualStyle
  2
Linepattern
 70
    14
 71
     2
 72
     2
 73
     0
 90
        0
 40
-0.6
 41
-30.0
 62
     5
 63
     7
421
 16777215
 74
     1
 91
        4
 64
     7
 65
   257
 75
     7
175
     7
 42
1.0
 92
        8
 66
     7
 43
1.0
 76
     1
 77
     6
 78
     2
 67
     7
 79
     5
170
     0
171
     0
290
     0
174
     0
 93
        1
 44
0.0
173
     0
291
     1
 45
0.0
  0
VISUALSTYLE
  5
33
102
{ACAD_REACTORS
330
2A
102
}
102
{ACAD_XDICTIONARY
360
8D
102
}
330
2A
100
AcDbVisualStyle
  2
Realistic
 70
     8
 71
     2
 72
     2
 73
     0
 90
        0
 40
-0.6
 41
-30.0
 62
     5
 63
     7
421
 16777215
 74
     1
 91
        0
 64
     7
 65
   257
 75
     1
175
     1
 42
1.0
 92
        8
 66
     8
424
  7895160
 43
1.0
 76
     1
 77
     6
 78
     2
 67
     7
 79
     5
170
     0
171
     0
290
     0
174
     0
 93
       13
 44
0.0
173
     0
291
     0
 45
0.0
  0
VISUALSTYLE
  5
37
102
{ACAD_REACTORS
330
2A
102
}
102
{ACAD_XDICTIONARY
360
95
102
}
330
2A
100
AcDbVisualStyle
  2
Thicken
 70
    13
 71
     2
 72
     2
 73
     0
 90
        0
 40
-0.6
 41
-30.0
 62
     5
 63
     7
421
 16777215
 74
     1
 91
        4
 64
     7
 65
   257
 75
     1
175
     1
 42
1.0
 92
       12
 66
     7
 43
1.0
 76
     1
 77
     6
 78
     2
 67
     7
 79
     5
170
     0
171
     0
290
     0
174
     0
 93
        1
 44
0.0
173
     0
291
     1
 45
0.0
  0
DICTIONARY
  5
85
330
2F
100
AcDbDictionary
280
     1
281
     1
  3
ACAD_XREC_ROUNDTRIP
360
86
  0
DICTIONARY
  5
89
330
31
100
AcDbDictionary
280
     1
281
     1
  3
ACAD_XREC_ROUNDTRIP
360
8A
  0
DICTIONARY
  5
87
330
30
100
AcDbDictionary
280
     1
281
     1
  3
ACAD_XREC_ROUNDTRIP
360
88
  0
DICTIONARY
  5
8B
330
32
100
AcDbDictionary
280
     1
281
     1
  3
ACAD_XREC_ROUNDTRIP
360
8C
  0
DICTIONARY
  5
93
330
36
100
AcDbDictionary
280
     1
281
     1
  3
ACAD_XREC_ROUNDTRIP
360
94
  0
DICTIONARY
  5
9B
330
3A
100
AcDbDictionary
280
     1
281
     1
  3
ACAD_XREC_ROUNDTRIP
360
9C
  0
DICTIONARY
  5
8F
330
34
100
AcDbDictionary
280
     1
281
     1
  3
ACAD_XREC_ROUNDTRIP
360
90
  0
DICTIONARY
  5
91
330
35
100
AcDbDictionary
280
     1
281
     1
  3
ACAD_XREC_ROUNDTRIP
360
92
  0
DICTIONARY
  5
99
330
39
100
AcDbDictionary
280
     1
281
     1
  3
ACAD_XREC_ROUNDTRIP
360
9A
  0
DICTIONARY
  5
7D
330
2B
100
AcDbDictionary
280
     1
281
     1
  3
ACAD_XREC_ROUNDTRIP
360
7E
  0
DICTIONARY
  5
7F
330
2C
100
AcDbDictionary
280
     1
281
     1
  3
ACAD_XREC_ROUNDTRIP
360
80
  0
DICTIONARY
  5
81
330
2D
100
AcDbDictionary
280
     1
281
     1
  3
ACAD_XREC_ROUNDTRIP
360
82
  0
DICTIONARY
  5
83
330
2E
100
AcDbDictionary
280
     1
281
     1
  3
ACAD_XREC_ROUNDTRIP
360
84
  0
DICTIONARY
  5
97
330
38
100
AcDbDictionary
280
     1
281
     1
  3
ACAD_XREC_ROUNDTRIP
360
98
  0
DICTIONARY
  5
8D
330
33
100
AcDbDictionary
280
     1
281
     1
  3
ACAD_XREC_ROUNDTRIP
360
8E
  0
DICTIONARY
  5
95
330
37
100
AcDbDictionary
280
     1
281
     1
  3
ACAD_XREC_ROUNDTRIP
360
96
  0
XRECORD
  5
86
102
{ACAD_REACTORS
330
85
102
}
330
85
100
AcDbXrecord
280
     1
102
RTVSPropertyOp0
 70
     1
102
RTVSPropertyOp1
 70
     1
102
RTVSPropertyOp2
 70
     1
102
RTVSPropertyOp3
 70
     1
102
RTVSPropertyOp4
 70
     1
102
RTVSPropertyOp5
 70
     1
102
RTVSPropertyOp6
 70
     1
102
RTVSPropertyOp7
 70
     1
102
RTVSPropertyOp8
 70
     1
102
RTVSPropertyOp9
 70
     1
102
RTVSPropertyOp10
 70
     1
102
RTVSPropertyOp11
 70
     1
102
RTVSPropertyOp12
 70
     1
102
RTVSPropertyOp13
 70
     1
102
RTVSPropertyOp14
 70
     1
102
RTVSPropertyOp15
 70
     1
102
RTVSPropertyOp16
 70
     1
102
RTVSPropertyOp17
 70
     1
102
RTVSPropertyOp18
 70
     1
102
RTVSPropertyOp19
 70
     1
102
RTVSPropertyOp20
 70
     1
102
RTVSPropertyOp21
 70
     1
102
RTVSPropertyOp22
 70
     1
102
RTVSPropertyOp23
 70
     1
102
RTVSPropertyOp24
 70
     1
102
RTVSPropertyOp25
 70
     1
102
RTVSPropertyOp26
 70
     1
102
RTVSPropertyOp27
 70
     1
102
RTVSPropertyOp28
 70
     1
102
RTVSPropertyOp29
 70
     1
102
RTVSPropertyOp30
 70
     1
102
RTVSPropertyOp31
 70
     1
102
RTVSPropertyOp32
 70
     1
  0
XRECORD
  5
8A
102
{ACAD_REACTORS
330
89
102
}
330
89
100
AcDbXrecord
280
     1
102
RTVSPropertyOp0
 70
     1
102
RTVSPropertyOp1
 70
     1
102
RTVSPropertyOp2
 70
     1
102
RTVSPropertyOp3
 70
     1
102
RTVSPropertyOp4
 70
     1
102
RTVSPropertyOp5
 70
     1
102
RTVSPropertyOp6
 70
     1
102
RTVSPropertyOp7
 70
     1
102
RTVSPropertyOp8
 70
     1
102
RTVSPropertyOp9
 70
     1
102
RTVSPropertyOp10
 70
     1
102
RTVSPropertyOp11
 70
     1
102
RTVSPropertyOp12
 70
     1
102
RTVSPropertyOp13
 70
     1
102
RTVSPropertyOp14
 70
     1
102
RTVSPropertyOp15
 70
     1
102
RTVSPropertyOp16
 70
     1
102
RTVSPropertyOp17
 70
     1
102
RTVSPropertyOp18
 70
     1
102
RTVSPropertyOp19
 70
     1
102
RTVSPropertyOp20
 70
     1
102
RTVSPropertyOp21
 70
     1
102
RTVSPropertyOp22
 70
     1
102
RTVSPropertyOp23
 70
     1
102
RTVSPropertyOp24
 70
     1
102
RTVSPropertyOp25
 70
     1
102
RTVSPropertyOp26
 70
     1
102
RTVSPropertyOp27
 70
     1
102
RTVSPropertyOp28
 70
     1
102
RTVSPropertyOp29
 70
     1
102
RTVSPropertyOp30
 70
     1
102
RTVSPropertyOp31
 70
     1
102
RTVSPropertyOp32
 70
     1
  0
XRECORD
  5
88
102
{ACAD_REACTORS
330
87
102
}
330
87
100
AcDbXrecord
280
     1
102
RTVSPropertyOp0
 70
     1
102
RTVSPropertyOp1
 70
     1
102
RTVSPropertyOp2
 70
     1
102
RTVSPropertyOp3
 70
     1
102
RTVSPropertyOp4
 70
     1
102
RTVSPropertyOp5
 70
     1
102
RTVSPropertyOp6
 70
     1
102
RTVSPropertyOp7
 70
     1
102
RTVSPropertyOp8
 70
     1
102
RTVSPropertyOp9
 70
     1
102
RTVSPropertyOp10
 70
     1
102
RTVSPropertyOp11
 70
     1
102
RTVSPropertyOp12
 70
     1
102
RTVSPropertyOp13
 70
     1
102
RTVSPropertyOp14
 70
     1
102
RTVSPropertyOp15
 70
     1
102
RTVSPropertyOp16
 70
     1
102
RTVSPropertyOp17
 70
     1
102
RTVSPropertyOp18
 70
     1
102
RTVSPropertyOp19
 70
     1
102
RTVSPropertyOp20
 70
     1
102
RTVSPropertyOp21
 70
     1
102
RTVSPropertyOp22
 70
     1
102
RTVSPropertyOp23
 70
     1
102
RTVSPropertyOp24
 70
     1
102
RTVSPropertyOp25
 70
     1
102
RTVSPropertyOp26
 70
     1
102
RTVSPropertyOp27
 70
     1
102
RTVSPropertyOp28
 70
     1
102
RTVSPropertyOp29
 70
     1
102
RTVSPropertyOp30
 70
     1
102
RTVSPropertyOp31
 70
     1
102
RTVSPropertyOp32
 70
     1
  0
XRECORD
  5
8C
102
{ACAD_REACTORS
330
8B
102
}
330
8B
100
AcDbXrecord
280
     1
102
RTVSPropertyOp0
 70
     1
102
RTVSPropertyOp1
 70
     1
102
RTVSPropertyOp2
 70
     1
102
RTVSPropertyOp3
 70
     1
102
RTVSPropertyOp4
 70
     1
102
RTVSPropertyOp5
 70
     1
102
RTVSPropertyOp6
 70
     1
102
RTVSPropertyOp7
 70
     1
102
RTVSPropertyOp8
 70
     1
102
RTVSPropertyOp9
 70
     1
102
RTVSPropertyOp10
 70
     1
102
RTVSPropertyOp11
 70
     1
102
RTVSPropertyOp12
 70
     1
102
RTVSPropertyOp13
 70
     1
102
RTVSPropertyOp14
 70
     1
102
RTVSPropertyOp15
 70
     1
102
RTVSPropertyOp16
 70
     1
102
RTVSPropertyOp17
 70
     1
102
RTVSPropertyOp18
 70
     1
102
RTVSPropertyOp19
 70
     1
102
RTVSPropertyOp20
 70
     1
102
RTVSPropertyOp21
 70
     1
102
RTVSPropertyOp22
 70
     1
102
RTVSPropertyOp23
 70
     1
102
RTVSPropertyOp24
 70
     1
102
RTVSPropertyOp25
 70
     1
102
RTVSPropertyOp26
 70
     1
102
RTVSPropertyOp27
 70
     1
102
RTVSPropertyOp28
 70
     1
102
RTVSPropertyOp29
 70
     1
102
RTVSPropertyOp30
 70
     1
102
RTVSPropertyOp31
 70
     1
102
RTVSPropertyOp32
 70
     1
  0
XRECORD
  5
94
102
{ACAD_REACTORS
330
93
102
}
330
93
100
AcDbXrecord
280
     1
102
RTVSPropertyOp0
 70
     1
102
RTVSPropertyOp1
 70
     1
102
RTVSPropertyOp2
 70
     1
102
RTVSPropertyOp3
 70
     1
102
RTVSPropertyOp4
 70
     1
102
RTVSPropertyOp5
 70
     1
102
RTVSPropertyOp6
 70
     1
102
RTVSPropertyOp7
 70
     1
102
RTVSPropertyOp8
 70
     1
102
RTVSPropertyOp9
 70
     1
102
RTVSPropertyOp10
 70
     1
102
RTVSPropertyOp11
 70
     1
102
RTVSPropertyOp12
 70
     1
102
RTVSPropertyOp13
 70
     1
102
RTVSPropertyOp14
 70
     1
102
RTVSPropertyOp15
 70
     1
102
RTVSPropertyOp16
 70
     1
102
RTVSPropertyOp17
 70
     1
102
RTVSPropertyOp18
 70
     1
102
RTVSPropertyOp19
 70
     1
102
RTVSPropertyOp20
 70
     1
102
RTVSPropertyOp21
 70
     1
102
RTVSPropertyOp22
 70
     1
102
RTVSPropertyOp23
 70
     1
102
RTVSPropertyOp24
 70
     1
102
RTVSPropertyOp25
 70
     1
102
RTVSPropertyOp26
 70
     1
102
RTVSPropertyOp27
 70
     1
102
RTVSPropertyOp28
 70
     1
102
RTVSPropertyOp29
 70
     1
102
RTVSPropertyOp30
 70
     1
102
RTVSPropertyOp31
 70
     1
102
RTVSPropertyOp32
 70
     1
  0
XRECORD
  5
9C
102
{ACAD_REACTORS
330
9B
102
}
330
9B
100
AcDbXrecord
280
     1
102
RTVSPropertyOp0
 70
     1
102
RTVSPropertyOp1
 70
     1
102
RTVSPropertyOp2
 70
     1
102
RTVSPropertyOp3
 70
     1
102
RTVSPropertyOp4
 70
     1
102
RTVSPropertyOp5
 70
     1
102
RTVSPropertyOp6
 70
     1
102
RTVSPropertyOp7
 70
     1
102
RTVSPropertyOp8
 70
     1
102
RTVSPropertyOp9
 70
     1
102
RTVSPropertyOp10
 70
     1
102
RTVSPropertyOp11
 70
     1
102
RTVSPropertyOp12
 70
     1
102
RTVSPropertyOp13
 70
     1
102
RTVSPropertyOp14
 70
     1
102
RTVSPropertyOp15
 70
     1
102
RTVSPropertyOp16
 70
     1
102
RTVSPropertyOp17
 70
     1
102
RTVSPropertyOp18
 70
     1
102
RTVSPropertyOp19
 70
     1
102
RTVSPropertyOp20
 70
     1
102
RTVSPropertyOp21
 70
     1
102
RTVSPropertyOp22
 70
     1
102
RTVSPropertyOp23
 70
     1
102
RTVSPropertyOp24
 70
     1
102
RTVSPropertyOp25
 70
     1
102
RTVSPropertyOp26
 70
     1
102
RTVSPropertyOp27
 70
     1
102
RTVSPropertyOp28
 70
     1
102
RTVSPropertyOp29
 70
     1
102
RTVSPropertyOp30
 70
     1
102
RTVSPropertyOp31
 70
     1
102
RTVSPropertyOp32
 70
     1
  0
XRECORD
  5
90
102
{ACAD_REACTORS
330
8F
102
}
330
8F
100
AcDbXrecord
280
     1
102
RTVSPropertyOp0
 70
     1
102
RTVSPropertyOp1
 70
     1
102
RTVSPropertyOp2
 70
     1
102
RTVSPropertyOp3
 70
     1
102
RTVSPropertyOp4
 70
     1
102
RTVSPropertyOp5
 70
     1
102
RTVSPropertyOp6
 70
     1
102
RTVSPropertyOp7
 70
     1
102
RTVSPropertyOp8
 70
     1
102
RTVSPropertyOp9
 70
     1
102
RTVSPropertyOp10
 70
     1
102
RTVSPropertyOp11
 70
     1
102
RTVSPropertyOp12
 70
     1
102
RTVSPropertyOp13
 70
     1
102
RTVSPropertyOp14
 70
     1
102
RTVSPropertyOp15
 70
     1
102
RTVSPropertyOp16
 70
     1
102
RTVSPropertyOp17
 70
     1
102
RTVSPropertyOp18
 70
     1
102
RTVSPropertyOp19
 70
     1
102
RTVSPropertyOp20
 70
     1
102
RTVSPropertyOp21
 70
     1
102
RTVSPropertyOp22
 70
     1
102
RTVSPropertyOp23
 70
     1
102
RTVSPropertyOp24
 70
     1
102
RTVSPropertyOp25
 70
     1
102
RTVSPropertyOp26
 70
     1
102
RTVSPropertyOp27
 70
     1
102
RTVSPropertyOp28
 70
     1
102
RTVSPropertyOp29
 70
     1
102
RTVSPropertyOp30
 70
     1
102
RTVSPropertyOp31
 70
     1
102
RTVSPropertyOp32
 70
     1
  0
XRECORD
  5
92
102
{ACAD_REACTORS
330
91
102
}
330
91
100
AcDbXrecord
280
     1
102
RTVSPropertyOp0
 70
     1
102
RTVSPropertyOp1
 70
     1
102
RTVSPropertyOp2
 70
     1
102
RTVSPropertyOp3
 70
     1
102
RTVSPropertyOp4
 70
     1
102
RTVSPropertyOp5
 70
     1
102
RTVSPropertyOp6
 70
     1
102
RTVSPropertyOp7
 70
     1
102
RTVSPropertyOp8
 70
     1
102
RTVSPropertyOp9
 70
     1
102
RTVSPropertyOp10
 70
     1
102
RTVSPropertyOp11
 70
     1
102
RTVSPropertyOp12
 70
     1
102
RTVSPropertyOp13
 70
     1
102
RTVSPropertyOp14
 70
     1
102
RTVSPropertyOp15
 70
     1
102
RTVSPropertyOp16
 70
     1
102
RTVSPropertyOp17
 70
     1
102
RTVSPropertyOp18
 70
     1
102
RTVSPropertyOp19
 70
     1
102
RTVSPropertyOp20
 70
     1
102
RTVSPropertyOp21
 70
     1
102
RTVSPropertyOp22
 70
     1
102
RTVSPropertyOp23
 70
     1
102
RTVSPropertyOp24
 70
     1
102
RTVSPropertyOp25
 70
     1
102
RTVSPropertyOp26
 70
     1
102
RTVSPropertyOp27
 70
     1
102
RTVSPropertyOp28
 70
     1
102
RTVSPropertyOp29
 70
     1
102
RTVSPropertyOp30
 70
     1
102
RTVSPropertyOp31
 70
     1
102
RTVSPropertyOp32
 70
     1
  0
XRECORD
  5
9A
102
{ACAD_REACTORS
330
99
102
}
330
99
100
AcDbXrecord
280
     1
102
RTVSPropertyOp0
 70
     1
102
RTVSPropertyOp1
 70
     1
102
RTVSPropertyOp2
 70
     1
102
RTVSPropertyOp3
 70
     1
102
RTVSPropertyOp4
 70
     1
102
RTVSPropertyOp5
 70
     1
102
RTVSPropertyOp6
 70
     1
102
RTVSPropertyOp7
 70
     1
102
RTVSPropertyOp8
 70
     1
102
RTVSPropertyOp9
 70
     1
102
RTVSPropertyOp10
 70
     1
102
RTVSPropertyOp11
 70
     1
102
RTVSPropertyOp12
 70
     1
102
RTVSPropertyOp13
 70
     1
102
RTVSPropertyOp14
 70
     1
102
RTVSPropertyOp15
 70
     1
102
RTVSPropertyOp16
 70
     1
102
RTVSPropertyOp17
 70
     1
102
RTVSPropertyOp18
 70
     1
102
RTVSPropertyOp19
 70
     1
102
RTVSPropertyOp20
 70
     1
102
RTVSPropertyOp21
 70
     1
102
RTVSPropertyOp22
 70
     1
102
RTVSPropertyOp23
 70
     1
102
RTVSPropertyOp24
 70
     1
102
RTVSPropertyOp25
 70
     1
102
RTVSPropertyOp26
 70
     1
102
RTVSPropertyOp27
 70
     1
102
RTVSPropertyOp28
 70
     1
102
RTVSPropertyOp29
 70
     1
102
RTVSPropertyOp30
 70
     1
102
RTVSPropertyOp31
 70
     1
102
RTVSPropertyOp32
 70
     1
  0
XRECORD
  5
7E
102
{ACAD_REACTORS
330
7D
102
}
330
7D
100
AcDbXrecord
280
     1
102
RTVSPropertyOp0
 70
     1
102
RTVSPropertyOp1
 70
     1
102
RTVSPropertyOp2
 70
     1
102
RTVSPropertyOp3
 70
     1
102
RTVSPropertyOp4
 70
     1
102
RTVSPropertyOp5
 70
     1
102
RTVSPropertyOp6
 70
     1
102
RTVSPropertyOp7
 70
     1
102
RTVSPropertyOp8
 70
     1
102
RTVSPropertyOp9
 70
     1
102
RTVSPropertyOp10
 70
     1
102
RTVSPropertyOp11
 70
     1
102
RTVSPropertyOp12
 70
     1
102
RTVSPropertyOp13
 70
     1
102
RTVSPropertyOp14
 70
     1
102
RTVSPropertyOp15
 70
     1
102
RTVSPropertyOp16
 70
     1
102
RTVSPropertyOp17
 70
     1
102
RTVSPropertyOp18
 70
     1
102
RTVSPropertyOp19
 70
     1
102
RTVSPropertyOp20
 70
     1
102
RTVSPropertyOp21
 70
     1
102
RTVSPropertyOp22
 70
     1
102
RTVSPropertyOp23
 70
     1
102
RTVSPropertyOp24
 70
     1
102
RTVSPropertyOp25
 70
     1
102
RTVSPropertyOp26
 70
     1
102
RTVSPropertyOp27
 70
     1
102
RTVSPropertyOp28
 70
     1
102
RTVSPropertyOp29
 70
     1
102
RTVSPropertyOp30
 70
     1
102
RTVSPropertyOp31
 70
     1
102
RTVSPropertyOp32
 70
     1
  0
XRECORD
  5
80
102
{ACAD_REACTORS
330
7F
102
}
330
7F
100
AcDbXrecord
280
     1
102
RTVSPropertyOp0
 70
     1
102
RTVSPropertyOp1
 70
     1
102
RTVSPropertyOp2
 70
     1
102
RTVSPropertyOp3
 70
     1
102
RTVSPropertyOp4
 70
     1
102
RTVSPropertyOp5
 70
     1
102
RTVSPropertyOp6
 70
     1
102
RTVSPropertyOp7
 70
     1
102
RTVSPropertyOp8
 70
     1
102
RTVSPropertyOp9
 70
     1
102
RTVSPropertyOp10
 70
     1
102
RTVSPropertyOp11
 70
     1
102
RTVSPropertyOp12
 70
     1
102
RTVSPropertyOp13
 70
     1
102
RTVSPropertyOp14
 70
     1
102
RTVSPropertyOp15
 70
     1
102
RTVSPropertyOp16
 70
     1
102
RTVSPropertyOp17
 70
     1
102
RTVSPropertyOp18
 70
     1
102
RTVSPropertyOp19
 70
     1
102
RTVSPropertyOp20
 70
     1
102
RTVSPropertyOp21
 70
     1
102
RTVSPropertyOp22
 70
     1
102
RTVSPropertyOp23
 70
     1
102
RTVSPropertyOp24
 70
     1
102
RTVSPropertyOp25
 70
     1
102
RTVSPropertyOp26
 70
     1
102
RTVSPropertyOp27
 70
     1
102
RTVSPropertyOp28
 70
     1
102
RTVSPropertyOp29
 70
     1
102
RTVSPropertyOp30
 70
     1
102
RTVSPropertyOp31
 70
     1
102
RTVSPropertyOp32
 70
     1
  0
XRECORD
  5
82
102
{ACAD_REACTORS
330
81
102
}
330
81
100
AcDbXrecord
280
     1
102
RTVSPropertyOp0
 70
     1
102
RTVSPropertyOp1
 70
     1
102
RTVSPropertyOp2
 70
     1
102
RTVSPropertyOp3
 70
     1
102
RTVSPropertyOp4
 70
     1
102
RTVSPropertyOp5
 70
     1
102
RTVSPropertyOp6
 70
     1
102
RTVSPropertyOp7
 70
     1
102
RTVSPropertyOp8
 70
     1
102
RTVSPropertyOp9
 70
     1
102
RTVSPropertyOp10
 70
     1
102
RTVSPropertyOp11
 70
     1
102
RTVSPropertyOp12
 70
     1
102
RTVSPropertyOp13
 70
     1
102
RTVSPropertyOp14
 70
     1
102
RTVSPropertyOp15
 70
     1
102
RTVSPropertyOp16
 70
     1
102
RTVSPropertyOp17
 70
     1
102
RTVSPropertyOp18
 70
     1
102
RTVSPropertyOp19
 70
     1
102
RTVSPropertyOp20
 70
     1
102
RTVSPropertyOp21
 70
     1
102
RTVSPropertyOp22
 70
     1
102
RTVSPropertyOp23
 70
     1
102
RTVSPropertyOp24
 70
     1
102
RTVSPropertyOp25
 70
     1
102
RTVSPropertyOp26
 70
     1
102
RTVSPropertyOp27
 70
     1
102
RTVSPropertyOp28
 70
     1
102
RTVSPropertyOp29
 70
     1
102
RTVSPropertyOp30
 70
     1
102
RTVSPropertyOp31
 70
     1
102
RTVSPropertyOp32
 70
     1
  0
XRECORD
  5
84
102
{ACAD_REACTORS
330
83
102
}
330
83
100
AcDbXrecord
280
     1
102
RTVSPropertyOp0
 70
     1
102
RTVSPropertyOp1
 70
     1
102
RTVSPropertyOp2
 70
     1
102
RTVSPropertyOp3
 70
     1
102
RTVSPropertyOp4
 70
     1
102
RTVSPropertyOp5
 70
     1
102
RTVSPropertyOp6
 70
     1
102
RTVSPropertyOp7
 70
     1
102
RTVSPropertyOp8
 70
     1
102
RTVSPropertyOp9
 70
     1
102
RTVSPropertyOp10
 70
     1
102
RTVSPropertyOp11
 70
     1
102
RTVSPropertyOp12
 70
     1
102
RTVSPropertyOp13
 70
     1
102
RTVSPropertyOp14
 70
     1
102
RTVSPropertyOp15
 70
     1
102
RTVSPropertyOp16
 70
     1
102
RTVSPropertyOp17
 70
     1
102
RTVSPropertyOp18
 70
     1
102
RTVSPropertyOp19
 70
     1
102
RTVSPropertyOp20
 70
     1
102
RTVSPropertyOp21
 70
     1
102
RTVSPropertyOp22
 70
     1
102
RTVSPropertyOp23
 70
     1
102
RTVSPropertyOp24
 70
     1
102
RTVSPropertyOp25
 70
     1
102
RTVSPropertyOp26
 70
     1
102
RTVSPropertyOp27
 70
     1
102
RTVSPropertyOp28
 70
     1
102
RTVSPropertyOp29
 70
     1
102
RTVSPropertyOp30
 70
     1
102
RTVSPropertyOp31
 70
     1
102
RTVSPropertyOp32
 70
     1
  0
XRECORD
  5
98
102
{ACAD_REACTORS
330
97
102
}
330
97
100
AcDbXrecord
280
     1
102
RTVSPropertyOp0
 70
     1
102
RTVSPropertyOp1
 70
     1
102
RTVSPropertyOp2
 70
     1
102
RTVSPropertyOp3
 70
     1
102
RTVSPropertyOp4
 70
     1
102
RTVSPropertyOp5
 70
     1
102
RTVSPropertyOp6
 70
     1
102
RTVSPropertyOp7
 70
     1
102
RTVSPropertyOp8
 70
     1
102
RTVSPropertyOp9
 70
     1
102
RTVSPropertyOp10
 70
     1
102
RTVSPropertyOp11
 70
     1
102
RTVSPropertyOp12
 70
     1
102
RTVSPropertyOp13
 70
     1
102
RTVSPropertyOp14
 70
     1
102
RTVSPropertyOp15
 70
     1
102
RTVSPropertyOp16
 70
     1
102
RTVSPropertyOp17
 70
     1
102
RTVSPropertyOp18
 70
     1
102
RTVSPropertyOp19
 70
     1
102
RTVSPropertyOp20
 70
     1
102
RTVSPropertyOp21
 70
     1
102
RTVSPropertyOp22
 70
     1
102
RTVSPropertyOp23
 70
     1
102
RTVSPropertyOp24
 70
     1
102
RTVSPropertyOp25
 70
     1
102
RTVSPropertyOp26
 70
     1
102
RTVSPropertyOp27
 70
     1
102
RTVSPropertyOp28
 70
     1
102
RTVSPropertyOp29
 70
     1
102
RTVSPropertyOp30
 70
     1
102
RTVSPropertyOp31
 70
     1
102
RTVSPropertyOp32
 70
     1
  0
XRECORD
  5
8E
102
{ACAD_REACTORS
330
8D
102
}
330
8D
100
AcDbXrecord
280
     1
102
RTVSPropertyOp0
 70
     1
102
RTVSPropertyOp1
 70
     1
102
RTVSPropertyOp2
 70
     1
102
RTVSPropertyOp3
 70
     1
102
RTVSPropertyOp4
 70
     1
102
RTVSPropertyOp5
 70
     1
102
RTVSPropertyOp6
 70
     1
102
RTVSPropertyOp7
 70
     1
102
RTVSPropertyOp8
 70
     1
102
RTVSPropertyOp9
 70
     1
102
RTVSPropertyOp10
 70
     1
102
RTVSPropertyOp11
 70
     1
102
RTVSPropertyOp12
 70
     1
102
RTVSPropertyOp13
 70
     1
102
RTVSPropertyOp14
 70
     1
102
RTVSPropertyOp15
 70
     1
102
RTVSPropertyOp16
 70
     1
102
RTVSPropertyOp17
 70
     1
102
RTVSPropertyOp18
 70
     1
102
RTVSPropertyOp19
 70
     1
102
RTVSPropertyOp20
 70
     1
102
RTVSPropertyOp21
 70
     1
102
RTVSPropertyOp22
 70
     1
102
RTVSPropertyOp23
 70
     1
102
RTVSPropertyOp24
 70
     1
102
RTVSPropertyOp25
 70
     1
102
RTVSPropertyOp26
 70
     1
102
RTVSPropertyOp27
 70
     1
102
RTVSPropertyOp28
 70
     1
102
RTVSPropertyOp29
 70
     1
102
RTVSPropertyOp30
 70
     1
102
RTVSPropertyOp31
 70
     1
102
RTVSPropertyOp32
 70
     1
  0
XRECORD
  5
96
102
{ACAD_REACTORS
330
95
102
}
330
95
100
AcDbXrecord
280
     1
102
RTVSPropertyOp0
 70
     1
102
RTVSPropertyOp1
 70
     1
102
RTVSPropertyOp2
 70
     1
102
RTVSPropertyOp3
 70
     1
102
RTVSPropertyOp4
 70
     1
102
RTVSPropertyOp5
 70
     1
102
RTVSPropertyOp6
 70
     1
102
RTVSPropertyOp7
 70
     1
102
RTVSPropertyOp8
 70
     1
102
RTVSPropertyOp9
 70
     1
102
RTVSPropertyOp10
 70
     1
102
RTVSPropertyOp11
 70
     1
102
RTVSPropertyOp12
 70
     1
102
RTVSPropertyOp13
 70
     1
102
RTVSPropertyOp14
 70
     1
102
RTVSPropertyOp15
 70
     1
102
RTVSPropertyOp16
 70
     1
102
RTVSPropertyOp17
 70
     1
102
RTVSPropertyOp18
 70
     1
102
RTVSPropertyOp19
 70
     1
102
RTVSPropertyOp20
 70
     1
102
RTVSPropertyOp21
 70
     1
102
RTVSPropertyOp22
 70
     1
102
RTVSPropertyOp23
 70
     1
102
RTVSPropertyOp24
 70
     1
102
RTVSPropertyOp25
 70
     1
102
RTVSPropertyOp26
 70
     1
102
RTVSPropertyOp27
 70
     1
102
RTVSPropertyOp28
 70
     1
102
RTVSPropertyOp29
 70
     1
102
RTVSPropertyOp30
 70
     1
102
RTVSPropertyOp31
 70
     1
102
RTVSPropertyOp32
 70
     1
  0
ENDSEC
  0
EOF
