  0
SECTION
  2
HEADER
  9
$ACADVER
  1
AC1021
  9
$ACADMAINTVER
 70
    25
  9
$DWGCODEPAGE
  3
ANSI_1256
  9
$INSBASE
 10
0.0
 20
0.0
 30
0.0
  9
$EXTMIN
 10
73.7371
 20
-114.8266
 30
0.0
  9
$EXTMAX
 10
196.4744
 20
131.8435
 30
0.0
  9
$LIMMIN
 10
0.0
 20
0.0
  9
$LIMMAX
 10
12.0
 20
9.0
  9
$ORTHOMODE
 70
     0
  9
$REGENMODE
 70
     1
  9
$FILLMODE
 70
     1
  9
$QTEXTMODE
 70
     0
  9
$MIRRTEXT
 70
     1
  9
$LTSCALE
 40
1.0
  9
$ATTMODE
 70
     1
  9
$TEXTSIZE
 40
0.2
  9
$TRACEWID
 40
0.05
  9
$TEXTSTYLE
  7
Standard
  9
$CLAYER
  8
0
  9
$CELTYPE
  6
ByLayer
  9
$CECOLOR
 62
   256
  9
$CELTSCALE
 40
1.0
  9
$DISPSILH
 70
     0
  9
$DIMSCALE
 40
1.0
  9
$DIMASZ
 40
0.18
  9
$DIMEXO
 40
0.0625
  9
$DIMDLI
 40
0.38
  9
$DIMRND
 40
0.0
  9
$DIMDLE
 40
0.0
  9
$DIMEXE
 40
0.18
  9
$DIMTP
 40
0.0
  9
$DIMTM
 40
0.0
  9
$DIMTXT
 40
0.18
  9
$DIMCEN
 40
0.09
  9
$DIMTSZ
 40
0.0
  9
$DIMTOL
 70
     0
  9
$DIMLIM
 70
     0
  9
$DIMTIH
 70
     1
  9
$DIMTOH
 70
     1
  9
$DIMSE1
 70
     0
  9
$DIMSE2
 70
     0
  9
$DIMTAD
 70
     0
  9
$DIMZIN
 70
     0
  9
$DIMBLK
  1

  9
$DIMASO
 70
     1
  9
$DIMSHO
 70
     1
  9
$DIMPOST
  1

  9
$DIMAPOST
  1

  9
$DIMALT
 70
     0
  9
$DIMALTD
 70
     2
  9
$DIMALTF
 40
25.4
  9
$DIMLFAC
 40
1.0
  9
$DIMTOFL
 70
     0
  9
$DIMTVP
 40
0.0
  9
$DIMTIX
 70
     0
  9
$DIMSOXD
 70
     0
  9
$DIMSAH
 70
     0
  9
$DIMBLK1
  1

  9
$DIMBLK2
  1

  9
$DIMSTYLE
  2
Standard
  9
$DIMCLRD
 70
     0
  9
$DIMCLRE
 70
     0
  9
$DIMCLRT
 70
     0
  9
$DIMTFAC
 40
1.0
  9
$DIMGAP
 40
0.09
  9
$DIMJUST
 70
     0
  9
$DIMSD1
 70
     0
  9
$DIMSD2
 70
     0
  9
$DIMTOLJ
 70
     1
  9
$DIMTZIN
 70
     0
  9
$DIMALTZ
 70
     0
  9
$DIMALTTZ
 70
     0
  9
$DIMUPT
 70
     0
  9
$DIMDEC
 70
     4
  9
$DIMTDEC
 70
     4
  9
$DIMALTU
 70
     2
  9
$DIMALTTD
 70
     2
  9
$DIMTXSTY
  7
Standard
  9
$DIMAUNIT
 70
     0
  9
$DIMADEC
 70
     0
  9
$DIMALTRND
 40
0.0
  9
$DIMAZIN
 70
     0
  9
$DIMDSEP
 70
    46
  9
$DIMATFIT
 70
     3
  9
$DIMFRAC
 70
     0
  9
$DIMLDRBLK
  1

  9
$DIMLUNIT
 70
     2
  9
$DIMLWD
 70
    -2
  9
$DIMLWE
 70
    -2
  9
$DIMTMOVE
 70
     0
  9
$DIMFXL
 40
1.0
  9
$DIMFXLON
 70
     0
  9
$DIMJOGANG
 40
0.7853981633974483
  9
$DIMTFILL
 70
     0
  9
$DIMTFILLCLR
 70
     0
  9
$DIMARCSYM
 70
     0
  9
$DIMLTYPE
  6

  9
$DIMLTEX1
  6

  9
$DIMLTEX2
  6

  9
$LUNITS
 70
     2
  9
$LUPREC
 70
     4
  9
$SKETCHINC
 40
0.1
  9
$FILLETRAD
 40
0.5
  9
$AUNITS
 70
     0
  9
$AUPREC
 70
     0
  9
$MENU
  1
.
  9
$ELEVATION
 40
0.0
  9
$PELEVATION
 40
0.0
  9
$THICKNESS
 40
0.0
  9
$LIMCHECK
 70
     0
  9
$CHAMFERA
 40
0.5
  9
$CHAMFERB
 40
0.5
  9
$CHAMFERC
 40
1.0
  9
$CHAMFERD
 40
0.0
  9
$SKPOLY
 70
     0
  9
$TDCREATE
 40
2458492.392589896
  9
$TDUCREATE
 40
2458492.225923229
  9
$TDUPDATE
 40
2458492.392590092
  9
$TDUUPDATE
 40
2458492.225923426
  9
$TDINDWG
 40
0.0000000116
  9
$TDUSRTIMER
 40
0.0000000116
  9
$USRTIMER
 70
     1
  9
$ANGBASE
 50
0.0
  9
$ANGDIR
 70
     0
  9
$PDMODE
 70
     0
  9
$PDSIZE
 40
0.0
  9
$PLINEWID
 40
0.0
  9
$SPLFRAME
 70
     0
  9
$SPLINETYPE
 70
     6
  9
$SPLINESEGS
 70
     8
  9
$HANDSEED
  5
F9
  9
$SURFTAB1
 70
     6
  9
$SURFTAB2
 70
     6
  9
$SURFTYPE
 70
     6
  9
$SURFU
 70
     6
  9
$SURFV
 70
     6
  9
$UCSBASE
  2

  9
$UCSNAME
  2

  9
$UCSORG
 10
0.0
 20
0.0
 30
0.0
  9
$UCSXDIR
 10
1.0
 20
0.0
 30
0.0
  9
$UCSYDIR
 10
0.0
 20
1.0
 30
0.0
  9
$UCSORTHOREF
  2

  9
$UCSORTHOVIEW
 70
     0
  9
$UCSORGTOP
 10
0.0
 20
0.0
 30
0.0
  9
$UCSORGBOTTOM
 10
0.0
 20
0.0
 30
0.0
  9
$UCSORGLEFT
 10
0.0
 20
0.0
 30
0.0
  9
$UCSORGRIGHT
 10
0.0
 20
0.0
 30
0.0
  9
$UCSORGFRONT
 10
0.0
 20
0.0
 30
0.0
  9
$UCSORGBACK
 10
0.0
 20
0.0
 30
0.0
  9
$PUCSBASE
  2

  9
$PUCSNAME
  2

  9
$PUCSORG
 10
0.0
 20
0.0
 30
0.0
  9
$PUCSXDIR
 10
1.0
 20
0.0
 30
0.0
  9
$PUCSYDIR
 10
0.0
 20
1.0
 30
0.0
  9
$PUCSORTHOREF
  2

  9
$PUCSORTHOVIEW
 70
     0
  9
$PUCSORGTOP
 10
0.0
 20
0.0
 30
0.0
  9
$PUCSORGBOTTOM
 10
0.0
 20
0.0
 30
0.0
  9
$PUCSORGLEFT
 10
0.0
 20
0.0
 30
0.0
  9
$PUCSORGRIGHT
 10
0.0
 20
0.0
 30
0.0
  9
$PUCSORGFRONT
 10
0.0
 20
0.0
 30
0.0
  9
$PUCSORGBACK
 10
0.0
 20
0.0
 30
0.0
  9
$USERI1
 70
     0
  9
$USERI2
 70
     0
  9
$USERI3
 70
     0
  9
$USERI4
 70
     0
  9
$USERI5
 70
     0
  9
$USERR1
 40
0.0
  9
$USERR2
 40
0.0
  9
$USERR3
 40
0.0
  9
$USERR4
 40
0.0
  9
$USERR5
 40
0.0
  9
$WORLDVIEW
 70
     1
  9
$SHADEDGE
 70
     3
  9
$SHADEDIF
 70
    70
  9
$TILEMODE
 70
     1
  9
$MAXACTVP
 70
    64
  9
$PINSBASE
 10
0.0
 20
0.0
 30
0.0
  9
$PLIMCHECK
 70
     0
  9
$PEXTMIN
 10
1.000000000000000E+20
 20
1.000000000000000E+20
 30
1.000000000000000E+20
  9
$PEXTMAX
 10
-1.000000000000000E+20
 20
-1.000000000000000E+20
 30
-1.000000000000000E+20
  9
$PLIMMIN
 10
0.0
 20
0.0
  9
$PLIMMAX
 10
12.0
 20
9.0
  9
$UNITMODE
 70
     0
  9
$VISRETAIN
 70
     1
  9
$PLINEGEN
 70
     0
  9
$PSLTSCALE
 70
     1
  9
$TREEDEPTH
 70
  3020
  9
$CMLSTYLE
  2
Standard
  9
$CMLJUST
 70
     0
  9
$CMLSCALE
 40
1.0
  9
$PROXYGRAPHICS
 70
     1
  9
$MEASUREMENT
 70
     0
  9
$CELWEIGHT
370
    -1
  9
$ENDCAPS
280
     0
  9
$JOINSTYLE
280
     0
  9
$LWDISPLAY
290
     0
  9
$INSUNITS
 70
     4
  9
$HYPERLINKBASE
  1

  9
$STYLESHEET
  1

  9
$XEDIT
290
     1
  9
$CEPSNTYPE
380
     0
  9
$PSTYLEMODE
290
     1
  9
$FINGERPRINTGUID
  2
{9AAA58C6-5711-4377-A627-A9C7C6803855}
  9
$VERSIONGUID
  2
{FAEB1C32-E019-11D5-929B-00C0DF256EC4}
  9
$EXTNAMES
290
     1
  9
$PSVPSCALE
 40
0.0
  9
$OLESTARTUP
290
     0
  9
$SORTENTS
280
   127
  9
$INDEXCTL
280
     0
  9
$HIDETEXT
280
     1
  9
$XCLIPFRAME
290
     0
  9
$HALOGAP
280
     0
  9
$OBSCOLOR
 70
   257
  9
$OBSLTYPE
280
     0
  9
$INTERSECTIONDISPLAY
280
     0
  9
$INTERSECTIONCOLOR
 70
   257
  9
$DIMASSOC
280
     2
  9
$PROJECTNAME
  1

  9
$CAMERADISPLAY
290
     0
  9
$LENSLENGTH
 40
50.0
  9
$CAMERAHEIGHT
 40
0.0
  9
$STEPSPERSEC
 40
2.0
  9
$STEPSIZE
 40
6.0
  9
$3DDWFPREC
 40
2.0
  9
$PSOLWIDTH
 40
0.25
  9
$PSOLHEIGHT
 40
4.0
  9
$LOFTANG1
 40
1.570796326794897
  9
$LOFTANG2
 40
1.570796326794897
  9
$LOFTMAG1
 40
0.0
  9
$LOFTMAG2
 40
0.0
  9
$LOFTPARAM
 70
     7
  9
$LOFTNORMALS
280
     1
  9
$LATITUDE
 40
37.795
  9
$LONGITUDE
 40
-122.394
  9
$NORTHDIRECTION
 40
0.0
  9
$TIMEZONE
 70
 -8000
  9
$LIGHTGLYPHDISPLAY
280
     1
  9
$TILEMODELIGHTSYNCH
280
     1
  9
$SOLIDHIST
280
     1
  9
$SHOWHIST
280
     1
  9
$DWFFRAME
280
     2
  9
$DGNFRAME
280
     2
  9
$REALWORLDSCALE
290
     1
  9
$INTERFERECOLOR
 62
   256
  9
$CSHADOW
280
     0
  9
$SHADOWPLANELOCATION
 40
0.0
  0
ENDSEC
  0
SECTION
  2
CLASSES
  0
CLASS
  1
ACDBDICTIONARYWDFLT
  2
AcDbDictionaryWithDefault
  3
ObjectDBX Classes
 90
        0
 91
        4
280
     0
281
     0
  0
CLASS
  1
VISUALSTYLE
  2
AcDbVisualStyle
  3
ObjectDBX Classes
 90
     4095
 91
        4
280
     0
281
     0
  0
CLASS
  1
MATERIAL
  2
AcDbMaterial
  3
ObjectDBX Classes
 90
     1153
 91
        4
280
     0
281
     0
  0
ENDSEC
  0
SECTION
  2
TABLES
  0
TABLE
  2
VPORT
  5
8
330
0
100
AcDbSymbolTable
 70
     1
  0
VPORT
  5
29
330
8
100
AcDbSymbolTableRecord
100
AcDbViewportTableRecord
  2
*Active
 70
     0
 10
0.0
 20
0.0
 11
1.0
 21
1.0
 12
10.42990654205607
 22
4.5
 13
0.0
 23
0.0
 14
0.5
 24
0.5
 15
0.5
 25
0.5
 16
0.0
 26
0.0
 36
1.0
 17
0.0
 27
0.0
 37
0.0
 40
9.0
 41
1.972972972850329
 42
50.0
 43
0.0
 44
0.0
 50
0.0
 51
0.0
 71
     0
 72
   100
 73
     1
 74
     3
 75
     0
 76
     0
 77
     0
 78
     0
281
     0
 65
     1
110
0.0
120
0.0
130
0.0
111
1.0
121
0.0
131
0.0
112
0.0
122
1.0
132
0.0
 79
     0
146
0.0
 60
     3
 61
     5
292
     1
282
     1
141
0.0
142
0.0
 63
   250
  0
ENDTAB
  0
TABLE
  2
LTYPE
  5
5
330
0
100
AcDbSymbolTable
 70
     1
  0
LTYPE
  5
14
330
5
100
AcDbSymbolTableRecord
100
AcDbLinetypeTableRecord
  2
ByBlock
 70
     0
  3

 72
    65
 73
     0
 40
0.0
  0
LTYPE
  5
15
330
5
100
AcDbSymbolTableRecord
100
AcDbLinetypeTableRecord
  2
ByLayer
 70
     0
  3

 72
    65
 73
     0
 40
0.0
  0
LTYPE
  5
16
330
5
100
AcDbSymbolTableRecord
100
AcDbLinetypeTableRecord
  2
Continuous
 70
     0
  3
Solid line
 72
    65
 73
     0
 40
0.0
  0
ENDTAB
  0
TABLE
  2
LAYER
  5
2
330
0
100
AcDbSymbolTable
 70
     2
  0
LAYER
  5
10
330
2
100
AcDbSymbolTableRecord
100
AcDbLayerTableRecord
  2
0
 70
     0
 62
     7
  6
Continuous
370
    -3
390
F
347
3E
  0
LAYER
  5
40
330
2
100
AcDbSymbolTableRecord
100
AcDbLayerTableRecord
  2
layer 1
 70
     0
 62
     7
  6
Continuous
370
    -3
390
F
347
3E
  0
ENDTAB
  0
TABLE
  2
STYLE
  5
3
330
0
100
AcDbSymbolTable
 70
     1
  0
STYLE
  5
11
330
3
100
AcDbSymbolTableRecord
100
AcDbTextStyleTableRecord
  2
Standard
 70
     0
 40
0.0
 41
1.0
 50
0.0
 71
     0
 42
0.2
  3
txt
  4

  0
ENDTAB
  0
TABLE
  2
VIEW
  5
6
330
0
100
AcDbSymbolTable
 70
     0
  0
ENDTAB
  0
TABLE
  2
UCS
  5
7
330
0
100
AcDbSymbolTable
 70
     0
  0
ENDTAB
  0
TABLE
  2
APPID
  5
9
330
0
100
AcDbSymbolTable
 70
     2
  0
APPID
  5
12
330
9
100
AcDbSymbolTableRecord
100
AcDbRegAppTableRecord
  2
ACAD
 70
     0
  0
APPID
  5
3F
330
9
100
AcDbSymbolTableRecord
100
AcDbRegAppTableRecord
  2
ODA
 70
     0
  0
ENDTAB
  0
TABLE
  2
DIMSTYLE
  5
A
330
0
100
AcDbSymbolTable
 70
     1
100
AcDbDimStyleTable
  0
DIMSTYLE
105
27
330
A
100
AcDbSymbolTableRecord
100
AcDbDimStyleTableRecord
  2
Standard
 70
     0
178
     0
340
11
  0
ENDTAB
  0
TABLE
  2
BLOCK_RECORD
  5
1
330
0
100
AcDbSymbolTable
 70
     1
  0
BLOCK_RECORD
  5
1F
330
1
100
AcDbSymbolTableRecord
100
AcDbBlockTableRecord
  2
*Model_Space
340
22
 70
     0
280
     1
281
     0
  0
BLOCK_RECORD
  5
1B
330
1
100
AcDbSymbolTableRecord
100
AcDbBlockTableRecord
  2
*Paper_Space
340
1E
 70
     0
280
     1
281
     0
  0
BLOCK_RECORD
  5
23
330
1
100
AcDbSymbolTableRecord
100
AcDbBlockTableRecord
  2
*Paper_Space0
340
26
 70
     0
280
     1
281
     0
  0
ENDTAB
  0
ENDSEC
  0
SECTION
  2
BLOCKS
  0
BLOCK
  5
20
330
1F
100
AcDbEntity
  8
0
100
AcDbBlockBegin
  2
*Model_Space
 70
     0
 10
0.0
 20
0.0
 30
0.0
  3
*Model_Space
  1

  0
ENDBLK
  5
21
330
1F
100
AcDbEntity
  8
0
100
AcDbBlockEnd
  0
BLOCK
  5
1C
330
1B
100
AcDbEntity
 67
     1
  8
0
100
AcDbBlockBegin
  2
*Paper_Space
 70
     0
 10
0.0
 20
0.0
 30
0.0
  3
*Paper_Space
  1

  0
ENDBLK
  5
1D
330
1B
100
AcDbEntity
 67
     1
  8
0
100
AcDbBlockEnd
  0
BLOCK
  5
24
330
23
100
AcDbEntity
  8
0
100
AcDbBlockBegin
  2
*Paper_Space0
 70
     0
 10
0.0
 20
0.0
 30
0.0
  3
*Paper_Space0
  1

  0
ENDBLK
  5
25
330
23
100
AcDbEntity
  8
0
100
AcDbBlockEnd
  0
ENDSEC
  0
SECTION
  2
ENTITIES
  0
SPLINE
  5
41
330
1F
100
AcDbEntity
  8
layer 1
100
AcDbSpline
210
0.0
220
0.0
230
1.0
 70
     8
 71
     3
 72
    36
 73
    32
 74
     0
 42
0.0000000001
 43
0.0000000001
 12
1.0
 22
0.0
 32
0.0
 13
1.0
 23
0.0
 33
0.0
 40
0.0
 40
0.0
 40
0.0
 40
0.0
 40
0.1111111111111111
 40
0.1111111111111111
 40
0.1111111111111111
 40
0.1111111111111111
 40
0.2222222222222222
 40
0.2222222222222222
 40
0.2222222222222222
 40
0.2222222222222222
 40
0.3333333333333333
 40
0.3333333333333333
 40
0.3333333333333333
 40
0.3333333333333333
 40
0.4444444444444444
 40
0.4444444444444444
 40
0.4444444444444444
 40
0.4444444444444444
 40
0.5555555555555556
 40
0.5555555555555556
 40
0.5555555555555556
 40
0.5555555555555556
 40
0.6666666666666666
 40
0.6666666666666666
 40
0.6666666666666666
 40
0.6666666666666666
 40
0.7777777777777778
 40
0.7777777777777778
 40
0.7777777777777778
 40
0.7777777777777778
 40
1.0
 40
1.0
 40
1.0
 40
1.0
 10
73.8092
 20
131.8435
 30
0.0
 10
73.8092
 20
131.8435
 30
0.0
 10
196.4022
 20
131.8435
 30
0.0
 10
196.4022
 20
131.8435
 30
0.0
 10
196.4022
 20
131.8435
 30
0.0
 10
196.442
 20
131.8434
 30
0.0
 10
196.4743
 20
131.8111
 30
0.0
 10
196.4743
 20
131.7713
 30
0.0
 10
196.4743
 20
131.7713
 30
0.0
 10
196.4743
 20
131.7713
 30
0.0
 10
196.4744
 20
-114.7545
 30
0.0
 10
196.4744
 20
-114.7545
 30
0.0
 10
196.4744
 20
-114.7545
 30
0.0
 10
196.4743
 20
-114.794
 30
0.0
 10
196.442
 20
-114.8263
 30
0.0
 10
196.4022
 20
-114.8263
 30
0.0
 10
196.4022
 20
-114.8263
 30
0.0
 10
196.4022
 20
-114.8263
 30
0.0
 10
73.8092
 20
-114.8266
 30
0.0
 10
73.8092
 20
-114.8266
 30
0.0
 10
73.8092
 20
-114.8266
 30
0.0
 10
73.7695
 20
-114.8263
 30
0.0
 10
73.7372
 20
-114.794
 30
0.0
 10
73.7372
 20
-114.7543
 30
0.0
 10
73.7372
 20
-114.7543
 30
0.0
 10
73.7372
 20
-114.7543
 30
0.0
 10
73.7371
 20
131.7713
 30
0.0
 10
73.7371
 20
131.7713
 30
0.0
 10
73.7371
 20
131.7713
 30
0.0
 10
73.7372
 20
131.8111
 30
0.0
 10
73.7695
 20
131.8434
 30
0.0
 10
73.8093
 20
131.8434
 30
0.0
  0
SPLINE
  5
42
330
1F
100
AcDbEntity
  8
layer 1
 62
     7
100
AcDbSpline
210
0.0
220
0.0
230
1.0
 70
    11
 71
     3
 72
    28
 73
    24
 74
     0
 42
0.0000000001
 43
0.0000000001
 12
1.0
 22
0.0
 32
0.0
 13
1.0
 23
0.0
 33
0.0
 40
0.0
 40
0.0
 40
0.0
 40
0.0
 40
0.1428571428571428
 40
0.1428571428571428
 40
0.1428571428571428
 40
0.1428571428571428
 40
0.2857142857142857
 40
0.2857142857142857
 40
0.2857142857142857
 40
0.2857142857142857
 40
0.4285714285714285
 40
0.4285714285714285
 40
0.4285714285714285
 40
0.4285714285714285
 40
0.5714285714285714
 40
0.5714285714285714
 40
0.5714285714285714
 40
0.5714285714285714
 40
0.7142857142857143
 40
0.7142857142857143
 40
0.7142857142857143
 40
0.7142857142857143
 40
1.0
 40
1.0
 40
1.0
 40
1.0
 10
100.0107
 20
88.4518
 30
0.0
 10
100.0107
 20
88.4518
 30
0.0
 10
97.3271
 20
86.8959
 30
0.0
 10
97.3271
 20
86.8959
 30
0.0
 10
97.3271
 20
86.8959
 30
0.0
 10
97.3271
 20
86.8959
 30
0.0
 10
94.6434
 20
88.4518
 30
0.0
 10
94.6434
 20
88.4518
 30
0.0
 10
94.6434
 20
88.4518
 30
0.0
 10
94.6434
 20
88.4518
 30
0.0
 10
94.6434
 20
91.5634
 30
0.0
 10
94.6434
 20
91.5634
 30
0.0
 10
94.6434
 20
91.5634
 30
0.0
 10
94.6434
 20
91.5634
 30
0.0
 10
97.3271
 20
93.1192
 30
0.0
 10
97.3271
 20
93.1192
 30
0.0
 10
97.3271
 20
93.1192
 30
0.0
 10
97.3271
 20
93.1192
 30
0.0
 10
100.0107
 20
91.5634
 30
0.0
 10
100.0107
 20
91.5634
 30
0.0
 10
100.0107
 20
91.5634
 30
0.0
 10
100.0107
 20
91.5634
 30
0.0
 10
100.0107
 20
88.4518
 30
0.0
 10
100.0107
 20
88.4518
 30
0.0
  0
SPLINE
  5
43
330
1F
100
AcDbEntity
  8
layer 1
 62
     7
100
AcDbSpline
210
0.0
220
0.0
230
1.0
 70
    11
 71
     3
 72
    36
 73
    32
 74
     0
 42
0.0000000001
 43
0.0000000001
 12
1.0
 22
0.0
 32
0.0
 13
1.0
 23
0.0
 33
0.0
 40
0.0
 40
0.0
 40
0.0
 40
0.0
 40
0.1111111111111111
 40
0.1111111111111111
 40
0.1111111111111111
 40
0.1111111111111111
 40
0.2222222222222222
 40
0.2222222222222222
 40
0.2222222222222222
 40
0.2222222222222222
 40
0.3333333333333333
 40
0.3333333333333333
 40
0.3333333333333333
 40
0.3333333333333333
 40
0.4444444444444444
 40
0.4444444444444444
 40
0.4444444444444444
 40
0.4444444444444444
 40
0.5555555555555556
 40
0.5555555555555556
 40
0.5555555555555556
 40
0.5555555555555556
 40
0.6666666666666666
 40
0.6666666666666666
 40
0.6666666666666666
 40
0.6666666666666666
 40
0.7777777777777778
 40
0.7777777777777778
 40
0.7777777777777778
 40
0.7777777777777778
 40
1.0
 40
1.0
 40
1.0
 40
1.0
 10
91.3089
 20
93.4859
 30
0.0
 10
91.3089
 20
93.4859
 30
0.0
 10
91.3089
 20
86.5309
 30
0.0
 10
91.3089
 20
86.5309
 30
0.0
 10
91.3089
 20
86.5309
 30
0.0
 10
91.3089
 20
86.5309
 30
0.0
 10
95.6441
 20
84.0375
 30
0.0
 10
95.6441
 20
84.0375
 30
0.0
 10
95.6441
 20
84.0375
 30
0.0
 10
95.6441
 20
84.0375
 30
0.0
 10
95.654
 20
79.6441
 30
0.0
 10
95.654
 20
79.6441
 30
0.0
 10
95.654
 20
79.6441
 30
0.0
 10
95.654
 20
79.6441
 30
0.0
 10
87.4932
 20
84.3566
 30
0.0
 10
87.4932
 20
84.3566
 30
0.0
 10
87.4932
 20
84.3566
 30
0.0
 10
87.4932
 20
84.3566
 30
0.0
 10
87.4932
 20
95.7138
 30
0.0
 10
87.4932
 20
95.7138
 30
0.0
 10
87.4932
 20
95.7138
 30
0.0
 10
87.4932
 20
95.7138
 30
0.0
 10
95.6572
 20
100.4281
 30
0.0
 10
95.6572
 20
100.4281
 30
0.0
 10
95.6572
 20
100.4281
 30
0.0
 10
95.6572
 20
100.4281
 30
0.0
 10
95.6297
 20
95.9859
 30
0.0
 10
95.6297
 20
95.9859
 30
0.0
 10
95.6297
 20
95.9859
 30
0.0
 10
95.6297
 20
95.9859
 30
0.0
 10
91.3089
 20
93.4859
 30
0.0
 10
91.3089
 20
93.4859
 30
0.0
  0
SPLINE
  5
44
330
1F
100
AcDbEntity
  8
layer 1
 62
     7
100
AcDbSpline
210
0.0
220
0.0
230
1.0
 70
    11
 71
     3
 72
    36
 73
    32
 74
     0
 42
0.0000000001
 43
0.0000000001
 12
1.0
 22
0.0
 32
0.0
 13
1.0
 23
0.0
 33
0.0
 40
0.0
 40
0.0
 40
0.0
 40
0.0
 40
0.1111111111111111
 40
0.1111111111111111
 40
0.1111111111111111
 40
0.1111111111111111
 40
0.2222222222222222
 40
0.2222222222222222
 40
0.2222222222222222
 40
0.2222222222222222
 40
0.3333333333333333
 40
0.3333333333333333
 40
0.3333333333333333
 40
0.3333333333333333
 40
0.4444444444444444
 40
0.4444444444444444
 40
0.4444444444444444
 40
0.4444444444444444
 40
0.5555555555555556
 40
0.5555555555555556
 40
0.5555555555555556
 40
0.5555555555555556
 40
0.6666666666666666
 40
0.6666666666666666
 40
0.6666666666666666
 40
0.6666666666666666
 40
0.7777777777777778
 40
0.7777777777777778
 40
0.7777777777777778
 40
0.7777777777777778
 40
1.0
 40
1.0
 40
1.0
 40
1.0
 10
83.975
 20
82.32
 30
0.0
 10
83.975
 20
82.32
 30
0.0
 10
83.975
 20
97.7364
 30
0.0
 10
83.975
 20
97.7364
 30
0.0
 10
83.975
 20
97.7364
 30
0.0
 10
83.975
 20
97.7364
 30
0.0
 10
95.6413
 20
104.4713
 30
0.0
 10
95.6413
 20
104.4713
 30
0.0
 10
95.6413
 20
104.4713
 30
0.0
 10
95.6413
 20
104.4713
 30
0.0
 10
95.6388
 20
108.6001
 30
0.0
 10
95.6388
 20
108.6001
 30
0.0
 10
95.6388
 20
108.6001
 30
0.0
 10
95.6388
 20
108.6001
 30
0.0
 10
80.3153
 20
99.7565
 30
0.0
 10
80.3153
 20
99.7565
 30
0.0
 10
80.3153
 20
99.7565
 30
0.0
 10
80.3153
 20
99.7565
 30
0.0
 10
80.3153
 20
80.1176
 30
0.0
 10
80.3153
 20
80.1176
 30
0.0
 10
80.3153
 20
80.1176
 30
0.0
 10
80.3153
 20
80.1176
 30
0.0
 10
95.637
 20
71.2736
 30
0.0
 10
95.637
 20
71.2736
 30
0.0
 10
95.637
 20
71.2736
 30
0.0
 10
95.637
 20
71.2736
 30
0.0
 10
95.6432
 20
75.5926
 30
0.0
 10
95.6432
 20
75.5926
 30
0.0
 10
95.6432
 20
75.5926
 30
0.0
 10
95.6432
 20
75.5926
 30
0.0
 10
83.975
 20
82.32
 30
0.0
 10
83.975
 20
82.32
 30
0.0
  0
SPLINE
  5
45
330
1F
100
AcDbEntity
  8
layer 1
 62
     7
100
AcDbSpline
210
0.0
220
0.0
230
1.0
 70
    11
 71
     3
 72
    40
 73
    36
 74
     0
 42
0.0000000001
 43
0.0000000001
 12
1.0
 22
0.0
 32
0.0
 13
1.0
 23
0.0
 33
0.0
 40
0.0
 40
0.0
 40
0.0
 40
0.0
 40
0.1
 40
0.1
 40
0.1
 40
0.1
 40
0.2
 40
0.2
 40
0.2
 40
0.2
 40
0.3
 40
0.3
 40
0.3
 40
0.3
 40
0.4
 40
0.4
 40
0.4
 40
0.4
 40
0.5
 40
0.5
 40
0.5
 40
0.5
 40
0.6
 40
0.6
 40
0.6
 40
0.6
 40
0.7
 40
0.7
 40
0.7
 40
0.7
 40
0.8
 40
0.8
 40
0.8
 40
0.8
 40
1.0
 40
1.0
 40
1.0
 40
1.0
 10
99.0263
 20
95.9902
 30
0.0
 10
99.0263
 20
95.9902
 30
0.0
 10
103.3602
 20
93.4859
 30
0.0
 10
103.3602
 20
93.4859
 30
0.0
 10
103.3602
 20
93.4859
 30
0.0
 10
103.3602
 20
93.4859
 30
0.0
 10
103.3602
 20
86.5309
 30
0.0
 10
103.3602
 20
86.5309
 30
0.0
 10
103.3602
 20
86.5309
 30
0.0
 10
103.3602
 20
86.5309
 30
0.0
 10
99.025
 20
84.0375
 30
0.0
 10
99.025
 20
84.0375
 30
0.0
 10
99.025
 20
84.0375
 30
0.0
 10
99.025
 20
84.0375
 30
0.0
 10
99.0151
 20
79.6441
 30
0.0
 10
99.0151
 20
79.6441
 30
0.0
 10
99.0151
 20
79.6441
 30
0.0
 10
99.0151
 20
79.6441
 30
0.0
 10
107.1759
 20
84.3566
 30
0.0
 10
107.1759
 20
84.3566
 30
0.0
 10
107.1759
 20
84.3566
 30
0.0
 10
107.1759
 20
84.3566
 30
0.0
 10
107.1759
 20
95.7138
 30
0.0
 10
107.1759
 20
95.7138
 30
0.0
 10
107.1759
 20
95.7138
 30
0.0
 10
107.1759
 20
95.7138
 30
0.0
 10
99.0118
 20
100.4281
 30
0.0
 10
99.0118
 20
100.4281
 30
0.0
 10
99.0118
 20
100.4281
 30
0.0
 10
99.0118
 20
100.4281
 30
0.0
 10
99.0526
 20
95.9817
 30
0.0
 10
99.0526
 20
95.9817
 30
0.0
 10
99.0526
 20
95.9817
 30
0.0
 10
99.0526
 20
95.9817
 30
0.0
 10
99.0263
 20
95.9902
 30
0.0
 10
99.0263
 20
95.9902
 30
0.0
  0
SPLINE
  5
46
330
1F
100
AcDbEntity
  8
layer 1
 62
     7
100
AcDbSpline
210
0.0
220
0.0
230
1.0
 70
    27
 71
     3
 72
    12
 73
     8
 74
     0
 42
0.0000000001
 43
0.0000000001
 12
1.0
 22
0.0
 32
0.0
 13
1.0
 23
0.0
 33
0.0
 40
0.0
 40
0.0
 40
0.0
 40
0.0
 40
0.3333333333333333
 40
0.3333333333333333
 40
0.3333333333333333
 40
0.3333333333333333
 40
1.0
 40
1.0
 40
1.0
 40
1.0
 10
99.0263
 20
95.9902
 30
0.0
 10
99.0263
 20
95.9902
 30
0.0
 10
99.0263
 20
95.9902
 30
0.0
 10
99.0263
 20
95.9902
 30
0.0
 10
99.0263
 20
95.9902
 30
0.0
 10
99.0263
 20
95.9902
 30
0.0
 10
99.0263
 20
95.9902
 30
0.0
 10
99.0263
 20
95.9902
 30
0.0
  0
SPLINE
  5
47
330
1F
100
AcDbEntity
  8
layer 1
 62
     7
100
AcDbSpline
210
0.0
220
0.0
230
1.0
 70
    11
 71
     3
 72
    36
 73
    32
 74
     0
 42
0.0000000001
 43
0.0000000001
 12
1.0
 22
0.0
 32
0.0
 13
1.0
 23
0.0
 33
0.0
 40
0.0
 40
0.0
 40
0.0
 40
0.0
 40
0.1111111111111111
 40
0.1111111111111111
 40
0.1111111111111111
 40
0.1111111111111111
 40
0.2222222222222222
 40
0.2222222222222222
 40
0.2222222222222222
 40
0.2222222222222222
 40
0.3333333333333333
 40
0.3333333333333333
 40
0.3333333333333333
 40
0.3333333333333333
 40
0.4444444444444444
 40
0.4444444444444444
 40
0.4444444444444444
 40
0.4444444444444444
 40
0.5555555555555556
 40
0.5555555555555556
 40
0.5555555555555556
 40
0.5555555555555556
 40
0.6666666666666666
 40
0.6666666666666666
 40
0.6666666666666666
 40
0.6666666666666666
 40
0.7777777777777778
 40
0.7777777777777778
 40
0.7777777777777778
 40
0.7777777777777778
 40
1.0
 40
1.0
 40
1.0
 40
1.0
 10
110.6857
 20
82.32
 30
0.0
 10
110.6857
 20
82.32
 30
0.0
 10
110.6857
 20
97.7364
 30
0.0
 10
110.6857
 20
97.7364
 30
0.0
 10
110.6857
 20
97.7364
 30
0.0
 10
110.6857
 20
97.7364
 30
0.0
 10
99.0195
 20
104.4713
 30
0.0
 10
99.0195
 20
104.4713
 30
0.0
 10
99.0195
 20
104.4713
 30
0.0
 10
99.0195
 20
104.4713
 30
0.0
 10
99.022
 20
108.6001
 30
0.0
 10
99.022
 20
108.6001
 30
0.0
 10
99.022
 20
108.6001
 30
0.0
 10
99.022
 20
108.6001
 30
0.0
 10
114.3454
 20
99.7565
 30
0.0
 10
114.3454
 20
99.7565
 30
0.0
 10
114.3454
 20
99.7565
 30
0.0
 10
114.3454
 20
99.7565
 30
0.0
 10
114.3454
 20
80.1176
 30
0.0
 10
114.3454
 20
80.1176
 30
0.0
 10
114.3454
 20
80.1176
 30
0.0
 10
114.3454
 20
80.1176
 30
0.0
 10
99.0237
 20
71.2736
 30
0.0
 10
99.0237
 20
71.2736
 30
0.0
 10
99.0237
 20
71.2736
 30
0.0
 10
99.0237
 20
71.2736
 30
0.0
 10
99.0176
 20
75.5926
 30
0.0
 10
99.0176
 20
75.5926
 30
0.0
 10
99.0176
 20
75.5926
 30
0.0
 10
99.0176
 20
75.5926
 30
0.0
 10
110.6857
 20
82.32
 30
0.0
 10
110.6857
 20
82.32
 30
0.0
  0
SPLINE
  5
48
330
1F
100
AcDbEntity
  8
layer 1
 62
     7
100
AcDbSpline
210
0.0
220
0.0
230
1.0
 70
    11
 71
     3
 72
    28
 73
    24
 74
     0
 42
0.0000000001
 43
0.0000000001
 12
1.0
 22
0.0
 32
0.0
 13
1.0
 23
0.0
 33
0.0
 40
0.0
 40
0.0
 40
0.0
 40
0.0
 40
0.1428571428571428
 40
0.1428571428571428
 40
0.1428571428571428
 40
0.1428571428571428
 40
0.2857142857142857
 40
0.2857142857142857
 40
0.2857142857142857
 40
0.2857142857142857
 40
0.4285714285714285
 40
0.4285714285714285
 40
0.4285714285714285
 40
0.4285714285714285
 40
0.5714285714285714
 40
0.5714285714285714
 40
0.5714285714285714
 40
0.5714285714285714
 40
0.7142857142857143
 40
0.7142857142857143
 40
0.7142857142857143
 40
0.7142857142857143
 40
1.0
 40
1.0
 40
1.0
 40
1.0
 10
137.4234
 20
88.4518
 30
0.0
 10
137.4234
 20
88.4518
 30
0.0
 10
134.7397
 20
86.8959
 30
0.0
 10
134.7397
 20
86.8959
 30
0.0
 10
134.7397
 20
86.8959
 30
0.0
 10
134.7397
 20
86.8959
 30
0.0
 10
132.0561
 20
88.4518
 30
0.0
 10
132.0561
 20
88.4518
 30
0.0
 10
132.0561
 20
88.4518
 30
0.0
 10
132.0561
 20
88.4518
 30
0.0
 10
132.0561
 20
91.5634
 30
0.0
 10
132.0561
 20
91.5634
 30
0.0
 10
132.0561
 20
91.5634
 30
0.0
 10
132.0561
 20
91.5634
 30
0.0
 10
134.7397
 20
93.1192
 30
0.0
 10
134.7397
 20
93.1192
 30
0.0
 10
134.7397
 20
93.1192
 30
0.0
 10
134.7397
 20
93.1192
 30
0.0
 10
137.4234
 20
91.5634
 30
0.0
 10
137.4234
 20
91.5634
 30
0.0
 10
137.4234
 20
91.5634
 30
0.0
 10
137.4234
 20
91.5634
 30
0.0
 10
137.4234
 20
88.4518
 30
0.0
 10
137.4234
 20
88.4518
 30
0.0
  0
SPLINE
  5
49
330
1F
100
AcDbEntity
  8
layer 1
 62
     7
100
AcDbSpline
210
0.0
220
0.0
230
1.0
 70
    11
 71
     3
 72
    36
 73
    32
 74
     0
 42
0.0000000001
 43
0.0000000001
 12
1.0
 22
0.0
 32
0.0
 13
1.0
 23
0.0
 33
0.0
 40
0.0
 40
0.0
 40
0.0
 40
0.0
 40
0.1111111111111111
 40
0.1111111111111111
 40
0.1111111111111111
 40
0.1111111111111111
 40
0.2222222222222222
 40
0.2222222222222222
 40
0.2222222222222222
 40
0.2222222222222222
 40
0.3333333333333333
 40
0.3333333333333333
 40
0.3333333333333333
 40
0.3333333333333333
 40
0.4444444444444444
 40
0.4444444444444444
 40
0.4444444444444444
 40
0.4444444444444444
 40
0.5555555555555556
 40
0.5555555555555556
 40
0.5555555555555556
 40
0.5555555555555556
 40
0.6666666666666666
 40
0.6666666666666666
 40
0.6666666666666666
 40
0.6666666666666666
 40
0.7777777777777778
 40
0.7777777777777778
 40
0.7777777777777778
 40
0.7777777777777778
 40
1.0
 40
1.0
 40
1.0
 40
1.0
 10
128.7215
 20
93.4859
 30
0.0
 10
128.7215
 20
93.4859
 30
0.0
 10
128.7215
 20
86.5309
 30
0.0
 10
128.7215
 20
86.5309
 30
0.0
 10
128.7215
 20
86.5309
 30
0.0
 10
128.7215
 20
86.5309
 30
0.0
 10
133.0567
 20
84.0375
 30
0.0
 10
133.0567
 20
84.0375
 30
0.0
 10
133.0567
 20
84.0375
 30
0.0
 10
133.0567
 20
84.0375
 30
0.0
 10
133.0666
 20
79.6441
 30
0.0
 10
133.0666
 20
79.6441
 30
0.0
 10
133.0666
 20
79.6441
 30
0.0
 10
133.0666
 20
79.6441
 30
0.0
 10
124.9058
 20
84.3566
 30
0.0
 10
124.9058
 20
84.3566
 30
0.0
 10
124.9058
 20
84.3566
 30
0.0
 10
124.9058
 20
84.3566
 30
0.0
 10
124.9058
 20
95.7138
 30
0.0
 10
124.9058
 20
95.7138
 30
0.0
 10
124.9058
 20
95.7138
 30
0.0
 10
124.9058
 20
95.7138
 30
0.0
 10
133.0698
 20
100.4281
 30
0.0
 10
133.0698
 20
100.4281
 30
0.0
 10
133.0698
 20
100.4281
 30
0.0
 10
133.0698
 20
100.4281
 30
0.0
 10
133.0422
 20
95.9859
 30
0.0
 10
133.0422
 20
95.9859
 30
0.0
 10
133.0422
 20
95.9859
 30
0.0
 10
133.0422
 20
95.9859
 30
0.0
 10
128.7215
 20
93.4859
 30
0.0
 10
128.7215
 20
93.4859
 30
0.0
  0
SPLINE
  5
4A
330
1F
100
AcDbEntity
  8
layer 1
 62
     7
100
AcDbSpline
210
0.0
220
0.0
230
1.0
 70
    11
 71
     3
 72
    36
 73
    32
 74
     0
 42
0.0000000001
 43
0.0000000001
 12
1.0
 22
0.0
 32
0.0
 13
1.0
 23
0.0
 33
0.0
 40
0.0
 40
0.0
 40
0.0
 40
0.0
 40
0.1111111111111111
 40
0.1111111111111111
 40
0.1111111111111111
 40
0.1111111111111111
 40
0.2222222222222222
 40
0.2222222222222222
 40
0.2222222222222222
 40
0.2222222222222222
 40
0.3333333333333333
 40
0.3333333333333333
 40
0.3333333333333333
 40
0.3333333333333333
 40
0.4444444444444444
 40
0.4444444444444444
 40
0.4444444444444444
 40
0.4444444444444444
 40
0.5555555555555556
 40
0.5555555555555556
 40
0.5555555555555556
 40
0.5555555555555556
 40
0.6666666666666666
 40
0.6666666666666666
 40
0.6666666666666666
 40
0.6666666666666666
 40
0.7777777777777778
 40
0.7777777777777778
 40
0.7777777777777778
 40
0.7777777777777778
 40
1.0
 40
1.0
 40
1.0
 40
1.0
 10
121.3876
 20
82.32
 30
0.0
 10
121.3876
 20
82.32
 30
0.0
 10
121.3876
 20
97.7364
 30
0.0
 10
121.3876
 20
97.7364
 30
0.0
 10
121.3876
 20
97.7364
 30
0.0
 10
121.3876
 20
97.7364
 30
0.0
 10
133.0538
 20
104.4713
 30
0.0
 10
133.0538
 20
104.4713
 30
0.0
 10
133.0538
 20
104.4713
 30
0.0
 10
133.0538
 20
104.4713
 30
0.0
 10
133.0514
 20
108.6001
 30
0.0
 10
133.0514
 20
108.6001
 30
0.0
 10
133.0514
 20
108.6001
 30
0.0
 10
133.0514
 20
108.6001
 30
0.0
 10
117.7279
 20
99.7565
 30
0.0
 10
117.7279
 20
99.7565
 30
0.0
 10
117.7279
 20
99.7565
 30
0.0
 10
117.7279
 20
99.7565
 30
0.0
 10
117.7279
 20
80.1176
 30
0.0
 10
117.7279
 20
80.1176
 30
0.0
 10
117.7279
 20
80.1176
 30
0.0
 10
117.7279
 20
80.1176
 30
0.0
 10
133.0496
 20
71.2736
 30
0.0
 10
133.0496
 20
71.2736
 30
0.0
 10
133.0496
 20
71.2736
 30
0.0
 10
133.0496
 20
71.2736
 30
0.0
 10
133.0557
 20
75.5926
 30
0.0
 10
133.0557
 20
75.5926
 30
0.0
 10
133.0557
 20
75.5926
 30
0.0
 10
133.0557
 20
75.5926
 30
0.0
 10
121.3876
 20
82.32
 30
0.0
 10
121.3876
 20
82.32
 30
0.0
  0
SPLINE
  5
4B
330
1F
100
AcDbEntity
  8
layer 1
 62
     7
100
AcDbSpline
210
0.0
220
0.0
230
1.0
 70
    11
 71
     3
 72
    40
 73
    36
 74
     0
 42
0.0000000001
 43
0.0000000001
 12
1.0
 22
0.0
 32
0.0
 13
1.0
 23
0.0
 33
0.0
 40
0.0
 40
0.0
 40
0.0
 40
0.0
 40
0.1
 40
0.1
 40
0.1
 40
0.1
 40
0.2
 40
0.2
 40
0.2
 40
0.2
 40
0.3
 40
0.3
 40
0.3
 40
0.3
 40
0.4
 40
0.4
 40
0.4
 40
0.4
 40
0.5
 40
0.5
 40
0.5
 40
0.5
 40
0.6
 40
0.6
 40
0.6
 40
0.6
 40
0.7
 40
0.7
 40
0.7
 40
0.7
 40
0.8
 40
0.8
 40
0.8
 40
0.8
 40
1.0
 40
1.0
 40
1.0
 40
1.0
 10
136.4389
 20
95.9902
 30
0.0
 10
136.4389
 20
95.9902
 30
0.0
 10
140.7728
 20
93.4859
 30
0.0
 10
140.7728
 20
93.4859
 30
0.0
 10
140.7728
 20
93.4859
 30
0.0
 10
140.7728
 20
93.4859
 30
0.0
 10
140.7728
 20
86.5309
 30
0.0
 10
140.7728
 20
86.5309
 30
0.0
 10
140.7728
 20
86.5309
 30
0.0
 10
140.7728
 20
86.5309
 30
0.0
 10
136.4376
 20
84.0375
 30
0.0
 10
136.4376
 20
84.0375
 30
0.0
 10
136.4376
 20
84.0375
 30
0.0
 10
136.4376
 20
84.0375
 30
0.0
 10
136.4277
 20
79.6441
 30
0.0
 10
136.4277
 20
79.6441
 30
0.0
 10
136.4277
 20
79.6441
 30
0.0
 10
136.4277
 20
79.6441
 30
0.0
 10
144.5885
 20
84.3566
 30
0.0
 10
144.5885
 20
84.3566
 30
0.0
 10
144.5885
 20
84.3566
 30
0.0
 10
144.5885
 20
84.3566
 30
0.0
 10
144.5885
 20
95.7138
 30
0.0
 10
144.5885
 20
95.7138
 30
0.0
 10
144.5885
 20
95.7138
 30
0.0
 10
144.5885
 20
95.7138
 30
0.0
 10
136.4245
 20
100.4281
 30
0.0
 10
136.4245
 20
100.4281
 30
0.0
 10
136.4245
 20
100.4281
 30
0.0
 10
136.4245
 20
100.4281
 30
0.0
 10
136.4653
 20
95.9817
 30
0.0
 10
136.4653
 20
95.9817
 30
0.0
 10
136.4653
 20
95.9817
 30
0.0
 10
136.4653
 20
95.9817
 30
0.0
 10
136.4389
 20
95.9902
 30
0.0
 10
136.4389
 20
95.9902
 30
0.0
  0
SPLINE
  5
4C
330
1F
100
AcDbEntity
  8
layer 1
 62
     7
100
AcDbSpline
210
0.0
220
0.0
230
1.0
 70
    27
 71
     3
 72
    12
 73
     8
 74
     0
 42
0.0000000001
 43
0.0000000001
 12
1.0
 22
0.0
 32
0.0
 13
1.0
 23
0.0
 33
0.0
 40
0.0
 40
0.0
 40
0.0
 40
0.0
 40
0.3333333333333333
 40
0.3333333333333333
 40
0.3333333333333333
 40
0.3333333333333333
 40
1.0
 40
1.0
 40
1.0
 40
1.0
 10
136.4389
 20
95.9902
 30
0.0
 10
136.4389
 20
95.9902
 30
0.0
 10
136.4389
 20
95.9902
 30
0.0
 10
136.4389
 20
95.9902
 30
0.0
 10
136.4389
 20
95.9902
 30
0.0
 10
136.4389
 20
95.9902
 30
0.0
 10
136.4389
 20
95.9902
 30
0.0
 10
136.4389
 20
95.9902
 30
0.0
  0
SPLINE
  5
4D
330
1F
100
AcDbEntity
  8
layer 1
 62
     7
100
AcDbSpline
210
0.0
220
0.0
230
1.0
 70
    11
 71
     3
 72
    36
 73
    32
 74
     0
 42
0.0000000001
 43
0.0000000001
 12
1.0
 22
0.0
 32
0.0
 13
1.0
 23
0.0
 33
0.0
 40
0.0
 40
0.0
 40
0.0
 40
0.0
 40
0.1111111111111111
 40
0.1111111111111111
 40
0.1111111111111111
 40
0.1111111111111111
 40
0.2222222222222222
 40
0.2222222222222222
 40
0.2222222222222222
 40
0.2222222222222222
 40
0.3333333333333333
 40
0.3333333333333333
 40
0.3333333333333333
 40
0.3333333333333333
 40
0.4444444444444444
 40
0.4444444444444444
 40
0.4444444444444444
 40
0.4444444444444444
 40
0.5555555555555556
 40
0.5555555555555556
 40
0.5555555555555556
 40
0.5555555555555556
 40
0.6666666666666666
 40
0.6666666666666666
 40
0.6666666666666666
 40
0.6666666666666666
 40
0.7777777777777778
 40
0.7777777777777778
 40
0.7777777777777778
 40
0.7777777777777778
 40
1.0
 40
1.0
 40
1.0
 40
1.0
 10
148.0983
 20
82.32
 30
0.0
 10
148.0983
 20
82.32
 30
0.0
 10
148.0983
 20
97.7364
 30
0.0
 10
148.0983
 20
97.7364
 30
0.0
 10
148.0983
 20
97.7364
 30
0.0
 10
148.0983
 20
97.7364
 30
0.0
 10
136.4321
 20
104.4713
 30
0.0
 10
136.4321
 20
104.4713
 30
0.0
 10
136.4321
 20
104.4713
 30
0.0
 10
136.4321
 20
104.4713
 30
0.0
 10
136.4345
 20
108.6001
 30
0.0
 10
136.4345
 20
108.6001
 30
0.0
 10
136.4345
 20
108.6001
 30
0.0
 10
136.4345
 20
108.6001
 30
0.0
 10
151.758
 20
99.7565
 30
0.0
 10
151.758
 20
99.7565
 30
0.0
 10
151.758
 20
99.7565
 30
0.0
 10
151.758
 20
99.7565
 30
0.0
 10
151.758
 20
80.1176
 30
0.0
 10
151.758
 20
80.1176
 30
0.0
 10
151.758
 20
80.1176
 30
0.0
 10
151.758
 20
80.1176
 30
0.0
 10
136.4363
 20
71.2736
 30
0.0
 10
136.4363
 20
71.2736
 30
0.0
 10
136.4363
 20
71.2736
 30
0.0
 10
136.4363
 20
71.2736
 30
0.0
 10
136.4302
 20
75.5926
 30
0.0
 10
136.4302
 20
75.5926
 30
0.0
 10
136.4302
 20
75.5926
 30
0.0
 10
136.4302
 20
75.5926
 30
0.0
 10
148.0983
 20
82.32
 30
0.0
 10
148.0983
 20
82.32
 30
0.0
  0
SPLINE
  5
4E
330
1F
100
AcDbEntity
  8
layer 1
 62
     7
100
AcDbSpline
210
0.0
220
0.0
230
1.0
 70
    11
 71
     3
 72
    28
 73
    24
 74
     0
 42
0.0000000001
 43
0.0000000001
 12
1.0
 22
0.0
 32
0.0
 13
1.0
 23
0.0
 33
0.0
 40
0.0
 40
0.0
 40
0.0
 40
0.0
 40
0.1428571428571428
 40
0.1428571428571428
 40
0.1428571428571428
 40
0.1428571428571428
 40
0.2857142857142857
 40
0.2857142857142857
 40
0.2857142857142857
 40
0.2857142857142857
 40
0.4285714285714285
 40
0.4285714285714285
 40
0.4285714285714285
 40
0.4285714285714285
 40
0.5714285714285714
 40
0.5714285714285714
 40
0.5714285714285714
 40
0.5714285714285714
 40
0.7142857142857143
 40
0.7142857142857143
 40
0.7142857142857143
 40
0.7142857142857143
 40
1.0
 40
1.0
 40
1.0
 40
1.0
 10
174.8275
 20
88.4518
 30
0.0
 10
174.8275
 20
88.4518
 30
0.0
 10
172.1439
 20
86.8959
 30
0.0
 10
172.1439
 20
86.8959
 30
0.0
 10
172.1439
 20
86.8959
 30
0.0
 10
172.1439
 20
86.8959
 30
0.0
 10
169.4602
 20
88.4518
 30
0.0
 10
169.4602
 20
88.4518
 30
0.0
 10
169.4602
 20
88.4518
 30
0.0
 10
169.4602
 20
88.4518
 30
0.0
 10
169.4602
 20
91.5634
 30
0.0
 10
169.4602
 20
91.5634
 30
0.0
 10
169.4602
 20
91.5634
 30
0.0
 10
169.4602
 20
91.5634
 30
0.0
 10
172.1439
 20
93.1192
 30
0.0
 10
172.1439
 20
93.1192
 30
0.0
 10
172.1439
 20
93.1192
 30
0.0
 10
172.1439
 20
93.1192
 30
0.0
 10
174.8275
 20
91.5634
 30
0.0
 10
174.8275
 20
91.5634
 30
0.0
 10
174.8275
 20
91.5634
 30
0.0
 10
174.8275
 20
91.5634
 30
0.0
 10
174.8275
 20
88.4518
 30
0.0
 10
174.8275
 20
88.4518
 30
0.0
  0
SPLINE
  5
4F
330
1F
100
AcDbEntity
  8
layer 1
 62
     7
100
AcDbSpline
210
0.0
220
0.0
230
1.0
 70
    11
 71
     3
 72
    36
 73
    32
 74
     0
 42
0.0000000001
 43
0.0000000001
 12
1.0
 22
0.0
 32
0.0
 13
1.0
 23
0.0
 33
0.0
 40
0.0
 40
0.0
 40
0.0
 40
0.0
 40
0.1111111111111111
 40
0.1111111111111111
 40
0.1111111111111111
 40
0.1111111111111111
 40
0.2222222222222222
 40
0.2222222222222222
 40
0.2222222222222222
 40
0.2222222222222222
 40
0.3333333333333333
 40
0.3333333333333333
 40
0.3333333333333333
 40
0.3333333333333333
 40
0.4444444444444444
 40
0.4444444444444444
 40
0.4444444444444444
 40
0.4444444444444444
 40
0.5555555555555556
 40
0.5555555555555556
 40
0.5555555555555556
 40
0.5555555555555556
 40
0.6666666666666666
 40
0.6666666666666666
 40
0.6666666666666666
 40
0.6666666666666666
 40
0.7777777777777778
 40
0.7777777777777778
 40
0.7777777777777778
 40
0.7777777777777778
 40
1.0
 40
1.0
 40
1.0
 40
1.0
 10
166.1256
 20
93.4859
 30
0.0
 10
166.1256
 20
93.4859
 30
0.0
 10
166.1256
 20
86.5309
 30
0.0
 10
166.1256
 20
86.5309
 30
0.0
 10
166.1256
 20
86.5309
 30
0.0
 10
166.1256
 20
86.5309
 30
0.0
 10
170.4608
 20
84.0375
 30
0.0
 10
170.4608
 20
84.0375
 30
0.0
 10
170.4608
 20
84.0375
 30
0.0
 10
170.4608
 20
84.0375
 30
0.0
 10
170.4707
 20
79.6441
 30
0.0
 10
170.4707
 20
79.6441
 30
0.0
 10
170.4707
 20
79.6441
 30
0.0
 10
170.4707
 20
79.6441
 30
0.0
 10
162.3099
 20
84.3566
 30
0.0
 10
162.3099
 20
84.3566
 30
0.0
 10
162.3099
 20
84.3566
 30
0.0
 10
162.3099
 20
84.3566
 30
0.0
 10
162.3099
 20
95.7138
 30
0.0
 10
162.3099
 20
95.7138
 30
0.0
 10
162.3099
 20
95.7138
 30
0.0
 10
162.3099
 20
95.7138
 30
0.0
 10
170.4739
 20
100.4281
 30
0.0
 10
170.4739
 20
100.4281
 30
0.0
 10
170.4739
 20
100.4281
 30
0.0
 10
170.4739
 20
100.4281
 30
0.0
 10
170.4464
 20
95.9859
 30
0.0
 10
170.4464
 20
95.9859
 30
0.0
 10
170.4464
 20
95.9859
 30
0.0
 10
170.4464
 20
95.9859
 30
0.0
 10
166.1256
 20
93.4859
 30
0.0
 10
166.1256
 20
93.4859
 30
0.0
  0
SPLINE
  5
50
330
1F
100
AcDbEntity
  8
layer 1
 62
     7
100
AcDbSpline
210
0.0
220
0.0
230
1.0
 70
    11
 71
     3
 72
    36
 73
    32
 74
     0
 42
0.0000000001
 43
0.0000000001
 12
1.0
 22
0.0
 32
0.0
 13
1.0
 23
0.0
 33
0.0
 40
0.0
 40
0.0
 40
0.0
 40
0.0
 40
0.1111111111111111
 40
0.1111111111111111
 40
0.1111111111111111
 40
0.1111111111111111
 40
0.2222222222222222
 40
0.2222222222222222
 40
0.2222222222222222
 40
0.2222222222222222
 40
0.3333333333333333
 40
0.3333333333333333
 40
0.3333333333333333
 40
0.3333333333333333
 40
0.4444444444444444
 40
0.4444444444444444
 40
0.4444444444444444
 40
0.4444444444444444
 40
0.5555555555555556
 40
0.5555555555555556
 40
0.5555555555555556
 40
0.5555555555555556
 40
0.6666666666666666
 40
0.6666666666666666
 40
0.6666666666666666
 40
0.6666666666666666
 40
0.7777777777777778
 40
0.7777777777777778
 40
0.7777777777777778
 40
0.7777777777777778
 40
1.0
 40
1.0
 40
1.0
 40
1.0
 10
158.7917
 20
82.32
 30
0.0
 10
158.7917
 20
82.32
 30
0.0
 10
158.7917
 20
97.7364
 30
0.0
 10
158.7917
 20
97.7364
 30
0.0
 10
158.7917
 20
97.7364
 30
0.0
 10
158.7917
 20
97.7364
 30
0.0
 10
170.458
 20
104.4713
 30
0.0
 10
170.458
 20
104.4713
 30
0.0
 10
170.458
 20
104.4713
 30
0.0
 10
170.458
 20
104.4713
 30
0.0
 10
170.4555
 20
108.6001
 30
0.0
 10
170.4555
 20
108.6001
 30
0.0
 10
170.4555
 20
108.6001
 30
0.0
 10
170.4555
 20
108.6001
 30
0.0
 10
155.132
 20
99.7565
 30
0.0
 10
155.132
 20
99.7565
 30
0.0
 10
155.132
 20
99.7565
 30
0.0
 10
155.132
 20
99.7565
 30
0.0
 10
155.132
 20
80.1176
 30
0.0
 10
155.132
 20
80.1176
 30
0.0
 10
155.132
 20
80.1176
 30
0.0
 10
155.132
 20
80.1176
 30
0.0
 10
170.4537
 20
71.2736
 30
0.0
 10
170.4537
 20
71.2736
 30
0.0
 10
170.4537
 20
71.2736
 30
0.0
 10
170.4537
 20
71.2736
 30
0.0
 10
170.4599
 20
75.5926
 30
0.0
 10
170.4599
 20
75.5926
 30
0.0
 10
170.4599
 20
75.5926
 30
0.0
 10
170.4599
 20
75.5926
 30
0.0
 10
158.7917
 20
82.32
 30
0.0
 10
158.7917
 20
82.32
 30
0.0
  0
SPLINE
  5
51
330
1F
100
AcDbEntity
  8
layer 1
 62
     7
100
AcDbSpline
210
0.0
220
0.0
230
1.0
 70
    11
 71
     3
 72
    40
 73
    36
 74
     0
 42
0.0000000001
 43
0.0000000001
 12
1.0
 22
0.0
 32
0.0
 13
1.0
 23
0.0
 33
0.0
 40
0.0
 40
0.0
 40
0.0
 40
0.0
 40
0.1
 40
0.1
 40
0.1
 40
0.1
 40
0.2
 40
0.2
 40
0.2
 40
0.2
 40
0.3
 40
0.3
 40
0.3
 40
0.3
 40
0.4
 40
0.4
 40
0.4
 40
0.4
 40
0.5
 40
0.5
 40
0.5
 40
0.5
 40
0.6
 40
0.6
 40
0.6
 40
0.6
 40
0.7
 40
0.7
 40
0.7
 40
0.7
 40
0.8
 40
0.8
 40
0.8
 40
0.8
 40
1.0
 40
1.0
 40
1.0
 40
1.0
 10
173.8431
 20
95.9902
 30
0.0
 10
173.8431
 20
95.9902
 30
0.0
 10
178.1769
 20
93.4859
 30
0.0
 10
178.1769
 20
93.4859
 30
0.0
 10
178.1769
 20
93.4859
 30
0.0
 10
178.1769
 20
93.4859
 30
0.0
 10
178.1769
 20
86.5309
 30
0.0
 10
178.1769
 20
86.5309
 30
0.0
 10
178.1769
 20
86.5309
 30
0.0
 10
178.1769
 20
86.5309
 30
0.0
 10
173.8418
 20
84.0375
 30
0.0
 10
173.8418
 20
84.0375
 30
0.0
 10
173.8418
 20
84.0375
 30
0.0
 10
173.8418
 20
84.0375
 30
0.0
 10
173.8319
 20
79.6441
 30
0.0
 10
173.8319
 20
79.6441
 30
0.0
 10
173.8319
 20
79.6441
 30
0.0
 10
173.8319
 20
79.6441
 30
0.0
 10
181.9927
 20
84.3566
 30
0.0
 10
181.9927
 20
84.3566
 30
0.0
 10
181.9927
 20
84.3566
 30
0.0
 10
181.9927
 20
84.3566
 30
0.0
 10
181.9927
 20
95.7138
 30
0.0
 10
181.9927
 20
95.7138
 30
0.0
 10
181.9927
 20
95.7138
 30
0.0
 10
181.9927
 20
95.7138
 30
0.0
 10
173.8286
 20
100.4281
 30
0.0
 10
173.8286
 20
100.4281
 30
0.0
 10
173.8286
 20
100.4281
 30
0.0
 10
173.8286
 20
100.4281
 30
0.0
 10
173.8694
 20
95.9817
 30
0.0
 10
173.8694
 20
95.9817
 30
0.0
 10
173.8694
 20
95.9817
 30
0.0
 10
173.8694
 20
95.9817
 30
0.0
 10
173.8431
 20
95.9902
 30
0.0
 10
173.8431
 20
95.9902
 30
0.0
  0
SPLINE
  5
52
330
1F
100
AcDbEntity
  8
layer 1
 62
     7
100
AcDbSpline
210
0.0
220
0.0
230
1.0
 70
    27
 71
     3
 72
    12
 73
     8
 74
     0
 42
0.0000000001
 43
0.0000000001
 12
1.0
 22
0.0
 32
0.0
 13
1.0
 23
0.0
 33
0.0
 40
0.0
 40
0.0
 40
0.0
 40
0.0
 40
0.3333333333333333
 40
0.3333333333333333
 40
0.3333333333333333
 40
0.3333333333333333
 40
1.0
 40
1.0
 40
1.0
 40
1.0
 10
173.8431
 20
95.9902
 30
0.0
 10
173.8431
 20
95.9902
 30
0.0
 10
173.8431
 20
95.9902
 30
0.0
 10
173.8431
 20
95.9902
 30
0.0
 10
173.8431
 20
95.9902
 30
0.0
 10
173.8431
 20
95.9902
 30
0.0
 10
173.8431
 20
95.9902
 30
0.0
 10
173.8431
 20
95.9902
 30
0.0
  0
SPLINE
  5
53
330
1F
100
AcDbEntity
  8
layer 1
 62
     7
100
AcDbSpline
210
0.0
220
0.0
230
1.0
 70
    11
 71
     3
 72
    36
 73
    32
 74
     0
 42
0.0000000001
 43
0.0000000001
 12
1.0
 22
0.0
 32
0.0
 13
1.0
 23
0.0
 33
0.0
 40
0.0
 40
0.0
 40
0.0
 40
0.0
 40
0.1111111111111111
 40
0.1111111111111111
 40
0.1111111111111111
 40
0.1111111111111111
 40
0.2222222222222222
 40
0.2222222222222222
 40
0.2222222222222222
 40
0.2222222222222222
 40
0.3333333333333333
 40
0.3333333333333333
 40
0.3333333333333333
 40
0.3333333333333333
 40
0.4444444444444444
 40
0.4444444444444444
 40
0.4444444444444444
 40
0.4444444444444444
 40
0.5555555555555556
 40
0.5555555555555556
 40
0.5555555555555556
 40
0.5555555555555556
 40
0.6666666666666666
 40
0.6666666666666666
 40
0.6666666666666666
 40
0.6666666666666666
 40
0.7777777777777778
 40
0.7777777777777778
 40
0.7777777777777778
 40
0.7777777777777778
 40
1.0
 40
1.0
 40
1.0
 40
1.0
 10
185.5024
 20
82.32
 30
0.0
 10
185.5024
 20
82.32
 30
0.0
 10
185.5024
 20
97.7364
 30
0.0
 10
185.5024
 20
97.7364
 30
0.0
 10
185.5024
 20
97.7364
 30
0.0
 10
185.5024
 20
97.7364
 30
0.0
 10
173.8362
 20
104.4713
 30
0.0
 10
173.8362
 20
104.4713
 30
0.0
 10
173.8362
 20
104.4713
 30
0.0
 10
173.8362
 20
104.4713
 30
0.0
 10
173.8387
 20
108.6001
 30
0.0
 10
173.8387
 20
108.6001
 30
0.0
 10
173.8387
 20
108.6001
 30
0.0
 10
173.8387
 20
108.6001
 30
0.0
 10
189.1621
 20
99.7565
 30
0.0
 10
189.1621
 20
99.7565
 30
0.0
 10
189.1621
 20
99.7565
 30
0.0
 10
189.1621
 20
99.7565
 30
0.0
 10
189.1621
 20
80.1176
 30
0.0
 10
189.1621
 20
80.1176
 30
0.0
 10
189.1621
 20
80.1176
 30
0.0
 10
189.1621
 20
80.1176
 30
0.0
 10
173.8404
 20
71.2736
 30
0.0
 10
173.8404
 20
71.2736
 30
0.0
 10
173.8404
 20
71.2736
 30
0.0
 10
173.8404
 20
71.2736
 30
0.0
 10
173.8343
 20
75.5926
 30
0.0
 10
173.8343
 20
75.5926
 30
0.0
 10
173.8343
 20
75.5926
 30
0.0
 10
173.8343
 20
75.5926
 30
0.0
 10
185.5024
 20
82.32
 30
0.0
 10
185.5024
 20
82.32
 30
0.0
  0
SPLINE
  5
54
330
1F
100
AcDbEntity
  8
layer 1
 62
     7
100
AcDbSpline
210
0.0
220
0.0
230
1.0
 70
    11
 71
     3
 72
    28
 73
    24
 74
     0
 42
0.0000000001
 43
0.0000000001
 12
1.0
 22
0.0
 32
0.0
 13
1.0
 23
0.0
 33
0.0
 40
0.0
 40
0.0
 40
0.0
 40
0.0
 40
0.1428571428571428
 40
0.1428571428571428
 40
0.1428571428571428
 40
0.1428571428571428
 40
0.2857142857142857
 40
0.2857142857142857
 40
0.2857142857142857
 40
0.2857142857142857
 40
0.4285714285714285
 40
0.4285714285714285
 40
0.4285714285714285
 40
0.4285714285714285
 40
0.5714285714285714
 40
0.5714285714285714
 40
0.5714285714285714
 40
0.5714285714285714
 40
0.7142857142857143
 40
0.7142857142857143
 40
0.7142857142857143
 40
0.7142857142857143
 40
1.0
 40
1.0
 40
1.0
 40
1.0
 10
118.7104
 20
55.9805
 30
0.0
 10
118.7104
 20
55.9805
 30
0.0
 10
116.0267
 20
54.4246
 30
0.0
 10
116.0267
 20
54.4246
 30
0.0
 10
116.0267
 20
54.4246
 30
0.0
 10
116.0267
 20
54.4246
 30
0.0
 10
113.343
 20
55.9805
 30
0.0
 10
113.343
 20
55.9805
 30
0.0
 10
113.343
 20
55.9805
 30
0.0
 10
113.343
 20
55.9805
 30
0.0
 10
113.343
 20
59.0921
 30
0.0
 10
113.343
 20
59.0921
 30
0.0
 10
113.343
 20
59.0921
 30
0.0
 10
113.343
 20
59.0921
 30
0.0
 10
116.0267
 20
60.6479
 30
0.0
 10
116.0267
 20
60.6479
 30
0.0
 10
116.0267
 20
60.6479
 30
0.0
 10
116.0267
 20
60.6479
 30
0.0
 10
118.7104
 20
59.0921
 30
0.0
 10
118.7104
 20
59.0921
 30
0.0
 10
118.7104
 20
59.0921
 30
0.0
 10
118.7104
 20
59.0921
 30
0.0
 10
118.7104
 20
55.9805
 30
0.0
 10
118.7104
 20
55.9805
 30
0.0
  0
SPLINE
  5
55
330
1F
100
AcDbEntity
  8
layer 1
 62
     7
100
AcDbSpline
210
0.0
220
0.0
230
1.0
 70
    11
 71
     3
 72
    36
 73
    32
 74
     0
 42
0.0000000001
 43
0.0000000001
 12
1.0
 22
0.0
 32
0.0
 13
1.0
 23
0.0
 33
0.0
 40
0.0
 40
0.0
 40
0.0
 40
0.0
 40
0.1111111111111111
 40
0.1111111111111111
 40
0.1111111111111111
 40
0.1111111111111111
 40
0.2222222222222222
 40
0.2222222222222222
 40
0.2222222222222222
 40
0.2222222222222222
 40
0.3333333333333333
 40
0.3333333333333333
 40
0.3333333333333333
 40
0.3333333333333333
 40
0.4444444444444444
 40
0.4444444444444444
 40
0.4444444444444444
 40
0.4444444444444444
 40
0.5555555555555556
 40
0.5555555555555556
 40
0.5555555555555556
 40
0.5555555555555556
 40
0.6666666666666666
 40
0.6666666666666666
 40
0.6666666666666666
 40
0.6666666666666666
 40
0.7777777777777778
 40
0.7777777777777778
 40
0.7777777777777778
 40
0.7777777777777778
 40
1.0
 40
1.0
 40
1.0
 40
1.0
 10
110.0085
 20
61.0146
 30
0.0
 10
110.0085
 20
61.0146
 30
0.0
 10
110.0085
 20
54.0596
 30
0.0
 10
110.0085
 20
54.0596
 30
0.0
 10
110.0085
 20
54.0596
 30
0.0
 10
110.0085
 20
54.0596
 30
0.0
 10
114.3436
 20
51.5661
 30
0.0
 10
114.3436
 20
51.5661
 30
0.0
 10
114.3436
 20
51.5661
 30
0.0
 10
114.3436
 20
51.5661
 30
0.0
 10
114.3535
 20
47.1728
 30
0.0
 10
114.3535
 20
47.1728
 30
0.0
 10
114.3535
 20
47.1728
 30
0.0
 10
114.3535
 20
47.1728
 30
0.0
 10
106.1927
 20
51.8853
 30
0.0
 10
106.1927
 20
51.8853
 30
0.0
 10
106.1927
 20
51.8853
 30
0.0
 10
106.1927
 20
51.8853
 30
0.0
 10
106.1927
 20
63.2425
 30
0.0
 10
106.1927
 20
63.2425
 30
0.0
 10
106.1927
 20
63.2425
 30
0.0
 10
106.1927
 20
63.2425
 30
0.0
 10
114.3568
 20
67.9568
 30
0.0
 10
114.3568
 20
67.9568
 30
0.0
 10
114.3568
 20
67.9568
 30
0.0
 10
114.3568
 20
67.9568
 30
0.0
 10
114.3292
 20
63.5146
 30
0.0
 10
114.3292
 20
63.5146
 30
0.0
 10
114.3292
 20
63.5146
 30
0.0
 10
114.3292
 20
63.5146
 30
0.0
 10
110.0085
 20
61.0146
 30
0.0
 10
110.0085
 20
61.0146
 30
0.0
  0
SPLINE
  5
56
330
1F
100
AcDbEntity
  8
layer 1
 62
     7
100
AcDbSpline
210
0.0
220
0.0
230
1.0
 70
    11
 71
     3
 72
    36
 73
    32
 74
     0
 42
0.0000000001
 43
0.0000000001
 12
1.0
 22
0.0
 32
0.0
 13
1.0
 23
0.0
 33
0.0
 40
0.0
 40
0.0
 40
0.0
 40
0.0
 40
0.1111111111111111
 40
0.1111111111111111
 40
0.1111111111111111
 40
0.1111111111111111
 40
0.2222222222222222
 40
0.2222222222222222
 40
0.2222222222222222
 40
0.2222222222222222
 40
0.3333333333333333
 40
0.3333333333333333
 40
0.3333333333333333
 40
0.3333333333333333
 40
0.4444444444444444
 40
0.4444444444444444
 40
0.4444444444444444
 40
0.4444444444444444
 40
0.5555555555555556
 40
0.5555555555555556
 40
0.5555555555555556
 40
0.5555555555555556
 40
0.6666666666666666
 40
0.6666666666666666
 40
0.6666666666666666
 40
0.6666666666666666
 40
0.7777777777777778
 40
0.7777777777777778
 40
0.7777777777777778
 40
0.7777777777777778
 40
1.0
 40
1.0
 40
1.0
 40
1.0
 10
102.6746
 20
49.8487
 30
0.0
 10
102.6746
 20
49.8487
 30
0.0
 10
102.6746
 20
65.2651
 30
0.0
 10
102.6746
 20
65.2651
 30
0.0
 10
102.6746
 20
65.2651
 30
0.0
 10
102.6746
 20
65.2651
 30
0.0
 10
114.3408
 20
72.0
 30
0.0
 10
114.3408
 20
72.0
 30
0.0
 10
114.3408
 20
72.0
 30
0.0
 10
114.3408
 20
72.0
 30
0.0
 10
114.3383
 20
76.1288
 30
0.0
 10
114.3383
 20
76.1288
 30
0.0
 10
114.3383
 20
76.1288
 30
0.0
 10
114.3383
 20
76.1288
 30
0.0
 10
99.0149
 20
67.2852
 30
0.0
 10
99.0149
 20
67.2852
 30
0.0
 10
99.0149
 20
67.2852
 30
0.0
 10
99.0149
 20
67.2852
 30
0.0
 10
99.0149
 20
47.6463
 30
0.0
 10
99.0149
 20
47.6463
 30
0.0
 10
99.0149
 20
47.6463
 30
0.0
 10
99.0149
 20
47.6463
 30
0.0
 10
114.3365
 20
38.8023
 30
0.0
 10
114.3365
 20
38.8023
 30
0.0
 10
114.3365
 20
38.8023
 30
0.0
 10
114.3365
 20
38.8023
 30
0.0
 10
114.3427
 20
43.1212
 30
0.0
 10
114.3427
 20
43.1212
 30
0.0
 10
114.3427
 20
43.1212
 30
0.0
 10
114.3427
 20
43.1212
 30
0.0
 10
102.6746
 20
49.8487
 30
0.0
 10
102.6746
 20
49.8487
 30
0.0
  0
SPLINE
  5
57
330
1F
100
AcDbEntity
  8
layer 1
 62
     7
100
AcDbSpline
210
0.0
220
0.0
230
1.0
 70
    11
 71
     3
 72
    40
 73
    36
 74
     0
 42
0.0000000001
 43
0.0000000001
 12
1.0
 22
0.0
 32
0.0
 13
1.0
 23
0.0
 33
0.0
 40
0.0
 40
0.0
 40
0.0
 40
0.0
 40
0.1
 40
0.1
 40
0.1
 40
0.1
 40
0.2
 40
0.2
 40
0.2
 40
0.2
 40
0.3
 40
0.3
 40
0.3
 40
0.3
 40
0.4
 40
0.4
 40
0.4
 40
0.4
 40
0.5
 40
0.5
 40
0.5
 40
0.5
 40
0.6
 40
0.6
 40
0.6
 40
0.6
 40
0.7
 40
0.7
 40
0.7
 40
0.7
 40
0.8
 40
0.8
 40
0.8
 40
0.8
 40
1.0
 40
1.0
 40
1.0
 40
1.0
 10
117.7258
 20
63.5189
 30
0.0
 10
117.7258
 20
63.5189
 30
0.0
 10
122.0597
 20
61.0146
 30
0.0
 10
122.0597
 20
61.0146
 30
0.0
 10
122.0597
 20
61.0146
 30
0.0
 10
122.0597
 20
61.0146
 30
0.0
 10
122.0597
 20
54.0596
 30
0.0
 10
122.0597
 20
54.0596
 30
0.0
 10
122.0597
 20
54.0596
 30
0.0
 10
122.0597
 20
54.0596
 30
0.0
 10
117.7245
 20
51.5661
 30
0.0
 10
117.7245
 20
51.5661
 30
0.0
 10
117.7245
 20
51.5661
 30
0.0
 10
117.7245
 20
51.5661
 30
0.0
 10
117.7146
 20
47.1728
 30
0.0
 10
117.7146
 20
47.1728
 30
0.0
 10
117.7146
 20
47.1728
 30
0.0
 10
117.7146
 20
47.1728
 30
0.0
 10
125.8754
 20
51.8853
 30
0.0
 10
125.8754
 20
51.8853
 30
0.0
 10
125.8754
 20
51.8853
 30
0.0
 10
125.8754
 20
51.8853
 30
0.0
 10
125.8754
 20
63.2425
 30
0.0
 10
125.8754
 20
63.2425
 30
0.0
 10
125.8754
 20
63.2425
 30
0.0
 10
125.8754
 20
63.2425
 30
0.0
 10
117.7114
 20
67.9568
 30
0.0
 10
117.7114
 20
67.9568
 30
0.0
 10
117.7114
 20
67.9568
 30
0.0
 10
117.7114
 20
67.9568
 30
0.0
 10
117.7522
 20
63.5104
 30
0.0
 10
117.7522
 20
63.5104
 30
0.0
 10
117.7522
 20
63.5104
 30
0.0
 10
117.7522
 20
63.5104
 30
0.0
 10
117.7258
 20
63.5189
 30
0.0
 10
117.7258
 20
63.5189
 30
0.0
  0
SPLINE
  5
58
330
1F
100
AcDbEntity
  8
layer 1
 62
     7
100
AcDbSpline
210
0.0
220
0.0
230
1.0
 70
    27
 71
     3
 72
    12
 73
     8
 74
     0
 42
0.0000000001
 43
0.0000000001
 12
1.0
 22
0.0
 32
0.0
 13
1.0
 23
0.0
 33
0.0
 40
0.0
 40
0.0
 40
0.0
 40
0.0
 40
0.3333333333333333
 40
0.3333333333333333
 40
0.3333333333333333
 40
0.3333333333333333
 40
1.0
 40
1.0
 40
1.0
 40
1.0
 10
117.7258
 20
63.5189
 30
0.0
 10
117.7258
 20
63.5189
 30
0.0
 10
117.7258
 20
63.5189
 30
0.0
 10
117.7258
 20
63.5189
 30
0.0
 10
117.7258
 20
63.5189
 30
0.0
 10
117.7258
 20
63.5189
 30
0.0
 10
117.7258
 20
63.5189
 30
0.0
 10
117.7258
 20
63.5189
 30
0.0
  0
SPLINE
  5
59
330
1F
100
AcDbEntity
  8
layer 1
 62
     7
100
AcDbSpline
210
0.0
220
0.0
230
1.0
 70
    11
 71
     3
 72
    36
 73
    32
 74
     0
 42
0.0000000001
 43
0.0000000001
 12
1.0
 22
0.0
 32
0.0
 13
1.0
 23
0.0
 33
0.0
 40
0.0
 40
0.0
 40
0.0
 40
0.0
 40
0.1111111111111111
 40
0.1111111111111111
 40
0.1111111111111111
 40
0.1111111111111111
 40
0.2222222222222222
 40
0.2222222222222222
 40
0.2222222222222222
 40
0.2222222222222222
 40
0.3333333333333333
 40
0.3333333333333333
 40
0.3333333333333333
 40
0.3333333333333333
 40
0.4444444444444444
 40
0.4444444444444444
 40
0.4444444444444444
 40
0.4444444444444444
 40
0.5555555555555556
 40
0.5555555555555556
 40
0.5555555555555556
 40
0.5555555555555556
 40
0.6666666666666666
 40
0.6666666666666666
 40
0.6666666666666666
 40
0.6666666666666666
 40
0.7777777777777778
 40
0.7777777777777778
 40
0.7777777777777778
 40
0.7777777777777778
 40
1.0
 40
1.0
 40
1.0
 40
1.0
 10
129.3853
 20
49.8487
 30
0.0
 10
129.3853
 20
49.8487
 30
0.0
 10
129.3853
 20
65.2651
 30
0.0
 10
129.3853
 20
65.2651
 30
0.0
 10
129.3853
 20
65.2651
 30
0.0
 10
129.3853
 20
65.2651
 30
0.0
 10
117.719
 20
72.0
 30
0.0
 10
117.719
 20
72.0
 30
0.0
 10
117.719
 20
72.0
 30
0.0
 10
117.719
 20
72.0
 30
0.0
 10
117.7215
 20
76.1288
 30
0.0
 10
117.7215
 20
76.1288
 30
0.0
 10
117.7215
 20
76.1288
 30
0.0
 10
117.7215
 20
76.1288
 30
0.0
 10
133.0449
 20
67.2852
 30
0.0
 10
133.0449
 20
67.2852
 30
0.0
 10
133.0449
 20
67.2852
 30
0.0
 10
133.0449
 20
67.2852
 30
0.0
 10
133.0449
 20
47.6463
 30
0.0
 10
133.0449
 20
47.6463
 30
0.0
 10
133.0449
 20
47.6463
 30
0.0
 10
133.0449
 20
47.6463
 30
0.0
 10
117.7233
 20
38.8023
 30
0.0
 10
117.7233
 20
38.8023
 30
0.0
 10
117.7233
 20
38.8023
 30
0.0
 10
117.7233
 20
38.8023
 30
0.0
 10
117.7171
 20
43.1212
 30
0.0
 10
117.7171
 20
43.1212
 30
0.0
 10
117.7171
 20
43.1212
 30
0.0
 10
117.7171
 20
43.1212
 30
0.0
 10
129.3853
 20
49.8487
 30
0.0
 10
129.3853
 20
49.8487
 30
0.0
  0
SPLINE
  5
5A
330
1F
100
AcDbEntity
  8
layer 1
 62
     7
100
AcDbSpline
210
0.0
220
0.0
230
1.0
 70
    11
 71
     3
 72
    28
 73
    24
 74
     0
 42
0.0000000001
 43
0.0000000001
 12
1.0
 22
0.0
 32
0.0
 13
1.0
 23
0.0
 33
0.0
 40
0.0
 40
0.0
 40
0.0
 40
0.0
 40
0.1428571428571428
 40
0.1428571428571428
 40
0.1428571428571428
 40
0.1428571428571428
 40
0.2857142857142857
 40
0.2857142857142857
 40
0.2857142857142857
 40
0.2857142857142857
 40
0.4285714285714285
 40
0.4285714285714285
 40
0.4285714285714285
 40
0.4285714285714285
 40
0.5714285714285714
 40
0.5714285714285714
 40
0.5714285714285714
 40
0.5714285714285714
 40
0.7142857142857143
 40
0.7142857142857143
 40
0.7142857142857143
 40
0.7142857142857143
 40
1.0
 40
1.0
 40
1.0
 40
1.0
 10
156.1229
 20
55.9805
 30
0.0
 10
156.1229
 20
55.9805
 30
0.0
 10
153.4393
 20
54.4246
 30
0.0
 10
153.4393
 20
54.4246
 30
0.0
 10
153.4393
 20
54.4246
 30
0.0
 10
153.4393
 20
54.4246
 30
0.0
 10
150.7556
 20
55.9805
 30
0.0
 10
150.7556
 20
55.9805
 30
0.0
 10
150.7556
 20
55.9805
 30
0.0
 10
150.7556
 20
55.9805
 30
0.0
 10
150.7556
 20
59.0921
 30
0.0
 10
150.7556
 20
59.0921
 30
0.0
 10
150.7556
 20
59.0921
 30
0.0
 10
150.7556
 20
59.0921
 30
0.0
 10
153.4393
 20
60.6479
 30
0.0
 10
153.4393
 20
60.6479
 30
0.0
 10
153.4393
 20
60.6479
 30
0.0
 10
153.4393
 20
60.6479
 30
0.0
 10
156.1229
 20
59.0921
 30
0.0
 10
156.1229
 20
59.0921
 30
0.0
 10
156.1229
 20
59.0921
 30
0.0
 10
156.1229
 20
59.0921
 30
0.0
 10
156.1229
 20
55.9805
 30
0.0
 10
156.1229
 20
55.9805
 30
0.0
  0
SPLINE
  5
5B
330
1F
100
AcDbEntity
  8
layer 1
 62
     7
100
AcDbSpline
210
0.0
220
0.0
230
1.0
 70
    11
 71
     3
 72
    36
 73
    32
 74
     0
 42
0.0000000001
 43
0.0000000001
 12
1.0
 22
0.0
 32
0.0
 13
1.0
 23
0.0
 33
0.0
 40
0.0
 40
0.0
 40
0.0
 40
0.0
 40
0.1111111111111111
 40
0.1111111111111111
 40
0.1111111111111111
 40
0.1111111111111111
 40
0.2222222222222222
 40
0.2222222222222222
 40
0.2222222222222222
 40
0.2222222222222222
 40
0.3333333333333333
 40
0.3333333333333333
 40
0.3333333333333333
 40
0.3333333333333333
 40
0.4444444444444444
 40
0.4444444444444444
 40
0.4444444444444444
 40
0.4444444444444444
 40
0.5555555555555556
 40
0.5555555555555556
 40
0.5555555555555556
 40
0.5555555555555556
 40
0.6666666666666666
 40
0.6666666666666666
 40
0.6666666666666666
 40
0.6666666666666666
 40
0.7777777777777778
 40
0.7777777777777778
 40
0.7777777777777778
 40
0.7777777777777778
 40
1.0
 40
1.0
 40
1.0
 40
1.0
 10
147.4211
 20
61.0146
 30
0.0
 10
147.4211
 20
61.0146
 30
0.0
 10
147.4211
 20
54.0596
 30
0.0
 10
147.4211
 20
54.0596
 30
0.0
 10
147.4211
 20
54.0596
 30
0.0
 10
147.4211
 20
54.0596
 30
0.0
 10
151.7563
 20
51.5661
 30
0.0
 10
151.7563
 20
51.5661
 30
0.0
 10
151.7563
 20
51.5661
 30
0.0
 10
151.7563
 20
51.5661
 30
0.0
 10
151.7662
 20
47.1728
 30
0.0
 10
151.7662
 20
47.1728
 30
0.0
 10
151.7662
 20
47.1728
 30
0.0
 10
151.7662
 20
47.1728
 30
0.0
 10
143.6054
 20
51.8853
 30
0.0
 10
143.6054
 20
51.8853
 30
0.0
 10
143.6054
 20
51.8853
 30
0.0
 10
143.6054
 20
51.8853
 30
0.0
 10
143.6054
 20
63.2425
 30
0.0
 10
143.6054
 20
63.2425
 30
0.0
 10
143.6054
 20
63.2425
 30
0.0
 10
143.6054
 20
63.2425
 30
0.0
 10
151.7694
 20
67.9568
 30
0.0
 10
151.7694
 20
67.9568
 30
0.0
 10
151.7694
 20
67.9568
 30
0.0
 10
151.7694
 20
67.9568
 30
0.0
 10
151.7418
 20
63.5146
 30
0.0
 10
151.7418
 20
63.5146
 30
0.0
 10
151.7418
 20
63.5146
 30
0.0
 10
151.7418
 20
63.5146
 30
0.0
 10
147.4211
 20
61.0146
 30
0.0
 10
147.4211
 20
61.0146
 30
0.0
  0
SPLINE
  5
5C
330
1F
100
AcDbEntity
  8
layer 1
 62
     7
100
AcDbSpline
210
0.0
220
0.0
230
1.0
 70
    11
 71
     3
 72
    36
 73
    32
 74
     0
 42
0.0000000001
 43
0.0000000001
 12
1.0
 22
0.0
 32
0.0
 13
1.0
 23
0.0
 33
0.0
 40
0.0
 40
0.0
 40
0.0
 40
0.0
 40
0.1111111111111111
 40
0.1111111111111111
 40
0.1111111111111111
 40
0.1111111111111111
 40
0.2222222222222222
 40
0.2222222222222222
 40
0.2222222222222222
 40
0.2222222222222222
 40
0.3333333333333333
 40
0.3333333333333333
 40
0.3333333333333333
 40
0.3333333333333333
 40
0.4444444444444444
 40
0.4444444444444444
 40
0.4444444444444444
 40
0.4444444444444444
 40
0.5555555555555556
 40
0.5555555555555556
 40
0.5555555555555556
 40
0.5555555555555556
 40
0.6666666666666666
 40
0.6666666666666666
 40
0.6666666666666666
 40
0.6666666666666666
 40
0.7777777777777778
 40
0.7777777777777778
 40
0.7777777777777778
 40
0.7777777777777778
 40
1.0
 40
1.0
 40
1.0
 40
1.0
 10
140.0872
 20
49.8487
 30
0.0
 10
140.0872
 20
49.8487
 30
0.0
 10
140.0872
 20
65.2651
 30
0.0
 10
140.0872
 20
65.2651
 30
0.0
 10
140.0872
 20
65.2651
 30
0.0
 10
140.0872
 20
65.2651
 30
0.0
 10
151.7534
 20
72.0
 30
0.0
 10
151.7534
 20
72.0
 30
0.0
 10
151.7534
 20
72.0
 30
0.0
 10
151.7534
 20
72.0
 30
0.0
 10
151.751
 20
76.1288
 30
0.0
 10
151.751
 20
76.1288
 30
0.0
 10
151.751
 20
76.1288
 30
0.0
 10
151.751
 20
76.1288
 30
0.0
 10
136.4275
 20
67.2852
 30
0.0
 10
136.4275
 20
67.2852
 30
0.0
 10
136.4275
 20
67.2852
 30
0.0
 10
136.4275
 20
67.2852
 30
0.0
 10
136.4275
 20
47.6463
 30
0.0
 10
136.4275
 20
47.6463
 30
0.0
 10
136.4275
 20
47.6463
 30
0.0
 10
136.4275
 20
47.6463
 30
0.0
 10
151.7492
 20
38.8023
 30
0.0
 10
151.7492
 20
38.8023
 30
0.0
 10
151.7492
 20
38.8023
 30
0.0
 10
151.7492
 20
38.8023
 30
0.0
 10
151.7553
 20
43.1212
 30
0.0
 10
151.7553
 20
43.1212
 30
0.0
 10
151.7553
 20
43.1212
 30
0.0
 10
151.7553
 20
43.1212
 30
0.0
 10
140.0872
 20
49.8487
 30
0.0
 10
140.0872
 20
49.8487
 30
0.0
  0
SPLINE
  5
5D
330
1F
100
AcDbEntity
  8
layer 1
 62
     7
100
AcDbSpline
210
0.0
220
0.0
230
1.0
 70
    11
 71
     3
 72
    40
 73
    36
 74
     0
 42
0.0000000001
 43
0.0000000001
 12
1.0
 22
0.0
 32
0.0
 13
1.0
 23
0.0
 33
0.0
 40
0.0
 40
0.0
 40
0.0
 40
0.0
 40
0.1
 40
0.1
 40
0.1
 40
0.1
 40
0.2
 40
0.2
 40
0.2
 40
0.2
 40
0.3
 40
0.3
 40
0.3
 40
0.3
 40
0.4
 40
0.4
 40
0.4
 40
0.4
 40
0.5
 40
0.5
 40
0.5
 40
0.5
 40
0.6
 40
0.6
 40
0.6
 40
0.6
 40
0.7
 40
0.7
 40
0.7
 40
0.7
 40
0.8
 40
0.8
 40
0.8
 40
0.8
 40
1.0
 40
1.0
 40
1.0
 40
1.0
 10
155.1385
 20
63.5189
 30
0.0
 10
155.1385
 20
63.5189
 30
0.0
 10
159.4723
 20
61.0146
 30
0.0
 10
159.4723
 20
61.0146
 30
0.0
 10
159.4723
 20
61.0146
 30
0.0
 10
159.4723
 20
61.0146
 30
0.0
 10
159.4723
 20
54.0596
 30
0.0
 10
159.4723
 20
54.0596
 30
0.0
 10
159.4723
 20
54.0596
 30
0.0
 10
159.4723
 20
54.0596
 30
0.0
 10
155.1371
 20
51.5661
 30
0.0
 10
155.1371
 20
51.5661
 30
0.0
 10
155.1371
 20
51.5661
 30
0.0
 10
155.1371
 20
51.5661
 30
0.0
 10
155.1272
 20
47.1728
 30
0.0
 10
155.1272
 20
47.1728
 30
0.0
 10
155.1272
 20
47.1728
 30
0.0
 10
155.1272
 20
47.1728
 30
0.0
 10
163.288
 20
51.8853
 30
0.0
 10
163.288
 20
51.8853
 30
0.0
 10
163.288
 20
51.8853
 30
0.0
 10
163.288
 20
51.8853
 30
0.0
 10
163.288
 20
63.2425
 30
0.0
 10
163.288
 20
63.2425
 30
0.0
 10
163.288
 20
63.2425
 30
0.0
 10
163.288
 20
63.2425
 30
0.0
 10
155.124
 20
67.9568
 30
0.0
 10
155.124
 20
67.9568
 30
0.0
 10
155.124
 20
67.9568
 30
0.0
 10
155.124
 20
67.9568
 30
0.0
 10
155.1648
 20
63.5104
 30
0.0
 10
155.1648
 20
63.5104
 30
0.0
 10
155.1648
 20
63.5104
 30
0.0
 10
155.1648
 20
63.5104
 30
0.0
 10
155.1385
 20
63.5189
 30
0.0
 10
155.1385
 20
63.5189
 30
0.0
  0
SPLINE
  5
5E
330
1F
100
AcDbEntity
  8
layer 1
 62
     7
100
AcDbSpline
210
0.0
220
0.0
230
1.0
 70
    27
 71
     3
 72
    12
 73
     8
 74
     0
 42
0.0000000001
 43
0.0000000001
 12
1.0
 22
0.0
 32
0.0
 13
1.0
 23
0.0
 33
0.0
 40
0.0
 40
0.0
 40
0.0
 40
0.0
 40
0.3333333333333333
 40
0.3333333333333333
 40
0.3333333333333333
 40
0.3333333333333333
 40
1.0
 40
1.0
 40
1.0
 40
1.0
 10
155.1385
 20
63.5189
 30
0.0
 10
155.1385
 20
63.5189
 30
0.0
 10
155.1385
 20
63.5189
 30
0.0
 10
155.1385
 20
63.5189
 30
0.0
 10
155.1385
 20
63.5189
 30
0.0
 10
155.1385
 20
63.5189
 30
0.0
 10
155.1385
 20
63.5189
 30
0.0
 10
155.1385
 20
63.5189
 30
0.0
  0
SPLINE
  5
5F
330
1F
100
AcDbEntity
  8
layer 1
 62
     7
100
AcDbSpline
210
0.0
220
0.0
230
1.0
 70
    11
 71
     3
 72
    36
 73
    32
 74
     0
 42
0.0000000001
 43
0.0000000001
 12
1.0
 22
0.0
 32
0.0
 13
1.0
 23
0.0
 33
0.0
 40
0.0
 40
0.0
 40
0.0
 40
0.0
 40
0.1111111111111111
 40
0.1111111111111111
 40
0.1111111111111111
 40
0.1111111111111111
 40
0.2222222222222222
 40
0.2222222222222222
 40
0.2222222222222222
 40
0.2222222222222222
 40
0.3333333333333333
 40
0.3333333333333333
 40
0.3333333333333333
 40
0.3333333333333333
 40
0.4444444444444444
 40
0.4444444444444444
 40
0.4444444444444444
 40
0.4444444444444444
 40
0.5555555555555556
 40
0.5555555555555556
 40
0.5555555555555556
 40
0.5555555555555556
 40
0.6666666666666666
 40
0.6666666666666666
 40
0.6666666666666666
 40
0.6666666666666666
 40
0.7777777777777778
 40
0.7777777777777778
 40
0.7777777777777778
 40
0.7777777777777778
 40
1.0
 40
1.0
 40
1.0
 40
1.0
 10
166.7979
 20
49.8487
 30
0.0
 10
166.7979
 20
49.8487
 30
0.0
 10
166.7979
 20
65.2651
 30
0.0
 10
166.7979
 20
65.2651
 30
0.0
 10
166.7979
 20
65.2651
 30
0.0
 10
166.7979
 20
65.2651
 30
0.0
 10
155.1317
 20
72.0
 30
0.0
 10
155.1317
 20
72.0
 30
0.0
 10
155.1317
 20
72.0
 30
0.0
 10
155.1317
 20
72.0
 30
0.0
 10
155.1341
 20
76.1288
 30
0.0
 10
155.1341
 20
76.1288
 30
0.0
 10
155.1341
 20
76.1288
 30
0.0
 10
155.1341
 20
76.1288
 30
0.0
 10
170.4576
 20
67.2852
 30
0.0
 10
170.4576
 20
67.2852
 30
0.0
 10
170.4576
 20
67.2852
 30
0.0
 10
170.4576
 20
67.2852
 30
0.0
 10
170.4576
 20
47.6463
 30
0.0
 10
170.4576
 20
47.6463
 30
0.0
 10
170.4576
 20
47.6463
 30
0.0
 10
170.4576
 20
47.6463
 30
0.0
 10
155.1359
 20
38.8023
 30
0.0
 10
155.1359
 20
38.8023
 30
0.0
 10
155.1359
 20
38.8023
 30
0.0
 10
155.1359
 20
38.8023
 30
0.0
 10
155.1298
 20
43.1212
 30
0.0
 10
155.1298
 20
43.1212
 30
0.0
 10
155.1298
 20
43.1212
 30
0.0
 10
155.1298
 20
43.1212
 30
0.0
 10
166.7979
 20
49.8487
 30
0.0
 10
166.7979
 20
49.8487
 30
0.0
  0
SPLINE
  5
60
330
1F
100
AcDbEntity
  8
layer 1
 62
     7
100
AcDbSpline
210
0.0
220
0.0
230
1.0
 70
    11
 71
     3
 72
    20
 73
    16
 74
     0
 42
0.0000000001
 43
0.0000000001
 12
1.0
 22
0.0
 32
0.0
 13
1.0
 23
0.0
 33
0.0
 40
0.0
 40
0.0
 40
0.0
 40
0.0
 40
0.2
 40
0.2
 40
0.2
 40
0.2
 40
0.4
 40
0.4
 40
0.4
 40
0.4
 40
0.6
 40
0.6
 40
0.6
 40
0.6
 40
1.0
 40
1.0
 40
1.0
 40
1.0
 10
188.8739
 20
55.3667
 30
0.0
 10
188.8739
 20
55.3667
 30
0.0
 10
187.8152
 20
55.9805
 30
0.0
 10
187.8152
 20
55.9805
 30
0.0
 10
187.8152
 20
55.9805
 30
0.0
 10
187.8152
 20
55.9805
 30
0.0
 10
187.8152
 20
59.0921
 30
0.0
 10
187.8152
 20
59.0921
 30
0.0
 10
187.8152
 20
59.0921
 30
0.0
 10
187.8152
 20
59.0921
 30
0.0
 10
188.8763
 20
59.7072
 30
0.0
 10
188.8763
 20
59.7072
 30
0.0
 10
188.8763
 20
59.7072
 30
0.0
 10
188.8763
 20
59.7072
 30
0.0
 10
188.8739
 20
55.3667
 30
0.0
 10
188.8739
 20
55.3667
 30
0.0
  0
SPLINE
  5
61
330
1F
100
AcDbEntity
  8
layer 1
 62
     7
100
AcDbSpline
210
0.0
220
0.0
230
1.0
 70
    11
 71
     3
 72
    36
 73
    32
 74
     0
 42
0.0000000001
 43
0.0000000001
 12
1.0
 22
0.0
 32
0.0
 13
1.0
 23
0.0
 33
0.0
 40
0.0
 40
0.0
 40
0.0
 40
0.0
 40
0.1111111111111111
 40
0.1111111111111111
 40
0.1111111111111111
 40
0.1111111111111111
 40
0.2222222222222222
 40
0.2222222222222222
 40
0.2222222222222222
 40
0.2222222222222222
 40
0.3333333333333333
 40
0.3333333333333333
 40
0.3333333333333333
 40
0.3333333333333333
 40
0.4444444444444444
 40
0.4444444444444444
 40
0.4444444444444444
 40
0.4444444444444444
 40
0.5555555555555556
 40
0.5555555555555556
 40
0.5555555555555556
 40
0.5555555555555556
 40
0.6666666666666666
 40
0.6666666666666666
 40
0.6666666666666666
 40
0.6666666666666666
 40
0.7777777777777778
 40
0.7777777777777778
 40
0.7777777777777778
 40
0.7777777777777778
 40
1.0
 40
1.0
 40
1.0
 40
1.0
 10
184.4807
 20
61.0146
 30
0.0
 10
184.4807
 20
61.0146
 30
0.0
 10
184.4807
 20
54.0596
 30
0.0
 10
184.4807
 20
54.0596
 30
0.0
 10
184.4807
 20
54.0596
 30
0.0
 10
184.4807
 20
54.0596
 30
0.0
 10
188.8159
 20
51.5661
 30
0.0
 10
188.8159
 20
51.5661
 30
0.0
 10
188.8159
 20
51.5661
 30
0.0
 10
188.8159
 20
51.5661
 30
0.0
 10
188.8258
 20
47.1728
 30
0.0
 10
188.8258
 20
47.1728
 30
0.0
 10
188.8258
 20
47.1728
 30
0.0
 10
188.8258
 20
47.1728
 30
0.0
 10
180.665
 20
51.8853
 30
0.0
 10
180.665
 20
51.8853
 30
0.0
 10
180.665
 20
51.8853
 30
0.0
 10
180.665
 20
51.8853
 30
0.0
 10
180.665
 20
63.2425
 30
0.0
 10
180.665
 20
63.2425
 30
0.0
 10
180.665
 20
63.2425
 30
0.0
 10
180.665
 20
63.2425
 30
0.0
 10
188.829
 20
67.9568
 30
0.0
 10
188.829
 20
67.9568
 30
0.0
 10
188.829
 20
67.9568
 30
0.0
 10
188.829
 20
67.9568
 30
0.0
 10
188.8014
 20
63.5146
 30
0.0
 10
188.8014
 20
63.5146
 30
0.0
 10
188.8014
 20
63.5146
 30
0.0
 10
188.8014
 20
63.5146
 30
0.0
 10
184.4807
 20
61.0146
 30
0.0
 10
184.4807
 20
61.0146
 30
0.0
  0
SPLINE
  5
62
330
1F
100
AcDbEntity
  8
layer 1
 62
     7
100
AcDbSpline
210
0.0
220
0.0
230
1.0
 70
    11
 71
     3
 72
    36
 73
    32
 74
     0
 42
0.0000000001
 43
0.0000000001
 12
1.0
 22
0.0
 32
0.0
 13
1.0
 23
0.0
 33
0.0
 40
0.0
 40
0.0
 40
0.0
 40
0.0
 40
0.1111111111111111
 40
0.1111111111111111
 40
0.1111111111111111
 40
0.1111111111111111
 40
0.2222222222222222
 40
0.2222222222222222
 40
0.2222222222222222
 40
0.2222222222222222
 40
0.3333333333333333
 40
0.3333333333333333
 40
0.3333333333333333
 40
0.3333333333333333
 40
0.4444444444444444
 40
0.4444444444444444
 40
0.4444444444444444
 40
0.4444444444444444
 40
0.5555555555555556
 40
0.5555555555555556
 40
0.5555555555555556
 40
0.5555555555555556
 40
0.6666666666666666
 40
0.6666666666666666
 40
0.6666666666666666
 40
0.6666666666666666
 40
0.7777777777777778
 40
0.7777777777777778
 40
0.7777777777777778
 40
0.7777777777777778
 40
1.0
 40
1.0
 40
1.0
 40
1.0
 10
177.1468
 20
49.8487
 30
0.0
 10
177.1468
 20
49.8487
 30
0.0
 10
177.1468
 20
65.2651
 30
0.0
 10
177.1468
 20
65.2651
 30
0.0
 10
177.1468
 20
65.2651
 30
0.0
 10
177.1468
 20
65.2651
 30
0.0
 10
188.813
 20
72.0
 30
0.0
 10
188.813
 20
72.0
 30
0.0
 10
188.813
 20
72.0
 30
0.0
 10
188.813
 20
72.0
 30
0.0
 10
188.8106
 20
76.1288
 30
0.0
 10
188.8106
 20
76.1288
 30
0.0
 10
188.8106
 20
76.1288
 30
0.0
 10
188.8106
 20
76.1288
 30
0.0
 10
173.4871
 20
67.2852
 30
0.0
 10
173.4871
 20
67.2852
 30
0.0
 10
173.4871
 20
67.2852
 30
0.0
 10
173.4871
 20
67.2852
 30
0.0
 10
173.4871
 20
47.6463
 30
0.0
 10
173.4871
 20
47.6463
 30
0.0
 10
173.4871
 20
47.6463
 30
0.0
 10
173.4871
 20
47.6463
 30
0.0
 10
188.8088
 20
38.8023
 30
0.0
 10
188.8088
 20
38.8023
 30
0.0
 10
188.8088
 20
38.8023
 30
0.0
 10
188.8088
 20
38.8023
 30
0.0
 10
188.8149
 20
43.1212
 30
0.0
 10
188.8149
 20
43.1212
 30
0.0
 10
188.8149
 20
43.1212
 30
0.0
 10
188.8149
 20
43.1212
 30
0.0
 10
177.1468
 20
49.8487
 30
0.0
 10
177.1468
 20
49.8487
 30
0.0
  0
SPLINE
  5
63
330
1F
100
AcDbEntity
  8
layer 1
 62
     7
100
AcDbSpline
210
0.0
220
0.0
230
1.0
 70
    11
 71
     3
 72
    36
 73
    32
 74
     0
 42
0.0000000001
 43
0.0000000001
 12
1.0
 22
0.0
 32
0.0
 13
1.0
 23
0.0
 33
0.0
 40
0.0
 40
0.0
 40
0.0
 40
0.0
 40
0.1111111111111111
 40
0.1111111111111111
 40
0.1111111111111111
 40
0.1111111111111111
 40
0.2222222222222222
 40
0.2222222222222222
 40
0.2222222222222222
 40
0.2222222222222222
 40
0.3333333333333333
 40
0.3333333333333333
 40
0.3333333333333333
 40
0.3333333333333333
 40
0.4444444444444444
 40
0.4444444444444444
 40
0.4444444444444444
 40
0.4444444444444444
 40
0.5555555555555556
 40
0.5555555555555556
 40
0.5555555555555556
 40
0.5555555555555556
 40
0.6666666666666666
 40
0.6666666666666666
 40
0.6666666666666666
 40
0.6666666666666666
 40
0.7777777777777778
 40
0.7777777777777778
 40
0.7777777777777778
 40
0.7777777777777778
 40
1.0
 40
1.0
 40
1.0
 40
1.0
 10
91.9738
 20
50.1166
 30
0.0
 10
91.9738
 20
50.1166
 30
0.0
 10
91.9738
 20
65.533
 30
0.0
 10
91.9738
 20
65.533
 30
0.0
 10
91.9738
 20
65.533
 30
0.0
 10
91.9738
 20
65.533
 30
0.0
 10
80.3076
 20
72.2679
 30
0.0
 10
80.3076
 20
72.2679
 30
0.0
 10
80.3076
 20
72.2679
 30
0.0
 10
80.3076
 20
72.2679
 30
0.0
 10
80.3101
 20
76.3967
 30
0.0
 10
80.3101
 20
76.3967
 30
0.0
 10
80.3101
 20
76.3967
 30
0.0
 10
80.3101
 20
76.3967
 30
0.0
 10
95.6335
 20
67.553
 30
0.0
 10
95.6335
 20
67.553
 30
0.0
 10
95.6335
 20
67.553
 30
0.0
 10
95.6335
 20
67.553
 30
0.0
 10
95.6335
 20
47.9141
 30
0.0
 10
95.6335
 20
47.9141
 30
0.0
 10
95.6335
 20
47.9141
 30
0.0
 10
95.6335
 20
47.9141
 30
0.0
 10
80.3119
 20
39.0702
 30
0.0
 10
80.3119
 20
39.0702
 30
0.0
 10
80.3119
 20
39.0702
 30
0.0
 10
80.3119
 20
39.0702
 30
0.0
 10
80.3057
 20
43.3891
 30
0.0
 10
80.3057
 20
43.3891
 30
0.0
 10
80.3057
 20
43.3891
 30
0.0
 10
80.3057
 20
43.3891
 30
0.0
 10
91.9738
 20
50.1166
 30
0.0
 10
91.9738
 20
50.1166
 30
0.0
  0
SPLINE
  5
64
330
1F
100
AcDbEntity
  8
layer 1
 62
     7
100
AcDbSpline
210
0.0
220
0.0
230
1.0
 70
    11
 71
     3
 72
    20
 73
    16
 74
     0
 42
0.0000000001
 43
0.0000000001
 12
1.0
 22
0.0
 32
0.0
 13
1.0
 23
0.0
 33
0.0
 40
0.0
 40
0.0
 40
0.0
 40
0.0
 40
0.2
 40
0.2
 40
0.2
 40
0.2
 40
0.4
 40
0.4
 40
0.4
 40
0.4
 40
0.6
 40
0.6
 40
0.6
 40
0.6
 40
1.0
 40
1.0
 40
1.0
 40
1.0
 10
81.2988
 20
56.2484
 30
0.0
 10
81.2988
 20
56.2484
 30
0.0
 10
80.2942
 20
55.6723
 30
0.0
 10
80.2942
 20
55.6723
 30
0.0
 10
80.2942
 20
55.6723
 30
0.0
 10
80.2942
 20
55.6723
 30
0.0
 10
80.2942
 20
59.9439
 30
0.0
 10
80.2942
 20
59.9439
 30
0.0
 10
80.2942
 20
59.9439
 30
0.0
 10
80.2942
 20
59.9439
 30
0.0
 10
81.2988
 20
59.3601
 30
0.0
 10
81.2988
 20
59.3601
 30
0.0
 10
81.2988
 20
59.3601
 30
0.0
 10
81.2988
 20
59.3601
 30
0.0
 10
81.2988
 20
56.2484
 30
0.0
 10
81.2988
 20
56.2484
 30
0.0
  0
SPLINE
  5
65
330
1F
100
AcDbEntity
  8
layer 1
 62
     7
100
AcDbSpline
210
0.0
220
0.0
230
1.0
 70
    11
 71
     3
 72
    40
 73
    36
 74
     0
 42
0.0000000001
 43
0.0000000001
 12
1.0
 22
0.0
 32
0.0
 13
1.0
 23
0.0
 33
0.0
 40
0.0
 40
0.0
 40
0.0
 40
0.0
 40
0.1
 40
0.1
 40
0.1
 40
0.1
 40
0.2
 40
0.2
 40
0.2
 40
0.2
 40
0.3
 40
0.3
 40
0.3
 40
0.3
 40
0.4
 40
0.4
 40
0.4
 40
0.4
 40
0.5
 40
0.5
 40
0.5
 40
0.5
 40
0.6
 40
0.6
 40
0.6
 40
0.6
 40
0.7
 40
0.7
 40
0.7
 40
0.7
 40
0.8
 40
0.8
 40
0.8
 40
0.8
 40
1.0
 40
1.0
 40
1.0
 40
1.0
 10
80.3144
 20
63.7867
 30
0.0
 10
80.3144
 20
63.7867
 30
0.0
 10
84.6483
 20
61.2824
 30
0.0
 10
84.6483
 20
61.2824
 30
0.0
 10
84.6483
 20
61.2824
 30
0.0
 10
84.6483
 20
61.2824
 30
0.0
 10
84.6483
 20
54.3274
 30
0.0
 10
84.6483
 20
54.3274
 30
0.0
 10
84.6483
 20
54.3274
 30
0.0
 10
84.6483
 20
54.3274
 30
0.0
 10
80.3131
 20
51.834
 30
0.0
 10
80.3131
 20
51.834
 30
0.0
 10
80.3131
 20
51.834
 30
0.0
 10
80.3131
 20
51.834
 30
0.0
 10
80.3032
 20
47.4406
 30
0.0
 10
80.3032
 20
47.4406
 30
0.0
 10
80.3032
 20
47.4406
 30
0.0
 10
80.3032
 20
47.4406
 30
0.0
 10
88.464
 20
52.1531
 30
0.0
 10
88.464
 20
52.1531
 30
0.0
 10
88.464
 20
52.1531
 30
0.0
 10
88.464
 20
52.1531
 30
0.0
 10
88.464
 20
63.5104
 30
0.0
 10
88.464
 20
63.5104
 30
0.0
 10
88.464
 20
63.5104
 30
0.0
 10
88.464
 20
63.5104
 30
0.0
 10
80.3
 20
68.2246
 30
0.0
 10
80.3
 20
68.2246
 30
0.0
 10
80.3
 20
68.2246
 30
0.0
 10
80.3
 20
68.2246
 30
0.0
 10
80.3408
 20
63.7782
 30
0.0
 10
80.3408
 20
63.7782
 30
0.0
 10
80.3408
 20
63.7782
 30
0.0
 10
80.3408
 20
63.7782
 30
0.0
 10
80.3144
 20
63.7867
 30
0.0
 10
80.3144
 20
63.7867
 30
0.0
  0
SPLINE
  5
66
330
1F
100
AcDbEntity
  8
layer 1
 62
     7
100
AcDbSpline
210
0.0
220
0.0
230
1.0
 70
    27
 71
     3
 72
    12
 73
     8
 74
     0
 42
0.0000000001
 43
0.0000000001
 12
1.0
 22
0.0
 32
0.0
 13
1.0
 23
0.0
 33
0.0
 40
0.0
 40
0.0
 40
0.0
 40
0.0
 40
0.3333333333333333
 40
0.3333333333333333
 40
0.3333333333333333
 40
0.3333333333333333
 40
1.0
 40
1.0
 40
1.0
 40
1.0
 10
80.3144
 20
63.7867
 30
0.0
 10
80.3144
 20
63.7867
 30
0.0
 10
80.3144
 20
63.7867
 30
0.0
 10
80.3144
 20
63.7867
 30
0.0
 10
80.3144
 20
63.7867
 30
0.0
 10
80.3144
 20
63.7867
 30
0.0
 10
80.3144
 20
63.7867
 30
0.0
 10
80.3144
 20
63.7867
 30
0.0
  0
SPLINE
  5
67
330
1F
100
AcDbEntity
  8
layer 1
 62
     7
100
AcDbSpline
210
0.0
220
0.0
230
1.0
 70
    11
 71
     3
 72
    28
 73
    24
 74
     0
 42
0.0000000001
 43
0.0000000001
 12
1.0
 22
0.0
 32
0.0
 13
1.0
 23
0.0
 33
0.0
 40
0.0
 40
0.0
 40
0.0
 40
0.0
 40
0.1428571428571428
 40
0.1428571428571428
 40
0.1428571428571428
 40
0.1428571428571428
 40
0.2857142857142857
 40
0.2857142857142857
 40
0.2857142857142857
 40
0.2857142857142857
 40
0.4285714285714285
 40
0.4285714285714285
 40
0.4285714285714285
 40
0.4285714285714285
 40
0.5714285714285714
 40
0.5714285714285714
 40
0.5714285714285714
 40
0.5714285714285714
 40
0.7142857142857143
 40
0.7142857142857143
 40
0.7142857142857143
 40
0.7142857142857143
 40
1.0
 40
1.0
 40
1.0
 40
1.0
 10
100.0107
 20
23.7105
 30
0.0
 10
100.0107
 20
23.7105
 30
0.0
 10
97.3271
 20
22.1547
 30
0.0
 10
97.3271
 20
22.1547
 30
0.0
 10
97.3271
 20
22.1547
 30
0.0
 10
97.3271
 20
22.1547
 30
0.0
 10
94.6434
 20
23.7105
 30
0.0
 10
94.6434
 20
23.7105
 30
0.0
 10
94.6434
 20
23.7105
 30
0.0
 10
94.6434
 20
23.7105
 30
0.0
 10
94.6434
 20
26.8221
 30
0.0
 10
94.6434
 20
26.8221
 30
0.0
 10
94.6434
 20
26.8221
 30
0.0
 10
94.6434
 20
26.8221
 30
0.0
 10
97.3271
 20
28.378
 30
0.0
 10
97.3271
 20
28.378
 30
0.0
 10
97.3271
 20
28.378
 30
0.0
 10
97.3271
 20
28.378
 30
0.0
 10
100.0107
 20
26.8221
 30
0.0
 10
100.0107
 20
26.8221
 30
0.0
 10
100.0107
 20
26.8221
 30
0.0
 10
100.0107
 20
26.8221
 30
0.0
 10
100.0107
 20
23.7105
 30
0.0
 10
100.0107
 20
23.7105
 30
0.0
  0
SPLINE
  5
68
330
1F
100
AcDbEntity
  8
layer 1
 62
     7
100
AcDbSpline
210
0.0
220
0.0
230
1.0
 70
    11
 71
     3
 72
    36
 73
    32
 74
     0
 42
0.0000000001
 43
0.0000000001
 12
1.0
 22
0.0
 32
0.0
 13
1.0
 23
0.0
 33
0.0
 40
0.0
 40
0.0
 40
0.0
 40
0.0
 40
0.1111111111111111
 40
0.1111111111111111
 40
0.1111111111111111
 40
0.1111111111111111
 40
0.2222222222222222
 40
0.2222222222222222
 40
0.2222222222222222
 40
0.2222222222222222
 40
0.3333333333333333
 40
0.3333333333333333
 40
0.3333333333333333
 40
0.3333333333333333
 40
0.4444444444444444
 40
0.4444444444444444
 40
0.4444444444444444
 40
0.4444444444444444
 40
0.5555555555555556
 40
0.5555555555555556
 40
0.5555555555555556
 40
0.5555555555555556
 40
0.6666666666666666
 40
0.6666666666666666
 40
0.6666666666666666
 40
0.6666666666666666
 40
0.7777777777777778
 40
0.7777777777777778
 40
0.7777777777777778
 40
0.7777777777777778
 40
1.0
 40
1.0
 40
1.0
 40
1.0
 10
91.3089
 20
28.7446
 30
0.0
 10
91.3089
 20
28.7446
 30
0.0
 10
91.3089
 20
21.7896
 30
0.0
 10
91.3089
 20
21.7896
 30
0.0
 10
91.3089
 20
21.7896
 30
0.0
 10
91.3089
 20
21.7896
 30
0.0
 10
95.6441
 20
19.2962
 30
0.0
 10
95.6441
 20
19.2962
 30
0.0
 10
95.6441
 20
19.2962
 30
0.0
 10
95.6441
 20
19.2962
 30
0.0
 10
95.654
 20
14.9029
 30
0.0
 10
95.654
 20
14.9029
 30
0.0
 10
95.654
 20
14.9029
 30
0.0
 10
95.654
 20
14.9029
 30
0.0
 10
87.4932
 20
19.6153
 30
0.0
 10
87.4932
 20
19.6153
 30
0.0
 10
87.4932
 20
19.6153
 30
0.0
 10
87.4932
 20
19.6153
 30
0.0
 10
87.4932
 20
30.9726
 30
0.0
 10
87.4932
 20
30.9726
 30
0.0
 10
87.4932
 20
30.9726
 30
0.0
 10
87.4932
 20
30.9726
 30
0.0
 10
95.6572
 20
35.6868
 30
0.0
 10
95.6572
 20
35.6868
 30
0.0
 10
95.6572
 20
35.6868
 30
0.0
 10
95.6572
 20
35.6868
 30
0.0
 10
95.6297
 20
31.2447
 30
0.0
 10
95.6297
 20
31.2447
 30
0.0
 10
95.6297
 20
31.2447
 30
0.0
 10
95.6297
 20
31.2447
 30
0.0
 10
91.3089
 20
28.7446
 30
0.0
 10
91.3089
 20
28.7446
 30
0.0
  0
SPLINE
  5
69
330
1F
100
AcDbEntity
  8
layer 1
 62
     7
100
AcDbSpline
210
0.0
220
0.0
230
1.0
 70
    11
 71
     3
 72
    36
 73
    32
 74
     0
 42
0.0000000001
 43
0.0000000001
 12
1.0
 22
0.0
 32
0.0
 13
1.0
 23
0.0
 33
0.0
 40
0.0
 40
0.0
 40
0.0
 40
0.0
 40
0.1111111111111111
 40
0.1111111111111111
 40
0.1111111111111111
 40
0.1111111111111111
 40
0.2222222222222222
 40
0.2222222222222222
 40
0.2222222222222222
 40
0.2222222222222222
 40
0.3333333333333333
 40
0.3333333333333333
 40
0.3333333333333333
 40
0.3333333333333333
 40
0.4444444444444444
 40
0.4444444444444444
 40
0.4444444444444444
 40
0.4444444444444444
 40
0.5555555555555556
 40
0.5555555555555556
 40
0.5555555555555556
 40
0.5555555555555556
 40
0.6666666666666666
 40
0.6666666666666666
 40
0.6666666666666666
 40
0.6666666666666666
 40
0.7777777777777778
 40
0.7777777777777778
 40
0.7777777777777778
 40
0.7777777777777778
 40
1.0
 40
1.0
 40
1.0
 40
1.0
 10
83.975
 20
17.5787
 30
0.0
 10
83.975
 20
17.5787
 30
0.0
 10
83.975
 20
32.9951
 30
0.0
 10
83.975
 20
32.9951
 30
0.0
 10
83.975
 20
32.9951
 30
0.0
 10
83.975
 20
32.9951
 30
0.0
 10
95.6413
 20
39.73
 30
0.0
 10
95.6413
 20
39.73
 30
0.0
 10
95.6413
 20
39.73
 30
0.0
 10
95.6413
 20
39.73
 30
0.0
 10
95.6388
 20
43.8588
 30
0.0
 10
95.6388
 20
43.8588
 30
0.0
 10
95.6388
 20
43.8588
 30
0.0
 10
95.6388
 20
43.8588
 30
0.0
 10
80.3153
 20
35.0151
 30
0.0
 10
80.3153
 20
35.0151
 30
0.0
 10
80.3153
 20
35.0151
 30
0.0
 10
80.3153
 20
35.0151
 30
0.0
 10
80.3153
 20
15.3762
 30
0.0
 10
80.3153
 20
15.3762
 30
0.0
 10
80.3153
 20
15.3762
 30
0.0
 10
80.3153
 20
15.3762
 30
0.0
 10
95.637
 20
6.5323
 30
0.0
 10
95.637
 20
6.5323
 30
0.0
 10
95.637
 20
6.5323
 30
0.0
 10
95.637
 20
6.5323
 30
0.0
 10
95.6432
 20
10.8512
 30
0.0
 10
95.6432
 20
10.8512
 30
0.0
 10
95.6432
 20
10.8512
 30
0.0
 10
95.6432
 20
10.8512
 30
0.0
 10
83.975
 20
17.5787
 30
0.0
 10
83.975
 20
17.5787
 30
0.0
  0
SPLINE
  5
6A
330
1F
100
AcDbEntity
  8
layer 1
 62
     7
100
AcDbSpline
210
0.0
220
0.0
230
1.0
 70
    11
 71
     3
 72
    40
 73
    36
 74
     0
 42
0.0000000001
 43
0.0000000001
 12
1.0
 22
0.0
 32
0.0
 13
1.0
 23
0.0
 33
0.0
 40
0.0
 40
0.0
 40
0.0
 40
0.0
 40
0.1
 40
0.1
 40
0.1
 40
0.1
 40
0.2
 40
0.2
 40
0.2
 40
0.2
 40
0.3
 40
0.3
 40
0.3
 40
0.3
 40
0.4
 40
0.4
 40
0.4
 40
0.4
 40
0.5
 40
0.5
 40
0.5
 40
0.5
 40
0.6
 40
0.6
 40
0.6
 40
0.6
 40
0.7
 40
0.7
 40
0.7
 40
0.7
 40
0.8
 40
0.8
 40
0.8
 40
0.8
 40
1.0
 40
1.0
 40
1.0
 40
1.0
 10
99.0263
 20
31.2488
 30
0.0
 10
99.0263
 20
31.2488
 30
0.0
 10
103.3602
 20
28.7445
 30
0.0
 10
103.3602
 20
28.7445
 30
0.0
 10
103.3602
 20
28.7445
 30
0.0
 10
103.3602
 20
28.7445
 30
0.0
 10
103.3602
 20
21.7895
 30
0.0
 10
103.3602
 20
21.7895
 30
0.0
 10
103.3602
 20
21.7895
 30
0.0
 10
103.3602
 20
21.7895
 30
0.0
 10
99.025
 20
19.2961
 30
0.0
 10
99.025
 20
19.2961
 30
0.0
 10
99.025
 20
19.2961
 30
0.0
 10
99.025
 20
19.2961
 30
0.0
 10
99.0151
 20
14.9028
 30
0.0
 10
99.0151
 20
14.9028
 30
0.0
 10
99.0151
 20
14.9028
 30
0.0
 10
99.0151
 20
14.9028
 30
0.0
 10
107.1759
 20
19.6153
 30
0.0
 10
107.1759
 20
19.6153
 30
0.0
 10
107.1759
 20
19.6153
 30
0.0
 10
107.1759
 20
19.6153
 30
0.0
 10
107.1759
 20
30.9725
 30
0.0
 10
107.1759
 20
30.9725
 30
0.0
 10
107.1759
 20
30.9725
 30
0.0
 10
107.1759
 20
30.9725
 30
0.0
 10
99.0118
 20
35.6868
 30
0.0
 10
99.0118
 20
35.6868
 30
0.0
 10
99.0118
 20
35.6868
 30
0.0
 10
99.0118
 20
35.6868
 30
0.0
 10
99.0526
 20
31.2403
 30
0.0
 10
99.0526
 20
31.2403
 30
0.0
 10
99.0526
 20
31.2403
 30
0.0
 10
99.0526
 20
31.2403
 30
0.0
 10
99.0263
 20
31.2488
 30
0.0
 10
99.0263
 20
31.2488
 30
0.0
  0
SPLINE
  5
6B
330
1F
100
AcDbEntity
  8
layer 1
 62
     7
100
AcDbSpline
210
0.0
220
0.0
230
1.0
 70
    27
 71
     3
 72
    12
 73
     8
 74
     0
 42
0.0000000001
 43
0.0000000001
 12
1.0
 22
0.0
 32
0.0
 13
1.0
 23
0.0
 33
0.0
 40
0.0
 40
0.0
 40
0.0
 40
0.0
 40
0.3333333333333333
 40
0.3333333333333333
 40
0.3333333333333333
 40
0.3333333333333333
 40
1.0
 40
1.0
 40
1.0
 40
1.0
 10
99.0263
 20
31.2488
 30
0.0
 10
99.0263
 20
31.2488
 30
0.0
 10
99.0263
 20
31.2488
 30
0.0
 10
99.0263
 20
31.2488
 30
0.0
 10
99.0263
 20
31.2488
 30
0.0
 10
99.0263
 20
31.2488
 30
0.0
 10
99.0263
 20
31.2488
 30
0.0
 10
99.0263
 20
31.2488
 30
0.0
  0
SPLINE
  5
6C
330
1F
100
AcDbEntity
  8
layer 1
 62
     7
100
AcDbSpline
210
0.0
220
0.0
230
1.0
 70
    11
 71
     3
 72
    36
 73
    32
 74
     0
 42
0.0000000001
 43
0.0000000001
 12
1.0
 22
0.0
 32
0.0
 13
1.0
 23
0.0
 33
0.0
 40
0.0
 40
0.0
 40
0.0
 40
0.0
 40
0.1111111111111111
 40
0.1111111111111111
 40
0.1111111111111111
 40
0.1111111111111111
 40
0.2222222222222222
 40
0.2222222222222222
 40
0.2222222222222222
 40
0.2222222222222222
 40
0.3333333333333333
 40
0.3333333333333333
 40
0.3333333333333333
 40
0.3333333333333333
 40
0.4444444444444444
 40
0.4444444444444444
 40
0.4444444444444444
 40
0.4444444444444444
 40
0.5555555555555556
 40
0.5555555555555556
 40
0.5555555555555556
 40
0.5555555555555556
 40
0.6666666666666666
 40
0.6666666666666666
 40
0.6666666666666666
 40
0.6666666666666666
 40
0.7777777777777778
 40
0.7777777777777778
 40
0.7777777777777778
 40
0.7777777777777778
 40
1.0
 40
1.0
 40
1.0
 40
1.0
 10
110.6857
 20
17.5787
 30
0.0
 10
110.6857
 20
17.5787
 30
0.0
 10
110.6857
 20
32.9951
 30
0.0
 10
110.6857
 20
32.9951
 30
0.0
 10
110.6857
 20
32.9951
 30
0.0
 10
110.6857
 20
32.9951
 30
0.0
 10
99.0195
 20
39.73
 30
0.0
 10
99.0195
 20
39.73
 30
0.0
 10
99.0195
 20
39.73
 30
0.0
 10
99.0195
 20
39.73
 30
0.0
 10
99.022
 20
43.8588
 30
0.0
 10
99.022
 20
43.8588
 30
0.0
 10
99.022
 20
43.8588
 30
0.0
 10
99.022
 20
43.8588
 30
0.0
 10
114.3454
 20
35.0151
 30
0.0
 10
114.3454
 20
35.0151
 30
0.0
 10
114.3454
 20
35.0151
 30
0.0
 10
114.3454
 20
35.0151
 30
0.0
 10
114.3454
 20
15.3762
 30
0.0
 10
114.3454
 20
15.3762
 30
0.0
 10
114.3454
 20
15.3762
 30
0.0
 10
114.3454
 20
15.3762
 30
0.0
 10
99.0237
 20
6.5323
 30
0.0
 10
99.0237
 20
6.5323
 30
0.0
 10
99.0237
 20
6.5323
 30
0.0
 10
99.0237
 20
6.5323
 30
0.0
 10
99.0176
 20
10.8512
 30
0.0
 10
99.0176
 20
10.8512
 30
0.0
 10
99.0176
 20
10.8512
 30
0.0
 10
99.0176
 20
10.8512
 30
0.0
 10
110.6857
 20
17.5787
 30
0.0
 10
110.6857
 20
17.5787
 30
0.0
  0
SPLINE
  5
6D
330
1F
100
AcDbEntity
  8
layer 1
 62
     7
100
AcDbSpline
210
0.0
220
0.0
230
1.0
 70
    11
 71
     3
 72
    28
 73
    24
 74
     0
 42
0.0000000001
 43
0.0000000001
 12
1.0
 22
0.0
 32
0.0
 13
1.0
 23
0.0
 33
0.0
 40
0.0
 40
0.0
 40
0.0
 40
0.0
 40
0.1428571428571428
 40
0.1428571428571428
 40
0.1428571428571428
 40
0.1428571428571428
 40
0.2857142857142857
 40
0.2857142857142857
 40
0.2857142857142857
 40
0.2857142857142857
 40
0.4285714285714285
 40
0.4285714285714285
 40
0.4285714285714285
 40
0.4285714285714285
 40
0.5714285714285714
 40
0.5714285714285714
 40
0.5714285714285714
 40
0.5714285714285714
 40
0.7142857142857143
 40
0.7142857142857143
 40
0.7142857142857143
 40
0.7142857142857143
 40
1.0
 40
1.0
 40
1.0
 40
1.0
 10
137.4234
 20
23.7105
 30
0.0
 10
137.4234
 20
23.7105
 30
0.0
 10
134.7397
 20
22.1547
 30
0.0
 10
134.7397
 20
22.1547
 30
0.0
 10
134.7397
 20
22.1547
 30
0.0
 10
134.7397
 20
22.1547
 30
0.0
 10
132.0561
 20
23.7105
 30
0.0
 10
132.0561
 20
23.7105
 30
0.0
 10
132.0561
 20
23.7105
 30
0.0
 10
132.0561
 20
23.7105
 30
0.0
 10
132.0561
 20
26.8221
 30
0.0
 10
132.0561
 20
26.8221
 30
0.0
 10
132.0561
 20
26.8221
 30
0.0
 10
132.0561
 20
26.8221
 30
0.0
 10
134.7397
 20
28.378
 30
0.0
 10
134.7397
 20
28.378
 30
0.0
 10
134.7397
 20
28.378
 30
0.0
 10
134.7397
 20
28.378
 30
0.0
 10
137.4234
 20
26.8221
 30
0.0
 10
137.4234
 20
26.8221
 30
0.0
 10
137.4234
 20
26.8221
 30
0.0
 10
137.4234
 20
26.8221
 30
0.0
 10
137.4234
 20
23.7105
 30
0.0
 10
137.4234
 20
23.7105
 30
0.0
  0
SPLINE
  5
6E
330
1F
100
AcDbEntity
  8
layer 1
 62
     7
100
AcDbSpline
210
0.0
220
0.0
230
1.0
 70
    11
 71
     3
 72
    36
 73
    32
 74
     0
 42
0.0000000001
 43
0.0000000001
 12
1.0
 22
0.0
 32
0.0
 13
1.0
 23
0.0
 33
0.0
 40
0.0
 40
0.0
 40
0.0
 40
0.0
 40
0.1111111111111111
 40
0.1111111111111111
 40
0.1111111111111111
 40
0.1111111111111111
 40
0.2222222222222222
 40
0.2222222222222222
 40
0.2222222222222222
 40
0.2222222222222222
 40
0.3333333333333333
 40
0.3333333333333333
 40
0.3333333333333333
 40
0.3333333333333333
 40
0.4444444444444444
 40
0.4444444444444444
 40
0.4444444444444444
 40
0.4444444444444444
 40
0.5555555555555556
 40
0.5555555555555556
 40
0.5555555555555556
 40
0.5555555555555556
 40
0.6666666666666666
 40
0.6666666666666666
 40
0.6666666666666666
 40
0.6666666666666666
 40
0.7777777777777778
 40
0.7777777777777778
 40
0.7777777777777778
 40
0.7777777777777778
 40
1.0
 40
1.0
 40
1.0
 40
1.0
 10
128.7215
 20
28.7446
 30
0.0
 10
128.7215
 20
28.7446
 30
0.0
 10
128.7215
 20
21.7896
 30
0.0
 10
128.7215
 20
21.7896
 30
0.0
 10
128.7215
 20
21.7896
 30
0.0
 10
128.7215
 20
21.7896
 30
0.0
 10
133.0567
 20
19.2962
 30
0.0
 10
133.0567
 20
19.2962
 30
0.0
 10
133.0567
 20
19.2962
 30
0.0
 10
133.0567
 20
19.2962
 30
0.0
 10
133.0666
 20
14.9029
 30
0.0
 10
133.0666
 20
14.9029
 30
0.0
 10
133.0666
 20
14.9029
 30
0.0
 10
133.0666
 20
14.9029
 30
0.0
 10
124.9058
 20
19.6153
 30
0.0
 10
124.9058
 20
19.6153
 30
0.0
 10
124.9058
 20
19.6153
 30
0.0
 10
124.9058
 20
19.6153
 30
0.0
 10
124.9058
 20
30.9726
 30
0.0
 10
124.9058
 20
30.9726
 30
0.0
 10
124.9058
 20
30.9726
 30
0.0
 10
124.9058
 20
30.9726
 30
0.0
 10
133.0698
 20
35.6868
 30
0.0
 10
133.0698
 20
35.6868
 30
0.0
 10
133.0698
 20
35.6868
 30
0.0
 10
133.0698
 20
35.6868
 30
0.0
 10
133.0422
 20
31.2447
 30
0.0
 10
133.0422
 20
31.2447
 30
0.0
 10
133.0422
 20
31.2447
 30
0.0
 10
133.0422
 20
31.2447
 30
0.0
 10
128.7215
 20
28.7446
 30
0.0
 10
128.7215
 20
28.7446
 30
0.0
  0
SPLINE
  5
6F
330
1F
100
AcDbEntity
  8
layer 1
 62
     7
100
AcDbSpline
210
0.0
220
0.0
230
1.0
 70
    11
 71
     3
 72
    36
 73
    32
 74
     0
 42
0.0000000001
 43
0.0000000001
 12
1.0
 22
0.0
 32
0.0
 13
1.0
 23
0.0
 33
0.0
 40
0.0
 40
0.0
 40
0.0
 40
0.0
 40
0.1111111111111111
 40
0.1111111111111111
 40
0.1111111111111111
 40
0.1111111111111111
 40
0.2222222222222222
 40
0.2222222222222222
 40
0.2222222222222222
 40
0.2222222222222222
 40
0.3333333333333333
 40
0.3333333333333333
 40
0.3333333333333333
 40
0.3333333333333333
 40
0.4444444444444444
 40
0.4444444444444444
 40
0.4444444444444444
 40
0.4444444444444444
 40
0.5555555555555556
 40
0.5555555555555556
 40
0.5555555555555556
 40
0.5555555555555556
 40
0.6666666666666666
 40
0.6666666666666666
 40
0.6666666666666666
 40
0.6666666666666666
 40
0.7777777777777778
 40
0.7777777777777778
 40
0.7777777777777778
 40
0.7777777777777778
 40
1.0
 40
1.0
 40
1.0
 40
1.0
 10
121.3876
 20
17.5787
 30
0.0
 10
121.3876
 20
17.5787
 30
0.0
 10
121.3876
 20
32.9951
 30
0.0
 10
121.3876
 20
32.9951
 30
0.0
 10
121.3876
 20
32.9951
 30
0.0
 10
121.3876
 20
32.9951
 30
0.0
 10
133.0538
 20
39.73
 30
0.0
 10
133.0538
 20
39.73
 30
0.0
 10
133.0538
 20
39.73
 30
0.0
 10
133.0538
 20
39.73
 30
0.0
 10
133.0514
 20
43.8588
 30
0.0
 10
133.0514
 20
43.8588
 30
0.0
 10
133.0514
 20
43.8588
 30
0.0
 10
133.0514
 20
43.8588
 30
0.0
 10
117.7279
 20
35.0151
 30
0.0
 10
117.7279
 20
35.0151
 30
0.0
 10
117.7279
 20
35.0151
 30
0.0
 10
117.7279
 20
35.0151
 30
0.0
 10
117.7279
 20
15.3762
 30
0.0
 10
117.7279
 20
15.3762
 30
0.0
 10
117.7279
 20
15.3762
 30
0.0
 10
117.7279
 20
15.3762
 30
0.0
 10
133.0496
 20
6.5323
 30
0.0
 10
133.0496
 20
6.5323
 30
0.0
 10
133.0496
 20
6.5323
 30
0.0
 10
133.0496
 20
6.5323
 30
0.0
 10
133.0557
 20
10.8512
 30
0.0
 10
133.0557
 20
10.8512
 30
0.0
 10
133.0557
 20
10.8512
 30
0.0
 10
133.0557
 20
10.8512
 30
0.0
 10
121.3876
 20
17.5787
 30
0.0
 10
121.3876
 20
17.5787
 30
0.0
  0
SPLINE
  5
70
330
1F
100
AcDbEntity
  8
layer 1
 62
     7
100
AcDbSpline
210
0.0
220
0.0
230
1.0
 70
    11
 71
     3
 72
    40
 73
    36
 74
     0
 42
0.0000000001
 43
0.0000000001
 12
1.0
 22
0.0
 32
0.0
 13
1.0
 23
0.0
 33
0.0
 40
0.0
 40
0.0
 40
0.0
 40
0.0
 40
0.1
 40
0.1
 40
0.1
 40
0.1
 40
0.2
 40
0.2
 40
0.2
 40
0.2
 40
0.3
 40
0.3
 40
0.3
 40
0.3
 40
0.4
 40
0.4
 40
0.4
 40
0.4
 40
0.5
 40
0.5
 40
0.5
 40
0.5
 40
0.6
 40
0.6
 40
0.6
 40
0.6
 40
0.7
 40
0.7
 40
0.7
 40
0.7
 40
0.8
 40
0.8
 40
0.8
 40
0.8
 40
1.0
 40
1.0
 40
1.0
 40
1.0
 10
136.4389
 20
31.2488
 30
0.0
 10
136.4389
 20
31.2488
 30
0.0
 10
140.7728
 20
28.7445
 30
0.0
 10
140.7728
 20
28.7445
 30
0.0
 10
140.7728
 20
28.7445
 30
0.0
 10
140.7728
 20
28.7445
 30
0.0
 10
140.7728
 20
21.7895
 30
0.0
 10
140.7728
 20
21.7895
 30
0.0
 10
140.7728
 20
21.7895
 30
0.0
 10
140.7728
 20
21.7895
 30
0.0
 10
136.4376
 20
19.2961
 30
0.0
 10
136.4376
 20
19.2961
 30
0.0
 10
136.4376
 20
19.2961
 30
0.0
 10
136.4376
 20
19.2961
 30
0.0
 10
136.4277
 20
14.9028
 30
0.0
 10
136.4277
 20
14.9028
 30
0.0
 10
136.4277
 20
14.9028
 30
0.0
 10
136.4277
 20
14.9028
 30
0.0
 10
144.5885
 20
19.6153
 30
0.0
 10
144.5885
 20
19.6153
 30
0.0
 10
144.5885
 20
19.6153
 30
0.0
 10
144.5885
 20
19.6153
 30
0.0
 10
144.5885
 20
30.9725
 30
0.0
 10
144.5885
 20
30.9725
 30
0.0
 10
144.5885
 20
30.9725
 30
0.0
 10
144.5885
 20
30.9725
 30
0.0
 10
136.4245
 20
35.6868
 30
0.0
 10
136.4245
 20
35.6868
 30
0.0
 10
136.4245
 20
35.6868
 30
0.0
 10
136.4245
 20
35.6868
 30
0.0
 10
136.4653
 20
31.2403
 30
0.0
 10
136.4653
 20
31.2403
 30
0.0
 10
136.4653
 20
31.2403
 30
0.0
 10
136.4653
 20
31.2403
 30
0.0
 10
136.4389
 20
31.2488
 30
0.0
 10
136.4389
 20
31.2488
 30
0.0
  0
SPLINE
  5
71
330
1F
100
AcDbEntity
  8
layer 1
 62
     7
100
AcDbSpline
210
0.0
220
0.0
230
1.0
 70
    27
 71
     3
 72
    12
 73
     8
 74
     0
 42
0.0000000001
 43
0.0000000001
 12
1.0
 22
0.0
 32
0.0
 13
1.0
 23
0.0
 33
0.0
 40
0.0
 40
0.0
 40
0.0
 40
0.0
 40
0.3333333333333333
 40
0.3333333333333333
 40
0.3333333333333333
 40
0.3333333333333333
 40
1.0
 40
1.0
 40
1.0
 40
1.0
 10
136.4389
 20
31.2488
 30
0.0
 10
136.4389
 20
31.2488
 30
0.0
 10
136.4389
 20
31.2488
 30
0.0
 10
136.4389
 20
31.2488
 30
0.0
 10
136.4389
 20
31.2488
 30
0.0
 10
136.4389
 20
31.2488
 30
0.0
 10
136.4389
 20
31.2488
 30
0.0
 10
136.4389
 20
31.2488
 30
0.0
  0
SPLINE
  5
72
330
1F
100
AcDbEntity
  8
layer 1
 62
     7
100
AcDbSpline
210
0.0
220
0.0
230
1.0
 70
    11
 71
     3
 72
    36
 73
    32
 74
     0
 42
0.0000000001
 43
0.0000000001
 12
1.0
 22
0.0
 32
0.0
 13
1.0
 23
0.0
 33
0.0
 40
0.0
 40
0.0
 40
0.0
 40
0.0
 40
0.1111111111111111
 40
0.1111111111111111
 40
0.1111111111111111
 40
0.1111111111111111
 40
0.2222222222222222
 40
0.2222222222222222
 40
0.2222222222222222
 40
0.2222222222222222
 40
0.3333333333333333
 40
0.3333333333333333
 40
0.3333333333333333
 40
0.3333333333333333
 40
0.4444444444444444
 40
0.4444444444444444
 40
0.4444444444444444
 40
0.4444444444444444
 40
0.5555555555555556
 40
0.5555555555555556
 40
0.5555555555555556
 40
0.5555555555555556
 40
0.6666666666666666
 40
0.6666666666666666
 40
0.6666666666666666
 40
0.6666666666666666
 40
0.7777777777777778
 40
0.7777777777777778
 40
0.7777777777777778
 40
0.7777777777777778
 40
1.0
 40
1.0
 40
1.0
 40
1.0
 10
148.0983
 20
17.5787
 30
0.0
 10
148.0983
 20
17.5787
 30
0.0
 10
148.0983
 20
32.9951
 30
0.0
 10
148.0983
 20
32.9951
 30
0.0
 10
148.0983
 20
32.9951
 30
0.0
 10
148.0983
 20
32.9951
 30
0.0
 10
136.4321
 20
39.73
 30
0.0
 10
136.4321
 20
39.73
 30
0.0
 10
136.4321
 20
39.73
 30
0.0
 10
136.4321
 20
39.73
 30
0.0
 10
136.4345
 20
43.8588
 30
0.0
 10
136.4345
 20
43.8588
 30
0.0
 10
136.4345
 20
43.8588
 30
0.0
 10
136.4345
 20
43.8588
 30
0.0
 10
151.758
 20
35.0151
 30
0.0
 10
151.758
 20
35.0151
 30
0.0
 10
151.758
 20
35.0151
 30
0.0
 10
151.758
 20
35.0151
 30
0.0
 10
151.758
 20
15.3762
 30
0.0
 10
151.758
 20
15.3762
 30
0.0
 10
151.758
 20
15.3762
 30
0.0
 10
151.758
 20
15.3762
 30
0.0
 10
136.4363
 20
6.5323
 30
0.0
 10
136.4363
 20
6.5323
 30
0.0
 10
136.4363
 20
6.5323
 30
0.0
 10
136.4363
 20
6.5323
 30
0.0
 10
136.4302
 20
10.8512
 30
0.0
 10
136.4302
 20
10.8512
 30
0.0
 10
136.4302
 20
10.8512
 30
0.0
 10
136.4302
 20
10.8512
 30
0.0
 10
148.0983
 20
17.5787
 30
0.0
 10
148.0983
 20
17.5787
 30
0.0
  0
SPLINE
  5
73
330
1F
100
AcDbEntity
  8
layer 1
 62
     7
100
AcDbSpline
210
0.0
220
0.0
230
1.0
 70
    11
 71
     3
 72
    28
 73
    24
 74
     0
 42
0.0000000001
 43
0.0000000001
 12
1.0
 22
0.0
 32
0.0
 13
1.0
 23
0.0
 33
0.0
 40
0.0
 40
0.0
 40
0.0
 40
0.0
 40
0.1428571428571428
 40
0.1428571428571428
 40
0.1428571428571428
 40
0.1428571428571428
 40
0.2857142857142857
 40
0.2857142857142857
 40
0.2857142857142857
 40
0.2857142857142857
 40
0.4285714285714285
 40
0.4285714285714285
 40
0.4285714285714285
 40
0.4285714285714285
 40
0.5714285714285714
 40
0.5714285714285714
 40
0.5714285714285714
 40
0.5714285714285714
 40
0.7142857142857143
 40
0.7142857142857143
 40
0.7142857142857143
 40
0.7142857142857143
 40
1.0
 40
1.0
 40
1.0
 40
1.0
 10
174.4831
 20
23.7105
 30
0.0
 10
174.4831
 20
23.7105
 30
0.0
 10
171.7994
 20
22.1547
 30
0.0
 10
171.7994
 20
22.1547
 30
0.0
 10
171.7994
 20
22.1547
 30
0.0
 10
171.7994
 20
22.1547
 30
0.0
 10
169.1158
 20
23.7105
 30
0.0
 10
169.1158
 20
23.7105
 30
0.0
 10
169.1158
 20
23.7105
 30
0.0
 10
169.1158
 20
23.7105
 30
0.0
 10
169.1158
 20
26.8221
 30
0.0
 10
169.1158
 20
26.8221
 30
0.0
 10
169.1158
 20
26.8221
 30
0.0
 10
169.1158
 20
26.8221
 30
0.0
 10
171.7994
 20
28.378
 30
0.0
 10
171.7994
 20
28.378
 30
0.0
 10
171.7994
 20
28.378
 30
0.0
 10
171.7994
 20
28.378
 30
0.0
 10
174.4831
 20
26.8221
 30
0.0
 10
174.4831
 20
26.8221
 30
0.0
 10
174.4831
 20
26.8221
 30
0.0
 10
174.4831
 20
26.8221
 30
0.0
 10
174.4831
 20
23.7105
 30
0.0
 10
174.4831
 20
23.7105
 30
0.0
  0
SPLINE
  5
74
330
1F
100
AcDbEntity
  8
layer 1
 62
     7
100
AcDbSpline
210
0.0
220
0.0
230
1.0
 70
    11
 71
     3
 72
    36
 73
    32
 74
     0
 42
0.0000000001
 43
0.0000000001
 12
1.0
 22
0.0
 32
0.0
 13
1.0
 23
0.0
 33
0.0
 40
0.0
 40
0.0
 40
0.0
 40
0.0
 40
0.1111111111111111
 40
0.1111111111111111
 40
0.1111111111111111
 40
0.1111111111111111
 40
0.2222222222222222
 40
0.2222222222222222
 40
0.2222222222222222
 40
0.2222222222222222
 40
0.3333333333333333
 40
0.3333333333333333
 40
0.3333333333333333
 40
0.3333333333333333
 40
0.4444444444444444
 40
0.4444444444444444
 40
0.4444444444444444
 40
0.4444444444444444
 40
0.5555555555555556
 40
0.5555555555555556
 40
0.5555555555555556
 40
0.5555555555555556
 40
0.6666666666666666
 40
0.6666666666666666
 40
0.6666666666666666
 40
0.6666666666666666
 40
0.7777777777777778
 40
0.7777777777777778
 40
0.7777777777777778
 40
0.7777777777777778
 40
1.0
 40
1.0
 40
1.0
 40
1.0
 10
165.7812
 20
28.7446
 30
0.0
 10
165.7812
 20
28.7446
 30
0.0
 10
165.7812
 20
21.7896
 30
0.0
 10
165.7812
 20
21.7896
 30
0.0
 10
165.7812
 20
21.7896
 30
0.0
 10
165.7812
 20
21.7896
 30
0.0
 10
170.1164
 20
19.2962
 30
0.0
 10
170.1164
 20
19.2962
 30
0.0
 10
170.1164
 20
19.2962
 30
0.0
 10
170.1164
 20
19.2962
 30
0.0
 10
170.1263
 20
14.9029
 30
0.0
 10
170.1263
 20
14.9029
 30
0.0
 10
170.1263
 20
14.9029
 30
0.0
 10
170.1263
 20
14.9029
 30
0.0
 10
161.9655
 20
19.6153
 30
0.0
 10
161.9655
 20
19.6153
 30
0.0
 10
161.9655
 20
19.6153
 30
0.0
 10
161.9655
 20
19.6153
 30
0.0
 10
161.9655
 20
30.9726
 30
0.0
 10
161.9655
 20
30.9726
 30
0.0
 10
161.9655
 20
30.9726
 30
0.0
 10
161.9655
 20
30.9726
 30
0.0
 10
170.1295
 20
35.6868
 30
0.0
 10
170.1295
 20
35.6868
 30
0.0
 10
170.1295
 20
35.6868
 30
0.0
 10
170.1295
 20
35.6868
 30
0.0
 10
170.1019
 20
31.2447
 30
0.0
 10
170.1019
 20
31.2447
 30
0.0
 10
170.1019
 20
31.2447
 30
0.0
 10
170.1019
 20
31.2447
 30
0.0
 10
165.7812
 20
28.7446
 30
0.0
 10
165.7812
 20
28.7446
 30
0.0
  0
SPLINE
  5
75
330
1F
100
AcDbEntity
  8
layer 1
 62
     7
100
AcDbSpline
210
0.0
220
0.0
230
1.0
 70
    11
 71
     3
 72
    36
 73
    32
 74
     0
 42
0.0000000001
 43
0.0000000001
 12
1.0
 22
0.0
 32
0.0
 13
1.0
 23
0.0
 33
0.0
 40
0.0
 40
0.0
 40
0.0
 40
0.0
 40
0.1111111111111111
 40
0.1111111111111111
 40
0.1111111111111111
 40
0.1111111111111111
 40
0.2222222222222222
 40
0.2222222222222222
 40
0.2222222222222222
 40
0.2222222222222222
 40
0.3333333333333333
 40
0.3333333333333333
 40
0.3333333333333333
 40
0.3333333333333333
 40
0.4444444444444444
 40
0.4444444444444444
 40
0.4444444444444444
 40
0.4444444444444444
 40
0.5555555555555556
 40
0.5555555555555556
 40
0.5555555555555556
 40
0.5555555555555556
 40
0.6666666666666666
 40
0.6666666666666666
 40
0.6666666666666666
 40
0.6666666666666666
 40
0.7777777777777778
 40
0.7777777777777778
 40
0.7777777777777778
 40
0.7777777777777778
 40
1.0
 40
1.0
 40
1.0
 40
1.0
 10
158.4473
 20
17.5787
 30
0.0
 10
158.4473
 20
17.5787
 30
0.0
 10
158.4473
 20
32.9951
 30
0.0
 10
158.4473
 20
32.9951
 30
0.0
 10
158.4473
 20
32.9951
 30
0.0
 10
158.4473
 20
32.9951
 30
0.0
 10
170.1135
 20
39.73
 30
0.0
 10
170.1135
 20
39.73
 30
0.0
 10
170.1135
 20
39.73
 30
0.0
 10
170.1135
 20
39.73
 30
0.0
 10
170.1111
 20
43.8588
 30
0.0
 10
170.1111
 20
43.8588
 30
0.0
 10
170.1111
 20
43.8588
 30
0.0
 10
170.1111
 20
43.8588
 30
0.0
 10
154.7876
 20
35.0151
 30
0.0
 10
154.7876
 20
35.0151
 30
0.0
 10
154.7876
 20
35.0151
 30
0.0
 10
154.7876
 20
35.0151
 30
0.0
 10
154.7876
 20
15.3762
 30
0.0
 10
154.7876
 20
15.3762
 30
0.0
 10
154.7876
 20
15.3762
 30
0.0
 10
154.7876
 20
15.3762
 30
0.0
 10
170.1093
 20
6.5323
 30
0.0
 10
170.1093
 20
6.5323
 30
0.0
 10
170.1093
 20
6.5323
 30
0.0
 10
170.1093
 20
6.5323
 30
0.0
 10
170.1154
 20
10.8512
 30
0.0
 10
170.1154
 20
10.8512
 30
0.0
 10
170.1154
 20
10.8512
 30
0.0
 10
170.1154
 20
10.8512
 30
0.0
 10
158.4473
 20
17.5787
 30
0.0
 10
158.4473
 20
17.5787
 30
0.0
  0
SPLINE
  5
76
330
1F
100
AcDbEntity
  8
layer 1
 62
     7
100
AcDbSpline
210
0.0
220
0.0
230
1.0
 70
    11
 71
     3
 72
    40
 73
    36
 74
     0
 42
0.0000000001
 43
0.0000000001
 12
1.0
 22
0.0
 32
0.0
 13
1.0
 23
0.0
 33
0.0
 40
0.0
 40
0.0
 40
0.0
 40
0.0
 40
0.1
 40
0.1
 40
0.1
 40
0.1
 40
0.2
 40
0.2
 40
0.2
 40
0.2
 40
0.3
 40
0.3
 40
0.3
 40
0.3
 40
0.4
 40
0.4
 40
0.4
 40
0.4
 40
0.5
 40
0.5
 40
0.5
 40
0.5
 40
0.6
 40
0.6
 40
0.6
 40
0.6
 40
0.7
 40
0.7
 40
0.7
 40
0.7
 40
0.8
 40
0.8
 40
0.8
 40
0.8
 40
1.0
 40
1.0
 40
1.0
 40
1.0
 10
173.4985
 20
31.2488
 30
0.0
 10
173.4985
 20
31.2488
 30
0.0
 10
177.8324
 20
28.7445
 30
0.0
 10
177.8324
 20
28.7445
 30
0.0
 10
177.8324
 20
28.7445
 30
0.0
 10
177.8324
 20
28.7445
 30
0.0
 10
177.8324
 20
21.7895
 30
0.0
 10
177.8324
 20
21.7895
 30
0.0
 10
177.8324
 20
21.7895
 30
0.0
 10
177.8324
 20
21.7895
 30
0.0
 10
173.4972
 20
19.2961
 30
0.0
 10
173.4972
 20
19.2961
 30
0.0
 10
173.4972
 20
19.2961
 30
0.0
 10
173.4972
 20
19.2961
 30
0.0
 10
173.4873
 20
14.9028
 30
0.0
 10
173.4873
 20
14.9028
 30
0.0
 10
173.4873
 20
14.9028
 30
0.0
 10
173.4873
 20
14.9028
 30
0.0
 10
181.6481
 20
19.6153
 30
0.0
 10
181.6481
 20
19.6153
 30
0.0
 10
181.6481
 20
19.6153
 30
0.0
 10
181.6481
 20
19.6153
 30
0.0
 10
181.6481
 20
30.9725
 30
0.0
 10
181.6481
 20
30.9725
 30
0.0
 10
181.6481
 20
30.9725
 30
0.0
 10
181.6481
 20
30.9725
 30
0.0
 10
173.4841
 20
35.6868
 30
0.0
 10
173.4841
 20
35.6868
 30
0.0
 10
173.4841
 20
35.6868
 30
0.0
 10
173.4841
 20
35.6868
 30
0.0
 10
173.5249
 20
31.2403
 30
0.0
 10
173.5249
 20
31.2403
 30
0.0
 10
173.5249
 20
31.2403
 30
0.0
 10
173.5249
 20
31.2403
 30
0.0
 10
173.4985
 20
31.2488
 30
0.0
 10
173.4985
 20
31.2488
 30
0.0
  0
SPLINE
  5
77
330
1F
100
AcDbEntity
  8
layer 1
 62
     7
100
AcDbSpline
210
0.0
220
0.0
230
1.0
 70
    27
 71
     3
 72
    12
 73
     8
 74
     0
 42
0.0000000001
 43
0.0000000001
 12
1.0
 22
0.0
 32
0.0
 13
1.0
 23
0.0
 33
0.0
 40
0.0
 40
0.0
 40
0.0
 40
0.0
 40
0.3333333333333333
 40
0.3333333333333333
 40
0.3333333333333333
 40
0.3333333333333333
 40
1.0
 40
1.0
 40
1.0
 40
1.0
 10
173.4985
 20
31.2488
 30
0.0
 10
173.4985
 20
31.2488
 30
0.0
 10
173.4985
 20
31.2488
 30
0.0
 10
173.4985
 20
31.2488
 30
0.0
 10
173.4985
 20
31.2488
 30
0.0
 10
173.4985
 20
31.2488
 30
0.0
 10
173.4985
 20
31.2488
 30
0.0
 10
173.4985
 20
31.2488
 30
0.0
  0
SPLINE
  5
78
330
1F
100
AcDbEntity
  8
layer 1
 62
     7
100
AcDbSpline
210
0.0
220
0.0
230
1.0
 70
    11
 71
     3
 72
    36
 73
    32
 74
     0
 42
0.0000000001
 43
0.0000000001
 12
1.0
 22
0.0
 32
0.0
 13
1.0
 23
0.0
 33
0.0
 40
0.0
 40
0.0
 40
0.0
 40
0.0
 40
0.1111111111111111
 40
0.1111111111111111
 40
0.1111111111111111
 40
0.1111111111111111
 40
0.2222222222222222
 40
0.2222222222222222
 40
0.2222222222222222
 40
0.2222222222222222
 40
0.3333333333333333
 40
0.3333333333333333
 40
0.3333333333333333
 40
0.3333333333333333
 40
0.4444444444444444
 40
0.4444444444444444
 40
0.4444444444444444
 40
0.4444444444444444
 40
0.5555555555555556
 40
0.5555555555555556
 40
0.5555555555555556
 40
0.5555555555555556
 40
0.6666666666666666
 40
0.6666666666666666
 40
0.6666666666666666
 40
0.6666666666666666
 40
0.7777777777777778
 40
0.7777777777777778
 40
0.7777777777777778
 40
0.7777777777777778
 40
1.0
 40
1.0
 40
1.0
 40
1.0
 10
185.158
 20
17.5787
 30
0.0
 10
185.158
 20
17.5787
 30
0.0
 10
185.158
 20
32.9951
 30
0.0
 10
185.158
 20
32.9951
 30
0.0
 10
185.158
 20
32.9951
 30
0.0
 10
185.158
 20
32.9951
 30
0.0
 10
173.4917
 20
39.73
 30
0.0
 10
173.4917
 20
39.73
 30
0.0
 10
173.4917
 20
39.73
 30
0.0
 10
173.4917
 20
39.73
 30
0.0
 10
173.4942
 20
43.8588
 30
0.0
 10
173.4942
 20
43.8588
 30
0.0
 10
173.4942
 20
43.8588
 30
0.0
 10
173.4942
 20
43.8588
 30
0.0
 10
188.8177
 20
35.0151
 30
0.0
 10
188.8177
 20
35.0151
 30
0.0
 10
188.8177
 20
35.0151
 30
0.0
 10
188.8177
 20
35.0151
 30
0.0
 10
188.8177
 20
15.3762
 30
0.0
 10
188.8177
 20
15.3762
 30
0.0
 10
188.8177
 20
15.3762
 30
0.0
 10
188.8177
 20
15.3762
 30
0.0
 10
173.496
 20
6.5323
 30
0.0
 10
173.496
 20
6.5323
 30
0.0
 10
173.496
 20
6.5323
 30
0.0
 10
173.496
 20
6.5323
 30
0.0
 10
173.4899
 20
10.8512
 30
0.0
 10
173.4899
 20
10.8512
 30
0.0
 10
173.4899
 20
10.8512
 30
0.0
 10
173.4899
 20
10.8512
 30
0.0
 10
185.158
 20
17.5787
 30
0.0
 10
185.158
 20
17.5787
 30
0.0
  0
SPLINE
  5
79
330
1F
100
AcDbEntity
  8
layer 1
 62
     7
100
AcDbSpline
210
0.0
220
0.0
230
1.0
 70
    11
 71
     3
 72
    28
 73
    24
 74
     0
 42
0.0000000001
 43
0.0000000001
 12
1.0
 22
0.0
 32
0.0
 13
1.0
 23
0.0
 33
0.0
 40
0.0
 40
0.0
 40
0.0
 40
0.0
 40
0.1428571428571428
 40
0.1428571428571428
 40
0.1428571428571428
 40
0.1428571428571428
 40
0.2857142857142857
 40
0.2857142857142857
 40
0.2857142857142857
 40
0.2857142857142857
 40
0.4285714285714285
 40
0.4285714285714285
 40
0.4285714285714285
 40
0.4285714285714285
 40
0.5714285714285714
 40
0.5714285714285714
 40
0.5714285714285714
 40
0.5714285714285714
 40
0.7142857142857143
 40
0.7142857142857143
 40
0.7142857142857143
 40
0.7142857142857143
 40
1.0
 40
1.0
 40
1.0
 40
1.0
 10
118.7104
 20
-8.7608
 30
0.0
 10
118.7104
 20
-8.7608
 30
0.0
 10
116.0267
 20
-10.3166
 30
0.0
 10
116.0267
 20
-10.3166
 30
0.0
 10
116.0267
 20
-10.3166
 30
0.0
 10
116.0267
 20
-10.3166
 30
0.0
 10
113.343
 20
-8.7608
 30
0.0
 10
113.343
 20
-8.7608
 30
0.0
 10
113.343
 20
-8.7608
 30
0.0
 10
113.343
 20
-8.7608
 30
0.0
 10
113.343
 20
-5.6492
 30
0.0
 10
113.343
 20
-5.6492
 30
0.0
 10
113.343
 20
-5.6492
 30
0.0
 10
113.343
 20
-5.6492
 30
0.0
 10
116.0267
 20
-4.0933
 30
0.0
 10
116.0267
 20
-4.0933
 30
0.0
 10
116.0267
 20
-4.0933
 30
0.0
 10
116.0267
 20
-4.0933
 30
0.0
 10
118.7104
 20
-5.6492
 30
0.0
 10
118.7104
 20
-5.6492
 30
0.0
 10
118.7104
 20
-5.6492
 30
0.0
 10
118.7104
 20
-5.6492
 30
0.0
 10
118.7104
 20
-8.7608
 30
0.0
 10
118.7104
 20
-8.7608
 30
0.0
  0
SPLINE
  5
7A
330
1F
100
AcDbEntity
  8
layer 1
 62
     7
100
AcDbSpline
210
0.0
220
0.0
230
1.0
 70
    11
 71
     3
 72
    36
 73
    32
 74
     0
 42
0.0000000001
 43
0.0000000001
 12
1.0
 22
0.0
 32
0.0
 13
1.0
 23
0.0
 33
0.0
 40
0.0
 40
0.0
 40
0.0
 40
0.0
 40
0.1111111111111111
 40
0.1111111111111111
 40
0.1111111111111111
 40
0.1111111111111111
 40
0.2222222222222222
 40
0.2222222222222222
 40
0.2222222222222222
 40
0.2222222222222222
 40
0.3333333333333333
 40
0.3333333333333333
 40
0.3333333333333333
 40
0.3333333333333333
 40
0.4444444444444444
 40
0.4444444444444444
 40
0.4444444444444444
 40
0.4444444444444444
 40
0.5555555555555556
 40
0.5555555555555556
 40
0.5555555555555556
 40
0.5555555555555556
 40
0.6666666666666666
 40
0.6666666666666666
 40
0.6666666666666666
 40
0.6666666666666666
 40
0.7777777777777778
 40
0.7777777777777778
 40
0.7777777777777778
 40
0.7777777777777778
 40
1.0
 40
1.0
 40
1.0
 40
1.0
 10
110.0085
 20
-3.7268
 30
0.0
 10
110.0085
 20
-3.7268
 30
0.0
 10
110.0085
 20
-10.6818
 30
0.0
 10
110.0085
 20
-10.6818
 30
0.0
 10
110.0085
 20
-10.6818
 30
0.0
 10
110.0085
 20
-10.6818
 30
0.0
 10
114.3436
 20
-13.1752
 30
0.0
 10
114.3436
 20
-13.1752
 30
0.0
 10
114.3436
 20
-13.1752
 30
0.0
 10
114.3436
 20
-13.1752
 30
0.0
 10
114.3535
 20
-17.5685
 30
0.0
 10
114.3535
 20
-17.5685
 30
0.0
 10
114.3535
 20
-17.5685
 30
0.0
 10
114.3535
 20
-17.5685
 30
0.0
 10
106.1927
 20
-12.8561
 30
0.0
 10
106.1927
 20
-12.8561
 30
0.0
 10
106.1927
 20
-12.8561
 30
0.0
 10
106.1927
 20
-12.8561
 30
0.0
 10
106.1927
 20
-1.4988
 30
0.0
 10
106.1927
 20
-1.4988
 30
0.0
 10
106.1927
 20
-1.4988
 30
0.0
 10
106.1927
 20
-1.4988
 30
0.0
 10
114.3568
 20
3.2154
 30
0.0
 10
114.3568
 20
3.2154
 30
0.0
 10
114.3568
 20
3.2154
 30
0.0
 10
114.3568
 20
3.2154
 30
0.0
 10
114.3292
 20
-1.2267
 30
0.0
 10
114.3292
 20
-1.2267
 30
0.0
 10
114.3292
 20
-1.2267
 30
0.0
 10
114.3292
 20
-1.2267
 30
0.0
 10
110.0085
 20
-3.7268
 30
0.0
 10
110.0085
 20
-3.7268
 30
0.0
  0
SPLINE
  5
7B
330
1F
100
AcDbEntity
  8
layer 1
 62
     7
100
AcDbSpline
210
0.0
220
0.0
230
1.0
 70
    11
 71
     3
 72
    36
 73
    32
 74
     0
 42
0.0000000001
 43
0.0000000001
 12
1.0
 22
0.0
 32
0.0
 13
1.0
 23
0.0
 33
0.0
 40
0.0
 40
0.0
 40
0.0
 40
0.0
 40
0.1111111111111111
 40
0.1111111111111111
 40
0.1111111111111111
 40
0.1111111111111111
 40
0.2222222222222222
 40
0.2222222222222222
 40
0.2222222222222222
 40
0.2222222222222222
 40
0.3333333333333333
 40
0.3333333333333333
 40
0.3333333333333333
 40
0.3333333333333333
 40
0.4444444444444444
 40
0.4444444444444444
 40
0.4444444444444444
 40
0.4444444444444444
 40
0.5555555555555556
 40
0.5555555555555556
 40
0.5555555555555556
 40
0.5555555555555556
 40
0.6666666666666666
 40
0.6666666666666666
 40
0.6666666666666666
 40
0.6666666666666666
 40
0.7777777777777778
 40
0.7777777777777778
 40
0.7777777777777778
 40
0.7777777777777778
 40
1.0
 40
1.0
 40
1.0
 40
1.0
 10
102.6746
 20
-14.8926
 30
0.0
 10
102.6746
 20
-14.8926
 30
0.0
 10
102.6746
 20
0.5238
 30
0.0
 10
102.6746
 20
0.5238
 30
0.0
 10
102.6746
 20
0.5238
 30
0.0
 10
102.6746
 20
0.5238
 30
0.0
 10
114.3408
 20
7.2587
 30
0.0
 10
114.3408
 20
7.2587
 30
0.0
 10
114.3408
 20
7.2587
 30
0.0
 10
114.3408
 20
7.2587
 30
0.0
 10
114.3383
 20
11.3875
 30
0.0
 10
114.3383
 20
11.3875
 30
0.0
 10
114.3383
 20
11.3875
 30
0.0
 10
114.3383
 20
11.3875
 30
0.0
 10
99.0149
 20
2.5438
 30
0.0
 10
99.0149
 20
2.5438
 30
0.0
 10
99.0149
 20
2.5438
 30
0.0
 10
99.0149
 20
2.5438
 30
0.0
 10
99.0149
 20
-17.0951
 30
0.0
 10
99.0149
 20
-17.0951
 30
0.0
 10
99.0149
 20
-17.0951
 30
0.0
 10
99.0149
 20
-17.0951
 30
0.0
 10
114.3365
 20
-25.939
 30
0.0
 10
114.3365
 20
-25.939
 30
0.0
 10
114.3365
 20
-25.939
 30
0.0
 10
114.3365
 20
-25.939
 30
0.0
 10
114.3427
 20
-21.6201
 30
0.0
 10
114.3427
 20
-21.6201
 30
0.0
 10
114.3427
 20
-21.6201
 30
0.0
 10
114.3427
 20
-21.6201
 30
0.0
 10
102.6746
 20
-14.8926
 30
0.0
 10
102.6746
 20
-14.8926
 30
0.0
  0
SPLINE
  5
7C
330
1F
100
AcDbEntity
  8
layer 1
 62
     7
100
AcDbSpline
210
0.0
220
0.0
230
1.0
 70
    11
 71
     3
 72
    40
 73
    36
 74
     0
 42
0.0000000001
 43
0.0000000001
 12
1.0
 22
0.0
 32
0.0
 13
1.0
 23
0.0
 33
0.0
 40
0.0
 40
0.0
 40
0.0
 40
0.0
 40
0.1
 40
0.1
 40
0.1
 40
0.1
 40
0.2
 40
0.2
 40
0.2
 40
0.2
 40
0.3
 40
0.3
 40
0.3
 40
0.3
 40
0.4
 40
0.4
 40
0.4
 40
0.4
 40
0.5
 40
0.5
 40
0.5
 40
0.5
 40
0.6
 40
0.6
 40
0.6
 40
0.6
 40
0.7
 40
0.7
 40
0.7
 40
0.7
 40
0.8
 40
0.8
 40
0.8
 40
0.8
 40
1.0
 40
1.0
 40
1.0
 40
1.0
 10
117.7258
 20
-1.2225
 30
0.0
 10
117.7258
 20
-1.2225
 30
0.0
 10
122.0597
 20
-3.7268
 30
0.0
 10
122.0597
 20
-3.7268
 30
0.0
 10
122.0597
 20
-3.7268
 30
0.0
 10
122.0597
 20
-3.7268
 30
0.0
 10
122.0597
 20
-10.6818
 30
0.0
 10
122.0597
 20
-10.6818
 30
0.0
 10
122.0597
 20
-10.6818
 30
0.0
 10
122.0597
 20
-10.6818
 30
0.0
 10
117.7245
 20
-13.1752
 30
0.0
 10
117.7245
 20
-13.1752
 30
0.0
 10
117.7245
 20
-13.1752
 30
0.0
 10
117.7245
 20
-13.1752
 30
0.0
 10
117.7146
 20
-17.5685
 30
0.0
 10
117.7146
 20
-17.5685
 30
0.0
 10
117.7146
 20
-17.5685
 30
0.0
 10
117.7146
 20
-17.5685
 30
0.0
 10
125.8754
 20
-12.8561
 30
0.0
 10
125.8754
 20
-12.8561
 30
0.0
 10
125.8754
 20
-12.8561
 30
0.0
 10
125.8754
 20
-12.8561
 30
0.0
 10
125.8754
 20
-1.4988
 30
0.0
 10
125.8754
 20
-1.4988
 30
0.0
 10
125.8754
 20
-1.4988
 30
0.0
 10
125.8754
 20
-1.4988
 30
0.0
 10
117.7114
 20
3.2154
 30
0.0
 10
117.7114
 20
3.2154
 30
0.0
 10
117.7114
 20
3.2154
 30
0.0
 10
117.7114
 20
3.2154
 30
0.0
 10
117.7522
 20
-1.231
 30
0.0
 10
117.7522
 20
-1.231
 30
0.0
 10
117.7522
 20
-1.231
 30
0.0
 10
117.7522
 20
-1.231
 30
0.0
 10
117.7258
 20
-1.2225
 30
0.0
 10
117.7258
 20
-1.2225
 30
0.0
  0
SPLINE
  5
7D
330
1F
100
AcDbEntity
  8
layer 1
 62
     7
100
AcDbSpline
210
0.0
220
0.0
230
1.0
 70
    27
 71
     3
 72
    12
 73
     8
 74
     0
 42
0.0000000001
 43
0.0000000001
 12
1.0
 22
0.0
 32
0.0
 13
1.0
 23
0.0
 33
0.0
 40
0.0
 40
0.0
 40
0.0
 40
0.0
 40
0.3333333333333333
 40
0.3333333333333333
 40
0.3333333333333333
 40
0.3333333333333333
 40
1.0
 40
1.0
 40
1.0
 40
1.0
 10
117.7258
 20
-1.2225
 30
0.0
 10
117.7258
 20
-1.2225
 30
0.0
 10
117.7258
 20
-1.2225
 30
0.0
 10
117.7258
 20
-1.2225
 30
0.0
 10
117.7258
 20
-1.2225
 30
0.0
 10
117.7258
 20
-1.2225
 30
0.0
 10
117.7258
 20
-1.2225
 30
0.0
 10
117.7258
 20
-1.2225
 30
0.0
  0
SPLINE
  5
7E
330
1F
100
AcDbEntity
  8
layer 1
 62
     7
100
AcDbSpline
210
0.0
220
0.0
230
1.0
 70
    11
 71
     3
 72
    36
 73
    32
 74
     0
 42
0.0000000001
 43
0.0000000001
 12
1.0
 22
0.0
 32
0.0
 13
1.0
 23
0.0
 33
0.0
 40
0.0
 40
0.0
 40
0.0
 40
0.0
 40
0.1111111111111111
 40
0.1111111111111111
 40
0.1111111111111111
 40
0.1111111111111111
 40
0.2222222222222222
 40
0.2222222222222222
 40
0.2222222222222222
 40
0.2222222222222222
 40
0.3333333333333333
 40
0.3333333333333333
 40
0.3333333333333333
 40
0.3333333333333333
 40
0.4444444444444444
 40
0.4444444444444444
 40
0.4444444444444444
 40
0.4444444444444444
 40
0.5555555555555556
 40
0.5555555555555556
 40
0.5555555555555556
 40
0.5555555555555556
 40
0.6666666666666666
 40
0.6666666666666666
 40
0.6666666666666666
 40
0.6666666666666666
 40
0.7777777777777778
 40
0.7777777777777778
 40
0.7777777777777778
 40
0.7777777777777778
 40
1.0
 40
1.0
 40
1.0
 40
1.0
 10
129.3853
 20
-14.8926
 30
0.0
 10
129.3853
 20
-14.8926
 30
0.0
 10
129.3853
 20
0.5238
 30
0.0
 10
129.3853
 20
0.5238
 30
0.0
 10
129.3853
 20
0.5238
 30
0.0
 10
129.3853
 20
0.5238
 30
0.0
 10
117.719
 20
7.2587
 30
0.0
 10
117.719
 20
7.2587
 30
0.0
 10
117.719
 20
7.2587
 30
0.0
 10
117.719
 20
7.2587
 30
0.0
 10
117.7215
 20
11.3875
 30
0.0
 10
117.7215
 20
11.3875
 30
0.0
 10
117.7215
 20
11.3875
 30
0.0
 10
117.7215
 20
11.3875
 30
0.0
 10
133.0449
 20
2.5438
 30
0.0
 10
133.0449
 20
2.5438
 30
0.0
 10
133.0449
 20
2.5438
 30
0.0
 10
133.0449
 20
2.5438
 30
0.0
 10
133.0449
 20
-17.0951
 30
0.0
 10
133.0449
 20
-17.0951
 30
0.0
 10
133.0449
 20
-17.0951
 30
0.0
 10
133.0449
 20
-17.0951
 30
0.0
 10
117.7233
 20
-25.939
 30
0.0
 10
117.7233
 20
-25.939
 30
0.0
 10
117.7233
 20
-25.939
 30
0.0
 10
117.7233
 20
-25.939
 30
0.0
 10
117.7171
 20
-21.6201
 30
0.0
 10
117.7171
 20
-21.6201
 30
0.0
 10
117.7171
 20
-21.6201
 30
0.0
 10
117.7171
 20
-21.6201
 30
0.0
 10
129.3853
 20
-14.8926
 30
0.0
 10
129.3853
 20
-14.8926
 30
0.0
  0
SPLINE
  5
7F
330
1F
100
AcDbEntity
  8
layer 1
 62
     7
100
AcDbSpline
210
0.0
220
0.0
230
1.0
 70
    11
 71
     3
 72
    28
 73
    24
 74
     0
 42
0.0000000001
 43
0.0000000001
 12
1.0
 22
0.0
 32
0.0
 13
1.0
 23
0.0
 33
0.0
 40
0.0
 40
0.0
 40
0.0
 40
0.0
 40
0.1428571428571428
 40
0.1428571428571428
 40
0.1428571428571428
 40
0.1428571428571428
 40
0.2857142857142857
 40
0.2857142857142857
 40
0.2857142857142857
 40
0.2857142857142857
 40
0.4285714285714285
 40
0.4285714285714285
 40
0.4285714285714285
 40
0.4285714285714285
 40
0.5714285714285714
 40
0.5714285714285714
 40
0.5714285714285714
 40
0.5714285714285714
 40
0.7142857142857143
 40
0.7142857142857143
 40
0.7142857142857143
 40
0.7142857142857143
 40
1.0
 40
1.0
 40
1.0
 40
1.0
 10
156.1229
 20
-8.7608
 30
0.0
 10
156.1229
 20
-8.7608
 30
0.0
 10
153.4393
 20
-10.3166
 30
0.0
 10
153.4393
 20
-10.3166
 30
0.0
 10
153.4393
 20
-10.3166
 30
0.0
 10
153.4393
 20
-10.3166
 30
0.0
 10
150.7556
 20
-8.7608
 30
0.0
 10
150.7556
 20
-8.7608
 30
0.0
 10
150.7556
 20
-8.7608
 30
0.0
 10
150.7556
 20
-8.7608
 30
0.0
 10
150.7556
 20
-5.6492
 30
0.0
 10
150.7556
 20
-5.6492
 30
0.0
 10
150.7556
 20
-5.6492
 30
0.0
 10
150.7556
 20
-5.6492
 30
0.0
 10
153.4393
 20
-4.0933
 30
0.0
 10
153.4393
 20
-4.0933
 30
0.0
 10
153.4393
 20
-4.0933
 30
0.0
 10
153.4393
 20
-4.0933
 30
0.0
 10
156.1229
 20
-5.6492
 30
0.0
 10
156.1229
 20
-5.6492
 30
0.0
 10
156.1229
 20
-5.6492
 30
0.0
 10
156.1229
 20
-5.6492
 30
0.0
 10
156.1229
 20
-8.7608
 30
0.0
 10
156.1229
 20
-8.7608
 30
0.0
  0
SPLINE
  5
80
330
1F
100
AcDbEntity
  8
layer 1
 62
     7
100
AcDbSpline
210
0.0
220
0.0
230
1.0
 70
    11
 71
     3
 72
    36
 73
    32
 74
     0
 42
0.0000000001
 43
0.0000000001
 12
1.0
 22
0.0
 32
0.0
 13
1.0
 23
0.0
 33
0.0
 40
0.0
 40
0.0
 40
0.0
 40
0.0
 40
0.1111111111111111
 40
0.1111111111111111
 40
0.1111111111111111
 40
0.1111111111111111
 40
0.2222222222222222
 40
0.2222222222222222
 40
0.2222222222222222
 40
0.2222222222222222
 40
0.3333333333333333
 40
0.3333333333333333
 40
0.3333333333333333
 40
0.3333333333333333
 40
0.4444444444444444
 40
0.4444444444444444
 40
0.4444444444444444
 40
0.4444444444444444
 40
0.5555555555555556
 40
0.5555555555555556
 40
0.5555555555555556
 40
0.5555555555555556
 40
0.6666666666666666
 40
0.6666666666666666
 40
0.6666666666666666
 40
0.6666666666666666
 40
0.7777777777777778
 40
0.7777777777777778
 40
0.7777777777777778
 40
0.7777777777777778
 40
1.0
 40
1.0
 40
1.0
 40
1.0
 10
147.4211
 20
-3.7268
 30
0.0
 10
147.4211
 20
-3.7268
 30
0.0
 10
147.4211
 20
-10.6818
 30
0.0
 10
147.4211
 20
-10.6818
 30
0.0
 10
147.4211
 20
-10.6818
 30
0.0
 10
147.4211
 20
-10.6818
 30
0.0
 10
151.7563
 20
-13.1752
 30
0.0
 10
151.7563
 20
-13.1752
 30
0.0
 10
151.7563
 20
-13.1752
 30
0.0
 10
151.7563
 20
-13.1752
 30
0.0
 10
151.7662
 20
-17.5685
 30
0.0
 10
151.7662
 20
-17.5685
 30
0.0
 10
151.7662
 20
-17.5685
 30
0.0
 10
151.7662
 20
-17.5685
 30
0.0
 10
143.6054
 20
-12.8561
 30
0.0
 10
143.6054
 20
-12.8561
 30
0.0
 10
143.6054
 20
-12.8561
 30
0.0
 10
143.6054
 20
-12.8561
 30
0.0
 10
143.6054
 20
-1.4988
 30
0.0
 10
143.6054
 20
-1.4988
 30
0.0
 10
143.6054
 20
-1.4988
 30
0.0
 10
143.6054
 20
-1.4988
 30
0.0
 10
151.7694
 20
3.2154
 30
0.0
 10
151.7694
 20
3.2154
 30
0.0
 10
151.7694
 20
3.2154
 30
0.0
 10
151.7694
 20
3.2154
 30
0.0
 10
151.7418
 20
-1.2267
 30
0.0
 10
151.7418
 20
-1.2267
 30
0.0
 10
151.7418
 20
-1.2267
 30
0.0
 10
151.7418
 20
-1.2267
 30
0.0
 10
147.4211
 20
-3.7268
 30
0.0
 10
147.4211
 20
-3.7268
 30
0.0
  0
SPLINE
  5
81
330
1F
100
AcDbEntity
  8
layer 1
 62
     7
100
AcDbSpline
210
0.0
220
0.0
230
1.0
 70
    11
 71
     3
 72
    36
 73
    32
 74
     0
 42
0.0000000001
 43
0.0000000001
 12
1.0
 22
0.0
 32
0.0
 13
1.0
 23
0.0
 33
0.0
 40
0.0
 40
0.0
 40
0.0
 40
0.0
 40
0.1111111111111111
 40
0.1111111111111111
 40
0.1111111111111111
 40
0.1111111111111111
 40
0.2222222222222222
 40
0.2222222222222222
 40
0.2222222222222222
 40
0.2222222222222222
 40
0.3333333333333333
 40
0.3333333333333333
 40
0.3333333333333333
 40
0.3333333333333333
 40
0.4444444444444444
 40
0.4444444444444444
 40
0.4444444444444444
 40
0.4444444444444444
 40
0.5555555555555556
 40
0.5555555555555556
 40
0.5555555555555556
 40
0.5555555555555556
 40
0.6666666666666666
 40
0.6666666666666666
 40
0.6666666666666666
 40
0.6666666666666666
 40
0.7777777777777778
 40
0.7777777777777778
 40
0.7777777777777778
 40
0.7777777777777778
 40
1.0
 40
1.0
 40
1.0
 40
1.0
 10
140.0872
 20
-14.8926
 30
0.0
 10
140.0872
 20
-14.8926
 30
0.0
 10
140.0872
 20
0.5238
 30
0.0
 10
140.0872
 20
0.5238
 30
0.0
 10
140.0872
 20
0.5238
 30
0.0
 10
140.0872
 20
0.5238
 30
0.0
 10
151.7534
 20
7.2587
 30
0.0
 10
151.7534
 20
7.2587
 30
0.0
 10
151.7534
 20
7.2587
 30
0.0
 10
151.7534
 20
7.2587
 30
0.0
 10
151.751
 20
11.3875
 30
0.0
 10
151.751
 20
11.3875
 30
0.0
 10
151.751
 20
11.3875
 30
0.0
 10
151.751
 20
11.3875
 30
0.0
 10
136.4275
 20
2.5438
 30
0.0
 10
136.4275
 20
2.5438
 30
0.0
 10
136.4275
 20
2.5438
 30
0.0
 10
136.4275
 20
2.5438
 30
0.0
 10
136.4275
 20
-17.0951
 30
0.0
 10
136.4275
 20
-17.0951
 30
0.0
 10
136.4275
 20
-17.0951
 30
0.0
 10
136.4275
 20
-17.0951
 30
0.0
 10
151.7492
 20
-25.939
 30
0.0
 10
151.7492
 20
-25.939
 30
0.0
 10
151.7492
 20
-25.939
 30
0.0
 10
151.7492
 20
-25.939
 30
0.0
 10
151.7553
 20
-21.6201
 30
0.0
 10
151.7553
 20
-21.6201
 30
0.0
 10
151.7553
 20
-21.6201
 30
0.0
 10
151.7553
 20
-21.6201
 30
0.0
 10
140.0872
 20
-14.8926
 30
0.0
 10
140.0872
 20
-14.8926
 30
0.0
  0
SPLINE
  5
82
330
1F
100
AcDbEntity
  8
layer 1
 62
     7
100
AcDbSpline
210
0.0
220
0.0
230
1.0
 70
    11
 71
     3
 72
    40
 73
    36
 74
     0
 42
0.0000000001
 43
0.0000000001
 12
1.0
 22
0.0
 32
0.0
 13
1.0
 23
0.0
 33
0.0
 40
0.0
 40
0.0
 40
0.0
 40
0.0
 40
0.1
 40
0.1
 40
0.1
 40
0.1
 40
0.2
 40
0.2
 40
0.2
 40
0.2
 40
0.3
 40
0.3
 40
0.3
 40
0.3
 40
0.4
 40
0.4
 40
0.4
 40
0.4
 40
0.5
 40
0.5
 40
0.5
 40
0.5
 40
0.6
 40
0.6
 40
0.6
 40
0.6
 40
0.7
 40
0.7
 40
0.7
 40
0.7
 40
0.8
 40
0.8
 40
0.8
 40
0.8
 40
1.0
 40
1.0
 40
1.0
 40
1.0
 10
155.1385
 20
-1.2225
 30
0.0
 10
155.1385
 20
-1.2225
 30
0.0
 10
159.4723
 20
-3.7268
 30
0.0
 10
159.4723
 20
-3.7268
 30
0.0
 10
159.4723
 20
-3.7268
 30
0.0
 10
159.4723
 20
-3.7268
 30
0.0
 10
159.4723
 20
-10.6818
 30
0.0
 10
159.4723
 20
-10.6818
 30
0.0
 10
159.4723
 20
-10.6818
 30
0.0
 10
159.4723
 20
-10.6818
 30
0.0
 10
155.1371
 20
-13.1752
 30
0.0
 10
155.1371
 20
-13.1752
 30
0.0
 10
155.1371
 20
-13.1752
 30
0.0
 10
155.1371
 20
-13.1752
 30
0.0
 10
155.1272
 20
-17.5685
 30
0.0
 10
155.1272
 20
-17.5685
 30
0.0
 10
155.1272
 20
-17.5685
 30
0.0
 10
155.1272
 20
-17.5685
 30
0.0
 10
163.288
 20
-12.8561
 30
0.0
 10
163.288
 20
-12.8561
 30
0.0
 10
163.288
 20
-12.8561
 30
0.0
 10
163.288
 20
-12.8561
 30
0.0
 10
163.288
 20
-1.4988
 30
0.0
 10
163.288
 20
-1.4988
 30
0.0
 10
163.288
 20
-1.4988
 30
0.0
 10
163.288
 20
-1.4988
 30
0.0
 10
155.124
 20
3.2154
 30
0.0
 10
155.124
 20
3.2154
 30
0.0
 10
155.124
 20
3.2154
 30
0.0
 10
155.124
 20
3.2154
 30
0.0
 10
155.1648
 20
-1.231
 30
0.0
 10
155.1648
 20
-1.231
 30
0.0
 10
155.1648
 20
-1.231
 30
0.0
 10
155.1648
 20
-1.231
 30
0.0
 10
155.1385
 20
-1.2225
 30
0.0
 10
155.1385
 20
-1.2225
 30
0.0
  0
SPLINE
  5
83
330
1F
100
AcDbEntity
  8
layer 1
 62
     7
100
AcDbSpline
210
0.0
220
0.0
230
1.0
 70
    27
 71
     3
 72
    12
 73
     8
 74
     0
 42
0.0000000001
 43
0.0000000001
 12
1.0
 22
0.0
 32
0.0
 13
1.0
 23
0.0
 33
0.0
 40
0.0
 40
0.0
 40
0.0
 40
0.0
 40
0.3333333333333333
 40
0.3333333333333333
 40
0.3333333333333333
 40
0.3333333333333333
 40
1.0
 40
1.0
 40
1.0
 40
1.0
 10
155.1385
 20
-1.2225
 30
0.0
 10
155.1385
 20
-1.2225
 30
0.0
 10
155.1385
 20
-1.2225
 30
0.0
 10
155.1385
 20
-1.2225
 30
0.0
 10
155.1385
 20
-1.2225
 30
0.0
 10
155.1385
 20
-1.2225
 30
0.0
 10
155.1385
 20
-1.2225
 30
0.0
 10
155.1385
 20
-1.2225
 30
0.0
  0
SPLINE
  5
84
330
1F
100
AcDbEntity
  8
layer 1
 62
     7
100
AcDbSpline
210
0.0
220
0.0
230
1.0
 70
    11
 71
     3
 72
    36
 73
    32
 74
     0
 42
0.0000000001
 43
0.0000000001
 12
1.0
 22
0.0
 32
0.0
 13
1.0
 23
0.0
 33
0.0
 40
0.0
 40
0.0
 40
0.0
 40
0.0
 40
0.1111111111111111
 40
0.1111111111111111
 40
0.1111111111111111
 40
0.1111111111111111
 40
0.2222222222222222
 40
0.2222222222222222
 40
0.2222222222222222
 40
0.2222222222222222
 40
0.3333333333333333
 40
0.3333333333333333
 40
0.3333333333333333
 40
0.3333333333333333
 40
0.4444444444444444
 40
0.4444444444444444
 40
0.4444444444444444
 40
0.4444444444444444
 40
0.5555555555555556
 40
0.5555555555555556
 40
0.5555555555555556
 40
0.5555555555555556
 40
0.6666666666666666
 40
0.6666666666666666
 40
0.6666666666666666
 40
0.6666666666666666
 40
0.7777777777777778
 40
0.7777777777777778
 40
0.7777777777777778
 40
0.7777777777777778
 40
1.0
 40
1.0
 40
1.0
 40
1.0
 10
166.7979
 20
-14.8926
 30
0.0
 10
166.7979
 20
-14.8926
 30
0.0
 10
166.7979
 20
0.5238
 30
0.0
 10
166.7979
 20
0.5238
 30
0.0
 10
166.7979
 20
0.5238
 30
0.0
 10
166.7979
 20
0.5238
 30
0.0
 10
155.1317
 20
7.2587
 30
0.0
 10
155.1317
 20
7.2587
 30
0.0
 10
155.1317
 20
7.2587
 30
0.0
 10
155.1317
 20
7.2587
 30
0.0
 10
155.1341
 20
11.3875
 30
0.0
 10
155.1341
 20
11.3875
 30
0.0
 10
155.1341
 20
11.3875
 30
0.0
 10
155.1341
 20
11.3875
 30
0.0
 10
170.4576
 20
2.5438
 30
0.0
 10
170.4576
 20
2.5438
 30
0.0
 10
170.4576
 20
2.5438
 30
0.0
 10
170.4576
 20
2.5438
 30
0.0
 10
170.4576
 20
-17.0951
 30
0.0
 10
170.4576
 20
-17.0951
 30
0.0
 10
170.4576
 20
-17.0951
 30
0.0
 10
170.4576
 20
-17.0951
 30
0.0
 10
155.1359
 20
-25.939
 30
0.0
 10
155.1359
 20
-25.939
 30
0.0
 10
155.1359
 20
-25.939
 30
0.0
 10
155.1359
 20
-25.939
 30
0.0
 10
155.1298
 20
-21.6201
 30
0.0
 10
155.1298
 20
-21.6201
 30
0.0
 10
155.1298
 20
-21.6201
 30
0.0
 10
155.1298
 20
-21.6201
 30
0.0
 10
166.7979
 20
-14.8926
 30
0.0
 10
166.7979
 20
-14.8926
 30
0.0
  0
SPLINE
  5
85
330
1F
100
AcDbEntity
  8
layer 1
 62
     7
100
AcDbSpline
210
0.0
220
0.0
230
1.0
 70
    11
 71
     3
 72
    20
 73
    16
 74
     0
 42
0.0000000001
 43
0.0000000001
 12
1.0
 22
0.0
 32
0.0
 13
1.0
 23
0.0
 33
0.0
 40
0.0
 40
0.0
 40
0.0
 40
0.0
 40
0.2
 40
0.2
 40
0.2
 40
0.2
 40
0.4
 40
0.4
 40
0.4
 40
0.4
 40
0.6
 40
0.6
 40
0.6
 40
0.6
 40
1.0
 40
1.0
 40
1.0
 40
1.0
 10
188.8739
 20
-9.3746
 30
0.0
 10
188.8739
 20
-9.3746
 30
0.0
 10
187.8152
 20
-8.7609
 30
0.0
 10
187.8152
 20
-8.7609
 30
0.0
 10
187.8152
 20
-8.7609
 30
0.0
 10
187.8152
 20
-8.7609
 30
0.0
 10
187.8152
 20
-5.6493
 30
0.0
 10
187.8152
 20
-5.6493
 30
0.0
 10
187.8152
 20
-5.6493
 30
0.0
 10
187.8152
 20
-5.6493
 30
0.0
 10
188.8763
 20
-5.0341
 30
0.0
 10
188.8763
 20
-5.0341
 30
0.0
 10
188.8763
 20
-5.0341
 30
0.0
 10
188.8763
 20
-5.0341
 30
0.0
 10
188.8739
 20
-9.3746
 30
0.0
 10
188.8739
 20
-9.3746
 30
0.0
  0
SPLINE
  5
86
330
1F
100
AcDbEntity
  8
layer 1
 62
     7
100
AcDbSpline
210
0.0
220
0.0
230
1.0
 70
    11
 71
     3
 72
    36
 73
    32
 74
     0
 42
0.0000000001
 43
0.0000000001
 12
1.0
 22
0.0
 32
0.0
 13
1.0
 23
0.0
 33
0.0
 40
0.0
 40
0.0
 40
0.0
 40
0.0
 40
0.1111111111111111
 40
0.1111111111111111
 40
0.1111111111111111
 40
0.1111111111111111
 40
0.2222222222222222
 40
0.2222222222222222
 40
0.2222222222222222
 40
0.2222222222222222
 40
0.3333333333333333
 40
0.3333333333333333
 40
0.3333333333333333
 40
0.3333333333333333
 40
0.4444444444444444
 40
0.4444444444444444
 40
0.4444444444444444
 40
0.4444444444444444
 40
0.5555555555555556
 40
0.5555555555555556
 40
0.5555555555555556
 40
0.5555555555555556
 40
0.6666666666666666
 40
0.6666666666666666
 40
0.6666666666666666
 40
0.6666666666666666
 40
0.7777777777777778
 40
0.7777777777777778
 40
0.7777777777777778
 40
0.7777777777777778
 40
1.0
 40
1.0
 40
1.0
 40
1.0
 10
184.4807
 20
-3.7268
 30
0.0
 10
184.4807
 20
-3.7268
 30
0.0
 10
184.4807
 20
-10.6818
 30
0.0
 10
184.4807
 20
-10.6818
 30
0.0
 10
184.4807
 20
-10.6818
 30
0.0
 10
184.4807
 20
-10.6818
 30
0.0
 10
188.8159
 20
-13.1752
 30
0.0
 10
188.8159
 20
-13.1752
 30
0.0
 10
188.8159
 20
-13.1752
 30
0.0
 10
188.8159
 20
-13.1752
 30
0.0
 10
188.8258
 20
-17.5685
 30
0.0
 10
188.8258
 20
-17.5685
 30
0.0
 10
188.8258
 20
-17.5685
 30
0.0
 10
188.8258
 20
-17.5685
 30
0.0
 10
180.665
 20
-12.8561
 30
0.0
 10
180.665
 20
-12.8561
 30
0.0
 10
180.665
 20
-12.8561
 30
0.0
 10
180.665
 20
-12.8561
 30
0.0
 10
180.665
 20
-1.4988
 30
0.0
 10
180.665
 20
-1.4988
 30
0.0
 10
180.665
 20
-1.4988
 30
0.0
 10
180.665
 20
-1.4988
 30
0.0
 10
188.829
 20
3.2154
 30
0.0
 10
188.829
 20
3.2154
 30
0.0
 10
188.829
 20
3.2154
 30
0.0
 10
188.829
 20
3.2154
 30
0.0
 10
188.8014
 20
-1.2267
 30
0.0
 10
188.8014
 20
-1.2267
 30
0.0
 10
188.8014
 20
-1.2267
 30
0.0
 10
188.8014
 20
-1.2267
 30
0.0
 10
184.4807
 20
-3.7268
 30
0.0
 10
184.4807
 20
-3.7268
 30
0.0
  0
SPLINE
  5
87
330
1F
100
AcDbEntity
  8
layer 1
 62
     7
100
AcDbSpline
210
0.0
220
0.0
230
1.0
 70
    11
 71
     3
 72
    36
 73
    32
 74
     0
 42
0.0000000001
 43
0.0000000001
 12
1.0
 22
0.0
 32
0.0
 13
1.0
 23
0.0
 33
0.0
 40
0.0
 40
0.0
 40
0.0
 40
0.0
 40
0.1111111111111111
 40
0.1111111111111111
 40
0.1111111111111111
 40
0.1111111111111111
 40
0.2222222222222222
 40
0.2222222222222222
 40
0.2222222222222222
 40
0.2222222222222222
 40
0.3333333333333333
 40
0.3333333333333333
 40
0.3333333333333333
 40
0.3333333333333333
 40
0.4444444444444444
 40
0.4444444444444444
 40
0.4444444444444444
 40
0.4444444444444444
 40
0.5555555555555556
 40
0.5555555555555556
 40
0.5555555555555556
 40
0.5555555555555556
 40
0.6666666666666666
 40
0.6666666666666666
 40
0.6666666666666666
 40
0.6666666666666666
 40
0.7777777777777778
 40
0.7777777777777778
 40
0.7777777777777778
 40
0.7777777777777778
 40
1.0
 40
1.0
 40
1.0
 40
1.0
 10
177.1468
 20
-14.8926
 30
0.0
 10
177.1468
 20
-14.8926
 30
0.0
 10
177.1468
 20
0.5238
 30
0.0
 10
177.1468
 20
0.5238
 30
0.0
 10
177.1468
 20
0.5238
 30
0.0
 10
177.1468
 20
0.5238
 30
0.0
 10
188.813
 20
7.2587
 30
0.0
 10
188.813
 20
7.2587
 30
0.0
 10
188.813
 20
7.2587
 30
0.0
 10
188.813
 20
7.2587
 30
0.0
 10
188.8106
 20
11.3875
 30
0.0
 10
188.8106
 20
11.3875
 30
0.0
 10
188.8106
 20
11.3875
 30
0.0
 10
188.8106
 20
11.3875
 30
0.0
 10
173.4871
 20
2.5438
 30
0.0
 10
173.4871
 20
2.5438
 30
0.0
 10
173.4871
 20
2.5438
 30
0.0
 10
173.4871
 20
2.5438
 30
0.0
 10
173.4871
 20
-17.0951
 30
0.0
 10
173.4871
 20
-17.0951
 30
0.0
 10
173.4871
 20
-17.0951
 30
0.0
 10
173.4871
 20
-17.0951
 30
0.0
 10
188.8088
 20
-25.939
 30
0.0
 10
188.8088
 20
-25.939
 30
0.0
 10
188.8088
 20
-25.939
 30
0.0
 10
188.8088
 20
-25.939
 30
0.0
 10
188.8149
 20
-21.6201
 30
0.0
 10
188.8149
 20
-21.6201
 30
0.0
 10
188.8149
 20
-21.6201
 30
0.0
 10
188.8149
 20
-21.6201
 30
0.0
 10
177.1468
 20
-14.8926
 30
0.0
 10
177.1468
 20
-14.8926
 30
0.0
  0
SPLINE
  5
88
330
1F
100
AcDbEntity
  8
layer 1
 62
     7
100
AcDbSpline
210
0.0
220
0.0
230
1.0
 70
    11
 71
     3
 72
    36
 73
    32
 74
     0
 42
0.0000000001
 43
0.0000000001
 12
1.0
 22
0.0
 32
0.0
 13
1.0
 23
0.0
 33
0.0
 40
0.0
 40
0.0
 40
0.0
 40
0.0
 40
0.1111111111111111
 40
0.1111111111111111
 40
0.1111111111111111
 40
0.1111111111111111
 40
0.2222222222222222
 40
0.2222222222222222
 40
0.2222222222222222
 40
0.2222222222222222
 40
0.3333333333333333
 40
0.3333333333333333
 40
0.3333333333333333
 40
0.3333333333333333
 40
0.4444444444444444
 40
0.4444444444444444
 40
0.4444444444444444
 40
0.4444444444444444
 40
0.5555555555555556
 40
0.5555555555555556
 40
0.5555555555555556
 40
0.5555555555555556
 40
0.6666666666666666
 40
0.6666666666666666
 40
0.6666666666666666
 40
0.6666666666666666
 40
0.7777777777777778
 40
0.7777777777777778
 40
0.7777777777777778
 40
0.7777777777777778
 40
1.0
 40
1.0
 40
1.0
 40
1.0
 10
91.9738
 20
-14.6247
 30
0.0
 10
91.9738
 20
-14.6247
 30
0.0
 10
91.9738
 20
0.7917
 30
0.0
 10
91.9738
 20
0.7917
 30
0.0
 10
91.9738
 20
0.7917
 30
0.0
 10
91.9738
 20
0.7917
 30
0.0
 10
80.3076
 20
7.5266
 30
0.0
 10
80.3076
 20
7.5266
 30
0.0
 10
80.3076
 20
7.5266
 30
0.0
 10
80.3076
 20
7.5266
 30
0.0
 10
80.3101
 20
11.6554
 30
0.0
 10
80.3101
 20
11.6554
 30
0.0
 10
80.3101
 20
11.6554
 30
0.0
 10
80.3101
 20
11.6554
 30
0.0
 10
95.6335
 20
2.8118
 30
0.0
 10
95.6335
 20
2.8118
 30
0.0
 10
95.6335
 20
2.8118
 30
0.0
 10
95.6335
 20
2.8118
 30
0.0
 10
95.6335
 20
-16.8271
 30
0.0
 10
95.6335
 20
-16.8271
 30
0.0
 10
95.6335
 20
-16.8271
 30
0.0
 10
95.6335
 20
-16.8271
 30
0.0
 10
80.3119
 20
-25.6711
 30
0.0
 10
80.3119
 20
-25.6711
 30
0.0
 10
80.3119
 20
-25.6711
 30
0.0
 10
80.3119
 20
-25.6711
 30
0.0
 10
80.3057
 20
-21.3521
 30
0.0
 10
80.3057
 20
-21.3521
 30
0.0
 10
80.3057
 20
-21.3521
 30
0.0
 10
80.3057
 20
-21.3521
 30
0.0
 10
91.9738
 20
-14.6247
 30
0.0
 10
91.9738
 20
-14.6247
 30
0.0
  0
SPLINE
  5
89
330
1F
100
AcDbEntity
  8
layer 1
 62
     7
100
AcDbSpline
210
0.0
220
0.0
230
1.0
 70
    11
 71
     3
 72
    20
 73
    16
 74
     0
 42
0.0000000001
 43
0.0000000001
 12
1.0
 22
0.0
 32
0.0
 13
1.0
 23
0.0
 33
0.0
 40
0.0
 40
0.0
 40
0.0
 40
0.0
 40
0.2
 40
0.2
 40
0.2
 40
0.2
 40
0.4
 40
0.4
 40
0.4
 40
0.4
 40
0.6
 40
0.6
 40
0.6
 40
0.6
 40
1.0
 40
1.0
 40
1.0
 40
1.0
 10
81.2988
 20
-8.4929
 30
0.0
 10
81.2988
 20
-8.4929
 30
0.0
 10
80.2942
 20
-9.0691
 30
0.0
 10
80.2942
 20
-9.0691
 30
0.0
 10
80.2942
 20
-9.0691
 30
0.0
 10
80.2942
 20
-9.0691
 30
0.0
 10
80.2942
 20
-4.7974
 30
0.0
 10
80.2942
 20
-4.7974
 30
0.0
 10
80.2942
 20
-4.7974
 30
0.0
 10
80.2942
 20
-4.7974
 30
0.0
 10
81.2988
 20
-5.3812
 30
0.0
 10
81.2988
 20
-5.3812
 30
0.0
 10
81.2988
 20
-5.3812
 30
0.0
 10
81.2988
 20
-5.3812
 30
0.0
 10
81.2988
 20
-8.4929
 30
0.0
 10
81.2988
 20
-8.4929
 30
0.0
  0
SPLINE
  5
8A
330
1F
100
AcDbEntity
  8
layer 1
 62
     7
100
AcDbSpline
210
0.0
220
0.0
230
1.0
 70
    11
 71
     3
 72
    40
 73
    36
 74
     0
 42
0.0000000001
 43
0.0000000001
 12
1.0
 22
0.0
 32
0.0
 13
1.0
 23
0.0
 33
0.0
 40
0.0
 40
0.0
 40
0.0
 40
0.0
 40
0.1
 40
0.1
 40
0.1
 40
0.1
 40
0.2
 40
0.2
 40
0.2
 40
0.2
 40
0.3
 40
0.3
 40
0.3
 40
0.3
 40
0.4
 40
0.4
 40
0.4
 40
0.4
 40
0.5
 40
0.5
 40
0.5
 40
0.5
 40
0.6
 40
0.6
 40
0.6
 40
0.6
 40
0.7
 40
0.7
 40
0.7
 40
0.7
 40
0.8
 40
0.8
 40
0.8
 40
0.8
 40
1.0
 40
1.0
 40
1.0
 40
1.0
 10
80.3144
 20
-0.9546
 30
0.0
 10
80.3144
 20
-0.9546
 30
0.0
 10
84.6483
 20
-3.4589
 30
0.0
 10
84.6483
 20
-3.4589
 30
0.0
 10
84.6483
 20
-3.4589
 30
0.0
 10
84.6483
 20
-3.4589
 30
0.0
 10
84.6483
 20
-10.4139
 30
0.0
 10
84.6483
 20
-10.4139
 30
0.0
 10
84.6483
 20
-10.4139
 30
0.0
 10
84.6483
 20
-10.4139
 30
0.0
 10
80.3131
 20
-12.9073
 30
0.0
 10
80.3131
 20
-12.9073
 30
0.0
 10
80.3131
 20
-12.9073
 30
0.0
 10
80.3131
 20
-12.9073
 30
0.0
 10
80.3032
 20
-17.3007
 30
0.0
 10
80.3032
 20
-17.3007
 30
0.0
 10
80.3032
 20
-17.3007
 30
0.0
 10
80.3032
 20
-17.3007
 30
0.0
 10
88.464
 20
-12.5882
 30
0.0
 10
88.464
 20
-12.5882
 30
0.0
 10
88.464
 20
-12.5882
 30
0.0
 10
88.464
 20
-12.5882
 30
0.0
 10
88.464
 20
-1.231
 30
0.0
 10
88.464
 20
-1.231
 30
0.0
 10
88.464
 20
-1.231
 30
0.0
 10
88.464
 20
-1.231
 30
0.0
 10
80.3
 20
3.4833
 30
0.0
 10
80.3
 20
3.4833
 30
0.0
 10
80.3
 20
3.4833
 30
0.0
 10
80.3
 20
3.4833
 30
0.0
 10
80.3408
 20
-0.9631
 30
0.0
 10
80.3408
 20
-0.9631
 30
0.0
 10
80.3408
 20
-0.9631
 30
0.0
 10
80.3408
 20
-0.9631
 30
0.0
 10
80.3144
 20
-0.9546
 30
0.0
 10
80.3144
 20
-0.9546
 30
0.0
  0
SPLINE
  5
8B
330
1F
100
AcDbEntity
  8
layer 1
 62
     7
100
AcDbSpline
210
0.0
220
0.0
230
1.0
 70
    27
 71
     3
 72
    12
 73
     8
 74
     0
 42
0.0000000001
 43
0.0000000001
 12
1.0
 22
0.0
 32
0.0
 13
1.0
 23
0.0
 33
0.0
 40
0.0
 40
0.0
 40
0.0
 40
0.0
 40
0.3333333333333333
 40
0.3333333333333333
 40
0.3333333333333333
 40
0.3333333333333333
 40
1.0
 40
1.0
 40
1.0
 40
1.0
 10
80.3144
 20
-0.9546
 30
0.0
 10
80.3144
 20
-0.9546
 30
0.0
 10
80.3144
 20
-0.9546
 30
0.0
 10
80.3144
 20
-0.9546
 30
0.0
 10
80.3144
 20
-0.9546
 30
0.0
 10
80.3144
 20
-0.9546
 30
0.0
 10
80.3144
 20
-0.9546
 30
0.0
 10
80.3144
 20
-0.9546
 30
0.0
  0
SPLINE
  5
8C
330
1F
100
AcDbEntity
  8
layer 1
 62
     7
100
AcDbSpline
210
0.0
220
0.0
230
1.0
 70
    11
 71
     3
 72
    28
 73
    24
 74
     0
 42
0.0000000001
 43
0.0000000001
 12
1.0
 22
0.0
 32
0.0
 13
1.0
 23
0.0
 33
0.0
 40
0.0
 40
0.0
 40
0.0
 40
0.0
 40
0.1428571428571428
 40
0.1428571428571428
 40
0.1428571428571428
 40
0.1428571428571428
 40
0.2857142857142857
 40
0.2857142857142857
 40
0.2857142857142857
 40
0.2857142857142857
 40
0.4285714285714285
 40
0.4285714285714285
 40
0.4285714285714285
 40
0.4285714285714285
 40
0.5714285714285714
 40
0.5714285714285714
 40
0.5714285714285714
 40
0.5714285714285714
 40
0.7142857142857143
 40
0.7142857142857143
 40
0.7142857142857143
 40
0.7142857142857143
 40
1.0
 40
1.0
 40
1.0
 40
1.0
 10
100.0107
 20
-41.2755
 30
0.0
 10
100.0107
 20
-41.2755
 30
0.0
 10
97.3271
 20
-42.8314
 30
0.0
 10
97.3271
 20
-42.8314
 30
0.0
 10
97.3271
 20
-42.8314
 30
0.0
 10
97.3271
 20
-42.8314
 30
0.0
 10
94.6434
 20
-41.2755
 30
0.0
 10
94.6434
 20
-41.2755
 30
0.0
 10
94.6434
 20
-41.2755
 30
0.0
 10
94.6434
 20
-41.2755
 30
0.0
 10
94.6434
 20
-38.1639
 30
0.0
 10
94.6434
 20
-38.1639
 30
0.0
 10
94.6434
 20
-38.1639
 30
0.0
 10
94.6434
 20
-38.1639
 30
0.0
 10
97.3271
 20
-36.6081
 30
0.0
 10
97.3271
 20
-36.6081
 30
0.0
 10
97.3271
 20
-36.6081
 30
0.0
 10
97.3271
 20
-36.6081
 30
0.0
 10
100.0107
 20
-38.1639
 30
0.0
 10
100.0107
 20
-38.1639
 30
0.0
 10
100.0107
 20
-38.1639
 30
0.0
 10
100.0107
 20
-38.1639
 30
0.0
 10
100.0107
 20
-41.2755
 30
0.0
 10
100.0107
 20
-41.2755
 30
0.0
  0
SPLINE
  5
8D
330
1F
100
AcDbEntity
  8
layer 1
 62
     7
100
AcDbSpline
210
0.0
220
0.0
230
1.0
 70
    11
 71
     3
 72
    36
 73
    32
 74
     0
 42
0.0000000001
 43
0.0000000001
 12
1.0
 22
0.0
 32
0.0
 13
1.0
 23
0.0
 33
0.0
 40
0.0
 40
0.0
 40
0.0
 40
0.0
 40
0.1111111111111111
 40
0.1111111111111111
 40
0.1111111111111111
 40
0.1111111111111111
 40
0.2222222222222222
 40
0.2222222222222222
 40
0.2222222222222222
 40
0.2222222222222222
 40
0.3333333333333333
 40
0.3333333333333333
 40
0.3333333333333333
 40
0.3333333333333333
 40
0.4444444444444444
 40
0.4444444444444444
 40
0.4444444444444444
 40
0.4444444444444444
 40
0.5555555555555556
 40
0.5555555555555556
 40
0.5555555555555556
 40
0.5555555555555556
 40
0.6666666666666666
 40
0.6666666666666666
 40
0.6666666666666666
 40
0.6666666666666666
 40
0.7777777777777778
 40
0.7777777777777778
 40
0.7777777777777778
 40
0.7777777777777778
 40
1.0
 40
1.0
 40
1.0
 40
1.0
 10
91.3089
 20
-36.2415
 30
0.0
 10
91.3089
 20
-36.2415
 30
0.0
 10
91.3089
 20
-43.1965
 30
0.0
 10
91.3089
 20
-43.1965
 30
0.0
 10
91.3089
 20
-43.1965
 30
0.0
 10
91.3089
 20
-43.1965
 30
0.0
 10
95.6441
 20
-45.6899
 30
0.0
 10
95.6441
 20
-45.6899
 30
0.0
 10
95.6441
 20
-45.6899
 30
0.0
 10
95.6441
 20
-45.6899
 30
0.0
 10
95.654
 20
-50.0833
 30
0.0
 10
95.654
 20
-50.0833
 30
0.0
 10
95.654
 20
-50.0833
 30
0.0
 10
95.654
 20
-50.0833
 30
0.0
 10
87.4932
 20
-45.3708
 30
0.0
 10
87.4932
 20
-45.3708
 30
0.0
 10
87.4932
 20
-45.3708
 30
0.0
 10
87.4932
 20
-45.3708
 30
0.0
 10
87.4932
 20
-34.0136
 30
0.0
 10
87.4932
 20
-34.0136
 30
0.0
 10
87.4932
 20
-34.0136
 30
0.0
 10
87.4932
 20
-34.0136
 30
0.0
 10
95.6572
 20
-29.2993
 30
0.0
 10
95.6572
 20
-29.2993
 30
0.0
 10
95.6572
 20
-29.2993
 30
0.0
 10
95.6572
 20
-29.2993
 30
0.0
 10
95.6297
 20
-33.7415
 30
0.0
 10
95.6297
 20
-33.7415
 30
0.0
 10
95.6297
 20
-33.7415
 30
0.0
 10
95.6297
 20
-33.7415
 30
0.0
 10
91.3089
 20
-36.2415
 30
0.0
 10
91.3089
 20
-36.2415
 30
0.0
  0
SPLINE
  5
8E
330
1F
100
AcDbEntity
  8
layer 1
 62
     7
100
AcDbSpline
210
0.0
220
0.0
230
1.0
 70
    11
 71
     3
 72
    36
 73
    32
 74
     0
 42
0.0000000001
 43
0.0000000001
 12
1.0
 22
0.0
 32
0.0
 13
1.0
 23
0.0
 33
0.0
 40
0.0
 40
0.0
 40
0.0
 40
0.0
 40
0.1111111111111111
 40
0.1111111111111111
 40
0.1111111111111111
 40
0.1111111111111111
 40
0.2222222222222222
 40
0.2222222222222222
 40
0.2222222222222222
 40
0.2222222222222222
 40
0.3333333333333333
 40
0.3333333333333333
 40
0.3333333333333333
 40
0.3333333333333333
 40
0.4444444444444444
 40
0.4444444444444444
 40
0.4444444444444444
 40
0.4444444444444444
 40
0.5555555555555556
 40
0.5555555555555556
 40
0.5555555555555556
 40
0.5555555555555556
 40
0.6666666666666666
 40
0.6666666666666666
 40
0.6666666666666666
 40
0.6666666666666666
 40
0.7777777777777778
 40
0.7777777777777778
 40
0.7777777777777778
 40
0.7777777777777778
 40
1.0
 40
1.0
 40
1.0
 40
1.0
 10
83.975
 20
-47.4074
 30
0.0
 10
83.975
 20
-47.4074
 30
0.0
 10
83.975
 20
-31.991
 30
0.0
 10
83.975
 20
-31.991
 30
0.0
 10
83.975
 20
-31.991
 30
0.0
 10
83.975
 20
-31.991
 30
0.0
 10
95.6413
 20
-25.2561
 30
0.0
 10
95.6413
 20
-25.2561
 30
0.0
 10
95.6413
 20
-25.2561
 30
0.0
 10
95.6413
 20
-25.2561
 30
0.0
 10
95.6388
 20
-21.1273
 30
0.0
 10
95.6388
 20
-21.1273
 30
0.0
 10
95.6388
 20
-21.1273
 30
0.0
 10
95.6388
 20
-21.1273
 30
0.0
 10
80.3153
 20
-29.9709
 30
0.0
 10
80.3153
 20
-29.9709
 30
0.0
 10
80.3153
 20
-29.9709
 30
0.0
 10
80.3153
 20
-29.9709
 30
0.0
 10
80.3153
 20
-49.6098
 30
0.0
 10
80.3153
 20
-49.6098
 30
0.0
 10
80.3153
 20
-49.6098
 30
0.0
 10
80.3153
 20
-49.6098
 30
0.0
 10
95.637
 20
-58.4538
 30
0.0
 10
95.637
 20
-58.4538
 30
0.0
 10
95.637
 20
-58.4538
 30
0.0
 10
95.637
 20
-58.4538
 30
0.0
 10
95.6432
 20
-54.1348
 30
0.0
 10
95.6432
 20
-54.1348
 30
0.0
 10
95.6432
 20
-54.1348
 30
0.0
 10
95.6432
 20
-54.1348
 30
0.0
 10
83.975
 20
-47.4074
 30
0.0
 10
83.975
 20
-47.4074
 30
0.0
  0
SPLINE
  5
8F
330
1F
100
AcDbEntity
  8
layer 1
 62
     7
100
AcDbSpline
210
0.0
220
0.0
230
1.0
 70
    11
 71
     3
 72
    40
 73
    36
 74
     0
 42
0.0000000001
 43
0.0000000001
 12
1.0
 22
0.0
 32
0.0
 13
1.0
 23
0.0
 33
0.0
 40
0.0
 40
0.0
 40
0.0
 40
0.0
 40
0.1
 40
0.1
 40
0.1
 40
0.1
 40
0.2
 40
0.2
 40
0.2
 40
0.2
 40
0.3
 40
0.3
 40
0.3
 40
0.3
 40
0.4
 40
0.4
 40
0.4
 40
0.4
 40
0.5
 40
0.5
 40
0.5
 40
0.5
 40
0.6
 40
0.6
 40
0.6
 40
0.6
 40
0.7
 40
0.7
 40
0.7
 40
0.7
 40
0.8
 40
0.8
 40
0.8
 40
0.8
 40
1.0
 40
1.0
 40
1.0
 40
1.0
 10
99.0263
 20
-33.7372
 30
0.0
 10
99.0263
 20
-33.7372
 30
0.0
 10
103.3602
 20
-36.2415
 30
0.0
 10
103.3602
 20
-36.2415
 30
0.0
 10
103.3602
 20
-36.2415
 30
0.0
 10
103.3602
 20
-36.2415
 30
0.0
 10
103.3602
 20
-43.1965
 30
0.0
 10
103.3602
 20
-43.1965
 30
0.0
 10
103.3602
 20
-43.1965
 30
0.0
 10
103.3602
 20
-43.1965
 30
0.0
 10
99.025
 20
-45.6899
 30
0.0
 10
99.025
 20
-45.6899
 30
0.0
 10
99.025
 20
-45.6899
 30
0.0
 10
99.025
 20
-45.6899
 30
0.0
 10
99.0151
 20
-50.0833
 30
0.0
 10
99.0151
 20
-50.0833
 30
0.0
 10
99.0151
 20
-50.0833
 30
0.0
 10
99.0151
 20
-50.0833
 30
0.0
 10
107.1759
 20
-45.3708
 30
0.0
 10
107.1759
 20
-45.3708
 30
0.0
 10
107.1759
 20
-45.3708
 30
0.0
 10
107.1759
 20
-45.3708
 30
0.0
 10
107.1759
 20
-34.0136
 30
0.0
 10
107.1759
 20
-34.0136
 30
0.0
 10
107.1759
 20
-34.0136
 30
0.0
 10
107.1759
 20
-34.0136
 30
0.0
 10
99.0118
 20
-29.2993
 30
0.0
 10
99.0118
 20
-29.2993
 30
0.0
 10
99.0118
 20
-29.2993
 30
0.0
 10
99.0118
 20
-29.2993
 30
0.0
 10
99.0526
 20
-33.7457
 30
0.0
 10
99.0526
 20
-33.7457
 30
0.0
 10
99.0526
 20
-33.7457
 30
0.0
 10
99.0526
 20
-33.7457
 30
0.0
 10
99.0263
 20
-33.7372
 30
0.0
 10
99.0263
 20
-33.7372
 30
0.0
  0
SPLINE
  5
90
330
1F
100
AcDbEntity
  8
layer 1
 62
     7
100
AcDbSpline
210
0.0
220
0.0
230
1.0
 70
    27
 71
     3
 72
    12
 73
     8
 74
     0
 42
0.0000000001
 43
0.0000000001
 12
1.0
 22
0.0
 32
0.0
 13
1.0
 23
0.0
 33
0.0
 40
0.0
 40
0.0
 40
0.0
 40
0.0
 40
0.3333333333333333
 40
0.3333333333333333
 40
0.3333333333333333
 40
0.3333333333333333
 40
1.0
 40
1.0
 40
1.0
 40
1.0
 10
99.0263
 20
-33.7372
 30
0.0
 10
99.0263
 20
-33.7372
 30
0.0
 10
99.0263
 20
-33.7372
 30
0.0
 10
99.0263
 20
-33.7372
 30
0.0
 10
99.0263
 20
-33.7372
 30
0.0
 10
99.0263
 20
-33.7372
 30
0.0
 10
99.0263
 20
-33.7372
 30
0.0
 10
99.0263
 20
-33.7372
 30
0.0
  0
SPLINE
  5
91
330
1F
100
AcDbEntity
  8
layer 1
 62
     7
100
AcDbSpline
210
0.0
220
0.0
230
1.0
 70
    11
 71
     3
 72
    36
 73
    32
 74
     0
 42
0.0000000001
 43
0.0000000001
 12
1.0
 22
0.0
 32
0.0
 13
1.0
 23
0.0
 33
0.0
 40
0.0
 40
0.0
 40
0.0
 40
0.0
 40
0.1111111111111111
 40
0.1111111111111111
 40
0.1111111111111111
 40
0.1111111111111111
 40
0.2222222222222222
 40
0.2222222222222222
 40
0.2222222222222222
 40
0.2222222222222222
 40
0.3333333333333333
 40
0.3333333333333333
 40
0.3333333333333333
 40
0.3333333333333333
 40
0.4444444444444444
 40
0.4444444444444444
 40
0.4444444444444444
 40
0.4444444444444444
 40
0.5555555555555556
 40
0.5555555555555556
 40
0.5555555555555556
 40
0.5555555555555556
 40
0.6666666666666666
 40
0.6666666666666666
 40
0.6666666666666666
 40
0.6666666666666666
 40
0.7777777777777778
 40
0.7777777777777778
 40
0.7777777777777778
 40
0.7777777777777778
 40
1.0
 40
1.0
 40
1.0
 40
1.0
 10
110.6857
 20
-47.4074
 30
0.0
 10
110.6857
 20
-47.4074
 30
0.0
 10
110.6857
 20
-31.991
 30
0.0
 10
110.6857
 20
-31.991
 30
0.0
 10
110.6857
 20
-31.991
 30
0.0
 10
110.6857
 20
-31.991
 30
0.0
 10
99.0195
 20
-25.2561
 30
0.0
 10
99.0195
 20
-25.2561
 30
0.0
 10
99.0195
 20
-25.2561
 30
0.0
 10
99.0195
 20
-25.2561
 30
0.0
 10
99.022
 20
-21.1273
 30
0.0
 10
99.022
 20
-21.1273
 30
0.0
 10
99.022
 20
-21.1273
 30
0.0
 10
99.022
 20
-21.1273
 30
0.0
 10
114.3454
 20
-29.9709
 30
0.0
 10
114.3454
 20
-29.9709
 30
0.0
 10
114.3454
 20
-29.9709
 30
0.0
 10
114.3454
 20
-29.9709
 30
0.0
 10
114.3454
 20
-49.6098
 30
0.0
 10
114.3454
 20
-49.6098
 30
0.0
 10
114.3454
 20
-49.6098
 30
0.0
 10
114.3454
 20
-49.6098
 30
0.0
 10
99.0237
 20
-58.4538
 30
0.0
 10
99.0237
 20
-58.4538
 30
0.0
 10
99.0237
 20
-58.4538
 30
0.0
 10
99.0237
 20
-58.4538
 30
0.0
 10
99.0176
 20
-54.1348
 30
0.0
 10
99.0176
 20
-54.1348
 30
0.0
 10
99.0176
 20
-54.1348
 30
0.0
 10
99.0176
 20
-54.1348
 30
0.0
 10
110.6857
 20
-47.4074
 30
0.0
 10
110.6857
 20
-47.4074
 30
0.0
  0
SPLINE
  5
92
330
1F
100
AcDbEntity
  8
layer 1
 62
     7
100
AcDbSpline
210
0.0
220
0.0
230
1.0
 70
    11
 71
     3
 72
    28
 73
    24
 74
     0
 42
0.0000000001
 43
0.0000000001
 12
1.0
 22
0.0
 32
0.0
 13
1.0
 23
0.0
 33
0.0
 40
0.0
 40
0.0
 40
0.0
 40
0.0
 40
0.1428571428571428
 40
0.1428571428571428
 40
0.1428571428571428
 40
0.1428571428571428
 40
0.2857142857142857
 40
0.2857142857142857
 40
0.2857142857142857
 40
0.2857142857142857
 40
0.4285714285714285
 40
0.4285714285714285
 40
0.4285714285714285
 40
0.4285714285714285
 40
0.5714285714285714
 40
0.5714285714285714
 40
0.5714285714285714
 40
0.5714285714285714
 40
0.7142857142857143
 40
0.7142857142857143
 40
0.7142857142857143
 40
0.7142857142857143
 40
1.0
 40
1.0
 40
1.0
 40
1.0
 10
137.4234
 20
-41.2755
 30
0.0
 10
137.4234
 20
-41.2755
 30
0.0
 10
134.7397
 20
-42.8314
 30
0.0
 10
134.7397
 20
-42.8314
 30
0.0
 10
134.7397
 20
-42.8314
 30
0.0
 10
134.7397
 20
-42.8314
 30
0.0
 10
132.0561
 20
-41.2755
 30
0.0
 10
132.0561
 20
-41.2755
 30
0.0
 10
132.0561
 20
-41.2755
 30
0.0
 10
132.0561
 20
-41.2755
 30
0.0
 10
132.0561
 20
-38.1639
 30
0.0
 10
132.0561
 20
-38.1639
 30
0.0
 10
132.0561
 20
-38.1639
 30
0.0
 10
132.0561
 20
-38.1639
 30
0.0
 10
134.7397
 20
-36.6081
 30
0.0
 10
134.7397
 20
-36.6081
 30
0.0
 10
134.7397
 20
-36.6081
 30
0.0
 10
134.7397
 20
-36.6081
 30
0.0
 10
137.4234
 20
-38.1639
 30
0.0
 10
137.4234
 20
-38.1639
 30
0.0
 10
137.4234
 20
-38.1639
 30
0.0
 10
137.4234
 20
-38.1639
 30
0.0
 10
137.4234
 20
-41.2755
 30
0.0
 10
137.4234
 20
-41.2755
 30
0.0
  0
SPLINE
  5
93
330
1F
100
AcDbEntity
  8
layer 1
 62
     7
100
AcDbSpline
210
0.0
220
0.0
230
1.0
 70
    11
 71
     3
 72
    36
 73
    32
 74
     0
 42
0.0000000001
 43
0.0000000001
 12
1.0
 22
0.0
 32
0.0
 13
1.0
 23
0.0
 33
0.0
 40
0.0
 40
0.0
 40
0.0
 40
0.0
 40
0.1111111111111111
 40
0.1111111111111111
 40
0.1111111111111111
 40
0.1111111111111111
 40
0.2222222222222222
 40
0.2222222222222222
 40
0.2222222222222222
 40
0.2222222222222222
 40
0.3333333333333333
 40
0.3333333333333333
 40
0.3333333333333333
 40
0.3333333333333333
 40
0.4444444444444444
 40
0.4444444444444444
 40
0.4444444444444444
 40
0.4444444444444444
 40
0.5555555555555556
 40
0.5555555555555556
 40
0.5555555555555556
 40
0.5555555555555556
 40
0.6666666666666666
 40
0.6666666666666666
 40
0.6666666666666666
 40
0.6666666666666666
 40
0.7777777777777778
 40
0.7777777777777778
 40
0.7777777777777778
 40
0.7777777777777778
 40
1.0
 40
1.0
 40
1.0
 40
1.0
 10
128.7215
 20
-36.2415
 30
0.0
 10
128.7215
 20
-36.2415
 30
0.0
 10
128.7215
 20
-43.1965
 30
0.0
 10
128.7215
 20
-43.1965
 30
0.0
 10
128.7215
 20
-43.1965
 30
0.0
 10
128.7215
 20
-43.1965
 30
0.0
 10
133.0567
 20
-45.6899
 30
0.0
 10
133.0567
 20
-45.6899
 30
0.0
 10
133.0567
 20
-45.6899
 30
0.0
 10
133.0567
 20
-45.6899
 30
0.0
 10
133.0666
 20
-50.0833
 30
0.0
 10
133.0666
 20
-50.0833
 30
0.0
 10
133.0666
 20
-50.0833
 30
0.0
 10
133.0666
 20
-50.0833
 30
0.0
 10
124.9058
 20
-45.3708
 30
0.0
 10
124.9058
 20
-45.3708
 30
0.0
 10
124.9058
 20
-45.3708
 30
0.0
 10
124.9058
 20
-45.3708
 30
0.0
 10
124.9058
 20
-34.0136
 30
0.0
 10
124.9058
 20
-34.0136
 30
0.0
 10
124.9058
 20
-34.0136
 30
0.0
 10
124.9058
 20
-34.0136
 30
0.0
 10
133.0698
 20
-29.2993
 30
0.0
 10
133.0698
 20
-29.2993
 30
0.0
 10
133.0698
 20
-29.2993
 30
0.0
 10
133.0698
 20
-29.2993
 30
0.0
 10
133.0422
 20
-33.7415
 30
0.0
 10
133.0422
 20
-33.7415
 30
0.0
 10
133.0422
 20
-33.7415
 30
0.0
 10
133.0422
 20
-33.7415
 30
0.0
 10
128.7215
 20
-36.2415
 30
0.0
 10
128.7215
 20
-36.2415
 30
0.0
  0
SPLINE
  5
94
330
1F
100
AcDbEntity
  8
layer 1
 62
     7
100
AcDbSpline
210
0.0
220
0.0
230
1.0
 70
    11
 71
     3
 72
    36
 73
    32
 74
     0
 42
0.0000000001
 43
0.0000000001
 12
1.0
 22
0.0
 32
0.0
 13
1.0
 23
0.0
 33
0.0
 40
0.0
 40
0.0
 40
0.0
 40
0.0
 40
0.1111111111111111
 40
0.1111111111111111
 40
0.1111111111111111
 40
0.1111111111111111
 40
0.2222222222222222
 40
0.2222222222222222
 40
0.2222222222222222
 40
0.2222222222222222
 40
0.3333333333333333
 40
0.3333333333333333
 40
0.3333333333333333
 40
0.3333333333333333
 40
0.4444444444444444
 40
0.4444444444444444
 40
0.4444444444444444
 40
0.4444444444444444
 40
0.5555555555555556
 40
0.5555555555555556
 40
0.5555555555555556
 40
0.5555555555555556
 40
0.6666666666666666
 40
0.6666666666666666
 40
0.6666666666666666
 40
0.6666666666666666
 40
0.7777777777777778
 40
0.7777777777777778
 40
0.7777777777777778
 40
0.7777777777777778
 40
1.0
 40
1.0
 40
1.0
 40
1.0
 10
121.3876
 20
-47.4074
 30
0.0
 10
121.3876
 20
-47.4074
 30
0.0
 10
121.3876
 20
-31.991
 30
0.0
 10
121.3876
 20
-31.991
 30
0.0
 10
121.3876
 20
-31.991
 30
0.0
 10
121.3876
 20
-31.991
 30
0.0
 10
133.0538
 20
-25.2561
 30
0.0
 10
133.0538
 20
-25.2561
 30
0.0
 10
133.0538
 20
-25.2561
 30
0.0
 10
133.0538
 20
-25.2561
 30
0.0
 10
133.0514
 20
-21.1273
 30
0.0
 10
133.0514
 20
-21.1273
 30
0.0
 10
133.0514
 20
-21.1273
 30
0.0
 10
133.0514
 20
-21.1273
 30
0.0
 10
117.7279
 20
-29.9709
 30
0.0
 10
117.7279
 20
-29.9709
 30
0.0
 10
117.7279
 20
-29.9709
 30
0.0
 10
117.7279
 20
-29.9709
 30
0.0
 10
117.7279
 20
-49.6098
 30
0.0
 10
117.7279
 20
-49.6098
 30
0.0
 10
117.7279
 20
-49.6098
 30
0.0
 10
117.7279
 20
-49.6098
 30
0.0
 10
133.0496
 20
-58.4538
 30
0.0
 10
133.0496
 20
-58.4538
 30
0.0
 10
133.0496
 20
-58.4538
 30
0.0
 10
133.0496
 20
-58.4538
 30
0.0
 10
133.0557
 20
-54.1348
 30
0.0
 10
133.0557
 20
-54.1348
 30
0.0
 10
133.0557
 20
-54.1348
 30
0.0
 10
133.0557
 20
-54.1348
 30
0.0
 10
121.3876
 20
-47.4074
 30
0.0
 10
121.3876
 20
-47.4074
 30
0.0
  0
SPLINE
  5
95
330
1F
100
AcDbEntity
  8
layer 1
 62
     7
100
AcDbSpline
210
0.0
220
0.0
230
1.0
 70
    11
 71
     3
 72
    40
 73
    36
 74
     0
 42
0.0000000001
 43
0.0000000001
 12
1.0
 22
0.0
 32
0.0
 13
1.0
 23
0.0
 33
0.0
 40
0.0
 40
0.0
 40
0.0
 40
0.0
 40
0.1
 40
0.1
 40
0.1
 40
0.1
 40
0.2
 40
0.2
 40
0.2
 40
0.2
 40
0.3
 40
0.3
 40
0.3
 40
0.3
 40
0.4
 40
0.4
 40
0.4
 40
0.4
 40
0.5
 40
0.5
 40
0.5
 40
0.5
 40
0.6
 40
0.6
 40
0.6
 40
0.6
 40
0.7
 40
0.7
 40
0.7
 40
0.7
 40
0.8
 40
0.8
 40
0.8
 40
0.8
 40
1.0
 40
1.0
 40
1.0
 40
1.0
 10
136.4389
 20
-33.7372
 30
0.0
 10
136.4389
 20
-33.7372
 30
0.0
 10
140.7728
 20
-36.2415
 30
0.0
 10
140.7728
 20
-36.2415
 30
0.0
 10
140.7728
 20
-36.2415
 30
0.0
 10
140.7728
 20
-36.2415
 30
0.0
 10
140.7728
 20
-43.1965
 30
0.0
 10
140.7728
 20
-43.1965
 30
0.0
 10
140.7728
 20
-43.1965
 30
0.0
 10
140.7728
 20
-43.1965
 30
0.0
 10
136.4376
 20
-45.6899
 30
0.0
 10
136.4376
 20
-45.6899
 30
0.0
 10
136.4376
 20
-45.6899
 30
0.0
 10
136.4376
 20
-45.6899
 30
0.0
 10
136.4277
 20
-50.0833
 30
0.0
 10
136.4277
 20
-50.0833
 30
0.0
 10
136.4277
 20
-50.0833
 30
0.0
 10
136.4277
 20
-50.0833
 30
0.0
 10
144.5885
 20
-45.3708
 30
0.0
 10
144.5885
 20
-45.3708
 30
0.0
 10
144.5885
 20
-45.3708
 30
0.0
 10
144.5885
 20
-45.3708
 30
0.0
 10
144.5885
 20
-34.0136
 30
0.0
 10
144.5885
 20
-34.0136
 30
0.0
 10
144.5885
 20
-34.0136
 30
0.0
 10
144.5885
 20
-34.0136
 30
0.0
 10
136.4245
 20
-29.2993
 30
0.0
 10
136.4245
 20
-29.2993
 30
0.0
 10
136.4245
 20
-29.2993
 30
0.0
 10
136.4245
 20
-29.2993
 30
0.0
 10
136.4653
 20
-33.7457
 30
0.0
 10
136.4653
 20
-33.7457
 30
0.0
 10
136.4653
 20
-33.7457
 30
0.0
 10
136.4653
 20
-33.7457
 30
0.0
 10
136.4389
 20
-33.7372
 30
0.0
 10
136.4389
 20
-33.7372
 30
0.0
  0
SPLINE
  5
96
330
1F
100
AcDbEntity
  8
layer 1
 62
     7
100
AcDbSpline
210
0.0
220
0.0
230
1.0
 70
    27
 71
     3
 72
    12
 73
     8
 74
     0
 42
0.0000000001
 43
0.0000000001
 12
1.0
 22
0.0
 32
0.0
 13
1.0
 23
0.0
 33
0.0
 40
0.0
 40
0.0
 40
0.0
 40
0.0
 40
0.3333333333333333
 40
0.3333333333333333
 40
0.3333333333333333
 40
0.3333333333333333
 40
1.0
 40
1.0
 40
1.0
 40
1.0
 10
136.4389
 20
-33.7372
 30
0.0
 10
136.4389
 20
-33.7372
 30
0.0
 10
136.4389
 20
-33.7372
 30
0.0
 10
136.4389
 20
-33.7372
 30
0.0
 10
136.4389
 20
-33.7372
 30
0.0
 10
136.4389
 20
-33.7372
 30
0.0
 10
136.4389
 20
-33.7372
 30
0.0
 10
136.4389
 20
-33.7372
 30
0.0
  0
SPLINE
  5
97
330
1F
100
AcDbEntity
  8
layer 1
 62
     7
100
AcDbSpline
210
0.0
220
0.0
230
1.0
 70
    11
 71
     3
 72
    36
 73
    32
 74
     0
 42
0.0000000001
 43
0.0000000001
 12
1.0
 22
0.0
 32
0.0
 13
1.0
 23
0.0
 33
0.0
 40
0.0
 40
0.0
 40
0.0
 40
0.0
 40
0.1111111111111111
 40
0.1111111111111111
 40
0.1111111111111111
 40
0.1111111111111111
 40
0.2222222222222222
 40
0.2222222222222222
 40
0.2222222222222222
 40
0.2222222222222222
 40
0.3333333333333333
 40
0.3333333333333333
 40
0.3333333333333333
 40
0.3333333333333333
 40
0.4444444444444444
 40
0.4444444444444444
 40
0.4444444444444444
 40
0.4444444444444444
 40
0.5555555555555556
 40
0.5555555555555556
 40
0.5555555555555556
 40
0.5555555555555556
 40
0.6666666666666666
 40
0.6666666666666666
 40
0.6666666666666666
 40
0.6666666666666666
 40
0.7777777777777778
 40
0.7777777777777778
 40
0.7777777777777778
 40
0.7777777777777778
 40
1.0
 40
1.0
 40
1.0
 40
1.0
 10
148.0983
 20
-47.4074
 30
0.0
 10
148.0983
 20
-47.4074
 30
0.0
 10
148.0983
 20
-31.991
 30
0.0
 10
148.0983
 20
-31.991
 30
0.0
 10
148.0983
 20
-31.991
 30
0.0
 10
148.0983
 20
-31.991
 30
0.0
 10
136.4321
 20
-25.2561
 30
0.0
 10
136.4321
 20
-25.2561
 30
0.0
 10
136.4321
 20
-25.2561
 30
0.0
 10
136.4321
 20
-25.2561
 30
0.0
 10
136.4345
 20
-21.1273
 30
0.0
 10
136.4345
 20
-21.1273
 30
0.0
 10
136.4345
 20
-21.1273
 30
0.0
 10
136.4345
 20
-21.1273
 30
0.0
 10
151.758
 20
-29.9709
 30
0.0
 10
151.758
 20
-29.9709
 30
0.0
 10
151.758
 20
-29.9709
 30
0.0
 10
151.758
 20
-29.9709
 30
0.0
 10
151.758
 20
-49.6098
 30
0.0
 10
151.758
 20
-49.6098
 30
0.0
 10
151.758
 20
-49.6098
 30
0.0
 10
151.758
 20
-49.6098
 30
0.0
 10
136.4363
 20
-58.4538
 30
0.0
 10
136.4363
 20
-58.4538
 30
0.0
 10
136.4363
 20
-58.4538
 30
0.0
 10
136.4363
 20
-58.4538
 30
0.0
 10
136.4302
 20
-54.1348
 30
0.0
 10
136.4302
 20
-54.1348
 30
0.0
 10
136.4302
 20
-54.1348
 30
0.0
 10
136.4302
 20
-54.1348
 30
0.0
 10
148.0983
 20
-47.4074
 30
0.0
 10
148.0983
 20
-47.4074
 30
0.0
  0
SPLINE
  5
98
330
1F
100
AcDbEntity
  8
layer 1
 62
     7
100
AcDbSpline
210
0.0
220
0.0
230
1.0
 70
    11
 71
     3
 72
    28
 73
    24
 74
     0
 42
0.0000000001
 43
0.0000000001
 12
1.0
 22
0.0
 32
0.0
 13
1.0
 23
0.0
 33
0.0
 40
0.0
 40
0.0
 40
0.0
 40
0.0
 40
0.1428571428571428
 40
0.1428571428571428
 40
0.1428571428571428
 40
0.1428571428571428
 40
0.2857142857142857
 40
0.2857142857142857
 40
0.2857142857142857
 40
0.2857142857142857
 40
0.4285714285714285
 40
0.4285714285714285
 40
0.4285714285714285
 40
0.4285714285714285
 40
0.5714285714285714
 40
0.5714285714285714
 40
0.5714285714285714
 40
0.5714285714285714
 40
0.7142857142857143
 40
0.7142857142857143
 40
0.7142857142857143
 40
0.7142857142857143
 40
1.0
 40
1.0
 40
1.0
 40
1.0
 10
174.4831
 20
-41.2755
 30
0.0
 10
174.4831
 20
-41.2755
 30
0.0
 10
171.7994
 20
-42.8314
 30
0.0
 10
171.7994
 20
-42.8314
 30
0.0
 10
171.7994
 20
-42.8314
 30
0.0
 10
171.7994
 20
-42.8314
 30
0.0
 10
169.1158
 20
-41.2755
 30
0.0
 10
169.1158
 20
-41.2755
 30
0.0
 10
169.1158
 20
-41.2755
 30
0.0
 10
169.1158
 20
-41.2755
 30
0.0
 10
169.1158
 20
-38.1639
 30
0.0
 10
169.1158
 20
-38.1639
 30
0.0
 10
169.1158
 20
-38.1639
 30
0.0
 10
169.1158
 20
-38.1639
 30
0.0
 10
171.7994
 20
-36.6081
 30
0.0
 10
171.7994
 20
-36.6081
 30
0.0
 10
171.7994
 20
-36.6081
 30
0.0
 10
171.7994
 20
-36.6081
 30
0.0
 10
174.4831
 20
-38.1639
 30
0.0
 10
174.4831
 20
-38.1639
 30
0.0
 10
174.4831
 20
-38.1639
 30
0.0
 10
174.4831
 20
-38.1639
 30
0.0
 10
174.4831
 20
-41.2755
 30
0.0
 10
174.4831
 20
-41.2755
 30
0.0
  0
SPLINE
  5
99
330
1F
100
AcDbEntity
  8
layer 1
 62
     7
100
AcDbSpline
210
0.0
220
0.0
230
1.0
 70
    11
 71
     3
 72
    36
 73
    32
 74
     0
 42
0.0000000001
 43
0.0000000001
 12
1.0
 22
0.0
 32
0.0
 13
1.0
 23
0.0
 33
0.0
 40
0.0
 40
0.0
 40
0.0
 40
0.0
 40
0.1111111111111111
 40
0.1111111111111111
 40
0.1111111111111111
 40
0.1111111111111111
 40
0.2222222222222222
 40
0.2222222222222222
 40
0.2222222222222222
 40
0.2222222222222222
 40
0.3333333333333333
 40
0.3333333333333333
 40
0.3333333333333333
 40
0.3333333333333333
 40
0.4444444444444444
 40
0.4444444444444444
 40
0.4444444444444444
 40
0.4444444444444444
 40
0.5555555555555556
 40
0.5555555555555556
 40
0.5555555555555556
 40
0.5555555555555556
 40
0.6666666666666666
 40
0.6666666666666666
 40
0.6666666666666666
 40
0.6666666666666666
 40
0.7777777777777778
 40
0.7777777777777778
 40
0.7777777777777778
 40
0.7777777777777778
 40
1.0
 40
1.0
 40
1.0
 40
1.0
 10
165.7812
 20
-36.2415
 30
0.0
 10
165.7812
 20
-36.2415
 30
0.0
 10
165.7812
 20
-43.1965
 30
0.0
 10
165.7812
 20
-43.1965
 30
0.0
 10
165.7812
 20
-43.1965
 30
0.0
 10
165.7812
 20
-43.1965
 30
0.0
 10
170.1164
 20
-45.6899
 30
0.0
 10
170.1164
 20
-45.6899
 30
0.0
 10
170.1164
 20
-45.6899
 30
0.0
 10
170.1164
 20
-45.6899
 30
0.0
 10
170.1263
 20
-50.0833
 30
0.0
 10
170.1263
 20
-50.0833
 30
0.0
 10
170.1263
 20
-50.0833
 30
0.0
 10
170.1263
 20
-50.0833
 30
0.0
 10
161.9655
 20
-45.3708
 30
0.0
 10
161.9655
 20
-45.3708
 30
0.0
 10
161.9655
 20
-45.3708
 30
0.0
 10
161.9655
 20
-45.3708
 30
0.0
 10
161.9655
 20
-34.0136
 30
0.0
 10
161.9655
 20
-34.0136
 30
0.0
 10
161.9655
 20
-34.0136
 30
0.0
 10
161.9655
 20
-34.0136
 30
0.0
 10
170.1295
 20
-29.2993
 30
0.0
 10
170.1295
 20
-29.2993
 30
0.0
 10
170.1295
 20
-29.2993
 30
0.0
 10
170.1295
 20
-29.2993
 30
0.0
 10
170.1019
 20
-33.7415
 30
0.0
 10
170.1019
 20
-33.7415
 30
0.0
 10
170.1019
 20
-33.7415
 30
0.0
 10
170.1019
 20
-33.7415
 30
0.0
 10
165.7812
 20
-36.2415
 30
0.0
 10
165.7812
 20
-36.2415
 30
0.0
  0
SPLINE
  5
9A
330
1F
100
AcDbEntity
  8
layer 1
 62
     7
100
AcDbSpline
210
0.0
220
0.0
230
1.0
 70
    11
 71
     3
 72
    36
 73
    32
 74
     0
 42
0.0000000001
 43
0.0000000001
 12
1.0
 22
0.0
 32
0.0
 13
1.0
 23
0.0
 33
0.0
 40
0.0
 40
0.0
 40
0.0
 40
0.0
 40
0.1111111111111111
 40
0.1111111111111111
 40
0.1111111111111111
 40
0.1111111111111111
 40
0.2222222222222222
 40
0.2222222222222222
 40
0.2222222222222222
 40
0.2222222222222222
 40
0.3333333333333333
 40
0.3333333333333333
 40
0.3333333333333333
 40
0.3333333333333333
 40
0.4444444444444444
 40
0.4444444444444444
 40
0.4444444444444444
 40
0.4444444444444444
 40
0.5555555555555556
 40
0.5555555555555556
 40
0.5555555555555556
 40
0.5555555555555556
 40
0.6666666666666666
 40
0.6666666666666666
 40
0.6666666666666666
 40
0.6666666666666666
 40
0.7777777777777778
 40
0.7777777777777778
 40
0.7777777777777778
 40
0.7777777777777778
 40
1.0
 40
1.0
 40
1.0
 40
1.0
 10
158.4473
 20
-47.4074
 30
0.0
 10
158.4473
 20
-47.4074
 30
0.0
 10
158.4473
 20
-31.991
 30
0.0
 10
158.4473
 20
-31.991
 30
0.0
 10
158.4473
 20
-31.991
 30
0.0
 10
158.4473
 20
-31.991
 30
0.0
 10
170.1135
 20
-25.2561
 30
0.0
 10
170.1135
 20
-25.2561
 30
0.0
 10
170.1135
 20
-25.2561
 30
0.0
 10
170.1135
 20
-25.2561
 30
0.0
 10
170.1111
 20
-21.1273
 30
0.0
 10
170.1111
 20
-21.1273
 30
0.0
 10
170.1111
 20
-21.1273
 30
0.0
 10
170.1111
 20
-21.1273
 30
0.0
 10
154.7876
 20
-29.9709
 30
0.0
 10
154.7876
 20
-29.9709
 30
0.0
 10
154.7876
 20
-29.9709
 30
0.0
 10
154.7876
 20
-29.9709
 30
0.0
 10
154.7876
 20
-49.6098
 30
0.0
 10
154.7876
 20
-49.6098
 30
0.0
 10
154.7876
 20
-49.6098
 30
0.0
 10
154.7876
 20
-49.6098
 30
0.0
 10
170.1093
 20
-58.4538
 30
0.0
 10
170.1093
 20
-58.4538
 30
0.0
 10
170.1093
 20
-58.4538
 30
0.0
 10
170.1093
 20
-58.4538
 30
0.0
 10
170.1154
 20
-54.1348
 30
0.0
 10
170.1154
 20
-54.1348
 30
0.0
 10
170.1154
 20
-54.1348
 30
0.0
 10
170.1154
 20
-54.1348
 30
0.0
 10
158.4473
 20
-47.4074
 30
0.0
 10
158.4473
 20
-47.4074
 30
0.0
  0
SPLINE
  5
9B
330
1F
100
AcDbEntity
  8
layer 1
 62
     7
100
AcDbSpline
210
0.0
220
0.0
230
1.0
 70
    11
 71
     3
 72
    40
 73
    36
 74
     0
 42
0.0000000001
 43
0.0000000001
 12
1.0
 22
0.0
 32
0.0
 13
1.0
 23
0.0
 33
0.0
 40
0.0
 40
0.0
 40
0.0
 40
0.0
 40
0.1
 40
0.1
 40
0.1
 40
0.1
 40
0.2
 40
0.2
 40
0.2
 40
0.2
 40
0.3
 40
0.3
 40
0.3
 40
0.3
 40
0.4
 40
0.4
 40
0.4
 40
0.4
 40
0.5
 40
0.5
 40
0.5
 40
0.5
 40
0.6
 40
0.6
 40
0.6
 40
0.6
 40
0.7
 40
0.7
 40
0.7
 40
0.7
 40
0.8
 40
0.8
 40
0.8
 40
0.8
 40
1.0
 40
1.0
 40
1.0
 40
1.0
 10
173.4985
 20
-33.7372
 30
0.0
 10
173.4985
 20
-33.7372
 30
0.0
 10
177.8324
 20
-36.2415
 30
0.0
 10
177.8324
 20
-36.2415
 30
0.0
 10
177.8324
 20
-36.2415
 30
0.0
 10
177.8324
 20
-36.2415
 30
0.0
 10
177.8324
 20
-43.1965
 30
0.0
 10
177.8324
 20
-43.1965
 30
0.0
 10
177.8324
 20
-43.1965
 30
0.0
 10
177.8324
 20
-43.1965
 30
0.0
 10
173.4972
 20
-45.6899
 30
0.0
 10
173.4972
 20
-45.6899
 30
0.0
 10
173.4972
 20
-45.6899
 30
0.0
 10
173.4972
 20
-45.6899
 30
0.0
 10
173.4873
 20
-50.0833
 30
0.0
 10
173.4873
 20
-50.0833
 30
0.0
 10
173.4873
 20
-50.0833
 30
0.0
 10
173.4873
 20
-50.0833
 30
0.0
 10
181.6481
 20
-45.3708
 30
0.0
 10
181.6481
 20
-45.3708
 30
0.0
 10
181.6481
 20
-45.3708
 30
0.0
 10
181.6481
 20
-45.3708
 30
0.0
 10
181.6481
 20
-34.0136
 30
0.0
 10
181.6481
 20
-34.0136
 30
0.0
 10
181.6481
 20
-34.0136
 30
0.0
 10
181.6481
 20
-34.0136
 30
0.0
 10
173.4841
 20
-29.2993
 30
0.0
 10
173.4841
 20
-29.2993
 30
0.0
 10
173.4841
 20
-29.2993
 30
0.0
 10
173.4841
 20
-29.2993
 30
0.0
 10
173.5249
 20
-33.7457
 30
0.0
 10
173.5249
 20
-33.7457
 30
0.0
 10
173.5249
 20
-33.7457
 30
0.0
 10
173.5249
 20
-33.7457
 30
0.0
 10
173.4985
 20
-33.7372
 30
0.0
 10
173.4985
 20
-33.7372
 30
0.0
  0
SPLINE
  5
9C
330
1F
100
AcDbEntity
  8
layer 1
 62
     7
100
AcDbSpline
210
0.0
220
0.0
230
1.0
 70
    27
 71
     3
 72
    12
 73
     8
 74
     0
 42
0.0000000001
 43
0.0000000001
 12
1.0
 22
0.0
 32
0.0
 13
1.0
 23
0.0
 33
0.0
 40
0.0
 40
0.0
 40
0.0
 40
0.0
 40
0.3333333333333333
 40
0.3333333333333333
 40
0.3333333333333333
 40
0.3333333333333333
 40
1.0
 40
1.0
 40
1.0
 40
1.0
 10
173.4985
 20
-33.7372
 30
0.0
 10
173.4985
 20
-33.7372
 30
0.0
 10
173.4985
 20
-33.7372
 30
0.0
 10
173.4985
 20
-33.7372
 30
0.0
 10
173.4985
 20
-33.7372
 30
0.0
 10
173.4985
 20
-33.7372
 30
0.0
 10
173.4985
 20
-33.7372
 30
0.0
 10
173.4985
 20
-33.7372
 30
0.0
  0
SPLINE
  5
9D
330
1F
100
AcDbEntity
  8
layer 1
 62
     7
100
AcDbSpline
210
0.0
220
0.0
230
1.0
 70
    11
 71
     3
 72
    36
 73
    32
 74
     0
 42
0.0000000001
 43
0.0000000001
 12
1.0
 22
0.0
 32
0.0
 13
1.0
 23
0.0
 33
0.0
 40
0.0
 40
0.0
 40
0.0
 40
0.0
 40
0.1111111111111111
 40
0.1111111111111111
 40
0.1111111111111111
 40
0.1111111111111111
 40
0.2222222222222222
 40
0.2222222222222222
 40
0.2222222222222222
 40
0.2222222222222222
 40
0.3333333333333333
 40
0.3333333333333333
 40
0.3333333333333333
 40
0.3333333333333333
 40
0.4444444444444444
 40
0.4444444444444444
 40
0.4444444444444444
 40
0.4444444444444444
 40
0.5555555555555556
 40
0.5555555555555556
 40
0.5555555555555556
 40
0.5555555555555556
 40
0.6666666666666666
 40
0.6666666666666666
 40
0.6666666666666666
 40
0.6666666666666666
 40
0.7777777777777778
 40
0.7777777777777778
 40
0.7777777777777778
 40
0.7777777777777778
 40
1.0
 40
1.0
 40
1.0
 40
1.0
 10
185.158
 20
-47.4074
 30
0.0
 10
185.158
 20
-47.4074
 30
0.0
 10
185.158
 20
-31.991
 30
0.0
 10
185.158
 20
-31.991
 30
0.0
 10
185.158
 20
-31.991
 30
0.0
 10
185.158
 20
-31.991
 30
0.0
 10
173.4917
 20
-25.2561
 30
0.0
 10
173.4917
 20
-25.2561
 30
0.0
 10
173.4917
 20
-25.2561
 30
0.0
 10
173.4917
 20
-25.2561
 30
0.0
 10
173.4942
 20
-21.1273
 30
0.0
 10
173.4942
 20
-21.1273
 30
0.0
 10
173.4942
 20
-21.1273
 30
0.0
 10
173.4942
 20
-21.1273
 30
0.0
 10
188.8177
 20
-29.9709
 30
0.0
 10
188.8177
 20
-29.9709
 30
0.0
 10
188.8177
 20
-29.9709
 30
0.0
 10
188.8177
 20
-29.9709
 30
0.0
 10
188.8177
 20
-49.6098
 30
0.0
 10
188.8177
 20
-49.6098
 30
0.0
 10
188.8177
 20
-49.6098
 30
0.0
 10
188.8177
 20
-49.6098
 30
0.0
 10
173.496
 20
-58.4538
 30
0.0
 10
173.496
 20
-58.4538
 30
0.0
 10
173.496
 20
-58.4538
 30
0.0
 10
173.496
 20
-58.4538
 30
0.0
 10
173.4899
 20
-54.1348
 30
0.0
 10
173.4899
 20
-54.1348
 30
0.0
 10
173.4899
 20
-54.1348
 30
0.0
 10
173.4899
 20
-54.1348
 30
0.0
 10
185.158
 20
-47.4074
 30
0.0
 10
185.158
 20
-47.4074
 30
0.0
  0
SPLINE
  5
9E
330
1F
100
AcDbEntity
  8
layer 1
 62
     7
100
AcDbSpline
210
0.0
220
0.0
230
1.0
 70
    11
 71
     3
 72
    28
 73
    24
 74
     0
 42
0.0000000001
 43
0.0000000001
 12
1.0
 22
0.0
 32
0.0
 13
1.0
 23
0.0
 33
0.0
 40
0.0
 40
0.0
 40
0.0
 40
0.0
 40
0.1428571428571428
 40
0.1428571428571428
 40
0.1428571428571428
 40
0.1428571428571428
 40
0.2857142857142857
 40
0.2857142857142857
 40
0.2857142857142857
 40
0.2857142857142857
 40
0.4285714285714285
 40
0.4285714285714285
 40
0.4285714285714285
 40
0.4285714285714285
 40
0.5714285714285714
 40
0.5714285714285714
 40
0.5714285714285714
 40
0.5714285714285714
 40
0.7142857142857143
 40
0.7142857142857143
 40
0.7142857142857143
 40
0.7142857142857143
 40
1.0
 40
1.0
 40
1.0
 40
1.0
 10
118.7104
 20
-73.7469
 30
0.0
 10
118.7104
 20
-73.7469
 30
0.0
 10
116.0267
 20
-75.3028
 30
0.0
 10
116.0267
 20
-75.3028
 30
0.0
 10
116.0267
 20
-75.3028
 30
0.0
 10
116.0267
 20
-75.3028
 30
0.0
 10
113.343
 20
-73.7469
 30
0.0
 10
113.343
 20
-73.7469
 30
0.0
 10
113.343
 20
-73.7469
 30
0.0
 10
113.343
 20
-73.7469
 30
0.0
 10
113.343
 20
-70.6353
 30
0.0
 10
113.343
 20
-70.6353
 30
0.0
 10
113.343
 20
-70.6353
 30
0.0
 10
113.343
 20
-70.6353
 30
0.0
 10
116.0267
 20
-69.0795
 30
0.0
 10
116.0267
 20
-69.0795
 30
0.0
 10
116.0267
 20
-69.0795
 30
0.0
 10
116.0267
 20
-69.0795
 30
0.0
 10
118.7104
 20
-70.6353
 30
0.0
 10
118.7104
 20
-70.6353
 30
0.0
 10
118.7104
 20
-70.6353
 30
0.0
 10
118.7104
 20
-70.6353
 30
0.0
 10
118.7104
 20
-73.7469
 30
0.0
 10
118.7104
 20
-73.7469
 30
0.0
  0
SPLINE
  5
9F
330
1F
100
AcDbEntity
  8
layer 1
 62
     7
100
AcDbSpline
210
0.0
220
0.0
230
1.0
 70
    11
 71
     3
 72
    36
 73
    32
 74
     0
 42
0.0000000001
 43
0.0000000001
 12
1.0
 22
0.0
 32
0.0
 13
1.0
 23
0.0
 33
0.0
 40
0.0
 40
0.0
 40
0.0
 40
0.0
 40
0.1111111111111111
 40
0.1111111111111111
 40
0.1111111111111111
 40
0.1111111111111111
 40
0.2222222222222222
 40
0.2222222222222222
 40
0.2222222222222222
 40
0.2222222222222222
 40
0.3333333333333333
 40
0.3333333333333333
 40
0.3333333333333333
 40
0.3333333333333333
 40
0.4444444444444444
 40
0.4444444444444444
 40
0.4444444444444444
 40
0.4444444444444444
 40
0.5555555555555556
 40
0.5555555555555556
 40
0.5555555555555556
 40
0.5555555555555556
 40
0.6666666666666666
 40
0.6666666666666666
 40
0.6666666666666666
 40
0.6666666666666666
 40
0.7777777777777778
 40
0.7777777777777778
 40
0.7777777777777778
 40
0.7777777777777778
 40
1.0
 40
1.0
 40
1.0
 40
1.0
 10
110.0085
 20
-68.7128
 30
0.0
 10
110.0085
 20
-68.7128
 30
0.0
 10
110.0085
 20
-75.6678
 30
0.0
 10
110.0085
 20
-75.6678
 30
0.0
 10
110.0085
 20
-75.6678
 30
0.0
 10
110.0085
 20
-75.6678
 30
0.0
 10
114.3436
 20
-78.1612
 30
0.0
 10
114.3436
 20
-78.1612
 30
0.0
 10
114.3436
 20
-78.1612
 30
0.0
 10
114.3436
 20
-78.1612
 30
0.0
 10
114.3535
 20
-82.5546
 30
0.0
 10
114.3535
 20
-82.5546
 30
0.0
 10
114.3535
 20
-82.5546
 30
0.0
 10
114.3535
 20
-82.5546
 30
0.0
 10
106.1927
 20
-77.8421
 30
0.0
 10
106.1927
 20
-77.8421
 30
0.0
 10
106.1927
 20
-77.8421
 30
0.0
 10
106.1927
 20
-77.8421
 30
0.0
 10
106.1927
 20
-66.4849
 30
0.0
 10
106.1927
 20
-66.4849
 30
0.0
 10
106.1927
 20
-66.4849
 30
0.0
 10
106.1927
 20
-66.4849
 30
0.0
 10
114.3568
 20
-61.7706
 30
0.0
 10
114.3568
 20
-61.7706
 30
0.0
 10
114.3568
 20
-61.7706
 30
0.0
 10
114.3568
 20
-61.7706
 30
0.0
 10
114.3292
 20
-66.2128
 30
0.0
 10
114.3292
 20
-66.2128
 30
0.0
 10
114.3292
 20
-66.2128
 30
0.0
 10
114.3292
 20
-66.2128
 30
0.0
 10
110.0085
 20
-68.7128
 30
0.0
 10
110.0085
 20
-68.7128
 30
0.0
  0
SPLINE
  5
A0
330
1F
100
AcDbEntity
  8
layer 1
 62
     7
100
AcDbSpline
210
0.0
220
0.0
230
1.0
 70
    11
 71
     3
 72
    36
 73
    32
 74
     0
 42
0.0000000001
 43
0.0000000001
 12
1.0
 22
0.0
 32
0.0
 13
1.0
 23
0.0
 33
0.0
 40
0.0
 40
0.0
 40
0.0
 40
0.0
 40
0.1111111111111111
 40
0.1111111111111111
 40
0.1111111111111111
 40
0.1111111111111111
 40
0.2222222222222222
 40
0.2222222222222222
 40
0.2222222222222222
 40
0.2222222222222222
 40
0.3333333333333333
 40
0.3333333333333333
 40
0.3333333333333333
 40
0.3333333333333333
 40
0.4444444444444444
 40
0.4444444444444444
 40
0.4444444444444444
 40
0.4444444444444444
 40
0.5555555555555556
 40
0.5555555555555556
 40
0.5555555555555556
 40
0.5555555555555556
 40
0.6666666666666666
 40
0.6666666666666666
 40
0.6666666666666666
 40
0.6666666666666666
 40
0.7777777777777778
 40
0.7777777777777778
 40
0.7777777777777778
 40
0.7777777777777778
 40
1.0
 40
1.0
 40
1.0
 40
1.0
 10
102.6746
 20
-79.8787
 30
0.0
 10
102.6746
 20
-79.8787
 30
0.0
 10
102.6746
 20
-64.4623
 30
0.0
 10
102.6746
 20
-64.4623
 30
0.0
 10
102.6746
 20
-64.4623
 30
0.0
 10
102.6746
 20
-64.4623
 30
0.0
 10
114.3408
 20
-57.7274
 30
0.0
 10
114.3408
 20
-57.7274
 30
0.0
 10
114.3408
 20
-57.7274
 30
0.0
 10
114.3408
 20
-57.7274
 30
0.0
 10
114.3383
 20
-53.5986
 30
0.0
 10
114.3383
 20
-53.5986
 30
0.0
 10
114.3383
 20
-53.5986
 30
0.0
 10
114.3383
 20
-53.5986
 30
0.0
 10
99.0149
 20
-62.4422
 30
0.0
 10
99.0149
 20
-62.4422
 30
0.0
 10
99.0149
 20
-62.4422
 30
0.0
 10
99.0149
 20
-62.4422
 30
0.0
 10
99.0149
 20
-82.0811
 30
0.0
 10
99.0149
 20
-82.0811
 30
0.0
 10
99.0149
 20
-82.0811
 30
0.0
 10
99.0149
 20
-82.0811
 30
0.0
 10
114.3365
 20
-90.9251
 30
0.0
 10
114.3365
 20
-90.9251
 30
0.0
 10
114.3365
 20
-90.9251
 30
0.0
 10
114.3365
 20
-90.9251
 30
0.0
 10
114.3427
 20
-86.6061
 30
0.0
 10
114.3427
 20
-86.6061
 30
0.0
 10
114.3427
 20
-86.6061
 30
0.0
 10
114.3427
 20
-86.6061
 30
0.0
 10
102.6746
 20
-79.8787
 30
0.0
 10
102.6746
 20
-79.8787
 30
0.0
  0
SPLINE
  5
A1
330
1F
100
AcDbEntity
  8
layer 1
 62
     7
100
AcDbSpline
210
0.0
220
0.0
230
1.0
 70
    11
 71
     3
 72
    40
 73
    36
 74
     0
 42
0.0000000001
 43
0.0000000001
 12
1.0
 22
0.0
 32
0.0
 13
1.0
 23
0.0
 33
0.0
 40
0.0
 40
0.0
 40
0.0
 40
0.0
 40
0.1
 40
0.1
 40
0.1
 40
0.1
 40
0.2
 40
0.2
 40
0.2
 40
0.2
 40
0.3
 40
0.3
 40
0.3
 40
0.3
 40
0.4
 40
0.4
 40
0.4
 40
0.4
 40
0.5
 40
0.5
 40
0.5
 40
0.5
 40
0.6
 40
0.6
 40
0.6
 40
0.6
 40
0.7
 40
0.7
 40
0.7
 40
0.7
 40
0.8
 40
0.8
 40
0.8
 40
0.8
 40
1.0
 40
1.0
 40
1.0
 40
1.0
 10
117.7258
 20
-66.2085
 30
0.0
 10
117.7258
 20
-66.2085
 30
0.0
 10
122.0597
 20
-68.7128
 30
0.0
 10
122.0597
 20
-68.7128
 30
0.0
 10
122.0597
 20
-68.7128
 30
0.0
 10
122.0597
 20
-68.7128
 30
0.0
 10
122.0597
 20
-75.6678
 30
0.0
 10
122.0597
 20
-75.6678
 30
0.0
 10
122.0597
 20
-75.6678
 30
0.0
 10
122.0597
 20
-75.6678
 30
0.0
 10
117.7245
 20
-78.1612
 30
0.0
 10
117.7245
 20
-78.1612
 30
0.0
 10
117.7245
 20
-78.1612
 30
0.0
 10
117.7245
 20
-78.1612
 30
0.0
 10
117.7146
 20
-82.5546
 30
0.0
 10
117.7146
 20
-82.5546
 30
0.0
 10
117.7146
 20
-82.5546
 30
0.0
 10
117.7146
 20
-82.5546
 30
0.0
 10
125.8754
 20
-77.8421
 30
0.0
 10
125.8754
 20
-77.8421
 30
0.0
 10
125.8754
 20
-77.8421
 30
0.0
 10
125.8754
 20
-77.8421
 30
0.0
 10
125.8754
 20
-66.4849
 30
0.0
 10
125.8754
 20
-66.4849
 30
0.0
 10
125.8754
 20
-66.4849
 30
0.0
 10
125.8754
 20
-66.4849
 30
0.0
 10
117.7114
 20
-61.7706
 30
0.0
 10
117.7114
 20
-61.7706
 30
0.0
 10
117.7114
 20
-61.7706
 30
0.0
 10
117.7114
 20
-61.7706
 30
0.0
 10
117.7522
 20
-66.217
 30
0.0
 10
117.7522
 20
-66.217
 30
0.0
 10
117.7522
 20
-66.217
 30
0.0
 10
117.7522
 20
-66.217
 30
0.0
 10
117.7258
 20
-66.2085
 30
0.0
 10
117.7258
 20
-66.2085
 30
0.0
  0
SPLINE
  5
A2
330
1F
100
AcDbEntity
  8
layer 1
 62
     7
100
AcDbSpline
210
0.0
220
0.0
230
1.0
 70
    27
 71
     3
 72
    12
 73
     8
 74
     0
 42
0.0000000001
 43
0.0000000001
 12
1.0
 22
0.0
 32
0.0
 13
1.0
 23
0.0
 33
0.0
 40
0.0
 40
0.0
 40
0.0
 40
0.0
 40
0.3333333333333333
 40
0.3333333333333333
 40
0.3333333333333333
 40
0.3333333333333333
 40
1.0
 40
1.0
 40
1.0
 40
1.0
 10
117.7258
 20
-66.2085
 30
0.0
 10
117.7258
 20
-66.2085
 30
0.0
 10
117.7258
 20
-66.2085
 30
0.0
 10
117.7258
 20
-66.2085
 30
0.0
 10
117.7258
 20
-66.2085
 30
0.0
 10
117.7258
 20
-66.2085
 30
0.0
 10
117.7258
 20
-66.2085
 30
0.0
 10
117.7258
 20
-66.2085
 30
0.0
  0
SPLINE
  5
A3
330
1F
100
AcDbEntity
  8
layer 1
 62
     7
100
AcDbSpline
210
0.0
220
0.0
230
1.0
 70
    11
 71
     3
 72
    36
 73
    32
 74
     0
 42
0.0000000001
 43
0.0000000001
 12
1.0
 22
0.0
 32
0.0
 13
1.0
 23
0.0
 33
0.0
 40
0.0
 40
0.0
 40
0.0
 40
0.0
 40
0.1111111111111111
 40
0.1111111111111111
 40
0.1111111111111111
 40
0.1111111111111111
 40
0.2222222222222222
 40
0.2222222222222222
 40
0.2222222222222222
 40
0.2222222222222222
 40
0.3333333333333333
 40
0.3333333333333333
 40
0.3333333333333333
 40
0.3333333333333333
 40
0.4444444444444444
 40
0.4444444444444444
 40
0.4444444444444444
 40
0.4444444444444444
 40
0.5555555555555556
 40
0.5555555555555556
 40
0.5555555555555556
 40
0.5555555555555556
 40
0.6666666666666666
 40
0.6666666666666666
 40
0.6666666666666666
 40
0.6666666666666666
 40
0.7777777777777778
 40
0.7777777777777778
 40
0.7777777777777778
 40
0.7777777777777778
 40
1.0
 40
1.0
 40
1.0
 40
1.0
 10
129.3853
 20
-79.8787
 30
0.0
 10
129.3853
 20
-79.8787
 30
0.0
 10
129.3853
 20
-64.4623
 30
0.0
 10
129.3853
 20
-64.4623
 30
0.0
 10
129.3853
 20
-64.4623
 30
0.0
 10
129.3853
 20
-64.4623
 30
0.0
 10
117.719
 20
-57.7274
 30
0.0
 10
117.719
 20
-57.7274
 30
0.0
 10
117.719
 20
-57.7274
 30
0.0
 10
117.719
 20
-57.7274
 30
0.0
 10
117.7215
 20
-53.5986
 30
0.0
 10
117.7215
 20
-53.5986
 30
0.0
 10
117.7215
 20
-53.5986
 30
0.0
 10
117.7215
 20
-53.5986
 30
0.0
 10
133.0449
 20
-62.4422
 30
0.0
 10
133.0449
 20
-62.4422
 30
0.0
 10
133.0449
 20
-62.4422
 30
0.0
 10
133.0449
 20
-62.4422
 30
0.0
 10
133.0449
 20
-82.0811
 30
0.0
 10
133.0449
 20
-82.0811
 30
0.0
 10
133.0449
 20
-82.0811
 30
0.0
 10
133.0449
 20
-82.0811
 30
0.0
 10
117.7233
 20
-90.9251
 30
0.0
 10
117.7233
 20
-90.9251
 30
0.0
 10
117.7233
 20
-90.9251
 30
0.0
 10
117.7233
 20
-90.9251
 30
0.0
 10
117.7171
 20
-86.6061
 30
0.0
 10
117.7171
 20
-86.6061
 30
0.0
 10
117.7171
 20
-86.6061
 30
0.0
 10
117.7171
 20
-86.6061
 30
0.0
 10
129.3853
 20
-79.8787
 30
0.0
 10
129.3853
 20
-79.8787
 30
0.0
  0
SPLINE
  5
A4
330
1F
100
AcDbEntity
  8
layer 1
 62
     7
100
AcDbSpline
210
0.0
220
0.0
230
1.0
 70
    11
 71
     3
 72
    28
 73
    24
 74
     0
 42
0.0000000001
 43
0.0000000001
 12
1.0
 22
0.0
 32
0.0
 13
1.0
 23
0.0
 33
0.0
 40
0.0
 40
0.0
 40
0.0
 40
0.0
 40
0.1428571428571428
 40
0.1428571428571428
 40
0.1428571428571428
 40
0.1428571428571428
 40
0.2857142857142857
 40
0.2857142857142857
 40
0.2857142857142857
 40
0.2857142857142857
 40
0.4285714285714285
 40
0.4285714285714285
 40
0.4285714285714285
 40
0.4285714285714285
 40
0.5714285714285714
 40
0.5714285714285714
 40
0.5714285714285714
 40
0.5714285714285714
 40
0.7142857142857143
 40
0.7142857142857143
 40
0.7142857142857143
 40
0.7142857142857143
 40
1.0
 40
1.0
 40
1.0
 40
1.0
 10
156.1229
 20
-73.7469
 30
0.0
 10
156.1229
 20
-73.7469
 30
0.0
 10
153.4393
 20
-75.3028
 30
0.0
 10
153.4393
 20
-75.3028
 30
0.0
 10
153.4393
 20
-75.3028
 30
0.0
 10
153.4393
 20
-75.3028
 30
0.0
 10
150.7556
 20
-73.7469
 30
0.0
 10
150.7556
 20
-73.7469
 30
0.0
 10
150.7556
 20
-73.7469
 30
0.0
 10
150.7556
 20
-73.7469
 30
0.0
 10
150.7556
 20
-70.6353
 30
0.0
 10
150.7556
 20
-70.6353
 30
0.0
 10
150.7556
 20
-70.6353
 30
0.0
 10
150.7556
 20
-70.6353
 30
0.0
 10
153.4393
 20
-69.0795
 30
0.0
 10
153.4393
 20
-69.0795
 30
0.0
 10
153.4393
 20
-69.0795
 30
0.0
 10
153.4393
 20
-69.0795
 30
0.0
 10
156.1229
 20
-70.6353
 30
0.0
 10
156.1229
 20
-70.6353
 30
0.0
 10
156.1229
 20
-70.6353
 30
0.0
 10
156.1229
 20
-70.6353
 30
0.0
 10
156.1229
 20
-73.7469
 30
0.0
 10
156.1229
 20
-73.7469
 30
0.0
  0
SPLINE
  5
A5
330
1F
100
AcDbEntity
  8
layer 1
 62
     7
100
AcDbSpline
210
0.0
220
0.0
230
1.0
 70
    11
 71
     3
 72
    36
 73
    32
 74
     0
 42
0.0000000001
 43
0.0000000001
 12
1.0
 22
0.0
 32
0.0
 13
1.0
 23
0.0
 33
0.0
 40
0.0
 40
0.0
 40
0.0
 40
0.0
 40
0.1111111111111111
 40
0.1111111111111111
 40
0.1111111111111111
 40
0.1111111111111111
 40
0.2222222222222222
 40
0.2222222222222222
 40
0.2222222222222222
 40
0.2222222222222222
 40
0.3333333333333333
 40
0.3333333333333333
 40
0.3333333333333333
 40
0.3333333333333333
 40
0.4444444444444444
 40
0.4444444444444444
 40
0.4444444444444444
 40
0.4444444444444444
 40
0.5555555555555556
 40
0.5555555555555556
 40
0.5555555555555556
 40
0.5555555555555556
 40
0.6666666666666666
 40
0.6666666666666666
 40
0.6666666666666666
 40
0.6666666666666666
 40
0.7777777777777778
 40
0.7777777777777778
 40
0.7777777777777778
 40
0.7777777777777778
 40
1.0
 40
1.0
 40
1.0
 40
1.0
 10
147.4211
 20
-68.7128
 30
0.0
 10
147.4211
 20
-68.7128
 30
0.0
 10
147.4211
 20
-75.6678
 30
0.0
 10
147.4211
 20
-75.6678
 30
0.0
 10
147.4211
 20
-75.6678
 30
0.0
 10
147.4211
 20
-75.6678
 30
0.0
 10
151.7563
 20
-78.1612
 30
0.0
 10
151.7563
 20
-78.1612
 30
0.0
 10
151.7563
 20
-78.1612
 30
0.0
 10
151.7563
 20
-78.1612
 30
0.0
 10
151.7662
 20
-82.5546
 30
0.0
 10
151.7662
 20
-82.5546
 30
0.0
 10
151.7662
 20
-82.5546
 30
0.0
 10
151.7662
 20
-82.5546
 30
0.0
 10
143.6054
 20
-77.8421
 30
0.0
 10
143.6054
 20
-77.8421
 30
0.0
 10
143.6054
 20
-77.8421
 30
0.0
 10
143.6054
 20
-77.8421
 30
0.0
 10
143.6054
 20
-66.4849
 30
0.0
 10
143.6054
 20
-66.4849
 30
0.0
 10
143.6054
 20
-66.4849
 30
0.0
 10
143.6054
 20
-66.4849
 30
0.0
 10
151.7694
 20
-61.7706
 30
0.0
 10
151.7694
 20
-61.7706
 30
0.0
 10
151.7694
 20
-61.7706
 30
0.0
 10
151.7694
 20
-61.7706
 30
0.0
 10
151.7418
 20
-66.2128
 30
0.0
 10
151.7418
 20
-66.2128
 30
0.0
 10
151.7418
 20
-66.2128
 30
0.0
 10
151.7418
 20
-66.2128
 30
0.0
 10
147.4211
 20
-68.7128
 30
0.0
 10
147.4211
 20
-68.7128
 30
0.0
  0
SPLINE
  5
A6
330
1F
100
AcDbEntity
  8
layer 1
 62
     7
100
AcDbSpline
210
0.0
220
0.0
230
1.0
 70
    11
 71
     3
 72
    36
 73
    32
 74
     0
 42
0.0000000001
 43
0.0000000001
 12
1.0
 22
0.0
 32
0.0
 13
1.0
 23
0.0
 33
0.0
 40
0.0
 40
0.0
 40
0.0
 40
0.0
 40
0.1111111111111111
 40
0.1111111111111111
 40
0.1111111111111111
 40
0.1111111111111111
 40
0.2222222222222222
 40
0.2222222222222222
 40
0.2222222222222222
 40
0.2222222222222222
 40
0.3333333333333333
 40
0.3333333333333333
 40
0.3333333333333333
 40
0.3333333333333333
 40
0.4444444444444444
 40
0.4444444444444444
 40
0.4444444444444444
 40
0.4444444444444444
 40
0.5555555555555556
 40
0.5555555555555556
 40
0.5555555555555556
 40
0.5555555555555556
 40
0.6666666666666666
 40
0.6666666666666666
 40
0.6666666666666666
 40
0.6666666666666666
 40
0.7777777777777778
 40
0.7777777777777778
 40
0.7777777777777778
 40
0.7777777777777778
 40
1.0
 40
1.0
 40
1.0
 40
1.0
 10
140.0872
 20
-79.8787
 30
0.0
 10
140.0872
 20
-79.8787
 30
0.0
 10
140.0872
 20
-64.4623
 30
0.0
 10
140.0872
 20
-64.4623
 30
0.0
 10
140.0872
 20
-64.4623
 30
0.0
 10
140.0872
 20
-64.4623
 30
0.0
 10
151.7534
 20
-57.7274
 30
0.0
 10
151.7534
 20
-57.7274
 30
0.0
 10
151.7534
 20
-57.7274
 30
0.0
 10
151.7534
 20
-57.7274
 30
0.0
 10
151.751
 20
-53.5986
 30
0.0
 10
151.751
 20
-53.5986
 30
0.0
 10
151.751
 20
-53.5986
 30
0.0
 10
151.751
 20
-53.5986
 30
0.0
 10
136.4275
 20
-62.4422
 30
0.0
 10
136.4275
 20
-62.4422
 30
0.0
 10
136.4275
 20
-62.4422
 30
0.0
 10
136.4275
 20
-62.4422
 30
0.0
 10
136.4275
 20
-82.0811
 30
0.0
 10
136.4275
 20
-82.0811
 30
0.0
 10
136.4275
 20
-82.0811
 30
0.0
 10
136.4275
 20
-82.0811
 30
0.0
 10
151.7492
 20
-90.9251
 30
0.0
 10
151.7492
 20
-90.9251
 30
0.0
 10
151.7492
 20
-90.9251
 30
0.0
 10
151.7492
 20
-90.9251
 30
0.0
 10
151.7553
 20
-86.6061
 30
0.0
 10
151.7553
 20
-86.6061
 30
0.0
 10
151.7553
 20
-86.6061
 30
0.0
 10
151.7553
 20
-86.6061
 30
0.0
 10
140.0872
 20
-79.8787
 30
0.0
 10
140.0872
 20
-79.8787
 30
0.0
  0
SPLINE
  5
A7
330
1F
100
AcDbEntity
  8
layer 1
 62
     7
100
AcDbSpline
210
0.0
220
0.0
230
1.0
 70
    11
 71
     3
 72
    40
 73
    36
 74
     0
 42
0.0000000001
 43
0.0000000001
 12
1.0
 22
0.0
 32
0.0
 13
1.0
 23
0.0
 33
0.0
 40
0.0
 40
0.0
 40
0.0
 40
0.0
 40
0.1
 40
0.1
 40
0.1
 40
0.1
 40
0.2
 40
0.2
 40
0.2
 40
0.2
 40
0.3
 40
0.3
 40
0.3
 40
0.3
 40
0.4
 40
0.4
 40
0.4
 40
0.4
 40
0.5
 40
0.5
 40
0.5
 40
0.5
 40
0.6
 40
0.6
 40
0.6
 40
0.6
 40
0.7
 40
0.7
 40
0.7
 40
0.7
 40
0.8
 40
0.8
 40
0.8
 40
0.8
 40
1.0
 40
1.0
 40
1.0
 40
1.0
 10
155.1385
 20
-66.2085
 30
0.0
 10
155.1385
 20
-66.2085
 30
0.0
 10
159.4723
 20
-68.7128
 30
0.0
 10
159.4723
 20
-68.7128
 30
0.0
 10
159.4723
 20
-68.7128
 30
0.0
 10
159.4723
 20
-68.7128
 30
0.0
 10
159.4723
 20
-75.6678
 30
0.0
 10
159.4723
 20
-75.6678
 30
0.0
 10
159.4723
 20
-75.6678
 30
0.0
 10
159.4723
 20
-75.6678
 30
0.0
 10
155.1371
 20
-78.1612
 30
0.0
 10
155.1371
 20
-78.1612
 30
0.0
 10
155.1371
 20
-78.1612
 30
0.0
 10
155.1371
 20
-78.1612
 30
0.0
 10
155.1272
 20
-82.5546
 30
0.0
 10
155.1272
 20
-82.5546
 30
0.0
 10
155.1272
 20
-82.5546
 30
0.0
 10
155.1272
 20
-82.5546
 30
0.0
 10
163.288
 20
-77.8421
 30
0.0
 10
163.288
 20
-77.8421
 30
0.0
 10
163.288
 20
-77.8421
 30
0.0
 10
163.288
 20
-77.8421
 30
0.0
 10
163.288
 20
-66.4849
 30
0.0
 10
163.288
 20
-66.4849
 30
0.0
 10
163.288
 20
-66.4849
 30
0.0
 10
163.288
 20
-66.4849
 30
0.0
 10
155.124
 20
-61.7706
 30
0.0
 10
155.124
 20
-61.7706
 30
0.0
 10
155.124
 20
-61.7706
 30
0.0
 10
155.124
 20
-61.7706
 30
0.0
 10
155.1648
 20
-66.217
 30
0.0
 10
155.1648
 20
-66.217
 30
0.0
 10
155.1648
 20
-66.217
 30
0.0
 10
155.1648
 20
-66.217
 30
0.0
 10
155.1385
 20
-66.2085
 30
0.0
 10
155.1385
 20
-66.2085
 30
0.0
  0
SPLINE
  5
A8
330
1F
100
AcDbEntity
  8
layer 1
 62
     7
100
AcDbSpline
210
0.0
220
0.0
230
1.0
 70
    27
 71
     3
 72
    12
 73
     8
 74
     0
 42
0.0000000001
 43
0.0000000001
 12
1.0
 22
0.0
 32
0.0
 13
1.0
 23
0.0
 33
0.0
 40
0.0
 40
0.0
 40
0.0
 40
0.0
 40
0.3333333333333333
 40
0.3333333333333333
 40
0.3333333333333333
 40
0.3333333333333333
 40
1.0
 40
1.0
 40
1.0
 40
1.0
 10
155.1385
 20
-66.2085
 30
0.0
 10
155.1385
 20
-66.2085
 30
0.0
 10
155.1385
 20
-66.2085
 30
0.0
 10
155.1385
 20
-66.2085
 30
0.0
 10
155.1385
 20
-66.2085
 30
0.0
 10
155.1385
 20
-66.2085
 30
0.0
 10
155.1385
 20
-66.2085
 30
0.0
 10
155.1385
 20
-66.2085
 30
0.0
  0
SPLINE
  5
A9
330
1F
100
AcDbEntity
  8
layer 1
 62
     7
100
AcDbSpline
210
0.0
220
0.0
230
1.0
 70
    11
 71
     3
 72
    36
 73
    32
 74
     0
 42
0.0000000001
 43
0.0000000001
 12
1.0
 22
0.0
 32
0.0
 13
1.0
 23
0.0
 33
0.0
 40
0.0
 40
0.0
 40
0.0
 40
0.0
 40
0.1111111111111111
 40
0.1111111111111111
 40
0.1111111111111111
 40
0.1111111111111111
 40
0.2222222222222222
 40
0.2222222222222222
 40
0.2222222222222222
 40
0.2222222222222222
 40
0.3333333333333333
 40
0.3333333333333333
 40
0.3333333333333333
 40
0.3333333333333333
 40
0.4444444444444444
 40
0.4444444444444444
 40
0.4444444444444444
 40
0.4444444444444444
 40
0.5555555555555556
 40
0.5555555555555556
 40
0.5555555555555556
 40
0.5555555555555556
 40
0.6666666666666666
 40
0.6666666666666666
 40
0.6666666666666666
 40
0.6666666666666666
 40
0.7777777777777778
 40
0.7777777777777778
 40
0.7777777777777778
 40
0.7777777777777778
 40
1.0
 40
1.0
 40
1.0
 40
1.0
 10
166.7979
 20
-79.8787
 30
0.0
 10
166.7979
 20
-79.8787
 30
0.0
 10
166.7979
 20
-64.4623
 30
0.0
 10
166.7979
 20
-64.4623
 30
0.0
 10
166.7979
 20
-64.4623
 30
0.0
 10
166.7979
 20
-64.4623
 30
0.0
 10
155.1317
 20
-57.7274
 30
0.0
 10
155.1317
 20
-57.7274
 30
0.0
 10
155.1317
 20
-57.7274
 30
0.0
 10
155.1317
 20
-57.7274
 30
0.0
 10
155.1341
 20
-53.5986
 30
0.0
 10
155.1341
 20
-53.5986
 30
0.0
 10
155.1341
 20
-53.5986
 30
0.0
 10
155.1341
 20
-53.5986
 30
0.0
 10
170.4576
 20
-62.4422
 30
0.0
 10
170.4576
 20
-62.4422
 30
0.0
 10
170.4576
 20
-62.4422
 30
0.0
 10
170.4576
 20
-62.4422
 30
0.0
 10
170.4576
 20
-82.0811
 30
0.0
 10
170.4576
 20
-82.0811
 30
0.0
 10
170.4576
 20
-82.0811
 30
0.0
 10
170.4576
 20
-82.0811
 30
0.0
 10
155.1359
 20
-90.9251
 30
0.0
 10
155.1359
 20
-90.9251
 30
0.0
 10
155.1359
 20
-90.9251
 30
0.0
 10
155.1359
 20
-90.9251
 30
0.0
 10
155.1298
 20
-86.6061
 30
0.0
 10
155.1298
 20
-86.6061
 30
0.0
 10
155.1298
 20
-86.6061
 30
0.0
 10
155.1298
 20
-86.6061
 30
0.0
 10
166.7979
 20
-79.8787
 30
0.0
 10
166.7979
 20
-79.8787
 30
0.0
  0
SPLINE
  5
AA
330
1F
100
AcDbEntity
  8
layer 1
 62
     7
100
AcDbSpline
210
0.0
220
0.0
230
1.0
 70
    11
 71
     3
 72
    20
 73
    16
 74
     0
 42
0.0000000001
 43
0.0000000001
 12
1.0
 22
0.0
 32
0.0
 13
1.0
 23
0.0
 33
0.0
 40
0.0
 40
0.0
 40
0.0
 40
0.0
 40
0.2
 40
0.2
 40
0.2
 40
0.2
 40
0.4
 40
0.4
 40
0.4
 40
0.4
 40
0.6
 40
0.6
 40
0.6
 40
0.6
 40
1.0
 40
1.0
 40
1.0
 40
1.0
 10
188.8739
 20
-74.3607
 30
0.0
 10
188.8739
 20
-74.3607
 30
0.0
 10
187.8152
 20
-73.7469
 30
0.0
 10
187.8152
 20
-73.7469
 30
0.0
 10
187.8152
 20
-73.7469
 30
0.0
 10
187.8152
 20
-73.7469
 30
0.0
 10
187.8152
 20
-70.6353
 30
0.0
 10
187.8152
 20
-70.6353
 30
0.0
 10
187.8152
 20
-70.6353
 30
0.0
 10
187.8152
 20
-70.6353
 30
0.0
 10
188.8763
 20
-70.0202
 30
0.0
 10
188.8763
 20
-70.0202
 30
0.0
 10
188.8763
 20
-70.0202
 30
0.0
 10
188.8763
 20
-70.0202
 30
0.0
 10
188.8739
 20
-74.3607
 30
0.0
 10
188.8739
 20
-74.3607
 30
0.0
  0
SPLINE
  5
AB
330
1F
100
AcDbEntity
  8
layer 1
 62
     7
100
AcDbSpline
210
0.0
220
0.0
230
1.0
 70
    11
 71
     3
 72
    36
 73
    32
 74
     0
 42
0.0000000001
 43
0.0000000001
 12
1.0
 22
0.0
 32
0.0
 13
1.0
 23
0.0
 33
0.0
 40
0.0
 40
0.0
 40
0.0
 40
0.0
 40
0.1111111111111111
 40
0.1111111111111111
 40
0.1111111111111111
 40
0.1111111111111111
 40
0.2222222222222222
 40
0.2222222222222222
 40
0.2222222222222222
 40
0.2222222222222222
 40
0.3333333333333333
 40
0.3333333333333333
 40
0.3333333333333333
 40
0.3333333333333333
 40
0.4444444444444444
 40
0.4444444444444444
 40
0.4444444444444444
 40
0.4444444444444444
 40
0.5555555555555556
 40
0.5555555555555556
 40
0.5555555555555556
 40
0.5555555555555556
 40
0.6666666666666666
 40
0.6666666666666666
 40
0.6666666666666666
 40
0.6666666666666666
 40
0.7777777777777778
 40
0.7777777777777778
 40
0.7777777777777778
 40
0.7777777777777778
 40
1.0
 40
1.0
 40
1.0
 40
1.0
 10
184.4807
 20
-68.7128
 30
0.0
 10
184.4807
 20
-68.7128
 30
0.0
 10
184.4807
 20
-75.6678
 30
0.0
 10
184.4807
 20
-75.6678
 30
0.0
 10
184.4807
 20
-75.6678
 30
0.0
 10
184.4807
 20
-75.6678
 30
0.0
 10
188.8159
 20
-78.1612
 30
0.0
 10
188.8159
 20
-78.1612
 30
0.0
 10
188.8159
 20
-78.1612
 30
0.0
 10
188.8159
 20
-78.1612
 30
0.0
 10
188.8258
 20
-82.5546
 30
0.0
 10
188.8258
 20
-82.5546
 30
0.0
 10
188.8258
 20
-82.5546
 30
0.0
 10
188.8258
 20
-82.5546
 30
0.0
 10
180.665
 20
-77.8421
 30
0.0
 10
180.665
 20
-77.8421
 30
0.0
 10
180.665
 20
-77.8421
 30
0.0
 10
180.665
 20
-77.8421
 30
0.0
 10
180.665
 20
-66.4849
 30
0.0
 10
180.665
 20
-66.4849
 30
0.0
 10
180.665
 20
-66.4849
 30
0.0
 10
180.665
 20
-66.4849
 30
0.0
 10
188.829
 20
-61.7706
 30
0.0
 10
188.829
 20
-61.7706
 30
0.0
 10
188.829
 20
-61.7706
 30
0.0
 10
188.829
 20
-61.7706
 30
0.0
 10
188.8014
 20
-66.2128
 30
0.0
 10
188.8014
 20
-66.2128
 30
0.0
 10
188.8014
 20
-66.2128
 30
0.0
 10
188.8014
 20
-66.2128
 30
0.0
 10
184.4807
 20
-68.7128
 30
0.0
 10
184.4807
 20
-68.7128
 30
0.0
  0
SPLINE
  5
AC
330
1F
100
AcDbEntity
  8
layer 1
 62
     7
100
AcDbSpline
210
0.0
220
0.0
230
1.0
 70
    11
 71
     3
 72
    36
 73
    32
 74
     0
 42
0.0000000001
 43
0.0000000001
 12
1.0
 22
0.0
 32
0.0
 13
1.0
 23
0.0
 33
0.0
 40
0.0
 40
0.0
 40
0.0
 40
0.0
 40
0.1111111111111111
 40
0.1111111111111111
 40
0.1111111111111111
 40
0.1111111111111111
 40
0.2222222222222222
 40
0.2222222222222222
 40
0.2222222222222222
 40
0.2222222222222222
 40
0.3333333333333333
 40
0.3333333333333333
 40
0.3333333333333333
 40
0.3333333333333333
 40
0.4444444444444444
 40
0.4444444444444444
 40
0.4444444444444444
 40
0.4444444444444444
 40
0.5555555555555556
 40
0.5555555555555556
 40
0.5555555555555556
 40
0.5555555555555556
 40
0.6666666666666666
 40
0.6666666666666666
 40
0.6666666666666666
 40
0.6666666666666666
 40
0.7777777777777778
 40
0.7777777777777778
 40
0.7777777777777778
 40
0.7777777777777778
 40
1.0
 40
1.0
 40
1.0
 40
1.0
 10
177.1468
 20
-79.8787
 30
0.0
 10
177.1468
 20
-79.8787
 30
0.0
 10
177.1468
 20
-64.4623
 30
0.0
 10
177.1468
 20
-64.4623
 30
0.0
 10
177.1468
 20
-64.4623
 30
0.0
 10
177.1468
 20
-64.4623
 30
0.0
 10
188.813
 20
-57.7274
 30
0.0
 10
188.813
 20
-57.7274
 30
0.0
 10
188.813
 20
-57.7274
 30
0.0
 10
188.813
 20
-57.7274
 30
0.0
 10
188.8106
 20
-53.5986
 30
0.0
 10
188.8106
 20
-53.5986
 30
0.0
 10
188.8106
 20
-53.5986
 30
0.0
 10
188.8106
 20
-53.5986
 30
0.0
 10
173.4871
 20
-62.4422
 30
0.0
 10
173.4871
 20
-62.4422
 30
0.0
 10
173.4871
 20
-62.4422
 30
0.0
 10
173.4871
 20
-62.4422
 30
0.0
 10
173.4871
 20
-82.0811
 30
0.0
 10
173.4871
 20
-82.0811
 30
0.0
 10
173.4871
 20
-82.0811
 30
0.0
 10
173.4871
 20
-82.0811
 30
0.0
 10
188.8088
 20
-90.9251
 30
0.0
 10
188.8088
 20
-90.9251
 30
0.0
 10
188.8088
 20
-90.9251
 30
0.0
 10
188.8088
 20
-90.9251
 30
0.0
 10
188.8149
 20
-86.6061
 30
0.0
 10
188.8149
 20
-86.6061
 30
0.0
 10
188.8149
 20
-86.6061
 30
0.0
 10
188.8149
 20
-86.6061
 30
0.0
 10
177.1468
 20
-79.8787
 30
0.0
 10
177.1468
 20
-79.8787
 30
0.0
  0
SPLINE
  5
AD
330
1F
100
AcDbEntity
  8
layer 1
 62
     7
100
AcDbSpline
210
0.0
220
0.0
230
1.0
 70
    11
 71
     3
 72
    36
 73
    32
 74
     0
 42
0.0000000001
 43
0.0000000001
 12
1.0
 22
0.0
 32
0.0
 13
1.0
 23
0.0
 33
0.0
 40
0.0
 40
0.0
 40
0.0
 40
0.0
 40
0.1111111111111111
 40
0.1111111111111111
 40
0.1111111111111111
 40
0.1111111111111111
 40
0.2222222222222222
 40
0.2222222222222222
 40
0.2222222222222222
 40
0.2222222222222222
 40
0.3333333333333333
 40
0.3333333333333333
 40
0.3333333333333333
 40
0.3333333333333333
 40
0.4444444444444444
 40
0.4444444444444444
 40
0.4444444444444444
 40
0.4444444444444444
 40
0.5555555555555556
 40
0.5555555555555556
 40
0.5555555555555556
 40
0.5555555555555556
 40
0.6666666666666666
 40
0.6666666666666666
 40
0.6666666666666666
 40
0.6666666666666666
 40
0.7777777777777778
 40
0.7777777777777778
 40
0.7777777777777778
 40
0.7777777777777778
 40
1.0
 40
1.0
 40
1.0
 40
1.0
 10
91.9738
 20
-79.6107
 30
0.0
 10
91.9738
 20
-79.6107
 30
0.0
 10
91.9738
 20
-64.1943
 30
0.0
 10
91.9738
 20
-64.1943
 30
0.0
 10
91.9738
 20
-64.1943
 30
0.0
 10
91.9738
 20
-64.1943
 30
0.0
 10
80.3076
 20
-57.4594
 30
0.0
 10
80.3076
 20
-57.4594
 30
0.0
 10
80.3076
 20
-57.4594
 30
0.0
 10
80.3076
 20
-57.4594
 30
0.0
 10
80.3101
 20
-53.3306
 30
0.0
 10
80.3101
 20
-53.3306
 30
0.0
 10
80.3101
 20
-53.3306
 30
0.0
 10
80.3101
 20
-53.3306
 30
0.0
 10
95.6335
 20
-62.1743
 30
0.0
 10
95.6335
 20
-62.1743
 30
0.0
 10
95.6335
 20
-62.1743
 30
0.0
 10
95.6335
 20
-62.1743
 30
0.0
 10
95.6335
 20
-81.8132
 30
0.0
 10
95.6335
 20
-81.8132
 30
0.0
 10
95.6335
 20
-81.8132
 30
0.0
 10
95.6335
 20
-81.8132
 30
0.0
 10
80.3119
 20
-90.6571
 30
0.0
 10
80.3119
 20
-90.6571
 30
0.0
 10
80.3119
 20
-90.6571
 30
0.0
 10
80.3119
 20
-90.6571
 30
0.0
 10
80.3057
 20
-86.3382
 30
0.0
 10
80.3057
 20
-86.3382
 30
0.0
 10
80.3057
 20
-86.3382
 30
0.0
 10
80.3057
 20
-86.3382
 30
0.0
 10
91.9738
 20
-79.6107
 30
0.0
 10
91.9738
 20
-79.6107
 30
0.0
  0
SPLINE
  5
AE
330
1F
100
AcDbEntity
  8
layer 1
 62
     7
100
AcDbSpline
210
0.0
220
0.0
230
1.0
 70
    11
 71
     3
 72
    20
 73
    16
 74
     0
 42
0.0000000001
 43
0.0000000001
 12
1.0
 22
0.0
 32
0.0
 13
1.0
 23
0.0
 33
0.0
 40
0.0
 40
0.0
 40
0.0
 40
0.0
 40
0.2
 40
0.2
 40
0.2
 40
0.2
 40
0.4
 40
0.4
 40
0.4
 40
0.4
 40
0.6
 40
0.6
 40
0.6
 40
0.6
 40
1.0
 40
1.0
 40
1.0
 40
1.0
 10
81.2988
 20
-73.479
 30
0.0
 10
81.2988
 20
-73.479
 30
0.0
 10
80.2942
 20
-74.0551
 30
0.0
 10
80.2942
 20
-74.0551
 30
0.0
 10
80.2942
 20
-74.0551
 30
0.0
 10
80.2942
 20
-74.0551
 30
0.0
 10
80.2942
 20
-69.7835
 30
0.0
 10
80.2942
 20
-69.7835
 30
0.0
 10
80.2942
 20
-69.7835
 30
0.0
 10
80.2942
 20
-69.7835
 30
0.0
 10
81.2988
 20
-70.3673
 30
0.0
 10
81.2988
 20
-70.3673
 30
0.0
 10
81.2988
 20
-70.3673
 30
0.0
 10
81.2988
 20
-70.3673
 30
0.0
 10
81.2988
 20
-73.479
 30
0.0
 10
81.2988
 20
-73.479
 30
0.0
  0
SPLINE
  5
AF
330
1F
100
AcDbEntity
  8
layer 1
 62
     7
100
AcDbSpline
210
0.0
220
0.0
230
1.0
 70
    11
 71
     3
 72
    40
 73
    36
 74
     0
 42
0.0000000001
 43
0.0000000001
 12
1.0
 22
0.0
 32
0.0
 13
1.0
 23
0.0
 33
0.0
 40
0.0
 40
0.0
 40
0.0
 40
0.0
 40
0.1
 40
0.1
 40
0.1
 40
0.1
 40
0.2
 40
0.2
 40
0.2
 40
0.2
 40
0.3
 40
0.3
 40
0.3
 40
0.3
 40
0.4
 40
0.4
 40
0.4
 40
0.4
 40
0.5
 40
0.5
 40
0.5
 40
0.5
 40
0.6
 40
0.6
 40
0.6
 40
0.6
 40
0.7
 40
0.7
 40
0.7
 40
0.7
 40
0.8
 40
0.8
 40
0.8
 40
0.8
 40
1.0
 40
1.0
 40
1.0
 40
1.0
 10
80.3144
 20
-65.9407
 30
0.0
 10
80.3144
 20
-65.9407
 30
0.0
 10
84.6483
 20
-68.445
 30
0.0
 10
84.6483
 20
-68.445
 30
0.0
 10
84.6483
 20
-68.445
 30
0.0
 10
84.6483
 20
-68.445
 30
0.0
 10
84.6483
 20
-75.4
 30
0.0
 10
84.6483
 20
-75.4
 30
0.0
 10
84.6483
 20
-75.4
 30
0.0
 10
84.6483
 20
-75.4
 30
0.0
 10
80.3131
 20
-77.8934
 30
0.0
 10
80.3131
 20
-77.8934
 30
0.0
 10
80.3131
 20
-77.8934
 30
0.0
 10
80.3131
 20
-77.8934
 30
0.0
 10
80.3032
 20
-82.2867
 30
0.0
 10
80.3032
 20
-82.2867
 30
0.0
 10
80.3032
 20
-82.2867
 30
0.0
 10
80.3032
 20
-82.2867
 30
0.0
 10
88.464
 20
-77.5743
 30
0.0
 10
88.464
 20
-77.5743
 30
0.0
 10
88.464
 20
-77.5743
 30
0.0
 10
88.464
 20
-77.5743
 30
0.0
 10
88.464
 20
-66.217
 30
0.0
 10
88.464
 20
-66.217
 30
0.0
 10
88.464
 20
-66.217
 30
0.0
 10
88.464
 20
-66.217
 30
0.0
 10
80.3
 20
-61.5028
 30
0.0
 10
80.3
 20
-61.5028
 30
0.0
 10
80.3
 20
-61.5028
 30
0.0
 10
80.3
 20
-61.5028
 30
0.0
 10
80.3408
 20
-65.9492
 30
0.0
 10
80.3408
 20
-65.9492
 30
0.0
 10
80.3408
 20
-65.9492
 30
0.0
 10
80.3408
 20
-65.9492
 30
0.0
 10
80.3144
 20
-65.9407
 30
0.0
 10
80.3144
 20
-65.9407
 30
0.0
  0
SPLINE
  5
B0
330
1F
100
AcDbEntity
  8
layer 1
 62
     7
100
AcDbSpline
210
0.0
220
0.0
230
1.0
 70
    27
 71
     3
 72
    12
 73
     8
 74
     0
 42
0.0000000001
 43
0.0000000001
 12
1.0
 22
0.0
 32
0.0
 13
1.0
 23
0.0
 33
0.0
 40
0.0
 40
0.0
 40
0.0
 40
0.0
 40
0.3333333333333333
 40
0.3333333333333333
 40
0.3333333333333333
 40
0.3333333333333333
 40
1.0
 40
1.0
 40
1.0
 40
1.0
 10
80.3144
 20
-65.9407
 30
0.0
 10
80.3144
 20
-65.9407
 30
0.0
 10
80.3144
 20
-65.9407
 30
0.0
 10
80.3144
 20
-65.9407
 30
0.0
 10
80.3144
 20
-65.9407
 30
0.0
 10
80.3144
 20
-65.9407
 30
0.0
 10
80.3144
 20
-65.9407
 30
0.0
 10
80.3144
 20
-65.9407
 30
0.0
  0
SPLINE
  5
B1
330
1F
100
AcDbEntity
  8
layer 1
 62
     7
100
AcDbSpline
210
0.0
220
0.0
230
1.0
 70
    11
 71
     3
 72
    28
 73
    24
 74
     0
 42
0.0000000001
 43
0.0000000001
 12
1.0
 22
0.0
 32
0.0
 13
1.0
 23
0.0
 33
0.0
 40
0.0
 40
0.0
 40
0.0
 40
0.0
 40
0.1428571428571428
 40
0.1428571428571428
 40
0.1428571428571428
 40
0.1428571428571428
 40
0.2857142857142857
 40
0.2857142857142857
 40
0.2857142857142857
 40
0.2857142857142857
 40
0.4285714285714285
 40
0.4285714285714285
 40
0.4285714285714285
 40
0.4285714285714285
 40
0.5714285714285714
 40
0.5714285714285714
 40
0.5714285714285714
 40
0.5714285714285714
 40
0.7142857142857143
 40
0.7142857142857143
 40
0.7142857142857143
 40
0.7142857142857143
 40
1.0
 40
1.0
 40
1.0
 40
1.0
 10
100.0107
 20
-106.1393
 30
0.0
 10
100.0107
 20
-106.1393
 30
0.0
 10
97.3271
 20
-107.6951
 30
0.0
 10
97.3271
 20
-107.6951
 30
0.0
 10
97.3271
 20
-107.6951
 30
0.0
 10
97.3271
 20
-107.6951
 30
0.0
 10
94.6434
 20
-106.1393
 30
0.0
 10
94.6434
 20
-106.1393
 30
0.0
 10
94.6434
 20
-106.1393
 30
0.0
 10
94.6434
 20
-106.1393
 30
0.0
 10
94.6434
 20
-103.0277
 30
0.0
 10
94.6434
 20
-103.0277
 30
0.0
 10
94.6434
 20
-103.0277
 30
0.0
 10
94.6434
 20
-103.0277
 30
0.0
 10
97.3271
 20
-101.4718
 30
0.0
 10
97.3271
 20
-101.4718
 30
0.0
 10
97.3271
 20
-101.4718
 30
0.0
 10
97.3271
 20
-101.4718
 30
0.0
 10
100.0107
 20
-103.0277
 30
0.0
 10
100.0107
 20
-103.0277
 30
0.0
 10
100.0107
 20
-103.0277
 30
0.0
 10
100.0107
 20
-103.0277
 30
0.0
 10
100.0107
 20
-106.1393
 30
0.0
 10
100.0107
 20
-106.1393
 30
0.0
  0
SPLINE
  5
B2
330
1F
100
AcDbEntity
  8
layer 1
 62
     7
100
AcDbSpline
210
0.0
220
0.0
230
1.0
 70
    11
 71
     3
 72
    28
 73
    24
 74
     0
 42
0.0000000001
 43
0.0000000001
 12
1.0
 22
0.0
 32
0.0
 13
1.0
 23
0.0
 33
0.0
 40
0.0
 40
0.0
 40
0.0
 40
0.0
 40
0.1428571428571428
 40
0.1428571428571428
 40
0.1428571428571428
 40
0.1428571428571428
 40
0.2857142857142857
 40
0.2857142857142857
 40
0.2857142857142857
 40
0.2857142857142857
 40
0.4285714285714285
 40
0.4285714285714285
 40
0.4285714285714285
 40
0.4285714285714285
 40
0.5714285714285714
 40
0.5714285714285714
 40
0.5714285714285714
 40
0.5714285714285714
 40
0.7142857142857143
 40
0.7142857142857143
 40
0.7142857142857143
 40
0.7142857142857143
 40
1.0
 40
1.0
 40
1.0
 40
1.0
 10
91.3089
 20
-101.1052
 30
0.0
 10
91.3089
 20
-101.1052
 30
0.0
 10
91.3089
 20
-107.7082
 30
0.0
 10
91.3089
 20
-107.7082
 30
0.0
 10
91.3089
 20
-107.7082
 30
0.0
 10
91.3089
 20
-107.7082
 30
0.0
 10
87.4931
 20
-107.7082
 30
0.0
 10
87.4931
 20
-107.7082
 30
0.0
 10
87.4931
 20
-107.7082
 30
0.0
 10
87.4931
 20
-107.7082
 30
0.0
 10
87.4931
 20
-98.8772
 30
0.0
 10
87.4931
 20
-98.8772
 30
0.0
 10
87.4931
 20
-98.8772
 30
0.0
 10
87.4931
 20
-98.8772
 30
0.0
 10
95.6571
 20
-94.163
 30
0.0
 10
95.6571
 20
-94.163
 30
0.0
 10
95.6571
 20
-94.163
 30
0.0
 10
95.6571
 20
-94.163
 30
0.0
 10
95.6296
 20
-98.6051
 30
0.0
 10
95.6296
 20
-98.6051
 30
0.0
 10
95.6296
 20
-98.6051
 30
0.0
 10
95.6296
 20
-98.6051
 30
0.0
 10
91.3089
 20
-101.1052
 30
0.0
 10
91.3089
 20
-101.1052
 30
0.0
  0
SPLINE
  5
B3
330
1F
100
AcDbEntity
  8
layer 1
 62
     7
100
AcDbSpline
210
0.0
220
0.0
230
1.0
 70
    11
 71
     3
 72
    28
 73
    24
 74
     0
 42
0.0000000001
 43
0.0000000001
 12
1.0
 22
0.0
 32
0.0
 13
1.0
 23
0.0
 33
0.0
 40
0.0
 40
0.0
 40
0.0
 40
0.0
 40
0.1428571428571428
 40
0.1428571428571428
 40
0.1428571428571428
 40
0.1428571428571428
 40
0.2857142857142857
 40
0.2857142857142857
 40
0.2857142857142857
 40
0.2857142857142857
 40
0.4285714285714285
 40
0.4285714285714285
 40
0.4285714285714285
 40
0.4285714285714285
 40
0.5714285714285714
 40
0.5714285714285714
 40
0.5714285714285714
 40
0.5714285714285714
 40
0.7142857142857143
 40
0.7142857142857143
 40
0.7142857142857143
 40
0.7142857142857143
 40
1.0
 40
1.0
 40
1.0
 40
1.0
 10
83.975
 20
-107.6655
 30
0.0
 10
83.975
 20
-107.6655
 30
0.0
 10
83.975
 20
-96.8547
 30
0.0
 10
83.975
 20
-96.8547
 30
0.0
 10
83.975
 20
-96.8547
 30
0.0
 10
83.975
 20
-96.8547
 30
0.0
 10
95.6413
 20
-90.1198
 30
0.0
 10
95.6413
 20
-90.1198
 30
0.0
 10
95.6413
 20
-90.1198
 30
0.0
 10
95.6413
 20
-90.1198
 30
0.0
 10
95.6388
 20
-85.991
 30
0.0
 10
95.6388
 20
-85.991
 30
0.0
 10
95.6388
 20
-85.991
 30
0.0
 10
95.6388
 20
-85.991
 30
0.0
 10
80.3153
 20
-94.8347
 30
0.0
 10
80.3153
 20
-94.8347
 30
0.0
 10
80.3153
 20
-94.8347
 30
0.0
 10
80.3153
 20
-94.8347
 30
0.0
 10
80.3153
 20
-107.6999
 30
0.0
 10
80.3153
 20
-107.6999
 30
0.0
 10
80.3153
 20
-107.6999
 30
0.0
 10
80.3153
 20
-107.6999
 30
0.0
 10
83.975
 20
-107.6655
 30
0.0
 10
83.975
 20
-107.6655
 30
0.0
  0
SPLINE
  5
B4
330
1F
100
AcDbEntity
  8
layer 1
 62
     7
100
AcDbSpline
210
0.0
220
0.0
230
1.0
 70
    11
 71
     3
 72
    32
 73
    28
 74
     0
 42
0.0000000001
 43
0.0000000001
 12
1.0
 22
0.0
 32
0.0
 13
1.0
 23
0.0
 33
0.0
 40
0.0
 40
0.0
 40
0.0
 40
0.0
 40
0.125
 40
0.125
 40
0.125
 40
0.125
 40
0.25
 40
0.25
 40
0.25
 40
0.25
 40
0.375
 40
0.375
 40
0.375
 40
0.375
 40
0.5
 40
0.5
 40
0.5
 40
0.5
 40
0.625
 40
0.625
 40
0.625
 40
0.625
 40
0.75
 40
0.75
 40
0.75
 40
0.75
 40
1.0
 40
1.0
 40
1.0
 40
1.0
 10
99.0263
 20
-98.6009
 30
0.0
 10
99.0263
 20
-98.6009
 30
0.0
 10
103.3602
 20
-101.1052
 30
0.0
 10
103.3602
 20
-101.1052
 30
0.0
 10
103.3602
 20
-101.1052
 30
0.0
 10
103.3602
 20
-101.1052
 30
0.0
 10
103.3602
 20
-107.7082
 30
0.0
 10
103.3602
 20
-107.7082
 30
0.0
 10
103.3602
 20
-107.7082
 30
0.0
 10
103.3602
 20
-107.7082
 30
0.0
 10
107.176
 20
-107.7347
 30
0.0
 10
107.176
 20
-107.7347
 30
0.0
 10
107.176
 20
-107.7347
 30
0.0
 10
107.176
 20
-107.7347
 30
0.0
 10
107.176
 20
-98.8771
 30
0.0
 10
107.176
 20
-98.8771
 30
0.0
 10
107.176
 20
-98.8771
 30
0.0
 10
107.176
 20
-98.8771
 30
0.0
 10
99.0119
 20
-94.1629
 30
0.0
 10
99.0119
 20
-94.1629
 30
0.0
 10
99.0119
 20
-94.1629
 30
0.0
 10
99.0119
 20
-94.1629
 30
0.0
 10
99.0527
 20
-98.6093
 30
0.0
 10
99.0527
 20
-98.6093
 30
0.0
 10
99.0527
 20
-98.6093
 30
0.0
 10
99.0527
 20
-98.6093
 30
0.0
 10
99.0263
 20
-98.6009
 30
0.0
 10
99.0263
 20
-98.6009
 30
0.0
  0
SPLINE
  5
B5
330
1F
100
AcDbEntity
  8
layer 1
 62
     7
100
AcDbSpline
210
0.0
220
0.0
230
1.0
 70
    27
 71
     3
 72
    12
 73
     8
 74
     0
 42
0.0000000001
 43
0.0000000001
 12
1.0
 22
0.0
 32
0.0
 13
1.0
 23
0.0
 33
0.0
 40
0.0
 40
0.0
 40
0.0
 40
0.0
 40
0.3333333333333333
 40
0.3333333333333333
 40
0.3333333333333333
 40
0.3333333333333333
 40
1.0
 40
1.0
 40
1.0
 40
1.0
 10
99.0263
 20
-98.6009
 30
0.0
 10
99.0263
 20
-98.6009
 30
0.0
 10
99.0263
 20
-98.6009
 30
0.0
 10
99.0263
 20
-98.6009
 30
0.0
 10
99.0263
 20
-98.6009
 30
0.0
 10
99.0263
 20
-98.6009
 30
0.0
 10
99.0263
 20
-98.6009
 30
0.0
 10
99.0263
 20
-98.6009
 30
0.0
  0
SPLINE
  5
B6
330
1F
100
AcDbEntity
  8
layer 1
 62
     7
100
AcDbSpline
210
0.0
220
0.0
230
1.0
 70
    11
 71
     3
 72
    28
 73
    24
 74
     0
 42
0.0000000001
 43
0.0000000001
 12
1.0
 22
0.0
 32
0.0
 13
1.0
 23
0.0
 33
0.0
 40
0.0
 40
0.0
 40
0.0
 40
0.0
 40
0.1428571428571428
 40
0.1428571428571428
 40
0.1428571428571428
 40
0.1428571428571428
 40
0.2857142857142857
 40
0.2857142857142857
 40
0.2857142857142857
 40
0.2857142857142857
 40
0.4285714285714285
 40
0.4285714285714285
 40
0.4285714285714285
 40
0.4285714285714285
 40
0.5714285714285714
 40
0.5714285714285714
 40
0.5714285714285714
 40
0.5714285714285714
 40
0.7142857142857143
 40
0.7142857142857143
 40
0.7142857142857143
 40
0.7142857142857143
 40
1.0
 40
1.0
 40
1.0
 40
1.0
 10
110.6857
 20
-107.7173
 30
0.0
 10
110.6857
 20
-107.7173
 30
0.0
 10
110.6857
 20
-96.8546
 30
0.0
 10
110.6857
 20
-96.8546
 30
0.0
 10
110.6857
 20
-96.8546
 30
0.0
 10
110.6857
 20
-96.8546
 30
0.0
 10
99.0195
 20
-90.1197
 30
0.0
 10
99.0195
 20
-90.1197
 30
0.0
 10
99.0195
 20
-90.1197
 30
0.0
 10
99.0195
 20
-90.1197
 30
0.0
 10
99.022
 20
-85.9909
 30
0.0
 10
99.022
 20
-85.9909
 30
0.0
 10
99.022
 20
-85.9909
 30
0.0
 10
99.022
 20
-85.9909
 30
0.0
 10
114.3454
 20
-94.8346
 30
0.0
 10
114.3454
 20
-94.8346
 30
0.0
 10
114.3454
 20
-94.8346
 30
0.0
 10
114.3454
 20
-94.8346
 30
0.0
 10
114.3386
 20
-107.6999
 30
0.0
 10
114.3386
 20
-107.6999
 30
0.0
 10
114.3386
 20
-107.6999
 30
0.0
 10
114.3386
 20
-107.6999
 30
0.0
 10
110.6857
 20
-107.7173
 30
0.0
 10
110.6857
 20
-107.7173
 30
0.0
  0
SPLINE
  5
B7
330
1F
100
AcDbEntity
  8
layer 1
 62
     7
100
AcDbSpline
210
0.0
220
0.0
230
1.0
 70
    11
 71
     3
 72
    28
 73
    24
 74
     0
 42
0.0000000001
 43
0.0000000001
 12
1.0
 22
0.0
 32
0.0
 13
1.0
 23
0.0
 33
0.0
 40
0.0
 40
0.0
 40
0.0
 40
0.0
 40
0.1428571428571428
 40
0.1428571428571428
 40
0.1428571428571428
 40
0.1428571428571428
 40
0.2857142857142857
 40
0.2857142857142857
 40
0.2857142857142857
 40
0.2857142857142857
 40
0.4285714285714285
 40
0.4285714285714285
 40
0.4285714285714285
 40
0.4285714285714285
 40
0.5714285714285714
 40
0.5714285714285714
 40
0.5714285714285714
 40
0.5714285714285714
 40
0.7142857142857143
 40
0.7142857142857143
 40
0.7142857142857143
 40
0.7142857142857143
 40
1.0
 40
1.0
 40
1.0
 40
1.0
 10
174.8319
 20
-106.1393
 30
0.0
 10
174.8319
 20
-106.1393
 30
0.0
 10
172.1482
 20
-107.6951
 30
0.0
 10
172.1482
 20
-107.6951
 30
0.0
 10
172.1482
 20
-107.6951
 30
0.0
 10
172.1482
 20
-107.6951
 30
0.0
 10
169.4646
 20
-106.1393
 30
0.0
 10
169.4646
 20
-106.1393
 30
0.0
 10
169.4646
 20
-106.1393
 30
0.0
 10
169.4646
 20
-106.1393
 30
0.0
 10
169.4646
 20
-103.0277
 30
0.0
 10
169.4646
 20
-103.0277
 30
0.0
 10
169.4646
 20
-103.0277
 30
0.0
 10
169.4646
 20
-103.0277
 30
0.0
 10
172.1482
 20
-101.4718
 30
0.0
 10
172.1482
 20
-101.4718
 30
0.0
 10
172.1482
 20
-101.4718
 30
0.0
 10
172.1482
 20
-101.4718
 30
0.0
 10
174.8319
 20
-103.0277
 30
0.0
 10
174.8319
 20
-103.0277
 30
0.0
 10
174.8319
 20
-103.0277
 30
0.0
 10
174.8319
 20
-103.0277
 30
0.0
 10
174.8319
 20
-106.1393
 30
0.0
 10
174.8319
 20
-106.1393
 30
0.0
  0
SPLINE
  5
B8
330
1F
100
AcDbEntity
  8
layer 1
 62
     7
100
AcDbSpline
210
0.0
220
0.0
230
1.0
 70
    11
 71
     3
 72
    28
 73
    24
 74
     0
 42
0.0000000001
 43
0.0000000001
 12
1.0
 22
0.0
 32
0.0
 13
1.0
 23
0.0
 33
0.0
 40
0.0
 40
0.0
 40
0.0
 40
0.0
 40
0.1428571428571428
 40
0.1428571428571428
 40
0.1428571428571428
 40
0.1428571428571428
 40
0.2857142857142857
 40
0.2857142857142857
 40
0.2857142857142857
 40
0.2857142857142857
 40
0.4285714285714285
 40
0.4285714285714285
 40
0.4285714285714285
 40
0.4285714285714285
 40
0.5714285714285714
 40
0.5714285714285714
 40
0.5714285714285714
 40
0.5714285714285714
 40
0.7142857142857143
 40
0.7142857142857143
 40
0.7142857142857143
 40
0.7142857142857143
 40
1.0
 40
1.0
 40
1.0
 40
1.0
 10
166.13
 20
-101.1052
 30
0.0
 10
166.13
 20
-101.1052
 30
0.0
 10
166.13
 20
-107.7082
 30
0.0
 10
166.13
 20
-107.7082
 30
0.0
 10
166.13
 20
-107.7082
 30
0.0
 10
166.13
 20
-107.7082
 30
0.0
 10
162.3142
 20
-107.7082
 30
0.0
 10
162.3142
 20
-107.7082
 30
0.0
 10
162.3142
 20
-107.7082
 30
0.0
 10
162.3142
 20
-107.7082
 30
0.0
 10
162.3142
 20
-98.8772
 30
0.0
 10
162.3142
 20
-98.8772
 30
0.0
 10
162.3142
 20
-98.8772
 30
0.0
 10
162.3142
 20
-98.8772
 30
0.0
 10
170.4782
 20
-94.163
 30
0.0
 10
170.4782
 20
-94.163
 30
0.0
 10
170.4782
 20
-94.163
 30
0.0
 10
170.4782
 20
-94.163
 30
0.0
 10
170.4506
 20
-98.6051
 30
0.0
 10
170.4506
 20
-98.6051
 30
0.0
 10
170.4506
 20
-98.6051
 30
0.0
 10
170.4506
 20
-98.6051
 30
0.0
 10
166.13
 20
-101.1052
 30
0.0
 10
166.13
 20
-101.1052
 30
0.0
  0
SPLINE
  5
B9
330
1F
100
AcDbEntity
  8
layer 1
 62
     7
100
AcDbSpline
210
0.0
220
0.0
230
1.0
 70
    11
 71
     3
 72
    28
 73
    24
 74
     0
 42
0.0000000001
 43
0.0000000001
 12
1.0
 22
0.0
 32
0.0
 13
1.0
 23
0.0
 33
0.0
 40
0.0
 40
0.0
 40
0.0
 40
0.0
 40
0.1428571428571428
 40
0.1428571428571428
 40
0.1428571428571428
 40
0.1428571428571428
 40
0.2857142857142857
 40
0.2857142857142857
 40
0.2857142857142857
 40
0.2857142857142857
 40
0.4285714285714285
 40
0.4285714285714285
 40
0.4285714285714285
 40
0.4285714285714285
 40
0.5714285714285714
 40
0.5714285714285714
 40
0.5714285714285714
 40
0.5714285714285714
 40
0.7142857142857143
 40
0.7142857142857143
 40
0.7142857142857143
 40
0.7142857142857143
 40
1.0
 40
1.0
 40
1.0
 40
1.0
 10
158.7961
 20
-107.6655
 30
0.0
 10
158.7961
 20
-107.6655
 30
0.0
 10
158.7961
 20
-96.8547
 30
0.0
 10
158.7961
 20
-96.8547
 30
0.0
 10
158.7961
 20
-96.8547
 30
0.0
 10
158.7961
 20
-96.8547
 30
0.0
 10
170.4623
 20
-90.1198
 30
0.0
 10
170.4623
 20
-90.1198
 30
0.0
 10
170.4623
 20
-90.1198
 30
0.0
 10
170.4623
 20
-90.1198
 30
0.0
 10
170.4599
 20
-85.991
 30
0.0
 10
170.4599
 20
-85.991
 30
0.0
 10
170.4599
 20
-85.991
 30
0.0
 10
170.4599
 20
-85.991
 30
0.0
 10
155.1364
 20
-94.8347
 30
0.0
 10
155.1364
 20
-94.8347
 30
0.0
 10
155.1364
 20
-94.8347
 30
0.0
 10
155.1364
 20
-94.8347
 30
0.0
 10
155.1364
 20
-107.6999
 30
0.0
 10
155.1364
 20
-107.6999
 30
0.0
 10
155.1364
 20
-107.6999
 30
0.0
 10
155.1364
 20
-107.6999
 30
0.0
 10
158.7961
 20
-107.6655
 30
0.0
 10
158.7961
 20
-107.6655
 30
0.0
  0
SPLINE
  5
BA
330
1F
100
AcDbEntity
  8
layer 1
 62
     7
100
AcDbSpline
210
0.0
220
0.0
230
1.0
 70
    11
 71
     3
 72
    32
 73
    28
 74
     0
 42
0.0000000001
 43
0.0000000001
 12
1.0
 22
0.0
 32
0.0
 13
1.0
 23
0.0
 33
0.0
 40
0.0
 40
0.0
 40
0.0
 40
0.0
 40
0.125
 40
0.125
 40
0.125
 40
0.125
 40
0.25
 40
0.25
 40
0.25
 40
0.25
 40
0.375
 40
0.375
 40
0.375
 40
0.375
 40
0.5
 40
0.5
 40
0.5
 40
0.5
 40
0.625
 40
0.625
 40
0.625
 40
0.625
 40
0.75
 40
0.75
 40
0.75
 40
0.75
 40
1.0
 40
1.0
 40
1.0
 40
1.0
 10
173.8474
 20
-98.6009
 30
0.0
 10
173.8474
 20
-98.6009
 30
0.0
 10
178.1813
 20
-101.1052
 30
0.0
 10
178.1813
 20
-101.1052
 30
0.0
 10
178.1813
 20
-101.1052
 30
0.0
 10
178.1813
 20
-101.1052
 30
0.0
 10
178.1813
 20
-107.7082
 30
0.0
 10
178.1813
 20
-107.7082
 30
0.0
 10
178.1813
 20
-107.7082
 30
0.0
 10
178.1813
 20
-107.7082
 30
0.0
 10
181.9971
 20
-107.7347
 30
0.0
 10
181.9971
 20
-107.7347
 30
0.0
 10
181.9971
 20
-107.7347
 30
0.0
 10
181.9971
 20
-107.7347
 30
0.0
 10
181.9971
 20
-98.8771
 30
0.0
 10
181.9971
 20
-98.8771
 30
0.0
 10
181.9971
 20
-98.8771
 30
0.0
 10
181.9971
 20
-98.8771
 30
0.0
 10
173.8331
 20
-94.1629
 30
0.0
 10
173.8331
 20
-94.1629
 30
0.0
 10
173.8331
 20
-94.1629
 30
0.0
 10
173.8331
 20
-94.1629
 30
0.0
 10
173.8739
 20
-98.6093
 30
0.0
 10
173.8739
 20
-98.6093
 30
0.0
 10
173.8739
 20
-98.6093
 30
0.0
 10
173.8739
 20
-98.6093
 30
0.0
 10
173.8474
 20
-98.6009
 30
0.0
 10
173.8474
 20
-98.6009
 30
0.0
  0
SPLINE
  5
BB
330
1F
100
AcDbEntity
  8
layer 1
 62
     7
100
AcDbSpline
210
0.0
220
0.0
230
1.0
 70
    27
 71
     3
 72
    12
 73
     8
 74
     0
 42
0.0000000001
 43
0.0000000001
 12
1.0
 22
0.0
 32
0.0
 13
1.0
 23
0.0
 33
0.0
 40
0.0
 40
0.0
 40
0.0
 40
0.0
 40
0.3333333333333333
 40
0.3333333333333333
 40
0.3333333333333333
 40
0.3333333333333333
 40
1.0
 40
1.0
 40
1.0
 40
1.0
 10
173.8474
 20
-98.6009
 30
0.0
 10
173.8474
 20
-98.6009
 30
0.0
 10
173.8474
 20
-98.6009
 30
0.0
 10
173.8474
 20
-98.6009
 30
0.0
 10
173.8474
 20
-98.6009
 30
0.0
 10
173.8474
 20
-98.6009
 30
0.0
 10
173.8474
 20
-98.6009
 30
0.0
 10
173.8474
 20
-98.6009
 30
0.0
  0
SPLINE
  5
BC
330
1F
100
AcDbEntity
  8
layer 1
 62
     7
100
AcDbSpline
210
0.0
220
0.0
230
1.0
 70
    11
 71
     3
 72
    28
 73
    24
 74
     0
 42
0.0000000001
 43
0.0000000001
 12
1.0
 22
0.0
 32
0.0
 13
1.0
 23
0.0
 33
0.0
 40
0.0
 40
0.0
 40
0.0
 40
0.0
 40
0.1428571428571428
 40
0.1428571428571428
 40
0.1428571428571428
 40
0.1428571428571428
 40
0.2857142857142857
 40
0.2857142857142857
 40
0.2857142857142857
 40
0.2857142857142857
 40
0.4285714285714285
 40
0.4285714285714285
 40
0.4285714285714285
 40
0.4285714285714285
 40
0.5714285714285714
 40
0.5714285714285714
 40
0.5714285714285714
 40
0.5714285714285714
 40
0.7142857142857143
 40
0.7142857142857143
 40
0.7142857142857143
 40
0.7142857142857143
 40
1.0
 40
1.0
 40
1.0
 40
1.0
 10
185.5068
 20
-107.7173
 30
0.0
 10
185.5068
 20
-107.7173
 30
0.0
 10
185.5068
 20
-96.8546
 30
0.0
 10
185.5068
 20
-96.8546
 30
0.0
 10
185.5068
 20
-96.8546
 30
0.0
 10
185.5068
 20
-96.8546
 30
0.0
 10
173.8405
 20
-90.1197
 30
0.0
 10
173.8405
 20
-90.1197
 30
0.0
 10
173.8405
 20
-90.1197
 30
0.0
 10
173.8405
 20
-90.1197
 30
0.0
 10
173.843
 20
-85.9909
 30
0.0
 10
173.843
 20
-85.9909
 30
0.0
 10
173.843
 20
-85.9909
 30
0.0
 10
173.843
 20
-85.9909
 30
0.0
 10
189.1665
 20
-94.8346
 30
0.0
 10
189.1665
 20
-94.8346
 30
0.0
 10
189.1665
 20
-94.8346
 30
0.0
 10
189.1665
 20
-94.8346
 30
0.0
 10
189.1597
 20
-107.6999
 30
0.0
 10
189.1597
 20
-107.6999
 30
0.0
 10
189.1597
 20
-107.6999
 30
0.0
 10
189.1597
 20
-107.6999
 30
0.0
 10
185.5068
 20
-107.7173
 30
0.0
 10
185.5068
 20
-107.7173
 30
0.0
  0
SPLINE
  5
BD
330
1F
100
AcDbEntity
  8
layer 1
 62
     7
100
AcDbSpline
210
0.0
220
0.0
230
1.0
 70
    11
 71
     3
 72
    28
 73
    24
 74
     0
 42
0.0000000001
 43
0.0000000001
 12
1.0
 22
0.0
 32
0.0
 13
1.0
 23
0.0
 33
0.0
 40
0.0
 40
0.0
 40
0.0
 40
0.0
 40
0.1428571428571428
 40
0.1428571428571428
 40
0.1428571428571428
 40
0.1428571428571428
 40
0.2857142857142857
 40
0.2857142857142857
 40
0.2857142857142857
 40
0.2857142857142857
 40
0.4285714285714285
 40
0.4285714285714285
 40
0.4285714285714285
 40
0.4285714285714285
 40
0.5714285714285714
 40
0.5714285714285714
 40
0.5714285714285714
 40
0.5714285714285714
 40
0.7142857142857143
 40
0.7142857142857143
 40
0.7142857142857143
 40
0.7142857142857143
 40
1.0
 40
1.0
 40
1.0
 40
1.0
 10
137.4268
 20
-106.1393
 30
0.0
 10
137.4268
 20
-106.1393
 30
0.0
 10
134.7431
 20
-107.6951
 30
0.0
 10
134.7431
 20
-107.6951
 30
0.0
 10
134.7431
 20
-107.6951
 30
0.0
 10
134.7431
 20
-107.6951
 30
0.0
 10
132.0595
 20
-106.1393
 30
0.0
 10
132.0595
 20
-106.1393
 30
0.0
 10
132.0595
 20
-106.1393
 30
0.0
 10
132.0595
 20
-106.1393
 30
0.0
 10
132.0595
 20
-103.0277
 30
0.0
 10
132.0595
 20
-103.0277
 30
0.0
 10
132.0595
 20
-103.0277
 30
0.0
 10
132.0595
 20
-103.0277
 30
0.0
 10
134.7431
 20
-101.4718
 30
0.0
 10
134.7431
 20
-101.4718
 30
0.0
 10
134.7431
 20
-101.4718
 30
0.0
 10
134.7431
 20
-101.4718
 30
0.0
 10
137.4268
 20
-103.0277
 30
0.0
 10
137.4268
 20
-103.0277
 30
0.0
 10
137.4268
 20
-103.0277
 30
0.0
 10
137.4268
 20
-103.0277
 30
0.0
 10
137.4268
 20
-106.1393
 30
0.0
 10
137.4268
 20
-106.1393
 30
0.0
  0
SPLINE
  5
BE
330
1F
100
AcDbEntity
  8
layer 1
 62
     7
100
AcDbSpline
210
0.0
220
0.0
230
1.0
 70
    11
 71
     3
 72
    28
 73
    24
 74
     0
 42
0.0000000001
 43
0.0000000001
 12
1.0
 22
0.0
 32
0.0
 13
1.0
 23
0.0
 33
0.0
 40
0.0
 40
0.0
 40
0.0
 40
0.0
 40
0.1428571428571428
 40
0.1428571428571428
 40
0.1428571428571428
 40
0.1428571428571428
 40
0.2857142857142857
 40
0.2857142857142857
 40
0.2857142857142857
 40
0.2857142857142857
 40
0.4285714285714285
 40
0.4285714285714285
 40
0.4285714285714285
 40
0.4285714285714285
 40
0.5714285714285714
 40
0.5714285714285714
 40
0.5714285714285714
 40
0.5714285714285714
 40
0.7142857142857143
 40
0.7142857142857143
 40
0.7142857142857143
 40
0.7142857142857143
 40
1.0
 40
1.0
 40
1.0
 40
1.0
 10
128.7249
 20
-101.1052
 30
0.0
 10
128.7249
 20
-101.1052
 30
0.0
 10
128.7249
 20
-107.7082
 30
0.0
 10
128.7249
 20
-107.7082
 30
0.0
 10
128.7249
 20
-107.7082
 30
0.0
 10
128.7249
 20
-107.7082
 30
0.0
 10
124.9091
 20
-107.7082
 30
0.0
 10
124.9091
 20
-107.7082
 30
0.0
 10
124.9091
 20
-107.7082
 30
0.0
 10
124.9091
 20
-107.7082
 30
0.0
 10
124.9091
 20
-98.8772
 30
0.0
 10
124.9091
 20
-98.8772
 30
0.0
 10
124.9091
 20
-98.8772
 30
0.0
 10
124.9091
 20
-98.8772
 30
0.0
 10
133.0731
 20
-94.163
 30
0.0
 10
133.0731
 20
-94.163
 30
0.0
 10
133.0731
 20
-94.163
 30
0.0
 10
133.0731
 20
-94.163
 30
0.0
 10
133.0455
 20
-98.6051
 30
0.0
 10
133.0455
 20
-98.6051
 30
0.0
 10
133.0455
 20
-98.6051
 30
0.0
 10
133.0455
 20
-98.6051
 30
0.0
 10
128.7249
 20
-101.1052
 30
0.0
 10
128.7249
 20
-101.1052
 30
0.0
  0
SPLINE
  5
BF
330
1F
100
AcDbEntity
  8
layer 1
 62
     7
100
AcDbSpline
210
0.0
220
0.0
230
1.0
 70
    11
 71
     3
 72
    28
 73
    24
 74
     0
 42
0.0000000001
 43
0.0000000001
 12
1.0
 22
0.0
 32
0.0
 13
1.0
 23
0.0
 33
0.0
 40
0.0
 40
0.0
 40
0.0
 40
0.0
 40
0.1428571428571428
 40
0.1428571428571428
 40
0.1428571428571428
 40
0.1428571428571428
 40
0.2857142857142857
 40
0.2857142857142857
 40
0.2857142857142857
 40
0.2857142857142857
 40
0.4285714285714285
 40
0.4285714285714285
 40
0.4285714285714285
 40
0.4285714285714285
 40
0.5714285714285714
 40
0.5714285714285714
 40
0.5714285714285714
 40
0.5714285714285714
 40
0.7142857142857143
 40
0.7142857142857143
 40
0.7142857142857143
 40
0.7142857142857143
 40
1.0
 40
1.0
 40
1.0
 40
1.0
 10
121.391
 20
-107.6655
 30
0.0
 10
121.391
 20
-107.6655
 30
0.0
 10
121.391
 20
-96.8547
 30
0.0
 10
121.391
 20
-96.8547
 30
0.0
 10
121.391
 20
-96.8547
 30
0.0
 10
121.391
 20
-96.8547
 30
0.0
 10
133.0572
 20
-90.1198
 30
0.0
 10
133.0572
 20
-90.1198
 30
0.0
 10
133.0572
 20
-90.1198
 30
0.0
 10
133.0572
 20
-90.1198
 30
0.0
 10
133.0548
 20
-85.991
 30
0.0
 10
133.0548
 20
-85.991
 30
0.0
 10
133.0548
 20
-85.991
 30
0.0
 10
133.0548
 20
-85.991
 30
0.0
 10
117.7313
 20
-94.8347
 30
0.0
 10
117.7313
 20
-94.8347
 30
0.0
 10
117.7313
 20
-94.8347
 30
0.0
 10
117.7313
 20
-94.8347
 30
0.0
 10
117.7313
 20
-107.6999
 30
0.0
 10
117.7313
 20
-107.6999
 30
0.0
 10
117.7313
 20
-107.6999
 30
0.0
 10
117.7313
 20
-107.6999
 30
0.0
 10
121.391
 20
-107.6655
 30
0.0
 10
121.391
 20
-107.6655
 30
0.0
  0
SPLINE
  5
C0
330
1F
100
AcDbEntity
  8
layer 1
 62
     7
100
AcDbSpline
210
0.0
220
0.0
230
1.0
 70
    11
 71
     3
 72
    32
 73
    28
 74
     0
 42
0.0000000001
 43
0.0000000001
 12
1.0
 22
0.0
 32
0.0
 13
1.0
 23
0.0
 33
0.0
 40
0.0
 40
0.0
 40
0.0
 40
0.0
 40
0.125
 40
0.125
 40
0.125
 40
0.125
 40
0.25
 40
0.25
 40
0.25
 40
0.25
 40
0.375
 40
0.375
 40
0.375
 40
0.375
 40
0.5
 40
0.5
 40
0.5
 40
0.5
 40
0.625
 40
0.625
 40
0.625
 40
0.625
 40
0.75
 40
0.75
 40
0.75
 40
0.75
 40
1.0
 40
1.0
 40
1.0
 40
1.0
 10
136.4423
 20
-98.6009
 30
0.0
 10
136.4423
 20
-98.6009
 30
0.0
 10
140.7761
 20
-101.1052
 30
0.0
 10
140.7761
 20
-101.1052
 30
0.0
 10
140.7761
 20
-101.1052
 30
0.0
 10
140.7761
 20
-101.1052
 30
0.0
 10
140.7761
 20
-107.7082
 30
0.0
 10
140.7761
 20
-107.7082
 30
0.0
 10
140.7761
 20
-107.7082
 30
0.0
 10
140.7761
 20
-107.7082
 30
0.0
 10
144.5919
 20
-107.7347
 30
0.0
 10
144.5919
 20
-107.7347
 30
0.0
 10
144.5919
 20
-107.7347
 30
0.0
 10
144.5919
 20
-107.7347
 30
0.0
 10
144.5919
 20
-98.8771
 30
0.0
 10
144.5919
 20
-98.8771
 30
0.0
 10
144.5919
 20
-98.8771
 30
0.0
 10
144.5919
 20
-98.8771
 30
0.0
 10
136.4279
 20
-94.1629
 30
0.0
 10
136.4279
 20
-94.1629
 30
0.0
 10
136.4279
 20
-94.1629
 30
0.0
 10
136.4279
 20
-94.1629
 30
0.0
 10
136.4687
 20
-98.6093
 30
0.0
 10
136.4687
 20
-98.6093
 30
0.0
 10
136.4687
 20
-98.6093
 30
0.0
 10
136.4687
 20
-98.6093
 30
0.0
 10
136.4423
 20
-98.6009
 30
0.0
 10
136.4423
 20
-98.6009
 30
0.0
  0
SPLINE
  5
C1
330
1F
100
AcDbEntity
  8
layer 1
 62
     7
100
AcDbSpline
210
0.0
220
0.0
230
1.0
 70
    27
 71
     3
 72
    12
 73
     8
 74
     0
 42
0.0000000001
 43
0.0000000001
 12
1.0
 22
0.0
 32
0.0
 13
1.0
 23
0.0
 33
0.0
 40
0.0
 40
0.0
 40
0.0
 40
0.0
 40
0.3333333333333333
 40
0.3333333333333333
 40
0.3333333333333333
 40
0.3333333333333333
 40
1.0
 40
1.0
 40
1.0
 40
1.0
 10
136.4423
 20
-98.6009
 30
0.0
 10
136.4423
 20
-98.6009
 30
0.0
 10
136.4423
 20
-98.6009
 30
0.0
 10
136.4423
 20
-98.6009
 30
0.0
 10
136.4423
 20
-98.6009
 30
0.0
 10
136.4423
 20
-98.6009
 30
0.0
 10
136.4423
 20
-98.6009
 30
0.0
 10
136.4423
 20
-98.6009
 30
0.0
  0
SPLINE
  5
C2
330
1F
100
AcDbEntity
  8
layer 1
 62
     7
100
AcDbSpline
210
0.0
220
0.0
230
1.0
 70
    11
 71
     3
 72
    28
 73
    24
 74
     0
 42
0.0000000001
 43
0.0000000001
 12
1.0
 22
0.0
 32
0.0
 13
1.0
 23
0.0
 33
0.0
 40
0.0
 40
0.0
 40
0.0
 40
0.0
 40
0.1428571428571428
 40
0.1428571428571428
 40
0.1428571428571428
 40
0.1428571428571428
 40
0.2857142857142857
 40
0.2857142857142857
 40
0.2857142857142857
 40
0.2857142857142857
 40
0.4285714285714285
 40
0.4285714285714285
 40
0.4285714285714285
 40
0.4285714285714285
 40
0.5714285714285714
 40
0.5714285714285714
 40
0.5714285714285714
 40
0.5714285714285714
 40
0.7142857142857143
 40
0.7142857142857143
 40
0.7142857142857143
 40
0.7142857142857143
 40
1.0
 40
1.0
 40
1.0
 40
1.0
 10
148.1017
 20
-107.7173
 30
0.0
 10
148.1017
 20
-107.7173
 30
0.0
 10
148.1017
 20
-96.8546
 30
0.0
 10
148.1017
 20
-96.8546
 30
0.0
 10
148.1017
 20
-96.8546
 30
0.0
 10
148.1017
 20
-96.8546
 30
0.0
 10
136.4355
 20
-90.1197
 30
0.0
 10
136.4355
 20
-90.1197
 30
0.0
 10
136.4355
 20
-90.1197
 30
0.0
 10
136.4355
 20
-90.1197
 30
0.0
 10
136.4379
 20
-85.9909
 30
0.0
 10
136.4379
 20
-85.9909
 30
0.0
 10
136.4379
 20
-85.9909
 30
0.0
 10
136.4379
 20
-85.9909
 30
0.0
 10
151.7614
 20
-94.8346
 30
0.0
 10
151.7614
 20
-94.8346
 30
0.0
 10
151.7614
 20
-94.8346
 30
0.0
 10
151.7614
 20
-94.8346
 30
0.0
 10
151.7546
 20
-107.6999
 30
0.0
 10
151.7546
 20
-107.6999
 30
0.0
 10
151.7546
 20
-107.6999
 30
0.0
 10
151.7546
 20
-107.6999
 30
0.0
 10
148.1017
 20
-107.7173
 30
0.0
 10
148.1017
 20
-107.7173
 30
0.0
  0
SPLINE
  5
C3
330
1F
100
AcDbEntity
  8
layer 1
 62
     7
100
AcDbSpline
210
0.0
220
0.0
230
1.0
 70
    11
 71
     3
 72
    20
 73
    16
 74
     0
 42
0.0000000001
 43
0.0000000001
 12
1.0
 22
0.0
 32
0.0
 13
1.0
 23
0.0
 33
0.0
 40
0.0
 40
0.0
 40
0.0
 40
0.0
 40
0.2
 40
0.2
 40
0.2
 40
0.2
 40
0.4
 40
0.4
 40
0.4
 40
0.4
 40
0.6
 40
0.6
 40
0.6
 40
0.6
 40
1.0
 40
1.0
 40
1.0
 40
1.0
 10
81.2931
 20
123.9473
 30
0.0
 10
81.2931
 20
123.9473
 30
0.0
 10
80.3399
 20
124.4998
 30
0.0
 10
80.3399
 20
124.4998
 30
0.0
 10
80.3399
 20
124.4998
 30
0.0
 10
80.3399
 20
124.4998
 30
0.0
 10
80.2572
 20
120.2351
 30
0.0
 10
80.2572
 20
120.2351
 30
0.0
 10
80.2572
 20
120.2351
 30
0.0
 10
80.2572
 20
120.2351
 30
0.0
 10
81.2931
 20
120.8357
 30
0.0
 10
81.2931
 20
120.8357
 30
0.0
 10
81.2931
 20
120.8357
 30
0.0
 10
81.2931
 20
120.8357
 30
0.0
 10
81.2931
 20
123.9473
 30
0.0
 10
81.2931
 20
123.9473
 30
0.0
  0
SPLINE
  5
C4
330
1F
100
AcDbEntity
  8
layer 1
 62
     7
100
AcDbSpline
210
0.0
220
0.0
230
1.0
 70
    11
 71
     3
 72
    32
 73
    28
 74
     0
 42
0.0000000001
 43
0.0000000001
 12
1.0
 22
0.0
 32
0.0
 13
1.0
 23
0.0
 33
0.0
 40
0.0
 40
0.0
 40
0.0
 40
0.0
 40
0.125
 40
0.125
 40
0.125
 40
0.125
 40
0.25
 40
0.25
 40
0.25
 40
0.25
 40
0.375
 40
0.375
 40
0.375
 40
0.375
 40
0.5
 40
0.5
 40
0.5
 40
0.5
 40
0.625
 40
0.625
 40
0.625
 40
0.625
 40
0.75
 40
0.75
 40
0.75
 40
0.75
 40
1.0
 40
1.0
 40
1.0
 40
1.0
 10
80.3085
 20
116.409
 30
0.0
 10
80.3085
 20
116.409
 30
0.0
 10
84.6424
 20
118.9133
 30
0.0
 10
84.6424
 20
118.9133
 30
0.0
 10
84.6424
 20
118.9133
 30
0.0
 10
84.6424
 20
118.9133
 30
0.0
 10
84.6424
 20
125.5163
 30
0.0
 10
84.6424
 20
125.5163
 30
0.0
 10
84.6424
 20
125.5163
 30
0.0
 10
84.6424
 20
125.5163
 30
0.0
 10
88.4582
 20
125.5428
 30
0.0
 10
88.4582
 20
125.5428
 30
0.0
 10
88.4582
 20
125.5428
 30
0.0
 10
88.4582
 20
125.5428
 30
0.0
 10
88.4582
 20
116.6853
 30
0.0
 10
88.4582
 20
116.6853
 30
0.0
 10
88.4582
 20
116.6853
 30
0.0
 10
88.4582
 20
116.6853
 30
0.0
 10
80.2942
 20
111.971
 30
0.0
 10
80.2942
 20
111.971
 30
0.0
 10
80.2942
 20
111.971
 30
0.0
 10
80.2942
 20
111.971
 30
0.0
 10
80.335
 20
116.4174
 30
0.0
 10
80.335
 20
116.4174
 30
0.0
 10
80.335
 20
116.4174
 30
0.0
 10
80.335
 20
116.4174
 30
0.0
 10
80.3085
 20
116.409
 30
0.0
 10
80.3085
 20
116.409
 30
0.0
  0
SPLINE
  5
C5
330
1F
100
AcDbEntity
  8
layer 1
 62
     7
100
AcDbSpline
210
0.0
220
0.0
230
1.0
 70
    27
 71
     3
 72
    12
 73
     8
 74
     0
 42
0.0000000001
 43
0.0000000001
 12
1.0
 22
0.0
 32
0.0
 13
1.0
 23
0.0
 33
0.0
 40
0.0
 40
0.0
 40
0.0
 40
0.0
 40
0.3333333333333333
 40
0.3333333333333333
 40
0.3333333333333333
 40
0.3333333333333333
 40
1.0
 40
1.0
 40
1.0
 40
1.0
 10
80.3085
 20
116.409
 30
0.0
 10
80.3085
 20
116.409
 30
0.0
 10
80.3085
 20
116.409
 30
0.0
 10
80.3085
 20
116.409
 30
0.0
 10
80.3085
 20
116.409
 30
0.0
 10
80.3085
 20
116.409
 30
0.0
 10
80.3085
 20
116.409
 30
0.0
 10
80.3085
 20
116.409
 30
0.0
  0
SPLINE
  5
C6
330
1F
100
AcDbEntity
  8
layer 1
 62
     7
100
AcDbSpline
210
0.0
220
0.0
230
1.0
 70
    11
 71
     3
 72
    28
 73
    24
 74
     0
 42
0.0000000001
 43
0.0000000001
 12
1.0
 22
0.0
 32
0.0
 13
1.0
 23
0.0
 33
0.0
 40
0.0
 40
0.0
 40
0.0
 40
0.0
 40
0.1428571428571428
 40
0.1428571428571428
 40
0.1428571428571428
 40
0.1428571428571428
 40
0.2857142857142857
 40
0.2857142857142857
 40
0.2857142857142857
 40
0.2857142857142857
 40
0.4285714285714285
 40
0.4285714285714285
 40
0.4285714285714285
 40
0.4285714285714285
 40
0.5714285714285714
 40
0.5714285714285714
 40
0.5714285714285714
 40
0.5714285714285714
 40
0.7142857142857143
 40
0.7142857142857143
 40
0.7142857142857143
 40
0.7142857142857143
 40
1.0
 40
1.0
 40
1.0
 40
1.0
 10
91.968
 20
125.5254
 30
0.0
 10
91.968
 20
125.5254
 30
0.0
 10
91.968
 20
114.6627
 30
0.0
 10
91.968
 20
114.6627
 30
0.0
 10
91.968
 20
114.6627
 30
0.0
 10
91.968
 20
114.6627
 30
0.0
 10
80.3017
 20
107.9278
 30
0.0
 10
80.3017
 20
107.9278
 30
0.0
 10
80.3017
 20
107.9278
 30
0.0
 10
80.3017
 20
107.9278
 30
0.0
 10
80.3042
 20
103.799
 30
0.0
 10
80.3042
 20
103.799
 30
0.0
 10
80.3042
 20
103.799
 30
0.0
 10
80.3042
 20
103.799
 30
0.0
 10
95.6277
 20
112.6426
 30
0.0
 10
95.6277
 20
112.6426
 30
0.0
 10
95.6277
 20
112.6426
 30
0.0
 10
95.6277
 20
112.6426
 30
0.0
 10
95.6209
 20
125.508
 30
0.0
 10
95.6209
 20
125.508
 30
0.0
 10
95.6209
 20
125.508
 30
0.0
 10
95.6209
 20
125.508
 30
0.0
 10
91.968
 20
125.5254
 30
0.0
 10
91.968
 20
125.5254
 30
0.0
  0
SPLINE
  5
C7
330
1F
100
AcDbEntity
  8
layer 1
 62
     7
100
AcDbSpline
210
0.0
220
0.0
230
1.0
 70
    11
 71
     3
 72
    28
 73
    24
 74
     0
 42
0.0000000001
 43
0.0000000001
 12
1.0
 22
0.0
 32
0.0
 13
1.0
 23
0.0
 33
0.0
 40
0.0
 40
0.0
 40
0.0
 40
0.0
 40
0.1428571428571428
 40
0.1428571428571428
 40
0.1428571428571428
 40
0.1428571428571428
 40
0.2857142857142857
 40
0.2857142857142857
 40
0.2857142857142857
 40
0.2857142857142857
 40
0.4285714285714285
 40
0.4285714285714285
 40
0.4285714285714285
 40
0.4285714285714285
 40
0.5714285714285714
 40
0.5714285714285714
 40
0.5714285714285714
 40
0.5714285714285714
 40
0.7142857142857143
 40
0.7142857142857143
 40
0.7142857142857143
 40
0.7142857142857143
 40
1.0
 40
1.0
 40
1.0
 40
1.0
 10
118.7116
 20
123.9473
 30
0.0
 10
118.7116
 20
123.9473
 30
0.0
 10
116.0279
 20
125.5032
 30
0.0
 10
116.0279
 20
125.5032
 30
0.0
 10
116.0279
 20
125.5032
 30
0.0
 10
116.0279
 20
125.5032
 30
0.0
 10
113.3443
 20
123.9473
 30
0.0
 10
113.3443
 20
123.9473
 30
0.0
 10
113.3443
 20
123.9473
 30
0.0
 10
113.3443
 20
123.9473
 30
0.0
 10
113.3443
 20
120.8357
 30
0.0
 10
113.3443
 20
120.8357
 30
0.0
 10
113.3443
 20
120.8357
 30
0.0
 10
113.3443
 20
120.8357
 30
0.0
 10
116.0279
 20
119.2799
 30
0.0
 10
116.0279
 20
119.2799
 30
0.0
 10
116.0279
 20
119.2799
 30
0.0
 10
116.0279
 20
119.2799
 30
0.0
 10
118.7116
 20
120.8357
 30
0.0
 10
118.7116
 20
120.8357
 30
0.0
 10
118.7116
 20
120.8357
 30
0.0
 10
118.7116
 20
120.8357
 30
0.0
 10
118.7116
 20
123.9473
 30
0.0
 10
118.7116
 20
123.9473
 30
0.0
  0
SPLINE
  5
C8
330
1F
100
AcDbEntity
  8
layer 1
 62
     7
100
AcDbSpline
210
0.0
220
0.0
230
1.0
 70
    11
 71
     3
 72
    28
 73
    24
 74
     0
 42
0.0000000001
 43
0.0000000001
 12
1.0
 22
0.0
 32
0.0
 13
1.0
 23
0.0
 33
0.0
 40
0.0
 40
0.0
 40
0.0
 40
0.0
 40
0.1428571428571428
 40
0.1428571428571428
 40
0.1428571428571428
 40
0.1428571428571428
 40
0.2857142857142857
 40
0.2857142857142857
 40
0.2857142857142857
 40
0.2857142857142857
 40
0.4285714285714285
 40
0.4285714285714285
 40
0.4285714285714285
 40
0.4285714285714285
 40
0.5714285714285714
 40
0.5714285714285714
 40
0.5714285714285714
 40
0.5714285714285714
 40
0.7142857142857143
 40
0.7142857142857143
 40
0.7142857142857143
 40
0.7142857142857143
 40
1.0
 40
1.0
 40
1.0
 40
1.0
 10
110.0097
 20
118.9132
 30
0.0
 10
110.0097
 20
118.9132
 30
0.0
 10
110.0097
 20
125.5162
 30
0.0
 10
110.0097
 20
125.5162
 30
0.0
 10
110.0097
 20
125.5162
 30
0.0
 10
110.0097
 20
125.5162
 30
0.0
 10
106.1939
 20
125.5162
 30
0.0
 10
106.1939
 20
125.5162
 30
0.0
 10
106.1939
 20
125.5162
 30
0.0
 10
106.1939
 20
125.5162
 30
0.0
 10
106.1939
 20
116.6853
 30
0.0
 10
106.1939
 20
116.6853
 30
0.0
 10
106.1939
 20
116.6853
 30
0.0
 10
106.1939
 20
116.6853
 30
0.0
 10
114.3579
 20
111.971
 30
0.0
 10
114.3579
 20
111.971
 30
0.0
 10
114.3579
 20
111.971
 30
0.0
 10
114.3579
 20
111.971
 30
0.0
 10
114.3303
 20
116.4132
 30
0.0
 10
114.3303
 20
116.4132
 30
0.0
 10
114.3303
 20
116.4132
 30
0.0
 10
114.3303
 20
116.4132
 30
0.0
 10
110.0097
 20
118.9132
 30
0.0
 10
110.0097
 20
118.9132
 30
0.0
  0
SPLINE
  5
C9
330
1F
100
AcDbEntity
  8
layer 1
 62
     7
100
AcDbSpline
210
0.0
220
0.0
230
1.0
 70
    11
 71
     3
 72
    28
 73
    24
 74
     0
 42
0.0000000001
 43
0.0000000001
 12
1.0
 22
0.0
 32
0.0
 13
1.0
 23
0.0
 33
0.0
 40
0.0
 40
0.0
 40
0.0
 40
0.0
 40
0.1428571428571428
 40
0.1428571428571428
 40
0.1428571428571428
 40
0.1428571428571428
 40
0.2857142857142857
 40
0.2857142857142857
 40
0.2857142857142857
 40
0.2857142857142857
 40
0.4285714285714285
 40
0.4285714285714285
 40
0.4285714285714285
 40
0.4285714285714285
 40
0.5714285714285714
 40
0.5714285714285714
 40
0.5714285714285714
 40
0.5714285714285714
 40
0.7142857142857143
 40
0.7142857142857143
 40
0.7142857142857143
 40
0.7142857142857143
 40
1.0
 40
1.0
 40
1.0
 40
1.0
 10
102.6758
 20
125.4735
 30
0.0
 10
102.6758
 20
125.4735
 30
0.0
 10
102.6758
 20
114.6628
 30
0.0
 10
102.6758
 20
114.6628
 30
0.0
 10
102.6758
 20
114.6628
 30
0.0
 10
102.6758
 20
114.6628
 30
0.0
 10
114.342
 20
107.9279
 30
0.0
 10
114.342
 20
107.9279
 30
0.0
 10
114.342
 20
107.9279
 30
0.0
 10
114.342
 20
107.9279
 30
0.0
 10
114.3396
 20
103.799
 30
0.0
 10
114.3396
 20
103.799
 30
0.0
 10
114.3396
 20
103.799
 30
0.0
 10
114.3396
 20
103.799
 30
0.0
 10
99.0161
 20
112.6427
 30
0.0
 10
99.0161
 20
112.6427
 30
0.0
 10
99.0161
 20
112.6427
 30
0.0
 10
99.0161
 20
112.6427
 30
0.0
 10
99.0161
 20
125.508
 30
0.0
 10
99.0161
 20
125.508
 30
0.0
 10
99.0161
 20
125.508
 30
0.0
 10
99.0161
 20
125.508
 30
0.0
 10
102.6758
 20
125.4735
 30
0.0
 10
102.6758
 20
125.4735
 30
0.0
  0
SPLINE
  5
CA
330
1F
100
AcDbEntity
  8
layer 1
 62
     7
100
AcDbSpline
210
0.0
220
0.0
230
1.0
 70
    11
 71
     3
 72
    32
 73
    28
 74
     0
 42
0.0000000001
 43
0.0000000001
 12
1.0
 22
0.0
 32
0.0
 13
1.0
 23
0.0
 33
0.0
 40
0.0
 40
0.0
 40
0.0
 40
0.0
 40
0.125
 40
0.125
 40
0.125
 40
0.125
 40
0.25
 40
0.25
 40
0.25
 40
0.25
 40
0.375
 40
0.375
 40
0.375
 40
0.375
 40
0.5
 40
0.5
 40
0.5
 40
0.5
 40
0.625
 40
0.625
 40
0.625
 40
0.625
 40
0.75
 40
0.75
 40
0.75
 40
0.75
 40
1.0
 40
1.0
 40
1.0
 40
1.0
 10
117.7271
 20
116.409
 30
0.0
 10
117.7271
 20
116.409
 30
0.0
 10
122.061
 20
118.9133
 30
0.0
 10
122.061
 20
118.9133
 30
0.0
 10
122.061
 20
118.9133
 30
0.0
 10
122.061
 20
118.9133
 30
0.0
 10
122.061
 20
125.5163
 30
0.0
 10
122.061
 20
125.5163
 30
0.0
 10
122.061
 20
125.5163
 30
0.0
 10
122.061
 20
125.5163
 30
0.0
 10
125.8768
 20
125.5428
 30
0.0
 10
125.8768
 20
125.5428
 30
0.0
 10
125.8768
 20
125.5428
 30
0.0
 10
125.8768
 20
125.5428
 30
0.0
 10
125.8768
 20
116.6853
 30
0.0
 10
125.8768
 20
116.6853
 30
0.0
 10
125.8768
 20
116.6853
 30
0.0
 10
125.8768
 20
116.6853
 30
0.0
 10
117.7128
 20
111.971
 30
0.0
 10
117.7128
 20
111.971
 30
0.0
 10
117.7128
 20
111.971
 30
0.0
 10
117.7128
 20
111.971
 30
0.0
 10
117.7536
 20
116.4174
 30
0.0
 10
117.7536
 20
116.4174
 30
0.0
 10
117.7536
 20
116.4174
 30
0.0
 10
117.7536
 20
116.4174
 30
0.0
 10
117.7271
 20
116.409
 30
0.0
 10
117.7271
 20
116.409
 30
0.0
  0
SPLINE
  5
CB
330
1F
100
AcDbEntity
  8
layer 1
 62
     7
100
AcDbSpline
210
0.0
220
0.0
230
1.0
 70
    27
 71
     3
 72
    12
 73
     8
 74
     0
 42
0.0000000001
 43
0.0000000001
 12
1.0
 22
0.0
 32
0.0
 13
1.0
 23
0.0
 33
0.0
 40
0.0
 40
0.0
 40
0.0
 40
0.0
 40
0.3333333333333333
 40
0.3333333333333333
 40
0.3333333333333333
 40
0.3333333333333333
 40
1.0
 40
1.0
 40
1.0
 40
1.0
 10
117.7271
 20
116.409
 30
0.0
 10
117.7271
 20
116.409
 30
0.0
 10
117.7271
 20
116.409
 30
0.0
 10
117.7271
 20
116.409
 30
0.0
 10
117.7271
 20
116.409
 30
0.0
 10
117.7271
 20
116.409
 30
0.0
 10
117.7271
 20
116.409
 30
0.0
 10
117.7271
 20
116.409
 30
0.0
  0
SPLINE
  5
CC
330
1F
100
AcDbEntity
  8
layer 1
 62
     7
100
AcDbSpline
210
0.0
220
0.0
230
1.0
 70
    11
 71
     3
 72
    28
 73
    24
 74
     0
 42
0.0000000001
 43
0.0000000001
 12
1.0
 22
0.0
 32
0.0
 13
1.0
 23
0.0
 33
0.0
 40
0.0
 40
0.0
 40
0.0
 40
0.0
 40
0.1428571428571428
 40
0.1428571428571428
 40
0.1428571428571428
 40
0.1428571428571428
 40
0.2857142857142857
 40
0.2857142857142857
 40
0.2857142857142857
 40
0.2857142857142857
 40
0.4285714285714285
 40
0.4285714285714285
 40
0.4285714285714285
 40
0.4285714285714285
 40
0.5714285714285714
 40
0.5714285714285714
 40
0.5714285714285714
 40
0.5714285714285714
 40
0.7142857142857143
 40
0.7142857142857143
 40
0.7142857142857143
 40
0.7142857142857143
 40
1.0
 40
1.0
 40
1.0
 40
1.0
 10
129.3865
 20
125.5254
 30
0.0
 10
129.3865
 20
125.5254
 30
0.0
 10
129.3865
 20
114.6627
 30
0.0
 10
129.3865
 20
114.6627
 30
0.0
 10
129.3865
 20
114.6627
 30
0.0
 10
129.3865
 20
114.6627
 30
0.0
 10
117.7202
 20
107.9278
 30
0.0
 10
117.7202
 20
107.9278
 30
0.0
 10
117.7202
 20
107.9278
 30
0.0
 10
117.7202
 20
107.9278
 30
0.0
 10
117.7227
 20
103.799
 30
0.0
 10
117.7227
 20
103.799
 30
0.0
 10
117.7227
 20
103.799
 30
0.0
 10
117.7227
 20
103.799
 30
0.0
 10
133.0462
 20
112.6426
 30
0.0
 10
133.0462
 20
112.6426
 30
0.0
 10
133.0462
 20
112.6426
 30
0.0
 10
133.0462
 20
112.6426
 30
0.0
 10
133.0394
 20
125.508
 30
0.0
 10
133.0394
 20
125.508
 30
0.0
 10
133.0394
 20
125.508
 30
0.0
 10
133.0394
 20
125.508
 30
0.0
 10
129.3865
 20
125.5254
 30
0.0
 10
129.3865
 20
125.5254
 30
0.0
  0
SPLINE
  5
CD
330
1F
100
AcDbEntity
  8
layer 1
 62
     7
100
AcDbSpline
210
0.0
220
0.0
230
1.0
 70
    11
 71
     3
 72
    28
 73
    24
 74
     0
 42
0.0000000001
 43
0.0000000001
 12
1.0
 22
0.0
 32
0.0
 13
1.0
 23
0.0
 33
0.0
 40
0.0
 40
0.0
 40
0.0
 40
0.0
 40
0.1428571428571428
 40
0.1428571428571428
 40
0.1428571428571428
 40
0.1428571428571428
 40
0.2857142857142857
 40
0.2857142857142857
 40
0.2857142857142857
 40
0.2857142857142857
 40
0.4285714285714285
 40
0.4285714285714285
 40
0.4285714285714285
 40
0.4285714285714285
 40
0.5714285714285714
 40
0.5714285714285714
 40
0.5714285714285714
 40
0.5714285714285714
 40
0.7142857142857143
 40
0.7142857142857143
 40
0.7142857142857143
 40
0.7142857142857143
 40
1.0
 40
1.0
 40
1.0
 40
1.0
 10
156.1252
 20
123.9473
 30
0.0
 10
156.1252
 20
123.9473
 30
0.0
 10
153.4415
 20
125.5032
 30
0.0
 10
153.4415
 20
125.5032
 30
0.0
 10
153.4415
 20
125.5032
 30
0.0
 10
153.4415
 20
125.5032
 30
0.0
 10
150.7579
 20
123.9473
 30
0.0
 10
150.7579
 20
123.9473
 30
0.0
 10
150.7579
 20
123.9473
 30
0.0
 10
150.7579
 20
123.9473
 30
0.0
 10
150.7579
 20
120.8357
 30
0.0
 10
150.7579
 20
120.8357
 30
0.0
 10
150.7579
 20
120.8357
 30
0.0
 10
150.7579
 20
120.8357
 30
0.0
 10
153.4415
 20
119.2799
 30
0.0
 10
153.4415
 20
119.2799
 30
0.0
 10
153.4415
 20
119.2799
 30
0.0
 10
153.4415
 20
119.2799
 30
0.0
 10
156.1252
 20
120.8357
 30
0.0
 10
156.1252
 20
120.8357
 30
0.0
 10
156.1252
 20
120.8357
 30
0.0
 10
156.1252
 20
120.8357
 30
0.0
 10
156.1252
 20
123.9473
 30
0.0
 10
156.1252
 20
123.9473
 30
0.0
  0
SPLINE
  5
CE
330
1F
100
AcDbEntity
  8
layer 1
 62
     7
100
AcDbSpline
210
0.0
220
0.0
230
1.0
 70
    11
 71
     3
 72
    28
 73
    24
 74
     0
 42
0.0000000001
 43
0.0000000001
 12
1.0
 22
0.0
 32
0.0
 13
1.0
 23
0.0
 33
0.0
 40
0.0
 40
0.0
 40
0.0
 40
0.0
 40
0.1428571428571428
 40
0.1428571428571428
 40
0.1428571428571428
 40
0.1428571428571428
 40
0.2857142857142857
 40
0.2857142857142857
 40
0.2857142857142857
 40
0.2857142857142857
 40
0.4285714285714285
 40
0.4285714285714285
 40
0.4285714285714285
 40
0.4285714285714285
 40
0.5714285714285714
 40
0.5714285714285714
 40
0.5714285714285714
 40
0.5714285714285714
 40
0.7142857142857143
 40
0.7142857142857143
 40
0.7142857142857143
 40
0.7142857142857143
 40
1.0
 40
1.0
 40
1.0
 40
1.0
 10
147.4233
 20
118.9132
 30
0.0
 10
147.4233
 20
118.9132
 30
0.0
 10
147.4233
 20
125.5162
 30
0.0
 10
147.4233
 20
125.5162
 30
0.0
 10
147.4233
 20
125.5162
 30
0.0
 10
147.4233
 20
125.5162
 30
0.0
 10
143.6075
 20
125.5162
 30
0.0
 10
143.6075
 20
125.5162
 30
0.0
 10
143.6075
 20
125.5162
 30
0.0
 10
143.6075
 20
125.5162
 30
0.0
 10
143.6075
 20
116.6853
 30
0.0
 10
143.6075
 20
116.6853
 30
0.0
 10
143.6075
 20
116.6853
 30
0.0
 10
143.6075
 20
116.6853
 30
0.0
 10
151.7715
 20
111.971
 30
0.0
 10
151.7715
 20
111.971
 30
0.0
 10
151.7715
 20
111.971
 30
0.0
 10
151.7715
 20
111.971
 30
0.0
 10
151.7439
 20
116.4132
 30
0.0
 10
151.7439
 20
116.4132
 30
0.0
 10
151.7439
 20
116.4132
 30
0.0
 10
151.7439
 20
116.4132
 30
0.0
 10
147.4233
 20
118.9132
 30
0.0
 10
147.4233
 20
118.9132
 30
0.0
  0
SPLINE
  5
CF
330
1F
100
AcDbEntity
  8
layer 1
 62
     7
100
AcDbSpline
210
0.0
220
0.0
230
1.0
 70
    11
 71
     3
 72
    28
 73
    24
 74
     0
 42
0.0000000001
 43
0.0000000001
 12
1.0
 22
0.0
 32
0.0
 13
1.0
 23
0.0
 33
0.0
 40
0.0
 40
0.0
 40
0.0
 40
0.0
 40
0.1428571428571428
 40
0.1428571428571428
 40
0.1428571428571428
 40
0.1428571428571428
 40
0.2857142857142857
 40
0.2857142857142857
 40
0.2857142857142857
 40
0.2857142857142857
 40
0.4285714285714285
 40
0.4285714285714285
 40
0.4285714285714285
 40
0.4285714285714285
 40
0.5714285714285714
 40
0.5714285714285714
 40
0.5714285714285714
 40
0.5714285714285714
 40
0.7142857142857143
 40
0.7142857142857143
 40
0.7142857142857143
 40
0.7142857142857143
 40
1.0
 40
1.0
 40
1.0
 40
1.0
 10
140.0894
 20
125.4735
 30
0.0
 10
140.0894
 20
125.4735
 30
0.0
 10
140.0894
 20
114.6628
 30
0.0
 10
140.0894
 20
114.6628
 30
0.0
 10
140.0894
 20
114.6628
 30
0.0
 10
140.0894
 20
114.6628
 30
0.0
 10
151.7556
 20
107.9279
 30
0.0
 10
151.7556
 20
107.9279
 30
0.0
 10
151.7556
 20
107.9279
 30
0.0
 10
151.7556
 20
107.9279
 30
0.0
 10
151.7532
 20
103.799
 30
0.0
 10
151.7532
 20
103.799
 30
0.0
 10
151.7532
 20
103.799
 30
0.0
 10
151.7532
 20
103.799
 30
0.0
 10
136.4297
 20
112.6427
 30
0.0
 10
136.4297
 20
112.6427
 30
0.0
 10
136.4297
 20
112.6427
 30
0.0
 10
136.4297
 20
112.6427
 30
0.0
 10
136.4297
 20
125.508
 30
0.0
 10
136.4297
 20
125.508
 30
0.0
 10
136.4297
 20
125.508
 30
0.0
 10
136.4297
 20
125.508
 30
0.0
 10
140.0894
 20
125.4735
 30
0.0
 10
140.0894
 20
125.4735
 30
0.0
  0
SPLINE
  5
D0
330
1F
100
AcDbEntity
  8
layer 1
 62
     7
100
AcDbSpline
210
0.0
220
0.0
230
1.0
 70
    11
 71
     3
 72
    32
 73
    28
 74
     0
 42
0.0000000001
 43
0.0000000001
 12
1.0
 22
0.0
 32
0.0
 13
1.0
 23
0.0
 33
0.0
 40
0.0
 40
0.0
 40
0.0
 40
0.0
 40
0.125
 40
0.125
 40
0.125
 40
0.125
 40
0.25
 40
0.25
 40
0.25
 40
0.25
 40
0.375
 40
0.375
 40
0.375
 40
0.375
 40
0.5
 40
0.5
 40
0.5
 40
0.5
 40
0.625
 40
0.625
 40
0.625
 40
0.625
 40
0.75
 40
0.75
 40
0.75
 40
0.75
 40
1.0
 40
1.0
 40
1.0
 40
1.0
 10
155.1406
 20
116.409
 30
0.0
 10
155.1406
 20
116.409
 30
0.0
 10
159.4745
 20
118.9133
 30
0.0
 10
159.4745
 20
118.9133
 30
0.0
 10
159.4745
 20
118.9133
 30
0.0
 10
159.4745
 20
118.9133
 30
0.0
 10
159.4745
 20
125.5163
 30
0.0
 10
159.4745
 20
125.5163
 30
0.0
 10
159.4745
 20
125.5163
 30
0.0
 10
159.4745
 20
125.5163
 30
0.0
 10
163.2903
 20
125.5428
 30
0.0
 10
163.2903
 20
125.5428
 30
0.0
 10
163.2903
 20
125.5428
 30
0.0
 10
163.2903
 20
125.5428
 30
0.0
 10
163.2903
 20
116.6853
 30
0.0
 10
163.2903
 20
116.6853
 30
0.0
 10
163.2903
 20
116.6853
 30
0.0
 10
163.2903
 20
116.6853
 30
0.0
 10
155.1263
 20
111.971
 30
0.0
 10
155.1263
 20
111.971
 30
0.0
 10
155.1263
 20
111.971
 30
0.0
 10
155.1263
 20
111.971
 30
0.0
 10
155.1671
 20
116.4174
 30
0.0
 10
155.1671
 20
116.4174
 30
0.0
 10
155.1671
 20
116.4174
 30
0.0
 10
155.1671
 20
116.4174
 30
0.0
 10
155.1406
 20
116.409
 30
0.0
 10
155.1406
 20
116.409
 30
0.0
  0
SPLINE
  5
D1
330
1F
100
AcDbEntity
  8
layer 1
 62
     7
100
AcDbSpline
210
0.0
220
0.0
230
1.0
 70
    27
 71
     3
 72
    12
 73
     8
 74
     0
 42
0.0000000001
 43
0.0000000001
 12
1.0
 22
0.0
 32
0.0
 13
1.0
 23
0.0
 33
0.0
 40
0.0
 40
0.0
 40
0.0
 40
0.0
 40
0.3333333333333333
 40
0.3333333333333333
 40
0.3333333333333333
 40
0.3333333333333333
 40
1.0
 40
1.0
 40
1.0
 40
1.0
 10
155.1406
 20
116.409
 30
0.0
 10
155.1406
 20
116.409
 30
0.0
 10
155.1406
 20
116.409
 30
0.0
 10
155.1406
 20
116.409
 30
0.0
 10
155.1406
 20
116.409
 30
0.0
 10
155.1406
 20
116.409
 30
0.0
 10
155.1406
 20
116.409
 30
0.0
 10
155.1406
 20
116.409
 30
0.0
  0
SPLINE
  5
D2
330
1F
100
AcDbEntity
  8
layer 1
 62
     7
100
AcDbSpline
210
0.0
220
0.0
230
1.0
 70
    11
 71
     3
 72
    28
 73
    24
 74
     0
 42
0.0000000001
 43
0.0000000001
 12
1.0
 22
0.0
 32
0.0
 13
1.0
 23
0.0
 33
0.0
 40
0.0
 40
0.0
 40
0.0
 40
0.0
 40
0.1428571428571428
 40
0.1428571428571428
 40
0.1428571428571428
 40
0.1428571428571428
 40
0.2857142857142857
 40
0.2857142857142857
 40
0.2857142857142857
 40
0.2857142857142857
 40
0.4285714285714285
 40
0.4285714285714285
 40
0.4285714285714285
 40
0.4285714285714285
 40
0.5714285714285714
 40
0.5714285714285714
 40
0.5714285714285714
 40
0.5714285714285714
 40
0.7142857142857143
 40
0.7142857142857143
 40
0.7142857142857143
 40
0.7142857142857143
 40
1.0
 40
1.0
 40
1.0
 40
1.0
 10
166.8001
 20
125.5254
 30
0.0
 10
166.8001
 20
125.5254
 30
0.0
 10
166.8001
 20
114.6627
 30
0.0
 10
166.8001
 20
114.6627
 30
0.0
 10
166.8001
 20
114.6627
 30
0.0
 10
166.8001
 20
114.6627
 30
0.0
 10
155.1338
 20
107.9278
 30
0.0
 10
155.1338
 20
107.9278
 30
0.0
 10
155.1338
 20
107.9278
 30
0.0
 10
155.1338
 20
107.9278
 30
0.0
 10
155.1363
 20
103.799
 30
0.0
 10
155.1363
 20
103.799
 30
0.0
 10
155.1363
 20
103.799
 30
0.0
 10
155.1363
 20
103.799
 30
0.0
 10
170.4598
 20
112.6426
 30
0.0
 10
170.4598
 20
112.6426
 30
0.0
 10
170.4598
 20
112.6426
 30
0.0
 10
170.4598
 20
112.6426
 30
0.0
 10
170.453
 20
125.508
 30
0.0
 10
170.453
 20
125.508
 30
0.0
 10
170.453
 20
125.508
 30
0.0
 10
170.453
 20
125.508
 30
0.0
 10
166.8001
 20
125.5254
 30
0.0
 10
166.8001
 20
125.5254
 30
0.0
  0
SPLINE
  5
D3
330
1F
100
AcDbEntity
  8
layer 1
 62
     7
100
AcDbSpline
210
0.0
220
0.0
230
1.0
 70
    11
 71
     3
 72
    20
 73
    16
 74
     0
 42
0.0000000001
 43
0.0000000001
 12
1.0
 22
0.0
 32
0.0
 13
1.0
 23
0.0
 33
0.0
 40
0.0
 40
0.0
 40
0.0
 40
0.0
 40
0.2
 40
0.2
 40
0.2
 40
0.2
 40
0.4
 40
0.4
 40
0.4
 40
0.4
 40
0.6
 40
0.6
 40
0.6
 40
0.6
 40
1.0
 40
1.0
 40
1.0
 40
1.0
 10
187.9218
 20
123.8048
 30
0.0
 10
187.9218
 20
123.8048
 30
0.0
 10
188.875
 20
124.3573
 30
0.0
 10
188.875
 20
124.3573
 30
0.0
 10
188.875
 20
124.3573
 30
0.0
 10
188.875
 20
124.3573
 30
0.0
 10
188.9577
 20
120.0926
 30
0.0
 10
188.9577
 20
120.0926
 30
0.0
 10
188.9577
 20
120.0926
 30
0.0
 10
188.9577
 20
120.0926
 30
0.0
 10
187.9218
 20
120.6931
 30
0.0
 10
187.9218
 20
120.6931
 30
0.0
 10
187.9218
 20
120.6931
 30
0.0
 10
187.9218
 20
120.6931
 30
0.0
 10
187.9218
 20
123.8048
 30
0.0
 10
187.9218
 20
123.8048
 30
0.0
  0
SPLINE
  5
D4
330
1F
100
AcDbEntity
  8
layer 1
 62
     7
100
AcDbSpline
210
0.0
220
0.0
230
1.0
 70
    11
 71
     3
 72
    32
 73
    28
 74
     0
 42
0.0000000001
 43
0.0000000001
 12
1.0
 22
0.0
 32
0.0
 13
1.0
 23
0.0
 33
0.0
 40
0.0
 40
0.0
 40
0.0
 40
0.0
 40
0.125
 40
0.125
 40
0.125
 40
0.125
 40
0.25
 40
0.25
 40
0.25
 40
0.25
 40
0.375
 40
0.375
 40
0.375
 40
0.375
 40
0.5
 40
0.5
 40
0.5
 40
0.5
 40
0.625
 40
0.625
 40
0.625
 40
0.625
 40
0.75
 40
0.75
 40
0.75
 40
0.75
 40
1.0
 40
1.0
 40
1.0
 40
1.0
 10
188.9064
 20
116.2664
 30
0.0
 10
188.9064
 20
116.2664
 30
0.0
 10
184.5725
 20
118.7707
 30
0.0
 10
184.5725
 20
118.7707
 30
0.0
 10
184.5725
 20
118.7707
 30
0.0
 10
184.5725
 20
118.7707
 30
0.0
 10
184.5725
 20
125.3737
 30
0.0
 10
184.5725
 20
125.3737
 30
0.0
 10
184.5725
 20
125.3737
 30
0.0
 10
184.5725
 20
125.3737
 30
0.0
 10
180.7567
 20
125.4002
 30
0.0
 10
180.7567
 20
125.4002
 30
0.0
 10
180.7567
 20
125.4002
 30
0.0
 10
180.7567
 20
125.4002
 30
0.0
 10
180.7567
 20
116.5427
 30
0.0
 10
180.7567
 20
116.5427
 30
0.0
 10
180.7567
 20
116.5427
 30
0.0
 10
180.7567
 20
116.5427
 30
0.0
 10
188.9207
 20
111.8284
 30
0.0
 10
188.9207
 20
111.8284
 30
0.0
 10
188.9207
 20
111.8284
 30
0.0
 10
188.9207
 20
111.8284
 30
0.0
 10
188.8799
 20
116.2748
 30
0.0
 10
188.8799
 20
116.2748
 30
0.0
 10
188.8799
 20
116.2748
 30
0.0
 10
188.8799
 20
116.2748
 30
0.0
 10
188.9064
 20
116.2664
 30
0.0
 10
188.9064
 20
116.2664
 30
0.0
  0
SPLINE
  5
D5
330
1F
100
AcDbEntity
  8
layer 1
 62
     7
100
AcDbSpline
210
0.0
220
0.0
230
1.0
 70
    27
 71
     3
 72
    12
 73
     8
 74
     0
 42
0.0000000001
 43
0.0000000001
 12
1.0
 22
0.0
 32
0.0
 13
1.0
 23
0.0
 33
0.0
 40
0.0
 40
0.0
 40
0.0
 40
0.0
 40
0.3333333333333333
 40
0.3333333333333333
 40
0.3333333333333333
 40
0.3333333333333333
 40
1.0
 40
1.0
 40
1.0
 40
1.0
 10
188.9064
 20
116.2664
 30
0.0
 10
188.9064
 20
116.2664
 30
0.0
 10
188.9064
 20
116.2664
 30
0.0
 10
188.9064
 20
116.2664
 30
0.0
 10
188.9064
 20
116.2664
 30
0.0
 10
188.9064
 20
116.2664
 30
0.0
 10
188.9064
 20
116.2664
 30
0.0
 10
188.9064
 20
116.2664
 30
0.0
  0
SPLINE
  5
D6
330
1F
100
AcDbEntity
  8
layer 1
 62
     7
100
AcDbSpline
210
0.0
220
0.0
230
1.0
 70
    11
 71
     3
 72
    28
 73
    24
 74
     0
 42
0.0000000001
 43
0.0000000001
 12
1.0
 22
0.0
 32
0.0
 13
1.0
 23
0.0
 33
0.0
 40
0.0
 40
0.0
 40
0.0
 40
0.0
 40
0.1428571428571428
 40
0.1428571428571428
 40
0.1428571428571428
 40
0.1428571428571428
 40
0.2857142857142857
 40
0.2857142857142857
 40
0.2857142857142857
 40
0.2857142857142857
 40
0.4285714285714285
 40
0.4285714285714285
 40
0.4285714285714285
 40
0.4285714285714285
 40
0.5714285714285714
 40
0.5714285714285714
 40
0.5714285714285714
 40
0.5714285714285714
 40
0.7142857142857143
 40
0.7142857142857143
 40
0.7142857142857143
 40
0.7142857142857143
 40
1.0
 40
1.0
 40
1.0
 40
1.0
 10
177.2469
 20
125.3828
 30
0.0
 10
177.2469
 20
125.3828
 30
0.0
 10
177.2469
 20
114.5201
 30
0.0
 10
177.2469
 20
114.5201
 30
0.0
 10
177.2469
 20
114.5201
 30
0.0
 10
177.2469
 20
114.5201
 30
0.0
 10
188.9132
 20
107.7852
 30
0.0
 10
188.9132
 20
107.7852
 30
0.0
 10
188.9132
 20
107.7852
 30
0.0
 10
188.9132
 20
107.7852
 30
0.0
 10
188.9107
 20
103.6564
 30
0.0
 10
188.9107
 20
103.6564
 30
0.0
 10
188.9107
 20
103.6564
 30
0.0
 10
188.9107
 20
103.6564
 30
0.0
 10
173.5872
 20
112.5001
 30
0.0
 10
173.5872
 20
112.5001
 30
0.0
 10
173.5872
 20
112.5001
 30
0.0
 10
173.5872
 20
112.5001
 30
0.0
 10
173.594
 20
125.3655
 30
0.0
 10
173.594
 20
125.3655
 30
0.0
 10
173.594
 20
125.3655
 30
0.0
 10
173.594
 20
125.3655
 30
0.0
 10
177.2469
 20
125.3828
 30
0.0
 10
177.2469
 20
125.3828
 30
0.0
  0
ENDSEC
  0
SECTION
  2
OBJECTS
  0
DICTIONARY
  5
C
330
0
100
AcDbDictionary
281
     1
  3
ACAD_GROUP
350
D
  3
ACAD_LAYOUT
350
1A
  3
ACAD_MATERIAL
350
3B
  3
ACAD_MLEADERSTYLE
350
F8
  3
ACAD_MLINESTYLE
350
17
  3
ACAD_PLOTSETTINGS
350
19
  3
ACAD_PLOTSTYLENAME
350
E
  3
ACAD_TABLESTYLE
350
F7
  3
ACAD_VISUALSTYLE
350
2A
  0
DICTIONARY
  5
D
102
{ACAD_REACTORS
330
C
102
}
330
C
100
AcDbDictionary
281
     1
  0
DICTIONARY
  5
1A
102
{ACAD_REACTORS
330
C
102
}
330
C
100
AcDbDictionary
281
     1
  3
Layout1
350
1E
  3
Layout2
350
26
  3
Model
350
22
  0
DICTIONARY
  5
3B
102
{ACAD_REACTORS
330
C
102
}
330
C
100
AcDbDictionary
281
     1
  3
ByBlock
350
3D
  3
ByLayer
350
3C
  3
Global
350
3E
  0
DICTIONARY
  5
F8
102
{ACAD_REACTORS
330
C
102
}
330
C
100
AcDbDictionary
281
     1
  0
DICTIONARY
  5
17
102
{ACAD_REACTORS
330
C
102
}
330
C
100
AcDbDictionary
281
     1
  3
Standard
350
18
  0
DICTIONARY
  5
19
102
{ACAD_REACTORS
330
C
102
}
330
C
100
AcDbDictionary
281
     1
  0
ACDBDICTIONARYWDFLT
  5
E
102
{ACAD_REACTORS
330
C
102
}
330
C
100
AcDbDictionary
281
     1
  3
Normal
350
F
100
AcDbDictionaryWithDefault
340
F
  0
DICTIONARY
  5
F7
102
{ACAD_REACTORS
330
C
102
}
330
C
100
AcDbDictionary
281
     1
  0
DICTIONARY
  5
2A
102
{ACAD_REACTORS
330
C
102
}
330
C
100
AcDbDictionary
281
     1
  3
2dWireframe
350
2F
  3
3D Hidden
350
31
  3
3dWireframe
350
30
  3
Basic
350
32
  3
Brighten
350
36
  3
ColorChange
350
3A
  3
Conceptual
350
34
  3
Dim
350
35
  3
Facepattern
350
39
  3
Flat
350
2B
  3
FlatWithEdges
350
2C
  3
Gouraud
350
2D
  3
GouraudWithEdges
350
2E
  3
Linepattern
350
38
  3
Realistic
350
33
  3
Thicken
350
37
  0
LAYOUT
  5
1E
102
{ACAD_REACTORS
330
1A
102
}
330
1A
100
AcDbPlotSettings
  1

  2
none_device
  4

  6

 40
0.0
 41
0.0
 42
0.0
 43
0.0
 44
0.0
 45
0.0
 46
0.0
 47
0.0
 48
0.0
 49
0.0
140
0.0
141
0.0
142
1.0
143
1.0
 70
   688
 72
     0
 73
     0
 74
     5
  7

 75
    16
 76
     0
 77
     2
 78
   300
147
1.0
148
0.0
149
0.0
100
AcDbLayout
  1
Layout1
 70
     1
 71
     1
 10
0.0
 20
0.0
 11
12.0
 21
9.0
 12
0.0
 22
0.0
 32
0.0
 14
1.000000000000000E+20
 24
1.000000000000000E+20
 34
1.000000000000000E+20
 15
-1.000000000000000E+20
 25
-1.000000000000000E+20
 35
-1.000000000000000E+20
146
0.0
 13
0.0
 23
0.0
 33
0.0
 16
1.0
 26
0.0
 36
0.0
 17
0.0
 27
1.0
 37
0.0
 76
     0
330
1B
  0
LAYOUT
  5
26
102
{ACAD_REACTORS
330
1A
102
}
330
1A
100
AcDbPlotSettings
  1

  2
none_device
  4

  6

 40
0.0
 41
0.0
 42
0.0
 43
0.0
 44
0.0
 45
0.0
 46
0.0
 47
0.0
 48
0.0
 49
0.0
140
0.0
141
0.0
142
1.0
143
1.0
 70
   688
 72
     0
 73
     0
 74
     5
  7

 75
    16
 76
     0
 77
     2
 78
   300
147
1.0
148
0.0
149
0.0
100
AcDbLayout
  1
Layout2
 70
     1
 71
     2
 10
0.0
 20
0.0
 11
0.0
 21
0.0
 12
0.0
 22
0.0
 32
0.0
 14
0.0
 24
0.0
 34
0.0
 15
0.0
 25
0.0
 35
0.0
146
0.0
 13
0.0
 23
0.0
 33
0.0
 16
1.0
 26
0.0
 36
0.0
 17
0.0
 27
1.0
 37
0.0
 76
     0
330
23
  0
LAYOUT
  5
22
102
{ACAD_REACTORS
330
1A
102
}
330
1A
100
AcDbPlotSettings
  1

  2
none_device
  4

  6

 40
0.0
 41
0.0
 42
0.0
 43
0.0
 44
0.0
 45
0.0
 46
0.0
 47
0.0
 48
0.0
 49
0.0
140
0.0
141
0.0
142
1.0
143
1.0
 70
  1712
 72
     0
 73
     0
 74
     0
  7

 75
     0
 76
     0
 77
     2
 78
   300
147
1.0
148
0.0
149
0.0
100
AcDbLayout
  1
Model
 70
     1
 71
     0
 10
0.0
 20
0.0
 11
12.0
 21
9.0
 12
0.0
 22
0.0
 32
0.0
 14
73.7371
 24
-114.8266
 34
0.0
 15
196.4744
 25
131.8435
 35
0.0
146
0.0
 13
0.0
 23
0.0
 33
0.0
 16
1.0
 26
0.0
 36
0.0
 17
0.0
 27
1.0
 37
0.0
 76
     0
330
1F
331
29
  0
MATERIAL
  5
3D
102
{ACAD_REACTORS
330
3B
102
}
330
3B
100
AcDbMaterial
  1
ByBlock
 72
     1
 94
      127
  0
MATERIAL
  5
3C
102
{ACAD_REACTORS
330
3B
102
}
330
3B
100
AcDbMaterial
  1
ByLayer
 72
     1
 94
      127
  0
MATERIAL
  5
3E
102
{ACAD_REACTORS
330
3B
102
}
330
3B
100
AcDbMaterial
  1
Global
 72
     1
 94
      127
  0
MLINESTYLE
  5
18
102
{ACAD_REACTORS
330
17
102
}
330
17
100
AcDbMlineStyle
  2
Standard
 70
     0
  3

 62
   256
 51
90.0
 52
90.0
 71
     2
 49
0.5
 62
   256
  6
BYLAYER
 49
-0.5
 62
   256
  6
BYLAYER
  0
ACDBPLACEHOLDER
  5
F
102
{ACAD_REACTORS
330
E
102
}
330
E
  0
VISUALSTYLE
  5
2F
102
{ACAD_REACTORS
330
2A
102
}
102
{ACAD_XDICTIONARY
360
DF
102
}
330
2A
100
AcDbVisualStyle
  2
2dWireframe
 70
     4
 71
     0
 72
     2
 73
     0
 90
        0
 40
-0.6
 41
-30.0
 62
     5
 63
     7
421
 16777215
 74
     1
 91
        4
 64
     7
 65
   257
 75
     1
175
     1
 42
1.0
 92
        0
 66
   257
 43
1.0
 76
     1
 77
     6
 78
     2
 67
     7
 79
     5
170
     0
171
     0
290
     0
174
     0
 93
        1
 44
0.0
173
     0
291
     0
 45
0.0
  0
VISUALSTYLE
  5
31
102
{ACAD_REACTORS
330
2A
102
}
102
{ACAD_XDICTIONARY
360
E3
102
}
330
2A
100
AcDbVisualStyle
  2
3D Hidden
 70
     6
 71
     1
 72
     2
 73
     2
 90
        0
 40
-0.6
 41
-30.0
 62
     5
 63
     7
421
 16777215
 74
     2
 91
        2
 64
     7
 65
   257
 75
     2
175
     1
 42
40.0
 92
        0
 66
   257
 43
1.0
 76
     1
 77
     6
 78
     2
 67
     7
 79
     3
170
     0
171
     0
290
     0
174
     0
 93
        1
 44
0.0
173
     0
291
     0
 45
0.0
  0
VISUALSTYLE
  5
30
102
{ACAD_REACTORS
330
2A
102
}
102
{ACAD_XDICTIONARY
360
E1
102
}
330
2A
100
AcDbVisualStyle
  2
3dWireframe
 70
     5
 71
     0
 72
     2
 73
     0
 90
        0
 40
-0.6
 41
-30.0
 62
     5
 63
     7
421
 16777215
 74
     1
 91
        4
 64
     7
 65
   257
 75
     1
175
     1
 42
1.0
 92
        0
 66
   257
 43
1.0
 76
     1
 77
     6
 78
     2
 67
     7
 79
     5
170
     0
171
     0
290
     0
174
     0
 93
        1
 44
0.0
173
     0
291
     0
 45
0.0
  0
VISUALSTYLE
  5
32
102
{ACAD_REACTORS
330
2A
102
}
102
{ACAD_XDICTIONARY
360
E5
102
}
330
2A
100
AcDbVisualStyle
  2
Basic
 70
     7
 71
     1
 72
     0
 73
     1
 90
        0
 40
-0.6
 41
-30.0
 62
     5
 63
     7
421
 16777215
 74
     0
 91
        4
 64
     7
 65
   257
 75
     1
175
     1
 42
1.0
 92
        8
 66
     7
 43
1.0
 76
     1
 77
     6
 78
     2
 67
     7
 79
     5
170
     0
171
     0
290
     0
174
     0
 93
        1
 44
0.0
173
     0
291
     1
 45
0.0
  0
VISUALSTYLE
  5
36
102
{ACAD_REACTORS
330
2A
102
}
102
{ACAD_XDICTIONARY
360
ED
102
}
330
2A
100
AcDbVisualStyle
  2
Brighten
 70
    12
 71
     2
 72
     2
 73
     0
 90
        0
 40
-0.6
 41
-30.0
 62
     5
 63
     7
421
 16777215
 74
     1
 91
        4
 64
     7
 65
   257
 75
     1
175
     1
 42
1.0
 92
        8
 66
     7
 43
1.0
 76
     1
 77
     6
 78
     2
 67
     7
 79
     5
170
     0
171
     0
290
     0
174
     0
 93
        1
 44
50.0
173
     0
291
     1
 45
0.0
  0
VISUALSTYLE
  5
3A
102
{ACAD_REACTORS
330
2A
102
}
102
{ACAD_XDICTIONARY
360
F5
102
}
330
2A
100
AcDbVisualStyle
  2
ColorChange
 70
    16
 71
     2
 72
     2
 73
     3
 90
        0
 40
-0.6
 41
-30.0
 62
     5
 63
     8
421
  8421504
 74
     1
 91
        4
 64
     7
 65
   257
 75
     1
175
     1
 42
1.0
 92
        8
 66
     8
424
  8421504
 43
1.0
 76
     1
 77
     6
 78
     2
 67
     7
 79
     5
170
     0
171
     0
290
     0
174
     0
 93
        1
 44
0.0
173
     0
291
     1
 45
0.0
  0
VISUALSTYLE
  5
34
102
{ACAD_REACTORS
330
2A
102
}
102
{ACAD_XDICTIONARY
360
E9
102
}
330
2A
100
AcDbVisualStyle
  2
Conceptual
 70
     9
 71
     3
 72
     2
 73
     0
 90
        0
 40
-0.6
 41
-30.0
 62
     5
 63
     7
421
 16777215
 74
     2
 91
        2
 64
     7
 65
   257
 75
     1
175
     1
 42
40.0
 92
        8
 66
     7
 43
1.0
 76
     1
 77
     6
 78
     2
 67
     7
 79
     3
170
     0
171
     0
290
     0
174
     0
 93
        1
 44
0.0
173
     0
291
     0
 45
0.0
  0
VISUALSTYLE
  5
35
102
{ACAD_REACTORS
330
2A
102
}
102
{ACAD_XDICTIONARY
360
EB
102
}
330
2A
100
AcDbVisualStyle
  2
Dim
 70
    11
 71
     2
 72
     2
 73
     0
 90
        0
 40
-0.6
 41
-30.0
 62
     5
 63
     7
421
 16777215
 74
     1
 91
        4
 64
     7
 65
   257
 75
     1
175
     1
 42
1.0
 92
        8
 66
     7
 43
1.0
 76
     1
 77
     6
 78
     2
 67
     7
 79
     5
170
     0
171
     0
290
     0
174
     0
 93
        1
 44
-50.0
173
     0
291
     1
 45
0.0
  0
VISUALSTYLE
  5
39
102
{ACAD_REACTORS
330
2A
102
}
102
{ACAD_XDICTIONARY
360
F3
102
}
330
2A
100
AcDbVisualStyle
  2
Facepattern
 70
    15
 71
     2
 72
     2
 73
     0
 90
        0
 40
-0.6
 41
-30.0
 62
     5
 63
     7
421
 16777215
 74
     1
 91
        4
 64
     7
 65
   257
 75
     1
175
     1
 42
1.0
 92
        8
 66
     7
 43
1.0
 76
     1
 77
     6
 78
     2
 67
     7
 79
     5
170
     0
171
     0
290
     0
174
     0
 93
        1
 44
0.0
173
     0
291
     1
 45
0.0
  0
VISUALSTYLE
  5
2B
102
{ACAD_REACTORS
330
2A
102
}
102
{ACAD_XDICTIONARY
360
D7
102
}
330
2A
100
AcDbVisualStyle
  2
Flat
 70
     0
 71
     2
 72
     1
 73
     1
 90
        2
 40
-0.6
 41
30.0
 62
     5
 63
     7
421
 16777215
 74
     0
 91
        4
 64
     7
 65
   257
 75
     1
175
     1
 42
1.0
 92
        8
 66
     7
 43
1.0
 76
     1
 77
     6
 78
     2
 67
     7
 79
     5
170
     0
171
     0
290
     0
174
     0
 93
       13
 44
0.0
173
     0
291
     1
 45
0.0
  0
VISUALSTYLE
  5
2C
102
{ACAD_REACTORS
330
2A
102
}
102
{ACAD_XDICTIONARY
360
D9
102
}
330
2A
100
AcDbVisualStyle
  2
FlatWithEdges
 70
     1
 71
     2
 72
     1
 73
     1
 90
        2
 40
-0.6
 41
30.0
 62
     5
 63
     7
421
 16777215
 74
     1
 91
        4
 64
     7
 65
   257
 75
     1
175
     1
 42
1.0
 92
        0
 66
   257
 43
1.0
 76
     1
 77
     6
 78
     2
 67
     7
 79
     5
170
     0
171
     0
290
     0
174
     0
 93
       13
 44
0.0
173
     0
291
     1
 45
0.0
  0
VISUALSTYLE
  5
2D
102
{ACAD_REACTORS
330
2A
102
}
102
{ACAD_XDICTIONARY
360
DB
102
}
330
2A
100
AcDbVisualStyle
  2
Gouraud
 70
     2
 71
     2
 72
     2
 73
     1
 90
        2
 40
-0.6
 41
30.0
 62
     5
 63
     7
421
 16777215
 74
     0
 91
        4
 64
     7
 65
   257
 75
     1
175
     1
 42
1.0
 92
        0
 66
     7
 43
1.0
 76
     1
 77
     6
 78
     2
 67
     7
 79
     5
170
     0
171
     0
290
     0
174
     0
 93
       13
 44
0.0
173
     0
291
     1
 45
0.0
  0
VISUALSTYLE
  5
2E
102
{ACAD_REACTORS
330
2A
102
}
102
{ACAD_XDICTIONARY
360
DD
102
}
330
2A
100
AcDbVisualStyle
  2
GouraudWithEdges
 70
     3
 71
     2
 72
     2
 73
     1
 90
        2
 40
-0.6
 41
30.0
 62
     5
 63
     7
421
 16777215
 74
     1
 91
        4
 64
     7
 65
   257
 75
     1
175
     1
 42
1.0
 92
        0
 66
   257
 43
1.0
 76
     1
 77
     6
 78
     2
 67
     7
 79
     5
170
     0
171
     0
290
     0
174
     0
 93
       13
 44
0.0
173
     0
291
     1
 45
0.0
  0
VISUALSTYLE
  5
38
102
{ACAD_REACTORS
330
2A
102
}
102
{ACAD_XDICTIONARY
360
F1
102
}
330
2A
100
AcDbVisualStyle
  2
Linepattern
 70
    14
 71
     2
 72
     2
 73
     0
 90
        0
 40
-0.6
 41
-30.0
 62
     5
 63
     7
421
 16777215
 74
     1
 91
        4
 64
     7
 65
   257
 75
     7
175
     7
 42
1.0
 92
        8
 66
     7
 43
1.0
 76
     1
 77
     6
 78
     2
 67
     7
 79
     5
170
     0
171
     0
290
     0
174
     0
 93
        1
 44
0.0
173
     0
291
     1
 45
0.0
  0
VISUALSTYLE
  5
33
102
{ACAD_REACTORS
330
2A
102
}
102
{ACAD_XDICTIONARY
360
E7
102
}
330
2A
100
AcDbVisualStyle
  2
Realistic
 70
     8
 71
     2
 72
     2
 73
     0
 90
        0
 40
-0.6
 41
-30.0
 62
     5
 63
     7
421
 16777215
 74
     1
 91
        0
 64
     7
 65
   257
 75
     1
175
     1
 42
1.0
 92
        8
 66
     8
424
  7895160
 43
1.0
 76
     1
 77
     6
 78
     2
 67
     7
 79
     5
170
     0
171
     0
290
     0
174
     0
 93
       13
 44
0.0
173
     0
291
     0
 45
0.0
  0
VISUALSTYLE
  5
37
102
{ACAD_REACTORS
330
2A
102
}
102
{ACAD_XDICTIONARY
360
EF
102
}
330
2A
100
AcDbVisualStyle
  2
Thicken
 70
    13
 71
     2
 72
     2
 73
     0
 90
        0
 40
-0.6
 41
-30.0
 62
     5
 63
     7
421
 16777215
 74
     1
 91
        4
 64
     7
 65
   257
 75
     1
175
     1
 42
1.0
 92
       12
 66
     7
 43
1.0
 76
     1
 77
     6
 78
     2
 67
     7
 79
     5
170
     0
171
     0
290
     0
174
     0
 93
        1
 44
0.0
173
     0
291
     1
 45
0.0
  0
DICTIONARY
  5
DF
330
2F
100
AcDbDictionary
280
     1
281
     1
  3
ACAD_XREC_ROUNDTRIP
360
E0
  0
DICTIONARY
  5
E3
330
31
100
AcDbDictionary
280
     1
281
     1
  3
ACAD_XREC_ROUNDTRIP
360
E4
  0
DICTIONARY
  5
E1
330
30
100
AcDbDictionary
280
     1
281
     1
  3
ACAD_XREC_ROUNDTRIP
360
E2
  0
DICTIONARY
  5
E5
330
32
100
AcDbDictionary
280
     1
281
     1
  3
ACAD_XREC_ROUNDTRIP
360
E6
  0
DICTIONARY
  5
ED
330
36
100
AcDbDictionary
280
     1
281
     1
  3
ACAD_XREC_ROUNDTRIP
360
EE
  0
DICTIONARY
  5
F5
330
3A
100
AcDbDictionary
280
     1
281
     1
  3
ACAD_XREC_ROUNDTRIP
360
F6
  0
DICTIONARY
  5
E9
330
34
100
AcDbDictionary
280
     1
281
     1
  3
ACAD_XREC_ROUNDTRIP
360
EA
  0
DICTIONARY
  5
EB
330
35
100
AcDbDictionary
280
     1
281
     1
  3
ACAD_XREC_ROUNDTRIP
360
EC
  0
DICTIONARY
  5
F3
330
39
100
AcDbDictionary
280
     1
281
     1
  3
ACAD_XREC_ROUNDTRIP
360
F4
  0
DICTIONARY
  5
D7
330
2B
100
AcDbDictionary
280
     1
281
     1
  3
ACAD_XREC_ROUNDTRIP
360
D8
  0
DICTIONARY
  5
D9
330
2C
100
AcDbDictionary
280
     1
281
     1
  3
ACAD_XREC_ROUNDTRIP
360
DA
  0
DICTIONARY
  5
DB
330
2D
100
AcDbDictionary
280
     1
281
     1
  3
ACAD_XREC_ROUNDTRIP
360
DC
  0
DICTIONARY
  5
DD
330
2E
100
AcDbDictionary
280
     1
281
     1
  3
ACAD_XREC_ROUNDTRIP
360
DE
  0
DICTIONARY
  5
F1
330
38
100
AcDbDictionary
280
     1
281
     1
  3
ACAD_XREC_ROUNDTRIP
360
F2
  0
DICTIONARY
  5
E7
330
33
100
AcDbDictionary
280
     1
281
     1
  3
ACAD_XREC_ROUNDTRIP
360
E8
  0
DICTIONARY
  5
EF
330
37
100
AcDbDictionary
280
     1
281
     1
  3
ACAD_XREC_ROUNDTRIP
360
F0
  0
XRECORD
  5
E0
102
{ACAD_REACTORS
330
DF
102
}
330
DF
100
AcDbXrecord
280
     1
102
RTVSPropertyOp0
 70
     1
102
RTVSPropertyOp1
 70
     1
102
RTVSPropertyOp2
 70
     1
102
RTVSPropertyOp3
 70
     1
102
RTVSPropertyOp4
 70
     1
102
RTVSPropertyOp5
 70
     1
102
RTVSPropertyOp6
 70
     1
102
RTVSPropertyOp7
 70
     1
102
RTVSPropertyOp8
 70
     1
102
RTVSPropertyOp9
 70
     1
102
RTVSPropertyOp10
 70
     1
102
RTVSPropertyOp11
 70
     1
102
RTVSPropertyOp12
 70
     1
102
RTVSPropertyOp13
 70
     1
102
RTVSPropertyOp14
 70
     1
102
RTVSPropertyOp15
 70
     1
102
RTVSPropertyOp16
 70
     1
102
RTVSPropertyOp17
 70
     1
102
RTVSPropertyOp18
 70
     1
102
RTVSPropertyOp19
 70
     1
102
RTVSPropertyOp20
 70
     1
102
RTVSPropertyOp21
 70
     1
102
RTVSPropertyOp22
 70
     1
102
RTVSPropertyOp23
 70
     1
102
RTVSPropertyOp24
 70
     1
102
RTVSPropertyOp25
 70
     1
102
RTVSPropertyOp26
 70
     1
102
RTVSPropertyOp27
 70
     1
102
RTVSPropertyOp28
 70
     1
102
RTVSPropertyOp29
 70
     1
102
RTVSPropertyOp30
 70
     1
102
RTVSPropertyOp31
 70
     1
102
RTVSPropertyOp32
 70
     1
  0
XRECORD
  5
E4
102
{ACAD_REACTORS
330
E3
102
}
330
E3
100
AcDbXrecord
280
     1
102
RTVSPropertyOp0
 70
     1
102
RTVSPropertyOp1
 70
     1
102
RTVSPropertyOp2
 70
     1
102
RTVSPropertyOp3
 70
     1
102
RTVSPropertyOp4
 70
     1
102
RTVSPropertyOp5
 70
     1
102
RTVSPropertyOp6
 70
     1
102
RTVSPropertyOp7
 70
     1
102
RTVSPropertyOp8
 70
     1
102
RTVSPropertyOp9
 70
     1
102
RTVSPropertyOp10
 70
     1
102
RTVSPropertyOp11
 70
     1
102
RTVSPropertyOp12
 70
     1
102
RTVSPropertyOp13
 70
     1
102
RTVSPropertyOp14
 70
     1
102
RTVSPropertyOp15
 70
     1
102
RTVSPropertyOp16
 70
     1
102
RTVSPropertyOp17
 70
     1
102
RTVSPropertyOp18
 70
     1
102
RTVSPropertyOp19
 70
     1
102
RTVSPropertyOp20
 70
     1
102
RTVSPropertyOp21
 70
     1
102
RTVSPropertyOp22
 70
     1
102
RTVSPropertyOp23
 70
     1
102
RTVSPropertyOp24
 70
     1
102
RTVSPropertyOp25
 70
     1
102
RTVSPropertyOp26
 70
     1
102
RTVSPropertyOp27
 70
     1
102
RTVSPropertyOp28
 70
     1
102
RTVSPropertyOp29
 70
     1
102
RTVSPropertyOp30
 70
     1
102
RTVSPropertyOp31
 70
     1
102
RTVSPropertyOp32
 70
     1
  0
XRECORD
  5
E2
102
{ACAD_REACTORS
330
E1
102
}
330
E1
100
AcDbXrecord
280
     1
102
RTVSPropertyOp0
 70
     1
102
RTVSPropertyOp1
 70
     1
102
RTVSPropertyOp2
 70
     1
102
RTVSPropertyOp3
 70
     1
102
RTVSPropertyOp4
 70
     1
102
RTVSPropertyOp5
 70
     1
102
RTVSPropertyOp6
 70
     1
102
RTVSPropertyOp7
 70
     1
102
RTVSPropertyOp8
 70
     1
102
RTVSPropertyOp9
 70
     1
102
RTVSPropertyOp10
 70
     1
102
RTVSPropertyOp11
 70
     1
102
RTVSPropertyOp12
 70
     1
102
RTVSPropertyOp13
 70
     1
102
RTVSPropertyOp14
 70
     1
102
RTVSPropertyOp15
 70
     1
102
RTVSPropertyOp16
 70
     1
102
RTVSPropertyOp17
 70
     1
102
RTVSPropertyOp18
 70
     1
102
RTVSPropertyOp19
 70
     1
102
RTVSPropertyOp20
 70
     1
102
RTVSPropertyOp21
 70
     1
102
RTVSPropertyOp22
 70
     1
102
RTVSPropertyOp23
 70
     1
102
RTVSPropertyOp24
 70
     1
102
RTVSPropertyOp25
 70
     1
102
RTVSPropertyOp26
 70
     1
102
RTVSPropertyOp27
 70
     1
102
RTVSPropertyOp28
 70
     1
102
RTVSPropertyOp29
 70
     1
102
RTVSPropertyOp30
 70
     1
102
RTVSPropertyOp31
 70
     1
102
RTVSPropertyOp32
 70
     1
  0
XRECORD
  5
E6
102
{ACAD_REACTORS
330
E5
102
}
330
E5
100
AcDbXrecord
280
     1
102
RTVSPropertyOp0
 70
     1
102
RTVSPropertyOp1
 70
     1
102
RTVSPropertyOp2
 70
     1
102
RTVSPropertyOp3
 70
     1
102
RTVSPropertyOp4
 70
     1
102
RTVSPropertyOp5
 70
     1
102
RTVSPropertyOp6
 70
     1
102
RTVSPropertyOp7
 70
     1
102
RTVSPropertyOp8
 70
     1
102
RTVSPropertyOp9
 70
     1
102
RTVSPropertyOp10
 70
     1
102
RTVSPropertyOp11
 70
     1
102
RTVSPropertyOp12
 70
     1
102
RTVSPropertyOp13
 70
     1
102
RTVSPropertyOp14
 70
     1
102
RTVSPropertyOp15
 70
     1
102
RTVSPropertyOp16
 70
     1
102
RTVSPropertyOp17
 70
     1
102
RTVSPropertyOp18
 70
     1
102
RTVSPropertyOp19
 70
     1
102
RTVSPropertyOp20
 70
     1
102
RTVSPropertyOp21
 70
     1
102
RTVSPropertyOp22
 70
     1
102
RTVSPropertyOp23
 70
     1
102
RTVSPropertyOp24
 70
     1
102
RTVSPropertyOp25
 70
     1
102
RTVSPropertyOp26
 70
     1
102
RTVSPropertyOp27
 70
     1
102
RTVSPropertyOp28
 70
     1
102
RTVSPropertyOp29
 70
     1
102
RTVSPropertyOp30
 70
     1
102
RTVSPropertyOp31
 70
     1
102
RTVSPropertyOp32
 70
     1
  0
XRECORD
  5
EE
102
{ACAD_REACTORS
330
ED
102
}
330
ED
100
AcDbXrecord
280
     1
102
RTVSPropertyOp0
 70
     1
102
RTVSPropertyOp1
 70
     1
102
RTVSPropertyOp2
 70
     1
102
RTVSPropertyOp3
 70
     1
102
RTVSPropertyOp4
 70
     1
102
RTVSPropertyOp5
 70
     1
102
RTVSPropertyOp6
 70
     1
102
RTVSPropertyOp7
 70
     1
102
RTVSPropertyOp8
 70
     1
102
RTVSPropertyOp9
 70
     1
102
RTVSPropertyOp10
 70
     1
102
RTVSPropertyOp11
 70
     1
102
RTVSPropertyOp12
 70
     1
102
RTVSPropertyOp13
 70
     1
102
RTVSPropertyOp14
 70
     1
102
RTVSPropertyOp15
 70
     1
102
RTVSPropertyOp16
 70
     1
102
RTVSPropertyOp17
 70
     1
102
RTVSPropertyOp18
 70
     1
102
RTVSPropertyOp19
 70
     1
102
RTVSPropertyOp20
 70
     1
102
RTVSPropertyOp21
 70
     1
102
RTVSPropertyOp22
 70
     1
102
RTVSPropertyOp23
 70
     1
102
RTVSPropertyOp24
 70
     1
102
RTVSPropertyOp25
 70
     1
102
RTVSPropertyOp26
 70
     1
102
RTVSPropertyOp27
 70
     1
102
RTVSPropertyOp28
 70
     1
102
RTVSPropertyOp29
 70
     1
102
RTVSPropertyOp30
 70
     1
102
RTVSPropertyOp31
 70
     1
102
RTVSPropertyOp32
 70
     1
  0
XRECORD
  5
F6
102
{ACAD_REACTORS
330
F5
102
}
330
F5
100
AcDbXrecord
280
     1
102
RTVSPropertyOp0
 70
     1
102
RTVSPropertyOp1
 70
     1
102
RTVSPropertyOp2
 70
     1
102
RTVSPropertyOp3
 70
     1
102
RTVSPropertyOp4
 70
     1
102
RTVSPropertyOp5
 70
     1
102
RTVSPropertyOp6
 70
     1
102
RTVSPropertyOp7
 70
     1
102
RTVSPropertyOp8
 70
     1
102
RTVSPropertyOp9
 70
     1
102
RTVSPropertyOp10
 70
     1
102
RTVSPropertyOp11
 70
     1
102
RTVSPropertyOp12
 70
     1
102
RTVSPropertyOp13
 70
     1
102
RTVSPropertyOp14
 70
     1
102
RTVSPropertyOp15
 70
     1
102
RTVSPropertyOp16
 70
     1
102
RTVSPropertyOp17
 70
     1
102
RTVSPropertyOp18
 70
     1
102
RTVSPropertyOp19
 70
     1
102
RTVSPropertyOp20
 70
     1
102
RTVSPropertyOp21
 70
     1
102
RTVSPropertyOp22
 70
     1
102
RTVSPropertyOp23
 70
     1
102
RTVSPropertyOp24
 70
     1
102
RTVSPropertyOp25
 70
     1
102
RTVSPropertyOp26
 70
     1
102
RTVSPropertyOp27
 70
     1
102
RTVSPropertyOp28
 70
     1
102
RTVSPropertyOp29
 70
     1
102
RTVSPropertyOp30
 70
     1
102
RTVSPropertyOp31
 70
     1
102
RTVSPropertyOp32
 70
     1
  0
XRECORD
  5
EA
102
{ACAD_REACTORS
330
E9
102
}
330
E9
100
AcDbXrecord
280
     1
102
RTVSPropertyOp0
 70
     1
102
RTVSPropertyOp1
 70
     1
102
RTVSPropertyOp2
 70
     1
102
RTVSPropertyOp3
 70
     1
102
RTVSPropertyOp4
 70
     1
102
RTVSPropertyOp5
 70
     1
102
RTVSPropertyOp6
 70
     1
102
RTVSPropertyOp7
 70
     1
102
RTVSPropertyOp8
 70
     1
102
RTVSPropertyOp9
 70
     1
102
RTVSPropertyOp10
 70
     1
102
RTVSPropertyOp11
 70
     1
102
RTVSPropertyOp12
 70
     1
102
RTVSPropertyOp13
 70
     1
102
RTVSPropertyOp14
 70
     1
102
RTVSPropertyOp15
 70
     1
102
RTVSPropertyOp16
 70
     1
102
RTVSPropertyOp17
 70
     1
102
RTVSPropertyOp18
 70
     1
102
RTVSPropertyOp19
 70
     1
102
RTVSPropertyOp20
 70
     1
102
RTVSPropertyOp21
 70
     1
102
RTVSPropertyOp22
 70
     1
102
RTVSPropertyOp23
 70
     1
102
RTVSPropertyOp24
 70
     1
102
RTVSPropertyOp25
 70
     1
102
RTVSPropertyOp26
 70
     1
102
RTVSPropertyOp27
 70
     1
102
RTVSPropertyOp28
 70
     1
102
RTVSPropertyOp29
 70
     1
102
RTVSPropertyOp30
 70
     1
102
RTVSPropertyOp31
 70
     1
102
RTVSPropertyOp32
 70
     1
  0
XRECORD
  5
EC
102
{ACAD_REACTORS
330
EB
102
}
330
EB
100
AcDbXrecord
280
     1
102
RTVSPropertyOp0
 70
     1
102
RTVSPropertyOp1
 70
     1
102
RTVSPropertyOp2
 70
     1
102
RTVSPropertyOp3
 70
     1
102
RTVSPropertyOp4
 70
     1
102
RTVSPropertyOp5
 70
     1
102
RTVSPropertyOp6
 70
     1
102
RTVSPropertyOp7
 70
     1
102
RTVSPropertyOp8
 70
     1
102
RTVSPropertyOp9
 70
     1
102
RTVSPropertyOp10
 70
     1
102
RTVSPropertyOp11
 70
     1
102
RTVSPropertyOp12
 70
     1
102
RTVSPropertyOp13
 70
     1
102
RTVSPropertyOp14
 70
     1
102
RTVSPropertyOp15
 70
     1
102
RTVSPropertyOp16
 70
     1
102
RTVSPropertyOp17
 70
     1
102
RTVSPropertyOp18
 70
     1
102
RTVSPropertyOp19
 70
     1
102
RTVSPropertyOp20
 70
     1
102
RTVSPropertyOp21
 70
     1
102
RTVSPropertyOp22
 70
     1
102
RTVSPropertyOp23
 70
     1
102
RTVSPropertyOp24
 70
     1
102
RTVSPropertyOp25
 70
     1
102
RTVSPropertyOp26
 70
     1
102
RTVSPropertyOp27
 70
     1
102
RTVSPropertyOp28
 70
     1
102
RTVSPropertyOp29
 70
     1
102
RTVSPropertyOp30
 70
     1
102
RTVSPropertyOp31
 70
     1
102
RTVSPropertyOp32
 70
     1
  0
XRECORD
  5
F4
102
{ACAD_REACTORS
330
F3
102
}
330
F3
100
AcDbXrecord
280
     1
102
RTVSPropertyOp0
 70
     1
102
RTVSPropertyOp1
 70
     1
102
RTVSPropertyOp2
 70
     1
102
RTVSPropertyOp3
 70
     1
102
RTVSPropertyOp4
 70
     1
102
RTVSPropertyOp5
 70
     1
102
RTVSPropertyOp6
 70
     1
102
RTVSPropertyOp7
 70
     1
102
RTVSPropertyOp8
 70
     1
102
RTVSPropertyOp9
 70
     1
102
RTVSPropertyOp10
 70
     1
102
RTVSPropertyOp11
 70
     1
102
RTVSPropertyOp12
 70
     1
102
RTVSPropertyOp13
 70
     1
102
RTVSPropertyOp14
 70
     1
102
RTVSPropertyOp15
 70
     1
102
RTVSPropertyOp16
 70
     1
102
RTVSPropertyOp17
 70
     1
102
RTVSPropertyOp18
 70
     1
102
RTVSPropertyOp19
 70
     1
102
RTVSPropertyOp20
 70
     1
102
RTVSPropertyOp21
 70
     1
102
RTVSPropertyOp22
 70
     1
102
RTVSPropertyOp23
 70
     1
102
RTVSPropertyOp24
 70
     1
102
RTVSPropertyOp25
 70
     1
102
RTVSPropertyOp26
 70
     1
102
RTVSPropertyOp27
 70
     1
102
RTVSPropertyOp28
 70
     1
102
RTVSPropertyOp29
 70
     1
102
RTVSPropertyOp30
 70
     1
102
RTVSPropertyOp31
 70
     1
102
RTVSPropertyOp32
 70
     1
  0
XRECORD
  5
D8
102
{ACAD_REACTORS
330
D7
102
}
330
D7
100
AcDbXrecord
280
     1
102
RTVSPropertyOp0
 70
     1
102
RTVSPropertyOp1
 70
     1
102
RTVSPropertyOp2
 70
     1
102
RTVSPropertyOp3
 70
     1
102
RTVSPropertyOp4
 70
     1
102
RTVSPropertyOp5
 70
     1
102
RTVSPropertyOp6
 70
     1
102
RTVSPropertyOp7
 70
     1
102
RTVSPropertyOp8
 70
     1
102
RTVSPropertyOp9
 70
     1
102
RTVSPropertyOp10
 70
     1
102
RTVSPropertyOp11
 70
     1
102
RTVSPropertyOp12
 70
     1
102
RTVSPropertyOp13
 70
     1
102
RTVSPropertyOp14
 70
     1
102
RTVSPropertyOp15
 70
     1
102
RTVSPropertyOp16
 70
     1
102
RTVSPropertyOp17
 70
     1
102
RTVSPropertyOp18
 70
     1
102
RTVSPropertyOp19
 70
     1
102
RTVSPropertyOp20
 70
     1
102
RTVSPropertyOp21
 70
     1
102
RTVSPropertyOp22
 70
     1
102
RTVSPropertyOp23
 70
     1
102
RTVSPropertyOp24
 70
     1
102
RTVSPropertyOp25
 70
     1
102
RTVSPropertyOp26
 70
     1
102
RTVSPropertyOp27
 70
     1
102
RTVSPropertyOp28
 70
     1
102
RTVSPropertyOp29
 70
     1
102
RTVSPropertyOp30
 70
     1
102
RTVSPropertyOp31
 70
     1
102
RTVSPropertyOp32
 70
     1
  0
XRECORD
  5
DA
102
{ACAD_REACTORS
330
D9
102
}
330
D9
100
AcDbXrecord
280
     1
102
RTVSPropertyOp0
 70
     1
102
RTVSPropertyOp1
 70
     1
102
RTVSPropertyOp2
 70
     1
102
RTVSPropertyOp3
 70
     1
102
RTVSPropertyOp4
 70
     1
102
RTVSPropertyOp5
 70
     1
102
RTVSPropertyOp6
 70
     1
102
RTVSPropertyOp7
 70
     1
102
RTVSPropertyOp8
 70
     1
102
RTVSPropertyOp9
 70
     1
102
RTVSPropertyOp10
 70
     1
102
RTVSPropertyOp11
 70
     1
102
RTVSPropertyOp12
 70
     1
102
RTVSPropertyOp13
 70
     1
102
RTVSPropertyOp14
 70
     1
102
RTVSPropertyOp15
 70
     1
102
RTVSPropertyOp16
 70
     1
102
RTVSPropertyOp17
 70
     1
102
RTVSPropertyOp18
 70
     1
102
RTVSPropertyOp19
 70
     1
102
RTVSPropertyOp20
 70
     1
102
RTVSPropertyOp21
 70
     1
102
RTVSPropertyOp22
 70
     1
102
RTVSPropertyOp23
 70
     1
102
RTVSPropertyOp24
 70
     1
102
RTVSPropertyOp25
 70
     1
102
RTVSPropertyOp26
 70
     1
102
RTVSPropertyOp27
 70
     1
102
RTVSPropertyOp28
 70
     1
102
RTVSPropertyOp29
 70
     1
102
RTVSPropertyOp30
 70
     1
102
RTVSPropertyOp31
 70
     1
102
RTVSPropertyOp32
 70
     1
  0
XRECORD
  5
DC
102
{ACAD_REACTORS
330
DB
102
}
330
DB
100
AcDbXrecord
280
     1
102
RTVSPropertyOp0
 70
     1
102
RTVSPropertyOp1
 70
     1
102
RTVSPropertyOp2
 70
     1
102
RTVSPropertyOp3
 70
     1
102
RTVSPropertyOp4
 70
     1
102
RTVSPropertyOp5
 70
     1
102
RTVSPropertyOp6
 70
     1
102
RTVSPropertyOp7
 70
     1
102
RTVSPropertyOp8
 70
     1
102
RTVSPropertyOp9
 70
     1
102
RTVSPropertyOp10
 70
     1
102
RTVSPropertyOp11
 70
     1
102
RTVSPropertyOp12
 70
     1
102
RTVSPropertyOp13
 70
     1
102
RTVSPropertyOp14
 70
     1
102
RTVSPropertyOp15
 70
     1
102
RTVSPropertyOp16
 70
     1
102
RTVSPropertyOp17
 70
     1
102
RTVSPropertyOp18
 70
     1
102
RTVSPropertyOp19
 70
     1
102
RTVSPropertyOp20
 70
     1
102
RTVSPropertyOp21
 70
     1
102
RTVSPropertyOp22
 70
     1
102
RTVSPropertyOp23
 70
     1
102
RTVSPropertyOp24
 70
     1
102
RTVSPropertyOp25
 70
     1
102
RTVSPropertyOp26
 70
     1
102
RTVSPropertyOp27
 70
     1
102
RTVSPropertyOp28
 70
     1
102
RTVSPropertyOp29
 70
     1
102
RTVSPropertyOp30
 70
     1
102
RTVSPropertyOp31
 70
     1
102
RTVSPropertyOp32
 70
     1
  0
XRECORD
  5
DE
102
{ACAD_REACTORS
330
DD
102
}
330
DD
100
AcDbXrecord
280
     1
102
RTVSPropertyOp0
 70
     1
102
RTVSPropertyOp1
 70
     1
102
RTVSPropertyOp2
 70
     1
102
RTVSPropertyOp3
 70
     1
102
RTVSPropertyOp4
 70
     1
102
RTVSPropertyOp5
 70
     1
102
RTVSPropertyOp6
 70
     1
102
RTVSPropertyOp7
 70
     1
102
RTVSPropertyOp8
 70
     1
102
RTVSPropertyOp9
 70
     1
102
RTVSPropertyOp10
 70
     1
102
RTVSPropertyOp11
 70
     1
102
RTVSPropertyOp12
 70
     1
102
RTVSPropertyOp13
 70
     1
102
RTVSPropertyOp14
 70
     1
102
RTVSPropertyOp15
 70
     1
102
RTVSPropertyOp16
 70
     1
102
RTVSPropertyOp17
 70
     1
102
RTVSPropertyOp18
 70
     1
102
RTVSPropertyOp19
 70
     1
102
RTVSPropertyOp20
 70
     1
102
RTVSPropertyOp21
 70
     1
102
RTVSPropertyOp22
 70
     1
102
RTVSPropertyOp23
 70
     1
102
RTVSPropertyOp24
 70
     1
102
RTVSPropertyOp25
 70
     1
102
RTVSPropertyOp26
 70
     1
102
RTVSPropertyOp27
 70
     1
102
RTVSPropertyOp28
 70
     1
102
RTVSPropertyOp29
 70
     1
102
RTVSPropertyOp30
 70
     1
102
RTVSPropertyOp31
 70
     1
102
RTVSPropertyOp32
 70
     1
  0
XRECORD
  5
F2
102
{ACAD_REACTORS
330
F1
102
}
330
F1
100
AcDbXrecord
280
     1
102
RTVSPropertyOp0
 70
     1
102
RTVSPropertyOp1
 70
     1
102
RTVSPropertyOp2
 70
     1
102
RTVSPropertyOp3
 70
     1
102
RTVSPropertyOp4
 70
     1
102
RTVSPropertyOp5
 70
     1
102
RTVSPropertyOp6
 70
     1
102
RTVSPropertyOp7
 70
     1
102
RTVSPropertyOp8
 70
     1
102
RTVSPropertyOp9
 70
     1
102
RTVSPropertyOp10
 70
     1
102
RTVSPropertyOp11
 70
     1
102
RTVSPropertyOp12
 70
     1
102
RTVSPropertyOp13
 70
     1
102
RTVSPropertyOp14
 70
     1
102
RTVSPropertyOp15
 70
     1
102
RTVSPropertyOp16
 70
     1
102
RTVSPropertyOp17
 70
     1
102
RTVSPropertyOp18
 70
     1
102
RTVSPropertyOp19
 70
     1
102
RTVSPropertyOp20
 70
     1
102
RTVSPropertyOp21
 70
     1
102
RTVSPropertyOp22
 70
     1
102
RTVSPropertyOp23
 70
     1
102
RTVSPropertyOp24
 70
     1
102
RTVSPropertyOp25
 70
     1
102
RTVSPropertyOp26
 70
     1
102
RTVSPropertyOp27
 70
     1
102
RTVSPropertyOp28
 70
     1
102
RTVSPropertyOp29
 70
     1
102
RTVSPropertyOp30
 70
     1
102
RTVSPropertyOp31
 70
     1
102
RTVSPropertyOp32
 70
     1
  0
XRECORD
  5
E8
102
{ACAD_REACTORS
330
E7
102
}
330
E7
100
AcDbXrecord
280
     1
102
RTVSPropertyOp0
 70
     1
102
RTVSPropertyOp1
 70
     1
102
RTVSPropertyOp2
 70
     1
102
RTVSPropertyOp3
 70
     1
102
RTVSPropertyOp4
 70
     1
102
RTVSPropertyOp5
 70
     1
102
RTVSPropertyOp6
 70
     1
102
RTVSPropertyOp7
 70
     1
102
RTVSPropertyOp8
 70
     1
102
RTVSPropertyOp9
 70
     1
102
RTVSPropertyOp10
 70
     1
102
RTVSPropertyOp11
 70
     1
102
RTVSPropertyOp12
 70
     1
102
RTVSPropertyOp13
 70
     1
102
RTVSPropertyOp14
 70
     1
102
RTVSPropertyOp15
 70
     1
102
RTVSPropertyOp16
 70
     1
102
RTVSPropertyOp17
 70
     1
102
RTVSPropertyOp18
 70
     1
102
RTVSPropertyOp19
 70
     1
102
RTVSPropertyOp20
 70
     1
102
RTVSPropertyOp21
 70
     1
102
RTVSPropertyOp22
 70
     1
102
RTVSPropertyOp23
 70
     1
102
RTVSPropertyOp24
 70
     1
102
RTVSPropertyOp25
 70
     1
102
RTVSPropertyOp26
 70
     1
102
RTVSPropertyOp27
 70
     1
102
RTVSPropertyOp28
 70
     1
102
RTVSPropertyOp29
 70
     1
102
RTVSPropertyOp30
 70
     1
102
RTVSPropertyOp31
 70
     1
102
RTVSPropertyOp32
 70
     1
  0
XRECORD
  5
F0
102
{ACAD_REACTORS
330
EF
102
}
330
EF
100
AcDbXrecord
280
     1
102
RTVSPropertyOp0
 70
     1
102
RTVSPropertyOp1
 70
     1
102
RTVSPropertyOp2
 70
     1
102
RTVSPropertyOp3
 70
     1
102
RTVSPropertyOp4
 70
     1
102
RTVSPropertyOp5
 70
     1
102
RTVSPropertyOp6
 70
     1
102
RTVSPropertyOp7
 70
     1
102
RTVSPropertyOp8
 70
     1
102
RTVSPropertyOp9
 70
     1
102
RTVSPropertyOp10
 70
     1
102
RTVSPropertyOp11
 70
     1
102
RTVSPropertyOp12
 70
     1
102
RTVSPropertyOp13
 70
     1
102
RTVSPropertyOp14
 70
     1
102
RTVSPropertyOp15
 70
     1
102
RTVSPropertyOp16
 70
     1
102
RTVSPropertyOp17
 70
     1
102
RTVSPropertyOp18
 70
     1
102
RTVSPropertyOp19
 70
     1
102
RTVSPropertyOp20
 70
     1
102
RTVSPropertyOp21
 70
     1
102
RTVSPropertyOp22
 70
     1
102
RTVSPropertyOp23
 70
     1
102
RTVSPropertyOp24
 70
     1
102
RTVSPropertyOp25
 70
     1
102
RTVSPropertyOp26
 70
     1
102
RTVSPropertyOp27
 70
     1
102
RTVSPropertyOp28
 70
     1
102
RTVSPropertyOp29
 70
     1
102
RTVSPropertyOp30
 70
     1
102
RTVSPropertyOp31
 70
     1
102
RTVSPropertyOp32
 70
     1
  0
ENDSEC
  0
EOF
