  0
SECTION
  2
HEADER
  9
$ACADVER
  1
AC1021
  9
$ACADMAINTVER
 70
    25
  9
$DWGCODEPAGE
  3
ANSI_1256
  9
$INSBASE
 10
0.0
 20
0.0
 30
0.0
  9
$EXTMIN
 10
-49.5323
 20
-114.8075
 30
0.0
  9
$EXTMAX
 10
53.7918
 20
131.8561
 30
0.0
  9
$LIMMIN
 10
0.0
 20
0.0
  9
$LIMMAX
 10
12.0
 20
9.0
  9
$ORTHOMODE
 70
     0
  9
$REGENMODE
 70
     1
  9
$FILLMODE
 70
     1
  9
$QTEXTMODE
 70
     0
  9
$MIRRTEXT
 70
     1
  9
$LTSCALE
 40
1.0
  9
$ATTMODE
 70
     1
  9
$TEXTSIZE
 40
0.2
  9
$TRACEWID
 40
0.05
  9
$TEXTSTYLE
  7
Standard
  9
$CLAYER
  8
0
  9
$CELTYPE
  6
ByLayer
  9
$CECOLOR
 62
   256
  9
$CELTSCALE
 40
1.0
  9
$DISPSILH
 70
     0
  9
$DIMSCALE
 40
1.0
  9
$DIMASZ
 40
0.18
  9
$DIMEXO
 40
0.0625
  9
$DIMDLI
 40
0.38
  9
$DIMRND
 40
0.0
  9
$DIMDLE
 40
0.0
  9
$DIMEXE
 40
0.18
  9
$DIMTP
 40
0.0
  9
$DIMTM
 40
0.0
  9
$DIMTXT
 40
0.18
  9
$DIMCEN
 40
0.09
  9
$DIMTSZ
 40
0.0
  9
$DIMTOL
 70
     0
  9
$DIMLIM
 70
     0
  9
$DIMTIH
 70
     1
  9
$DIMTOH
 70
     1
  9
$DIMSE1
 70
     0
  9
$DIMSE2
 70
     0
  9
$DIMTAD
 70
     0
  9
$DIMZIN
 70
     0
  9
$DIMBLK
  1

  9
$DIMASO
 70
     1
  9
$DIMSHO
 70
     1
  9
$DIMPOST
  1

  9
$DIMAPOST
  1

  9
$DIMALT
 70
     0
  9
$DIMALTD
 70
     2
  9
$DIMALTF
 40
25.4
  9
$DIMLFAC
 40
1.0
  9
$DIMTOFL
 70
     0
  9
$DIMTVP
 40
0.0
  9
$DIMTIX
 70
     0
  9
$DIMSOXD
 70
     0
  9
$DIMSAH
 70
     0
  9
$DIMBLK1
  1

  9
$DIMBLK2
  1

  9
$DIMSTYLE
  2
Standard
  9
$DIMCLRD
 70
     0
  9
$DIMCLRE
 70
     0
  9
$DIMCLRT
 70
     0
  9
$DIMTFAC
 40
1.0
  9
$DIMGAP
 40
0.09
  9
$DIMJUST
 70
     0
  9
$DIMSD1
 70
     0
  9
$DIMSD2
 70
     0
  9
$DIMTOLJ
 70
     1
  9
$DIMTZIN
 70
     0
  9
$DIMALTZ
 70
     0
  9
$DIMALTTZ
 70
     0
  9
$DIMUPT
 70
     0
  9
$DIMDEC
 70
     4
  9
$DIMTDEC
 70
     4
  9
$DIMALTU
 70
     2
  9
$DIMALTTD
 70
     2
  9
$DIMTXSTY
  7
Standard
  9
$DIMAUNIT
 70
     0
  9
$DIMADEC
 70
     0
  9
$DIMALTRND
 40
0.0
  9
$DIMAZIN
 70
     0
  9
$DIMDSEP
 70
    46
  9
$DIMATFIT
 70
     3
  9
$DIMFRAC
 70
     0
  9
$DIMLDRBLK
  1

  9
$DIMLUNIT
 70
     2
  9
$DIMLWD
 70
    -2
  9
$DIMLWE
 70
    -2
  9
$DIMTMOVE
 70
     0
  9
$DIMFXL
 40
1.0
  9
$DIMFXLON
 70
     0
  9
$DIMJOGANG
 40
0.7853981633974483
  9
$DIMTFILL
 70
     0
  9
$DIMTFILLCLR
 70
     0
  9
$DIMARCSYM
 70
     0
  9
$DIMLTYPE
  6

  9
$DIMLTEX1
  6

  9
$DIMLTEX2
  6

  9
$LUNITS
 70
     2
  9
$LUPREC
 70
     4
  9
$SKETCHINC
 40
0.1
  9
$FILLETRAD
 40
0.5
  9
$AUNITS
 70
     0
  9
$AUPREC
 70
     0
  9
$MENU
  1
.
  9
$ELEVATION
 40
0.0
  9
$PELEVATION
 40
0.0
  9
$THICKNESS
 40
0.0
  9
$LIMCHECK
 70
     0
  9
$CHAMFERA
 40
0.5
  9
$CHAMFERB
 40
0.5
  9
$CHAMFERC
 40
1.0
  9
$CHAMFERD
 40
0.0
  9
$SKPOLY
 70
     0
  9
$TDCREATE
 40
2458492.392289468
  9
$TDUCREATE
 40
2458492.225622801
  9
$TDUPDATE
 40
2458492.392289676
  9
$TDUUPDATE
 40
2458492.225623009
  9
$TDINDWG
 40
0.0000000116
  9
$TDUSRTIMER
 40
0.0000000116
  9
$USRTIMER
 70
     1
  9
$ANGBASE
 50
0.0
  9
$ANGDIR
 70
     0
  9
$PDMODE
 70
     0
  9
$PDSIZE
 40
0.0
  9
$PLINEWID
 40
0.0
  9
$SPLFRAME
 70
     0
  9
$SPLINETYPE
 70
     6
  9
$SPLINESEGS
 70
     8
  9
$HANDSEED
  5
104
  9
$SURFTAB1
 70
     6
  9
$SURFTAB2
 70
     6
  9
$SURFTYPE
 70
     6
  9
$SURFU
 70
     6
  9
$SURFV
 70
     6
  9
$UCSBASE
  2

  9
$UCSNAME
  2

  9
$UCSORG
 10
0.0
 20
0.0
 30
0.0
  9
$UCSXDIR
 10
1.0
 20
0.0
 30
0.0
  9
$UCSYDIR
 10
0.0
 20
1.0
 30
0.0
  9
$UCSORTHOREF
  2

  9
$UCSORTHOVIEW
 70
     0
  9
$UCSORGTOP
 10
0.0
 20
0.0
 30
0.0
  9
$UCSORGBOTTOM
 10
0.0
 20
0.0
 30
0.0
  9
$UCSORGLEFT
 10
0.0
 20
0.0
 30
0.0
  9
$UCSORGRIGHT
 10
0.0
 20
0.0
 30
0.0
  9
$UCSORGFRONT
 10
0.0
 20
0.0
 30
0.0
  9
$UCSORGBACK
 10
0.0
 20
0.0
 30
0.0
  9
$PUCSBASE
  2

  9
$PUCSNAME
  2

  9
$PUCSORG
 10
0.0
 20
0.0
 30
0.0
  9
$PUCSXDIR
 10
1.0
 20
0.0
 30
0.0
  9
$PUCSYDIR
 10
0.0
 20
1.0
 30
0.0
  9
$PUCSORTHOREF
  2

  9
$PUCSORTHOVIEW
 70
     0
  9
$PUCSORGTOP
 10
0.0
 20
0.0
 30
0.0
  9
$PUCSORGBOTTOM
 10
0.0
 20
0.0
 30
0.0
  9
$PUCSORGLEFT
 10
0.0
 20
0.0
 30
0.0
  9
$PUCSORGRIGHT
 10
0.0
 20
0.0
 30
0.0
  9
$PUCSORGFRONT
 10
0.0
 20
0.0
 30
0.0
  9
$PUCSORGBACK
 10
0.0
 20
0.0
 30
0.0
  9
$USERI1
 70
     0
  9
$USERI2
 70
     0
  9
$USERI3
 70
     0
  9
$USERI4
 70
     0
  9
$USERI5
 70
     0
  9
$USERR1
 40
0.0
  9
$USERR2
 40
0.0
  9
$USERR3
 40
0.0
  9
$USERR4
 40
0.0
  9
$USERR5
 40
0.0
  9
$WORLDVIEW
 70
     1
  9
$SHADEDGE
 70
     3
  9
$SHADEDIF
 70
    70
  9
$TILEMODE
 70
     1
  9
$MAXACTVP
 70
    64
  9
$PINSBASE
 10
0.0
 20
0.0
 30
0.0
  9
$PLIMCHECK
 70
     0
  9
$PEXTMIN
 10
1.000000000000000E+20
 20
1.000000000000000E+20
 30
1.000000000000000E+20
  9
$PEXTMAX
 10
-1.000000000000000E+20
 20
-1.000000000000000E+20
 30
-1.000000000000000E+20
  9
$PLIMMIN
 10
0.0
 20
0.0
  9
$PLIMMAX
 10
12.0
 20
9.0
  9
$UNITMODE
 70
     0
  9
$VISRETAIN
 70
     1
  9
$PLINEGEN
 70
     0
  9
$PSLTSCALE
 70
     1
  9
$TREEDEPTH
 70
  3020
  9
$CMLSTYLE
  2
Standard
  9
$CMLJUST
 70
     0
  9
$CMLSCALE
 40
1.0
  9
$PROXYGRAPHICS
 70
     1
  9
$MEASUREMENT
 70
     0
  9
$CELWEIGHT
370
    -1
  9
$ENDCAPS
280
     0
  9
$JOINSTYLE
280
     0
  9
$LWDISPLAY
290
     0
  9
$INSUNITS
 70
     4
  9
$HYPERLINKBASE
  1

  9
$STYLESHEET
  1

  9
$XEDIT
290
     1
  9
$CEPSNTYPE
380
     0
  9
$PSTYLEMODE
290
     1
  9
$FINGERPRINTGUID
  2
{E0696612-0019-4013-BF60-8EBC8C3F3161}
  9
$VERSIONGUID
  2
{FAEB1C32-E019-11D5-929B-00C0DF256EC4}
  9
$EXTNAMES
290
     1
  9
$PSVPSCALE
 40
0.0
  9
$OLESTARTUP
290
     0
  9
$SORTENTS
280
   127
  9
$INDEXCTL
280
     0
  9
$HIDETEXT
280
     1
  9
$XCLIPFRAME
290
     0
  9
$HALOGAP
280
     0
  9
$OBSCOLOR
 70
   257
  9
$OBSLTYPE
280
     0
  9
$INTERSECTIONDISPLAY
280
     0
  9
$INTERSECTIONCOLOR
 70
   257
  9
$DIMASSOC
280
     2
  9
$PROJECTNAME
  1

  9
$CAMERADISPLAY
290
     0
  9
$LENSLENGTH
 40
50.0
  9
$CAMERAHEIGHT
 40
0.0
  9
$STEPSPERSEC
 40
2.0
  9
$STEPSIZE
 40
6.0
  9
$3DDWFPREC
 40
2.0
  9
$PSOLWIDTH
 40
0.25
  9
$PSOLHEIGHT
 40
4.0
  9
$LOFTANG1
 40
1.570796326794897
  9
$LOFTANG2
 40
1.570796326794897
  9
$LOFTMAG1
 40
0.0
  9
$LOFTMAG2
 40
0.0
  9
$LOFTPARAM
 70
     7
  9
$LOFTNORMALS
280
     1
  9
$LATITUDE
 40
37.795
  9
$LONGITUDE
 40
-122.394
  9
$NORTHDIRECTION
 40
0.0
  9
$TIMEZONE
 70
 -8000
  9
$LIGHTGLYPHDISPLAY
280
     1
  9
$TILEMODELIGHTSYNCH
280
     1
  9
$SOLIDHIST
280
     1
  9
$SHOWHIST
280
     1
  9
$DWFFRAME
280
     2
  9
$DGNFRAME
280
     2
  9
$REALWORLDSCALE
290
     1
  9
$INTERFERECOLOR
 62
   256
  9
$CSHADOW
280
     0
  9
$SHADOWPLANELOCATION
 40
0.0
  0
ENDSEC
  0
SECTION
  2
CLASSES
  0
CLASS
  1
ACDBDICTIONARYWDFLT
  2
AcDbDictionaryWithDefault
  3
ObjectDBX Classes
 90
        0
 91
        4
280
     0
281
     0
  0
CLASS
  1
VISUALSTYLE
  2
AcDbVisualStyle
  3
ObjectDBX Classes
 90
     4095
 91
        4
280
     0
281
     0
  0
CLASS
  1
MATERIAL
  2
AcDbMaterial
  3
ObjectDBX Classes
 90
     1153
 91
        4
280
     0
281
     0
  0
ENDSEC
  0
SECTION
  2
TABLES
  0
TABLE
  2
VPORT
  5
8
330
0
100
AcDbSymbolTable
 70
     1
  0
VPORT
  5
29
330
8
100
AcDbSymbolTableRecord
100
AcDbViewportTableRecord
  2
*Active
 70
     0
 10
0.0
 20
0.0
 11
1.0
 21
1.0
 12
10.42990654205607
 22
4.5
 13
0.0
 23
0.0
 14
0.5
 24
0.5
 15
0.5
 25
0.5
 16
0.0
 26
0.0
 36
1.0
 17
0.0
 27
0.0
 37
0.0
 40
9.0
 41
1.972972972850329
 42
50.0
 43
0.0
 44
0.0
 50
0.0
 51
0.0
 71
     0
 72
   100
 73
     1
 74
     3
 75
     0
 76
     0
 77
     0
 78
     0
281
     0
 65
     1
110
0.0
120
0.0
130
0.0
111
1.0
121
0.0
131
0.0
112
0.0
122
1.0
132
0.0
 79
     0
146
0.0
 60
     3
 61
     5
292
     1
282
     1
141
0.0
142
0.0
 63
   250
  0
ENDTAB
  0
TABLE
  2
LTYPE
  5
5
330
0
100
AcDbSymbolTable
 70
     1
  0
LTYPE
  5
14
330
5
100
AcDbSymbolTableRecord
100
AcDbLinetypeTableRecord
  2
ByBlock
 70
     0
  3

 72
    65
 73
     0
 40
0.0
  0
LTYPE
  5
15
330
5
100
AcDbSymbolTableRecord
100
AcDbLinetypeTableRecord
  2
ByLayer
 70
     0
  3

 72
    65
 73
     0
 40
0.0
  0
LTYPE
  5
16
330
5
100
AcDbSymbolTableRecord
100
AcDbLinetypeTableRecord
  2
Continuous
 70
     0
  3
Solid line
 72
    65
 73
     0
 40
0.0
  0
ENDTAB
  0
TABLE
  2
LAYER
  5
2
330
0
100
AcDbSymbolTable
 70
     2
  0
LAYER
  5
10
330
2
100
AcDbSymbolTableRecord
100
AcDbLayerTableRecord
  2
0
 70
     0
 62
     7
  6
Continuous
370
    -3
390
F
347
3E
  0
LAYER
  5
40
330
2
100
AcDbSymbolTableRecord
100
AcDbLayerTableRecord
  2
layer 1
 70
     0
 62
     7
  6
Continuous
370
    -3
390
F
347
3E
  0
ENDTAB
  0
TABLE
  2
STYLE
  5
3
330
0
100
AcDbSymbolTable
 70
     1
  0
STYLE
  5
11
330
3
100
AcDbSymbolTableRecord
100
AcDbTextStyleTableRecord
  2
Standard
 70
     0
 40
0.0
 41
1.0
 50
0.0
 71
     0
 42
0.2
  3
txt
  4

  0
ENDTAB
  0
TABLE
  2
VIEW
  5
6
330
0
100
AcDbSymbolTable
 70
     0
  0
ENDTAB
  0
TABLE
  2
UCS
  5
7
330
0
100
AcDbSymbolTable
 70
     0
  0
ENDTAB
  0
TABLE
  2
APPID
  5
9
330
0
100
AcDbSymbolTable
 70
     2
  0
APPID
  5
12
330
9
100
AcDbSymbolTableRecord
100
AcDbRegAppTableRecord
  2
ACAD
 70
     0
  0
APPID
  5
3F
330
9
100
AcDbSymbolTableRecord
100
AcDbRegAppTableRecord
  2
ODA
 70
     0
  0
ENDTAB
  0
TABLE
  2
DIMSTYLE
  5
A
330
0
100
AcDbSymbolTable
 70
     1
100
AcDbDimStyleTable
  0
DIMSTYLE
105
27
330
A
100
AcDbSymbolTableRecord
100
AcDbDimStyleTableRecord
  2
Standard
 70
     0
178
     0
340
11
  0
ENDTAB
  0
TABLE
  2
BLOCK_RECORD
  5
1
330
0
100
AcDbSymbolTable
 70
     1
  0
BLOCK_RECORD
  5
1F
330
1
100
AcDbSymbolTableRecord
100
AcDbBlockTableRecord
  2
*Model_Space
340
22
 70
     0
280
     1
281
     0
  0
BLOCK_RECORD
  5
1B
330
1
100
AcDbSymbolTableRecord
100
AcDbBlockTableRecord
  2
*Paper_Space
340
1E
 70
     0
280
     1
281
     0
  0
BLOCK_RECORD
  5
23
330
1
100
AcDbSymbolTableRecord
100
AcDbBlockTableRecord
  2
*Paper_Space0
340
26
 70
     0
280
     1
281
     0
  0
ENDTAB
  0
ENDSEC
  0
SECTION
  2
BLOCKS
  0
BLOCK
  5
20
330
1F
100
AcDbEntity
  8
0
100
AcDbBlockBegin
  2
*Model_Space
 70
     0
 10
0.0
 20
0.0
 30
0.0
  3
*Model_Space
  1

  0
ENDBLK
  5
21
330
1F
100
AcDbEntity
  8
0
100
AcDbBlockEnd
  0
BLOCK
  5
1C
330
1B
100
AcDbEntity
 67
     1
  8
0
100
AcDbBlockBegin
  2
*Paper_Space
 70
     0
 10
0.0
 20
0.0
 30
0.0
  3
*Paper_Space
  1

  0
ENDBLK
  5
1D
330
1B
100
AcDbEntity
 67
     1
  8
0
100
AcDbBlockEnd
  0
BLOCK
  5
24
330
23
100
AcDbEntity
  8
0
100
AcDbBlockBegin
  2
*Paper_Space0
 70
     0
 10
0.0
 20
0.0
 30
0.0
  3
*Paper_Space0
  1

  0
ENDBLK
  5
25
330
23
100
AcDbEntity
  8
0
100
AcDbBlockEnd
  0
ENDSEC
  0
SECTION
  2
ENTITIES
  0
SPLINE
  5
41
330
1F
100
AcDbEntity
  8
layer 1
100
AcDbSpline
210
0.0
220
0.0
230
1.0
 70
     8
 71
     3
 72
    36
 73
    32
 74
     0
 42
0.0000000001
 43
0.0000000001
 12
1.0
 22
0.0
 32
0.0
 13
1.0
 23
0.0
 33
0.0
 40
0.0
 40
0.0
 40
0.0
 40
0.0
 40
0.1111111111111111
 40
0.1111111111111111
 40
0.1111111111111111
 40
0.1111111111111111
 40
0.2222222222222222
 40
0.2222222222222222
 40
0.2222222222222222
 40
0.2222222222222222
 40
0.3333333333333333
 40
0.3333333333333333
 40
0.3333333333333333
 40
0.3333333333333333
 40
0.4444444444444444
 40
0.4444444444444444
 40
0.4444444444444444
 40
0.4444444444444444
 40
0.5555555555555556
 40
0.5555555555555556
 40
0.5555555555555556
 40
0.5555555555555556
 40
0.6666666666666666
 40
0.6666666666666666
 40
0.6666666666666666
 40
0.6666666666666666
 40
0.7777777777777778
 40
0.7777777777777778
 40
0.7777777777777778
 40
0.7777777777777778
 40
1.0
 40
1.0
 40
1.0
 40
1.0
 10
-49.3987
 20
131.8561
 30
0.0
 10
-49.3987
 20
131.8561
 30
0.0
 10
53.658
 20
131.8561
 30
0.0
 10
53.658
 20
131.8561
 30
0.0
 10
53.658
 20
131.8561
 30
0.0
 10
53.7319
 20
131.8559
 30
0.0
 10
53.7918
 20
131.796
 30
0.0
 10
53.7918
 20
131.7223
 30
0.0
 10
53.7918
 20
131.7223
 30
0.0
 10
53.7918
 20
131.7223
 30
0.0
 10
53.7916
 20
-114.6739
 30
0.0
 10
53.7916
 20
-114.6739
 30
0.0
 10
53.7916
 20
-114.6739
 30
0.0
 10
53.7918
 20
-114.7474
 30
0.0
 10
53.7319
 20
-114.8073
 30
0.0
 10
53.6581
 20
-114.8073
 30
0.0
 10
53.6581
 20
-114.8073
 30
0.0
 10
53.6581
 20
-114.8073
 30
0.0
 10
-49.3987
 20
-114.8075
 30
0.0
 10
-49.3987
 20
-114.8075
 30
0.0
 10
-49.3987
 20
-114.8075
 30
0.0
 10
-49.4722
 20
-114.8073
 30
0.0
 10
-49.5321
 20
-114.7474
 30
0.0
 10
-49.5321
 20
-114.6737
 30
0.0
 10
-49.5321
 20
-114.6737
 30
0.0
 10
-49.5321
 20
-114.6737
 30
0.0
 10
-49.5323
 20
131.7223
 30
0.0
 10
-49.5323
 20
131.7223
 30
0.0
 10
-49.5323
 20
131.7223
 30
0.0
 10
-49.5321
 20
131.796
 30
0.0
 10
-49.4722
 20
131.8559
 30
0.0
 10
-49.3985
 20
131.8559
 30
0.0
  0
SPLINE
  5
42
330
1F
100
AcDbEntity
  8
layer 1
 62
     7
100
AcDbSpline
210
0.0
220
0.0
230
1.0
 70
    11
 71
     3
 72
    28
 73
    24
 74
     0
 42
0.0000000001
 43
0.0000000001
 12
1.0
 22
0.0
 32
0.0
 13
1.0
 23
0.0
 33
0.0
 40
0.0
 40
0.0
 40
0.0
 40
0.0
 40
0.1428571428571428
 40
0.1428571428571428
 40
0.1428571428571428
 40
0.1428571428571428
 40
0.2857142857142857
 40
0.2857142857142857
 40
0.2857142857142857
 40
0.2857142857142857
 40
0.4285714285714285
 40
0.4285714285714285
 40
0.4285714285714285
 40
0.4285714285714285
 40
0.5714285714285714
 40
0.5714285714285714
 40
0.5714285714285714
 40
0.5714285714285714
 40
0.7142857142857143
 40
0.7142857142857143
 40
0.7142857142857143
 40
0.7142857142857143
 40
1.0
 40
1.0
 40
1.0
 40
1.0
 10
-45.1259
 20
128.2141
 30
0.0
 10
-45.1259
 20
128.2141
 30
0.0
 10
-39.0421
 20
128.2141
 30
0.0
 10
-39.0421
 20
128.2141
 30
0.0
 10
-39.0421
 20
128.2141
 30
0.0
 10
-36.6519
 20
128.2141
 30
0.0
 10
-34.7276
 20
126.2899
 30
0.0
 10
-34.7276
 20
123.8996
 30
0.0
 10
-34.7276
 20
123.8996
 30
0.0
 10
-34.7276
 20
123.8996
 30
0.0
 10
-34.7276
 20
117.8399
 30
0.0
 10
-34.7276
 20
117.8399
 30
0.0
 10
-34.7276
 20
117.8399
 30
0.0
 10
-34.7276
 20
117.8399
 30
0.0
 10
-40.8354
 20
117.7919
 30
0.0
 10
-40.8354
 20
117.7919
 30
0.0
 10
-40.8354
 20
117.7919
 30
0.0
 10
-43.2256
 20
117.7919
 30
0.0
 10
-45.1499
 20
119.7161
 30
0.0
 10
-45.1499
 20
122.1064
 30
0.0
 10
-45.1499
 20
122.1064
 30
0.0
 10
-45.1499
 20
122.1064
 30
0.0
 10
-45.1259
 20
128.2141
 30
0.0
 10
-45.1259
 20
128.2141
 30
0.0
  0
SPLINE
  5
43
330
1F
100
AcDbEntity
  8
layer 1
 62
     7
100
AcDbSpline
210
0.0
220
0.0
230
1.0
 70
    11
 71
     3
 72
    28
 73
    24
 74
     0
 42
0.0000000001
 43
0.0000000001
 12
1.0
 22
0.0
 32
0.0
 13
1.0
 23
0.0
 33
0.0
 40
0.0
 40
0.0
 40
0.0
 40
0.0
 40
0.1428571428571428
 40
0.1428571428571428
 40
0.1428571428571428
 40
0.1428571428571428
 40
0.2857142857142857
 40
0.2857142857142857
 40
0.2857142857142857
 40
0.2857142857142857
 40
0.4285714285714285
 40
0.4285714285714285
 40
0.4285714285714285
 40
0.4285714285714285
 40
0.5714285714285714
 40
0.5714285714285714
 40
0.5714285714285714
 40
0.5714285714285714
 40
0.7142857142857143
 40
0.7142857142857143
 40
0.7142857142857143
 40
0.7142857142857143
 40
1.0
 40
1.0
 40
1.0
 40
1.0
 10
-22.6472
 20
128.2141
 30
0.0
 10
-22.6472
 20
128.2141
 30
0.0
 10
-28.731
 20
128.2141
 30
0.0
 10
-28.731
 20
128.2141
 30
0.0
 10
-28.731
 20
128.2141
 30
0.0
 10
-31.1212
 20
128.2141
 30
0.0
 10
-33.0455
 20
126.2899
 30
0.0
 10
-33.0455
 20
123.8996
 30
0.0
 10
-33.0455
 20
123.8996
 30
0.0
 10
-33.0455
 20
123.8996
 30
0.0
 10
-33.0455
 20
117.8399
 30
0.0
 10
-33.0455
 20
117.8399
 30
0.0
 10
-33.0455
 20
117.8399
 30
0.0
 10
-33.0455
 20
117.8399
 30
0.0
 10
-26.9377
 20
117.7919
 30
0.0
 10
-26.9377
 20
117.7919
 30
0.0
 10
-26.9377
 20
117.7919
 30
0.0
 10
-24.5475
 20
117.7919
 30
0.0
 10
-22.6232
 20
119.7161
 30
0.0
 10
-22.6232
 20
122.1064
 30
0.0
 10
-22.6232
 20
122.1064
 30
0.0
 10
-22.6232
 20
122.1064
 30
0.0
 10
-22.6472
 20
128.2141
 30
0.0
 10
-22.6472
 20
128.2141
 30
0.0
  0
SPLINE
  5
44
330
1F
100
AcDbEntity
  8
layer 1
 62
     7
100
AcDbSpline
210
0.0
220
0.0
230
1.0
 70
    11
 71
     3
 72
    28
 73
    24
 74
     0
 42
0.0000000001
 43
0.0000000001
 12
1.0
 22
0.0
 32
0.0
 13
1.0
 23
0.0
 33
0.0
 40
0.0
 40
0.0
 40
0.0
 40
0.0
 40
0.1428571428571428
 40
0.1428571428571428
 40
0.1428571428571428
 40
0.1428571428571428
 40
0.2857142857142857
 40
0.2857142857142857
 40
0.2857142857142857
 40
0.2857142857142857
 40
0.4285714285714285
 40
0.4285714285714285
 40
0.4285714285714285
 40
0.4285714285714285
 40
0.5714285714285714
 40
0.5714285714285714
 40
0.5714285714285714
 40
0.5714285714285714
 40
0.7142857142857143
 40
0.7142857142857143
 40
0.7142857142857143
 40
0.7142857142857143
 40
1.0
 40
1.0
 40
1.0
 40
1.0
 10
-45.1259
 20
105.8553
 30
0.0
 10
-45.1259
 20
105.8553
 30
0.0
 10
-39.0421
 20
105.8553
 30
0.0
 10
-39.0421
 20
105.8553
 30
0.0
 10
-39.0421
 20
105.8553
 30
0.0
 10
-36.6519
 20
105.8553
 30
0.0
 10
-34.7276
 20
107.7795
 30
0.0
 10
-34.7276
 20
110.1698
 30
0.0
 10
-34.7276
 20
110.1698
 30
0.0
 10
-34.7276
 20
110.1698
 30
0.0
 10
-34.7276
 20
116.2295
 30
0.0
 10
-34.7276
 20
116.2295
 30
0.0
 10
-34.7276
 20
116.2295
 30
0.0
 10
-34.7276
 20
116.2295
 30
0.0
 10
-40.8354
 20
116.2775
 30
0.0
 10
-40.8354
 20
116.2775
 30
0.0
 10
-40.8354
 20
116.2775
 30
0.0
 10
-43.2256
 20
116.2775
 30
0.0
 10
-45.1499
 20
114.3533
 30
0.0
 10
-45.1499
 20
111.963
 30
0.0
 10
-45.1499
 20
111.963
 30
0.0
 10
-45.1499
 20
111.963
 30
0.0
 10
-45.1259
 20
105.8553
 30
0.0
 10
-45.1259
 20
105.8553
 30
0.0
  0
SPLINE
  5
45
330
1F
100
AcDbEntity
  8
layer 1
 62
     7
100
AcDbSpline
210
0.0
220
0.0
230
1.0
 70
    11
 71
     3
 72
    28
 73
    24
 74
     0
 42
0.0000000001
 43
0.0000000001
 12
1.0
 22
0.0
 32
0.0
 13
1.0
 23
0.0
 33
0.0
 40
0.0
 40
0.0
 40
0.0
 40
0.0
 40
0.1428571428571428
 40
0.1428571428571428
 40
0.1428571428571428
 40
0.1428571428571428
 40
0.2857142857142857
 40
0.2857142857142857
 40
0.2857142857142857
 40
0.2857142857142857
 40
0.4285714285714285
 40
0.4285714285714285
 40
0.4285714285714285
 40
0.4285714285714285
 40
0.5714285714285714
 40
0.5714285714285714
 40
0.5714285714285714
 40
0.5714285714285714
 40
0.7142857142857143
 40
0.7142857142857143
 40
0.7142857142857143
 40
0.7142857142857143
 40
1.0
 40
1.0
 40
1.0
 40
1.0
 10
-22.6472
 20
105.8553
 30
0.0
 10
-22.6472
 20
105.8553
 30
0.0
 10
-28.731
 20
105.8553
 30
0.0
 10
-28.731
 20
105.8553
 30
0.0
 10
-28.731
 20
105.8553
 30
0.0
 10
-31.1212
 20
105.8553
 30
0.0
 10
-33.0455
 20
107.7795
 30
0.0
 10
-33.0455
 20
110.1698
 30
0.0
 10
-33.0455
 20
110.1698
 30
0.0
 10
-33.0455
 20
110.1698
 30
0.0
 10
-33.0455
 20
116.2295
 30
0.0
 10
-33.0455
 20
116.2295
 30
0.0
 10
-33.0455
 20
116.2295
 30
0.0
 10
-33.0455
 20
116.2295
 30
0.0
 10
-26.9377
 20
116.2775
 30
0.0
 10
-26.9377
 20
116.2775
 30
0.0
 10
-26.9377
 20
116.2775
 30
0.0
 10
-24.5475
 20
116.2775
 30
0.0
 10
-22.6232
 20
114.3533
 30
0.0
 10
-22.6232
 20
111.963
 30
0.0
 10
-22.6232
 20
111.963
 30
0.0
 10
-22.6232
 20
111.963
 30
0.0
 10
-22.6472
 20
105.8553
 30
0.0
 10
-22.6472
 20
105.8553
 30
0.0
  0
SPLINE
  5
46
330
1F
100
AcDbEntity
  8
layer 1
 62
     7
100
AcDbSpline
210
0.0
220
0.0
230
1.0
 70
    11
 71
     3
 72
    28
 73
    24
 74
     0
 42
0.0000000001
 43
0.0000000001
 12
1.0
 22
0.0
 32
0.0
 13
1.0
 23
0.0
 33
0.0
 40
0.0
 40
0.0
 40
0.0
 40
0.0
 40
0.1428571428571428
 40
0.1428571428571428
 40
0.1428571428571428
 40
0.1428571428571428
 40
0.2857142857142857
 40
0.2857142857142857
 40
0.2857142857142857
 40
0.2857142857142857
 40
0.4285714285714285
 40
0.4285714285714285
 40
0.4285714285714285
 40
0.4285714285714285
 40
0.5714285714285714
 40
0.5714285714285714
 40
0.5714285714285714
 40
0.5714285714285714
 40
0.7142857142857143
 40
0.7142857142857143
 40
0.7142857142857143
 40
0.7142857142857143
 40
1.0
 40
1.0
 40
1.0
 40
1.0
 10
-20.9908
 20
128.2141
 30
0.0
 10
-20.9908
 20
128.2141
 30
0.0
 10
-14.9071
 20
128.2141
 30
0.0
 10
-14.9071
 20
128.2141
 30
0.0
 10
-14.9071
 20
128.2141
 30
0.0
 10
-12.5168
 20
128.2141
 30
0.0
 10
-10.5926
 20
126.2899
 30
0.0
 10
-10.5926
 20
123.8996
 30
0.0
 10
-10.5926
 20
123.8996
 30
0.0
 10
-10.5926
 20
123.8996
 30
0.0
 10
-10.5926
 20
117.8399
 30
0.0
 10
-10.5926
 20
117.8399
 30
0.0
 10
-10.5926
 20
117.8399
 30
0.0
 10
-10.5926
 20
117.8399
 30
0.0
 10
-16.7003
 20
117.7919
 30
0.0
 10
-16.7003
 20
117.7919
 30
0.0
 10
-16.7003
 20
117.7919
 30
0.0
 10
-19.0905
 20
117.7919
 30
0.0
 10
-21.0148
 20
119.7161
 30
0.0
 10
-21.0148
 20
122.1064
 30
0.0
 10
-21.0148
 20
122.1064
 30
0.0
 10
-21.0148
 20
122.1064
 30
0.0
 10
-20.9908
 20
128.2141
 30
0.0
 10
-20.9908
 20
128.2141
 30
0.0
  0
SPLINE
  5
47
330
1F
100
AcDbEntity
  8
layer 1
 62
     7
100
AcDbSpline
210
0.0
220
0.0
230
1.0
 70
    11
 71
     3
 72
    28
 73
    24
 74
     0
 42
0.0000000001
 43
0.0000000001
 12
1.0
 22
0.0
 32
0.0
 13
1.0
 23
0.0
 33
0.0
 40
0.0
 40
0.0
 40
0.0
 40
0.0
 40
0.1428571428571428
 40
0.1428571428571428
 40
0.1428571428571428
 40
0.1428571428571428
 40
0.2857142857142857
 40
0.2857142857142857
 40
0.2857142857142857
 40
0.2857142857142857
 40
0.4285714285714285
 40
0.4285714285714285
 40
0.4285714285714285
 40
0.4285714285714285
 40
0.5714285714285714
 40
0.5714285714285714
 40
0.5714285714285714
 40
0.5714285714285714
 40
0.7142857142857143
 40
0.7142857142857143
 40
0.7142857142857143
 40
0.7142857142857143
 40
1.0
 40
1.0
 40
1.0
 40
1.0
 10
1.4879
 20
128.2141
 30
0.0
 10
1.4879
 20
128.2141
 30
0.0
 10
-4.5959
 20
128.2141
 30
0.0
 10
-4.5959
 20
128.2141
 30
0.0
 10
-4.5959
 20
128.2141
 30
0.0
 10
-6.9861
 20
128.2141
 30
0.0
 10
-8.9104
 20
126.2899
 30
0.0
 10
-8.9104
 20
123.8996
 30
0.0
 10
-8.9104
 20
123.8996
 30
0.0
 10
-8.9104
 20
123.8996
 30
0.0
 10
-8.9104
 20
117.8399
 30
0.0
 10
-8.9104
 20
117.8399
 30
0.0
 10
-8.9104
 20
117.8399
 30
0.0
 10
-8.9104
 20
117.8399
 30
0.0
 10
-2.8026
 20
117.7919
 30
0.0
 10
-2.8026
 20
117.7919
 30
0.0
 10
-2.8026
 20
117.7919
 30
0.0
 10
-0.4124
 20
117.7919
 30
0.0
 10
1.5118
 20
119.7161
 30
0.0
 10
1.5118
 20
122.1064
 30
0.0
 10
1.5118
 20
122.1064
 30
0.0
 10
1.5118
 20
122.1064
 30
0.0
 10
1.4879
 20
128.2141
 30
0.0
 10
1.4879
 20
128.2141
 30
0.0
  0
SPLINE
  5
48
330
1F
100
AcDbEntity
  8
layer 1
 62
     7
100
AcDbSpline
210
0.0
220
0.0
230
1.0
 70
    11
 71
     3
 72
    28
 73
    24
 74
     0
 42
0.0000000001
 43
0.0000000001
 12
1.0
 22
0.0
 32
0.0
 13
1.0
 23
0.0
 33
0.0
 40
0.0
 40
0.0
 40
0.0
 40
0.0
 40
0.1428571428571428
 40
0.1428571428571428
 40
0.1428571428571428
 40
0.1428571428571428
 40
0.2857142857142857
 40
0.2857142857142857
 40
0.2857142857142857
 40
0.2857142857142857
 40
0.4285714285714285
 40
0.4285714285714285
 40
0.4285714285714285
 40
0.4285714285714285
 40
0.5714285714285714
 40
0.5714285714285714
 40
0.5714285714285714
 40
0.5714285714285714
 40
0.7142857142857143
 40
0.7142857142857143
 40
0.7142857142857143
 40
0.7142857142857143
 40
1.0
 40
1.0
 40
1.0
 40
1.0
 10
-20.9908
 20
105.8553
 30
0.0
 10
-20.9908
 20
105.8553
 30
0.0
 10
-14.9071
 20
105.8553
 30
0.0
 10
-14.9071
 20
105.8553
 30
0.0
 10
-14.9071
 20
105.8553
 30
0.0
 10
-12.5168
 20
105.8553
 30
0.0
 10
-10.5926
 20
107.7795
 30
0.0
 10
-10.5926
 20
110.1698
 30
0.0
 10
-10.5926
 20
110.1698
 30
0.0
 10
-10.5926
 20
110.1698
 30
0.0
 10
-10.5926
 20
116.2295
 30
0.0
 10
-10.5926
 20
116.2295
 30
0.0
 10
-10.5926
 20
116.2295
 30
0.0
 10
-10.5926
 20
116.2295
 30
0.0
 10
-16.7003
 20
116.2775
 30
0.0
 10
-16.7003
 20
116.2775
 30
0.0
 10
-16.7003
 20
116.2775
 30
0.0
 10
-19.0905
 20
116.2775
 30
0.0
 10
-21.0148
 20
114.3533
 30
0.0
 10
-21.0148
 20
111.963
 30
0.0
 10
-21.0148
 20
111.963
 30
0.0
 10
-21.0148
 20
111.963
 30
0.0
 10
-20.9908
 20
105.8553
 30
0.0
 10
-20.9908
 20
105.8553
 30
0.0
  0
SPLINE
  5
49
330
1F
100
AcDbEntity
  8
layer 1
 62
     7
100
AcDbSpline
210
0.0
220
0.0
230
1.0
 70
    11
 71
     3
 72
    28
 73
    24
 74
     0
 42
0.0000000001
 43
0.0000000001
 12
1.0
 22
0.0
 32
0.0
 13
1.0
 23
0.0
 33
0.0
 40
0.0
 40
0.0
 40
0.0
 40
0.0
 40
0.1428571428571428
 40
0.1428571428571428
 40
0.1428571428571428
 40
0.1428571428571428
 40
0.2857142857142857
 40
0.2857142857142857
 40
0.2857142857142857
 40
0.2857142857142857
 40
0.4285714285714285
 40
0.4285714285714285
 40
0.4285714285714285
 40
0.4285714285714285
 40
0.5714285714285714
 40
0.5714285714285714
 40
0.5714285714285714
 40
0.5714285714285714
 40
0.7142857142857143
 40
0.7142857142857143
 40
0.7142857142857143
 40
0.7142857142857143
 40
1.0
 40
1.0
 40
1.0
 40
1.0
 10
1.4879
 20
105.8553
 30
0.0
 10
1.4879
 20
105.8553
 30
0.0
 10
-4.5959
 20
105.8553
 30
0.0
 10
-4.5959
 20
105.8553
 30
0.0
 10
-4.5959
 20
105.8553
 30
0.0
 10
-6.9861
 20
105.8553
 30
0.0
 10
-8.9104
 20
107.7795
 30
0.0
 10
-8.9104
 20
110.1698
 30
0.0
 10
-8.9104
 20
110.1698
 30
0.0
 10
-8.9104
 20
110.1698
 30
0.0
 10
-8.9104
 20
116.2295
 30
0.0
 10
-8.9104
 20
116.2295
 30
0.0
 10
-8.9104
 20
116.2295
 30
0.0
 10
-8.9104
 20
116.2295
 30
0.0
 10
-2.8026
 20
116.2775
 30
0.0
 10
-2.8026
 20
116.2775
 30
0.0
 10
-2.8026
 20
116.2775
 30
0.0
 10
-0.4124
 20
116.2775
 30
0.0
 10
1.5118
 20
114.3533
 30
0.0
 10
1.5118
 20
111.963
 30
0.0
 10
1.5118
 20
111.963
 30
0.0
 10
1.5118
 20
111.963
 30
0.0
 10
1.4879
 20
105.8553
 30
0.0
 10
1.4879
 20
105.8553
 30
0.0
  0
SPLINE
  5
4A
330
1F
100
AcDbEntity
  8
layer 1
 62
     7
100
AcDbSpline
210
0.0
220
0.0
230
1.0
 70
    11
 71
     3
 72
    28
 73
    24
 74
     0
 42
0.0000000001
 43
0.0000000001
 12
1.0
 22
0.0
 32
0.0
 13
1.0
 23
0.0
 33
0.0
 40
0.0
 40
0.0
 40
0.0
 40
0.0
 40
0.1428571428571428
 40
0.1428571428571428
 40
0.1428571428571428
 40
0.1428571428571428
 40
0.2857142857142857
 40
0.2857142857142857
 40
0.2857142857142857
 40
0.2857142857142857
 40
0.4285714285714285
 40
0.4285714285714285
 40
0.4285714285714285
 40
0.4285714285714285
 40
0.5714285714285714
 40
0.5714285714285714
 40
0.5714285714285714
 40
0.5714285714285714
 40
0.7142857142857143
 40
0.7142857142857143
 40
0.7142857142857143
 40
0.7142857142857143
 40
1.0
 40
1.0
 40
1.0
 40
1.0
 10
3.0425
 20
128.2141
 30
0.0
 10
3.0425
 20
128.2141
 30
0.0
 10
9.1263
 20
128.2141
 30
0.0
 10
9.1263
 20
128.2141
 30
0.0
 10
9.1263
 20
128.2141
 30
0.0
 10
11.5165
 20
128.2141
 30
0.0
 10
13.4408
 20
126.2899
 30
0.0
 10
13.4408
 20
123.8996
 30
0.0
 10
13.4408
 20
123.8996
 30
0.0
 10
13.4408
 20
123.8996
 30
0.0
 10
13.4408
 20
117.8399
 30
0.0
 10
13.4408
 20
117.8399
 30
0.0
 10
13.4408
 20
117.8399
 30
0.0
 10
13.4408
 20
117.8399
 30
0.0
 10
7.333
 20
117.7919
 30
0.0
 10
7.333
 20
117.7919
 30
0.0
 10
7.333
 20
117.7919
 30
0.0
 10
4.9428
 20
117.7919
 30
0.0
 10
3.0185
 20
119.7161
 30
0.0
 10
3.0185
 20
122.1064
 30
0.0
 10
3.0185
 20
122.1064
 30
0.0
 10
3.0185
 20
122.1064
 30
0.0
 10
3.0425
 20
128.2141
 30
0.0
 10
3.0425
 20
128.2141
 30
0.0
  0
SPLINE
  5
4B
330
1F
100
AcDbEntity
  8
layer 1
 62
     7
100
AcDbSpline
210
0.0
220
0.0
230
1.0
 70
    11
 71
     3
 72
    28
 73
    24
 74
     0
 42
0.0000000001
 43
0.0000000001
 12
1.0
 22
0.0
 32
0.0
 13
1.0
 23
0.0
 33
0.0
 40
0.0
 40
0.0
 40
0.0
 40
0.0
 40
0.1428571428571428
 40
0.1428571428571428
 40
0.1428571428571428
 40
0.1428571428571428
 40
0.2857142857142857
 40
0.2857142857142857
 40
0.2857142857142857
 40
0.2857142857142857
 40
0.4285714285714285
 40
0.4285714285714285
 40
0.4285714285714285
 40
0.4285714285714285
 40
0.5714285714285714
 40
0.5714285714285714
 40
0.5714285714285714
 40
0.5714285714285714
 40
0.7142857142857143
 40
0.7142857142857143
 40
0.7142857142857143
 40
0.7142857142857143
 40
1.0
 40
1.0
 40
1.0
 40
1.0
 10
25.5212
 20
128.2141
 30
0.0
 10
25.5212
 20
128.2141
 30
0.0
 10
19.4375
 20
128.2141
 30
0.0
 10
19.4375
 20
128.2141
 30
0.0
 10
19.4375
 20
128.2141
 30
0.0
 10
17.0472
 20
128.2141
 30
0.0
 10
15.123
 20
126.2899
 30
0.0
 10
15.123
 20
123.8996
 30
0.0
 10
15.123
 20
123.8996
 30
0.0
 10
15.123
 20
123.8996
 30
0.0
 10
15.123
 20
117.8399
 30
0.0
 10
15.123
 20
117.8399
 30
0.0
 10
15.123
 20
117.8399
 30
0.0
 10
15.123
 20
117.8399
 30
0.0
 10
21.2307
 20
117.7919
 30
0.0
 10
21.2307
 20
117.7919
 30
0.0
 10
21.2307
 20
117.7919
 30
0.0
 10
23.6209
 20
117.7919
 30
0.0
 10
25.5452
 20
119.7161
 30
0.0
 10
25.5452
 20
122.1064
 30
0.0
 10
25.5452
 20
122.1064
 30
0.0
 10
25.5452
 20
122.1064
 30
0.0
 10
25.5212
 20
128.2141
 30
0.0
 10
25.5212
 20
128.2141
 30
0.0
  0
SPLINE
  5
4C
330
1F
100
AcDbEntity
  8
layer 1
 62
     7
100
AcDbSpline
210
0.0
220
0.0
230
1.0
 70
    11
 71
     3
 72
    28
 73
    24
 74
     0
 42
0.0000000001
 43
0.0000000001
 12
1.0
 22
0.0
 32
0.0
 13
1.0
 23
0.0
 33
0.0
 40
0.0
 40
0.0
 40
0.0
 40
0.0
 40
0.1428571428571428
 40
0.1428571428571428
 40
0.1428571428571428
 40
0.1428571428571428
 40
0.2857142857142857
 40
0.2857142857142857
 40
0.2857142857142857
 40
0.2857142857142857
 40
0.4285714285714285
 40
0.4285714285714285
 40
0.4285714285714285
 40
0.4285714285714285
 40
0.5714285714285714
 40
0.5714285714285714
 40
0.5714285714285714
 40
0.5714285714285714
 40
0.7142857142857143
 40
0.7142857142857143
 40
0.7142857142857143
 40
0.7142857142857143
 40
1.0
 40
1.0
 40
1.0
 40
1.0
 10
3.0425
 20
105.8553
 30
0.0
 10
3.0425
 20
105.8553
 30
0.0
 10
9.1263
 20
105.8553
 30
0.0
 10
9.1263
 20
105.8553
 30
0.0
 10
9.1263
 20
105.8553
 30
0.0
 10
11.5165
 20
105.8553
 30
0.0
 10
13.4408
 20
107.7795
 30
0.0
 10
13.4408
 20
110.1698
 30
0.0
 10
13.4408
 20
110.1698
 30
0.0
 10
13.4408
 20
110.1698
 30
0.0
 10
13.4408
 20
116.2295
 30
0.0
 10
13.4408
 20
116.2295
 30
0.0
 10
13.4408
 20
116.2295
 30
0.0
 10
13.4408
 20
116.2295
 30
0.0
 10
7.333
 20
116.2775
 30
0.0
 10
7.333
 20
116.2775
 30
0.0
 10
7.333
 20
116.2775
 30
0.0
 10
4.9428
 20
116.2775
 30
0.0
 10
3.0185
 20
114.3533
 30
0.0
 10
3.0185
 20
111.963
 30
0.0
 10
3.0185
 20
111.963
 30
0.0
 10
3.0185
 20
111.963
 30
0.0
 10
3.0425
 20
105.8553
 30
0.0
 10
3.0425
 20
105.8553
 30
0.0
  0
SPLINE
  5
4D
330
1F
100
AcDbEntity
  8
layer 1
 62
     7
100
AcDbSpline
210
0.0
220
0.0
230
1.0
 70
    11
 71
     3
 72
    28
 73
    24
 74
     0
 42
0.0000000001
 43
0.0000000001
 12
1.0
 22
0.0
 32
0.0
 13
1.0
 23
0.0
 33
0.0
 40
0.0
 40
0.0
 40
0.0
 40
0.0
 40
0.1428571428571428
 40
0.1428571428571428
 40
0.1428571428571428
 40
0.1428571428571428
 40
0.2857142857142857
 40
0.2857142857142857
 40
0.2857142857142857
 40
0.2857142857142857
 40
0.4285714285714285
 40
0.4285714285714285
 40
0.4285714285714285
 40
0.4285714285714285
 40
0.5714285714285714
 40
0.5714285714285714
 40
0.5714285714285714
 40
0.5714285714285714
 40
0.7142857142857143
 40
0.7142857142857143
 40
0.7142857142857143
 40
0.7142857142857143
 40
1.0
 40
1.0
 40
1.0
 40
1.0
 10
25.5212
 20
105.8553
 30
0.0
 10
25.5212
 20
105.8553
 30
0.0
 10
19.4375
 20
105.8553
 30
0.0
 10
19.4375
 20
105.8553
 30
0.0
 10
19.4375
 20
105.8553
 30
0.0
 10
17.0472
 20
105.8553
 30
0.0
 10
15.123
 20
107.7795
 30
0.0
 10
15.123
 20
110.1698
 30
0.0
 10
15.123
 20
110.1698
 30
0.0
 10
15.123
 20
110.1698
 30
0.0
 10
15.123
 20
116.2295
 30
0.0
 10
15.123
 20
116.2295
 30
0.0
 10
15.123
 20
116.2295
 30
0.0
 10
15.123
 20
116.2295
 30
0.0
 10
21.2307
 20
116.2775
 30
0.0
 10
21.2307
 20
116.2775
 30
0.0
 10
21.2307
 20
116.2775
 30
0.0
 10
23.6209
 20
116.2775
 30
0.0
 10
25.5452
 20
114.3533
 30
0.0
 10
25.5452
 20
111.963
 30
0.0
 10
25.5452
 20
111.963
 30
0.0
 10
25.5452
 20
111.963
 30
0.0
 10
25.5212
 20
105.8553
 30
0.0
 10
25.5212
 20
105.8553
 30
0.0
  0
SPLINE
  5
4E
330
1F
100
AcDbEntity
  8
layer 1
 62
     7
100
AcDbSpline
210
0.0
220
0.0
230
1.0
 70
    11
 71
     3
 72
    28
 73
    24
 74
     0
 42
0.0000000001
 43
0.0000000001
 12
1.0
 22
0.0
 32
0.0
 13
1.0
 23
0.0
 33
0.0
 40
0.0
 40
0.0
 40
0.0
 40
0.0
 40
0.1428571428571428
 40
0.1428571428571428
 40
0.1428571428571428
 40
0.1428571428571428
 40
0.2857142857142857
 40
0.2857142857142857
 40
0.2857142857142857
 40
0.2857142857142857
 40
0.4285714285714285
 40
0.4285714285714285
 40
0.4285714285714285
 40
0.4285714285714285
 40
0.5714285714285714
 40
0.5714285714285714
 40
0.5714285714285714
 40
0.5714285714285714
 40
0.7142857142857143
 40
0.7142857142857143
 40
0.7142857142857143
 40
0.7142857142857143
 40
1.0
 40
1.0
 40
1.0
 40
1.0
 10
26.9065
 20
128.2141
 30
0.0
 10
26.9065
 20
128.2141
 30
0.0
 10
32.9902
 20
128.2141
 30
0.0
 10
32.9902
 20
128.2141
 30
0.0
 10
32.9902
 20
128.2141
 30
0.0
 10
35.3805
 20
128.2141
 30
0.0
 10
37.3047
 20
126.2899
 30
0.0
 10
37.3047
 20
123.8996
 30
0.0
 10
37.3047
 20
123.8996
 30
0.0
 10
37.3047
 20
123.8996
 30
0.0
 10
37.3047
 20
117.8399
 30
0.0
 10
37.3047
 20
117.8399
 30
0.0
 10
37.3047
 20
117.8399
 30
0.0
 10
37.3047
 20
117.8399
 30
0.0
 10
31.197
 20
117.7919
 30
0.0
 10
31.197
 20
117.7919
 30
0.0
 10
31.197
 20
117.7919
 30
0.0
 10
28.8067
 20
117.7919
 30
0.0
 10
26.8825
 20
119.7161
 30
0.0
 10
26.8825
 20
122.1064
 30
0.0
 10
26.8825
 20
122.1064
 30
0.0
 10
26.8825
 20
122.1064
 30
0.0
 10
26.9065
 20
128.2141
 30
0.0
 10
26.9065
 20
128.2141
 30
0.0
  0
SPLINE
  5
4F
330
1F
100
AcDbEntity
  8
layer 1
 62
     7
100
AcDbSpline
210
0.0
220
0.0
230
1.0
 70
    11
 71
     3
 72
    28
 73
    24
 74
     0
 42
0.0000000001
 43
0.0000000001
 12
1.0
 22
0.0
 32
0.0
 13
1.0
 23
0.0
 33
0.0
 40
0.0
 40
0.0
 40
0.0
 40
0.0
 40
0.1428571428571428
 40
0.1428571428571428
 40
0.1428571428571428
 40
0.1428571428571428
 40
0.2857142857142857
 40
0.2857142857142857
 40
0.2857142857142857
 40
0.2857142857142857
 40
0.4285714285714285
 40
0.4285714285714285
 40
0.4285714285714285
 40
0.4285714285714285
 40
0.5714285714285714
 40
0.5714285714285714
 40
0.5714285714285714
 40
0.5714285714285714
 40
0.7142857142857143
 40
0.7142857142857143
 40
0.7142857142857143
 40
0.7142857142857143
 40
1.0
 40
1.0
 40
1.0
 40
1.0
 10
49.3852
 20
128.2141
 30
0.0
 10
49.3852
 20
128.2141
 30
0.0
 10
43.3014
 20
128.2141
 30
0.0
 10
43.3014
 20
128.2141
 30
0.0
 10
43.3014
 20
128.2141
 30
0.0
 10
40.9112
 20
128.2141
 30
0.0
 10
38.9869
 20
126.2899
 30
0.0
 10
38.9869
 20
123.8996
 30
0.0
 10
38.9869
 20
123.8996
 30
0.0
 10
38.9869
 20
123.8996
 30
0.0
 10
38.9869
 20
117.8399
 30
0.0
 10
38.9869
 20
117.8399
 30
0.0
 10
38.9869
 20
117.8399
 30
0.0
 10
38.9869
 20
117.8399
 30
0.0
 10
45.0947
 20
117.7919
 30
0.0
 10
45.0947
 20
117.7919
 30
0.0
 10
45.0947
 20
117.7919
 30
0.0
 10
47.4849
 20
117.7919
 30
0.0
 10
49.4091
 20
119.7161
 30
0.0
 10
49.4091
 20
122.1064
 30
0.0
 10
49.4091
 20
122.1064
 30
0.0
 10
49.4091
 20
122.1064
 30
0.0
 10
49.3852
 20
128.2141
 30
0.0
 10
49.3852
 20
128.2141
 30
0.0
  0
SPLINE
  5
50
330
1F
100
AcDbEntity
  8
layer 1
 62
     7
100
AcDbSpline
210
0.0
220
0.0
230
1.0
 70
    11
 71
     3
 72
    28
 73
    24
 74
     0
 42
0.0000000001
 43
0.0000000001
 12
1.0
 22
0.0
 32
0.0
 13
1.0
 23
0.0
 33
0.0
 40
0.0
 40
0.0
 40
0.0
 40
0.0
 40
0.1428571428571428
 40
0.1428571428571428
 40
0.1428571428571428
 40
0.1428571428571428
 40
0.2857142857142857
 40
0.2857142857142857
 40
0.2857142857142857
 40
0.2857142857142857
 40
0.4285714285714285
 40
0.4285714285714285
 40
0.4285714285714285
 40
0.4285714285714285
 40
0.5714285714285714
 40
0.5714285714285714
 40
0.5714285714285714
 40
0.5714285714285714
 40
0.7142857142857143
 40
0.7142857142857143
 40
0.7142857142857143
 40
0.7142857142857143
 40
1.0
 40
1.0
 40
1.0
 40
1.0
 10
26.9065
 20
105.8553
 30
0.0
 10
26.9065
 20
105.8553
 30
0.0
 10
32.9902
 20
105.8553
 30
0.0
 10
32.9902
 20
105.8553
 30
0.0
 10
32.9902
 20
105.8553
 30
0.0
 10
35.3805
 20
105.8553
 30
0.0
 10
37.3047
 20
107.7795
 30
0.0
 10
37.3047
 20
110.1698
 30
0.0
 10
37.3047
 20
110.1698
 30
0.0
 10
37.3047
 20
110.1698
 30
0.0
 10
37.3047
 20
116.2295
 30
0.0
 10
37.3047
 20
116.2295
 30
0.0
 10
37.3047
 20
116.2295
 30
0.0
 10
37.3047
 20
116.2295
 30
0.0
 10
31.197
 20
116.2775
 30
0.0
 10
31.197
 20
116.2775
 30
0.0
 10
31.197
 20
116.2775
 30
0.0
 10
28.8067
 20
116.2775
 30
0.0
 10
26.8825
 20
114.3533
 30
0.0
 10
26.8825
 20
111.963
 30
0.0
 10
26.8825
 20
111.963
 30
0.0
 10
26.8825
 20
111.963
 30
0.0
 10
26.9065
 20
105.8553
 30
0.0
 10
26.9065
 20
105.8553
 30
0.0
  0
SPLINE
  5
51
330
1F
100
AcDbEntity
  8
layer 1
 62
     7
100
AcDbSpline
210
0.0
220
0.0
230
1.0
 70
    11
 71
     3
 72
    28
 73
    24
 74
     0
 42
0.0000000001
 43
0.0000000001
 12
1.0
 22
0.0
 32
0.0
 13
1.0
 23
0.0
 33
0.0
 40
0.0
 40
0.0
 40
0.0
 40
0.0
 40
0.1428571428571428
 40
0.1428571428571428
 40
0.1428571428571428
 40
0.1428571428571428
 40
0.2857142857142857
 40
0.2857142857142857
 40
0.2857142857142857
 40
0.2857142857142857
 40
0.4285714285714285
 40
0.4285714285714285
 40
0.4285714285714285
 40
0.4285714285714285
 40
0.5714285714285714
 40
0.5714285714285714
 40
0.5714285714285714
 40
0.5714285714285714
 40
0.7142857142857143
 40
0.7142857142857143
 40
0.7142857142857143
 40
0.7142857142857143
 40
1.0
 40
1.0
 40
1.0
 40
1.0
 10
49.3852
 20
105.8553
 30
0.0
 10
49.3852
 20
105.8553
 30
0.0
 10
43.3014
 20
105.8553
 30
0.0
 10
43.3014
 20
105.8553
 30
0.0
 10
43.3014
 20
105.8553
 30
0.0
 10
40.9112
 20
105.8553
 30
0.0
 10
38.9869
 20
107.7795
 30
0.0
 10
38.9869
 20
110.1698
 30
0.0
 10
38.9869
 20
110.1698
 30
0.0
 10
38.9869
 20
110.1698
 30
0.0
 10
38.9869
 20
116.2295
 30
0.0
 10
38.9869
 20
116.2295
 30
0.0
 10
38.9869
 20
116.2295
 30
0.0
 10
38.9869
 20
116.2295
 30
0.0
 10
45.0947
 20
116.2775
 30
0.0
 10
45.0947
 20
116.2775
 30
0.0
 10
45.0947
 20
116.2775
 30
0.0
 10
47.4849
 20
116.2775
 30
0.0
 10
49.4091
 20
114.3533
 30
0.0
 10
49.4091
 20
111.963
 30
0.0
 10
49.4091
 20
111.963
 30
0.0
 10
49.4091
 20
111.963
 30
0.0
 10
49.3852
 20
105.8553
 30
0.0
 10
49.3852
 20
105.8553
 30
0.0
  0
SPLINE
  5
52
330
1F
100
AcDbEntity
  8
layer 1
 62
     7
100
AcDbSpline
210
0.0
220
0.0
230
1.0
 70
    11
 71
     3
 72
    28
 73
    24
 74
     0
 42
0.0000000001
 43
0.0000000001
 12
1.0
 22
0.0
 32
0.0
 13
1.0
 23
0.0
 33
0.0
 40
0.0
 40
0.0
 40
0.0
 40
0.0
 40
0.1428571428571428
 40
0.1428571428571428
 40
0.1428571428571428
 40
0.1428571428571428
 40
0.2857142857142857
 40
0.2857142857142857
 40
0.2857142857142857
 40
0.2857142857142857
 40
0.4285714285714285
 40
0.4285714285714285
 40
0.4285714285714285
 40
0.4285714285714285
 40
0.5714285714285714
 40
0.5714285714285714
 40
0.5714285714285714
 40
0.5714285714285714
 40
0.7142857142857143
 40
0.7142857142857143
 40
0.7142857142857143
 40
0.7142857142857143
 40
1.0
 40
1.0
 40
1.0
 40
1.0
 10
-45.1259
 20
104.0913
 30
0.0
 10
-45.1259
 20
104.0913
 30
0.0
 10
-39.0421
 20
104.0913
 30
0.0
 10
-39.0421
 20
104.0913
 30
0.0
 10
-39.0421
 20
104.0913
 30
0.0
 10
-36.6519
 20
104.0913
 30
0.0
 10
-34.7276
 20
102.1671
 30
0.0
 10
-34.7276
 20
99.7768
 30
0.0
 10
-34.7276
 20
99.7768
 30
0.0
 10
-34.7276
 20
99.7768
 30
0.0
 10
-34.7276
 20
93.7171
 30
0.0
 10
-34.7276
 20
93.7171
 30
0.0
 10
-34.7276
 20
93.7171
 30
0.0
 10
-34.7276
 20
93.7171
 30
0.0
 10
-40.8354
 20
93.6691
 30
0.0
 10
-40.8354
 20
93.6691
 30
0.0
 10
-40.8354
 20
93.6691
 30
0.0
 10
-43.2256
 20
93.6691
 30
0.0
 10
-45.1499
 20
95.5933
 30
0.0
 10
-45.1499
 20
97.9836
 30
0.0
 10
-45.1499
 20
97.9836
 30
0.0
 10
-45.1499
 20
97.9836
 30
0.0
 10
-45.1259
 20
104.0913
 30
0.0
 10
-45.1259
 20
104.0913
 30
0.0
  0
SPLINE
  5
53
330
1F
100
AcDbEntity
  8
layer 1
 62
     7
100
AcDbSpline
210
0.0
220
0.0
230
1.0
 70
    11
 71
     3
 72
    28
 73
    24
 74
     0
 42
0.0000000001
 43
0.0000000001
 12
1.0
 22
0.0
 32
0.0
 13
1.0
 23
0.0
 33
0.0
 40
0.0
 40
0.0
 40
0.0
 40
0.0
 40
0.1428571428571428
 40
0.1428571428571428
 40
0.1428571428571428
 40
0.1428571428571428
 40
0.2857142857142857
 40
0.2857142857142857
 40
0.2857142857142857
 40
0.2857142857142857
 40
0.4285714285714285
 40
0.4285714285714285
 40
0.4285714285714285
 40
0.4285714285714285
 40
0.5714285714285714
 40
0.5714285714285714
 40
0.5714285714285714
 40
0.5714285714285714
 40
0.7142857142857143
 40
0.7142857142857143
 40
0.7142857142857143
 40
0.7142857142857143
 40
1.0
 40
1.0
 40
1.0
 40
1.0
 10
-22.6472
 20
104.0913
 30
0.0
 10
-22.6472
 20
104.0913
 30
0.0
 10
-28.731
 20
104.0913
 30
0.0
 10
-28.731
 20
104.0913
 30
0.0
 10
-28.731
 20
104.0913
 30
0.0
 10
-31.1212
 20
104.0913
 30
0.0
 10
-33.0455
 20
102.1671
 30
0.0
 10
-33.0455
 20
99.7768
 30
0.0
 10
-33.0455
 20
99.7768
 30
0.0
 10
-33.0455
 20
99.7768
 30
0.0
 10
-33.0455
 20
93.7171
 30
0.0
 10
-33.0455
 20
93.7171
 30
0.0
 10
-33.0455
 20
93.7171
 30
0.0
 10
-33.0455
 20
93.7171
 30
0.0
 10
-26.9377
 20
93.6691
 30
0.0
 10
-26.9377
 20
93.6691
 30
0.0
 10
-26.9377
 20
93.6691
 30
0.0
 10
-24.5475
 20
93.6691
 30
0.0
 10
-22.6232
 20
95.5933
 30
0.0
 10
-22.6232
 20
97.9836
 30
0.0
 10
-22.6232
 20
97.9836
 30
0.0
 10
-22.6232
 20
97.9836
 30
0.0
 10
-22.6472
 20
104.0913
 30
0.0
 10
-22.6472
 20
104.0913
 30
0.0
  0
SPLINE
  5
54
330
1F
100
AcDbEntity
  8
layer 1
 62
     7
100
AcDbSpline
210
0.0
220
0.0
230
1.0
 70
    11
 71
     3
 72
    28
 73
    24
 74
     0
 42
0.0000000001
 43
0.0000000001
 12
1.0
 22
0.0
 32
0.0
 13
1.0
 23
0.0
 33
0.0
 40
0.0
 40
0.0
 40
0.0
 40
0.0
 40
0.1428571428571428
 40
0.1428571428571428
 40
0.1428571428571428
 40
0.1428571428571428
 40
0.2857142857142857
 40
0.2857142857142857
 40
0.2857142857142857
 40
0.2857142857142857
 40
0.4285714285714285
 40
0.4285714285714285
 40
0.4285714285714285
 40
0.4285714285714285
 40
0.5714285714285714
 40
0.5714285714285714
 40
0.5714285714285714
 40
0.5714285714285714
 40
0.7142857142857143
 40
0.7142857142857143
 40
0.7142857142857143
 40
0.7142857142857143
 40
1.0
 40
1.0
 40
1.0
 40
1.0
 10
-45.1259
 20
81.7325
 30
0.0
 10
-45.1259
 20
81.7325
 30
0.0
 10
-39.0421
 20
81.7325
 30
0.0
 10
-39.0421
 20
81.7325
 30
0.0
 10
-39.0421
 20
81.7325
 30
0.0
 10
-36.6519
 20
81.7325
 30
0.0
 10
-34.7276
 20
83.6567
 30
0.0
 10
-34.7276
 20
86.047
 30
0.0
 10
-34.7276
 20
86.047
 30
0.0
 10
-34.7276
 20
86.047
 30
0.0
 10
-34.7276
 20
92.1067
 30
0.0
 10
-34.7276
 20
92.1067
 30
0.0
 10
-34.7276
 20
92.1067
 30
0.0
 10
-34.7276
 20
92.1067
 30
0.0
 10
-40.8354
 20
92.1547
 30
0.0
 10
-40.8354
 20
92.1547
 30
0.0
 10
-40.8354
 20
92.1547
 30
0.0
 10
-43.2256
 20
92.1547
 30
0.0
 10
-45.1499
 20
90.2304
 30
0.0
 10
-45.1499
 20
87.8402
 30
0.0
 10
-45.1499
 20
87.8402
 30
0.0
 10
-45.1499
 20
87.8402
 30
0.0
 10
-45.1259
 20
81.7325
 30
0.0
 10
-45.1259
 20
81.7325
 30
0.0
  0
SPLINE
  5
55
330
1F
100
AcDbEntity
  8
layer 1
 62
     7
100
AcDbSpline
210
0.0
220
0.0
230
1.0
 70
    11
 71
     3
 72
    28
 73
    24
 74
     0
 42
0.0000000001
 43
0.0000000001
 12
1.0
 22
0.0
 32
0.0
 13
1.0
 23
0.0
 33
0.0
 40
0.0
 40
0.0
 40
0.0
 40
0.0
 40
0.1428571428571428
 40
0.1428571428571428
 40
0.1428571428571428
 40
0.1428571428571428
 40
0.2857142857142857
 40
0.2857142857142857
 40
0.2857142857142857
 40
0.2857142857142857
 40
0.4285714285714285
 40
0.4285714285714285
 40
0.4285714285714285
 40
0.4285714285714285
 40
0.5714285714285714
 40
0.5714285714285714
 40
0.5714285714285714
 40
0.5714285714285714
 40
0.7142857142857143
 40
0.7142857142857143
 40
0.7142857142857143
 40
0.7142857142857143
 40
1.0
 40
1.0
 40
1.0
 40
1.0
 10
-22.6472
 20
81.7325
 30
0.0
 10
-22.6472
 20
81.7325
 30
0.0
 10
-28.731
 20
81.7325
 30
0.0
 10
-28.731
 20
81.7325
 30
0.0
 10
-28.731
 20
81.7325
 30
0.0
 10
-31.1212
 20
81.7325
 30
0.0
 10
-33.0455
 20
83.6567
 30
0.0
 10
-33.0455
 20
86.047
 30
0.0
 10
-33.0455
 20
86.047
 30
0.0
 10
-33.0455
 20
86.047
 30
0.0
 10
-33.0455
 20
92.1067
 30
0.0
 10
-33.0455
 20
92.1067
 30
0.0
 10
-33.0455
 20
92.1067
 30
0.0
 10
-33.0455
 20
92.1067
 30
0.0
 10
-26.9377
 20
92.1547
 30
0.0
 10
-26.9377
 20
92.1547
 30
0.0
 10
-26.9377
 20
92.1547
 30
0.0
 10
-24.5475
 20
92.1547
 30
0.0
 10
-22.6232
 20
90.2304
 30
0.0
 10
-22.6232
 20
87.8402
 30
0.0
 10
-22.6232
 20
87.8402
 30
0.0
 10
-22.6232
 20
87.8402
 30
0.0
 10
-22.6472
 20
81.7325
 30
0.0
 10
-22.6472
 20
81.7325
 30
0.0
  0
SPLINE
  5
56
330
1F
100
AcDbEntity
  8
layer 1
 62
     7
100
AcDbSpline
210
0.0
220
0.0
230
1.0
 70
    11
 71
     3
 72
    28
 73
    24
 74
     0
 42
0.0000000001
 43
0.0000000001
 12
1.0
 22
0.0
 32
0.0
 13
1.0
 23
0.0
 33
0.0
 40
0.0
 40
0.0
 40
0.0
 40
0.0
 40
0.1428571428571428
 40
0.1428571428571428
 40
0.1428571428571428
 40
0.1428571428571428
 40
0.2857142857142857
 40
0.2857142857142857
 40
0.2857142857142857
 40
0.2857142857142857
 40
0.4285714285714285
 40
0.4285714285714285
 40
0.4285714285714285
 40
0.4285714285714285
 40
0.5714285714285714
 40
0.5714285714285714
 40
0.5714285714285714
 40
0.5714285714285714
 40
0.7142857142857143
 40
0.7142857142857143
 40
0.7142857142857143
 40
0.7142857142857143
 40
1.0
 40
1.0
 40
1.0
 40
1.0
 10
-20.9908
 20
104.0913
 30
0.0
 10
-20.9908
 20
104.0913
 30
0.0
 10
-14.9071
 20
104.0913
 30
0.0
 10
-14.9071
 20
104.0913
 30
0.0
 10
-14.9071
 20
104.0913
 30
0.0
 10
-12.5168
 20
104.0913
 30
0.0
 10
-10.5926
 20
102.1671
 30
0.0
 10
-10.5926
 20
99.7768
 30
0.0
 10
-10.5926
 20
99.7768
 30
0.0
 10
-10.5926
 20
99.7768
 30
0.0
 10
-10.5926
 20
93.7171
 30
0.0
 10
-10.5926
 20
93.7171
 30
0.0
 10
-10.5926
 20
93.7171
 30
0.0
 10
-10.5926
 20
93.7171
 30
0.0
 10
-16.7003
 20
93.6691
 30
0.0
 10
-16.7003
 20
93.6691
 30
0.0
 10
-16.7003
 20
93.6691
 30
0.0
 10
-19.0905
 20
93.6691
 30
0.0
 10
-21.0148
 20
95.5933
 30
0.0
 10
-21.0148
 20
97.9836
 30
0.0
 10
-21.0148
 20
97.9836
 30
0.0
 10
-21.0148
 20
97.9836
 30
0.0
 10
-20.9908
 20
104.0913
 30
0.0
 10
-20.9908
 20
104.0913
 30
0.0
  0
SPLINE
  5
57
330
1F
100
AcDbEntity
  8
layer 1
 62
     7
100
AcDbSpline
210
0.0
220
0.0
230
1.0
 70
    11
 71
     3
 72
    28
 73
    24
 74
     0
 42
0.0000000001
 43
0.0000000001
 12
1.0
 22
0.0
 32
0.0
 13
1.0
 23
0.0
 33
0.0
 40
0.0
 40
0.0
 40
0.0
 40
0.0
 40
0.1428571428571428
 40
0.1428571428571428
 40
0.1428571428571428
 40
0.1428571428571428
 40
0.2857142857142857
 40
0.2857142857142857
 40
0.2857142857142857
 40
0.2857142857142857
 40
0.4285714285714285
 40
0.4285714285714285
 40
0.4285714285714285
 40
0.4285714285714285
 40
0.5714285714285714
 40
0.5714285714285714
 40
0.5714285714285714
 40
0.5714285714285714
 40
0.7142857142857143
 40
0.7142857142857143
 40
0.7142857142857143
 40
0.7142857142857143
 40
1.0
 40
1.0
 40
1.0
 40
1.0
 10
1.4879
 20
104.0913
 30
0.0
 10
1.4879
 20
104.0913
 30
0.0
 10
-4.5959
 20
104.0913
 30
0.0
 10
-4.5959
 20
104.0913
 30
0.0
 10
-4.5959
 20
104.0913
 30
0.0
 10
-6.9861
 20
104.0913
 30
0.0
 10
-8.9104
 20
102.1671
 30
0.0
 10
-8.9104
 20
99.7768
 30
0.0
 10
-8.9104
 20
99.7768
 30
0.0
 10
-8.9104
 20
99.7768
 30
0.0
 10
-8.9104
 20
93.7171
 30
0.0
 10
-8.9104
 20
93.7171
 30
0.0
 10
-8.9104
 20
93.7171
 30
0.0
 10
-8.9104
 20
93.7171
 30
0.0
 10
-2.8026
 20
93.6691
 30
0.0
 10
-2.8026
 20
93.6691
 30
0.0
 10
-2.8026
 20
93.6691
 30
0.0
 10
-0.4124
 20
93.6691
 30
0.0
 10
1.5118
 20
95.5933
 30
0.0
 10
1.5118
 20
97.9836
 30
0.0
 10
1.5118
 20
97.9836
 30
0.0
 10
1.5118
 20
97.9836
 30
0.0
 10
1.4879
 20
104.0913
 30
0.0
 10
1.4879
 20
104.0913
 30
0.0
  0
SPLINE
  5
58
330
1F
100
AcDbEntity
  8
layer 1
 62
     7
100
AcDbSpline
210
0.0
220
0.0
230
1.0
 70
    11
 71
     3
 72
    28
 73
    24
 74
     0
 42
0.0000000001
 43
0.0000000001
 12
1.0
 22
0.0
 32
0.0
 13
1.0
 23
0.0
 33
0.0
 40
0.0
 40
0.0
 40
0.0
 40
0.0
 40
0.1428571428571428
 40
0.1428571428571428
 40
0.1428571428571428
 40
0.1428571428571428
 40
0.2857142857142857
 40
0.2857142857142857
 40
0.2857142857142857
 40
0.2857142857142857
 40
0.4285714285714285
 40
0.4285714285714285
 40
0.4285714285714285
 40
0.4285714285714285
 40
0.5714285714285714
 40
0.5714285714285714
 40
0.5714285714285714
 40
0.5714285714285714
 40
0.7142857142857143
 40
0.7142857142857143
 40
0.7142857142857143
 40
0.7142857142857143
 40
1.0
 40
1.0
 40
1.0
 40
1.0
 10
-20.9908
 20
81.7325
 30
0.0
 10
-20.9908
 20
81.7325
 30
0.0
 10
-14.9071
 20
81.7325
 30
0.0
 10
-14.9071
 20
81.7325
 30
0.0
 10
-14.9071
 20
81.7325
 30
0.0
 10
-12.5168
 20
81.7325
 30
0.0
 10
-10.5926
 20
83.6567
 30
0.0
 10
-10.5926
 20
86.047
 30
0.0
 10
-10.5926
 20
86.047
 30
0.0
 10
-10.5926
 20
86.047
 30
0.0
 10
-10.5926
 20
92.1067
 30
0.0
 10
-10.5926
 20
92.1067
 30
0.0
 10
-10.5926
 20
92.1067
 30
0.0
 10
-10.5926
 20
92.1067
 30
0.0
 10
-16.7003
 20
92.1547
 30
0.0
 10
-16.7003
 20
92.1547
 30
0.0
 10
-16.7003
 20
92.1547
 30
0.0
 10
-19.0905
 20
92.1547
 30
0.0
 10
-21.0148
 20
90.2304
 30
0.0
 10
-21.0148
 20
87.8402
 30
0.0
 10
-21.0148
 20
87.8402
 30
0.0
 10
-21.0148
 20
87.8402
 30
0.0
 10
-20.9908
 20
81.7325
 30
0.0
 10
-20.9908
 20
81.7325
 30
0.0
  0
SPLINE
  5
59
330
1F
100
AcDbEntity
  8
layer 1
 62
     7
100
AcDbSpline
210
0.0
220
0.0
230
1.0
 70
    11
 71
     3
 72
    28
 73
    24
 74
     0
 42
0.0000000001
 43
0.0000000001
 12
1.0
 22
0.0
 32
0.0
 13
1.0
 23
0.0
 33
0.0
 40
0.0
 40
0.0
 40
0.0
 40
0.0
 40
0.1428571428571428
 40
0.1428571428571428
 40
0.1428571428571428
 40
0.1428571428571428
 40
0.2857142857142857
 40
0.2857142857142857
 40
0.2857142857142857
 40
0.2857142857142857
 40
0.4285714285714285
 40
0.4285714285714285
 40
0.4285714285714285
 40
0.4285714285714285
 40
0.5714285714285714
 40
0.5714285714285714
 40
0.5714285714285714
 40
0.5714285714285714
 40
0.7142857142857143
 40
0.7142857142857143
 40
0.7142857142857143
 40
0.7142857142857143
 40
1.0
 40
1.0
 40
1.0
 40
1.0
 10
1.4879
 20
81.7325
 30
0.0
 10
1.4879
 20
81.7325
 30
0.0
 10
-4.5959
 20
81.7325
 30
0.0
 10
-4.5959
 20
81.7325
 30
0.0
 10
-4.5959
 20
81.7325
 30
0.0
 10
-6.9861
 20
81.7325
 30
0.0
 10
-8.9104
 20
83.6567
 30
0.0
 10
-8.9104
 20
86.047
 30
0.0
 10
-8.9104
 20
86.047
 30
0.0
 10
-8.9104
 20
86.047
 30
0.0
 10
-8.9104
 20
92.1067
 30
0.0
 10
-8.9104
 20
92.1067
 30
0.0
 10
-8.9104
 20
92.1067
 30
0.0
 10
-8.9104
 20
92.1067
 30
0.0
 10
-2.8026
 20
92.1547
 30
0.0
 10
-2.8026
 20
92.1547
 30
0.0
 10
-2.8026
 20
92.1547
 30
0.0
 10
-0.4124
 20
92.1547
 30
0.0
 10
1.5118
 20
90.2304
 30
0.0
 10
1.5118
 20
87.8402
 30
0.0
 10
1.5118
 20
87.8402
 30
0.0
 10
1.5118
 20
87.8402
 30
0.0
 10
1.4879
 20
81.7325
 30
0.0
 10
1.4879
 20
81.7325
 30
0.0
  0
SPLINE
  5
5A
330
1F
100
AcDbEntity
  8
layer 1
 62
     7
100
AcDbSpline
210
0.0
220
0.0
230
1.0
 70
    11
 71
     3
 72
    28
 73
    24
 74
     0
 42
0.0000000001
 43
0.0000000001
 12
1.0
 22
0.0
 32
0.0
 13
1.0
 23
0.0
 33
0.0
 40
0.0
 40
0.0
 40
0.0
 40
0.0
 40
0.1428571428571428
 40
0.1428571428571428
 40
0.1428571428571428
 40
0.1428571428571428
 40
0.2857142857142857
 40
0.2857142857142857
 40
0.2857142857142857
 40
0.2857142857142857
 40
0.4285714285714285
 40
0.4285714285714285
 40
0.4285714285714285
 40
0.4285714285714285
 40
0.5714285714285714
 40
0.5714285714285714
 40
0.5714285714285714
 40
0.5714285714285714
 40
0.7142857142857143
 40
0.7142857142857143
 40
0.7142857142857143
 40
0.7142857142857143
 40
1.0
 40
1.0
 40
1.0
 40
1.0
 10
3.0425
 20
104.0913
 30
0.0
 10
3.0425
 20
104.0913
 30
0.0
 10
9.1263
 20
104.0913
 30
0.0
 10
9.1263
 20
104.0913
 30
0.0
 10
9.1263
 20
104.0913
 30
0.0
 10
11.5165
 20
104.0913
 30
0.0
 10
13.4408
 20
102.1671
 30
0.0
 10
13.4408
 20
99.7768
 30
0.0
 10
13.4408
 20
99.7768
 30
0.0
 10
13.4408
 20
99.7768
 30
0.0
 10
13.4408
 20
93.7171
 30
0.0
 10
13.4408
 20
93.7171
 30
0.0
 10
13.4408
 20
93.7171
 30
0.0
 10
13.4408
 20
93.7171
 30
0.0
 10
7.333
 20
93.6691
 30
0.0
 10
7.333
 20
93.6691
 30
0.0
 10
7.333
 20
93.6691
 30
0.0
 10
4.9428
 20
93.6691
 30
0.0
 10
3.0185
 20
95.5933
 30
0.0
 10
3.0185
 20
97.9836
 30
0.0
 10
3.0185
 20
97.9836
 30
0.0
 10
3.0185
 20
97.9836
 30
0.0
 10
3.0425
 20
104.0913
 30
0.0
 10
3.0425
 20
104.0913
 30
0.0
  0
SPLINE
  5
5B
330
1F
100
AcDbEntity
  8
layer 1
 62
     7
100
AcDbSpline
210
0.0
220
0.0
230
1.0
 70
    11
 71
     3
 72
    28
 73
    24
 74
     0
 42
0.0000000001
 43
0.0000000001
 12
1.0
 22
0.0
 32
0.0
 13
1.0
 23
0.0
 33
0.0
 40
0.0
 40
0.0
 40
0.0
 40
0.0
 40
0.1428571428571428
 40
0.1428571428571428
 40
0.1428571428571428
 40
0.1428571428571428
 40
0.2857142857142857
 40
0.2857142857142857
 40
0.2857142857142857
 40
0.2857142857142857
 40
0.4285714285714285
 40
0.4285714285714285
 40
0.4285714285714285
 40
0.4285714285714285
 40
0.5714285714285714
 40
0.5714285714285714
 40
0.5714285714285714
 40
0.5714285714285714
 40
0.7142857142857143
 40
0.7142857142857143
 40
0.7142857142857143
 40
0.7142857142857143
 40
1.0
 40
1.0
 40
1.0
 40
1.0
 10
25.5212
 20
104.0913
 30
0.0
 10
25.5212
 20
104.0913
 30
0.0
 10
19.4375
 20
104.0913
 30
0.0
 10
19.4375
 20
104.0913
 30
0.0
 10
19.4375
 20
104.0913
 30
0.0
 10
17.0472
 20
104.0913
 30
0.0
 10
15.123
 20
102.1671
 30
0.0
 10
15.123
 20
99.7768
 30
0.0
 10
15.123
 20
99.7768
 30
0.0
 10
15.123
 20
99.7768
 30
0.0
 10
15.123
 20
93.7171
 30
0.0
 10
15.123
 20
93.7171
 30
0.0
 10
15.123
 20
93.7171
 30
0.0
 10
15.123
 20
93.7171
 30
0.0
 10
21.2307
 20
93.6691
 30
0.0
 10
21.2307
 20
93.6691
 30
0.0
 10
21.2307
 20
93.6691
 30
0.0
 10
23.6209
 20
93.6691
 30
0.0
 10
25.5452
 20
95.5933
 30
0.0
 10
25.5452
 20
97.9836
 30
0.0
 10
25.5452
 20
97.9836
 30
0.0
 10
25.5452
 20
97.9836
 30
0.0
 10
25.5212
 20
104.0913
 30
0.0
 10
25.5212
 20
104.0913
 30
0.0
  0
SPLINE
  5
5C
330
1F
100
AcDbEntity
  8
layer 1
 62
     7
100
AcDbSpline
210
0.0
220
0.0
230
1.0
 70
    11
 71
     3
 72
    28
 73
    24
 74
     0
 42
0.0000000001
 43
0.0000000001
 12
1.0
 22
0.0
 32
0.0
 13
1.0
 23
0.0
 33
0.0
 40
0.0
 40
0.0
 40
0.0
 40
0.0
 40
0.1428571428571428
 40
0.1428571428571428
 40
0.1428571428571428
 40
0.1428571428571428
 40
0.2857142857142857
 40
0.2857142857142857
 40
0.2857142857142857
 40
0.2857142857142857
 40
0.4285714285714285
 40
0.4285714285714285
 40
0.4285714285714285
 40
0.4285714285714285
 40
0.5714285714285714
 40
0.5714285714285714
 40
0.5714285714285714
 40
0.5714285714285714
 40
0.7142857142857143
 40
0.7142857142857143
 40
0.7142857142857143
 40
0.7142857142857143
 40
1.0
 40
1.0
 40
1.0
 40
1.0
 10
3.0425
 20
81.7325
 30
0.0
 10
3.0425
 20
81.7325
 30
0.0
 10
9.1263
 20
81.7325
 30
0.0
 10
9.1263
 20
81.7325
 30
0.0
 10
9.1263
 20
81.7325
 30
0.0
 10
11.5165
 20
81.7325
 30
0.0
 10
13.4408
 20
83.6567
 30
0.0
 10
13.4408
 20
86.047
 30
0.0
 10
13.4408
 20
86.047
 30
0.0
 10
13.4408
 20
86.047
 30
0.0
 10
13.4408
 20
92.1067
 30
0.0
 10
13.4408
 20
92.1067
 30
0.0
 10
13.4408
 20
92.1067
 30
0.0
 10
13.4408
 20
92.1067
 30
0.0
 10
7.333
 20
92.1547
 30
0.0
 10
7.333
 20
92.1547
 30
0.0
 10
7.333
 20
92.1547
 30
0.0
 10
4.9428
 20
92.1547
 30
0.0
 10
3.0185
 20
90.2304
 30
0.0
 10
3.0185
 20
87.8402
 30
0.0
 10
3.0185
 20
87.8402
 30
0.0
 10
3.0185
 20
87.8402
 30
0.0
 10
3.0425
 20
81.7325
 30
0.0
 10
3.0425
 20
81.7325
 30
0.0
  0
SPLINE
  5
5D
330
1F
100
AcDbEntity
  8
layer 1
 62
     7
100
AcDbSpline
210
0.0
220
0.0
230
1.0
 70
    11
 71
     3
 72
    28
 73
    24
 74
     0
 42
0.0000000001
 43
0.0000000001
 12
1.0
 22
0.0
 32
0.0
 13
1.0
 23
0.0
 33
0.0
 40
0.0
 40
0.0
 40
0.0
 40
0.0
 40
0.1428571428571428
 40
0.1428571428571428
 40
0.1428571428571428
 40
0.1428571428571428
 40
0.2857142857142857
 40
0.2857142857142857
 40
0.2857142857142857
 40
0.2857142857142857
 40
0.4285714285714285
 40
0.4285714285714285
 40
0.4285714285714285
 40
0.4285714285714285
 40
0.5714285714285714
 40
0.5714285714285714
 40
0.5714285714285714
 40
0.5714285714285714
 40
0.7142857142857143
 40
0.7142857142857143
 40
0.7142857142857143
 40
0.7142857142857143
 40
1.0
 40
1.0
 40
1.0
 40
1.0
 10
25.5212
 20
81.7325
 30
0.0
 10
25.5212
 20
81.7325
 30
0.0
 10
19.4375
 20
81.7325
 30
0.0
 10
19.4375
 20
81.7325
 30
0.0
 10
19.4375
 20
81.7325
 30
0.0
 10
17.0472
 20
81.7325
 30
0.0
 10
15.123
 20
83.6567
 30
0.0
 10
15.123
 20
86.047
 30
0.0
 10
15.123
 20
86.047
 30
0.0
 10
15.123
 20
86.047
 30
0.0
 10
15.123
 20
92.1067
 30
0.0
 10
15.123
 20
92.1067
 30
0.0
 10
15.123
 20
92.1067
 30
0.0
 10
15.123
 20
92.1067
 30
0.0
 10
21.2307
 20
92.1547
 30
0.0
 10
21.2307
 20
92.1547
 30
0.0
 10
21.2307
 20
92.1547
 30
0.0
 10
23.6209
 20
92.1547
 30
0.0
 10
25.5452
 20
90.2304
 30
0.0
 10
25.5452
 20
87.8402
 30
0.0
 10
25.5452
 20
87.8402
 30
0.0
 10
25.5452
 20
87.8402
 30
0.0
 10
25.5212
 20
81.7325
 30
0.0
 10
25.5212
 20
81.7325
 30
0.0
  0
SPLINE
  5
5E
330
1F
100
AcDbEntity
  8
layer 1
 62
     7
100
AcDbSpline
210
0.0
220
0.0
230
1.0
 70
    11
 71
     3
 72
    28
 73
    24
 74
     0
 42
0.0000000001
 43
0.0000000001
 12
1.0
 22
0.0
 32
0.0
 13
1.0
 23
0.0
 33
0.0
 40
0.0
 40
0.0
 40
0.0
 40
0.0
 40
0.1428571428571428
 40
0.1428571428571428
 40
0.1428571428571428
 40
0.1428571428571428
 40
0.2857142857142857
 40
0.2857142857142857
 40
0.2857142857142857
 40
0.2857142857142857
 40
0.4285714285714285
 40
0.4285714285714285
 40
0.4285714285714285
 40
0.4285714285714285
 40
0.5714285714285714
 40
0.5714285714285714
 40
0.5714285714285714
 40
0.5714285714285714
 40
0.7142857142857143
 40
0.7142857142857143
 40
0.7142857142857143
 40
0.7142857142857143
 40
1.0
 40
1.0
 40
1.0
 40
1.0
 10
26.9065
 20
104.0913
 30
0.0
 10
26.9065
 20
104.0913
 30
0.0
 10
32.9902
 20
104.0913
 30
0.0
 10
32.9902
 20
104.0913
 30
0.0
 10
32.9902
 20
104.0913
 30
0.0
 10
35.3805
 20
104.0913
 30
0.0
 10
37.3047
 20
102.1671
 30
0.0
 10
37.3047
 20
99.7768
 30
0.0
 10
37.3047
 20
99.7768
 30
0.0
 10
37.3047
 20
99.7768
 30
0.0
 10
37.3047
 20
93.7171
 30
0.0
 10
37.3047
 20
93.7171
 30
0.0
 10
37.3047
 20
93.7171
 30
0.0
 10
37.3047
 20
93.7171
 30
0.0
 10
31.197
 20
93.6691
 30
0.0
 10
31.197
 20
93.6691
 30
0.0
 10
31.197
 20
93.6691
 30
0.0
 10
28.8067
 20
93.6691
 30
0.0
 10
26.8825
 20
95.5933
 30
0.0
 10
26.8825
 20
97.9836
 30
0.0
 10
26.8825
 20
97.9836
 30
0.0
 10
26.8825
 20
97.9836
 30
0.0
 10
26.9065
 20
104.0913
 30
0.0
 10
26.9065
 20
104.0913
 30
0.0
  0
SPLINE
  5
5F
330
1F
100
AcDbEntity
  8
layer 1
 62
     7
100
AcDbSpline
210
0.0
220
0.0
230
1.0
 70
    11
 71
     3
 72
    28
 73
    24
 74
     0
 42
0.0000000001
 43
0.0000000001
 12
1.0
 22
0.0
 32
0.0
 13
1.0
 23
0.0
 33
0.0
 40
0.0
 40
0.0
 40
0.0
 40
0.0
 40
0.1428571428571428
 40
0.1428571428571428
 40
0.1428571428571428
 40
0.1428571428571428
 40
0.2857142857142857
 40
0.2857142857142857
 40
0.2857142857142857
 40
0.2857142857142857
 40
0.4285714285714285
 40
0.4285714285714285
 40
0.4285714285714285
 40
0.4285714285714285
 40
0.5714285714285714
 40
0.5714285714285714
 40
0.5714285714285714
 40
0.5714285714285714
 40
0.7142857142857143
 40
0.7142857142857143
 40
0.7142857142857143
 40
0.7142857142857143
 40
1.0
 40
1.0
 40
1.0
 40
1.0
 10
49.3852
 20
104.0913
 30
0.0
 10
49.3852
 20
104.0913
 30
0.0
 10
43.3014
 20
104.0913
 30
0.0
 10
43.3014
 20
104.0913
 30
0.0
 10
43.3014
 20
104.0913
 30
0.0
 10
40.9112
 20
104.0913
 30
0.0
 10
38.9869
 20
102.1671
 30
0.0
 10
38.9869
 20
99.7768
 30
0.0
 10
38.9869
 20
99.7768
 30
0.0
 10
38.9869
 20
99.7768
 30
0.0
 10
38.9869
 20
93.7171
 30
0.0
 10
38.9869
 20
93.7171
 30
0.0
 10
38.9869
 20
93.7171
 30
0.0
 10
38.9869
 20
93.7171
 30
0.0
 10
45.0947
 20
93.6691
 30
0.0
 10
45.0947
 20
93.6691
 30
0.0
 10
45.0947
 20
93.6691
 30
0.0
 10
47.4849
 20
93.6691
 30
0.0
 10
49.4091
 20
95.5933
 30
0.0
 10
49.4091
 20
97.9836
 30
0.0
 10
49.4091
 20
97.9836
 30
0.0
 10
49.4091
 20
97.9836
 30
0.0
 10
49.3852
 20
104.0913
 30
0.0
 10
49.3852
 20
104.0913
 30
0.0
  0
SPLINE
  5
60
330
1F
100
AcDbEntity
  8
layer 1
 62
     7
100
AcDbSpline
210
0.0
220
0.0
230
1.0
 70
    11
 71
     3
 72
    28
 73
    24
 74
     0
 42
0.0000000001
 43
0.0000000001
 12
1.0
 22
0.0
 32
0.0
 13
1.0
 23
0.0
 33
0.0
 40
0.0
 40
0.0
 40
0.0
 40
0.0
 40
0.1428571428571428
 40
0.1428571428571428
 40
0.1428571428571428
 40
0.1428571428571428
 40
0.2857142857142857
 40
0.2857142857142857
 40
0.2857142857142857
 40
0.2857142857142857
 40
0.4285714285714285
 40
0.4285714285714285
 40
0.4285714285714285
 40
0.4285714285714285
 40
0.5714285714285714
 40
0.5714285714285714
 40
0.5714285714285714
 40
0.5714285714285714
 40
0.7142857142857143
 40
0.7142857142857143
 40
0.7142857142857143
 40
0.7142857142857143
 40
1.0
 40
1.0
 40
1.0
 40
1.0
 10
26.9065
 20
81.7325
 30
0.0
 10
26.9065
 20
81.7325
 30
0.0
 10
32.9902
 20
81.7325
 30
0.0
 10
32.9902
 20
81.7325
 30
0.0
 10
32.9902
 20
81.7325
 30
0.0
 10
35.3805
 20
81.7325
 30
0.0
 10
37.3047
 20
83.6567
 30
0.0
 10
37.3047
 20
86.047
 30
0.0
 10
37.3047
 20
86.047
 30
0.0
 10
37.3047
 20
86.047
 30
0.0
 10
37.3047
 20
92.1067
 30
0.0
 10
37.3047
 20
92.1067
 30
0.0
 10
37.3047
 20
92.1067
 30
0.0
 10
37.3047
 20
92.1067
 30
0.0
 10
31.197
 20
92.1547
 30
0.0
 10
31.197
 20
92.1547
 30
0.0
 10
31.197
 20
92.1547
 30
0.0
 10
28.8067
 20
92.1547
 30
0.0
 10
26.8825
 20
90.2304
 30
0.0
 10
26.8825
 20
87.8402
 30
0.0
 10
26.8825
 20
87.8402
 30
0.0
 10
26.8825
 20
87.8402
 30
0.0
 10
26.9065
 20
81.7325
 30
0.0
 10
26.9065
 20
81.7325
 30
0.0
  0
SPLINE
  5
61
330
1F
100
AcDbEntity
  8
layer 1
 62
     7
100
AcDbSpline
210
0.0
220
0.0
230
1.0
 70
    11
 71
     3
 72
    28
 73
    24
 74
     0
 42
0.0000000001
 43
0.0000000001
 12
1.0
 22
0.0
 32
0.0
 13
1.0
 23
0.0
 33
0.0
 40
0.0
 40
0.0
 40
0.0
 40
0.0
 40
0.1428571428571428
 40
0.1428571428571428
 40
0.1428571428571428
 40
0.1428571428571428
 40
0.2857142857142857
 40
0.2857142857142857
 40
0.2857142857142857
 40
0.2857142857142857
 40
0.4285714285714285
 40
0.4285714285714285
 40
0.4285714285714285
 40
0.4285714285714285
 40
0.5714285714285714
 40
0.5714285714285714
 40
0.5714285714285714
 40
0.5714285714285714
 40
0.7142857142857143
 40
0.7142857142857143
 40
0.7142857142857143
 40
0.7142857142857143
 40
1.0
 40
1.0
 40
1.0
 40
1.0
 10
49.3852
 20
81.7325
 30
0.0
 10
49.3852
 20
81.7325
 30
0.0
 10
43.3014
 20
81.7325
 30
0.0
 10
43.3014
 20
81.7325
 30
0.0
 10
43.3014
 20
81.7325
 30
0.0
 10
40.9112
 20
81.7325
 30
0.0
 10
38.9869
 20
83.6567
 30
0.0
 10
38.9869
 20
86.047
 30
0.0
 10
38.9869
 20
86.047
 30
0.0
 10
38.9869
 20
86.047
 30
0.0
 10
38.9869
 20
92.1067
 30
0.0
 10
38.9869
 20
92.1067
 30
0.0
 10
38.9869
 20
92.1067
 30
0.0
 10
38.9869
 20
92.1067
 30
0.0
 10
45.0947
 20
92.1547
 30
0.0
 10
45.0947
 20
92.1547
 30
0.0
 10
45.0947
 20
92.1547
 30
0.0
 10
47.4849
 20
92.1547
 30
0.0
 10
49.4091
 20
90.2304
 30
0.0
 10
49.4091
 20
87.8402
 30
0.0
 10
49.4091
 20
87.8402
 30
0.0
 10
49.4091
 20
87.8402
 30
0.0
 10
49.3852
 20
81.7325
 30
0.0
 10
49.3852
 20
81.7325
 30
0.0
  0
SPLINE
  5
62
330
1F
100
AcDbEntity
  8
layer 1
 62
     7
100
AcDbSpline
210
0.0
220
0.0
230
1.0
 70
    11
 71
     3
 72
    28
 73
    24
 74
     0
 42
0.0000000001
 43
0.0000000001
 12
1.0
 22
0.0
 32
0.0
 13
1.0
 23
0.0
 33
0.0
 40
0.0
 40
0.0
 40
0.0
 40
0.0
 40
0.1428571428571428
 40
0.1428571428571428
 40
0.1428571428571428
 40
0.1428571428571428
 40
0.2857142857142857
 40
0.2857142857142857
 40
0.2857142857142857
 40
0.2857142857142857
 40
0.4285714285714285
 40
0.4285714285714285
 40
0.4285714285714285
 40
0.4285714285714285
 40
0.5714285714285714
 40
0.5714285714285714
 40
0.5714285714285714
 40
0.5714285714285714
 40
0.7142857142857143
 40
0.7142857142857143
 40
0.7142857142857143
 40
0.7142857142857143
 40
1.0
 40
1.0
 40
1.0
 40
1.0
 10
-45.1259
 20
80.1025
 30
0.0
 10
-45.1259
 20
80.1025
 30
0.0
 10
-39.0421
 20
80.1025
 30
0.0
 10
-39.0421
 20
80.1025
 30
0.0
 10
-39.0421
 20
80.1025
 30
0.0
 10
-36.6519
 20
80.1025
 30
0.0
 10
-34.7276
 20
78.1782
 30
0.0
 10
-34.7276
 20
75.788
 30
0.0
 10
-34.7276
 20
75.788
 30
0.0
 10
-34.7276
 20
75.788
 30
0.0
 10
-34.7276
 20
69.7282
 30
0.0
 10
-34.7276
 20
69.7282
 30
0.0
 10
-34.7276
 20
69.7282
 30
0.0
 10
-34.7276
 20
69.7282
 30
0.0
 10
-40.8354
 20
69.6802
 30
0.0
 10
-40.8354
 20
69.6802
 30
0.0
 10
-40.8354
 20
69.6802
 30
0.0
 10
-43.2256
 20
69.6802
 30
0.0
 10
-45.1499
 20
71.6045
 30
0.0
 10
-45.1499
 20
73.9947
 30
0.0
 10
-45.1499
 20
73.9947
 30
0.0
 10
-45.1499
 20
73.9947
 30
0.0
 10
-45.1259
 20
80.1025
 30
0.0
 10
-45.1259
 20
80.1025
 30
0.0
  0
SPLINE
  5
63
330
1F
100
AcDbEntity
  8
layer 1
 62
     7
100
AcDbSpline
210
0.0
220
0.0
230
1.0
 70
    11
 71
     3
 72
    28
 73
    24
 74
     0
 42
0.0000000001
 43
0.0000000001
 12
1.0
 22
0.0
 32
0.0
 13
1.0
 23
0.0
 33
0.0
 40
0.0
 40
0.0
 40
0.0
 40
0.0
 40
0.1428571428571428
 40
0.1428571428571428
 40
0.1428571428571428
 40
0.1428571428571428
 40
0.2857142857142857
 40
0.2857142857142857
 40
0.2857142857142857
 40
0.2857142857142857
 40
0.4285714285714285
 40
0.4285714285714285
 40
0.4285714285714285
 40
0.4285714285714285
 40
0.5714285714285714
 40
0.5714285714285714
 40
0.5714285714285714
 40
0.5714285714285714
 40
0.7142857142857143
 40
0.7142857142857143
 40
0.7142857142857143
 40
0.7142857142857143
 40
1.0
 40
1.0
 40
1.0
 40
1.0
 10
-22.6472
 20
80.1025
 30
0.0
 10
-22.6472
 20
80.1025
 30
0.0
 10
-28.731
 20
80.1025
 30
0.0
 10
-28.731
 20
80.1025
 30
0.0
 10
-28.731
 20
80.1025
 30
0.0
 10
-31.1212
 20
80.1025
 30
0.0
 10
-33.0455
 20
78.1782
 30
0.0
 10
-33.0455
 20
75.788
 30
0.0
 10
-33.0455
 20
75.788
 30
0.0
 10
-33.0455
 20
75.788
 30
0.0
 10
-33.0455
 20
69.7282
 30
0.0
 10
-33.0455
 20
69.7282
 30
0.0
 10
-33.0455
 20
69.7282
 30
0.0
 10
-33.0455
 20
69.7282
 30
0.0
 10
-26.9377
 20
69.6802
 30
0.0
 10
-26.9377
 20
69.6802
 30
0.0
 10
-26.9377
 20
69.6802
 30
0.0
 10
-24.5475
 20
69.6802
 30
0.0
 10
-22.6232
 20
71.6045
 30
0.0
 10
-22.6232
 20
73.9947
 30
0.0
 10
-22.6232
 20
73.9947
 30
0.0
 10
-22.6232
 20
73.9947
 30
0.0
 10
-22.6472
 20
80.1025
 30
0.0
 10
-22.6472
 20
80.1025
 30
0.0
  0
SPLINE
  5
64
330
1F
100
AcDbEntity
  8
layer 1
 62
     7
100
AcDbSpline
210
0.0
220
0.0
230
1.0
 70
    11
 71
     3
 72
    28
 73
    24
 74
     0
 42
0.0000000001
 43
0.0000000001
 12
1.0
 22
0.0
 32
0.0
 13
1.0
 23
0.0
 33
0.0
 40
0.0
 40
0.0
 40
0.0
 40
0.0
 40
0.1428571428571428
 40
0.1428571428571428
 40
0.1428571428571428
 40
0.1428571428571428
 40
0.2857142857142857
 40
0.2857142857142857
 40
0.2857142857142857
 40
0.2857142857142857
 40
0.4285714285714285
 40
0.4285714285714285
 40
0.4285714285714285
 40
0.4285714285714285
 40
0.5714285714285714
 40
0.5714285714285714
 40
0.5714285714285714
 40
0.5714285714285714
 40
0.7142857142857143
 40
0.7142857142857143
 40
0.7142857142857143
 40
0.7142857142857143
 40
1.0
 40
1.0
 40
1.0
 40
1.0
 10
-45.1259
 20
57.7438
 30
0.0
 10
-45.1259
 20
57.7438
 30
0.0
 10
-39.0421
 20
57.7438
 30
0.0
 10
-39.0421
 20
57.7438
 30
0.0
 10
-39.0421
 20
57.7438
 30
0.0
 10
-36.6519
 20
57.7438
 30
0.0
 10
-34.7276
 20
59.668
 30
0.0
 10
-34.7276
 20
62.0583
 30
0.0
 10
-34.7276
 20
62.0583
 30
0.0
 10
-34.7276
 20
62.0583
 30
0.0
 10
-34.7276
 20
68.118
 30
0.0
 10
-34.7276
 20
68.118
 30
0.0
 10
-34.7276
 20
68.118
 30
0.0
 10
-34.7276
 20
68.118
 30
0.0
 10
-40.8354
 20
68.166
 30
0.0
 10
-40.8354
 20
68.166
 30
0.0
 10
-40.8354
 20
68.166
 30
0.0
 10
-43.2256
 20
68.166
 30
0.0
 10
-45.1499
 20
66.2418
 30
0.0
 10
-45.1499
 20
63.8515
 30
0.0
 10
-45.1499
 20
63.8515
 30
0.0
 10
-45.1499
 20
63.8515
 30
0.0
 10
-45.1259
 20
57.7438
 30
0.0
 10
-45.1259
 20
57.7438
 30
0.0
  0
SPLINE
  5
65
330
1F
100
AcDbEntity
  8
layer 1
 62
     7
100
AcDbSpline
210
0.0
220
0.0
230
1.0
 70
    11
 71
     3
 72
    28
 73
    24
 74
     0
 42
0.0000000001
 43
0.0000000001
 12
1.0
 22
0.0
 32
0.0
 13
1.0
 23
0.0
 33
0.0
 40
0.0
 40
0.0
 40
0.0
 40
0.0
 40
0.1428571428571428
 40
0.1428571428571428
 40
0.1428571428571428
 40
0.1428571428571428
 40
0.2857142857142857
 40
0.2857142857142857
 40
0.2857142857142857
 40
0.2857142857142857
 40
0.4285714285714285
 40
0.4285714285714285
 40
0.4285714285714285
 40
0.4285714285714285
 40
0.5714285714285714
 40
0.5714285714285714
 40
0.5714285714285714
 40
0.5714285714285714
 40
0.7142857142857143
 40
0.7142857142857143
 40
0.7142857142857143
 40
0.7142857142857143
 40
1.0
 40
1.0
 40
1.0
 40
1.0
 10
-22.6472
 20
57.7438
 30
0.0
 10
-22.6472
 20
57.7438
 30
0.0
 10
-28.731
 20
57.7438
 30
0.0
 10
-28.731
 20
57.7438
 30
0.0
 10
-28.731
 20
57.7438
 30
0.0
 10
-31.1212
 20
57.7438
 30
0.0
 10
-33.0455
 20
59.668
 30
0.0
 10
-33.0455
 20
62.0583
 30
0.0
 10
-33.0455
 20
62.0583
 30
0.0
 10
-33.0455
 20
62.0583
 30
0.0
 10
-33.0455
 20
68.118
 30
0.0
 10
-33.0455
 20
68.118
 30
0.0
 10
-33.0455
 20
68.118
 30
0.0
 10
-33.0455
 20
68.118
 30
0.0
 10
-26.9377
 20
68.166
 30
0.0
 10
-26.9377
 20
68.166
 30
0.0
 10
-26.9377
 20
68.166
 30
0.0
 10
-24.5475
 20
68.166
 30
0.0
 10
-22.6232
 20
66.2418
 30
0.0
 10
-22.6232
 20
63.8515
 30
0.0
 10
-22.6232
 20
63.8515
 30
0.0
 10
-22.6232
 20
63.8515
 30
0.0
 10
-22.6472
 20
57.7438
 30
0.0
 10
-22.6472
 20
57.7438
 30
0.0
  0
SPLINE
  5
66
330
1F
100
AcDbEntity
  8
layer 1
 62
     7
100
AcDbSpline
210
0.0
220
0.0
230
1.0
 70
    11
 71
     3
 72
    28
 73
    24
 74
     0
 42
0.0000000001
 43
0.0000000001
 12
1.0
 22
0.0
 32
0.0
 13
1.0
 23
0.0
 33
0.0
 40
0.0
 40
0.0
 40
0.0
 40
0.0
 40
0.1428571428571428
 40
0.1428571428571428
 40
0.1428571428571428
 40
0.1428571428571428
 40
0.2857142857142857
 40
0.2857142857142857
 40
0.2857142857142857
 40
0.2857142857142857
 40
0.4285714285714285
 40
0.4285714285714285
 40
0.4285714285714285
 40
0.4285714285714285
 40
0.5714285714285714
 40
0.5714285714285714
 40
0.5714285714285714
 40
0.5714285714285714
 40
0.7142857142857143
 40
0.7142857142857143
 40
0.7142857142857143
 40
0.7142857142857143
 40
1.0
 40
1.0
 40
1.0
 40
1.0
 10
-20.9908
 20
80.1025
 30
0.0
 10
-20.9908
 20
80.1025
 30
0.0
 10
-14.9071
 20
80.1025
 30
0.0
 10
-14.9071
 20
80.1025
 30
0.0
 10
-14.9071
 20
80.1025
 30
0.0
 10
-12.5168
 20
80.1025
 30
0.0
 10
-10.5926
 20
78.1782
 30
0.0
 10
-10.5926
 20
75.788
 30
0.0
 10
-10.5926
 20
75.788
 30
0.0
 10
-10.5926
 20
75.788
 30
0.0
 10
-10.5926
 20
69.7282
 30
0.0
 10
-10.5926
 20
69.7282
 30
0.0
 10
-10.5926
 20
69.7282
 30
0.0
 10
-10.5926
 20
69.7282
 30
0.0
 10
-16.7003
 20
69.6802
 30
0.0
 10
-16.7003
 20
69.6802
 30
0.0
 10
-16.7003
 20
69.6802
 30
0.0
 10
-19.0905
 20
69.6802
 30
0.0
 10
-21.0148
 20
71.6045
 30
0.0
 10
-21.0148
 20
73.9947
 30
0.0
 10
-21.0148
 20
73.9947
 30
0.0
 10
-21.0148
 20
73.9947
 30
0.0
 10
-20.9908
 20
80.1025
 30
0.0
 10
-20.9908
 20
80.1025
 30
0.0
  0
SPLINE
  5
67
330
1F
100
AcDbEntity
  8
layer 1
 62
     7
100
AcDbSpline
210
0.0
220
0.0
230
1.0
 70
    11
 71
     3
 72
    28
 73
    24
 74
     0
 42
0.0000000001
 43
0.0000000001
 12
1.0
 22
0.0
 32
0.0
 13
1.0
 23
0.0
 33
0.0
 40
0.0
 40
0.0
 40
0.0
 40
0.0
 40
0.1428571428571428
 40
0.1428571428571428
 40
0.1428571428571428
 40
0.1428571428571428
 40
0.2857142857142857
 40
0.2857142857142857
 40
0.2857142857142857
 40
0.2857142857142857
 40
0.4285714285714285
 40
0.4285714285714285
 40
0.4285714285714285
 40
0.4285714285714285
 40
0.5714285714285714
 40
0.5714285714285714
 40
0.5714285714285714
 40
0.5714285714285714
 40
0.7142857142857143
 40
0.7142857142857143
 40
0.7142857142857143
 40
0.7142857142857143
 40
1.0
 40
1.0
 40
1.0
 40
1.0
 10
1.4879
 20
80.1025
 30
0.0
 10
1.4879
 20
80.1025
 30
0.0
 10
-4.5959
 20
80.1025
 30
0.0
 10
-4.5959
 20
80.1025
 30
0.0
 10
-4.5959
 20
80.1025
 30
0.0
 10
-6.9861
 20
80.1025
 30
0.0
 10
-8.9104
 20
78.1782
 30
0.0
 10
-8.9104
 20
75.788
 30
0.0
 10
-8.9104
 20
75.788
 30
0.0
 10
-8.9104
 20
75.788
 30
0.0
 10
-8.9104
 20
69.7282
 30
0.0
 10
-8.9104
 20
69.7282
 30
0.0
 10
-8.9104
 20
69.7282
 30
0.0
 10
-8.9104
 20
69.7282
 30
0.0
 10
-2.8026
 20
69.6802
 30
0.0
 10
-2.8026
 20
69.6802
 30
0.0
 10
-2.8026
 20
69.6802
 30
0.0
 10
-0.4124
 20
69.6802
 30
0.0
 10
1.5118
 20
71.6045
 30
0.0
 10
1.5118
 20
73.9947
 30
0.0
 10
1.5118
 20
73.9947
 30
0.0
 10
1.5118
 20
73.9947
 30
0.0
 10
1.4879
 20
80.1025
 30
0.0
 10
1.4879
 20
80.1025
 30
0.0
  0
SPLINE
  5
68
330
1F
100
AcDbEntity
  8
layer 1
 62
     7
100
AcDbSpline
210
0.0
220
0.0
230
1.0
 70
    11
 71
     3
 72
    28
 73
    24
 74
     0
 42
0.0000000001
 43
0.0000000001
 12
1.0
 22
0.0
 32
0.0
 13
1.0
 23
0.0
 33
0.0
 40
0.0
 40
0.0
 40
0.0
 40
0.0
 40
0.1428571428571428
 40
0.1428571428571428
 40
0.1428571428571428
 40
0.1428571428571428
 40
0.2857142857142857
 40
0.2857142857142857
 40
0.2857142857142857
 40
0.2857142857142857
 40
0.4285714285714285
 40
0.4285714285714285
 40
0.4285714285714285
 40
0.4285714285714285
 40
0.5714285714285714
 40
0.5714285714285714
 40
0.5714285714285714
 40
0.5714285714285714
 40
0.7142857142857143
 40
0.7142857142857143
 40
0.7142857142857143
 40
0.7142857142857143
 40
1.0
 40
1.0
 40
1.0
 40
1.0
 10
-20.9908
 20
57.7438
 30
0.0
 10
-20.9908
 20
57.7438
 30
0.0
 10
-14.9071
 20
57.7438
 30
0.0
 10
-14.9071
 20
57.7438
 30
0.0
 10
-14.9071
 20
57.7438
 30
0.0
 10
-12.5168
 20
57.7438
 30
0.0
 10
-10.5926
 20
59.668
 30
0.0
 10
-10.5926
 20
62.0583
 30
0.0
 10
-10.5926
 20
62.0583
 30
0.0
 10
-10.5926
 20
62.0583
 30
0.0
 10
-10.5926
 20
68.118
 30
0.0
 10
-10.5926
 20
68.118
 30
0.0
 10
-10.5926
 20
68.118
 30
0.0
 10
-10.5926
 20
68.118
 30
0.0
 10
-16.7003
 20
68.166
 30
0.0
 10
-16.7003
 20
68.166
 30
0.0
 10
-16.7003
 20
68.166
 30
0.0
 10
-19.0905
 20
68.166
 30
0.0
 10
-21.0148
 20
66.2418
 30
0.0
 10
-21.0148
 20
63.8515
 30
0.0
 10
-21.0148
 20
63.8515
 30
0.0
 10
-21.0148
 20
63.8515
 30
0.0
 10
-20.9908
 20
57.7438
 30
0.0
 10
-20.9908
 20
57.7438
 30
0.0
  0
SPLINE
  5
69
330
1F
100
AcDbEntity
  8
layer 1
 62
     7
100
AcDbSpline
210
0.0
220
0.0
230
1.0
 70
    11
 71
     3
 72
    28
 73
    24
 74
     0
 42
0.0000000001
 43
0.0000000001
 12
1.0
 22
0.0
 32
0.0
 13
1.0
 23
0.0
 33
0.0
 40
0.0
 40
0.0
 40
0.0
 40
0.0
 40
0.1428571428571428
 40
0.1428571428571428
 40
0.1428571428571428
 40
0.1428571428571428
 40
0.2857142857142857
 40
0.2857142857142857
 40
0.2857142857142857
 40
0.2857142857142857
 40
0.4285714285714285
 40
0.4285714285714285
 40
0.4285714285714285
 40
0.4285714285714285
 40
0.5714285714285714
 40
0.5714285714285714
 40
0.5714285714285714
 40
0.5714285714285714
 40
0.7142857142857143
 40
0.7142857142857143
 40
0.7142857142857143
 40
0.7142857142857143
 40
1.0
 40
1.0
 40
1.0
 40
1.0
 10
1.4879
 20
57.7438
 30
0.0
 10
1.4879
 20
57.7438
 30
0.0
 10
-4.5959
 20
57.7438
 30
0.0
 10
-4.5959
 20
57.7438
 30
0.0
 10
-4.5959
 20
57.7438
 30
0.0
 10
-6.9861
 20
57.7438
 30
0.0
 10
-8.9104
 20
59.668
 30
0.0
 10
-8.9104
 20
62.0583
 30
0.0
 10
-8.9104
 20
62.0583
 30
0.0
 10
-8.9104
 20
62.0583
 30
0.0
 10
-8.9104
 20
68.118
 30
0.0
 10
-8.9104
 20
68.118
 30
0.0
 10
-8.9104
 20
68.118
 30
0.0
 10
-8.9104
 20
68.118
 30
0.0
 10
-2.8026
 20
68.166
 30
0.0
 10
-2.8026
 20
68.166
 30
0.0
 10
-2.8026
 20
68.166
 30
0.0
 10
-0.4124
 20
68.166
 30
0.0
 10
1.5118
 20
66.2418
 30
0.0
 10
1.5118
 20
63.8515
 30
0.0
 10
1.5118
 20
63.8515
 30
0.0
 10
1.5118
 20
63.8515
 30
0.0
 10
1.4879
 20
57.7438
 30
0.0
 10
1.4879
 20
57.7438
 30
0.0
  0
SPLINE
  5
6A
330
1F
100
AcDbEntity
  8
layer 1
 62
     7
100
AcDbSpline
210
0.0
220
0.0
230
1.0
 70
    11
 71
     3
 72
    28
 73
    24
 74
     0
 42
0.0000000001
 43
0.0000000001
 12
1.0
 22
0.0
 32
0.0
 13
1.0
 23
0.0
 33
0.0
 40
0.0
 40
0.0
 40
0.0
 40
0.0
 40
0.1428571428571428
 40
0.1428571428571428
 40
0.1428571428571428
 40
0.1428571428571428
 40
0.2857142857142857
 40
0.2857142857142857
 40
0.2857142857142857
 40
0.2857142857142857
 40
0.4285714285714285
 40
0.4285714285714285
 40
0.4285714285714285
 40
0.4285714285714285
 40
0.5714285714285714
 40
0.5714285714285714
 40
0.5714285714285714
 40
0.5714285714285714
 40
0.7142857142857143
 40
0.7142857142857143
 40
0.7142857142857143
 40
0.7142857142857143
 40
1.0
 40
1.0
 40
1.0
 40
1.0
 10
3.0425
 20
80.1025
 30
0.0
 10
3.0425
 20
80.1025
 30
0.0
 10
9.1263
 20
80.1025
 30
0.0
 10
9.1263
 20
80.1025
 30
0.0
 10
9.1263
 20
80.1025
 30
0.0
 10
11.5165
 20
80.1025
 30
0.0
 10
13.4408
 20
78.1782
 30
0.0
 10
13.4408
 20
75.788
 30
0.0
 10
13.4408
 20
75.788
 30
0.0
 10
13.4408
 20
75.788
 30
0.0
 10
13.4408
 20
69.7282
 30
0.0
 10
13.4408
 20
69.7282
 30
0.0
 10
13.4408
 20
69.7282
 30
0.0
 10
13.4408
 20
69.7282
 30
0.0
 10
7.333
 20
69.6802
 30
0.0
 10
7.333
 20
69.6802
 30
0.0
 10
7.333
 20
69.6802
 30
0.0
 10
4.9428
 20
69.6802
 30
0.0
 10
3.0185
 20
71.6045
 30
0.0
 10
3.0185
 20
73.9947
 30
0.0
 10
3.0185
 20
73.9947
 30
0.0
 10
3.0185
 20
73.9947
 30
0.0
 10
3.0425
 20
80.1025
 30
0.0
 10
3.0425
 20
80.1025
 30
0.0
  0
SPLINE
  5
6B
330
1F
100
AcDbEntity
  8
layer 1
 62
     7
100
AcDbSpline
210
0.0
220
0.0
230
1.0
 70
    11
 71
     3
 72
    28
 73
    24
 74
     0
 42
0.0000000001
 43
0.0000000001
 12
1.0
 22
0.0
 32
0.0
 13
1.0
 23
0.0
 33
0.0
 40
0.0
 40
0.0
 40
0.0
 40
0.0
 40
0.1428571428571428
 40
0.1428571428571428
 40
0.1428571428571428
 40
0.1428571428571428
 40
0.2857142857142857
 40
0.2857142857142857
 40
0.2857142857142857
 40
0.2857142857142857
 40
0.4285714285714285
 40
0.4285714285714285
 40
0.4285714285714285
 40
0.4285714285714285
 40
0.5714285714285714
 40
0.5714285714285714
 40
0.5714285714285714
 40
0.5714285714285714
 40
0.7142857142857143
 40
0.7142857142857143
 40
0.7142857142857143
 40
0.7142857142857143
 40
1.0
 40
1.0
 40
1.0
 40
1.0
 10
25.5212
 20
80.1025
 30
0.0
 10
25.5212
 20
80.1025
 30
0.0
 10
19.4375
 20
80.1025
 30
0.0
 10
19.4375
 20
80.1025
 30
0.0
 10
19.4375
 20
80.1025
 30
0.0
 10
17.0472
 20
80.1025
 30
0.0
 10
15.123
 20
78.1782
 30
0.0
 10
15.123
 20
75.788
 30
0.0
 10
15.123
 20
75.788
 30
0.0
 10
15.123
 20
75.788
 30
0.0
 10
15.123
 20
69.7282
 30
0.0
 10
15.123
 20
69.7282
 30
0.0
 10
15.123
 20
69.7282
 30
0.0
 10
15.123
 20
69.7282
 30
0.0
 10
21.2307
 20
69.6802
 30
0.0
 10
21.2307
 20
69.6802
 30
0.0
 10
21.2307
 20
69.6802
 30
0.0
 10
23.6209
 20
69.6802
 30
0.0
 10
25.5452
 20
71.6045
 30
0.0
 10
25.5452
 20
73.9947
 30
0.0
 10
25.5452
 20
73.9947
 30
0.0
 10
25.5452
 20
73.9947
 30
0.0
 10
25.5212
 20
80.1025
 30
0.0
 10
25.5212
 20
80.1025
 30
0.0
  0
SPLINE
  5
6C
330
1F
100
AcDbEntity
  8
layer 1
 62
     7
100
AcDbSpline
210
0.0
220
0.0
230
1.0
 70
    11
 71
     3
 72
    28
 73
    24
 74
     0
 42
0.0000000001
 43
0.0000000001
 12
1.0
 22
0.0
 32
0.0
 13
1.0
 23
0.0
 33
0.0
 40
0.0
 40
0.0
 40
0.0
 40
0.0
 40
0.1428571428571428
 40
0.1428571428571428
 40
0.1428571428571428
 40
0.1428571428571428
 40
0.2857142857142857
 40
0.2857142857142857
 40
0.2857142857142857
 40
0.2857142857142857
 40
0.4285714285714285
 40
0.4285714285714285
 40
0.4285714285714285
 40
0.4285714285714285
 40
0.5714285714285714
 40
0.5714285714285714
 40
0.5714285714285714
 40
0.5714285714285714
 40
0.7142857142857143
 40
0.7142857142857143
 40
0.7142857142857143
 40
0.7142857142857143
 40
1.0
 40
1.0
 40
1.0
 40
1.0
 10
3.0425
 20
57.7438
 30
0.0
 10
3.0425
 20
57.7438
 30
0.0
 10
9.1263
 20
57.7438
 30
0.0
 10
9.1263
 20
57.7438
 30
0.0
 10
9.1263
 20
57.7438
 30
0.0
 10
11.5165
 20
57.7438
 30
0.0
 10
13.4408
 20
59.668
 30
0.0
 10
13.4408
 20
62.0583
 30
0.0
 10
13.4408
 20
62.0583
 30
0.0
 10
13.4408
 20
62.0583
 30
0.0
 10
13.4408
 20
68.118
 30
0.0
 10
13.4408
 20
68.118
 30
0.0
 10
13.4408
 20
68.118
 30
0.0
 10
13.4408
 20
68.118
 30
0.0
 10
7.333
 20
68.166
 30
0.0
 10
7.333
 20
68.166
 30
0.0
 10
7.333
 20
68.166
 30
0.0
 10
4.9428
 20
68.166
 30
0.0
 10
3.0185
 20
66.2418
 30
0.0
 10
3.0185
 20
63.8515
 30
0.0
 10
3.0185
 20
63.8515
 30
0.0
 10
3.0185
 20
63.8515
 30
0.0
 10
3.0425
 20
57.7438
 30
0.0
 10
3.0425
 20
57.7438
 30
0.0
  0
SPLINE
  5
6D
330
1F
100
AcDbEntity
  8
layer 1
 62
     7
100
AcDbSpline
210
0.0
220
0.0
230
1.0
 70
    11
 71
     3
 72
    28
 73
    24
 74
     0
 42
0.0000000001
 43
0.0000000001
 12
1.0
 22
0.0
 32
0.0
 13
1.0
 23
0.0
 33
0.0
 40
0.0
 40
0.0
 40
0.0
 40
0.0
 40
0.1428571428571428
 40
0.1428571428571428
 40
0.1428571428571428
 40
0.1428571428571428
 40
0.2857142857142857
 40
0.2857142857142857
 40
0.2857142857142857
 40
0.2857142857142857
 40
0.4285714285714285
 40
0.4285714285714285
 40
0.4285714285714285
 40
0.4285714285714285
 40
0.5714285714285714
 40
0.5714285714285714
 40
0.5714285714285714
 40
0.5714285714285714
 40
0.7142857142857143
 40
0.7142857142857143
 40
0.7142857142857143
 40
0.7142857142857143
 40
1.0
 40
1.0
 40
1.0
 40
1.0
 10
25.5212
 20
57.7438
 30
0.0
 10
25.5212
 20
57.7438
 30
0.0
 10
19.4375
 20
57.7438
 30
0.0
 10
19.4375
 20
57.7438
 30
0.0
 10
19.4375
 20
57.7438
 30
0.0
 10
17.0472
 20
57.7438
 30
0.0
 10
15.123
 20
59.668
 30
0.0
 10
15.123
 20
62.0583
 30
0.0
 10
15.123
 20
62.0583
 30
0.0
 10
15.123
 20
62.0583
 30
0.0
 10
15.123
 20
68.118
 30
0.0
 10
15.123
 20
68.118
 30
0.0
 10
15.123
 20
68.118
 30
0.0
 10
15.123
 20
68.118
 30
0.0
 10
21.2307
 20
68.166
 30
0.0
 10
21.2307
 20
68.166
 30
0.0
 10
21.2307
 20
68.166
 30
0.0
 10
23.6209
 20
68.166
 30
0.0
 10
25.5452
 20
66.2418
 30
0.0
 10
25.5452
 20
63.8515
 30
0.0
 10
25.5452
 20
63.8515
 30
0.0
 10
25.5452
 20
63.8515
 30
0.0
 10
25.5212
 20
57.7438
 30
0.0
 10
25.5212
 20
57.7438
 30
0.0
  0
SPLINE
  5
6E
330
1F
100
AcDbEntity
  8
layer 1
 62
     7
100
AcDbSpline
210
0.0
220
0.0
230
1.0
 70
    11
 71
     3
 72
    28
 73
    24
 74
     0
 42
0.0000000001
 43
0.0000000001
 12
1.0
 22
0.0
 32
0.0
 13
1.0
 23
0.0
 33
0.0
 40
0.0
 40
0.0
 40
0.0
 40
0.0
 40
0.1428571428571428
 40
0.1428571428571428
 40
0.1428571428571428
 40
0.1428571428571428
 40
0.2857142857142857
 40
0.2857142857142857
 40
0.2857142857142857
 40
0.2857142857142857
 40
0.4285714285714285
 40
0.4285714285714285
 40
0.4285714285714285
 40
0.4285714285714285
 40
0.5714285714285714
 40
0.5714285714285714
 40
0.5714285714285714
 40
0.5714285714285714
 40
0.7142857142857143
 40
0.7142857142857143
 40
0.7142857142857143
 40
0.7142857142857143
 40
1.0
 40
1.0
 40
1.0
 40
1.0
 10
26.9065
 20
80.1025
 30
0.0
 10
26.9065
 20
80.1025
 30
0.0
 10
32.9902
 20
80.1025
 30
0.0
 10
32.9902
 20
80.1025
 30
0.0
 10
32.9902
 20
80.1025
 30
0.0
 10
35.3805
 20
80.1025
 30
0.0
 10
37.3047
 20
78.1782
 30
0.0
 10
37.3047
 20
75.788
 30
0.0
 10
37.3047
 20
75.788
 30
0.0
 10
37.3047
 20
75.788
 30
0.0
 10
37.3047
 20
69.7282
 30
0.0
 10
37.3047
 20
69.7282
 30
0.0
 10
37.3047
 20
69.7282
 30
0.0
 10
37.3047
 20
69.7282
 30
0.0
 10
31.197
 20
69.6802
 30
0.0
 10
31.197
 20
69.6802
 30
0.0
 10
31.197
 20
69.6802
 30
0.0
 10
28.8067
 20
69.6802
 30
0.0
 10
26.8825
 20
71.6045
 30
0.0
 10
26.8825
 20
73.9947
 30
0.0
 10
26.8825
 20
73.9947
 30
0.0
 10
26.8825
 20
73.9947
 30
0.0
 10
26.9065
 20
80.1025
 30
0.0
 10
26.9065
 20
80.1025
 30
0.0
  0
SPLINE
  5
6F
330
1F
100
AcDbEntity
  8
layer 1
 62
     7
100
AcDbSpline
210
0.0
220
0.0
230
1.0
 70
    11
 71
     3
 72
    28
 73
    24
 74
     0
 42
0.0000000001
 43
0.0000000001
 12
1.0
 22
0.0
 32
0.0
 13
1.0
 23
0.0
 33
0.0
 40
0.0
 40
0.0
 40
0.0
 40
0.0
 40
0.1428571428571428
 40
0.1428571428571428
 40
0.1428571428571428
 40
0.1428571428571428
 40
0.2857142857142857
 40
0.2857142857142857
 40
0.2857142857142857
 40
0.2857142857142857
 40
0.4285714285714285
 40
0.4285714285714285
 40
0.4285714285714285
 40
0.4285714285714285
 40
0.5714285714285714
 40
0.5714285714285714
 40
0.5714285714285714
 40
0.5714285714285714
 40
0.7142857142857143
 40
0.7142857142857143
 40
0.7142857142857143
 40
0.7142857142857143
 40
1.0
 40
1.0
 40
1.0
 40
1.0
 10
49.3852
 20
80.1025
 30
0.0
 10
49.3852
 20
80.1025
 30
0.0
 10
43.3014
 20
80.1025
 30
0.0
 10
43.3014
 20
80.1025
 30
0.0
 10
43.3014
 20
80.1025
 30
0.0
 10
40.9112
 20
80.1025
 30
0.0
 10
38.9869
 20
78.1782
 30
0.0
 10
38.9869
 20
75.788
 30
0.0
 10
38.9869
 20
75.788
 30
0.0
 10
38.9869
 20
75.788
 30
0.0
 10
38.9869
 20
69.7282
 30
0.0
 10
38.9869
 20
69.7282
 30
0.0
 10
38.9869
 20
69.7282
 30
0.0
 10
38.9869
 20
69.7282
 30
0.0
 10
45.0947
 20
69.6802
 30
0.0
 10
45.0947
 20
69.6802
 30
0.0
 10
45.0947
 20
69.6802
 30
0.0
 10
47.4849
 20
69.6802
 30
0.0
 10
49.4091
 20
71.6045
 30
0.0
 10
49.4091
 20
73.9947
 30
0.0
 10
49.4091
 20
73.9947
 30
0.0
 10
49.4091
 20
73.9947
 30
0.0
 10
49.3852
 20
80.1025
 30
0.0
 10
49.3852
 20
80.1025
 30
0.0
  0
SPLINE
  5
70
330
1F
100
AcDbEntity
  8
layer 1
 62
     7
100
AcDbSpline
210
0.0
220
0.0
230
1.0
 70
    11
 71
     3
 72
    28
 73
    24
 74
     0
 42
0.0000000001
 43
0.0000000001
 12
1.0
 22
0.0
 32
0.0
 13
1.0
 23
0.0
 33
0.0
 40
0.0
 40
0.0
 40
0.0
 40
0.0
 40
0.1428571428571428
 40
0.1428571428571428
 40
0.1428571428571428
 40
0.1428571428571428
 40
0.2857142857142857
 40
0.2857142857142857
 40
0.2857142857142857
 40
0.2857142857142857
 40
0.4285714285714285
 40
0.4285714285714285
 40
0.4285714285714285
 40
0.4285714285714285
 40
0.5714285714285714
 40
0.5714285714285714
 40
0.5714285714285714
 40
0.5714285714285714
 40
0.7142857142857143
 40
0.7142857142857143
 40
0.7142857142857143
 40
0.7142857142857143
 40
1.0
 40
1.0
 40
1.0
 40
1.0
 10
26.9065
 20
57.7438
 30
0.0
 10
26.9065
 20
57.7438
 30
0.0
 10
32.9902
 20
57.7438
 30
0.0
 10
32.9902
 20
57.7438
 30
0.0
 10
32.9902
 20
57.7438
 30
0.0
 10
35.3805
 20
57.7438
 30
0.0
 10
37.3047
 20
59.668
 30
0.0
 10
37.3047
 20
62.0583
 30
0.0
 10
37.3047
 20
62.0583
 30
0.0
 10
37.3047
 20
62.0583
 30
0.0
 10
37.3047
 20
68.118
 30
0.0
 10
37.3047
 20
68.118
 30
0.0
 10
37.3047
 20
68.118
 30
0.0
 10
37.3047
 20
68.118
 30
0.0
 10
31.197
 20
68.166
 30
0.0
 10
31.197
 20
68.166
 30
0.0
 10
31.197
 20
68.166
 30
0.0
 10
28.8067
 20
68.166
 30
0.0
 10
26.8825
 20
66.2418
 30
0.0
 10
26.8825
 20
63.8515
 30
0.0
 10
26.8825
 20
63.8515
 30
0.0
 10
26.8825
 20
63.8515
 30
0.0
 10
26.9065
 20
57.7438
 30
0.0
 10
26.9065
 20
57.7438
 30
0.0
  0
SPLINE
  5
71
330
1F
100
AcDbEntity
  8
layer 1
 62
     7
100
AcDbSpline
210
0.0
220
0.0
230
1.0
 70
    11
 71
     3
 72
    28
 73
    24
 74
     0
 42
0.0000000001
 43
0.0000000001
 12
1.0
 22
0.0
 32
0.0
 13
1.0
 23
0.0
 33
0.0
 40
0.0
 40
0.0
 40
0.0
 40
0.0
 40
0.1428571428571428
 40
0.1428571428571428
 40
0.1428571428571428
 40
0.1428571428571428
 40
0.2857142857142857
 40
0.2857142857142857
 40
0.2857142857142857
 40
0.2857142857142857
 40
0.4285714285714285
 40
0.4285714285714285
 40
0.4285714285714285
 40
0.4285714285714285
 40
0.5714285714285714
 40
0.5714285714285714
 40
0.5714285714285714
 40
0.5714285714285714
 40
0.7142857142857143
 40
0.7142857142857143
 40
0.7142857142857143
 40
0.7142857142857143
 40
1.0
 40
1.0
 40
1.0
 40
1.0
 10
49.3852
 20
57.7438
 30
0.0
 10
49.3852
 20
57.7438
 30
0.0
 10
43.3014
 20
57.7438
 30
0.0
 10
43.3014
 20
57.7438
 30
0.0
 10
43.3014
 20
57.7438
 30
0.0
 10
40.9112
 20
57.7438
 30
0.0
 10
38.9869
 20
59.668
 30
0.0
 10
38.9869
 20
62.0583
 30
0.0
 10
38.9869
 20
62.0583
 30
0.0
 10
38.9869
 20
62.0583
 30
0.0
 10
38.9869
 20
68.118
 30
0.0
 10
38.9869
 20
68.118
 30
0.0
 10
38.9869
 20
68.118
 30
0.0
 10
38.9869
 20
68.118
 30
0.0
 10
45.0947
 20
68.166
 30
0.0
 10
45.0947
 20
68.166
 30
0.0
 10
45.0947
 20
68.166
 30
0.0
 10
47.4849
 20
68.166
 30
0.0
 10
49.4091
 20
66.2418
 30
0.0
 10
49.4091
 20
63.8515
 30
0.0
 10
49.4091
 20
63.8515
 30
0.0
 10
49.4091
 20
63.8515
 30
0.0
 10
49.3852
 20
57.7438
 30
0.0
 10
49.3852
 20
57.7438
 30
0.0
  0
SPLINE
  5
72
330
1F
100
AcDbEntity
  8
layer 1
 62
     7
100
AcDbSpline
210
0.0
220
0.0
230
1.0
 70
    11
 71
     3
 72
    28
 73
    24
 74
     0
 42
0.0000000001
 43
0.0000000001
 12
1.0
 22
0.0
 32
0.0
 13
1.0
 23
0.0
 33
0.0
 40
0.0
 40
0.0
 40
0.0
 40
0.0
 40
0.1428571428571428
 40
0.1428571428571428
 40
0.1428571428571428
 40
0.1428571428571428
 40
0.2857142857142857
 40
0.2857142857142857
 40
0.2857142857142857
 40
0.2857142857142857
 40
0.4285714285714285
 40
0.4285714285714285
 40
0.4285714285714285
 40
0.4285714285714285
 40
0.5714285714285714
 40
0.5714285714285714
 40
0.5714285714285714
 40
0.5714285714285714
 40
0.7142857142857143
 40
0.7142857142857143
 40
0.7142857142857143
 40
0.7142857142857143
 40
1.0
 40
1.0
 40
1.0
 40
1.0
 10
-45.1259
 20
55.9796
 30
0.0
 10
-45.1259
 20
55.9796
 30
0.0
 10
-39.0421
 20
55.9796
 30
0.0
 10
-39.0421
 20
55.9796
 30
0.0
 10
-39.0421
 20
55.9796
 30
0.0
 10
-36.6519
 20
55.9796
 30
0.0
 10
-34.7276
 20
54.0554
 30
0.0
 10
-34.7276
 20
51.6651
 30
0.0
 10
-34.7276
 20
51.6651
 30
0.0
 10
-34.7276
 20
51.6651
 30
0.0
 10
-34.7276
 20
45.6054
 30
0.0
 10
-34.7276
 20
45.6054
 30
0.0
 10
-34.7276
 20
45.6054
 30
0.0
 10
-34.7276
 20
45.6054
 30
0.0
 10
-40.8354
 20
45.5574
 30
0.0
 10
-40.8354
 20
45.5574
 30
0.0
 10
-40.8354
 20
45.5574
 30
0.0
 10
-43.2256
 20
45.5574
 30
0.0
 10
-45.1499
 20
47.4816
 30
0.0
 10
-45.1499
 20
49.8719
 30
0.0
 10
-45.1499
 20
49.8719
 30
0.0
 10
-45.1499
 20
49.8719
 30
0.0
 10
-45.1259
 20
55.9796
 30
0.0
 10
-45.1259
 20
55.9796
 30
0.0
  0
SPLINE
  5
73
330
1F
100
AcDbEntity
  8
layer 1
 62
     7
100
AcDbSpline
210
0.0
220
0.0
230
1.0
 70
    11
 71
     3
 72
    28
 73
    24
 74
     0
 42
0.0000000001
 43
0.0000000001
 12
1.0
 22
0.0
 32
0.0
 13
1.0
 23
0.0
 33
0.0
 40
0.0
 40
0.0
 40
0.0
 40
0.0
 40
0.1428571428571428
 40
0.1428571428571428
 40
0.1428571428571428
 40
0.1428571428571428
 40
0.2857142857142857
 40
0.2857142857142857
 40
0.2857142857142857
 40
0.2857142857142857
 40
0.4285714285714285
 40
0.4285714285714285
 40
0.4285714285714285
 40
0.4285714285714285
 40
0.5714285714285714
 40
0.5714285714285714
 40
0.5714285714285714
 40
0.5714285714285714
 40
0.7142857142857143
 40
0.7142857142857143
 40
0.7142857142857143
 40
0.7142857142857143
 40
1.0
 40
1.0
 40
1.0
 40
1.0
 10
-22.6472
 20
55.9796
 30
0.0
 10
-22.6472
 20
55.9796
 30
0.0
 10
-28.731
 20
55.9796
 30
0.0
 10
-28.731
 20
55.9796
 30
0.0
 10
-28.731
 20
55.9796
 30
0.0
 10
-31.1212
 20
55.9796
 30
0.0
 10
-33.0455
 20
54.0554
 30
0.0
 10
-33.0455
 20
51.6651
 30
0.0
 10
-33.0455
 20
51.6651
 30
0.0
 10
-33.0455
 20
51.6651
 30
0.0
 10
-33.0455
 20
45.6054
 30
0.0
 10
-33.0455
 20
45.6054
 30
0.0
 10
-33.0455
 20
45.6054
 30
0.0
 10
-33.0455
 20
45.6054
 30
0.0
 10
-26.9377
 20
45.5574
 30
0.0
 10
-26.9377
 20
45.5574
 30
0.0
 10
-26.9377
 20
45.5574
 30
0.0
 10
-24.5475
 20
45.5574
 30
0.0
 10
-22.6232
 20
47.4816
 30
0.0
 10
-22.6232
 20
49.8719
 30
0.0
 10
-22.6232
 20
49.8719
 30
0.0
 10
-22.6232
 20
49.8719
 30
0.0
 10
-22.6472
 20
55.9796
 30
0.0
 10
-22.6472
 20
55.9796
 30
0.0
  0
SPLINE
  5
74
330
1F
100
AcDbEntity
  8
layer 1
 62
     7
100
AcDbSpline
210
0.0
220
0.0
230
1.0
 70
    11
 71
     3
 72
    28
 73
    24
 74
     0
 42
0.0000000001
 43
0.0000000001
 12
1.0
 22
0.0
 32
0.0
 13
1.0
 23
0.0
 33
0.0
 40
0.0
 40
0.0
 40
0.0
 40
0.0
 40
0.1428571428571428
 40
0.1428571428571428
 40
0.1428571428571428
 40
0.1428571428571428
 40
0.2857142857142857
 40
0.2857142857142857
 40
0.2857142857142857
 40
0.2857142857142857
 40
0.4285714285714285
 40
0.4285714285714285
 40
0.4285714285714285
 40
0.4285714285714285
 40
0.5714285714285714
 40
0.5714285714285714
 40
0.5714285714285714
 40
0.5714285714285714
 40
0.7142857142857143
 40
0.7142857142857143
 40
0.7142857142857143
 40
0.7142857142857143
 40
1.0
 40
1.0
 40
1.0
 40
1.0
 10
-45.1259
 20
33.621
 30
0.0
 10
-45.1259
 20
33.621
 30
0.0
 10
-39.0421
 20
33.621
 30
0.0
 10
-39.0421
 20
33.621
 30
0.0
 10
-39.0421
 20
33.621
 30
0.0
 10
-36.6519
 20
33.621
 30
0.0
 10
-34.7276
 20
35.5452
 30
0.0
 10
-34.7276
 20
37.9355
 30
0.0
 10
-34.7276
 20
37.9355
 30
0.0
 10
-34.7276
 20
37.9355
 30
0.0
 10
-34.7276
 20
43.9952
 30
0.0
 10
-34.7276
 20
43.9952
 30
0.0
 10
-34.7276
 20
43.9952
 30
0.0
 10
-34.7276
 20
43.9952
 30
0.0
 10
-40.8354
 20
44.0432
 30
0.0
 10
-40.8354
 20
44.0432
 30
0.0
 10
-40.8354
 20
44.0432
 30
0.0
 10
-43.2256
 20
44.0432
 30
0.0
 10
-45.1499
 20
42.119
 30
0.0
 10
-45.1499
 20
39.7287
 30
0.0
 10
-45.1499
 20
39.7287
 30
0.0
 10
-45.1499
 20
39.7287
 30
0.0
 10
-45.1259
 20
33.621
 30
0.0
 10
-45.1259
 20
33.621
 30
0.0
  0
SPLINE
  5
75
330
1F
100
AcDbEntity
  8
layer 1
 62
     7
100
AcDbSpline
210
0.0
220
0.0
230
1.0
 70
    11
 71
     3
 72
    28
 73
    24
 74
     0
 42
0.0000000001
 43
0.0000000001
 12
1.0
 22
0.0
 32
0.0
 13
1.0
 23
0.0
 33
0.0
 40
0.0
 40
0.0
 40
0.0
 40
0.0
 40
0.1428571428571428
 40
0.1428571428571428
 40
0.1428571428571428
 40
0.1428571428571428
 40
0.2857142857142857
 40
0.2857142857142857
 40
0.2857142857142857
 40
0.2857142857142857
 40
0.4285714285714285
 40
0.4285714285714285
 40
0.4285714285714285
 40
0.4285714285714285
 40
0.5714285714285714
 40
0.5714285714285714
 40
0.5714285714285714
 40
0.5714285714285714
 40
0.7142857142857143
 40
0.7142857142857143
 40
0.7142857142857143
 40
0.7142857142857143
 40
1.0
 40
1.0
 40
1.0
 40
1.0
 10
-22.6472
 20
33.621
 30
0.0
 10
-22.6472
 20
33.621
 30
0.0
 10
-28.731
 20
33.621
 30
0.0
 10
-28.731
 20
33.621
 30
0.0
 10
-28.731
 20
33.621
 30
0.0
 10
-31.1212
 20
33.621
 30
0.0
 10
-33.0455
 20
35.5452
 30
0.0
 10
-33.0455
 20
37.9355
 30
0.0
 10
-33.0455
 20
37.9355
 30
0.0
 10
-33.0455
 20
37.9355
 30
0.0
 10
-33.0455
 20
43.9952
 30
0.0
 10
-33.0455
 20
43.9952
 30
0.0
 10
-33.0455
 20
43.9952
 30
0.0
 10
-33.0455
 20
43.9952
 30
0.0
 10
-26.9377
 20
44.0432
 30
0.0
 10
-26.9377
 20
44.0432
 30
0.0
 10
-26.9377
 20
44.0432
 30
0.0
 10
-24.5475
 20
44.0432
 30
0.0
 10
-22.6232
 20
42.119
 30
0.0
 10
-22.6232
 20
39.7287
 30
0.0
 10
-22.6232
 20
39.7287
 30
0.0
 10
-22.6232
 20
39.7287
 30
0.0
 10
-22.6472
 20
33.621
 30
0.0
 10
-22.6472
 20
33.621
 30
0.0
  0
SPLINE
  5
76
330
1F
100
AcDbEntity
  8
layer 1
 62
     7
100
AcDbSpline
210
0.0
220
0.0
230
1.0
 70
    11
 71
     3
 72
    28
 73
    24
 74
     0
 42
0.0000000001
 43
0.0000000001
 12
1.0
 22
0.0
 32
0.0
 13
1.0
 23
0.0
 33
0.0
 40
0.0
 40
0.0
 40
0.0
 40
0.0
 40
0.1428571428571428
 40
0.1428571428571428
 40
0.1428571428571428
 40
0.1428571428571428
 40
0.2857142857142857
 40
0.2857142857142857
 40
0.2857142857142857
 40
0.2857142857142857
 40
0.4285714285714285
 40
0.4285714285714285
 40
0.4285714285714285
 40
0.4285714285714285
 40
0.5714285714285714
 40
0.5714285714285714
 40
0.5714285714285714
 40
0.5714285714285714
 40
0.7142857142857143
 40
0.7142857142857143
 40
0.7142857142857143
 40
0.7142857142857143
 40
1.0
 40
1.0
 40
1.0
 40
1.0
 10
-20.9908
 20
55.9796
 30
0.0
 10
-20.9908
 20
55.9796
 30
0.0
 10
-14.9071
 20
55.9796
 30
0.0
 10
-14.9071
 20
55.9796
 30
0.0
 10
-14.9071
 20
55.9796
 30
0.0
 10
-12.5168
 20
55.9796
 30
0.0
 10
-10.5926
 20
54.0554
 30
0.0
 10
-10.5926
 20
51.6651
 30
0.0
 10
-10.5926
 20
51.6651
 30
0.0
 10
-10.5926
 20
51.6651
 30
0.0
 10
-10.5926
 20
45.6054
 30
0.0
 10
-10.5926
 20
45.6054
 30
0.0
 10
-10.5926
 20
45.6054
 30
0.0
 10
-10.5926
 20
45.6054
 30
0.0
 10
-16.7003
 20
45.5574
 30
0.0
 10
-16.7003
 20
45.5574
 30
0.0
 10
-16.7003
 20
45.5574
 30
0.0
 10
-19.0905
 20
45.5574
 30
0.0
 10
-21.0148
 20
47.4816
 30
0.0
 10
-21.0148
 20
49.8719
 30
0.0
 10
-21.0148
 20
49.8719
 30
0.0
 10
-21.0148
 20
49.8719
 30
0.0
 10
-20.9908
 20
55.9796
 30
0.0
 10
-20.9908
 20
55.9796
 30
0.0
  0
SPLINE
  5
77
330
1F
100
AcDbEntity
  8
layer 1
 62
     7
100
AcDbSpline
210
0.0
220
0.0
230
1.0
 70
    11
 71
     3
 72
    28
 73
    24
 74
     0
 42
0.0000000001
 43
0.0000000001
 12
1.0
 22
0.0
 32
0.0
 13
1.0
 23
0.0
 33
0.0
 40
0.0
 40
0.0
 40
0.0
 40
0.0
 40
0.1428571428571428
 40
0.1428571428571428
 40
0.1428571428571428
 40
0.1428571428571428
 40
0.2857142857142857
 40
0.2857142857142857
 40
0.2857142857142857
 40
0.2857142857142857
 40
0.4285714285714285
 40
0.4285714285714285
 40
0.4285714285714285
 40
0.4285714285714285
 40
0.5714285714285714
 40
0.5714285714285714
 40
0.5714285714285714
 40
0.5714285714285714
 40
0.7142857142857143
 40
0.7142857142857143
 40
0.7142857142857143
 40
0.7142857142857143
 40
1.0
 40
1.0
 40
1.0
 40
1.0
 10
1.4879
 20
55.9796
 30
0.0
 10
1.4879
 20
55.9796
 30
0.0
 10
-4.5959
 20
55.9796
 30
0.0
 10
-4.5959
 20
55.9796
 30
0.0
 10
-4.5959
 20
55.9796
 30
0.0
 10
-6.9861
 20
55.9796
 30
0.0
 10
-8.9104
 20
54.0554
 30
0.0
 10
-8.9104
 20
51.6651
 30
0.0
 10
-8.9104
 20
51.6651
 30
0.0
 10
-8.9104
 20
51.6651
 30
0.0
 10
-8.9104
 20
45.6054
 30
0.0
 10
-8.9104
 20
45.6054
 30
0.0
 10
-8.9104
 20
45.6054
 30
0.0
 10
-8.9104
 20
45.6054
 30
0.0
 10
-2.8026
 20
45.5574
 30
0.0
 10
-2.8026
 20
45.5574
 30
0.0
 10
-2.8026
 20
45.5574
 30
0.0
 10
-0.4124
 20
45.5574
 30
0.0
 10
1.5118
 20
47.4816
 30
0.0
 10
1.5118
 20
49.8719
 30
0.0
 10
1.5118
 20
49.8719
 30
0.0
 10
1.5118
 20
49.8719
 30
0.0
 10
1.4879
 20
55.9796
 30
0.0
 10
1.4879
 20
55.9796
 30
0.0
  0
SPLINE
  5
78
330
1F
100
AcDbEntity
  8
layer 1
 62
     7
100
AcDbSpline
210
0.0
220
0.0
230
1.0
 70
    11
 71
     3
 72
    28
 73
    24
 74
     0
 42
0.0000000001
 43
0.0000000001
 12
1.0
 22
0.0
 32
0.0
 13
1.0
 23
0.0
 33
0.0
 40
0.0
 40
0.0
 40
0.0
 40
0.0
 40
0.1428571428571428
 40
0.1428571428571428
 40
0.1428571428571428
 40
0.1428571428571428
 40
0.2857142857142857
 40
0.2857142857142857
 40
0.2857142857142857
 40
0.2857142857142857
 40
0.4285714285714285
 40
0.4285714285714285
 40
0.4285714285714285
 40
0.4285714285714285
 40
0.5714285714285714
 40
0.5714285714285714
 40
0.5714285714285714
 40
0.5714285714285714
 40
0.7142857142857143
 40
0.7142857142857143
 40
0.7142857142857143
 40
0.7142857142857143
 40
1.0
 40
1.0
 40
1.0
 40
1.0
 10
-20.9908
 20
33.621
 30
0.0
 10
-20.9908
 20
33.621
 30
0.0
 10
-14.9071
 20
33.621
 30
0.0
 10
-14.9071
 20
33.621
 30
0.0
 10
-14.9071
 20
33.621
 30
0.0
 10
-12.5168
 20
33.621
 30
0.0
 10
-10.5926
 20
35.5452
 30
0.0
 10
-10.5926
 20
37.9355
 30
0.0
 10
-10.5926
 20
37.9355
 30
0.0
 10
-10.5926
 20
37.9355
 30
0.0
 10
-10.5926
 20
43.9952
 30
0.0
 10
-10.5926
 20
43.9952
 30
0.0
 10
-10.5926
 20
43.9952
 30
0.0
 10
-10.5926
 20
43.9952
 30
0.0
 10
-16.7003
 20
44.0432
 30
0.0
 10
-16.7003
 20
44.0432
 30
0.0
 10
-16.7003
 20
44.0432
 30
0.0
 10
-19.0905
 20
44.0432
 30
0.0
 10
-21.0148
 20
42.119
 30
0.0
 10
-21.0148
 20
39.7287
 30
0.0
 10
-21.0148
 20
39.7287
 30
0.0
 10
-21.0148
 20
39.7287
 30
0.0
 10
-20.9908
 20
33.621
 30
0.0
 10
-20.9908
 20
33.621
 30
0.0
  0
SPLINE
  5
79
330
1F
100
AcDbEntity
  8
layer 1
 62
     7
100
AcDbSpline
210
0.0
220
0.0
230
1.0
 70
    11
 71
     3
 72
    28
 73
    24
 74
     0
 42
0.0000000001
 43
0.0000000001
 12
1.0
 22
0.0
 32
0.0
 13
1.0
 23
0.0
 33
0.0
 40
0.0
 40
0.0
 40
0.0
 40
0.0
 40
0.1428571428571428
 40
0.1428571428571428
 40
0.1428571428571428
 40
0.1428571428571428
 40
0.2857142857142857
 40
0.2857142857142857
 40
0.2857142857142857
 40
0.2857142857142857
 40
0.4285714285714285
 40
0.4285714285714285
 40
0.4285714285714285
 40
0.4285714285714285
 40
0.5714285714285714
 40
0.5714285714285714
 40
0.5714285714285714
 40
0.5714285714285714
 40
0.7142857142857143
 40
0.7142857142857143
 40
0.7142857142857143
 40
0.7142857142857143
 40
1.0
 40
1.0
 40
1.0
 40
1.0
 10
1.4879
 20
33.621
 30
0.0
 10
1.4879
 20
33.621
 30
0.0
 10
-4.5959
 20
33.621
 30
0.0
 10
-4.5959
 20
33.621
 30
0.0
 10
-4.5959
 20
33.621
 30
0.0
 10
-6.9861
 20
33.621
 30
0.0
 10
-8.9104
 20
35.5452
 30
0.0
 10
-8.9104
 20
37.9355
 30
0.0
 10
-8.9104
 20
37.9355
 30
0.0
 10
-8.9104
 20
37.9355
 30
0.0
 10
-8.9104
 20
43.9952
 30
0.0
 10
-8.9104
 20
43.9952
 30
0.0
 10
-8.9104
 20
43.9952
 30
0.0
 10
-8.9104
 20
43.9952
 30
0.0
 10
-2.8026
 20
44.0432
 30
0.0
 10
-2.8026
 20
44.0432
 30
0.0
 10
-2.8026
 20
44.0432
 30
0.0
 10
-0.4124
 20
44.0432
 30
0.0
 10
1.5118
 20
42.119
 30
0.0
 10
1.5118
 20
39.7287
 30
0.0
 10
1.5118
 20
39.7287
 30
0.0
 10
1.5118
 20
39.7287
 30
0.0
 10
1.4879
 20
33.621
 30
0.0
 10
1.4879
 20
33.621
 30
0.0
  0
SPLINE
  5
7A
330
1F
100
AcDbEntity
  8
layer 1
 62
     7
100
AcDbSpline
210
0.0
220
0.0
230
1.0
 70
    11
 71
     3
 72
    28
 73
    24
 74
     0
 42
0.0000000001
 43
0.0000000001
 12
1.0
 22
0.0
 32
0.0
 13
1.0
 23
0.0
 33
0.0
 40
0.0
 40
0.0
 40
0.0
 40
0.0
 40
0.1428571428571428
 40
0.1428571428571428
 40
0.1428571428571428
 40
0.1428571428571428
 40
0.2857142857142857
 40
0.2857142857142857
 40
0.2857142857142857
 40
0.2857142857142857
 40
0.4285714285714285
 40
0.4285714285714285
 40
0.4285714285714285
 40
0.4285714285714285
 40
0.5714285714285714
 40
0.5714285714285714
 40
0.5714285714285714
 40
0.5714285714285714
 40
0.7142857142857143
 40
0.7142857142857143
 40
0.7142857142857143
 40
0.7142857142857143
 40
1.0
 40
1.0
 40
1.0
 40
1.0
 10
3.0425
 20
55.9796
 30
0.0
 10
3.0425
 20
55.9796
 30
0.0
 10
9.1263
 20
55.9796
 30
0.0
 10
9.1263
 20
55.9796
 30
0.0
 10
9.1263
 20
55.9796
 30
0.0
 10
11.5165
 20
55.9796
 30
0.0
 10
13.4408
 20
54.0554
 30
0.0
 10
13.4408
 20
51.6651
 30
0.0
 10
13.4408
 20
51.6651
 30
0.0
 10
13.4408
 20
51.6651
 30
0.0
 10
13.4408
 20
45.6054
 30
0.0
 10
13.4408
 20
45.6054
 30
0.0
 10
13.4408
 20
45.6054
 30
0.0
 10
13.4408
 20
45.6054
 30
0.0
 10
7.333
 20
45.5574
 30
0.0
 10
7.333
 20
45.5574
 30
0.0
 10
7.333
 20
45.5574
 30
0.0
 10
4.9428
 20
45.5574
 30
0.0
 10
3.0185
 20
47.4816
 30
0.0
 10
3.0185
 20
49.8719
 30
0.0
 10
3.0185
 20
49.8719
 30
0.0
 10
3.0185
 20
49.8719
 30
0.0
 10
3.0425
 20
55.9796
 30
0.0
 10
3.0425
 20
55.9796
 30
0.0
  0
SPLINE
  5
7B
330
1F
100
AcDbEntity
  8
layer 1
 62
     7
100
AcDbSpline
210
0.0
220
0.0
230
1.0
 70
    11
 71
     3
 72
    28
 73
    24
 74
     0
 42
0.0000000001
 43
0.0000000001
 12
1.0
 22
0.0
 32
0.0
 13
1.0
 23
0.0
 33
0.0
 40
0.0
 40
0.0
 40
0.0
 40
0.0
 40
0.1428571428571428
 40
0.1428571428571428
 40
0.1428571428571428
 40
0.1428571428571428
 40
0.2857142857142857
 40
0.2857142857142857
 40
0.2857142857142857
 40
0.2857142857142857
 40
0.4285714285714285
 40
0.4285714285714285
 40
0.4285714285714285
 40
0.4285714285714285
 40
0.5714285714285714
 40
0.5714285714285714
 40
0.5714285714285714
 40
0.5714285714285714
 40
0.7142857142857143
 40
0.7142857142857143
 40
0.7142857142857143
 40
0.7142857142857143
 40
1.0
 40
1.0
 40
1.0
 40
1.0
 10
25.5212
 20
55.9796
 30
0.0
 10
25.5212
 20
55.9796
 30
0.0
 10
19.4375
 20
55.9796
 30
0.0
 10
19.4375
 20
55.9796
 30
0.0
 10
19.4375
 20
55.9796
 30
0.0
 10
17.0472
 20
55.9796
 30
0.0
 10
15.123
 20
54.0554
 30
0.0
 10
15.123
 20
51.6651
 30
0.0
 10
15.123
 20
51.6651
 30
0.0
 10
15.123
 20
51.6651
 30
0.0
 10
15.123
 20
45.6054
 30
0.0
 10
15.123
 20
45.6054
 30
0.0
 10
15.123
 20
45.6054
 30
0.0
 10
15.123
 20
45.6054
 30
0.0
 10
21.2307
 20
45.5574
 30
0.0
 10
21.2307
 20
45.5574
 30
0.0
 10
21.2307
 20
45.5574
 30
0.0
 10
23.6209
 20
45.5574
 30
0.0
 10
25.5452
 20
47.4816
 30
0.0
 10
25.5452
 20
49.8719
 30
0.0
 10
25.5452
 20
49.8719
 30
0.0
 10
25.5452
 20
49.8719
 30
0.0
 10
25.5212
 20
55.9796
 30
0.0
 10
25.5212
 20
55.9796
 30
0.0
  0
SPLINE
  5
7C
330
1F
100
AcDbEntity
  8
layer 1
 62
     7
100
AcDbSpline
210
0.0
220
0.0
230
1.0
 70
    11
 71
     3
 72
    28
 73
    24
 74
     0
 42
0.0000000001
 43
0.0000000001
 12
1.0
 22
0.0
 32
0.0
 13
1.0
 23
0.0
 33
0.0
 40
0.0
 40
0.0
 40
0.0
 40
0.0
 40
0.1428571428571428
 40
0.1428571428571428
 40
0.1428571428571428
 40
0.1428571428571428
 40
0.2857142857142857
 40
0.2857142857142857
 40
0.2857142857142857
 40
0.2857142857142857
 40
0.4285714285714285
 40
0.4285714285714285
 40
0.4285714285714285
 40
0.4285714285714285
 40
0.5714285714285714
 40
0.5714285714285714
 40
0.5714285714285714
 40
0.5714285714285714
 40
0.7142857142857143
 40
0.7142857142857143
 40
0.7142857142857143
 40
0.7142857142857143
 40
1.0
 40
1.0
 40
1.0
 40
1.0
 10
3.0425
 20
33.621
 30
0.0
 10
3.0425
 20
33.621
 30
0.0
 10
9.1263
 20
33.621
 30
0.0
 10
9.1263
 20
33.621
 30
0.0
 10
9.1263
 20
33.621
 30
0.0
 10
11.5165
 20
33.621
 30
0.0
 10
13.4408
 20
35.5452
 30
0.0
 10
13.4408
 20
37.9355
 30
0.0
 10
13.4408
 20
37.9355
 30
0.0
 10
13.4408
 20
37.9355
 30
0.0
 10
13.4408
 20
43.9952
 30
0.0
 10
13.4408
 20
43.9952
 30
0.0
 10
13.4408
 20
43.9952
 30
0.0
 10
13.4408
 20
43.9952
 30
0.0
 10
7.333
 20
44.0432
 30
0.0
 10
7.333
 20
44.0432
 30
0.0
 10
7.333
 20
44.0432
 30
0.0
 10
4.9428
 20
44.0432
 30
0.0
 10
3.0185
 20
42.119
 30
0.0
 10
3.0185
 20
39.7287
 30
0.0
 10
3.0185
 20
39.7287
 30
0.0
 10
3.0185
 20
39.7287
 30
0.0
 10
3.0425
 20
33.621
 30
0.0
 10
3.0425
 20
33.621
 30
0.0
  0
SPLINE
  5
7D
330
1F
100
AcDbEntity
  8
layer 1
 62
     7
100
AcDbSpline
210
0.0
220
0.0
230
1.0
 70
    11
 71
     3
 72
    28
 73
    24
 74
     0
 42
0.0000000001
 43
0.0000000001
 12
1.0
 22
0.0
 32
0.0
 13
1.0
 23
0.0
 33
0.0
 40
0.0
 40
0.0
 40
0.0
 40
0.0
 40
0.1428571428571428
 40
0.1428571428571428
 40
0.1428571428571428
 40
0.1428571428571428
 40
0.2857142857142857
 40
0.2857142857142857
 40
0.2857142857142857
 40
0.2857142857142857
 40
0.4285714285714285
 40
0.4285714285714285
 40
0.4285714285714285
 40
0.4285714285714285
 40
0.5714285714285714
 40
0.5714285714285714
 40
0.5714285714285714
 40
0.5714285714285714
 40
0.7142857142857143
 40
0.7142857142857143
 40
0.7142857142857143
 40
0.7142857142857143
 40
1.0
 40
1.0
 40
1.0
 40
1.0
 10
25.5212
 20
33.621
 30
0.0
 10
25.5212
 20
33.621
 30
0.0
 10
19.4375
 20
33.621
 30
0.0
 10
19.4375
 20
33.621
 30
0.0
 10
19.4375
 20
33.621
 30
0.0
 10
17.0472
 20
33.621
 30
0.0
 10
15.123
 20
35.5452
 30
0.0
 10
15.123
 20
37.9355
 30
0.0
 10
15.123
 20
37.9355
 30
0.0
 10
15.123
 20
37.9355
 30
0.0
 10
15.123
 20
43.9952
 30
0.0
 10
15.123
 20
43.9952
 30
0.0
 10
15.123
 20
43.9952
 30
0.0
 10
15.123
 20
43.9952
 30
0.0
 10
21.2307
 20
44.0432
 30
0.0
 10
21.2307
 20
44.0432
 30
0.0
 10
21.2307
 20
44.0432
 30
0.0
 10
23.6209
 20
44.0432
 30
0.0
 10
25.5452
 20
42.119
 30
0.0
 10
25.5452
 20
39.7287
 30
0.0
 10
25.5452
 20
39.7287
 30
0.0
 10
25.5452
 20
39.7287
 30
0.0
 10
25.5212
 20
33.621
 30
0.0
 10
25.5212
 20
33.621
 30
0.0
  0
SPLINE
  5
7E
330
1F
100
AcDbEntity
  8
layer 1
 62
     7
100
AcDbSpline
210
0.0
220
0.0
230
1.0
 70
    11
 71
     3
 72
    28
 73
    24
 74
     0
 42
0.0000000001
 43
0.0000000001
 12
1.0
 22
0.0
 32
0.0
 13
1.0
 23
0.0
 33
0.0
 40
0.0
 40
0.0
 40
0.0
 40
0.0
 40
0.1428571428571428
 40
0.1428571428571428
 40
0.1428571428571428
 40
0.1428571428571428
 40
0.2857142857142857
 40
0.2857142857142857
 40
0.2857142857142857
 40
0.2857142857142857
 40
0.4285714285714285
 40
0.4285714285714285
 40
0.4285714285714285
 40
0.4285714285714285
 40
0.5714285714285714
 40
0.5714285714285714
 40
0.5714285714285714
 40
0.5714285714285714
 40
0.7142857142857143
 40
0.7142857142857143
 40
0.7142857142857143
 40
0.7142857142857143
 40
1.0
 40
1.0
 40
1.0
 40
1.0
 10
26.9065
 20
55.9796
 30
0.0
 10
26.9065
 20
55.9796
 30
0.0
 10
32.9902
 20
55.9796
 30
0.0
 10
32.9902
 20
55.9796
 30
0.0
 10
32.9902
 20
55.9796
 30
0.0
 10
35.3805
 20
55.9796
 30
0.0
 10
37.3047
 20
54.0554
 30
0.0
 10
37.3047
 20
51.6651
 30
0.0
 10
37.3047
 20
51.6651
 30
0.0
 10
37.3047
 20
51.6651
 30
0.0
 10
37.3047
 20
45.6054
 30
0.0
 10
37.3047
 20
45.6054
 30
0.0
 10
37.3047
 20
45.6054
 30
0.0
 10
37.3047
 20
45.6054
 30
0.0
 10
31.197
 20
45.5574
 30
0.0
 10
31.197
 20
45.5574
 30
0.0
 10
31.197
 20
45.5574
 30
0.0
 10
28.8067
 20
45.5574
 30
0.0
 10
26.8825
 20
47.4816
 30
0.0
 10
26.8825
 20
49.8719
 30
0.0
 10
26.8825
 20
49.8719
 30
0.0
 10
26.8825
 20
49.8719
 30
0.0
 10
26.9065
 20
55.9796
 30
0.0
 10
26.9065
 20
55.9796
 30
0.0
  0
SPLINE
  5
7F
330
1F
100
AcDbEntity
  8
layer 1
 62
     7
100
AcDbSpline
210
0.0
220
0.0
230
1.0
 70
    11
 71
     3
 72
    28
 73
    24
 74
     0
 42
0.0000000001
 43
0.0000000001
 12
1.0
 22
0.0
 32
0.0
 13
1.0
 23
0.0
 33
0.0
 40
0.0
 40
0.0
 40
0.0
 40
0.0
 40
0.1428571428571428
 40
0.1428571428571428
 40
0.1428571428571428
 40
0.1428571428571428
 40
0.2857142857142857
 40
0.2857142857142857
 40
0.2857142857142857
 40
0.2857142857142857
 40
0.4285714285714285
 40
0.4285714285714285
 40
0.4285714285714285
 40
0.4285714285714285
 40
0.5714285714285714
 40
0.5714285714285714
 40
0.5714285714285714
 40
0.5714285714285714
 40
0.7142857142857143
 40
0.7142857142857143
 40
0.7142857142857143
 40
0.7142857142857143
 40
1.0
 40
1.0
 40
1.0
 40
1.0
 10
49.3852
 20
55.9796
 30
0.0
 10
49.3852
 20
55.9796
 30
0.0
 10
43.3014
 20
55.9796
 30
0.0
 10
43.3014
 20
55.9796
 30
0.0
 10
43.3014
 20
55.9796
 30
0.0
 10
40.9112
 20
55.9796
 30
0.0
 10
38.9869
 20
54.0554
 30
0.0
 10
38.9869
 20
51.6651
 30
0.0
 10
38.9869
 20
51.6651
 30
0.0
 10
38.9869
 20
51.6651
 30
0.0
 10
38.9869
 20
45.6054
 30
0.0
 10
38.9869
 20
45.6054
 30
0.0
 10
38.9869
 20
45.6054
 30
0.0
 10
38.9869
 20
45.6054
 30
0.0
 10
45.0947
 20
45.5574
 30
0.0
 10
45.0947
 20
45.5574
 30
0.0
 10
45.0947
 20
45.5574
 30
0.0
 10
47.4849
 20
45.5574
 30
0.0
 10
49.4091
 20
47.4816
 30
0.0
 10
49.4091
 20
49.8719
 30
0.0
 10
49.4091
 20
49.8719
 30
0.0
 10
49.4091
 20
49.8719
 30
0.0
 10
49.3852
 20
55.9796
 30
0.0
 10
49.3852
 20
55.9796
 30
0.0
  0
SPLINE
  5
80
330
1F
100
AcDbEntity
  8
layer 1
 62
     7
100
AcDbSpline
210
0.0
220
0.0
230
1.0
 70
    11
 71
     3
 72
    28
 73
    24
 74
     0
 42
0.0000000001
 43
0.0000000001
 12
1.0
 22
0.0
 32
0.0
 13
1.0
 23
0.0
 33
0.0
 40
0.0
 40
0.0
 40
0.0
 40
0.0
 40
0.1428571428571428
 40
0.1428571428571428
 40
0.1428571428571428
 40
0.1428571428571428
 40
0.2857142857142857
 40
0.2857142857142857
 40
0.2857142857142857
 40
0.2857142857142857
 40
0.4285714285714285
 40
0.4285714285714285
 40
0.4285714285714285
 40
0.4285714285714285
 40
0.5714285714285714
 40
0.5714285714285714
 40
0.5714285714285714
 40
0.5714285714285714
 40
0.7142857142857143
 40
0.7142857142857143
 40
0.7142857142857143
 40
0.7142857142857143
 40
1.0
 40
1.0
 40
1.0
 40
1.0
 10
26.9065
 20
33.621
 30
0.0
 10
26.9065
 20
33.621
 30
0.0
 10
32.9902
 20
33.621
 30
0.0
 10
32.9902
 20
33.621
 30
0.0
 10
32.9902
 20
33.621
 30
0.0
 10
35.3805
 20
33.621
 30
0.0
 10
37.3047
 20
35.5452
 30
0.0
 10
37.3047
 20
37.9355
 30
0.0
 10
37.3047
 20
37.9355
 30
0.0
 10
37.3047
 20
37.9355
 30
0.0
 10
37.3047
 20
43.9952
 30
0.0
 10
37.3047
 20
43.9952
 30
0.0
 10
37.3047
 20
43.9952
 30
0.0
 10
37.3047
 20
43.9952
 30
0.0
 10
31.197
 20
44.0432
 30
0.0
 10
31.197
 20
44.0432
 30
0.0
 10
31.197
 20
44.0432
 30
0.0
 10
28.8067
 20
44.0432
 30
0.0
 10
26.8825
 20
42.119
 30
0.0
 10
26.8825
 20
39.7287
 30
0.0
 10
26.8825
 20
39.7287
 30
0.0
 10
26.8825
 20
39.7287
 30
0.0
 10
26.9065
 20
33.621
 30
0.0
 10
26.9065
 20
33.621
 30
0.0
  0
SPLINE
  5
81
330
1F
100
AcDbEntity
  8
layer 1
 62
     7
100
AcDbSpline
210
0.0
220
0.0
230
1.0
 70
    11
 71
     3
 72
    28
 73
    24
 74
     0
 42
0.0000000001
 43
0.0000000001
 12
1.0
 22
0.0
 32
0.0
 13
1.0
 23
0.0
 33
0.0
 40
0.0
 40
0.0
 40
0.0
 40
0.0
 40
0.1428571428571428
 40
0.1428571428571428
 40
0.1428571428571428
 40
0.1428571428571428
 40
0.2857142857142857
 40
0.2857142857142857
 40
0.2857142857142857
 40
0.2857142857142857
 40
0.4285714285714285
 40
0.4285714285714285
 40
0.4285714285714285
 40
0.4285714285714285
 40
0.5714285714285714
 40
0.5714285714285714
 40
0.5714285714285714
 40
0.5714285714285714
 40
0.7142857142857143
 40
0.7142857142857143
 40
0.7142857142857143
 40
0.7142857142857143
 40
1.0
 40
1.0
 40
1.0
 40
1.0
 10
49.3852
 20
33.621
 30
0.0
 10
49.3852
 20
33.621
 30
0.0
 10
43.3014
 20
33.621
 30
0.0
 10
43.3014
 20
33.621
 30
0.0
 10
43.3014
 20
33.621
 30
0.0
 10
40.9112
 20
33.621
 30
0.0
 10
38.9869
 20
35.5452
 30
0.0
 10
38.9869
 20
37.9355
 30
0.0
 10
38.9869
 20
37.9355
 30
0.0
 10
38.9869
 20
37.9355
 30
0.0
 10
38.9869
 20
43.9952
 30
0.0
 10
38.9869
 20
43.9952
 30
0.0
 10
38.9869
 20
43.9952
 30
0.0
 10
38.9869
 20
43.9952
 30
0.0
 10
45.0947
 20
44.0432
 30
0.0
 10
45.0947
 20
44.0432
 30
0.0
 10
45.0947
 20
44.0432
 30
0.0
 10
47.4849
 20
44.0432
 30
0.0
 10
49.4091
 20
42.119
 30
0.0
 10
49.4091
 20
39.7287
 30
0.0
 10
49.4091
 20
39.7287
 30
0.0
 10
49.4091
 20
39.7287
 30
0.0
 10
49.3852
 20
33.621
 30
0.0
 10
49.3852
 20
33.621
 30
0.0
  0
SPLINE
  5
82
330
1F
100
AcDbEntity
  8
layer 1
 62
     7
100
AcDbSpline
210
0.0
220
0.0
230
1.0
 70
    11
 71
     3
 72
    28
 73
    24
 74
     0
 42
0.0000000001
 43
0.0000000001
 12
1.0
 22
0.0
 32
0.0
 13
1.0
 23
0.0
 33
0.0
 40
0.0
 40
0.0
 40
0.0
 40
0.0
 40
0.1428571428571428
 40
0.1428571428571428
 40
0.1428571428571428
 40
0.1428571428571428
 40
0.2857142857142857
 40
0.2857142857142857
 40
0.2857142857142857
 40
0.2857142857142857
 40
0.4285714285714285
 40
0.4285714285714285
 40
0.4285714285714285
 40
0.4285714285714285
 40
0.5714285714285714
 40
0.5714285714285714
 40
0.5714285714285714
 40
0.5714285714285714
 40
0.7142857142857143
 40
0.7142857142857143
 40
0.7142857142857143
 40
0.7142857142857143
 40
1.0
 40
1.0
 40
1.0
 40
1.0
 10
-45.1259
 20
31.7495
 30
0.0
 10
-45.1259
 20
31.7495
 30
0.0
 10
-39.0421
 20
31.7495
 30
0.0
 10
-39.0421
 20
31.7495
 30
0.0
 10
-39.0421
 20
31.7495
 30
0.0
 10
-36.6519
 20
31.7495
 30
0.0
 10
-34.7276
 20
29.8252
 30
0.0
 10
-34.7276
 20
27.435
 30
0.0
 10
-34.7276
 20
27.435
 30
0.0
 10
-34.7276
 20
27.435
 30
0.0
 10
-34.7276
 20
21.3752
 30
0.0
 10
-34.7276
 20
21.3752
 30
0.0
 10
-34.7276
 20
21.3752
 30
0.0
 10
-34.7276
 20
21.3752
 30
0.0
 10
-40.8354
 20
21.3272
 30
0.0
 10
-40.8354
 20
21.3272
 30
0.0
 10
-40.8354
 20
21.3272
 30
0.0
 10
-43.2256
 20
21.3272
 30
0.0
 10
-45.1499
 20
23.2515
 30
0.0
 10
-45.1499
 20
25.6417
 30
0.0
 10
-45.1499
 20
25.6417
 30
0.0
 10
-45.1499
 20
25.6417
 30
0.0
 10
-45.1259
 20
31.7495
 30
0.0
 10
-45.1259
 20
31.7495
 30
0.0
  0
SPLINE
  5
83
330
1F
100
AcDbEntity
  8
layer 1
 62
     7
100
AcDbSpline
210
0.0
220
0.0
230
1.0
 70
    11
 71
     3
 72
    28
 73
    24
 74
     0
 42
0.0000000001
 43
0.0000000001
 12
1.0
 22
0.0
 32
0.0
 13
1.0
 23
0.0
 33
0.0
 40
0.0
 40
0.0
 40
0.0
 40
0.0
 40
0.1428571428571428
 40
0.1428571428571428
 40
0.1428571428571428
 40
0.1428571428571428
 40
0.2857142857142857
 40
0.2857142857142857
 40
0.2857142857142857
 40
0.2857142857142857
 40
0.4285714285714285
 40
0.4285714285714285
 40
0.4285714285714285
 40
0.4285714285714285
 40
0.5714285714285714
 40
0.5714285714285714
 40
0.5714285714285714
 40
0.5714285714285714
 40
0.7142857142857143
 40
0.7142857142857143
 40
0.7142857142857143
 40
0.7142857142857143
 40
1.0
 40
1.0
 40
1.0
 40
1.0
 10
-22.6472
 20
31.7495
 30
0.0
 10
-22.6472
 20
31.7495
 30
0.0
 10
-28.731
 20
31.7495
 30
0.0
 10
-28.731
 20
31.7495
 30
0.0
 10
-28.731
 20
31.7495
 30
0.0
 10
-31.1212
 20
31.7495
 30
0.0
 10
-33.0455
 20
29.8252
 30
0.0
 10
-33.0455
 20
27.435
 30
0.0
 10
-33.0455
 20
27.435
 30
0.0
 10
-33.0455
 20
27.435
 30
0.0
 10
-33.0455
 20
21.3752
 30
0.0
 10
-33.0455
 20
21.3752
 30
0.0
 10
-33.0455
 20
21.3752
 30
0.0
 10
-33.0455
 20
21.3752
 30
0.0
 10
-26.9377
 20
21.3272
 30
0.0
 10
-26.9377
 20
21.3272
 30
0.0
 10
-26.9377
 20
21.3272
 30
0.0
 10
-24.5475
 20
21.3272
 30
0.0
 10
-22.6232
 20
23.2515
 30
0.0
 10
-22.6232
 20
25.6417
 30
0.0
 10
-22.6232
 20
25.6417
 30
0.0
 10
-22.6232
 20
25.6417
 30
0.0
 10
-22.6472
 20
31.7495
 30
0.0
 10
-22.6472
 20
31.7495
 30
0.0
  0
SPLINE
  5
84
330
1F
100
AcDbEntity
  8
layer 1
 62
     7
100
AcDbSpline
210
0.0
220
0.0
230
1.0
 70
    11
 71
     3
 72
    28
 73
    24
 74
     0
 42
0.0000000001
 43
0.0000000001
 12
1.0
 22
0.0
 32
0.0
 13
1.0
 23
0.0
 33
0.0
 40
0.0
 40
0.0
 40
0.0
 40
0.0
 40
0.1428571428571428
 40
0.1428571428571428
 40
0.1428571428571428
 40
0.1428571428571428
 40
0.2857142857142857
 40
0.2857142857142857
 40
0.2857142857142857
 40
0.2857142857142857
 40
0.4285714285714285
 40
0.4285714285714285
 40
0.4285714285714285
 40
0.4285714285714285
 40
0.5714285714285714
 40
0.5714285714285714
 40
0.5714285714285714
 40
0.5714285714285714
 40
0.7142857142857143
 40
0.7142857142857143
 40
0.7142857142857143
 40
0.7142857142857143
 40
1.0
 40
1.0
 40
1.0
 40
1.0
 10
-45.1259
 20
9.3906
 30
0.0
 10
-45.1259
 20
9.3906
 30
0.0
 10
-39.0421
 20
9.3906
 30
0.0
 10
-39.0421
 20
9.3906
 30
0.0
 10
-39.0421
 20
9.3906
 30
0.0
 10
-36.6519
 20
9.3906
 30
0.0
 10
-34.7276
 20
11.3148
 30
0.0
 10
-34.7276
 20
13.7051
 30
0.0
 10
-34.7276
 20
13.7051
 30
0.0
 10
-34.7276
 20
13.7051
 30
0.0
 10
-34.7276
 20
19.7648
 30
0.0
 10
-34.7276
 20
19.7648
 30
0.0
 10
-34.7276
 20
19.7648
 30
0.0
 10
-34.7276
 20
19.7648
 30
0.0
 10
-40.8354
 20
19.8128
 30
0.0
 10
-40.8354
 20
19.8128
 30
0.0
 10
-40.8354
 20
19.8128
 30
0.0
 10
-43.2256
 20
19.8128
 30
0.0
 10
-45.1499
 20
17.8886
 30
0.0
 10
-45.1499
 20
15.4983
 30
0.0
 10
-45.1499
 20
15.4983
 30
0.0
 10
-45.1499
 20
15.4983
 30
0.0
 10
-45.1259
 20
9.3906
 30
0.0
 10
-45.1259
 20
9.3906
 30
0.0
  0
SPLINE
  5
85
330
1F
100
AcDbEntity
  8
layer 1
 62
     7
100
AcDbSpline
210
0.0
220
0.0
230
1.0
 70
    11
 71
     3
 72
    28
 73
    24
 74
     0
 42
0.0000000001
 43
0.0000000001
 12
1.0
 22
0.0
 32
0.0
 13
1.0
 23
0.0
 33
0.0
 40
0.0
 40
0.0
 40
0.0
 40
0.0
 40
0.1428571428571428
 40
0.1428571428571428
 40
0.1428571428571428
 40
0.1428571428571428
 40
0.2857142857142857
 40
0.2857142857142857
 40
0.2857142857142857
 40
0.2857142857142857
 40
0.4285714285714285
 40
0.4285714285714285
 40
0.4285714285714285
 40
0.4285714285714285
 40
0.5714285714285714
 40
0.5714285714285714
 40
0.5714285714285714
 40
0.5714285714285714
 40
0.7142857142857143
 40
0.7142857142857143
 40
0.7142857142857143
 40
0.7142857142857143
 40
1.0
 40
1.0
 40
1.0
 40
1.0
 10
-22.6472
 20
9.3906
 30
0.0
 10
-22.6472
 20
9.3906
 30
0.0
 10
-28.731
 20
9.3906
 30
0.0
 10
-28.731
 20
9.3906
 30
0.0
 10
-28.731
 20
9.3906
 30
0.0
 10
-31.1212
 20
9.3906
 30
0.0
 10
-33.0455
 20
11.3148
 30
0.0
 10
-33.0455
 20
13.7051
 30
0.0
 10
-33.0455
 20
13.7051
 30
0.0
 10
-33.0455
 20
13.7051
 30
0.0
 10
-33.0455
 20
19.7648
 30
0.0
 10
-33.0455
 20
19.7648
 30
0.0
 10
-33.0455
 20
19.7648
 30
0.0
 10
-33.0455
 20
19.7648
 30
0.0
 10
-26.9377
 20
19.8128
 30
0.0
 10
-26.9377
 20
19.8128
 30
0.0
 10
-26.9377
 20
19.8128
 30
0.0
 10
-24.5475
 20
19.8128
 30
0.0
 10
-22.6232
 20
17.8886
 30
0.0
 10
-22.6232
 20
15.4983
 30
0.0
 10
-22.6232
 20
15.4983
 30
0.0
 10
-22.6232
 20
15.4983
 30
0.0
 10
-22.6472
 20
9.3906
 30
0.0
 10
-22.6472
 20
9.3906
 30
0.0
  0
SPLINE
  5
86
330
1F
100
AcDbEntity
  8
layer 1
 62
     7
100
AcDbSpline
210
0.0
220
0.0
230
1.0
 70
    11
 71
     3
 72
    28
 73
    24
 74
     0
 42
0.0000000001
 43
0.0000000001
 12
1.0
 22
0.0
 32
0.0
 13
1.0
 23
0.0
 33
0.0
 40
0.0
 40
0.0
 40
0.0
 40
0.0
 40
0.1428571428571428
 40
0.1428571428571428
 40
0.1428571428571428
 40
0.1428571428571428
 40
0.2857142857142857
 40
0.2857142857142857
 40
0.2857142857142857
 40
0.2857142857142857
 40
0.4285714285714285
 40
0.4285714285714285
 40
0.4285714285714285
 40
0.4285714285714285
 40
0.5714285714285714
 40
0.5714285714285714
 40
0.5714285714285714
 40
0.5714285714285714
 40
0.7142857142857143
 40
0.7142857142857143
 40
0.7142857142857143
 40
0.7142857142857143
 40
1.0
 40
1.0
 40
1.0
 40
1.0
 10
-20.9908
 20
31.7495
 30
0.0
 10
-20.9908
 20
31.7495
 30
0.0
 10
-14.9071
 20
31.7495
 30
0.0
 10
-14.9071
 20
31.7495
 30
0.0
 10
-14.9071
 20
31.7495
 30
0.0
 10
-12.5168
 20
31.7495
 30
0.0
 10
-10.5926
 20
29.8252
 30
0.0
 10
-10.5926
 20
27.435
 30
0.0
 10
-10.5926
 20
27.435
 30
0.0
 10
-10.5926
 20
27.435
 30
0.0
 10
-10.5926
 20
21.3752
 30
0.0
 10
-10.5926
 20
21.3752
 30
0.0
 10
-10.5926
 20
21.3752
 30
0.0
 10
-10.5926
 20
21.3752
 30
0.0
 10
-16.7003
 20
21.3272
 30
0.0
 10
-16.7003
 20
21.3272
 30
0.0
 10
-16.7003
 20
21.3272
 30
0.0
 10
-19.0905
 20
21.3272
 30
0.0
 10
-21.0148
 20
23.2515
 30
0.0
 10
-21.0148
 20
25.6417
 30
0.0
 10
-21.0148
 20
25.6417
 30
0.0
 10
-21.0148
 20
25.6417
 30
0.0
 10
-20.9908
 20
31.7495
 30
0.0
 10
-20.9908
 20
31.7495
 30
0.0
  0
SPLINE
  5
87
330
1F
100
AcDbEntity
  8
layer 1
 62
     7
100
AcDbSpline
210
0.0
220
0.0
230
1.0
 70
    11
 71
     3
 72
    28
 73
    24
 74
     0
 42
0.0000000001
 43
0.0000000001
 12
1.0
 22
0.0
 32
0.0
 13
1.0
 23
0.0
 33
0.0
 40
0.0
 40
0.0
 40
0.0
 40
0.0
 40
0.1428571428571428
 40
0.1428571428571428
 40
0.1428571428571428
 40
0.1428571428571428
 40
0.2857142857142857
 40
0.2857142857142857
 40
0.2857142857142857
 40
0.2857142857142857
 40
0.4285714285714285
 40
0.4285714285714285
 40
0.4285714285714285
 40
0.4285714285714285
 40
0.5714285714285714
 40
0.5714285714285714
 40
0.5714285714285714
 40
0.5714285714285714
 40
0.7142857142857143
 40
0.7142857142857143
 40
0.7142857142857143
 40
0.7142857142857143
 40
1.0
 40
1.0
 40
1.0
 40
1.0
 10
1.4879
 20
31.7495
 30
0.0
 10
1.4879
 20
31.7495
 30
0.0
 10
-4.5959
 20
31.7495
 30
0.0
 10
-4.5959
 20
31.7495
 30
0.0
 10
-4.5959
 20
31.7495
 30
0.0
 10
-6.9861
 20
31.7495
 30
0.0
 10
-8.9104
 20
29.8252
 30
0.0
 10
-8.9104
 20
27.435
 30
0.0
 10
-8.9104
 20
27.435
 30
0.0
 10
-8.9104
 20
27.435
 30
0.0
 10
-8.9104
 20
21.3752
 30
0.0
 10
-8.9104
 20
21.3752
 30
0.0
 10
-8.9104
 20
21.3752
 30
0.0
 10
-8.9104
 20
21.3752
 30
0.0
 10
-2.8026
 20
21.3272
 30
0.0
 10
-2.8026
 20
21.3272
 30
0.0
 10
-2.8026
 20
21.3272
 30
0.0
 10
-0.4124
 20
21.3272
 30
0.0
 10
1.5118
 20
23.2515
 30
0.0
 10
1.5118
 20
25.6417
 30
0.0
 10
1.5118
 20
25.6417
 30
0.0
 10
1.5118
 20
25.6417
 30
0.0
 10
1.4879
 20
31.7495
 30
0.0
 10
1.4879
 20
31.7495
 30
0.0
  0
SPLINE
  5
88
330
1F
100
AcDbEntity
  8
layer 1
 62
     7
100
AcDbSpline
210
0.0
220
0.0
230
1.0
 70
    11
 71
     3
 72
    28
 73
    24
 74
     0
 42
0.0000000001
 43
0.0000000001
 12
1.0
 22
0.0
 32
0.0
 13
1.0
 23
0.0
 33
0.0
 40
0.0
 40
0.0
 40
0.0
 40
0.0
 40
0.1428571428571428
 40
0.1428571428571428
 40
0.1428571428571428
 40
0.1428571428571428
 40
0.2857142857142857
 40
0.2857142857142857
 40
0.2857142857142857
 40
0.2857142857142857
 40
0.4285714285714285
 40
0.4285714285714285
 40
0.4285714285714285
 40
0.4285714285714285
 40
0.5714285714285714
 40
0.5714285714285714
 40
0.5714285714285714
 40
0.5714285714285714
 40
0.7142857142857143
 40
0.7142857142857143
 40
0.7142857142857143
 40
0.7142857142857143
 40
1.0
 40
1.0
 40
1.0
 40
1.0
 10
-20.9908
 20
9.3906
 30
0.0
 10
-20.9908
 20
9.3906
 30
0.0
 10
-14.9071
 20
9.3906
 30
0.0
 10
-14.9071
 20
9.3906
 30
0.0
 10
-14.9071
 20
9.3906
 30
0.0
 10
-12.5168
 20
9.3906
 30
0.0
 10
-10.5926
 20
11.3148
 30
0.0
 10
-10.5926
 20
13.7051
 30
0.0
 10
-10.5926
 20
13.7051
 30
0.0
 10
-10.5926
 20
13.7051
 30
0.0
 10
-10.5926
 20
19.7648
 30
0.0
 10
-10.5926
 20
19.7648
 30
0.0
 10
-10.5926
 20
19.7648
 30
0.0
 10
-10.5926
 20
19.7648
 30
0.0
 10
-16.7003
 20
19.8128
 30
0.0
 10
-16.7003
 20
19.8128
 30
0.0
 10
-16.7003
 20
19.8128
 30
0.0
 10
-19.0905
 20
19.8128
 30
0.0
 10
-21.0148
 20
17.8886
 30
0.0
 10
-21.0148
 20
15.4983
 30
0.0
 10
-21.0148
 20
15.4983
 30
0.0
 10
-21.0148
 20
15.4983
 30
0.0
 10
-20.9908
 20
9.3906
 30
0.0
 10
-20.9908
 20
9.3906
 30
0.0
  0
SPLINE
  5
89
330
1F
100
AcDbEntity
  8
layer 1
 62
     7
100
AcDbSpline
210
0.0
220
0.0
230
1.0
 70
    11
 71
     3
 72
    28
 73
    24
 74
     0
 42
0.0000000001
 43
0.0000000001
 12
1.0
 22
0.0
 32
0.0
 13
1.0
 23
0.0
 33
0.0
 40
0.0
 40
0.0
 40
0.0
 40
0.0
 40
0.1428571428571428
 40
0.1428571428571428
 40
0.1428571428571428
 40
0.1428571428571428
 40
0.2857142857142857
 40
0.2857142857142857
 40
0.2857142857142857
 40
0.2857142857142857
 40
0.4285714285714285
 40
0.4285714285714285
 40
0.4285714285714285
 40
0.4285714285714285
 40
0.5714285714285714
 40
0.5714285714285714
 40
0.5714285714285714
 40
0.5714285714285714
 40
0.7142857142857143
 40
0.7142857142857143
 40
0.7142857142857143
 40
0.7142857142857143
 40
1.0
 40
1.0
 40
1.0
 40
1.0
 10
1.4879
 20
9.3906
 30
0.0
 10
1.4879
 20
9.3906
 30
0.0
 10
-4.5959
 20
9.3906
 30
0.0
 10
-4.5959
 20
9.3906
 30
0.0
 10
-4.5959
 20
9.3906
 30
0.0
 10
-6.9861
 20
9.3906
 30
0.0
 10
-8.9104
 20
11.3148
 30
0.0
 10
-8.9104
 20
13.7051
 30
0.0
 10
-8.9104
 20
13.7051
 30
0.0
 10
-8.9104
 20
13.7051
 30
0.0
 10
-8.9104
 20
19.7648
 30
0.0
 10
-8.9104
 20
19.7648
 30
0.0
 10
-8.9104
 20
19.7648
 30
0.0
 10
-8.9104
 20
19.7648
 30
0.0
 10
-2.8026
 20
19.8128
 30
0.0
 10
-2.8026
 20
19.8128
 30
0.0
 10
-2.8026
 20
19.8128
 30
0.0
 10
-0.4124
 20
19.8128
 30
0.0
 10
1.5118
 20
17.8886
 30
0.0
 10
1.5118
 20
15.4983
 30
0.0
 10
1.5118
 20
15.4983
 30
0.0
 10
1.5118
 20
15.4983
 30
0.0
 10
1.4879
 20
9.3906
 30
0.0
 10
1.4879
 20
9.3906
 30
0.0
  0
SPLINE
  5
8A
330
1F
100
AcDbEntity
  8
layer 1
 62
     7
100
AcDbSpline
210
0.0
220
0.0
230
1.0
 70
    11
 71
     3
 72
    28
 73
    24
 74
     0
 42
0.0000000001
 43
0.0000000001
 12
1.0
 22
0.0
 32
0.0
 13
1.0
 23
0.0
 33
0.0
 40
0.0
 40
0.0
 40
0.0
 40
0.0
 40
0.1428571428571428
 40
0.1428571428571428
 40
0.1428571428571428
 40
0.1428571428571428
 40
0.2857142857142857
 40
0.2857142857142857
 40
0.2857142857142857
 40
0.2857142857142857
 40
0.4285714285714285
 40
0.4285714285714285
 40
0.4285714285714285
 40
0.4285714285714285
 40
0.5714285714285714
 40
0.5714285714285714
 40
0.5714285714285714
 40
0.5714285714285714
 40
0.7142857142857143
 40
0.7142857142857143
 40
0.7142857142857143
 40
0.7142857142857143
 40
1.0
 40
1.0
 40
1.0
 40
1.0
 10
3.0425
 20
31.7495
 30
0.0
 10
3.0425
 20
31.7495
 30
0.0
 10
9.1263
 20
31.7495
 30
0.0
 10
9.1263
 20
31.7495
 30
0.0
 10
9.1263
 20
31.7495
 30
0.0
 10
11.5165
 20
31.7495
 30
0.0
 10
13.4408
 20
29.8252
 30
0.0
 10
13.4408
 20
27.435
 30
0.0
 10
13.4408
 20
27.435
 30
0.0
 10
13.4408
 20
27.435
 30
0.0
 10
13.4408
 20
21.3752
 30
0.0
 10
13.4408
 20
21.3752
 30
0.0
 10
13.4408
 20
21.3752
 30
0.0
 10
13.4408
 20
21.3752
 30
0.0
 10
7.333
 20
21.3272
 30
0.0
 10
7.333
 20
21.3272
 30
0.0
 10
7.333
 20
21.3272
 30
0.0
 10
4.9428
 20
21.3272
 30
0.0
 10
3.0185
 20
23.2515
 30
0.0
 10
3.0185
 20
25.6417
 30
0.0
 10
3.0185
 20
25.6417
 30
0.0
 10
3.0185
 20
25.6417
 30
0.0
 10
3.0425
 20
31.7495
 30
0.0
 10
3.0425
 20
31.7495
 30
0.0
  0
SPLINE
  5
8B
330
1F
100
AcDbEntity
  8
layer 1
 62
     7
100
AcDbSpline
210
0.0
220
0.0
230
1.0
 70
    11
 71
     3
 72
    28
 73
    24
 74
     0
 42
0.0000000001
 43
0.0000000001
 12
1.0
 22
0.0
 32
0.0
 13
1.0
 23
0.0
 33
0.0
 40
0.0
 40
0.0
 40
0.0
 40
0.0
 40
0.1428571428571428
 40
0.1428571428571428
 40
0.1428571428571428
 40
0.1428571428571428
 40
0.2857142857142857
 40
0.2857142857142857
 40
0.2857142857142857
 40
0.2857142857142857
 40
0.4285714285714285
 40
0.4285714285714285
 40
0.4285714285714285
 40
0.4285714285714285
 40
0.5714285714285714
 40
0.5714285714285714
 40
0.5714285714285714
 40
0.5714285714285714
 40
0.7142857142857143
 40
0.7142857142857143
 40
0.7142857142857143
 40
0.7142857142857143
 40
1.0
 40
1.0
 40
1.0
 40
1.0
 10
25.5212
 20
31.7495
 30
0.0
 10
25.5212
 20
31.7495
 30
0.0
 10
19.4375
 20
31.7495
 30
0.0
 10
19.4375
 20
31.7495
 30
0.0
 10
19.4375
 20
31.7495
 30
0.0
 10
17.0472
 20
31.7495
 30
0.0
 10
15.123
 20
29.8252
 30
0.0
 10
15.123
 20
27.435
 30
0.0
 10
15.123
 20
27.435
 30
0.0
 10
15.123
 20
27.435
 30
0.0
 10
15.123
 20
21.3752
 30
0.0
 10
15.123
 20
21.3752
 30
0.0
 10
15.123
 20
21.3752
 30
0.0
 10
15.123
 20
21.3752
 30
0.0
 10
21.2307
 20
21.3272
 30
0.0
 10
21.2307
 20
21.3272
 30
0.0
 10
21.2307
 20
21.3272
 30
0.0
 10
23.6209
 20
21.3272
 30
0.0
 10
25.5452
 20
23.2515
 30
0.0
 10
25.5452
 20
25.6417
 30
0.0
 10
25.5452
 20
25.6417
 30
0.0
 10
25.5452
 20
25.6417
 30
0.0
 10
25.5212
 20
31.7495
 30
0.0
 10
25.5212
 20
31.7495
 30
0.0
  0
SPLINE
  5
8C
330
1F
100
AcDbEntity
  8
layer 1
 62
     7
100
AcDbSpline
210
0.0
220
0.0
230
1.0
 70
    11
 71
     3
 72
    28
 73
    24
 74
     0
 42
0.0000000001
 43
0.0000000001
 12
1.0
 22
0.0
 32
0.0
 13
1.0
 23
0.0
 33
0.0
 40
0.0
 40
0.0
 40
0.0
 40
0.0
 40
0.1428571428571428
 40
0.1428571428571428
 40
0.1428571428571428
 40
0.1428571428571428
 40
0.2857142857142857
 40
0.2857142857142857
 40
0.2857142857142857
 40
0.2857142857142857
 40
0.4285714285714285
 40
0.4285714285714285
 40
0.4285714285714285
 40
0.4285714285714285
 40
0.5714285714285714
 40
0.5714285714285714
 40
0.5714285714285714
 40
0.5714285714285714
 40
0.7142857142857143
 40
0.7142857142857143
 40
0.7142857142857143
 40
0.7142857142857143
 40
1.0
 40
1.0
 40
1.0
 40
1.0
 10
3.0425
 20
9.3906
 30
0.0
 10
3.0425
 20
9.3906
 30
0.0
 10
9.1263
 20
9.3906
 30
0.0
 10
9.1263
 20
9.3906
 30
0.0
 10
9.1263
 20
9.3906
 30
0.0
 10
11.5165
 20
9.3906
 30
0.0
 10
13.4408
 20
11.3148
 30
0.0
 10
13.4408
 20
13.7051
 30
0.0
 10
13.4408
 20
13.7051
 30
0.0
 10
13.4408
 20
13.7051
 30
0.0
 10
13.4408
 20
19.7648
 30
0.0
 10
13.4408
 20
19.7648
 30
0.0
 10
13.4408
 20
19.7648
 30
0.0
 10
13.4408
 20
19.7648
 30
0.0
 10
7.333
 20
19.8128
 30
0.0
 10
7.333
 20
19.8128
 30
0.0
 10
7.333
 20
19.8128
 30
0.0
 10
4.9428
 20
19.8128
 30
0.0
 10
3.0185
 20
17.8886
 30
0.0
 10
3.0185
 20
15.4983
 30
0.0
 10
3.0185
 20
15.4983
 30
0.0
 10
3.0185
 20
15.4983
 30
0.0
 10
3.0425
 20
9.3906
 30
0.0
 10
3.0425
 20
9.3906
 30
0.0
  0
SPLINE
  5
8D
330
1F
100
AcDbEntity
  8
layer 1
 62
     7
100
AcDbSpline
210
0.0
220
0.0
230
1.0
 70
    11
 71
     3
 72
    28
 73
    24
 74
     0
 42
0.0000000001
 43
0.0000000001
 12
1.0
 22
0.0
 32
0.0
 13
1.0
 23
0.0
 33
0.0
 40
0.0
 40
0.0
 40
0.0
 40
0.0
 40
0.1428571428571428
 40
0.1428571428571428
 40
0.1428571428571428
 40
0.1428571428571428
 40
0.2857142857142857
 40
0.2857142857142857
 40
0.2857142857142857
 40
0.2857142857142857
 40
0.4285714285714285
 40
0.4285714285714285
 40
0.4285714285714285
 40
0.4285714285714285
 40
0.5714285714285714
 40
0.5714285714285714
 40
0.5714285714285714
 40
0.5714285714285714
 40
0.7142857142857143
 40
0.7142857142857143
 40
0.7142857142857143
 40
0.7142857142857143
 40
1.0
 40
1.0
 40
1.0
 40
1.0
 10
25.5212
 20
9.3906
 30
0.0
 10
25.5212
 20
9.3906
 30
0.0
 10
19.4375
 20
9.3906
 30
0.0
 10
19.4375
 20
9.3906
 30
0.0
 10
19.4375
 20
9.3906
 30
0.0
 10
17.0472
 20
9.3906
 30
0.0
 10
15.123
 20
11.3148
 30
0.0
 10
15.123
 20
13.7051
 30
0.0
 10
15.123
 20
13.7051
 30
0.0
 10
15.123
 20
13.7051
 30
0.0
 10
15.123
 20
19.7648
 30
0.0
 10
15.123
 20
19.7648
 30
0.0
 10
15.123
 20
19.7648
 30
0.0
 10
15.123
 20
19.7648
 30
0.0
 10
21.2307
 20
19.8128
 30
0.0
 10
21.2307
 20
19.8128
 30
0.0
 10
21.2307
 20
19.8128
 30
0.0
 10
23.6209
 20
19.8128
 30
0.0
 10
25.5452
 20
17.8886
 30
0.0
 10
25.5452
 20
15.4983
 30
0.0
 10
25.5452
 20
15.4983
 30
0.0
 10
25.5452
 20
15.4983
 30
0.0
 10
25.5212
 20
9.3906
 30
0.0
 10
25.5212
 20
9.3906
 30
0.0
  0
SPLINE
  5
8E
330
1F
100
AcDbEntity
  8
layer 1
 62
     7
100
AcDbSpline
210
0.0
220
0.0
230
1.0
 70
    11
 71
     3
 72
    28
 73
    24
 74
     0
 42
0.0000000001
 43
0.0000000001
 12
1.0
 22
0.0
 32
0.0
 13
1.0
 23
0.0
 33
0.0
 40
0.0
 40
0.0
 40
0.0
 40
0.0
 40
0.1428571428571428
 40
0.1428571428571428
 40
0.1428571428571428
 40
0.1428571428571428
 40
0.2857142857142857
 40
0.2857142857142857
 40
0.2857142857142857
 40
0.2857142857142857
 40
0.4285714285714285
 40
0.4285714285714285
 40
0.4285714285714285
 40
0.4285714285714285
 40
0.5714285714285714
 40
0.5714285714285714
 40
0.5714285714285714
 40
0.5714285714285714
 40
0.7142857142857143
 40
0.7142857142857143
 40
0.7142857142857143
 40
0.7142857142857143
 40
1.0
 40
1.0
 40
1.0
 40
1.0
 10
26.9065
 20
31.7495
 30
0.0
 10
26.9065
 20
31.7495
 30
0.0
 10
32.9902
 20
31.7495
 30
0.0
 10
32.9902
 20
31.7495
 30
0.0
 10
32.9902
 20
31.7495
 30
0.0
 10
35.3805
 20
31.7495
 30
0.0
 10
37.3047
 20
29.8252
 30
0.0
 10
37.3047
 20
27.435
 30
0.0
 10
37.3047
 20
27.435
 30
0.0
 10
37.3047
 20
27.435
 30
0.0
 10
37.3047
 20
21.3752
 30
0.0
 10
37.3047
 20
21.3752
 30
0.0
 10
37.3047
 20
21.3752
 30
0.0
 10
37.3047
 20
21.3752
 30
0.0
 10
31.197
 20
21.3272
 30
0.0
 10
31.197
 20
21.3272
 30
0.0
 10
31.197
 20
21.3272
 30
0.0
 10
28.8067
 20
21.3272
 30
0.0
 10
26.8825
 20
23.2515
 30
0.0
 10
26.8825
 20
25.6417
 30
0.0
 10
26.8825
 20
25.6417
 30
0.0
 10
26.8825
 20
25.6417
 30
0.0
 10
26.9065
 20
31.7495
 30
0.0
 10
26.9065
 20
31.7495
 30
0.0
  0
SPLINE
  5
8F
330
1F
100
AcDbEntity
  8
layer 1
 62
     7
100
AcDbSpline
210
0.0
220
0.0
230
1.0
 70
    11
 71
     3
 72
    28
 73
    24
 74
     0
 42
0.0000000001
 43
0.0000000001
 12
1.0
 22
0.0
 32
0.0
 13
1.0
 23
0.0
 33
0.0
 40
0.0
 40
0.0
 40
0.0
 40
0.0
 40
0.1428571428571428
 40
0.1428571428571428
 40
0.1428571428571428
 40
0.1428571428571428
 40
0.2857142857142857
 40
0.2857142857142857
 40
0.2857142857142857
 40
0.2857142857142857
 40
0.4285714285714285
 40
0.4285714285714285
 40
0.4285714285714285
 40
0.4285714285714285
 40
0.5714285714285714
 40
0.5714285714285714
 40
0.5714285714285714
 40
0.5714285714285714
 40
0.7142857142857143
 40
0.7142857142857143
 40
0.7142857142857143
 40
0.7142857142857143
 40
1.0
 40
1.0
 40
1.0
 40
1.0
 10
49.3852
 20
31.7495
 30
0.0
 10
49.3852
 20
31.7495
 30
0.0
 10
43.3014
 20
31.7495
 30
0.0
 10
43.3014
 20
31.7495
 30
0.0
 10
43.3014
 20
31.7495
 30
0.0
 10
40.9112
 20
31.7495
 30
0.0
 10
38.9869
 20
29.8252
 30
0.0
 10
38.9869
 20
27.435
 30
0.0
 10
38.9869
 20
27.435
 30
0.0
 10
38.9869
 20
27.435
 30
0.0
 10
38.9869
 20
21.3752
 30
0.0
 10
38.9869
 20
21.3752
 30
0.0
 10
38.9869
 20
21.3752
 30
0.0
 10
38.9869
 20
21.3752
 30
0.0
 10
45.0947
 20
21.3272
 30
0.0
 10
45.0947
 20
21.3272
 30
0.0
 10
45.0947
 20
21.3272
 30
0.0
 10
47.4849
 20
21.3272
 30
0.0
 10
49.4091
 20
23.2515
 30
0.0
 10
49.4091
 20
25.6417
 30
0.0
 10
49.4091
 20
25.6417
 30
0.0
 10
49.4091
 20
25.6417
 30
0.0
 10
49.3852
 20
31.7495
 30
0.0
 10
49.3852
 20
31.7495
 30
0.0
  0
SPLINE
  5
90
330
1F
100
AcDbEntity
  8
layer 1
 62
     7
100
AcDbSpline
210
0.0
220
0.0
230
1.0
 70
    11
 71
     3
 72
    28
 73
    24
 74
     0
 42
0.0000000001
 43
0.0000000001
 12
1.0
 22
0.0
 32
0.0
 13
1.0
 23
0.0
 33
0.0
 40
0.0
 40
0.0
 40
0.0
 40
0.0
 40
0.1428571428571428
 40
0.1428571428571428
 40
0.1428571428571428
 40
0.1428571428571428
 40
0.2857142857142857
 40
0.2857142857142857
 40
0.2857142857142857
 40
0.2857142857142857
 40
0.4285714285714285
 40
0.4285714285714285
 40
0.4285714285714285
 40
0.4285714285714285
 40
0.5714285714285714
 40
0.5714285714285714
 40
0.5714285714285714
 40
0.5714285714285714
 40
0.7142857142857143
 40
0.7142857142857143
 40
0.7142857142857143
 40
0.7142857142857143
 40
1.0
 40
1.0
 40
1.0
 40
1.0
 10
26.9065
 20
9.3906
 30
0.0
 10
26.9065
 20
9.3906
 30
0.0
 10
32.9902
 20
9.3906
 30
0.0
 10
32.9902
 20
9.3906
 30
0.0
 10
32.9902
 20
9.3906
 30
0.0
 10
35.3805
 20
9.3906
 30
0.0
 10
37.3047
 20
11.3148
 30
0.0
 10
37.3047
 20
13.7051
 30
0.0
 10
37.3047
 20
13.7051
 30
0.0
 10
37.3047
 20
13.7051
 30
0.0
 10
37.3047
 20
19.7648
 30
0.0
 10
37.3047
 20
19.7648
 30
0.0
 10
37.3047
 20
19.7648
 30
0.0
 10
37.3047
 20
19.7648
 30
0.0
 10
31.197
 20
19.8128
 30
0.0
 10
31.197
 20
19.8128
 30
0.0
 10
31.197
 20
19.8128
 30
0.0
 10
28.8067
 20
19.8128
 30
0.0
 10
26.8825
 20
17.8886
 30
0.0
 10
26.8825
 20
15.4983
 30
0.0
 10
26.8825
 20
15.4983
 30
0.0
 10
26.8825
 20
15.4983
 30
0.0
 10
26.9065
 20
9.3906
 30
0.0
 10
26.9065
 20
9.3906
 30
0.0
  0
SPLINE
  5
91
330
1F
100
AcDbEntity
  8
layer 1
 62
     7
100
AcDbSpline
210
0.0
220
0.0
230
1.0
 70
    11
 71
     3
 72
    28
 73
    24
 74
     0
 42
0.0000000001
 43
0.0000000001
 12
1.0
 22
0.0
 32
0.0
 13
1.0
 23
0.0
 33
0.0
 40
0.0
 40
0.0
 40
0.0
 40
0.0
 40
0.1428571428571428
 40
0.1428571428571428
 40
0.1428571428571428
 40
0.1428571428571428
 40
0.2857142857142857
 40
0.2857142857142857
 40
0.2857142857142857
 40
0.2857142857142857
 40
0.4285714285714285
 40
0.4285714285714285
 40
0.4285714285714285
 40
0.4285714285714285
 40
0.5714285714285714
 40
0.5714285714285714
 40
0.5714285714285714
 40
0.5714285714285714
 40
0.7142857142857143
 40
0.7142857142857143
 40
0.7142857142857143
 40
0.7142857142857143
 40
1.0
 40
1.0
 40
1.0
 40
1.0
 10
49.3852
 20
9.3906
 30
0.0
 10
49.3852
 20
9.3906
 30
0.0
 10
43.3014
 20
9.3906
 30
0.0
 10
43.3014
 20
9.3906
 30
0.0
 10
43.3014
 20
9.3906
 30
0.0
 10
40.9112
 20
9.3906
 30
0.0
 10
38.9869
 20
11.3148
 30
0.0
 10
38.9869
 20
13.7051
 30
0.0
 10
38.9869
 20
13.7051
 30
0.0
 10
38.9869
 20
13.7051
 30
0.0
 10
38.9869
 20
19.7648
 30
0.0
 10
38.9869
 20
19.7648
 30
0.0
 10
38.9869
 20
19.7648
 30
0.0
 10
38.9869
 20
19.7648
 30
0.0
 10
45.0947
 20
19.8128
 30
0.0
 10
45.0947
 20
19.8128
 30
0.0
 10
45.0947
 20
19.8128
 30
0.0
 10
47.4849
 20
19.8128
 30
0.0
 10
49.4091
 20
17.8886
 30
0.0
 10
49.4091
 20
15.4983
 30
0.0
 10
49.4091
 20
15.4983
 30
0.0
 10
49.4091
 20
15.4983
 30
0.0
 10
49.3852
 20
9.3906
 30
0.0
 10
49.3852
 20
9.3906
 30
0.0
  0
SPLINE
  5
92
330
1F
100
AcDbEntity
  8
layer 1
 62
     7
100
AcDbSpline
210
0.0
220
0.0
230
1.0
 70
    11
 71
     3
 72
    28
 73
    24
 74
     0
 42
0.0000000001
 43
0.0000000001
 12
1.0
 22
0.0
 32
0.0
 13
1.0
 23
0.0
 33
0.0
 40
0.0
 40
0.0
 40
0.0
 40
0.0
 40
0.1428571428571428
 40
0.1428571428571428
 40
0.1428571428571428
 40
0.1428571428571428
 40
0.2857142857142857
 40
0.2857142857142857
 40
0.2857142857142857
 40
0.2857142857142857
 40
0.4285714285714285
 40
0.4285714285714285
 40
0.4285714285714285
 40
0.4285714285714285
 40
0.5714285714285714
 40
0.5714285714285714
 40
0.5714285714285714
 40
0.5714285714285714
 40
0.7142857142857143
 40
0.7142857142857143
 40
0.7142857142857143
 40
0.7142857142857143
 40
1.0
 40
1.0
 40
1.0
 40
1.0
 10
-45.1259
 20
7.6578
 30
0.0
 10
-45.1259
 20
7.6578
 30
0.0
 10
-39.0421
 20
7.6578
 30
0.0
 10
-39.0421
 20
7.6578
 30
0.0
 10
-39.0421
 20
7.6578
 30
0.0
 10
-36.6519
 20
7.6578
 30
0.0
 10
-34.7276
 20
5.7336
 30
0.0
 10
-34.7276
 20
3.3433
 30
0.0
 10
-34.7276
 20
3.3433
 30
0.0
 10
-34.7276
 20
3.3433
 30
0.0
 10
-34.7276
 20
-2.7164
 30
0.0
 10
-34.7276
 20
-2.7164
 30
0.0
 10
-34.7276
 20
-2.7164
 30
0.0
 10
-34.7276
 20
-2.7164
 30
0.0
 10
-40.8354
 20
-2.7644
 30
0.0
 10
-40.8354
 20
-2.7644
 30
0.0
 10
-40.8354
 20
-2.7644
 30
0.0
 10
-43.2256
 20
-2.7644
 30
0.0
 10
-45.1499
 20
-0.8402
 30
0.0
 10
-45.1499
 20
1.5501
 30
0.0
 10
-45.1499
 20
1.5501
 30
0.0
 10
-45.1499
 20
1.5501
 30
0.0
 10
-45.1259
 20
7.6578
 30
0.0
 10
-45.1259
 20
7.6578
 30
0.0
  0
SPLINE
  5
93
330
1F
100
AcDbEntity
  8
layer 1
 62
     7
100
AcDbSpline
210
0.0
220
0.0
230
1.0
 70
    11
 71
     3
 72
    28
 73
    24
 74
     0
 42
0.0000000001
 43
0.0000000001
 12
1.0
 22
0.0
 32
0.0
 13
1.0
 23
0.0
 33
0.0
 40
0.0
 40
0.0
 40
0.0
 40
0.0
 40
0.1428571428571428
 40
0.1428571428571428
 40
0.1428571428571428
 40
0.1428571428571428
 40
0.2857142857142857
 40
0.2857142857142857
 40
0.2857142857142857
 40
0.2857142857142857
 40
0.4285714285714285
 40
0.4285714285714285
 40
0.4285714285714285
 40
0.4285714285714285
 40
0.5714285714285714
 40
0.5714285714285714
 40
0.5714285714285714
 40
0.5714285714285714
 40
0.7142857142857143
 40
0.7142857142857143
 40
0.7142857142857143
 40
0.7142857142857143
 40
1.0
 40
1.0
 40
1.0
 40
1.0
 10
-22.6472
 20
7.6578
 30
0.0
 10
-22.6472
 20
7.6578
 30
0.0
 10
-28.731
 20
7.6578
 30
0.0
 10
-28.731
 20
7.6578
 30
0.0
 10
-28.731
 20
7.6578
 30
0.0
 10
-31.1212
 20
7.6578
 30
0.0
 10
-33.0455
 20
5.7336
 30
0.0
 10
-33.0455
 20
3.3433
 30
0.0
 10
-33.0455
 20
3.3433
 30
0.0
 10
-33.0455
 20
3.3433
 30
0.0
 10
-33.0455
 20
-2.7164
 30
0.0
 10
-33.0455
 20
-2.7164
 30
0.0
 10
-33.0455
 20
-2.7164
 30
0.0
 10
-33.0455
 20
-2.7164
 30
0.0
 10
-26.9377
 20
-2.7644
 30
0.0
 10
-26.9377
 20
-2.7644
 30
0.0
 10
-26.9377
 20
-2.7644
 30
0.0
 10
-24.5475
 20
-2.7644
 30
0.0
 10
-22.6232
 20
-0.8402
 30
0.0
 10
-22.6232
 20
1.5501
 30
0.0
 10
-22.6232
 20
1.5501
 30
0.0
 10
-22.6232
 20
1.5501
 30
0.0
 10
-22.6472
 20
7.6578
 30
0.0
 10
-22.6472
 20
7.6578
 30
0.0
  0
SPLINE
  5
94
330
1F
100
AcDbEntity
  8
layer 1
 62
     7
100
AcDbSpline
210
0.0
220
0.0
230
1.0
 70
    11
 71
     3
 72
    28
 73
    24
 74
     0
 42
0.0000000001
 43
0.0000000001
 12
1.0
 22
0.0
 32
0.0
 13
1.0
 23
0.0
 33
0.0
 40
0.0
 40
0.0
 40
0.0
 40
0.0
 40
0.1428571428571428
 40
0.1428571428571428
 40
0.1428571428571428
 40
0.1428571428571428
 40
0.2857142857142857
 40
0.2857142857142857
 40
0.2857142857142857
 40
0.2857142857142857
 40
0.4285714285714285
 40
0.4285714285714285
 40
0.4285714285714285
 40
0.4285714285714285
 40
0.5714285714285714
 40
0.5714285714285714
 40
0.5714285714285714
 40
0.5714285714285714
 40
0.7142857142857143
 40
0.7142857142857143
 40
0.7142857142857143
 40
0.7142857142857143
 40
1.0
 40
1.0
 40
1.0
 40
1.0
 10
-45.1259
 20
-14.701
 30
0.0
 10
-45.1259
 20
-14.701
 30
0.0
 10
-39.0421
 20
-14.701
 30
0.0
 10
-39.0421
 20
-14.701
 30
0.0
 10
-39.0421
 20
-14.701
 30
0.0
 10
-36.6519
 20
-14.701
 30
0.0
 10
-34.7276
 20
-12.7768
 30
0.0
 10
-34.7276
 20
-10.3865
 30
0.0
 10
-34.7276
 20
-10.3865
 30
0.0
 10
-34.7276
 20
-10.3865
 30
0.0
 10
-34.7276
 20
-4.3268
 30
0.0
 10
-34.7276
 20
-4.3268
 30
0.0
 10
-34.7276
 20
-4.3268
 30
0.0
 10
-34.7276
 20
-4.3268
 30
0.0
 10
-40.8354
 20
-4.2788
 30
0.0
 10
-40.8354
 20
-4.2788
 30
0.0
 10
-40.8354
 20
-4.2788
 30
0.0
 10
-43.2256
 20
-4.2788
 30
0.0
 10
-45.1499
 20
-6.2031
 30
0.0
 10
-45.1499
 20
-8.5933
 30
0.0
 10
-45.1499
 20
-8.5933
 30
0.0
 10
-45.1499
 20
-8.5933
 30
0.0
 10
-45.1259
 20
-14.701
 30
0.0
 10
-45.1259
 20
-14.701
 30
0.0
  0
SPLINE
  5
95
330
1F
100
AcDbEntity
  8
layer 1
 62
     7
100
AcDbSpline
210
0.0
220
0.0
230
1.0
 70
    11
 71
     3
 72
    28
 73
    24
 74
     0
 42
0.0000000001
 43
0.0000000001
 12
1.0
 22
0.0
 32
0.0
 13
1.0
 23
0.0
 33
0.0
 40
0.0
 40
0.0
 40
0.0
 40
0.0
 40
0.1428571428571428
 40
0.1428571428571428
 40
0.1428571428571428
 40
0.1428571428571428
 40
0.2857142857142857
 40
0.2857142857142857
 40
0.2857142857142857
 40
0.2857142857142857
 40
0.4285714285714285
 40
0.4285714285714285
 40
0.4285714285714285
 40
0.4285714285714285
 40
0.5714285714285714
 40
0.5714285714285714
 40
0.5714285714285714
 40
0.5714285714285714
 40
0.7142857142857143
 40
0.7142857142857143
 40
0.7142857142857143
 40
0.7142857142857143
 40
1.0
 40
1.0
 40
1.0
 40
1.0
 10
-22.6472
 20
-14.701
 30
0.0
 10
-22.6472
 20
-14.701
 30
0.0
 10
-28.731
 20
-14.701
 30
0.0
 10
-28.731
 20
-14.701
 30
0.0
 10
-28.731
 20
-14.701
 30
0.0
 10
-31.1212
 20
-14.701
 30
0.0
 10
-33.0455
 20
-12.7768
 30
0.0
 10
-33.0455
 20
-10.3865
 30
0.0
 10
-33.0455
 20
-10.3865
 30
0.0
 10
-33.0455
 20
-10.3865
 30
0.0
 10
-33.0455
 20
-4.3268
 30
0.0
 10
-33.0455
 20
-4.3268
 30
0.0
 10
-33.0455
 20
-4.3268
 30
0.0
 10
-33.0455
 20
-4.3268
 30
0.0
 10
-26.9377
 20
-4.2788
 30
0.0
 10
-26.9377
 20
-4.2788
 30
0.0
 10
-26.9377
 20
-4.2788
 30
0.0
 10
-24.5475
 20
-4.2788
 30
0.0
 10
-22.6232
 20
-6.2031
 30
0.0
 10
-22.6232
 20
-8.5933
 30
0.0
 10
-22.6232
 20
-8.5933
 30
0.0
 10
-22.6232
 20
-8.5933
 30
0.0
 10
-22.6472
 20
-14.701
 30
0.0
 10
-22.6472
 20
-14.701
 30
0.0
  0
SPLINE
  5
96
330
1F
100
AcDbEntity
  8
layer 1
 62
     7
100
AcDbSpline
210
0.0
220
0.0
230
1.0
 70
    11
 71
     3
 72
    28
 73
    24
 74
     0
 42
0.0000000001
 43
0.0000000001
 12
1.0
 22
0.0
 32
0.0
 13
1.0
 23
0.0
 33
0.0
 40
0.0
 40
0.0
 40
0.0
 40
0.0
 40
0.1428571428571428
 40
0.1428571428571428
 40
0.1428571428571428
 40
0.1428571428571428
 40
0.2857142857142857
 40
0.2857142857142857
 40
0.2857142857142857
 40
0.2857142857142857
 40
0.4285714285714285
 40
0.4285714285714285
 40
0.4285714285714285
 40
0.4285714285714285
 40
0.5714285714285714
 40
0.5714285714285714
 40
0.5714285714285714
 40
0.5714285714285714
 40
0.7142857142857143
 40
0.7142857142857143
 40
0.7142857142857143
 40
0.7142857142857143
 40
1.0
 40
1.0
 40
1.0
 40
1.0
 10
-20.9908
 20
7.6578
 30
0.0
 10
-20.9908
 20
7.6578
 30
0.0
 10
-14.9071
 20
7.6578
 30
0.0
 10
-14.9071
 20
7.6578
 30
0.0
 10
-14.9071
 20
7.6578
 30
0.0
 10
-12.5168
 20
7.6578
 30
0.0
 10
-10.5926
 20
5.7336
 30
0.0
 10
-10.5926
 20
3.3433
 30
0.0
 10
-10.5926
 20
3.3433
 30
0.0
 10
-10.5926
 20
3.3433
 30
0.0
 10
-10.5926
 20
-2.7164
 30
0.0
 10
-10.5926
 20
-2.7164
 30
0.0
 10
-10.5926
 20
-2.7164
 30
0.0
 10
-10.5926
 20
-2.7164
 30
0.0
 10
-16.7003
 20
-2.7644
 30
0.0
 10
-16.7003
 20
-2.7644
 30
0.0
 10
-16.7003
 20
-2.7644
 30
0.0
 10
-19.0905
 20
-2.7644
 30
0.0
 10
-21.0148
 20
-0.8402
 30
0.0
 10
-21.0148
 20
1.5501
 30
0.0
 10
-21.0148
 20
1.5501
 30
0.0
 10
-21.0148
 20
1.5501
 30
0.0
 10
-20.9908
 20
7.6578
 30
0.0
 10
-20.9908
 20
7.6578
 30
0.0
  0
SPLINE
  5
97
330
1F
100
AcDbEntity
  8
layer 1
 62
     7
100
AcDbSpline
210
0.0
220
0.0
230
1.0
 70
    11
 71
     3
 72
    28
 73
    24
 74
     0
 42
0.0000000001
 43
0.0000000001
 12
1.0
 22
0.0
 32
0.0
 13
1.0
 23
0.0
 33
0.0
 40
0.0
 40
0.0
 40
0.0
 40
0.0
 40
0.1428571428571428
 40
0.1428571428571428
 40
0.1428571428571428
 40
0.1428571428571428
 40
0.2857142857142857
 40
0.2857142857142857
 40
0.2857142857142857
 40
0.2857142857142857
 40
0.4285714285714285
 40
0.4285714285714285
 40
0.4285714285714285
 40
0.4285714285714285
 40
0.5714285714285714
 40
0.5714285714285714
 40
0.5714285714285714
 40
0.5714285714285714
 40
0.7142857142857143
 40
0.7142857142857143
 40
0.7142857142857143
 40
0.7142857142857143
 40
1.0
 40
1.0
 40
1.0
 40
1.0
 10
1.4879
 20
7.6578
 30
0.0
 10
1.4879
 20
7.6578
 30
0.0
 10
-4.5959
 20
7.6578
 30
0.0
 10
-4.5959
 20
7.6578
 30
0.0
 10
-4.5959
 20
7.6578
 30
0.0
 10
-6.9861
 20
7.6578
 30
0.0
 10
-8.9104
 20
5.7336
 30
0.0
 10
-8.9104
 20
3.3433
 30
0.0
 10
-8.9104
 20
3.3433
 30
0.0
 10
-8.9104
 20
3.3433
 30
0.0
 10
-8.9104
 20
-2.7164
 30
0.0
 10
-8.9104
 20
-2.7164
 30
0.0
 10
-8.9104
 20
-2.7164
 30
0.0
 10
-8.9104
 20
-2.7164
 30
0.0
 10
-2.8026
 20
-2.7644
 30
0.0
 10
-2.8026
 20
-2.7644
 30
0.0
 10
-2.8026
 20
-2.7644
 30
0.0
 10
-0.4124
 20
-2.7644
 30
0.0
 10
1.5118
 20
-0.8402
 30
0.0
 10
1.5118
 20
1.5501
 30
0.0
 10
1.5118
 20
1.5501
 30
0.0
 10
1.5118
 20
1.5501
 30
0.0
 10
1.4879
 20
7.6578
 30
0.0
 10
1.4879
 20
7.6578
 30
0.0
  0
SPLINE
  5
98
330
1F
100
AcDbEntity
  8
layer 1
 62
     7
100
AcDbSpline
210
0.0
220
0.0
230
1.0
 70
    11
 71
     3
 72
    28
 73
    24
 74
     0
 42
0.0000000001
 43
0.0000000001
 12
1.0
 22
0.0
 32
0.0
 13
1.0
 23
0.0
 33
0.0
 40
0.0
 40
0.0
 40
0.0
 40
0.0
 40
0.1428571428571428
 40
0.1428571428571428
 40
0.1428571428571428
 40
0.1428571428571428
 40
0.2857142857142857
 40
0.2857142857142857
 40
0.2857142857142857
 40
0.2857142857142857
 40
0.4285714285714285
 40
0.4285714285714285
 40
0.4285714285714285
 40
0.4285714285714285
 40
0.5714285714285714
 40
0.5714285714285714
 40
0.5714285714285714
 40
0.5714285714285714
 40
0.7142857142857143
 40
0.7142857142857143
 40
0.7142857142857143
 40
0.7142857142857143
 40
1.0
 40
1.0
 40
1.0
 40
1.0
 10
-20.9908
 20
-14.701
 30
0.0
 10
-20.9908
 20
-14.701
 30
0.0
 10
-14.9071
 20
-14.701
 30
0.0
 10
-14.9071
 20
-14.701
 30
0.0
 10
-14.9071
 20
-14.701
 30
0.0
 10
-12.5168
 20
-14.701
 30
0.0
 10
-10.5926
 20
-12.7768
 30
0.0
 10
-10.5926
 20
-10.3865
 30
0.0
 10
-10.5926
 20
-10.3865
 30
0.0
 10
-10.5926
 20
-10.3865
 30
0.0
 10
-10.5926
 20
-4.3268
 30
0.0
 10
-10.5926
 20
-4.3268
 30
0.0
 10
-10.5926
 20
-4.3268
 30
0.0
 10
-10.5926
 20
-4.3268
 30
0.0
 10
-16.7003
 20
-4.2788
 30
0.0
 10
-16.7003
 20
-4.2788
 30
0.0
 10
-16.7003
 20
-4.2788
 30
0.0
 10
-19.0905
 20
-4.2788
 30
0.0
 10
-21.0148
 20
-6.2031
 30
0.0
 10
-21.0148
 20
-8.5933
 30
0.0
 10
-21.0148
 20
-8.5933
 30
0.0
 10
-21.0148
 20
-8.5933
 30
0.0
 10
-20.9908
 20
-14.701
 30
0.0
 10
-20.9908
 20
-14.701
 30
0.0
  0
SPLINE
  5
99
330
1F
100
AcDbEntity
  8
layer 1
 62
     7
100
AcDbSpline
210
0.0
220
0.0
230
1.0
 70
    11
 71
     3
 72
    28
 73
    24
 74
     0
 42
0.0000000001
 43
0.0000000001
 12
1.0
 22
0.0
 32
0.0
 13
1.0
 23
0.0
 33
0.0
 40
0.0
 40
0.0
 40
0.0
 40
0.0
 40
0.1428571428571428
 40
0.1428571428571428
 40
0.1428571428571428
 40
0.1428571428571428
 40
0.2857142857142857
 40
0.2857142857142857
 40
0.2857142857142857
 40
0.2857142857142857
 40
0.4285714285714285
 40
0.4285714285714285
 40
0.4285714285714285
 40
0.4285714285714285
 40
0.5714285714285714
 40
0.5714285714285714
 40
0.5714285714285714
 40
0.5714285714285714
 40
0.7142857142857143
 40
0.7142857142857143
 40
0.7142857142857143
 40
0.7142857142857143
 40
1.0
 40
1.0
 40
1.0
 40
1.0
 10
1.4879
 20
-14.701
 30
0.0
 10
1.4879
 20
-14.701
 30
0.0
 10
-4.5959
 20
-14.701
 30
0.0
 10
-4.5959
 20
-14.701
 30
0.0
 10
-4.5959
 20
-14.701
 30
0.0
 10
-6.9861
 20
-14.701
 30
0.0
 10
-8.9104
 20
-12.7768
 30
0.0
 10
-8.9104
 20
-10.3865
 30
0.0
 10
-8.9104
 20
-10.3865
 30
0.0
 10
-8.9104
 20
-10.3865
 30
0.0
 10
-8.9104
 20
-4.3268
 30
0.0
 10
-8.9104
 20
-4.3268
 30
0.0
 10
-8.9104
 20
-4.3268
 30
0.0
 10
-8.9104
 20
-4.3268
 30
0.0
 10
-2.8026
 20
-4.2788
 30
0.0
 10
-2.8026
 20
-4.2788
 30
0.0
 10
-2.8026
 20
-4.2788
 30
0.0
 10
-0.4124
 20
-4.2788
 30
0.0
 10
1.5118
 20
-6.2031
 30
0.0
 10
1.5118
 20
-8.5933
 30
0.0
 10
1.5118
 20
-8.5933
 30
0.0
 10
1.5118
 20
-8.5933
 30
0.0
 10
1.4879
 20
-14.701
 30
0.0
 10
1.4879
 20
-14.701
 30
0.0
  0
SPLINE
  5
9A
330
1F
100
AcDbEntity
  8
layer 1
 62
     7
100
AcDbSpline
210
0.0
220
0.0
230
1.0
 70
    11
 71
     3
 72
    28
 73
    24
 74
     0
 42
0.0000000001
 43
0.0000000001
 12
1.0
 22
0.0
 32
0.0
 13
1.0
 23
0.0
 33
0.0
 40
0.0
 40
0.0
 40
0.0
 40
0.0
 40
0.1428571428571428
 40
0.1428571428571428
 40
0.1428571428571428
 40
0.1428571428571428
 40
0.2857142857142857
 40
0.2857142857142857
 40
0.2857142857142857
 40
0.2857142857142857
 40
0.4285714285714285
 40
0.4285714285714285
 40
0.4285714285714285
 40
0.4285714285714285
 40
0.5714285714285714
 40
0.5714285714285714
 40
0.5714285714285714
 40
0.5714285714285714
 40
0.7142857142857143
 40
0.7142857142857143
 40
0.7142857142857143
 40
0.7142857142857143
 40
1.0
 40
1.0
 40
1.0
 40
1.0
 10
3.0425
 20
7.6578
 30
0.0
 10
3.0425
 20
7.6578
 30
0.0
 10
9.1263
 20
7.6578
 30
0.0
 10
9.1263
 20
7.6578
 30
0.0
 10
9.1263
 20
7.6578
 30
0.0
 10
11.5165
 20
7.6578
 30
0.0
 10
13.4408
 20
5.7336
 30
0.0
 10
13.4408
 20
3.3433
 30
0.0
 10
13.4408
 20
3.3433
 30
0.0
 10
13.4408
 20
3.3433
 30
0.0
 10
13.4408
 20
-2.7164
 30
0.0
 10
13.4408
 20
-2.7164
 30
0.0
 10
13.4408
 20
-2.7164
 30
0.0
 10
13.4408
 20
-2.7164
 30
0.0
 10
7.333
 20
-2.7644
 30
0.0
 10
7.333
 20
-2.7644
 30
0.0
 10
7.333
 20
-2.7644
 30
0.0
 10
4.9428
 20
-2.7644
 30
0.0
 10
3.0185
 20
-0.8402
 30
0.0
 10
3.0185
 20
1.5501
 30
0.0
 10
3.0185
 20
1.5501
 30
0.0
 10
3.0185
 20
1.5501
 30
0.0
 10
3.0425
 20
7.6578
 30
0.0
 10
3.0425
 20
7.6578
 30
0.0
  0
SPLINE
  5
9B
330
1F
100
AcDbEntity
  8
layer 1
 62
     7
100
AcDbSpline
210
0.0
220
0.0
230
1.0
 70
    11
 71
     3
 72
    28
 73
    24
 74
     0
 42
0.0000000001
 43
0.0000000001
 12
1.0
 22
0.0
 32
0.0
 13
1.0
 23
0.0
 33
0.0
 40
0.0
 40
0.0
 40
0.0
 40
0.0
 40
0.1428571428571428
 40
0.1428571428571428
 40
0.1428571428571428
 40
0.1428571428571428
 40
0.2857142857142857
 40
0.2857142857142857
 40
0.2857142857142857
 40
0.2857142857142857
 40
0.4285714285714285
 40
0.4285714285714285
 40
0.4285714285714285
 40
0.4285714285714285
 40
0.5714285714285714
 40
0.5714285714285714
 40
0.5714285714285714
 40
0.5714285714285714
 40
0.7142857142857143
 40
0.7142857142857143
 40
0.7142857142857143
 40
0.7142857142857143
 40
1.0
 40
1.0
 40
1.0
 40
1.0
 10
25.5212
 20
7.6578
 30
0.0
 10
25.5212
 20
7.6578
 30
0.0
 10
19.4375
 20
7.6578
 30
0.0
 10
19.4375
 20
7.6578
 30
0.0
 10
19.4375
 20
7.6578
 30
0.0
 10
17.0472
 20
7.6578
 30
0.0
 10
15.123
 20
5.7336
 30
0.0
 10
15.123
 20
3.3433
 30
0.0
 10
15.123
 20
3.3433
 30
0.0
 10
15.123
 20
3.3433
 30
0.0
 10
15.123
 20
-2.7164
 30
0.0
 10
15.123
 20
-2.7164
 30
0.0
 10
15.123
 20
-2.7164
 30
0.0
 10
15.123
 20
-2.7164
 30
0.0
 10
21.2307
 20
-2.7644
 30
0.0
 10
21.2307
 20
-2.7644
 30
0.0
 10
21.2307
 20
-2.7644
 30
0.0
 10
23.6209
 20
-2.7644
 30
0.0
 10
25.5452
 20
-0.8402
 30
0.0
 10
25.5452
 20
1.5501
 30
0.0
 10
25.5452
 20
1.5501
 30
0.0
 10
25.5452
 20
1.5501
 30
0.0
 10
25.5212
 20
7.6578
 30
0.0
 10
25.5212
 20
7.6578
 30
0.0
  0
SPLINE
  5
9C
330
1F
100
AcDbEntity
  8
layer 1
 62
     7
100
AcDbSpline
210
0.0
220
0.0
230
1.0
 70
    11
 71
     3
 72
    28
 73
    24
 74
     0
 42
0.0000000001
 43
0.0000000001
 12
1.0
 22
0.0
 32
0.0
 13
1.0
 23
0.0
 33
0.0
 40
0.0
 40
0.0
 40
0.0
 40
0.0
 40
0.1428571428571428
 40
0.1428571428571428
 40
0.1428571428571428
 40
0.1428571428571428
 40
0.2857142857142857
 40
0.2857142857142857
 40
0.2857142857142857
 40
0.2857142857142857
 40
0.4285714285714285
 40
0.4285714285714285
 40
0.4285714285714285
 40
0.4285714285714285
 40
0.5714285714285714
 40
0.5714285714285714
 40
0.5714285714285714
 40
0.5714285714285714
 40
0.7142857142857143
 40
0.7142857142857143
 40
0.7142857142857143
 40
0.7142857142857143
 40
1.0
 40
1.0
 40
1.0
 40
1.0
 10
3.0425
 20
-14.701
 30
0.0
 10
3.0425
 20
-14.701
 30
0.0
 10
9.1263
 20
-14.701
 30
0.0
 10
9.1263
 20
-14.701
 30
0.0
 10
9.1263
 20
-14.701
 30
0.0
 10
11.5165
 20
-14.701
 30
0.0
 10
13.4408
 20
-12.7768
 30
0.0
 10
13.4408
 20
-10.3865
 30
0.0
 10
13.4408
 20
-10.3865
 30
0.0
 10
13.4408
 20
-10.3865
 30
0.0
 10
13.4408
 20
-4.3268
 30
0.0
 10
13.4408
 20
-4.3268
 30
0.0
 10
13.4408
 20
-4.3268
 30
0.0
 10
13.4408
 20
-4.3268
 30
0.0
 10
7.333
 20
-4.2788
 30
0.0
 10
7.333
 20
-4.2788
 30
0.0
 10
7.333
 20
-4.2788
 30
0.0
 10
4.9428
 20
-4.2788
 30
0.0
 10
3.0185
 20
-6.2031
 30
0.0
 10
3.0185
 20
-8.5933
 30
0.0
 10
3.0185
 20
-8.5933
 30
0.0
 10
3.0185
 20
-8.5933
 30
0.0
 10
3.0425
 20
-14.701
 30
0.0
 10
3.0425
 20
-14.701
 30
0.0
  0
SPLINE
  5
9D
330
1F
100
AcDbEntity
  8
layer 1
 62
     7
100
AcDbSpline
210
0.0
220
0.0
230
1.0
 70
    11
 71
     3
 72
    28
 73
    24
 74
     0
 42
0.0000000001
 43
0.0000000001
 12
1.0
 22
0.0
 32
0.0
 13
1.0
 23
0.0
 33
0.0
 40
0.0
 40
0.0
 40
0.0
 40
0.0
 40
0.1428571428571428
 40
0.1428571428571428
 40
0.1428571428571428
 40
0.1428571428571428
 40
0.2857142857142857
 40
0.2857142857142857
 40
0.2857142857142857
 40
0.2857142857142857
 40
0.4285714285714285
 40
0.4285714285714285
 40
0.4285714285714285
 40
0.4285714285714285
 40
0.5714285714285714
 40
0.5714285714285714
 40
0.5714285714285714
 40
0.5714285714285714
 40
0.7142857142857143
 40
0.7142857142857143
 40
0.7142857142857143
 40
0.7142857142857143
 40
1.0
 40
1.0
 40
1.0
 40
1.0
 10
25.5212
 20
-14.701
 30
0.0
 10
25.5212
 20
-14.701
 30
0.0
 10
19.4375
 20
-14.701
 30
0.0
 10
19.4375
 20
-14.701
 30
0.0
 10
19.4375
 20
-14.701
 30
0.0
 10
17.0472
 20
-14.701
 30
0.0
 10
15.123
 20
-12.7768
 30
0.0
 10
15.123
 20
-10.3865
 30
0.0
 10
15.123
 20
-10.3865
 30
0.0
 10
15.123
 20
-10.3865
 30
0.0
 10
15.123
 20
-4.3268
 30
0.0
 10
15.123
 20
-4.3268
 30
0.0
 10
15.123
 20
-4.3268
 30
0.0
 10
15.123
 20
-4.3268
 30
0.0
 10
21.2307
 20
-4.2788
 30
0.0
 10
21.2307
 20
-4.2788
 30
0.0
 10
21.2307
 20
-4.2788
 30
0.0
 10
23.6209
 20
-4.2788
 30
0.0
 10
25.5452
 20
-6.2031
 30
0.0
 10
25.5452
 20
-8.5933
 30
0.0
 10
25.5452
 20
-8.5933
 30
0.0
 10
25.5452
 20
-8.5933
 30
0.0
 10
25.5212
 20
-14.701
 30
0.0
 10
25.5212
 20
-14.701
 30
0.0
  0
SPLINE
  5
9E
330
1F
100
AcDbEntity
  8
layer 1
 62
     7
100
AcDbSpline
210
0.0
220
0.0
230
1.0
 70
    11
 71
     3
 72
    28
 73
    24
 74
     0
 42
0.0000000001
 43
0.0000000001
 12
1.0
 22
0.0
 32
0.0
 13
1.0
 23
0.0
 33
0.0
 40
0.0
 40
0.0
 40
0.0
 40
0.0
 40
0.1428571428571428
 40
0.1428571428571428
 40
0.1428571428571428
 40
0.1428571428571428
 40
0.2857142857142857
 40
0.2857142857142857
 40
0.2857142857142857
 40
0.2857142857142857
 40
0.4285714285714285
 40
0.4285714285714285
 40
0.4285714285714285
 40
0.4285714285714285
 40
0.5714285714285714
 40
0.5714285714285714
 40
0.5714285714285714
 40
0.5714285714285714
 40
0.7142857142857143
 40
0.7142857142857143
 40
0.7142857142857143
 40
0.7142857142857143
 40
1.0
 40
1.0
 40
1.0
 40
1.0
 10
26.9065
 20
7.6578
 30
0.0
 10
26.9065
 20
7.6578
 30
0.0
 10
32.9902
 20
7.6578
 30
0.0
 10
32.9902
 20
7.6578
 30
0.0
 10
32.9902
 20
7.6578
 30
0.0
 10
35.3805
 20
7.6578
 30
0.0
 10
37.3047
 20
5.7336
 30
0.0
 10
37.3047
 20
3.3433
 30
0.0
 10
37.3047
 20
3.3433
 30
0.0
 10
37.3047
 20
3.3433
 30
0.0
 10
37.3047
 20
-2.7164
 30
0.0
 10
37.3047
 20
-2.7164
 30
0.0
 10
37.3047
 20
-2.7164
 30
0.0
 10
37.3047
 20
-2.7164
 30
0.0
 10
31.197
 20
-2.7644
 30
0.0
 10
31.197
 20
-2.7644
 30
0.0
 10
31.197
 20
-2.7644
 30
0.0
 10
28.8067
 20
-2.7644
 30
0.0
 10
26.8825
 20
-0.8402
 30
0.0
 10
26.8825
 20
1.5501
 30
0.0
 10
26.8825
 20
1.5501
 30
0.0
 10
26.8825
 20
1.5501
 30
0.0
 10
26.9065
 20
7.6578
 30
0.0
 10
26.9065
 20
7.6578
 30
0.0
  0
SPLINE
  5
9F
330
1F
100
AcDbEntity
  8
layer 1
 62
     7
100
AcDbSpline
210
0.0
220
0.0
230
1.0
 70
    11
 71
     3
 72
    28
 73
    24
 74
     0
 42
0.0000000001
 43
0.0000000001
 12
1.0
 22
0.0
 32
0.0
 13
1.0
 23
0.0
 33
0.0
 40
0.0
 40
0.0
 40
0.0
 40
0.0
 40
0.1428571428571428
 40
0.1428571428571428
 40
0.1428571428571428
 40
0.1428571428571428
 40
0.2857142857142857
 40
0.2857142857142857
 40
0.2857142857142857
 40
0.2857142857142857
 40
0.4285714285714285
 40
0.4285714285714285
 40
0.4285714285714285
 40
0.4285714285714285
 40
0.5714285714285714
 40
0.5714285714285714
 40
0.5714285714285714
 40
0.5714285714285714
 40
0.7142857142857143
 40
0.7142857142857143
 40
0.7142857142857143
 40
0.7142857142857143
 40
1.0
 40
1.0
 40
1.0
 40
1.0
 10
49.3852
 20
7.6578
 30
0.0
 10
49.3852
 20
7.6578
 30
0.0
 10
43.3014
 20
7.6578
 30
0.0
 10
43.3014
 20
7.6578
 30
0.0
 10
43.3014
 20
7.6578
 30
0.0
 10
40.9112
 20
7.6578
 30
0.0
 10
38.9869
 20
5.7336
 30
0.0
 10
38.9869
 20
3.3433
 30
0.0
 10
38.9869
 20
3.3433
 30
0.0
 10
38.9869
 20
3.3433
 30
0.0
 10
38.9869
 20
-2.7164
 30
0.0
 10
38.9869
 20
-2.7164
 30
0.0
 10
38.9869
 20
-2.7164
 30
0.0
 10
38.9869
 20
-2.7164
 30
0.0
 10
45.0947
 20
-2.7644
 30
0.0
 10
45.0947
 20
-2.7644
 30
0.0
 10
45.0947
 20
-2.7644
 30
0.0
 10
47.4849
 20
-2.7644
 30
0.0
 10
49.4091
 20
-0.8402
 30
0.0
 10
49.4091
 20
1.5501
 30
0.0
 10
49.4091
 20
1.5501
 30
0.0
 10
49.4091
 20
1.5501
 30
0.0
 10
49.3852
 20
7.6578
 30
0.0
 10
49.3852
 20
7.6578
 30
0.0
  0
SPLINE
  5
A0
330
1F
100
AcDbEntity
  8
layer 1
 62
     7
100
AcDbSpline
210
0.0
220
0.0
230
1.0
 70
    11
 71
     3
 72
    28
 73
    24
 74
     0
 42
0.0000000001
 43
0.0000000001
 12
1.0
 22
0.0
 32
0.0
 13
1.0
 23
0.0
 33
0.0
 40
0.0
 40
0.0
 40
0.0
 40
0.0
 40
0.1428571428571428
 40
0.1428571428571428
 40
0.1428571428571428
 40
0.1428571428571428
 40
0.2857142857142857
 40
0.2857142857142857
 40
0.2857142857142857
 40
0.2857142857142857
 40
0.4285714285714285
 40
0.4285714285714285
 40
0.4285714285714285
 40
0.4285714285714285
 40
0.5714285714285714
 40
0.5714285714285714
 40
0.5714285714285714
 40
0.5714285714285714
 40
0.7142857142857143
 40
0.7142857142857143
 40
0.7142857142857143
 40
0.7142857142857143
 40
1.0
 40
1.0
 40
1.0
 40
1.0
 10
26.9065
 20
-14.701
 30
0.0
 10
26.9065
 20
-14.701
 30
0.0
 10
32.9902
 20
-14.701
 30
0.0
 10
32.9902
 20
-14.701
 30
0.0
 10
32.9902
 20
-14.701
 30
0.0
 10
35.3805
 20
-14.701
 30
0.0
 10
37.3047
 20
-12.7768
 30
0.0
 10
37.3047
 20
-10.3865
 30
0.0
 10
37.3047
 20
-10.3865
 30
0.0
 10
37.3047
 20
-10.3865
 30
0.0
 10
37.3047
 20
-4.3268
 30
0.0
 10
37.3047
 20
-4.3268
 30
0.0
 10
37.3047
 20
-4.3268
 30
0.0
 10
37.3047
 20
-4.3268
 30
0.0
 10
31.197
 20
-4.2788
 30
0.0
 10
31.197
 20
-4.2788
 30
0.0
 10
31.197
 20
-4.2788
 30
0.0
 10
28.8067
 20
-4.2788
 30
0.0
 10
26.8825
 20
-6.2031
 30
0.0
 10
26.8825
 20
-8.5933
 30
0.0
 10
26.8825
 20
-8.5933
 30
0.0
 10
26.8825
 20
-8.5933
 30
0.0
 10
26.9065
 20
-14.701
 30
0.0
 10
26.9065
 20
-14.701
 30
0.0
  0
SPLINE
  5
A1
330
1F
100
AcDbEntity
  8
layer 1
 62
     7
100
AcDbSpline
210
0.0
220
0.0
230
1.0
 70
    11
 71
     3
 72
    28
 73
    24
 74
     0
 42
0.0000000001
 43
0.0000000001
 12
1.0
 22
0.0
 32
0.0
 13
1.0
 23
0.0
 33
0.0
 40
0.0
 40
0.0
 40
0.0
 40
0.0
 40
0.1428571428571428
 40
0.1428571428571428
 40
0.1428571428571428
 40
0.1428571428571428
 40
0.2857142857142857
 40
0.2857142857142857
 40
0.2857142857142857
 40
0.2857142857142857
 40
0.4285714285714285
 40
0.4285714285714285
 40
0.4285714285714285
 40
0.4285714285714285
 40
0.5714285714285714
 40
0.5714285714285714
 40
0.5714285714285714
 40
0.5714285714285714
 40
0.7142857142857143
 40
0.7142857142857143
 40
0.7142857142857143
 40
0.7142857142857143
 40
1.0
 40
1.0
 40
1.0
 40
1.0
 10
49.3852
 20
-14.701
 30
0.0
 10
49.3852
 20
-14.701
 30
0.0
 10
43.3014
 20
-14.701
 30
0.0
 10
43.3014
 20
-14.701
 30
0.0
 10
43.3014
 20
-14.701
 30
0.0
 10
40.9112
 20
-14.701
 30
0.0
 10
38.9869
 20
-12.7768
 30
0.0
 10
38.9869
 20
-10.3865
 30
0.0
 10
38.9869
 20
-10.3865
 30
0.0
 10
38.9869
 20
-10.3865
 30
0.0
 10
38.9869
 20
-4.3268
 30
0.0
 10
38.9869
 20
-4.3268
 30
0.0
 10
38.9869
 20
-4.3268
 30
0.0
 10
38.9869
 20
-4.3268
 30
0.0
 10
45.0947
 20
-4.2788
 30
0.0
 10
45.0947
 20
-4.2788
 30
0.0
 10
45.0947
 20
-4.2788
 30
0.0
 10
47.4849
 20
-4.2788
 30
0.0
 10
49.4091
 20
-6.2031
 30
0.0
 10
49.4091
 20
-8.5933
 30
0.0
 10
49.4091
 20
-8.5933
 30
0.0
 10
49.4091
 20
-8.5933
 30
0.0
 10
49.3852
 20
-14.701
 30
0.0
 10
49.3852
 20
-14.701
 30
0.0
  0
SPLINE
  5
A2
330
1F
100
AcDbEntity
  8
layer 1
 62
     7
100
AcDbSpline
210
0.0
220
0.0
230
1.0
 70
    11
 71
     3
 72
    28
 73
    24
 74
     0
 42
0.0000000001
 43
0.0000000001
 12
1.0
 22
0.0
 32
0.0
 13
1.0
 23
0.0
 33
0.0
 40
0.0
 40
0.0
 40
0.0
 40
0.0
 40
0.1428571428571428
 40
0.1428571428571428
 40
0.1428571428571428
 40
0.1428571428571428
 40
0.2857142857142857
 40
0.2857142857142857
 40
0.2857142857142857
 40
0.2857142857142857
 40
0.4285714285714285
 40
0.4285714285714285
 40
0.4285714285714285
 40
0.4285714285714285
 40
0.5714285714285714
 40
0.5714285714285714
 40
0.5714285714285714
 40
0.5714285714285714
 40
0.7142857142857143
 40
0.7142857142857143
 40
0.7142857142857143
 40
0.7142857142857143
 40
1.0
 40
1.0
 40
1.0
 40
1.0
 10
-45.1259
 20
-16.465
 30
0.0
 10
-45.1259
 20
-16.465
 30
0.0
 10
-39.0421
 20
-16.465
 30
0.0
 10
-39.0421
 20
-16.465
 30
0.0
 10
-39.0421
 20
-16.465
 30
0.0
 10
-36.6519
 20
-16.465
 30
0.0
 10
-34.7276
 20
-18.3893
 30
0.0
 10
-34.7276
 20
-20.7795
 30
0.0
 10
-34.7276
 20
-20.7795
 30
0.0
 10
-34.7276
 20
-20.7795
 30
0.0
 10
-34.7276
 20
-26.8393
 30
0.0
 10
-34.7276
 20
-26.8393
 30
0.0
 10
-34.7276
 20
-26.8393
 30
0.0
 10
-34.7276
 20
-26.8393
 30
0.0
 10
-40.8354
 20
-26.8872
 30
0.0
 10
-40.8354
 20
-26.8872
 30
0.0
 10
-40.8354
 20
-26.8872
 30
0.0
 10
-43.2256
 20
-26.8872
 30
0.0
 10
-45.1499
 20
-24.963
 30
0.0
 10
-45.1499
 20
-22.5727
 30
0.0
 10
-45.1499
 20
-22.5727
 30
0.0
 10
-45.1499
 20
-22.5727
 30
0.0
 10
-45.1259
 20
-16.465
 30
0.0
 10
-45.1259
 20
-16.465
 30
0.0
  0
SPLINE
  5
A3
330
1F
100
AcDbEntity
  8
layer 1
 62
     7
100
AcDbSpline
210
0.0
220
0.0
230
1.0
 70
    11
 71
     3
 72
    28
 73
    24
 74
     0
 42
0.0000000001
 43
0.0000000001
 12
1.0
 22
0.0
 32
0.0
 13
1.0
 23
0.0
 33
0.0
 40
0.0
 40
0.0
 40
0.0
 40
0.0
 40
0.1428571428571428
 40
0.1428571428571428
 40
0.1428571428571428
 40
0.1428571428571428
 40
0.2857142857142857
 40
0.2857142857142857
 40
0.2857142857142857
 40
0.2857142857142857
 40
0.4285714285714285
 40
0.4285714285714285
 40
0.4285714285714285
 40
0.4285714285714285
 40
0.5714285714285714
 40
0.5714285714285714
 40
0.5714285714285714
 40
0.5714285714285714
 40
0.7142857142857143
 40
0.7142857142857143
 40
0.7142857142857143
 40
0.7142857142857143
 40
1.0
 40
1.0
 40
1.0
 40
1.0
 10
-22.6472
 20
-16.465
 30
0.0
 10
-22.6472
 20
-16.465
 30
0.0
 10
-28.731
 20
-16.465
 30
0.0
 10
-28.731
 20
-16.465
 30
0.0
 10
-28.731
 20
-16.465
 30
0.0
 10
-31.1212
 20
-16.465
 30
0.0
 10
-33.0455
 20
-18.3893
 30
0.0
 10
-33.0455
 20
-20.7795
 30
0.0
 10
-33.0455
 20
-20.7795
 30
0.0
 10
-33.0455
 20
-20.7795
 30
0.0
 10
-33.0455
 20
-26.8393
 30
0.0
 10
-33.0455
 20
-26.8393
 30
0.0
 10
-33.0455
 20
-26.8393
 30
0.0
 10
-33.0455
 20
-26.8393
 30
0.0
 10
-26.9377
 20
-26.8872
 30
0.0
 10
-26.9377
 20
-26.8872
 30
0.0
 10
-26.9377
 20
-26.8872
 30
0.0
 10
-24.5475
 20
-26.8872
 30
0.0
 10
-22.6232
 20
-24.963
 30
0.0
 10
-22.6232
 20
-22.5727
 30
0.0
 10
-22.6232
 20
-22.5727
 30
0.0
 10
-22.6232
 20
-22.5727
 30
0.0
 10
-22.6472
 20
-16.465
 30
0.0
 10
-22.6472
 20
-16.465
 30
0.0
  0
SPLINE
  5
A4
330
1F
100
AcDbEntity
  8
layer 1
 62
     7
100
AcDbSpline
210
0.0
220
0.0
230
1.0
 70
    11
 71
     3
 72
    28
 73
    24
 74
     0
 42
0.0000000001
 43
0.0000000001
 12
1.0
 22
0.0
 32
0.0
 13
1.0
 23
0.0
 33
0.0
 40
0.0
 40
0.0
 40
0.0
 40
0.0
 40
0.1428571428571428
 40
0.1428571428571428
 40
0.1428571428571428
 40
0.1428571428571428
 40
0.2857142857142857
 40
0.2857142857142857
 40
0.2857142857142857
 40
0.2857142857142857
 40
0.4285714285714285
 40
0.4285714285714285
 40
0.4285714285714285
 40
0.4285714285714285
 40
0.5714285714285714
 40
0.5714285714285714
 40
0.5714285714285714
 40
0.5714285714285714
 40
0.7142857142857143
 40
0.7142857142857143
 40
0.7142857142857143
 40
0.7142857142857143
 40
1.0
 40
1.0
 40
1.0
 40
1.0
 10
-45.1259
 20
-38.8239
 30
0.0
 10
-45.1259
 20
-38.8239
 30
0.0
 10
-39.0421
 20
-38.8239
 30
0.0
 10
-39.0421
 20
-38.8239
 30
0.0
 10
-39.0421
 20
-38.8239
 30
0.0
 10
-36.6519
 20
-38.8239
 30
0.0
 10
-34.7276
 20
-36.8996
 30
0.0
 10
-34.7276
 20
-34.5094
 30
0.0
 10
-34.7276
 20
-34.5094
 30
0.0
 10
-34.7276
 20
-34.5094
 30
0.0
 10
-34.7276
 20
-28.4496
 30
0.0
 10
-34.7276
 20
-28.4496
 30
0.0
 10
-34.7276
 20
-28.4496
 30
0.0
 10
-34.7276
 20
-28.4496
 30
0.0
 10
-40.8354
 20
-28.4016
 30
0.0
 10
-40.8354
 20
-28.4016
 30
0.0
 10
-40.8354
 20
-28.4016
 30
0.0
 10
-43.2256
 20
-28.4016
 30
0.0
 10
-45.1499
 20
-30.3259
 30
0.0
 10
-45.1499
 20
-32.7161
 30
0.0
 10
-45.1499
 20
-32.7161
 30
0.0
 10
-45.1499
 20
-32.7161
 30
0.0
 10
-45.1259
 20
-38.8239
 30
0.0
 10
-45.1259
 20
-38.8239
 30
0.0
  0
SPLINE
  5
A5
330
1F
100
AcDbEntity
  8
layer 1
 62
     7
100
AcDbSpline
210
0.0
220
0.0
230
1.0
 70
    11
 71
     3
 72
    28
 73
    24
 74
     0
 42
0.0000000001
 43
0.0000000001
 12
1.0
 22
0.0
 32
0.0
 13
1.0
 23
0.0
 33
0.0
 40
0.0
 40
0.0
 40
0.0
 40
0.0
 40
0.1428571428571428
 40
0.1428571428571428
 40
0.1428571428571428
 40
0.1428571428571428
 40
0.2857142857142857
 40
0.2857142857142857
 40
0.2857142857142857
 40
0.2857142857142857
 40
0.4285714285714285
 40
0.4285714285714285
 40
0.4285714285714285
 40
0.4285714285714285
 40
0.5714285714285714
 40
0.5714285714285714
 40
0.5714285714285714
 40
0.5714285714285714
 40
0.7142857142857143
 40
0.7142857142857143
 40
0.7142857142857143
 40
0.7142857142857143
 40
1.0
 40
1.0
 40
1.0
 40
1.0
 10
-22.6472
 20
-38.8239
 30
0.0
 10
-22.6472
 20
-38.8239
 30
0.0
 10
-28.731
 20
-38.8239
 30
0.0
 10
-28.731
 20
-38.8239
 30
0.0
 10
-28.731
 20
-38.8239
 30
0.0
 10
-31.1212
 20
-38.8239
 30
0.0
 10
-33.0455
 20
-36.8996
 30
0.0
 10
-33.0455
 20
-34.5094
 30
0.0
 10
-33.0455
 20
-34.5094
 30
0.0
 10
-33.0455
 20
-34.5094
 30
0.0
 10
-33.0455
 20
-28.4496
 30
0.0
 10
-33.0455
 20
-28.4496
 30
0.0
 10
-33.0455
 20
-28.4496
 30
0.0
 10
-33.0455
 20
-28.4496
 30
0.0
 10
-26.9377
 20
-28.4016
 30
0.0
 10
-26.9377
 20
-28.4016
 30
0.0
 10
-26.9377
 20
-28.4016
 30
0.0
 10
-24.5475
 20
-28.4016
 30
0.0
 10
-22.6232
 20
-30.3259
 30
0.0
 10
-22.6232
 20
-32.7161
 30
0.0
 10
-22.6232
 20
-32.7161
 30
0.0
 10
-22.6232
 20
-32.7161
 30
0.0
 10
-22.6472
 20
-38.8239
 30
0.0
 10
-22.6472
 20
-38.8239
 30
0.0
  0
SPLINE
  5
A6
330
1F
100
AcDbEntity
  8
layer 1
 62
     7
100
AcDbSpline
210
0.0
220
0.0
230
1.0
 70
    11
 71
     3
 72
    28
 73
    24
 74
     0
 42
0.0000000001
 43
0.0000000001
 12
1.0
 22
0.0
 32
0.0
 13
1.0
 23
0.0
 33
0.0
 40
0.0
 40
0.0
 40
0.0
 40
0.0
 40
0.1428571428571428
 40
0.1428571428571428
 40
0.1428571428571428
 40
0.1428571428571428
 40
0.2857142857142857
 40
0.2857142857142857
 40
0.2857142857142857
 40
0.2857142857142857
 40
0.4285714285714285
 40
0.4285714285714285
 40
0.4285714285714285
 40
0.4285714285714285
 40
0.5714285714285714
 40
0.5714285714285714
 40
0.5714285714285714
 40
0.5714285714285714
 40
0.7142857142857143
 40
0.7142857142857143
 40
0.7142857142857143
 40
0.7142857142857143
 40
1.0
 40
1.0
 40
1.0
 40
1.0
 10
-20.9908
 20
-16.465
 30
0.0
 10
-20.9908
 20
-16.465
 30
0.0
 10
-14.9071
 20
-16.465
 30
0.0
 10
-14.9071
 20
-16.465
 30
0.0
 10
-14.9071
 20
-16.465
 30
0.0
 10
-12.5168
 20
-16.465
 30
0.0
 10
-10.5926
 20
-18.3893
 30
0.0
 10
-10.5926
 20
-20.7795
 30
0.0
 10
-10.5926
 20
-20.7795
 30
0.0
 10
-10.5926
 20
-20.7795
 30
0.0
 10
-10.5926
 20
-26.8393
 30
0.0
 10
-10.5926
 20
-26.8393
 30
0.0
 10
-10.5926
 20
-26.8393
 30
0.0
 10
-10.5926
 20
-26.8393
 30
0.0
 10
-16.7003
 20
-26.8872
 30
0.0
 10
-16.7003
 20
-26.8872
 30
0.0
 10
-16.7003
 20
-26.8872
 30
0.0
 10
-19.0905
 20
-26.8872
 30
0.0
 10
-21.0148
 20
-24.963
 30
0.0
 10
-21.0148
 20
-22.5727
 30
0.0
 10
-21.0148
 20
-22.5727
 30
0.0
 10
-21.0148
 20
-22.5727
 30
0.0
 10
-20.9908
 20
-16.465
 30
0.0
 10
-20.9908
 20
-16.465
 30
0.0
  0
SPLINE
  5
A7
330
1F
100
AcDbEntity
  8
layer 1
 62
     7
100
AcDbSpline
210
0.0
220
0.0
230
1.0
 70
    11
 71
     3
 72
    28
 73
    24
 74
     0
 42
0.0000000001
 43
0.0000000001
 12
1.0
 22
0.0
 32
0.0
 13
1.0
 23
0.0
 33
0.0
 40
0.0
 40
0.0
 40
0.0
 40
0.0
 40
0.1428571428571428
 40
0.1428571428571428
 40
0.1428571428571428
 40
0.1428571428571428
 40
0.2857142857142857
 40
0.2857142857142857
 40
0.2857142857142857
 40
0.2857142857142857
 40
0.4285714285714285
 40
0.4285714285714285
 40
0.4285714285714285
 40
0.4285714285714285
 40
0.5714285714285714
 40
0.5714285714285714
 40
0.5714285714285714
 40
0.5714285714285714
 40
0.7142857142857143
 40
0.7142857142857143
 40
0.7142857142857143
 40
0.7142857142857143
 40
1.0
 40
1.0
 40
1.0
 40
1.0
 10
1.4879
 20
-16.465
 30
0.0
 10
1.4879
 20
-16.465
 30
0.0
 10
-4.5959
 20
-16.465
 30
0.0
 10
-4.5959
 20
-16.465
 30
0.0
 10
-4.5959
 20
-16.465
 30
0.0
 10
-6.9861
 20
-16.465
 30
0.0
 10
-8.9104
 20
-18.3893
 30
0.0
 10
-8.9104
 20
-20.7795
 30
0.0
 10
-8.9104
 20
-20.7795
 30
0.0
 10
-8.9104
 20
-20.7795
 30
0.0
 10
-8.9104
 20
-26.8393
 30
0.0
 10
-8.9104
 20
-26.8393
 30
0.0
 10
-8.9104
 20
-26.8393
 30
0.0
 10
-8.9104
 20
-26.8393
 30
0.0
 10
-2.8026
 20
-26.8872
 30
0.0
 10
-2.8026
 20
-26.8872
 30
0.0
 10
-2.8026
 20
-26.8872
 30
0.0
 10
-0.4124
 20
-26.8872
 30
0.0
 10
1.5118
 20
-24.963
 30
0.0
 10
1.5118
 20
-22.5727
 30
0.0
 10
1.5118
 20
-22.5727
 30
0.0
 10
1.5118
 20
-22.5727
 30
0.0
 10
1.4879
 20
-16.465
 30
0.0
 10
1.4879
 20
-16.465
 30
0.0
  0
SPLINE
  5
A8
330
1F
100
AcDbEntity
  8
layer 1
 62
     7
100
AcDbSpline
210
0.0
220
0.0
230
1.0
 70
    11
 71
     3
 72
    28
 73
    24
 74
     0
 42
0.0000000001
 43
0.0000000001
 12
1.0
 22
0.0
 32
0.0
 13
1.0
 23
0.0
 33
0.0
 40
0.0
 40
0.0
 40
0.0
 40
0.0
 40
0.1428571428571428
 40
0.1428571428571428
 40
0.1428571428571428
 40
0.1428571428571428
 40
0.2857142857142857
 40
0.2857142857142857
 40
0.2857142857142857
 40
0.2857142857142857
 40
0.4285714285714285
 40
0.4285714285714285
 40
0.4285714285714285
 40
0.4285714285714285
 40
0.5714285714285714
 40
0.5714285714285714
 40
0.5714285714285714
 40
0.5714285714285714
 40
0.7142857142857143
 40
0.7142857142857143
 40
0.7142857142857143
 40
0.7142857142857143
 40
1.0
 40
1.0
 40
1.0
 40
1.0
 10
-20.9908
 20
-38.8239
 30
0.0
 10
-20.9908
 20
-38.8239
 30
0.0
 10
-14.9071
 20
-38.8239
 30
0.0
 10
-14.9071
 20
-38.8239
 30
0.0
 10
-14.9071
 20
-38.8239
 30
0.0
 10
-12.5168
 20
-38.8239
 30
0.0
 10
-10.5926
 20
-36.8996
 30
0.0
 10
-10.5926
 20
-34.5094
 30
0.0
 10
-10.5926
 20
-34.5094
 30
0.0
 10
-10.5926
 20
-34.5094
 30
0.0
 10
-10.5926
 20
-28.4496
 30
0.0
 10
-10.5926
 20
-28.4496
 30
0.0
 10
-10.5926
 20
-28.4496
 30
0.0
 10
-10.5926
 20
-28.4496
 30
0.0
 10
-16.7003
 20
-28.4016
 30
0.0
 10
-16.7003
 20
-28.4016
 30
0.0
 10
-16.7003
 20
-28.4016
 30
0.0
 10
-19.0905
 20
-28.4016
 30
0.0
 10
-21.0148
 20
-30.3259
 30
0.0
 10
-21.0148
 20
-32.7161
 30
0.0
 10
-21.0148
 20
-32.7161
 30
0.0
 10
-21.0148
 20
-32.7161
 30
0.0
 10
-20.9908
 20
-38.8239
 30
0.0
 10
-20.9908
 20
-38.8239
 30
0.0
  0
SPLINE
  5
A9
330
1F
100
AcDbEntity
  8
layer 1
 62
     7
100
AcDbSpline
210
0.0
220
0.0
230
1.0
 70
    11
 71
     3
 72
    28
 73
    24
 74
     0
 42
0.0000000001
 43
0.0000000001
 12
1.0
 22
0.0
 32
0.0
 13
1.0
 23
0.0
 33
0.0
 40
0.0
 40
0.0
 40
0.0
 40
0.0
 40
0.1428571428571428
 40
0.1428571428571428
 40
0.1428571428571428
 40
0.1428571428571428
 40
0.2857142857142857
 40
0.2857142857142857
 40
0.2857142857142857
 40
0.2857142857142857
 40
0.4285714285714285
 40
0.4285714285714285
 40
0.4285714285714285
 40
0.4285714285714285
 40
0.5714285714285714
 40
0.5714285714285714
 40
0.5714285714285714
 40
0.5714285714285714
 40
0.7142857142857143
 40
0.7142857142857143
 40
0.7142857142857143
 40
0.7142857142857143
 40
1.0
 40
1.0
 40
1.0
 40
1.0
 10
1.4879
 20
-38.8239
 30
0.0
 10
1.4879
 20
-38.8239
 30
0.0
 10
-4.5959
 20
-38.8239
 30
0.0
 10
-4.5959
 20
-38.8239
 30
0.0
 10
-4.5959
 20
-38.8239
 30
0.0
 10
-6.9861
 20
-38.8239
 30
0.0
 10
-8.9104
 20
-36.8996
 30
0.0
 10
-8.9104
 20
-34.5094
 30
0.0
 10
-8.9104
 20
-34.5094
 30
0.0
 10
-8.9104
 20
-34.5094
 30
0.0
 10
-8.9104
 20
-28.4496
 30
0.0
 10
-8.9104
 20
-28.4496
 30
0.0
 10
-8.9104
 20
-28.4496
 30
0.0
 10
-8.9104
 20
-28.4496
 30
0.0
 10
-2.8026
 20
-28.4016
 30
0.0
 10
-2.8026
 20
-28.4016
 30
0.0
 10
-2.8026
 20
-28.4016
 30
0.0
 10
-0.4124
 20
-28.4016
 30
0.0
 10
1.5118
 20
-30.3259
 30
0.0
 10
1.5118
 20
-32.7161
 30
0.0
 10
1.5118
 20
-32.7161
 30
0.0
 10
1.5118
 20
-32.7161
 30
0.0
 10
1.4879
 20
-38.8239
 30
0.0
 10
1.4879
 20
-38.8239
 30
0.0
  0
SPLINE
  5
AA
330
1F
100
AcDbEntity
  8
layer 1
 62
     7
100
AcDbSpline
210
0.0
220
0.0
230
1.0
 70
    11
 71
     3
 72
    28
 73
    24
 74
     0
 42
0.0000000001
 43
0.0000000001
 12
1.0
 22
0.0
 32
0.0
 13
1.0
 23
0.0
 33
0.0
 40
0.0
 40
0.0
 40
0.0
 40
0.0
 40
0.1428571428571428
 40
0.1428571428571428
 40
0.1428571428571428
 40
0.1428571428571428
 40
0.2857142857142857
 40
0.2857142857142857
 40
0.2857142857142857
 40
0.2857142857142857
 40
0.4285714285714285
 40
0.4285714285714285
 40
0.4285714285714285
 40
0.4285714285714285
 40
0.5714285714285714
 40
0.5714285714285714
 40
0.5714285714285714
 40
0.5714285714285714
 40
0.7142857142857143
 40
0.7142857142857143
 40
0.7142857142857143
 40
0.7142857142857143
 40
1.0
 40
1.0
 40
1.0
 40
1.0
 10
3.0425
 20
-16.465
 30
0.0
 10
3.0425
 20
-16.465
 30
0.0
 10
9.1263
 20
-16.465
 30
0.0
 10
9.1263
 20
-16.465
 30
0.0
 10
9.1263
 20
-16.465
 30
0.0
 10
11.5165
 20
-16.465
 30
0.0
 10
13.4408
 20
-18.3893
 30
0.0
 10
13.4408
 20
-20.7795
 30
0.0
 10
13.4408
 20
-20.7795
 30
0.0
 10
13.4408
 20
-20.7795
 30
0.0
 10
13.4408
 20
-26.8393
 30
0.0
 10
13.4408
 20
-26.8393
 30
0.0
 10
13.4408
 20
-26.8393
 30
0.0
 10
13.4408
 20
-26.8393
 30
0.0
 10
7.333
 20
-26.8872
 30
0.0
 10
7.333
 20
-26.8872
 30
0.0
 10
7.333
 20
-26.8872
 30
0.0
 10
4.9428
 20
-26.8872
 30
0.0
 10
3.0185
 20
-24.963
 30
0.0
 10
3.0185
 20
-22.5727
 30
0.0
 10
3.0185
 20
-22.5727
 30
0.0
 10
3.0185
 20
-22.5727
 30
0.0
 10
3.0425
 20
-16.465
 30
0.0
 10
3.0425
 20
-16.465
 30
0.0
  0
SPLINE
  5
AB
330
1F
100
AcDbEntity
  8
layer 1
 62
     7
100
AcDbSpline
210
0.0
220
0.0
230
1.0
 70
    11
 71
     3
 72
    28
 73
    24
 74
     0
 42
0.0000000001
 43
0.0000000001
 12
1.0
 22
0.0
 32
0.0
 13
1.0
 23
0.0
 33
0.0
 40
0.0
 40
0.0
 40
0.0
 40
0.0
 40
0.1428571428571428
 40
0.1428571428571428
 40
0.1428571428571428
 40
0.1428571428571428
 40
0.2857142857142857
 40
0.2857142857142857
 40
0.2857142857142857
 40
0.2857142857142857
 40
0.4285714285714285
 40
0.4285714285714285
 40
0.4285714285714285
 40
0.4285714285714285
 40
0.5714285714285714
 40
0.5714285714285714
 40
0.5714285714285714
 40
0.5714285714285714
 40
0.7142857142857143
 40
0.7142857142857143
 40
0.7142857142857143
 40
0.7142857142857143
 40
1.0
 40
1.0
 40
1.0
 40
1.0
 10
25.5212
 20
-16.465
 30
0.0
 10
25.5212
 20
-16.465
 30
0.0
 10
19.4375
 20
-16.465
 30
0.0
 10
19.4375
 20
-16.465
 30
0.0
 10
19.4375
 20
-16.465
 30
0.0
 10
17.0472
 20
-16.465
 30
0.0
 10
15.123
 20
-18.3893
 30
0.0
 10
15.123
 20
-20.7795
 30
0.0
 10
15.123
 20
-20.7795
 30
0.0
 10
15.123
 20
-20.7795
 30
0.0
 10
15.123
 20
-26.8393
 30
0.0
 10
15.123
 20
-26.8393
 30
0.0
 10
15.123
 20
-26.8393
 30
0.0
 10
15.123
 20
-26.8393
 30
0.0
 10
21.2307
 20
-26.8872
 30
0.0
 10
21.2307
 20
-26.8872
 30
0.0
 10
21.2307
 20
-26.8872
 30
0.0
 10
23.6209
 20
-26.8872
 30
0.0
 10
25.5452
 20
-24.963
 30
0.0
 10
25.5452
 20
-22.5727
 30
0.0
 10
25.5452
 20
-22.5727
 30
0.0
 10
25.5452
 20
-22.5727
 30
0.0
 10
25.5212
 20
-16.465
 30
0.0
 10
25.5212
 20
-16.465
 30
0.0
  0
SPLINE
  5
AC
330
1F
100
AcDbEntity
  8
layer 1
 62
     7
100
AcDbSpline
210
0.0
220
0.0
230
1.0
 70
    11
 71
     3
 72
    28
 73
    24
 74
     0
 42
0.0000000001
 43
0.0000000001
 12
1.0
 22
0.0
 32
0.0
 13
1.0
 23
0.0
 33
0.0
 40
0.0
 40
0.0
 40
0.0
 40
0.0
 40
0.1428571428571428
 40
0.1428571428571428
 40
0.1428571428571428
 40
0.1428571428571428
 40
0.2857142857142857
 40
0.2857142857142857
 40
0.2857142857142857
 40
0.2857142857142857
 40
0.4285714285714285
 40
0.4285714285714285
 40
0.4285714285714285
 40
0.4285714285714285
 40
0.5714285714285714
 40
0.5714285714285714
 40
0.5714285714285714
 40
0.5714285714285714
 40
0.7142857142857143
 40
0.7142857142857143
 40
0.7142857142857143
 40
0.7142857142857143
 40
1.0
 40
1.0
 40
1.0
 40
1.0
 10
3.0425
 20
-38.8239
 30
0.0
 10
3.0425
 20
-38.8239
 30
0.0
 10
9.1263
 20
-38.8239
 30
0.0
 10
9.1263
 20
-38.8239
 30
0.0
 10
9.1263
 20
-38.8239
 30
0.0
 10
11.5165
 20
-38.8239
 30
0.0
 10
13.4408
 20
-36.8996
 30
0.0
 10
13.4408
 20
-34.5094
 30
0.0
 10
13.4408
 20
-34.5094
 30
0.0
 10
13.4408
 20
-34.5094
 30
0.0
 10
13.4408
 20
-28.4496
 30
0.0
 10
13.4408
 20
-28.4496
 30
0.0
 10
13.4408
 20
-28.4496
 30
0.0
 10
13.4408
 20
-28.4496
 30
0.0
 10
7.333
 20
-28.4016
 30
0.0
 10
7.333
 20
-28.4016
 30
0.0
 10
7.333
 20
-28.4016
 30
0.0
 10
4.9428
 20
-28.4016
 30
0.0
 10
3.0185
 20
-30.3259
 30
0.0
 10
3.0185
 20
-32.7161
 30
0.0
 10
3.0185
 20
-32.7161
 30
0.0
 10
3.0185
 20
-32.7161
 30
0.0
 10
3.0425
 20
-38.8239
 30
0.0
 10
3.0425
 20
-38.8239
 30
0.0
  0
SPLINE
  5
AD
330
1F
100
AcDbEntity
  8
layer 1
 62
     7
100
AcDbSpline
210
0.0
220
0.0
230
1.0
 70
    11
 71
     3
 72
    28
 73
    24
 74
     0
 42
0.0000000001
 43
0.0000000001
 12
1.0
 22
0.0
 32
0.0
 13
1.0
 23
0.0
 33
0.0
 40
0.0
 40
0.0
 40
0.0
 40
0.0
 40
0.1428571428571428
 40
0.1428571428571428
 40
0.1428571428571428
 40
0.1428571428571428
 40
0.2857142857142857
 40
0.2857142857142857
 40
0.2857142857142857
 40
0.2857142857142857
 40
0.4285714285714285
 40
0.4285714285714285
 40
0.4285714285714285
 40
0.4285714285714285
 40
0.5714285714285714
 40
0.5714285714285714
 40
0.5714285714285714
 40
0.5714285714285714
 40
0.7142857142857143
 40
0.7142857142857143
 40
0.7142857142857143
 40
0.7142857142857143
 40
1.0
 40
1.0
 40
1.0
 40
1.0
 10
25.5212
 20
-38.8239
 30
0.0
 10
25.5212
 20
-38.8239
 30
0.0
 10
19.4375
 20
-38.8239
 30
0.0
 10
19.4375
 20
-38.8239
 30
0.0
 10
19.4375
 20
-38.8239
 30
0.0
 10
17.0472
 20
-38.8239
 30
0.0
 10
15.123
 20
-36.8996
 30
0.0
 10
15.123
 20
-34.5094
 30
0.0
 10
15.123
 20
-34.5094
 30
0.0
 10
15.123
 20
-34.5094
 30
0.0
 10
15.123
 20
-28.4496
 30
0.0
 10
15.123
 20
-28.4496
 30
0.0
 10
15.123
 20
-28.4496
 30
0.0
 10
15.123
 20
-28.4496
 30
0.0
 10
21.2307
 20
-28.4016
 30
0.0
 10
21.2307
 20
-28.4016
 30
0.0
 10
21.2307
 20
-28.4016
 30
0.0
 10
23.6209
 20
-28.4016
 30
0.0
 10
25.5452
 20
-30.3259
 30
0.0
 10
25.5452
 20
-32.7161
 30
0.0
 10
25.5452
 20
-32.7161
 30
0.0
 10
25.5452
 20
-32.7161
 30
0.0
 10
25.5212
 20
-38.8239
 30
0.0
 10
25.5212
 20
-38.8239
 30
0.0
  0
SPLINE
  5
AE
330
1F
100
AcDbEntity
  8
layer 1
 62
     7
100
AcDbSpline
210
0.0
220
0.0
230
1.0
 70
    11
 71
     3
 72
    28
 73
    24
 74
     0
 42
0.0000000001
 43
0.0000000001
 12
1.0
 22
0.0
 32
0.0
 13
1.0
 23
0.0
 33
0.0
 40
0.0
 40
0.0
 40
0.0
 40
0.0
 40
0.1428571428571428
 40
0.1428571428571428
 40
0.1428571428571428
 40
0.1428571428571428
 40
0.2857142857142857
 40
0.2857142857142857
 40
0.2857142857142857
 40
0.2857142857142857
 40
0.4285714285714285
 40
0.4285714285714285
 40
0.4285714285714285
 40
0.4285714285714285
 40
0.5714285714285714
 40
0.5714285714285714
 40
0.5714285714285714
 40
0.5714285714285714
 40
0.7142857142857143
 40
0.7142857142857143
 40
0.7142857142857143
 40
0.7142857142857143
 40
1.0
 40
1.0
 40
1.0
 40
1.0
 10
26.9065
 20
-16.465
 30
0.0
 10
26.9065
 20
-16.465
 30
0.0
 10
32.9902
 20
-16.465
 30
0.0
 10
32.9902
 20
-16.465
 30
0.0
 10
32.9902
 20
-16.465
 30
0.0
 10
35.3805
 20
-16.465
 30
0.0
 10
37.3047
 20
-18.3893
 30
0.0
 10
37.3047
 20
-20.7795
 30
0.0
 10
37.3047
 20
-20.7795
 30
0.0
 10
37.3047
 20
-20.7795
 30
0.0
 10
37.3047
 20
-26.8393
 30
0.0
 10
37.3047
 20
-26.8393
 30
0.0
 10
37.3047
 20
-26.8393
 30
0.0
 10
37.3047
 20
-26.8393
 30
0.0
 10
31.197
 20
-26.8872
 30
0.0
 10
31.197
 20
-26.8872
 30
0.0
 10
31.197
 20
-26.8872
 30
0.0
 10
28.8067
 20
-26.8872
 30
0.0
 10
26.8825
 20
-24.963
 30
0.0
 10
26.8825
 20
-22.5727
 30
0.0
 10
26.8825
 20
-22.5727
 30
0.0
 10
26.8825
 20
-22.5727
 30
0.0
 10
26.9065
 20
-16.465
 30
0.0
 10
26.9065
 20
-16.465
 30
0.0
  0
SPLINE
  5
AF
330
1F
100
AcDbEntity
  8
layer 1
 62
     7
100
AcDbSpline
210
0.0
220
0.0
230
1.0
 70
    11
 71
     3
 72
    28
 73
    24
 74
     0
 42
0.0000000001
 43
0.0000000001
 12
1.0
 22
0.0
 32
0.0
 13
1.0
 23
0.0
 33
0.0
 40
0.0
 40
0.0
 40
0.0
 40
0.0
 40
0.1428571428571428
 40
0.1428571428571428
 40
0.1428571428571428
 40
0.1428571428571428
 40
0.2857142857142857
 40
0.2857142857142857
 40
0.2857142857142857
 40
0.2857142857142857
 40
0.4285714285714285
 40
0.4285714285714285
 40
0.4285714285714285
 40
0.4285714285714285
 40
0.5714285714285714
 40
0.5714285714285714
 40
0.5714285714285714
 40
0.5714285714285714
 40
0.7142857142857143
 40
0.7142857142857143
 40
0.7142857142857143
 40
0.7142857142857143
 40
1.0
 40
1.0
 40
1.0
 40
1.0
 10
49.3852
 20
-16.465
 30
0.0
 10
49.3852
 20
-16.465
 30
0.0
 10
43.3014
 20
-16.465
 30
0.0
 10
43.3014
 20
-16.465
 30
0.0
 10
43.3014
 20
-16.465
 30
0.0
 10
40.9112
 20
-16.465
 30
0.0
 10
38.9869
 20
-18.3893
 30
0.0
 10
38.9869
 20
-20.7795
 30
0.0
 10
38.9869
 20
-20.7795
 30
0.0
 10
38.9869
 20
-20.7795
 30
0.0
 10
38.9869
 20
-26.8393
 30
0.0
 10
38.9869
 20
-26.8393
 30
0.0
 10
38.9869
 20
-26.8393
 30
0.0
 10
38.9869
 20
-26.8393
 30
0.0
 10
45.0947
 20
-26.8872
 30
0.0
 10
45.0947
 20
-26.8872
 30
0.0
 10
45.0947
 20
-26.8872
 30
0.0
 10
47.4849
 20
-26.8872
 30
0.0
 10
49.4091
 20
-24.963
 30
0.0
 10
49.4091
 20
-22.5727
 30
0.0
 10
49.4091
 20
-22.5727
 30
0.0
 10
49.4091
 20
-22.5727
 30
0.0
 10
49.3852
 20
-16.465
 30
0.0
 10
49.3852
 20
-16.465
 30
0.0
  0
SPLINE
  5
B0
330
1F
100
AcDbEntity
  8
layer 1
 62
     7
100
AcDbSpline
210
0.0
220
0.0
230
1.0
 70
    11
 71
     3
 72
    28
 73
    24
 74
     0
 42
0.0000000001
 43
0.0000000001
 12
1.0
 22
0.0
 32
0.0
 13
1.0
 23
0.0
 33
0.0
 40
0.0
 40
0.0
 40
0.0
 40
0.0
 40
0.1428571428571428
 40
0.1428571428571428
 40
0.1428571428571428
 40
0.1428571428571428
 40
0.2857142857142857
 40
0.2857142857142857
 40
0.2857142857142857
 40
0.2857142857142857
 40
0.4285714285714285
 40
0.4285714285714285
 40
0.4285714285714285
 40
0.4285714285714285
 40
0.5714285714285714
 40
0.5714285714285714
 40
0.5714285714285714
 40
0.5714285714285714
 40
0.7142857142857143
 40
0.7142857142857143
 40
0.7142857142857143
 40
0.7142857142857143
 40
1.0
 40
1.0
 40
1.0
 40
1.0
 10
26.9065
 20
-38.8239
 30
0.0
 10
26.9065
 20
-38.8239
 30
0.0
 10
32.9902
 20
-38.8239
 30
0.0
 10
32.9902
 20
-38.8239
 30
0.0
 10
32.9902
 20
-38.8239
 30
0.0
 10
35.3805
 20
-38.8239
 30
0.0
 10
37.3047
 20
-36.8996
 30
0.0
 10
37.3047
 20
-34.5094
 30
0.0
 10
37.3047
 20
-34.5094
 30
0.0
 10
37.3047
 20
-34.5094
 30
0.0
 10
37.3047
 20
-28.4496
 30
0.0
 10
37.3047
 20
-28.4496
 30
0.0
 10
37.3047
 20
-28.4496
 30
0.0
 10
37.3047
 20
-28.4496
 30
0.0
 10
31.197
 20
-28.4016
 30
0.0
 10
31.197
 20
-28.4016
 30
0.0
 10
31.197
 20
-28.4016
 30
0.0
 10
28.8067
 20
-28.4016
 30
0.0
 10
26.8825
 20
-30.3259
 30
0.0
 10
26.8825
 20
-32.7161
 30
0.0
 10
26.8825
 20
-32.7161
 30
0.0
 10
26.8825
 20
-32.7161
 30
0.0
 10
26.9065
 20
-38.8239
 30
0.0
 10
26.9065
 20
-38.8239
 30
0.0
  0
SPLINE
  5
B1
330
1F
100
AcDbEntity
  8
layer 1
 62
     7
100
AcDbSpline
210
0.0
220
0.0
230
1.0
 70
    11
 71
     3
 72
    28
 73
    24
 74
     0
 42
0.0000000001
 43
0.0000000001
 12
1.0
 22
0.0
 32
0.0
 13
1.0
 23
0.0
 33
0.0
 40
0.0
 40
0.0
 40
0.0
 40
0.0
 40
0.1428571428571428
 40
0.1428571428571428
 40
0.1428571428571428
 40
0.1428571428571428
 40
0.2857142857142857
 40
0.2857142857142857
 40
0.2857142857142857
 40
0.2857142857142857
 40
0.4285714285714285
 40
0.4285714285714285
 40
0.4285714285714285
 40
0.4285714285714285
 40
0.5714285714285714
 40
0.5714285714285714
 40
0.5714285714285714
 40
0.5714285714285714
 40
0.7142857142857143
 40
0.7142857142857143
 40
0.7142857142857143
 40
0.7142857142857143
 40
1.0
 40
1.0
 40
1.0
 40
1.0
 10
49.3852
 20
-38.8239
 30
0.0
 10
49.3852
 20
-38.8239
 30
0.0
 10
43.3014
 20
-38.8239
 30
0.0
 10
43.3014
 20
-38.8239
 30
0.0
 10
43.3014
 20
-38.8239
 30
0.0
 10
40.9112
 20
-38.8239
 30
0.0
 10
38.9869
 20
-36.8996
 30
0.0
 10
38.9869
 20
-34.5094
 30
0.0
 10
38.9869
 20
-34.5094
 30
0.0
 10
38.9869
 20
-34.5094
 30
0.0
 10
38.9869
 20
-28.4496
 30
0.0
 10
38.9869
 20
-28.4496
 30
0.0
 10
38.9869
 20
-28.4496
 30
0.0
 10
38.9869
 20
-28.4496
 30
0.0
 10
45.0947
 20
-28.4016
 30
0.0
 10
45.0947
 20
-28.4016
 30
0.0
 10
45.0947
 20
-28.4016
 30
0.0
 10
47.4849
 20
-28.4016
 30
0.0
 10
49.4091
 20
-30.3259
 30
0.0
 10
49.4091
 20
-32.7161
 30
0.0
 10
49.4091
 20
-32.7161
 30
0.0
 10
49.4091
 20
-32.7161
 30
0.0
 10
49.3852
 20
-38.8239
 30
0.0
 10
49.3852
 20
-38.8239
 30
0.0
  0
SPLINE
  5
B2
330
1F
100
AcDbEntity
  8
layer 1
 62
     7
100
AcDbSpline
210
0.0
220
0.0
230
1.0
 70
    11
 71
     3
 72
    28
 73
    24
 74
     0
 42
0.0000000001
 43
0.0000000001
 12
1.0
 22
0.0
 32
0.0
 13
1.0
 23
0.0
 33
0.0
 40
0.0
 40
0.0
 40
0.0
 40
0.0
 40
0.1428571428571428
 40
0.1428571428571428
 40
0.1428571428571428
 40
0.1428571428571428
 40
0.2857142857142857
 40
0.2857142857142857
 40
0.2857142857142857
 40
0.2857142857142857
 40
0.4285714285714285
 40
0.4285714285714285
 40
0.4285714285714285
 40
0.4285714285714285
 40
0.5714285714285714
 40
0.5714285714285714
 40
0.5714285714285714
 40
0.5714285714285714
 40
0.7142857142857143
 40
0.7142857142857143
 40
0.7142857142857143
 40
0.7142857142857143
 40
1.0
 40
1.0
 40
1.0
 40
1.0
 10
-45.1259
 20
-40.4539
 30
0.0
 10
-45.1259
 20
-40.4539
 30
0.0
 10
-39.0421
 20
-40.4539
 30
0.0
 10
-39.0421
 20
-40.4539
 30
0.0
 10
-39.0421
 20
-40.4539
 30
0.0
 10
-36.6519
 20
-40.4539
 30
0.0
 10
-34.7276
 20
-42.3781
 30
0.0
 10
-34.7276
 20
-44.7684
 30
0.0
 10
-34.7276
 20
-44.7684
 30
0.0
 10
-34.7276
 20
-44.7684
 30
0.0
 10
-34.7276
 20
-50.8281
 30
0.0
 10
-34.7276
 20
-50.8281
 30
0.0
 10
-34.7276
 20
-50.8281
 30
0.0
 10
-34.7276
 20
-50.8281
 30
0.0
 10
-40.8354
 20
-50.8761
 30
0.0
 10
-40.8354
 20
-50.8761
 30
0.0
 10
-40.8354
 20
-50.8761
 30
0.0
 10
-43.2256
 20
-50.8761
 30
0.0
 10
-45.1499
 20
-48.9519
 30
0.0
 10
-45.1499
 20
-46.5616
 30
0.0
 10
-45.1499
 20
-46.5616
 30
0.0
 10
-45.1499
 20
-46.5616
 30
0.0
 10
-45.1259
 20
-40.4539
 30
0.0
 10
-45.1259
 20
-40.4539
 30
0.0
  0
SPLINE
  5
B3
330
1F
100
AcDbEntity
  8
layer 1
 62
     7
100
AcDbSpline
210
0.0
220
0.0
230
1.0
 70
    11
 71
     3
 72
    28
 73
    24
 74
     0
 42
0.0000000001
 43
0.0000000001
 12
1.0
 22
0.0
 32
0.0
 13
1.0
 23
0.0
 33
0.0
 40
0.0
 40
0.0
 40
0.0
 40
0.0
 40
0.1428571428571428
 40
0.1428571428571428
 40
0.1428571428571428
 40
0.1428571428571428
 40
0.2857142857142857
 40
0.2857142857142857
 40
0.2857142857142857
 40
0.2857142857142857
 40
0.4285714285714285
 40
0.4285714285714285
 40
0.4285714285714285
 40
0.4285714285714285
 40
0.5714285714285714
 40
0.5714285714285714
 40
0.5714285714285714
 40
0.5714285714285714
 40
0.7142857142857143
 40
0.7142857142857143
 40
0.7142857142857143
 40
0.7142857142857143
 40
1.0
 40
1.0
 40
1.0
 40
1.0
 10
-22.6472
 20
-40.4539
 30
0.0
 10
-22.6472
 20
-40.4539
 30
0.0
 10
-28.731
 20
-40.4539
 30
0.0
 10
-28.731
 20
-40.4539
 30
0.0
 10
-28.731
 20
-40.4539
 30
0.0
 10
-31.1212
 20
-40.4539
 30
0.0
 10
-33.0455
 20
-42.3781
 30
0.0
 10
-33.0455
 20
-44.7684
 30
0.0
 10
-33.0455
 20
-44.7684
 30
0.0
 10
-33.0455
 20
-44.7684
 30
0.0
 10
-33.0455
 20
-50.8281
 30
0.0
 10
-33.0455
 20
-50.8281
 30
0.0
 10
-33.0455
 20
-50.8281
 30
0.0
 10
-33.0455
 20
-50.8281
 30
0.0
 10
-26.9377
 20
-50.8761
 30
0.0
 10
-26.9377
 20
-50.8761
 30
0.0
 10
-26.9377
 20
-50.8761
 30
0.0
 10
-24.5475
 20
-50.8761
 30
0.0
 10
-22.6232
 20
-48.9519
 30
0.0
 10
-22.6232
 20
-46.5616
 30
0.0
 10
-22.6232
 20
-46.5616
 30
0.0
 10
-22.6232
 20
-46.5616
 30
0.0
 10
-22.6472
 20
-40.4539
 30
0.0
 10
-22.6472
 20
-40.4539
 30
0.0
  0
SPLINE
  5
B4
330
1F
100
AcDbEntity
  8
layer 1
 62
     7
100
AcDbSpline
210
0.0
220
0.0
230
1.0
 70
    11
 71
     3
 72
    28
 73
    24
 74
     0
 42
0.0000000001
 43
0.0000000001
 12
1.0
 22
0.0
 32
0.0
 13
1.0
 23
0.0
 33
0.0
 40
0.0
 40
0.0
 40
0.0
 40
0.0
 40
0.1428571428571428
 40
0.1428571428571428
 40
0.1428571428571428
 40
0.1428571428571428
 40
0.2857142857142857
 40
0.2857142857142857
 40
0.2857142857142857
 40
0.2857142857142857
 40
0.4285714285714285
 40
0.4285714285714285
 40
0.4285714285714285
 40
0.4285714285714285
 40
0.5714285714285714
 40
0.5714285714285714
 40
0.5714285714285714
 40
0.5714285714285714
 40
0.7142857142857143
 40
0.7142857142857143
 40
0.7142857142857143
 40
0.7142857142857143
 40
1.0
 40
1.0
 40
1.0
 40
1.0
 10
-45.1259
 20
-62.8125
 30
0.0
 10
-45.1259
 20
-62.8125
 30
0.0
 10
-39.0421
 20
-62.8125
 30
0.0
 10
-39.0421
 20
-62.8125
 30
0.0
 10
-39.0421
 20
-62.8125
 30
0.0
 10
-36.6519
 20
-62.8125
 30
0.0
 10
-34.7276
 20
-60.8883
 30
0.0
 10
-34.7276
 20
-58.498
 30
0.0
 10
-34.7276
 20
-58.498
 30
0.0
 10
-34.7276
 20
-58.498
 30
0.0
 10
-34.7276
 20
-52.4383
 30
0.0
 10
-34.7276
 20
-52.4383
 30
0.0
 10
-34.7276
 20
-52.4383
 30
0.0
 10
-34.7276
 20
-52.4383
 30
0.0
 10
-40.8354
 20
-52.3903
 30
0.0
 10
-40.8354
 20
-52.3903
 30
0.0
 10
-40.8354
 20
-52.3903
 30
0.0
 10
-43.2256
 20
-52.3903
 30
0.0
 10
-45.1499
 20
-54.3145
 30
0.0
 10
-45.1499
 20
-56.7048
 30
0.0
 10
-45.1499
 20
-56.7048
 30
0.0
 10
-45.1499
 20
-56.7048
 30
0.0
 10
-45.1259
 20
-62.8125
 30
0.0
 10
-45.1259
 20
-62.8125
 30
0.0
  0
SPLINE
  5
B5
330
1F
100
AcDbEntity
  8
layer 1
 62
     7
100
AcDbSpline
210
0.0
220
0.0
230
1.0
 70
    11
 71
     3
 72
    28
 73
    24
 74
     0
 42
0.0000000001
 43
0.0000000001
 12
1.0
 22
0.0
 32
0.0
 13
1.0
 23
0.0
 33
0.0
 40
0.0
 40
0.0
 40
0.0
 40
0.0
 40
0.1428571428571428
 40
0.1428571428571428
 40
0.1428571428571428
 40
0.1428571428571428
 40
0.2857142857142857
 40
0.2857142857142857
 40
0.2857142857142857
 40
0.2857142857142857
 40
0.4285714285714285
 40
0.4285714285714285
 40
0.4285714285714285
 40
0.4285714285714285
 40
0.5714285714285714
 40
0.5714285714285714
 40
0.5714285714285714
 40
0.5714285714285714
 40
0.7142857142857143
 40
0.7142857142857143
 40
0.7142857142857143
 40
0.7142857142857143
 40
1.0
 40
1.0
 40
1.0
 40
1.0
 10
-22.6472
 20
-62.8125
 30
0.0
 10
-22.6472
 20
-62.8125
 30
0.0
 10
-28.731
 20
-62.8125
 30
0.0
 10
-28.731
 20
-62.8125
 30
0.0
 10
-28.731
 20
-62.8125
 30
0.0
 10
-31.1212
 20
-62.8125
 30
0.0
 10
-33.0455
 20
-60.8883
 30
0.0
 10
-33.0455
 20
-58.498
 30
0.0
 10
-33.0455
 20
-58.498
 30
0.0
 10
-33.0455
 20
-58.498
 30
0.0
 10
-33.0455
 20
-52.4383
 30
0.0
 10
-33.0455
 20
-52.4383
 30
0.0
 10
-33.0455
 20
-52.4383
 30
0.0
 10
-33.0455
 20
-52.4383
 30
0.0
 10
-26.9377
 20
-52.3903
 30
0.0
 10
-26.9377
 20
-52.3903
 30
0.0
 10
-26.9377
 20
-52.3903
 30
0.0
 10
-24.5475
 20
-52.3903
 30
0.0
 10
-22.6232
 20
-54.3145
 30
0.0
 10
-22.6232
 20
-56.7048
 30
0.0
 10
-22.6232
 20
-56.7048
 30
0.0
 10
-22.6232
 20
-56.7048
 30
0.0
 10
-22.6472
 20
-62.8125
 30
0.0
 10
-22.6472
 20
-62.8125
 30
0.0
  0
SPLINE
  5
B6
330
1F
100
AcDbEntity
  8
layer 1
 62
     7
100
AcDbSpline
210
0.0
220
0.0
230
1.0
 70
    11
 71
     3
 72
    28
 73
    24
 74
     0
 42
0.0000000001
 43
0.0000000001
 12
1.0
 22
0.0
 32
0.0
 13
1.0
 23
0.0
 33
0.0
 40
0.0
 40
0.0
 40
0.0
 40
0.0
 40
0.1428571428571428
 40
0.1428571428571428
 40
0.1428571428571428
 40
0.1428571428571428
 40
0.2857142857142857
 40
0.2857142857142857
 40
0.2857142857142857
 40
0.2857142857142857
 40
0.4285714285714285
 40
0.4285714285714285
 40
0.4285714285714285
 40
0.4285714285714285
 40
0.5714285714285714
 40
0.5714285714285714
 40
0.5714285714285714
 40
0.5714285714285714
 40
0.7142857142857143
 40
0.7142857142857143
 40
0.7142857142857143
 40
0.7142857142857143
 40
1.0
 40
1.0
 40
1.0
 40
1.0
 10
-20.9908
 20
-40.4539
 30
0.0
 10
-20.9908
 20
-40.4539
 30
0.0
 10
-14.9071
 20
-40.4539
 30
0.0
 10
-14.9071
 20
-40.4539
 30
0.0
 10
-14.9071
 20
-40.4539
 30
0.0
 10
-12.5168
 20
-40.4539
 30
0.0
 10
-10.5926
 20
-42.3781
 30
0.0
 10
-10.5926
 20
-44.7684
 30
0.0
 10
-10.5926
 20
-44.7684
 30
0.0
 10
-10.5926
 20
-44.7684
 30
0.0
 10
-10.5926
 20
-50.8281
 30
0.0
 10
-10.5926
 20
-50.8281
 30
0.0
 10
-10.5926
 20
-50.8281
 30
0.0
 10
-10.5926
 20
-50.8281
 30
0.0
 10
-16.7003
 20
-50.8761
 30
0.0
 10
-16.7003
 20
-50.8761
 30
0.0
 10
-16.7003
 20
-50.8761
 30
0.0
 10
-19.0905
 20
-50.8761
 30
0.0
 10
-21.0148
 20
-48.9519
 30
0.0
 10
-21.0148
 20
-46.5616
 30
0.0
 10
-21.0148
 20
-46.5616
 30
0.0
 10
-21.0148
 20
-46.5616
 30
0.0
 10
-20.9908
 20
-40.4539
 30
0.0
 10
-20.9908
 20
-40.4539
 30
0.0
  0
SPLINE
  5
B7
330
1F
100
AcDbEntity
  8
layer 1
 62
     7
100
AcDbSpline
210
0.0
220
0.0
230
1.0
 70
    11
 71
     3
 72
    28
 73
    24
 74
     0
 42
0.0000000001
 43
0.0000000001
 12
1.0
 22
0.0
 32
0.0
 13
1.0
 23
0.0
 33
0.0
 40
0.0
 40
0.0
 40
0.0
 40
0.0
 40
0.1428571428571428
 40
0.1428571428571428
 40
0.1428571428571428
 40
0.1428571428571428
 40
0.2857142857142857
 40
0.2857142857142857
 40
0.2857142857142857
 40
0.2857142857142857
 40
0.4285714285714285
 40
0.4285714285714285
 40
0.4285714285714285
 40
0.4285714285714285
 40
0.5714285714285714
 40
0.5714285714285714
 40
0.5714285714285714
 40
0.5714285714285714
 40
0.7142857142857143
 40
0.7142857142857143
 40
0.7142857142857143
 40
0.7142857142857143
 40
1.0
 40
1.0
 40
1.0
 40
1.0
 10
1.4879
 20
-40.4539
 30
0.0
 10
1.4879
 20
-40.4539
 30
0.0
 10
-4.5959
 20
-40.4539
 30
0.0
 10
-4.5959
 20
-40.4539
 30
0.0
 10
-4.5959
 20
-40.4539
 30
0.0
 10
-6.9861
 20
-40.4539
 30
0.0
 10
-8.9104
 20
-42.3781
 30
0.0
 10
-8.9104
 20
-44.7684
 30
0.0
 10
-8.9104
 20
-44.7684
 30
0.0
 10
-8.9104
 20
-44.7684
 30
0.0
 10
-8.9104
 20
-50.8281
 30
0.0
 10
-8.9104
 20
-50.8281
 30
0.0
 10
-8.9104
 20
-50.8281
 30
0.0
 10
-8.9104
 20
-50.8281
 30
0.0
 10
-2.8026
 20
-50.8761
 30
0.0
 10
-2.8026
 20
-50.8761
 30
0.0
 10
-2.8026
 20
-50.8761
 30
0.0
 10
-0.4124
 20
-50.8761
 30
0.0
 10
1.5118
 20
-48.9519
 30
0.0
 10
1.5118
 20
-46.5616
 30
0.0
 10
1.5118
 20
-46.5616
 30
0.0
 10
1.5118
 20
-46.5616
 30
0.0
 10
1.4879
 20
-40.4539
 30
0.0
 10
1.4879
 20
-40.4539
 30
0.0
  0
SPLINE
  5
B8
330
1F
100
AcDbEntity
  8
layer 1
 62
     7
100
AcDbSpline
210
0.0
220
0.0
230
1.0
 70
    11
 71
     3
 72
    28
 73
    24
 74
     0
 42
0.0000000001
 43
0.0000000001
 12
1.0
 22
0.0
 32
0.0
 13
1.0
 23
0.0
 33
0.0
 40
0.0
 40
0.0
 40
0.0
 40
0.0
 40
0.1428571428571428
 40
0.1428571428571428
 40
0.1428571428571428
 40
0.1428571428571428
 40
0.2857142857142857
 40
0.2857142857142857
 40
0.2857142857142857
 40
0.2857142857142857
 40
0.4285714285714285
 40
0.4285714285714285
 40
0.4285714285714285
 40
0.4285714285714285
 40
0.5714285714285714
 40
0.5714285714285714
 40
0.5714285714285714
 40
0.5714285714285714
 40
0.7142857142857143
 40
0.7142857142857143
 40
0.7142857142857143
 40
0.7142857142857143
 40
1.0
 40
1.0
 40
1.0
 40
1.0
 10
-20.9908
 20
-62.8125
 30
0.0
 10
-20.9908
 20
-62.8125
 30
0.0
 10
-14.9071
 20
-62.8125
 30
0.0
 10
-14.9071
 20
-62.8125
 30
0.0
 10
-14.9071
 20
-62.8125
 30
0.0
 10
-12.5168
 20
-62.8125
 30
0.0
 10
-10.5926
 20
-60.8883
 30
0.0
 10
-10.5926
 20
-58.498
 30
0.0
 10
-10.5926
 20
-58.498
 30
0.0
 10
-10.5926
 20
-58.498
 30
0.0
 10
-10.5926
 20
-52.4383
 30
0.0
 10
-10.5926
 20
-52.4383
 30
0.0
 10
-10.5926
 20
-52.4383
 30
0.0
 10
-10.5926
 20
-52.4383
 30
0.0
 10
-16.7003
 20
-52.3903
 30
0.0
 10
-16.7003
 20
-52.3903
 30
0.0
 10
-16.7003
 20
-52.3903
 30
0.0
 10
-19.0905
 20
-52.3903
 30
0.0
 10
-21.0148
 20
-54.3145
 30
0.0
 10
-21.0148
 20
-56.7048
 30
0.0
 10
-21.0148
 20
-56.7048
 30
0.0
 10
-21.0148
 20
-56.7048
 30
0.0
 10
-20.9908
 20
-62.8125
 30
0.0
 10
-20.9908
 20
-62.8125
 30
0.0
  0
SPLINE
  5
B9
330
1F
100
AcDbEntity
  8
layer 1
 62
     7
100
AcDbSpline
210
0.0
220
0.0
230
1.0
 70
    11
 71
     3
 72
    28
 73
    24
 74
     0
 42
0.0000000001
 43
0.0000000001
 12
1.0
 22
0.0
 32
0.0
 13
1.0
 23
0.0
 33
0.0
 40
0.0
 40
0.0
 40
0.0
 40
0.0
 40
0.1428571428571428
 40
0.1428571428571428
 40
0.1428571428571428
 40
0.1428571428571428
 40
0.2857142857142857
 40
0.2857142857142857
 40
0.2857142857142857
 40
0.2857142857142857
 40
0.4285714285714285
 40
0.4285714285714285
 40
0.4285714285714285
 40
0.4285714285714285
 40
0.5714285714285714
 40
0.5714285714285714
 40
0.5714285714285714
 40
0.5714285714285714
 40
0.7142857142857143
 40
0.7142857142857143
 40
0.7142857142857143
 40
0.7142857142857143
 40
1.0
 40
1.0
 40
1.0
 40
1.0
 10
1.4879
 20
-62.8125
 30
0.0
 10
1.4879
 20
-62.8125
 30
0.0
 10
-4.5959
 20
-62.8125
 30
0.0
 10
-4.5959
 20
-62.8125
 30
0.0
 10
-4.5959
 20
-62.8125
 30
0.0
 10
-6.9861
 20
-62.8125
 30
0.0
 10
-8.9104
 20
-60.8883
 30
0.0
 10
-8.9104
 20
-58.498
 30
0.0
 10
-8.9104
 20
-58.498
 30
0.0
 10
-8.9104
 20
-58.498
 30
0.0
 10
-8.9104
 20
-52.4383
 30
0.0
 10
-8.9104
 20
-52.4383
 30
0.0
 10
-8.9104
 20
-52.4383
 30
0.0
 10
-8.9104
 20
-52.4383
 30
0.0
 10
-2.8026
 20
-52.3903
 30
0.0
 10
-2.8026
 20
-52.3903
 30
0.0
 10
-2.8026
 20
-52.3903
 30
0.0
 10
-0.4124
 20
-52.3903
 30
0.0
 10
1.5118
 20
-54.3145
 30
0.0
 10
1.5118
 20
-56.7048
 30
0.0
 10
1.5118
 20
-56.7048
 30
0.0
 10
1.5118
 20
-56.7048
 30
0.0
 10
1.4879
 20
-62.8125
 30
0.0
 10
1.4879
 20
-62.8125
 30
0.0
  0
SPLINE
  5
BA
330
1F
100
AcDbEntity
  8
layer 1
 62
     7
100
AcDbSpline
210
0.0
220
0.0
230
1.0
 70
    11
 71
     3
 72
    28
 73
    24
 74
     0
 42
0.0000000001
 43
0.0000000001
 12
1.0
 22
0.0
 32
0.0
 13
1.0
 23
0.0
 33
0.0
 40
0.0
 40
0.0
 40
0.0
 40
0.0
 40
0.1428571428571428
 40
0.1428571428571428
 40
0.1428571428571428
 40
0.1428571428571428
 40
0.2857142857142857
 40
0.2857142857142857
 40
0.2857142857142857
 40
0.2857142857142857
 40
0.4285714285714285
 40
0.4285714285714285
 40
0.4285714285714285
 40
0.4285714285714285
 40
0.5714285714285714
 40
0.5714285714285714
 40
0.5714285714285714
 40
0.5714285714285714
 40
0.7142857142857143
 40
0.7142857142857143
 40
0.7142857142857143
 40
0.7142857142857143
 40
1.0
 40
1.0
 40
1.0
 40
1.0
 10
3.0425
 20
-40.4539
 30
0.0
 10
3.0425
 20
-40.4539
 30
0.0
 10
9.1263
 20
-40.4539
 30
0.0
 10
9.1263
 20
-40.4539
 30
0.0
 10
9.1263
 20
-40.4539
 30
0.0
 10
11.5165
 20
-40.4539
 30
0.0
 10
13.4408
 20
-42.3781
 30
0.0
 10
13.4408
 20
-44.7684
 30
0.0
 10
13.4408
 20
-44.7684
 30
0.0
 10
13.4408
 20
-44.7684
 30
0.0
 10
13.4408
 20
-50.8281
 30
0.0
 10
13.4408
 20
-50.8281
 30
0.0
 10
13.4408
 20
-50.8281
 30
0.0
 10
13.4408
 20
-50.8281
 30
0.0
 10
7.333
 20
-50.8761
 30
0.0
 10
7.333
 20
-50.8761
 30
0.0
 10
7.333
 20
-50.8761
 30
0.0
 10
4.9428
 20
-50.8761
 30
0.0
 10
3.0185
 20
-48.9519
 30
0.0
 10
3.0185
 20
-46.5616
 30
0.0
 10
3.0185
 20
-46.5616
 30
0.0
 10
3.0185
 20
-46.5616
 30
0.0
 10
3.0425
 20
-40.4539
 30
0.0
 10
3.0425
 20
-40.4539
 30
0.0
  0
SPLINE
  5
BB
330
1F
100
AcDbEntity
  8
layer 1
 62
     7
100
AcDbSpline
210
0.0
220
0.0
230
1.0
 70
    11
 71
     3
 72
    28
 73
    24
 74
     0
 42
0.0000000001
 43
0.0000000001
 12
1.0
 22
0.0
 32
0.0
 13
1.0
 23
0.0
 33
0.0
 40
0.0
 40
0.0
 40
0.0
 40
0.0
 40
0.1428571428571428
 40
0.1428571428571428
 40
0.1428571428571428
 40
0.1428571428571428
 40
0.2857142857142857
 40
0.2857142857142857
 40
0.2857142857142857
 40
0.2857142857142857
 40
0.4285714285714285
 40
0.4285714285714285
 40
0.4285714285714285
 40
0.4285714285714285
 40
0.5714285714285714
 40
0.5714285714285714
 40
0.5714285714285714
 40
0.5714285714285714
 40
0.7142857142857143
 40
0.7142857142857143
 40
0.7142857142857143
 40
0.7142857142857143
 40
1.0
 40
1.0
 40
1.0
 40
1.0
 10
25.5212
 20
-40.4539
 30
0.0
 10
25.5212
 20
-40.4539
 30
0.0
 10
19.4375
 20
-40.4539
 30
0.0
 10
19.4375
 20
-40.4539
 30
0.0
 10
19.4375
 20
-40.4539
 30
0.0
 10
17.0472
 20
-40.4539
 30
0.0
 10
15.123
 20
-42.3781
 30
0.0
 10
15.123
 20
-44.7684
 30
0.0
 10
15.123
 20
-44.7684
 30
0.0
 10
15.123
 20
-44.7684
 30
0.0
 10
15.123
 20
-50.8281
 30
0.0
 10
15.123
 20
-50.8281
 30
0.0
 10
15.123
 20
-50.8281
 30
0.0
 10
15.123
 20
-50.8281
 30
0.0
 10
21.2307
 20
-50.8761
 30
0.0
 10
21.2307
 20
-50.8761
 30
0.0
 10
21.2307
 20
-50.8761
 30
0.0
 10
23.6209
 20
-50.8761
 30
0.0
 10
25.5452
 20
-48.9519
 30
0.0
 10
25.5452
 20
-46.5616
 30
0.0
 10
25.5452
 20
-46.5616
 30
0.0
 10
25.5452
 20
-46.5616
 30
0.0
 10
25.5212
 20
-40.4539
 30
0.0
 10
25.5212
 20
-40.4539
 30
0.0
  0
SPLINE
  5
BC
330
1F
100
AcDbEntity
  8
layer 1
 62
     7
100
AcDbSpline
210
0.0
220
0.0
230
1.0
 70
    11
 71
     3
 72
    28
 73
    24
 74
     0
 42
0.0000000001
 43
0.0000000001
 12
1.0
 22
0.0
 32
0.0
 13
1.0
 23
0.0
 33
0.0
 40
0.0
 40
0.0
 40
0.0
 40
0.0
 40
0.1428571428571428
 40
0.1428571428571428
 40
0.1428571428571428
 40
0.1428571428571428
 40
0.2857142857142857
 40
0.2857142857142857
 40
0.2857142857142857
 40
0.2857142857142857
 40
0.4285714285714285
 40
0.4285714285714285
 40
0.4285714285714285
 40
0.4285714285714285
 40
0.5714285714285714
 40
0.5714285714285714
 40
0.5714285714285714
 40
0.5714285714285714
 40
0.7142857142857143
 40
0.7142857142857143
 40
0.7142857142857143
 40
0.7142857142857143
 40
1.0
 40
1.0
 40
1.0
 40
1.0
 10
3.0425
 20
-62.8125
 30
0.0
 10
3.0425
 20
-62.8125
 30
0.0
 10
9.1263
 20
-62.8125
 30
0.0
 10
9.1263
 20
-62.8125
 30
0.0
 10
9.1263
 20
-62.8125
 30
0.0
 10
11.5165
 20
-62.8125
 30
0.0
 10
13.4408
 20
-60.8883
 30
0.0
 10
13.4408
 20
-58.498
 30
0.0
 10
13.4408
 20
-58.498
 30
0.0
 10
13.4408
 20
-58.498
 30
0.0
 10
13.4408
 20
-52.4383
 30
0.0
 10
13.4408
 20
-52.4383
 30
0.0
 10
13.4408
 20
-52.4383
 30
0.0
 10
13.4408
 20
-52.4383
 30
0.0
 10
7.333
 20
-52.3903
 30
0.0
 10
7.333
 20
-52.3903
 30
0.0
 10
7.333
 20
-52.3903
 30
0.0
 10
4.9428
 20
-52.3903
 30
0.0
 10
3.0185
 20
-54.3145
 30
0.0
 10
3.0185
 20
-56.7048
 30
0.0
 10
3.0185
 20
-56.7048
 30
0.0
 10
3.0185
 20
-56.7048
 30
0.0
 10
3.0425
 20
-62.8125
 30
0.0
 10
3.0425
 20
-62.8125
 30
0.0
  0
SPLINE
  5
BD
330
1F
100
AcDbEntity
  8
layer 1
 62
     7
100
AcDbSpline
210
0.0
220
0.0
230
1.0
 70
    11
 71
     3
 72
    28
 73
    24
 74
     0
 42
0.0000000001
 43
0.0000000001
 12
1.0
 22
0.0
 32
0.0
 13
1.0
 23
0.0
 33
0.0
 40
0.0
 40
0.0
 40
0.0
 40
0.0
 40
0.1428571428571428
 40
0.1428571428571428
 40
0.1428571428571428
 40
0.1428571428571428
 40
0.2857142857142857
 40
0.2857142857142857
 40
0.2857142857142857
 40
0.2857142857142857
 40
0.4285714285714285
 40
0.4285714285714285
 40
0.4285714285714285
 40
0.4285714285714285
 40
0.5714285714285714
 40
0.5714285714285714
 40
0.5714285714285714
 40
0.5714285714285714
 40
0.7142857142857143
 40
0.7142857142857143
 40
0.7142857142857143
 40
0.7142857142857143
 40
1.0
 40
1.0
 40
1.0
 40
1.0
 10
25.5212
 20
-62.8125
 30
0.0
 10
25.5212
 20
-62.8125
 30
0.0
 10
19.4375
 20
-62.8125
 30
0.0
 10
19.4375
 20
-62.8125
 30
0.0
 10
19.4375
 20
-62.8125
 30
0.0
 10
17.0472
 20
-62.8125
 30
0.0
 10
15.123
 20
-60.8883
 30
0.0
 10
15.123
 20
-58.498
 30
0.0
 10
15.123
 20
-58.498
 30
0.0
 10
15.123
 20
-58.498
 30
0.0
 10
15.123
 20
-52.4383
 30
0.0
 10
15.123
 20
-52.4383
 30
0.0
 10
15.123
 20
-52.4383
 30
0.0
 10
15.123
 20
-52.4383
 30
0.0
 10
21.2307
 20
-52.3903
 30
0.0
 10
21.2307
 20
-52.3903
 30
0.0
 10
21.2307
 20
-52.3903
 30
0.0
 10
23.6209
 20
-52.3903
 30
0.0
 10
25.5452
 20
-54.3145
 30
0.0
 10
25.5452
 20
-56.7048
 30
0.0
 10
25.5452
 20
-56.7048
 30
0.0
 10
25.5452
 20
-56.7048
 30
0.0
 10
25.5212
 20
-62.8125
 30
0.0
 10
25.5212
 20
-62.8125
 30
0.0
  0
SPLINE
  5
BE
330
1F
100
AcDbEntity
  8
layer 1
 62
     7
100
AcDbSpline
210
0.0
220
0.0
230
1.0
 70
    11
 71
     3
 72
    28
 73
    24
 74
     0
 42
0.0000000001
 43
0.0000000001
 12
1.0
 22
0.0
 32
0.0
 13
1.0
 23
0.0
 33
0.0
 40
0.0
 40
0.0
 40
0.0
 40
0.0
 40
0.1428571428571428
 40
0.1428571428571428
 40
0.1428571428571428
 40
0.1428571428571428
 40
0.2857142857142857
 40
0.2857142857142857
 40
0.2857142857142857
 40
0.2857142857142857
 40
0.4285714285714285
 40
0.4285714285714285
 40
0.4285714285714285
 40
0.4285714285714285
 40
0.5714285714285714
 40
0.5714285714285714
 40
0.5714285714285714
 40
0.5714285714285714
 40
0.7142857142857143
 40
0.7142857142857143
 40
0.7142857142857143
 40
0.7142857142857143
 40
1.0
 40
1.0
 40
1.0
 40
1.0
 10
26.9065
 20
-40.4539
 30
0.0
 10
26.9065
 20
-40.4539
 30
0.0
 10
32.9902
 20
-40.4539
 30
0.0
 10
32.9902
 20
-40.4539
 30
0.0
 10
32.9902
 20
-40.4539
 30
0.0
 10
35.3805
 20
-40.4539
 30
0.0
 10
37.3047
 20
-42.3781
 30
0.0
 10
37.3047
 20
-44.7684
 30
0.0
 10
37.3047
 20
-44.7684
 30
0.0
 10
37.3047
 20
-44.7684
 30
0.0
 10
37.3047
 20
-50.8281
 30
0.0
 10
37.3047
 20
-50.8281
 30
0.0
 10
37.3047
 20
-50.8281
 30
0.0
 10
37.3047
 20
-50.8281
 30
0.0
 10
31.197
 20
-50.8761
 30
0.0
 10
31.197
 20
-50.8761
 30
0.0
 10
31.197
 20
-50.8761
 30
0.0
 10
28.8067
 20
-50.8761
 30
0.0
 10
26.8825
 20
-48.9519
 30
0.0
 10
26.8825
 20
-46.5616
 30
0.0
 10
26.8825
 20
-46.5616
 30
0.0
 10
26.8825
 20
-46.5616
 30
0.0
 10
26.9065
 20
-40.4539
 30
0.0
 10
26.9065
 20
-40.4539
 30
0.0
  0
SPLINE
  5
BF
330
1F
100
AcDbEntity
  8
layer 1
 62
     7
100
AcDbSpline
210
0.0
220
0.0
230
1.0
 70
    11
 71
     3
 72
    28
 73
    24
 74
     0
 42
0.0000000001
 43
0.0000000001
 12
1.0
 22
0.0
 32
0.0
 13
1.0
 23
0.0
 33
0.0
 40
0.0
 40
0.0
 40
0.0
 40
0.0
 40
0.1428571428571428
 40
0.1428571428571428
 40
0.1428571428571428
 40
0.1428571428571428
 40
0.2857142857142857
 40
0.2857142857142857
 40
0.2857142857142857
 40
0.2857142857142857
 40
0.4285714285714285
 40
0.4285714285714285
 40
0.4285714285714285
 40
0.4285714285714285
 40
0.5714285714285714
 40
0.5714285714285714
 40
0.5714285714285714
 40
0.5714285714285714
 40
0.7142857142857143
 40
0.7142857142857143
 40
0.7142857142857143
 40
0.7142857142857143
 40
1.0
 40
1.0
 40
1.0
 40
1.0
 10
49.3852
 20
-40.4539
 30
0.0
 10
49.3852
 20
-40.4539
 30
0.0
 10
43.3014
 20
-40.4539
 30
0.0
 10
43.3014
 20
-40.4539
 30
0.0
 10
43.3014
 20
-40.4539
 30
0.0
 10
40.9112
 20
-40.4539
 30
0.0
 10
38.9869
 20
-42.3781
 30
0.0
 10
38.9869
 20
-44.7684
 30
0.0
 10
38.9869
 20
-44.7684
 30
0.0
 10
38.9869
 20
-44.7684
 30
0.0
 10
38.9869
 20
-50.8281
 30
0.0
 10
38.9869
 20
-50.8281
 30
0.0
 10
38.9869
 20
-50.8281
 30
0.0
 10
38.9869
 20
-50.8281
 30
0.0
 10
45.0947
 20
-50.8761
 30
0.0
 10
45.0947
 20
-50.8761
 30
0.0
 10
45.0947
 20
-50.8761
 30
0.0
 10
47.4849
 20
-50.8761
 30
0.0
 10
49.4091
 20
-48.9519
 30
0.0
 10
49.4091
 20
-46.5616
 30
0.0
 10
49.4091
 20
-46.5616
 30
0.0
 10
49.4091
 20
-46.5616
 30
0.0
 10
49.3852
 20
-40.4539
 30
0.0
 10
49.3852
 20
-40.4539
 30
0.0
  0
SPLINE
  5
C0
330
1F
100
AcDbEntity
  8
layer 1
 62
     7
100
AcDbSpline
210
0.0
220
0.0
230
1.0
 70
    11
 71
     3
 72
    28
 73
    24
 74
     0
 42
0.0000000001
 43
0.0000000001
 12
1.0
 22
0.0
 32
0.0
 13
1.0
 23
0.0
 33
0.0
 40
0.0
 40
0.0
 40
0.0
 40
0.0
 40
0.1428571428571428
 40
0.1428571428571428
 40
0.1428571428571428
 40
0.1428571428571428
 40
0.2857142857142857
 40
0.2857142857142857
 40
0.2857142857142857
 40
0.2857142857142857
 40
0.4285714285714285
 40
0.4285714285714285
 40
0.4285714285714285
 40
0.4285714285714285
 40
0.5714285714285714
 40
0.5714285714285714
 40
0.5714285714285714
 40
0.5714285714285714
 40
0.7142857142857143
 40
0.7142857142857143
 40
0.7142857142857143
 40
0.7142857142857143
 40
1.0
 40
1.0
 40
1.0
 40
1.0
 10
26.9065
 20
-62.8125
 30
0.0
 10
26.9065
 20
-62.8125
 30
0.0
 10
32.9902
 20
-62.8125
 30
0.0
 10
32.9902
 20
-62.8125
 30
0.0
 10
32.9902
 20
-62.8125
 30
0.0
 10
35.3805
 20
-62.8125
 30
0.0
 10
37.3047
 20
-60.8883
 30
0.0
 10
37.3047
 20
-58.498
 30
0.0
 10
37.3047
 20
-58.498
 30
0.0
 10
37.3047
 20
-58.498
 30
0.0
 10
37.3047
 20
-52.4383
 30
0.0
 10
37.3047
 20
-52.4383
 30
0.0
 10
37.3047
 20
-52.4383
 30
0.0
 10
37.3047
 20
-52.4383
 30
0.0
 10
31.197
 20
-52.3903
 30
0.0
 10
31.197
 20
-52.3903
 30
0.0
 10
31.197
 20
-52.3903
 30
0.0
 10
28.8067
 20
-52.3903
 30
0.0
 10
26.8825
 20
-54.3145
 30
0.0
 10
26.8825
 20
-56.7048
 30
0.0
 10
26.8825
 20
-56.7048
 30
0.0
 10
26.8825
 20
-56.7048
 30
0.0
 10
26.9065
 20
-62.8125
 30
0.0
 10
26.9065
 20
-62.8125
 30
0.0
  0
SPLINE
  5
C1
330
1F
100
AcDbEntity
  8
layer 1
 62
     7
100
AcDbSpline
210
0.0
220
0.0
230
1.0
 70
    11
 71
     3
 72
    28
 73
    24
 74
     0
 42
0.0000000001
 43
0.0000000001
 12
1.0
 22
0.0
 32
0.0
 13
1.0
 23
0.0
 33
0.0
 40
0.0
 40
0.0
 40
0.0
 40
0.0
 40
0.1428571428571428
 40
0.1428571428571428
 40
0.1428571428571428
 40
0.1428571428571428
 40
0.2857142857142857
 40
0.2857142857142857
 40
0.2857142857142857
 40
0.2857142857142857
 40
0.4285714285714285
 40
0.4285714285714285
 40
0.4285714285714285
 40
0.4285714285714285
 40
0.5714285714285714
 40
0.5714285714285714
 40
0.5714285714285714
 40
0.5714285714285714
 40
0.7142857142857143
 40
0.7142857142857143
 40
0.7142857142857143
 40
0.7142857142857143
 40
1.0
 40
1.0
 40
1.0
 40
1.0
 10
49.3852
 20
-62.8125
 30
0.0
 10
49.3852
 20
-62.8125
 30
0.0
 10
43.3014
 20
-62.8125
 30
0.0
 10
43.3014
 20
-62.8125
 30
0.0
 10
43.3014
 20
-62.8125
 30
0.0
 10
40.9112
 20
-62.8125
 30
0.0
 10
38.9869
 20
-60.8883
 30
0.0
 10
38.9869
 20
-58.498
 30
0.0
 10
38.9869
 20
-58.498
 30
0.0
 10
38.9869
 20
-58.498
 30
0.0
 10
38.9869
 20
-52.4383
 30
0.0
 10
38.9869
 20
-52.4383
 30
0.0
 10
38.9869
 20
-52.4383
 30
0.0
 10
38.9869
 20
-52.4383
 30
0.0
 10
45.0947
 20
-52.3903
 30
0.0
 10
45.0947
 20
-52.3903
 30
0.0
 10
45.0947
 20
-52.3903
 30
0.0
 10
47.4849
 20
-52.3903
 30
0.0
 10
49.4091
 20
-54.3145
 30
0.0
 10
49.4091
 20
-56.7048
 30
0.0
 10
49.4091
 20
-56.7048
 30
0.0
 10
49.4091
 20
-56.7048
 30
0.0
 10
49.3852
 20
-62.8125
 30
0.0
 10
49.3852
 20
-62.8125
 30
0.0
  0
SPLINE
  5
C2
330
1F
100
AcDbEntity
  8
layer 1
 62
     7
100
AcDbSpline
210
0.0
220
0.0
230
1.0
 70
    11
 71
     3
 72
    28
 73
    24
 74
     0
 42
0.0000000001
 43
0.0000000001
 12
1.0
 22
0.0
 32
0.0
 13
1.0
 23
0.0
 33
0.0
 40
0.0
 40
0.0
 40
0.0
 40
0.0
 40
0.1428571428571428
 40
0.1428571428571428
 40
0.1428571428571428
 40
0.1428571428571428
 40
0.2857142857142857
 40
0.2857142857142857
 40
0.2857142857142857
 40
0.2857142857142857
 40
0.4285714285714285
 40
0.4285714285714285
 40
0.4285714285714285
 40
0.4285714285714285
 40
0.5714285714285714
 40
0.5714285714285714
 40
0.5714285714285714
 40
0.5714285714285714
 40
0.7142857142857143
 40
0.7142857142857143
 40
0.7142857142857143
 40
0.7142857142857143
 40
1.0
 40
1.0
 40
1.0
 40
1.0
 10
-45.1259
 20
-64.5767
 30
0.0
 10
-45.1259
 20
-64.5767
 30
0.0
 10
-39.0421
 20
-64.5767
 30
0.0
 10
-39.0421
 20
-64.5767
 30
0.0
 10
-39.0421
 20
-64.5767
 30
0.0
 10
-36.6519
 20
-64.5767
 30
0.0
 10
-34.7276
 20
-66.5009
 30
0.0
 10
-34.7276
 20
-68.8912
 30
0.0
 10
-34.7276
 20
-68.8912
 30
0.0
 10
-34.7276
 20
-68.8912
 30
0.0
 10
-34.7276
 20
-74.9509
 30
0.0
 10
-34.7276
 20
-74.9509
 30
0.0
 10
-34.7276
 20
-74.9509
 30
0.0
 10
-34.7276
 20
-74.9509
 30
0.0
 10
-40.8354
 20
-74.9989
 30
0.0
 10
-40.8354
 20
-74.9989
 30
0.0
 10
-40.8354
 20
-74.9989
 30
0.0
 10
-43.2256
 20
-74.9989
 30
0.0
 10
-45.1499
 20
-73.0747
 30
0.0
 10
-45.1499
 20
-70.6844
 30
0.0
 10
-45.1499
 20
-70.6844
 30
0.0
 10
-45.1499
 20
-70.6844
 30
0.0
 10
-45.1259
 20
-64.5767
 30
0.0
 10
-45.1259
 20
-64.5767
 30
0.0
  0
SPLINE
  5
C3
330
1F
100
AcDbEntity
  8
layer 1
 62
     7
100
AcDbSpline
210
0.0
220
0.0
230
1.0
 70
    11
 71
     3
 72
    28
 73
    24
 74
     0
 42
0.0000000001
 43
0.0000000001
 12
1.0
 22
0.0
 32
0.0
 13
1.0
 23
0.0
 33
0.0
 40
0.0
 40
0.0
 40
0.0
 40
0.0
 40
0.1428571428571428
 40
0.1428571428571428
 40
0.1428571428571428
 40
0.1428571428571428
 40
0.2857142857142857
 40
0.2857142857142857
 40
0.2857142857142857
 40
0.2857142857142857
 40
0.4285714285714285
 40
0.4285714285714285
 40
0.4285714285714285
 40
0.4285714285714285
 40
0.5714285714285714
 40
0.5714285714285714
 40
0.5714285714285714
 40
0.5714285714285714
 40
0.7142857142857143
 40
0.7142857142857143
 40
0.7142857142857143
 40
0.7142857142857143
 40
1.0
 40
1.0
 40
1.0
 40
1.0
 10
-22.6472
 20
-64.5767
 30
0.0
 10
-22.6472
 20
-64.5767
 30
0.0
 10
-28.731
 20
-64.5767
 30
0.0
 10
-28.731
 20
-64.5767
 30
0.0
 10
-28.731
 20
-64.5767
 30
0.0
 10
-31.1212
 20
-64.5767
 30
0.0
 10
-33.0455
 20
-66.5009
 30
0.0
 10
-33.0455
 20
-68.8912
 30
0.0
 10
-33.0455
 20
-68.8912
 30
0.0
 10
-33.0455
 20
-68.8912
 30
0.0
 10
-33.0455
 20
-74.9509
 30
0.0
 10
-33.0455
 20
-74.9509
 30
0.0
 10
-33.0455
 20
-74.9509
 30
0.0
 10
-33.0455
 20
-74.9509
 30
0.0
 10
-26.9377
 20
-74.9989
 30
0.0
 10
-26.9377
 20
-74.9989
 30
0.0
 10
-26.9377
 20
-74.9989
 30
0.0
 10
-24.5475
 20
-74.9989
 30
0.0
 10
-22.6232
 20
-73.0747
 30
0.0
 10
-22.6232
 20
-70.6844
 30
0.0
 10
-22.6232
 20
-70.6844
 30
0.0
 10
-22.6232
 20
-70.6844
 30
0.0
 10
-22.6472
 20
-64.5767
 30
0.0
 10
-22.6472
 20
-64.5767
 30
0.0
  0
SPLINE
  5
C4
330
1F
100
AcDbEntity
  8
layer 1
 62
     7
100
AcDbSpline
210
0.0
220
0.0
230
1.0
 70
    11
 71
     3
 72
    28
 73
    24
 74
     0
 42
0.0000000001
 43
0.0000000001
 12
1.0
 22
0.0
 32
0.0
 13
1.0
 23
0.0
 33
0.0
 40
0.0
 40
0.0
 40
0.0
 40
0.0
 40
0.1428571428571428
 40
0.1428571428571428
 40
0.1428571428571428
 40
0.1428571428571428
 40
0.2857142857142857
 40
0.2857142857142857
 40
0.2857142857142857
 40
0.2857142857142857
 40
0.4285714285714285
 40
0.4285714285714285
 40
0.4285714285714285
 40
0.4285714285714285
 40
0.5714285714285714
 40
0.5714285714285714
 40
0.5714285714285714
 40
0.5714285714285714
 40
0.7142857142857143
 40
0.7142857142857143
 40
0.7142857142857143
 40
0.7142857142857143
 40
1.0
 40
1.0
 40
1.0
 40
1.0
 10
-45.1259
 20
-86.9354
 30
0.0
 10
-45.1259
 20
-86.9354
 30
0.0
 10
-39.0421
 20
-86.9354
 30
0.0
 10
-39.0421
 20
-86.9354
 30
0.0
 10
-39.0421
 20
-86.9354
 30
0.0
 10
-36.6519
 20
-86.9354
 30
0.0
 10
-34.7276
 20
-85.0111
 30
0.0
 10
-34.7276
 20
-82.6209
 30
0.0
 10
-34.7276
 20
-82.6209
 30
0.0
 10
-34.7276
 20
-82.6209
 30
0.0
 10
-34.7276
 20
-76.5611
 30
0.0
 10
-34.7276
 20
-76.5611
 30
0.0
 10
-34.7276
 20
-76.5611
 30
0.0
 10
-34.7276
 20
-76.5611
 30
0.0
 10
-40.8354
 20
-76.5131
 30
0.0
 10
-40.8354
 20
-76.5131
 30
0.0
 10
-40.8354
 20
-76.5131
 30
0.0
 10
-43.2256
 20
-76.5131
 30
0.0
 10
-45.1499
 20
-78.4374
 30
0.0
 10
-45.1499
 20
-80.8276
 30
0.0
 10
-45.1499
 20
-80.8276
 30
0.0
 10
-45.1499
 20
-80.8276
 30
0.0
 10
-45.1259
 20
-86.9354
 30
0.0
 10
-45.1259
 20
-86.9354
 30
0.0
  0
SPLINE
  5
C5
330
1F
100
AcDbEntity
  8
layer 1
 62
     7
100
AcDbSpline
210
0.0
220
0.0
230
1.0
 70
    11
 71
     3
 72
    28
 73
    24
 74
     0
 42
0.0000000001
 43
0.0000000001
 12
1.0
 22
0.0
 32
0.0
 13
1.0
 23
0.0
 33
0.0
 40
0.0
 40
0.0
 40
0.0
 40
0.0
 40
0.1428571428571428
 40
0.1428571428571428
 40
0.1428571428571428
 40
0.1428571428571428
 40
0.2857142857142857
 40
0.2857142857142857
 40
0.2857142857142857
 40
0.2857142857142857
 40
0.4285714285714285
 40
0.4285714285714285
 40
0.4285714285714285
 40
0.4285714285714285
 40
0.5714285714285714
 40
0.5714285714285714
 40
0.5714285714285714
 40
0.5714285714285714
 40
0.7142857142857143
 40
0.7142857142857143
 40
0.7142857142857143
 40
0.7142857142857143
 40
1.0
 40
1.0
 40
1.0
 40
1.0
 10
-22.6472
 20
-86.9354
 30
0.0
 10
-22.6472
 20
-86.9354
 30
0.0
 10
-28.731
 20
-86.9354
 30
0.0
 10
-28.731
 20
-86.9354
 30
0.0
 10
-28.731
 20
-86.9354
 30
0.0
 10
-31.1212
 20
-86.9354
 30
0.0
 10
-33.0455
 20
-85.0111
 30
0.0
 10
-33.0455
 20
-82.6209
 30
0.0
 10
-33.0455
 20
-82.6209
 30
0.0
 10
-33.0455
 20
-82.6209
 30
0.0
 10
-33.0455
 20
-76.5611
 30
0.0
 10
-33.0455
 20
-76.5611
 30
0.0
 10
-33.0455
 20
-76.5611
 30
0.0
 10
-33.0455
 20
-76.5611
 30
0.0
 10
-26.9377
 20
-76.5131
 30
0.0
 10
-26.9377
 20
-76.5131
 30
0.0
 10
-26.9377
 20
-76.5131
 30
0.0
 10
-24.5475
 20
-76.5131
 30
0.0
 10
-22.6232
 20
-78.4374
 30
0.0
 10
-22.6232
 20
-80.8276
 30
0.0
 10
-22.6232
 20
-80.8276
 30
0.0
 10
-22.6232
 20
-80.8276
 30
0.0
 10
-22.6472
 20
-86.9354
 30
0.0
 10
-22.6472
 20
-86.9354
 30
0.0
  0
SPLINE
  5
C6
330
1F
100
AcDbEntity
  8
layer 1
 62
     7
100
AcDbSpline
210
0.0
220
0.0
230
1.0
 70
    11
 71
     3
 72
    28
 73
    24
 74
     0
 42
0.0000000001
 43
0.0000000001
 12
1.0
 22
0.0
 32
0.0
 13
1.0
 23
0.0
 33
0.0
 40
0.0
 40
0.0
 40
0.0
 40
0.0
 40
0.1428571428571428
 40
0.1428571428571428
 40
0.1428571428571428
 40
0.1428571428571428
 40
0.2857142857142857
 40
0.2857142857142857
 40
0.2857142857142857
 40
0.2857142857142857
 40
0.4285714285714285
 40
0.4285714285714285
 40
0.4285714285714285
 40
0.4285714285714285
 40
0.5714285714285714
 40
0.5714285714285714
 40
0.5714285714285714
 40
0.5714285714285714
 40
0.7142857142857143
 40
0.7142857142857143
 40
0.7142857142857143
 40
0.7142857142857143
 40
1.0
 40
1.0
 40
1.0
 40
1.0
 10
-20.9908
 20
-64.5767
 30
0.0
 10
-20.9908
 20
-64.5767
 30
0.0
 10
-14.9071
 20
-64.5767
 30
0.0
 10
-14.9071
 20
-64.5767
 30
0.0
 10
-14.9071
 20
-64.5767
 30
0.0
 10
-12.5168
 20
-64.5767
 30
0.0
 10
-10.5926
 20
-66.5009
 30
0.0
 10
-10.5926
 20
-68.8912
 30
0.0
 10
-10.5926
 20
-68.8912
 30
0.0
 10
-10.5926
 20
-68.8912
 30
0.0
 10
-10.5926
 20
-74.9509
 30
0.0
 10
-10.5926
 20
-74.9509
 30
0.0
 10
-10.5926
 20
-74.9509
 30
0.0
 10
-10.5926
 20
-74.9509
 30
0.0
 10
-16.7003
 20
-74.9989
 30
0.0
 10
-16.7003
 20
-74.9989
 30
0.0
 10
-16.7003
 20
-74.9989
 30
0.0
 10
-19.0905
 20
-74.9989
 30
0.0
 10
-21.0148
 20
-73.0747
 30
0.0
 10
-21.0148
 20
-70.6844
 30
0.0
 10
-21.0148
 20
-70.6844
 30
0.0
 10
-21.0148
 20
-70.6844
 30
0.0
 10
-20.9908
 20
-64.5767
 30
0.0
 10
-20.9908
 20
-64.5767
 30
0.0
  0
SPLINE
  5
C7
330
1F
100
AcDbEntity
  8
layer 1
 62
     7
100
AcDbSpline
210
0.0
220
0.0
230
1.0
 70
    11
 71
     3
 72
    28
 73
    24
 74
     0
 42
0.0000000001
 43
0.0000000001
 12
1.0
 22
0.0
 32
0.0
 13
1.0
 23
0.0
 33
0.0
 40
0.0
 40
0.0
 40
0.0
 40
0.0
 40
0.1428571428571428
 40
0.1428571428571428
 40
0.1428571428571428
 40
0.1428571428571428
 40
0.2857142857142857
 40
0.2857142857142857
 40
0.2857142857142857
 40
0.2857142857142857
 40
0.4285714285714285
 40
0.4285714285714285
 40
0.4285714285714285
 40
0.4285714285714285
 40
0.5714285714285714
 40
0.5714285714285714
 40
0.5714285714285714
 40
0.5714285714285714
 40
0.7142857142857143
 40
0.7142857142857143
 40
0.7142857142857143
 40
0.7142857142857143
 40
1.0
 40
1.0
 40
1.0
 40
1.0
 10
1.4879
 20
-64.5767
 30
0.0
 10
1.4879
 20
-64.5767
 30
0.0
 10
-4.5959
 20
-64.5767
 30
0.0
 10
-4.5959
 20
-64.5767
 30
0.0
 10
-4.5959
 20
-64.5767
 30
0.0
 10
-6.9861
 20
-64.5767
 30
0.0
 10
-8.9104
 20
-66.5009
 30
0.0
 10
-8.9104
 20
-68.8912
 30
0.0
 10
-8.9104
 20
-68.8912
 30
0.0
 10
-8.9104
 20
-68.8912
 30
0.0
 10
-8.9104
 20
-74.9509
 30
0.0
 10
-8.9104
 20
-74.9509
 30
0.0
 10
-8.9104
 20
-74.9509
 30
0.0
 10
-8.9104
 20
-74.9509
 30
0.0
 10
-2.8026
 20
-74.9989
 30
0.0
 10
-2.8026
 20
-74.9989
 30
0.0
 10
-2.8026
 20
-74.9989
 30
0.0
 10
-0.4124
 20
-74.9989
 30
0.0
 10
1.5118
 20
-73.0747
 30
0.0
 10
1.5118
 20
-70.6844
 30
0.0
 10
1.5118
 20
-70.6844
 30
0.0
 10
1.5118
 20
-70.6844
 30
0.0
 10
1.4879
 20
-64.5767
 30
0.0
 10
1.4879
 20
-64.5767
 30
0.0
  0
SPLINE
  5
C8
330
1F
100
AcDbEntity
  8
layer 1
 62
     7
100
AcDbSpline
210
0.0
220
0.0
230
1.0
 70
    11
 71
     3
 72
    28
 73
    24
 74
     0
 42
0.0000000001
 43
0.0000000001
 12
1.0
 22
0.0
 32
0.0
 13
1.0
 23
0.0
 33
0.0
 40
0.0
 40
0.0
 40
0.0
 40
0.0
 40
0.1428571428571428
 40
0.1428571428571428
 40
0.1428571428571428
 40
0.1428571428571428
 40
0.2857142857142857
 40
0.2857142857142857
 40
0.2857142857142857
 40
0.2857142857142857
 40
0.4285714285714285
 40
0.4285714285714285
 40
0.4285714285714285
 40
0.4285714285714285
 40
0.5714285714285714
 40
0.5714285714285714
 40
0.5714285714285714
 40
0.5714285714285714
 40
0.7142857142857143
 40
0.7142857142857143
 40
0.7142857142857143
 40
0.7142857142857143
 40
1.0
 40
1.0
 40
1.0
 40
1.0
 10
-20.9908
 20
-86.9354
 30
0.0
 10
-20.9908
 20
-86.9354
 30
0.0
 10
-14.9071
 20
-86.9354
 30
0.0
 10
-14.9071
 20
-86.9354
 30
0.0
 10
-14.9071
 20
-86.9354
 30
0.0
 10
-12.5168
 20
-86.9354
 30
0.0
 10
-10.5926
 20
-85.0111
 30
0.0
 10
-10.5926
 20
-82.6209
 30
0.0
 10
-10.5926
 20
-82.6209
 30
0.0
 10
-10.5926
 20
-82.6209
 30
0.0
 10
-10.5926
 20
-76.5611
 30
0.0
 10
-10.5926
 20
-76.5611
 30
0.0
 10
-10.5926
 20
-76.5611
 30
0.0
 10
-10.5926
 20
-76.5611
 30
0.0
 10
-16.7003
 20
-76.5131
 30
0.0
 10
-16.7003
 20
-76.5131
 30
0.0
 10
-16.7003
 20
-76.5131
 30
0.0
 10
-19.0905
 20
-76.5131
 30
0.0
 10
-21.0148
 20
-78.4374
 30
0.0
 10
-21.0148
 20
-80.8276
 30
0.0
 10
-21.0148
 20
-80.8276
 30
0.0
 10
-21.0148
 20
-80.8276
 30
0.0
 10
-20.9908
 20
-86.9354
 30
0.0
 10
-20.9908
 20
-86.9354
 30
0.0
  0
SPLINE
  5
C9
330
1F
100
AcDbEntity
  8
layer 1
 62
     7
100
AcDbSpline
210
0.0
220
0.0
230
1.0
 70
    11
 71
     3
 72
    28
 73
    24
 74
     0
 42
0.0000000001
 43
0.0000000001
 12
1.0
 22
0.0
 32
0.0
 13
1.0
 23
0.0
 33
0.0
 40
0.0
 40
0.0
 40
0.0
 40
0.0
 40
0.1428571428571428
 40
0.1428571428571428
 40
0.1428571428571428
 40
0.1428571428571428
 40
0.2857142857142857
 40
0.2857142857142857
 40
0.2857142857142857
 40
0.2857142857142857
 40
0.4285714285714285
 40
0.4285714285714285
 40
0.4285714285714285
 40
0.4285714285714285
 40
0.5714285714285714
 40
0.5714285714285714
 40
0.5714285714285714
 40
0.5714285714285714
 40
0.7142857142857143
 40
0.7142857142857143
 40
0.7142857142857143
 40
0.7142857142857143
 40
1.0
 40
1.0
 40
1.0
 40
1.0
 10
1.4879
 20
-86.9354
 30
0.0
 10
1.4879
 20
-86.9354
 30
0.0
 10
-4.5959
 20
-86.9354
 30
0.0
 10
-4.5959
 20
-86.9354
 30
0.0
 10
-4.5959
 20
-86.9354
 30
0.0
 10
-6.9861
 20
-86.9354
 30
0.0
 10
-8.9104
 20
-85.0111
 30
0.0
 10
-8.9104
 20
-82.6209
 30
0.0
 10
-8.9104
 20
-82.6209
 30
0.0
 10
-8.9104
 20
-82.6209
 30
0.0
 10
-8.9104
 20
-76.5611
 30
0.0
 10
-8.9104
 20
-76.5611
 30
0.0
 10
-8.9104
 20
-76.5611
 30
0.0
 10
-8.9104
 20
-76.5611
 30
0.0
 10
-2.8026
 20
-76.5131
 30
0.0
 10
-2.8026
 20
-76.5131
 30
0.0
 10
-2.8026
 20
-76.5131
 30
0.0
 10
-0.4124
 20
-76.5131
 30
0.0
 10
1.5118
 20
-78.4374
 30
0.0
 10
1.5118
 20
-80.8276
 30
0.0
 10
1.5118
 20
-80.8276
 30
0.0
 10
1.5118
 20
-80.8276
 30
0.0
 10
1.4879
 20
-86.9354
 30
0.0
 10
1.4879
 20
-86.9354
 30
0.0
  0
SPLINE
  5
CA
330
1F
100
AcDbEntity
  8
layer 1
 62
     7
100
AcDbSpline
210
0.0
220
0.0
230
1.0
 70
    11
 71
     3
 72
    28
 73
    24
 74
     0
 42
0.0000000001
 43
0.0000000001
 12
1.0
 22
0.0
 32
0.0
 13
1.0
 23
0.0
 33
0.0
 40
0.0
 40
0.0
 40
0.0
 40
0.0
 40
0.1428571428571428
 40
0.1428571428571428
 40
0.1428571428571428
 40
0.1428571428571428
 40
0.2857142857142857
 40
0.2857142857142857
 40
0.2857142857142857
 40
0.2857142857142857
 40
0.4285714285714285
 40
0.4285714285714285
 40
0.4285714285714285
 40
0.4285714285714285
 40
0.5714285714285714
 40
0.5714285714285714
 40
0.5714285714285714
 40
0.5714285714285714
 40
0.7142857142857143
 40
0.7142857142857143
 40
0.7142857142857143
 40
0.7142857142857143
 40
1.0
 40
1.0
 40
1.0
 40
1.0
 10
3.0425
 20
-64.5767
 30
0.0
 10
3.0425
 20
-64.5767
 30
0.0
 10
9.1263
 20
-64.5767
 30
0.0
 10
9.1263
 20
-64.5767
 30
0.0
 10
9.1263
 20
-64.5767
 30
0.0
 10
11.5165
 20
-64.5767
 30
0.0
 10
13.4408
 20
-66.5009
 30
0.0
 10
13.4408
 20
-68.8912
 30
0.0
 10
13.4408
 20
-68.8912
 30
0.0
 10
13.4408
 20
-68.8912
 30
0.0
 10
13.4408
 20
-74.9509
 30
0.0
 10
13.4408
 20
-74.9509
 30
0.0
 10
13.4408
 20
-74.9509
 30
0.0
 10
13.4408
 20
-74.9509
 30
0.0
 10
7.333
 20
-74.9989
 30
0.0
 10
7.333
 20
-74.9989
 30
0.0
 10
7.333
 20
-74.9989
 30
0.0
 10
4.9428
 20
-74.9989
 30
0.0
 10
3.0185
 20
-73.0747
 30
0.0
 10
3.0185
 20
-70.6844
 30
0.0
 10
3.0185
 20
-70.6844
 30
0.0
 10
3.0185
 20
-70.6844
 30
0.0
 10
3.0425
 20
-64.5767
 30
0.0
 10
3.0425
 20
-64.5767
 30
0.0
  0
SPLINE
  5
CB
330
1F
100
AcDbEntity
  8
layer 1
 62
     7
100
AcDbSpline
210
0.0
220
0.0
230
1.0
 70
    11
 71
     3
 72
    28
 73
    24
 74
     0
 42
0.0000000001
 43
0.0000000001
 12
1.0
 22
0.0
 32
0.0
 13
1.0
 23
0.0
 33
0.0
 40
0.0
 40
0.0
 40
0.0
 40
0.0
 40
0.1428571428571428
 40
0.1428571428571428
 40
0.1428571428571428
 40
0.1428571428571428
 40
0.2857142857142857
 40
0.2857142857142857
 40
0.2857142857142857
 40
0.2857142857142857
 40
0.4285714285714285
 40
0.4285714285714285
 40
0.4285714285714285
 40
0.4285714285714285
 40
0.5714285714285714
 40
0.5714285714285714
 40
0.5714285714285714
 40
0.5714285714285714
 40
0.7142857142857143
 40
0.7142857142857143
 40
0.7142857142857143
 40
0.7142857142857143
 40
1.0
 40
1.0
 40
1.0
 40
1.0
 10
25.5212
 20
-64.5767
 30
0.0
 10
25.5212
 20
-64.5767
 30
0.0
 10
19.4375
 20
-64.5767
 30
0.0
 10
19.4375
 20
-64.5767
 30
0.0
 10
19.4375
 20
-64.5767
 30
0.0
 10
17.0472
 20
-64.5767
 30
0.0
 10
15.123
 20
-66.5009
 30
0.0
 10
15.123
 20
-68.8912
 30
0.0
 10
15.123
 20
-68.8912
 30
0.0
 10
15.123
 20
-68.8912
 30
0.0
 10
15.123
 20
-74.9509
 30
0.0
 10
15.123
 20
-74.9509
 30
0.0
 10
15.123
 20
-74.9509
 30
0.0
 10
15.123
 20
-74.9509
 30
0.0
 10
21.2307
 20
-74.9989
 30
0.0
 10
21.2307
 20
-74.9989
 30
0.0
 10
21.2307
 20
-74.9989
 30
0.0
 10
23.6209
 20
-74.9989
 30
0.0
 10
25.5452
 20
-73.0747
 30
0.0
 10
25.5452
 20
-70.6844
 30
0.0
 10
25.5452
 20
-70.6844
 30
0.0
 10
25.5452
 20
-70.6844
 30
0.0
 10
25.5212
 20
-64.5767
 30
0.0
 10
25.5212
 20
-64.5767
 30
0.0
  0
SPLINE
  5
CC
330
1F
100
AcDbEntity
  8
layer 1
 62
     7
100
AcDbSpline
210
0.0
220
0.0
230
1.0
 70
    11
 71
     3
 72
    28
 73
    24
 74
     0
 42
0.0000000001
 43
0.0000000001
 12
1.0
 22
0.0
 32
0.0
 13
1.0
 23
0.0
 33
0.0
 40
0.0
 40
0.0
 40
0.0
 40
0.0
 40
0.1428571428571428
 40
0.1428571428571428
 40
0.1428571428571428
 40
0.1428571428571428
 40
0.2857142857142857
 40
0.2857142857142857
 40
0.2857142857142857
 40
0.2857142857142857
 40
0.4285714285714285
 40
0.4285714285714285
 40
0.4285714285714285
 40
0.4285714285714285
 40
0.5714285714285714
 40
0.5714285714285714
 40
0.5714285714285714
 40
0.5714285714285714
 40
0.7142857142857143
 40
0.7142857142857143
 40
0.7142857142857143
 40
0.7142857142857143
 40
1.0
 40
1.0
 40
1.0
 40
1.0
 10
3.0425
 20
-86.9354
 30
0.0
 10
3.0425
 20
-86.9354
 30
0.0
 10
9.1263
 20
-86.9354
 30
0.0
 10
9.1263
 20
-86.9354
 30
0.0
 10
9.1263
 20
-86.9354
 30
0.0
 10
11.5165
 20
-86.9354
 30
0.0
 10
13.4408
 20
-85.0111
 30
0.0
 10
13.4408
 20
-82.6209
 30
0.0
 10
13.4408
 20
-82.6209
 30
0.0
 10
13.4408
 20
-82.6209
 30
0.0
 10
13.4408
 20
-76.5611
 30
0.0
 10
13.4408
 20
-76.5611
 30
0.0
 10
13.4408
 20
-76.5611
 30
0.0
 10
13.4408
 20
-76.5611
 30
0.0
 10
7.333
 20
-76.5131
 30
0.0
 10
7.333
 20
-76.5131
 30
0.0
 10
7.333
 20
-76.5131
 30
0.0
 10
4.9428
 20
-76.5131
 30
0.0
 10
3.0185
 20
-78.4374
 30
0.0
 10
3.0185
 20
-80.8276
 30
0.0
 10
3.0185
 20
-80.8276
 30
0.0
 10
3.0185
 20
-80.8276
 30
0.0
 10
3.0425
 20
-86.9354
 30
0.0
 10
3.0425
 20
-86.9354
 30
0.0
  0
SPLINE
  5
CD
330
1F
100
AcDbEntity
  8
layer 1
 62
     7
100
AcDbSpline
210
0.0
220
0.0
230
1.0
 70
    11
 71
     3
 72
    28
 73
    24
 74
     0
 42
0.0000000001
 43
0.0000000001
 12
1.0
 22
0.0
 32
0.0
 13
1.0
 23
0.0
 33
0.0
 40
0.0
 40
0.0
 40
0.0
 40
0.0
 40
0.1428571428571428
 40
0.1428571428571428
 40
0.1428571428571428
 40
0.1428571428571428
 40
0.2857142857142857
 40
0.2857142857142857
 40
0.2857142857142857
 40
0.2857142857142857
 40
0.4285714285714285
 40
0.4285714285714285
 40
0.4285714285714285
 40
0.4285714285714285
 40
0.5714285714285714
 40
0.5714285714285714
 40
0.5714285714285714
 40
0.5714285714285714
 40
0.7142857142857143
 40
0.7142857142857143
 40
0.7142857142857143
 40
0.7142857142857143
 40
1.0
 40
1.0
 40
1.0
 40
1.0
 10
25.5212
 20
-86.9354
 30
0.0
 10
25.5212
 20
-86.9354
 30
0.0
 10
19.4375
 20
-86.9354
 30
0.0
 10
19.4375
 20
-86.9354
 30
0.0
 10
19.4375
 20
-86.9354
 30
0.0
 10
17.0472
 20
-86.9354
 30
0.0
 10
15.123
 20
-85.0111
 30
0.0
 10
15.123
 20
-82.6209
 30
0.0
 10
15.123
 20
-82.6209
 30
0.0
 10
15.123
 20
-82.6209
 30
0.0
 10
15.123
 20
-76.5611
 30
0.0
 10
15.123
 20
-76.5611
 30
0.0
 10
15.123
 20
-76.5611
 30
0.0
 10
15.123
 20
-76.5611
 30
0.0
 10
21.2307
 20
-76.5131
 30
0.0
 10
21.2307
 20
-76.5131
 30
0.0
 10
21.2307
 20
-76.5131
 30
0.0
 10
23.6209
 20
-76.5131
 30
0.0
 10
25.5452
 20
-78.4374
 30
0.0
 10
25.5452
 20
-80.8276
 30
0.0
 10
25.5452
 20
-80.8276
 30
0.0
 10
25.5452
 20
-80.8276
 30
0.0
 10
25.5212
 20
-86.9354
 30
0.0
 10
25.5212
 20
-86.9354
 30
0.0
  0
SPLINE
  5
CE
330
1F
100
AcDbEntity
  8
layer 1
 62
     7
100
AcDbSpline
210
0.0
220
0.0
230
1.0
 70
    11
 71
     3
 72
    28
 73
    24
 74
     0
 42
0.0000000001
 43
0.0000000001
 12
1.0
 22
0.0
 32
0.0
 13
1.0
 23
0.0
 33
0.0
 40
0.0
 40
0.0
 40
0.0
 40
0.0
 40
0.1428571428571428
 40
0.1428571428571428
 40
0.1428571428571428
 40
0.1428571428571428
 40
0.2857142857142857
 40
0.2857142857142857
 40
0.2857142857142857
 40
0.2857142857142857
 40
0.4285714285714285
 40
0.4285714285714285
 40
0.4285714285714285
 40
0.4285714285714285
 40
0.5714285714285714
 40
0.5714285714285714
 40
0.5714285714285714
 40
0.5714285714285714
 40
0.7142857142857143
 40
0.7142857142857143
 40
0.7142857142857143
 40
0.7142857142857143
 40
1.0
 40
1.0
 40
1.0
 40
1.0
 10
26.9065
 20
-64.5767
 30
0.0
 10
26.9065
 20
-64.5767
 30
0.0
 10
32.9902
 20
-64.5767
 30
0.0
 10
32.9902
 20
-64.5767
 30
0.0
 10
32.9902
 20
-64.5767
 30
0.0
 10
35.3805
 20
-64.5767
 30
0.0
 10
37.3047
 20
-66.5009
 30
0.0
 10
37.3047
 20
-68.8912
 30
0.0
 10
37.3047
 20
-68.8912
 30
0.0
 10
37.3047
 20
-68.8912
 30
0.0
 10
37.3047
 20
-74.9509
 30
0.0
 10
37.3047
 20
-74.9509
 30
0.0
 10
37.3047
 20
-74.9509
 30
0.0
 10
37.3047
 20
-74.9509
 30
0.0
 10
31.197
 20
-74.9989
 30
0.0
 10
31.197
 20
-74.9989
 30
0.0
 10
31.197
 20
-74.9989
 30
0.0
 10
28.8067
 20
-74.9989
 30
0.0
 10
26.8825
 20
-73.0747
 30
0.0
 10
26.8825
 20
-70.6844
 30
0.0
 10
26.8825
 20
-70.6844
 30
0.0
 10
26.8825
 20
-70.6844
 30
0.0
 10
26.9065
 20
-64.5767
 30
0.0
 10
26.9065
 20
-64.5767
 30
0.0
  0
SPLINE
  5
CF
330
1F
100
AcDbEntity
  8
layer 1
 62
     7
100
AcDbSpline
210
0.0
220
0.0
230
1.0
 70
    11
 71
     3
 72
    28
 73
    24
 74
     0
 42
0.0000000001
 43
0.0000000001
 12
1.0
 22
0.0
 32
0.0
 13
1.0
 23
0.0
 33
0.0
 40
0.0
 40
0.0
 40
0.0
 40
0.0
 40
0.1428571428571428
 40
0.1428571428571428
 40
0.1428571428571428
 40
0.1428571428571428
 40
0.2857142857142857
 40
0.2857142857142857
 40
0.2857142857142857
 40
0.2857142857142857
 40
0.4285714285714285
 40
0.4285714285714285
 40
0.4285714285714285
 40
0.4285714285714285
 40
0.5714285714285714
 40
0.5714285714285714
 40
0.5714285714285714
 40
0.5714285714285714
 40
0.7142857142857143
 40
0.7142857142857143
 40
0.7142857142857143
 40
0.7142857142857143
 40
1.0
 40
1.0
 40
1.0
 40
1.0
 10
49.3852
 20
-64.5767
 30
0.0
 10
49.3852
 20
-64.5767
 30
0.0
 10
43.3014
 20
-64.5767
 30
0.0
 10
43.3014
 20
-64.5767
 30
0.0
 10
43.3014
 20
-64.5767
 30
0.0
 10
40.9112
 20
-64.5767
 30
0.0
 10
38.9869
 20
-66.5009
 30
0.0
 10
38.9869
 20
-68.8912
 30
0.0
 10
38.9869
 20
-68.8912
 30
0.0
 10
38.9869
 20
-68.8912
 30
0.0
 10
38.9869
 20
-74.9509
 30
0.0
 10
38.9869
 20
-74.9509
 30
0.0
 10
38.9869
 20
-74.9509
 30
0.0
 10
38.9869
 20
-74.9509
 30
0.0
 10
45.0947
 20
-74.9989
 30
0.0
 10
45.0947
 20
-74.9989
 30
0.0
 10
45.0947
 20
-74.9989
 30
0.0
 10
47.4849
 20
-74.9989
 30
0.0
 10
49.4091
 20
-73.0747
 30
0.0
 10
49.4091
 20
-70.6844
 30
0.0
 10
49.4091
 20
-70.6844
 30
0.0
 10
49.4091
 20
-70.6844
 30
0.0
 10
49.3852
 20
-64.5767
 30
0.0
 10
49.3852
 20
-64.5767
 30
0.0
  0
SPLINE
  5
D0
330
1F
100
AcDbEntity
  8
layer 1
 62
     7
100
AcDbSpline
210
0.0
220
0.0
230
1.0
 70
    11
 71
     3
 72
    28
 73
    24
 74
     0
 42
0.0000000001
 43
0.0000000001
 12
1.0
 22
0.0
 32
0.0
 13
1.0
 23
0.0
 33
0.0
 40
0.0
 40
0.0
 40
0.0
 40
0.0
 40
0.1428571428571428
 40
0.1428571428571428
 40
0.1428571428571428
 40
0.1428571428571428
 40
0.2857142857142857
 40
0.2857142857142857
 40
0.2857142857142857
 40
0.2857142857142857
 40
0.4285714285714285
 40
0.4285714285714285
 40
0.4285714285714285
 40
0.4285714285714285
 40
0.5714285714285714
 40
0.5714285714285714
 40
0.5714285714285714
 40
0.5714285714285714
 40
0.7142857142857143
 40
0.7142857142857143
 40
0.7142857142857143
 40
0.7142857142857143
 40
1.0
 40
1.0
 40
1.0
 40
1.0
 10
26.9065
 20
-86.9354
 30
0.0
 10
26.9065
 20
-86.9354
 30
0.0
 10
32.9902
 20
-86.9354
 30
0.0
 10
32.9902
 20
-86.9354
 30
0.0
 10
32.9902
 20
-86.9354
 30
0.0
 10
35.3805
 20
-86.9354
 30
0.0
 10
37.3047
 20
-85.0111
 30
0.0
 10
37.3047
 20
-82.6209
 30
0.0
 10
37.3047
 20
-82.6209
 30
0.0
 10
37.3047
 20
-82.6209
 30
0.0
 10
37.3047
 20
-76.5611
 30
0.0
 10
37.3047
 20
-76.5611
 30
0.0
 10
37.3047
 20
-76.5611
 30
0.0
 10
37.3047
 20
-76.5611
 30
0.0
 10
31.197
 20
-76.5131
 30
0.0
 10
31.197
 20
-76.5131
 30
0.0
 10
31.197
 20
-76.5131
 30
0.0
 10
28.8067
 20
-76.5131
 30
0.0
 10
26.8825
 20
-78.4374
 30
0.0
 10
26.8825
 20
-80.8276
 30
0.0
 10
26.8825
 20
-80.8276
 30
0.0
 10
26.8825
 20
-80.8276
 30
0.0
 10
26.9065
 20
-86.9354
 30
0.0
 10
26.9065
 20
-86.9354
 30
0.0
  0
SPLINE
  5
D1
330
1F
100
AcDbEntity
  8
layer 1
 62
     7
100
AcDbSpline
210
0.0
220
0.0
230
1.0
 70
    11
 71
     3
 72
    28
 73
    24
 74
     0
 42
0.0000000001
 43
0.0000000001
 12
1.0
 22
0.0
 32
0.0
 13
1.0
 23
0.0
 33
0.0
 40
0.0
 40
0.0
 40
0.0
 40
0.0
 40
0.1428571428571428
 40
0.1428571428571428
 40
0.1428571428571428
 40
0.1428571428571428
 40
0.2857142857142857
 40
0.2857142857142857
 40
0.2857142857142857
 40
0.2857142857142857
 40
0.4285714285714285
 40
0.4285714285714285
 40
0.4285714285714285
 40
0.4285714285714285
 40
0.5714285714285714
 40
0.5714285714285714
 40
0.5714285714285714
 40
0.5714285714285714
 40
0.7142857142857143
 40
0.7142857142857143
 40
0.7142857142857143
 40
0.7142857142857143
 40
1.0
 40
1.0
 40
1.0
 40
1.0
 10
49.3852
 20
-86.9354
 30
0.0
 10
49.3852
 20
-86.9354
 30
0.0
 10
43.3014
 20
-86.9354
 30
0.0
 10
43.3014
 20
-86.9354
 30
0.0
 10
43.3014
 20
-86.9354
 30
0.0
 10
40.9112
 20
-86.9354
 30
0.0
 10
38.9869
 20
-85.0111
 30
0.0
 10
38.9869
 20
-82.6209
 30
0.0
 10
38.9869
 20
-82.6209
 30
0.0
 10
38.9869
 20
-82.6209
 30
0.0
 10
38.9869
 20
-76.5611
 30
0.0
 10
38.9869
 20
-76.5611
 30
0.0
 10
38.9869
 20
-76.5611
 30
0.0
 10
38.9869
 20
-76.5611
 30
0.0
 10
45.0947
 20
-76.5131
 30
0.0
 10
45.0947
 20
-76.5131
 30
0.0
 10
45.0947
 20
-76.5131
 30
0.0
 10
47.4849
 20
-76.5131
 30
0.0
 10
49.4091
 20
-78.4374
 30
0.0
 10
49.4091
 20
-80.8276
 30
0.0
 10
49.4091
 20
-80.8276
 30
0.0
 10
49.4091
 20
-80.8276
 30
0.0
 10
49.3852
 20
-86.9354
 30
0.0
 10
49.3852
 20
-86.9354
 30
0.0
  0
SPLINE
  5
D2
330
1F
100
AcDbEntity
  8
layer 1
 62
     7
100
AcDbSpline
210
0.0
220
0.0
230
1.0
 70
    11
 71
     3
 72
    28
 73
    24
 74
     0
 42
0.0000000001
 43
0.0000000001
 12
1.0
 22
0.0
 32
0.0
 13
1.0
 23
0.0
 33
0.0
 40
0.0
 40
0.0
 40
0.0
 40
0.0
 40
0.1428571428571428
 40
0.1428571428571428
 40
0.1428571428571428
 40
0.1428571428571428
 40
0.2857142857142857
 40
0.2857142857142857
 40
0.2857142857142857
 40
0.2857142857142857
 40
0.4285714285714285
 40
0.4285714285714285
 40
0.4285714285714285
 40
0.4285714285714285
 40
0.5714285714285714
 40
0.5714285714285714
 40
0.5714285714285714
 40
0.5714285714285714
 40
0.7142857142857143
 40
0.7142857142857143
 40
0.7142857142857143
 40
0.7142857142857143
 40
1.0
 40
1.0
 40
1.0
 40
1.0
 10
-45.1259
 20
-88.8069
 30
0.0
 10
-45.1259
 20
-88.8069
 30
0.0
 10
-39.0421
 20
-88.8069
 30
0.0
 10
-39.0421
 20
-88.8069
 30
0.0
 10
-39.0421
 20
-88.8069
 30
0.0
 10
-36.6519
 20
-88.8069
 30
0.0
 10
-34.7276
 20
-90.7311
 30
0.0
 10
-34.7276
 20
-93.1214
 30
0.0
 10
-34.7276
 20
-93.1214
 30
0.0
 10
-34.7276
 20
-93.1214
 30
0.0
 10
-34.7276
 20
-99.1811
 30
0.0
 10
-34.7276
 20
-99.1811
 30
0.0
 10
-34.7276
 20
-99.1811
 30
0.0
 10
-34.7276
 20
-99.1811
 30
0.0
 10
-40.8354
 20
-99.2291
 30
0.0
 10
-40.8354
 20
-99.2291
 30
0.0
 10
-40.8354
 20
-99.2291
 30
0.0
 10
-43.2256
 20
-99.2291
 30
0.0
 10
-45.1499
 20
-97.3049
 30
0.0
 10
-45.1499
 20
-94.9146
 30
0.0
 10
-45.1499
 20
-94.9146
 30
0.0
 10
-45.1499
 20
-94.9146
 30
0.0
 10
-45.1259
 20
-88.8069
 30
0.0
 10
-45.1259
 20
-88.8069
 30
0.0
  0
SPLINE
  5
D3
330
1F
100
AcDbEntity
  8
layer 1
 62
     7
100
AcDbSpline
210
0.0
220
0.0
230
1.0
 70
    11
 71
     3
 72
    28
 73
    24
 74
     0
 42
0.0000000001
 43
0.0000000001
 12
1.0
 22
0.0
 32
0.0
 13
1.0
 23
0.0
 33
0.0
 40
0.0
 40
0.0
 40
0.0
 40
0.0
 40
0.1428571428571428
 40
0.1428571428571428
 40
0.1428571428571428
 40
0.1428571428571428
 40
0.2857142857142857
 40
0.2857142857142857
 40
0.2857142857142857
 40
0.2857142857142857
 40
0.4285714285714285
 40
0.4285714285714285
 40
0.4285714285714285
 40
0.4285714285714285
 40
0.5714285714285714
 40
0.5714285714285714
 40
0.5714285714285714
 40
0.5714285714285714
 40
0.7142857142857143
 40
0.7142857142857143
 40
0.7142857142857143
 40
0.7142857142857143
 40
1.0
 40
1.0
 40
1.0
 40
1.0
 10
-22.6472
 20
-88.8069
 30
0.0
 10
-22.6472
 20
-88.8069
 30
0.0
 10
-28.731
 20
-88.8069
 30
0.0
 10
-28.731
 20
-88.8069
 30
0.0
 10
-28.731
 20
-88.8069
 30
0.0
 10
-31.1212
 20
-88.8069
 30
0.0
 10
-33.0455
 20
-90.7311
 30
0.0
 10
-33.0455
 20
-93.1214
 30
0.0
 10
-33.0455
 20
-93.1214
 30
0.0
 10
-33.0455
 20
-93.1214
 30
0.0
 10
-33.0455
 20
-99.1811
 30
0.0
 10
-33.0455
 20
-99.1811
 30
0.0
 10
-33.0455
 20
-99.1811
 30
0.0
 10
-33.0455
 20
-99.1811
 30
0.0
 10
-26.9377
 20
-99.2291
 30
0.0
 10
-26.9377
 20
-99.2291
 30
0.0
 10
-26.9377
 20
-99.2291
 30
0.0
 10
-24.5475
 20
-99.2291
 30
0.0
 10
-22.6232
 20
-97.3049
 30
0.0
 10
-22.6232
 20
-94.9146
 30
0.0
 10
-22.6232
 20
-94.9146
 30
0.0
 10
-22.6232
 20
-94.9146
 30
0.0
 10
-22.6472
 20
-88.8069
 30
0.0
 10
-22.6472
 20
-88.8069
 30
0.0
  0
SPLINE
  5
D4
330
1F
100
AcDbEntity
  8
layer 1
 62
     7
100
AcDbSpline
210
0.0
220
0.0
230
1.0
 70
    11
 71
     3
 72
    28
 73
    24
 74
     0
 42
0.0000000001
 43
0.0000000001
 12
1.0
 22
0.0
 32
0.0
 13
1.0
 23
0.0
 33
0.0
 40
0.0
 40
0.0
 40
0.0
 40
0.0
 40
0.1428571428571428
 40
0.1428571428571428
 40
0.1428571428571428
 40
0.1428571428571428
 40
0.2857142857142857
 40
0.2857142857142857
 40
0.2857142857142857
 40
0.2857142857142857
 40
0.4285714285714285
 40
0.4285714285714285
 40
0.4285714285714285
 40
0.4285714285714285
 40
0.5714285714285714
 40
0.5714285714285714
 40
0.5714285714285714
 40
0.5714285714285714
 40
0.7142857142857143
 40
0.7142857142857143
 40
0.7142857142857143
 40
0.7142857142857143
 40
1.0
 40
1.0
 40
1.0
 40
1.0
 10
-45.1259
 20
-111.1657
 30
0.0
 10
-45.1259
 20
-111.1657
 30
0.0
 10
-39.0421
 20
-111.1657
 30
0.0
 10
-39.0421
 20
-111.1657
 30
0.0
 10
-39.0421
 20
-111.1657
 30
0.0
 10
-36.6519
 20
-111.1657
 30
0.0
 10
-34.7276
 20
-109.2415
 30
0.0
 10
-34.7276
 20
-106.8512
 30
0.0
 10
-34.7276
 20
-106.8512
 30
0.0
 10
-34.7276
 20
-106.8512
 30
0.0
 10
-34.7276
 20
-100.7915
 30
0.0
 10
-34.7276
 20
-100.7915
 30
0.0
 10
-34.7276
 20
-100.7915
 30
0.0
 10
-34.7276
 20
-100.7915
 30
0.0
 10
-40.8354
 20
-100.7435
 30
0.0
 10
-40.8354
 20
-100.7435
 30
0.0
 10
-40.8354
 20
-100.7435
 30
0.0
 10
-43.2256
 20
-100.7435
 30
0.0
 10
-45.1499
 20
-102.6677
 30
0.0
 10
-45.1499
 20
-105.058
 30
0.0
 10
-45.1499
 20
-105.058
 30
0.0
 10
-45.1499
 20
-105.058
 30
0.0
 10
-45.1259
 20
-111.1657
 30
0.0
 10
-45.1259
 20
-111.1657
 30
0.0
  0
SPLINE
  5
D5
330
1F
100
AcDbEntity
  8
layer 1
 62
     7
100
AcDbSpline
210
0.0
220
0.0
230
1.0
 70
    11
 71
     3
 72
    28
 73
    24
 74
     0
 42
0.0000000001
 43
0.0000000001
 12
1.0
 22
0.0
 32
0.0
 13
1.0
 23
0.0
 33
0.0
 40
0.0
 40
0.0
 40
0.0
 40
0.0
 40
0.1428571428571428
 40
0.1428571428571428
 40
0.1428571428571428
 40
0.1428571428571428
 40
0.2857142857142857
 40
0.2857142857142857
 40
0.2857142857142857
 40
0.2857142857142857
 40
0.4285714285714285
 40
0.4285714285714285
 40
0.4285714285714285
 40
0.4285714285714285
 40
0.5714285714285714
 40
0.5714285714285714
 40
0.5714285714285714
 40
0.5714285714285714
 40
0.7142857142857143
 40
0.7142857142857143
 40
0.7142857142857143
 40
0.7142857142857143
 40
1.0
 40
1.0
 40
1.0
 40
1.0
 10
-22.6472
 20
-111.1657
 30
0.0
 10
-22.6472
 20
-111.1657
 30
0.0
 10
-28.731
 20
-111.1657
 30
0.0
 10
-28.731
 20
-111.1657
 30
0.0
 10
-28.731
 20
-111.1657
 30
0.0
 10
-31.1212
 20
-111.1657
 30
0.0
 10
-33.0455
 20
-109.2415
 30
0.0
 10
-33.0455
 20
-106.8512
 30
0.0
 10
-33.0455
 20
-106.8512
 30
0.0
 10
-33.0455
 20
-106.8512
 30
0.0
 10
-33.0455
 20
-100.7915
 30
0.0
 10
-33.0455
 20
-100.7915
 30
0.0
 10
-33.0455
 20
-100.7915
 30
0.0
 10
-33.0455
 20
-100.7915
 30
0.0
 10
-26.9377
 20
-100.7435
 30
0.0
 10
-26.9377
 20
-100.7435
 30
0.0
 10
-26.9377
 20
-100.7435
 30
0.0
 10
-24.5475
 20
-100.7435
 30
0.0
 10
-22.6232
 20
-102.6677
 30
0.0
 10
-22.6232
 20
-105.058
 30
0.0
 10
-22.6232
 20
-105.058
 30
0.0
 10
-22.6232
 20
-105.058
 30
0.0
 10
-22.6472
 20
-111.1657
 30
0.0
 10
-22.6472
 20
-111.1657
 30
0.0
  0
SPLINE
  5
D6
330
1F
100
AcDbEntity
  8
layer 1
 62
     7
100
AcDbSpline
210
0.0
220
0.0
230
1.0
 70
    11
 71
     3
 72
    28
 73
    24
 74
     0
 42
0.0000000001
 43
0.0000000001
 12
1.0
 22
0.0
 32
0.0
 13
1.0
 23
0.0
 33
0.0
 40
0.0
 40
0.0
 40
0.0
 40
0.0
 40
0.1428571428571428
 40
0.1428571428571428
 40
0.1428571428571428
 40
0.1428571428571428
 40
0.2857142857142857
 40
0.2857142857142857
 40
0.2857142857142857
 40
0.2857142857142857
 40
0.4285714285714285
 40
0.4285714285714285
 40
0.4285714285714285
 40
0.4285714285714285
 40
0.5714285714285714
 40
0.5714285714285714
 40
0.5714285714285714
 40
0.5714285714285714
 40
0.7142857142857143
 40
0.7142857142857143
 40
0.7142857142857143
 40
0.7142857142857143
 40
1.0
 40
1.0
 40
1.0
 40
1.0
 10
-20.9908
 20
-88.8069
 30
0.0
 10
-20.9908
 20
-88.8069
 30
0.0
 10
-14.9071
 20
-88.8069
 30
0.0
 10
-14.9071
 20
-88.8069
 30
0.0
 10
-14.9071
 20
-88.8069
 30
0.0
 10
-12.5168
 20
-88.8069
 30
0.0
 10
-10.5926
 20
-90.7311
 30
0.0
 10
-10.5926
 20
-93.1214
 30
0.0
 10
-10.5926
 20
-93.1214
 30
0.0
 10
-10.5926
 20
-93.1214
 30
0.0
 10
-10.5926
 20
-99.1811
 30
0.0
 10
-10.5926
 20
-99.1811
 30
0.0
 10
-10.5926
 20
-99.1811
 30
0.0
 10
-10.5926
 20
-99.1811
 30
0.0
 10
-16.7003
 20
-99.2291
 30
0.0
 10
-16.7003
 20
-99.2291
 30
0.0
 10
-16.7003
 20
-99.2291
 30
0.0
 10
-19.0905
 20
-99.2291
 30
0.0
 10
-21.0148
 20
-97.3049
 30
0.0
 10
-21.0148
 20
-94.9146
 30
0.0
 10
-21.0148
 20
-94.9146
 30
0.0
 10
-21.0148
 20
-94.9146
 30
0.0
 10
-20.9908
 20
-88.8069
 30
0.0
 10
-20.9908
 20
-88.8069
 30
0.0
  0
SPLINE
  5
D7
330
1F
100
AcDbEntity
  8
layer 1
 62
     7
100
AcDbSpline
210
0.0
220
0.0
230
1.0
 70
    11
 71
     3
 72
    28
 73
    24
 74
     0
 42
0.0000000001
 43
0.0000000001
 12
1.0
 22
0.0
 32
0.0
 13
1.0
 23
0.0
 33
0.0
 40
0.0
 40
0.0
 40
0.0
 40
0.0
 40
0.1428571428571428
 40
0.1428571428571428
 40
0.1428571428571428
 40
0.1428571428571428
 40
0.2857142857142857
 40
0.2857142857142857
 40
0.2857142857142857
 40
0.2857142857142857
 40
0.4285714285714285
 40
0.4285714285714285
 40
0.4285714285714285
 40
0.4285714285714285
 40
0.5714285714285714
 40
0.5714285714285714
 40
0.5714285714285714
 40
0.5714285714285714
 40
0.7142857142857143
 40
0.7142857142857143
 40
0.7142857142857143
 40
0.7142857142857143
 40
1.0
 40
1.0
 40
1.0
 40
1.0
 10
1.4879
 20
-88.8069
 30
0.0
 10
1.4879
 20
-88.8069
 30
0.0
 10
-4.5959
 20
-88.8069
 30
0.0
 10
-4.5959
 20
-88.8069
 30
0.0
 10
-4.5959
 20
-88.8069
 30
0.0
 10
-6.9861
 20
-88.8069
 30
0.0
 10
-8.9104
 20
-90.7311
 30
0.0
 10
-8.9104
 20
-93.1214
 30
0.0
 10
-8.9104
 20
-93.1214
 30
0.0
 10
-8.9104
 20
-93.1214
 30
0.0
 10
-8.9104
 20
-99.1811
 30
0.0
 10
-8.9104
 20
-99.1811
 30
0.0
 10
-8.9104
 20
-99.1811
 30
0.0
 10
-8.9104
 20
-99.1811
 30
0.0
 10
-2.8026
 20
-99.2291
 30
0.0
 10
-2.8026
 20
-99.2291
 30
0.0
 10
-2.8026
 20
-99.2291
 30
0.0
 10
-0.4124
 20
-99.2291
 30
0.0
 10
1.5118
 20
-97.3049
 30
0.0
 10
1.5118
 20
-94.9146
 30
0.0
 10
1.5118
 20
-94.9146
 30
0.0
 10
1.5118
 20
-94.9146
 30
0.0
 10
1.4879
 20
-88.8069
 30
0.0
 10
1.4879
 20
-88.8069
 30
0.0
  0
SPLINE
  5
D8
330
1F
100
AcDbEntity
  8
layer 1
 62
     7
100
AcDbSpline
210
0.0
220
0.0
230
1.0
 70
    11
 71
     3
 72
    28
 73
    24
 74
     0
 42
0.0000000001
 43
0.0000000001
 12
1.0
 22
0.0
 32
0.0
 13
1.0
 23
0.0
 33
0.0
 40
0.0
 40
0.0
 40
0.0
 40
0.0
 40
0.1428571428571428
 40
0.1428571428571428
 40
0.1428571428571428
 40
0.1428571428571428
 40
0.2857142857142857
 40
0.2857142857142857
 40
0.2857142857142857
 40
0.2857142857142857
 40
0.4285714285714285
 40
0.4285714285714285
 40
0.4285714285714285
 40
0.4285714285714285
 40
0.5714285714285714
 40
0.5714285714285714
 40
0.5714285714285714
 40
0.5714285714285714
 40
0.7142857142857143
 40
0.7142857142857143
 40
0.7142857142857143
 40
0.7142857142857143
 40
1.0
 40
1.0
 40
1.0
 40
1.0
 10
-20.9908
 20
-111.1657
 30
0.0
 10
-20.9908
 20
-111.1657
 30
0.0
 10
-14.9071
 20
-111.1657
 30
0.0
 10
-14.9071
 20
-111.1657
 30
0.0
 10
-14.9071
 20
-111.1657
 30
0.0
 10
-12.5168
 20
-111.1657
 30
0.0
 10
-10.5926
 20
-109.2415
 30
0.0
 10
-10.5926
 20
-106.8512
 30
0.0
 10
-10.5926
 20
-106.8512
 30
0.0
 10
-10.5926
 20
-106.8512
 30
0.0
 10
-10.5926
 20
-100.7915
 30
0.0
 10
-10.5926
 20
-100.7915
 30
0.0
 10
-10.5926
 20
-100.7915
 30
0.0
 10
-10.5926
 20
-100.7915
 30
0.0
 10
-16.7003
 20
-100.7435
 30
0.0
 10
-16.7003
 20
-100.7435
 30
0.0
 10
-16.7003
 20
-100.7435
 30
0.0
 10
-19.0905
 20
-100.7435
 30
0.0
 10
-21.0148
 20
-102.6677
 30
0.0
 10
-21.0148
 20
-105.058
 30
0.0
 10
-21.0148
 20
-105.058
 30
0.0
 10
-21.0148
 20
-105.058
 30
0.0
 10
-20.9908
 20
-111.1657
 30
0.0
 10
-20.9908
 20
-111.1657
 30
0.0
  0
SPLINE
  5
D9
330
1F
100
AcDbEntity
  8
layer 1
 62
     7
100
AcDbSpline
210
0.0
220
0.0
230
1.0
 70
    11
 71
     3
 72
    28
 73
    24
 74
     0
 42
0.0000000001
 43
0.0000000001
 12
1.0
 22
0.0
 32
0.0
 13
1.0
 23
0.0
 33
0.0
 40
0.0
 40
0.0
 40
0.0
 40
0.0
 40
0.1428571428571428
 40
0.1428571428571428
 40
0.1428571428571428
 40
0.1428571428571428
 40
0.2857142857142857
 40
0.2857142857142857
 40
0.2857142857142857
 40
0.2857142857142857
 40
0.4285714285714285
 40
0.4285714285714285
 40
0.4285714285714285
 40
0.4285714285714285
 40
0.5714285714285714
 40
0.5714285714285714
 40
0.5714285714285714
 40
0.5714285714285714
 40
0.7142857142857143
 40
0.7142857142857143
 40
0.7142857142857143
 40
0.7142857142857143
 40
1.0
 40
1.0
 40
1.0
 40
1.0
 10
1.4879
 20
-111.1657
 30
0.0
 10
1.4879
 20
-111.1657
 30
0.0
 10
-4.5959
 20
-111.1657
 30
0.0
 10
-4.5959
 20
-111.1657
 30
0.0
 10
-4.5959
 20
-111.1657
 30
0.0
 10
-6.9861
 20
-111.1657
 30
0.0
 10
-8.9104
 20
-109.2415
 30
0.0
 10
-8.9104
 20
-106.8512
 30
0.0
 10
-8.9104
 20
-106.8512
 30
0.0
 10
-8.9104
 20
-106.8512
 30
0.0
 10
-8.9104
 20
-100.7915
 30
0.0
 10
-8.9104
 20
-100.7915
 30
0.0
 10
-8.9104
 20
-100.7915
 30
0.0
 10
-8.9104
 20
-100.7915
 30
0.0
 10
-2.8026
 20
-100.7435
 30
0.0
 10
-2.8026
 20
-100.7435
 30
0.0
 10
-2.8026
 20
-100.7435
 30
0.0
 10
-0.4124
 20
-100.7435
 30
0.0
 10
1.5118
 20
-102.6677
 30
0.0
 10
1.5118
 20
-105.058
 30
0.0
 10
1.5118
 20
-105.058
 30
0.0
 10
1.5118
 20
-105.058
 30
0.0
 10
1.4879
 20
-111.1657
 30
0.0
 10
1.4879
 20
-111.1657
 30
0.0
  0
SPLINE
  5
DA
330
1F
100
AcDbEntity
  8
layer 1
 62
     7
100
AcDbSpline
210
0.0
220
0.0
230
1.0
 70
    11
 71
     3
 72
    28
 73
    24
 74
     0
 42
0.0000000001
 43
0.0000000001
 12
1.0
 22
0.0
 32
0.0
 13
1.0
 23
0.0
 33
0.0
 40
0.0
 40
0.0
 40
0.0
 40
0.0
 40
0.1428571428571428
 40
0.1428571428571428
 40
0.1428571428571428
 40
0.1428571428571428
 40
0.2857142857142857
 40
0.2857142857142857
 40
0.2857142857142857
 40
0.2857142857142857
 40
0.4285714285714285
 40
0.4285714285714285
 40
0.4285714285714285
 40
0.4285714285714285
 40
0.5714285714285714
 40
0.5714285714285714
 40
0.5714285714285714
 40
0.5714285714285714
 40
0.7142857142857143
 40
0.7142857142857143
 40
0.7142857142857143
 40
0.7142857142857143
 40
1.0
 40
1.0
 40
1.0
 40
1.0
 10
3.0425
 20
-88.8069
 30
0.0
 10
3.0425
 20
-88.8069
 30
0.0
 10
9.1263
 20
-88.8069
 30
0.0
 10
9.1263
 20
-88.8069
 30
0.0
 10
9.1263
 20
-88.8069
 30
0.0
 10
11.5165
 20
-88.8069
 30
0.0
 10
13.4408
 20
-90.7311
 30
0.0
 10
13.4408
 20
-93.1214
 30
0.0
 10
13.4408
 20
-93.1214
 30
0.0
 10
13.4408
 20
-93.1214
 30
0.0
 10
13.4408
 20
-99.1811
 30
0.0
 10
13.4408
 20
-99.1811
 30
0.0
 10
13.4408
 20
-99.1811
 30
0.0
 10
13.4408
 20
-99.1811
 30
0.0
 10
7.333
 20
-99.2291
 30
0.0
 10
7.333
 20
-99.2291
 30
0.0
 10
7.333
 20
-99.2291
 30
0.0
 10
4.9428
 20
-99.2291
 30
0.0
 10
3.0185
 20
-97.3049
 30
0.0
 10
3.0185
 20
-94.9146
 30
0.0
 10
3.0185
 20
-94.9146
 30
0.0
 10
3.0185
 20
-94.9146
 30
0.0
 10
3.0425
 20
-88.8069
 30
0.0
 10
3.0425
 20
-88.8069
 30
0.0
  0
SPLINE
  5
DB
330
1F
100
AcDbEntity
  8
layer 1
 62
     7
100
AcDbSpline
210
0.0
220
0.0
230
1.0
 70
    11
 71
     3
 72
    28
 73
    24
 74
     0
 42
0.0000000001
 43
0.0000000001
 12
1.0
 22
0.0
 32
0.0
 13
1.0
 23
0.0
 33
0.0
 40
0.0
 40
0.0
 40
0.0
 40
0.0
 40
0.1428571428571428
 40
0.1428571428571428
 40
0.1428571428571428
 40
0.1428571428571428
 40
0.2857142857142857
 40
0.2857142857142857
 40
0.2857142857142857
 40
0.2857142857142857
 40
0.4285714285714285
 40
0.4285714285714285
 40
0.4285714285714285
 40
0.4285714285714285
 40
0.5714285714285714
 40
0.5714285714285714
 40
0.5714285714285714
 40
0.5714285714285714
 40
0.7142857142857143
 40
0.7142857142857143
 40
0.7142857142857143
 40
0.7142857142857143
 40
1.0
 40
1.0
 40
1.0
 40
1.0
 10
25.5212
 20
-88.8069
 30
0.0
 10
25.5212
 20
-88.8069
 30
0.0
 10
19.4375
 20
-88.8069
 30
0.0
 10
19.4375
 20
-88.8069
 30
0.0
 10
19.4375
 20
-88.8069
 30
0.0
 10
17.0472
 20
-88.8069
 30
0.0
 10
15.123
 20
-90.7311
 30
0.0
 10
15.123
 20
-93.1214
 30
0.0
 10
15.123
 20
-93.1214
 30
0.0
 10
15.123
 20
-93.1214
 30
0.0
 10
15.123
 20
-99.1811
 30
0.0
 10
15.123
 20
-99.1811
 30
0.0
 10
15.123
 20
-99.1811
 30
0.0
 10
15.123
 20
-99.1811
 30
0.0
 10
21.2307
 20
-99.2291
 30
0.0
 10
21.2307
 20
-99.2291
 30
0.0
 10
21.2307
 20
-99.2291
 30
0.0
 10
23.6209
 20
-99.2291
 30
0.0
 10
25.5452
 20
-97.3049
 30
0.0
 10
25.5452
 20
-94.9146
 30
0.0
 10
25.5452
 20
-94.9146
 30
0.0
 10
25.5452
 20
-94.9146
 30
0.0
 10
25.5212
 20
-88.8069
 30
0.0
 10
25.5212
 20
-88.8069
 30
0.0
  0
SPLINE
  5
DC
330
1F
100
AcDbEntity
  8
layer 1
 62
     7
100
AcDbSpline
210
0.0
220
0.0
230
1.0
 70
    11
 71
     3
 72
    28
 73
    24
 74
     0
 42
0.0000000001
 43
0.0000000001
 12
1.0
 22
0.0
 32
0.0
 13
1.0
 23
0.0
 33
0.0
 40
0.0
 40
0.0
 40
0.0
 40
0.0
 40
0.1428571428571428
 40
0.1428571428571428
 40
0.1428571428571428
 40
0.1428571428571428
 40
0.2857142857142857
 40
0.2857142857142857
 40
0.2857142857142857
 40
0.2857142857142857
 40
0.4285714285714285
 40
0.4285714285714285
 40
0.4285714285714285
 40
0.4285714285714285
 40
0.5714285714285714
 40
0.5714285714285714
 40
0.5714285714285714
 40
0.5714285714285714
 40
0.7142857142857143
 40
0.7142857142857143
 40
0.7142857142857143
 40
0.7142857142857143
 40
1.0
 40
1.0
 40
1.0
 40
1.0
 10
3.0425
 20
-111.1657
 30
0.0
 10
3.0425
 20
-111.1657
 30
0.0
 10
9.1263
 20
-111.1657
 30
0.0
 10
9.1263
 20
-111.1657
 30
0.0
 10
9.1263
 20
-111.1657
 30
0.0
 10
11.5165
 20
-111.1657
 30
0.0
 10
13.4408
 20
-109.2415
 30
0.0
 10
13.4408
 20
-106.8512
 30
0.0
 10
13.4408
 20
-106.8512
 30
0.0
 10
13.4408
 20
-106.8512
 30
0.0
 10
13.4408
 20
-100.7915
 30
0.0
 10
13.4408
 20
-100.7915
 30
0.0
 10
13.4408
 20
-100.7915
 30
0.0
 10
13.4408
 20
-100.7915
 30
0.0
 10
7.333
 20
-100.7435
 30
0.0
 10
7.333
 20
-100.7435
 30
0.0
 10
7.333
 20
-100.7435
 30
0.0
 10
4.9428
 20
-100.7435
 30
0.0
 10
3.0185
 20
-102.6677
 30
0.0
 10
3.0185
 20
-105.058
 30
0.0
 10
3.0185
 20
-105.058
 30
0.0
 10
3.0185
 20
-105.058
 30
0.0
 10
3.0425
 20
-111.1657
 30
0.0
 10
3.0425
 20
-111.1657
 30
0.0
  0
SPLINE
  5
DD
330
1F
100
AcDbEntity
  8
layer 1
 62
     7
100
AcDbSpline
210
0.0
220
0.0
230
1.0
 70
    11
 71
     3
 72
    28
 73
    24
 74
     0
 42
0.0000000001
 43
0.0000000001
 12
1.0
 22
0.0
 32
0.0
 13
1.0
 23
0.0
 33
0.0
 40
0.0
 40
0.0
 40
0.0
 40
0.0
 40
0.1428571428571428
 40
0.1428571428571428
 40
0.1428571428571428
 40
0.1428571428571428
 40
0.2857142857142857
 40
0.2857142857142857
 40
0.2857142857142857
 40
0.2857142857142857
 40
0.4285714285714285
 40
0.4285714285714285
 40
0.4285714285714285
 40
0.4285714285714285
 40
0.5714285714285714
 40
0.5714285714285714
 40
0.5714285714285714
 40
0.5714285714285714
 40
0.7142857142857143
 40
0.7142857142857143
 40
0.7142857142857143
 40
0.7142857142857143
 40
1.0
 40
1.0
 40
1.0
 40
1.0
 10
25.5212
 20
-111.1657
 30
0.0
 10
25.5212
 20
-111.1657
 30
0.0
 10
19.4375
 20
-111.1657
 30
0.0
 10
19.4375
 20
-111.1657
 30
0.0
 10
19.4375
 20
-111.1657
 30
0.0
 10
17.0472
 20
-111.1657
 30
0.0
 10
15.123
 20
-109.2415
 30
0.0
 10
15.123
 20
-106.8512
 30
0.0
 10
15.123
 20
-106.8512
 30
0.0
 10
15.123
 20
-106.8512
 30
0.0
 10
15.123
 20
-100.7915
 30
0.0
 10
15.123
 20
-100.7915
 30
0.0
 10
15.123
 20
-100.7915
 30
0.0
 10
15.123
 20
-100.7915
 30
0.0
 10
21.2307
 20
-100.7435
 30
0.0
 10
21.2307
 20
-100.7435
 30
0.0
 10
21.2307
 20
-100.7435
 30
0.0
 10
23.6209
 20
-100.7435
 30
0.0
 10
25.5452
 20
-102.6677
 30
0.0
 10
25.5452
 20
-105.058
 30
0.0
 10
25.5452
 20
-105.058
 30
0.0
 10
25.5452
 20
-105.058
 30
0.0
 10
25.5212
 20
-111.1657
 30
0.0
 10
25.5212
 20
-111.1657
 30
0.0
  0
SPLINE
  5
DE
330
1F
100
AcDbEntity
  8
layer 1
 62
     7
100
AcDbSpline
210
0.0
220
0.0
230
1.0
 70
    11
 71
     3
 72
    28
 73
    24
 74
     0
 42
0.0000000001
 43
0.0000000001
 12
1.0
 22
0.0
 32
0.0
 13
1.0
 23
0.0
 33
0.0
 40
0.0
 40
0.0
 40
0.0
 40
0.0
 40
0.1428571428571428
 40
0.1428571428571428
 40
0.1428571428571428
 40
0.1428571428571428
 40
0.2857142857142857
 40
0.2857142857142857
 40
0.2857142857142857
 40
0.2857142857142857
 40
0.4285714285714285
 40
0.4285714285714285
 40
0.4285714285714285
 40
0.4285714285714285
 40
0.5714285714285714
 40
0.5714285714285714
 40
0.5714285714285714
 40
0.5714285714285714
 40
0.7142857142857143
 40
0.7142857142857143
 40
0.7142857142857143
 40
0.7142857142857143
 40
1.0
 40
1.0
 40
1.0
 40
1.0
 10
26.9065
 20
-88.8069
 30
0.0
 10
26.9065
 20
-88.8069
 30
0.0
 10
32.9902
 20
-88.8069
 30
0.0
 10
32.9902
 20
-88.8069
 30
0.0
 10
32.9902
 20
-88.8069
 30
0.0
 10
35.3805
 20
-88.8069
 30
0.0
 10
37.3047
 20
-90.7311
 30
0.0
 10
37.3047
 20
-93.1214
 30
0.0
 10
37.3047
 20
-93.1214
 30
0.0
 10
37.3047
 20
-93.1214
 30
0.0
 10
37.3047
 20
-99.1811
 30
0.0
 10
37.3047
 20
-99.1811
 30
0.0
 10
37.3047
 20
-99.1811
 30
0.0
 10
37.3047
 20
-99.1811
 30
0.0
 10
31.197
 20
-99.2291
 30
0.0
 10
31.197
 20
-99.2291
 30
0.0
 10
31.197
 20
-99.2291
 30
0.0
 10
28.8067
 20
-99.2291
 30
0.0
 10
26.8825
 20
-97.3049
 30
0.0
 10
26.8825
 20
-94.9146
 30
0.0
 10
26.8825
 20
-94.9146
 30
0.0
 10
26.8825
 20
-94.9146
 30
0.0
 10
26.9065
 20
-88.8069
 30
0.0
 10
26.9065
 20
-88.8069
 30
0.0
  0
SPLINE
  5
DF
330
1F
100
AcDbEntity
  8
layer 1
 62
     7
100
AcDbSpline
210
0.0
220
0.0
230
1.0
 70
    11
 71
     3
 72
    28
 73
    24
 74
     0
 42
0.0000000001
 43
0.0000000001
 12
1.0
 22
0.0
 32
0.0
 13
1.0
 23
0.0
 33
0.0
 40
0.0
 40
0.0
 40
0.0
 40
0.0
 40
0.1428571428571428
 40
0.1428571428571428
 40
0.1428571428571428
 40
0.1428571428571428
 40
0.2857142857142857
 40
0.2857142857142857
 40
0.2857142857142857
 40
0.2857142857142857
 40
0.4285714285714285
 40
0.4285714285714285
 40
0.4285714285714285
 40
0.4285714285714285
 40
0.5714285714285714
 40
0.5714285714285714
 40
0.5714285714285714
 40
0.5714285714285714
 40
0.7142857142857143
 40
0.7142857142857143
 40
0.7142857142857143
 40
0.7142857142857143
 40
1.0
 40
1.0
 40
1.0
 40
1.0
 10
49.3852
 20
-88.8069
 30
0.0
 10
49.3852
 20
-88.8069
 30
0.0
 10
43.3014
 20
-88.8069
 30
0.0
 10
43.3014
 20
-88.8069
 30
0.0
 10
43.3014
 20
-88.8069
 30
0.0
 10
40.9112
 20
-88.8069
 30
0.0
 10
38.9869
 20
-90.7311
 30
0.0
 10
38.9869
 20
-93.1214
 30
0.0
 10
38.9869
 20
-93.1214
 30
0.0
 10
38.9869
 20
-93.1214
 30
0.0
 10
38.9869
 20
-99.1811
 30
0.0
 10
38.9869
 20
-99.1811
 30
0.0
 10
38.9869
 20
-99.1811
 30
0.0
 10
38.9869
 20
-99.1811
 30
0.0
 10
45.0947
 20
-99.2291
 30
0.0
 10
45.0947
 20
-99.2291
 30
0.0
 10
45.0947
 20
-99.2291
 30
0.0
 10
47.4849
 20
-99.2291
 30
0.0
 10
49.4091
 20
-97.3049
 30
0.0
 10
49.4091
 20
-94.9146
 30
0.0
 10
49.4091
 20
-94.9146
 30
0.0
 10
49.4091
 20
-94.9146
 30
0.0
 10
49.3852
 20
-88.8069
 30
0.0
 10
49.3852
 20
-88.8069
 30
0.0
  0
SPLINE
  5
E0
330
1F
100
AcDbEntity
  8
layer 1
 62
     7
100
AcDbSpline
210
0.0
220
0.0
230
1.0
 70
    11
 71
     3
 72
    28
 73
    24
 74
     0
 42
0.0000000001
 43
0.0000000001
 12
1.0
 22
0.0
 32
0.0
 13
1.0
 23
0.0
 33
0.0
 40
0.0
 40
0.0
 40
0.0
 40
0.0
 40
0.1428571428571428
 40
0.1428571428571428
 40
0.1428571428571428
 40
0.1428571428571428
 40
0.2857142857142857
 40
0.2857142857142857
 40
0.2857142857142857
 40
0.2857142857142857
 40
0.4285714285714285
 40
0.4285714285714285
 40
0.4285714285714285
 40
0.4285714285714285
 40
0.5714285714285714
 40
0.5714285714285714
 40
0.5714285714285714
 40
0.5714285714285714
 40
0.7142857142857143
 40
0.7142857142857143
 40
0.7142857142857143
 40
0.7142857142857143
 40
1.0
 40
1.0
 40
1.0
 40
1.0
 10
26.9065
 20
-111.1657
 30
0.0
 10
26.9065
 20
-111.1657
 30
0.0
 10
32.9902
 20
-111.1657
 30
0.0
 10
32.9902
 20
-111.1657
 30
0.0
 10
32.9902
 20
-111.1657
 30
0.0
 10
35.3805
 20
-111.1657
 30
0.0
 10
37.3047
 20
-109.2415
 30
0.0
 10
37.3047
 20
-106.8512
 30
0.0
 10
37.3047
 20
-106.8512
 30
0.0
 10
37.3047
 20
-106.8512
 30
0.0
 10
37.3047
 20
-100.7915
 30
0.0
 10
37.3047
 20
-100.7915
 30
0.0
 10
37.3047
 20
-100.7915
 30
0.0
 10
37.3047
 20
-100.7915
 30
0.0
 10
31.197
 20
-100.7435
 30
0.0
 10
31.197
 20
-100.7435
 30
0.0
 10
31.197
 20
-100.7435
 30
0.0
 10
28.8067
 20
-100.7435
 30
0.0
 10
26.8825
 20
-102.6677
 30
0.0
 10
26.8825
 20
-105.058
 30
0.0
 10
26.8825
 20
-105.058
 30
0.0
 10
26.8825
 20
-105.058
 30
0.0
 10
26.9065
 20
-111.1657
 30
0.0
 10
26.9065
 20
-111.1657
 30
0.0
  0
SPLINE
  5
E1
330
1F
100
AcDbEntity
  8
layer 1
 62
     7
100
AcDbSpline
210
0.0
220
0.0
230
1.0
 70
    11
 71
     3
 72
    28
 73
    24
 74
     0
 42
0.0000000001
 43
0.0000000001
 12
1.0
 22
0.0
 32
0.0
 13
1.0
 23
0.0
 33
0.0
 40
0.0
 40
0.0
 40
0.0
 40
0.0
 40
0.1428571428571428
 40
0.1428571428571428
 40
0.1428571428571428
 40
0.1428571428571428
 40
0.2857142857142857
 40
0.2857142857142857
 40
0.2857142857142857
 40
0.2857142857142857
 40
0.4285714285714285
 40
0.4285714285714285
 40
0.4285714285714285
 40
0.4285714285714285
 40
0.5714285714285714
 40
0.5714285714285714
 40
0.5714285714285714
 40
0.5714285714285714
 40
0.7142857142857143
 40
0.7142857142857143
 40
0.7142857142857143
 40
0.7142857142857143
 40
1.0
 40
1.0
 40
1.0
 40
1.0
 10
49.3852
 20
-111.1657
 30
0.0
 10
49.3852
 20
-111.1657
 30
0.0
 10
43.3014
 20
-111.1657
 30
0.0
 10
43.3014
 20
-111.1657
 30
0.0
 10
43.3014
 20
-111.1657
 30
0.0
 10
40.9112
 20
-111.1657
 30
0.0
 10
38.9869
 20
-109.2415
 30
0.0
 10
38.9869
 20
-106.8512
 30
0.0
 10
38.9869
 20
-106.8512
 30
0.0
 10
38.9869
 20
-106.8512
 30
0.0
 10
38.9869
 20
-100.7915
 30
0.0
 10
38.9869
 20
-100.7915
 30
0.0
 10
38.9869
 20
-100.7915
 30
0.0
 10
38.9869
 20
-100.7915
 30
0.0
 10
45.0947
 20
-100.7435
 30
0.0
 10
45.0947
 20
-100.7435
 30
0.0
 10
45.0947
 20
-100.7435
 30
0.0
 10
47.4849
 20
-100.7435
 30
0.0
 10
49.4091
 20
-102.6677
 30
0.0
 10
49.4091
 20
-105.058
 30
0.0
 10
49.4091
 20
-105.058
 30
0.0
 10
49.4091
 20
-105.058
 30
0.0
 10
49.3852
 20
-111.1657
 30
0.0
 10
49.3852
 20
-111.1657
 30
0.0
  0
ENDSEC
  0
SECTION
  2
OBJECTS
  0
DICTIONARY
  5
C
330
0
100
AcDbDictionary
281
     1
  3
ACAD_GROUP
350
D
  3
ACAD_LAYOUT
350
1A
  3
ACAD_MATERIAL
350
3B
  3
ACAD_MLEADERSTYLE
350
103
  3
ACAD_MLINESTYLE
350
17
  3
ACAD_PLOTSETTINGS
350
19
  3
ACAD_PLOTSTYLENAME
350
E
  3
ACAD_TABLESTYLE
350
102
  3
ACAD_VISUALSTYLE
350
2A
  0
DICTIONARY
  5
D
102
{ACAD_REACTORS
330
C
102
}
330
C
100
AcDbDictionary
281
     1
  0
DICTIONARY
  5
1A
102
{ACAD_REACTORS
330
C
102
}
330
C
100
AcDbDictionary
281
     1
  3
Layout1
350
1E
  3
Layout2
350
26
  3
Model
350
22
  0
DICTIONARY
  5
3B
102
{ACAD_REACTORS
330
C
102
}
330
C
100
AcDbDictionary
281
     1
  3
ByBlock
350
3D
  3
ByLayer
350
3C
  3
Global
350
3E
  0
DICTIONARY
  5
103
102
{ACAD_REACTORS
330
C
102
}
330
C
100
AcDbDictionary
281
     1
  0
DICTIONARY
  5
17
102
{ACAD_REACTORS
330
C
102
}
330
C
100
AcDbDictionary
281
     1
  3
Standard
350
18
  0
DICTIONARY
  5
19
102
{ACAD_REACTORS
330
C
102
}
330
C
100
AcDbDictionary
281
     1
  0
ACDBDICTIONARYWDFLT
  5
E
102
{ACAD_REACTORS
330
C
102
}
330
C
100
AcDbDictionary
281
     1
  3
Normal
350
F
100
AcDbDictionaryWithDefault
340
F
  0
DICTIONARY
  5
102
102
{ACAD_REACTORS
330
C
102
}
330
C
100
AcDbDictionary
281
     1
  0
DICTIONARY
  5
2A
102
{ACAD_REACTORS
330
C
102
}
330
C
100
AcDbDictionary
281
     1
  3
2dWireframe
350
2F
  3
3D Hidden
350
31
  3
3dWireframe
350
30
  3
Basic
350
32
  3
Brighten
350
36
  3
ColorChange
350
3A
  3
Conceptual
350
34
  3
Dim
350
35
  3
Facepattern
350
39
  3
Flat
350
2B
  3
FlatWithEdges
350
2C
  3
Gouraud
350
2D
  3
GouraudWithEdges
350
2E
  3
Linepattern
350
38
  3
Realistic
350
33
  3
Thicken
350
37
  0
LAYOUT
  5
1E
102
{ACAD_REACTORS
330
1A
102
}
330
1A
100
AcDbPlotSettings
  1

  2
none_device
  4

  6

 40
0.0
 41
0.0
 42
0.0
 43
0.0
 44
0.0
 45
0.0
 46
0.0
 47
0.0
 48
0.0
 49
0.0
140
0.0
141
0.0
142
1.0
143
1.0
 70
   688
 72
     0
 73
     0
 74
     5
  7

 75
    16
 76
     0
 77
     2
 78
   300
147
1.0
148
0.0
149
0.0
100
AcDbLayout
  1
Layout1
 70
     1
 71
     1
 10
0.0
 20
0.0
 11
12.0
 21
9.0
 12
0.0
 22
0.0
 32
0.0
 14
1.000000000000000E+20
 24
1.000000000000000E+20
 34
1.000000000000000E+20
 15
-1.000000000000000E+20
 25
-1.000000000000000E+20
 35
-1.000000000000000E+20
146
0.0
 13
0.0
 23
0.0
 33
0.0
 16
1.0
 26
0.0
 36
0.0
 17
0.0
 27
1.0
 37
0.0
 76
     0
330
1B
  0
LAYOUT
  5
26
102
{ACAD_REACTORS
330
1A
102
}
330
1A
100
AcDbPlotSettings
  1

  2
none_device
  4

  6

 40
0.0
 41
0.0
 42
0.0
 43
0.0
 44
0.0
 45
0.0
 46
0.0
 47
0.0
 48
0.0
 49
0.0
140
0.0
141
0.0
142
1.0
143
1.0
 70
   688
 72
     0
 73
     0
 74
     5
  7

 75
    16
 76
     0
 77
     2
 78
   300
147
1.0
148
0.0
149
0.0
100
AcDbLayout
  1
Layout2
 70
     1
 71
     2
 10
0.0
 20
0.0
 11
0.0
 21
0.0
 12
0.0
 22
0.0
 32
0.0
 14
0.0
 24
0.0
 34
0.0
 15
0.0
 25
0.0
 35
0.0
146
0.0
 13
0.0
 23
0.0
 33
0.0
 16
1.0
 26
0.0
 36
0.0
 17
0.0
 27
1.0
 37
0.0
 76
     0
330
23
  0
LAYOUT
  5
22
102
{ACAD_REACTORS
330
1A
102
}
330
1A
100
AcDbPlotSettings
  1

  2
none_device
  4

  6

 40
0.0
 41
0.0
 42
0.0
 43
0.0
 44
0.0
 45
0.0
 46
0.0
 47
0.0
 48
0.0
 49
0.0
140
0.0
141
0.0
142
1.0
143
1.0
 70
  1712
 72
     0
 73
     0
 74
     0
  7

 75
     0
 76
     0
 77
     2
 78
   300
147
1.0
148
0.0
149
0.0
100
AcDbLayout
  1
Model
 70
     1
 71
     0
 10
0.0
 20
0.0
 11
12.0
 21
9.0
 12
0.0
 22
0.0
 32
0.0
 14
-49.5323
 24
-114.8075
 34
0.0
 15
53.7918
 25
131.8561
 35
0.0
146
0.0
 13
0.0
 23
0.0
 33
0.0
 16
1.0
 26
0.0
 36
0.0
 17
0.0
 27
1.0
 37
0.0
 76
     0
330
1F
331
29
  0
MATERIAL
  5
3D
102
{ACAD_REACTORS
330
3B
102
}
330
3B
100
AcDbMaterial
  1
ByBlock
 72
     1
 94
      127
  0
MATERIAL
  5
3C
102
{ACAD_REACTORS
330
3B
102
}
330
3B
100
AcDbMaterial
  1
ByLayer
 72
     1
 94
      127
  0
MATERIAL
  5
3E
102
{ACAD_REACTORS
330
3B
102
}
330
3B
100
AcDbMaterial
  1
Global
 72
     1
 94
      127
  0
MLINESTYLE
  5
18
102
{ACAD_REACTORS
330
17
102
}
330
17
100
AcDbMlineStyle
  2
Standard
 70
     0
  3

 62
   256
 51
90.0
 52
90.0
 71
     2
 49
0.5
 62
   256
  6
BYLAYER
 49
-0.5
 62
   256
  6
BYLAYER
  0
ACDBPLACEHOLDER
  5
F
102
{ACAD_REACTORS
330
E
102
}
330
E
  0
VISUALSTYLE
  5
2F
102
{ACAD_REACTORS
330
2A
102
}
102
{ACAD_XDICTIONARY
360
EA
102
}
330
2A
100
AcDbVisualStyle
  2
2dWireframe
 70
     4
 71
     0
 72
     2
 73
     0
 90
        0
 40
-0.6
 41
-30.0
 62
     5
 63
     7
421
 16777215
 74
     1
 91
        4
 64
     7
 65
   257
 75
     1
175
     1
 42
1.0
 92
        0
 66
   257
 43
1.0
 76
     1
 77
     6
 78
     2
 67
     7
 79
     5
170
     0
171
     0
290
     0
174
     0
 93
        1
 44
0.0
173
     0
291
     0
 45
0.0
  0
VISUALSTYLE
  5
31
102
{ACAD_REACTORS
330
2A
102
}
102
{ACAD_XDICTIONARY
360
EE
102
}
330
2A
100
AcDbVisualStyle
  2
3D Hidden
 70
     6
 71
     1
 72
     2
 73
     2
 90
        0
 40
-0.6
 41
-30.0
 62
     5
 63
     7
421
 16777215
 74
     2
 91
        2
 64
     7
 65
   257
 75
     2
175
     1
 42
40.0
 92
        0
 66
   257
 43
1.0
 76
     1
 77
     6
 78
     2
 67
     7
 79
     3
170
     0
171
     0
290
     0
174
     0
 93
        1
 44
0.0
173
     0
291
     0
 45
0.0
  0
VISUALSTYLE
  5
30
102
{ACAD_REACTORS
330
2A
102
}
102
{ACAD_XDICTIONARY
360
EC
102
}
330
2A
100
AcDbVisualStyle
  2
3dWireframe
 70
     5
 71
     0
 72
     2
 73
     0
 90
        0
 40
-0.6
 41
-30.0
 62
     5
 63
     7
421
 16777215
 74
     1
 91
        4
 64
     7
 65
   257
 75
     1
175
     1
 42
1.0
 92
        0
 66
   257
 43
1.0
 76
     1
 77
     6
 78
     2
 67
     7
 79
     5
170
     0
171
     0
290
     0
174
     0
 93
        1
 44
0.0
173
     0
291
     0
 45
0.0
  0
VISUALSTYLE
  5
32
102
{ACAD_REACTORS
330
2A
102
}
102
{ACAD_XDICTIONARY
360
F0
102
}
330
2A
100
AcDbVisualStyle
  2
Basic
 70
     7
 71
     1
 72
     0
 73
     1
 90
        0
 40
-0.6
 41
-30.0
 62
     5
 63
     7
421
 16777215
 74
     0
 91
        4
 64
     7
 65
   257
 75
     1
175
     1
 42
1.0
 92
        8
 66
     7
 43
1.0
 76
     1
 77
     6
 78
     2
 67
     7
 79
     5
170
     0
171
     0
290
     0
174
     0
 93
        1
 44
0.0
173
     0
291
     1
 45
0.0
  0
VISUALSTYLE
  5
36
102
{ACAD_REACTORS
330
2A
102
}
102
{ACAD_XDICTIONARY
360
F8
102
}
330
2A
100
AcDbVisualStyle
  2
Brighten
 70
    12
 71
     2
 72
     2
 73
     0
 90
        0
 40
-0.6
 41
-30.0
 62
     5
 63
     7
421
 16777215
 74
     1
 91
        4
 64
     7
 65
   257
 75
     1
175
     1
 42
1.0
 92
        8
 66
     7
 43
1.0
 76
     1
 77
     6
 78
     2
 67
     7
 79
     5
170
     0
171
     0
290
     0
174
     0
 93
        1
 44
50.0
173
     0
291
     1
 45
0.0
  0
VISUALSTYLE
  5
3A
102
{ACAD_REACTORS
330
2A
102
}
102
{ACAD_XDICTIONARY
360
100
102
}
330
2A
100
AcDbVisualStyle
  2
ColorChange
 70
    16
 71
     2
 72
     2
 73
     3
 90
        0
 40
-0.6
 41
-30.0
 62
     5
 63
     8
421
  8421504
 74
     1
 91
        4
 64
     7
 65
   257
 75
     1
175
     1
 42
1.0
 92
        8
 66
     8
424
  8421504
 43
1.0
 76
     1
 77
     6
 78
     2
 67
     7
 79
     5
170
     0
171
     0
290
     0
174
     0
 93
        1
 44
0.0
173
     0
291
     1
 45
0.0
  0
VISUALSTYLE
  5
34
102
{ACAD_REACTORS
330
2A
102
}
102
{ACAD_XDICTIONARY
360
F4
102
}
330
2A
100
AcDbVisualStyle
  2
Conceptual
 70
     9
 71
     3
 72
     2
 73
     0
 90
        0
 40
-0.6
 41
-30.0
 62
     5
 63
     7
421
 16777215
 74
     2
 91
        2
 64
     7
 65
   257
 75
     1
175
     1
 42
40.0
 92
        8
 66
     7
 43
1.0
 76
     1
 77
     6
 78
     2
 67
     7
 79
     3
170
     0
171
     0
290
     0
174
     0
 93
        1
 44
0.0
173
     0
291
     0
 45
0.0
  0
VISUALSTYLE
  5
35
102
{ACAD_REACTORS
330
2A
102
}
102
{ACAD_XDICTIONARY
360
F6
102
}
330
2A
100
AcDbVisualStyle
  2
Dim
 70
    11
 71
     2
 72
     2
 73
     0
 90
        0
 40
-0.6
 41
-30.0
 62
     5
 63
     7
421
 16777215
 74
     1
 91
        4
 64
     7
 65
   257
 75
     1
175
     1
 42
1.0
 92
        8
 66
     7
 43
1.0
 76
     1
 77
     6
 78
     2
 67
     7
 79
     5
170
     0
171
     0
290
     0
174
     0
 93
        1
 44
-50.0
173
     0
291
     1
 45
0.0
  0
VISUALSTYLE
  5
39
102
{ACAD_REACTORS
330
2A
102
}
102
{ACAD_XDICTIONARY
360
FE
102
}
330
2A
100
AcDbVisualStyle
  2
Facepattern
 70
    15
 71
     2
 72
     2
 73
     0
 90
        0
 40
-0.6
 41
-30.0
 62
     5
 63
     7
421
 16777215
 74
     1
 91
        4
 64
     7
 65
   257
 75
     1
175
     1
 42
1.0
 92
        8
 66
     7
 43
1.0
 76
     1
 77
     6
 78
     2
 67
     7
 79
     5
170
     0
171
     0
290
     0
174
     0
 93
        1
 44
0.0
173
     0
291
     1
 45
0.0
  0
VISUALSTYLE
  5
2B
102
{ACAD_REACTORS
330
2A
102
}
102
{ACAD_XDICTIONARY
360
E2
102
}
330
2A
100
AcDbVisualStyle
  2
Flat
 70
     0
 71
     2
 72
     1
 73
     1
 90
        2
 40
-0.6
 41
30.0
 62
     5
 63
     7
421
 16777215
 74
     0
 91
        4
 64
     7
 65
   257
 75
     1
175
     1
 42
1.0
 92
        8
 66
     7
 43
1.0
 76
     1
 77
     6
 78
     2
 67
     7
 79
     5
170
     0
171
     0
290
     0
174
     0
 93
       13
 44
0.0
173
     0
291
     1
 45
0.0
  0
VISUALSTYLE
  5
2C
102
{ACAD_REACTORS
330
2A
102
}
102
{ACAD_XDICTIONARY
360
E4
102
}
330
2A
100
AcDbVisualStyle
  2
FlatWithEdges
 70
     1
 71
     2
 72
     1
 73
     1
 90
        2
 40
-0.6
 41
30.0
 62
     5
 63
     7
421
 16777215
 74
     1
 91
        4
 64
     7
 65
   257
 75
     1
175
     1
 42
1.0
 92
        0
 66
   257
 43
1.0
 76
     1
 77
     6
 78
     2
 67
     7
 79
     5
170
     0
171
     0
290
     0
174
     0
 93
       13
 44
0.0
173
     0
291
     1
 45
0.0
  0
VISUALSTYLE
  5
2D
102
{ACAD_REACTORS
330
2A
102
}
102
{ACAD_XDICTIONARY
360
E6
102
}
330
2A
100
AcDbVisualStyle
  2
Gouraud
 70
     2
 71
     2
 72
     2
 73
     1
 90
        2
 40
-0.6
 41
30.0
 62
     5
 63
     7
421
 16777215
 74
     0
 91
        4
 64
     7
 65
   257
 75
     1
175
     1
 42
1.0
 92
        0
 66
     7
 43
1.0
 76
     1
 77
     6
 78
     2
 67
     7
 79
     5
170
     0
171
     0
290
     0
174
     0
 93
       13
 44
0.0
173
     0
291
     1
 45
0.0
  0
VISUALSTYLE
  5
2E
102
{ACAD_REACTORS
330
2A
102
}
102
{ACAD_XDICTIONARY
360
E8
102
}
330
2A
100
AcDbVisualStyle
  2
GouraudWithEdges
 70
     3
 71
     2
 72
     2
 73
     1
 90
        2
 40
-0.6
 41
30.0
 62
     5
 63
     7
421
 16777215
 74
     1
 91
        4
 64
     7
 65
   257
 75
     1
175
     1
 42
1.0
 92
        0
 66
   257
 43
1.0
 76
     1
 77
     6
 78
     2
 67
     7
 79
     5
170
     0
171
     0
290
     0
174
     0
 93
       13
 44
0.0
173
     0
291
     1
 45
0.0
  0
VISUALSTYLE
  5
38
102
{ACAD_REACTORS
330
2A
102
}
102
{ACAD_XDICTIONARY
360
FC
102
}
330
2A
100
AcDbVisualStyle
  2
Linepattern
 70
    14
 71
     2
 72
     2
 73
     0
 90
        0
 40
-0.6
 41
-30.0
 62
     5
 63
     7
421
 16777215
 74
     1
 91
        4
 64
     7
 65
   257
 75
     7
175
     7
 42
1.0
 92
        8
 66
     7
 43
1.0
 76
     1
 77
     6
 78
     2
 67
     7
 79
     5
170
     0
171
     0
290
     0
174
     0
 93
        1
 44
0.0
173
     0
291
     1
 45
0.0
  0
VISUALSTYLE
  5
33
102
{ACAD_REACTORS
330
2A
102
}
102
{ACAD_XDICTIONARY
360
F2
102
}
330
2A
100
AcDbVisualStyle
  2
Realistic
 70
     8
 71
     2
 72
     2
 73
     0
 90
        0
 40
-0.6
 41
-30.0
 62
     5
 63
     7
421
 16777215
 74
     1
 91
        0
 64
     7
 65
   257
 75
     1
175
     1
 42
1.0
 92
        8
 66
     8
424
  7895160
 43
1.0
 76
     1
 77
     6
 78
     2
 67
     7
 79
     5
170
     0
171
     0
290
     0
174
     0
 93
       13
 44
0.0
173
     0
291
     0
 45
0.0
  0
VISUALSTYLE
  5
37
102
{ACAD_REACTORS
330
2A
102
}
102
{ACAD_XDICTIONARY
360
FA
102
}
330
2A
100
AcDbVisualStyle
  2
Thicken
 70
    13
 71
     2
 72
     2
 73
     0
 90
        0
 40
-0.6
 41
-30.0
 62
     5
 63
     7
421
 16777215
 74
     1
 91
        4
 64
     7
 65
   257
 75
     1
175
     1
 42
1.0
 92
       12
 66
     7
 43
1.0
 76
     1
 77
     6
 78
     2
 67
     7
 79
     5
170
     0
171
     0
290
     0
174
     0
 93
        1
 44
0.0
173
     0
291
     1
 45
0.0
  0
DICTIONARY
  5
EA
330
2F
100
AcDbDictionary
280
     1
281
     1
  3
ACAD_XREC_ROUNDTRIP
360
EB
  0
DICTIONARY
  5
EE
330
31
100
AcDbDictionary
280
     1
281
     1
  3
ACAD_XREC_ROUNDTRIP
360
EF
  0
DICTIONARY
  5
EC
330
30
100
AcDbDictionary
280
     1
281
     1
  3
ACAD_XREC_ROUNDTRIP
360
ED
  0
DICTIONARY
  5
F0
330
32
100
AcDbDictionary
280
     1
281
     1
  3
ACAD_XREC_ROUNDTRIP
360
F1
  0
DICTIONARY
  5
F8
330
36
100
AcDbDictionary
280
     1
281
     1
  3
ACAD_XREC_ROUNDTRIP
360
F9
  0
DICTIONARY
  5
100
330
3A
100
AcDbDictionary
280
     1
281
     1
  3
ACAD_XREC_ROUNDTRIP
360
101
  0
DICTIONARY
  5
F4
330
34
100
AcDbDictionary
280
     1
281
     1
  3
ACAD_XREC_ROUNDTRIP
360
F5
  0
DICTIONARY
  5
F6
330
35
100
AcDbDictionary
280
     1
281
     1
  3
ACAD_XREC_ROUNDTRIP
360
F7
  0
DICTIONARY
  5
FE
330
39
100
AcDbDictionary
280
     1
281
     1
  3
ACAD_XREC_ROUNDTRIP
360
FF
  0
DICTIONARY
  5
E2
330
2B
100
AcDbDictionary
280
     1
281
     1
  3
ACAD_XREC_ROUNDTRIP
360
E3
  0
DICTIONARY
  5
E4
330
2C
100
AcDbDictionary
280
     1
281
     1
  3
ACAD_XREC_ROUNDTRIP
360
E5
  0
DICTIONARY
  5
E6
330
2D
100
AcDbDictionary
280
     1
281
     1
  3
ACAD_XREC_ROUNDTRIP
360
E7
  0
DICTIONARY
  5
E8
330
2E
100
AcDbDictionary
280
     1
281
     1
  3
ACAD_XREC_ROUNDTRIP
360
E9
  0
DICTIONARY
  5
FC
330
38
100
AcDbDictionary
280
     1
281
     1
  3
ACAD_XREC_ROUNDTRIP
360
FD
  0
DICTIONARY
  5
F2
330
33
100
AcDbDictionary
280
     1
281
     1
  3
ACAD_XREC_ROUNDTRIP
360
F3
  0
DICTIONARY
  5
FA
330
37
100
AcDbDictionary
280
     1
281
     1
  3
ACAD_XREC_ROUNDTRIP
360
FB
  0
XRECORD
  5
EB
102
{ACAD_REACTORS
330
EA
102
}
330
EA
100
AcDbXrecord
280
     1
102
RTVSPropertyOp0
 70
     1
102
RTVSPropertyOp1
 70
     1
102
RTVSPropertyOp2
 70
     1
102
RTVSPropertyOp3
 70
     1
102
RTVSPropertyOp4
 70
     1
102
RTVSPropertyOp5
 70
     1
102
RTVSPropertyOp6
 70
     1
102
RTVSPropertyOp7
 70
     1
102
RTVSPropertyOp8
 70
     1
102
RTVSPropertyOp9
 70
     1
102
RTVSPropertyOp10
 70
     1
102
RTVSPropertyOp11
 70
     1
102
RTVSPropertyOp12
 70
     1
102
RTVSPropertyOp13
 70
     1
102
RTVSPropertyOp14
 70
     1
102
RTVSPropertyOp15
 70
     1
102
RTVSPropertyOp16
 70
     1
102
RTVSPropertyOp17
 70
     1
102
RTVSPropertyOp18
 70
     1
102
RTVSPropertyOp19
 70
     1
102
RTVSPropertyOp20
 70
     1
102
RTVSPropertyOp21
 70
     1
102
RTVSPropertyOp22
 70
     1
102
RTVSPropertyOp23
 70
     1
102
RTVSPropertyOp24
 70
     1
102
RTVSPropertyOp25
 70
     1
102
RTVSPropertyOp26
 70
     1
102
RTVSPropertyOp27
 70
     1
102
RTVSPropertyOp28
 70
     1
102
RTVSPropertyOp29
 70
     1
102
RTVSPropertyOp30
 70
     1
102
RTVSPropertyOp31
 70
     1
102
RTVSPropertyOp32
 70
     1
  0
XRECORD
  5
EF
102
{ACAD_REACTORS
330
EE
102
}
330
EE
100
AcDbXrecord
280
     1
102
RTVSPropertyOp0
 70
     1
102
RTVSPropertyOp1
 70
     1
102
RTVSPropertyOp2
 70
     1
102
RTVSPropertyOp3
 70
     1
102
RTVSPropertyOp4
 70
     1
102
RTVSPropertyOp5
 70
     1
102
RTVSPropertyOp6
 70
     1
102
RTVSPropertyOp7
 70
     1
102
RTVSPropertyOp8
 70
     1
102
RTVSPropertyOp9
 70
     1
102
RTVSPropertyOp10
 70
     1
102
RTVSPropertyOp11
 70
     1
102
RTVSPropertyOp12
 70
     1
102
RTVSPropertyOp13
 70
     1
102
RTVSPropertyOp14
 70
     1
102
RTVSPropertyOp15
 70
     1
102
RTVSPropertyOp16
 70
     1
102
RTVSPropertyOp17
 70
     1
102
RTVSPropertyOp18
 70
     1
102
RTVSPropertyOp19
 70
     1
102
RTVSPropertyOp20
 70
     1
102
RTVSPropertyOp21
 70
     1
102
RTVSPropertyOp22
 70
     1
102
RTVSPropertyOp23
 70
     1
102
RTVSPropertyOp24
 70
     1
102
RTVSPropertyOp25
 70
     1
102
RTVSPropertyOp26
 70
     1
102
RTVSPropertyOp27
 70
     1
102
RTVSPropertyOp28
 70
     1
102
RTVSPropertyOp29
 70
     1
102
RTVSPropertyOp30
 70
     1
102
RTVSPropertyOp31
 70
     1
102
RTVSPropertyOp32
 70
     1
  0
XRECORD
  5
ED
102
{ACAD_REACTORS
330
EC
102
}
330
EC
100
AcDbXrecord
280
     1
102
RTVSPropertyOp0
 70
     1
102
RTVSPropertyOp1
 70
     1
102
RTVSPropertyOp2
 70
     1
102
RTVSPropertyOp3
 70
     1
102
RTVSPropertyOp4
 70
     1
102
RTVSPropertyOp5
 70
     1
102
RTVSPropertyOp6
 70
     1
102
RTVSPropertyOp7
 70
     1
102
RTVSPropertyOp8
 70
     1
102
RTVSPropertyOp9
 70
     1
102
RTVSPropertyOp10
 70
     1
102
RTVSPropertyOp11
 70
     1
102
RTVSPropertyOp12
 70
     1
102
RTVSPropertyOp13
 70
     1
102
RTVSPropertyOp14
 70
     1
102
RTVSPropertyOp15
 70
     1
102
RTVSPropertyOp16
 70
     1
102
RTVSPropertyOp17
 70
     1
102
RTVSPropertyOp18
 70
     1
102
RTVSPropertyOp19
 70
     1
102
RTVSPropertyOp20
 70
     1
102
RTVSPropertyOp21
 70
     1
102
RTVSPropertyOp22
 70
     1
102
RTVSPropertyOp23
 70
     1
102
RTVSPropertyOp24
 70
     1
102
RTVSPropertyOp25
 70
     1
102
RTVSPropertyOp26
 70
     1
102
RTVSPropertyOp27
 70
     1
102
RTVSPropertyOp28
 70
     1
102
RTVSPropertyOp29
 70
     1
102
RTVSPropertyOp30
 70
     1
102
RTVSPropertyOp31
 70
     1
102
RTVSPropertyOp32
 70
     1
  0
XRECORD
  5
F1
102
{ACAD_REACTORS
330
F0
102
}
330
F0
100
AcDbXrecord
280
     1
102
RTVSPropertyOp0
 70
     1
102
RTVSPropertyOp1
 70
     1
102
RTVSPropertyOp2
 70
     1
102
RTVSPropertyOp3
 70
     1
102
RTVSPropertyOp4
 70
     1
102
RTVSPropertyOp5
 70
     1
102
RTVSPropertyOp6
 70
     1
102
RTVSPropertyOp7
 70
     1
102
RTVSPropertyOp8
 70
     1
102
RTVSPropertyOp9
 70
     1
102
RTVSPropertyOp10
 70
     1
102
RTVSPropertyOp11
 70
     1
102
RTVSPropertyOp12
 70
     1
102
RTVSPropertyOp13
 70
     1
102
RTVSPropertyOp14
 70
     1
102
RTVSPropertyOp15
 70
     1
102
RTVSPropertyOp16
 70
     1
102
RTVSPropertyOp17
 70
     1
102
RTVSPropertyOp18
 70
     1
102
RTVSPropertyOp19
 70
     1
102
RTVSPropertyOp20
 70
     1
102
RTVSPropertyOp21
 70
     1
102
RTVSPropertyOp22
 70
     1
102
RTVSPropertyOp23
 70
     1
102
RTVSPropertyOp24
 70
     1
102
RTVSPropertyOp25
 70
     1
102
RTVSPropertyOp26
 70
     1
102
RTVSPropertyOp27
 70
     1
102
RTVSPropertyOp28
 70
     1
102
RTVSPropertyOp29
 70
     1
102
RTVSPropertyOp30
 70
     1
102
RTVSPropertyOp31
 70
     1
102
RTVSPropertyOp32
 70
     1
  0
XRECORD
  5
F9
102
{ACAD_REACTORS
330
F8
102
}
330
F8
100
AcDbXrecord
280
     1
102
RTVSPropertyOp0
 70
     1
102
RTVSPropertyOp1
 70
     1
102
RTVSPropertyOp2
 70
     1
102
RTVSPropertyOp3
 70
     1
102
RTVSPropertyOp4
 70
     1
102
RTVSPropertyOp5
 70
     1
102
RTVSPropertyOp6
 70
     1
102
RTVSPropertyOp7
 70
     1
102
RTVSPropertyOp8
 70
     1
102
RTVSPropertyOp9
 70
     1
102
RTVSPropertyOp10
 70
     1
102
RTVSPropertyOp11
 70
     1
102
RTVSPropertyOp12
 70
     1
102
RTVSPropertyOp13
 70
     1
102
RTVSPropertyOp14
 70
     1
102
RTVSPropertyOp15
 70
     1
102
RTVSPropertyOp16
 70
     1
102
RTVSPropertyOp17
 70
     1
102
RTVSPropertyOp18
 70
     1
102
RTVSPropertyOp19
 70
     1
102
RTVSPropertyOp20
 70
     1
102
RTVSPropertyOp21
 70
     1
102
RTVSPropertyOp22
 70
     1
102
RTVSPropertyOp23
 70
     1
102
RTVSPropertyOp24
 70
     1
102
RTVSPropertyOp25
 70
     1
102
RTVSPropertyOp26
 70
     1
102
RTVSPropertyOp27
 70
     1
102
RTVSPropertyOp28
 70
     1
102
RTVSPropertyOp29
 70
     1
102
RTVSPropertyOp30
 70
     1
102
RTVSPropertyOp31
 70
     1
102
RTVSPropertyOp32
 70
     1
  0
XRECORD
  5
101
102
{ACAD_REACTORS
330
100
102
}
330
100
100
AcDbXrecord
280
     1
102
RTVSPropertyOp0
 70
     1
102
RTVSPropertyOp1
 70
     1
102
RTVSPropertyOp2
 70
     1
102
RTVSPropertyOp3
 70
     1
102
RTVSPropertyOp4
 70
     1
102
RTVSPropertyOp5
 70
     1
102
RTVSPropertyOp6
 70
     1
102
RTVSPropertyOp7
 70
     1
102
RTVSPropertyOp8
 70
     1
102
RTVSPropertyOp9
 70
     1
102
RTVSPropertyOp10
 70
     1
102
RTVSPropertyOp11
 70
     1
102
RTVSPropertyOp12
 70
     1
102
RTVSPropertyOp13
 70
     1
102
RTVSPropertyOp14
 70
     1
102
RTVSPropertyOp15
 70
     1
102
RTVSPropertyOp16
 70
     1
102
RTVSPropertyOp17
 70
     1
102
RTVSPropertyOp18
 70
     1
102
RTVSPropertyOp19
 70
     1
102
RTVSPropertyOp20
 70
     1
102
RTVSPropertyOp21
 70
     1
102
RTVSPropertyOp22
 70
     1
102
RTVSPropertyOp23
 70
     1
102
RTVSPropertyOp24
 70
     1
102
RTVSPropertyOp25
 70
     1
102
RTVSPropertyOp26
 70
     1
102
RTVSPropertyOp27
 70
     1
102
RTVSPropertyOp28
 70
     1
102
RTVSPropertyOp29
 70
     1
102
RTVSPropertyOp30
 70
     1
102
RTVSPropertyOp31
 70
     1
102
RTVSPropertyOp32
 70
     1
  0
XRECORD
  5
F5
102
{ACAD_REACTORS
330
F4
102
}
330
F4
100
AcDbXrecord
280
     1
102
RTVSPropertyOp0
 70
     1
102
RTVSPropertyOp1
 70
     1
102
RTVSPropertyOp2
 70
     1
102
RTVSPropertyOp3
 70
     1
102
RTVSPropertyOp4
 70
     1
102
RTVSPropertyOp5
 70
     1
102
RTVSPropertyOp6
 70
     1
102
RTVSPropertyOp7
 70
     1
102
RTVSPropertyOp8
 70
     1
102
RTVSPropertyOp9
 70
     1
102
RTVSPropertyOp10
 70
     1
102
RTVSPropertyOp11
 70
     1
102
RTVSPropertyOp12
 70
     1
102
RTVSPropertyOp13
 70
     1
102
RTVSPropertyOp14
 70
     1
102
RTVSPropertyOp15
 70
     1
102
RTVSPropertyOp16
 70
     1
102
RTVSPropertyOp17
 70
     1
102
RTVSPropertyOp18
 70
     1
102
RTVSPropertyOp19
 70
     1
102
RTVSPropertyOp20
 70
     1
102
RTVSPropertyOp21
 70
     1
102
RTVSPropertyOp22
 70
     1
102
RTVSPropertyOp23
 70
     1
102
RTVSPropertyOp24
 70
     1
102
RTVSPropertyOp25
 70
     1
102
RTVSPropertyOp26
 70
     1
102
RTVSPropertyOp27
 70
     1
102
RTVSPropertyOp28
 70
     1
102
RTVSPropertyOp29
 70
     1
102
RTVSPropertyOp30
 70
     1
102
RTVSPropertyOp31
 70
     1
102
RTVSPropertyOp32
 70
     1
  0
XRECORD
  5
F7
102
{ACAD_REACTORS
330
F6
102
}
330
F6
100
AcDbXrecord
280
     1
102
RTVSPropertyOp0
 70
     1
102
RTVSPropertyOp1
 70
     1
102
RTVSPropertyOp2
 70
     1
102
RTVSPropertyOp3
 70
     1
102
RTVSPropertyOp4
 70
     1
102
RTVSPropertyOp5
 70
     1
102
RTVSPropertyOp6
 70
     1
102
RTVSPropertyOp7
 70
     1
102
RTVSPropertyOp8
 70
     1
102
RTVSPropertyOp9
 70
     1
102
RTVSPropertyOp10
 70
     1
102
RTVSPropertyOp11
 70
     1
102
RTVSPropertyOp12
 70
     1
102
RTVSPropertyOp13
 70
     1
102
RTVSPropertyOp14
 70
     1
102
RTVSPropertyOp15
 70
     1
102
RTVSPropertyOp16
 70
     1
102
RTVSPropertyOp17
 70
     1
102
RTVSPropertyOp18
 70
     1
102
RTVSPropertyOp19
 70
     1
102
RTVSPropertyOp20
 70
     1
102
RTVSPropertyOp21
 70
     1
102
RTVSPropertyOp22
 70
     1
102
RTVSPropertyOp23
 70
     1
102
RTVSPropertyOp24
 70
     1
102
RTVSPropertyOp25
 70
     1
102
RTVSPropertyOp26
 70
     1
102
RTVSPropertyOp27
 70
     1
102
RTVSPropertyOp28
 70
     1
102
RTVSPropertyOp29
 70
     1
102
RTVSPropertyOp30
 70
     1
102
RTVSPropertyOp31
 70
     1
102
RTVSPropertyOp32
 70
     1
  0
XRECORD
  5
FF
102
{ACAD_REACTORS
330
FE
102
}
330
FE
100
AcDbXrecord
280
     1
102
RTVSPropertyOp0
 70
     1
102
RTVSPropertyOp1
 70
     1
102
RTVSPropertyOp2
 70
     1
102
RTVSPropertyOp3
 70
     1
102
RTVSPropertyOp4
 70
     1
102
RTVSPropertyOp5
 70
     1
102
RTVSPropertyOp6
 70
     1
102
RTVSPropertyOp7
 70
     1
102
RTVSPropertyOp8
 70
     1
102
RTVSPropertyOp9
 70
     1
102
RTVSPropertyOp10
 70
     1
102
RTVSPropertyOp11
 70
     1
102
RTVSPropertyOp12
 70
     1
102
RTVSPropertyOp13
 70
     1
102
RTVSPropertyOp14
 70
     1
102
RTVSPropertyOp15
 70
     1
102
RTVSPropertyOp16
 70
     1
102
RTVSPropertyOp17
 70
     1
102
RTVSPropertyOp18
 70
     1
102
RTVSPropertyOp19
 70
     1
102
RTVSPropertyOp20
 70
     1
102
RTVSPropertyOp21
 70
     1
102
RTVSPropertyOp22
 70
     1
102
RTVSPropertyOp23
 70
     1
102
RTVSPropertyOp24
 70
     1
102
RTVSPropertyOp25
 70
     1
102
RTVSPropertyOp26
 70
     1
102
RTVSPropertyOp27
 70
     1
102
RTVSPropertyOp28
 70
     1
102
RTVSPropertyOp29
 70
     1
102
RTVSPropertyOp30
 70
     1
102
RTVSPropertyOp31
 70
     1
102
RTVSPropertyOp32
 70
     1
  0
XRECORD
  5
E3
102
{ACAD_REACTORS
330
E2
102
}
330
E2
100
AcDbXrecord
280
     1
102
RTVSPropertyOp0
 70
     1
102
RTVSPropertyOp1
 70
     1
102
RTVSPropertyOp2
 70
     1
102
RTVSPropertyOp3
 70
     1
102
RTVSPropertyOp4
 70
     1
102
RTVSPropertyOp5
 70
     1
102
RTVSPropertyOp6
 70
     1
102
RTVSPropertyOp7
 70
     1
102
RTVSPropertyOp8
 70
     1
102
RTVSPropertyOp9
 70
     1
102
RTVSPropertyOp10
 70
     1
102
RTVSPropertyOp11
 70
     1
102
RTVSPropertyOp12
 70
     1
102
RTVSPropertyOp13
 70
     1
102
RTVSPropertyOp14
 70
     1
102
RTVSPropertyOp15
 70
     1
102
RTVSPropertyOp16
 70
     1
102
RTVSPropertyOp17
 70
     1
102
RTVSPropertyOp18
 70
     1
102
RTVSPropertyOp19
 70
     1
102
RTVSPropertyOp20
 70
     1
102
RTVSPropertyOp21
 70
     1
102
RTVSPropertyOp22
 70
     1
102
RTVSPropertyOp23
 70
     1
102
RTVSPropertyOp24
 70
     1
102
RTVSPropertyOp25
 70
     1
102
RTVSPropertyOp26
 70
     1
102
RTVSPropertyOp27
 70
     1
102
RTVSPropertyOp28
 70
     1
102
RTVSPropertyOp29
 70
     1
102
RTVSPropertyOp30
 70
     1
102
RTVSPropertyOp31
 70
     1
102
RTVSPropertyOp32
 70
     1
  0
XRECORD
  5
E5
102
{ACAD_REACTORS
330
E4
102
}
330
E4
100
AcDbXrecord
280
     1
102
RTVSPropertyOp0
 70
     1
102
RTVSPropertyOp1
 70
     1
102
RTVSPropertyOp2
 70
     1
102
RTVSPropertyOp3
 70
     1
102
RTVSPropertyOp4
 70
     1
102
RTVSPropertyOp5
 70
     1
102
RTVSPropertyOp6
 70
     1
102
RTVSPropertyOp7
 70
     1
102
RTVSPropertyOp8
 70
     1
102
RTVSPropertyOp9
 70
     1
102
RTVSPropertyOp10
 70
     1
102
RTVSPropertyOp11
 70
     1
102
RTVSPropertyOp12
 70
     1
102
RTVSPropertyOp13
 70
     1
102
RTVSPropertyOp14
 70
     1
102
RTVSPropertyOp15
 70
     1
102
RTVSPropertyOp16
 70
     1
102
RTVSPropertyOp17
 70
     1
102
RTVSPropertyOp18
 70
     1
102
RTVSPropertyOp19
 70
     1
102
RTVSPropertyOp20
 70
     1
102
RTVSPropertyOp21
 70
     1
102
RTVSPropertyOp22
 70
     1
102
RTVSPropertyOp23
 70
     1
102
RTVSPropertyOp24
 70
     1
102
RTVSPropertyOp25
 70
     1
102
RTVSPropertyOp26
 70
     1
102
RTVSPropertyOp27
 70
     1
102
RTVSPropertyOp28
 70
     1
102
RTVSPropertyOp29
 70
     1
102
RTVSPropertyOp30
 70
     1
102
RTVSPropertyOp31
 70
     1
102
RTVSPropertyOp32
 70
     1
  0
XRECORD
  5
E7
102
{ACAD_REACTORS
330
E6
102
}
330
E6
100
AcDbXrecord
280
     1
102
RTVSPropertyOp0
 70
     1
102
RTVSPropertyOp1
 70
     1
102
RTVSPropertyOp2
 70
     1
102
RTVSPropertyOp3
 70
     1
102
RTVSPropertyOp4
 70
     1
102
RTVSPropertyOp5
 70
     1
102
RTVSPropertyOp6
 70
     1
102
RTVSPropertyOp7
 70
     1
102
RTVSPropertyOp8
 70
     1
102
RTVSPropertyOp9
 70
     1
102
RTVSPropertyOp10
 70
     1
102
RTVSPropertyOp11
 70
     1
102
RTVSPropertyOp12
 70
     1
102
RTVSPropertyOp13
 70
     1
102
RTVSPropertyOp14
 70
     1
102
RTVSPropertyOp15
 70
     1
102
RTVSPropertyOp16
 70
     1
102
RTVSPropertyOp17
 70
     1
102
RTVSPropertyOp18
 70
     1
102
RTVSPropertyOp19
 70
     1
102
RTVSPropertyOp20
 70
     1
102
RTVSPropertyOp21
 70
     1
102
RTVSPropertyOp22
 70
     1
102
RTVSPropertyOp23
 70
     1
102
RTVSPropertyOp24
 70
     1
102
RTVSPropertyOp25
 70
     1
102
RTVSPropertyOp26
 70
     1
102
RTVSPropertyOp27
 70
     1
102
RTVSPropertyOp28
 70
     1
102
RTVSPropertyOp29
 70
     1
102
RTVSPropertyOp30
 70
     1
102
RTVSPropertyOp31
 70
     1
102
RTVSPropertyOp32
 70
     1
  0
XRECORD
  5
E9
102
{ACAD_REACTORS
330
E8
102
}
330
E8
100
AcDbXrecord
280
     1
102
RTVSPropertyOp0
 70
     1
102
RTVSPropertyOp1
 70
     1
102
RTVSPropertyOp2
 70
     1
102
RTVSPropertyOp3
 70
     1
102
RTVSPropertyOp4
 70
     1
102
RTVSPropertyOp5
 70
     1
102
RTVSPropertyOp6
 70
     1
102
RTVSPropertyOp7
 70
     1
102
RTVSPropertyOp8
 70
     1
102
RTVSPropertyOp9
 70
     1
102
RTVSPropertyOp10
 70
     1
102
RTVSPropertyOp11
 70
     1
102
RTVSPropertyOp12
 70
     1
102
RTVSPropertyOp13
 70
     1
102
RTVSPropertyOp14
 70
     1
102
RTVSPropertyOp15
 70
     1
102
RTVSPropertyOp16
 70
     1
102
RTVSPropertyOp17
 70
     1
102
RTVSPropertyOp18
 70
     1
102
RTVSPropertyOp19
 70
     1
102
RTVSPropertyOp20
 70
     1
102
RTVSPropertyOp21
 70
     1
102
RTVSPropertyOp22
 70
     1
102
RTVSPropertyOp23
 70
     1
102
RTVSPropertyOp24
 70
     1
102
RTVSPropertyOp25
 70
     1
102
RTVSPropertyOp26
 70
     1
102
RTVSPropertyOp27
 70
     1
102
RTVSPropertyOp28
 70
     1
102
RTVSPropertyOp29
 70
     1
102
RTVSPropertyOp30
 70
     1
102
RTVSPropertyOp31
 70
     1
102
RTVSPropertyOp32
 70
     1
  0
XRECORD
  5
FD
102
{ACAD_REACTORS
330
FC
102
}
330
FC
100
AcDbXrecord
280
     1
102
RTVSPropertyOp0
 70
     1
102
RTVSPropertyOp1
 70
     1
102
RTVSPropertyOp2
 70
     1
102
RTVSPropertyOp3
 70
     1
102
RTVSPropertyOp4
 70
     1
102
RTVSPropertyOp5
 70
     1
102
RTVSPropertyOp6
 70
     1
102
RTVSPropertyOp7
 70
     1
102
RTVSPropertyOp8
 70
     1
102
RTVSPropertyOp9
 70
     1
102
RTVSPropertyOp10
 70
     1
102
RTVSPropertyOp11
 70
     1
102
RTVSPropertyOp12
 70
     1
102
RTVSPropertyOp13
 70
     1
102
RTVSPropertyOp14
 70
     1
102
RTVSPropertyOp15
 70
     1
102
RTVSPropertyOp16
 70
     1
102
RTVSPropertyOp17
 70
     1
102
RTVSPropertyOp18
 70
     1
102
RTVSPropertyOp19
 70
     1
102
RTVSPropertyOp20
 70
     1
102
RTVSPropertyOp21
 70
     1
102
RTVSPropertyOp22
 70
     1
102
RTVSPropertyOp23
 70
     1
102
RTVSPropertyOp24
 70
     1
102
RTVSPropertyOp25
 70
     1
102
RTVSPropertyOp26
 70
     1
102
RTVSPropertyOp27
 70
     1
102
RTVSPropertyOp28
 70
     1
102
RTVSPropertyOp29
 70
     1
102
RTVSPropertyOp30
 70
     1
102
RTVSPropertyOp31
 70
     1
102
RTVSPropertyOp32
 70
     1
  0
XRECORD
  5
F3
102
{ACAD_REACTORS
330
F2
102
}
330
F2
100
AcDbXrecord
280
     1
102
RTVSPropertyOp0
 70
     1
102
RTVSPropertyOp1
 70
     1
102
RTVSPropertyOp2
 70
     1
102
RTVSPropertyOp3
 70
     1
102
RTVSPropertyOp4
 70
     1
102
RTVSPropertyOp5
 70
     1
102
RTVSPropertyOp6
 70
     1
102
RTVSPropertyOp7
 70
     1
102
RTVSPropertyOp8
 70
     1
102
RTVSPropertyOp9
 70
     1
102
RTVSPropertyOp10
 70
     1
102
RTVSPropertyOp11
 70
     1
102
RTVSPropertyOp12
 70
     1
102
RTVSPropertyOp13
 70
     1
102
RTVSPropertyOp14
 70
     1
102
RTVSPropertyOp15
 70
     1
102
RTVSPropertyOp16
 70
     1
102
RTVSPropertyOp17
 70
     1
102
RTVSPropertyOp18
 70
     1
102
RTVSPropertyOp19
 70
     1
102
RTVSPropertyOp20
 70
     1
102
RTVSPropertyOp21
 70
     1
102
RTVSPropertyOp22
 70
     1
102
RTVSPropertyOp23
 70
     1
102
RTVSPropertyOp24
 70
     1
102
RTVSPropertyOp25
 70
     1
102
RTVSPropertyOp26
 70
     1
102
RTVSPropertyOp27
 70
     1
102
RTVSPropertyOp28
 70
     1
102
RTVSPropertyOp29
 70
     1
102
RTVSPropertyOp30
 70
     1
102
RTVSPropertyOp31
 70
     1
102
RTVSPropertyOp32
 70
     1
  0
XRECORD
  5
FB
102
{ACAD_REACTORS
330
FA
102
}
330
FA
100
AcDbXrecord
280
     1
102
RTVSPropertyOp0
 70
     1
102
RTVSPropertyOp1
 70
     1
102
RTVSPropertyOp2
 70
     1
102
RTVSPropertyOp3
 70
     1
102
RTVSPropertyOp4
 70
     1
102
RTVSPropertyOp5
 70
     1
102
RTVSPropertyOp6
 70
     1
102
RTVSPropertyOp7
 70
     1
102
RTVSPropertyOp8
 70
     1
102
RTVSPropertyOp9
 70
     1
102
RTVSPropertyOp10
 70
     1
102
RTVSPropertyOp11
 70
     1
102
RTVSPropertyOp12
 70
     1
102
RTVSPropertyOp13
 70
     1
102
RTVSPropertyOp14
 70
     1
102
RTVSPropertyOp15
 70
     1
102
RTVSPropertyOp16
 70
     1
102
RTVSPropertyOp17
 70
     1
102
RTVSPropertyOp18
 70
     1
102
RTVSPropertyOp19
 70
     1
102
RTVSPropertyOp20
 70
     1
102
RTVSPropertyOp21
 70
     1
102
RTVSPropertyOp22
 70
     1
102
RTVSPropertyOp23
 70
     1
102
RTVSPropertyOp24
 70
     1
102
RTVSPropertyOp25
 70
     1
102
RTVSPropertyOp26
 70
     1
102
RTVSPropertyOp27
 70
     1
102
RTVSPropertyOp28
 70
     1
102
RTVSPropertyOp29
 70
     1
102
RTVSPropertyOp30
 70
     1
102
RTVSPropertyOp31
 70
     1
102
RTVSPropertyOp32
 70
     1
  0
ENDSEC
  0
EOF
