  0
SECTION
  2
HEADER
  9
$ACADVER
  1
AC1021
  9
$ACADMAINTVER
 70
    25
  9
$DWGCODEPAGE
  3
ANSI_1256
  9
$INSBASE
 10
0.0
 20
0.0
 30
0.0
  9
$EXTMIN
 10
70.412
 20
-106.465
 30
0.0
  9
$EXTMAX
 10
196.3318
 20
131.8711
 30
0.0
  9
$LIMMIN
 10
0.0
 20
0.0
  9
$LIMMAX
 10
12.0
 20
9.0
  9
$ORTHOMODE
 70
     0
  9
$REGENMODE
 70
     1
  9
$FILLMODE
 70
     1
  9
$QTEXTMODE
 70
     0
  9
$MIRRTEXT
 70
     1
  9
$LTSCALE
 40
1.0
  9
$ATTMODE
 70
     1
  9
$TEXTSIZE
 40
0.2
  9
$TRACEWID
 40
0.05
  9
$TEXTSTYLE
  7
Standard
  9
$CLAYER
  8
0
  9
$CELTYPE
  6
ByLayer
  9
$CECOLOR
 62
   256
  9
$CELTSCALE
 40
1.0
  9
$DISPSILH
 70
     0
  9
$DIMSCALE
 40
1.0
  9
$DIMASZ
 40
0.18
  9
$DIMEXO
 40
0.0625
  9
$DIMDLI
 40
0.38
  9
$DIMRND
 40
0.0
  9
$DIMDLE
 40
0.0
  9
$DIMEXE
 40
0.18
  9
$DIMTP
 40
0.0
  9
$DIMTM
 40
0.0
  9
$DIMTXT
 40
0.18
  9
$DIMCEN
 40
0.09
  9
$DIMTSZ
 40
0.0
  9
$DIMTOL
 70
     0
  9
$DIMLIM
 70
     0
  9
$DIMTIH
 70
     1
  9
$DIMTOH
 70
     1
  9
$DIMSE1
 70
     0
  9
$DIMSE2
 70
     0
  9
$DIMTAD
 70
     0
  9
$DIMZIN
 70
     0
  9
$DIMBLK
  1

  9
$DIMASO
 70
     1
  9
$DIMSHO
 70
     1
  9
$DIMPOST
  1

  9
$DIMAPOST
  1

  9
$DIMALT
 70
     0
  9
$DIMALTD
 70
     2
  9
$DIMALTF
 40
25.4
  9
$DIMLFAC
 40
1.0
  9
$DIMTOFL
 70
     0
  9
$DIMTVP
 40
0.0
  9
$DIMTIX
 70
     0
  9
$DIMSOXD
 70
     0
  9
$DIMSAH
 70
     0
  9
$DIMBLK1
  1

  9
$DIMBLK2
  1

  9
$DIMSTYLE
  2
Standard
  9
$DIMCLRD
 70
     0
  9
$DIMCLRE
 70
     0
  9
$DIMCLRT
 70
     0
  9
$DIMTFAC
 40
1.0
  9
$DIMGAP
 40
0.09
  9
$DIMJUST
 70
     0
  9
$DIMSD1
 70
     0
  9
$DIMSD2
 70
     0
  9
$DIMTOLJ
 70
     1
  9
$DIMTZIN
 70
     0
  9
$DIMALTZ
 70
     0
  9
$DIMALTTZ
 70
     0
  9
$DIMUPT
 70
     0
  9
$DIMDEC
 70
     4
  9
$DIMTDEC
 70
     4
  9
$DIMALTU
 70
     2
  9
$DIMALTTD
 70
     2
  9
$DIMTXSTY
  7
Standard
  9
$DIMAUNIT
 70
     0
  9
$DIMADEC
 70
     0
  9
$DIMALTRND
 40
0.0
  9
$DIMAZIN
 70
     0
  9
$DIMDSEP
 70
    46
  9
$DIMATFIT
 70
     3
  9
$DIMFRAC
 70
     0
  9
$DIMLDRBLK
  1

  9
$DIMLUNIT
 70
     2
  9
$DIMLWD
 70
    -2
  9
$DIMLWE
 70
    -2
  9
$DIMTMOVE
 70
     0
  9
$DIMFXL
 40
1.0
  9
$DIMFXLON
 70
     0
  9
$DIMJOGANG
 40
0.7853981633974483
  9
$DIMTFILL
 70
     0
  9
$DIMTFILLCLR
 70
     0
  9
$DIMARCSYM
 70
     0
  9
$DIMLTYPE
  6

  9
$DIMLTEX1
  6

  9
$DIMLTEX2
  6

  9
$LUNITS
 70
     2
  9
$LUPREC
 70
     4
  9
$SKETCHINC
 40
0.1
  9
$FILLETRAD
 40
0.5
  9
$AUNITS
 70
     0
  9
$AUPREC
 70
     0
  9
$MENU
  1
.
  9
$ELEVATION
 40
0.0
  9
$PELEVATION
 40
0.0
  9
$THICKNESS
 40
0.0
  9
$LIMCHECK
 70
     0
  9
$CHAMFERA
 40
0.5
  9
$CHAMFERB
 40
0.5
  9
$CHAMFERC
 40
1.0
  9
$CHAMFERD
 40
0.0
  9
$SKPOLY
 70
     0
  9
$TDCREATE
 40
2458492.390852072
  9
$TDUCREATE
 40
2458492.224185405
  9
$TDUPDATE
 40
2458492.390852442
  9
$TDUUPDATE
 40
2458492.224185775
  9
$TDINDWG
 40
0.0000000116
  9
$TDUSRTIMER
 40
0.0000000116
  9
$USRTIMER
 70
     1
  9
$ANGBASE
 50
0.0
  9
$ANGDIR
 70
     0
  9
$PDMODE
 70
     0
  9
$PDSIZE
 40
0.0
  9
$PLINEWID
 40
0.0
  9
$SPLFRAME
 70
     0
  9
$SPLINETYPE
 70
     6
  9
$SPLINESEGS
 70
     8
  9
$HANDSEED
  5
110
  9
$SURFTAB1
 70
     6
  9
$SURFTAB2
 70
     6
  9
$SURFTYPE
 70
     6
  9
$SURFU
 70
     6
  9
$SURFV
 70
     6
  9
$UCSBASE
  2

  9
$UCSNAME
  2

  9
$UCSORG
 10
0.0
 20
0.0
 30
0.0
  9
$UCSXDIR
 10
1.0
 20
0.0
 30
0.0
  9
$UCSYDIR
 10
0.0
 20
1.0
 30
0.0
  9
$UCSORTHOREF
  2

  9
$UCSORTHOVIEW
 70
     0
  9
$UCSORGTOP
 10
0.0
 20
0.0
 30
0.0
  9
$UCSORGBOTTOM
 10
0.0
 20
0.0
 30
0.0
  9
$UCSORGLEFT
 10
0.0
 20
0.0
 30
0.0
  9
$UCSORGRIGHT
 10
0.0
 20
0.0
 30
0.0
  9
$UCSORGFRONT
 10
0.0
 20
0.0
 30
0.0
  9
$UCSORGBACK
 10
0.0
 20
0.0
 30
0.0
  9
$PUCSBASE
  2

  9
$PUCSNAME
  2

  9
$PUCSORG
 10
0.0
 20
0.0
 30
0.0
  9
$PUCSXDIR
 10
1.0
 20
0.0
 30
0.0
  9
$PUCSYDIR
 10
0.0
 20
1.0
 30
0.0
  9
$PUCSORTHOREF
  2

  9
$PUCSORTHOVIEW
 70
     0
  9
$PUCSORGTOP
 10
0.0
 20
0.0
 30
0.0
  9
$PUCSORGBOTTOM
 10
0.0
 20
0.0
 30
0.0
  9
$PUCSORGLEFT
 10
0.0
 20
0.0
 30
0.0
  9
$PUCSORGRIGHT
 10
0.0
 20
0.0
 30
0.0
  9
$PUCSORGFRONT
 10
0.0
 20
0.0
 30
0.0
  9
$PUCSORGBACK
 10
0.0
 20
0.0
 30
0.0
  9
$USERI1
 70
     0
  9
$USERI2
 70
     0
  9
$USERI3
 70
     0
  9
$USERI4
 70
     0
  9
$USERI5
 70
     0
  9
$USERR1
 40
0.0
  9
$USERR2
 40
0.0
  9
$USERR3
 40
0.0
  9
$USERR4
 40
0.0
  9
$USERR5
 40
0.0
  9
$WORLDVIEW
 70
     1
  9
$SHADEDGE
 70
     3
  9
$SHADEDIF
 70
    70
  9
$TILEMODE
 70
     1
  9
$MAXACTVP
 70
    64
  9
$PINSBASE
 10
0.0
 20
0.0
 30
0.0
  9
$PLIMCHECK
 70
     0
  9
$PEXTMIN
 10
1.000000000000000E+20
 20
1.000000000000000E+20
 30
1.000000000000000E+20
  9
$PEXTMAX
 10
-1.000000000000000E+20
 20
-1.000000000000000E+20
 30
-1.000000000000000E+20
  9
$PLIMMIN
 10
0.0
 20
0.0
  9
$PLIMMAX
 10
12.0
 20
9.0
  9
$UNITMODE
 70
     0
  9
$VISRETAIN
 70
     1
  9
$PLINEGEN
 70
     0
  9
$PSLTSCALE
 70
     1
  9
$TREEDEPTH
 70
  3020
  9
$CMLSTYLE
  2
Standard
  9
$CMLJUST
 70
     0
  9
$CMLSCALE
 40
1.0
  9
$PROXYGRAPHICS
 70
     1
  9
$MEASUREMENT
 70
     0
  9
$CELWEIGHT
370
    -1
  9
$ENDCAPS
280
     0
  9
$JOINSTYLE
280
     0
  9
$LWDISPLAY
290
     0
  9
$INSUNITS
 70
     4
  9
$HYPERLINKBASE
  1

  9
$STYLESHEET
  1

  9
$XEDIT
290
     1
  9
$CEPSNTYPE
380
     0
  9
$PSTYLEMODE
290
     1
  9
$FINGERPRINTGUID
  2
{D3C0354D-BEA9-4E7E-A2E1-CE4A49FA4FC2}
  9
$VERSIONGUID
  2
{FAEB1C32-E019-11D5-929B-00C0DF256EC4}
  9
$EXTNAMES
290
     1
  9
$PSVPSCALE
 40
0.0
  9
$OLESTARTUP
290
     0
  9
$SORTENTS
280
   127
  9
$INDEXCTL
280
     0
  9
$HIDETEXT
280
     1
  9
$XCLIPFRAME
290
     0
  9
$HALOGAP
280
     0
  9
$OBSCOLOR
 70
   257
  9
$OBSLTYPE
280
     0
  9
$INTERSECTIONDISPLAY
280
     0
  9
$INTERSECTIONCOLOR
 70
   257
  9
$DIMASSOC
280
     2
  9
$PROJECTNAME
  1

  9
$CAMERADISPLAY
290
     0
  9
$LENSLENGTH
 40
50.0
  9
$CAMERAHEIGHT
 40
0.0
  9
$STEPSPERSEC
 40
2.0
  9
$STEPSIZE
 40
6.0
  9
$3DDWFPREC
 40
2.0
  9
$PSOLWIDTH
 40
0.25
  9
$PSOLHEIGHT
 40
4.0
  9
$LOFTANG1
 40
1.570796326794897
  9
$LOFTANG2
 40
1.570796326794897
  9
$LOFTMAG1
 40
0.0
  9
$LOFTMAG2
 40
0.0
  9
$LOFTPARAM
 70
     7
  9
$LOFTNORMALS
280
     1
  9
$LATITUDE
 40
37.795
  9
$LONGITUDE
 40
-122.394
  9
$NORTHDIRECTION
 40
0.0
  9
$TIMEZONE
 70
 -8000
  9
$LIGHTGLYPHDISPLAY
280
     1
  9
$TILEMODELIGHTSYNCH
280
     1
  9
$SOLIDHIST
280
     1
  9
$SHOWHIST
280
     1
  9
$DWFFRAME
280
     2
  9
$DGNFRAME
280
     2
  9
$REALWORLDSCALE
290
     1
  9
$INTERFERECOLOR
 62
   256
  9
$CSHADOW
280
     0
  9
$SHADOWPLANELOCATION
 40
0.0
  0
ENDSEC
  0
SECTION
  2
CLASSES
  0
CLASS
  1
ACDBDICTIONARYWDFLT
  2
AcDbDictionaryWithDefault
  3
ObjectDBX Classes
 90
        0
 91
        4
280
     0
281
     0
  0
CLASS
  1
VISUALSTYLE
  2
AcDbVisualStyle
  3
ObjectDBX Classes
 90
     4095
 91
        4
280
     0
281
     0
  0
CLASS
  1
MATERIAL
  2
AcDbMaterial
  3
ObjectDBX Classes
 90
     1153
 91
        4
280
     0
281
     0
  0
ENDSEC
  0
SECTION
  2
TABLES
  0
TABLE
  2
VPORT
  5
8
330
0
100
AcDbSymbolTable
 70
     1
  0
VPORT
  5
29
330
8
100
AcDbSymbolTableRecord
100
AcDbViewportTableRecord
  2
*Active
 70
     0
 10
0.0
 20
0.0
 11
1.0
 21
1.0
 12
10.42990654205607
 22
4.5
 13
0.0
 23
0.0
 14
0.5
 24
0.5
 15
0.5
 25
0.5
 16
0.0
 26
0.0
 36
1.0
 17
0.0
 27
0.0
 37
0.0
 40
9.0
 41
1.972972972850329
 42
50.0
 43
0.0
 44
0.0
 50
0.0
 51
0.0
 71
     0
 72
   100
 73
     1
 74
     3
 75
     0
 76
     0
 77
     0
 78
     0
281
     0
 65
     1
110
0.0
120
0.0
130
0.0
111
1.0
121
0.0
131
0.0
112
0.0
122
1.0
132
0.0
 79
     0
146
0.0
 60
     3
 61
     5
292
     1
282
     1
141
0.0
142
0.0
 63
   250
  0
ENDTAB
  0
TABLE
  2
LTYPE
  5
5
330
0
100
AcDbSymbolTable
 70
     1
  0
LTYPE
  5
14
330
5
100
AcDbSymbolTableRecord
100
AcDbLinetypeTableRecord
  2
ByBlock
 70
     0
  3

 72
    65
 73
     0
 40
0.0
  0
LTYPE
  5
15
330
5
100
AcDbSymbolTableRecord
100
AcDbLinetypeTableRecord
  2
ByLayer
 70
     0
  3

 72
    65
 73
     0
 40
0.0
  0
LTYPE
  5
16
330
5
100
AcDbSymbolTableRecord
100
AcDbLinetypeTableRecord
  2
Continuous
 70
     0
  3
Solid line
 72
    65
 73
     0
 40
0.0
  0
ENDTAB
  0
TABLE
  2
LAYER
  5
2
330
0
100
AcDbSymbolTable
 70
     2
  0
LAYER
  5
10
330
2
100
AcDbSymbolTableRecord
100
AcDbLayerTableRecord
  2
0
 70
     0
 62
     7
  6
Continuous
370
    -3
390
F
347
3E
  0
LAYER
  5
40
330
2
100
AcDbSymbolTableRecord
100
AcDbLayerTableRecord
  2
layer 1
 70
     0
 62
     7
  6
Continuous
370
    -3
390
F
347
3E
  0
ENDTAB
  0
TABLE
  2
STYLE
  5
3
330
0
100
AcDbSymbolTable
 70
     1
  0
STYLE
  5
11
330
3
100
AcDbSymbolTableRecord
100
AcDbTextStyleTableRecord
  2
Standard
 70
     0
 40
0.0
 41
1.0
 50
0.0
 71
     0
 42
0.2
  3
txt
  4

  0
ENDTAB
  0
TABLE
  2
VIEW
  5
6
330
0
100
AcDbSymbolTable
 70
     0
  0
ENDTAB
  0
TABLE
  2
UCS
  5
7
330
0
100
AcDbSymbolTable
 70
     0
  0
ENDTAB
  0
TABLE
  2
APPID
  5
9
330
0
100
AcDbSymbolTable
 70
     2
  0
APPID
  5
12
330
9
100
AcDbSymbolTableRecord
100
AcDbRegAppTableRecord
  2
ACAD
 70
     0
  0
APPID
  5
3F
330
9
100
AcDbSymbolTableRecord
100
AcDbRegAppTableRecord
  2
ODA
 70
     0
  0
ENDTAB
  0
TABLE
  2
DIMSTYLE
  5
A
330
0
100
AcDbSymbolTable
 70
     1
100
AcDbDimStyleTable
  0
DIMSTYLE
105
27
330
A
100
AcDbSymbolTableRecord
100
AcDbDimStyleTableRecord
  2
Standard
 70
     0
178
     0
340
11
  0
ENDTAB
  0
TABLE
  2
BLOCK_RECORD
  5
1
330
0
100
AcDbSymbolTable
 70
     1
  0
BLOCK_RECORD
  5
1F
330
1
100
AcDbSymbolTableRecord
100
AcDbBlockTableRecord
  2
*Model_Space
340
22
 70
     0
280
     1
281
     0
  0
BLOCK_RECORD
  5
1B
330
1
100
AcDbSymbolTableRecord
100
AcDbBlockTableRecord
  2
*Paper_Space
340
1E
 70
     0
280
     1
281
     0
  0
BLOCK_RECORD
  5
23
330
1
100
AcDbSymbolTableRecord
100
AcDbBlockTableRecord
  2
*Paper_Space0
340
26
 70
     0
280
     1
281
     0
  0
ENDTAB
  0
ENDSEC
  0
SECTION
  2
BLOCKS
  0
BLOCK
  5
20
330
1F
100
AcDbEntity
  8
0
100
AcDbBlockBegin
  2
*Model_Space
 70
     0
 10
0.0
 20
0.0
 30
0.0
  3
*Model_Space
  1

  0
ENDBLK
  5
21
330
1F
100
AcDbEntity
  8
0
100
AcDbBlockEnd
  0
BLOCK
  5
1C
330
1B
100
AcDbEntity
 67
     1
  8
0
100
AcDbBlockBegin
  2
*Paper_Space
 70
     0
 10
0.0
 20
0.0
 30
0.0
  3
*Paper_Space
  1

  0
ENDBLK
  5
1D
330
1B
100
AcDbEntity
 67
     1
  8
0
100
AcDbBlockEnd
  0
BLOCK
  5
24
330
23
100
AcDbEntity
  8
0
100
AcDbBlockBegin
  2
*Paper_Space0
 70
     0
 10
0.0
 20
0.0
 30
0.0
  3
*Paper_Space0
  1

  0
ENDBLK
  5
25
330
23
100
AcDbEntity
  8
0
100
AcDbBlockEnd
  0
ENDSEC
  0
SECTION
  2
ENTITIES
  0
LWPOLYLINE
  5
41
330
1F
100
AcDbEntity
  8
layer 1
 62
   250
100
AcDbPolyline
 90
        5
 70
     1
 43
0.0
 10
70.412
 20
-106.4649
 10
196.3318
 20
-106.4649
 10
196.3318
 20
131.8711
 10
70.412
 20
131.8711
 10
70.412
 20
-106.4649
  0
SPLINE
  5
42
330
1F
100
AcDbEntity
  8
layer 1
 62
     7
100
AcDbSpline
210
0.0
220
0.0
230
1.0
 70
    11
 71
     3
 72
    20
 73
    16
 74
     0
 42
0.0000000001
 43
0.0000000001
 12
1.0
 22
0.0
 32
0.0
 13
1.0
 23
0.0
 33
0.0
 40
0.0
 40
0.0
 40
0.0
 40
0.0
 40
0.2
 40
0.2
 40
0.2
 40
0.2
 40
0.4
 40
0.4
 40
0.4
 40
0.4
 40
0.6
 40
0.6
 40
0.6
 40
0.6
 40
1.0
 40
1.0
 40
1.0
 40
1.0
 10
83.5311
 20
66.8179
 30
0.0
 10
81.2058
 20
66.6655
 30
0.0
 10
77.1628
 20
66.0101
 30
0.0
 10
77.1165
 20
69.8375
 30
0.0
 10
77.1165
 20
69.8375
 30
0.0
 10
77.27
 20
73.3167
 30
0.0
 10
81.2058
 20
72.6613
 30
0.0
 10
83.4439
 20
72.5961
 30
0.0
 10
83.4439
 20
72.5961
 30
0.0
 10
91.4768
 20
71.5967
 30
0.0
 10
98.437
 20
70.8203
 30
0.0
 10
105.4205
 20
69.8375
 30
0.0
 10
105.4205
 20
69.8375
 30
0.0
 10
98.3009
 20
68.7848
 30
0.0
 10
92.4001
 20
68.0444
 30
0.0
 10
83.5311
 20
66.8179
 30
0.0
  0
SPLINE
  5
43
330
1F
100
AcDbEntity
  8
layer 1
 62
     7
100
AcDbSpline
210
0.0
220
0.0
230
1.0
 70
    11
 71
     3
 72
    20
 73
    16
 74
     0
 42
0.0000000001
 43
0.0000000001
 12
1.0
 22
0.0
 32
0.0
 13
1.0
 23
0.0
 33
0.0
 40
0.0
 40
0.0
 40
0.0
 40
0.0
 40
0.2
 40
0.2
 40
0.2
 40
0.2
 40
0.4
 40
0.4
 40
0.4
 40
0.4
 40
0.6
 40
0.6
 40
0.6
 40
0.6
 40
1.0
 40
1.0
 40
1.0
 40
1.0
 10
113.8119
 20
62.622
 30
0.0
 10
110.238
 20
63.2522
 30
0.0
 10
106.6867
 20
66.5691
 30
0.0
 10
106.5421
 20
69.8469
 30
0.0
 10
106.5421
 20
69.8469
 30
0.0
 10
106.6867
 20
73.1248
 30
0.0
 10
110.238
 20
76.4416
 30
0.0
 10
113.8119
 20
77.0719
 30
0.0
 10
113.8119
 20
77.0719
 30
0.0
 10
115.3966
 20
75.3327
 30
0.0
 10
121.7148
 20
70.9865
 30
0.0
 10
126.6875
 20
69.8469
 30
0.0
 10
126.6875
 20
69.8469
 30
0.0
 10
121.7148
 20
68.7074
 30
0.0
 10
115.3966
 20
64.3612
 30
0.0
 10
113.8119
 20
62.622
 30
0.0
  0
SPLINE
  5
44
330
1F
100
AcDbEntity
  8
layer 1
 62
     7
100
AcDbSpline
210
0.0
220
0.0
230
1.0
 70
    11
 71
     3
 72
    20
 73
    16
 74
     0
 42
0.0000000001
 43
0.0000000001
 12
1.0
 22
0.0
 32
0.0
 13
1.0
 23
0.0
 33
0.0
 40
0.0
 40
0.0
 40
0.0
 40
0.0
 40
0.2
 40
0.2
 40
0.2
 40
0.2
 40
0.4
 40
0.4
 40
0.4
 40
0.4
 40
0.6
 40
0.6
 40
0.6
 40
0.6
 40
1.0
 40
1.0
 40
1.0
 40
1.0
 10
87.2727
 20
60.466
 30
0.0
 10
83.9033
 20
58.4864
 30
0.0
 10
79.9472
 20
57.4831
 30
0.0
 10
79.2049
 20
60.5271
 30
0.0
 10
79.2049
 20
60.5271
 30
0.0
 10
78.2275
 20
63.3101
 30
0.0
 10
81.9022
 20
64.6563
 30
0.0
 10
85.1844
 20
65.2868
 30
0.0
 10
85.1844
 20
65.2868
 30
0.0
 10
93.2173
 20
66.6369
 30
0.0
 10
97.5672
 20
67.2526
 30
0.0
 10
105.6817
 20
66.9659
 30
0.0
 10
105.6817
 20
66.9659
 30
0.0
 10
99.8676
 20
65.7394
 30
0.0
 10
89.9639
 20
62.2144
 30
0.0
 10
87.2727
 20
60.466
 30
0.0
  0
SPLINE
  5
45
330
1F
100
AcDbEntity
  8
layer 1
 62
     7
100
AcDbSpline
210
0.0
220
0.0
230
1.0
 70
    11
 71
     3
 72
    24
 73
    20
 74
     0
 42
0.0000000001
 43
0.0000000001
 12
1.0
 22
0.0
 32
0.0
 13
1.0
 23
0.0
 33
0.0
 40
0.0
 40
0.0
 40
0.0
 40
0.0
 40
0.1666666666666667
 40
0.1666666666666667
 40
0.1666666666666667
 40
0.1666666666666667
 40
0.3333333333333333
 40
0.3333333333333333
 40
0.3333333333333333
 40
0.3333333333333333
 40
0.5
 40
0.5
 40
0.5
 40
0.5
 40
0.6666666666666666
 40
0.6666666666666666
 40
0.6666666666666666
 40
0.6666666666666666
 40
1.0
 40
1.0
 40
1.0
 40
1.0
 10
92.0455
 20
55.0879
 30
0.0
 10
88.676
 20
51.8105
 30
0.0
 10
85.8693
 20
50.2141
 30
0.0
 10
84.2003
 20
52.5908
 30
0.0
 10
84.2003
 20
52.5908
 30
0.0
 10
82.5554
 20
55.2256
 30
0.0
 10
85.1178
 20
57.5728
 30
0.0
 10
89.4753
 20
59.501
 30
0.0
 10
89.4753
 20
59.501
 30
0.0
 10
92.2433
 20
60.6286
 30
0.0
 10
97.2976
 20
62.7274
 30
0.0
 10
107.0065
 20
64.7024
 30
0.0
 10
107.0065
 20
64.7024
 30
0.0
 10
99.8574
 20
61.4737
 30
0.0
 10
93.9953
 20
57.133
 30
0.0
 10
92.0457
 20
55.0881
 30
0.0
 10
92.0457
 20
55.0881
 30
0.0
 10
92.0457
 20
55.0881
 30
0.0
 10
92.0455
 20
55.0879
 30
0.0
 10
92.0455
 20
55.0879
 30
0.0
  0
SPLINE
  5
46
330
1F
100
AcDbEntity
  8
layer 1
 62
     7
100
AcDbSpline
210
0.0
220
0.0
230
1.0
 70
    11
 71
     3
 72
    20
 73
    16
 74
     0
 42
0.0000000001
 43
0.0000000001
 12
1.0
 22
0.0
 32
0.0
 13
1.0
 23
0.0
 33
0.0
 40
0.0
 40
0.0
 40
0.0
 40
0.0
 40
0.2
 40
0.2
 40
0.2
 40
0.2
 40
0.4
 40
0.4
 40
0.4
 40
0.4
 40
0.6
 40
0.6
 40
0.6
 40
0.6
 40
1.0
 40
1.0
 40
1.0
 40
1.0
 10
98.1631
 20
50.5646
 30
0.0
 10
96.2768
 20
46.5828
 30
0.0
 10
93.5072
 20
45.1718
 30
0.0
 10
91.1706
 20
47.326
 30
0.0
 10
91.1706
 20
47.326
 30
0.0
 10
89.2661
 20
49.7753
 30
0.0
 10
91.9398
 20
53.4572
 30
0.0
 10
95.2592
 20
55.9047
 30
0.0
 10
95.2592
 20
55.9047
 30
0.0
 10
97.953
 20
57.8107
 30
0.0
 10
104.9724
 20
61.8007
 30
0.0
 10
109.3053
 20
62.7004
 30
0.0
 10
109.3053
 20
62.7004
 30
0.0
 10
101.2664
 20
57.2469
 30
0.0
 10
99.1857
 20
52.6466
 30
0.0
 10
98.1631
 20
50.5646
 30
0.0
  0
SPLINE
  5
47
330
1F
100
AcDbEntity
  8
layer 1
 62
     7
100
AcDbSpline
210
0.0
220
0.0
230
1.0
 70
    11
 71
     3
 72
    24
 73
    20
 74
     0
 42
0.0000000001
 43
0.0000000001
 12
1.0
 22
0.0
 32
0.0
 13
1.0
 23
0.0
 33
0.0
 40
0.0
 40
0.0
 40
0.0
 40
0.0
 40
0.1666666666666667
 40
0.1666666666666667
 40
0.1666666666666667
 40
0.1666666666666667
 40
0.3333333333333333
 40
0.3333333333333333
 40
0.3333333333333333
 40
0.3333333333333333
 40
0.5
 40
0.5
 40
0.5
 40
0.5
 40
0.6666666666666666
 40
0.6666666666666666
 40
0.6666666666666666
 40
0.6666666666666666
 40
1.0
 40
1.0
 40
1.0
 40
1.0
 10
104.9851
 20
47.3391
 30
0.0
 10
104.3595
 20
43.0236
 30
0.0
 10
101.9604
 20
42.1685
 30
0.0
 10
100.1429
 20
43.1735
 30
0.0
 10
100.1429
 20
43.1735
 30
0.0
 10
97.3115
 20
44.6587
 30
0.0
 10
99.0211
 20
49.898
 30
0.0
 10
101.7474
 20
53.0868
 30
0.0
 10
101.7474
 20
53.0868
 30
0.0
 10
103.0694
 20
54.6592
 30
0.0
 10
107.0116
 20
59.3905
 30
0.0
 10
112.234
 20
61.1801
 30
0.0
 10
112.234
 20
61.1801
 30
0.0
 10
107.4209
 20
55.764
 30
0.0
 10
105.3405
 20
49.9773
 30
0.0
 10
104.9849
 20
47.3391
 30
0.0
 10
104.9849
 20
47.3391
 30
0.0
 10
104.9849
 20
47.3391
 30
0.0
 10
104.9851
 20
47.3391
 30
0.0
 10
104.9851
 20
47.3391
 30
0.0
  0
SPLINE
  5
48
330
1F
100
AcDbEntity
  8
layer 1
 62
     7
100
AcDbSpline
210
0.0
220
0.0
230
1.0
 70
    11
 71
     3
 72
    20
 73
    16
 74
     0
 42
0.0000000001
 43
0.0000000001
 12
1.0
 22
0.0
 32
0.0
 13
1.0
 23
0.0
 33
0.0
 40
0.0
 40
0.0
 40
0.0
 40
0.0
 40
0.2
 40
0.2
 40
0.2
 40
0.2
 40
0.4
 40
0.4
 40
0.4
 40
0.4
 40
0.6
 40
0.6
 40
0.6
 40
0.6
 40
1.0
 40
1.0
 40
1.0
 40
1.0
 10
87.2727
 20
78.9837
 30
0.0
 10
83.9033
 20
80.9633
 30
0.0
 10
79.9472
 20
81.9666
 30
0.0
 10
79.2049
 20
78.9226
 30
0.0
 10
79.2049
 20
78.9226
 30
0.0
 10
78.2275
 20
76.1396
 30
0.0
 10
81.9022
 20
74.7934
 30
0.0
 10
85.1844
 20
74.1629
 30
0.0
 10
85.1844
 20
74.1629
 30
0.0
 10
93.2173
 20
72.8128
 30
0.0
 10
97.5672
 20
72.1971
 30
0.0
 10
105.6817
 20
72.4838
 30
0.0
 10
105.6817
 20
72.4838
 30
0.0
 10
99.8676
 20
73.7103
 30
0.0
 10
89.9639
 20
77.2353
 30
0.0
 10
87.2727
 20
78.9837
 30
0.0
  0
SPLINE
  5
49
330
1F
100
AcDbEntity
  8
layer 1
 62
     7
100
AcDbSpline
210
0.0
220
0.0
230
1.0
 70
    11
 71
     3
 72
    24
 73
    20
 74
     0
 42
0.0000000001
 43
0.0000000001
 12
1.0
 22
0.0
 32
0.0
 13
1.0
 23
0.0
 33
0.0
 40
0.0
 40
0.0
 40
0.0
 40
0.0
 40
0.1666666666666667
 40
0.1666666666666667
 40
0.1666666666666667
 40
0.1666666666666667
 40
0.3333333333333333
 40
0.3333333333333333
 40
0.3333333333333333
 40
0.3333333333333333
 40
0.5
 40
0.5
 40
0.5
 40
0.5
 40
0.6666666666666666
 40
0.6666666666666666
 40
0.6666666666666666
 40
0.6666666666666666
 40
1.0
 40
1.0
 40
1.0
 40
1.0
 10
92.0455
 20
84.3618
 30
0.0
 10
88.676
 20
87.6392
 30
0.0
 10
85.8693
 20
89.2356
 30
0.0
 10
84.2003
 20
86.8589
 30
0.0
 10
84.2003
 20
86.8589
 30
0.0
 10
82.5554
 20
84.2241
 30
0.0
 10
85.1178
 20
81.8769
 30
0.0
 10
89.4753
 20
79.9487
 30
0.0
 10
89.4753
 20
79.9487
 30
0.0
 10
92.2433
 20
78.8211
 30
0.0
 10
97.2976
 20
76.7223
 30
0.0
 10
107.0065
 20
74.7473
 30
0.0
 10
107.0065
 20
74.7473
 30
0.0
 10
99.8574
 20
77.976
 30
0.0
 10
93.9953
 20
82.3167
 30
0.0
 10
92.0457
 20
84.3616
 30
0.0
 10
92.0457
 20
84.3616
 30
0.0
 10
92.0457
 20
84.3616
 30
0.0
 10
92.0455
 20
84.3618
 30
0.0
 10
92.0455
 20
84.3618
 30
0.0
  0
SPLINE
  5
4A
330
1F
100
AcDbEntity
  8
layer 1
 62
     7
100
AcDbSpline
210
0.0
220
0.0
230
1.0
 70
    11
 71
     3
 72
    24
 73
    20
 74
     0
 42
0.0000000001
 43
0.0000000001
 12
1.0
 22
0.0
 32
0.0
 13
1.0
 23
0.0
 33
0.0
 40
0.0
 40
0.0
 40
0.0
 40
0.0
 40
0.1666666666666667
 40
0.1666666666666667
 40
0.1666666666666667
 40
0.1666666666666667
 40
0.3333333333333333
 40
0.3333333333333333
 40
0.3333333333333333
 40
0.3333333333333333
 40
0.5
 40
0.5
 40
0.5
 40
0.5
 40
0.6666666666666666
 40
0.6666666666666666
 40
0.6666666666666666
 40
0.6666666666666666
 40
1.0
 40
1.0
 40
1.0
 40
1.0
 10
98.1631
 20
88.8851
 30
0.0
 10
96.2768
 20
92.8669
 30
0.0
 10
93.5072
 20
94.2779
 30
0.0
 10
91.1706
 20
92.1237
 30
0.0
 10
91.1706
 20
92.1237
 30
0.0
 10
89.2661
 20
89.6744
 30
0.0
 10
91.9398
 20
85.9925
 30
0.0
 10
95.2592
 20
83.545
 30
0.0
 10
95.2592
 20
83.545
 30
0.0
 10
97.953
 20
81.639
 30
0.0
 10
104.9724
 20
77.649
 30
0.0
 10
109.3053
 20
76.7493
 30
0.0
 10
109.3053
 20
76.7493
 30
0.0
 10
101.2664
 20
82.2025
 30
0.0
 10
99.186
 20
86.8028
 30
0.0
 10
98.1633
 20
88.8848
 30
0.0
 10
98.1633
 20
88.8848
 30
0.0
 10
98.1633
 20
88.8848
 30
0.0
 10
98.1631
 20
88.8851
 30
0.0
 10
98.1631
 20
88.8851
 30
0.0
  0
SPLINE
  5
4B
330
1F
100
AcDbEntity
  8
layer 1
 62
     7
100
AcDbSpline
210
0.0
220
0.0
230
1.0
 70
    11
 71
     3
 72
    20
 73
    16
 74
     0
 42
0.0000000001
 43
0.0000000001
 12
1.0
 22
0.0
 32
0.0
 13
1.0
 23
0.0
 33
0.0
 40
0.0
 40
0.0
 40
0.0
 40
0.0
 40
0.2
 40
0.2
 40
0.2
 40
0.2
 40
0.4
 40
0.4
 40
0.4
 40
0.4
 40
0.6
 40
0.6
 40
0.6
 40
0.6
 40
1.0
 40
1.0
 40
1.0
 40
1.0
 10
130.6332
 20
62.8323
 30
0.0
 10
130.4807
 20
65.1576
 30
0.0
 10
129.8254
 20
69.2006
 30
0.0
 10
133.6528
 20
69.2469
 30
0.0
 10
133.6528
 20
69.2469
 30
0.0
 10
137.1319
 20
69.0934
 30
0.0
 10
136.4766
 20
65.1576
 30
0.0
 10
136.4113
 20
62.9195
 30
0.0
 10
136.4113
 20
62.9195
 30
0.0
 10
135.412
 20
54.8866
 30
0.0
 10
134.6355
 20
47.9264
 30
0.0
 10
133.6528
 20
40.9429
 30
0.0
 10
133.6528
 20
40.9429
 30
0.0
 10
132.6001
 20
48.0625
 30
0.0
 10
131.8597
 20
53.9633
 30
0.0
 10
130.6332
 20
62.8323
 30
0.0
  0
SPLINE
  5
4C
330
1F
100
AcDbEntity
  8
layer 1
 62
     7
100
AcDbSpline
210
0.0
220
0.0
230
1.0
 70
    11
 71
     3
 72
    20
 73
    16
 74
     0
 42
0.0000000001
 43
0.0000000001
 12
1.0
 22
0.0
 32
0.0
 13
1.0
 23
0.0
 33
0.0
 40
0.0
 40
0.0
 40
0.0
 40
0.0
 40
0.2
 40
0.2
 40
0.2
 40
0.2
 40
0.4
 40
0.4
 40
0.4
 40
0.4
 40
0.6
 40
0.6
 40
0.6
 40
0.6
 40
1.0
 40
1.0
 40
1.0
 40
1.0
 10
126.4373
 20
32.5515
 30
0.0
 10
127.0675
 20
36.1254
 30
0.0
 10
130.3844
 20
39.6768
 30
0.0
 10
133.6622
 20
39.8213
 30
0.0
 10
133.6622
 20
39.8213
 30
0.0
 10
136.9401
 20
39.6768
 30
0.0
 10
140.2569
 20
36.1254
 30
0.0
 10
140.8871
 20
32.5515
 30
0.0
 10
140.8871
 20
32.5515
 30
0.0
 10
139.148
 20
30.9668
 30
0.0
 10
134.8018
 20
24.6486
 30
0.0
 10
133.6622
 20
19.6759
 30
0.0
 10
133.6622
 20
19.6759
 30
0.0
 10
132.5226
 20
24.6486
 30
0.0
 10
128.1764
 20
30.9668
 30
0.0
 10
126.4373
 20
32.5515
 30
0.0
  0
SPLINE
  5
4D
330
1F
100
AcDbEntity
  8
layer 1
 62
     7
100
AcDbSpline
210
0.0
220
0.0
230
1.0
 70
    11
 71
     3
 72
    20
 73
    16
 74
     0
 42
0.0000000001
 43
0.0000000001
 12
1.0
 22
0.0
 32
0.0
 13
1.0
 23
0.0
 33
0.0
 40
0.0
 40
0.0
 40
0.0
 40
0.0
 40
0.2
 40
0.2
 40
0.2
 40
0.2
 40
0.4
 40
0.4
 40
0.4
 40
0.4
 40
0.6
 40
0.6
 40
0.6
 40
0.6
 40
1.0
 40
1.0
 40
1.0
 40
1.0
 10
124.2813
 20
59.0908
 30
0.0
 10
122.3016
 20
62.4602
 30
0.0
 10
121.2983
 20
66.4162
 30
0.0
 10
124.3424
 20
67.1585
 30
0.0
 10
124.3424
 20
67.1585
 30
0.0
 10
127.1254
 20
68.136
 30
0.0
 10
128.4716
 20
64.4612
 30
0.0
 10
129.102
 20
61.179
 30
0.0
 10
129.102
 20
61.179
 30
0.0
 10
130.4521
 20
53.1461
 30
0.0
 10
131.0678
 20
48.7962
 30
0.0
 10
130.7812
 20
40.6817
 30
0.0
 10
130.7812
 20
40.6817
 30
0.0
 10
129.5547
 20
46.4958
 30
0.0
 10
126.0296
 20
56.3995
 30
0.0
 10
124.2813
 20
59.0908
 30
0.0
  0
SPLINE
  5
4E
330
1F
100
AcDbEntity
  8
layer 1
 62
     7
100
AcDbSpline
210
0.0
220
0.0
230
1.0
 70
    11
 71
     3
 72
    24
 73
    20
 74
     0
 42
0.0000000001
 43
0.0000000001
 12
1.0
 22
0.0
 32
0.0
 13
1.0
 23
0.0
 33
0.0
 40
0.0
 40
0.0
 40
0.0
 40
0.0
 40
0.1666666666666667
 40
0.1666666666666667
 40
0.1666666666666667
 40
0.1666666666666667
 40
0.3333333333333333
 40
0.3333333333333333
 40
0.3333333333333333
 40
0.3333333333333333
 40
0.5
 40
0.5
 40
0.5
 40
0.5
 40
0.6666666666666666
 40
0.6666666666666666
 40
0.6666666666666666
 40
0.6666666666666666
 40
1.0
 40
1.0
 40
1.0
 40
1.0
 10
118.9032
 20
54.318
 30
0.0
 10
115.6258
 20
57.6874
 30
0.0
 10
114.0294
 20
60.4941
 30
0.0
 10
116.4061
 20
62.1632
 30
0.0
 10
116.4061
 20
62.1632
 30
0.0
 10
119.0408
 20
63.808
 30
0.0
 10
121.388
 20
61.2456
 30
0.0
 10
123.3163
 20
56.8881
 30
0.0
 10
123.3163
 20
56.8881
 30
0.0
 10
124.4438
 20
54.1201
 30
0.0
 10
126.5427
 20
49.0658
 30
0.0
 10
128.5177
 20
39.3569
 30
0.0
 10
128.5177
 20
39.3569
 30
0.0
 10
125.289
 20
46.506
 30
0.0
 10
120.9483
 20
52.3681
 30
0.0
 10
118.9034
 20
54.3177
 30
0.0
 10
118.9034
 20
54.3177
 30
0.0
 10
118.9034
 20
54.3177
 30
0.0
 10
118.9032
 20
54.318
 30
0.0
 10
118.9032
 20
54.318
 30
0.0
  0
SPLINE
  5
4F
330
1F
100
AcDbEntity
  8
layer 1
 62
     7
100
AcDbSpline
210
0.0
220
0.0
230
1.0
 70
    11
 71
     3
 72
    20
 73
    16
 74
     0
 42
0.0000000001
 43
0.0000000001
 12
1.0
 22
0.0
 32
0.0
 13
1.0
 23
0.0
 33
0.0
 40
0.0
 40
0.0
 40
0.0
 40
0.0
 40
0.2
 40
0.2
 40
0.2
 40
0.2
 40
0.4
 40
0.4
 40
0.4
 40
0.4
 40
0.6
 40
0.6
 40
0.6
 40
0.6
 40
1.0
 40
1.0
 40
1.0
 40
1.0
 10
114.3799
 20
48.2004
 30
0.0
 10
110.398
 20
50.0866
 30
0.0
 10
108.987
 20
52.8562
 30
0.0
 10
111.1412
 20
55.1928
 30
0.0
 10
111.1412
 20
55.1928
 30
0.0
 10
113.5906
 20
57.0973
 30
0.0
 10
117.2724
 20
54.4236
 30
0.0
 10
119.7199
 20
51.1042
 30
0.0
 10
119.7199
 20
51.1042
 30
0.0
 10
121.626
 20
48.4104
 30
0.0
 10
125.6159
 20
41.391
 30
0.0
 10
126.5157
 20
37.0582
 30
0.0
 10
126.5157
 20
37.0582
 30
0.0
 10
121.0622
 20
45.0971
 30
0.0
 10
116.4619
 20
47.1777
 30
0.0
 10
114.3799
 20
48.2004
 30
0.0
  0
SPLINE
  5
50
330
1F
100
AcDbEntity
  8
layer 1
 62
     7
100
AcDbSpline
210
0.0
220
0.0
230
1.0
 70
    11
 71
     3
 72
    24
 73
    20
 74
     0
 42
0.0000000001
 43
0.0000000001
 12
1.0
 22
0.0
 32
0.0
 13
1.0
 23
0.0
 33
0.0
 40
0.0
 40
0.0
 40
0.0
 40
0.0
 40
0.1666666666666667
 40
0.1666666666666667
 40
0.1666666666666667
 40
0.1666666666666667
 40
0.3333333333333333
 40
0.3333333333333333
 40
0.3333333333333333
 40
0.3333333333333333
 40
0.5
 40
0.5
 40
0.5
 40
0.5
 40
0.6666666666666666
 40
0.6666666666666666
 40
0.6666666666666666
 40
0.6666666666666666
 40
1.0
 40
1.0
 40
1.0
 40
1.0
 10
111.1544
 20
41.3783
 30
0.0
 10
106.8388
 20
42.0039
 30
0.0
 10
105.9838
 20
44.403
 30
0.0
 10
106.9887
 20
46.2205
 30
0.0
 10
106.9887
 20
46.2205
 30
0.0
 10
108.474
 20
49.0519
 30
0.0
 10
113.7133
 20
47.3423
 30
0.0
 10
116.9021
 20
44.616
 30
0.0
 10
116.9021
 20
44.616
 30
0.0
 10
118.4745
 20
43.2941
 30
0.0
 10
123.2058
 20
39.3519
 30
0.0
 10
124.9954
 20
34.1294
 30
0.0
 10
124.9954
 20
34.1294
 30
0.0
 10
119.5793
 20
38.9426
 30
0.0
 10
113.7926
 20
41.023
 30
0.0
 10
111.1544
 20
41.3785
 30
0.0
 10
111.1544
 20
41.3785
 30
0.0
 10
111.1544
 20
41.3785
 30
0.0
 10
111.1544
 20
41.3783
 30
0.0
 10
111.1544
 20
41.3783
 30
0.0
  0
SPLINE
  5
51
330
1F
100
AcDbEntity
  8
layer 1
 62
     7
100
AcDbSpline
210
0.0
220
0.0
230
1.0
 70
    11
 71
     3
 72
    20
 73
    16
 74
     0
 42
0.0000000001
 43
0.0000000001
 12
1.0
 22
0.0
 32
0.0
 13
1.0
 23
0.0
 33
0.0
 40
0.0
 40
0.0
 40
0.0
 40
0.0
 40
0.2
 40
0.2
 40
0.2
 40
0.2
 40
0.4
 40
0.4
 40
0.4
 40
0.4
 40
0.6
 40
0.6
 40
0.6
 40
0.6
 40
1.0
 40
1.0
 40
1.0
 40
1.0
 10
142.799
 20
59.0908
 30
0.0
 10
144.7786
 20
62.4602
 30
0.0
 10
145.7819
 20
66.4162
 30
0.0
 10
142.7379
 20
67.1585
 30
0.0
 10
142.7379
 20
67.1585
 30
0.0
 10
139.9548
 20
68.136
 30
0.0
 10
138.6086
 20
64.4612
 30
0.0
 10
137.9782
 20
61.179
 30
0.0
 10
137.9782
 20
61.179
 30
0.0
 10
136.6281
 20
53.1461
 30
0.0
 10
136.0124
 20
48.7962
 30
0.0
 10
136.299
 20
40.6817
 30
0.0
 10
136.299
 20
40.6817
 30
0.0
 10
137.5256
 20
46.4958
 30
0.0
 10
141.0506
 20
56.3995
 30
0.0
 10
142.799
 20
59.0908
 30
0.0
  0
SPLINE
  5
52
330
1F
100
AcDbEntity
  8
layer 1
 62
     7
100
AcDbSpline
210
0.0
220
0.0
230
1.0
 70
    11
 71
     3
 72
    24
 73
    20
 74
     0
 42
0.0000000001
 43
0.0000000001
 12
1.0
 22
0.0
 32
0.0
 13
1.0
 23
0.0
 33
0.0
 40
0.0
 40
0.0
 40
0.0
 40
0.0
 40
0.1666666666666667
 40
0.1666666666666667
 40
0.1666666666666667
 40
0.1666666666666667
 40
0.3333333333333333
 40
0.3333333333333333
 40
0.3333333333333333
 40
0.3333333333333333
 40
0.5
 40
0.5
 40
0.5
 40
0.5
 40
0.6666666666666666
 40
0.6666666666666666
 40
0.6666666666666666
 40
0.6666666666666666
 40
1.0
 40
1.0
 40
1.0
 40
1.0
 10
148.1771
 20
54.318
 30
0.0
 10
151.4545
 20
57.6874
 30
0.0
 10
153.0508
 20
60.4941
 30
0.0
 10
150.6741
 20
62.1632
 30
0.0
 10
150.6741
 20
62.1632
 30
0.0
 10
148.0394
 20
63.808
 30
0.0
 10
145.6922
 20
61.2456
 30
0.0
 10
143.764
 20
56.8881
 30
0.0
 10
143.764
 20
56.8881
 30
0.0
 10
142.6364
 20
54.1201
 30
0.0
 10
140.5375
 20
49.0658
 30
0.0
 10
138.5625
 20
39.3569
 30
0.0
 10
138.5625
 20
39.3569
 30
0.0
 10
141.7913
 20
46.506
 30
0.0
 10
146.1319
 20
52.3681
 30
0.0
 10
148.1768
 20
54.3177
 30
0.0
 10
148.1768
 20
54.3177
 30
0.0
 10
148.1768
 20
54.3177
 30
0.0
 10
148.1771
 20
54.318
 30
0.0
 10
148.1771
 20
54.318
 30
0.0
  0
SPLINE
  5
53
330
1F
100
AcDbEntity
  8
layer 1
 62
     7
100
AcDbSpline
210
0.0
220
0.0
230
1.0
 70
    11
 71
     3
 72
    24
 73
    20
 74
     0
 42
0.0000000001
 43
0.0000000001
 12
1.0
 22
0.0
 32
0.0
 13
1.0
 23
0.0
 33
0.0
 40
0.0
 40
0.0
 40
0.0
 40
0.0
 40
0.1666666666666667
 40
0.1666666666666667
 40
0.1666666666666667
 40
0.1666666666666667
 40
0.3333333333333333
 40
0.3333333333333333
 40
0.3333333333333333
 40
0.3333333333333333
 40
0.5
 40
0.5
 40
0.5
 40
0.5
 40
0.6666666666666666
 40
0.6666666666666666
 40
0.6666666666666666
 40
0.6666666666666666
 40
1.0
 40
1.0
 40
1.0
 40
1.0
 10
152.7003
 20
48.2004
 30
0.0
 10
156.6822
 20
50.0866
 30
0.0
 10
158.0932
 20
52.8562
 30
0.0
 10
155.939
 20
55.1928
 30
0.0
 10
155.939
 20
55.1928
 30
0.0
 10
153.4897
 20
57.0973
 30
0.0
 10
149.8078
 20
54.4236
 30
0.0
 10
147.3603
 20
51.1042
 30
0.0
 10
147.3603
 20
51.1042
 30
0.0
 10
145.4542
 20
48.4104
 30
0.0
 10
141.4643
 20
41.391
 30
0.0
 10
140.5645
 20
37.0582
 30
0.0
 10
140.5645
 20
37.0582
 30
0.0
 10
146.0178
 20
45.0971
 30
0.0
 10
150.6181
 20
47.1775
 30
0.0
 10
152.7001
 20
48.2001
 30
0.0
 10
152.7001
 20
48.2001
 30
0.0
 10
152.7001
 20
48.2001
 30
0.0
 10
152.7003
 20
48.2004
 30
0.0
 10
152.7003
 20
48.2004
 30
0.0
  0
SPLINE
  5
54
330
1F
100
AcDbEntity
  8
layer 1
 62
     7
100
AcDbSpline
210
0.0
220
0.0
230
1.0
 70
    11
 71
     3
 72
    24
 73
    20
 74
     0
 42
0.0000000001
 43
0.0000000001
 12
1.0
 22
0.0
 32
0.0
 13
1.0
 23
0.0
 33
0.0
 40
0.0
 40
0.0
 40
0.0
 40
0.0
 40
0.1666666666666667
 40
0.1666666666666667
 40
0.1666666666666667
 40
0.1666666666666667
 40
0.3333333333333333
 40
0.3333333333333333
 40
0.3333333333333333
 40
0.3333333333333333
 40
0.5
 40
0.5
 40
0.5
 40
0.5
 40
0.6666666666666666
 40
0.6666666666666666
 40
0.6666666666666666
 40
0.6666666666666666
 40
1.0
 40
1.0
 40
1.0
 40
1.0
 10
155.9261
 20
41.3783
 30
0.0
 10
160.2416
 20
42.0039
 30
0.0
 10
161.0967
 20
44.403
 30
0.0
 10
160.0917
 20
46.2205
 30
0.0
 10
160.0917
 20
46.2205
 30
0.0
 10
158.6065
 20
49.0519
 30
0.0
 10
153.3672
 20
47.3423
 30
0.0
 10
150.1784
 20
44.616
 30
0.0
 10
150.1784
 20
44.616
 30
0.0
 10
148.606
 20
43.2941
 30
0.0
 10
143.8747
 20
39.3519
 30
0.0
 10
142.0851
 20
34.1294
 30
0.0
 10
142.0851
 20
34.1294
 30
0.0
 10
147.5012
 20
38.9426
 30
0.0
 10
153.2879
 20
41.023
 30
0.0
 10
155.9261
 20
41.3785
 30
0.0
 10
155.9261
 20
41.3785
 30
0.0
 10
155.9261
 20
41.3785
 30
0.0
 10
155.9261
 20
41.3783
 30
0.0
 10
155.9261
 20
41.3783
 30
0.0
  0
SPLINE
  5
55
330
1F
100
AcDbEntity
  8
layer 1
 62
     7
100
AcDbSpline
210
0.0
220
0.0
230
1.0
 70
    11
 71
     3
 72
    24
 73
    20
 74
     0
 42
0.0000000001
 43
0.0000000001
 12
1.0
 22
0.0
 32
0.0
 13
1.0
 23
0.0
 33
0.0
 40
0.0
 40
0.0
 40
0.0
 40
0.0
 40
0.1666666666666667
 40
0.1666666666666667
 40
0.1666666666666667
 40
0.1666666666666667
 40
0.3333333333333333
 40
0.3333333333333333
 40
0.3333333333333333
 40
0.3333333333333333
 40
0.5
 40
0.5
 40
0.5
 40
0.5
 40
0.6666666666666666
 40
0.6666666666666666
 40
0.6666666666666666
 40
0.6666666666666666
 40
1.0
 40
1.0
 40
1.0
 40
1.0
 10
104.9851
 20
92.1108
 30
0.0
 10
104.3595
 20
96.4264
 30
0.0
 10
101.9604
 20
97.2814
 30
0.0
 10
100.1429
 20
96.2765
 30
0.0
 10
100.1429
 20
96.2765
 30
0.0
 10
97.3115
 20
94.7912
 30
0.0
 10
99.0211
 20
89.5519
 30
0.0
 10
101.7474
 20
86.3631
 30
0.0
 10
101.7474
 20
86.3631
 30
0.0
 10
103.0694
 20
84.7907
 30
0.0
 10
107.0116
 20
80.0594
 30
0.0
 10
112.234
 20
78.2698
 30
0.0
 10
112.234
 20
78.2698
 30
0.0
 10
107.4209
 20
83.6859
 30
0.0
 10
105.3405
 20
89.4726
 30
0.0
 10
104.9849
 20
92.1108
 30
0.0
 10
104.9849
 20
92.1108
 30
0.0
 10
104.9849
 20
92.1108
 30
0.0
 10
104.9851
 20
92.1108
 30
0.0
 10
104.9851
 20
92.1108
 30
0.0
  0
SPLINE
  5
56
330
1F
100
AcDbEntity
  8
layer 1
 62
     7
100
AcDbSpline
210
0.0
220
0.0
230
1.0
 70
    11
 71
     3
 72
    20
 73
    16
 74
     0
 42
0.0000000001
 43
0.0000000001
 12
1.0
 22
0.0
 32
0.0
 13
1.0
 23
0.0
 33
0.0
 40
0.0
 40
0.0
 40
0.0
 40
0.0
 40
0.2
 40
0.2
 40
0.2
 40
0.2
 40
0.4
 40
0.4
 40
0.4
 40
0.4
 40
0.6
 40
0.6
 40
0.6
 40
0.6
 40
1.0
 40
1.0
 40
1.0
 40
1.0
 10
183.1947
 20
66.8179
 30
0.0
 10
185.52
 20
66.6655
 30
0.0
 10
189.563
 20
66.0101
 30
0.0
 10
189.6094
 20
69.8375
 30
0.0
 10
189.6094
 20
69.8375
 30
0.0
 10
189.4558
 20
73.3167
 30
0.0
 10
185.52
 20
72.6613
 30
0.0
 10
183.2819
 20
72.5961
 30
0.0
 10
183.2819
 20
72.5961
 30
0.0
 10
175.249
 20
71.5967
 30
0.0
 10
168.2888
 20
70.8203
 30
0.0
 10
161.3053
 20
69.8375
 30
0.0
 10
161.3053
 20
69.8375
 30
0.0
 10
168.4249
 20
68.7848
 30
0.0
 10
174.3257
 20
68.0444
 30
0.0
 10
183.1947
 20
66.8179
 30
0.0
  0
SPLINE
  5
57
330
1F
100
AcDbEntity
  8
layer 1
 62
     7
100
AcDbSpline
210
0.0
220
0.0
230
1.0
 70
    11
 71
     3
 72
    20
 73
    16
 74
     0
 42
0.0000000001
 43
0.0000000001
 12
1.0
 22
0.0
 32
0.0
 13
1.0
 23
0.0
 33
0.0
 40
0.0
 40
0.0
 40
0.0
 40
0.0
 40
0.2
 40
0.2
 40
0.2
 40
0.2
 40
0.4
 40
0.4
 40
0.4
 40
0.4
 40
0.6
 40
0.6
 40
0.6
 40
0.6
 40
1.0
 40
1.0
 40
1.0
 40
1.0
 10
152.9139
 20
62.622
 30
0.0
 10
156.4878
 20
63.2522
 30
0.0
 10
160.0392
 20
66.5691
 30
0.0
 10
160.1837
 20
69.8469
 30
0.0
 10
160.1837
 20
69.8469
 30
0.0
 10
160.0392
 20
73.1248
 30
0.0
 10
156.4878
 20
76.4416
 30
0.0
 10
152.9139
 20
77.0719
 30
0.0
 10
152.9139
 20
77.0719
 30
0.0
 10
151.3293
 20
75.3327
 30
0.0
 10
145.011
 20
70.9865
 30
0.0
 10
140.0383
 20
69.8469
 30
0.0
 10
140.0383
 20
69.8469
 30
0.0
 10
145.011
 20
68.7074
 30
0.0
 10
151.3293
 20
64.3612
 30
0.0
 10
152.9139
 20
62.622
 30
0.0
  0
SPLINE
  5
58
330
1F
100
AcDbEntity
  8
layer 1
 62
     7
100
AcDbSpline
210
0.0
220
0.0
230
1.0
 70
    11
 71
     3
 72
    20
 73
    16
 74
     0
 42
0.0000000001
 43
0.0000000001
 12
1.0
 22
0.0
 32
0.0
 13
1.0
 23
0.0
 33
0.0
 40
0.0
 40
0.0
 40
0.0
 40
0.0
 40
0.2
 40
0.2
 40
0.2
 40
0.2
 40
0.4
 40
0.4
 40
0.4
 40
0.4
 40
0.6
 40
0.6
 40
0.6
 40
0.6
 40
1.0
 40
1.0
 40
1.0
 40
1.0
 10
179.4532
 20
60.466
 30
0.0
 10
182.8226
 20
58.4864
 30
0.0
 10
186.7786
 20
57.4831
 30
0.0
 10
187.5209
 20
60.5271
 30
0.0
 10
187.5209
 20
60.5271
 30
0.0
 10
188.4984
 20
63.3101
 30
0.0
 10
184.8236
 20
64.6563
 30
0.0
 10
181.5414
 20
65.2868
 30
0.0
 10
181.5414
 20
65.2868
 30
0.0
 10
173.5085
 20
66.6369
 30
0.0
 10
169.1586
 20
67.2526
 30
0.0
 10
161.0441
 20
66.9659
 30
0.0
 10
161.0441
 20
66.9659
 30
0.0
 10
166.8582
 20
65.7394
 30
0.0
 10
176.7619
 20
62.2144
 30
0.0
 10
179.4532
 20
60.466
 30
0.0
  0
SPLINE
  5
59
330
1F
100
AcDbEntity
  8
layer 1
 62
     7
100
AcDbSpline
210
0.0
220
0.0
230
1.0
 70
    11
 71
     3
 72
    24
 73
    20
 74
     0
 42
0.0000000001
 43
0.0000000001
 12
1.0
 22
0.0
 32
0.0
 13
1.0
 23
0.0
 33
0.0
 40
0.0
 40
0.0
 40
0.0
 40
0.0
 40
0.1666666666666667
 40
0.1666666666666667
 40
0.1666666666666667
 40
0.1666666666666667
 40
0.3333333333333333
 40
0.3333333333333333
 40
0.3333333333333333
 40
0.3333333333333333
 40
0.5
 40
0.5
 40
0.5
 40
0.5
 40
0.6666666666666666
 40
0.6666666666666666
 40
0.6666666666666666
 40
0.6666666666666666
 40
1.0
 40
1.0
 40
1.0
 40
1.0
 10
174.6804
 20
55.0879
 30
0.0
 10
178.0498
 20
51.8105
 30
0.0
 10
180.8565
 20
50.2141
 30
0.0
 10
182.5256
 20
52.5908
 30
0.0
 10
182.5256
 20
52.5908
 30
0.0
 10
184.1704
 20
55.2256
 30
0.0
 10
181.608
 20
57.5728
 30
0.0
 10
177.2505
 20
59.501
 30
0.0
 10
177.2505
 20
59.501
 30
0.0
 10
174.4825
 20
60.6286
 30
0.0
 10
169.4282
 20
62.7274
 30
0.0
 10
159.7193
 20
64.7024
 30
0.0
 10
159.7193
 20
64.7024
 30
0.0
 10
166.8684
 20
61.4737
 30
0.0
 10
172.7305
 20
57.133
 30
0.0
 10
174.6801
 20
55.0881
 30
0.0
 10
174.6801
 20
55.0881
 30
0.0
 10
174.6801
 20
55.0881
 30
0.0
 10
174.6804
 20
55.0879
 30
0.0
 10
174.6804
 20
55.0879
 30
0.0
  0
SPLINE
  5
5A
330
1F
100
AcDbEntity
  8
layer 1
 62
     7
100
AcDbSpline
210
0.0
220
0.0
230
1.0
 70
    11
 71
     3
 72
    20
 73
    16
 74
     0
 42
0.0000000001
 43
0.0000000001
 12
1.0
 22
0.0
 32
0.0
 13
1.0
 23
0.0
 33
0.0
 40
0.0
 40
0.0
 40
0.0
 40
0.0
 40
0.2
 40
0.2
 40
0.2
 40
0.2
 40
0.4
 40
0.4
 40
0.4
 40
0.4
 40
0.6
 40
0.6
 40
0.6
 40
0.6
 40
1.0
 40
1.0
 40
1.0
 40
1.0
 10
168.5628
 20
50.5646
 30
0.0
 10
170.449
 20
46.5828
 30
0.0
 10
173.2186
 20
45.1718
 30
0.0
 10
175.5552
 20
47.326
 30
0.0
 10
175.5552
 20
47.326
 30
0.0
 10
177.4597
 20
49.7753
 30
0.0
 10
174.786
 20
53.4572
 30
0.0
 10
171.4666
 20
55.9047
 30
0.0
 10
171.4666
 20
55.9047
 30
0.0
 10
168.7728
 20
57.8107
 30
0.0
 10
161.7534
 20
61.8007
 30
0.0
 10
157.4206
 20
62.7004
 30
0.0
 10
157.4206
 20
62.7004
 30
0.0
 10
165.4595
 20
57.2469
 30
0.0
 10
167.5401
 20
52.6466
 30
0.0
 10
168.5628
 20
50.5646
 30
0.0
  0
SPLINE
  5
5B
330
1F
100
AcDbEntity
  8
layer 1
 62
     7
100
AcDbSpline
210
0.0
220
0.0
230
1.0
 70
    11
 71
     3
 72
    24
 73
    20
 74
     0
 42
0.0000000001
 43
0.0000000001
 12
1.0
 22
0.0
 32
0.0
 13
1.0
 23
0.0
 33
0.0
 40
0.0
 40
0.0
 40
0.0
 40
0.0
 40
0.1666666666666667
 40
0.1666666666666667
 40
0.1666666666666667
 40
0.1666666666666667
 40
0.3333333333333333
 40
0.3333333333333333
 40
0.3333333333333333
 40
0.3333333333333333
 40
0.5
 40
0.5
 40
0.5
 40
0.5
 40
0.6666666666666666
 40
0.6666666666666666
 40
0.6666666666666666
 40
0.6666666666666666
 40
1.0
 40
1.0
 40
1.0
 40
1.0
 10
161.7407
 20
47.3391
 30
0.0
 10
162.3663
 20
43.0236
 30
0.0
 10
164.7654
 20
42.1685
 30
0.0
 10
166.5829
 20
43.1735
 30
0.0
 10
166.5829
 20
43.1735
 30
0.0
 10
169.4143
 20
44.6587
 30
0.0
 10
167.7047
 20
49.898
 30
0.0
 10
164.9784
 20
53.0868
 30
0.0
 10
164.9784
 20
53.0868
 30
0.0
 10
163.6565
 20
54.6592
 30
0.0
 10
159.7143
 20
59.3905
 30
0.0
 10
154.4918
 20
61.1801
 30
0.0
 10
154.4918
 20
61.1801
 30
0.0
 10
159.305
 20
55.764
 30
0.0
 10
161.3854
 20
49.9773
 30
0.0
 10
161.7409
 20
47.3391
 30
0.0
 10
161.7409
 20
47.3391
 30
0.0
 10
161.7409
 20
47.3391
 30
0.0
 10
161.7407
 20
47.3391
 30
0.0
 10
161.7407
 20
47.3391
 30
0.0
  0
SPLINE
  5
5C
330
1F
100
AcDbEntity
  8
layer 1
 62
     7
100
AcDbSpline
210
0.0
220
0.0
230
1.0
 70
    11
 71
     3
 72
    20
 73
    16
 74
     0
 42
0.0000000001
 43
0.0000000001
 12
1.0
 22
0.0
 32
0.0
 13
1.0
 23
0.0
 33
0.0
 40
0.0
 40
0.0
 40
0.0
 40
0.0
 40
0.2
 40
0.2
 40
0.2
 40
0.2
 40
0.4
 40
0.4
 40
0.4
 40
0.4
 40
0.6
 40
0.6
 40
0.6
 40
0.6
 40
1.0
 40
1.0
 40
1.0
 40
1.0
 10
179.4532
 20
78.9837
 30
0.0
 10
182.8226
 20
80.9633
 30
0.0
 10
186.7786
 20
81.9666
 30
0.0
 10
187.5209
 20
78.9226
 30
0.0
 10
187.5209
 20
78.9226
 30
0.0
 10
188.4984
 20
76.1396
 30
0.0
 10
184.8236
 20
74.7934
 30
0.0
 10
181.5414
 20
74.1629
 30
0.0
 10
181.5414
 20
74.1629
 30
0.0
 10
173.5085
 20
72.8128
 30
0.0
 10
169.1586
 20
72.1971
 30
0.0
 10
161.0441
 20
72.4838
 30
0.0
 10
161.0441
 20
72.4838
 30
0.0
 10
166.8582
 20
73.7103
 30
0.0
 10
176.7619
 20
77.2353
 30
0.0
 10
179.4532
 20
78.9837
 30
0.0
  0
SPLINE
  5
5D
330
1F
100
AcDbEntity
  8
layer 1
 62
     7
100
AcDbSpline
210
0.0
220
0.0
230
1.0
 70
    11
 71
     3
 72
    24
 73
    20
 74
     0
 42
0.0000000001
 43
0.0000000001
 12
1.0
 22
0.0
 32
0.0
 13
1.0
 23
0.0
 33
0.0
 40
0.0
 40
0.0
 40
0.0
 40
0.0
 40
0.1666666666666667
 40
0.1666666666666667
 40
0.1666666666666667
 40
0.1666666666666667
 40
0.3333333333333333
 40
0.3333333333333333
 40
0.3333333333333333
 40
0.3333333333333333
 40
0.5
 40
0.5
 40
0.5
 40
0.5
 40
0.6666666666666666
 40
0.6666666666666666
 40
0.6666666666666666
 40
0.6666666666666666
 40
1.0
 40
1.0
 40
1.0
 40
1.0
 10
174.6804
 20
84.3618
 30
0.0
 10
178.0498
 20
87.6392
 30
0.0
 10
180.8565
 20
89.2356
 30
0.0
 10
182.5256
 20
86.8589
 30
0.0
 10
182.5256
 20
86.8589
 30
0.0
 10
184.1704
 20
84.2241
 30
0.0
 10
181.608
 20
81.8769
 30
0.0
 10
177.2505
 20
79.9487
 30
0.0
 10
177.2505
 20
79.9487
 30
0.0
 10
174.4825
 20
78.8211
 30
0.0
 10
169.4282
 20
76.7223
 30
0.0
 10
159.7193
 20
74.7473
 30
0.0
 10
159.7193
 20
74.7473
 30
0.0
 10
166.8684
 20
77.976
 30
0.0
 10
172.7305
 20
82.3167
 30
0.0
 10
174.6801
 20
84.3616
 30
0.0
 10
174.6801
 20
84.3616
 30
0.0
 10
174.6801
 20
84.3616
 30
0.0
 10
174.6804
 20
84.3618
 30
0.0
 10
174.6804
 20
84.3618
 30
0.0
  0
SPLINE
  5
5E
330
1F
100
AcDbEntity
  8
layer 1
 62
     7
100
AcDbSpline
210
0.0
220
0.0
230
1.0
 70
    11
 71
     3
 72
    24
 73
    20
 74
     0
 42
0.0000000001
 43
0.0000000001
 12
1.0
 22
0.0
 32
0.0
 13
1.0
 23
0.0
 33
0.0
 40
0.0
 40
0.0
 40
0.0
 40
0.0
 40
0.1666666666666667
 40
0.1666666666666667
 40
0.1666666666666667
 40
0.1666666666666667
 40
0.3333333333333333
 40
0.3333333333333333
 40
0.3333333333333333
 40
0.3333333333333333
 40
0.5
 40
0.5
 40
0.5
 40
0.5
 40
0.6666666666666666
 40
0.6666666666666666
 40
0.6666666666666666
 40
0.6666666666666666
 40
1.0
 40
1.0
 40
1.0
 40
1.0
 10
168.5628
 20
88.8851
 30
0.0
 10
170.449
 20
92.8669
 30
0.0
 10
173.2186
 20
94.2779
 30
0.0
 10
175.5552
 20
92.1237
 30
0.0
 10
175.5552
 20
92.1237
 30
0.0
 10
177.4597
 20
89.6744
 30
0.0
 10
174.786
 20
85.9925
 30
0.0
 10
171.4666
 20
83.545
 30
0.0
 10
171.4666
 20
83.545
 30
0.0
 10
168.7728
 20
81.639
 30
0.0
 10
161.7534
 20
77.649
 30
0.0
 10
157.4206
 20
76.7493
 30
0.0
 10
157.4206
 20
76.7493
 30
0.0
 10
165.4595
 20
82.2025
 30
0.0
 10
167.5399
 20
86.8028
 30
0.0
 10
168.5625
 20
88.8848
 30
0.0
 10
168.5625
 20
88.8848
 30
0.0
 10
168.5625
 20
88.8848
 30
0.0
 10
168.5628
 20
88.8851
 30
0.0
 10
168.5628
 20
88.8851
 30
0.0
  0
SPLINE
  5
5F
330
1F
100
AcDbEntity
  8
layer 1
 62
     7
100
AcDbSpline
210
0.0
220
0.0
230
1.0
 70
    11
 71
     3
 72
    24
 73
    20
 74
     0
 42
0.0000000001
 43
0.0000000001
 12
1.0
 22
0.0
 32
0.0
 13
1.0
 23
0.0
 33
0.0
 40
0.0
 40
0.0
 40
0.0
 40
0.0
 40
0.1666666666666667
 40
0.1666666666666667
 40
0.1666666666666667
 40
0.1666666666666667
 40
0.3333333333333333
 40
0.3333333333333333
 40
0.3333333333333333
 40
0.3333333333333333
 40
0.5
 40
0.5
 40
0.5
 40
0.5
 40
0.6666666666666666
 40
0.6666666666666666
 40
0.6666666666666666
 40
0.6666666666666666
 40
1.0
 40
1.0
 40
1.0
 40
1.0
 10
161.7407
 20
92.1108
 30
0.0
 10
162.3663
 20
96.4264
 30
0.0
 10
164.7654
 20
97.2814
 30
0.0
 10
166.5829
 20
96.2765
 30
0.0
 10
166.5829
 20
96.2765
 30
0.0
 10
169.4143
 20
94.7912
 30
0.0
 10
167.7047
 20
89.5519
 30
0.0
 10
164.9784
 20
86.3631
 30
0.0
 10
164.9784
 20
86.3631
 30
0.0
 10
163.6565
 20
84.7907
 30
0.0
 10
159.7143
 20
80.0594
 30
0.0
 10
154.4918
 20
78.2698
 30
0.0
 10
154.4918
 20
78.2698
 30
0.0
 10
159.305
 20
83.6859
 30
0.0
 10
161.3854
 20
89.4726
 30
0.0
 10
161.7409
 20
92.1108
 30
0.0
 10
161.7409
 20
92.1108
 30
0.0
 10
161.7409
 20
92.1108
 30
0.0
 10
161.7407
 20
92.1108
 30
0.0
 10
161.7407
 20
92.1108
 30
0.0
  0
SPLINE
  5
60
330
1F
100
AcDbEntity
  8
layer 1
 62
     7
100
AcDbSpline
210
0.0
220
0.0
230
1.0
 70
    11
 71
     3
 72
    20
 73
    16
 74
     0
 42
0.0000000001
 43
0.0000000001
 12
1.0
 22
0.0
 32
0.0
 13
1.0
 23
0.0
 33
0.0
 40
0.0
 40
0.0
 40
0.0
 40
0.0
 40
0.2
 40
0.2
 40
0.2
 40
0.2
 40
0.4
 40
0.4
 40
0.4
 40
0.4
 40
0.6
 40
0.6
 40
0.6
 40
0.6
 40
1.0
 40
1.0
 40
1.0
 40
1.0
 10
130.6332
 20
77.1164
 30
0.0
 10
130.4807
 20
74.7911
 30
0.0
 10
129.8254
 20
70.7481
 30
0.0
 10
133.6528
 20
70.7018
 30
0.0
 10
133.6528
 20
70.7018
 30
0.0
 10
137.1319
 20
70.8553
 30
0.0
 10
136.4766
 20
74.7911
 30
0.0
 10
136.4113
 20
77.0292
 30
0.0
 10
136.4113
 20
77.0292
 30
0.0
 10
135.412
 20
85.0621
 30
0.0
 10
134.6355
 20
92.0223
 30
0.0
 10
133.6528
 20
99.0058
 30
0.0
 10
133.6528
 20
99.0058
 30
0.0
 10
132.6001
 20
91.8862
 30
0.0
 10
131.8597
 20
85.9854
 30
0.0
 10
130.6332
 20
77.1164
 30
0.0
  0
SPLINE
  5
61
330
1F
100
AcDbEntity
  8
layer 1
 62
     7
100
AcDbSpline
210
0.0
220
0.0
230
1.0
 70
    11
 71
     3
 72
    20
 73
    16
 74
     0
 42
0.0000000001
 43
0.0000000001
 12
1.0
 22
0.0
 32
0.0
 13
1.0
 23
0.0
 33
0.0
 40
0.0
 40
0.0
 40
0.0
 40
0.0
 40
0.2
 40
0.2
 40
0.2
 40
0.2
 40
0.4
 40
0.4
 40
0.4
 40
0.4
 40
0.6
 40
0.6
 40
0.6
 40
0.6
 40
1.0
 40
1.0
 40
1.0
 40
1.0
 10
126.4373
 20
107.3972
 30
0.0
 10
127.0675
 20
103.8233
 30
0.0
 10
130.3844
 20
100.2719
 30
0.0
 10
133.6622
 20
100.1274
 30
0.0
 10
133.6622
 20
100.1274
 30
0.0
 10
136.9401
 20
100.2719
 30
0.0
 10
140.2569
 20
103.8233
 30
0.0
 10
140.8871
 20
107.3972
 30
0.0
 10
140.8871
 20
107.3972
 30
0.0
 10
139.148
 20
108.9819
 30
0.0
 10
134.8018
 20
115.3001
 30
0.0
 10
133.6622
 20
120.2728
 30
0.0
 10
133.6622
 20
120.2728
 30
0.0
 10
132.5226
 20
115.3001
 30
0.0
 10
128.1764
 20
108.9819
 30
0.0
 10
126.4373
 20
107.3972
 30
0.0
  0
SPLINE
  5
62
330
1F
100
AcDbEntity
  8
layer 1
 62
     7
100
AcDbSpline
210
0.0
220
0.0
230
1.0
 70
    11
 71
     3
 72
    20
 73
    16
 74
     0
 42
0.0000000001
 43
0.0000000001
 12
1.0
 22
0.0
 32
0.0
 13
1.0
 23
0.0
 33
0.0
 40
0.0
 40
0.0
 40
0.0
 40
0.0
 40
0.2
 40
0.2
 40
0.2
 40
0.2
 40
0.4
 40
0.4
 40
0.4
 40
0.4
 40
0.6
 40
0.6
 40
0.6
 40
0.6
 40
1.0
 40
1.0
 40
1.0
 40
1.0
 10
124.2813
 20
80.8579
 30
0.0
 10
122.3016
 20
77.4885
 30
0.0
 10
121.2983
 20
73.5325
 30
0.0
 10
124.3424
 20
72.7902
 30
0.0
 10
124.3424
 20
72.7902
 30
0.0
 10
127.1254
 20
71.8127
 30
0.0
 10
128.4716
 20
75.4875
 30
0.0
 10
129.102
 20
78.7697
 30
0.0
 10
129.102
 20
78.7697
 30
0.0
 10
130.4521
 20
86.8026
 30
0.0
 10
131.0678
 20
91.1525
 30
0.0
 10
130.7812
 20
99.267
 30
0.0
 10
130.7812
 20
99.267
 30
0.0
 10
129.5547
 20
93.4529
 30
0.0
 10
126.0296
 20
83.5492
 30
0.0
 10
124.2813
 20
80.8579
 30
0.0
  0
SPLINE
  5
63
330
1F
100
AcDbEntity
  8
layer 1
 62
     7
100
AcDbSpline
210
0.0
220
0.0
230
1.0
 70
    11
 71
     3
 72
    24
 73
    20
 74
     0
 42
0.0000000001
 43
0.0000000001
 12
1.0
 22
0.0
 32
0.0
 13
1.0
 23
0.0
 33
0.0
 40
0.0
 40
0.0
 40
0.0
 40
0.0
 40
0.1666666666666667
 40
0.1666666666666667
 40
0.1666666666666667
 40
0.1666666666666667
 40
0.3333333333333333
 40
0.3333333333333333
 40
0.3333333333333333
 40
0.3333333333333333
 40
0.5
 40
0.5
 40
0.5
 40
0.5
 40
0.6666666666666666
 40
0.6666666666666666
 40
0.6666666666666666
 40
0.6666666666666666
 40
1.0
 40
1.0
 40
1.0
 40
1.0
 10
118.9032
 20
85.6307
 30
0.0
 10
115.6258
 20
82.2613
 30
0.0
 10
114.0294
 20
79.4546
 30
0.0
 10
116.4061
 20
77.7855
 30
0.0
 10
116.4061
 20
77.7855
 30
0.0
 10
119.0408
 20
76.1407
 30
0.0
 10
121.388
 20
78.7031
 30
0.0
 10
123.3163
 20
83.0606
 30
0.0
 10
123.3163
 20
83.0606
 30
0.0
 10
124.4438
 20
85.8286
 30
0.0
 10
126.5427
 20
90.8829
 30
0.0
 10
128.5177
 20
100.5918
 30
0.0
 10
128.5177
 20
100.5918
 30
0.0
 10
125.289
 20
93.4427
 30
0.0
 10
120.9483
 20
87.5806
 30
0.0
 10
118.9034
 20
85.631
 30
0.0
 10
118.9034
 20
85.631
 30
0.0
 10
118.9034
 20
85.631
 30
0.0
 10
118.9032
 20
85.6307
 30
0.0
 10
118.9032
 20
85.6307
 30
0.0
  0
SPLINE
  5
64
330
1F
100
AcDbEntity
  8
layer 1
 62
     7
100
AcDbSpline
210
0.0
220
0.0
230
1.0
 70
    11
 71
     3
 72
    20
 73
    16
 74
     0
 42
0.0000000001
 43
0.0000000001
 12
1.0
 22
0.0
 32
0.0
 13
1.0
 23
0.0
 33
0.0
 40
0.0
 40
0.0
 40
0.0
 40
0.0
 40
0.2
 40
0.2
 40
0.2
 40
0.2
 40
0.4
 40
0.4
 40
0.4
 40
0.4
 40
0.6
 40
0.6
 40
0.6
 40
0.6
 40
1.0
 40
1.0
 40
1.0
 40
1.0
 10
114.3799
 20
91.7483
 30
0.0
 10
110.398
 20
89.8621
 30
0.0
 10
108.987
 20
87.0925
 30
0.0
 10
111.1412
 20
84.7559
 30
0.0
 10
111.1412
 20
84.7559
 30
0.0
 10
113.5906
 20
82.8514
 30
0.0
 10
117.2724
 20
85.5251
 30
0.0
 10
119.7199
 20
88.8445
 30
0.0
 10
119.7199
 20
88.8445
 30
0.0
 10
121.626
 20
91.5383
 30
0.0
 10
125.6159
 20
98.5577
 30
0.0
 10
126.5157
 20
102.8905
 30
0.0
 10
126.5157
 20
102.8905
 30
0.0
 10
121.0622
 20
94.8516
 30
0.0
 10
116.4619
 20
92.771
 30
0.0
 10
114.3799
 20
91.7483
 30
0.0
  0
SPLINE
  5
65
330
1F
100
AcDbEntity
  8
layer 1
 62
     7
100
AcDbSpline
210
0.0
220
0.0
230
1.0
 70
    11
 71
     3
 72
    24
 73
    20
 74
     0
 42
0.0000000001
 43
0.0000000001
 12
1.0
 22
0.0
 32
0.0
 13
1.0
 23
0.0
 33
0.0
 40
0.0
 40
0.0
 40
0.0
 40
0.0
 40
0.1666666666666667
 40
0.1666666666666667
 40
0.1666666666666667
 40
0.1666666666666667
 40
0.3333333333333333
 40
0.3333333333333333
 40
0.3333333333333333
 40
0.3333333333333333
 40
0.5
 40
0.5
 40
0.5
 40
0.5
 40
0.6666666666666666
 40
0.6666666666666666
 40
0.6666666666666666
 40
0.6666666666666666
 40
1.0
 40
1.0
 40
1.0
 40
1.0
 10
111.1544
 20
98.5704
 30
0.0
 10
106.8388
 20
97.9448
 30
0.0
 10
105.9838
 20
95.5457
 30
0.0
 10
106.9887
 20
93.7282
 30
0.0
 10
106.9887
 20
93.7282
 30
0.0
 10
108.474
 20
90.8968
 30
0.0
 10
113.7133
 20
92.6064
 30
0.0
 10
116.9021
 20
95.3327
 30
0.0
 10
116.9021
 20
95.3327
 30
0.0
 10
118.4745
 20
96.6546
 30
0.0
 10
123.2058
 20
100.5968
 30
0.0
 10
124.9954
 20
105.8193
 30
0.0
 10
124.9954
 20
105.8193
 30
0.0
 10
119.5793
 20
101.0061
 30
0.0
 10
113.7926
 20
98.9257
 30
0.0
 10
111.1544
 20
98.5702
 30
0.0
 10
111.1544
 20
98.5702
 30
0.0
 10
111.1544
 20
98.5702
 30
0.0
 10
111.1544
 20
98.5704
 30
0.0
 10
111.1544
 20
98.5704
 30
0.0
  0
SPLINE
  5
66
330
1F
100
AcDbEntity
  8
layer 1
 62
     7
100
AcDbSpline
210
0.0
220
0.0
230
1.0
 70
    11
 71
     3
 72
    20
 73
    16
 74
     0
 42
0.0000000001
 43
0.0000000001
 12
1.0
 22
0.0
 32
0.0
 13
1.0
 23
0.0
 33
0.0
 40
0.0
 40
0.0
 40
0.0
 40
0.0
 40
0.2
 40
0.2
 40
0.2
 40
0.2
 40
0.4
 40
0.4
 40
0.4
 40
0.4
 40
0.6
 40
0.6
 40
0.6
 40
0.6
 40
1.0
 40
1.0
 40
1.0
 40
1.0
 10
142.799
 20
80.8579
 30
0.0
 10
144.7786
 20
77.4885
 30
0.0
 10
145.7819
 20
73.5325
 30
0.0
 10
142.7379
 20
72.7902
 30
0.0
 10
142.7379
 20
72.7902
 30
0.0
 10
139.9548
 20
71.8127
 30
0.0
 10
138.6086
 20
75.4875
 30
0.0
 10
137.9782
 20
78.7697
 30
0.0
 10
137.9782
 20
78.7697
 30
0.0
 10
136.6281
 20
86.8026
 30
0.0
 10
136.0124
 20
91.1525
 30
0.0
 10
136.299
 20
99.267
 30
0.0
 10
136.299
 20
99.267
 30
0.0
 10
137.5256
 20
93.4529
 30
0.0
 10
141.0506
 20
83.5492
 30
0.0
 10
142.799
 20
80.8579
 30
0.0
  0
SPLINE
  5
67
330
1F
100
AcDbEntity
  8
layer 1
 62
     7
100
AcDbSpline
210
0.0
220
0.0
230
1.0
 70
    11
 71
     3
 72
    24
 73
    20
 74
     0
 42
0.0000000001
 43
0.0000000001
 12
1.0
 22
0.0
 32
0.0
 13
1.0
 23
0.0
 33
0.0
 40
0.0
 40
0.0
 40
0.0
 40
0.0
 40
0.1666666666666667
 40
0.1666666666666667
 40
0.1666666666666667
 40
0.1666666666666667
 40
0.3333333333333333
 40
0.3333333333333333
 40
0.3333333333333333
 40
0.3333333333333333
 40
0.5
 40
0.5
 40
0.5
 40
0.5
 40
0.6666666666666666
 40
0.6666666666666666
 40
0.6666666666666666
 40
0.6666666666666666
 40
1.0
 40
1.0
 40
1.0
 40
1.0
 10
148.1771
 20
85.6307
 30
0.0
 10
151.4545
 20
82.2613
 30
0.0
 10
153.0508
 20
79.4546
 30
0.0
 10
150.6741
 20
77.7855
 30
0.0
 10
150.6741
 20
77.7855
 30
0.0
 10
148.0394
 20
76.1407
 30
0.0
 10
145.6922
 20
78.7031
 30
0.0
 10
143.764
 20
83.0606
 30
0.0
 10
143.764
 20
83.0606
 30
0.0
 10
142.6364
 20
85.8286
 30
0.0
 10
140.5375
 20
90.8829
 30
0.0
 10
138.5625
 20
100.5918
 30
0.0
 10
138.5625
 20
100.5918
 30
0.0
 10
141.7913
 20
93.4427
 30
0.0
 10
146.1319
 20
87.5806
 30
0.0
 10
148.1768
 20
85.631
 30
0.0
 10
148.1768
 20
85.631
 30
0.0
 10
148.1768
 20
85.631
 30
0.0
 10
148.1771
 20
85.6307
 30
0.0
 10
148.1771
 20
85.6307
 30
0.0
  0
SPLINE
  5
68
330
1F
100
AcDbEntity
  8
layer 1
 62
     7
100
AcDbSpline
210
0.0
220
0.0
230
1.0
 70
    11
 71
     3
 72
    24
 73
    20
 74
     0
 42
0.0000000001
 43
0.0000000001
 12
1.0
 22
0.0
 32
0.0
 13
1.0
 23
0.0
 33
0.0
 40
0.0
 40
0.0
 40
0.0
 40
0.0
 40
0.1666666666666667
 40
0.1666666666666667
 40
0.1666666666666667
 40
0.1666666666666667
 40
0.3333333333333333
 40
0.3333333333333333
 40
0.3333333333333333
 40
0.3333333333333333
 40
0.5
 40
0.5
 40
0.5
 40
0.5
 40
0.6666666666666666
 40
0.6666666666666666
 40
0.6666666666666666
 40
0.6666666666666666
 40
1.0
 40
1.0
 40
1.0
 40
1.0
 10
152.7003
 20
91.7483
 30
0.0
 10
156.6822
 20
89.8621
 30
0.0
 10
158.0932
 20
87.0925
 30
0.0
 10
155.939
 20
84.7559
 30
0.0
 10
155.939
 20
84.7559
 30
0.0
 10
153.4897
 20
82.8514
 30
0.0
 10
149.8078
 20
85.5251
 30
0.0
 10
147.3603
 20
88.8445
 30
0.0
 10
147.3603
 20
88.8445
 30
0.0
 10
145.4542
 20
91.5383
 30
0.0
 10
141.4643
 20
98.5577
 30
0.0
 10
140.5645
 20
102.8905
 30
0.0
 10
140.5645
 20
102.8905
 30
0.0
 10
146.0178
 20
94.8516
 30
0.0
 10
150.6181
 20
92.7712
 30
0.0
 10
152.7001
 20
91.7486
 30
0.0
 10
152.7001
 20
91.7486
 30
0.0
 10
152.7001
 20
91.7486
 30
0.0
 10
152.7003
 20
91.7483
 30
0.0
 10
152.7003
 20
91.7483
 30
0.0
  0
SPLINE
  5
69
330
1F
100
AcDbEntity
  8
layer 1
 62
     7
100
AcDbSpline
210
0.0
220
0.0
230
1.0
 70
    11
 71
     3
 72
    24
 73
    20
 74
     0
 42
0.0000000001
 43
0.0000000001
 12
1.0
 22
0.0
 32
0.0
 13
1.0
 23
0.0
 33
0.0
 40
0.0
 40
0.0
 40
0.0
 40
0.0
 40
0.1666666666666667
 40
0.1666666666666667
 40
0.1666666666666667
 40
0.1666666666666667
 40
0.3333333333333333
 40
0.3333333333333333
 40
0.3333333333333333
 40
0.3333333333333333
 40
0.5
 40
0.5
 40
0.5
 40
0.5
 40
0.6666666666666666
 40
0.6666666666666666
 40
0.6666666666666666
 40
0.6666666666666666
 40
1.0
 40
1.0
 40
1.0
 40
1.0
 10
155.9261
 20
98.5704
 30
0.0
 10
160.2416
 20
97.9448
 30
0.0
 10
161.0967
 20
95.5457
 30
0.0
 10
160.0917
 20
93.7282
 30
0.0
 10
160.0917
 20
93.7282
 30
0.0
 10
158.6065
 20
90.8968
 30
0.0
 10
153.3672
 20
92.6064
 30
0.0
 10
150.1784
 20
95.3327
 30
0.0
 10
150.1784
 20
95.3327
 30
0.0
 10
148.606
 20
96.6546
 30
0.0
 10
143.8747
 20
100.5968
 30
0.0
 10
142.0851
 20
105.8193
 30
0.0
 10
142.0851
 20
105.8193
 30
0.0
 10
147.5012
 20
101.0061
 30
0.0
 10
153.2879
 20
98.9257
 30
0.0
 10
155.9261
 20
98.5702
 30
0.0
 10
155.9261
 20
98.5702
 30
0.0
 10
155.9261
 20
98.5702
 30
0.0
 10
155.9261
 20
98.5704
 30
0.0
 10
155.9261
 20
98.5704
 30
0.0
  0
SPLINE
  5
6A
330
1F
100
AcDbEntity
  8
layer 1
 62
     7
100
AcDbSpline
210
0.0
220
0.0
230
1.0
 70
    11
 71
     3
 72
    20
 73
    16
 74
     0
 42
0.0000000001
 43
0.0000000001
 12
1.0
 22
0.0
 32
0.0
 13
1.0
 23
0.0
 33
0.0
 40
0.0
 40
0.0
 40
0.0
 40
0.0
 40
0.2
 40
0.2
 40
0.2
 40
0.2
 40
0.4
 40
0.4
 40
0.4
 40
0.4
 40
0.6
 40
0.6
 40
0.6
 40
0.6
 40
1.0
 40
1.0
 40
1.0
 40
1.0
 10
125.2811
 20
9.8022
 30
0.0
 10
127.6064
 20
9.6498
 30
0.0
 10
131.6494
 20
8.9944
 30
0.0
 10
131.6957
 20
12.8218
 30
0.0
 10
131.6957
 20
12.8218
 30
0.0
 10
131.5422
 20
16.301
 30
0.0
 10
127.6064
 20
15.6456
 30
0.0
 10
125.3683
 20
15.5804
 30
0.0
 10
125.3683
 20
15.5804
 30
0.0
 10
117.3354
 20
14.581
 30
0.0
 10
110.3752
 20
13.8046
 30
0.0
 10
103.3917
 20
12.8218
 30
0.0
 10
103.3917
 20
12.8218
 30
0.0
 10
110.5113
 20
11.7691
 30
0.0
 10
116.4121
 20
11.0287
 30
0.0
 10
125.2811
 20
9.8022
 30
0.0
  0
SPLINE
  5
6B
330
1F
100
AcDbEntity
  8
layer 1
 62
     7
100
AcDbSpline
210
0.0
220
0.0
230
1.0
 70
    11
 71
     3
 72
    20
 73
    16
 74
     0
 42
0.0000000001
 43
0.0000000001
 12
1.0
 22
0.0
 32
0.0
 13
1.0
 23
0.0
 33
0.0
 40
0.0
 40
0.0
 40
0.0
 40
0.0
 40
0.2
 40
0.2
 40
0.2
 40
0.2
 40
0.4
 40
0.4
 40
0.4
 40
0.4
 40
0.6
 40
0.6
 40
0.6
 40
0.6
 40
1.0
 40
1.0
 40
1.0
 40
1.0
 10
95.0003
 20
5.6063
 30
0.0
 10
98.5742
 20
6.2366
 30
0.0
 10
102.1255
 20
9.5534
 30
0.0
 10
102.2701
 20
12.8312
 30
0.0
 10
102.2701
 20
12.8312
 30
0.0
 10
102.1255
 20
16.1091
 30
0.0
 10
98.5742
 20
19.4259
 30
0.0
 10
95.0003
 20
20.0562
 30
0.0
 10
95.0003
 20
20.0562
 30
0.0
 10
93.4156
 20
18.317
 30
0.0
 10
87.0974
 20
13.9708
 30
0.0
 10
82.1247
 20
12.8312
 30
0.0
 10
82.1247
 20
12.8312
 30
0.0
 10
87.0974
 20
11.6917
 30
0.0
 10
93.4156
 20
7.3455
 30
0.0
 10
95.0003
 20
5.6063
 30
0.0
  0
SPLINE
  5
6C
330
1F
100
AcDbEntity
  8
layer 1
 62
     7
100
AcDbSpline
210
0.0
220
0.0
230
1.0
 70
    11
 71
     3
 72
    20
 73
    16
 74
     0
 42
0.0000000001
 43
0.0000000001
 12
1.0
 22
0.0
 32
0.0
 13
1.0
 23
0.0
 33
0.0
 40
0.0
 40
0.0
 40
0.0
 40
0.0
 40
0.2
 40
0.2
 40
0.2
 40
0.2
 40
0.4
 40
0.4
 40
0.4
 40
0.4
 40
0.6
 40
0.6
 40
0.6
 40
0.6
 40
1.0
 40
1.0
 40
1.0
 40
1.0
 10
121.5395
 20
3.4503
 30
0.0
 10
124.909
 20
1.4707
 30
0.0
 10
128.865
 20
0.4674
 30
0.0
 10
129.6073
 20
3.5114
 30
0.0
 10
129.6073
 20
3.5114
 30
0.0
 10
130.5847
 20
6.2944
 30
0.0
 10
126.91
 20
7.6406
 30
0.0
 10
123.6278
 20
8.2711
 30
0.0
 10
123.6278
 20
8.2711
 30
0.0
 10
115.5949
 20
9.6212
 30
0.0
 10
111.245
 20
10.2369
 30
0.0
 10
103.1305
 20
9.9502
 30
0.0
 10
103.1305
 20
9.9502
 30
0.0
 10
108.9446
 20
8.7237
 30
0.0
 10
118.8483
 20
5.1987
 30
0.0
 10
121.5395
 20
3.4503
 30
0.0
  0
SPLINE
  5
6D
330
1F
100
AcDbEntity
  8
layer 1
 62
     7
100
AcDbSpline
210
0.0
220
0.0
230
1.0
 70
    11
 71
     3
 72
    24
 73
    20
 74
     0
 42
0.0000000001
 43
0.0000000001
 12
1.0
 22
0.0
 32
0.0
 13
1.0
 23
0.0
 33
0.0
 40
0.0
 40
0.0
 40
0.0
 40
0.0
 40
0.1666666666666667
 40
0.1666666666666667
 40
0.1666666666666667
 40
0.1666666666666667
 40
0.3333333333333333
 40
0.3333333333333333
 40
0.3333333333333333
 40
0.3333333333333333
 40
0.5
 40
0.5
 40
0.5
 40
0.5
 40
0.6666666666666666
 40
0.6666666666666666
 40
0.6666666666666666
 40
0.6666666666666666
 40
1.0
 40
1.0
 40
1.0
 40
1.0
 10
116.7667
 20
-1.9278
 30
0.0
 10
120.1362
 20
-5.2052
 30
0.0
 10
122.9429
 20
-6.8016
 30
0.0
 10
124.6119
 20
-4.4249
 30
0.0
 10
124.6119
 20
-4.4249
 30
0.0
 10
126.2568
 20
-1.7901
 30
0.0
 10
123.6944
 20
0.5571
 30
0.0
 10
119.3369
 20
2.4853
 30
0.0
 10
119.3369
 20
2.4853
 30
0.0
 10
116.5689
 20
3.6129
 30
0.0
 10
111.5146
 20
5.7117
 30
0.0
 10
101.8057
 20
7.6867
 30
0.0
 10
101.8057
 20
7.6867
 30
0.0
 10
108.9548
 20
4.458
 30
0.0
 10
114.8169
 20
0.1173
 30
0.0
 10
116.7665
 20
-1.9276
 30
0.0
 10
116.7665
 20
-1.9276
 30
0.0
 10
116.7665
 20
-1.9276
 30
0.0
 10
116.7667
 20
-1.9278
 30
0.0
 10
116.7667
 20
-1.9278
 30
0.0
  0
SPLINE
  5
6E
330
1F
100
AcDbEntity
  8
layer 1
 62
     7
100
AcDbSpline
210
0.0
220
0.0
230
1.0
 70
    11
 71
     3
 72
    20
 73
    16
 74
     0
 42
0.0000000001
 43
0.0000000001
 12
1.0
 22
0.0
 32
0.0
 13
1.0
 23
0.0
 33
0.0
 40
0.0
 40
0.0
 40
0.0
 40
0.0
 40
0.2
 40
0.2
 40
0.2
 40
0.2
 40
0.4
 40
0.4
 40
0.4
 40
0.4
 40
0.6
 40
0.6
 40
0.6
 40
0.6
 40
1.0
 40
1.0
 40
1.0
 40
1.0
 10
110.6491
 20
-6.4511
 30
0.0
 10
112.5354
 20
-10.4329
 30
0.0
 10
115.305
 20
-11.8439
 30
0.0
 10
117.6416
 20
-9.6897
 30
0.0
 10
117.6416
 20
-9.6897
 30
0.0
 10
119.5461
 20
-7.2404
 30
0.0
 10
116.8724
 20
-3.5585
 30
0.0
 10
113.553
 20
-1.111
 30
0.0
 10
113.553
 20
-1.111
 30
0.0
 10
110.8592
 20
0.795
 30
0.0
 10
103.8398
 20
4.785
 30
0.0
 10
99.5069
 20
5.6847
 30
0.0
 10
99.5069
 20
5.6847
 30
0.0
 10
107.5458
 20
0.2312
 30
0.0
 10
109.6265
 20
-4.3691
 30
0.0
 10
110.6491
 20
-6.4511
 30
0.0
  0
SPLINE
  5
6F
330
1F
100
AcDbEntity
  8
layer 1
 62
     7
100
AcDbSpline
210
0.0
220
0.0
230
1.0
 70
    11
 71
     3
 72
    24
 73
    20
 74
     0
 42
0.0000000001
 43
0.0000000001
 12
1.0
 22
0.0
 32
0.0
 13
1.0
 23
0.0
 33
0.0
 40
0.0
 40
0.0
 40
0.0
 40
0.0
 40
0.1666666666666667
 40
0.1666666666666667
 40
0.1666666666666667
 40
0.1666666666666667
 40
0.3333333333333333
 40
0.3333333333333333
 40
0.3333333333333333
 40
0.3333333333333333
 40
0.5
 40
0.5
 40
0.5
 40
0.5
 40
0.6666666666666666
 40
0.6666666666666666
 40
0.6666666666666666
 40
0.6666666666666666
 40
1.0
 40
1.0
 40
1.0
 40
1.0
 10
103.8271
 20
-9.6766
 30
0.0
 10
104.4527
 20
-13.9921
 30
0.0
 10
106.8518
 20
-14.8472
 30
0.0
 10
108.6693
 20
-13.8422
 30
0.0
 10
108.6693
 20
-13.8422
 30
0.0
 10
111.5007
 20
-12.357
 30
0.0
 10
109.7911
 20
-7.1177
 30
0.0
 10
107.0648
 20
-3.9289
 30
0.0
 10
107.0648
 20
-3.9289
 30
0.0
 10
105.7428
 20
-2.3565
 30
0.0
 10
101.8006
 20
2.3748
 30
0.0
 10
96.5782
 20
4.1645
 30
0.0
 10
96.5782
 20
4.1645
 30
0.0
 10
101.3913
 20
-1.2517
 30
0.0
 10
103.4717
 20
-7.0384
 30
0.0
 10
103.8273
 20
-9.6766
 30
0.0
 10
103.8273
 20
-9.6766
 30
0.0
 10
103.8273
 20
-9.6766
 30
0.0
 10
103.8271
 20
-9.6766
 30
0.0
 10
103.8271
 20
-9.6766
 30
0.0
  0
SPLINE
  5
70
330
1F
100
AcDbEntity
  8
layer 1
 62
     7
100
AcDbSpline
210
0.0
220
0.0
230
1.0
 70
    11
 71
     3
 72
    20
 73
    16
 74
     0
 42
0.0000000001
 43
0.0000000001
 12
1.0
 22
0.0
 32
0.0
 13
1.0
 23
0.0
 33
0.0
 40
0.0
 40
0.0
 40
0.0
 40
0.0
 40
0.2
 40
0.2
 40
0.2
 40
0.2
 40
0.4
 40
0.4
 40
0.4
 40
0.4
 40
0.6
 40
0.6
 40
0.6
 40
0.6
 40
1.0
 40
1.0
 40
1.0
 40
1.0
 10
121.5395
 20
21.968
 30
0.0
 10
124.909
 20
23.9476
 30
0.0
 10
128.865
 20
24.9509
 30
0.0
 10
129.6073
 20
21.9069
 30
0.0
 10
129.6073
 20
21.9069
 30
0.0
 10
130.5847
 20
19.1239
 30
0.0
 10
126.91
 20
17.7777
 30
0.0
 10
123.6278
 20
17.1472
 30
0.0
 10
123.6278
 20
17.1472
 30
0.0
 10
115.5949
 20
15.7971
 30
0.0
 10
111.245
 20
15.1814
 30
0.0
 10
103.1305
 20
15.4681
 30
0.0
 10
103.1305
 20
15.4681
 30
0.0
 10
108.9446
 20
16.6946
 30
0.0
 10
118.8483
 20
20.2196
 30
0.0
 10
121.5395
 20
21.968
 30
0.0
  0
SPLINE
  5
71
330
1F
100
AcDbEntity
  8
layer 1
 62
     7
100
AcDbSpline
210
0.0
220
0.0
230
1.0
 70
    11
 71
     3
 72
    24
 73
    20
 74
     0
 42
0.0000000001
 43
0.0000000001
 12
1.0
 22
0.0
 32
0.0
 13
1.0
 23
0.0
 33
0.0
 40
0.0
 40
0.0
 40
0.0
 40
0.0
 40
0.1666666666666667
 40
0.1666666666666667
 40
0.1666666666666667
 40
0.1666666666666667
 40
0.3333333333333333
 40
0.3333333333333333
 40
0.3333333333333333
 40
0.3333333333333333
 40
0.5
 40
0.5
 40
0.5
 40
0.5
 40
0.6666666666666666
 40
0.6666666666666666
 40
0.6666666666666666
 40
0.6666666666666666
 40
1.0
 40
1.0
 40
1.0
 40
1.0
 10
116.7667
 20
27.3461
 30
0.0
 10
120.1362
 20
30.6235
 30
0.0
 10
122.9429
 20
32.2199
 30
0.0
 10
124.6119
 20
29.8432
 30
0.0
 10
124.6119
 20
29.8432
 30
0.0
 10
126.2568
 20
27.2084
 30
0.0
 10
123.6944
 20
24.8612
 30
0.0
 10
119.3369
 20
22.933
 30
0.0
 10
119.3369
 20
22.933
 30
0.0
 10
116.5689
 20
21.8054
 30
0.0
 10
111.5146
 20
19.7066
 30
0.0
 10
101.8057
 20
17.7316
 30
0.0
 10
101.8057
 20
17.7316
 30
0.0
 10
108.9548
 20
20.9603
 30
0.0
 10
114.8169
 20
25.301
 30
0.0
 10
116.7665
 20
27.3459
 30
0.0
 10
116.7665
 20
27.3459
 30
0.0
 10
116.7665
 20
27.3459
 30
0.0
 10
116.7667
 20
27.3461
 30
0.0
 10
116.7667
 20
27.3461
 30
0.0
  0
SPLINE
  5
72
330
1F
100
AcDbEntity
  8
layer 1
 62
     7
100
AcDbSpline
210
0.0
220
0.0
230
1.0
 70
    11
 71
     3
 72
    24
 73
    20
 74
     0
 42
0.0000000001
 43
0.0000000001
 12
1.0
 22
0.0
 32
0.0
 13
1.0
 23
0.0
 33
0.0
 40
0.0
 40
0.0
 40
0.0
 40
0.0
 40
0.1666666666666667
 40
0.1666666666666667
 40
0.1666666666666667
 40
0.1666666666666667
 40
0.3333333333333333
 40
0.3333333333333333
 40
0.3333333333333333
 40
0.3333333333333333
 40
0.5
 40
0.5
 40
0.5
 40
0.5
 40
0.6666666666666666
 40
0.6666666666666666
 40
0.6666666666666666
 40
0.6666666666666666
 40
1.0
 40
1.0
 40
1.0
 40
1.0
 10
110.6491
 20
31.8694
 30
0.0
 10
112.5354
 20
35.8512
 30
0.0
 10
115.305
 20
37.2622
 30
0.0
 10
117.6416
 20
35.108
 30
0.0
 10
117.6416
 20
35.108
 30
0.0
 10
119.5461
 20
32.6587
 30
0.0
 10
116.8724
 20
28.9768
 30
0.0
 10
113.553
 20
26.5293
 30
0.0
 10
113.553
 20
26.5293
 30
0.0
 10
110.8592
 20
24.6233
 30
0.0
 10
103.8398
 20
20.6333
 30
0.0
 10
99.5069
 20
19.7336
 30
0.0
 10
99.5069
 20
19.7336
 30
0.0
 10
107.5458
 20
25.1868
 30
0.0
 10
109.6262
 20
29.7871
 30
0.0
 10
110.6489
 20
31.8691
 30
0.0
 10
110.6489
 20
31.8691
 30
0.0
 10
110.6489
 20
31.8691
 30
0.0
 10
110.6491
 20
31.8694
 30
0.0
 10
110.6491
 20
31.8694
 30
0.0
  0
SPLINE
  5
73
330
1F
100
AcDbEntity
  8
layer 1
 62
     7
100
AcDbSpline
210
0.0
220
0.0
230
1.0
 70
    11
 71
     3
 72
    24
 73
    20
 74
     0
 42
0.0000000001
 43
0.0000000001
 12
1.0
 22
0.0
 32
0.0
 13
1.0
 23
0.0
 33
0.0
 40
0.0
 40
0.0
 40
0.0
 40
0.0
 40
0.1666666666666667
 40
0.1666666666666667
 40
0.1666666666666667
 40
0.1666666666666667
 40
0.3333333333333333
 40
0.3333333333333333
 40
0.3333333333333333
 40
0.3333333333333333
 40
0.5
 40
0.5
 40
0.5
 40
0.5
 40
0.6666666666666666
 40
0.6666666666666666
 40
0.6666666666666666
 40
0.6666666666666666
 40
1.0
 40
1.0
 40
1.0
 40
1.0
 10
103.8271
 20
35.0951
 30
0.0
 10
104.4527
 20
39.4107
 30
0.0
 10
106.8518
 20
40.2657
 30
0.0
 10
108.6693
 20
39.2608
 30
0.0
 10
108.6693
 20
39.2608
 30
0.0
 10
111.5007
 20
37.7755
 30
0.0
 10
109.7911
 20
32.5363
 30
0.0
 10
107.0648
 20
29.3474
 30
0.0
 10
107.0648
 20
29.3474
 30
0.0
 10
105.7428
 20
27.775
 30
0.0
 10
101.8006
 20
23.0437
 30
0.0
 10
96.5782
 20
21.2541
 30
0.0
 10
96.5782
 20
21.2541
 30
0.0
 10
101.3913
 20
26.6702
 30
0.0
 10
103.4717
 20
32.4569
 30
0.0
 10
103.8273
 20
35.0951
 30
0.0
 10
103.8273
 20
35.0951
 30
0.0
 10
103.8273
 20
35.0951
 30
0.0
 10
103.8271
 20
35.0951
 30
0.0
 10
103.8271
 20
35.0951
 30
0.0
  0
SPLINE
  5
74
330
1F
100
AcDbEntity
  8
layer 1
 62
     7
100
AcDbSpline
210
0.0
220
0.0
230
1.0
 70
    11
 71
     3
 72
    20
 73
    16
 74
     0
 42
0.0000000001
 43
0.0000000001
 12
1.0
 22
0.0
 32
0.0
 13
1.0
 23
0.0
 33
0.0
 40
0.0
 40
0.0
 40
0.0
 40
0.0
 40
0.2
 40
0.2
 40
0.2
 40
0.2
 40
0.4
 40
0.4
 40
0.4
 40
0.4
 40
0.6
 40
0.6
 40
0.6
 40
0.6
 40
1.0
 40
1.0
 40
1.0
 40
1.0
 10
141.7553
 20
9.8022
 30
0.0
 10
139.43
 20
9.6498
 30
0.0
 10
135.387
 20
8.9944
 30
0.0
 10
135.3407
 20
12.8218
 30
0.0
 10
135.3407
 20
12.8218
 30
0.0
 10
135.4943
 20
16.301
 30
0.0
 10
139.43
 20
15.6456
 30
0.0
 10
141.6681
 20
15.5804
 30
0.0
 10
141.6681
 20
15.5804
 30
0.0
 10
149.701
 20
14.581
 30
0.0
 10
156.6612
 20
13.8046
 30
0.0
 10
163.6447
 20
12.8218
 30
0.0
 10
163.6447
 20
12.8218
 30
0.0
 10
156.5252
 20
11.7691
 30
0.0
 10
150.6243
 20
11.0287
 30
0.0
 10
141.7553
 20
9.8022
 30
0.0
  0
SPLINE
  5
75
330
1F
100
AcDbEntity
  8
layer 1
 62
     7
100
AcDbSpline
210
0.0
220
0.0
230
1.0
 70
    11
 71
     3
 72
    20
 73
    16
 74
     0
 42
0.0000000001
 43
0.0000000001
 12
1.0
 22
0.0
 32
0.0
 13
1.0
 23
0.0
 33
0.0
 40
0.0
 40
0.0
 40
0.0
 40
0.0
 40
0.2
 40
0.2
 40
0.2
 40
0.2
 40
0.4
 40
0.4
 40
0.4
 40
0.4
 40
0.6
 40
0.6
 40
0.6
 40
0.6
 40
1.0
 40
1.0
 40
1.0
 40
1.0
 10
172.0362
 20
5.6063
 30
0.0
 10
168.4622
 20
6.2366
 30
0.0
 10
164.9109
 20
9.5534
 30
0.0
 10
164.7663
 20
12.8312
 30
0.0
 10
164.7663
 20
12.8312
 30
0.0
 10
164.9109
 20
16.1091
 30
0.0
 10
168.4622
 20
19.4259
 30
0.0
 10
172.0362
 20
20.0562
 30
0.0
 10
172.0362
 20
20.0562
 30
0.0
 10
173.6208
 20
18.317
 30
0.0
 10
179.939
 20
13.9708
 30
0.0
 10
184.9117
 20
12.8312
 30
0.0
 10
184.9117
 20
12.8312
 30
0.0
 10
179.939
 20
11.6917
 30
0.0
 10
173.6208
 20
7.3455
 30
0.0
 10
172.0362
 20
5.6063
 30
0.0
  0
SPLINE
  5
76
330
1F
100
AcDbEntity
  8
layer 1
 62
     7
100
AcDbSpline
210
0.0
220
0.0
230
1.0
 70
    11
 71
     3
 72
    20
 73
    16
 74
     0
 42
0.0000000001
 43
0.0000000001
 12
1.0
 22
0.0
 32
0.0
 13
1.0
 23
0.0
 33
0.0
 40
0.0
 40
0.0
 40
0.0
 40
0.0
 40
0.2
 40
0.2
 40
0.2
 40
0.2
 40
0.4
 40
0.4
 40
0.4
 40
0.4
 40
0.6
 40
0.6
 40
0.6
 40
0.6
 40
1.0
 40
1.0
 40
1.0
 40
1.0
 10
145.4969
 20
3.4503
 30
0.0
 10
142.1275
 20
1.4707
 30
0.0
 10
138.1714
 20
0.4674
 30
0.0
 10
137.4292
 20
3.5114
 30
0.0
 10
137.4292
 20
3.5114
 30
0.0
 10
136.4517
 20
6.2944
 30
0.0
 10
140.1264
 20
7.6406
 30
0.0
 10
143.4086
 20
8.2711
 30
0.0
 10
143.4086
 20
8.2711
 30
0.0
 10
151.4415
 20
9.6212
 30
0.0
 10
155.7914
 20
10.2369
 30
0.0
 10
163.906
 20
9.9502
 30
0.0
 10
163.906
 20
9.9502
 30
0.0
 10
158.0918
 20
8.7237
 30
0.0
 10
148.1881
 20
5.1987
 30
0.0
 10
145.4969
 20
3.4503
 30
0.0
  0
SPLINE
  5
77
330
1F
100
AcDbEntity
  8
layer 1
 62
     7
100
AcDbSpline
210
0.0
220
0.0
230
1.0
 70
    11
 71
     3
 72
    24
 73
    20
 74
     0
 42
0.0000000001
 43
0.0000000001
 12
1.0
 22
0.0
 32
0.0
 13
1.0
 23
0.0
 33
0.0
 40
0.0
 40
0.0
 40
0.0
 40
0.0
 40
0.1666666666666667
 40
0.1666666666666667
 40
0.1666666666666667
 40
0.1666666666666667
 40
0.3333333333333333
 40
0.3333333333333333
 40
0.3333333333333333
 40
0.3333333333333333
 40
0.5
 40
0.5
 40
0.5
 40
0.5
 40
0.6666666666666666
 40
0.6666666666666666
 40
0.6666666666666666
 40
0.6666666666666666
 40
1.0
 40
1.0
 40
1.0
 40
1.0
 10
150.2697
 20
-1.9278
 30
0.0
 10
146.9003
 20
-5.2052
 30
0.0
 10
144.0935
 20
-6.8016
 30
0.0
 10
142.4245
 20
-4.4249
 30
0.0
 10
142.4245
 20
-4.4249
 30
0.0
 10
140.7797
 20
-1.7901
 30
0.0
 10
143.342
 20
0.5571
 30
0.0
 10
147.6995
 20
2.4853
 30
0.0
 10
147.6995
 20
2.4853
 30
0.0
 10
150.4675
 20
3.6129
 30
0.0
 10
155.5219
 20
5.7117
 30
0.0
 10
165.2307
 20
7.6867
 30
0.0
 10
165.2307
 20
7.6867
 30
0.0
 10
158.0817
 20
4.458
 30
0.0
 10
152.2196
 20
0.1173
 30
0.0
 10
150.2699
 20
-1.9276
 30
0.0
 10
150.2699
 20
-1.9276
 30
0.0
 10
150.2699
 20
-1.9276
 30
0.0
 10
150.2697
 20
-1.9278
 30
0.0
 10
150.2697
 20
-1.9278
 30
0.0
  0
SPLINE
  5
78
330
1F
100
AcDbEntity
  8
layer 1
 62
     7
100
AcDbSpline
210
0.0
220
0.0
230
1.0
 70
    11
 71
     3
 72
    20
 73
    16
 74
     0
 42
0.0000000001
 43
0.0000000001
 12
1.0
 22
0.0
 32
0.0
 13
1.0
 23
0.0
 33
0.0
 40
0.0
 40
0.0
 40
0.0
 40
0.0
 40
0.2
 40
0.2
 40
0.2
 40
0.2
 40
0.4
 40
0.4
 40
0.4
 40
0.4
 40
0.6
 40
0.6
 40
0.6
 40
0.6
 40
1.0
 40
1.0
 40
1.0
 40
1.0
 10
156.3873
 20
-6.4511
 30
0.0
 10
154.501
 20
-10.4329
 30
0.0
 10
151.7314
 20
-11.8439
 30
0.0
 10
149.3948
 20
-9.6897
 30
0.0
 10
149.3948
 20
-9.6897
 30
0.0
 10
147.4904
 20
-7.2404
 30
0.0
 10
150.1641
 20
-3.5585
 30
0.0
 10
153.4834
 20
-1.111
 30
0.0
 10
153.4834
 20
-1.111
 30
0.0
 10
156.1772
 20
0.795
 30
0.0
 10
163.1967
 20
4.785
 30
0.0
 10
167.5295
 20
5.6847
 30
0.0
 10
167.5295
 20
5.6847
 30
0.0
 10
159.4906
 20
0.2312
 30
0.0
 10
157.41
 20
-4.3691
 30
0.0
 10
156.3873
 20
-6.4511
 30
0.0
  0
SPLINE
  5
79
330
1F
100
AcDbEntity
  8
layer 1
 62
     7
100
AcDbSpline
210
0.0
220
0.0
230
1.0
 70
    11
 71
     3
 72
    24
 73
    20
 74
     0
 42
0.0000000001
 43
0.0000000001
 12
1.0
 22
0.0
 32
0.0
 13
1.0
 23
0.0
 33
0.0
 40
0.0
 40
0.0
 40
0.0
 40
0.0
 40
0.1666666666666667
 40
0.1666666666666667
 40
0.1666666666666667
 40
0.1666666666666667
 40
0.3333333333333333
 40
0.3333333333333333
 40
0.3333333333333333
 40
0.3333333333333333
 40
0.5
 40
0.5
 40
0.5
 40
0.5
 40
0.6666666666666666
 40
0.6666666666666666
 40
0.6666666666666666
 40
0.6666666666666666
 40
1.0
 40
1.0
 40
1.0
 40
1.0
 10
163.2093
 20
-9.6766
 30
0.0
 10
162.5838
 20
-13.9921
 30
0.0
 10
160.1847
 20
-14.8472
 30
0.0
 10
158.3671
 20
-13.8422
 30
0.0
 10
158.3671
 20
-13.8422
 30
0.0
 10
155.5357
 20
-12.357
 30
0.0
 10
157.2453
 20
-7.1177
 30
0.0
 10
159.9716
 20
-3.9289
 30
0.0
 10
159.9716
 20
-3.9289
 30
0.0
 10
161.2936
 20
-2.3565
 30
0.0
 10
165.2358
 20
2.3748
 30
0.0
 10
170.4582
 20
4.1645
 30
0.0
 10
170.4582
 20
4.1645
 30
0.0
 10
165.6451
 20
-1.2517
 30
0.0
 10
163.5647
 20
-7.0384
 30
0.0
 10
163.2091
 20
-9.6766
 30
0.0
 10
163.2091
 20
-9.6766
 30
0.0
 10
163.2091
 20
-9.6766
 30
0.0
 10
163.2093
 20
-9.6766
 30
0.0
 10
163.2093
 20
-9.6766
 30
0.0
  0
SPLINE
  5
7A
330
1F
100
AcDbEntity
  8
layer 1
 62
     7
100
AcDbSpline
210
0.0
220
0.0
230
1.0
 70
    11
 71
     3
 72
    20
 73
    16
 74
     0
 42
0.0000000001
 43
0.0000000001
 12
1.0
 22
0.0
 32
0.0
 13
1.0
 23
0.0
 33
0.0
 40
0.0
 40
0.0
 40
0.0
 40
0.0
 40
0.2
 40
0.2
 40
0.2
 40
0.2
 40
0.4
 40
0.4
 40
0.4
 40
0.4
 40
0.6
 40
0.6
 40
0.6
 40
0.6
 40
1.0
 40
1.0
 40
1.0
 40
1.0
 10
145.4969
 20
21.968
 30
0.0
 10
142.1275
 20
23.9476
 30
0.0
 10
138.1714
 20
24.9509
 30
0.0
 10
137.4292
 20
21.9069
 30
0.0
 10
137.4292
 20
21.9069
 30
0.0
 10
136.4517
 20
19.1239
 30
0.0
 10
140.1264
 20
17.7777
 30
0.0
 10
143.4086
 20
17.1472
 30
0.0
 10
143.4086
 20
17.1472
 30
0.0
 10
151.4415
 20
15.7971
 30
0.0
 10
155.7914
 20
15.1814
 30
0.0
 10
163.906
 20
15.4681
 30
0.0
 10
163.906
 20
15.4681
 30
0.0
 10
158.0918
 20
16.6946
 30
0.0
 10
148.1881
 20
20.2196
 30
0.0
 10
145.4969
 20
21.968
 30
0.0
  0
SPLINE
  5
7B
330
1F
100
AcDbEntity
  8
layer 1
 62
     7
100
AcDbSpline
210
0.0
220
0.0
230
1.0
 70
    11
 71
     3
 72
    24
 73
    20
 74
     0
 42
0.0000000001
 43
0.0000000001
 12
1.0
 22
0.0
 32
0.0
 13
1.0
 23
0.0
 33
0.0
 40
0.0
 40
0.0
 40
0.0
 40
0.0
 40
0.1666666666666667
 40
0.1666666666666667
 40
0.1666666666666667
 40
0.1666666666666667
 40
0.3333333333333333
 40
0.3333333333333333
 40
0.3333333333333333
 40
0.3333333333333333
 40
0.5
 40
0.5
 40
0.5
 40
0.5
 40
0.6666666666666666
 40
0.6666666666666666
 40
0.6666666666666666
 40
0.6666666666666666
 40
1.0
 40
1.0
 40
1.0
 40
1.0
 10
150.2697
 20
27.3461
 30
0.0
 10
146.9003
 20
30.6235
 30
0.0
 10
144.0935
 20
32.2199
 30
0.0
 10
142.4245
 20
29.8432
 30
0.0
 10
142.4245
 20
29.8432
 30
0.0
 10
140.7797
 20
27.2084
 30
0.0
 10
143.342
 20
24.8612
 30
0.0
 10
147.6995
 20
22.933
 30
0.0
 10
147.6995
 20
22.933
 30
0.0
 10
150.4675
 20
21.8054
 30
0.0
 10
155.5219
 20
19.7066
 30
0.0
 10
165.2307
 20
17.7316
 30
0.0
 10
165.2307
 20
17.7316
 30
0.0
 10
158.0817
 20
20.9603
 30
0.0
 10
152.2196
 20
25.301
 30
0.0
 10
150.2699
 20
27.3459
 30
0.0
 10
150.2699
 20
27.3459
 30
0.0
 10
150.2699
 20
27.3459
 30
0.0
 10
150.2697
 20
27.3461
 30
0.0
 10
150.2697
 20
27.3461
 30
0.0
  0
SPLINE
  5
7C
330
1F
100
AcDbEntity
  8
layer 1
 62
     7
100
AcDbSpline
210
0.0
220
0.0
230
1.0
 70
    11
 71
     3
 72
    24
 73
    20
 74
     0
 42
0.0000000001
 43
0.0000000001
 12
1.0
 22
0.0
 32
0.0
 13
1.0
 23
0.0
 33
0.0
 40
0.0
 40
0.0
 40
0.0
 40
0.0
 40
0.1666666666666667
 40
0.1666666666666667
 40
0.1666666666666667
 40
0.1666666666666667
 40
0.3333333333333333
 40
0.3333333333333333
 40
0.3333333333333333
 40
0.3333333333333333
 40
0.5
 40
0.5
 40
0.5
 40
0.5
 40
0.6666666666666666
 40
0.6666666666666666
 40
0.6666666666666666
 40
0.6666666666666666
 40
1.0
 40
1.0
 40
1.0
 40
1.0
 10
156.3873
 20
31.8694
 30
0.0
 10
154.501
 20
35.8512
 30
0.0
 10
151.7314
 20
37.2622
 30
0.0
 10
149.3948
 20
35.108
 30
0.0
 10
149.3948
 20
35.108
 30
0.0
 10
147.4904
 20
32.6587
 30
0.0
 10
150.1641
 20
28.9768
 30
0.0
 10
153.4834
 20
26.5293
 30
0.0
 10
153.4834
 20
26.5293
 30
0.0
 10
156.1772
 20
24.6233
 30
0.0
 10
163.1967
 20
20.6333
 30
0.0
 10
167.5295
 20
19.7336
 30
0.0
 10
167.5295
 20
19.7336
 30
0.0
 10
159.4906
 20
25.1868
 30
0.0
 10
157.4102
 20
29.7871
 30
0.0
 10
156.3875
 20
31.8691
 30
0.0
 10
156.3875
 20
31.8691
 30
0.0
 10
156.3875
 20
31.8691
 30
0.0
 10
156.3873
 20
31.8694
 30
0.0
 10
156.3873
 20
31.8694
 30
0.0
  0
SPLINE
  5
7D
330
1F
100
AcDbEntity
  8
layer 1
 62
     7
100
AcDbSpline
210
0.0
220
0.0
230
1.0
 70
    11
 71
     3
 72
    24
 73
    20
 74
     0
 42
0.0000000001
 43
0.0000000001
 12
1.0
 22
0.0
 32
0.0
 13
1.0
 23
0.0
 33
0.0
 40
0.0
 40
0.0
 40
0.0
 40
0.0
 40
0.1666666666666667
 40
0.1666666666666667
 40
0.1666666666666667
 40
0.1666666666666667
 40
0.3333333333333333
 40
0.3333333333333333
 40
0.3333333333333333
 40
0.3333333333333333
 40
0.5
 40
0.5
 40
0.5
 40
0.5
 40
0.6666666666666666
 40
0.6666666666666666
 40
0.6666666666666666
 40
0.6666666666666666
 40
1.0
 40
1.0
 40
1.0
 40
1.0
 10
163.2093
 20
35.0951
 30
0.0
 10
162.5838
 20
39.4107
 30
0.0
 10
160.1847
 20
40.2657
 30
0.0
 10
158.3671
 20
39.2608
 30
0.0
 10
158.3671
 20
39.2608
 30
0.0
 10
155.5357
 20
37.7755
 30
0.0
 10
157.2453
 20
32.5363
 30
0.0
 10
159.9716
 20
29.3474
 30
0.0
 10
159.9716
 20
29.3474
 30
0.0
 10
161.2936
 20
27.775
 30
0.0
 10
165.2358
 20
23.0437
 30
0.0
 10
170.4582
 20
21.2541
 30
0.0
 10
170.4582
 20
21.2541
 30
0.0
 10
165.6451
 20
26.6702
 30
0.0
 10
163.5647
 20
32.4569
 30
0.0
 10
163.2091
 20
35.0951
 30
0.0
 10
163.2091
 20
35.0951
 30
0.0
 10
163.2091
 20
35.0951
 30
0.0
 10
163.2093
 20
35.0951
 30
0.0
 10
163.2093
 20
35.0951
 30
0.0
  0
SPLINE
  5
7E
330
1F
100
AcDbEntity
  8
layer 1
 62
     7
100
AcDbSpline
210
0.0
220
0.0
230
1.0
 70
    11
 71
     3
 72
    20
 73
    16
 74
     0
 42
0.0000000001
 43
0.0000000001
 12
1.0
 22
0.0
 32
0.0
 13
1.0
 23
0.0
 33
0.0
 40
0.0
 40
0.0
 40
0.0
 40
0.0
 40
0.2
 40
0.2
 40
0.2
 40
0.2
 40
0.4
 40
0.4
 40
0.4
 40
0.4
 40
0.6
 40
0.6
 40
0.6
 40
0.6
 40
1.0
 40
1.0
 40
1.0
 40
1.0
 10
130.6332
 20
-37.5199
 30
0.0
 10
130.4807
 20
-39.8452
 30
0.0
 10
129.8254
 20
-43.8881
 30
0.0
 10
133.6528
 20
-43.9345
 30
0.0
 10
133.6528
 20
-43.9345
 30
0.0
 10
137.1319
 20
-43.7809
 30
0.0
 10
136.4766
 20
-39.8452
 30
0.0
 10
136.4113
 20
-37.607
 30
0.0
 10
136.4113
 20
-37.607
 30
0.0
 10
135.412
 20
-29.5741
 30
0.0
 10
134.6355
 20
-22.614
 30
0.0
 10
133.6528
 20
-15.6305
 30
0.0
 10
133.6528
 20
-15.6305
 30
0.0
 10
132.6001
 20
-22.75
 30
0.0
 10
131.8597
 20
-28.6509
 30
0.0
 10
130.6332
 20
-37.5199
 30
0.0
  0
SPLINE
  5
7F
330
1F
100
AcDbEntity
  8
layer 1
 62
     7
100
AcDbSpline
210
0.0
220
0.0
230
1.0
 70
    11
 71
     3
 72
    20
 73
    16
 74
     0
 42
0.0000000001
 43
0.0000000001
 12
1.0
 22
0.0
 32
0.0
 13
1.0
 23
0.0
 33
0.0
 40
0.0
 40
0.0
 40
0.0
 40
0.0
 40
0.2
 40
0.2
 40
0.2
 40
0.2
 40
0.4
 40
0.4
 40
0.4
 40
0.4
 40
0.6
 40
0.6
 40
0.6
 40
0.6
 40
1.0
 40
1.0
 40
1.0
 40
1.0
 10
126.4373
 20
-7.239
 30
0.0
 10
127.0675
 20
-10.813
 30
0.0
 10
130.3844
 20
-14.3643
 30
0.0
 10
133.6622
 20
-14.5089
 30
0.0
 10
133.6622
 20
-14.5089
 30
0.0
 10
136.9401
 20
-14.3643
 30
0.0
 10
140.2569
 20
-10.813
 30
0.0
 10
140.8871
 20
-7.239
 30
0.0
 10
140.8871
 20
-7.239
 30
0.0
 10
139.148
 20
-5.6544
 30
0.0
 10
134.8018
 20
0.6638
 30
0.0
 10
133.6622
 20
5.6366
 30
0.0
 10
133.6622
 20
5.6366
 30
0.0
 10
132.5226
 20
0.6638
 30
0.0
 10
128.1764
 20
-5.6544
 30
0.0
 10
126.4373
 20
-7.239
 30
0.0
  0
SPLINE
  5
80
330
1F
100
AcDbEntity
  8
layer 1
 62
     7
100
AcDbSpline
210
0.0
220
0.0
230
1.0
 70
    11
 71
     3
 72
    20
 73
    16
 74
     0
 42
0.0000000001
 43
0.0000000001
 12
1.0
 22
0.0
 32
0.0
 13
1.0
 23
0.0
 33
0.0
 40
0.0
 40
0.0
 40
0.0
 40
0.0
 40
0.2
 40
0.2
 40
0.2
 40
0.2
 40
0.4
 40
0.4
 40
0.4
 40
0.4
 40
0.6
 40
0.6
 40
0.6
 40
0.6
 40
1.0
 40
1.0
 40
1.0
 40
1.0
 10
124.2813
 20
-33.7783
 30
0.0
 10
122.3016
 20
-37.1477
 30
0.0
 10
121.2983
 20
-41.1037
 30
0.0
 10
124.3424
 20
-41.846
 30
0.0
 10
124.3424
 20
-41.846
 30
0.0
 10
127.1254
 20
-42.8235
 30
0.0
 10
128.4716
 20
-39.1488
 30
0.0
 10
129.102
 20
-35.8665
 30
0.0
 10
129.102
 20
-35.8665
 30
0.0
 10
130.4521
 20
-27.8336
 30
0.0
 10
131.0678
 20
-23.4837
 30
0.0
 10
130.7812
 20
-15.3692
 30
0.0
 10
130.7812
 20
-15.3692
 30
0.0
 10
129.5547
 20
-21.1834
 30
0.0
 10
126.0296
 20
-31.0871
 30
0.0
 10
124.2813
 20
-33.7783
 30
0.0
  0
SPLINE
  5
81
330
1F
100
AcDbEntity
  8
layer 1
 62
     7
100
AcDbSpline
210
0.0
220
0.0
230
1.0
 70
    11
 71
     3
 72
    24
 73
    20
 74
     0
 42
0.0000000001
 43
0.0000000001
 12
1.0
 22
0.0
 32
0.0
 13
1.0
 23
0.0
 33
0.0
 40
0.0
 40
0.0
 40
0.0
 40
0.0
 40
0.1666666666666667
 40
0.1666666666666667
 40
0.1666666666666667
 40
0.1666666666666667
 40
0.3333333333333333
 40
0.3333333333333333
 40
0.3333333333333333
 40
0.3333333333333333
 40
0.5
 40
0.5
 40
0.5
 40
0.5
 40
0.6666666666666666
 40
0.6666666666666666
 40
0.6666666666666666
 40
0.6666666666666666
 40
1.0
 40
1.0
 40
1.0
 40
1.0
 10
118.9032
 20
-29.0055
 30
0.0
 10
115.6258
 20
-32.3749
 30
0.0
 10
114.0294
 20
-35.1817
 30
0.0
 10
116.4061
 20
-36.8507
 30
0.0
 10
116.4061
 20
-36.8507
 30
0.0
 10
119.0408
 20
-38.4955
 30
0.0
 10
121.388
 20
-35.9332
 30
0.0
 10
123.3163
 20
-31.5757
 30
0.0
 10
123.3163
 20
-31.5757
 30
0.0
 10
124.4438
 20
-28.8077
 30
0.0
 10
126.5427
 20
-23.7533
 30
0.0
 10
128.5177
 20
-14.0445
 30
0.0
 10
128.5177
 20
-14.0445
 30
0.0
 10
125.289
 20
-21.1935
 30
0.0
 10
120.9483
 20
-27.0556
 30
0.0
 10
118.9034
 20
-29.0053
 30
0.0
 10
118.9034
 20
-29.0053
 30
0.0
 10
118.9034
 20
-29.0053
 30
0.0
 10
118.9032
 20
-29.0055
 30
0.0
 10
118.9032
 20
-29.0055
 30
0.0
  0
SPLINE
  5
82
330
1F
100
AcDbEntity
  8
layer 1
 62
     7
100
AcDbSpline
210
0.0
220
0.0
230
1.0
 70
    11
 71
     3
 72
    20
 73
    16
 74
     0
 42
0.0000000001
 43
0.0000000001
 12
1.0
 22
0.0
 32
0.0
 13
1.0
 23
0.0
 33
0.0
 40
0.0
 40
0.0
 40
0.0
 40
0.0
 40
0.2
 40
0.2
 40
0.2
 40
0.2
 40
0.4
 40
0.4
 40
0.4
 40
0.4
 40
0.6
 40
0.6
 40
0.6
 40
0.6
 40
1.0
 40
1.0
 40
1.0
 40
1.0
 10
114.3799
 20
-22.8879
 30
0.0
 10
110.398
 20
-24.7741
 30
0.0
 10
108.987
 20
-27.5438
 30
0.0
 10
111.1412
 20
-29.8804
 30
0.0
 10
111.1412
 20
-29.8804
 30
0.0
 10
113.5906
 20
-31.7848
 30
0.0
 10
117.2724
 20
-29.1111
 30
0.0
 10
119.7199
 20
-25.7917
 30
0.0
 10
119.7199
 20
-25.7917
 30
0.0
 10
121.626
 20
-23.098
 30
0.0
 10
125.6159
 20
-16.0785
 30
0.0
 10
126.5157
 20
-11.7457
 30
0.0
 10
126.5157
 20
-11.7457
 30
0.0
 10
121.0622
 20
-19.7846
 30
0.0
 10
116.4619
 20
-21.8652
 30
0.0
 10
114.3799
 20
-22.8879
 30
0.0
  0
SPLINE
  5
83
330
1F
100
AcDbEntity
  8
layer 1
 62
     7
100
AcDbSpline
210
0.0
220
0.0
230
1.0
 70
    11
 71
     3
 72
    24
 73
    20
 74
     0
 42
0.0000000001
 43
0.0000000001
 12
1.0
 22
0.0
 32
0.0
 13
1.0
 23
0.0
 33
0.0
 40
0.0
 40
0.0
 40
0.0
 40
0.0
 40
0.1666666666666667
 40
0.1666666666666667
 40
0.1666666666666667
 40
0.1666666666666667
 40
0.3333333333333333
 40
0.3333333333333333
 40
0.3333333333333333
 40
0.3333333333333333
 40
0.5
 40
0.5
 40
0.5
 40
0.5
 40
0.6666666666666666
 40
0.6666666666666666
 40
0.6666666666666666
 40
0.6666666666666666
 40
1.0
 40
1.0
 40
1.0
 40
1.0
 10
111.1544
 20
-16.0658
 30
0.0
 10
106.8388
 20
-16.6914
 30
0.0
 10
105.9838
 20
-19.0905
 30
0.0
 10
106.9887
 20
-20.908
 30
0.0
 10
106.9887
 20
-20.908
 30
0.0
 10
108.474
 20
-23.7395
 30
0.0
 10
113.7133
 20
-22.0299
 30
0.0
 10
116.9021
 20
-19.3036
 30
0.0
 10
116.9021
 20
-19.3036
 30
0.0
 10
118.4745
 20
-17.9816
 30
0.0
 10
123.2058
 20
-14.0394
 30
0.0
 10
124.9954
 20
-8.817
 30
0.0
 10
124.9954
 20
-8.817
 30
0.0
 10
119.5793
 20
-13.6301
 30
0.0
 10
113.7926
 20
-15.7105
 30
0.0
 10
111.1544
 20
-16.0661
 30
0.0
 10
111.1544
 20
-16.0661
 30
0.0
 10
111.1544
 20
-16.0661
 30
0.0
 10
111.1544
 20
-16.0658
 30
0.0
 10
111.1544
 20
-16.0658
 30
0.0
  0
SPLINE
  5
84
330
1F
100
AcDbEntity
  8
layer 1
 62
     7
100
AcDbSpline
210
0.0
220
0.0
230
1.0
 70
    11
 71
     3
 72
    20
 73
    16
 74
     0
 42
0.0000000001
 43
0.0000000001
 12
1.0
 22
0.0
 32
0.0
 13
1.0
 23
0.0
 33
0.0
 40
0.0
 40
0.0
 40
0.0
 40
0.0
 40
0.2
 40
0.2
 40
0.2
 40
0.2
 40
0.4
 40
0.4
 40
0.4
 40
0.4
 40
0.6
 40
0.6
 40
0.6
 40
0.6
 40
1.0
 40
1.0
 40
1.0
 40
1.0
 10
142.799
 20
-33.7783
 30
0.0
 10
144.7786
 20
-37.1477
 30
0.0
 10
145.7819
 20
-41.1037
 30
0.0
 10
142.7379
 20
-41.846
 30
0.0
 10
142.7379
 20
-41.846
 30
0.0
 10
139.9548
 20
-42.8235
 30
0.0
 10
138.6086
 20
-39.1488
 30
0.0
 10
137.9782
 20
-35.8665
 30
0.0
 10
137.9782
 20
-35.8665
 30
0.0
 10
136.6281
 20
-27.8336
 30
0.0
 10
136.0124
 20
-23.4837
 30
0.0
 10
136.299
 20
-15.3692
 30
0.0
 10
136.299
 20
-15.3692
 30
0.0
 10
137.5256
 20
-21.1834
 30
0.0
 10
141.0506
 20
-31.0871
 30
0.0
 10
142.799
 20
-33.7783
 30
0.0
  0
SPLINE
  5
85
330
1F
100
AcDbEntity
  8
layer 1
 62
     7
100
AcDbSpline
210
0.0
220
0.0
230
1.0
 70
    11
 71
     3
 72
    24
 73
    20
 74
     0
 42
0.0000000001
 43
0.0000000001
 12
1.0
 22
0.0
 32
0.0
 13
1.0
 23
0.0
 33
0.0
 40
0.0
 40
0.0
 40
0.0
 40
0.0
 40
0.1666666666666667
 40
0.1666666666666667
 40
0.1666666666666667
 40
0.1666666666666667
 40
0.3333333333333333
 40
0.3333333333333333
 40
0.3333333333333333
 40
0.3333333333333333
 40
0.5
 40
0.5
 40
0.5
 40
0.5
 40
0.6666666666666666
 40
0.6666666666666666
 40
0.6666666666666666
 40
0.6666666666666666
 40
1.0
 40
1.0
 40
1.0
 40
1.0
 10
148.1771
 20
-29.0055
 30
0.0
 10
151.4545
 20
-32.3749
 30
0.0
 10
153.0508
 20
-35.1817
 30
0.0
 10
150.6741
 20
-36.8507
 30
0.0
 10
150.6741
 20
-36.8507
 30
0.0
 10
148.0394
 20
-38.4955
 30
0.0
 10
145.6922
 20
-35.9332
 30
0.0
 10
143.764
 20
-31.5757
 30
0.0
 10
143.764
 20
-31.5757
 30
0.0
 10
142.6364
 20
-28.8077
 30
0.0
 10
140.5375
 20
-23.7533
 30
0.0
 10
138.5625
 20
-14.0445
 30
0.0
 10
138.5625
 20
-14.0445
 30
0.0
 10
141.7913
 20
-21.1935
 30
0.0
 10
146.1319
 20
-27.0556
 30
0.0
 10
148.1768
 20
-29.0053
 30
0.0
 10
148.1768
 20
-29.0053
 30
0.0
 10
148.1768
 20
-29.0053
 30
0.0
 10
148.1771
 20
-29.0055
 30
0.0
 10
148.1771
 20
-29.0055
 30
0.0
  0
SPLINE
  5
86
330
1F
100
AcDbEntity
  8
layer 1
 62
     7
100
AcDbSpline
210
0.0
220
0.0
230
1.0
 70
    11
 71
     3
 72
    24
 73
    20
 74
     0
 42
0.0000000001
 43
0.0000000001
 12
1.0
 22
0.0
 32
0.0
 13
1.0
 23
0.0
 33
0.0
 40
0.0
 40
0.0
 40
0.0
 40
0.0
 40
0.1666666666666667
 40
0.1666666666666667
 40
0.1666666666666667
 40
0.1666666666666667
 40
0.3333333333333333
 40
0.3333333333333333
 40
0.3333333333333333
 40
0.3333333333333333
 40
0.5
 40
0.5
 40
0.5
 40
0.5
 40
0.6666666666666666
 40
0.6666666666666666
 40
0.6666666666666666
 40
0.6666666666666666
 40
1.0
 40
1.0
 40
1.0
 40
1.0
 10
152.7003
 20
-22.8879
 30
0.0
 10
156.6822
 20
-24.7741
 30
0.0
 10
158.0932
 20
-27.5438
 30
0.0
 10
155.939
 20
-29.8804
 30
0.0
 10
155.939
 20
-29.8804
 30
0.0
 10
153.4897
 20
-31.7848
 30
0.0
 10
149.8078
 20
-29.1111
 30
0.0
 10
147.3603
 20
-25.7917
 30
0.0
 10
147.3603
 20
-25.7917
 30
0.0
 10
145.4542
 20
-23.098
 30
0.0
 10
141.4643
 20
-16.0785
 30
0.0
 10
140.5645
 20
-11.7457
 30
0.0
 10
140.5645
 20
-11.7457
 30
0.0
 10
146.0178
 20
-19.7846
 30
0.0
 10
150.6181
 20
-21.865
 30
0.0
 10
152.7001
 20
-22.8877
 30
0.0
 10
152.7001
 20
-22.8877
 30
0.0
 10
152.7001
 20
-22.8877
 30
0.0
 10
152.7003
 20
-22.8879
 30
0.0
 10
152.7003
 20
-22.8879
 30
0.0
  0
SPLINE
  5
87
330
1F
100
AcDbEntity
  8
layer 1
 62
     7
100
AcDbSpline
210
0.0
220
0.0
230
1.0
 70
    11
 71
     3
 72
    24
 73
    20
 74
     0
 42
0.0000000001
 43
0.0000000001
 12
1.0
 22
0.0
 32
0.0
 13
1.0
 23
0.0
 33
0.0
 40
0.0
 40
0.0
 40
0.0
 40
0.0
 40
0.1666666666666667
 40
0.1666666666666667
 40
0.1666666666666667
 40
0.1666666666666667
 40
0.3333333333333333
 40
0.3333333333333333
 40
0.3333333333333333
 40
0.3333333333333333
 40
0.5
 40
0.5
 40
0.5
 40
0.5
 40
0.6666666666666666
 40
0.6666666666666666
 40
0.6666666666666666
 40
0.6666666666666666
 40
1.0
 40
1.0
 40
1.0
 40
1.0
 10
155.9261
 20
-16.0658
 30
0.0
 10
160.2416
 20
-16.6914
 30
0.0
 10
161.0967
 20
-19.0905
 30
0.0
 10
160.0917
 20
-20.908
 30
0.0
 10
160.0917
 20
-20.908
 30
0.0
 10
158.6065
 20
-23.7395
 30
0.0
 10
153.3672
 20
-22.0299
 30
0.0
 10
150.1784
 20
-19.3036
 30
0.0
 10
150.1784
 20
-19.3036
 30
0.0
 10
148.606
 20
-17.9816
 30
0.0
 10
143.8747
 20
-14.0394
 30
0.0
 10
142.0851
 20
-8.817
 30
0.0
 10
142.0851
 20
-8.817
 30
0.0
 10
147.5012
 20
-13.6301
 30
0.0
 10
153.2879
 20
-15.7105
 30
0.0
 10
155.9261
 20
-16.0661
 30
0.0
 10
155.9261
 20
-16.0661
 30
0.0
 10
155.9261
 20
-16.0661
 30
0.0
 10
155.9261
 20
-16.0658
 30
0.0
 10
155.9261
 20
-16.0658
 30
0.0
  0
SPLINE
  5
88
330
1F
100
AcDbEntity
  8
layer 1
 62
     7
100
AcDbSpline
210
0.0
220
0.0
230
1.0
 70
    11
 71
     3
 72
    20
 73
    16
 74
     0
 42
0.0000000001
 43
0.0000000001
 12
1.0
 22
0.0
 32
0.0
 13
1.0
 23
0.0
 33
0.0
 40
0.0
 40
0.0
 40
0.0
 40
0.0
 40
0.2
 40
0.2
 40
0.2
 40
0.2
 40
0.4
 40
0.4
 40
0.4
 40
0.4
 40
0.6
 40
0.6
 40
0.6
 40
0.6
 40
1.0
 40
1.0
 40
1.0
 40
1.0
 10
130.6332
 20
-51.6224
 30
0.0
 10
130.4807
 20
-49.2971
 30
0.0
 10
129.8254
 20
-45.2542
 30
0.0
 10
133.6528
 20
-45.2078
 30
0.0
 10
133.6528
 20
-45.2078
 30
0.0
 10
137.1319
 20
-45.3614
 30
0.0
 10
136.4766
 20
-49.2971
 30
0.0
 10
136.4113
 20
-51.5353
 30
0.0
 10
136.4113
 20
-51.5353
 30
0.0
 10
135.412
 20
-59.5682
 30
0.0
 10
134.6355
 20
-66.5283
 30
0.0
 10
133.6528
 20
-73.5118
 30
0.0
 10
133.6528
 20
-73.5118
 30
0.0
 10
132.6001
 20
-66.3923
 30
0.0
 10
131.8597
 20
-60.4914
 30
0.0
 10
130.6332
 20
-51.6224
 30
0.0
  0
SPLINE
  5
89
330
1F
100
AcDbEntity
  8
layer 1
 62
     7
100
AcDbSpline
210
0.0
220
0.0
230
1.0
 70
    11
 71
     3
 72
    20
 73
    16
 74
     0
 42
0.0000000001
 43
0.0000000001
 12
1.0
 22
0.0
 32
0.0
 13
1.0
 23
0.0
 33
0.0
 40
0.0
 40
0.0
 40
0.0
 40
0.0
 40
0.2
 40
0.2
 40
0.2
 40
0.2
 40
0.4
 40
0.4
 40
0.4
 40
0.4
 40
0.6
 40
0.6
 40
0.6
 40
0.6
 40
1.0
 40
1.0
 40
1.0
 40
1.0
 10
126.4373
 20
-81.9033
 30
0.0
 10
127.0675
 20
-78.3293
 30
0.0
 10
130.3844
 20
-74.778
 30
0.0
 10
133.6622
 20
-74.6334
 30
0.0
 10
133.6622
 20
-74.6334
 30
0.0
 10
136.9401
 20
-74.778
 30
0.0
 10
140.2569
 20
-78.3293
 30
0.0
 10
140.8871
 20
-81.9033
 30
0.0
 10
140.8871
 20
-81.9033
 30
0.0
 10
139.148
 20
-83.4879
 30
0.0
 10
134.8018
 20
-89.8061
 30
0.0
 10
133.6622
 20
-94.7789
 30
0.0
 10
133.6622
 20
-94.7789
 30
0.0
 10
132.5226
 20
-89.8061
 30
0.0
 10
128.1764
 20
-83.4879
 30
0.0
 10
126.4373
 20
-81.9033
 30
0.0
  0
SPLINE
  5
8A
330
1F
100
AcDbEntity
  8
layer 1
 62
     7
100
AcDbSpline
210
0.0
220
0.0
230
1.0
 70
    11
 71
     3
 72
    20
 73
    16
 74
     0
 42
0.0000000001
 43
0.0000000001
 12
1.0
 22
0.0
 32
0.0
 13
1.0
 23
0.0
 33
0.0
 40
0.0
 40
0.0
 40
0.0
 40
0.0
 40
0.2
 40
0.2
 40
0.2
 40
0.2
 40
0.4
 40
0.4
 40
0.4
 40
0.4
 40
0.6
 40
0.6
 40
0.6
 40
0.6
 40
1.0
 40
1.0
 40
1.0
 40
1.0
 10
124.2813
 20
-55.364
 30
0.0
 10
122.3016
 20
-51.9946
 30
0.0
 10
121.2983
 20
-48.0386
 30
0.0
 10
124.3424
 20
-47.2963
 30
0.0
 10
124.3424
 20
-47.2963
 30
0.0
 10
127.1254
 20
-46.3188
 30
0.0
 10
128.4716
 20
-49.9935
 30
0.0
 10
129.102
 20
-53.2758
 30
0.0
 10
129.102
 20
-53.2758
 30
0.0
 10
130.4521
 20
-61.3087
 30
0.0
 10
131.0678
 20
-65.6586
 30
0.0
 10
130.7812
 20
-73.7731
 30
0.0
 10
130.7812
 20
-73.7731
 30
0.0
 10
129.5547
 20
-67.9589
 30
0.0
 10
126.0296
 20
-58.0552
 30
0.0
 10
124.2813
 20
-55.364
 30
0.0
  0
SPLINE
  5
8B
330
1F
100
AcDbEntity
  8
layer 1
 62
     7
100
AcDbSpline
210
0.0
220
0.0
230
1.0
 70
    11
 71
     3
 72
    24
 73
    20
 74
     0
 42
0.0000000001
 43
0.0000000001
 12
1.0
 22
0.0
 32
0.0
 13
1.0
 23
0.0
 33
0.0
 40
0.0
 40
0.0
 40
0.0
 40
0.0
 40
0.1666666666666667
 40
0.1666666666666667
 40
0.1666666666666667
 40
0.1666666666666667
 40
0.3333333333333333
 40
0.3333333333333333
 40
0.3333333333333333
 40
0.3333333333333333
 40
0.5
 40
0.5
 40
0.5
 40
0.5
 40
0.6666666666666666
 40
0.6666666666666666
 40
0.6666666666666666
 40
0.6666666666666666
 40
1.0
 40
1.0
 40
1.0
 40
1.0
 10
118.9032
 20
-60.1368
 30
0.0
 10
115.6258
 20
-56.7674
 30
0.0
 10
114.0294
 20
-53.9606
 30
0.0
 10
116.4061
 20
-52.2916
 30
0.0
 10
116.4061
 20
-52.2916
 30
0.0
 10
119.0408
 20
-50.6468
 30
0.0
 10
121.388
 20
-53.2091
 30
0.0
 10
123.3163
 20
-57.5666
 30
0.0
 10
123.3163
 20
-57.5666
 30
0.0
 10
124.4438
 20
-60.3346
 30
0.0
 10
126.5427
 20
-65.389
 30
0.0
 10
128.5177
 20
-75.0978
 30
0.0
 10
128.5177
 20
-75.0978
 30
0.0
 10
125.289
 20
-67.9488
 30
0.0
 10
120.9483
 20
-62.0867
 30
0.0
 10
118.9034
 20
-60.137
 30
0.0
 10
118.9034
 20
-60.137
 30
0.0
 10
118.9034
 20
-60.137
 30
0.0
 10
118.9032
 20
-60.1368
 30
0.0
 10
118.9032
 20
-60.1368
 30
0.0
  0
SPLINE
  5
8C
330
1F
100
AcDbEntity
  8
layer 1
 62
     7
100
AcDbSpline
210
0.0
220
0.0
230
1.0
 70
    11
 71
     3
 72
    20
 73
    16
 74
     0
 42
0.0000000001
 43
0.0000000001
 12
1.0
 22
0.0
 32
0.0
 13
1.0
 23
0.0
 33
0.0
 40
0.0
 40
0.0
 40
0.0
 40
0.0
 40
0.2
 40
0.2
 40
0.2
 40
0.2
 40
0.4
 40
0.4
 40
0.4
 40
0.4
 40
0.6
 40
0.6
 40
0.6
 40
0.6
 40
1.0
 40
1.0
 40
1.0
 40
1.0
 10
114.3799
 20
-66.2544
 30
0.0
 10
110.398
 20
-64.3682
 30
0.0
 10
108.987
 20
-61.5985
 30
0.0
 10
111.1412
 20
-59.2619
 30
0.0
 10
111.1412
 20
-59.2619
 30
0.0
 10
113.5906
 20
-57.3575
 30
0.0
 10
117.2724
 20
-60.0312
 30
0.0
 10
119.7199
 20
-63.3506
 30
0.0
 10
119.7199
 20
-63.3506
 30
0.0
 10
121.626
 20
-66.0443
 30
0.0
 10
125.6159
 20
-73.0638
 30
0.0
 10
126.5157
 20
-77.3966
 30
0.0
 10
126.5157
 20
-77.3966
 30
0.0
 10
121.0622
 20
-69.3577
 30
0.0
 10
116.4619
 20
-67.2771
 30
0.0
 10
114.3799
 20
-66.2544
 30
0.0
  0
SPLINE
  5
8D
330
1F
100
AcDbEntity
  8
layer 1
 62
     7
100
AcDbSpline
210
0.0
220
0.0
230
1.0
 70
    11
 71
     3
 72
    24
 73
    20
 74
     0
 42
0.0000000001
 43
0.0000000001
 12
1.0
 22
0.0
 32
0.0
 13
1.0
 23
0.0
 33
0.0
 40
0.0
 40
0.0
 40
0.0
 40
0.0
 40
0.1666666666666667
 40
0.1666666666666667
 40
0.1666666666666667
 40
0.1666666666666667
 40
0.3333333333333333
 40
0.3333333333333333
 40
0.3333333333333333
 40
0.3333333333333333
 40
0.5
 40
0.5
 40
0.5
 40
0.5
 40
0.6666666666666666
 40
0.6666666666666666
 40
0.6666666666666666
 40
0.6666666666666666
 40
1.0
 40
1.0
 40
1.0
 40
1.0
 10
111.1544
 20
-73.0765
 30
0.0
 10
106.8388
 20
-72.4509
 30
0.0
 10
105.9838
 20
-70.0518
 30
0.0
 10
106.9887
 20
-68.2343
 30
0.0
 10
106.9887
 20
-68.2343
 30
0.0
 10
108.474
 20
-65.4028
 30
0.0
 10
113.7133
 20
-67.1124
 30
0.0
 10
116.9021
 20
-69.8387
 30
0.0
 10
116.9021
 20
-69.8387
 30
0.0
 10
118.4745
 20
-71.1607
 30
0.0
 10
123.2058
 20
-75.1029
 30
0.0
 10
124.9954
 20
-80.3254
 30
0.0
 10
124.9954
 20
-80.3254
 30
0.0
 10
119.5793
 20
-75.5122
 30
0.0
 10
113.7926
 20
-73.4318
 30
0.0
 10
111.1544
 20
-73.0762
 30
0.0
 10
111.1544
 20
-73.0762
 30
0.0
 10
111.1544
 20
-73.0762
 30
0.0
 10
111.1544
 20
-73.0765
 30
0.0
 10
111.1544
 20
-73.0765
 30
0.0
  0
SPLINE
  5
8E
330
1F
100
AcDbEntity
  8
layer 1
 62
     7
100
AcDbSpline
210
0.0
220
0.0
230
1.0
 70
    11
 71
     3
 72
    20
 73
    16
 74
     0
 42
0.0000000001
 43
0.0000000001
 12
1.0
 22
0.0
 32
0.0
 13
1.0
 23
0.0
 33
0.0
 40
0.0
 40
0.0
 40
0.0
 40
0.0
 40
0.2
 40
0.2
 40
0.2
 40
0.2
 40
0.4
 40
0.4
 40
0.4
 40
0.4
 40
0.6
 40
0.6
 40
0.6
 40
0.6
 40
1.0
 40
1.0
 40
1.0
 40
1.0
 10
142.799
 20
-55.364
 30
0.0
 10
144.7786
 20
-51.9946
 30
0.0
 10
145.7819
 20
-48.0386
 30
0.0
 10
142.7379
 20
-47.2963
 30
0.0
 10
142.7379
 20
-47.2963
 30
0.0
 10
139.9548
 20
-46.3188
 30
0.0
 10
138.6086
 20
-49.9935
 30
0.0
 10
137.9782
 20
-53.2758
 30
0.0
 10
137.9782
 20
-53.2758
 30
0.0
 10
136.6281
 20
-61.3087
 30
0.0
 10
136.0124
 20
-65.6586
 30
0.0
 10
136.299
 20
-73.7731
 30
0.0
 10
136.299
 20
-73.7731
 30
0.0
 10
137.5256
 20
-67.9589
 30
0.0
 10
141.0506
 20
-58.0552
 30
0.0
 10
142.799
 20
-55.364
 30
0.0
  0
SPLINE
  5
8F
330
1F
100
AcDbEntity
  8
layer 1
 62
     7
100
AcDbSpline
210
0.0
220
0.0
230
1.0
 70
    11
 71
     3
 72
    24
 73
    20
 74
     0
 42
0.0000000001
 43
0.0000000001
 12
1.0
 22
0.0
 32
0.0
 13
1.0
 23
0.0
 33
0.0
 40
0.0
 40
0.0
 40
0.0
 40
0.0
 40
0.1666666666666667
 40
0.1666666666666667
 40
0.1666666666666667
 40
0.1666666666666667
 40
0.3333333333333333
 40
0.3333333333333333
 40
0.3333333333333333
 40
0.3333333333333333
 40
0.5
 40
0.5
 40
0.5
 40
0.5
 40
0.6666666666666666
 40
0.6666666666666666
 40
0.6666666666666666
 40
0.6666666666666666
 40
1.0
 40
1.0
 40
1.0
 40
1.0
 10
148.1771
 20
-60.1368
 30
0.0
 10
151.4545
 20
-56.7674
 30
0.0
 10
153.0508
 20
-53.9606
 30
0.0
 10
150.6741
 20
-52.2916
 30
0.0
 10
150.6741
 20
-52.2916
 30
0.0
 10
148.0394
 20
-50.6468
 30
0.0
 10
145.6922
 20
-53.2091
 30
0.0
 10
143.764
 20
-57.5666
 30
0.0
 10
143.764
 20
-57.5666
 30
0.0
 10
142.6364
 20
-60.3346
 30
0.0
 10
140.5375
 20
-65.389
 30
0.0
 10
138.5625
 20
-75.0978
 30
0.0
 10
138.5625
 20
-75.0978
 30
0.0
 10
141.7913
 20
-67.9488
 30
0.0
 10
146.1319
 20
-62.0867
 30
0.0
 10
148.1768
 20
-60.137
 30
0.0
 10
148.1768
 20
-60.137
 30
0.0
 10
148.1768
 20
-60.137
 30
0.0
 10
148.1771
 20
-60.1368
 30
0.0
 10
148.1771
 20
-60.1368
 30
0.0
  0
SPLINE
  5
90
330
1F
100
AcDbEntity
  8
layer 1
 62
     7
100
AcDbSpline
210
0.0
220
0.0
230
1.0
 70
    11
 71
     3
 72
    24
 73
    20
 74
     0
 42
0.0000000001
 43
0.0000000001
 12
1.0
 22
0.0
 32
0.0
 13
1.0
 23
0.0
 33
0.0
 40
0.0
 40
0.0
 40
0.0
 40
0.0
 40
0.1666666666666667
 40
0.1666666666666667
 40
0.1666666666666667
 40
0.1666666666666667
 40
0.3333333333333333
 40
0.3333333333333333
 40
0.3333333333333333
 40
0.3333333333333333
 40
0.5
 40
0.5
 40
0.5
 40
0.5
 40
0.6666666666666666
 40
0.6666666666666666
 40
0.6666666666666666
 40
0.6666666666666666
 40
1.0
 40
1.0
 40
1.0
 40
1.0
 10
152.7003
 20
-66.2544
 30
0.0
 10
156.6822
 20
-64.3682
 30
0.0
 10
158.0932
 20
-61.5985
 30
0.0
 10
155.939
 20
-59.2619
 30
0.0
 10
155.939
 20
-59.2619
 30
0.0
 10
153.4897
 20
-57.3575
 30
0.0
 10
149.8078
 20
-60.0312
 30
0.0
 10
147.3603
 20
-63.3506
 30
0.0
 10
147.3603
 20
-63.3506
 30
0.0
 10
145.4542
 20
-66.0443
 30
0.0
 10
141.4643
 20
-73.0638
 30
0.0
 10
140.5645
 20
-77.3966
 30
0.0
 10
140.5645
 20
-77.3966
 30
0.0
 10
146.0178
 20
-69.3577
 30
0.0
 10
150.6181
 20
-67.2773
 30
0.0
 10
152.7001
 20
-66.2546
 30
0.0
 10
152.7001
 20
-66.2546
 30
0.0
 10
152.7001
 20
-66.2546
 30
0.0
 10
152.7003
 20
-66.2544
 30
0.0
 10
152.7003
 20
-66.2544
 30
0.0
  0
SPLINE
  5
91
330
1F
100
AcDbEntity
  8
layer 1
 62
     7
100
AcDbSpline
210
0.0
220
0.0
230
1.0
 70
    11
 71
     3
 72
    24
 73
    20
 74
     0
 42
0.0000000001
 43
0.0000000001
 12
1.0
 22
0.0
 32
0.0
 13
1.0
 23
0.0
 33
0.0
 40
0.0
 40
0.0
 40
0.0
 40
0.0
 40
0.1666666666666667
 40
0.1666666666666667
 40
0.1666666666666667
 40
0.1666666666666667
 40
0.3333333333333333
 40
0.3333333333333333
 40
0.3333333333333333
 40
0.3333333333333333
 40
0.5
 40
0.5
 40
0.5
 40
0.5
 40
0.6666666666666666
 40
0.6666666666666666
 40
0.6666666666666666
 40
0.6666666666666666
 40
1.0
 40
1.0
 40
1.0
 40
1.0
 10
155.9261
 20
-73.0765
 30
0.0
 10
160.2416
 20
-72.4509
 30
0.0
 10
161.0967
 20
-70.0518
 30
0.0
 10
160.0917
 20
-68.2343
 30
0.0
 10
160.0917
 20
-68.2343
 30
0.0
 10
158.6065
 20
-65.4028
 30
0.0
 10
153.3672
 20
-67.1124
 30
0.0
 10
150.1784
 20
-69.8387
 30
0.0
 10
150.1784
 20
-69.8387
 30
0.0
 10
148.606
 20
-71.1607
 30
0.0
 10
143.8747
 20
-75.1029
 30
0.0
 10
142.0851
 20
-80.3254
 30
0.0
 10
142.0851
 20
-80.3254
 30
0.0
 10
147.5012
 20
-75.5122
 30
0.0
 10
153.2879
 20
-73.4318
 30
0.0
 10
155.9261
 20
-73.0762
 30
0.0
 10
155.9261
 20
-73.0762
 30
0.0
 10
155.9261
 20
-73.0762
 30
0.0
 10
155.9261
 20
-73.0765
 30
0.0
 10
155.9261
 20
-73.0765
 30
0.0
  0
SPLINE
  5
92
330
1F
100
AcDbEntity
  8
layer 1
 62
     7
100
AcDbSpline
210
0.0
220
0.0
230
1.0
 70
    11
 71
     3
 72
    20
 73
    16
 74
     0
 42
0.0000000001
 43
0.0000000001
 12
1.0
 22
0.0
 32
0.0
 13
1.0
 23
0.0
 33
0.0
 40
0.0
 40
0.0
 40
0.0
 40
0.0
 40
0.2
 40
0.2
 40
0.2
 40
0.2
 40
0.4
 40
0.4
 40
0.4
 40
0.4
 40
0.6
 40
0.6
 40
0.6
 40
0.6
 40
1.0
 40
1.0
 40
1.0
 40
1.0
 10
83.5274
 20
-47.6793
 30
0.0
 10
81.2021
 20
-47.8317
 30
0.0
 10
77.1591
 20
-48.4871
 30
0.0
 10
77.1128
 20
-44.6597
 30
0.0
 10
77.1128
 20
-44.6597
 30
0.0
 10
77.2664
 20
-41.1805
 30
0.0
 10
81.2021
 20
-41.8359
 30
0.0
 10
83.4402
 20
-41.9011
 30
0.0
 10
83.4402
 20
-41.9011
 30
0.0
 10
91.4731
 20
-42.9005
 30
0.0
 10
98.4333
 20
-43.6769
 30
0.0
 10
105.4168
 20
-44.6597
 30
0.0
 10
105.4168
 20
-44.6597
 30
0.0
 10
98.2973
 20
-45.7123
 30
0.0
 10
92.3964
 20
-46.4528
 30
0.0
 10
83.5274
 20
-47.6793
 30
0.0
  0
SPLINE
  5
93
330
1F
100
AcDbEntity
  8
layer 1
 62
     7
100
AcDbSpline
210
0.0
220
0.0
230
1.0
 70
    11
 71
     3
 72
    20
 73
    16
 74
     0
 42
0.0000000001
 43
0.0000000001
 12
1.0
 22
0.0
 32
0.0
 13
1.0
 23
0.0
 33
0.0
 40
0.0
 40
0.0
 40
0.0
 40
0.0
 40
0.2
 40
0.2
 40
0.2
 40
0.2
 40
0.4
 40
0.4
 40
0.4
 40
0.4
 40
0.6
 40
0.6
 40
0.6
 40
0.6
 40
1.0
 40
1.0
 40
1.0
 40
1.0
 10
113.8083
 20
-51.8751
 30
0.0
 10
110.2343
 20
-51.2449
 30
0.0
 10
106.683
 20
-47.9281
 30
0.0
 10
106.5384
 20
-44.6502
 30
0.0
 10
106.5384
 20
-44.6502
 30
0.0
 10
106.683
 20
-41.3724
 30
0.0
 10
110.2343
 20
-38.0555
 30
0.0
 10
113.8083
 20
-37.4253
 30
0.0
 10
113.8083
 20
-37.4253
 30
0.0
 10
115.3929
 20
-39.1645
 30
0.0
 10
121.7111
 20
-43.5107
 30
0.0
 10
126.6838
 20
-44.6502
 30
0.0
 10
126.6838
 20
-44.6502
 30
0.0
 10
121.7111
 20
-45.7898
 30
0.0
 10
115.3929
 20
-50.136
 30
0.0
 10
113.8083
 20
-51.8751
 30
0.0
  0
SPLINE
  5
94
330
1F
100
AcDbEntity
  8
layer 1
 62
     7
100
AcDbSpline
210
0.0
220
0.0
230
1.0
 70
    11
 71
     3
 72
    20
 73
    16
 74
     0
 42
0.0000000001
 43
0.0000000001
 12
1.0
 22
0.0
 32
0.0
 13
1.0
 23
0.0
 33
0.0
 40
0.0
 40
0.0
 40
0.0
 40
0.0
 40
0.2
 40
0.2
 40
0.2
 40
0.2
 40
0.4
 40
0.4
 40
0.4
 40
0.4
 40
0.6
 40
0.6
 40
0.6
 40
0.6
 40
1.0
 40
1.0
 40
1.0
 40
1.0
 10
87.269
 20
-54.0312
 30
0.0
 10
83.8996
 20
-56.0108
 30
0.0
 10
79.9435
 20
-57.0141
 30
0.0
 10
79.2013
 20
-53.9701
 30
0.0
 10
79.2013
 20
-53.9701
 30
0.0
 10
78.2238
 20
-51.1871
 30
0.0
 10
81.8985
 20
-49.8409
 30
0.0
 10
85.1807
 20
-49.2104
 30
0.0
 10
85.1807
 20
-49.2104
 30
0.0
 10
93.2136
 20
-47.8603
 30
0.0
 10
97.5635
 20
-47.2446
 30
0.0
 10
105.678
 20
-47.5313
 30
0.0
 10
105.678
 20
-47.5313
 30
0.0
 10
99.8639
 20
-48.7578
 30
0.0
 10
89.9602
 20
-52.2828
 30
0.0
 10
87.269
 20
-54.0312
 30
0.0
  0
SPLINE
  5
95
330
1F
100
AcDbEntity
  8
layer 1
 62
     7
100
AcDbSpline
210
0.0
220
0.0
230
1.0
 70
    11
 71
     3
 72
    24
 73
    20
 74
     0
 42
0.0000000001
 43
0.0000000001
 12
1.0
 22
0.0
 32
0.0
 13
1.0
 23
0.0
 33
0.0
 40
0.0
 40
0.0
 40
0.0
 40
0.0
 40
0.1666666666666667
 40
0.1666666666666667
 40
0.1666666666666667
 40
0.1666666666666667
 40
0.3333333333333333
 40
0.3333333333333333
 40
0.3333333333333333
 40
0.3333333333333333
 40
0.5
 40
0.5
 40
0.5
 40
0.5
 40
0.6666666666666666
 40
0.6666666666666666
 40
0.6666666666666666
 40
0.6666666666666666
 40
1.0
 40
1.0
 40
1.0
 40
1.0
 10
92.0418
 20
-59.4093
 30
0.0
 10
88.6724
 20
-62.6867
 30
0.0
 10
85.8656
 20
-64.2831
 30
0.0
 10
84.1966
 20
-61.9064
 30
0.0
 10
84.1966
 20
-61.9064
 30
0.0
 10
82.5518
 20
-59.2716
 30
0.0
 10
85.1141
 20
-56.9244
 30
0.0
 10
89.4716
 20
-54.9962
 30
0.0
 10
89.4716
 20
-54.9962
 30
0.0
 10
92.2396
 20
-53.8686
 30
0.0
 10
97.294
 20
-51.7698
 30
0.0
 10
107.0028
 20
-49.7947
 30
0.0
 10
107.0028
 20
-49.7947
 30
0.0
 10
99.8538
 20
-53.0235
 30
0.0
 10
93.9916
 20
-57.3642
 30
0.0
 10
92.042
 20
-59.409
 30
0.0
 10
92.042
 20
-59.409
 30
0.0
 10
92.042
 20
-59.409
 30
0.0
 10
92.0418
 20
-59.4093
 30
0.0
 10
92.0418
 20
-59.4093
 30
0.0
  0
SPLINE
  5
96
330
1F
100
AcDbEntity
  8
layer 1
 62
     7
100
AcDbSpline
210
0.0
220
0.0
230
1.0
 70
    11
 71
     3
 72
    20
 73
    16
 74
     0
 42
0.0000000001
 43
0.0000000001
 12
1.0
 22
0.0
 32
0.0
 13
1.0
 23
0.0
 33
0.0
 40
0.0
 40
0.0
 40
0.0
 40
0.0
 40
0.2
 40
0.2
 40
0.2
 40
0.2
 40
0.4
 40
0.4
 40
0.4
 40
0.4
 40
0.6
 40
0.6
 40
0.6
 40
0.6
 40
1.0
 40
1.0
 40
1.0
 40
1.0
 10
98.1594
 20
-63.9326
 30
0.0
 10
96.2731
 20
-67.9144
 30
0.0
 10
93.5035
 20
-69.3254
 30
0.0
 10
91.1669
 20
-67.1712
 30
0.0
 10
91.1669
 20
-67.1712
 30
0.0
 10
89.2624
 20
-64.7219
 30
0.0
 10
91.9362
 20
-61.04
 30
0.0
 10
95.2555
 20
-58.5925
 30
0.0
 10
95.2555
 20
-58.5925
 30
0.0
 10
97.9493
 20
-56.6865
 30
0.0
 10
104.9687
 20
-52.6965
 30
0.0
 10
109.3016
 20
-51.7967
 30
0.0
 10
109.3016
 20
-51.7967
 30
0.0
 10
101.2627
 20
-57.2502
 30
0.0
 10
99.182
 20
-61.8506
 30
0.0
 10
98.1594
 20
-63.9326
 30
0.0
  0
SPLINE
  5
97
330
1F
100
AcDbEntity
  8
layer 1
 62
     7
100
AcDbSpline
210
0.0
220
0.0
230
1.0
 70
    11
 71
     3
 72
    24
 73
    20
 74
     0
 42
0.0000000001
 43
0.0000000001
 12
1.0
 22
0.0
 32
0.0
 13
1.0
 23
0.0
 33
0.0
 40
0.0
 40
0.0
 40
0.0
 40
0.0
 40
0.1666666666666667
 40
0.1666666666666667
 40
0.1666666666666667
 40
0.1666666666666667
 40
0.3333333333333333
 40
0.3333333333333333
 40
0.3333333333333333
 40
0.3333333333333333
 40
0.5
 40
0.5
 40
0.5
 40
0.5
 40
0.6666666666666666
 40
0.6666666666666666
 40
0.6666666666666666
 40
0.6666666666666666
 40
1.0
 40
1.0
 40
1.0
 40
1.0
 10
104.9814
 20
-67.1581
 30
0.0
 10
104.3558
 20
-71.4736
 30
0.0
 10
101.9568
 20
-72.3287
 30
0.0
 10
100.1392
 20
-71.3237
 30
0.0
 10
100.1392
 20
-71.3237
 30
0.0
 10
97.3078
 20
-69.8385
 30
0.0
 10
99.0174
 20
-64.5992
 30
0.0
 10
101.7437
 20
-61.4104
 30
0.0
 10
101.7437
 20
-61.4104
 30
0.0
 10
103.0657
 20
-59.8379
 30
0.0
 10
107.0079
 20
-55.1067
 30
0.0
 10
112.2303
 20
-53.317
 30
0.0
 10
112.2303
 20
-53.317
 30
0.0
 10
107.4172
 20
-58.7332
 30
0.0
 10
105.3368
 20
-64.5199
 30
0.0
 10
104.9812
 20
-67.1581
 30
0.0
 10
104.9812
 20
-67.1581
 30
0.0
 10
104.9812
 20
-67.1581
 30
0.0
 10
104.9814
 20
-67.1581
 30
0.0
 10
104.9814
 20
-67.1581
 30
0.0
  0
SPLINE
  5
98
330
1F
100
AcDbEntity
  8
layer 1
 62
     7
100
AcDbSpline
210
0.0
220
0.0
230
1.0
 70
    11
 71
     3
 72
    20
 73
    16
 74
     0
 42
0.0000000001
 43
0.0000000001
 12
1.0
 22
0.0
 32
0.0
 13
1.0
 23
0.0
 33
0.0
 40
0.0
 40
0.0
 40
0.0
 40
0.0
 40
0.2
 40
0.2
 40
0.2
 40
0.2
 40
0.4
 40
0.4
 40
0.4
 40
0.4
 40
0.6
 40
0.6
 40
0.6
 40
0.6
 40
1.0
 40
1.0
 40
1.0
 40
1.0
 10
87.269
 20
-35.5135
 30
0.0
 10
83.8996
 20
-33.5339
 30
0.0
 10
79.9435
 20
-32.5306
 30
0.0
 10
79.2013
 20
-35.5746
 30
0.0
 10
79.2013
 20
-35.5746
 30
0.0
 10
78.2238
 20
-38.3576
 30
0.0
 10
81.8985
 20
-39.7038
 30
0.0
 10
85.1807
 20
-40.3343
 30
0.0
 10
85.1807
 20
-40.3343
 30
0.0
 10
93.2136
 20
-41.6844
 30
0.0
 10
97.5635
 20
-42.3001
 30
0.0
 10
105.678
 20
-42.0134
 30
0.0
 10
105.678
 20
-42.0134
 30
0.0
 10
99.8639
 20
-40.7869
 30
0.0
 10
89.9602
 20
-37.2618
 30
0.0
 10
87.269
 20
-35.5135
 30
0.0
  0
SPLINE
  5
99
330
1F
100
AcDbEntity
  8
layer 1
 62
     7
100
AcDbSpline
210
0.0
220
0.0
230
1.0
 70
    11
 71
     3
 72
    24
 73
    20
 74
     0
 42
0.0000000001
 43
0.0000000001
 12
1.0
 22
0.0
 32
0.0
 13
1.0
 23
0.0
 33
0.0
 40
0.0
 40
0.0
 40
0.0
 40
0.0
 40
0.1666666666666667
 40
0.1666666666666667
 40
0.1666666666666667
 40
0.1666666666666667
 40
0.3333333333333333
 40
0.3333333333333333
 40
0.3333333333333333
 40
0.3333333333333333
 40
0.5
 40
0.5
 40
0.5
 40
0.5
 40
0.6666666666666666
 40
0.6666666666666666
 40
0.6666666666666666
 40
0.6666666666666666
 40
1.0
 40
1.0
 40
1.0
 40
1.0
 10
92.0418
 20
-30.1354
 30
0.0
 10
88.6724
 20
-26.858
 30
0.0
 10
85.8656
 20
-25.2616
 30
0.0
 10
84.1966
 20
-27.6383
 30
0.0
 10
84.1966
 20
-27.6383
 30
0.0
 10
82.5518
 20
-30.2731
 30
0.0
 10
85.1141
 20
-32.6203
 30
0.0
 10
89.4716
 20
-34.5485
 30
0.0
 10
89.4716
 20
-34.5485
 30
0.0
 10
92.2396
 20
-35.6761
 30
0.0
 10
97.294
 20
-37.7749
 30
0.0
 10
107.0028
 20
-39.7499
 30
0.0
 10
107.0028
 20
-39.7499
 30
0.0
 10
99.8538
 20
-36.5212
 30
0.0
 10
93.9916
 20
-32.1805
 30
0.0
 10
92.042
 20
-30.1356
 30
0.0
 10
92.042
 20
-30.1356
 30
0.0
 10
92.042
 20
-30.1356
 30
0.0
 10
92.0418
 20
-30.1354
 30
0.0
 10
92.0418
 20
-30.1354
 30
0.0
  0
SPLINE
  5
9A
330
1F
100
AcDbEntity
  8
layer 1
 62
     7
100
AcDbSpline
210
0.0
220
0.0
230
1.0
 70
    11
 71
     3
 72
    24
 73
    20
 74
     0
 42
0.0000000001
 43
0.0000000001
 12
1.0
 22
0.0
 32
0.0
 13
1.0
 23
0.0
 33
0.0
 40
0.0
 40
0.0
 40
0.0
 40
0.0
 40
0.1666666666666667
 40
0.1666666666666667
 40
0.1666666666666667
 40
0.1666666666666667
 40
0.3333333333333333
 40
0.3333333333333333
 40
0.3333333333333333
 40
0.3333333333333333
 40
0.5
 40
0.5
 40
0.5
 40
0.5
 40
0.6666666666666666
 40
0.6666666666666666
 40
0.6666666666666666
 40
0.6666666666666666
 40
1.0
 40
1.0
 40
1.0
 40
1.0
 10
98.1594
 20
-25.6121
 30
0.0
 10
96.2731
 20
-21.6303
 30
0.0
 10
93.5035
 20
-20.2193
 30
0.0
 10
91.1669
 20
-22.3734
 30
0.0
 10
91.1669
 20
-22.3734
 30
0.0
 10
89.2624
 20
-24.8228
 30
0.0
 10
91.9362
 20
-28.5047
 30
0.0
 10
95.2555
 20
-30.9522
 30
0.0
 10
95.2555
 20
-30.9522
 30
0.0
 10
97.9493
 20
-32.8582
 30
0.0
 10
104.9687
 20
-36.8482
 30
0.0
 10
109.3016
 20
-37.7479
 30
0.0
 10
109.3016
 20
-37.7479
 30
0.0
 10
101.2627
 20
-32.2947
 30
0.0
 10
99.1823
 20
-27.6944
 30
0.0
 10
98.1596
 20
-25.6123
 30
0.0
 10
98.1596
 20
-25.6123
 30
0.0
 10
98.1596
 20
-25.6123
 30
0.0
 10
98.1594
 20
-25.6121
 30
0.0
 10
98.1594
 20
-25.6121
 30
0.0
  0
SPLINE
  5
9B
330
1F
100
AcDbEntity
  8
layer 1
 62
     7
100
AcDbSpline
210
0.0
220
0.0
230
1.0
 70
    11
 71
     3
 72
    24
 73
    20
 74
     0
 42
0.0000000001
 43
0.0000000001
 12
1.0
 22
0.0
 32
0.0
 13
1.0
 23
0.0
 33
0.0
 40
0.0
 40
0.0
 40
0.0
 40
0.0
 40
0.1666666666666667
 40
0.1666666666666667
 40
0.1666666666666667
 40
0.1666666666666667
 40
0.3333333333333333
 40
0.3333333333333333
 40
0.3333333333333333
 40
0.3333333333333333
 40
0.5
 40
0.5
 40
0.5
 40
0.5
 40
0.6666666666666666
 40
0.6666666666666666
 40
0.6666666666666666
 40
0.6666666666666666
 40
1.0
 40
1.0
 40
1.0
 40
1.0
 10
104.9814
 20
-22.3864
 30
0.0
 10
104.3558
 20
-18.0708
 30
0.0
 10
101.9568
 20
-17.2158
 30
0.0
 10
100.1392
 20
-18.2207
 30
0.0
 10
100.1392
 20
-18.2207
 30
0.0
 10
97.3078
 20
-19.706
 30
0.0
 10
99.0174
 20
-24.9452
 30
0.0
 10
101.7437
 20
-28.1341
 30
0.0
 10
101.7437
 20
-28.1341
 30
0.0
 10
103.0657
 20
-29.7065
 30
0.0
 10
107.0079
 20
-34.4378
 30
0.0
 10
112.2303
 20
-36.2274
 30
0.0
 10
112.2303
 20
-36.2274
 30
0.0
 10
107.4172
 20
-30.8113
 30
0.0
 10
105.3368
 20
-25.0246
 30
0.0
 10
104.9812
 20
-22.3864
 30
0.0
 10
104.9812
 20
-22.3864
 30
0.0
 10
104.9812
 20
-22.3864
 30
0.0
 10
104.9814
 20
-22.3864
 30
0.0
 10
104.9814
 20
-22.3864
 30
0.0
  0
SPLINE
  5
9C
330
1F
100
AcDbEntity
  8
layer 1
 62
     7
100
AcDbSpline
210
0.0
220
0.0
230
1.0
 70
    11
 71
     3
 72
    20
 73
    16
 74
     0
 42
0.0000000001
 43
0.0000000001
 12
1.0
 22
0.0
 32
0.0
 13
1.0
 23
0.0
 33
0.0
 40
0.0
 40
0.0
 40
0.0
 40
0.0
 40
0.2
 40
0.2
 40
0.2
 40
0.2
 40
0.4
 40
0.4
 40
0.4
 40
0.4
 40
0.6
 40
0.6
 40
0.6
 40
0.6
 40
1.0
 40
1.0
 40
1.0
 40
1.0
 10
183.1463
 20
-47.6793
 30
0.0
 10
185.4716
 20
-47.8317
 30
0.0
 10
189.5146
 20
-48.4871
 30
0.0
 10
189.5609
 20
-44.6597
 30
0.0
 10
189.5609
 20
-44.6597
 30
0.0
 10
189.4074
 20
-41.1805
 30
0.0
 10
185.4716
 20
-41.8359
 30
0.0
 10
183.2335
 20
-41.9011
 30
0.0
 10
183.2335
 20
-41.9011
 30
0.0
 10
175.2006
 20
-42.9005
 30
0.0
 10
168.2404
 20
-43.6769
 30
0.0
 10
161.2569
 20
-44.6597
 30
0.0
 10
161.2569
 20
-44.6597
 30
0.0
 10
168.3764
 20
-45.7123
 30
0.0
 10
174.2773
 20
-46.4528
 30
0.0
 10
183.1463
 20
-47.6793
 30
0.0
  0
SPLINE
  5
9D
330
1F
100
AcDbEntity
  8
layer 1
 62
     7
100
AcDbSpline
210
0.0
220
0.0
230
1.0
 70
    11
 71
     3
 72
    20
 73
    16
 74
     0
 42
0.0000000001
 43
0.0000000001
 12
1.0
 22
0.0
 32
0.0
 13
1.0
 23
0.0
 33
0.0
 40
0.0
 40
0.0
 40
0.0
 40
0.0
 40
0.2
 40
0.2
 40
0.2
 40
0.2
 40
0.4
 40
0.4
 40
0.4
 40
0.4
 40
0.6
 40
0.6
 40
0.6
 40
0.6
 40
1.0
 40
1.0
 40
1.0
 40
1.0
 10
152.8655
 20
-51.8751
 30
0.0
 10
156.4394
 20
-51.2449
 30
0.0
 10
159.9907
 20
-47.9281
 30
0.0
 10
160.1353
 20
-44.6502
 30
0.0
 10
160.1353
 20
-44.6502
 30
0.0
 10
159.9907
 20
-41.3724
 30
0.0
 10
156.4394
 20
-38.0555
 30
0.0
 10
152.8655
 20
-37.4253
 30
0.0
 10
152.8655
 20
-37.4253
 30
0.0
 10
151.2808
 20
-39.1645
 30
0.0
 10
144.9626
 20
-43.5107
 30
0.0
 10
139.9899
 20
-44.6502
 30
0.0
 10
139.9899
 20
-44.6502
 30
0.0
 10
144.9626
 20
-45.7898
 30
0.0
 10
151.2808
 20
-50.136
 30
0.0
 10
152.8655
 20
-51.8751
 30
0.0
  0
SPLINE
  5
9E
330
1F
100
AcDbEntity
  8
layer 1
 62
     7
100
AcDbSpline
210
0.0
220
0.0
230
1.0
 70
    11
 71
     3
 72
    20
 73
    16
 74
     0
 42
0.0000000001
 43
0.0000000001
 12
1.0
 22
0.0
 32
0.0
 13
1.0
 23
0.0
 33
0.0
 40
0.0
 40
0.0
 40
0.0
 40
0.0
 40
0.2
 40
0.2
 40
0.2
 40
0.2
 40
0.4
 40
0.4
 40
0.4
 40
0.4
 40
0.6
 40
0.6
 40
0.6
 40
0.6
 40
1.0
 40
1.0
 40
1.0
 40
1.0
 10
179.4047
 20
-54.0312
 30
0.0
 10
182.7741
 20
-56.0108
 30
0.0
 10
186.7302
 20
-57.0141
 30
0.0
 10
187.4725
 20
-53.9701
 30
0.0
 10
187.4725
 20
-53.9701
 30
0.0
 10
188.4499
 20
-51.1871
 30
0.0
 10
184.7752
 20
-49.8409
 30
0.0
 10
181.493
 20
-49.2104
 30
0.0
 10
181.493
 20
-49.2104
 30
0.0
 10
173.4601
 20
-47.8603
 30
0.0
 10
169.1102
 20
-47.2446
 30
0.0
 10
160.9957
 20
-47.5313
 30
0.0
 10
160.9957
 20
-47.5313
 30
0.0
 10
166.8098
 20
-48.7578
 30
0.0
 10
176.7135
 20
-52.2828
 30
0.0
 10
179.4047
 20
-54.0312
 30
0.0
  0
SPLINE
  5
9F
330
1F
100
AcDbEntity
  8
layer 1
 62
     7
100
AcDbSpline
210
0.0
220
0.0
230
1.0
 70
    11
 71
     3
 72
    24
 73
    20
 74
     0
 42
0.0000000001
 43
0.0000000001
 12
1.0
 22
0.0
 32
0.0
 13
1.0
 23
0.0
 33
0.0
 40
0.0
 40
0.0
 40
0.0
 40
0.0
 40
0.1666666666666667
 40
0.1666666666666667
 40
0.1666666666666667
 40
0.1666666666666667
 40
0.3333333333333333
 40
0.3333333333333333
 40
0.3333333333333333
 40
0.3333333333333333
 40
0.5
 40
0.5
 40
0.5
 40
0.5
 40
0.6666666666666666
 40
0.6666666666666666
 40
0.6666666666666666
 40
0.6666666666666666
 40
1.0
 40
1.0
 40
1.0
 40
1.0
 10
174.6319
 20
-59.4093
 30
0.0
 10
178.0014
 20
-62.6867
 30
0.0
 10
180.8081
 20
-64.2831
 30
0.0
 10
182.4771
 20
-61.9064
 30
0.0
 10
182.4771
 20
-61.9064
 30
0.0
 10
184.122
 20
-59.2716
 30
0.0
 10
181.5596
 20
-56.9244
 30
0.0
 10
177.2021
 20
-54.9962
 30
0.0
 10
177.2021
 20
-54.9962
 30
0.0
 10
174.4341
 20
-53.8686
 30
0.0
 10
169.3798
 20
-51.7698
 30
0.0
 10
159.6709
 20
-49.7947
 30
0.0
 10
159.6709
 20
-49.7947
 30
0.0
 10
166.82
 20
-53.0235
 30
0.0
 10
172.6821
 20
-57.3642
 30
0.0
 10
174.6317
 20
-59.409
 30
0.0
 10
174.6317
 20
-59.409
 30
0.0
 10
174.6317
 20
-59.409
 30
0.0
 10
174.6319
 20
-59.4093
 30
0.0
 10
174.6319
 20
-59.4093
 30
0.0
  0
SPLINE
  5
A0
330
1F
100
AcDbEntity
  8
layer 1
 62
     7
100
AcDbSpline
210
0.0
220
0.0
230
1.0
 70
    11
 71
     3
 72
    20
 73
    16
 74
     0
 42
0.0000000001
 43
0.0000000001
 12
1.0
 22
0.0
 32
0.0
 13
1.0
 23
0.0
 33
0.0
 40
0.0
 40
0.0
 40
0.0
 40
0.0
 40
0.2
 40
0.2
 40
0.2
 40
0.2
 40
0.4
 40
0.4
 40
0.4
 40
0.4
 40
0.6
 40
0.6
 40
0.6
 40
0.6
 40
1.0
 40
1.0
 40
1.0
 40
1.0
 10
168.5143
 20
-63.9326
 30
0.0
 10
170.4006
 20
-67.9144
 30
0.0
 10
173.1702
 20
-69.3254
 30
0.0
 10
175.5068
 20
-67.1712
 30
0.0
 10
175.5068
 20
-67.1712
 30
0.0
 10
177.4113
 20
-64.7219
 30
0.0
 10
174.7376
 20
-61.04
 30
0.0
 10
171.4182
 20
-58.5925
 30
0.0
 10
171.4182
 20
-58.5925
 30
0.0
 10
168.7244
 20
-56.6865
 30
0.0
 10
161.705
 20
-52.6965
 30
0.0
 10
157.3721
 20
-51.7967
 30
0.0
 10
157.3721
 20
-51.7967
 30
0.0
 10
165.411
 20
-57.2502
 30
0.0
 10
167.4917
 20
-61.8506
 30
0.0
 10
168.5143
 20
-63.9326
 30
0.0
  0
SPLINE
  5
A1
330
1F
100
AcDbEntity
  8
layer 1
 62
     7
100
AcDbSpline
210
0.0
220
0.0
230
1.0
 70
    11
 71
     3
 72
    24
 73
    20
 74
     0
 42
0.0000000001
 43
0.0000000001
 12
1.0
 22
0.0
 32
0.0
 13
1.0
 23
0.0
 33
0.0
 40
0.0
 40
0.0
 40
0.0
 40
0.0
 40
0.1666666666666667
 40
0.1666666666666667
 40
0.1666666666666667
 40
0.1666666666666667
 40
0.3333333333333333
 40
0.3333333333333333
 40
0.3333333333333333
 40
0.3333333333333333
 40
0.5
 40
0.5
 40
0.5
 40
0.5
 40
0.6666666666666666
 40
0.6666666666666666
 40
0.6666666666666666
 40
0.6666666666666666
 40
1.0
 40
1.0
 40
1.0
 40
1.0
 10
161.6923
 20
-67.1581
 30
0.0
 10
162.3179
 20
-71.4736
 30
0.0
 10
164.717
 20
-72.3287
 30
0.0
 10
166.5345
 20
-71.3237
 30
0.0
 10
166.5345
 20
-71.3237
 30
0.0
 10
169.3659
 20
-69.8385
 30
0.0
 10
167.6563
 20
-64.5992
 30
0.0
 10
164.93
 20
-61.4104
 30
0.0
 10
164.93
 20
-61.4104
 30
0.0
 10
163.608
 20
-59.8379
 30
0.0
 10
159.6658
 20
-55.1067
 30
0.0
 10
154.4434
 20
-53.317
 30
0.0
 10
154.4434
 20
-53.317
 30
0.0
 10
159.2565
 20
-58.7332
 30
0.0
 10
161.3369
 20
-64.5199
 30
0.0
 10
161.6925
 20
-67.1581
 30
0.0
 10
161.6925
 20
-67.1581
 30
0.0
 10
161.6925
 20
-67.1581
 30
0.0
 10
161.6923
 20
-67.1581
 30
0.0
 10
161.6923
 20
-67.1581
 30
0.0
  0
SPLINE
  5
A2
330
1F
100
AcDbEntity
  8
layer 1
 62
     7
100
AcDbSpline
210
0.0
220
0.0
230
1.0
 70
    11
 71
     3
 72
    20
 73
    16
 74
     0
 42
0.0000000001
 43
0.0000000001
 12
1.0
 22
0.0
 32
0.0
 13
1.0
 23
0.0
 33
0.0
 40
0.0
 40
0.0
 40
0.0
 40
0.0
 40
0.2
 40
0.2
 40
0.2
 40
0.2
 40
0.4
 40
0.4
 40
0.4
 40
0.4
 40
0.6
 40
0.6
 40
0.6
 40
0.6
 40
1.0
 40
1.0
 40
1.0
 40
1.0
 10
179.4047
 20
-35.5135
 30
0.0
 10
182.7741
 20
-33.5339
 30
0.0
 10
186.7302
 20
-32.5306
 30
0.0
 10
187.4725
 20
-35.5746
 30
0.0
 10
187.4725
 20
-35.5746
 30
0.0
 10
188.4499
 20
-38.3576
 30
0.0
 10
184.7752
 20
-39.7038
 30
0.0
 10
181.493
 20
-40.3343
 30
0.0
 10
181.493
 20
-40.3343
 30
0.0
 10
173.4601
 20
-41.6844
 30
0.0
 10
169.1102
 20
-42.3001
 30
0.0
 10
160.9957
 20
-42.0134
 30
0.0
 10
160.9957
 20
-42.0134
 30
0.0
 10
166.8098
 20
-40.7869
 30
0.0
 10
176.7135
 20
-37.2618
 30
0.0
 10
179.4047
 20
-35.5135
 30
0.0
  0
SPLINE
  5
A3
330
1F
100
AcDbEntity
  8
layer 1
 62
     7
100
AcDbSpline
210
0.0
220
0.0
230
1.0
 70
    11
 71
     3
 72
    24
 73
    20
 74
     0
 42
0.0000000001
 43
0.0000000001
 12
1.0
 22
0.0
 32
0.0
 13
1.0
 23
0.0
 33
0.0
 40
0.0
 40
0.0
 40
0.0
 40
0.0
 40
0.1666666666666667
 40
0.1666666666666667
 40
0.1666666666666667
 40
0.1666666666666667
 40
0.3333333333333333
 40
0.3333333333333333
 40
0.3333333333333333
 40
0.3333333333333333
 40
0.5
 40
0.5
 40
0.5
 40
0.5
 40
0.6666666666666666
 40
0.6666666666666666
 40
0.6666666666666666
 40
0.6666666666666666
 40
1.0
 40
1.0
 40
1.0
 40
1.0
 10
174.6319
 20
-30.1354
 30
0.0
 10
178.0014
 20
-26.858
 30
0.0
 10
180.8081
 20
-25.2616
 30
0.0
 10
182.4771
 20
-27.6383
 30
0.0
 10
182.4771
 20
-27.6383
 30
0.0
 10
184.122
 20
-30.2731
 30
0.0
 10
181.5596
 20
-32.6203
 30
0.0
 10
177.2021
 20
-34.5485
 30
0.0
 10
177.2021
 20
-34.5485
 30
0.0
 10
174.4341
 20
-35.6761
 30
0.0
 10
169.3798
 20
-37.7749
 30
0.0
 10
159.6709
 20
-39.7499
 30
0.0
 10
159.6709
 20
-39.7499
 30
0.0
 10
166.82
 20
-36.5212
 30
0.0
 10
172.6821
 20
-32.1805
 30
0.0
 10
174.6317
 20
-30.1356
 30
0.0
 10
174.6317
 20
-30.1356
 30
0.0
 10
174.6317
 20
-30.1356
 30
0.0
 10
174.6319
 20
-30.1354
 30
0.0
 10
174.6319
 20
-30.1354
 30
0.0
  0
SPLINE
  5
A4
330
1F
100
AcDbEntity
  8
layer 1
 62
     7
100
AcDbSpline
210
0.0
220
0.0
230
1.0
 70
    11
 71
     3
 72
    24
 73
    20
 74
     0
 42
0.0000000001
 43
0.0000000001
 12
1.0
 22
0.0
 32
0.0
 13
1.0
 23
0.0
 33
0.0
 40
0.0
 40
0.0
 40
0.0
 40
0.0
 40
0.1666666666666667
 40
0.1666666666666667
 40
0.1666666666666667
 40
0.1666666666666667
 40
0.3333333333333333
 40
0.3333333333333333
 40
0.3333333333333333
 40
0.3333333333333333
 40
0.5
 40
0.5
 40
0.5
 40
0.5
 40
0.6666666666666666
 40
0.6666666666666666
 40
0.6666666666666666
 40
0.6666666666666666
 40
1.0
 40
1.0
 40
1.0
 40
1.0
 10
168.5143
 20
-25.6121
 30
0.0
 10
170.4006
 20
-21.6303
 30
0.0
 10
173.1702
 20
-20.2193
 30
0.0
 10
175.5068
 20
-22.3734
 30
0.0
 10
175.5068
 20
-22.3734
 30
0.0
 10
177.4113
 20
-24.8228
 30
0.0
 10
174.7376
 20
-28.5047
 30
0.0
 10
171.4182
 20
-30.9522
 30
0.0
 10
171.4182
 20
-30.9522
 30
0.0
 10
168.7244
 20
-32.8582
 30
0.0
 10
161.705
 20
-36.8482
 30
0.0
 10
157.3721
 20
-37.7479
 30
0.0
 10
157.3721
 20
-37.7479
 30
0.0
 10
165.411
 20
-32.2947
 30
0.0
 10
167.4914
 20
-27.6944
 30
0.0
 10
168.5141
 20
-25.6123
 30
0.0
 10
168.5141
 20
-25.6123
 30
0.0
 10
168.5141
 20
-25.6123
 30
0.0
 10
168.5143
 20
-25.6121
 30
0.0
 10
168.5143
 20
-25.6121
 30
0.0
  0
SPLINE
  5
A5
330
1F
100
AcDbEntity
  8
layer 1
 62
     7
100
AcDbSpline
210
0.0
220
0.0
230
1.0
 70
    11
 71
     3
 72
    24
 73
    20
 74
     0
 42
0.0000000001
 43
0.0000000001
 12
1.0
 22
0.0
 32
0.0
 13
1.0
 23
0.0
 33
0.0
 40
0.0
 40
0.0
 40
0.0
 40
0.0
 40
0.1666666666666667
 40
0.1666666666666667
 40
0.1666666666666667
 40
0.1666666666666667
 40
0.3333333333333333
 40
0.3333333333333333
 40
0.3333333333333333
 40
0.3333333333333333
 40
0.5
 40
0.5
 40
0.5
 40
0.5
 40
0.6666666666666666
 40
0.6666666666666666
 40
0.6666666666666666
 40
0.6666666666666666
 40
1.0
 40
1.0
 40
1.0
 40
1.0
 10
161.6923
 20
-22.3864
 30
0.0
 10
162.3179
 20
-18.0708
 30
0.0
 10
164.717
 20
-17.2158
 30
0.0
 10
166.5345
 20
-18.2207
 30
0.0
 10
166.5345
 20
-18.2207
 30
0.0
 10
169.3659
 20
-19.706
 30
0.0
 10
167.6563
 20
-24.9452
 30
0.0
 10
164.93
 20
-28.1341
 30
0.0
 10
164.93
 20
-28.1341
 30
0.0
 10
163.608
 20
-29.7065
 30
0.0
 10
159.6658
 20
-34.4378
 30
0.0
 10
154.4434
 20
-36.2274
 30
0.0
 10
154.4434
 20
-36.2274
 30
0.0
 10
159.2565
 20
-30.8113
 30
0.0
 10
161.3369
 20
-25.0246
 30
0.0
 10
161.6925
 20
-22.3864
 30
0.0
 10
161.6925
 20
-22.3864
 30
0.0
 10
161.6925
 20
-22.3864
 30
0.0
 10
161.6923
 20
-22.3864
 30
0.0
 10
161.6923
 20
-22.3864
 30
0.0
  0
SPLINE
  5
A6
330
1F
100
AcDbEntity
  8
layer 1
 62
     7
100
AcDbSpline
210
0.0
220
0.0
230
1.0
 70
    11
 71
     3
 72
    16
 73
    12
 74
     0
 42
0.0000000001
 43
0.0000000001
 12
1.0
 22
0.0
 32
0.0
 13
1.0
 23
0.0
 33
0.0
 40
0.0
 40
0.0
 40
0.0
 40
0.0
 40
0.25
 40
0.25
 40
0.25
 40
0.25
 40
0.5
 40
0.5
 40
0.5
 40
0.5
 40
1.0
 40
1.0
 40
1.0
 40
1.0
 10
141.1267
 20
124.0114
 30
0.0
 10
138.8014
 20
123.859
 30
0.0
 10
134.7585
 20
123.2036
 30
0.0
 10
134.7121
 20
127.031
 30
0.0
 10
134.7121
 20
127.031
 30
0.0
 10
134.7121
 20
127.031
 30
0.0
 10
163.0161
 20
127.031
 30
0.0
 10
163.0161
 20
127.031
 30
0.0
 10
163.0161
 20
127.031
 30
0.0
 10
155.8966
 20
125.9783
 30
0.0
 10
149.9957
 20
125.2379
 30
0.0
 10
141.1267
 20
124.0114
 30
0.0
  0
SPLINE
  5
A7
330
1F
100
AcDbEntity
  8
layer 1
 62
     7
100
AcDbSpline
210
0.0
220
0.0
230
1.0
 70
    11
 71
     3
 72
    16
 73
    12
 74
     0
 42
0.0000000001
 43
0.0000000001
 12
1.0
 22
0.0
 32
0.0
 13
1.0
 23
0.0
 33
0.0
 40
0.0
 40
0.0
 40
0.0
 40
0.0
 40
0.25
 40
0.25
 40
0.25
 40
0.25
 40
0.5
 40
0.5
 40
0.5
 40
0.5
 40
1.0
 40
1.0
 40
1.0
 40
1.0
 10
171.4076
 20
119.8155
 30
0.0
 10
167.8336
 20
120.4457
 30
0.0
 10
164.2823
 20
123.7626
 30
0.0
 10
164.1377
 20
127.0404
 30
0.0
 10
164.1377
 20
127.0404
 30
0.0
 10
164.1377
 20
127.0404
 30
0.0
 10
184.2831
 20
127.0404
 30
0.0
 10
184.2831
 20
127.0404
 30
0.0
 10
184.2831
 20
127.0404
 30
0.0
 10
179.3104
 20
125.9008
 30
0.0
 10
172.9922
 20
121.5546
 30
0.0
 10
171.4076
 20
119.8155
 30
0.0
  0
SPLINE
  5
A8
330
1F
100
AcDbEntity
  8
layer 1
 62
     7
100
AcDbSpline
210
0.0
220
0.0
230
1.0
 70
    11
 71
     3
 72
    20
 73
    16
 74
     0
 42
0.0000000001
 43
0.0000000001
 12
1.0
 22
0.0
 32
0.0
 13
1.0
 23
0.0
 33
0.0
 40
0.0
 40
0.0
 40
0.0
 40
0.0
 40
0.2
 40
0.2
 40
0.2
 40
0.2
 40
0.4
 40
0.4
 40
0.4
 40
0.4
 40
0.6
 40
0.6
 40
0.6
 40
0.6
 40
1.0
 40
1.0
 40
1.0
 40
1.0
 10
144.8683
 20
117.6595
 30
0.0
 10
141.4989
 20
115.6799
 30
0.0
 10
137.5429
 20
114.6766
 30
0.0
 10
136.8006
 20
117.7206
 30
0.0
 10
136.8006
 20
117.7206
 30
0.0
 10
135.8231
 20
120.5036
 30
0.0
 10
139.4978
 20
121.8498
 30
0.0
 10
142.7801
 20
122.4802
 30
0.0
 10
142.7801
 20
122.4802
 30
0.0
 10
150.813
 20
123.8304
 30
0.0
 10
155.1628
 20
124.446
 30
0.0
 10
163.2774
 20
124.1594
 30
0.0
 10
163.2774
 20
124.1594
 30
0.0
 10
157.4632
 20
122.9329
 30
0.0
 10
147.5595
 20
119.4078
 30
0.0
 10
144.8683
 20
117.6595
 30
0.0
  0
SPLINE
  5
A9
330
1F
100
AcDbEntity
  8
layer 1
 62
     7
100
AcDbSpline
210
0.0
220
0.0
230
1.0
 70
    11
 71
     3
 72
    24
 73
    20
 74
     0
 42
0.0000000001
 43
0.0000000001
 12
1.0
 22
0.0
 32
0.0
 13
1.0
 23
0.0
 33
0.0
 40
0.0
 40
0.0
 40
0.0
 40
0.0
 40
0.1666666666666667
 40
0.1666666666666667
 40
0.1666666666666667
 40
0.1666666666666667
 40
0.3333333333333333
 40
0.3333333333333333
 40
0.3333333333333333
 40
0.3333333333333333
 40
0.5
 40
0.5
 40
0.5
 40
0.5
 40
0.6666666666666666
 40
0.6666666666666666
 40
0.6666666666666666
 40
0.6666666666666666
 40
1.0
 40
1.0
 40
1.0
 40
1.0
 10
149.6411
 20
112.2814
 30
0.0
 10
146.2717
 20
109.004
 30
0.0
 10
143.4649
 20
107.4076
 30
0.0
 10
141.7959
 20
109.7843
 30
0.0
 10
141.7959
 20
109.7843
 30
0.0
 10
140.1511
 20
112.4191
 30
0.0
 10
142.7134
 20
114.7663
 30
0.0
 10
147.0709
 20
116.6945
 30
0.0
 10
147.0709
 20
116.6945
 30
0.0
 10
149.8389
 20
117.8221
 30
0.0
 10
154.8933
 20
119.9209
 30
0.0
 10
164.6021
 20
121.8959
 30
0.0
 10
164.6021
 20
121.8959
 30
0.0
 10
157.4531
 20
118.6672
 30
0.0
 10
151.591
 20
114.3265
 30
0.0
 10
149.6413
 20
112.2816
 30
0.0
 10
149.6413
 20
112.2816
 30
0.0
 10
149.6413
 20
112.2816
 30
0.0
 10
149.6411
 20
112.2814
 30
0.0
 10
149.6411
 20
112.2814
 30
0.0
  0
SPLINE
  5
AA
330
1F
100
AcDbEntity
  8
layer 1
 62
     7
100
AcDbSpline
210
0.0
220
0.0
230
1.0
 70
    11
 71
     3
 72
    20
 73
    16
 74
     0
 42
0.0000000001
 43
0.0000000001
 12
1.0
 22
0.0
 32
0.0
 13
1.0
 23
0.0
 33
0.0
 40
0.0
 40
0.0
 40
0.0
 40
0.0
 40
0.2
 40
0.2
 40
0.2
 40
0.2
 40
0.4
 40
0.4
 40
0.4
 40
0.4
 40
0.6
 40
0.6
 40
0.6
 40
0.6
 40
1.0
 40
1.0
 40
1.0
 40
1.0
 10
155.7587
 20
107.7581
 30
0.0
 10
153.8724
 20
103.7762
 30
0.0
 10
151.1028
 20
102.3652
 30
0.0
 10
148.7662
 20
104.5194
 30
0.0
 10
148.7662
 20
104.5194
 30
0.0
 10
146.8618
 20
106.9688
 30
0.0
 10
149.5355
 20
110.6506
 30
0.0
 10
152.8548
 20
113.0982
 30
0.0
 10
152.8548
 20
113.0982
 30
0.0
 10
155.5486
 20
115.0042
 30
0.0
 10
162.5681
 20
118.9942
 30
0.0
 10
166.9009
 20
119.8939
 30
0.0
 10
166.9009
 20
119.8939
 30
0.0
 10
158.862
 20
114.4404
 30
0.0
 10
156.7814
 20
109.8401
 30
0.0
 10
155.7587
 20
107.7581
 30
0.0
  0
SPLINE
  5
AB
330
1F
100
AcDbEntity
  8
layer 1
 62
     7
100
AcDbSpline
210
0.0
220
0.0
230
1.0
 70
    11
 71
     3
 72
    24
 73
    20
 74
     0
 42
0.0000000001
 43
0.0000000001
 12
1.0
 22
0.0
 32
0.0
 13
1.0
 23
0.0
 33
0.0
 40
0.0
 40
0.0
 40
0.0
 40
0.0
 40
0.1666666666666667
 40
0.1666666666666667
 40
0.1666666666666667
 40
0.1666666666666667
 40
0.3333333333333333
 40
0.3333333333333333
 40
0.3333333333333333
 40
0.3333333333333333
 40
0.5
 40
0.5
 40
0.5
 40
0.5
 40
0.6666666666666666
 40
0.6666666666666666
 40
0.6666666666666666
 40
0.6666666666666666
 40
1.0
 40
1.0
 40
1.0
 40
1.0
 10
162.5808
 20
104.5326
 30
0.0
 10
161.9552
 20
100.2171
 30
0.0
 10
159.5561
 20
99.362
 30
0.0
 10
157.7386
 20
100.3669
 30
0.0
 10
157.7386
 20
100.3669
 30
0.0
 10
154.9071
 20
101.8522
 30
0.0
 10
156.6167
 20
107.0915
 30
0.0
 10
159.343
 20
110.2803
 30
0.0
 10
159.343
 20
110.2803
 30
0.0
 10
160.665
 20
111.8527
 30
0.0
 10
164.6072
 20
116.584
 30
0.0
 10
169.8296
 20
118.3736
 30
0.0
 10
169.8296
 20
118.3736
 30
0.0
 10
165.0165
 20
112.9575
 30
0.0
 10
162.9361
 20
107.1708
 30
0.0
 10
162.5805
 20
104.5326
 30
0.0
 10
162.5805
 20
104.5326
 30
0.0
 10
162.5805
 20
104.5326
 30
0.0
 10
162.5808
 20
104.5326
 30
0.0
 10
162.5808
 20
104.5326
 30
0.0
  0
SPLINE
  5
AC
330
1F
100
AcDbEntity
  8
layer 1
 62
     7
100
AcDbSpline
210
0.0
220
0.0
230
1.0
 70
    11
 71
     3
 72
    16
 73
    12
 74
     0
 42
0.0000000001
 43
0.0000000001
 12
1.0
 22
0.0
 32
0.0
 13
1.0
 23
0.0
 33
0.0
 40
0.0
 40
0.0
 40
0.0
 40
0.0
 40
0.25
 40
0.25
 40
0.25
 40
0.25
 40
0.5
 40
0.5
 40
0.5
 40
0.5
 40
1.0
 40
1.0
 40
1.0
 40
1.0
 10
125.3339
 20
124.0114
 30
0.0
 10
127.6592
 20
123.859
 30
0.0
 10
131.7022
 20
123.2036
 30
0.0
 10
131.7485
 20
127.031
 30
0.0
 10
131.7485
 20
127.031
 30
0.0
 10
131.7485
 20
127.031
 30
0.0
 10
103.4445
 20
127.031
 30
0.0
 10
103.4445
 20
127.031
 30
0.0
 10
103.4445
 20
127.031
 30
0.0
 10
110.5641
 20
125.9783
 30
0.0
 10
116.4649
 20
125.2379
 30
0.0
 10
125.3339
 20
124.0114
 30
0.0
  0
SPLINE
  5
AD
330
1F
100
AcDbEntity
  8
layer 1
 62
     7
100
AcDbSpline
210
0.0
220
0.0
230
1.0
 70
    11
 71
     3
 72
    16
 73
    12
 74
     0
 42
0.0000000001
 43
0.0000000001
 12
1.0
 22
0.0
 32
0.0
 13
1.0
 23
0.0
 33
0.0
 40
0.0
 40
0.0
 40
0.0
 40
0.0
 40
0.25
 40
0.25
 40
0.25
 40
0.25
 40
0.5
 40
0.5
 40
0.5
 40
0.5
 40
1.0
 40
1.0
 40
1.0
 40
1.0
 10
95.0531
 20
119.8155
 30
0.0
 10
98.627
 20
120.4457
 30
0.0
 10
102.1784
 20
123.7626
 30
0.0
 10
102.3229
 20
127.0404
 30
0.0
 10
102.3229
 20
127.0404
 30
0.0
 10
102.3229
 20
127.0404
 30
0.0
 10
82.1775
 20
127.0404
 30
0.0
 10
82.1775
 20
127.0404
 30
0.0
 10
82.1775
 20
127.0404
 30
0.0
 10
87.1502
 20
125.9008
 30
0.0
 10
93.4684
 20
121.5546
 30
0.0
 10
95.0531
 20
119.8155
 30
0.0
  0
SPLINE
  5
AE
330
1F
100
AcDbEntity
  8
layer 1
 62
     7
100
AcDbSpline
210
0.0
220
0.0
230
1.0
 70
    11
 71
     3
 72
    20
 73
    16
 74
     0
 42
0.0000000001
 43
0.0000000001
 12
1.0
 22
0.0
 32
0.0
 13
1.0
 23
0.0
 33
0.0
 40
0.0
 40
0.0
 40
0.0
 40
0.0
 40
0.2
 40
0.2
 40
0.2
 40
0.2
 40
0.4
 40
0.4
 40
0.4
 40
0.4
 40
0.6
 40
0.6
 40
0.6
 40
0.6
 40
1.0
 40
1.0
 40
1.0
 40
1.0
 10
121.5923
 20
117.6595
 30
0.0
 10
124.9618
 20
115.6799
 30
0.0
 10
128.9178
 20
114.6766
 30
0.0
 10
129.6601
 20
117.7206
 30
0.0
 10
129.6601
 20
117.7206
 30
0.0
 10
130.6375
 20
120.5036
 30
0.0
 10
126.9628
 20
121.8498
 30
0.0
 10
123.6806
 20
122.4802
 30
0.0
 10
123.6806
 20
122.4802
 30
0.0
 10
115.6477
 20
123.8304
 30
0.0
 10
111.2978
 20
124.446
 30
0.0
 10
103.1833
 20
124.1594
 30
0.0
 10
103.1833
 20
124.1594
 30
0.0
 10
108.9974
 20
122.9329
 30
0.0
 10
118.9011
 20
119.4078
 30
0.0
 10
121.5923
 20
117.6595
 30
0.0
  0
SPLINE
  5
AF
330
1F
100
AcDbEntity
  8
layer 1
 62
     7
100
AcDbSpline
210
0.0
220
0.0
230
1.0
 70
    11
 71
     3
 72
    24
 73
    20
 74
     0
 42
0.0000000001
 43
0.0000000001
 12
1.0
 22
0.0
 32
0.0
 13
1.0
 23
0.0
 33
0.0
 40
0.0
 40
0.0
 40
0.0
 40
0.0
 40
0.1666666666666667
 40
0.1666666666666667
 40
0.1666666666666667
 40
0.1666666666666667
 40
0.3333333333333333
 40
0.3333333333333333
 40
0.3333333333333333
 40
0.3333333333333333
 40
0.5
 40
0.5
 40
0.5
 40
0.5
 40
0.6666666666666666
 40
0.6666666666666666
 40
0.6666666666666666
 40
0.6666666666666666
 40
1.0
 40
1.0
 40
1.0
 40
1.0
 10
116.8196
 20
112.2814
 30
0.0
 10
120.189
 20
109.004
 30
0.0
 10
122.9957
 20
107.4076
 30
0.0
 10
124.6648
 20
109.7843
 30
0.0
 10
124.6648
 20
109.7843
 30
0.0
 10
126.3096
 20
112.4191
 30
0.0
 10
123.7472
 20
114.7663
 30
0.0
 10
119.3897
 20
116.6945
 30
0.0
 10
119.3897
 20
116.6945
 30
0.0
 10
116.6217
 20
117.8221
 30
0.0
 10
111.5674
 20
119.9209
 30
0.0
 10
101.8585
 20
121.8959
 30
0.0
 10
101.8585
 20
121.8959
 30
0.0
 10
109.0076
 20
118.6672
 30
0.0
 10
114.8697
 20
114.3265
 30
0.0
 10
116.8193
 20
112.2816
 30
0.0
 10
116.8193
 20
112.2816
 30
0.0
 10
116.8193
 20
112.2816
 30
0.0
 10
116.8196
 20
112.2814
 30
0.0
 10
116.8196
 20
112.2814
 30
0.0
  0
SPLINE
  5
B0
330
1F
100
AcDbEntity
  8
layer 1
 62
     7
100
AcDbSpline
210
0.0
220
0.0
230
1.0
 70
    11
 71
     3
 72
    20
 73
    16
 74
     0
 42
0.0000000001
 43
0.0000000001
 12
1.0
 22
0.0
 32
0.0
 13
1.0
 23
0.0
 33
0.0
 40
0.0
 40
0.0
 40
0.0
 40
0.0
 40
0.2
 40
0.2
 40
0.2
 40
0.2
 40
0.4
 40
0.4
 40
0.4
 40
0.4
 40
0.6
 40
0.6
 40
0.6
 40
0.6
 40
1.0
 40
1.0
 40
1.0
 40
1.0
 10
110.702
 20
107.7581
 30
0.0
 10
112.5882
 20
103.7762
 30
0.0
 10
115.3578
 20
102.3652
 30
0.0
 10
117.6944
 20
104.5194
 30
0.0
 10
117.6944
 20
104.5194
 30
0.0
 10
119.5989
 20
106.9688
 30
0.0
 10
116.9252
 20
110.6506
 30
0.0
 10
113.6058
 20
113.0982
 30
0.0
 10
113.6058
 20
113.0982
 30
0.0
 10
110.912
 20
115.0042
 30
0.0
 10
103.8926
 20
118.9942
 30
0.0
 10
99.5597
 20
119.8939
 30
0.0
 10
99.5597
 20
119.8939
 30
0.0
 10
107.5986
 20
114.4404
 30
0.0
 10
109.6793
 20
109.8401
 30
0.0
 10
110.702
 20
107.7581
 30
0.0
  0
SPLINE
  5
B1
330
1F
100
AcDbEntity
  8
layer 1
 62
     7
100
AcDbSpline
210
0.0
220
0.0
230
1.0
 70
    11
 71
     3
 72
    24
 73
    20
 74
     0
 42
0.0000000001
 43
0.0000000001
 12
1.0
 22
0.0
 32
0.0
 13
1.0
 23
0.0
 33
0.0
 40
0.0
 40
0.0
 40
0.0
 40
0.0
 40
0.1666666666666667
 40
0.1666666666666667
 40
0.1666666666666667
 40
0.1666666666666667
 40
0.3333333333333333
 40
0.3333333333333333
 40
0.3333333333333333
 40
0.3333333333333333
 40
0.5
 40
0.5
 40
0.5
 40
0.5
 40
0.6666666666666666
 40
0.6666666666666666
 40
0.6666666666666666
 40
0.6666666666666666
 40
1.0
 40
1.0
 40
1.0
 40
1.0
 10
103.8799
 20
104.5326
 30
0.0
 10
104.5055
 20
100.2171
 30
0.0
 10
106.9046
 20
99.362
 30
0.0
 10
108.7221
 20
100.3669
 30
0.0
 10
108.7221
 20
100.3669
 30
0.0
 10
111.5535
 20
101.8522
 30
0.0
 10
109.8439
 20
107.0915
 30
0.0
 10
107.1176
 20
110.2803
 30
0.0
 10
107.1176
 20
110.2803
 30
0.0
 10
105.7956
 20
111.8527
 30
0.0
 10
101.8534
 20
116.584
 30
0.0
 10
96.631
 20
118.3736
 30
0.0
 10
96.631
 20
118.3736
 30
0.0
 10
101.4441
 20
112.9575
 30
0.0
 10
103.5245
 20
107.1708
 30
0.0
 10
103.8801
 20
104.5326
 30
0.0
 10
103.8801
 20
104.5326
 30
0.0
 10
103.8801
 20
104.5326
 30
0.0
 10
103.8799
 20
104.5326
 30
0.0
 10
103.8799
 20
104.5326
 30
0.0
  0
SPLINE
  5
B2
330
1F
100
AcDbEntity
  8
layer 1
 62
     7
100
AcDbSpline
210
0.0
220
0.0
230
1.0
 70
    11
 71
     3
 72
    16
 73
    12
 74
     0
 42
0.0000000001
 43
0.0000000001
 12
1.0
 22
0.0
 32
0.0
 13
1.0
 23
0.0
 33
0.0
 40
0.0
 40
0.0
 40
0.0
 40
0.0
 40
0.25
 40
0.25
 40
0.25
 40
0.25
 40
0.5
 40
0.5
 40
0.5
 40
0.5
 40
1.0
 40
1.0
 40
1.0
 40
1.0
 10
186.5868
 20
118.3271
 30
0.0
 10
186.4343
 20
120.6523
 30
0.0
 10
185.779
 20
124.6953
 30
0.0
 10
189.6064
 20
124.7417
 30
0.0
 10
189.6064
 20
124.7417
 30
0.0
 10
189.6064
 20
124.7417
 30
0.0
 10
189.6064
 20
99.4157
 30
0.0
 10
189.6064
 20
99.4157
 30
0.0
 10
189.6064
 20
99.4157
 30
0.0
 10
188.5537
 20
106.5353
 30
0.0
 10
187.8133
 20
109.458
 30
0.0
 10
186.5868
 20
118.3271
 30
0.0
  0
SPLINE
  5
B3
330
1F
100
AcDbEntity
  8
layer 1
 62
     7
100
AcDbSpline
210
0.0
220
0.0
230
1.0
 70
    11
 71
     3
 72
    16
 73
    12
 74
     0
 42
0.0000000001
 43
0.0000000001
 12
1.0
 22
0.0
 32
0.0
 13
1.0
 23
0.0
 33
0.0
 40
0.0
 40
0.0
 40
0.0
 40
0.0
 40
0.25
 40
0.25
 40
0.25
 40
0.25
 40
0.5
 40
0.5
 40
0.5
 40
0.5
 40
1.0
 40
1.0
 40
1.0
 40
1.0
 10
182.3909
 20
91.0243
 30
0.0
 10
184.0131
 20
94.5724
 30
0.0
 10
186.3379
 20
97.5537
 30
0.0
 10
189.6158
 20
97.6983
 30
0.0
 10
189.6158
 20
97.6983
 30
0.0
 10
189.6158
 20
97.6983
 30
0.0
 10
189.6158
 20
79.5101
 30
0.0
 10
189.6158
 20
79.5101
 30
0.0
 10
189.6158
 20
79.5101
 30
0.0
 10
188.4762
 20
84.4828
 30
0.0
 10
184.13
 20
89.4397
 30
0.0
 10
182.3909
 20
91.0243
 30
0.0
  0
SPLINE
  5
B4
330
1F
100
AcDbEntity
  8
layer 1
 62
     7
100
AcDbSpline
210
0.0
220
0.0
230
1.0
 70
    11
 71
     3
 72
    20
 73
    16
 74
     0
 42
0.0000000001
 43
0.0000000001
 12
1.0
 22
0.0
 32
0.0
 13
1.0
 23
0.0
 33
0.0
 40
0.0
 40
0.0
 40
0.0
 40
0.0
 40
0.2
 40
0.2
 40
0.2
 40
0.2
 40
0.4
 40
0.4
 40
0.4
 40
0.4
 40
0.6
 40
0.6
 40
0.6
 40
0.6
 40
1.0
 40
1.0
 40
1.0
 40
1.0
 10
181.0941
 20
115.0815
 30
0.0
 10
179.1144
 20
118.4509
 30
0.0
 10
178.2234
 20
121.9976
 30
0.0
 10
180.6635
 20
122.9873
 30
0.0
 10
180.6635
 20
122.9873
 30
0.0
 10
183.4466
 20
123.9648
 30
0.0
 10
184.9551
 20
120.342
 30
0.0
 10
185.5855
 20
117.0597
 30
0.0
 10
185.5855
 20
117.0597
 30
0.0
 10
186.527
 20
112.2694
 30
0.0
 10
186.9306
 20
106.5546
 30
0.0
 10
186.7348
 20
98.8134
 30
0.0
 10
186.7348
 20
98.8134
 30
0.0
 10
185.5083
 20
104.6276
 30
0.0
 10
182.8424
 20
112.3902
 30
0.0
 10
181.0941
 20
115.0815
 30
0.0
  0
SPLINE
  5
B5
330
1F
100
AcDbEntity
  8
layer 1
 62
     7
100
AcDbSpline
210
0.0
220
0.0
230
1.0
 70
    11
 71
     3
 72
    24
 73
    20
 74
     0
 42
0.0000000001
 43
0.0000000001
 12
1.0
 22
0.0
 32
0.0
 13
1.0
 23
0.0
 33
0.0
 40
0.0
 40
0.0
 40
0.0
 40
0.0
 40
0.1666666666666667
 40
0.1666666666666667
 40
0.1666666666666667
 40
0.1666666666666667
 40
0.3333333333333333
 40
0.3333333333333333
 40
0.3333333333333333
 40
0.3333333333333333
 40
0.5
 40
0.5
 40
0.5
 40
0.5
 40
0.6666666666666666
 40
0.6666666666666666
 40
0.6666666666666666
 40
0.6666666666666666
 40
1.0
 40
1.0
 40
1.0
 40
1.0
 10
175.9814
 20
110.7835
 30
0.0
 10
172.704
 20
114.1529
 30
0.0
 10
171.1076
 20
116.9596
 30
0.0
 10
173.4843
 20
118.6287
 30
0.0
 10
173.4843
 20
118.6287
 30
0.0
 10
176.119
 20
120.2735
 30
0.0
 10
178.4662
 20
117.7111
 30
0.0
 10
180.3944
 20
113.3536
 30
0.0
 10
180.3944
 20
113.3536
 30
0.0
 10
181.522
 20
110.5856
 30
0.0
 10
182.9346
 20
107.4009
 30
0.0
 10
184.9097
 20
97.6921
 30
0.0
 10
184.9097
 20
97.6921
 30
0.0
 10
181.6809
 20
104.8411
 30
0.0
 10
178.0265
 20
108.8336
 30
0.0
 10
175.9816
 20
110.7832
 30
0.0
 10
175.9816
 20
110.7832
 30
0.0
 10
175.9816
 20
110.7832
 30
0.0
 10
175.9814
 20
110.7835
 30
0.0
 10
175.9814
 20
110.7835
 30
0.0
  0
SPLINE
  5
B6
330
1F
100
AcDbEntity
  8
layer 1
 62
     7
100
AcDbSpline
210
0.0
220
0.0
230
1.0
 70
    11
 71
     3
 72
    20
 73
    16
 74
     0
 42
0.0000000001
 43
0.0000000001
 12
1.0
 22
0.0
 32
0.0
 13
1.0
 23
0.0
 33
0.0
 40
0.0
 40
0.0
 40
0.0
 40
0.0
 40
0.2
 40
0.2
 40
0.2
 40
0.2
 40
0.4
 40
0.4
 40
0.4
 40
0.4
 40
0.6
 40
0.6
 40
0.6
 40
0.6
 40
1.0
 40
1.0
 40
1.0
 40
1.0
 10
171.5831
 20
105.2204
 30
0.0
 10
167.6012
 20
107.1067
 30
0.0
 10
167.0918
 20
110.0663
 30
0.0
 10
168.5872
 20
111.743
 30
0.0
 10
168.5872
 20
111.743
 30
0.0
 10
171.0366
 20
113.6474
 30
0.0
 10
174.3384
 20
111.1962
 30
0.0
 10
176.7859
 20
107.8769
 30
0.0
 10
176.7859
 20
107.8769
 30
0.0
 10
178.692
 20
105.1831
 30
0.0
 10
182.2977
 20
99.5933
 30
0.0
 10
183.1975
 20
95.2605
 30
0.0
 10
183.1975
 20
95.2605
 30
0.0
 10
177.744
 20
103.2994
 30
0.0
 10
173.6651
 20
104.1978
 30
0.0
 10
171.5831
 20
105.2204
 30
0.0
  0
SPLINE
  5
B7
330
1F
100
AcDbEntity
  8
layer 1
 62
     7
100
AcDbSpline
210
0.0
220
0.0
230
1.0
 70
    11
 71
     3
 72
    20
 73
    16
 74
     0
 42
0.0000000001
 43
0.0000000001
 12
1.0
 22
0.0
 32
0.0
 13
1.0
 23
0.0
 33
0.0
 40
0.0
 40
0.0
 40
0.0
 40
0.0
 40
0.2
 40
0.2
 40
0.2
 40
0.2
 40
0.4
 40
0.4
 40
0.4
 40
0.4
 40
0.6
 40
0.6
 40
0.6
 40
0.6
 40
1.0
 40
1.0
 40
1.0
 40
1.0
 10
164.7813
 20
103.53
 30
0.0
 10
166.2665
 20
106.3614
 30
0.0
 10
171.5058
 20
104.6518
 30
0.0
 10
174.6947
 20
101.9255
 30
0.0
 10
174.6947
 20
101.9255
 30
0.0
 10
176.2671
 20
100.6035
 30
0.0
 10
179.4887
 20
97.7885
 30
0.0
 10
181.635
 20
92.8686
 30
0.0
 10
181.635
 20
92.8686
 30
0.0
 10
175.7247
 20
97.2692
 30
0.0
 10
172.1814
 20
98.4452
 30
0.0
 10
169.2213
 20
99.0731
 30
0.0
 10
169.2213
 20
99.0731
 30
0.0
 10
169.2213
 20
99.0729
 30
0.0
 10
162.5162
 20
99.433
 30
0.0
 10
164.7813
 20
103.53
 30
0.0
  0
SPLINE
  5
B8
330
1F
100
AcDbEntity
  8
layer 1
 62
     7
100
AcDbSpline
210
0.0
220
0.0
230
1.0
 70
    11
 71
     3
 72
    16
 73
    12
 74
     0
 42
0.0000000001
 43
0.0000000001
 12
1.0
 22
0.0
 32
0.0
 13
1.0
 23
0.0
 33
0.0
 40
0.0
 40
0.0
 40
0.0
 40
0.0
 40
0.25
 40
0.25
 40
0.25
 40
0.25
 40
0.5
 40
0.5
 40
0.5
 40
0.5
 40
1.0
 40
1.0
 40
1.0
 40
1.0
 10
80.163
 20
118.3271
 30
0.0
 10
80.3155
 20
120.6523
 30
0.0
 10
80.9708
 20
124.6953
 30
0.0
 10
77.1434
 20
124.7417
 30
0.0
 10
77.1434
 20
124.7417
 30
0.0
 10
77.1434
 20
124.7417
 30
0.0
 10
77.1434
 20
99.4157
 30
0.0
 10
77.1434
 20
99.4157
 30
0.0
 10
77.1434
 20
99.4157
 30
0.0
 10
78.1961
 20
106.5353
 30
0.0
 10
78.9365
 20
109.458
 30
0.0
 10
80.163
 20
118.3271
 30
0.0
  0
SPLINE
  5
B9
330
1F
100
AcDbEntity
  8
layer 1
 62
     7
100
AcDbSpline
210
0.0
220
0.0
230
1.0
 70
    11
 71
     3
 72
    16
 73
    12
 74
     0
 42
0.0000000001
 43
0.0000000001
 12
1.0
 22
0.0
 32
0.0
 13
1.0
 23
0.0
 33
0.0
 40
0.0
 40
0.0
 40
0.0
 40
0.0
 40
0.25
 40
0.25
 40
0.25
 40
0.25
 40
0.5
 40
0.5
 40
0.5
 40
0.5
 40
1.0
 40
1.0
 40
1.0
 40
1.0
 10
84.3589
 20
91.0243
 30
0.0
 10
82.7367
 20
94.5724
 30
0.0
 10
80.4119
 20
97.5537
 30
0.0
 10
77.134
 20
97.6983
 30
0.0
 10
77.134
 20
97.6983
 30
0.0
 10
77.134
 20
97.6983
 30
0.0
 10
77.134
 20
79.5101
 30
0.0
 10
77.134
 20
79.5101
 30
0.0
 10
77.134
 20
79.5101
 30
0.0
 10
78.2736
 20
84.4828
 30
0.0
 10
82.6198
 20
89.4397
 30
0.0
 10
84.3589
 20
91.0243
 30
0.0
  0
SPLINE
  5
BA
330
1F
100
AcDbEntity
  8
layer 1
 62
     7
100
AcDbSpline
210
0.0
220
0.0
230
1.0
 70
    11
 71
     3
 72
    20
 73
    16
 74
     0
 42
0.0000000001
 43
0.0000000001
 12
1.0
 22
0.0
 32
0.0
 13
1.0
 23
0.0
 33
0.0
 40
0.0
 40
0.0
 40
0.0
 40
0.0
 40
0.2
 40
0.2
 40
0.2
 40
0.2
 40
0.4
 40
0.4
 40
0.4
 40
0.4
 40
0.6
 40
0.6
 40
0.6
 40
0.6
 40
1.0
 40
1.0
 40
1.0
 40
1.0
 10
85.6557
 20
115.0815
 30
0.0
 10
87.6354
 20
118.4509
 30
0.0
 10
88.5264
 20
121.9976
 30
0.0
 10
86.0863
 20
122.9873
 30
0.0
 10
86.0863
 20
122.9873
 30
0.0
 10
83.3033
 20
123.9648
 30
0.0
 10
81.7947
 20
120.342
 30
0.0
 10
81.1643
 20
117.0597
 30
0.0
 10
81.1643
 20
117.0597
 30
0.0
 10
80.2228
 20
112.2694
 30
0.0
 10
79.8192
 20
106.5546
 30
0.0
 10
80.015
 20
98.8134
 30
0.0
 10
80.015
 20
98.8134
 30
0.0
 10
81.2415
 20
104.6276
 30
0.0
 10
83.9074
 20
112.3902
 30
0.0
 10
85.6557
 20
115.0815
 30
0.0
  0
SPLINE
  5
BB
330
1F
100
AcDbEntity
  8
layer 1
 62
     7
100
AcDbSpline
210
0.0
220
0.0
230
1.0
 70
    11
 71
     3
 72
    24
 73
    20
 74
     0
 42
0.0000000001
 43
0.0000000001
 12
1.0
 22
0.0
 32
0.0
 13
1.0
 23
0.0
 33
0.0
 40
0.0
 40
0.0
 40
0.0
 40
0.0
 40
0.1666666666666667
 40
0.1666666666666667
 40
0.1666666666666667
 40
0.1666666666666667
 40
0.3333333333333333
 40
0.3333333333333333
 40
0.3333333333333333
 40
0.3333333333333333
 40
0.5
 40
0.5
 40
0.5
 40
0.5
 40
0.6666666666666666
 40
0.6666666666666666
 40
0.6666666666666666
 40
0.6666666666666666
 40
1.0
 40
1.0
 40
1.0
 40
1.0
 10
90.7684
 20
110.7835
 30
0.0
 10
94.0458
 20
114.1529
 30
0.0
 10
95.6422
 20
116.9596
 30
0.0
 10
93.2655
 20
118.6287
 30
0.0
 10
93.2655
 20
118.6287
 30
0.0
 10
90.6308
 20
120.2735
 30
0.0
 10
88.2836
 20
117.7111
 30
0.0
 10
86.3554
 20
113.3536
 30
0.0
 10
86.3554
 20
113.3536
 30
0.0
 10
85.2278
 20
110.5856
 30
0.0
 10
83.8152
 20
107.4009
 30
0.0
 10
81.8401
 20
97.6921
 30
0.0
 10
81.8401
 20
97.6921
 30
0.0
 10
85.0689
 20
104.8411
 30
0.0
 10
88.7233
 20
108.8336
 30
0.0
 10
90.7682
 20
110.7832
 30
0.0
 10
90.7682
 20
110.7832
 30
0.0
 10
90.7682
 20
110.7832
 30
0.0
 10
90.7684
 20
110.7835
 30
0.0
 10
90.7684
 20
110.7835
 30
0.0
  0
SPLINE
  5
BC
330
1F
100
AcDbEntity
  8
layer 1
 62
     7
100
AcDbSpline
210
0.0
220
0.0
230
1.0
 70
    11
 71
     3
 72
    20
 73
    16
 74
     0
 42
0.0000000001
 43
0.0000000001
 12
1.0
 22
0.0
 32
0.0
 13
1.0
 23
0.0
 33
0.0
 40
0.0
 40
0.0
 40
0.0
 40
0.0
 40
0.2
 40
0.2
 40
0.2
 40
0.2
 40
0.4
 40
0.4
 40
0.4
 40
0.4
 40
0.6
 40
0.6
 40
0.6
 40
0.6
 40
1.0
 40
1.0
 40
1.0
 40
1.0
 10
95.1667
 20
105.2204
 30
0.0
 10
99.1486
 20
107.1067
 30
0.0
 10
99.658
 20
110.0663
 30
0.0
 10
98.1626
 20
111.743
 30
0.0
 10
98.1626
 20
111.743
 30
0.0
 10
95.7132
 20
113.6474
 30
0.0
 10
92.4114
 20
111.1962
 30
0.0
 10
89.9639
 20
107.8769
 30
0.0
 10
89.9639
 20
107.8769
 30
0.0
 10
88.0578
 20
105.1831
 30
0.0
 10
84.4521
 20
99.5933
 30
0.0
 10
83.5523
 20
95.2605
 30
0.0
 10
83.5523
 20
95.2605
 30
0.0
 10
89.0058
 20
103.2994
 30
0.0
 10
93.0847
 20
104.1978
 30
0.0
 10
95.1667
 20
105.2204
 30
0.0
  0
SPLINE
  5
BD
330
1F
100
AcDbEntity
  8
layer 1
 62
     7
100
AcDbSpline
210
0.0
220
0.0
230
1.0
 70
    11
 71
     3
 72
    20
 73
    16
 74
     0
 42
0.0000000001
 43
0.0000000001
 12
1.0
 22
0.0
 32
0.0
 13
1.0
 23
0.0
 33
0.0
 40
0.0
 40
0.0
 40
0.0
 40
0.0
 40
0.2
 40
0.2
 40
0.2
 40
0.2
 40
0.4
 40
0.4
 40
0.4
 40
0.4
 40
0.6
 40
0.6
 40
0.6
 40
0.6
 40
1.0
 40
1.0
 40
1.0
 40
1.0
 10
101.9685
 20
103.53
 30
0.0
 10
100.4833
 20
106.3614
 30
0.0
 10
95.244
 20
104.6518
 30
0.0
 10
92.0551
 20
101.9255
 30
0.0
 10
92.0551
 20
101.9255
 30
0.0
 10
90.4827
 20
100.6035
 30
0.0
 10
87.2611
 20
97.7885
 30
0.0
 10
85.1148
 20
92.8686
 30
0.0
 10
85.1148
 20
92.8686
 30
0.0
 10
91.0251
 20
97.2692
 30
0.0
 10
94.5684
 20
98.4452
 30
0.0
 10
97.5285
 20
99.0731
 30
0.0
 10
97.5285
 20
99.0731
 30
0.0
 10
97.5285
 20
99.0729
 30
0.0
 10
104.2336
 20
99.433
 30
0.0
 10
101.9685
 20
103.53
 30
0.0
  0
SPLINE
  5
BE
330
1F
100
AcDbEntity
  8
layer 1
 62
     7
100
AcDbSpline
210
0.0
220
0.0
230
1.0
 70
    11
 71
     3
 72
    16
 73
    12
 74
     0
 42
0.0000000001
 43
0.0000000001
 12
1.0
 22
0.0
 32
0.0
 13
1.0
 23
0.0
 33
0.0
 40
0.0
 40
0.0
 40
0.0
 40
0.0
 40
0.25
 40
0.25
 40
0.25
 40
0.25
 40
0.5
 40
0.5
 40
0.5
 40
0.5
 40
1.0
 40
1.0
 40
1.0
 40
1.0
 10
80.163
 20
21.6611
 30
0.0
 10
80.3155
 20
19.3358
 30
0.0
 10
80.9708
 20
15.2928
 30
0.0
 10
77.1434
 20
15.2465
 30
0.0
 10
77.1434
 20
15.2465
 30
0.0
 10
77.1434
 20
15.2465
 30
0.0
 10
77.1434
 20
40.5724
 30
0.0
 10
77.1434
 20
40.5724
 30
0.0
 10
77.1434
 20
40.5724
 30
0.0
 10
78.1961
 20
33.4529
 30
0.0
 10
78.9365
 20
30.5301
 30
0.0
 10
80.163
 20
21.6611
 30
0.0
  0
SPLINE
  5
BF
330
1F
100
AcDbEntity
  8
layer 1
 62
     7
100
AcDbSpline
210
0.0
220
0.0
230
1.0
 70
    11
 71
     3
 72
    16
 73
    12
 74
     0
 42
0.0000000001
 43
0.0000000001
 12
1.0
 22
0.0
 32
0.0
 13
1.0
 23
0.0
 33
0.0
 40
0.0
 40
0.0
 40
0.0
 40
0.0
 40
0.25
 40
0.25
 40
0.25
 40
0.25
 40
0.5
 40
0.5
 40
0.5
 40
0.5
 40
1.0
 40
1.0
 40
1.0
 40
1.0
 10
84.3589
 20
48.9639
 30
0.0
 10
82.7367
 20
45.4157
 30
0.0
 10
80.4119
 20
42.4344
 30
0.0
 10
77.134
 20
42.2898
 30
0.0
 10
77.134
 20
42.2898
 30
0.0
 10
77.134
 20
42.2898
 30
0.0
 10
77.134
 20
60.478
 30
0.0
 10
77.134
 20
60.478
 30
0.0
 10
77.134
 20
60.478
 30
0.0
 10
78.2736
 20
55.5053
 30
0.0
 10
82.6198
 20
50.5485
 30
0.0
 10
84.3589
 20
48.9639
 30
0.0
  0
SPLINE
  5
C0
330
1F
100
AcDbEntity
  8
layer 1
 62
     7
100
AcDbSpline
210
0.0
220
0.0
230
1.0
 70
    11
 71
     3
 72
    20
 73
    16
 74
     0
 42
0.0000000001
 43
0.0000000001
 12
1.0
 22
0.0
 32
0.0
 13
1.0
 23
0.0
 33
0.0
 40
0.0
 40
0.0
 40
0.0
 40
0.0
 40
0.2
 40
0.2
 40
0.2
 40
0.2
 40
0.4
 40
0.4
 40
0.4
 40
0.4
 40
0.6
 40
0.6
 40
0.6
 40
0.6
 40
1.0
 40
1.0
 40
1.0
 40
1.0
 10
85.6557
 20
24.9067
 30
0.0
 10
87.6354
 20
21.5372
 30
0.0
 10
88.5264
 20
17.9905
 30
0.0
 10
86.0863
 20
17.0008
 30
0.0
 10
86.0863
 20
17.0008
 30
0.0
 10
83.3033
 20
16.0233
 30
0.0
 10
81.7947
 20
19.6462
 30
0.0
 10
81.1643
 20
22.9284
 30
0.0
 10
81.1643
 20
22.9284
 30
0.0
 10
80.2228
 20
27.7187
 30
0.0
 10
79.8192
 20
33.4335
 30
0.0
 10
80.015
 20
41.1747
 30
0.0
 10
80.015
 20
41.1747
 30
0.0
 10
81.2415
 20
35.3605
 30
0.0
 10
83.9074
 20
27.5979
 30
0.0
 10
85.6557
 20
24.9067
 30
0.0
  0
SPLINE
  5
C1
330
1F
100
AcDbEntity
  8
layer 1
 62
     7
100
AcDbSpline
210
0.0
220
0.0
230
1.0
 70
    11
 71
     3
 72
    24
 73
    20
 74
     0
 42
0.0000000001
 43
0.0000000001
 12
1.0
 22
0.0
 32
0.0
 13
1.0
 23
0.0
 33
0.0
 40
0.0
 40
0.0
 40
0.0
 40
0.0
 40
0.1666666666666667
 40
0.1666666666666667
 40
0.1666666666666667
 40
0.1666666666666667
 40
0.3333333333333333
 40
0.3333333333333333
 40
0.3333333333333333
 40
0.3333333333333333
 40
0.5
 40
0.5
 40
0.5
 40
0.5
 40
0.6666666666666666
 40
0.6666666666666666
 40
0.6666666666666666
 40
0.6666666666666666
 40
1.0
 40
1.0
 40
1.0
 40
1.0
 10
90.7684
 20
29.2047
 30
0.0
 10
94.0458
 20
25.8353
 30
0.0
 10
95.6422
 20
23.0285
 30
0.0
 10
93.2655
 20
21.3595
 30
0.0
 10
93.2655
 20
21.3595
 30
0.0
 10
90.6308
 20
19.7146
 30
0.0
 10
88.2836
 20
22.277
 30
0.0
 10
86.3554
 20
26.6345
 30
0.0
 10
86.3554
 20
26.6345
 30
0.0
 10
85.2278
 20
29.4025
 30
0.0
 10
83.8152
 20
32.5872
 30
0.0
 10
81.8401
 20
42.2961
 30
0.0
 10
81.8401
 20
42.2961
 30
0.0
 10
85.0689
 20
35.147
 30
0.0
 10
88.7233
 20
31.1545
 30
0.0
 10
90.7682
 20
29.2049
 30
0.0
 10
90.7682
 20
29.2049
 30
0.0
 10
90.7682
 20
29.2049
 30
0.0
 10
90.7684
 20
29.2047
 30
0.0
 10
90.7684
 20
29.2047
 30
0.0
  0
SPLINE
  5
C2
330
1F
100
AcDbEntity
  8
layer 1
 62
     7
100
AcDbSpline
210
0.0
220
0.0
230
1.0
 70
    11
 71
     3
 72
    20
 73
    16
 74
     0
 42
0.0000000001
 43
0.0000000001
 12
1.0
 22
0.0
 32
0.0
 13
1.0
 23
0.0
 33
0.0
 40
0.0
 40
0.0
 40
0.0
 40
0.0
 40
0.2
 40
0.2
 40
0.2
 40
0.2
 40
0.4
 40
0.4
 40
0.4
 40
0.4
 40
0.6
 40
0.6
 40
0.6
 40
0.6
 40
1.0
 40
1.0
 40
1.0
 40
1.0
 10
95.1667
 20
34.7677
 30
0.0
 10
99.1486
 20
32.8814
 30
0.0
 10
99.658
 20
29.9218
 30
0.0
 10
98.1626
 20
28.2452
 30
0.0
 10
98.1626
 20
28.2452
 30
0.0
 10
95.7132
 20
26.3407
 30
0.0
 10
92.4114
 20
28.7919
 30
0.0
 10
89.9639
 20
32.1113
 30
0.0
 10
89.9639
 20
32.1113
 30
0.0
 10
88.0578
 20
34.805
 30
0.0
 10
84.4521
 20
40.3948
 30
0.0
 10
83.5523
 20
44.7276
 30
0.0
 10
83.5523
 20
44.7276
 30
0.0
 10
89.0058
 20
36.6888
 30
0.0
 10
93.0847
 20
35.7904
 30
0.0
 10
95.1667
 20
34.7677
 30
0.0
  0
SPLINE
  5
C3
330
1F
100
AcDbEntity
  8
layer 1
 62
     7
100
AcDbSpline
210
0.0
220
0.0
230
1.0
 70
    11
 71
     3
 72
    20
 73
    16
 74
     0
 42
0.0000000001
 43
0.0000000001
 12
1.0
 22
0.0
 32
0.0
 13
1.0
 23
0.0
 33
0.0
 40
0.0
 40
0.0
 40
0.0
 40
0.0
 40
0.2
 40
0.2
 40
0.2
 40
0.2
 40
0.4
 40
0.4
 40
0.4
 40
0.4
 40
0.6
 40
0.6
 40
0.6
 40
0.6
 40
1.0
 40
1.0
 40
1.0
 40
1.0
 10
101.9685
 20
36.4582
 30
0.0
 10
100.4833
 20
33.6267
 30
0.0
 10
95.244
 20
35.3363
 30
0.0
 10
92.0551
 20
38.0626
 30
0.0
 10
92.0551
 20
38.0626
 30
0.0
 10
90.4827
 20
39.3846
 30
0.0
 10
87.2611
 20
42.1997
 30
0.0
 10
85.1148
 20
47.1196
 30
0.0
 10
85.1148
 20
47.1196
 30
0.0
 10
91.0251
 20
42.719
 30
0.0
 10
94.5684
 20
41.5429
 30
0.0
 10
97.5285
 20
40.915
 30
0.0
 10
97.5285
 20
40.915
 30
0.0
 10
97.5285
 20
40.9153
 30
0.0
 10
104.2336
 20
40.5551
 30
0.0
 10
101.9685
 20
36.4582
 30
0.0
  0
SPLINE
  5
C4
330
1F
100
AcDbEntity
  8
layer 1
 62
     7
100
AcDbSpline
210
0.0
220
0.0
230
1.0
 70
    11
 71
     3
 72
    16
 73
    12
 74
     0
 42
0.0000000001
 43
0.0000000001
 12
1.0
 22
0.0
 32
0.0
 13
1.0
 23
0.0
 33
0.0
 40
0.0
 40
0.0
 40
0.0
 40
0.0
 40
0.25
 40
0.25
 40
0.25
 40
0.25
 40
0.5
 40
0.5
 40
0.5
 40
0.5
 40
1.0
 40
1.0
 40
1.0
 40
1.0
 10
80.163
 20
3.5478
 30
0.0
 10
80.3155
 20
5.8731
 30
0.0
 10
80.9708
 20
9.9161
 30
0.0
 10
77.1434
 20
9.9625
 30
0.0
 10
77.1434
 20
9.9625
 30
0.0
 10
77.1434
 20
9.9625
 30
0.0
 10
77.1434
 20
-15.3635
 30
0.0
 10
77.1434
 20
-15.3635
 30
0.0
 10
77.1434
 20
-15.3635
 30
0.0
 10
78.1961
 20
-8.2439
 30
0.0
 10
78.9365
 20
-5.3212
 30
0.0
 10
80.163
 20
3.5478
 30
0.0
  0
SPLINE
  5
C5
330
1F
100
AcDbEntity
  8
layer 1
 62
     7
100
AcDbSpline
210
0.0
220
0.0
230
1.0
 70
    11
 71
     3
 72
    16
 73
    12
 74
     0
 42
0.0000000001
 43
0.0000000001
 12
1.0
 22
0.0
 32
0.0
 13
1.0
 23
0.0
 33
0.0
 40
0.0
 40
0.0
 40
0.0
 40
0.0
 40
0.25
 40
0.25
 40
0.25
 40
0.25
 40
0.5
 40
0.5
 40
0.5
 40
0.5
 40
1.0
 40
1.0
 40
1.0
 40
1.0
 10
84.3589
 20
-23.7549
 30
0.0
 10
82.7367
 20
-20.2068
 30
0.0
 10
80.4119
 20
-17.2255
 30
0.0
 10
77.134
 20
-17.0809
 30
0.0
 10
77.134
 20
-17.0809
 30
0.0
 10
77.134
 20
-17.0809
 30
0.0
 10
77.134
 20
-35.2691
 30
0.0
 10
77.134
 20
-35.2691
 30
0.0
 10
77.134
 20
-35.2691
 30
0.0
 10
78.2736
 20
-30.2964
 30
0.0
 10
82.6198
 20
-25.3396
 30
0.0
 10
84.3589
 20
-23.7549
 30
0.0
  0
SPLINE
  5
C6
330
1F
100
AcDbEntity
  8
layer 1
 62
     7
100
AcDbSpline
210
0.0
220
0.0
230
1.0
 70
    11
 71
     3
 72
    20
 73
    16
 74
     0
 42
0.0000000001
 43
0.0000000001
 12
1.0
 22
0.0
 32
0.0
 13
1.0
 23
0.0
 33
0.0
 40
0.0
 40
0.0
 40
0.0
 40
0.0
 40
0.2
 40
0.2
 40
0.2
 40
0.2
 40
0.4
 40
0.4
 40
0.4
 40
0.4
 40
0.6
 40
0.6
 40
0.6
 40
0.6
 40
1.0
 40
1.0
 40
1.0
 40
1.0
 10
85.6557
 20
0.3023
 30
0.0
 10
87.6354
 20
3.6717
 30
0.0
 10
88.5264
 20
7.2184
 30
0.0
 10
86.0863
 20
8.2081
 30
0.0
 10
86.0863
 20
8.2081
 30
0.0
 10
83.3033
 20
9.1856
 30
0.0
 10
81.7947
 20
5.5628
 30
0.0
 10
81.1643
 20
2.2805
 30
0.0
 10
81.1643
 20
2.2805
 30
0.0
 10
80.2228
 20
-2.5098
 30
0.0
 10
79.8192
 20
-8.2246
 30
0.0
 10
80.015
 20
-15.9658
 30
0.0
 10
80.015
 20
-15.9658
 30
0.0
 10
81.2415
 20
-10.1516
 30
0.0
 10
83.9074
 20
-2.389
 30
0.0
 10
85.6557
 20
0.3023
 30
0.0
  0
SPLINE
  5
C7
330
1F
100
AcDbEntity
  8
layer 1
 62
     7
100
AcDbSpline
210
0.0
220
0.0
230
1.0
 70
    11
 71
     3
 72
    24
 73
    20
 74
     0
 42
0.0000000001
 43
0.0000000001
 12
1.0
 22
0.0
 32
0.0
 13
1.0
 23
0.0
 33
0.0
 40
0.0
 40
0.0
 40
0.0
 40
0.0
 40
0.1666666666666667
 40
0.1666666666666667
 40
0.1666666666666667
 40
0.1666666666666667
 40
0.3333333333333333
 40
0.3333333333333333
 40
0.3333333333333333
 40
0.3333333333333333
 40
0.5
 40
0.5
 40
0.5
 40
0.5
 40
0.6666666666666666
 40
0.6666666666666666
 40
0.6666666666666666
 40
0.6666666666666666
 40
1.0
 40
1.0
 40
1.0
 40
1.0
 10
90.7684
 20
-3.9957
 30
0.0
 10
94.0458
 20
-0.6263
 30
0.0
 10
95.6422
 20
2.1804
 30
0.0
 10
93.2655
 20
3.8495
 30
0.0
 10
93.2655
 20
3.8495
 30
0.0
 10
90.6308
 20
5.4943
 30
0.0
 10
88.2836
 20
2.9319
 30
0.0
 10
86.3554
 20
-1.4256
 30
0.0
 10
86.3554
 20
-1.4256
 30
0.0
 10
85.2278
 20
-4.1936
 30
0.0
 10
83.8152
 20
-7.3783
 30
0.0
 10
81.8401
 20
-17.0871
 30
0.0
 10
81.8401
 20
-17.0871
 30
0.0
 10
85.0689
 20
-9.9381
 30
0.0
 10
88.7233
 20
-5.9456
 30
0.0
 10
90.7682
 20
-3.996
 30
0.0
 10
90.7682
 20
-3.996
 30
0.0
 10
90.7682
 20
-3.996
 30
0.0
 10
90.7684
 20
-3.9957
 30
0.0
 10
90.7684
 20
-3.9957
 30
0.0
  0
SPLINE
  5
C8
330
1F
100
AcDbEntity
  8
layer 1
 62
     7
100
AcDbSpline
210
0.0
220
0.0
230
1.0
 70
    11
 71
     3
 72
    20
 73
    16
 74
     0
 42
0.0000000001
 43
0.0000000001
 12
1.0
 22
0.0
 32
0.0
 13
1.0
 23
0.0
 33
0.0
 40
0.0
 40
0.0
 40
0.0
 40
0.0
 40
0.2
 40
0.2
 40
0.2
 40
0.2
 40
0.4
 40
0.4
 40
0.4
 40
0.4
 40
0.6
 40
0.6
 40
0.6
 40
0.6
 40
1.0
 40
1.0
 40
1.0
 40
1.0
 10
95.1667
 20
-9.5588
 30
0.0
 10
99.1486
 20
-7.6725
 30
0.0
 10
99.658
 20
-4.7129
 30
0.0
 10
98.1626
 20
-3.0362
 30
0.0
 10
98.1626
 20
-3.0362
 30
0.0
 10
95.7132
 20
-1.1318
 30
0.0
 10
92.4114
 20
-3.583
 30
0.0
 10
89.9639
 20
-6.9023
 30
0.0
 10
89.9639
 20
-6.9023
 30
0.0
 10
88.0578
 20
-9.5961
 30
0.0
 10
84.4521
 20
-15.1859
 30
0.0
 10
83.5523
 20
-19.5187
 30
0.0
 10
83.5523
 20
-19.5187
 30
0.0
 10
89.0058
 20
-11.4798
 30
0.0
 10
93.0847
 20
-10.5814
 30
0.0
 10
95.1667
 20
-9.5588
 30
0.0
  0
SPLINE
  5
C9
330
1F
100
AcDbEntity
  8
layer 1
 62
     7
100
AcDbSpline
210
0.0
220
0.0
230
1.0
 70
    11
 71
     3
 72
    20
 73
    16
 74
     0
 42
0.0000000001
 43
0.0000000001
 12
1.0
 22
0.0
 32
0.0
 13
1.0
 23
0.0
 33
0.0
 40
0.0
 40
0.0
 40
0.0
 40
0.0
 40
0.2
 40
0.2
 40
0.2
 40
0.2
 40
0.4
 40
0.4
 40
0.4
 40
0.4
 40
0.6
 40
0.6
 40
0.6
 40
0.6
 40
1.0
 40
1.0
 40
1.0
 40
1.0
 10
101.9685
 20
-11.2492
 30
0.0
 10
100.4833
 20
-8.4178
 30
0.0
 10
95.244
 20
-10.1274
 30
0.0
 10
92.0551
 20
-12.8537
 30
0.0
 10
92.0551
 20
-12.8537
 30
0.0
 10
90.4827
 20
-14.1757
 30
0.0
 10
87.2611
 20
-16.9907
 30
0.0
 10
85.1148
 20
-21.9107
 30
0.0
 10
85.1148
 20
-21.9107
 30
0.0
 10
91.0251
 20
-17.51
 30
0.0
 10
94.5684
 20
-16.334
 30
0.0
 10
97.5285
 20
-15.7061
 30
0.0
 10
97.5285
 20
-15.7061
 30
0.0
 10
97.5285
 20
-15.7063
 30
0.0
 10
104.2336
 20
-15.3462
 30
0.0
 10
101.9685
 20
-11.2492
 30
0.0
  0
SPLINE
  5
CA
330
1F
100
AcDbEntity
  8
layer 1
 62
     7
100
AcDbSpline
210
0.0
220
0.0
230
1.0
 70
    11
 71
     3
 72
    16
 73
    12
 74
     0
 42
0.0000000001
 43
0.0000000001
 12
1.0
 22
0.0
 32
0.0
 13
1.0
 23
0.0
 33
0.0
 40
0.0
 40
0.0
 40
0.0
 40
0.0
 40
0.25
 40
0.25
 40
0.25
 40
0.25
 40
0.5
 40
0.5
 40
0.5
 40
0.5
 40
1.0
 40
1.0
 40
1.0
 40
1.0
 10
80.163
 20
-93.1181
 30
0.0
 10
80.3155
 20
-95.4434
 30
0.0
 10
80.9708
 20
-99.4864
 30
0.0
 10
77.1434
 20
-99.5327
 30
0.0
 10
77.1434
 20
-99.5327
 30
0.0
 10
77.1434
 20
-99.5327
 30
0.0
 10
77.1434
 20
-74.2068
 30
0.0
 10
77.1434
 20
-74.2068
 30
0.0
 10
77.1434
 20
-74.2068
 30
0.0
 10
78.1961
 20
-81.3263
 30
0.0
 10
78.9365
 20
-84.2491
 30
0.0
 10
80.163
 20
-93.1181
 30
0.0
  0
SPLINE
  5
CB
330
1F
100
AcDbEntity
  8
layer 1
 62
     7
100
AcDbSpline
210
0.0
220
0.0
230
1.0
 70
    11
 71
     3
 72
    16
 73
    12
 74
     0
 42
0.0000000001
 43
0.0000000001
 12
1.0
 22
0.0
 32
0.0
 13
1.0
 23
0.0
 33
0.0
 40
0.0
 40
0.0
 40
0.0
 40
0.0
 40
0.25
 40
0.25
 40
0.25
 40
0.25
 40
0.5
 40
0.5
 40
0.5
 40
0.5
 40
1.0
 40
1.0
 40
1.0
 40
1.0
 10
84.3589
 20
-65.8154
 30
0.0
 10
82.7367
 20
-69.3635
 30
0.0
 10
80.4119
 20
-72.3448
 30
0.0
 10
77.134
 20
-72.4894
 30
0.0
 10
77.134
 20
-72.4894
 30
0.0
 10
77.134
 20
-72.4894
 30
0.0
 10
77.134
 20
-54.3012
 30
0.0
 10
77.134
 20
-54.3012
 30
0.0
 10
77.134
 20
-54.3012
 30
0.0
 10
78.2736
 20
-59.2739
 30
0.0
 10
82.6198
 20
-64.2307
 30
0.0
 10
84.3589
 20
-65.8154
 30
0.0
  0
SPLINE
  5
CC
330
1F
100
AcDbEntity
  8
layer 1
 62
     7
100
AcDbSpline
210
0.0
220
0.0
230
1.0
 70
    11
 71
     3
 72
    20
 73
    16
 74
     0
 42
0.0000000001
 43
0.0000000001
 12
1.0
 22
0.0
 32
0.0
 13
1.0
 23
0.0
 33
0.0
 40
0.0
 40
0.0
 40
0.0
 40
0.0
 40
0.2
 40
0.2
 40
0.2
 40
0.2
 40
0.4
 40
0.4
 40
0.4
 40
0.4
 40
0.6
 40
0.6
 40
0.6
 40
0.6
 40
1.0
 40
1.0
 40
1.0
 40
1.0
 10
85.6557
 20
-89.8725
 30
0.0
 10
87.6354
 20
-93.242
 30
0.0
 10
88.5264
 20
-96.7887
 30
0.0
 10
86.0863
 20
-97.7784
 30
0.0
 10
86.0863
 20
-97.7784
 30
0.0
 10
83.3033
 20
-98.7559
 30
0.0
 10
81.7947
 20
-95.133
 30
0.0
 10
81.1643
 20
-91.8508
 30
0.0
 10
81.1643
 20
-91.8508
 30
0.0
 10
80.2228
 20
-87.0605
 30
0.0
 10
79.8192
 20
-81.3457
 30
0.0
 10
80.015
 20
-73.6045
 30
0.0
 10
80.015
 20
-73.6045
 30
0.0
 10
81.2415
 20
-79.4187
 30
0.0
 10
83.9074
 20
-87.1813
 30
0.0
 10
85.6557
 20
-89.8725
 30
0.0
  0
SPLINE
  5
CD
330
1F
100
AcDbEntity
  8
layer 1
 62
     7
100
AcDbSpline
210
0.0
220
0.0
230
1.0
 70
    11
 71
     3
 72
    24
 73
    20
 74
     0
 42
0.0000000001
 43
0.0000000001
 12
1.0
 22
0.0
 32
0.0
 13
1.0
 23
0.0
 33
0.0
 40
0.0
 40
0.0
 40
0.0
 40
0.0
 40
0.1666666666666667
 40
0.1666666666666667
 40
0.1666666666666667
 40
0.1666666666666667
 40
0.3333333333333333
 40
0.3333333333333333
 40
0.3333333333333333
 40
0.3333333333333333
 40
0.5
 40
0.5
 40
0.5
 40
0.5
 40
0.6666666666666666
 40
0.6666666666666666
 40
0.6666666666666666
 40
0.6666666666666666
 40
1.0
 40
1.0
 40
1.0
 40
1.0
 10
90.7684
 20
-85.5745
 30
0.0
 10
94.0458
 20
-88.944
 30
0.0
 10
95.6422
 20
-91.7507
 30
0.0
 10
93.2655
 20
-93.4197
 30
0.0
 10
93.2655
 20
-93.4197
 30
0.0
 10
90.6308
 20
-95.0646
 30
0.0
 10
88.2836
 20
-92.5022
 30
0.0
 10
86.3554
 20
-88.1447
 30
0.0
 10
86.3554
 20
-88.1447
 30
0.0
 10
85.2278
 20
-85.3767
 30
0.0
 10
83.8152
 20
-82.192
 30
0.0
 10
81.8401
 20
-72.4831
 30
0.0
 10
81.8401
 20
-72.4831
 30
0.0
 10
85.0689
 20
-79.6322
 30
0.0
 10
88.7233
 20
-83.6247
 30
0.0
 10
90.7682
 20
-85.5743
 30
0.0
 10
90.7682
 20
-85.5743
 30
0.0
 10
90.7682
 20
-85.5743
 30
0.0
 10
90.7684
 20
-85.5745
 30
0.0
 10
90.7684
 20
-85.5745
 30
0.0
  0
SPLINE
  5
CE
330
1F
100
AcDbEntity
  8
layer 1
 62
     7
100
AcDbSpline
210
0.0
220
0.0
230
1.0
 70
    11
 71
     3
 72
    20
 73
    16
 74
     0
 42
0.0000000001
 43
0.0000000001
 12
1.0
 22
0.0
 32
0.0
 13
1.0
 23
0.0
 33
0.0
 40
0.0
 40
0.0
 40
0.0
 40
0.0
 40
0.2
 40
0.2
 40
0.2
 40
0.2
 40
0.4
 40
0.4
 40
0.4
 40
0.4
 40
0.6
 40
0.6
 40
0.6
 40
0.6
 40
1.0
 40
1.0
 40
1.0
 40
1.0
 10
95.1667
 20
-80.0115
 30
0.0
 10
99.1486
 20
-81.8978
 30
0.0
 10
99.658
 20
-84.8574
 30
0.0
 10
98.1626
 20
-86.534
 30
0.0
 10
98.1626
 20
-86.534
 30
0.0
 10
95.7132
 20
-88.4385
 30
0.0
 10
92.4114
 20
-85.9873
 30
0.0
 10
89.9639
 20
-82.6679
 30
0.0
 10
89.9639
 20
-82.6679
 30
0.0
 10
88.0578
 20
-79.9742
 30
0.0
 10
84.4521
 20
-74.3844
 30
0.0
 10
83.5523
 20
-70.0516
 30
0.0
 10
83.5523
 20
-70.0516
 30
0.0
 10
89.0058
 20
-78.0905
 30
0.0
 10
93.0847
 20
-78.9888
 30
0.0
 10
95.1667
 20
-80.0115
 30
0.0
  0
SPLINE
  5
CF
330
1F
100
AcDbEntity
  8
layer 1
 62
     7
100
AcDbSpline
210
0.0
220
0.0
230
1.0
 70
    11
 71
     3
 72
    20
 73
    16
 74
     0
 42
0.0000000001
 43
0.0000000001
 12
1.0
 22
0.0
 32
0.0
 13
1.0
 23
0.0
 33
0.0
 40
0.0
 40
0.0
 40
0.0
 40
0.0
 40
0.2
 40
0.2
 40
0.2
 40
0.2
 40
0.4
 40
0.4
 40
0.4
 40
0.4
 40
0.6
 40
0.6
 40
0.6
 40
0.6
 40
1.0
 40
1.0
 40
1.0
 40
1.0
 10
101.9685
 20
-78.321
 30
0.0
 10
100.4833
 20
-81.1525
 30
0.0
 10
95.244
 20
-79.4429
 30
0.0
 10
92.0551
 20
-76.7166
 30
0.0
 10
92.0551
 20
-76.7166
 30
0.0
 10
90.4827
 20
-75.3946
 30
0.0
 10
87.2611
 20
-72.5795
 30
0.0
 10
85.1148
 20
-67.6596
 30
0.0
 10
85.1148
 20
-67.6596
 30
0.0
 10
91.0251
 20
-72.0602
 30
0.0
 10
94.5684
 20
-73.2363
 30
0.0
 10
97.5285
 20
-73.8642
 30
0.0
 10
97.5285
 20
-73.8642
 30
0.0
 10
97.5285
 20
-73.8639
 30
0.0
 10
104.2336
 20
-74.2241
 30
0.0
 10
101.9685
 20
-78.321
 30
0.0
  0
SPLINE
  5
D0
330
1F
100
AcDbEntity
  8
layer 1
 62
     7
100
AcDbSpline
210
0.0
220
0.0
230
1.0
 70
    11
 71
     3
 72
    16
 73
    12
 74
     0
 42
0.0000000001
 43
0.0000000001
 12
1.0
 22
0.0
 32
0.0
 13
1.0
 23
0.0
 33
0.0
 40
0.0
 40
0.0
 40
0.0
 40
0.0
 40
0.25
 40
0.25
 40
0.25
 40
0.25
 40
0.5
 40
0.5
 40
0.5
 40
0.5
 40
1.0
 40
1.0
 40
1.0
 40
1.0
 10
186.3997
 20
3.5478
 30
0.0
 10
186.2473
 20
5.8731
 30
0.0
 10
185.592
 20
9.9161
 30
0.0
 10
189.4193
 20
9.9625
 30
0.0
 10
189.4193
 20
9.9625
 30
0.0
 10
189.4193
 20
9.9625
 30
0.0
 10
189.4193
 20
-15.3635
 30
0.0
 10
189.4193
 20
-15.3635
 30
0.0
 10
189.4193
 20
-15.3635
 30
0.0
 10
188.3667
 20
-8.2439
 30
0.0
 10
187.6263
 20
-5.3212
 30
0.0
 10
186.3997
 20
3.5478
 30
0.0
  0
SPLINE
  5
D1
330
1F
100
AcDbEntity
  8
layer 1
 62
     7
100
AcDbSpline
210
0.0
220
0.0
230
1.0
 70
    11
 71
     3
 72
    16
 73
    12
 74
     0
 42
0.0000000001
 43
0.0000000001
 12
1.0
 22
0.0
 32
0.0
 13
1.0
 23
0.0
 33
0.0
 40
0.0
 40
0.0
 40
0.0
 40
0.0
 40
0.25
 40
0.25
 40
0.25
 40
0.25
 40
0.5
 40
0.5
 40
0.5
 40
0.5
 40
1.0
 40
1.0
 40
1.0
 40
1.0
 10
182.2039
 20
-23.7549
 30
0.0
 10
183.8261
 20
-20.2068
 30
0.0
 10
186.1509
 20
-17.2255
 30
0.0
 10
189.4288
 20
-17.0809
 30
0.0
 10
189.4288
 20
-17.0809
 30
0.0
 10
189.4288
 20
-17.0809
 30
0.0
 10
189.4288
 20
-35.2691
 30
0.0
 10
189.4288
 20
-35.2691
 30
0.0
 10
189.4288
 20
-35.2691
 30
0.0
 10
188.2892
 20
-30.2964
 30
0.0
 10
183.943
 20
-25.3396
 30
0.0
 10
182.2039
 20
-23.7549
 30
0.0
  0
SPLINE
  5
D2
330
1F
100
AcDbEntity
  8
layer 1
 62
     7
100
AcDbSpline
210
0.0
220
0.0
230
1.0
 70
    11
 71
     3
 72
    20
 73
    16
 74
     0
 42
0.0000000001
 43
0.0000000001
 12
1.0
 22
0.0
 32
0.0
 13
1.0
 23
0.0
 33
0.0
 40
0.0
 40
0.0
 40
0.0
 40
0.0
 40
0.2
 40
0.2
 40
0.2
 40
0.2
 40
0.4
 40
0.4
 40
0.4
 40
0.4
 40
0.6
 40
0.6
 40
0.6
 40
0.6
 40
1.0
 40
1.0
 40
1.0
 40
1.0
 10
180.907
 20
0.3023
 30
0.0
 10
178.9274
 20
3.6717
 30
0.0
 10
178.0364
 20
7.2184
 30
0.0
 10
180.4765
 20
8.2081
 30
0.0
 10
180.4765
 20
8.2081
 30
0.0
 10
183.2595
 20
9.1856
 30
0.0
 10
184.7681
 20
5.5628
 30
0.0
 10
185.3985
 20
2.2805
 30
0.0
 10
185.3985
 20
2.2805
 30
0.0
 10
186.34
 20
-2.5098
 30
0.0
 10
186.7436
 20
-8.2246
 30
0.0
 10
186.5478
 20
-15.9658
 30
0.0
 10
186.5478
 20
-15.9658
 30
0.0
 10
185.3213
 20
-10.1516
 30
0.0
 10
182.6554
 20
-2.389
 30
0.0
 10
180.907
 20
0.3023
 30
0.0
  0
SPLINE
  5
D3
330
1F
100
AcDbEntity
  8
layer 1
 62
     7
100
AcDbSpline
210
0.0
220
0.0
230
1.0
 70
    11
 71
     3
 72
    24
 73
    20
 74
     0
 42
0.0000000001
 43
0.0000000001
 12
1.0
 22
0.0
 32
0.0
 13
1.0
 23
0.0
 33
0.0
 40
0.0
 40
0.0
 40
0.0
 40
0.0
 40
0.1666666666666667
 40
0.1666666666666667
 40
0.1666666666666667
 40
0.1666666666666667
 40
0.3333333333333333
 40
0.3333333333333333
 40
0.3333333333333333
 40
0.3333333333333333
 40
0.5
 40
0.5
 40
0.5
 40
0.5
 40
0.6666666666666666
 40
0.6666666666666666
 40
0.6666666666666666
 40
0.6666666666666666
 40
1.0
 40
1.0
 40
1.0
 40
1.0
 10
175.7944
 20
-3.9957
 30
0.0
 10
172.517
 20
-0.6263
 30
0.0
 10
170.9206
 20
2.1804
 30
0.0
 10
173.2973
 20
3.8495
 30
0.0
 10
173.2973
 20
3.8495
 30
0.0
 10
175.932
 20
5.4943
 30
0.0
 10
178.2792
 20
2.9319
 30
0.0
 10
180.2074
 20
-1.4256
 30
0.0
 10
180.2074
 20
-1.4256
 30
0.0
 10
181.335
 20
-4.1936
 30
0.0
 10
182.7476
 20
-7.3783
 30
0.0
 10
184.7226
 20
-17.0871
 30
0.0
 10
184.7226
 20
-17.0871
 30
0.0
 10
181.4939
 20
-9.9381
 30
0.0
 10
177.8395
 20
-5.9456
 30
0.0
 10
175.7946
 20
-3.996
 30
0.0
 10
175.7946
 20
-3.996
 30
0.0
 10
175.7946
 20
-3.996
 30
0.0
 10
175.7944
 20
-3.9957
 30
0.0
 10
175.7944
 20
-3.9957
 30
0.0
  0
SPLINE
  5
D4
330
1F
100
AcDbEntity
  8
layer 1
 62
     7
100
AcDbSpline
210
0.0
220
0.0
230
1.0
 70
    11
 71
     3
 72
    20
 73
    16
 74
     0
 42
0.0000000001
 43
0.0000000001
 12
1.0
 22
0.0
 32
0.0
 13
1.0
 23
0.0
 33
0.0
 40
0.0
 40
0.0
 40
0.0
 40
0.0
 40
0.2
 40
0.2
 40
0.2
 40
0.2
 40
0.4
 40
0.4
 40
0.4
 40
0.4
 40
0.6
 40
0.6
 40
0.6
 40
0.6
 40
1.0
 40
1.0
 40
1.0
 40
1.0
 10
171.3961
 20
-9.5588
 30
0.0
 10
167.4142
 20
-7.6725
 30
0.0
 10
166.9048
 20
-4.7129
 30
0.0
 10
168.4002
 20
-3.0362
 30
0.0
 10
168.4002
 20
-3.0362
 30
0.0
 10
170.8495
 20
-1.1318
 30
0.0
 10
174.1514
 20
-3.583
 30
0.0
 10
176.5989
 20
-6.9023
 30
0.0
 10
176.5989
 20
-6.9023
 30
0.0
 10
178.505
 20
-9.5961
 30
0.0
 10
182.1107
 20
-15.1859
 30
0.0
 10
183.0105
 20
-19.5187
 30
0.0
 10
183.0105
 20
-19.5187
 30
0.0
 10
177.557
 20
-11.4798
 30
0.0
 10
173.4781
 20
-10.5814
 30
0.0
 10
171.3961
 20
-9.5588
 30
0.0
  0
SPLINE
  5
D5
330
1F
100
AcDbEntity
  8
layer 1
 62
     7
100
AcDbSpline
210
0.0
220
0.0
230
1.0
 70
    11
 71
     3
 72
    20
 73
    16
 74
     0
 42
0.0000000001
 43
0.0000000001
 12
1.0
 22
0.0
 32
0.0
 13
1.0
 23
0.0
 33
0.0
 40
0.0
 40
0.0
 40
0.0
 40
0.0
 40
0.2
 40
0.2
 40
0.2
 40
0.2
 40
0.4
 40
0.4
 40
0.4
 40
0.4
 40
0.6
 40
0.6
 40
0.6
 40
0.6
 40
1.0
 40
1.0
 40
1.0
 40
1.0
 10
164.5943
 20
-11.2492
 30
0.0
 10
166.0795
 20
-8.4178
 30
0.0
 10
171.3188
 20
-10.1274
 30
0.0
 10
174.5077
 20
-12.8537
 30
0.0
 10
174.5077
 20
-12.8537
 30
0.0
 10
176.0801
 20
-14.1757
 30
0.0
 10
179.3017
 20
-16.9907
 30
0.0
 10
181.448
 20
-21.9107
 30
0.0
 10
181.448
 20
-21.9107
 30
0.0
 10
175.5377
 20
-17.51
 30
0.0
 10
171.9944
 20
-16.334
 30
0.0
 10
169.0343
 20
-15.7061
 30
0.0
 10
169.0343
 20
-15.7061
 30
0.0
 10
169.0343
 20
-15.7063
 30
0.0
 10
162.3292
 20
-15.3462
 30
0.0
 10
164.5943
 20
-11.2492
 30
0.0
  0
SPLINE
  5
D6
330
1F
100
AcDbEntity
  8
layer 1
 62
     7
100
AcDbSpline
210
0.0
220
0.0
230
1.0
 70
    11
 71
     3
 72
    16
 73
    12
 74
     0
 42
0.0000000001
 43
0.0000000001
 12
1.0
 22
0.0
 32
0.0
 13
1.0
 23
0.0
 33
0.0
 40
0.0
 40
0.0
 40
0.0
 40
0.0
 40
0.25
 40
0.25
 40
0.25
 40
0.25
 40
0.5
 40
0.5
 40
0.5
 40
0.5
 40
1.0
 40
1.0
 40
1.0
 40
1.0
 10
186.3997
 20
-93.1181
 30
0.0
 10
186.2473
 20
-95.4434
 30
0.0
 10
185.592
 20
-99.4864
 30
0.0
 10
189.4193
 20
-99.5327
 30
0.0
 10
189.4193
 20
-99.5327
 30
0.0
 10
189.4193
 20
-99.5327
 30
0.0
 10
189.4193
 20
-74.2068
 30
0.0
 10
189.4193
 20
-74.2068
 30
0.0
 10
189.4193
 20
-74.2068
 30
0.0
 10
188.3667
 20
-81.3263
 30
0.0
 10
187.6263
 20
-84.2491
 30
0.0
 10
186.3997
 20
-93.1181
 30
0.0
  0
SPLINE
  5
D7
330
1F
100
AcDbEntity
  8
layer 1
 62
     7
100
AcDbSpline
210
0.0
220
0.0
230
1.0
 70
    11
 71
     3
 72
    16
 73
    12
 74
     0
 42
0.0000000001
 43
0.0000000001
 12
1.0
 22
0.0
 32
0.0
 13
1.0
 23
0.0
 33
0.0
 40
0.0
 40
0.0
 40
0.0
 40
0.0
 40
0.25
 40
0.25
 40
0.25
 40
0.25
 40
0.5
 40
0.5
 40
0.5
 40
0.5
 40
1.0
 40
1.0
 40
1.0
 40
1.0
 10
182.2039
 20
-65.8154
 30
0.0
 10
183.8261
 20
-69.3635
 30
0.0
 10
186.1509
 20
-72.3448
 30
0.0
 10
189.4288
 20
-72.4894
 30
0.0
 10
189.4288
 20
-72.4894
 30
0.0
 10
189.4288
 20
-72.4894
 30
0.0
 10
189.4288
 20
-54.3012
 30
0.0
 10
189.4288
 20
-54.3012
 30
0.0
 10
189.4288
 20
-54.3012
 30
0.0
 10
188.2892
 20
-59.2739
 30
0.0
 10
183.943
 20
-64.2307
 30
0.0
 10
182.2039
 20
-65.8154
 30
0.0
  0
SPLINE
  5
D8
330
1F
100
AcDbEntity
  8
layer 1
 62
     7
100
AcDbSpline
210
0.0
220
0.0
230
1.0
 70
    11
 71
     3
 72
    20
 73
    16
 74
     0
 42
0.0000000001
 43
0.0000000001
 12
1.0
 22
0.0
 32
0.0
 13
1.0
 23
0.0
 33
0.0
 40
0.0
 40
0.0
 40
0.0
 40
0.0
 40
0.2
 40
0.2
 40
0.2
 40
0.2
 40
0.4
 40
0.4
 40
0.4
 40
0.4
 40
0.6
 40
0.6
 40
0.6
 40
0.6
 40
1.0
 40
1.0
 40
1.0
 40
1.0
 10
180.907
 20
-89.8725
 30
0.0
 10
178.9274
 20
-93.242
 30
0.0
 10
178.0364
 20
-96.7887
 30
0.0
 10
180.4765
 20
-97.7784
 30
0.0
 10
180.4765
 20
-97.7784
 30
0.0
 10
183.2595
 20
-98.7559
 30
0.0
 10
184.7681
 20
-95.133
 30
0.0
 10
185.3985
 20
-91.8508
 30
0.0
 10
185.3985
 20
-91.8508
 30
0.0
 10
186.34
 20
-87.0605
 30
0.0
 10
186.7436
 20
-81.3457
 30
0.0
 10
186.5478
 20
-73.6045
 30
0.0
 10
186.5478
 20
-73.6045
 30
0.0
 10
185.3213
 20
-79.4187
 30
0.0
 10
182.6554
 20
-87.1813
 30
0.0
 10
180.907
 20
-89.8725
 30
0.0
  0
SPLINE
  5
D9
330
1F
100
AcDbEntity
  8
layer 1
 62
     7
100
AcDbSpline
210
0.0
220
0.0
230
1.0
 70
    11
 71
     3
 72
    24
 73
    20
 74
     0
 42
0.0000000001
 43
0.0000000001
 12
1.0
 22
0.0
 32
0.0
 13
1.0
 23
0.0
 33
0.0
 40
0.0
 40
0.0
 40
0.0
 40
0.0
 40
0.1666666666666667
 40
0.1666666666666667
 40
0.1666666666666667
 40
0.1666666666666667
 40
0.3333333333333333
 40
0.3333333333333333
 40
0.3333333333333333
 40
0.3333333333333333
 40
0.5
 40
0.5
 40
0.5
 40
0.5
 40
0.6666666666666666
 40
0.6666666666666666
 40
0.6666666666666666
 40
0.6666666666666666
 40
1.0
 40
1.0
 40
1.0
 40
1.0
 10
175.7944
 20
-85.5745
 30
0.0
 10
172.517
 20
-88.944
 30
0.0
 10
170.9206
 20
-91.7507
 30
0.0
 10
173.2973
 20
-93.4197
 30
0.0
 10
173.2973
 20
-93.4197
 30
0.0
 10
175.932
 20
-95.0646
 30
0.0
 10
178.2792
 20
-92.5022
 30
0.0
 10
180.2074
 20
-88.1447
 30
0.0
 10
180.2074
 20
-88.1447
 30
0.0
 10
181.335
 20
-85.3767
 30
0.0
 10
182.7476
 20
-82.192
 30
0.0
 10
184.7226
 20
-72.4831
 30
0.0
 10
184.7226
 20
-72.4831
 30
0.0
 10
181.4939
 20
-79.6322
 30
0.0
 10
177.8395
 20
-83.6247
 30
0.0
 10
175.7946
 20
-85.5743
 30
0.0
 10
175.7946
 20
-85.5743
 30
0.0
 10
175.7946
 20
-85.5743
 30
0.0
 10
175.7944
 20
-85.5745
 30
0.0
 10
175.7944
 20
-85.5745
 30
0.0
  0
SPLINE
  5
DA
330
1F
100
AcDbEntity
  8
layer 1
 62
     7
100
AcDbSpline
210
0.0
220
0.0
230
1.0
 70
    11
 71
     3
 72
    20
 73
    16
 74
     0
 42
0.0000000001
 43
0.0000000001
 12
1.0
 22
0.0
 32
0.0
 13
1.0
 23
0.0
 33
0.0
 40
0.0
 40
0.0
 40
0.0
 40
0.0
 40
0.2
 40
0.2
 40
0.2
 40
0.2
 40
0.4
 40
0.4
 40
0.4
 40
0.4
 40
0.6
 40
0.6
 40
0.6
 40
0.6
 40
1.0
 40
1.0
 40
1.0
 40
1.0
 10
171.3961
 20
-80.0115
 30
0.0
 10
167.4142
 20
-81.8978
 30
0.0
 10
166.9048
 20
-84.8574
 30
0.0
 10
168.4002
 20
-86.534
 30
0.0
 10
168.4002
 20
-86.534
 30
0.0
 10
170.8495
 20
-88.4385
 30
0.0
 10
174.1514
 20
-85.9873
 30
0.0
 10
176.5989
 20
-82.6679
 30
0.0
 10
176.5989
 20
-82.6679
 30
0.0
 10
178.505
 20
-79.9742
 30
0.0
 10
182.1107
 20
-74.3844
 30
0.0
 10
183.0105
 20
-70.0516
 30
0.0
 10
183.0105
 20
-70.0516
 30
0.0
 10
177.557
 20
-78.0905
 30
0.0
 10
173.4781
 20
-78.9888
 30
0.0
 10
171.3961
 20
-80.0115
 30
0.0
  0
SPLINE
  5
DB
330
1F
100
AcDbEntity
  8
layer 1
 62
     7
100
AcDbSpline
210
0.0
220
0.0
230
1.0
 70
    11
 71
     3
 72
    20
 73
    16
 74
     0
 42
0.0000000001
 43
0.0000000001
 12
1.0
 22
0.0
 32
0.0
 13
1.0
 23
0.0
 33
0.0
 40
0.0
 40
0.0
 40
0.0
 40
0.0
 40
0.2
 40
0.2
 40
0.2
 40
0.2
 40
0.4
 40
0.4
 40
0.4
 40
0.4
 40
0.6
 40
0.6
 40
0.6
 40
0.6
 40
1.0
 40
1.0
 40
1.0
 40
1.0
 10
164.5943
 20
-78.321
 30
0.0
 10
166.0795
 20
-81.1525
 30
0.0
 10
171.3188
 20
-79.4429
 30
0.0
 10
174.5077
 20
-76.7166
 30
0.0
 10
174.5077
 20
-76.7166
 30
0.0
 10
176.0801
 20
-75.3946
 30
0.0
 10
179.3017
 20
-72.5795
 30
0.0
 10
181.448
 20
-67.6596
 30
0.0
 10
181.448
 20
-67.6596
 30
0.0
 10
175.5377
 20
-72.0602
 30
0.0
 10
171.9944
 20
-73.2363
 30
0.0
 10
169.0343
 20
-73.8642
 30
0.0
 10
169.0343
 20
-73.8642
 30
0.0
 10
169.0343
 20
-73.8639
 30
0.0
 10
162.3292
 20
-74.2241
 30
0.0
 10
164.5943
 20
-78.321
 30
0.0
  0
SPLINE
  5
DC
330
1F
100
AcDbEntity
  8
layer 1
 62
     7
100
AcDbSpline
210
0.0
220
0.0
230
1.0
 70
    11
 71
     3
 72
    16
 73
    12
 74
     0
 42
0.0000000001
 43
0.0000000001
 12
1.0
 22
0.0
 32
0.0
 13
1.0
 23
0.0
 33
0.0
 40
0.0
 40
0.0
 40
0.0
 40
0.0
 40
0.25
 40
0.25
 40
0.25
 40
0.25
 40
0.5
 40
0.5
 40
0.5
 40
0.5
 40
1.0
 40
1.0
 40
1.0
 40
1.0
 10
186.602
 20
21.6611
 30
0.0
 10
186.4496
 20
19.3358
 30
0.0
 10
185.7942
 20
15.2928
 30
0.0
 10
189.6216
 20
15.2465
 30
0.0
 10
189.6216
 20
15.2465
 30
0.0
 10
189.6216
 20
15.2465
 30
0.0
 10
189.6216
 20
40.5724
 30
0.0
 10
189.6216
 20
40.5724
 30
0.0
 10
189.6216
 20
40.5724
 30
0.0
 10
188.5689
 20
33.4529
 30
0.0
 10
187.8285
 20
30.5301
 30
0.0
 10
186.602
 20
21.6611
 30
0.0
  0
SPLINE
  5
DD
330
1F
100
AcDbEntity
  8
layer 1
 62
     7
100
AcDbSpline
210
0.0
220
0.0
230
1.0
 70
    11
 71
     3
 72
    16
 73
    12
 74
     0
 42
0.0000000001
 43
0.0000000001
 12
1.0
 22
0.0
 32
0.0
 13
1.0
 23
0.0
 33
0.0
 40
0.0
 40
0.0
 40
0.0
 40
0.0
 40
0.25
 40
0.25
 40
0.25
 40
0.25
 40
0.5
 40
0.5
 40
0.5
 40
0.5
 40
1.0
 40
1.0
 40
1.0
 40
1.0
 10
182.4061
 20
48.9639
 30
0.0
 10
184.0283
 20
45.4157
 30
0.0
 10
186.3532
 20
42.4344
 30
0.0
 10
189.631
 20
42.2898
 30
0.0
 10
189.631
 20
42.2898
 30
0.0
 10
189.631
 20
42.2898
 30
0.0
 10
189.631
 20
60.478
 30
0.0
 10
189.631
 20
60.478
 30
0.0
 10
189.631
 20
60.478
 30
0.0
 10
188.4914
 20
55.5053
 30
0.0
 10
184.1452
 20
50.5485
 30
0.0
 10
182.4061
 20
48.9639
 30
0.0
  0
SPLINE
  5
DE
330
1F
100
AcDbEntity
  8
layer 1
 62
     7
100
AcDbSpline
210
0.0
220
0.0
230
1.0
 70
    11
 71
     3
 72
    20
 73
    16
 74
     0
 42
0.0000000001
 43
0.0000000001
 12
1.0
 22
0.0
 32
0.0
 13
1.0
 23
0.0
 33
0.0
 40
0.0
 40
0.0
 40
0.0
 40
0.0
 40
0.2
 40
0.2
 40
0.2
 40
0.2
 40
0.4
 40
0.4
 40
0.4
 40
0.4
 40
0.6
 40
0.6
 40
0.6
 40
0.6
 40
1.0
 40
1.0
 40
1.0
 40
1.0
 10
181.1093
 20
24.9067
 30
0.0
 10
179.1296
 20
21.5372
 30
0.0
 10
178.2386
 20
17.9905
 30
0.0
 10
180.6788
 20
17.0008
 30
0.0
 10
180.6788
 20
17.0008
 30
0.0
 10
183.4618
 20
16.0233
 30
0.0
 10
184.9703
 20
19.6462
 30
0.0
 10
185.6007
 20
22.9284
 30
0.0
 10
185.6007
 20
22.9284
 30
0.0
 10
186.5423
 20
27.7187
 30
0.0
 10
186.9458
 20
33.4335
 30
0.0
 10
186.75
 20
41.1747
 30
0.0
 10
186.75
 20
41.1747
 30
0.0
 10
185.5235
 20
35.3605
 30
0.0
 10
182.8576
 20
27.5979
 30
0.0
 10
181.1093
 20
24.9067
 30
0.0
  0
SPLINE
  5
DF
330
1F
100
AcDbEntity
  8
layer 1
 62
     7
100
AcDbSpline
210
0.0
220
0.0
230
1.0
 70
    11
 71
     3
 72
    24
 73
    20
 74
     0
 42
0.0000000001
 43
0.0000000001
 12
1.0
 22
0.0
 32
0.0
 13
1.0
 23
0.0
 33
0.0
 40
0.0
 40
0.0
 40
0.0
 40
0.0
 40
0.1666666666666667
 40
0.1666666666666667
 40
0.1666666666666667
 40
0.1666666666666667
 40
0.3333333333333333
 40
0.3333333333333333
 40
0.3333333333333333
 40
0.3333333333333333
 40
0.5
 40
0.5
 40
0.5
 40
0.5
 40
0.6666666666666666
 40
0.6666666666666666
 40
0.6666666666666666
 40
0.6666666666666666
 40
1.0
 40
1.0
 40
1.0
 40
1.0
 10
175.9966
 20
29.2047
 30
0.0
 10
172.7192
 20
25.8353
 30
0.0
 10
171.1228
 20
23.0285
 30
0.0
 10
173.4995
 20
21.3595
 30
0.0
 10
173.4995
 20
21.3595
 30
0.0
 10
176.1343
 20
19.7146
 30
0.0
 10
178.4814
 20
22.277
 30
0.0
 10
180.4097
 20
26.6345
 30
0.0
 10
180.4097
 20
26.6345
 30
0.0
 10
181.5373
 20
29.4025
 30
0.0
 10
182.9499
 20
32.5872
 30
0.0
 10
184.9249
 20
42.2961
 30
0.0
 10
184.9249
 20
42.2961
 30
0.0
 10
181.6961
 20
35.147
 30
0.0
 10
178.0417
 20
31.1545
 30
0.0
 10
175.9968
 20
29.2049
 30
0.0
 10
175.9968
 20
29.2049
 30
0.0
 10
175.9968
 20
29.2049
 30
0.0
 10
175.9966
 20
29.2047
 30
0.0
 10
175.9966
 20
29.2047
 30
0.0
  0
SPLINE
  5
E0
330
1F
100
AcDbEntity
  8
layer 1
 62
     7
100
AcDbSpline
210
0.0
220
0.0
230
1.0
 70
    11
 71
     3
 72
    20
 73
    16
 74
     0
 42
0.0000000001
 43
0.0000000001
 12
1.0
 22
0.0
 32
0.0
 13
1.0
 23
0.0
 33
0.0
 40
0.0
 40
0.0
 40
0.0
 40
0.0
 40
0.2
 40
0.2
 40
0.2
 40
0.2
 40
0.4
 40
0.4
 40
0.4
 40
0.4
 40
0.6
 40
0.6
 40
0.6
 40
0.6
 40
1.0
 40
1.0
 40
1.0
 40
1.0
 10
171.5983
 20
34.7677
 30
0.0
 10
167.6164
 20
32.8814
 30
0.0
 10
167.107
 20
29.9218
 30
0.0
 10
168.6024
 20
28.2452
 30
0.0
 10
168.6024
 20
28.2452
 30
0.0
 10
171.0518
 20
26.3407
 30
0.0
 10
174.3536
 20
28.7919
 30
0.0
 10
176.8011
 20
32.1113
 30
0.0
 10
176.8011
 20
32.1113
 30
0.0
 10
178.7072
 20
34.805
 30
0.0
 10
182.313
 20
40.3948
 30
0.0
 10
183.2127
 20
44.7276
 30
0.0
 10
183.2127
 20
44.7276
 30
0.0
 10
177.7592
 20
36.6888
 30
0.0
 10
173.6803
 20
35.7904
 30
0.0
 10
171.5983
 20
34.7677
 30
0.0
  0
SPLINE
  5
E1
330
1F
100
AcDbEntity
  8
layer 1
 62
     7
100
AcDbSpline
210
0.0
220
0.0
230
1.0
 70
    11
 71
     3
 72
    20
 73
    16
 74
     0
 42
0.0000000001
 43
0.0000000001
 12
1.0
 22
0.0
 32
0.0
 13
1.0
 23
0.0
 33
0.0
 40
0.0
 40
0.0
 40
0.0
 40
0.0
 40
0.2
 40
0.2
 40
0.2
 40
0.2
 40
0.4
 40
0.4
 40
0.4
 40
0.4
 40
0.6
 40
0.6
 40
0.6
 40
0.6
 40
1.0
 40
1.0
 40
1.0
 40
1.0
 10
164.7965
 20
36.4582
 30
0.0
 10
166.2818
 20
33.6267
 30
0.0
 10
171.521
 20
35.3363
 30
0.0
 10
174.7099
 20
38.0626
 30
0.0
 10
174.7099
 20
38.0626
 30
0.0
 10
176.2823
 20
39.3846
 30
0.0
 10
179.5039
 20
42.1997
 30
0.0
 10
181.6502
 20
47.1196
 30
0.0
 10
181.6502
 20
47.1196
 30
0.0
 10
175.7399
 20
42.719
 30
0.0
 10
172.1967
 20
41.5429
 30
0.0
 10
169.2366
 20
40.915
 30
0.0
 10
169.2366
 20
40.915
 30
0.0
 10
169.2366
 20
40.9153
 30
0.0
 10
162.5314
 20
40.5551
 30
0.0
 10
164.7965
 20
36.4582
 30
0.0
  0
SPLINE
  5
E2
330
1F
100
AcDbEntity
  8
layer 1
 62
     7
100
AcDbSpline
210
0.0
220
0.0
230
1.0
 70
    11
 71
     3
 72
    16
 73
    12
 74
     0
 42
0.0000000001
 43
0.0000000001
 12
1.0
 22
0.0
 32
0.0
 13
1.0
 23
0.0
 33
0.0
 40
0.0
 40
0.0
 40
0.0
 40
0.0
 40
0.25
 40
0.25
 40
0.25
 40
0.25
 40
0.5
 40
0.5
 40
0.5
 40
0.5
 40
1.0
 40
1.0
 40
1.0
 40
1.0
 10
141.2374
 20
-98.6053
 30
0.0
 10
138.9121
 20
-98.4529
 30
0.0
 10
134.8691
 20
-97.7975
 30
0.0
 10
134.8228
 20
-101.6249
 30
0.0
 10
134.8228
 20
-101.6249
 30
0.0
 10
134.8228
 20
-101.6249
 30
0.0
 10
163.1268
 20
-101.6249
 30
0.0
 10
163.1268
 20
-101.6249
 30
0.0
 10
163.1268
 20
-101.6249
 30
0.0
 10
156.0073
 20
-100.5722
 30
0.0
 10
150.1064
 20
-99.8318
 30
0.0
 10
141.2374
 20
-98.6053
 30
0.0
  0
SPLINE
  5
E3
330
1F
100
AcDbEntity
  8
layer 1
 62
     7
100
AcDbSpline
210
0.0
220
0.0
230
1.0
 70
    11
 71
     3
 72
    16
 73
    12
 74
     0
 42
0.0000000001
 43
0.0000000001
 12
1.0
 22
0.0
 32
0.0
 13
1.0
 23
0.0
 33
0.0
 40
0.0
 40
0.0
 40
0.0
 40
0.0
 40
0.25
 40
0.25
 40
0.25
 40
0.25
 40
0.5
 40
0.5
 40
0.5
 40
0.5
 40
1.0
 40
1.0
 40
1.0
 40
1.0
 10
171.5183
 20
-94.4094
 30
0.0
 10
167.9443
 20
-95.0397
 30
0.0
 10
164.393
 20
-98.3565
 30
0.0
 10
164.2484
 20
-101.6343
 30
0.0
 10
164.2484
 20
-101.6343
 30
0.0
 10
164.2484
 20
-101.6343
 30
0.0
 10
184.3938
 20
-101.6343
 30
0.0
 10
184.3938
 20
-101.6343
 30
0.0
 10
184.3938
 20
-101.6343
 30
0.0
 10
179.4211
 20
-100.4948
 30
0.0
 10
173.1029
 20
-96.1486
 30
0.0
 10
171.5183
 20
-94.4094
 30
0.0
  0
SPLINE
  5
E4
330
1F
100
AcDbEntity
  8
layer 1
 62
     7
100
AcDbSpline
210
0.0
220
0.0
230
1.0
 70
    11
 71
     3
 72
    20
 73
    16
 74
     0
 42
0.0000000001
 43
0.0000000001
 12
1.0
 22
0.0
 32
0.0
 13
1.0
 23
0.0
 33
0.0
 40
0.0
 40
0.0
 40
0.0
 40
0.0
 40
0.2
 40
0.2
 40
0.2
 40
0.2
 40
0.4
 40
0.4
 40
0.4
 40
0.4
 40
0.6
 40
0.6
 40
0.6
 40
0.6
 40
1.0
 40
1.0
 40
1.0
 40
1.0
 10
144.979
 20
-92.2534
 30
0.0
 10
141.6096
 20
-90.2738
 30
0.0
 10
137.6535
 20
-89.2705
 30
0.0
 10
136.9113
 20
-92.3145
 30
0.0
 10
136.9113
 20
-92.3145
 30
0.0
 10
135.9338
 20
-95.0975
 30
0.0
 10
139.6085
 20
-96.4437
 30
0.0
 10
142.8907
 20
-97.0742
 30
0.0
 10
142.8907
 20
-97.0742
 30
0.0
 10
150.9236
 20
-98.4243
 30
0.0
 10
155.2735
 20
-99.04
 30
0.0
 10
163.3881
 20
-98.7533
 30
0.0
 10
163.3881
 20
-98.7533
 30
0.0
 10
157.5739
 20
-97.5268
 30
0.0
 10
147.6702
 20
-94.0018
 30
0.0
 10
144.979
 20
-92.2534
 30
0.0
  0
SPLINE
  5
E5
330
1F
100
AcDbEntity
  8
layer 1
 62
     7
100
AcDbSpline
210
0.0
220
0.0
230
1.0
 70
    11
 71
     3
 72
    24
 73
    20
 74
     0
 42
0.0000000001
 43
0.0000000001
 12
1.0
 22
0.0
 32
0.0
 13
1.0
 23
0.0
 33
0.0
 40
0.0
 40
0.0
 40
0.0
 40
0.0
 40
0.1666666666666667
 40
0.1666666666666667
 40
0.1666666666666667
 40
0.1666666666666667
 40
0.3333333333333333
 40
0.3333333333333333
 40
0.3333333333333333
 40
0.3333333333333333
 40
0.5
 40
0.5
 40
0.5
 40
0.5
 40
0.6666666666666666
 40
0.6666666666666666
 40
0.6666666666666666
 40
0.6666666666666666
 40
1.0
 40
1.0
 40
1.0
 40
1.0
 10
149.7518
 20
-86.8753
 30
0.0
 10
146.3824
 20
-83.5979
 30
0.0
 10
143.5756
 20
-82.0015
 30
0.0
 10
141.9066
 20
-84.3782
 30
0.0
 10
141.9066
 20
-84.3782
 30
0.0
 10
140.2618
 20
-87.013
 30
0.0
 10
142.8241
 20
-89.3602
 30
0.0
 10
147.1816
 20
-91.2884
 30
0.0
 10
147.1816
 20
-91.2884
 30
0.0
 10
149.9496
 20
-92.416
 30
0.0
 10
155.004
 20
-94.5148
 30
0.0
 10
164.7128
 20
-96.4898
 30
0.0
 10
164.7128
 20
-96.4898
 30
0.0
 10
157.5638
 20
-93.2611
 30
0.0
 10
151.7017
 20
-88.9204
 30
0.0
 10
149.752
 20
-86.8755
 30
0.0
 10
149.752
 20
-86.8755
 30
0.0
 10
149.752
 20
-86.8755
 30
0.0
 10
149.7518
 20
-86.8753
 30
0.0
 10
149.7518
 20
-86.8753
 30
0.0
  0
SPLINE
  5
E6
330
1F
100
AcDbEntity
  8
layer 1
 62
     7
100
AcDbSpline
210
0.0
220
0.0
230
1.0
 70
    11
 71
     3
 72
    20
 73
    16
 74
     0
 42
0.0000000001
 43
0.0000000001
 12
1.0
 22
0.0
 32
0.0
 13
1.0
 23
0.0
 33
0.0
 40
0.0
 40
0.0
 40
0.0
 40
0.0
 40
0.2
 40
0.2
 40
0.2
 40
0.2
 40
0.4
 40
0.4
 40
0.4
 40
0.4
 40
0.6
 40
0.6
 40
0.6
 40
0.6
 40
1.0
 40
1.0
 40
1.0
 40
1.0
 10
155.8694
 20
-82.352
 30
0.0
 10
153.9831
 20
-78.3702
 30
0.0
 10
151.2135
 20
-76.9592
 30
0.0
 10
148.8769
 20
-79.1134
 30
0.0
 10
148.8769
 20
-79.1134
 30
0.0
 10
146.9724
 20
-81.5627
 30
0.0
 10
149.6462
 20
-85.2446
 30
0.0
 10
152.9655
 20
-87.6921
 30
0.0
 10
152.9655
 20
-87.6921
 30
0.0
 10
155.6593
 20
-89.5981
 30
0.0
 10
162.6788
 20
-93.5881
 30
0.0
 10
167.0116
 20
-94.4878
 30
0.0
 10
167.0116
 20
-94.4878
 30
0.0
 10
158.9727
 20
-89.0343
 30
0.0
 10
156.892
 20
-84.434
 30
0.0
 10
155.8694
 20
-82.352
 30
0.0
  0
SPLINE
  5
E7
330
1F
100
AcDbEntity
  8
layer 1
 62
     7
100
AcDbSpline
210
0.0
220
0.0
230
1.0
 70
    11
 71
     3
 72
    24
 73
    20
 74
     0
 42
0.0000000001
 43
0.0000000001
 12
1.0
 22
0.0
 32
0.0
 13
1.0
 23
0.0
 33
0.0
 40
0.0
 40
0.0
 40
0.0
 40
0.0
 40
0.1666666666666667
 40
0.1666666666666667
 40
0.1666666666666667
 40
0.1666666666666667
 40
0.3333333333333333
 40
0.3333333333333333
 40
0.3333333333333333
 40
0.3333333333333333
 40
0.5
 40
0.5
 40
0.5
 40
0.5
 40
0.6666666666666666
 40
0.6666666666666666
 40
0.6666666666666666
 40
0.6666666666666666
 40
1.0
 40
1.0
 40
1.0
 40
1.0
 10
162.6914
 20
-79.1265
 30
0.0
 10
162.0658
 20
-74.811
 30
0.0
 10
159.6668
 20
-73.9559
 30
0.0
 10
157.8492
 20
-74.9609
 30
0.0
 10
157.8492
 20
-74.9609
 30
0.0
 10
155.0178
 20
-76.4461
 30
0.0
 10
156.7274
 20
-81.6854
 30
0.0
 10
159.4537
 20
-84.8742
 30
0.0
 10
159.4537
 20
-84.8742
 30
0.0
 10
160.7757
 20
-86.4466
 30
0.0
 10
164.7179
 20
-91.1779
 30
0.0
 10
169.9403
 20
-92.9676
 30
0.0
 10
169.9403
 20
-92.9676
 30
0.0
 10
165.1272
 20
-87.5514
 30
0.0
 10
163.0468
 20
-81.7647
 30
0.0
 10
162.6912
 20
-79.1265
 30
0.0
 10
162.6912
 20
-79.1265
 30
0.0
 10
162.6912
 20
-79.1265
 30
0.0
 10
162.6914
 20
-79.1265
 30
0.0
 10
162.6914
 20
-79.1265
 30
0.0
  0
SPLINE
  5
E8
330
1F
100
AcDbEntity
  8
layer 1
 62
     7
100
AcDbSpline
210
0.0
220
0.0
230
1.0
 70
    11
 71
     3
 72
    16
 73
    12
 74
     0
 42
0.0000000001
 43
0.0000000001
 12
1.0
 22
0.0
 32
0.0
 13
1.0
 23
0.0
 33
0.0
 40
0.0
 40
0.0
 40
0.0
 40
0.0
 40
0.25
 40
0.25
 40
0.25
 40
0.25
 40
0.5
 40
0.5
 40
0.5
 40
0.5
 40
1.0
 40
1.0
 40
1.0
 40
1.0
 10
125.4446
 20
-98.6053
 30
0.0
 10
127.7699
 20
-98.4529
 30
0.0
 10
131.8129
 20
-97.7975
 30
0.0
 10
131.8592
 20
-101.6249
 30
0.0
 10
131.8592
 20
-101.6249
 30
0.0
 10
131.8592
 20
-101.6249
 30
0.0
 10
103.5552
 20
-101.6249
 30
0.0
 10
103.5552
 20
-101.6249
 30
0.0
 10
103.5552
 20
-101.6249
 30
0.0
 10
110.6747
 20
-100.5722
 30
0.0
 10
116.5756
 20
-99.8318
 30
0.0
 10
125.4446
 20
-98.6053
 30
0.0
  0
SPLINE
  5
E9
330
1F
100
AcDbEntity
  8
layer 1
 62
     7
100
AcDbSpline
210
0.0
220
0.0
230
1.0
 70
    11
 71
     3
 72
    16
 73
    12
 74
     0
 42
0.0000000001
 43
0.0000000001
 12
1.0
 22
0.0
 32
0.0
 13
1.0
 23
0.0
 33
0.0
 40
0.0
 40
0.0
 40
0.0
 40
0.0
 40
0.25
 40
0.25
 40
0.25
 40
0.25
 40
0.5
 40
0.5
 40
0.5
 40
0.5
 40
1.0
 40
1.0
 40
1.0
 40
1.0
 10
95.1637
 20
-94.4094
 30
0.0
 10
98.7377
 20
-95.0397
 30
0.0
 10
102.289
 20
-98.3565
 30
0.0
 10
102.4336
 20
-101.6343
 30
0.0
 10
102.4336
 20
-101.6343
 30
0.0
 10
102.4336
 20
-101.6343
 30
0.0
 10
82.2882
 20
-101.6343
 30
0.0
 10
82.2882
 20
-101.6343
 30
0.0
 10
82.2882
 20
-101.6343
 30
0.0
 10
87.2609
 20
-100.4948
 30
0.0
 10
93.5791
 20
-96.1486
 30
0.0
 10
95.1637
 20
-94.4094
 30
0.0
  0
SPLINE
  5
EA
330
1F
100
AcDbEntity
  8
layer 1
 62
     7
100
AcDbSpline
210
0.0
220
0.0
230
1.0
 70
    11
 71
     3
 72
    20
 73
    16
 74
     0
 42
0.0000000001
 43
0.0000000001
 12
1.0
 22
0.0
 32
0.0
 13
1.0
 23
0.0
 33
0.0
 40
0.0
 40
0.0
 40
0.0
 40
0.0
 40
0.2
 40
0.2
 40
0.2
 40
0.2
 40
0.4
 40
0.4
 40
0.4
 40
0.4
 40
0.6
 40
0.6
 40
0.6
 40
0.6
 40
1.0
 40
1.0
 40
1.0
 40
1.0
 10
121.703
 20
-92.2534
 30
0.0
 10
125.0724
 20
-90.2738
 30
0.0
 10
129.0285
 20
-89.2705
 30
0.0
 10
129.7708
 20
-92.3145
 30
0.0
 10
129.7708
 20
-92.3145
 30
0.0
 10
130.7482
 20
-95.0975
 30
0.0
 10
127.0735
 20
-96.4437
 30
0.0
 10
123.7913
 20
-97.0742
 30
0.0
 10
123.7913
 20
-97.0742
 30
0.0
 10
115.7584
 20
-98.4243
 30
0.0
 10
111.4085
 20
-99.04
 30
0.0
 10
103.294
 20
-98.7533
 30
0.0
 10
103.294
 20
-98.7533
 30
0.0
 10
109.1081
 20
-97.5268
 30
0.0
 10
119.0118
 20
-94.0018
 30
0.0
 10
121.703
 20
-92.2534
 30
0.0
  0
SPLINE
  5
EB
330
1F
100
AcDbEntity
  8
layer 1
 62
     7
100
AcDbSpline
210
0.0
220
0.0
230
1.0
 70
    11
 71
     3
 72
    24
 73
    20
 74
     0
 42
0.0000000001
 43
0.0000000001
 12
1.0
 22
0.0
 32
0.0
 13
1.0
 23
0.0
 33
0.0
 40
0.0
 40
0.0
 40
0.0
 40
0.0
 40
0.1666666666666667
 40
0.1666666666666667
 40
0.1666666666666667
 40
0.1666666666666667
 40
0.3333333333333333
 40
0.3333333333333333
 40
0.3333333333333333
 40
0.3333333333333333
 40
0.5
 40
0.5
 40
0.5
 40
0.5
 40
0.6666666666666666
 40
0.6666666666666666
 40
0.6666666666666666
 40
0.6666666666666666
 40
1.0
 40
1.0
 40
1.0
 40
1.0
 10
116.9302
 20
-86.8753
 30
0.0
 10
120.2996
 20
-83.5979
 30
0.0
 10
123.1064
 20
-82.0015
 30
0.0
 10
124.7754
 20
-84.3782
 30
0.0
 10
124.7754
 20
-84.3782
 30
0.0
 10
126.4202
 20
-87.013
 30
0.0
 10
123.8579
 20
-89.3602
 30
0.0
 10
119.5004
 20
-91.2884
 30
0.0
 10
119.5004
 20
-91.2884
 30
0.0
 10
116.7324
 20
-92.416
 30
0.0
 10
111.678
 20
-94.5148
 30
0.0
 10
101.9692
 20
-96.4898
 30
0.0
 10
101.9692
 20
-96.4898
 30
0.0
 10
109.1182
 20
-93.2611
 30
0.0
 10
114.9804
 20
-88.9204
 30
0.0
 10
116.93
 20
-86.8755
 30
0.0
 10
116.93
 20
-86.8755
 30
0.0
 10
116.93
 20
-86.8755
 30
0.0
 10
116.9302
 20
-86.8753
 30
0.0
 10
116.9302
 20
-86.8753
 30
0.0
  0
SPLINE
  5
EC
330
1F
100
AcDbEntity
  8
layer 1
 62
     7
100
AcDbSpline
210
0.0
220
0.0
230
1.0
 70
    11
 71
     3
 72
    20
 73
    16
 74
     0
 42
0.0000000001
 43
0.0000000001
 12
1.0
 22
0.0
 32
0.0
 13
1.0
 23
0.0
 33
0.0
 40
0.0
 40
0.0
 40
0.0
 40
0.0
 40
0.2
 40
0.2
 40
0.2
 40
0.2
 40
0.4
 40
0.4
 40
0.4
 40
0.4
 40
0.6
 40
0.6
 40
0.6
 40
0.6
 40
1.0
 40
1.0
 40
1.0
 40
1.0
 10
110.8126
 20
-82.352
 30
0.0
 10
112.6989
 20
-78.3702
 30
0.0
 10
115.4685
 20
-76.9592
 30
0.0
 10
117.8051
 20
-79.1134
 30
0.0
 10
117.8051
 20
-79.1134
 30
0.0
 10
119.7096
 20
-81.5627
 30
0.0
 10
117.0359
 20
-85.2446
 30
0.0
 10
113.7165
 20
-87.6921
 30
0.0
 10
113.7165
 20
-87.6921
 30
0.0
 10
111.0227
 20
-89.5981
 30
0.0
 10
104.0033
 20
-93.5881
 30
0.0
 10
99.6704
 20
-94.4878
 30
0.0
 10
99.6704
 20
-94.4878
 30
0.0
 10
107.7093
 20
-89.0343
 30
0.0
 10
109.79
 20
-84.434
 30
0.0
 10
110.8126
 20
-82.352
 30
0.0
  0
SPLINE
  5
ED
330
1F
100
AcDbEntity
  8
layer 1
 62
     7
100
AcDbSpline
210
0.0
220
0.0
230
1.0
 70
    11
 71
     3
 72
    24
 73
    20
 74
     0
 42
0.0000000001
 43
0.0000000001
 12
1.0
 22
0.0
 32
0.0
 13
1.0
 23
0.0
 33
0.0
 40
0.0
 40
0.0
 40
0.0
 40
0.0
 40
0.1666666666666667
 40
0.1666666666666667
 40
0.1666666666666667
 40
0.1666666666666667
 40
0.3333333333333333
 40
0.3333333333333333
 40
0.3333333333333333
 40
0.3333333333333333
 40
0.5
 40
0.5
 40
0.5
 40
0.5
 40
0.6666666666666666
 40
0.6666666666666666
 40
0.6666666666666666
 40
0.6666666666666666
 40
1.0
 40
1.0
 40
1.0
 40
1.0
 10
103.9906
 20
-79.1265
 30
0.0
 10
104.6162
 20
-74.811
 30
0.0
 10
107.0152
 20
-73.9559
 30
0.0
 10
108.8328
 20
-74.9609
 30
0.0
 10
108.8328
 20
-74.9609
 30
0.0
 10
111.6642
 20
-76.4461
 30
0.0
 10
109.9546
 20
-81.6854
 30
0.0
 10
107.2283
 20
-84.8742
 30
0.0
 10
107.2283
 20
-84.8742
 30
0.0
 10
105.9063
 20
-86.4466
 30
0.0
 10
101.9641
 20
-91.1779
 30
0.0
 10
96.7417
 20
-92.9676
 30
0.0
 10
96.7417
 20
-92.9676
 30
0.0
 10
101.5548
 20
-87.5514
 30
0.0
 10
103.6352
 20
-81.7647
 30
0.0
 10
103.9908
 20
-79.1265
 30
0.0
 10
103.9908
 20
-79.1265
 30
0.0
 10
103.9908
 20
-79.1265
 30
0.0
 10
103.9906
 20
-79.1265
 30
0.0
 10
103.9906
 20
-79.1265
 30
0.0
  0
ENDSEC
  0
SECTION
  2
OBJECTS
  0
DICTIONARY
  5
C
330
0
100
AcDbDictionary
281
     1
  3
ACAD_GROUP
350
D
  3
ACAD_LAYOUT
350
1A
  3
ACAD_MATERIAL
350
3B
  3
ACAD_MLEADERSTYLE
350
10F
  3
ACAD_MLINESTYLE
350
17
  3
ACAD_PLOTSETTINGS
350
19
  3
ACAD_PLOTSTYLENAME
350
E
  3
ACAD_TABLESTYLE
350
10E
  3
ACAD_VISUALSTYLE
350
2A
  0
DICTIONARY
  5
D
102
{ACAD_REACTORS
330
C
102
}
330
C
100
AcDbDictionary
281
     1
  0
DICTIONARY
  5
1A
102
{ACAD_REACTORS
330
C
102
}
330
C
100
AcDbDictionary
281
     1
  3
Layout1
350
1E
  3
Layout2
350
26
  3
Model
350
22
  0
DICTIONARY
  5
3B
102
{ACAD_REACTORS
330
C
102
}
330
C
100
AcDbDictionary
281
     1
  3
ByBlock
350
3D
  3
ByLayer
350
3C
  3
Global
350
3E
  0
DICTIONARY
  5
10F
102
{ACAD_REACTORS
330
C
102
}
330
C
100
AcDbDictionary
281
     1
  0
DICTIONARY
  5
17
102
{ACAD_REACTORS
330
C
102
}
330
C
100
AcDbDictionary
281
     1
  3
Standard
350
18
  0
DICTIONARY
  5
19
102
{ACAD_REACTORS
330
C
102
}
330
C
100
AcDbDictionary
281
     1
  0
ACDBDICTIONARYWDFLT
  5
E
102
{ACAD_REACTORS
330
C
102
}
330
C
100
AcDbDictionary
281
     1
  3
Normal
350
F
100
AcDbDictionaryWithDefault
340
F
  0
DICTIONARY
  5
10E
102
{ACAD_REACTORS
330
C
102
}
330
C
100
AcDbDictionary
281
     1
  0
DICTIONARY
  5
2A
102
{ACAD_REACTORS
330
C
102
}
330
C
100
AcDbDictionary
281
     1
  3
2dWireframe
350
2F
  3
3D Hidden
350
31
  3
3dWireframe
350
30
  3
Basic
350
32
  3
Brighten
350
36
  3
ColorChange
350
3A
  3
Conceptual
350
34
  3
Dim
350
35
  3
Facepattern
350
39
  3
Flat
350
2B
  3
FlatWithEdges
350
2C
  3
Gouraud
350
2D
  3
GouraudWithEdges
350
2E
  3
Linepattern
350
38
  3
Realistic
350
33
  3
Thicken
350
37
  0
LAYOUT
  5
1E
102
{ACAD_REACTORS
330
1A
102
}
330
1A
100
AcDbPlotSettings
  1

  2
none_device
  4

  6

 40
0.0
 41
0.0
 42
0.0
 43
0.0
 44
0.0
 45
0.0
 46
0.0
 47
0.0
 48
0.0
 49
0.0
140
0.0
141
0.0
142
1.0
143
1.0
 70
   688
 72
     0
 73
     0
 74
     5
  7

 75
    16
 76
     0
 77
     2
 78
   300
147
1.0
148
0.0
149
0.0
100
AcDbLayout
  1
Layout1
 70
     1
 71
     1
 10
0.0
 20
0.0
 11
12.0
 21
9.0
 12
0.0
 22
0.0
 32
0.0
 14
1.000000000000000E+20
 24
1.000000000000000E+20
 34
1.000000000000000E+20
 15
-1.000000000000000E+20
 25
-1.000000000000000E+20
 35
-1.000000000000000E+20
146
0.0
 13
0.0
 23
0.0
 33
0.0
 16
1.0
 26
0.0
 36
0.0
 17
0.0
 27
1.0
 37
0.0
 76
     0
330
1B
  0
LAYOUT
  5
26
102
{ACAD_REACTORS
330
1A
102
}
330
1A
100
AcDbPlotSettings
  1

  2
none_device
  4

  6

 40
0.0
 41
0.0
 42
0.0
 43
0.0
 44
0.0
 45
0.0
 46
0.0
 47
0.0
 48
0.0
 49
0.0
140
0.0
141
0.0
142
1.0
143
1.0
 70
   688
 72
     0
 73
     0
 74
     5
  7

 75
    16
 76
     0
 77
     2
 78
   300
147
1.0
148
0.0
149
0.0
100
AcDbLayout
  1
Layout2
 70
     1
 71
     2
 10
0.0
 20
0.0
 11
0.0
 21
0.0
 12
0.0
 22
0.0
 32
0.0
 14
0.0
 24
0.0
 34
0.0
 15
0.0
 25
0.0
 35
0.0
146
0.0
 13
0.0
 23
0.0
 33
0.0
 16
1.0
 26
0.0
 36
0.0
 17
0.0
 27
1.0
 37
0.0
 76
     0
330
23
  0
LAYOUT
  5
22
102
{ACAD_REACTORS
330
1A
102
}
330
1A
100
AcDbPlotSettings
  1

  2
none_device
  4

  6

 40
0.0
 41
0.0
 42
0.0
 43
0.0
 44
0.0
 45
0.0
 46
0.0
 47
0.0
 48
0.0
 49
0.0
140
0.0
141
0.0
142
1.0
143
1.0
 70
  1712
 72
     0
 73
     0
 74
     0
  7

 75
     0
 76
     0
 77
     2
 78
   300
147
1.0
148
0.0
149
0.0
100
AcDbLayout
  1
Model
 70
     1
 71
     0
 10
0.0
 20
0.0
 11
12.0
 21
9.0
 12
0.0
 22
0.0
 32
0.0
 14
70.412
 24
-106.465
 34
0.0
 15
196.3318
 25
131.8711
 35
0.0
146
0.0
 13
0.0
 23
0.0
 33
0.0
 16
1.0
 26
0.0
 36
0.0
 17
0.0
 27
1.0
 37
0.0
 76
     0
330
1F
331
29
  0
MATERIAL
  5
3D
102
{ACAD_REACTORS
330
3B
102
}
330
3B
100
AcDbMaterial
  1
ByBlock
 72
     1
 94
      127
  0
MATERIAL
  5
3C
102
{ACAD_REACTORS
330
3B
102
}
330
3B
100
AcDbMaterial
  1
ByLayer
 72
     1
 94
      127
  0
MATERIAL
  5
3E
102
{ACAD_REACTORS
330
3B
102
}
330
3B
100
AcDbMaterial
  1
Global
 72
     1
 94
      127
  0
MLINESTYLE
  5
18
102
{ACAD_REACTORS
330
17
102
}
330
17
100
AcDbMlineStyle
  2
Standard
 70
     0
  3

 62
   256
 51
90.0
 52
90.0
 71
     2
 49
0.5
 62
   256
  6
BYLAYER
 49
-0.5
 62
   256
  6
BYLAYER
  0
ACDBPLACEHOLDER
  5
F
102
{ACAD_REACTORS
330
E
102
}
330
E
  0
VISUALSTYLE
  5
2F
102
{ACAD_REACTORS
330
2A
102
}
102
{ACAD_XDICTIONARY
360
F6
102
}
330
2A
100
AcDbVisualStyle
  2
2dWireframe
 70
     4
 71
     0
 72
     2
 73
     0
 90
        0
 40
-0.6
 41
-30.0
 62
     5
 63
     7
421
 16777215
 74
     1
 91
        4
 64
     7
 65
   257
 75
     1
175
     1
 42
1.0
 92
        0
 66
   257
 43
1.0
 76
     1
 77
     6
 78
     2
 67
     7
 79
     5
170
     0
171
     0
290
     0
174
     0
 93
        1
 44
0.0
173
     0
291
     0
 45
0.0
  0
VISUALSTYLE
  5
31
102
{ACAD_REACTORS
330
2A
102
}
102
{ACAD_XDICTIONARY
360
FA
102
}
330
2A
100
AcDbVisualStyle
  2
3D Hidden
 70
     6
 71
     1
 72
     2
 73
     2
 90
        0
 40
-0.6
 41
-30.0
 62
     5
 63
     7
421
 16777215
 74
     2
 91
        2
 64
     7
 65
   257
 75
     2
175
     1
 42
40.0
 92
        0
 66
   257
 43
1.0
 76
     1
 77
     6
 78
     2
 67
     7
 79
     3
170
     0
171
     0
290
     0
174
     0
 93
        1
 44
0.0
173
     0
291
     0
 45
0.0
  0
VISUALSTYLE
  5
30
102
{ACAD_REACTORS
330
2A
102
}
102
{ACAD_XDICTIONARY
360
F8
102
}
330
2A
100
AcDbVisualStyle
  2
3dWireframe
 70
     5
 71
     0
 72
     2
 73
     0
 90
        0
 40
-0.6
 41
-30.0
 62
     5
 63
     7
421
 16777215
 74
     1
 91
        4
 64
     7
 65
   257
 75
     1
175
     1
 42
1.0
 92
        0
 66
   257
 43
1.0
 76
     1
 77
     6
 78
     2
 67
     7
 79
     5
170
     0
171
     0
290
     0
174
     0
 93
        1
 44
0.0
173
     0
291
     0
 45
0.0
  0
VISUALSTYLE
  5
32
102
{ACAD_REACTORS
330
2A
102
}
102
{ACAD_XDICTIONARY
360
FC
102
}
330
2A
100
AcDbVisualStyle
  2
Basic
 70
     7
 71
     1
 72
     0
 73
     1
 90
        0
 40
-0.6
 41
-30.0
 62
     5
 63
     7
421
 16777215
 74
     0
 91
        4
 64
     7
 65
   257
 75
     1
175
     1
 42
1.0
 92
        8
 66
     7
 43
1.0
 76
     1
 77
     6
 78
     2
 67
     7
 79
     5
170
     0
171
     0
290
     0
174
     0
 93
        1
 44
0.0
173
     0
291
     1
 45
0.0
  0
VISUALSTYLE
  5
36
102
{ACAD_REACTORS
330
2A
102
}
102
{ACAD_XDICTIONARY
360
104
102
}
330
2A
100
AcDbVisualStyle
  2
Brighten
 70
    12
 71
     2
 72
     2
 73
     0
 90
        0
 40
-0.6
 41
-30.0
 62
     5
 63
     7
421
 16777215
 74
     1
 91
        4
 64
     7
 65
   257
 75
     1
175
     1
 42
1.0
 92
        8
 66
     7
 43
1.0
 76
     1
 77
     6
 78
     2
 67
     7
 79
     5
170
     0
171
     0
290
     0
174
     0
 93
        1
 44
50.0
173
     0
291
     1
 45
0.0
  0
VISUALSTYLE
  5
3A
102
{ACAD_REACTORS
330
2A
102
}
102
{ACAD_XDICTIONARY
360
10C
102
}
330
2A
100
AcDbVisualStyle
  2
ColorChange
 70
    16
 71
     2
 72
     2
 73
     3
 90
        0
 40
-0.6
 41
-30.0
 62
     5
 63
     8
421
  8421504
 74
     1
 91
        4
 64
     7
 65
   257
 75
     1
175
     1
 42
1.0
 92
        8
 66
     8
424
  8421504
 43
1.0
 76
     1
 77
     6
 78
     2
 67
     7
 79
     5
170
     0
171
     0
290
     0
174
     0
 93
        1
 44
0.0
173
     0
291
     1
 45
0.0
  0
VISUALSTYLE
  5
34
102
{ACAD_REACTORS
330
2A
102
}
102
{ACAD_XDICTIONARY
360
100
102
}
330
2A
100
AcDbVisualStyle
  2
Conceptual
 70
     9
 71
     3
 72
     2
 73
     0
 90
        0
 40
-0.6
 41
-30.0
 62
     5
 63
     7
421
 16777215
 74
     2
 91
        2
 64
     7
 65
   257
 75
     1
175
     1
 42
40.0
 92
        8
 66
     7
 43
1.0
 76
     1
 77
     6
 78
     2
 67
     7
 79
     3
170
     0
171
     0
290
     0
174
     0
 93
        1
 44
0.0
173
     0
291
     0
 45
0.0
  0
VISUALSTYLE
  5
35
102
{ACAD_REACTORS
330
2A
102
}
102
{ACAD_XDICTIONARY
360
102
102
}
330
2A
100
AcDbVisualStyle
  2
Dim
 70
    11
 71
     2
 72
     2
 73
     0
 90
        0
 40
-0.6
 41
-30.0
 62
     5
 63
     7
421
 16777215
 74
     1
 91
        4
 64
     7
 65
   257
 75
     1
175
     1
 42
1.0
 92
        8
 66
     7
 43
1.0
 76
     1
 77
     6
 78
     2
 67
     7
 79
     5
170
     0
171
     0
290
     0
174
     0
 93
        1
 44
-50.0
173
     0
291
     1
 45
0.0
  0
VISUALSTYLE
  5
39
102
{ACAD_REACTORS
330
2A
102
}
102
{ACAD_XDICTIONARY
360
10A
102
}
330
2A
100
AcDbVisualStyle
  2
Facepattern
 70
    15
 71
     2
 72
     2
 73
     0
 90
        0
 40
-0.6
 41
-30.0
 62
     5
 63
     7
421
 16777215
 74
     1
 91
        4
 64
     7
 65
   257
 75
     1
175
     1
 42
1.0
 92
        8
 66
     7
 43
1.0
 76
     1
 77
     6
 78
     2
 67
     7
 79
     5
170
     0
171
     0
290
     0
174
     0
 93
        1
 44
0.0
173
     0
291
     1
 45
0.0
  0
VISUALSTYLE
  5
2B
102
{ACAD_REACTORS
330
2A
102
}
102
{ACAD_XDICTIONARY
360
EE
102
}
330
2A
100
AcDbVisualStyle
  2
Flat
 70
     0
 71
     2
 72
     1
 73
     1
 90
        2
 40
-0.6
 41
30.0
 62
     5
 63
     7
421
 16777215
 74
     0
 91
        4
 64
     7
 65
   257
 75
     1
175
     1
 42
1.0
 92
        8
 66
     7
 43
1.0
 76
     1
 77
     6
 78
     2
 67
     7
 79
     5
170
     0
171
     0
290
     0
174
     0
 93
       13
 44
0.0
173
     0
291
     1
 45
0.0
  0
VISUALSTYLE
  5
2C
102
{ACAD_REACTORS
330
2A
102
}
102
{ACAD_XDICTIONARY
360
F0
102
}
330
2A
100
AcDbVisualStyle
  2
FlatWithEdges
 70
     1
 71
     2
 72
     1
 73
     1
 90
        2
 40
-0.6
 41
30.0
 62
     5
 63
     7
421
 16777215
 74
     1
 91
        4
 64
     7
 65
   257
 75
     1
175
     1
 42
1.0
 92
        0
 66
   257
 43
1.0
 76
     1
 77
     6
 78
     2
 67
     7
 79
     5
170
     0
171
     0
290
     0
174
     0
 93
       13
 44
0.0
173
     0
291
     1
 45
0.0
  0
VISUALSTYLE
  5
2D
102
{ACAD_REACTORS
330
2A
102
}
102
{ACAD_XDICTIONARY
360
F2
102
}
330
2A
100
AcDbVisualStyle
  2
Gouraud
 70
     2
 71
     2
 72
     2
 73
     1
 90
        2
 40
-0.6
 41
30.0
 62
     5
 63
     7
421
 16777215
 74
     0
 91
        4
 64
     7
 65
   257
 75
     1
175
     1
 42
1.0
 92
        0
 66
     7
 43
1.0
 76
     1
 77
     6
 78
     2
 67
     7
 79
     5
170
     0
171
     0
290
     0
174
     0
 93
       13
 44
0.0
173
     0
291
     1
 45
0.0
  0
VISUALSTYLE
  5
2E
102
{ACAD_REACTORS
330
2A
102
}
102
{ACAD_XDICTIONARY
360
F4
102
}
330
2A
100
AcDbVisualStyle
  2
GouraudWithEdges
 70
     3
 71
     2
 72
     2
 73
     1
 90
        2
 40
-0.6
 41
30.0
 62
     5
 63
     7
421
 16777215
 74
     1
 91
        4
 64
     7
 65
   257
 75
     1
175
     1
 42
1.0
 92
        0
 66
   257
 43
1.0
 76
     1
 77
     6
 78
     2
 67
     7
 79
     5
170
     0
171
     0
290
     0
174
     0
 93
       13
 44
0.0
173
     0
291
     1
 45
0.0
  0
VISUALSTYLE
  5
38
102
{ACAD_REACTORS
330
2A
102
}
102
{ACAD_XDICTIONARY
360
108
102
}
330
2A
100
AcDbVisualStyle
  2
Linepattern
 70
    14
 71
     2
 72
     2
 73
     0
 90
        0
 40
-0.6
 41
-30.0
 62
     5
 63
     7
421
 16777215
 74
     1
 91
        4
 64
     7
 65
   257
 75
     7
175
     7
 42
1.0
 92
        8
 66
     7
 43
1.0
 76
     1
 77
     6
 78
     2
 67
     7
 79
     5
170
     0
171
     0
290
     0
174
     0
 93
        1
 44
0.0
173
     0
291
     1
 45
0.0
  0
VISUALSTYLE
  5
33
102
{ACAD_REACTORS
330
2A
102
}
102
{ACAD_XDICTIONARY
360
FE
102
}
330
2A
100
AcDbVisualStyle
  2
Realistic
 70
     8
 71
     2
 72
     2
 73
     0
 90
        0
 40
-0.6
 41
-30.0
 62
     5
 63
     7
421
 16777215
 74
     1
 91
        0
 64
     7
 65
   257
 75
     1
175
     1
 42
1.0
 92
        8
 66
     8
424
  7895160
 43
1.0
 76
     1
 77
     6
 78
     2
 67
     7
 79
     5
170
     0
171
     0
290
     0
174
     0
 93
       13
 44
0.0
173
     0
291
     0
 45
0.0
  0
VISUALSTYLE
  5
37
102
{ACAD_REACTORS
330
2A
102
}
102
{ACAD_XDICTIONARY
360
106
102
}
330
2A
100
AcDbVisualStyle
  2
Thicken
 70
    13
 71
     2
 72
     2
 73
     0
 90
        0
 40
-0.6
 41
-30.0
 62
     5
 63
     7
421
 16777215
 74
     1
 91
        4
 64
     7
 65
   257
 75
     1
175
     1
 42
1.0
 92
       12
 66
     7
 43
1.0
 76
     1
 77
     6
 78
     2
 67
     7
 79
     5
170
     0
171
     0
290
     0
174
     0
 93
        1
 44
0.0
173
     0
291
     1
 45
0.0
  0
DICTIONARY
  5
F6
330
2F
100
AcDbDictionary
280
     1
281
     1
  3
ACAD_XREC_ROUNDTRIP
360
F7
  0
DICTIONARY
  5
FA
330
31
100
AcDbDictionary
280
     1
281
     1
  3
ACAD_XREC_ROUNDTRIP
360
FB
  0
DICTIONARY
  5
F8
330
30
100
AcDbDictionary
280
     1
281
     1
  3
ACAD_XREC_ROUNDTRIP
360
F9
  0
DICTIONARY
  5
FC
330
32
100
AcDbDictionary
280
     1
281
     1
  3
ACAD_XREC_ROUNDTRIP
360
FD
  0
DICTIONARY
  5
104
330
36
100
AcDbDictionary
280
     1
281
     1
  3
ACAD_XREC_ROUNDTRIP
360
105
  0
DICTIONARY
  5
10C
330
3A
100
AcDbDictionary
280
     1
281
     1
  3
ACAD_XREC_ROUNDTRIP
360
10D
  0
DICTIONARY
  5
100
330
34
100
AcDbDictionary
280
     1
281
     1
  3
ACAD_XREC_ROUNDTRIP
360
101
  0
DICTIONARY
  5
102
330
35
100
AcDbDictionary
280
     1
281
     1
  3
ACAD_XREC_ROUNDTRIP
360
103
  0
DICTIONARY
  5
10A
330
39
100
AcDbDictionary
280
     1
281
     1
  3
ACAD_XREC_ROUNDTRIP
360
10B
  0
DICTIONARY
  5
EE
330
2B
100
AcDbDictionary
280
     1
281
     1
  3
ACAD_XREC_ROUNDTRIP
360
EF
  0
DICTIONARY
  5
F0
330
2C
100
AcDbDictionary
280
     1
281
     1
  3
ACAD_XREC_ROUNDTRIP
360
F1
  0
DICTIONARY
  5
F2
330
2D
100
AcDbDictionary
280
     1
281
     1
  3
ACAD_XREC_ROUNDTRIP
360
F3
  0
DICTIONARY
  5
F4
330
2E
100
AcDbDictionary
280
     1
281
     1
  3
ACAD_XREC_ROUNDTRIP
360
F5
  0
DICTIONARY
  5
108
330
38
100
AcDbDictionary
280
     1
281
     1
  3
ACAD_XREC_ROUNDTRIP
360
109
  0
DICTIONARY
  5
FE
330
33
100
AcDbDictionary
280
     1
281
     1
  3
ACAD_XREC_ROUNDTRIP
360
FF
  0
DICTIONARY
  5
106
330
37
100
AcDbDictionary
280
     1
281
     1
  3
ACAD_XREC_ROUNDTRIP
360
107
  0
XRECORD
  5
F7
102
{ACAD_REACTORS
330
F6
102
}
330
F6
100
AcDbXrecord
280
     1
102
RTVSPropertyOp0
 70
     1
102
RTVSPropertyOp1
 70
     1
102
RTVSPropertyOp2
 70
     1
102
RTVSPropertyOp3
 70
     1
102
RTVSPropertyOp4
 70
     1
102
RTVSPropertyOp5
 70
     1
102
RTVSPropertyOp6
 70
     1
102
RTVSPropertyOp7
 70
     1
102
RTVSPropertyOp8
 70
     1
102
RTVSPropertyOp9
 70
     1
102
RTVSPropertyOp10
 70
     1
102
RTVSPropertyOp11
 70
     1
102
RTVSPropertyOp12
 70
     1
102
RTVSPropertyOp13
 70
     1
102
RTVSPropertyOp14
 70
     1
102
RTVSPropertyOp15
 70
     1
102
RTVSPropertyOp16
 70
     1
102
RTVSPropertyOp17
 70
     1
102
RTVSPropertyOp18
 70
     1
102
RTVSPropertyOp19
 70
     1
102
RTVSPropertyOp20
 70
     1
102
RTVSPropertyOp21
 70
     1
102
RTVSPropertyOp22
 70
     1
102
RTVSPropertyOp23
 70
     1
102
RTVSPropertyOp24
 70
     1
102
RTVSPropertyOp25
 70
     1
102
RTVSPropertyOp26
 70
     1
102
RTVSPropertyOp27
 70
     1
102
RTVSPropertyOp28
 70
     1
102
RTVSPropertyOp29
 70
     1
102
RTVSPropertyOp30
 70
     1
102
RTVSPropertyOp31
 70
     1
102
RTVSPropertyOp32
 70
     1
  0
XRECORD
  5
FB
102
{ACAD_REACTORS
330
FA
102
}
330
FA
100
AcDbXrecord
280
     1
102
RTVSPropertyOp0
 70
     1
102
RTVSPropertyOp1
 70
     1
102
RTVSPropertyOp2
 70
     1
102
RTVSPropertyOp3
 70
     1
102
RTVSPropertyOp4
 70
     1
102
RTVSPropertyOp5
 70
     1
102
RTVSPropertyOp6
 70
     1
102
RTVSPropertyOp7
 70
     1
102
RTVSPropertyOp8
 70
     1
102
RTVSPropertyOp9
 70
     1
102
RTVSPropertyOp10
 70
     1
102
RTVSPropertyOp11
 70
     1
102
RTVSPropertyOp12
 70
     1
102
RTVSPropertyOp13
 70
     1
102
RTVSPropertyOp14
 70
     1
102
RTVSPropertyOp15
 70
     1
102
RTVSPropertyOp16
 70
     1
102
RTVSPropertyOp17
 70
     1
102
RTVSPropertyOp18
 70
     1
102
RTVSPropertyOp19
 70
     1
102
RTVSPropertyOp20
 70
     1
102
RTVSPropertyOp21
 70
     1
102
RTVSPropertyOp22
 70
     1
102
RTVSPropertyOp23
 70
     1
102
RTVSPropertyOp24
 70
     1
102
RTVSPropertyOp25
 70
     1
102
RTVSPropertyOp26
 70
     1
102
RTVSPropertyOp27
 70
     1
102
RTVSPropertyOp28
 70
     1
102
RTVSPropertyOp29
 70
     1
102
RTVSPropertyOp30
 70
     1
102
RTVSPropertyOp31
 70
     1
102
RTVSPropertyOp32
 70
     1
  0
XRECORD
  5
F9
102
{ACAD_REACTORS
330
F8
102
}
330
F8
100
AcDbXrecord
280
     1
102
RTVSPropertyOp0
 70
     1
102
RTVSPropertyOp1
 70
     1
102
RTVSPropertyOp2
 70
     1
102
RTVSPropertyOp3
 70
     1
102
RTVSPropertyOp4
 70
     1
102
RTVSPropertyOp5
 70
     1
102
RTVSPropertyOp6
 70
     1
102
RTVSPropertyOp7
 70
     1
102
RTVSPropertyOp8
 70
     1
102
RTVSPropertyOp9
 70
     1
102
RTVSPropertyOp10
 70
     1
102
RTVSPropertyOp11
 70
     1
102
RTVSPropertyOp12
 70
     1
102
RTVSPropertyOp13
 70
     1
102
RTVSPropertyOp14
 70
     1
102
RTVSPropertyOp15
 70
     1
102
RTVSPropertyOp16
 70
     1
102
RTVSPropertyOp17
 70
     1
102
RTVSPropertyOp18
 70
     1
102
RTVSPropertyOp19
 70
     1
102
RTVSPropertyOp20
 70
     1
102
RTVSPropertyOp21
 70
     1
102
RTVSPropertyOp22
 70
     1
102
RTVSPropertyOp23
 70
     1
102
RTVSPropertyOp24
 70
     1
102
RTVSPropertyOp25
 70
     1
102
RTVSPropertyOp26
 70
     1
102
RTVSPropertyOp27
 70
     1
102
RTVSPropertyOp28
 70
     1
102
RTVSPropertyOp29
 70
     1
102
RTVSPropertyOp30
 70
     1
102
RTVSPropertyOp31
 70
     1
102
RTVSPropertyOp32
 70
     1
  0
XRECORD
  5
FD
102
{ACAD_REACTORS
330
FC
102
}
330
FC
100
AcDbXrecord
280
     1
102
RTVSPropertyOp0
 70
     1
102
RTVSPropertyOp1
 70
     1
102
RTVSPropertyOp2
 70
     1
102
RTVSPropertyOp3
 70
     1
102
RTVSPropertyOp4
 70
     1
102
RTVSPropertyOp5
 70
     1
102
RTVSPropertyOp6
 70
     1
102
RTVSPropertyOp7
 70
     1
102
RTVSPropertyOp8
 70
     1
102
RTVSPropertyOp9
 70
     1
102
RTVSPropertyOp10
 70
     1
102
RTVSPropertyOp11
 70
     1
102
RTVSPropertyOp12
 70
     1
102
RTVSPropertyOp13
 70
     1
102
RTVSPropertyOp14
 70
     1
102
RTVSPropertyOp15
 70
     1
102
RTVSPropertyOp16
 70
     1
102
RTVSPropertyOp17
 70
     1
102
RTVSPropertyOp18
 70
     1
102
RTVSPropertyOp19
 70
     1
102
RTVSPropertyOp20
 70
     1
102
RTVSPropertyOp21
 70
     1
102
RTVSPropertyOp22
 70
     1
102
RTVSPropertyOp23
 70
     1
102
RTVSPropertyOp24
 70
     1
102
RTVSPropertyOp25
 70
     1
102
RTVSPropertyOp26
 70
     1
102
RTVSPropertyOp27
 70
     1
102
RTVSPropertyOp28
 70
     1
102
RTVSPropertyOp29
 70
     1
102
RTVSPropertyOp30
 70
     1
102
RTVSPropertyOp31
 70
     1
102
RTVSPropertyOp32
 70
     1
  0
XRECORD
  5
105
102
{ACAD_REACTORS
330
104
102
}
330
104
100
AcDbXrecord
280
     1
102
RTVSPropertyOp0
 70
     1
102
RTVSPropertyOp1
 70
     1
102
RTVSPropertyOp2
 70
     1
102
RTVSPropertyOp3
 70
     1
102
RTVSPropertyOp4
 70
     1
102
RTVSPropertyOp5
 70
     1
102
RTVSPropertyOp6
 70
     1
102
RTVSPropertyOp7
 70
     1
102
RTVSPropertyOp8
 70
     1
102
RTVSPropertyOp9
 70
     1
102
RTVSPropertyOp10
 70
     1
102
RTVSPropertyOp11
 70
     1
102
RTVSPropertyOp12
 70
     1
102
RTVSPropertyOp13
 70
     1
102
RTVSPropertyOp14
 70
     1
102
RTVSPropertyOp15
 70
     1
102
RTVSPropertyOp16
 70
     1
102
RTVSPropertyOp17
 70
     1
102
RTVSPropertyOp18
 70
     1
102
RTVSPropertyOp19
 70
     1
102
RTVSPropertyOp20
 70
     1
102
RTVSPropertyOp21
 70
     1
102
RTVSPropertyOp22
 70
     1
102
RTVSPropertyOp23
 70
     1
102
RTVSPropertyOp24
 70
     1
102
RTVSPropertyOp25
 70
     1
102
RTVSPropertyOp26
 70
     1
102
RTVSPropertyOp27
 70
     1
102
RTVSPropertyOp28
 70
     1
102
RTVSPropertyOp29
 70
     1
102
RTVSPropertyOp30
 70
     1
102
RTVSPropertyOp31
 70
     1
102
RTVSPropertyOp32
 70
     1
  0
XRECORD
  5
10D
102
{ACAD_REACTORS
330
10C
102
}
330
10C
100
AcDbXrecord
280
     1
102
RTVSPropertyOp0
 70
     1
102
RTVSPropertyOp1
 70
     1
102
RTVSPropertyOp2
 70
     1
102
RTVSPropertyOp3
 70
     1
102
RTVSPropertyOp4
 70
     1
102
RTVSPropertyOp5
 70
     1
102
RTVSPropertyOp6
 70
     1
102
RTVSPropertyOp7
 70
     1
102
RTVSPropertyOp8
 70
     1
102
RTVSPropertyOp9
 70
     1
102
RTVSPropertyOp10
 70
     1
102
RTVSPropertyOp11
 70
     1
102
RTVSPropertyOp12
 70
     1
102
RTVSPropertyOp13
 70
     1
102
RTVSPropertyOp14
 70
     1
102
RTVSPropertyOp15
 70
     1
102
RTVSPropertyOp16
 70
     1
102
RTVSPropertyOp17
 70
     1
102
RTVSPropertyOp18
 70
     1
102
RTVSPropertyOp19
 70
     1
102
RTVSPropertyOp20
 70
     1
102
RTVSPropertyOp21
 70
     1
102
RTVSPropertyOp22
 70
     1
102
RTVSPropertyOp23
 70
     1
102
RTVSPropertyOp24
 70
     1
102
RTVSPropertyOp25
 70
     1
102
RTVSPropertyOp26
 70
     1
102
RTVSPropertyOp27
 70
     1
102
RTVSPropertyOp28
 70
     1
102
RTVSPropertyOp29
 70
     1
102
RTVSPropertyOp30
 70
     1
102
RTVSPropertyOp31
 70
     1
102
RTVSPropertyOp32
 70
     1
  0
XRECORD
  5
101
102
{ACAD_REACTORS
330
100
102
}
330
100
100
AcDbXrecord
280
     1
102
RTVSPropertyOp0
 70
     1
102
RTVSPropertyOp1
 70
     1
102
RTVSPropertyOp2
 70
     1
102
RTVSPropertyOp3
 70
     1
102
RTVSPropertyOp4
 70
     1
102
RTVSPropertyOp5
 70
     1
102
RTVSPropertyOp6
 70
     1
102
RTVSPropertyOp7
 70
     1
102
RTVSPropertyOp8
 70
     1
102
RTVSPropertyOp9
 70
     1
102
RTVSPropertyOp10
 70
     1
102
RTVSPropertyOp11
 70
     1
102
RTVSPropertyOp12
 70
     1
102
RTVSPropertyOp13
 70
     1
102
RTVSPropertyOp14
 70
     1
102
RTVSPropertyOp15
 70
     1
102
RTVSPropertyOp16
 70
     1
102
RTVSPropertyOp17
 70
     1
102
RTVSPropertyOp18
 70
     1
102
RTVSPropertyOp19
 70
     1
102
RTVSPropertyOp20
 70
     1
102
RTVSPropertyOp21
 70
     1
102
RTVSPropertyOp22
 70
     1
102
RTVSPropertyOp23
 70
     1
102
RTVSPropertyOp24
 70
     1
102
RTVSPropertyOp25
 70
     1
102
RTVSPropertyOp26
 70
     1
102
RTVSPropertyOp27
 70
     1
102
RTVSPropertyOp28
 70
     1
102
RTVSPropertyOp29
 70
     1
102
RTVSPropertyOp30
 70
     1
102
RTVSPropertyOp31
 70
     1
102
RTVSPropertyOp32
 70
     1
  0
XRECORD
  5
103
102
{ACAD_REACTORS
330
102
102
}
330
102
100
AcDbXrecord
280
     1
102
RTVSPropertyOp0
 70
     1
102
RTVSPropertyOp1
 70
     1
102
RTVSPropertyOp2
 70
     1
102
RTVSPropertyOp3
 70
     1
102
RTVSPropertyOp4
 70
     1
102
RTVSPropertyOp5
 70
     1
102
RTVSPropertyOp6
 70
     1
102
RTVSPropertyOp7
 70
     1
102
RTVSPropertyOp8
 70
     1
102
RTVSPropertyOp9
 70
     1
102
RTVSPropertyOp10
 70
     1
102
RTVSPropertyOp11
 70
     1
102
RTVSPropertyOp12
 70
     1
102
RTVSPropertyOp13
 70
     1
102
RTVSPropertyOp14
 70
     1
102
RTVSPropertyOp15
 70
     1
102
RTVSPropertyOp16
 70
     1
102
RTVSPropertyOp17
 70
     1
102
RTVSPropertyOp18
 70
     1
102
RTVSPropertyOp19
 70
     1
102
RTVSPropertyOp20
 70
     1
102
RTVSPropertyOp21
 70
     1
102
RTVSPropertyOp22
 70
     1
102
RTVSPropertyOp23
 70
     1
102
RTVSPropertyOp24
 70
     1
102
RTVSPropertyOp25
 70
     1
102
RTVSPropertyOp26
 70
     1
102
RTVSPropertyOp27
 70
     1
102
RTVSPropertyOp28
 70
     1
102
RTVSPropertyOp29
 70
     1
102
RTVSPropertyOp30
 70
     1
102
RTVSPropertyOp31
 70
     1
102
RTVSPropertyOp32
 70
     1
  0
XRECORD
  5
10B
102
{ACAD_REACTORS
330
10A
102
}
330
10A
100
AcDbXrecord
280
     1
102
RTVSPropertyOp0
 70
     1
102
RTVSPropertyOp1
 70
     1
102
RTVSPropertyOp2
 70
     1
102
RTVSPropertyOp3
 70
     1
102
RTVSPropertyOp4
 70
     1
102
RTVSPropertyOp5
 70
     1
102
RTVSPropertyOp6
 70
     1
102
RTVSPropertyOp7
 70
     1
102
RTVSPropertyOp8
 70
     1
102
RTVSPropertyOp9
 70
     1
102
RTVSPropertyOp10
 70
     1
102
RTVSPropertyOp11
 70
     1
102
RTVSPropertyOp12
 70
     1
102
RTVSPropertyOp13
 70
     1
102
RTVSPropertyOp14
 70
     1
102
RTVSPropertyOp15
 70
     1
102
RTVSPropertyOp16
 70
     1
102
RTVSPropertyOp17
 70
     1
102
RTVSPropertyOp18
 70
     1
102
RTVSPropertyOp19
 70
     1
102
RTVSPropertyOp20
 70
     1
102
RTVSPropertyOp21
 70
     1
102
RTVSPropertyOp22
 70
     1
102
RTVSPropertyOp23
 70
     1
102
RTVSPropertyOp24
 70
     1
102
RTVSPropertyOp25
 70
     1
102
RTVSPropertyOp26
 70
     1
102
RTVSPropertyOp27
 70
     1
102
RTVSPropertyOp28
 70
     1
102
RTVSPropertyOp29
 70
     1
102
RTVSPropertyOp30
 70
     1
102
RTVSPropertyOp31
 70
     1
102
RTVSPropertyOp32
 70
     1
  0
XRECORD
  5
EF
102
{ACAD_REACTORS
330
EE
102
}
330
EE
100
AcDbXrecord
280
     1
102
RTVSPropertyOp0
 70
     1
102
RTVSPropertyOp1
 70
     1
102
RTVSPropertyOp2
 70
     1
102
RTVSPropertyOp3
 70
     1
102
RTVSPropertyOp4
 70
     1
102
RTVSPropertyOp5
 70
     1
102
RTVSPropertyOp6
 70
     1
102
RTVSPropertyOp7
 70
     1
102
RTVSPropertyOp8
 70
     1
102
RTVSPropertyOp9
 70
     1
102
RTVSPropertyOp10
 70
     1
102
RTVSPropertyOp11
 70
     1
102
RTVSPropertyOp12
 70
     1
102
RTVSPropertyOp13
 70
     1
102
RTVSPropertyOp14
 70
     1
102
RTVSPropertyOp15
 70
     1
102
RTVSPropertyOp16
 70
     1
102
RTVSPropertyOp17
 70
     1
102
RTVSPropertyOp18
 70
     1
102
RTVSPropertyOp19
 70
     1
102
RTVSPropertyOp20
 70
     1
102
RTVSPropertyOp21
 70
     1
102
RTVSPropertyOp22
 70
     1
102
RTVSPropertyOp23
 70
     1
102
RTVSPropertyOp24
 70
     1
102
RTVSPropertyOp25
 70
     1
102
RTVSPropertyOp26
 70
     1
102
RTVSPropertyOp27
 70
     1
102
RTVSPropertyOp28
 70
     1
102
RTVSPropertyOp29
 70
     1
102
RTVSPropertyOp30
 70
     1
102
RTVSPropertyOp31
 70
     1
102
RTVSPropertyOp32
 70
     1
  0
XRECORD
  5
F1
102
{ACAD_REACTORS
330
F0
102
}
330
F0
100
AcDbXrecord
280
     1
102
RTVSPropertyOp0
 70
     1
102
RTVSPropertyOp1
 70
     1
102
RTVSPropertyOp2
 70
     1
102
RTVSPropertyOp3
 70
     1
102
RTVSPropertyOp4
 70
     1
102
RTVSPropertyOp5
 70
     1
102
RTVSPropertyOp6
 70
     1
102
RTVSPropertyOp7
 70
     1
102
RTVSPropertyOp8
 70
     1
102
RTVSPropertyOp9
 70
     1
102
RTVSPropertyOp10
 70
     1
102
RTVSPropertyOp11
 70
     1
102
RTVSPropertyOp12
 70
     1
102
RTVSPropertyOp13
 70
     1
102
RTVSPropertyOp14
 70
     1
102
RTVSPropertyOp15
 70
     1
102
RTVSPropertyOp16
 70
     1
102
RTVSPropertyOp17
 70
     1
102
RTVSPropertyOp18
 70
     1
102
RTVSPropertyOp19
 70
     1
102
RTVSPropertyOp20
 70
     1
102
RTVSPropertyOp21
 70
     1
102
RTVSPropertyOp22
 70
     1
102
RTVSPropertyOp23
 70
     1
102
RTVSPropertyOp24
 70
     1
102
RTVSPropertyOp25
 70
     1
102
RTVSPropertyOp26
 70
     1
102
RTVSPropertyOp27
 70
     1
102
RTVSPropertyOp28
 70
     1
102
RTVSPropertyOp29
 70
     1
102
RTVSPropertyOp30
 70
     1
102
RTVSPropertyOp31
 70
     1
102
RTVSPropertyOp32
 70
     1
  0
XRECORD
  5
F3
102
{ACAD_REACTORS
330
F2
102
}
330
F2
100
AcDbXrecord
280
     1
102
RTVSPropertyOp0
 70
     1
102
RTVSPropertyOp1
 70
     1
102
RTVSPropertyOp2
 70
     1
102
RTVSPropertyOp3
 70
     1
102
RTVSPropertyOp4
 70
     1
102
RTVSPropertyOp5
 70
     1
102
RTVSPropertyOp6
 70
     1
102
RTVSPropertyOp7
 70
     1
102
RTVSPropertyOp8
 70
     1
102
RTVSPropertyOp9
 70
     1
102
RTVSPropertyOp10
 70
     1
102
RTVSPropertyOp11
 70
     1
102
RTVSPropertyOp12
 70
     1
102
RTVSPropertyOp13
 70
     1
102
RTVSPropertyOp14
 70
     1
102
RTVSPropertyOp15
 70
     1
102
RTVSPropertyOp16
 70
     1
102
RTVSPropertyOp17
 70
     1
102
RTVSPropertyOp18
 70
     1
102
RTVSPropertyOp19
 70
     1
102
RTVSPropertyOp20
 70
     1
102
RTVSPropertyOp21
 70
     1
102
RTVSPropertyOp22
 70
     1
102
RTVSPropertyOp23
 70
     1
102
RTVSPropertyOp24
 70
     1
102
RTVSPropertyOp25
 70
     1
102
RTVSPropertyOp26
 70
     1
102
RTVSPropertyOp27
 70
     1
102
RTVSPropertyOp28
 70
     1
102
RTVSPropertyOp29
 70
     1
102
RTVSPropertyOp30
 70
     1
102
RTVSPropertyOp31
 70
     1
102
RTVSPropertyOp32
 70
     1
  0
XRECORD
  5
F5
102
{ACAD_REACTORS
330
F4
102
}
330
F4
100
AcDbXrecord
280
     1
102
RTVSPropertyOp0
 70
     1
102
RTVSPropertyOp1
 70
     1
102
RTVSPropertyOp2
 70
     1
102
RTVSPropertyOp3
 70
     1
102
RTVSPropertyOp4
 70
     1
102
RTVSPropertyOp5
 70
     1
102
RTVSPropertyOp6
 70
     1
102
RTVSPropertyOp7
 70
     1
102
RTVSPropertyOp8
 70
     1
102
RTVSPropertyOp9
 70
     1
102
RTVSPropertyOp10
 70
     1
102
RTVSPropertyOp11
 70
     1
102
RTVSPropertyOp12
 70
     1
102
RTVSPropertyOp13
 70
     1
102
RTVSPropertyOp14
 70
     1
102
RTVSPropertyOp15
 70
     1
102
RTVSPropertyOp16
 70
     1
102
RTVSPropertyOp17
 70
     1
102
RTVSPropertyOp18
 70
     1
102
RTVSPropertyOp19
 70
     1
102
RTVSPropertyOp20
 70
     1
102
RTVSPropertyOp21
 70
     1
102
RTVSPropertyOp22
 70
     1
102
RTVSPropertyOp23
 70
     1
102
RTVSPropertyOp24
 70
     1
102
RTVSPropertyOp25
 70
     1
102
RTVSPropertyOp26
 70
     1
102
RTVSPropertyOp27
 70
     1
102
RTVSPropertyOp28
 70
     1
102
RTVSPropertyOp29
 70
     1
102
RTVSPropertyOp30
 70
     1
102
RTVSPropertyOp31
 70
     1
102
RTVSPropertyOp32
 70
     1
  0
XRECORD
  5
109
102
{ACAD_REACTORS
330
108
102
}
330
108
100
AcDbXrecord
280
     1
102
RTVSPropertyOp0
 70
     1
102
RTVSPropertyOp1
 70
     1
102
RTVSPropertyOp2
 70
     1
102
RTVSPropertyOp3
 70
     1
102
RTVSPropertyOp4
 70
     1
102
RTVSPropertyOp5
 70
     1
102
RTVSPropertyOp6
 70
     1
102
RTVSPropertyOp7
 70
     1
102
RTVSPropertyOp8
 70
     1
102
RTVSPropertyOp9
 70
     1
102
RTVSPropertyOp10
 70
     1
102
RTVSPropertyOp11
 70
     1
102
RTVSPropertyOp12
 70
     1
102
RTVSPropertyOp13
 70
     1
102
RTVSPropertyOp14
 70
     1
102
RTVSPropertyOp15
 70
     1
102
RTVSPropertyOp16
 70
     1
102
RTVSPropertyOp17
 70
     1
102
RTVSPropertyOp18
 70
     1
102
RTVSPropertyOp19
 70
     1
102
RTVSPropertyOp20
 70
     1
102
RTVSPropertyOp21
 70
     1
102
RTVSPropertyOp22
 70
     1
102
RTVSPropertyOp23
 70
     1
102
RTVSPropertyOp24
 70
     1
102
RTVSPropertyOp25
 70
     1
102
RTVSPropertyOp26
 70
     1
102
RTVSPropertyOp27
 70
     1
102
RTVSPropertyOp28
 70
     1
102
RTVSPropertyOp29
 70
     1
102
RTVSPropertyOp30
 70
     1
102
RTVSPropertyOp31
 70
     1
102
RTVSPropertyOp32
 70
     1
  0
XRECORD
  5
FF
102
{ACAD_REACTORS
330
FE
102
}
330
FE
100
AcDbXrecord
280
     1
102
RTVSPropertyOp0
 70
     1
102
RTVSPropertyOp1
 70
     1
102
RTVSPropertyOp2
 70
     1
102
RTVSPropertyOp3
 70
     1
102
RTVSPropertyOp4
 70
     1
102
RTVSPropertyOp5
 70
     1
102
RTVSPropertyOp6
 70
     1
102
RTVSPropertyOp7
 70
     1
102
RTVSPropertyOp8
 70
     1
102
RTVSPropertyOp9
 70
     1
102
RTVSPropertyOp10
 70
     1
102
RTVSPropertyOp11
 70
     1
102
RTVSPropertyOp12
 70
     1
102
RTVSPropertyOp13
 70
     1
102
RTVSPropertyOp14
 70
     1
102
RTVSPropertyOp15
 70
     1
102
RTVSPropertyOp16
 70
     1
102
RTVSPropertyOp17
 70
     1
102
RTVSPropertyOp18
 70
     1
102
RTVSPropertyOp19
 70
     1
102
RTVSPropertyOp20
 70
     1
102
RTVSPropertyOp21
 70
     1
102
RTVSPropertyOp22
 70
     1
102
RTVSPropertyOp23
 70
     1
102
RTVSPropertyOp24
 70
     1
102
RTVSPropertyOp25
 70
     1
102
RTVSPropertyOp26
 70
     1
102
RTVSPropertyOp27
 70
     1
102
RTVSPropertyOp28
 70
     1
102
RTVSPropertyOp29
 70
     1
102
RTVSPropertyOp30
 70
     1
102
RTVSPropertyOp31
 70
     1
102
RTVSPropertyOp32
 70
     1
  0
XRECORD
  5
107
102
{ACAD_REACTORS
330
106
102
}
330
106
100
AcDbXrecord
280
     1
102
RTVSPropertyOp0
 70
     1
102
RTVSPropertyOp1
 70
     1
102
RTVSPropertyOp2
 70
     1
102
RTVSPropertyOp3
 70
     1
102
RTVSPropertyOp4
 70
     1
102
RTVSPropertyOp5
 70
     1
102
RTVSPropertyOp6
 70
     1
102
RTVSPropertyOp7
 70
     1
102
RTVSPropertyOp8
 70
     1
102
RTVSPropertyOp9
 70
     1
102
RTVSPropertyOp10
 70
     1
102
RTVSPropertyOp11
 70
     1
102
RTVSPropertyOp12
 70
     1
102
RTVSPropertyOp13
 70
     1
102
RTVSPropertyOp14
 70
     1
102
RTVSPropertyOp15
 70
     1
102
RTVSPropertyOp16
 70
     1
102
RTVSPropertyOp17
 70
     1
102
RTVSPropertyOp18
 70
     1
102
RTVSPropertyOp19
 70
     1
102
RTVSPropertyOp20
 70
     1
102
RTVSPropertyOp21
 70
     1
102
RTVSPropertyOp22
 70
     1
102
RTVSPropertyOp23
 70
     1
102
RTVSPropertyOp24
 70
     1
102
RTVSPropertyOp25
 70
     1
102
RTVSPropertyOp26
 70
     1
102
RTVSPropertyOp27
 70
     1
102
RTVSPropertyOp28
 70
     1
102
RTVSPropertyOp29
 70
     1
102
RTVSPropertyOp30
 70
     1
102
RTVSPropertyOp31
 70
     1
102
RTVSPropertyOp32
 70
     1
  0
ENDSEC
  0
EOF
