  0
SECTION
  2
HEADER
  9
$ACADVER
  1
AC1021
  9
$ACADMAINTVER
 70
    25
  9
$DWGCODEPAGE
  3
ANSI_1256
  9
$INSBASE
 10
0.0
 20
0.0
 30
0.0
  9
$EXTMIN
 10
-60.8471
 20
-106.4084
 30
0.0
  9
$EXTMAX
 10
67.8504
 20
131.8629
 30
0.0
  9
$LIMMIN
 10
0.0
 20
0.0
  9
$LIMMAX
 10
12.0
 20
9.0
  9
$ORTHOMODE
 70
     0
  9
$REGENMODE
 70
     1
  9
$FILLMODE
 70
     1
  9
$QTEXTMODE
 70
     0
  9
$MIRRTEXT
 70
     1
  9
$LTSCALE
 40
1.0
  9
$ATTMODE
 70
     1
  9
$TEXTSIZE
 40
0.2
  9
$TRACEWID
 40
0.05
  9
$TEXTSTYLE
  7
Standard
  9
$CLAYER
  8
0
  9
$CELTYPE
  6
ByLayer
  9
$CECOLOR
 62
   256
  9
$CELTSCALE
 40
1.0
  9
$DISPSILH
 70
     0
  9
$DIMSCALE
 40
1.0
  9
$DIMASZ
 40
0.18
  9
$DIMEXO
 40
0.0625
  9
$DIMDLI
 40
0.38
  9
$DIMRND
 40
0.0
  9
$DIMDLE
 40
0.0
  9
$DIMEXE
 40
0.18
  9
$DIMTP
 40
0.0
  9
$DIMTM
 40
0.0
  9
$DIMTXT
 40
0.18
  9
$DIMCEN
 40
0.09
  9
$DIMTSZ
 40
0.0
  9
$DIMTOL
 70
     0
  9
$DIMLIM
 70
     0
  9
$DIMTIH
 70
     1
  9
$DIMTOH
 70
     1
  9
$DIMSE1
 70
     0
  9
$DIMSE2
 70
     0
  9
$DIMTAD
 70
     0
  9
$DIMZIN
 70
     0
  9
$DIMBLK
  1

  9
$DIMASO
 70
     1
  9
$DIMSHO
 70
     1
  9
$DIMPOST
  1

  9
$DIMAPOST
  1

  9
$DIMALT
 70
     0
  9
$DIMALTD
 70
     2
  9
$DIMALTF
 40
25.4
  9
$DIMLFAC
 40
1.0
  9
$DIMTOFL
 70
     0
  9
$DIMTVP
 40
0.0
  9
$DIMTIX
 70
     0
  9
$DIMSOXD
 70
     0
  9
$DIMSAH
 70
     0
  9
$DIMBLK1
  1

  9
$DIMBLK2
  1

  9
$DIMSTYLE
  2
Standard
  9
$DIMCLRD
 70
     0
  9
$DIMCLRE
 70
     0
  9
$DIMCLRT
 70
     0
  9
$DIMTFAC
 40
1.0
  9
$DIMGAP
 40
0.09
  9
$DIMJUST
 70
     0
  9
$DIMSD1
 70
     0
  9
$DIMSD2
 70
     0
  9
$DIMTOLJ
 70
     1
  9
$DIMTZIN
 70
     0
  9
$DIMALTZ
 70
     0
  9
$DIMALTTZ
 70
     0
  9
$DIMUPT
 70
     0
  9
$DIMDEC
 70
     4
  9
$DIMTDEC
 70
     4
  9
$DIMALTU
 70
     2
  9
$DIMALTTD
 70
     2
  9
$DIMTXSTY
  7
Standard
  9
$DIMAUNIT
 70
     0
  9
$DIMADEC
 70
     0
  9
$DIMALTRND
 40
0.0
  9
$DIMAZIN
 70
     0
  9
$DIMDSEP
 70
    46
  9
$DIMATFIT
 70
     3
  9
$DIMFRAC
 70
     0
  9
$DIMLDRBLK
  1

  9
$DIMLUNIT
 70
     2
  9
$DIMLWD
 70
    -2
  9
$DIMLWE
 70
    -2
  9
$DIMTMOVE
 70
     0
  9
$DIMFXL
 40
1.0
  9
$DIMFXLON
 70
     0
  9
$DIMJOGANG
 40
0.7853981633974483
  9
$DIMTFILL
 70
     0
  9
$DIMTFILLCLR
 70
     0
  9
$DIMARCSYM
 70
     0
  9
$DIMLTYPE
  6

  9
$DIMLTEX1
  6

  9
$DIMLTEX2
  6

  9
$LUNITS
 70
     2
  9
$LUPREC
 70
     4
  9
$SKETCHINC
 40
0.1
  9
$FILLETRAD
 40
0.5
  9
$AUNITS
 70
     0
  9
$AUPREC
 70
     0
  9
$MENU
  1
.
  9
$ELEVATION
 40
0.0
  9
$PELEVATION
 40
0.0
  9
$THICKNESS
 40
0.0
  9
$LIMCHECK
 70
     0
  9
$CHAMFERA
 40
0.5
  9
$CHAMFERB
 40
0.5
  9
$CHAMFERC
 40
1.0
  9
$CHAMFERD
 40
0.0
  9
$SKPOLY
 70
     0
  9
$TDCREATE
 40
2458492.390197176
  9
$TDUCREATE
 40
2458492.223530509
  9
$TDUPDATE
 40
2458492.39019735
  9
$TDUUPDATE
 40
2458492.223530683
  9
$TDINDWG
 40
0.0000000116
  9
$TDUSRTIMER
 40
0.0000000116
  9
$USRTIMER
 70
     1
  9
$ANGBASE
 50
0.0
  9
$ANGDIR
 70
     0
  9
$PDMODE
 70
     0
  9
$PDSIZE
 40
0.0
  9
$PLINEWID
 40
0.0
  9
$SPLFRAME
 70
     0
  9
$SPLINETYPE
 70
     6
  9
$SPLINESEGS
 70
     8
  9
$HANDSEED
  5
B1
  9
$SURFTAB1
 70
     6
  9
$SURFTAB2
 70
     6
  9
$SURFTYPE
 70
     6
  9
$SURFU
 70
     6
  9
$SURFV
 70
     6
  9
$UCSBASE
  2

  9
$UCSNAME
  2

  9
$UCSORG
 10
0.0
 20
0.0
 30
0.0
  9
$UCSXDIR
 10
1.0
 20
0.0
 30
0.0
  9
$UCSYDIR
 10
0.0
 20
1.0
 30
0.0
  9
$UCSORTHOREF
  2

  9
$UCSORTHOVIEW
 70
     0
  9
$UCSORGTOP
 10
0.0
 20
0.0
 30
0.0
  9
$UCSORGBOTTOM
 10
0.0
 20
0.0
 30
0.0
  9
$UCSORGLEFT
 10
0.0
 20
0.0
 30
0.0
  9
$UCSORGRIGHT
 10
0.0
 20
0.0
 30
0.0
  9
$UCSORGFRONT
 10
0.0
 20
0.0
 30
0.0
  9
$UCSORGBACK
 10
0.0
 20
0.0
 30
0.0
  9
$PUCSBASE
  2

  9
$PUCSNAME
  2

  9
$PUCSORG
 10
0.0
 20
0.0
 30
0.0
  9
$PUCSXDIR
 10
1.0
 20
0.0
 30
0.0
  9
$PUCSYDIR
 10
0.0
 20
1.0
 30
0.0
  9
$PUCSORTHOREF
  2

  9
$PUCSORTHOVIEW
 70
     0
  9
$PUCSORGTOP
 10
0.0
 20
0.0
 30
0.0
  9
$PUCSORGBOTTOM
 10
0.0
 20
0.0
 30
0.0
  9
$PUCSORGLEFT
 10
0.0
 20
0.0
 30
0.0
  9
$PUCSORGRIGHT
 10
0.0
 20
0.0
 30
0.0
  9
$PUCSORGFRONT
 10
0.0
 20
0.0
 30
0.0
  9
$PUCSORGBACK
 10
0.0
 20
0.0
 30
0.0
  9
$USERI1
 70
     0
  9
$USERI2
 70
     0
  9
$USERI3
 70
     0
  9
$USERI4
 70
     0
  9
$USERI5
 70
     0
  9
$USERR1
 40
0.0
  9
$USERR2
 40
0.0
  9
$USERR3
 40
0.0
  9
$USERR4
 40
0.0
  9
$USERR5
 40
0.0
  9
$WORLDVIEW
 70
     1
  9
$SHADEDGE
 70
     3
  9
$SHADEDIF
 70
    70
  9
$TILEMODE
 70
     1
  9
$MAXACTVP
 70
    64
  9
$PINSBASE
 10
0.0
 20
0.0
 30
0.0
  9
$PLIMCHECK
 70
     0
  9
$PEXTMIN
 10
1.000000000000000E+20
 20
1.000000000000000E+20
 30
1.000000000000000E+20
  9
$PEXTMAX
 10
-1.000000000000000E+20
 20
-1.000000000000000E+20
 30
-1.000000000000000E+20
  9
$PLIMMIN
 10
0.0
 20
0.0
  9
$PLIMMAX
 10
12.0
 20
9.0
  9
$UNITMODE
 70
     0
  9
$VISRETAIN
 70
     1
  9
$PLINEGEN
 70
     0
  9
$PSLTSCALE
 70
     1
  9
$TREEDEPTH
 70
  3020
  9
$CMLSTYLE
  2
Standard
  9
$CMLJUST
 70
     0
  9
$CMLSCALE
 40
1.0
  9
$PROXYGRAPHICS
 70
     1
  9
$MEASUREMENT
 70
     0
  9
$CELWEIGHT
370
    -1
  9
$ENDCAPS
280
     0
  9
$JOINSTYLE
280
     0
  9
$LWDISPLAY
290
     0
  9
$INSUNITS
 70
     4
  9
$HYPERLINKBASE
  1

  9
$STYLESHEET
  1

  9
$XEDIT
290
     1
  9
$CEPSNTYPE
380
     0
  9
$PSTYLEMODE
290
     1
  9
$FINGERPRINTGUID
  2
{60B19542-C4A0-4AFB-8EFA-7F68E8E61316}
  9
$VERSIONGUID
  2
{FAEB1C32-E019-11D5-929B-00C0DF256EC4}
  9
$EXTNAMES
290
     1
  9
$PSVPSCALE
 40
0.0
  9
$OLESTARTUP
290
     0
  9
$SORTENTS
280
   127
  9
$INDEXCTL
280
     0
  9
$HIDETEXT
280
     1
  9
$XCLIPFRAME
290
     0
  9
$HALOGAP
280
     0
  9
$OBSCOLOR
 70
   257
  9
$OBSLTYPE
280
     0
  9
$INTERSECTIONDISPLAY
280
     0
  9
$INTERSECTIONCOLOR
 70
   257
  9
$DIMASSOC
280
     2
  9
$PROJECTNAME
  1

  9
$CAMERADISPLAY
290
     0
  9
$LENSLENGTH
 40
50.0
  9
$CAMERAHEIGHT
 40
0.0
  9
$STEPSPERSEC
 40
2.0
  9
$STEPSIZE
 40
6.0
  9
$3DDWFPREC
 40
2.0
  9
$PSOLWIDTH
 40
0.25
  9
$PSOLHEIGHT
 40
4.0
  9
$LOFTANG1
 40
1.570796326794897
  9
$LOFTANG2
 40
1.570796326794897
  9
$LOFTMAG1
 40
0.0
  9
$LOFTMAG2
 40
0.0
  9
$LOFTPARAM
 70
     7
  9
$LOFTNORMALS
280
     1
  9
$LATITUDE
 40
37.795
  9
$LONGITUDE
 40
-122.394
  9
$NORTHDIRECTION
 40
0.0
  9
$TIMEZONE
 70
 -8000
  9
$LIGHTGLYPHDISPLAY
280
     1
  9
$TILEMODELIGHTSYNCH
280
     1
  9
$SOLIDHIST
280
     1
  9
$SHOWHIST
280
     1
  9
$DWFFRAME
280
     2
  9
$DGNFRAME
280
     2
  9
$REALWORLDSCALE
290
     1
  9
$INTERFERECOLOR
 62
   256
  9
$CSHADOW
280
     0
  9
$SHADOWPLANELOCATION
 40
0.0
  0
ENDSEC
  0
SECTION
  2
CLASSES
  0
CLASS
  1
ACDBDICTIONARYWDFLT
  2
AcDbDictionaryWithDefault
  3
ObjectDBX Classes
 90
        0
 91
        4
280
     0
281
     0
  0
CLASS
  1
VISUALSTYLE
  2
AcDbVisualStyle
  3
ObjectDBX Classes
 90
     4095
 91
        4
280
     0
281
     0
  0
CLASS
  1
MATERIAL
  2
AcDbMaterial
  3
ObjectDBX Classes
 90
     1153
 91
        4
280
     0
281
     0
  0
ENDSEC
  0
SECTION
  2
TABLES
  0
TABLE
  2
VPORT
  5
8
330
0
100
AcDbSymbolTable
 70
     1
  0
VPORT
  5
29
330
8
100
AcDbSymbolTableRecord
100
AcDbViewportTableRecord
  2
*Active
 70
     0
 10
0.0
 20
0.0
 11
1.0
 21
1.0
 12
10.42990654205607
 22
4.5
 13
0.0
 23
0.0
 14
0.5
 24
0.5
 15
0.5
 25
0.5
 16
0.0
 26
0.0
 36
1.0
 17
0.0
 27
0.0
 37
0.0
 40
9.0
 41
1.972972972850329
 42
50.0
 43
0.0
 44
0.0
 50
0.0
 51
0.0
 71
     0
 72
   100
 73
     1
 74
     3
 75
     0
 76
     0
 77
     0
 78
     0
281
     0
 65
     1
110
0.0
120
0.0
130
0.0
111
1.0
121
0.0
131
0.0
112
0.0
122
1.0
132
0.0
 79
     0
146
0.0
 60
     3
 61
     5
292
     1
282
     1
141
0.0
142
0.0
 63
   250
  0
ENDTAB
  0
TABLE
  2
LTYPE
  5
5
330
0
100
AcDbSymbolTable
 70
     1
  0
LTYPE
  5
14
330
5
100
AcDbSymbolTableRecord
100
AcDbLinetypeTableRecord
  2
ByBlock
 70
     0
  3

 72
    65
 73
     0
 40
0.0
  0
LTYPE
  5
15
330
5
100
AcDbSymbolTableRecord
100
AcDbLinetypeTableRecord
  2
ByLayer
 70
     0
  3

 72
    65
 73
     0
 40
0.0
  0
LTYPE
  5
16
330
5
100
AcDbSymbolTableRecord
100
AcDbLinetypeTableRecord
  2
Continuous
 70
     0
  3
Solid line
 72
    65
 73
     0
 40
0.0
  0
ENDTAB
  0
TABLE
  2
LAYER
  5
2
330
0
100
AcDbSymbolTable
 70
     2
  0
LAYER
  5
10
330
2
100
AcDbSymbolTableRecord
100
AcDbLayerTableRecord
  2
0
 70
     0
 62
     7
  6
Continuous
370
    -3
390
F
347
3E
  0
LAYER
  5
40
330
2
100
AcDbSymbolTableRecord
100
AcDbLayerTableRecord
  2
layer 1
 70
     0
 62
     7
  6
Continuous
370
    -3
390
F
347
3E
  0
ENDTAB
  0
TABLE
  2
STYLE
  5
3
330
0
100
AcDbSymbolTable
 70
     1
  0
STYLE
  5
11
330
3
100
AcDbSymbolTableRecord
100
AcDbTextStyleTableRecord
  2
Standard
 70
     0
 40
0.0
 41
1.0
 50
0.0
 71
     0
 42
0.2
  3
txt
  4

  0
ENDTAB
  0
TABLE
  2
VIEW
  5
6
330
0
100
AcDbSymbolTable
 70
     0
  0
ENDTAB
  0
TABLE
  2
UCS
  5
7
330
0
100
AcDbSymbolTable
 70
     0
  0
ENDTAB
  0
TABLE
  2
APPID
  5
9
330
0
100
AcDbSymbolTable
 70
     2
  0
APPID
  5
12
330
9
100
AcDbSymbolTableRecord
100
AcDbRegAppTableRecord
  2
ACAD
 70
     0
  0
APPID
  5
3F
330
9
100
AcDbSymbolTableRecord
100
AcDbRegAppTableRecord
  2
ODA
 70
     0
  0
ENDTAB
  0
TABLE
  2
DIMSTYLE
  5
A
330
0
100
AcDbSymbolTable
 70
     1
100
AcDbDimStyleTable
  0
DIMSTYLE
105
27
330
A
100
AcDbSymbolTableRecord
100
AcDbDimStyleTableRecord
  2
Standard
 70
     0
178
     0
340
11
  0
ENDTAB
  0
TABLE
  2
BLOCK_RECORD
  5
1
330
0
100
AcDbSymbolTable
 70
     1
  0
BLOCK_RECORD
  5
1F
330
1
100
AcDbSymbolTableRecord
100
AcDbBlockTableRecord
  2
*Model_Space
340
22
 70
     0
280
     1
281
     0
  0
BLOCK_RECORD
  5
1B
330
1
100
AcDbSymbolTableRecord
100
AcDbBlockTableRecord
  2
*Paper_Space
340
1E
 70
     0
280
     1
281
     0
  0
BLOCK_RECORD
  5
23
330
1
100
AcDbSymbolTableRecord
100
AcDbBlockTableRecord
  2
*Paper_Space0
340
26
 70
     0
280
     1
281
     0
  0
ENDTAB
  0
ENDSEC
  0
SECTION
  2
BLOCKS
  0
BLOCK
  5
20
330
1F
100
AcDbEntity
  8
0
100
AcDbBlockBegin
  2
*Model_Space
 70
     0
 10
0.0
 20
0.0
 30
0.0
  3
*Model_Space
  1

  0
ENDBLK
  5
21
330
1F
100
AcDbEntity
  8
0
100
AcDbBlockEnd
  0
BLOCK
  5
1C
330
1B
100
AcDbEntity
 67
     1
  8
0
100
AcDbBlockBegin
  2
*Paper_Space
 70
     0
 10
0.0
 20
0.0
 30
0.0
  3
*Paper_Space
  1

  0
ENDBLK
  5
1D
330
1B
100
AcDbEntity
 67
     1
  8
0
100
AcDbBlockEnd
  0
BLOCK
  5
24
330
23
100
AcDbEntity
  8
0
100
AcDbBlockBegin
  2
*Paper_Space0
 70
     0
 10
0.0
 20
0.0
 30
0.0
  3
*Paper_Space0
  1

  0
ENDBLK
  5
25
330
23
100
AcDbEntity
  8
0
100
AcDbBlockEnd
  0
ENDSEC
  0
SECTION
  2
ENTITIES
  0
LWPOLYLINE
  5
41
330
1F
100
AcDbEntity
  8
layer 1
 62
   250
100
AcDbPolyline
 90
        5
 70
     1
 43
0.0
 10
-60.8471
 20
-106.4083
 10
67.8503
 20
-106.4083
 10
67.8503
 20
131.8629
 10
-60.8471
 20
131.8629
 10
-60.8471
 20
-106.4083
  0
SPLINE
  5
42
330
1F
100
AcDbEntity
  8
layer 1
 62
     7
100
AcDbSpline
210
0.0
220
0.0
230
1.0
 70
    11
 71
     3
 72
    20
 73
    16
 74
     0
 42
0.0000000001
 43
0.0000000001
 12
1.0
 22
0.0
 32
0.0
 13
1.0
 23
0.0
 33
0.0
 40
0.0
 40
0.0
 40
0.0
 40
0.0
 40
0.2
 40
0.2
 40
0.2
 40
0.2
 40
0.4
 40
0.4
 40
0.4
 40
0.4
 40
0.6
 40
0.6
 40
0.6
 40
0.6
 40
1.0
 40
1.0
 40
1.0
 40
1.0
 10
-14.0922
 20
97.4689
 30
0.0
 10
-19.379
 20
95.5921
 30
0.0
 10
-23.1569
 20
91.7899
 30
0.0
 10
-24.8017
 20
86.7648
 30
0.0
 10
-24.8017
 20
86.7648
 30
0.0
 10
-26.4467
 20
91.7899
 30
0.0
 10
-30.2246
 20
95.5921
 30
0.0
 10
-35.5113
 20
97.4689
 30
0.0
 10
-35.5113
 20
97.4689
 30
0.0
 10
-30.2246
 20
99.3455
 30
0.0
 10
-26.4467
 20
103.1477
 30
0.0
 10
-24.8017
 20
108.1728
 30
0.0
 10
-24.8017
 20
108.1728
 30
0.0
 10
-23.1569
 20
103.1477
 30
0.0
 10
-19.379
 20
99.3455
 30
0.0
 10
-14.0922
 20
97.4689
 30
0.0
  0
SPLINE
  5
43
330
1F
100
AcDbEntity
  8
layer 1
 62
     7
100
AcDbSpline
210
0.0
220
0.0
230
1.0
 70
    11
 71
     3
 72
    20
 73
    16
 74
     0
 42
0.0000000001
 43
0.0000000001
 12
1.0
 22
0.0
 32
0.0
 13
1.0
 23
0.0
 33
0.0
 40
0.0
 40
0.0
 40
0.0
 40
0.0
 40
0.2
 40
0.2
 40
0.2
 40
0.2
 40
0.4
 40
0.4
 40
0.4
 40
0.4
 40
0.6
 40
0.6
 40
0.6
 40
0.6
 40
1.0
 40
1.0
 40
1.0
 40
1.0
 10
14.22
 20
97.4689
 30
0.0
 10
8.9333
 20
95.5921
 30
0.0
 10
5.1554
 20
91.7899
 30
0.0
 10
3.5105
 20
86.7648
 30
0.0
 10
3.5105
 20
86.7648
 30
0.0
 10
1.8655
 20
91.7899
 30
0.0
 10
-1.9124
 20
95.5921
 30
0.0
 10
-7.1991
 20
97.4689
 30
0.0
 10
-7.1991
 20
97.4689
 30
0.0
 10
-1.9124
 20
99.3455
 30
0.0
 10
1.8655
 20
103.1477
 30
0.0
 10
3.5105
 20
108.1728
 30
0.0
 10
3.5105
 20
108.1728
 30
0.0
 10
5.1554
 20
103.1477
 30
0.0
 10
8.9333
 20
99.3455
 30
0.0
 10
14.22
 20
97.4689
 30
0.0
  0
SPLINE
  5
44
330
1F
100
AcDbEntity
  8
layer 1
 62
     7
100
AcDbSpline
210
0.0
220
0.0
230
1.0
 70
    11
 71
     3
 72
    20
 73
    16
 74
     0
 42
0.0000000001
 43
0.0000000001
 12
1.0
 22
0.0
 32
0.0
 13
1.0
 23
0.0
 33
0.0
 40
0.0
 40
0.0
 40
0.0
 40
0.0
 40
0.2
 40
0.2
 40
0.2
 40
0.2
 40
0.4
 40
0.4
 40
0.4
 40
0.4
 40
0.6
 40
0.6
 40
0.6
 40
0.6
 40
1.0
 40
1.0
 40
1.0
 40
1.0
 10
42.5323
 20
97.4689
 30
0.0
 10
37.2456
 20
95.5921
 30
0.0
 10
33.4677
 20
91.7899
 30
0.0
 10
31.8228
 20
86.7648
 30
0.0
 10
31.8228
 20
86.7648
 30
0.0
 10
30.1778
 20
91.7899
 30
0.0
 10
26.3999
 20
95.5921
 30
0.0
 10
21.1132
 20
97.4689
 30
0.0
 10
21.1132
 20
97.4689
 30
0.0
 10
26.3999
 20
99.3455
 30
0.0
 10
30.1778
 20
103.1477
 30
0.0
 10
31.8228
 20
108.1728
 30
0.0
 10
31.8228
 20
108.1728
 30
0.0
 10
33.4677
 20
103.1477
 30
0.0
 10
37.2456
 20
99.3455
 30
0.0
 10
42.5323
 20
97.4689
 30
0.0
  0
SPLINE
  5
45
330
1F
100
AcDbEntity
  8
layer 1
 62
     7
100
AcDbSpline
210
0.0
220
0.0
230
1.0
 70
    11
 71
     3
 72
    16
 73
    12
 74
     0
 42
0.0000000001
 43
0.0000000001
 12
1.0
 22
0.0
 32
0.0
 13
1.0
 23
0.0
 33
0.0
 40
0.0
 40
0.0
 40
0.0
 40
0.0
 40
0.25
 40
0.25
 40
0.25
 40
0.25
 40
0.5
 40
0.5
 40
0.5
 40
0.5
 40
1.0
 40
1.0
 40
1.0
 40
1.0
 10
60.1351
 20
86.7648
 30
0.0
 10
58.4901
 20
91.7899
 30
0.0
 10
54.7122
 20
95.5921
 30
0.0
 10
49.4255
 20
97.4689
 30
0.0
 10
49.4255
 20
97.4689
 30
0.0
 10
54.7122
 20
99.3455
 30
0.0
 10
58.4901
 20
103.1477
 30
0.0
 10
60.1351
 20
108.1728
 30
0.0
 10
60.1351
 20
108.1728
 30
0.0
 10
60.1351
 20
108.1728
 30
0.0
 10
60.1351
 20
86.7648
 30
0.0
 10
60.1351
 20
86.7648
 30
0.0
  0
SPLINE
  5
46
330
1F
100
AcDbEntity
  8
layer 1
 62
     7
100
AcDbSpline
210
0.0
220
0.0
230
1.0
 70
    11
 71
     3
 72
    16
 73
    12
 74
     0
 42
0.0000000001
 43
0.0000000001
 12
1.0
 22
0.0
 32
0.0
 13
1.0
 23
0.0
 33
0.0
 40
0.0
 40
0.0
 40
0.0
 40
0.0
 40
0.25
 40
0.25
 40
0.25
 40
0.25
 40
0.5
 40
0.5
 40
0.5
 40
0.5
 40
1.0
 40
1.0
 40
1.0
 40
1.0
 10
-42.4223
 20
97.4689
 30
0.0
 10
-47.709
 20
95.5921
 30
0.0
 10
-51.4869
 20
91.7899
 30
0.0
 10
-53.1318
 20
86.7648
 30
0.0
 10
-53.1318
 20
86.7648
 30
0.0
 10
-53.1318
 20
86.7648
 30
0.0
 10
-53.1318
 20
108.1728
 30
0.0
 10
-53.1318
 20
108.1728
 30
0.0
 10
-53.1318
 20
108.1728
 30
0.0
 10
-51.4869
 20
103.1477
 30
0.0
 10
-47.709
 20
99.3455
 30
0.0
 10
-42.4223
 20
97.4689
 30
0.0
  0
SPLINE
  5
47
330
1F
100
AcDbEntity
  8
layer 1
 62
     7
100
AcDbSpline
210
0.0
220
0.0
230
1.0
 70
    11
 71
     3
 72
    20
 73
    16
 74
     0
 42
0.0000000001
 43
0.0000000001
 12
1.0
 22
0.0
 32
0.0
 13
1.0
 23
0.0
 33
0.0
 40
0.0
 40
0.0
 40
0.0
 40
0.0
 40
0.2
 40
0.2
 40
0.2
 40
0.2
 40
0.4
 40
0.4
 40
0.4
 40
0.4
 40
0.6
 40
0.6
 40
0.6
 40
0.6
 40
1.0
 40
1.0
 40
1.0
 40
1.0
 10
-28.2549
 20
111.628
 30
0.0
 10
-33.5416
 20
109.7512
 30
0.0
 10
-37.3195
 20
105.949
 30
0.0
 10
-38.9644
 20
100.9239
 30
0.0
 10
-38.9644
 20
100.9239
 30
0.0
 10
-40.6093
 20
105.949
 30
0.0
 10
-44.3873
 20
109.7512
 30
0.0
 10
-49.674
 20
111.628
 30
0.0
 10
-49.674
 20
111.628
 30
0.0
 10
-44.3873
 20
113.5046
 30
0.0
 10
-40.6093
 20
117.3068
 30
0.0
 10
-38.9644
 20
122.3319
 30
0.0
 10
-38.9644
 20
122.3319
 30
0.0
 10
-37.3195
 20
117.3068
 30
0.0
 10
-33.5416
 20
113.5046
 30
0.0
 10
-28.2549
 20
111.628
 30
0.0
  0
SPLINE
  5
48
330
1F
100
AcDbEntity
  8
layer 1
 62
     7
100
AcDbSpline
210
0.0
220
0.0
230
1.0
 70
    11
 71
     3
 72
    20
 73
    16
 74
     0
 42
0.0000000001
 43
0.0000000001
 12
1.0
 22
0.0
 32
0.0
 13
1.0
 23
0.0
 33
0.0
 40
0.0
 40
0.0
 40
0.0
 40
0.0
 40
0.2
 40
0.2
 40
0.2
 40
0.2
 40
0.4
 40
0.4
 40
0.4
 40
0.4
 40
0.6
 40
0.6
 40
0.6
 40
0.6
 40
1.0
 40
1.0
 40
1.0
 40
1.0
 10
0.0561
 20
111.628
 30
0.0
 10
-5.2306
 20
109.7512
 30
0.0
 10
-9.0085
 20
105.949
 30
0.0
 10
-10.6534
 20
100.9239
 30
0.0
 10
-10.6534
 20
100.9239
 30
0.0
 10
-12.2983
 20
105.949
 30
0.0
 10
-16.0763
 20
109.7512
 30
0.0
 10
-21.363
 20
111.628
 30
0.0
 10
-21.363
 20
111.628
 30
0.0
 10
-16.0763
 20
113.5046
 30
0.0
 10
-12.2983
 20
117.3068
 30
0.0
 10
-10.6534
 20
122.3319
 30
0.0
 10
-10.6534
 20
122.3319
 30
0.0
 10
-9.0085
 20
117.3068
 30
0.0
 10
-5.2306
 20
113.5046
 30
0.0
 10
0.0561
 20
111.628
 30
0.0
  0
SPLINE
  5
49
330
1F
100
AcDbEntity
  8
layer 1
 62
     7
100
AcDbSpline
210
0.0
220
0.0
230
1.0
 70
    11
 71
     3
 72
    20
 73
    16
 74
     0
 42
0.0000000001
 43
0.0000000001
 12
1.0
 22
0.0
 32
0.0
 13
1.0
 23
0.0
 33
0.0
 40
0.0
 40
0.0
 40
0.0
 40
0.0
 40
0.2
 40
0.2
 40
0.2
 40
0.2
 40
0.4
 40
0.4
 40
0.4
 40
0.4
 40
0.6
 40
0.6
 40
0.6
 40
0.6
 40
1.0
 40
1.0
 40
1.0
 40
1.0
 10
28.3671
 20
111.628
 30
0.0
 10
23.0804
 20
109.7512
 30
0.0
 10
19.3025
 20
105.949
 30
0.0
 10
17.6576
 20
100.9239
 30
0.0
 10
17.6576
 20
100.9239
 30
0.0
 10
16.0127
 20
105.949
 30
0.0
 10
12.2347
 20
109.7512
 30
0.0
 10
6.948
 20
111.628
 30
0.0
 10
6.948
 20
111.628
 30
0.0
 10
12.2347
 20
113.5046
 30
0.0
 10
16.0127
 20
117.3068
 30
0.0
 10
17.6576
 20
122.3319
 30
0.0
 10
17.6576
 20
122.3319
 30
0.0
 10
19.3025
 20
117.3068
 30
0.0
 10
23.0804
 20
113.5046
 30
0.0
 10
28.3671
 20
111.628
 30
0.0
  0
SPLINE
  5
4A
330
1F
100
AcDbEntity
  8
layer 1
 62
     7
100
AcDbSpline
210
0.0
220
0.0
230
1.0
 70
    11
 71
     3
 72
    20
 73
    16
 74
     0
 42
0.0000000001
 43
0.0000000001
 12
1.0
 22
0.0
 32
0.0
 13
1.0
 23
0.0
 33
0.0
 40
0.0
 40
0.0
 40
0.0
 40
0.0
 40
0.2
 40
0.2
 40
0.2
 40
0.2
 40
0.4
 40
0.4
 40
0.4
 40
0.4
 40
0.6
 40
0.6
 40
0.6
 40
0.6
 40
1.0
 40
1.0
 40
1.0
 40
1.0
 10
56.6781
 20
111.628
 30
0.0
 10
51.3914
 20
109.7512
 30
0.0
 10
47.6135
 20
105.949
 30
0.0
 10
45.9686
 20
100.9239
 30
0.0
 10
45.9686
 20
100.9239
 30
0.0
 10
44.3237
 20
105.949
 30
0.0
 10
40.5457
 20
109.7512
 30
0.0
 10
35.259
 20
111.628
 30
0.0
 10
35.259
 20
111.628
 30
0.0
 10
40.5457
 20
113.5046
 30
0.0
 10
44.3237
 20
117.3068
 30
0.0
 10
45.9686
 20
122.3319
 30
0.0
 10
45.9686
 20
122.3319
 30
0.0
 10
47.6135
 20
117.3068
 30
0.0
 10
51.3914
 20
113.5046
 30
0.0
 10
56.6781
 20
111.628
 30
0.0
  0
SPLINE
  5
4B
330
1F
100
AcDbEntity
  8
layer 1
 62
     7
100
AcDbSpline
210
0.0
220
0.0
230
1.0
 70
    11
 71
     3
 72
    20
 73
    16
 74
     0
 42
0.0000000001
 43
0.0000000001
 12
1.0
 22
0.0
 32
0.0
 13
1.0
 23
0.0
 33
0.0
 40
0.0
 40
0.0
 40
0.0
 40
0.0
 40
0.2
 40
0.2
 40
0.2
 40
0.2
 40
0.4
 40
0.4
 40
0.4
 40
0.4
 40
0.6
 40
0.6
 40
0.6
 40
0.6
 40
1.0
 40
1.0
 40
1.0
 40
1.0
 10
-14.0922
 20
69.2122
 30
0.0
 10
-19.379
 20
67.3355
 30
0.0
 10
-23.1569
 20
63.5333
 30
0.0
 10
-24.8017
 20
58.5081
 30
0.0
 10
-24.8017
 20
58.5081
 30
0.0
 10
-26.4467
 20
63.5333
 30
0.0
 10
-30.2246
 20
67.3355
 30
0.0
 10
-35.5113
 20
69.2122
 30
0.0
 10
-35.5113
 20
69.2122
 30
0.0
 10
-30.2246
 20
71.0888
 30
0.0
 10
-26.4467
 20
74.891
 30
0.0
 10
-24.8017
 20
79.9162
 30
0.0
 10
-24.8017
 20
79.9162
 30
0.0
 10
-23.1569
 20
74.891
 30
0.0
 10
-19.379
 20
71.0888
 30
0.0
 10
-14.0922
 20
69.2122
 30
0.0
  0
SPLINE
  5
4C
330
1F
100
AcDbEntity
  8
layer 1
 62
     7
100
AcDbSpline
210
0.0
220
0.0
230
1.0
 70
    11
 71
     3
 72
    20
 73
    16
 74
     0
 42
0.0000000001
 43
0.0000000001
 12
1.0
 22
0.0
 32
0.0
 13
1.0
 23
0.0
 33
0.0
 40
0.0
 40
0.0
 40
0.0
 40
0.0
 40
0.2
 40
0.2
 40
0.2
 40
0.2
 40
0.4
 40
0.4
 40
0.4
 40
0.4
 40
0.6
 40
0.6
 40
0.6
 40
0.6
 40
1.0
 40
1.0
 40
1.0
 40
1.0
 10
14.22
 20
69.2122
 30
0.0
 10
8.9333
 20
67.3355
 30
0.0
 10
5.1554
 20
63.5333
 30
0.0
 10
3.5105
 20
58.5081
 30
0.0
 10
3.5105
 20
58.5081
 30
0.0
 10
1.8655
 20
63.5333
 30
0.0
 10
-1.9124
 20
67.3355
 30
0.0
 10
-7.1991
 20
69.2122
 30
0.0
 10
-7.1991
 20
69.2122
 30
0.0
 10
-1.9124
 20
71.0888
 30
0.0
 10
1.8655
 20
74.891
 30
0.0
 10
3.5105
 20
79.9162
 30
0.0
 10
3.5105
 20
79.9162
 30
0.0
 10
5.1554
 20
74.891
 30
0.0
 10
8.9333
 20
71.0888
 30
0.0
 10
14.22
 20
69.2122
 30
0.0
  0
SPLINE
  5
4D
330
1F
100
AcDbEntity
  8
layer 1
 62
     7
100
AcDbSpline
210
0.0
220
0.0
230
1.0
 70
    11
 71
     3
 72
    20
 73
    16
 74
     0
 42
0.0000000001
 43
0.0000000001
 12
1.0
 22
0.0
 32
0.0
 13
1.0
 23
0.0
 33
0.0
 40
0.0
 40
0.0
 40
0.0
 40
0.0
 40
0.2
 40
0.2
 40
0.2
 40
0.2
 40
0.4
 40
0.4
 40
0.4
 40
0.4
 40
0.6
 40
0.6
 40
0.6
 40
0.6
 40
1.0
 40
1.0
 40
1.0
 40
1.0
 10
42.5323
 20
69.2122
 30
0.0
 10
37.2456
 20
67.3355
 30
0.0
 10
33.4677
 20
63.5333
 30
0.0
 10
31.8228
 20
58.5081
 30
0.0
 10
31.8228
 20
58.5081
 30
0.0
 10
30.1778
 20
63.5333
 30
0.0
 10
26.3999
 20
67.3355
 30
0.0
 10
21.1132
 20
69.2122
 30
0.0
 10
21.1132
 20
69.2122
 30
0.0
 10
26.3999
 20
71.0888
 30
0.0
 10
30.1778
 20
74.891
 30
0.0
 10
31.8228
 20
79.9162
 30
0.0
 10
31.8228
 20
79.9162
 30
0.0
 10
33.4677
 20
74.891
 30
0.0
 10
37.2456
 20
71.0888
 30
0.0
 10
42.5323
 20
69.2122
 30
0.0
  0
SPLINE
  5
4E
330
1F
100
AcDbEntity
  8
layer 1
 62
     7
100
AcDbSpline
210
0.0
220
0.0
230
1.0
 70
    11
 71
     3
 72
    16
 73
    12
 74
     0
 42
0.0000000001
 43
0.0000000001
 12
1.0
 22
0.0
 32
0.0
 13
1.0
 23
0.0
 33
0.0
 40
0.0
 40
0.0
 40
0.0
 40
0.0
 40
0.25
 40
0.25
 40
0.25
 40
0.25
 40
0.5
 40
0.5
 40
0.5
 40
0.5
 40
1.0
 40
1.0
 40
1.0
 40
1.0
 10
60.1351
 20
58.5081
 30
0.0
 10
58.4901
 20
63.5333
 30
0.0
 10
54.7122
 20
67.3355
 30
0.0
 10
49.4255
 20
69.2122
 30
0.0
 10
49.4255
 20
69.2122
 30
0.0
 10
54.7122
 20
71.0888
 30
0.0
 10
58.4901
 20
74.891
 30
0.0
 10
60.1351
 20
79.9162
 30
0.0
 10
60.1351
 20
79.9162
 30
0.0
 10
60.1351
 20
79.9162
 30
0.0
 10
60.1351
 20
58.5081
 30
0.0
 10
60.1351
 20
58.5081
 30
0.0
  0
SPLINE
  5
4F
330
1F
100
AcDbEntity
  8
layer 1
 62
     7
100
AcDbSpline
210
0.0
220
0.0
230
1.0
 70
    11
 71
     3
 72
    16
 73
    12
 74
     0
 42
0.0000000001
 43
0.0000000001
 12
1.0
 22
0.0
 32
0.0
 13
1.0
 23
0.0
 33
0.0
 40
0.0
 40
0.0
 40
0.0
 40
0.0
 40
0.25
 40
0.25
 40
0.25
 40
0.25
 40
0.5
 40
0.5
 40
0.5
 40
0.5
 40
1.0
 40
1.0
 40
1.0
 40
1.0
 10
-42.4223
 20
69.2122
 30
0.0
 10
-47.709
 20
67.3355
 30
0.0
 10
-51.4869
 20
63.5333
 30
0.0
 10
-53.1318
 20
58.5081
 30
0.0
 10
-53.1318
 20
58.5081
 30
0.0
 10
-53.1318
 20
58.5081
 30
0.0
 10
-53.1318
 20
79.9162
 30
0.0
 10
-53.1318
 20
79.9162
 30
0.0
 10
-53.1318
 20
79.9162
 30
0.0
 10
-51.4869
 20
74.891
 30
0.0
 10
-47.709
 20
71.0888
 30
0.0
 10
-42.4223
 20
69.2122
 30
0.0
  0
SPLINE
  5
50
330
1F
100
AcDbEntity
  8
layer 1
 62
     7
100
AcDbSpline
210
0.0
220
0.0
230
1.0
 70
    11
 71
     3
 72
    20
 73
    16
 74
     0
 42
0.0000000001
 43
0.0000000001
 12
1.0
 22
0.0
 32
0.0
 13
1.0
 23
0.0
 33
0.0
 40
0.0
 40
0.0
 40
0.0
 40
0.0
 40
0.2
 40
0.2
 40
0.2
 40
0.2
 40
0.4
 40
0.4
 40
0.4
 40
0.4
 40
0.6
 40
0.6
 40
0.6
 40
0.6
 40
1.0
 40
1.0
 40
1.0
 40
1.0
 10
-28.2549
 20
83.3713
 30
0.0
 10
-33.5416
 20
81.4946
 30
0.0
 10
-37.3195
 20
77.6924
 30
0.0
 10
-38.9644
 20
72.6672
 30
0.0
 10
-38.9644
 20
72.6672
 30
0.0
 10
-40.6093
 20
77.6924
 30
0.0
 10
-44.3873
 20
81.4946
 30
0.0
 10
-49.674
 20
83.3713
 30
0.0
 10
-49.674
 20
83.3713
 30
0.0
 10
-44.3873
 20
85.2479
 30
0.0
 10
-40.6093
 20
89.0501
 30
0.0
 10
-38.9644
 20
94.0753
 30
0.0
 10
-38.9644
 20
94.0753
 30
0.0
 10
-37.3195
 20
89.0501
 30
0.0
 10
-33.5416
 20
85.2479
 30
0.0
 10
-28.2549
 20
83.3713
 30
0.0
  0
SPLINE
  5
51
330
1F
100
AcDbEntity
  8
layer 1
 62
     7
100
AcDbSpline
210
0.0
220
0.0
230
1.0
 70
    11
 71
     3
 72
    20
 73
    16
 74
     0
 42
0.0000000001
 43
0.0000000001
 12
1.0
 22
0.0
 32
0.0
 13
1.0
 23
0.0
 33
0.0
 40
0.0
 40
0.0
 40
0.0
 40
0.0
 40
0.2
 40
0.2
 40
0.2
 40
0.2
 40
0.4
 40
0.4
 40
0.4
 40
0.4
 40
0.6
 40
0.6
 40
0.6
 40
0.6
 40
1.0
 40
1.0
 40
1.0
 40
1.0
 10
0.0561
 20
83.3713
 30
0.0
 10
-5.2306
 20
81.4946
 30
0.0
 10
-9.0085
 20
77.6924
 30
0.0
 10
-10.6534
 20
72.6672
 30
0.0
 10
-10.6534
 20
72.6672
 30
0.0
 10
-12.2983
 20
77.6924
 30
0.0
 10
-16.0763
 20
81.4946
 30
0.0
 10
-21.363
 20
83.3713
 30
0.0
 10
-21.363
 20
83.3713
 30
0.0
 10
-16.0763
 20
85.2479
 30
0.0
 10
-12.2983
 20
89.0501
 30
0.0
 10
-10.6534
 20
94.0753
 30
0.0
 10
-10.6534
 20
94.0753
 30
0.0
 10
-9.0085
 20
89.0501
 30
0.0
 10
-5.2306
 20
85.2479
 30
0.0
 10
0.0561
 20
83.3713
 30
0.0
  0
SPLINE
  5
52
330
1F
100
AcDbEntity
  8
layer 1
 62
     7
100
AcDbSpline
210
0.0
220
0.0
230
1.0
 70
    11
 71
     3
 72
    20
 73
    16
 74
     0
 42
0.0000000001
 43
0.0000000001
 12
1.0
 22
0.0
 32
0.0
 13
1.0
 23
0.0
 33
0.0
 40
0.0
 40
0.0
 40
0.0
 40
0.0
 40
0.2
 40
0.2
 40
0.2
 40
0.2
 40
0.4
 40
0.4
 40
0.4
 40
0.4
 40
0.6
 40
0.6
 40
0.6
 40
0.6
 40
1.0
 40
1.0
 40
1.0
 40
1.0
 10
28.3671
 20
83.3713
 30
0.0
 10
23.0804
 20
81.4946
 30
0.0
 10
19.3025
 20
77.6924
 30
0.0
 10
17.6576
 20
72.6672
 30
0.0
 10
17.6576
 20
72.6672
 30
0.0
 10
16.0127
 20
77.6924
 30
0.0
 10
12.2347
 20
81.4946
 30
0.0
 10
6.948
 20
83.3713
 30
0.0
 10
6.948
 20
83.3713
 30
0.0
 10
12.2347
 20
85.2479
 30
0.0
 10
16.0127
 20
89.0501
 30
0.0
 10
17.6576
 20
94.0753
 30
0.0
 10
17.6576
 20
94.0753
 30
0.0
 10
19.3025
 20
89.0501
 30
0.0
 10
23.0804
 20
85.2479
 30
0.0
 10
28.3671
 20
83.3713
 30
0.0
  0
SPLINE
  5
53
330
1F
100
AcDbEntity
  8
layer 1
 62
     7
100
AcDbSpline
210
0.0
220
0.0
230
1.0
 70
    11
 71
     3
 72
    20
 73
    16
 74
     0
 42
0.0000000001
 43
0.0000000001
 12
1.0
 22
0.0
 32
0.0
 13
1.0
 23
0.0
 33
0.0
 40
0.0
 40
0.0
 40
0.0
 40
0.0
 40
0.2
 40
0.2
 40
0.2
 40
0.2
 40
0.4
 40
0.4
 40
0.4
 40
0.4
 40
0.6
 40
0.6
 40
0.6
 40
0.6
 40
1.0
 40
1.0
 40
1.0
 40
1.0
 10
56.6781
 20
83.3713
 30
0.0
 10
51.3914
 20
81.4946
 30
0.0
 10
47.6135
 20
77.6924
 30
0.0
 10
45.9686
 20
72.6672
 30
0.0
 10
45.9686
 20
72.6672
 30
0.0
 10
44.3237
 20
77.6924
 30
0.0
 10
40.5457
 20
81.4946
 30
0.0
 10
35.259
 20
83.3713
 30
0.0
 10
35.259
 20
83.3713
 30
0.0
 10
40.5457
 20
85.2479
 30
0.0
 10
44.3237
 20
89.0501
 30
0.0
 10
45.9686
 20
94.0753
 30
0.0
 10
45.9686
 20
94.0753
 30
0.0
 10
47.6135
 20
89.0501
 30
0.0
 10
51.3914
 20
85.2479
 30
0.0
 10
56.6781
 20
83.3713
 30
0.0
  0
SPLINE
  5
54
330
1F
100
AcDbEntity
  8
layer 1
 62
     7
100
AcDbSpline
210
0.0
220
0.0
230
1.0
 70
    11
 71
     3
 72
    20
 73
    16
 74
     0
 42
0.0000000001
 43
0.0000000001
 12
1.0
 22
0.0
 32
0.0
 13
1.0
 23
0.0
 33
0.0
 40
0.0
 40
0.0
 40
0.0
 40
0.0
 40
0.2
 40
0.2
 40
0.2
 40
0.2
 40
0.4
 40
0.4
 40
0.4
 40
0.4
 40
0.6
 40
0.6
 40
0.6
 40
0.6
 40
1.0
 40
1.0
 40
1.0
 40
1.0
 10
-14.0922
 20
40.9556
 30
0.0
 10
-19.379
 20
39.0788
 30
0.0
 10
-23.1569
 20
35.2766
 30
0.0
 10
-24.8017
 20
30.2514
 30
0.0
 10
-24.8017
 20
30.2514
 30
0.0
 10
-26.4467
 20
35.2766
 30
0.0
 10
-30.2246
 20
39.0788
 30
0.0
 10
-35.5113
 20
40.9556
 30
0.0
 10
-35.5113
 20
40.9556
 30
0.0
 10
-30.2246
 20
42.8322
 30
0.0
 10
-26.4467
 20
46.6344
 30
0.0
 10
-24.8017
 20
51.6595
 30
0.0
 10
-24.8017
 20
51.6595
 30
0.0
 10
-23.1569
 20
46.6344
 30
0.0
 10
-19.379
 20
42.8322
 30
0.0
 10
-14.0922
 20
40.9556
 30
0.0
  0
SPLINE
  5
55
330
1F
100
AcDbEntity
  8
layer 1
 62
     7
100
AcDbSpline
210
0.0
220
0.0
230
1.0
 70
    11
 71
     3
 72
    20
 73
    16
 74
     0
 42
0.0000000001
 43
0.0000000001
 12
1.0
 22
0.0
 32
0.0
 13
1.0
 23
0.0
 33
0.0
 40
0.0
 40
0.0
 40
0.0
 40
0.0
 40
0.2
 40
0.2
 40
0.2
 40
0.2
 40
0.4
 40
0.4
 40
0.4
 40
0.4
 40
0.6
 40
0.6
 40
0.6
 40
0.6
 40
1.0
 40
1.0
 40
1.0
 40
1.0
 10
14.22
 20
40.9556
 30
0.0
 10
8.9333
 20
39.0788
 30
0.0
 10
5.1554
 20
35.2766
 30
0.0
 10
3.5105
 20
30.2514
 30
0.0
 10
3.5105
 20
30.2514
 30
0.0
 10
1.8655
 20
35.2766
 30
0.0
 10
-1.9124
 20
39.0788
 30
0.0
 10
-7.1991
 20
40.9556
 30
0.0
 10
-7.1991
 20
40.9556
 30
0.0
 10
-1.9124
 20
42.8322
 30
0.0
 10
1.8655
 20
46.6344
 30
0.0
 10
3.5105
 20
51.6595
 30
0.0
 10
3.5105
 20
51.6595
 30
0.0
 10
5.1554
 20
46.6344
 30
0.0
 10
8.9333
 20
42.8322
 30
0.0
 10
14.22
 20
40.9556
 30
0.0
  0
SPLINE
  5
56
330
1F
100
AcDbEntity
  8
layer 1
 62
     7
100
AcDbSpline
210
0.0
220
0.0
230
1.0
 70
    11
 71
     3
 72
    20
 73
    16
 74
     0
 42
0.0000000001
 43
0.0000000001
 12
1.0
 22
0.0
 32
0.0
 13
1.0
 23
0.0
 33
0.0
 40
0.0
 40
0.0
 40
0.0
 40
0.0
 40
0.2
 40
0.2
 40
0.2
 40
0.2
 40
0.4
 40
0.4
 40
0.4
 40
0.4
 40
0.6
 40
0.6
 40
0.6
 40
0.6
 40
1.0
 40
1.0
 40
1.0
 40
1.0
 10
42.5323
 20
40.9556
 30
0.0
 10
37.2456
 20
39.0788
 30
0.0
 10
33.4677
 20
35.2766
 30
0.0
 10
31.8228
 20
30.2514
 30
0.0
 10
31.8228
 20
30.2514
 30
0.0
 10
30.1778
 20
35.2766
 30
0.0
 10
26.3999
 20
39.0788
 30
0.0
 10
21.1132
 20
40.9556
 30
0.0
 10
21.1132
 20
40.9556
 30
0.0
 10
26.3999
 20
42.8322
 30
0.0
 10
30.1778
 20
46.6344
 30
0.0
 10
31.8228
 20
51.6595
 30
0.0
 10
31.8228
 20
51.6595
 30
0.0
 10
33.4677
 20
46.6344
 30
0.0
 10
37.2456
 20
42.8322
 30
0.0
 10
42.5323
 20
40.9556
 30
0.0
  0
SPLINE
  5
57
330
1F
100
AcDbEntity
  8
layer 1
 62
     7
100
AcDbSpline
210
0.0
220
0.0
230
1.0
 70
    11
 71
     3
 72
    16
 73
    12
 74
     0
 42
0.0000000001
 43
0.0000000001
 12
1.0
 22
0.0
 32
0.0
 13
1.0
 23
0.0
 33
0.0
 40
0.0
 40
0.0
 40
0.0
 40
0.0
 40
0.25
 40
0.25
 40
0.25
 40
0.25
 40
0.5
 40
0.5
 40
0.5
 40
0.5
 40
1.0
 40
1.0
 40
1.0
 40
1.0
 10
60.1351
 20
30.2514
 30
0.0
 10
58.4901
 20
35.2766
 30
0.0
 10
54.7122
 20
39.0788
 30
0.0
 10
49.4255
 20
40.9556
 30
0.0
 10
49.4255
 20
40.9556
 30
0.0
 10
54.7122
 20
42.8322
 30
0.0
 10
58.4901
 20
46.6344
 30
0.0
 10
60.1351
 20
51.6595
 30
0.0
 10
60.1351
 20
51.6595
 30
0.0
 10
60.1351
 20
51.6595
 30
0.0
 10
60.1351
 20
30.2514
 30
0.0
 10
60.1351
 20
30.2514
 30
0.0
  0
SPLINE
  5
58
330
1F
100
AcDbEntity
  8
layer 1
 62
     7
100
AcDbSpline
210
0.0
220
0.0
230
1.0
 70
    11
 71
     3
 72
    16
 73
    12
 74
     0
 42
0.0000000001
 43
0.0000000001
 12
1.0
 22
0.0
 32
0.0
 13
1.0
 23
0.0
 33
0.0
 40
0.0
 40
0.0
 40
0.0
 40
0.0
 40
0.25
 40
0.25
 40
0.25
 40
0.25
 40
0.5
 40
0.5
 40
0.5
 40
0.5
 40
1.0
 40
1.0
 40
1.0
 40
1.0
 10
-42.4223
 20
40.9556
 30
0.0
 10
-47.709
 20
39.0788
 30
0.0
 10
-51.4869
 20
35.2766
 30
0.0
 10
-53.1318
 20
30.2514
 30
0.0
 10
-53.1318
 20
30.2514
 30
0.0
 10
-53.1318
 20
30.2514
 30
0.0
 10
-53.1318
 20
51.6595
 30
0.0
 10
-53.1318
 20
51.6595
 30
0.0
 10
-53.1318
 20
51.6595
 30
0.0
 10
-51.4869
 20
46.6344
 30
0.0
 10
-47.709
 20
42.8322
 30
0.0
 10
-42.4223
 20
40.9556
 30
0.0
  0
SPLINE
  5
59
330
1F
100
AcDbEntity
  8
layer 1
 62
     7
100
AcDbSpline
210
0.0
220
0.0
230
1.0
 70
    11
 71
     3
 72
    20
 73
    16
 74
     0
 42
0.0000000001
 43
0.0000000001
 12
1.0
 22
0.0
 32
0.0
 13
1.0
 23
0.0
 33
0.0
 40
0.0
 40
0.0
 40
0.0
 40
0.0
 40
0.2
 40
0.2
 40
0.2
 40
0.2
 40
0.4
 40
0.4
 40
0.4
 40
0.4
 40
0.6
 40
0.6
 40
0.6
 40
0.6
 40
1.0
 40
1.0
 40
1.0
 40
1.0
 10
-28.2549
 20
55.1147
 30
0.0
 10
-33.5416
 20
53.2379
 30
0.0
 10
-37.3195
 20
49.4357
 30
0.0
 10
-38.9644
 20
44.4105
 30
0.0
 10
-38.9644
 20
44.4105
 30
0.0
 10
-40.6093
 20
49.4357
 30
0.0
 10
-44.3873
 20
53.2379
 30
0.0
 10
-49.674
 20
55.1147
 30
0.0
 10
-49.674
 20
55.1147
 30
0.0
 10
-44.3873
 20
56.9913
 30
0.0
 10
-40.6093
 20
60.7935
 30
0.0
 10
-38.9644
 20
65.8186
 30
0.0
 10
-38.9644
 20
65.8186
 30
0.0
 10
-37.3195
 20
60.7935
 30
0.0
 10
-33.5416
 20
56.9913
 30
0.0
 10
-28.2549
 20
55.1147
 30
0.0
  0
SPLINE
  5
5A
330
1F
100
AcDbEntity
  8
layer 1
 62
     7
100
AcDbSpline
210
0.0
220
0.0
230
1.0
 70
    11
 71
     3
 72
    20
 73
    16
 74
     0
 42
0.0000000001
 43
0.0000000001
 12
1.0
 22
0.0
 32
0.0
 13
1.0
 23
0.0
 33
0.0
 40
0.0
 40
0.0
 40
0.0
 40
0.0
 40
0.2
 40
0.2
 40
0.2
 40
0.2
 40
0.4
 40
0.4
 40
0.4
 40
0.4
 40
0.6
 40
0.6
 40
0.6
 40
0.6
 40
1.0
 40
1.0
 40
1.0
 40
1.0
 10
0.0561
 20
55.1147
 30
0.0
 10
-5.2306
 20
53.2379
 30
0.0
 10
-9.0085
 20
49.4357
 30
0.0
 10
-10.6534
 20
44.4105
 30
0.0
 10
-10.6534
 20
44.4105
 30
0.0
 10
-12.2983
 20
49.4357
 30
0.0
 10
-16.0763
 20
53.2379
 30
0.0
 10
-21.363
 20
55.1147
 30
0.0
 10
-21.363
 20
55.1147
 30
0.0
 10
-16.0763
 20
56.9913
 30
0.0
 10
-12.2983
 20
60.7935
 30
0.0
 10
-10.6534
 20
65.8186
 30
0.0
 10
-10.6534
 20
65.8186
 30
0.0
 10
-9.0085
 20
60.7935
 30
0.0
 10
-5.2306
 20
56.9913
 30
0.0
 10
0.0561
 20
55.1147
 30
0.0
  0
SPLINE
  5
5B
330
1F
100
AcDbEntity
  8
layer 1
 62
     7
100
AcDbSpline
210
0.0
220
0.0
230
1.0
 70
    11
 71
     3
 72
    20
 73
    16
 74
     0
 42
0.0000000001
 43
0.0000000001
 12
1.0
 22
0.0
 32
0.0
 13
1.0
 23
0.0
 33
0.0
 40
0.0
 40
0.0
 40
0.0
 40
0.0
 40
0.2
 40
0.2
 40
0.2
 40
0.2
 40
0.4
 40
0.4
 40
0.4
 40
0.4
 40
0.6
 40
0.6
 40
0.6
 40
0.6
 40
1.0
 40
1.0
 40
1.0
 40
1.0
 10
28.3671
 20
55.1147
 30
0.0
 10
23.0804
 20
53.2379
 30
0.0
 10
19.3025
 20
49.4357
 30
0.0
 10
17.6576
 20
44.4105
 30
0.0
 10
17.6576
 20
44.4105
 30
0.0
 10
16.0127
 20
49.4357
 30
0.0
 10
12.2347
 20
53.2379
 30
0.0
 10
6.948
 20
55.1147
 30
0.0
 10
6.948
 20
55.1147
 30
0.0
 10
12.2347
 20
56.9913
 30
0.0
 10
16.0127
 20
60.7935
 30
0.0
 10
17.6576
 20
65.8186
 30
0.0
 10
17.6576
 20
65.8186
 30
0.0
 10
19.3025
 20
60.7935
 30
0.0
 10
23.0804
 20
56.9913
 30
0.0
 10
28.3671
 20
55.1147
 30
0.0
  0
SPLINE
  5
5C
330
1F
100
AcDbEntity
  8
layer 1
 62
     7
100
AcDbSpline
210
0.0
220
0.0
230
1.0
 70
    11
 71
     3
 72
    20
 73
    16
 74
     0
 42
0.0000000001
 43
0.0000000001
 12
1.0
 22
0.0
 32
0.0
 13
1.0
 23
0.0
 33
0.0
 40
0.0
 40
0.0
 40
0.0
 40
0.0
 40
0.2
 40
0.2
 40
0.2
 40
0.2
 40
0.4
 40
0.4
 40
0.4
 40
0.4
 40
0.6
 40
0.6
 40
0.6
 40
0.6
 40
1.0
 40
1.0
 40
1.0
 40
1.0
 10
56.6781
 20
55.1147
 30
0.0
 10
51.3914
 20
53.2379
 30
0.0
 10
47.6135
 20
49.4357
 30
0.0
 10
45.9686
 20
44.4105
 30
0.0
 10
45.9686
 20
44.4105
 30
0.0
 10
44.3237
 20
49.4357
 30
0.0
 10
40.5457
 20
53.2379
 30
0.0
 10
35.259
 20
55.1147
 30
0.0
 10
35.259
 20
55.1147
 30
0.0
 10
40.5457
 20
56.9913
 30
0.0
 10
44.3237
 20
60.7935
 30
0.0
 10
45.9686
 20
65.8186
 30
0.0
 10
45.9686
 20
65.8186
 30
0.0
 10
47.6135
 20
60.7935
 30
0.0
 10
51.3914
 20
56.9913
 30
0.0
 10
56.6781
 20
55.1147
 30
0.0
  0
SPLINE
  5
5D
330
1F
100
AcDbEntity
  8
layer 1
 62
     7
100
AcDbSpline
210
0.0
220
0.0
230
1.0
 70
    11
 71
     3
 72
    20
 73
    16
 74
     0
 42
0.0000000001
 43
0.0000000001
 12
1.0
 22
0.0
 32
0.0
 13
1.0
 23
0.0
 33
0.0
 40
0.0
 40
0.0
 40
0.0
 40
0.0
 40
0.2
 40
0.2
 40
0.2
 40
0.2
 40
0.4
 40
0.4
 40
0.4
 40
0.4
 40
0.6
 40
0.6
 40
0.6
 40
0.6
 40
1.0
 40
1.0
 40
1.0
 40
1.0
 10
-14.0922
 20
12.6989
 30
0.0
 10
-19.379
 20
10.8221
 30
0.0
 10
-23.1569
 20
7.02
 30
0.0
 10
-24.8017
 20
1.9948
 30
0.0
 10
-24.8017
 20
1.9948
 30
0.0
 10
-26.4467
 20
7.02
 30
0.0
 10
-30.2246
 20
10.8221
 30
0.0
 10
-35.5113
 20
12.6989
 30
0.0
 10
-35.5113
 20
12.6989
 30
0.0
 10
-30.2246
 20
14.5755
 30
0.0
 10
-26.4467
 20
18.3777
 30
0.0
 10
-24.8017
 20
23.4029
 30
0.0
 10
-24.8017
 20
23.4029
 30
0.0
 10
-23.1569
 20
18.3777
 30
0.0
 10
-19.379
 20
14.5755
 30
0.0
 10
-14.0922
 20
12.6989
 30
0.0
  0
SPLINE
  5
5E
330
1F
100
AcDbEntity
  8
layer 1
 62
     7
100
AcDbSpline
210
0.0
220
0.0
230
1.0
 70
    11
 71
     3
 72
    20
 73
    16
 74
     0
 42
0.0000000001
 43
0.0000000001
 12
1.0
 22
0.0
 32
0.0
 13
1.0
 23
0.0
 33
0.0
 40
0.0
 40
0.0
 40
0.0
 40
0.0
 40
0.2
 40
0.2
 40
0.2
 40
0.2
 40
0.4
 40
0.4
 40
0.4
 40
0.4
 40
0.6
 40
0.6
 40
0.6
 40
0.6
 40
1.0
 40
1.0
 40
1.0
 40
1.0
 10
14.22
 20
12.6989
 30
0.0
 10
8.9333
 20
10.8221
 30
0.0
 10
5.1554
 20
7.02
 30
0.0
 10
3.5105
 20
1.9948
 30
0.0
 10
3.5105
 20
1.9948
 30
0.0
 10
1.8655
 20
7.02
 30
0.0
 10
-1.9124
 20
10.8221
 30
0.0
 10
-7.1991
 20
12.6989
 30
0.0
 10
-7.1991
 20
12.6989
 30
0.0
 10
-1.9124
 20
14.5755
 30
0.0
 10
1.8655
 20
18.3777
 30
0.0
 10
3.5105
 20
23.4029
 30
0.0
 10
3.5105
 20
23.4029
 30
0.0
 10
5.1554
 20
18.3777
 30
0.0
 10
8.9333
 20
14.5755
 30
0.0
 10
14.22
 20
12.6989
 30
0.0
  0
SPLINE
  5
5F
330
1F
100
AcDbEntity
  8
layer 1
 62
     7
100
AcDbSpline
210
0.0
220
0.0
230
1.0
 70
    11
 71
     3
 72
    20
 73
    16
 74
     0
 42
0.0000000001
 43
0.0000000001
 12
1.0
 22
0.0
 32
0.0
 13
1.0
 23
0.0
 33
0.0
 40
0.0
 40
0.0
 40
0.0
 40
0.0
 40
0.2
 40
0.2
 40
0.2
 40
0.2
 40
0.4
 40
0.4
 40
0.4
 40
0.4
 40
0.6
 40
0.6
 40
0.6
 40
0.6
 40
1.0
 40
1.0
 40
1.0
 40
1.0
 10
42.5323
 20
12.6989
 30
0.0
 10
37.2456
 20
10.8221
 30
0.0
 10
33.4677
 20
7.02
 30
0.0
 10
31.8228
 20
1.9948
 30
0.0
 10
31.8228
 20
1.9948
 30
0.0
 10
30.1778
 20
7.02
 30
0.0
 10
26.3999
 20
10.8221
 30
0.0
 10
21.1132
 20
12.6989
 30
0.0
 10
21.1132
 20
12.6989
 30
0.0
 10
26.3999
 20
14.5755
 30
0.0
 10
30.1778
 20
18.3777
 30
0.0
 10
31.8228
 20
23.4029
 30
0.0
 10
31.8228
 20
23.4029
 30
0.0
 10
33.4677
 20
18.3777
 30
0.0
 10
37.2456
 20
14.5755
 30
0.0
 10
42.5323
 20
12.6989
 30
0.0
  0
SPLINE
  5
60
330
1F
100
AcDbEntity
  8
layer 1
 62
     7
100
AcDbSpline
210
0.0
220
0.0
230
1.0
 70
    11
 71
     3
 72
    16
 73
    12
 74
     0
 42
0.0000000001
 43
0.0000000001
 12
1.0
 22
0.0
 32
0.0
 13
1.0
 23
0.0
 33
0.0
 40
0.0
 40
0.0
 40
0.0
 40
0.0
 40
0.25
 40
0.25
 40
0.25
 40
0.25
 40
0.5
 40
0.5
 40
0.5
 40
0.5
 40
1.0
 40
1.0
 40
1.0
 40
1.0
 10
60.1351
 20
1.9948
 30
0.0
 10
58.4901
 20
7.02
 30
0.0
 10
54.7122
 20
10.8221
 30
0.0
 10
49.4255
 20
12.6989
 30
0.0
 10
49.4255
 20
12.6989
 30
0.0
 10
54.7122
 20
14.5755
 30
0.0
 10
58.4901
 20
18.3777
 30
0.0
 10
60.1351
 20
23.4029
 30
0.0
 10
60.1351
 20
23.4029
 30
0.0
 10
60.1351
 20
23.4029
 30
0.0
 10
60.1351
 20
1.9948
 30
0.0
 10
60.1351
 20
1.9948
 30
0.0
  0
SPLINE
  5
61
330
1F
100
AcDbEntity
  8
layer 1
 62
     7
100
AcDbSpline
210
0.0
220
0.0
230
1.0
 70
    11
 71
     3
 72
    16
 73
    12
 74
     0
 42
0.0000000001
 43
0.0000000001
 12
1.0
 22
0.0
 32
0.0
 13
1.0
 23
0.0
 33
0.0
 40
0.0
 40
0.0
 40
0.0
 40
0.0
 40
0.25
 40
0.25
 40
0.25
 40
0.25
 40
0.5
 40
0.5
 40
0.5
 40
0.5
 40
1.0
 40
1.0
 40
1.0
 40
1.0
 10
-42.4223
 20
12.6989
 30
0.0
 10
-47.709
 20
10.8221
 30
0.0
 10
-51.4869
 20
7.02
 30
0.0
 10
-53.1318
 20
1.9948
 30
0.0
 10
-53.1318
 20
1.9948
 30
0.0
 10
-53.1318
 20
1.9948
 30
0.0
 10
-53.1318
 20
23.4029
 30
0.0
 10
-53.1318
 20
23.4029
 30
0.0
 10
-53.1318
 20
23.4029
 30
0.0
 10
-51.4869
 20
18.3777
 30
0.0
 10
-47.709
 20
14.5755
 30
0.0
 10
-42.4223
 20
12.6989
 30
0.0
  0
SPLINE
  5
62
330
1F
100
AcDbEntity
  8
layer 1
 62
     7
100
AcDbSpline
210
0.0
220
0.0
230
1.0
 70
    11
 71
     3
 72
    20
 73
    16
 74
     0
 42
0.0000000001
 43
0.0000000001
 12
1.0
 22
0.0
 32
0.0
 13
1.0
 23
0.0
 33
0.0
 40
0.0
 40
0.0
 40
0.0
 40
0.0
 40
0.2
 40
0.2
 40
0.2
 40
0.2
 40
0.4
 40
0.4
 40
0.4
 40
0.4
 40
0.6
 40
0.6
 40
0.6
 40
0.6
 40
1.0
 40
1.0
 40
1.0
 40
1.0
 10
-28.2549
 20
26.858
 30
0.0
 10
-33.5416
 20
24.9812
 30
0.0
 10
-37.3195
 20
21.1791
 30
0.0
 10
-38.9644
 20
16.1539
 30
0.0
 10
-38.9644
 20
16.1539
 30
0.0
 10
-40.6093
 20
21.1791
 30
0.0
 10
-44.3873
 20
24.9812
 30
0.0
 10
-49.674
 20
26.858
 30
0.0
 10
-49.674
 20
26.858
 30
0.0
 10
-44.3873
 20
28.7346
 30
0.0
 10
-40.6093
 20
32.5368
 30
0.0
 10
-38.9644
 20
37.562
 30
0.0
 10
-38.9644
 20
37.562
 30
0.0
 10
-37.3195
 20
32.5368
 30
0.0
 10
-33.5416
 20
28.7346
 30
0.0
 10
-28.2549
 20
26.858
 30
0.0
  0
SPLINE
  5
63
330
1F
100
AcDbEntity
  8
layer 1
 62
     7
100
AcDbSpline
210
0.0
220
0.0
230
1.0
 70
    11
 71
     3
 72
    20
 73
    16
 74
     0
 42
0.0000000001
 43
0.0000000001
 12
1.0
 22
0.0
 32
0.0
 13
1.0
 23
0.0
 33
0.0
 40
0.0
 40
0.0
 40
0.0
 40
0.0
 40
0.2
 40
0.2
 40
0.2
 40
0.2
 40
0.4
 40
0.4
 40
0.4
 40
0.4
 40
0.6
 40
0.6
 40
0.6
 40
0.6
 40
1.0
 40
1.0
 40
1.0
 40
1.0
 10
0.0561
 20
26.858
 30
0.0
 10
-5.2306
 20
24.9812
 30
0.0
 10
-9.0085
 20
21.1791
 30
0.0
 10
-10.6534
 20
16.1539
 30
0.0
 10
-10.6534
 20
16.1539
 30
0.0
 10
-12.2983
 20
21.1791
 30
0.0
 10
-16.0763
 20
24.9812
 30
0.0
 10
-21.363
 20
26.858
 30
0.0
 10
-21.363
 20
26.858
 30
0.0
 10
-16.0763
 20
28.7346
 30
0.0
 10
-12.2983
 20
32.5368
 30
0.0
 10
-10.6534
 20
37.562
 30
0.0
 10
-10.6534
 20
37.562
 30
0.0
 10
-9.0085
 20
32.5368
 30
0.0
 10
-5.2306
 20
28.7346
 30
0.0
 10
0.0561
 20
26.858
 30
0.0
  0
SPLINE
  5
64
330
1F
100
AcDbEntity
  8
layer 1
 62
     7
100
AcDbSpline
210
0.0
220
0.0
230
1.0
 70
    11
 71
     3
 72
    20
 73
    16
 74
     0
 42
0.0000000001
 43
0.0000000001
 12
1.0
 22
0.0
 32
0.0
 13
1.0
 23
0.0
 33
0.0
 40
0.0
 40
0.0
 40
0.0
 40
0.0
 40
0.2
 40
0.2
 40
0.2
 40
0.2
 40
0.4
 40
0.4
 40
0.4
 40
0.4
 40
0.6
 40
0.6
 40
0.6
 40
0.6
 40
1.0
 40
1.0
 40
1.0
 40
1.0
 10
28.3671
 20
26.858
 30
0.0
 10
23.0804
 20
24.9812
 30
0.0
 10
19.3025
 20
21.1791
 30
0.0
 10
17.6576
 20
16.1539
 30
0.0
 10
17.6576
 20
16.1539
 30
0.0
 10
16.0127
 20
21.1791
 30
0.0
 10
12.2347
 20
24.9812
 30
0.0
 10
6.948
 20
26.858
 30
0.0
 10
6.948
 20
26.858
 30
0.0
 10
12.2347
 20
28.7346
 30
0.0
 10
16.0127
 20
32.5368
 30
0.0
 10
17.6576
 20
37.562
 30
0.0
 10
17.6576
 20
37.562
 30
0.0
 10
19.3025
 20
32.5368
 30
0.0
 10
23.0804
 20
28.7346
 30
0.0
 10
28.3671
 20
26.858
 30
0.0
  0
SPLINE
  5
65
330
1F
100
AcDbEntity
  8
layer 1
 62
     7
100
AcDbSpline
210
0.0
220
0.0
230
1.0
 70
    11
 71
     3
 72
    20
 73
    16
 74
     0
 42
0.0000000001
 43
0.0000000001
 12
1.0
 22
0.0
 32
0.0
 13
1.0
 23
0.0
 33
0.0
 40
0.0
 40
0.0
 40
0.0
 40
0.0
 40
0.2
 40
0.2
 40
0.2
 40
0.2
 40
0.4
 40
0.4
 40
0.4
 40
0.4
 40
0.6
 40
0.6
 40
0.6
 40
0.6
 40
1.0
 40
1.0
 40
1.0
 40
1.0
 10
56.6781
 20
26.858
 30
0.0
 10
51.3914
 20
24.9812
 30
0.0
 10
47.6135
 20
21.1791
 30
0.0
 10
45.9686
 20
16.1539
 30
0.0
 10
45.9686
 20
16.1539
 30
0.0
 10
44.3237
 20
21.1791
 30
0.0
 10
40.5457
 20
24.9812
 30
0.0
 10
35.259
 20
26.858
 30
0.0
 10
35.259
 20
26.858
 30
0.0
 10
40.5457
 20
28.7346
 30
0.0
 10
44.3237
 20
32.5368
 30
0.0
 10
45.9686
 20
37.562
 30
0.0
 10
45.9686
 20
37.562
 30
0.0
 10
47.6135
 20
32.5368
 30
0.0
 10
51.3914
 20
28.7346
 30
0.0
 10
56.6781
 20
26.858
 30
0.0
  0
SPLINE
  5
66
330
1F
100
AcDbEntity
  8
layer 1
 62
     7
100
AcDbSpline
210
0.0
220
0.0
230
1.0
 70
    11
 71
     3
 72
    20
 73
    16
 74
     0
 42
0.0000000001
 43
0.0000000001
 12
1.0
 22
0.0
 32
0.0
 13
1.0
 23
0.0
 33
0.0
 40
0.0
 40
0.0
 40
0.0
 40
0.0
 40
0.2
 40
0.2
 40
0.2
 40
0.2
 40
0.4
 40
0.4
 40
0.4
 40
0.4
 40
0.6
 40
0.6
 40
0.6
 40
0.6
 40
1.0
 40
1.0
 40
1.0
 40
1.0
 10
-14.0922
 20
-15.5578
 30
0.0
 10
-19.379
 20
-17.4345
 30
0.0
 10
-23.1569
 20
-21.2367
 30
0.0
 10
-24.8017
 20
-26.2619
 30
0.0
 10
-24.8017
 20
-26.2619
 30
0.0
 10
-26.4467
 20
-21.2367
 30
0.0
 10
-30.2246
 20
-17.4345
 30
0.0
 10
-35.5113
 20
-15.5578
 30
0.0
 10
-35.5113
 20
-15.5578
 30
0.0
 10
-30.2246
 20
-13.6812
 30
0.0
 10
-26.4467
 20
-9.879
 30
0.0
 10
-24.8017
 20
-4.8538
 30
0.0
 10
-24.8017
 20
-4.8538
 30
0.0
 10
-23.1569
 20
-9.879
 30
0.0
 10
-19.379
 20
-13.6812
 30
0.0
 10
-14.0922
 20
-15.5578
 30
0.0
  0
SPLINE
  5
67
330
1F
100
AcDbEntity
  8
layer 1
 62
     7
100
AcDbSpline
210
0.0
220
0.0
230
1.0
 70
    11
 71
     3
 72
    20
 73
    16
 74
     0
 42
0.0000000001
 43
0.0000000001
 12
1.0
 22
0.0
 32
0.0
 13
1.0
 23
0.0
 33
0.0
 40
0.0
 40
0.0
 40
0.0
 40
0.0
 40
0.2
 40
0.2
 40
0.2
 40
0.2
 40
0.4
 40
0.4
 40
0.4
 40
0.4
 40
0.6
 40
0.6
 40
0.6
 40
0.6
 40
1.0
 40
1.0
 40
1.0
 40
1.0
 10
14.22
 20
-15.5578
 30
0.0
 10
8.9333
 20
-17.4345
 30
0.0
 10
5.1554
 20
-21.2367
 30
0.0
 10
3.5105
 20
-26.2619
 30
0.0
 10
3.5105
 20
-26.2619
 30
0.0
 10
1.8655
 20
-21.2367
 30
0.0
 10
-1.9124
 20
-17.4345
 30
0.0
 10
-7.1991
 20
-15.5578
 30
0.0
 10
-7.1991
 20
-15.5578
 30
0.0
 10
-1.9124
 20
-13.6812
 30
0.0
 10
1.8655
 20
-9.879
 30
0.0
 10
3.5105
 20
-4.8538
 30
0.0
 10
3.5105
 20
-4.8538
 30
0.0
 10
5.1554
 20
-9.879
 30
0.0
 10
8.9333
 20
-13.6812
 30
0.0
 10
14.22
 20
-15.5578
 30
0.0
  0
SPLINE
  5
68
330
1F
100
AcDbEntity
  8
layer 1
 62
     7
100
AcDbSpline
210
0.0
220
0.0
230
1.0
 70
    11
 71
     3
 72
    20
 73
    16
 74
     0
 42
0.0000000001
 43
0.0000000001
 12
1.0
 22
0.0
 32
0.0
 13
1.0
 23
0.0
 33
0.0
 40
0.0
 40
0.0
 40
0.0
 40
0.0
 40
0.2
 40
0.2
 40
0.2
 40
0.2
 40
0.4
 40
0.4
 40
0.4
 40
0.4
 40
0.6
 40
0.6
 40
0.6
 40
0.6
 40
1.0
 40
1.0
 40
1.0
 40
1.0
 10
42.5323
 20
-15.5578
 30
0.0
 10
37.2456
 20
-17.4345
 30
0.0
 10
33.4677
 20
-21.2367
 30
0.0
 10
31.8228
 20
-26.2619
 30
0.0
 10
31.8228
 20
-26.2619
 30
0.0
 10
30.1778
 20
-21.2367
 30
0.0
 10
26.3999
 20
-17.4345
 30
0.0
 10
21.1132
 20
-15.5578
 30
0.0
 10
21.1132
 20
-15.5578
 30
0.0
 10
26.3999
 20
-13.6812
 30
0.0
 10
30.1778
 20
-9.879
 30
0.0
 10
31.8228
 20
-4.8538
 30
0.0
 10
31.8228
 20
-4.8538
 30
0.0
 10
33.4677
 20
-9.879
 30
0.0
 10
37.2456
 20
-13.6812
 30
0.0
 10
42.5323
 20
-15.5578
 30
0.0
  0
SPLINE
  5
69
330
1F
100
AcDbEntity
  8
layer 1
 62
     7
100
AcDbSpline
210
0.0
220
0.0
230
1.0
 70
    11
 71
     3
 72
    16
 73
    12
 74
     0
 42
0.0000000001
 43
0.0000000001
 12
1.0
 22
0.0
 32
0.0
 13
1.0
 23
0.0
 33
0.0
 40
0.0
 40
0.0
 40
0.0
 40
0.0
 40
0.25
 40
0.25
 40
0.25
 40
0.25
 40
0.5
 40
0.5
 40
0.5
 40
0.5
 40
1.0
 40
1.0
 40
1.0
 40
1.0
 10
60.1351
 20
-26.2619
 30
0.0
 10
58.4901
 20
-21.2367
 30
0.0
 10
54.7122
 20
-17.4345
 30
0.0
 10
49.4255
 20
-15.5578
 30
0.0
 10
49.4255
 20
-15.5578
 30
0.0
 10
54.7122
 20
-13.6812
 30
0.0
 10
58.4901
 20
-9.879
 30
0.0
 10
60.1351
 20
-4.8538
 30
0.0
 10
60.1351
 20
-4.8538
 30
0.0
 10
60.1351
 20
-4.8538
 30
0.0
 10
60.1351
 20
-26.2619
 30
0.0
 10
60.1351
 20
-26.2619
 30
0.0
  0
SPLINE
  5
6A
330
1F
100
AcDbEntity
  8
layer 1
 62
     7
100
AcDbSpline
210
0.0
220
0.0
230
1.0
 70
    11
 71
     3
 72
    16
 73
    12
 74
     0
 42
0.0000000001
 43
0.0000000001
 12
1.0
 22
0.0
 32
0.0
 13
1.0
 23
0.0
 33
0.0
 40
0.0
 40
0.0
 40
0.0
 40
0.0
 40
0.25
 40
0.25
 40
0.25
 40
0.25
 40
0.5
 40
0.5
 40
0.5
 40
0.5
 40
1.0
 40
1.0
 40
1.0
 40
1.0
 10
-42.4223
 20
-15.5578
 30
0.0
 10
-47.709
 20
-17.4345
 30
0.0
 10
-51.4869
 20
-21.2367
 30
0.0
 10
-53.1318
 20
-26.2619
 30
0.0
 10
-53.1318
 20
-26.2619
 30
0.0
 10
-53.1318
 20
-26.2619
 30
0.0
 10
-53.1318
 20
-4.8538
 30
0.0
 10
-53.1318
 20
-4.8538
 30
0.0
 10
-53.1318
 20
-4.8538
 30
0.0
 10
-51.4869
 20
-9.879
 30
0.0
 10
-47.709
 20
-13.6812
 30
0.0
 10
-42.4223
 20
-15.5578
 30
0.0
  0
SPLINE
  5
6B
330
1F
100
AcDbEntity
  8
layer 1
 62
     7
100
AcDbSpline
210
0.0
220
0.0
230
1.0
 70
    11
 71
     3
 72
    20
 73
    16
 74
     0
 42
0.0000000001
 43
0.0000000001
 12
1.0
 22
0.0
 32
0.0
 13
1.0
 23
0.0
 33
0.0
 40
0.0
 40
0.0
 40
0.0
 40
0.0
 40
0.2
 40
0.2
 40
0.2
 40
0.2
 40
0.4
 40
0.4
 40
0.4
 40
0.4
 40
0.6
 40
0.6
 40
0.6
 40
0.6
 40
1.0
 40
1.0
 40
1.0
 40
1.0
 10
-28.2549
 20
-1.3987
 30
0.0
 10
-33.5416
 20
-3.2754
 30
0.0
 10
-37.3195
 20
-7.0776
 30
0.0
 10
-38.9644
 20
-12.1028
 30
0.0
 10
-38.9644
 20
-12.1028
 30
0.0
 10
-40.6093
 20
-7.0776
 30
0.0
 10
-44.3873
 20
-3.2754
 30
0.0
 10
-49.674
 20
-1.3987
 30
0.0
 10
-49.674
 20
-1.3987
 30
0.0
 10
-44.3873
 20
0.4779
 30
0.0
 10
-40.6093
 20
4.2801
 30
0.0
 10
-38.9644
 20
9.3053
 30
0.0
 10
-38.9644
 20
9.3053
 30
0.0
 10
-37.3195
 20
4.2801
 30
0.0
 10
-33.5416
 20
0.4779
 30
0.0
 10
-28.2549
 20
-1.3987
 30
0.0
  0
SPLINE
  5
6C
330
1F
100
AcDbEntity
  8
layer 1
 62
     7
100
AcDbSpline
210
0.0
220
0.0
230
1.0
 70
    11
 71
     3
 72
    20
 73
    16
 74
     0
 42
0.0000000001
 43
0.0000000001
 12
1.0
 22
0.0
 32
0.0
 13
1.0
 23
0.0
 33
0.0
 40
0.0
 40
0.0
 40
0.0
 40
0.0
 40
0.2
 40
0.2
 40
0.2
 40
0.2
 40
0.4
 40
0.4
 40
0.4
 40
0.4
 40
0.6
 40
0.6
 40
0.6
 40
0.6
 40
1.0
 40
1.0
 40
1.0
 40
1.0
 10
0.0561
 20
-1.3987
 30
0.0
 10
-5.2306
 20
-3.2754
 30
0.0
 10
-9.0085
 20
-7.0776
 30
0.0
 10
-10.6534
 20
-12.1028
 30
0.0
 10
-10.6534
 20
-12.1028
 30
0.0
 10
-12.2983
 20
-7.0776
 30
0.0
 10
-16.0763
 20
-3.2754
 30
0.0
 10
-21.363
 20
-1.3987
 30
0.0
 10
-21.363
 20
-1.3987
 30
0.0
 10
-16.0763
 20
0.4779
 30
0.0
 10
-12.2983
 20
4.2801
 30
0.0
 10
-10.6534
 20
9.3053
 30
0.0
 10
-10.6534
 20
9.3053
 30
0.0
 10
-9.0085
 20
4.2801
 30
0.0
 10
-5.2306
 20
0.4779
 30
0.0
 10
0.0561
 20
-1.3987
 30
0.0
  0
SPLINE
  5
6D
330
1F
100
AcDbEntity
  8
layer 1
 62
     7
100
AcDbSpline
210
0.0
220
0.0
230
1.0
 70
    11
 71
     3
 72
    20
 73
    16
 74
     0
 42
0.0000000001
 43
0.0000000001
 12
1.0
 22
0.0
 32
0.0
 13
1.0
 23
0.0
 33
0.0
 40
0.0
 40
0.0
 40
0.0
 40
0.0
 40
0.2
 40
0.2
 40
0.2
 40
0.2
 40
0.4
 40
0.4
 40
0.4
 40
0.4
 40
0.6
 40
0.6
 40
0.6
 40
0.6
 40
1.0
 40
1.0
 40
1.0
 40
1.0
 10
28.3671
 20
-1.3987
 30
0.0
 10
23.0804
 20
-3.2754
 30
0.0
 10
19.3025
 20
-7.0776
 30
0.0
 10
17.6576
 20
-12.1028
 30
0.0
 10
17.6576
 20
-12.1028
 30
0.0
 10
16.0127
 20
-7.0776
 30
0.0
 10
12.2347
 20
-3.2754
 30
0.0
 10
6.948
 20
-1.3987
 30
0.0
 10
6.948
 20
-1.3987
 30
0.0
 10
12.2347
 20
0.4779
 30
0.0
 10
16.0127
 20
4.2801
 30
0.0
 10
17.6576
 20
9.3053
 30
0.0
 10
17.6576
 20
9.3053
 30
0.0
 10
19.3025
 20
4.2801
 30
0.0
 10
23.0804
 20
0.4779
 30
0.0
 10
28.3671
 20
-1.3987
 30
0.0
  0
SPLINE
  5
6E
330
1F
100
AcDbEntity
  8
layer 1
 62
     7
100
AcDbSpline
210
0.0
220
0.0
230
1.0
 70
    11
 71
     3
 72
    20
 73
    16
 74
     0
 42
0.0000000001
 43
0.0000000001
 12
1.0
 22
0.0
 32
0.0
 13
1.0
 23
0.0
 33
0.0
 40
0.0
 40
0.0
 40
0.0
 40
0.0
 40
0.2
 40
0.2
 40
0.2
 40
0.2
 40
0.4
 40
0.4
 40
0.4
 40
0.4
 40
0.6
 40
0.6
 40
0.6
 40
0.6
 40
1.0
 40
1.0
 40
1.0
 40
1.0
 10
56.6781
 20
-1.3987
 30
0.0
 10
51.3914
 20
-3.2754
 30
0.0
 10
47.6135
 20
-7.0776
 30
0.0
 10
45.9686
 20
-12.1028
 30
0.0
 10
45.9686
 20
-12.1028
 30
0.0
 10
44.3237
 20
-7.0776
 30
0.0
 10
40.5457
 20
-3.2754
 30
0.0
 10
35.259
 20
-1.3987
 30
0.0
 10
35.259
 20
-1.3987
 30
0.0
 10
40.5457
 20
0.4779
 30
0.0
 10
44.3237
 20
4.2801
 30
0.0
 10
45.9686
 20
9.3053
 30
0.0
 10
45.9686
 20
9.3053
 30
0.0
 10
47.6135
 20
4.2801
 30
0.0
 10
51.3914
 20
0.4779
 30
0.0
 10
56.6781
 20
-1.3987
 30
0.0
  0
SPLINE
  5
6F
330
1F
100
AcDbEntity
  8
layer 1
 62
     7
100
AcDbSpline
210
0.0
220
0.0
230
1.0
 70
    11
 71
     3
 72
    20
 73
    16
 74
     0
 42
0.0000000001
 43
0.0000000001
 12
1.0
 22
0.0
 32
0.0
 13
1.0
 23
0.0
 33
0.0
 40
0.0
 40
0.0
 40
0.0
 40
0.0
 40
0.2
 40
0.2
 40
0.2
 40
0.2
 40
0.4
 40
0.4
 40
0.4
 40
0.4
 40
0.6
 40
0.6
 40
0.6
 40
0.6
 40
1.0
 40
1.0
 40
1.0
 40
1.0
 10
-14.0922
 20
-43.8144
 30
0.0
 10
-19.379
 20
-45.6912
 30
0.0
 10
-23.1569
 20
-49.4934
 30
0.0
 10
-24.8017
 20
-54.5185
 30
0.0
 10
-24.8017
 20
-54.5185
 30
0.0
 10
-26.4467
 20
-49.4934
 30
0.0
 10
-30.2246
 20
-45.6912
 30
0.0
 10
-35.5113
 20
-43.8144
 30
0.0
 10
-35.5113
 20
-43.8144
 30
0.0
 10
-30.2246
 20
-41.9378
 30
0.0
 10
-26.4467
 20
-38.1356
 30
0.0
 10
-24.8017
 20
-33.1105
 30
0.0
 10
-24.8017
 20
-33.1105
 30
0.0
 10
-23.1569
 20
-38.1356
 30
0.0
 10
-19.379
 20
-41.9378
 30
0.0
 10
-14.0922
 20
-43.8144
 30
0.0
  0
SPLINE
  5
70
330
1F
100
AcDbEntity
  8
layer 1
 62
     7
100
AcDbSpline
210
0.0
220
0.0
230
1.0
 70
    11
 71
     3
 72
    20
 73
    16
 74
     0
 42
0.0000000001
 43
0.0000000001
 12
1.0
 22
0.0
 32
0.0
 13
1.0
 23
0.0
 33
0.0
 40
0.0
 40
0.0
 40
0.0
 40
0.0
 40
0.2
 40
0.2
 40
0.2
 40
0.2
 40
0.4
 40
0.4
 40
0.4
 40
0.4
 40
0.6
 40
0.6
 40
0.6
 40
0.6
 40
1.0
 40
1.0
 40
1.0
 40
1.0
 10
14.22
 20
-43.8144
 30
0.0
 10
8.9333
 20
-45.6912
 30
0.0
 10
5.1554
 20
-49.4934
 30
0.0
 10
3.5105
 20
-54.5185
 30
0.0
 10
3.5105
 20
-54.5185
 30
0.0
 10
1.8655
 20
-49.4934
 30
0.0
 10
-1.9124
 20
-45.6912
 30
0.0
 10
-7.1991
 20
-43.8144
 30
0.0
 10
-7.1991
 20
-43.8144
 30
0.0
 10
-1.9124
 20
-41.9378
 30
0.0
 10
1.8655
 20
-38.1356
 30
0.0
 10
3.5105
 20
-33.1105
 30
0.0
 10
3.5105
 20
-33.1105
 30
0.0
 10
5.1554
 20
-38.1356
 30
0.0
 10
8.9333
 20
-41.9378
 30
0.0
 10
14.22
 20
-43.8144
 30
0.0
  0
SPLINE
  5
71
330
1F
100
AcDbEntity
  8
layer 1
 62
     7
100
AcDbSpline
210
0.0
220
0.0
230
1.0
 70
    11
 71
     3
 72
    20
 73
    16
 74
     0
 42
0.0000000001
 43
0.0000000001
 12
1.0
 22
0.0
 32
0.0
 13
1.0
 23
0.0
 33
0.0
 40
0.0
 40
0.0
 40
0.0
 40
0.0
 40
0.2
 40
0.2
 40
0.2
 40
0.2
 40
0.4
 40
0.4
 40
0.4
 40
0.4
 40
0.6
 40
0.6
 40
0.6
 40
0.6
 40
1.0
 40
1.0
 40
1.0
 40
1.0
 10
42.5323
 20
-43.8144
 30
0.0
 10
37.2456
 20
-45.6912
 30
0.0
 10
33.4677
 20
-49.4934
 30
0.0
 10
31.8228
 20
-54.5185
 30
0.0
 10
31.8228
 20
-54.5185
 30
0.0
 10
30.1778
 20
-49.4934
 30
0.0
 10
26.3999
 20
-45.6912
 30
0.0
 10
21.1132
 20
-43.8144
 30
0.0
 10
21.1132
 20
-43.8144
 30
0.0
 10
26.3999
 20
-41.9378
 30
0.0
 10
30.1778
 20
-38.1356
 30
0.0
 10
31.8228
 20
-33.1105
 30
0.0
 10
31.8228
 20
-33.1105
 30
0.0
 10
33.4677
 20
-38.1356
 30
0.0
 10
37.2456
 20
-41.9378
 30
0.0
 10
42.5323
 20
-43.8144
 30
0.0
  0
SPLINE
  5
72
330
1F
100
AcDbEntity
  8
layer 1
 62
     7
100
AcDbSpline
210
0.0
220
0.0
230
1.0
 70
    11
 71
     3
 72
    16
 73
    12
 74
     0
 42
0.0000000001
 43
0.0000000001
 12
1.0
 22
0.0
 32
0.0
 13
1.0
 23
0.0
 33
0.0
 40
0.0
 40
0.0
 40
0.0
 40
0.0
 40
0.25
 40
0.25
 40
0.25
 40
0.25
 40
0.5
 40
0.5
 40
0.5
 40
0.5
 40
1.0
 40
1.0
 40
1.0
 40
1.0
 10
60.1351
 20
-54.5185
 30
0.0
 10
58.4901
 20
-49.4934
 30
0.0
 10
54.7122
 20
-45.6912
 30
0.0
 10
49.4255
 20
-43.8144
 30
0.0
 10
49.4255
 20
-43.8144
 30
0.0
 10
54.7122
 20
-41.9378
 30
0.0
 10
58.4901
 20
-38.1356
 30
0.0
 10
60.1351
 20
-33.1105
 30
0.0
 10
60.1351
 20
-33.1105
 30
0.0
 10
60.1351
 20
-33.1105
 30
0.0
 10
60.1351
 20
-54.5185
 30
0.0
 10
60.1351
 20
-54.5185
 30
0.0
  0
SPLINE
  5
73
330
1F
100
AcDbEntity
  8
layer 1
 62
     7
100
AcDbSpline
210
0.0
220
0.0
230
1.0
 70
    11
 71
     3
 72
    16
 73
    12
 74
     0
 42
0.0000000001
 43
0.0000000001
 12
1.0
 22
0.0
 32
0.0
 13
1.0
 23
0.0
 33
0.0
 40
0.0
 40
0.0
 40
0.0
 40
0.0
 40
0.25
 40
0.25
 40
0.25
 40
0.25
 40
0.5
 40
0.5
 40
0.5
 40
0.5
 40
1.0
 40
1.0
 40
1.0
 40
1.0
 10
-42.4223
 20
-43.8144
 30
0.0
 10
-47.709
 20
-45.6912
 30
0.0
 10
-51.4869
 20
-49.4934
 30
0.0
 10
-53.1318
 20
-54.5185
 30
0.0
 10
-53.1318
 20
-54.5185
 30
0.0
 10
-53.1318
 20
-54.5185
 30
0.0
 10
-53.1318
 20
-33.1105
 30
0.0
 10
-53.1318
 20
-33.1105
 30
0.0
 10
-53.1318
 20
-33.1105
 30
0.0
 10
-51.4869
 20
-38.1356
 30
0.0
 10
-47.709
 20
-41.9378
 30
0.0
 10
-42.4223
 20
-43.8144
 30
0.0
  0
SPLINE
  5
74
330
1F
100
AcDbEntity
  8
layer 1
 62
     7
100
AcDbSpline
210
0.0
220
0.0
230
1.0
 70
    11
 71
     3
 72
    20
 73
    16
 74
     0
 42
0.0000000001
 43
0.0000000001
 12
1.0
 22
0.0
 32
0.0
 13
1.0
 23
0.0
 33
0.0
 40
0.0
 40
0.0
 40
0.0
 40
0.0
 40
0.2
 40
0.2
 40
0.2
 40
0.2
 40
0.4
 40
0.4
 40
0.4
 40
0.4
 40
0.6
 40
0.6
 40
0.6
 40
0.6
 40
1.0
 40
1.0
 40
1.0
 40
1.0
 10
-28.2549
 20
-29.6553
 30
0.0
 10
-33.5416
 20
-31.5321
 30
0.0
 10
-37.3195
 20
-35.3343
 30
0.0
 10
-38.9644
 20
-40.3594
 30
0.0
 10
-38.9644
 20
-40.3594
 30
0.0
 10
-40.6093
 20
-35.3343
 30
0.0
 10
-44.3873
 20
-31.5321
 30
0.0
 10
-49.674
 20
-29.6553
 30
0.0
 10
-49.674
 20
-29.6553
 30
0.0
 10
-44.3873
 20
-27.7787
 30
0.0
 10
-40.6093
 20
-23.9765
 30
0.0
 10
-38.9644
 20
-18.9514
 30
0.0
 10
-38.9644
 20
-18.9514
 30
0.0
 10
-37.3195
 20
-23.9765
 30
0.0
 10
-33.5416
 20
-27.7787
 30
0.0
 10
-28.2549
 20
-29.6553
 30
0.0
  0
SPLINE
  5
75
330
1F
100
AcDbEntity
  8
layer 1
 62
     7
100
AcDbSpline
210
0.0
220
0.0
230
1.0
 70
    11
 71
     3
 72
    20
 73
    16
 74
     0
 42
0.0000000001
 43
0.0000000001
 12
1.0
 22
0.0
 32
0.0
 13
1.0
 23
0.0
 33
0.0
 40
0.0
 40
0.0
 40
0.0
 40
0.0
 40
0.2
 40
0.2
 40
0.2
 40
0.2
 40
0.4
 40
0.4
 40
0.4
 40
0.4
 40
0.6
 40
0.6
 40
0.6
 40
0.6
 40
1.0
 40
1.0
 40
1.0
 40
1.0
 10
0.0561
 20
-29.6553
 30
0.0
 10
-5.2306
 20
-31.5321
 30
0.0
 10
-9.0085
 20
-35.3343
 30
0.0
 10
-10.6534
 20
-40.3594
 30
0.0
 10
-10.6534
 20
-40.3594
 30
0.0
 10
-12.2983
 20
-35.3343
 30
0.0
 10
-16.0763
 20
-31.5321
 30
0.0
 10
-21.363
 20
-29.6553
 30
0.0
 10
-21.363
 20
-29.6553
 30
0.0
 10
-16.0763
 20
-27.7787
 30
0.0
 10
-12.2983
 20
-23.9765
 30
0.0
 10
-10.6534
 20
-18.9514
 30
0.0
 10
-10.6534
 20
-18.9514
 30
0.0
 10
-9.0085
 20
-23.9765
 30
0.0
 10
-5.2306
 20
-27.7787
 30
0.0
 10
0.0561
 20
-29.6553
 30
0.0
  0
SPLINE
  5
76
330
1F
100
AcDbEntity
  8
layer 1
 62
     7
100
AcDbSpline
210
0.0
220
0.0
230
1.0
 70
    11
 71
     3
 72
    20
 73
    16
 74
     0
 42
0.0000000001
 43
0.0000000001
 12
1.0
 22
0.0
 32
0.0
 13
1.0
 23
0.0
 33
0.0
 40
0.0
 40
0.0
 40
0.0
 40
0.0
 40
0.2
 40
0.2
 40
0.2
 40
0.2
 40
0.4
 40
0.4
 40
0.4
 40
0.4
 40
0.6
 40
0.6
 40
0.6
 40
0.6
 40
1.0
 40
1.0
 40
1.0
 40
1.0
 10
28.3671
 20
-29.6553
 30
0.0
 10
23.0804
 20
-31.5321
 30
0.0
 10
19.3025
 20
-35.3343
 30
0.0
 10
17.6576
 20
-40.3594
 30
0.0
 10
17.6576
 20
-40.3594
 30
0.0
 10
16.0127
 20
-35.3343
 30
0.0
 10
12.2347
 20
-31.5321
 30
0.0
 10
6.948
 20
-29.6553
 30
0.0
 10
6.948
 20
-29.6553
 30
0.0
 10
12.2347
 20
-27.7787
 30
0.0
 10
16.0127
 20
-23.9765
 30
0.0
 10
17.6576
 20
-18.9514
 30
0.0
 10
17.6576
 20
-18.9514
 30
0.0
 10
19.3025
 20
-23.9765
 30
0.0
 10
23.0804
 20
-27.7787
 30
0.0
 10
28.3671
 20
-29.6553
 30
0.0
  0
SPLINE
  5
77
330
1F
100
AcDbEntity
  8
layer 1
 62
     7
100
AcDbSpline
210
0.0
220
0.0
230
1.0
 70
    11
 71
     3
 72
    20
 73
    16
 74
     0
 42
0.0000000001
 43
0.0000000001
 12
1.0
 22
0.0
 32
0.0
 13
1.0
 23
0.0
 33
0.0
 40
0.0
 40
0.0
 40
0.0
 40
0.0
 40
0.2
 40
0.2
 40
0.2
 40
0.2
 40
0.4
 40
0.4
 40
0.4
 40
0.4
 40
0.6
 40
0.6
 40
0.6
 40
0.6
 40
1.0
 40
1.0
 40
1.0
 40
1.0
 10
56.6781
 20
-29.6553
 30
0.0
 10
51.3914
 20
-31.5321
 30
0.0
 10
47.6135
 20
-35.3343
 30
0.0
 10
45.9686
 20
-40.3594
 30
0.0
 10
45.9686
 20
-40.3594
 30
0.0
 10
44.3237
 20
-35.3343
 30
0.0
 10
40.5457
 20
-31.5321
 30
0.0
 10
35.259
 20
-29.6553
 30
0.0
 10
35.259
 20
-29.6553
 30
0.0
 10
40.5457
 20
-27.7787
 30
0.0
 10
44.3237
 20
-23.9765
 30
0.0
 10
45.9686
 20
-18.9514
 30
0.0
 10
45.9686
 20
-18.9514
 30
0.0
 10
47.6135
 20
-23.9765
 30
0.0
 10
51.3914
 20
-27.7787
 30
0.0
 10
56.6781
 20
-29.6553
 30
0.0
  0
SPLINE
  5
78
330
1F
100
AcDbEntity
  8
layer 1
 62
     7
100
AcDbSpline
210
0.0
220
0.0
230
1.0
 70
    11
 71
     3
 72
    20
 73
    16
 74
     0
 42
0.0000000001
 43
0.0000000001
 12
1.0
 22
0.0
 32
0.0
 13
1.0
 23
0.0
 33
0.0
 40
0.0
 40
0.0
 40
0.0
 40
0.0
 40
0.2
 40
0.2
 40
0.2
 40
0.2
 40
0.4
 40
0.4
 40
0.4
 40
0.4
 40
0.6
 40
0.6
 40
0.6
 40
0.6
 40
1.0
 40
1.0
 40
1.0
 40
1.0
 10
-14.0922
 20
-72.0711
 30
0.0
 10
-19.379
 20
-73.9478
 30
0.0
 10
-23.1569
 20
-77.75
 30
0.0
 10
-24.8017
 20
-82.7752
 30
0.0
 10
-24.8017
 20
-82.7752
 30
0.0
 10
-26.4467
 20
-77.75
 30
0.0
 10
-30.2246
 20
-73.9478
 30
0.0
 10
-35.5113
 20
-72.0711
 30
0.0
 10
-35.5113
 20
-72.0711
 30
0.0
 10
-30.2246
 20
-70.1945
 30
0.0
 10
-26.4467
 20
-66.3923
 30
0.0
 10
-24.8017
 20
-61.3671
 30
0.0
 10
-24.8017
 20
-61.3671
 30
0.0
 10
-23.1569
 20
-66.3923
 30
0.0
 10
-19.379
 20
-70.1945
 30
0.0
 10
-14.0922
 20
-72.0711
 30
0.0
  0
SPLINE
  5
79
330
1F
100
AcDbEntity
  8
layer 1
 62
     7
100
AcDbSpline
210
0.0
220
0.0
230
1.0
 70
    11
 71
     3
 72
    20
 73
    16
 74
     0
 42
0.0000000001
 43
0.0000000001
 12
1.0
 22
0.0
 32
0.0
 13
1.0
 23
0.0
 33
0.0
 40
0.0
 40
0.0
 40
0.0
 40
0.0
 40
0.2
 40
0.2
 40
0.2
 40
0.2
 40
0.4
 40
0.4
 40
0.4
 40
0.4
 40
0.6
 40
0.6
 40
0.6
 40
0.6
 40
1.0
 40
1.0
 40
1.0
 40
1.0
 10
14.22
 20
-72.0711
 30
0.0
 10
8.9333
 20
-73.9478
 30
0.0
 10
5.1554
 20
-77.75
 30
0.0
 10
3.5105
 20
-82.7752
 30
0.0
 10
3.5105
 20
-82.7752
 30
0.0
 10
1.8655
 20
-77.75
 30
0.0
 10
-1.9124
 20
-73.9478
 30
0.0
 10
-7.1991
 20
-72.0711
 30
0.0
 10
-7.1991
 20
-72.0711
 30
0.0
 10
-1.9124
 20
-70.1945
 30
0.0
 10
1.8655
 20
-66.3923
 30
0.0
 10
3.5105
 20
-61.3671
 30
0.0
 10
3.5105
 20
-61.3671
 30
0.0
 10
5.1554
 20
-66.3923
 30
0.0
 10
8.9333
 20
-70.1945
 30
0.0
 10
14.22
 20
-72.0711
 30
0.0
  0
SPLINE
  5
7A
330
1F
100
AcDbEntity
  8
layer 1
 62
     7
100
AcDbSpline
210
0.0
220
0.0
230
1.0
 70
    11
 71
     3
 72
    20
 73
    16
 74
     0
 42
0.0000000001
 43
0.0000000001
 12
1.0
 22
0.0
 32
0.0
 13
1.0
 23
0.0
 33
0.0
 40
0.0
 40
0.0
 40
0.0
 40
0.0
 40
0.2
 40
0.2
 40
0.2
 40
0.2
 40
0.4
 40
0.4
 40
0.4
 40
0.4
 40
0.6
 40
0.6
 40
0.6
 40
0.6
 40
1.0
 40
1.0
 40
1.0
 40
1.0
 10
42.5323
 20
-72.0711
 30
0.0
 10
37.2456
 20
-73.9478
 30
0.0
 10
33.4677
 20
-77.75
 30
0.0
 10
31.8228
 20
-82.7752
 30
0.0
 10
31.8228
 20
-82.7752
 30
0.0
 10
30.1778
 20
-77.75
 30
0.0
 10
26.3999
 20
-73.9478
 30
0.0
 10
21.1132
 20
-72.0711
 30
0.0
 10
21.1132
 20
-72.0711
 30
0.0
 10
26.3999
 20
-70.1945
 30
0.0
 10
30.1778
 20
-66.3923
 30
0.0
 10
31.8228
 20
-61.3671
 30
0.0
 10
31.8228
 20
-61.3671
 30
0.0
 10
33.4677
 20
-66.3923
 30
0.0
 10
37.2456
 20
-70.1945
 30
0.0
 10
42.5323
 20
-72.0711
 30
0.0
  0
SPLINE
  5
7B
330
1F
100
AcDbEntity
  8
layer 1
 62
     7
100
AcDbSpline
210
0.0
220
0.0
230
1.0
 70
    11
 71
     3
 72
    16
 73
    12
 74
     0
 42
0.0000000001
 43
0.0000000001
 12
1.0
 22
0.0
 32
0.0
 13
1.0
 23
0.0
 33
0.0
 40
0.0
 40
0.0
 40
0.0
 40
0.0
 40
0.25
 40
0.25
 40
0.25
 40
0.25
 40
0.5
 40
0.5
 40
0.5
 40
0.5
 40
1.0
 40
1.0
 40
1.0
 40
1.0
 10
60.1351
 20
-82.7752
 30
0.0
 10
58.4901
 20
-77.75
 30
0.0
 10
54.7122
 20
-73.9478
 30
0.0
 10
49.4255
 20
-72.0711
 30
0.0
 10
49.4255
 20
-72.0711
 30
0.0
 10
54.7122
 20
-70.1945
 30
0.0
 10
58.4901
 20
-66.3923
 30
0.0
 10
60.1351
 20
-61.3671
 30
0.0
 10
60.1351
 20
-61.3671
 30
0.0
 10
60.1351
 20
-61.3671
 30
0.0
 10
60.1351
 20
-82.7752
 30
0.0
 10
60.1351
 20
-82.7752
 30
0.0
  0
SPLINE
  5
7C
330
1F
100
AcDbEntity
  8
layer 1
 62
     7
100
AcDbSpline
210
0.0
220
0.0
230
1.0
 70
    11
 71
     3
 72
    16
 73
    12
 74
     0
 42
0.0000000001
 43
0.0000000001
 12
1.0
 22
0.0
 32
0.0
 13
1.0
 23
0.0
 33
0.0
 40
0.0
 40
0.0
 40
0.0
 40
0.0
 40
0.25
 40
0.25
 40
0.25
 40
0.25
 40
0.5
 40
0.5
 40
0.5
 40
0.5
 40
1.0
 40
1.0
 40
1.0
 40
1.0
 10
-42.4223
 20
-72.0711
 30
0.0
 10
-47.709
 20
-73.9478
 30
0.0
 10
-51.4869
 20
-77.75
 30
0.0
 10
-53.1318
 20
-82.7752
 30
0.0
 10
-53.1318
 20
-82.7752
 30
0.0
 10
-53.1318
 20
-82.7752
 30
0.0
 10
-53.1318
 20
-61.3671
 30
0.0
 10
-53.1318
 20
-61.3671
 30
0.0
 10
-53.1318
 20
-61.3671
 30
0.0
 10
-51.4869
 20
-66.3923
 30
0.0
 10
-47.709
 20
-70.1945
 30
0.0
 10
-42.4223
 20
-72.0711
 30
0.0
  0
SPLINE
  5
7D
330
1F
100
AcDbEntity
  8
layer 1
 62
     7
100
AcDbSpline
210
0.0
220
0.0
230
1.0
 70
    11
 71
     3
 72
    20
 73
    16
 74
     0
 42
0.0000000001
 43
0.0000000001
 12
1.0
 22
0.0
 32
0.0
 13
1.0
 23
0.0
 33
0.0
 40
0.0
 40
0.0
 40
0.0
 40
0.0
 40
0.2
 40
0.2
 40
0.2
 40
0.2
 40
0.4
 40
0.4
 40
0.4
 40
0.4
 40
0.6
 40
0.6
 40
0.6
 40
0.6
 40
1.0
 40
1.0
 40
1.0
 40
1.0
 10
-28.2549
 20
-57.912
 30
0.0
 10
-33.5416
 20
-59.7887
 30
0.0
 10
-37.3195
 20
-63.5909
 30
0.0
 10
-38.9644
 20
-68.6161
 30
0.0
 10
-38.9644
 20
-68.6161
 30
0.0
 10
-40.6093
 20
-63.5909
 30
0.0
 10
-44.3873
 20
-59.7887
 30
0.0
 10
-49.674
 20
-57.912
 30
0.0
 10
-49.674
 20
-57.912
 30
0.0
 10
-44.3873
 20
-56.0354
 30
0.0
 10
-40.6093
 20
-52.2332
 30
0.0
 10
-38.9644
 20
-47.208
 30
0.0
 10
-38.9644
 20
-47.208
 30
0.0
 10
-37.3195
 20
-52.2332
 30
0.0
 10
-33.5416
 20
-56.0354
 30
0.0
 10
-28.2549
 20
-57.912
 30
0.0
  0
SPLINE
  5
7E
330
1F
100
AcDbEntity
  8
layer 1
 62
     7
100
AcDbSpline
210
0.0
220
0.0
230
1.0
 70
    11
 71
     3
 72
    20
 73
    16
 74
     0
 42
0.0000000001
 43
0.0000000001
 12
1.0
 22
0.0
 32
0.0
 13
1.0
 23
0.0
 33
0.0
 40
0.0
 40
0.0
 40
0.0
 40
0.0
 40
0.2
 40
0.2
 40
0.2
 40
0.2
 40
0.4
 40
0.4
 40
0.4
 40
0.4
 40
0.6
 40
0.6
 40
0.6
 40
0.6
 40
1.0
 40
1.0
 40
1.0
 40
1.0
 10
0.0561
 20
-57.912
 30
0.0
 10
-5.2306
 20
-59.7887
 30
0.0
 10
-9.0085
 20
-63.5909
 30
0.0
 10
-10.6534
 20
-68.6161
 30
0.0
 10
-10.6534
 20
-68.6161
 30
0.0
 10
-12.2983
 20
-63.5909
 30
0.0
 10
-16.0763
 20
-59.7887
 30
0.0
 10
-21.363
 20
-57.912
 30
0.0
 10
-21.363
 20
-57.912
 30
0.0
 10
-16.0763
 20
-56.0354
 30
0.0
 10
-12.2983
 20
-52.2332
 30
0.0
 10
-10.6534
 20
-47.208
 30
0.0
 10
-10.6534
 20
-47.208
 30
0.0
 10
-9.0085
 20
-52.2332
 30
0.0
 10
-5.2306
 20
-56.0354
 30
0.0
 10
0.0561
 20
-57.912
 30
0.0
  0
SPLINE
  5
7F
330
1F
100
AcDbEntity
  8
layer 1
 62
     7
100
AcDbSpline
210
0.0
220
0.0
230
1.0
 70
    11
 71
     3
 72
    20
 73
    16
 74
     0
 42
0.0000000001
 43
0.0000000001
 12
1.0
 22
0.0
 32
0.0
 13
1.0
 23
0.0
 33
0.0
 40
0.0
 40
0.0
 40
0.0
 40
0.0
 40
0.2
 40
0.2
 40
0.2
 40
0.2
 40
0.4
 40
0.4
 40
0.4
 40
0.4
 40
0.6
 40
0.6
 40
0.6
 40
0.6
 40
1.0
 40
1.0
 40
1.0
 40
1.0
 10
28.3671
 20
-57.912
 30
0.0
 10
23.0804
 20
-59.7887
 30
0.0
 10
19.3025
 20
-63.5909
 30
0.0
 10
17.6576
 20
-68.6161
 30
0.0
 10
17.6576
 20
-68.6161
 30
0.0
 10
16.0127
 20
-63.5909
 30
0.0
 10
12.2347
 20
-59.7887
 30
0.0
 10
6.948
 20
-57.912
 30
0.0
 10
6.948
 20
-57.912
 30
0.0
 10
12.2347
 20
-56.0354
 30
0.0
 10
16.0127
 20
-52.2332
 30
0.0
 10
17.6576
 20
-47.208
 30
0.0
 10
17.6576
 20
-47.208
 30
0.0
 10
19.3025
 20
-52.2332
 30
0.0
 10
23.0804
 20
-56.0354
 30
0.0
 10
28.3671
 20
-57.912
 30
0.0
  0
SPLINE
  5
80
330
1F
100
AcDbEntity
  8
layer 1
 62
     7
100
AcDbSpline
210
0.0
220
0.0
230
1.0
 70
    11
 71
     3
 72
    20
 73
    16
 74
     0
 42
0.0000000001
 43
0.0000000001
 12
1.0
 22
0.0
 32
0.0
 13
1.0
 23
0.0
 33
0.0
 40
0.0
 40
0.0
 40
0.0
 40
0.0
 40
0.2
 40
0.2
 40
0.2
 40
0.2
 40
0.4
 40
0.4
 40
0.4
 40
0.4
 40
0.6
 40
0.6
 40
0.6
 40
0.6
 40
1.0
 40
1.0
 40
1.0
 40
1.0
 10
56.6781
 20
-57.912
 30
0.0
 10
51.3914
 20
-59.7887
 30
0.0
 10
47.6135
 20
-63.5909
 30
0.0
 10
45.9686
 20
-68.6161
 30
0.0
 10
45.9686
 20
-68.6161
 30
0.0
 10
44.3237
 20
-63.5909
 30
0.0
 10
40.5457
 20
-59.7887
 30
0.0
 10
35.259
 20
-57.912
 30
0.0
 10
35.259
 20
-57.912
 30
0.0
 10
40.5457
 20
-56.0354
 30
0.0
 10
44.3237
 20
-52.2332
 30
0.0
 10
45.9686
 20
-47.208
 30
0.0
 10
45.9686
 20
-47.208
 30
0.0
 10
47.6135
 20
-52.2332
 30
0.0
 10
51.3914
 20
-56.0354
 30
0.0
 10
56.6781
 20
-57.912
 30
0.0
  0
SPLINE
  5
81
330
1F
100
AcDbEntity
  8
layer 1
 62
     7
100
AcDbSpline
210
0.0
220
0.0
230
1.0
 70
    11
 71
     3
 72
    16
 73
    12
 74
     0
 42
0.0000000001
 43
0.0000000001
 12
1.0
 22
0.0
 32
0.0
 13
1.0
 23
0.0
 33
0.0
 40
0.0
 40
0.0
 40
0.0
 40
0.0
 40
0.25
 40
0.25
 40
0.25
 40
0.25
 40
0.5
 40
0.5
 40
0.5
 40
0.5
 40
1.0
 40
1.0
 40
1.0
 40
1.0
 10
-14.0922
 20
-100.3277
 30
0.0
 10
-14.0922
 20
-100.3277
 30
0.0
 10
-35.5113
 20
-100.3277
 30
0.0
 10
-35.5113
 20
-100.3277
 30
0.0
 10
-35.5113
 20
-100.3277
 30
0.0
 10
-30.2246
 20
-98.4511
 30
0.0
 10
-26.4467
 20
-94.649
 30
0.0
 10
-24.8017
 20
-89.6238
 30
0.0
 10
-24.8017
 20
-89.6238
 30
0.0
 10
-23.1569
 20
-94.649
 30
0.0
 10
-19.379
 20
-98.4511
 30
0.0
 10
-14.0922
 20
-100.3277
 30
0.0
  0
SPLINE
  5
82
330
1F
100
AcDbEntity
  8
layer 1
 62
     7
100
AcDbSpline
210
0.0
220
0.0
230
1.0
 70
    11
 71
     3
 72
    16
 73
    12
 74
     0
 42
0.0000000001
 43
0.0000000001
 12
1.0
 22
0.0
 32
0.0
 13
1.0
 23
0.0
 33
0.0
 40
0.0
 40
0.0
 40
0.0
 40
0.0
 40
0.25
 40
0.25
 40
0.25
 40
0.25
 40
0.5
 40
0.5
 40
0.5
 40
0.5
 40
1.0
 40
1.0
 40
1.0
 40
1.0
 10
14.22
 20
-100.3277
 30
0.0
 10
14.22
 20
-100.3277
 30
0.0
 10
-7.1991
 20
-100.3277
 30
0.0
 10
-7.1991
 20
-100.3277
 30
0.0
 10
-7.1991
 20
-100.3277
 30
0.0
 10
-1.9124
 20
-98.4511
 30
0.0
 10
1.8655
 20
-94.649
 30
0.0
 10
3.5105
 20
-89.6238
 30
0.0
 10
3.5105
 20
-89.6238
 30
0.0
 10
5.1554
 20
-94.649
 30
0.0
 10
8.9333
 20
-98.4511
 30
0.0
 10
14.22
 20
-100.3277
 30
0.0
  0
SPLINE
  5
83
330
1F
100
AcDbEntity
  8
layer 1
 62
     7
100
AcDbSpline
210
0.0
220
0.0
230
1.0
 70
    11
 71
     3
 72
    16
 73
    12
 74
     0
 42
0.0000000001
 43
0.0000000001
 12
1.0
 22
0.0
 32
0.0
 13
1.0
 23
0.0
 33
0.0
 40
0.0
 40
0.0
 40
0.0
 40
0.0
 40
0.25
 40
0.25
 40
0.25
 40
0.25
 40
0.5
 40
0.5
 40
0.5
 40
0.5
 40
1.0
 40
1.0
 40
1.0
 40
1.0
 10
42.5323
 20
-100.3277
 30
0.0
 10
42.5323
 20
-100.3277
 30
0.0
 10
21.1132
 20
-100.3277
 30
0.0
 10
21.1132
 20
-100.3277
 30
0.0
 10
21.1132
 20
-100.3277
 30
0.0
 10
26.3999
 20
-98.4511
 30
0.0
 10
30.1778
 20
-94.649
 30
0.0
 10
31.8228
 20
-89.6238
 30
0.0
 10
31.8228
 20
-89.6238
 30
0.0
 10
33.4677
 20
-94.649
 30
0.0
 10
37.2456
 20
-98.4511
 30
0.0
 10
42.5323
 20
-100.3277
 30
0.0
  0
SPLINE
  5
84
330
1F
100
AcDbEntity
  8
layer 1
 62
     7
100
AcDbSpline
210
0.0
220
0.0
230
1.0
 70
    11
 71
     3
 72
    16
 73
    12
 74
     0
 42
0.0000000001
 43
0.0000000001
 12
1.0
 22
0.0
 32
0.0
 13
1.0
 23
0.0
 33
0.0
 40
0.0
 40
0.0
 40
0.0
 40
0.0
 40
0.25
 40
0.25
 40
0.25
 40
0.25
 40
0.5
 40
0.5
 40
0.5
 40
0.5
 40
1.0
 40
1.0
 40
1.0
 40
1.0
 10
49.4255
 20
-100.3277
 30
0.0
 10
54.7122
 20
-98.4511
 30
0.0
 10
58.4901
 20
-94.649
 30
0.0
 10
60.1351
 20
-89.6238
 30
0.0
 10
60.1351
 20
-89.6238
 30
0.0
 10
60.1351
 20
-89.6238
 30
0.0
 10
60.1351
 20
-100.3163
 30
0.0
 10
60.1351
 20
-100.3163
 30
0.0
 10
60.1351
 20
-100.3163
 30
0.0
 10
60.1351
 20
-100.3163
 30
0.0
 10
49.4255
 20
-100.3277
 30
0.0
 10
49.4255
 20
-100.3277
 30
0.0
  0
SPLINE
  5
85
330
1F
100
AcDbEntity
  8
layer 1
 62
     7
100
AcDbSpline
210
0.0
220
0.0
230
1.0
 70
    11
 71
     3
 72
    16
 73
    12
 74
     0
 42
0.0000000001
 43
0.0000000001
 12
1.0
 22
0.0
 32
0.0
 13
1.0
 23
0.0
 33
0.0
 40
0.0
 40
0.0
 40
0.0
 40
0.0
 40
0.25
 40
0.25
 40
0.25
 40
0.25
 40
0.5
 40
0.5
 40
0.5
 40
0.5
 40
1.0
 40
1.0
 40
1.0
 40
1.0
 10
-42.4223
 20
-100.3277
 30
0.0
 10
-42.4223
 20
-100.3277
 30
0.0
 10
-53.1318
 20
-100.2926
 30
0.0
 10
-53.1318
 20
-100.2926
 30
0.0
 10
-53.1318
 20
-100.2926
 30
0.0
 10
-53.1318
 20
-100.2926
 30
0.0
 10
-53.1318
 20
-89.6238
 30
0.0
 10
-53.1318
 20
-89.6238
 30
0.0
 10
-53.1318
 20
-89.6238
 30
0.0
 10
-51.4869
 20
-94.649
 30
0.0
 10
-47.709
 20
-98.4511
 30
0.0
 10
-42.4223
 20
-100.3277
 30
0.0
  0
SPLINE
  5
86
330
1F
100
AcDbEntity
  8
layer 1
 62
     7
100
AcDbSpline
210
0.0
220
0.0
230
1.0
 70
    11
 71
     3
 72
    20
 73
    16
 74
     0
 42
0.0000000001
 43
0.0000000001
 12
1.0
 22
0.0
 32
0.0
 13
1.0
 23
0.0
 33
0.0
 40
0.0
 40
0.0
 40
0.0
 40
0.0
 40
0.2
 40
0.2
 40
0.2
 40
0.2
 40
0.4
 40
0.4
 40
0.4
 40
0.4
 40
0.6
 40
0.6
 40
0.6
 40
0.6
 40
1.0
 40
1.0
 40
1.0
 40
1.0
 10
-28.2549
 20
-86.1687
 30
0.0
 10
-33.5416
 20
-88.0454
 30
0.0
 10
-37.3195
 20
-91.8476
 30
0.0
 10
-38.9644
 20
-96.8728
 30
0.0
 10
-38.9644
 20
-96.8728
 30
0.0
 10
-40.6093
 20
-91.8476
 30
0.0
 10
-44.3873
 20
-88.0454
 30
0.0
 10
-49.674
 20
-86.1687
 30
0.0
 10
-49.674
 20
-86.1687
 30
0.0
 10
-44.3873
 20
-84.292
 30
0.0
 10
-40.6093
 20
-80.4899
 30
0.0
 10
-38.9644
 20
-75.4647
 30
0.0
 10
-38.9644
 20
-75.4647
 30
0.0
 10
-37.3195
 20
-80.4899
 30
0.0
 10
-33.5416
 20
-84.292
 30
0.0
 10
-28.2549
 20
-86.1687
 30
0.0
  0
SPLINE
  5
87
330
1F
100
AcDbEntity
  8
layer 1
 62
     7
100
AcDbSpline
210
0.0
220
0.0
230
1.0
 70
    11
 71
     3
 72
    20
 73
    16
 74
     0
 42
0.0000000001
 43
0.0000000001
 12
1.0
 22
0.0
 32
0.0
 13
1.0
 23
0.0
 33
0.0
 40
0.0
 40
0.0
 40
0.0
 40
0.0
 40
0.2
 40
0.2
 40
0.2
 40
0.2
 40
0.4
 40
0.4
 40
0.4
 40
0.4
 40
0.6
 40
0.6
 40
0.6
 40
0.6
 40
1.0
 40
1.0
 40
1.0
 40
1.0
 10
0.0561
 20
-86.1687
 30
0.0
 10
-5.2306
 20
-88.0454
 30
0.0
 10
-9.0085
 20
-91.8476
 30
0.0
 10
-10.6534
 20
-96.8728
 30
0.0
 10
-10.6534
 20
-96.8728
 30
0.0
 10
-12.2983
 20
-91.8476
 30
0.0
 10
-16.0763
 20
-88.0454
 30
0.0
 10
-21.363
 20
-86.1687
 30
0.0
 10
-21.363
 20
-86.1687
 30
0.0
 10
-16.0763
 20
-84.292
 30
0.0
 10
-12.2983
 20
-80.4899
 30
0.0
 10
-10.6534
 20
-75.4647
 30
0.0
 10
-10.6534
 20
-75.4647
 30
0.0
 10
-9.0085
 20
-80.4899
 30
0.0
 10
-5.2306
 20
-84.292
 30
0.0
 10
0.0561
 20
-86.1687
 30
0.0
  0
SPLINE
  5
88
330
1F
100
AcDbEntity
  8
layer 1
 62
     7
100
AcDbSpline
210
0.0
220
0.0
230
1.0
 70
    11
 71
     3
 72
    20
 73
    16
 74
     0
 42
0.0000000001
 43
0.0000000001
 12
1.0
 22
0.0
 32
0.0
 13
1.0
 23
0.0
 33
0.0
 40
0.0
 40
0.0
 40
0.0
 40
0.0
 40
0.2
 40
0.2
 40
0.2
 40
0.2
 40
0.4
 40
0.4
 40
0.4
 40
0.4
 40
0.6
 40
0.6
 40
0.6
 40
0.6
 40
1.0
 40
1.0
 40
1.0
 40
1.0
 10
28.3671
 20
-86.1687
 30
0.0
 10
23.0804
 20
-88.0454
 30
0.0
 10
19.3025
 20
-91.8476
 30
0.0
 10
17.6576
 20
-96.8728
 30
0.0
 10
17.6576
 20
-96.8728
 30
0.0
 10
16.0127
 20
-91.8476
 30
0.0
 10
12.2347
 20
-88.0454
 30
0.0
 10
6.948
 20
-86.1687
 30
0.0
 10
6.948
 20
-86.1687
 30
0.0
 10
12.2347
 20
-84.292
 30
0.0
 10
16.0127
 20
-80.4899
 30
0.0
 10
17.6576
 20
-75.4647
 30
0.0
 10
17.6576
 20
-75.4647
 30
0.0
 10
19.3025
 20
-80.4899
 30
0.0
 10
23.0804
 20
-84.292
 30
0.0
 10
28.3671
 20
-86.1687
 30
0.0
  0
SPLINE
  5
89
330
1F
100
AcDbEntity
  8
layer 1
 62
     7
100
AcDbSpline
210
0.0
220
0.0
230
1.0
 70
    11
 71
     3
 72
    20
 73
    16
 74
     0
 42
0.0000000001
 43
0.0000000001
 12
1.0
 22
0.0
 32
0.0
 13
1.0
 23
0.0
 33
0.0
 40
0.0
 40
0.0
 40
0.0
 40
0.0
 40
0.2
 40
0.2
 40
0.2
 40
0.2
 40
0.4
 40
0.4
 40
0.4
 40
0.4
 40
0.6
 40
0.6
 40
0.6
 40
0.6
 40
1.0
 40
1.0
 40
1.0
 40
1.0
 10
56.6781
 20
-86.1687
 30
0.0
 10
51.3914
 20
-88.0454
 30
0.0
 10
47.6135
 20
-91.8476
 30
0.0
 10
45.9686
 20
-96.8728
 30
0.0
 10
45.9686
 20
-96.8728
 30
0.0
 10
44.3237
 20
-91.8476
 30
0.0
 10
40.5457
 20
-88.0454
 30
0.0
 10
35.259
 20
-86.1687
 30
0.0
 10
35.259
 20
-86.1687
 30
0.0
 10
40.5457
 20
-84.292
 30
0.0
 10
44.3237
 20
-80.4899
 30
0.0
 10
45.9686
 20
-75.4647
 30
0.0
 10
45.9686
 20
-75.4647
 30
0.0
 10
47.6135
 20
-80.4899
 30
0.0
 10
51.3914
 20
-84.292
 30
0.0
 10
56.6781
 20
-86.1687
 30
0.0
  0
SPLINE
  5
8A
330
1F
100
AcDbEntity
  8
layer 1
 62
     7
100
AcDbSpline
210
0.0
220
0.0
230
1.0
 70
    11
 71
     3
 72
    16
 73
    12
 74
     0
 42
0.0000000001
 43
0.0000000001
 12
1.0
 22
0.0
 32
0.0
 13
1.0
 23
0.0
 33
0.0
 40
0.0
 40
0.0
 40
0.0
 40
0.0
 40
0.25
 40
0.25
 40
0.25
 40
0.25
 40
0.5
 40
0.5
 40
0.5
 40
0.5
 40
1.0
 40
1.0
 40
1.0
 40
1.0
 10
-14.0922
 20
125.7824
 30
0.0
 10
-14.0922
 20
125.7824
 30
0.0
 10
-35.5113
 20
125.7824
 30
0.0
 10
-35.5113
 20
125.7824
 30
0.0
 10
-35.5113
 20
125.7824
 30
0.0
 10
-30.2246
 20
123.9058
 30
0.0
 10
-26.4467
 20
120.1036
 30
0.0
 10
-24.8017
 20
115.0784
 30
0.0
 10
-24.8017
 20
115.0784
 30
0.0
 10
-23.1569
 20
120.1036
 30
0.0
 10
-19.379
 20
123.9058
 30
0.0
 10
-14.0922
 20
125.7824
 30
0.0
  0
SPLINE
  5
8B
330
1F
100
AcDbEntity
  8
layer 1
 62
     7
100
AcDbSpline
210
0.0
220
0.0
230
1.0
 70
    11
 71
     3
 72
    16
 73
    12
 74
     0
 42
0.0000000001
 43
0.0000000001
 12
1.0
 22
0.0
 32
0.0
 13
1.0
 23
0.0
 33
0.0
 40
0.0
 40
0.0
 40
0.0
 40
0.0
 40
0.25
 40
0.25
 40
0.25
 40
0.25
 40
0.5
 40
0.5
 40
0.5
 40
0.5
 40
1.0
 40
1.0
 40
1.0
 40
1.0
 10
14.22
 20
125.7824
 30
0.0
 10
14.22
 20
125.7824
 30
0.0
 10
-7.1991
 20
125.7824
 30
0.0
 10
-7.1991
 20
125.7824
 30
0.0
 10
-7.1991
 20
125.7824
 30
0.0
 10
-1.9124
 20
123.9058
 30
0.0
 10
1.8655
 20
120.1036
 30
0.0
 10
3.5105
 20
115.0784
 30
0.0
 10
3.5105
 20
115.0784
 30
0.0
 10
5.1554
 20
120.1036
 30
0.0
 10
8.9333
 20
123.9058
 30
0.0
 10
14.22
 20
125.7824
 30
0.0
  0
SPLINE
  5
8C
330
1F
100
AcDbEntity
  8
layer 1
 62
     7
100
AcDbSpline
210
0.0
220
0.0
230
1.0
 70
    11
 71
     3
 72
    16
 73
    12
 74
     0
 42
0.0000000001
 43
0.0000000001
 12
1.0
 22
0.0
 32
0.0
 13
1.0
 23
0.0
 33
0.0
 40
0.0
 40
0.0
 40
0.0
 40
0.0
 40
0.25
 40
0.25
 40
0.25
 40
0.25
 40
0.5
 40
0.5
 40
0.5
 40
0.5
 40
1.0
 40
1.0
 40
1.0
 40
1.0
 10
42.5323
 20
125.7824
 30
0.0
 10
42.5323
 20
125.7824
 30
0.0
 10
21.1132
 20
125.7824
 30
0.0
 10
21.1132
 20
125.7824
 30
0.0
 10
21.1132
 20
125.7824
 30
0.0
 10
26.3999
 20
123.9058
 30
0.0
 10
30.1778
 20
120.1036
 30
0.0
 10
31.8228
 20
115.0784
 30
0.0
 10
31.8228
 20
115.0784
 30
0.0
 10
33.4677
 20
120.1036
 30
0.0
 10
37.2456
 20
123.9058
 30
0.0
 10
42.5323
 20
125.7824
 30
0.0
  0
SPLINE
  5
8D
330
1F
100
AcDbEntity
  8
layer 1
 62
     7
100
AcDbSpline
210
0.0
220
0.0
230
1.0
 70
    11
 71
     3
 72
    16
 73
    12
 74
     0
 42
0.0000000001
 43
0.0000000001
 12
1.0
 22
0.0
 32
0.0
 13
1.0
 23
0.0
 33
0.0
 40
0.0
 40
0.0
 40
0.0
 40
0.0
 40
0.25
 40
0.25
 40
0.25
 40
0.25
 40
0.5
 40
0.5
 40
0.5
 40
0.5
 40
1.0
 40
1.0
 40
1.0
 40
1.0
 10
49.4255
 20
125.7824
 30
0.0
 10
54.7122
 20
123.9058
 30
0.0
 10
58.4901
 20
120.1036
 30
0.0
 10
60.1351
 20
115.0784
 30
0.0
 10
60.1351
 20
115.0784
 30
0.0
 10
60.1351
 20
115.0784
 30
0.0
 10
60.1351
 20
125.771
 30
0.0
 10
60.1351
 20
125.771
 30
0.0
 10
60.1351
 20
125.771
 30
0.0
 10
60.1351
 20
125.771
 30
0.0
 10
49.4255
 20
125.7824
 30
0.0
 10
49.4255
 20
125.7824
 30
0.0
  0
SPLINE
  5
8E
330
1F
100
AcDbEntity
  8
layer 1
 62
     7
100
AcDbSpline
210
0.0
220
0.0
230
1.0
 70
    11
 71
     3
 72
    16
 73
    12
 74
     0
 42
0.0000000001
 43
0.0000000001
 12
1.0
 22
0.0
 32
0.0
 13
1.0
 23
0.0
 33
0.0
 40
0.0
 40
0.0
 40
0.0
 40
0.0
 40
0.25
 40
0.25
 40
0.25
 40
0.25
 40
0.5
 40
0.5
 40
0.5
 40
0.5
 40
1.0
 40
1.0
 40
1.0
 40
1.0
 10
-42.4223
 20
125.7824
 30
0.0
 10
-42.4223
 20
125.7824
 30
0.0
 10
-53.1318
 20
125.7473
 30
0.0
 10
-53.1318
 20
125.7473
 30
0.0
 10
-53.1318
 20
125.7473
 30
0.0
 10
-53.1318
 20
125.7473
 30
0.0
 10
-53.1318
 20
115.0784
 30
0.0
 10
-53.1318
 20
115.0784
 30
0.0
 10
-53.1318
 20
115.0784
 30
0.0
 10
-51.4869
 20
120.1036
 30
0.0
 10
-47.709
 20
123.9058
 30
0.0
 10
-42.4223
 20
125.7824
 30
0.0
  0
ENDSEC
  0
SECTION
  2
OBJECTS
  0
DICTIONARY
  5
C
330
0
100
AcDbDictionary
281
     1
  3
ACAD_GROUP
350
D
  3
ACAD_LAYOUT
350
1A
  3
ACAD_MATERIAL
350
3B
  3
ACAD_MLEADERSTYLE
350
B0
  3
ACAD_MLINESTYLE
350
17
  3
ACAD_PLOTSETTINGS
350
19
  3
ACAD_PLOTSTYLENAME
350
E
  3
ACAD_TABLESTYLE
350
AF
  3
ACAD_VISUALSTYLE
350
2A
  0
DICTIONARY
  5
D
102
{ACAD_REACTORS
330
C
102
}
330
C
100
AcDbDictionary
281
     1
  0
DICTIONARY
  5
1A
102
{ACAD_REACTORS
330
C
102
}
330
C
100
AcDbDictionary
281
     1
  3
Layout1
350
1E
  3
Layout2
350
26
  3
Model
350
22
  0
DICTIONARY
  5
3B
102
{ACAD_REACTORS
330
C
102
}
330
C
100
AcDbDictionary
281
     1
  3
ByBlock
350
3D
  3
ByLayer
350
3C
  3
Global
350
3E
  0
DICTIONARY
  5
B0
102
{ACAD_REACTORS
330
C
102
}
330
C
100
AcDbDictionary
281
     1
  0
DICTIONARY
  5
17
102
{ACAD_REACTORS
330
C
102
}
330
C
100
AcDbDictionary
281
     1
  3
Standard
350
18
  0
DICTIONARY
  5
19
102
{ACAD_REACTORS
330
C
102
}
330
C
100
AcDbDictionary
281
     1
  0
ACDBDICTIONARYWDFLT
  5
E
102
{ACAD_REACTORS
330
C
102
}
330
C
100
AcDbDictionary
281
     1
  3
Normal
350
F
100
AcDbDictionaryWithDefault
340
F
  0
DICTIONARY
  5
AF
102
{ACAD_REACTORS
330
C
102
}
330
C
100
AcDbDictionary
281
     1
  0
DICTIONARY
  5
2A
102
{ACAD_REACTORS
330
C
102
}
330
C
100
AcDbDictionary
281
     1
  3
2dWireframe
350
2F
  3
3D Hidden
350
31
  3
3dWireframe
350
30
  3
Basic
350
32
  3
Brighten
350
36
  3
ColorChange
350
3A
  3
Conceptual
350
34
  3
Dim
350
35
  3
Facepattern
350
39
  3
Flat
350
2B
  3
FlatWithEdges
350
2C
  3
Gouraud
350
2D
  3
GouraudWithEdges
350
2E
  3
Linepattern
350
38
  3
Realistic
350
33
  3
Thicken
350
37
  0
LAYOUT
  5
1E
102
{ACAD_REACTORS
330
1A
102
}
330
1A
100
AcDbPlotSettings
  1

  2
none_device
  4

  6

 40
0.0
 41
0.0
 42
0.0
 43
0.0
 44
0.0
 45
0.0
 46
0.0
 47
0.0
 48
0.0
 49
0.0
140
0.0
141
0.0
142
1.0
143
1.0
 70
   688
 72
     0
 73
     0
 74
     5
  7

 75
    16
 76
     0
 77
     2
 78
   300
147
1.0
148
0.0
149
0.0
100
AcDbLayout
  1
Layout1
 70
     1
 71
     1
 10
0.0
 20
0.0
 11
12.0
 21
9.0
 12
0.0
 22
0.0
 32
0.0
 14
1.000000000000000E+20
 24
1.000000000000000E+20
 34
1.000000000000000E+20
 15
-1.000000000000000E+20
 25
-1.000000000000000E+20
 35
-1.000000000000000E+20
146
0.0
 13
0.0
 23
0.0
 33
0.0
 16
1.0
 26
0.0
 36
0.0
 17
0.0
 27
1.0
 37
0.0
 76
     0
330
1B
  0
LAYOUT
  5
26
102
{ACAD_REACTORS
330
1A
102
}
330
1A
100
AcDbPlotSettings
  1

  2
none_device
  4

  6

 40
0.0
 41
0.0
 42
0.0
 43
0.0
 44
0.0
 45
0.0
 46
0.0
 47
0.0
 48
0.0
 49
0.0
140
0.0
141
0.0
142
1.0
143
1.0
 70
   688
 72
     0
 73
     0
 74
     5
  7

 75
    16
 76
     0
 77
     2
 78
   300
147
1.0
148
0.0
149
0.0
100
AcDbLayout
  1
Layout2
 70
     1
 71
     2
 10
0.0
 20
0.0
 11
0.0
 21
0.0
 12
0.0
 22
0.0
 32
0.0
 14
0.0
 24
0.0
 34
0.0
 15
0.0
 25
0.0
 35
0.0
146
0.0
 13
0.0
 23
0.0
 33
0.0
 16
1.0
 26
0.0
 36
0.0
 17
0.0
 27
1.0
 37
0.0
 76
     0
330
23
  0
LAYOUT
  5
22
102
{ACAD_REACTORS
330
1A
102
}
330
1A
100
AcDbPlotSettings
  1

  2
none_device
  4

  6

 40
0.0
 41
0.0
 42
0.0
 43
0.0
 44
0.0
 45
0.0
 46
0.0
 47
0.0
 48
0.0
 49
0.0
140
0.0
141
0.0
142
1.0
143
1.0
 70
  1712
 72
     0
 73
     0
 74
     0
  7

 75
     0
 76
     0
 77
     2
 78
   300
147
1.0
148
0.0
149
0.0
100
AcDbLayout
  1
Model
 70
     1
 71
     0
 10
0.0
 20
0.0
 11
12.0
 21
9.0
 12
0.0
 22
0.0
 32
0.0
 14
-60.8471
 24
-106.4084
 34
0.0
 15
67.8504
 25
131.8629
 35
0.0
146
0.0
 13
0.0
 23
0.0
 33
0.0
 16
1.0
 26
0.0
 36
0.0
 17
0.0
 27
1.0
 37
0.0
 76
     0
330
1F
331
29
  0
MATERIAL
  5
3D
102
{ACAD_REACTORS
330
3B
102
}
330
3B
100
AcDbMaterial
  1
ByBlock
 72
     1
 94
      127
  0
MATERIAL
  5
3C
102
{ACAD_REACTORS
330
3B
102
}
330
3B
100
AcDbMaterial
  1
ByLayer
 72
     1
 94
      127
  0
MATERIAL
  5
3E
102
{ACAD_REACTORS
330
3B
102
}
330
3B
100
AcDbMaterial
  1
Global
 72
     1
 94
      127
  0
MLINESTYLE
  5
18
102
{ACAD_REACTORS
330
17
102
}
330
17
100
AcDbMlineStyle
  2
Standard
 70
     0
  3

 62
   256
 51
90.0
 52
90.0
 71
     2
 49
0.5
 62
   256
  6
BYLAYER
 49
-0.5
 62
   256
  6
BYLAYER
  0
ACDBPLACEHOLDER
  5
F
102
{ACAD_REACTORS
330
E
102
}
330
E
  0
VISUALSTYLE
  5
2F
102
{ACAD_REACTORS
330
2A
102
}
102
{ACAD_XDICTIONARY
360
97
102
}
330
2A
100
AcDbVisualStyle
  2
2dWireframe
 70
     4
 71
     0
 72
     2
 73
     0
 90
        0
 40
-0.6
 41
-30.0
 62
     5
 63
     7
421
 16777215
 74
     1
 91
        4
 64
     7
 65
   257
 75
     1
175
     1
 42
1.0
 92
        0
 66
   257
 43
1.0
 76
     1
 77
     6
 78
     2
 67
     7
 79
     5
170
     0
171
     0
290
     0
174
     0
 93
        1
 44
0.0
173
     0
291
     0
 45
0.0
  0
VISUALSTYLE
  5
31
102
{ACAD_REACTORS
330
2A
102
}
102
{ACAD_XDICTIONARY
360
9B
102
}
330
2A
100
AcDbVisualStyle
  2
3D Hidden
 70
     6
 71
     1
 72
     2
 73
     2
 90
        0
 40
-0.6
 41
-30.0
 62
     5
 63
     7
421
 16777215
 74
     2
 91
        2
 64
     7
 65
   257
 75
     2
175
     1
 42
40.0
 92
        0
 66
   257
 43
1.0
 76
     1
 77
     6
 78
     2
 67
     7
 79
     3
170
     0
171
     0
290
     0
174
     0
 93
        1
 44
0.0
173
     0
291
     0
 45
0.0
  0
VISUALSTYLE
  5
30
102
{ACAD_REACTORS
330
2A
102
}
102
{ACAD_XDICTIONARY
360
99
102
}
330
2A
100
AcDbVisualStyle
  2
3dWireframe
 70
     5
 71
     0
 72
     2
 73
     0
 90
        0
 40
-0.6
 41
-30.0
 62
     5
 63
     7
421
 16777215
 74
     1
 91
        4
 64
     7
 65
   257
 75
     1
175
     1
 42
1.0
 92
        0
 66
   257
 43
1.0
 76
     1
 77
     6
 78
     2
 67
     7
 79
     5
170
     0
171
     0
290
     0
174
     0
 93
        1
 44
0.0
173
     0
291
     0
 45
0.0
  0
VISUALSTYLE
  5
32
102
{ACAD_REACTORS
330
2A
102
}
102
{ACAD_XDICTIONARY
360
9D
102
}
330
2A
100
AcDbVisualStyle
  2
Basic
 70
     7
 71
     1
 72
     0
 73
     1
 90
        0
 40
-0.6
 41
-30.0
 62
     5
 63
     7
421
 16777215
 74
     0
 91
        4
 64
     7
 65
   257
 75
     1
175
     1
 42
1.0
 92
        8
 66
     7
 43
1.0
 76
     1
 77
     6
 78
     2
 67
     7
 79
     5
170
     0
171
     0
290
     0
174
     0
 93
        1
 44
0.0
173
     0
291
     1
 45
0.0
  0
VISUALSTYLE
  5
36
102
{ACAD_REACTORS
330
2A
102
}
102
{ACAD_XDICTIONARY
360
A5
102
}
330
2A
100
AcDbVisualStyle
  2
Brighten
 70
    12
 71
     2
 72
     2
 73
     0
 90
        0
 40
-0.6
 41
-30.0
 62
     5
 63
     7
421
 16777215
 74
     1
 91
        4
 64
     7
 65
   257
 75
     1
175
     1
 42
1.0
 92
        8
 66
     7
 43
1.0
 76
     1
 77
     6
 78
     2
 67
     7
 79
     5
170
     0
171
     0
290
     0
174
     0
 93
        1
 44
50.0
173
     0
291
     1
 45
0.0
  0
VISUALSTYLE
  5
3A
102
{ACAD_REACTORS
330
2A
102
}
102
{ACAD_XDICTIONARY
360
AD
102
}
330
2A
100
AcDbVisualStyle
  2
ColorChange
 70
    16
 71
     2
 72
     2
 73
     3
 90
        0
 40
-0.6
 41
-30.0
 62
     5
 63
     8
421
  8421504
 74
     1
 91
        4
 64
     7
 65
   257
 75
     1
175
     1
 42
1.0
 92
        8
 66
     8
424
  8421504
 43
1.0
 76
     1
 77
     6
 78
     2
 67
     7
 79
     5
170
     0
171
     0
290
     0
174
     0
 93
        1
 44
0.0
173
     0
291
     1
 45
0.0
  0
VISUALSTYLE
  5
34
102
{ACAD_REACTORS
330
2A
102
}
102
{ACAD_XDICTIONARY
360
A1
102
}
330
2A
100
AcDbVisualStyle
  2
Conceptual
 70
     9
 71
     3
 72
     2
 73
     0
 90
        0
 40
-0.6
 41
-30.0
 62
     5
 63
     7
421
 16777215
 74
     2
 91
        2
 64
     7
 65
   257
 75
     1
175
     1
 42
40.0
 92
        8
 66
     7
 43
1.0
 76
     1
 77
     6
 78
     2
 67
     7
 79
     3
170
     0
171
     0
290
     0
174
     0
 93
        1
 44
0.0
173
     0
291
     0
 45
0.0
  0
VISUALSTYLE
  5
35
102
{ACAD_REACTORS
330
2A
102
}
102
{ACAD_XDICTIONARY
360
A3
102
}
330
2A
100
AcDbVisualStyle
  2
Dim
 70
    11
 71
     2
 72
     2
 73
     0
 90
        0
 40
-0.6
 41
-30.0
 62
     5
 63
     7
421
 16777215
 74
     1
 91
        4
 64
     7
 65
   257
 75
     1
175
     1
 42
1.0
 92
        8
 66
     7
 43
1.0
 76
     1
 77
     6
 78
     2
 67
     7
 79
     5
170
     0
171
     0
290
     0
174
     0
 93
        1
 44
-50.0
173
     0
291
     1
 45
0.0
  0
VISUALSTYLE
  5
39
102
{ACAD_REACTORS
330
2A
102
}
102
{ACAD_XDICTIONARY
360
AB
102
}
330
2A
100
AcDbVisualStyle
  2
Facepattern
 70
    15
 71
     2
 72
     2
 73
     0
 90
        0
 40
-0.6
 41
-30.0
 62
     5
 63
     7
421
 16777215
 74
     1
 91
        4
 64
     7
 65
   257
 75
     1
175
     1
 42
1.0
 92
        8
 66
     7
 43
1.0
 76
     1
 77
     6
 78
     2
 67
     7
 79
     5
170
     0
171
     0
290
     0
174
     0
 93
        1
 44
0.0
173
     0
291
     1
 45
0.0
  0
VISUALSTYLE
  5
2B
102
{ACAD_REACTORS
330
2A
102
}
102
{ACAD_XDICTIONARY
360
8F
102
}
330
2A
100
AcDbVisualStyle
  2
Flat
 70
     0
 71
     2
 72
     1
 73
     1
 90
        2
 40
-0.6
 41
30.0
 62
     5
 63
     7
421
 16777215
 74
     0
 91
        4
 64
     7
 65
   257
 75
     1
175
     1
 42
1.0
 92
        8
 66
     7
 43
1.0
 76
     1
 77
     6
 78
     2
 67
     7
 79
     5
170
     0
171
     0
290
     0
174
     0
 93
       13
 44
0.0
173
     0
291
     1
 45
0.0
  0
VISUALSTYLE
  5
2C
102
{ACAD_REACTORS
330
2A
102
}
102
{ACAD_XDICTIONARY
360
91
102
}
330
2A
100
AcDbVisualStyle
  2
FlatWithEdges
 70
     1
 71
     2
 72
     1
 73
     1
 90
        2
 40
-0.6
 41
30.0
 62
     5
 63
     7
421
 16777215
 74
     1
 91
        4
 64
     7
 65
   257
 75
     1
175
     1
 42
1.0
 92
        0
 66
   257
 43
1.0
 76
     1
 77
     6
 78
     2
 67
     7
 79
     5
170
     0
171
     0
290
     0
174
     0
 93
       13
 44
0.0
173
     0
291
     1
 45
0.0
  0
VISUALSTYLE
  5
2D
102
{ACAD_REACTORS
330
2A
102
}
102
{ACAD_XDICTIONARY
360
93
102
}
330
2A
100
AcDbVisualStyle
  2
Gouraud
 70
     2
 71
     2
 72
     2
 73
     1
 90
        2
 40
-0.6
 41
30.0
 62
     5
 63
     7
421
 16777215
 74
     0
 91
        4
 64
     7
 65
   257
 75
     1
175
     1
 42
1.0
 92
        0
 66
     7
 43
1.0
 76
     1
 77
     6
 78
     2
 67
     7
 79
     5
170
     0
171
     0
290
     0
174
     0
 93
       13
 44
0.0
173
     0
291
     1
 45
0.0
  0
VISUALSTYLE
  5
2E
102
{ACAD_REACTORS
330
2A
102
}
102
{ACAD_XDICTIONARY
360
95
102
}
330
2A
100
AcDbVisualStyle
  2
GouraudWithEdges
 70
     3
 71
     2
 72
     2
 73
     1
 90
        2
 40
-0.6
 41
30.0
 62
     5
 63
     7
421
 16777215
 74
     1
 91
        4
 64
     7
 65
   257
 75
     1
175
     1
 42
1.0
 92
        0
 66
   257
 43
1.0
 76
     1
 77
     6
 78
     2
 67
     7
 79
     5
170
     0
171
     0
290
     0
174
     0
 93
       13
 44
0.0
173
     0
291
     1
 45
0.0
  0
VISUALSTYLE
  5
38
102
{ACAD_REACTORS
330
2A
102
}
102
{ACAD_XDICTIONARY
360
A9
102
}
330
2A
100
AcDbVisualStyle
  2
Linepattern
 70
    14
 71
     2
 72
     2
 73
     0
 90
        0
 40
-0.6
 41
-30.0
 62
     5
 63
     7
421
 16777215
 74
     1
 91
        4
 64
     7
 65
   257
 75
     7
175
     7
 42
1.0
 92
        8
 66
     7
 43
1.0
 76
     1
 77
     6
 78
     2
 67
     7
 79
     5
170
     0
171
     0
290
     0
174
     0
 93
        1
 44
0.0
173
     0
291
     1
 45
0.0
  0
VISUALSTYLE
  5
33
102
{ACAD_REACTORS
330
2A
102
}
102
{ACAD_XDICTIONARY
360
9F
102
}
330
2A
100
AcDbVisualStyle
  2
Realistic
 70
     8
 71
     2
 72
     2
 73
     0
 90
        0
 40
-0.6
 41
-30.0
 62
     5
 63
     7
421
 16777215
 74
     1
 91
        0
 64
     7
 65
   257
 75
     1
175
     1
 42
1.0
 92
        8
 66
     8
424
  7895160
 43
1.0
 76
     1
 77
     6
 78
     2
 67
     7
 79
     5
170
     0
171
     0
290
     0
174
     0
 93
       13
 44
0.0
173
     0
291
     0
 45
0.0
  0
VISUALSTYLE
  5
37
102
{ACAD_REACTORS
330
2A
102
}
102
{ACAD_XDICTIONARY
360
A7
102
}
330
2A
100
AcDbVisualStyle
  2
Thicken
 70
    13
 71
     2
 72
     2
 73
     0
 90
        0
 40
-0.6
 41
-30.0
 62
     5
 63
     7
421
 16777215
 74
     1
 91
        4
 64
     7
 65
   257
 75
     1
175
     1
 42
1.0
 92
       12
 66
     7
 43
1.0
 76
     1
 77
     6
 78
     2
 67
     7
 79
     5
170
     0
171
     0
290
     0
174
     0
 93
        1
 44
0.0
173
     0
291
     1
 45
0.0
  0
DICTIONARY
  5
97
330
2F
100
AcDbDictionary
280
     1
281
     1
  3
ACAD_XREC_ROUNDTRIP
360
98
  0
DICTIONARY
  5
9B
330
31
100
AcDbDictionary
280
     1
281
     1
  3
ACAD_XREC_ROUNDTRIP
360
9C
  0
DICTIONARY
  5
99
330
30
100
AcDbDictionary
280
     1
281
     1
  3
ACAD_XREC_ROUNDTRIP
360
9A
  0
DICTIONARY
  5
9D
330
32
100
AcDbDictionary
280
     1
281
     1
  3
ACAD_XREC_ROUNDTRIP
360
9E
  0
DICTIONARY
  5
A5
330
36
100
AcDbDictionary
280
     1
281
     1
  3
ACAD_XREC_ROUNDTRIP
360
A6
  0
DICTIONARY
  5
AD
330
3A
100
AcDbDictionary
280
     1
281
     1
  3
ACAD_XREC_ROUNDTRIP
360
AE
  0
DICTIONARY
  5
A1
330
34
100
AcDbDictionary
280
     1
281
     1
  3
ACAD_XREC_ROUNDTRIP
360
A2
  0
DICTIONARY
  5
A3
330
35
100
AcDbDictionary
280
     1
281
     1
  3
ACAD_XREC_ROUNDTRIP
360
A4
  0
DICTIONARY
  5
AB
330
39
100
AcDbDictionary
280
     1
281
     1
  3
ACAD_XREC_ROUNDTRIP
360
AC
  0
DICTIONARY
  5
8F
330
2B
100
AcDbDictionary
280
     1
281
     1
  3
ACAD_XREC_ROUNDTRIP
360
90
  0
DICTIONARY
  5
91
330
2C
100
AcDbDictionary
280
     1
281
     1
  3
ACAD_XREC_ROUNDTRIP
360
92
  0
DICTIONARY
  5
93
330
2D
100
AcDbDictionary
280
     1
281
     1
  3
ACAD_XREC_ROUNDTRIP
360
94
  0
DICTIONARY
  5
95
330
2E
100
AcDbDictionary
280
     1
281
     1
  3
ACAD_XREC_ROUNDTRIP
360
96
  0
DICTIONARY
  5
A9
330
38
100
AcDbDictionary
280
     1
281
     1
  3
ACAD_XREC_ROUNDTRIP
360
AA
  0
DICTIONARY
  5
9F
330
33
100
AcDbDictionary
280
     1
281
     1
  3
ACAD_XREC_ROUNDTRIP
360
A0
  0
DICTIONARY
  5
A7
330
37
100
AcDbDictionary
280
     1
281
     1
  3
ACAD_XREC_ROUNDTRIP
360
A8
  0
XRECORD
  5
98
102
{ACAD_REACTORS
330
97
102
}
330
97
100
AcDbXrecord
280
     1
102
RTVSPropertyOp0
 70
     1
102
RTVSPropertyOp1
 70
     1
102
RTVSPropertyOp2
 70
     1
102
RTVSPropertyOp3
 70
     1
102
RTVSPropertyOp4
 70
     1
102
RTVSPropertyOp5
 70
     1
102
RTVSPropertyOp6
 70
     1
102
RTVSPropertyOp7
 70
     1
102
RTVSPropertyOp8
 70
     1
102
RTVSPropertyOp9
 70
     1
102
RTVSPropertyOp10
 70
     1
102
RTVSPropertyOp11
 70
     1
102
RTVSPropertyOp12
 70
     1
102
RTVSPropertyOp13
 70
     1
102
RTVSPropertyOp14
 70
     1
102
RTVSPropertyOp15
 70
     1
102
RTVSPropertyOp16
 70
     1
102
RTVSPropertyOp17
 70
     1
102
RTVSPropertyOp18
 70
     1
102
RTVSPropertyOp19
 70
     1
102
RTVSPropertyOp20
 70
     1
102
RTVSPropertyOp21
 70
     1
102
RTVSPropertyOp22
 70
     1
102
RTVSPropertyOp23
 70
     1
102
RTVSPropertyOp24
 70
     1
102
RTVSPropertyOp25
 70
     1
102
RTVSPropertyOp26
 70
     1
102
RTVSPropertyOp27
 70
     1
102
RTVSPropertyOp28
 70
     1
102
RTVSPropertyOp29
 70
     1
102
RTVSPropertyOp30
 70
     1
102
RTVSPropertyOp31
 70
     1
102
RTVSPropertyOp32
 70
     1
  0
XRECORD
  5
9C
102
{ACAD_REACTORS
330
9B
102
}
330
9B
100
AcDbXrecord
280
     1
102
RTVSPropertyOp0
 70
     1
102
RTVSPropertyOp1
 70
     1
102
RTVSPropertyOp2
 70
     1
102
RTVSPropertyOp3
 70
     1
102
RTVSPropertyOp4
 70
     1
102
RTVSPropertyOp5
 70
     1
102
RTVSPropertyOp6
 70
     1
102
RTVSPropertyOp7
 70
     1
102
RTVSPropertyOp8
 70
     1
102
RTVSPropertyOp9
 70
     1
102
RTVSPropertyOp10
 70
     1
102
RTVSPropertyOp11
 70
     1
102
RTVSPropertyOp12
 70
     1
102
RTVSPropertyOp13
 70
     1
102
RTVSPropertyOp14
 70
     1
102
RTVSPropertyOp15
 70
     1
102
RTVSPropertyOp16
 70
     1
102
RTVSPropertyOp17
 70
     1
102
RTVSPropertyOp18
 70
     1
102
RTVSPropertyOp19
 70
     1
102
RTVSPropertyOp20
 70
     1
102
RTVSPropertyOp21
 70
     1
102
RTVSPropertyOp22
 70
     1
102
RTVSPropertyOp23
 70
     1
102
RTVSPropertyOp24
 70
     1
102
RTVSPropertyOp25
 70
     1
102
RTVSPropertyOp26
 70
     1
102
RTVSPropertyOp27
 70
     1
102
RTVSPropertyOp28
 70
     1
102
RTVSPropertyOp29
 70
     1
102
RTVSPropertyOp30
 70
     1
102
RTVSPropertyOp31
 70
     1
102
RTVSPropertyOp32
 70
     1
  0
XRECORD
  5
9A
102
{ACAD_REACTORS
330
99
102
}
330
99
100
AcDbXrecord
280
     1
102
RTVSPropertyOp0
 70
     1
102
RTVSPropertyOp1
 70
     1
102
RTVSPropertyOp2
 70
     1
102
RTVSPropertyOp3
 70
     1
102
RTVSPropertyOp4
 70
     1
102
RTVSPropertyOp5
 70
     1
102
RTVSPropertyOp6
 70
     1
102
RTVSPropertyOp7
 70
     1
102
RTVSPropertyOp8
 70
     1
102
RTVSPropertyOp9
 70
     1
102
RTVSPropertyOp10
 70
     1
102
RTVSPropertyOp11
 70
     1
102
RTVSPropertyOp12
 70
     1
102
RTVSPropertyOp13
 70
     1
102
RTVSPropertyOp14
 70
     1
102
RTVSPropertyOp15
 70
     1
102
RTVSPropertyOp16
 70
     1
102
RTVSPropertyOp17
 70
     1
102
RTVSPropertyOp18
 70
     1
102
RTVSPropertyOp19
 70
     1
102
RTVSPropertyOp20
 70
     1
102
RTVSPropertyOp21
 70
     1
102
RTVSPropertyOp22
 70
     1
102
RTVSPropertyOp23
 70
     1
102
RTVSPropertyOp24
 70
     1
102
RTVSPropertyOp25
 70
     1
102
RTVSPropertyOp26
 70
     1
102
RTVSPropertyOp27
 70
     1
102
RTVSPropertyOp28
 70
     1
102
RTVSPropertyOp29
 70
     1
102
RTVSPropertyOp30
 70
     1
102
RTVSPropertyOp31
 70
     1
102
RTVSPropertyOp32
 70
     1
  0
XRECORD
  5
9E
102
{ACAD_REACTORS
330
9D
102
}
330
9D
100
AcDbXrecord
280
     1
102
RTVSPropertyOp0
 70
     1
102
RTVSPropertyOp1
 70
     1
102
RTVSPropertyOp2
 70
     1
102
RTVSPropertyOp3
 70
     1
102
RTVSPropertyOp4
 70
     1
102
RTVSPropertyOp5
 70
     1
102
RTVSPropertyOp6
 70
     1
102
RTVSPropertyOp7
 70
     1
102
RTVSPropertyOp8
 70
     1
102
RTVSPropertyOp9
 70
     1
102
RTVSPropertyOp10
 70
     1
102
RTVSPropertyOp11
 70
     1
102
RTVSPropertyOp12
 70
     1
102
RTVSPropertyOp13
 70
     1
102
RTVSPropertyOp14
 70
     1
102
RTVSPropertyOp15
 70
     1
102
RTVSPropertyOp16
 70
     1
102
RTVSPropertyOp17
 70
     1
102
RTVSPropertyOp18
 70
     1
102
RTVSPropertyOp19
 70
     1
102
RTVSPropertyOp20
 70
     1
102
RTVSPropertyOp21
 70
     1
102
RTVSPropertyOp22
 70
     1
102
RTVSPropertyOp23
 70
     1
102
RTVSPropertyOp24
 70
     1
102
RTVSPropertyOp25
 70
     1
102
RTVSPropertyOp26
 70
     1
102
RTVSPropertyOp27
 70
     1
102
RTVSPropertyOp28
 70
     1
102
RTVSPropertyOp29
 70
     1
102
RTVSPropertyOp30
 70
     1
102
RTVSPropertyOp31
 70
     1
102
RTVSPropertyOp32
 70
     1
  0
XRECORD
  5
A6
102
{ACAD_REACTORS
330
A5
102
}
330
A5
100
AcDbXrecord
280
     1
102
RTVSPropertyOp0
 70
     1
102
RTVSPropertyOp1
 70
     1
102
RTVSPropertyOp2
 70
     1
102
RTVSPropertyOp3
 70
     1
102
RTVSPropertyOp4
 70
     1
102
RTVSPropertyOp5
 70
     1
102
RTVSPropertyOp6
 70
     1
102
RTVSPropertyOp7
 70
     1
102
RTVSPropertyOp8
 70
     1
102
RTVSPropertyOp9
 70
     1
102
RTVSPropertyOp10
 70
     1
102
RTVSPropertyOp11
 70
     1
102
RTVSPropertyOp12
 70
     1
102
RTVSPropertyOp13
 70
     1
102
RTVSPropertyOp14
 70
     1
102
RTVSPropertyOp15
 70
     1
102
RTVSPropertyOp16
 70
     1
102
RTVSPropertyOp17
 70
     1
102
RTVSPropertyOp18
 70
     1
102
RTVSPropertyOp19
 70
     1
102
RTVSPropertyOp20
 70
     1
102
RTVSPropertyOp21
 70
     1
102
RTVSPropertyOp22
 70
     1
102
RTVSPropertyOp23
 70
     1
102
RTVSPropertyOp24
 70
     1
102
RTVSPropertyOp25
 70
     1
102
RTVSPropertyOp26
 70
     1
102
RTVSPropertyOp27
 70
     1
102
RTVSPropertyOp28
 70
     1
102
RTVSPropertyOp29
 70
     1
102
RTVSPropertyOp30
 70
     1
102
RTVSPropertyOp31
 70
     1
102
RTVSPropertyOp32
 70
     1
  0
XRECORD
  5
AE
102
{ACAD_REACTORS
330
AD
102
}
330
AD
100
AcDbXrecord
280
     1
102
RTVSPropertyOp0
 70
     1
102
RTVSPropertyOp1
 70
     1
102
RTVSPropertyOp2
 70
     1
102
RTVSPropertyOp3
 70
     1
102
RTVSPropertyOp4
 70
     1
102
RTVSPropertyOp5
 70
     1
102
RTVSPropertyOp6
 70
     1
102
RTVSPropertyOp7
 70
     1
102
RTVSPropertyOp8
 70
     1
102
RTVSPropertyOp9
 70
     1
102
RTVSPropertyOp10
 70
     1
102
RTVSPropertyOp11
 70
     1
102
RTVSPropertyOp12
 70
     1
102
RTVSPropertyOp13
 70
     1
102
RTVSPropertyOp14
 70
     1
102
RTVSPropertyOp15
 70
     1
102
RTVSPropertyOp16
 70
     1
102
RTVSPropertyOp17
 70
     1
102
RTVSPropertyOp18
 70
     1
102
RTVSPropertyOp19
 70
     1
102
RTVSPropertyOp20
 70
     1
102
RTVSPropertyOp21
 70
     1
102
RTVSPropertyOp22
 70
     1
102
RTVSPropertyOp23
 70
     1
102
RTVSPropertyOp24
 70
     1
102
RTVSPropertyOp25
 70
     1
102
RTVSPropertyOp26
 70
     1
102
RTVSPropertyOp27
 70
     1
102
RTVSPropertyOp28
 70
     1
102
RTVSPropertyOp29
 70
     1
102
RTVSPropertyOp30
 70
     1
102
RTVSPropertyOp31
 70
     1
102
RTVSPropertyOp32
 70
     1
  0
XRECORD
  5
A2
102
{ACAD_REACTORS
330
A1
102
}
330
A1
100
AcDbXrecord
280
     1
102
RTVSPropertyOp0
 70
     1
102
RTVSPropertyOp1
 70
     1
102
RTVSPropertyOp2
 70
     1
102
RTVSPropertyOp3
 70
     1
102
RTVSPropertyOp4
 70
     1
102
RTVSPropertyOp5
 70
     1
102
RTVSPropertyOp6
 70
     1
102
RTVSPropertyOp7
 70
     1
102
RTVSPropertyOp8
 70
     1
102
RTVSPropertyOp9
 70
     1
102
RTVSPropertyOp10
 70
     1
102
RTVSPropertyOp11
 70
     1
102
RTVSPropertyOp12
 70
     1
102
RTVSPropertyOp13
 70
     1
102
RTVSPropertyOp14
 70
     1
102
RTVSPropertyOp15
 70
     1
102
RTVSPropertyOp16
 70
     1
102
RTVSPropertyOp17
 70
     1
102
RTVSPropertyOp18
 70
     1
102
RTVSPropertyOp19
 70
     1
102
RTVSPropertyOp20
 70
     1
102
RTVSPropertyOp21
 70
     1
102
RTVSPropertyOp22
 70
     1
102
RTVSPropertyOp23
 70
     1
102
RTVSPropertyOp24
 70
     1
102
RTVSPropertyOp25
 70
     1
102
RTVSPropertyOp26
 70
     1
102
RTVSPropertyOp27
 70
     1
102
RTVSPropertyOp28
 70
     1
102
RTVSPropertyOp29
 70
     1
102
RTVSPropertyOp30
 70
     1
102
RTVSPropertyOp31
 70
     1
102
RTVSPropertyOp32
 70
     1
  0
XRECORD
  5
A4
102
{ACAD_REACTORS
330
A3
102
}
330
A3
100
AcDbXrecord
280
     1
102
RTVSPropertyOp0
 70
     1
102
RTVSPropertyOp1
 70
     1
102
RTVSPropertyOp2
 70
     1
102
RTVSPropertyOp3
 70
     1
102
RTVSPropertyOp4
 70
     1
102
RTVSPropertyOp5
 70
     1
102
RTVSPropertyOp6
 70
     1
102
RTVSPropertyOp7
 70
     1
102
RTVSPropertyOp8
 70
     1
102
RTVSPropertyOp9
 70
     1
102
RTVSPropertyOp10
 70
     1
102
RTVSPropertyOp11
 70
     1
102
RTVSPropertyOp12
 70
     1
102
RTVSPropertyOp13
 70
     1
102
RTVSPropertyOp14
 70
     1
102
RTVSPropertyOp15
 70
     1
102
RTVSPropertyOp16
 70
     1
102
RTVSPropertyOp17
 70
     1
102
RTVSPropertyOp18
 70
     1
102
RTVSPropertyOp19
 70
     1
102
RTVSPropertyOp20
 70
     1
102
RTVSPropertyOp21
 70
     1
102
RTVSPropertyOp22
 70
     1
102
RTVSPropertyOp23
 70
     1
102
RTVSPropertyOp24
 70
     1
102
RTVSPropertyOp25
 70
     1
102
RTVSPropertyOp26
 70
     1
102
RTVSPropertyOp27
 70
     1
102
RTVSPropertyOp28
 70
     1
102
RTVSPropertyOp29
 70
     1
102
RTVSPropertyOp30
 70
     1
102
RTVSPropertyOp31
 70
     1
102
RTVSPropertyOp32
 70
     1
  0
XRECORD
  5
AC
102
{ACAD_REACTORS
330
AB
102
}
330
AB
100
AcDbXrecord
280
     1
102
RTVSPropertyOp0
 70
     1
102
RTVSPropertyOp1
 70
     1
102
RTVSPropertyOp2
 70
     1
102
RTVSPropertyOp3
 70
     1
102
RTVSPropertyOp4
 70
     1
102
RTVSPropertyOp5
 70
     1
102
RTVSPropertyOp6
 70
     1
102
RTVSPropertyOp7
 70
     1
102
RTVSPropertyOp8
 70
     1
102
RTVSPropertyOp9
 70
     1
102
RTVSPropertyOp10
 70
     1
102
RTVSPropertyOp11
 70
     1
102
RTVSPropertyOp12
 70
     1
102
RTVSPropertyOp13
 70
     1
102
RTVSPropertyOp14
 70
     1
102
RTVSPropertyOp15
 70
     1
102
RTVSPropertyOp16
 70
     1
102
RTVSPropertyOp17
 70
     1
102
RTVSPropertyOp18
 70
     1
102
RTVSPropertyOp19
 70
     1
102
RTVSPropertyOp20
 70
     1
102
RTVSPropertyOp21
 70
     1
102
RTVSPropertyOp22
 70
     1
102
RTVSPropertyOp23
 70
     1
102
RTVSPropertyOp24
 70
     1
102
RTVSPropertyOp25
 70
     1
102
RTVSPropertyOp26
 70
     1
102
RTVSPropertyOp27
 70
     1
102
RTVSPropertyOp28
 70
     1
102
RTVSPropertyOp29
 70
     1
102
RTVSPropertyOp30
 70
     1
102
RTVSPropertyOp31
 70
     1
102
RTVSPropertyOp32
 70
     1
  0
XRECORD
  5
90
102
{ACAD_REACTORS
330
8F
102
}
330
8F
100
AcDbXrecord
280
     1
102
RTVSPropertyOp0
 70
     1
102
RTVSPropertyOp1
 70
     1
102
RTVSPropertyOp2
 70
     1
102
RTVSPropertyOp3
 70
     1
102
RTVSPropertyOp4
 70
     1
102
RTVSPropertyOp5
 70
     1
102
RTVSPropertyOp6
 70
     1
102
RTVSPropertyOp7
 70
     1
102
RTVSPropertyOp8
 70
     1
102
RTVSPropertyOp9
 70
     1
102
RTVSPropertyOp10
 70
     1
102
RTVSPropertyOp11
 70
     1
102
RTVSPropertyOp12
 70
     1
102
RTVSPropertyOp13
 70
     1
102
RTVSPropertyOp14
 70
     1
102
RTVSPropertyOp15
 70
     1
102
RTVSPropertyOp16
 70
     1
102
RTVSPropertyOp17
 70
     1
102
RTVSPropertyOp18
 70
     1
102
RTVSPropertyOp19
 70
     1
102
RTVSPropertyOp20
 70
     1
102
RTVSPropertyOp21
 70
     1
102
RTVSPropertyOp22
 70
     1
102
RTVSPropertyOp23
 70
     1
102
RTVSPropertyOp24
 70
     1
102
RTVSPropertyOp25
 70
     1
102
RTVSPropertyOp26
 70
     1
102
RTVSPropertyOp27
 70
     1
102
RTVSPropertyOp28
 70
     1
102
RTVSPropertyOp29
 70
     1
102
RTVSPropertyOp30
 70
     1
102
RTVSPropertyOp31
 70
     1
102
RTVSPropertyOp32
 70
     1
  0
XRECORD
  5
92
102
{ACAD_REACTORS
330
91
102
}
330
91
100
AcDbXrecord
280
     1
102
RTVSPropertyOp0
 70
     1
102
RTVSPropertyOp1
 70
     1
102
RTVSPropertyOp2
 70
     1
102
RTVSPropertyOp3
 70
     1
102
RTVSPropertyOp4
 70
     1
102
RTVSPropertyOp5
 70
     1
102
RTVSPropertyOp6
 70
     1
102
RTVSPropertyOp7
 70
     1
102
RTVSPropertyOp8
 70
     1
102
RTVSPropertyOp9
 70
     1
102
RTVSPropertyOp10
 70
     1
102
RTVSPropertyOp11
 70
     1
102
RTVSPropertyOp12
 70
     1
102
RTVSPropertyOp13
 70
     1
102
RTVSPropertyOp14
 70
     1
102
RTVSPropertyOp15
 70
     1
102
RTVSPropertyOp16
 70
     1
102
RTVSPropertyOp17
 70
     1
102
RTVSPropertyOp18
 70
     1
102
RTVSPropertyOp19
 70
     1
102
RTVSPropertyOp20
 70
     1
102
RTVSPropertyOp21
 70
     1
102
RTVSPropertyOp22
 70
     1
102
RTVSPropertyOp23
 70
     1
102
RTVSPropertyOp24
 70
     1
102
RTVSPropertyOp25
 70
     1
102
RTVSPropertyOp26
 70
     1
102
RTVSPropertyOp27
 70
     1
102
RTVSPropertyOp28
 70
     1
102
RTVSPropertyOp29
 70
     1
102
RTVSPropertyOp30
 70
     1
102
RTVSPropertyOp31
 70
     1
102
RTVSPropertyOp32
 70
     1
  0
XRECORD
  5
94
102
{ACAD_REACTORS
330
93
102
}
330
93
100
AcDbXrecord
280
     1
102
RTVSPropertyOp0
 70
     1
102
RTVSPropertyOp1
 70
     1
102
RTVSPropertyOp2
 70
     1
102
RTVSPropertyOp3
 70
     1
102
RTVSPropertyOp4
 70
     1
102
RTVSPropertyOp5
 70
     1
102
RTVSPropertyOp6
 70
     1
102
RTVSPropertyOp7
 70
     1
102
RTVSPropertyOp8
 70
     1
102
RTVSPropertyOp9
 70
     1
102
RTVSPropertyOp10
 70
     1
102
RTVSPropertyOp11
 70
     1
102
RTVSPropertyOp12
 70
     1
102
RTVSPropertyOp13
 70
     1
102
RTVSPropertyOp14
 70
     1
102
RTVSPropertyOp15
 70
     1
102
RTVSPropertyOp16
 70
     1
102
RTVSPropertyOp17
 70
     1
102
RTVSPropertyOp18
 70
     1
102
RTVSPropertyOp19
 70
     1
102
RTVSPropertyOp20
 70
     1
102
RTVSPropertyOp21
 70
     1
102
RTVSPropertyOp22
 70
     1
102
RTVSPropertyOp23
 70
     1
102
RTVSPropertyOp24
 70
     1
102
RTVSPropertyOp25
 70
     1
102
RTVSPropertyOp26
 70
     1
102
RTVSPropertyOp27
 70
     1
102
RTVSPropertyOp28
 70
     1
102
RTVSPropertyOp29
 70
     1
102
RTVSPropertyOp30
 70
     1
102
RTVSPropertyOp31
 70
     1
102
RTVSPropertyOp32
 70
     1
  0
XRECORD
  5
96
102
{ACAD_REACTORS
330
95
102
}
330
95
100
AcDbXrecord
280
     1
102
RTVSPropertyOp0
 70
     1
102
RTVSPropertyOp1
 70
     1
102
RTVSPropertyOp2
 70
     1
102
RTVSPropertyOp3
 70
     1
102
RTVSPropertyOp4
 70
     1
102
RTVSPropertyOp5
 70
     1
102
RTVSPropertyOp6
 70
     1
102
RTVSPropertyOp7
 70
     1
102
RTVSPropertyOp8
 70
     1
102
RTVSPropertyOp9
 70
     1
102
RTVSPropertyOp10
 70
     1
102
RTVSPropertyOp11
 70
     1
102
RTVSPropertyOp12
 70
     1
102
RTVSPropertyOp13
 70
     1
102
RTVSPropertyOp14
 70
     1
102
RTVSPropertyOp15
 70
     1
102
RTVSPropertyOp16
 70
     1
102
RTVSPropertyOp17
 70
     1
102
RTVSPropertyOp18
 70
     1
102
RTVSPropertyOp19
 70
     1
102
RTVSPropertyOp20
 70
     1
102
RTVSPropertyOp21
 70
     1
102
RTVSPropertyOp22
 70
     1
102
RTVSPropertyOp23
 70
     1
102
RTVSPropertyOp24
 70
     1
102
RTVSPropertyOp25
 70
     1
102
RTVSPropertyOp26
 70
     1
102
RTVSPropertyOp27
 70
     1
102
RTVSPropertyOp28
 70
     1
102
RTVSPropertyOp29
 70
     1
102
RTVSPropertyOp30
 70
     1
102
RTVSPropertyOp31
 70
     1
102
RTVSPropertyOp32
 70
     1
  0
XRECORD
  5
AA
102
{ACAD_REACTORS
330
A9
102
}
330
A9
100
AcDbXrecord
280
     1
102
RTVSPropertyOp0
 70
     1
102
RTVSPropertyOp1
 70
     1
102
RTVSPropertyOp2
 70
     1
102
RTVSPropertyOp3
 70
     1
102
RTVSPropertyOp4
 70
     1
102
RTVSPropertyOp5
 70
     1
102
RTVSPropertyOp6
 70
     1
102
RTVSPropertyOp7
 70
     1
102
RTVSPropertyOp8
 70
     1
102
RTVSPropertyOp9
 70
     1
102
RTVSPropertyOp10
 70
     1
102
RTVSPropertyOp11
 70
     1
102
RTVSPropertyOp12
 70
     1
102
RTVSPropertyOp13
 70
     1
102
RTVSPropertyOp14
 70
     1
102
RTVSPropertyOp15
 70
     1
102
RTVSPropertyOp16
 70
     1
102
RTVSPropertyOp17
 70
     1
102
RTVSPropertyOp18
 70
     1
102
RTVSPropertyOp19
 70
     1
102
RTVSPropertyOp20
 70
     1
102
RTVSPropertyOp21
 70
     1
102
RTVSPropertyOp22
 70
     1
102
RTVSPropertyOp23
 70
     1
102
RTVSPropertyOp24
 70
     1
102
RTVSPropertyOp25
 70
     1
102
RTVSPropertyOp26
 70
     1
102
RTVSPropertyOp27
 70
     1
102
RTVSPropertyOp28
 70
     1
102
RTVSPropertyOp29
 70
     1
102
RTVSPropertyOp30
 70
     1
102
RTVSPropertyOp31
 70
     1
102
RTVSPropertyOp32
 70
     1
  0
XRECORD
  5
A0
102
{ACAD_REACTORS
330
9F
102
}
330
9F
100
AcDbXrecord
280
     1
102
RTVSPropertyOp0
 70
     1
102
RTVSPropertyOp1
 70
     1
102
RTVSPropertyOp2
 70
     1
102
RTVSPropertyOp3
 70
     1
102
RTVSPropertyOp4
 70
     1
102
RTVSPropertyOp5
 70
     1
102
RTVSPropertyOp6
 70
     1
102
RTVSPropertyOp7
 70
     1
102
RTVSPropertyOp8
 70
     1
102
RTVSPropertyOp9
 70
     1
102
RTVSPropertyOp10
 70
     1
102
RTVSPropertyOp11
 70
     1
102
RTVSPropertyOp12
 70
     1
102
RTVSPropertyOp13
 70
     1
102
RTVSPropertyOp14
 70
     1
102
RTVSPropertyOp15
 70
     1
102
RTVSPropertyOp16
 70
     1
102
RTVSPropertyOp17
 70
     1
102
RTVSPropertyOp18
 70
     1
102
RTVSPropertyOp19
 70
     1
102
RTVSPropertyOp20
 70
     1
102
RTVSPropertyOp21
 70
     1
102
RTVSPropertyOp22
 70
     1
102
RTVSPropertyOp23
 70
     1
102
RTVSPropertyOp24
 70
     1
102
RTVSPropertyOp25
 70
     1
102
RTVSPropertyOp26
 70
     1
102
RTVSPropertyOp27
 70
     1
102
RTVSPropertyOp28
 70
     1
102
RTVSPropertyOp29
 70
     1
102
RTVSPropertyOp30
 70
     1
102
RTVSPropertyOp31
 70
     1
102
RTVSPropertyOp32
 70
     1
  0
XRECORD
  5
A8
102
{ACAD_REACTORS
330
A7
102
}
330
A7
100
AcDbXrecord
280
     1
102
RTVSPropertyOp0
 70
     1
102
RTVSPropertyOp1
 70
     1
102
RTVSPropertyOp2
 70
     1
102
RTVSPropertyOp3
 70
     1
102
RTVSPropertyOp4
 70
     1
102
RTVSPropertyOp5
 70
     1
102
RTVSPropertyOp6
 70
     1
102
RTVSPropertyOp7
 70
     1
102
RTVSPropertyOp8
 70
     1
102
RTVSPropertyOp9
 70
     1
102
RTVSPropertyOp10
 70
     1
102
RTVSPropertyOp11
 70
     1
102
RTVSPropertyOp12
 70
     1
102
RTVSPropertyOp13
 70
     1
102
RTVSPropertyOp14
 70
     1
102
RTVSPropertyOp15
 70
     1
102
RTVSPropertyOp16
 70
     1
102
RTVSPropertyOp17
 70
     1
102
RTVSPropertyOp18
 70
     1
102
RTVSPropertyOp19
 70
     1
102
RTVSPropertyOp20
 70
     1
102
RTVSPropertyOp21
 70
     1
102
RTVSPropertyOp22
 70
     1
102
RTVSPropertyOp23
 70
     1
102
RTVSPropertyOp24
 70
     1
102
RTVSPropertyOp25
 70
     1
102
RTVSPropertyOp26
 70
     1
102
RTVSPropertyOp27
 70
     1
102
RTVSPropertyOp28
 70
     1
102
RTVSPropertyOp29
 70
     1
102
RTVSPropertyOp30
 70
     1
102
RTVSPropertyOp31
 70
     1
102
RTVSPropertyOp32
 70
     1
  0
ENDSEC
  0
EOF
