  0
SECTION
  2
HEADER
  9
$ACADVER
  1
AC1021
  9
$ACADMAINTVER
 70
    25
  9
$DWGCODEPAGE
  3
ANSI_1256
  9
$INSBASE
 10
0.0
 20
0.0
 30
0.0
  9
$EXTMIN
 10
-187.411
 20
-106.3655
 30
0.0
  9
$EXTMAX
 10
-63.4086
 20
131.8345
 30
0.0
  9
$LIMMIN
 10
0.0
 20
0.0
  9
$LIMMAX
 10
12.0
 20
9.0
  9
$ORTHOMODE
 70
     0
  9
$REGENMODE
 70
     1
  9
$FILLMODE
 70
     1
  9
$QTEXTMODE
 70
     0
  9
$MIRRTEXT
 70
     1
  9
$LTSCALE
 40
1.0
  9
$ATTMODE
 70
     1
  9
$TEXTSIZE
 40
0.2
  9
$TRACEWID
 40
0.05
  9
$TEXTSTYLE
  7
Standard
  9
$CLAYER
  8
0
  9
$CELTYPE
  6
ByLayer
  9
$CECOLOR
 62
   256
  9
$CELTSCALE
 40
1.0
  9
$DISPSILH
 70
     0
  9
$DIMSCALE
 40
1.0
  9
$DIMASZ
 40
0.18
  9
$DIMEXO
 40
0.0625
  9
$DIMDLI
 40
0.38
  9
$DIMRND
 40
0.0
  9
$DIMDLE
 40
0.0
  9
$DIMEXE
 40
0.18
  9
$DIMTP
 40
0.0
  9
$DIMTM
 40
0.0
  9
$DIMTXT
 40
0.18
  9
$DIMCEN
 40
0.09
  9
$DIMTSZ
 40
0.0
  9
$DIMTOL
 70
     0
  9
$DIMLIM
 70
     0
  9
$DIMTIH
 70
     1
  9
$DIMTOH
 70
     1
  9
$DIMSE1
 70
     0
  9
$DIMSE2
 70
     0
  9
$DIMTAD
 70
     0
  9
$DIMZIN
 70
     0
  9
$DIMBLK
  1

  9
$DIMASO
 70
     1
  9
$DIMSHO
 70
     1
  9
$DIMPOST
  1

  9
$DIMAPOST
  1

  9
$DIMALT
 70
     0
  9
$DIMALTD
 70
     2
  9
$DIMALTF
 40
25.4
  9
$DIMLFAC
 40
1.0
  9
$DIMTOFL
 70
     0
  9
$DIMTVP
 40
0.0
  9
$DIMTIX
 70
     0
  9
$DIMSOXD
 70
     0
  9
$DIMSAH
 70
     0
  9
$DIMBLK1
  1

  9
$DIMBLK2
  1

  9
$DIMSTYLE
  2
Standard
  9
$DIMCLRD
 70
     0
  9
$DIMCLRE
 70
     0
  9
$DIMCLRT
 70
     0
  9
$DIMTFAC
 40
1.0
  9
$DIMGAP
 40
0.09
  9
$DIMJUST
 70
     0
  9
$DIMSD1
 70
     0
  9
$DIMSD2
 70
     0
  9
$DIMTOLJ
 70
     1
  9
$DIMTZIN
 70
     0
  9
$DIMALTZ
 70
     0
  9
$DIMALTTZ
 70
     0
  9
$DIMUPT
 70
     0
  9
$DIMDEC
 70
     4
  9
$DIMTDEC
 70
     4
  9
$DIMALTU
 70
     2
  9
$DIMALTTD
 70
     2
  9
$DIMTXSTY
  7
Standard
  9
$DIMAUNIT
 70
     0
  9
$DIMADEC
 70
     0
  9
$DIMALTRND
 40
0.0
  9
$DIMAZIN
 70
     0
  9
$DIMDSEP
 70
    46
  9
$DIMATFIT
 70
     3
  9
$DIMFRAC
 70
     0
  9
$DIMLDRBLK
  1

  9
$DIMLUNIT
 70
     2
  9
$DIMLWD
 70
    -2
  9
$DIMLWE
 70
    -2
  9
$DIMTMOVE
 70
     0
  9
$DIMFXL
 40
1.0
  9
$DIMFXLON
 70
     0
  9
$DIMJOGANG
 40
0.7853981633974483
  9
$DIMTFILL
 70
     0
  9
$DIMTFILLCLR
 70
     0
  9
$DIMARCSYM
 70
     0
  9
$DIMLTYPE
  6

  9
$DIMLTEX1
  6

  9
$DIMLTEX2
  6

  9
$LUNITS
 70
     2
  9
$LUPREC
 70
     4
  9
$SKETCHINC
 40
0.1
  9
$FILLETRAD
 40
0.5
  9
$AUNITS
 70
     0
  9
$AUPREC
 70
     0
  9
$MENU
  1
.
  9
$ELEVATION
 40
0.0
  9
$PELEVATION
 40
0.0
  9
$THICKNESS
 40
0.0
  9
$LIMCHECK
 70
     0
  9
$CHAMFERA
 40
0.5
  9
$CHAMFERB
 40
0.5
  9
$CHAMFERC
 40
1.0
  9
$CHAMFERD
 40
0.0
  9
$SKPOLY
 70
     0
  9
$TDCREATE
 40
2458492.389887465
  9
$TDUCREATE
 40
2458492.223220799
  9
$TDUPDATE
 40
2458492.389887581
  9
$TDUUPDATE
 40
2458492.223220914
  9
$TDINDWG
 40
0.0000000116
  9
$TDUSRTIMER
 40
0.0000000116
  9
$USRTIMER
 70
     1
  9
$ANGBASE
 50
0.0
  9
$ANGDIR
 70
     0
  9
$PDMODE
 70
     0
  9
$PDSIZE
 40
0.0
  9
$PLINEWID
 40
0.0
  9
$SPLFRAME
 70
     0
  9
$SPLINETYPE
 70
     6
  9
$SPLINESEGS
 70
     8
  9
$HANDSEED
  5
8B
  9
$SURFTAB1
 70
     6
  9
$SURFTAB2
 70
     6
  9
$SURFTYPE
 70
     6
  9
$SURFU
 70
     6
  9
$SURFV
 70
     6
  9
$UCSBASE
  2

  9
$UCSNAME
  2

  9
$UCSORG
 10
0.0
 20
0.0
 30
0.0
  9
$UCSXDIR
 10
1.0
 20
0.0
 30
0.0
  9
$UCSYDIR
 10
0.0
 20
1.0
 30
0.0
  9
$UCSORTHOREF
  2

  9
$UCSORTHOVIEW
 70
     0
  9
$UCSORGTOP
 10
0.0
 20
0.0
 30
0.0
  9
$UCSORGBOTTOM
 10
0.0
 20
0.0
 30
0.0
  9
$UCSORGLEFT
 10
0.0
 20
0.0
 30
0.0
  9
$UCSORGRIGHT
 10
0.0
 20
0.0
 30
0.0
  9
$UCSORGFRONT
 10
0.0
 20
0.0
 30
0.0
  9
$UCSORGBACK
 10
0.0
 20
0.0
 30
0.0
  9
$PUCSBASE
  2

  9
$PUCSNAME
  2

  9
$PUCSORG
 10
0.0
 20
0.0
 30
0.0
  9
$PUCSXDIR
 10
1.0
 20
0.0
 30
0.0
  9
$PUCSYDIR
 10
0.0
 20
1.0
 30
0.0
  9
$PUCSORTHOREF
  2

  9
$PUCSORTHOVIEW
 70
     0
  9
$PUCSORGTOP
 10
0.0
 20
0.0
 30
0.0
  9
$PUCSORGBOTTOM
 10
0.0
 20
0.0
 30
0.0
  9
$PUCSORGLEFT
 10
0.0
 20
0.0
 30
0.0
  9
$PUCSORGRIGHT
 10
0.0
 20
0.0
 30
0.0
  9
$PUCSORGFRONT
 10
0.0
 20
0.0
 30
0.0
  9
$PUCSORGBACK
 10
0.0
 20
0.0
 30
0.0
  9
$USERI1
 70
     0
  9
$USERI2
 70
     0
  9
$USERI3
 70
     0
  9
$USERI4
 70
     0
  9
$USERI5
 70
     0
  9
$USERR1
 40
0.0
  9
$USERR2
 40
0.0
  9
$USERR3
 40
0.0
  9
$USERR4
 40
0.0
  9
$USERR5
 40
0.0
  9
$WORLDVIEW
 70
     1
  9
$SHADEDGE
 70
     3
  9
$SHADEDIF
 70
    70
  9
$TILEMODE
 70
     1
  9
$MAXACTVP
 70
    64
  9
$PINSBASE
 10
0.0
 20
0.0
 30
0.0
  9
$PLIMCHECK
 70
     0
  9
$PEXTMIN
 10
1.000000000000000E+20
 20
1.000000000000000E+20
 30
1.000000000000000E+20
  9
$PEXTMAX
 10
-1.000000000000000E+20
 20
-1.000000000000000E+20
 30
-1.000000000000000E+20
  9
$PLIMMIN
 10
0.0
 20
0.0
  9
$PLIMMAX
 10
12.0
 20
9.0
  9
$UNITMODE
 70
     0
  9
$VISRETAIN
 70
     1
  9
$PLINEGEN
 70
     0
  9
$PSLTSCALE
 70
     1
  9
$TREEDEPTH
 70
  3020
  9
$CMLSTYLE
  2
Standard
  9
$CMLJUST
 70
     0
  9
$CMLSCALE
 40
1.0
  9
$PROXYGRAPHICS
 70
     1
  9
$MEASUREMENT
 70
     0
  9
$CELWEIGHT
370
    -1
  9
$ENDCAPS
280
     0
  9
$JOINSTYLE
280
     0
  9
$LWDISPLAY
290
     0
  9
$INSUNITS
 70
     4
  9
$HYPERLINKBASE
  1

  9
$STYLESHEET
  1

  9
$XEDIT
290
     1
  9
$CEPSNTYPE
380
     0
  9
$PSTYLEMODE
290
     1
  9
$FINGERPRINTGUID
  2
{0F283312-ABE8-41D9-B34B-1629D7E86080}
  9
$VERSIONGUID
  2
{FAEB1C32-E019-11D5-929B-00C0DF256EC4}
  9
$EXTNAMES
290
     1
  9
$PSVPSCALE
 40
0.0
  9
$OLESTARTUP
290
     0
  9
$SORTENTS
280
   127
  9
$INDEXCTL
280
     0
  9
$HIDETEXT
280
     1
  9
$XCLIPFRAME
290
     0
  9
$HALOGAP
280
     0
  9
$OBSCOLOR
 70
   257
  9
$OBSLTYPE
280
     0
  9
$INTERSECTIONDISPLAY
280
     0
  9
$INTERSECTIONCOLOR
 70
   257
  9
$DIMASSOC
280
     2
  9
$PROJECTNAME
  1

  9
$CAMERADISPLAY
290
     0
  9
$LENSLENGTH
 40
50.0
  9
$CAMERAHEIGHT
 40
0.0
  9
$STEPSPERSEC
 40
2.0
  9
$STEPSIZE
 40
6.0
  9
$3DDWFPREC
 40
2.0
  9
$PSOLWIDTH
 40
0.25
  9
$PSOLHEIGHT
 40
4.0
  9
$LOFTANG1
 40
1.570796326794897
  9
$LOFTANG2
 40
1.570796326794897
  9
$LOFTMAG1
 40
0.0
  9
$LOFTMAG2
 40
0.0
  9
$LOFTPARAM
 70
     7
  9
$LOFTNORMALS
280
     1
  9
$LATITUDE
 40
37.795
  9
$LONGITUDE
 40
-122.394
  9
$NORTHDIRECTION
 40
0.0
  9
$TIMEZONE
 70
 -8000
  9
$LIGHTGLYPHDISPLAY
280
     1
  9
$TILEMODELIGHTSYNCH
280
     1
  9
$SOLIDHIST
280
     1
  9
$SHOWHIST
280
     1
  9
$DWFFRAME
280
     2
  9
$DGNFRAME
280
     2
  9
$REALWORLDSCALE
290
     1
  9
$INTERFERECOLOR
 62
   256
  9
$CSHADOW
280
     0
  9
$SHADOWPLANELOCATION
 40
0.0
  0
ENDSEC
  0
SECTION
  2
CLASSES
  0
CLASS
  1
ACDBDICTIONARYWDFLT
  2
AcDbDictionaryWithDefault
  3
ObjectDBX Classes
 90
        0
 91
        4
280
     0
281
     0
  0
CLASS
  1
VISUALSTYLE
  2
AcDbVisualStyle
  3
ObjectDBX Classes
 90
     4095
 91
        4
280
     0
281
     0
  0
CLASS
  1
MATERIAL
  2
AcDbMaterial
  3
ObjectDBX Classes
 90
     1153
 91
        4
280
     0
281
     0
  0
ENDSEC
  0
SECTION
  2
TABLES
  0
TABLE
  2
VPORT
  5
8
330
0
100
AcDbSymbolTable
 70
     1
  0
VPORT
  5
29
330
8
100
AcDbSymbolTableRecord
100
AcDbViewportTableRecord
  2
*Active
 70
     0
 10
0.0
 20
0.0
 11
1.0
 21
1.0
 12
10.42990654205607
 22
4.5
 13
0.0
 23
0.0
 14
0.5
 24
0.5
 15
0.5
 25
0.5
 16
0.0
 26
0.0
 36
1.0
 17
0.0
 27
0.0
 37
0.0
 40
9.0
 41
1.972972972850329
 42
50.0
 43
0.0
 44
0.0
 50
0.0
 51
0.0
 71
     0
 72
   100
 73
     1
 74
     3
 75
     0
 76
     0
 77
     0
 78
     0
281
     0
 65
     1
110
0.0
120
0.0
130
0.0
111
1.0
121
0.0
131
0.0
112
0.0
122
1.0
132
0.0
 79
     0
146
0.0
 60
     3
 61
     5
292
     1
282
     1
141
0.0
142
0.0
 63
   250
  0
ENDTAB
  0
TABLE
  2
LTYPE
  5
5
330
0
100
AcDbSymbolTable
 70
     1
  0
LTYPE
  5
14
330
5
100
AcDbSymbolTableRecord
100
AcDbLinetypeTableRecord
  2
ByBlock
 70
     0
  3

 72
    65
 73
     0
 40
0.0
  0
LTYPE
  5
15
330
5
100
AcDbSymbolTableRecord
100
AcDbLinetypeTableRecord
  2
ByLayer
 70
     0
  3

 72
    65
 73
     0
 40
0.0
  0
LTYPE
  5
16
330
5
100
AcDbSymbolTableRecord
100
AcDbLinetypeTableRecord
  2
Continuous
 70
     0
  3
Solid line
 72
    65
 73
     0
 40
0.0
  0
ENDTAB
  0
TABLE
  2
LAYER
  5
2
330
0
100
AcDbSymbolTable
 70
     2
  0
LAYER
  5
10
330
2
100
AcDbSymbolTableRecord
100
AcDbLayerTableRecord
  2
0
 70
     0
 62
     7
  6
Continuous
370
    -3
390
F
347
3E
  0
LAYER
  5
40
330
2
100
AcDbSymbolTableRecord
100
AcDbLayerTableRecord
  2
layer 1
 70
     0
 62
     7
  6
Continuous
370
    -3
390
F
347
3E
  0
ENDTAB
  0
TABLE
  2
STYLE
  5
3
330
0
100
AcDbSymbolTable
 70
     1
  0
STYLE
  5
11
330
3
100
AcDbSymbolTableRecord
100
AcDbTextStyleTableRecord
  2
Standard
 70
     0
 40
0.0
 41
1.0
 50
0.0
 71
     0
 42
0.2
  3
txt
  4

  0
ENDTAB
  0
TABLE
  2
VIEW
  5
6
330
0
100
AcDbSymbolTable
 70
     0
  0
ENDTAB
  0
TABLE
  2
UCS
  5
7
330
0
100
AcDbSymbolTable
 70
     0
  0
ENDTAB
  0
TABLE
  2
APPID
  5
9
330
0
100
AcDbSymbolTable
 70
     2
  0
APPID
  5
12
330
9
100
AcDbSymbolTableRecord
100
AcDbRegAppTableRecord
  2
ACAD
 70
     0
  0
APPID
  5
3F
330
9
100
AcDbSymbolTableRecord
100
AcDbRegAppTableRecord
  2
ODA
 70
     0
  0
ENDTAB
  0
TABLE
  2
DIMSTYLE
  5
A
330
0
100
AcDbSymbolTable
 70
     1
100
AcDbDimStyleTable
  0
DIMSTYLE
105
27
330
A
100
AcDbSymbolTableRecord
100
AcDbDimStyleTableRecord
  2
Standard
 70
     0
178
     0
340
11
  0
ENDTAB
  0
TABLE
  2
BLOCK_RECORD
  5
1
330
0
100
AcDbSymbolTable
 70
     1
  0
BLOCK_RECORD
  5
1F
330
1
100
AcDbSymbolTableRecord
100
AcDbBlockTableRecord
  2
*Model_Space
340
22
 70
     0
280
     1
281
     0
  0
BLOCK_RECORD
  5
1B
330
1
100
AcDbSymbolTableRecord
100
AcDbBlockTableRecord
  2
*Paper_Space
340
1E
 70
     0
280
     1
281
     0
  0
BLOCK_RECORD
  5
23
330
1
100
AcDbSymbolTableRecord
100
AcDbBlockTableRecord
  2
*Paper_Space0
340
26
 70
     0
280
     1
281
     0
  0
ENDTAB
  0
ENDSEC
  0
SECTION
  2
BLOCKS
  0
BLOCK
  5
20
330
1F
100
AcDbEntity
  8
0
100
AcDbBlockBegin
  2
*Model_Space
 70
     0
 10
0.0
 20
0.0
 30
0.0
  3
*Model_Space
  1

  0
ENDBLK
  5
21
330
1F
100
AcDbEntity
  8
0
100
AcDbBlockEnd
  0
BLOCK
  5
1C
330
1B
100
AcDbEntity
 67
     1
  8
0
100
AcDbBlockBegin
  2
*Paper_Space
 70
     0
 10
0.0
 20
0.0
 30
0.0
  3
*Paper_Space
  1

  0
ENDBLK
  5
1D
330
1B
100
AcDbEntity
 67
     1
  8
0
100
AcDbBlockEnd
  0
BLOCK
  5
24
330
23
100
AcDbEntity
  8
0
100
AcDbBlockBegin
  2
*Paper_Space0
 70
     0
 10
0.0
 20
0.0
 30
0.0
  3
*Paper_Space0
  1

  0
ENDBLK
  5
25
330
23
100
AcDbEntity
  8
0
100
AcDbBlockEnd
  0
ENDSEC
  0
SECTION
  2
ENTITIES
  0
LWPOLYLINE
  5
41
330
1F
100
AcDbEntity
  8
layer 1
 62
   250
100
AcDbPolyline
 90
        5
 70
     1
 43
0.0
 10
-187.411
 20
-106.3655
 10
-63.4086
 20
-106.3655
 10
-63.4086
 20
131.8345
 10
-187.411
 20
131.8345
 10
-187.411
 20
-106.3655
  0
SPLINE
  5
42
330
1F
100
AcDbEntity
  8
layer 1
 62
     7
100
AcDbSpline
210
0.0
220
0.0
230
1.0
 70
    11
 71
     3
 72
    52
 73
    48
 74
     0
 42
0.0000000001
 43
0.0000000001
 12
1.0
 22
0.0
 32
0.0
 13
1.0
 23
0.0
 33
0.0
 40
0.0
 40
0.0
 40
0.0
 40
0.0
 40
0.0769230769230769
 40
0.0769230769230769
 40
0.0769230769230769
 40
0.0769230769230769
 40
0.1538461538461539
 40
0.1538461538461539
 40
0.1538461538461539
 40
0.1538461538461539
 40
0.2307692307692308
 40
0.2307692307692308
 40
0.2307692307692308
 40
0.2307692307692308
 40
0.3076923076923077
 40
0.3076923076923077
 40
0.3076923076923077
 40
0.3076923076923077
 40
0.3846153846153846
 40
0.3846153846153846
 40
0.3846153846153846
 40
0.3846153846153846
 40
0.4615384615384616
 40
0.4615384615384616
 40
0.4615384615384616
 40
0.4615384615384616
 40
0.5384615384615384
 40
0.5384615384615384
 40
0.5384615384615384
 40
0.5384615384615384
 40
0.6153846153846154
 40
0.6153846153846154
 40
0.6153846153846154
 40
0.6153846153846154
 40
0.6923076923076923
 40
0.6923076923076923
 40
0.6923076923076923
 40
0.6923076923076923
 40
0.7692307692307693
 40
0.7692307692307693
 40
0.7692307692307693
 40
0.7692307692307693
 40
0.8461538461538461
 40
0.8461538461538461
 40
0.8461538461538461
 40
0.8461538461538461
 40
1.0
 40
1.0
 40
1.0
 40
1.0
 10
-162.7524
 20
81.7922
 30
0.0
 10
-161.2855
 20
85.1077
 30
0.0
 10
-159.4401
 20
87.8712
 30
0.0
 10
-155.54
 20
89.6233
 30
0.0
 10
-155.54
 20
89.6233
 30
0.0
 10
-159.3295
 20
91.046
 30
0.0
 10
-159.2366
 20
95.4947
 30
0.0
 10
-156.673
 20
97.2695
 30
0.0
 10
-156.673
 20
97.2695
 30
0.0
 10
-153.4357
 20
99.5107
 30
0.0
 10
-149.9846
 20
96.6233
 30
0.0
 10
-150.6399
 20
93.708
 30
0.0
 10
-150.6399
 20
93.708
 30
0.0
 10
-143.3098
 20
97.6985
 30
0.0
 10
-147.8103
 20
111.6591
 30
0.0
 10
-157.6601
 20
110.2852
 30
0.0
 10
-157.6601
 20
110.2852
 30
0.0
 10
-157.0217
 20
110.9055
 30
0.0
 10
-156.4711
 20
111.4844
 30
0.0
 10
-156.3928
 20
112.328
 30
0.0
 10
-156.3928
 20
112.328
 30
0.0
 10
-159.9715
 20
112.8061
 30
0.0
 10
-162.0613
 20
115.8225
 30
0.0
 10
-162.7524
 20
118.1007
 30
0.0
 10
-162.7524
 20
118.1007
 30
0.0
 10
-163.4435
 20
115.8225
 30
0.0
 10
-165.5334
 20
112.8061
 30
0.0
 10
-169.112
 20
112.328
 30
0.0
 10
-169.112
 20
112.328
 30
0.0
 10
-169.0337
 20
111.4844
 30
0.0
 10
-168.4831
 20
110.9055
 30
0.0
 10
-167.8448
 20
110.2852
 30
0.0
 10
-167.8448
 20
110.2852
 30
0.0
 10
-177.6945
 20
111.6591
 30
0.0
 10
-182.195
 20
97.6985
 30
0.0
 10
-174.8649
 20
93.708
 30
0.0
 10
-174.8649
 20
93.708
 30
0.0
 10
-175.5203
 20
96.6233
 30
0.0
 10
-172.0692
 20
99.5107
 30
0.0
 10
-168.8318
 20
97.2695
 30
0.0
 10
-168.8318
 20
97.2695
 30
0.0
 10
-166.2682
 20
95.4947
 30
0.0
 10
-166.1753
 20
91.046
 30
0.0
 10
-169.9649
 20
89.6233
 30
0.0
 10
-169.9649
 20
89.6233
 30
0.0
 10
-166.0647
 20
87.8712
 30
0.0
 10
-164.2194
 20
85.1077
 30
0.0
 10
-162.7524
 20
81.7922
 30
0.0
  0
SPLINE
  5
43
330
1F
100
AcDbEntity
  8
layer 1
 62
     7
100
AcDbSpline
210
0.0
220
0.0
230
1.0
 70
    11
 71
     3
 72
    52
 73
    48
 74
     0
 42
0.0000000001
 43
0.0000000001
 12
1.0
 22
0.0
 32
0.0
 13
1.0
 23
0.0
 33
0.0
 40
0.0
 40
0.0
 40
0.0
 40
0.0
 40
0.0769230769230769
 40
0.0769230769230769
 40
0.0769230769230769
 40
0.0769230769230769
 40
0.1538461538461539
 40
0.1538461538461539
 40
0.1538461538461539
 40
0.1538461538461539
 40
0.2307692307692308
 40
0.2307692307692308
 40
0.2307692307692308
 40
0.2307692307692308
 40
0.3076923076923077
 40
0.3076923076923077
 40
0.3076923076923077
 40
0.3076923076923077
 40
0.3846153846153846
 40
0.3846153846153846
 40
0.3846153846153846
 40
0.3846153846153846
 40
0.4615384615384616
 40
0.4615384615384616
 40
0.4615384615384616
 40
0.4615384615384616
 40
0.5384615384615384
 40
0.5384615384615384
 40
0.5384615384615384
 40
0.5384615384615384
 40
0.6153846153846154
 40
0.6153846153846154
 40
0.6153846153846154
 40
0.6153846153846154
 40
0.6923076923076923
 40
0.6923076923076923
 40
0.6923076923076923
 40
0.6923076923076923
 40
0.7692307692307693
 40
0.7692307692307693
 40
0.7692307692307693
 40
0.7692307692307693
 40
0.8461538461538461
 40
0.8461538461538461
 40
0.8461538461538461
 40
0.8461538461538461
 40
1.0
 40
1.0
 40
1.0
 40
1.0
 10
-125.1501
 20
81.7922
 30
0.0
 10
-123.6831
 20
85.1077
 30
0.0
 10
-121.8377
 20
87.8712
 30
0.0
 10
-117.9376
 20
89.6233
 30
0.0
 10
-117.9376
 20
89.6233
 30
0.0
 10
-121.7272
 20
91.046
 30
0.0
 10
-121.6343
 20
95.4947
 30
0.0
 10
-119.0707
 20
97.2695
 30
0.0
 10
-119.0707
 20
97.2695
 30
0.0
 10
-115.8333
 20
99.5107
 30
0.0
 10
-112.3822
 20
96.6233
 30
0.0
 10
-113.0376
 20
93.708
 30
0.0
 10
-113.0376
 20
93.708
 30
0.0
 10
-105.7075
 20
97.6985
 30
0.0
 10
-110.208
 20
111.6591
 30
0.0
 10
-120.0577
 20
110.2852
 30
0.0
 10
-120.0577
 20
110.2852
 30
0.0
 10
-119.4194
 20
110.9055
 30
0.0
 10
-118.8688
 20
111.4844
 30
0.0
 10
-118.7905
 20
112.328
 30
0.0
 10
-118.7905
 20
112.328
 30
0.0
 10
-122.3691
 20
112.8061
 30
0.0
 10
-124.459
 20
115.8225
 30
0.0
 10
-125.1501
 20
118.1007
 30
0.0
 10
-125.1501
 20
118.1007
 30
0.0
 10
-125.8412
 20
115.8225
 30
0.0
 10
-127.931
 20
112.8061
 30
0.0
 10
-131.5097
 20
112.328
 30
0.0
 10
-131.5097
 20
112.328
 30
0.0
 10
-131.4314
 20
111.4844
 30
0.0
 10
-130.8808
 20
110.9055
 30
0.0
 10
-130.2424
 20
110.2852
 30
0.0
 10
-130.2424
 20
110.2852
 30
0.0
 10
-140.0922
 20
111.6591
 30
0.0
 10
-144.5927
 20
97.6985
 30
0.0
 10
-137.2626
 20
93.708
 30
0.0
 10
-137.2626
 20
93.708
 30
0.0
 10
-137.9179
 20
96.6233
 30
0.0
 10
-134.4668
 20
99.5107
 30
0.0
 10
-131.2295
 20
97.2695
 30
0.0
 10
-131.2295
 20
97.2695
 30
0.0
 10
-128.6659
 20
95.4947
 30
0.0
 10
-128.573
 20
91.046
 30
0.0
 10
-132.3625
 20
89.6233
 30
0.0
 10
-132.3625
 20
89.6233
 30
0.0
 10
-128.4624
 20
87.8712
 30
0.0
 10
-126.617
 20
85.1077
 30
0.0
 10
-125.1501
 20
81.7922
 30
0.0
  0
SPLINE
  5
44
330
1F
100
AcDbEntity
  8
layer 1
 62
     7
100
AcDbSpline
210
0.0
220
0.0
230
1.0
 70
    11
 71
     3
 72
    52
 73
    48
 74
     0
 42
0.0000000001
 43
0.0000000001
 12
1.0
 22
0.0
 32
0.0
 13
1.0
 23
0.0
 33
0.0
 40
0.0
 40
0.0
 40
0.0
 40
0.0
 40
0.0769230769230769
 40
0.0769230769230769
 40
0.0769230769230769
 40
0.0769230769230769
 40
0.1538461538461539
 40
0.1538461538461539
 40
0.1538461538461539
 40
0.1538461538461539
 40
0.2307692307692308
 40
0.2307692307692308
 40
0.2307692307692308
 40
0.2307692307692308
 40
0.3076923076923077
 40
0.3076923076923077
 40
0.3076923076923077
 40
0.3076923076923077
 40
0.3846153846153846
 40
0.3846153846153846
 40
0.3846153846153846
 40
0.3846153846153846
 40
0.4615384615384616
 40
0.4615384615384616
 40
0.4615384615384616
 40
0.4615384615384616
 40
0.5384615384615384
 40
0.5384615384615384
 40
0.5384615384615384
 40
0.5384615384615384
 40
0.6153846153846154
 40
0.6153846153846154
 40
0.6153846153846154
 40
0.6153846153846154
 40
0.6923076923076923
 40
0.6923076923076923
 40
0.6923076923076923
 40
0.6923076923076923
 40
0.7692307692307693
 40
0.7692307692307693
 40
0.7692307692307693
 40
0.7692307692307693
 40
0.8461538461538461
 40
0.8461538461538461
 40
0.8461538461538461
 40
0.8461538461538461
 40
1.0
 40
1.0
 40
1.0
 40
1.0
 10
-87.5616
 20
81.7922
 30
0.0
 10
-86.0947
 20
85.1077
 30
0.0
 10
-84.2493
 20
87.8712
 30
0.0
 10
-80.3492
 20
89.6233
 30
0.0
 10
-80.3492
 20
89.6233
 30
0.0
 10
-84.1387
 20
91.046
 30
0.0
 10
-84.0458
 20
95.4947
 30
0.0
 10
-81.4822
 20
97.2695
 30
0.0
 10
-81.4822
 20
97.2695
 30
0.0
 10
-78.2448
 20
99.5107
 30
0.0
 10
-74.7937
 20
96.6233
 30
0.0
 10
-75.4491
 20
93.708
 30
0.0
 10
-75.4491
 20
93.708
 30
0.0
 10
-68.119
 20
97.6985
 30
0.0
 10
-72.6195
 20
111.6591
 30
0.0
 10
-82.4692
 20
110.2852
 30
0.0
 10
-82.4692
 20
110.2852
 30
0.0
 10
-81.8309
 20
110.9055
 30
0.0
 10
-81.2803
 20
111.4844
 30
0.0
 10
-81.202
 20
112.328
 30
0.0
 10
-81.202
 20
112.328
 30
0.0
 10
-84.7807
 20
112.8061
 30
0.0
 10
-86.8705
 20
115.8225
 30
0.0
 10
-87.5616
 20
118.1007
 30
0.0
 10
-87.5616
 20
118.1007
 30
0.0
 10
-88.2527
 20
115.8225
 30
0.0
 10
-90.3425
 20
112.8061
 30
0.0
 10
-93.9212
 20
112.328
 30
0.0
 10
-93.9212
 20
112.328
 30
0.0
 10
-93.8429
 20
111.4844
 30
0.0
 10
-93.2923
 20
110.9055
 30
0.0
 10
-92.654
 20
110.2852
 30
0.0
 10
-92.654
 20
110.2852
 30
0.0
 10
-102.5037
 20
111.6591
 30
0.0
 10
-107.0042
 20
97.6985
 30
0.0
 10
-99.6741
 20
93.708
 30
0.0
 10
-99.6741
 20
93.708
 30
0.0
 10
-100.3294
 20
96.6233
 30
0.0
 10
-96.8783
 20
99.5107
 30
0.0
 10
-93.641
 20
97.2695
 30
0.0
 10
-93.641
 20
97.2695
 30
0.0
 10
-91.0774
 20
95.4947
 30
0.0
 10
-90.9845
 20
91.046
 30
0.0
 10
-94.774
 20
89.6233
 30
0.0
 10
-94.774
 20
89.6233
 30
0.0
 10
-90.8739
 20
87.8712
 30
0.0
 10
-89.0285
 20
85.1077
 30
0.0
 10
-87.5616
 20
81.7922
 30
0.0
  0
SPLINE
  5
45
330
1F
100
AcDbEntity
  8
layer 1
 62
     7
100
AcDbSpline
210
0.0
220
0.0
230
1.0
 70
    11
 71
     3
 72
    52
 73
    48
 74
     0
 42
0.0000000001
 43
0.0000000001
 12
1.0
 22
0.0
 32
0.0
 13
1.0
 23
0.0
 33
0.0
 40
0.0
 40
0.0
 40
0.0
 40
0.0
 40
0.0769230769230769
 40
0.0769230769230769
 40
0.0769230769230769
 40
0.0769230769230769
 40
0.1538461538461539
 40
0.1538461538461539
 40
0.1538461538461539
 40
0.1538461538461539
 40
0.2307692307692308
 40
0.2307692307692308
 40
0.2307692307692308
 40
0.2307692307692308
 40
0.3076923076923077
 40
0.3076923076923077
 40
0.3076923076923077
 40
0.3076923076923077
 40
0.3846153846153846
 40
0.3846153846153846
 40
0.3846153846153846
 40
0.3846153846153846
 40
0.4615384615384616
 40
0.4615384615384616
 40
0.4615384615384616
 40
0.4615384615384616
 40
0.5384615384615384
 40
0.5384615384615384
 40
0.5384615384615384
 40
0.5384615384615384
 40
0.6153846153846154
 40
0.6153846153846154
 40
0.6153846153846154
 40
0.6153846153846154
 40
0.6923076923076923
 40
0.6923076923076923
 40
0.6923076923076923
 40
0.6923076923076923
 40
0.7692307692307693
 40
0.7692307692307693
 40
0.7692307692307693
 40
0.7692307692307693
 40
0.8461538461538461
 40
0.8461538461538461
 40
0.8461538461538461
 40
0.8461538461538461
 40
1.0
 40
1.0
 40
1.0
 40
1.0
 10
-143.9709
 20
59.0324
 30
0.0
 10
-142.5039
 20
62.3479
 30
0.0
 10
-140.6585
 20
65.1114
 30
0.0
 10
-136.7584
 20
66.8635
 30
0.0
 10
-136.7584
 20
66.8635
 30
0.0
 10
-140.548
 20
68.2862
 30
0.0
 10
-140.455
 20
72.7349
 30
0.0
 10
-137.8915
 20
74.5097
 30
0.0
 10
-137.8915
 20
74.5097
 30
0.0
 10
-134.6541
 20
76.7509
 30
0.0
 10
-131.203
 20
73.8635
 30
0.0
 10
-131.8584
 20
70.9482
 30
0.0
 10
-131.8584
 20
70.9482
 30
0.0
 10
-124.5283
 20
74.9387
 30
0.0
 10
-129.0288
 20
88.8993
 30
0.0
 10
-138.8785
 20
87.5254
 30
0.0
 10
-138.8785
 20
87.5254
 30
0.0
 10
-138.2402
 20
88.1457
 30
0.0
 10
-137.6895
 20
88.7246
 30
0.0
 10
-137.6113
 20
89.5682
 30
0.0
 10
-137.6113
 20
89.5682
 30
0.0
 10
-141.1899
 20
90.0463
 30
0.0
 10
-143.2798
 20
93.0627
 30
0.0
 10
-143.9709
 20
95.3409
 30
0.0
 10
-143.9709
 20
95.3409
 30
0.0
 10
-144.662
 20
93.0627
 30
0.0
 10
-146.7518
 20
90.0463
 30
0.0
 10
-150.3304
 20
89.5682
 30
0.0
 10
-150.3304
 20
89.5682
 30
0.0
 10
-150.2522
 20
88.7246
 30
0.0
 10
-149.7016
 20
88.1457
 30
0.0
 10
-149.0632
 20
87.5254
 30
0.0
 10
-149.0632
 20
87.5254
 30
0.0
 10
-158.9129
 20
88.8993
 30
0.0
 10
-163.4134
 20
74.9387
 30
0.0
 10
-156.0834
 20
70.9482
 30
0.0
 10
-156.0834
 20
70.9482
 30
0.0
 10
-156.7387
 20
73.8635
 30
0.0
 10
-153.2876
 20
76.7509
 30
0.0
 10
-150.0503
 20
74.5097
 30
0.0
 10
-150.0503
 20
74.5097
 30
0.0
 10
-147.4867
 20
72.7349
 30
0.0
 10
-147.3937
 20
68.2862
 30
0.0
 10
-151.1833
 20
66.8635
 30
0.0
 10
-151.1833
 20
66.8635
 30
0.0
 10
-147.2832
 20
65.1114
 30
0.0
 10
-145.4378
 20
62.3479
 30
0.0
 10
-143.9709
 20
59.0324
 30
0.0
  0
SPLINE
  5
46
330
1F
100
AcDbEntity
  8
layer 1
 62
     7
100
AcDbSpline
210
0.0
220
0.0
230
1.0
 70
    11
 71
     3
 72
    52
 73
    48
 74
     0
 42
0.0000000001
 43
0.0000000001
 12
1.0
 22
0.0
 32
0.0
 13
1.0
 23
0.0
 33
0.0
 40
0.0
 40
0.0
 40
0.0
 40
0.0
 40
0.0769230769230769
 40
0.0769230769230769
 40
0.0769230769230769
 40
0.0769230769230769
 40
0.1538461538461539
 40
0.1538461538461539
 40
0.1538461538461539
 40
0.1538461538461539
 40
0.2307692307692308
 40
0.2307692307692308
 40
0.2307692307692308
 40
0.2307692307692308
 40
0.3076923076923077
 40
0.3076923076923077
 40
0.3076923076923077
 40
0.3076923076923077
 40
0.3846153846153846
 40
0.3846153846153846
 40
0.3846153846153846
 40
0.3846153846153846
 40
0.4615384615384616
 40
0.4615384615384616
 40
0.4615384615384616
 40
0.4615384615384616
 40
0.5384615384615384
 40
0.5384615384615384
 40
0.5384615384615384
 40
0.5384615384615384
 40
0.6153846153846154
 40
0.6153846153846154
 40
0.6153846153846154
 40
0.6153846153846154
 40
0.6923076923076923
 40
0.6923076923076923
 40
0.6923076923076923
 40
0.6923076923076923
 40
0.7692307692307693
 40
0.7692307692307693
 40
0.7692307692307693
 40
0.7692307692307693
 40
0.8461538461538461
 40
0.8461538461538461
 40
0.8461538461538461
 40
0.8461538461538461
 40
1.0
 40
1.0
 40
1.0
 40
1.0
 10
-106.3873
 20
59.0324
 30
0.0
 10
-104.9203
 20
62.3479
 30
0.0
 10
-103.0749
 20
65.1114
 30
0.0
 10
-99.1748
 20
66.8635
 30
0.0
 10
-99.1748
 20
66.8635
 30
0.0
 10
-102.9644
 20
68.2862
 30
0.0
 10
-102.8714
 20
72.7349
 30
0.0
 10
-100.3079
 20
74.5097
 30
0.0
 10
-100.3079
 20
74.5097
 30
0.0
 10
-97.0705
 20
76.7509
 30
0.0
 10
-93.6194
 20
73.8635
 30
0.0
 10
-94.2748
 20
70.9482
 30
0.0
 10
-94.2748
 20
70.9482
 30
0.0
 10
-86.9447
 20
74.9387
 30
0.0
 10
-91.4452
 20
88.8993
 30
0.0
 10
-101.2949
 20
87.5254
 30
0.0
 10
-101.2949
 20
87.5254
 30
0.0
 10
-100.6566
 20
88.1457
 30
0.0
 10
-100.1059
 20
88.7246
 30
0.0
 10
-100.0277
 20
89.5682
 30
0.0
 10
-100.0277
 20
89.5682
 30
0.0
 10
-103.6063
 20
90.0463
 30
0.0
 10
-105.6962
 20
93.0627
 30
0.0
 10
-106.3873
 20
95.3409
 30
0.0
 10
-106.3873
 20
95.3409
 30
0.0
 10
-107.0784
 20
93.0627
 30
0.0
 10
-109.1682
 20
90.0463
 30
0.0
 10
-112.7468
 20
89.5682
 30
0.0
 10
-112.7468
 20
89.5682
 30
0.0
 10
-112.6686
 20
88.7246
 30
0.0
 10
-112.118
 20
88.1457
 30
0.0
 10
-111.4796
 20
87.5254
 30
0.0
 10
-111.4796
 20
87.5254
 30
0.0
 10
-121.3293
 20
88.8993
 30
0.0
 10
-125.8298
 20
74.9387
 30
0.0
 10
-118.4997
 20
70.9482
 30
0.0
 10
-118.4997
 20
70.9482
 30
0.0
 10
-119.1551
 20
73.8635
 30
0.0
 10
-115.704
 20
76.7509
 30
0.0
 10
-112.4667
 20
74.5097
 30
0.0
 10
-112.4667
 20
74.5097
 30
0.0
 10
-109.9031
 20
72.7349
 30
0.0
 10
-109.8101
 20
68.2862
 30
0.0
 10
-113.5997
 20
66.8635
 30
0.0
 10
-113.5997
 20
66.8635
 30
0.0
 10
-109.6996
 20
65.1114
 30
0.0
 10
-107.8542
 20
62.3479
 30
0.0
 10
-106.3873
 20
59.0324
 30
0.0
  0
SPLINE
  5
47
330
1F
100
AcDbEntity
  8
layer 1
 62
     7
100
AcDbSpline
210
0.0
220
0.0
230
1.0
 70
    11
 71
     3
 72
    32
 73
    28
 74
     0
 42
0.0000000001
 43
0.0000000001
 12
1.0
 22
0.0
 32
0.0
 13
1.0
 23
0.0
 33
0.0
 40
0.0
 40
0.0
 40
0.0
 40
0.0
 40
0.125
 40
0.125
 40
0.125
 40
0.125
 40
0.25
 40
0.25
 40
0.25
 40
0.25
 40
0.375
 40
0.375
 40
0.375
 40
0.375
 40
0.5
 40
0.5
 40
0.5
 40
0.5
 40
0.625
 40
0.625
 40
0.625
 40
0.625
 40
0.75
 40
0.75
 40
0.75
 40
0.75
 40
1.0
 40
1.0
 40
1.0
 40
1.0
 10
-69.3029
 20
59.0324
 30
0.0
 10
-69.3029
 20
59.0324
 30
0.0
 10
-69.3029
 20
95.3409
 30
0.0
 10
-69.3029
 20
95.3409
 30
0.0
 10
-69.3029
 20
95.3409
 30
0.0
 10
-69.994
 20
93.0627
 30
0.0
 10
-72.0838
 20
90.0463
 30
0.0
 10
-75.6625
 20
89.5682
 30
0.0
 10
-75.6625
 20
89.5682
 30
0.0
 10
-75.5842
 20
88.7246
 30
0.0
 10
-75.0336
 20
88.1457
 30
0.0
 10
-74.3953
 20
87.5254
 30
0.0
 10
-74.3953
 20
87.5254
 30
0.0
 10
-84.245
 20
88.8993
 30
0.0
 10
-88.7455
 20
74.9387
 30
0.0
 10
-81.4154
 20
70.9482
 30
0.0
 10
-81.4154
 20
70.9482
 30
0.0
 10
-82.0708
 20
73.8635
 30
0.0
 10
-78.6197
 20
76.7509
 30
0.0
 10
-75.3823
 20
74.5097
 30
0.0
 10
-75.3823
 20
74.5097
 30
0.0
 10
-72.8187
 20
72.7349
 30
0.0
 10
-72.7258
 20
68.2862
 30
0.0
 10
-76.5154
 20
66.8635
 30
0.0
 10
-76.5154
 20
66.8635
 30
0.0
 10
-72.6152
 20
65.1114
 30
0.0
 10
-70.7698
 20
62.3479
 30
0.0
 10
-69.3029
 20
59.0324
 30
0.0
  0
SPLINE
  5
48
330
1F
100
AcDbEntity
  8
layer 1
 62
     7
100
AcDbSpline
210
0.0
220
0.0
230
1.0
 70
    11
 71
     3
 72
    32
 73
    28
 74
     0
 42
0.0000000001
 43
0.0000000001
 12
1.0
 22
0.0
 32
0.0
 13
1.0
 23
0.0
 33
0.0
 40
0.0
 40
0.0
 40
0.0
 40
0.0
 40
0.125
 40
0.125
 40
0.125
 40
0.125
 40
0.25
 40
0.25
 40
0.25
 40
0.25
 40
0.375
 40
0.375
 40
0.375
 40
0.375
 40
0.5
 40
0.5
 40
0.5
 40
0.5
 40
0.625
 40
0.625
 40
0.625
 40
0.625
 40
0.75
 40
0.75
 40
0.75
 40
0.75
 40
1.0
 40
1.0
 40
1.0
 40
1.0
 10
-181.5165
 20
59.0324
 30
0.0
 10
-180.0496
 20
62.3479
 30
0.0
 10
-178.2042
 20
65.1114
 30
0.0
 10
-174.3041
 20
66.8635
 30
0.0
 10
-174.3041
 20
66.8635
 30
0.0
 10
-178.0936
 20
68.2862
 30
0.0
 10
-178.0007
 20
72.7349
 30
0.0
 10
-175.4371
 20
74.5097
 30
0.0
 10
-175.4371
 20
74.5097
 30
0.0
 10
-172.1997
 20
76.7509
 30
0.0
 10
-168.7487
 20
73.8635
 30
0.0
 10
-169.404
 20
70.9482
 30
0.0
 10
-169.404
 20
70.9482
 30
0.0
 10
-162.0739
 20
74.9387
 30
0.0
 10
-166.5744
 20
88.8993
 30
0.0
 10
-176.4241
 20
87.5254
 30
0.0
 10
-176.4241
 20
87.5254
 30
0.0
 10
-175.7858
 20
88.1457
 30
0.0
 10
-175.2352
 20
88.7246
 30
0.0
 10
-175.1569
 20
89.5682
 30
0.0
 10
-175.1569
 20
89.5682
 30
0.0
 10
-178.7356
 20
90.0463
 30
0.0
 10
-180.8254
 20
93.0627
 30
0.0
 10
-181.5165
 20
95.3409
 30
0.0
 10
-181.5165
 20
95.3409
 30
0.0
 10
-181.5165
 20
95.3409
 30
0.0
 10
-181.5165
 20
59.0324
 30
0.0
 10
-181.5165
 20
59.0324
 30
0.0
  0
SPLINE
  5
49
330
1F
100
AcDbEntity
  8
layer 1
 62
     7
100
AcDbSpline
210
0.0
220
0.0
230
1.0
 70
    11
 71
     3
 72
    52
 73
    48
 74
     0
 42
0.0000000001
 43
0.0000000001
 12
1.0
 22
0.0
 32
0.0
 13
1.0
 23
0.0
 33
0.0
 40
0.0
 40
0.0
 40
0.0
 40
0.0
 40
0.0769230769230769
 40
0.0769230769230769
 40
0.0769230769230769
 40
0.0769230769230769
 40
0.1538461538461539
 40
0.1538461538461539
 40
0.1538461538461539
 40
0.1538461538461539
 40
0.2307692307692308
 40
0.2307692307692308
 40
0.2307692307692308
 40
0.2307692307692308
 40
0.3076923076923077
 40
0.3076923076923077
 40
0.3076923076923077
 40
0.3076923076923077
 40
0.3846153846153846
 40
0.3846153846153846
 40
0.3846153846153846
 40
0.3846153846153846
 40
0.4615384615384616
 40
0.4615384615384616
 40
0.4615384615384616
 40
0.4615384615384616
 40
0.5384615384615384
 40
0.5384615384615384
 40
0.5384615384615384
 40
0.5384615384615384
 40
0.6153846153846154
 40
0.6153846153846154
 40
0.6153846153846154
 40
0.6153846153846154
 40
0.6923076923076923
 40
0.6923076923076923
 40
0.6923076923076923
 40
0.6923076923076923
 40
0.7692307692307693
 40
0.7692307692307693
 40
0.7692307692307693
 40
0.7692307692307693
 40
0.8461538461538461
 40
0.8461538461538461
 40
0.8461538461538461
 40
0.8461538461538461
 40
1.0
 40
1.0
 40
1.0
 40
1.0
 10
-162.7524
 20
37.0913
 30
0.0
 10
-161.2855
 20
40.4068
 30
0.0
 10
-159.4401
 20
43.1702
 30
0.0
 10
-155.54
 20
44.9224
 30
0.0
 10
-155.54
 20
44.9224
 30
0.0
 10
-159.3295
 20
46.3451
 30
0.0
 10
-159.2366
 20
50.7937
 30
0.0
 10
-156.673
 20
52.5686
 30
0.0
 10
-156.673
 20
52.5686
 30
0.0
 10
-153.4357
 20
54.8098
 30
0.0
 10
-149.9846
 20
51.9224
 30
0.0
 10
-150.6399
 20
49.0071
 30
0.0
 10
-150.6399
 20
49.0071
 30
0.0
 10
-143.3098
 20
52.9976
 30
0.0
 10
-147.8103
 20
66.9582
 30
0.0
 10
-157.6601
 20
65.5843
 30
0.0
 10
-157.6601
 20
65.5843
 30
0.0
 10
-157.0217
 20
66.2045
 30
0.0
 10
-156.4711
 20
66.7835
 30
0.0
 10
-156.3928
 20
67.6271
 30
0.0
 10
-156.3928
 20
67.6271
 30
0.0
 10
-159.9715
 20
68.1052
 30
0.0
 10
-162.0613
 20
71.1216
 30
0.0
 10
-162.7524
 20
73.3998
 30
0.0
 10
-162.7524
 20
73.3998
 30
0.0
 10
-163.4435
 20
71.1216
 30
0.0
 10
-165.5334
 20
68.1052
 30
0.0
 10
-169.112
 20
67.6271
 30
0.0
 10
-169.112
 20
67.6271
 30
0.0
 10
-169.0337
 20
66.7835
 30
0.0
 10
-168.4831
 20
66.2045
 30
0.0
 10
-167.8448
 20
65.5843
 30
0.0
 10
-167.8448
 20
65.5843
 30
0.0
 10
-177.6945
 20
66.9582
 30
0.0
 10
-182.195
 20
52.9976
 30
0.0
 10
-174.8649
 20
49.0071
 30
0.0
 10
-174.8649
 20
49.0071
 30
0.0
 10
-175.5203
 20
51.9224
 30
0.0
 10
-172.0692
 20
54.8098
 30
0.0
 10
-168.8318
 20
52.5686
 30
0.0
 10
-168.8318
 20
52.5686
 30
0.0
 10
-166.2682
 20
50.7937
 30
0.0
 10
-166.1753
 20
46.3451
 30
0.0
 10
-169.9649
 20
44.9224
 30
0.0
 10
-169.9649
 20
44.9224
 30
0.0
 10
-166.0647
 20
43.1702
 30
0.0
 10
-164.2194
 20
40.4068
 30
0.0
 10
-162.7524
 20
37.0913
 30
0.0
  0
SPLINE
  5
4A
330
1F
100
AcDbEntity
  8
layer 1
 62
     7
100
AcDbSpline
210
0.0
220
0.0
230
1.0
 70
    11
 71
     3
 72
    52
 73
    48
 74
     0
 42
0.0000000001
 43
0.0000000001
 12
1.0
 22
0.0
 32
0.0
 13
1.0
 23
0.0
 33
0.0
 40
0.0
 40
0.0
 40
0.0
 40
0.0
 40
0.0769230769230769
 40
0.0769230769230769
 40
0.0769230769230769
 40
0.0769230769230769
 40
0.1538461538461539
 40
0.1538461538461539
 40
0.1538461538461539
 40
0.1538461538461539
 40
0.2307692307692308
 40
0.2307692307692308
 40
0.2307692307692308
 40
0.2307692307692308
 40
0.3076923076923077
 40
0.3076923076923077
 40
0.3076923076923077
 40
0.3076923076923077
 40
0.3846153846153846
 40
0.3846153846153846
 40
0.3846153846153846
 40
0.3846153846153846
 40
0.4615384615384616
 40
0.4615384615384616
 40
0.4615384615384616
 40
0.4615384615384616
 40
0.5384615384615384
 40
0.5384615384615384
 40
0.5384615384615384
 40
0.5384615384615384
 40
0.6153846153846154
 40
0.6153846153846154
 40
0.6153846153846154
 40
0.6153846153846154
 40
0.6923076923076923
 40
0.6923076923076923
 40
0.6923076923076923
 40
0.6923076923076923
 40
0.7692307692307693
 40
0.7692307692307693
 40
0.7692307692307693
 40
0.7692307692307693
 40
0.8461538461538461
 40
0.8461538461538461
 40
0.8461538461538461
 40
0.8461538461538461
 40
1.0
 40
1.0
 40
1.0
 40
1.0
 10
-125.1501
 20
37.0913
 30
0.0
 10
-123.6831
 20
40.4068
 30
0.0
 10
-121.8377
 20
43.1702
 30
0.0
 10
-117.9376
 20
44.9224
 30
0.0
 10
-117.9376
 20
44.9224
 30
0.0
 10
-121.7272
 20
46.3451
 30
0.0
 10
-121.6343
 20
50.7937
 30
0.0
 10
-119.0707
 20
52.5686
 30
0.0
 10
-119.0707
 20
52.5686
 30
0.0
 10
-115.8333
 20
54.8098
 30
0.0
 10
-112.3822
 20
51.9224
 30
0.0
 10
-113.0376
 20
49.0071
 30
0.0
 10
-113.0376
 20
49.0071
 30
0.0
 10
-105.7075
 20
52.9976
 30
0.0
 10
-110.208
 20
66.9582
 30
0.0
 10
-120.0577
 20
65.5843
 30
0.0
 10
-120.0577
 20
65.5843
 30
0.0
 10
-119.4194
 20
66.2045
 30
0.0
 10
-118.8688
 20
66.7835
 30
0.0
 10
-118.7905
 20
67.6271
 30
0.0
 10
-118.7905
 20
67.6271
 30
0.0
 10
-122.3691
 20
68.1052
 30
0.0
 10
-124.459
 20
71.1216
 30
0.0
 10
-125.1501
 20
73.3998
 30
0.0
 10
-125.1501
 20
73.3998
 30
0.0
 10
-125.8412
 20
71.1216
 30
0.0
 10
-127.931
 20
68.1052
 30
0.0
 10
-131.5097
 20
67.6271
 30
0.0
 10
-131.5097
 20
67.6271
 30
0.0
 10
-131.4314
 20
66.7835
 30
0.0
 10
-130.8808
 20
66.2045
 30
0.0
 10
-130.2424
 20
65.5843
 30
0.0
 10
-130.2424
 20
65.5843
 30
0.0
 10
-140.0922
 20
66.9582
 30
0.0
 10
-144.5927
 20
52.9976
 30
0.0
 10
-137.2626
 20
49.0071
 30
0.0
 10
-137.2626
 20
49.0071
 30
0.0
 10
-137.9179
 20
51.9224
 30
0.0
 10
-134.4668
 20
54.8098
 30
0.0
 10
-131.2295
 20
52.5686
 30
0.0
 10
-131.2295
 20
52.5686
 30
0.0
 10
-128.6659
 20
50.7937
 30
0.0
 10
-128.573
 20
46.3451
 30
0.0
 10
-132.3625
 20
44.9224
 30
0.0
 10
-132.3625
 20
44.9224
 30
0.0
 10
-128.4624
 20
43.1702
 30
0.0
 10
-126.617
 20
40.4068
 30
0.0
 10
-125.1501
 20
37.0913
 30
0.0
  0
SPLINE
  5
4B
330
1F
100
AcDbEntity
  8
layer 1
 62
     7
100
AcDbSpline
210
0.0
220
0.0
230
1.0
 70
    11
 71
     3
 72
    52
 73
    48
 74
     0
 42
0.0000000001
 43
0.0000000001
 12
1.0
 22
0.0
 32
0.0
 13
1.0
 23
0.0
 33
0.0
 40
0.0
 40
0.0
 40
0.0
 40
0.0
 40
0.0769230769230769
 40
0.0769230769230769
 40
0.0769230769230769
 40
0.0769230769230769
 40
0.1538461538461539
 40
0.1538461538461539
 40
0.1538461538461539
 40
0.1538461538461539
 40
0.2307692307692308
 40
0.2307692307692308
 40
0.2307692307692308
 40
0.2307692307692308
 40
0.3076923076923077
 40
0.3076923076923077
 40
0.3076923076923077
 40
0.3076923076923077
 40
0.3846153846153846
 40
0.3846153846153846
 40
0.3846153846153846
 40
0.3846153846153846
 40
0.4615384615384616
 40
0.4615384615384616
 40
0.4615384615384616
 40
0.4615384615384616
 40
0.5384615384615384
 40
0.5384615384615384
 40
0.5384615384615384
 40
0.5384615384615384
 40
0.6153846153846154
 40
0.6153846153846154
 40
0.6153846153846154
 40
0.6153846153846154
 40
0.6923076923076923
 40
0.6923076923076923
 40
0.6923076923076923
 40
0.6923076923076923
 40
0.7692307692307693
 40
0.7692307692307693
 40
0.7692307692307693
 40
0.7692307692307693
 40
0.8461538461538461
 40
0.8461538461538461
 40
0.8461538461538461
 40
0.8461538461538461
 40
1.0
 40
1.0
 40
1.0
 40
1.0
 10
-87.5616
 20
37.0913
 30
0.0
 10
-86.0947
 20
40.4068
 30
0.0
 10
-84.2493
 20
43.1702
 30
0.0
 10
-80.3492
 20
44.9224
 30
0.0
 10
-80.3492
 20
44.9224
 30
0.0
 10
-84.1387
 20
46.3451
 30
0.0
 10
-84.0458
 20
50.7937
 30
0.0
 10
-81.4822
 20
52.5686
 30
0.0
 10
-81.4822
 20
52.5686
 30
0.0
 10
-78.2448
 20
54.8098
 30
0.0
 10
-74.7937
 20
51.9224
 30
0.0
 10
-75.4491
 20
49.0071
 30
0.0
 10
-75.4491
 20
49.0071
 30
0.0
 10
-68.119
 20
52.9976
 30
0.0
 10
-72.6195
 20
66.9582
 30
0.0
 10
-82.4692
 20
65.5843
 30
0.0
 10
-82.4692
 20
65.5843
 30
0.0
 10
-81.8309
 20
66.2045
 30
0.0
 10
-81.2803
 20
66.7835
 30
0.0
 10
-81.202
 20
67.6271
 30
0.0
 10
-81.202
 20
67.6271
 30
0.0
 10
-84.7807
 20
68.1052
 30
0.0
 10
-86.8705
 20
71.1216
 30
0.0
 10
-87.5616
 20
73.3998
 30
0.0
 10
-87.5616
 20
73.3998
 30
0.0
 10
-88.2527
 20
71.1216
 30
0.0
 10
-90.3425
 20
68.1052
 30
0.0
 10
-93.9212
 20
67.6271
 30
0.0
 10
-93.9212
 20
67.6271
 30
0.0
 10
-93.8429
 20
66.7835
 30
0.0
 10
-93.2923
 20
66.2045
 30
0.0
 10
-92.654
 20
65.5843
 30
0.0
 10
-92.654
 20
65.5843
 30
0.0
 10
-102.5037
 20
66.9582
 30
0.0
 10
-107.0042
 20
52.9976
 30
0.0
 10
-99.6741
 20
49.0071
 30
0.0
 10
-99.6741
 20
49.0071
 30
0.0
 10
-100.3294
 20
51.9224
 30
0.0
 10
-96.8783
 20
54.8098
 30
0.0
 10
-93.641
 20
52.5686
 30
0.0
 10
-93.641
 20
52.5686
 30
0.0
 10
-91.0774
 20
50.7937
 30
0.0
 10
-90.9845
 20
46.3451
 30
0.0
 10
-94.774
 20
44.9224
 30
0.0
 10
-94.774
 20
44.9224
 30
0.0
 10
-90.8739
 20
43.1702
 30
0.0
 10
-89.0285
 20
40.4068
 30
0.0
 10
-87.5616
 20
37.0913
 30
0.0
  0
SPLINE
  5
4C
330
1F
100
AcDbEntity
  8
layer 1
 62
     7
100
AcDbSpline
210
0.0
220
0.0
230
1.0
 70
    11
 71
     3
 72
    52
 73
    48
 74
     0
 42
0.0000000001
 43
0.0000000001
 12
1.0
 22
0.0
 32
0.0
 13
1.0
 23
0.0
 33
0.0
 40
0.0
 40
0.0
 40
0.0
 40
0.0
 40
0.0769230769230769
 40
0.0769230769230769
 40
0.0769230769230769
 40
0.0769230769230769
 40
0.1538461538461539
 40
0.1538461538461539
 40
0.1538461538461539
 40
0.1538461538461539
 40
0.2307692307692308
 40
0.2307692307692308
 40
0.2307692307692308
 40
0.2307692307692308
 40
0.3076923076923077
 40
0.3076923076923077
 40
0.3076923076923077
 40
0.3076923076923077
 40
0.3846153846153846
 40
0.3846153846153846
 40
0.3846153846153846
 40
0.3846153846153846
 40
0.4615384615384616
 40
0.4615384615384616
 40
0.4615384615384616
 40
0.4615384615384616
 40
0.5384615384615384
 40
0.5384615384615384
 40
0.5384615384615384
 40
0.5384615384615384
 40
0.6153846153846154
 40
0.6153846153846154
 40
0.6153846153846154
 40
0.6153846153846154
 40
0.6923076923076923
 40
0.6923076923076923
 40
0.6923076923076923
 40
0.6923076923076923
 40
0.7692307692307693
 40
0.7692307692307693
 40
0.7692307692307693
 40
0.7692307692307693
 40
0.8461538461538461
 40
0.8461538461538461
 40
0.8461538461538461
 40
0.8461538461538461
 40
1.0
 40
1.0
 40
1.0
 40
1.0
 10
-143.9709
 20
14.3315
 30
0.0
 10
-142.5039
 20
17.647
 30
0.0
 10
-140.6585
 20
20.4104
 30
0.0
 10
-136.7584
 20
22.1626
 30
0.0
 10
-136.7584
 20
22.1626
 30
0.0
 10
-140.548
 20
23.5853
 30
0.0
 10
-140.455
 20
28.034
 30
0.0
 10
-137.8915
 20
29.8088
 30
0.0
 10
-137.8915
 20
29.8088
 30
0.0
 10
-134.6541
 20
32.05
 30
0.0
 10
-131.203
 20
29.1626
 30
0.0
 10
-131.8584
 20
26.2473
 30
0.0
 10
-131.8584
 20
26.2473
 30
0.0
 10
-124.5283
 20
30.2378
 30
0.0
 10
-129.0288
 20
44.1984
 30
0.0
 10
-138.8785
 20
42.8245
 30
0.0
 10
-138.8785
 20
42.8245
 30
0.0
 10
-138.2402
 20
43.4448
 30
0.0
 10
-137.6895
 20
44.0237
 30
0.0
 10
-137.6113
 20
44.8673
 30
0.0
 10
-137.6113
 20
44.8673
 30
0.0
 10
-141.1899
 20
45.3454
 30
0.0
 10
-143.2798
 20
48.3618
 30
0.0
 10
-143.9709
 20
50.64
 30
0.0
 10
-143.9709
 20
50.64
 30
0.0
 10
-144.662
 20
48.3618
 30
0.0
 10
-146.7518
 20
45.3454
 30
0.0
 10
-150.3304
 20
44.8673
 30
0.0
 10
-150.3304
 20
44.8673
 30
0.0
 10
-150.2522
 20
44.0237
 30
0.0
 10
-149.7016
 20
43.4448
 30
0.0
 10
-149.0632
 20
42.8245
 30
0.0
 10
-149.0632
 20
42.8245
 30
0.0
 10
-158.9129
 20
44.1984
 30
0.0
 10
-163.4134
 20
30.2378
 30
0.0
 10
-156.0834
 20
26.2473
 30
0.0
 10
-156.0834
 20
26.2473
 30
0.0
 10
-156.7387
 20
29.1626
 30
0.0
 10
-153.2876
 20
32.05
 30
0.0
 10
-150.0503
 20
29.8088
 30
0.0
 10
-150.0503
 20
29.8088
 30
0.0
 10
-147.4867
 20
28.034
 30
0.0
 10
-147.3937
 20
23.5853
 30
0.0
 10
-151.1833
 20
22.1626
 30
0.0
 10
-151.1833
 20
22.1626
 30
0.0
 10
-147.2832
 20
20.4104
 30
0.0
 10
-145.4378
 20
17.647
 30
0.0
 10
-143.9709
 20
14.3315
 30
0.0
  0
SPLINE
  5
4D
330
1F
100
AcDbEntity
  8
layer 1
 62
     7
100
AcDbSpline
210
0.0
220
0.0
230
1.0
 70
    11
 71
     3
 72
    52
 73
    48
 74
     0
 42
0.0000000001
 43
0.0000000001
 12
1.0
 22
0.0
 32
0.0
 13
1.0
 23
0.0
 33
0.0
 40
0.0
 40
0.0
 40
0.0
 40
0.0
 40
0.0769230769230769
 40
0.0769230769230769
 40
0.0769230769230769
 40
0.0769230769230769
 40
0.1538461538461539
 40
0.1538461538461539
 40
0.1538461538461539
 40
0.1538461538461539
 40
0.2307692307692308
 40
0.2307692307692308
 40
0.2307692307692308
 40
0.2307692307692308
 40
0.3076923076923077
 40
0.3076923076923077
 40
0.3076923076923077
 40
0.3076923076923077
 40
0.3846153846153846
 40
0.3846153846153846
 40
0.3846153846153846
 40
0.3846153846153846
 40
0.4615384615384616
 40
0.4615384615384616
 40
0.4615384615384616
 40
0.4615384615384616
 40
0.5384615384615384
 40
0.5384615384615384
 40
0.5384615384615384
 40
0.5384615384615384
 40
0.6153846153846154
 40
0.6153846153846154
 40
0.6153846153846154
 40
0.6153846153846154
 40
0.6923076923076923
 40
0.6923076923076923
 40
0.6923076923076923
 40
0.6923076923076923
 40
0.7692307692307693
 40
0.7692307692307693
 40
0.7692307692307693
 40
0.7692307692307693
 40
0.8461538461538461
 40
0.8461538461538461
 40
0.8461538461538461
 40
0.8461538461538461
 40
1.0
 40
1.0
 40
1.0
 40
1.0
 10
-106.3873
 20
14.3315
 30
0.0
 10
-104.9203
 20
17.647
 30
0.0
 10
-103.0749
 20
20.4104
 30
0.0
 10
-99.1748
 20
22.1626
 30
0.0
 10
-99.1748
 20
22.1626
 30
0.0
 10
-102.9644
 20
23.5853
 30
0.0
 10
-102.8714
 20
28.034
 30
0.0
 10
-100.3079
 20
29.8088
 30
0.0
 10
-100.3079
 20
29.8088
 30
0.0
 10
-97.0705
 20
32.05
 30
0.0
 10
-93.6194
 20
29.1626
 30
0.0
 10
-94.2748
 20
26.2473
 30
0.0
 10
-94.2748
 20
26.2473
 30
0.0
 10
-86.9447
 20
30.2378
 30
0.0
 10
-91.4452
 20
44.1984
 30
0.0
 10
-101.2949
 20
42.8245
 30
0.0
 10
-101.2949
 20
42.8245
 30
0.0
 10
-100.6566
 20
43.4448
 30
0.0
 10
-100.1059
 20
44.0237
 30
0.0
 10
-100.0277
 20
44.8673
 30
0.0
 10
-100.0277
 20
44.8673
 30
0.0
 10
-103.6063
 20
45.3454
 30
0.0
 10
-105.6962
 20
48.3618
 30
0.0
 10
-106.3873
 20
50.64
 30
0.0
 10
-106.3873
 20
50.64
 30
0.0
 10
-107.0784
 20
48.3618
 30
0.0
 10
-109.1682
 20
45.3454
 30
0.0
 10
-112.7468
 20
44.8673
 30
0.0
 10
-112.7468
 20
44.8673
 30
0.0
 10
-112.6686
 20
44.0237
 30
0.0
 10
-112.118
 20
43.4448
 30
0.0
 10
-111.4796
 20
42.8245
 30
0.0
 10
-111.4796
 20
42.8245
 30
0.0
 10
-121.3293
 20
44.1984
 30
0.0
 10
-125.8298
 20
30.2378
 30
0.0
 10
-118.4997
 20
26.2473
 30
0.0
 10
-118.4997
 20
26.2473
 30
0.0
 10
-119.1551
 20
29.1626
 30
0.0
 10
-115.704
 20
32.05
 30
0.0
 10
-112.4667
 20
29.8088
 30
0.0
 10
-112.4667
 20
29.8088
 30
0.0
 10
-109.9031
 20
28.034
 30
0.0
 10
-109.8101
 20
23.5853
 30
0.0
 10
-113.5997
 20
22.1626
 30
0.0
 10
-113.5997
 20
22.1626
 30
0.0
 10
-109.6996
 20
20.4104
 30
0.0
 10
-107.8542
 20
17.647
 30
0.0
 10
-106.3873
 20
14.3315
 30
0.0
  0
SPLINE
  5
4E
330
1F
100
AcDbEntity
  8
layer 1
 62
     7
100
AcDbSpline
210
0.0
220
0.0
230
1.0
 70
    11
 71
     3
 72
    32
 73
    28
 74
     0
 42
0.0000000001
 43
0.0000000001
 12
1.0
 22
0.0
 32
0.0
 13
1.0
 23
0.0
 33
0.0
 40
0.0
 40
0.0
 40
0.0
 40
0.0
 40
0.125
 40
0.125
 40
0.125
 40
0.125
 40
0.25
 40
0.25
 40
0.25
 40
0.25
 40
0.375
 40
0.375
 40
0.375
 40
0.375
 40
0.5
 40
0.5
 40
0.5
 40
0.5
 40
0.625
 40
0.625
 40
0.625
 40
0.625
 40
0.75
 40
0.75
 40
0.75
 40
0.75
 40
1.0
 40
1.0
 40
1.0
 40
1.0
 10
-69.3029
 20
14.3315
 30
0.0
 10
-69.3029
 20
14.3315
 30
0.0
 10
-69.3029
 20
50.64
 30
0.0
 10
-69.3029
 20
50.64
 30
0.0
 10
-69.3029
 20
50.64
 30
0.0
 10
-69.994
 20
48.3618
 30
0.0
 10
-72.0838
 20
45.3454
 30
0.0
 10
-75.6625
 20
44.8673
 30
0.0
 10
-75.6625
 20
44.8673
 30
0.0
 10
-75.5842
 20
44.0237
 30
0.0
 10
-75.0336
 20
43.4448
 30
0.0
 10
-74.3953
 20
42.8245
 30
0.0
 10
-74.3953
 20
42.8245
 30
0.0
 10
-84.245
 20
44.1984
 30
0.0
 10
-88.7455
 20
30.2378
 30
0.0
 10
-81.4154
 20
26.2473
 30
0.0
 10
-81.4154
 20
26.2473
 30
0.0
 10
-82.0708
 20
29.1626
 30
0.0
 10
-78.6197
 20
32.05
 30
0.0
 10
-75.3823
 20
29.8088
 30
0.0
 10
-75.3823
 20
29.8088
 30
0.0
 10
-72.8187
 20
28.034
 30
0.0
 10
-72.7258
 20
23.5853
 30
0.0
 10
-76.5154
 20
22.1626
 30
0.0
 10
-76.5154
 20
22.1626
 30
0.0
 10
-72.6152
 20
20.4104
 30
0.0
 10
-70.7698
 20
17.647
 30
0.0
 10
-69.3029
 20
14.3315
 30
0.0
  0
SPLINE
  5
4F
330
1F
100
AcDbEntity
  8
layer 1
 62
     7
100
AcDbSpline
210
0.0
220
0.0
230
1.0
 70
    11
 71
     3
 72
    32
 73
    28
 74
     0
 42
0.0000000001
 43
0.0000000001
 12
1.0
 22
0.0
 32
0.0
 13
1.0
 23
0.0
 33
0.0
 40
0.0
 40
0.0
 40
0.0
 40
0.0
 40
0.125
 40
0.125
 40
0.125
 40
0.125
 40
0.25
 40
0.25
 40
0.25
 40
0.25
 40
0.375
 40
0.375
 40
0.375
 40
0.375
 40
0.5
 40
0.5
 40
0.5
 40
0.5
 40
0.625
 40
0.625
 40
0.625
 40
0.625
 40
0.75
 40
0.75
 40
0.75
 40
0.75
 40
1.0
 40
1.0
 40
1.0
 40
1.0
 10
-181.5165
 20
14.3315
 30
0.0
 10
-180.0496
 20
17.647
 30
0.0
 10
-178.2042
 20
20.4104
 30
0.0
 10
-174.3041
 20
22.1626
 30
0.0
 10
-174.3041
 20
22.1626
 30
0.0
 10
-178.0936
 20
23.5853
 30
0.0
 10
-178.0007
 20
28.034
 30
0.0
 10
-175.4371
 20
29.8088
 30
0.0
 10
-175.4371
 20
29.8088
 30
0.0
 10
-172.1997
 20
32.05
 30
0.0
 10
-168.7487
 20
29.1626
 30
0.0
 10
-169.404
 20
26.2473
 30
0.0
 10
-169.404
 20
26.2473
 30
0.0
 10
-162.0739
 20
30.2378
 30
0.0
 10
-166.5744
 20
44.1984
 30
0.0
 10
-176.4241
 20
42.8245
 30
0.0
 10
-176.4241
 20
42.8245
 30
0.0
 10
-175.7858
 20
43.4448
 30
0.0
 10
-175.2352
 20
44.0237
 30
0.0
 10
-175.1569
 20
44.8673
 30
0.0
 10
-175.1569
 20
44.8673
 30
0.0
 10
-178.7356
 20
45.3454
 30
0.0
 10
-180.8254
 20
48.3618
 30
0.0
 10
-181.5165
 20
50.64
 30
0.0
 10
-181.5165
 20
50.64
 30
0.0
 10
-181.5165
 20
50.64
 30
0.0
 10
-181.5165
 20
14.3315
 30
0.0
 10
-181.5165
 20
14.3315
 30
0.0
  0
SPLINE
  5
50
330
1F
100
AcDbEntity
  8
layer 1
 62
     7
100
AcDbSpline
210
0.0
220
0.0
230
1.0
 70
    11
 71
     3
 72
    52
 73
    48
 74
     0
 42
0.0000000001
 43
0.0000000001
 12
1.0
 22
0.0
 32
0.0
 13
1.0
 23
0.0
 33
0.0
 40
0.0
 40
0.0
 40
0.0
 40
0.0
 40
0.0769230769230769
 40
0.0769230769230769
 40
0.0769230769230769
 40
0.0769230769230769
 40
0.1538461538461539
 40
0.1538461538461539
 40
0.1538461538461539
 40
0.1538461538461539
 40
0.2307692307692308
 40
0.2307692307692308
 40
0.2307692307692308
 40
0.2307692307692308
 40
0.3076923076923077
 40
0.3076923076923077
 40
0.3076923076923077
 40
0.3076923076923077
 40
0.3846153846153846
 40
0.3846153846153846
 40
0.3846153846153846
 40
0.3846153846153846
 40
0.4615384615384616
 40
0.4615384615384616
 40
0.4615384615384616
 40
0.4615384615384616
 40
0.5384615384615384
 40
0.5384615384615384
 40
0.5384615384615384
 40
0.5384615384615384
 40
0.6153846153846154
 40
0.6153846153846154
 40
0.6153846153846154
 40
0.6153846153846154
 40
0.6923076923076923
 40
0.6923076923076923
 40
0.6923076923076923
 40
0.6923076923076923
 40
0.7692307692307693
 40
0.7692307692307693
 40
0.7692307692307693
 40
0.7692307692307693
 40
0.8461538461538461
 40
0.8461538461538461
 40
0.8461538461538461
 40
0.8461538461538461
 40
1.0
 40
1.0
 40
1.0
 40
1.0
 10
-162.7524
 20
-8.5628
 30
0.0
 10
-161.2855
 20
-5.2473
 30
0.0
 10
-159.4401
 20
-2.4838
 30
0.0
 10
-155.54
 20
-0.7317
 30
0.0
 10
-155.54
 20
-0.7317
 30
0.0
 10
-159.3295
 20
0.691
 30
0.0
 10
-159.2366
 20
5.1397
 30
0.0
 10
-156.673
 20
6.9145
 30
0.0
 10
-156.673
 20
6.9145
 30
0.0
 10
-153.4357
 20
9.1557
 30
0.0
 10
-149.9846
 20
6.2683
 30
0.0
 10
-150.6399
 20
3.353
 30
0.0
 10
-150.6399
 20
3.353
 30
0.0
 10
-143.3098
 20
7.3435
 30
0.0
 10
-147.8103
 20
21.3041
 30
0.0
 10
-157.6601
 20
19.9302
 30
0.0
 10
-157.6601
 20
19.9302
 30
0.0
 10
-157.0217
 20
20.5505
 30
0.0
 10
-156.4711
 20
21.1294
 30
0.0
 10
-156.3928
 20
21.973
 30
0.0
 10
-156.3928
 20
21.973
 30
0.0
 10
-159.9715
 20
22.4511
 30
0.0
 10
-162.0613
 20
25.4675
 30
0.0
 10
-162.7524
 20
27.7457
 30
0.0
 10
-162.7524
 20
27.7457
 30
0.0
 10
-163.4435
 20
25.4675
 30
0.0
 10
-165.5334
 20
22.4511
 30
0.0
 10
-169.112
 20
21.973
 30
0.0
 10
-169.112
 20
21.973
 30
0.0
 10
-169.0337
 20
21.1294
 30
0.0
 10
-168.4831
 20
20.5505
 30
0.0
 10
-167.8448
 20
19.9302
 30
0.0
 10
-167.8448
 20
19.9302
 30
0.0
 10
-177.6945
 20
21.3041
 30
0.0
 10
-182.195
 20
7.3435
 30
0.0
 10
-174.8649
 20
3.353
 30
0.0
 10
-174.8649
 20
3.353
 30
0.0
 10
-175.5203
 20
6.2683
 30
0.0
 10
-172.0692
 20
9.1557
 30
0.0
 10
-168.8318
 20
6.9145
 30
0.0
 10
-168.8318
 20
6.9145
 30
0.0
 10
-166.2682
 20
5.1397
 30
0.0
 10
-166.1753
 20
0.691
 30
0.0
 10
-169.9649
 20
-0.7317
 30
0.0
 10
-169.9649
 20
-0.7317
 30
0.0
 10
-166.0647
 20
-2.4838
 30
0.0
 10
-164.2194
 20
-5.2473
 30
0.0
 10
-162.7524
 20
-8.5628
 30
0.0
  0
SPLINE
  5
51
330
1F
100
AcDbEntity
  8
layer 1
 62
     7
100
AcDbSpline
210
0.0
220
0.0
230
1.0
 70
    11
 71
     3
 72
    52
 73
    48
 74
     0
 42
0.0000000001
 43
0.0000000001
 12
1.0
 22
0.0
 32
0.0
 13
1.0
 23
0.0
 33
0.0
 40
0.0
 40
0.0
 40
0.0
 40
0.0
 40
0.0769230769230769
 40
0.0769230769230769
 40
0.0769230769230769
 40
0.0769230769230769
 40
0.1538461538461539
 40
0.1538461538461539
 40
0.1538461538461539
 40
0.1538461538461539
 40
0.2307692307692308
 40
0.2307692307692308
 40
0.2307692307692308
 40
0.2307692307692308
 40
0.3076923076923077
 40
0.3076923076923077
 40
0.3076923076923077
 40
0.3076923076923077
 40
0.3846153846153846
 40
0.3846153846153846
 40
0.3846153846153846
 40
0.3846153846153846
 40
0.4615384615384616
 40
0.4615384615384616
 40
0.4615384615384616
 40
0.4615384615384616
 40
0.5384615384615384
 40
0.5384615384615384
 40
0.5384615384615384
 40
0.5384615384615384
 40
0.6153846153846154
 40
0.6153846153846154
 40
0.6153846153846154
 40
0.6153846153846154
 40
0.6923076923076923
 40
0.6923076923076923
 40
0.6923076923076923
 40
0.6923076923076923
 40
0.7692307692307693
 40
0.7692307692307693
 40
0.7692307692307693
 40
0.7692307692307693
 40
0.8461538461538461
 40
0.8461538461538461
 40
0.8461538461538461
 40
0.8461538461538461
 40
1.0
 40
1.0
 40
1.0
 40
1.0
 10
-125.1501
 20
-8.5628
 30
0.0
 10
-123.6831
 20
-5.2473
 30
0.0
 10
-121.8377
 20
-2.4838
 30
0.0
 10
-117.9376
 20
-0.7317
 30
0.0
 10
-117.9376
 20
-0.7317
 30
0.0
 10
-121.7272
 20
0.691
 30
0.0
 10
-121.6343
 20
5.1397
 30
0.0
 10
-119.0707
 20
6.9145
 30
0.0
 10
-119.0707
 20
6.9145
 30
0.0
 10
-115.8333
 20
9.1557
 30
0.0
 10
-112.3822
 20
6.2683
 30
0.0
 10
-113.0376
 20
3.353
 30
0.0
 10
-113.0376
 20
3.353
 30
0.0
 10
-105.7075
 20
7.3435
 30
0.0
 10
-110.208
 20
21.3041
 30
0.0
 10
-120.0577
 20
19.9302
 30
0.0
 10
-120.0577
 20
19.9302
 30
0.0
 10
-119.4194
 20
20.5505
 30
0.0
 10
-118.8688
 20
21.1294
 30
0.0
 10
-118.7905
 20
21.973
 30
0.0
 10
-118.7905
 20
21.973
 30
0.0
 10
-122.3691
 20
22.4511
 30
0.0
 10
-124.459
 20
25.4675
 30
0.0
 10
-125.1501
 20
27.7457
 30
0.0
 10
-125.1501
 20
27.7457
 30
0.0
 10
-125.8412
 20
25.4675
 30
0.0
 10
-127.931
 20
22.4511
 30
0.0
 10
-131.5097
 20
21.973
 30
0.0
 10
-131.5097
 20
21.973
 30
0.0
 10
-131.4314
 20
21.1294
 30
0.0
 10
-130.8808
 20
20.5505
 30
0.0
 10
-130.2424
 20
19.9302
 30
0.0
 10
-130.2424
 20
19.9302
 30
0.0
 10
-140.0922
 20
21.3041
 30
0.0
 10
-144.5927
 20
7.3435
 30
0.0
 10
-137.2626
 20
3.353
 30
0.0
 10
-137.2626
 20
3.353
 30
0.0
 10
-137.9179
 20
6.2683
 30
0.0
 10
-134.4668
 20
9.1557
 30
0.0
 10
-131.2295
 20
6.9145
 30
0.0
 10
-131.2295
 20
6.9145
 30
0.0
 10
-128.6659
 20
5.1397
 30
0.0
 10
-128.573
 20
0.691
 30
0.0
 10
-132.3625
 20
-0.7317
 30
0.0
 10
-132.3625
 20
-0.7317
 30
0.0
 10
-128.4624
 20
-2.4838
 30
0.0
 10
-126.617
 20
-5.2473
 30
0.0
 10
-125.1501
 20
-8.5628
 30
0.0
  0
SPLINE
  5
52
330
1F
100
AcDbEntity
  8
layer 1
 62
     7
100
AcDbSpline
210
0.0
220
0.0
230
1.0
 70
    11
 71
     3
 72
    52
 73
    48
 74
     0
 42
0.0000000001
 43
0.0000000001
 12
1.0
 22
0.0
 32
0.0
 13
1.0
 23
0.0
 33
0.0
 40
0.0
 40
0.0
 40
0.0
 40
0.0
 40
0.0769230769230769
 40
0.0769230769230769
 40
0.0769230769230769
 40
0.0769230769230769
 40
0.1538461538461539
 40
0.1538461538461539
 40
0.1538461538461539
 40
0.1538461538461539
 40
0.2307692307692308
 40
0.2307692307692308
 40
0.2307692307692308
 40
0.2307692307692308
 40
0.3076923076923077
 40
0.3076923076923077
 40
0.3076923076923077
 40
0.3076923076923077
 40
0.3846153846153846
 40
0.3846153846153846
 40
0.3846153846153846
 40
0.3846153846153846
 40
0.4615384615384616
 40
0.4615384615384616
 40
0.4615384615384616
 40
0.4615384615384616
 40
0.5384615384615384
 40
0.5384615384615384
 40
0.5384615384615384
 40
0.5384615384615384
 40
0.6153846153846154
 40
0.6153846153846154
 40
0.6153846153846154
 40
0.6153846153846154
 40
0.6923076923076923
 40
0.6923076923076923
 40
0.6923076923076923
 40
0.6923076923076923
 40
0.7692307692307693
 40
0.7692307692307693
 40
0.7692307692307693
 40
0.7692307692307693
 40
0.8461538461538461
 40
0.8461538461538461
 40
0.8461538461538461
 40
0.8461538461538461
 40
1.0
 40
1.0
 40
1.0
 40
1.0
 10
-87.5616
 20
-8.5628
 30
0.0
 10
-86.0947
 20
-5.2473
 30
0.0
 10
-84.2493
 20
-2.4838
 30
0.0
 10
-80.3492
 20
-0.7317
 30
0.0
 10
-80.3492
 20
-0.7317
 30
0.0
 10
-84.1387
 20
0.691
 30
0.0
 10
-84.0458
 20
5.1397
 30
0.0
 10
-81.4822
 20
6.9145
 30
0.0
 10
-81.4822
 20
6.9145
 30
0.0
 10
-78.2448
 20
9.1557
 30
0.0
 10
-74.7937
 20
6.2683
 30
0.0
 10
-75.4491
 20
3.353
 30
0.0
 10
-75.4491
 20
3.353
 30
0.0
 10
-68.119
 20
7.3435
 30
0.0
 10
-72.6195
 20
21.3041
 30
0.0
 10
-82.4692
 20
19.9302
 30
0.0
 10
-82.4692
 20
19.9302
 30
0.0
 10
-81.8309
 20
20.5505
 30
0.0
 10
-81.2803
 20
21.1294
 30
0.0
 10
-81.202
 20
21.973
 30
0.0
 10
-81.202
 20
21.973
 30
0.0
 10
-84.7807
 20
22.4511
 30
0.0
 10
-86.8705
 20
25.4675
 30
0.0
 10
-87.5616
 20
27.7457
 30
0.0
 10
-87.5616
 20
27.7457
 30
0.0
 10
-88.2527
 20
25.4675
 30
0.0
 10
-90.3425
 20
22.4511
 30
0.0
 10
-93.9212
 20
21.973
 30
0.0
 10
-93.9212
 20
21.973
 30
0.0
 10
-93.8429
 20
21.1294
 30
0.0
 10
-93.2923
 20
20.5505
 30
0.0
 10
-92.654
 20
19.9302
 30
0.0
 10
-92.654
 20
19.9302
 30
0.0
 10
-102.5037
 20
21.3041
 30
0.0
 10
-107.0042
 20
7.3435
 30
0.0
 10
-99.6741
 20
3.353
 30
0.0
 10
-99.6741
 20
3.353
 30
0.0
 10
-100.3294
 20
6.2683
 30
0.0
 10
-96.8783
 20
9.1557
 30
0.0
 10
-93.641
 20
6.9145
 30
0.0
 10
-93.641
 20
6.9145
 30
0.0
 10
-91.0774
 20
5.1397
 30
0.0
 10
-90.9845
 20
0.691
 30
0.0
 10
-94.774
 20
-0.7317
 30
0.0
 10
-94.774
 20
-0.7317
 30
0.0
 10
-90.8739
 20
-2.4838
 30
0.0
 10
-89.0285
 20
-5.2473
 30
0.0
 10
-87.5616
 20
-8.5628
 30
0.0
  0
SPLINE
  5
53
330
1F
100
AcDbEntity
  8
layer 1
 62
     7
100
AcDbSpline
210
0.0
220
0.0
230
1.0
 70
    11
 71
     3
 72
    52
 73
    48
 74
     0
 42
0.0000000001
 43
0.0000000001
 12
1.0
 22
0.0
 32
0.0
 13
1.0
 23
0.0
 33
0.0
 40
0.0
 40
0.0
 40
0.0
 40
0.0
 40
0.0769230769230769
 40
0.0769230769230769
 40
0.0769230769230769
 40
0.0769230769230769
 40
0.1538461538461539
 40
0.1538461538461539
 40
0.1538461538461539
 40
0.1538461538461539
 40
0.2307692307692308
 40
0.2307692307692308
 40
0.2307692307692308
 40
0.2307692307692308
 40
0.3076923076923077
 40
0.3076923076923077
 40
0.3076923076923077
 40
0.3076923076923077
 40
0.3846153846153846
 40
0.3846153846153846
 40
0.3846153846153846
 40
0.3846153846153846
 40
0.4615384615384616
 40
0.4615384615384616
 40
0.4615384615384616
 40
0.4615384615384616
 40
0.5384615384615384
 40
0.5384615384615384
 40
0.5384615384615384
 40
0.5384615384615384
 40
0.6153846153846154
 40
0.6153846153846154
 40
0.6153846153846154
 40
0.6153846153846154
 40
0.6923076923076923
 40
0.6923076923076923
 40
0.6923076923076923
 40
0.6923076923076923
 40
0.7692307692307693
 40
0.7692307692307693
 40
0.7692307692307693
 40
0.7692307692307693
 40
0.8461538461538461
 40
0.8461538461538461
 40
0.8461538461538461
 40
0.8461538461538461
 40
1.0
 40
1.0
 40
1.0
 40
1.0
 10
-143.9709
 20
-31.3226
 30
0.0
 10
-142.5039
 20
-28.0071
 30
0.0
 10
-140.6585
 20
-25.2436
 30
0.0
 10
-136.7584
 20
-23.4915
 30
0.0
 10
-136.7584
 20
-23.4915
 30
0.0
 10
-140.548
 20
-22.0688
 30
0.0
 10
-140.455
 20
-17.6201
 30
0.0
 10
-137.8915
 20
-15.8453
 30
0.0
 10
-137.8915
 20
-15.8453
 30
0.0
 10
-134.6541
 20
-13.6041
 30
0.0
 10
-131.203
 20
-16.4915
 30
0.0
 10
-131.8584
 20
-19.4068
 30
0.0
 10
-131.8584
 20
-19.4068
 30
0.0
 10
-124.5283
 20
-15.4163
 30
0.0
 10
-129.0288
 20
-1.4557
 30
0.0
 10
-138.8785
 20
-2.8296
 30
0.0
 10
-138.8785
 20
-2.8296
 30
0.0
 10
-138.2402
 20
-2.2093
 30
0.0
 10
-137.6895
 20
-1.6304
 30
0.0
 10
-137.6113
 20
-0.7868
 30
0.0
 10
-137.6113
 20
-0.7868
 30
0.0
 10
-141.1899
 20
-0.3086
 30
0.0
 10
-143.2798
 20
2.7077
 30
0.0
 10
-143.9709
 20
4.9859
 30
0.0
 10
-143.9709
 20
4.9859
 30
0.0
 10
-144.662
 20
2.7077
 30
0.0
 10
-146.7518
 20
-0.3086
 30
0.0
 10
-150.3304
 20
-0.7868
 30
0.0
 10
-150.3304
 20
-0.7868
 30
0.0
 10
-150.2522
 20
-1.6304
 30
0.0
 10
-149.7016
 20
-2.2093
 30
0.0
 10
-149.0632
 20
-2.8296
 30
0.0
 10
-149.0632
 20
-2.8296
 30
0.0
 10
-158.9129
 20
-1.4557
 30
0.0
 10
-163.4134
 20
-15.4163
 30
0.0
 10
-156.0834
 20
-19.4068
 30
0.0
 10
-156.0834
 20
-19.4068
 30
0.0
 10
-156.7387
 20
-16.4915
 30
0.0
 10
-153.2876
 20
-13.6041
 30
0.0
 10
-150.0503
 20
-15.8453
 30
0.0
 10
-150.0503
 20
-15.8453
 30
0.0
 10
-147.4867
 20
-17.6201
 30
0.0
 10
-147.3937
 20
-22.0688
 30
0.0
 10
-151.1833
 20
-23.4915
 30
0.0
 10
-151.1833
 20
-23.4915
 30
0.0
 10
-147.2832
 20
-25.2436
 30
0.0
 10
-145.4378
 20
-28.0071
 30
0.0
 10
-143.9709
 20
-31.3226
 30
0.0
  0
SPLINE
  5
54
330
1F
100
AcDbEntity
  8
layer 1
 62
     7
100
AcDbSpline
210
0.0
220
0.0
230
1.0
 70
    11
 71
     3
 72
    52
 73
    48
 74
     0
 42
0.0000000001
 43
0.0000000001
 12
1.0
 22
0.0
 32
0.0
 13
1.0
 23
0.0
 33
0.0
 40
0.0
 40
0.0
 40
0.0
 40
0.0
 40
0.0769230769230769
 40
0.0769230769230769
 40
0.0769230769230769
 40
0.0769230769230769
 40
0.1538461538461539
 40
0.1538461538461539
 40
0.1538461538461539
 40
0.1538461538461539
 40
0.2307692307692308
 40
0.2307692307692308
 40
0.2307692307692308
 40
0.2307692307692308
 40
0.3076923076923077
 40
0.3076923076923077
 40
0.3076923076923077
 40
0.3076923076923077
 40
0.3846153846153846
 40
0.3846153846153846
 40
0.3846153846153846
 40
0.3846153846153846
 40
0.4615384615384616
 40
0.4615384615384616
 40
0.4615384615384616
 40
0.4615384615384616
 40
0.5384615384615384
 40
0.5384615384615384
 40
0.5384615384615384
 40
0.5384615384615384
 40
0.6153846153846154
 40
0.6153846153846154
 40
0.6153846153846154
 40
0.6153846153846154
 40
0.6923076923076923
 40
0.6923076923076923
 40
0.6923076923076923
 40
0.6923076923076923
 40
0.7692307692307693
 40
0.7692307692307693
 40
0.7692307692307693
 40
0.7692307692307693
 40
0.8461538461538461
 40
0.8461538461538461
 40
0.8461538461538461
 40
0.8461538461538461
 40
1.0
 40
1.0
 40
1.0
 40
1.0
 10
-106.3873
 20
-31.3226
 30
0.0
 10
-104.9203
 20
-28.0071
 30
0.0
 10
-103.0749
 20
-25.2436
 30
0.0
 10
-99.1748
 20
-23.4915
 30
0.0
 10
-99.1748
 20
-23.4915
 30
0.0
 10
-102.9644
 20
-22.0688
 30
0.0
 10
-102.8714
 20
-17.6201
 30
0.0
 10
-100.3079
 20
-15.8453
 30
0.0
 10
-100.3079
 20
-15.8453
 30
0.0
 10
-97.0705
 20
-13.6041
 30
0.0
 10
-93.6194
 20
-16.4915
 30
0.0
 10
-94.2748
 20
-19.4068
 30
0.0
 10
-94.2748
 20
-19.4068
 30
0.0
 10
-86.9447
 20
-15.4163
 30
0.0
 10
-91.4452
 20
-1.4557
 30
0.0
 10
-101.2949
 20
-2.8296
 30
0.0
 10
-101.2949
 20
-2.8296
 30
0.0
 10
-100.6566
 20
-2.2093
 30
0.0
 10
-100.1059
 20
-1.6304
 30
0.0
 10
-100.0277
 20
-0.7868
 30
0.0
 10
-100.0277
 20
-0.7868
 30
0.0
 10
-103.6063
 20
-0.3086
 30
0.0
 10
-105.6962
 20
2.7077
 30
0.0
 10
-106.3873
 20
4.9859
 30
0.0
 10
-106.3873
 20
4.9859
 30
0.0
 10
-107.0784
 20
2.7077
 30
0.0
 10
-109.1682
 20
-0.3086
 30
0.0
 10
-112.7468
 20
-0.7868
 30
0.0
 10
-112.7468
 20
-0.7868
 30
0.0
 10
-112.6686
 20
-1.6304
 30
0.0
 10
-112.118
 20
-2.2093
 30
0.0
 10
-111.4796
 20
-2.8296
 30
0.0
 10
-111.4796
 20
-2.8296
 30
0.0
 10
-121.3293
 20
-1.4557
 30
0.0
 10
-125.8298
 20
-15.4163
 30
0.0
 10
-118.4997
 20
-19.4068
 30
0.0
 10
-118.4997
 20
-19.4068
 30
0.0
 10
-119.1551
 20
-16.4915
 30
0.0
 10
-115.704
 20
-13.6041
 30
0.0
 10
-112.4667
 20
-15.8453
 30
0.0
 10
-112.4667
 20
-15.8453
 30
0.0
 10
-109.9031
 20
-17.6201
 30
0.0
 10
-109.8101
 20
-22.0688
 30
0.0
 10
-113.5997
 20
-23.4915
 30
0.0
 10
-113.5997
 20
-23.4915
 30
0.0
 10
-109.6996
 20
-25.2436
 30
0.0
 10
-107.8542
 20
-28.0071
 30
0.0
 10
-106.3873
 20
-31.3226
 30
0.0
  0
SPLINE
  5
55
330
1F
100
AcDbEntity
  8
layer 1
 62
     7
100
AcDbSpline
210
0.0
220
0.0
230
1.0
 70
    11
 71
     3
 72
    32
 73
    28
 74
     0
 42
0.0000000001
 43
0.0000000001
 12
1.0
 22
0.0
 32
0.0
 13
1.0
 23
0.0
 33
0.0
 40
0.0
 40
0.0
 40
0.0
 40
0.0
 40
0.125
 40
0.125
 40
0.125
 40
0.125
 40
0.25
 40
0.25
 40
0.25
 40
0.25
 40
0.375
 40
0.375
 40
0.375
 40
0.375
 40
0.5
 40
0.5
 40
0.5
 40
0.5
 40
0.625
 40
0.625
 40
0.625
 40
0.625
 40
0.75
 40
0.75
 40
0.75
 40
0.75
 40
1.0
 40
1.0
 40
1.0
 40
1.0
 10
-69.3029
 20
-31.3226
 30
0.0
 10
-69.3029
 20
-31.3226
 30
0.0
 10
-69.3029
 20
4.9859
 30
0.0
 10
-69.3029
 20
4.9859
 30
0.0
 10
-69.3029
 20
4.9859
 30
0.0
 10
-69.994
 20
2.7077
 30
0.0
 10
-72.0838
 20
-0.3086
 30
0.0
 10
-75.6625
 20
-0.7868
 30
0.0
 10
-75.6625
 20
-0.7868
 30
0.0
 10
-75.5842
 20
-1.6304
 30
0.0
 10
-75.0336
 20
-2.2093
 30
0.0
 10
-74.3953
 20
-2.8296
 30
0.0
 10
-74.3953
 20
-2.8296
 30
0.0
 10
-84.245
 20
-1.4557
 30
0.0
 10
-88.7455
 20
-15.4163
 30
0.0
 10
-81.4154
 20
-19.4068
 30
0.0
 10
-81.4154
 20
-19.4068
 30
0.0
 10
-82.0708
 20
-16.4915
 30
0.0
 10
-78.6197
 20
-13.6041
 30
0.0
 10
-75.3823
 20
-15.8453
 30
0.0
 10
-75.3823
 20
-15.8453
 30
0.0
 10
-72.8187
 20
-17.6201
 30
0.0
 10
-72.7258
 20
-22.0688
 30
0.0
 10
-76.5154
 20
-23.4915
 30
0.0
 10
-76.5154
 20
-23.4915
 30
0.0
 10
-72.6152
 20
-25.2436
 30
0.0
 10
-70.7698
 20
-28.0071
 30
0.0
 10
-69.3029
 20
-31.3226
 30
0.0
  0
SPLINE
  5
56
330
1F
100
AcDbEntity
  8
layer 1
 62
     7
100
AcDbSpline
210
0.0
220
0.0
230
1.0
 70
    11
 71
     3
 72
    32
 73
    28
 74
     0
 42
0.0000000001
 43
0.0000000001
 12
1.0
 22
0.0
 32
0.0
 13
1.0
 23
0.0
 33
0.0
 40
0.0
 40
0.0
 40
0.0
 40
0.0
 40
0.125
 40
0.125
 40
0.125
 40
0.125
 40
0.25
 40
0.25
 40
0.25
 40
0.25
 40
0.375
 40
0.375
 40
0.375
 40
0.375
 40
0.5
 40
0.5
 40
0.5
 40
0.5
 40
0.625
 40
0.625
 40
0.625
 40
0.625
 40
0.75
 40
0.75
 40
0.75
 40
0.75
 40
1.0
 40
1.0
 40
1.0
 40
1.0
 10
-181.5165
 20
-31.3226
 30
0.0
 10
-180.0496
 20
-28.0071
 30
0.0
 10
-178.2042
 20
-25.2436
 30
0.0
 10
-174.3041
 20
-23.4915
 30
0.0
 10
-174.3041
 20
-23.4915
 30
0.0
 10
-178.0936
 20
-22.0688
 30
0.0
 10
-178.0007
 20
-17.6201
 30
0.0
 10
-175.4371
 20
-15.8453
 30
0.0
 10
-175.4371
 20
-15.8453
 30
0.0
 10
-172.1997
 20
-13.6041
 30
0.0
 10
-168.7487
 20
-16.4915
 30
0.0
 10
-169.404
 20
-19.4068
 30
0.0
 10
-169.404
 20
-19.4068
 30
0.0
 10
-162.0739
 20
-15.4163
 30
0.0
 10
-166.5744
 20
-1.4557
 30
0.0
 10
-176.4241
 20
-2.8296
 30
0.0
 10
-176.4241
 20
-2.8296
 30
0.0
 10
-175.7858
 20
-2.2093
 30
0.0
 10
-175.2352
 20
-1.6304
 30
0.0
 10
-175.1569
 20
-0.7868
 30
0.0
 10
-175.1569
 20
-0.7868
 30
0.0
 10
-178.7356
 20
-0.3086
 30
0.0
 10
-180.8254
 20
2.7077
 30
0.0
 10
-181.5165
 20
4.9859
 30
0.0
 10
-181.5165
 20
4.9859
 30
0.0
 10
-181.5165
 20
4.9859
 30
0.0
 10
-181.5165
 20
-31.3226
 30
0.0
 10
-181.5165
 20
-31.3226
 30
0.0
  0
SPLINE
  5
57
330
1F
100
AcDbEntity
  8
layer 1
 62
     7
100
AcDbSpline
210
0.0
220
0.0
230
1.0
 70
    11
 71
     3
 72
    52
 73
    48
 74
     0
 42
0.0000000001
 43
0.0000000001
 12
1.0
 22
0.0
 32
0.0
 13
1.0
 23
0.0
 33
0.0
 40
0.0
 40
0.0
 40
0.0
 40
0.0
 40
0.0769230769230769
 40
0.0769230769230769
 40
0.0769230769230769
 40
0.0769230769230769
 40
0.1538461538461539
 40
0.1538461538461539
 40
0.1538461538461539
 40
0.1538461538461539
 40
0.2307692307692308
 40
0.2307692307692308
 40
0.2307692307692308
 40
0.2307692307692308
 40
0.3076923076923077
 40
0.3076923076923077
 40
0.3076923076923077
 40
0.3076923076923077
 40
0.3846153846153846
 40
0.3846153846153846
 40
0.3846153846153846
 40
0.3846153846153846
 40
0.4615384615384616
 40
0.4615384615384616
 40
0.4615384615384616
 40
0.4615384615384616
 40
0.5384615384615384
 40
0.5384615384615384
 40
0.5384615384615384
 40
0.5384615384615384
 40
0.6153846153846154
 40
0.6153846153846154
 40
0.6153846153846154
 40
0.6153846153846154
 40
0.6923076923076923
 40
0.6923076923076923
 40
0.6923076923076923
 40
0.6923076923076923
 40
0.7692307692307693
 40
0.7692307692307693
 40
0.7692307692307693
 40
0.7692307692307693
 40
0.8461538461538461
 40
0.8461538461538461
 40
0.8461538461538461
 40
0.8461538461538461
 40
1.0
 40
1.0
 40
1.0
 40
1.0
 10
-162.7524
 20
-53.2586
 30
0.0
 10
-161.2855
 20
-49.9432
 30
0.0
 10
-159.4401
 20
-47.1797
 30
0.0
 10
-155.54
 20
-45.4276
 30
0.0
 10
-155.54
 20
-45.4276
 30
0.0
 10
-159.3295
 20
-44.0049
 30
0.0
 10
-159.2366
 20
-39.5562
 30
0.0
 10
-156.673
 20
-37.7814
 30
0.0
 10
-156.673
 20
-37.7814
 30
0.0
 10
-153.4357
 20
-35.5402
 30
0.0
 10
-149.9846
 20
-38.4276
 30
0.0
 10
-150.6399
 20
-41.3429
 30
0.0
 10
-150.6399
 20
-41.3429
 30
0.0
 10
-143.3098
 20
-37.3523
 30
0.0
 10
-147.8103
 20
-23.3918
 30
0.0
 10
-157.6601
 20
-24.7656
 30
0.0
 10
-157.6601
 20
-24.7656
 30
0.0
 10
-157.0217
 20
-24.1454
 30
0.0
 10
-156.4711
 20
-23.5664
 30
0.0
 10
-156.3928
 20
-22.7229
 30
0.0
 10
-156.3928
 20
-22.7229
 30
0.0
 10
-159.9715
 20
-22.2447
 30
0.0
 10
-162.0613
 20
-19.2283
 30
0.0
 10
-162.7524
 20
-16.9501
 30
0.0
 10
-162.7524
 20
-16.9501
 30
0.0
 10
-163.4435
 20
-19.2283
 30
0.0
 10
-165.5334
 20
-22.2447
 30
0.0
 10
-169.112
 20
-22.7229
 30
0.0
 10
-169.112
 20
-22.7229
 30
0.0
 10
-169.0337
 20
-23.5664
 30
0.0
 10
-168.4831
 20
-24.1454
 30
0.0
 10
-167.8448
 20
-24.7656
 30
0.0
 10
-167.8448
 20
-24.7656
 30
0.0
 10
-177.6945
 20
-23.3918
 30
0.0
 10
-182.195
 20
-37.3523
 30
0.0
 10
-174.8649
 20
-41.3429
 30
0.0
 10
-174.8649
 20
-41.3429
 30
0.0
 10
-175.5203
 20
-38.4276
 30
0.0
 10
-172.0692
 20
-35.5402
 30
0.0
 10
-168.8318
 20
-37.7814
 30
0.0
 10
-168.8318
 20
-37.7814
 30
0.0
 10
-166.2682
 20
-39.5562
 30
0.0
 10
-166.1753
 20
-44.0049
 30
0.0
 10
-169.9649
 20
-45.4276
 30
0.0
 10
-169.9649
 20
-45.4276
 30
0.0
 10
-166.0647
 20
-47.1797
 30
0.0
 10
-164.2194
 20
-49.9432
 30
0.0
 10
-162.7524
 20
-53.2586
 30
0.0
  0
SPLINE
  5
58
330
1F
100
AcDbEntity
  8
layer 1
 62
     7
100
AcDbSpline
210
0.0
220
0.0
230
1.0
 70
    11
 71
     3
 72
    52
 73
    48
 74
     0
 42
0.0000000001
 43
0.0000000001
 12
1.0
 22
0.0
 32
0.0
 13
1.0
 23
0.0
 33
0.0
 40
0.0
 40
0.0
 40
0.0
 40
0.0
 40
0.0769230769230769
 40
0.0769230769230769
 40
0.0769230769230769
 40
0.0769230769230769
 40
0.1538461538461539
 40
0.1538461538461539
 40
0.1538461538461539
 40
0.1538461538461539
 40
0.2307692307692308
 40
0.2307692307692308
 40
0.2307692307692308
 40
0.2307692307692308
 40
0.3076923076923077
 40
0.3076923076923077
 40
0.3076923076923077
 40
0.3076923076923077
 40
0.3846153846153846
 40
0.3846153846153846
 40
0.3846153846153846
 40
0.3846153846153846
 40
0.4615384615384616
 40
0.4615384615384616
 40
0.4615384615384616
 40
0.4615384615384616
 40
0.5384615384615384
 40
0.5384615384615384
 40
0.5384615384615384
 40
0.5384615384615384
 40
0.6153846153846154
 40
0.6153846153846154
 40
0.6153846153846154
 40
0.6153846153846154
 40
0.6923076923076923
 40
0.6923076923076923
 40
0.6923076923076923
 40
0.6923076923076923
 40
0.7692307692307693
 40
0.7692307692307693
 40
0.7692307692307693
 40
0.7692307692307693
 40
0.8461538461538461
 40
0.8461538461538461
 40
0.8461538461538461
 40
0.8461538461538461
 40
1.0
 40
1.0
 40
1.0
 40
1.0
 10
-125.1501
 20
-53.2586
 30
0.0
 10
-123.6831
 20
-49.9432
 30
0.0
 10
-121.8377
 20
-47.1797
 30
0.0
 10
-117.9376
 20
-45.4276
 30
0.0
 10
-117.9376
 20
-45.4276
 30
0.0
 10
-121.7272
 20
-44.0049
 30
0.0
 10
-121.6343
 20
-39.5562
 30
0.0
 10
-119.0707
 20
-37.7814
 30
0.0
 10
-119.0707
 20
-37.7814
 30
0.0
 10
-115.8333
 20
-35.5402
 30
0.0
 10
-112.3822
 20
-38.4276
 30
0.0
 10
-113.0376
 20
-41.3429
 30
0.0
 10
-113.0376
 20
-41.3429
 30
0.0
 10
-105.7075
 20
-37.3523
 30
0.0
 10
-110.208
 20
-23.3918
 30
0.0
 10
-120.0577
 20
-24.7656
 30
0.0
 10
-120.0577
 20
-24.7656
 30
0.0
 10
-119.4194
 20
-24.1454
 30
0.0
 10
-118.8688
 20
-23.5664
 30
0.0
 10
-118.7905
 20
-22.7229
 30
0.0
 10
-118.7905
 20
-22.7229
 30
0.0
 10
-122.3691
 20
-22.2447
 30
0.0
 10
-124.459
 20
-19.2283
 30
0.0
 10
-125.1501
 20
-16.9501
 30
0.0
 10
-125.1501
 20
-16.9501
 30
0.0
 10
-125.8412
 20
-19.2283
 30
0.0
 10
-127.931
 20
-22.2447
 30
0.0
 10
-131.5097
 20
-22.7229
 30
0.0
 10
-131.5097
 20
-22.7229
 30
0.0
 10
-131.4314
 20
-23.5664
 30
0.0
 10
-130.8808
 20
-24.1454
 30
0.0
 10
-130.2424
 20
-24.7656
 30
0.0
 10
-130.2424
 20
-24.7656
 30
0.0
 10
-140.0922
 20
-23.3918
 30
0.0
 10
-144.5927
 20
-37.3523
 30
0.0
 10
-137.2626
 20
-41.3429
 30
0.0
 10
-137.2626
 20
-41.3429
 30
0.0
 10
-137.9179
 20
-38.4276
 30
0.0
 10
-134.4668
 20
-35.5402
 30
0.0
 10
-131.2295
 20
-37.7814
 30
0.0
 10
-131.2295
 20
-37.7814
 30
0.0
 10
-128.6659
 20
-39.5562
 30
0.0
 10
-128.573
 20
-44.0049
 30
0.0
 10
-132.3625
 20
-45.4276
 30
0.0
 10
-132.3625
 20
-45.4276
 30
0.0
 10
-128.4624
 20
-47.1797
 30
0.0
 10
-126.617
 20
-49.9432
 30
0.0
 10
-125.1501
 20
-53.2586
 30
0.0
  0
SPLINE
  5
59
330
1F
100
AcDbEntity
  8
layer 1
 62
     7
100
AcDbSpline
210
0.0
220
0.0
230
1.0
 70
    11
 71
     3
 72
    52
 73
    48
 74
     0
 42
0.0000000001
 43
0.0000000001
 12
1.0
 22
0.0
 32
0.0
 13
1.0
 23
0.0
 33
0.0
 40
0.0
 40
0.0
 40
0.0
 40
0.0
 40
0.0769230769230769
 40
0.0769230769230769
 40
0.0769230769230769
 40
0.0769230769230769
 40
0.1538461538461539
 40
0.1538461538461539
 40
0.1538461538461539
 40
0.1538461538461539
 40
0.2307692307692308
 40
0.2307692307692308
 40
0.2307692307692308
 40
0.2307692307692308
 40
0.3076923076923077
 40
0.3076923076923077
 40
0.3076923076923077
 40
0.3076923076923077
 40
0.3846153846153846
 40
0.3846153846153846
 40
0.3846153846153846
 40
0.3846153846153846
 40
0.4615384615384616
 40
0.4615384615384616
 40
0.4615384615384616
 40
0.4615384615384616
 40
0.5384615384615384
 40
0.5384615384615384
 40
0.5384615384615384
 40
0.5384615384615384
 40
0.6153846153846154
 40
0.6153846153846154
 40
0.6153846153846154
 40
0.6153846153846154
 40
0.6923076923076923
 40
0.6923076923076923
 40
0.6923076923076923
 40
0.6923076923076923
 40
0.7692307692307693
 40
0.7692307692307693
 40
0.7692307692307693
 40
0.7692307692307693
 40
0.8461538461538461
 40
0.8461538461538461
 40
0.8461538461538461
 40
0.8461538461538461
 40
1.0
 40
1.0
 40
1.0
 40
1.0
 10
-87.5616
 20
-53.2586
 30
0.0
 10
-86.0947
 20
-49.9432
 30
0.0
 10
-84.2493
 20
-47.1797
 30
0.0
 10
-80.3492
 20
-45.4276
 30
0.0
 10
-80.3492
 20
-45.4276
 30
0.0
 10
-84.1387
 20
-44.0049
 30
0.0
 10
-84.0458
 20
-39.5562
 30
0.0
 10
-81.4822
 20
-37.7814
 30
0.0
 10
-81.4822
 20
-37.7814
 30
0.0
 10
-78.2448
 20
-35.5402
 30
0.0
 10
-74.7937
 20
-38.4276
 30
0.0
 10
-75.4491
 20
-41.3429
 30
0.0
 10
-75.4491
 20
-41.3429
 30
0.0
 10
-68.119
 20
-37.3523
 30
0.0
 10
-72.6195
 20
-23.3918
 30
0.0
 10
-82.4692
 20
-24.7656
 30
0.0
 10
-82.4692
 20
-24.7656
 30
0.0
 10
-81.8309
 20
-24.1454
 30
0.0
 10
-81.2803
 20
-23.5664
 30
0.0
 10
-81.202
 20
-22.7229
 30
0.0
 10
-81.202
 20
-22.7229
 30
0.0
 10
-84.7807
 20
-22.2447
 30
0.0
 10
-86.8705
 20
-19.2283
 30
0.0
 10
-87.5616
 20
-16.9501
 30
0.0
 10
-87.5616
 20
-16.9501
 30
0.0
 10
-88.2527
 20
-19.2283
 30
0.0
 10
-90.3425
 20
-22.2447
 30
0.0
 10
-93.9212
 20
-22.7229
 30
0.0
 10
-93.9212
 20
-22.7229
 30
0.0
 10
-93.8429
 20
-23.5664
 30
0.0
 10
-93.2923
 20
-24.1454
 30
0.0
 10
-92.654
 20
-24.7656
 30
0.0
 10
-92.654
 20
-24.7656
 30
0.0
 10
-102.5037
 20
-23.3918
 30
0.0
 10
-107.0042
 20
-37.3523
 30
0.0
 10
-99.6741
 20
-41.3429
 30
0.0
 10
-99.6741
 20
-41.3429
 30
0.0
 10
-100.3294
 20
-38.4276
 30
0.0
 10
-96.8783
 20
-35.5402
 30
0.0
 10
-93.641
 20
-37.7814
 30
0.0
 10
-93.641
 20
-37.7814
 30
0.0
 10
-91.0774
 20
-39.5562
 30
0.0
 10
-90.9845
 20
-44.0049
 30
0.0
 10
-94.774
 20
-45.4276
 30
0.0
 10
-94.774
 20
-45.4276
 30
0.0
 10
-90.8739
 20
-47.1797
 30
0.0
 10
-89.0285
 20
-49.9432
 30
0.0
 10
-87.5616
 20
-53.2586
 30
0.0
  0
SPLINE
  5
5A
330
1F
100
AcDbEntity
  8
layer 1
 62
     7
100
AcDbSpline
210
0.0
220
0.0
230
1.0
 70
    11
 71
     3
 72
    52
 73
    48
 74
     0
 42
0.0000000001
 43
0.0000000001
 12
1.0
 22
0.0
 32
0.0
 13
1.0
 23
0.0
 33
0.0
 40
0.0
 40
0.0
 40
0.0
 40
0.0
 40
0.0769230769230769
 40
0.0769230769230769
 40
0.0769230769230769
 40
0.0769230769230769
 40
0.1538461538461539
 40
0.1538461538461539
 40
0.1538461538461539
 40
0.1538461538461539
 40
0.2307692307692308
 40
0.2307692307692308
 40
0.2307692307692308
 40
0.2307692307692308
 40
0.3076923076923077
 40
0.3076923076923077
 40
0.3076923076923077
 40
0.3076923076923077
 40
0.3846153846153846
 40
0.3846153846153846
 40
0.3846153846153846
 40
0.3846153846153846
 40
0.4615384615384616
 40
0.4615384615384616
 40
0.4615384615384616
 40
0.4615384615384616
 40
0.5384615384615384
 40
0.5384615384615384
 40
0.5384615384615384
 40
0.5384615384615384
 40
0.6153846153846154
 40
0.6153846153846154
 40
0.6153846153846154
 40
0.6153846153846154
 40
0.6923076923076923
 40
0.6923076923076923
 40
0.6923076923076923
 40
0.6923076923076923
 40
0.7692307692307693
 40
0.7692307692307693
 40
0.7692307692307693
 40
0.7692307692307693
 40
0.8461538461538461
 40
0.8461538461538461
 40
0.8461538461538461
 40
0.8461538461538461
 40
1.0
 40
1.0
 40
1.0
 40
1.0
 10
-143.9709
 20
-76.0184
 30
0.0
 10
-142.5039
 20
-72.703
 30
0.0
 10
-140.6585
 20
-69.9395
 30
0.0
 10
-136.7584
 20
-68.1873
 30
0.0
 10
-136.7584
 20
-68.1873
 30
0.0
 10
-140.548
 20
-66.7647
 30
0.0
 10
-140.455
 20
-62.316
 30
0.0
 10
-137.8915
 20
-60.5412
 30
0.0
 10
-137.8915
 20
-60.5412
 30
0.0
 10
-134.6541
 20
-58.3
 30
0.0
 10
-131.203
 20
-61.1874
 30
0.0
 10
-131.8584
 20
-64.1027
 30
0.0
 10
-131.8584
 20
-64.1027
 30
0.0
 10
-124.5283
 20
-60.1121
 30
0.0
 10
-129.0288
 20
-46.1516
 30
0.0
 10
-138.8785
 20
-47.5254
 30
0.0
 10
-138.8785
 20
-47.5254
 30
0.0
 10
-138.2402
 20
-46.9052
 30
0.0
 10
-137.6895
 20
-46.3262
 30
0.0
 10
-137.6113
 20
-45.4827
 30
0.0
 10
-137.6113
 20
-45.4827
 30
0.0
 10
-141.1899
 20
-45.0045
 30
0.0
 10
-143.2798
 20
-41.9881
 30
0.0
 10
-143.9709
 20
-39.7099
 30
0.0
 10
-143.9709
 20
-39.7099
 30
0.0
 10
-144.662
 20
-41.9881
 30
0.0
 10
-146.7518
 20
-45.0045
 30
0.0
 10
-150.3304
 20
-45.4827
 30
0.0
 10
-150.3304
 20
-45.4827
 30
0.0
 10
-150.2522
 20
-46.3262
 30
0.0
 10
-149.7016
 20
-46.9052
 30
0.0
 10
-149.0632
 20
-47.5254
 30
0.0
 10
-149.0632
 20
-47.5254
 30
0.0
 10
-158.9129
 20
-46.1516
 30
0.0
 10
-163.4134
 20
-60.1121
 30
0.0
 10
-156.0834
 20
-64.1027
 30
0.0
 10
-156.0834
 20
-64.1027
 30
0.0
 10
-156.7387
 20
-61.1874
 30
0.0
 10
-153.2876
 20
-58.3
 30
0.0
 10
-150.0503
 20
-60.5412
 30
0.0
 10
-150.0503
 20
-60.5412
 30
0.0
 10
-147.4867
 20
-62.316
 30
0.0
 10
-147.3937
 20
-66.7647
 30
0.0
 10
-151.1833
 20
-68.1873
 30
0.0
 10
-151.1833
 20
-68.1873
 30
0.0
 10
-147.2832
 20
-69.9395
 30
0.0
 10
-145.4378
 20
-72.703
 30
0.0
 10
-143.9709
 20
-76.0184
 30
0.0
  0
SPLINE
  5
5B
330
1F
100
AcDbEntity
  8
layer 1
 62
     7
100
AcDbSpline
210
0.0
220
0.0
230
1.0
 70
    11
 71
     3
 72
    52
 73
    48
 74
     0
 42
0.0000000001
 43
0.0000000001
 12
1.0
 22
0.0
 32
0.0
 13
1.0
 23
0.0
 33
0.0
 40
0.0
 40
0.0
 40
0.0
 40
0.0
 40
0.0769230769230769
 40
0.0769230769230769
 40
0.0769230769230769
 40
0.0769230769230769
 40
0.1538461538461539
 40
0.1538461538461539
 40
0.1538461538461539
 40
0.1538461538461539
 40
0.2307692307692308
 40
0.2307692307692308
 40
0.2307692307692308
 40
0.2307692307692308
 40
0.3076923076923077
 40
0.3076923076923077
 40
0.3076923076923077
 40
0.3076923076923077
 40
0.3846153846153846
 40
0.3846153846153846
 40
0.3846153846153846
 40
0.3846153846153846
 40
0.4615384615384616
 40
0.4615384615384616
 40
0.4615384615384616
 40
0.4615384615384616
 40
0.5384615384615384
 40
0.5384615384615384
 40
0.5384615384615384
 40
0.5384615384615384
 40
0.6153846153846154
 40
0.6153846153846154
 40
0.6153846153846154
 40
0.6153846153846154
 40
0.6923076923076923
 40
0.6923076923076923
 40
0.6923076923076923
 40
0.6923076923076923
 40
0.7692307692307693
 40
0.7692307692307693
 40
0.7692307692307693
 40
0.7692307692307693
 40
0.8461538461538461
 40
0.8461538461538461
 40
0.8461538461538461
 40
0.8461538461538461
 40
1.0
 40
1.0
 40
1.0
 40
1.0
 10
-106.3873
 20
-76.0184
 30
0.0
 10
-104.9203
 20
-72.703
 30
0.0
 10
-103.0749
 20
-69.9395
 30
0.0
 10
-99.1748
 20
-68.1873
 30
0.0
 10
-99.1748
 20
-68.1873
 30
0.0
 10
-102.9644
 20
-66.7647
 30
0.0
 10
-102.8714
 20
-62.316
 30
0.0
 10
-100.3079
 20
-60.5412
 30
0.0
 10
-100.3079
 20
-60.5412
 30
0.0
 10
-97.0705
 20
-58.3
 30
0.0
 10
-93.6194
 20
-61.1874
 30
0.0
 10
-94.2748
 20
-64.1027
 30
0.0
 10
-94.2748
 20
-64.1027
 30
0.0
 10
-86.9447
 20
-60.1121
 30
0.0
 10
-91.4452
 20
-46.1516
 30
0.0
 10
-101.2949
 20
-47.5254
 30
0.0
 10
-101.2949
 20
-47.5254
 30
0.0
 10
-100.6566
 20
-46.9052
 30
0.0
 10
-100.1059
 20
-46.3262
 30
0.0
 10
-100.0277
 20
-45.4827
 30
0.0
 10
-100.0277
 20
-45.4827
 30
0.0
 10
-103.6063
 20
-45.0045
 30
0.0
 10
-105.6962
 20
-41.9881
 30
0.0
 10
-106.3873
 20
-39.7099
 30
0.0
 10
-106.3873
 20
-39.7099
 30
0.0
 10
-107.0784
 20
-41.9881
 30
0.0
 10
-109.1682
 20
-45.0045
 30
0.0
 10
-112.7468
 20
-45.4827
 30
0.0
 10
-112.7468
 20
-45.4827
 30
0.0
 10
-112.6686
 20
-46.3262
 30
0.0
 10
-112.118
 20
-46.9052
 30
0.0
 10
-111.4796
 20
-47.5254
 30
0.0
 10
-111.4796
 20
-47.5254
 30
0.0
 10
-121.3293
 20
-46.1516
 30
0.0
 10
-125.8298
 20
-60.1121
 30
0.0
 10
-118.4997
 20
-64.1027
 30
0.0
 10
-118.4997
 20
-64.1027
 30
0.0
 10
-119.1551
 20
-61.1874
 30
0.0
 10
-115.704
 20
-58.3
 30
0.0
 10
-112.4667
 20
-60.5412
 30
0.0
 10
-112.4667
 20
-60.5412
 30
0.0
 10
-109.9031
 20
-62.316
 30
0.0
 10
-109.8101
 20
-66.7647
 30
0.0
 10
-113.5997
 20
-68.1873
 30
0.0
 10
-113.5997
 20
-68.1873
 30
0.0
 10
-109.6996
 20
-69.9395
 30
0.0
 10
-107.8542
 20
-72.703
 30
0.0
 10
-106.3873
 20
-76.0184
 30
0.0
  0
SPLINE
  5
5C
330
1F
100
AcDbEntity
  8
layer 1
 62
     7
100
AcDbSpline
210
0.0
220
0.0
230
1.0
 70
    11
 71
     3
 72
    32
 73
    28
 74
     0
 42
0.0000000001
 43
0.0000000001
 12
1.0
 22
0.0
 32
0.0
 13
1.0
 23
0.0
 33
0.0
 40
0.0
 40
0.0
 40
0.0
 40
0.0
 40
0.125
 40
0.125
 40
0.125
 40
0.125
 40
0.25
 40
0.25
 40
0.25
 40
0.25
 40
0.375
 40
0.375
 40
0.375
 40
0.375
 40
0.5
 40
0.5
 40
0.5
 40
0.5
 40
0.625
 40
0.625
 40
0.625
 40
0.625
 40
0.75
 40
0.75
 40
0.75
 40
0.75
 40
1.0
 40
1.0
 40
1.0
 40
1.0
 10
-69.3029
 20
-76.0184
 30
0.0
 10
-69.3029
 20
-76.0184
 30
0.0
 10
-69.3029
 20
-39.7099
 30
0.0
 10
-69.3029
 20
-39.7099
 30
0.0
 10
-69.3029
 20
-39.7099
 30
0.0
 10
-69.994
 20
-41.9881
 30
0.0
 10
-72.0838
 20
-45.0045
 30
0.0
 10
-75.6625
 20
-45.4827
 30
0.0
 10
-75.6625
 20
-45.4827
 30
0.0
 10
-75.5842
 20
-46.3262
 30
0.0
 10
-75.0336
 20
-46.9052
 30
0.0
 10
-74.3953
 20
-47.5254
 30
0.0
 10
-74.3953
 20
-47.5254
 30
0.0
 10
-84.245
 20
-46.1516
 30
0.0
 10
-88.7455
 20
-60.1121
 30
0.0
 10
-81.4154
 20
-64.1027
 30
0.0
 10
-81.4154
 20
-64.1027
 30
0.0
 10
-82.0708
 20
-61.1874
 30
0.0
 10
-78.6197
 20
-58.3
 30
0.0
 10
-75.3823
 20
-60.5412
 30
0.0
 10
-75.3823
 20
-60.5412
 30
0.0
 10
-72.8187
 20
-62.316
 30
0.0
 10
-72.7258
 20
-66.7647
 30
0.0
 10
-76.5154
 20
-68.1873
 30
0.0
 10
-76.5154
 20
-68.1873
 30
0.0
 10
-72.6152
 20
-69.9395
 30
0.0
 10
-70.7698
 20
-72.703
 30
0.0
 10
-69.3029
 20
-76.0184
 30
0.0
  0
SPLINE
  5
5D
330
1F
100
AcDbEntity
  8
layer 1
 62
     7
100
AcDbSpline
210
0.0
220
0.0
230
1.0
 70
    11
 71
     3
 72
    32
 73
    28
 74
     0
 42
0.0000000001
 43
0.0000000001
 12
1.0
 22
0.0
 32
0.0
 13
1.0
 23
0.0
 33
0.0
 40
0.0
 40
0.0
 40
0.0
 40
0.0
 40
0.125
 40
0.125
 40
0.125
 40
0.125
 40
0.25
 40
0.25
 40
0.25
 40
0.25
 40
0.375
 40
0.375
 40
0.375
 40
0.375
 40
0.5
 40
0.5
 40
0.5
 40
0.5
 40
0.625
 40
0.625
 40
0.625
 40
0.625
 40
0.75
 40
0.75
 40
0.75
 40
0.75
 40
1.0
 40
1.0
 40
1.0
 40
1.0
 10
-181.5165
 20
-76.0184
 30
0.0
 10
-180.0496
 20
-72.703
 30
0.0
 10
-178.2042
 20
-69.9395
 30
0.0
 10
-174.3041
 20
-68.1873
 30
0.0
 10
-174.3041
 20
-68.1873
 30
0.0
 10
-178.0936
 20
-66.7647
 30
0.0
 10
-178.0007
 20
-62.316
 30
0.0
 10
-175.4371
 20
-60.5412
 30
0.0
 10
-175.4371
 20
-60.5412
 30
0.0
 10
-172.1997
 20
-58.3
 30
0.0
 10
-168.7487
 20
-61.1874
 30
0.0
 10
-169.404
 20
-64.1027
 30
0.0
 10
-169.404
 20
-64.1027
 30
0.0
 10
-162.0739
 20
-60.1121
 30
0.0
 10
-166.5744
 20
-46.1516
 30
0.0
 10
-176.4241
 20
-47.5254
 30
0.0
 10
-176.4241
 20
-47.5254
 30
0.0
 10
-175.7858
 20
-46.9052
 30
0.0
 10
-175.2352
 20
-46.3262
 30
0.0
 10
-175.1569
 20
-45.4827
 30
0.0
 10
-175.1569
 20
-45.4827
 30
0.0
 10
-178.7356
 20
-45.0045
 30
0.0
 10
-180.8254
 20
-41.9881
 30
0.0
 10
-181.5165
 20
-39.7099
 30
0.0
 10
-181.5165
 20
-39.7099
 30
0.0
 10
-181.5165
 20
-39.7099
 30
0.0
 10
-181.5165
 20
-76.0184
 30
0.0
 10
-181.5165
 20
-76.0184
 30
0.0
  0
SPLINE
  5
5E
330
1F
100
AcDbEntity
  8
layer 1
 62
     7
100
AcDbSpline
210
0.0
220
0.0
230
1.0
 70
    11
 71
     3
 72
    52
 73
    48
 74
     0
 42
0.0000000001
 43
0.0000000001
 12
1.0
 22
0.0
 32
0.0
 13
1.0
 23
0.0
 33
0.0
 40
0.0
 40
0.0
 40
0.0
 40
0.0
 40
0.0769230769230769
 40
0.0769230769230769
 40
0.0769230769230769
 40
0.0769230769230769
 40
0.1538461538461539
 40
0.1538461538461539
 40
0.1538461538461539
 40
0.1538461538461539
 40
0.2307692307692308
 40
0.2307692307692308
 40
0.2307692307692308
 40
0.2307692307692308
 40
0.3076923076923077
 40
0.3076923076923077
 40
0.3076923076923077
 40
0.3076923076923077
 40
0.3846153846153846
 40
0.3846153846153846
 40
0.3846153846153846
 40
0.3846153846153846
 40
0.4615384615384616
 40
0.4615384615384616
 40
0.4615384615384616
 40
0.4615384615384616
 40
0.5384615384615384
 40
0.5384615384615384
 40
0.5384615384615384
 40
0.5384615384615384
 40
0.6153846153846154
 40
0.6153846153846154
 40
0.6153846153846154
 40
0.6153846153846154
 40
0.6923076923076923
 40
0.6923076923076923
 40
0.6923076923076923
 40
0.6923076923076923
 40
0.7692307692307693
 40
0.7692307692307693
 40
0.7692307692307693
 40
0.7692307692307693
 40
0.8461538461538461
 40
0.8461538461538461
 40
0.8461538461538461
 40
0.8461538461538461
 40
1.0
 40
1.0
 40
1.0
 40
1.0
 10
-162.7524
 20
-98.9127
 30
0.0
 10
-161.2855
 20
-95.5972
 30
0.0
 10
-159.4401
 20
-92.8338
 30
0.0
 10
-155.54
 20
-91.0816
 30
0.0
 10
-155.54
 20
-91.0816
 30
0.0
 10
-159.3295
 20
-89.659
 30
0.0
 10
-159.2366
 20
-85.2103
 30
0.0
 10
-156.673
 20
-83.4355
 30
0.0
 10
-156.673
 20
-83.4355
 30
0.0
 10
-153.4357
 20
-81.1943
 30
0.0
 10
-149.9846
 20
-84.0817
 30
0.0
 10
-150.6399
 20
-86.9969
 30
0.0
 10
-150.6399
 20
-86.9969
 30
0.0
 10
-143.3098
 20
-83.0064
 30
0.0
 10
-147.8103
 20
-69.0459
 30
0.0
 10
-157.6601
 20
-70.4197
 30
0.0
 10
-157.6601
 20
-70.4197
 30
0.0
 10
-157.0217
 20
-69.7995
 30
0.0
 10
-156.4711
 20
-69.2205
 30
0.0
 10
-156.3928
 20
-68.377
 30
0.0
 10
-156.3928
 20
-68.377
 30
0.0
 10
-159.9715
 20
-67.8988
 30
0.0
 10
-162.0613
 20
-64.8824
 30
0.0
 10
-162.7524
 20
-62.6042
 30
0.0
 10
-162.7524
 20
-62.6042
 30
0.0
 10
-163.4435
 20
-64.8824
 30
0.0
 10
-165.5334
 20
-67.8988
 30
0.0
 10
-169.112
 20
-68.377
 30
0.0
 10
-169.112
 20
-68.377
 30
0.0
 10
-169.0337
 20
-69.2205
 30
0.0
 10
-168.4831
 20
-69.7995
 30
0.0
 10
-167.8448
 20
-70.4197
 30
0.0
 10
-167.8448
 20
-70.4197
 30
0.0
 10
-177.6945
 20
-69.0459
 30
0.0
 10
-182.195
 20
-83.0064
 30
0.0
 10
-174.8649
 20
-86.9969
 30
0.0
 10
-174.8649
 20
-86.9969
 30
0.0
 10
-175.5203
 20
-84.0817
 30
0.0
 10
-172.0692
 20
-81.1943
 30
0.0
 10
-168.8318
 20
-83.4355
 30
0.0
 10
-168.8318
 20
-83.4355
 30
0.0
 10
-166.2682
 20
-85.2103
 30
0.0
 10
-166.1753
 20
-89.659
 30
0.0
 10
-169.9649
 20
-91.0816
 30
0.0
 10
-169.9649
 20
-91.0816
 30
0.0
 10
-166.0647
 20
-92.8338
 30
0.0
 10
-164.2194
 20
-95.5972
 30
0.0
 10
-162.7524
 20
-98.9127
 30
0.0
  0
SPLINE
  5
5F
330
1F
100
AcDbEntity
  8
layer 1
 62
     7
100
AcDbSpline
210
0.0
220
0.0
230
1.0
 70
    11
 71
     3
 72
    52
 73
    48
 74
     0
 42
0.0000000001
 43
0.0000000001
 12
1.0
 22
0.0
 32
0.0
 13
1.0
 23
0.0
 33
0.0
 40
0.0
 40
0.0
 40
0.0
 40
0.0
 40
0.0769230769230769
 40
0.0769230769230769
 40
0.0769230769230769
 40
0.0769230769230769
 40
0.1538461538461539
 40
0.1538461538461539
 40
0.1538461538461539
 40
0.1538461538461539
 40
0.2307692307692308
 40
0.2307692307692308
 40
0.2307692307692308
 40
0.2307692307692308
 40
0.3076923076923077
 40
0.3076923076923077
 40
0.3076923076923077
 40
0.3076923076923077
 40
0.3846153846153846
 40
0.3846153846153846
 40
0.3846153846153846
 40
0.3846153846153846
 40
0.4615384615384616
 40
0.4615384615384616
 40
0.4615384615384616
 40
0.4615384615384616
 40
0.5384615384615384
 40
0.5384615384615384
 40
0.5384615384615384
 40
0.5384615384615384
 40
0.6153846153846154
 40
0.6153846153846154
 40
0.6153846153846154
 40
0.6153846153846154
 40
0.6923076923076923
 40
0.6923076923076923
 40
0.6923076923076923
 40
0.6923076923076923
 40
0.7692307692307693
 40
0.7692307692307693
 40
0.7692307692307693
 40
0.7692307692307693
 40
0.8461538461538461
 40
0.8461538461538461
 40
0.8461538461538461
 40
0.8461538461538461
 40
1.0
 40
1.0
 40
1.0
 40
1.0
 10
-125.1501
 20
-98.9127
 30
0.0
 10
-123.6831
 20
-95.5972
 30
0.0
 10
-121.8377
 20
-92.8338
 30
0.0
 10
-117.9376
 20
-91.0816
 30
0.0
 10
-117.9376
 20
-91.0816
 30
0.0
 10
-121.7272
 20
-89.659
 30
0.0
 10
-121.6343
 20
-85.2103
 30
0.0
 10
-119.0707
 20
-83.4355
 30
0.0
 10
-119.0707
 20
-83.4355
 30
0.0
 10
-115.8333
 20
-81.1943
 30
0.0
 10
-112.3822
 20
-84.0817
 30
0.0
 10
-113.0376
 20
-86.9969
 30
0.0
 10
-113.0376
 20
-86.9969
 30
0.0
 10
-105.7075
 20
-83.0064
 30
0.0
 10
-110.208
 20
-69.0459
 30
0.0
 10
-120.0577
 20
-70.4197
 30
0.0
 10
-120.0577
 20
-70.4197
 30
0.0
 10
-119.4194
 20
-69.7995
 30
0.0
 10
-118.8688
 20
-69.2205
 30
0.0
 10
-118.7905
 20
-68.377
 30
0.0
 10
-118.7905
 20
-68.377
 30
0.0
 10
-122.3691
 20
-67.8988
 30
0.0
 10
-124.459
 20
-64.8824
 30
0.0
 10
-125.1501
 20
-62.6042
 30
0.0
 10
-125.1501
 20
-62.6042
 30
0.0
 10
-125.8412
 20
-64.8824
 30
0.0
 10
-127.931
 20
-67.8988
 30
0.0
 10
-131.5097
 20
-68.377
 30
0.0
 10
-131.5097
 20
-68.377
 30
0.0
 10
-131.4314
 20
-69.2205
 30
0.0
 10
-130.8808
 20
-69.7995
 30
0.0
 10
-130.2424
 20
-70.4197
 30
0.0
 10
-130.2424
 20
-70.4197
 30
0.0
 10
-140.0922
 20
-69.0459
 30
0.0
 10
-144.5927
 20
-83.0064
 30
0.0
 10
-137.2626
 20
-86.9969
 30
0.0
 10
-137.2626
 20
-86.9969
 30
0.0
 10
-137.9179
 20
-84.0817
 30
0.0
 10
-134.4668
 20
-81.1943
 30
0.0
 10
-131.2295
 20
-83.4355
 30
0.0
 10
-131.2295
 20
-83.4355
 30
0.0
 10
-128.6659
 20
-85.2103
 30
0.0
 10
-128.573
 20
-89.659
 30
0.0
 10
-132.3625
 20
-91.0816
 30
0.0
 10
-132.3625
 20
-91.0816
 30
0.0
 10
-128.4624
 20
-92.8338
 30
0.0
 10
-126.617
 20
-95.5972
 30
0.0
 10
-125.1501
 20
-98.9127
 30
0.0
  0
SPLINE
  5
60
330
1F
100
AcDbEntity
  8
layer 1
 62
     7
100
AcDbSpline
210
0.0
220
0.0
230
1.0
 70
    11
 71
     3
 72
    52
 73
    48
 74
     0
 42
0.0000000001
 43
0.0000000001
 12
1.0
 22
0.0
 32
0.0
 13
1.0
 23
0.0
 33
0.0
 40
0.0
 40
0.0
 40
0.0
 40
0.0
 40
0.0769230769230769
 40
0.0769230769230769
 40
0.0769230769230769
 40
0.0769230769230769
 40
0.1538461538461539
 40
0.1538461538461539
 40
0.1538461538461539
 40
0.1538461538461539
 40
0.2307692307692308
 40
0.2307692307692308
 40
0.2307692307692308
 40
0.2307692307692308
 40
0.3076923076923077
 40
0.3076923076923077
 40
0.3076923076923077
 40
0.3076923076923077
 40
0.3846153846153846
 40
0.3846153846153846
 40
0.3846153846153846
 40
0.3846153846153846
 40
0.4615384615384616
 40
0.4615384615384616
 40
0.4615384615384616
 40
0.4615384615384616
 40
0.5384615384615384
 40
0.5384615384615384
 40
0.5384615384615384
 40
0.5384615384615384
 40
0.6153846153846154
 40
0.6153846153846154
 40
0.6153846153846154
 40
0.6153846153846154
 40
0.6923076923076923
 40
0.6923076923076923
 40
0.6923076923076923
 40
0.6923076923076923
 40
0.7692307692307693
 40
0.7692307692307693
 40
0.7692307692307693
 40
0.7692307692307693
 40
0.8461538461538461
 40
0.8461538461538461
 40
0.8461538461538461
 40
0.8461538461538461
 40
1.0
 40
1.0
 40
1.0
 40
1.0
 10
-87.5616
 20
-98.9127
 30
0.0
 10
-86.0947
 20
-95.5972
 30
0.0
 10
-84.2493
 20
-92.8338
 30
0.0
 10
-80.3492
 20
-91.0816
 30
0.0
 10
-80.3492
 20
-91.0816
 30
0.0
 10
-84.1387
 20
-89.659
 30
0.0
 10
-84.0458
 20
-85.2103
 30
0.0
 10
-81.4822
 20
-83.4355
 30
0.0
 10
-81.4822
 20
-83.4355
 30
0.0
 10
-78.2448
 20
-81.1943
 30
0.0
 10
-74.7937
 20
-84.0817
 30
0.0
 10
-75.4491
 20
-86.9969
 30
0.0
 10
-75.4491
 20
-86.9969
 30
0.0
 10
-68.119
 20
-83.0064
 30
0.0
 10
-72.6195
 20
-69.0459
 30
0.0
 10
-82.4692
 20
-70.4197
 30
0.0
 10
-82.4692
 20
-70.4197
 30
0.0
 10
-81.8309
 20
-69.7995
 30
0.0
 10
-81.2803
 20
-69.2205
 30
0.0
 10
-81.202
 20
-68.377
 30
0.0
 10
-81.202
 20
-68.377
 30
0.0
 10
-84.7807
 20
-67.8988
 30
0.0
 10
-86.8705
 20
-64.8824
 30
0.0
 10
-87.5616
 20
-62.6042
 30
0.0
 10
-87.5616
 20
-62.6042
 30
0.0
 10
-88.2527
 20
-64.8824
 30
0.0
 10
-90.3425
 20
-67.8988
 30
0.0
 10
-93.9212
 20
-68.377
 30
0.0
 10
-93.9212
 20
-68.377
 30
0.0
 10
-93.8429
 20
-69.2205
 30
0.0
 10
-93.2923
 20
-69.7995
 30
0.0
 10
-92.654
 20
-70.4197
 30
0.0
 10
-92.654
 20
-70.4197
 30
0.0
 10
-102.5037
 20
-69.0459
 30
0.0
 10
-107.0042
 20
-83.0064
 30
0.0
 10
-99.6741
 20
-86.9969
 30
0.0
 10
-99.6741
 20
-86.9969
 30
0.0
 10
-100.3294
 20
-84.0817
 30
0.0
 10
-96.8783
 20
-81.1943
 30
0.0
 10
-93.641
 20
-83.4355
 30
0.0
 10
-93.641
 20
-83.4355
 30
0.0
 10
-91.0774
 20
-85.2103
 30
0.0
 10
-90.9845
 20
-89.659
 30
0.0
 10
-94.774
 20
-91.0816
 30
0.0
 10
-94.774
 20
-91.0816
 30
0.0
 10
-90.8739
 20
-92.8338
 30
0.0
 10
-89.0285
 20
-95.5972
 30
0.0
 10
-87.5616
 20
-98.9127
 30
0.0
  0
SPLINE
  5
61
330
1F
100
AcDbEntity
  8
layer 1
 62
     7
100
AcDbSpline
210
0.0
220
0.0
230
1.0
 70
    11
 71
     3
 72
    32
 73
    28
 74
     0
 42
0.0000000001
 43
0.0000000001
 12
1.0
 22
0.0
 32
0.0
 13
1.0
 23
0.0
 33
0.0
 40
0.0
 40
0.0
 40
0.0
 40
0.0
 40
0.125
 40
0.125
 40
0.125
 40
0.125
 40
0.25
 40
0.25
 40
0.25
 40
0.25
 40
0.375
 40
0.375
 40
0.375
 40
0.375
 40
0.5
 40
0.5
 40
0.5
 40
0.5
 40
0.625
 40
0.625
 40
0.625
 40
0.625
 40
0.75
 40
0.75
 40
0.75
 40
0.75
 40
1.0
 40
1.0
 40
1.0
 40
1.0
 10
-128.7379
 20
-99.9974
 30
0.0
 10
-130.0328
 20
-95.9428
 30
0.0
 10
-133.7228
 20
-92.4605
 30
0.0
 10
-138.8785
 20
-93.1795
 30
0.0
 10
-138.8785
 20
-93.1795
 30
0.0
 10
-138.2402
 20
-92.5593
 30
0.0
 10
-137.6895
 20
-91.9803
 30
0.0
 10
-137.6113
 20
-91.1368
 30
0.0
 10
-137.6113
 20
-91.1368
 30
0.0
 10
-141.1899
 20
-90.6586
 30
0.0
 10
-143.2798
 20
-87.6422
 30
0.0
 10
-143.9709
 20
-85.364
 30
0.0
 10
-143.9709
 20
-85.364
 30
0.0
 10
-144.662
 20
-87.6422
 30
0.0
 10
-146.7518
 20
-90.6586
 30
0.0
 10
-150.3304
 20
-91.1368
 30
0.0
 10
-150.3304
 20
-91.1368
 30
0.0
 10
-150.2522
 20
-91.9803
 30
0.0
 10
-149.7016
 20
-92.5593
 30
0.0
 10
-149.0632
 20
-93.1795
 30
0.0
 10
-149.0632
 20
-93.1795
 30
0.0
 10
-154.2189
 20
-92.4605
 30
0.0
 10
-157.9089
 20
-95.9428
 30
0.0
 10
-159.2038
 20
-99.9974
 30
0.0
 10
-159.2038
 20
-99.9974
 30
0.0
 10
-159.2038
 20
-99.9974
 30
0.0
 10
-128.7379
 20
-99.9974
 30
0.0
 10
-128.7379
 20
-99.9974
 30
0.0
  0
SPLINE
  5
62
330
1F
100
AcDbEntity
  8
layer 1
 62
     7
100
AcDbSpline
210
0.0
220
0.0
230
1.0
 70
    11
 71
     3
 72
    32
 73
    28
 74
     0
 42
0.0000000001
 43
0.0000000001
 12
1.0
 22
0.0
 32
0.0
 13
1.0
 23
0.0
 33
0.0
 40
0.0
 40
0.0
 40
0.0
 40
0.0
 40
0.125
 40
0.125
 40
0.125
 40
0.125
 40
0.25
 40
0.25
 40
0.25
 40
0.25
 40
0.375
 40
0.375
 40
0.375
 40
0.375
 40
0.5
 40
0.5
 40
0.5
 40
0.5
 40
0.625
 40
0.625
 40
0.625
 40
0.625
 40
0.75
 40
0.75
 40
0.75
 40
0.75
 40
1.0
 40
1.0
 40
1.0
 40
1.0
 10
-91.1543
 20
-99.9974
 30
0.0
 10
-92.4492
 20
-95.9428
 30
0.0
 10
-96.1392
 20
-92.4605
 30
0.0
 10
-101.2949
 20
-93.1795
 30
0.0
 10
-101.2949
 20
-93.1795
 30
0.0
 10
-100.6566
 20
-92.5593
 30
0.0
 10
-100.1059
 20
-91.9803
 30
0.0
 10
-100.0277
 20
-91.1368
 30
0.0
 10
-100.0277
 20
-91.1368
 30
0.0
 10
-103.6063
 20
-90.6586
 30
0.0
 10
-105.6962
 20
-87.6422
 30
0.0
 10
-106.3873
 20
-85.364
 30
0.0
 10
-106.3873
 20
-85.364
 30
0.0
 10
-107.0784
 20
-87.6422
 30
0.0
 10
-109.1682
 20
-90.6586
 30
0.0
 10
-112.7468
 20
-91.1368
 30
0.0
 10
-112.7468
 20
-91.1368
 30
0.0
 10
-112.6686
 20
-91.9803
 30
0.0
 10
-112.118
 20
-92.5593
 30
0.0
 10
-111.4796
 20
-93.1795
 30
0.0
 10
-111.4796
 20
-93.1795
 30
0.0
 10
-116.6353
 20
-92.4605
 30
0.0
 10
-120.3253
 20
-95.9428
 30
0.0
 10
-121.6202
 20
-99.9974
 30
0.0
 10
-121.6202
 20
-99.9974
 30
0.0
 10
-121.6202
 20
-99.9974
 30
0.0
 10
-91.1543
 20
-99.9974
 30
0.0
 10
-91.1543
 20
-99.9974
 30
0.0
  0
SPLINE
  5
63
330
1F
100
AcDbEntity
  8
layer 1
 62
     7
100
AcDbSpline
210
0.0
220
0.0
230
1.0
 70
    11
 71
     3
 72
    24
 73
    20
 74
     0
 42
0.0000000001
 43
0.0000000001
 12
1.0
 22
0.0
 32
0.0
 13
1.0
 23
0.0
 33
0.0
 40
0.0
 40
0.0
 40
0.0
 40
0.0
 40
0.1666666666666667
 40
0.1666666666666667
 40
0.1666666666666667
 40
0.1666666666666667
 40
0.3333333333333333
 40
0.3333333333333333
 40
0.3333333333333333
 40
0.3333333333333333
 40
0.5
 40
0.5
 40
0.5
 40
0.5
 40
0.6666666666666666
 40
0.6666666666666666
 40
0.6666666666666666
 40
0.6666666666666666
 40
1.0
 40
1.0
 40
1.0
 40
1.0
 10
-69.3029
 20
-99.9361
 30
0.0
 10
-69.3029
 20
-99.9361
 30
0.0
 10
-69.3029
 20
-85.364
 30
0.0
 10
-69.3029
 20
-85.364
 30
0.0
 10
-69.3029
 20
-85.364
 30
0.0
 10
-69.994
 20
-87.6422
 30
0.0
 10
-72.0838
 20
-90.6586
 30
0.0
 10
-75.6625
 20
-91.1368
 30
0.0
 10
-75.6625
 20
-91.1368
 30
0.0
 10
-75.5842
 20
-91.9803
 30
0.0
 10
-75.0336
 20
-92.5593
 30
0.0
 10
-74.3953
 20
-93.1795
 30
0.0
 10
-74.3953
 20
-93.1795
 30
0.0
 10
-79.551
 20
-92.4605
 30
0.0
 10
-83.241
 20
-95.9428
 30
0.0
 10
-84.5359
 20
-99.9974
 30
0.0
 10
-84.5359
 20
-99.9974
 30
0.0
 10
-84.5359
 20
-99.9974
 30
0.0
 10
-69.3029
 20
-99.9361
 30
0.0
 10
-69.3029
 20
-99.9361
 30
0.0
  0
SPLINE
  5
64
330
1F
100
AcDbEntity
  8
layer 1
 62
     7
100
AcDbSpline
210
0.0
220
0.0
230
1.0
 70
    11
 71
     3
 72
    24
 73
    20
 74
     0
 42
0.0000000001
 43
0.0000000001
 12
1.0
 22
0.0
 32
0.0
 13
1.0
 23
0.0
 33
0.0
 40
0.0
 40
0.0
 40
0.0
 40
0.0
 40
0.1666666666666667
 40
0.1666666666666667
 40
0.1666666666666667
 40
0.1666666666666667
 40
0.3333333333333333
 40
0.3333333333333333
 40
0.3333333333333333
 40
0.3333333333333333
 40
0.5
 40
0.5
 40
0.5
 40
0.5
 40
0.6666666666666666
 40
0.6666666666666666
 40
0.6666666666666666
 40
0.6666666666666666
 40
1.0
 40
1.0
 40
1.0
 40
1.0
 10
-166.2835
 20
-99.9974
 30
0.0
 10
-167.5785
 20
-95.9428
 30
0.0
 10
-171.2685
 20
-92.4605
 30
0.0
 10
-176.4241
 20
-93.1795
 30
0.0
 10
-176.4241
 20
-93.1795
 30
0.0
 10
-175.7858
 20
-92.5593
 30
0.0
 10
-175.2352
 20
-91.9803
 30
0.0
 10
-175.1569
 20
-91.1368
 30
0.0
 10
-175.1569
 20
-91.1368
 30
0.0
 10
-178.7356
 20
-90.6586
 30
0.0
 10
-180.8254
 20
-87.6422
 30
0.0
 10
-181.5165
 20
-85.364
 30
0.0
 10
-181.5165
 20
-85.364
 30
0.0
 10
-181.5165
 20
-85.364
 30
0.0
 10
-181.5165
 20
-99.9361
 30
0.0
 10
-181.5165
 20
-99.9361
 30
0.0
 10
-181.5165
 20
-99.9361
 30
0.0
 10
-181.5165
 20
-99.9361
 30
0.0
 10
-166.2835
 20
-99.9974
 30
0.0
 10
-166.2835
 20
-99.9974
 30
0.0
  0
SPLINE
  5
65
330
1F
100
AcDbEntity
  8
layer 1
 62
     7
100
AcDbSpline
210
0.0
220
0.0
230
1.0
 70
    11
 71
     3
 72
    40
 73
    36
 74
     0
 42
0.0000000001
 43
0.0000000001
 12
1.0
 22
0.0
 32
0.0
 13
1.0
 23
0.0
 33
0.0
 40
0.0
 40
0.0
 40
0.0
 40
0.0
 40
0.1
 40
0.1
 40
0.1
 40
0.1
 40
0.2
 40
0.2
 40
0.2
 40
0.2
 40
0.3
 40
0.3
 40
0.3
 40
0.3
 40
0.4
 40
0.4
 40
0.4
 40
0.4
 40
0.5
 40
0.5
 40
0.5
 40
0.5
 40
0.6
 40
0.6
 40
0.6
 40
0.6
 40
0.7
 40
0.7
 40
0.7
 40
0.7
 40
0.8
 40
0.8
 40
0.8
 40
0.8
 40
1.0
 40
1.0
 40
1.0
 40
1.0
 10
-143.9709
 20
104.7071
 30
0.0
 10
-142.5039
 20
108.0226
 30
0.0
 10
-140.6585
 20
110.7861
 30
0.0
 10
-136.7584
 20
112.5382
 30
0.0
 10
-136.7584
 20
112.5382
 30
0.0
 10
-140.548
 20
113.9609
 30
0.0
 10
-140.455
 20
118.4096
 30
0.0
 10
-137.8915
 20
120.1844
 30
0.0
 10
-137.8915
 20
120.1844
 30
0.0
 10
-134.6541
 20
122.4256
 30
0.0
 10
-131.203
 20
119.5382
 30
0.0
 10
-131.8584
 20
116.6229
 30
0.0
 10
-131.8584
 20
116.6229
 30
0.0
 10
-128.6516
 20
118.3686
 30
0.0
 10
-127.7091
 20
122.023
 30
0.0
 10
-128.4882
 20
125.4664
 30
0.0
 10
-128.4882
 20
125.4664
 30
0.0
 10
-128.4882
 20
125.4664
 30
0.0
 10
-159.4535
 20
125.4664
 30
0.0
 10
-159.4535
 20
125.4664
 30
0.0
 10
-159.4535
 20
125.4664
 30
0.0
 10
-160.2326
 20
122.023
 30
0.0
 10
-159.2902
 20
118.3686
 30
0.0
 10
-156.0834
 20
116.6229
 30
0.0
 10
-156.0834
 20
116.6229
 30
0.0
 10
-156.7387
 20
119.5382
 30
0.0
 10
-153.2876
 20
122.4256
 30
0.0
 10
-150.0503
 20
120.1844
 30
0.0
 10
-150.0503
 20
120.1844
 30
0.0
 10
-147.4867
 20
118.4096
 30
0.0
 10
-147.3937
 20
113.9609
 30
0.0
 10
-151.1833
 20
112.5382
 30
0.0
 10
-151.1833
 20
112.5382
 30
0.0
 10
-147.2832
 20
110.7861
 30
0.0
 10
-145.4378
 20
108.0226
 30
0.0
 10
-143.9709
 20
104.7071
 30
0.0
  0
SPLINE
  5
66
330
1F
100
AcDbEntity
  8
layer 1
 62
     7
100
AcDbSpline
210
0.0
220
0.0
230
1.0
 70
    11
 71
     3
 72
    40
 73
    36
 74
     0
 42
0.0000000001
 43
0.0000000001
 12
1.0
 22
0.0
 32
0.0
 13
1.0
 23
0.0
 33
0.0
 40
0.0
 40
0.0
 40
0.0
 40
0.0
 40
0.1
 40
0.1
 40
0.1
 40
0.1
 40
0.2
 40
0.2
 40
0.2
 40
0.2
 40
0.3
 40
0.3
 40
0.3
 40
0.3
 40
0.4
 40
0.4
 40
0.4
 40
0.4
 40
0.5
 40
0.5
 40
0.5
 40
0.5
 40
0.6
 40
0.6
 40
0.6
 40
0.6
 40
0.7
 40
0.7
 40
0.7
 40
0.7
 40
0.8
 40
0.8
 40
0.8
 40
0.8
 40
1.0
 40
1.0
 40
1.0
 40
1.0
 10
-106.3873
 20
104.7071
 30
0.0
 10
-104.9203
 20
108.0226
 30
0.0
 10
-103.0749
 20
110.7861
 30
0.0
 10
-99.1748
 20
112.5382
 30
0.0
 10
-99.1748
 20
112.5382
 30
0.0
 10
-102.9644
 20
113.9609
 30
0.0
 10
-102.8714
 20
118.4096
 30
0.0
 10
-100.3079
 20
120.1844
 30
0.0
 10
-100.3079
 20
120.1844
 30
0.0
 10
-97.0705
 20
122.4256
 30
0.0
 10
-93.6194
 20
119.5382
 30
0.0
 10
-94.2748
 20
116.6229
 30
0.0
 10
-94.2748
 20
116.6229
 30
0.0
 10
-91.068
 20
118.3686
 30
0.0
 10
-90.1255
 20
122.023
 30
0.0
 10
-90.9046
 20
125.4664
 30
0.0
 10
-90.9046
 20
125.4664
 30
0.0
 10
-90.9046
 20
125.4664
 30
0.0
 10
-121.8699
 20
125.4664
 30
0.0
 10
-121.8699
 20
125.4664
 30
0.0
 10
-121.8699
 20
125.4664
 30
0.0
 10
-122.649
 20
122.023
 30
0.0
 10
-121.7066
 20
118.3686
 30
0.0
 10
-118.4997
 20
116.6229
 30
0.0
 10
-118.4997
 20
116.6229
 30
0.0
 10
-119.1551
 20
119.5382
 30
0.0
 10
-115.704
 20
122.4256
 30
0.0
 10
-112.4667
 20
120.1844
 30
0.0
 10
-112.4667
 20
120.1844
 30
0.0
 10
-109.9031
 20
118.4096
 30
0.0
 10
-109.8101
 20
113.9609
 30
0.0
 10
-113.5997
 20
112.5382
 30
0.0
 10
-113.5997
 20
112.5382
 30
0.0
 10
-109.6996
 20
110.7861
 30
0.0
 10
-107.8542
 20
108.0226
 30
0.0
 10
-106.3873
 20
104.7071
 30
0.0
  0
SPLINE
  5
67
330
1F
100
AcDbEntity
  8
layer 1
 62
     7
100
AcDbSpline
210
0.0
220
0.0
230
1.0
 70
    11
 71
     3
 72
    28
 73
    24
 74
     0
 42
0.0000000001
 43
0.0000000001
 12
1.0
 22
0.0
 32
0.0
 13
1.0
 23
0.0
 33
0.0
 40
0.0
 40
0.0
 40
0.0
 40
0.0
 40
0.1428571428571428
 40
0.1428571428571428
 40
0.1428571428571428
 40
0.1428571428571428
 40
0.2857142857142857
 40
0.2857142857142857
 40
0.2857142857142857
 40
0.2857142857142857
 40
0.4285714285714285
 40
0.4285714285714285
 40
0.4285714285714285
 40
0.4285714285714285
 40
0.5714285714285714
 40
0.5714285714285714
 40
0.5714285714285714
 40
0.5714285714285714
 40
0.7142857142857143
 40
0.7142857142857143
 40
0.7142857142857143
 40
0.7142857142857143
 40
1.0
 40
1.0
 40
1.0
 40
1.0
 10
-69.3029
 20
104.7071
 30
0.0
 10
-69.3029
 20
104.7071
 30
0.0
 10
-69.3029
 20
125.394
 30
0.0
 10
-69.3029
 20
125.394
 30
0.0
 10
-69.3029
 20
125.394
 30
0.0
 10
-69.3029
 20
125.394
 30
0.0
 10
-84.7855
 20
125.4664
 30
0.0
 10
-84.7855
 20
125.4664
 30
0.0
 10
-84.7855
 20
125.4664
 30
0.0
 10
-85.5647
 20
122.023
 30
0.0
 10
-84.6222
 20
118.3686
 30
0.0
 10
-81.4154
 20
116.6229
 30
0.0
 10
-81.4154
 20
116.6229
 30
0.0
 10
-82.0708
 20
119.5382
 30
0.0
 10
-78.6197
 20
122.4256
 30
0.0
 10
-75.3823
 20
120.1844
 30
0.0
 10
-75.3823
 20
120.1844
 30
0.0
 10
-72.8187
 20
118.4096
 30
0.0
 10
-72.7258
 20
113.9609
 30
0.0
 10
-76.5154
 20
112.5382
 30
0.0
 10
-76.5154
 20
112.5382
 30
0.0
 10
-72.6152
 20
110.7861
 30
0.0
 10
-70.7698
 20
108.0226
 30
0.0
 10
-69.3029
 20
104.7071
 30
0.0
  0
SPLINE
  5
68
330
1F
100
AcDbEntity
  8
layer 1
 62
     7
100
AcDbSpline
210
0.0
220
0.0
230
1.0
 70
    11
 71
     3
 72
    28
 73
    24
 74
     0
 42
0.0000000001
 43
0.0000000001
 12
1.0
 22
0.0
 32
0.0
 13
1.0
 23
0.0
 33
0.0
 40
0.0
 40
0.0
 40
0.0
 40
0.0
 40
0.1428571428571428
 40
0.1428571428571428
 40
0.1428571428571428
 40
0.1428571428571428
 40
0.2857142857142857
 40
0.2857142857142857
 40
0.2857142857142857
 40
0.2857142857142857
 40
0.4285714285714285
 40
0.4285714285714285
 40
0.4285714285714285
 40
0.4285714285714285
 40
0.5714285714285714
 40
0.5714285714285714
 40
0.5714285714285714
 40
0.5714285714285714
 40
0.7142857142857143
 40
0.7142857142857143
 40
0.7142857142857143
 40
0.7142857142857143
 40
1.0
 40
1.0
 40
1.0
 40
1.0
 10
-181.5165
 20
104.7071
 30
0.0
 10
-180.0496
 20
108.0226
 30
0.0
 10
-178.2042
 20
110.7861
 30
0.0
 10
-174.3041
 20
112.5382
 30
0.0
 10
-174.3041
 20
112.5382
 30
0.0
 10
-178.0936
 20
113.9609
 30
0.0
 10
-178.0007
 20
118.4096
 30
0.0
 10
-175.4371
 20
120.1844
 30
0.0
 10
-175.4371
 20
120.1844
 30
0.0
 10
-172.1997
 20
122.4256
 30
0.0
 10
-168.7487
 20
119.5382
 30
0.0
 10
-169.404
 20
116.6229
 30
0.0
 10
-169.404
 20
116.6229
 30
0.0
 10
-166.1972
 20
118.3686
 30
0.0
 10
-165.2547
 20
122.023
 30
0.0
 10
-166.0339
 20
125.4664
 30
0.0
 10
-166.0339
 20
125.4664
 30
0.0
 10
-166.0339
 20
125.4664
 30
0.0
 10
-181.5165
 20
125.433
 30
0.0
 10
-181.5165
 20
125.433
 30
0.0
 10
-181.5165
 20
125.433
 30
0.0
 10
-181.5165
 20
125.433
 30
0.0
 10
-181.5165
 20
104.7071
 30
0.0
 10
-181.5165
 20
104.7071
 30
0.0
  0
ENDSEC
  0
SECTION
  2
OBJECTS
  0
DICTIONARY
  5
C
330
0
100
AcDbDictionary
281
     1
  3
ACAD_GROUP
350
D
  3
ACAD_LAYOUT
350
1A
  3
ACAD_MATERIAL
350
3B
  3
ACAD_MLEADERSTYLE
350
8A
  3
ACAD_MLINESTYLE
350
17
  3
ACAD_PLOTSETTINGS
350
19
  3
ACAD_PLOTSTYLENAME
350
E
  3
ACAD_TABLESTYLE
350
89
  3
ACAD_VISUALSTYLE
350
2A
  0
DICTIONARY
  5
D
102
{ACAD_REACTORS
330
C
102
}
330
C
100
AcDbDictionary
281
     1
  0
DICTIONARY
  5
1A
102
{ACAD_REACTORS
330
C
102
}
330
C
100
AcDbDictionary
281
     1
  3
Layout1
350
1E
  3
Layout2
350
26
  3
Model
350
22
  0
DICTIONARY
  5
3B
102
{ACAD_REACTORS
330
C
102
}
330
C
100
AcDbDictionary
281
     1
  3
ByBlock
350
3D
  3
ByLayer
350
3C
  3
Global
350
3E
  0
DICTIONARY
  5
8A
102
{ACAD_REACTORS
330
C
102
}
330
C
100
AcDbDictionary
281
     1
  0
DICTIONARY
  5
17
102
{ACAD_REACTORS
330
C
102
}
330
C
100
AcDbDictionary
281
     1
  3
Standard
350
18
  0
DICTIONARY
  5
19
102
{ACAD_REACTORS
330
C
102
}
330
C
100
AcDbDictionary
281
     1
  0
ACDBDICTIONARYWDFLT
  5
E
102
{ACAD_REACTORS
330
C
102
}
330
C
100
AcDbDictionary
281
     1
  3
Normal
350
F
100
AcDbDictionaryWithDefault
340
F
  0
DICTIONARY
  5
89
102
{ACAD_REACTORS
330
C
102
}
330
C
100
AcDbDictionary
281
     1
  0
DICTIONARY
  5
2A
102
{ACAD_REACTORS
330
C
102
}
330
C
100
AcDbDictionary
281
     1
  3
2dWireframe
350
2F
  3
3D Hidden
350
31
  3
3dWireframe
350
30
  3
Basic
350
32
  3
Brighten
350
36
  3
ColorChange
350
3A
  3
Conceptual
350
34
  3
Dim
350
35
  3
Facepattern
350
39
  3
Flat
350
2B
  3
FlatWithEdges
350
2C
  3
Gouraud
350
2D
  3
GouraudWithEdges
350
2E
  3
Linepattern
350
38
  3
Realistic
350
33
  3
Thicken
350
37
  0
LAYOUT
  5
1E
102
{ACAD_REACTORS
330
1A
102
}
330
1A
100
AcDbPlotSettings
  1

  2
none_device
  4

  6

 40
0.0
 41
0.0
 42
0.0
 43
0.0
 44
0.0
 45
0.0
 46
0.0
 47
0.0
 48
0.0
 49
0.0
140
0.0
141
0.0
142
1.0
143
1.0
 70
   688
 72
     0
 73
     0
 74
     5
  7

 75
    16
 76
     0
 77
     2
 78
   300
147
1.0
148
0.0
149
0.0
100
AcDbLayout
  1
Layout1
 70
     1
 71
     1
 10
0.0
 20
0.0
 11
12.0
 21
9.0
 12
0.0
 22
0.0
 32
0.0
 14
1.000000000000000E+20
 24
1.000000000000000E+20
 34
1.000000000000000E+20
 15
-1.000000000000000E+20
 25
-1.000000000000000E+20
 35
-1.000000000000000E+20
146
0.0
 13
0.0
 23
0.0
 33
0.0
 16
1.0
 26
0.0
 36
0.0
 17
0.0
 27
1.0
 37
0.0
 76
     0
330
1B
  0
LAYOUT
  5
26
102
{ACAD_REACTORS
330
1A
102
}
330
1A
100
AcDbPlotSettings
  1

  2
none_device
  4

  6

 40
0.0
 41
0.0
 42
0.0
 43
0.0
 44
0.0
 45
0.0
 46
0.0
 47
0.0
 48
0.0
 49
0.0
140
0.0
141
0.0
142
1.0
143
1.0
 70
   688
 72
     0
 73
     0
 74
     5
  7

 75
    16
 76
     0
 77
     2
 78
   300
147
1.0
148
0.0
149
0.0
100
AcDbLayout
  1
Layout2
 70
     1
 71
     2
 10
0.0
 20
0.0
 11
0.0
 21
0.0
 12
0.0
 22
0.0
 32
0.0
 14
0.0
 24
0.0
 34
0.0
 15
0.0
 25
0.0
 35
0.0
146
0.0
 13
0.0
 23
0.0
 33
0.0
 16
1.0
 26
0.0
 36
0.0
 17
0.0
 27
1.0
 37
0.0
 76
     0
330
23
  0
LAYOUT
  5
22
102
{ACAD_REACTORS
330
1A
102
}
330
1A
100
AcDbPlotSettings
  1

  2
none_device
  4

  6

 40
0.0
 41
0.0
 42
0.0
 43
0.0
 44
0.0
 45
0.0
 46
0.0
 47
0.0
 48
0.0
 49
0.0
140
0.0
141
0.0
142
1.0
143
1.0
 70
  1712
 72
     0
 73
     0
 74
     0
  7

 75
     0
 76
     0
 77
     2
 78
   300
147
1.0
148
0.0
149
0.0
100
AcDbLayout
  1
Model
 70
     1
 71
     0
 10
0.0
 20
0.0
 11
12.0
 21
9.0
 12
0.0
 22
0.0
 32
0.0
 14
-187.411
 24
-106.3655
 34
0.0
 15
-63.4086
 25
131.8345
 35
0.0
146
0.0
 13
0.0
 23
0.0
 33
0.0
 16
1.0
 26
0.0
 36
0.0
 17
0.0
 27
1.0
 37
0.0
 76
     0
330
1F
331
29
  0
MATERIAL
  5
3D
102
{ACAD_REACTORS
330
3B
102
}
330
3B
100
AcDbMaterial
  1
ByBlock
 72
     1
 94
      127
  0
MATERIAL
  5
3C
102
{ACAD_REACTORS
330
3B
102
}
330
3B
100
AcDbMaterial
  1
ByLayer
 72
     1
 94
      127
  0
MATERIAL
  5
3E
102
{ACAD_REACTORS
330
3B
102
}
330
3B
100
AcDbMaterial
  1
Global
 72
     1
 94
      127
  0
MLINESTYLE
  5
18
102
{ACAD_REACTORS
330
17
102
}
330
17
100
AcDbMlineStyle
  2
Standard
 70
     0
  3

 62
   256
 51
90.0
 52
90.0
 71
     2
 49
0.5
 62
   256
  6
BYLAYER
 49
-0.5
 62
   256
  6
BYLAYER
  0
ACDBPLACEHOLDER
  5
F
102
{ACAD_REACTORS
330
E
102
}
330
E
  0
VISUALSTYLE
  5
2F
102
{ACAD_REACTORS
330
2A
102
}
102
{ACAD_XDICTIONARY
360
71
102
}
330
2A
100
AcDbVisualStyle
  2
2dWireframe
 70
     4
 71
     0
 72
     2
 73
     0
 90
        0
 40
-0.6
 41
-30.0
 62
     5
 63
     7
421
 16777215
 74
     1
 91
        4
 64
     7
 65
   257
 75
     1
175
     1
 42
1.0
 92
        0
 66
   257
 43
1.0
 76
     1
 77
     6
 78
     2
 67
     7
 79
     5
170
     0
171
     0
290
     0
174
     0
 93
        1
 44
0.0
173
     0
291
     0
 45
0.0
  0
VISUALSTYLE
  5
31
102
{ACAD_REACTORS
330
2A
102
}
102
{ACAD_XDICTIONARY
360
75
102
}
330
2A
100
AcDbVisualStyle
  2
3D Hidden
 70
     6
 71
     1
 72
     2
 73
     2
 90
        0
 40
-0.6
 41
-30.0
 62
     5
 63
     7
421
 16777215
 74
     2
 91
        2
 64
     7
 65
   257
 75
     2
175
     1
 42
40.0
 92
        0
 66
   257
 43
1.0
 76
     1
 77
     6
 78
     2
 67
     7
 79
     3
170
     0
171
     0
290
     0
174
     0
 93
        1
 44
0.0
173
     0
291
     0
 45
0.0
  0
VISUALSTYLE
  5
30
102
{ACAD_REACTORS
330
2A
102
}
102
{ACAD_XDICTIONARY
360
73
102
}
330
2A
100
AcDbVisualStyle
  2
3dWireframe
 70
     5
 71
     0
 72
     2
 73
     0
 90
        0
 40
-0.6
 41
-30.0
 62
     5
 63
     7
421
 16777215
 74
     1
 91
        4
 64
     7
 65
   257
 75
     1
175
     1
 42
1.0
 92
        0
 66
   257
 43
1.0
 76
     1
 77
     6
 78
     2
 67
     7
 79
     5
170
     0
171
     0
290
     0
174
     0
 93
        1
 44
0.0
173
     0
291
     0
 45
0.0
  0
VISUALSTYLE
  5
32
102
{ACAD_REACTORS
330
2A
102
}
102
{ACAD_XDICTIONARY
360
77
102
}
330
2A
100
AcDbVisualStyle
  2
Basic
 70
     7
 71
     1
 72
     0
 73
     1
 90
        0
 40
-0.6
 41
-30.0
 62
     5
 63
     7
421
 16777215
 74
     0
 91
        4
 64
     7
 65
   257
 75
     1
175
     1
 42
1.0
 92
        8
 66
     7
 43
1.0
 76
     1
 77
     6
 78
     2
 67
     7
 79
     5
170
     0
171
     0
290
     0
174
     0
 93
        1
 44
0.0
173
     0
291
     1
 45
0.0
  0
VISUALSTYLE
  5
36
102
{ACAD_REACTORS
330
2A
102
}
102
{ACAD_XDICTIONARY
360
7F
102
}
330
2A
100
AcDbVisualStyle
  2
Brighten
 70
    12
 71
     2
 72
     2
 73
     0
 90
        0
 40
-0.6
 41
-30.0
 62
     5
 63
     7
421
 16777215
 74
     1
 91
        4
 64
     7
 65
   257
 75
     1
175
     1
 42
1.0
 92
        8
 66
     7
 43
1.0
 76
     1
 77
     6
 78
     2
 67
     7
 79
     5
170
     0
171
     0
290
     0
174
     0
 93
        1
 44
50.0
173
     0
291
     1
 45
0.0
  0
VISUALSTYLE
  5
3A
102
{ACAD_REACTORS
330
2A
102
}
102
{ACAD_XDICTIONARY
360
87
102
}
330
2A
100
AcDbVisualStyle
  2
ColorChange
 70
    16
 71
     2
 72
     2
 73
     3
 90
        0
 40
-0.6
 41
-30.0
 62
     5
 63
     8
421
  8421504
 74
     1
 91
        4
 64
     7
 65
   257
 75
     1
175
     1
 42
1.0
 92
        8
 66
     8
424
  8421504
 43
1.0
 76
     1
 77
     6
 78
     2
 67
     7
 79
     5
170
     0
171
     0
290
     0
174
     0
 93
        1
 44
0.0
173
     0
291
     1
 45
0.0
  0
VISUALSTYLE
  5
34
102
{ACAD_REACTORS
330
2A
102
}
102
{ACAD_XDICTIONARY
360
7B
102
}
330
2A
100
AcDbVisualStyle
  2
Conceptual
 70
     9
 71
     3
 72
     2
 73
     0
 90
        0
 40
-0.6
 41
-30.0
 62
     5
 63
     7
421
 16777215
 74
     2
 91
        2
 64
     7
 65
   257
 75
     1
175
     1
 42
40.0
 92
        8
 66
     7
 43
1.0
 76
     1
 77
     6
 78
     2
 67
     7
 79
     3
170
     0
171
     0
290
     0
174
     0
 93
        1
 44
0.0
173
     0
291
     0
 45
0.0
  0
VISUALSTYLE
  5
35
102
{ACAD_REACTORS
330
2A
102
}
102
{ACAD_XDICTIONARY
360
7D
102
}
330
2A
100
AcDbVisualStyle
  2
Dim
 70
    11
 71
     2
 72
     2
 73
     0
 90
        0
 40
-0.6
 41
-30.0
 62
     5
 63
     7
421
 16777215
 74
     1
 91
        4
 64
     7
 65
   257
 75
     1
175
     1
 42
1.0
 92
        8
 66
     7
 43
1.0
 76
     1
 77
     6
 78
     2
 67
     7
 79
     5
170
     0
171
     0
290
     0
174
     0
 93
        1
 44
-50.0
173
     0
291
     1
 45
0.0
  0
VISUALSTYLE
  5
39
102
{ACAD_REACTORS
330
2A
102
}
102
{ACAD_XDICTIONARY
360
85
102
}
330
2A
100
AcDbVisualStyle
  2
Facepattern
 70
    15
 71
     2
 72
     2
 73
     0
 90
        0
 40
-0.6
 41
-30.0
 62
     5
 63
     7
421
 16777215
 74
     1
 91
        4
 64
     7
 65
   257
 75
     1
175
     1
 42
1.0
 92
        8
 66
     7
 43
1.0
 76
     1
 77
     6
 78
     2
 67
     7
 79
     5
170
     0
171
     0
290
     0
174
     0
 93
        1
 44
0.0
173
     0
291
     1
 45
0.0
  0
VISUALSTYLE
  5
2B
102
{ACAD_REACTORS
330
2A
102
}
102
{ACAD_XDICTIONARY
360
69
102
}
330
2A
100
AcDbVisualStyle
  2
Flat
 70
     0
 71
     2
 72
     1
 73
     1
 90
        2
 40
-0.6
 41
30.0
 62
     5
 63
     7
421
 16777215
 74
     0
 91
        4
 64
     7
 65
   257
 75
     1
175
     1
 42
1.0
 92
        8
 66
     7
 43
1.0
 76
     1
 77
     6
 78
     2
 67
     7
 79
     5
170
     0
171
     0
290
     0
174
     0
 93
       13
 44
0.0
173
     0
291
     1
 45
0.0
  0
VISUALSTYLE
  5
2C
102
{ACAD_REACTORS
330
2A
102
}
102
{ACAD_XDICTIONARY
360
6B
102
}
330
2A
100
AcDbVisualStyle
  2
FlatWithEdges
 70
     1
 71
     2
 72
     1
 73
     1
 90
        2
 40
-0.6
 41
30.0
 62
     5
 63
     7
421
 16777215
 74
     1
 91
        4
 64
     7
 65
   257
 75
     1
175
     1
 42
1.0
 92
        0
 66
   257
 43
1.0
 76
     1
 77
     6
 78
     2
 67
     7
 79
     5
170
     0
171
     0
290
     0
174
     0
 93
       13
 44
0.0
173
     0
291
     1
 45
0.0
  0
VISUALSTYLE
  5
2D
102
{ACAD_REACTORS
330
2A
102
}
102
{ACAD_XDICTIONARY
360
6D
102
}
330
2A
100
AcDbVisualStyle
  2
Gouraud
 70
     2
 71
     2
 72
     2
 73
     1
 90
        2
 40
-0.6
 41
30.0
 62
     5
 63
     7
421
 16777215
 74
     0
 91
        4
 64
     7
 65
   257
 75
     1
175
     1
 42
1.0
 92
        0
 66
     7
 43
1.0
 76
     1
 77
     6
 78
     2
 67
     7
 79
     5
170
     0
171
     0
290
     0
174
     0
 93
       13
 44
0.0
173
     0
291
     1
 45
0.0
  0
VISUALSTYLE
  5
2E
102
{ACAD_REACTORS
330
2A
102
}
102
{ACAD_XDICTIONARY
360
6F
102
}
330
2A
100
AcDbVisualStyle
  2
GouraudWithEdges
 70
     3
 71
     2
 72
     2
 73
     1
 90
        2
 40
-0.6
 41
30.0
 62
     5
 63
     7
421
 16777215
 74
     1
 91
        4
 64
     7
 65
   257
 75
     1
175
     1
 42
1.0
 92
        0
 66
   257
 43
1.0
 76
     1
 77
     6
 78
     2
 67
     7
 79
     5
170
     0
171
     0
290
     0
174
     0
 93
       13
 44
0.0
173
     0
291
     1
 45
0.0
  0
VISUALSTYLE
  5
38
102
{ACAD_REACTORS
330
2A
102
}
102
{ACAD_XDICTIONARY
360
83
102
}
330
2A
100
AcDbVisualStyle
  2
Linepattern
 70
    14
 71
     2
 72
     2
 73
     0
 90
        0
 40
-0.6
 41
-30.0
 62
     5
 63
     7
421
 16777215
 74
     1
 91
        4
 64
     7
 65
   257
 75
     7
175
     7
 42
1.0
 92
        8
 66
     7
 43
1.0
 76
     1
 77
     6
 78
     2
 67
     7
 79
     5
170
     0
171
     0
290
     0
174
     0
 93
        1
 44
0.0
173
     0
291
     1
 45
0.0
  0
VISUALSTYLE
  5
33
102
{ACAD_REACTORS
330
2A
102
}
102
{ACAD_XDICTIONARY
360
79
102
}
330
2A
100
AcDbVisualStyle
  2
Realistic
 70
     8
 71
     2
 72
     2
 73
     0
 90
        0
 40
-0.6
 41
-30.0
 62
     5
 63
     7
421
 16777215
 74
     1
 91
        0
 64
     7
 65
   257
 75
     1
175
     1
 42
1.0
 92
        8
 66
     8
424
  7895160
 43
1.0
 76
     1
 77
     6
 78
     2
 67
     7
 79
     5
170
     0
171
     0
290
     0
174
     0
 93
       13
 44
0.0
173
     0
291
     0
 45
0.0
  0
VISUALSTYLE
  5
37
102
{ACAD_REACTORS
330
2A
102
}
102
{ACAD_XDICTIONARY
360
81
102
}
330
2A
100
AcDbVisualStyle
  2
Thicken
 70
    13
 71
     2
 72
     2
 73
     0
 90
        0
 40
-0.6
 41
-30.0
 62
     5
 63
     7
421
 16777215
 74
     1
 91
        4
 64
     7
 65
   257
 75
     1
175
     1
 42
1.0
 92
       12
 66
     7
 43
1.0
 76
     1
 77
     6
 78
     2
 67
     7
 79
     5
170
     0
171
     0
290
     0
174
     0
 93
        1
 44
0.0
173
     0
291
     1
 45
0.0
  0
DICTIONARY
  5
71
330
2F
100
AcDbDictionary
280
     1
281
     1
  3
ACAD_XREC_ROUNDTRIP
360
72
  0
DICTIONARY
  5
75
330
31
100
AcDbDictionary
280
     1
281
     1
  3
ACAD_XREC_ROUNDTRIP
360
76
  0
DICTIONARY
  5
73
330
30
100
AcDbDictionary
280
     1
281
     1
  3
ACAD_XREC_ROUNDTRIP
360
74
  0
DICTIONARY
  5
77
330
32
100
AcDbDictionary
280
     1
281
     1
  3
ACAD_XREC_ROUNDTRIP
360
78
  0
DICTIONARY
  5
7F
330
36
100
AcDbDictionary
280
     1
281
     1
  3
ACAD_XREC_ROUNDTRIP
360
80
  0
DICTIONARY
  5
87
330
3A
100
AcDbDictionary
280
     1
281
     1
  3
ACAD_XREC_ROUNDTRIP
360
88
  0
DICTIONARY
  5
7B
330
34
100
AcDbDictionary
280
     1
281
     1
  3
ACAD_XREC_ROUNDTRIP
360
7C
  0
DICTIONARY
  5
7D
330
35
100
AcDbDictionary
280
     1
281
     1
  3
ACAD_XREC_ROUNDTRIP
360
7E
  0
DICTIONARY
  5
85
330
39
100
AcDbDictionary
280
     1
281
     1
  3
ACAD_XREC_ROUNDTRIP
360
86
  0
DICTIONARY
  5
69
330
2B
100
AcDbDictionary
280
     1
281
     1
  3
ACAD_XREC_ROUNDTRIP
360
6A
  0
DICTIONARY
  5
6B
330
2C
100
AcDbDictionary
280
     1
281
     1
  3
ACAD_XREC_ROUNDTRIP
360
6C
  0
DICTIONARY
  5
6D
330
2D
100
AcDbDictionary
280
     1
281
     1
  3
ACAD_XREC_ROUNDTRIP
360
6E
  0
DICTIONARY
  5
6F
330
2E
100
AcDbDictionary
280
     1
281
     1
  3
ACAD_XREC_ROUNDTRIP
360
70
  0
DICTIONARY
  5
83
330
38
100
AcDbDictionary
280
     1
281
     1
  3
ACAD_XREC_ROUNDTRIP
360
84
  0
DICTIONARY
  5
79
330
33
100
AcDbDictionary
280
     1
281
     1
  3
ACAD_XREC_ROUNDTRIP
360
7A
  0
DICTIONARY
  5
81
330
37
100
AcDbDictionary
280
     1
281
     1
  3
ACAD_XREC_ROUNDTRIP
360
82
  0
XRECORD
  5
72
102
{ACAD_REACTORS
330
71
102
}
330
71
100
AcDbXrecord
280
     1
102
RTVSPropertyOp0
 70
     1
102
RTVSPropertyOp1
 70
     1
102
RTVSPropertyOp2
 70
     1
102
RTVSPropertyOp3
 70
     1
102
RTVSPropertyOp4
 70
     1
102
RTVSPropertyOp5
 70
     1
102
RTVSPropertyOp6
 70
     1
102
RTVSPropertyOp7
 70
     1
102
RTVSPropertyOp8
 70
     1
102
RTVSPropertyOp9
 70
     1
102
RTVSPropertyOp10
 70
     1
102
RTVSPropertyOp11
 70
     1
102
RTVSPropertyOp12
 70
     1
102
RTVSPropertyOp13
 70
     1
102
RTVSPropertyOp14
 70
     1
102
RTVSPropertyOp15
 70
     1
102
RTVSPropertyOp16
 70
     1
102
RTVSPropertyOp17
 70
     1
102
RTVSPropertyOp18
 70
     1
102
RTVSPropertyOp19
 70
     1
102
RTVSPropertyOp20
 70
     1
102
RTVSPropertyOp21
 70
     1
102
RTVSPropertyOp22
 70
     1
102
RTVSPropertyOp23
 70
     1
102
RTVSPropertyOp24
 70
     1
102
RTVSPropertyOp25
 70
     1
102
RTVSPropertyOp26
 70
     1
102
RTVSPropertyOp27
 70
     1
102
RTVSPropertyOp28
 70
     1
102
RTVSPropertyOp29
 70
     1
102
RTVSPropertyOp30
 70
     1
102
RTVSPropertyOp31
 70
     1
102
RTVSPropertyOp32
 70
     1
  0
XRECORD
  5
76
102
{ACAD_REACTORS
330
75
102
}
330
75
100
AcDbXrecord
280
     1
102
RTVSPropertyOp0
 70
     1
102
RTVSPropertyOp1
 70
     1
102
RTVSPropertyOp2
 70
     1
102
RTVSPropertyOp3
 70
     1
102
RTVSPropertyOp4
 70
     1
102
RTVSPropertyOp5
 70
     1
102
RTVSPropertyOp6
 70
     1
102
RTVSPropertyOp7
 70
     1
102
RTVSPropertyOp8
 70
     1
102
RTVSPropertyOp9
 70
     1
102
RTVSPropertyOp10
 70
     1
102
RTVSPropertyOp11
 70
     1
102
RTVSPropertyOp12
 70
     1
102
RTVSPropertyOp13
 70
     1
102
RTVSPropertyOp14
 70
     1
102
RTVSPropertyOp15
 70
     1
102
RTVSPropertyOp16
 70
     1
102
RTVSPropertyOp17
 70
     1
102
RTVSPropertyOp18
 70
     1
102
RTVSPropertyOp19
 70
     1
102
RTVSPropertyOp20
 70
     1
102
RTVSPropertyOp21
 70
     1
102
RTVSPropertyOp22
 70
     1
102
RTVSPropertyOp23
 70
     1
102
RTVSPropertyOp24
 70
     1
102
RTVSPropertyOp25
 70
     1
102
RTVSPropertyOp26
 70
     1
102
RTVSPropertyOp27
 70
     1
102
RTVSPropertyOp28
 70
     1
102
RTVSPropertyOp29
 70
     1
102
RTVSPropertyOp30
 70
     1
102
RTVSPropertyOp31
 70
     1
102
RTVSPropertyOp32
 70
     1
  0
XRECORD
  5
74
102
{ACAD_REACTORS
330
73
102
}
330
73
100
AcDbXrecord
280
     1
102
RTVSPropertyOp0
 70
     1
102
RTVSPropertyOp1
 70
     1
102
RTVSPropertyOp2
 70
     1
102
RTVSPropertyOp3
 70
     1
102
RTVSPropertyOp4
 70
     1
102
RTVSPropertyOp5
 70
     1
102
RTVSPropertyOp6
 70
     1
102
RTVSPropertyOp7
 70
     1
102
RTVSPropertyOp8
 70
     1
102
RTVSPropertyOp9
 70
     1
102
RTVSPropertyOp10
 70
     1
102
RTVSPropertyOp11
 70
     1
102
RTVSPropertyOp12
 70
     1
102
RTVSPropertyOp13
 70
     1
102
RTVSPropertyOp14
 70
     1
102
RTVSPropertyOp15
 70
     1
102
RTVSPropertyOp16
 70
     1
102
RTVSPropertyOp17
 70
     1
102
RTVSPropertyOp18
 70
     1
102
RTVSPropertyOp19
 70
     1
102
RTVSPropertyOp20
 70
     1
102
RTVSPropertyOp21
 70
     1
102
RTVSPropertyOp22
 70
     1
102
RTVSPropertyOp23
 70
     1
102
RTVSPropertyOp24
 70
     1
102
RTVSPropertyOp25
 70
     1
102
RTVSPropertyOp26
 70
     1
102
RTVSPropertyOp27
 70
     1
102
RTVSPropertyOp28
 70
     1
102
RTVSPropertyOp29
 70
     1
102
RTVSPropertyOp30
 70
     1
102
RTVSPropertyOp31
 70
     1
102
RTVSPropertyOp32
 70
     1
  0
XRECORD
  5
78
102
{ACAD_REACTORS
330
77
102
}
330
77
100
AcDbXrecord
280
     1
102
RTVSPropertyOp0
 70
     1
102
RTVSPropertyOp1
 70
     1
102
RTVSPropertyOp2
 70
     1
102
RTVSPropertyOp3
 70
     1
102
RTVSPropertyOp4
 70
     1
102
RTVSPropertyOp5
 70
     1
102
RTVSPropertyOp6
 70
     1
102
RTVSPropertyOp7
 70
     1
102
RTVSPropertyOp8
 70
     1
102
RTVSPropertyOp9
 70
     1
102
RTVSPropertyOp10
 70
     1
102
RTVSPropertyOp11
 70
     1
102
RTVSPropertyOp12
 70
     1
102
RTVSPropertyOp13
 70
     1
102
RTVSPropertyOp14
 70
     1
102
RTVSPropertyOp15
 70
     1
102
RTVSPropertyOp16
 70
     1
102
RTVSPropertyOp17
 70
     1
102
RTVSPropertyOp18
 70
     1
102
RTVSPropertyOp19
 70
     1
102
RTVSPropertyOp20
 70
     1
102
RTVSPropertyOp21
 70
     1
102
RTVSPropertyOp22
 70
     1
102
RTVSPropertyOp23
 70
     1
102
RTVSPropertyOp24
 70
     1
102
RTVSPropertyOp25
 70
     1
102
RTVSPropertyOp26
 70
     1
102
RTVSPropertyOp27
 70
     1
102
RTVSPropertyOp28
 70
     1
102
RTVSPropertyOp29
 70
     1
102
RTVSPropertyOp30
 70
     1
102
RTVSPropertyOp31
 70
     1
102
RTVSPropertyOp32
 70
     1
  0
XRECORD
  5
80
102
{ACAD_REACTORS
330
7F
102
}
330
7F
100
AcDbXrecord
280
     1
102
RTVSPropertyOp0
 70
     1
102
RTVSPropertyOp1
 70
     1
102
RTVSPropertyOp2
 70
     1
102
RTVSPropertyOp3
 70
     1
102
RTVSPropertyOp4
 70
     1
102
RTVSPropertyOp5
 70
     1
102
RTVSPropertyOp6
 70
     1
102
RTVSPropertyOp7
 70
     1
102
RTVSPropertyOp8
 70
     1
102
RTVSPropertyOp9
 70
     1
102
RTVSPropertyOp10
 70
     1
102
RTVSPropertyOp11
 70
     1
102
RTVSPropertyOp12
 70
     1
102
RTVSPropertyOp13
 70
     1
102
RTVSPropertyOp14
 70
     1
102
RTVSPropertyOp15
 70
     1
102
RTVSPropertyOp16
 70
     1
102
RTVSPropertyOp17
 70
     1
102
RTVSPropertyOp18
 70
     1
102
RTVSPropertyOp19
 70
     1
102
RTVSPropertyOp20
 70
     1
102
RTVSPropertyOp21
 70
     1
102
RTVSPropertyOp22
 70
     1
102
RTVSPropertyOp23
 70
     1
102
RTVSPropertyOp24
 70
     1
102
RTVSPropertyOp25
 70
     1
102
RTVSPropertyOp26
 70
     1
102
RTVSPropertyOp27
 70
     1
102
RTVSPropertyOp28
 70
     1
102
RTVSPropertyOp29
 70
     1
102
RTVSPropertyOp30
 70
     1
102
RTVSPropertyOp31
 70
     1
102
RTVSPropertyOp32
 70
     1
  0
XRECORD
  5
88
102
{ACAD_REACTORS
330
87
102
}
330
87
100
AcDbXrecord
280
     1
102
RTVSPropertyOp0
 70
     1
102
RTVSPropertyOp1
 70
     1
102
RTVSPropertyOp2
 70
     1
102
RTVSPropertyOp3
 70
     1
102
RTVSPropertyOp4
 70
     1
102
RTVSPropertyOp5
 70
     1
102
RTVSPropertyOp6
 70
     1
102
RTVSPropertyOp7
 70
     1
102
RTVSPropertyOp8
 70
     1
102
RTVSPropertyOp9
 70
     1
102
RTVSPropertyOp10
 70
     1
102
RTVSPropertyOp11
 70
     1
102
RTVSPropertyOp12
 70
     1
102
RTVSPropertyOp13
 70
     1
102
RTVSPropertyOp14
 70
     1
102
RTVSPropertyOp15
 70
     1
102
RTVSPropertyOp16
 70
     1
102
RTVSPropertyOp17
 70
     1
102
RTVSPropertyOp18
 70
     1
102
RTVSPropertyOp19
 70
     1
102
RTVSPropertyOp20
 70
     1
102
RTVSPropertyOp21
 70
     1
102
RTVSPropertyOp22
 70
     1
102
RTVSPropertyOp23
 70
     1
102
RTVSPropertyOp24
 70
     1
102
RTVSPropertyOp25
 70
     1
102
RTVSPropertyOp26
 70
     1
102
RTVSPropertyOp27
 70
     1
102
RTVSPropertyOp28
 70
     1
102
RTVSPropertyOp29
 70
     1
102
RTVSPropertyOp30
 70
     1
102
RTVSPropertyOp31
 70
     1
102
RTVSPropertyOp32
 70
     1
  0
XRECORD
  5
7C
102
{ACAD_REACTORS
330
7B
102
}
330
7B
100
AcDbXrecord
280
     1
102
RTVSPropertyOp0
 70
     1
102
RTVSPropertyOp1
 70
     1
102
RTVSPropertyOp2
 70
     1
102
RTVSPropertyOp3
 70
     1
102
RTVSPropertyOp4
 70
     1
102
RTVSPropertyOp5
 70
     1
102
RTVSPropertyOp6
 70
     1
102
RTVSPropertyOp7
 70
     1
102
RTVSPropertyOp8
 70
     1
102
RTVSPropertyOp9
 70
     1
102
RTVSPropertyOp10
 70
     1
102
RTVSPropertyOp11
 70
     1
102
RTVSPropertyOp12
 70
     1
102
RTVSPropertyOp13
 70
     1
102
RTVSPropertyOp14
 70
     1
102
RTVSPropertyOp15
 70
     1
102
RTVSPropertyOp16
 70
     1
102
RTVSPropertyOp17
 70
     1
102
RTVSPropertyOp18
 70
     1
102
RTVSPropertyOp19
 70
     1
102
RTVSPropertyOp20
 70
     1
102
RTVSPropertyOp21
 70
     1
102
RTVSPropertyOp22
 70
     1
102
RTVSPropertyOp23
 70
     1
102
RTVSPropertyOp24
 70
     1
102
RTVSPropertyOp25
 70
     1
102
RTVSPropertyOp26
 70
     1
102
RTVSPropertyOp27
 70
     1
102
RTVSPropertyOp28
 70
     1
102
RTVSPropertyOp29
 70
     1
102
RTVSPropertyOp30
 70
     1
102
RTVSPropertyOp31
 70
     1
102
RTVSPropertyOp32
 70
     1
  0
XRECORD
  5
7E
102
{ACAD_REACTORS
330
7D
102
}
330
7D
100
AcDbXrecord
280
     1
102
RTVSPropertyOp0
 70
     1
102
RTVSPropertyOp1
 70
     1
102
RTVSPropertyOp2
 70
     1
102
RTVSPropertyOp3
 70
     1
102
RTVSPropertyOp4
 70
     1
102
RTVSPropertyOp5
 70
     1
102
RTVSPropertyOp6
 70
     1
102
RTVSPropertyOp7
 70
     1
102
RTVSPropertyOp8
 70
     1
102
RTVSPropertyOp9
 70
     1
102
RTVSPropertyOp10
 70
     1
102
RTVSPropertyOp11
 70
     1
102
RTVSPropertyOp12
 70
     1
102
RTVSPropertyOp13
 70
     1
102
RTVSPropertyOp14
 70
     1
102
RTVSPropertyOp15
 70
     1
102
RTVSPropertyOp16
 70
     1
102
RTVSPropertyOp17
 70
     1
102
RTVSPropertyOp18
 70
     1
102
RTVSPropertyOp19
 70
     1
102
RTVSPropertyOp20
 70
     1
102
RTVSPropertyOp21
 70
     1
102
RTVSPropertyOp22
 70
     1
102
RTVSPropertyOp23
 70
     1
102
RTVSPropertyOp24
 70
     1
102
RTVSPropertyOp25
 70
     1
102
RTVSPropertyOp26
 70
     1
102
RTVSPropertyOp27
 70
     1
102
RTVSPropertyOp28
 70
     1
102
RTVSPropertyOp29
 70
     1
102
RTVSPropertyOp30
 70
     1
102
RTVSPropertyOp31
 70
     1
102
RTVSPropertyOp32
 70
     1
  0
XRECORD
  5
86
102
{ACAD_REACTORS
330
85
102
}
330
85
100
AcDbXrecord
280
     1
102
RTVSPropertyOp0
 70
     1
102
RTVSPropertyOp1
 70
     1
102
RTVSPropertyOp2
 70
     1
102
RTVSPropertyOp3
 70
     1
102
RTVSPropertyOp4
 70
     1
102
RTVSPropertyOp5
 70
     1
102
RTVSPropertyOp6
 70
     1
102
RTVSPropertyOp7
 70
     1
102
RTVSPropertyOp8
 70
     1
102
RTVSPropertyOp9
 70
     1
102
RTVSPropertyOp10
 70
     1
102
RTVSPropertyOp11
 70
     1
102
RTVSPropertyOp12
 70
     1
102
RTVSPropertyOp13
 70
     1
102
RTVSPropertyOp14
 70
     1
102
RTVSPropertyOp15
 70
     1
102
RTVSPropertyOp16
 70
     1
102
RTVSPropertyOp17
 70
     1
102
RTVSPropertyOp18
 70
     1
102
RTVSPropertyOp19
 70
     1
102
RTVSPropertyOp20
 70
     1
102
RTVSPropertyOp21
 70
     1
102
RTVSPropertyOp22
 70
     1
102
RTVSPropertyOp23
 70
     1
102
RTVSPropertyOp24
 70
     1
102
RTVSPropertyOp25
 70
     1
102
RTVSPropertyOp26
 70
     1
102
RTVSPropertyOp27
 70
     1
102
RTVSPropertyOp28
 70
     1
102
RTVSPropertyOp29
 70
     1
102
RTVSPropertyOp30
 70
     1
102
RTVSPropertyOp31
 70
     1
102
RTVSPropertyOp32
 70
     1
  0
XRECORD
  5
6A
102
{ACAD_REACTORS
330
69
102
}
330
69
100
AcDbXrecord
280
     1
102
RTVSPropertyOp0
 70
     1
102
RTVSPropertyOp1
 70
     1
102
RTVSPropertyOp2
 70
     1
102
RTVSPropertyOp3
 70
     1
102
RTVSPropertyOp4
 70
     1
102
RTVSPropertyOp5
 70
     1
102
RTVSPropertyOp6
 70
     1
102
RTVSPropertyOp7
 70
     1
102
RTVSPropertyOp8
 70
     1
102
RTVSPropertyOp9
 70
     1
102
RTVSPropertyOp10
 70
     1
102
RTVSPropertyOp11
 70
     1
102
RTVSPropertyOp12
 70
     1
102
RTVSPropertyOp13
 70
     1
102
RTVSPropertyOp14
 70
     1
102
RTVSPropertyOp15
 70
     1
102
RTVSPropertyOp16
 70
     1
102
RTVSPropertyOp17
 70
     1
102
RTVSPropertyOp18
 70
     1
102
RTVSPropertyOp19
 70
     1
102
RTVSPropertyOp20
 70
     1
102
RTVSPropertyOp21
 70
     1
102
RTVSPropertyOp22
 70
     1
102
RTVSPropertyOp23
 70
     1
102
RTVSPropertyOp24
 70
     1
102
RTVSPropertyOp25
 70
     1
102
RTVSPropertyOp26
 70
     1
102
RTVSPropertyOp27
 70
     1
102
RTVSPropertyOp28
 70
     1
102
RTVSPropertyOp29
 70
     1
102
RTVSPropertyOp30
 70
     1
102
RTVSPropertyOp31
 70
     1
102
RTVSPropertyOp32
 70
     1
  0
XRECORD
  5
6C
102
{ACAD_REACTORS
330
6B
102
}
330
6B
100
AcDbXrecord
280
     1
102
RTVSPropertyOp0
 70
     1
102
RTVSPropertyOp1
 70
     1
102
RTVSPropertyOp2
 70
     1
102
RTVSPropertyOp3
 70
     1
102
RTVSPropertyOp4
 70
     1
102
RTVSPropertyOp5
 70
     1
102
RTVSPropertyOp6
 70
     1
102
RTVSPropertyOp7
 70
     1
102
RTVSPropertyOp8
 70
     1
102
RTVSPropertyOp9
 70
     1
102
RTVSPropertyOp10
 70
     1
102
RTVSPropertyOp11
 70
     1
102
RTVSPropertyOp12
 70
     1
102
RTVSPropertyOp13
 70
     1
102
RTVSPropertyOp14
 70
     1
102
RTVSPropertyOp15
 70
     1
102
RTVSPropertyOp16
 70
     1
102
RTVSPropertyOp17
 70
     1
102
RTVSPropertyOp18
 70
     1
102
RTVSPropertyOp19
 70
     1
102
RTVSPropertyOp20
 70
     1
102
RTVSPropertyOp21
 70
     1
102
RTVSPropertyOp22
 70
     1
102
RTVSPropertyOp23
 70
     1
102
RTVSPropertyOp24
 70
     1
102
RTVSPropertyOp25
 70
     1
102
RTVSPropertyOp26
 70
     1
102
RTVSPropertyOp27
 70
     1
102
RTVSPropertyOp28
 70
     1
102
RTVSPropertyOp29
 70
     1
102
RTVSPropertyOp30
 70
     1
102
RTVSPropertyOp31
 70
     1
102
RTVSPropertyOp32
 70
     1
  0
XRECORD
  5
6E
102
{ACAD_REACTORS
330
6D
102
}
330
6D
100
AcDbXrecord
280
     1
102
RTVSPropertyOp0
 70
     1
102
RTVSPropertyOp1
 70
     1
102
RTVSPropertyOp2
 70
     1
102
RTVSPropertyOp3
 70
     1
102
RTVSPropertyOp4
 70
     1
102
RTVSPropertyOp5
 70
     1
102
RTVSPropertyOp6
 70
     1
102
RTVSPropertyOp7
 70
     1
102
RTVSPropertyOp8
 70
     1
102
RTVSPropertyOp9
 70
     1
102
RTVSPropertyOp10
 70
     1
102
RTVSPropertyOp11
 70
     1
102
RTVSPropertyOp12
 70
     1
102
RTVSPropertyOp13
 70
     1
102
RTVSPropertyOp14
 70
     1
102
RTVSPropertyOp15
 70
     1
102
RTVSPropertyOp16
 70
     1
102
RTVSPropertyOp17
 70
     1
102
RTVSPropertyOp18
 70
     1
102
RTVSPropertyOp19
 70
     1
102
RTVSPropertyOp20
 70
     1
102
RTVSPropertyOp21
 70
     1
102
RTVSPropertyOp22
 70
     1
102
RTVSPropertyOp23
 70
     1
102
RTVSPropertyOp24
 70
     1
102
RTVSPropertyOp25
 70
     1
102
RTVSPropertyOp26
 70
     1
102
RTVSPropertyOp27
 70
     1
102
RTVSPropertyOp28
 70
     1
102
RTVSPropertyOp29
 70
     1
102
RTVSPropertyOp30
 70
     1
102
RTVSPropertyOp31
 70
     1
102
RTVSPropertyOp32
 70
     1
  0
XRECORD
  5
70
102
{ACAD_REACTORS
330
6F
102
}
330
6F
100
AcDbXrecord
280
     1
102
RTVSPropertyOp0
 70
     1
102
RTVSPropertyOp1
 70
     1
102
RTVSPropertyOp2
 70
     1
102
RTVSPropertyOp3
 70
     1
102
RTVSPropertyOp4
 70
     1
102
RTVSPropertyOp5
 70
     1
102
RTVSPropertyOp6
 70
     1
102
RTVSPropertyOp7
 70
     1
102
RTVSPropertyOp8
 70
     1
102
RTVSPropertyOp9
 70
     1
102
RTVSPropertyOp10
 70
     1
102
RTVSPropertyOp11
 70
     1
102
RTVSPropertyOp12
 70
     1
102
RTVSPropertyOp13
 70
     1
102
RTVSPropertyOp14
 70
     1
102
RTVSPropertyOp15
 70
     1
102
RTVSPropertyOp16
 70
     1
102
RTVSPropertyOp17
 70
     1
102
RTVSPropertyOp18
 70
     1
102
RTVSPropertyOp19
 70
     1
102
RTVSPropertyOp20
 70
     1
102
RTVSPropertyOp21
 70
     1
102
RTVSPropertyOp22
 70
     1
102
RTVSPropertyOp23
 70
     1
102
RTVSPropertyOp24
 70
     1
102
RTVSPropertyOp25
 70
     1
102
RTVSPropertyOp26
 70
     1
102
RTVSPropertyOp27
 70
     1
102
RTVSPropertyOp28
 70
     1
102
RTVSPropertyOp29
 70
     1
102
RTVSPropertyOp30
 70
     1
102
RTVSPropertyOp31
 70
     1
102
RTVSPropertyOp32
 70
     1
  0
XRECORD
  5
84
102
{ACAD_REACTORS
330
83
102
}
330
83
100
AcDbXrecord
280
     1
102
RTVSPropertyOp0
 70
     1
102
RTVSPropertyOp1
 70
     1
102
RTVSPropertyOp2
 70
     1
102
RTVSPropertyOp3
 70
     1
102
RTVSPropertyOp4
 70
     1
102
RTVSPropertyOp5
 70
     1
102
RTVSPropertyOp6
 70
     1
102
RTVSPropertyOp7
 70
     1
102
RTVSPropertyOp8
 70
     1
102
RTVSPropertyOp9
 70
     1
102
RTVSPropertyOp10
 70
     1
102
RTVSPropertyOp11
 70
     1
102
RTVSPropertyOp12
 70
     1
102
RTVSPropertyOp13
 70
     1
102
RTVSPropertyOp14
 70
     1
102
RTVSPropertyOp15
 70
     1
102
RTVSPropertyOp16
 70
     1
102
RTVSPropertyOp17
 70
     1
102
RTVSPropertyOp18
 70
     1
102
RTVSPropertyOp19
 70
     1
102
RTVSPropertyOp20
 70
     1
102
RTVSPropertyOp21
 70
     1
102
RTVSPropertyOp22
 70
     1
102
RTVSPropertyOp23
 70
     1
102
RTVSPropertyOp24
 70
     1
102
RTVSPropertyOp25
 70
     1
102
RTVSPropertyOp26
 70
     1
102
RTVSPropertyOp27
 70
     1
102
RTVSPropertyOp28
 70
     1
102
RTVSPropertyOp29
 70
     1
102
RTVSPropertyOp30
 70
     1
102
RTVSPropertyOp31
 70
     1
102
RTVSPropertyOp32
 70
     1
  0
XRECORD
  5
7A
102
{ACAD_REACTORS
330
79
102
}
330
79
100
AcDbXrecord
280
     1
102
RTVSPropertyOp0
 70
     1
102
RTVSPropertyOp1
 70
     1
102
RTVSPropertyOp2
 70
     1
102
RTVSPropertyOp3
 70
     1
102
RTVSPropertyOp4
 70
     1
102
RTVSPropertyOp5
 70
     1
102
RTVSPropertyOp6
 70
     1
102
RTVSPropertyOp7
 70
     1
102
RTVSPropertyOp8
 70
     1
102
RTVSPropertyOp9
 70
     1
102
RTVSPropertyOp10
 70
     1
102
RTVSPropertyOp11
 70
     1
102
RTVSPropertyOp12
 70
     1
102
RTVSPropertyOp13
 70
     1
102
RTVSPropertyOp14
 70
     1
102
RTVSPropertyOp15
 70
     1
102
RTVSPropertyOp16
 70
     1
102
RTVSPropertyOp17
 70
     1
102
RTVSPropertyOp18
 70
     1
102
RTVSPropertyOp19
 70
     1
102
RTVSPropertyOp20
 70
     1
102
RTVSPropertyOp21
 70
     1
102
RTVSPropertyOp22
 70
     1
102
RTVSPropertyOp23
 70
     1
102
RTVSPropertyOp24
 70
     1
102
RTVSPropertyOp25
 70
     1
102
RTVSPropertyOp26
 70
     1
102
RTVSPropertyOp27
 70
     1
102
RTVSPropertyOp28
 70
     1
102
RTVSPropertyOp29
 70
     1
102
RTVSPropertyOp30
 70
     1
102
RTVSPropertyOp31
 70
     1
102
RTVSPropertyOp32
 70
     1
  0
XRECORD
  5
82
102
{ACAD_REACTORS
330
81
102
}
330
81
100
AcDbXrecord
280
     1
102
RTVSPropertyOp0
 70
     1
102
RTVSPropertyOp1
 70
     1
102
RTVSPropertyOp2
 70
     1
102
RTVSPropertyOp3
 70
     1
102
RTVSPropertyOp4
 70
     1
102
RTVSPropertyOp5
 70
     1
102
RTVSPropertyOp6
 70
     1
102
RTVSPropertyOp7
 70
     1
102
RTVSPropertyOp8
 70
     1
102
RTVSPropertyOp9
 70
     1
102
RTVSPropertyOp10
 70
     1
102
RTVSPropertyOp11
 70
     1
102
RTVSPropertyOp12
 70
     1
102
RTVSPropertyOp13
 70
     1
102
RTVSPropertyOp14
 70
     1
102
RTVSPropertyOp15
 70
     1
102
RTVSPropertyOp16
 70
     1
102
RTVSPropertyOp17
 70
     1
102
RTVSPropertyOp18
 70
     1
102
RTVSPropertyOp19
 70
     1
102
RTVSPropertyOp20
 70
     1
102
RTVSPropertyOp21
 70
     1
102
RTVSPropertyOp22
 70
     1
102
RTVSPropertyOp23
 70
     1
102
RTVSPropertyOp24
 70
     1
102
RTVSPropertyOp25
 70
     1
102
RTVSPropertyOp26
 70
     1
102
RTVSPropertyOp27
 70
     1
102
RTVSPropertyOp28
 70
     1
102
RTVSPropertyOp29
 70
     1
102
RTVSPropertyOp30
 70
     1
102
RTVSPropertyOp31
 70
     1
102
RTVSPropertyOp32
 70
     1
  0
ENDSEC
  0
EOF
