  0
SECTION
  2
HEADER
  9
$ACADVER
  1
AC1021
  9
$ACADMAINTVER
 70
    25
  9
$DWGCODEPAGE
  3
ANSI_1256
  9
$INSBASE
 10
0.0
 20
0.0
 30
0.0
  9
$EXTMIN
 10
45.3015
 20
-114.5779
 30
0.0
  9
$EXTMAX
 10
196.5881
 20
131.9824
 30
0.0
  9
$LIMMIN
 10
0.0
 20
0.0
  9
$LIMMAX
 10
12.0
 20
9.0
  9
$ORTHOMODE
 70
     0
  9
$REGENMODE
 70
     1
  9
$FILLMODE
 70
     1
  9
$QTEXTMODE
 70
     0
  9
$MIRRTEXT
 70
     1
  9
$LTSCALE
 40
1.0
  9
$ATTMODE
 70
     1
  9
$TEXTSIZE
 40
0.2
  9
$TRACEWID
 40
0.05
  9
$TEXTSTYLE
  7
Standard
  9
$CLAYER
  8
0
  9
$CELTYPE
  6
ByLayer
  9
$CECOLOR
 62
   256
  9
$CELTSCALE
 40
1.0
  9
$DISPSILH
 70
     0
  9
$DIMSCALE
 40
1.0
  9
$DIMASZ
 40
0.18
  9
$DIMEXO
 40
0.0625
  9
$DIMDLI
 40
0.38
  9
$DIMRND
 40
0.0
  9
$DIMDLE
 40
0.0
  9
$DIMEXE
 40
0.18
  9
$DIMTP
 40
0.0
  9
$DIMTM
 40
0.0
  9
$DIMTXT
 40
0.18
  9
$DIMCEN
 40
0.09
  9
$DIMTSZ
 40
0.0
  9
$DIMTOL
 70
     0
  9
$DIMLIM
 70
     0
  9
$DIMTIH
 70
     1
  9
$DIMTOH
 70
     1
  9
$DIMSE1
 70
     0
  9
$DIMSE2
 70
     0
  9
$DIMTAD
 70
     0
  9
$DIMZIN
 70
     0
  9
$DIMBLK
  1

  9
$DIMASO
 70
     1
  9
$DIMSHO
 70
     1
  9
$DIMPOST
  1

  9
$DIMAPOST
  1

  9
$DIMALT
 70
     0
  9
$DIMALTD
 70
     2
  9
$DIMALTF
 40
25.4
  9
$DIMLFAC
 40
1.0
  9
$DIMTOFL
 70
     0
  9
$DIMTVP
 40
0.0
  9
$DIMTIX
 70
     0
  9
$DIMSOXD
 70
     0
  9
$DIMSAH
 70
     0
  9
$DIMBLK1
  1

  9
$DIMBLK2
  1

  9
$DIMSTYLE
  2
Standard
  9
$DIMCLRD
 70
     0
  9
$DIMCLRE
 70
     0
  9
$DIMCLRT
 70
     0
  9
$DIMTFAC
 40
1.0
  9
$DIMGAP
 40
0.09
  9
$DIMJUST
 70
     0
  9
$DIMSD1
 70
     0
  9
$DIMSD2
 70
     0
  9
$DIMTOLJ
 70
     1
  9
$DIMTZIN
 70
     0
  9
$DIMALTZ
 70
     0
  9
$DIMALTTZ
 70
     0
  9
$DIMUPT
 70
     0
  9
$DIMDEC
 70
     4
  9
$DIMTDEC
 70
     4
  9
$DIMALTU
 70
     2
  9
$DIMALTTD
 70
     2
  9
$DIMTXSTY
  7
Standard
  9
$DIMAUNIT
 70
     0
  9
$DIMADEC
 70
     0
  9
$DIMALTRND
 40
0.0
  9
$DIMAZIN
 70
     0
  9
$DIMDSEP
 70
    46
  9
$DIMATFIT
 70
     3
  9
$DIMFRAC
 70
     0
  9
$DIMLDRBLK
  1

  9
$DIMLUNIT
 70
     2
  9
$DIMLWD
 70
    -2
  9
$DIMLWE
 70
    -2
  9
$DIMTMOVE
 70
     0
  9
$DIMFXL
 40
1.0
  9
$DIMFXLON
 70
     0
  9
$DIMJOGANG
 40
0.7853981633974483
  9
$DIMTFILL
 70
     0
  9
$DIMTFILLCLR
 70
     0
  9
$DIMARCSYM
 70
     0
  9
$DIMLTYPE
  6

  9
$DIMLTEX1
  6

  9
$DIMLTEX2
  6

  9
$LUNITS
 70
     2
  9
$LUPREC
 70
     4
  9
$SKETCHINC
 40
0.1
  9
$FILLETRAD
 40
0.5
  9
$AUNITS
 70
     0
  9
$AUPREC
 70
     0
  9
$MENU
  1
.
  9
$ELEVATION
 40
0.0
  9
$PELEVATION
 40
0.0
  9
$THICKNESS
 40
0.0
  9
$LIMCHECK
 70
     0
  9
$CHAMFERA
 40
0.5
  9
$CHAMFERB
 40
0.5
  9
$CHAMFERC
 40
1.0
  9
$CHAMFERD
 40
0.0
  9
$SKPOLY
 70
     0
  9
$TDCREATE
 40
2458493.242449734
  9
$TDUCREATE
 40
2458493.075783067
  9
$TDUPDATE
 40
2458493.242450011
  9
$TDUUPDATE
 40
2458493.075783345
  9
$TDINDWG
 40
0.0000000116
  9
$TDUSRTIMER
 40
0.0000000116
  9
$USRTIMER
 70
     1
  9
$ANGBASE
 50
0.0
  9
$ANGDIR
 70
     0
  9
$PDMODE
 70
     0
  9
$PDSIZE
 40
0.0
  9
$PLINEWID
 40
0.0
  9
$SPLFRAME
 70
     0
  9
$SPLINETYPE
 70
     6
  9
$SPLINESEGS
 70
     8
  9
$HANDSEED
  5
F9
  9
$SURFTAB1
 70
     6
  9
$SURFTAB2
 70
     6
  9
$SURFTYPE
 70
     6
  9
$SURFU
 70
     6
  9
$SURFV
 70
     6
  9
$UCSBASE
  2

  9
$UCSNAME
  2

  9
$UCSORG
 10
0.0
 20
0.0
 30
0.0
  9
$UCSXDIR
 10
1.0
 20
0.0
 30
0.0
  9
$UCSYDIR
 10
0.0
 20
1.0
 30
0.0
  9
$UCSORTHOREF
  2

  9
$UCSORTHOVIEW
 70
     0
  9
$UCSORGTOP
 10
0.0
 20
0.0
 30
0.0
  9
$UCSORGBOTTOM
 10
0.0
 20
0.0
 30
0.0
  9
$UCSORGLEFT
 10
0.0
 20
0.0
 30
0.0
  9
$UCSORGRIGHT
 10
0.0
 20
0.0
 30
0.0
  9
$UCSORGFRONT
 10
0.0
 20
0.0
 30
0.0
  9
$UCSORGBACK
 10
0.0
 20
0.0
 30
0.0
  9
$PUCSBASE
  2

  9
$PUCSNAME
  2

  9
$PUCSORG
 10
0.0
 20
0.0
 30
0.0
  9
$PUCSXDIR
 10
1.0
 20
0.0
 30
0.0
  9
$PUCSYDIR
 10
0.0
 20
1.0
 30
0.0
  9
$PUCSORTHOREF
  2

  9
$PUCSORTHOVIEW
 70
     0
  9
$PUCSORGTOP
 10
0.0
 20
0.0
 30
0.0
  9
$PUCSORGBOTTOM
 10
0.0
 20
0.0
 30
0.0
  9
$PUCSORGLEFT
 10
0.0
 20
0.0
 30
0.0
  9
$PUCSORGRIGHT
 10
0.0
 20
0.0
 30
0.0
  9
$PUCSORGFRONT
 10
0.0
 20
0.0
 30
0.0
  9
$PUCSORGBACK
 10
0.0
 20
0.0
 30
0.0
  9
$USERI1
 70
     0
  9
$USERI2
 70
     0
  9
$USERI3
 70
     0
  9
$USERI4
 70
     0
  9
$USERI5
 70
     0
  9
$USERR1
 40
0.0
  9
$USERR2
 40
0.0
  9
$USERR3
 40
0.0
  9
$USERR4
 40
0.0
  9
$USERR5
 40
0.0
  9
$WORLDVIEW
 70
     1
  9
$SHADEDGE
 70
     3
  9
$SHADEDIF
 70
    70
  9
$TILEMODE
 70
     1
  9
$MAXACTVP
 70
    64
  9
$PINSBASE
 10
0.0
 20
0.0
 30
0.0
  9
$PLIMCHECK
 70
     0
  9
$PEXTMIN
 10
1.000000000000000E+20
 20
1.000000000000000E+20
 30
1.000000000000000E+20
  9
$PEXTMAX
 10
-1.000000000000000E+20
 20
-1.000000000000000E+20
 30
-1.000000000000000E+20
  9
$PLIMMIN
 10
0.0
 20
0.0
  9
$PLIMMAX
 10
12.0
 20
9.0
  9
$UNITMODE
 70
     0
  9
$VISRETAIN
 70
     1
  9
$PLINEGEN
 70
     0
  9
$PSLTSCALE
 70
     1
  9
$TREEDEPTH
 70
  3020
  9
$CMLSTYLE
  2
Standard
  9
$CMLJUST
 70
     0
  9
$CMLSCALE
 40
1.0
  9
$PROXYGRAPHICS
 70
     1
  9
$MEASUREMENT
 70
     0
  9
$CELWEIGHT
370
    -1
  9
$ENDCAPS
280
     0
  9
$JOINSTYLE
280
     0
  9
$LWDISPLAY
290
     0
  9
$INSUNITS
 70
     4
  9
$HYPERLINKBASE
  1

  9
$STYLESHEET
  1

  9
$XEDIT
290
     1
  9
$CEPSNTYPE
380
     0
  9
$PSTYLEMODE
290
     1
  9
$FINGERPRINTGUID
  2
{24BE06BA-5478-44FC-9B10-0FC339116F45}
  9
$VERSIONGUID
  2
{FAEB1C32-E019-11D5-929B-00C0DF256EC4}
  9
$EXTNAMES
290
     1
  9
$PSVPSCALE
 40
0.0
  9
$OLESTARTUP
290
     0
  9
$SORTENTS
280
   127
  9
$INDEXCTL
280
     0
  9
$HIDETEXT
280
     1
  9
$XCLIPFRAME
290
     0
  9
$HALOGAP
280
     0
  9
$OBSCOLOR
 70
   257
  9
$OBSLTYPE
280
     0
  9
$INTERSECTIONDISPLAY
280
     0
  9
$INTERSECTIONCOLOR
 70
   257
  9
$DIMASSOC
280
     2
  9
$PROJECTNAME
  1

  9
$CAMERADISPLAY
290
     0
  9
$LENSLENGTH
 40
50.0
  9
$CAMERAHEIGHT
 40
0.0
  9
$STEPSPERSEC
 40
2.0
  9
$STEPSIZE
 40
6.0
  9
$3DDWFPREC
 40
2.0
  9
$PSOLWIDTH
 40
0.25
  9
$PSOLHEIGHT
 40
4.0
  9
$LOFTANG1
 40
1.570796326794897
  9
$LOFTANG2
 40
1.570796326794897
  9
$LOFTMAG1
 40
0.0
  9
$LOFTMAG2
 40
0.0
  9
$LOFTPARAM
 70
     7
  9
$LOFTNORMALS
280
     1
  9
$LATITUDE
 40
37.795
  9
$LONGITUDE
 40
-122.394
  9
$NORTHDIRECTION
 40
0.0
  9
$TIMEZONE
 70
 -8000
  9
$LIGHTGLYPHDISPLAY
280
     1
  9
$TILEMODELIGHTSYNCH
280
     1
  9
$SOLIDHIST
280
     1
  9
$SHOWHIST
280
     1
  9
$DWFFRAME
280
     2
  9
$DGNFRAME
280
     2
  9
$REALWORLDSCALE
290
     1
  9
$INTERFERECOLOR
 62
   256
  9
$CSHADOW
280
     0
  9
$SHADOWPLANELOCATION
 40
0.0
  0
ENDSEC
  0
SECTION
  2
CLASSES
  0
CLASS
  1
ACDBDICTIONARYWDFLT
  2
AcDbDictionaryWithDefault
  3
ObjectDBX Classes
 90
        0
 91
        4
280
     0
281
     0
  0
CLASS
  1
VISUALSTYLE
  2
AcDbVisualStyle
  3
ObjectDBX Classes
 90
     4095
 91
        4
280
     0
281
     0
  0
CLASS
  1
MATERIAL
  2
AcDbMaterial
  3
ObjectDBX Classes
 90
     1153
 91
        4
280
     0
281
     0
  0
ENDSEC
  0
SECTION
  2
TABLES
  0
TABLE
  2
VPORT
  5
8
330
0
100
AcDbSymbolTable
 70
     1
  0
VPORT
  5
29
330
8
100
AcDbSymbolTableRecord
100
AcDbViewportTableRecord
  2
*Active
 70
     0
 10
0.0
 20
0.0
 11
1.0
 21
1.0
 12
10.42990654205607
 22
4.5
 13
0.0
 23
0.0
 14
0.5
 24
0.5
 15
0.5
 25
0.5
 16
0.0
 26
0.0
 36
1.0
 17
0.0
 27
0.0
 37
0.0
 40
9.0
 41
1.972972972850329
 42
50.0
 43
0.0
 44
0.0
 50
0.0
 51
0.0
 71
     0
 72
   100
 73
     1
 74
     3
 75
     0
 76
     0
 77
     0
 78
     0
281
     0
 65
     1
110
0.0
120
0.0
130
0.0
111
1.0
121
0.0
131
0.0
112
0.0
122
1.0
132
0.0
 79
     0
146
0.0
 60
     3
 61
     5
292
     1
282
     1
141
0.0
142
0.0
 63
   250
  0
ENDTAB
  0
TABLE
  2
LTYPE
  5
5
330
0
100
AcDbSymbolTable
 70
     1
  0
LTYPE
  5
14
330
5
100
AcDbSymbolTableRecord
100
AcDbLinetypeTableRecord
  2
ByBlock
 70
     0
  3

 72
    65
 73
     0
 40
0.0
  0
LTYPE
  5
15
330
5
100
AcDbSymbolTableRecord
100
AcDbLinetypeTableRecord
  2
ByLayer
 70
     0
  3

 72
    65
 73
     0
 40
0.0
  0
LTYPE
  5
16
330
5
100
AcDbSymbolTableRecord
100
AcDbLinetypeTableRecord
  2
Continuous
 70
     0
  3
Solid line
 72
    65
 73
     0
 40
0.0
  0
ENDTAB
  0
TABLE
  2
LAYER
  5
2
330
0
100
AcDbSymbolTable
 70
     3
  0
LAYER
  5
10
330
2
100
AcDbSymbolTableRecord
100
AcDbLayerTableRecord
  2
0
 70
     0
 62
     7
  6
Continuous
370
    -3
390
F
347
3E
  0
LAYER
  5
40
330
2
100
AcDbSymbolTableRecord
100
AcDbLayerTableRecord
  2
layer 1
 70
     0
 62
     7
  6
Continuous
370
    -3
390
F
347
3E
  0
LAYER
  5
D6
330
2
100
AcDbSymbolTableRecord
100
AcDbLayerTableRecord
  2
Master Guides
 70
     0
 62
     7
  6
Continuous
370
    -3
390
F
347
3E
  0
ENDTAB
  0
TABLE
  2
STYLE
  5
3
330
0
100
AcDbSymbolTable
 70
     1
  0
STYLE
  5
11
330
3
100
AcDbSymbolTableRecord
100
AcDbTextStyleTableRecord
  2
Standard
 70
     0
 40
0.0
 41
1.0
 50
0.0
 71
     0
 42
0.2
  3
txt
  4

  0
ENDTAB
  0
TABLE
  2
VIEW
  5
6
330
0
100
AcDbSymbolTable
 70
     0
  0
ENDTAB
  0
TABLE
  2
UCS
  5
7
330
0
100
AcDbSymbolTable
 70
     0
  0
ENDTAB
  0
TABLE
  2
APPID
  5
9
330
0
100
AcDbSymbolTable
 70
     2
  0
APPID
  5
12
330
9
100
AcDbSymbolTableRecord
100
AcDbRegAppTableRecord
  2
ACAD
 70
     0
  0
APPID
  5
3F
330
9
100
AcDbSymbolTableRecord
100
AcDbRegAppTableRecord
  2
ODA
 70
     0
  0
ENDTAB
  0
TABLE
  2
DIMSTYLE
  5
A
330
0
100
AcDbSymbolTable
 70
     1
100
AcDbDimStyleTable
  0
DIMSTYLE
105
27
330
A
100
AcDbSymbolTableRecord
100
AcDbDimStyleTableRecord
  2
Standard
 70
     0
178
     0
340
11
  0
ENDTAB
  0
TABLE
  2
BLOCK_RECORD
  5
1
330
0
100
AcDbSymbolTable
 70
     1
  0
BLOCK_RECORD
  5
1F
330
1
100
AcDbSymbolTableRecord
100
AcDbBlockTableRecord
  2
*Model_Space
340
22
 70
     0
280
     1
281
     0
  0
BLOCK_RECORD
  5
1B
330
1
100
AcDbSymbolTableRecord
100
AcDbBlockTableRecord
  2
*Paper_Space
340
1E
 70
     0
280
     1
281
     0
  0
BLOCK_RECORD
  5
23
330
1
100
AcDbSymbolTableRecord
100
AcDbBlockTableRecord
  2
*Paper_Space0
340
26
 70
     0
280
     1
281
     0
  0
ENDTAB
  0
ENDSEC
  0
SECTION
  2
BLOCKS
  0
BLOCK
  5
20
330
1F
100
AcDbEntity
  8
0
100
AcDbBlockBegin
  2
*Model_Space
 70
     0
 10
0.0
 20
0.0
 30
0.0
  3
*Model_Space
  1

  0
ENDBLK
  5
21
330
1F
100
AcDbEntity
  8
0
100
AcDbBlockEnd
  0
BLOCK
  5
1C
330
1B
100
AcDbEntity
 67
     1
  8
0
100
AcDbBlockBegin
  2
*Paper_Space
 70
     0
 10
0.0
 20
0.0
 30
0.0
  3
*Paper_Space
  1

  0
ENDBLK
  5
1D
330
1B
100
AcDbEntity
 67
     1
  8
0
100
AcDbBlockEnd
  0
BLOCK
  5
24
330
23
100
AcDbEntity
  8
0
100
AcDbBlockBegin
  2
*Paper_Space0
 70
     0
 10
0.0
 20
0.0
 30
0.0
  3
*Paper_Space0
  1

  0
ENDBLK
  5
25
330
23
100
AcDbEntity
  8
0
100
AcDbBlockEnd
  0
ENDSEC
  0
SECTION
  2
ENTITIES
  0
SPLINE
  5
41
330
1F
100
AcDbEntity
  8
layer 1
 62
   250
100
AcDbSpline
210
0.0
220
0.0
230
1.0
 70
    11
 71
     3
 72
    20
 73
    16
 74
     0
 42
0.0000000001
 43
0.0000000001
 12
1.0
 22
0.0
 32
0.0
 13
1.0
 23
0.0
 33
0.0
 40
0.0
 40
0.0
 40
0.0
 40
0.0
 40
0.2
 40
0.2
 40
0.2
 40
0.2
 40
0.4
 40
0.4
 40
0.4
 40
0.4
 40
0.6
 40
0.6
 40
0.6
 40
0.6
 40
1.0
 40
1.0
 40
1.0
 40
1.0
 10
45.3015
 20
131.9824
 30
0.0
 10
45.3015
 20
131.9824
 30
0.0
 10
118.68
 20
131.9824
 30
0.0
 10
118.68
 20
131.9824
 30
0.0
 10
118.68
 20
131.9824
 30
0.0
 10
118.68
 20
131.9824
 30
0.0
 10
118.68
 20
58.6044
 30
0.0
 10
118.68
 20
58.6044
 30
0.0
 10
118.68
 20
58.6044
 30
0.0
 10
118.68
 20
58.6044
 30
0.0
 10
45.3019
 20
58.6044
 30
0.0
 10
45.3019
 20
58.6044
 30
0.0
 10
45.3019
 20
58.6044
 30
0.0
 10
45.3019
 20
58.6044
 30
0.0
 10
45.3015
 20
131.9824
 30
0.0
 10
45.3015
 20
131.9824
 30
0.0
  0
SPLINE
  5
42
330
1F
100
AcDbEntity
  8
layer 1
 62
     7
100
AcDbSpline
210
0.0
220
0.0
230
1.0
 70
    11
 71
     3
 72
    20
 73
    16
 74
     0
 42
0.0000000001
 43
0.0000000001
 12
1.0
 22
0.0
 32
0.0
 13
1.0
 23
0.0
 33
0.0
 40
0.0
 40
0.0
 40
0.0
 40
0.0
 40
0.2
 40
0.2
 40
0.2
 40
0.2
 40
0.4
 40
0.4
 40
0.4
 40
0.4
 40
0.6
 40
0.6
 40
0.6
 40
0.6
 40
1.0
 40
1.0
 40
1.0
 40
1.0
 10
84.3416
 20
95.3172
 30
0.0
 10
84.3416
 20
93.9919
 30
0.0
 10
83.2685
 20
92.9185
 30
0.0
 10
81.9432
 20
92.9185
 30
0.0
 10
81.9432
 20
92.9185
 30
0.0
 10
80.624
 20
92.9188
 30
0.0
 10
79.5506
 20
93.9919
 30
0.0
 10
79.5506
 20
95.3168
 30
0.0
 10
79.5506
 20
95.3168
 30
0.0
 10
79.5506
 20
96.6364
 30
0.0
 10
80.6236
 20
97.7094
 30
0.0
 10
81.9432
 20
97.7094
 30
0.0
 10
81.9432
 20
97.7094
 30
0.0
 10
83.2685
 20
97.7094
 30
0.0
 10
84.3416
 20
96.6364
 30
0.0
 10
84.3416
 20
95.3172
 30
0.0
  0
SPLINE
  5
43
330
1F
100
AcDbEntity
  8
layer 1
 62
     7
100
AcDbSpline
210
0.0
220
0.0
230
1.0
 70
    11
 71
     3
 72
    20
 73
    16
 74
     0
 42
0.0000000001
 43
0.0000000001
 12
1.0
 22
0.0
 32
0.0
 13
1.0
 23
0.0
 33
0.0
 40
0.0
 40
0.0
 40
0.0
 40
0.0
 40
0.2
 40
0.2
 40
0.2
 40
0.2
 40
0.4
 40
0.4
 40
0.4
 40
0.4
 40
0.6
 40
0.6
 40
0.6
 40
0.6
 40
1.0
 40
1.0
 40
1.0
 40
1.0
 10
87.9057
 20
111.0754
 30
0.0
 10
87.9057
 20
107.8131
 30
0.0
 10
85.2612
 20
105.1686
 30
0.0
 10
82.0039
 20
105.1686
 30
0.0
 10
82.0039
 20
105.1686
 30
0.0
 10
78.7419
 20
105.1686
 30
0.0
 10
76.097
 20
107.8131
 30
0.0
 10
76.097
 20
111.0751
 30
0.0
 10
76.097
 20
111.0751
 30
0.0
 10
76.097
 20
114.3374
 30
0.0
 10
78.7416
 20
116.9819
 30
0.0
 10
82.0039
 20
116.9819
 30
0.0
 10
82.0039
 20
116.9819
 30
0.0
 10
85.2612
 20
116.9819
 30
0.0
 10
87.9057
 20
114.3374
 30
0.0
 10
87.9057
 20
111.0754
 30
0.0
  0
SPLINE
  5
44
330
1F
100
AcDbEntity
  8
layer 1
 62
     7
100
AcDbSpline
210
0.0
220
0.0
230
1.0
 70
    11
 71
     3
 72
    44
 73
    40
 74
     0
 42
0.0000000001
 43
0.0000000001
 12
1.0
 22
0.0
 32
0.0
 13
1.0
 23
0.0
 33
0.0
 40
0.0
 40
0.0
 40
0.0
 40
0.0
 40
0.0909090909090909
 40
0.0909090909090909
 40
0.0909090909090909
 40
0.0909090909090909
 40
0.1818181818181818
 40
0.1818181818181818
 40
0.1818181818181818
 40
0.1818181818181818
 40
0.2727272727272727
 40
0.2727272727272727
 40
0.2727272727272727
 40
0.2727272727272727
 40
0.3636363636363636
 40
0.3636363636363636
 40
0.3636363636363636
 40
0.3636363636363636
 40
0.4545454545454545
 40
0.4545454545454545
 40
0.4545454545454545
 40
0.4545454545454545
 40
0.5454545454545454
 40
0.5454545454545454
 40
0.5454545454545454
 40
0.5454545454545454
 40
0.6363636363636364
 40
0.6363636363636364
 40
0.6363636363636364
 40
0.6363636363636364
 40
0.7272727272727273
 40
0.7272727272727273
 40
0.7272727272727273
 40
0.7272727272727273
 40
0.8181818181818182
 40
0.8181818181818182
 40
0.8181818181818182
 40
0.8181818181818182
 40
1.0
 40
1.0
 40
1.0
 40
1.0
 10
76.1389
 20
99.8808
 30
0.0
 10
73.1838
 20
101.6321
 30
0.0
 10
69.8051
 20
108.8494
 30
0.0
 10
61.1063
 20
107.8455
 30
0.0
 10
61.1063
 20
107.8455
 30
0.0
 10
55.8136
 20
107.2364
 30
0.0
 10
53.6755
 20
104.4297
 30
0.0
 10
50.511
 20
97.9843
 30
0.0
 10
50.511
 20
97.9843
 30
0.0
 10
48.8657
 20
98.742
 30
0.0
 10
49.8093
 20
113.5331
 30
0.0
 10
61.3238
 20
112.7241
 30
0.0
 10
61.3238
 20
112.7241
 30
0.0
 10
51.6448
 20
117.1853
 30
0.0
 10
46.4353
 20
123.4547
 30
0.0
 10
50.2173
 20
127.1726
 30
0.0
 10
50.2173
 20
127.1726
 30
0.0
 10
53.9349
 20
130.9559
 30
0.0
 10
60.2043
 20
125.7461
 30
0.0
 10
64.6658
 20
116.0657
 30
0.0
 10
64.6658
 20
116.0657
 30
0.0
 10
63.8567
 20
127.582
 30
0.0
 10
78.6488
 20
128.5252
 30
0.0
 10
79.4066
 20
126.8799
 30
0.0
 10
79.4066
 20
126.8799
 30
0.0
 10
72.9612
 20
123.7153
 30
0.0
 10
70.1534
 20
121.5777
 30
0.0
 10
69.541
 20
116.2849
 30
0.0
 10
69.541
 20
116.2849
 30
0.0
 10
68.5415
 20
107.5851
 30
0.0
 10
75.7581
 20
104.2061
 30
0.0
 10
77.5104
 20
101.251
 30
0.0
 10
77.5104
 20
101.251
 30
0.0
 10
77.6544
 20
100.6194
 30
0.0
 10
77.5984
 20
100.1732
 30
0.0
 10
77.4497
 20
99.9399
 30
0.0
 10
77.4497
 20
99.9399
 30
0.0
 10
77.2177
 20
99.7915
 30
0.0
 10
76.7715
 20
99.7355
 30
0.0
 10
76.1389
 20
99.8808
 30
0.0
  0
SPLINE
  5
45
330
1F
100
AcDbEntity
  8
layer 1
 62
     7
100
AcDbSpline
210
0.0
220
0.0
230
1.0
 70
    11
 71
     3
 72
    44
 73
    40
 74
     0
 42
0.0000000001
 43
0.0000000001
 12
1.0
 22
0.0
 32
0.0
 13
1.0
 23
0.0
 33
0.0
 40
0.0
 40
0.0
 40
0.0
 40
0.0
 40
0.0909090909090909
 40
0.0909090909090909
 40
0.0909090909090909
 40
0.0909090909090909
 40
0.1818181818181818
 40
0.1818181818181818
 40
0.1818181818181818
 40
0.1818181818181818
 40
0.2727272727272727
 40
0.2727272727272727
 40
0.2727272727272727
 40
0.2727272727272727
 40
0.3636363636363636
 40
0.3636363636363636
 40
0.3636363636363636
 40
0.3636363636363636
 40
0.4545454545454545
 40
0.4545454545454545
 40
0.4545454545454545
 40
0.4545454545454545
 40
0.5454545454545454
 40
0.5454545454545454
 40
0.5454545454545454
 40
0.5454545454545454
 40
0.6363636363636364
 40
0.6363636363636364
 40
0.6363636363636364
 40
0.6363636363636364
 40
0.7272727272727273
 40
0.7272727272727273
 40
0.7272727272727273
 40
0.7272727272727273
 40
0.8181818181818182
 40
0.8181818181818182
 40
0.8181818181818182
 40
0.8181818181818182
 40
1.0
 40
1.0
 40
1.0
 40
1.0
 10
87.6322
 20
99.8808
 30
0.0
 10
90.5873
 20
101.6321
 30
0.0
 10
93.9704
 20
108.8494
 30
0.0
 10
102.6695
 20
107.8455
 30
0.0
 10
102.6695
 20
107.8455
 30
0.0
 10
107.9585
 20
107.2364
 30
0.0
 10
110.0952
 20
104.4297
 30
0.0
 10
113.2655
 20
97.9843
 30
0.0
 10
113.2655
 20
97.9843
 30
0.0
 10
114.9098
 20
98.742
 30
0.0
 10
113.9662
 20
113.5331
 30
0.0
 10
102.4469
 20
112.7241
 30
0.0
 10
102.4469
 20
112.7241
 30
0.0
 10
112.1307
 20
117.1853
 30
0.0
 10
117.3402
 20
123.4547
 30
0.0
 10
113.5534
 20
127.1726
 30
0.0
 10
113.5534
 20
127.1726
 30
0.0
 10
109.8406
 20
130.9559
 30
0.0
 10
103.5712
 20
125.7461
 30
0.0
 10
99.1097
 20
116.0657
 30
0.0
 10
99.1097
 20
116.0657
 30
0.0
 10
99.9191
 20
127.582
 30
0.0
 10
85.1266
 20
128.5252
 30
0.0
 10
84.3689
 20
126.8799
 30
0.0
 10
84.3689
 20
126.8799
 30
0.0
 10
90.8143
 20
123.7153
 30
0.0
 10
93.622
 20
121.5777
 30
0.0
 10
94.2311
 20
116.2849
 30
0.0
 10
94.2311
 20
116.2849
 30
0.0
 10
95.234
 20
107.5851
 30
0.0
 10
88.0126
 20
104.2061
 30
0.0
 10
86.2604
 20
101.251
 30
0.0
 10
86.2604
 20
101.251
 30
0.0
 10
86.1164
 20
100.6194
 30
0.0
 10
86.1771
 20
100.1732
 30
0.0
 10
86.3211
 20
99.9399
 30
0.0
 10
86.3211
 20
99.9399
 30
0.0
 10
86.5578
 20
99.7915
 30
0.0
 10
87.004
 20
99.7355
 30
0.0
 10
87.6322
 20
99.8808
 30
0.0
  0
SPLINE
  5
46
330
1F
100
AcDbEntity
  8
layer 1
 62
     7
100
AcDbSpline
210
0.0
220
0.0
230
1.0
 70
    11
 71
     3
 72
    20
 73
    16
 74
     0
 42
0.0000000001
 43
0.0000000001
 12
1.0
 22
0.0
 32
0.0
 13
1.0
 23
0.0
 33
0.0
 40
0.0
 40
0.0
 40
0.0
 40
0.0
 40
0.2
 40
0.2
 40
0.2
 40
0.2
 40
0.4
 40
0.4
 40
0.4
 40
0.4
 40
0.6
 40
0.6
 40
0.6
 40
0.6
 40
1.0
 40
1.0
 40
1.0
 40
1.0
 10
87.9057
 20
79.8597
 30
0.0
 10
87.9057
 20
83.1231
 30
0.0
 10
85.2612
 20
85.7666
 30
0.0
 10
82.0039
 20
85.7666
 30
0.0
 10
82.0039
 20
85.7666
 30
0.0
 10
78.7419
 20
85.7666
 30
0.0
 10
76.097
 20
83.1231
 30
0.0
 10
76.097
 20
79.8597
 30
0.0
 10
76.097
 20
79.8597
 30
0.0
 10
76.097
 20
76.5977
 30
0.0
 10
78.7416
 20
73.9542
 30
0.0
 10
82.0039
 20
73.9542
 30
0.0
 10
82.0039
 20
73.9542
 30
0.0
 10
85.2612
 20
73.9542
 30
0.0
 10
87.9057
 20
76.5977
 30
0.0
 10
87.9057
 20
79.8597
 30
0.0
  0
SPLINE
  5
47
330
1F
100
AcDbEntity
  8
layer 1
 62
     7
100
AcDbSpline
210
0.0
220
0.0
230
1.0
 70
    11
 71
     3
 72
    44
 73
    40
 74
     0
 42
0.0000000001
 43
0.0000000001
 12
1.0
 22
0.0
 32
0.0
 13
1.0
 23
0.0
 33
0.0
 40
0.0
 40
0.0
 40
0.0
 40
0.0
 40
0.0909090909090909
 40
0.0909090909090909
 40
0.0909090909090909
 40
0.0909090909090909
 40
0.1818181818181818
 40
0.1818181818181818
 40
0.1818181818181818
 40
0.1818181818181818
 40
0.2727272727272727
 40
0.2727272727272727
 40
0.2727272727272727
 40
0.2727272727272727
 40
0.3636363636363636
 40
0.3636363636363636
 40
0.3636363636363636
 40
0.3636363636363636
 40
0.4545454545454545
 40
0.4545454545454545
 40
0.4545454545454545
 40
0.4545454545454545
 40
0.5454545454545454
 40
0.5454545454545454
 40
0.5454545454545454
 40
0.5454545454545454
 40
0.6363636363636364
 40
0.6363636363636364
 40
0.6363636363636364
 40
0.6363636363636364
 40
0.7272727272727273
 40
0.7272727272727273
 40
0.7272727272727273
 40
0.7272727272727273
 40
0.8181818181818182
 40
0.8181818181818182
 40
0.8181818181818182
 40
0.8181818181818182
 40
1.0
 40
1.0
 40
1.0
 40
1.0
 10
76.1389
 20
91.0556
 30
0.0
 10
73.1838
 20
89.3034
 30
0.0
 10
69.8051
 20
82.0868
 30
0.0
 10
61.1063
 20
83.085
 30
0.0
 10
61.1063
 20
83.085
 30
0.0
 10
55.8136
 20
83.694
 30
0.0
 10
53.6755
 20
86.5051
 30
0.0
 10
50.511
 20
92.9461
 30
0.0
 10
50.511
 20
92.9461
 30
0.0
 10
48.8657
 20
92.1894
 30
0.0
 10
49.8093
 20
77.402
 30
0.0
 10
61.3238
 20
78.206
 30
0.0
 10
61.3238
 20
78.206
 30
0.0
 10
51.6448
 20
73.7448
 30
0.0
 10
46.4353
 20
67.4801
 30
0.0
 10
50.2173
 20
63.7626
 30
0.0
 10
50.2173
 20
63.7626
 30
0.0
 10
53.9349
 20
59.9759
 30
0.0
 10
60.2043
 20
65.184
 30
0.0
 10
64.6658
 20
74.8691
 30
0.0
 10
64.6658
 20
74.8691
 30
0.0
 10
63.8567
 20
63.3532
 30
0.0
 10
78.6488
 20
62.41
 30
0.0
 10
79.4066
 20
64.0553
 30
0.0
 10
79.4066
 20
64.0553
 30
0.0
 10
72.9612
 20
67.2198
 30
0.0
 10
70.1534
 20
69.3575
 30
0.0
 10
69.541
 20
74.6513
 30
0.0
 10
69.541
 20
74.6513
 30
0.0
 10
68.5415
 20
83.3504
 30
0.0
 10
75.7581
 20
86.7287
 30
0.0
 10
77.5104
 20
89.6838
 30
0.0
 10
77.5104
 20
89.6838
 30
0.0
 10
77.6544
 20
90.3158
 30
0.0
 10
77.5984
 20
90.7619
 30
0.0
 10
77.4497
 20
90.9949
 30
0.0
 10
77.4497
 20
90.9949
 30
0.0
 10
77.2177
 20
91.1437
 30
0.0
 10
76.7715
 20
91.1996
 30
0.0
 10
76.1389
 20
91.0556
 30
0.0
  0
SPLINE
  5
48
330
1F
100
AcDbEntity
  8
layer 1
 62
     7
100
AcDbSpline
210
0.0
220
0.0
230
1.0
 70
    11
 71
     3
 72
    44
 73
    40
 74
     0
 42
0.0000000001
 43
0.0000000001
 12
1.0
 22
0.0
 32
0.0
 13
1.0
 23
0.0
 33
0.0
 40
0.0
 40
0.0
 40
0.0
 40
0.0
 40
0.0909090909090909
 40
0.0909090909090909
 40
0.0909090909090909
 40
0.0909090909090909
 40
0.1818181818181818
 40
0.1818181818181818
 40
0.1818181818181818
 40
0.1818181818181818
 40
0.2727272727272727
 40
0.2727272727272727
 40
0.2727272727272727
 40
0.2727272727272727
 40
0.3636363636363636
 40
0.3636363636363636
 40
0.3636363636363636
 40
0.3636363636363636
 40
0.4545454545454545
 40
0.4545454545454545
 40
0.4545454545454545
 40
0.4545454545454545
 40
0.5454545454545454
 40
0.5454545454545454
 40
0.5454545454545454
 40
0.5454545454545454
 40
0.6363636363636364
 40
0.6363636363636364
 40
0.6363636363636364
 40
0.6363636363636364
 40
0.7272727272727273
 40
0.7272727272727273
 40
0.7272727272727273
 40
0.7272727272727273
 40
0.8181818181818182
 40
0.8181818181818182
 40
0.8181818181818182
 40
0.8181818181818182
 40
1.0
 40
1.0
 40
1.0
 40
1.0
 10
87.6322
 20
91.0556
 30
0.0
 10
90.5873
 20
89.3034
 30
0.0
 10
93.9704
 20
82.0868
 30
0.0
 10
102.6695
 20
83.085
 30
0.0
 10
102.6695
 20
83.085
 30
0.0
 10
107.9585
 20
83.694
 30
0.0
 10
110.0952
 20
86.5051
 30
0.0
 10
113.2655
 20
92.9461
 30
0.0
 10
113.2655
 20
92.9461
 30
0.0
 10
114.9098
 20
92.1894
 30
0.0
 10
113.9662
 20
77.402
 30
0.0
 10
102.4469
 20
78.206
 30
0.0
 10
102.4469
 20
78.206
 30
0.0
 10
112.1307
 20
73.7448
 30
0.0
 10
117.3402
 20
67.4801
 30
0.0
 10
113.5534
 20
63.7626
 30
0.0
 10
113.5534
 20
63.7626
 30
0.0
 10
109.8406
 20
59.9759
 30
0.0
 10
103.5712
 20
65.184
 30
0.0
 10
99.1097
 20
74.8691
 30
0.0
 10
99.1097
 20
74.8691
 30
0.0
 10
99.9191
 20
63.3532
 30
0.0
 10
85.1266
 20
62.41
 30
0.0
 10
84.3689
 20
64.0553
 30
0.0
 10
84.3689
 20
64.0553
 30
0.0
 10
90.8143
 20
67.2198
 30
0.0
 10
93.622
 20
69.3575
 30
0.0
 10
94.2311
 20
74.6513
 30
0.0
 10
94.2311
 20
74.6513
 30
0.0
 10
95.234
 20
83.3504
 30
0.0
 10
88.0126
 20
86.7287
 30
0.0
 10
86.2604
 20
89.6838
 30
0.0
 10
86.2604
 20
89.6838
 30
0.0
 10
86.1164
 20
90.3158
 30
0.0
 10
86.1771
 20
90.7619
 30
0.0
 10
86.3211
 20
90.9949
 30
0.0
 10
86.3211
 20
90.9949
 30
0.0
 10
86.5578
 20
91.1437
 30
0.0
 10
87.004
 20
91.1996
 30
0.0
 10
87.6322
 20
91.0556
 30
0.0
  0
SPLINE
  5
49
330
1F
100
AcDbEntity
  8
layer 1
 62
     7
100
AcDbSpline
210
0.0
220
0.0
230
1.0
 70
    11
 71
     3
 72
    20
 73
    16
 74
     0
 42
0.0000000001
 43
0.0000000001
 12
1.0
 22
0.0
 32
0.0
 13
1.0
 23
0.0
 33
0.0
 40
0.0
 40
0.0
 40
0.0
 40
0.0
 40
0.2
 40
0.2
 40
0.2
 40
0.2
 40
0.4
 40
0.4
 40
0.4
 40
0.4
 40
0.6
 40
0.6
 40
0.6
 40
0.6
 40
1.0
 40
1.0
 40
1.0
 40
1.0
 10
72.5983
 20
95.3172
 30
0.0
 10
72.5983
 20
92.0538
 30
0.0
 10
69.9538
 20
89.4103
 30
0.0
 10
66.6918
 20
89.4103
 30
0.0
 10
66.6918
 20
89.4103
 30
0.0
 10
63.4298
 20
89.4103
 30
0.0
 10
60.785
 20
92.0538
 30
0.0
 10
60.785
 20
95.3168
 30
0.0
 10
60.785
 20
95.3168
 30
0.0
 10
60.785
 20
98.5792
 30
0.0
 10
63.4295
 20
101.2223
 30
0.0
 10
66.6918
 20
101.2223
 30
0.0
 10
66.6918
 20
101.2223
 30
0.0
 10
69.9538
 20
101.2227
 30
0.0
 10
72.5983
 20
98.5792
 30
0.0
 10
72.5983
 20
95.3172
 30
0.0
  0
SPLINE
  5
4A
330
1F
100
AcDbEntity
  8
layer 1
 62
     7
100
AcDbSpline
210
0.0
220
0.0
230
1.0
 70
    11
 71
     3
 72
    20
 73
    16
 74
     0
 42
0.0000000001
 43
0.0000000001
 12
1.0
 22
0.0
 32
0.0
 13
1.0
 23
0.0
 33
0.0
 40
0.0
 40
0.0
 40
0.0
 40
0.0
 40
0.2
 40
0.2
 40
0.2
 40
0.2
 40
0.4
 40
0.4
 40
0.4
 40
0.4
 40
0.6
 40
0.6
 40
0.6
 40
0.6
 40
1.0
 40
1.0
 40
1.0
 40
1.0
 10
103.6127
 20
95.3172
 30
0.0
 10
103.6127
 20
92.0538
 30
0.0
 10
100.9692
 20
89.4103
 30
0.0
 10
97.7062
 20
89.4103
 30
0.0
 10
97.7062
 20
89.4103
 30
0.0
 10
94.4442
 20
89.4103
 30
0.0
 10
91.8007
 20
92.0538
 30
0.0
 10
91.8007
 20
95.3168
 30
0.0
 10
91.8007
 20
95.3168
 30
0.0
 10
91.8007
 20
98.5792
 30
0.0
 10
94.4442
 20
101.2223
 30
0.0
 10
97.7062
 20
101.2223
 30
0.0
 10
97.7062
 20
101.2223
 30
0.0
 10
100.9695
 20
101.2227
 30
0.0
 10
103.6127
 20
98.5792
 30
0.0
 10
103.6127
 20
95.3172
 30
0.0
  0
SPLINE
  5
4B
330
1F
100
AcDbEntity
  8
layer 1
100
AcDbSpline
210
0.0
220
0.0
230
1.0
 70
    11
 71
     3
 72
    20
 73
    16
 74
     0
 42
0.0000000001
 43
0.0000000001
 12
1.0
 22
0.0
 32
0.0
 13
1.0
 23
0.0
 33
0.0
 40
0.0
 40
0.0
 40
0.0
 40
0.0
 40
0.2
 40
0.2
 40
0.2
 40
0.2
 40
0.4
 40
0.4
 40
0.4
 40
0.4
 40
0.6
 40
0.6
 40
0.6
 40
0.6
 40
1.0
 40
1.0
 40
1.0
 40
1.0
 10
122.8733
 20
131.7621
 30
0.0
 10
122.8733
 20
131.7621
 30
0.0
 10
196.3995
 20
131.7621
 30
0.0
 10
196.3995
 20
131.7621
 30
0.0
 10
196.3995
 20
131.7621
 30
0.0
 10
196.3995
 20
131.7621
 30
0.0
 10
196.3995
 20
58.2358
 30
0.0
 10
196.3995
 20
58.2358
 30
0.0
 10
196.3995
 20
58.2358
 30
0.0
 10
196.3995
 20
58.2358
 30
0.0
 10
122.8733
 20
58.2358
 30
0.0
 10
122.8733
 20
58.2358
 30
0.0
 10
122.8733
 20
58.2358
 30
0.0
 10
122.8733
 20
58.2358
 30
0.0
 10
122.8733
 20
131.7621
 30
0.0
 10
122.8733
 20
131.7621
 30
0.0
  0
SPLINE
  5
4C
330
1F
100
AcDbEntity
  8
layer 1
 62
     7
100
AcDbSpline
210
0.0
220
0.0
230
1.0
 70
    11
 71
     3
 72
    20
 73
    16
 74
     0
 42
0.0000000001
 43
0.0000000001
 12
1.0
 22
0.0
 32
0.0
 13
1.0
 23
0.0
 33
0.0
 40
0.0
 40
0.0
 40
0.0
 40
0.0
 40
0.2
 40
0.2
 40
0.2
 40
0.2
 40
0.4
 40
0.4
 40
0.4
 40
0.4
 40
0.6
 40
0.6
 40
0.6
 40
0.6
 40
1.0
 40
1.0
 40
1.0
 40
1.0
 10
129.7324
 20
63.3902
 30
0.0
 10
129.7324
 20
62.2447
 30
0.0
 10
128.8106
 20
61.3185
 30
0.0
 10
127.6746
 20
61.3185
 30
0.0
 10
127.6746
 20
61.3185
 30
0.0
 10
126.5389
 20
61.3185
 30
0.0
 10
125.616
 20
62.2447
 30
0.0
 10
125.616
 20
63.3902
 30
0.0
 10
125.616
 20
63.3902
 30
0.0
 10
125.616
 20
64.531
 30
0.0
 10
126.5385
 20
65.4572
 30
0.0
 10
127.6746
 20
65.4572
 30
0.0
 10
127.6746
 20
65.4572
 30
0.0
 10
128.8109
 20
65.4575
 30
0.0
 10
129.7321
 20
64.531
 30
0.0
 10
129.7324
 20
63.3902
 30
0.0
  0
SPLINE
  5
4D
330
1F
100
AcDbEntity
  8
layer 1
 62
     7
100
AcDbSpline
210
0.0
220
0.0
230
1.0
 70
    11
 71
     3
 72
    20
 73
    16
 74
     0
 42
0.0000000001
 43
0.0000000001
 12
1.0
 22
0.0
 32
0.0
 13
1.0
 23
0.0
 33
0.0
 40
0.0
 40
0.0
 40
0.0
 40
0.0
 40
0.2
 40
0.2
 40
0.2
 40
0.2
 40
0.4
 40
0.4
 40
0.4
 40
0.4
 40
0.6
 40
0.6
 40
0.6
 40
0.6
 40
1.0
 40
1.0
 40
1.0
 40
1.0
 10
129.7324
 20
126.76
 30
0.0
 10
129.7324
 20
125.6145
 30
0.0
 10
128.8106
 20
124.688
 30
0.0
 10
127.6746
 20
124.688
 30
0.0
 10
127.6746
 20
124.688
 30
0.0
 10
126.5389
 20
124.688
 30
0.0
 10
125.616
 20
125.6145
 30
0.0
 10
125.616
 20
126.76
 30
0.0
 10
125.616
 20
126.76
 30
0.0
 10
125.616
 20
127.9008
 30
0.0
 10
126.5385
 20
128.8284
 30
0.0
 10
127.6746
 20
128.8284
 30
0.0
 10
127.6746
 20
128.8284
 30
0.0
 10
128.8109
 20
128.8284
 30
0.0
 10
129.7321
 20
127.9008
 30
0.0
 10
129.7324
 20
126.76
 30
0.0
  0
SPLINE
  5
4E
330
1F
100
AcDbEntity
  8
layer 1
 62
     7
100
AcDbSpline
210
0.0
220
0.0
230
1.0
 70
    11
 71
     3
 72
    20
 73
    16
 74
     0
 42
0.0000000001
 43
0.0000000001
 12
1.0
 22
0.0
 32
0.0
 13
1.0
 23
0.0
 33
0.0
 40
0.0
 40
0.0
 40
0.0
 40
0.0
 40
0.2
 40
0.2
 40
0.2
 40
0.2
 40
0.4
 40
0.4
 40
0.4
 40
0.4
 40
0.6
 40
0.6
 40
0.6
 40
0.6
 40
1.0
 40
1.0
 40
1.0
 40
1.0
 10
193.2938
 20
63.3902
 30
0.0
 10
193.2938
 20
62.2447
 30
0.0
 10
192.3713
 20
61.3185
 30
0.0
 10
191.2353
 20
61.3185
 30
0.0
 10
191.2353
 20
61.3185
 30
0.0
 10
190.0992
 20
61.3185
 30
0.0
 10
189.1764
 20
62.2447
 30
0.0
 10
189.1764
 20
63.3902
 30
0.0
 10
189.1764
 20
63.3902
 30
0.0
 10
189.1764
 20
64.531
 30
0.0
 10
190.0992
 20
65.4572
 30
0.0
 10
191.2353
 20
65.4572
 30
0.0
 10
191.2353
 20
65.4572
 30
0.0
 10
192.3713
 20
65.4575
 30
0.0
 10
193.2938
 20
64.531
 30
0.0
 10
193.2938
 20
63.3902
 30
0.0
  0
SPLINE
  5
4F
330
1F
100
AcDbEntity
  8
layer 1
 62
     7
100
AcDbSpline
210
0.0
220
0.0
230
1.0
 70
    11
 71
     3
 72
    20
 73
    16
 74
     0
 42
0.0000000001
 43
0.0000000001
 12
1.0
 22
0.0
 32
0.0
 13
1.0
 23
0.0
 33
0.0
 40
0.0
 40
0.0
 40
0.0
 40
0.0
 40
0.2
 40
0.2
 40
0.2
 40
0.2
 40
0.4
 40
0.4
 40
0.4
 40
0.4
 40
0.6
 40
0.6
 40
0.6
 40
0.6
 40
1.0
 40
1.0
 40
1.0
 40
1.0
 10
193.2938
 20
126.76
 30
0.0
 10
193.2938
 20
125.6145
 30
0.0
 10
192.3713
 20
124.688
 30
0.0
 10
191.2353
 20
124.688
 30
0.0
 10
191.2353
 20
124.688
 30
0.0
 10
190.0992
 20
124.688
 30
0.0
 10
189.1764
 20
125.6145
 30
0.0
 10
189.1764
 20
126.76
 30
0.0
 10
189.1764
 20
126.76
 30
0.0
 10
189.1764
 20
127.9008
 30
0.0
 10
190.0992
 20
128.8284
 30
0.0
 10
191.2353
 20
128.8284
 30
0.0
 10
191.2353
 20
128.8284
 30
0.0
 10
192.3713
 20
128.8284
 30
0.0
 10
193.2938
 20
127.9008
 30
0.0
 10
193.2938
 20
126.76
 30
0.0
  0
SPLINE
  5
50
330
1F
100
AcDbEntity
  8
layer 1
 62
     7
100
AcDbSpline
210
0.0
220
0.0
230
1.0
 70
    11
 71
     3
 72
    16
 73
    12
 74
     0
 42
0.0000000001
 43
0.0000000001
 12
1.0
 22
0.0
 32
0.0
 13
1.0
 23
0.0
 33
0.0
 40
0.0
 40
0.0
 40
0.0
 40
0.0
 40
0.25
 40
0.25
 40
0.25
 40
0.25
 40
0.5
 40
0.5
 40
0.5
 40
0.5
 40
1.0
 40
1.0
 40
1.0
 40
1.0
 10
126.398
 20
114.0014
 30
0.0
 10
126.4219
 20
108.9163
 30
0.0
 10
126.3659
 20
104.4603
 30
0.0
 10
126.3932
 20
101.3036
 30
0.0
 10
126.3932
 20
101.3036
 30
0.0
 10
127.6093
 20
103.3898
 30
0.0
 10
129.6679
 20
106.309
 30
0.0
 10
131.4081
 20
108.1435
 30
0.0
 10
131.4081
 20
108.1435
 30
0.0
 10
129.0623
 20
109.1916
 30
0.0
 10
127.4137
 20
111.4779
 30
0.0
 10
126.398
 20
114.0014
 30
0.0
  0
SPLINE
  5
51
330
1F
100
AcDbEntity
  8
layer 1
 62
     7
100
AcDbSpline
210
0.0
220
0.0
230
1.0
 70
    11
 71
     3
 72
    16
 73
    12
 74
     0
 42
0.0000000001
 43
0.0000000001
 12
1.0
 22
0.0
 32
0.0
 13
1.0
 23
0.0
 33
0.0
 40
0.0
 40
0.0
 40
0.0
 40
0.0
 40
0.25
 40
0.25
 40
0.25
 40
0.25
 40
0.5
 40
0.5
 40
0.5
 40
0.5
 40
1.0
 40
1.0
 40
1.0
 40
1.0
 10
151.3621
 20
128.1573
 30
0.0
 10
146.2769
 20
128.1296
 30
0.0
 10
141.821
 20
128.1894
 30
0.0
 10
138.6629
 20
128.1569
 30
0.0
 10
138.6629
 20
128.1569
 30
0.0
 10
141.6862
 20
127.1189
 30
0.0
 10
144.3813
 20
124.2602
 30
0.0
 10
144.9213
 20
120.9903
 30
0.0
 10
144.9213
 20
120.9903
 30
0.0
 10
145.8346
 20
123.9659
 30
0.0
 10
148.7957
 20
126.8719
 30
0.0
 10
151.3621
 20
128.1573
 30
0.0
  0
SPLINE
  5
52
330
1F
100
AcDbEntity
  8
layer 1
 62
     7
100
AcDbSpline
210
0.0
220
0.0
230
1.0
 70
    11
 71
     3
 72
    28
 73
    24
 74
     0
 42
0.0000000001
 43
0.0000000001
 12
1.0
 22
0.0
 32
0.0
 13
1.0
 23
0.0
 33
0.0
 40
0.0
 40
0.0
 40
0.0
 40
0.0
 40
0.1428571428571428
 40
0.1428571428571428
 40
0.1428571428571428
 40
0.1428571428571428
 40
0.2857142857142857
 40
0.2857142857142857
 40
0.2857142857142857
 40
0.2857142857142857
 40
0.4285714285714285
 40
0.4285714285714285
 40
0.4285714285714285
 40
0.4285714285714285
 40
0.5714285714285714
 40
0.5714285714285714
 40
0.5714285714285714
 40
0.5714285714285714
 40
0.7142857142857143
 40
0.7142857142857143
 40
0.7142857142857143
 40
0.7142857142857143
 40
1.0
 40
1.0
 40
1.0
 40
1.0
 10
141.0617
 20
114.7238
 30
0.0
 10
144.1025
 20
120.6233
 30
0.0
 10
140.5309
 20
124.6785
 30
0.0
 10
137.4853
 20
125.7538
 30
0.0
 10
137.4853
 20
125.7538
 30
0.0
 10
133.3085
 20
127.0212
 30
0.0
 10
131.4321
 20
125.5726
 30
0.0
 10
131.0779
 20
123.3151
 30
0.0
 10
131.0779
 20
123.3151
 30
0.0
 10
130.9898
 20
120.4696
 30
0.0
 10
134.3931
 20
118.2999
 30
0.0
 10
137.3089
 20
122.2111
 30
0.0
 10
137.3089
 20
122.2111
 30
0.0
 10
140.8052
 20
116.3154
 30
0.0
 10
132.2559
 20
112.8045
 30
0.0
 10
128.9921
 20
115.575
 30
0.0
 10
128.9921
 20
115.575
 30
0.0
 10
130.4498
 20
112.5673
 30
0.0
 10
132.6992
 20
111.2728
 30
0.0
 10
134.0404
 20
110.5135
 30
0.0
 10
134.0404
 20
110.5135
 30
0.0
 10
136.5223
 20
112.4136
 30
0.0
 10
137.7786
 20
113.0799
 30
0.0
 10
141.0617
 20
114.7238
 30
0.0
  0
SPLINE
  5
53
330
1F
100
AcDbEntity
  8
layer 1
 62
     7
100
AcDbSpline
210
0.0
220
0.0
230
1.0
 70
    11
 71
     3
 72
    24
 73
    20
 74
     0
 42
0.0000000001
 43
0.0000000001
 12
1.0
 22
0.0
 32
0.0
 13
1.0
 23
0.0
 33
0.0
 40
0.0
 40
0.0
 40
0.0
 40
0.0
 40
0.1666666666666667
 40
0.1666666666666667
 40
0.1666666666666667
 40
0.1666666666666667
 40
0.3333333333333333
 40
0.3333333333333333
 40
0.3333333333333333
 40
0.3333333333333333
 40
0.5
 40
0.5
 40
0.5
 40
0.5
 40
0.6666666666666666
 40
0.6666666666666666
 40
0.6666666666666666
 40
0.6666666666666666
 40
1.0
 40
1.0
 40
1.0
 40
1.0
 10
145.8204
 20
116.3343
 30
0.0
 10
147.5394
 20
121.508
 30
0.0
 10
149.9365
 20
125.5821
 30
0.0
 10
155.6417
 20
126.611
 30
0.0
 10
155.6417
 20
126.611
 30
0.0
 10
159.3715
 20
127.2868
 30
0.0
 10
162.6961
 20
124.8789
 30
0.0
 10
161.9416
 20
120.9856
 30
0.0
 10
161.9416
 20
120.9856
 30
0.0
 10
161.2239
 20
117.3355
 30
0.0
 10
155.1754
 20
117.0006
 30
0.0
 10
157.5454
 20
123.0171
 30
0.0
 10
157.5454
 20
123.0171
 30
0.0
 10
154.384
 20
123.6084
 30
0.0
 10
152.2275
 20
121.4803
 30
0.0
 10
153.155
 20
117.0101
 30
0.0
 10
153.155
 20
117.0101
 30
0.0
 10
150.4491
 20
116.9351
 30
0.0
 10
147.9861
 20
116.7073
 30
0.0
 10
145.8204
 20
116.3343
 30
0.0
  0
SPLINE
  5
54
330
1F
100
AcDbEntity
  8
layer 1
 62
     7
100
AcDbSpline
210
0.0
220
0.0
230
1.0
 70
    11
 71
     3
 72
    24
 73
    20
 74
     0
 42
0.0000000001
 43
0.0000000001
 12
1.0
 22
0.0
 32
0.0
 13
1.0
 23
0.0
 33
0.0
 40
0.0
 40
0.0
 40
0.0
 40
0.0
 40
0.1666666666666667
 40
0.1666666666666667
 40
0.1666666666666667
 40
0.1666666666666667
 40
0.3333333333333333
 40
0.3333333333333333
 40
0.3333333333333333
 40
0.3333333333333333
 40
0.5
 40
0.5
 40
0.5
 40
0.5
 40
0.6666666666666666
 40
0.6666666666666666
 40
0.6666666666666666
 40
0.6666666666666666
 40
1.0
 40
1.0
 40
1.0
 40
1.0
 10
164.5357
 20
128.2036
 30
0.0
 10
164.241
 20
121.3265
 30
0.0
 10
168.1151
 20
116.3998
 30
0.0
 10
173.8203
 20
115.3709
 30
0.0
 10
173.8203
 20
115.3709
 30
0.0
 10
177.5504
 20
114.6998
 30
0.0
 10
182.9373
 20
118.4908
 30
0.0
 10
180.4791
 20
123.2816
 30
0.0
 10
180.4791
 20
123.2816
 30
0.0
 10
178.1036
 20
126.6205
 30
0.0
 10
174.2532
 20
124.986
 30
0.0
 10
176.307
 20
120.3574
 30
0.0
 10
176.307
 20
120.3574
 30
0.0
 10
171.6689
 20
118.9139
 30
0.0
 10
169.3775
 20
123.6821
 30
0.0
 10
170.3037
 20
128.1569
 30
0.0
 10
170.3037
 20
128.1569
 30
0.0
 10
170.3037
 20
128.1569
 30
0.0
 10
164.5357
 20
128.2036
 30
0.0
 10
164.5357
 20
128.2036
 30
0.0
  0
SPLINE
  5
55
330
1F
100
AcDbEntity
  8
layer 1
 62
     7
100
AcDbSpline
210
0.0
220
0.0
230
1.0
 70
    11
 71
     3
 72
    20
 73
    16
 74
     0
 42
0.0000000001
 43
0.0000000001
 12
1.0
 22
0.0
 32
0.0
 13
1.0
 23
0.0
 33
0.0
 40
0.0
 40
0.0
 40
0.0
 40
0.0
 40
0.2
 40
0.2
 40
0.2
 40
0.2
 40
0.4
 40
0.4
 40
0.4
 40
0.4
 40
0.6
 40
0.6
 40
0.6
 40
0.6
 40
1.0
 40
1.0
 40
1.0
 40
1.0
 10
172.837
 20
108.3857
 30
0.0
 10
169.5684
 20
111.8929
 30
0.0
 10
165.0243
 20
114.0943
 30
0.0
 10
161.0569
 20
115.5199
 30
0.0
 10
161.0569
 20
115.5199
 30
0.0
 10
162.5329
 20
115.8504
 30
0.0
 10
163.478
 20
116.2174
 30
0.0
 10
164.3721
 20
118.5036
 30
0.0
 10
164.3721
 20
118.5036
 30
0.0
 10
166.2259
 20
114.2673
 30
0.0
 10
172.7116
 20
110.2665
 30
0.0
 10
177.8759
 20
113.4246
 30
0.0
 10
177.8759
 20
113.4246
 30
0.0
 10
177.8759
 20
113.4246
 30
0.0
 10
172.837
 20
108.3857
 30
0.0
 10
172.837
 20
108.3857
 30
0.0
  0
SPLINE
  5
56
330
1F
100
AcDbEntity
  8
layer 1
 62
     7
100
AcDbSpline
210
0.0
220
0.0
230
1.0
 70
    11
 71
     3
 72
    16
 73
    12
 74
     0
 42
0.0000000001
 43
0.0000000001
 12
1.0
 22
0.0
 32
0.0
 13
1.0
 23
0.0
 33
0.0
 40
0.0
 40
0.0
 40
0.0
 40
0.0
 40
0.25
 40
0.25
 40
0.25
 40
0.25
 40
0.5
 40
0.5
 40
0.5
 40
0.5
 40
1.0
 40
1.0
 40
1.0
 40
1.0
 10
182.8907
 20
118.4394
 30
0.0
 10
184.0126
 20
120.9535
 30
0.0
 10
184.0686
 20
123.9287
 30
0.0
 10
182.1456
 20
126.164
 30
0.0
 10
182.1456
 20
126.164
 30
0.0
 10
185.1675
 20
126.2667
 30
0.0
 10
186.3691
 20
124.0135
 30
0.0
 10
185.8004
 20
121.3492
 30
0.0
 10
185.8004
 20
121.3492
 30
0.0
 10
185.8004
 20
121.3492
 30
0.0
 10
182.8907
 20
118.4394
 30
0.0
 10
182.8907
 20
118.4394
 30
0.0
  0
SPLINE
  5
57
330
1F
100
AcDbEntity
  8
layer 1
 62
     7
100
AcDbSpline
210
0.0
220
0.0
230
1.0
 70
    11
 71
     3
 72
    20
 73
    16
 74
     0
 42
0.0000000001
 43
0.0000000001
 12
1.0
 22
0.0
 32
0.0
 13
1.0
 23
0.0
 33
0.0
 40
0.0
 40
0.0
 40
0.0
 40
0.0
 40
0.2
 40
0.2
 40
0.2
 40
0.2
 40
0.4
 40
0.4
 40
0.4
 40
0.4
 40
0.6
 40
0.6
 40
0.6
 40
0.6
 40
1.0
 40
1.0
 40
1.0
 40
1.0
 10
141.9234
 20
104.5914
 30
0.0
 10
141.9234
 20
104.5914
 30
0.0
 10
144.652
 20
107.3521
 30
0.0
 10
144.652
 20
107.3521
 30
0.0
 10
144.652
 20
107.3521
 30
0.0
 10
144.652
 20
107.3521
 30
0.0
 10
157.1545
 20
95.0729
 30
0.0
 10
157.1545
 20
95.0729
 30
0.0
 10
157.1545
 20
95.0729
 30
0.0
 10
157.1545
 20
95.0729
 30
0.0
 10
154.4208
 20
92.3119
 30
0.0
 10
154.4208
 20
92.3119
 30
0.0
 10
154.4208
 20
92.3119
 30
0.0
 10
154.4208
 20
92.3119
 30
0.0
 10
141.9234
 20
104.5914
 30
0.0
 10
141.9234
 20
104.5914
 30
0.0
  0
SPLINE
  5
58
330
1F
100
AcDbEntity
  8
layer 1
 62
     7
100
AcDbSpline
210
0.0
220
0.0
230
1.0
 70
    11
 71
     3
 72
    20
 73
    16
 74
     0
 42
0.0000000001
 43
0.0000000001
 12
1.0
 22
0.0
 32
0.0
 13
1.0
 23
0.0
 33
0.0
 40
0.0
 40
0.0
 40
0.0
 40
0.0
 40
0.2
 40
0.2
 40
0.2
 40
0.2
 40
0.4
 40
0.4
 40
0.4
 40
0.4
 40
0.6
 40
0.6
 40
0.6
 40
0.6
 40
1.0
 40
1.0
 40
1.0
 40
1.0
 10
132.7124
 20
95.6271
 30
0.0
 10
132.7124
 20
95.6271
 30
0.0
 10
135.441
 20
98.3878
 30
0.0
 10
135.441
 20
98.3878
 30
0.0
 10
135.441
 20
98.3878
 30
0.0
 10
135.441
 20
98.3878
 30
0.0
 10
147.9398
 20
86.1049
 30
0.0
 10
147.9398
 20
86.1049
 30
0.0
 10
147.9398
 20
86.1049
 30
0.0
 10
147.9398
 20
86.1049
 30
0.0
 10
145.2112
 20
83.3429
 30
0.0
 10
145.2112
 20
83.3429
 30
0.0
 10
145.2112
 20
83.3429
 30
0.0
 10
145.2112
 20
83.3429
 30
0.0
 10
132.7124
 20
95.6271
 30
0.0
 10
132.7124
 20
95.6271
 30
0.0
  0
SPLINE
  5
59
330
1F
100
AcDbEntity
  8
layer 1
 62
     7
100
AcDbSpline
210
0.0
220
0.0
230
1.0
 70
    11
 71
     3
 72
    20
 73
    16
 74
     0
 42
0.0000000001
 43
0.0000000001
 12
1.0
 22
0.0
 32
0.0
 13
1.0
 23
0.0
 33
0.0
 40
0.0
 40
0.0
 40
0.0
 40
0.0
 40
0.2
 40
0.2
 40
0.2
 40
0.2
 40
0.4
 40
0.4
 40
0.4
 40
0.4
 40
0.6
 40
0.6
 40
0.6
 40
0.6
 40
1.0
 40
1.0
 40
1.0
 40
1.0
 10
137.2853
 20
100.3906
 30
0.0
 10
137.2853
 20
100.3906
 30
0.0
 10
140.0186
 20
103.1526
 30
0.0
 10
140.0186
 20
103.1526
 30
0.0
 10
140.0186
 20
103.1526
 30
0.0
 10
140.0186
 20
103.1526
 30
0.0
 10
145.1598
 20
98.1651
 30
0.0
 10
145.1598
 20
98.1651
 30
0.0
 10
145.1598
 20
98.1651
 30
0.0
 10
145.1598
 20
98.1651
 30
0.0
 10
142.4265
 20
95.4041
 30
0.0
 10
142.4265
 20
95.4041
 30
0.0
 10
142.4265
 20
95.4041
 30
0.0
 10
142.4265
 20
95.4041
 30
0.0
 10
137.2853
 20
100.3906
 30
0.0
 10
137.2853
 20
100.3906
 30
0.0
  0
SPLINE
  5
5A
330
1F
100
AcDbEntity
  8
layer 1
 62
     7
100
AcDbSpline
210
0.0
220
0.0
230
1.0
 70
    11
 71
     3
 72
    20
 73
    16
 74
     0
 42
0.0000000001
 43
0.0000000001
 12
1.0
 22
0.0
 32
0.0
 13
1.0
 23
0.0
 33
0.0
 40
0.0
 40
0.0
 40
0.0
 40
0.0
 40
0.2
 40
0.2
 40
0.2
 40
0.2
 40
0.4
 40
0.4
 40
0.4
 40
0.4
 40
0.6
 40
0.6
 40
0.6
 40
0.6
 40
1.0
 40
1.0
 40
1.0
 40
1.0
 10
144.5817
 20
92.908
 30
0.0
 10
144.5817
 20
92.908
 30
0.0
 10
147.3103
 20
95.669
 30
0.0
 10
147.3103
 20
95.669
 30
0.0
 10
147.3103
 20
95.669
 30
0.0
 10
147.3103
 20
95.669
 30
0.0
 10
152.4566
 20
90.6825
 30
0.0
 10
152.4566
 20
90.6825
 30
0.0
 10
152.4566
 20
90.6825
 30
0.0
 10
152.4566
 20
90.6825
 30
0.0
 10
149.7229
 20
87.9205
 30
0.0
 10
149.7229
 20
87.9205
 30
0.0
 10
149.7229
 20
87.9205
 30
0.0
 10
149.7229
 20
87.9205
 30
0.0
 10
144.5817
 20
92.908
 30
0.0
 10
144.5817
 20
92.908
 30
0.0
  0
SPLINE
  5
5B
330
1F
100
AcDbEntity
  8
layer 1
 62
     7
100
AcDbSpline
210
0.0
220
0.0
230
1.0
 70
    11
 71
     3
 72
    24
 73
    20
 74
     0
 42
0.0000000001
 43
0.0000000001
 12
1.0
 22
0.0
 32
0.0
 13
1.0
 23
0.0
 33
0.0
 40
0.0
 40
0.0
 40
0.0
 40
0.0
 40
0.1666666666666667
 40
0.1666666666666667
 40
0.1666666666666667
 40
0.1666666666666667
 40
0.3333333333333333
 40
0.3333333333333333
 40
0.3333333333333333
 40
0.3333333333333333
 40
0.5
 40
0.5
 40
0.5
 40
0.5
 40
0.6666666666666666
 40
0.6666666666666666
 40
0.6666666666666666
 40
0.6666666666666666
 40
1.0
 40
1.0
 40
1.0
 40
1.0
 10
148.4798
 20
107.5011
 30
0.0
 10
148.4798
 20
107.5011
 30
0.0
 10
158.1317
 20
106.4904
 30
0.0
 10
158.1317
 20
106.4904
 30
0.0
 10
158.1317
 20
106.4904
 30
0.0
 10
158.1317
 20
106.4904
 30
0.0
 10
155.8549
 20
104.2231
 30
0.0
 10
155.8549
 20
104.2231
 30
0.0
 10
155.8549
 20
104.2231
 30
0.0
 10
155.8549
 20
104.2231
 30
0.0
 10
161.0654
 20
99.115
 30
0.0
 10
161.0654
 20
99.115
 30
0.0
 10
161.0654
 20
99.115
 30
0.0
 10
161.0654
 20
99.115
 30
0.0
 10
158.7517
 20
96.8848
 30
0.0
 10
158.7517
 20
96.8848
 30
0.0
 10
158.7517
 20
96.8848
 30
0.0
 10
158.7517
 20
96.8848
 30
0.0
 10
148.4798
 20
107.5011
 30
0.0
 10
148.4798
 20
107.5011
 30
0.0
  0
SPLINE
  5
5C
330
1F
100
AcDbEntity
  8
layer 1
 62
     7
100
AcDbSpline
210
0.0
220
0.0
230
1.0
 70
    11
 71
     3
 72
    24
 73
    20
 74
     0
 42
0.0000000001
 43
0.0000000001
 12
1.0
 22
0.0
 32
0.0
 13
1.0
 23
0.0
 33
0.0
 40
0.0
 40
0.0
 40
0.0
 40
0.0
 40
0.1666666666666667
 40
0.1666666666666667
 40
0.1666666666666667
 40
0.1666666666666667
 40
0.3333333333333333
 40
0.3333333333333333
 40
0.3333333333333333
 40
0.3333333333333333
 40
0.5
 40
0.5
 40
0.5
 40
0.5
 40
0.6666666666666666
 40
0.6666666666666666
 40
0.6666666666666666
 40
0.6666666666666666
 40
1.0
 40
1.0
 40
1.0
 40
1.0
 10
132.6482
 20
92.4704
 30
0.0
 10
132.6482
 20
92.4704
 30
0.0
 10
133.7183
 20
81.2712
 30
0.0
 10
133.7183
 20
81.2712
 30
0.0
 10
133.7183
 20
81.2712
 30
0.0
 10
133.7183
 20
81.2712
 30
0.0
 10
136.4196
 20
83.8555
 30
0.0
 10
136.4196
 20
83.8555
 30
0.0
 10
136.4196
 20
83.8555
 30
0.0
 10
136.4196
 20
83.8555
 30
0.0
 10
141.5277
 20
79.3901
 30
0.0
 10
141.5277
 20
79.3901
 30
0.0
 10
141.5277
 20
79.3901
 30
0.0
 10
141.5277
 20
79.3901
 30
0.0
 10
143.7531
 20
81.704
 30
0.0
 10
143.7531
 20
81.704
 30
0.0
 10
143.7531
 20
81.704
 30
0.0
 10
143.7531
 20
81.704
 30
0.0
 10
132.6482
 20
92.4704
 30
0.0
 10
132.6482
 20
92.4704
 30
0.0
  0
SPLINE
  5
5D
330
1F
100
AcDbEntity
  8
layer 1
 62
     7
100
AcDbSpline
210
0.0
220
0.0
230
1.0
 70
    11
 71
     3
 72
    28
 73
    24
 74
     0
 42
0.0000000001
 43
0.0000000001
 12
1.0
 22
0.0
 32
0.0
 13
1.0
 23
0.0
 33
0.0
 40
0.0
 40
0.0
 40
0.0
 40
0.0
 40
0.1428571428571428
 40
0.1428571428571428
 40
0.1428571428571428
 40
0.1428571428571428
 40
0.2857142857142857
 40
0.2857142857142857
 40
0.2857142857142857
 40
0.2857142857142857
 40
0.4285714285714285
 40
0.4285714285714285
 40
0.4285714285714285
 40
0.4285714285714285
 40
0.5714285714285714
 40
0.5714285714285714
 40
0.5714285714285714
 40
0.5714285714285714
 40
0.7142857142857143
 40
0.7142857142857143
 40
0.7142857142857143
 40
0.7142857142857143
 40
1.0
 40
1.0
 40
1.0
 40
1.0
 10
126.8964
 20
91.6827
 30
0.0
 10
125.2251
 20
84.1809
 30
0.0
 10
128.396
 20
74.9902
 30
0.0
 10
132.6658
 20
70.6356
 30
0.0
 10
132.6658
 20
70.6356
 30
0.0
 10
132.6658
 20
70.6356
 30
0.0
 10
139.7574
 20
77.6759
 30
0.0
 10
139.7574
 20
77.6759
 30
0.0
 10
139.7574
 20
77.6759
 30
0.0
 10
139.7574
 20
77.6759
 30
0.0
 10
136.9501
 20
80.5035
 30
0.0
 10
136.9501
 20
80.5035
 30
0.0
 10
136.9501
 20
80.5035
 30
0.0
 10
136.9501
 20
80.5035
 30
0.0
 10
132.685
 20
76.3266
 30
0.0
 10
132.685
 20
76.3266
 30
0.0
 10
132.685
 20
76.3266
 30
0.0
 10
130.3379
 20
79.0968
 30
0.0
 10
129.1232
 20
85.9927
 30
0.0
 10
129.9003
 20
91.6969
 30
0.0
 10
129.9003
 20
91.6969
 30
0.0
 10
129.9003
 20
91.6969
 30
0.0
 10
126.8964
 20
91.6827
 30
0.0
 10
126.8964
 20
91.6827
 30
0.0
  0
SPLINE
  5
5E
330
1F
100
AcDbEntity
  8
layer 1
 62
     7
100
AcDbSpline
210
0.0
220
0.0
230
1.0
 70
    11
 71
     3
 72
    32
 73
    28
 74
     0
 42
0.0000000001
 43
0.0000000001
 12
1.0
 22
0.0
 32
0.0
 13
1.0
 23
0.0
 33
0.0
 40
0.0
 40
0.0
 40
0.0
 40
0.0
 40
0.125
 40
0.125
 40
0.125
 40
0.125
 40
0.25
 40
0.25
 40
0.25
 40
0.25
 40
0.375
 40
0.375
 40
0.375
 40
0.375
 40
0.5
 40
0.5
 40
0.5
 40
0.5
 40
0.625
 40
0.625
 40
0.625
 40
0.625
 40
0.75
 40
0.75
 40
0.75
 40
0.75
 40
1.0
 40
1.0
 40
1.0
 40
1.0
 10
127.3481
 20
94.6401
 30
0.0
 10
134.4266
 20
116.3201
 30
0.0
 10
158.3236
 20
117.0746
 30
0.0
 10
169.0008
 20
107.0909
 30
0.0
 10
169.0008
 20
107.0909
 30
0.0
 10
169.0008
 20
107.0909
 30
0.0
 10
163.8132
 20
101.9605
 30
0.0
 10
163.8132
 20
101.9605
 30
0.0
 10
163.8132
 20
101.9605
 30
0.0
 10
163.8132
 20
101.9605
 30
0.0
 10
159.4695
 20
106.383
 30
0.0
 10
159.4695
 20
106.383
 30
0.0
 10
159.4695
 20
106.383
 30
0.0
 10
159.4695
 20
106.383
 30
0.0
 10
162.5282
 20
105.9133
 30
0.0
 10
162.5282
 20
105.9133
 30
0.0
 10
162.5282
 20
105.9133
 30
0.0
 10
162.5282
 20
105.9133
 30
0.0
 10
163.9349
 20
107.4822
 30
0.0
 10
163.9349
 20
107.4822
 30
0.0
 10
163.9349
 20
107.4822
 30
0.0
 10
145.7927
 20
116.3296
 30
0.0
 10
134.1238
 20
103.9859
 30
0.0
 10
130.296
 20
94.6401
 30
0.0
 10
130.296
 20
94.6401
 30
0.0
 10
130.296
 20
94.6401
 30
0.0
 10
127.3481
 20
94.6401
 30
0.0
 10
127.3481
 20
94.6401
 30
0.0
  0
SPLINE
  5
5F
330
1F
100
AcDbEntity
  8
layer 1
 62
     7
100
AcDbSpline
210
0.0
220
0.0
230
1.0
 70
    11
 71
     3
 72
    16
 73
    12
 74
     0
 42
0.0000000001
 43
0.0000000001
 12
1.0
 22
0.0
 32
0.0
 13
1.0
 23
0.0
 33
0.0
 40
0.0
 40
0.0
 40
0.0
 40
0.0
 40
0.25
 40
0.25
 40
0.25
 40
0.25
 40
0.5
 40
0.5
 40
0.5
 40
0.5
 40
1.0
 40
1.0
 40
1.0
 40
1.0
 10
178.43
 20
61.9707
 30
0.0
 10
173.3496
 20
61.9933
 30
0.0
 10
168.8889
 20
61.9372
 30
0.0
 10
165.7312
 20
61.9656
 30
0.0
 10
165.7312
 20
61.9656
 30
0.0
 10
167.8174
 20
63.1804
 30
0.0
 10
170.7376
 20
65.2392
 30
0.0
 10
172.5724
 20
66.9808
 30
0.0
 10
172.5724
 20
66.9808
 30
0.0
 10
173.6203
 20
64.6337
 30
0.0
 10
175.9065
 20
62.9851
 30
0.0
 10
178.43
 20
61.9707
 30
0.0
  0
SPLINE
  5
60
330
1F
100
AcDbEntity
  8
layer 1
 62
     7
100
AcDbSpline
210
0.0
220
0.0
230
1.0
 70
    11
 71
     3
 72
    16
 73
    12
 74
     0
 42
0.0000000001
 43
0.0000000001
 12
1.0
 22
0.0
 32
0.0
 13
1.0
 23
0.0
 33
0.0
 40
0.0
 40
0.0
 40
0.0
 40
0.0
 40
0.25
 40
0.25
 40
0.25
 40
0.25
 40
0.5
 40
0.5
 40
0.5
 40
0.5
 40
1.0
 40
1.0
 40
1.0
 40
1.0
 10
192.5856
 20
86.9335
 30
0.0
 10
192.5572
 20
81.848
 30
0.0
 10
192.618
 20
77.392
 30
0.0
 10
192.5856
 20
74.2356
 30
0.0
 10
192.5856
 20
74.2356
 30
0.0
 10
191.5475
 20
77.2575
 30
0.0
 10
188.6878
 20
79.954
 30
0.0
 10
185.4193
 20
80.494
 30
0.0
 10
185.4193
 20
80.494
 30
0.0
 10
188.3945
 20
81.406
 30
0.0
 10
191.3008
 20
84.3634
 30
0.0
 10
192.5856
 20
86.9335
 30
0.0
  0
SPLINE
  5
61
330
1F
100
AcDbEntity
  8
layer 1
 62
     7
100
AcDbSpline
210
0.0
220
0.0
230
1.0
 70
    11
 71
     3
 72
    28
 73
    24
 74
     0
 42
0.0000000001
 43
0.0000000001
 12
1.0
 22
0.0
 32
0.0
 13
1.0
 23
0.0
 33
0.0
 40
0.0
 40
0.0
 40
0.0
 40
0.0
 40
0.1428571428571428
 40
0.1428571428571428
 40
0.1428571428571428
 40
0.1428571428571428
 40
0.2857142857142857
 40
0.2857142857142857
 40
0.2857142857142857
 40
0.2857142857142857
 40
0.4285714285714285
 40
0.4285714285714285
 40
0.4285714285714285
 40
0.4285714285714285
 40
0.5714285714285714
 40
0.5714285714285714
 40
0.5714285714285714
 40
0.5714285714285714
 40
0.7142857142857143
 40
0.7142857142857143
 40
0.7142857142857143
 40
0.7142857142857143
 40
1.0
 40
1.0
 40
1.0
 40
1.0
 10
179.1514
 20
76.6327
 30
0.0
 10
185.0509
 20
79.6739
 30
0.0
 10
189.1072
 20
76.1022
 30
0.0
 10
190.1827
 20
73.0567
 30
0.0
 10
190.1827
 20
73.0567
 30
0.0
 10
191.4499
 20
68.8809
 30
0.0
 10
190.0013
 20
67.0035
 30
0.0
 10
187.7424
 20
66.6493
 30
0.0
 10
187.7424
 20
66.6493
 30
0.0
 10
184.8982
 20
66.5611
 30
0.0
 10
182.7275
 20
69.9655
 30
0.0
 10
186.6398
 20
72.8803
 30
0.0
 10
186.6398
 20
72.8803
 30
0.0
 10
180.744
 20
76.3776
 30
0.0
 10
177.2332
 20
67.8283
 30
0.0
 10
180.0036
 20
64.5631
 30
0.0
 10
180.0036
 20
64.5631
 30
0.0
 10
176.9959
 20
66.0212
 30
0.0
 10
175.7014
 20
68.2706
 30
0.0
 10
174.9422
 20
69.6117
 30
0.0
 10
174.9422
 20
69.6117
 30
0.0
 10
176.8422
 20
72.0937
 30
0.0
 10
177.5075
 20
73.351
 30
0.0
 10
179.1514
 20
76.6327
 30
0.0
  0
SPLINE
  5
62
330
1F
100
AcDbEntity
  8
layer 1
 62
     7
100
AcDbSpline
210
0.0
220
0.0
230
1.0
 70
    11
 71
     3
 72
    24
 73
    20
 74
     0
 42
0.0000000001
 43
0.0000000001
 12
1.0
 22
0.0
 32
0.0
 13
1.0
 23
0.0
 33
0.0
 40
0.0
 40
0.0
 40
0.0
 40
0.0
 40
0.1666666666666667
 40
0.1666666666666667
 40
0.1666666666666667
 40
0.1666666666666667
 40
0.3333333333333333
 40
0.3333333333333333
 40
0.3333333333333333
 40
0.3333333333333333
 40
0.5
 40
0.5
 40
0.5
 40
0.5
 40
0.6666666666666666
 40
0.6666666666666666
 40
0.6666666666666666
 40
0.6666666666666666
 40
1.0
 40
1.0
 40
1.0
 40
1.0
 10
180.7629
 20
81.3928
 30
0.0
 10
185.9366
 20
83.1104
 30
0.0
 10
190.0107
 20
85.5089
 30
0.0
 10
191.0396
 20
91.2127
 30
0.0
 10
191.0396
 20
91.2127
 30
0.0
 10
191.7144
 20
94.9381
 30
0.0
 10
189.3075
 20
98.2675
 30
0.0
 10
185.4142
 20
97.513
 30
0.0
 10
185.4142
 20
97.513
 30
0.0
 10
181.7645
 20
96.7952
 30
0.0
 10
181.4283
 20
90.7467
 30
0.0
 10
187.4443
 20
93.1178
 30
0.0
 10
187.4443
 20
93.1178
 30
0.0
 10
188.0357
 20
89.9554
 30
0.0
 10
185.9079
 20
87.7999
 30
0.0
 10
181.4377
 20
88.7261
 30
0.0
 10
181.4377
 20
88.7261
 30
0.0
 10
181.3637
 20
86.0204
 30
0.0
 10
181.135
 20
83.5574
 30
0.0
 10
180.7629
 20
81.3928
 30
0.0
  0
SPLINE
  5
63
330
1F
100
AcDbEntity
  8
layer 1
 62
     7
100
AcDbSpline
210
0.0
220
0.0
230
1.0
 70
    11
 71
     3
 72
    24
 73
    20
 74
     0
 42
0.0000000001
 43
0.0000000001
 12
1.0
 22
0.0
 32
0.0
 13
1.0
 23
0.0
 33
0.0
 40
0.0
 40
0.0
 40
0.0
 40
0.0
 40
0.1666666666666667
 40
0.1666666666666667
 40
0.1666666666666667
 40
0.1666666666666667
 40
0.3333333333333333
 40
0.3333333333333333
 40
0.3333333333333333
 40
0.3333333333333333
 40
0.5
 40
0.5
 40
0.5
 40
0.5
 40
0.6666666666666666
 40
0.6666666666666666
 40
0.6666666666666666
 40
0.6666666666666666
 40
1.0
 40
1.0
 40
1.0
 40
1.0
 10
192.6322
 20
100.1067
 30
0.0
 10
185.7541
 20
99.8138
 30
0.0
 10
180.8285
 20
103.6878
 30
0.0
 10
179.7985
 20
109.3917
 30
0.0
 10
179.7985
 20
109.3917
 30
0.0
 10
179.1288
 20
113.1218
 30
0.0
 10
182.9181
 20
118.5087
 30
0.0
 10
187.7103
 20
116.0505
 30
0.0
 10
187.7103
 20
116.0505
 30
0.0
 10
191.0491
 20
113.676
 30
0.0
 10
189.415
 20
109.8245
 30
0.0
 10
184.786
 20
111.8783
 30
0.0
 10
184.786
 20
111.8783
 30
0.0
 10
183.3425
 20
107.2402
 30
0.0
 10
188.1107
 20
104.9489
 30
0.0
 10
192.5856
 20
105.8765
 30
0.0
 10
192.5856
 20
105.8765
 30
0.0
 10
192.5856
 20
105.8765
 30
0.0
 10
192.6322
 20
100.1067
 30
0.0
 10
192.6322
 20
100.1067
 30
0.0
  0
SPLINE
  5
64
330
1F
100
AcDbEntity
  8
layer 1
 62
     7
100
AcDbSpline
210
0.0
220
0.0
230
1.0
 70
    11
 71
     3
 72
    20
 73
    16
 74
     0
 42
0.0000000001
 43
0.0000000001
 12
1.0
 22
0.0
 32
0.0
 13
1.0
 23
0.0
 33
0.0
 40
0.0
 40
0.0
 40
0.0
 40
0.0
 40
0.2
 40
0.2
 40
0.2
 40
0.2
 40
0.4
 40
0.4
 40
0.4
 40
0.4
 40
0.6
 40
0.6
 40
0.6
 40
0.6
 40
1.0
 40
1.0
 40
1.0
 40
1.0
 10
172.8144
 20
108.4094
 30
0.0
 10
176.3201
 20
105.1398
 30
0.0
 10
178.5229
 20
100.5957
 30
0.0
 10
179.9476
 20
96.6283
 30
0.0
 10
179.9476
 20
96.6283
 30
0.0
 10
180.279
 20
98.1043
 30
0.0
 10
180.646
 20
99.0494
 30
0.0
 10
182.9326
 20
99.9435
 30
0.0
 10
182.9326
 20
99.9435
 30
0.0
 10
178.6949
 20
101.7973
 30
0.0
 10
174.6955
 20
108.283
 30
0.0
 10
177.8519
 20
113.4472
 30
0.0
 10
177.8519
 20
113.4472
 30
0.0
 10
177.8519
 20
113.4472
 30
0.0
 10
172.8144
 20
108.4094
 30
0.0
 10
172.8144
 20
108.4094
 30
0.0
  0
SPLINE
  5
65
330
1F
100
AcDbEntity
  8
layer 1
 62
     7
100
AcDbSpline
210
0.0
220
0.0
230
1.0
 70
    11
 71
     3
 72
    16
 73
    12
 74
     0
 42
0.0000000001
 43
0.0000000001
 12
1.0
 22
0.0
 32
0.0
 13
1.0
 23
0.0
 33
0.0
 40
0.0
 40
0.0
 40
0.0
 40
0.0
 40
0.25
 40
0.25
 40
0.25
 40
0.25
 40
0.5
 40
0.5
 40
0.5
 40
0.5
 40
1.0
 40
1.0
 40
1.0
 40
1.0
 10
182.8671
 20
118.4621
 30
0.0
 10
185.3821
 20
119.5849
 30
0.0
 10
188.3573
 20
119.641
 30
0.0
 10
190.5926
 20
117.717
 30
0.0
 10
190.5926
 20
117.717
 30
0.0
 10
190.6953
 20
120.7389
 30
0.0
 10
188.4408
 20
121.9405
 30
0.0
 10
185.7778
 20
121.3731
 30
0.0
 10
185.7778
 20
121.3731
 30
0.0
 10
185.7778
 20
121.3731
 30
0.0
 10
182.8671
 20
118.4621
 30
0.0
 10
182.8671
 20
118.4621
 30
0.0
  0
SPLINE
  5
66
330
1F
100
AcDbEntity
  8
layer 1
 62
     7
100
AcDbSpline
210
0.0
220
0.0
230
1.0
 70
    11
 71
     3
 72
    20
 73
    16
 74
     0
 42
0.0000000001
 43
0.0000000001
 12
1.0
 22
0.0
 32
0.0
 13
1.0
 23
0.0
 33
0.0
 40
0.0
 40
0.0
 40
0.0
 40
0.0
 40
0.2
 40
0.2
 40
0.2
 40
0.2
 40
0.4
 40
0.4
 40
0.4
 40
0.4
 40
0.6
 40
0.6
 40
0.6
 40
0.6
 40
1.0
 40
1.0
 40
1.0
 40
1.0
 10
169.0237
 20
77.4947
 30
0.0
 10
169.0237
 20
77.4947
 30
0.0
 10
171.7858
 20
80.2233
 30
0.0
 10
171.7858
 20
80.2233
 30
0.0
 10
171.7858
 20
80.2233
 30
0.0
 10
171.7858
 20
80.2233
 30
0.0
 10
159.5016
 20
92.7255
 30
0.0
 10
159.5016
 20
92.7255
 30
0.0
 10
159.5016
 20
92.7255
 30
0.0
 10
159.5016
 20
92.7255
 30
0.0
 10
156.7395
 20
89.9922
 30
0.0
 10
156.7395
 20
89.9922
 30
0.0
 10
156.7395
 20
89.9922
 30
0.0
 10
156.7395
 20
89.9922
 30
0.0
 10
169.0237
 20
77.4947
 30
0.0
 10
169.0237
 20
77.4947
 30
0.0
  0
SPLINE
  5
67
330
1F
100
AcDbEntity
  8
layer 1
 62
     7
100
AcDbSpline
210
0.0
220
0.0
230
1.0
 70
    11
 71
     3
 72
    20
 73
    16
 74
     0
 42
0.0000000001
 43
0.0000000001
 12
1.0
 22
0.0
 32
0.0
 13
1.0
 23
0.0
 33
0.0
 40
0.0
 40
0.0
 40
0.0
 40
0.0
 40
0.2
 40
0.2
 40
0.2
 40
0.2
 40
0.4
 40
0.4
 40
0.4
 40
0.4
 40
0.6
 40
0.6
 40
0.6
 40
0.6
 40
1.0
 40
1.0
 40
1.0
 40
1.0
 10
160.0557
 20
68.2848
 30
0.0
 10
160.0557
 20
68.2848
 30
0.0
 10
162.8167
 20
71.0134
 30
0.0
 10
162.8167
 20
71.0134
 30
0.0
 10
162.8167
 20
71.0134
 30
0.0
 10
162.8167
 20
71.0134
 30
0.0
 10
150.5325
 20
83.5112
 30
0.0
 10
150.5325
 20
83.5112
 30
0.0
 10
150.5325
 20
83.5112
 30
0.0
 10
150.5325
 20
83.5112
 30
0.0
 10
147.7715
 20
80.7826
 30
0.0
 10
147.7715
 20
80.7826
 30
0.0
 10
147.7715
 20
80.7826
 30
0.0
 10
147.7715
 20
80.7826
 30
0.0
 10
160.0557
 20
68.2848
 30
0.0
 10
160.0557
 20
68.2848
 30
0.0
  0
SPLINE
  5
68
330
1F
100
AcDbEntity
  8
layer 1
 62
     7
100
AcDbSpline
210
0.0
220
0.0
230
1.0
 70
    11
 71
     3
 72
    20
 73
    16
 74
     0
 42
0.0000000001
 43
0.0000000001
 12
1.0
 22
0.0
 32
0.0
 13
1.0
 23
0.0
 33
0.0
 40
0.0
 40
0.0
 40
0.0
 40
0.0
 40
0.2
 40
0.2
 40
0.2
 40
0.2
 40
0.4
 40
0.4
 40
0.4
 40
0.4
 40
0.6
 40
0.6
 40
0.6
 40
0.6
 40
1.0
 40
1.0
 40
1.0
 40
1.0
 10
164.8192
 20
72.8563
 30
0.0
 10
164.8192
 20
72.8563
 30
0.0
 10
167.5802
 20
75.5863
 30
0.0
 10
167.5802
 20
75.5863
 30
0.0
 10
167.5802
 20
75.5863
 30
0.0
 10
167.5802
 20
75.5863
 30
0.0
 10
162.5937
 20
80.7312
 30
0.0
 10
162.5937
 20
80.7312
 30
0.0
 10
162.5937
 20
80.7312
 30
0.0
 10
162.5937
 20
80.7312
 30
0.0
 10
159.8317
 20
77.9975
 30
0.0
 10
159.8317
 20
77.9975
 30
0.0
 10
159.8317
 20
77.9975
 30
0.0
 10
159.8317
 20
77.9975
 30
0.0
 10
164.8192
 20
72.8563
 30
0.0
 10
164.8192
 20
72.8563
 30
0.0
  0
SPLINE
  5
69
330
1F
100
AcDbEntity
  8
layer 1
 62
     7
100
AcDbSpline
210
0.0
220
0.0
230
1.0
 70
    11
 71
     3
 72
    20
 73
    16
 74
     0
 42
0.0000000001
 43
0.0000000001
 12
1.0
 22
0.0
 32
0.0
 13
1.0
 23
0.0
 33
0.0
 40
0.0
 40
0.0
 40
0.0
 40
0.0
 40
0.2
 40
0.2
 40
0.2
 40
0.2
 40
0.4
 40
0.4
 40
0.4
 40
0.4
 40
0.6
 40
0.6
 40
0.6
 40
0.6
 40
1.0
 40
1.0
 40
1.0
 40
1.0
 10
157.3356
 20
80.1541
 30
0.0
 10
157.3356
 20
80.1541
 30
0.0
 10
160.0976
 20
82.883
 30
0.0
 10
160.0976
 20
82.883
 30
0.0
 10
160.0976
 20
82.883
 30
0.0
 10
160.0976
 20
82.883
 30
0.0
 10
155.1098
 20
88.0276
 30
0.0
 10
155.1098
 20
88.0276
 30
0.0
 10
155.1098
 20
88.0276
 30
0.0
 10
155.1098
 20
88.0276
 30
0.0
 10
152.3491
 20
85.2943
 30
0.0
 10
152.3491
 20
85.2943
 30
0.0
 10
152.3491
 20
85.2943
 30
0.0
 10
152.3491
 20
85.2943
 30
0.0
 10
157.3356
 20
80.1541
 30
0.0
 10
157.3356
 20
80.1541
 30
0.0
  0
SPLINE
  5
6A
330
1F
100
AcDbEntity
  8
layer 1
 62
     7
100
AcDbSpline
210
0.0
220
0.0
230
1.0
 70
    11
 71
     3
 72
    24
 73
    20
 74
     0
 42
0.0000000001
 43
0.0000000001
 12
1.0
 22
0.0
 32
0.0
 13
1.0
 23
0.0
 33
0.0
 40
0.0
 40
0.0
 40
0.0
 40
0.0
 40
0.1666666666666667
 40
0.1666666666666667
 40
0.1666666666666667
 40
0.1666666666666667
 40
0.3333333333333333
 40
0.3333333333333333
 40
0.3333333333333333
 40
0.3333333333333333
 40
0.5
 40
0.5
 40
0.5
 40
0.5
 40
0.6666666666666666
 40
0.6666666666666666
 40
0.6666666666666666
 40
0.6666666666666666
 40
1.0
 40
1.0
 40
1.0
 40
1.0
 10
171.9297
 20
84.0511
 30
0.0
 10
171.9297
 20
84.0511
 30
0.0
 10
170.9191
 20
93.7044
 30
0.0
 10
170.9191
 20
93.7044
 30
0.0
 10
170.9191
 20
93.7044
 30
0.0
 10
170.9191
 20
93.7044
 30
0.0
 10
168.6517
 20
91.4276
 30
0.0
 10
168.6517
 20
91.4276
 30
0.0
 10
168.6517
 20
91.4276
 30
0.0
 10
168.6517
 20
91.4276
 30
0.0
 10
163.5436
 20
96.6381
 30
0.0
 10
163.5436
 20
96.6381
 30
0.0
 10
163.5436
 20
96.6381
 30
0.0
 10
163.5436
 20
96.6381
 30
0.0
 10
161.3121
 20
94.3231
 30
0.0
 10
161.3121
 20
94.3231
 30
0.0
 10
161.3121
 20
94.3231
 30
0.0
 10
161.3121
 20
94.3231
 30
0.0
 10
171.9297
 20
84.0511
 30
0.0
 10
171.9297
 20
84.0511
 30
0.0
  0
SPLINE
  5
6B
330
1F
100
AcDbEntity
  8
layer 1
 62
     7
100
AcDbSpline
210
0.0
220
0.0
230
1.0
 70
    11
 71
     3
 72
    24
 73
    20
 74
     0
 42
0.0000000001
 43
0.0000000001
 12
1.0
 22
0.0
 32
0.0
 13
1.0
 23
0.0
 33
0.0
 40
0.0
 40
0.0
 40
0.0
 40
0.0
 40
0.1666666666666667
 40
0.1666666666666667
 40
0.1666666666666667
 40
0.1666666666666667
 40
0.3333333333333333
 40
0.3333333333333333
 40
0.3333333333333333
 40
0.3333333333333333
 40
0.5
 40
0.5
 40
0.5
 40
0.5
 40
0.6666666666666666
 40
0.6666666666666666
 40
0.6666666666666666
 40
0.6666666666666666
 40
1.0
 40
1.0
 40
1.0
 40
1.0
 10
156.898
 20
68.2192
 30
0.0
 10
156.898
 20
68.2192
 30
0.0
 10
145.6998
 20
69.2897
 30
0.0
 10
145.6998
 20
69.2897
 30
0.0
 10
145.6998
 20
69.2897
 30
0.0
 10
145.6998
 20
69.2897
 30
0.0
 10
148.2841
 20
71.9909
 30
0.0
 10
148.2841
 20
71.9909
 30
0.0
 10
148.2841
 20
71.9909
 30
0.0
 10
148.2841
 20
71.9909
 30
0.0
 10
143.8187
 20
77.0991
 30
0.0
 10
143.8187
 20
77.0991
 30
0.0
 10
143.8187
 20
77.0991
 30
0.0
 10
143.8187
 20
77.0991
 30
0.0
 10
146.1327
 20
79.3245
 30
0.0
 10
146.1327
 20
79.3245
 30
0.0
 10
146.1327
 20
79.3245
 30
0.0
 10
146.1327
 20
79.3245
 30
0.0
 10
156.898
 20
68.2192
 30
0.0
 10
156.898
 20
68.2192
 30
0.0
  0
SPLINE
  5
6C
330
1F
100
AcDbEntity
  8
layer 1
 62
     7
100
AcDbSpline
210
0.0
220
0.0
230
1.0
 70
    11
 71
     3
 72
    28
 73
    24
 74
     0
 42
0.0000000001
 43
0.0000000001
 12
1.0
 22
0.0
 32
0.0
 13
1.0
 23
0.0
 33
0.0
 40
0.0
 40
0.0
 40
0.0
 40
0.0
 40
0.1428571428571428
 40
0.1428571428571428
 40
0.1428571428571428
 40
0.1428571428571428
 40
0.2857142857142857
 40
0.2857142857142857
 40
0.2857142857142857
 40
0.2857142857142857
 40
0.4285714285714285
 40
0.4285714285714285
 40
0.4285714285714285
 40
0.4285714285714285
 40
0.5714285714285714
 40
0.5714285714285714
 40
0.5714285714285714
 40
0.5714285714285714
 40
0.7142857142857143
 40
0.7142857142857143
 40
0.7142857142857143
 40
0.7142857142857143
 40
1.0
 40
1.0
 40
1.0
 40
1.0
 10
156.1113
 20
62.4688
 30
0.0
 10
148.6098
 20
60.7965
 30
0.0
 10
139.4178
 20
63.9674
 30
0.0
 10
135.0642
 20
68.2371
 30
0.0
 10
135.0642
 20
68.2371
 30
0.0
 10
135.0642
 20
68.2371
 30
0.0
 10
142.1045
 20
75.3301
 30
0.0
 10
142.1045
 20
75.3301
 30
0.0
 10
142.1045
 20
75.3301
 30
0.0
 10
142.1045
 20
75.3301
 30
0.0
 10
144.9311
 20
72.5215
 30
0.0
 10
144.9311
 20
72.5215
 30
0.0
 10
144.9311
 20
72.5215
 30
0.0
 10
144.9311
 20
72.5215
 30
0.0
 10
140.7539
 20
68.2561
 30
0.0
 10
140.7539
 20
68.2561
 30
0.0
 10
140.7539
 20
68.2561
 30
0.0
 10
143.5257
 20
65.9093
 30
0.0
 10
150.4214
 20
64.6945
 30
0.0
 10
156.1255
 20
65.4717
 30
0.0
 10
156.1255
 20
65.4717
 30
0.0
 10
156.1255
 20
65.4717
 30
0.0
 10
156.1113
 20
62.4688
 30
0.0
 10
156.1113
 20
62.4688
 30
0.0
  0
SPLINE
  5
6D
330
1F
100
AcDbEntity
  8
layer 1
 62
     7
100
AcDbSpline
210
0.0
220
0.0
230
1.0
 70
    11
 71
     3
 72
    32
 73
    28
 74
     0
 42
0.0000000001
 43
0.0000000001
 12
1.0
 22
0.0
 32
0.0
 13
1.0
 23
0.0
 33
0.0
 40
0.0
 40
0.0
 40
0.0
 40
0.0
 40
0.125
 40
0.125
 40
0.125
 40
0.125
 40
0.25
 40
0.25
 40
0.25
 40
0.25
 40
0.375
 40
0.375
 40
0.375
 40
0.375
 40
0.5
 40
0.5
 40
0.5
 40
0.5
 40
0.625
 40
0.625
 40
0.625
 40
0.625
 40
0.75
 40
0.75
 40
0.75
 40
0.75
 40
1.0
 40
1.0
 40
1.0
 40
1.0
 10
159.0687
 20
62.9205
 30
0.0
 10
180.7487
 20
69.998
 30
0.0
 10
181.5033
 20
93.895
 30
0.0
 10
171.5198
 20
104.5721
 30
0.0
 10
171.5198
 20
104.5721
 30
0.0
 10
171.5198
 20
104.5721
 30
0.0
 10
166.3881
 20
99.3846
 30
0.0
 10
166.3881
 20
99.3846
 30
0.0
 10
166.3881
 20
99.3846
 30
0.0
 10
166.3881
 20
99.3846
 30
0.0
 10
170.8116
 20
95.0405
 30
0.0
 10
170.8116
 20
95.0405
 30
0.0
 10
170.8116
 20
95.0405
 30
0.0
 10
170.8116
 20
95.0405
 30
0.0
 10
170.3419
 20
98.0996
 30
0.0
 10
170.3419
 20
98.0996
 30
0.0
 10
170.3419
 20
98.0996
 30
0.0
 10
170.3419
 20
98.0996
 30
0.0
 10
171.9108
 20
99.5059
 30
0.0
 10
171.9108
 20
99.5059
 30
0.0
 10
171.9108
 20
99.5059
 30
0.0
 10
180.7582
 20
81.3641
 30
0.0
 10
168.4131
 20
69.6952
 30
0.0
 10
159.0687
 20
65.8674
 30
0.0
 10
159.0687
 20
65.8674
 30
0.0
 10
159.0687
 20
65.8674
 30
0.0
 10
159.0687
 20
62.9205
 30
0.0
 10
159.0687
 20
62.9205
 30
0.0
  0
SPLINE
  5
6E
330
1F
100
AcDbEntity
  8
layer 1
 62
   250
100
AcDbSpline
210
0.0
220
0.0
230
1.0
 70
    11
 71
     3
 72
    20
 73
    16
 74
     0
 42
0.0000000001
 43
0.0000000001
 12
1.0
 22
0.0
 32
0.0
 13
1.0
 23
0.0
 33
0.0
 40
0.0
 40
0.0
 40
0.0
 40
0.0
 40
0.2
 40
0.2
 40
0.2
 40
0.2
 40
0.4
 40
0.4
 40
0.4
 40
0.4
 40
0.6
 40
0.6
 40
0.6
 40
0.6
 40
1.0
 40
1.0
 40
1.0
 40
1.0
 10
45.3058
 20
46.1965
 30
0.0
 10
45.3058
 20
46.1965
 30
0.0
 10
118.9594
 20
46.1965
 30
0.0
 10
118.9594
 20
46.1965
 30
0.0
 10
118.9594
 20
46.1965
 30
0.0
 10
118.9594
 20
46.1965
 30
0.0
 10
118.9594
 20
-27.4568
 30
0.0
 10
118.9594
 20
-27.4568
 30
0.0
 10
118.9594
 20
-27.4568
 30
0.0
 10
118.9594
 20
-27.4568
 30
0.0
 10
45.3061
 20
-27.4568
 30
0.0
 10
45.3061
 20
-27.4568
 30
0.0
 10
45.3061
 20
-27.4568
 30
0.0
 10
45.3061
 20
-27.4568
 30
0.0
 10
45.3058
 20
46.1965
 30
0.0
 10
45.3058
 20
46.1965
 30
0.0
  0
SPLINE
  5
6F
330
1F
100
AcDbEntity
  8
layer 1
 62
     7
100
AcDbSpline
210
0.0
220
0.0
230
1.0
 70
    11
 71
     3
 72
    52
 73
    48
 74
     0
 42
0.0000000001
 43
0.0000000001
 12
1.0
 22
0.0
 32
0.0
 13
1.0
 23
0.0
 33
0.0
 40
0.0
 40
0.0
 40
0.0
 40
0.0
 40
0.0769230769230769
 40
0.0769230769230769
 40
0.0769230769230769
 40
0.0769230769230769
 40
0.1538461538461539
 40
0.1538461538461539
 40
0.1538461538461539
 40
0.1538461538461539
 40
0.2307692307692308
 40
0.2307692307692308
 40
0.2307692307692308
 40
0.2307692307692308
 40
0.3076923076923077
 40
0.3076923076923077
 40
0.3076923076923077
 40
0.3076923076923077
 40
0.3846153846153846
 40
0.3846153846153846
 40
0.3846153846153846
 40
0.3846153846153846
 40
0.4615384615384616
 40
0.4615384615384616
 40
0.4615384615384616
 40
0.4615384615384616
 40
0.5384615384615384
 40
0.5384615384615384
 40
0.5384615384615384
 40
0.5384615384615384
 40
0.6153846153846154
 40
0.6153846153846154
 40
0.6153846153846154
 40
0.6153846153846154
 40
0.6923076923076923
 40
0.6923076923076923
 40
0.6923076923076923
 40
0.6923076923076923
 40
0.7692307692307693
 40
0.7692307692307693
 40
0.7692307692307693
 40
0.7692307692307693
 40
0.8461538461538461
 40
0.8461538461538461
 40
0.8461538461538461
 40
0.8461538461538461
 40
1.0
 40
1.0
 40
1.0
 40
1.0
 10
60.0508
 20
-8.8875
 30
0.0
 10
60.0508
 20
-8.8875
 30
0.0
 10
60.0508
 20
-13.7009
 30
0.0
 10
60.0508
 20
-13.7009
 30
0.0
 10
60.0508
 20
-13.7009
 30
0.0
 10
60.0508
 20
-13.7009
 30
0.0
 10
78.2934
 20
-13.7009
 30
0.0
 10
78.2934
 20
-13.7009
 30
0.0
 10
78.2934
 20
-13.7009
 30
0.0
 10
78.2934
 20
-13.7009
 30
0.0
 10
78.2934
 20
-20.0165
 30
0.0
 10
78.2934
 20
-20.0165
 30
0.0
 10
78.2934
 20
-20.0165
 30
0.0
 10
78.2934
 20
-20.0165
 30
0.0
 10
52.867
 20
-20.0165
 30
0.0
 10
52.867
 20
-20.0165
 30
0.0
 10
52.867
 20
-20.0165
 30
0.0
 10
52.867
 20
-20.0165
 30
0.0
 10
52.867
 20
39.0959
 30
0.0
 10
52.867
 20
39.0959
 30
0.0
 10
52.867
 20
39.0959
 30
0.0
 10
52.867
 20
39.0959
 30
0.0
 10
78.2934
 20
39.0959
 30
0.0
 10
78.2934
 20
39.0959
 30
0.0
 10
78.2934
 20
39.0959
 30
0.0
 10
78.2934
 20
39.0959
 30
0.0
 10
78.2934
 20
33.3453
 30
0.0
 10
78.2934
 20
33.3453
 30
0.0
 10
78.2934
 20
33.3453
 30
0.0
 10
78.2934
 20
33.3453
 30
0.0
 10
60.0508
 20
33.3453
 30
0.0
 10
60.0508
 20
33.3453
 30
0.0
 10
60.0508
 20
33.3453
 30
0.0
 10
60.0508
 20
33.3453
 30
0.0
 10
60.0508
 20
27.9298
 30
0.0
 10
60.0508
 20
27.9298
 30
0.0
 10
60.0508
 20
27.9298
 30
0.0
 10
60.0508
 20
27.9298
 30
0.0
 10
66.5336
 20
27.9718
 30
0.0
 10
66.5336
 20
27.9718
 30
0.0
 10
66.5336
 20
27.9718
 30
0.0
 10
66.5336
 20
27.9718
 30
0.0
 10
66.4178
 20
-8.8361
 30
0.0
 10
66.4178
 20
-8.8361
 30
0.0
 10
66.4178
 20
-8.8361
 30
0.0
 10
66.4178
 20
-8.8361
 30
0.0
 10
60.0508
 20
-8.8875
 30
0.0
 10
60.0508
 20
-8.8875
 30
0.0
  0
SPLINE
  5
70
330
1F
100
AcDbEntity
  8
layer 1
 62
     7
100
AcDbSpline
210
0.0
220
0.0
230
1.0
 70
    11
 71
     3
 72
    20
 73
    16
 74
     0
 42
0.0000000001
 43
0.0000000001
 12
1.0
 22
0.0
 32
0.0
 13
1.0
 23
0.0
 33
0.0
 40
0.0
 40
0.0
 40
0.0
 40
0.0
 40
0.2
 40
0.2
 40
0.2
 40
0.2
 40
0.4
 40
0.4
 40
0.4
 40
0.4
 40
0.6
 40
0.6
 40
0.6
 40
0.6
 40
1.0
 40
1.0
 40
1.0
 40
1.0
 10
72.183
 20
28.1254
 30
0.0
 10
72.183
 20
28.1254
 30
0.0
 10
78.2934
 20
28.1254
 30
0.0
 10
78.2934
 20
28.1254
 30
0.0
 10
78.2934
 20
28.1254
 30
0.0
 10
78.2934
 20
28.1254
 30
0.0
 10
78.2934
 20
22.0153
 30
0.0
 10
78.2934
 20
22.0153
 30
0.0
 10
78.2934
 20
22.0153
 30
0.0
 10
78.2934
 20
22.0153
 30
0.0
 10
72.183
 20
22.0153
 30
0.0
 10
72.183
 20
22.0153
 30
0.0
 10
72.183
 20
22.0153
 30
0.0
 10
72.183
 20
22.0153
 30
0.0
 10
72.183
 20
28.1254
 30
0.0
 10
72.183
 20
28.1254
 30
0.0
  0
SPLINE
  5
71
330
1F
100
AcDbEntity
  8
layer 1
 62
     7
100
AcDbSpline
210
0.0
220
0.0
230
1.0
 70
    11
 71
     3
 72
    20
 73
    16
 74
     0
 42
0.0000000001
 43
0.0000000001
 12
1.0
 22
0.0
 32
0.0
 13
1.0
 23
0.0
 33
0.0
 40
0.0
 40
0.0
 40
0.0
 40
0.0
 40
0.2
 40
0.2
 40
0.2
 40
0.2
 40
0.4
 40
0.4
 40
0.4
 40
0.4
 40
0.6
 40
0.6
 40
0.6
 40
0.6
 40
1.0
 40
1.0
 40
1.0
 40
1.0
 10
72.183
 20
-2.7771
 30
0.0
 10
72.183
 20
-2.7771
 30
0.0
 10
78.2934
 20
-2.7771
 30
0.0
 10
78.2934
 20
-2.7771
 30
0.0
 10
78.2934
 20
-2.7771
 30
0.0
 10
78.2934
 20
-2.7771
 30
0.0
 10
78.2934
 20
-8.8872
 30
0.0
 10
78.2934
 20
-8.8872
 30
0.0
 10
78.2934
 20
-8.8872
 30
0.0
 10
78.2934
 20
-8.8872
 30
0.0
 10
72.183
 20
-8.8872
 30
0.0
 10
72.183
 20
-8.8872
 30
0.0
 10
72.183
 20
-8.8872
 30
0.0
 10
72.183
 20
-8.8872
 30
0.0
 10
72.183
 20
-2.7771
 30
0.0
 10
72.183
 20
-2.7771
 30
0.0
  0
SPLINE
  5
72
330
1F
100
AcDbEntity
  8
layer 1
 62
     7
100
AcDbSpline
210
0.0
220
0.0
230
1.0
 70
    11
 71
     3
 72
    20
 73
    16
 74
     0
 42
0.0000000001
 43
0.0000000001
 12
1.0
 22
0.0
 32
0.0
 13
1.0
 23
0.0
 33
0.0
 40
0.0
 40
0.0
 40
0.0
 40
0.0
 40
0.2
 40
0.2
 40
0.2
 40
0.2
 40
0.4
 40
0.4
 40
0.4
 40
0.4
 40
0.6
 40
0.6
 40
0.6
 40
0.6
 40
1.0
 40
1.0
 40
1.0
 40
1.0
 10
72.183
 20
16.0494
 30
0.0
 10
72.183
 20
16.0494
 30
0.0
 10
78.2934
 20
16.0494
 30
0.0
 10
78.2934
 20
16.0494
 30
0.0
 10
78.2934
 20
16.0494
 30
0.0
 10
78.2934
 20
16.0494
 30
0.0
 10
78.2934
 20
2.6479
 30
0.0
 10
78.2934
 20
2.6479
 30
0.0
 10
78.2934
 20
2.6479
 30
0.0
 10
78.2934
 20
2.6479
 30
0.0
 10
72.183
 20
2.6479
 30
0.0
 10
72.183
 20
2.6479
 30
0.0
 10
72.183
 20
2.6479
 30
0.0
 10
72.183
 20
2.6479
 30
0.0
 10
72.183
 20
16.0494
 30
0.0
 10
72.183
 20
16.0494
 30
0.0
  0
SPLINE
  5
73
330
1F
100
AcDbEntity
  8
layer 1
 62
     7
100
AcDbSpline
210
0.0
220
0.0
230
1.0
 70
    11
 71
     3
 72
    52
 73
    48
 74
     0
 42
0.0000000001
 43
0.0000000001
 12
1.0
 22
0.0
 32
0.0
 13
1.0
 23
0.0
 33
0.0
 40
0.0
 40
0.0
 40
0.0
 40
0.0
 40
0.0769230769230769
 40
0.0769230769230769
 40
0.0769230769230769
 40
0.0769230769230769
 40
0.1538461538461539
 40
0.1538461538461539
 40
0.1538461538461539
 40
0.1538461538461539
 40
0.2307692307692308
 40
0.2307692307692308
 40
0.2307692307692308
 40
0.2307692307692308
 40
0.3076923076923077
 40
0.3076923076923077
 40
0.3076923076923077
 40
0.3076923076923077
 40
0.3846153846153846
 40
0.3846153846153846
 40
0.3846153846153846
 40
0.3846153846153846
 40
0.4615384615384616
 40
0.4615384615384616
 40
0.4615384615384616
 40
0.4615384615384616
 40
0.5384615384615384
 40
0.5384615384615384
 40
0.5384615384615384
 40
0.5384615384615384
 40
0.6153846153846154
 40
0.6153846153846154
 40
0.6153846153846154
 40
0.6153846153846154
 40
0.6923076923076923
 40
0.6923076923076923
 40
0.6923076923076923
 40
0.6923076923076923
 40
0.7692307692307693
 40
0.7692307692307693
 40
0.7692307692307693
 40
0.7692307692307693
 40
0.8461538461538461
 40
0.8461538461538461
 40
0.8461538461538461
 40
0.8461538461538461
 40
1.0
 40
1.0
 40
1.0
 40
1.0
 10
103.6731
 20
-8.8875
 30
0.0
 10
103.6731
 20
-8.8875
 30
0.0
 10
103.6731
 20
-13.7009
 30
0.0
 10
103.6731
 20
-13.7009
 30
0.0
 10
103.6731
 20
-13.7009
 30
0.0
 10
103.6731
 20
-13.7009
 30
0.0
 10
85.4305
 20
-13.7009
 30
0.0
 10
85.4305
 20
-13.7009
 30
0.0
 10
85.4305
 20
-13.7009
 30
0.0
 10
85.4305
 20
-13.7009
 30
0.0
 10
85.4305
 20
-20.0165
 30
0.0
 10
85.4305
 20
-20.0165
 30
0.0
 10
85.4305
 20
-20.0165
 30
0.0
 10
85.4305
 20
-20.0165
 30
0.0
 10
110.8569
 20
-20.0165
 30
0.0
 10
110.8569
 20
-20.0165
 30
0.0
 10
110.8569
 20
-20.0165
 30
0.0
 10
110.8569
 20
-20.0165
 30
0.0
 10
110.8569
 20
39.0959
 30
0.0
 10
110.8569
 20
39.0959
 30
0.0
 10
110.8569
 20
39.0959
 30
0.0
 10
110.8569
 20
39.0959
 30
0.0
 10
85.4305
 20
39.0959
 30
0.0
 10
85.4305
 20
39.0959
 30
0.0
 10
85.4305
 20
39.0959
 30
0.0
 10
85.4305
 20
39.0959
 30
0.0
 10
85.4305
 20
33.3453
 30
0.0
 10
85.4305
 20
33.3453
 30
0.0
 10
85.4305
 20
33.3453
 30
0.0
 10
85.4305
 20
33.3453
 30
0.0
 10
103.6731
 20
33.3453
 30
0.0
 10
103.6731
 20
33.3453
 30
0.0
 10
103.6731
 20
33.3453
 30
0.0
 10
103.6731
 20
33.3453
 30
0.0
 10
103.6731
 20
27.9298
 30
0.0
 10
103.6731
 20
27.9298
 30
0.0
 10
103.6731
 20
27.9298
 30
0.0
 10
103.6731
 20
27.9298
 30
0.0
 10
97.189
 20
27.9718
 30
0.0
 10
97.189
 20
27.9718
 30
0.0
 10
97.189
 20
27.9718
 30
0.0
 10
97.189
 20
27.9718
 30
0.0
 10
97.3109
 20
-8.8361
 30
0.0
 10
97.3109
 20
-8.8361
 30
0.0
 10
97.3109
 20
-8.8361
 30
0.0
 10
97.3109
 20
-8.8361
 30
0.0
 10
103.6731
 20
-8.8875
 30
0.0
 10
103.6731
 20
-8.8875
 30
0.0
  0
SPLINE
  5
74
330
1F
100
AcDbEntity
  8
layer 1
 62
     7
100
AcDbSpline
210
0.0
220
0.0
230
1.0
 70
    11
 71
     3
 72
    20
 73
    16
 74
     0
 42
0.0000000001
 43
0.0000000001
 12
1.0
 22
0.0
 32
0.0
 13
1.0
 23
0.0
 33
0.0
 40
0.0
 40
0.0
 40
0.0
 40
0.0
 40
0.2
 40
0.2
 40
0.2
 40
0.2
 40
0.4
 40
0.4
 40
0.4
 40
0.4
 40
0.6
 40
0.6
 40
0.6
 40
0.6
 40
1.0
 40
1.0
 40
1.0
 40
1.0
 10
85.4305
 20
28.1254
 30
0.0
 10
85.4305
 20
28.1254
 30
0.0
 10
91.5409
 20
28.1254
 30
0.0
 10
91.5409
 20
28.1254
 30
0.0
 10
91.5409
 20
28.1254
 30
0.0
 10
91.5409
 20
28.1254
 30
0.0
 10
91.5409
 20
22.0153
 30
0.0
 10
91.5409
 20
22.0153
 30
0.0
 10
91.5409
 20
22.0153
 30
0.0
 10
91.5409
 20
22.0153
 30
0.0
 10
85.4308
 20
22.0153
 30
0.0
 10
85.4308
 20
22.0153
 30
0.0
 10
85.4308
 20
22.0153
 30
0.0
 10
85.4308
 20
22.0153
 30
0.0
 10
85.4305
 20
28.1254
 30
0.0
 10
85.4305
 20
28.1254
 30
0.0
  0
SPLINE
  5
75
330
1F
100
AcDbEntity
  8
layer 1
 62
     7
100
AcDbSpline
210
0.0
220
0.0
230
1.0
 70
    11
 71
     3
 72
    20
 73
    16
 74
     0
 42
0.0000000001
 43
0.0000000001
 12
1.0
 22
0.0
 32
0.0
 13
1.0
 23
0.0
 33
0.0
 40
0.0
 40
0.0
 40
0.0
 40
0.0
 40
0.2
 40
0.2
 40
0.2
 40
0.2
 40
0.4
 40
0.4
 40
0.4
 40
0.4
 40
0.6
 40
0.6
 40
0.6
 40
0.6
 40
1.0
 40
1.0
 40
1.0
 40
1.0
 10
85.4305
 20
-2.7771
 30
0.0
 10
85.4305
 20
-2.7771
 30
0.0
 10
91.5409
 20
-2.7771
 30
0.0
 10
91.5409
 20
-2.7771
 30
0.0
 10
91.5409
 20
-2.7771
 30
0.0
 10
91.5409
 20
-2.7771
 30
0.0
 10
91.5409
 20
-8.8872
 30
0.0
 10
91.5409
 20
-8.8872
 30
0.0
 10
91.5409
 20
-8.8872
 30
0.0
 10
91.5409
 20
-8.8872
 30
0.0
 10
85.4308
 20
-8.8872
 30
0.0
 10
85.4308
 20
-8.8872
 30
0.0
 10
85.4308
 20
-8.8872
 30
0.0
 10
85.4308
 20
-8.8872
 30
0.0
 10
85.4305
 20
-2.7771
 30
0.0
 10
85.4305
 20
-2.7771
 30
0.0
  0
SPLINE
  5
76
330
1F
100
AcDbEntity
  8
layer 1
 62
     7
100
AcDbSpline
210
0.0
220
0.0
230
1.0
 70
    11
 71
     3
 72
    20
 73
    16
 74
     0
 42
0.0000000001
 43
0.0000000001
 12
1.0
 22
0.0
 32
0.0
 13
1.0
 23
0.0
 33
0.0
 40
0.0
 40
0.0
 40
0.0
 40
0.0
 40
0.2
 40
0.2
 40
0.2
 40
0.2
 40
0.4
 40
0.4
 40
0.4
 40
0.4
 40
0.6
 40
0.6
 40
0.6
 40
0.6
 40
1.0
 40
1.0
 40
1.0
 40
1.0
 10
85.4305
 20
16.0494
 30
0.0
 10
85.4305
 20
16.0494
 30
0.0
 10
91.5409
 20
16.0494
 30
0.0
 10
91.5409
 20
16.0494
 30
0.0
 10
91.5409
 20
16.0494
 30
0.0
 10
91.5409
 20
16.0494
 30
0.0
 10
91.5409
 20
2.6479
 30
0.0
 10
91.5409
 20
2.6479
 30
0.0
 10
91.5409
 20
2.6479
 30
0.0
 10
91.5409
 20
2.6479
 30
0.0
 10
85.4308
 20
2.6479
 30
0.0
 10
85.4308
 20
2.6479
 30
0.0
 10
85.4308
 20
2.6479
 30
0.0
 10
85.4308
 20
2.6479
 30
0.0
 10
85.4305
 20
16.0494
 30
0.0
 10
85.4305
 20
16.0494
 30
0.0
  0
LWPOLYLINE
  5
77
330
1F
100
AcDbEntity
  8
layer 1
 62
   250
370
     9
100
AcDbPolyline
 90
        5
 70
     1
 43
0.0
 10
122.7492
 20
-27.4686
 10
196.3026
 20
-27.4686
 10
196.3026
 20
46.0848
 10
122.7492
 20
46.0848
 10
122.7492
 20
-27.4686
  0
SPLINE
  5
78
330
1F
100
AcDbEntity
  8
layer 1
 62
     7
100
AcDbSpline
210
0.0
220
0.0
230
1.0
 70
    11
 71
     3
 72
    20
 73
    16
 74
     0
 42
0.0000000001
 43
0.0000000001
 12
1.0
 22
0.0
 32
0.0
 13
1.0
 23
0.0
 33
0.0
 40
0.0
 40
0.0
 40
0.0
 40
0.0
 40
0.2
 40
0.2
 40
0.2
 40
0.2
 40
0.4
 40
0.4
 40
0.4
 40
0.4
 40
0.6
 40
0.6
 40
0.6
 40
0.6
 40
1.0
 40
1.0
 40
1.0
 40
1.0
 10
176.5634
 20
40.4999
 30
0.0
 10
176.5634
 20
40.4999
 30
0.0
 10
171.6394
 20
34.8693
 30
0.0
 10
171.6394
 20
34.8693
 30
0.0
 10
171.6394
 20
34.8693
 30
0.0
 10
171.6394
 20
34.8693
 30
0.0
 10
147.5423
 20
34.8835
 30
0.0
 10
147.5423
 20
34.8835
 30
0.0
 10
147.5423
 20
34.8835
 30
0.0
 10
147.5423
 20
34.8835
 30
0.0
 10
142.6183
 20
40.5141
 30
0.0
 10
142.6183
 20
40.5141
 30
0.0
 10
142.6183
 20
40.5141
 30
0.0
 10
142.6183
 20
40.5141
 30
0.0
 10
176.5634
 20
40.4999
 30
0.0
 10
176.5634
 20
40.4999
 30
0.0
  0
SPLINE
  5
79
330
1F
100
AcDbEntity
  8
layer 1
 62
     7
100
AcDbSpline
210
0.0
220
0.0
230
1.0
 70
    11
 71
     3
 72
    20
 73
    16
 74
     0
 42
0.0000000001
 43
0.0000000001
 12
1.0
 22
0.0
 32
0.0
 13
1.0
 23
0.0
 33
0.0
 40
0.0
 40
0.0
 40
0.0
 40
0.0
 40
0.2
 40
0.2
 40
0.2
 40
0.2
 40
0.4
 40
0.4
 40
0.4
 40
0.4
 40
0.6
 40
0.6
 40
0.6
 40
0.6
 40
1.0
 40
1.0
 40
1.0
 40
1.0
 10
182.2553
 20
40.5098
 30
0.0
 10
182.2553
 20
40.5098
 30
0.0
 10
174.9223
 20
33.1768
 30
0.0
 10
174.9223
 20
33.1768
 30
0.0
 10
174.9223
 20
33.1768
 30
0.0
 10
174.9223
 20
33.1768
 30
0.0
 10
174.9305
 20
28.3963
 30
0.0
 10
174.9305
 20
28.3963
 30
0.0
 10
174.9305
 20
28.3963
 30
0.0
 10
174.9305
 20
28.3963
 30
0.0
 10
187.0371
 20
40.5029
 30
0.0
 10
187.0371
 20
40.5029
 30
0.0
 10
187.0371
 20
40.5029
 30
0.0
 10
187.0371
 20
40.5029
 30
0.0
 10
182.2553
 20
40.5098
 30
0.0
 10
182.2553
 20
40.5098
 30
0.0
  0
SPLINE
  5
7A
330
1F
100
AcDbEntity
  8
layer 1
 62
     7
100
AcDbSpline
210
0.0
220
0.0
230
1.0
 70
    11
 71
     3
 72
    20
 73
    16
 74
     0
 42
0.0000000001
 43
0.0000000001
 12
1.0
 22
0.0
 32
0.0
 13
1.0
 23
0.0
 33
0.0
 40
0.0
 40
0.0
 40
0.0
 40
0.0
 40
0.2
 40
0.2
 40
0.2
 40
0.2
 40
0.4
 40
0.4
 40
0.4
 40
0.4
 40
0.6
 40
0.6
 40
0.6
 40
0.6
 40
1.0
 40
1.0
 40
1.0
 40
1.0
 10
190.6778
 20
-13.5767
 30
0.0
 10
190.6778
 20
-13.5767
 30
0.0
 10
183.3448
 20
-6.2438
 30
0.0
 10
183.3448
 20
-6.2438
 30
0.0
 10
183.3448
 20
-6.2438
 30
0.0
 10
183.3448
 20
-6.2438
 30
0.0
 10
178.5643
 20
-6.252
 30
0.0
 10
178.5643
 20
-6.252
 30
0.0
 10
178.5643
 20
-6.252
 30
0.0
 10
178.5643
 20
-6.252
 30
0.0
 10
190.6709
 20
-18.3586
 30
0.0
 10
190.6709
 20
-18.3586
 30
0.0
 10
190.6709
 20
-18.3586
 30
0.0
 10
190.6709
 20
-18.3586
 30
0.0
 10
190.6778
 20
-13.5767
 30
0.0
 10
190.6778
 20
-13.5767
 30
0.0
  0
SPLINE
  5
7B
330
1F
100
AcDbEntity
  8
layer 1
 62
     7
100
AcDbSpline
210
0.0
220
0.0
230
1.0
 70
    11
 71
     3
 72
    32
 73
    28
 74
     0
 42
0.0000000001
 43
0.0000000001
 12
1.0
 22
0.0
 32
0.0
 13
1.0
 23
0.0
 33
0.0
 40
0.0
 40
0.0
 40
0.0
 40
0.0
 40
0.125
 40
0.125
 40
0.125
 40
0.125
 40
0.25
 40
0.25
 40
0.25
 40
0.25
 40
0.375
 40
0.375
 40
0.375
 40
0.375
 40
0.5
 40
0.5
 40
0.5
 40
0.5
 40
0.625
 40
0.625
 40
0.625
 40
0.625
 40
0.75
 40
0.75
 40
0.75
 40
0.75
 40
1.0
 40
1.0
 40
1.0
 40
1.0
 10
180.2435
 20
2.1687
 30
0.0
 10
180.2435
 20
2.1687
 30
0.0
 10
180.1739
 20
16.3392
 30
0.0
 10
180.1739
 20
16.3392
 30
0.0
 10
180.1739
 20
16.3392
 30
0.0
 10
180.1739
 20
16.3392
 30
0.0
 10
170.9531
 20
16.3268
 30
0.0
 10
170.9531
 20
16.3268
 30
0.0
 10
170.9531
 20
16.3268
 30
0.0
 10
170.9531
 20
16.3268
 30
0.0
 10
166.9031
 20
12.7775
 30
0.0
 10
166.9031
 20
12.7775
 30
0.0
 10
166.9031
 20
12.7775
 30
0.0
 10
166.9031
 20
12.7775
 30
0.0
 10
170.275
 20
9.2024
 30
0.0
 10
170.275
 20
9.2024
 30
0.0
 10
170.275
 20
9.2024
 30
0.0
 10
170.275
 20
9.2024
 30
0.0
 10
166.8016
 20
5.7623
 30
0.0
 10
166.8016
 20
5.7623
 30
0.0
 10
166.8016
 20
5.7623
 30
0.0
 10
166.8016
 20
5.7623
 30
0.0
 10
170.9619
 20
2.1657
 30
0.0
 10
170.9619
 20
2.1657
 30
0.0
 10
170.9619
 20
2.1657
 30
0.0
 10
170.9619
 20
2.1657
 30
0.0
 10
180.2435
 20
2.1687
 30
0.0
 10
180.2435
 20
2.1687
 30
0.0
  0
SPLINE
  5
7C
330
1F
100
AcDbEntity
  8
layer 1
 62
     7
100
AcDbSpline
210
0.0
220
0.0
230
1.0
 70
    11
 71
     3
 72
    20
 73
    16
 74
     0
 42
0.0000000001
 43
0.0000000001
 12
1.0
 22
0.0
 32
0.0
 13
1.0
 23
0.0
 33
0.0
 40
0.0
 40
0.0
 40
0.0
 40
0.0
 40
0.2
 40
0.2
 40
0.2
 40
0.2
 40
0.4
 40
0.4
 40
0.4
 40
0.4
 40
0.6
 40
0.6
 40
0.6
 40
0.6
 40
1.0
 40
1.0
 40
1.0
 40
1.0
 10
190.692
 20
32.209
 30
0.0
 10
190.692
 20
32.209
 30
0.0
 10
183.359
 20
24.8761
 30
0.0
 10
183.359
 20
24.8761
 30
0.0
 10
183.359
 20
24.8761
 30
0.0
 10
183.359
 20
24.8761
 30
0.0
 10
178.5785
 20
24.8843
 30
0.0
 10
178.5785
 20
24.8843
 30
0.0
 10
178.5785
 20
24.8843
 30
0.0
 10
178.5785
 20
24.8843
 30
0.0
 10
190.6851
 20
36.9909
 30
0.0
 10
190.6851
 20
36.9909
 30
0.0
 10
190.6851
 20
36.9909
 30
0.0
 10
190.6851
 20
36.9909
 30
0.0
 10
190.692
 20
32.209
 30
0.0
 10
190.692
 20
32.209
 30
0.0
  0
SPLINE
  5
7D
330
1F
100
AcDbEntity
  8
layer 1
 62
     7
100
AcDbSpline
210
0.0
220
0.0
230
1.0
 70
    11
 71
     3
 72
    32
 73
    28
 74
     0
 42
0.0000000001
 43
0.0000000001
 12
1.0
 22
0.0
 32
0.0
 13
1.0
 23
0.0
 33
0.0
 40
0.0
 40
0.0
 40
0.0
 40
0.0
 40
0.125
 40
0.125
 40
0.125
 40
0.125
 40
0.25
 40
0.25
 40
0.25
 40
0.25
 40
0.375
 40
0.375
 40
0.375
 40
0.375
 40
0.5
 40
0.5
 40
0.5
 40
0.5
 40
0.625
 40
0.625
 40
0.625
 40
0.625
 40
0.75
 40
0.75
 40
0.75
 40
0.75
 40
1.0
 40
1.0
 40
1.0
 40
1.0
 10
180.2577
 20
16.4636
 30
0.0
 10
180.2577
 20
16.4636
 30
0.0
 10
180.1881
 20
2.2931
 30
0.0
 10
180.1881
 20
2.2931
 30
0.0
 10
180.1881
 20
2.2931
 30
0.0
 10
180.1881
 20
2.2931
 30
0.0
 10
170.9673
 20
2.3055
 30
0.0
 10
170.9673
 20
2.3055
 30
0.0
 10
170.9673
 20
2.3055
 30
0.0
 10
170.9673
 20
2.3055
 30
0.0
 10
166.9173
 20
5.8548
 30
0.0
 10
166.9173
 20
5.8548
 30
0.0
 10
166.9173
 20
5.8548
 30
0.0
 10
166.9173
 20
5.8548
 30
0.0
 10
170.2892
 20
9.4299
 30
0.0
 10
170.2892
 20
9.4299
 30
0.0
 10
170.2892
 20
9.4299
 30
0.0
 10
170.2892
 20
9.4299
 30
0.0
 10
166.8158
 20
12.87
 30
0.0
 10
166.8158
 20
12.87
 30
0.0
 10
166.8158
 20
12.87
 30
0.0
 10
166.8158
 20
12.87
 30
0.0
 10
170.9761
 20
16.4666
 30
0.0
 10
170.9761
 20
16.4666
 30
0.0
 10
170.9761
 20
16.4666
 30
0.0
 10
170.9761
 20
16.4666
 30
0.0
 10
180.2577
 20
16.4636
 30
0.0
 10
180.2577
 20
16.4636
 30
0.0
  0
SPLINE
  5
7E
330
1F
100
AcDbEntity
  8
layer 1
 62
     7
100
AcDbSpline
210
0.0
220
0.0
230
1.0
 70
    11
 71
     3
 72
    20
 73
    16
 74
     0
 42
0.0000000001
 43
0.0000000001
 12
1.0
 22
0.0
 32
0.0
 13
1.0
 23
0.0
 33
0.0
 40
0.0
 40
0.0
 40
0.0
 40
0.0
 40
0.2
 40
0.2
 40
0.2
 40
0.2
 40
0.4
 40
0.4
 40
0.4
 40
0.4
 40
0.6
 40
0.6
 40
0.6
 40
0.6
 40
1.0
 40
1.0
 40
1.0
 40
1.0
 10
190.6681
 20
26.2887
 30
0.0
 10
190.6681
 20
26.2887
 30
0.0
 10
185.0374
 20
21.3647
 30
0.0
 10
185.0374
 20
21.3647
 30
0.0
 10
185.0374
 20
21.3647
 30
0.0
 10
185.0374
 20
21.3647
 30
0.0
 10
185.0517
 20
-2.7324
 30
0.0
 10
185.0517
 20
-2.7324
 30
0.0
 10
185.0517
 20
-2.7324
 30
0.0
 10
185.0517
 20
-2.7324
 30
0.0
 10
190.6823
 20
-7.6564
 30
0.0
 10
190.6823
 20
-7.6564
 30
0.0
 10
190.6823
 20
-7.6564
 30
0.0
 10
190.6823
 20
-7.6564
 30
0.0
 10
190.6681
 20
26.2887
 30
0.0
 10
190.6681
 20
26.2887
 30
0.0
  0
SPLINE
  5
7F
330
1F
100
AcDbEntity
  8
layer 1
 62
     7
100
AcDbSpline
210
0.0
220
0.0
230
1.0
 70
    11
 71
     3
 72
    20
 73
    16
 74
     0
 42
0.0000000001
 43
0.0000000001
 12
1.0
 22
0.0
 32
0.0
 13
1.0
 23
0.0
 33
0.0
 40
0.0
 40
0.0
 40
0.0
 40
0.0
 40
0.2
 40
0.2
 40
0.2
 40
0.2
 40
0.4
 40
0.4
 40
0.4
 40
0.4
 40
0.6
 40
0.6
 40
0.6
 40
0.6
 40
1.0
 40
1.0
 40
1.0
 40
1.0
 10
176.4994
 20
-21.8736
 30
0.0
 10
176.4994
 20
-21.8736
 30
0.0
 10
171.5754
 20
-16.243
 30
0.0
 10
171.5754
 20
-16.243
 30
0.0
 10
171.5754
 20
-16.243
 30
0.0
 10
171.5754
 20
-16.243
 30
0.0
 10
147.4782
 20
-16.2572
 30
0.0
 10
147.4782
 20
-16.2572
 30
0.0
 10
147.4782
 20
-16.2572
 30
0.0
 10
147.4782
 20
-16.2572
 30
0.0
 10
142.5542
 20
-21.8878
 30
0.0
 10
142.5542
 20
-21.8878
 30
0.0
 10
142.5542
 20
-21.8878
 30
0.0
 10
142.5542
 20
-21.8878
 30
0.0
 10
176.4994
 20
-21.8736
 30
0.0
 10
176.4994
 20
-21.8736
 30
0.0
  0
SPLINE
  5
80
330
1F
100
AcDbEntity
  8
layer 1
 62
     7
100
AcDbSpline
210
0.0
220
0.0
230
1.0
 70
    11
 71
     3
 72
    20
 73
    16
 74
     0
 42
0.0000000001
 43
0.0000000001
 12
1.0
 22
0.0
 32
0.0
 13
1.0
 23
0.0
 33
0.0
 40
0.0
 40
0.0
 40
0.0
 40
0.0
 40
0.2
 40
0.2
 40
0.2
 40
0.2
 40
0.4
 40
0.4
 40
0.4
 40
0.4
 40
0.6
 40
0.6
 40
0.6
 40
0.6
 40
1.0
 40
1.0
 40
1.0
 40
1.0
 10
156.4621
 20
9.3081
 30
0.0
 10
156.4621
 20
9.3081
 30
0.0
 10
159.526
 20
12.372
 30
0.0
 10
159.526
 20
12.372
 30
0.0
 10
159.526
 20
12.372
 30
0.0
 10
159.526
 20
12.372
 30
0.0
 10
162.5898
 20
9.3081
 30
0.0
 10
162.5898
 20
9.3081
 30
0.0
 10
162.5898
 20
9.3081
 30
0.0
 10
162.5898
 20
9.3081
 30
0.0
 10
159.526
 20
6.2443
 30
0.0
 10
159.526
 20
6.2443
 30
0.0
 10
159.526
 20
6.2443
 30
0.0
 10
159.526
 20
6.2443
 30
0.0
 10
156.4621
 20
9.3081
 30
0.0
 10
156.4621
 20
9.3081
 30
0.0
  0
SPLINE
  5
81
330
1F
100
AcDbEntity
  8
layer 1
 62
     7
100
AcDbSpline
210
0.0
220
0.0
230
1.0
 70
    11
 71
     3
 72
    20
 73
    16
 74
     0
 42
0.0000000001
 43
0.0000000001
 12
1.0
 22
0.0
 32
0.0
 13
1.0
 23
0.0
 33
0.0
 40
0.0
 40
0.0
 40
0.0
 40
0.0
 40
0.2
 40
0.2
 40
0.2
 40
0.2
 40
0.4
 40
0.4
 40
0.4
 40
0.4
 40
0.6
 40
0.6
 40
0.6
 40
0.6
 40
1.0
 40
1.0
 40
1.0
 40
1.0
 10
136.7468
 20
40.5313
 30
0.0
 10
136.7468
 20
40.5313
 30
0.0
 10
144.0798
 20
33.1984
 30
0.0
 10
144.0798
 20
33.1984
 30
0.0
 10
144.0798
 20
33.1984
 30
0.0
 10
144.0798
 20
33.1984
 30
0.0
 10
144.0716
 20
28.4179
 30
0.0
 10
144.0716
 20
28.4179
 30
0.0
 10
144.0716
 20
28.4179
 30
0.0
 10
144.0716
 20
28.4179
 30
0.0
 10
131.965
 20
40.5245
 30
0.0
 10
131.965
 20
40.5245
 30
0.0
 10
131.965
 20
40.5245
 30
0.0
 10
131.965
 20
40.5245
 30
0.0
 10
136.7468
 20
40.5313
 30
0.0
 10
136.7468
 20
40.5313
 30
0.0
  0
SPLINE
  5
82
330
1F
100
AcDbEntity
  8
layer 1
 62
     7
100
AcDbSpline
210
0.0
220
0.0
230
1.0
 70
    11
 71
     3
 72
    32
 73
    28
 74
     0
 42
0.0000000001
 43
0.0000000001
 12
1.0
 22
0.0
 32
0.0
 13
1.0
 23
0.0
 33
0.0
 40
0.0
 40
0.0
 40
0.0
 40
0.0
 40
0.125
 40
0.125
 40
0.125
 40
0.125
 40
0.25
 40
0.25
 40
0.25
 40
0.25
 40
0.375
 40
0.375
 40
0.375
 40
0.375
 40
0.5
 40
0.5
 40
0.5
 40
0.5
 40
0.625
 40
0.625
 40
0.625
 40
0.625
 40
0.75
 40
0.75
 40
0.75
 40
0.75
 40
1.0
 40
1.0
 40
1.0
 40
1.0
 10
152.4923
 20
30.0971
 30
0.0
 10
152.4923
 20
30.0971
 30
0.0
 10
166.6628
 20
30.0274
 30
0.0
 10
166.6628
 20
30.0274
 30
0.0
 10
166.6628
 20
30.0274
 30
0.0
 10
166.6628
 20
30.0274
 30
0.0
 10
166.6503
 20
20.8067
 30
0.0
 10
166.6503
 20
20.8067
 30
0.0
 10
166.6503
 20
20.8067
 30
0.0
 10
166.6503
 20
20.8067
 30
0.0
 10
163.101
 20
16.7567
 30
0.0
 10
163.101
 20
16.7567
 30
0.0
 10
163.101
 20
16.7567
 30
0.0
 10
163.101
 20
16.7567
 30
0.0
 10
159.5259
 20
20.1286
 30
0.0
 10
159.5259
 20
20.1286
 30
0.0
 10
159.5259
 20
20.1286
 30
0.0
 10
159.5259
 20
20.1286
 30
0.0
 10
156.0858
 20
16.6552
 30
0.0
 10
156.0858
 20
16.6552
 30
0.0
 10
156.0858
 20
16.6552
 30
0.0
 10
156.0858
 20
16.6552
 30
0.0
 10
152.4892
 20
20.8154
 30
0.0
 10
152.4892
 20
20.8154
 30
0.0
 10
152.4892
 20
20.8154
 30
0.0
 10
152.4892
 20
20.8154
 30
0.0
 10
152.4923
 20
30.0971
 30
0.0
 10
152.4923
 20
30.0971
 30
0.0
  0
SPLINE
  5
83
330
1F
100
AcDbEntity
  8
layer 1
 62
     7
100
AcDbSpline
210
0.0
220
0.0
230
1.0
 70
    11
 71
     3
 72
    20
 73
    16
 74
     0
 42
0.0000000001
 43
0.0000000001
 12
1.0
 22
0.0
 32
0.0
 13
1.0
 23
0.0
 33
0.0
 40
0.0
 40
0.0
 40
0.0
 40
0.0
 40
0.2
 40
0.2
 40
0.2
 40
0.2
 40
0.4
 40
0.4
 40
0.4
 40
0.4
 40
0.6
 40
0.6
 40
0.6
 40
0.6
 40
1.0
 40
1.0
 40
1.0
 40
1.0
 10
128.3718
 20
32.209
 30
0.0
 10
128.3718
 20
32.209
 30
0.0
 10
135.7048
 20
24.8761
 30
0.0
 10
135.7048
 20
24.8761
 30
0.0
 10
135.7048
 20
24.8761
 30
0.0
 10
135.7048
 20
24.8761
 30
0.0
 10
140.4853
 20
24.8843
 30
0.0
 10
140.4853
 20
24.8843
 30
0.0
 10
140.4853
 20
24.8843
 30
0.0
 10
140.4853
 20
24.8843
 30
0.0
 10
128.3787
 20
36.9909
 30
0.0
 10
128.3787
 20
36.9909
 30
0.0
 10
128.3787
 20
36.9909
 30
0.0
 10
128.3787
 20
36.9909
 30
0.0
 10
128.3718
 20
32.209
 30
0.0
 10
128.3718
 20
32.209
 30
0.0
  0
SPLINE
  5
84
330
1F
100
AcDbEntity
  8
layer 1
 62
     7
100
AcDbSpline
210
0.0
220
0.0
230
1.0
 70
    11
 71
     3
 72
    20
 73
    16
 74
     0
 42
0.0000000001
 43
0.0000000001
 12
1.0
 22
0.0
 32
0.0
 13
1.0
 23
0.0
 33
0.0
 40
0.0
 40
0.0
 40
0.0
 40
0.0
 40
0.2
 40
0.2
 40
0.2
 40
0.2
 40
0.4
 40
0.4
 40
0.4
 40
0.4
 40
0.6
 40
0.6
 40
0.6
 40
0.6
 40
1.0
 40
1.0
 40
1.0
 40
1.0
 10
128.3747
 20
26.2887
 30
0.0
 10
128.3747
 20
26.2887
 30
0.0
 10
134.0053
 20
21.3647
 30
0.0
 10
134.0053
 20
21.3647
 30
0.0
 10
134.0053
 20
21.3647
 30
0.0
 10
134.0053
 20
21.3647
 30
0.0
 10
133.9911
 20
-2.7324
 30
0.0
 10
133.9911
 20
-2.7324
 30
0.0
 10
133.9911
 20
-2.7324
 30
0.0
 10
133.9911
 20
-2.7324
 30
0.0
 10
128.3605
 20
-7.6564
 30
0.0
 10
128.3605
 20
-7.6564
 30
0.0
 10
128.3605
 20
-7.6564
 30
0.0
 10
128.3605
 20
-7.6564
 30
0.0
 10
128.3747
 20
26.2887
 30
0.0
 10
128.3747
 20
26.2887
 30
0.0
  0
SPLINE
  5
85
330
1F
100
AcDbEntity
  8
layer 1
 62
     7
100
AcDbSpline
210
0.0
220
0.0
230
1.0
 70
    11
 71
     3
 72
    32
 73
    28
 74
     0
 42
0.0000000001
 43
0.0000000001
 12
1.0
 22
0.0
 32
0.0
 13
1.0
 23
0.0
 33
0.0
 40
0.0
 40
0.0
 40
0.0
 40
0.0
 40
0.125
 40
0.125
 40
0.125
 40
0.125
 40
0.25
 40
0.25
 40
0.25
 40
0.25
 40
0.375
 40
0.375
 40
0.375
 40
0.375
 40
0.5
 40
0.5
 40
0.5
 40
0.5
 40
0.625
 40
0.625
 40
0.625
 40
0.625
 40
0.75
 40
0.75
 40
0.75
 40
0.75
 40
1.0
 40
1.0
 40
1.0
 40
1.0
 10
138.8061
 20
16.4636
 30
0.0
 10
138.8061
 20
16.4636
 30
0.0
 10
138.8757
 20
2.2931
 30
0.0
 10
138.8757
 20
2.2931
 30
0.0
 10
138.8757
 20
2.2931
 30
0.0
 10
138.8757
 20
2.2931
 30
0.0
 10
148.0965
 20
2.3055
 30
0.0
 10
148.0965
 20
2.3055
 30
0.0
 10
148.0965
 20
2.3055
 30
0.0
 10
148.0965
 20
2.3055
 30
0.0
 10
152.1465
 20
5.8548
 30
0.0
 10
152.1465
 20
5.8548
 30
0.0
 10
152.1465
 20
5.8548
 30
0.0
 10
152.1465
 20
5.8548
 30
0.0
 10
148.7746
 20
9.4299
 30
0.0
 10
148.7746
 20
9.4299
 30
0.0
 10
148.7746
 20
9.4299
 30
0.0
 10
148.7746
 20
9.4299
 30
0.0
 10
152.248
 20
12.87
 30
0.0
 10
152.248
 20
12.87
 30
0.0
 10
152.248
 20
12.87
 30
0.0
 10
152.248
 20
12.87
 30
0.0
 10
148.0877
 20
16.4666
 30
0.0
 10
148.0877
 20
16.4666
 30
0.0
 10
148.0877
 20
16.4666
 30
0.0
 10
148.0877
 20
16.4666
 30
0.0
 10
138.8061
 20
16.4636
 30
0.0
 10
138.8061
 20
16.4636
 30
0.0
  0
SPLINE
  5
86
330
1F
100
AcDbEntity
  8
layer 1
 62
     7
100
AcDbSpline
210
0.0
220
0.0
230
1.0
 70
    11
 71
     3
 72
    20
 73
    16
 74
     0
 42
0.0000000001
 43
0.0000000001
 12
1.0
 22
0.0
 32
0.0
 13
1.0
 23
0.0
 33
0.0
 40
0.0
 40
0.0
 40
0.0
 40
0.0
 40
0.2
 40
0.2
 40
0.2
 40
0.2
 40
0.4
 40
0.4
 40
0.4
 40
0.4
 40
0.6
 40
0.6
 40
0.6
 40
0.6
 40
1.0
 40
1.0
 40
1.0
 40
1.0
 10
136.7326
 20
-21.899
 30
0.0
 10
136.7326
 20
-21.899
 30
0.0
 10
144.0655
 20
-14.5661
 30
0.0
 10
144.0655
 20
-14.5661
 30
0.0
 10
144.0655
 20
-14.5661
 30
0.0
 10
144.0655
 20
-14.5661
 30
0.0
 10
144.0573
 20
-9.7856
 30
0.0
 10
144.0573
 20
-9.7856
 30
0.0
 10
144.0573
 20
-9.7856
 30
0.0
 10
144.0573
 20
-9.7856
 30
0.0
 10
131.9507
 20
-21.8922
 30
0.0
 10
131.9507
 20
-21.8922
 30
0.0
 10
131.9507
 20
-21.8922
 30
0.0
 10
131.9507
 20
-21.8922
 30
0.0
 10
136.7326
 20
-21.899
 30
0.0
 10
136.7326
 20
-21.899
 30
0.0
  0
SPLINE
  5
87
330
1F
100
AcDbEntity
  8
layer 1
 62
     7
100
AcDbSpline
210
0.0
220
0.0
230
1.0
 70
    11
 71
     3
 72
    32
 73
    28
 74
     0
 42
0.0000000001
 43
0.0000000001
 12
1.0
 22
0.0
 32
0.0
 13
1.0
 23
0.0
 33
0.0
 40
0.0
 40
0.0
 40
0.0
 40
0.0
 40
0.125
 40
0.125
 40
0.125
 40
0.125
 40
0.25
 40
0.25
 40
0.25
 40
0.25
 40
0.375
 40
0.375
 40
0.375
 40
0.375
 40
0.5
 40
0.5
 40
0.5
 40
0.5
 40
0.625
 40
0.625
 40
0.625
 40
0.625
 40
0.75
 40
0.75
 40
0.75
 40
0.75
 40
1.0
 40
1.0
 40
1.0
 40
1.0
 10
152.4781
 20
-11.4648
 30
0.0
 10
152.4781
 20
-11.4648
 30
0.0
 10
166.6485
 20
-11.3951
 30
0.0
 10
166.6485
 20
-11.3951
 30
0.0
 10
166.6485
 20
-11.3951
 30
0.0
 10
166.6485
 20
-11.3951
 30
0.0
 10
166.6361
 20
-2.1744
 30
0.0
 10
166.6361
 20
-2.1744
 30
0.0
 10
166.6361
 20
-2.1744
 30
0.0
 10
166.6361
 20
-2.1744
 30
0.0
 10
163.0868
 20
1.8756
 30
0.0
 10
163.0868
 20
1.8756
 30
0.0
 10
163.0868
 20
1.8756
 30
0.0
 10
163.0868
 20
1.8756
 30
0.0
 10
159.5117
 20
-1.4963
 30
0.0
 10
159.5117
 20
-1.4963
 30
0.0
 10
159.5117
 20
-1.4963
 30
0.0
 10
159.5117
 20
-1.4963
 30
0.0
 10
156.0716
 20
1.9771
 30
0.0
 10
156.0716
 20
1.9771
 30
0.0
 10
156.0716
 20
1.9771
 30
0.0
 10
156.0716
 20
1.9771
 30
0.0
 10
152.475
 20
-2.1831
 30
0.0
 10
152.475
 20
-2.1831
 30
0.0
 10
152.475
 20
-2.1831
 30
0.0
 10
152.475
 20
-2.1831
 30
0.0
 10
152.4781
 20
-11.4648
 30
0.0
 10
152.4781
 20
-11.4648
 30
0.0
  0
SPLINE
  5
88
330
1F
100
AcDbEntity
  8
layer 1
 62
     7
100
AcDbSpline
210
0.0
220
0.0
230
1.0
 70
    11
 71
     3
 72
    20
 73
    16
 74
     0
 42
0.0000000001
 43
0.0000000001
 12
1.0
 22
0.0
 32
0.0
 13
1.0
 23
0.0
 33
0.0
 40
0.0
 40
0.0
 40
0.0
 40
0.0
 40
0.2
 40
0.2
 40
0.2
 40
0.2
 40
0.4
 40
0.4
 40
0.4
 40
0.4
 40
0.6
 40
0.6
 40
0.6
 40
0.6
 40
1.0
 40
1.0
 40
1.0
 40
1.0
 10
128.3576
 20
-13.5767
 30
0.0
 10
128.3576
 20
-13.5767
 30
0.0
 10
135.6905
 20
-6.2438
 30
0.0
 10
135.6905
 20
-6.2438
 30
0.0
 10
135.6905
 20
-6.2438
 30
0.0
 10
135.6905
 20
-6.2438
 30
0.0
 10
140.4711
 20
-6.252
 30
0.0
 10
140.4711
 20
-6.252
 30
0.0
 10
140.4711
 20
-6.252
 30
0.0
 10
140.4711
 20
-6.252
 30
0.0
 10
128.3645
 20
-18.3586
 30
0.0
 10
128.3645
 20
-18.3586
 30
0.0
 10
128.3645
 20
-18.3586
 30
0.0
 10
128.3645
 20
-18.3586
 30
0.0
 10
128.3576
 20
-13.5767
 30
0.0
 10
128.3576
 20
-13.5767
 30
0.0
  0
SPLINE
  5
89
330
1F
100
AcDbEntity
  8
layer 1
 62
     7
100
AcDbSpline
210
0.0
220
0.0
230
1.0
 70
    11
 71
     3
 72
    32
 73
    28
 74
     0
 42
0.0000000001
 43
0.0000000001
 12
1.0
 22
0.0
 32
0.0
 13
1.0
 23
0.0
 33
0.0
 40
0.0
 40
0.0
 40
0.0
 40
0.0
 40
0.125
 40
0.125
 40
0.125
 40
0.125
 40
0.25
 40
0.25
 40
0.25
 40
0.25
 40
0.375
 40
0.375
 40
0.375
 40
0.375
 40
0.5
 40
0.5
 40
0.5
 40
0.5
 40
0.625
 40
0.625
 40
0.625
 40
0.625
 40
0.75
 40
0.75
 40
0.75
 40
0.75
 40
1.0
 40
1.0
 40
1.0
 40
1.0
 10
138.7918
 20
2.1687
 30
0.0
 10
138.7918
 20
2.1687
 30
0.0
 10
138.8615
 20
16.3392
 30
0.0
 10
138.8615
 20
16.3392
 30
0.0
 10
138.8615
 20
16.3392
 30
0.0
 10
138.8615
 20
16.3392
 30
0.0
 10
148.0823
 20
16.3268
 30
0.0
 10
148.0823
 20
16.3268
 30
0.0
 10
148.0823
 20
16.3268
 30
0.0
 10
148.0823
 20
16.3268
 30
0.0
 10
152.1323
 20
12.7775
 30
0.0
 10
152.1323
 20
12.7775
 30
0.0
 10
152.1323
 20
12.7775
 30
0.0
 10
152.1323
 20
12.7775
 30
0.0
 10
148.7603
 20
9.2024
 30
0.0
 10
148.7603
 20
9.2024
 30
0.0
 10
148.7603
 20
9.2024
 30
0.0
 10
148.7603
 20
9.2024
 30
0.0
 10
152.2337
 20
5.7623
 30
0.0
 10
152.2337
 20
5.7623
 30
0.0
 10
152.2337
 20
5.7623
 30
0.0
 10
152.2337
 20
5.7623
 30
0.0
 10
148.0735
 20
2.1657
 30
0.0
 10
148.0735
 20
2.1657
 30
0.0
 10
148.0735
 20
2.1657
 30
0.0
 10
148.0735
 20
2.1657
 30
0.0
 10
138.7918
 20
2.1687
 30
0.0
 10
138.7918
 20
2.1687
 30
0.0
  0
SPLINE
  5
8A
330
1F
100
AcDbEntity
  8
layer 1
 62
     7
100
AcDbSpline
210
0.0
220
0.0
230
1.0
 70
    11
 71
     3
 72
    20
 73
    16
 74
     0
 42
0.0000000001
 43
0.0000000001
 12
1.0
 22
0.0
 32
0.0
 13
1.0
 23
0.0
 33
0.0
 40
0.0
 40
0.0
 40
0.0
 40
0.0
 40
0.2
 40
0.2
 40
0.2
 40
0.2
 40
0.4
 40
0.4
 40
0.4
 40
0.4
 40
0.6
 40
0.6
 40
0.6
 40
0.6
 40
1.0
 40
1.0
 40
1.0
 40
1.0
 10
182.241
 20
-21.8775
 30
0.0
 10
182.241
 20
-21.8775
 30
0.0
 10
174.9081
 20
-14.5445
 30
0.0
 10
174.9081
 20
-14.5445
 30
0.0
 10
174.9081
 20
-14.5445
 30
0.0
 10
174.9081
 20
-14.5445
 30
0.0
 10
174.9163
 20
-9.764
 30
0.0
 10
174.9163
 20
-9.764
 30
0.0
 10
174.9163
 20
-9.764
 30
0.0
 10
174.9163
 20
-9.764
 30
0.0
 10
187.0229
 20
-21.8706
 30
0.0
 10
187.0229
 20
-21.8706
 30
0.0
 10
187.0229
 20
-21.8706
 30
0.0
 10
187.0229
 20
-21.8706
 30
0.0
 10
182.241
 20
-21.8775
 30
0.0
 10
182.241
 20
-21.8775
 30
0.0
  0
SPLINE
  5
8B
330
1F
100
AcDbEntity
  8
layer 1
100
AcDbSpline
210
0.0
220
0.0
230
1.0
 70
    11
 71
     3
 72
    20
 73
    16
 74
     0
 42
0.0000000001
 43
0.0000000001
 12
1.0
 22
0.0
 32
0.0
 13
1.0
 23
0.0
 33
0.0
 40
0.0
 40
0.0
 40
0.0
 40
0.0
 40
0.2
 40
0.2
 40
0.2
 40
0.2
 40
0.4
 40
0.4
 40
0.4
 40
0.4
 40
0.6
 40
0.6
 40
0.6
 40
0.6
 40
1.0
 40
1.0
 40
1.0
 40
1.0
 10
45.4535
 20
-40.9592
 30
0.0
 10
45.4535
 20
-40.9592
 30
0.0
 10
119.0722
 20
-40.9592
 30
0.0
 10
119.0722
 20
-40.9592
 30
0.0
 10
119.0722
 20
-40.9592
 30
0.0
 10
119.0722
 20
-40.9592
 30
0.0
 10
119.0722
 20
-114.5779
 30
0.0
 10
119.0722
 20
-114.5779
 30
0.0
 10
119.0722
 20
-114.5779
 30
0.0
 10
119.0722
 20
-114.5779
 30
0.0
 10
45.4535
 20
-114.5779
 30
0.0
 10
45.4535
 20
-114.5779
 30
0.0
 10
45.4535
 20
-114.5779
 30
0.0
 10
45.4535
 20
-114.5779
 30
0.0
 10
45.4535
 20
-40.9592
 30
0.0
 10
45.4535
 20
-40.9592
 30
0.0
  0
SPLINE
  5
8C
330
1F
100
AcDbEntity
  8
layer 1
 62
     7
100
AcDbSpline
210
0.0
220
0.0
230
1.0
 70
    11
 71
     3
 72
    20
 73
    16
 74
     0
 42
0.0000000001
 43
0.0000000001
 12
1.0
 22
0.0
 32
0.0
 13
1.0
 23
0.0
 33
0.0
 40
0.0
 40
0.0
 40
0.0
 40
0.0
 40
0.2
 40
0.2
 40
0.2
 40
0.2
 40
0.4
 40
0.4
 40
0.4
 40
0.4
 40
0.6
 40
0.6
 40
0.6
 40
0.6
 40
1.0
 40
1.0
 40
1.0
 40
1.0
 10
91.0045
 20
-76.8533
 30
0.0
 10
91.0045
 20
-81.9371
 30
0.0
 10
86.8844
 20
-86.0577
 30
0.0
 10
81.8005
 20
-86.0577
 30
0.0
 10
81.8005
 20
-86.0577
 30
0.0
 10
76.7183
 20
-86.0577
 30
0.0
 10
72.5982
 20
-81.9371
 30
0.0
 10
72.5982
 20
-76.8533
 30
0.0
 10
72.5982
 20
-76.8533
 30
0.0
 10
72.5982
 20
-71.7715
 30
0.0
 10
76.7183
 20
-67.6509
 30
0.0
 10
81.8005
 20
-67.6509
 30
0.0
 10
81.8005
 20
-67.6509
 30
0.0
 10
86.8844
 20
-67.6509
 30
0.0
 10
91.0045
 20
-71.7715
 30
0.0
 10
91.0045
 20
-76.8533
 30
0.0
  0
SPLINE
  5
8D
330
1F
100
AcDbEntity
  8
layer 1
 62
     7
100
AcDbSpline
210
0.0
220
0.0
230
1.0
 70
    11
 71
     3
 72
    16
 73
    12
 74
     0
 42
0.0000000001
 43
0.0000000001
 12
1.0
 22
0.0
 32
0.0
 13
1.0
 23
0.0
 33
0.0
 40
0.0
 40
0.0
 40
0.0
 40
0.0
 40
0.25
 40
0.25
 40
0.25
 40
0.25
 40
0.5
 40
0.5
 40
0.5
 40
0.5
 40
1.0
 40
1.0
 40
1.0
 40
1.0
 10
78.7436
 20
-88.3827
 30
0.0
 10
80.9398
 20
-88.3481
 30
0.0
 10
83.1962
 20
-88.3363
 30
0.0
 10
84.8653
 20
-88.3827
 30
0.0
 10
84.8653
 20
-88.3827
 30
0.0
 10
82.6449
 20
-91.0694
 30
0.0
 10
81.8083
 20
-95.7126
 30
0.0
 10
81.8042
 20
-96.7968
 30
0.0
 10
81.8042
 20
-96.7968
 30
0.0
 10
81.8005
 20
-95.7126
 30
0.0
 10
80.9641
 20
-91.0694
 30
0.0
 10
78.7436
 20
-88.3827
 30
0.0
  0
SPLINE
  5
8E
330
1F
100
AcDbEntity
  8
layer 1
 62
     7
100
AcDbSpline
210
0.0
220
0.0
230
1.0
 70
    11
 71
     3
 72
    20
 73
    16
 74
     0
 42
0.0000000001
 43
0.0000000001
 12
1.0
 22
0.0
 32
0.0
 13
1.0
 23
0.0
 33
0.0
 40
0.0
 40
0.0
 40
0.0
 40
0.0
 40
0.2
 40
0.2
 40
0.2
 40
0.2
 40
0.4
 40
0.4
 40
0.4
 40
0.4
 40
0.6
 40
0.6
 40
0.6
 40
0.6
 40
1.0
 40
1.0
 40
1.0
 40
1.0
 10
64.1619
 20
-108.1207
 30
0.0
 10
61.5739
 20
-103.23
 30
0.0
 10
64.8054
 20
-97.9732
 30
0.0
 10
65.3624
 20
-96.7622
 30
0.0
 10
65.3624
 20
-96.7622
 30
0.0
 10
65.6117
 20
-96.2213
 30
0.0
 10
65.1535
 20
-95.7671
 30
0.0
 10
64.7508
 20
-96.4266
 30
0.0
 10
64.7508
 20
-96.4266
 30
0.0
 10
61.8993
 20
-101.0033
 30
0.0
 10
61.2841
 20
-105.8118
 30
0.0
 10
54.9915
 20
-108.0986
 30
0.0
 10
54.9915
 20
-108.0986
 30
0.0
 10
59.8884
 20
-108.0662
 30
0.0
 10
61.7629
 20
-108.1546
 30
0.0
 10
64.1619
 20
-108.1207
 30
0.0
  0
SPLINE
  5
8F
330
1F
100
AcDbEntity
  8
layer 1
 62
     7
100
AcDbSpline
210
0.0
220
0.0
230
1.0
 70
    11
 71
     3
 72
    16
 73
    12
 74
     0
 42
0.0000000001
 43
0.0000000001
 12
1.0
 22
0.0
 32
0.0
 13
1.0
 23
0.0
 33
0.0
 40
0.0
 40
0.0
 40
0.0
 40
0.0
 40
0.25
 40
0.25
 40
0.25
 40
0.25
 40
0.5
 40
0.5
 40
0.5
 40
0.5
 40
1.0
 40
1.0
 40
1.0
 40
1.0
 10
81.8005
 20
-108.2309
 30
0.0
 10
79.4293
 20
-108.2087
 30
0.0
 10
78.8018
 20
-108.1505
 30
0.0
 10
76.467
 20
-108.1428
 30
0.0
 10
76.467
 20
-108.1428
 30
0.0
 10
80.4451
 20
-106.3348
 30
0.0
 10
81.8005
 20
-103.4508
 30
0.0
 10
81.8005
 20
-99.5274
 30
0.0
 10
81.8005
 20
-99.5274
 30
0.0
 10
81.8005
 20
-99.5274
 30
0.0
 10
81.8005
 20
-108.2309
 30
0.0
 10
81.8005
 20
-108.2309
 30
0.0
  0
SPLINE
  5
90
330
1F
100
AcDbEntity
  8
layer 1
 62
     7
100
AcDbSpline
210
0.0
220
0.0
230
1.0
 70
    11
 71
     3
 72
    20
 73
    16
 74
     0
 42
0.0000000001
 43
0.0000000001
 12
1.0
 22
0.0
 32
0.0
 13
1.0
 23
0.0
 33
0.0
 40
0.0
 40
0.0
 40
0.0
 40
0.0
 40
0.2
 40
0.2
 40
0.2
 40
0.2
 40
0.4
 40
0.4
 40
0.4
 40
0.4
 40
0.6
 40
0.6
 40
0.6
 40
0.6
 40
1.0
 40
1.0
 40
1.0
 40
1.0
 10
74.4361
 20
-108.1207
 30
0.0
 10
69.638
 20
-107.3
 30
0.0
 10
70.5426
 20
-101.6571
 30
0.0
 10
73.1167
 20
-101.3776
 30
0.0
 10
73.1167
 20
-101.3776
 30
0.0
 10
73.3664
 20
-100.8345
 30
0.0
 10
71.3956
 20
-101.1161
 30
0.0
 10
69.2498
 20
-95.8454
 30
0.0
 10
69.2498
 20
-95.8454
 30
0.0
 10
69.6159
 20
-99.3744
 30
0.0
 10
70.8221
 20
-105.074
 30
0.0
 10
67.5927
 20
-108.0986
 30
0.0
 10
67.5927
 20
-108.0986
 30
0.0
 10
69.151
 20
-108.0584
 30
0.0
 10
72.7428
 20
-108.0419
 30
0.0
 10
74.4361
 20
-108.1207
 30
0.0
  0
SPLINE
  5
91
330
1F
100
AcDbEntity
  8
layer 1
 62
     7
100
AcDbSpline
210
0.0
220
0.0
230
1.0
 70
    11
 71
     3
 72
    36
 73
    32
 74
     0
 42
0.0000000001
 43
0.0000000001
 12
1.0
 22
0.0
 32
0.0
 13
1.0
 23
0.0
 33
0.0
 40
0.0
 40
0.0
 40
0.0
 40
0.0
 40
0.1111111111111111
 40
0.1111111111111111
 40
0.1111111111111111
 40
0.1111111111111111
 40
0.2222222222222222
 40
0.2222222222222222
 40
0.2222222222222222
 40
0.2222222222222222
 40
0.3333333333333333
 40
0.3333333333333333
 40
0.3333333333333333
 40
0.3333333333333333
 40
0.4444444444444444
 40
0.4444444444444444
 40
0.4444444444444444
 40
0.4444444444444444
 40
0.5555555555555556
 40
0.5555555555555556
 40
0.5555555555555556
 40
0.5555555555555556
 40
0.6666666666666666
 40
0.6666666666666666
 40
0.6666666666666666
 40
0.6666666666666666
 40
0.7777777777777778
 40
0.7777777777777778
 40
0.7777777777777778
 40
0.7777777777777778
 40
1.0
 40
1.0
 40
1.0
 40
1.0
 10
76.1031
 20
-101.6448
 30
0.0
 10
76.7749
 20
-102.3526
 30
0.0
 10
77.159
 20
-103.7426
 30
0.0
 10
76.4228
 20
-104.9593
 30
0.0
 10
76.4228
 20
-104.9593
 30
0.0
 10
77.8364
 20
-103.7524
 30
0.0
 10
79.3228
 20
-104.3841
 30
0.0
 10
79.2425
 20
-97.3054
 30
0.0
 10
79.2425
 20
-97.3054
 30
0.0
 10
79.1097
 20
-93.8124
 30
0.0
 10
78.1325
 20
-88.8428
 30
0.0
 10
73.2475
 20
-87.7731
 30
0.0
 10
73.2475
 20
-87.7731
 30
0.0
 10
71.9603
 20
-87.4014
 30
0.0
 10
71.0518
 20
-88.9998
 30
0.0
 10
72.2723
 20
-89.37
 30
0.0
 10
72.2723
 20
-89.37
 30
0.0
 10
74.0819
 20
-89.5306
 30
0.0
 10
73.3803
 20
-91.6584
 30
0.0
 10
72.3222
 20
-91.7753
 30
0.0
 10
72.3222
 20
-91.7753
 30
0.0
 10
71.9023
 20
-91.96
 30
0.0
 10
72.0931
 20
-92.9655
 30
0.0
 10
73.0503
 20
-93.07
 30
0.0
 10
73.0503
 20
-93.07
 30
0.0
 10
75.0817
 20
-93.2893
 30
0.0
 10
78.2812
 20
-97.4742
 30
0.0
 10
78.082
 20
-101.7235
 30
0.0
 10
78.082
 20
-101.7235
 30
0.0
 10
77.4226
 20
-101.8141
 30
0.0
 10
76.8413
 20
-101.8642
 30
0.0
 10
76.1031
 20
-101.6448
 30
0.0
  0
SPLINE
  5
92
330
1F
100
AcDbEntity
  8
layer 1
 62
     7
100
AcDbSpline
210
0.0
220
0.0
230
1.0
 70
    11
 71
     3
 72
    20
 73
    16
 74
     0
 42
0.0000000001
 43
0.0000000001
 12
1.0
 22
0.0
 32
0.0
 13
1.0
 23
0.0
 33
0.0
 40
0.0
 40
0.0
 40
0.0
 40
0.0
 40
0.2
 40
0.2
 40
0.2
 40
0.2
 40
0.4
 40
0.4
 40
0.4
 40
0.4
 40
0.6
 40
0.6
 40
0.6
 40
0.6
 40
1.0
 40
1.0
 40
1.0
 40
1.0
 10
50.4952
 20
-94.492
 30
0.0
 10
55.388
 20
-97.082
 30
0.0
 10
60.6427
 20
-93.8505
 30
0.0
 10
61.8529
 20
-93.2934
 30
0.0
 10
61.8529
 20
-93.2934
 30
0.0
 10
62.394
 20
-93.0437
 30
0.0
 10
62.8486
 20
-93.5004
 30
0.0
 10
62.1891
 20
-93.9024
 30
0.0
 10
62.1891
 20
-93.9024
 30
0.0
 10
57.612
 20
-96.7541
 30
0.0
 10
52.8035
 20
-97.3718
 30
0.0
 10
50.5172
 20
-103.6619
 30
0.0
 10
50.5172
 20
-103.6619
 30
0.0
 10
50.5492
 20
-98.7655
 30
0.0
 10
50.4612
 20
-96.891
 30
0.0
 10
50.4952
 20
-94.492
 30
0.0
  0
SPLINE
  5
93
330
1F
100
AcDbEntity
  8
layer 1
 62
     7
100
AcDbSpline
210
0.0
220
0.0
230
1.0
 70
    11
 71
     3
 72
    16
 73
    12
 74
     0
 42
0.0000000001
 43
0.0000000001
 12
1.0
 22
0.0
 32
0.0
 13
1.0
 23
0.0
 33
0.0
 40
0.0
 40
0.0
 40
0.0
 40
0.0
 40
0.25
 40
0.25
 40
0.25
 40
0.25
 40
0.5
 40
0.5
 40
0.5
 40
0.5
 40
1.0
 40
1.0
 40
1.0
 40
1.0
 10
50.3844
 20
-76.8533
 30
0.0
 10
50.4066
 20
-79.2245
 30
0.0
 10
50.4647
 20
-79.8516
 30
0.0
 10
50.475
 20
-82.1889
 30
0.0
 10
50.475
 20
-82.1889
 30
0.0
 10
52.2809
 20
-78.2109
 30
0.0
 10
55.1644
 20
-76.8533
 30
0.0
 10
59.0879
 20
-76.8533
 30
0.0
 10
59.0879
 20
-76.8533
 30
0.0
 10
59.0879
 20
-76.8533
 30
0.0
 10
50.3844
 20
-76.8533
 30
0.0
 10
50.3844
 20
-76.8533
 30
0.0
  0
SPLINE
  5
94
330
1F
100
AcDbEntity
  8
layer 1
 62
     7
100
AcDbSpline
210
0.0
220
0.0
230
1.0
 70
    11
 71
     3
 72
    20
 73
    16
 74
     0
 42
0.0000000001
 43
0.0000000001
 12
1.0
 22
0.0
 32
0.0
 13
1.0
 23
0.0
 33
0.0
 40
0.0
 40
0.0
 40
0.0
 40
0.0
 40
0.2
 40
0.2
 40
0.2
 40
0.2
 40
0.4
 40
0.4
 40
0.4
 40
0.4
 40
0.6
 40
0.6
 40
0.6
 40
0.6
 40
1.0
 40
1.0
 40
1.0
 40
1.0
 10
50.4952
 20
-84.2178
 30
0.0
 10
51.3157
 20
-89.0159
 30
0.0
 10
56.9586
 20
-88.1108
 30
0.0
 10
57.2381
 20
-85.5387
 30
0.0
 10
57.2381
 20
-85.5387
 30
0.0
 10
57.7808
 20
-85.2896
 30
0.0
 10
57.4992
 20
-87.2583
 30
0.0
 10
62.7704
 20
-89.4061
 30
0.0
 10
62.7704
 20
-89.4061
 30
0.0
 10
59.2407
 20
-89.0379
 30
0.0
 10
53.5418
 20
-87.8332
 30
0.0
 10
50.5172
 20
-91.0613
 30
0.0
 10
50.5172
 20
-91.0613
 30
0.0
 10
50.5573
 20
-89.5028
 30
0.0
 10
50.5734
 20
-85.9131
 30
0.0
 10
50.4952
 20
-84.2178
 30
0.0
  0
SPLINE
  5
95
330
1F
100
AcDbEntity
  8
layer 1
 62
     7
100
AcDbSpline
210
0.0
220
0.0
230
1.0
 70
    11
 71
     3
 72
    36
 73
    32
 74
     0
 42
0.0000000001
 43
0.0000000001
 12
1.0
 22
0.0
 32
0.0
 13
1.0
 23
0.0
 33
0.0
 40
0.0
 40
0.0
 40
0.0
 40
0.0
 40
0.1111111111111111
 40
0.1111111111111111
 40
0.1111111111111111
 40
0.1111111111111111
 40
0.2222222222222222
 40
0.2222222222222222
 40
0.2222222222222222
 40
0.2222222222222222
 40
0.3333333333333333
 40
0.3333333333333333
 40
0.3333333333333333
 40
0.3333333333333333
 40
0.4444444444444444
 40
0.4444444444444444
 40
0.4444444444444444
 40
0.4444444444444444
 40
0.5555555555555556
 40
0.5555555555555556
 40
0.5555555555555556
 40
0.5555555555555556
 40
0.6666666666666666
 40
0.6666666666666666
 40
0.6666666666666666
 40
0.6666666666666666
 40
0.7777777777777778
 40
0.7777777777777778
 40
0.7777777777777778
 40
0.7777777777777778
 40
1.0
 40
1.0
 40
1.0
 40
1.0
 10
56.9705
 20
-82.5508
 30
0.0
 10
56.2625
 20
-81.8789
 30
0.0
 10
54.8731
 20
-81.4948
 30
0.0
 10
53.6566
 20
-82.2326
 30
0.0
 10
53.6566
 20
-82.2326
 30
0.0
 10
54.8628
 20
-80.8168
 30
0.0
 10
54.2316
 20
-79.3311
 30
0.0
 10
61.3103
 20
-79.4115
 30
0.0
 10
61.3103
 20
-79.4115
 30
0.0
 10
64.8034
 20
-79.5463
 30
0.0
 10
69.7724
 20
-80.5235
 30
0.0
 10
70.8422
 20
-85.408
 30
0.0
 10
70.8422
 20
-85.408
 30
0.0
 10
71.2145
 20
-86.695
 30
0.0
 10
69.618
 20
-87.6022
 30
0.0
 10
69.2457
 20
-86.3815
 30
0.0
 10
69.2457
 20
-86.3815
 30
0.0
 10
69.0846
 20
-84.5714
 30
0.0
 10
66.9573
 20
-85.2736
 30
0.0
 10
66.8404
 20
-86.331
 30
0.0
 10
66.8404
 20
-86.331
 30
0.0
 10
66.6557
 20
-86.7517
 30
0.0
 10
65.6498
 20
-86.5607
 30
0.0
 10
65.5453
 20
-85.6051
 30
0.0
 10
65.5453
 20
-85.6051
 30
0.0
 10
65.3264
 20
-83.5742
 30
0.0
 10
61.1435
 20
-80.3746
 30
0.0
 10
56.8943
 20
-80.5738
 30
0.0
 10
56.8943
 20
-80.5738
 30
0.0
 10
56.8037
 20
-81.2333
 30
0.0
 10
56.7511
 20
-81.8145
 30
0.0
 10
56.9705
 20
-82.5508
 30
0.0
  0
SPLINE
  5
96
330
1F
100
AcDbEntity
  8
layer 1
 62
     7
100
AcDbSpline
210
0.0
220
0.0
230
1.0
 70
    11
 71
     3
 72
    20
 73
    16
 74
     0
 42
0.0000000001
 43
0.0000000001
 12
1.0
 22
0.0
 32
0.0
 13
1.0
 23
0.0
 33
0.0
 40
0.0
 40
0.0
 40
0.0
 40
0.0
 40
0.2
 40
0.2
 40
0.2
 40
0.2
 40
0.4
 40
0.4
 40
0.4
 40
0.4
 40
0.6
 40
0.6
 40
0.6
 40
0.6
 40
1.0
 40
1.0
 40
1.0
 40
1.0
 10
64.1619
 20
-45.5885
 30
0.0
 10
61.5739
 20
-50.4792
 30
0.0
 10
64.8054
 20
-55.734
 30
0.0
 10
65.3624
 20
-56.9443
 30
0.0
 10
65.3624
 20
-56.9443
 30
0.0
 10
65.6117
 20
-57.4873
 30
0.0
 10
65.1535
 20
-57.9421
 30
0.0
 10
64.7508
 20
-57.2804
 30
0.0
 10
64.7508
 20
-57.2804
 30
0.0
 10
61.8993
 20
-52.7053
 30
0.0
 10
61.2841
 20
-47.897
 30
0.0
 10
54.9915
 20
-45.6106
 30
0.0
 10
54.9915
 20
-45.6106
 30
0.0
 10
59.8884
 20
-45.6404
 30
0.0
 10
61.7629
 20
-45.554
 30
0.0
 10
64.1619
 20
-45.5885
 30
0.0
  0
SPLINE
  5
97
330
1F
100
AcDbEntity
  8
layer 1
 62
     7
100
AcDbSpline
210
0.0
220
0.0
230
1.0
 70
    11
 71
     3
 72
    20
 73
    16
 74
     0
 42
0.0000000001
 43
0.0000000001
 12
1.0
 22
0.0
 32
0.0
 13
1.0
 23
0.0
 33
0.0
 40
0.0
 40
0.0
 40
0.0
 40
0.0
 40
0.2
 40
0.2
 40
0.2
 40
0.2
 40
0.4
 40
0.4
 40
0.4
 40
0.4
 40
0.6
 40
0.6
 40
0.6
 40
0.6
 40
1.0
 40
1.0
 40
1.0
 40
1.0
 10
74.4361
 20
-45.5885
 30
0.0
 10
69.638
 20
-46.409
 30
0.0
 10
70.5426
 20
-52.0515
 30
0.0
 10
73.1167
 20
-52.331
 30
0.0
 10
73.1167
 20
-52.331
 30
0.0
 10
73.3664
 20
-52.8721
 30
0.0
 10
71.3956
 20
-52.5904
 30
0.0
 10
69.2498
 20
-57.8637
 30
0.0
 10
69.2498
 20
-57.8637
 30
0.0
 10
69.6159
 20
-54.3321
 30
0.0
 10
70.8221
 20
-48.633
 30
0.0
 10
67.5927
 20
-45.6106
 30
0.0
 10
67.5927
 20
-45.6106
 30
0.0
 10
69.151
 20
-45.6508
 30
0.0
 10
72.7428
 20
-45.6646
 30
0.0
 10
74.4361
 20
-45.5885
 30
0.0
  0
SPLINE
  5
98
330
1F
100
AcDbEntity
  8
layer 1
 62
     7
100
AcDbSpline
210
0.0
220
0.0
230
1.0
 70
    11
 71
     3
 72
    36
 73
    32
 74
     0
 42
0.0000000001
 43
0.0000000001
 12
1.0
 22
0.0
 32
0.0
 13
1.0
 23
0.0
 33
0.0
 40
0.0
 40
0.0
 40
0.0
 40
0.0
 40
0.1111111111111111
 40
0.1111111111111111
 40
0.1111111111111111
 40
0.1111111111111111
 40
0.2222222222222222
 40
0.2222222222222222
 40
0.2222222222222222
 40
0.2222222222222222
 40
0.3333333333333333
 40
0.3333333333333333
 40
0.3333333333333333
 40
0.3333333333333333
 40
0.4444444444444444
 40
0.4444444444444444
 40
0.4444444444444444
 40
0.4444444444444444
 40
0.5555555555555556
 40
0.5555555555555556
 40
0.5555555555555556
 40
0.5555555555555556
 40
0.6666666666666666
 40
0.6666666666666666
 40
0.6666666666666666
 40
0.6666666666666666
 40
0.7777777777777778
 40
0.7777777777777778
 40
0.7777777777777778
 40
0.7777777777777778
 40
1.0
 40
1.0
 40
1.0
 40
1.0
 10
76.1031
 20
-52.0638
 30
0.0
 10
76.7749
 20
-51.356
 30
0.0
 10
77.159
 20
-49.9644
 30
0.0
 10
76.4228
 20
-48.7495
 30
0.0
 10
76.4228
 20
-48.7495
 30
0.0
 10
77.8364
 20
-49.9562
 30
0.0
 10
79.3228
 20
-49.3251
 30
0.0
 10
79.2425
 20
-56.4018
 30
0.0
 10
79.2425
 20
-56.4018
 30
0.0
 10
79.1097
 20
-59.8946
 30
0.0
 10
78.1325
 20
-64.8658
 30
0.0
 10
73.2475
 20
-65.9355
 30
0.0
 10
73.2475
 20
-65.9355
 30
0.0
 10
71.9603
 20
-66.3078
 30
0.0
 10
71.0518
 20
-64.7088
 30
0.0
 10
72.2723
 20
-64.3371
 30
0.0
 10
72.2723
 20
-64.3371
 30
0.0
 10
74.0819
 20
-64.1779
 30
0.0
 10
73.3803
 20
-62.0482
 30
0.0
 10
72.3222
 20
-61.9339
 30
0.0
 10
72.3222
 20
-61.9339
 30
0.0
 10
71.9023
 20
-61.7465
 30
0.0
 10
72.0931
 20
-60.7431
 30
0.0
 10
73.0503
 20
-60.6366
 30
0.0
 10
73.0503
 20
-60.6366
 30
0.0
 10
75.0817
 20
-60.4193
 30
0.0
 10
78.2812
 20
-56.2344
 30
0.0
 10
78.082
 20
-51.9855
 30
0.0
 10
78.082
 20
-51.9855
 30
0.0
 10
77.4226
 20
-51.8949
 30
0.0
 10
76.8413
 20
-51.8425
 30
0.0
 10
76.1031
 20
-52.0638
 30
0.0
  0
SPLINE
  5
99
330
1F
100
AcDbEntity
  8
layer 1
 62
     7
100
AcDbSpline
210
0.0
220
0.0
230
1.0
 70
    11
 71
     3
 72
    16
 73
    12
 74
     0
 42
0.0000000001
 43
0.0000000001
 12
1.0
 22
0.0
 32
0.0
 13
1.0
 23
0.0
 33
0.0
 40
0.0
 40
0.0
 40
0.0
 40
0.0
 40
0.25
 40
0.25
 40
0.25
 40
0.25
 40
0.5
 40
0.5
 40
0.5
 40
0.5
 40
1.0
 40
1.0
 40
1.0
 40
1.0
 10
70.2332
 20
-73.7989
 30
0.0
 10
70.2671
 20
-75.9889
 30
0.0
 10
70.2795
 20
-78.2449
 30
0.0
 10
70.2332
 20
-79.9103
 30
0.0
 10
70.2332
 20
-79.9103
 30
0.0
 10
67.5463
 20
-77.692
 30
0.0
 10
62.9032
 20
-76.8533
 30
0.0
 10
61.8191
 20
-76.8533
 30
0.0
 10
61.8191
 20
-76.8533
 30
0.0
 10
62.9032
 20
-76.8533
 30
0.0
 10
67.5463
 20
-76.0167
 30
0.0
 10
70.2332
 20
-73.7989
 30
0.0
  0
SPLINE
  5
9A
330
1F
100
AcDbEntity
  8
layer 1
 62
     7
100
AcDbSpline
210
0.0
220
0.0
230
1.0
 70
    11
 71
     3
 72
    20
 73
    16
 74
     0
 42
0.0000000001
 43
0.0000000001
 12
1.0
 22
0.0
 32
0.0
 13
1.0
 23
0.0
 33
0.0
 40
0.0
 40
0.0
 40
0.0
 40
0.0
 40
0.2
 40
0.2
 40
0.2
 40
0.2
 40
0.4
 40
0.4
 40
0.4
 40
0.4
 40
0.6
 40
0.6
 40
0.6
 40
0.6
 40
1.0
 40
1.0
 40
1.0
 40
1.0
 10
50.4952
 20
-59.2152
 30
0.0
 10
55.388
 20
-56.6266
 30
0.0
 10
60.6427
 20
-59.8587
 30
0.0
 10
61.8529
 20
-60.4158
 30
0.0
 10
61.8529
 20
-60.4158
 30
0.0
 10
62.394
 20
-60.6649
 30
0.0
 10
62.8486
 20
-60.2062
 30
0.0
 10
62.1891
 20
-59.8042
 30
0.0
 10
62.1891
 20
-59.8042
 30
0.0
 10
57.612
 20
-56.9545
 30
0.0
 10
52.8035
 20
-56.3374
 30
0.0
 10
50.5172
 20
-50.0448
 30
0.0
 10
50.5172
 20
-50.0448
 30
0.0
 10
50.5492
 20
-54.9417
 30
0.0
 10
50.4612
 20
-56.8177
 30
0.0
 10
50.4952
 20
-59.2152
 30
0.0
  0
SPLINE
  5
9B
330
1F
100
AcDbEntity
  8
layer 1
 62
     7
100
AcDbSpline
210
0.0
220
0.0
230
1.0
 70
    11
 71
     3
 72
    16
 73
    12
 74
     0
 42
0.0000000001
 43
0.0000000001
 12
1.0
 22
0.0
 32
0.0
 13
1.0
 23
0.0
 33
0.0
 40
0.0
 40
0.0
 40
0.0
 40
0.0
 40
0.25
 40
0.25
 40
0.25
 40
0.25
 40
0.5
 40
0.5
 40
0.5
 40
0.5
 40
1.0
 40
1.0
 40
1.0
 40
1.0
 10
50.3844
 20
-76.8533
 30
0.0
 10
50.4066
 20
-74.4825
 30
0.0
 10
50.4647
 20
-73.857
 30
0.0
 10
50.475
 20
-71.5203
 30
0.0
 10
50.475
 20
-71.5203
 30
0.0
 10
52.2809
 20
-75.4977
 30
0.0
 10
55.1644
 20
-76.8533
 30
0.0
 10
59.0879
 20
-76.8533
 30
0.0
 10
59.0879
 20
-76.8533
 30
0.0
 10
59.0879
 20
-76.8533
 30
0.0
 10
50.3844
 20
-76.8533
 30
0.0
 10
50.3844
 20
-76.8533
 30
0.0
  0
SPLINE
  5
9C
330
1F
100
AcDbEntity
  8
layer 1
 62
     7
100
AcDbSpline
210
0.0
220
0.0
230
1.0
 70
    11
 71
     3
 72
    20
 73
    16
 74
     0
 42
0.0000000001
 43
0.0000000001
 12
1.0
 22
0.0
 32
0.0
 13
1.0
 23
0.0
 33
0.0
 40
0.0
 40
0.0
 40
0.0
 40
0.0
 40
0.2
 40
0.2
 40
0.2
 40
0.2
 40
0.4
 40
0.4
 40
0.4
 40
0.4
 40
0.6
 40
0.6
 40
0.6
 40
0.6
 40
1.0
 40
1.0
 40
1.0
 40
1.0
 10
50.4952
 20
-69.4909
 30
0.0
 10
51.3157
 20
-64.6907
 30
0.0
 10
56.9586
 20
-65.5978
 30
0.0
 10
57.2381
 20
-68.1699
 30
0.0
 10
57.2381
 20
-68.1699
 30
0.0
 10
57.7808
 20
-68.419
 30
0.0
 10
57.4992
 20
-66.4483
 30
0.0
 10
62.7704
 20
-64.3025
 30
0.0
 10
62.7704
 20
-64.3025
 30
0.0
 10
59.2407
 20
-64.6685
 30
0.0
 10
53.5418
 20
-65.8754
 30
0.0
 10
50.5172
 20
-62.6459
 30
0.0
 10
50.5172
 20
-62.6459
 30
0.0
 10
50.5573
 20
-64.2042
 30
0.0
 10
50.5734
 20
-67.7956
 30
0.0
 10
50.4952
 20
-69.4909
 30
0.0
  0
SPLINE
  5
9D
330
1F
100
AcDbEntity
  8
layer 1
 62
     7
100
AcDbSpline
210
0.0
220
0.0
230
1.0
 70
    11
 71
     3
 72
    36
 73
    32
 74
     0
 42
0.0000000001
 43
0.0000000001
 12
1.0
 22
0.0
 32
0.0
 13
1.0
 23
0.0
 33
0.0
 40
0.0
 40
0.0
 40
0.0
 40
0.0
 40
0.1111111111111111
 40
0.1111111111111111
 40
0.1111111111111111
 40
0.1111111111111111
 40
0.2222222222222222
 40
0.2222222222222222
 40
0.2222222222222222
 40
0.2222222222222222
 40
0.3333333333333333
 40
0.3333333333333333
 40
0.3333333333333333
 40
0.3333333333333333
 40
0.4444444444444444
 40
0.4444444444444444
 40
0.4444444444444444
 40
0.4444444444444444
 40
0.5555555555555556
 40
0.5555555555555556
 40
0.5555555555555556
 40
0.5555555555555556
 40
0.6666666666666666
 40
0.6666666666666666
 40
0.6666666666666666
 40
0.6666666666666666
 40
0.7777777777777778
 40
0.7777777777777778
 40
0.7777777777777778
 40
0.7777777777777778
 40
1.0
 40
1.0
 40
1.0
 40
1.0
 10
56.9705
 20
-71.1584
 30
0.0
 10
56.2625
 20
-71.8281
 30
0.0
 10
54.8731
 20
-72.2142
 30
0.0
 10
53.6566
 20
-71.476
 30
0.0
 10
53.6566
 20
-71.476
 30
0.0
 10
54.8628
 20
-72.8898
 30
0.0
 10
54.2316
 20
-74.3759
 30
0.0
 10
61.3103
 20
-74.2951
 30
0.0
 10
61.3103
 20
-74.2951
 30
0.0
 10
64.8034
 20
-74.1629
 30
0.0
 10
69.7724
 20
-73.1853
 30
0.0
 10
70.8422
 20
-68.3006
 30
0.0
 10
70.8422
 20
-68.3006
 30
0.0
 10
71.2145
 20
-67.0135
 30
0.0
 10
69.618
 20
-66.1045
 30
0.0
 10
69.2457
 20
-67.3271
 30
0.0
 10
69.2457
 20
-67.3271
 30
0.0
 10
69.0846
 20
-69.1351
 30
0.0
 10
66.9573
 20
-68.4355
 30
0.0
 10
66.8404
 20
-67.3756
 30
0.0
 10
66.8404
 20
-67.3756
 30
0.0
 10
66.6557
 20
-66.9554
 30
0.0
 10
65.6498
 20
-67.1465
 30
0.0
 10
65.5453
 20
-68.1035
 30
0.0
 10
65.5453
 20
-68.1035
 30
0.0
 10
65.3264
 20
-70.1344
 30
0.0
 10
61.1435
 20
-73.334
 30
0.0
 10
56.8943
 20
-73.1352
 30
0.0
 10
56.8943
 20
-73.1352
 30
0.0
 10
56.8037
 20
-72.4753
 30
0.0
 10
56.7511
 20
-71.8941
 30
0.0
 10
56.9705
 20
-71.1584
 30
0.0
  0
SPLINE
  5
9E
330
1F
100
AcDbEntity
  8
layer 1
 62
     7
100
AcDbSpline
210
0.0
220
0.0
230
1.0
 70
    11
 71
     3
 72
    20
 73
    16
 74
     0
 42
0.0000000001
 43
0.0000000001
 12
1.0
 22
0.0
 32
0.0
 13
1.0
 23
0.0
 33
0.0
 40
0.0
 40
0.0
 40
0.0
 40
0.0
 40
0.2
 40
0.2
 40
0.2
 40
0.2
 40
0.4
 40
0.4
 40
0.4
 40
0.4
 40
0.6
 40
0.6
 40
0.6
 40
0.6
 40
1.0
 40
1.0
 40
1.0
 40
1.0
 10
99.447
 20
-108.1207
 30
0.0
 10
102.0349
 20
-103.23
 30
0.0
 10
98.8034
 20
-97.9732
 30
0.0
 10
98.2464
 20
-96.7622
 30
0.0
 10
98.2464
 20
-96.7622
 30
0.0
 10
97.9973
 20
-96.2213
 30
0.0
 10
98.4554
 20
-95.7671
 30
0.0
 10
98.8574
 20
-96.4266
 30
0.0
 10
98.8574
 20
-96.4266
 30
0.0
 10
101.7091
 20
-101.0033
 30
0.0
 10
102.3248
 20
-105.8118
 30
0.0
 10
108.6169
 20
-108.0986
 30
0.0
 10
108.6169
 20
-108.0986
 30
0.0
 10
103.7205
 20
-108.0662
 30
0.0
 10
101.846
 20
-108.1546
 30
0.0
 10
99.447
 20
-108.1207
 30
0.0
  0
SPLINE
  5
9F
330
1F
100
AcDbEntity
  8
layer 1
 62
     7
100
AcDbSpline
210
0.0
220
0.0
230
1.0
 70
    11
 71
     3
 72
    16
 73
    12
 74
     0
 42
0.0000000001
 43
0.0000000001
 12
1.0
 22
0.0
 32
0.0
 13
1.0
 23
0.0
 33
0.0
 40
0.0
 40
0.0
 40
0.0
 40
0.0
 40
0.25
 40
0.25
 40
0.25
 40
0.25
 40
0.5
 40
0.5
 40
0.5
 40
0.5
 40
1.0
 40
1.0
 40
1.0
 40
1.0
 10
81.8083
 20
-108.2309
 30
0.0
 10
84.1795
 20
-108.2087
 30
0.0
 10
84.8066
 20
-108.1505
 30
0.0
 10
87.1418
 20
-108.1428
 30
0.0
 10
87.1418
 20
-108.1428
 30
0.0
 10
83.1659
 20
-106.3348
 30
0.0
 10
81.8083
 20
-103.4508
 30
0.0
 10
81.8083
 20
-99.5274
 30
0.0
 10
81.8083
 20
-99.5274
 30
0.0
 10
81.8083
 20
-99.5274
 30
0.0
 10
81.8083
 20
-108.2309
 30
0.0
 10
81.8083
 20
-108.2309
 30
0.0
  0
SPLINE
  5
A0
330
1F
100
AcDbEntity
  8
layer 1
 62
     7
100
AcDbSpline
210
0.0
220
0.0
230
1.0
 70
    11
 71
     3
 72
    20
 73
    16
 74
     0
 42
0.0000000001
 43
0.0000000001
 12
1.0
 22
0.0
 32
0.0
 13
1.0
 23
0.0
 33
0.0
 40
0.0
 40
0.0
 40
0.0
 40
0.0
 40
0.2
 40
0.2
 40
0.2
 40
0.2
 40
0.4
 40
0.4
 40
0.4
 40
0.4
 40
0.6
 40
0.6
 40
0.6
 40
0.6
 40
1.0
 40
1.0
 40
1.0
 40
1.0
 10
89.1728
 20
-108.1207
 30
0.0
 10
93.9709
 20
-107.3
 30
0.0
 10
93.0658
 20
-101.6571
 30
0.0
 10
90.4917
 20
-101.3776
 30
0.0
 10
90.4917
 20
-101.3776
 30
0.0
 10
90.2426
 20
-100.8345
 30
0.0
 10
92.2133
 20
-101.1161
 30
0.0
 10
94.3611
 20
-95.8454
 30
0.0
 10
94.3611
 20
-95.8454
 30
0.0
 10
93.993
 20
-99.3744
 30
0.0
 10
92.7862
 20
-105.074
 30
0.0
 10
96.0163
 20
-108.0986
 30
0.0
 10
96.0163
 20
-108.0986
 30
0.0
 10
94.4578
 20
-108.0584
 30
0.0
 10
90.866
 20
-108.0419
 30
0.0
 10
89.1728
 20
-108.1207
 30
0.0
  0
SPLINE
  5
A1
330
1F
100
AcDbEntity
  8
layer 1
 62
     7
100
AcDbSpline
210
0.0
220
0.0
230
1.0
 70
    11
 71
     3
 72
    36
 73
    32
 74
     0
 42
0.0000000001
 43
0.0000000001
 12
1.0
 22
0.0
 32
0.0
 13
1.0
 23
0.0
 33
0.0
 40
0.0
 40
0.0
 40
0.0
 40
0.0
 40
0.1111111111111111
 40
0.1111111111111111
 40
0.1111111111111111
 40
0.1111111111111111
 40
0.2222222222222222
 40
0.2222222222222222
 40
0.2222222222222222
 40
0.2222222222222222
 40
0.3333333333333333
 40
0.3333333333333333
 40
0.3333333333333333
 40
0.3333333333333333
 40
0.4444444444444444
 40
0.4444444444444444
 40
0.4444444444444444
 40
0.4444444444444444
 40
0.5555555555555556
 40
0.5555555555555556
 40
0.5555555555555556
 40
0.5555555555555556
 40
0.6666666666666666
 40
0.6666666666666666
 40
0.6666666666666666
 40
0.6666666666666666
 40
0.7777777777777778
 40
0.7777777777777778
 40
0.7777777777777778
 40
0.7777777777777778
 40
1.0
 40
1.0
 40
1.0
 40
1.0
 10
87.5058
 20
-101.6448
 30
0.0
 10
86.8339
 20
-102.3526
 30
0.0
 10
86.45
 20
-103.7426
 30
0.0
 10
87.186
 20
-104.9593
 30
0.0
 10
87.186
 20
-104.9593
 30
0.0
 10
85.772
 20
-103.7524
 30
0.0
 10
84.2861
 20
-104.3841
 30
0.0
 10
84.3665
 20
-97.3054
 30
0.0
 10
84.3665
 20
-97.3054
 30
0.0
 10
84.4993
 20
-93.8124
 30
0.0
 10
85.4785
 20
-88.8428
 30
0.0
 10
90.3609
 20
-87.7731
 30
0.0
 10
90.3609
 20
-87.7731
 30
0.0
 10
91.6481
 20
-87.4014
 30
0.0
 10
92.5572
 20
-88.9998
 30
0.0
 10
91.3365
 20
-89.37
 30
0.0
 10
91.3365
 20
-89.37
 30
0.0
 10
89.5265
 20
-89.5306
 30
0.0
 10
90.2286
 20
-91.6584
 30
0.0
 10
91.286
 20
-91.7753
 30
0.0
 10
91.286
 20
-91.7753
 30
0.0
 10
91.7067
 20
-91.96
 30
0.0
 10
91.5157
 20
-92.9655
 30
0.0
 10
90.5581
 20
-93.07
 30
0.0
 10
90.5581
 20
-93.07
 30
0.0
 10
88.5292
 20
-93.2893
 30
0.0
 10
85.3276
 20
-97.4742
 30
0.0
 10
85.5268
 20
-101.7235
 30
0.0
 10
85.5268
 20
-101.7235
 30
0.0
 10
86.1863
 20
-101.8141
 30
0.0
 10
86.7675
 20
-101.8642
 30
0.0
 10
87.5058
 20
-101.6448
 30
0.0
  0
SPLINE
  5
A2
330
1F
100
AcDbEntity
  8
layer 1
 62
     7
100
AcDbSpline
210
0.0
220
0.0
230
1.0
 70
    11
 71
     3
 72
    16
 73
    12
 74
     0
 42
0.0000000001
 43
0.0000000001
 12
1.0
 22
0.0
 32
0.0
 13
1.0
 23
0.0
 33
0.0
 40
0.0
 40
0.0
 40
0.0
 40
0.0
 40
0.25
 40
0.25
 40
0.25
 40
0.25
 40
0.5
 40
0.5
 40
0.5
 40
0.5
 40
1.0
 40
1.0
 40
1.0
 40
1.0
 10
93.3778
 20
-79.9103
 30
0.0
 10
93.3417
 20
-77.7182
 30
0.0
 10
93.3293
 20
-75.4617
 30
0.0
 10
93.3778
 20
-73.7989
 30
0.0
 10
93.3778
 20
-73.7989
 30
0.0
 10
96.0625
 20
-76.0167
 30
0.0
 10
100.7056
 20
-76.8533
 30
0.0
 10
101.7899
 20
-76.8533
 30
0.0
 10
101.7899
 20
-76.8533
 30
0.0
 10
100.7056
 20
-76.8533
 30
0.0
 10
96.0625
 20
-77.692
 30
0.0
 10
93.3778
 20
-79.9103
 30
0.0
  0
SPLINE
  5
A3
330
1F
100
AcDbEntity
  8
layer 1
 62
     7
100
AcDbSpline
210
0.0
220
0.0
230
1.0
 70
    11
 71
     3
 72
    20
 73
    16
 74
     0
 42
0.0000000001
 43
0.0000000001
 12
1.0
 22
0.0
 32
0.0
 13
1.0
 23
0.0
 33
0.0
 40
0.0
 40
0.0
 40
0.0
 40
0.0
 40
0.2
 40
0.2
 40
0.2
 40
0.2
 40
0.4
 40
0.4
 40
0.4
 40
0.4
 40
0.6
 40
0.6
 40
0.6
 40
0.6
 40
1.0
 40
1.0
 40
1.0
 40
1.0
 10
113.1138
 20
-94.492
 30
0.0
 10
108.223
 20
-97.082
 30
0.0
 10
102.9663
 20
-93.8505
 30
0.0
 10
101.7553
 20
-93.2934
 30
0.0
 10
101.7553
 20
-93.2934
 30
0.0
 10
101.2148
 20
-93.0437
 30
0.0
 10
100.7602
 20
-93.5004
 30
0.0
 10
101.4197
 20
-93.9024
 30
0.0
 10
101.4197
 20
-93.9024
 30
0.0
 10
105.997
 20
-96.7541
 30
0.0
 10
110.8049
 20
-97.3718
 30
0.0
 10
113.0916
 20
-103.6619
 30
0.0
 10
113.0916
 20
-103.6619
 30
0.0
 10
113.0613
 20
-98.7655
 30
0.0
 10
113.1478
 20
-96.891
 30
0.0
 10
113.1138
 20
-94.492
 30
0.0
  0
SPLINE
  5
A4
330
1F
100
AcDbEntity
  8
layer 1
 62
     7
100
AcDbSpline
210
0.0
220
0.0
230
1.0
 70
    11
 71
     3
 72
    16
 73
    12
 74
     0
 42
0.0000000001
 43
0.0000000001
 12
1.0
 22
0.0
 32
0.0
 13
1.0
 23
0.0
 33
0.0
 40
0.0
 40
0.0
 40
0.0
 40
0.0
 40
0.25
 40
0.25
 40
0.25
 40
0.25
 40
0.5
 40
0.5
 40
0.5
 40
0.5
 40
1.0
 40
1.0
 40
1.0
 40
1.0
 10
113.2244
 20
-76.8533
 30
0.0
 10
113.2044
 20
-79.2245
 30
0.0
 10
113.1436
 20
-79.8516
 30
0.0
 10
113.1359
 20
-82.1889
 30
0.0
 10
113.1359
 20
-82.1889
 30
0.0
 10
111.3279
 20
-78.2109
 30
0.0
 10
108.4438
 20
-76.8533
 30
0.0
 10
104.5205
 20
-76.8533
 30
0.0
 10
104.5205
 20
-76.8533
 30
0.0
 10
104.5205
 20
-76.8533
 30
0.0
 10
113.2244
 20
-76.8533
 30
0.0
 10
113.2244
 20
-76.8533
 30
0.0
  0
SPLINE
  5
A5
330
1F
100
AcDbEntity
  8
layer 1
 62
     7
100
AcDbSpline
210
0.0
220
0.0
230
1.0
 70
    11
 71
     3
 72
    20
 73
    16
 74
     0
 42
0.0000000001
 43
0.0000000001
 12
1.0
 22
0.0
 32
0.0
 13
1.0
 23
0.0
 33
0.0
 40
0.0
 40
0.0
 40
0.0
 40
0.0
 40
0.2
 40
0.2
 40
0.2
 40
0.2
 40
0.4
 40
0.4
 40
0.4
 40
0.4
 40
0.6
 40
0.6
 40
0.6
 40
0.6
 40
1.0
 40
1.0
 40
1.0
 40
1.0
 10
113.1138
 20
-84.2178
 30
0.0
 10
112.2932
 20
-89.0159
 30
0.0
 10
106.6502
 20
-88.1108
 30
0.0
 10
106.3707
 20
-85.5387
 30
0.0
 10
106.3707
 20
-85.5387
 30
0.0
 10
105.8276
 20
-85.2896
 30
0.0
 10
106.1092
 20
-87.2583
 30
0.0
 10
100.8384
 20
-89.4061
 30
0.0
 10
100.8384
 20
-89.4061
 30
0.0
 10
104.3681
 20
-89.0379
 30
0.0
 10
110.0691
 20
-87.8332
 30
0.0
 10
113.0916
 20
-91.0613
 30
0.0
 10
113.0916
 20
-91.0613
 30
0.0
 10
113.0515
 20
-89.5028
 30
0.0
 10
113.035
 20
-85.9131
 30
0.0
 10
113.1138
 20
-84.2178
 30
0.0
  0
SPLINE
  5
A6
330
1F
100
AcDbEntity
  8
layer 1
 62
     7
100
AcDbSpline
210
0.0
220
0.0
230
1.0
 70
    11
 71
     3
 72
    36
 73
    32
 74
     0
 42
0.0000000001
 43
0.0000000001
 12
1.0
 22
0.0
 32
0.0
 13
1.0
 23
0.0
 33
0.0
 40
0.0
 40
0.0
 40
0.0
 40
0.0
 40
0.1111111111111111
 40
0.1111111111111111
 40
0.1111111111111111
 40
0.1111111111111111
 40
0.2222222222222222
 40
0.2222222222222222
 40
0.2222222222222222
 40
0.2222222222222222
 40
0.3333333333333333
 40
0.3333333333333333
 40
0.3333333333333333
 40
0.3333333333333333
 40
0.4444444444444444
 40
0.4444444444444444
 40
0.4444444444444444
 40
0.4444444444444444
 40
0.5555555555555556
 40
0.5555555555555556
 40
0.5555555555555556
 40
0.5555555555555556
 40
0.6666666666666666
 40
0.6666666666666666
 40
0.6666666666666666
 40
0.6666666666666666
 40
0.7777777777777778
 40
0.7777777777777778
 40
0.7777777777777778
 40
0.7777777777777778
 40
1.0
 40
1.0
 40
1.0
 40
1.0
 10
106.6384
 20
-82.5508
 30
0.0
 10
107.3463
 20
-81.8789
 30
0.0
 10
108.7357
 20
-81.4948
 30
0.0
 10
109.9523
 20
-82.2326
 30
0.0
 10
109.9523
 20
-82.2326
 30
0.0
 10
108.7456
 20
-80.8168
 30
0.0
 10
109.3772
 20
-79.3311
 30
0.0
 10
102.2985
 20
-79.4115
 30
0.0
 10
102.2985
 20
-79.4115
 30
0.0
 10
98.8075
 20
-79.5463
 30
0.0
 10
93.836
 20
-80.5235
 30
0.0
 10
92.7662
 20
-85.408
 30
0.0
 10
92.7662
 20
-85.408
 30
0.0
 10
92.3945
 20
-86.695
 30
0.0
 10
93.993
 20
-87.6022
 30
0.0
 10
94.3631
 20
-86.3815
 30
0.0
 10
94.3631
 20
-86.3815
 30
0.0
 10
94.5238
 20
-84.5714
 30
0.0
 10
96.6535
 20
-85.2736
 30
0.0
 10
96.7684
 20
-86.331
 30
0.0
 10
96.7684
 20
-86.331
 30
0.0
 10
96.9531
 20
-86.7517
 30
0.0
 10
97.9586
 20
-86.5607
 30
0.0
 10
98.0631
 20
-85.6051
 30
0.0
 10
98.0631
 20
-85.6051
 30
0.0
 10
98.2824
 20
-83.5742
 30
0.0
 10
102.4673
 20
-80.3746
 30
0.0
 10
106.7167
 20
-80.5738
 30
0.0
 10
106.7167
 20
-80.5738
 30
0.0
 10
106.8074
 20
-81.2333
 30
0.0
 10
106.8573
 20
-81.8145
 30
0.0
 10
106.6384
 20
-82.5508
 30
0.0
  0
SPLINE
  5
A7
330
1F
100
AcDbEntity
  8
layer 1
 62
     7
100
AcDbSpline
210
0.0
220
0.0
230
1.0
 70
    11
 71
     3
 72
    16
 73
    12
 74
     0
 42
0.0000000001
 43
0.0000000001
 12
1.0
 22
0.0
 32
0.0
 13
1.0
 23
0.0
 33
0.0
 40
0.0
 40
0.0
 40
0.0
 40
0.0
 40
0.25
 40
0.25
 40
0.25
 40
0.25
 40
0.5
 40
0.5
 40
0.5
 40
0.5
 40
1.0
 40
1.0
 40
1.0
 40
1.0
 10
84.8653
 20
-65.3245
 30
0.0
 10
82.6449
 20
-62.6377
 30
0.0
 10
81.8083
 20
-57.9961
 30
0.0
 10
81.8042
 20
-56.9103
 30
0.0
 10
81.8042
 20
-56.9103
 30
0.0
 10
81.8005
 20
-57.9961
 30
0.0
 10
80.9641
 20
-62.6377
 30
0.0
 10
78.7436
 20
-65.3245
 30
0.0
 10
78.7436
 20
-65.3245
 30
0.0
 10
80.9398
 20
-65.3605
 30
0.0
 10
83.1962
 20
-65.3724
 30
0.0
 10
84.8653
 20
-65.3245
 30
0.0
  0
SPLINE
  5
A8
330
1F
100
AcDbEntity
  8
layer 1
 62
     7
100
AcDbSpline
210
0.0
220
0.0
230
1.0
 70
    11
 71
     3
 72
    20
 73
    16
 74
     0
 42
0.0000000001
 43
0.0000000001
 12
1.0
 22
0.0
 32
0.0
 13
1.0
 23
0.0
 33
0.0
 40
0.0
 40
0.0
 40
0.0
 40
0.0
 40
0.2
 40
0.2
 40
0.2
 40
0.2
 40
0.4
 40
0.4
 40
0.4
 40
0.4
 40
0.6
 40
0.6
 40
0.6
 40
0.6
 40
1.0
 40
1.0
 40
1.0
 40
1.0
 10
99.447
 20
-45.5885
 30
0.0
 10
102.0349
 20
-50.4792
 30
0.0
 10
98.8034
 20
-55.734
 30
0.0
 10
98.2464
 20
-56.9443
 30
0.0
 10
98.2464
 20
-56.9443
 30
0.0
 10
97.9973
 20
-57.4873
 30
0.0
 10
98.4554
 20
-57.9421
 30
0.0
 10
98.8574
 20
-57.2804
 30
0.0
 10
98.8574
 20
-57.2804
 30
0.0
 10
101.7091
 20
-52.7053
 30
0.0
 10
102.3248
 20
-47.897
 30
0.0
 10
108.6169
 20
-45.6106
 30
0.0
 10
108.6169
 20
-45.6106
 30
0.0
 10
103.7205
 20
-45.6404
 30
0.0
 10
101.846
 20
-45.554
 30
0.0
 10
99.447
 20
-45.5885
 30
0.0
  0
SPLINE
  5
A9
330
1F
100
AcDbEntity
  8
layer 1
 62
     7
100
AcDbSpline
210
0.0
220
0.0
230
1.0
 70
    11
 71
     3
 72
    16
 73
    12
 74
     0
 42
0.0000000001
 43
0.0000000001
 12
1.0
 22
0.0
 32
0.0
 13
1.0
 23
0.0
 33
0.0
 40
0.0
 40
0.0
 40
0.0
 40
0.0
 40
0.25
 40
0.25
 40
0.25
 40
0.25
 40
0.5
 40
0.5
 40
0.5
 40
0.5
 40
1.0
 40
1.0
 40
1.0
 40
1.0
 10
87.1418
 20
-45.5663
 30
0.0
 10
83.1659
 20
-47.3744
 30
0.0
 10
81.8083
 20
-50.2579
 30
0.0
 10
81.8042
 20
-54.1792
 30
0.0
 10
81.8042
 20
-54.1792
 30
0.0
 10
81.8005
 20
-50.2579
 30
0.0
 10
80.4451
 20
-47.3744
 30
0.0
 10
76.467
 20
-45.5663
 30
0.0
 10
76.467
 20
-45.5663
 30
0.0
 10
80.3441
 20
-45.4978
 30
0.0
 10
83.9258
 20
-45.554
 30
0.0
 10
87.1418
 20
-45.5663
 30
0.0
  0
SPLINE
  5
AA
330
1F
100
AcDbEntity
  8
layer 1
 62
     7
100
AcDbSpline
210
0.0
220
0.0
230
1.0
 70
    11
 71
     3
 72
    20
 73
    16
 74
     0
 42
0.0000000001
 43
0.0000000001
 12
1.0
 22
0.0
 32
0.0
 13
1.0
 23
0.0
 33
0.0
 40
0.0
 40
0.0
 40
0.0
 40
0.0
 40
0.2
 40
0.2
 40
0.2
 40
0.2
 40
0.4
 40
0.4
 40
0.4
 40
0.4
 40
0.6
 40
0.6
 40
0.6
 40
0.6
 40
1.0
 40
1.0
 40
1.0
 40
1.0
 10
89.1728
 20
-45.5885
 30
0.0
 10
93.9709
 20
-46.409
 30
0.0
 10
93.0658
 20
-52.0515
 30
0.0
 10
90.4917
 20
-52.331
 30
0.0
 10
90.4917
 20
-52.331
 30
0.0
 10
90.2426
 20
-52.8721
 30
0.0
 10
92.2133
 20
-52.5904
 30
0.0
 10
94.3611
 20
-57.8637
 30
0.0
 10
94.3611
 20
-57.8637
 30
0.0
 10
93.993
 20
-54.3321
 30
0.0
 10
92.7862
 20
-48.633
 30
0.0
 10
96.0163
 20
-45.6106
 30
0.0
 10
96.0163
 20
-45.6106
 30
0.0
 10
94.4578
 20
-45.6508
 30
0.0
 10
90.866
 20
-45.6646
 30
0.0
 10
89.1728
 20
-45.5885
 30
0.0
  0
SPLINE
  5
AB
330
1F
100
AcDbEntity
  8
layer 1
 62
     7
100
AcDbSpline
210
0.0
220
0.0
230
1.0
 70
    11
 71
     3
 72
    36
 73
    32
 74
     0
 42
0.0000000001
 43
0.0000000001
 12
1.0
 22
0.0
 32
0.0
 13
1.0
 23
0.0
 33
0.0
 40
0.0
 40
0.0
 40
0.0
 40
0.0
 40
0.1111111111111111
 40
0.1111111111111111
 40
0.1111111111111111
 40
0.1111111111111111
 40
0.2222222222222222
 40
0.2222222222222222
 40
0.2222222222222222
 40
0.2222222222222222
 40
0.3333333333333333
 40
0.3333333333333333
 40
0.3333333333333333
 40
0.3333333333333333
 40
0.4444444444444444
 40
0.4444444444444444
 40
0.4444444444444444
 40
0.4444444444444444
 40
0.5555555555555556
 40
0.5555555555555556
 40
0.5555555555555556
 40
0.5555555555555556
 40
0.6666666666666666
 40
0.6666666666666666
 40
0.6666666666666666
 40
0.6666666666666666
 40
0.7777777777777778
 40
0.7777777777777778
 40
0.7777777777777778
 40
0.7777777777777778
 40
1.0
 40
1.0
 40
1.0
 40
1.0
 10
87.5058
 20
-52.0638
 30
0.0
 10
86.8339
 20
-51.356
 30
0.0
 10
86.45
 20
-49.9644
 30
0.0
 10
87.186
 20
-48.7495
 30
0.0
 10
87.186
 20
-48.7495
 30
0.0
 10
85.772
 20
-49.9562
 30
0.0
 10
84.2861
 20
-49.3251
 30
0.0
 10
84.3665
 20
-56.4018
 30
0.0
 10
84.3665
 20
-56.4018
 30
0.0
 10
84.4993
 20
-59.8946
 30
0.0
 10
85.4785
 20
-64.8658
 30
0.0
 10
90.3609
 20
-65.9355
 30
0.0
 10
90.3609
 20
-65.9355
 30
0.0
 10
91.6481
 20
-66.3078
 30
0.0
 10
92.5572
 20
-64.7088
 30
0.0
 10
91.3365
 20
-64.3371
 30
0.0
 10
91.3365
 20
-64.3371
 30
0.0
 10
89.5265
 20
-64.1779
 30
0.0
 10
90.2286
 20
-62.0482
 30
0.0
 10
91.286
 20
-61.9339
 30
0.0
 10
91.286
 20
-61.9339
 30
0.0
 10
91.7067
 20
-61.7465
 30
0.0
 10
91.5157
 20
-60.7431
 30
0.0
 10
90.5581
 20
-60.6366
 30
0.0
 10
90.5581
 20
-60.6366
 30
0.0
 10
88.5292
 20
-60.4193
 30
0.0
 10
85.3276
 20
-56.2344
 30
0.0
 10
85.5268
 20
-51.9855
 30
0.0
 10
85.5268
 20
-51.9855
 30
0.0
 10
86.1863
 20
-51.8949
 30
0.0
 10
86.7675
 20
-51.8425
 30
0.0
 10
87.5058
 20
-52.0638
 30
0.0
  0
SPLINE
  5
AC
330
1F
100
AcDbEntity
  8
layer 1
 62
     7
100
AcDbSpline
210
0.0
220
0.0
230
1.0
 70
    11
 71
     3
 72
    20
 73
    16
 74
     0
 42
0.0000000001
 43
0.0000000001
 12
1.0
 22
0.0
 32
0.0
 13
1.0
 23
0.0
 33
0.0
 40
0.0
 40
0.0
 40
0.0
 40
0.0
 40
0.2
 40
0.2
 40
0.2
 40
0.2
 40
0.4
 40
0.4
 40
0.4
 40
0.4
 40
0.6
 40
0.6
 40
0.6
 40
0.6
 40
1.0
 40
1.0
 40
1.0
 40
1.0
 10
113.1138
 20
-59.2152
 30
0.0
 10
108.223
 20
-56.6266
 30
0.0
 10
102.9663
 20
-59.8587
 30
0.0
 10
101.7553
 20
-60.4158
 30
0.0
 10
101.7553
 20
-60.4158
 30
0.0
 10
101.2148
 20
-60.6649
 30
0.0
 10
100.7602
 20
-60.2062
 30
0.0
 10
101.4197
 20
-59.8042
 30
0.0
 10
101.4197
 20
-59.8042
 30
0.0
 10
105.997
 20
-56.9545
 30
0.0
 10
110.8049
 20
-56.3374
 30
0.0
 10
113.0916
 20
-50.0448
 30
0.0
 10
113.0916
 20
-50.0448
 30
0.0
 10
113.0613
 20
-54.9417
 30
0.0
 10
113.1478
 20
-56.8177
 30
0.0
 10
113.1138
 20
-59.2152
 30
0.0
  0
SPLINE
  5
AD
330
1F
100
AcDbEntity
  8
layer 1
 62
     7
100
AcDbSpline
210
0.0
220
0.0
230
1.0
 70
    11
 71
     3
 72
    16
 73
    12
 74
     0
 42
0.0000000001
 43
0.0000000001
 12
1.0
 22
0.0
 32
0.0
 13
1.0
 23
0.0
 33
0.0
 40
0.0
 40
0.0
 40
0.0
 40
0.0
 40
0.25
 40
0.25
 40
0.25
 40
0.25
 40
0.5
 40
0.5
 40
0.5
 40
0.5
 40
1.0
 40
1.0
 40
1.0
 40
1.0
 10
113.2244
 20
-76.8533
 30
0.0
 10
113.2044
 20
-74.4825
 30
0.0
 10
113.1436
 20
-73.857
 30
0.0
 10
113.1359
 20
-71.5203
 30
0.0
 10
113.1359
 20
-71.5203
 30
0.0
 10
111.3279
 20
-75.4977
 30
0.0
 10
108.4438
 20
-76.8533
 30
0.0
 10
104.5205
 20
-76.8533
 30
0.0
 10
104.5205
 20
-76.8533
 30
0.0
 10
104.5205
 20
-76.8533
 30
0.0
 10
113.2244
 20
-76.8533
 30
0.0
 10
113.2244
 20
-76.8533
 30
0.0
  0
SPLINE
  5
AE
330
1F
100
AcDbEntity
  8
layer 1
 62
     7
100
AcDbSpline
210
0.0
220
0.0
230
1.0
 70
    11
 71
     3
 72
    20
 73
    16
 74
     0
 42
0.0000000001
 43
0.0000000001
 12
1.0
 22
0.0
 32
0.0
 13
1.0
 23
0.0
 33
0.0
 40
0.0
 40
0.0
 40
0.0
 40
0.0
 40
0.2
 40
0.2
 40
0.2
 40
0.2
 40
0.4
 40
0.4
 40
0.4
 40
0.4
 40
0.6
 40
0.6
 40
0.6
 40
0.6
 40
1.0
 40
1.0
 40
1.0
 40
1.0
 10
113.1138
 20
-69.4909
 30
0.0
 10
112.2932
 20
-64.6907
 30
0.0
 10
106.6502
 20
-65.5978
 30
0.0
 10
106.3707
 20
-68.1699
 30
0.0
 10
106.3707
 20
-68.1699
 30
0.0
 10
105.8276
 20
-68.419
 30
0.0
 10
106.1092
 20
-66.4483
 30
0.0
 10
100.8384
 20
-64.3025
 30
0.0
 10
100.8384
 20
-64.3025
 30
0.0
 10
104.3681
 20
-64.6685
 30
0.0
 10
110.0691
 20
-65.8754
 30
0.0
 10
113.0916
 20
-62.6459
 30
0.0
 10
113.0916
 20
-62.6459
 30
0.0
 10
113.0515
 20
-64.2042
 30
0.0
 10
113.035
 20
-67.7956
 30
0.0
 10
113.1138
 20
-69.4909
 30
0.0
  0
SPLINE
  5
AF
330
1F
100
AcDbEntity
  8
layer 1
 62
     7
100
AcDbSpline
210
0.0
220
0.0
230
1.0
 70
    11
 71
     3
 72
    36
 73
    32
 74
     0
 42
0.0000000001
 43
0.0000000001
 12
1.0
 22
0.0
 32
0.0
 13
1.0
 23
0.0
 33
0.0
 40
0.0
 40
0.0
 40
0.0
 40
0.0
 40
0.1111111111111111
 40
0.1111111111111111
 40
0.1111111111111111
 40
0.1111111111111111
 40
0.2222222222222222
 40
0.2222222222222222
 40
0.2222222222222222
 40
0.2222222222222222
 40
0.3333333333333333
 40
0.3333333333333333
 40
0.3333333333333333
 40
0.3333333333333333
 40
0.4444444444444444
 40
0.4444444444444444
 40
0.4444444444444444
 40
0.4444444444444444
 40
0.5555555555555556
 40
0.5555555555555556
 40
0.5555555555555556
 40
0.5555555555555556
 40
0.6666666666666666
 40
0.6666666666666666
 40
0.6666666666666666
 40
0.6666666666666666
 40
0.7777777777777778
 40
0.7777777777777778
 40
0.7777777777777778
 40
0.7777777777777778
 40
1.0
 40
1.0
 40
1.0
 40
1.0
 10
106.6384
 20
-71.1584
 30
0.0
 10
107.3463
 20
-71.8281
 30
0.0
 10
108.7357
 20
-72.2142
 30
0.0
 10
109.9523
 20
-71.476
 30
0.0
 10
109.9523
 20
-71.476
 30
0.0
 10
108.7456
 20
-72.8898
 30
0.0
 10
109.3772
 20
-74.3759
 30
0.0
 10
102.2985
 20
-74.2951
 30
0.0
 10
102.2985
 20
-74.2951
 30
0.0
 10
98.8075
 20
-74.1629
 30
0.0
 10
93.836
 20
-73.1853
 30
0.0
 10
92.7662
 20
-68.3006
 30
0.0
 10
92.7662
 20
-68.3006
 30
0.0
 10
92.3945
 20
-67.0135
 30
0.0
 10
93.993
 20
-66.1045
 30
0.0
 10
94.3631
 20
-67.3271
 30
0.0
 10
94.3631
 20
-67.3271
 30
0.0
 10
94.5238
 20
-69.1351
 30
0.0
 10
96.6535
 20
-68.4355
 30
0.0
 10
96.7684
 20
-67.3756
 30
0.0
 10
96.7684
 20
-67.3756
 30
0.0
 10
96.9531
 20
-66.9554
 30
0.0
 10
97.9586
 20
-67.1465
 30
0.0
 10
98.0631
 20
-68.1035
 30
0.0
 10
98.0631
 20
-68.1035
 30
0.0
 10
98.2824
 20
-70.1344
 30
0.0
 10
102.4673
 20
-73.334
 30
0.0
 10
106.7167
 20
-73.1352
 30
0.0
 10
106.7167
 20
-73.1352
 30
0.0
 10
106.8074
 20
-72.4753
 30
0.0
 10
106.8573
 20
-71.8941
 30
0.0
 10
106.6384
 20
-71.1584
 30
0.0
  0
SPLINE
  5
B0
330
1F
100
AcDbEntity
  8
layer 1
100
AcDbSpline
210
0.0
220
0.0
230
1.0
 70
    11
 71
     3
 72
    20
 73
    16
 74
     0
 42
0.0000000001
 43
0.0000000001
 12
1.0
 22
0.0
 32
0.0
 13
1.0
 23
0.0
 33
0.0
 40
0.0
 40
0.0
 40
0.0
 40
0.0
 40
0.2
 40
0.2
 40
0.2
 40
0.2
 40
0.4
 40
0.4
 40
0.4
 40
0.4
 40
0.6
 40
0.6
 40
0.6
 40
0.6
 40
1.0
 40
1.0
 40
1.0
 40
1.0
 10
123.1094
 20
-40.9592
 30
0.0
 10
123.1094
 20
-40.9592
 30
0.0
 10
196.5881
 20
-40.9592
 30
0.0
 10
196.5881
 20
-40.9592
 30
0.0
 10
196.5881
 20
-40.9592
 30
0.0
 10
196.5881
 20
-40.9592
 30
0.0
 10
196.5881
 20
-114.4394
 30
0.0
 10
196.5881
 20
-114.4394
 30
0.0
 10
196.5881
 20
-114.4394
 30
0.0
 10
196.5881
 20
-114.4394
 30
0.0
 10
123.1094
 20
-114.4394
 30
0.0
 10
123.1094
 20
-114.4394
 30
0.0
 10
123.1094
 20
-114.4394
 30
0.0
 10
123.1094
 20
-114.4394
 30
0.0
 10
123.1094
 20
-40.9592
 30
0.0
 10
123.1094
 20
-40.9592
 30
0.0
  0
SPLINE
  5
B1
330
1F
100
AcDbEntity
  8
layer 1
 62
     7
100
AcDbSpline
210
0.0
220
0.0
230
1.0
 70
    11
 71
     3
 72
    60
 73
    56
 74
     0
 42
0.0000000001
 43
0.0000000001
 12
1.0
 22
0.0
 32
0.0
 13
1.0
 23
0.0
 33
0.0
 40
0.0
 40
0.0
 40
0.0
 40
0.0
 40
0.0666666666666667
 40
0.0666666666666667
 40
0.0666666666666667
 40
0.0666666666666667
 40
0.1333333333333333
 40
0.1333333333333333
 40
0.1333333333333333
 40
0.1333333333333333
 40
0.2
 40
0.2
 40
0.2
 40
0.2
 40
0.2666666666666667
 40
0.2666666666666667
 40
0.2666666666666667
 40
0.2666666666666667
 40
0.3333333333333333
 40
0.3333333333333333
 40
0.3333333333333333
 40
0.3333333333333333
 40
0.4
 40
0.4
 40
0.4
 40
0.4
 40
0.4666666666666667
 40
0.4666666666666667
 40
0.4666666666666667
 40
0.4666666666666667
 40
0.5333333333333333
 40
0.5333333333333333
 40
0.5333333333333333
 40
0.5333333333333333
 40
0.6
 40
0.6
 40
0.6
 40
0.6
 40
0.6666666666666666
 40
0.6666666666666666
 40
0.6666666666666666
 40
0.6666666666666666
 40
0.7333333333333333
 40
0.7333333333333333
 40
0.7333333333333333
 40
0.7333333333333333
 40
0.8
 40
0.8
 40
0.8
 40
0.8
 40
0.8666666666666667
 40
0.8666666666666667
 40
0.8666666666666667
 40
0.8666666666666667
 40
1.0
 40
1.0
 40
1.0
 40
1.0
 10
145.9897
 20
-75.9333
 30
0.0
 10
149.206
 20
-74.7527
 30
0.0
 10
151.0966
 20
-74.7289
 30
0.0
 10
154.8591
 20
-75.2391
 30
0.0
 10
154.8591
 20
-75.2391
 30
0.0
 10
153.4521
 20
-74.605
 30
0.0
 10
152.6022
 20
-72.7649
 30
0.0
 10
152.5967
 20
-71.1901
 30
0.0
 10
152.5967
 20
-71.1901
 30
0.0
 10
150.934
 20
-72.036
 30
0.0
 10
149.1795
 20
-72.3812
 30
0.0
 10
148.0907
 20
-71.2314
 30
0.0
 10
148.0907
 20
-71.2314
 30
0.0
 10
147.7538
 20
-72.5705
 30
0.0
 10
145.7778
 20
-73.3659
 30
0.0
 10
144.4081
 20
-73.455
 30
0.0
 10
144.4081
 20
-73.455
 30
0.0
 10
145.8805
 20
-70.0844
 30
0.0
 10
144.4309
 20
-68.0791
 30
0.0
 10
142.7563
 20
-67.5676
 30
0.0
 10
142.7563
 20
-67.5676
 30
0.0
 10
141.4557
 20
-71.3794
 30
0.0
 10
138.4978
 20
-71.3341
 30
0.0
 10
136.6618
 20
-69.7365
 30
0.0
 10
136.6618
 20
-69.7365
 30
0.0
 10
134.2169
 20
-67.4942
 30
0.0
 10
137.2829
 20
-63.9849
 30
0.0
 10
139.681
 20
-66.0299
 30
0.0
 10
139.681
 20
-66.0299
 30
0.0
 10
140.6961
 20
-62.081
 30
0.0
 10
134.481
 20
-60.7991
 30
0.0
 10
132.4624
 20
-64.1554
 30
0.0
 10
132.4624
 20
-64.1554
 30
0.0
 10
134.0359
 20
-63.9115
 30
0.0
 10
134.6263
 20
-64.7111
 30
0.0
 10
134.5007
 20
-65.7714
 30
0.0
 10
134.5007
 20
-65.7714
 30
0.0
 10
129.699
 20
-65.5664
 30
0.0
 10
130.3413
 20
-72.7502
 30
0.0
 10
132.5289
 20
-73.9495
 30
0.0
 10
132.5289
 20
-73.9495
 30
0.0
 10
132.8113
 20
-72.0149
 30
0.0
 10
134.2558
 20
-71.3647
 30
0.0
 10
135.5908
 20
-71.8068
 30
0.0
 10
135.5908
 20
-71.8068
 30
0.0
 10
137.4415
 20
-72.4491
 30
0.0
 10
137.4773
 20
-73.8455
 30
0.0
 10
137.0285
 20
-75.1658
 30
0.0
 10
137.0285
 20
-75.1658
 30
0.0
 10
137.3696
 20
-75.1566
 30
0.0
 10
138.2356
 20
-75.2309
 30
0.0
 10
139.6477
 20
-75.8841
 30
0.0
 10
139.6477
 20
-75.8841
 30
0.0
 10
142.1484
 20
-76.6301
 30
0.0
 10
143.9487
 20
-76.642
 30
0.0
 10
145.9897
 20
-75.9333
 30
0.0
  0
SPLINE
  5
B2
330
1F
100
AcDbEntity
  8
layer 1
 62
     7
100
AcDbSpline
210
0.0
220
0.0
230
1.0
 70
    11
 71
     3
 72
    60
 73
    56
 74
     0
 42
0.0000000001
 43
0.0000000001
 12
1.0
 22
0.0
 32
0.0
 13
1.0
 23
0.0
 33
0.0
 40
0.0
 40
0.0
 40
0.0
 40
0.0
 40
0.0666666666666667
 40
0.0666666666666667
 40
0.0666666666666667
 40
0.0666666666666667
 40
0.1333333333333333
 40
0.1333333333333333
 40
0.1333333333333333
 40
0.1333333333333333
 40
0.2
 40
0.2
 40
0.2
 40
0.2
 40
0.2666666666666667
 40
0.2666666666666667
 40
0.2666666666666667
 40
0.2666666666666667
 40
0.3333333333333333
 40
0.3333333333333333
 40
0.3333333333333333
 40
0.3333333333333333
 40
0.4
 40
0.4
 40
0.4
 40
0.4
 40
0.4666666666666667
 40
0.4666666666666667
 40
0.4666666666666667
 40
0.4666666666666667
 40
0.5333333333333333
 40
0.5333333333333333
 40
0.5333333333333333
 40
0.5333333333333333
 40
0.6
 40
0.6
 40
0.6
 40
0.6
 40
0.6666666666666666
 40
0.6666666666666666
 40
0.6666666666666666
 40
0.6666666666666666
 40
0.7333333333333333
 40
0.7333333333333333
 40
0.7333333333333333
 40
0.7333333333333333
 40
0.8
 40
0.8
 40
0.8
 40
0.8
 40
0.8666666666666667
 40
0.8666666666666667
 40
0.8666666666666667
 40
0.8666666666666667
 40
1.0
 40
1.0
 40
1.0
 40
1.0
 10
159.1997
 20
-61.4199
 30
0.0
 10
157.8715
 20
-60.5727
 30
0.0
 10
157.749
 20
-59.4775
 30
0.0
 10
157.2094
 20
-56.9272
 30
0.0
 10
157.2094
 20
-56.9272
 30
0.0
 10
155.7196
 20
-57.8894
 30
0.0
 10
152.9232
 20
-57.1977
 30
0.0
 10
152.8218
 20
-54.817
 30
0.0
 10
152.8218
 20
-54.817
 30
0.0
 10
152.8259
 20
-51.8404
 30
0.0
 10
156.1941
 20
-51.5593
 30
0.0
 10
157.1293
 20
-52.3469
 30
0.0
 10
157.1293
 20
-52.3469
 30
0.0
 10
156.2207
 20
-49.9446
 30
0.0
 10
150.5864
 20
-47.0932
 30
0.0
 10
148.8701
 20
-48.4135
 30
0.0
 10
148.8701
 20
-48.4135
 30
0.0
 10
150.1758
 20
-49.273
 30
0.0
 10
150.1904
 20
-50.7226
 30
0.0
 10
149.7603
 20
-51.7831
 30
0.0
 10
149.7603
 20
-51.7831
 30
0.0
 10
148.2026
 20
-50.9863
 30
0.0
 10
146.4788
 20
-50.6493
 30
0.0
 10
144.6785
 20
-52.3441
 30
0.0
 10
144.6785
 20
-52.3441
 30
0.0
 10
141.8115
 20
-56.1171
 30
0.0
 10
145.738
 20
-58.9966
 30
0.0
 10
146.8864
 20
-58.3969
 30
0.0
 10
146.8864
 20
-58.3969
 30
0.0
 10
145.6898
 20
-54.0441
 30
0.0
 10
151.1856
 20
-54.172
 30
0.0
 10
151.7161
 20
-57.3365
 30
0.0
 10
151.7161
 20
-57.3365
 30
0.0
 10
151.8706
 20
-58.778
 30
0.0
 10
151.6721
 20
-60.8629
 30
0.0
 10
149.9707
 20
-61.6266
 30
0.0
 10
149.9707
 20
-61.6266
 30
0.0
 10
151.1017
 20
-62.3299
 30
0.0
 10
153.5719
 20
-61.7757
 30
0.0
 10
154.3274
 20
-61.3855
 30
0.0
 10
154.3274
 20
-61.3855
 30
0.0
 10
155.2483
 20
-62.8548
 30
0.0
 10
153.4733
 20
-65.1438
 30
0.0
 10
152.5729
 20
-65.7394
 30
0.0
 10
152.5729
 20
-65.7394
 30
0.0
 10
153.7612
 20
-66.9986
 30
0.0
 10
154.1274
 20
-68.4642
 30
0.0
 10
153.4453
 20
-70.5094
 30
0.0
 10
153.4453
 20
-70.5094
 30
0.0
 10
154.8257
 20
-70.4306
 30
0.0
 10
156.6177
 20
-70.5919
 30
0.0
 10
157.645
 20
-72.6756
 30
0.0
 10
157.645
 20
-72.6756
 30
0.0
 10
157.0935
 20
-69.0144
 30
0.0
 10
157.9462
 20
-64.0766
 30
0.0
 10
159.1997
 20
-61.4199
 30
0.0
  0
SPLINE
  5
B3
330
1F
100
AcDbEntity
  8
layer 1
 62
     7
100
AcDbSpline
210
0.0
220
0.0
230
1.0
 70
    11
 71
     3
 72
    16
 73
    12
 74
     0
 42
0.0000000001
 43
0.0000000001
 12
1.0
 22
0.0
 32
0.0
 13
1.0
 23
0.0
 33
0.0
 40
0.0
 40
0.0
 40
0.0
 40
0.0
 40
0.25
 40
0.25
 40
0.25
 40
0.25
 40
0.5
 40
0.5
 40
0.5
 40
0.5
 40
1.0
 40
1.0
 40
1.0
 40
1.0
 10
150.7249
 20
-67.734
 30
0.0
 10
149.9905
 20
-66.5334
 30
0.0
 10
148.6142
 20
-65.9649
 30
0.0
 10
147.3021
 20
-65.18
 30
0.0
 10
147.3021
 20
-65.18
 30
0.0
 10
148.132
 20
-66.2005
 30
0.0
 10
148.513
 20
-67.7446
 30
0.0
 10
149.9322
 20
-68.5307
 30
0.0
 10
149.9322
 20
-68.5307
 30
0.0
 10
150.4012
 20
-68.7187
 30
0.0
 10
150.9407
 20
-68.324
 30
0.0
 10
150.7249
 20
-67.734
 30
0.0
  0
SPLINE
  5
B4
330
1F
100
AcDbEntity
  8
layer 1
 62
     7
100
AcDbSpline
210
0.0
220
0.0
230
1.0
 70
    11
 71
     3
 72
    32
 73
    28
 74
     0
 42
0.0000000001
 43
0.0000000001
 12
1.0
 22
0.0
 32
0.0
 13
1.0
 23
0.0
 33
0.0
 40
0.0
 40
0.0
 40
0.0
 40
0.0
 40
0.125
 40
0.125
 40
0.125
 40
0.125
 40
0.25
 40
0.25
 40
0.25
 40
0.25
 40
0.375
 40
0.375
 40
0.375
 40
0.375
 40
0.5
 40
0.5
 40
0.5
 40
0.5
 40
0.625
 40
0.625
 40
0.625
 40
0.625
 40
0.75
 40
0.75
 40
0.75
 40
0.75
 40
1.0
 40
1.0
 40
1.0
 40
1.0
 10
138.1394
 20
-59.2895
 30
0.0
 10
142.8814
 20
-60.6286
 30
0.0
 10
143.1689
 20
-63.7342
 30
0.0
 10
143.3876
 20
-65.5504
 30
0.0
 10
143.3876
 20
-65.5504
 30
0.0
 10
145.1158
 20
-65.7329
 30
0.0
 10
146.3042
 20
-64.7001
 30
0.0
 10
146.2096
 20
-62.9122
 30
0.0
 10
146.2096
 20
-62.9122
 30
0.0
 10
142.6201
 20
-61.9118
 30
0.0
 10
140.635
 20
-60.4049
 30
0.0
 10
139.6384
 20
-57.6869
 30
0.0
 10
139.6384
 20
-57.6869
 30
0.0
 10
137.3334
 20
-59.0937
 30
0.0
 10
134.6487
 20
-58.4942
 30
0.0
 10
133.6883
 20
-56.1721
 30
0.0
 10
133.6883
 20
-56.1721
 30
0.0
 10
132.7329
 20
-59.1629
 30
0.0
 10
128.9609
 20
-60.8165
 30
0.0
 10
127.3234
 20
-59.163
 30
0.0
 10
127.3234
 20
-59.163
 30
0.0
 10
127.3234
 20
-59.163
 30
0.0
 10
127.3262
 20
-66.2363
 30
0.0
 10
127.3262
 20
-66.2363
 30
0.0
 10
127.3262
 20
-66.2363
 30
0.0
 10
128.2215
 20
-60.7937
 30
0.0
 10
133.8827
 20
-58.517
 30
0.0
 10
138.1394
 20
-59.2895
 30
0.0
  0
SPLINE
  5
B5
330
1F
100
AcDbEntity
  8
layer 1
 62
     7
100
AcDbSpline
210
0.0
220
0.0
230
1.0
 70
    11
 71
     3
 72
    52
 73
    48
 74
     0
 42
0.0000000001
 43
0.0000000001
 12
1.0
 22
0.0
 32
0.0
 13
1.0
 23
0.0
 33
0.0
 40
0.0
 40
0.0
 40
0.0
 40
0.0
 40
0.0769230769230769
 40
0.0769230769230769
 40
0.0769230769230769
 40
0.0769230769230769
 40
0.1538461538461539
 40
0.1538461538461539
 40
0.1538461538461539
 40
0.1538461538461539
 40
0.2307692307692308
 40
0.2307692307692308
 40
0.2307692307692308
 40
0.2307692307692308
 40
0.3076923076923077
 40
0.3076923076923077
 40
0.3076923076923077
 40
0.3076923076923077
 40
0.3846153846153846
 40
0.3846153846153846
 40
0.3846153846153846
 40
0.3846153846153846
 40
0.4615384615384616
 40
0.4615384615384616
 40
0.4615384615384616
 40
0.4615384615384616
 40
0.5384615384615384
 40
0.5384615384615384
 40
0.5384615384615384
 40
0.5384615384615384
 40
0.6153846153846154
 40
0.6153846153846154
 40
0.6153846153846154
 40
0.6153846153846154
 40
0.6923076923076923
 40
0.6923076923076923
 40
0.6923076923076923
 40
0.6923076923076923
 40
0.7692307692307693
 40
0.7692307692307693
 40
0.7692307692307693
 40
0.7692307692307693
 40
0.8461538461538461
 40
0.8461538461538461
 40
0.8461538461538461
 40
0.8461538461538461
 40
1.0
 40
1.0
 40
1.0
 40
1.0
 10
132.6821
 20
-53.9909
 30
0.0
 10
134.1051
 20
-52.913
 30
0.0
 10
134.3077
 20
-53.4619
 30
0.0
 10
135.1351
 20
-53.8964
 30
0.0
 10
135.1351
 20
-53.8964
 30
0.0
 10
136.1171
 20
-54.4012
 30
0.0
 10
137.8757
 20
-56.3184
 30
0.0
 10
138.2049
 20
-56.0947
 30
0.0
 10
138.2049
 20
-56.0947
 30
0.0
 10
138.6299
 20
-55.8054
 30
0.0
 10
136.7191
 20
-53.9148
 30
0.0
 10
135.8665
 20
-53.0049
 30
0.0
 10
135.8665
 20
-53.0049
 30
0.0
 10
135.0206
 20
-52.2441
 30
0.0
 10
135.2658
 20
-51.558
 30
0.0
 10
135.5959
 20
-51.1971
 30
0.0
 10
135.5959
 20
-51.1971
 30
0.0
 10
136.6366
 20
-49.7966
 30
0.0
 10
137.7011
 20
-48.5363
 30
0.0
 10
137.444
 20
-48.3259
 30
0.0
 10
137.444
 20
-48.3259
 30
0.0
 10
137.1881
 20
-48.1141
 30
0.0
 10
135.4428
 20
-49.7635
 30
0.0
 10
134.7034
 20
-50.3908
 30
0.0
 10
134.7034
 20
-50.3908
 30
0.0
 10
134.1171
 20
-50.8519
 30
0.0
 10
133.7907
 20
-50.6521
 30
0.0
 10
133.1924
 20
-50.3522
 30
0.0
 10
133.1924
 20
-50.3522
 30
0.0
 10
132.1947
 20
-49.6233
 30
0.0
 10
130.7438
 20
-48.1059
 30
0.0
 10
130.4467
 20
-48.3429
 30
0.0
 10
130.4467
 20
-48.3429
 30
0.0
 10
130.1482
 20
-48.4896
 30
0.0
 10
131.3778
 20
-49.9553
 30
0.0
 10
132.3506
 20
-51.1504
 30
0.0
 10
132.3506
 20
-51.1504
 30
0.0
 10
133.2033
 20
-52.0218
 30
0.0
 10
132.8462
 20
-52.2988
 30
0.0
 10
132.5238
 20
-52.6986
 30
0.0
 10
132.5238
 20
-52.6986
 30
0.0
 10
131.8257
 20
-53.3738
 30
0.0
 10
129.6353
 20
-55.4606
 30
0.0
 10
130.0094
 20
-55.7509
 30
0.0
 10
130.0094
 20
-55.7509
 30
0.0
 10
130.224
 20
-55.9173
 30
0.0
 10
132.0109
 20
-54.5666
 30
0.0
 10
132.6821
 20
-53.9909
 30
0.0
  0
SPLINE
  5
B6
330
1F
100
AcDbEntity
  8
layer 1
 62
     7
100
AcDbSpline
210
0.0
220
0.0
230
1.0
 70
    11
 71
     3
 72
    16
 73
    12
 74
     0
 42
0.0000000001
 43
0.0000000001
 12
1.0
 22
0.0
 32
0.0
 13
1.0
 23
0.0
 33
0.0
 40
0.0
 40
0.0
 40
0.0
 40
0.0
 40
0.25
 40
0.25
 40
0.25
 40
0.25
 40
0.5
 40
0.5
 40
0.5
 40
0.5
 40
1.0
 40
1.0
 40
1.0
 40
1.0
 10
129.8952
 20
-52.7906
 30
0.0
 10
128.7877
 20
-52.6385
 30
0.0
 10
127.6566
 20
-51.4274
 30
0.0
 10
127.3262
 20
-49.4982
 30
0.0
 10
127.3262
 20
-49.4982
 30
0.0
 10
127.3262
 20
-49.4982
 30
0.0
 10
127.3262
 20
-54.8623
 30
0.0
 10
127.3262
 20
-54.8623
 30
0.0
 10
127.3262
 20
-54.8623
 30
0.0
 10
127.8446
 20
-53.5713
 30
0.0
 10
128.7812
 20
-53.0236
 30
0.0
 10
129.8952
 20
-52.7906
 30
0.0
  0
SPLINE
  5
B7
330
1F
100
AcDbEntity
  8
layer 1
 62
     7
100
AcDbSpline
210
0.0
220
0.0
230
1.0
 70
    11
 71
     3
 72
    20
 73
    16
 74
     0
 42
0.0000000001
 43
0.0000000001
 12
1.0
 22
0.0
 32
0.0
 13
1.0
 23
0.0
 33
0.0
 40
0.0
 40
0.0
 40
0.0
 40
0.0
 40
0.2
 40
0.2
 40
0.2
 40
0.2
 40
0.4
 40
0.4
 40
0.4
 40
0.4
 40
0.6
 40
0.6
 40
0.6
 40
0.6
 40
1.0
 40
1.0
 40
1.0
 40
1.0
 10
148.4372
 20
-45.1733
 30
0.0
 10
148.4372
 20
-45.1733
 30
0.0
 10
140.3137
 20
-45.1733
 30
0.0
 10
140.3137
 20
-45.1733
 30
0.0
 10
140.3137
 20
-45.1733
 30
0.0
 10
141.4103
 20
-47.3238
 30
0.0
 10
139.7183
 20
-51.4488
 30
0.0
 10
137.5306
 20
-51.706
 30
0.0
 10
137.5306
 20
-51.706
 30
0.0
 10
138.6005
 20
-51.8793
 30
0.0
 10
139.4093
 20
-52.6638
 30
0.0
 10
139.6196
 20
-53.8043
 30
0.0
 10
139.6196
 20
-53.8043
 30
0.0
 10
140.6098
 20
-48.6522
 30
0.0
 10
144.0045
 20
-45.8981
 30
0.0
 10
148.4372
 20
-45.1733
 30
0.0
  0
SPLINE
  5
B8
330
1F
100
AcDbEntity
  8
layer 1
 62
     7
100
AcDbSpline
210
0.0
220
0.0
230
1.0
 70
    11
 71
     3
 72
    16
 73
    12
 74
     0
 42
0.0000000001
 43
0.0000000001
 12
1.0
 22
0.0
 32
0.0
 13
1.0
 23
0.0
 33
0.0
 40
0.0
 40
0.0
 40
0.0
 40
0.0
 40
0.25
 40
0.25
 40
0.25
 40
0.25
 40
0.5
 40
0.5
 40
0.5
 40
0.5
 40
1.0
 40
1.0
 40
1.0
 40
1.0
 10
137.0656
 20
-45.1733
 30
0.0
 10
137.0656
 20
-45.1733
 30
0.0
 10
130.3747
 20
-45.1733
 30
0.0
 10
130.3747
 20
-45.1733
 30
0.0
 10
130.3747
 20
-45.1733
 30
0.0
 10
132.0201
 20
-45.6413
 30
0.0
 10
133.5324
 20
-46.5284
 30
0.0
 10
133.9479
 20
-48.4698
 30
0.0
 10
133.9479
 20
-48.4698
 30
0.0
 10
134.3705
 20
-46.5857
 30
0.0
 10
135.3002
 20
-45.4585
 30
0.0
 10
137.0656
 20
-45.1733
 30
0.0
  0
SPLINE
  5
B9
330
1F
100
AcDbEntity
  8
layer 1
 62
     7
100
AcDbSpline
210
0.0
220
0.0
230
1.0
 70
    11
 71
     3
 72
    20
 73
    16
 74
     0
 42
0.0000000001
 43
0.0000000001
 12
1.0
 22
0.0
 32
0.0
 13
1.0
 23
0.0
 33
0.0
 40
0.0
 40
0.0
 40
0.0
 40
0.0
 40
0.2
 40
0.2
 40
0.2
 40
0.2
 40
0.4
 40
0.4
 40
0.4
 40
0.4
 40
0.6
 40
0.6
 40
0.6
 40
0.6
 40
1.0
 40
1.0
 40
1.0
 40
1.0
 10
160.9825
 20
-77.6986
 30
0.0
 10
160.9825
 20
-78.3248
 30
0.0
 10
160.4749
 20
-78.8324
 30
0.0
 10
159.8487
 20
-78.8324
 30
0.0
 10
159.8487
 20
-78.8324
 30
0.0
 10
159.2225
 20
-78.8323
 30
0.0
 10
158.715
 20
-78.3248
 30
0.0
 10
158.715
 20
-77.6986
 30
0.0
 10
158.715
 20
-77.6986
 30
0.0
 10
158.715
 20
-77.0724
 30
0.0
 10
159.2225
 20
-76.5662
 30
0.0
 10
159.8487
 20
-76.5662
 30
0.0
 10
159.8487
 20
-76.5662
 30
0.0
 10
160.4749
 20
-76.5662
 30
0.0
 10
160.9825
 20
-77.0724
 30
0.0
 10
160.9825
 20
-77.6986
 30
0.0
  0
SPLINE
  5
BA
330
1F
100
AcDbEntity
  8
layer 1
 62
     7
100
AcDbSpline
210
0.0
220
0.0
230
1.0
 70
    11
 71
     3
 72
    60
 73
    56
 74
     0
 42
0.0000000001
 43
0.0000000001
 12
1.0
 22
0.0
 32
0.0
 13
1.0
 23
0.0
 33
0.0
 40
0.0
 40
0.0
 40
0.0
 40
0.0
 40
0.0666666666666667
 40
0.0666666666666667
 40
0.0666666666666667
 40
0.0666666666666667
 40
0.1333333333333333
 40
0.1333333333333333
 40
0.1333333333333333
 40
0.1333333333333333
 40
0.2
 40
0.2
 40
0.2
 40
0.2
 40
0.2666666666666667
 40
0.2666666666666667
 40
0.2666666666666667
 40
0.2666666666666667
 40
0.3333333333333333
 40
0.3333333333333333
 40
0.3333333333333333
 40
0.3333333333333333
 40
0.4
 40
0.4
 40
0.4
 40
0.4
 40
0.4666666666666667
 40
0.4666666666666667
 40
0.4666666666666667
 40
0.4666666666666667
 40
0.5333333333333333
 40
0.5333333333333333
 40
0.5333333333333333
 40
0.5333333333333333
 40
0.6
 40
0.6
 40
0.6
 40
0.6
 40
0.6666666666666666
 40
0.6666666666666666
 40
0.6666666666666666
 40
0.6666666666666666
 40
0.7333333333333333
 40
0.7333333333333333
 40
0.7333333333333333
 40
0.7333333333333333
 40
0.8
 40
0.8
 40
0.8
 40
0.8
 40
0.8666666666666667
 40
0.8666666666666667
 40
0.8666666666666667
 40
0.8666666666666667
 40
1.0
 40
1.0
 40
1.0
 40
1.0
 10
173.7079
 20
-75.9333
 30
0.0
 10
170.4915
 20
-74.7527
 30
0.0
 10
168.6008
 20
-74.7289
 30
0.0
 10
164.837
 20
-75.2391
 30
0.0
 10
164.837
 20
-75.2391
 30
0.0
 10
166.2453
 20
-74.605
 30
0.0
 10
167.0953
 20
-72.7649
 30
0.0
 10
167.1008
 20
-71.1901
 30
0.0
 10
167.1008
 20
-71.1901
 30
0.0
 10
168.7636
 20
-72.036
 30
0.0
 10
170.5181
 20
-72.3812
 30
0.0
 10
171.6065
 20
-71.2314
 30
0.0
 10
171.6065
 20
-71.2314
 30
0.0
 10
171.9438
 20
-72.5705
 30
0.0
 10
173.9196
 20
-73.3659
 30
0.0
 10
175.2877
 20
-73.455
 30
0.0
 10
175.2877
 20
-73.455
 30
0.0
 10
173.817
 20
-70.0844
 30
0.0
 10
175.2665
 20
-68.0791
 30
0.0
 10
176.9413
 20
-67.5676
 30
0.0
 10
176.9413
 20
-67.5676
 30
0.0
 10
178.2418
 20
-71.3794
 30
0.0
 10
181.1983
 20
-71.3341
 30
0.0
 10
183.0354
 20
-69.7365
 30
0.0
 10
183.0354
 20
-69.7365
 30
0.0
 10
185.4802
 20
-67.4942
 30
0.0
 10
182.4146
 20
-63.9849
 30
0.0
 10
180.0164
 20
-66.0299
 30
0.0
 10
180.0164
 20
-66.0299
 30
0.0
 10
179.001
 20
-62.081
 30
0.0
 10
185.2166
 20
-60.7991
 30
0.0
 10
187.235
 20
-64.1554
 30
0.0
 10
187.235
 20
-64.1554
 30
0.0
 10
185.6617
 20
-63.9115
 30
0.0
 10
185.0712
 20
-64.7111
 30
0.0
 10
185.1964
 20
-65.7714
 30
0.0
 10
185.1964
 20
-65.7714
 30
0.0
 10
189.9982
 20
-65.5664
 30
0.0
 10
189.3562
 20
-72.7502
 30
0.0
 10
187.1682
 20
-73.9495
 30
0.0
 10
187.1682
 20
-73.9495
 30
0.0
 10
186.8858
 20
-72.0149
 30
0.0
 10
185.4416
 20
-71.3647
 30
0.0
 10
184.1066
 20
-71.8068
 30
0.0
 10
184.1066
 20
-71.8068
 30
0.0
 10
182.256
 20
-72.4491
 30
0.0
 10
182.2201
 20
-73.8455
 30
0.0
 10
182.669
 20
-75.1658
 30
0.0
 10
182.669
 20
-75.1658
 30
0.0
 10
182.3279
 20
-75.1566
 30
0.0
 10
181.4619
 20
-75.2309
 30
0.0
 10
180.0495
 20
-75.8841
 30
0.0
 10
180.0495
 20
-75.8841
 30
0.0
 10
177.5487
 20
-76.6301
 30
0.0
 10
175.7489
 20
-76.642
 30
0.0
 10
173.7079
 20
-75.9333
 30
0.0
  0
SPLINE
  5
BB
330
1F
100
AcDbEntity
  8
layer 1
 62
     7
100
AcDbSpline
210
0.0
220
0.0
230
1.0
 70
    11
 71
     3
 72
    60
 73
    56
 74
     0
 42
0.0000000001
 43
0.0000000001
 12
1.0
 22
0.0
 32
0.0
 13
1.0
 23
0.0
 33
0.0
 40
0.0
 40
0.0
 40
0.0
 40
0.0
 40
0.0666666666666667
 40
0.0666666666666667
 40
0.0666666666666667
 40
0.0666666666666667
 40
0.1333333333333333
 40
0.1333333333333333
 40
0.1333333333333333
 40
0.1333333333333333
 40
0.2
 40
0.2
 40
0.2
 40
0.2
 40
0.2666666666666667
 40
0.2666666666666667
 40
0.2666666666666667
 40
0.2666666666666667
 40
0.3333333333333333
 40
0.3333333333333333
 40
0.3333333333333333
 40
0.3333333333333333
 40
0.4
 40
0.4
 40
0.4
 40
0.4
 40
0.4666666666666667
 40
0.4666666666666667
 40
0.4666666666666667
 40
0.4666666666666667
 40
0.5333333333333333
 40
0.5333333333333333
 40
0.5333333333333333
 40
0.5333333333333333
 40
0.6
 40
0.6
 40
0.6
 40
0.6
 40
0.6666666666666666
 40
0.6666666666666666
 40
0.6666666666666666
 40
0.6666666666666666
 40
0.7333333333333333
 40
0.7333333333333333
 40
0.7333333333333333
 40
0.7333333333333333
 40
0.8
 40
0.8
 40
0.8
 40
0.8
 40
0.8666666666666667
 40
0.8666666666666667
 40
0.8666666666666667
 40
0.8666666666666667
 40
1.0
 40
1.0
 40
1.0
 40
1.0
 10
160.4975
 20
-61.4199
 30
0.0
 10
161.826
 20
-60.5727
 30
0.0
 10
161.9484
 20
-59.4775
 30
0.0
 10
162.488
 20
-56.9272
 30
0.0
 10
162.488
 20
-56.9272
 30
0.0
 10
163.9775
 20
-57.8894
 30
0.0
 10
166.7744
 20
-57.1977
 30
0.0
 10
166.8753
 20
-54.817
 30
0.0
 10
166.8753
 20
-54.817
 30
0.0
 10
166.8716
 20
-51.8404
 30
0.0
 10
163.5034
 20
-51.5593
 30
0.0
 10
162.5679
 20
-52.3469
 30
0.0
 10
162.5679
 20
-52.3469
 30
0.0
 10
163.4768
 20
-49.9446
 30
0.0
 10
169.1111
 20
-47.0932
 30
0.0
 10
170.8257
 20
-48.4135
 30
0.0
 10
170.8257
 20
-48.4135
 30
0.0
 10
169.5215
 20
-49.273
 30
0.0
 10
169.5068
 20
-50.7226
 30
0.0
 10
169.9372
 20
-51.7831
 30
0.0
 10
169.9372
 20
-51.7831
 30
0.0
 10
171.4946
 20
-50.9863
 30
0.0
 10
173.2188
 20
-50.6493
 30
0.0
 10
175.0186
 20
-52.3441
 30
0.0
 10
175.0186
 20
-52.3441
 30
0.0
 10
177.8861
 20
-56.1171
 30
0.0
 10
173.9595
 20
-58.9966
 30
0.0
 10
172.8111
 20
-58.3969
 30
0.0
 10
172.8111
 20
-58.3969
 30
0.0
 10
174.0077
 20
-54.0441
 30
0.0
 10
168.5115
 20
-54.172
 30
0.0
 10
167.9815
 20
-57.3365
 30
0.0
 10
167.9815
 20
-57.3365
 30
0.0
 10
167.8266
 20
-58.778
 30
0.0
 10
168.0251
 20
-60.8629
 30
0.0
 10
169.7267
 20
-61.6266
 30
0.0
 10
169.7267
 20
-61.6266
 30
0.0
 10
168.5954
 20
-62.3299
 30
0.0
 10
166.1252
 20
-61.7757
 30
0.0
 10
165.3698
 20
-61.3855
 30
0.0
 10
165.3698
 20
-61.3855
 30
0.0
 10
164.4492
 20
-62.8548
 30
0.0
 10
166.2239
 20
-65.1438
 30
0.0
 10
167.1247
 20
-65.7394
 30
0.0
 10
167.1247
 20
-65.7394
 30
0.0
 10
165.936
 20
-66.9986
 30
0.0
 10
165.5697
 20
-68.4642
 30
0.0
 10
166.2518
 20
-70.5094
 30
0.0
 10
166.2518
 20
-70.5094
 30
0.0
 10
164.8715
 20
-70.4306
 30
0.0
 10
163.0794
 20
-70.5919
 30
0.0
 10
162.0524
 20
-72.6756
 30
0.0
 10
162.0524
 20
-72.6756
 30
0.0
 10
162.604
 20
-69.0144
 30
0.0
 10
161.7513
 20
-64.0766
 30
0.0
 10
160.4975
 20
-61.4199
 30
0.0
  0
SPLINE
  5
BC
330
1F
100
AcDbEntity
  8
layer 1
 62
     7
100
AcDbSpline
210
0.0
220
0.0
230
1.0
 70
    11
 71
     3
 72
    16
 73
    12
 74
     0
 42
0.0000000001
 43
0.0000000001
 12
1.0
 22
0.0
 32
0.0
 13
1.0
 23
0.0
 33
0.0
 40
0.0
 40
0.0
 40
0.0
 40
0.0
 40
0.25
 40
0.25
 40
0.25
 40
0.25
 40
0.5
 40
0.5
 40
0.5
 40
0.5
 40
1.0
 40
1.0
 40
1.0
 40
1.0
 10
168.9726
 20
-67.734
 30
0.0
 10
169.7066
 20
-66.5334
 30
0.0
 10
171.0829
 20
-65.9649
 30
0.0
 10
172.3954
 20
-65.18
 30
0.0
 10
172.3954
 20
-65.18
 30
0.0
 10
171.5652
 20
-66.2005
 30
0.0
 10
171.1841
 20
-67.7446
 30
0.0
 10
169.7653
 20
-68.5307
 30
0.0
 10
169.7653
 20
-68.5307
 30
0.0
 10
169.2963
 20
-68.7187
 30
0.0
 10
168.7567
 20
-68.324
 30
0.0
 10
168.9726
 20
-67.734
 30
0.0
  0
SPLINE
  5
BD
330
1F
100
AcDbEntity
  8
layer 1
 62
     7
100
AcDbSpline
210
0.0
220
0.0
230
1.0
 70
    11
 71
     3
 72
    32
 73
    28
 74
     0
 42
0.0000000001
 43
0.0000000001
 12
1.0
 22
0.0
 32
0.0
 13
1.0
 23
0.0
 33
0.0
 40
0.0
 40
0.0
 40
0.0
 40
0.0
 40
0.125
 40
0.125
 40
0.125
 40
0.125
 40
0.25
 40
0.25
 40
0.25
 40
0.25
 40
0.375
 40
0.375
 40
0.375
 40
0.375
 40
0.5
 40
0.5
 40
0.5
 40
0.5
 40
0.625
 40
0.625
 40
0.625
 40
0.625
 40
0.75
 40
0.75
 40
0.75
 40
0.75
 40
1.0
 40
1.0
 40
1.0
 40
1.0
 10
181.5577
 20
-59.2895
 30
0.0
 10
176.8161
 20
-60.6286
 30
0.0
 10
176.5282
 20
-63.7342
 30
0.0
 10
176.3099
 20
-65.5504
 30
0.0
 10
176.3099
 20
-65.5504
 30
0.0
 10
174.5817
 20
-65.7329
 30
0.0
 10
173.3934
 20
-64.7001
 30
0.0
 10
173.4878
 20
-62.9122
 30
0.0
 10
173.4878
 20
-62.9122
 30
0.0
 10
177.076
 20
-61.9118
 30
0.0
 10
179.0624
 20
-60.4049
 30
0.0
 10
180.059
 20
-57.6869
 30
0.0
 10
180.059
 20
-57.6869
 30
0.0
 10
182.3641
 20
-59.0937
 30
0.0
 10
185.0487
 20
-58.4942
 30
0.0
 10
186.0078
 20
-56.1721
 30
0.0
 10
186.0078
 20
-56.1721
 30
0.0
 10
186.9632
 20
-59.1629
 30
0.0
 10
190.7362
 20
-60.8165
 30
0.0
 10
192.3738
 20
-59.163
 30
0.0
 10
192.3738
 20
-59.163
 30
0.0
 10
192.3738
 20
-59.163
 30
0.0
 10
192.3711
 20
-66.2363
 30
0.0
 10
192.3711
 20
-66.2363
 30
0.0
 10
192.3711
 20
-66.2363
 30
0.0
 10
191.4757
 20
-60.7937
 30
0.0
 10
185.8147
 20
-58.517
 30
0.0
 10
181.5577
 20
-59.2895
 30
0.0
  0
SPLINE
  5
BE
330
1F
100
AcDbEntity
  8
layer 1
 62
     7
100
AcDbSpline
210
0.0
220
0.0
230
1.0
 70
    11
 71
     3
 72
    52
 73
    48
 74
     0
 42
0.0000000001
 43
0.0000000001
 12
1.0
 22
0.0
 32
0.0
 13
1.0
 23
0.0
 33
0.0
 40
0.0
 40
0.0
 40
0.0
 40
0.0
 40
0.0769230769230769
 40
0.0769230769230769
 40
0.0769230769230769
 40
0.0769230769230769
 40
0.1538461538461539
 40
0.1538461538461539
 40
0.1538461538461539
 40
0.1538461538461539
 40
0.2307692307692308
 40
0.2307692307692308
 40
0.2307692307692308
 40
0.2307692307692308
 40
0.3076923076923077
 40
0.3076923076923077
 40
0.3076923076923077
 40
0.3076923076923077
 40
0.3846153846153846
 40
0.3846153846153846
 40
0.3846153846153846
 40
0.3846153846153846
 40
0.4615384615384616
 40
0.4615384615384616
 40
0.4615384615384616
 40
0.4615384615384616
 40
0.5384615384615384
 40
0.5384615384615384
 40
0.5384615384615384
 40
0.5384615384615384
 40
0.6153846153846154
 40
0.6153846153846154
 40
0.6153846153846154
 40
0.6153846153846154
 40
0.6923076923076923
 40
0.6923076923076923
 40
0.6923076923076923
 40
0.6923076923076923
 40
0.7692307692307693
 40
0.7692307692307693
 40
0.7692307692307693
 40
0.7692307692307693
 40
0.8461538461538461
 40
0.8461538461538461
 40
0.8461538461538461
 40
0.8461538461538461
 40
1.0
 40
1.0
 40
1.0
 40
1.0
 10
187.0151
 20
-53.9909
 30
0.0
 10
185.5921
 20
-52.913
 30
0.0
 10
185.3898
 20
-53.4619
 30
0.0
 10
184.5623
 20
-53.8964
 30
0.0
 10
184.5623
 20
-53.8964
 30
0.0
 10
183.5804
 20
-54.4012
 30
0.0
 10
181.8218
 20
-56.3184
 30
0.0
 10
181.4926
 20
-56.0947
 30
0.0
 10
181.4926
 20
-56.0947
 30
0.0
 10
181.0677
 20
-55.8054
 30
0.0
 10
182.978
 20
-53.9148
 30
0.0
 10
183.8307
 20
-53.0049
 30
0.0
 10
183.8307
 20
-53.0049
 30
0.0
 10
184.677
 20
-52.2441
 30
0.0
 10
184.4317
 20
-51.558
 30
0.0
 10
184.1012
 20
-51.1971
 30
0.0
 10
184.1012
 20
-51.1971
 30
0.0
 10
183.0609
 20
-49.7966
 30
0.0
 10
181.996
 20
-48.5363
 30
0.0
 10
182.2518
 20
-48.3259
 30
0.0
 10
182.2518
 20
-48.3259
 30
0.0
 10
182.509
 20
-48.1141
 30
0.0
 10
184.2546
 20
-49.7635
 30
0.0
 10
184.9938
 20
-50.3908
 30
0.0
 10
184.9938
 20
-50.3908
 30
0.0
 10
185.5802
 20
-50.8519
 30
0.0
 10
185.9065
 20
-50.6521
 30
0.0
 10
186.5034
 20
-50.3522
 30
0.0
 10
186.5034
 20
-50.3522
 30
0.0
 10
187.5028
 20
-49.6233
 30
0.0
 10
188.9538
 20
-48.1059
 30
0.0
 10
189.2508
 20
-48.3429
 30
0.0
 10
189.2508
 20
-48.3429
 30
0.0
 10
189.5493
 20
-48.4896
 30
0.0
 10
188.3193
 20
-49.9553
 30
0.0
 10
187.3469
 20
-51.1504
 30
0.0
 10
187.3469
 20
-51.1504
 30
0.0
 10
186.4929
 20
-52.0218
 30
0.0
 10
186.8513
 20
-52.2988
 30
0.0
 10
187.1736
 20
-52.6986
 30
0.0
 10
187.1736
 20
-52.6986
 30
0.0
 10
187.8719
 20
-53.3738
 30
0.0
 10
190.0623
 20
-55.4606
 30
0.0
 10
189.6877
 20
-55.7509
 30
0.0
 10
189.6877
 20
-55.7509
 30
0.0
 10
189.4733
 20
-55.9173
 30
0.0
 10
187.6866
 20
-54.5666
 30
0.0
 10
187.0151
 20
-53.9909
 30
0.0
  0
SPLINE
  5
BF
330
1F
100
AcDbEntity
  8
layer 1
 62
     7
100
AcDbSpline
210
0.0
220
0.0
230
1.0
 70
    11
 71
     3
 72
    16
 73
    12
 74
     0
 42
0.0000000001
 43
0.0000000001
 12
1.0
 22
0.0
 32
0.0
 13
1.0
 23
0.0
 33
0.0
 40
0.0
 40
0.0
 40
0.0
 40
0.0
 40
0.25
 40
0.25
 40
0.25
 40
0.25
 40
0.5
 40
0.5
 40
0.5
 40
0.5
 40
1.0
 40
1.0
 40
1.0
 40
1.0
 10
189.8024
 20
-52.7906
 30
0.0
 10
190.9095
 20
-52.6385
 30
0.0
 10
192.0409
 20
-51.4274
 30
0.0
 10
192.371
 20
-49.4982
 30
0.0
 10
192.371
 20
-49.4982
 30
0.0
 10
192.371
 20
-49.4982
 30
0.0
 10
192.3711
 20
-54.8623
 30
0.0
 10
192.3711
 20
-54.8623
 30
0.0
 10
192.3711
 20
-54.8623
 30
0.0
 10
191.8529
 20
-53.5713
 30
0.0
 10
190.9163
 20
-53.0236
 30
0.0
 10
189.8024
 20
-52.7906
 30
0.0
  0
SPLINE
  5
C0
330
1F
100
AcDbEntity
  8
layer 1
 62
     7
100
AcDbSpline
210
0.0
220
0.0
230
1.0
 70
    11
 71
     3
 72
    20
 73
    16
 74
     0
 42
0.0000000001
 43
0.0000000001
 12
1.0
 22
0.0
 32
0.0
 13
1.0
 23
0.0
 33
0.0
 40
0.0
 40
0.0
 40
0.0
 40
0.0
 40
0.2
 40
0.2
 40
0.2
 40
0.2
 40
0.4
 40
0.4
 40
0.4
 40
0.4
 40
0.6
 40
0.6
 40
0.6
 40
0.6
 40
1.0
 40
1.0
 40
1.0
 40
1.0
 10
171.2602
 20
-45.1733
 30
0.0
 10
171.2602
 20
-45.1733
 30
0.0
 10
179.3834
 20
-45.1733
 30
0.0
 10
179.3834
 20
-45.1733
 30
0.0
 10
179.3834
 20
-45.1733
 30
0.0
 10
178.2868
 20
-47.3238
 30
0.0
 10
179.9789
 20
-51.4488
 30
0.0
 10
182.1666
 20
-51.706
 30
0.0
 10
182.1666
 20
-51.706
 30
0.0
 10
181.097
 20
-51.8793
 30
0.0
 10
180.2869
 20
-52.6638
 30
0.0
 10
180.0775
 20
-53.8043
 30
0.0
 10
180.0775
 20
-53.8043
 30
0.0
 10
179.0877
 20
-48.6522
 30
0.0
 10
175.6929
 20
-45.8981
 30
0.0
 10
171.2602
 20
-45.1733
 30
0.0
  0
SPLINE
  5
C1
330
1F
100
AcDbEntity
  8
layer 1
 62
     7
100
AcDbSpline
210
0.0
220
0.0
230
1.0
 70
    11
 71
     3
 72
    16
 73
    12
 74
     0
 42
0.0000000001
 43
0.0000000001
 12
1.0
 22
0.0
 32
0.0
 13
1.0
 23
0.0
 33
0.0
 40
0.0
 40
0.0
 40
0.0
 40
0.0
 40
0.25
 40
0.25
 40
0.25
 40
0.25
 40
0.5
 40
0.5
 40
0.5
 40
0.5
 40
1.0
 40
1.0
 40
1.0
 40
1.0
 10
164.6559
 20
-45.1733
 30
0.0
 10
164.6559
 20
-45.1733
 30
0.0
 10
155.0416
 20
-45.1733
 30
0.0
 10
155.0416
 20
-45.1733
 30
0.0
 10
155.0416
 20
-45.1733
 30
0.0
 10
157.3545
 20
-46.1089
 30
0.0
 10
158.7536
 20
-47.216
 30
0.0
 10
159.8487
 20
-49.1264
 30
0.0
 10
159.8487
 20
-49.1264
 30
0.0
 10
160.944
 20
-47.216
 30
0.0
 10
162.3427
 20
-46.1089
 30
0.0
 10
164.6559
 20
-45.1733
 30
0.0
  0
SPLINE
  5
C2
330
1F
100
AcDbEntity
  8
layer 1
 62
     7
100
AcDbSpline
210
0.0
220
0.0
230
1.0
 70
    11
 71
     3
 72
    16
 73
    12
 74
     0
 42
0.0000000001
 43
0.0000000001
 12
1.0
 22
0.0
 32
0.0
 13
1.0
 23
0.0
 33
0.0
 40
0.0
 40
0.0
 40
0.0
 40
0.0
 40
0.25
 40
0.25
 40
0.25
 40
0.25
 40
0.5
 40
0.5
 40
0.5
 40
0.5
 40
1.0
 40
1.0
 40
1.0
 40
1.0
 10
182.6305
 20
-45.1733
 30
0.0
 10
182.6305
 20
-45.1733
 30
0.0
 10
189.3228
 20
-45.1733
 30
0.0
 10
189.3228
 20
-45.1733
 30
0.0
 10
189.3228
 20
-45.1733
 30
0.0
 10
187.6775
 20
-45.6413
 30
0.0
 10
186.165
 20
-46.5284
 30
0.0
 10
185.7493
 20
-48.4698
 30
0.0
 10
185.7493
 20
-48.4698
 30
0.0
 10
185.3271
 20
-46.5857
 30
0.0
 10
184.3969
 20
-45.4585
 30
0.0
 10
182.6305
 20
-45.1733
 30
0.0
  0
SPLINE
  5
C3
330
1F
100
AcDbEntity
  8
layer 1
 62
     7
100
AcDbSpline
210
0.0
220
0.0
230
1.0
 70
    11
 71
     3
 72
    16
 73
    12
 74
     0
 42
0.0000000001
 43
0.0000000001
 12
1.0
 22
0.0
 32
0.0
 13
1.0
 23
0.0
 33
0.0
 40
0.0
 40
0.0
 40
0.0
 40
0.0
 40
0.25
 40
0.25
 40
0.25
 40
0.25
 40
0.5
 40
0.5
 40
0.5
 40
0.5
 40
1.0
 40
1.0
 40
1.0
 40
1.0
 10
127.3262
 20
-82.9932
 30
0.0
 10
127.3262
 20
-82.9932
 30
0.0
 10
127.3262
 20
-72.4037
 30
0.0
 10
127.3262
 20
-72.4037
 30
0.0
 10
127.3262
 20
-72.4037
 30
0.0
 10
128.5959
 20
-75.5761
 30
0.0
 10
130.0735
 20
-76.9592
 30
0.0
 10
133.2817
 20
-77.6986
 30
0.0
 10
133.2817
 20
-77.6986
 30
0.0
 10
130.0735
 20
-78.4381
 30
0.0
 10
128.5959
 20
-79.8212
 30
0.0
 10
127.3262
 20
-82.9932
 30
0.0
  0
SPLINE
  5
C4
330
1F
100
AcDbEntity
  8
layer 1
 62
     7
100
AcDbSpline
210
0.0
220
0.0
230
1.0
 70
    11
 71
     3
 72
    60
 73
    56
 74
     0
 42
0.0000000001
 43
0.0000000001
 12
1.0
 22
0.0
 32
0.0
 13
1.0
 23
0.0
 33
0.0
 40
0.0
 40
0.0
 40
0.0
 40
0.0
 40
0.0666666666666667
 40
0.0666666666666667
 40
0.0666666666666667
 40
0.0666666666666667
 40
0.1333333333333333
 40
0.1333333333333333
 40
0.1333333333333333
 40
0.1333333333333333
 40
0.2
 40
0.2
 40
0.2
 40
0.2
 40
0.2666666666666667
 40
0.2666666666666667
 40
0.2666666666666667
 40
0.2666666666666667
 40
0.3333333333333333
 40
0.3333333333333333
 40
0.3333333333333333
 40
0.3333333333333333
 40
0.4
 40
0.4
 40
0.4
 40
0.4
 40
0.4666666666666667
 40
0.4666666666666667
 40
0.4666666666666667
 40
0.4666666666666667
 40
0.5333333333333333
 40
0.5333333333333333
 40
0.5333333333333333
 40
0.5333333333333333
 40
0.6
 40
0.6
 40
0.6
 40
0.6
 40
0.6666666666666666
 40
0.6666666666666666
 40
0.6666666666666666
 40
0.6666666666666666
 40
0.7333333333333333
 40
0.7333333333333333
 40
0.7333333333333333
 40
0.7333333333333333
 40
0.8
 40
0.8
 40
0.8
 40
0.8
 40
0.8666666666666667
 40
0.8666666666666667
 40
0.8666666666666667
 40
0.8666666666666667
 40
1.0
 40
1.0
 40
1.0
 40
1.0
 10
145.9897
 20
-79.4641
 30
0.0
 10
149.206
 20
-80.6446
 30
0.0
 10
151.0966
 20
-80.6685
 30
0.0
 10
154.8591
 20
-80.1582
 30
0.0
 10
154.8591
 20
-80.1582
 30
0.0
 10
153.4521
 20
-80.7922
 30
0.0
 10
152.6022
 20
-82.6324
 30
0.0
 10
152.5967
 20
-84.2071
 30
0.0
 10
152.5967
 20
-84.2071
 30
0.0
 10
150.934
 20
-83.3609
 30
0.0
 10
149.1795
 20
-83.0174
 30
0.0
 10
148.0907
 20
-84.1658
 30
0.0
 10
148.0907
 20
-84.1658
 30
0.0
 10
147.7538
 20
-82.8267
 30
0.0
 10
145.7778
 20
-82.0314
 30
0.0
 10
144.4081
 20
-81.942
 30
0.0
 10
144.4081
 20
-81.942
 30
0.0
 10
145.8805
 20
-85.3129
 30
0.0
 10
144.4309
 20
-87.3181
 30
0.0
 10
142.7563
 20
-87.8311
 30
0.0
 10
142.7563
 20
-87.8311
 30
0.0
 10
141.4557
 20
-84.0178
 30
0.0
 10
138.4978
 20
-84.0632
 30
0.0
 10
136.6618
 20
-85.6608
 30
0.0
 10
136.6618
 20
-85.6608
 30
0.0
 10
134.2169
 20
-87.903
 30
0.0
 10
137.2829
 20
-91.4138
 30
0.0
 10
139.681
 20
-89.3673
 30
0.0
 10
139.681
 20
-89.3673
 30
0.0
 10
140.6961
 20
-93.3164
 30
0.0
 10
134.481
 20
-94.5981
 30
0.0
 10
132.4624
 20
-91.2433
 30
0.0
 10
132.4624
 20
-91.2433
 30
0.0
 10
134.0359
 20
-91.4857
 30
0.0
 10
134.6263
 20
-90.6863
 30
0.0
 10
134.5007
 20
-89.6258
 30
0.0
 10
134.5007
 20
-89.6258
 30
0.0
 10
129.699
 20
-89.8308
 30
0.0
 10
130.3413
 20
-82.647
 30
0.0
 10
132.5289
 20
-81.4492
 30
0.0
 10
132.5289
 20
-81.4492
 30
0.0
 10
132.8113
 20
-83.3824
 30
0.0
 10
134.2558
 20
-84.0325
 30
0.0
 10
135.5908
 20
-83.5901
 30
0.0
 10
135.5908
 20
-83.5901
 30
0.0
 10
137.4415
 20
-82.9492
 30
0.0
 10
137.4773
 20
-81.5519
 30
0.0
 10
137.0285
 20
-80.2315
 30
0.0
 10
137.0285
 20
-80.2315
 30
0.0
 10
137.3696
 20
-80.2407
 30
0.0
 10
138.2356
 20
-80.166
 30
0.0
 10
139.6477
 20
-79.5145
 30
0.0
 10
139.6477
 20
-79.5145
 30
0.0
 10
142.1484
 20
-78.7673
 30
0.0
 10
143.9487
 20
-78.7563
 30
0.0
 10
145.9897
 20
-79.4641
 30
0.0
  0
SPLINE
  5
C5
330
1F
100
AcDbEntity
  8
layer 1
 62
     7
100
AcDbSpline
210
0.0
220
0.0
230
1.0
 70
    11
 71
     3
 72
    60
 73
    56
 74
     0
 42
0.0000000001
 43
0.0000000001
 12
1.0
 22
0.0
 32
0.0
 13
1.0
 23
0.0
 33
0.0
 40
0.0
 40
0.0
 40
0.0
 40
0.0
 40
0.0666666666666667
 40
0.0666666666666667
 40
0.0666666666666667
 40
0.0666666666666667
 40
0.1333333333333333
 40
0.1333333333333333
 40
0.1333333333333333
 40
0.1333333333333333
 40
0.2
 40
0.2
 40
0.2
 40
0.2
 40
0.2666666666666667
 40
0.2666666666666667
 40
0.2666666666666667
 40
0.2666666666666667
 40
0.3333333333333333
 40
0.3333333333333333
 40
0.3333333333333333
 40
0.3333333333333333
 40
0.4
 40
0.4
 40
0.4
 40
0.4
 40
0.4666666666666667
 40
0.4666666666666667
 40
0.4666666666666667
 40
0.4666666666666667
 40
0.5333333333333333
 40
0.5333333333333333
 40
0.5333333333333333
 40
0.5333333333333333
 40
0.6
 40
0.6
 40
0.6
 40
0.6
 40
0.6666666666666666
 40
0.6666666666666666
 40
0.6666666666666666
 40
0.6666666666666666
 40
0.7333333333333333
 40
0.7333333333333333
 40
0.7333333333333333
 40
0.7333333333333333
 40
0.8
 40
0.8
 40
0.8
 40
0.8
 40
0.8666666666666667
 40
0.8666666666666667
 40
0.8666666666666667
 40
0.8666666666666667
 40
1.0
 40
1.0
 40
1.0
 40
1.0
 10
159.1997
 20
-93.977
 30
0.0
 10
157.8715
 20
-94.8245
 30
0.0
 10
157.749
 20
-95.9198
 30
0.0
 10
157.2094
 20
-98.4697
 30
0.0
 10
157.2094
 20
-98.4697
 30
0.0
 10
155.7196
 20
-97.5078
 30
0.0
 10
152.9232
 20
-98.1992
 30
0.0
 10
152.8218
 20
-100.5803
 30
0.0
 10
152.8218
 20
-100.5803
 30
0.0
 10
152.8259
 20
-103.5565
 30
0.0
 10
156.1941
 20
-103.838
 30
0.0
 10
157.1293
 20
-103.0517
 30
0.0
 10
157.1293
 20
-103.0517
 30
0.0
 10
156.2207
 20
-105.454
 30
0.0
 10
150.5864
 20
-108.3037
 30
0.0
 10
148.8701
 20
-106.9834
 30
0.0
 10
148.8701
 20
-106.9834
 30
0.0
 10
150.1758
 20
-106.1242
 30
0.0
 10
150.1904
 20
-104.6746
 30
0.0
 10
149.7603
 20
-103.6139
 30
0.0
 10
149.7603
 20
-103.6139
 30
0.0
 10
148.2026
 20
-104.4106
 30
0.0
 10
146.4788
 20
-104.748
 30
0.0
 10
144.6785
 20
-103.0531
 30
0.0
 10
144.6785
 20
-103.0531
 30
0.0
 10
141.8115
 20
-99.2797
 30
0.0
 10
145.738
 20
-96.4007
 30
0.0
 10
146.8864
 20
-97.0003
 30
0.0
 10
146.8864
 20
-97.0003
 30
0.0
 10
145.6898
 20
-101.3542
 30
0.0
 10
151.1856
 20
-101.2249
 30
0.0
 10
151.7161
 20
-98.0607
 30
0.0
 10
151.7161
 20
-98.0607
 30
0.0
 10
151.8706
 20
-96.6194
 30
0.0
 10
151.6721
 20
-94.5353
 30
0.0
 10
149.9707
 20
-93.7707
 30
0.0
 10
149.9707
 20
-93.7707
 30
0.0
 10
151.1017
 20
-93.067
 30
0.0
 10
153.5719
 20
-93.6213
 30
0.0
 10
154.3274
 20
-94.0118
 30
0.0
 10
154.3274
 20
-94.0118
 30
0.0
 10
155.2483
 20
-92.5421
 30
0.0
 10
153.4733
 20
-90.2531
 30
0.0
 10
152.5729
 20
-89.6589
 30
0.0
 10
152.5729
 20
-89.6589
 30
0.0
 10
153.7612
 20
-88.3986
 30
0.0
 10
154.1274
 20
-86.933
 30
0.0
 10
153.4453
 20
-84.8879
 30
0.0
 10
153.4453
 20
-84.8879
 30
0.0
 10
154.8257
 20
-84.9663
 30
0.0
 10
156.6177
 20
-84.8054
 30
0.0
 10
157.645
 20
-82.7213
 30
0.0
 10
157.645
 20
-82.7213
 30
0.0
 10
157.0935
 20
-86.3842
 30
0.0
 10
157.9462
 20
-91.3203
 30
0.0
 10
159.1997
 20
-93.977
 30
0.0
  0
SPLINE
  5
C6
330
1F
100
AcDbEntity
  8
layer 1
 62
     7
100
AcDbSpline
210
0.0
220
0.0
230
1.0
 70
    11
 71
     3
 72
    16
 73
    12
 74
     0
 42
0.0000000001
 43
0.0000000001
 12
1.0
 22
0.0
 32
0.0
 13
1.0
 23
0.0
 33
0.0
 40
0.0
 40
0.0
 40
0.0
 40
0.0
 40
0.25
 40
0.25
 40
0.25
 40
0.25
 40
0.5
 40
0.5
 40
0.5
 40
0.5
 40
1.0
 40
1.0
 40
1.0
 40
1.0
 10
150.7249
 20
-87.6632
 30
0.0
 10
149.9905
 20
-88.8635
 30
0.0
 10
148.6142
 20
-89.4325
 30
0.0
 10
147.3021
 20
-90.2172
 30
0.0
 10
147.3021
 20
-90.2172
 30
0.0
 10
148.132
 20
-89.1967
 30
0.0
 10
148.513
 20
-87.6523
 30
0.0
 10
149.9322
 20
-86.8665
 30
0.0
 10
149.9322
 20
-86.8665
 30
0.0
 10
150.4012
 20
-86.68
 30
0.0
 10
150.9407
 20
-87.0729
 30
0.0
 10
150.7249
 20
-87.6632
 30
0.0
  0
SPLINE
  5
C7
330
1F
100
AcDbEntity
  8
layer 1
 62
     7
100
AcDbSpline
210
0.0
220
0.0
230
1.0
 70
    11
 71
     3
 72
    32
 73
    28
 74
     0
 42
0.0000000001
 43
0.0000000001
 12
1.0
 22
0.0
 32
0.0
 13
1.0
 23
0.0
 33
0.0
 40
0.0
 40
0.0
 40
0.0
 40
0.0
 40
0.125
 40
0.125
 40
0.125
 40
0.125
 40
0.25
 40
0.25
 40
0.25
 40
0.25
 40
0.375
 40
0.375
 40
0.375
 40
0.375
 40
0.5
 40
0.5
 40
0.5
 40
0.5
 40
0.625
 40
0.625
 40
0.625
 40
0.625
 40
0.75
 40
0.75
 40
0.75
 40
0.75
 40
1.0
 40
1.0
 40
1.0
 40
1.0
 10
138.1394
 20
-96.1077
 30
0.0
 10
142.8814
 20
-94.7686
 30
0.0
 10
143.1689
 20
-91.6628
 30
0.0
 10
143.3876
 20
-89.8469
 30
0.0
 10
143.3876
 20
-89.8469
 30
0.0
 10
145.1158
 20
-89.6644
 30
0.0
 10
146.3042
 20
-90.6968
 30
0.0
 10
146.2096
 20
-92.4848
 30
0.0
 10
146.2096
 20
-92.4848
 30
0.0
 10
142.6201
 20
-93.4855
 30
0.0
 10
140.635
 20
-94.9924
 30
0.0
 10
139.6384
 20
-97.7118
 30
0.0
 10
139.6384
 20
-97.7118
 30
0.0
 10
137.3334
 20
-96.3035
 30
0.0
 10
134.6487
 20
-96.9031
 30
0.0
 10
133.6883
 20
-99.2252
 30
0.0
 10
133.6883
 20
-99.2252
 30
0.0
 10
132.7329
 20
-96.2343
 30
0.0
 10
128.9609
 20
-94.5807
 30
0.0
 10
127.3234
 20
-96.2356
 30
0.0
 10
127.3234
 20
-96.2356
 30
0.0
 10
127.3234
 20
-96.2356
 30
0.0
 10
127.3262
 20
-89.1606
 30
0.0
 10
127.3262
 20
-89.1606
 30
0.0
 10
127.3262
 20
-89.1606
 30
0.0
 10
128.2215
 20
-94.6032
 30
0.0
 10
133.8827
 20
-96.8802
 30
0.0
 10
138.1394
 20
-96.1077
 30
0.0
  0
SPLINE
  5
C8
330
1F
100
AcDbEntity
  8
layer 1
 62
     7
100
AcDbSpline
210
0.0
220
0.0
230
1.0
 70
    11
 71
     3
 72
    52
 73
    48
 74
     0
 42
0.0000000001
 43
0.0000000001
 12
1.0
 22
0.0
 32
0.0
 13
1.0
 23
0.0
 33
0.0
 40
0.0
 40
0.0
 40
0.0
 40
0.0
 40
0.0769230769230769
 40
0.0769230769230769
 40
0.0769230769230769
 40
0.0769230769230769
 40
0.1538461538461539
 40
0.1538461538461539
 40
0.1538461538461539
 40
0.1538461538461539
 40
0.2307692307692308
 40
0.2307692307692308
 40
0.2307692307692308
 40
0.2307692307692308
 40
0.3076923076923077
 40
0.3076923076923077
 40
0.3076923076923077
 40
0.3076923076923077
 40
0.3846153846153846
 40
0.3846153846153846
 40
0.3846153846153846
 40
0.3846153846153846
 40
0.4615384615384616
 40
0.4615384615384616
 40
0.4615384615384616
 40
0.4615384615384616
 40
0.5384615384615384
 40
0.5384615384615384
 40
0.5384615384615384
 40
0.5384615384615384
 40
0.6153846153846154
 40
0.6153846153846154
 40
0.6153846153846154
 40
0.6153846153846154
 40
0.6923076923076923
 40
0.6923076923076923
 40
0.6923076923076923
 40
0.6923076923076923
 40
0.7692307692307693
 40
0.7692307692307693
 40
0.7692307692307693
 40
0.7692307692307693
 40
0.8461538461538461
 40
0.8461538461538461
 40
0.8461538461538461
 40
0.8461538461538461
 40
1.0
 40
1.0
 40
1.0
 40
1.0
 10
132.6821
 20
-101.4064
 30
0.0
 10
134.1051
 20
-102.4842
 30
0.0
 10
134.3077
 20
-101.935
 30
0.0
 10
135.1351
 20
-101.5008
 30
0.0
 10
135.1351
 20
-101.5008
 30
0.0
 10
136.1171
 20
-100.9961
 30
0.0
 10
137.8757
 20
-99.0785
 30
0.0
 10
138.2049
 20
-99.304
 30
0.0
 10
138.2049
 20
-99.304
 30
0.0
 10
138.6299
 20
-99.5915
 30
0.0
 10
136.7191
 20
-101.4821
 30
0.0
 10
135.8665
 20
-102.3934
 30
0.0
 10
135.8665
 20
-102.3934
 30
0.0
 10
135.0206
 20
-103.1531
 30
0.0
 10
135.2658
 20
-103.8389
 30
0.0
 10
135.5959
 20
-104.2002
 30
0.0
 10
135.5959
 20
-104.2002
 30
0.0
 10
136.6366
 20
-105.6006
 30
0.0
 10
137.7011
 20
-106.8609
 30
0.0
 10
137.444
 20
-107.0727
 30
0.0
 10
137.444
 20
-107.0727
 30
0.0
 10
137.1881
 20
-107.2846
 30
0.0
 10
135.4428
 20
-105.635
 30
0.0
 10
134.7034
 20
-105.0061
 30
0.0
 10
134.7034
 20
-105.0061
 30
0.0
 10
134.1171
 20
-104.5453
 30
0.0
 10
133.7907
 20
-104.7452
 30
0.0
 10
133.1924
 20
-105.045
 30
0.0
 10
133.1924
 20
-105.045
 30
0.0
 10
132.1947
 20
-105.7736
 30
0.0
 10
130.7438
 20
-107.2913
 30
0.0
 10
130.4467
 20
-107.054
 30
0.0
 10
130.4467
 20
-107.054
 30
0.0
 10
130.1482
 20
-106.9077
 30
0.0
 10
131.3778
 20
-105.4421
 30
0.0
 10
132.3506
 20
-104.2469
 30
0.0
 10
132.3506
 20
-104.2469
 30
0.0
 10
133.2033
 20
-103.3754
 30
0.0
 10
132.8462
 20
-103.0984
 30
0.0
 10
132.5238
 20
-102.7001
 30
0.0
 10
132.5238
 20
-102.7001
 30
0.0
 10
131.8257
 20
-102.023
 30
0.0
 10
129.6353
 20
-99.9367
 30
0.0
 10
130.0094
 20
-99.6464
 30
0.0
 10
130.0094
 20
-99.6464
 30
0.0
 10
130.224
 20
-99.4797
 30
0.0
 10
132.0109
 20
-100.8306
 30
0.0
 10
132.6821
 20
-101.4064
 30
0.0
  0
SPLINE
  5
C9
330
1F
100
AcDbEntity
  8
layer 1
 62
     7
100
AcDbSpline
210
0.0
220
0.0
230
1.0
 70
    11
 71
     3
 72
    16
 73
    12
 74
     0
 42
0.0000000001
 43
0.0000000001
 12
1.0
 22
0.0
 32
0.0
 13
1.0
 23
0.0
 33
0.0
 40
0.0
 40
0.0
 40
0.0
 40
0.0
 40
0.25
 40
0.25
 40
0.25
 40
0.25
 40
0.5
 40
0.5
 40
0.5
 40
0.5
 40
1.0
 40
1.0
 40
1.0
 40
1.0
 10
129.8952
 20
-102.608
 30
0.0
 10
128.7877
 20
-102.7588
 30
0.0
 10
127.6566
 20
-103.9709
 30
0.0
 10
127.3262
 20
-105.8991
 30
0.0
 10
127.3262
 20
-105.8991
 30
0.0
 10
127.3262
 20
-105.8991
 30
0.0
 10
127.3262
 20
-100.535
 30
0.0
 10
127.3262
 20
-100.535
 30
0.0
 10
127.3262
 20
-100.535
 30
0.0
 10
127.8446
 20
-101.8259
 30
0.0
 10
128.7812
 20
-102.3737
 30
0.0
 10
129.8952
 20
-102.608
 30
0.0
  0
SPLINE
  5
CA
330
1F
100
AcDbEntity
  8
layer 1
 62
     7
100
AcDbSpline
210
0.0
220
0.0
230
1.0
 70
    11
 71
     3
 72
    20
 73
    16
 74
     0
 42
0.0000000001
 43
0.0000000001
 12
1.0
 22
0.0
 32
0.0
 13
1.0
 23
0.0
 33
0.0
 40
0.0
 40
0.0
 40
0.0
 40
0.0
 40
0.2
 40
0.2
 40
0.2
 40
0.2
 40
0.4
 40
0.4
 40
0.4
 40
0.4
 40
0.6
 40
0.6
 40
0.6
 40
0.6
 40
1.0
 40
1.0
 40
1.0
 40
1.0
 10
148.4372
 20
-110.2237
 30
0.0
 10
148.4372
 20
-110.2237
 30
0.0
 10
140.3137
 20
-110.2237
 30
0.0
 10
140.3137
 20
-110.2237
 30
0.0
 10
140.3137
 20
-110.2237
 30
0.0
 10
141.4103
 20
-108.0734
 30
0.0
 10
139.7183
 20
-103.9485
 30
0.0
 10
137.5306
 20
-103.6913
 30
0.0
 10
137.5306
 20
-103.6913
 30
0.0
 10
138.6005
 20
-103.518
 30
0.0
 10
139.4093
 20
-102.7332
 30
0.0
 10
139.6196
 20
-101.593
 30
0.0
 10
139.6196
 20
-101.593
 30
0.0
 10
140.6098
 20
-106.7463
 30
0.0
 10
144.0045
 20
-109.4988
 30
0.0
 10
148.4372
 20
-110.2237
 30
0.0
  0
SPLINE
  5
CB
330
1F
100
AcDbEntity
  8
layer 1
 62
     7
100
AcDbSpline
210
0.0
220
0.0
230
1.0
 70
    11
 71
     3
 72
    16
 73
    12
 74
     0
 42
0.0000000001
 43
0.0000000001
 12
1.0
 22
0.0
 32
0.0
 13
1.0
 23
0.0
 33
0.0
 40
0.0
 40
0.0
 40
0.0
 40
0.0
 40
0.25
 40
0.25
 40
0.25
 40
0.25
 40
0.5
 40
0.5
 40
0.5
 40
0.5
 40
1.0
 40
1.0
 40
1.0
 40
1.0
 10
137.0656
 20
-110.2237
 30
0.0
 10
137.0656
 20
-110.2237
 30
0.0
 10
130.3747
 20
-110.2237
 30
0.0
 10
130.3747
 20
-110.2237
 30
0.0
 10
130.3747
 20
-110.2237
 30
0.0
 10
132.0201
 20
-109.756
 30
0.0
 10
133.5324
 20
-108.8688
 30
0.0
 10
133.9479
 20
-106.9274
 30
0.0
 10
133.9479
 20
-106.9274
 30
0.0
 10
134.3705
 20
-108.8116
 30
0.0
 10
135.3002
 20
-109.9384
 30
0.0
 10
137.0656
 20
-110.2237
 30
0.0
  0
SPLINE
  5
CC
330
1F
100
AcDbEntity
  8
layer 1
 62
     7
100
AcDbSpline
210
0.0
220
0.0
230
1.0
 70
    11
 71
     3
 72
    20
 73
    16
 74
     0
 42
0.0000000001
 43
0.0000000001
 12
1.0
 22
0.0
 32
0.0
 13
1.0
 23
0.0
 33
0.0
 40
0.0
 40
0.0
 40
0.0
 40
0.0
 40
0.2
 40
0.2
 40
0.2
 40
0.2
 40
0.4
 40
0.4
 40
0.4
 40
0.4
 40
0.6
 40
0.6
 40
0.6
 40
0.6
 40
1.0
 40
1.0
 40
1.0
 40
1.0
 10
192.3711
 20
-82.9932
 30
0.0
 10
192.3711
 20
-82.9932
 30
0.0
 10
192.3711
 20
-77.6986
 30
0.0
 10
192.3711
 20
-77.6986
 30
0.0
 10
192.3711
 20
-77.6986
 30
0.0
 10
192.3711
 20
-77.6986
 30
0.0
 10
192.3711
 20
-72.4037
 30
0.0
 10
192.3711
 20
-72.4037
 30
0.0
 10
192.3711
 20
-72.4037
 30
0.0
 10
191.1015
 20
-75.5761
 30
0.0
 10
189.624
 20
-76.9592
 30
0.0
 10
186.4154
 20
-77.6986
 30
0.0
 10
186.4154
 20
-77.6986
 30
0.0
 10
189.624
 20
-78.4381
 30
0.0
 10
191.1015
 20
-79.8212
 30
0.0
 10
192.3711
 20
-82.9932
 30
0.0
  0
SPLINE
  5
CD
330
1F
100
AcDbEntity
  8
layer 1
 62
     7
100
AcDbSpline
210
0.0
220
0.0
230
1.0
 70
    11
 71
     3
 72
    60
 73
    56
 74
     0
 42
0.0000000001
 43
0.0000000001
 12
1.0
 22
0.0
 32
0.0
 13
1.0
 23
0.0
 33
0.0
 40
0.0
 40
0.0
 40
0.0
 40
0.0
 40
0.0666666666666667
 40
0.0666666666666667
 40
0.0666666666666667
 40
0.0666666666666667
 40
0.1333333333333333
 40
0.1333333333333333
 40
0.1333333333333333
 40
0.1333333333333333
 40
0.2
 40
0.2
 40
0.2
 40
0.2
 40
0.2666666666666667
 40
0.2666666666666667
 40
0.2666666666666667
 40
0.2666666666666667
 40
0.3333333333333333
 40
0.3333333333333333
 40
0.3333333333333333
 40
0.3333333333333333
 40
0.4
 40
0.4
 40
0.4
 40
0.4
 40
0.4666666666666667
 40
0.4666666666666667
 40
0.4666666666666667
 40
0.4666666666666667
 40
0.5333333333333333
 40
0.5333333333333333
 40
0.5333333333333333
 40
0.5333333333333333
 40
0.6
 40
0.6
 40
0.6
 40
0.6
 40
0.6666666666666666
 40
0.6666666666666666
 40
0.6666666666666666
 40
0.6666666666666666
 40
0.7333333333333333
 40
0.7333333333333333
 40
0.7333333333333333
 40
0.7333333333333333
 40
0.8
 40
0.8
 40
0.8
 40
0.8
 40
0.8666666666666667
 40
0.8666666666666667
 40
0.8666666666666667
 40
0.8666666666666667
 40
1.0
 40
1.0
 40
1.0
 40
1.0
 10
173.7079
 20
-79.4641
 30
0.0
 10
170.4915
 20
-80.6446
 30
0.0
 10
168.6008
 20
-80.6685
 30
0.0
 10
164.837
 20
-80.1582
 30
0.0
 10
164.837
 20
-80.1582
 30
0.0
 10
166.2453
 20
-80.7922
 30
0.0
 10
167.0953
 20
-82.6324
 30
0.0
 10
167.1008
 20
-84.2071
 30
0.0
 10
167.1008
 20
-84.2071
 30
0.0
 10
168.7636
 20
-83.3609
 30
0.0
 10
170.5181
 20
-83.0174
 30
0.0
 10
171.6065
 20
-84.1658
 30
0.0
 10
171.6065
 20
-84.1658
 30
0.0
 10
171.9438
 20
-82.8267
 30
0.0
 10
173.9196
 20
-82.0314
 30
0.0
 10
175.2877
 20
-81.942
 30
0.0
 10
175.2877
 20
-81.942
 30
0.0
 10
173.817
 20
-85.3129
 30
0.0
 10
175.2665
 20
-87.3181
 30
0.0
 10
176.9413
 20
-87.8311
 30
0.0
 10
176.9413
 20
-87.8311
 30
0.0
 10
178.2418
 20
-84.0178
 30
0.0
 10
181.1983
 20
-84.0632
 30
0.0
 10
183.0354
 20
-85.6608
 30
0.0
 10
183.0354
 20
-85.6608
 30
0.0
 10
185.4802
 20
-87.903
 30
0.0
 10
182.4146
 20
-91.4138
 30
0.0
 10
180.0164
 20
-89.3673
 30
0.0
 10
180.0164
 20
-89.3673
 30
0.0
 10
179.001
 20
-93.3164
 30
0.0
 10
185.2166
 20
-94.5981
 30
0.0
 10
187.235
 20
-91.2433
 30
0.0
 10
187.235
 20
-91.2433
 30
0.0
 10
185.6617
 20
-91.4857
 30
0.0
 10
185.0712
 20
-90.6863
 30
0.0
 10
185.1964
 20
-89.6258
 30
0.0
 10
185.1964
 20
-89.6258
 30
0.0
 10
189.9982
 20
-89.8308
 30
0.0
 10
189.3562
 20
-82.647
 30
0.0
 10
187.1682
 20
-81.4492
 30
0.0
 10
187.1682
 20
-81.4492
 30
0.0
 10
186.8858
 20
-83.3824
 30
0.0
 10
185.4416
 20
-84.0325
 30
0.0
 10
184.1066
 20
-83.5901
 30
0.0
 10
184.1066
 20
-83.5901
 30
0.0
 10
182.256
 20
-82.9492
 30
0.0
 10
182.2201
 20
-81.5519
 30
0.0
 10
182.669
 20
-80.2315
 30
0.0
 10
182.669
 20
-80.2315
 30
0.0
 10
182.3279
 20
-80.2407
 30
0.0
 10
181.4619
 20
-80.166
 30
0.0
 10
180.0495
 20
-79.5145
 30
0.0
 10
180.0495
 20
-79.5145
 30
0.0
 10
177.5487
 20
-78.7673
 30
0.0
 10
175.7489
 20
-78.7563
 30
0.0
 10
173.7079
 20
-79.4641
 30
0.0
  0
SPLINE
  5
CE
330
1F
100
AcDbEntity
  8
layer 1
 62
     7
100
AcDbSpline
210
0.0
220
0.0
230
1.0
 70
    11
 71
     3
 72
    60
 73
    56
 74
     0
 42
0.0000000001
 43
0.0000000001
 12
1.0
 22
0.0
 32
0.0
 13
1.0
 23
0.0
 33
0.0
 40
0.0
 40
0.0
 40
0.0
 40
0.0
 40
0.0666666666666667
 40
0.0666666666666667
 40
0.0666666666666667
 40
0.0666666666666667
 40
0.1333333333333333
 40
0.1333333333333333
 40
0.1333333333333333
 40
0.1333333333333333
 40
0.2
 40
0.2
 40
0.2
 40
0.2
 40
0.2666666666666667
 40
0.2666666666666667
 40
0.2666666666666667
 40
0.2666666666666667
 40
0.3333333333333333
 40
0.3333333333333333
 40
0.3333333333333333
 40
0.3333333333333333
 40
0.4
 40
0.4
 40
0.4
 40
0.4
 40
0.4666666666666667
 40
0.4666666666666667
 40
0.4666666666666667
 40
0.4666666666666667
 40
0.5333333333333333
 40
0.5333333333333333
 40
0.5333333333333333
 40
0.5333333333333333
 40
0.6
 40
0.6
 40
0.6
 40
0.6
 40
0.6666666666666666
 40
0.6666666666666666
 40
0.6666666666666666
 40
0.6666666666666666
 40
0.7333333333333333
 40
0.7333333333333333
 40
0.7333333333333333
 40
0.7333333333333333
 40
0.8
 40
0.8
 40
0.8
 40
0.8
 40
0.8666666666666667
 40
0.8666666666666667
 40
0.8666666666666667
 40
0.8666666666666667
 40
1.0
 40
1.0
 40
1.0
 40
1.0
 10
160.4975
 20
-93.977
 30
0.0
 10
161.826
 20
-94.8245
 30
0.0
 10
161.9484
 20
-95.9198
 30
0.0
 10
162.488
 20
-98.4697
 30
0.0
 10
162.488
 20
-98.4697
 30
0.0
 10
163.9775
 20
-97.5078
 30
0.0
 10
166.7744
 20
-98.1992
 30
0.0
 10
166.8753
 20
-100.5803
 30
0.0
 10
166.8753
 20
-100.5803
 30
0.0
 10
166.8716
 20
-103.5565
 30
0.0
 10
163.5034
 20
-103.838
 30
0.0
 10
162.5679
 20
-103.0517
 30
0.0
 10
162.5679
 20
-103.0517
 30
0.0
 10
163.4768
 20
-105.454
 30
0.0
 10
169.1111
 20
-108.3037
 30
0.0
 10
170.8257
 20
-106.9834
 30
0.0
 10
170.8257
 20
-106.9834
 30
0.0
 10
169.5215
 20
-106.1242
 30
0.0
 10
169.5068
 20
-104.6746
 30
0.0
 10
169.9372
 20
-103.6139
 30
0.0
 10
169.9372
 20
-103.6139
 30
0.0
 10
171.4946
 20
-104.4106
 30
0.0
 10
173.2188
 20
-104.748
 30
0.0
 10
175.0186
 20
-103.0531
 30
0.0
 10
175.0186
 20
-103.0531
 30
0.0
 10
177.8861
 20
-99.2797
 30
0.0
 10
173.9595
 20
-96.4007
 30
0.0
 10
172.8111
 20
-97.0003
 30
0.0
 10
172.8111
 20
-97.0003
 30
0.0
 10
174.0077
 20
-101.3542
 30
0.0
 10
168.5115
 20
-101.2249
 30
0.0
 10
167.9815
 20
-98.0607
 30
0.0
 10
167.9815
 20
-98.0607
 30
0.0
 10
167.8266
 20
-96.6194
 30
0.0
 10
168.0251
 20
-94.5353
 30
0.0
 10
169.7267
 20
-93.7707
 30
0.0
 10
169.7267
 20
-93.7707
 30
0.0
 10
168.5954
 20
-93.067
 30
0.0
 10
166.1252
 20
-93.6213
 30
0.0
 10
165.3698
 20
-94.0118
 30
0.0
 10
165.3698
 20
-94.0118
 30
0.0
 10
164.4492
 20
-92.5421
 30
0.0
 10
166.2239
 20
-90.2531
 30
0.0
 10
167.1247
 20
-89.6589
 30
0.0
 10
167.1247
 20
-89.6589
 30
0.0
 10
165.936
 20
-88.3986
 30
0.0
 10
165.5697
 20
-86.933
 30
0.0
 10
166.2518
 20
-84.8879
 30
0.0
 10
166.2518
 20
-84.8879
 30
0.0
 10
164.8715
 20
-84.9663
 30
0.0
 10
163.0794
 20
-84.8054
 30
0.0
 10
162.0524
 20
-82.7213
 30
0.0
 10
162.0524
 20
-82.7213
 30
0.0
 10
162.604
 20
-86.3842
 30
0.0
 10
161.7513
 20
-91.3203
 30
0.0
 10
160.4975
 20
-93.977
 30
0.0
  0
SPLINE
  5
CF
330
1F
100
AcDbEntity
  8
layer 1
 62
     7
100
AcDbSpline
210
0.0
220
0.0
230
1.0
 70
    11
 71
     3
 72
    16
 73
    12
 74
     0
 42
0.0000000001
 43
0.0000000001
 12
1.0
 22
0.0
 32
0.0
 13
1.0
 23
0.0
 33
0.0
 40
0.0
 40
0.0
 40
0.0
 40
0.0
 40
0.25
 40
0.25
 40
0.25
 40
0.25
 40
0.5
 40
0.5
 40
0.5
 40
0.5
 40
1.0
 40
1.0
 40
1.0
 40
1.0
 10
168.9726
 20
-87.6632
 30
0.0
 10
169.7066
 20
-88.8635
 30
0.0
 10
171.0829
 20
-89.4325
 30
0.0
 10
172.3954
 20
-90.2172
 30
0.0
 10
172.3954
 20
-90.2172
 30
0.0
 10
171.5652
 20
-89.1967
 30
0.0
 10
171.1841
 20
-87.6523
 30
0.0
 10
169.7653
 20
-86.8665
 30
0.0
 10
169.7653
 20
-86.8665
 30
0.0
 10
169.2963
 20
-86.68
 30
0.0
 10
168.7567
 20
-87.0729
 30
0.0
 10
168.9726
 20
-87.6632
 30
0.0
  0
SPLINE
  5
D0
330
1F
100
AcDbEntity
  8
layer 1
 62
     7
100
AcDbSpline
210
0.0
220
0.0
230
1.0
 70
    11
 71
     3
 72
    32
 73
    28
 74
     0
 42
0.0000000001
 43
0.0000000001
 12
1.0
 22
0.0
 32
0.0
 13
1.0
 23
0.0
 33
0.0
 40
0.0
 40
0.0
 40
0.0
 40
0.0
 40
0.125
 40
0.125
 40
0.125
 40
0.125
 40
0.25
 40
0.25
 40
0.25
 40
0.25
 40
0.375
 40
0.375
 40
0.375
 40
0.375
 40
0.5
 40
0.5
 40
0.5
 40
0.5
 40
0.625
 40
0.625
 40
0.625
 40
0.625
 40
0.75
 40
0.75
 40
0.75
 40
0.75
 40
1.0
 40
1.0
 40
1.0
 40
1.0
 10
181.5577
 20
-96.1077
 30
0.0
 10
176.8161
 20
-94.7686
 30
0.0
 10
176.5282
 20
-91.6628
 30
0.0
 10
176.3099
 20
-89.8469
 30
0.0
 10
176.3099
 20
-89.8469
 30
0.0
 10
174.5817
 20
-89.6644
 30
0.0
 10
173.3934
 20
-90.6968
 30
0.0
 10
173.4878
 20
-92.4848
 30
0.0
 10
173.4878
 20
-92.4848
 30
0.0
 10
177.076
 20
-93.4855
 30
0.0
 10
179.0624
 20
-94.9924
 30
0.0
 10
180.059
 20
-97.7118
 30
0.0
 10
180.059
 20
-97.7118
 30
0.0
 10
182.3641
 20
-96.3035
 30
0.0
 10
185.0487
 20
-96.9031
 30
0.0
 10
186.0078
 20
-99.2252
 30
0.0
 10
186.0078
 20
-99.2252
 30
0.0
 10
186.9632
 20
-96.2343
 30
0.0
 10
190.7362
 20
-94.5807
 30
0.0
 10
192.3738
 20
-96.2356
 30
0.0
 10
192.3738
 20
-96.2356
 30
0.0
 10
192.3738
 20
-96.2356
 30
0.0
 10
192.3711
 20
-89.1606
 30
0.0
 10
192.3711
 20
-89.1606
 30
0.0
 10
192.3711
 20
-89.1606
 30
0.0
 10
191.4757
 20
-94.6032
 30
0.0
 10
185.8147
 20
-96.8802
 30
0.0
 10
181.5577
 20
-96.1077
 30
0.0
  0
SPLINE
  5
D1
330
1F
100
AcDbEntity
  8
layer 1
 62
     7
100
AcDbSpline
210
0.0
220
0.0
230
1.0
 70
    11
 71
     3
 72
    52
 73
    48
 74
     0
 42
0.0000000001
 43
0.0000000001
 12
1.0
 22
0.0
 32
0.0
 13
1.0
 23
0.0
 33
0.0
 40
0.0
 40
0.0
 40
0.0
 40
0.0
 40
0.0769230769230769
 40
0.0769230769230769
 40
0.0769230769230769
 40
0.0769230769230769
 40
0.1538461538461539
 40
0.1538461538461539
 40
0.1538461538461539
 40
0.1538461538461539
 40
0.2307692307692308
 40
0.2307692307692308
 40
0.2307692307692308
 40
0.2307692307692308
 40
0.3076923076923077
 40
0.3076923076923077
 40
0.3076923076923077
 40
0.3076923076923077
 40
0.3846153846153846
 40
0.3846153846153846
 40
0.3846153846153846
 40
0.3846153846153846
 40
0.4615384615384616
 40
0.4615384615384616
 40
0.4615384615384616
 40
0.4615384615384616
 40
0.5384615384615384
 40
0.5384615384615384
 40
0.5384615384615384
 40
0.5384615384615384
 40
0.6153846153846154
 40
0.6153846153846154
 40
0.6153846153846154
 40
0.6153846153846154
 40
0.6923076923076923
 40
0.6923076923076923
 40
0.6923076923076923
 40
0.6923076923076923
 40
0.7692307692307693
 40
0.7692307692307693
 40
0.7692307692307693
 40
0.7692307692307693
 40
0.8461538461538461
 40
0.8461538461538461
 40
0.8461538461538461
 40
0.8461538461538461
 40
1.0
 40
1.0
 40
1.0
 40
1.0
 10
187.0151
 20
-101.4064
 30
0.0
 10
185.5921
 20
-102.4842
 30
0.0
 10
185.3898
 20
-101.935
 30
0.0
 10
184.5623
 20
-101.5008
 30
0.0
 10
184.5623
 20
-101.5008
 30
0.0
 10
183.5804
 20
-100.9961
 30
0.0
 10
181.8218
 20
-99.0785
 30
0.0
 10
181.4926
 20
-99.304
 30
0.0
 10
181.4926
 20
-99.304
 30
0.0
 10
181.0677
 20
-99.5915
 30
0.0
 10
182.978
 20
-101.4821
 30
0.0
 10
183.8307
 20
-102.3934
 30
0.0
 10
183.8307
 20
-102.3934
 30
0.0
 10
184.677
 20
-103.1531
 30
0.0
 10
184.4317
 20
-103.8389
 30
0.0
 10
184.1012
 20
-104.2002
 30
0.0
 10
184.1012
 20
-104.2002
 30
0.0
 10
183.0609
 20
-105.6006
 30
0.0
 10
181.996
 20
-106.8609
 30
0.0
 10
182.2518
 20
-107.0727
 30
0.0
 10
182.2518
 20
-107.0727
 30
0.0
 10
182.509
 20
-107.2846
 30
0.0
 10
184.2546
 20
-105.635
 30
0.0
 10
184.9938
 20
-105.0061
 30
0.0
 10
184.9938
 20
-105.0061
 30
0.0
 10
185.5802
 20
-104.5453
 30
0.0
 10
185.9065
 20
-104.7452
 30
0.0
 10
186.5034
 20
-105.045
 30
0.0
 10
186.5034
 20
-105.045
 30
0.0
 10
187.5028
 20
-105.7736
 30
0.0
 10
188.9538
 20
-107.2913
 30
0.0
 10
189.2508
 20
-107.054
 30
0.0
 10
189.2508
 20
-107.054
 30
0.0
 10
189.5493
 20
-106.9077
 30
0.0
 10
188.3193
 20
-105.4421
 30
0.0
 10
187.3469
 20
-104.2469
 30
0.0
 10
187.3469
 20
-104.2469
 30
0.0
 10
186.4929
 20
-103.3754
 30
0.0
 10
186.8513
 20
-103.0984
 30
0.0
 10
187.1736
 20
-102.7001
 30
0.0
 10
187.1736
 20
-102.7001
 30
0.0
 10
187.8719
 20
-102.023
 30
0.0
 10
190.0623
 20
-99.9367
 30
0.0
 10
189.6877
 20
-99.6464
 30
0.0
 10
189.6877
 20
-99.6464
 30
0.0
 10
189.4733
 20
-99.4797
 30
0.0
 10
187.6866
 20
-100.8306
 30
0.0
 10
187.0151
 20
-101.4064
 30
0.0
  0
SPLINE
  5
D2
330
1F
100
AcDbEntity
  8
layer 1
 62
     7
100
AcDbSpline
210
0.0
220
0.0
230
1.0
 70
    11
 71
     3
 72
    16
 73
    12
 74
     0
 42
0.0000000001
 43
0.0000000001
 12
1.0
 22
0.0
 32
0.0
 13
1.0
 23
0.0
 33
0.0
 40
0.0
 40
0.0
 40
0.0
 40
0.0
 40
0.25
 40
0.25
 40
0.25
 40
0.25
 40
0.5
 40
0.5
 40
0.5
 40
0.5
 40
1.0
 40
1.0
 40
1.0
 40
1.0
 10
189.8024
 20
-102.608
 30
0.0
 10
190.9095
 20
-102.7588
 30
0.0
 10
192.0409
 20
-103.9709
 30
0.0
 10
192.371
 20
-105.8991
 30
0.0
 10
192.371
 20
-105.8991
 30
0.0
 10
192.371
 20
-105.8991
 30
0.0
 10
192.3711
 20
-100.535
 30
0.0
 10
192.3711
 20
-100.535
 30
0.0
 10
192.3711
 20
-100.535
 30
0.0
 10
191.8529
 20
-101.8259
 30
0.0
 10
190.9163
 20
-102.3737
 30
0.0
 10
189.8024
 20
-102.608
 30
0.0
  0
SPLINE
  5
D3
330
1F
100
AcDbEntity
  8
layer 1
 62
     7
100
AcDbSpline
210
0.0
220
0.0
230
1.0
 70
    11
 71
     3
 72
    20
 73
    16
 74
     0
 42
0.0000000001
 43
0.0000000001
 12
1.0
 22
0.0
 32
0.0
 13
1.0
 23
0.0
 33
0.0
 40
0.0
 40
0.0
 40
0.0
 40
0.0
 40
0.2
 40
0.2
 40
0.2
 40
0.2
 40
0.4
 40
0.4
 40
0.4
 40
0.4
 40
0.6
 40
0.6
 40
0.6
 40
0.6
 40
1.0
 40
1.0
 40
1.0
 40
1.0
 10
171.2602
 20
-110.2237
 30
0.0
 10
171.2602
 20
-110.2237
 30
0.0
 10
179.3834
 20
-110.2237
 30
0.0
 10
179.3834
 20
-110.2237
 30
0.0
 10
179.3834
 20
-110.2237
 30
0.0
 10
178.2868
 20
-108.0734
 30
0.0
 10
179.9789
 20
-103.9485
 30
0.0
 10
182.1666
 20
-103.6913
 30
0.0
 10
182.1666
 20
-103.6913
 30
0.0
 10
181.097
 20
-103.518
 30
0.0
 10
180.2869
 20
-102.7332
 30
0.0
 10
180.0775
 20
-101.593
 30
0.0
 10
180.0775
 20
-101.593
 30
0.0
 10
179.0877
 20
-106.7463
 30
0.0
 10
175.6929
 20
-109.4988
 30
0.0
 10
171.2602
 20
-110.2237
 30
0.0
  0
SPLINE
  5
D4
330
1F
100
AcDbEntity
  8
layer 1
 62
     7
100
AcDbSpline
210
0.0
220
0.0
230
1.0
 70
    11
 71
     3
 72
    16
 73
    12
 74
     0
 42
0.0000000001
 43
0.0000000001
 12
1.0
 22
0.0
 32
0.0
 13
1.0
 23
0.0
 33
0.0
 40
0.0
 40
0.0
 40
0.0
 40
0.0
 40
0.25
 40
0.25
 40
0.25
 40
0.25
 40
0.5
 40
0.5
 40
0.5
 40
0.5
 40
1.0
 40
1.0
 40
1.0
 40
1.0
 10
164.6559
 20
-110.2237
 30
0.0
 10
164.6559
 20
-110.2237
 30
0.0
 10
155.0416
 20
-110.2237
 30
0.0
 10
155.0416
 20
-110.2237
 30
0.0
 10
155.0416
 20
-110.2237
 30
0.0
 10
157.3545
 20
-109.2883
 30
0.0
 10
158.7536
 20
-108.1812
 30
0.0
 10
159.8487
 20
-106.2706
 30
0.0
 10
159.8487
 20
-106.2706
 30
0.0
 10
160.944
 20
-108.1812
 30
0.0
 10
162.3427
 20
-109.2883
 30
0.0
 10
164.6559
 20
-110.2237
 30
0.0
  0
SPLINE
  5
D5
330
1F
100
AcDbEntity
  8
layer 1
 62
     7
100
AcDbSpline
210
0.0
220
0.0
230
1.0
 70
    11
 71
     3
 72
    16
 73
    12
 74
     0
 42
0.0000000001
 43
0.0000000001
 12
1.0
 22
0.0
 32
0.0
 13
1.0
 23
0.0
 33
0.0
 40
0.0
 40
0.0
 40
0.0
 40
0.0
 40
0.25
 40
0.25
 40
0.25
 40
0.25
 40
0.5
 40
0.5
 40
0.5
 40
0.5
 40
1.0
 40
1.0
 40
1.0
 40
1.0
 10
182.6305
 20
-110.2237
 30
0.0
 10
182.6305
 20
-110.2237
 30
0.0
 10
189.3228
 20
-110.2237
 30
0.0
 10
189.3228
 20
-110.2237
 30
0.0
 10
189.3228
 20
-110.2237
 30
0.0
 10
187.6775
 20
-109.756
 30
0.0
 10
186.165
 20
-108.8688
 30
0.0
 10
185.7493
 20
-106.9274
 30
0.0
 10
185.7493
 20
-106.9274
 30
0.0
 10
185.3271
 20
-108.8116
 30
0.0
 10
184.3969
 20
-109.9384
 30
0.0
 10
182.6305
 20
-110.2237
 30
0.0
  0
ENDSEC
  0
SECTION
  2
OBJECTS
  0
DICTIONARY
  5
C
330
0
100
AcDbDictionary
281
     1
  3
ACAD_GROUP
350
D
  3
ACAD_LAYOUT
350
1A
  3
ACAD_MATERIAL
350
3B
  3
ACAD_MLEADERSTYLE
350
F8
  3
ACAD_MLINESTYLE
350
17
  3
ACAD_PLOTSETTINGS
350
19
  3
ACAD_PLOTSTYLENAME
350
E
  3
ACAD_TABLESTYLE
350
F7
  3
ACAD_VISUALSTYLE
350
2A
  0
DICTIONARY
  5
D
102
{ACAD_REACTORS
330
C
102
}
330
C
100
AcDbDictionary
281
     1
  0
DICTIONARY
  5
1A
102
{ACAD_REACTORS
330
C
102
}
330
C
100
AcDbDictionary
281
     1
  3
Layout1
350
1E
  3
Layout2
350
26
  3
Model
350
22
  0
DICTIONARY
  5
3B
102
{ACAD_REACTORS
330
C
102
}
330
C
100
AcDbDictionary
281
     1
  3
ByBlock
350
3D
  3
ByLayer
350
3C
  3
Global
350
3E
  0
DICTIONARY
  5
F8
102
{ACAD_REACTORS
330
C
102
}
330
C
100
AcDbDictionary
281
     1
  0
DICTIONARY
  5
17
102
{ACAD_REACTORS
330
C
102
}
330
C
100
AcDbDictionary
281
     1
  3
Standard
350
18
  0
DICTIONARY
  5
19
102
{ACAD_REACTORS
330
C
102
}
330
C
100
AcDbDictionary
281
     1
  0
ACDBDICTIONARYWDFLT
  5
E
102
{ACAD_REACTORS
330
C
102
}
330
C
100
AcDbDictionary
281
     1
  3
Normal
350
F
100
AcDbDictionaryWithDefault
340
F
  0
DICTIONARY
  5
F7
102
{ACAD_REACTORS
330
C
102
}
330
C
100
AcDbDictionary
281
     1
  0
DICTIONARY
  5
2A
102
{ACAD_REACTORS
330
C
102
}
330
C
100
AcDbDictionary
281
     1
  3
2dWireframe
350
2F
  3
3D Hidden
350
31
  3
3dWireframe
350
30
  3
Basic
350
32
  3
Brighten
350
36
  3
ColorChange
350
3A
  3
Conceptual
350
34
  3
Dim
350
35
  3
Facepattern
350
39
  3
Flat
350
2B
  3
FlatWithEdges
350
2C
  3
Gouraud
350
2D
  3
GouraudWithEdges
350
2E
  3
Linepattern
350
38
  3
Realistic
350
33
  3
Thicken
350
37
  0
LAYOUT
  5
1E
102
{ACAD_REACTORS
330
1A
102
}
330
1A
100
AcDbPlotSettings
  1

  2
none_device
  4

  6

 40
0.0
 41
0.0
 42
0.0
 43
0.0
 44
0.0
 45
0.0
 46
0.0
 47
0.0
 48
0.0
 49
0.0
140
0.0
141
0.0
142
1.0
143
1.0
 70
   688
 72
     0
 73
     0
 74
     5
  7

 75
    16
 76
     0
 77
     2
 78
   300
147
1.0
148
0.0
149
0.0
100
AcDbLayout
  1
Layout1
 70
     1
 71
     1
 10
0.0
 20
0.0
 11
12.0
 21
9.0
 12
0.0
 22
0.0
 32
0.0
 14
1.000000000000000E+20
 24
1.000000000000000E+20
 34
1.000000000000000E+20
 15
-1.000000000000000E+20
 25
-1.000000000000000E+20
 35
-1.000000000000000E+20
146
0.0
 13
0.0
 23
0.0
 33
0.0
 16
1.0
 26
0.0
 36
0.0
 17
0.0
 27
1.0
 37
0.0
 76
     0
330
1B
  0
LAYOUT
  5
26
102
{ACAD_REACTORS
330
1A
102
}
330
1A
100
AcDbPlotSettings
  1

  2
none_device
  4

  6

 40
0.0
 41
0.0
 42
0.0
 43
0.0
 44
0.0
 45
0.0
 46
0.0
 47
0.0
 48
0.0
 49
0.0
140
0.0
141
0.0
142
1.0
143
1.0
 70
   688
 72
     0
 73
     0
 74
     5
  7

 75
    16
 76
     0
 77
     2
 78
   300
147
1.0
148
0.0
149
0.0
100
AcDbLayout
  1
Layout2
 70
     1
 71
     2
 10
0.0
 20
0.0
 11
0.0
 21
0.0
 12
0.0
 22
0.0
 32
0.0
 14
0.0
 24
0.0
 34
0.0
 15
0.0
 25
0.0
 35
0.0
146
0.0
 13
0.0
 23
0.0
 33
0.0
 16
1.0
 26
0.0
 36
0.0
 17
0.0
 27
1.0
 37
0.0
 76
     0
330
23
  0
LAYOUT
  5
22
102
{ACAD_REACTORS
330
1A
102
}
330
1A
100
AcDbPlotSettings
  1

  2
none_device
  4

  6

 40
0.0
 41
0.0
 42
0.0
 43
0.0
 44
0.0
 45
0.0
 46
0.0
 47
0.0
 48
0.0
 49
0.0
140
0.0
141
0.0
142
1.0
143
1.0
 70
  1712
 72
     0
 73
     0
 74
     0
  7

 75
     0
 76
     0
 77
     2
 78
   300
147
1.0
148
0.0
149
0.0
100
AcDbLayout
  1
Model
 70
     1
 71
     0
 10
0.0
 20
0.0
 11
12.0
 21
9.0
 12
0.0
 22
0.0
 32
0.0
 14
45.3015
 24
-114.5779
 34
0.0
 15
196.5881
 25
131.9824
 35
0.0
146
0.0
 13
0.0
 23
0.0
 33
0.0
 16
1.0
 26
0.0
 36
0.0
 17
0.0
 27
1.0
 37
0.0
 76
     0
330
1F
331
29
  0
MATERIAL
  5
3D
102
{ACAD_REACTORS
330
3B
102
}
330
3B
100
AcDbMaterial
  1
ByBlock
 72
     1
 94
      127
  0
MATERIAL
  5
3C
102
{ACAD_REACTORS
330
3B
102
}
330
3B
100
AcDbMaterial
  1
ByLayer
 72
     1
 94
      127
  0
MATERIAL
  5
3E
102
{ACAD_REACTORS
330
3B
102
}
330
3B
100
AcDbMaterial
  1
Global
 72
     1
 94
      127
  0
MLINESTYLE
  5
18
102
{ACAD_REACTORS
330
17
102
}
330
17
100
AcDbMlineStyle
  2
Standard
 70
     0
  3

 62
   256
 51
90.0
 52
90.0
 71
     2
 49
0.5
 62
   256
  6
BYLAYER
 49
-0.5
 62
   256
  6
BYLAYER
  0
ACDBPLACEHOLDER
  5
F
102
{ACAD_REACTORS
330
E
102
}
330
E
  0
VISUALSTYLE
  5
2F
102
{ACAD_REACTORS
330
2A
102
}
102
{ACAD_XDICTIONARY
360
DF
102
}
330
2A
100
AcDbVisualStyle
  2
2dWireframe
 70
     4
 71
     0
 72
     2
 73
     0
 90
        0
 40
-0.6
 41
-30.0
 62
     5
 63
     7
421
 16777215
 74
     1
 91
        4
 64
     7
 65
   257
 75
     1
175
     1
 42
1.0
 92
        0
 66
   257
 43
1.0
 76
     1
 77
     6
 78
     2
 67
     7
 79
     5
170
     0
171
     0
290
     0
174
     0
 93
        1
 44
0.0
173
     0
291
     0
 45
0.0
  0
VISUALSTYLE
  5
31
102
{ACAD_REACTORS
330
2A
102
}
102
{ACAD_XDICTIONARY
360
E3
102
}
330
2A
100
AcDbVisualStyle
  2
3D Hidden
 70
     6
 71
     1
 72
     2
 73
     2
 90
        0
 40
-0.6
 41
-30.0
 62
     5
 63
     7
421
 16777215
 74
     2
 91
        2
 64
     7
 65
   257
 75
     2
175
     1
 42
40.0
 92
        0
 66
   257
 43
1.0
 76
     1
 77
     6
 78
     2
 67
     7
 79
     3
170
     0
171
     0
290
     0
174
     0
 93
        1
 44
0.0
173
     0
291
     0
 45
0.0
  0
VISUALSTYLE
  5
30
102
{ACAD_REACTORS
330
2A
102
}
102
{ACAD_XDICTIONARY
360
E1
102
}
330
2A
100
AcDbVisualStyle
  2
3dWireframe
 70
     5
 71
     0
 72
     2
 73
     0
 90
        0
 40
-0.6
 41
-30.0
 62
     5
 63
     7
421
 16777215
 74
     1
 91
        4
 64
     7
 65
   257
 75
     1
175
     1
 42
1.0
 92
        0
 66
   257
 43
1.0
 76
     1
 77
     6
 78
     2
 67
     7
 79
     5
170
     0
171
     0
290
     0
174
     0
 93
        1
 44
0.0
173
     0
291
     0
 45
0.0
  0
VISUALSTYLE
  5
32
102
{ACAD_REACTORS
330
2A
102
}
102
{ACAD_XDICTIONARY
360
E5
102
}
330
2A
100
AcDbVisualStyle
  2
Basic
 70
     7
 71
     1
 72
     0
 73
     1
 90
        0
 40
-0.6
 41
-30.0
 62
     5
 63
     7
421
 16777215
 74
     0
 91
        4
 64
     7
 65
   257
 75
     1
175
     1
 42
1.0
 92
        8
 66
     7
 43
1.0
 76
     1
 77
     6
 78
     2
 67
     7
 79
     5
170
     0
171
     0
290
     0
174
     0
 93
        1
 44
0.0
173
     0
291
     1
 45
0.0
  0
VISUALSTYLE
  5
36
102
{ACAD_REACTORS
330
2A
102
}
102
{ACAD_XDICTIONARY
360
ED
102
}
330
2A
100
AcDbVisualStyle
  2
Brighten
 70
    12
 71
     2
 72
     2
 73
     0
 90
        0
 40
-0.6
 41
-30.0
 62
     5
 63
     7
421
 16777215
 74
     1
 91
        4
 64
     7
 65
   257
 75
     1
175
     1
 42
1.0
 92
        8
 66
     7
 43
1.0
 76
     1
 77
     6
 78
     2
 67
     7
 79
     5
170
     0
171
     0
290
     0
174
     0
 93
        1
 44
50.0
173
     0
291
     1
 45
0.0
  0
VISUALSTYLE
  5
3A
102
{ACAD_REACTORS
330
2A
102
}
102
{ACAD_XDICTIONARY
360
F5
102
}
330
2A
100
AcDbVisualStyle
  2
ColorChange
 70
    16
 71
     2
 72
     2
 73
     3
 90
        0
 40
-0.6
 41
-30.0
 62
     5
 63
     8
421
  8421504
 74
     1
 91
        4
 64
     7
 65
   257
 75
     1
175
     1
 42
1.0
 92
        8
 66
     8
424
  8421504
 43
1.0
 76
     1
 77
     6
 78
     2
 67
     7
 79
     5
170
     0
171
     0
290
     0
174
     0
 93
        1
 44
0.0
173
     0
291
     1
 45
0.0
  0
VISUALSTYLE
  5
34
102
{ACAD_REACTORS
330
2A
102
}
102
{ACAD_XDICTIONARY
360
E9
102
}
330
2A
100
AcDbVisualStyle
  2
Conceptual
 70
     9
 71
     3
 72
     2
 73
     0
 90
        0
 40
-0.6
 41
-30.0
 62
     5
 63
     7
421
 16777215
 74
     2
 91
        2
 64
     7
 65
   257
 75
     1
175
     1
 42
40.0
 92
        8
 66
     7
 43
1.0
 76
     1
 77
     6
 78
     2
 67
     7
 79
     3
170
     0
171
     0
290
     0
174
     0
 93
        1
 44
0.0
173
     0
291
     0
 45
0.0
  0
VISUALSTYLE
  5
35
102
{ACAD_REACTORS
330
2A
102
}
102
{ACAD_XDICTIONARY
360
EB
102
}
330
2A
100
AcDbVisualStyle
  2
Dim
 70
    11
 71
     2
 72
     2
 73
     0
 90
        0
 40
-0.6
 41
-30.0
 62
     5
 63
     7
421
 16777215
 74
     1
 91
        4
 64
     7
 65
   257
 75
     1
175
     1
 42
1.0
 92
        8
 66
     7
 43
1.0
 76
     1
 77
     6
 78
     2
 67
     7
 79
     5
170
     0
171
     0
290
     0
174
     0
 93
        1
 44
-50.0
173
     0
291
     1
 45
0.0
  0
VISUALSTYLE
  5
39
102
{ACAD_REACTORS
330
2A
102
}
102
{ACAD_XDICTIONARY
360
F3
102
}
330
2A
100
AcDbVisualStyle
  2
Facepattern
 70
    15
 71
     2
 72
     2
 73
     0
 90
        0
 40
-0.6
 41
-30.0
 62
     5
 63
     7
421
 16777215
 74
     1
 91
        4
 64
     7
 65
   257
 75
     1
175
     1
 42
1.0
 92
        8
 66
     7
 43
1.0
 76
     1
 77
     6
 78
     2
 67
     7
 79
     5
170
     0
171
     0
290
     0
174
     0
 93
        1
 44
0.0
173
     0
291
     1
 45
0.0
  0
VISUALSTYLE
  5
2B
102
{ACAD_REACTORS
330
2A
102
}
102
{ACAD_XDICTIONARY
360
D7
102
}
330
2A
100
AcDbVisualStyle
  2
Flat
 70
     0
 71
     2
 72
     1
 73
     1
 90
        2
 40
-0.6
 41
30.0
 62
     5
 63
     7
421
 16777215
 74
     0
 91
        4
 64
     7
 65
   257
 75
     1
175
     1
 42
1.0
 92
        8
 66
     7
 43
1.0
 76
     1
 77
     6
 78
     2
 67
     7
 79
     5
170
     0
171
     0
290
     0
174
     0
 93
       13
 44
0.0
173
     0
291
     1
 45
0.0
  0
VISUALSTYLE
  5
2C
102
{ACAD_REACTORS
330
2A
102
}
102
{ACAD_XDICTIONARY
360
D9
102
}
330
2A
100
AcDbVisualStyle
  2
FlatWithEdges
 70
     1
 71
     2
 72
     1
 73
     1
 90
        2
 40
-0.6
 41
30.0
 62
     5
 63
     7
421
 16777215
 74
     1
 91
        4
 64
     7
 65
   257
 75
     1
175
     1
 42
1.0
 92
        0
 66
   257
 43
1.0
 76
     1
 77
     6
 78
     2
 67
     7
 79
     5
170
     0
171
     0
290
     0
174
     0
 93
       13
 44
0.0
173
     0
291
     1
 45
0.0
  0
VISUALSTYLE
  5
2D
102
{ACAD_REACTORS
330
2A
102
}
102
{ACAD_XDICTIONARY
360
DB
102
}
330
2A
100
AcDbVisualStyle
  2
Gouraud
 70
     2
 71
     2
 72
     2
 73
     1
 90
        2
 40
-0.6
 41
30.0
 62
     5
 63
     7
421
 16777215
 74
     0
 91
        4
 64
     7
 65
   257
 75
     1
175
     1
 42
1.0
 92
        0
 66
     7
 43
1.0
 76
     1
 77
     6
 78
     2
 67
     7
 79
     5
170
     0
171
     0
290
     0
174
     0
 93
       13
 44
0.0
173
     0
291
     1
 45
0.0
  0
VISUALSTYLE
  5
2E
102
{ACAD_REACTORS
330
2A
102
}
102
{ACAD_XDICTIONARY
360
DD
102
}
330
2A
100
AcDbVisualStyle
  2
GouraudWithEdges
 70
     3
 71
     2
 72
     2
 73
     1
 90
        2
 40
-0.6
 41
30.0
 62
     5
 63
     7
421
 16777215
 74
     1
 91
        4
 64
     7
 65
   257
 75
     1
175
     1
 42
1.0
 92
        0
 66
   257
 43
1.0
 76
     1
 77
     6
 78
     2
 67
     7
 79
     5
170
     0
171
     0
290
     0
174
     0
 93
       13
 44
0.0
173
     0
291
     1
 45
0.0
  0
VISUALSTYLE
  5
38
102
{ACAD_REACTORS
330
2A
102
}
102
{ACAD_XDICTIONARY
360
F1
102
}
330
2A
100
AcDbVisualStyle
  2
Linepattern
 70
    14
 71
     2
 72
     2
 73
     0
 90
        0
 40
-0.6
 41
-30.0
 62
     5
 63
     7
421
 16777215
 74
     1
 91
        4
 64
     7
 65
   257
 75
     7
175
     7
 42
1.0
 92
        8
 66
     7
 43
1.0
 76
     1
 77
     6
 78
     2
 67
     7
 79
     5
170
     0
171
     0
290
     0
174
     0
 93
        1
 44
0.0
173
     0
291
     1
 45
0.0
  0
VISUALSTYLE
  5
33
102
{ACAD_REACTORS
330
2A
102
}
102
{ACAD_XDICTIONARY
360
E7
102
}
330
2A
100
AcDbVisualStyle
  2
Realistic
 70
     8
 71
     2
 72
     2
 73
     0
 90
        0
 40
-0.6
 41
-30.0
 62
     5
 63
     7
421
 16777215
 74
     1
 91
        0
 64
     7
 65
   257
 75
     1
175
     1
 42
1.0
 92
        8
 66
     8
424
  7895160
 43
1.0
 76
     1
 77
     6
 78
     2
 67
     7
 79
     5
170
     0
171
     0
290
     0
174
     0
 93
       13
 44
0.0
173
     0
291
     0
 45
0.0
  0
VISUALSTYLE
  5
37
102
{ACAD_REACTORS
330
2A
102
}
102
{ACAD_XDICTIONARY
360
EF
102
}
330
2A
100
AcDbVisualStyle
  2
Thicken
 70
    13
 71
     2
 72
     2
 73
     0
 90
        0
 40
-0.6
 41
-30.0
 62
     5
 63
     7
421
 16777215
 74
     1
 91
        4
 64
     7
 65
   257
 75
     1
175
     1
 42
1.0
 92
       12
 66
     7
 43
1.0
 76
     1
 77
     6
 78
     2
 67
     7
 79
     5
170
     0
171
     0
290
     0
174
     0
 93
        1
 44
0.0
173
     0
291
     1
 45
0.0
  0
DICTIONARY
  5
DF
330
2F
100
AcDbDictionary
280
     1
281
     1
  3
ACAD_XREC_ROUNDTRIP
360
E0
  0
DICTIONARY
  5
E3
330
31
100
AcDbDictionary
280
     1
281
     1
  3
ACAD_XREC_ROUNDTRIP
360
E4
  0
DICTIONARY
  5
E1
330
30
100
AcDbDictionary
280
     1
281
     1
  3
ACAD_XREC_ROUNDTRIP
360
E2
  0
DICTIONARY
  5
E5
330
32
100
AcDbDictionary
280
     1
281
     1
  3
ACAD_XREC_ROUNDTRIP
360
E6
  0
DICTIONARY
  5
ED
330
36
100
AcDbDictionary
280
     1
281
     1
  3
ACAD_XREC_ROUNDTRIP
360
EE
  0
DICTIONARY
  5
F5
330
3A
100
AcDbDictionary
280
     1
281
     1
  3
ACAD_XREC_ROUNDTRIP
360
F6
  0
DICTIONARY
  5
E9
330
34
100
AcDbDictionary
280
     1
281
     1
  3
ACAD_XREC_ROUNDTRIP
360
EA
  0
DICTIONARY
  5
EB
330
35
100
AcDbDictionary
280
     1
281
     1
  3
ACAD_XREC_ROUNDTRIP
360
EC
  0
DICTIONARY
  5
F3
330
39
100
AcDbDictionary
280
     1
281
     1
  3
ACAD_XREC_ROUNDTRIP
360
F4
  0
DICTIONARY
  5
D7
330
2B
100
AcDbDictionary
280
     1
281
     1
  3
ACAD_XREC_ROUNDTRIP
360
D8
  0
DICTIONARY
  5
D9
330
2C
100
AcDbDictionary
280
     1
281
     1
  3
ACAD_XREC_ROUNDTRIP
360
DA
  0
DICTIONARY
  5
DB
330
2D
100
AcDbDictionary
280
     1
281
     1
  3
ACAD_XREC_ROUNDTRIP
360
DC
  0
DICTIONARY
  5
DD
330
2E
100
AcDbDictionary
280
     1
281
     1
  3
ACAD_XREC_ROUNDTRIP
360
DE
  0
DICTIONARY
  5
F1
330
38
100
AcDbDictionary
280
     1
281
     1
  3
ACAD_XREC_ROUNDTRIP
360
F2
  0
DICTIONARY
  5
E7
330
33
100
AcDbDictionary
280
     1
281
     1
  3
ACAD_XREC_ROUNDTRIP
360
E8
  0
DICTIONARY
  5
EF
330
37
100
AcDbDictionary
280
     1
281
     1
  3
ACAD_XREC_ROUNDTRIP
360
F0
  0
XRECORD
  5
E0
102
{ACAD_REACTORS
330
DF
102
}
330
DF
100
AcDbXrecord
280
     1
102
RTVSPropertyOp0
 70
     1
102
RTVSPropertyOp1
 70
     1
102
RTVSPropertyOp2
 70
     1
102
RTVSPropertyOp3
 70
     1
102
RTVSPropertyOp4
 70
     1
102
RTVSPropertyOp5
 70
     1
102
RTVSPropertyOp6
 70
     1
102
RTVSPropertyOp7
 70
     1
102
RTVSPropertyOp8
 70
     1
102
RTVSPropertyOp9
 70
     1
102
RTVSPropertyOp10
 70
     1
102
RTVSPropertyOp11
 70
     1
102
RTVSPropertyOp12
 70
     1
102
RTVSPropertyOp13
 70
     1
102
RTVSPropertyOp14
 70
     1
102
RTVSPropertyOp15
 70
     1
102
RTVSPropertyOp16
 70
     1
102
RTVSPropertyOp17
 70
     1
102
RTVSPropertyOp18
 70
     1
102
RTVSPropertyOp19
 70
     1
102
RTVSPropertyOp20
 70
     1
102
RTVSPropertyOp21
 70
     1
102
RTVSPropertyOp22
 70
     1
102
RTVSPropertyOp23
 70
     1
102
RTVSPropertyOp24
 70
     1
102
RTVSPropertyOp25
 70
     1
102
RTVSPropertyOp26
 70
     1
102
RTVSPropertyOp27
 70
     1
102
RTVSPropertyOp28
 70
     1
102
RTVSPropertyOp29
 70
     1
102
RTVSPropertyOp30
 70
     1
102
RTVSPropertyOp31
 70
     1
102
RTVSPropertyOp32
 70
     1
  0
XRECORD
  5
E4
102
{ACAD_REACTORS
330
E3
102
}
330
E3
100
AcDbXrecord
280
     1
102
RTVSPropertyOp0
 70
     1
102
RTVSPropertyOp1
 70
     1
102
RTVSPropertyOp2
 70
     1
102
RTVSPropertyOp3
 70
     1
102
RTVSPropertyOp4
 70
     1
102
RTVSPropertyOp5
 70
     1
102
RTVSPropertyOp6
 70
     1
102
RTVSPropertyOp7
 70
     1
102
RTVSPropertyOp8
 70
     1
102
RTVSPropertyOp9
 70
     1
102
RTVSPropertyOp10
 70
     1
102
RTVSPropertyOp11
 70
     1
102
RTVSPropertyOp12
 70
     1
102
RTVSPropertyOp13
 70
     1
102
RTVSPropertyOp14
 70
     1
102
RTVSPropertyOp15
 70
     1
102
RTVSPropertyOp16
 70
     1
102
RTVSPropertyOp17
 70
     1
102
RTVSPropertyOp18
 70
     1
102
RTVSPropertyOp19
 70
     1
102
RTVSPropertyOp20
 70
     1
102
RTVSPropertyOp21
 70
     1
102
RTVSPropertyOp22
 70
     1
102
RTVSPropertyOp23
 70
     1
102
RTVSPropertyOp24
 70
     1
102
RTVSPropertyOp25
 70
     1
102
RTVSPropertyOp26
 70
     1
102
RTVSPropertyOp27
 70
     1
102
RTVSPropertyOp28
 70
     1
102
RTVSPropertyOp29
 70
     1
102
RTVSPropertyOp30
 70
     1
102
RTVSPropertyOp31
 70
     1
102
RTVSPropertyOp32
 70
     1
  0
XRECORD
  5
E2
102
{ACAD_REACTORS
330
E1
102
}
330
E1
100
AcDbXrecord
280
     1
102
RTVSPropertyOp0
 70
     1
102
RTVSPropertyOp1
 70
     1
102
RTVSPropertyOp2
 70
     1
102
RTVSPropertyOp3
 70
     1
102
RTVSPropertyOp4
 70
     1
102
RTVSPropertyOp5
 70
     1
102
RTVSPropertyOp6
 70
     1
102
RTVSPropertyOp7
 70
     1
102
RTVSPropertyOp8
 70
     1
102
RTVSPropertyOp9
 70
     1
102
RTVSPropertyOp10
 70
     1
102
RTVSPropertyOp11
 70
     1
102
RTVSPropertyOp12
 70
     1
102
RTVSPropertyOp13
 70
     1
102
RTVSPropertyOp14
 70
     1
102
RTVSPropertyOp15
 70
     1
102
RTVSPropertyOp16
 70
     1
102
RTVSPropertyOp17
 70
     1
102
RTVSPropertyOp18
 70
     1
102
RTVSPropertyOp19
 70
     1
102
RTVSPropertyOp20
 70
     1
102
RTVSPropertyOp21
 70
     1
102
RTVSPropertyOp22
 70
     1
102
RTVSPropertyOp23
 70
     1
102
RTVSPropertyOp24
 70
     1
102
RTVSPropertyOp25
 70
     1
102
RTVSPropertyOp26
 70
     1
102
RTVSPropertyOp27
 70
     1
102
RTVSPropertyOp28
 70
     1
102
RTVSPropertyOp29
 70
     1
102
RTVSPropertyOp30
 70
     1
102
RTVSPropertyOp31
 70
     1
102
RTVSPropertyOp32
 70
     1
  0
XRECORD
  5
E6
102
{ACAD_REACTORS
330
E5
102
}
330
E5
100
AcDbXrecord
280
     1
102
RTVSPropertyOp0
 70
     1
102
RTVSPropertyOp1
 70
     1
102
RTVSPropertyOp2
 70
     1
102
RTVSPropertyOp3
 70
     1
102
RTVSPropertyOp4
 70
     1
102
RTVSPropertyOp5
 70
     1
102
RTVSPropertyOp6
 70
     1
102
RTVSPropertyOp7
 70
     1
102
RTVSPropertyOp8
 70
     1
102
RTVSPropertyOp9
 70
     1
102
RTVSPropertyOp10
 70
     1
102
RTVSPropertyOp11
 70
     1
102
RTVSPropertyOp12
 70
     1
102
RTVSPropertyOp13
 70
     1
102
RTVSPropertyOp14
 70
     1
102
RTVSPropertyOp15
 70
     1
102
RTVSPropertyOp16
 70
     1
102
RTVSPropertyOp17
 70
     1
102
RTVSPropertyOp18
 70
     1
102
RTVSPropertyOp19
 70
     1
102
RTVSPropertyOp20
 70
     1
102
RTVSPropertyOp21
 70
     1
102
RTVSPropertyOp22
 70
     1
102
RTVSPropertyOp23
 70
     1
102
RTVSPropertyOp24
 70
     1
102
RTVSPropertyOp25
 70
     1
102
RTVSPropertyOp26
 70
     1
102
RTVSPropertyOp27
 70
     1
102
RTVSPropertyOp28
 70
     1
102
RTVSPropertyOp29
 70
     1
102
RTVSPropertyOp30
 70
     1
102
RTVSPropertyOp31
 70
     1
102
RTVSPropertyOp32
 70
     1
  0
XRECORD
  5
EE
102
{ACAD_REACTORS
330
ED
102
}
330
ED
100
AcDbXrecord
280
     1
102
RTVSPropertyOp0
 70
     1
102
RTVSPropertyOp1
 70
     1
102
RTVSPropertyOp2
 70
     1
102
RTVSPropertyOp3
 70
     1
102
RTVSPropertyOp4
 70
     1
102
RTVSPropertyOp5
 70
     1
102
RTVSPropertyOp6
 70
     1
102
RTVSPropertyOp7
 70
     1
102
RTVSPropertyOp8
 70
     1
102
RTVSPropertyOp9
 70
     1
102
RTVSPropertyOp10
 70
     1
102
RTVSPropertyOp11
 70
     1
102
RTVSPropertyOp12
 70
     1
102
RTVSPropertyOp13
 70
     1
102
RTVSPropertyOp14
 70
     1
102
RTVSPropertyOp15
 70
     1
102
RTVSPropertyOp16
 70
     1
102
RTVSPropertyOp17
 70
     1
102
RTVSPropertyOp18
 70
     1
102
RTVSPropertyOp19
 70
     1
102
RTVSPropertyOp20
 70
     1
102
RTVSPropertyOp21
 70
     1
102
RTVSPropertyOp22
 70
     1
102
RTVSPropertyOp23
 70
     1
102
RTVSPropertyOp24
 70
     1
102
RTVSPropertyOp25
 70
     1
102
RTVSPropertyOp26
 70
     1
102
RTVSPropertyOp27
 70
     1
102
RTVSPropertyOp28
 70
     1
102
RTVSPropertyOp29
 70
     1
102
RTVSPropertyOp30
 70
     1
102
RTVSPropertyOp31
 70
     1
102
RTVSPropertyOp32
 70
     1
  0
XRECORD
  5
F6
102
{ACAD_REACTORS
330
F5
102
}
330
F5
100
AcDbXrecord
280
     1
102
RTVSPropertyOp0
 70
     1
102
RTVSPropertyOp1
 70
     1
102
RTVSPropertyOp2
 70
     1
102
RTVSPropertyOp3
 70
     1
102
RTVSPropertyOp4
 70
     1
102
RTVSPropertyOp5
 70
     1
102
RTVSPropertyOp6
 70
     1
102
RTVSPropertyOp7
 70
     1
102
RTVSPropertyOp8
 70
     1
102
RTVSPropertyOp9
 70
     1
102
RTVSPropertyOp10
 70
     1
102
RTVSPropertyOp11
 70
     1
102
RTVSPropertyOp12
 70
     1
102
RTVSPropertyOp13
 70
     1
102
RTVSPropertyOp14
 70
     1
102
RTVSPropertyOp15
 70
     1
102
RTVSPropertyOp16
 70
     1
102
RTVSPropertyOp17
 70
     1
102
RTVSPropertyOp18
 70
     1
102
RTVSPropertyOp19
 70
     1
102
RTVSPropertyOp20
 70
     1
102
RTVSPropertyOp21
 70
     1
102
RTVSPropertyOp22
 70
     1
102
RTVSPropertyOp23
 70
     1
102
RTVSPropertyOp24
 70
     1
102
RTVSPropertyOp25
 70
     1
102
RTVSPropertyOp26
 70
     1
102
RTVSPropertyOp27
 70
     1
102
RTVSPropertyOp28
 70
     1
102
RTVSPropertyOp29
 70
     1
102
RTVSPropertyOp30
 70
     1
102
RTVSPropertyOp31
 70
     1
102
RTVSPropertyOp32
 70
     1
  0
XRECORD
  5
EA
102
{ACAD_REACTORS
330
E9
102
}
330
E9
100
AcDbXrecord
280
     1
102
RTVSPropertyOp0
 70
     1
102
RTVSPropertyOp1
 70
     1
102
RTVSPropertyOp2
 70
     1
102
RTVSPropertyOp3
 70
     1
102
RTVSPropertyOp4
 70
     1
102
RTVSPropertyOp5
 70
     1
102
RTVSPropertyOp6
 70
     1
102
RTVSPropertyOp7
 70
     1
102
RTVSPropertyOp8
 70
     1
102
RTVSPropertyOp9
 70
     1
102
RTVSPropertyOp10
 70
     1
102
RTVSPropertyOp11
 70
     1
102
RTVSPropertyOp12
 70
     1
102
RTVSPropertyOp13
 70
     1
102
RTVSPropertyOp14
 70
     1
102
RTVSPropertyOp15
 70
     1
102
RTVSPropertyOp16
 70
     1
102
RTVSPropertyOp17
 70
     1
102
RTVSPropertyOp18
 70
     1
102
RTVSPropertyOp19
 70
     1
102
RTVSPropertyOp20
 70
     1
102
RTVSPropertyOp21
 70
     1
102
RTVSPropertyOp22
 70
     1
102
RTVSPropertyOp23
 70
     1
102
RTVSPropertyOp24
 70
     1
102
RTVSPropertyOp25
 70
     1
102
RTVSPropertyOp26
 70
     1
102
RTVSPropertyOp27
 70
     1
102
RTVSPropertyOp28
 70
     1
102
RTVSPropertyOp29
 70
     1
102
RTVSPropertyOp30
 70
     1
102
RTVSPropertyOp31
 70
     1
102
RTVSPropertyOp32
 70
     1
  0
XRECORD
  5
EC
102
{ACAD_REACTORS
330
EB
102
}
330
EB
100
AcDbXrecord
280
     1
102
RTVSPropertyOp0
 70
     1
102
RTVSPropertyOp1
 70
     1
102
RTVSPropertyOp2
 70
     1
102
RTVSPropertyOp3
 70
     1
102
RTVSPropertyOp4
 70
     1
102
RTVSPropertyOp5
 70
     1
102
RTVSPropertyOp6
 70
     1
102
RTVSPropertyOp7
 70
     1
102
RTVSPropertyOp8
 70
     1
102
RTVSPropertyOp9
 70
     1
102
RTVSPropertyOp10
 70
     1
102
RTVSPropertyOp11
 70
     1
102
RTVSPropertyOp12
 70
     1
102
RTVSPropertyOp13
 70
     1
102
RTVSPropertyOp14
 70
     1
102
RTVSPropertyOp15
 70
     1
102
RTVSPropertyOp16
 70
     1
102
RTVSPropertyOp17
 70
     1
102
RTVSPropertyOp18
 70
     1
102
RTVSPropertyOp19
 70
     1
102
RTVSPropertyOp20
 70
     1
102
RTVSPropertyOp21
 70
     1
102
RTVSPropertyOp22
 70
     1
102
RTVSPropertyOp23
 70
     1
102
RTVSPropertyOp24
 70
     1
102
RTVSPropertyOp25
 70
     1
102
RTVSPropertyOp26
 70
     1
102
RTVSPropertyOp27
 70
     1
102
RTVSPropertyOp28
 70
     1
102
RTVSPropertyOp29
 70
     1
102
RTVSPropertyOp30
 70
     1
102
RTVSPropertyOp31
 70
     1
102
RTVSPropertyOp32
 70
     1
  0
XRECORD
  5
F4
102
{ACAD_REACTORS
330
F3
102
}
330
F3
100
AcDbXrecord
280
     1
102
RTVSPropertyOp0
 70
     1
102
RTVSPropertyOp1
 70
     1
102
RTVSPropertyOp2
 70
     1
102
RTVSPropertyOp3
 70
     1
102
RTVSPropertyOp4
 70
     1
102
RTVSPropertyOp5
 70
     1
102
RTVSPropertyOp6
 70
     1
102
RTVSPropertyOp7
 70
     1
102
RTVSPropertyOp8
 70
     1
102
RTVSPropertyOp9
 70
     1
102
RTVSPropertyOp10
 70
     1
102
RTVSPropertyOp11
 70
     1
102
RTVSPropertyOp12
 70
     1
102
RTVSPropertyOp13
 70
     1
102
RTVSPropertyOp14
 70
     1
102
RTVSPropertyOp15
 70
     1
102
RTVSPropertyOp16
 70
     1
102
RTVSPropertyOp17
 70
     1
102
RTVSPropertyOp18
 70
     1
102
RTVSPropertyOp19
 70
     1
102
RTVSPropertyOp20
 70
     1
102
RTVSPropertyOp21
 70
     1
102
RTVSPropertyOp22
 70
     1
102
RTVSPropertyOp23
 70
     1
102
RTVSPropertyOp24
 70
     1
102
RTVSPropertyOp25
 70
     1
102
RTVSPropertyOp26
 70
     1
102
RTVSPropertyOp27
 70
     1
102
RTVSPropertyOp28
 70
     1
102
RTVSPropertyOp29
 70
     1
102
RTVSPropertyOp30
 70
     1
102
RTVSPropertyOp31
 70
     1
102
RTVSPropertyOp32
 70
     1
  0
XRECORD
  5
D8
102
{ACAD_REACTORS
330
D7
102
}
330
D7
100
AcDbXrecord
280
     1
102
RTVSPropertyOp0
 70
     1
102
RTVSPropertyOp1
 70
     1
102
RTVSPropertyOp2
 70
     1
102
RTVSPropertyOp3
 70
     1
102
RTVSPropertyOp4
 70
     1
102
RTVSPropertyOp5
 70
     1
102
RTVSPropertyOp6
 70
     1
102
RTVSPropertyOp7
 70
     1
102
RTVSPropertyOp8
 70
     1
102
RTVSPropertyOp9
 70
     1
102
RTVSPropertyOp10
 70
     1
102
RTVSPropertyOp11
 70
     1
102
RTVSPropertyOp12
 70
     1
102
RTVSPropertyOp13
 70
     1
102
RTVSPropertyOp14
 70
     1
102
RTVSPropertyOp15
 70
     1
102
RTVSPropertyOp16
 70
     1
102
RTVSPropertyOp17
 70
     1
102
RTVSPropertyOp18
 70
     1
102
RTVSPropertyOp19
 70
     1
102
RTVSPropertyOp20
 70
     1
102
RTVSPropertyOp21
 70
     1
102
RTVSPropertyOp22
 70
     1
102
RTVSPropertyOp23
 70
     1
102
RTVSPropertyOp24
 70
     1
102
RTVSPropertyOp25
 70
     1
102
RTVSPropertyOp26
 70
     1
102
RTVSPropertyOp27
 70
     1
102
RTVSPropertyOp28
 70
     1
102
RTVSPropertyOp29
 70
     1
102
RTVSPropertyOp30
 70
     1
102
RTVSPropertyOp31
 70
     1
102
RTVSPropertyOp32
 70
     1
  0
XRECORD
  5
DA
102
{ACAD_REACTORS
330
D9
102
}
330
D9
100
AcDbXrecord
280
     1
102
RTVSPropertyOp0
 70
     1
102
RTVSPropertyOp1
 70
     1
102
RTVSPropertyOp2
 70
     1
102
RTVSPropertyOp3
 70
     1
102
RTVSPropertyOp4
 70
     1
102
RTVSPropertyOp5
 70
     1
102
RTVSPropertyOp6
 70
     1
102
RTVSPropertyOp7
 70
     1
102
RTVSPropertyOp8
 70
     1
102
RTVSPropertyOp9
 70
     1
102
RTVSPropertyOp10
 70
     1
102
RTVSPropertyOp11
 70
     1
102
RTVSPropertyOp12
 70
     1
102
RTVSPropertyOp13
 70
     1
102
RTVSPropertyOp14
 70
     1
102
RTVSPropertyOp15
 70
     1
102
RTVSPropertyOp16
 70
     1
102
RTVSPropertyOp17
 70
     1
102
RTVSPropertyOp18
 70
     1
102
RTVSPropertyOp19
 70
     1
102
RTVSPropertyOp20
 70
     1
102
RTVSPropertyOp21
 70
     1
102
RTVSPropertyOp22
 70
     1
102
RTVSPropertyOp23
 70
     1
102
RTVSPropertyOp24
 70
     1
102
RTVSPropertyOp25
 70
     1
102
RTVSPropertyOp26
 70
     1
102
RTVSPropertyOp27
 70
     1
102
RTVSPropertyOp28
 70
     1
102
RTVSPropertyOp29
 70
     1
102
RTVSPropertyOp30
 70
     1
102
RTVSPropertyOp31
 70
     1
102
RTVSPropertyOp32
 70
     1
  0
XRECORD
  5
DC
102
{ACAD_REACTORS
330
DB
102
}
330
DB
100
AcDbXrecord
280
     1
102
RTVSPropertyOp0
 70
     1
102
RTVSPropertyOp1
 70
     1
102
RTVSPropertyOp2
 70
     1
102
RTVSPropertyOp3
 70
     1
102
RTVSPropertyOp4
 70
     1
102
RTVSPropertyOp5
 70
     1
102
RTVSPropertyOp6
 70
     1
102
RTVSPropertyOp7
 70
     1
102
RTVSPropertyOp8
 70
     1
102
RTVSPropertyOp9
 70
     1
102
RTVSPropertyOp10
 70
     1
102
RTVSPropertyOp11
 70
     1
102
RTVSPropertyOp12
 70
     1
102
RTVSPropertyOp13
 70
     1
102
RTVSPropertyOp14
 70
     1
102
RTVSPropertyOp15
 70
     1
102
RTVSPropertyOp16
 70
     1
102
RTVSPropertyOp17
 70
     1
102
RTVSPropertyOp18
 70
     1
102
RTVSPropertyOp19
 70
     1
102
RTVSPropertyOp20
 70
     1
102
RTVSPropertyOp21
 70
     1
102
RTVSPropertyOp22
 70
     1
102
RTVSPropertyOp23
 70
     1
102
RTVSPropertyOp24
 70
     1
102
RTVSPropertyOp25
 70
     1
102
RTVSPropertyOp26
 70
     1
102
RTVSPropertyOp27
 70
     1
102
RTVSPropertyOp28
 70
     1
102
RTVSPropertyOp29
 70
     1
102
RTVSPropertyOp30
 70
     1
102
RTVSPropertyOp31
 70
     1
102
RTVSPropertyOp32
 70
     1
  0
XRECORD
  5
DE
102
{ACAD_REACTORS
330
DD
102
}
330
DD
100
AcDbXrecord
280
     1
102
RTVSPropertyOp0
 70
     1
102
RTVSPropertyOp1
 70
     1
102
RTVSPropertyOp2
 70
     1
102
RTVSPropertyOp3
 70
     1
102
RTVSPropertyOp4
 70
     1
102
RTVSPropertyOp5
 70
     1
102
RTVSPropertyOp6
 70
     1
102
RTVSPropertyOp7
 70
     1
102
RTVSPropertyOp8
 70
     1
102
RTVSPropertyOp9
 70
     1
102
RTVSPropertyOp10
 70
     1
102
RTVSPropertyOp11
 70
     1
102
RTVSPropertyOp12
 70
     1
102
RTVSPropertyOp13
 70
     1
102
RTVSPropertyOp14
 70
     1
102
RTVSPropertyOp15
 70
     1
102
RTVSPropertyOp16
 70
     1
102
RTVSPropertyOp17
 70
     1
102
RTVSPropertyOp18
 70
     1
102
RTVSPropertyOp19
 70
     1
102
RTVSPropertyOp20
 70
     1
102
RTVSPropertyOp21
 70
     1
102
RTVSPropertyOp22
 70
     1
102
RTVSPropertyOp23
 70
     1
102
RTVSPropertyOp24
 70
     1
102
RTVSPropertyOp25
 70
     1
102
RTVSPropertyOp26
 70
     1
102
RTVSPropertyOp27
 70
     1
102
RTVSPropertyOp28
 70
     1
102
RTVSPropertyOp29
 70
     1
102
RTVSPropertyOp30
 70
     1
102
RTVSPropertyOp31
 70
     1
102
RTVSPropertyOp32
 70
     1
  0
XRECORD
  5
F2
102
{ACAD_REACTORS
330
F1
102
}
330
F1
100
AcDbXrecord
280
     1
102
RTVSPropertyOp0
 70
     1
102
RTVSPropertyOp1
 70
     1
102
RTVSPropertyOp2
 70
     1
102
RTVSPropertyOp3
 70
     1
102
RTVSPropertyOp4
 70
     1
102
RTVSPropertyOp5
 70
     1
102
RTVSPropertyOp6
 70
     1
102
RTVSPropertyOp7
 70
     1
102
RTVSPropertyOp8
 70
     1
102
RTVSPropertyOp9
 70
     1
102
RTVSPropertyOp10
 70
     1
102
RTVSPropertyOp11
 70
     1
102
RTVSPropertyOp12
 70
     1
102
RTVSPropertyOp13
 70
     1
102
RTVSPropertyOp14
 70
     1
102
RTVSPropertyOp15
 70
     1
102
RTVSPropertyOp16
 70
     1
102
RTVSPropertyOp17
 70
     1
102
RTVSPropertyOp18
 70
     1
102
RTVSPropertyOp19
 70
     1
102
RTVSPropertyOp20
 70
     1
102
RTVSPropertyOp21
 70
     1
102
RTVSPropertyOp22
 70
     1
102
RTVSPropertyOp23
 70
     1
102
RTVSPropertyOp24
 70
     1
102
RTVSPropertyOp25
 70
     1
102
RTVSPropertyOp26
 70
     1
102
RTVSPropertyOp27
 70
     1
102
RTVSPropertyOp28
 70
     1
102
RTVSPropertyOp29
 70
     1
102
RTVSPropertyOp30
 70
     1
102
RTVSPropertyOp31
 70
     1
102
RTVSPropertyOp32
 70
     1
  0
XRECORD
  5
E8
102
{ACAD_REACTORS
330
E7
102
}
330
E7
100
AcDbXrecord
280
     1
102
RTVSPropertyOp0
 70
     1
102
RTVSPropertyOp1
 70
     1
102
RTVSPropertyOp2
 70
     1
102
RTVSPropertyOp3
 70
     1
102
RTVSPropertyOp4
 70
     1
102
RTVSPropertyOp5
 70
     1
102
RTVSPropertyOp6
 70
     1
102
RTVSPropertyOp7
 70
     1
102
RTVSPropertyOp8
 70
     1
102
RTVSPropertyOp9
 70
     1
102
RTVSPropertyOp10
 70
     1
102
RTVSPropertyOp11
 70
     1
102
RTVSPropertyOp12
 70
     1
102
RTVSPropertyOp13
 70
     1
102
RTVSPropertyOp14
 70
     1
102
RTVSPropertyOp15
 70
     1
102
RTVSPropertyOp16
 70
     1
102
RTVSPropertyOp17
 70
     1
102
RTVSPropertyOp18
 70
     1
102
RTVSPropertyOp19
 70
     1
102
RTVSPropertyOp20
 70
     1
102
RTVSPropertyOp21
 70
     1
102
RTVSPropertyOp22
 70
     1
102
RTVSPropertyOp23
 70
     1
102
RTVSPropertyOp24
 70
     1
102
RTVSPropertyOp25
 70
     1
102
RTVSPropertyOp26
 70
     1
102
RTVSPropertyOp27
 70
     1
102
RTVSPropertyOp28
 70
     1
102
RTVSPropertyOp29
 70
     1
102
RTVSPropertyOp30
 70
     1
102
RTVSPropertyOp31
 70
     1
102
RTVSPropertyOp32
 70
     1
  0
XRECORD
  5
F0
102
{ACAD_REACTORS
330
EF
102
}
330
EF
100
AcDbXrecord
280
     1
102
RTVSPropertyOp0
 70
     1
102
RTVSPropertyOp1
 70
     1
102
RTVSPropertyOp2
 70
     1
102
RTVSPropertyOp3
 70
     1
102
RTVSPropertyOp4
 70
     1
102
RTVSPropertyOp5
 70
     1
102
RTVSPropertyOp6
 70
     1
102
RTVSPropertyOp7
 70
     1
102
RTVSPropertyOp8
 70
     1
102
RTVSPropertyOp9
 70
     1
102
RTVSPropertyOp10
 70
     1
102
RTVSPropertyOp11
 70
     1
102
RTVSPropertyOp12
 70
     1
102
RTVSPropertyOp13
 70
     1
102
RTVSPropertyOp14
 70
     1
102
RTVSPropertyOp15
 70
     1
102
RTVSPropertyOp16
 70
     1
102
RTVSPropertyOp17
 70
     1
102
RTVSPropertyOp18
 70
     1
102
RTVSPropertyOp19
 70
     1
102
RTVSPropertyOp20
 70
     1
102
RTVSPropertyOp21
 70
     1
102
RTVSPropertyOp22
 70
     1
102
RTVSPropertyOp23
 70
     1
102
RTVSPropertyOp24
 70
     1
102
RTVSPropertyOp25
 70
     1
102
RTVSPropertyOp26
 70
     1
102
RTVSPropertyOp27
 70
     1
102
RTVSPropertyOp28
 70
     1
102
RTVSPropertyOp29
 70
     1
102
RTVSPropertyOp30
 70
     1
102
RTVSPropertyOp31
 70
     1
102
RTVSPropertyOp32
 70
     1
  0
ENDSEC
  0
EOF
