  0
SECTION
  2
HEADER
  9
$ACADVER
  1
AC1021
  9
$ACADMAINTVER
 70
    25
  9
$DWGCODEPAGE
  3
ANSI_1256
  9
$INSBASE
 10
0.0
 20
0.0
 30
0.0
  9
$EXTMIN
 10
115.8898
 20
-114.5885
 30
0.0
  9
$EXTMAX
 10
196.2042
 20
131.8819
 30
0.0
  9
$LIMMIN
 10
0.0
 20
0.0
  9
$LIMMAX
 10
12.0
 20
9.0
  9
$ORTHOMODE
 70
     0
  9
$REGENMODE
 70
     1
  9
$FILLMODE
 70
     1
  9
$QTEXTMODE
 70
     0
  9
$MIRRTEXT
 70
     1
  9
$LTSCALE
 40
1.0
  9
$ATTMODE
 70
     1
  9
$TEXTSIZE
 40
0.2
  9
$TRACEWID
 40
0.05
  9
$TEXTSTYLE
  7
Standard
  9
$CLAYER
  8
0
  9
$CELTYPE
  6
ByLayer
  9
$CECOLOR
 62
   256
  9
$CELTSCALE
 40
1.0
  9
$DISPSILH
 70
     0
  9
$DIMSCALE
 40
1.0
  9
$DIMASZ
 40
0.18
  9
$DIMEXO
 40
0.0625
  9
$DIMDLI
 40
0.38
  9
$DIMRND
 40
0.0
  9
$DIMDLE
 40
0.0
  9
$DIMEXE
 40
0.18
  9
$DIMTP
 40
0.0
  9
$DIMTM
 40
0.0
  9
$DIMTXT
 40
0.18
  9
$DIMCEN
 40
0.09
  9
$DIMTSZ
 40
0.0
  9
$DIMTOL
 70
     0
  9
$DIMLIM
 70
     0
  9
$DIMTIH
 70
     1
  9
$DIMTOH
 70
     1
  9
$DIMSE1
 70
     0
  9
$DIMSE2
 70
     0
  9
$DIMTAD
 70
     0
  9
$DIMZIN
 70
     0
  9
$DIMBLK
  1

  9
$DIMASO
 70
     1
  9
$DIMSHO
 70
     1
  9
$DIMPOST
  1

  9
$DIMAPOST
  1

  9
$DIMALT
 70
     0
  9
$DIMALTD
 70
     2
  9
$DIMALTF
 40
25.4
  9
$DIMLFAC
 40
1.0
  9
$DIMTOFL
 70
     0
  9
$DIMTVP
 40
0.0
  9
$DIMTIX
 70
     0
  9
$DIMSOXD
 70
     0
  9
$DIMSAH
 70
     0
  9
$DIMBLK1
  1

  9
$DIMBLK2
  1

  9
$DIMSTYLE
  2
Standard
  9
$DIMCLRD
 70
     0
  9
$DIMCLRE
 70
     0
  9
$DIMCLRT
 70
     0
  9
$DIMTFAC
 40
1.0
  9
$DIMGAP
 40
0.09
  9
$DIMJUST
 70
     0
  9
$DIMSD1
 70
     0
  9
$DIMSD2
 70
     0
  9
$DIMTOLJ
 70
     1
  9
$DIMTZIN
 70
     0
  9
$DIMALTZ
 70
     0
  9
$DIMALTTZ
 70
     0
  9
$DIMUPT
 70
     0
  9
$DIMDEC
 70
     4
  9
$DIMTDEC
 70
     4
  9
$DIMALTU
 70
     2
  9
$DIMALTTD
 70
     2
  9
$DIMTXSTY
  7
Standard
  9
$DIMAUNIT
 70
     0
  9
$DIMADEC
 70
     0
  9
$DIMALTRND
 40
0.0
  9
$DIMAZIN
 70
     0
  9
$DIMDSEP
 70
    46
  9
$DIMATFIT
 70
     3
  9
$DIMFRAC
 70
     0
  9
$DIMLDRBLK
  1

  9
$DIMLUNIT
 70
     2
  9
$DIMLWD
 70
    -2
  9
$DIMLWE
 70
    -2
  9
$DIMTMOVE
 70
     0
  9
$DIMFXL
 40
1.0
  9
$DIMFXLON
 70
     0
  9
$DIMJOGANG
 40
0.7853981633974483
  9
$DIMTFILL
 70
     0
  9
$DIMTFILLCLR
 70
     0
  9
$DIMARCSYM
 70
     0
  9
$DIMLTYPE
  6

  9
$DIMLTEX1
  6

  9
$DIMLTEX2
  6

  9
$LUNITS
 70
     2
  9
$LUPREC
 70
     4
  9
$SKETCHINC
 40
0.1
  9
$FILLETRAD
 40
0.5
  9
$AUNITS
 70
     0
  9
$AUPREC
 70
     0
  9
$MENU
  1
.
  9
$ELEVATION
 40
0.0
  9
$PELEVATION
 40
0.0
  9
$THICKNESS
 40
0.0
  9
$LIMCHECK
 70
     0
  9
$CHAMFERA
 40
0.5
  9
$CHAMFERB
 40
0.5
  9
$CHAMFERC
 40
1.0
  9
$CHAMFERD
 40
0.0
  9
$SKPOLY
 70
     0
  9
$TDCREATE
 40
2458492.388963114
  9
$TDUCREATE
 40
2458492.222296447
  9
$TDUPDATE
 40
2458492.388963264
  9
$TDUUPDATE
 40
2458492.222296597
  9
$TDINDWG
 40
0.0000000116
  9
$TDUSRTIMER
 40
0.0000000116
  9
$USRTIMER
 70
     1
  9
$ANGBASE
 50
0.0
  9
$ANGDIR
 70
     0
  9
$PDMODE
 70
     0
  9
$PDSIZE
 40
0.0
  9
$PLINEWID
 40
0.0
  9
$SPLFRAME
 70
     0
  9
$SPLINETYPE
 70
     6
  9
$SPLINESEGS
 70
     8
  9
$HANDSEED
  5
AA
  9
$SURFTAB1
 70
     6
  9
$SURFTAB2
 70
     6
  9
$SURFTYPE
 70
     6
  9
$SURFU
 70
     6
  9
$SURFV
 70
     6
  9
$UCSBASE
  2

  9
$UCSNAME
  2

  9
$UCSORG
 10
0.0
 20
0.0
 30
0.0
  9
$UCSXDIR
 10
1.0
 20
0.0
 30
0.0
  9
$UCSYDIR
 10
0.0
 20
1.0
 30
0.0
  9
$UCSORTHOREF
  2

  9
$UCSORTHOVIEW
 70
     0
  9
$UCSORGTOP
 10
0.0
 20
0.0
 30
0.0
  9
$UCSORGBOTTOM
 10
0.0
 20
0.0
 30
0.0
  9
$UCSORGLEFT
 10
0.0
 20
0.0
 30
0.0
  9
$UCSORGRIGHT
 10
0.0
 20
0.0
 30
0.0
  9
$UCSORGFRONT
 10
0.0
 20
0.0
 30
0.0
  9
$UCSORGBACK
 10
0.0
 20
0.0
 30
0.0
  9
$PUCSBASE
  2

  9
$PUCSNAME
  2

  9
$PUCSORG
 10
0.0
 20
0.0
 30
0.0
  9
$PUCSXDIR
 10
1.0
 20
0.0
 30
0.0
  9
$PUCSYDIR
 10
0.0
 20
1.0
 30
0.0
  9
$PUCSORTHOREF
  2

  9
$PUCSORTHOVIEW
 70
     0
  9
$PUCSORGTOP
 10
0.0
 20
0.0
 30
0.0
  9
$PUCSORGBOTTOM
 10
0.0
 20
0.0
 30
0.0
  9
$PUCSORGLEFT
 10
0.0
 20
0.0
 30
0.0
  9
$PUCSORGRIGHT
 10
0.0
 20
0.0
 30
0.0
  9
$PUCSORGFRONT
 10
0.0
 20
0.0
 30
0.0
  9
$PUCSORGBACK
 10
0.0
 20
0.0
 30
0.0
  9
$USERI1
 70
     0
  9
$USERI2
 70
     0
  9
$USERI3
 70
     0
  9
$USERI4
 70
     0
  9
$USERI5
 70
     0
  9
$USERR1
 40
0.0
  9
$USERR2
 40
0.0
  9
$USERR3
 40
0.0
  9
$USERR4
 40
0.0
  9
$USERR5
 40
0.0
  9
$WORLDVIEW
 70
     1
  9
$SHADEDGE
 70
     3
  9
$SHADEDIF
 70
    70
  9
$TILEMODE
 70
     1
  9
$MAXACTVP
 70
    64
  9
$PINSBASE
 10
0.0
 20
0.0
 30
0.0
  9
$PLIMCHECK
 70
     0
  9
$PEXTMIN
 10
1.000000000000000E+20
 20
1.000000000000000E+20
 30
1.000000000000000E+20
  9
$PEXTMAX
 10
-1.000000000000000E+20
 20
-1.000000000000000E+20
 30
-1.000000000000000E+20
  9
$PLIMMIN
 10
0.0
 20
0.0
  9
$PLIMMAX
 10
12.0
 20
9.0
  9
$UNITMODE
 70
     0
  9
$VISRETAIN
 70
     1
  9
$PLINEGEN
 70
     0
  9
$PSLTSCALE
 70
     1
  9
$TREEDEPTH
 70
  3020
  9
$CMLSTYLE
  2
Standard
  9
$CMLJUST
 70
     0
  9
$CMLSCALE
 40
1.0
  9
$PROXYGRAPHICS
 70
     1
  9
$MEASUREMENT
 70
     0
  9
$CELWEIGHT
370
    -1
  9
$ENDCAPS
280
     0
  9
$JOINSTYLE
280
     0
  9
$LWDISPLAY
290
     0
  9
$INSUNITS
 70
     4
  9
$HYPERLINKBASE
  1

  9
$STYLESHEET
  1

  9
$XEDIT
290
     1
  9
$CEPSNTYPE
380
     0
  9
$PSTYLEMODE
290
     1
  9
$FINGERPRINTGUID
  2
{CE7A421E-304A-42ED-BEAC-839B513BEE75}
  9
$VERSIONGUID
  2
{FAEB1C32-E019-11D5-929B-00C0DF256EC4}
  9
$EXTNAMES
290
     1
  9
$PSVPSCALE
 40
0.0
  9
$OLESTARTUP
290
     0
  9
$SORTENTS
280
   127
  9
$INDEXCTL
280
     0
  9
$HIDETEXT
280
     1
  9
$XCLIPFRAME
290
     0
  9
$HALOGAP
280
     0
  9
$OBSCOLOR
 70
   257
  9
$OBSLTYPE
280
     0
  9
$INTERSECTIONDISPLAY
280
     0
  9
$INTERSECTIONCOLOR
 70
   257
  9
$DIMASSOC
280
     2
  9
$PROJECTNAME
  1

  9
$CAMERADISPLAY
290
     0
  9
$LENSLENGTH
 40
50.0
  9
$CAMERAHEIGHT
 40
0.0
  9
$STEPSPERSEC
 40
2.0
  9
$STEPSIZE
 40
6.0
  9
$3DDWFPREC
 40
2.0
  9
$PSOLWIDTH
 40
0.25
  9
$PSOLHEIGHT
 40
4.0
  9
$LOFTANG1
 40
1.570796326794897
  9
$LOFTANG2
 40
1.570796326794897
  9
$LOFTMAG1
 40
0.0
  9
$LOFTMAG2
 40
0.0
  9
$LOFTPARAM
 70
     7
  9
$LOFTNORMALS
280
     1
  9
$LATITUDE
 40
37.795
  9
$LONGITUDE
 40
-122.394
  9
$NORTHDIRECTION
 40
0.0
  9
$TIMEZONE
 70
 -8000
  9
$LIGHTGLYPHDISPLAY
280
     1
  9
$TILEMODELIGHTSYNCH
280
     1
  9
$SOLIDHIST
280
     1
  9
$SHOWHIST
280
     1
  9
$DWFFRAME
280
     2
  9
$DGNFRAME
280
     2
  9
$REALWORLDSCALE
290
     1
  9
$INTERFERECOLOR
 62
   256
  9
$CSHADOW
280
     0
  9
$SHADOWPLANELOCATION
 40
0.0
  0
ENDSEC
  0
SECTION
  2
CLASSES
  0
CLASS
  1
ACDBDICTIONARYWDFLT
  2
AcDbDictionaryWithDefault
  3
ObjectDBX Classes
 90
        0
 91
        4
280
     0
281
     0
  0
CLASS
  1
VISUALSTYLE
  2
AcDbVisualStyle
  3
ObjectDBX Classes
 90
     4095
 91
        4
280
     0
281
     0
  0
CLASS
  1
MATERIAL
  2
AcDbMaterial
  3
ObjectDBX Classes
 90
     1153
 91
        4
280
     0
281
     0
  0
ENDSEC
  0
SECTION
  2
TABLES
  0
TABLE
  2
VPORT
  5
8
330
0
100
AcDbSymbolTable
 70
     1
  0
VPORT
  5
29
330
8
100
AcDbSymbolTableRecord
100
AcDbViewportTableRecord
  2
*Active
 70
     0
 10
0.0
 20
0.0
 11
1.0
 21
1.0
 12
10.42990654205607
 22
4.5
 13
0.0
 23
0.0
 14
0.5
 24
0.5
 15
0.5
 25
0.5
 16
0.0
 26
0.0
 36
1.0
 17
0.0
 27
0.0
 37
0.0
 40
9.0
 41
1.972972972850329
 42
50.0
 43
0.0
 44
0.0
 50
0.0
 51
0.0
 71
     0
 72
   100
 73
     1
 74
     3
 75
     0
 76
     0
 77
     0
 78
     0
281
     0
 65
     1
110
0.0
120
0.0
130
0.0
111
1.0
121
0.0
131
0.0
112
0.0
122
1.0
132
0.0
 79
     0
146
0.0
 60
     3
 61
     5
292
     1
282
     1
141
0.0
142
0.0
 63
   250
  0
ENDTAB
  0
TABLE
  2
LTYPE
  5
5
330
0
100
AcDbSymbolTable
 70
     1
  0
LTYPE
  5
14
330
5
100
AcDbSymbolTableRecord
100
AcDbLinetypeTableRecord
  2
ByBlock
 70
     0
  3

 72
    65
 73
     0
 40
0.0
  0
LTYPE
  5
15
330
5
100
AcDbSymbolTableRecord
100
AcDbLinetypeTableRecord
  2
ByLayer
 70
     0
  3

 72
    65
 73
     0
 40
0.0
  0
LTYPE
  5
16
330
5
100
AcDbSymbolTableRecord
100
AcDbLinetypeTableRecord
  2
Continuous
 70
     0
  3
Solid line
 72
    65
 73
     0
 40
0.0
  0
ENDTAB
  0
TABLE
  2
LAYER
  5
2
330
0
100
AcDbSymbolTable
 70
     2
  0
LAYER
  5
10
330
2
100
AcDbSymbolTableRecord
100
AcDbLayerTableRecord
  2
0
 70
     0
 62
     7
  6
Continuous
370
    -3
390
F
347
3E
  0
LAYER
  5
40
330
2
100
AcDbSymbolTableRecord
100
AcDbLayerTableRecord
  2
layer 1
 70
     0
 62
     7
  6
Continuous
370
    -3
390
F
347
3E
  0
ENDTAB
  0
TABLE
  2
STYLE
  5
3
330
0
100
AcDbSymbolTable
 70
     1
  0
STYLE
  5
11
330
3
100
AcDbSymbolTableRecord
100
AcDbTextStyleTableRecord
  2
Standard
 70
     0
 40
0.0
 41
1.0
 50
0.0
 71
     0
 42
0.2
  3
txt
  4

  0
ENDTAB
  0
TABLE
  2
VIEW
  5
6
330
0
100
AcDbSymbolTable
 70
     0
  0
ENDTAB
  0
TABLE
  2
UCS
  5
7
330
0
100
AcDbSymbolTable
 70
     0
  0
ENDTAB
  0
TABLE
  2
APPID
  5
9
330
0
100
AcDbSymbolTable
 70
     2
  0
APPID
  5
12
330
9
100
AcDbSymbolTableRecord
100
AcDbRegAppTableRecord
  2
ACAD
 70
     0
  0
APPID
  5
3F
330
9
100
AcDbSymbolTableRecord
100
AcDbRegAppTableRecord
  2
ODA
 70
     0
  0
ENDTAB
  0
TABLE
  2
DIMSTYLE
  5
A
330
0
100
AcDbSymbolTable
 70
     1
100
AcDbDimStyleTable
  0
DIMSTYLE
105
27
330
A
100
AcDbSymbolTableRecord
100
AcDbDimStyleTableRecord
  2
Standard
 70
     0
178
     0
340
11
  0
ENDTAB
  0
TABLE
  2
BLOCK_RECORD
  5
1
330
0
100
AcDbSymbolTable
 70
     1
  0
BLOCK_RECORD
  5
1F
330
1
100
AcDbSymbolTableRecord
100
AcDbBlockTableRecord
  2
*Model_Space
340
22
 70
     0
280
     1
281
     0
  0
BLOCK_RECORD
  5
1B
330
1
100
AcDbSymbolTableRecord
100
AcDbBlockTableRecord
  2
*Paper_Space
340
1E
 70
     0
280
     1
281
     0
  0
BLOCK_RECORD
  5
23
330
1
100
AcDbSymbolTableRecord
100
AcDbBlockTableRecord
  2
*Paper_Space0
340
26
 70
     0
280
     1
281
     0
  0
ENDTAB
  0
ENDSEC
  0
SECTION
  2
BLOCKS
  0
BLOCK
  5
20
330
1F
100
AcDbEntity
  8
0
100
AcDbBlockBegin
  2
*Model_Space
 70
     0
 10
0.0
 20
0.0
 30
0.0
  3
*Model_Space
  1

  0
ENDBLK
  5
21
330
1F
100
AcDbEntity
  8
0
100
AcDbBlockEnd
  0
BLOCK
  5
1C
330
1B
100
AcDbEntity
 67
     1
  8
0
100
AcDbBlockBegin
  2
*Paper_Space
 70
     0
 10
0.0
 20
0.0
 30
0.0
  3
*Paper_Space
  1

  0
ENDBLK
  5
1D
330
1B
100
AcDbEntity
 67
     1
  8
0
100
AcDbBlockEnd
  0
BLOCK
  5
24
330
23
100
AcDbEntity
  8
0
100
AcDbBlockBegin
  2
*Paper_Space0
 70
     0
 10
0.0
 20
0.0
 30
0.0
  3
*Paper_Space0
  1

  0
ENDBLK
  5
25
330
23
100
AcDbEntity
  8
0
100
AcDbBlockEnd
  0
ENDSEC
  0
SECTION
  2
ENTITIES
  0
SPLINE
  5
41
330
1F
100
AcDbEntity
  8
layer 1
100
AcDbSpline
210
0.0
220
0.0
230
1.0
 70
    11
 71
     3
 72
    20
 73
    16
 74
     0
 42
0.0000000001
 43
0.0000000001
 12
1.0
 22
0.0
 32
0.0
 13
1.0
 23
0.0
 33
0.0
 40
0.0
 40
0.0
 40
0.0
 40
0.0
 40
0.2
 40
0.2
 40
0.2
 40
0.2
 40
0.4
 40
0.4
 40
0.4
 40
0.4
 40
0.6
 40
0.6
 40
0.6
 40
0.6
 40
1.0
 40
1.0
 40
1.0
 40
1.0
 10
115.8898
 20
-9.7992
 30
0.0
 10
115.8898
 20
-9.7992
 30
0.0
 10
196.2042
 20
-9.7992
 30
0.0
 10
196.2042
 20
-9.7992
 30
0.0
 10
196.2042
 20
-9.7992
 30
0.0
 10
196.2042
 20
-9.7992
 30
0.0
 10
196.2042
 20
-114.5885
 30
0.0
 10
196.2042
 20
-114.5885
 30
0.0
 10
196.2042
 20
-114.5885
 30
0.0
 10
196.2042
 20
-114.5885
 30
0.0
 10
115.8898
 20
-114.5885
 30
0.0
 10
115.8898
 20
-114.5885
 30
0.0
 10
115.8898
 20
-114.5885
 30
0.0
 10
115.8898
 20
-114.5885
 30
0.0
 10
115.8898
 20
-9.7992
 30
0.0
 10
115.8898
 20
-9.7992
 30
0.0
  0
SPLINE
  5
42
330
1F
100
AcDbEntity
  8
layer 1
 62
     7
100
AcDbSpline
210
0.0
220
0.0
230
1.0
 70
    11
 71
     3
 72
    20
 73
    16
 74
     0
 42
0.0000000001
 43
0.0000000001
 12
1.0
 22
0.0
 32
0.0
 13
1.0
 23
0.0
 33
0.0
 40
0.0
 40
0.0
 40
0.0
 40
0.0
 40
0.2
 40
0.2
 40
0.2
 40
0.2
 40
0.4
 40
0.4
 40
0.4
 40
0.4
 40
0.6
 40
0.6
 40
0.6
 40
0.6
 40
1.0
 40
1.0
 40
1.0
 40
1.0
 10
159.9819
 20
-62.1067
 30
0.0
 10
159.9819
 20
-64.2242
 30
0.0
 10
158.267
 20
-65.9387
 30
0.0
 10
156.1494
 20
-65.9387
 30
0.0
 10
156.1494
 20
-65.9387
 30
0.0
 10
154.0324
 20
-65.9387
 30
0.0
 10
152.3175
 20
-64.2243
 30
0.0
 10
152.3175
 20
-62.1068
 30
0.0
 10
152.3175
 20
-62.1068
 30
0.0
 10
152.3175
 20
-59.9915
 30
0.0
 10
154.0324
 20
-58.2747
 30
0.0
 10
156.1494
 20
-58.2747
 30
0.0
 10
156.1494
 20
-58.2747
 30
0.0
 10
158.267
 20
-58.2747
 30
0.0
 10
159.9819
 20
-59.9915
 30
0.0
 10
159.9819
 20
-62.1067
 30
0.0
  0
SPLINE
  5
43
330
1F
100
AcDbEntity
  8
layer 1
 62
     7
100
AcDbSpline
210
0.0
220
0.0
230
1.0
 70
    11
 71
     3
 72
    16
 73
    12
 74
     0
 42
0.0000000001
 43
0.0000000001
 12
1.0
 22
0.0
 32
0.0
 13
1.0
 23
0.0
 33
0.0
 40
0.0
 40
0.0
 40
0.0
 40
0.0
 40
0.25
 40
0.25
 40
0.25
 40
0.25
 40
0.5
 40
0.5
 40
0.5
 40
0.5
 40
1.0
 40
1.0
 40
1.0
 40
1.0
 10
154.1383
 20
-35.3294
 30
0.0
 10
151.3757
 20
-37.8062
 30
0.0
 10
150.2542
 20
-40.6444
 30
0.0
 10
149.5319
 20
-45.5204
 30
0.0
 10
149.5319
 20
-45.5204
 30
0.0
 10
146.6271
 20
-42.7742
 30
0.0
 10
143.8719
 20
-41.0309
 30
0.0
 10
140.2211
 20
-40.5418
 30
0.0
 10
140.2211
 20
-40.5418
 30
0.0
 10
143.1328
 20
-38.5014
 30
0.0
 10
148.358
 20
-35.565
 30
0.0
 10
154.1383
 20
-35.3294
 30
0.0
  0
SPLINE
  5
44
330
1F
100
AcDbEntity
  8
layer 1
 62
     7
100
AcDbSpline
210
0.0
220
0.0
230
1.0
 70
    11
 71
     3
 72
    12
 73
     8
 74
     0
 42
0.0000000001
 43
0.0000000001
 12
1.0
 22
0.0
 32
0.0
 13
1.0
 23
0.0
 33
0.0
 40
0.0
 40
0.0
 40
0.0
 40
0.0
 40
0.3333333333333333
 40
0.3333333333333333
 40
0.3333333333333333
 40
0.3333333333333333
 40
1.0
 40
1.0
 40
1.0
 40
1.0
 10
156.04
 20
-38.421
 30
0.0
 10
160.0445
 20
-41.1601
 30
0.0
 10
160.9035
 20
-50.314
 30
0.0
 10
156.04
 20
-53.5478
 30
0.0
 10
156.04
 20
-53.5478
 30
0.0
 10
151.1745
 20
-50.314
 30
0.0
 10
152.0336
 20
-41.1603
 30
0.0
 10
156.04
 20
-38.421
 30
0.0
  0
SPLINE
  5
45
330
1F
100
AcDbEntity
  8
layer 1
 62
     7
100
AcDbSpline
210
0.0
220
0.0
230
1.0
 70
    11
 71
     3
 72
    12
 73
     8
 74
     0
 42
0.0000000001
 43
0.0000000001
 12
1.0
 22
0.0
 32
0.0
 13
1.0
 23
0.0
 33
0.0
 40
0.0
 40
0.0
 40
0.0
 40
0.0
 40
0.3333333333333333
 40
0.3333333333333333
 40
0.3333333333333333
 40
0.3333333333333333
 40
1.0
 40
1.0
 40
1.0
 40
1.0
 10
133.3445
 20
-62.1698
 30
0.0
 10
136.0837
 20
-58.1633
 30
0.0
 10
145.238
 20
-57.3043
 30
0.0
 10
148.4712
 20
-62.1698
 30
0.0
 10
148.4712
 20
-62.1698
 30
0.0
 10
145.238
 20
-67.0333
 30
0.0
 10
136.0836
 20
-66.1743
 30
0.0
 10
133.3445
 20
-62.1698
 30
0.0
  0
SPLINE
  5
46
330
1F
100
AcDbEntity
  8
layer 1
 62
     7
100
AcDbSpline
210
0.0
220
0.0
230
1.0
 70
    11
 71
     3
 72
    12
 73
     8
 74
     0
 42
0.0000000001
 43
0.0000000001
 12
1.0
 22
0.0
 32
0.0
 13
1.0
 23
0.0
 33
0.0
 40
0.0
 40
0.0
 40
0.0
 40
0.0
 40
0.3333333333333333
 40
0.3333333333333333
 40
0.3333333333333333
 40
0.3333333333333333
 40
1.0
 40
1.0
 40
1.0
 40
1.0
 10
139.5075
 20
-45.5061
 30
0.0
 10
144.2763
 20
-44.6094
 30
0.0
 10
151.3577
 20
-50.476
 30
0.0
 10
150.2023
 20
-56.2005
 30
0.0
 10
150.2023
 20
-56.2005
 30
0.0
 10
144.4773
 20
-57.3545
 30
0.0
 10
138.6125
 20
-50.2745
 30
0.0
 10
139.5075
 20
-45.5061
 30
0.0
  0
SPLINE
  5
47
330
1F
100
AcDbEntity
  8
layer 1
 62
     7
100
AcDbSpline
210
0.0
220
0.0
230
1.0
 70
    11
 71
     3
 72
    16
 73
    12
 74
     0
 42
0.0000000001
 43
0.0000000001
 12
1.0
 22
0.0
 32
0.0
 13
1.0
 23
0.0
 33
0.0
 40
0.0
 40
0.0
 40
0.0
 40
0.0
 40
0.25
 40
0.25
 40
0.25
 40
0.25
 40
0.5
 40
0.5
 40
0.5
 40
0.5
 40
1.0
 40
1.0
 40
1.0
 40
1.0
 10
135.7115
 20
-44.7405
 30
0.0
 10
135.5103
 20
-48.4449
 30
0.0
 10
136.7237
 20
-51.2453
 30
0.0
 10
139.6606
 20
-55.2048
 30
0.0
 10
139.6606
 20
-55.2048
 30
0.0
 10
135.6649
 20
-55.3162
 30
0.0
 10
132.4836
 20
-56.0316
 30
0.0
 10
129.5571
 20
-58.2693
 30
0.0
 10
129.5571
 20
-58.2693
 30
0.0
 10
130.1719
 20
-54.7663
 30
0.0
 10
131.7915
 20
-48.9948
 30
0.0
 10
135.7115
 20
-44.7405
 30
0.0
  0
SPLINE
  5
48
330
1F
100
AcDbEntity
  8
layer 1
 62
     7
100
AcDbSpline
210
0.0
220
0.0
230
1.0
 70
    11
 71
     3
 72
    16
 73
    12
 74
     0
 42
0.0000000001
 43
0.0000000001
 12
1.0
 22
0.0
 32
0.0
 13
1.0
 23
0.0
 33
0.0
 40
0.0
 40
0.0
 40
0.0
 40
0.0
 40
0.25
 40
0.25
 40
0.25
 40
0.25
 40
0.5
 40
0.5
 40
0.5
 40
0.5
 40
1.0
 40
1.0
 40
1.0
 40
1.0
 10
125.4541
 20
-24.0129
 30
0.0
 10
125.4541
 20
-24.0129
 30
0.0
 10
119.9916
 20
-28.3501
 30
0.0
 10
119.9916
 20
-28.3501
 30
0.0
 10
119.9916
 20
-28.3501
 30
0.0
 10
119.916
 20
-25.4044
 30
0.0
 10
119.9827
 20
-20.0425
 30
0.0
 10
120.0886
 20
-16.8575
 30
0.0
 10
120.0886
 20
-16.8575
 30
0.0
 10
121.4869
 20
-19.2896
 30
0.0
 10
122.6341
 20
-21.2237
 30
0.0
 10
125.4541
 20
-24.0129
 30
0.0
  0
SPLINE
  5
49
330
1F
100
AcDbEntity
  8
layer 1
 62
     7
100
AcDbSpline
210
0.0
220
0.0
230
1.0
 70
    11
 71
     3
 72
    20
 73
    16
 74
     0
 42
0.0000000001
 43
0.0000000001
 12
1.0
 22
0.0
 32
0.0
 13
1.0
 23
0.0
 33
0.0
 40
0.0
 40
0.0
 40
0.0
 40
0.0
 40
0.2
 40
0.2
 40
0.2
 40
0.2
 40
0.4
 40
0.4
 40
0.4
 40
0.4
 40
0.6
 40
0.6
 40
0.6
 40
0.6
 40
1.0
 40
1.0
 40
1.0
 40
1.0
 10
132.7569
 20
-29.6062
 30
0.0
 10
132.7569
 20
-29.6062
 30
0.0
 10
119.9916
 20
-38.2843
 30
0.0
 10
119.9916
 20
-38.2843
 30
0.0
 10
119.9916
 20
-38.2843
 30
0.0
 10
119.916
 20
-35.3381
 30
0.0
 10
119.8516
 20
-35.7662
 30
0.0
 10
119.9574
 20
-32.5811
 30
0.0
 10
119.9574
 20
-32.5811
 30
0.0
 10
119.9574
 20
-32.5811
 30
0.0
 10
127.8607
 20
-26.4465
 30
0.0
 10
127.8607
 20
-26.4465
 30
0.0
 10
127.8607
 20
-26.4465
 30
0.0
 10
129.7067
 20
-27.7571
 30
0.0
 10
131.0402
 20
-28.5624
 30
0.0
 10
132.7569
 20
-29.6062
 30
0.0
  0
SPLINE
  5
4A
330
1F
100
AcDbEntity
  8
layer 1
 62
     7
100
AcDbSpline
210
0.0
220
0.0
230
1.0
 70
    11
 71
     3
 72
    20
 73
    16
 74
     0
 42
0.0000000001
 43
0.0000000001
 12
1.0
 22
0.0
 32
0.0
 13
1.0
 23
0.0
 33
0.0
 40
0.0
 40
0.0
 40
0.0
 40
0.0
 40
0.2
 40
0.2
 40
0.2
 40
0.2
 40
0.4
 40
0.4
 40
0.4
 40
0.4
 40
0.6
 40
0.6
 40
0.6
 40
0.6
 40
1.0
 40
1.0
 40
1.0
 40
1.0
 10
143.611
 20
-33.6181
 30
0.0
 10
143.611
 20
-33.6181
 30
0.0
 10
119.9916
 20
-47.8229
 30
0.0
 10
119.9916
 20
-47.8229
 30
0.0
 10
119.9916
 20
-47.8229
 30
0.0
 10
119.916
 20
-44.879
 30
0.0
 10
119.8516
 20
-45.3069
 30
0.0
 10
119.9574
 20
-42.1219
 30
0.0
 10
119.9574
 20
-42.1219
 30
0.0
 10
119.9574
 20
-42.1219
 30
0.0
 10
136.3478
 20
-31.3156
 30
0.0
 10
136.3478
 20
-31.3156
 30
0.0
 10
136.3478
 20
-31.3156
 30
0.0
 10
138.5872
 20
-32.166
 30
0.0
 10
141.5656
 20
-33.0361
 30
0.0
 10
143.611
 20
-33.6181
 30
0.0
  0
SPLINE
  5
4B
330
1F
100
AcDbEntity
  8
layer 1
 62
     7
100
AcDbSpline
210
0.0
220
0.0
230
1.0
 70
    11
 71
     3
 72
    20
 73
    16
 74
     0
 42
0.0000000001
 43
0.0000000001
 12
1.0
 22
0.0
 32
0.0
 13
1.0
 23
0.0
 33
0.0
 40
0.0
 40
0.0
 40
0.0
 40
0.0
 40
0.2
 40
0.2
 40
0.2
 40
0.2
 40
0.4
 40
0.4
 40
0.4
 40
0.4
 40
0.6
 40
0.6
 40
0.6
 40
0.6
 40
1.0
 40
1.0
 40
1.0
 40
1.0
 10
128.8743
 20
-50.5929
 30
0.0
 10
128.8743
 20
-50.5929
 30
0.0
 10
119.9916
 20
-56.1126
 30
0.0
 10
119.9916
 20
-56.1126
 30
0.0
 10
119.9916
 20
-56.1126
 30
0.0
 10
119.916
 20
-53.1682
 30
0.0
 10
119.8516
 20
-54.5165
 30
0.0
 10
119.9574
 20
-51.3314
 30
0.0
 10
119.9574
 20
-51.3314
 30
0.0
 10
119.9574
 20
-51.3314
 30
0.0
 10
133.3049
 20
-43.3297
 30
0.0
 10
133.3049
 20
-43.3297
 30
0.0
 10
133.3049
 20
-43.3297
 30
0.0
 10
131.4427
 20
-45.6626
 30
0.0
 10
130.1847
 20
-47.839
 30
0.0
 10
128.8743
 20
-50.5929
 30
0.0
  0
SPLINE
  5
4C
330
1F
100
AcDbEntity
  8
layer 1
 62
     7
100
AcDbSpline
210
0.0
220
0.0
230
1.0
 70
    11
 71
     3
 72
    16
 73
    12
 74
     0
 42
0.0000000001
 43
0.0000000001
 12
1.0
 22
0.0
 32
0.0
 13
1.0
 23
0.0
 33
0.0
 40
0.0
 40
0.0
 40
0.0
 40
0.0
 40
0.25
 40
0.25
 40
0.25
 40
0.25
 40
0.5
 40
0.5
 40
0.5
 40
0.5
 40
1.0
 40
1.0
 40
1.0
 40
1.0
 10
126.6045
 20
-59.046
 30
0.0
 10
126.6045
 20
-59.046
 30
0.0
 10
120.9785
 20
-59.5995
 30
0.0
 10
120.9785
 20
-59.5995
 30
0.0
 10
120.9785
 20
-59.5995
 30
0.0
 10
121.8233
 20
-58.3433
 30
0.0
 10
124.8394
 20
-54.7395
 30
0.0
 10
127.7204
 20
-53.8497
 30
0.0
 10
127.7204
 20
-53.8497
 30
0.0
 10
127.0913
 20
-56.1628
 30
0.0
 10
126.9546
 20
-57.0582
 30
0.0
 10
126.6045
 20
-59.046
 30
0.0
  0
SPLINE
  5
4D
330
1F
100
AcDbEntity
  8
layer 1
 62
     7
100
AcDbSpline
210
0.0
220
0.0
230
1.0
 70
    11
 71
     3
 72
    20
 73
    16
 74
     0
 42
0.0000000001
 43
0.0000000001
 12
1.0
 22
0.0
 32
0.0
 13
1.0
 23
0.0
 33
0.0
 40
0.0
 40
0.0
 40
0.0
 40
0.0
 40
0.2
 40
0.2
 40
0.2
 40
0.2
 40
0.4
 40
0.4
 40
0.4
 40
0.4
 40
0.6
 40
0.6
 40
0.6
 40
0.6
 40
1.0
 40
1.0
 40
1.0
 40
1.0
 10
153.6855
 20
-32.4553
 30
0.0
 10
153.6855
 20
-32.4553
 30
0.0
 10
153.6873
 20
-27.7911
 30
0.0
 10
153.6873
 20
-27.7911
 30
0.0
 10
153.6873
 20
-27.7911
 30
0.0
 10
142.732
 20
-27.112
 30
0.0
 10
132.9184
 20
-21.4408
 30
0.0
 10
126.7587
 20
-13.1461
 30
0.0
 10
126.7587
 20
-13.1461
 30
0.0
 10
126.7587
 20
-13.1461
 30
0.0
 10
121.1584
 20
-13.1336
 30
0.0
 10
121.1584
 20
-13.1336
 30
0.0
 10
121.1584
 20
-13.1336
 30
0.0
 10
128.0369
 20
-24.1316
 30
0.0
 10
139.9985
 20
-31.704
 30
0.0
 10
153.6855
 20
-32.4553
 30
0.0
  0
SPLINE
  5
4E
330
1F
100
AcDbEntity
  8
layer 1
 62
     7
100
AcDbSpline
210
0.0
220
0.0
230
1.0
 70
    11
 71
     3
 72
    20
 73
    16
 74
     0
 42
0.0000000001
 43
0.0000000001
 12
1.0
 22
0.0
 32
0.0
 13
1.0
 23
0.0
 33
0.0
 40
0.0
 40
0.0
 40
0.0
 40
0.0
 40
0.2
 40
0.2
 40
0.2
 40
0.2
 40
0.4
 40
0.4
 40
0.4
 40
0.4
 40
0.6
 40
0.6
 40
0.6
 40
0.6
 40
1.0
 40
1.0
 40
1.0
 40
1.0
 10
137.7231
 20
-13.2109
 30
0.0
 10
142.1067
 20
-16.9421
 30
0.0
 10
147.6499
 20
-19.3652
 30
0.0
 10
153.7448
 20
-19.8699
 30
0.0
 10
153.7448
 20
-19.8699
 30
0.0
 10
153.7448
 20
-19.8699
 30
0.0
 10
153.7288
 20
-25.1668
 30
0.0
 10
153.7288
 20
-25.1668
 30
0.0
 10
153.7288
 20
-25.1668
 30
0.0
 10
144.3932
 20
-24.5435
 30
0.0
 10
136.1196
 20
-20.0319
 30
0.0
 10
130.5082
 20
-13.2358
 30
0.0
 10
130.5082
 20
-13.2358
 30
0.0
 10
130.5082
 20
-13.2358
 30
0.0
 10
137.7231
 20
-13.2109
 30
0.0
 10
137.7231
 20
-13.2109
 30
0.0
  0
SPLINE
  5
4F
330
1F
100
AcDbEntity
  8
layer 1
 62
     7
100
AcDbSpline
210
0.0
220
0.0
230
1.0
 70
    11
 71
     3
 72
    16
 73
    12
 74
     0
 42
0.0000000001
 43
0.0000000001
 12
1.0
 22
0.0
 32
0.0
 13
1.0
 23
0.0
 33
0.0
 40
0.0
 40
0.0
 40
0.0
 40
0.0
 40
0.25
 40
0.25
 40
0.25
 40
0.25
 40
0.5
 40
0.5
 40
0.5
 40
0.5
 40
1.0
 40
1.0
 40
1.0
 40
1.0
 10
153.7288
 20
-13.2127
 30
0.0
 10
153.7288
 20
-13.2127
 30
0.0
 10
153.6602
 20
-17.0824
 30
0.0
 10
153.6602
 20
-17.0824
 30
0.0
 10
153.6602
 20
-17.0824
 30
0.0
 10
149.7367
 20
-16.7263
 30
0.0
 10
145.9387
 20
-15.2544
 30
0.0
 10
142.8849
 20
-13.2271
 30
0.0
 10
142.8849
 20
-13.2271
 30
0.0
 10
142.8849
 20
-13.2271
 30
0.0
 10
153.7288
 20
-13.2127
 30
0.0
 10
153.7288
 20
-13.2127
 30
0.0
  0
SPLINE
  5
50
330
1F
100
AcDbEntity
  8
layer 1
 62
     7
100
AcDbSpline
210
0.0
220
0.0
230
1.0
 70
    11
 71
     3
 72
    16
 73
    12
 74
     0
 42
0.0000000001
 43
0.0000000001
 12
1.0
 22
0.0
 32
0.0
 13
1.0
 23
0.0
 33
0.0
 40
0.0
 40
0.0
 40
0.0
 40
0.0
 40
0.25
 40
0.25
 40
0.25
 40
0.25
 40
0.5
 40
0.5
 40
0.5
 40
0.5
 40
1.0
 40
1.0
 40
1.0
 40
1.0
 10
157.956
 20
-35.3022
 30
0.0
 10
160.7185
 20
-37.7791
 30
0.0
 10
161.8404
 20
-40.6173
 30
0.0
 10
162.5627
 20
-45.4937
 30
0.0
 10
162.5627
 20
-45.4937
 30
0.0
 10
165.4658
 20
-42.7472
 30
0.0
 10
168.2229
 20
-41.0037
 30
0.0
 10
171.8731
 20
-40.5165
 30
0.0
 10
171.8731
 20
-40.5165
 30
0.0
 10
168.9614
 20
-38.4748
 30
0.0
 10
163.7366
 20
-35.5379
 30
0.0
 10
157.956
 20
-35.3022
 30
0.0
  0
SPLINE
  5
51
330
1F
100
AcDbEntity
  8
layer 1
 62
     7
100
AcDbSpline
210
0.0
220
0.0
230
1.0
 70
    11
 71
     3
 72
    12
 73
     8
 74
     0
 42
0.0000000001
 43
0.0000000001
 12
1.0
 22
0.0
 32
0.0
 13
1.0
 23
0.0
 33
0.0
 40
0.0
 40
0.0
 40
0.0
 40
0.0
 40
0.3333333333333333
 40
0.3333333333333333
 40
0.3333333333333333
 40
0.3333333333333333
 40
1.0
 40
1.0
 40
1.0
 40
1.0
 10
178.7484
 20
-62.1427
 30
0.0
 10
176.0092
 20
-58.1362
 30
0.0
 10
166.8549
 20
-57.2772
 30
0.0
 10
163.6234
 20
-62.1427
 30
0.0
 10
163.6234
 20
-62.1427
 30
0.0
 10
166.8549
 20
-67.0067
 30
0.0
 10
176.0092
 20
-66.149
 30
0.0
 10
178.7484
 20
-62.1427
 30
0.0
  0
SPLINE
  5
52
330
1F
100
AcDbEntity
  8
layer 1
 62
     7
100
AcDbSpline
210
0.0
220
0.0
230
1.0
 70
    11
 71
     3
 72
    12
 73
     8
 74
     0
 42
0.0000000001
 43
0.0000000001
 12
1.0
 22
0.0
 32
0.0
 13
1.0
 23
0.0
 33
0.0
 40
0.0
 40
0.0
 40
0.0
 40
0.0
 40
0.3333333333333333
 40
0.3333333333333333
 40
0.3333333333333333
 40
0.3333333333333333
 40
1.0
 40
1.0
 40
1.0
 40
1.0
 10
172.5867
 20
-45.4795
 30
0.0
 10
167.8166
 20
-44.5841
 30
0.0
 10
160.7365
 20
-50.4489
 30
0.0
 10
161.8905
 20
-56.1739
 30
0.0
 10
161.8905
 20
-56.1739
 30
0.0
 10
167.6169
 20
-57.3292
 30
0.0
 10
173.4817
 20
-50.2496
 30
0.0
 10
172.5867
 20
-45.4795
 30
0.0
  0
SPLINE
  5
53
330
1F
100
AcDbEntity
  8
layer 1
 62
     7
100
AcDbSpline
210
0.0
220
0.0
230
1.0
 70
    11
 71
     3
 72
    16
 73
    12
 74
     0
 42
0.0000000001
 43
0.0000000001
 12
1.0
 22
0.0
 32
0.0
 13
1.0
 23
0.0
 33
0.0
 40
0.0
 40
0.0
 40
0.0
 40
0.0
 40
0.25
 40
0.25
 40
0.25
 40
0.25
 40
0.5
 40
0.5
 40
0.5
 40
0.5
 40
1.0
 40
1.0
 40
1.0
 40
1.0
 10
176.3809
 20
-44.7152
 30
0.0
 10
176.5844
 20
-48.4196
 30
0.0
 10
175.371
 20
-51.2201
 30
0.0
 10
172.4321
 20
-55.178
 30
0.0
 10
172.4321
 20
-55.178
 30
0.0
 10
176.4297
 20
-55.2894
 30
0.0
 10
179.611
 20
-56.005
 30
0.0
 10
182.537
 20
-58.2425
 30
0.0
 10
182.537
 20
-58.2425
 30
0.0
 10
181.9205
 20
-54.7395
 30
0.0
 10
180.3031
 20
-48.9695
 30
0.0
 10
176.3809
 20
-44.7152
 30
0.0
  0
SPLINE
  5
54
330
1F
100
AcDbEntity
  8
layer 1
 62
     7
100
AcDbSpline
210
0.0
220
0.0
230
1.0
 70
    11
 71
     3
 72
    16
 73
    12
 74
     0
 42
0.0000000001
 43
0.0000000001
 12
1.0
 22
0.0
 32
0.0
 13
1.0
 23
0.0
 33
0.0
 40
0.0
 40
0.0
 40
0.0
 40
0.0
 40
0.25
 40
0.25
 40
0.25
 40
0.25
 40
0.5
 40
0.5
 40
0.5
 40
0.5
 40
1.0
 40
1.0
 40
1.0
 40
1.0
 10
186.6405
 20
-23.988
 30
0.0
 10
186.6405
 20
-23.988
 30
0.0
 10
192.1028
 20
-28.323
 30
0.0
 10
192.1028
 20
-28.323
 30
0.0
 10
192.1028
 20
-28.323
 30
0.0
 10
192.1764
 20
-25.3772
 30
0.0
 10
192.1119
 20
-20.0159
 30
0.0
 10
192.0056
 20
-16.8308
 30
0.0
 10
192.0056
 20
-16.8308
 30
0.0
 10
190.6054
 20
-19.2645
 30
0.0
 10
189.4607
 20
-21.1965
 30
0.0
 10
186.6405
 20
-23.988
 30
0.0
  0
SPLINE
  5
55
330
1F
100
AcDbEntity
  8
layer 1
 62
     7
100
AcDbSpline
210
0.0
220
0.0
230
1.0
 70
    11
 71
     3
 72
    20
 73
    16
 74
     0
 42
0.0000000001
 43
0.0000000001
 12
1.0
 22
0.0
 32
0.0
 13
1.0
 23
0.0
 33
0.0
 40
0.0
 40
0.0
 40
0.0
 40
0.0
 40
0.2
 40
0.2
 40
0.2
 40
0.2
 40
0.4
 40
0.4
 40
0.4
 40
0.4
 40
0.6
 40
0.6
 40
0.6
 40
0.6
 40
1.0
 40
1.0
 40
1.0
 40
1.0
 10
179.3378
 20
-29.5796
 30
0.0
 10
179.3378
 20
-29.5796
 30
0.0
 10
192.1028
 20
-38.2571
 30
0.0
 10
192.1028
 20
-38.2571
 30
0.0
 10
192.1028
 20
-38.2571
 30
0.0
 10
192.1764
 20
-35.3133
 30
0.0
 10
192.243
 20
-35.7409
 30
0.0
 10
192.1367
 20
-32.5563
 30
0.0
 10
192.1367
 20
-32.5563
 30
0.0
 10
192.1367
 20
-32.5563
 30
0.0
 10
184.234
 20
-26.4217
 30
0.0
 10
184.234
 20
-26.4217
 30
0.0
 10
184.234
 20
-26.4217
 30
0.0
 10
182.388
 20
-27.7299
 30
0.0
 10
181.054
 20
-28.5351
 30
0.0
 10
179.3378
 20
-29.5796
 30
0.0
  0
SPLINE
  5
56
330
1F
100
AcDbEntity
  8
layer 1
 62
     7
100
AcDbSpline
210
0.0
220
0.0
230
1.0
 70
    11
 71
     3
 72
    20
 73
    16
 74
     0
 42
0.0000000001
 43
0.0000000001
 12
1.0
 22
0.0
 32
0.0
 13
1.0
 23
0.0
 33
0.0
 40
0.0
 40
0.0
 40
0.0
 40
0.0
 40
0.2
 40
0.2
 40
0.2
 40
0.2
 40
0.4
 40
0.4
 40
0.4
 40
0.4
 40
0.6
 40
0.6
 40
0.6
 40
0.6
 40
1.0
 40
1.0
 40
1.0
 40
1.0
 10
168.4815
 20
-33.5933
 30
0.0
 10
168.4815
 20
-33.5933
 30
0.0
 10
192.1028
 20
-47.7962
 30
0.0
 10
192.1028
 20
-47.7962
 30
0.0
 10
192.1028
 20
-47.7962
 30
0.0
 10
192.1764
 20
-44.8518
 30
0.0
 10
192.243
 20
-45.2798
 30
0.0
 10
192.1367
 20
-42.0948
 30
0.0
 10
192.1367
 20
-42.0948
 30
0.0
 10
192.1367
 20
-42.0948
 30
0.0
 10
175.7465
 20
-31.289
 30
0.0
 10
175.7465
 20
-31.289
 30
0.0
 10
175.7465
 20
-31.289
 30
0.0
 10
173.5052
 20
-32.1388
 30
0.0
 10
170.5272
 20
-33.009
 30
0.0
 10
168.4815
 20
-33.5933
 30
0.0
  0
SPLINE
  5
57
330
1F
100
AcDbEntity
  8
layer 1
 62
     7
100
AcDbSpline
210
0.0
220
0.0
230
1.0
 70
    11
 71
     3
 72
    20
 73
    16
 74
     0
 42
0.0000000001
 43
0.0000000001
 12
1.0
 22
0.0
 32
0.0
 13
1.0
 23
0.0
 33
0.0
 40
0.0
 40
0.0
 40
0.0
 40
0.0
 40
0.2
 40
0.2
 40
0.2
 40
0.2
 40
0.4
 40
0.4
 40
0.4
 40
0.4
 40
0.6
 40
0.6
 40
0.6
 40
0.6
 40
1.0
 40
1.0
 40
1.0
 40
1.0
 10
183.2185
 20
-50.5658
 30
0.0
 10
183.2185
 20
-50.5658
 30
0.0
 10
192.1028
 20
-56.0855
 30
0.0
 10
192.1028
 20
-56.0855
 30
0.0
 10
192.1028
 20
-56.0855
 30
0.0
 10
192.1764
 20
-53.1415
 30
0.0
 10
192.243
 20
-54.4911
 30
0.0
 10
192.1367
 20
-51.3066
 30
0.0
 10
192.1367
 20
-51.3066
 30
0.0
 10
192.1367
 20
-51.3066
 30
0.0
 10
178.7897
 20
-43.3025
 30
0.0
 10
178.7897
 20
-43.3025
 30
0.0
 10
178.7897
 20
-43.3025
 30
0.0
 10
180.6514
 20
-45.6373
 30
0.0
 10
181.9099
 20
-47.8124
 30
0.0
 10
183.2185
 20
-50.5658
 30
0.0
  0
SPLINE
  5
58
330
1F
100
AcDbEntity
  8
layer 1
 62
     7
100
AcDbSpline
210
0.0
220
0.0
230
1.0
 70
    11
 71
     3
 72
    16
 73
    12
 74
     0
 42
0.0000000001
 43
0.0000000001
 12
1.0
 22
0.0
 32
0.0
 13
1.0
 23
0.0
 33
0.0
 40
0.0
 40
0.0
 40
0.0
 40
0.0
 40
0.25
 40
0.25
 40
0.25
 40
0.25
 40
0.5
 40
0.5
 40
0.5
 40
0.5
 40
1.0
 40
1.0
 40
1.0
 40
1.0
 10
185.4902
 20
-59.0188
 30
0.0
 10
185.4902
 20
-59.0188
 30
0.0
 10
191.1162
 20
-59.5723
 30
0.0
 10
191.1162
 20
-59.5723
 30
0.0
 10
191.1162
 20
-59.5723
 30
0.0
 10
190.2696
 20
-58.3162
 30
0.0
 10
187.2552
 20
-54.7124
 30
0.0
 10
184.372
 20
-53.8244
 30
0.0
 10
184.372
 20
-53.8244
 30
0.0
 10
185.0015
 20
-56.1361
 30
0.0
 10
185.1377
 20
-57.0311
 30
0.0
 10
185.4902
 20
-59.0188
 30
0.0
  0
SPLINE
  5
59
330
1F
100
AcDbEntity
  8
layer 1
 62
     7
100
AcDbSpline
210
0.0
220
0.0
230
1.0
 70
    11
 71
     3
 72
    20
 73
    16
 74
     0
 42
0.0000000001
 43
0.0000000001
 12
1.0
 22
0.0
 32
0.0
 13
1.0
 23
0.0
 33
0.0
 40
0.0
 40
0.0
 40
0.0
 40
0.0
 40
0.2
 40
0.2
 40
0.2
 40
0.2
 40
0.4
 40
0.4
 40
0.4
 40
0.4
 40
0.6
 40
0.6
 40
0.6
 40
0.6
 40
1.0
 40
1.0
 40
1.0
 40
1.0
 10
158.4073
 20
-32.4283
 30
0.0
 10
158.4073
 20
-32.4283
 30
0.0
 10
158.4055
 20
-27.7644
 30
0.0
 10
158.4055
 20
-27.7644
 30
0.0
 10
158.4055
 20
-27.7644
 30
0.0
 10
169.3622
 20
-27.0848
 30
0.0
 10
179.1744
 20
-21.4161
 30
0.0
 10
185.3355
 20
-13.1208
 30
0.0
 10
185.3355
 20
-13.1208
 30
0.0
 10
185.3355
 20
-13.1208
 30
0.0
 10
190.9345
 20
-13.1064
 30
0.0
 10
190.9345
 20
-13.1064
 30
0.0
 10
190.9345
 20
-13.1064
 30
0.0
 10
184.056
 20
-24.1045
 30
0.0
 10
172.0943
 20
-31.6769
 30
0.0
 10
158.4073
 20
-32.4283
 30
0.0
  0
SPLINE
  5
5A
330
1F
100
AcDbEntity
  8
layer 1
 62
     7
100
AcDbSpline
210
0.0
220
0.0
230
1.0
 70
    11
 71
     3
 72
    20
 73
    16
 74
     0
 42
0.0000000001
 43
0.0000000001
 12
1.0
 22
0.0
 32
0.0
 13
1.0
 23
0.0
 33
0.0
 40
0.0
 40
0.0
 40
0.0
 40
0.0
 40
0.2
 40
0.2
 40
0.2
 40
0.2
 40
0.4
 40
0.4
 40
0.4
 40
0.4
 40
0.6
 40
0.6
 40
0.6
 40
0.6
 40
1.0
 40
1.0
 40
1.0
 40
1.0
 10
174.3716
 20
-13.1856
 30
0.0
 10
169.988
 20
-16.9167
 30
0.0
 10
164.4447
 20
-19.338
 30
0.0
 10
158.348
 20
-19.8433
 30
0.0
 10
158.348
 20
-19.8433
 30
0.0
 10
158.348
 20
-19.8433
 30
0.0
 10
158.366
 20
-25.1398
 30
0.0
 10
158.366
 20
-25.1398
 30
0.0
 10
158.366
 20
-25.1398
 30
0.0
 10
167.6997
 20
-24.5181
 30
0.0
 10
175.9728
 20
-20.0048
 30
0.0
 10
181.5864
 20
-13.2109
 30
0.0
 10
181.5864
 20
-13.2109
 30
0.0
 10
181.5864
 20
-13.2109
 30
0.0
 10
174.3716
 20
-13.1856
 30
0.0
 10
174.3716
 20
-13.1856
 30
0.0
  0
SPLINE
  5
5B
330
1F
100
AcDbEntity
  8
layer 1
 62
     7
100
AcDbSpline
210
0.0
220
0.0
230
1.0
 70
    11
 71
     3
 72
    16
 73
    12
 74
     0
 42
0.0000000001
 43
0.0000000001
 12
1.0
 22
0.0
 32
0.0
 13
1.0
 23
0.0
 33
0.0
 40
0.0
 40
0.0
 40
0.0
 40
0.0
 40
0.25
 40
0.25
 40
0.25
 40
0.25
 40
0.5
 40
0.5
 40
0.5
 40
0.5
 40
1.0
 40
1.0
 40
1.0
 40
1.0
 10
158.3641
 20
-13.1856
 30
0.0
 10
158.3641
 20
-13.1856
 30
0.0
 10
158.4341
 20
-17.0572
 30
0.0
 10
158.4341
 20
-17.0572
 30
0.0
 10
158.4341
 20
-17.0572
 30
0.0
 10
162.3581
 20
-16.6995
 30
0.0
 10
166.1541
 20
-15.2272
 30
0.0
 10
169.2093
 20
-13.2
 30
0.0
 10
169.2093
 20
-13.2
 30
0.0
 10
169.2093
 20
-13.2
 30
0.0
 10
158.3641
 20
-13.1856
 30
0.0
 10
158.3641
 20
-13.1856
 30
0.0
  0
SPLINE
  5
5C
330
1F
100
AcDbEntity
  8
layer 1
 62
     7
100
AcDbSpline
210
0.0
220
0.0
230
1.0
 70
    11
 71
     3
 72
    16
 73
    12
 74
     0
 42
0.0000000001
 43
0.0000000001
 12
1.0
 22
0.0
 32
0.0
 13
1.0
 23
0.0
 33
0.0
 40
0.0
 40
0.0
 40
0.0
 40
0.0
 40
0.25
 40
0.25
 40
0.25
 40
0.25
 40
0.5
 40
0.5
 40
0.5
 40
0.5
 40
1.0
 40
1.0
 40
1.0
 40
1.0
 10
154.1383
 20
-89.0603
 30
0.0
 10
151.3757
 20
-86.5838
 30
0.0
 10
150.2542
 20
-83.7458
 30
0.0
 10
149.5319
 20
-78.8694
 30
0.0
 10
149.5319
 20
-78.8694
 30
0.0
 10
146.6271
 20
-81.6158
 30
0.0
 10
143.8719
 20
-83.3593
 30
0.0
 10
140.2211
 20
-83.8461
 30
0.0
 10
140.2211
 20
-83.8461
 30
0.0
 10
143.1328
 20
-85.8881
 30
0.0
 10
148.358
 20
-88.8233
 30
0.0
 10
154.1383
 20
-89.0603
 30
0.0
  0
SPLINE
  5
5D
330
1F
100
AcDbEntity
  8
layer 1
 62
     7
100
AcDbSpline
210
0.0
220
0.0
230
1.0
 70
    11
 71
     3
 72
    12
 73
     8
 74
     0
 42
0.0000000001
 43
0.0000000001
 12
1.0
 22
0.0
 32
0.0
 13
1.0
 23
0.0
 33
0.0
 40
0.0
 40
0.0
 40
0.0
 40
0.0
 40
0.3333333333333333
 40
0.3333333333333333
 40
0.3333333333333333
 40
0.3333333333333333
 40
1.0
 40
1.0
 40
1.0
 40
1.0
 10
156.04
 20
-85.9673
 30
0.0
 10
160.0445
 20
-83.2281
 30
0.0
 10
160.9035
 20
-74.0738
 30
0.0
 10
156.04
 20
-70.8424
 30
0.0
 10
156.04
 20
-70.8424
 30
0.0
 10
151.1745
 20
-74.0738
 30
0.0
 10
152.0336
 20
-83.2281
 30
0.0
 10
156.04
 20
-85.9673
 30
0.0
  0
SPLINE
  5
5E
330
1F
100
AcDbEntity
  8
layer 1
 62
     7
100
AcDbSpline
210
0.0
220
0.0
230
1.0
 70
    11
 71
     3
 72
    12
 73
     8
 74
     0
 42
0.0000000001
 43
0.0000000001
 12
1.0
 22
0.0
 32
0.0
 13
1.0
 23
0.0
 33
0.0
 40
0.0
 40
0.0
 40
0.0
 40
0.0
 40
0.3333333333333333
 40
0.3333333333333333
 40
0.3333333333333333
 40
0.3333333333333333
 40
1.0
 40
1.0
 40
1.0
 40
1.0
 10
139.5075
 20
-78.8836
 30
0.0
 10
144.2763
 20
-79.779
 30
0.0
 10
151.3577
 20
-73.9136
 30
0.0
 10
150.2023
 20
-68.1873
 30
0.0
 10
150.2023
 20
-68.1873
 30
0.0
 10
144.4773
 20
-67.0333
 30
0.0
 10
138.6125
 20
-74.1135
 30
0.0
 10
139.5075
 20
-78.8836
 30
0.0
  0
SPLINE
  5
5F
330
1F
100
AcDbEntity
  8
layer 1
 62
     7
100
AcDbSpline
210
0.0
220
0.0
230
1.0
 70
    11
 71
     3
 72
    16
 73
    12
 74
     0
 42
0.0000000001
 43
0.0000000001
 12
1.0
 22
0.0
 32
0.0
 13
1.0
 23
0.0
 33
0.0
 40
0.0
 40
0.0
 40
0.0
 40
0.0
 40
0.25
 40
0.25
 40
0.25
 40
0.25
 40
0.5
 40
0.5
 40
0.5
 40
0.5
 40
1.0
 40
1.0
 40
1.0
 40
1.0
 10
135.7115
 20
-79.6474
 30
0.0
 10
135.5103
 20
-75.9433
 30
0.0
 10
136.7237
 20
-73.1429
 30
0.0
 10
139.6606
 20
-69.183
 30
0.0
 10
139.6606
 20
-69.183
 30
0.0
 10
135.6649
 20
-69.0736
 30
0.0
 10
132.4836
 20
-68.3562
 30
0.0
 10
129.5571
 20
-66.1204
 30
0.0
 10
129.5571
 20
-66.1204
 30
0.0
 10
130.1719
 20
-69.6235
 30
0.0
 10
131.7915
 20
-75.393
 30
0.0
 10
135.7115
 20
-79.6474
 30
0.0
  0
SPLINE
  5
60
330
1F
100
AcDbEntity
  8
layer 1
 62
     7
100
AcDbSpline
210
0.0
220
0.0
230
1.0
 70
    11
 71
     3
 72
    16
 73
    12
 74
     0
 42
0.0000000001
 43
0.0000000001
 12
1.0
 22
0.0
 32
0.0
 13
1.0
 23
0.0
 33
0.0
 40
0.0
 40
0.0
 40
0.0
 40
0.0
 40
0.25
 40
0.25
 40
0.25
 40
0.25
 40
0.5
 40
0.5
 40
0.5
 40
0.5
 40
1.0
 40
1.0
 40
1.0
 40
1.0
 10
125.4541
 20
-100.3749
 30
0.0
 10
125.4541
 20
-100.3749
 30
0.0
 10
119.9916
 20
-96.0395
 30
0.0
 10
119.9916
 20
-96.0395
 30
0.0
 10
119.9916
 20
-96.0395
 30
0.0
 10
119.916
 20
-98.9839
 30
0.0
 10
119.9827
 20
-104.3472
 30
0.0
 10
120.0886
 20
-107.5323
 30
0.0
 10
120.0886
 20
-107.5323
 30
0.0
 10
121.4869
 20
-105.0986
 30
0.0
 10
122.6341
 20
-103.1665
 30
0.0
 10
125.4541
 20
-100.3749
 30
0.0
  0
SPLINE
  5
61
330
1F
100
AcDbEntity
  8
layer 1
 62
     7
100
AcDbSpline
210
0.0
220
0.0
230
1.0
 70
    11
 71
     3
 72
    20
 73
    16
 74
     0
 42
0.0000000001
 43
0.0000000001
 12
1.0
 22
0.0
 32
0.0
 13
1.0
 23
0.0
 33
0.0
 40
0.0
 40
0.0
 40
0.0
 40
0.0
 40
0.2
 40
0.2
 40
0.2
 40
0.2
 40
0.4
 40
0.4
 40
0.4
 40
0.4
 40
0.6
 40
0.6
 40
0.6
 40
0.6
 40
1.0
 40
1.0
 40
1.0
 40
1.0
 10
132.7569
 20
-94.7833
 30
0.0
 10
132.7569
 20
-94.7833
 30
0.0
 10
119.9916
 20
-86.1058
 30
0.0
 10
119.9916
 20
-86.1058
 30
0.0
 10
119.9916
 20
-86.1058
 30
0.0
 10
119.916
 20
-89.0497
 30
0.0
 10
119.8516
 20
-88.6218
 30
0.0
 10
119.9574
 20
-91.8068
 30
0.0
 10
119.9574
 20
-91.8068
 30
0.0
 10
119.9574
 20
-91.8068
 30
0.0
 10
127.8607
 20
-97.9412
 30
0.0
 10
127.8607
 20
-97.9412
 30
0.0
 10
127.8607
 20
-97.9412
 30
0.0
 10
129.7067
 20
-96.6313
 30
0.0
 10
131.0402
 20
-95.8274
 30
0.0
 10
132.7569
 20
-94.7833
 30
0.0
  0
SPLINE
  5
62
330
1F
100
AcDbEntity
  8
layer 1
 62
     7
100
AcDbSpline
210
0.0
220
0.0
230
1.0
 70
    11
 71
     3
 72
    20
 73
    16
 74
     0
 42
0.0000000001
 43
0.0000000001
 12
1.0
 22
0.0
 32
0.0
 13
1.0
 23
0.0
 33
0.0
 40
0.0
 40
0.0
 40
0.0
 40
0.0
 40
0.2
 40
0.2
 40
0.2
 40
0.2
 40
0.4
 40
0.4
 40
0.4
 40
0.4
 40
0.6
 40
0.6
 40
0.6
 40
0.6
 40
1.0
 40
1.0
 40
1.0
 40
1.0
 10
143.611
 20
-90.7696
 30
0.0
 10
143.611
 20
-90.7696
 30
0.0
 10
119.9916
 20
-76.5649
 30
0.0
 10
119.9916
 20
-76.5649
 30
0.0
 10
119.9916
 20
-76.5649
 30
0.0
 10
119.916
 20
-79.5107
 30
0.0
 10
119.8516
 20
-79.0833
 30
0.0
 10
119.9574
 20
-82.2682
 30
0.0
 10
119.9574
 20
-82.2682
 30
0.0
 10
119.9574
 20
-82.2682
 30
0.0
 10
136.3478
 20
-93.0739
 30
0.0
 10
136.3478
 20
-93.0739
 30
0.0
 10
136.3478
 20
-93.0739
 30
0.0
 10
138.5872
 20
-92.2236
 30
0.0
 10
141.5656
 20
-91.354
 30
0.0
 10
143.611
 20
-90.7696
 30
0.0
  0
SPLINE
  5
63
330
1F
100
AcDbEntity
  8
layer 1
 62
     7
100
AcDbSpline
210
0.0
220
0.0
230
1.0
 70
    11
 71
     3
 72
    20
 73
    16
 74
     0
 42
0.0000000001
 43
0.0000000001
 12
1.0
 22
0.0
 32
0.0
 13
1.0
 23
0.0
 33
0.0
 40
0.0
 40
0.0
 40
0.0
 40
0.0
 40
0.2
 40
0.2
 40
0.2
 40
0.2
 40
0.4
 40
0.4
 40
0.4
 40
0.4
 40
0.6
 40
0.6
 40
0.6
 40
0.6
 40
1.0
 40
1.0
 40
1.0
 40
1.0
 10
128.8743
 20
-73.7955
 30
0.0
 10
128.8743
 20
-73.7955
 30
0.0
 10
119.9916
 20
-68.2756
 30
0.0
 10
119.9916
 20
-68.2756
 30
0.0
 10
119.9916
 20
-68.2756
 30
0.0
 10
119.916
 20
-71.2214
 30
0.0
 10
119.8516
 20
-69.8715
 30
0.0
 10
119.9574
 20
-73.0564
 30
0.0
 10
119.9574
 20
-73.0564
 30
0.0
 10
119.9574
 20
-73.0564
 30
0.0
 10
133.3049
 20
-81.0605
 30
0.0
 10
133.3049
 20
-81.0605
 30
0.0
 10
133.3049
 20
-81.0605
 30
0.0
 10
131.4427
 20
-78.7252
 30
0.0
 10
130.1847
 20
-76.5507
 30
0.0
 10
128.8743
 20
-73.7955
 30
0.0
  0
SPLINE
  5
64
330
1F
100
AcDbEntity
  8
layer 1
 62
     7
100
AcDbSpline
210
0.0
220
0.0
230
1.0
 70
    11
 71
     3
 72
    16
 73
    12
 74
     0
 42
0.0000000001
 43
0.0000000001
 12
1.0
 22
0.0
 32
0.0
 13
1.0
 23
0.0
 33
0.0
 40
0.0
 40
0.0
 40
0.0
 40
0.0
 40
0.25
 40
0.25
 40
0.25
 40
0.25
 40
0.5
 40
0.5
 40
0.5
 40
0.5
 40
1.0
 40
1.0
 40
1.0
 40
1.0
 10
126.6045
 20
-65.3437
 30
0.0
 10
126.6045
 20
-65.3437
 30
0.0
 10
120.9785
 20
-64.7883
 30
0.0
 10
120.9785
 20
-64.7883
 30
0.0
 10
120.9785
 20
-64.7883
 30
0.0
 10
121.8233
 20
-66.0468
 30
0.0
 10
124.8394
 20
-69.6506
 30
0.0
 10
127.7204
 20
-70.5382
 30
0.0
 10
127.7204
 20
-70.5382
 30
0.0
 10
127.0913
 20
-68.2269
 30
0.0
 10
126.9546
 20
-67.332
 30
0.0
 10
126.6045
 20
-65.3437
 30
0.0
  0
SPLINE
  5
65
330
1F
100
AcDbEntity
  8
layer 1
 62
     7
100
AcDbSpline
210
0.0
220
0.0
230
1.0
 70
    11
 71
     3
 72
    20
 73
    16
 74
     0
 42
0.0000000001
 43
0.0000000001
 12
1.0
 22
0.0
 32
0.0
 13
1.0
 23
0.0
 33
0.0
 40
0.0
 40
0.0
 40
0.0
 40
0.0
 40
0.2
 40
0.2
 40
0.2
 40
0.2
 40
0.4
 40
0.4
 40
0.4
 40
0.4
 40
0.6
 40
0.6
 40
0.6
 40
0.6
 40
1.0
 40
1.0
 40
1.0
 40
1.0
 10
153.6855
 20
-91.9329
 30
0.0
 10
153.6855
 20
-91.9329
 30
0.0
 10
153.6873
 20
-96.5985
 30
0.0
 10
153.6873
 20
-96.5985
 30
0.0
 10
153.6873
 20
-96.5985
 30
0.0
 10
142.732
 20
-97.2782
 30
0.0
 10
132.9184
 20
-102.947
 30
0.0
 10
126.7587
 20
-111.2417
 30
0.0
 10
126.7587
 20
-111.2417
 30
0.0
 10
126.7587
 20
-111.2417
 30
0.0
 10
121.1584
 20
-111.2565
 30
0.0
 10
121.1584
 20
-111.2565
 30
0.0
 10
121.1584
 20
-111.2565
 30
0.0
 10
128.0369
 20
-100.2562
 30
0.0
 10
139.9985
 20
-92.6838
 30
0.0
 10
153.6855
 20
-91.9329
 30
0.0
  0
SPLINE
  5
66
330
1F
100
AcDbEntity
  8
layer 1
 62
     7
100
AcDbSpline
210
0.0
220
0.0
230
1.0
 70
    11
 71
     3
 72
    20
 73
    16
 74
     0
 42
0.0000000001
 43
0.0000000001
 12
1.0
 22
0.0
 32
0.0
 13
1.0
 23
0.0
 33
0.0
 40
0.0
 40
0.0
 40
0.0
 40
0.0
 40
0.2
 40
0.2
 40
0.2
 40
0.2
 40
0.4
 40
0.4
 40
0.4
 40
0.4
 40
0.6
 40
0.6
 40
0.6
 40
0.6
 40
1.0
 40
1.0
 40
1.0
 40
1.0
 10
137.7231
 20
-111.1773
 30
0.0
 10
142.1067
 20
-107.4457
 30
0.0
 10
147.6499
 20
-105.025
 30
0.0
 10
153.7448
 20
-104.5197
 30
0.0
 10
153.7448
 20
-104.5197
 30
0.0
 10
153.7448
 20
-104.5197
 30
0.0
 10
153.7288
 20
-99.2227
 30
0.0
 10
153.7288
 20
-99.2227
 30
0.0
 10
153.7288
 20
-99.2227
 30
0.0
 10
144.3932
 20
-99.8448
 30
0.0
 10
136.1196
 20
-104.3577
 30
0.0
 10
130.5082
 20
-111.1521
 30
0.0
 10
130.5082
 20
-111.1521
 30
0.0
 10
130.5082
 20
-111.1521
 30
0.0
 10
137.7231
 20
-111.1773
 30
0.0
 10
137.7231
 20
-111.1773
 30
0.0
  0
SPLINE
  5
67
330
1F
100
AcDbEntity
  8
layer 1
 62
     7
100
AcDbSpline
210
0.0
220
0.0
230
1.0
 70
    11
 71
     3
 72
    16
 73
    12
 74
     0
 42
0.0000000001
 43
0.0000000001
 12
1.0
 22
0.0
 32
0.0
 13
1.0
 23
0.0
 33
0.0
 40
0.0
 40
0.0
 40
0.0
 40
0.0
 40
0.25
 40
0.25
 40
0.25
 40
0.25
 40
0.5
 40
0.5
 40
0.5
 40
0.5
 40
1.0
 40
1.0
 40
1.0
 40
1.0
 10
153.7288
 20
-111.1773
 30
0.0
 10
153.7288
 20
-111.1773
 30
0.0
 10
153.6602
 20
-107.3059
 30
0.0
 10
153.6602
 20
-107.3059
 30
0.0
 10
153.6602
 20
-107.3059
 30
0.0
 10
149.7367
 20
-107.6634
 30
0.0
 10
145.9387
 20
-109.1353
 30
0.0
 10
142.8849
 20
-111.1631
 30
0.0
 10
142.8849
 20
-111.1631
 30
0.0
 10
142.8849
 20
-111.1631
 30
0.0
 10
153.7288
 20
-111.1773
 30
0.0
 10
153.7288
 20
-111.1773
 30
0.0
  0
SPLINE
  5
68
330
1F
100
AcDbEntity
  8
layer 1
 62
     7
100
AcDbSpline
210
0.0
220
0.0
230
1.0
 70
    11
 71
     3
 72
    16
 73
    12
 74
     0
 42
0.0000000001
 43
0.0000000001
 12
1.0
 22
0.0
 32
0.0
 13
1.0
 23
0.0
 33
0.0
 40
0.0
 40
0.0
 40
0.0
 40
0.0
 40
0.25
 40
0.25
 40
0.25
 40
0.25
 40
0.5
 40
0.5
 40
0.5
 40
0.5
 40
1.0
 40
1.0
 40
1.0
 40
1.0
 10
157.956
 20
-89.0856
 30
0.0
 10
160.7185
 20
-86.6105
 30
0.0
 10
161.8404
 20
-83.7725
 30
0.0
 10
162.5627
 20
-78.8947
 30
0.0
 10
162.5627
 20
-78.8947
 30
0.0
 10
165.4658
 20
-81.6424
 30
0.0
 10
168.2229
 20
-83.3859
 30
0.0
 10
171.8731
 20
-83.8732
 30
0.0
 10
171.8731
 20
-83.8732
 30
0.0
 10
168.9614
 20
-85.9148
 30
0.0
 10
163.7366
 20
-88.85
 30
0.0
 10
157.956
 20
-89.0856
 30
0.0
  0
SPLINE
  5
69
330
1F
100
AcDbEntity
  8
layer 1
 62
     7
100
AcDbSpline
210
0.0
220
0.0
230
1.0
 70
    11
 71
     3
 72
    12
 73
     8
 74
     0
 42
0.0000000001
 43
0.0000000001
 12
1.0
 22
0.0
 32
0.0
 13
1.0
 23
0.0
 33
0.0
 40
0.0
 40
0.0
 40
0.0
 40
0.0
 40
0.3333333333333333
 40
0.3333333333333333
 40
0.3333333333333333
 40
0.3333333333333333
 40
1.0
 40
1.0
 40
1.0
 40
1.0
 10
172.5867
 20
-78.9107
 30
0.0
 10
167.8166
 20
-79.8056
 30
0.0
 10
160.7365
 20
-73.9409
 30
0.0
 10
161.8905
 20
-68.2145
 30
0.0
 10
161.8905
 20
-68.2145
 30
0.0
 10
167.6169
 20
-67.0605
 30
0.0
 10
173.4817
 20
-74.1406
 30
0.0
 10
172.5867
 20
-78.9107
 30
0.0
  0
SPLINE
  5
6A
330
1F
100
AcDbEntity
  8
layer 1
 62
     7
100
AcDbSpline
210
0.0
220
0.0
230
1.0
 70
    11
 71
     3
 72
    16
 73
    12
 74
     0
 42
0.0000000001
 43
0.0000000001
 12
1.0
 22
0.0
 32
0.0
 13
1.0
 23
0.0
 33
0.0
 40
0.0
 40
0.0
 40
0.0
 40
0.0
 40
0.25
 40
0.25
 40
0.25
 40
0.25
 40
0.5
 40
0.5
 40
0.5
 40
0.5
 40
1.0
 40
1.0
 40
1.0
 40
1.0
 10
176.3809
 20
-79.6745
 30
0.0
 10
176.5844
 20
-75.97
 30
0.0
 10
175.371
 20
-73.1697
 30
0.0
 10
172.4321
 20
-69.2103
 30
0.0
 10
172.4321
 20
-69.2103
 30
0.0
 10
176.4297
 20
-69.1002
 30
0.0
 10
179.611
 20
-68.3834
 30
0.0
 10
182.537
 20
-66.1477
 30
0.0
 10
182.537
 20
-66.1477
 30
0.0
 10
181.9205
 20
-69.6505
 30
0.0
 10
180.3031
 20
-75.4201
 30
0.0
 10
176.3809
 20
-79.6745
 30
0.0
  0
SPLINE
  5
6B
330
1F
100
AcDbEntity
  8
layer 1
 62
     7
100
AcDbSpline
210
0.0
220
0.0
230
1.0
 70
    11
 71
     3
 72
    16
 73
    12
 74
     0
 42
0.0000000001
 43
0.0000000001
 12
1.0
 22
0.0
 32
0.0
 13
1.0
 23
0.0
 33
0.0
 40
0.0
 40
0.0
 40
0.0
 40
0.0
 40
0.25
 40
0.25
 40
0.25
 40
0.25
 40
0.5
 40
0.5
 40
0.5
 40
0.5
 40
1.0
 40
1.0
 40
1.0
 40
1.0
 10
186.6405
 20
-100.402
 30
0.0
 10
186.6405
 20
-100.402
 30
0.0
 10
192.1028
 20
-96.0666
 30
0.0
 10
192.1028
 20
-96.0666
 30
0.0
 10
192.1028
 20
-96.0666
 30
0.0
 10
192.1764
 20
-99.0106
 30
0.0
 10
192.1119
 20
-104.3725
 30
0.0
 10
192.0056
 20
-107.5576
 30
0.0
 10
192.0056
 20
-107.5576
 30
0.0
 10
190.6054
 20
-105.1252
 30
0.0
 10
189.4607
 20
-103.1932
 30
0.0
 10
186.6405
 20
-100.402
 30
0.0
  0
SPLINE
  5
6C
330
1F
100
AcDbEntity
  8
layer 1
 62
     7
100
AcDbSpline
210
0.0
220
0.0
230
1.0
 70
    11
 71
     3
 72
    20
 73
    16
 74
     0
 42
0.0000000001
 43
0.0000000001
 12
1.0
 22
0.0
 32
0.0
 13
1.0
 23
0.0
 33
0.0
 40
0.0
 40
0.0
 40
0.0
 40
0.0
 40
0.2
 40
0.2
 40
0.2
 40
0.2
 40
0.4
 40
0.4
 40
0.4
 40
0.4
 40
0.6
 40
0.6
 40
0.6
 40
0.6
 40
1.0
 40
1.0
 40
1.0
 40
1.0
 10
179.3378
 20
-94.8101
 30
0.0
 10
179.3378
 20
-94.8101
 30
0.0
 10
192.1028
 20
-86.1324
 30
0.0
 10
192.1028
 20
-86.1324
 30
0.0
 10
192.1028
 20
-86.1324
 30
0.0
 10
192.1764
 20
-89.0769
 30
0.0
 10
192.243
 20
-88.6489
 30
0.0
 10
192.1367
 20
-91.8339
 30
0.0
 10
192.1367
 20
-91.8339
 30
0.0
 10
192.1367
 20
-91.8339
 30
0.0
 10
184.234
 20
-97.9683
 30
0.0
 10
184.234
 20
-97.9683
 30
0.0
 10
184.234
 20
-97.9683
 30
0.0
 10
182.388
 20
-96.6579
 30
0.0
 10
181.054
 20
-95.8546
 30
0.0
 10
179.3378
 20
-94.8101
 30
0.0
  0
SPLINE
  5
6D
330
1F
100
AcDbEntity
  8
layer 1
 62
     7
100
AcDbSpline
210
0.0
220
0.0
230
1.0
 70
    11
 71
     3
 72
    20
 73
    16
 74
     0
 42
0.0000000001
 43
0.0000000001
 12
1.0
 22
0.0
 32
0.0
 13
1.0
 23
0.0
 33
0.0
 40
0.0
 40
0.0
 40
0.0
 40
0.0
 40
0.2
 40
0.2
 40
0.2
 40
0.2
 40
0.4
 40
0.4
 40
0.4
 40
0.4
 40
0.6
 40
0.6
 40
0.6
 40
0.6
 40
1.0
 40
1.0
 40
1.0
 40
1.0
 10
168.4815
 20
-90.7967
 30
0.0
 10
168.4815
 20
-90.7967
 30
0.0
 10
192.1028
 20
-76.592
 30
0.0
 10
192.1028
 20
-76.592
 30
0.0
 10
192.1028
 20
-76.592
 30
0.0
 10
192.1764
 20
-79.5378
 30
0.0
 10
192.243
 20
-79.11
 30
0.0
 10
192.1367
 20
-82.295
 30
0.0
 10
192.1367
 20
-82.295
 30
0.0
 10
192.1367
 20
-82.295
 30
0.0
 10
175.7465
 20
-93.0992
 30
0.0
 10
175.7465
 20
-93.0992
 30
0.0
 10
175.7465
 20
-93.0992
 30
0.0
 10
173.5052
 20
-92.2509
 30
0.0
 10
170.5272
 20
-91.3807
 30
0.0
 10
168.4815
 20
-90.7967
 30
0.0
  0
SPLINE
  5
6E
330
1F
100
AcDbEntity
  8
layer 1
 62
     7
100
AcDbSpline
210
0.0
220
0.0
230
1.0
 70
    11
 71
     3
 72
    20
 73
    16
 74
     0
 42
0.0000000001
 43
0.0000000001
 12
1.0
 22
0.0
 32
0.0
 13
1.0
 23
0.0
 33
0.0
 40
0.0
 40
0.0
 40
0.0
 40
0.0
 40
0.2
 40
0.2
 40
0.2
 40
0.2
 40
0.4
 40
0.4
 40
0.4
 40
0.4
 40
0.6
 40
0.6
 40
0.6
 40
0.6
 40
1.0
 40
1.0
 40
1.0
 40
1.0
 10
183.2185
 20
-73.8221
 30
0.0
 10
183.2185
 20
-73.8221
 30
0.0
 10
192.1028
 20
-68.3024
 30
0.0
 10
192.1028
 20
-68.3024
 30
0.0
 10
192.1028
 20
-68.3024
 30
0.0
 10
192.1764
 20
-71.2468
 30
0.0
 10
192.243
 20
-69.8986
 30
0.0
 10
192.1367
 20
-73.0836
 30
0.0
 10
192.1367
 20
-73.0836
 30
0.0
 10
192.1367
 20
-73.0836
 30
0.0
 10
178.7897
 20
-81.0852
 30
0.0
 10
178.7897
 20
-81.0852
 30
0.0
 10
178.7897
 20
-81.0852
 30
0.0
 10
180.6514
 20
-78.7524
 30
0.0
 10
181.9099
 20
-76.5774
 30
0.0
 10
183.2185
 20
-73.8221
 30
0.0
  0
SPLINE
  5
6F
330
1F
100
AcDbEntity
  8
layer 1
 62
     7
100
AcDbSpline
210
0.0
220
0.0
230
1.0
 70
    11
 71
     3
 72
    16
 73
    12
 74
     0
 42
0.0000000001
 43
0.0000000001
 12
1.0
 22
0.0
 32
0.0
 13
1.0
 23
0.0
 33
0.0
 40
0.0
 40
0.0
 40
0.0
 40
0.0
 40
0.25
 40
0.25
 40
0.25
 40
0.25
 40
0.5
 40
0.5
 40
0.5
 40
0.5
 40
1.0
 40
1.0
 40
1.0
 40
1.0
 10
185.4902
 20
-65.369
 30
0.0
 10
185.4902
 20
-65.369
 30
0.0
 10
191.1162
 20
-64.8156
 30
0.0
 10
191.1162
 20
-64.8156
 30
0.0
 10
191.1162
 20
-64.8156
 30
0.0
 10
190.2696
 20
-66.0734
 30
0.0
 10
187.2552
 20
-69.6754
 30
0.0
 10
184.372
 20
-70.5653
 30
0.0
 10
184.372
 20
-70.5653
 30
0.0
 10
185.0015
 20
-68.2541
 30
0.0
 10
185.1377
 20
-67.3587
 30
0.0
 10
185.4902
 20
-65.369
 30
0.0
  0
SPLINE
  5
70
330
1F
100
AcDbEntity
  8
layer 1
 62
     7
100
AcDbSpline
210
0.0
220
0.0
230
1.0
 70
    11
 71
     3
 72
    20
 73
    16
 74
     0
 42
0.0000000001
 43
0.0000000001
 12
1.0
 22
0.0
 32
0.0
 13
1.0
 23
0.0
 33
0.0
 40
0.0
 40
0.0
 40
0.0
 40
0.0
 40
0.2
 40
0.2
 40
0.2
 40
0.2
 40
0.4
 40
0.4
 40
0.4
 40
0.4
 40
0.6
 40
0.6
 40
0.6
 40
0.6
 40
1.0
 40
1.0
 40
1.0
 40
1.0
 10
158.4073
 20
-91.9595
 30
0.0
 10
158.4073
 20
-91.9595
 30
0.0
 10
158.4055
 20
-96.624
 30
0.0
 10
158.4055
 20
-96.624
 30
0.0
 10
158.4055
 20
-96.624
 30
0.0
 10
169.3622
 20
-97.303
 30
0.0
 10
179.1744
 20
-102.9741
 30
0.0
 10
185.3355
 20
-111.269
 30
0.0
 10
185.3355
 20
-111.269
 30
0.0
 10
185.3355
 20
-111.269
 30
0.0
 10
190.9345
 20
-111.2814
 30
0.0
 10
190.9345
 20
-111.2814
 30
0.0
 10
190.9345
 20
-111.2814
 30
0.0
 10
184.056
 20
-100.2833
 30
0.0
 10
172.0943
 20
-92.7109
 30
0.0
 10
158.4073
 20
-91.9595
 30
0.0
  0
SPLINE
  5
71
330
1F
100
AcDbEntity
  8
layer 1
 62
     7
100
AcDbSpline
210
0.0
220
0.0
230
1.0
 70
    11
 71
     3
 72
    20
 73
    16
 74
     0
 42
0.0000000001
 43
0.0000000001
 12
1.0
 22
0.0
 32
0.0
 13
1.0
 23
0.0
 33
0.0
 40
0.0
 40
0.0
 40
0.0
 40
0.0
 40
0.2
 40
0.2
 40
0.2
 40
0.2
 40
0.4
 40
0.4
 40
0.4
 40
0.4
 40
0.6
 40
0.6
 40
0.6
 40
0.6
 40
1.0
 40
1.0
 40
1.0
 40
1.0
 10
174.3716
 20
-111.204
 30
0.0
 10
169.988
 20
-107.4728
 30
0.0
 10
164.4447
 20
-105.0516
 30
0.0
 10
158.348
 20
-104.5469
 30
0.0
 10
158.348
 20
-104.5469
 30
0.0
 10
158.348
 20
-104.5469
 30
0.0
 10
158.366
 20
-99.2498
 30
0.0
 10
158.366
 20
-99.2498
 30
0.0
 10
158.366
 20
-99.2498
 30
0.0
 10
167.6997
 20
-99.8714
 30
0.0
 10
175.9728
 20
-104.385
 30
0.0
 10
181.5864
 20
-111.1793
 30
0.0
 10
181.5864
 20
-111.1793
 30
0.0
 10
181.5864
 20
-111.1793
 30
0.0
 10
174.3716
 20
-111.204
 30
0.0
 10
174.3716
 20
-111.204
 30
0.0
  0
SPLINE
  5
72
330
1F
100
AcDbEntity
  8
layer 1
 62
     7
100
AcDbSpline
210
0.0
220
0.0
230
1.0
 70
    11
 71
     3
 72
    16
 73
    12
 74
     0
 42
0.0000000001
 43
0.0000000001
 12
1.0
 22
0.0
 32
0.0
 13
1.0
 23
0.0
 33
0.0
 40
0.0
 40
0.0
 40
0.0
 40
0.0
 40
0.25
 40
0.25
 40
0.25
 40
0.25
 40
0.5
 40
0.5
 40
0.5
 40
0.5
 40
1.0
 40
1.0
 40
1.0
 40
1.0
 10
158.3641
 20
-111.204
 30
0.0
 10
158.3641
 20
-111.204
 30
0.0
 10
158.4341
 20
-107.3325
 30
0.0
 10
158.4341
 20
-107.3325
 30
0.0
 10
158.4341
 20
-107.3325
 30
0.0
 10
162.3581
 20
-107.6887
 30
0.0
 10
166.1541
 20
-109.1606
 30
0.0
 10
169.2093
 20
-111.188
 30
0.0
 10
169.2093
 20
-111.188
 30
0.0
 10
169.2093
 20
-111.188
 30
0.0
 10
158.3641
 20
-111.204
 30
0.0
 10
158.3641
 20
-111.204
 30
0.0
  0
LWPOLYLINE
  5
73
330
1F
100
AcDbEntity
  8
layer 1
 62
   250
370
     9
100
AcDbPolyline
 90
        5
 70
     1
 43
0.0
 10
116.3242
 20
-5.6046
 10
196.1032
 20
-5.6046
 10
196.1032
 20
131.8438
 10
116.3242
 20
131.8438
 10
116.3242
 20
-5.6046
  0
SPLINE
  5
74
330
1F
100
AcDbEntity
  8
layer 1
 62
     7
370
    20
100
AcDbSpline
210
0.0
220
0.0
230
1.0
 70
    11
 71
     3
 72
    20
 73
    16
 74
     0
 42
0.0000000001
 43
0.0000000001
 12
1.0
 22
0.0
 32
0.0
 13
1.0
 23
0.0
 33
0.0
 40
0.0
 40
0.0
 40
0.0
 40
0.0
 40
0.2
 40
0.2
 40
0.2
 40
0.2
 40
0.4
 40
0.4
 40
0.4
 40
0.4
 40
0.6
 40
0.6
 40
0.6
 40
0.6
 40
1.0
 40
1.0
 40
1.0
 40
1.0
 10
176.4866
 20
31.0959
 30
0.0
 10
178.1863
 20
27.8291
 30
0.0
 10
182.0525
 20
25.2176
 30
0.0
 10
182.003
 20
18.6165
 30
0.0
 10
182.003
 20
18.6165
 30
0.0
 10
181.7905
 20
15.0128
 30
0.0
 10
180.6792
 20
12.2337
 30
0.0
 10
177.2466
 20
11.948
 30
0.0
 10
177.2466
 20
11.948
 30
0.0
 10
175.1261
 20
12.1816
 30
0.0
 10
173.7533
 20
13.0986
 30
0.0
 10
172.7355
 20
15.8705
 30
0.0
 10
172.7355
 20
15.8705
 30
0.0
 10
171.7401
 20
21.2568
 30
0.0
 10
173.5921
 20
26.1268
 30
0.0
 10
176.4866
 20
31.0959
 30
0.0
  0
SPLINE
  5
75
330
1F
100
AcDbEntity
  8
layer 1
 62
     7
370
    20
100
AcDbSpline
210
0.0
220
0.0
230
1.0
 70
    11
 71
     3
 72
    20
 73
    16
 74
     0
 42
0.0000000001
 43
0.0000000001
 12
1.0
 22
0.0
 32
0.0
 13
1.0
 23
0.0
 33
0.0
 40
0.0
 40
0.0
 40
0.0
 40
0.0
 40
0.2
 40
0.2
 40
0.2
 40
0.2
 40
0.4
 40
0.4
 40
0.4
 40
0.4
 40
0.6
 40
0.6
 40
0.6
 40
0.6
 40
1.0
 40
1.0
 40
1.0
 40
1.0
 10
168.5249
 20
74.6226
 30
0.0
 10
171.0421
 20
75.5701
 30
0.0
 10
173.628
 20
75.8975
 30
0.0
 10
176.1453
 20
75.8642
 30
0.0
 10
176.1453
 20
75.8642
 30
0.0
 10
176.9634
 20
77.5965
 30
0.0
 10
177.5139
 20
80.3923
 30
0.0
 10
177.3512
 20
82.3208
 30
0.0
 10
177.3512
 20
82.3208
 30
0.0
 10
175.0629
 20
82.3223
 30
0.0
 10
172.4476
 20
81.8534
 30
0.0
 10
170.0942
 20
80.8744
 30
0.0
 10
170.0942
 20
80.8744
 30
0.0
 10
169.7574
 20
79.0507
 30
0.0
 10
169.2253
 20
76.3529
 30
0.0
 10
168.5249
 20
74.6226
 30
0.0
  0
SPLINE
  5
76
330
1F
100
AcDbEntity
  8
layer 1
 62
     7
370
    20
100
AcDbSpline
210
0.0
220
0.0
230
1.0
 70
    11
 71
     3
 72
    20
 73
    16
 74
     0
 42
0.0000000001
 43
0.0000000001
 12
1.0
 22
0.0
 32
0.0
 13
1.0
 23
0.0
 33
0.0
 40
0.0
 40
0.0
 40
0.0
 40
0.0
 40
0.2
 40
0.2
 40
0.2
 40
0.2
 40
0.4
 40
0.4
 40
0.4
 40
0.4
 40
0.6
 40
0.6
 40
0.6
 40
0.6
 40
1.0
 40
1.0
 40
1.0
 40
1.0
 10
145.1369
 20
74.3284
 30
0.0
 10
144.2144
 20
76.4718
 30
0.0
 10
143.4329
 20
78.757
 30
0.0
 10
143.3606
 20
80.9654
 30
0.0
 10
143.3606
 20
80.9654
 30
0.0
 10
141.381
 20
81.596
 30
0.0
 10
138.5024
 20
82.6387
 30
0.0
 10
136.4577
 20
82.4193
 30
0.0
 10
136.4577
 20
82.4193
 30
0.0
 10
136.2711
 20
80.5557
 30
0.0
 10
137.0365
 20
78.104
 30
0.0
 10
137.8308
 20
76.2408
 30
0.0
 10
137.8308
 20
76.2408
 30
0.0
 10
140.3264
 20
76.1133
 30
0.0
 10
143.0985
 20
75.2408
 30
0.0
 10
145.1369
 20
74.3284
 30
0.0
  0
SPLINE
  5
77
330
1F
100
AcDbEntity
  8
layer 1
 62
     7
370
    20
100
AcDbSpline
210
0.0
220
0.0
230
1.0
 70
    11
 71
     3
 72
    20
 73
    16
 74
     0
 42
0.0000000001
 43
0.0000000001
 12
1.0
 22
0.0
 32
0.0
 13
1.0
 23
0.0
 33
0.0
 40
0.0
 40
0.0
 40
0.0
 40
0.0
 40
0.2
 40
0.2
 40
0.2
 40
0.2
 40
0.4
 40
0.4
 40
0.4
 40
0.4
 40
0.6
 40
0.6
 40
0.6
 40
0.6
 40
1.0
 40
1.0
 40
1.0
 40
1.0
 10
145.2177
 20
51.9108
 30
0.0
 10
144.2952
 20
49.7674
 30
0.0
 10
143.5137
 20
47.4822
 30
0.0
 10
143.4414
 20
45.2737
 30
0.0
 10
143.4414
 20
45.2737
 30
0.0
 10
141.4618
 20
44.6432
 30
0.0
 10
138.5832
 20
43.6006
 30
0.0
 10
136.5385
 20
43.8199
 30
0.0
 10
136.5385
 20
43.8199
 30
0.0
 10
136.3519
 20
45.6835
 30
0.0
 10
137.1173
 20
48.1352
 30
0.0
 10
137.9116
 20
49.9984
 30
0.0
 10
137.9116
 20
49.9984
 30
0.0
 10
140.4072
 20
50.1259
 30
0.0
 10
143.1793
 20
50.9984
 30
0.0
 10
145.2177
 20
51.9108
 30
0.0
  0
SPLINE
  5
78
330
1F
100
AcDbEntity
  8
layer 1
 62
     7
370
    20
100
AcDbSpline
210
0.0
220
0.0
230
1.0
 70
    11
 71
     3
 72
    20
 73
    16
 74
     0
 42
0.0000000001
 43
0.0000000001
 12
1.0
 22
0.0
 32
0.0
 13
1.0
 23
0.0
 33
0.0
 40
0.0
 40
0.0
 40
0.0
 40
0.0
 40
0.2
 40
0.2
 40
0.2
 40
0.2
 40
0.4
 40
0.4
 40
0.4
 40
0.4
 40
0.6
 40
0.6
 40
0.6
 40
0.6
 40
1.0
 40
1.0
 40
1.0
 40
1.0
 10
176.4058
 20
95.1433
 30
0.0
 10
178.1055
 20
98.4101
 30
0.0
 10
181.9717
 20
101.0216
 30
0.0
 10
181.9222
 20
107.6226
 30
0.0
 10
181.9222
 20
107.6226
 30
0.0
 10
181.7097
 20
111.2264
 30
0.0
 10
180.5984
 20
114.0055
 30
0.0
 10
177.1658
 20
114.2912
 30
0.0
 10
177.1658
 20
114.2912
 30
0.0
 10
175.0453
 20
114.0575
 30
0.0
 10
173.6725
 20
113.1404
 30
0.0
 10
172.6547
 20
110.3687
 30
0.0
 10
172.6547
 20
110.3687
 30
0.0
 10
171.6593
 20
104.9824
 30
0.0
 10
173.5113
 20
100.1124
 30
0.0
 10
176.4058
 20
95.1433
 30
0.0
  0
SPLINE
  5
79
330
1F
100
AcDbEntity
  8
layer 1
 62
     7
370
    20
100
AcDbSpline
210
0.0
220
0.0
230
1.0
 70
    11
 71
     3
 72
    20
 73
    16
 74
     0
 42
0.0000000001
 43
0.0000000001
 12
1.0
 22
0.0
 32
0.0
 13
1.0
 23
0.0
 33
0.0
 40
0.0
 40
0.0
 40
0.0
 40
0.0
 40
0.2
 40
0.2
 40
0.2
 40
0.2
 40
0.4
 40
0.4
 40
0.4
 40
0.4
 40
0.6
 40
0.6
 40
0.6
 40
0.6
 40
1.0
 40
1.0
 40
1.0
 40
1.0
 10
168.6057
 20
51.6166
 30
0.0
 10
171.1229
 20
50.6691
 30
0.0
 10
173.7088
 20
50.3417
 30
0.0
 10
176.2261
 20
50.375
 30
0.0
 10
176.2261
 20
50.375
 30
0.0
 10
177.0443
 20
48.6427
 30
0.0
 10
177.5947
 20
45.8469
 30
0.0
 10
177.432
 20
43.9183
 30
0.0
 10
177.432
 20
43.9183
 30
0.0
 10
175.1437
 20
43.9169
 30
0.0
 10
172.5284
 20
44.3858
 30
0.0
 10
170.175
 20
45.3648
 30
0.0
 10
170.175
 20
45.3648
 30
0.0
 10
169.8382
 20
47.1885
 30
0.0
 10
169.3061
 20
49.8863
 30
0.0
 10
168.6057
 20
51.6166
 30
0.0
  0
SPLINE
  5
7A
330
1F
100
AcDbEntity
  8
layer 1
 62
     7
370
    20
100
AcDbSpline
210
0.0
220
0.0
230
1.0
 70
    11
 71
     3
 72
    28
 73
    24
 74
     0
 42
0.0000000001
 43
0.0000000001
 12
1.0
 22
0.0
 32
0.0
 13
1.0
 23
0.0
 33
0.0
 40
0.0
 40
0.0
 40
0.0
 40
0.0
 40
0.1428571428571428
 40
0.1428571428571428
 40
0.1428571428571428
 40
0.1428571428571428
 40
0.2857142857142857
 40
0.2857142857142857
 40
0.2857142857142857
 40
0.2857142857142857
 40
0.4285714285714285
 40
0.4285714285714285
 40
0.4285714285714285
 40
0.4285714285714285
 40
0.5714285714285714
 40
0.5714285714285714
 40
0.5714285714285714
 40
0.5714285714285714
 40
0.7142857142857143
 40
0.7142857142857143
 40
0.7142857142857143
 40
0.7142857142857143
 40
1.0
 40
1.0
 40
1.0
 40
1.0
 10
181.7515
 20
51.1569
 30
0.0
 10
183.6843
 20
51.8418
 30
0.0
 10
185.0567
 20
52.745
 30
0.0
 10
186.3854
 20
53.903
 30
0.0
 10
186.3854
 20
53.903
 30
0.0
 10
186.3854
 20
44.4555
 30
0.0
 10
186.3854
 20
35.0085
 30
0.0
 10
186.3854
 20
25.561
 30
0.0
 10
186.3854
 20
25.561
 30
0.0
 10
185.6205
 20
27.2166
 30
0.0
 10
184.6348
 20
29.1373
 30
0.0
 10
182.953
 20
31.4453
 30
0.0
 10
182.953
 20
31.4453
 30
0.0
 10
181.5025
 20
33.4961
 30
0.0
 10
180.5649
 20
35.177
 30
0.0
 10
179.9619
 20
38.0649
 30
0.0
 10
179.9619
 20
38.0649
 30
0.0
 10
181.2529
 20
38.0133
 30
0.0
 10
182.5443
 20
38.1817
 30
0.0
 10
183.8356
 20
38.6533
 30
0.0
 10
183.8356
 20
38.6533
 30
0.0
 10
183.7708
 20
43.451
 30
0.0
 10
183.3852
 20
47.6671
 30
0.0
 10
181.7515
 20
51.1569
 30
0.0
  0
SPLINE
  5
7B
330
1F
100
AcDbEntity
  8
layer 1
 62
     7
370
    20
100
AcDbSpline
210
0.0
220
0.0
230
1.0
 70
    11
 71
     3
 72
    28
 73
    24
 74
     0
 42
0.0000000001
 43
0.0000000001
 12
1.0
 22
0.0
 32
0.0
 13
1.0
 23
0.0
 33
0.0
 40
0.0
 40
0.0
 40
0.0
 40
0.0
 40
0.1428571428571428
 40
0.1428571428571428
 40
0.1428571428571428
 40
0.1428571428571428
 40
0.2857142857142857
 40
0.2857142857142857
 40
0.2857142857142857
 40
0.2857142857142857
 40
0.4285714285714285
 40
0.4285714285714285
 40
0.4285714285714285
 40
0.4285714285714285
 40
0.5714285714285714
 40
0.5714285714285714
 40
0.5714285714285714
 40
0.5714285714285714
 40
0.7142857142857143
 40
0.7142857142857143
 40
0.7142857142857143
 40
0.7142857142857143
 40
1.0
 40
1.0
 40
1.0
 40
1.0
 10
181.6707
 20
75.0823
 30
0.0
 10
183.6035
 20
74.3973
 30
0.0
 10
184.9759
 20
73.4941
 30
0.0
 10
186.3046
 20
72.3362
 30
0.0
 10
186.3046
 20
72.3362
 30
0.0
 10
186.3046
 20
81.7837
 30
0.0
 10
186.3046
 20
91.2307
 30
0.0
 10
186.3046
 20
100.6782
 30
0.0
 10
186.3046
 20
100.6782
 30
0.0
 10
185.5397
 20
99.0226
 30
0.0
 10
184.554
 20
97.1019
 30
0.0
 10
182.8722
 20
94.7939
 30
0.0
 10
182.8722
 20
94.7939
 30
0.0
 10
181.4216
 20
92.7431
 30
0.0
 10
180.484
 20
91.0622
 30
0.0
 10
179.8811
 20
88.1745
 30
0.0
 10
179.8811
 20
88.1745
 30
0.0
 10
181.1721
 20
88.2259
 30
0.0
 10
182.4635
 20
88.0574
 30
0.0
 10
183.7548
 20
87.5859
 30
0.0
 10
183.7548
 20
87.5859
 30
0.0
 10
183.69
 20
82.7882
 30
0.0
 10
183.3044
 20
78.5721
 30
0.0
 10
181.6707
 20
75.0823
 30
0.0
  0
SPLINE
  5
7C
330
1F
100
AcDbEntity
  8
layer 1
 62
     7
370
    20
100
AcDbSpline
210
0.0
220
0.0
230
1.0
 70
    11
 71
     3
 72
    32
 73
    28
 74
     0
 42
0.0000000001
 43
0.0000000001
 12
1.0
 22
0.0
 32
0.0
 13
1.0
 23
0.0
 33
0.0
 40
0.0
 40
0.0
 40
0.0
 40
0.0
 40
0.125
 40
0.125
 40
0.125
 40
0.125
 40
0.25
 40
0.25
 40
0.25
 40
0.25
 40
0.375
 40
0.375
 40
0.375
 40
0.375
 40
0.5
 40
0.5
 40
0.5
 40
0.5
 40
0.625
 40
0.625
 40
0.625
 40
0.625
 40
0.75
 40
0.75
 40
0.75
 40
0.75
 40
1.0
 40
1.0
 40
1.0
 40
1.0
 10
125.1874
 20
55.3432
 30
0.0
 10
127.0747
 20
53.0528
 30
0.0
 10
129.2158
 20
51.1274
 30
0.0
 10
132.1501
 20
50.3417
 30
0.0
 10
132.1501
 20
50.3417
 30
0.0
 10
130.845
 20
46.7624
 30
0.0
 10
130.2846
 20
42.8392
 30
0.0
 10
130.6793
 20
38.4752
 30
0.0
 10
130.6793
 20
38.4752
 30
0.0
 10
135.2263
 20
37.7442
 30
0.0
 10
139.4367
 20
38.2911
 30
0.0
 10
143.33
 20
40.0446
 30
0.0
 10
143.33
 20
40.0446
 30
0.0
 10
143.4869
 20
37.2054
 30
0.0
 10
145.4085
 20
34.8498
 30
0.0
 10
147.216
 20
32.9589
 30
0.0
 10
147.216
 20
32.9589
 30
0.0
 10
140.6267
 20
35.6722
 30
0.0
 10
131.7928
 20
33.4574
 30
0.0
 10
130.4831
 20
25.5303
 30
0.0
 10
130.4831
 20
25.5303
 30
0.0
 10
128.3732
 20
25.8053
 30
0.0
 10
126.5121
 20
25.1251
 30
0.0
 10
125.1874
 20
22.3922
 30
0.0
 10
125.1874
 20
22.3922
 30
0.0
 10
125.1874
 20
22.3922
 30
0.0
 10
125.1874
 20
55.3432
 30
0.0
 10
125.1874
 20
55.3432
 30
0.0
  0
SPLINE
  5
7D
330
1F
100
AcDbEntity
  8
layer 1
 62
     7
370
    20
100
AcDbSpline
210
0.0
220
0.0
230
1.0
 70
    11
 71
     3
 72
    24
 73
    20
 74
     0
 42
0.0000000001
 43
0.0000000001
 12
1.0
 22
0.0
 32
0.0
 13
1.0
 23
0.0
 33
0.0
 40
0.0
 40
0.0
 40
0.0
 40
0.0
 40
0.1666666666666667
 40
0.1666666666666667
 40
0.1666666666666667
 40
0.1666666666666667
 40
0.3333333333333333
 40
0.3333333333333333
 40
0.3333333333333333
 40
0.3333333333333333
 40
0.5
 40
0.5
 40
0.5
 40
0.5
 40
0.6666666666666666
 40
0.6666666666666666
 40
0.6666666666666666
 40
0.6666666666666666
 40
1.0
 40
1.0
 40
1.0
 40
1.0
 10
156.419
 20
1.7485
 30
0.0
 10
161.644
 20
4.6445
 30
0.0
 10
165.1202
 20
8.4146
 30
0.0
 10
167.2067
 20
12.8794
 30
0.0
 10
167.2067
 20
12.8794
 30
0.0
 10
169.1019
 20
8.707
 30
0.0
 10
171.8704
 20
5.7544
 30
0.0
 10
177.2097
 20
5.5634
 30
0.0
 10
177.2097
 20
5.5634
 30
0.0
 10
181.6217
 20
5.4705
 30
0.0
 10
184.7756
 20
8.3498
 30
0.0
 10
186.4283
 20
12.3892
 30
0.0
 10
186.4283
 20
12.3892
 30
0.0
 10
186.4283
 20
12.3892
 30
0.0
 10
186.3792
 20
1.7976
 30
0.0
 10
186.3792
 20
1.7976
 30
0.0
 10
186.3792
 20
1.7976
 30
0.0
 10
186.3792
 20
1.7976
 30
0.0
 10
156.419
 20
1.7485
 30
0.0
 10
156.419
 20
1.7485
 30
0.0
  0
SPLINE
  5
7E
330
1F
100
AcDbEntity
  8
layer 1
 62
     7
370
    20
100
AcDbSpline
210
0.0
220
0.0
230
1.0
 70
    11
 71
     3
 72
    28
 73
    24
 74
     0
 42
0.0000000001
 43
0.0000000001
 12
1.0
 22
0.0
 32
0.0
 13
1.0
 23
0.0
 33
0.0
 40
0.0
 40
0.0
 40
0.0
 40
0.0
 40
0.1428571428571428
 40
0.1428571428571428
 40
0.1428571428571428
 40
0.1428571428571428
 40
0.2857142857142857
 40
0.2857142857142857
 40
0.2857142857142857
 40
0.2857142857142857
 40
0.4285714285714285
 40
0.4285714285714285
 40
0.4285714285714285
 40
0.4285714285714285
 40
0.5714285714285714
 40
0.5714285714285714
 40
0.5714285714285714
 40
0.5714285714285714
 40
0.7142857142857143
 40
0.7142857142857143
 40
0.7142857142857143
 40
0.7142857142857143
 40
1.0
 40
1.0
 40
1.0
 40
1.0
 10
125.1967
 20
19.5724
 30
0.0
 10
126.5994
 20
13.4893
 30
0.0
 10
131.9663
 20
10.3569
 30
0.0
 10
138.338
 20
9.7657
 30
0.0
 10
138.338
 20
9.7657
 30
0.0
 10
137.3766
 20
9.1525
 30
0.0
 10
136.5206
 20
8.2542
 30
0.0
 10
135.7882
 20
7.0196
 30
0.0
 10
135.7882
 20
7.0196
 30
0.0
 10
140.8387
 20
4.6042
 30
0.0
 10
145.7093
 20
4.6616
 30
0.0
 10
150.4985
 20
5.8429
 30
0.0
 10
150.4985
 20
5.8429
 30
0.0
 10
149.7858
 20
4.341
 30
0.0
 10
149.5766
 20
2.9647
 30
0.0
 10
149.91
 20
1.7241
 30
0.0
 10
149.91
 20
1.7241
 30
0.0
 10
149.91
 20
1.7241
 30
0.0
 10
125.1967
 20
1.6748
 30
0.0
 10
125.1967
 20
1.6748
 30
0.0
 10
125.1967
 20
1.6748
 30
0.0
 10
125.1967
 20
1.6748
 30
0.0
 10
125.1967
 20
19.5724
 30
0.0
 10
125.1967
 20
19.5724
 30
0.0
  0
SPLINE
  5
7F
330
1F
100
AcDbEntity
  8
layer 1
 62
     7
370
    20
100
AcDbSpline
210
0.0
220
0.0
230
1.0
 70
    11
 71
     3
 72
    32
 73
    28
 74
     0
 42
0.0000000001
 43
0.0000000001
 12
1.0
 22
0.0
 32
0.0
 13
1.0
 23
0.0
 33
0.0
 40
0.0
 40
0.0
 40
0.0
 40
0.0
 40
0.125
 40
0.125
 40
0.125
 40
0.125
 40
0.25
 40
0.25
 40
0.25
 40
0.25
 40
0.375
 40
0.375
 40
0.375
 40
0.375
 40
0.5
 40
0.5
 40
0.5
 40
0.5
 40
0.625
 40
0.625
 40
0.625
 40
0.625
 40
0.75
 40
0.75
 40
0.75
 40
0.75
 40
1.0
 40
1.0
 40
1.0
 40
1.0
 10
169.9645
 20
40.743
 30
0.0
 10
171.0269
 20
40.0748
 30
0.0
 10
172.3955
 20
39.3556
 30
0.0
 10
173.4581
 20
39.0145
 30
0.0
 10
173.4581
 20
39.0145
 30
0.0
 10
169.8062
 20
25.8715
 30
0.0
 10
163.5933
 20
19.4512
 30
0.0
 10
155.7568
 20
17.2922
 30
0.0
 10
155.7568
 20
17.2922
 30
0.0
 10
149.5988
 20
15.9426
 30
0.0
 10
144.8831
 20
16.533
 30
0.0
 10
142.5174
 20
20.2834
 30
0.0
 10
142.5174
 20
20.2834
 30
0.0
 10
140.039
 20
25.4495
 30
0.0
 10
143.4758
 20
30.105
 30
0.0
 10
149.6766
 20
30.2373
 30
0.0
 10
149.6766
 20
30.2373
 30
0.0
 10
152.4773
 20
27.8402
 30
0.0
 10
154.3454
 20
25.0507
 30
0.0
 10
156.1
 20
21.6073
 30
0.0
 10
156.1
 20
21.6073
 30
0.0
 10
158.0174
 20
25.0433
 30
0.0
 10
160.4548
 20
28.0635
 30
0.0
 10
163.6022
 20
30.8257
 30
0.0
 10
163.6022
 20
30.8257
 30
0.0
 10
166.4614
 20
33.274
 30
0.0
 10
168.8054
 20
36.3335
 30
0.0
 10
169.9645
 20
40.743
 30
0.0
  0
SPLINE
  5
80
330
1F
100
AcDbEntity
  8
layer 1
 62
     7
370
    20
100
AcDbSpline
210
0.0
220
0.0
230
1.0
 70
    11
 71
     3
 72
    24
 73
    20
 74
     0
 42
0.0000000001
 43
0.0000000001
 12
1.0
 22
0.0
 32
0.0
 13
1.0
 23
0.0
 33
0.0
 40
0.0
 40
0.0
 40
0.0
 40
0.0
 40
0.1666666666666667
 40
0.1666666666666667
 40
0.1666666666666667
 40
0.1666666666666667
 40
0.3333333333333333
 40
0.3333333333333333
 40
0.3333333333333333
 40
0.3333333333333333
 40
0.5
 40
0.5
 40
0.5
 40
0.5
 40
0.6666666666666666
 40
0.6666666666666666
 40
0.6666666666666666
 40
0.6666666666666666
 40
1.0
 40
1.0
 40
1.0
 40
1.0
 10
156.3382
 20
124.4907
 30
0.0
 10
161.5632
 20
121.5947
 30
0.0
 10
165.0394
 20
117.8246
 30
0.0
 10
167.1259
 20
113.3598
 30
0.0
 10
167.1259
 20
113.3598
 30
0.0
 10
168.9034
 20
117.9246
 30
0.0
 10
172.2603
 20
120.7397
 30
0.0
 10
177.1289
 20
120.617
 30
0.0
 10
177.1289
 20
120.617
 30
0.0
 10
180.9917
 20
120.7097
 30
0.0
 10
184.8124
 20
118.1248
 30
0.0
 10
186.3475
 20
113.85
 30
0.0
 10
186.3475
 20
113.85
 30
0.0
 10
186.3475
 20
113.85
 30
0.0
 10
186.2984
 20
124.4416
 30
0.0
 10
186.2984
 20
124.4416
 30
0.0
 10
186.2984
 20
124.4416
 30
0.0
 10
186.2984
 20
124.4416
 30
0.0
 10
156.3382
 20
124.4907
 30
0.0
 10
156.3382
 20
124.4907
 30
0.0
  0
SPLINE
  5
81
330
1F
100
AcDbEntity
  8
layer 1
 62
     7
370
    20
100
AcDbSpline
210
0.0
220
0.0
230
1.0
 70
    11
 71
     3
 72
    28
 73
    24
 74
     0
 42
0.0000000001
 43
0.0000000001
 12
1.0
 22
0.0
 32
0.0
 13
1.0
 23
0.0
 33
0.0
 40
0.0
 40
0.0
 40
0.0
 40
0.0
 40
0.1428571428571428
 40
0.1428571428571428
 40
0.1428571428571428
 40
0.1428571428571428
 40
0.2857142857142857
 40
0.2857142857142857
 40
0.2857142857142857
 40
0.2857142857142857
 40
0.4285714285714285
 40
0.4285714285714285
 40
0.4285714285714285
 40
0.4285714285714285
 40
0.5714285714285714
 40
0.5714285714285714
 40
0.5714285714285714
 40
0.5714285714285714
 40
0.7142857142857143
 40
0.7142857142857143
 40
0.7142857142857143
 40
0.7142857142857143
 40
1.0
 40
1.0
 40
1.0
 40
1.0
 10
125.1159
 20
106.6667
 30
0.0
 10
126.5186
 20
112.7499
 30
0.0
 10
131.8855
 20
115.8823
 30
0.0
 10
138.2572
 20
116.4735
 30
0.0
 10
138.2572
 20
116.4735
 30
0.0
 10
137.2958
 20
117.0867
 30
0.0
 10
136.4398
 20
117.985
 30
0.0
 10
135.7074
 20
119.2195
 30
0.0
 10
135.7074
 20
119.2195
 30
0.0
 10
140.7579
 20
121.635
 30
0.0
 10
145.6285
 20
121.5776
 30
0.0
 10
150.4177
 20
120.3963
 30
0.0
 10
150.4177
 20
120.3963
 30
0.0
 10
149.705
 20
121.8982
 30
0.0
 10
149.4958
 20
123.2745
 30
0.0
 10
149.8292
 20
124.5151
 30
0.0
 10
149.8292
 20
124.5151
 30
0.0
 10
149.8292
 20
124.5151
 30
0.0
 10
125.1159
 20
124.5643
 30
0.0
 10
125.1159
 20
124.5643
 30
0.0
 10
125.1159
 20
124.5643
 30
0.0
 10
125.1159
 20
124.5643
 30
0.0
 10
125.1159
 20
106.6667
 30
0.0
 10
125.1159
 20
106.6667
 30
0.0
  0
SPLINE
  5
82
330
1F
100
AcDbEntity
  8
layer 1
 62
     7
370
    20
100
AcDbSpline
210
0.0
220
0.0
230
1.0
 70
    11
 71
     3
 72
    32
 73
    28
 74
     0
 42
0.0000000001
 43
0.0000000001
 12
1.0
 22
0.0
 32
0.0
 13
1.0
 23
0.0
 33
0.0
 40
0.0
 40
0.0
 40
0.0
 40
0.0
 40
0.125
 40
0.125
 40
0.125
 40
0.125
 40
0.25
 40
0.25
 40
0.25
 40
0.25
 40
0.375
 40
0.375
 40
0.375
 40
0.375
 40
0.5
 40
0.5
 40
0.5
 40
0.5
 40
0.625
 40
0.625
 40
0.625
 40
0.625
 40
0.75
 40
0.75
 40
0.75
 40
0.75
 40
1.0
 40
1.0
 40
1.0
 40
1.0
 10
125.1066
 20
70.896
 30
0.0
 10
126.9939
 20
73.1865
 30
0.0
 10
129.135
 20
75.1118
 30
0.0
 10
132.0693
 20
75.8975
 30
0.0
 10
132.0693
 20
75.8975
 30
0.0
 10
130.7642
 20
79.4768
 30
0.0
 10
130.2038
 20
83.4
 30
0.0
 10
130.5985
 20
87.7639
 30
0.0
 10
130.5985
 20
87.7639
 30
0.0
 10
135.1455
 20
88.495
 30
0.0
 10
139.3559
 20
87.9479
 30
0.0
 10
143.2492
 20
86.1948
 30
0.0
 10
143.2492
 20
86.1948
 30
0.0
 10
143.4061
 20
89.0338
 30
0.0
 10
145.3277
 20
91.3892
 30
0.0
 10
147.1352
 20
93.2803
 30
0.0
 10
147.1352
 20
93.2803
 30
0.0
 10
140.5459
 20
90.567
 30
0.0
 10
131.712
 20
92.7818
 30
0.0
 10
130.4023
 20
100.7089
 30
0.0
 10
130.4023
 20
100.7089
 30
0.0
 10
128.2924
 20
100.4339
 30
0.0
 10
126.4313
 20
101.1141
 30
0.0
 10
125.1066
 20
103.847
 30
0.0
 10
125.1066
 20
103.847
 30
0.0
 10
125.1066
 20
103.847
 30
0.0
 10
125.1066
 20
70.896
 30
0.0
 10
125.1066
 20
70.896
 30
0.0
  0
SPLINE
  5
83
330
1F
100
AcDbEntity
  8
layer 1
 62
     7
370
    20
100
AcDbSpline
210
0.0
220
0.0
230
1.0
 70
    11
 71
     3
 72
    32
 73
    28
 74
     0
 42
0.0000000001
 43
0.0000000001
 12
1.0
 22
0.0
 32
0.0
 13
1.0
 23
0.0
 33
0.0
 40
0.0
 40
0.0
 40
0.0
 40
0.0
 40
0.125
 40
0.125
 40
0.125
 40
0.125
 40
0.25
 40
0.25
 40
0.25
 40
0.25
 40
0.375
 40
0.375
 40
0.375
 40
0.375
 40
0.5
 40
0.5
 40
0.5
 40
0.5
 40
0.625
 40
0.625
 40
0.625
 40
0.625
 40
0.75
 40
0.75
 40
0.75
 40
0.75
 40
1.0
 40
1.0
 40
1.0
 40
1.0
 10
169.8837
 20
85.4963
 30
0.0
 10
170.9461
 20
86.1644
 30
0.0
 10
172.3147
 20
86.8836
 30
0.0
 10
173.3773
 20
87.2247
 30
0.0
 10
173.3773
 20
87.2247
 30
0.0
 10
169.7254
 20
100.3677
 30
0.0
 10
163.5125
 20
106.788
 30
0.0
 10
155.676
 20
108.947
 30
0.0
 10
155.676
 20
108.947
 30
0.0
 10
149.518
 20
110.2966
 30
0.0
 10
144.8023
 20
109.7062
 30
0.0
 10
142.4366
 20
105.9558
 30
0.0
 10
142.4366
 20
105.9558
 30
0.0
 10
139.9582
 20
100.7897
 30
0.0
 10
143.395
 20
96.1342
 30
0.0
 10
149.5958
 20
96.0021
 30
0.0
 10
149.5958
 20
96.0021
 30
0.0
 10
152.3965
 20
98.399
 30
0.0
 10
154.2646
 20
101.1885
 30
0.0
 10
156.0192
 20
104.6319
 30
0.0
 10
156.0192
 20
104.6319
 30
0.0
 10
157.9366
 20
101.1959
 30
0.0
 10
160.374
 20
98.1757
 30
0.0
 10
163.5214
 20
95.4135
 30
0.0
 10
163.5214
 20
95.4135
 30
0.0
 10
166.3806
 20
92.9652
 30
0.0
 10
168.7246
 20
89.9059
 30
0.0
 10
169.8837
 20
85.4963
 30
0.0
  0
SPLINE
  5
84
330
1F
100
AcDbEntity
  8
layer 1
 62
     7
370
    20
100
AcDbSpline
210
0.0
220
0.0
230
1.0
 70
    11
 71
     3
 72
    24
 73
    20
 74
     0
 42
0.0000000001
 43
0.0000000001
 12
1.0
 22
0.0
 32
0.0
 13
1.0
 23
0.0
 33
0.0
 40
0.0
 40
0.0
 40
0.0
 40
0.0
 40
0.1666666666666667
 40
0.1666666666666667
 40
0.1666666666666667
 40
0.1666666666666667
 40
0.3333333333333333
 40
0.3333333333333333
 40
0.3333333333333333
 40
0.3333333333333333
 40
0.5
 40
0.5
 40
0.5
 40
0.5
 40
0.6666666666666666
 40
0.6666666666666666
 40
0.6666666666666666
 40
0.6666666666666666
 40
1.0
 40
1.0
 40
1.0
 40
1.0
 10
123.5656
 20
63.2163
 30
0.0
 10
124.9322
 20
63.5395
 30
0.0
 10
126.2319
 20
64.6083
 30
0.0
 10
127.4914
 20
66.1214
 30
0.0
 10
127.4914
 20
66.1214
 30
0.0
 10
133.615
 20
74.4409
 30
0.0
 10
141.0437
 20
71.8824
 30
0.0
 10
150.1905
 20
66.0707
 30
0.0
 10
150.1905
 20
66.0707
 30
0.0
 10
149.2787
 20
63.8621
 30
0.0
 10
149.4025
 20
61.9193
 30
0.0
 10
150.2713
 20
60.1685
 30
0.0
 10
150.2713
 20
60.1685
 30
0.0
 10
140.4406
 20
54.052
 30
0.0
 10
133.5186
 20
52.1397
 30
0.0
 10
127.7173
 20
60.0269
 30
0.0
 10
127.7173
 20
60.0269
 30
0.0
 10
126.6162
 20
61.6274
 30
0.0
 10
125.3001
 20
62.8198
 30
0.0
 10
123.5656
 20
63.2163
 30
0.0
  0
SPLINE
  5
85
330
1F
100
AcDbEntity
  8
layer 1
 62
     7
370
    20
100
AcDbSpline
210
0.0
220
0.0
230
1.0
 70
    11
 71
     3
 72
    24
 73
    20
 74
     0
 42
0.0000000001
 43
0.0000000001
 12
1.0
 22
0.0
 32
0.0
 13
1.0
 23
0.0
 33
0.0
 40
0.0
 40
0.0
 40
0.0
 40
0.0
 40
0.1666666666666667
 40
0.1666666666666667
 40
0.1666666666666667
 40
0.1666666666666667
 40
0.3333333333333333
 40
0.3333333333333333
 40
0.3333333333333333
 40
0.3333333333333333
 40
0.5
 40
0.5
 40
0.5
 40
0.5
 40
0.6666666666666666
 40
0.6666666666666666
 40
0.6666666666666666
 40
0.6666666666666666
 40
1.0
 40
1.0
 40
1.0
 40
1.0
 10
153.3876
 20
69.1735
 30
0.0
 10
147.8656
 20
77.893
 30
0.0
 10
144.7135
 20
86.0696
 30
0.0
 10
152.9845
 20
91.6293
 30
0.0
 10
152.9845
 20
91.6293
 30
0.0
 10
154.3405
 20
92.7173
 30
0.0
 10
155.5208
 20
93.9973
 30
0.0
 10
156.2175
 20
95.8084
 30
0.0
 10
156.2175
 20
95.8084
 30
0.0
 10
156.8093
 20
94.1239
 30
0.0
 10
157.891
 20
92.7522
 30
0.0
 10
159.3819
 20
91.6413
 30
0.0
 10
159.3819
 20
91.6413
 30
0.0
 10
167.8125
 20
85.7277
 30
0.0
 10
164.44
 20
77.5796
 30
0.0
 10
159.0925
 20
69.0582
 30
0.0
 10
159.0925
 20
69.0582
 30
0.0
 10
157.243
 20
70.0334
 30
0.0
 10
155.3426
 20
70.0941
 30
0.0
 10
153.3876
 20
69.1735
 30
0.0
  0
SPLINE
  5
86
330
1F
100
AcDbEntity
  8
layer 1
 62
     7
370
    20
100
AcDbSpline
210
0.0
220
0.0
230
1.0
 70
    11
 71
     3
 72
    24
 73
    20
 74
     0
 42
0.0000000001
 43
0.0000000001
 12
1.0
 22
0.0
 32
0.0
 13
1.0
 23
0.0
 33
0.0
 40
0.0
 40
0.0
 40
0.0
 40
0.0
 40
0.1666666666666667
 40
0.1666666666666667
 40
0.1666666666666667
 40
0.1666666666666667
 40
0.3333333333333333
 40
0.3333333333333333
 40
0.3333333333333333
 40
0.3333333333333333
 40
0.5
 40
0.5
 40
0.5
 40
0.5
 40
0.6666666666666666
 40
0.6666666666666666
 40
0.6666666666666666
 40
0.6666666666666666
 40
1.0
 40
1.0
 40
1.0
 40
1.0
 10
162.1025
 20
66.0166
 30
0.0
 10
170.3787
 20
71.373
 30
0.0
 10
178.2278
 20
74.4497
 30
0.0
 10
184.0988
 20
66.9723
 30
0.0
 10
184.0988
 20
66.9723
 30
0.0
 10
185.4957
 20
65.0993
 30
0.0
 10
186.9979
 20
63.551
 30
0.0
 10
188.8618
 20
63.1108
 30
0.0
 10
188.8618
 20
63.1108
 30
0.0
 10
187.0304
 20
62.5062
 30
0.0
 10
185.3612
 20
60.9236
 30
0.0
 10
183.7729
 20
58.8587
 30
0.0
 10
183.7729
 20
58.8587
 30
0.0
 10
178.4662
 20
51.8085
 30
0.0
 10
170.6041
 20
54.8772
 30
0.0
 10
162.147
 20
60.3029
 30
0.0
 10
162.147
 20
60.3029
 30
0.0
 10
163.1172
 20
62.2274
 30
0.0
 10
163.0922
 20
64.1319
 30
0.0
 10
162.1025
 20
66.0166
 30
0.0
  0
SPLINE
  5
87
330
1F
100
AcDbEntity
  8
layer 1
 62
     7
370
    20
100
AcDbSpline
210
0.0
220
0.0
230
1.0
 70
    11
 71
     3
 72
    24
 73
    20
 74
     0
 42
0.0000000001
 43
0.0000000001
 12
1.0
 22
0.0
 32
0.0
 13
1.0
 23
0.0
 33
0.0
 40
0.0
 40
0.0
 40
0.0
 40
0.0
 40
0.1666666666666667
 40
0.1666666666666667
 40
0.1666666666666667
 40
0.1666666666666667
 40
0.3333333333333333
 40
0.3333333333333333
 40
0.3333333333333333
 40
0.3333333333333333
 40
0.5
 40
0.5
 40
0.5
 40
0.5
 40
0.6666666666666666
 40
0.6666666666666666
 40
0.6666666666666666
 40
0.6666666666666666
 40
1.0
 40
1.0
 40
1.0
 40
1.0
 10
153.3246
 20
57.1017
 30
0.0
 10
155.413
 20
56.2111
 30
0.0
 10
157.3014
 20
56.3061
 30
0.0
 10
159.0384
 20
57.1463
 30
0.0
 10
159.0384
 20
57.1463
 30
0.0
 10
163.9975
 20
49.3868
 30
0.0
 10
167.0862
 20
41.9539
 30
0.0
 10
161.0524
 20
36.1108
 30
0.0
 10
161.0524
 20
36.1108
 30
0.0
 10
158.847
 20
34.4821
 30
0.0
 10
156.9186
 20
32.7167
 30
0.0
 10
156.1327
 20
30.387
 30
0.0
 10
156.1327
 20
30.387
 30
0.0
 10
155.1807
 20
32.6582
 30
0.0
 10
153.4898
 20
34.431
 30
0.0
 10
151.3833
 20
35.9235
 30
0.0
 10
151.3833
 20
35.9235
 30
0.0
 10
144.866
 20
41.6818
 30
0.0
 10
148.268
 20
49.2415
 30
0.0
 10
153.3246
 20
57.1017
 30
0.0
  0
ENDSEC
  0
SECTION
  2
OBJECTS
  0
DICTIONARY
  5
C
330
0
100
AcDbDictionary
281
     1
  3
ACAD_GROUP
350
D
  3
ACAD_LAYOUT
350
1A
  3
ACAD_MATERIAL
350
3B
  3
ACAD_MLEADERSTYLE
350
A9
  3
ACAD_MLINESTYLE
350
17
  3
ACAD_PLOTSETTINGS
350
19
  3
ACAD_PLOTSTYLENAME
350
E
  3
ACAD_TABLESTYLE
350
A8
  3
ACAD_VISUALSTYLE
350
2A
  0
DICTIONARY
  5
D
102
{ACAD_REACTORS
330
C
102
}
330
C
100
AcDbDictionary
281
     1
  0
DICTIONARY
  5
1A
102
{ACAD_REACTORS
330
C
102
}
330
C
100
AcDbDictionary
281
     1
  3
Layout1
350
1E
  3
Layout2
350
26
  3
Model
350
22
  0
DICTIONARY
  5
3B
102
{ACAD_REACTORS
330
C
102
}
330
C
100
AcDbDictionary
281
     1
  3
ByBlock
350
3D
  3
ByLayer
350
3C
  3
Global
350
3E
  0
DICTIONARY
  5
A9
102
{ACAD_REACTORS
330
C
102
}
330
C
100
AcDbDictionary
281
     1
  0
DICTIONARY
  5
17
102
{ACAD_REACTORS
330
C
102
}
330
C
100
AcDbDictionary
281
     1
  3
Standard
350
18
  0
DICTIONARY
  5
19
102
{ACAD_REACTORS
330
C
102
}
330
C
100
AcDbDictionary
281
     1
  0
ACDBDICTIONARYWDFLT
  5
E
102
{ACAD_REACTORS
330
C
102
}
330
C
100
AcDbDictionary
281
     1
  3
Normal
350
F
100
AcDbDictionaryWithDefault
340
F
  0
DICTIONARY
  5
A8
102
{ACAD_REACTORS
330
C
102
}
330
C
100
AcDbDictionary
281
     1
  0
DICTIONARY
  5
2A
102
{ACAD_REACTORS
330
C
102
}
330
C
100
AcDbDictionary
281
     1
  3
2dWireframe
350
2F
  3
3D Hidden
350
31
  3
3dWireframe
350
30
  3
Basic
350
32
  3
Brighten
350
36
  3
ColorChange
350
3A
  3
Conceptual
350
34
  3
Dim
350
35
  3
Facepattern
350
39
  3
Flat
350
2B
  3
FlatWithEdges
350
2C
  3
Gouraud
350
2D
  3
GouraudWithEdges
350
2E
  3
Linepattern
350
38
  3
Realistic
350
33
  3
Thicken
350
37
  0
LAYOUT
  5
1E
102
{ACAD_REACTORS
330
1A
102
}
330
1A
100
AcDbPlotSettings
  1

  2
none_device
  4

  6

 40
0.0
 41
0.0
 42
0.0
 43
0.0
 44
0.0
 45
0.0
 46
0.0
 47
0.0
 48
0.0
 49
0.0
140
0.0
141
0.0
142
1.0
143
1.0
 70
   688
 72
     0
 73
     0
 74
     5
  7

 75
    16
 76
     0
 77
     2
 78
   300
147
1.0
148
0.0
149
0.0
100
AcDbLayout
  1
Layout1
 70
     1
 71
     1
 10
0.0
 20
0.0
 11
12.0
 21
9.0
 12
0.0
 22
0.0
 32
0.0
 14
1.000000000000000E+20
 24
1.000000000000000E+20
 34
1.000000000000000E+20
 15
-1.000000000000000E+20
 25
-1.000000000000000E+20
 35
-1.000000000000000E+20
146
0.0
 13
0.0
 23
0.0
 33
0.0
 16
1.0
 26
0.0
 36
0.0
 17
0.0
 27
1.0
 37
0.0
 76
     0
330
1B
  0
LAYOUT
  5
26
102
{ACAD_REACTORS
330
1A
102
}
330
1A
100
AcDbPlotSettings
  1

  2
none_device
  4

  6

 40
0.0
 41
0.0
 42
0.0
 43
0.0
 44
0.0
 45
0.0
 46
0.0
 47
0.0
 48
0.0
 49
0.0
140
0.0
141
0.0
142
1.0
143
1.0
 70
   688
 72
     0
 73
     0
 74
     5
  7

 75
    16
 76
     0
 77
     2
 78
   300
147
1.0
148
0.0
149
0.0
100
AcDbLayout
  1
Layout2
 70
     1
 71
     2
 10
0.0
 20
0.0
 11
0.0
 21
0.0
 12
0.0
 22
0.0
 32
0.0
 14
0.0
 24
0.0
 34
0.0
 15
0.0
 25
0.0
 35
0.0
146
0.0
 13
0.0
 23
0.0
 33
0.0
 16
1.0
 26
0.0
 36
0.0
 17
0.0
 27
1.0
 37
0.0
 76
     0
330
23
  0
LAYOUT
  5
22
102
{ACAD_REACTORS
330
1A
102
}
330
1A
100
AcDbPlotSettings
  1

  2
none_device
  4

  6

 40
0.0
 41
0.0
 42
0.0
 43
0.0
 44
0.0
 45
0.0
 46
0.0
 47
0.0
 48
0.0
 49
0.0
140
0.0
141
0.0
142
1.0
143
1.0
 70
  1712
 72
     0
 73
     0
 74
     0
  7

 75
     0
 76
     0
 77
     2
 78
   300
147
1.0
148
0.0
149
0.0
100
AcDbLayout
  1
Model
 70
     1
 71
     0
 10
0.0
 20
0.0
 11
12.0
 21
9.0
 12
0.0
 22
0.0
 32
0.0
 14
115.8898
 24
-114.5885
 34
0.0
 15
196.2042
 25
131.8819
 35
0.0
146
0.0
 13
0.0
 23
0.0
 33
0.0
 16
1.0
 26
0.0
 36
0.0
 17
0.0
 27
1.0
 37
0.0
 76
     0
330
1F
331
29
  0
MATERIAL
  5
3D
102
{ACAD_REACTORS
330
3B
102
}
330
3B
100
AcDbMaterial
  1
ByBlock
 72
     1
 94
      127
  0
MATERIAL
  5
3C
102
{ACAD_REACTORS
330
3B
102
}
330
3B
100
AcDbMaterial
  1
ByLayer
 72
     1
 94
      127
  0
MATERIAL
  5
3E
102
{ACAD_REACTORS
330
3B
102
}
330
3B
100
AcDbMaterial
  1
Global
 72
     1
 94
      127
  0
MLINESTYLE
  5
18
102
{ACAD_REACTORS
330
17
102
}
330
17
100
AcDbMlineStyle
  2
Standard
 70
     0
  3

 62
   256
 51
90.0
 52
90.0
 71
     2
 49
0.5
 62
   256
  6
BYLAYER
 49
-0.5
 62
   256
  6
BYLAYER
  0
ACDBPLACEHOLDER
  5
F
102
{ACAD_REACTORS
330
E
102
}
330
E
  0
VISUALSTYLE
  5
2F
102
{ACAD_REACTORS
330
2A
102
}
102
{ACAD_XDICTIONARY
360
90
102
}
330
2A
100
AcDbVisualStyle
  2
2dWireframe
 70
     4
 71
     0
 72
     2
 73
     0
 90
        0
 40
-0.6
 41
-30.0
 62
     5
 63
     7
421
 16777215
 74
     1
 91
        4
 64
     7
 65
   257
 75
     1
175
     1
 42
1.0
 92
        0
 66
   257
 43
1.0
 76
     1
 77
     6
 78
     2
 67
     7
 79
     5
170
     0
171
     0
290
     0
174
     0
 93
        1
 44
0.0
173
     0
291
     0
 45
0.0
  0
VISUALSTYLE
  5
31
102
{ACAD_REACTORS
330
2A
102
}
102
{ACAD_XDICTIONARY
360
94
102
}
330
2A
100
AcDbVisualStyle
  2
3D Hidden
 70
     6
 71
     1
 72
     2
 73
     2
 90
        0
 40
-0.6
 41
-30.0
 62
     5
 63
     7
421
 16777215
 74
     2
 91
        2
 64
     7
 65
   257
 75
     2
175
     1
 42
40.0
 92
        0
 66
   257
 43
1.0
 76
     1
 77
     6
 78
     2
 67
     7
 79
     3
170
     0
171
     0
290
     0
174
     0
 93
        1
 44
0.0
173
     0
291
     0
 45
0.0
  0
VISUALSTYLE
  5
30
102
{ACAD_REACTORS
330
2A
102
}
102
{ACAD_XDICTIONARY
360
92
102
}
330
2A
100
AcDbVisualStyle
  2
3dWireframe
 70
     5
 71
     0
 72
     2
 73
     0
 90
        0
 40
-0.6
 41
-30.0
 62
     5
 63
     7
421
 16777215
 74
     1
 91
        4
 64
     7
 65
   257
 75
     1
175
     1
 42
1.0
 92
        0
 66
   257
 43
1.0
 76
     1
 77
     6
 78
     2
 67
     7
 79
     5
170
     0
171
     0
290
     0
174
     0
 93
        1
 44
0.0
173
     0
291
     0
 45
0.0
  0
VISUALSTYLE
  5
32
102
{ACAD_REACTORS
330
2A
102
}
102
{ACAD_XDICTIONARY
360
96
102
}
330
2A
100
AcDbVisualStyle
  2
Basic
 70
     7
 71
     1
 72
     0
 73
     1
 90
        0
 40
-0.6
 41
-30.0
 62
     5
 63
     7
421
 16777215
 74
     0
 91
        4
 64
     7
 65
   257
 75
     1
175
     1
 42
1.0
 92
        8
 66
     7
 43
1.0
 76
     1
 77
     6
 78
     2
 67
     7
 79
     5
170
     0
171
     0
290
     0
174
     0
 93
        1
 44
0.0
173
     0
291
     1
 45
0.0
  0
VISUALSTYLE
  5
36
102
{ACAD_REACTORS
330
2A
102
}
102
{ACAD_XDICTIONARY
360
9E
102
}
330
2A
100
AcDbVisualStyle
  2
Brighten
 70
    12
 71
     2
 72
     2
 73
     0
 90
        0
 40
-0.6
 41
-30.0
 62
     5
 63
     7
421
 16777215
 74
     1
 91
        4
 64
     7
 65
   257
 75
     1
175
     1
 42
1.0
 92
        8
 66
     7
 43
1.0
 76
     1
 77
     6
 78
     2
 67
     7
 79
     5
170
     0
171
     0
290
     0
174
     0
 93
        1
 44
50.0
173
     0
291
     1
 45
0.0
  0
VISUALSTYLE
  5
3A
102
{ACAD_REACTORS
330
2A
102
}
102
{ACAD_XDICTIONARY
360
A6
102
}
330
2A
100
AcDbVisualStyle
  2
ColorChange
 70
    16
 71
     2
 72
     2
 73
     3
 90
        0
 40
-0.6
 41
-30.0
 62
     5
 63
     8
421
  8421504
 74
     1
 91
        4
 64
     7
 65
   257
 75
     1
175
     1
 42
1.0
 92
        8
 66
     8
424
  8421504
 43
1.0
 76
     1
 77
     6
 78
     2
 67
     7
 79
     5
170
     0
171
     0
290
     0
174
     0
 93
        1
 44
0.0
173
     0
291
     1
 45
0.0
  0
VISUALSTYLE
  5
34
102
{ACAD_REACTORS
330
2A
102
}
102
{ACAD_XDICTIONARY
360
9A
102
}
330
2A
100
AcDbVisualStyle
  2
Conceptual
 70
     9
 71
     3
 72
     2
 73
     0
 90
        0
 40
-0.6
 41
-30.0
 62
     5
 63
     7
421
 16777215
 74
     2
 91
        2
 64
     7
 65
   257
 75
     1
175
     1
 42
40.0
 92
        8
 66
     7
 43
1.0
 76
     1
 77
     6
 78
     2
 67
     7
 79
     3
170
     0
171
     0
290
     0
174
     0
 93
        1
 44
0.0
173
     0
291
     0
 45
0.0
  0
VISUALSTYLE
  5
35
102
{ACAD_REACTORS
330
2A
102
}
102
{ACAD_XDICTIONARY
360
9C
102
}
330
2A
100
AcDbVisualStyle
  2
Dim
 70
    11
 71
     2
 72
     2
 73
     0
 90
        0
 40
-0.6
 41
-30.0
 62
     5
 63
     7
421
 16777215
 74
     1
 91
        4
 64
     7
 65
   257
 75
     1
175
     1
 42
1.0
 92
        8
 66
     7
 43
1.0
 76
     1
 77
     6
 78
     2
 67
     7
 79
     5
170
     0
171
     0
290
     0
174
     0
 93
        1
 44
-50.0
173
     0
291
     1
 45
0.0
  0
VISUALSTYLE
  5
39
102
{ACAD_REACTORS
330
2A
102
}
102
{ACAD_XDICTIONARY
360
A4
102
}
330
2A
100
AcDbVisualStyle
  2
Facepattern
 70
    15
 71
     2
 72
     2
 73
     0
 90
        0
 40
-0.6
 41
-30.0
 62
     5
 63
     7
421
 16777215
 74
     1
 91
        4
 64
     7
 65
   257
 75
     1
175
     1
 42
1.0
 92
        8
 66
     7
 43
1.0
 76
     1
 77
     6
 78
     2
 67
     7
 79
     5
170
     0
171
     0
290
     0
174
     0
 93
        1
 44
0.0
173
     0
291
     1
 45
0.0
  0
VISUALSTYLE
  5
2B
102
{ACAD_REACTORS
330
2A
102
}
102
{ACAD_XDICTIONARY
360
88
102
}
330
2A
100
AcDbVisualStyle
  2
Flat
 70
     0
 71
     2
 72
     1
 73
     1
 90
        2
 40
-0.6
 41
30.0
 62
     5
 63
     7
421
 16777215
 74
     0
 91
        4
 64
     7
 65
   257
 75
     1
175
     1
 42
1.0
 92
        8
 66
     7
 43
1.0
 76
     1
 77
     6
 78
     2
 67
     7
 79
     5
170
     0
171
     0
290
     0
174
     0
 93
       13
 44
0.0
173
     0
291
     1
 45
0.0
  0
VISUALSTYLE
  5
2C
102
{ACAD_REACTORS
330
2A
102
}
102
{ACAD_XDICTIONARY
360
8A
102
}
330
2A
100
AcDbVisualStyle
  2
FlatWithEdges
 70
     1
 71
     2
 72
     1
 73
     1
 90
        2
 40
-0.6
 41
30.0
 62
     5
 63
     7
421
 16777215
 74
     1
 91
        4
 64
     7
 65
   257
 75
     1
175
     1
 42
1.0
 92
        0
 66
   257
 43
1.0
 76
     1
 77
     6
 78
     2
 67
     7
 79
     5
170
     0
171
     0
290
     0
174
     0
 93
       13
 44
0.0
173
     0
291
     1
 45
0.0
  0
VISUALSTYLE
  5
2D
102
{ACAD_REACTORS
330
2A
102
}
102
{ACAD_XDICTIONARY
360
8C
102
}
330
2A
100
AcDbVisualStyle
  2
Gouraud
 70
     2
 71
     2
 72
     2
 73
     1
 90
        2
 40
-0.6
 41
30.0
 62
     5
 63
     7
421
 16777215
 74
     0
 91
        4
 64
     7
 65
   257
 75
     1
175
     1
 42
1.0
 92
        0
 66
     7
 43
1.0
 76
     1
 77
     6
 78
     2
 67
     7
 79
     5
170
     0
171
     0
290
     0
174
     0
 93
       13
 44
0.0
173
     0
291
     1
 45
0.0
  0
VISUALSTYLE
  5
2E
102
{ACAD_REACTORS
330
2A
102
}
102
{ACAD_XDICTIONARY
360
8E
102
}
330
2A
100
AcDbVisualStyle
  2
GouraudWithEdges
 70
     3
 71
     2
 72
     2
 73
     1
 90
        2
 40
-0.6
 41
30.0
 62
     5
 63
     7
421
 16777215
 74
     1
 91
        4
 64
     7
 65
   257
 75
     1
175
     1
 42
1.0
 92
        0
 66
   257
 43
1.0
 76
     1
 77
     6
 78
     2
 67
     7
 79
     5
170
     0
171
     0
290
     0
174
     0
 93
       13
 44
0.0
173
     0
291
     1
 45
0.0
  0
VISUALSTYLE
  5
38
102
{ACAD_REACTORS
330
2A
102
}
102
{ACAD_XDICTIONARY
360
A2
102
}
330
2A
100
AcDbVisualStyle
  2
Linepattern
 70
    14
 71
     2
 72
     2
 73
     0
 90
        0
 40
-0.6
 41
-30.0
 62
     5
 63
     7
421
 16777215
 74
     1
 91
        4
 64
     7
 65
   257
 75
     7
175
     7
 42
1.0
 92
        8
 66
     7
 43
1.0
 76
     1
 77
     6
 78
     2
 67
     7
 79
     5
170
     0
171
     0
290
     0
174
     0
 93
        1
 44
0.0
173
     0
291
     1
 45
0.0
  0
VISUALSTYLE
  5
33
102
{ACAD_REACTORS
330
2A
102
}
102
{ACAD_XDICTIONARY
360
98
102
}
330
2A
100
AcDbVisualStyle
  2
Realistic
 70
     8
 71
     2
 72
     2
 73
     0
 90
        0
 40
-0.6
 41
-30.0
 62
     5
 63
     7
421
 16777215
 74
     1
 91
        0
 64
     7
 65
   257
 75
     1
175
     1
 42
1.0
 92
        8
 66
     8
424
  7895160
 43
1.0
 76
     1
 77
     6
 78
     2
 67
     7
 79
     5
170
     0
171
     0
290
     0
174
     0
 93
       13
 44
0.0
173
     0
291
     0
 45
0.0
  0
VISUALSTYLE
  5
37
102
{ACAD_REACTORS
330
2A
102
}
102
{ACAD_XDICTIONARY
360
A0
102
}
330
2A
100
AcDbVisualStyle
  2
Thicken
 70
    13
 71
     2
 72
     2
 73
     0
 90
        0
 40
-0.6
 41
-30.0
 62
     5
 63
     7
421
 16777215
 74
     1
 91
        4
 64
     7
 65
   257
 75
     1
175
     1
 42
1.0
 92
       12
 66
     7
 43
1.0
 76
     1
 77
     6
 78
     2
 67
     7
 79
     5
170
     0
171
     0
290
     0
174
     0
 93
        1
 44
0.0
173
     0
291
     1
 45
0.0
  0
DICTIONARY
  5
90
330
2F
100
AcDbDictionary
280
     1
281
     1
  3
ACAD_XREC_ROUNDTRIP
360
91
  0
DICTIONARY
  5
94
330
31
100
AcDbDictionary
280
     1
281
     1
  3
ACAD_XREC_ROUNDTRIP
360
95
  0
DICTIONARY
  5
92
330
30
100
AcDbDictionary
280
     1
281
     1
  3
ACAD_XREC_ROUNDTRIP
360
93
  0
DICTIONARY
  5
96
330
32
100
AcDbDictionary
280
     1
281
     1
  3
ACAD_XREC_ROUNDTRIP
360
97
  0
DICTIONARY
  5
9E
330
36
100
AcDbDictionary
280
     1
281
     1
  3
ACAD_XREC_ROUNDTRIP
360
9F
  0
DICTIONARY
  5
A6
330
3A
100
AcDbDictionary
280
     1
281
     1
  3
ACAD_XREC_ROUNDTRIP
360
A7
  0
DICTIONARY
  5
9A
330
34
100
AcDbDictionary
280
     1
281
     1
  3
ACAD_XREC_ROUNDTRIP
360
9B
  0
DICTIONARY
  5
9C
330
35
100
AcDbDictionary
280
     1
281
     1
  3
ACAD_XREC_ROUNDTRIP
360
9D
  0
DICTIONARY
  5
A4
330
39
100
AcDbDictionary
280
     1
281
     1
  3
ACAD_XREC_ROUNDTRIP
360
A5
  0
DICTIONARY
  5
88
330
2B
100
AcDbDictionary
280
     1
281
     1
  3
ACAD_XREC_ROUNDTRIP
360
89
  0
DICTIONARY
  5
8A
330
2C
100
AcDbDictionary
280
     1
281
     1
  3
ACAD_XREC_ROUNDTRIP
360
8B
  0
DICTIONARY
  5
8C
330
2D
100
AcDbDictionary
280
     1
281
     1
  3
ACAD_XREC_ROUNDTRIP
360
8D
  0
DICTIONARY
  5
8E
330
2E
100
AcDbDictionary
280
     1
281
     1
  3
ACAD_XREC_ROUNDTRIP
360
8F
  0
DICTIONARY
  5
A2
330
38
100
AcDbDictionary
280
     1
281
     1
  3
ACAD_XREC_ROUNDTRIP
360
A3
  0
DICTIONARY
  5
98
330
33
100
AcDbDictionary
280
     1
281
     1
  3
ACAD_XREC_ROUNDTRIP
360
99
  0
DICTIONARY
  5
A0
330
37
100
AcDbDictionary
280
     1
281
     1
  3
ACAD_XREC_ROUNDTRIP
360
A1
  0
XRECORD
  5
91
102
{ACAD_REACTORS
330
90
102
}
330
90
100
AcDbXrecord
280
     1
102
RTVSPropertyOp0
 70
     1
102
RTVSPropertyOp1
 70
     1
102
RTVSPropertyOp2
 70
     1
102
RTVSPropertyOp3
 70
     1
102
RTVSPropertyOp4
 70
     1
102
RTVSPropertyOp5
 70
     1
102
RTVSPropertyOp6
 70
     1
102
RTVSPropertyOp7
 70
     1
102
RTVSPropertyOp8
 70
     1
102
RTVSPropertyOp9
 70
     1
102
RTVSPropertyOp10
 70
     1
102
RTVSPropertyOp11
 70
     1
102
RTVSPropertyOp12
 70
     1
102
RTVSPropertyOp13
 70
     1
102
RTVSPropertyOp14
 70
     1
102
RTVSPropertyOp15
 70
     1
102
RTVSPropertyOp16
 70
     1
102
RTVSPropertyOp17
 70
     1
102
RTVSPropertyOp18
 70
     1
102
RTVSPropertyOp19
 70
     1
102
RTVSPropertyOp20
 70
     1
102
RTVSPropertyOp21
 70
     1
102
RTVSPropertyOp22
 70
     1
102
RTVSPropertyOp23
 70
     1
102
RTVSPropertyOp24
 70
     1
102
RTVSPropertyOp25
 70
     1
102
RTVSPropertyOp26
 70
     1
102
RTVSPropertyOp27
 70
     1
102
RTVSPropertyOp28
 70
     1
102
RTVSPropertyOp29
 70
     1
102
RTVSPropertyOp30
 70
     1
102
RTVSPropertyOp31
 70
     1
102
RTVSPropertyOp32
 70
     1
  0
XRECORD
  5
95
102
{ACAD_REACTORS
330
94
102
}
330
94
100
AcDbXrecord
280
     1
102
RTVSPropertyOp0
 70
     1
102
RTVSPropertyOp1
 70
     1
102
RTVSPropertyOp2
 70
     1
102
RTVSPropertyOp3
 70
     1
102
RTVSPropertyOp4
 70
     1
102
RTVSPropertyOp5
 70
     1
102
RTVSPropertyOp6
 70
     1
102
RTVSPropertyOp7
 70
     1
102
RTVSPropertyOp8
 70
     1
102
RTVSPropertyOp9
 70
     1
102
RTVSPropertyOp10
 70
     1
102
RTVSPropertyOp11
 70
     1
102
RTVSPropertyOp12
 70
     1
102
RTVSPropertyOp13
 70
     1
102
RTVSPropertyOp14
 70
     1
102
RTVSPropertyOp15
 70
     1
102
RTVSPropertyOp16
 70
     1
102
RTVSPropertyOp17
 70
     1
102
RTVSPropertyOp18
 70
     1
102
RTVSPropertyOp19
 70
     1
102
RTVSPropertyOp20
 70
     1
102
RTVSPropertyOp21
 70
     1
102
RTVSPropertyOp22
 70
     1
102
RTVSPropertyOp23
 70
     1
102
RTVSPropertyOp24
 70
     1
102
RTVSPropertyOp25
 70
     1
102
RTVSPropertyOp26
 70
     1
102
RTVSPropertyOp27
 70
     1
102
RTVSPropertyOp28
 70
     1
102
RTVSPropertyOp29
 70
     1
102
RTVSPropertyOp30
 70
     1
102
RTVSPropertyOp31
 70
     1
102
RTVSPropertyOp32
 70
     1
  0
XRECORD
  5
93
102
{ACAD_REACTORS
330
92
102
}
330
92
100
AcDbXrecord
280
     1
102
RTVSPropertyOp0
 70
     1
102
RTVSPropertyOp1
 70
     1
102
RTVSPropertyOp2
 70
     1
102
RTVSPropertyOp3
 70
     1
102
RTVSPropertyOp4
 70
     1
102
RTVSPropertyOp5
 70
     1
102
RTVSPropertyOp6
 70
     1
102
RTVSPropertyOp7
 70
     1
102
RTVSPropertyOp8
 70
     1
102
RTVSPropertyOp9
 70
     1
102
RTVSPropertyOp10
 70
     1
102
RTVSPropertyOp11
 70
     1
102
RTVSPropertyOp12
 70
     1
102
RTVSPropertyOp13
 70
     1
102
RTVSPropertyOp14
 70
     1
102
RTVSPropertyOp15
 70
     1
102
RTVSPropertyOp16
 70
     1
102
RTVSPropertyOp17
 70
     1
102
RTVSPropertyOp18
 70
     1
102
RTVSPropertyOp19
 70
     1
102
RTVSPropertyOp20
 70
     1
102
RTVSPropertyOp21
 70
     1
102
RTVSPropertyOp22
 70
     1
102
RTVSPropertyOp23
 70
     1
102
RTVSPropertyOp24
 70
     1
102
RTVSPropertyOp25
 70
     1
102
RTVSPropertyOp26
 70
     1
102
RTVSPropertyOp27
 70
     1
102
RTVSPropertyOp28
 70
     1
102
RTVSPropertyOp29
 70
     1
102
RTVSPropertyOp30
 70
     1
102
RTVSPropertyOp31
 70
     1
102
RTVSPropertyOp32
 70
     1
  0
XRECORD
  5
97
102
{ACAD_REACTORS
330
96
102
}
330
96
100
AcDbXrecord
280
     1
102
RTVSPropertyOp0
 70
     1
102
RTVSPropertyOp1
 70
     1
102
RTVSPropertyOp2
 70
     1
102
RTVSPropertyOp3
 70
     1
102
RTVSPropertyOp4
 70
     1
102
RTVSPropertyOp5
 70
     1
102
RTVSPropertyOp6
 70
     1
102
RTVSPropertyOp7
 70
     1
102
RTVSPropertyOp8
 70
     1
102
RTVSPropertyOp9
 70
     1
102
RTVSPropertyOp10
 70
     1
102
RTVSPropertyOp11
 70
     1
102
RTVSPropertyOp12
 70
     1
102
RTVSPropertyOp13
 70
     1
102
RTVSPropertyOp14
 70
     1
102
RTVSPropertyOp15
 70
     1
102
RTVSPropertyOp16
 70
     1
102
RTVSPropertyOp17
 70
     1
102
RTVSPropertyOp18
 70
     1
102
RTVSPropertyOp19
 70
     1
102
RTVSPropertyOp20
 70
     1
102
RTVSPropertyOp21
 70
     1
102
RTVSPropertyOp22
 70
     1
102
RTVSPropertyOp23
 70
     1
102
RTVSPropertyOp24
 70
     1
102
RTVSPropertyOp25
 70
     1
102
RTVSPropertyOp26
 70
     1
102
RTVSPropertyOp27
 70
     1
102
RTVSPropertyOp28
 70
     1
102
RTVSPropertyOp29
 70
     1
102
RTVSPropertyOp30
 70
     1
102
RTVSPropertyOp31
 70
     1
102
RTVSPropertyOp32
 70
     1
  0
XRECORD
  5
9F
102
{ACAD_REACTORS
330
9E
102
}
330
9E
100
AcDbXrecord
280
     1
102
RTVSPropertyOp0
 70
     1
102
RTVSPropertyOp1
 70
     1
102
RTVSPropertyOp2
 70
     1
102
RTVSPropertyOp3
 70
     1
102
RTVSPropertyOp4
 70
     1
102
RTVSPropertyOp5
 70
     1
102
RTVSPropertyOp6
 70
     1
102
RTVSPropertyOp7
 70
     1
102
RTVSPropertyOp8
 70
     1
102
RTVSPropertyOp9
 70
     1
102
RTVSPropertyOp10
 70
     1
102
RTVSPropertyOp11
 70
     1
102
RTVSPropertyOp12
 70
     1
102
RTVSPropertyOp13
 70
     1
102
RTVSPropertyOp14
 70
     1
102
RTVSPropertyOp15
 70
     1
102
RTVSPropertyOp16
 70
     1
102
RTVSPropertyOp17
 70
     1
102
RTVSPropertyOp18
 70
     1
102
RTVSPropertyOp19
 70
     1
102
RTVSPropertyOp20
 70
     1
102
RTVSPropertyOp21
 70
     1
102
RTVSPropertyOp22
 70
     1
102
RTVSPropertyOp23
 70
     1
102
RTVSPropertyOp24
 70
     1
102
RTVSPropertyOp25
 70
     1
102
RTVSPropertyOp26
 70
     1
102
RTVSPropertyOp27
 70
     1
102
RTVSPropertyOp28
 70
     1
102
RTVSPropertyOp29
 70
     1
102
RTVSPropertyOp30
 70
     1
102
RTVSPropertyOp31
 70
     1
102
RTVSPropertyOp32
 70
     1
  0
XRECORD
  5
A7
102
{ACAD_REACTORS
330
A6
102
}
330
A6
100
AcDbXrecord
280
     1
102
RTVSPropertyOp0
 70
     1
102
RTVSPropertyOp1
 70
     1
102
RTVSPropertyOp2
 70
     1
102
RTVSPropertyOp3
 70
     1
102
RTVSPropertyOp4
 70
     1
102
RTVSPropertyOp5
 70
     1
102
RTVSPropertyOp6
 70
     1
102
RTVSPropertyOp7
 70
     1
102
RTVSPropertyOp8
 70
     1
102
RTVSPropertyOp9
 70
     1
102
RTVSPropertyOp10
 70
     1
102
RTVSPropertyOp11
 70
     1
102
RTVSPropertyOp12
 70
     1
102
RTVSPropertyOp13
 70
     1
102
RTVSPropertyOp14
 70
     1
102
RTVSPropertyOp15
 70
     1
102
RTVSPropertyOp16
 70
     1
102
RTVSPropertyOp17
 70
     1
102
RTVSPropertyOp18
 70
     1
102
RTVSPropertyOp19
 70
     1
102
RTVSPropertyOp20
 70
     1
102
RTVSPropertyOp21
 70
     1
102
RTVSPropertyOp22
 70
     1
102
RTVSPropertyOp23
 70
     1
102
RTVSPropertyOp24
 70
     1
102
RTVSPropertyOp25
 70
     1
102
RTVSPropertyOp26
 70
     1
102
RTVSPropertyOp27
 70
     1
102
RTVSPropertyOp28
 70
     1
102
RTVSPropertyOp29
 70
     1
102
RTVSPropertyOp30
 70
     1
102
RTVSPropertyOp31
 70
     1
102
RTVSPropertyOp32
 70
     1
  0
XRECORD
  5
9B
102
{ACAD_REACTORS
330
9A
102
}
330
9A
100
AcDbXrecord
280
     1
102
RTVSPropertyOp0
 70
     1
102
RTVSPropertyOp1
 70
     1
102
RTVSPropertyOp2
 70
     1
102
RTVSPropertyOp3
 70
     1
102
RTVSPropertyOp4
 70
     1
102
RTVSPropertyOp5
 70
     1
102
RTVSPropertyOp6
 70
     1
102
RTVSPropertyOp7
 70
     1
102
RTVSPropertyOp8
 70
     1
102
RTVSPropertyOp9
 70
     1
102
RTVSPropertyOp10
 70
     1
102
RTVSPropertyOp11
 70
     1
102
RTVSPropertyOp12
 70
     1
102
RTVSPropertyOp13
 70
     1
102
RTVSPropertyOp14
 70
     1
102
RTVSPropertyOp15
 70
     1
102
RTVSPropertyOp16
 70
     1
102
RTVSPropertyOp17
 70
     1
102
RTVSPropertyOp18
 70
     1
102
RTVSPropertyOp19
 70
     1
102
RTVSPropertyOp20
 70
     1
102
RTVSPropertyOp21
 70
     1
102
RTVSPropertyOp22
 70
     1
102
RTVSPropertyOp23
 70
     1
102
RTVSPropertyOp24
 70
     1
102
RTVSPropertyOp25
 70
     1
102
RTVSPropertyOp26
 70
     1
102
RTVSPropertyOp27
 70
     1
102
RTVSPropertyOp28
 70
     1
102
RTVSPropertyOp29
 70
     1
102
RTVSPropertyOp30
 70
     1
102
RTVSPropertyOp31
 70
     1
102
RTVSPropertyOp32
 70
     1
  0
XRECORD
  5
9D
102
{ACAD_REACTORS
330
9C
102
}
330
9C
100
AcDbXrecord
280
     1
102
RTVSPropertyOp0
 70
     1
102
RTVSPropertyOp1
 70
     1
102
RTVSPropertyOp2
 70
     1
102
RTVSPropertyOp3
 70
     1
102
RTVSPropertyOp4
 70
     1
102
RTVSPropertyOp5
 70
     1
102
RTVSPropertyOp6
 70
     1
102
RTVSPropertyOp7
 70
     1
102
RTVSPropertyOp8
 70
     1
102
RTVSPropertyOp9
 70
     1
102
RTVSPropertyOp10
 70
     1
102
RTVSPropertyOp11
 70
     1
102
RTVSPropertyOp12
 70
     1
102
RTVSPropertyOp13
 70
     1
102
RTVSPropertyOp14
 70
     1
102
RTVSPropertyOp15
 70
     1
102
RTVSPropertyOp16
 70
     1
102
RTVSPropertyOp17
 70
     1
102
RTVSPropertyOp18
 70
     1
102
RTVSPropertyOp19
 70
     1
102
RTVSPropertyOp20
 70
     1
102
RTVSPropertyOp21
 70
     1
102
RTVSPropertyOp22
 70
     1
102
RTVSPropertyOp23
 70
     1
102
RTVSPropertyOp24
 70
     1
102
RTVSPropertyOp25
 70
     1
102
RTVSPropertyOp26
 70
     1
102
RTVSPropertyOp27
 70
     1
102
RTVSPropertyOp28
 70
     1
102
RTVSPropertyOp29
 70
     1
102
RTVSPropertyOp30
 70
     1
102
RTVSPropertyOp31
 70
     1
102
RTVSPropertyOp32
 70
     1
  0
XRECORD
  5
A5
102
{ACAD_REACTORS
330
A4
102
}
330
A4
100
AcDbXrecord
280
     1
102
RTVSPropertyOp0
 70
     1
102
RTVSPropertyOp1
 70
     1
102
RTVSPropertyOp2
 70
     1
102
RTVSPropertyOp3
 70
     1
102
RTVSPropertyOp4
 70
     1
102
RTVSPropertyOp5
 70
     1
102
RTVSPropertyOp6
 70
     1
102
RTVSPropertyOp7
 70
     1
102
RTVSPropertyOp8
 70
     1
102
RTVSPropertyOp9
 70
     1
102
RTVSPropertyOp10
 70
     1
102
RTVSPropertyOp11
 70
     1
102
RTVSPropertyOp12
 70
     1
102
RTVSPropertyOp13
 70
     1
102
RTVSPropertyOp14
 70
     1
102
RTVSPropertyOp15
 70
     1
102
RTVSPropertyOp16
 70
     1
102
RTVSPropertyOp17
 70
     1
102
RTVSPropertyOp18
 70
     1
102
RTVSPropertyOp19
 70
     1
102
RTVSPropertyOp20
 70
     1
102
RTVSPropertyOp21
 70
     1
102
RTVSPropertyOp22
 70
     1
102
RTVSPropertyOp23
 70
     1
102
RTVSPropertyOp24
 70
     1
102
RTVSPropertyOp25
 70
     1
102
RTVSPropertyOp26
 70
     1
102
RTVSPropertyOp27
 70
     1
102
RTVSPropertyOp28
 70
     1
102
RTVSPropertyOp29
 70
     1
102
RTVSPropertyOp30
 70
     1
102
RTVSPropertyOp31
 70
     1
102
RTVSPropertyOp32
 70
     1
  0
XRECORD
  5
89
102
{ACAD_REACTORS
330
88
102
}
330
88
100
AcDbXrecord
280
     1
102
RTVSPropertyOp0
 70
     1
102
RTVSPropertyOp1
 70
     1
102
RTVSPropertyOp2
 70
     1
102
RTVSPropertyOp3
 70
     1
102
RTVSPropertyOp4
 70
     1
102
RTVSPropertyOp5
 70
     1
102
RTVSPropertyOp6
 70
     1
102
RTVSPropertyOp7
 70
     1
102
RTVSPropertyOp8
 70
     1
102
RTVSPropertyOp9
 70
     1
102
RTVSPropertyOp10
 70
     1
102
RTVSPropertyOp11
 70
     1
102
RTVSPropertyOp12
 70
     1
102
RTVSPropertyOp13
 70
     1
102
RTVSPropertyOp14
 70
     1
102
RTVSPropertyOp15
 70
     1
102
RTVSPropertyOp16
 70
     1
102
RTVSPropertyOp17
 70
     1
102
RTVSPropertyOp18
 70
     1
102
RTVSPropertyOp19
 70
     1
102
RTVSPropertyOp20
 70
     1
102
RTVSPropertyOp21
 70
     1
102
RTVSPropertyOp22
 70
     1
102
RTVSPropertyOp23
 70
     1
102
RTVSPropertyOp24
 70
     1
102
RTVSPropertyOp25
 70
     1
102
RTVSPropertyOp26
 70
     1
102
RTVSPropertyOp27
 70
     1
102
RTVSPropertyOp28
 70
     1
102
RTVSPropertyOp29
 70
     1
102
RTVSPropertyOp30
 70
     1
102
RTVSPropertyOp31
 70
     1
102
RTVSPropertyOp32
 70
     1
  0
XRECORD
  5
8B
102
{ACAD_REACTORS
330
8A
102
}
330
8A
100
AcDbXrecord
280
     1
102
RTVSPropertyOp0
 70
     1
102
RTVSPropertyOp1
 70
     1
102
RTVSPropertyOp2
 70
     1
102
RTVSPropertyOp3
 70
     1
102
RTVSPropertyOp4
 70
     1
102
RTVSPropertyOp5
 70
     1
102
RTVSPropertyOp6
 70
     1
102
RTVSPropertyOp7
 70
     1
102
RTVSPropertyOp8
 70
     1
102
RTVSPropertyOp9
 70
     1
102
RTVSPropertyOp10
 70
     1
102
RTVSPropertyOp11
 70
     1
102
RTVSPropertyOp12
 70
     1
102
RTVSPropertyOp13
 70
     1
102
RTVSPropertyOp14
 70
     1
102
RTVSPropertyOp15
 70
     1
102
RTVSPropertyOp16
 70
     1
102
RTVSPropertyOp17
 70
     1
102
RTVSPropertyOp18
 70
     1
102
RTVSPropertyOp19
 70
     1
102
RTVSPropertyOp20
 70
     1
102
RTVSPropertyOp21
 70
     1
102
RTVSPropertyOp22
 70
     1
102
RTVSPropertyOp23
 70
     1
102
RTVSPropertyOp24
 70
     1
102
RTVSPropertyOp25
 70
     1
102
RTVSPropertyOp26
 70
     1
102
RTVSPropertyOp27
 70
     1
102
RTVSPropertyOp28
 70
     1
102
RTVSPropertyOp29
 70
     1
102
RTVSPropertyOp30
 70
     1
102
RTVSPropertyOp31
 70
     1
102
RTVSPropertyOp32
 70
     1
  0
XRECORD
  5
8D
102
{ACAD_REACTORS
330
8C
102
}
330
8C
100
AcDbXrecord
280
     1
102
RTVSPropertyOp0
 70
     1
102
RTVSPropertyOp1
 70
     1
102
RTVSPropertyOp2
 70
     1
102
RTVSPropertyOp3
 70
     1
102
RTVSPropertyOp4
 70
     1
102
RTVSPropertyOp5
 70
     1
102
RTVSPropertyOp6
 70
     1
102
RTVSPropertyOp7
 70
     1
102
RTVSPropertyOp8
 70
     1
102
RTVSPropertyOp9
 70
     1
102
RTVSPropertyOp10
 70
     1
102
RTVSPropertyOp11
 70
     1
102
RTVSPropertyOp12
 70
     1
102
RTVSPropertyOp13
 70
     1
102
RTVSPropertyOp14
 70
     1
102
RTVSPropertyOp15
 70
     1
102
RTVSPropertyOp16
 70
     1
102
RTVSPropertyOp17
 70
     1
102
RTVSPropertyOp18
 70
     1
102
RTVSPropertyOp19
 70
     1
102
RTVSPropertyOp20
 70
     1
102
RTVSPropertyOp21
 70
     1
102
RTVSPropertyOp22
 70
     1
102
RTVSPropertyOp23
 70
     1
102
RTVSPropertyOp24
 70
     1
102
RTVSPropertyOp25
 70
     1
102
RTVSPropertyOp26
 70
     1
102
RTVSPropertyOp27
 70
     1
102
RTVSPropertyOp28
 70
     1
102
RTVSPropertyOp29
 70
     1
102
RTVSPropertyOp30
 70
     1
102
RTVSPropertyOp31
 70
     1
102
RTVSPropertyOp32
 70
     1
  0
XRECORD
  5
8F
102
{ACAD_REACTORS
330
8E
102
}
330
8E
100
AcDbXrecord
280
     1
102
RTVSPropertyOp0
 70
     1
102
RTVSPropertyOp1
 70
     1
102
RTVSPropertyOp2
 70
     1
102
RTVSPropertyOp3
 70
     1
102
RTVSPropertyOp4
 70
     1
102
RTVSPropertyOp5
 70
     1
102
RTVSPropertyOp6
 70
     1
102
RTVSPropertyOp7
 70
     1
102
RTVSPropertyOp8
 70
     1
102
RTVSPropertyOp9
 70
     1
102
RTVSPropertyOp10
 70
     1
102
RTVSPropertyOp11
 70
     1
102
RTVSPropertyOp12
 70
     1
102
RTVSPropertyOp13
 70
     1
102
RTVSPropertyOp14
 70
     1
102
RTVSPropertyOp15
 70
     1
102
RTVSPropertyOp16
 70
     1
102
RTVSPropertyOp17
 70
     1
102
RTVSPropertyOp18
 70
     1
102
RTVSPropertyOp19
 70
     1
102
RTVSPropertyOp20
 70
     1
102
RTVSPropertyOp21
 70
     1
102
RTVSPropertyOp22
 70
     1
102
RTVSPropertyOp23
 70
     1
102
RTVSPropertyOp24
 70
     1
102
RTVSPropertyOp25
 70
     1
102
RTVSPropertyOp26
 70
     1
102
RTVSPropertyOp27
 70
     1
102
RTVSPropertyOp28
 70
     1
102
RTVSPropertyOp29
 70
     1
102
RTVSPropertyOp30
 70
     1
102
RTVSPropertyOp31
 70
     1
102
RTVSPropertyOp32
 70
     1
  0
XRECORD
  5
A3
102
{ACAD_REACTORS
330
A2
102
}
330
A2
100
AcDbXrecord
280
     1
102
RTVSPropertyOp0
 70
     1
102
RTVSPropertyOp1
 70
     1
102
RTVSPropertyOp2
 70
     1
102
RTVSPropertyOp3
 70
     1
102
RTVSPropertyOp4
 70
     1
102
RTVSPropertyOp5
 70
     1
102
RTVSPropertyOp6
 70
     1
102
RTVSPropertyOp7
 70
     1
102
RTVSPropertyOp8
 70
     1
102
RTVSPropertyOp9
 70
     1
102
RTVSPropertyOp10
 70
     1
102
RTVSPropertyOp11
 70
     1
102
RTVSPropertyOp12
 70
     1
102
RTVSPropertyOp13
 70
     1
102
RTVSPropertyOp14
 70
     1
102
RTVSPropertyOp15
 70
     1
102
RTVSPropertyOp16
 70
     1
102
RTVSPropertyOp17
 70
     1
102
RTVSPropertyOp18
 70
     1
102
RTVSPropertyOp19
 70
     1
102
RTVSPropertyOp20
 70
     1
102
RTVSPropertyOp21
 70
     1
102
RTVSPropertyOp22
 70
     1
102
RTVSPropertyOp23
 70
     1
102
RTVSPropertyOp24
 70
     1
102
RTVSPropertyOp25
 70
     1
102
RTVSPropertyOp26
 70
     1
102
RTVSPropertyOp27
 70
     1
102
RTVSPropertyOp28
 70
     1
102
RTVSPropertyOp29
 70
     1
102
RTVSPropertyOp30
 70
     1
102
RTVSPropertyOp31
 70
     1
102
RTVSPropertyOp32
 70
     1
  0
XRECORD
  5
99
102
{ACAD_REACTORS
330
98
102
}
330
98
100
AcDbXrecord
280
     1
102
RTVSPropertyOp0
 70
     1
102
RTVSPropertyOp1
 70
     1
102
RTVSPropertyOp2
 70
     1
102
RTVSPropertyOp3
 70
     1
102
RTVSPropertyOp4
 70
     1
102
RTVSPropertyOp5
 70
     1
102
RTVSPropertyOp6
 70
     1
102
RTVSPropertyOp7
 70
     1
102
RTVSPropertyOp8
 70
     1
102
RTVSPropertyOp9
 70
     1
102
RTVSPropertyOp10
 70
     1
102
RTVSPropertyOp11
 70
     1
102
RTVSPropertyOp12
 70
     1
102
RTVSPropertyOp13
 70
     1
102
RTVSPropertyOp14
 70
     1
102
RTVSPropertyOp15
 70
     1
102
RTVSPropertyOp16
 70
     1
102
RTVSPropertyOp17
 70
     1
102
RTVSPropertyOp18
 70
     1
102
RTVSPropertyOp19
 70
     1
102
RTVSPropertyOp20
 70
     1
102
RTVSPropertyOp21
 70
     1
102
RTVSPropertyOp22
 70
     1
102
RTVSPropertyOp23
 70
     1
102
RTVSPropertyOp24
 70
     1
102
RTVSPropertyOp25
 70
     1
102
RTVSPropertyOp26
 70
     1
102
RTVSPropertyOp27
 70
     1
102
RTVSPropertyOp28
 70
     1
102
RTVSPropertyOp29
 70
     1
102
RTVSPropertyOp30
 70
     1
102
RTVSPropertyOp31
 70
     1
102
RTVSPropertyOp32
 70
     1
  0
XRECORD
  5
A1
102
{ACAD_REACTORS
330
A0
102
}
330
A0
100
AcDbXrecord
280
     1
102
RTVSPropertyOp0
 70
     1
102
RTVSPropertyOp1
 70
     1
102
RTVSPropertyOp2
 70
     1
102
RTVSPropertyOp3
 70
     1
102
RTVSPropertyOp4
 70
     1
102
RTVSPropertyOp5
 70
     1
102
RTVSPropertyOp6
 70
     1
102
RTVSPropertyOp7
 70
     1
102
RTVSPropertyOp8
 70
     1
102
RTVSPropertyOp9
 70
     1
102
RTVSPropertyOp10
 70
     1
102
RTVSPropertyOp11
 70
     1
102
RTVSPropertyOp12
 70
     1
102
RTVSPropertyOp13
 70
     1
102
RTVSPropertyOp14
 70
     1
102
RTVSPropertyOp15
 70
     1
102
RTVSPropertyOp16
 70
     1
102
RTVSPropertyOp17
 70
     1
102
RTVSPropertyOp18
 70
     1
102
RTVSPropertyOp19
 70
     1
102
RTVSPropertyOp20
 70
     1
102
RTVSPropertyOp21
 70
     1
102
RTVSPropertyOp22
 70
     1
102
RTVSPropertyOp23
 70
     1
102
RTVSPropertyOp24
 70
     1
102
RTVSPropertyOp25
 70
     1
102
RTVSPropertyOp26
 70
     1
102
RTVSPropertyOp27
 70
     1
102
RTVSPropertyOp28
 70
     1
102
RTVSPropertyOp29
 70
     1
102
RTVSPropertyOp30
 70
     1
102
RTVSPropertyOp31
 70
     1
102
RTVSPropertyOp32
 70
     1
  0
ENDSEC
  0
EOF
