  0
SECTION
  2
HEADER
  9
$ACADVER
  1
AC1021
  9
$ACADMAINTVER
 70
    25
  9
$DWGCODEPAGE
  3
ANSI_1256
  9
$INSBASE
 10
0.0
 20
0.0
 30
0.0
  9
$EXTMIN
 10
-187.6984
 20
-114.3727
 30
0.0
  9
$EXTMAX
 10
-63.3165
 20
132.4537
 30
0.0
  9
$LIMMIN
 10
0.0
 20
0.0
  9
$LIMMAX
 10
12.0
 20
9.0
  9
$ORTHOMODE
 70
     0
  9
$REGENMODE
 70
     1
  9
$FILLMODE
 70
     1
  9
$QTEXTMODE
 70
     0
  9
$MIRRTEXT
 70
     1
  9
$LTSCALE
 40
1.0
  9
$ATTMODE
 70
     1
  9
$TEXTSIZE
 40
0.2
  9
$TRACEWID
 40
0.05
  9
$TEXTSTYLE
  7
Standard
  9
$CLAYER
  8
0
  9
$CELTYPE
  6
ByLayer
  9
$CECOLOR
 62
   256
  9
$CELTSCALE
 40
1.0
  9
$DISPSILH
 70
     0
  9
$DIMSCALE
 40
1.0
  9
$DIMASZ
 40
0.18
  9
$DIMEXO
 40
0.0625
  9
$DIMDLI
 40
0.38
  9
$DIMRND
 40
0.0
  9
$DIMDLE
 40
0.0
  9
$DIMEXE
 40
0.18
  9
$DIMTP
 40
0.0
  9
$DIMTM
 40
0.0
  9
$DIMTXT
 40
0.18
  9
$DIMCEN
 40
0.09
  9
$DIMTSZ
 40
0.0
  9
$DIMTOL
 70
     0
  9
$DIMLIM
 70
     0
  9
$DIMTIH
 70
     1
  9
$DIMTOH
 70
     1
  9
$DIMSE1
 70
     0
  9
$DIMSE2
 70
     0
  9
$DIMTAD
 70
     0
  9
$DIMZIN
 70
     0
  9
$DIMBLK
  1

  9
$DIMASO
 70
     1
  9
$DIMSHO
 70
     1
  9
$DIMPOST
  1

  9
$DIMAPOST
  1

  9
$DIMALT
 70
     0
  9
$DIMALTD
 70
     2
  9
$DIMALTF
 40
25.4
  9
$DIMLFAC
 40
1.0
  9
$DIMTOFL
 70
     0
  9
$DIMTVP
 40
0.0
  9
$DIMTIX
 70
     0
  9
$DIMSOXD
 70
     0
  9
$DIMSAH
 70
     0
  9
$DIMBLK1
  1

  9
$DIMBLK2
  1

  9
$DIMSTYLE
  2
Standard
  9
$DIMCLRD
 70
     0
  9
$DIMCLRE
 70
     0
  9
$DIMCLRT
 70
     0
  9
$DIMTFAC
 40
1.0
  9
$DIMGAP
 40
0.09
  9
$DIMJUST
 70
     0
  9
$DIMSD1
 70
     0
  9
$DIMSD2
 70
     0
  9
$DIMTOLJ
 70
     1
  9
$DIMTZIN
 70
     0
  9
$DIMALTZ
 70
     0
  9
$DIMALTTZ
 70
     0
  9
$DIMUPT
 70
     0
  9
$DIMDEC
 70
     4
  9
$DIMTDEC
 70
     4
  9
$DIMALTU
 70
     2
  9
$DIMALTTD
 70
     2
  9
$DIMTXSTY
  7
Standard
  9
$DIMAUNIT
 70
     0
  9
$DIMADEC
 70
     0
  9
$DIMALTRND
 40
0.0
  9
$DIMAZIN
 70
     0
  9
$DIMDSEP
 70
    46
  9
$DIMATFIT
 70
     3
  9
$DIMFRAC
 70
     0
  9
$DIMLDRBLK
  1

  9
$DIMLUNIT
 70
     2
  9
$DIMLWD
 70
    -2
  9
$DIMLWE
 70
    -2
  9
$DIMTMOVE
 70
     0
  9
$DIMFXL
 40
1.0
  9
$DIMFXLON
 70
     0
  9
$DIMJOGANG
 40
0.7853981633974483
  9
$DIMTFILL
 70
     0
  9
$DIMTFILLCLR
 70
     0
  9
$DIMARCSYM
 70
     0
  9
$DIMLTYPE
  6

  9
$DIMLTEX1
  6

  9
$DIMLTEX2
  6

  9
$LUNITS
 70
     2
  9
$LUPREC
 70
     4
  9
$SKETCHINC
 40
0.1
  9
$FILLETRAD
 40
0.5
  9
$AUNITS
 70
     0
  9
$AUPREC
 70
     0
  9
$MENU
  1
.
  9
$ELEVATION
 40
0.0
  9
$PELEVATION
 40
0.0
  9
$THICKNESS
 40
0.0
  9
$LIMCHECK
 70
     0
  9
$CHAMFERA
 40
0.5
  9
$CHAMFERB
 40
0.5
  9
$CHAMFERC
 40
1.0
  9
$CHAMFERD
 40
0.0
  9
$SKPOLY
 70
     0
  9
$TDCREATE
 40
2458479.275869769
  9
$TDUCREATE
 40
2458479.109203102
  9
$TDUPDATE
 40
2458479.275869954
  9
$TDUUPDATE
 40
2458479.109203287
  9
$TDINDWG
 40
0.0000000116
  9
$TDUSRTIMER
 40
0.0000000116
  9
$USRTIMER
 70
     1
  9
$ANGBASE
 50
0.0
  9
$ANGDIR
 70
     0
  9
$PDMODE
 70
     0
  9
$PDSIZE
 40
0.0
  9
$PLINEWID
 40
0.0
  9
$SPLFRAME
 70
     0
  9
$SPLINETYPE
 70
     6
  9
$SPLINESEGS
 70
     8
  9
$HANDSEED
  5
CE
  9
$SURFTAB1
 70
     6
  9
$SURFTAB2
 70
     6
  9
$SURFTYPE
 70
     6
  9
$SURFU
 70
     6
  9
$SURFV
 70
     6
  9
$UCSBASE
  2

  9
$UCSNAME
  2

  9
$UCSORG
 10
0.0
 20
0.0
 30
0.0
  9
$UCSXDIR
 10
1.0
 20
0.0
 30
0.0
  9
$UCSYDIR
 10
0.0
 20
1.0
 30
0.0
  9
$UCSORTHOREF
  2

  9
$UCSORTHOVIEW
 70
     0
  9
$UCSORGTOP
 10
0.0
 20
0.0
 30
0.0
  9
$UCSORGBOTTOM
 10
0.0
 20
0.0
 30
0.0
  9
$UCSORGLEFT
 10
0.0
 20
0.0
 30
0.0
  9
$UCSORGRIGHT
 10
0.0
 20
0.0
 30
0.0
  9
$UCSORGFRONT
 10
0.0
 20
0.0
 30
0.0
  9
$UCSORGBACK
 10
0.0
 20
0.0
 30
0.0
  9
$PUCSBASE
  2

  9
$PUCSNAME
  2

  9
$PUCSORG
 10
0.0
 20
0.0
 30
0.0
  9
$PUCSXDIR
 10
1.0
 20
0.0
 30
0.0
  9
$PUCSYDIR
 10
0.0
 20
1.0
 30
0.0
  9
$PUCSORTHOREF
  2

  9
$PUCSORTHOVIEW
 70
     0
  9
$PUCSORGTOP
 10
0.0
 20
0.0
 30
0.0
  9
$PUCSORGBOTTOM
 10
0.0
 20
0.0
 30
0.0
  9
$PUCSORGLEFT
 10
0.0
 20
0.0
 30
0.0
  9
$PUCSORGRIGHT
 10
0.0
 20
0.0
 30
0.0
  9
$PUCSORGFRONT
 10
0.0
 20
0.0
 30
0.0
  9
$PUCSORGBACK
 10
0.0
 20
0.0
 30
0.0
  9
$USERI1
 70
     0
  9
$USERI2
 70
     0
  9
$USERI3
 70
     0
  9
$USERI4
 70
     0
  9
$USERI5
 70
     0
  9
$USERR1
 40
0.0
  9
$USERR2
 40
0.0
  9
$USERR3
 40
0.0
  9
$USERR4
 40
0.0
  9
$USERR5
 40
0.0
  9
$WORLDVIEW
 70
     1
  9
$SHADEDGE
 70
     3
  9
$SHADEDIF
 70
    70
  9
$TILEMODE
 70
     1
  9
$MAXACTVP
 70
    64
  9
$PINSBASE
 10
0.0
 20
0.0
 30
0.0
  9
$PLIMCHECK
 70
     0
  9
$PEXTMIN
 10
1.000000000000000E+20
 20
1.000000000000000E+20
 30
1.000000000000000E+20
  9
$PEXTMAX
 10
-1.000000000000000E+20
 20
-1.000000000000000E+20
 30
-1.000000000000000E+20
  9
$PLIMMIN
 10
0.0
 20
0.0
  9
$PLIMMAX
 10
12.0
 20
9.0
  9
$UNITMODE
 70
     0
  9
$VISRETAIN
 70
     1
  9
$PLINEGEN
 70
     0
  9
$PSLTSCALE
 70
     1
  9
$TREEDEPTH
 70
  3020
  9
$CMLSTYLE
  2
Standard
  9
$CMLJUST
 70
     0
  9
$CMLSCALE
 40
1.0
  9
$PROXYGRAPHICS
 70
     1
  9
$MEASUREMENT
 70
     0
  9
$CELWEIGHT
370
    -1
  9
$ENDCAPS
280
     0
  9
$JOINSTYLE
280
     0
  9
$LWDISPLAY
290
     0
  9
$INSUNITS
 70
     4
  9
$HYPERLINKBASE
  1

  9
$STYLESHEET
  1

  9
$XEDIT
290
     1
  9
$CEPSNTYPE
380
     0
  9
$PSTYLEMODE
290
     1
  9
$FINGERPRINTGUID
  2
{8790375F-3481-45D4-BD99-2E4F34C5EC6F}
  9
$VERSIONGUID
  2
{FAEB1C32-E019-11D5-929B-00C0DF256EC4}
  9
$EXTNAMES
290
     1
  9
$PSVPSCALE
 40
0.0
  9
$OLESTARTUP
290
     0
  9
$SORTENTS
280
   127
  9
$INDEXCTL
280
     0
  9
$HIDETEXT
280
     1
  9
$XCLIPFRAME
290
     0
  9
$HALOGAP
280
     0
  9
$OBSCOLOR
 70
   257
  9
$OBSLTYPE
280
     0
  9
$INTERSECTIONDISPLAY
280
     0
  9
$INTERSECTIONCOLOR
 70
   257
  9
$DIMASSOC
280
     2
  9
$PROJECTNAME
  1

  9
$CAMERADISPLAY
290
     0
  9
$LENSLENGTH
 40
50.0
  9
$CAMERAHEIGHT
 40
0.0
  9
$STEPSPERSEC
 40
2.0
  9
$STEPSIZE
 40
6.0
  9
$3DDWFPREC
 40
2.0
  9
$PSOLWIDTH
 40
0.25
  9
$PSOLHEIGHT
 40
4.0
  9
$LOFTANG1
 40
1.570796326794897
  9
$LOFTANG2
 40
1.570796326794897
  9
$LOFTMAG1
 40
0.0
  9
$LOFTMAG2
 40
0.0
  9
$LOFTPARAM
 70
     7
  9
$LOFTNORMALS
280
     1
  9
$LATITUDE
 40
37.795
  9
$LONGITUDE
 40
-122.394
  9
$NORTHDIRECTION
 40
0.0
  9
$TIMEZONE
 70
 -8000
  9
$LIGHTGLYPHDISPLAY
280
     1
  9
$TILEMODELIGHTSYNCH
280
     1
  9
$SOLIDHIST
280
     1
  9
$SHOWHIST
280
     1
  9
$DWFFRAME
280
     2
  9
$DGNFRAME
280
     2
  9
$REALWORLDSCALE
290
     1
  9
$INTERFERECOLOR
 62
   256
  9
$CSHADOW
280
     0
  9
$SHADOWPLANELOCATION
 40
0.0
  0
ENDSEC
  0
SECTION
  2
CLASSES
  0
CLASS
  1
ACDBDICTIONARYWDFLT
  2
AcDbDictionaryWithDefault
  3
ObjectDBX Classes
 90
        0
 91
        4
280
     0
281
     0
  0
CLASS
  1
VISUALSTYLE
  2
AcDbVisualStyle
  3
ObjectDBX Classes
 90
     4095
 91
        4
280
     0
281
     0
  0
CLASS
  1
MATERIAL
  2
AcDbMaterial
  3
ObjectDBX Classes
 90
     1153
 91
        4
280
     0
281
     0
  0
ENDSEC
  0
SECTION
  2
TABLES
  0
TABLE
  2
VPORT
  5
8
330
0
100
AcDbSymbolTable
 70
     1
  0
VPORT
  5
29
330
8
100
AcDbSymbolTableRecord
100
AcDbViewportTableRecord
  2
*Active
 70
     0
 10
0.0
 20
0.0
 11
1.0
 21
1.0
 12
10.42990654205607
 22
4.5
 13
0.0
 23
0.0
 14
0.5
 24
0.5
 15
0.5
 25
0.5
 16
0.0
 26
0.0
 36
1.0
 17
0.0
 27
0.0
 37
0.0
 40
9.0
 41
1.972972972850329
 42
50.0
 43
0.0
 44
0.0
 50
0.0
 51
0.0
 71
     0
 72
   100
 73
     1
 74
     3
 75
     0
 76
     0
 77
     0
 78
     0
281
     0
 65
     1
110
0.0
120
0.0
130
0.0
111
1.0
121
0.0
131
0.0
112
0.0
122
1.0
132
0.0
 79
     0
146
0.0
 60
     3
 61
     5
292
     1
282
     1
141
0.0
142
0.0
 63
   250
  0
ENDTAB
  0
TABLE
  2
LTYPE
  5
5
330
0
100
AcDbSymbolTable
 70
     1
  0
LTYPE
  5
14
330
5
100
AcDbSymbolTableRecord
100
AcDbLinetypeTableRecord
  2
ByBlock
 70
     0
  3

 72
    65
 73
     0
 40
0.0
  0
LTYPE
  5
15
330
5
100
AcDbSymbolTableRecord
100
AcDbLinetypeTableRecord
  2
ByLayer
 70
     0
  3

 72
    65
 73
     0
 40
0.0
  0
LTYPE
  5
16
330
5
100
AcDbSymbolTableRecord
100
AcDbLinetypeTableRecord
  2
Continuous
 70
     0
  3
Solid line
 72
    65
 73
     0
 40
0.0
  0
ENDTAB
  0
TABLE
  2
LAYER
  5
2
330
0
100
AcDbSymbolTable
 70
     3
  0
LAYER
  5
10
330
2
100
AcDbSymbolTableRecord
100
AcDbLayerTableRecord
  2
0
 70
     0
 62
     7
  6
Continuous
370
    -3
390
F
347
3E
  0
LAYER
  5
40
330
2
100
AcDbSymbolTableRecord
100
AcDbLayerTableRecord
  2
layer 1
 70
     0
 62
     7
  6
Continuous
370
    -3
390
F
347
3E
  0
LAYER
  5
AB
330
2
100
AcDbSymbolTableRecord
100
AcDbLayerTableRecord
  2
Master Guides
 70
     0
 62
     7
  6
Continuous
370
    -3
390
F
347
3E
  0
ENDTAB
  0
TABLE
  2
STYLE
  5
3
330
0
100
AcDbSymbolTable
 70
     1
  0
STYLE
  5
11
330
3
100
AcDbSymbolTableRecord
100
AcDbTextStyleTableRecord
  2
Standard
 70
     0
 40
0.0
 41
1.0
 50
0.0
 71
     0
 42
0.2
  3
txt
  4

  0
ENDTAB
  0
TABLE
  2
VIEW
  5
6
330
0
100
AcDbSymbolTable
 70
     0
  0
ENDTAB
  0
TABLE
  2
UCS
  5
7
330
0
100
AcDbSymbolTable
 70
     0
  0
ENDTAB
  0
TABLE
  2
APPID
  5
9
330
0
100
AcDbSymbolTable
 70
     2
  0
APPID
  5
12
330
9
100
AcDbSymbolTableRecord
100
AcDbRegAppTableRecord
  2
ACAD
 70
     0
  0
APPID
  5
3F
330
9
100
AcDbSymbolTableRecord
100
AcDbRegAppTableRecord
  2
ODA
 70
     0
  0
ENDTAB
  0
TABLE
  2
DIMSTYLE
  5
A
330
0
100
AcDbSymbolTable
 70
     1
100
AcDbDimStyleTable
  0
DIMSTYLE
105
27
330
A
100
AcDbSymbolTableRecord
100
AcDbDimStyleTableRecord
  2
Standard
 70
     0
178
     0
340
11
  0
ENDTAB
  0
TABLE
  2
BLOCK_RECORD
  5
1
330
0
100
AcDbSymbolTable
 70
     1
  0
BLOCK_RECORD
  5
1F
330
1
100
AcDbSymbolTableRecord
100
AcDbBlockTableRecord
  2
*Model_Space
340
22
 70
     0
280
     1
281
     0
  0
BLOCK_RECORD
  5
1B
330
1
100
AcDbSymbolTableRecord
100
AcDbBlockTableRecord
  2
*Paper_Space
340
1E
 70
     0
280
     1
281
     0
  0
BLOCK_RECORD
  5
23
330
1
100
AcDbSymbolTableRecord
100
AcDbBlockTableRecord
  2
*Paper_Space0
340
26
 70
     0
280
     1
281
     0
  0
ENDTAB
  0
ENDSEC
  0
SECTION
  2
BLOCKS
  0
BLOCK
  5
20
330
1F
100
AcDbEntity
  8
0
100
AcDbBlockBegin
  2
*Model_Space
 70
     0
 10
0.0
 20
0.0
 30
0.0
  3
*Model_Space
  1

  0
ENDBLK
  5
21
330
1F
100
AcDbEntity
  8
0
100
AcDbBlockEnd
  0
BLOCK
  5
1C
330
1B
100
AcDbEntity
 67
     1
  8
0
100
AcDbBlockBegin
  2
*Paper_Space
 70
     0
 10
0.0
 20
0.0
 30
0.0
  3
*Paper_Space
  1

  0
ENDBLK
  5
1D
330
1B
100
AcDbEntity
 67
     1
  8
0
100
AcDbBlockEnd
  0
BLOCK
  5
24
330
23
100
AcDbEntity
  8
0
100
AcDbBlockBegin
  2
*Paper_Space0
 70
     0
 10
0.0
 20
0.0
 30
0.0
  3
*Paper_Space0
  1

  0
ENDBLK
  5
25
330
23
100
AcDbEntity
  8
0
100
AcDbBlockEnd
  0
ENDSEC
  0
SECTION
  2
ENTITIES
  0
SPLINE
  5
41
330
1F
100
AcDbEntity
  8
layer 1
100
AcDbSpline
210
0.0
220
0.0
230
1.0
 70
    11
 71
     3
 72
    20
 73
    16
 74
     0
 42
0.0000000001
 43
0.0000000001
 12
1.0
 22
0.0
 32
0.0
 13
1.0
 23
0.0
 33
0.0
 40
0.0
 40
0.0
 40
0.0
 40
0.0
 40
0.2
 40
0.2
 40
0.2
 40
0.2
 40
0.4
 40
0.4
 40
0.4
 40
0.4
 40
0.6
 40
0.6
 40
0.6
 40
0.6
 40
1.0
 40
1.0
 40
1.0
 40
1.0
 10
-187.6984
 20
132.4537
 30
0.0
 10
-187.6984
 20
132.4537
 30
0.0
 10
-63.3165
 20
132.4537
 30
0.0
 10
-63.3165
 20
132.4537
 30
0.0
 10
-63.3165
 20
132.4537
 30
0.0
 10
-63.3165
 20
132.4537
 30
0.0
 10
-63.3165
 20
-114.3727
 30
0.0
 10
-63.3165
 20
-114.3727
 30
0.0
 10
-63.3165
 20
-114.3727
 30
0.0
 10
-63.3165
 20
-114.3727
 30
0.0
 10
-187.6984
 20
-114.3727
 30
0.0
 10
-187.6984
 20
-114.3727
 30
0.0
 10
-187.6984
 20
-114.3727
 30
0.0
 10
-187.6984
 20
-114.3727
 30
0.0
 10
-187.6984
 20
132.4537
 30
0.0
 10
-187.6984
 20
132.4537
 30
0.0
  0
SPLINE
  5
42
330
1F
100
AcDbEntity
  8
layer 1
 62
     7
100
AcDbSpline
210
0.0
220
0.0
230
1.0
 70
    11
 71
     3
 72
    24
 73
    20
 74
     0
 42
0.0000000001
 43
0.0000000001
 12
1.0
 22
0.0
 32
0.0
 13
1.0
 23
0.0
 33
0.0
 40
0.0
 40
0.0
 40
0.0
 40
0.0
 40
0.1666666666666667
 40
0.1666666666666667
 40
0.1666666666666667
 40
0.1666666666666667
 40
0.3333333333333333
 40
0.3333333333333333
 40
0.3333333333333333
 40
0.3333333333333333
 40
0.5
 40
0.5
 40
0.5
 40
0.5
 40
0.6666666666666666
 40
0.6666666666666666
 40
0.6666666666666666
 40
0.6666666666666666
 40
1.0
 40
1.0
 40
1.0
 40
1.0
 10
-117.853
 20
126.0824
 30
0.0
 10
-107.7116
 20
126.0824
 30
0.0
 10
-115.9252
 20
126.0073
 30
0.0
 10
-105.7838
 20
126.0073
 30
0.0
 10
-105.7838
 20
126.0073
 30
0.0
 10
-102.4206
 20
125.2218
 30
0.0
 10
-104.4727
 20
119.5909
 30
0.0
 10
-108.463
 20
121.4845
 30
0.0
 10
-108.463
 20
121.4845
 30
0.0
 10
-112.448
 20
122.8526
 30
0.0
 10
-114.096
 20
120.8005
 30
0.0
 10
-115.7439
 20
120.2304
 30
0.0
 10
-115.7439
 20
120.2304
 30
0.0
 10
-115.2309
 20
123.2961
 30
0.0
 10
-116.1999
 20
124.9548
 30
0.0
 10
-117.853
 20
126.0824
 30
0.0
 10
-117.853
 20
126.0824
 30
0.0
 10
-117.853
 20
126.0824
 30
0.0
 10
-117.853
 20
126.0824
 30
0.0
 10
-117.853
 20
126.0824
 30
0.0
  0
SPLINE
  5
43
330
1F
100
AcDbEntity
  8
layer 1
 62
     7
100
AcDbSpline
210
0.0
220
0.0
230
1.0
 70
    11
 71
     3
 72
    16
 73
    12
 74
     0
 42
0.0000000001
 43
0.0000000001
 12
1.0
 22
0.0
 32
0.0
 13
1.0
 23
0.0
 33
0.0
 40
0.0
 40
0.0
 40
0.0
 40
0.0
 40
0.25
 40
0.25
 40
0.25
 40
0.25
 40
0.5
 40
0.5
 40
0.5
 40
0.5
 40
1.0
 40
1.0
 40
1.0
 40
1.0
 10
-94.0826
 20
126.0824
 30
0.0
 10
-89.6415
 20
126.0824
 30
0.0
 10
-88.2215
 20
126.0824
 30
0.0
 10
-84.4645
 20
126.0073
 30
0.0
 10
-84.4645
 20
126.0073
 30
0.0
 10
-84.6418
 20
124.8276
 30
0.0
 10
-86.7925
 20
123.7528
 30
0.0
 10
-89.3513
 20
123.7077
 30
0.0
 10
-89.3513
 20
123.7077
 30
0.0
 10
-92.3155
 20
123.7521
 30
0.0
 10
-93.2845
 20
124.6128
 30
0.0
 10
-94.0826
 20
126.0824
 30
0.0
  0
SPLINE
  5
44
330
1F
100
AcDbEntity
  8
layer 1
 62
     7
100
AcDbSpline
210
0.0
220
0.0
230
1.0
 70
    11
 71
     3
 72
    16
 73
    12
 74
     0
 42
0.0000000001
 43
0.0000000001
 12
1.0
 22
0.0
 32
0.0
 13
1.0
 23
0.0
 33
0.0
 40
0.0
 40
0.0
 40
0.0
 40
0.0
 40
0.25
 40
0.25
 40
0.25
 40
0.25
 40
0.5
 40
0.5
 40
0.5
 40
0.5
 40
1.0
 40
1.0
 40
1.0
 40
1.0
 10
-77.2095
 20
126.0824
 30
0.0
 10
-76.4166
 20
126.0824
 30
0.0
 10
-74.5407
 20
126.0824
 30
0.0
 10
-73.6908
 20
126.0824
 30
0.0
 10
-73.6908
 20
126.0824
 30
0.0
 10
-74.172
 20
125.4237
 30
0.0
 10
-74.1611
 20
124.927
 30
0.0
 10
-74.2453
 20
124.2958
 30
0.0
 10
-74.2453
 20
124.2958
 30
0.0
 10
-75.0822
 20
125.1651
 30
0.0
 10
-75.7819
 20
125.6981
 30
0.0
 10
-77.2095
 20
126.0824
 30
0.0
  0
SPLINE
  5
45
330
1F
100
AcDbEntity
  8
layer 1
 62
     7
100
AcDbSpline
210
0.0
220
0.0
230
1.0
 70
    11
 71
     3
 72
    84
 73
    80
 74
     0
 42
0.0000000001
 43
0.0000000001
 12
1.0
 22
0.0
 32
0.0
 13
1.0
 23
0.0
 33
0.0
 40
0.0
 40
0.0
 40
0.0
 40
0.0
 40
0.0476190476190476
 40
0.0476190476190476
 40
0.0476190476190476
 40
0.0476190476190476
 40
0.0952380952380952
 40
0.0952380952380952
 40
0.0952380952380952
 40
0.0952380952380952
 40
0.1428571428571428
 40
0.1428571428571428
 40
0.1428571428571428
 40
0.1428571428571428
 40
0.1904761904761905
 40
0.1904761904761905
 40
0.1904761904761905
 40
0.1904761904761905
 40
0.2380952380952381
 40
0.2380952380952381
 40
0.2380952380952381
 40
0.2380952380952381
 40
0.2857142857142857
 40
0.2857142857142857
 40
0.2857142857142857
 40
0.2857142857142857
 40
0.3333333333333333
 40
0.3333333333333333
 40
0.3333333333333333
 40
0.3333333333333333
 40
0.3809523809523809
 40
0.3809523809523809
 40
0.3809523809523809
 40
0.3809523809523809
 40
0.4285714285714285
 40
0.4285714285714285
 40
0.4285714285714285
 40
0.4285714285714285
 40
0.4761904761904762
 40
0.4761904761904762
 40
0.4761904761904762
 40
0.4761904761904762
 40
0.5238095238095238
 40
0.5238095238095238
 40
0.5238095238095238
 40
0.5238095238095238
 40
0.5714285714285714
 40
0.5714285714285714
 40
0.5714285714285714
 40
0.5714285714285714
 40
0.6190476190476191
 40
0.6190476190476191
 40
0.6190476190476191
 40
0.6190476190476191
 40
0.6666666666666666
 40
0.6666666666666666
 40
0.6666666666666666
 40
0.6666666666666666
 40
0.7142857142857143
 40
0.7142857142857143
 40
0.7142857142857143
 40
0.7142857142857143
 40
0.7619047619047619
 40
0.7619047619047619
 40
0.7619047619047619
 40
0.7619047619047619
 40
0.8095238095238095
 40
0.8095238095238095
 40
0.8095238095238095
 40
0.8095238095238095
 40
0.8571428571428571
 40
0.8571428571428571
 40
0.8571428571428571
 40
0.8571428571428571
 40
0.9047619047619048
 40
0.9047619047619048
 40
0.9047619047619048
 40
0.9047619047619048
 40
1.0
 40
1.0
 40
1.0
 40
1.0
 10
-102.3042
 20
126.0824
 30
0.0
 10
-100.2564
 20
126.0073
 30
0.0
 10
-99.1424
 20
126.0824
 30
0.0
 10
-97.5665
 20
126.0824
 30
0.0
 10
-97.5665
 20
126.0824
 30
0.0
 10
-96.7439
 20
124.4621
 30
0.0
 10
-91.6096
 20
118.6861
 30
0.0
 10
-81.082
 20
120.0716
 30
0.0
 10
-81.082
 20
120.0716
 30
0.0
 10
-85.1512
 20
117.0725
 30
0.0
 10
-87.4899
 20
111.1253
 30
0.0
 10
-87.4345
 20
109.7873
 30
0.0
 10
-87.4345
 20
109.7873
 30
0.0
 10
-85.0707
 20
109.3558
 30
0.0
 10
-78.4995
 20
111.9992
 30
0.0
 10
-76.7373
 20
113.9393
 30
0.0
 10
-76.7373
 20
113.9393
 30
0.0
 10
-78.3223
 20
105.8192
 30
0.0
 10
-74.2794
 20
101.1908
 30
0.0
 10
-69.8455
 20
102.1204
 30
0.0
 10
-69.8455
 20
102.1204
 30
0.0
 10
-69.8455
 20
102.1204
 30
0.0
 10
-69.8455
 20
98.517
 30
0.0
 10
-69.8455
 20
98.517
 30
0.0
 10
-69.8455
 20
98.517
 30
0.0
 10
-71.1647
 20
101.0115
 30
0.0
 10
-73.4369
 20
101.8378
 30
0.0
 10
-75.8381
 20
101.2628
 30
0.0
 10
-75.8381
 20
101.2628
 30
0.0
 10
-72.6804
 20
97.2494
 30
0.0
 10
-76.7624
 20
94.0913
 30
0.0
 10
-80.2121
 20
95.2651
 30
0.0
 10
-80.2121
 20
95.2651
 30
0.0
 10
-84.64
 20
96.1873
 30
0.0
 10
-85.3224
 20
100.1245
 30
0.0
 10
-85.2647
 20
102.1094
 30
0.0
 10
-85.2647
 20
102.1094
 30
0.0
 10
-84.9598
 20
105.5443
 30
0.0
 10
-80.9718
 20
104.2595
 30
0.0
 10
-82.1068
 20
101.882
 30
0.0
 10
-82.1068
 20
101.882
 30
0.0
 10
-80.3764
 20
100.768
 30
0.0
 10
-78.8617
 20
98.1708
 30
0.0
 10
-78.9014
 20
98.2854
 30
0.0
 10
-78.9014
 20
98.2854
 30
0.0
 10
-75.3306
 20
99.4913
 30
0.0
 10
-75.3634
 20
104.9648
 30
0.0
 10
-79.2696
 20
107.0966
 30
0.0
 10
-79.2696
 20
107.0966
 30
0.0
 10
-83.3783
 20
109.3526
 30
0.0
 10
-88.4896
 20
107.7864
 30
0.0
 10
-89.6457
 20
102.4372
 30
0.0
 10
-89.6457
 20
102.4372
 30
0.0
 10
-90.2501
 20
106.1183
 30
0.0
 10
-92.752
 20
108.1975
 30
0.0
 10
-95.8448
 20
108.4746
 30
0.0
 10
-95.8448
 20
108.4746
 30
0.0
 10
-94.3032
 20
110.6677
 30
0.0
 10
-90.811
 20
111.7895
 30
0.0
 10
-88.2834
 20
110.3533
 30
0.0
 10
-88.2834
 20
110.3533
 30
0.0
 10
-88.2286
 20
115.6015
 30
0.0
 10
-94.8134
 20
119.5104
 30
0.0
 10
-99.8962
 20
116.3028
 30
0.0
 10
-99.8962
 20
116.3028
 30
0.0
 10
-101.7361
 20
114.7791
 30
0.0
 10
-103.9901
 20
114.4044
 30
0.0
 10
-106.61
 20
114.3611
 30
0.0
 10
-106.61
 20
114.3611
 30
0.0
 10
-107.5865
 20
114.1627
 30
0.0
 10
-107.9955
 20
115.3019
 30
0.0
 10
-106.6918
 20
115.3331
 30
0.0
 10
-106.6918
 20
115.3331
 30
0.0
 10
-94.0927
 20
115.6766
 30
0.0
 10
-99.7801
 20
125.0273
 30
0.0
 10
-102.3042
 20
126.0822
 30
0.0
 10
-102.3042
 20
126.0822
 30
0.0
 10
-102.3042
 20
126.0822
 30
0.0
 10
-102.3042
 20
126.0824
 30
0.0
 10
-102.3042
 20
126.0824
 30
0.0
  0
SPLINE
  5
46
330
1F
100
AcDbEntity
  8
layer 1
 62
     7
100
AcDbSpline
210
0.0
220
0.0
230
1.0
 70
    11
 71
     3
 72
    40
 73
    36
 74
     0
 42
0.0000000001
 43
0.0000000001
 12
1.0
 22
0.0
 32
0.0
 13
1.0
 23
0.0
 33
0.0
 40
0.0
 40
0.0
 40
0.0
 40
0.0
 40
0.1
 40
0.1
 40
0.1
 40
0.1
 40
0.2
 40
0.2
 40
0.2
 40
0.2
 40
0.3
 40
0.3
 40
0.3
 40
0.3
 40
0.4
 40
0.4
 40
0.4
 40
0.4
 40
0.5
 40
0.5
 40
0.5
 40
0.5
 40
0.6
 40
0.6
 40
0.6
 40
0.6
 40
0.7
 40
0.7
 40
0.7
 40
0.7
 40
0.8
 40
0.8
 40
0.8
 40
0.8
 40
1.0
 40
1.0
 40
1.0
 40
1.0
 10
-118.0207
 20
109.9248
 30
0.0
 10
-118.8836
 20
101.3732
 30
0.0
 10
-105.6344
 20
101.0147
 30
0.0
 10
-106.6206
 20
110.5145
 30
0.0
 10
-106.6206
 20
110.5145
 30
0.0
 10
-104.7835
 20
106.572
 30
0.0
 10
-99.384
 20
105.486
 30
0.0
 10
-97.7221
 20
107.5654
 30
0.0
 10
-97.7221
 20
107.5654
 30
0.0
 10
-94.5346
 20
105.4327
 30
0.0
 10
-94.9467
 20
100.1533
 30
0.0
 10
-100.9577
 20
100.0847
 30
0.0
 10
-100.9577
 20
100.0847
 30
0.0
 10
-109.7307
 20
99.1931
 30
0.0
 10
-115.3254
 20
97.2872
 30
0.0
 10
-118.1299
 20
95.5946
 30
0.0
 10
-118.1299
 20
95.5946
 30
0.0
 10
-117.7302
 20
96.9344
 30
0.0
 10
-116.3348
 20
100.3279
 30
0.0
 10
-116.9364
 20
103.164
 30
0.0
 10
-116.9364
 20
103.164
 30
0.0
 10
-117.5956
 20
106.2717
 30
0.0
 10
-119.5764
 20
107.5918
 30
0.0
 10
-119.9973
 20
110.8623
 30
0.0
 10
-119.9973
 20
110.8623
 30
0.0
 10
-120.3765
 20
116.7198
 30
0.0
 10
-113.7582
 20
117.1788
 30
0.0
 10
-112.0803
 20
113.4858
 30
0.0
 10
-112.0803
 20
113.4858
 30
0.0
 10
-110.7796
 20
109.5478
 30
0.0
 10
-114.7385
 20
107.2435
 30
0.0
 10
-118.0208
 20
109.9248
 30
0.0
 10
-118.0208
 20
109.9248
 30
0.0
 10
-118.0208
 20
109.9248
 30
0.0
 10
-118.0207
 20
109.9248
 30
0.0
 10
-118.0207
 20
109.9248
 30
0.0
  0
SPLINE
  5
47
330
1F
100
AcDbEntity
  8
layer 1
 62
     7
100
AcDbSpline
210
0.0
220
0.0
230
1.0
 70
    11
 71
     3
 72
    28
 73
    24
 74
     0
 42
0.0000000001
 43
0.0000000001
 12
1.0
 22
0.0
 32
0.0
 13
1.0
 23
0.0
 33
0.0
 40
0.0
 40
0.0
 40
0.0
 40
0.0
 40
0.1428571428571428
 40
0.1428571428571428
 40
0.1428571428571428
 40
0.1428571428571428
 40
0.2857142857142857
 40
0.2857142857142857
 40
0.2857142857142857
 40
0.2857142857142857
 40
0.4285714285714285
 40
0.4285714285714285
 40
0.4285714285714285
 40
0.4285714285714285
 40
0.5714285714285714
 40
0.5714285714285714
 40
0.5714285714285714
 40
0.5714285714285714
 40
0.7142857142857143
 40
0.7142857142857143
 40
0.7142857142857143
 40
0.7142857142857143
 40
1.0
 40
1.0
 40
1.0
 40
1.0
 10
-97.2487
 20
96.8186
 30
0.0
 10
-92.4563
 20
95.9093
 30
0.0
 10
-91.0777
 20
98.2653
 30
0.0
 10
-89.8213
 20
100.0295
 30
0.0
 10
-89.8213
 20
100.0295
 30
0.0
 10
-89.8538
 20
97.0725
 30
0.0
 10
-88.078
 20
94.7577
 30
0.0
 10
-86.2553
 20
93.2246
 30
0.0
 10
-86.2553
 20
93.2246
 30
0.0
 10
-90.6646
 20
91.4396
 30
0.0
 10
-92.0915
 20
93.4819
 30
0.0
 10
-93.9081
 20
94.9493
 30
0.0
 10
-93.9081
 20
94.9493
 30
0.0
 10
-94.8707
 20
95.7269
 30
0.0
 10
-95.783
 20
96.2042
 30
0.0
 10
-97.4638
 20
96.1458
 30
0.0
 10
-97.4638
 20
96.1458
 30
0.0
 10
-98.1455
 20
95.9282
 30
0.0
 10
-98.6111
 20
97.1187
 30
0.0
 10
-97.2487
 20
96.8187
 30
0.0
 10
-97.2487
 20
96.8187
 30
0.0
 10
-97.2487
 20
96.8187
 30
0.0
 10
-97.2487
 20
96.8186
 30
0.0
 10
-97.2487
 20
96.8186
 30
0.0
  0
SPLINE
  5
48
330
1F
100
AcDbEntity
  8
layer 1
 62
     7
100
AcDbSpline
210
0.0
220
0.0
230
1.0
 70
    11
 71
     3
 72
    20
 73
    16
 74
     0
 42
0.0000000001
 43
0.0000000001
 12
1.0
 22
0.0
 32
0.0
 13
1.0
 23
0.0
 33
0.0
 40
0.0
 40
0.0
 40
0.0
 40
0.0
 40
0.2
 40
0.2
 40
0.2
 40
0.2
 40
0.4
 40
0.4
 40
0.4
 40
0.4
 40
0.6
 40
0.6
 40
0.6
 40
0.6
 40
1.0
 40
1.0
 40
1.0
 40
1.0
 10
-122.3158
 20
104.9129
 30
0.0
 10
-122.1266
 20
107.0907
 30
0.0
 10
-123.269
 20
109.8893
 30
0.0
 10
-125.5074
 20
110.287
 30
0.0
 10
-125.5074
 20
110.287
 30
0.0
 10
-127.7459
 20
109.8893
 30
0.0
 10
-128.8883
 20
107.0908
 30
0.0
 10
-128.699
 20
104.9129
 30
0.0
 10
-128.699
 20
104.9129
 30
0.0
 10
-126.4633
 20
104.877
 30
0.0
 10
-125.5234
 20
103.4233
 30
0.0
 10
-125.5074
 20
102.1397
 30
0.0
 10
-125.5074
 20
102.1397
 30
0.0
 10
-125.4913
 20
103.4233
 30
0.0
 10
-124.5516
 20
104.877
 30
0.0
 10
-122.3158
 20
104.9129
 30
0.0
  0
SPLINE
  5
49
330
1F
100
AcDbEntity
  8
layer 1
 62
     7
100
AcDbSpline
210
0.0
220
0.0
230
1.0
 70
    11
 71
     3
 72
    32
 73
    28
 74
     0
 42
0.0000000001
 43
0.0000000001
 12
1.0
 22
0.0
 32
0.0
 13
1.0
 23
0.0
 33
0.0
 40
0.0
 40
0.0
 40
0.0
 40
0.0
 40
0.125
 40
0.125
 40
0.125
 40
0.125
 40
0.25
 40
0.25
 40
0.25
 40
0.25
 40
0.375
 40
0.375
 40
0.375
 40
0.375
 40
0.5
 40
0.5
 40
0.5
 40
0.5
 40
0.625
 40
0.625
 40
0.625
 40
0.625
 40
0.75
 40
0.75
 40
0.75
 40
0.75
 40
1.0
 40
1.0
 40
1.0
 40
1.0
 10
-120.5329
 20
97.6675
 30
0.0
 10
-120.7223
 20
95.4042
 30
0.0
 10
-122.4241
 20
92.6439
 30
0.0
 10
-123.4618
 20
92.5441
 30
0.0
 10
-123.4618
 20
92.5441
 30
0.0
 10
-124.0692
 20
92.4856
 30
0.0
 10
-125.0525
 20
93.6235
 30
0.0
 10
-125.5074
 20
94.7829
 30
0.0
 10
-125.5074
 20
94.7829
 30
0.0
 10
-125.9624
 20
93.6234
 30
0.0
 10
-126.9457
 20
92.4856
 30
0.0
 10
-127.5531
 20
92.5441
 30
0.0
 10
-127.5531
 20
92.5441
 30
0.0
 10
-128.5908
 20
92.6439
 30
0.0
 10
-130.2926
 20
95.4042
 30
0.0
 10
-130.482
 20
97.6675
 30
0.0
 10
-130.482
 20
97.6675
 30
0.0
 10
-130.6712
 20
100.5883
 30
0.0
 10
-127.6532
 20
101.9196
 30
0.0
 10
-125.5075
 20
99.5872
 30
0.0
 10
-125.5075
 20
99.5872
 30
0.0
 10
-123.3619
 20
101.9196
 30
0.0
 10
-120.3437
 20
100.5883
 30
0.0
 10
-120.533
 20
97.6675
 30
0.0
 10
-120.533
 20
97.6675
 30
0.0
 10
-120.533
 20
97.6675
 30
0.0
 10
-120.5329
 20
97.6675
 30
0.0
 10
-120.5329
 20
97.6675
 30
0.0
  0
SPLINE
  5
4A
330
1F
100
AcDbEntity
  8
layer 1
 62
     7
100
AcDbSpline
210
0.0
220
0.0
230
1.0
 70
    11
 71
     3
 72
    20
 73
    16
 74
     0
 42
0.0000000001
 43
0.0000000001
 12
1.0
 22
0.0
 32
0.0
 13
1.0
 23
0.0
 33
0.0
 40
0.0
 40
0.0
 40
0.0
 40
0.0
 40
0.2
 40
0.2
 40
0.2
 40
0.2
 40
0.4
 40
0.4
 40
0.4
 40
0.4
 40
0.6
 40
0.6
 40
0.6
 40
0.6
 40
1.0
 40
1.0
 40
1.0
 40
1.0
 10
-122.7096
 20
70.1427
 30
0.0
 10
-123.3327
 20
69.263
 30
0.0
 10
-124.5726
 20
66.8529
 30
0.0
 10
-125.5074
 20
62.1564
 30
0.0
 10
-125.5074
 20
62.1564
 30
0.0
 10
-126.4421
 20
66.8529
 30
0.0
 10
-127.6821
 20
69.263
 30
0.0
 10
-128.3052
 20
70.1427
 30
0.0
 10
-128.3052
 20
70.1427
 30
0.0
 10
-127.0505
 20
71.2705
 30
0.0
 10
-126.3207
 20
72.25
 30
0.0
 10
-125.5074
 20
73.9603
 30
0.0
 10
-125.5074
 20
73.9603
 30
0.0
 10
-124.6941
 20
72.25
 30
0.0
 10
-123.9642
 20
71.2704
 30
0.0
 10
-122.7096
 20
70.1427
 30
0.0
  0
SPLINE
  5
4B
330
1F
100
AcDbEntity
  8
layer 1
 62
     7
100
AcDbSpline
210
0.0
220
0.0
230
1.0
 70
    11
 71
     3
 72
    16
 73
    12
 74
     0
 42
0.0000000001
 43
0.0000000001
 12
1.0
 22
0.0
 32
0.0
 13
1.0
 23
0.0
 33
0.0
 40
0.0
 40
0.0
 40
0.0
 40
0.0
 40
0.25
 40
0.25
 40
0.25
 40
0.25
 40
0.5
 40
0.5
 40
0.5
 40
0.5
 40
1.0
 40
1.0
 40
1.0
 40
1.0
 10
-118.4713
 20
33.0922
 30
0.0
 10
-117.1821
 20
30.7576
 30
0.0
 10
-113.3254
 20
26.4166
 30
0.0
 10
-111.6258
 20
24.5442
 30
0.0
 10
-111.6258
 20
24.5442
 30
0.0
 10
-113.9514
 20
24.9488
 30
0.0
 10
-116.1769
 20
23.6438
 30
0.0
 10
-116.9165
 20
21.4295
 30
0.0
 10
-116.9165
 20
21.4295
 30
0.0
 10
-118.3271
 20
23.5711
 30
0.0
 10
-120.8581
 20
27.3702
 30
0.0
 10
-118.4713
 20
33.0922
 30
0.0
  0
SPLINE
  5
4C
330
1F
100
AcDbEntity
  8
layer 1
 62
     7
100
AcDbSpline
210
0.0
220
0.0
230
1.0
 70
    11
 71
     3
 72
    28
 73
    24
 74
     0
 42
0.0000000001
 43
0.0000000001
 12
1.0
 22
0.0
 32
0.0
 13
1.0
 23
0.0
 33
0.0
 40
0.0
 40
0.0
 40
0.0
 40
0.0
 40
0.1428571428571428
 40
0.1428571428571428
 40
0.1428571428571428
 40
0.1428571428571428
 40
0.2857142857142857
 40
0.2857142857142857
 40
0.2857142857142857
 40
0.2857142857142857
 40
0.4285714285714285
 40
0.4285714285714285
 40
0.4285714285714285
 40
0.4285714285714285
 40
0.5714285714285714
 40
0.5714285714285714
 40
0.5714285714285714
 40
0.5714285714285714
 40
0.7142857142857143
 40
0.7142857142857143
 40
0.7142857142857143
 40
0.7142857142857143
 40
1.0
 40
1.0
 40
1.0
 40
1.0
 10
-115.1459
 20
37.2181
 30
0.0
 10
-112.3241
 20
31.7448
 30
0.0
 10
-105.7059
 20
25.1052
 30
0.0
 10
-99.5545
 20
21.3204
 30
0.0
 10
-99.5545
 20
21.3204
 30
0.0
 10
-100.4303
 20
23.1205
 30
0.0
 10
-99.9458
 20
25.2665
 30
0.0
 10
-99.0381
 20
28.0275
 30
0.0
 10
-99.0381
 20
28.0275
 30
0.0
 10
-103.5334
 20
24.4901
 30
0.0
 10
-110.9796
 20
28.3952
 30
0.0
 10
-109.3044
 20
34.3885
 30
0.0
 10
-109.3044
 20
34.3885
 30
0.0
 10
-105.241
 20
29.1824
 30
0.0
 10
-100.252
 20
33.8741
 30
0.0
 10
-102.1079
 20
37.5858
 30
0.0
 10
-102.1079
 20
37.5858
 30
0.0
 10
-105.3436
 20
42.0626
 30
0.0
 10
-111.8251
 20
40.9381
 30
0.0
 10
-115.1459
 20
37.2181
 30
0.0
 10
-115.1459
 20
37.2181
 30
0.0
 10
-115.1459
 20
37.2181
 30
0.0
 10
-115.1459
 20
37.2181
 30
0.0
 10
-115.1459
 20
37.2181
 30
0.0
  0
SPLINE
  5
4D
330
1F
100
AcDbEntity
  8
layer 1
 62
     7
100
AcDbSpline
210
0.0
220
0.0
230
1.0
 70
    11
 71
     3
 72
    20
 73
    16
 74
     0
 42
0.0000000001
 43
0.0000000001
 12
1.0
 22
0.0
 32
0.0
 13
1.0
 23
0.0
 33
0.0
 40
0.0
 40
0.0
 40
0.0
 40
0.0
 40
0.2
 40
0.2
 40
0.2
 40
0.2
 40
0.4
 40
0.4
 40
0.4
 40
0.4
 40
0.6
 40
0.6
 40
0.6
 40
0.6
 40
1.0
 40
1.0
 40
1.0
 40
1.0
 10
-100.3619
 20
16.5024
 30
0.0
 10
-98.1828
 20
14.9172
 30
0.0
 10
-95.7781
 20
13.8317
 30
0.0
 10
-93.6101
 20
12.8259
 30
0.0
 10
-93.6101
 20
12.8259
 30
0.0
 10
-97.3877
 20
12.5746
 30
0.0
 10
-100.433
 20
12.0894
 30
0.0
 10
-102.9058
 20
11.3506
 30
0.0
 10
-102.9058
 20
11.3506
 30
0.0
 10
-101.8103
 20
12.8129
 30
0.0
 10
-100.594
 20
14.9024
 30
0.0
 10
-100.3619
 20
16.5024
 30
0.0
 10
-100.3619
 20
16.5024
 30
0.0
 10
-100.3619
 20
16.5024
 30
0.0
 10
-100.3619
 20
16.5024
 30
0.0
 10
-100.3619
 20
16.5024
 30
0.0
  0
SPLINE
  5
4E
330
1F
100
AcDbEntity
  8
layer 1
 62
     7
100
AcDbSpline
210
0.0
220
0.0
230
1.0
 70
    11
 71
     3
 72
    28
 73
    24
 74
     0
 42
0.0000000001
 43
0.0000000001
 12
1.0
 22
0.0
 32
0.0
 13
1.0
 23
0.0
 33
0.0
 40
0.0
 40
0.0
 40
0.0
 40
0.0
 40
0.1428571428571428
 40
0.1428571428571428
 40
0.1428571428571428
 40
0.1428571428571428
 40
0.2857142857142857
 40
0.2857142857142857
 40
0.2857142857142857
 40
0.2857142857142857
 40
0.4285714285714285
 40
0.4285714285714285
 40
0.4285714285714285
 40
0.4285714285714285
 40
0.5714285714285714
 40
0.5714285714285714
 40
0.5714285714285714
 40
0.5714285714285714
 40
0.7142857142857143
 40
0.7142857142857143
 40
0.7142857142857143
 40
0.7142857142857143
 40
1.0
 40
1.0
 40
1.0
 40
1.0
 10
-88.7721
 20
22.3634
 30
0.0
 10
-85.6427
 20
18.6595
 30
0.0
 10
-78.9929
 20
14.4061
 30
0.0
 10
-77.0883
 20
13.5225
 30
0.0
 10
-77.0883
 20
13.5225
 30
0.0
 10
-82.545
 20
14.1463
 30
0.0
 10
-90.1306
 20
16.0259
 30
0.0
 10
-93.8804
 20
17.9593
 30
0.0
 10
-93.8804
 20
17.9593
 30
0.0
 10
-93.4212
 20
18.1148
 30
0.0
 10
-93.0067
 20
18.2849
 30
0.0
 10
-92.5528
 20
18.7007
 30
0.0
 10
-92.5528
 20
18.7007
 30
0.0
 10
-94.963
 20
19.418
 30
0.0
 10
-95.0993
 20
21.6762
 30
0.0
 10
-94.1831
 20
23.0432
 30
0.0
 10
-94.1831
 20
23.0432
 30
0.0
 10
-92.901
 20
24.9562
 30
0.0
 10
-90.3075
 20
24.4525
 30
0.0
 10
-88.7722
 20
22.3634
 30
0.0
 10
-88.7722
 20
22.3634
 30
0.0
 10
-88.7722
 20
22.3634
 30
0.0
 10
-88.7721
 20
22.3634
 30
0.0
 10
-88.7721
 20
22.3634
 30
0.0
  0
SPLINE
  5
4F
330
1F
100
AcDbEntity
  8
layer 1
 62
     7
100
AcDbSpline
210
0.0
220
0.0
230
1.0
 70
    11
 71
     3
 72
    24
 73
    20
 74
     0
 42
0.0000000001
 43
0.0000000001
 12
1.0
 22
0.0
 32
0.0
 13
1.0
 23
0.0
 33
0.0
 40
0.0
 40
0.0
 40
0.0
 40
0.0
 40
0.1666666666666667
 40
0.1666666666666667
 40
0.1666666666666667
 40
0.1666666666666667
 40
0.3333333333333333
 40
0.3333333333333333
 40
0.3333333333333333
 40
0.3333333333333333
 40
0.5
 40
0.5
 40
0.5
 40
0.5
 40
0.6666666666666666
 40
0.6666666666666666
 40
0.6666666666666666
 40
0.6666666666666666
 40
1.0
 40
1.0
 40
1.0
 40
1.0
 10
-87.9069
 20
37.19
 30
0.0
 10
-84.1771
 20
35.7373
 30
0.0
 10
-87.1925
 20
32.5045
 30
0.0
 10
-86.4585
 20
28.4992
 30
0.0
 10
-86.4585
 20
28.4992
 30
0.0
 10
-88.3132
 20
30.3236
 30
0.0
 10
-91.0963
 20
31.2126
 30
0.0
 10
-95.3264
 20
31.0749
 30
0.0
 10
-95.3264
 20
31.0749
 30
0.0
 10
-94.3568
 20
31.7408
 30
0.0
 10
-93.4621
 20
33.6817
 30
0.0
 10
-93.6385
 20
35.4784
 30
0.0
 10
-93.6385
 20
35.4784
 30
0.0
 10
-92.867
 20
34.4247
 30
0.0
 10
-92.1629
 20
34.0715
 30
0.0
 10
-91.1266
 20
33.9077
 30
0.0
 10
-91.1266
 20
33.9077
 30
0.0
 10
-91.7636
 20
36.4296
 30
0.0
 10
-89.7725
 20
37.8984
 30
0.0
 10
-87.9069
 20
37.19
 30
0.0
  0
SPLINE
  5
50
330
1F
100
AcDbEntity
  8
layer 1
 62
     7
100
AcDbSpline
210
0.0
220
0.0
230
1.0
 70
    11
 71
     3
 72
    28
 73
    24
 74
     0
 42
0.0000000001
 43
0.0000000001
 12
1.0
 22
0.0
 32
0.0
 13
1.0
 23
0.0
 33
0.0
 40
0.0
 40
0.0
 40
0.0
 40
0.0
 40
0.1428571428571428
 40
0.1428571428571428
 40
0.1428571428571428
 40
0.1428571428571428
 40
0.2857142857142857
 40
0.2857142857142857
 40
0.2857142857142857
 40
0.2857142857142857
 40
0.4285714285714285
 40
0.4285714285714285
 40
0.4285714285714285
 40
0.4285714285714285
 40
0.5714285714285714
 40
0.5714285714285714
 40
0.5714285714285714
 40
0.5714285714285714
 40
0.7142857142857143
 40
0.7142857142857143
 40
0.7142857142857143
 40
0.7142857142857143
 40
1.0
 40
1.0
 40
1.0
 40
1.0
 10
-69.8455
 20
26.5704
 30
0.0
 10
-69.8455
 20
26.5704
 30
0.0
 10
-69.8455
 20
12.9269
 30
0.0
 10
-69.8455
 20
12.9269
 30
0.0
 10
-69.8455
 20
12.9269
 30
0.0
 10
-76.2327
 20
15.3817
 30
0.0
 10
-78.8957
 20
21.1333
 30
0.0
 10
-79.4938
 20
24.0572
 30
0.0
 10
-79.4938
 20
24.0572
 30
0.0
 10
-79.785
 20
26.1638
 30
0.0
 10
-78.8902
 20
28.1948
 30
0.0
 10
-76.7254
 20
28.0104
 30
0.0
 10
-76.7254
 20
28.0104
 30
0.0
 10
-74.4231
 20
27.9773
 30
0.0
 10
-73.5977
 20
25.7079
 30
0.0
 10
-75.5342
 20
24.2185
 30
0.0
 10
-75.5342
 20
24.2185
 30
0.0
 10
-72.8107
 20
22.6772
 30
0.0
 10
-69.8455
 20
24.9155
 30
0.0
 10
-69.8455
 20
26.5703
 30
0.0
 10
-69.8455
 20
26.5703
 30
0.0
 10
-69.8455
 20
26.5703
 30
0.0
 10
-69.8455
 20
26.5704
 30
0.0
 10
-69.8455
 20
26.5704
 30
0.0
  0
SPLINE
  5
51
330
1F
100
AcDbEntity
  8
layer 1
 62
     7
100
AcDbSpline
210
0.0
220
0.0
230
1.0
 70
    11
 71
     3
 72
    16
 73
    12
 74
     0
 42
0.0000000001
 43
0.0000000001
 12
1.0
 22
0.0
 32
0.0
 13
1.0
 23
0.0
 33
0.0
 40
0.0
 40
0.0
 40
0.0
 40
0.0
 40
0.25
 40
0.25
 40
0.25
 40
0.25
 40
0.5
 40
0.5
 40
0.5
 40
0.5
 40
1.0
 40
1.0
 40
1.0
 40
1.0
 10
-69.8455
 20
44.2461
 30
0.0
 10
-69.8455
 20
44.2461
 30
0.0
 10
-69.8455
 20
31.0545
 30
0.0
 10
-69.8455
 20
31.0545
 30
0.0
 10
-69.8455
 20
31.0545
 30
0.0
 10
-72.1524
 20
34.5553
 30
0.0
 10
-77.7791
 20
36.5614
 30
0.0
 10
-82.0227
 20
31.5303
 30
0.0
 10
-82.0227
 20
31.5303
 30
0.0
 10
-81.0473
 20
39.6862
 30
0.0
 10
-71.8186
 20
39.4344
 30
0.0
 10
-69.8455
 20
44.2461
 30
0.0
  0
SPLINE
  5
52
330
1F
100
AcDbEntity
  8
layer 1
 62
     7
100
AcDbSpline
210
0.0
220
0.0
230
1.0
 70
    11
 71
     3
 72
    24
 73
    20
 74
     0
 42
0.0000000001
 43
0.0000000001
 12
1.0
 22
0.0
 32
0.0
 13
1.0
 23
0.0
 33
0.0
 40
0.0
 40
0.0
 40
0.0
 40
0.0
 40
0.1666666666666667
 40
0.1666666666666667
 40
0.1666666666666667
 40
0.1666666666666667
 40
0.3333333333333333
 40
0.3333333333333333
 40
0.3333333333333333
 40
0.3333333333333333
 40
0.5
 40
0.5
 40
0.5
 40
0.5
 40
0.6666666666666666
 40
0.6666666666666666
 40
0.6666666666666666
 40
0.6666666666666666
 40
1.0
 40
1.0
 40
1.0
 40
1.0
 10
-69.8455
 20
56.2525
 30
0.0
 10
-69.8455
 20
56.2525
 30
0.0
 10
-69.8455
 20
46.4089
 30
0.0
 10
-69.8455
 20
46.4089
 30
0.0
 10
-69.8455
 20
46.4089
 30
0.0
 10
-73.6134
 20
48.327
 30
0.0
 10
-79.0574
 20
46.0415
 30
0.0
 10
-82.3879
 20
40.7669
 30
0.0
 10
-82.3879
 20
40.7669
 30
0.0
 10
-80.6203
 20
44.427
 30
0.0
 10
-79.4274
 20
50.7989
 30
0.0
 10
-79.6434
 20
52.379
 30
0.0
 10
-79.6434
 20
52.379
 30
0.0
 10
-77.1394
 20
51.4276
 30
0.0
 10
-71.4721
 20
53.6233
 30
0.0
 10
-69.8455
 20
56.2525
 30
0.0
 10
-69.8455
 20
56.2525
 30
0.0
 10
-69.8455
 20
56.2525
 30
0.0
 10
-69.8455
 20
56.2525
 30
0.0
 10
-69.8455
 20
56.2525
 30
0.0
  0
SPLINE
  5
53
330
1F
100
AcDbEntity
  8
layer 1
 62
     7
100
AcDbSpline
210
0.0
220
0.0
230
1.0
 70
    11
 71
     3
 72
    32
 73
    28
 74
     0
 42
0.0000000001
 43
0.0000000001
 12
1.0
 22
0.0
 32
0.0
 13
1.0
 23
0.0
 33
0.0
 40
0.0
 40
0.0
 40
0.0
 40
0.0
 40
0.125
 40
0.125
 40
0.125
 40
0.125
 40
0.25
 40
0.25
 40
0.25
 40
0.25
 40
0.375
 40
0.375
 40
0.375
 40
0.375
 40
0.5
 40
0.5
 40
0.5
 40
0.5
 40
0.625
 40
0.625
 40
0.625
 40
0.625
 40
0.75
 40
0.75
 40
0.75
 40
0.75
 40
1.0
 40
1.0
 40
1.0
 40
1.0
 10
-117.1356
 20
47.079
 30
0.0
 10
-117.6203
 20
50.8002
 30
0.0
 10
-114.3034
 20
51.4258
 30
0.0
 10
-112.7928
 20
50.1435
 30
0.0
 10
-112.7928
 20
50.1435
 30
0.0
 10
-111.8968
 20
49.383
 30
0.0
 10
-111.4459
 20
47.3941
 30
0.0
 10
-112.777
 20
45.8097
 30
0.0
 10
-112.777
 20
45.8097
 30
0.0
 10
-114.1952
 20
44.1416
 30
0.0
 10
-115.1957
 20
42.666
 30
0.0
 10
-117.1702
 20
41.0731
 30
0.0
 10
-117.1702
 20
41.0731
 30
0.0
 10
-119.5477
 20
44.9767
 30
0.0
 10
-121.0176
 20
52.5566
 30
0.0
 10
-120.5391
 20
55.9539
 30
0.0
 10
-120.5391
 20
55.9539
 30
0.0
 10
-119.5129
 20
55.737
 30
0.0
 10
-118.6997
 20
55.7112
 30
0.0
 10
-117.336
 20
55.5837
 30
0.0
 10
-117.336
 20
55.5837
 30
0.0
 10
-121.7565
 20
52.2849
 30
0.0
 10
-118.965
 20
46.9142
 30
0.0
 10
-117.1358
 20
47.079
 30
0.0
 10
-117.1358
 20
47.079
 30
0.0
 10
-117.1358
 20
47.079
 30
0.0
 10
-117.1356
 20
47.079
 30
0.0
 10
-117.1356
 20
47.079
 30
0.0
  0
SPLINE
  5
54
330
1F
100
AcDbEntity
  8
layer 1
 62
     7
100
AcDbSpline
210
0.0
220
0.0
230
1.0
 70
    11
 71
     3
 72
    16
 73
    12
 74
     0
 42
0.0000000001
 43
0.0000000001
 12
1.0
 22
0.0
 32
0.0
 13
1.0
 23
0.0
 33
0.0
 40
0.0
 40
0.0
 40
0.0
 40
0.0
 40
0.25
 40
0.25
 40
0.25
 40
0.25
 40
0.5
 40
0.5
 40
0.5
 40
0.5
 40
1.0
 40
1.0
 40
1.0
 40
1.0
 10
-69.8455
 20
113.7172
 30
0.0
 10
-69.8455
 20
109.2761
 30
0.0
 10
-69.8455
 20
108.3926
 30
0.0
 10
-69.8455
 20
104.604
 30
0.0
 10
-69.8455
 20
104.604
 30
0.0
 10
-70.9463
 20
105.791
 30
0.0
 10
-71.7807
 20
107.3106
 30
0.0
 10
-71.8732
 20
109.5223
 30
0.0
 10
-71.8732
 20
109.5223
 30
0.0
 10
-71.7498
 20
111.9343
 30
0.0
 10
-70.5894
 20
113.2031
 30
0.0
 10
-69.8455
 20
113.7172
 30
0.0
  0
SPLINE
  5
55
330
1F
100
AcDbEntity
  8
layer 1
 62
     7
100
AcDbSpline
210
0.0
220
0.0
230
1.0
 70
    11
 71
     3
 72
    16
 73
    12
 74
     0
 42
0.0000000001
 43
0.0000000001
 12
1.0
 22
0.0
 32
0.0
 13
1.0
 23
0.0
 33
0.0
 40
0.0
 40
0.0
 40
0.0
 40
0.0
 40
0.25
 40
0.25
 40
0.25
 40
0.25
 40
0.5
 40
0.5
 40
0.5
 40
0.5
 40
1.0
 40
1.0
 40
1.0
 40
1.0
 10
-69.8455
 20
118.9187
 30
0.0
 10
-69.8455
 20
119.7116
 30
0.0
 10
-69.8455
 20
121.5875
 30
0.0
 10
-69.8455
 20
122.4374
 30
0.0
 10
-69.8455
 20
122.4374
 30
0.0
 10
-70.5042
 20
121.9562
 30
0.0
 10
-71.0009
 20
121.9671
 30
0.0
 10
-71.6321
 20
121.8829
 30
0.0
 10
-71.6321
 20
121.8829
 30
0.0
 10
-70.7628
 20
121.046
 30
0.0
 10
-70.2298
 20
120.3463
 30
0.0
 10
-69.8455
 20
118.9187
 30
0.0
  0
SPLINE
  5
56
330
1F
100
AcDbEntity
  8
layer 1
 62
     7
100
AcDbSpline
210
0.0
220
0.0
230
1.0
 70
    11
 71
     3
 72
    16
 73
    12
 74
     0
 42
0.0000000001
 43
0.0000000001
 12
1.0
 22
0.0
 32
0.0
 13
1.0
 23
0.0
 33
0.0
 40
0.0
 40
0.0
 40
0.0
 40
0.0
 40
0.25
 40
0.25
 40
0.25
 40
0.25
 40
0.5
 40
0.5
 40
0.5
 40
0.5
 40
1.0
 40
1.0
 40
1.0
 40
1.0
 10
-69.8455
 20
93.425
 30
0.0
 10
-69.8455
 20
88.9839
 30
0.0
 10
-69.8455
 20
89.5872
 30
0.0
 10
-69.8455
 20
85.7986
 30
0.0
 10
-69.8455
 20
85.7986
 30
0.0
 10
-70.7764
 20
87.7714
 30
0.0
 10
-72.0993
 20
89.5247
 30
0.0
 10
-73.4024
 20
90.8019
 30
0.0
 10
-73.4024
 20
90.8019
 30
0.0
 10
-72.3021
 20
91.2811
 30
0.0
 10
-70.7169
 20
92.2525
 30
0.0
 10
-69.8455
 20
93.425
 30
0.0
  0
SPLINE
  5
57
330
1F
100
AcDbEntity
  8
layer 1
 62
     7
100
AcDbSpline
210
0.0
220
0.0
230
1.0
 70
    11
 71
     3
 72
    16
 73
    12
 74
     0
 42
0.0000000001
 43
0.0000000001
 12
1.0
 22
0.0
 32
0.0
 13
1.0
 23
0.0
 33
0.0
 40
0.0
 40
0.0
 40
0.0
 40
0.0
 40
0.25
 40
0.25
 40
0.25
 40
0.25
 40
0.5
 40
0.5
 40
0.5
 40
0.5
 40
1.0
 40
1.0
 40
1.0
 40
1.0
 10
-69.8455
 20
59.8732
 30
0.0
 10
-69.8455
 20
60.6661
 30
0.0
 10
-69.8455
 20
62.8828
 30
0.0
 10
-69.8455
 20
63.7327
 30
0.0
 10
-69.8455
 20
63.7327
 30
0.0
 10
-70.2421
 20
63.0156
 30
0.0
 10
-70.398
 20
62.7382
 30
0.0
 10
-70.7671
 20
62.3918
 30
0.0
 10
-70.7671
 20
62.3918
 30
0.0
 10
-70.2909
 20
61.7646
 30
0.0
 10
-70.1512
 20
61.0387
 30
0.0
 10
-69.8455
 20
59.8732
 30
0.0
  0
SPLINE
  5
58
330
1F
100
AcDbEntity
  8
layer 1
 62
     7
100
AcDbSpline
210
0.0
220
0.0
230
1.0
 70
    11
 71
     3
 72
    52
 73
    48
 74
     0
 42
0.0000000001
 43
0.0000000001
 12
1.0
 22
0.0
 32
0.0
 13
1.0
 23
0.0
 33
0.0
 40
0.0
 40
0.0
 40
0.0
 40
0.0
 40
0.0769230769230769
 40
0.0769230769230769
 40
0.0769230769230769
 40
0.0769230769230769
 40
0.1538461538461539
 40
0.1538461538461539
 40
0.1538461538461539
 40
0.1538461538461539
 40
0.2307692307692308
 40
0.2307692307692308
 40
0.2307692307692308
 40
0.2307692307692308
 40
0.3076923076923077
 40
0.3076923076923077
 40
0.3076923076923077
 40
0.3076923076923077
 40
0.3846153846153846
 40
0.3846153846153846
 40
0.3846153846153846
 40
0.3846153846153846
 40
0.4615384615384616
 40
0.4615384615384616
 40
0.4615384615384616
 40
0.4615384615384616
 40
0.5384615384615384
 40
0.5384615384615384
 40
0.5384615384615384
 40
0.5384615384615384
 40
0.6153846153846154
 40
0.6153846153846154
 40
0.6153846153846154
 40
0.6153846153846154
 40
0.6923076923076923
 40
0.6923076923076923
 40
0.6923076923076923
 40
0.6923076923076923
 40
0.7692307692307693
 40
0.7692307692307693
 40
0.7692307692307693
 40
0.7692307692307693
 40
0.8461538461538461
 40
0.8461538461538461
 40
0.8461538461538461
 40
0.8461538461538461
 40
1.0
 40
1.0
 40
1.0
 40
1.0
 10
-85.7368
 20
42.0081
 30
0.0
 10
-87.993
 20
44.4478
 30
0.0
 10
-93.5597
 20
43.6028
 30
0.0
 10
-94.1994
 20
38.2237
 30
0.0
 10
-94.1994
 20
38.2237
 30
0.0
 10
-95.171
 20
41.8472
 30
0.0
 10
-99.5242
 20
43.2268
 30
0.0
 10
-102.6748
 20
43.3181
 30
0.0
 10
-102.6748
 20
43.3181
 30
0.0
 10
-103.4942
 20
43.3844
 30
0.0
 10
-103.6605
 20
44.1541
 30
0.0
 10
-102.5595
 20
44.3101
 30
0.0
 10
-102.5595
 20
44.3101
 30
0.0
 10
-98.8171
 20
43.0779
 30
0.0
 10
-94.2869
 20
44.4793
 30
0.0
 10
-91.9738
 20
45.8651
 30
0.0
 10
-91.9738
 20
45.8651
 30
0.0
 10
-89.5593
 20
47.3116
 30
0.0
 10
-88.0075
 20
47.2306
 30
0.0
 10
-84.9591
 20
47.7542
 30
0.0
 10
-84.9591
 20
47.7542
 30
0.0
 10
-87.942
 20
53.5371
 30
0.0
 10
-99.3286
 20
56.2322
 30
0.0
 10
-104.6176
 20
47.6331
 30
0.0
 10
-104.6176
 20
47.6331
 30
0.0
 10
-105.162
 20
46.5722
 30
0.0
 10
-106.2194
 20
47.2894
 30
0.0
 10
-105.3163
 20
48.3342
 30
0.0
 10
-105.3163
 20
48.3342
 30
0.0
 10
-102.5692
 20
53.004
 30
0.0
 10
-107.0543
 20
56.0538
 30
0.0
 10
-109.3993
 20
56.4902
 30
0.0
 10
-109.3993
 20
56.4902
 30
0.0
 10
-105.7492
 20
57.6013
 30
0.0
 10
-101.296
 20
59.3801
 30
0.0
 10
-99.7564
 20
60.9361
 30
0.0
 10
-99.7564
 20
60.9361
 30
0.0
 10
-93.491
 20
57.9747
 30
0.0
 10
-94.4635
 20
53.8653
 30
0.0
 10
-88.793
 20
53.2815
 30
0.0
 10
-88.793
 20
53.2815
 30
0.0
 10
-87.173
 20
60.1211
 30
0.0
 10
-79.752
 20
49.6836
 30
0.0
 10
-85.7368
 20
42.008
 30
0.0
 10
-85.7368
 20
42.008
 30
0.0
 10
-85.7368
 20
42.008
 30
0.0
 10
-85.7368
 20
42.0081
 30
0.0
 10
-85.7368
 20
42.0081
 30
0.0
  0
SPLINE
  5
59
330
1F
100
AcDbEntity
  8
layer 1
 62
     7
100
AcDbSpline
210
0.0
220
0.0
230
1.0
 70
    11
 71
     3
 72
    32
 73
    28
 74
     0
 42
0.0000000001
 43
0.0000000001
 12
1.0
 22
0.0
 32
0.0
 13
1.0
 23
0.0
 33
0.0
 40
0.0
 40
0.0
 40
0.0
 40
0.0
 40
0.125
 40
0.125
 40
0.125
 40
0.125
 40
0.25
 40
0.25
 40
0.25
 40
0.25
 40
0.375
 40
0.375
 40
0.375
 40
0.375
 40
0.5
 40
0.5
 40
0.5
 40
0.5
 40
0.625
 40
0.625
 40
0.625
 40
0.625
 40
0.75
 40
0.75
 40
0.75
 40
0.75
 40
1.0
 40
1.0
 40
1.0
 40
1.0
 10
-102.9573
 20
17.8056
 30
0.0
 10
-104.401
 20
17.9888
 30
0.0
 10
-105.3881
 20
18.1941
 30
0.0
 10
-106.5703
 20
18.1108
 30
0.0
 10
-106.5703
 20
18.1108
 30
0.0
 10
-107.1567
 20
14.7331
 30
0.0
 10
-111.6784
 20
10.7135
 30
0.0
 10
-117.7604
 20
11.3436
 30
0.0
 10
-117.7604
 20
11.3436
 30
0.0
 10
-116.2656
 20
12.4913
 30
0.0
 10
-114.742
 20
13.7326
 30
0.0
 10
-115.1022
 20
16.8403
 30
0.0
 10
-115.1022
 20
16.8403
 30
0.0
 10
-115.6631
 20
21.6809
 30
0.0
 10
-109.8846
 20
21.3917
 30
0.0
 10
-110.6251
 20
17.3898
 30
0.0
 10
-110.6251
 20
17.3898
 30
0.0
 10
-108.8281
 20
18.3357
 30
0.0
 10
-108.0955
 20
20.3653
 30
0.0
 10
-108.5513
 20
22.0753
 30
0.0
 10
-108.5513
 20
22.0753
 30
0.0
 10
-106.2634
 20
20.4363
 30
0.0
 10
-105.2702
 20
19.7347
 30
0.0
 10
-102.9574
 20
17.8057
 30
0.0
 10
-102.9574
 20
17.8057
 30
0.0
 10
-102.9574
 20
17.8057
 30
0.0
 10
-102.9573
 20
17.8056
 30
0.0
 10
-102.9573
 20
17.8056
 30
0.0
  0
SPLINE
  5
5A
330
1F
100
AcDbEntity
  8
layer 1
 62
     7
100
AcDbSpline
210
0.0
220
0.0
230
1.0
 70
    11
 71
     3
 72
    52
 73
    48
 74
     0
 42
0.0000000001
 43
0.0000000001
 12
1.0
 22
0.0
 32
0.0
 13
1.0
 23
0.0
 33
0.0
 40
0.0
 40
0.0
 40
0.0
 40
0.0
 40
0.0769230769230769
 40
0.0769230769230769
 40
0.0769230769230769
 40
0.0769230769230769
 40
0.1538461538461539
 40
0.1538461538461539
 40
0.1538461538461539
 40
0.1538461538461539
 40
0.2307692307692308
 40
0.2307692307692308
 40
0.2307692307692308
 40
0.2307692307692308
 40
0.3076923076923077
 40
0.3076923076923077
 40
0.3076923076923077
 40
0.3076923076923077
 40
0.3846153846153846
 40
0.3846153846153846
 40
0.3846153846153846
 40
0.3846153846153846
 40
0.4615384615384616
 40
0.4615384615384616
 40
0.4615384615384616
 40
0.4615384615384616
 40
0.5384615384615384
 40
0.5384615384615384
 40
0.5384615384615384
 40
0.5384615384615384
 40
0.6153846153846154
 40
0.6153846153846154
 40
0.6153846153846154
 40
0.6153846153846154
 40
0.6923076923076923
 40
0.6923076923076923
 40
0.6923076923076923
 40
0.6923076923076923
 40
0.7692307692307693
 40
0.7692307692307693
 40
0.7692307692307693
 40
0.7692307692307693
 40
0.8461538461538461
 40
0.8461538461538461
 40
0.8461538461538461
 40
0.8461538461538461
 40
1.0
 40
1.0
 40
1.0
 40
1.0
 10
-69.8455
 20
70.6994
 30
0.0
 10
-69.8455
 20
68.9666
 30
0.0
 10
-70.8244
 20
66.1596
 30
0.0
 10
-72.6575
 20
64.5994
 30
0.0
 10
-72.6575
 20
64.5994
 30
0.0
 10
-76.1551
 20
65.3401
 30
0.0
 10
-79.2576
 20
63.3309
 30
0.0
 10
-78.482
 20
58.9648
 30
0.0
 10
-78.482
 20
58.9648
 30
0.0
 10
-78.1453
 20
57.9087
 30
0.0
 10
-78.2718
 20
54.961
 30
0.0
 10
-80.1645
 20
53.744
 30
0.0
 10
-80.1645
 20
53.744
 30
0.0
 10
-83.2984
 20
63.2197
 30
0.0
 10
-91.1633
 20
63.7881
 30
0.0
 10
-96.3522
 20
63.5919
 30
0.0
 10
-96.3522
 20
63.5919
 30
0.0
 10
-94.8237
 20
65.0769
 30
0.0
 10
-94.2687
 20
65.9248
 30
0.0
 10
-91.3518
 20
69.4743
 30
0.0
 10
-91.3518
 20
69.4743
 30
0.0
 10
-89.5648
 20
71.6488
 30
0.0
 10
-83.3097
 20
69.3303
 30
0.0
 10
-86.6517
 20
64.7215
 30
0.0
 10
-86.6517
 20
64.7215
 30
0.0
 10
-84.955
 20
62.9063
 30
0.0
 10
-78.2272
 20
63.4378
 30
0.0
 10
-77.5283
 20
69.3303
 30
0.0
 10
-77.5283
 20
69.3303
 30
0.0
 10
-76.7645
 20
67.4643
 30
0.0
 10
-75.9602
 20
66.3701
 30
0.0
 10
-75.208
 20
65.9556
 30
0.0
 10
-75.208
 20
65.9556
 30
0.0
 10
-75.329
 20
67.3044
 30
0.0
 10
-74.3798
 20
68.5931
 30
0.0
 10
-72.649
 20
70.5893
 30
0.0
 10
-72.649
 20
70.5893
 30
0.0
 10
-69.8455
 20
72.8578
 30
0.0
 10
-69.8455
 20
76.297
 30
0.0
 10
-71.2581
 20
78.004
 30
0.0
 10
-71.2581
 20
78.004
 30
0.0
 10
-70.8297
 20
78.8667
 30
0.0
 10
-70.3836
 20
79.3866
 30
0.0
 10
-69.8455
 20
80.413
 30
0.0
 10
-69.8455
 20
80.413
 30
0.0
 10
-69.8455
 20
76.8368
 30
0.0
 10
-69.8455
 20
73.9973
 30
0.0
 10
-69.8455
 20
70.6994
 30
0.0
  0
SPLINE
  5
5B
330
1F
100
AcDbEntity
  8
layer 1
 62
     7
100
AcDbSpline
210
0.0
220
0.0
230
1.0
 70
    11
 71
     3
 72
   128
 73
   124
 74
     0
 42
0.0000000001
 43
0.0000000001
 12
1.0
 22
0.0
 32
0.0
 13
1.0
 23
0.0
 33
0.0
 40
0.0
 40
0.0
 40
0.0
 40
0.0
 40
0.03125
 40
0.03125
 40
0.03125
 40
0.03125
 40
0.0625
 40
0.0625
 40
0.0625
 40
0.0625
 40
0.09375
 40
0.09375
 40
0.09375
 40
0.09375
 40
0.125
 40
0.125
 40
0.125
 40
0.125
 40
0.15625
 40
0.15625
 40
0.15625
 40
0.15625
 40
0.1875
 40
0.1875
 40
0.1875
 40
0.1875
 40
0.21875
 40
0.21875
 40
0.21875
 40
0.21875
 40
0.25
 40
0.25
 40
0.25
 40
0.25
 40
0.28125
 40
0.28125
 40
0.28125
 40
0.28125
 40
0.3125
 40
0.3125
 40
0.3125
 40
0.3125
 40
0.34375
 40
0.34375
 40
0.34375
 40
0.34375
 40
0.375
 40
0.375
 40
0.375
 40
0.375
 40
0.40625
 40
0.40625
 40
0.40625
 40
0.40625
 40
0.4375
 40
0.4375
 40
0.4375
 40
0.4375
 40
0.46875
 40
0.46875
 40
0.46875
 40
0.46875
 40
0.5
 40
0.5
 40
0.5
 40
0.5
 40
0.53125
 40
0.53125
 40
0.53125
 40
0.53125
 40
0.5625
 40
0.5625
 40
0.5625
 40
0.5625
 40
0.59375
 40
0.59375
 40
0.59375
 40
0.59375
 40
0.625
 40
0.625
 40
0.625
 40
0.625
 40
0.65625
 40
0.65625
 40
0.65625
 40
0.65625
 40
0.6875
 40
0.6875
 40
0.6875
 40
0.6875
 40
0.71875
 40
0.71875
 40
0.71875
 40
0.71875
 40
0.75
 40
0.75
 40
0.75
 40
0.75
 40
0.78125
 40
0.78125
 40
0.78125
 40
0.78125
 40
0.8125
 40
0.8125
 40
0.8125
 40
0.8125
 40
0.84375
 40
0.84375
 40
0.84375
 40
0.84375
 40
0.875
 40
0.875
 40
0.875
 40
0.875
 40
0.90625
 40
0.90625
 40
0.90625
 40
0.90625
 40
0.9375
 40
0.9375
 40
0.9375
 40
0.9375
 40
1.0
 40
1.0
 40
1.0
 40
1.0
 10
-72.8842
 20
80.7453
 30
0.0
 10
-75.243
 20
81.3713
 30
0.0
 10
-80.3754
 20
78.4618
 30
0.0
 10
-79.7983
 20
73.6711
 30
0.0
 10
-79.7983
 20
73.6711
 30
0.0
 10
-83.296
 20
76.4732
 30
0.0
 10
-91.27
 20
77.6768
 30
0.0
 10
-96.2375
 20
69.7799
 30
0.0
 10
-96.2375
 20
69.7799
 30
0.0
 10
-96.778
 20
68.8273
 30
0.0
 10
-98.0574
 20
69.1633
 30
0.0
 10
-97.3787
 20
70.3388
 30
0.0
 10
-97.3787
 20
70.3388
 30
0.0
 10
-97.4283
 20
70.3533
 30
0.0
 10
-92.0347
 20
74.7033
 30
0.0
 10
-92.3738
 20
79.1042
 30
0.0
 10
-92.3738
 20
79.1042
 30
0.0
 10
-92.5591
 20
81.5082
 30
0.0
 10
-90.6464
 20
84.96
 30
0.0
 10
-87.5587
 20
84.9614
 30
0.0
 10
-87.5587
 20
84.9614
 30
0.0
 10
-92.1915
 20
91.0002
 30
0.0
 10
-105.4246
 20
85.5856
 30
0.0
 10
-100.6074
 20
73.9794
 30
0.0
 10
-100.6074
 20
73.9794
 30
0.0
 10
-100.2088
 20
72.7932
 30
0.0
 10
-101.5903
 20
71.8652
 30
0.0
 10
-101.7277
 20
73.1971
 30
0.0
 10
-101.7277
 20
73.1971
 30
0.0
 10
-100.7811
 20
81.5617
 30
0.0
 10
-109.0479
 20
79.4691
 30
0.0
 10
-107.6082
 20
75.0226
 30
0.0
 10
-107.6082
 20
75.0226
 30
0.0
 10
-106.602
 20
71.7473
 30
0.0
 10
-104.9503
 20
72.2506
 30
0.0
 10
-105.5047
 20
68.4151
 30
0.0
 10
-105.5047
 20
68.4151
 30
0.0
 10
-106.7849
 20
62.6841
 30
0.0
 10
-114.8263
 20
58.7729
 30
0.0
 10
-120.4035
 20
60.4389
 30
0.0
 10
-120.4035
 20
60.4389
 30
0.0
 10
-120.8857
 20
60.3928
 30
0.0
 10
-119.5119
 20
66.5104
 30
0.0
 10
-116.9636
 20
69.0016
 30
0.0
 10
-116.9636
 20
69.0016
 30
0.0
 10
-114.7423
 20
71.1731
 30
0.0
 10
-111.2714
 20
70.0965
 30
0.0
 10
-111.9461
 20
66.107
 30
0.0
 10
-111.9461
 20
66.107
 30
0.0
 10
-106.752
 20
66.3879
 30
0.0
 10
-105.4431
 20
72.3055
 30
0.0
 10
-108.8857
 20
75.3062
 30
0.0
 10
-108.8857
 20
75.3062
 30
0.0
 10
-111.1723
 20
77.2993
 30
0.0
 10
-116.0163
 20
77.7369
 30
0.0
 10
-117.9239
 20
74.2361
 30
0.0
 10
-117.9239
 20
74.2361
 30
0.0
 10
-118.355
 20
73.9223
 30
0.0
 10
-119.1436
 20
74.4296
 30
0.0
 10
-118.6397
 20
75.0908
 30
0.0
 10
-118.6397
 20
75.0908
 30
0.0
 10
-116.984
 20
76.9918
 30
0.0
 10
-112.6719
 20
79.2213
 30
0.0
 10
-109.9873
 20
78.7392
 30
0.0
 10
-109.9873
 20
78.7392
 30
0.0
 10
-110.6313
 20
81.145
 30
0.0
 10
-110.9842
 20
83.9201
 30
0.0
 10
-109.9627
 20
86.2963
 30
0.0
 10
-109.9627
 20
86.2963
 30
0.0
 10
-112.8796
 20
85.0401
 30
0.0
 10
-116.2724
 20
84.9789
 30
0.0
 10
-118.175
 20
85.4296
 30
0.0
 10
-118.175
 20
85.4296
 30
0.0
 10
-117.6557
 20
84.0417
 30
0.0
 10
-118.5091
 20
79.4254
 30
0.0
 10
-120.8443
 20
76.099
 30
0.0
 10
-120.8443
 20
76.099
 30
0.0
 10
-121.2239
 20
75.4024
 30
0.0
 10
-121.7645
 20
75.9624
 30
0.0
 10
-121.6457
 20
76.7148
 30
0.0
 10
-121.6457
 20
76.7148
 30
0.0
 10
-117.9635
 20
81.9944
 30
0.0
 10
-120.0237
 20
87.5598
 30
0.0
 10
-120.9014
 20
89.4684
 30
0.0
 10
-120.9014
 20
89.4684
 30
0.0
 10
-118.8214
 20
92.2243
 30
0.0
 10
-114.8862
 20
94.0236
 30
0.0
 10
-111.7446
 20
93.943
 30
0.0
 10
-111.7446
 20
93.943
 30
0.0
 10
-105.7525
 20
93.7892
 30
0.0
 10
-106.4861
 20
88.1746
 30
0.0
 10
-110.7658
 20
89.1768
 30
0.0
 10
-110.7658
 20
89.1768
 30
0.0
 10
-109.1532
 20
84.3038
 30
0.0
 10
-103.8613
 20
84.5763
 30
0.0
 10
-101.6856
 20
86.597
 30
0.0
 10
-101.6856
 20
86.597
 30
0.0
 10
-100.2577
 20
87.9231
 30
0.0
 10
-100.318
 20
90.0605
 30
0.0
 10
-103.1295
 20
91.7857
 30
0.0
 10
-103.1295
 20
91.7857
 30
0.0
 10
-103.8015
 20
92.4837
 30
0.0
 10
-102.9459
 20
93.4405
 30
0.0
 10
-102.3475
 20
92.6672
 30
0.0
 10
-102.3475
 20
92.6672
 30
0.0
 10
-99.802
 20
86.837
 30
0.0
 10
-88.1869
 20
86.2284
 30
0.0
 10
-85.2255
 20
92.6859
 30
0.0
 10
-85.2255
 20
92.6859
 30
0.0
 10
-78.2172
 20
91.5699
 30
0.0
 10
-80.8324
 20
81.0614
 30
0.0
 10
-88.501
 20
84.358
 30
0.0
 10
-88.501
 20
84.358
 30
0.0
 10
-90.0724
 20
73.6831
 30
0.0
 10
-72.7557
 20
76.7156
 30
0.0
 10
-75.0893
 20
87.6388
 30
0.0
 10
-75.0893
 20
87.6388
 30
0.0
 10
-73.5593
 20
86.498
 30
0.0
 10
-72.2469
 20
83.0826
 30
0.0
 10
-72.8842
 20
80.7455
 30
0.0
 10
-72.8842
 20
80.7455
 30
0.0
 10
-72.8842
 20
80.7455
 30
0.0
 10
-72.8842
 20
80.7453
 30
0.0
 10
-72.8842
 20
80.7453
 30
0.0
  0
SPLINE
  5
5C
330
1F
100
AcDbEntity
  8
layer 1
 62
     7
100
AcDbSpline
210
0.0
220
0.0
230
1.0
 70
    11
 71
     3
 72
    24
 73
    20
 74
     0
 42
0.0000000001
 43
0.0000000001
 12
1.0
 22
0.0
 32
0.0
 13
1.0
 23
0.0
 33
0.0
 40
0.0
 40
0.0
 40
0.0
 40
0.0
 40
0.1666666666666667
 40
0.1666666666666667
 40
0.1666666666666667
 40
0.1666666666666667
 40
0.3333333333333333
 40
0.3333333333333333
 40
0.3333333333333333
 40
0.3333333333333333
 40
0.5
 40
0.5
 40
0.5
 40
0.5
 40
0.6666666666666666
 40
0.6666666666666666
 40
0.6666666666666666
 40
0.6666666666666666
 40
1.0
 40
1.0
 40
1.0
 40
1.0
 10
-133.1618
 20
126.0824
 30
0.0
 10
-143.3032
 20
126.0824
 30
0.0
 10
-135.0896
 20
126.0073
 30
0.0
 10
-145.231
 20
126.0073
 30
0.0
 10
-145.231
 20
126.0073
 30
0.0
 10
-148.5942
 20
125.2218
 30
0.0
 10
-146.5421
 20
119.5909
 30
0.0
 10
-142.5518
 20
121.4845
 30
0.0
 10
-142.5518
 20
121.4845
 30
0.0
 10
-138.5668
 20
122.8526
 30
0.0
 10
-136.9188
 20
120.8005
 30
0.0
 10
-135.2709
 20
120.2304
 30
0.0
 10
-135.2709
 20
120.2304
 30
0.0
 10
-135.7839
 20
123.2961
 30
0.0
 10
-134.8149
 20
124.9548
 30
0.0
 10
-133.1617
 20
126.0824
 30
0.0
 10
-133.1617
 20
126.0824
 30
0.0
 10
-133.1617
 20
126.0824
 30
0.0
 10
-133.1618
 20
126.0824
 30
0.0
 10
-133.1618
 20
126.0824
 30
0.0
  0
SPLINE
  5
5D
330
1F
100
AcDbEntity
  8
layer 1
 62
     7
100
AcDbSpline
210
0.0
220
0.0
230
1.0
 70
    11
 71
     3
 72
    16
 73
    12
 74
     0
 42
0.0000000001
 43
0.0000000001
 12
1.0
 22
0.0
 32
0.0
 13
1.0
 23
0.0
 33
0.0
 40
0.0
 40
0.0
 40
0.0
 40
0.0
 40
0.25
 40
0.25
 40
0.25
 40
0.25
 40
0.5
 40
0.5
 40
0.5
 40
0.5
 40
1.0
 40
1.0
 40
1.0
 40
1.0
 10
-156.9323
 20
126.0824
 30
0.0
 10
-161.3734
 20
126.0824
 30
0.0
 10
-162.7933
 20
126.0824
 30
0.0
 10
-166.5503
 20
126.0073
 30
0.0
 10
-166.5503
 20
126.0073
 30
0.0
 10
-166.3731
 20
124.8276
 30
0.0
 10
-164.2223
 20
123.7528
 30
0.0
 10
-161.6636
 20
123.7077
 30
0.0
 10
-161.6636
 20
123.7077
 30
0.0
 10
-158.6993
 20
123.7521
 30
0.0
 10
-157.7303
 20
124.6128
 30
0.0
 10
-156.9323
 20
126.0824
 30
0.0
  0
SPLINE
  5
5E
330
1F
100
AcDbEntity
  8
layer 1
 62
     7
100
AcDbSpline
210
0.0
220
0.0
230
1.0
 70
    11
 71
     3
 72
    16
 73
    12
 74
     0
 42
0.0000000001
 43
0.0000000001
 12
1.0
 22
0.0
 32
0.0
 13
1.0
 23
0.0
 33
0.0
 40
0.0
 40
0.0
 40
0.0
 40
0.0
 40
0.25
 40
0.25
 40
0.25
 40
0.25
 40
0.5
 40
0.5
 40
0.5
 40
0.5
 40
1.0
 40
1.0
 40
1.0
 40
1.0
 10
-173.8053
 20
126.0824
 30
0.0
 10
-174.5982
 20
126.0824
 30
0.0
 10
-176.4741
 20
126.0824
 30
0.0
 10
-177.324
 20
126.0824
 30
0.0
 10
-177.324
 20
126.0824
 30
0.0
 10
-176.8428
 20
125.4237
 30
0.0
 10
-176.8537
 20
124.927
 30
0.0
 10
-176.7695
 20
124.2958
 30
0.0
 10
-176.7695
 20
124.2958
 30
0.0
 10
-175.9327
 20
125.1651
 30
0.0
 10
-175.2329
 20
125.6981
 30
0.0
 10
-173.8053
 20
126.0824
 30
0.0
  0
SPLINE
  5
5F
330
1F
100
AcDbEntity
  8
layer 1
 62
     7
100
AcDbSpline
210
0.0
220
0.0
230
1.0
 70
    11
 71
     3
 72
    84
 73
    80
 74
     0
 42
0.0000000001
 43
0.0000000001
 12
1.0
 22
0.0
 32
0.0
 13
1.0
 23
0.0
 33
0.0
 40
0.0
 40
0.0
 40
0.0
 40
0.0
 40
0.0476190476190476
 40
0.0476190476190476
 40
0.0476190476190476
 40
0.0476190476190476
 40
0.0952380952380952
 40
0.0952380952380952
 40
0.0952380952380952
 40
0.0952380952380952
 40
0.1428571428571428
 40
0.1428571428571428
 40
0.1428571428571428
 40
0.1428571428571428
 40
0.1904761904761905
 40
0.1904761904761905
 40
0.1904761904761905
 40
0.1904761904761905
 40
0.2380952380952381
 40
0.2380952380952381
 40
0.2380952380952381
 40
0.2380952380952381
 40
0.2857142857142857
 40
0.2857142857142857
 40
0.2857142857142857
 40
0.2857142857142857
 40
0.3333333333333333
 40
0.3333333333333333
 40
0.3333333333333333
 40
0.3333333333333333
 40
0.3809523809523809
 40
0.3809523809523809
 40
0.3809523809523809
 40
0.3809523809523809
 40
0.4285714285714285
 40
0.4285714285714285
 40
0.4285714285714285
 40
0.4285714285714285
 40
0.4761904761904762
 40
0.4761904761904762
 40
0.4761904761904762
 40
0.4761904761904762
 40
0.5238095238095238
 40
0.5238095238095238
 40
0.5238095238095238
 40
0.5238095238095238
 40
0.5714285714285714
 40
0.5714285714285714
 40
0.5714285714285714
 40
0.5714285714285714
 40
0.6190476190476191
 40
0.6190476190476191
 40
0.6190476190476191
 40
0.6190476190476191
 40
0.6666666666666666
 40
0.6666666666666666
 40
0.6666666666666666
 40
0.6666666666666666
 40
0.7142857142857143
 40
0.7142857142857143
 40
0.7142857142857143
 40
0.7142857142857143
 40
0.7619047619047619
 40
0.7619047619047619
 40
0.7619047619047619
 40
0.7619047619047619
 40
0.8095238095238095
 40
0.8095238095238095
 40
0.8095238095238095
 40
0.8095238095238095
 40
0.8571428571428571
 40
0.8571428571428571
 40
0.8571428571428571
 40
0.8571428571428571
 40
0.9047619047619048
 40
0.9047619047619048
 40
0.9047619047619048
 40
0.9047619047619048
 40
1.0
 40
1.0
 40
1.0
 40
1.0
 10
-148.7106
 20
126.0824
 30
0.0
 10
-150.7583
 20
126.0073
 30
0.0
 10
-151.8724
 20
126.0824
 30
0.0
 10
-153.4483
 20
126.0824
 30
0.0
 10
-153.4483
 20
126.0824
 30
0.0
 10
-154.2709
 20
124.4621
 30
0.0
 10
-159.4052
 20
118.6861
 30
0.0
 10
-169.9328
 20
120.0716
 30
0.0
 10
-169.9328
 20
120.0716
 30
0.0
 10
-165.8636
 20
117.0725
 30
0.0
 10
-163.5248
 20
111.1253
 30
0.0
 10
-163.5802
 20
109.7873
 30
0.0
 10
-163.5802
 20
109.7873
 30
0.0
 10
-165.9441
 20
109.3558
 30
0.0
 10
-172.5152
 20
111.9992
 30
0.0
 10
-174.2774
 20
113.9393
 30
0.0
 10
-174.2774
 20
113.9393
 30
0.0
 10
-172.6925
 20
105.8192
 30
0.0
 10
-176.7354
 20
101.1908
 30
0.0
 10
-181.1692
 20
102.1204
 30
0.0
 10
-181.1692
 20
102.1204
 30
0.0
 10
-181.1692
 20
102.1204
 30
0.0
 10
-181.1692
 20
98.517
 30
0.0
 10
-181.1692
 20
98.517
 30
0.0
 10
-181.1692
 20
98.517
 30
0.0
 10
-179.8501
 20
101.0115
 30
0.0
 10
-177.5779
 20
101.8378
 30
0.0
 10
-175.1767
 20
101.2628
 30
0.0
 10
-175.1767
 20
101.2628
 30
0.0
 10
-178.3344
 20
97.2494
 30
0.0
 10
-174.2524
 20
94.0913
 30
0.0
 10
-170.8026
 20
95.2651
 30
0.0
 10
-170.8026
 20
95.2651
 30
0.0
 10
-166.3748
 20
96.1873
 30
0.0
 10
-165.6924
 20
100.1245
 30
0.0
 10
-165.7501
 20
102.1094
 30
0.0
 10
-165.7501
 20
102.1094
 30
0.0
 10
-166.055
 20
105.5443
 30
0.0
 10
-170.043
 20
104.2595
 30
0.0
 10
-168.908
 20
101.882
 30
0.0
 10
-168.908
 20
101.882
 30
0.0
 10
-170.6383
 20
100.768
 30
0.0
 10
-172.1531
 20
98.1708
 30
0.0
 10
-172.1134
 20
98.2854
 30
0.0
 10
-172.1134
 20
98.2854
 30
0.0
 10
-175.6842
 20
99.4913
 30
0.0
 10
-175.6514
 20
104.9648
 30
0.0
 10
-171.7452
 20
107.0966
 30
0.0
 10
-171.7452
 20
107.0966
 30
0.0
 10
-167.6365
 20
109.3526
 30
0.0
 10
-162.5252
 20
107.7864
 30
0.0
 10
-161.3691
 20
102.4372
 30
0.0
 10
-161.3691
 20
102.4372
 30
0.0
 10
-160.7647
 20
106.1183
 30
0.0
 10
-158.2627
 20
108.1975
 30
0.0
 10
-155.17
 20
108.4746
 30
0.0
 10
-155.17
 20
108.4746
 30
0.0
 10
-156.7116
 20
110.6677
 30
0.0
 10
-160.2037
 20
111.7895
 30
0.0
 10
-162.7313
 20
110.3533
 30
0.0
 10
-162.7313
 20
110.3533
 30
0.0
 10
-162.7862
 20
115.6015
 30
0.0
 10
-156.2014
 20
119.5104
 30
0.0
 10
-151.1185
 20
116.3028
 30
0.0
 10
-151.1185
 20
116.3028
 30
0.0
 10
-149.2787
 20
114.7791
 30
0.0
 10
-147.0247
 20
114.4044
 30
0.0
 10
-144.4048
 20
114.3611
 30
0.0
 10
-144.4048
 20
114.3611
 30
0.0
 10
-143.4283
 20
114.1627
 30
0.0
 10
-143.0193
 20
115.3019
 30
0.0
 10
-144.3229
 20
115.3331
 30
0.0
 10
-144.3229
 20
115.3331
 30
0.0
 10
-156.9221
 20
115.6766
 30
0.0
 10
-151.2347
 20
125.0273
 30
0.0
 10
-148.7106
 20
126.0822
 30
0.0
 10
-148.7106
 20
126.0822
 30
0.0
 10
-148.7106
 20
126.0822
 30
0.0
 10
-148.7106
 20
126.0824
 30
0.0
 10
-148.7106
 20
126.0824
 30
0.0
  0
SPLINE
  5
60
330
1F
100
AcDbEntity
  8
layer 1
 62
     7
100
AcDbSpline
210
0.0
220
0.0
230
1.0
 70
    11
 71
     3
 72
    40
 73
    36
 74
     0
 42
0.0000000001
 43
0.0000000001
 12
1.0
 22
0.0
 32
0.0
 13
1.0
 23
0.0
 33
0.0
 40
0.0
 40
0.0
 40
0.0
 40
0.0
 40
0.1
 40
0.1
 40
0.1
 40
0.1
 40
0.2
 40
0.2
 40
0.2
 40
0.2
 40
0.3
 40
0.3
 40
0.3
 40
0.3
 40
0.4
 40
0.4
 40
0.4
 40
0.4
 40
0.5
 40
0.5
 40
0.5
 40
0.5
 40
0.6
 40
0.6
 40
0.6
 40
0.6
 40
0.7
 40
0.7
 40
0.7
 40
0.7
 40
0.8
 40
0.8
 40
0.8
 40
0.8
 40
1.0
 40
1.0
 40
1.0
 40
1.0
 10
-132.9941
 20
109.9248
 30
0.0
 10
-132.1313
 20
101.3732
 30
0.0
 10
-145.3804
 20
101.0147
 30
0.0
 10
-144.3942
 20
110.5145
 30
0.0
 10
-144.3942
 20
110.5145
 30
0.0
 10
-146.2313
 20
106.572
 30
0.0
 10
-151.6308
 20
105.486
 30
0.0
 10
-153.2928
 20
107.5654
 30
0.0
 10
-153.2928
 20
107.5654
 30
0.0
 10
-156.4803
 20
105.4327
 30
0.0
 10
-156.0682
 20
100.1533
 30
0.0
 10
-150.0571
 20
100.0847
 30
0.0
 10
-150.0571
 20
100.0847
 30
0.0
 10
-141.2842
 20
99.1931
 30
0.0
 10
-135.6894
 20
97.2872
 30
0.0
 10
-132.885
 20
95.5946
 30
0.0
 10
-132.885
 20
95.5946
 30
0.0
 10
-133.2846
 20
96.9344
 30
0.0
 10
-134.68
 20
100.3279
 30
0.0
 10
-134.0784
 20
103.164
 30
0.0
 10
-134.0784
 20
103.164
 30
0.0
 10
-133.4193
 20
106.2717
 30
0.0
 10
-131.4384
 20
107.5918
 30
0.0
 10
-131.0176
 20
110.8623
 30
0.0
 10
-131.0176
 20
110.8623
 30
0.0
 10
-130.6384
 20
116.7198
 30
0.0
 10
-137.2567
 20
117.1788
 30
0.0
 10
-138.9345
 20
113.4858
 30
0.0
 10
-138.9345
 20
113.4858
 30
0.0
 10
-140.2352
 20
109.5478
 30
0.0
 10
-136.2763
 20
107.2435
 30
0.0
 10
-132.9941
 20
109.9248
 30
0.0
 10
-132.9941
 20
109.9248
 30
0.0
 10
-132.9941
 20
109.9248
 30
0.0
 10
-132.9941
 20
109.9248
 30
0.0
 10
-132.9941
 20
109.9248
 30
0.0
  0
SPLINE
  5
61
330
1F
100
AcDbEntity
  8
layer 1
 62
     7
100
AcDbSpline
210
0.0
220
0.0
230
1.0
 70
    11
 71
     3
 72
    28
 73
    24
 74
     0
 42
0.0000000001
 43
0.0000000001
 12
1.0
 22
0.0
 32
0.0
 13
1.0
 23
0.0
 33
0.0
 40
0.0
 40
0.0
 40
0.0
 40
0.0
 40
0.1428571428571428
 40
0.1428571428571428
 40
0.1428571428571428
 40
0.1428571428571428
 40
0.2857142857142857
 40
0.2857142857142857
 40
0.2857142857142857
 40
0.2857142857142857
 40
0.4285714285714285
 40
0.4285714285714285
 40
0.4285714285714285
 40
0.4285714285714285
 40
0.5714285714285714
 40
0.5714285714285714
 40
0.5714285714285714
 40
0.5714285714285714
 40
0.7142857142857143
 40
0.7142857142857143
 40
0.7142857142857143
 40
0.7142857142857143
 40
1.0
 40
1.0
 40
1.0
 40
1.0
 10
-153.7661
 20
96.8186
 30
0.0
 10
-158.5586
 20
95.9093
 30
0.0
 10
-159.9371
 20
98.2653
 30
0.0
 10
-161.1935
 20
100.0295
 30
0.0
 10
-161.1935
 20
100.0295
 30
0.0
 10
-161.161
 20
97.0725
 30
0.0
 10
-162.9369
 20
94.7577
 30
0.0
 10
-164.7595
 20
93.2246
 30
0.0
 10
-164.7595
 20
93.2246
 30
0.0
 10
-160.3502
 20
91.4396
 30
0.0
 10
-158.9233
 20
93.4819
 30
0.0
 10
-157.1068
 20
94.9493
 30
0.0
 10
-157.1068
 20
94.9493
 30
0.0
 10
-156.1442
 20
95.7269
 30
0.0
 10
-155.2318
 20
96.2042
 30
0.0
 10
-153.551
 20
96.1458
 30
0.0
 10
-153.551
 20
96.1458
 30
0.0
 10
-152.8693
 20
95.9282
 30
0.0
 10
-152.4038
 20
97.1187
 30
0.0
 10
-153.7661
 20
96.8187
 30
0.0
 10
-153.7661
 20
96.8187
 30
0.0
 10
-153.7661
 20
96.8187
 30
0.0
 10
-153.7661
 20
96.8186
 30
0.0
 10
-153.7661
 20
96.8186
 30
0.0
  0
SPLINE
  5
62
330
1F
100
AcDbEntity
  8
layer 1
 62
     7
100
AcDbSpline
210
0.0
220
0.0
230
1.0
 70
    11
 71
     3
 72
    48
 73
    44
 74
     0
 42
0.0000000001
 43
0.0000000001
 12
1.0
 22
0.0
 32
0.0
 13
1.0
 23
0.0
 33
0.0
 40
0.0
 40
0.0
 40
0.0
 40
0.0
 40
0.0833333333333333
 40
0.0833333333333333
 40
0.0833333333333333
 40
0.0833333333333333
 40
0.1666666666666667
 40
0.1666666666666667
 40
0.1666666666666667
 40
0.1666666666666667
 40
0.25
 40
0.25
 40
0.25
 40
0.25
 40
0.3333333333333333
 40
0.3333333333333333
 40
0.3333333333333333
 40
0.3333333333333333
 40
0.4166666666666667
 40
0.4166666666666667
 40
0.4166666666666667
 40
0.4166666666666667
 40
0.5
 40
0.5
 40
0.5
 40
0.5
 40
0.5833333333333334
 40
0.5833333333333334
 40
0.5833333333333334
 40
0.5833333333333334
 40
0.6666666666666666
 40
0.6666666666666666
 40
0.6666666666666666
 40
0.6666666666666666
 40
0.75
 40
0.75
 40
0.75
 40
0.75
 40
0.8333333333333334
 40
0.8333333333333334
 40
0.8333333333333334
 40
0.8333333333333334
 40
1.0
 40
1.0
 40
1.0
 40
1.0
 10
-127.7876
 20
126.0824
 30
0.0
 10
-126.7198
 20
125.7246
 30
0.0
 10
-126.1298
 20
124.9594
 30
0.0
 10
-125.8666
 20
124.2399
 30
0.0
 10
-125.8666
 20
124.2399
 30
0.0
 10
-128.4296
 20
123.9436
 30
0.0
 10
-128.9911
 20
121.6762
 30
0.0
 10
-127.899
 20
119.1482
 30
0.0
 10
-127.899
 20
119.1482
 30
0.0
 10
-126.9914
 20
117.0473
 30
0.0
 10
-127.5533
 20
115.4456
 30
0.0
 10
-127.8013
 20
113.9352
 30
0.0
 10
-127.8013
 20
113.9352
 30
0.0
 10
-126.4401
 20
114.7509
 30
0.0
 10
-125.9743
 20
115.6448
 30
0.0
 10
-125.5074
 20
116.755
 30
0.0
 10
-125.5074
 20
116.755
 30
0.0
 10
-125.0404
 20
115.6448
 30
0.0
 10
-124.5746
 20
114.7509
 30
0.0
 10
-123.2134
 20
113.9352
 30
0.0
 10
-123.2134
 20
113.9352
 30
0.0
 10
-123.4614
 20
115.4456
 30
0.0
 10
-124.0233
 20
117.0473
 30
0.0
 10
-123.1157
 20
119.1482
 30
0.0
 10
-123.1157
 20
119.1482
 30
0.0
 10
-122.0236
 20
121.6762
 30
0.0
 10
-122.5852
 20
123.9436
 30
0.0
 10
-125.1481
 20
124.2399
 30
0.0
 10
-125.1481
 20
124.2399
 30
0.0
 10
-124.8849
 20
124.9594
 30
0.0
 10
-124.2949
 20
125.7246
 30
0.0
 10
-123.2271
 20
126.0824
 30
0.0
 10
-123.2271
 20
126.0824
 30
0.0
 10
-123.9779
 20
126.0824
 30
0.0
 10
-124.9938
 20
126.0824
 30
0.0
 10
-125.5073
 20
126.0824
 30
0.0
 10
-125.5073
 20
126.0824
 30
0.0
 10
-126.0209
 20
126.0824
 30
0.0
 10
-127.0367
 20
126.0824
 30
0.0
 10
-127.7876
 20
126.0824
 30
0.0
 10
-127.7876
 20
126.0824
 30
0.0
 10
-127.7876
 20
126.0824
 30
0.0
 10
-127.7876
 20
126.0824
 30
0.0
 10
-127.7876
 20
126.0824
 30
0.0
  0
SPLINE
  5
63
330
1F
100
AcDbEntity
  8
layer 1
 62
     7
100
AcDbSpline
210
0.0
220
0.0
230
1.0
 70
    11
 71
     3
 72
    44
 73
    40
 74
     0
 42
0.0000000001
 43
0.0000000001
 12
1.0
 22
0.0
 32
0.0
 13
1.0
 23
0.0
 33
0.0
 40
0.0
 40
0.0
 40
0.0
 40
0.0
 40
0.0909090909090909
 40
0.0909090909090909
 40
0.0909090909090909
 40
0.0909090909090909
 40
0.1818181818181818
 40
0.1818181818181818
 40
0.1818181818181818
 40
0.1818181818181818
 40
0.2727272727272727
 40
0.2727272727272727
 40
0.2727272727272727
 40
0.2727272727272727
 40
0.3636363636363636
 40
0.3636363636363636
 40
0.3636363636363636
 40
0.3636363636363636
 40
0.4545454545454545
 40
0.4545454545454545
 40
0.4545454545454545
 40
0.4545454545454545
 40
0.5454545454545454
 40
0.5454545454545454
 40
0.5454545454545454
 40
0.5454545454545454
 40
0.6363636363636364
 40
0.6363636363636364
 40
0.6363636363636364
 40
0.6363636363636364
 40
0.7272727272727273
 40
0.7272727272727273
 40
0.7272727272727273
 40
0.7272727272727273
 40
0.8181818181818182
 40
0.8181818181818182
 40
0.8181818181818182
 40
0.8181818181818182
 40
1.0
 40
1.0
 40
1.0
 40
1.0
 10
-130.6824
 20
15.1069
 30
0.0
 10
-131.7135
 20
15.4402
 30
0.0
 10
-132.3816
 20
17.8131
 30
0.0
 10
-130.5304
 20
19.7648
 30
0.0
 10
-130.5304
 20
19.7648
 30
0.0
 10
-125.5233
 20
27.6658
 30
0.0
 10
-128.1803
 20
36.0999
 30
0.0
 10
-129.7585
 20
37.9415
 30
0.0
 10
-129.7585
 20
37.9415
 30
0.0
 10
-128.8797
 20
39.3421
 30
0.0
 10
-128.0877
 20
41.6287
 30
0.0
 10
-127.6787
 20
43.4422
 30
0.0
 10
-127.6787
 20
43.4422
 30
0.0
 10
-126.5873
 20
42.6956
 30
0.0
 10
-126.0751
 20
42.2125
 30
0.0
 10
-125.5074
 20
41.1779
 30
0.0
 10
-125.5074
 20
41.1779
 30
0.0
 10
-124.903
 20
42.2125
 30
0.0
 10
-124.4276
 20
42.6956
 30
0.0
 10
-123.3361
 20
43.4422
 30
0.0
 10
-123.3361
 20
43.4422
 30
0.0
 10
-122.9272
 20
41.6288
 30
0.0
 10
-122.1351
 20
39.3421
 30
0.0
 10
-121.2564
 20
37.9415
 30
0.0
 10
-121.2564
 20
37.9415
 30
0.0
 10
-122.8345
 20
36.0999
 30
0.0
 10
-125.4915
 20
27.6658
 30
0.0
 10
-120.4844
 20
19.7648
 30
0.0
 10
-120.4844
 20
19.7648
 30
0.0
 10
-118.6333
 20
17.813
 30
0.0
 10
-119.3014
 20
15.4402
 30
0.0
 10
-120.3325
 20
15.1069
 30
0.0
 10
-120.3325
 20
15.1069
 30
0.0
 10
-120.7844
 20
18.5422
 30
0.0
 10
-124.603
 20
18.788
 30
0.0
 10
-125.5074
 20
16.5269
 30
0.0
 10
-125.5074
 20
16.5269
 30
0.0
 10
-126.4118
 20
18.788
 30
0.0
 10
-130.2305
 20
18.5422
 30
0.0
 10
-130.6824
 20
15.1069
 30
0.0
  0
SPLINE
  5
64
330
1F
100
AcDbEntity
  8
layer 1
 62
     7
100
AcDbSpline
210
0.0
220
0.0
230
1.0
 70
    11
 71
     3
 72
    36
 73
    32
 74
     0
 42
0.0000000001
 43
0.0000000001
 12
1.0
 22
0.0
 32
0.0
 13
1.0
 23
0.0
 33
0.0
 40
0.0
 40
0.0
 40
0.0
 40
0.0
 40
0.1111111111111111
 40
0.1111111111111111
 40
0.1111111111111111
 40
0.1111111111111111
 40
0.2222222222222222
 40
0.2222222222222222
 40
0.2222222222222222
 40
0.2222222222222222
 40
0.3333333333333333
 40
0.3333333333333333
 40
0.3333333333333333
 40
0.3333333333333333
 40
0.4444444444444444
 40
0.4444444444444444
 40
0.4444444444444444
 40
0.4444444444444444
 40
0.5555555555555556
 40
0.5555555555555556
 40
0.5555555555555556
 40
0.5555555555555556
 40
0.6666666666666666
 40
0.6666666666666666
 40
0.6666666666666666
 40
0.6666666666666666
 40
0.7777777777777778
 40
0.7777777777777778
 40
0.7777777777777778
 40
0.7777777777777778
 40
1.0
 40
1.0
 40
1.0
 40
1.0
 10
-121.8958
 20
11.0812
 30
0.0
 10
-123.6259
 20
11.0902
 30
0.0
 10
-125.2675
 20
12.452
 30
0.0
 10
-125.5074
 20
13.9106
 30
0.0
 10
-125.5074
 20
13.9106
 30
0.0
 10
-125.7474
 20
12.452
 30
0.0
 10
-127.389
 20
11.0902
 30
0.0
 10
-129.1191
 20
11.0812
 30
0.0
 10
-129.1191
 20
11.0812
 30
0.0
 10
-129.426
 20
10.2595
 30
0.0
 10
-130.025
 20
9.485
 30
0.0
 10
-130.9295
 20
9.0405
 30
0.0
 10
-130.9295
 20
9.0405
 30
0.0
 10
-130.025
 20
8.596
 30
0.0
 10
-129.426
 20
7.8215
 30
0.0
 10
-129.1191
 20
6.9999
 30
0.0
 10
-129.1191
 20
6.9999
 30
0.0
 10
-127.389
 20
6.9909
 30
0.0
 10
-125.7474
 20
5.6291
 30
0.0
 10
-125.5074
 20
4.1704
 30
0.0
 10
-125.5074
 20
4.1704
 30
0.0
 10
-125.2675
 20
5.6291
 30
0.0
 10
-123.6259
 20
6.9909
 30
0.0
 10
-121.8958
 20
6.9999
 30
0.0
 10
-121.8958
 20
6.9999
 30
0.0
 10
-121.5888
 20
7.8215
 30
0.0
 10
-120.9899
 20
8.596
 30
0.0
 10
-120.0853
 20
9.0405
 30
0.0
 10
-120.0853
 20
9.0405
 30
0.0
 10
-120.9899
 20
9.485
 30
0.0
 10
-121.5888
 20
10.2595
 30
0.0
 10
-121.8958
 20
11.0812
 30
0.0
  0
SPLINE
  5
65
330
1F
100
AcDbEntity
  8
layer 1
 62
     7
100
AcDbSpline
210
0.0
220
0.0
230
1.0
 70
    11
 71
     3
 72
    16
 73
    12
 74
     0
 42
0.0000000001
 43
0.0000000001
 12
1.0
 22
0.0
 32
0.0
 13
1.0
 23
0.0
 33
0.0
 40
0.0
 40
0.0
 40
0.0
 40
0.0
 40
0.25
 40
0.25
 40
0.25
 40
0.25
 40
0.5
 40
0.5
 40
0.5
 40
0.5
 40
1.0
 40
1.0
 40
1.0
 40
1.0
 10
-132.5436
 20
33.0922
 30
0.0
 10
-133.8327
 20
30.7576
 30
0.0
 10
-137.6894
 20
26.4166
 30
0.0
 10
-139.389
 20
24.5442
 30
0.0
 10
-139.389
 20
24.5442
 30
0.0
 10
-137.0634
 20
24.9488
 30
0.0
 10
-134.8379
 20
23.6438
 30
0.0
 10
-134.0983
 20
21.4295
 30
0.0
 10
-134.0983
 20
21.4295
 30
0.0
 10
-132.6878
 20
23.5711
 30
0.0
 10
-130.1568
 20
27.3702
 30
0.0
 10
-132.5436
 20
33.0922
 30
0.0
  0
SPLINE
  5
66
330
1F
100
AcDbEntity
  8
layer 1
 62
     7
100
AcDbSpline
210
0.0
220
0.0
230
1.0
 70
    11
 71
     3
 72
    28
 73
    24
 74
     0
 42
0.0000000001
 43
0.0000000001
 12
1.0
 22
0.0
 32
0.0
 13
1.0
 23
0.0
 33
0.0
 40
0.0
 40
0.0
 40
0.0
 40
0.0
 40
0.1428571428571428
 40
0.1428571428571428
 40
0.1428571428571428
 40
0.1428571428571428
 40
0.2857142857142857
 40
0.2857142857142857
 40
0.2857142857142857
 40
0.2857142857142857
 40
0.4285714285714285
 40
0.4285714285714285
 40
0.4285714285714285
 40
0.4285714285714285
 40
0.5714285714285714
 40
0.5714285714285714
 40
0.5714285714285714
 40
0.5714285714285714
 40
0.7142857142857143
 40
0.7142857142857143
 40
0.7142857142857143
 40
0.7142857142857143
 40
1.0
 40
1.0
 40
1.0
 40
1.0
 10
-135.8689
 20
37.2181
 30
0.0
 10
-138.6907
 20
31.7448
 30
0.0
 10
-145.309
 20
25.1052
 30
0.0
 10
-151.4603
 20
21.3204
 30
0.0
 10
-151.4603
 20
21.3204
 30
0.0
 10
-150.5846
 20
23.1205
 30
0.0
 10
-151.069
 20
25.2665
 30
0.0
 10
-151.9768
 20
28.0275
 30
0.0
 10
-151.9768
 20
28.0275
 30
0.0
 10
-147.4815
 20
24.4901
 30
0.0
 10
-140.0352
 20
28.3952
 30
0.0
 10
-141.7105
 20
34.3885
 30
0.0
 10
-141.7105
 20
34.3885
 30
0.0
 10
-145.7738
 20
29.1824
 30
0.0
 10
-150.7629
 20
33.8741
 30
0.0
 10
-148.9069
 20
37.5858
 30
0.0
 10
-148.9069
 20
37.5858
 30
0.0
 10
-145.6712
 20
42.0626
 30
0.0
 10
-139.1898
 20
40.9381
 30
0.0
 10
-135.869
 20
37.2181
 30
0.0
 10
-135.869
 20
37.2181
 30
0.0
 10
-135.869
 20
37.2181
 30
0.0
 10
-135.8689
 20
37.2181
 30
0.0
 10
-135.8689
 20
37.2181
 30
0.0
  0
SPLINE
  5
67
330
1F
100
AcDbEntity
  8
layer 1
 62
     7
100
AcDbSpline
210
0.0
220
0.0
230
1.0
 70
    11
 71
     3
 72
    20
 73
    16
 74
     0
 42
0.0000000001
 43
0.0000000001
 12
1.0
 22
0.0
 32
0.0
 13
1.0
 23
0.0
 33
0.0
 40
0.0
 40
0.0
 40
0.0
 40
0.0
 40
0.2
 40
0.2
 40
0.2
 40
0.2
 40
0.4
 40
0.4
 40
0.4
 40
0.4
 40
0.6
 40
0.6
 40
0.6
 40
0.6
 40
1.0
 40
1.0
 40
1.0
 40
1.0
 10
-150.653
 20
16.5024
 30
0.0
 10
-152.8321
 20
14.9172
 30
0.0
 10
-155.2368
 20
13.8317
 30
0.0
 10
-157.4047
 20
12.8259
 30
0.0
 10
-157.4047
 20
12.8259
 30
0.0
 10
-153.6271
 20
12.5746
 30
0.0
 10
-150.5818
 20
12.0894
 30
0.0
 10
-148.109
 20
11.3506
 30
0.0
 10
-148.109
 20
11.3506
 30
0.0
 10
-149.2046
 20
12.8129
 30
0.0
 10
-150.4208
 20
14.9024
 30
0.0
 10
-150.6529
 20
16.5024
 30
0.0
 10
-150.6529
 20
16.5024
 30
0.0
 10
-150.6529
 20
16.5024
 30
0.0
 10
-150.653
 20
16.5024
 30
0.0
 10
-150.653
 20
16.5024
 30
0.0
  0
SPLINE
  5
68
330
1F
100
AcDbEntity
  8
layer 1
 62
     7
100
AcDbSpline
210
0.0
220
0.0
230
1.0
 70
    11
 71
     3
 72
    28
 73
    24
 74
     0
 42
0.0000000001
 43
0.0000000001
 12
1.0
 22
0.0
 32
0.0
 13
1.0
 23
0.0
 33
0.0
 40
0.0
 40
0.0
 40
0.0
 40
0.0
 40
0.1428571428571428
 40
0.1428571428571428
 40
0.1428571428571428
 40
0.1428571428571428
 40
0.2857142857142857
 40
0.2857142857142857
 40
0.2857142857142857
 40
0.2857142857142857
 40
0.4285714285714285
 40
0.4285714285714285
 40
0.4285714285714285
 40
0.4285714285714285
 40
0.5714285714285714
 40
0.5714285714285714
 40
0.5714285714285714
 40
0.5714285714285714
 40
0.7142857142857143
 40
0.7142857142857143
 40
0.7142857142857143
 40
0.7142857142857143
 40
1.0
 40
1.0
 40
1.0
 40
1.0
 10
-162.2427
 20
22.3634
 30
0.0
 10
-165.3721
 20
18.6595
 30
0.0
 10
-172.0219
 20
14.4061
 30
0.0
 10
-173.9265
 20
13.5225
 30
0.0
 10
-173.9265
 20
13.5225
 30
0.0
 10
-168.4698
 20
14.1463
 30
0.0
 10
-160.8842
 20
16.0259
 30
0.0
 10
-157.1344
 20
17.9593
 30
0.0
 10
-157.1344
 20
17.9593
 30
0.0
 10
-157.5936
 20
18.1148
 30
0.0
 10
-158.0081
 20
18.2849
 30
0.0
 10
-158.4621
 20
18.7007
 30
0.0
 10
-158.4621
 20
18.7007
 30
0.0
 10
-156.0519
 20
19.418
 30
0.0
 10
-155.9155
 20
21.6762
 30
0.0
 10
-156.8317
 20
23.0432
 30
0.0
 10
-156.8317
 20
23.0432
 30
0.0
 10
-158.1138
 20
24.9562
 30
0.0
 10
-160.7073
 20
24.4525
 30
0.0
 10
-162.2426
 20
22.3634
 30
0.0
 10
-162.2426
 20
22.3634
 30
0.0
 10
-162.2426
 20
22.3634
 30
0.0
 10
-162.2427
 20
22.3634
 30
0.0
 10
-162.2427
 20
22.3634
 30
0.0
  0
SPLINE
  5
69
330
1F
100
AcDbEntity
  8
layer 1
 62
     7
100
AcDbSpline
210
0.0
220
0.0
230
1.0
 70
    11
 71
     3
 72
    24
 73
    20
 74
     0
 42
0.0000000001
 43
0.0000000001
 12
1.0
 22
0.0
 32
0.0
 13
1.0
 23
0.0
 33
0.0
 40
0.0
 40
0.0
 40
0.0
 40
0.0
 40
0.1666666666666667
 40
0.1666666666666667
 40
0.1666666666666667
 40
0.1666666666666667
 40
0.3333333333333333
 40
0.3333333333333333
 40
0.3333333333333333
 40
0.3333333333333333
 40
0.5
 40
0.5
 40
0.5
 40
0.5
 40
0.6666666666666666
 40
0.6666666666666666
 40
0.6666666666666666
 40
0.6666666666666666
 40
1.0
 40
1.0
 40
1.0
 40
1.0
 10
-163.108
 20
37.19
 30
0.0
 10
-166.8377
 20
35.7373
 30
0.0
 10
-163.8224
 20
32.5045
 30
0.0
 10
-164.5563
 20
28.4992
 30
0.0
 10
-164.5563
 20
28.4992
 30
0.0
 10
-162.7016
 20
30.3236
 30
0.0
 10
-159.9185
 20
31.2126
 30
0.0
 10
-155.6885
 20
31.0749
 30
0.0
 10
-155.6885
 20
31.0749
 30
0.0
 10
-156.658
 20
31.7408
 30
0.0
 10
-157.5528
 20
33.6817
 30
0.0
 10
-157.3763
 20
35.4784
 30
0.0
 10
-157.3763
 20
35.4784
 30
0.0
 10
-158.1478
 20
34.4247
 30
0.0
 10
-158.8519
 20
34.0715
 30
0.0
 10
-159.8882
 20
33.9077
 30
0.0
 10
-159.8882
 20
33.9077
 30
0.0
 10
-159.2512
 20
36.4296
 30
0.0
 10
-161.2424
 20
37.8984
 30
0.0
 10
-163.108
 20
37.19
 30
0.0
  0
SPLINE
  5
6A
330
1F
100
AcDbEntity
  8
layer 1
 62
     7
100
AcDbSpline
210
0.0
220
0.0
230
1.0
 70
    11
 71
     3
 72
    28
 73
    24
 74
     0
 42
0.0000000001
 43
0.0000000001
 12
1.0
 22
0.0
 32
0.0
 13
1.0
 23
0.0
 33
0.0
 40
0.0
 40
0.0
 40
0.0
 40
0.0
 40
0.1428571428571428
 40
0.1428571428571428
 40
0.1428571428571428
 40
0.1428571428571428
 40
0.2857142857142857
 40
0.2857142857142857
 40
0.2857142857142857
 40
0.2857142857142857
 40
0.4285714285714285
 40
0.4285714285714285
 40
0.4285714285714285
 40
0.4285714285714285
 40
0.5714285714285714
 40
0.5714285714285714
 40
0.5714285714285714
 40
0.5714285714285714
 40
0.7142857142857143
 40
0.7142857142857143
 40
0.7142857142857143
 40
0.7142857142857143
 40
1.0
 40
1.0
 40
1.0
 40
1.0
 10
-181.1693
 20
26.5704
 30
0.0
 10
-181.1693
 20
26.5704
 30
0.0
 10
-181.1693
 20
12.9269
 30
0.0
 10
-181.1693
 20
12.9269
 30
0.0
 10
-181.1693
 20
12.9269
 30
0.0
 10
-174.7821
 20
15.3817
 30
0.0
 10
-172.1191
 20
21.1333
 30
0.0
 10
-171.521
 20
24.0572
 30
0.0
 10
-171.521
 20
24.0572
 30
0.0
 10
-171.2298
 20
26.1638
 30
0.0
 10
-172.1246
 20
28.1948
 30
0.0
 10
-174.2894
 20
28.0104
 30
0.0
 10
-174.2894
 20
28.0104
 30
0.0
 10
-176.5918
 20
27.9773
 30
0.0
 10
-177.4171
 20
25.7079
 30
0.0
 10
-175.4806
 20
24.2185
 30
0.0
 10
-175.4806
 20
24.2185
 30
0.0
 10
-178.2041
 20
22.6772
 30
0.0
 10
-181.1693
 20
24.9155
 30
0.0
 10
-181.1693
 20
26.5703
 30
0.0
 10
-181.1693
 20
26.5703
 30
0.0
 10
-181.1693
 20
26.5703
 30
0.0
 10
-181.1693
 20
26.5704
 30
0.0
 10
-181.1693
 20
26.5704
 30
0.0
  0
SPLINE
  5
6B
330
1F
100
AcDbEntity
  8
layer 1
 62
     7
100
AcDbSpline
210
0.0
220
0.0
230
1.0
 70
    11
 71
     3
 72
    16
 73
    12
 74
     0
 42
0.0000000001
 43
0.0000000001
 12
1.0
 22
0.0
 32
0.0
 13
1.0
 23
0.0
 33
0.0
 40
0.0
 40
0.0
 40
0.0
 40
0.0
 40
0.25
 40
0.25
 40
0.25
 40
0.25
 40
0.5
 40
0.5
 40
0.5
 40
0.5
 40
1.0
 40
1.0
 40
1.0
 40
1.0
 10
-181.1693
 20
44.2461
 30
0.0
 10
-181.1693
 20
44.2461
 30
0.0
 10
-181.1693
 20
31.0545
 30
0.0
 10
-181.1693
 20
31.0545
 30
0.0
 10
-181.1693
 20
31.0545
 30
0.0
 10
-178.8624
 20
34.5553
 30
0.0
 10
-173.2358
 20
36.5614
 30
0.0
 10
-168.9921
 20
31.5303
 30
0.0
 10
-168.9921
 20
31.5303
 30
0.0
 10
-169.9676
 20
39.6862
 30
0.0
 10
-179.1962
 20
39.4344
 30
0.0
 10
-181.1693
 20
44.2461
 30
0.0
  0
SPLINE
  5
6C
330
1F
100
AcDbEntity
  8
layer 1
 62
     7
100
AcDbSpline
210
0.0
220
0.0
230
1.0
 70
    11
 71
     3
 72
    24
 73
    20
 74
     0
 42
0.0000000001
 43
0.0000000001
 12
1.0
 22
0.0
 32
0.0
 13
1.0
 23
0.0
 33
0.0
 40
0.0
 40
0.0
 40
0.0
 40
0.0
 40
0.1666666666666667
 40
0.1666666666666667
 40
0.1666666666666667
 40
0.1666666666666667
 40
0.3333333333333333
 40
0.3333333333333333
 40
0.3333333333333333
 40
0.3333333333333333
 40
0.5
 40
0.5
 40
0.5
 40
0.5
 40
0.6666666666666666
 40
0.6666666666666666
 40
0.6666666666666666
 40
0.6666666666666666
 40
1.0
 40
1.0
 40
1.0
 40
1.0
 10
-181.1693
 20
56.2525
 30
0.0
 10
-181.1693
 20
56.2525
 30
0.0
 10
-181.1693
 20
46.4089
 30
0.0
 10
-181.1693
 20
46.4089
 30
0.0
 10
-181.1693
 20
46.4089
 30
0.0
 10
-177.4014
 20
48.327
 30
0.0
 10
-171.9575
 20
46.0415
 30
0.0
 10
-168.6269
 20
40.7669
 30
0.0
 10
-168.6269
 20
40.7669
 30
0.0
 10
-170.3945
 20
44.427
 30
0.0
 10
-171.5874
 20
50.7989
 30
0.0
 10
-171.3714
 20
52.379
 30
0.0
 10
-171.3714
 20
52.379
 30
0.0
 10
-173.8755
 20
51.4276
 30
0.0
 10
-179.5427
 20
53.6233
 30
0.0
 10
-181.1694
 20
56.2525
 30
0.0
 10
-181.1694
 20
56.2525
 30
0.0
 10
-181.1694
 20
56.2525
 30
0.0
 10
-181.1693
 20
56.2525
 30
0.0
 10
-181.1693
 20
56.2525
 30
0.0
  0
SPLINE
  5
6D
330
1F
100
AcDbEntity
  8
layer 1
 62
     7
100
AcDbSpline
210
0.0
220
0.0
230
1.0
 70
    11
 71
     3
 72
    32
 73
    28
 74
     0
 42
0.0000000001
 43
0.0000000001
 12
1.0
 22
0.0
 32
0.0
 13
1.0
 23
0.0
 33
0.0
 40
0.0
 40
0.0
 40
0.0
 40
0.0
 40
0.125
 40
0.125
 40
0.125
 40
0.125
 40
0.25
 40
0.25
 40
0.25
 40
0.25
 40
0.375
 40
0.375
 40
0.375
 40
0.375
 40
0.5
 40
0.5
 40
0.5
 40
0.5
 40
0.625
 40
0.625
 40
0.625
 40
0.625
 40
0.75
 40
0.75
 40
0.75
 40
0.75
 40
1.0
 40
1.0
 40
1.0
 40
1.0
 10
-133.8792
 20
47.079
 30
0.0
 10
-133.3945
 20
50.8002
 30
0.0
 10
-136.7115
 20
51.4258
 30
0.0
 10
-138.2221
 20
50.1435
 30
0.0
 10
-138.2221
 20
50.1435
 30
0.0
 10
-139.1181
 20
49.383
 30
0.0
 10
-139.5689
 20
47.3941
 30
0.0
 10
-138.2378
 20
45.8097
 30
0.0
 10
-138.2378
 20
45.8097
 30
0.0
 10
-136.8196
 20
44.1416
 30
0.0
 10
-135.8191
 20
42.666
 30
0.0
 10
-133.8446
 20
41.0731
 30
0.0
 10
-133.8446
 20
41.0731
 30
0.0
 10
-131.4672
 20
44.9767
 30
0.0
 10
-129.9973
 20
52.5566
 30
0.0
 10
-130.4757
 20
55.9539
 30
0.0
 10
-130.4757
 20
55.9539
 30
0.0
 10
-131.5019
 20
55.737
 30
0.0
 10
-132.3152
 20
55.7112
 30
0.0
 10
-133.6788
 20
55.5837
 30
0.0
 10
-133.6788
 20
55.5837
 30
0.0
 10
-129.2583
 20
52.2849
 30
0.0
 10
-132.0499
 20
46.9142
 30
0.0
 10
-133.8791
 20
47.079
 30
0.0
 10
-133.8791
 20
47.079
 30
0.0
 10
-133.8791
 20
47.079
 30
0.0
 10
-133.8792
 20
47.079
 30
0.0
 10
-133.8792
 20
47.079
 30
0.0
  0
SPLINE
  5
6E
330
1F
100
AcDbEntity
  8
layer 1
 62
     7
100
AcDbSpline
210
0.0
220
0.0
230
1.0
 70
    11
 71
     3
 72
    16
 73
    12
 74
     0
 42
0.0000000001
 43
0.0000000001
 12
1.0
 22
0.0
 32
0.0
 13
1.0
 23
0.0
 33
0.0
 40
0.0
 40
0.0
 40
0.0
 40
0.0
 40
0.25
 40
0.25
 40
0.25
 40
0.25
 40
0.5
 40
0.5
 40
0.5
 40
0.5
 40
1.0
 40
1.0
 40
1.0
 40
1.0
 10
-181.1693
 20
113.7172
 30
0.0
 10
-181.1693
 20
109.2761
 30
0.0
 10
-181.1693
 20
108.3926
 30
0.0
 10
-181.1693
 20
104.604
 30
0.0
 10
-181.1693
 20
104.604
 30
0.0
 10
-180.0685
 20
105.791
 30
0.0
 10
-179.2341
 20
107.3106
 30
0.0
 10
-179.1417
 20
109.5223
 30
0.0
 10
-179.1417
 20
109.5223
 30
0.0
 10
-179.265
 20
111.9343
 30
0.0
 10
-180.4254
 20
113.2031
 30
0.0
 10
-181.1693
 20
113.7172
 30
0.0
  0
SPLINE
  5
6F
330
1F
100
AcDbEntity
  8
layer 1
 62
     7
100
AcDbSpline
210
0.0
220
0.0
230
1.0
 70
    11
 71
     3
 72
    16
 73
    12
 74
     0
 42
0.0000000001
 43
0.0000000001
 12
1.0
 22
0.0
 32
0.0
 13
1.0
 23
0.0
 33
0.0
 40
0.0
 40
0.0
 40
0.0
 40
0.0
 40
0.25
 40
0.25
 40
0.25
 40
0.25
 40
0.5
 40
0.5
 40
0.5
 40
0.5
 40
1.0
 40
1.0
 40
1.0
 40
1.0
 10
-181.1693
 20
118.9187
 30
0.0
 10
-181.1693
 20
119.7116
 30
0.0
 10
-181.1693
 20
121.5875
 30
0.0
 10
-181.1693
 20
122.4374
 30
0.0
 10
-181.1693
 20
122.4374
 30
0.0
 10
-180.5106
 20
121.9562
 30
0.0
 10
-180.014
 20
121.9671
 30
0.0
 10
-179.3827
 20
121.8829
 30
0.0
 10
-179.3827
 20
121.8829
 30
0.0
 10
-180.2521
 20
121.046
 30
0.0
 10
-180.7851
 20
120.3463
 30
0.0
 10
-181.1693
 20
118.9187
 30
0.0
  0
SPLINE
  5
70
330
1F
100
AcDbEntity
  8
layer 1
 62
     7
100
AcDbSpline
210
0.0
220
0.0
230
1.0
 70
    11
 71
     3
 72
    16
 73
    12
 74
     0
 42
0.0000000001
 43
0.0000000001
 12
1.0
 22
0.0
 32
0.0
 13
1.0
 23
0.0
 33
0.0
 40
0.0
 40
0.0
 40
0.0
 40
0.0
 40
0.25
 40
0.25
 40
0.25
 40
0.25
 40
0.5
 40
0.5
 40
0.5
 40
0.5
 40
1.0
 40
1.0
 40
1.0
 40
1.0
 10
-181.1693
 20
93.425
 30
0.0
 10
-181.1693
 20
88.9839
 30
0.0
 10
-181.1693
 20
89.5872
 30
0.0
 10
-181.1693
 20
85.7986
 30
0.0
 10
-181.1693
 20
85.7986
 30
0.0
 10
-180.2385
 20
87.7714
 30
0.0
 10
-178.9156
 20
89.5247
 30
0.0
 10
-177.6124
 20
90.8019
 30
0.0
 10
-177.6124
 20
90.8019
 30
0.0
 10
-178.7128
 20
91.2811
 30
0.0
 10
-180.298
 20
92.2525
 30
0.0
 10
-181.1693
 20
93.425
 30
0.0
  0
SPLINE
  5
71
330
1F
100
AcDbEntity
  8
layer 1
 62
     7
100
AcDbSpline
210
0.0
220
0.0
230
1.0
 70
    11
 71
     3
 72
    16
 73
    12
 74
     0
 42
0.0000000001
 43
0.0000000001
 12
1.0
 22
0.0
 32
0.0
 13
1.0
 23
0.0
 33
0.0
 40
0.0
 40
0.0
 40
0.0
 40
0.0
 40
0.25
 40
0.25
 40
0.25
 40
0.25
 40
0.5
 40
0.5
 40
0.5
 40
0.5
 40
1.0
 40
1.0
 40
1.0
 40
1.0
 10
-181.1693
 20
59.8732
 30
0.0
 10
-181.1693
 20
60.6661
 30
0.0
 10
-181.1693
 20
62.8828
 30
0.0
 10
-181.1693
 20
63.7327
 30
0.0
 10
-181.1693
 20
63.7327
 30
0.0
 10
-180.7727
 20
63.0156
 30
0.0
 10
-180.6169
 20
62.7382
 30
0.0
 10
-180.2477
 20
62.3918
 30
0.0
 10
-180.2477
 20
62.3918
 30
0.0
 10
-180.7239
 20
61.7646
 30
0.0
 10
-180.8637
 20
61.0387
 30
0.0
 10
-181.1693
 20
59.8732
 30
0.0
  0
SPLINE
  5
72
330
1F
100
AcDbEntity
  8
layer 1
 62
     7
100
AcDbSpline
210
0.0
220
0.0
230
1.0
 70
    11
 71
     3
 72
    52
 73
    48
 74
     0
 42
0.0000000001
 43
0.0000000001
 12
1.0
 22
0.0
 32
0.0
 13
1.0
 23
0.0
 33
0.0
 40
0.0
 40
0.0
 40
0.0
 40
0.0
 40
0.0769230769230769
 40
0.0769230769230769
 40
0.0769230769230769
 40
0.0769230769230769
 40
0.1538461538461539
 40
0.1538461538461539
 40
0.1538461538461539
 40
0.1538461538461539
 40
0.2307692307692308
 40
0.2307692307692308
 40
0.2307692307692308
 40
0.2307692307692308
 40
0.3076923076923077
 40
0.3076923076923077
 40
0.3076923076923077
 40
0.3076923076923077
 40
0.3846153846153846
 40
0.3846153846153846
 40
0.3846153846153846
 40
0.3846153846153846
 40
0.4615384615384616
 40
0.4615384615384616
 40
0.4615384615384616
 40
0.4615384615384616
 40
0.5384615384615384
 40
0.5384615384615384
 40
0.5384615384615384
 40
0.5384615384615384
 40
0.6153846153846154
 40
0.6153846153846154
 40
0.6153846153846154
 40
0.6153846153846154
 40
0.6923076923076923
 40
0.6923076923076923
 40
0.6923076923076923
 40
0.6923076923076923
 40
0.7692307692307693
 40
0.7692307692307693
 40
0.7692307692307693
 40
0.7692307692307693
 40
0.8461538461538461
 40
0.8461538461538461
 40
0.8461538461538461
 40
0.8461538461538461
 40
1.0
 40
1.0
 40
1.0
 40
1.0
 10
-165.278
 20
42.0081
 30
0.0
 10
-163.0219
 20
44.4478
 30
0.0
 10
-157.4552
 20
43.6028
 30
0.0
 10
-156.8154
 20
38.2237
 30
0.0
 10
-156.8154
 20
38.2237
 30
0.0
 10
-155.8438
 20
41.8472
 30
0.0
 10
-151.4906
 20
43.2268
 30
0.0
 10
-148.34
 20
43.3181
 30
0.0
 10
-148.34
 20
43.3181
 30
0.0
 10
-147.5206
 20
43.3844
 30
0.0
 10
-147.3544
 20
44.1541
 30
0.0
 10
-148.4553
 20
44.3101
 30
0.0
 10
-148.4553
 20
44.3101
 30
0.0
 10
-152.1978
 20
43.0779
 30
0.0
 10
-156.7279
 20
44.4793
 30
0.0
 10
-159.041
 20
45.8651
 30
0.0
 10
-159.041
 20
45.8651
 30
0.0
 10
-161.4555
 20
47.3116
 30
0.0
 10
-163.0074
 20
47.2306
 30
0.0
 10
-166.0557
 20
47.7542
 30
0.0
 10
-166.0557
 20
47.7542
 30
0.0
 10
-163.0729
 20
53.5371
 30
0.0
 10
-151.6863
 20
56.2322
 30
0.0
 10
-146.3973
 20
47.6331
 30
0.0
 10
-146.3973
 20
47.6331
 30
0.0
 10
-145.8528
 20
46.5722
 30
0.0
 10
-144.7954
 20
47.2894
 30
0.0
 10
-145.6985
 20
48.3342
 30
0.0
 10
-145.6985
 20
48.3342
 30
0.0
 10
-148.4457
 20
53.004
 30
0.0
 10
-143.9605
 20
56.0538
 30
0.0
 10
-141.6155
 20
56.4902
 30
0.0
 10
-141.6155
 20
56.4902
 30
0.0
 10
-145.2656
 20
57.6013
 30
0.0
 10
-149.7188
 20
59.3801
 30
0.0
 10
-151.2585
 20
60.9361
 30
0.0
 10
-151.2585
 20
60.9361
 30
0.0
 10
-157.5238
 20
57.9747
 30
0.0
 10
-156.5514
 20
53.8653
 30
0.0
 10
-162.2218
 20
53.2815
 30
0.0
 10
-162.2218
 20
53.2815
 30
0.0
 10
-163.8418
 20
60.1211
 30
0.0
 10
-171.2628
 20
49.6836
 30
0.0
 10
-165.278
 20
42.008
 30
0.0
 10
-165.278
 20
42.008
 30
0.0
 10
-165.278
 20
42.008
 30
0.0
 10
-165.278
 20
42.0081
 30
0.0
 10
-165.278
 20
42.0081
 30
0.0
  0
SPLINE
  5
73
330
1F
100
AcDbEntity
  8
layer 1
 62
     7
100
AcDbSpline
210
0.0
220
0.0
230
1.0
 70
    11
 71
     3
 72
    32
 73
    28
 74
     0
 42
0.0000000001
 43
0.0000000001
 12
1.0
 22
0.0
 32
0.0
 13
1.0
 23
0.0
 33
0.0
 40
0.0
 40
0.0
 40
0.0
 40
0.0
 40
0.125
 40
0.125
 40
0.125
 40
0.125
 40
0.25
 40
0.25
 40
0.25
 40
0.25
 40
0.375
 40
0.375
 40
0.375
 40
0.375
 40
0.5
 40
0.5
 40
0.5
 40
0.5
 40
0.625
 40
0.625
 40
0.625
 40
0.625
 40
0.75
 40
0.75
 40
0.75
 40
0.75
 40
1.0
 40
1.0
 40
1.0
 40
1.0
 10
-148.0575
 20
17.8056
 30
0.0
 10
-146.6139
 20
17.9888
 30
0.0
 10
-145.6267
 20
18.1941
 30
0.0
 10
-144.4446
 20
18.1108
 30
0.0
 10
-144.4446
 20
18.1108
 30
0.0
 10
-143.8582
 20
14.7331
 30
0.0
 10
-139.3364
 20
10.7135
 30
0.0
 10
-133.2544
 20
11.3436
 30
0.0
 10
-133.2544
 20
11.3436
 30
0.0
 10
-134.7493
 20
12.4913
 30
0.0
 10
-136.2728
 20
13.7326
 30
0.0
 10
-135.9127
 20
16.8403
 30
0.0
 10
-135.9127
 20
16.8403
 30
0.0
 10
-135.3518
 20
21.6809
 30
0.0
 10
-141.1302
 20
21.3917
 30
0.0
 10
-140.3898
 20
17.3898
 30
0.0
 10
-140.3898
 20
17.3898
 30
0.0
 10
-142.1867
 20
18.3357
 30
0.0
 10
-142.9193
 20
20.3653
 30
0.0
 10
-142.4636
 20
22.0753
 30
0.0
 10
-142.4636
 20
22.0753
 30
0.0
 10
-144.7515
 20
20.4363
 30
0.0
 10
-145.7446
 20
19.7347
 30
0.0
 10
-148.0574
 20
17.8057
 30
0.0
 10
-148.0574
 20
17.8057
 30
0.0
 10
-148.0574
 20
17.8057
 30
0.0
 10
-148.0575
 20
17.8056
 30
0.0
 10
-148.0575
 20
17.8056
 30
0.0
  0
SPLINE
  5
74
330
1F
100
AcDbEntity
  8
layer 1
 62
     7
100
AcDbSpline
210
0.0
220
0.0
230
1.0
 70
    11
 71
     3
 72
    52
 73
    48
 74
     0
 42
0.0000000001
 43
0.0000000001
 12
1.0
 22
0.0
 32
0.0
 13
1.0
 23
0.0
 33
0.0
 40
0.0
 40
0.0
 40
0.0
 40
0.0
 40
0.0769230769230769
 40
0.0769230769230769
 40
0.0769230769230769
 40
0.0769230769230769
 40
0.1538461538461539
 40
0.1538461538461539
 40
0.1538461538461539
 40
0.1538461538461539
 40
0.2307692307692308
 40
0.2307692307692308
 40
0.2307692307692308
 40
0.2307692307692308
 40
0.3076923076923077
 40
0.3076923076923077
 40
0.3076923076923077
 40
0.3076923076923077
 40
0.3846153846153846
 40
0.3846153846153846
 40
0.3846153846153846
 40
0.3846153846153846
 40
0.4615384615384616
 40
0.4615384615384616
 40
0.4615384615384616
 40
0.4615384615384616
 40
0.5384615384615384
 40
0.5384615384615384
 40
0.5384615384615384
 40
0.5384615384615384
 40
0.6153846153846154
 40
0.6153846153846154
 40
0.6153846153846154
 40
0.6153846153846154
 40
0.6923076923076923
 40
0.6923076923076923
 40
0.6923076923076923
 40
0.6923076923076923
 40
0.7692307692307693
 40
0.7692307692307693
 40
0.7692307692307693
 40
0.7692307692307693
 40
0.8461538461538461
 40
0.8461538461538461
 40
0.8461538461538461
 40
0.8461538461538461
 40
1.0
 40
1.0
 40
1.0
 40
1.0
 10
-181.1693
 20
70.6994
 30
0.0
 10
-181.1693
 20
68.9666
 30
0.0
 10
-180.1905
 20
66.1596
 30
0.0
 10
-178.3574
 20
64.5994
 30
0.0
 10
-178.3574
 20
64.5994
 30
0.0
 10
-174.8597
 20
65.3401
 30
0.0
 10
-171.7572
 20
63.3309
 30
0.0
 10
-172.5328
 20
58.9648
 30
0.0
 10
-172.5328
 20
58.9648
 30
0.0
 10
-172.8695
 20
57.9087
 30
0.0
 10
-172.743
 20
54.961
 30
0.0
 10
-170.8504
 20
53.744
 30
0.0
 10
-170.8504
 20
53.744
 30
0.0
 10
-167.7164
 20
63.2197
 30
0.0
 10
-159.8515
 20
63.7881
 30
0.0
 10
-154.6627
 20
63.5919
 30
0.0
 10
-154.6627
 20
63.5919
 30
0.0
 10
-156.1911
 20
65.0769
 30
0.0
 10
-156.7461
 20
65.9248
 30
0.0
 10
-159.663
 20
69.4743
 30
0.0
 10
-159.663
 20
69.4743
 30
0.0
 10
-161.4501
 20
71.6488
 30
0.0
 10
-167.7051
 20
69.3303
 30
0.0
 10
-164.3631
 20
64.7215
 30
0.0
 10
-164.3631
 20
64.7215
 30
0.0
 10
-166.0598
 20
62.9063
 30
0.0
 10
-172.7877
 20
63.4378
 30
0.0
 10
-173.4865
 20
69.3303
 30
0.0
 10
-173.4865
 20
69.3303
 30
0.0
 10
-174.2504
 20
67.4643
 30
0.0
 10
-175.0547
 20
66.3701
 30
0.0
 10
-175.8069
 20
65.9556
 30
0.0
 10
-175.8069
 20
65.9556
 30
0.0
 10
-175.6859
 20
67.3044
 30
0.0
 10
-176.6351
 20
68.5931
 30
0.0
 10
-178.3659
 20
70.5893
 30
0.0
 10
-178.3659
 20
70.5893
 30
0.0
 10
-181.1693
 20
72.8578
 30
0.0
 10
-181.1693
 20
76.297
 30
0.0
 10
-179.7567
 20
78.004
 30
0.0
 10
-179.7567
 20
78.004
 30
0.0
 10
-180.1851
 20
78.8667
 30
0.0
 10
-180.6313
 20
79.3866
 30
0.0
 10
-181.1693
 20
80.413
 30
0.0
 10
-181.1693
 20
80.413
 30
0.0
 10
-181.1693
 20
76.8368
 30
0.0
 10
-181.1693
 20
73.9973
 30
0.0
 10
-181.1693
 20
70.6994
 30
0.0
  0
SPLINE
  5
75
330
1F
100
AcDbEntity
  8
layer 1
 62
     7
100
AcDbSpline
210
0.0
220
0.0
230
1.0
 70
    11
 71
     3
 72
   128
 73
   124
 74
     0
 42
0.0000000001
 43
0.0000000001
 12
1.0
 22
0.0
 32
0.0
 13
1.0
 23
0.0
 33
0.0
 40
0.0
 40
0.0
 40
0.0
 40
0.0
 40
0.03125
 40
0.03125
 40
0.03125
 40
0.03125
 40
0.0625
 40
0.0625
 40
0.0625
 40
0.0625
 40
0.09375
 40
0.09375
 40
0.09375
 40
0.09375
 40
0.125
 40
0.125
 40
0.125
 40
0.125
 40
0.15625
 40
0.15625
 40
0.15625
 40
0.15625
 40
0.1875
 40
0.1875
 40
0.1875
 40
0.1875
 40
0.21875
 40
0.21875
 40
0.21875
 40
0.21875
 40
0.25
 40
0.25
 40
0.25
 40
0.25
 40
0.28125
 40
0.28125
 40
0.28125
 40
0.28125
 40
0.3125
 40
0.3125
 40
0.3125
 40
0.3125
 40
0.34375
 40
0.34375
 40
0.34375
 40
0.34375
 40
0.375
 40
0.375
 40
0.375
 40
0.375
 40
0.40625
 40
0.40625
 40
0.40625
 40
0.40625
 40
0.4375
 40
0.4375
 40
0.4375
 40
0.4375
 40
0.46875
 40
0.46875
 40
0.46875
 40
0.46875
 40
0.5
 40
0.5
 40
0.5
 40
0.5
 40
0.53125
 40
0.53125
 40
0.53125
 40
0.53125
 40
0.5625
 40
0.5625
 40
0.5625
 40
0.5625
 40
0.59375
 40
0.59375
 40
0.59375
 40
0.59375
 40
0.625
 40
0.625
 40
0.625
 40
0.625
 40
0.65625
 40
0.65625
 40
0.65625
 40
0.65625
 40
0.6875
 40
0.6875
 40
0.6875
 40
0.6875
 40
0.71875
 40
0.71875
 40
0.71875
 40
0.71875
 40
0.75
 40
0.75
 40
0.75
 40
0.75
 40
0.78125
 40
0.78125
 40
0.78125
 40
0.78125
 40
0.8125
 40
0.8125
 40
0.8125
 40
0.8125
 40
0.84375
 40
0.84375
 40
0.84375
 40
0.84375
 40
0.875
 40
0.875
 40
0.875
 40
0.875
 40
0.90625
 40
0.90625
 40
0.90625
 40
0.90625
 40
0.9375
 40
0.9375
 40
0.9375
 40
0.9375
 40
1.0
 40
1.0
 40
1.0
 40
1.0
 10
-178.1307
 20
80.7453
 30
0.0
 10
-175.7718
 20
81.3713
 30
0.0
 10
-170.6394
 20
78.4618
 30
0.0
 10
-171.2165
 20
73.6711
 30
0.0
 10
-171.2165
 20
73.6711
 30
0.0
 10
-167.7188
 20
76.4732
 30
0.0
 10
-159.7448
 20
77.6768
 30
0.0
 10
-154.7773
 20
69.7799
 30
0.0
 10
-154.7773
 20
69.7799
 30
0.0
 10
-154.2368
 20
68.8273
 30
0.0
 10
-152.9574
 20
69.1633
 30
0.0
 10
-153.6361
 20
70.3388
 30
0.0
 10
-153.6361
 20
70.3388
 30
0.0
 10
-153.5866
 20
70.3533
 30
0.0
 10
-158.9802
 20
74.7033
 30
0.0
 10
-158.6411
 20
79.1042
 30
0.0
 10
-158.6411
 20
79.1042
 30
0.0
 10
-158.4558
 20
81.5082
 30
0.0
 10
-160.3685
 20
84.96
 30
0.0
 10
-163.4562
 20
84.9614
 30
0.0
 10
-163.4562
 20
84.9614
 30
0.0
 10
-158.8233
 20
91.0002
 30
0.0
 10
-145.5902
 20
85.5856
 30
0.0
 10
-150.4074
 20
73.9794
 30
0.0
 10
-150.4074
 20
73.9794
 30
0.0
 10
-150.806
 20
72.7932
 30
0.0
 10
-149.4245
 20
71.8652
 30
0.0
 10
-149.2871
 20
73.1971
 30
0.0
 10
-149.2871
 20
73.1971
 30
0.0
 10
-150.2337
 20
81.5617
 30
0.0
 10
-141.967
 20
79.4691
 30
0.0
 10
-143.4066
 20
75.0226
 30
0.0
 10
-143.4066
 20
75.0226
 30
0.0
 10
-144.4129
 20
71.7473
 30
0.0
 10
-146.0646
 20
72.2506
 30
0.0
 10
-145.5102
 20
68.4151
 30
0.0
 10
-145.5102
 20
68.4151
 30
0.0
 10
-144.2299
 20
62.6841
 30
0.0
 10
-136.1885
 20
58.7729
 30
0.0
 10
-130.6114
 20
60.4389
 30
0.0
 10
-130.6114
 20
60.4389
 30
0.0
 10
-130.1292
 20
60.3928
 30
0.0
 10
-131.5029
 20
66.5104
 30
0.0
 10
-134.0513
 20
69.0016
 30
0.0
 10
-134.0513
 20
69.0016
 30
0.0
 10
-136.2725
 20
71.1731
 30
0.0
 10
-139.7434
 20
70.0965
 30
0.0
 10
-139.0687
 20
66.107
 30
0.0
 10
-139.0687
 20
66.107
 30
0.0
 10
-144.2628
 20
66.3879
 30
0.0
 10
-145.5718
 20
72.3055
 30
0.0
 10
-142.1291
 20
75.3062
 30
0.0
 10
-142.1291
 20
75.3062
 30
0.0
 10
-139.8425
 20
77.2993
 30
0.0
 10
-134.9985
 20
77.7369
 30
0.0
 10
-133.091
 20
74.2361
 30
0.0
 10
-133.091
 20
74.2361
 30
0.0
 10
-132.6598
 20
73.9223
 30
0.0
 10
-131.8712
 20
74.4296
 30
0.0
 10
-132.3751
 20
75.0908
 30
0.0
 10
-132.3751
 20
75.0908
 30
0.0
 10
-134.0308
 20
76.9918
 30
0.0
 10
-138.343
 20
79.2213
 30
0.0
 10
-141.0276
 20
78.7392
 30
0.0
 10
-141.0276
 20
78.7392
 30
0.0
 10
-140.3835
 20
81.145
 30
0.0
 10
-140.0306
 20
83.9201
 30
0.0
 10
-141.0522
 20
86.2963
 30
0.0
 10
-141.0522
 20
86.2963
 30
0.0
 10
-138.1353
 20
85.0401
 30
0.0
 10
-134.7424
 20
84.9789
 30
0.0
 10
-132.8398
 20
85.4296
 30
0.0
 10
-132.8398
 20
85.4296
 30
0.0
 10
-133.3591
 20
84.0417
 30
0.0
 10
-132.5058
 20
79.4254
 30
0.0
 10
-130.1706
 20
76.099
 30
0.0
 10
-130.1706
 20
76.099
 30
0.0
 10
-129.791
 20
75.4024
 30
0.0
 10
-129.2503
 20
75.9624
 30
0.0
 10
-129.3692
 20
76.7148
 30
0.0
 10
-129.3692
 20
76.7148
 30
0.0
 10
-133.0514
 20
81.9944
 30
0.0
 10
-130.9911
 20
87.5598
 30
0.0
 10
-130.1135
 20
89.4684
 30
0.0
 10
-130.1135
 20
89.4684
 30
0.0
 10
-132.1935
 20
92.2243
 30
0.0
 10
-136.1287
 20
94.0236
 30
0.0
 10
-139.2702
 20
93.943
 30
0.0
 10
-139.2702
 20
93.943
 30
0.0
 10
-145.2624
 20
93.7892
 30
0.0
 10
-144.5287
 20
88.1746
 30
0.0
 10
-140.249
 20
89.1768
 30
0.0
 10
-140.249
 20
89.1768
 30
0.0
 10
-141.8616
 20
84.3038
 30
0.0
 10
-147.1535
 20
84.5763
 30
0.0
 10
-149.3292
 20
86.597
 30
0.0
 10
-149.3292
 20
86.597
 30
0.0
 10
-150.7571
 20
87.9231
 30
0.0
 10
-150.6968
 20
90.0605
 30
0.0
 10
-147.8853
 20
91.7857
 30
0.0
 10
-147.8853
 20
91.7857
 30
0.0
 10
-147.2134
 20
92.4837
 30
0.0
 10
-148.069
 20
93.4405
 30
0.0
 10
-148.6673
 20
92.6672
 30
0.0
 10
-148.6673
 20
92.6672
 30
0.0
 10
-151.2128
 20
86.837
 30
0.0
 10
-162.8279
 20
86.2284
 30
0.0
 10
-165.7894
 20
92.6859
 30
0.0
 10
-165.7894
 20
92.6859
 30
0.0
 10
-172.7976
 20
91.5699
 30
0.0
 10
-170.1824
 20
81.0614
 30
0.0
 10
-162.5138
 20
84.358
 30
0.0
 10
-162.5138
 20
84.358
 30
0.0
 10
-160.9424
 20
73.6831
 30
0.0
 10
-178.2591
 20
76.7156
 30
0.0
 10
-175.9256
 20
87.6388
 30
0.0
 10
-175.9256
 20
87.6388
 30
0.0
 10
-177.4555
 20
86.498
 30
0.0
 10
-178.7679
 20
83.0826
 30
0.0
 10
-178.1307
 20
80.7455
 30
0.0
 10
-178.1307
 20
80.7455
 30
0.0
 10
-178.1307
 20
80.7455
 30
0.0
 10
-178.1307
 20
80.7453
 30
0.0
 10
-178.1307
 20
80.7453
 30
0.0
  0
SPLINE
  5
76
330
1F
100
AcDbEntity
  8
layer 1
 62
     7
100
AcDbSpline
210
0.0
220
0.0
230
1.0
 70
    11
 71
     3
 72
    20
 73
    16
 74
     0
 42
0.0000000001
 43
0.0000000001
 12
1.0
 22
0.0
 32
0.0
 13
1.0
 23
0.0
 33
0.0
 40
0.0
 40
0.0
 40
0.0
 40
0.0
 40
0.2
 40
0.2
 40
0.2
 40
0.2
 40
0.4
 40
0.4
 40
0.4
 40
0.4
 40
0.6
 40
0.6
 40
0.6
 40
0.6
 40
1.0
 40
1.0
 40
1.0
 40
1.0
 10
-91.6682
 20
12.1338
 30
0.0
 10
-90.3654
 20
10.9274
 30
0.0
 10
-89.2596
 20
9.9273
 30
0.0
 10
-87.2067
 20
9.0405
 30
0.0
 10
-87.2067
 20
9.0405
 30
0.0
 10
-89.2597
 20
8.1536
 30
0.0
 10
-90.3654
 20
7.1536
 30
0.0
 10
-91.6682
 20
5.9472
 30
0.0
 10
-91.6682
 20
5.9472
 30
0.0
 10
-88.6626
 20
6.942
 30
0.0
 10
-82.4404
 20
8.5315
 30
0.0
 10
-79.0917
 20
9.0405
 30
0.0
 10
-79.0917
 20
9.0405
 30
0.0
 10
-82.4404
 20
9.5495
 30
0.0
 10
-88.6626
 20
11.139
 30
0.0
 10
-91.6682
 20
12.1338
 30
0.0
  0
SPLINE
  5
77
330
1F
100
AcDbEntity
  8
layer 1
 62
     7
100
AcDbSpline
210
0.0
220
0.0
230
1.0
 70
    11
 71
     3
 72
    24
 73
    20
 74
     0
 42
0.0000000001
 43
0.0000000001
 12
1.0
 22
0.0
 32
0.0
 13
1.0
 23
0.0
 33
0.0
 40
0.0
 40
0.0
 40
0.0
 40
0.0
 40
0.1666666666666667
 40
0.1666666666666667
 40
0.1666666666666667
 40
0.1666666666666667
 40
0.3333333333333333
 40
0.3333333333333333
 40
0.3333333333333333
 40
0.3333333333333333
 40
0.5
 40
0.5
 40
0.5
 40
0.5
 40
0.6666666666666666
 40
0.6666666666666666
 40
0.6666666666666666
 40
0.6666666666666666
 40
1.0
 40
1.0
 40
1.0
 40
1.0
 10
-117.853
 20
-108.0014
 30
0.0
 10
-107.7116
 20
-108.0014
 30
0.0
 10
-115.9252
 20
-107.9262
 30
0.0
 10
-105.7838
 20
-107.9262
 30
0.0
 10
-105.7838
 20
-107.9262
 30
0.0
 10
-102.4206
 20
-107.1407
 30
0.0
 10
-104.4727
 20
-101.5099
 30
0.0
 10
-108.463
 20
-103.4035
 30
0.0
 10
-108.463
 20
-103.4035
 30
0.0
 10
-112.448
 20
-104.7716
 30
0.0
 10
-114.096
 20
-102.7194
 30
0.0
 10
-115.7439
 20
-102.1494
 30
0.0
 10
-115.7439
 20
-102.1494
 30
0.0
 10
-115.2309
 20
-105.2151
 30
0.0
 10
-116.1999
 20
-106.8738
 30
0.0
 10
-117.853
 20
-108.0014
 30
0.0
 10
-117.853
 20
-108.0014
 30
0.0
 10
-117.853
 20
-108.0014
 30
0.0
 10
-117.853
 20
-108.0014
 30
0.0
 10
-117.853
 20
-108.0014
 30
0.0
  0
SPLINE
  5
78
330
1F
100
AcDbEntity
  8
layer 1
 62
     7
100
AcDbSpline
210
0.0
220
0.0
230
1.0
 70
    11
 71
     3
 72
    16
 73
    12
 74
     0
 42
0.0000000001
 43
0.0000000001
 12
1.0
 22
0.0
 32
0.0
 13
1.0
 23
0.0
 33
0.0
 40
0.0
 40
0.0
 40
0.0
 40
0.0
 40
0.25
 40
0.25
 40
0.25
 40
0.25
 40
0.5
 40
0.5
 40
0.5
 40
0.5
 40
1.0
 40
1.0
 40
1.0
 40
1.0
 10
-94.0826
 20
-108.0014
 30
0.0
 10
-89.6415
 20
-108.0014
 30
0.0
 10
-88.2215
 20
-108.0014
 30
0.0
 10
-84.4645
 20
-107.9262
 30
0.0
 10
-84.4645
 20
-107.9262
 30
0.0
 10
-84.6418
 20
-106.7466
 30
0.0
 10
-86.7925
 20
-105.6718
 30
0.0
 10
-89.3513
 20
-105.6266
 30
0.0
 10
-89.3513
 20
-105.6266
 30
0.0
 10
-92.3155
 20
-105.6711
 30
0.0
 10
-93.2845
 20
-106.5318
 30
0.0
 10
-94.0826
 20
-108.0014
 30
0.0
  0
SPLINE
  5
79
330
1F
100
AcDbEntity
  8
layer 1
 62
     7
100
AcDbSpline
210
0.0
220
0.0
230
1.0
 70
    11
 71
     3
 72
    16
 73
    12
 74
     0
 42
0.0000000001
 43
0.0000000001
 12
1.0
 22
0.0
 32
0.0
 13
1.0
 23
0.0
 33
0.0
 40
0.0
 40
0.0
 40
0.0
 40
0.0
 40
0.25
 40
0.25
 40
0.25
 40
0.25
 40
0.5
 40
0.5
 40
0.5
 40
0.5
 40
1.0
 40
1.0
 40
1.0
 40
1.0
 10
-77.2095
 20
-108.0014
 30
0.0
 10
-76.4166
 20
-108.0014
 30
0.0
 10
-74.5407
 20
-108.0014
 30
0.0
 10
-73.6908
 20
-108.0014
 30
0.0
 10
-73.6908
 20
-108.0014
 30
0.0
 10
-74.172
 20
-107.3427
 30
0.0
 10
-74.1611
 20
-106.846
 30
0.0
 10
-74.2453
 20
-106.2148
 30
0.0
 10
-74.2453
 20
-106.2148
 30
0.0
 10
-75.0822
 20
-107.0842
 30
0.0
 10
-75.7819
 20
-107.6172
 30
0.0
 10
-77.2095
 20
-108.0014
 30
0.0
  0
SPLINE
  5
7A
330
1F
100
AcDbEntity
  8
layer 1
 62
     7
100
AcDbSpline
210
0.0
220
0.0
230
1.0
 70
    11
 71
     3
 72
    84
 73
    80
 74
     0
 42
0.0000000001
 43
0.0000000001
 12
1.0
 22
0.0
 32
0.0
 13
1.0
 23
0.0
 33
0.0
 40
0.0
 40
0.0
 40
0.0
 40
0.0
 40
0.0476190476190476
 40
0.0476190476190476
 40
0.0476190476190476
 40
0.0476190476190476
 40
0.0952380952380952
 40
0.0952380952380952
 40
0.0952380952380952
 40
0.0952380952380952
 40
0.1428571428571428
 40
0.1428571428571428
 40
0.1428571428571428
 40
0.1428571428571428
 40
0.1904761904761905
 40
0.1904761904761905
 40
0.1904761904761905
 40
0.1904761904761905
 40
0.2380952380952381
 40
0.2380952380952381
 40
0.2380952380952381
 40
0.2380952380952381
 40
0.2857142857142857
 40
0.2857142857142857
 40
0.2857142857142857
 40
0.2857142857142857
 40
0.3333333333333333
 40
0.3333333333333333
 40
0.3333333333333333
 40
0.3333333333333333
 40
0.3809523809523809
 40
0.3809523809523809
 40
0.3809523809523809
 40
0.3809523809523809
 40
0.4285714285714285
 40
0.4285714285714285
 40
0.4285714285714285
 40
0.4285714285714285
 40
0.4761904761904762
 40
0.4761904761904762
 40
0.4761904761904762
 40
0.4761904761904762
 40
0.5238095238095238
 40
0.5238095238095238
 40
0.5238095238095238
 40
0.5238095238095238
 40
0.5714285714285714
 40
0.5714285714285714
 40
0.5714285714285714
 40
0.5714285714285714
 40
0.6190476190476191
 40
0.6190476190476191
 40
0.6190476190476191
 40
0.6190476190476191
 40
0.6666666666666666
 40
0.6666666666666666
 40
0.6666666666666666
 40
0.6666666666666666
 40
0.7142857142857143
 40
0.7142857142857143
 40
0.7142857142857143
 40
0.7142857142857143
 40
0.7619047619047619
 40
0.7619047619047619
 40
0.7619047619047619
 40
0.7619047619047619
 40
0.8095238095238095
 40
0.8095238095238095
 40
0.8095238095238095
 40
0.8095238095238095
 40
0.8571428571428571
 40
0.8571428571428571
 40
0.8571428571428571
 40
0.8571428571428571
 40
0.9047619047619048
 40
0.9047619047619048
 40
0.9047619047619048
 40
0.9047619047619048
 40
1.0
 40
1.0
 40
1.0
 40
1.0
 10
-102.3042
 20
-108.0014
 30
0.0
 10
-100.2564
 20
-107.9262
 30
0.0
 10
-99.1424
 20
-108.0014
 30
0.0
 10
-97.5665
 20
-108.0014
 30
0.0
 10
-97.5665
 20
-108.0014
 30
0.0
 10
-96.7439
 20
-106.3811
 30
0.0
 10
-91.6096
 20
-100.6051
 30
0.0
 10
-81.082
 20
-101.9906
 30
0.0
 10
-81.082
 20
-101.9906
 30
0.0
 10
-85.1512
 20
-98.9915
 30
0.0
 10
-87.4899
 20
-93.0443
 30
0.0
 10
-87.4345
 20
-91.7062
 30
0.0
 10
-87.4345
 20
-91.7062
 30
0.0
 10
-85.0707
 20
-91.2747
 30
0.0
 10
-78.4995
 20
-93.9182
 30
0.0
 10
-76.7373
 20
-95.8582
 30
0.0
 10
-76.7373
 20
-95.8582
 30
0.0
 10
-78.3223
 20
-87.7382
 30
0.0
 10
-74.2794
 20
-83.1098
 30
0.0
 10
-69.8455
 20
-84.0394
 30
0.0
 10
-69.8455
 20
-84.0394
 30
0.0
 10
-69.8455
 20
-84.0394
 30
0.0
 10
-69.8455
 20
-80.436
 30
0.0
 10
-69.8455
 20
-80.436
 30
0.0
 10
-69.8455
 20
-80.436
 30
0.0
 10
-71.1647
 20
-82.9305
 30
0.0
 10
-73.4369
 20
-83.7567
 30
0.0
 10
-75.8381
 20
-83.1818
 30
0.0
 10
-75.8381
 20
-83.1818
 30
0.0
 10
-72.6804
 20
-79.1684
 30
0.0
 10
-76.7624
 20
-76.0103
 30
0.0
 10
-80.2121
 20
-77.1841
 30
0.0
 10
-80.2121
 20
-77.1841
 30
0.0
 10
-84.64
 20
-78.1063
 30
0.0
 10
-85.3224
 20
-82.0435
 30
0.0
 10
-85.2647
 20
-84.0284
 30
0.0
 10
-85.2647
 20
-84.0284
 30
0.0
 10
-84.9598
 20
-87.4633
 30
0.0
 10
-80.9718
 20
-86.1784
 30
0.0
 10
-82.1068
 20
-83.8009
 30
0.0
 10
-82.1068
 20
-83.8009
 30
0.0
 10
-80.3764
 20
-82.687
 30
0.0
 10
-78.8617
 20
-80.0898
 30
0.0
 10
-78.9014
 20
-80.2043
 30
0.0
 10
-78.9014
 20
-80.2043
 30
0.0
 10
-75.3306
 20
-81.4103
 30
0.0
 10
-75.3634
 20
-86.8838
 30
0.0
 10
-79.2696
 20
-89.0156
 30
0.0
 10
-79.2696
 20
-89.0156
 30
0.0
 10
-83.3783
 20
-91.2715
 30
0.0
 10
-88.4896
 20
-89.7054
 30
0.0
 10
-89.6457
 20
-84.3562
 30
0.0
 10
-89.6457
 20
-84.3562
 30
0.0
 10
-90.2501
 20
-88.0373
 30
0.0
 10
-92.752
 20
-90.1164
 30
0.0
 10
-95.8448
 20
-90.3936
 30
0.0
 10
-95.8448
 20
-90.3936
 30
0.0
 10
-94.3032
 20
-92.5867
 30
0.0
 10
-90.811
 20
-93.7085
 30
0.0
 10
-88.2834
 20
-92.2723
 30
0.0
 10
-88.2834
 20
-92.2723
 30
0.0
 10
-88.2286
 20
-97.5204
 30
0.0
 10
-94.8134
 20
-101.4293
 30
0.0
 10
-99.8962
 20
-98.2218
 30
0.0
 10
-99.8962
 20
-98.2218
 30
0.0
 10
-101.7361
 20
-96.6981
 30
0.0
 10
-103.9901
 20
-96.3235
 30
0.0
 10
-106.61
 20
-96.2801
 30
0.0
 10
-106.61
 20
-96.2801
 30
0.0
 10
-107.5865
 20
-96.0817
 30
0.0
 10
-107.9955
 20
-97.2209
 30
0.0
 10
-106.6918
 20
-97.252
 30
0.0
 10
-106.6918
 20
-97.252
 30
0.0
 10
-94.0927
 20
-97.5956
 30
0.0
 10
-99.7801
 20
-106.9462
 30
0.0
 10
-102.3042
 20
-108.0012
 30
0.0
 10
-102.3042
 20
-108.0012
 30
0.0
 10
-102.3042
 20
-108.0012
 30
0.0
 10
-102.3042
 20
-108.0014
 30
0.0
 10
-102.3042
 20
-108.0014
 30
0.0
  0
SPLINE
  5
7B
330
1F
100
AcDbEntity
  8
layer 1
 62
     7
100
AcDbSpline
210
0.0
220
0.0
230
1.0
 70
    11
 71
     3
 72
    40
 73
    36
 74
     0
 42
0.0000000001
 43
0.0000000001
 12
1.0
 22
0.0
 32
0.0
 13
1.0
 23
0.0
 33
0.0
 40
0.0
 40
0.0
 40
0.0
 40
0.0
 40
0.1
 40
0.1
 40
0.1
 40
0.1
 40
0.2
 40
0.2
 40
0.2
 40
0.2
 40
0.3
 40
0.3
 40
0.3
 40
0.3
 40
0.4
 40
0.4
 40
0.4
 40
0.4
 40
0.5
 40
0.5
 40
0.5
 40
0.5
 40
0.6
 40
0.6
 40
0.6
 40
0.6
 40
0.7
 40
0.7
 40
0.7
 40
0.7
 40
0.8
 40
0.8
 40
0.8
 40
0.8
 40
1.0
 40
1.0
 40
1.0
 40
1.0
 10
-118.0207
 20
-91.8438
 30
0.0
 10
-118.8836
 20
-83.2921
 30
0.0
 10
-105.6344
 20
-82.9337
 30
0.0
 10
-106.6206
 20
-92.4334
 30
0.0
 10
-106.6206
 20
-92.4334
 30
0.0
 10
-104.7835
 20
-88.491
 30
0.0
 10
-99.384
 20
-87.405
 30
0.0
 10
-97.7221
 20
-89.4843
 30
0.0
 10
-97.7221
 20
-89.4843
 30
0.0
 10
-94.5346
 20
-87.3517
 30
0.0
 10
-94.9467
 20
-82.0722
 30
0.0
 10
-100.9577
 20
-82.0037
 30
0.0
 10
-100.9577
 20
-82.0037
 30
0.0
 10
-109.7307
 20
-81.112
 30
0.0
 10
-115.3254
 20
-79.2062
 30
0.0
 10
-118.1299
 20
-77.5136
 30
0.0
 10
-118.1299
 20
-77.5136
 30
0.0
 10
-117.7302
 20
-78.8534
 30
0.0
 10
-116.3348
 20
-82.2468
 30
0.0
 10
-116.9364
 20
-85.083
 30
0.0
 10
-116.9364
 20
-85.083
 30
0.0
 10
-117.5956
 20
-88.1906
 30
0.0
 10
-119.5764
 20
-89.5107
 30
0.0
 10
-119.9973
 20
-92.7813
 30
0.0
 10
-119.9973
 20
-92.7813
 30
0.0
 10
-120.3765
 20
-98.6388
 30
0.0
 10
-113.7582
 20
-99.0978
 30
0.0
 10
-112.0803
 20
-95.4047
 30
0.0
 10
-112.0803
 20
-95.4047
 30
0.0
 10
-110.7796
 20
-91.4668
 30
0.0
 10
-114.7385
 20
-89.1625
 30
0.0
 10
-118.0208
 20
-91.8438
 30
0.0
 10
-118.0208
 20
-91.8438
 30
0.0
 10
-118.0208
 20
-91.8438
 30
0.0
 10
-118.0207
 20
-91.8438
 30
0.0
 10
-118.0207
 20
-91.8438
 30
0.0
  0
SPLINE
  5
7C
330
1F
100
AcDbEntity
  8
layer 1
 62
     7
100
AcDbSpline
210
0.0
220
0.0
230
1.0
 70
    11
 71
     3
 72
    28
 73
    24
 74
     0
 42
0.0000000001
 43
0.0000000001
 12
1.0
 22
0.0
 32
0.0
 13
1.0
 23
0.0
 33
0.0
 40
0.0
 40
0.0
 40
0.0
 40
0.0
 40
0.1428571428571428
 40
0.1428571428571428
 40
0.1428571428571428
 40
0.1428571428571428
 40
0.2857142857142857
 40
0.2857142857142857
 40
0.2857142857142857
 40
0.2857142857142857
 40
0.4285714285714285
 40
0.4285714285714285
 40
0.4285714285714285
 40
0.4285714285714285
 40
0.5714285714285714
 40
0.5714285714285714
 40
0.5714285714285714
 40
0.5714285714285714
 40
0.7142857142857143
 40
0.7142857142857143
 40
0.7142857142857143
 40
0.7142857142857143
 40
1.0
 40
1.0
 40
1.0
 40
1.0
 10
-97.2487
 20
-78.7376
 30
0.0
 10
-92.4563
 20
-77.8283
 30
0.0
 10
-91.0777
 20
-80.1843
 30
0.0
 10
-89.8213
 20
-81.9485
 30
0.0
 10
-89.8213
 20
-81.9485
 30
0.0
 10
-89.8538
 20
-78.9915
 30
0.0
 10
-88.078
 20
-76.6767
 30
0.0
 10
-86.2553
 20
-75.1436
 30
0.0
 10
-86.2553
 20
-75.1436
 30
0.0
 10
-90.6646
 20
-73.3586
 30
0.0
 10
-92.0915
 20
-75.4008
 30
0.0
 10
-93.9081
 20
-76.8682
 30
0.0
 10
-93.9081
 20
-76.8682
 30
0.0
 10
-94.8707
 20
-77.6458
 30
0.0
 10
-95.783
 20
-78.1232
 30
0.0
 10
-97.4638
 20
-78.0648
 30
0.0
 10
-97.4638
 20
-78.0648
 30
0.0
 10
-98.1455
 20
-77.8471
 30
0.0
 10
-98.6111
 20
-79.0377
 30
0.0
 10
-97.2487
 20
-78.7377
 30
0.0
 10
-97.2487
 20
-78.7377
 30
0.0
 10
-97.2487
 20
-78.7377
 30
0.0
 10
-97.2487
 20
-78.7376
 30
0.0
 10
-97.2487
 20
-78.7376
 30
0.0
  0
SPLINE
  5
7D
330
1F
100
AcDbEntity
  8
layer 1
 62
     7
100
AcDbSpline
210
0.0
220
0.0
230
1.0
 70
    11
 71
     3
 72
    20
 73
    16
 74
     0
 42
0.0000000001
 43
0.0000000001
 12
1.0
 22
0.0
 32
0.0
 13
1.0
 23
0.0
 33
0.0
 40
0.0
 40
0.0
 40
0.0
 40
0.0
 40
0.2
 40
0.2
 40
0.2
 40
0.2
 40
0.4
 40
0.4
 40
0.4
 40
0.4
 40
0.6
 40
0.6
 40
0.6
 40
0.6
 40
1.0
 40
1.0
 40
1.0
 40
1.0
 10
-122.3158
 20
-86.8318
 30
0.0
 10
-122.1266
 20
-89.0097
 30
0.0
 10
-123.269
 20
-91.8082
 30
0.0
 10
-125.5074
 20
-92.206
 30
0.0
 10
-125.5074
 20
-92.206
 30
0.0
 10
-127.7459
 20
-91.8082
 30
0.0
 10
-128.8883
 20
-89.0097
 30
0.0
 10
-128.699
 20
-86.8318
 30
0.0
 10
-128.699
 20
-86.8318
 30
0.0
 10
-126.4633
 20
-86.796
 30
0.0
 10
-125.5234
 20
-85.3423
 30
0.0
 10
-125.5074
 20
-84.0587
 30
0.0
 10
-125.5074
 20
-84.0587
 30
0.0
 10
-125.4913
 20
-85.3423
 30
0.0
 10
-124.5516
 20
-86.796
 30
0.0
 10
-122.3158
 20
-86.8318
 30
0.0
  0
SPLINE
  5
7E
330
1F
100
AcDbEntity
  8
layer 1
 62
     7
100
AcDbSpline
210
0.0
220
0.0
230
1.0
 70
    11
 71
     3
 72
    32
 73
    28
 74
     0
 42
0.0000000001
 43
0.0000000001
 12
1.0
 22
0.0
 32
0.0
 13
1.0
 23
0.0
 33
0.0
 40
0.0
 40
0.0
 40
0.0
 40
0.0
 40
0.125
 40
0.125
 40
0.125
 40
0.125
 40
0.25
 40
0.25
 40
0.25
 40
0.25
 40
0.375
 40
0.375
 40
0.375
 40
0.375
 40
0.5
 40
0.5
 40
0.5
 40
0.5
 40
0.625
 40
0.625
 40
0.625
 40
0.625
 40
0.75
 40
0.75
 40
0.75
 40
0.75
 40
1.0
 40
1.0
 40
1.0
 40
1.0
 10
-120.5329
 20
-79.5865
 30
0.0
 10
-120.7223
 20
-77.3231
 30
0.0
 10
-122.4241
 20
-74.5629
 30
0.0
 10
-123.4618
 20
-74.463
 30
0.0
 10
-123.4618
 20
-74.463
 30
0.0
 10
-124.0692
 20
-74.4046
 30
0.0
 10
-125.0525
 20
-75.5424
 30
0.0
 10
-125.5074
 20
-76.7019
 30
0.0
 10
-125.5074
 20
-76.7019
 30
0.0
 10
-125.9624
 20
-75.5424
 30
0.0
 10
-126.9457
 20
-74.4046
 30
0.0
 10
-127.5531
 20
-74.463
 30
0.0
 10
-127.5531
 20
-74.463
 30
0.0
 10
-128.5908
 20
-74.5629
 30
0.0
 10
-130.2926
 20
-77.3231
 30
0.0
 10
-130.482
 20
-79.5865
 30
0.0
 10
-130.482
 20
-79.5865
 30
0.0
 10
-130.6712
 20
-82.5072
 30
0.0
 10
-127.6532
 20
-83.8386
 30
0.0
 10
-125.5075
 20
-81.5062
 30
0.0
 10
-125.5075
 20
-81.5062
 30
0.0
 10
-123.3619
 20
-83.8386
 30
0.0
 10
-120.3437
 20
-82.5072
 30
0.0
 10
-120.533
 20
-79.5865
 30
0.0
 10
-120.533
 20
-79.5865
 30
0.0
 10
-120.533
 20
-79.5865
 30
0.0
 10
-120.5329
 20
-79.5865
 30
0.0
 10
-120.5329
 20
-79.5865
 30
0.0
  0
SPLINE
  5
7F
330
1F
100
AcDbEntity
  8
layer 1
 62
     7
100
AcDbSpline
210
0.0
220
0.0
230
1.0
 70
    11
 71
     3
 72
    20
 73
    16
 74
     0
 42
0.0000000001
 43
0.0000000001
 12
1.0
 22
0.0
 32
0.0
 13
1.0
 23
0.0
 33
0.0
 40
0.0
 40
0.0
 40
0.0
 40
0.0
 40
0.2
 40
0.2
 40
0.2
 40
0.2
 40
0.4
 40
0.4
 40
0.4
 40
0.4
 40
0.6
 40
0.6
 40
0.6
 40
0.6
 40
1.0
 40
1.0
 40
1.0
 40
1.0
 10
-122.7096
 20
-52.0617
 30
0.0
 10
-123.3327
 20
-51.1819
 30
0.0
 10
-124.5726
 20
-48.7719
 30
0.0
 10
-125.5074
 20
-44.0754
 30
0.0
 10
-125.5074
 20
-44.0754
 30
0.0
 10
-126.4421
 20
-48.7719
 30
0.0
 10
-127.6821
 20
-51.1819
 30
0.0
 10
-128.3052
 20
-52.0617
 30
0.0
 10
-128.3052
 20
-52.0617
 30
0.0
 10
-127.0505
 20
-53.1894
 30
0.0
 10
-126.3207
 20
-54.169
 30
0.0
 10
-125.5074
 20
-55.8793
 30
0.0
 10
-125.5074
 20
-55.8793
 30
0.0
 10
-124.6941
 20
-54.169
 30
0.0
 10
-123.9642
 20
-53.1894
 30
0.0
 10
-122.7096
 20
-52.0617
 30
0.0
  0
SPLINE
  5
80
330
1F
100
AcDbEntity
  8
layer 1
 62
     7
100
AcDbSpline
210
0.0
220
0.0
230
1.0
 70
    11
 71
     3
 72
    16
 73
    12
 74
     0
 42
0.0000000001
 43
0.0000000001
 12
1.0
 22
0.0
 32
0.0
 13
1.0
 23
0.0
 33
0.0
 40
0.0
 40
0.0
 40
0.0
 40
0.0
 40
0.25
 40
0.25
 40
0.25
 40
0.25
 40
0.5
 40
0.5
 40
0.5
 40
0.5
 40
1.0
 40
1.0
 40
1.0
 40
1.0
 10
-118.4713
 20
-15.0111
 30
0.0
 10
-117.1821
 20
-12.6765
 30
0.0
 10
-113.3254
 20
-8.3355
 30
0.0
 10
-111.6258
 20
-6.4631
 30
0.0
 10
-111.6258
 20
-6.4631
 30
0.0
 10
-113.9514
 20
-6.8677
 30
0.0
 10
-116.1769
 20
-5.5627
 30
0.0
 10
-116.9165
 20
-3.3484
 30
0.0
 10
-116.9165
 20
-3.3484
 30
0.0
 10
-118.3271
 20
-5.49
 30
0.0
 10
-120.8581
 20
-9.2891
 30
0.0
 10
-118.4713
 20
-15.0111
 30
0.0
  0
SPLINE
  5
81
330
1F
100
AcDbEntity
  8
layer 1
 62
     7
100
AcDbSpline
210
0.0
220
0.0
230
1.0
 70
    11
 71
     3
 72
    28
 73
    24
 74
     0
 42
0.0000000001
 43
0.0000000001
 12
1.0
 22
0.0
 32
0.0
 13
1.0
 23
0.0
 33
0.0
 40
0.0
 40
0.0
 40
0.0
 40
0.0
 40
0.1428571428571428
 40
0.1428571428571428
 40
0.1428571428571428
 40
0.1428571428571428
 40
0.2857142857142857
 40
0.2857142857142857
 40
0.2857142857142857
 40
0.2857142857142857
 40
0.4285714285714285
 40
0.4285714285714285
 40
0.4285714285714285
 40
0.4285714285714285
 40
0.5714285714285714
 40
0.5714285714285714
 40
0.5714285714285714
 40
0.5714285714285714
 40
0.7142857142857143
 40
0.7142857142857143
 40
0.7142857142857143
 40
0.7142857142857143
 40
1.0
 40
1.0
 40
1.0
 40
1.0
 10
-115.1459
 20
-19.1371
 30
0.0
 10
-112.3241
 20
-13.6638
 30
0.0
 10
-105.7059
 20
-7.0242
 30
0.0
 10
-99.5545
 20
-3.2393
 30
0.0
 10
-99.5545
 20
-3.2393
 30
0.0
 10
-100.4303
 20
-5.0394
 30
0.0
 10
-99.9458
 20
-7.1855
 30
0.0
 10
-99.0381
 20
-9.9465
 30
0.0
 10
-99.0381
 20
-9.9465
 30
0.0
 10
-103.5334
 20
-6.4091
 30
0.0
 10
-110.9796
 20
-10.3142
 30
0.0
 10
-109.3044
 20
-16.3075
 30
0.0
 10
-109.3044
 20
-16.3075
 30
0.0
 10
-105.241
 20
-11.1014
 30
0.0
 10
-100.252
 20
-15.7931
 30
0.0
 10
-102.1079
 20
-19.5048
 30
0.0
 10
-102.1079
 20
-19.5048
 30
0.0
 10
-105.3436
 20
-23.9815
 30
0.0
 10
-111.8251
 20
-22.8571
 30
0.0
 10
-115.1459
 20
-19.1371
 30
0.0
 10
-115.1459
 20
-19.1371
 30
0.0
 10
-115.1459
 20
-19.1371
 30
0.0
 10
-115.1459
 20
-19.1371
 30
0.0
 10
-115.1459
 20
-19.1371
 30
0.0
  0
SPLINE
  5
82
330
1F
100
AcDbEntity
  8
layer 1
 62
     7
100
AcDbSpline
210
0.0
220
0.0
230
1.0
 70
    11
 71
     3
 72
    20
 73
    16
 74
     0
 42
0.0000000001
 43
0.0000000001
 12
1.0
 22
0.0
 32
0.0
 13
1.0
 23
0.0
 33
0.0
 40
0.0
 40
0.0
 40
0.0
 40
0.0
 40
0.2
 40
0.2
 40
0.2
 40
0.2
 40
0.4
 40
0.4
 40
0.4
 40
0.4
 40
0.6
 40
0.6
 40
0.6
 40
0.6
 40
1.0
 40
1.0
 40
1.0
 40
1.0
 10
-100.3619
 20
1.5787
 30
0.0
 10
-98.1828
 20
3.1638
 30
0.0
 10
-95.7781
 20
4.2493
 30
0.0
 10
-93.6101
 20
5.2552
 30
0.0
 10
-93.6101
 20
5.2552
 30
0.0
 10
-97.3877
 20
5.5064
 30
0.0
 10
-100.433
 20
5.9917
 30
0.0
 10
-102.9058
 20
6.7305
 30
0.0
 10
-102.9058
 20
6.7305
 30
0.0
 10
-101.8103
 20
5.2681
 30
0.0
 10
-100.594
 20
3.1786
 30
0.0
 10
-100.3619
 20
1.5787
 30
0.0
 10
-100.3619
 20
1.5787
 30
0.0
 10
-100.3619
 20
1.5787
 30
0.0
 10
-100.3619
 20
1.5787
 30
0.0
 10
-100.3619
 20
1.5787
 30
0.0
  0
SPLINE
  5
83
330
1F
100
AcDbEntity
  8
layer 1
 62
     7
100
AcDbSpline
210
0.0
220
0.0
230
1.0
 70
    11
 71
     3
 72
    28
 73
    24
 74
     0
 42
0.0000000001
 43
0.0000000001
 12
1.0
 22
0.0
 32
0.0
 13
1.0
 23
0.0
 33
0.0
 40
0.0
 40
0.0
 40
0.0
 40
0.0
 40
0.1428571428571428
 40
0.1428571428571428
 40
0.1428571428571428
 40
0.1428571428571428
 40
0.2857142857142857
 40
0.2857142857142857
 40
0.2857142857142857
 40
0.2857142857142857
 40
0.4285714285714285
 40
0.4285714285714285
 40
0.4285714285714285
 40
0.4285714285714285
 40
0.5714285714285714
 40
0.5714285714285714
 40
0.5714285714285714
 40
0.5714285714285714
 40
0.7142857142857143
 40
0.7142857142857143
 40
0.7142857142857143
 40
0.7142857142857143
 40
1.0
 40
1.0
 40
1.0
 40
1.0
 10
-88.7721
 20
-4.2824
 30
0.0
 10
-85.6427
 20
-0.5785
 30
0.0
 10
-78.9929
 20
3.6749
 30
0.0
 10
-77.0883
 20
4.5585
 30
0.0
 10
-77.0883
 20
4.5585
 30
0.0
 10
-82.545
 20
3.9348
 30
0.0
 10
-90.1306
 20
2.0552
 30
0.0
 10
-93.8804
 20
0.1218
 30
0.0
 10
-93.8804
 20
0.1218
 30
0.0
 10
-93.4212
 20
-0.0338
 30
0.0
 10
-93.0067
 20
-0.2038
 30
0.0
 10
-92.5528
 20
-0.6197
 30
0.0
 10
-92.5528
 20
-0.6197
 30
0.0
 10
-94.963
 20
-1.3369
 30
0.0
 10
-95.0993
 20
-3.5951
 30
0.0
 10
-94.1831
 20
-4.9622
 30
0.0
 10
-94.1831
 20
-4.9622
 30
0.0
 10
-92.901
 20
-6.8751
 30
0.0
 10
-90.3075
 20
-6.3715
 30
0.0
 10
-88.7722
 20
-4.2824
 30
0.0
 10
-88.7722
 20
-4.2824
 30
0.0
 10
-88.7722
 20
-4.2824
 30
0.0
 10
-88.7721
 20
-4.2824
 30
0.0
 10
-88.7721
 20
-4.2824
 30
0.0
  0
SPLINE
  5
84
330
1F
100
AcDbEntity
  8
layer 1
 62
     7
100
AcDbSpline
210
0.0
220
0.0
230
1.0
 70
    11
 71
     3
 72
    24
 73
    20
 74
     0
 42
0.0000000001
 43
0.0000000001
 12
1.0
 22
0.0
 32
0.0
 13
1.0
 23
0.0
 33
0.0
 40
0.0
 40
0.0
 40
0.0
 40
0.0
 40
0.1666666666666667
 40
0.1666666666666667
 40
0.1666666666666667
 40
0.1666666666666667
 40
0.3333333333333333
 40
0.3333333333333333
 40
0.3333333333333333
 40
0.3333333333333333
 40
0.5
 40
0.5
 40
0.5
 40
0.5
 40
0.6666666666666666
 40
0.6666666666666666
 40
0.6666666666666666
 40
0.6666666666666666
 40
1.0
 40
1.0
 40
1.0
 40
1.0
 10
-87.9069
 20
-19.109
 30
0.0
 10
-84.1771
 20
-17.6563
 30
0.0
 10
-87.1925
 20
-14.4235
 30
0.0
 10
-86.4585
 20
-10.4182
 30
0.0
 10
-86.4585
 20
-10.4182
 30
0.0
 10
-88.3132
 20
-12.2426
 30
0.0
 10
-91.0963
 20
-13.1316
 30
0.0
 10
-95.3264
 20
-12.9939
 30
0.0
 10
-95.3264
 20
-12.9939
 30
0.0
 10
-94.3568
 20
-13.6598
 30
0.0
 10
-93.4621
 20
-15.6007
 30
0.0
 10
-93.6385
 20
-17.3973
 30
0.0
 10
-93.6385
 20
-17.3973
 30
0.0
 10
-92.867
 20
-16.3437
 30
0.0
 10
-92.1629
 20
-15.9905
 30
0.0
 10
-91.1266
 20
-15.8267
 30
0.0
 10
-91.1266
 20
-15.8267
 30
0.0
 10
-91.7636
 20
-18.3486
 30
0.0
 10
-89.7725
 20
-19.8174
 30
0.0
 10
-87.9069
 20
-19.109
 30
0.0
  0
SPLINE
  5
85
330
1F
100
AcDbEntity
  8
layer 1
 62
     7
100
AcDbSpline
210
0.0
220
0.0
230
1.0
 70
    11
 71
     3
 72
    28
 73
    24
 74
     0
 42
0.0000000001
 43
0.0000000001
 12
1.0
 22
0.0
 32
0.0
 13
1.0
 23
0.0
 33
0.0
 40
0.0
 40
0.0
 40
0.0
 40
0.0
 40
0.1428571428571428
 40
0.1428571428571428
 40
0.1428571428571428
 40
0.1428571428571428
 40
0.2857142857142857
 40
0.2857142857142857
 40
0.2857142857142857
 40
0.2857142857142857
 40
0.4285714285714285
 40
0.4285714285714285
 40
0.4285714285714285
 40
0.4285714285714285
 40
0.5714285714285714
 40
0.5714285714285714
 40
0.5714285714285714
 40
0.5714285714285714
 40
0.7142857142857143
 40
0.7142857142857143
 40
0.7142857142857143
 40
0.7142857142857143
 40
1.0
 40
1.0
 40
1.0
 40
1.0
 10
-69.8455
 20
-8.4894
 30
0.0
 10
-69.8455
 20
-8.4894
 30
0.0
 10
-69.8455
 20
5.1541
 30
0.0
 10
-69.8455
 20
5.1541
 30
0.0
 10
-69.8455
 20
5.1541
 30
0.0
 10
-76.2327
 20
2.6993
 30
0.0
 10
-78.8957
 20
-3.0523
 30
0.0
 10
-79.4938
 20
-5.9762
 30
0.0
 10
-79.4938
 20
-5.9762
 30
0.0
 10
-79.785
 20
-8.0828
 30
0.0
 10
-78.8902
 20
-10.1138
 30
0.0
 10
-76.7254
 20
-9.9293
 30
0.0
 10
-76.7254
 20
-9.9293
 30
0.0
 10
-74.4231
 20
-9.8962
 30
0.0
 10
-73.5977
 20
-7.6269
 30
0.0
 10
-75.5342
 20
-6.1375
 30
0.0
 10
-75.5342
 20
-6.1375
 30
0.0
 10
-72.8107
 20
-4.5962
 30
0.0
 10
-69.8455
 20
-6.8345
 30
0.0
 10
-69.8455
 20
-8.4893
 30
0.0
 10
-69.8455
 20
-8.4893
 30
0.0
 10
-69.8455
 20
-8.4893
 30
0.0
 10
-69.8455
 20
-8.4894
 30
0.0
 10
-69.8455
 20
-8.4894
 30
0.0
  0
SPLINE
  5
86
330
1F
100
AcDbEntity
  8
layer 1
 62
     7
100
AcDbSpline
210
0.0
220
0.0
230
1.0
 70
    11
 71
     3
 72
    16
 73
    12
 74
     0
 42
0.0000000001
 43
0.0000000001
 12
1.0
 22
0.0
 32
0.0
 13
1.0
 23
0.0
 33
0.0
 40
0.0
 40
0.0
 40
0.0
 40
0.0
 40
0.25
 40
0.25
 40
0.25
 40
0.25
 40
0.5
 40
0.5
 40
0.5
 40
0.5
 40
1.0
 40
1.0
 40
1.0
 40
1.0
 10
-69.8455
 20
-26.1651
 30
0.0
 10
-69.8455
 20
-26.1651
 30
0.0
 10
-69.8455
 20
-12.9735
 30
0.0
 10
-69.8455
 20
-12.9735
 30
0.0
 10
-69.8455
 20
-12.9735
 30
0.0
 10
-72.1524
 20
-16.4743
 30
0.0
 10
-77.7791
 20
-18.4803
 30
0.0
 10
-82.0227
 20
-13.4492
 30
0.0
 10
-82.0227
 20
-13.4492
 30
0.0
 10
-81.0473
 20
-21.6052
 30
0.0
 10
-71.8186
 20
-21.3534
 30
0.0
 10
-69.8455
 20
-26.1651
 30
0.0
  0
SPLINE
  5
87
330
1F
100
AcDbEntity
  8
layer 1
 62
     7
100
AcDbSpline
210
0.0
220
0.0
230
1.0
 70
    11
 71
     3
 72
    24
 73
    20
 74
     0
 42
0.0000000001
 43
0.0000000001
 12
1.0
 22
0.0
 32
0.0
 13
1.0
 23
0.0
 33
0.0
 40
0.0
 40
0.0
 40
0.0
 40
0.0
 40
0.1666666666666667
 40
0.1666666666666667
 40
0.1666666666666667
 40
0.1666666666666667
 40
0.3333333333333333
 40
0.3333333333333333
 40
0.3333333333333333
 40
0.3333333333333333
 40
0.5
 40
0.5
 40
0.5
 40
0.5
 40
0.6666666666666666
 40
0.6666666666666666
 40
0.6666666666666666
 40
0.6666666666666666
 40
1.0
 40
1.0
 40
1.0
 40
1.0
 10
-69.8455
 20
-38.1715
 30
0.0
 10
-69.8455
 20
-38.1715
 30
0.0
 10
-69.8455
 20
-28.3279
 30
0.0
 10
-69.8455
 20
-28.3279
 30
0.0
 10
-69.8455
 20
-28.3279
 30
0.0
 10
-73.6134
 20
-30.246
 30
0.0
 10
-79.0574
 20
-27.9605
 30
0.0
 10
-82.3879
 20
-22.6859
 30
0.0
 10
-82.3879
 20
-22.6859
 30
0.0
 10
-80.6203
 20
-26.346
 30
0.0
 10
-79.4274
 20
-32.7179
 30
0.0
 10
-79.6434
 20
-34.298
 30
0.0
 10
-79.6434
 20
-34.298
 30
0.0
 10
-77.1394
 20
-33.3466
 30
0.0
 10
-71.4721
 20
-35.5423
 30
0.0
 10
-69.8455
 20
-38.1715
 30
0.0
 10
-69.8455
 20
-38.1715
 30
0.0
 10
-69.8455
 20
-38.1715
 30
0.0
 10
-69.8455
 20
-38.1715
 30
0.0
 10
-69.8455
 20
-38.1715
 30
0.0
  0
SPLINE
  5
88
330
1F
100
AcDbEntity
  8
layer 1
 62
     7
100
AcDbSpline
210
0.0
220
0.0
230
1.0
 70
    11
 71
     3
 72
    32
 73
    28
 74
     0
 42
0.0000000001
 43
0.0000000001
 12
1.0
 22
0.0
 32
0.0
 13
1.0
 23
0.0
 33
0.0
 40
0.0
 40
0.0
 40
0.0
 40
0.0
 40
0.125
 40
0.125
 40
0.125
 40
0.125
 40
0.25
 40
0.25
 40
0.25
 40
0.25
 40
0.375
 40
0.375
 40
0.375
 40
0.375
 40
0.5
 40
0.5
 40
0.5
 40
0.5
 40
0.625
 40
0.625
 40
0.625
 40
0.625
 40
0.75
 40
0.75
 40
0.75
 40
0.75
 40
1.0
 40
1.0
 40
1.0
 40
1.0
 10
-117.1356
 20
-28.998
 30
0.0
 10
-117.6203
 20
-32.7192
 30
0.0
 10
-114.3034
 20
-33.3448
 30
0.0
 10
-112.7928
 20
-32.0625
 30
0.0
 10
-112.7928
 20
-32.0625
 30
0.0
 10
-111.8968
 20
-31.3019
 30
0.0
 10
-111.4459
 20
-29.3131
 30
0.0
 10
-112.777
 20
-27.7287
 30
0.0
 10
-112.777
 20
-27.7287
 30
0.0
 10
-114.1952
 20
-26.0606
 30
0.0
 10
-115.1957
 20
-24.585
 30
0.0
 10
-117.1702
 20
-22.9921
 30
0.0
 10
-117.1702
 20
-22.9921
 30
0.0
 10
-119.5477
 20
-26.8957
 30
0.0
 10
-121.0176
 20
-34.4756
 30
0.0
 10
-120.5391
 20
-37.8728
 30
0.0
 10
-120.5391
 20
-37.8728
 30
0.0
 10
-119.5129
 20
-37.6559
 30
0.0
 10
-118.6997
 20
-37.6302
 30
0.0
 10
-117.336
 20
-37.5027
 30
0.0
 10
-117.336
 20
-37.5027
 30
0.0
 10
-121.7565
 20
-34.2038
 30
0.0
 10
-118.965
 20
-28.8332
 30
0.0
 10
-117.1358
 20
-28.998
 30
0.0
 10
-117.1358
 20
-28.998
 30
0.0
 10
-117.1358
 20
-28.998
 30
0.0
 10
-117.1356
 20
-28.998
 30
0.0
 10
-117.1356
 20
-28.998
 30
0.0
  0
SPLINE
  5
89
330
1F
100
AcDbEntity
  8
layer 1
 62
     7
100
AcDbSpline
210
0.0
220
0.0
230
1.0
 70
    11
 71
     3
 72
    16
 73
    12
 74
     0
 42
0.0000000001
 43
0.0000000001
 12
1.0
 22
0.0
 32
0.0
 13
1.0
 23
0.0
 33
0.0
 40
0.0
 40
0.0
 40
0.0
 40
0.0
 40
0.25
 40
0.25
 40
0.25
 40
0.25
 40
0.5
 40
0.5
 40
0.5
 40
0.5
 40
1.0
 40
1.0
 40
1.0
 40
1.0
 10
-69.8455
 20
-95.6362
 30
0.0
 10
-69.8455
 20
-91.1951
 30
0.0
 10
-69.8455
 20
-90.3116
 30
0.0
 10
-69.8455
 20
-86.523
 30
0.0
 10
-69.8455
 20
-86.523
 30
0.0
 10
-70.9463
 20
-87.7099
 30
0.0
 10
-71.7807
 20
-89.2296
 30
0.0
 10
-71.8732
 20
-91.4412
 30
0.0
 10
-71.8732
 20
-91.4412
 30
0.0
 10
-71.7498
 20
-93.8532
 30
0.0
 10
-70.5894
 20
-95.1221
 30
0.0
 10
-69.8455
 20
-95.6362
 30
0.0
  0
SPLINE
  5
8A
330
1F
100
AcDbEntity
  8
layer 1
 62
     7
100
AcDbSpline
210
0.0
220
0.0
230
1.0
 70
    11
 71
     3
 72
    16
 73
    12
 74
     0
 42
0.0000000001
 43
0.0000000001
 12
1.0
 22
0.0
 32
0.0
 13
1.0
 23
0.0
 33
0.0
 40
0.0
 40
0.0
 40
0.0
 40
0.0
 40
0.25
 40
0.25
 40
0.25
 40
0.25
 40
0.5
 40
0.5
 40
0.5
 40
0.5
 40
1.0
 40
1.0
 40
1.0
 40
1.0
 10
-69.8455
 20
-100.8377
 30
0.0
 10
-69.8455
 20
-101.6305
 30
0.0
 10
-69.8455
 20
-103.5065
 30
0.0
 10
-69.8455
 20
-104.3563
 30
0.0
 10
-69.8455
 20
-104.3563
 30
0.0
 10
-70.5042
 20
-103.8751
 30
0.0
 10
-71.0009
 20
-103.8861
 30
0.0
 10
-71.6321
 20
-103.8019
 30
0.0
 10
-71.6321
 20
-103.8019
 30
0.0
 10
-70.7628
 20
-102.965
 30
0.0
 10
-70.2298
 20
-102.2652
 30
0.0
 10
-69.8455
 20
-100.8377
 30
0.0
  0
SPLINE
  5
8B
330
1F
100
AcDbEntity
  8
layer 1
 62
     7
100
AcDbSpline
210
0.0
220
0.0
230
1.0
 70
    11
 71
     3
 72
    16
 73
    12
 74
     0
 42
0.0000000001
 43
0.0000000001
 12
1.0
 22
0.0
 32
0.0
 13
1.0
 23
0.0
 33
0.0
 40
0.0
 40
0.0
 40
0.0
 40
0.0
 40
0.25
 40
0.25
 40
0.25
 40
0.25
 40
0.5
 40
0.5
 40
0.5
 40
0.5
 40
1.0
 40
1.0
 40
1.0
 40
1.0
 10
-69.8455
 20
-75.3439
 30
0.0
 10
-69.8455
 20
-70.9028
 30
0.0
 10
-69.8455
 20
-71.5061
 30
0.0
 10
-69.8455
 20
-67.7175
 30
0.0
 10
-69.8455
 20
-67.7175
 30
0.0
 10
-70.7764
 20
-69.6903
 30
0.0
 10
-72.0993
 20
-71.4436
 30
0.0
 10
-73.4024
 20
-72.7208
 30
0.0
 10
-73.4024
 20
-72.7208
 30
0.0
 10
-72.3021
 20
-73.2
 30
0.0
 10
-70.7169
 20
-74.1715
 30
0.0
 10
-69.8455
 20
-75.3439
 30
0.0
  0
SPLINE
  5
8C
330
1F
100
AcDbEntity
  8
layer 1
 62
     7
100
AcDbSpline
210
0.0
220
0.0
230
1.0
 70
    11
 71
     3
 72
    16
 73
    12
 74
     0
 42
0.0000000001
 43
0.0000000001
 12
1.0
 22
0.0
 32
0.0
 13
1.0
 23
0.0
 33
0.0
 40
0.0
 40
0.0
 40
0.0
 40
0.0
 40
0.25
 40
0.25
 40
0.25
 40
0.25
 40
0.5
 40
0.5
 40
0.5
 40
0.5
 40
1.0
 40
1.0
 40
1.0
 40
1.0
 10
-69.8455
 20
-41.7921
 30
0.0
 10
-69.8455
 20
-42.585
 30
0.0
 10
-69.8455
 20
-44.8017
 30
0.0
 10
-69.8455
 20
-45.6516
 30
0.0
 10
-69.8455
 20
-45.6516
 30
0.0
 10
-70.2421
 20
-44.9345
 30
0.0
 10
-70.398
 20
-44.6571
 30
0.0
 10
-70.7671
 20
-44.3107
 30
0.0
 10
-70.7671
 20
-44.3107
 30
0.0
 10
-70.2909
 20
-43.6835
 30
0.0
 10
-70.1512
 20
-42.9576
 30
0.0
 10
-69.8455
 20
-41.7921
 30
0.0
  0
SPLINE
  5
8D
330
1F
100
AcDbEntity
  8
layer 1
 62
     7
100
AcDbSpline
210
0.0
220
0.0
230
1.0
 70
    11
 71
     3
 72
    52
 73
    48
 74
     0
 42
0.0000000001
 43
0.0000000001
 12
1.0
 22
0.0
 32
0.0
 13
1.0
 23
0.0
 33
0.0
 40
0.0
 40
0.0
 40
0.0
 40
0.0
 40
0.0769230769230769
 40
0.0769230769230769
 40
0.0769230769230769
 40
0.0769230769230769
 40
0.1538461538461539
 40
0.1538461538461539
 40
0.1538461538461539
 40
0.1538461538461539
 40
0.2307692307692308
 40
0.2307692307692308
 40
0.2307692307692308
 40
0.2307692307692308
 40
0.3076923076923077
 40
0.3076923076923077
 40
0.3076923076923077
 40
0.3076923076923077
 40
0.3846153846153846
 40
0.3846153846153846
 40
0.3846153846153846
 40
0.3846153846153846
 40
0.4615384615384616
 40
0.4615384615384616
 40
0.4615384615384616
 40
0.4615384615384616
 40
0.5384615384615384
 40
0.5384615384615384
 40
0.5384615384615384
 40
0.5384615384615384
 40
0.6153846153846154
 40
0.6153846153846154
 40
0.6153846153846154
 40
0.6153846153846154
 40
0.6923076923076923
 40
0.6923076923076923
 40
0.6923076923076923
 40
0.6923076923076923
 40
0.7692307692307693
 40
0.7692307692307693
 40
0.7692307692307693
 40
0.7692307692307693
 40
0.8461538461538461
 40
0.8461538461538461
 40
0.8461538461538461
 40
0.8461538461538461
 40
1.0
 40
1.0
 40
1.0
 40
1.0
 10
-85.7368
 20
-23.9271
 30
0.0
 10
-87.993
 20
-26.3668
 30
0.0
 10
-93.5597
 20
-25.5218
 30
0.0
 10
-94.1994
 20
-20.1427
 30
0.0
 10
-94.1994
 20
-20.1427
 30
0.0
 10
-95.171
 20
-23.7661
 30
0.0
 10
-99.5242
 20
-25.1458
 30
0.0
 10
-102.6748
 20
-25.2371
 30
0.0
 10
-102.6748
 20
-25.2371
 30
0.0
 10
-103.4942
 20
-25.3033
 30
0.0
 10
-103.6605
 20
-26.073
 30
0.0
 10
-102.5595
 20
-26.229
 30
0.0
 10
-102.5595
 20
-26.229
 30
0.0
 10
-98.8171
 20
-24.9969
 30
0.0
 10
-94.2869
 20
-26.3982
 30
0.0
 10
-91.9738
 20
-27.7841
 30
0.0
 10
-91.9738
 20
-27.7841
 30
0.0
 10
-89.5593
 20
-29.2306
 30
0.0
 10
-88.0075
 20
-29.1496
 30
0.0
 10
-84.9591
 20
-29.6732
 30
0.0
 10
-84.9591
 20
-29.6732
 30
0.0
 10
-87.942
 20
-35.456
 30
0.0
 10
-99.3286
 20
-38.1512
 30
0.0
 10
-104.6176
 20
-29.5521
 30
0.0
 10
-104.6176
 20
-29.5521
 30
0.0
 10
-105.162
 20
-28.4912
 30
0.0
 10
-106.2194
 20
-29.2083
 30
0.0
 10
-105.3163
 20
-30.2532
 30
0.0
 10
-105.3163
 20
-30.2532
 30
0.0
 10
-102.5692
 20
-34.923
 30
0.0
 10
-107.0543
 20
-37.9728
 30
0.0
 10
-109.3993
 20
-38.4092
 30
0.0
 10
-109.3993
 20
-38.4092
 30
0.0
 10
-105.7492
 20
-39.5203
 30
0.0
 10
-101.296
 20
-41.299
 30
0.0
 10
-99.7564
 20
-42.8551
 30
0.0
 10
-99.7564
 20
-42.8551
 30
0.0
 10
-93.491
 20
-39.8936
 30
0.0
 10
-94.4635
 20
-35.7843
 30
0.0
 10
-88.793
 20
-35.2005
 30
0.0
 10
-88.793
 20
-35.2005
 30
0.0
 10
-87.173
 20
-42.0401
 30
0.0
 10
-79.752
 20
-31.6026
 30
0.0
 10
-85.7368
 20
-23.927
 30
0.0
 10
-85.7368
 20
-23.927
 30
0.0
 10
-85.7368
 20
-23.927
 30
0.0
 10
-85.7368
 20
-23.9271
 30
0.0
 10
-85.7368
 20
-23.9271
 30
0.0
  0
SPLINE
  5
8E
330
1F
100
AcDbEntity
  8
layer 1
 62
     7
100
AcDbSpline
210
0.0
220
0.0
230
1.0
 70
    11
 71
     3
 72
    32
 73
    28
 74
     0
 42
0.0000000001
 43
0.0000000001
 12
1.0
 22
0.0
 32
0.0
 13
1.0
 23
0.0
 33
0.0
 40
0.0
 40
0.0
 40
0.0
 40
0.0
 40
0.125
 40
0.125
 40
0.125
 40
0.125
 40
0.25
 40
0.25
 40
0.25
 40
0.25
 40
0.375
 40
0.375
 40
0.375
 40
0.375
 40
0.5
 40
0.5
 40
0.5
 40
0.5
 40
0.625
 40
0.625
 40
0.625
 40
0.625
 40
0.75
 40
0.75
 40
0.75
 40
0.75
 40
1.0
 40
1.0
 40
1.0
 40
1.0
 10
-102.9573
 20
0.2754
 30
0.0
 10
-104.401
 20
0.0923
 30
0.0
 10
-105.3881
 20
-0.1131
 30
0.0
 10
-106.5703
 20
-0.0298
 30
0.0
 10
-106.5703
 20
-0.0298
 30
0.0
 10
-107.1567
 20
3.3479
 30
0.0
 10
-111.6784
 20
7.3675
 30
0.0
 10
-117.7604
 20
6.7374
 30
0.0
 10
-117.7604
 20
6.7374
 30
0.0
 10
-116.2656
 20
5.5897
 30
0.0
 10
-114.742
 20
4.3484
 30
0.0
 10
-115.1022
 20
1.2407
 30
0.0
 10
-115.1022
 20
1.2407
 30
0.0
 10
-115.6631
 20
-3.5998
 30
0.0
 10
-109.8846
 20
-3.3106
 30
0.0
 10
-110.6251
 20
0.6912
 30
0.0
 10
-110.6251
 20
0.6912
 30
0.0
 10
-108.8281
 20
-0.2547
 30
0.0
 10
-108.0955
 20
-2.2843
 30
0.0
 10
-108.5513
 20
-3.9942
 30
0.0
 10
-108.5513
 20
-3.9942
 30
0.0
 10
-106.2634
 20
-2.3553
 30
0.0
 10
-105.2702
 20
-1.6537
 30
0.0
 10
-102.9574
 20
0.2753
 30
0.0
 10
-102.9574
 20
0.2753
 30
0.0
 10
-102.9574
 20
0.2753
 30
0.0
 10
-102.9573
 20
0.2754
 30
0.0
 10
-102.9573
 20
0.2754
 30
0.0
  0
SPLINE
  5
8F
330
1F
100
AcDbEntity
  8
layer 1
 62
     7
100
AcDbSpline
210
0.0
220
0.0
230
1.0
 70
    11
 71
     3
 72
    52
 73
    48
 74
     0
 42
0.0000000001
 43
0.0000000001
 12
1.0
 22
0.0
 32
0.0
 13
1.0
 23
0.0
 33
0.0
 40
0.0
 40
0.0
 40
0.0
 40
0.0
 40
0.0769230769230769
 40
0.0769230769230769
 40
0.0769230769230769
 40
0.0769230769230769
 40
0.1538461538461539
 40
0.1538461538461539
 40
0.1538461538461539
 40
0.1538461538461539
 40
0.2307692307692308
 40
0.2307692307692308
 40
0.2307692307692308
 40
0.2307692307692308
 40
0.3076923076923077
 40
0.3076923076923077
 40
0.3076923076923077
 40
0.3076923076923077
 40
0.3846153846153846
 40
0.3846153846153846
 40
0.3846153846153846
 40
0.3846153846153846
 40
0.4615384615384616
 40
0.4615384615384616
 40
0.4615384615384616
 40
0.4615384615384616
 40
0.5384615384615384
 40
0.5384615384615384
 40
0.5384615384615384
 40
0.5384615384615384
 40
0.6153846153846154
 40
0.6153846153846154
 40
0.6153846153846154
 40
0.6153846153846154
 40
0.6923076923076923
 40
0.6923076923076923
 40
0.6923076923076923
 40
0.6923076923076923
 40
0.7692307692307693
 40
0.7692307692307693
 40
0.7692307692307693
 40
0.7692307692307693
 40
0.8461538461538461
 40
0.8461538461538461
 40
0.8461538461538461
 40
0.8461538461538461
 40
1.0
 40
1.0
 40
1.0
 40
1.0
 10
-69.8455
 20
-52.6183
 30
0.0
 10
-69.8455
 20
-50.8855
 30
0.0
 10
-70.8244
 20
-48.0786
 30
0.0
 10
-72.6575
 20
-46.5184
 30
0.0
 10
-72.6575
 20
-46.5184
 30
0.0
 10
-76.1551
 20
-47.2591
 30
0.0
 10
-79.2576
 20
-45.2499
 30
0.0
 10
-78.482
 20
-40.8838
 30
0.0
 10
-78.482
 20
-40.8838
 30
0.0
 10
-78.1453
 20
-39.8277
 30
0.0
 10
-78.2718
 20
-36.88
 30
0.0
 10
-80.1645
 20
-35.663
 30
0.0
 10
-80.1645
 20
-35.663
 30
0.0
 10
-83.2984
 20
-45.1387
 30
0.0
 10
-91.1633
 20
-45.7071
 30
0.0
 10
-96.3522
 20
-45.5109
 30
0.0
 10
-96.3522
 20
-45.5109
 30
0.0
 10
-94.8237
 20
-46.9959
 30
0.0
 10
-94.2687
 20
-47.8438
 30
0.0
 10
-91.3518
 20
-51.3933
 30
0.0
 10
-91.3518
 20
-51.3933
 30
0.0
 10
-89.5648
 20
-53.5678
 30
0.0
 10
-83.3097
 20
-51.2493
 30
0.0
 10
-86.6517
 20
-46.6405
 30
0.0
 10
-86.6517
 20
-46.6405
 30
0.0
 10
-84.955
 20
-44.8253
 30
0.0
 10
-78.2272
 20
-45.3568
 30
0.0
 10
-77.5283
 20
-51.2492
 30
0.0
 10
-77.5283
 20
-51.2492
 30
0.0
 10
-76.7645
 20
-49.3833
 30
0.0
 10
-75.9602
 20
-48.289
 30
0.0
 10
-75.208
 20
-47.8746
 30
0.0
 10
-75.208
 20
-47.8746
 30
0.0
 10
-75.329
 20
-49.2234
 30
0.0
 10
-74.3798
 20
-50.5121
 30
0.0
 10
-72.649
 20
-52.5083
 30
0.0
 10
-72.649
 20
-52.5083
 30
0.0
 10
-69.8455
 20
-54.7767
 30
0.0
 10
-69.8455
 20
-58.216
 30
0.0
 10
-71.2581
 20
-59.923
 30
0.0
 10
-71.2581
 20
-59.923
 30
0.0
 10
-70.8297
 20
-60.7857
 30
0.0
 10
-70.3836
 20
-61.3056
 30
0.0
 10
-69.8455
 20
-62.332
 30
0.0
 10
-69.8455
 20
-62.332
 30
0.0
 10
-69.8455
 20
-58.7558
 30
0.0
 10
-69.8455
 20
-55.9162
 30
0.0
 10
-69.8455
 20
-52.6183
 30
0.0
  0
SPLINE
  5
90
330
1F
100
AcDbEntity
  8
layer 1
 62
     7
100
AcDbSpline
210
0.0
220
0.0
230
1.0
 70
    11
 71
     3
 72
   128
 73
   124
 74
     0
 42
0.0000000001
 43
0.0000000001
 12
1.0
 22
0.0
 32
0.0
 13
1.0
 23
0.0
 33
0.0
 40
0.0
 40
0.0
 40
0.0
 40
0.0
 40
0.03125
 40
0.03125
 40
0.03125
 40
0.03125
 40
0.0625
 40
0.0625
 40
0.0625
 40
0.0625
 40
0.09375
 40
0.09375
 40
0.09375
 40
0.09375
 40
0.125
 40
0.125
 40
0.125
 40
0.125
 40
0.15625
 40
0.15625
 40
0.15625
 40
0.15625
 40
0.1875
 40
0.1875
 40
0.1875
 40
0.1875
 40
0.21875
 40
0.21875
 40
0.21875
 40
0.21875
 40
0.25
 40
0.25
 40
0.25
 40
0.25
 40
0.28125
 40
0.28125
 40
0.28125
 40
0.28125
 40
0.3125
 40
0.3125
 40
0.3125
 40
0.3125
 40
0.34375
 40
0.34375
 40
0.34375
 40
0.34375
 40
0.375
 40
0.375
 40
0.375
 40
0.375
 40
0.40625
 40
0.40625
 40
0.40625
 40
0.40625
 40
0.4375
 40
0.4375
 40
0.4375
 40
0.4375
 40
0.46875
 40
0.46875
 40
0.46875
 40
0.46875
 40
0.5
 40
0.5
 40
0.5
 40
0.5
 40
0.53125
 40
0.53125
 40
0.53125
 40
0.53125
 40
0.5625
 40
0.5625
 40
0.5625
 40
0.5625
 40
0.59375
 40
0.59375
 40
0.59375
 40
0.59375
 40
0.625
 40
0.625
 40
0.625
 40
0.625
 40
0.65625
 40
0.65625
 40
0.65625
 40
0.65625
 40
0.6875
 40
0.6875
 40
0.6875
 40
0.6875
 40
0.71875
 40
0.71875
 40
0.71875
 40
0.71875
 40
0.75
 40
0.75
 40
0.75
 40
0.75
 40
0.78125
 40
0.78125
 40
0.78125
 40
0.78125
 40
0.8125
 40
0.8125
 40
0.8125
 40
0.8125
 40
0.84375
 40
0.84375
 40
0.84375
 40
0.84375
 40
0.875
 40
0.875
 40
0.875
 40
0.875
 40
0.90625
 40
0.90625
 40
0.90625
 40
0.90625
 40
0.9375
 40
0.9375
 40
0.9375
 40
0.9375
 40
1.0
 40
1.0
 40
1.0
 40
1.0
 10
-72.8842
 20
-62.6643
 30
0.0
 10
-75.243
 20
-63.2903
 30
0.0
 10
-80.3754
 20
-60.3808
 30
0.0
 10
-79.7983
 20
-55.59
 30
0.0
 10
-79.7983
 20
-55.59
 30
0.0
 10
-83.296
 20
-58.3922
 30
0.0
 10
-91.27
 20
-59.5957
 30
0.0
 10
-96.2375
 20
-51.6989
 30
0.0
 10
-96.2375
 20
-51.6989
 30
0.0
 10
-96.778
 20
-50.7463
 30
0.0
 10
-98.0574
 20
-51.0823
 30
0.0
 10
-97.3787
 20
-52.2577
 30
0.0
 10
-97.3787
 20
-52.2577
 30
0.0
 10
-97.4283
 20
-52.2723
 30
0.0
 10
-92.0347
 20
-56.6222
 30
0.0
 10
-92.3738
 20
-61.0232
 30
0.0
 10
-92.3738
 20
-61.0232
 30
0.0
 10
-92.5591
 20
-63.4272
 30
0.0
 10
-90.6464
 20
-66.879
 30
0.0
 10
-87.5587
 20
-66.8804
 30
0.0
 10
-87.5587
 20
-66.8804
 30
0.0
 10
-92.1915
 20
-72.9192
 30
0.0
 10
-105.4246
 20
-67.5046
 30
0.0
 10
-100.6074
 20
-55.8984
 30
0.0
 10
-100.6074
 20
-55.8984
 30
0.0
 10
-100.2088
 20
-54.7122
 30
0.0
 10
-101.5903
 20
-53.7842
 30
0.0
 10
-101.7277
 20
-55.1161
 30
0.0
 10
-101.7277
 20
-55.1161
 30
0.0
 10
-100.7811
 20
-63.4807
 30
0.0
 10
-109.0479
 20
-61.3881
 30
0.0
 10
-107.6082
 20
-56.9416
 30
0.0
 10
-107.6082
 20
-56.9416
 30
0.0
 10
-106.602
 20
-53.6663
 30
0.0
 10
-104.9503
 20
-54.1696
 30
0.0
 10
-105.5047
 20
-50.3341
 30
0.0
 10
-105.5047
 20
-50.3341
 30
0.0
 10
-106.7849
 20
-44.6031
 30
0.0
 10
-114.8263
 20
-40.6919
 30
0.0
 10
-120.4035
 20
-42.3578
 30
0.0
 10
-120.4035
 20
-42.3578
 30
0.0
 10
-120.8857
 20
-42.3118
 30
0.0
 10
-119.5119
 20
-48.4294
 30
0.0
 10
-116.9636
 20
-50.9206
 30
0.0
 10
-116.9636
 20
-50.9206
 30
0.0
 10
-114.7423
 20
-53.0921
 30
0.0
 10
-111.2714
 20
-52.0154
 30
0.0
 10
-111.9461
 20
-48.026
 30
0.0
 10
-111.9461
 20
-48.026
 30
0.0
 10
-106.752
 20
-48.3069
 30
0.0
 10
-105.4431
 20
-54.2245
 30
0.0
 10
-108.8857
 20
-57.2252
 30
0.0
 10
-108.8857
 20
-57.2252
 30
0.0
 10
-111.1723
 20
-59.2183
 30
0.0
 10
-116.0163
 20
-59.6559
 30
0.0
 10
-117.9239
 20
-56.1551
 30
0.0
 10
-117.9239
 20
-56.1551
 30
0.0
 10
-118.355
 20
-55.8413
 30
0.0
 10
-119.1436
 20
-56.3485
 30
0.0
 10
-118.6397
 20
-57.0097
 30
0.0
 10
-118.6397
 20
-57.0097
 30
0.0
 10
-116.984
 20
-58.9108
 30
0.0
 10
-112.6719
 20
-61.1403
 30
0.0
 10
-109.9873
 20
-60.6582
 30
0.0
 10
-109.9873
 20
-60.6582
 30
0.0
 10
-110.6313
 20
-63.064
 30
0.0
 10
-110.9842
 20
-65.8391
 30
0.0
 10
-109.9627
 20
-68.2153
 30
0.0
 10
-109.9627
 20
-68.2153
 30
0.0
 10
-112.8796
 20
-66.9591
 30
0.0
 10
-116.2724
 20
-66.8979
 30
0.0
 10
-118.175
 20
-67.3486
 30
0.0
 10
-118.175
 20
-67.3486
 30
0.0
 10
-117.6557
 20
-65.9607
 30
0.0
 10
-118.5091
 20
-61.3443
 30
0.0
 10
-120.8443
 20
-58.0179
 30
0.0
 10
-120.8443
 20
-58.0179
 30
0.0
 10
-121.2239
 20
-57.3214
 30
0.0
 10
-121.7645
 20
-57.8814
 30
0.0
 10
-121.6457
 20
-58.6337
 30
0.0
 10
-121.6457
 20
-58.6337
 30
0.0
 10
-117.9635
 20
-63.9133
 30
0.0
 10
-120.0237
 20
-69.4788
 30
0.0
 10
-120.9014
 20
-71.3874
 30
0.0
 10
-120.9014
 20
-71.3874
 30
0.0
 10
-118.8214
 20
-74.1433
 30
0.0
 10
-114.8862
 20
-75.9425
 30
0.0
 10
-111.7446
 20
-75.8619
 30
0.0
 10
-111.7446
 20
-75.8619
 30
0.0
 10
-105.7525
 20
-75.7082
 30
0.0
 10
-106.4861
 20
-70.0935
 30
0.0
 10
-110.7658
 20
-71.0958
 30
0.0
 10
-110.7658
 20
-71.0958
 30
0.0
 10
-109.1532
 20
-66.2227
 30
0.0
 10
-103.8613
 20
-66.4953
 30
0.0
 10
-101.6856
 20
-68.5159
 30
0.0
 10
-101.6856
 20
-68.5159
 30
0.0
 10
-100.2577
 20
-69.842
 30
0.0
 10
-100.318
 20
-71.9795
 30
0.0
 10
-103.1295
 20
-73.7047
 30
0.0
 10
-103.1295
 20
-73.7047
 30
0.0
 10
-103.8015
 20
-74.4027
 30
0.0
 10
-102.9459
 20
-75.3595
 30
0.0
 10
-102.3475
 20
-74.5861
 30
0.0
 10
-102.3475
 20
-74.5861
 30
0.0
 10
-99.802
 20
-68.756
 30
0.0
 10
-88.1869
 20
-68.1474
 30
0.0
 10
-85.2255
 20
-74.6048
 30
0.0
 10
-85.2255
 20
-74.6048
 30
0.0
 10
-78.2172
 20
-73.4889
 30
0.0
 10
-80.8324
 20
-62.9804
 30
0.0
 10
-88.501
 20
-66.277
 30
0.0
 10
-88.501
 20
-66.277
 30
0.0
 10
-90.0724
 20
-55.6021
 30
0.0
 10
-72.7557
 20
-58.6346
 30
0.0
 10
-75.0893
 20
-69.5578
 30
0.0
 10
-75.0893
 20
-69.5578
 30
0.0
 10
-73.5593
 20
-68.4169
 30
0.0
 10
-72.2469
 20
-65.0016
 30
0.0
 10
-72.8842
 20
-62.6645
 30
0.0
 10
-72.8842
 20
-62.6645
 30
0.0
 10
-72.8842
 20
-62.6645
 30
0.0
 10
-72.8842
 20
-62.6643
 30
0.0
 10
-72.8842
 20
-62.6643
 30
0.0
  0
SPLINE
  5
91
330
1F
100
AcDbEntity
  8
layer 1
 62
     7
100
AcDbSpline
210
0.0
220
0.0
230
1.0
 70
    11
 71
     3
 72
    24
 73
    20
 74
     0
 42
0.0000000001
 43
0.0000000001
 12
1.0
 22
0.0
 32
0.0
 13
1.0
 23
0.0
 33
0.0
 40
0.0
 40
0.0
 40
0.0
 40
0.0
 40
0.1666666666666667
 40
0.1666666666666667
 40
0.1666666666666667
 40
0.1666666666666667
 40
0.3333333333333333
 40
0.3333333333333333
 40
0.3333333333333333
 40
0.3333333333333333
 40
0.5
 40
0.5
 40
0.5
 40
0.5
 40
0.6666666666666666
 40
0.6666666666666666
 40
0.6666666666666666
 40
0.6666666666666666
 40
1.0
 40
1.0
 40
1.0
 40
1.0
 10
-133.1618
 20
-108.0014
 30
0.0
 10
-143.3032
 20
-108.0014
 30
0.0
 10
-135.0896
 20
-107.9262
 30
0.0
 10
-145.231
 20
-107.9262
 30
0.0
 10
-145.231
 20
-107.9262
 30
0.0
 10
-148.5942
 20
-107.1407
 30
0.0
 10
-146.5421
 20
-101.5099
 30
0.0
 10
-142.5518
 20
-103.4035
 30
0.0
 10
-142.5518
 20
-103.4035
 30
0.0
 10
-138.5668
 20
-104.7716
 30
0.0
 10
-136.9188
 20
-102.7194
 30
0.0
 10
-135.2709
 20
-102.1494
 30
0.0
 10
-135.2709
 20
-102.1494
 30
0.0
 10
-135.7839
 20
-105.2151
 30
0.0
 10
-134.8149
 20
-106.8738
 30
0.0
 10
-133.1617
 20
-108.0014
 30
0.0
 10
-133.1617
 20
-108.0014
 30
0.0
 10
-133.1617
 20
-108.0014
 30
0.0
 10
-133.1618
 20
-108.0014
 30
0.0
 10
-133.1618
 20
-108.0014
 30
0.0
  0
SPLINE
  5
92
330
1F
100
AcDbEntity
  8
layer 1
 62
     7
100
AcDbSpline
210
0.0
220
0.0
230
1.0
 70
    11
 71
     3
 72
    16
 73
    12
 74
     0
 42
0.0000000001
 43
0.0000000001
 12
1.0
 22
0.0
 32
0.0
 13
1.0
 23
0.0
 33
0.0
 40
0.0
 40
0.0
 40
0.0
 40
0.0
 40
0.25
 40
0.25
 40
0.25
 40
0.25
 40
0.5
 40
0.5
 40
0.5
 40
0.5
 40
1.0
 40
1.0
 40
1.0
 40
1.0
 10
-156.9323
 20
-108.0014
 30
0.0
 10
-161.3734
 20
-108.0014
 30
0.0
 10
-162.7933
 20
-108.0014
 30
0.0
 10
-166.5503
 20
-107.9262
 30
0.0
 10
-166.5503
 20
-107.9262
 30
0.0
 10
-166.3731
 20
-106.7466
 30
0.0
 10
-164.2223
 20
-105.6718
 30
0.0
 10
-161.6636
 20
-105.6266
 30
0.0
 10
-161.6636
 20
-105.6266
 30
0.0
 10
-158.6993
 20
-105.6711
 30
0.0
 10
-157.7303
 20
-106.5318
 30
0.0
 10
-156.9323
 20
-108.0014
 30
0.0
  0
SPLINE
  5
93
330
1F
100
AcDbEntity
  8
layer 1
 62
     7
100
AcDbSpline
210
0.0
220
0.0
230
1.0
 70
    11
 71
     3
 72
    16
 73
    12
 74
     0
 42
0.0000000001
 43
0.0000000001
 12
1.0
 22
0.0
 32
0.0
 13
1.0
 23
0.0
 33
0.0
 40
0.0
 40
0.0
 40
0.0
 40
0.0
 40
0.25
 40
0.25
 40
0.25
 40
0.25
 40
0.5
 40
0.5
 40
0.5
 40
0.5
 40
1.0
 40
1.0
 40
1.0
 40
1.0
 10
-173.8053
 20
-108.0014
 30
0.0
 10
-174.5982
 20
-108.0014
 30
0.0
 10
-176.4741
 20
-108.0014
 30
0.0
 10
-177.324
 20
-108.0014
 30
0.0
 10
-177.324
 20
-108.0014
 30
0.0
 10
-176.8428
 20
-107.3427
 30
0.0
 10
-176.8537
 20
-106.846
 30
0.0
 10
-176.7695
 20
-106.2148
 30
0.0
 10
-176.7695
 20
-106.2148
 30
0.0
 10
-175.9327
 20
-107.0842
 30
0.0
 10
-175.2329
 20
-107.6172
 30
0.0
 10
-173.8053
 20
-108.0014
 30
0.0
  0
SPLINE
  5
94
330
1F
100
AcDbEntity
  8
layer 1
 62
     7
100
AcDbSpline
210
0.0
220
0.0
230
1.0
 70
    11
 71
     3
 72
    84
 73
    80
 74
     0
 42
0.0000000001
 43
0.0000000001
 12
1.0
 22
0.0
 32
0.0
 13
1.0
 23
0.0
 33
0.0
 40
0.0
 40
0.0
 40
0.0
 40
0.0
 40
0.0476190476190476
 40
0.0476190476190476
 40
0.0476190476190476
 40
0.0476190476190476
 40
0.0952380952380952
 40
0.0952380952380952
 40
0.0952380952380952
 40
0.0952380952380952
 40
0.1428571428571428
 40
0.1428571428571428
 40
0.1428571428571428
 40
0.1428571428571428
 40
0.1904761904761905
 40
0.1904761904761905
 40
0.1904761904761905
 40
0.1904761904761905
 40
0.2380952380952381
 40
0.2380952380952381
 40
0.2380952380952381
 40
0.2380952380952381
 40
0.2857142857142857
 40
0.2857142857142857
 40
0.2857142857142857
 40
0.2857142857142857
 40
0.3333333333333333
 40
0.3333333333333333
 40
0.3333333333333333
 40
0.3333333333333333
 40
0.3809523809523809
 40
0.3809523809523809
 40
0.3809523809523809
 40
0.3809523809523809
 40
0.4285714285714285
 40
0.4285714285714285
 40
0.4285714285714285
 40
0.4285714285714285
 40
0.4761904761904762
 40
0.4761904761904762
 40
0.4761904761904762
 40
0.4761904761904762
 40
0.5238095238095238
 40
0.5238095238095238
 40
0.5238095238095238
 40
0.5238095238095238
 40
0.5714285714285714
 40
0.5714285714285714
 40
0.5714285714285714
 40
0.5714285714285714
 40
0.6190476190476191
 40
0.6190476190476191
 40
0.6190476190476191
 40
0.6190476190476191
 40
0.6666666666666666
 40
0.6666666666666666
 40
0.6666666666666666
 40
0.6666666666666666
 40
0.7142857142857143
 40
0.7142857142857143
 40
0.7142857142857143
 40
0.7142857142857143
 40
0.7619047619047619
 40
0.7619047619047619
 40
0.7619047619047619
 40
0.7619047619047619
 40
0.8095238095238095
 40
0.8095238095238095
 40
0.8095238095238095
 40
0.8095238095238095
 40
0.8571428571428571
 40
0.8571428571428571
 40
0.8571428571428571
 40
0.8571428571428571
 40
0.9047619047619048
 40
0.9047619047619048
 40
0.9047619047619048
 40
0.9047619047619048
 40
1.0
 40
1.0
 40
1.0
 40
1.0
 10
-148.7106
 20
-108.0014
 30
0.0
 10
-150.7583
 20
-107.9262
 30
0.0
 10
-151.8724
 20
-108.0014
 30
0.0
 10
-153.4483
 20
-108.0014
 30
0.0
 10
-153.4483
 20
-108.0014
 30
0.0
 10
-154.2709
 20
-106.3811
 30
0.0
 10
-159.4052
 20
-100.6051
 30
0.0
 10
-169.9328
 20
-101.9906
 30
0.0
 10
-169.9328
 20
-101.9906
 30
0.0
 10
-165.8636
 20
-98.9915
 30
0.0
 10
-163.5248
 20
-93.0443
 30
0.0
 10
-163.5802
 20
-91.7062
 30
0.0
 10
-163.5802
 20
-91.7062
 30
0.0
 10
-165.9441
 20
-91.2747
 30
0.0
 10
-172.5152
 20
-93.9182
 30
0.0
 10
-174.2774
 20
-95.8582
 30
0.0
 10
-174.2774
 20
-95.8582
 30
0.0
 10
-172.6925
 20
-87.7382
 30
0.0
 10
-176.7354
 20
-83.1098
 30
0.0
 10
-181.1692
 20
-84.0394
 30
0.0
 10
-181.1692
 20
-84.0394
 30
0.0
 10
-181.1692
 20
-84.0394
 30
0.0
 10
-181.1692
 20
-80.436
 30
0.0
 10
-181.1692
 20
-80.436
 30
0.0
 10
-181.1692
 20
-80.436
 30
0.0
 10
-179.8501
 20
-82.9305
 30
0.0
 10
-177.5779
 20
-83.7567
 30
0.0
 10
-175.1767
 20
-83.1818
 30
0.0
 10
-175.1767
 20
-83.1818
 30
0.0
 10
-178.3344
 20
-79.1684
 30
0.0
 10
-174.2524
 20
-76.0103
 30
0.0
 10
-170.8026
 20
-77.1841
 30
0.0
 10
-170.8026
 20
-77.1841
 30
0.0
 10
-166.3748
 20
-78.1063
 30
0.0
 10
-165.6924
 20
-82.0435
 30
0.0
 10
-165.7501
 20
-84.0284
 30
0.0
 10
-165.7501
 20
-84.0284
 30
0.0
 10
-166.055
 20
-87.4633
 30
0.0
 10
-170.043
 20
-86.1784
 30
0.0
 10
-168.908
 20
-83.8009
 30
0.0
 10
-168.908
 20
-83.8009
 30
0.0
 10
-170.6383
 20
-82.687
 30
0.0
 10
-172.1531
 20
-80.0898
 30
0.0
 10
-172.1134
 20
-80.2043
 30
0.0
 10
-172.1134
 20
-80.2043
 30
0.0
 10
-175.6842
 20
-81.4103
 30
0.0
 10
-175.6514
 20
-86.8838
 30
0.0
 10
-171.7452
 20
-89.0156
 30
0.0
 10
-171.7452
 20
-89.0156
 30
0.0
 10
-167.6365
 20
-91.2715
 30
0.0
 10
-162.5252
 20
-89.7054
 30
0.0
 10
-161.3691
 20
-84.3562
 30
0.0
 10
-161.3691
 20
-84.3562
 30
0.0
 10
-160.7647
 20
-88.0373
 30
0.0
 10
-158.2627
 20
-90.1164
 30
0.0
 10
-155.17
 20
-90.3936
 30
0.0
 10
-155.17
 20
-90.3936
 30
0.0
 10
-156.7116
 20
-92.5867
 30
0.0
 10
-160.2037
 20
-93.7085
 30
0.0
 10
-162.7313
 20
-92.2723
 30
0.0
 10
-162.7313
 20
-92.2723
 30
0.0
 10
-162.7862
 20
-97.5204
 30
0.0
 10
-156.2014
 20
-101.4293
 30
0.0
 10
-151.1185
 20
-98.2218
 30
0.0
 10
-151.1185
 20
-98.2218
 30
0.0
 10
-149.2787
 20
-96.6981
 30
0.0
 10
-147.0247
 20
-96.3235
 30
0.0
 10
-144.4048
 20
-96.2801
 30
0.0
 10
-144.4048
 20
-96.2801
 30
0.0
 10
-143.4283
 20
-96.0817
 30
0.0
 10
-143.0193
 20
-97.2209
 30
0.0
 10
-144.3229
 20
-97.252
 30
0.0
 10
-144.3229
 20
-97.252
 30
0.0
 10
-156.9221
 20
-97.5956
 30
0.0
 10
-151.2347
 20
-106.9462
 30
0.0
 10
-148.7106
 20
-108.0012
 30
0.0
 10
-148.7106
 20
-108.0012
 30
0.0
 10
-148.7106
 20
-108.0012
 30
0.0
 10
-148.7106
 20
-108.0014
 30
0.0
 10
-148.7106
 20
-108.0014
 30
0.0
  0
SPLINE
  5
95
330
1F
100
AcDbEntity
  8
layer 1
 62
     7
100
AcDbSpline
210
0.0
220
0.0
230
1.0
 70
    11
 71
     3
 72
    40
 73
    36
 74
     0
 42
0.0000000001
 43
0.0000000001
 12
1.0
 22
0.0
 32
0.0
 13
1.0
 23
0.0
 33
0.0
 40
0.0
 40
0.0
 40
0.0
 40
0.0
 40
0.1
 40
0.1
 40
0.1
 40
0.1
 40
0.2
 40
0.2
 40
0.2
 40
0.2
 40
0.3
 40
0.3
 40
0.3
 40
0.3
 40
0.4
 40
0.4
 40
0.4
 40
0.4
 40
0.5
 40
0.5
 40
0.5
 40
0.5
 40
0.6
 40
0.6
 40
0.6
 40
0.6
 40
0.7
 40
0.7
 40
0.7
 40
0.7
 40
0.8
 40
0.8
 40
0.8
 40
0.8
 40
1.0
 40
1.0
 40
1.0
 40
1.0
 10
-132.9941
 20
-91.8438
 30
0.0
 10
-132.1313
 20
-83.2921
 30
0.0
 10
-145.3804
 20
-82.9337
 30
0.0
 10
-144.3942
 20
-92.4334
 30
0.0
 10
-144.3942
 20
-92.4334
 30
0.0
 10
-146.2313
 20
-88.491
 30
0.0
 10
-151.6308
 20
-87.405
 30
0.0
 10
-153.2928
 20
-89.4843
 30
0.0
 10
-153.2928
 20
-89.4843
 30
0.0
 10
-156.4803
 20
-87.3517
 30
0.0
 10
-156.0682
 20
-82.0722
 30
0.0
 10
-150.0571
 20
-82.0037
 30
0.0
 10
-150.0571
 20
-82.0037
 30
0.0
 10
-141.2842
 20
-81.112
 30
0.0
 10
-135.6894
 20
-79.2062
 30
0.0
 10
-132.885
 20
-77.5136
 30
0.0
 10
-132.885
 20
-77.5136
 30
0.0
 10
-133.2846
 20
-78.8534
 30
0.0
 10
-134.68
 20
-82.2468
 30
0.0
 10
-134.0784
 20
-85.083
 30
0.0
 10
-134.0784
 20
-85.083
 30
0.0
 10
-133.4193
 20
-88.1906
 30
0.0
 10
-131.4384
 20
-89.5107
 30
0.0
 10
-131.0176
 20
-92.7813
 30
0.0
 10
-131.0176
 20
-92.7813
 30
0.0
 10
-130.6384
 20
-98.6388
 30
0.0
 10
-137.2567
 20
-99.0978
 30
0.0
 10
-138.9345
 20
-95.4047
 30
0.0
 10
-138.9345
 20
-95.4047
 30
0.0
 10
-140.2352
 20
-91.4668
 30
0.0
 10
-136.2763
 20
-89.1625
 30
0.0
 10
-132.9941
 20
-91.8438
 30
0.0
 10
-132.9941
 20
-91.8438
 30
0.0
 10
-132.9941
 20
-91.8438
 30
0.0
 10
-132.9941
 20
-91.8438
 30
0.0
 10
-132.9941
 20
-91.8438
 30
0.0
  0
SPLINE
  5
96
330
1F
100
AcDbEntity
  8
layer 1
 62
     7
100
AcDbSpline
210
0.0
220
0.0
230
1.0
 70
    11
 71
     3
 72
    28
 73
    24
 74
     0
 42
0.0000000001
 43
0.0000000001
 12
1.0
 22
0.0
 32
0.0
 13
1.0
 23
0.0
 33
0.0
 40
0.0
 40
0.0
 40
0.0
 40
0.0
 40
0.1428571428571428
 40
0.1428571428571428
 40
0.1428571428571428
 40
0.1428571428571428
 40
0.2857142857142857
 40
0.2857142857142857
 40
0.2857142857142857
 40
0.2857142857142857
 40
0.4285714285714285
 40
0.4285714285714285
 40
0.4285714285714285
 40
0.4285714285714285
 40
0.5714285714285714
 40
0.5714285714285714
 40
0.5714285714285714
 40
0.5714285714285714
 40
0.7142857142857143
 40
0.7142857142857143
 40
0.7142857142857143
 40
0.7142857142857143
 40
1.0
 40
1.0
 40
1.0
 40
1.0
 10
-153.7661
 20
-78.7376
 30
0.0
 10
-158.5586
 20
-77.8283
 30
0.0
 10
-159.9371
 20
-80.1843
 30
0.0
 10
-161.1935
 20
-81.9485
 30
0.0
 10
-161.1935
 20
-81.9485
 30
0.0
 10
-161.161
 20
-78.9915
 30
0.0
 10
-162.9369
 20
-76.6767
 30
0.0
 10
-164.7595
 20
-75.1436
 30
0.0
 10
-164.7595
 20
-75.1436
 30
0.0
 10
-160.3502
 20
-73.3586
 30
0.0
 10
-158.9233
 20
-75.4008
 30
0.0
 10
-157.1068
 20
-76.8682
 30
0.0
 10
-157.1068
 20
-76.8682
 30
0.0
 10
-156.1442
 20
-77.6458
 30
0.0
 10
-155.2318
 20
-78.1232
 30
0.0
 10
-153.551
 20
-78.0648
 30
0.0
 10
-153.551
 20
-78.0648
 30
0.0
 10
-152.8693
 20
-77.8471
 30
0.0
 10
-152.4038
 20
-79.0377
 30
0.0
 10
-153.7661
 20
-78.7377
 30
0.0
 10
-153.7661
 20
-78.7377
 30
0.0
 10
-153.7661
 20
-78.7377
 30
0.0
 10
-153.7661
 20
-78.7376
 30
0.0
 10
-153.7661
 20
-78.7376
 30
0.0
  0
SPLINE
  5
97
330
1F
100
AcDbEntity
  8
layer 1
 62
     7
100
AcDbSpline
210
0.0
220
0.0
230
1.0
 70
    11
 71
     3
 72
    48
 73
    44
 74
     0
 42
0.0000000001
 43
0.0000000001
 12
1.0
 22
0.0
 32
0.0
 13
1.0
 23
0.0
 33
0.0
 40
0.0
 40
0.0
 40
0.0
 40
0.0
 40
0.0833333333333333
 40
0.0833333333333333
 40
0.0833333333333333
 40
0.0833333333333333
 40
0.1666666666666667
 40
0.1666666666666667
 40
0.1666666666666667
 40
0.1666666666666667
 40
0.25
 40
0.25
 40
0.25
 40
0.25
 40
0.3333333333333333
 40
0.3333333333333333
 40
0.3333333333333333
 40
0.3333333333333333
 40
0.4166666666666667
 40
0.4166666666666667
 40
0.4166666666666667
 40
0.4166666666666667
 40
0.5
 40
0.5
 40
0.5
 40
0.5
 40
0.5833333333333334
 40
0.5833333333333334
 40
0.5833333333333334
 40
0.5833333333333334
 40
0.6666666666666666
 40
0.6666666666666666
 40
0.6666666666666666
 40
0.6666666666666666
 40
0.75
 40
0.75
 40
0.75
 40
0.75
 40
0.8333333333333334
 40
0.8333333333333334
 40
0.8333333333333334
 40
0.8333333333333334
 40
1.0
 40
1.0
 40
1.0
 40
1.0
 10
-127.7876
 20
-108.0014
 30
0.0
 10
-126.7198
 20
-107.6436
 30
0.0
 10
-126.1298
 20
-106.8784
 30
0.0
 10
-125.8666
 20
-106.1589
 30
0.0
 10
-125.8666
 20
-106.1589
 30
0.0
 10
-128.4296
 20
-105.8625
 30
0.0
 10
-128.9911
 20
-103.5952
 30
0.0
 10
-127.899
 20
-101.0672
 30
0.0
 10
-127.899
 20
-101.0672
 30
0.0
 10
-126.9914
 20
-98.9663
 30
0.0
 10
-127.5533
 20
-97.3646
 30
0.0
 10
-127.8013
 20
-95.8542
 30
0.0
 10
-127.8013
 20
-95.8542
 30
0.0
 10
-126.4401
 20
-96.6699
 30
0.0
 10
-125.9743
 20
-97.5638
 30
0.0
 10
-125.5074
 20
-98.674
 30
0.0
 10
-125.5074
 20
-98.674
 30
0.0
 10
-125.0404
 20
-97.5638
 30
0.0
 10
-124.5746
 20
-96.6699
 30
0.0
 10
-123.2134
 20
-95.8542
 30
0.0
 10
-123.2134
 20
-95.8542
 30
0.0
 10
-123.4614
 20
-97.3646
 30
0.0
 10
-124.0233
 20
-98.9663
 30
0.0
 10
-123.1157
 20
-101.0672
 30
0.0
 10
-123.1157
 20
-101.0672
 30
0.0
 10
-122.0236
 20
-103.5952
 30
0.0
 10
-122.5852
 20
-105.8625
 30
0.0
 10
-125.1481
 20
-106.1589
 30
0.0
 10
-125.1481
 20
-106.1589
 30
0.0
 10
-124.8849
 20
-106.8784
 30
0.0
 10
-124.2949
 20
-107.6436
 30
0.0
 10
-123.2271
 20
-108.0014
 30
0.0
 10
-123.2271
 20
-108.0014
 30
0.0
 10
-123.9779
 20
-108.0014
 30
0.0
 10
-124.9938
 20
-108.0014
 30
0.0
 10
-125.5073
 20
-108.0014
 30
0.0
 10
-125.5073
 20
-108.0014
 30
0.0
 10
-126.0209
 20
-108.0014
 30
0.0
 10
-127.0367
 20
-108.0014
 30
0.0
 10
-127.7876
 20
-108.0014
 30
0.0
 10
-127.7876
 20
-108.0014
 30
0.0
 10
-127.7876
 20
-108.0014
 30
0.0
 10
-127.7876
 20
-108.0014
 30
0.0
 10
-127.7876
 20
-108.0014
 30
0.0
  0
SPLINE
  5
98
330
1F
100
AcDbEntity
  8
layer 1
 62
     7
100
AcDbSpline
210
0.0
220
0.0
230
1.0
 70
    11
 71
     3
 72
    44
 73
    40
 74
     0
 42
0.0000000001
 43
0.0000000001
 12
1.0
 22
0.0
 32
0.0
 13
1.0
 23
0.0
 33
0.0
 40
0.0
 40
0.0
 40
0.0
 40
0.0
 40
0.0909090909090909
 40
0.0909090909090909
 40
0.0909090909090909
 40
0.0909090909090909
 40
0.1818181818181818
 40
0.1818181818181818
 40
0.1818181818181818
 40
0.1818181818181818
 40
0.2727272727272727
 40
0.2727272727272727
 40
0.2727272727272727
 40
0.2727272727272727
 40
0.3636363636363636
 40
0.3636363636363636
 40
0.3636363636363636
 40
0.3636363636363636
 40
0.4545454545454545
 40
0.4545454545454545
 40
0.4545454545454545
 40
0.4545454545454545
 40
0.5454545454545454
 40
0.5454545454545454
 40
0.5454545454545454
 40
0.5454545454545454
 40
0.6363636363636364
 40
0.6363636363636364
 40
0.6363636363636364
 40
0.6363636363636364
 40
0.7272727272727273
 40
0.7272727272727273
 40
0.7272727272727273
 40
0.7272727272727273
 40
0.8181818181818182
 40
0.8181818181818182
 40
0.8181818181818182
 40
0.8181818181818182
 40
1.0
 40
1.0
 40
1.0
 40
1.0
 10
-130.6824
 20
2.9741
 30
0.0
 10
-131.7135
 20
2.6408
 30
0.0
 10
-132.3816
 20
0.268
 30
0.0
 10
-130.5304
 20
-1.6838
 30
0.0
 10
-130.5304
 20
-1.6838
 30
0.0
 10
-125.5233
 20
-9.5847
 30
0.0
 10
-128.1803
 20
-18.0189
 30
0.0
 10
-129.7585
 20
-19.8605
 30
0.0
 10
-129.7585
 20
-19.8605
 30
0.0
 10
-128.8797
 20
-21.2611
 30
0.0
 10
-128.0877
 20
-23.5477
 30
0.0
 10
-127.6787
 20
-25.3612
 30
0.0
 10
-127.6787
 20
-25.3612
 30
0.0
 10
-126.5873
 20
-24.6146
 30
0.0
 10
-126.0751
 20
-24.1314
 30
0.0
 10
-125.5074
 20
-23.0969
 30
0.0
 10
-125.5074
 20
-23.0969
 30
0.0
 10
-124.903
 20
-24.1314
 30
0.0
 10
-124.4276
 20
-24.6146
 30
0.0
 10
-123.3361
 20
-25.3612
 30
0.0
 10
-123.3361
 20
-25.3612
 30
0.0
 10
-122.9272
 20
-23.5478
 30
0.0
 10
-122.1351
 20
-21.2611
 30
0.0
 10
-121.2564
 20
-19.8605
 30
0.0
 10
-121.2564
 20
-19.8605
 30
0.0
 10
-122.8345
 20
-18.0189
 30
0.0
 10
-125.4915
 20
-9.5848
 30
0.0
 10
-120.4844
 20
-1.6838
 30
0.0
 10
-120.4844
 20
-1.6838
 30
0.0
 10
-118.6333
 20
0.268
 30
0.0
 10
-119.3014
 20
2.6408
 30
0.0
 10
-120.3325
 20
2.9741
 30
0.0
 10
-120.3325
 20
2.9741
 30
0.0
 10
-120.7844
 20
-0.4612
 30
0.0
 10
-124.603
 20
-0.707
 30
0.0
 10
-125.5074
 20
1.5542
 30
0.0
 10
-125.5074
 20
1.5542
 30
0.0
 10
-126.4118
 20
-0.7069
 30
0.0
 10
-130.2305
 20
-0.4612
 30
0.0
 10
-130.6824
 20
2.9741
 30
0.0
  0
SPLINE
  5
99
330
1F
100
AcDbEntity
  8
layer 1
 62
     7
100
AcDbSpline
210
0.0
220
0.0
230
1.0
 70
    11
 71
     3
 72
    16
 73
    12
 74
     0
 42
0.0000000001
 43
0.0000000001
 12
1.0
 22
0.0
 32
0.0
 13
1.0
 23
0.0
 33
0.0
 40
0.0
 40
0.0
 40
0.0
 40
0.0
 40
0.25
 40
0.25
 40
0.25
 40
0.25
 40
0.5
 40
0.5
 40
0.5
 40
0.5
 40
1.0
 40
1.0
 40
1.0
 40
1.0
 10
-132.5436
 20
-15.0111
 30
0.0
 10
-133.8327
 20
-12.6765
 30
0.0
 10
-137.6894
 20
-8.3355
 30
0.0
 10
-139.389
 20
-6.4631
 30
0.0
 10
-139.389
 20
-6.4631
 30
0.0
 10
-137.0634
 20
-6.8677
 30
0.0
 10
-134.8379
 20
-5.5627
 30
0.0
 10
-134.0983
 20
-3.3484
 30
0.0
 10
-134.0983
 20
-3.3484
 30
0.0
 10
-132.6878
 20
-5.49
 30
0.0
 10
-130.1568
 20
-9.2891
 30
0.0
 10
-132.5436
 20
-15.0111
 30
0.0
  0
SPLINE
  5
9A
330
1F
100
AcDbEntity
  8
layer 1
 62
     7
100
AcDbSpline
210
0.0
220
0.0
230
1.0
 70
    11
 71
     3
 72
    28
 73
    24
 74
     0
 42
0.0000000001
 43
0.0000000001
 12
1.0
 22
0.0
 32
0.0
 13
1.0
 23
0.0
 33
0.0
 40
0.0
 40
0.0
 40
0.0
 40
0.0
 40
0.1428571428571428
 40
0.1428571428571428
 40
0.1428571428571428
 40
0.1428571428571428
 40
0.2857142857142857
 40
0.2857142857142857
 40
0.2857142857142857
 40
0.2857142857142857
 40
0.4285714285714285
 40
0.4285714285714285
 40
0.4285714285714285
 40
0.4285714285714285
 40
0.5714285714285714
 40
0.5714285714285714
 40
0.5714285714285714
 40
0.5714285714285714
 40
0.7142857142857143
 40
0.7142857142857143
 40
0.7142857142857143
 40
0.7142857142857143
 40
1.0
 40
1.0
 40
1.0
 40
1.0
 10
-135.8689
 20
-19.1371
 30
0.0
 10
-138.6907
 20
-13.6638
 30
0.0
 10
-145.309
 20
-7.0242
 30
0.0
 10
-151.4603
 20
-3.2393
 30
0.0
 10
-151.4603
 20
-3.2393
 30
0.0
 10
-150.5846
 20
-5.0394
 30
0.0
 10
-151.069
 20
-7.1855
 30
0.0
 10
-151.9768
 20
-9.9465
 30
0.0
 10
-151.9768
 20
-9.9465
 30
0.0
 10
-147.4815
 20
-6.4091
 30
0.0
 10
-140.0352
 20
-10.3142
 30
0.0
 10
-141.7105
 20
-16.3075
 30
0.0
 10
-141.7105
 20
-16.3075
 30
0.0
 10
-145.7738
 20
-11.1014
 30
0.0
 10
-150.7629
 20
-15.7931
 30
0.0
 10
-148.9069
 20
-19.5048
 30
0.0
 10
-148.9069
 20
-19.5048
 30
0.0
 10
-145.6712
 20
-23.9815
 30
0.0
 10
-139.1898
 20
-22.8571
 30
0.0
 10
-135.869
 20
-19.1371
 30
0.0
 10
-135.869
 20
-19.1371
 30
0.0
 10
-135.869
 20
-19.1371
 30
0.0
 10
-135.8689
 20
-19.1371
 30
0.0
 10
-135.8689
 20
-19.1371
 30
0.0
  0
SPLINE
  5
9B
330
1F
100
AcDbEntity
  8
layer 1
 62
     7
100
AcDbSpline
210
0.0
220
0.0
230
1.0
 70
    11
 71
     3
 72
    20
 73
    16
 74
     0
 42
0.0000000001
 43
0.0000000001
 12
1.0
 22
0.0
 32
0.0
 13
1.0
 23
0.0
 33
0.0
 40
0.0
 40
0.0
 40
0.0
 40
0.0
 40
0.2
 40
0.2
 40
0.2
 40
0.2
 40
0.4
 40
0.4
 40
0.4
 40
0.4
 40
0.6
 40
0.6
 40
0.6
 40
0.6
 40
1.0
 40
1.0
 40
1.0
 40
1.0
 10
-150.653
 20
1.5787
 30
0.0
 10
-152.8321
 20
3.1638
 30
0.0
 10
-155.2368
 20
4.2493
 30
0.0
 10
-157.4047
 20
5.2552
 30
0.0
 10
-157.4047
 20
5.2552
 30
0.0
 10
-153.6271
 20
5.5064
 30
0.0
 10
-150.5818
 20
5.9917
 30
0.0
 10
-148.109
 20
6.7305
 30
0.0
 10
-148.109
 20
6.7305
 30
0.0
 10
-149.2046
 20
5.2681
 30
0.0
 10
-150.4208
 20
3.1786
 30
0.0
 10
-150.6529
 20
1.5787
 30
0.0
 10
-150.6529
 20
1.5787
 30
0.0
 10
-150.6529
 20
1.5787
 30
0.0
 10
-150.653
 20
1.5787
 30
0.0
 10
-150.653
 20
1.5787
 30
0.0
  0
SPLINE
  5
9C
330
1F
100
AcDbEntity
  8
layer 1
 62
     7
100
AcDbSpline
210
0.0
220
0.0
230
1.0
 70
    11
 71
     3
 72
    28
 73
    24
 74
     0
 42
0.0000000001
 43
0.0000000001
 12
1.0
 22
0.0
 32
0.0
 13
1.0
 23
0.0
 33
0.0
 40
0.0
 40
0.0
 40
0.0
 40
0.0
 40
0.1428571428571428
 40
0.1428571428571428
 40
0.1428571428571428
 40
0.1428571428571428
 40
0.2857142857142857
 40
0.2857142857142857
 40
0.2857142857142857
 40
0.2857142857142857
 40
0.4285714285714285
 40
0.4285714285714285
 40
0.4285714285714285
 40
0.4285714285714285
 40
0.5714285714285714
 40
0.5714285714285714
 40
0.5714285714285714
 40
0.5714285714285714
 40
0.7142857142857143
 40
0.7142857142857143
 40
0.7142857142857143
 40
0.7142857142857143
 40
1.0
 40
1.0
 40
1.0
 40
1.0
 10
-162.2427
 20
-4.2824
 30
0.0
 10
-165.3721
 20
-0.5785
 30
0.0
 10
-172.0219
 20
3.6749
 30
0.0
 10
-173.9265
 20
4.5585
 30
0.0
 10
-173.9265
 20
4.5585
 30
0.0
 10
-168.4698
 20
3.9348
 30
0.0
 10
-160.8842
 20
2.0552
 30
0.0
 10
-157.1344
 20
0.1218
 30
0.0
 10
-157.1344
 20
0.1218
 30
0.0
 10
-157.5936
 20
-0.0338
 30
0.0
 10
-158.0081
 20
-0.2038
 30
0.0
 10
-158.4621
 20
-0.6197
 30
0.0
 10
-158.4621
 20
-0.6197
 30
0.0
 10
-156.0519
 20
-1.3369
 30
0.0
 10
-155.9155
 20
-3.5951
 30
0.0
 10
-156.8317
 20
-4.9622
 30
0.0
 10
-156.8317
 20
-4.9622
 30
0.0
 10
-158.1138
 20
-6.8751
 30
0.0
 10
-160.7073
 20
-6.3715
 30
0.0
 10
-162.2426
 20
-4.2824
 30
0.0
 10
-162.2426
 20
-4.2824
 30
0.0
 10
-162.2426
 20
-4.2824
 30
0.0
 10
-162.2427
 20
-4.2824
 30
0.0
 10
-162.2427
 20
-4.2824
 30
0.0
  0
SPLINE
  5
9D
330
1F
100
AcDbEntity
  8
layer 1
 62
     7
100
AcDbSpline
210
0.0
220
0.0
230
1.0
 70
    11
 71
     3
 72
    24
 73
    20
 74
     0
 42
0.0000000001
 43
0.0000000001
 12
1.0
 22
0.0
 32
0.0
 13
1.0
 23
0.0
 33
0.0
 40
0.0
 40
0.0
 40
0.0
 40
0.0
 40
0.1666666666666667
 40
0.1666666666666667
 40
0.1666666666666667
 40
0.1666666666666667
 40
0.3333333333333333
 40
0.3333333333333333
 40
0.3333333333333333
 40
0.3333333333333333
 40
0.5
 40
0.5
 40
0.5
 40
0.5
 40
0.6666666666666666
 40
0.6666666666666666
 40
0.6666666666666666
 40
0.6666666666666666
 40
1.0
 40
1.0
 40
1.0
 40
1.0
 10
-163.108
 20
-19.109
 30
0.0
 10
-166.8377
 20
-17.6563
 30
0.0
 10
-163.8224
 20
-14.4235
 30
0.0
 10
-164.5563
 20
-10.4182
 30
0.0
 10
-164.5563
 20
-10.4182
 30
0.0
 10
-162.7016
 20
-12.2426
 30
0.0
 10
-159.9185
 20
-13.1316
 30
0.0
 10
-155.6885
 20
-12.9939
 30
0.0
 10
-155.6885
 20
-12.9939
 30
0.0
 10
-156.658
 20
-13.6598
 30
0.0
 10
-157.5528
 20
-15.6007
 30
0.0
 10
-157.3763
 20
-17.3973
 30
0.0
 10
-157.3763
 20
-17.3973
 30
0.0
 10
-158.1478
 20
-16.3437
 30
0.0
 10
-158.8519
 20
-15.9905
 30
0.0
 10
-159.8882
 20
-15.8267
 30
0.0
 10
-159.8882
 20
-15.8267
 30
0.0
 10
-159.2512
 20
-18.3486
 30
0.0
 10
-161.2424
 20
-19.8174
 30
0.0
 10
-163.108
 20
-19.109
 30
0.0
  0
SPLINE
  5
9E
330
1F
100
AcDbEntity
  8
layer 1
 62
     7
100
AcDbSpline
210
0.0
220
0.0
230
1.0
 70
    11
 71
     3
 72
    28
 73
    24
 74
     0
 42
0.0000000001
 43
0.0000000001
 12
1.0
 22
0.0
 32
0.0
 13
1.0
 23
0.0
 33
0.0
 40
0.0
 40
0.0
 40
0.0
 40
0.0
 40
0.1428571428571428
 40
0.1428571428571428
 40
0.1428571428571428
 40
0.1428571428571428
 40
0.2857142857142857
 40
0.2857142857142857
 40
0.2857142857142857
 40
0.2857142857142857
 40
0.4285714285714285
 40
0.4285714285714285
 40
0.4285714285714285
 40
0.4285714285714285
 40
0.5714285714285714
 40
0.5714285714285714
 40
0.5714285714285714
 40
0.5714285714285714
 40
0.7142857142857143
 40
0.7142857142857143
 40
0.7142857142857143
 40
0.7142857142857143
 40
1.0
 40
1.0
 40
1.0
 40
1.0
 10
-181.1693
 20
-8.4894
 30
0.0
 10
-181.1693
 20
-8.4894
 30
0.0
 10
-181.1693
 20
5.1541
 30
0.0
 10
-181.1693
 20
5.1541
 30
0.0
 10
-181.1693
 20
5.1541
 30
0.0
 10
-174.7821
 20
2.6993
 30
0.0
 10
-172.1191
 20
-3.0523
 30
0.0
 10
-171.521
 20
-5.9762
 30
0.0
 10
-171.521
 20
-5.9762
 30
0.0
 10
-171.2298
 20
-8.0828
 30
0.0
 10
-172.1246
 20
-10.1138
 30
0.0
 10
-174.2894
 20
-9.9293
 30
0.0
 10
-174.2894
 20
-9.9293
 30
0.0
 10
-176.5918
 20
-9.8962
 30
0.0
 10
-177.4171
 20
-7.6269
 30
0.0
 10
-175.4806
 20
-6.1375
 30
0.0
 10
-175.4806
 20
-6.1375
 30
0.0
 10
-178.2041
 20
-4.5962
 30
0.0
 10
-181.1693
 20
-6.8345
 30
0.0
 10
-181.1693
 20
-8.4893
 30
0.0
 10
-181.1693
 20
-8.4893
 30
0.0
 10
-181.1693
 20
-8.4893
 30
0.0
 10
-181.1693
 20
-8.4894
 30
0.0
 10
-181.1693
 20
-8.4894
 30
0.0
  0
SPLINE
  5
9F
330
1F
100
AcDbEntity
  8
layer 1
 62
     7
100
AcDbSpline
210
0.0
220
0.0
230
1.0
 70
    11
 71
     3
 72
    16
 73
    12
 74
     0
 42
0.0000000001
 43
0.0000000001
 12
1.0
 22
0.0
 32
0.0
 13
1.0
 23
0.0
 33
0.0
 40
0.0
 40
0.0
 40
0.0
 40
0.0
 40
0.25
 40
0.25
 40
0.25
 40
0.25
 40
0.5
 40
0.5
 40
0.5
 40
0.5
 40
1.0
 40
1.0
 40
1.0
 40
1.0
 10
-181.1693
 20
-26.1651
 30
0.0
 10
-181.1693
 20
-26.1651
 30
0.0
 10
-181.1693
 20
-12.9735
 30
0.0
 10
-181.1693
 20
-12.9735
 30
0.0
 10
-181.1693
 20
-12.9735
 30
0.0
 10
-178.8624
 20
-16.4743
 30
0.0
 10
-173.2358
 20
-18.4803
 30
0.0
 10
-168.9921
 20
-13.4492
 30
0.0
 10
-168.9921
 20
-13.4492
 30
0.0
 10
-169.9676
 20
-21.6052
 30
0.0
 10
-179.1962
 20
-21.3534
 30
0.0
 10
-181.1693
 20
-26.1651
 30
0.0
  0
SPLINE
  5
A0
330
1F
100
AcDbEntity
  8
layer 1
 62
     7
100
AcDbSpline
210
0.0
220
0.0
230
1.0
 70
    11
 71
     3
 72
    24
 73
    20
 74
     0
 42
0.0000000001
 43
0.0000000001
 12
1.0
 22
0.0
 32
0.0
 13
1.0
 23
0.0
 33
0.0
 40
0.0
 40
0.0
 40
0.0
 40
0.0
 40
0.1666666666666667
 40
0.1666666666666667
 40
0.1666666666666667
 40
0.1666666666666667
 40
0.3333333333333333
 40
0.3333333333333333
 40
0.3333333333333333
 40
0.3333333333333333
 40
0.5
 40
0.5
 40
0.5
 40
0.5
 40
0.6666666666666666
 40
0.6666666666666666
 40
0.6666666666666666
 40
0.6666666666666666
 40
1.0
 40
1.0
 40
1.0
 40
1.0
 10
-181.1693
 20
-38.1715
 30
0.0
 10
-181.1693
 20
-38.1715
 30
0.0
 10
-181.1693
 20
-28.3279
 30
0.0
 10
-181.1693
 20
-28.3279
 30
0.0
 10
-181.1693
 20
-28.3279
 30
0.0
 10
-177.4014
 20
-30.246
 30
0.0
 10
-171.9575
 20
-27.9605
 30
0.0
 10
-168.6269
 20
-22.6859
 30
0.0
 10
-168.6269
 20
-22.6859
 30
0.0
 10
-170.3945
 20
-26.346
 30
0.0
 10
-171.5874
 20
-32.7179
 30
0.0
 10
-171.3714
 20
-34.298
 30
0.0
 10
-171.3714
 20
-34.298
 30
0.0
 10
-173.8755
 20
-33.3466
 30
0.0
 10
-179.5427
 20
-35.5423
 30
0.0
 10
-181.1694
 20
-38.1715
 30
0.0
 10
-181.1694
 20
-38.1715
 30
0.0
 10
-181.1694
 20
-38.1715
 30
0.0
 10
-181.1693
 20
-38.1715
 30
0.0
 10
-181.1693
 20
-38.1715
 30
0.0
  0
SPLINE
  5
A1
330
1F
100
AcDbEntity
  8
layer 1
 62
     7
100
AcDbSpline
210
0.0
220
0.0
230
1.0
 70
    11
 71
     3
 72
    32
 73
    28
 74
     0
 42
0.0000000001
 43
0.0000000001
 12
1.0
 22
0.0
 32
0.0
 13
1.0
 23
0.0
 33
0.0
 40
0.0
 40
0.0
 40
0.0
 40
0.0
 40
0.125
 40
0.125
 40
0.125
 40
0.125
 40
0.25
 40
0.25
 40
0.25
 40
0.25
 40
0.375
 40
0.375
 40
0.375
 40
0.375
 40
0.5
 40
0.5
 40
0.5
 40
0.5
 40
0.625
 40
0.625
 40
0.625
 40
0.625
 40
0.75
 40
0.75
 40
0.75
 40
0.75
 40
1.0
 40
1.0
 40
1.0
 40
1.0
 10
-133.8792
 20
-28.998
 30
0.0
 10
-133.3945
 20
-32.7192
 30
0.0
 10
-136.7115
 20
-33.3448
 30
0.0
 10
-138.2221
 20
-32.0625
 30
0.0
 10
-138.2221
 20
-32.0625
 30
0.0
 10
-139.1181
 20
-31.3019
 30
0.0
 10
-139.5689
 20
-29.3131
 30
0.0
 10
-138.2378
 20
-27.7287
 30
0.0
 10
-138.2378
 20
-27.7287
 30
0.0
 10
-136.8196
 20
-26.0606
 30
0.0
 10
-135.8191
 20
-24.585
 30
0.0
 10
-133.8446
 20
-22.9921
 30
0.0
 10
-133.8446
 20
-22.9921
 30
0.0
 10
-131.4672
 20
-26.8957
 30
0.0
 10
-129.9973
 20
-34.4756
 30
0.0
 10
-130.4757
 20
-37.8728
 30
0.0
 10
-130.4757
 20
-37.8728
 30
0.0
 10
-131.5019
 20
-37.6559
 30
0.0
 10
-132.3152
 20
-37.6302
 30
0.0
 10
-133.6788
 20
-37.5027
 30
0.0
 10
-133.6788
 20
-37.5027
 30
0.0
 10
-129.2583
 20
-34.2038
 30
0.0
 10
-132.0499
 20
-28.8332
 30
0.0
 10
-133.8791
 20
-28.998
 30
0.0
 10
-133.8791
 20
-28.998
 30
0.0
 10
-133.8791
 20
-28.998
 30
0.0
 10
-133.8792
 20
-28.998
 30
0.0
 10
-133.8792
 20
-28.998
 30
0.0
  0
SPLINE
  5
A2
330
1F
100
AcDbEntity
  8
layer 1
 62
     7
100
AcDbSpline
210
0.0
220
0.0
230
1.0
 70
    11
 71
     3
 72
    16
 73
    12
 74
     0
 42
0.0000000001
 43
0.0000000001
 12
1.0
 22
0.0
 32
0.0
 13
1.0
 23
0.0
 33
0.0
 40
0.0
 40
0.0
 40
0.0
 40
0.0
 40
0.25
 40
0.25
 40
0.25
 40
0.25
 40
0.5
 40
0.5
 40
0.5
 40
0.5
 40
1.0
 40
1.0
 40
1.0
 40
1.0
 10
-181.1693
 20
-95.6362
 30
0.0
 10
-181.1693
 20
-91.1951
 30
0.0
 10
-181.1693
 20
-90.3116
 30
0.0
 10
-181.1693
 20
-86.523
 30
0.0
 10
-181.1693
 20
-86.523
 30
0.0
 10
-180.0685
 20
-87.7099
 30
0.0
 10
-179.2341
 20
-89.2296
 30
0.0
 10
-179.1417
 20
-91.4412
 30
0.0
 10
-179.1417
 20
-91.4412
 30
0.0
 10
-179.265
 20
-93.8532
 30
0.0
 10
-180.4254
 20
-95.1221
 30
0.0
 10
-181.1693
 20
-95.6362
 30
0.0
  0
SPLINE
  5
A3
330
1F
100
AcDbEntity
  8
layer 1
 62
     7
100
AcDbSpline
210
0.0
220
0.0
230
1.0
 70
    11
 71
     3
 72
    16
 73
    12
 74
     0
 42
0.0000000001
 43
0.0000000001
 12
1.0
 22
0.0
 32
0.0
 13
1.0
 23
0.0
 33
0.0
 40
0.0
 40
0.0
 40
0.0
 40
0.0
 40
0.25
 40
0.25
 40
0.25
 40
0.25
 40
0.5
 40
0.5
 40
0.5
 40
0.5
 40
1.0
 40
1.0
 40
1.0
 40
1.0
 10
-181.1693
 20
-100.8377
 30
0.0
 10
-181.1693
 20
-101.6305
 30
0.0
 10
-181.1693
 20
-103.5065
 30
0.0
 10
-181.1693
 20
-104.3563
 30
0.0
 10
-181.1693
 20
-104.3563
 30
0.0
 10
-180.5106
 20
-103.8751
 30
0.0
 10
-180.014
 20
-103.8861
 30
0.0
 10
-179.3827
 20
-103.8019
 30
0.0
 10
-179.3827
 20
-103.8019
 30
0.0
 10
-180.2521
 20
-102.965
 30
0.0
 10
-180.7851
 20
-102.2652
 30
0.0
 10
-181.1693
 20
-100.8377
 30
0.0
  0
SPLINE
  5
A4
330
1F
100
AcDbEntity
  8
layer 1
 62
     7
100
AcDbSpline
210
0.0
220
0.0
230
1.0
 70
    11
 71
     3
 72
    16
 73
    12
 74
     0
 42
0.0000000001
 43
0.0000000001
 12
1.0
 22
0.0
 32
0.0
 13
1.0
 23
0.0
 33
0.0
 40
0.0
 40
0.0
 40
0.0
 40
0.0
 40
0.25
 40
0.25
 40
0.25
 40
0.25
 40
0.5
 40
0.5
 40
0.5
 40
0.5
 40
1.0
 40
1.0
 40
1.0
 40
1.0
 10
-181.1693
 20
-75.3439
 30
0.0
 10
-181.1693
 20
-70.9028
 30
0.0
 10
-181.1693
 20
-71.5061
 30
0.0
 10
-181.1693
 20
-67.7175
 30
0.0
 10
-181.1693
 20
-67.7175
 30
0.0
 10
-180.2385
 20
-69.6903
 30
0.0
 10
-178.9156
 20
-71.4436
 30
0.0
 10
-177.6124
 20
-72.7208
 30
0.0
 10
-177.6124
 20
-72.7208
 30
0.0
 10
-178.7128
 20
-73.2
 30
0.0
 10
-180.298
 20
-74.1715
 30
0.0
 10
-181.1693
 20
-75.3439
 30
0.0
  0
SPLINE
  5
A5
330
1F
100
AcDbEntity
  8
layer 1
 62
     7
100
AcDbSpline
210
0.0
220
0.0
230
1.0
 70
    11
 71
     3
 72
    16
 73
    12
 74
     0
 42
0.0000000001
 43
0.0000000001
 12
1.0
 22
0.0
 32
0.0
 13
1.0
 23
0.0
 33
0.0
 40
0.0
 40
0.0
 40
0.0
 40
0.0
 40
0.25
 40
0.25
 40
0.25
 40
0.25
 40
0.5
 40
0.5
 40
0.5
 40
0.5
 40
1.0
 40
1.0
 40
1.0
 40
1.0
 10
-181.1693
 20
-41.7921
 30
0.0
 10
-181.1693
 20
-42.585
 30
0.0
 10
-181.1693
 20
-44.8017
 30
0.0
 10
-181.1693
 20
-45.6516
 30
0.0
 10
-181.1693
 20
-45.6516
 30
0.0
 10
-180.7727
 20
-44.9345
 30
0.0
 10
-180.6169
 20
-44.6571
 30
0.0
 10
-180.2477
 20
-44.3107
 30
0.0
 10
-180.2477
 20
-44.3107
 30
0.0
 10
-180.7239
 20
-43.6835
 30
0.0
 10
-180.8637
 20
-42.9576
 30
0.0
 10
-181.1693
 20
-41.7921
 30
0.0
  0
SPLINE
  5
A6
330
1F
100
AcDbEntity
  8
layer 1
 62
     7
100
AcDbSpline
210
0.0
220
0.0
230
1.0
 70
    11
 71
     3
 72
    52
 73
    48
 74
     0
 42
0.0000000001
 43
0.0000000001
 12
1.0
 22
0.0
 32
0.0
 13
1.0
 23
0.0
 33
0.0
 40
0.0
 40
0.0
 40
0.0
 40
0.0
 40
0.0769230769230769
 40
0.0769230769230769
 40
0.0769230769230769
 40
0.0769230769230769
 40
0.1538461538461539
 40
0.1538461538461539
 40
0.1538461538461539
 40
0.1538461538461539
 40
0.2307692307692308
 40
0.2307692307692308
 40
0.2307692307692308
 40
0.2307692307692308
 40
0.3076923076923077
 40
0.3076923076923077
 40
0.3076923076923077
 40
0.3076923076923077
 40
0.3846153846153846
 40
0.3846153846153846
 40
0.3846153846153846
 40
0.3846153846153846
 40
0.4615384615384616
 40
0.4615384615384616
 40
0.4615384615384616
 40
0.4615384615384616
 40
0.5384615384615384
 40
0.5384615384615384
 40
0.5384615384615384
 40
0.5384615384615384
 40
0.6153846153846154
 40
0.6153846153846154
 40
0.6153846153846154
 40
0.6153846153846154
 40
0.6923076923076923
 40
0.6923076923076923
 40
0.6923076923076923
 40
0.6923076923076923
 40
0.7692307692307693
 40
0.7692307692307693
 40
0.7692307692307693
 40
0.7692307692307693
 40
0.8461538461538461
 40
0.8461538461538461
 40
0.8461538461538461
 40
0.8461538461538461
 40
1.0
 40
1.0
 40
1.0
 40
1.0
 10
-165.278
 20
-23.9271
 30
0.0
 10
-163.0219
 20
-26.3668
 30
0.0
 10
-157.4552
 20
-25.5218
 30
0.0
 10
-156.8154
 20
-20.1427
 30
0.0
 10
-156.8154
 20
-20.1427
 30
0.0
 10
-155.8438
 20
-23.7661
 30
0.0
 10
-151.4906
 20
-25.1458
 30
0.0
 10
-148.34
 20
-25.2371
 30
0.0
 10
-148.34
 20
-25.2371
 30
0.0
 10
-147.5206
 20
-25.3033
 30
0.0
 10
-147.3544
 20
-26.073
 30
0.0
 10
-148.4553
 20
-26.229
 30
0.0
 10
-148.4553
 20
-26.229
 30
0.0
 10
-152.1978
 20
-24.9969
 30
0.0
 10
-156.7279
 20
-26.3982
 30
0.0
 10
-159.041
 20
-27.7841
 30
0.0
 10
-159.041
 20
-27.7841
 30
0.0
 10
-161.4555
 20
-29.2306
 30
0.0
 10
-163.0074
 20
-29.1496
 30
0.0
 10
-166.0557
 20
-29.6732
 30
0.0
 10
-166.0557
 20
-29.6732
 30
0.0
 10
-163.0729
 20
-35.456
 30
0.0
 10
-151.6863
 20
-38.1512
 30
0.0
 10
-146.3973
 20
-29.5521
 30
0.0
 10
-146.3973
 20
-29.5521
 30
0.0
 10
-145.8528
 20
-28.4912
 30
0.0
 10
-144.7954
 20
-29.2083
 30
0.0
 10
-145.6985
 20
-30.2532
 30
0.0
 10
-145.6985
 20
-30.2532
 30
0.0
 10
-148.4457
 20
-34.923
 30
0.0
 10
-143.9605
 20
-37.9728
 30
0.0
 10
-141.6155
 20
-38.4092
 30
0.0
 10
-141.6155
 20
-38.4092
 30
0.0
 10
-145.2656
 20
-39.5203
 30
0.0
 10
-149.7188
 20
-41.299
 30
0.0
 10
-151.2585
 20
-42.8551
 30
0.0
 10
-151.2585
 20
-42.8551
 30
0.0
 10
-157.5238
 20
-39.8936
 30
0.0
 10
-156.5514
 20
-35.7843
 30
0.0
 10
-162.2218
 20
-35.2005
 30
0.0
 10
-162.2218
 20
-35.2005
 30
0.0
 10
-163.8418
 20
-42.0401
 30
0.0
 10
-171.2628
 20
-31.6026
 30
0.0
 10
-165.278
 20
-23.927
 30
0.0
 10
-165.278
 20
-23.927
 30
0.0
 10
-165.278
 20
-23.927
 30
0.0
 10
-165.278
 20
-23.9271
 30
0.0
 10
-165.278
 20
-23.9271
 30
0.0
  0
SPLINE
  5
A7
330
1F
100
AcDbEntity
  8
layer 1
 62
     7
100
AcDbSpline
210
0.0
220
0.0
230
1.0
 70
    11
 71
     3
 72
    32
 73
    28
 74
     0
 42
0.0000000001
 43
0.0000000001
 12
1.0
 22
0.0
 32
0.0
 13
1.0
 23
0.0
 33
0.0
 40
0.0
 40
0.0
 40
0.0
 40
0.0
 40
0.125
 40
0.125
 40
0.125
 40
0.125
 40
0.25
 40
0.25
 40
0.25
 40
0.25
 40
0.375
 40
0.375
 40
0.375
 40
0.375
 40
0.5
 40
0.5
 40
0.5
 40
0.5
 40
0.625
 40
0.625
 40
0.625
 40
0.625
 40
0.75
 40
0.75
 40
0.75
 40
0.75
 40
1.0
 40
1.0
 40
1.0
 40
1.0
 10
-148.0575
 20
0.2754
 30
0.0
 10
-146.6139
 20
0.0923
 30
0.0
 10
-145.6267
 20
-0.1131
 30
0.0
 10
-144.4446
 20
-0.0298
 30
0.0
 10
-144.4446
 20
-0.0298
 30
0.0
 10
-143.8582
 20
3.3479
 30
0.0
 10
-139.3364
 20
7.3675
 30
0.0
 10
-133.2544
 20
6.7374
 30
0.0
 10
-133.2544
 20
6.7374
 30
0.0
 10
-134.7493
 20
5.5897
 30
0.0
 10
-136.2728
 20
4.3484
 30
0.0
 10
-135.9127
 20
1.2407
 30
0.0
 10
-135.9127
 20
1.2407
 30
0.0
 10
-135.3518
 20
-3.5998
 30
0.0
 10
-141.1302
 20
-3.3106
 30
0.0
 10
-140.3898
 20
0.6912
 30
0.0
 10
-140.3898
 20
0.6912
 30
0.0
 10
-142.1867
 20
-0.2547
 30
0.0
 10
-142.9193
 20
-2.2843
 30
0.0
 10
-142.4636
 20
-3.9942
 30
0.0
 10
-142.4636
 20
-3.9942
 30
0.0
 10
-144.7515
 20
-2.3553
 30
0.0
 10
-145.7446
 20
-1.6537
 30
0.0
 10
-148.0574
 20
0.2753
 30
0.0
 10
-148.0574
 20
0.2753
 30
0.0
 10
-148.0574
 20
0.2753
 30
0.0
 10
-148.0575
 20
0.2754
 30
0.0
 10
-148.0575
 20
0.2754
 30
0.0
  0
SPLINE
  5
A8
330
1F
100
AcDbEntity
  8
layer 1
 62
     7
100
AcDbSpline
210
0.0
220
0.0
230
1.0
 70
    11
 71
     3
 72
    52
 73
    48
 74
     0
 42
0.0000000001
 43
0.0000000001
 12
1.0
 22
0.0
 32
0.0
 13
1.0
 23
0.0
 33
0.0
 40
0.0
 40
0.0
 40
0.0
 40
0.0
 40
0.0769230769230769
 40
0.0769230769230769
 40
0.0769230769230769
 40
0.0769230769230769
 40
0.1538461538461539
 40
0.1538461538461539
 40
0.1538461538461539
 40
0.1538461538461539
 40
0.2307692307692308
 40
0.2307692307692308
 40
0.2307692307692308
 40
0.2307692307692308
 40
0.3076923076923077
 40
0.3076923076923077
 40
0.3076923076923077
 40
0.3076923076923077
 40
0.3846153846153846
 40
0.3846153846153846
 40
0.3846153846153846
 40
0.3846153846153846
 40
0.4615384615384616
 40
0.4615384615384616
 40
0.4615384615384616
 40
0.4615384615384616
 40
0.5384615384615384
 40
0.5384615384615384
 40
0.5384615384615384
 40
0.5384615384615384
 40
0.6153846153846154
 40
0.6153846153846154
 40
0.6153846153846154
 40
0.6153846153846154
 40
0.6923076923076923
 40
0.6923076923076923
 40
0.6923076923076923
 40
0.6923076923076923
 40
0.7692307692307693
 40
0.7692307692307693
 40
0.7692307692307693
 40
0.7692307692307693
 40
0.8461538461538461
 40
0.8461538461538461
 40
0.8461538461538461
 40
0.8461538461538461
 40
1.0
 40
1.0
 40
1.0
 40
1.0
 10
-181.1693
 20
-52.6183
 30
0.0
 10
-181.1693
 20
-50.8855
 30
0.0
 10
-180.1905
 20
-48.0786
 30
0.0
 10
-178.3574
 20
-46.5184
 30
0.0
 10
-178.3574
 20
-46.5184
 30
0.0
 10
-174.8597
 20
-47.2591
 30
0.0
 10
-171.7572
 20
-45.2499
 30
0.0
 10
-172.5328
 20
-40.8838
 30
0.0
 10
-172.5328
 20
-40.8838
 30
0.0
 10
-172.8695
 20
-39.8277
 30
0.0
 10
-172.743
 20
-36.88
 30
0.0
 10
-170.8504
 20
-35.663
 30
0.0
 10
-170.8504
 20
-35.663
 30
0.0
 10
-167.7164
 20
-45.1387
 30
0.0
 10
-159.8515
 20
-45.7071
 30
0.0
 10
-154.6627
 20
-45.5109
 30
0.0
 10
-154.6627
 20
-45.5109
 30
0.0
 10
-156.1911
 20
-46.9959
 30
0.0
 10
-156.7461
 20
-47.8438
 30
0.0
 10
-159.663
 20
-51.3933
 30
0.0
 10
-159.663
 20
-51.3933
 30
0.0
 10
-161.4501
 20
-53.5678
 30
0.0
 10
-167.7051
 20
-51.2493
 30
0.0
 10
-164.3631
 20
-46.6405
 30
0.0
 10
-164.3631
 20
-46.6405
 30
0.0
 10
-166.0598
 20
-44.8253
 30
0.0
 10
-172.7877
 20
-45.3568
 30
0.0
 10
-173.4865
 20
-51.2492
 30
0.0
 10
-173.4865
 20
-51.2492
 30
0.0
 10
-174.2504
 20
-49.3833
 30
0.0
 10
-175.0547
 20
-48.289
 30
0.0
 10
-175.8069
 20
-47.8746
 30
0.0
 10
-175.8069
 20
-47.8746
 30
0.0
 10
-175.6859
 20
-49.2234
 30
0.0
 10
-176.6351
 20
-50.5121
 30
0.0
 10
-178.3659
 20
-52.5083
 30
0.0
 10
-178.3659
 20
-52.5083
 30
0.0
 10
-181.1693
 20
-54.7767
 30
0.0
 10
-181.1693
 20
-58.216
 30
0.0
 10
-179.7567
 20
-59.923
 30
0.0
 10
-179.7567
 20
-59.923
 30
0.0
 10
-180.1851
 20
-60.7857
 30
0.0
 10
-180.6313
 20
-61.3056
 30
0.0
 10
-181.1693
 20
-62.332
 30
0.0
 10
-181.1693
 20
-62.332
 30
0.0
 10
-181.1693
 20
-58.7558
 30
0.0
 10
-181.1693
 20
-55.9162
 30
0.0
 10
-181.1693
 20
-52.6183
 30
0.0
  0
SPLINE
  5
A9
330
1F
100
AcDbEntity
  8
layer 1
 62
     7
100
AcDbSpline
210
0.0
220
0.0
230
1.0
 70
    11
 71
     3
 72
   128
 73
   124
 74
     0
 42
0.0000000001
 43
0.0000000001
 12
1.0
 22
0.0
 32
0.0
 13
1.0
 23
0.0
 33
0.0
 40
0.0
 40
0.0
 40
0.0
 40
0.0
 40
0.03125
 40
0.03125
 40
0.03125
 40
0.03125
 40
0.0625
 40
0.0625
 40
0.0625
 40
0.0625
 40
0.09375
 40
0.09375
 40
0.09375
 40
0.09375
 40
0.125
 40
0.125
 40
0.125
 40
0.125
 40
0.15625
 40
0.15625
 40
0.15625
 40
0.15625
 40
0.1875
 40
0.1875
 40
0.1875
 40
0.1875
 40
0.21875
 40
0.21875
 40
0.21875
 40
0.21875
 40
0.25
 40
0.25
 40
0.25
 40
0.25
 40
0.28125
 40
0.28125
 40
0.28125
 40
0.28125
 40
0.3125
 40
0.3125
 40
0.3125
 40
0.3125
 40
0.34375
 40
0.34375
 40
0.34375
 40
0.34375
 40
0.375
 40
0.375
 40
0.375
 40
0.375
 40
0.40625
 40
0.40625
 40
0.40625
 40
0.40625
 40
0.4375
 40
0.4375
 40
0.4375
 40
0.4375
 40
0.46875
 40
0.46875
 40
0.46875
 40
0.46875
 40
0.5
 40
0.5
 40
0.5
 40
0.5
 40
0.53125
 40
0.53125
 40
0.53125
 40
0.53125
 40
0.5625
 40
0.5625
 40
0.5625
 40
0.5625
 40
0.59375
 40
0.59375
 40
0.59375
 40
0.59375
 40
0.625
 40
0.625
 40
0.625
 40
0.625
 40
0.65625
 40
0.65625
 40
0.65625
 40
0.65625
 40
0.6875
 40
0.6875
 40
0.6875
 40
0.6875
 40
0.71875
 40
0.71875
 40
0.71875
 40
0.71875
 40
0.75
 40
0.75
 40
0.75
 40
0.75
 40
0.78125
 40
0.78125
 40
0.78125
 40
0.78125
 40
0.8125
 40
0.8125
 40
0.8125
 40
0.8125
 40
0.84375
 40
0.84375
 40
0.84375
 40
0.84375
 40
0.875
 40
0.875
 40
0.875
 40
0.875
 40
0.90625
 40
0.90625
 40
0.90625
 40
0.90625
 40
0.9375
 40
0.9375
 40
0.9375
 40
0.9375
 40
1.0
 40
1.0
 40
1.0
 40
1.0
 10
-178.1307
 20
-62.6643
 30
0.0
 10
-175.7718
 20
-63.2903
 30
0.0
 10
-170.6394
 20
-60.3808
 30
0.0
 10
-171.2165
 20
-55.59
 30
0.0
 10
-171.2165
 20
-55.59
 30
0.0
 10
-167.7188
 20
-58.3922
 30
0.0
 10
-159.7448
 20
-59.5957
 30
0.0
 10
-154.7773
 20
-51.6989
 30
0.0
 10
-154.7773
 20
-51.6989
 30
0.0
 10
-154.2368
 20
-50.7463
 30
0.0
 10
-152.9574
 20
-51.0823
 30
0.0
 10
-153.6361
 20
-52.2577
 30
0.0
 10
-153.6361
 20
-52.2577
 30
0.0
 10
-153.5866
 20
-52.2723
 30
0.0
 10
-158.9802
 20
-56.6222
 30
0.0
 10
-158.6411
 20
-61.0232
 30
0.0
 10
-158.6411
 20
-61.0232
 30
0.0
 10
-158.4558
 20
-63.4272
 30
0.0
 10
-160.3685
 20
-66.879
 30
0.0
 10
-163.4562
 20
-66.8804
 30
0.0
 10
-163.4562
 20
-66.8804
 30
0.0
 10
-158.8233
 20
-72.9192
 30
0.0
 10
-145.5902
 20
-67.5046
 30
0.0
 10
-150.4074
 20
-55.8984
 30
0.0
 10
-150.4074
 20
-55.8984
 30
0.0
 10
-150.806
 20
-54.7122
 30
0.0
 10
-149.4245
 20
-53.7842
 30
0.0
 10
-149.2871
 20
-55.1161
 30
0.0
 10
-149.2871
 20
-55.1161
 30
0.0
 10
-150.2337
 20
-63.4807
 30
0.0
 10
-141.967
 20
-61.3881
 30
0.0
 10
-143.4066
 20
-56.9416
 30
0.0
 10
-143.4066
 20
-56.9416
 30
0.0
 10
-144.4129
 20
-53.6663
 30
0.0
 10
-146.0646
 20
-54.1696
 30
0.0
 10
-145.5102
 20
-50.3341
 30
0.0
 10
-145.5102
 20
-50.3341
 30
0.0
 10
-144.2299
 20
-44.6031
 30
0.0
 10
-136.1885
 20
-40.6919
 30
0.0
 10
-130.6114
 20
-42.3578
 30
0.0
 10
-130.6114
 20
-42.3578
 30
0.0
 10
-130.1292
 20
-42.3118
 30
0.0
 10
-131.5029
 20
-48.4294
 30
0.0
 10
-134.0513
 20
-50.9206
 30
0.0
 10
-134.0513
 20
-50.9206
 30
0.0
 10
-136.2725
 20
-53.0921
 30
0.0
 10
-139.7434
 20
-52.0154
 30
0.0
 10
-139.0687
 20
-48.026
 30
0.0
 10
-139.0687
 20
-48.026
 30
0.0
 10
-144.2628
 20
-48.3069
 30
0.0
 10
-145.5718
 20
-54.2245
 30
0.0
 10
-142.1291
 20
-57.2252
 30
0.0
 10
-142.1291
 20
-57.2252
 30
0.0
 10
-139.8425
 20
-59.2183
 30
0.0
 10
-134.9985
 20
-59.6559
 30
0.0
 10
-133.091
 20
-56.1551
 30
0.0
 10
-133.091
 20
-56.1551
 30
0.0
 10
-132.6598
 20
-55.8413
 30
0.0
 10
-131.8712
 20
-56.3485
 30
0.0
 10
-132.3751
 20
-57.0097
 30
0.0
 10
-132.3751
 20
-57.0097
 30
0.0
 10
-134.0308
 20
-58.9108
 30
0.0
 10
-138.343
 20
-61.1403
 30
0.0
 10
-141.0276
 20
-60.6582
 30
0.0
 10
-141.0276
 20
-60.6582
 30
0.0
 10
-140.3835
 20
-63.064
 30
0.0
 10
-140.0306
 20
-65.8391
 30
0.0
 10
-141.0522
 20
-68.2153
 30
0.0
 10
-141.0522
 20
-68.2153
 30
0.0
 10
-138.1353
 20
-66.9591
 30
0.0
 10
-134.7424
 20
-66.8979
 30
0.0
 10
-132.8398
 20
-67.3486
 30
0.0
 10
-132.8398
 20
-67.3486
 30
0.0
 10
-133.3591
 20
-65.9607
 30
0.0
 10
-132.5058
 20
-61.3443
 30
0.0
 10
-130.1706
 20
-58.0179
 30
0.0
 10
-130.1706
 20
-58.0179
 30
0.0
 10
-129.791
 20
-57.3214
 30
0.0
 10
-129.2503
 20
-57.8814
 30
0.0
 10
-129.3692
 20
-58.6337
 30
0.0
 10
-129.3692
 20
-58.6337
 30
0.0
 10
-133.0514
 20
-63.9133
 30
0.0
 10
-130.9911
 20
-69.4788
 30
0.0
 10
-130.1135
 20
-71.3874
 30
0.0
 10
-130.1135
 20
-71.3874
 30
0.0
 10
-132.1935
 20
-74.1433
 30
0.0
 10
-136.1287
 20
-75.9425
 30
0.0
 10
-139.2702
 20
-75.8619
 30
0.0
 10
-139.2702
 20
-75.8619
 30
0.0
 10
-145.2624
 20
-75.7082
 30
0.0
 10
-144.5287
 20
-70.0935
 30
0.0
 10
-140.249
 20
-71.0958
 30
0.0
 10
-140.249
 20
-71.0958
 30
0.0
 10
-141.8616
 20
-66.2227
 30
0.0
 10
-147.1535
 20
-66.4953
 30
0.0
 10
-149.3292
 20
-68.5159
 30
0.0
 10
-149.3292
 20
-68.5159
 30
0.0
 10
-150.7571
 20
-69.842
 30
0.0
 10
-150.6968
 20
-71.9795
 30
0.0
 10
-147.8853
 20
-73.7047
 30
0.0
 10
-147.8853
 20
-73.7047
 30
0.0
 10
-147.2134
 20
-74.4027
 30
0.0
 10
-148.069
 20
-75.3595
 30
0.0
 10
-148.6673
 20
-74.5861
 30
0.0
 10
-148.6673
 20
-74.5861
 30
0.0
 10
-151.2128
 20
-68.756
 30
0.0
 10
-162.8279
 20
-68.1474
 30
0.0
 10
-165.7894
 20
-74.6048
 30
0.0
 10
-165.7894
 20
-74.6048
 30
0.0
 10
-172.7976
 20
-73.4889
 30
0.0
 10
-170.1824
 20
-62.9804
 30
0.0
 10
-162.5138
 20
-66.277
 30
0.0
 10
-162.5138
 20
-66.277
 30
0.0
 10
-160.9424
 20
-55.6021
 30
0.0
 10
-178.2591
 20
-58.6346
 30
0.0
 10
-175.9256
 20
-69.5578
 30
0.0
 10
-175.9256
 20
-69.5578
 30
0.0
 10
-177.4555
 20
-68.4169
 30
0.0
 10
-178.7679
 20
-65.0016
 30
0.0
 10
-178.1307
 20
-62.6645
 30
0.0
 10
-178.1307
 20
-62.6645
 30
0.0
 10
-178.1307
 20
-62.6645
 30
0.0
 10
-178.1307
 20
-62.6643
 30
0.0
 10
-178.1307
 20
-62.6643
 30
0.0
  0
SPLINE
  5
AA
330
1F
100
AcDbEntity
  8
layer 1
 62
     7
100
AcDbSpline
210
0.0
220
0.0
230
1.0
 70
    11
 71
     3
 72
    20
 73
    16
 74
     0
 42
0.0000000001
 43
0.0000000001
 12
1.0
 22
0.0
 32
0.0
 13
1.0
 23
0.0
 33
0.0
 40
0.0
 40
0.0
 40
0.0
 40
0.0
 40
0.2
 40
0.2
 40
0.2
 40
0.2
 40
0.4
 40
0.4
 40
0.4
 40
0.4
 40
0.6
 40
0.6
 40
0.6
 40
0.6
 40
1.0
 40
1.0
 40
1.0
 40
1.0
 10
-159.1296
 20
5.9472
 30
0.0
 10
-160.4323
 20
7.1536
 30
0.0
 10
-161.5381
 20
8.1537
 30
0.0
 10
-163.5911
 20
9.0405
 30
0.0
 10
-163.5911
 20
9.0405
 30
0.0
 10
-161.5381
 20
9.9274
 30
0.0
 10
-160.4323
 20
10.9274
 30
0.0
 10
-159.1296
 20
12.1338
 30
0.0
 10
-159.1296
 20
12.1338
 30
0.0
 10
-162.1352
 20
11.139
 30
0.0
 10
-168.3574
 20
9.5495
 30
0.0
 10
-171.7061
 20
9.0405
 30
0.0
 10
-171.7061
 20
9.0405
 30
0.0
 10
-168.3574
 20
8.5315
 30
0.0
 10
-162.1352
 20
6.942
 30
0.0
 10
-159.1296
 20
5.9472
 30
0.0
  0
ENDSEC
  0
SECTION
  2
OBJECTS
  0
DICTIONARY
  5
C
330
0
100
AcDbDictionary
281
     1
  3
ACAD_GROUP
350
D
  3
ACAD_LAYOUT
350
1A
  3
ACAD_MATERIAL
350
3B
  3
ACAD_MLEADERSTYLE
350
CD
  3
ACAD_MLINESTYLE
350
17
  3
ACAD_PLOTSETTINGS
350
19
  3
ACAD_PLOTSTYLENAME
350
E
  3
ACAD_TABLESTYLE
350
CC
  3
ACAD_VISUALSTYLE
350
2A
  0
DICTIONARY
  5
D
102
{ACAD_REACTORS
330
C
102
}
330
C
100
AcDbDictionary
281
     1
  0
DICTIONARY
  5
1A
102
{ACAD_REACTORS
330
C
102
}
330
C
100
AcDbDictionary
281
     1
  3
Layout1
350
1E
  3
Layout2
350
26
  3
Model
350
22
  0
DICTIONARY
  5
3B
102
{ACAD_REACTORS
330
C
102
}
330
C
100
AcDbDictionary
281
     1
  3
ByBlock
350
3D
  3
ByLayer
350
3C
  3
Global
350
3E
  0
DICTIONARY
  5
CD
102
{ACAD_REACTORS
330
C
102
}
330
C
100
AcDbDictionary
281
     1
  0
DICTIONARY
  5
17
102
{ACAD_REACTORS
330
C
102
}
330
C
100
AcDbDictionary
281
     1
  3
Standard
350
18
  0
DICTIONARY
  5
19
102
{ACAD_REACTORS
330
C
102
}
330
C
100
AcDbDictionary
281
     1
  0
ACDBDICTIONARYWDFLT
  5
E
102
{ACAD_REACTORS
330
C
102
}
330
C
100
AcDbDictionary
281
     1
  3
Normal
350
F
100
AcDbDictionaryWithDefault
340
F
  0
DICTIONARY
  5
CC
102
{ACAD_REACTORS
330
C
102
}
330
C
100
AcDbDictionary
281
     1
  0
DICTIONARY
  5
2A
102
{ACAD_REACTORS
330
C
102
}
330
C
100
AcDbDictionary
281
     1
  3
2dWireframe
350
2F
  3
3D Hidden
350
31
  3
3dWireframe
350
30
  3
Basic
350
32
  3
Brighten
350
36
  3
ColorChange
350
3A
  3
Conceptual
350
34
  3
Dim
350
35
  3
Facepattern
350
39
  3
Flat
350
2B
  3
FlatWithEdges
350
2C
  3
Gouraud
350
2D
  3
GouraudWithEdges
350
2E
  3
Linepattern
350
38
  3
Realistic
350
33
  3
Thicken
350
37
  0
LAYOUT
  5
1E
102
{ACAD_REACTORS
330
1A
102
}
330
1A
100
AcDbPlotSettings
  1

  2
none_device
  4

  6

 40
0.0
 41
0.0
 42
0.0
 43
0.0
 44
0.0
 45
0.0
 46
0.0
 47
0.0
 48
0.0
 49
0.0
140
0.0
141
0.0
142
1.0
143
1.0
 70
   688
 72
     0
 73
     0
 74
     5
  7

 75
    16
 76
     0
 77
     2
 78
   300
147
1.0
148
0.0
149
0.0
100
AcDbLayout
  1
Layout1
 70
     1
 71
     1
 10
0.0
 20
0.0
 11
12.0
 21
9.0
 12
0.0
 22
0.0
 32
0.0
 14
1.000000000000000E+20
 24
1.000000000000000E+20
 34
1.000000000000000E+20
 15
-1.000000000000000E+20
 25
-1.000000000000000E+20
 35
-1.000000000000000E+20
146
0.0
 13
0.0
 23
0.0
 33
0.0
 16
1.0
 26
0.0
 36
0.0
 17
0.0
 27
1.0
 37
0.0
 76
     0
330
1B
  0
LAYOUT
  5
26
102
{ACAD_REACTORS
330
1A
102
}
330
1A
100
AcDbPlotSettings
  1

  2
none_device
  4

  6

 40
0.0
 41
0.0
 42
0.0
 43
0.0
 44
0.0
 45
0.0
 46
0.0
 47
0.0
 48
0.0
 49
0.0
140
0.0
141
0.0
142
1.0
143
1.0
 70
   688
 72
     0
 73
     0
 74
     5
  7

 75
    16
 76
     0
 77
     2
 78
   300
147
1.0
148
0.0
149
0.0
100
AcDbLayout
  1
Layout2
 70
     1
 71
     2
 10
0.0
 20
0.0
 11
0.0
 21
0.0
 12
0.0
 22
0.0
 32
0.0
 14
0.0
 24
0.0
 34
0.0
 15
0.0
 25
0.0
 35
0.0
146
0.0
 13
0.0
 23
0.0
 33
0.0
 16
1.0
 26
0.0
 36
0.0
 17
0.0
 27
1.0
 37
0.0
 76
     0
330
23
  0
LAYOUT
  5
22
102
{ACAD_REACTORS
330
1A
102
}
330
1A
100
AcDbPlotSettings
  1

  2
none_device
  4

  6

 40
0.0
 41
0.0
 42
0.0
 43
0.0
 44
0.0
 45
0.0
 46
0.0
 47
0.0
 48
0.0
 49
0.0
140
0.0
141
0.0
142
1.0
143
1.0
 70
  1712
 72
     0
 73
     0
 74
     0
  7

 75
     0
 76
     0
 77
     2
 78
   300
147
1.0
148
0.0
149
0.0
100
AcDbLayout
  1
Model
 70
     1
 71
     0
 10
0.0
 20
0.0
 11
12.0
 21
9.0
 12
0.0
 22
0.0
 32
0.0
 14
-187.6984
 24
-114.3727
 34
0.0
 15
-63.3165
 25
132.4537
 35
0.0
146
0.0
 13
0.0
 23
0.0
 33
0.0
 16
1.0
 26
0.0
 36
0.0
 17
0.0
 27
1.0
 37
0.0
 76
     0
330
1F
331
29
  0
MATERIAL
  5
3D
102
{ACAD_REACTORS
330
3B
102
}
330
3B
100
AcDbMaterial
  1
ByBlock
 72
     1
 94
      127
  0
MATERIAL
  5
3C
102
{ACAD_REACTORS
330
3B
102
}
330
3B
100
AcDbMaterial
  1
ByLayer
 72
     1
 94
      127
  0
MATERIAL
  5
3E
102
{ACAD_REACTORS
330
3B
102
}
330
3B
100
AcDbMaterial
  1
Global
 72
     1
 94
      127
  0
MLINESTYLE
  5
18
102
{ACAD_REACTORS
330
17
102
}
330
17
100
AcDbMlineStyle
  2
Standard
 70
     0
  3

 62
   256
 51
90.0
 52
90.0
 71
     2
 49
0.5
 62
   256
  6
BYLAYER
 49
-0.5
 62
   256
  6
BYLAYER
  0
ACDBPLACEHOLDER
  5
F
102
{ACAD_REACTORS
330
E
102
}
330
E
  0
VISUALSTYLE
  5
2F
102
{ACAD_REACTORS
330
2A
102
}
102
{ACAD_XDICTIONARY
360
B4
102
}
330
2A
100
AcDbVisualStyle
  2
2dWireframe
 70
     4
 71
     0
 72
     2
 73
     0
 90
        0
 40
-0.6
 41
-30.0
 62
     5
 63
     7
421
 16777215
 74
     1
 91
        4
 64
     7
 65
   257
 75
     1
175
     1
 42
1.0
 92
        0
 66
   257
 43
1.0
 76
     1
 77
     6
 78
     2
 67
     7
 79
     5
170
     0
171
     0
290
     0
174
     0
 93
        1
 44
0.0
173
     0
291
     0
 45
0.0
  0
VISUALSTYLE
  5
31
102
{ACAD_REACTORS
330
2A
102
}
102
{ACAD_XDICTIONARY
360
B8
102
}
330
2A
100
AcDbVisualStyle
  2
3D Hidden
 70
     6
 71
     1
 72
     2
 73
     2
 90
        0
 40
-0.6
 41
-30.0
 62
     5
 63
     7
421
 16777215
 74
     2
 91
        2
 64
     7
 65
   257
 75
     2
175
     1
 42
40.0
 92
        0
 66
   257
 43
1.0
 76
     1
 77
     6
 78
     2
 67
     7
 79
     3
170
     0
171
     0
290
     0
174
     0
 93
        1
 44
0.0
173
     0
291
     0
 45
0.0
  0
VISUALSTYLE
  5
30
102
{ACAD_REACTORS
330
2A
102
}
102
{ACAD_XDICTIONARY
360
B6
102
}
330
2A
100
AcDbVisualStyle
  2
3dWireframe
 70
     5
 71
     0
 72
     2
 73
     0
 90
        0
 40
-0.6
 41
-30.0
 62
     5
 63
     7
421
 16777215
 74
     1
 91
        4
 64
     7
 65
   257
 75
     1
175
     1
 42
1.0
 92
        0
 66
   257
 43
1.0
 76
     1
 77
     6
 78
     2
 67
     7
 79
     5
170
     0
171
     0
290
     0
174
     0
 93
        1
 44
0.0
173
     0
291
     0
 45
0.0
  0
VISUALSTYLE
  5
32
102
{ACAD_REACTORS
330
2A
102
}
102
{ACAD_XDICTIONARY
360
BA
102
}
330
2A
100
AcDbVisualStyle
  2
Basic
 70
     7
 71
     1
 72
     0
 73
     1
 90
        0
 40
-0.6
 41
-30.0
 62
     5
 63
     7
421
 16777215
 74
     0
 91
        4
 64
     7
 65
   257
 75
     1
175
     1
 42
1.0
 92
        8
 66
     7
 43
1.0
 76
     1
 77
     6
 78
     2
 67
     7
 79
     5
170
     0
171
     0
290
     0
174
     0
 93
        1
 44
0.0
173
     0
291
     1
 45
0.0
  0
VISUALSTYLE
  5
36
102
{ACAD_REACTORS
330
2A
102
}
102
{ACAD_XDICTIONARY
360
C2
102
}
330
2A
100
AcDbVisualStyle
  2
Brighten
 70
    12
 71
     2
 72
     2
 73
     0
 90
        0
 40
-0.6
 41
-30.0
 62
     5
 63
     7
421
 16777215
 74
     1
 91
        4
 64
     7
 65
   257
 75
     1
175
     1
 42
1.0
 92
        8
 66
     7
 43
1.0
 76
     1
 77
     6
 78
     2
 67
     7
 79
     5
170
     0
171
     0
290
     0
174
     0
 93
        1
 44
50.0
173
     0
291
     1
 45
0.0
  0
VISUALSTYLE
  5
3A
102
{ACAD_REACTORS
330
2A
102
}
102
{ACAD_XDICTIONARY
360
CA
102
}
330
2A
100
AcDbVisualStyle
  2
ColorChange
 70
    16
 71
     2
 72
     2
 73
     3
 90
        0
 40
-0.6
 41
-30.0
 62
     5
 63
     8
421
  8421504
 74
     1
 91
        4
 64
     7
 65
   257
 75
     1
175
     1
 42
1.0
 92
        8
 66
     8
424
  8421504
 43
1.0
 76
     1
 77
     6
 78
     2
 67
     7
 79
     5
170
     0
171
     0
290
     0
174
     0
 93
        1
 44
0.0
173
     0
291
     1
 45
0.0
  0
VISUALSTYLE
  5
34
102
{ACAD_REACTORS
330
2A
102
}
102
{ACAD_XDICTIONARY
360
BE
102
}
330
2A
100
AcDbVisualStyle
  2
Conceptual
 70
     9
 71
     3
 72
     2
 73
     0
 90
        0
 40
-0.6
 41
-30.0
 62
     5
 63
     7
421
 16777215
 74
     2
 91
        2
 64
     7
 65
   257
 75
     1
175
     1
 42
40.0
 92
        8
 66
     7
 43
1.0
 76
     1
 77
     6
 78
     2
 67
     7
 79
     3
170
     0
171
     0
290
     0
174
     0
 93
        1
 44
0.0
173
     0
291
     0
 45
0.0
  0
VISUALSTYLE
  5
35
102
{ACAD_REACTORS
330
2A
102
}
102
{ACAD_XDICTIONARY
360
C0
102
}
330
2A
100
AcDbVisualStyle
  2
Dim
 70
    11
 71
     2
 72
     2
 73
     0
 90
        0
 40
-0.6
 41
-30.0
 62
     5
 63
     7
421
 16777215
 74
     1
 91
        4
 64
     7
 65
   257
 75
     1
175
     1
 42
1.0
 92
        8
 66
     7
 43
1.0
 76
     1
 77
     6
 78
     2
 67
     7
 79
     5
170
     0
171
     0
290
     0
174
     0
 93
        1
 44
-50.0
173
     0
291
     1
 45
0.0
  0
VISUALSTYLE
  5
39
102
{ACAD_REACTORS
330
2A
102
}
102
{ACAD_XDICTIONARY
360
C8
102
}
330
2A
100
AcDbVisualStyle
  2
Facepattern
 70
    15
 71
     2
 72
     2
 73
     0
 90
        0
 40
-0.6
 41
-30.0
 62
     5
 63
     7
421
 16777215
 74
     1
 91
        4
 64
     7
 65
   257
 75
     1
175
     1
 42
1.0
 92
        8
 66
     7
 43
1.0
 76
     1
 77
     6
 78
     2
 67
     7
 79
     5
170
     0
171
     0
290
     0
174
     0
 93
        1
 44
0.0
173
     0
291
     1
 45
0.0
  0
VISUALSTYLE
  5
2B
102
{ACAD_REACTORS
330
2A
102
}
102
{ACAD_XDICTIONARY
360
AC
102
}
330
2A
100
AcDbVisualStyle
  2
Flat
 70
     0
 71
     2
 72
     1
 73
     1
 90
        2
 40
-0.6
 41
30.0
 62
     5
 63
     7
421
 16777215
 74
     0
 91
        4
 64
     7
 65
   257
 75
     1
175
     1
 42
1.0
 92
        8
 66
     7
 43
1.0
 76
     1
 77
     6
 78
     2
 67
     7
 79
     5
170
     0
171
     0
290
     0
174
     0
 93
       13
 44
0.0
173
     0
291
     1
 45
0.0
  0
VISUALSTYLE
  5
2C
102
{ACAD_REACTORS
330
2A
102
}
102
{ACAD_XDICTIONARY
360
AE
102
}
330
2A
100
AcDbVisualStyle
  2
FlatWithEdges
 70
     1
 71
     2
 72
     1
 73
     1
 90
        2
 40
-0.6
 41
30.0
 62
     5
 63
     7
421
 16777215
 74
     1
 91
        4
 64
     7
 65
   257
 75
     1
175
     1
 42
1.0
 92
        0
 66
   257
 43
1.0
 76
     1
 77
     6
 78
     2
 67
     7
 79
     5
170
     0
171
     0
290
     0
174
     0
 93
       13
 44
0.0
173
     0
291
     1
 45
0.0
  0
VISUALSTYLE
  5
2D
102
{ACAD_REACTORS
330
2A
102
}
102
{ACAD_XDICTIONARY
360
B0
102
}
330
2A
100
AcDbVisualStyle
  2
Gouraud
 70
     2
 71
     2
 72
     2
 73
     1
 90
        2
 40
-0.6
 41
30.0
 62
     5
 63
     7
421
 16777215
 74
     0
 91
        4
 64
     7
 65
   257
 75
     1
175
     1
 42
1.0
 92
        0
 66
     7
 43
1.0
 76
     1
 77
     6
 78
     2
 67
     7
 79
     5
170
     0
171
     0
290
     0
174
     0
 93
       13
 44
0.0
173
     0
291
     1
 45
0.0
  0
VISUALSTYLE
  5
2E
102
{ACAD_REACTORS
330
2A
102
}
102
{ACAD_XDICTIONARY
360
B2
102
}
330
2A
100
AcDbVisualStyle
  2
GouraudWithEdges
 70
     3
 71
     2
 72
     2
 73
     1
 90
        2
 40
-0.6
 41
30.0
 62
     5
 63
     7
421
 16777215
 74
     1
 91
        4
 64
     7
 65
   257
 75
     1
175
     1
 42
1.0
 92
        0
 66
   257
 43
1.0
 76
     1
 77
     6
 78
     2
 67
     7
 79
     5
170
     0
171
     0
290
     0
174
     0
 93
       13
 44
0.0
173
     0
291
     1
 45
0.0
  0
VISUALSTYLE
  5
38
102
{ACAD_REACTORS
330
2A
102
}
102
{ACAD_XDICTIONARY
360
C6
102
}
330
2A
100
AcDbVisualStyle
  2
Linepattern
 70
    14
 71
     2
 72
     2
 73
     0
 90
        0
 40
-0.6
 41
-30.0
 62
     5
 63
     7
421
 16777215
 74
     1
 91
        4
 64
     7
 65
   257
 75
     7
175
     7
 42
1.0
 92
        8
 66
     7
 43
1.0
 76
     1
 77
     6
 78
     2
 67
     7
 79
     5
170
     0
171
     0
290
     0
174
     0
 93
        1
 44
0.0
173
     0
291
     1
 45
0.0
  0
VISUALSTYLE
  5
33
102
{ACAD_REACTORS
330
2A
102
}
102
{ACAD_XDICTIONARY
360
BC
102
}
330
2A
100
AcDbVisualStyle
  2
Realistic
 70
     8
 71
     2
 72
     2
 73
     0
 90
        0
 40
-0.6
 41
-30.0
 62
     5
 63
     7
421
 16777215
 74
     1
 91
        0
 64
     7
 65
   257
 75
     1
175
     1
 42
1.0
 92
        8
 66
     8
424
  7895160
 43
1.0
 76
     1
 77
     6
 78
     2
 67
     7
 79
     5
170
     0
171
     0
290
     0
174
     0
 93
       13
 44
0.0
173
     0
291
     0
 45
0.0
  0
VISUALSTYLE
  5
37
102
{ACAD_REACTORS
330
2A
102
}
102
{ACAD_XDICTIONARY
360
C4
102
}
330
2A
100
AcDbVisualStyle
  2
Thicken
 70
    13
 71
     2
 72
     2
 73
     0
 90
        0
 40
-0.6
 41
-30.0
 62
     5
 63
     7
421
 16777215
 74
     1
 91
        4
 64
     7
 65
   257
 75
     1
175
     1
 42
1.0
 92
       12
 66
     7
 43
1.0
 76
     1
 77
     6
 78
     2
 67
     7
 79
     5
170
     0
171
     0
290
     0
174
     0
 93
        1
 44
0.0
173
     0
291
     1
 45
0.0
  0
DICTIONARY
  5
B4
330
2F
100
AcDbDictionary
280
     1
281
     1
  3
ACAD_XREC_ROUNDTRIP
360
B5
  0
DICTIONARY
  5
B8
330
31
100
AcDbDictionary
280
     1
281
     1
  3
ACAD_XREC_ROUNDTRIP
360
B9
  0
DICTIONARY
  5
B6
330
30
100
AcDbDictionary
280
     1
281
     1
  3
ACAD_XREC_ROUNDTRIP
360
B7
  0
DICTIONARY
  5
BA
330
32
100
AcDbDictionary
280
     1
281
     1
  3
ACAD_XREC_ROUNDTRIP
360
BB
  0
DICTIONARY
  5
C2
330
36
100
AcDbDictionary
280
     1
281
     1
  3
ACAD_XREC_ROUNDTRIP
360
C3
  0
DICTIONARY
  5
CA
330
3A
100
AcDbDictionary
280
     1
281
     1
  3
ACAD_XREC_ROUNDTRIP
360
CB
  0
DICTIONARY
  5
BE
330
34
100
AcDbDictionary
280
     1
281
     1
  3
ACAD_XREC_ROUNDTRIP
360
BF
  0
DICTIONARY
  5
C0
330
35
100
AcDbDictionary
280
     1
281
     1
  3
ACAD_XREC_ROUNDTRIP
360
C1
  0
DICTIONARY
  5
C8
330
39
100
AcDbDictionary
280
     1
281
     1
  3
ACAD_XREC_ROUNDTRIP
360
C9
  0
DICTIONARY
  5
AC
330
2B
100
AcDbDictionary
280
     1
281
     1
  3
ACAD_XREC_ROUNDTRIP
360
AD
  0
DICTIONARY
  5
AE
330
2C
100
AcDbDictionary
280
     1
281
     1
  3
ACAD_XREC_ROUNDTRIP
360
AF
  0
DICTIONARY
  5
B0
330
2D
100
AcDbDictionary
280
     1
281
     1
  3
ACAD_XREC_ROUNDTRIP
360
B1
  0
DICTIONARY
  5
B2
330
2E
100
AcDbDictionary
280
     1
281
     1
  3
ACAD_XREC_ROUNDTRIP
360
B3
  0
DICTIONARY
  5
C6
330
38
100
AcDbDictionary
280
     1
281
     1
  3
ACAD_XREC_ROUNDTRIP
360
C7
  0
DICTIONARY
  5
BC
330
33
100
AcDbDictionary
280
     1
281
     1
  3
ACAD_XREC_ROUNDTRIP
360
BD
  0
DICTIONARY
  5
C4
330
37
100
AcDbDictionary
280
     1
281
     1
  3
ACAD_XREC_ROUNDTRIP
360
C5
  0
XRECORD
  5
B5
102
{ACAD_REACTORS
330
B4
102
}
330
B4
100
AcDbXrecord
280
     1
102
RTVSPropertyOp0
 70
     1
102
RTVSPropertyOp1
 70
     1
102
RTVSPropertyOp2
 70
     1
102
RTVSPropertyOp3
 70
     1
102
RTVSPropertyOp4
 70
     1
102
RTVSPropertyOp5
 70
     1
102
RTVSPropertyOp6
 70
     1
102
RTVSPropertyOp7
 70
     1
102
RTVSPropertyOp8
 70
     1
102
RTVSPropertyOp9
 70
     1
102
RTVSPropertyOp10
 70
     1
102
RTVSPropertyOp11
 70
     1
102
RTVSPropertyOp12
 70
     1
102
RTVSPropertyOp13
 70
     1
102
RTVSPropertyOp14
 70
     1
102
RTVSPropertyOp15
 70
     1
102
RTVSPropertyOp16
 70
     1
102
RTVSPropertyOp17
 70
     1
102
RTVSPropertyOp18
 70
     1
102
RTVSPropertyOp19
 70
     1
102
RTVSPropertyOp20
 70
     1
102
RTVSPropertyOp21
 70
     1
102
RTVSPropertyOp22
 70
     1
102
RTVSPropertyOp23
 70
     1
102
RTVSPropertyOp24
 70
     1
102
RTVSPropertyOp25
 70
     1
102
RTVSPropertyOp26
 70
     1
102
RTVSPropertyOp27
 70
     1
102
RTVSPropertyOp28
 70
     1
102
RTVSPropertyOp29
 70
     1
102
RTVSPropertyOp30
 70
     1
102
RTVSPropertyOp31
 70
     1
102
RTVSPropertyOp32
 70
     1
  0
XRECORD
  5
B9
102
{ACAD_REACTORS
330
B8
102
}
330
B8
100
AcDbXrecord
280
     1
102
RTVSPropertyOp0
 70
     1
102
RTVSPropertyOp1
 70
     1
102
RTVSPropertyOp2
 70
     1
102
RTVSPropertyOp3
 70
     1
102
RTVSPropertyOp4
 70
     1
102
RTVSPropertyOp5
 70
     1
102
RTVSPropertyOp6
 70
     1
102
RTVSPropertyOp7
 70
     1
102
RTVSPropertyOp8
 70
     1
102
RTVSPropertyOp9
 70
     1
102
RTVSPropertyOp10
 70
     1
102
RTVSPropertyOp11
 70
     1
102
RTVSPropertyOp12
 70
     1
102
RTVSPropertyOp13
 70
     1
102
RTVSPropertyOp14
 70
     1
102
RTVSPropertyOp15
 70
     1
102
RTVSPropertyOp16
 70
     1
102
RTVSPropertyOp17
 70
     1
102
RTVSPropertyOp18
 70
     1
102
RTVSPropertyOp19
 70
     1
102
RTVSPropertyOp20
 70
     1
102
RTVSPropertyOp21
 70
     1
102
RTVSPropertyOp22
 70
     1
102
RTVSPropertyOp23
 70
     1
102
RTVSPropertyOp24
 70
     1
102
RTVSPropertyOp25
 70
     1
102
RTVSPropertyOp26
 70
     1
102
RTVSPropertyOp27
 70
     1
102
RTVSPropertyOp28
 70
     1
102
RTVSPropertyOp29
 70
     1
102
RTVSPropertyOp30
 70
     1
102
RTVSPropertyOp31
 70
     1
102
RTVSPropertyOp32
 70
     1
  0
XRECORD
  5
B7
102
{ACAD_REACTORS
330
B6
102
}
330
B6
100
AcDbXrecord
280
     1
102
RTVSPropertyOp0
 70
     1
102
RTVSPropertyOp1
 70
     1
102
RTVSPropertyOp2
 70
     1
102
RTVSPropertyOp3
 70
     1
102
RTVSPropertyOp4
 70
     1
102
RTVSPropertyOp5
 70
     1
102
RTVSPropertyOp6
 70
     1
102
RTVSPropertyOp7
 70
     1
102
RTVSPropertyOp8
 70
     1
102
RTVSPropertyOp9
 70
     1
102
RTVSPropertyOp10
 70
     1
102
RTVSPropertyOp11
 70
     1
102
RTVSPropertyOp12
 70
     1
102
RTVSPropertyOp13
 70
     1
102
RTVSPropertyOp14
 70
     1
102
RTVSPropertyOp15
 70
     1
102
RTVSPropertyOp16
 70
     1
102
RTVSPropertyOp17
 70
     1
102
RTVSPropertyOp18
 70
     1
102
RTVSPropertyOp19
 70
     1
102
RTVSPropertyOp20
 70
     1
102
RTVSPropertyOp21
 70
     1
102
RTVSPropertyOp22
 70
     1
102
RTVSPropertyOp23
 70
     1
102
RTVSPropertyOp24
 70
     1
102
RTVSPropertyOp25
 70
     1
102
RTVSPropertyOp26
 70
     1
102
RTVSPropertyOp27
 70
     1
102
RTVSPropertyOp28
 70
     1
102
RTVSPropertyOp29
 70
     1
102
RTVSPropertyOp30
 70
     1
102
RTVSPropertyOp31
 70
     1
102
RTVSPropertyOp32
 70
     1
  0
XRECORD
  5
BB
102
{ACAD_REACTORS
330
BA
102
}
330
BA
100
AcDbXrecord
280
     1
102
RTVSPropertyOp0
 70
     1
102
RTVSPropertyOp1
 70
     1
102
RTVSPropertyOp2
 70
     1
102
RTVSPropertyOp3
 70
     1
102
RTVSPropertyOp4
 70
     1
102
RTVSPropertyOp5
 70
     1
102
RTVSPropertyOp6
 70
     1
102
RTVSPropertyOp7
 70
     1
102
RTVSPropertyOp8
 70
     1
102
RTVSPropertyOp9
 70
     1
102
RTVSPropertyOp10
 70
     1
102
RTVSPropertyOp11
 70
     1
102
RTVSPropertyOp12
 70
     1
102
RTVSPropertyOp13
 70
     1
102
RTVSPropertyOp14
 70
     1
102
RTVSPropertyOp15
 70
     1
102
RTVSPropertyOp16
 70
     1
102
RTVSPropertyOp17
 70
     1
102
RTVSPropertyOp18
 70
     1
102
RTVSPropertyOp19
 70
     1
102
RTVSPropertyOp20
 70
     1
102
RTVSPropertyOp21
 70
     1
102
RTVSPropertyOp22
 70
     1
102
RTVSPropertyOp23
 70
     1
102
RTVSPropertyOp24
 70
     1
102
RTVSPropertyOp25
 70
     1
102
RTVSPropertyOp26
 70
     1
102
RTVSPropertyOp27
 70
     1
102
RTVSPropertyOp28
 70
     1
102
RTVSPropertyOp29
 70
     1
102
RTVSPropertyOp30
 70
     1
102
RTVSPropertyOp31
 70
     1
102
RTVSPropertyOp32
 70
     1
  0
XRECORD
  5
C3
102
{ACAD_REACTORS
330
C2
102
}
330
C2
100
AcDbXrecord
280
     1
102
RTVSPropertyOp0
 70
     1
102
RTVSPropertyOp1
 70
     1
102
RTVSPropertyOp2
 70
     1
102
RTVSPropertyOp3
 70
     1
102
RTVSPropertyOp4
 70
     1
102
RTVSPropertyOp5
 70
     1
102
RTVSPropertyOp6
 70
     1
102
RTVSPropertyOp7
 70
     1
102
RTVSPropertyOp8
 70
     1
102
RTVSPropertyOp9
 70
     1
102
RTVSPropertyOp10
 70
     1
102
RTVSPropertyOp11
 70
     1
102
RTVSPropertyOp12
 70
     1
102
RTVSPropertyOp13
 70
     1
102
RTVSPropertyOp14
 70
     1
102
RTVSPropertyOp15
 70
     1
102
RTVSPropertyOp16
 70
     1
102
RTVSPropertyOp17
 70
     1
102
RTVSPropertyOp18
 70
     1
102
RTVSPropertyOp19
 70
     1
102
RTVSPropertyOp20
 70
     1
102
RTVSPropertyOp21
 70
     1
102
RTVSPropertyOp22
 70
     1
102
RTVSPropertyOp23
 70
     1
102
RTVSPropertyOp24
 70
     1
102
RTVSPropertyOp25
 70
     1
102
RTVSPropertyOp26
 70
     1
102
RTVSPropertyOp27
 70
     1
102
RTVSPropertyOp28
 70
     1
102
RTVSPropertyOp29
 70
     1
102
RTVSPropertyOp30
 70
     1
102
RTVSPropertyOp31
 70
     1
102
RTVSPropertyOp32
 70
     1
  0
XRECORD
  5
CB
102
{ACAD_REACTORS
330
CA
102
}
330
CA
100
AcDbXrecord
280
     1
102
RTVSPropertyOp0
 70
     1
102
RTVSPropertyOp1
 70
     1
102
RTVSPropertyOp2
 70
     1
102
RTVSPropertyOp3
 70
     1
102
RTVSPropertyOp4
 70
     1
102
RTVSPropertyOp5
 70
     1
102
RTVSPropertyOp6
 70
     1
102
RTVSPropertyOp7
 70
     1
102
RTVSPropertyOp8
 70
     1
102
RTVSPropertyOp9
 70
     1
102
RTVSPropertyOp10
 70
     1
102
RTVSPropertyOp11
 70
     1
102
RTVSPropertyOp12
 70
     1
102
RTVSPropertyOp13
 70
     1
102
RTVSPropertyOp14
 70
     1
102
RTVSPropertyOp15
 70
     1
102
RTVSPropertyOp16
 70
     1
102
RTVSPropertyOp17
 70
     1
102
RTVSPropertyOp18
 70
     1
102
RTVSPropertyOp19
 70
     1
102
RTVSPropertyOp20
 70
     1
102
RTVSPropertyOp21
 70
     1
102
RTVSPropertyOp22
 70
     1
102
RTVSPropertyOp23
 70
     1
102
RTVSPropertyOp24
 70
     1
102
RTVSPropertyOp25
 70
     1
102
RTVSPropertyOp26
 70
     1
102
RTVSPropertyOp27
 70
     1
102
RTVSPropertyOp28
 70
     1
102
RTVSPropertyOp29
 70
     1
102
RTVSPropertyOp30
 70
     1
102
RTVSPropertyOp31
 70
     1
102
RTVSPropertyOp32
 70
     1
  0
XRECORD
  5
BF
102
{ACAD_REACTORS
330
BE
102
}
330
BE
100
AcDbXrecord
280
     1
102
RTVSPropertyOp0
 70
     1
102
RTVSPropertyOp1
 70
     1
102
RTVSPropertyOp2
 70
     1
102
RTVSPropertyOp3
 70
     1
102
RTVSPropertyOp4
 70
     1
102
RTVSPropertyOp5
 70
     1
102
RTVSPropertyOp6
 70
     1
102
RTVSPropertyOp7
 70
     1
102
RTVSPropertyOp8
 70
     1
102
RTVSPropertyOp9
 70
     1
102
RTVSPropertyOp10
 70
     1
102
RTVSPropertyOp11
 70
     1
102
RTVSPropertyOp12
 70
     1
102
RTVSPropertyOp13
 70
     1
102
RTVSPropertyOp14
 70
     1
102
RTVSPropertyOp15
 70
     1
102
RTVSPropertyOp16
 70
     1
102
RTVSPropertyOp17
 70
     1
102
RTVSPropertyOp18
 70
     1
102
RTVSPropertyOp19
 70
     1
102
RTVSPropertyOp20
 70
     1
102
RTVSPropertyOp21
 70
     1
102
RTVSPropertyOp22
 70
     1
102
RTVSPropertyOp23
 70
     1
102
RTVSPropertyOp24
 70
     1
102
RTVSPropertyOp25
 70
     1
102
RTVSPropertyOp26
 70
     1
102
RTVSPropertyOp27
 70
     1
102
RTVSPropertyOp28
 70
     1
102
RTVSPropertyOp29
 70
     1
102
RTVSPropertyOp30
 70
     1
102
RTVSPropertyOp31
 70
     1
102
RTVSPropertyOp32
 70
     1
  0
XRECORD
  5
C1
102
{ACAD_REACTORS
330
C0
102
}
330
C0
100
AcDbXrecord
280
     1
102
RTVSPropertyOp0
 70
     1
102
RTVSPropertyOp1
 70
     1
102
RTVSPropertyOp2
 70
     1
102
RTVSPropertyOp3
 70
     1
102
RTVSPropertyOp4
 70
     1
102
RTVSPropertyOp5
 70
     1
102
RTVSPropertyOp6
 70
     1
102
RTVSPropertyOp7
 70
     1
102
RTVSPropertyOp8
 70
     1
102
RTVSPropertyOp9
 70
     1
102
RTVSPropertyOp10
 70
     1
102
RTVSPropertyOp11
 70
     1
102
RTVSPropertyOp12
 70
     1
102
RTVSPropertyOp13
 70
     1
102
RTVSPropertyOp14
 70
     1
102
RTVSPropertyOp15
 70
     1
102
RTVSPropertyOp16
 70
     1
102
RTVSPropertyOp17
 70
     1
102
RTVSPropertyOp18
 70
     1
102
RTVSPropertyOp19
 70
     1
102
RTVSPropertyOp20
 70
     1
102
RTVSPropertyOp21
 70
     1
102
RTVSPropertyOp22
 70
     1
102
RTVSPropertyOp23
 70
     1
102
RTVSPropertyOp24
 70
     1
102
RTVSPropertyOp25
 70
     1
102
RTVSPropertyOp26
 70
     1
102
RTVSPropertyOp27
 70
     1
102
RTVSPropertyOp28
 70
     1
102
RTVSPropertyOp29
 70
     1
102
RTVSPropertyOp30
 70
     1
102
RTVSPropertyOp31
 70
     1
102
RTVSPropertyOp32
 70
     1
  0
XRECORD
  5
C9
102
{ACAD_REACTORS
330
C8
102
}
330
C8
100
AcDbXrecord
280
     1
102
RTVSPropertyOp0
 70
     1
102
RTVSPropertyOp1
 70
     1
102
RTVSPropertyOp2
 70
     1
102
RTVSPropertyOp3
 70
     1
102
RTVSPropertyOp4
 70
     1
102
RTVSPropertyOp5
 70
     1
102
RTVSPropertyOp6
 70
     1
102
RTVSPropertyOp7
 70
     1
102
RTVSPropertyOp8
 70
     1
102
RTVSPropertyOp9
 70
     1
102
RTVSPropertyOp10
 70
     1
102
RTVSPropertyOp11
 70
     1
102
RTVSPropertyOp12
 70
     1
102
RTVSPropertyOp13
 70
     1
102
RTVSPropertyOp14
 70
     1
102
RTVSPropertyOp15
 70
     1
102
RTVSPropertyOp16
 70
     1
102
RTVSPropertyOp17
 70
     1
102
RTVSPropertyOp18
 70
     1
102
RTVSPropertyOp19
 70
     1
102
RTVSPropertyOp20
 70
     1
102
RTVSPropertyOp21
 70
     1
102
RTVSPropertyOp22
 70
     1
102
RTVSPropertyOp23
 70
     1
102
RTVSPropertyOp24
 70
     1
102
RTVSPropertyOp25
 70
     1
102
RTVSPropertyOp26
 70
     1
102
RTVSPropertyOp27
 70
     1
102
RTVSPropertyOp28
 70
     1
102
RTVSPropertyOp29
 70
     1
102
RTVSPropertyOp30
 70
     1
102
RTVSPropertyOp31
 70
     1
102
RTVSPropertyOp32
 70
     1
  0
XRECORD
  5
AD
102
{ACAD_REACTORS
330
AC
102
}
330
AC
100
AcDbXrecord
280
     1
102
RTVSPropertyOp0
 70
     1
102
RTVSPropertyOp1
 70
     1
102
RTVSPropertyOp2
 70
     1
102
RTVSPropertyOp3
 70
     1
102
RTVSPropertyOp4
 70
     1
102
RTVSPropertyOp5
 70
     1
102
RTVSPropertyOp6
 70
     1
102
RTVSPropertyOp7
 70
     1
102
RTVSPropertyOp8
 70
     1
102
RTVSPropertyOp9
 70
     1
102
RTVSPropertyOp10
 70
     1
102
RTVSPropertyOp11
 70
     1
102
RTVSPropertyOp12
 70
     1
102
RTVSPropertyOp13
 70
     1
102
RTVSPropertyOp14
 70
     1
102
RTVSPropertyOp15
 70
     1
102
RTVSPropertyOp16
 70
     1
102
RTVSPropertyOp17
 70
     1
102
RTVSPropertyOp18
 70
     1
102
RTVSPropertyOp19
 70
     1
102
RTVSPropertyOp20
 70
     1
102
RTVSPropertyOp21
 70
     1
102
RTVSPropertyOp22
 70
     1
102
RTVSPropertyOp23
 70
     1
102
RTVSPropertyOp24
 70
     1
102
RTVSPropertyOp25
 70
     1
102
RTVSPropertyOp26
 70
     1
102
RTVSPropertyOp27
 70
     1
102
RTVSPropertyOp28
 70
     1
102
RTVSPropertyOp29
 70
     1
102
RTVSPropertyOp30
 70
     1
102
RTVSPropertyOp31
 70
     1
102
RTVSPropertyOp32
 70
     1
  0
XRECORD
  5
AF
102
{ACAD_REACTORS
330
AE
102
}
330
AE
100
AcDbXrecord
280
     1
102
RTVSPropertyOp0
 70
     1
102
RTVSPropertyOp1
 70
     1
102
RTVSPropertyOp2
 70
     1
102
RTVSPropertyOp3
 70
     1
102
RTVSPropertyOp4
 70
     1
102
RTVSPropertyOp5
 70
     1
102
RTVSPropertyOp6
 70
     1
102
RTVSPropertyOp7
 70
     1
102
RTVSPropertyOp8
 70
     1
102
RTVSPropertyOp9
 70
     1
102
RTVSPropertyOp10
 70
     1
102
RTVSPropertyOp11
 70
     1
102
RTVSPropertyOp12
 70
     1
102
RTVSPropertyOp13
 70
     1
102
RTVSPropertyOp14
 70
     1
102
RTVSPropertyOp15
 70
     1
102
RTVSPropertyOp16
 70
     1
102
RTVSPropertyOp17
 70
     1
102
RTVSPropertyOp18
 70
     1
102
RTVSPropertyOp19
 70
     1
102
RTVSPropertyOp20
 70
     1
102
RTVSPropertyOp21
 70
     1
102
RTVSPropertyOp22
 70
     1
102
RTVSPropertyOp23
 70
     1
102
RTVSPropertyOp24
 70
     1
102
RTVSPropertyOp25
 70
     1
102
RTVSPropertyOp26
 70
     1
102
RTVSPropertyOp27
 70
     1
102
RTVSPropertyOp28
 70
     1
102
RTVSPropertyOp29
 70
     1
102
RTVSPropertyOp30
 70
     1
102
RTVSPropertyOp31
 70
     1
102
RTVSPropertyOp32
 70
     1
  0
XRECORD
  5
B1
102
{ACAD_REACTORS
330
B0
102
}
330
B0
100
AcDbXrecord
280
     1
102
RTVSPropertyOp0
 70
     1
102
RTVSPropertyOp1
 70
     1
102
RTVSPropertyOp2
 70
     1
102
RTVSPropertyOp3
 70
     1
102
RTVSPropertyOp4
 70
     1
102
RTVSPropertyOp5
 70
     1
102
RTVSPropertyOp6
 70
     1
102
RTVSPropertyOp7
 70
     1
102
RTVSPropertyOp8
 70
     1
102
RTVSPropertyOp9
 70
     1
102
RTVSPropertyOp10
 70
     1
102
RTVSPropertyOp11
 70
     1
102
RTVSPropertyOp12
 70
     1
102
RTVSPropertyOp13
 70
     1
102
RTVSPropertyOp14
 70
     1
102
RTVSPropertyOp15
 70
     1
102
RTVSPropertyOp16
 70
     1
102
RTVSPropertyOp17
 70
     1
102
RTVSPropertyOp18
 70
     1
102
RTVSPropertyOp19
 70
     1
102
RTVSPropertyOp20
 70
     1
102
RTVSPropertyOp21
 70
     1
102
RTVSPropertyOp22
 70
     1
102
RTVSPropertyOp23
 70
     1
102
RTVSPropertyOp24
 70
     1
102
RTVSPropertyOp25
 70
     1
102
RTVSPropertyOp26
 70
     1
102
RTVSPropertyOp27
 70
     1
102
RTVSPropertyOp28
 70
     1
102
RTVSPropertyOp29
 70
     1
102
RTVSPropertyOp30
 70
     1
102
RTVSPropertyOp31
 70
     1
102
RTVSPropertyOp32
 70
     1
  0
XRECORD
  5
B3
102
{ACAD_REACTORS
330
B2
102
}
330
B2
100
AcDbXrecord
280
     1
102
RTVSPropertyOp0
 70
     1
102
RTVSPropertyOp1
 70
     1
102
RTVSPropertyOp2
 70
     1
102
RTVSPropertyOp3
 70
     1
102
RTVSPropertyOp4
 70
     1
102
RTVSPropertyOp5
 70
     1
102
RTVSPropertyOp6
 70
     1
102
RTVSPropertyOp7
 70
     1
102
RTVSPropertyOp8
 70
     1
102
RTVSPropertyOp9
 70
     1
102
RTVSPropertyOp10
 70
     1
102
RTVSPropertyOp11
 70
     1
102
RTVSPropertyOp12
 70
     1
102
RTVSPropertyOp13
 70
     1
102
RTVSPropertyOp14
 70
     1
102
RTVSPropertyOp15
 70
     1
102
RTVSPropertyOp16
 70
     1
102
RTVSPropertyOp17
 70
     1
102
RTVSPropertyOp18
 70
     1
102
RTVSPropertyOp19
 70
     1
102
RTVSPropertyOp20
 70
     1
102
RTVSPropertyOp21
 70
     1
102
RTVSPropertyOp22
 70
     1
102
RTVSPropertyOp23
 70
     1
102
RTVSPropertyOp24
 70
     1
102
RTVSPropertyOp25
 70
     1
102
RTVSPropertyOp26
 70
     1
102
RTVSPropertyOp27
 70
     1
102
RTVSPropertyOp28
 70
     1
102
RTVSPropertyOp29
 70
     1
102
RTVSPropertyOp30
 70
     1
102
RTVSPropertyOp31
 70
     1
102
RTVSPropertyOp32
 70
     1
  0
XRECORD
  5
C7
102
{ACAD_REACTORS
330
C6
102
}
330
C6
100
AcDbXrecord
280
     1
102
RTVSPropertyOp0
 70
     1
102
RTVSPropertyOp1
 70
     1
102
RTVSPropertyOp2
 70
     1
102
RTVSPropertyOp3
 70
     1
102
RTVSPropertyOp4
 70
     1
102
RTVSPropertyOp5
 70
     1
102
RTVSPropertyOp6
 70
     1
102
RTVSPropertyOp7
 70
     1
102
RTVSPropertyOp8
 70
     1
102
RTVSPropertyOp9
 70
     1
102
RTVSPropertyOp10
 70
     1
102
RTVSPropertyOp11
 70
     1
102
RTVSPropertyOp12
 70
     1
102
RTVSPropertyOp13
 70
     1
102
RTVSPropertyOp14
 70
     1
102
RTVSPropertyOp15
 70
     1
102
RTVSPropertyOp16
 70
     1
102
RTVSPropertyOp17
 70
     1
102
RTVSPropertyOp18
 70
     1
102
RTVSPropertyOp19
 70
     1
102
RTVSPropertyOp20
 70
     1
102
RTVSPropertyOp21
 70
     1
102
RTVSPropertyOp22
 70
     1
102
RTVSPropertyOp23
 70
     1
102
RTVSPropertyOp24
 70
     1
102
RTVSPropertyOp25
 70
     1
102
RTVSPropertyOp26
 70
     1
102
RTVSPropertyOp27
 70
     1
102
RTVSPropertyOp28
 70
     1
102
RTVSPropertyOp29
 70
     1
102
RTVSPropertyOp30
 70
     1
102
RTVSPropertyOp31
 70
     1
102
RTVSPropertyOp32
 70
     1
  0
XRECORD
  5
BD
102
{ACAD_REACTORS
330
BC
102
}
330
BC
100
AcDbXrecord
280
     1
102
RTVSPropertyOp0
 70
     1
102
RTVSPropertyOp1
 70
     1
102
RTVSPropertyOp2
 70
     1
102
RTVSPropertyOp3
 70
     1
102
RTVSPropertyOp4
 70
     1
102
RTVSPropertyOp5
 70
     1
102
RTVSPropertyOp6
 70
     1
102
RTVSPropertyOp7
 70
     1
102
RTVSPropertyOp8
 70
     1
102
RTVSPropertyOp9
 70
     1
102
RTVSPropertyOp10
 70
     1
102
RTVSPropertyOp11
 70
     1
102
RTVSPropertyOp12
 70
     1
102
RTVSPropertyOp13
 70
     1
102
RTVSPropertyOp14
 70
     1
102
RTVSPropertyOp15
 70
     1
102
RTVSPropertyOp16
 70
     1
102
RTVSPropertyOp17
 70
     1
102
RTVSPropertyOp18
 70
     1
102
RTVSPropertyOp19
 70
     1
102
RTVSPropertyOp20
 70
     1
102
RTVSPropertyOp21
 70
     1
102
RTVSPropertyOp22
 70
     1
102
RTVSPropertyOp23
 70
     1
102
RTVSPropertyOp24
 70
     1
102
RTVSPropertyOp25
 70
     1
102
RTVSPropertyOp26
 70
     1
102
RTVSPropertyOp27
 70
     1
102
RTVSPropertyOp28
 70
     1
102
RTVSPropertyOp29
 70
     1
102
RTVSPropertyOp30
 70
     1
102
RTVSPropertyOp31
 70
     1
102
RTVSPropertyOp32
 70
     1
  0
XRECORD
  5
C5
102
{ACAD_REACTORS
330
C4
102
}
330
C4
100
AcDbXrecord
280
     1
102
RTVSPropertyOp0
 70
     1
102
RTVSPropertyOp1
 70
     1
102
RTVSPropertyOp2
 70
     1
102
RTVSPropertyOp3
 70
     1
102
RTVSPropertyOp4
 70
     1
102
RTVSPropertyOp5
 70
     1
102
RTVSPropertyOp6
 70
     1
102
RTVSPropertyOp7
 70
     1
102
RTVSPropertyOp8
 70
     1
102
RTVSPropertyOp9
 70
     1
102
RTVSPropertyOp10
 70
     1
102
RTVSPropertyOp11
 70
     1
102
RTVSPropertyOp12
 70
     1
102
RTVSPropertyOp13
 70
     1
102
RTVSPropertyOp14
 70
     1
102
RTVSPropertyOp15
 70
     1
102
RTVSPropertyOp16
 70
     1
102
RTVSPropertyOp17
 70
     1
102
RTVSPropertyOp18
 70
     1
102
RTVSPropertyOp19
 70
     1
102
RTVSPropertyOp20
 70
     1
102
RTVSPropertyOp21
 70
     1
102
RTVSPropertyOp22
 70
     1
102
RTVSPropertyOp23
 70
     1
102
RTVSPropertyOp24
 70
     1
102
RTVSPropertyOp25
 70
     1
102
RTVSPropertyOp26
 70
     1
102
RTVSPropertyOp27
 70
     1
102
RTVSPropertyOp28
 70
     1
102
RTVSPropertyOp29
 70
     1
102
RTVSPropertyOp30
 70
     1
102
RTVSPropertyOp31
 70
     1
102
RTVSPropertyOp32
 70
     1
  0
ENDSEC
  0
EOF
