  0
SECTION
  2
HEADER
  9
$ACADVER
  1
AC1021
  9
$ACADMAINTVER
 70
    25
  9
$DWGCODEPAGE
  3
ANSI_1252
  9
$INSBASE
 10
0.0
 20
0.0
 30
0.0
  9
$EXTMIN
 10
-187.3656
 20
-114.9967
 30
0.0
  9
$EXTMAX
 10
-25.544
 20
131.825
 30
0.0
  9
$LIMMIN
 10
0.0
 20
0.0
  9
$LIMMAX
 10
12.0
 20
9.0
  9
$ORTHOMODE
 70
     0
  9
$REGENMODE
 70
     1
  9
$FILLMODE
 70
     1
  9
$QTEXTMODE
 70
     0
  9
$MIRRTEXT
 70
     1
  9
$LTSCALE
 40
1.0
  9
$ATTMODE
 70
     1
  9
$TEXTSIZE
 40
0.2
  9
$TRACEWID
 40
0.05
  9
$TEXTSTYLE
  7
Standard
  9
$CLAYER
  8
0
  9
$CELTYPE
  6
ByLayer
  9
$CECOLOR
 62
   256
  9
$CELTSCALE
 40
1.0
  9
$DISPSILH
 70
     0
  9
$DIMSCALE
 40
1.0
  9
$DIMASZ
 40
0.18
  9
$DIMEXO
 40
0.0625
  9
$DIMDLI
 40
0.38
  9
$DIMRND
 40
0.0
  9
$DIMDLE
 40
0.0
  9
$DIMEXE
 40
0.18
  9
$DIMTP
 40
0.0
  9
$DIMTM
 40
0.0
  9
$DIMTXT
 40
0.18
  9
$DIMCEN
 40
0.09
  9
$DIMTSZ
 40
0.0
  9
$DIMTOL
 70
     0
  9
$DIMLIM
 70
     0
  9
$DIMTIH
 70
     1
  9
$DIMTOH
 70
     1
  9
$DIMSE1
 70
     0
  9
$DIMSE2
 70
     0
  9
$DIMTAD
 70
     0
  9
$DIMZIN
 70
     0
  9
$DIMBLK
  1

  9
$DIMASO
 70
     1
  9
$DIMSHO
 70
     1
  9
$DIMPOST
  1

  9
$DIMAPOST
  1

  9
$DIMALT
 70
     0
  9
$DIMALTD
 70
     2
  9
$DIMALTF
 40
25.4
  9
$DIMLFAC
 40
1.0
  9
$DIMTOFL
 70
     0
  9
$DIMTVP
 40
0.0
  9
$DIMTIX
 70
     0
  9
$DIMSOXD
 70
     0
  9
$DIMSAH
 70
     0
  9
$DIMBLK1
  1

  9
$DIMBLK2
  1

  9
$DIMSTYLE
  2
Standard
  9
$DIMCLRD
 70
     0
  9
$DIMCLRE
 70
     0
  9
$DIMCLRT
 70
     0
  9
$DIMTFAC
 40
1.0
  9
$DIMGAP
 40
0.09
  9
$DIMJUST
 70
     0
  9
$DIMSD1
 70
     0
  9
$DIMSD2
 70
     0
  9
$DIMTOLJ
 70
     1
  9
$DIMTZIN
 70
     0
  9
$DIMALTZ
 70
     0
  9
$DIMALTTZ
 70
     0
  9
$DIMUPT
 70
     0
  9
$DIMDEC
 70
     4
  9
$DIMTDEC
 70
     4
  9
$DIMALTU
 70
     2
  9
$DIMALTTD
 70
     2
  9
$DIMTXSTY
  7
Standard
  9
$DIMAUNIT
 70
     0
  9
$DIMADEC
 70
     0
  9
$DIMALTRND
 40
0.0
  9
$DIMAZIN
 70
     0
  9
$DIMDSEP
 70
    46
  9
$DIMATFIT
 70
     3
  9
$DIMFRAC
 70
     0
  9
$DIMLDRBLK
  1

  9
$DIMLUNIT
 70
     2
  9
$DIMLWD
 70
    -2
  9
$DIMLWE
 70
    -2
  9
$DIMTMOVE
 70
     0
  9
$DIMFXL
 40
1.0
  9
$DIMFXLON
 70
     0
  9
$DIMJOGANG
 40
0.7853981633974483
  9
$DIMTFILL
 70
     0
  9
$DIMTFILLCLR
 70
     0
  9
$DIMARCSYM
 70
     0
  9
$DIMLTYPE
  6

  9
$DIMLTEX1
  6

  9
$DIMLTEX2
  6

  9
$LUNITS
 70
     2
  9
$LUPREC
 70
     4
  9
$SKETCHINC
 40
0.1
  9
$FILLETRAD
 40
0.5
  9
$AUNITS
 70
     0
  9
$AUPREC
 70
     0
  9
$MENU
  1
.
  9
$ELEVATION
 40
0.0
  9
$PELEVATION
 40
0.0
  9
$THICKNESS
 40
0.0
  9
$LIMCHECK
 70
     0
  9
$CHAMFERA
 40
0.5
  9
$CHAMFERB
 40
0.5
  9
$CHAMFERC
 40
1.0
  9
$CHAMFERD
 40
0.0
  9
$SKPOLY
 70
     0
  9
$TDCREATE
 40
2458492.632611539
  9
$TDUCREATE
 40
2458492.632611539
  9
$TDUPDATE
 40
2458492.632611736
  9
$TDUUPDATE
 40
2458492.632611736
  9
$TDINDWG
 40
0.0000000116
  9
$TDUSRTIMER
 40
0.0000000116
  9
$USRTIMER
 70
     1
  9
$ANGBASE
 50
0.0
  9
$ANGDIR
 70
     0
  9
$PDMODE
 70
     0
  9
$PDSIZE
 40
0.0
  9
$PLINEWID
 40
0.0
  9
$SPLFRAME
 70
     0
  9
$SPLINETYPE
 70
     6
  9
$SPLINESEGS
 70
     8
  9
$HANDSEED
  5
BB
  9
$SURFTAB1
 70
     6
  9
$SURFTAB2
 70
     6
  9
$SURFTYPE
 70
     6
  9
$SURFU
 70
     6
  9
$SURFV
 70
     6
  9
$UCSBASE
  2

  9
$UCSNAME
  2

  9
$UCSORG
 10
0.0
 20
0.0
 30
0.0
  9
$UCSXDIR
 10
1.0
 20
0.0
 30
0.0
  9
$UCSYDIR
 10
0.0
 20
1.0
 30
0.0
  9
$UCSORTHOREF
  2

  9
$UCSORTHOVIEW
 70
     0
  9
$UCSORGTOP
 10
0.0
 20
0.0
 30
0.0
  9
$UCSORGBOTTOM
 10
0.0
 20
0.0
 30
0.0
  9
$UCSORGLEFT
 10
0.0
 20
0.0
 30
0.0
  9
$UCSORGRIGHT
 10
0.0
 20
0.0
 30
0.0
  9
$UCSORGFRONT
 10
0.0
 20
0.0
 30
0.0
  9
$UCSORGBACK
 10
0.0
 20
0.0
 30
0.0
  9
$PUCSBASE
  2

  9
$PUCSNAME
  2

  9
$PUCSORG
 10
0.0
 20
0.0
 30
0.0
  9
$PUCSXDIR
 10
1.0
 20
0.0
 30
0.0
  9
$PUCSYDIR
 10
0.0
 20
1.0
 30
0.0
  9
$PUCSORTHOREF
  2

  9
$PUCSORTHOVIEW
 70
     0
  9
$PUCSORGTOP
 10
0.0
 20
0.0
 30
0.0
  9
$PUCSORGBOTTOM
 10
0.0
 20
0.0
 30
0.0
  9
$PUCSORGLEFT
 10
0.0
 20
0.0
 30
0.0
  9
$PUCSORGRIGHT
 10
0.0
 20
0.0
 30
0.0
  9
$PUCSORGFRONT
 10
0.0
 20
0.0
 30
0.0
  9
$PUCSORGBACK
 10
0.0
 20
0.0
 30
0.0
  9
$USERI1
 70
     0
  9
$USERI2
 70
     0
  9
$USERI3
 70
     0
  9
$USERI4
 70
     0
  9
$USERI5
 70
     0
  9
$USERR1
 40
0.0
  9
$USERR2
 40
0.0
  9
$USERR3
 40
0.0
  9
$USERR4
 40
0.0
  9
$USERR5
 40
0.0
  9
$WORLDVIEW
 70
     1
  9
$SHADEDGE
 70
     3
  9
$SHADEDIF
 70
    70
  9
$TILEMODE
 70
     1
  9
$MAXACTVP
 70
    64
  9
$PINSBASE
 10
0.0
 20
0.0
 30
0.0
  9
$PLIMCHECK
 70
     0
  9
$PEXTMIN
 10
1.000000000000000E+20
 20
1.000000000000000E+20
 30
1.000000000000000E+20
  9
$PEXTMAX
 10
-1.000000000000000E+20
 20
-1.000000000000000E+20
 30
-1.000000000000000E+20
  9
$PLIMMIN
 10
0.0
 20
0.0
  9
$PLIMMAX
 10
12.0
 20
9.0
  9
$UNITMODE
 70
     0
  9
$VISRETAIN
 70
     1
  9
$PLINEGEN
 70
     0
  9
$PSLTSCALE
 70
     1
  9
$TREEDEPTH
 70
  3020
  9
$CMLSTYLE
  2
Standard
  9
$CMLJUST
 70
     0
  9
$CMLSCALE
 40
1.0
  9
$PROXYGRAPHICS
 70
     1
  9
$MEASUREMENT
 70
     0
  9
$CELWEIGHT
370
    -1
  9
$ENDCAPS
280
     0
  9
$JOINSTYLE
280
     0
  9
$LWDISPLAY
290
     0
  9
$INSUNITS
 70
     4
  9
$HYPERLINKBASE
  1

  9
$STYLESHEET
  1

  9
$XEDIT
290
     1
  9
$CEPSNTYPE
380
     0
  9
$PSTYLEMODE
290
     1
  9
$FINGERPRINTGUID
  2
{2693E7E1-C5A9-435B-ACAA-92CB2F97167E}
  9
$VERSIONGUID
  2
{FAEB1C32-E019-11D5-929B-00C0DF256EC4}
  9
$EXTNAMES
290
     1
  9
$PSVPSCALE
 40
0.0
  9
$OLESTARTUP
290
     0
  9
$SORTENTS
280
   127
  9
$INDEXCTL
280
     0
  9
$HIDETEXT
280
     1
  9
$XCLIPFRAME
290
     0
  9
$HALOGAP
280
     0
  9
$OBSCOLOR
 70
   257
  9
$OBSLTYPE
280
     0
  9
$INTERSECTIONDISPLAY
280
     0
  9
$INTERSECTIONCOLOR
 70
   257
  9
$DIMASSOC
280
     2
  9
$PROJECTNAME
  1

  9
$CAMERADISPLAY
290
     0
  9
$LENSLENGTH
 40
50.0
  9
$CAMERAHEIGHT
 40
0.0
  9
$STEPSPERSEC
 40
2.0
  9
$STEPSIZE
 40
6.0
  9
$3DDWFPREC
 40
2.0
  9
$PSOLWIDTH
 40
0.25
  9
$PSOLHEIGHT
 40
4.0
  9
$LOFTANG1
 40
1.570796326794897
  9
$LOFTANG2
 40
1.570796326794897
  9
$LOFTMAG1
 40
0.0
  9
$LOFTMAG2
 40
0.0
  9
$LOFTPARAM
 70
     7
  9
$LOFTNORMALS
280
     1
  9
$LATITUDE
 40
37.795
  9
$LONGITUDE
 40
-122.394
  9
$NORTHDIRECTION
 40
0.0
  9
$TIMEZONE
 70
 -8000
  9
$LIGHTGLYPHDISPLAY
280
     1
  9
$TILEMODELIGHTSYNCH
280
     1
  9
$SOLIDHIST
280
     1
  9
$SHOWHIST
280
     1
  9
$DWFFRAME
280
     2
  9
$DGNFRAME
280
     2
  9
$REALWORLDSCALE
290
     1
  9
$INTERFERECOLOR
 62
   256
  9
$CSHADOW
280
     0
  9
$SHADOWPLANELOCATION
 40
0.0
  0
ENDSEC
  0
SECTION
  2
CLASSES
  0
CLASS
  1
ACDBDICTIONARYWDFLT
  2
AcDbDictionaryWithDefault
  3
ObjectDBX Classes
 90
        0
 91
        4
280
     0
281
     0
  0
CLASS
  1
VISUALSTYLE
  2
AcDbVisualStyle
  3
ObjectDBX Classes
 90
     4095
 91
        4
280
     0
281
     0
  0
CLASS
  1
MATERIAL
  2
AcDbMaterial
  3
ObjectDBX Classes
 90
     1153
 91
        4
280
     0
281
     0
  0
ENDSEC
  0
SECTION
  2
TABLES
  0
TABLE
  2
VPORT
  5
8
330
0
100
AcDbSymbolTable
 70
     1
  0
VPORT
  5
29
330
8
100
AcDbSymbolTableRecord
100
AcDbViewportTableRecord
  2
*Active
 70
     0
 10
0.0
 20
0.0
 11
1.0
 21
1.0
 12
10.42990654205607
 22
4.5
 13
0.0
 23
0.0
 14
0.5
 24
0.5
 15
0.5
 25
0.5
 16
0.0
 26
0.0
 36
1.0
 17
0.0
 27
0.0
 37
0.0
 40
9.0
 41
1.972972972850329
 42
50.0
 43
0.0
 44
0.0
 50
0.0
 51
0.0
 71
     0
 72
   100
 73
     1
 74
     3
 75
     0
 76
     0
 77
     0
 78
     0
281
     0
 65
     1
110
0.0
120
0.0
130
0.0
111
1.0
121
0.0
131
0.0
112
0.0
122
1.0
132
0.0
 79
     0
146
0.0
 60
     3
 61
     5
292
     1
282
     1
141
0.0
142
0.0
 63
   250
  0
ENDTAB
  0
TABLE
  2
LTYPE
  5
5
330
0
100
AcDbSymbolTable
 70
     1
  0
LTYPE
  5
14
330
5
100
AcDbSymbolTableRecord
100
AcDbLinetypeTableRecord
  2
ByBlock
 70
     0
  3

 72
    65
 73
     0
 40
0.0
  0
LTYPE
  5
15
330
5
100
AcDbSymbolTableRecord
100
AcDbLinetypeTableRecord
  2
ByLayer
 70
     0
  3

 72
    65
 73
     0
 40
0.0
  0
LTYPE
  5
16
330
5
100
AcDbSymbolTableRecord
100
AcDbLinetypeTableRecord
  2
Continuous
 70
     0
  3
Solid line
 72
    65
 73
     0
 40
0.0
  0
ENDTAB
  0
TABLE
  2
LAYER
  5
2
330
0
100
AcDbSymbolTable
 70
     3
  0
LAYER
  5
10
330
2
100
AcDbSymbolTableRecord
100
AcDbLayerTableRecord
  2
0
 70
     0
 62
     7
  6
Continuous
370
    -3
390
F
347
3E
  0
LAYER
  5
40
330
2
100
AcDbSymbolTableRecord
100
AcDbLayerTableRecord
  2
layer 1
 70
     0
 62
     7
  6
Continuous
370
    -3
390
F
347
3E
  0
LAYER
  5
98
330
2
100
AcDbSymbolTableRecord
100
AcDbLayerTableRecord
  2
Master Guides
 70
     0
 62
     7
  6
Continuous
370
    -3
390
F
347
3E
  0
ENDTAB
  0
TABLE
  2
STYLE
  5
3
330
0
100
AcDbSymbolTable
 70
     1
  0
STYLE
  5
11
330
3
100
AcDbSymbolTableRecord
100
AcDbTextStyleTableRecord
  2
Standard
 70
     0
 40
0.0
 41
1.0
 50
0.0
 71
     0
 42
0.2
  3
txt
  4

  0
ENDTAB
  0
TABLE
  2
VIEW
  5
6
330
0
100
AcDbSymbolTable
 70
     0
  0
ENDTAB
  0
TABLE
  2
UCS
  5
7
330
0
100
AcDbSymbolTable
 70
     0
  0
ENDTAB
  0
TABLE
  2
APPID
  5
9
330
0
100
AcDbSymbolTable
 70
     2
  0
APPID
  5
12
330
9
100
AcDbSymbolTableRecord
100
AcDbRegAppTableRecord
  2
ACAD
 70
     0
  0
APPID
  5
3F
330
9
100
AcDbSymbolTableRecord
100
AcDbRegAppTableRecord
  2
ODA
 70
     0
  0
ENDTAB
  0
TABLE
  2
DIMSTYLE
  5
A
330
0
100
AcDbSymbolTable
 70
     1
100
AcDbDimStyleTable
  0
DIMSTYLE
105
27
330
A
100
AcDbSymbolTableRecord
100
AcDbDimStyleTableRecord
  2
Standard
 70
     0
178
     0
340
11
  0
ENDTAB
  0
TABLE
  2
BLOCK_RECORD
  5
1
330
0
100
AcDbSymbolTable
 70
     1
  0
BLOCK_RECORD
  5
1F
330
1
100
AcDbSymbolTableRecord
100
AcDbBlockTableRecord
  2
*Model_Space
340
22
 70
     0
280
     1
281
     0
  0
BLOCK_RECORD
  5
1B
330
1
100
AcDbSymbolTableRecord
100
AcDbBlockTableRecord
  2
*Paper_Space
340
1E
 70
     0
280
     1
281
     0
  0
BLOCK_RECORD
  5
23
330
1
100
AcDbSymbolTableRecord
100
AcDbBlockTableRecord
  2
*Paper_Space0
340
26
 70
     0
280
     1
281
     0
  0
ENDTAB
  0
ENDSEC
  0
SECTION
  2
BLOCKS
  0
BLOCK
  5
20
330
1F
100
AcDbEntity
  8
0
100
AcDbBlockBegin
  2
*Model_Space
 70
     0
 10
0.0
 20
0.0
 30
0.0
  3
*Model_Space
  1

  0
ENDBLK
  5
21
330
1F
100
AcDbEntity
  8
0
100
AcDbBlockEnd
  0
BLOCK
  5
1C
330
1B
100
AcDbEntity
 67
     1
  8
0
100
AcDbBlockBegin
  2
*Paper_Space
 70
     0
 10
0.0
 20
0.0
 30
0.0
  3
*Paper_Space
  1

  0
ENDBLK
  5
1D
330
1B
100
AcDbEntity
 67
     1
  8
0
100
AcDbBlockEnd
  0
BLOCK
  5
24
330
23
100
AcDbEntity
  8
0
100
AcDbBlockBegin
  2
*Paper_Space0
 70
     0
 10
0.0
 20
0.0
 30
0.0
  3
*Paper_Space0
  1

  0
ENDBLK
  5
25
330
23
100
AcDbEntity
  8
0
100
AcDbBlockEnd
  0
ENDSEC
  0
SECTION
  2
ENTITIES
  0
SPLINE
  5
41
330
1F
100
AcDbEntity
  8
layer 1
100
AcDbSpline
210
0.0
220
0.0
230
1.0
 70
    11
 71
     3
 72
    20
 73
    16
 74
     0
 42
0.0000000001
 43
0.0000000001
 12
1.0
 22
0.0
 32
0.0
 13
1.0
 23
0.0
 33
0.0
 40
0.0
 40
0.0
 40
0.0
 40
0.0
 40
0.2
 40
0.2
 40
0.2
 40
0.2
 40
0.4
 40
0.4
 40
0.4
 40
0.4
 40
0.6
 40
0.6
 40
0.6
 40
0.6
 40
1.0
 40
1.0
 40
1.0
 40
1.0
 10
-187.3656
 20
-114.9967
 30
0.0
 10
-187.3656
 20
-114.9967
 30
0.0
 10
-187.3656
 20
131.825
 30
0.0
 10
-187.3656
 20
131.825
 30
0.0
 10
-187.3656
 20
131.825
 30
0.0
 10
-187.3656
 20
131.825
 30
0.0
 10
-25.544
 20
131.825
 30
0.0
 10
-25.544
 20
131.825
 30
0.0
 10
-25.544
 20
131.825
 30
0.0
 10
-25.544
 20
131.825
 30
0.0
 10
-25.544
 20
-114.9967
 30
0.0
 10
-25.544
 20
-114.9967
 30
0.0
 10
-25.544
 20
-114.9967
 30
0.0
 10
-25.544
 20
-114.9967
 30
0.0
 10
-187.3656
 20
-114.9967
 30
0.0
 10
-187.3656
 20
-114.9967
 30
0.0
  0
SPLINE
  5
42
330
1F
100
AcDbEntity
  8
layer 1
 62
     7
100
AcDbSpline
210
0.0
220
0.0
230
1.0
 70
    11
 71
     3
 72
    40
 73
    36
 74
     0
 42
0.0000000001
 43
0.0000000001
 12
1.0
 22
0.0
 32
0.0
 13
1.0
 23
0.0
 33
0.0
 40
0.0
 40
0.0
 40
0.0
 40
0.0
 40
0.1
 40
0.1
 40
0.1
 40
0.1
 40
0.2
 40
0.2
 40
0.2
 40
0.2
 40
0.3
 40
0.3
 40
0.3
 40
0.3
 40
0.4
 40
0.4
 40
0.4
 40
0.4
 40
0.5
 40
0.5
 40
0.5
 40
0.5
 40
0.6
 40
0.6
 40
0.6
 40
0.6
 40
0.7
 40
0.7
 40
0.7
 40
0.7
 40
0.8
 40
0.8
 40
0.8
 40
0.8
 40
1.0
 40
1.0
 40
1.0
 40
1.0
 10
-172.864
 20
-53.1773
 30
0.0
 10
-166.6364
 20
-46.4409
 30
0.0
 10
-155.833
 20
-37.3404
 30
0.0
 10
-165.9839
 20
-28.2157
 30
0.0
 10
-165.9839
 20
-28.2157
 30
0.0
 10
-164.368
 20
-28.9879
 30
0.0
 10
-159.3191
 20
-28.7194
 30
0.0
 10
-157.6178
 20
-27.1204
 30
0.0
 10
-157.6178
 20
-27.1204
 30
0.0
 10
-155.049
 20
-28.0883
 30
0.0
 10
-153.7621
 20
-29.8047
 30
0.0
 10
-152.6217
 20
-31.9686
 30
0.0
 10
-152.6217
 20
-31.9686
 30
0.0
 10
-153.357
 20
-32.598
 30
0.0
 10
-154.7959
 20
-32.9636
 30
0.0
 10
-155.7382
 20
-32.9656
 30
0.0
 10
-155.7382
 20
-32.9656
 30
0.0
 10
-152.7712
 20
-36.5534
 30
0.0
 10
-154.1068
 20
-42.7934
 30
0.0
 10
-156.6102
 20
-43.9926
 30
0.0
 10
-156.6102
 20
-43.9926
 30
0.0
 10
-154.1743
 20
-43.9908
 30
0.0
 10
-152.8484
 20
-45.8472
 30
0.0
 10
-152.3102
 20
-47.8881
 30
0.0
 10
-152.3102
 20
-47.8881
 30
0.0
 10
-160.773
 20
-47.3323
 30
0.0
 10
-164.5068
 20
-56.1355
 30
0.0
 10
-166.5525
 20
-58.2948
 30
0.0
 10
-166.5525
 20
-58.2948
 30
0.0
 10
-166.2384
 20
-55.024
 30
0.0
 10
-167.8333
 20
-52.3515
 30
0.0
 10
-172.864
 20
-53.1774
 30
0.0
 10
-172.864
 20
-53.1774
 30
0.0
 10
-172.864
 20
-53.1774
 30
0.0
 10
-172.864
 20
-53.1773
 30
0.0
 10
-172.864
 20
-53.1773
 30
0.0
  0
SPLINE
  5
43
330
1F
100
AcDbEntity
  8
layer 1
 62
     7
100
AcDbSpline
210
0.0
220
0.0
230
1.0
 70
    11
 71
     3
 72
    24
 73
    20
 74
     0
 42
0.0000000001
 43
0.0000000001
 12
1.0
 22
0.0
 32
0.0
 13
1.0
 23
0.0
 33
0.0
 40
0.0
 40
0.0
 40
0.0
 40
0.0
 40
0.1666666666666667
 40
0.1666666666666667
 40
0.1666666666666667
 40
0.1666666666666667
 40
0.3333333333333333
 40
0.3333333333333333
 40
0.3333333333333333
 40
0.3333333333333333
 40
0.5
 40
0.5
 40
0.5
 40
0.5
 40
0.6666666666666666
 40
0.6666666666666666
 40
0.6666666666666666
 40
0.6666666666666666
 40
1.0
 40
1.0
 40
1.0
 40
1.0
 10
-150.518
 20
-53.1773
 30
0.0
 10
-147.6989
 20
-51.2882
 30
0.0
 10
-147.4764
 20
-47.9656
 30
0.0
 10
-147.0278
 20
-43.1014
 30
0.0
 10
-147.0278
 20
-43.1014
 30
0.0
 10
-146.5743
 20
-38.1837
 30
0.0
 10
-143.0682
 20
-34.7432
 30
0.0
 10
-143.8654
 20
-31.343
 30
0.0
 10
-143.8654
 20
-31.343
 30
0.0
 10
-137.2494
 20
-45.4855
 30
0.0
 10
-141.6708
 20
-47.7202
 30
0.0
 10
-137.7327
 20
-53.2607
 30
0.0
 10
-137.7327
 20
-53.2607
 30
0.0
 10
-141.1276
 20
-55.8971
 30
0.0
 10
-143.0136
 20
-58.4483
 30
0.0
 10
-143.8085
 20
-63.867
 30
0.0
 10
-143.8085
 20
-63.867
 30
0.0
 10
-144.5748
 20
-60.653
 30
0.0
 10
-145.601
 20
-54.2846
 30
0.0
 10
-150.518
 20
-53.1773
 30
0.0
  0
SPLINE
  5
44
330
1F
100
AcDbEntity
  8
layer 1
 62
     7
100
AcDbSpline
210
0.0
220
0.0
230
1.0
 70
    11
 71
     3
 72
    24
 73
    20
 74
     0
 42
0.0000000001
 43
0.0000000001
 12
1.0
 22
0.0
 32
0.0
 13
1.0
 23
0.0
 33
0.0
 40
0.0
 40
0.0
 40
0.0
 40
0.0
 40
0.1666666666666667
 40
0.1666666666666667
 40
0.1666666666666667
 40
0.1666666666666667
 40
0.3333333333333333
 40
0.3333333333333333
 40
0.3333333333333333
 40
0.3333333333333333
 40
0.5
 40
0.5
 40
0.5
 40
0.5
 40
0.6666666666666666
 40
0.6666666666666666
 40
0.6666666666666666
 40
0.6666666666666666
 40
1.0
 40
1.0
 40
1.0
 40
1.0
 10
-153.9864
 20
-24.2924
 30
0.0
 10
-152.3045
 20
-22.8582
 30
0.0
 10
-150.831
 20
-19.4787
 30
0.0
 10
-151.2353
 20
-14.8987
 30
0.0
 10
-151.2353
 20
-14.8987
 30
0.0
 10
-150.5241
 20
-16.5886
 30
0.0
 10
-149.0272
 20
-16.9513
 30
0.0
 10
-147.9121
 20
-16.9321
 30
0.0
 10
-147.9121
 20
-16.9321
 30
0.0
 10
-146.328
 20
-17.6869
 30
0.0
 10
-145.8945
 20
-19.8675
 30
0.0
 10
-145.732
 20
-21.7897
 30
0.0
 10
-145.732
 20
-21.7897
 30
0.0
 10
-145.4692
 20
-24.9006
 30
0.0
 10
-148.2965
 20
-26.8568
 30
0.0
 10
-148.6415
 20
-28.8412
 30
0.0
 10
-148.6415
 20
-28.8412
 30
0.0
 10
-148.896
 20
-25.5703
 30
0.0
 10
-151.4575
 20
-23.9783
 30
0.0
 10
-153.9864
 20
-24.2924
 30
0.0
  0
SPLINE
  5
45
330
1F
100
AcDbEntity
  8
layer 1
 62
     7
100
AcDbSpline
210
0.0
220
0.0
230
1.0
 70
    11
 71
     3
 72
    20
 73
    16
 74
     0
 42
0.0000000001
 43
0.0000000001
 12
1.0
 22
0.0
 32
0.0
 13
1.0
 23
0.0
 33
0.0
 40
0.0
 40
0.0
 40
0.0
 40
0.0
 40
0.2
 40
0.2
 40
0.2
 40
0.2
 40
0.4
 40
0.4
 40
0.4
 40
0.4
 40
0.6
 40
0.6
 40
0.6
 40
0.6
 40
1.0
 40
1.0
 40
1.0
 40
1.0
 10
-174.5698
 20
-9.1676
 30
0.0
 10
-175.0485
 20
-0.9671
 30
0.0
 10
-168.0029
 20
3.436
 30
0.0
 10
-165.3367
 20
3.2397
 30
0.0
 10
-165.3367
 20
3.2397
 30
0.0
 10
-167.0706
 20
0.4695
 30
0.0
 10
-165.2325
 20
-2.452
 30
0.0
 10
-163.3213
 20
-2.4896
 30
0.0
 10
-163.3213
 20
-2.4896
 30
0.0
 10
-169.7546
 20
-4.7228
 30
0.0
 10
-168.3543
 20
-14.1245
 30
0.0
 10
-161.4824
 20
-12.0666
 30
0.0
 10
-161.4824
 20
-12.0666
 30
0.0
 10
-162.9369
 20
-20.2265
 30
0.0
 10
-173.5663
 20
-17.8365
 30
0.0
 10
-174.5698
 20
-9.1676
 30
0.0
  0
SPLINE
  5
46
330
1F
100
AcDbEntity
  8
layer 1
 62
     7
100
AcDbSpline
210
0.0
220
0.0
230
1.0
 70
    11
 71
     3
 72
    16
 73
    12
 74
     0
 42
0.0000000001
 43
0.0000000001
 12
1.0
 22
0.0
 32
0.0
 13
1.0
 23
0.0
 33
0.0
 40
0.0
 40
0.0
 40
0.0
 40
0.0
 40
0.25
 40
0.25
 40
0.25
 40
0.25
 40
0.5
 40
0.5
 40
0.5
 40
0.5
 40
1.0
 40
1.0
 40
1.0
 40
1.0
 10
-179.7061
 20
-11.8851
 30
0.0
 10
-178.4263
 20
-16.5317
 30
0.0
 10
-176.4908
 20
-19.8511
 30
0.0
 10
-172.6463
 20
-20.7417
 30
0.0
 10
-172.6463
 20
-20.7417
 30
0.0
 10
-176.9189
 20
-26.3296
 30
0.0
 10
-177.3382
 20
-40.4508
 30
0.0
 10
-177.2326
 20
-46.0689
 30
0.0
 10
-177.2326
 20
-46.0689
 30
0.0
 10
-181.0039
 20
-37.2503
 30
0.0
 10
-179.0349
 20
-21.145
 30
0.0
 10
-179.7061
 20
-11.8851
 30
0.0
  0
SPLINE
  5
47
330
1F
100
AcDbEntity
  8
layer 1
 62
     7
100
AcDbSpline
210
0.0
220
0.0
230
1.0
 70
    11
 71
     3
 72
    20
 73
    16
 74
     0
 42
0.0000000001
 43
0.0000000001
 12
1.0
 22
0.0
 32
0.0
 13
1.0
 23
0.0
 33
0.0
 40
0.0
 40
0.0
 40
0.0
 40
0.0
 40
0.2
 40
0.2
 40
0.2
 40
0.2
 40
0.4
 40
0.4
 40
0.4
 40
0.4
 40
0.6
 40
0.6
 40
0.6
 40
0.6
 40
1.0
 40
1.0
 40
1.0
 40
1.0
 10
-143.4862
 20
-1.8014
 30
0.0
 10
-145.4135
 20
2.5739
 30
0.0
 10
-147.0561
 20
5.6014
 30
0.0
 10
-152.7832
 20
7.3429
 30
0.0
 10
-152.7832
 20
7.3429
 30
0.0
 10
-147.0561
 20
9.0845
 30
0.0
 10
-145.4135
 20
12.1118
 30
0.0
 10
-143.4862
 20
16.4871
 30
0.0
 10
-143.4862
 20
16.4871
 30
0.0
 10
-143.2262
 20
13.1948
 30
0.0
 10
-140.5284
 20
8.3608
 30
0.0
 10
-135.6872
 20
7.3429
 30
0.0
 10
-135.6872
 20
7.3429
 30
0.0
 10
-140.5284
 20
6.325
 30
0.0
 10
-143.2262
 20
1.491
 30
0.0
 10
-143.4862
 20
-1.8014
 30
0.0
  0
SPLINE
  5
48
330
1F
100
AcDbEntity
  8
layer 1
 62
     7
100
AcDbSpline
210
0.0
220
0.0
230
1.0
 70
    11
 71
     3
 72
    16
 73
    12
 74
     0
 42
0.0000000001
 43
0.0000000001
 12
1.0
 22
0.0
 32
0.0
 13
1.0
 23
0.0
 33
0.0
 40
0.0
 40
0.0
 40
0.0
 40
0.0
 40
0.25
 40
0.25
 40
0.25
 40
0.25
 40
0.5
 40
0.5
 40
0.5
 40
0.5
 40
1.0
 40
1.0
 40
1.0
 40
1.0
 10
-136.199
 20
-14.2597
 30
0.0
 10
-136.4914
 20
-16.6634
 30
0.0
 10
-135.9742
 20
-21.5822
 30
0.0
 10
-133.166
 20
-24.2916
 30
0.0
 10
-133.166
 20
-24.2916
 30
0.0
 10
-135.405
 20
-23.6497
 30
0.0
 10
-138.4597
 20
-25.606
 30
0.0
 10
-138.6911
 20
-28.898
 30
0.0
 10
-138.6911
 20
-28.898
 30
0.0
 10
-143.6189
 20
-20.7913
 30
0.0
 10
-141.805
 20
-17.0255
 30
0.0
 10
-136.199
 20
-14.2597
 30
0.0
  0
SPLINE
  5
49
330
1F
100
AcDbEntity
  8
layer 1
 62
     7
100
AcDbSpline
210
0.0
220
0.0
230
1.0
 70
    11
 71
     3
 72
    24
 73
    20
 74
     0
 42
0.0000000001
 43
0.0000000001
 12
1.0
 22
0.0
 32
0.0
 13
1.0
 23
0.0
 33
0.0
 40
0.0
 40
0.0
 40
0.0
 40
0.0
 40
0.1666666666666667
 40
0.1666666666666667
 40
0.1666666666666667
 40
0.1666666666666667
 40
0.3333333333333333
 40
0.3333333333333333
 40
0.3333333333333333
 40
0.3333333333333333
 40
0.5
 40
0.5
 40
0.5
 40
0.5
 40
0.6666666666666666
 40
0.6666666666666666
 40
0.6666666666666666
 40
0.6666666666666666
 40
1.0
 40
1.0
 40
1.0
 40
1.0
 10
-158.9118
 20
-2.3041
 30
0.0
 10
-160.1133
 20
0.2395
 30
0.0
 10
-158.7439
 20
3.2687
 30
0.0
 10
-157.5778
 20
3.5174
 30
0.0
 10
-157.5778
 20
3.5174
 30
0.0
 10
-152.1938
 20
3.6043
 30
0.0
 10
-146.1249
 20
-5.5579
 30
0.0
 10
-145.6045
 20
-10.2407
 30
0.0
 10
-145.6045
 20
-10.2407
 30
0.0
 10
-147.3309
 20
-7.7155
 30
0.0
 10
-151.0508
 20
-8.575
 30
0.0
 10
-151.3958
 20
-10.5594
 30
0.0
 10
-151.3958
 20
-10.5594
 30
0.0
 10
-151.9075
 20
-5.0422
 30
0.0
 10
-157.0819
 20
-2.5469
 30
0.0
 10
-158.9117
 20
-2.3041
 30
0.0
 10
-158.9117
 20
-2.3041
 30
0.0
 10
-158.9117
 20
-2.3041
 30
0.0
 10
-158.9118
 20
-2.3041
 30
0.0
 10
-158.9118
 20
-2.3041
 30
0.0
  0
SPLINE
  5
4A
330
1F
100
AcDbEntity
  8
layer 1
 62
     7
100
AcDbSpline
210
0.0
220
0.0
230
1.0
 70
    11
 71
     3
 72
    24
 73
    20
 74
     0
 42
0.0000000001
 43
0.0000000001
 12
1.0
 22
0.0
 32
0.0
 13
1.0
 23
0.0
 33
0.0
 40
0.0
 40
0.0
 40
0.0
 40
0.0
 40
0.1666666666666667
 40
0.1666666666666667
 40
0.1666666666666667
 40
0.1666666666666667
 40
0.3333333333333333
 40
0.3333333333333333
 40
0.3333333333333333
 40
0.3333333333333333
 40
0.5
 40
0.5
 40
0.5
 40
0.5
 40
0.6666666666666666
 40
0.6666666666666666
 40
0.6666666666666666
 40
0.6666666666666666
 40
1.0
 40
1.0
 40
1.0
 40
1.0
 10
-128.5243
 20
-2.3041
 30
0.0
 10
-127.3227
 20
0.2395
 30
0.0
 10
-128.6921
 20
3.2687
 30
0.0
 10
-129.8583
 20
3.5174
 30
0.0
 10
-129.8583
 20
3.5174
 30
0.0
 10
-135.2422
 20
3.6043
 30
0.0
 10
-141.3111
 20
-5.5579
 30
0.0
 10
-141.8315
 20
-10.2407
 30
0.0
 10
-141.8315
 20
-10.2407
 30
0.0
 10
-140.1052
 20
-7.7155
 30
0.0
 10
-136.3853
 20
-8.575
 30
0.0
 10
-136.0402
 20
-10.5594
 30
0.0
 10
-136.0402
 20
-10.5594
 30
0.0
 10
-135.5286
 20
-5.0422
 30
0.0
 10
-130.3541
 20
-2.5469
 30
0.0
 10
-128.5244
 20
-2.3041
 30
0.0
 10
-128.5244
 20
-2.3041
 30
0.0
 10
-128.5244
 20
-2.3041
 30
0.0
 10
-128.5243
 20
-2.3041
 30
0.0
 10
-128.5243
 20
-2.3041
 30
0.0
  0
SPLINE
  5
4B
330
1F
100
AcDbEntity
  8
layer 1
 62
     7
100
AcDbSpline
210
0.0
220
0.0
230
1.0
 70
    11
 71
     3
 72
    20
 73
    16
 74
     0
 42
0.0000000001
 43
0.0000000001
 12
1.0
 22
0.0
 32
0.0
 13
1.0
 23
0.0
 33
0.0
 40
0.0
 40
0.0
 40
0.0
 40
0.0
 40
0.2
 40
0.2
 40
0.2
 40
0.2
 40
0.4
 40
0.4
 40
0.4
 40
0.4
 40
0.6
 40
0.6
 40
0.6
 40
0.6
 40
1.0
 40
1.0
 40
1.0
 40
1.0
 10
-112.846
 20
-9.1676
 30
0.0
 10
-112.3672
 20
-0.9671
 30
0.0
 10
-119.4129
 20
3.436
 30
0.0
 10
-122.0791
 20
3.2397
 30
0.0
 10
-122.0791
 20
3.2397
 30
0.0
 10
-120.3452
 20
0.4695
 30
0.0
 10
-122.1833
 20
-2.452
 30
0.0
 10
-124.0945
 20
-2.4896
 30
0.0
 10
-124.0945
 20
-2.4896
 30
0.0
 10
-117.6612
 20
-4.7228
 30
0.0
 10
-119.0615
 20
-14.1245
 30
0.0
 10
-125.9334
 20
-12.0666
 30
0.0
 10
-125.9334
 20
-12.0666
 30
0.0
 10
-124.4789
 20
-20.2265
 30
0.0
 10
-113.8495
 20
-17.8365
 30
0.0
 10
-112.846
 20
-9.1676
 30
0.0
  0
SPLINE
  5
4C
330
1F
100
AcDbEntity
  8
layer 1
 62
     7
100
AcDbSpline
210
0.0
220
0.0
230
1.0
 70
    11
 71
     3
 72
    40
 73
    36
 74
     0
 42
0.0000000001
 43
0.0000000001
 12
1.0
 22
0.0
 32
0.0
 13
1.0
 23
0.0
 33
0.0
 40
0.0
 40
0.0
 40
0.0
 40
0.0
 40
0.1
 40
0.1
 40
0.1
 40
0.1
 40
0.2
 40
0.2
 40
0.2
 40
0.2
 40
0.3
 40
0.3
 40
0.3
 40
0.3
 40
0.4
 40
0.4
 40
0.4
 40
0.4
 40
0.5
 40
0.5
 40
0.5
 40
0.5
 40
0.6
 40
0.6
 40
0.6
 40
0.6
 40
0.7
 40
0.7
 40
0.7
 40
0.7
 40
0.8
 40
0.8
 40
0.8
 40
0.8
 40
1.0
 40
1.0
 40
1.0
 40
1.0
 10
-114.6679
 20
-53.1773
 30
0.0
 10
-120.8955
 20
-46.4409
 30
0.0
 10
-131.6989
 20
-37.3404
 30
0.0
 10
-121.548
 20
-28.2157
 30
0.0
 10
-121.548
 20
-28.2157
 30
0.0
 10
-123.1639
 20
-28.9879
 30
0.0
 10
-128.2129
 20
-28.7194
 30
0.0
 10
-129.9142
 20
-27.1204
 30
0.0
 10
-129.9142
 20
-27.1204
 30
0.0
 10
-132.4829
 20
-28.0883
 30
0.0
 10
-133.7699
 20
-29.8047
 30
0.0
 10
-134.9102
 20
-31.9686
 30
0.0
 10
-134.9102
 20
-31.9686
 30
0.0
 10
-134.175
 20
-32.598
 30
0.0
 10
-132.736
 20
-32.9636
 30
0.0
 10
-131.7937
 20
-32.9656
 30
0.0
 10
-131.7937
 20
-32.9656
 30
0.0
 10
-134.7608
 20
-36.5534
 30
0.0
 10
-133.4251
 20
-42.7934
 30
0.0
 10
-130.9218
 20
-43.9926
 30
0.0
 10
-130.9218
 20
-43.9926
 30
0.0
 10
-133.3577
 20
-43.9908
 30
0.0
 10
-134.6835
 20
-45.8472
 30
0.0
 10
-135.2217
 20
-47.8881
 30
0.0
 10
-135.2217
 20
-47.8881
 30
0.0
 10
-126.7589
 20
-47.3323
 30
0.0
 10
-123.0252
 20
-56.1355
 30
0.0
 10
-120.9794
 20
-58.2948
 30
0.0
 10
-120.9794
 20
-58.2948
 30
0.0
 10
-121.2935
 20
-55.024
 30
0.0
 10
-119.6987
 20
-52.3515
 30
0.0
 10
-114.668
 20
-53.1774
 30
0.0
 10
-114.668
 20
-53.1774
 30
0.0
 10
-114.668
 20
-53.1774
 30
0.0
 10
-114.6679
 20
-53.1773
 30
0.0
 10
-114.6679
 20
-53.1773
 30
0.0
  0
SPLINE
  5
4D
330
1F
100
AcDbEntity
  8
layer 1
 62
     7
100
AcDbSpline
210
0.0
220
0.0
230
1.0
 70
    11
 71
     3
 72
    16
 73
    12
 74
     0
 42
0.0000000001
 43
0.0000000001
 12
1.0
 22
0.0
 32
0.0
 13
1.0
 23
0.0
 33
0.0
 40
0.0
 40
0.0
 40
0.0
 40
0.0
 40
0.25
 40
0.25
 40
0.25
 40
0.25
 40
0.5
 40
0.5
 40
0.5
 40
0.5
 40
1.0
 40
1.0
 40
1.0
 40
1.0
 10
-108.0712
 20
-0.0723
 30
0.0
 10
-109.124
 20
4.7791
 30
0.0
 10
-112.6779
 20
6.6661
 30
0.0
 10
-115.6426
 20
7.3429
 30
0.0
 10
-115.6426
 20
7.3429
 30
0.0
 10
-112.6779
 20
8.0197
 30
0.0
 10
-109.124
 20
9.9066
 30
0.0
 10
-108.0712
 20
14.7581
 30
0.0
 10
-108.0712
 20
14.7581
 30
0.0
 10
-108.0712
 20
14.7581
 30
0.0
 10
-108.0712
 20
-0.0723
 30
0.0
 10
-108.0712
 20
-0.0723
 30
0.0
  0
SPLINE
  5
4E
330
1F
100
AcDbEntity
  8
layer 1
 62
     7
100
AcDbSpline
210
0.0
220
0.0
230
1.0
 70
    11
 71
     3
 72
    16
 73
    12
 74
     0
 42
0.0000000001
 43
0.0000000001
 12
1.0
 22
0.0
 32
0.0
 13
1.0
 23
0.0
 33
0.0
 40
0.0
 40
0.0
 40
0.0
 40
0.0
 40
0.25
 40
0.25
 40
0.25
 40
0.25
 40
0.5
 40
0.5
 40
0.5
 40
0.5
 40
1.0
 40
1.0
 40
1.0
 40
1.0
 10
-157.706
 20
-62.1251
 30
0.0
 10
-150.1146
 20
-60.6328
 30
0.0
 10
-143.7761
 20
-69.6767
 30
0.0
 10
-146.8809
 20
-76.2364
 30
0.0
 10
-146.8809
 20
-76.2364
 30
0.0
 10
-147.1949
 20
-69.4525
 30
0.0
 10
-152.2663
 20
-65.3583
 30
0.0
 10
-157.8146
 20
-67.1837
 30
0.0
 10
-157.8146
 20
-67.1837
 30
0.0
 10
-161.5049
 20
-67.6942
 30
0.0
 10
-161.1577
 20
-63.1492
 30
0.0
 10
-157.706
 20
-62.1251
 30
0.0
  0
SPLINE
  5
4F
330
1F
100
AcDbEntity
  8
layer 1
 62
     7
100
AcDbSpline
210
0.0
220
0.0
230
1.0
 70
    11
 71
     3
 72
    16
 73
    12
 74
     0
 42
0.0000000001
 43
0.0000000001
 12
1.0
 22
0.0
 32
0.0
 13
1.0
 23
0.0
 33
0.0
 40
0.0
 40
0.0
 40
0.0
 40
0.0
 40
0.25
 40
0.25
 40
0.25
 40
0.25
 40
0.5
 40
0.5
 40
0.5
 40
0.5
 40
1.0
 40
1.0
 40
1.0
 40
1.0
 10
-129.6043
 20
-62.1251
 30
0.0
 10
-137.1957
 20
-60.6328
 30
0.0
 10
-143.5342
 20
-69.6767
 30
0.0
 10
-140.4294
 20
-76.2364
 30
0.0
 10
-140.4294
 20
-76.2364
 30
0.0
 10
-140.1155
 20
-69.4525
 30
0.0
 10
-135.044
 20
-65.3583
 30
0.0
 10
-129.4957
 20
-67.1837
 30
0.0
 10
-129.4957
 20
-67.1837
 30
0.0
 10
-125.8054
 20
-67.6942
 30
0.0
 10
-126.1526
 20
-63.1492
 30
0.0
 10
-129.6043
 20
-62.1251
 30
0.0
  0
SPLINE
  5
50
330
1F
100
AcDbEntity
  8
layer 1
 62
     7
100
AcDbSpline
210
0.0
220
0.0
230
1.0
 70
    11
 71
     3
 72
    16
 73
    12
 74
     0
 42
0.0000000001
 43
0.0000000001
 12
1.0
 22
0.0
 32
0.0
 13
1.0
 23
0.0
 33
0.0
 40
0.0
 40
0.0
 40
0.0
 40
0.0
 40
0.25
 40
0.25
 40
0.25
 40
0.25
 40
0.5
 40
0.5
 40
0.5
 40
0.5
 40
1.0
 40
1.0
 40
1.0
 40
1.0
 10
-134.0546
 20
-101.269
 30
0.0
 10
-137.0055
 20
-106.4602
 30
0.0
 10
-147.3513
 20
-109.3248
 30
0.0
 10
-153.0228
 20
-101.4461
 30
0.0
 10
-153.0228
 20
-101.4461
 30
0.0
 10
-148.2031
 20
-101.5377
 30
0.0
 10
-145.2075
 20
-96.8476
 30
0.0
 10
-143.7887
 20
-92.3018
 30
0.0
 10
-143.7887
 20
-92.3018
 30
0.0
 10
-143.4913
 20
-96.6625
 30
0.0
 10
-138.1021
 20
-102.1097
 30
0.0
 10
-134.0546
 20
-101.269
 30
0.0
  0
SPLINE
  5
51
330
1F
100
AcDbEntity
  8
layer 1
 62
     7
100
AcDbSpline
210
0.0
220
0.0
230
1.0
 70
    11
 71
     3
 72
    24
 73
    20
 74
     0
 42
0.0000000001
 43
0.0000000001
 12
1.0
 22
0.0
 32
0.0
 13
1.0
 23
0.0
 33
0.0
 40
0.0
 40
0.0
 40
0.0
 40
0.0
 40
0.1666666666666667
 40
0.1666666666666667
 40
0.1666666666666667
 40
0.1666666666666667
 40
0.3333333333333333
 40
0.3333333333333333
 40
0.3333333333333333
 40
0.3333333333333333
 40
0.5
 40
0.5
 40
0.5
 40
0.5
 40
0.6666666666666666
 40
0.6666666666666666
 40
0.6666666666666666
 40
0.6666666666666666
 40
1.0
 40
1.0
 40
1.0
 40
1.0
 10
-169.1078
 20
-61.3802
 30
0.0
 10
-170.2323
 20
-58.3381
 30
0.0
 10
-172.6539
 20
-57.1366
 30
0.0
 10
-175.0385
 20
-57.5248
 30
0.0
 10
-175.0385
 20
-57.5248
 30
0.0
 10
-180.1492
 20
-63.8345
 30
0.0
 10
-179.7061
 20
-72.4982
 30
0.0
 10
-179.2028
 20
-82.3592
 30
0.0
 10
-179.2028
 20
-82.3592
 30
0.0
 10
-177.7534
 20
-78.5048
 30
0.0
 10
-174.0611
 20
-78.5059
 30
0.0
 10
-172.9407
 20
-80.075
 30
0.0
 10
-172.9407
 20
-80.075
 30
0.0
 10
-173.8136
 20
-74.7239
 30
0.0
 10
-172.7928
 20
-65.7489
 30
0.0
 10
-169.1077
 20
-61.3802
 30
0.0
 10
-169.1077
 20
-61.3802
 30
0.0
 10
-169.1077
 20
-61.3802
 30
0.0
 10
-169.1078
 20
-61.3802
 30
0.0
 10
-169.1078
 20
-61.3802
 30
0.0
  0
SPLINE
  5
52
330
1F
100
AcDbEntity
  8
layer 1
 62
     7
100
AcDbSpline
210
0.0
220
0.0
230
1.0
 70
    11
 71
     3
 72
    28
 73
    24
 74
     0
 42
0.0000000001
 43
0.0000000001
 12
1.0
 22
0.0
 32
0.0
 13
1.0
 23
0.0
 33
0.0
 40
0.0
 40
0.0
 40
0.0
 40
0.0
 40
0.1428571428571428
 40
0.1428571428571428
 40
0.1428571428571428
 40
0.1428571428571428
 40
0.2857142857142857
 40
0.2857142857142857
 40
0.2857142857142857
 40
0.2857142857142857
 40
0.4285714285714285
 40
0.4285714285714285
 40
0.4285714285714285
 40
0.4285714285714285
 40
0.5714285714285714
 40
0.5714285714285714
 40
0.5714285714285714
 40
0.5714285714285714
 40
0.7142857142857143
 40
0.7142857142857143
 40
0.7142857142857143
 40
0.7142857142857143
 40
1.0
 40
1.0
 40
1.0
 40
1.0
 10
-161.4719
 20
-74.1983
 30
0.0
 10
-148.1208
 20
-71.266
 30
0.0
 10
-144.5514
 20
-88.285
 30
0.0
 10
-150.9791
 20
-93.4601
 30
0.0
 10
-150.9791
 20
-93.4601
 30
0.0
 10
-154.78
 20
-91.1354
 30
0.0
 10
-151.7838
 20
-86.4092
 30
0.0
 10
-153.1206
 20
-82.7467
 30
0.0
 10
-153.1206
 20
-82.7467
 30
0.0
 10
-154.0883
 20
-80.0954
 30
0.0
 10
-156.512
 20
-78.5935
 30
0.0
 10
-160.451
 20
-79.5012
 30
0.0
 10
-160.451
 20
-79.5012
 30
0.0
 10
-155.3617
 20
-83.3552
 30
0.0
 10
-160.9213
 20
-87.6672
 30
0.0
 10
-164.6266
 20
-84.906
 30
0.0
 10
-164.6266
 20
-84.906
 30
0.0
 10
-168.9261
 20
-81.0413
 30
0.0
 10
-165.3113
 20
-75.1117
 30
0.0
 10
-161.472
 20
-74.1985
 30
0.0
 10
-161.472
 20
-74.1985
 30
0.0
 10
-161.472
 20
-74.1985
 30
0.0
 10
-161.4719
 20
-74.1983
 30
0.0
 10
-161.4719
 20
-74.1983
 30
0.0
  0
SPLINE
  5
53
330
1F
100
AcDbEntity
  8
layer 1
 62
     7
100
AcDbSpline
210
0.0
220
0.0
230
1.0
 70
    11
 71
     3
 72
    32
 73
    28
 74
     0
 42
0.0000000001
 43
0.0000000001
 12
1.0
 22
0.0
 32
0.0
 13
1.0
 23
0.0
 33
0.0
 40
0.0
 40
0.0
 40
0.0
 40
0.0
 40
0.125
 40
0.125
 40
0.125
 40
0.125
 40
0.25
 40
0.25
 40
0.25
 40
0.25
 40
0.375
 40
0.375
 40
0.375
 40
0.375
 40
0.5
 40
0.5
 40
0.5
 40
0.5
 40
0.625
 40
0.625
 40
0.625
 40
0.625
 40
0.75
 40
0.75
 40
0.75
 40
0.75
 40
1.0
 40
1.0
 40
1.0
 40
1.0
 10
-165.7685
 20
-103.9224
 30
0.0
 10
-164.0716
 20
-101.27
 30
0.0
 10
-166.1925
 20
-98.9403
 30
0.0
 10
-172.8041
 20
-94.2591
 30
0.0
 10
-172.8041
 20
-94.2591
 30
0.0
 10
-177.8489
 20
-90.6872
 30
0.0
 10
-178.8617
 20
-82.5622
 30
0.0
 10
-172.2184
 20
-83.4422
 30
0.0
 10
-172.2184
 20
-83.4422
 30
0.0
 10
-170.799
 20
-90.419
 30
0.0
 10
-159.1743
 20
-93.2069
 30
0.0
 10
-157.5052
 20
-86.6237
 30
0.0
 10
-157.5052
 20
-86.6237
 30
0.0
 10
-155.0361
 20
-87.1047
 30
0.0
 10
-154.28
 20
-89.3923
 30
0.0
 10
-158.3713
 20
-92.6937
 30
0.0
 10
-158.3713
 20
-92.6937
 30
0.0
 10
-159.8609
 20
-93.824
 30
0.0
 10
-159.5072
 20
-95.881
 30
0.0
 10
-156.3557
 20
-97.0362
 30
0.0
 10
-156.3557
 20
-97.0362
 30
0.0
 10
-157.8093
 20
-98.3947
 30
0.0
 10
-160.7534
 20
-97.9261
 30
0.0
 10
-161.6509
 20
-97.9292
 30
0.0
 10
-161.6509
 20
-97.9292
 30
0.0
 10
-160.8104
 20
-101.5965
 30
0.0
 10
-163.4956
 20
-103.5004
 30
0.0
 10
-165.7685
 20
-103.9224
 30
0.0
  0
SPLINE
  5
54
330
1F
100
AcDbEntity
  8
layer 1
 62
     7
100
AcDbSpline
210
0.0
220
0.0
230
1.0
 70
    11
 71
     3
 72
    20
 73
    16
 74
     0
 42
0.0000000001
 43
0.0000000001
 12
1.0
 22
0.0
 32
0.0
 13
1.0
 23
0.0
 33
0.0
 40
0.0
 40
0.0
 40
0.0
 40
0.0
 40
0.2
 40
0.2
 40
0.2
 40
0.2
 40
0.4
 40
0.4
 40
0.4
 40
0.4
 40
0.6
 40
0.6
 40
0.6
 40
0.6
 40
1.0
 40
1.0
 40
1.0
 40
1.0
 10
-118.1181
 20
-61.3802
 30
0.0
 10
-116.9936
 20
-58.3381
 30
0.0
 10
-114.572
 20
-57.1366
 30
0.0
 10
-112.1874
 20
-57.5248
 30
0.0
 10
-112.1874
 20
-57.5248
 30
0.0
 10
-107.0768
 20
-63.8345
 30
0.0
 10
-107.5198
 20
-72.4982
 30
0.0
 10
-108.023
 20
-82.3592
 30
0.0
 10
-108.023
 20
-82.3592
 30
0.0
 10
-109.4725
 20
-78.5048
 30
0.0
 10
-113.1647
 20
-78.5059
 30
0.0
 10
-114.2851
 20
-80.075
 30
0.0
 10
-114.2851
 20
-80.075
 30
0.0
 10
-113.4122
 20
-74.7239
 30
0.0
 10
-114.4331
 20
-65.7489
 30
0.0
 10
-118.1181
 20
-61.3802
 30
0.0
  0
SPLINE
  5
55
330
1F
100
AcDbEntity
  8
layer 1
 62
     7
100
AcDbSpline
210
0.0
220
0.0
230
1.0
 70
    11
 71
     3
 72
    28
 73
    24
 74
     0
 42
0.0000000001
 43
0.0000000001
 12
1.0
 22
0.0
 32
0.0
 13
1.0
 23
0.0
 33
0.0
 40
0.0
 40
0.0
 40
0.0
 40
0.0
 40
0.1428571428571428
 40
0.1428571428571428
 40
0.1428571428571428
 40
0.1428571428571428
 40
0.2857142857142857
 40
0.2857142857142857
 40
0.2857142857142857
 40
0.2857142857142857
 40
0.4285714285714285
 40
0.4285714285714285
 40
0.4285714285714285
 40
0.4285714285714285
 40
0.5714285714285714
 40
0.5714285714285714
 40
0.5714285714285714
 40
0.5714285714285714
 40
0.7142857142857143
 40
0.7142857142857143
 40
0.7142857142857143
 40
0.7142857142857143
 40
1.0
 40
1.0
 40
1.0
 40
1.0
 10
-125.754
 20
-74.1983
 30
0.0
 10
-139.1051
 20
-71.266
 30
0.0
 10
-142.6744
 20
-88.285
 30
0.0
 10
-136.2468
 20
-93.4601
 30
0.0
 10
-136.2468
 20
-93.4601
 30
0.0
 10
-132.4459
 20
-91.1354
 30
0.0
 10
-135.442
 20
-86.4092
 30
0.0
 10
-134.1052
 20
-82.7467
 30
0.0
 10
-134.1052
 20
-82.7467
 30
0.0
 10
-133.1375
 20
-80.0954
 30
0.0
 10
-130.7138
 20
-78.5935
 30
0.0
 10
-126.7748
 20
-79.5012
 30
0.0
 10
-126.7748
 20
-79.5012
 30
0.0
 10
-131.8642
 20
-83.3552
 30
0.0
 10
-126.3047
 20
-87.6672
 30
0.0
 10
-122.5993
 20
-84.906
 30
0.0
 10
-122.5993
 20
-84.906
 30
0.0
 10
-118.2998
 20
-81.0413
 30
0.0
 10
-121.9145
 20
-75.1117
 30
0.0
 10
-125.7539
 20
-74.1985
 30
0.0
 10
-125.7539
 20
-74.1985
 30
0.0
 10
-125.7539
 20
-74.1985
 30
0.0
 10
-125.754
 20
-74.1983
 30
0.0
 10
-125.754
 20
-74.1983
 30
0.0
  0
SPLINE
  5
56
330
1F
100
AcDbEntity
  8
layer 1
 62
     7
100
AcDbSpline
210
0.0
220
0.0
230
1.0
 70
    11
 71
     3
 72
    32
 73
    28
 74
     0
 42
0.0000000001
 43
0.0000000001
 12
1.0
 22
0.0
 32
0.0
 13
1.0
 23
0.0
 33
0.0
 40
0.0
 40
0.0
 40
0.0
 40
0.0
 40
0.125
 40
0.125
 40
0.125
 40
0.125
 40
0.25
 40
0.25
 40
0.25
 40
0.25
 40
0.375
 40
0.375
 40
0.375
 40
0.375
 40
0.5
 40
0.5
 40
0.5
 40
0.5
 40
0.625
 40
0.625
 40
0.625
 40
0.625
 40
0.75
 40
0.75
 40
0.75
 40
0.75
 40
1.0
 40
1.0
 40
1.0
 40
1.0
 10
-121.4574
 20
-103.9224
 30
0.0
 10
-123.1542
 20
-101.27
 30
0.0
 10
-121.0334
 20
-98.9403
 30
0.0
 10
-114.4218
 20
-94.2591
 30
0.0
 10
-114.4218
 20
-94.2591
 30
0.0
 10
-109.377
 20
-90.6872
 30
0.0
 10
-108.3641
 20
-82.5622
 30
0.0
 10
-115.0074
 20
-83.4422
 30
0.0
 10
-115.0074
 20
-83.4422
 30
0.0
 10
-116.4269
 20
-90.419
 30
0.0
 10
-128.0516
 20
-93.2069
 30
0.0
 10
-129.7207
 20
-86.6237
 30
0.0
 10
-129.7207
 20
-86.6237
 30
0.0
 10
-132.1898
 20
-87.1047
 30
0.0
 10
-132.9459
 20
-89.3923
 30
0.0
 10
-128.8545
 20
-92.6937
 30
0.0
 10
-128.8545
 20
-92.6937
 30
0.0
 10
-127.365
 20
-93.824
 30
0.0
 10
-127.7187
 20
-95.881
 30
0.0
 10
-130.8702
 20
-97.0362
 30
0.0
 10
-130.8702
 20
-97.0362
 30
0.0
 10
-129.4166
 20
-98.3947
 30
0.0
 10
-126.4724
 20
-97.9261
 30
0.0
 10
-125.575
 20
-97.9292
 30
0.0
 10
-125.575
 20
-97.9292
 30
0.0
 10
-126.4155
 20
-101.5965
 30
0.0
 10
-123.7302
 20
-103.5004
 30
0.0
 10
-121.4574
 20
-103.9224
 30
0.0
  0
SPLINE
  5
57
330
1F
100
AcDbEntity
  8
layer 1
 62
     7
100
AcDbSpline
210
0.0
220
0.0
230
1.0
 70
    11
 71
     3
 72
    16
 73
    12
 74
     0
 42
0.0000000001
 43
0.0000000001
 12
1.0
 22
0.0
 32
0.0
 13
1.0
 23
0.0
 33
0.0
 40
0.0
 40
0.0
 40
0.0
 40
0.0
 40
0.25
 40
0.25
 40
0.25
 40
0.25
 40
0.5
 40
0.5
 40
0.5
 40
0.5
 40
1.0
 40
1.0
 40
1.0
 40
1.0
 10
-107.8223
 20
-11.8851
 30
0.0
 10
-109.1021
 20
-16.5317
 30
0.0
 10
-111.0376
 20
-19.8511
 30
0.0
 10
-114.882
 20
-20.7417
 30
0.0
 10
-114.882
 20
-20.7417
 30
0.0
 10
-110.6094
 20
-26.3296
 30
0.0
 10
-110.1902
 20
-40.4508
 30
0.0
 10
-110.2957
 20
-46.0689
 30
0.0
 10
-110.2957
 20
-46.0689
 30
0.0
 10
-106.5245
 20
-37.2502
 30
0.0
 10
-108.4935
 20
-21.145
 30
0.0
 10
-107.8223
 20
-11.8851
 30
0.0
  0
SPLINE
  5
58
330
1F
100
AcDbEntity
  8
layer 1
 62
     7
100
AcDbSpline
210
0.0
220
0.0
230
1.0
 70
    11
 71
     3
 72
    40
 73
    36
 74
     0
 42
0.0000000001
 43
0.0000000001
 12
1.0
 22
0.0
 32
0.0
 13
1.0
 23
0.0
 33
0.0
 40
0.0
 40
0.0
 40
0.0
 40
0.0
 40
0.1
 40
0.1
 40
0.1
 40
0.1
 40
0.2
 40
0.2
 40
0.2
 40
0.2
 40
0.3
 40
0.3
 40
0.3
 40
0.3
 40
0.4
 40
0.4
 40
0.4
 40
0.4
 40
0.5
 40
0.5
 40
0.5
 40
0.5
 40
0.6
 40
0.6
 40
0.6
 40
0.6
 40
0.7
 40
0.7
 40
0.7
 40
0.7
 40
0.8
 40
0.8
 40
0.8
 40
0.8
 40
1.0
 40
1.0
 40
1.0
 40
1.0
 10
-172.864
 20
67.8631
 30
0.0
 10
-166.6364
 20
61.1266
 30
0.0
 10
-155.833
 20
52.0261
 30
0.0
 10
-165.9839
 20
42.9015
 30
0.0
 10
-165.9839
 20
42.9015
 30
0.0
 10
-164.368
 20
43.6737
 30
0.0
 10
-159.3191
 20
43.4052
 30
0.0
 10
-157.6178
 20
41.8062
 30
0.0
 10
-157.6178
 20
41.8062
 30
0.0
 10
-155.049
 20
42.7741
 30
0.0
 10
-153.7621
 20
44.4904
 30
0.0
 10
-152.6217
 20
46.6543
 30
0.0
 10
-152.6217
 20
46.6543
 30
0.0
 10
-153.357
 20
47.2838
 30
0.0
 10
-154.7959
 20
47.6493
 30
0.0
 10
-155.7382
 20
47.6513
 30
0.0
 10
-155.7382
 20
47.6513
 30
0.0
 10
-152.7712
 20
51.2392
 30
0.0
 10
-154.1068
 20
57.4791
 30
0.0
 10
-156.6102
 20
58.6784
 30
0.0
 10
-156.6102
 20
58.6784
 30
0.0
 10
-154.1743
 20
58.6766
 30
0.0
 10
-152.8484
 20
60.533
 30
0.0
 10
-152.3102
 20
62.5739
 30
0.0
 10
-152.3102
 20
62.5739
 30
0.0
 10
-160.773
 20
62.0181
 30
0.0
 10
-164.5068
 20
70.8212
 30
0.0
 10
-166.5525
 20
72.9806
 30
0.0
 10
-166.5525
 20
72.9806
 30
0.0
 10
-166.2384
 20
69.7097
 30
0.0
 10
-167.8333
 20
67.0372
 30
0.0
 10
-172.864
 20
67.8632
 30
0.0
 10
-172.864
 20
67.8632
 30
0.0
 10
-172.864
 20
67.8632
 30
0.0
 10
-172.864
 20
67.8631
 30
0.0
 10
-172.864
 20
67.8631
 30
0.0
  0
SPLINE
  5
59
330
1F
100
AcDbEntity
  8
layer 1
 62
     7
100
AcDbSpline
210
0.0
220
0.0
230
1.0
 70
    11
 71
     3
 72
    24
 73
    20
 74
     0
 42
0.0000000001
 43
0.0000000001
 12
1.0
 22
0.0
 32
0.0
 13
1.0
 23
0.0
 33
0.0
 40
0.0
 40
0.0
 40
0.0
 40
0.0
 40
0.1666666666666667
 40
0.1666666666666667
 40
0.1666666666666667
 40
0.1666666666666667
 40
0.3333333333333333
 40
0.3333333333333333
 40
0.3333333333333333
 40
0.3333333333333333
 40
0.5
 40
0.5
 40
0.5
 40
0.5
 40
0.6666666666666666
 40
0.6666666666666666
 40
0.6666666666666666
 40
0.6666666666666666
 40
1.0
 40
1.0
 40
1.0
 40
1.0
 10
-150.518
 20
67.8631
 30
0.0
 10
-147.6989
 20
65.974
 30
0.0
 10
-147.4764
 20
62.6514
 30
0.0
 10
-147.0278
 20
57.7871
 30
0.0
 10
-147.0278
 20
57.7871
 30
0.0
 10
-146.5743
 20
52.8694
 30
0.0
 10
-143.0682
 20
49.429
 30
0.0
 10
-143.8654
 20
46.0288
 30
0.0
 10
-143.8654
 20
46.0288
 30
0.0
 10
-137.2494
 20
60.1713
 30
0.0
 10
-141.6708
 20
62.406
 30
0.0
 10
-137.7327
 20
67.9465
 30
0.0
 10
-137.7327
 20
67.9465
 30
0.0
 10
-141.1276
 20
70.5828
 30
0.0
 10
-143.0136
 20
73.1341
 30
0.0
 10
-143.8085
 20
78.5528
 30
0.0
 10
-143.8085
 20
78.5528
 30
0.0
 10
-144.5748
 20
75.3388
 30
0.0
 10
-145.601
 20
68.9704
 30
0.0
 10
-150.518
 20
67.8631
 30
0.0
  0
SPLINE
  5
5A
330
1F
100
AcDbEntity
  8
layer 1
 62
     7
100
AcDbSpline
210
0.0
220
0.0
230
1.0
 70
    11
 71
     3
 72
    24
 73
    20
 74
     0
 42
0.0000000001
 43
0.0000000001
 12
1.0
 22
0.0
 32
0.0
 13
1.0
 23
0.0
 33
0.0
 40
0.0
 40
0.0
 40
0.0
 40
0.0
 40
0.1666666666666667
 40
0.1666666666666667
 40
0.1666666666666667
 40
0.1666666666666667
 40
0.3333333333333333
 40
0.3333333333333333
 40
0.3333333333333333
 40
0.3333333333333333
 40
0.5
 40
0.5
 40
0.5
 40
0.5
 40
0.6666666666666666
 40
0.6666666666666666
 40
0.6666666666666666
 40
0.6666666666666666
 40
1.0
 40
1.0
 40
1.0
 40
1.0
 10
-153.9864
 20
38.9781
 30
0.0
 10
-152.3045
 20
37.5439
 30
0.0
 10
-150.831
 20
34.1645
 30
0.0
 10
-151.2353
 20
29.5845
 30
0.0
 10
-151.2353
 20
29.5845
 30
0.0
 10
-150.5241
 20
31.2743
 30
0.0
 10
-149.0272
 20
31.6371
 30
0.0
 10
-147.9121
 20
31.6179
 30
0.0
 10
-147.9121
 20
31.6179
 30
0.0
 10
-146.328
 20
32.3727
 30
0.0
 10
-145.8945
 20
34.5532
 30
0.0
 10
-145.732
 20
36.4755
 30
0.0
 10
-145.732
 20
36.4755
 30
0.0
 10
-145.4692
 20
39.5864
 30
0.0
 10
-148.2965
 20
41.5426
 30
0.0
 10
-148.6415
 20
43.5269
 30
0.0
 10
-148.6415
 20
43.5269
 30
0.0
 10
-148.896
 20
40.2561
 30
0.0
 10
-151.4575
 20
38.664
 30
0.0
 10
-153.9864
 20
38.9781
 30
0.0
  0
SPLINE
  5
5B
330
1F
100
AcDbEntity
  8
layer 1
 62
     7
100
AcDbSpline
210
0.0
220
0.0
230
1.0
 70
    11
 71
     3
 72
    20
 73
    16
 74
     0
 42
0.0000000001
 43
0.0000000001
 12
1.0
 22
0.0
 32
0.0
 13
1.0
 23
0.0
 33
0.0
 40
0.0
 40
0.0
 40
0.0
 40
0.0
 40
0.2
 40
0.2
 40
0.2
 40
0.2
 40
0.4
 40
0.4
 40
0.4
 40
0.4
 40
0.6
 40
0.6
 40
0.6
 40
0.6
 40
1.0
 40
1.0
 40
1.0
 40
1.0
 10
-174.5698
 20
23.8534
 30
0.0
 10
-175.0485
 20
15.6529
 30
0.0
 10
-168.0029
 20
11.2498
 30
0.0
 10
-165.3367
 20
11.4461
 30
0.0
 10
-165.3367
 20
11.4461
 30
0.0
 10
-167.0706
 20
14.2164
 30
0.0
 10
-165.2325
 20
17.1378
 30
0.0
 10
-163.3213
 20
17.1755
 30
0.0
 10
-163.3213
 20
17.1755
 30
0.0
 10
-169.7546
 20
19.4086
 30
0.0
 10
-168.3543
 20
28.8104
 30
0.0
 10
-161.4824
 20
26.7524
 30
0.0
 10
-161.4824
 20
26.7524
 30
0.0
 10
-162.9369
 20
34.9123
 30
0.0
 10
-173.5663
 20
32.5223
 30
0.0
 10
-174.5698
 20
23.8534
 30
0.0
  0
SPLINE
  5
5C
330
1F
100
AcDbEntity
  8
layer 1
 62
     7
100
AcDbSpline
210
0.0
220
0.0
230
1.0
 70
    11
 71
     3
 72
    16
 73
    12
 74
     0
 42
0.0000000001
 43
0.0000000001
 12
1.0
 22
0.0
 32
0.0
 13
1.0
 23
0.0
 33
0.0
 40
0.0
 40
0.0
 40
0.0
 40
0.0
 40
0.25
 40
0.25
 40
0.25
 40
0.25
 40
0.5
 40
0.5
 40
0.5
 40
0.5
 40
1.0
 40
1.0
 40
1.0
 40
1.0
 10
-179.7061
 20
26.5709
 30
0.0
 10
-178.4263
 20
31.2175
 30
0.0
 10
-176.4908
 20
34.5369
 30
0.0
 10
-172.6463
 20
35.4276
 30
0.0
 10
-172.6463
 20
35.4276
 30
0.0
 10
-176.9189
 20
41.0154
 30
0.0
 10
-177.3382
 20
55.1366
 30
0.0
 10
-177.2326
 20
60.7548
 30
0.0
 10
-177.2326
 20
60.7548
 30
0.0
 10
-181.0039
 20
51.9361
 30
0.0
 10
-179.0349
 20
35.8308
 30
0.0
 10
-179.7061
 20
26.5709
 30
0.0
  0
SPLINE
  5
5D
330
1F
100
AcDbEntity
  8
layer 1
 62
     7
100
AcDbSpline
210
0.0
220
0.0
230
1.0
 70
    11
 71
     3
 72
    16
 73
    12
 74
     0
 42
0.0000000001
 43
0.0000000001
 12
1.0
 22
0.0
 32
0.0
 13
1.0
 23
0.0
 33
0.0
 40
0.0
 40
0.0
 40
0.0
 40
0.0
 40
0.25
 40
0.25
 40
0.25
 40
0.25
 40
0.5
 40
0.5
 40
0.5
 40
0.5
 40
1.0
 40
1.0
 40
1.0
 40
1.0
 10
-179.7061
 20
16.0892
 30
0.0
 10
-179.7061
 20
10.2583
 30
0.0
 10
-179.7061
 20
4.4275
 30
0.0
 10
-179.7061
 20
-1.4033
 30
0.0
 10
-179.7061
 20
-1.4033
 30
0.0
 10
-178.6175
 20
4.6128
 30
0.0
 10
-175.0994
 20
6.6662
 30
0.0
 10
-172.1346
 20
7.343
 30
0.0
 10
-172.1346
 20
7.343
 30
0.0
 10
-175.0994
 20
8.0198
 30
0.0
 10
-178.6176
 20
10.0731
 30
0.0
 10
-179.7061
 20
16.0892
 30
0.0
  0
SPLINE
  5
5E
330
1F
100
AcDbEntity
  8
layer 1
 62
     7
100
AcDbSpline
210
0.0
220
0.0
230
1.0
 70
    11
 71
     3
 72
    16
 73
    12
 74
     0
 42
0.0000000001
 43
0.0000000001
 12
1.0
 22
0.0
 32
0.0
 13
1.0
 23
0.0
 33
0.0
 40
0.0
 40
0.0
 40
0.0
 40
0.0
 40
0.25
 40
0.25
 40
0.25
 40
0.25
 40
0.5
 40
0.5
 40
0.5
 40
0.5
 40
1.0
 40
1.0
 40
1.0
 40
1.0
 10
-136.199
 20
28.9455
 30
0.0
 10
-136.4914
 20
31.3492
 30
0.0
 10
-135.9742
 20
36.2679
 30
0.0
 10
-133.166
 20
38.9773
 30
0.0
 10
-133.166
 20
38.9773
 30
0.0
 10
-135.405
 20
38.3355
 30
0.0
 10
-138.4597
 20
40.2917
 30
0.0
 10
-138.6911
 20
43.5838
 30
0.0
 10
-138.6911
 20
43.5838
 30
0.0
 10
-143.6189
 20
35.4771
 30
0.0
 10
-141.805
 20
31.7112
 30
0.0
 10
-136.199
 20
28.9455
 30
0.0
  0
SPLINE
  5
5F
330
1F
100
AcDbEntity
  8
layer 1
 62
     7
100
AcDbSpline
210
0.0
220
0.0
230
1.0
 70
    11
 71
     3
 72
    24
 73
    20
 74
     0
 42
0.0000000001
 43
0.0000000001
 12
1.0
 22
0.0
 32
0.0
 13
1.0
 23
0.0
 33
0.0
 40
0.0
 40
0.0
 40
0.0
 40
0.0
 40
0.1666666666666667
 40
0.1666666666666667
 40
0.1666666666666667
 40
0.1666666666666667
 40
0.3333333333333333
 40
0.3333333333333333
 40
0.3333333333333333
 40
0.3333333333333333
 40
0.5
 40
0.5
 40
0.5
 40
0.5
 40
0.6666666666666666
 40
0.6666666666666666
 40
0.6666666666666666
 40
0.6666666666666666
 40
1.0
 40
1.0
 40
1.0
 40
1.0
 10
-158.9118
 20
16.99
 30
0.0
 10
-160.1133
 20
14.4464
 30
0.0
 10
-158.7439
 20
11.4172
 30
0.0
 10
-157.5778
 20
11.1684
 30
0.0
 10
-157.5778
 20
11.1684
 30
0.0
 10
-152.1938
 20
11.0816
 30
0.0
 10
-146.1249
 20
20.2438
 30
0.0
 10
-145.6045
 20
24.9266
 30
0.0
 10
-145.6045
 20
24.9266
 30
0.0
 10
-147.3309
 20
22.4013
 30
0.0
 10
-151.0508
 20
23.2609
 30
0.0
 10
-151.3958
 20
25.2452
 30
0.0
 10
-151.3958
 20
25.2452
 30
0.0
 10
-151.9075
 20
19.728
 30
0.0
 10
-157.0819
 20
17.2327
 30
0.0
 10
-158.9117
 20
16.99
 30
0.0
 10
-158.9117
 20
16.99
 30
0.0
 10
-158.9117
 20
16.99
 30
0.0
 10
-158.9118
 20
16.99
 30
0.0
 10
-158.9118
 20
16.99
 30
0.0
  0
SPLINE
  5
60
330
1F
100
AcDbEntity
  8
layer 1
 62
     7
100
AcDbSpline
210
0.0
220
0.0
230
1.0
 70
    11
 71
     3
 72
    24
 73
    20
 74
     0
 42
0.0000000001
 43
0.0000000001
 12
1.0
 22
0.0
 32
0.0
 13
1.0
 23
0.0
 33
0.0
 40
0.0
 40
0.0
 40
0.0
 40
0.0
 40
0.1666666666666667
 40
0.1666666666666667
 40
0.1666666666666667
 40
0.1666666666666667
 40
0.3333333333333333
 40
0.3333333333333333
 40
0.3333333333333333
 40
0.3333333333333333
 40
0.5
 40
0.5
 40
0.5
 40
0.5
 40
0.6666666666666666
 40
0.6666666666666666
 40
0.6666666666666666
 40
0.6666666666666666
 40
1.0
 40
1.0
 40
1.0
 40
1.0
 10
-128.5243
 20
16.99
 30
0.0
 10
-127.3227
 20
14.4464
 30
0.0
 10
-128.6921
 20
11.4172
 30
0.0
 10
-129.8583
 20
11.1684
 30
0.0
 10
-129.8583
 20
11.1684
 30
0.0
 10
-135.2422
 20
11.0816
 30
0.0
 10
-141.3111
 20
20.2438
 30
0.0
 10
-141.8315
 20
24.9266
 30
0.0
 10
-141.8315
 20
24.9266
 30
0.0
 10
-140.1052
 20
22.4013
 30
0.0
 10
-136.3853
 20
23.2609
 30
0.0
 10
-136.0402
 20
25.2452
 30
0.0
 10
-136.0402
 20
25.2452
 30
0.0
 10
-135.5286
 20
19.728
 30
0.0
 10
-130.3541
 20
17.2327
 30
0.0
 10
-128.5244
 20
16.99
 30
0.0
 10
-128.5244
 20
16.99
 30
0.0
 10
-128.5244
 20
16.99
 30
0.0
 10
-128.5243
 20
16.99
 30
0.0
 10
-128.5243
 20
16.99
 30
0.0
  0
SPLINE
  5
61
330
1F
100
AcDbEntity
  8
layer 1
 62
     7
100
AcDbSpline
210
0.0
220
0.0
230
1.0
 70
    11
 71
     3
 72
    20
 73
    16
 74
     0
 42
0.0000000001
 43
0.0000000001
 12
1.0
 22
0.0
 32
0.0
 13
1.0
 23
0.0
 33
0.0
 40
0.0
 40
0.0
 40
0.0
 40
0.0
 40
0.2
 40
0.2
 40
0.2
 40
0.2
 40
0.4
 40
0.4
 40
0.4
 40
0.4
 40
0.6
 40
0.6
 40
0.6
 40
0.6
 40
1.0
 40
1.0
 40
1.0
 40
1.0
 10
-112.846
 20
23.8534
 30
0.0
 10
-112.3672
 20
15.6529
 30
0.0
 10
-119.4129
 20
11.2498
 30
0.0
 10
-122.0791
 20
11.4461
 30
0.0
 10
-122.0791
 20
11.4461
 30
0.0
 10
-120.3452
 20
14.2164
 30
0.0
 10
-122.1833
 20
17.1378
 30
0.0
 10
-124.0945
 20
17.1755
 30
0.0
 10
-124.0945
 20
17.1755
 30
0.0
 10
-117.6612
 20
19.4086
 30
0.0
 10
-119.0615
 20
28.8104
 30
0.0
 10
-125.9334
 20
26.7524
 30
0.0
 10
-125.9334
 20
26.7524
 30
0.0
 10
-124.4789
 20
34.9123
 30
0.0
 10
-113.8495
 20
32.5223
 30
0.0
 10
-112.846
 20
23.8534
 30
0.0
  0
SPLINE
  5
62
330
1F
100
AcDbEntity
  8
layer 1
 62
     7
100
AcDbSpline
210
0.0
220
0.0
230
1.0
 70
    11
 71
     3
 72
    40
 73
    36
 74
     0
 42
0.0000000001
 43
0.0000000001
 12
1.0
 22
0.0
 32
0.0
 13
1.0
 23
0.0
 33
0.0
 40
0.0
 40
0.0
 40
0.0
 40
0.0
 40
0.1
 40
0.1
 40
0.1
 40
0.1
 40
0.2
 40
0.2
 40
0.2
 40
0.2
 40
0.3
 40
0.3
 40
0.3
 40
0.3
 40
0.4
 40
0.4
 40
0.4
 40
0.4
 40
0.5
 40
0.5
 40
0.5
 40
0.5
 40
0.6
 40
0.6
 40
0.6
 40
0.6
 40
0.7
 40
0.7
 40
0.7
 40
0.7
 40
0.8
 40
0.8
 40
0.8
 40
0.8
 40
1.0
 40
1.0
 40
1.0
 40
1.0
 10
-114.6679
 20
67.8631
 30
0.0
 10
-120.8955
 20
61.1266
 30
0.0
 10
-131.6989
 20
52.0261
 30
0.0
 10
-121.548
 20
42.9015
 30
0.0
 10
-121.548
 20
42.9015
 30
0.0
 10
-123.1639
 20
43.6737
 30
0.0
 10
-128.2129
 20
43.4052
 30
0.0
 10
-129.9142
 20
41.8062
 30
0.0
 10
-129.9142
 20
41.8062
 30
0.0
 10
-132.4829
 20
42.7741
 30
0.0
 10
-133.7699
 20
44.4904
 30
0.0
 10
-134.9102
 20
46.6543
 30
0.0
 10
-134.9102
 20
46.6543
 30
0.0
 10
-134.175
 20
47.2838
 30
0.0
 10
-132.736
 20
47.6493
 30
0.0
 10
-131.7937
 20
47.6513
 30
0.0
 10
-131.7937
 20
47.6513
 30
0.0
 10
-134.7608
 20
51.2392
 30
0.0
 10
-133.4251
 20
57.4791
 30
0.0
 10
-130.9218
 20
58.6784
 30
0.0
 10
-130.9218
 20
58.6784
 30
0.0
 10
-133.3577
 20
58.6766
 30
0.0
 10
-134.6835
 20
60.533
 30
0.0
 10
-135.2217
 20
62.5739
 30
0.0
 10
-135.2217
 20
62.5739
 30
0.0
 10
-126.7589
 20
62.0181
 30
0.0
 10
-123.0252
 20
70.8212
 30
0.0
 10
-120.9794
 20
72.9806
 30
0.0
 10
-120.9794
 20
72.9806
 30
0.0
 10
-121.2935
 20
69.7097
 30
0.0
 10
-119.6987
 20
67.0372
 30
0.0
 10
-114.668
 20
67.8632
 30
0.0
 10
-114.668
 20
67.8632
 30
0.0
 10
-114.668
 20
67.8632
 30
0.0
 10
-114.6679
 20
67.8631
 30
0.0
 10
-114.6679
 20
67.8631
 30
0.0
  0
SPLINE
  5
63
330
1F
100
AcDbEntity
  8
layer 1
 62
     7
100
AcDbSpline
210
0.0
220
0.0
230
1.0
 70
    11
 71
     3
 72
    16
 73
    12
 74
     0
 42
0.0000000001
 43
0.0000000001
 12
1.0
 22
0.0
 32
0.0
 13
1.0
 23
0.0
 33
0.0
 40
0.0
 40
0.0
 40
0.0
 40
0.0
 40
0.25
 40
0.25
 40
0.25
 40
0.25
 40
0.5
 40
0.5
 40
0.5
 40
0.5
 40
1.0
 40
1.0
 40
1.0
 40
1.0
 10
-157.706
 20
76.8109
 30
0.0
 10
-150.1146
 20
75.3186
 30
0.0
 10
-143.7761
 20
84.3625
 30
0.0
 10
-146.8809
 20
90.9222
 30
0.0
 10
-146.8809
 20
90.9222
 30
0.0
 10
-147.1949
 20
84.1383
 30
0.0
 10
-152.2663
 20
80.0442
 30
0.0
 10
-157.8146
 20
81.8696
 30
0.0
 10
-157.8146
 20
81.8696
 30
0.0
 10
-161.5049
 20
82.3801
 30
0.0
 10
-161.1577
 20
77.835
 30
0.0
 10
-157.706
 20
76.8109
 30
0.0
  0
SPLINE
  5
64
330
1F
100
AcDbEntity
  8
layer 1
 62
     7
100
AcDbSpline
210
0.0
220
0.0
230
1.0
 70
    11
 71
     3
 72
    16
 73
    12
 74
     0
 42
0.0000000001
 43
0.0000000001
 12
1.0
 22
0.0
 32
0.0
 13
1.0
 23
0.0
 33
0.0
 40
0.0
 40
0.0
 40
0.0
 40
0.0
 40
0.25
 40
0.25
 40
0.25
 40
0.25
 40
0.5
 40
0.5
 40
0.5
 40
0.5
 40
1.0
 40
1.0
 40
1.0
 40
1.0
 10
-129.6043
 20
76.8109
 30
0.0
 10
-137.1957
 20
75.3186
 30
0.0
 10
-143.5342
 20
84.3625
 30
0.0
 10
-140.4294
 20
90.9222
 30
0.0
 10
-140.4294
 20
90.9222
 30
0.0
 10
-140.1155
 20
84.1383
 30
0.0
 10
-135.044
 20
80.0442
 30
0.0
 10
-129.4957
 20
81.8696
 30
0.0
 10
-129.4957
 20
81.8696
 30
0.0
 10
-125.8054
 20
82.3801
 30
0.0
 10
-126.1526
 20
77.835
 30
0.0
 10
-129.6043
 20
76.8109
 30
0.0
  0
SPLINE
  5
65
330
1F
100
AcDbEntity
  8
layer 1
 62
     7
100
AcDbSpline
210
0.0
220
0.0
230
1.0
 70
    11
 71
     3
 72
    16
 73
    12
 74
     0
 42
0.0000000001
 43
0.0000000001
 12
1.0
 22
0.0
 32
0.0
 13
1.0
 23
0.0
 33
0.0
 40
0.0
 40
0.0
 40
0.0
 40
0.0
 40
0.25
 40
0.25
 40
0.25
 40
0.25
 40
0.5
 40
0.5
 40
0.5
 40
0.5
 40
1.0
 40
1.0
 40
1.0
 40
1.0
 10
-134.0546
 20
115.9549
 30
0.0
 10
-137.0055
 20
121.146
 30
0.0
 10
-147.3513
 20
124.0107
 30
0.0
 10
-153.0228
 20
116.132
 30
0.0
 10
-153.0228
 20
116.132
 30
0.0
 10
-148.2031
 20
116.2235
 30
0.0
 10
-145.2075
 20
111.5335
 30
0.0
 10
-143.7887
 20
106.9876
 30
0.0
 10
-143.7887
 20
106.9876
 30
0.0
 10
-143.4913
 20
111.3484
 30
0.0
 10
-138.1021
 20
116.7955
 30
0.0
 10
-134.0546
 20
115.9549
 30
0.0
  0
SPLINE
  5
66
330
1F
100
AcDbEntity
  8
layer 1
 62
     7
100
AcDbSpline
210
0.0
220
0.0
230
1.0
 70
    11
 71
     3
 72
    24
 73
    20
 74
     0
 42
0.0000000001
 43
0.0000000001
 12
1.0
 22
0.0
 32
0.0
 13
1.0
 23
0.0
 33
0.0
 40
0.0
 40
0.0
 40
0.0
 40
0.0
 40
0.1666666666666667
 40
0.1666666666666667
 40
0.1666666666666667
 40
0.1666666666666667
 40
0.3333333333333333
 40
0.3333333333333333
 40
0.3333333333333333
 40
0.3333333333333333
 40
0.5
 40
0.5
 40
0.5
 40
0.5
 40
0.6666666666666666
 40
0.6666666666666666
 40
0.6666666666666666
 40
0.6666666666666666
 40
1.0
 40
1.0
 40
1.0
 40
1.0
 10
-169.1078
 20
76.066
 30
0.0
 10
-170.2323
 20
73.024
 30
0.0
 10
-172.6539
 20
71.8223
 30
0.0
 10
-175.0385
 20
72.2106
 30
0.0
 10
-175.0385
 20
72.2106
 30
0.0
 10
-180.1492
 20
78.5203
 30
0.0
 10
-179.7061
 20
87.1841
 30
0.0
 10
-179.2028
 20
97.045
 30
0.0
 10
-179.2028
 20
97.045
 30
0.0
 10
-177.7534
 20
93.1907
 30
0.0
 10
-174.0611
 20
93.1918
 30
0.0
 10
-172.9407
 20
94.7608
 30
0.0
 10
-172.9407
 20
94.7608
 30
0.0
 10
-173.8136
 20
89.4097
 30
0.0
 10
-172.7928
 20
80.4348
 30
0.0
 10
-169.1077
 20
76.066
 30
0.0
 10
-169.1077
 20
76.066
 30
0.0
 10
-169.1077
 20
76.066
 30
0.0
 10
-169.1078
 20
76.066
 30
0.0
 10
-169.1078
 20
76.066
 30
0.0
  0
SPLINE
  5
67
330
1F
100
AcDbEntity
  8
layer 1
 62
     7
100
AcDbSpline
210
0.0
220
0.0
230
1.0
 70
    11
 71
     3
 72
    28
 73
    24
 74
     0
 42
0.0000000001
 43
0.0000000001
 12
1.0
 22
0.0
 32
0.0
 13
1.0
 23
0.0
 33
0.0
 40
0.0
 40
0.0
 40
0.0
 40
0.0
 40
0.1428571428571428
 40
0.1428571428571428
 40
0.1428571428571428
 40
0.1428571428571428
 40
0.2857142857142857
 40
0.2857142857142857
 40
0.2857142857142857
 40
0.2857142857142857
 40
0.4285714285714285
 40
0.4285714285714285
 40
0.4285714285714285
 40
0.4285714285714285
 40
0.5714285714285714
 40
0.5714285714285714
 40
0.5714285714285714
 40
0.5714285714285714
 40
0.7142857142857143
 40
0.7142857142857143
 40
0.7142857142857143
 40
0.7142857142857143
 40
1.0
 40
1.0
 40
1.0
 40
1.0
 10
-161.4719
 20
88.8842
 30
0.0
 10
-148.1208
 20
85.9519
 30
0.0
 10
-144.5514
 20
102.9708
 30
0.0
 10
-150.9791
 20
108.146
 30
0.0
 10
-150.9791
 20
108.146
 30
0.0
 10
-154.78
 20
105.8212
 30
0.0
 10
-151.7838
 20
101.095
 30
0.0
 10
-153.1206
 20
97.4325
 30
0.0
 10
-153.1206
 20
97.4325
 30
0.0
 10
-154.0883
 20
94.7812
 30
0.0
 10
-156.512
 20
93.2794
 30
0.0
 10
-160.451
 20
94.1871
 30
0.0
 10
-160.451
 20
94.1871
 30
0.0
 10
-155.3617
 20
98.0411
 30
0.0
 10
-160.9213
 20
102.3531
 30
0.0
 10
-164.6266
 20
99.5919
 30
0.0
 10
-164.6266
 20
99.5919
 30
0.0
 10
-168.9261
 20
95.7272
 30
0.0
 10
-165.3113
 20
89.7975
 30
0.0
 10
-161.472
 20
88.8843
 30
0.0
 10
-161.472
 20
88.8843
 30
0.0
 10
-161.472
 20
88.8843
 30
0.0
 10
-161.4719
 20
88.8842
 30
0.0
 10
-161.4719
 20
88.8842
 30
0.0
  0
SPLINE
  5
68
330
1F
100
AcDbEntity
  8
layer 1
 62
     7
100
AcDbSpline
210
0.0
220
0.0
230
1.0
 70
    11
 71
     3
 72
    32
 73
    28
 74
     0
 42
0.0000000001
 43
0.0000000001
 12
1.0
 22
0.0
 32
0.0
 13
1.0
 23
0.0
 33
0.0
 40
0.0
 40
0.0
 40
0.0
 40
0.0
 40
0.125
 40
0.125
 40
0.125
 40
0.125
 40
0.25
 40
0.25
 40
0.25
 40
0.25
 40
0.375
 40
0.375
 40
0.375
 40
0.375
 40
0.5
 40
0.5
 40
0.5
 40
0.5
 40
0.625
 40
0.625
 40
0.625
 40
0.625
 40
0.75
 40
0.75
 40
0.75
 40
0.75
 40
1.0
 40
1.0
 40
1.0
 40
1.0
 10
-165.7685
 20
118.6083
 30
0.0
 10
-164.0716
 20
115.9559
 30
0.0
 10
-166.1925
 20
113.6262
 30
0.0
 10
-172.8041
 20
108.9449
 30
0.0
 10
-172.8041
 20
108.9449
 30
0.0
 10
-177.8489
 20
105.373
 30
0.0
 10
-178.8617
 20
97.2481
 30
0.0
 10
-172.2184
 20
98.1281
 30
0.0
 10
-172.2184
 20
98.1281
 30
0.0
 10
-170.799
 20
105.1049
 30
0.0
 10
-159.1743
 20
107.8927
 30
0.0
 10
-157.5052
 20
101.3096
 30
0.0
 10
-157.5052
 20
101.3096
 30
0.0
 10
-155.0361
 20
101.7906
 30
0.0
 10
-154.28
 20
104.0781
 30
0.0
 10
-158.3713
 20
107.3796
 30
0.0
 10
-158.3713
 20
107.3796
 30
0.0
 10
-159.8609
 20
108.5099
 30
0.0
 10
-159.5072
 20
110.5669
 30
0.0
 10
-156.3557
 20
111.722
 30
0.0
 10
-156.3557
 20
111.722
 30
0.0
 10
-157.8093
 20
113.0806
 30
0.0
 10
-160.7534
 20
112.612
 30
0.0
 10
-161.6509
 20
112.615
 30
0.0
 10
-161.6509
 20
112.615
 30
0.0
 10
-160.8104
 20
116.2824
 30
0.0
 10
-163.4956
 20
118.1862
 30
0.0
 10
-165.7685
 20
118.6083
 30
0.0
  0
SPLINE
  5
69
330
1F
100
AcDbEntity
  8
layer 1
 62
     7
100
AcDbSpline
210
0.0
220
0.0
230
1.0
 70
    11
 71
     3
 72
    20
 73
    16
 74
     0
 42
0.0000000001
 43
0.0000000001
 12
1.0
 22
0.0
 32
0.0
 13
1.0
 23
0.0
 33
0.0
 40
0.0
 40
0.0
 40
0.0
 40
0.0
 40
0.2
 40
0.2
 40
0.2
 40
0.2
 40
0.4
 40
0.4
 40
0.4
 40
0.4
 40
0.6
 40
0.6
 40
0.6
 40
0.6
 40
1.0
 40
1.0
 40
1.0
 40
1.0
 10
-118.1181
 20
76.066
 30
0.0
 10
-116.9936
 20
73.024
 30
0.0
 10
-114.572
 20
71.8224
 30
0.0
 10
-112.1874
 20
72.2106
 30
0.0
 10
-112.1874
 20
72.2106
 30
0.0
 10
-107.0768
 20
78.5204
 30
0.0
 10
-107.5198
 20
87.1841
 30
0.0
 10
-108.023
 20
97.045
 30
0.0
 10
-108.023
 20
97.045
 30
0.0
 10
-109.4725
 20
93.1907
 30
0.0
 10
-113.1647
 20
93.1918
 30
0.0
 10
-114.2851
 20
94.7608
 30
0.0
 10
-114.2851
 20
94.7608
 30
0.0
 10
-113.4122
 20
89.4097
 30
0.0
 10
-114.4331
 20
80.4348
 30
0.0
 10
-118.1181
 20
76.066
 30
0.0
  0
SPLINE
  5
6A
330
1F
100
AcDbEntity
  8
layer 1
 62
     7
100
AcDbSpline
210
0.0
220
0.0
230
1.0
 70
    11
 71
     3
 72
    28
 73
    24
 74
     0
 42
0.0000000001
 43
0.0000000001
 12
1.0
 22
0.0
 32
0.0
 13
1.0
 23
0.0
 33
0.0
 40
0.0
 40
0.0
 40
0.0
 40
0.0
 40
0.1428571428571428
 40
0.1428571428571428
 40
0.1428571428571428
 40
0.1428571428571428
 40
0.2857142857142857
 40
0.2857142857142857
 40
0.2857142857142857
 40
0.2857142857142857
 40
0.4285714285714285
 40
0.4285714285714285
 40
0.4285714285714285
 40
0.4285714285714285
 40
0.5714285714285714
 40
0.5714285714285714
 40
0.5714285714285714
 40
0.5714285714285714
 40
0.7142857142857143
 40
0.7142857142857143
 40
0.7142857142857143
 40
0.7142857142857143
 40
1.0
 40
1.0
 40
1.0
 40
1.0
 10
-125.754
 20
88.8842
 30
0.0
 10
-139.1051
 20
85.9519
 30
0.0
 10
-142.6744
 20
102.9708
 30
0.0
 10
-136.2468
 20
108.146
 30
0.0
 10
-136.2468
 20
108.146
 30
0.0
 10
-132.4459
 20
105.8212
 30
0.0
 10
-135.442
 20
101.095
 30
0.0
 10
-134.1052
 20
97.4325
 30
0.0
 10
-134.1052
 20
97.4325
 30
0.0
 10
-133.1375
 20
94.7812
 30
0.0
 10
-130.7138
 20
93.2794
 30
0.0
 10
-126.7748
 20
94.1871
 30
0.0
 10
-126.7748
 20
94.1871
 30
0.0
 10
-131.8642
 20
98.0411
 30
0.0
 10
-126.3047
 20
102.3531
 30
0.0
 10
-122.5993
 20
99.5919
 30
0.0
 10
-122.5993
 20
99.5919
 30
0.0
 10
-118.2998
 20
95.7272
 30
0.0
 10
-121.9145
 20
89.7975
 30
0.0
 10
-125.7539
 20
88.8843
 30
0.0
 10
-125.7539
 20
88.8843
 30
0.0
 10
-125.7539
 20
88.8843
 30
0.0
 10
-125.754
 20
88.8842
 30
0.0
 10
-125.754
 20
88.8842
 30
0.0
  0
SPLINE
  5
6B
330
1F
100
AcDbEntity
  8
layer 1
 62
     7
100
AcDbSpline
210
0.0
220
0.0
230
1.0
 70
    11
 71
     3
 72
    32
 73
    28
 74
     0
 42
0.0000000001
 43
0.0000000001
 12
1.0
 22
0.0
 32
0.0
 13
1.0
 23
0.0
 33
0.0
 40
0.0
 40
0.0
 40
0.0
 40
0.0
 40
0.125
 40
0.125
 40
0.125
 40
0.125
 40
0.25
 40
0.25
 40
0.25
 40
0.25
 40
0.375
 40
0.375
 40
0.375
 40
0.375
 40
0.5
 40
0.5
 40
0.5
 40
0.5
 40
0.625
 40
0.625
 40
0.625
 40
0.625
 40
0.75
 40
0.75
 40
0.75
 40
0.75
 40
1.0
 40
1.0
 40
1.0
 40
1.0
 10
-121.4574
 20
118.6083
 30
0.0
 10
-123.1542
 20
115.9559
 30
0.0
 10
-121.0334
 20
113.6262
 30
0.0
 10
-114.4218
 20
108.9449
 30
0.0
 10
-114.4218
 20
108.9449
 30
0.0
 10
-109.377
 20
105.373
 30
0.0
 10
-108.3641
 20
97.2481
 30
0.0
 10
-115.0074
 20
98.1281
 30
0.0
 10
-115.0074
 20
98.1281
 30
0.0
 10
-116.4269
 20
105.1049
 30
0.0
 10
-128.0516
 20
107.8927
 30
0.0
 10
-129.7207
 20
101.3096
 30
0.0
 10
-129.7207
 20
101.3096
 30
0.0
 10
-132.1898
 20
101.7906
 30
0.0
 10
-132.9459
 20
104.0781
 30
0.0
 10
-128.8545
 20
107.3796
 30
0.0
 10
-128.8545
 20
107.3796
 30
0.0
 10
-127.365
 20
108.5099
 30
0.0
 10
-127.7187
 20
110.5669
 30
0.0
 10
-130.8702
 20
111.722
 30
0.0
 10
-130.8702
 20
111.722
 30
0.0
 10
-129.4166
 20
113.0806
 30
0.0
 10
-126.4724
 20
112.612
 30
0.0
 10
-125.575
 20
112.615
 30
0.0
 10
-125.575
 20
112.615
 30
0.0
 10
-126.4155
 20
116.2824
 30
0.0
 10
-123.7302
 20
118.1862
 30
0.0
 10
-121.4574
 20
118.6083
 30
0.0
  0
SPLINE
  5
6C
330
1F
100
AcDbEntity
  8
layer 1
 62
     7
100
AcDbSpline
210
0.0
220
0.0
230
1.0
 70
    11
 71
     3
 72
    20
 73
    16
 74
     0
 42
0.0000000001
 43
0.0000000001
 12
1.0
 22
0.0
 32
0.0
 13
1.0
 23
0.0
 33
0.0
 40
0.0
 40
0.0
 40
0.0
 40
0.0
 40
0.2
 40
0.2
 40
0.2
 40
0.2
 40
0.4
 40
0.4
 40
0.4
 40
0.4
 40
0.6
 40
0.6
 40
0.6
 40
0.6
 40
1.0
 40
1.0
 40
1.0
 40
1.0
 10
-107.8223
 20
26.5709
 30
0.0
 10
-109.1021
 20
31.2175
 30
0.0
 10
-111.0376
 20
34.5369
 30
0.0
 10
-114.882
 20
35.4276
 30
0.0
 10
-114.882
 20
35.4276
 30
0.0
 10
-110.6094
 20
41.0154
 30
0.0
 10
-110.1902
 20
55.1366
 30
0.0
 10
-110.2957
 20
60.7548
 30
0.0
 10
-110.2957
 20
60.7548
 30
0.0
 10
-106.5245
 20
51.9361
 30
0.0
 10
-108.4935
 20
35.8308
 30
0.0
 10
-107.8223
 20
26.571
 30
0.0
 10
-107.8223
 20
26.571
 30
0.0
 10
-107.8223
 20
26.571
 30
0.0
 10
-107.8223
 20
26.5709
 30
0.0
 10
-107.8223
 20
26.5709
 30
0.0
  0
SPLINE
  5
6D
330
1F
100
AcDbEntity
  8
layer 1
 62
     7
100
AcDbSpline
210
0.0
220
0.0
230
1.0
 70
    11
 71
     3
 72
    40
 73
    36
 74
     0
 42
0.0000000001
 43
0.0000000001
 12
1.0
 22
0.0
 32
0.0
 13
1.0
 23
0.0
 33
0.0
 40
0.0
 40
0.0
 40
0.0
 40
0.0
 40
0.1
 40
0.1
 40
0.1
 40
0.1
 40
0.2
 40
0.2
 40
0.2
 40
0.2
 40
0.3
 40
0.3
 40
0.3
 40
0.3
 40
0.4
 40
0.4
 40
0.4
 40
0.4
 40
0.5
 40
0.5
 40
0.5
 40
0.5
 40
0.6
 40
0.6
 40
0.6
 40
0.6
 40
0.7
 40
0.7
 40
0.7
 40
0.7
 40
0.8
 40
0.8
 40
0.8
 40
0.8
 40
1.0
 40
1.0
 40
1.0
 40
1.0
 10
-40.7518
 20
-53.1773
 30
0.0
 10
-46.9794
 20
-46.4409
 30
0.0
 10
-57.7828
 20
-37.3404
 30
0.0
 10
-47.6319
 20
-28.2157
 30
0.0
 10
-47.6319
 20
-28.2157
 30
0.0
 10
-49.2478
 20
-28.9879
 30
0.0
 10
-54.2968
 20
-28.7194
 30
0.0
 10
-55.9981
 20
-27.1204
 30
0.0
 10
-55.9981
 20
-27.1204
 30
0.0
 10
-58.5668
 20
-28.0883
 30
0.0
 10
-59.8538
 20
-29.8047
 30
0.0
 10
-60.9941
 20
-31.9686
 30
0.0
 10
-60.9941
 20
-31.9686
 30
0.0
 10
-60.2589
 20
-32.598
 30
0.0
 10
-58.8199
 20
-32.9636
 30
0.0
 10
-57.8776
 20
-32.9656
 30
0.0
 10
-57.8776
 20
-32.9656
 30
0.0
 10
-60.8447
 20
-36.5534
 30
0.0
 10
-59.509
 20
-42.7934
 30
0.0
 10
-57.0057
 20
-43.9926
 30
0.0
 10
-57.0057
 20
-43.9926
 30
0.0
 10
-59.4416
 20
-43.9908
 30
0.0
 10
-60.7674
 20
-45.8472
 30
0.0
 10
-61.3056
 20
-47.8881
 30
0.0
 10
-61.3056
 20
-47.8881
 30
0.0
 10
-52.8428
 20
-47.3323
 30
0.0
 10
-49.1091
 20
-56.1355
 30
0.0
 10
-47.0633
 20
-58.2948
 30
0.0
 10
-47.0633
 20
-58.2948
 30
0.0
 10
-47.3774
 20
-55.024
 30
0.0
 10
-45.7826
 20
-52.3515
 30
0.0
 10
-40.7519
 20
-53.1774
 30
0.0
 10
-40.7519
 20
-53.1774
 30
0.0
 10
-40.7519
 20
-53.1774
 30
0.0
 10
-40.7518
 20
-53.1773
 30
0.0
 10
-40.7518
 20
-53.1773
 30
0.0
  0
SPLINE
  5
6E
330
1F
100
AcDbEntity
  8
layer 1
 62
     7
100
AcDbSpline
210
0.0
220
0.0
230
1.0
 70
    11
 71
     3
 72
    24
 73
    20
 74
     0
 42
0.0000000001
 43
0.0000000001
 12
1.0
 22
0.0
 32
0.0
 13
1.0
 23
0.0
 33
0.0
 40
0.0
 40
0.0
 40
0.0
 40
0.0
 40
0.1666666666666667
 40
0.1666666666666667
 40
0.1666666666666667
 40
0.1666666666666667
 40
0.3333333333333333
 40
0.3333333333333333
 40
0.3333333333333333
 40
0.3333333333333333
 40
0.5
 40
0.5
 40
0.5
 40
0.5
 40
0.6666666666666666
 40
0.6666666666666666
 40
0.6666666666666666
 40
0.6666666666666666
 40
1.0
 40
1.0
 40
1.0
 40
1.0
 10
-63.0978
 20
-53.1773
 30
0.0
 10
-65.9169
 20
-51.2882
 30
0.0
 10
-66.1395
 20
-47.9656
 30
0.0
 10
-66.5881
 20
-43.1014
 30
0.0
 10
-66.5881
 20
-43.1014
 30
0.0
 10
-67.0415
 20
-38.1837
 30
0.0
 10
-70.5477
 20
-34.7432
 30
0.0
 10
-69.7505
 20
-31.343
 30
0.0
 10
-69.7505
 20
-31.343
 30
0.0
 10
-76.3665
 20
-45.4855
 30
0.0
 10
-71.9451
 20
-47.7202
 30
0.0
 10
-75.8831
 20
-53.2607
 30
0.0
 10
-75.8831
 20
-53.2607
 30
0.0
 10
-72.4883
 20
-55.8971
 30
0.0
 10
-70.6022
 20
-58.4483
 30
0.0
 10
-69.8073
 20
-63.867
 30
0.0
 10
-69.8073
 20
-63.867
 30
0.0
 10
-69.0411
 20
-60.653
 30
0.0
 10
-68.0148
 20
-54.2846
 30
0.0
 10
-63.0978
 20
-53.1773
 30
0.0
  0
SPLINE
  5
6F
330
1F
100
AcDbEntity
  8
layer 1
 62
     7
100
AcDbSpline
210
0.0
220
0.0
230
1.0
 70
    11
 71
     3
 72
    24
 73
    20
 74
     0
 42
0.0000000001
 43
0.0000000001
 12
1.0
 22
0.0
 32
0.0
 13
1.0
 23
0.0
 33
0.0
 40
0.0
 40
0.0
 40
0.0
 40
0.0
 40
0.1666666666666667
 40
0.1666666666666667
 40
0.1666666666666667
 40
0.1666666666666667
 40
0.3333333333333333
 40
0.3333333333333333
 40
0.3333333333333333
 40
0.3333333333333333
 40
0.5
 40
0.5
 40
0.5
 40
0.5
 40
0.6666666666666666
 40
0.6666666666666666
 40
0.6666666666666666
 40
0.6666666666666666
 40
1.0
 40
1.0
 40
1.0
 40
1.0
 10
-59.6294
 20
-24.2924
 30
0.0
 10
-61.3114
 20
-22.8582
 30
0.0
 10
-62.7848
 20
-19.4787
 30
0.0
 10
-62.3805
 20
-14.8987
 30
0.0
 10
-62.3805
 20
-14.8987
 30
0.0
 10
-63.0917
 20
-16.5886
 30
0.0
 10
-64.5886
 20
-16.9513
 30
0.0
 10
-65.7038
 20
-16.9321
 30
0.0
 10
-65.7038
 20
-16.9321
 30
0.0
 10
-67.2878
 20
-17.6869
 30
0.0
 10
-67.7214
 20
-19.8675
 30
0.0
 10
-67.8838
 20
-21.7897
 30
0.0
 10
-67.8838
 20
-21.7897
 30
0.0
 10
-68.1467
 20
-24.9006
 30
0.0
 10
-65.3194
 20
-26.8568
 30
0.0
 10
-64.9743
 20
-28.8412
 30
0.0
 10
-64.9743
 20
-28.8412
 30
0.0
 10
-64.7199
 20
-25.5703
 30
0.0
 10
-62.1584
 20
-23.9783
 30
0.0
 10
-59.6294
 20
-24.2924
 30
0.0
  0
SPLINE
  5
70
330
1F
100
AcDbEntity
  8
layer 1
 62
     7
100
AcDbSpline
210
0.0
220
0.0
230
1.0
 70
    11
 71
     3
 72
    20
 73
    16
 74
     0
 42
0.0000000001
 43
0.0000000001
 12
1.0
 22
0.0
 32
0.0
 13
1.0
 23
0.0
 33
0.0
 40
0.0
 40
0.0
 40
0.0
 40
0.0
 40
0.2
 40
0.2
 40
0.2
 40
0.2
 40
0.4
 40
0.4
 40
0.4
 40
0.4
 40
0.6
 40
0.6
 40
0.6
 40
0.6
 40
1.0
 40
1.0
 40
1.0
 40
1.0
 10
-39.046
 20
-9.1676
 30
0.0
 10
-38.5673
 20
-0.9671
 30
0.0
 10
-45.613
 20
3.436
 30
0.0
 10
-48.2791
 20
3.2397
 30
0.0
 10
-48.2791
 20
3.2397
 30
0.0
 10
-46.5453
 20
0.4695
 30
0.0
 10
-48.3834
 20
-2.452
 30
0.0
 10
-50.2945
 20
-2.4896
 30
0.0
 10
-50.2945
 20
-2.4896
 30
0.0
 10
-43.8613
 20
-4.7228
 30
0.0
 10
-45.2616
 20
-14.1245
 30
0.0
 10
-52.1335
 20
-12.0666
 30
0.0
 10
-52.1335
 20
-12.0666
 30
0.0
 10
-50.679
 20
-20.2265
 30
0.0
 10
-40.0495
 20
-17.8365
 30
0.0
 10
-39.046
 20
-9.1676
 30
0.0
  0
SPLINE
  5
71
330
1F
100
AcDbEntity
  8
layer 1
 62
     7
100
AcDbSpline
210
0.0
220
0.0
230
1.0
 70
    11
 71
     3
 72
    16
 73
    12
 74
     0
 42
0.0000000001
 43
0.0000000001
 12
1.0
 22
0.0
 32
0.0
 13
1.0
 23
0.0
 33
0.0
 40
0.0
 40
0.0
 40
0.0
 40
0.0
 40
0.25
 40
0.25
 40
0.25
 40
0.25
 40
0.5
 40
0.5
 40
0.5
 40
0.5
 40
1.0
 40
1.0
 40
1.0
 40
1.0
 10
-33.9098
 20
-11.8851
 30
0.0
 10
-35.1895
 20
-16.5317
 30
0.0
 10
-37.1251
 20
-19.8511
 30
0.0
 10
-40.9695
 20
-20.7417
 30
0.0
 10
-40.9695
 20
-20.7417
 30
0.0
 10
-36.6969
 20
-26.3296
 30
0.0
 10
-36.2777
 20
-40.4508
 30
0.0
 10
-36.3832
 20
-46.0689
 30
0.0
 10
-36.3832
 20
-46.0689
 30
0.0
 10
-32.612
 20
-37.2502
 30
0.0
 10
-34.581
 20
-21.145
 30
0.0
 10
-33.9098
 20
-11.8851
 30
0.0
  0
SPLINE
  5
72
330
1F
100
AcDbEntity
  8
layer 1
 62
     7
100
AcDbSpline
210
0.0
220
0.0
230
1.0
 70
    11
 71
     3
 72
    20
 73
    16
 74
     0
 42
0.0000000001
 43
0.0000000001
 12
1.0
 22
0.0
 32
0.0
 13
1.0
 23
0.0
 33
0.0
 40
0.0
 40
0.0
 40
0.0
 40
0.0
 40
0.2
 40
0.2
 40
0.2
 40
0.2
 40
0.4
 40
0.4
 40
0.4
 40
0.4
 40
0.6
 40
0.6
 40
0.6
 40
0.6
 40
1.0
 40
1.0
 40
1.0
 40
1.0
 10
-70.1296
 20
-1.8014
 30
0.0
 10
-68.2024
 20
2.5739
 30
0.0
 10
-66.5598
 20
5.6014
 30
0.0
 10
-60.8326
 20
7.3429
 30
0.0
 10
-60.8326
 20
7.3429
 30
0.0
 10
-66.5598
 20
9.0845
 30
0.0
 10
-68.2024
 20
12.1118
 30
0.0
 10
-70.1296
 20
16.4871
 30
0.0
 10
-70.1296
 20
16.4871
 30
0.0
 10
-70.3896
 20
13.1948
 30
0.0
 10
-73.0874
 20
8.3608
 30
0.0
 10
-77.9286
 20
7.3429
 30
0.0
 10
-77.9286
 20
7.3429
 30
0.0
 10
-73.0874
 20
6.325
 30
0.0
 10
-70.3896
 20
1.491
 30
0.0
 10
-70.1296
 20
-1.8014
 30
0.0
  0
SPLINE
  5
73
330
1F
100
AcDbEntity
  8
layer 1
 62
     7
100
AcDbSpline
210
0.0
220
0.0
230
1.0
 70
    11
 71
     3
 72
    16
 73
    12
 74
     0
 42
0.0000000001
 43
0.0000000001
 12
1.0
 22
0.0
 32
0.0
 13
1.0
 23
0.0
 33
0.0
 40
0.0
 40
0.0
 40
0.0
 40
0.0
 40
0.25
 40
0.25
 40
0.25
 40
0.25
 40
0.5
 40
0.5
 40
0.5
 40
0.5
 40
1.0
 40
1.0
 40
1.0
 40
1.0
 10
-77.4169
 20
-14.2597
 30
0.0
 10
-77.1245
 20
-16.6634
 30
0.0
 10
-77.6416
 20
-21.5822
 30
0.0
 10
-80.4498
 20
-24.2916
 30
0.0
 10
-80.4498
 20
-24.2916
 30
0.0
 10
-78.2108
 20
-23.6497
 30
0.0
 10
-75.1561
 20
-25.606
 30
0.0
 10
-74.9248
 20
-28.898
 30
0.0
 10
-74.9248
 20
-28.898
 30
0.0
 10
-69.997
 20
-20.7913
 30
0.0
 10
-71.8109
 20
-17.0255
 30
0.0
 10
-77.4169
 20
-14.2597
 30
0.0
  0
SPLINE
  5
74
330
1F
100
AcDbEntity
  8
layer 1
 62
     7
100
AcDbSpline
210
0.0
220
0.0
230
1.0
 70
    11
 71
     3
 72
    24
 73
    20
 74
     0
 42
0.0000000001
 43
0.0000000001
 12
1.0
 22
0.0
 32
0.0
 13
1.0
 23
0.0
 33
0.0
 40
0.0
 40
0.0
 40
0.0
 40
0.0
 40
0.1666666666666667
 40
0.1666666666666667
 40
0.1666666666666667
 40
0.1666666666666667
 40
0.3333333333333333
 40
0.3333333333333333
 40
0.3333333333333333
 40
0.3333333333333333
 40
0.5
 40
0.5
 40
0.5
 40
0.5
 40
0.6666666666666666
 40
0.6666666666666666
 40
0.6666666666666666
 40
0.6666666666666666
 40
1.0
 40
1.0
 40
1.0
 40
1.0
 10
-54.7041
 20
-2.3041
 30
0.0
 10
-53.5025
 20
0.2395
 30
0.0
 10
-54.8719
 20
3.2687
 30
0.0
 10
-56.0381
 20
3.5174
 30
0.0
 10
-56.0381
 20
3.5174
 30
0.0
 10
-61.422
 20
3.6043
 30
0.0
 10
-67.4909
 20
-5.5579
 30
0.0
 10
-68.0113
 20
-10.2407
 30
0.0
 10
-68.0113
 20
-10.2407
 30
0.0
 10
-66.2849
 20
-7.7155
 30
0.0
 10
-62.565
 20
-8.575
 30
0.0
 10
-62.22
 20
-10.5594
 30
0.0
 10
-62.22
 20
-10.5594
 30
0.0
 10
-61.7084
 20
-5.0422
 30
0.0
 10
-56.5339
 20
-2.5469
 30
0.0
 10
-54.7041
 20
-2.3041
 30
0.0
 10
-54.7041
 20
-2.3041
 30
0.0
 10
-54.7041
 20
-2.3041
 30
0.0
 10
-54.7041
 20
-2.3041
 30
0.0
 10
-54.7041
 20
-2.3041
 30
0.0
  0
SPLINE
  5
75
330
1F
100
AcDbEntity
  8
layer 1
 62
     7
100
AcDbSpline
210
0.0
220
0.0
230
1.0
 70
    11
 71
     3
 72
    24
 73
    20
 74
     0
 42
0.0000000001
 43
0.0000000001
 12
1.0
 22
0.0
 32
0.0
 13
1.0
 23
0.0
 33
0.0
 40
0.0
 40
0.0
 40
0.0
 40
0.0
 40
0.1666666666666667
 40
0.1666666666666667
 40
0.1666666666666667
 40
0.1666666666666667
 40
0.3333333333333333
 40
0.3333333333333333
 40
0.3333333333333333
 40
0.3333333333333333
 40
0.5
 40
0.5
 40
0.5
 40
0.5
 40
0.6666666666666666
 40
0.6666666666666666
 40
0.6666666666666666
 40
0.6666666666666666
 40
1.0
 40
1.0
 40
1.0
 40
1.0
 10
-85.0916
 20
-2.3041
 30
0.0
 10
-86.2931
 20
0.2395
 30
0.0
 10
-84.9237
 20
3.2687
 30
0.0
 10
-83.7576
 20
3.5174
 30
0.0
 10
-83.7576
 20
3.5174
 30
0.0
 10
-78.3736
 20
3.6043
 30
0.0
 10
-72.3047
 20
-5.5579
 30
0.0
 10
-71.7843
 20
-10.2407
 30
0.0
 10
-71.7843
 20
-10.2407
 30
0.0
 10
-73.5107
 20
-7.7155
 30
0.0
 10
-77.2306
 20
-8.575
 30
0.0
 10
-77.5756
 20
-10.5594
 30
0.0
 10
-77.5756
 20
-10.5594
 30
0.0
 10
-78.0873
 20
-5.0422
 30
0.0
 10
-83.2617
 20
-2.5469
 30
0.0
 10
-85.0915
 20
-2.3041
 30
0.0
 10
-85.0915
 20
-2.3041
 30
0.0
 10
-85.0915
 20
-2.3041
 30
0.0
 10
-85.0916
 20
-2.3041
 30
0.0
 10
-85.0916
 20
-2.3041
 30
0.0
  0
SPLINE
  5
76
330
1F
100
AcDbEntity
  8
layer 1
 62
     7
100
AcDbSpline
210
0.0
220
0.0
230
1.0
 70
    11
 71
     3
 72
    20
 73
    16
 74
     0
 42
0.0000000001
 43
0.0000000001
 12
1.0
 22
0.0
 32
0.0
 13
1.0
 23
0.0
 33
0.0
 40
0.0
 40
0.0
 40
0.0
 40
0.0
 40
0.2
 40
0.2
 40
0.2
 40
0.2
 40
0.4
 40
0.4
 40
0.4
 40
0.4
 40
0.6
 40
0.6
 40
0.6
 40
0.6
 40
1.0
 40
1.0
 40
1.0
 40
1.0
 10
-100.7699
 20
-9.1676
 30
0.0
 10
-101.2486
 20
-0.9671
 30
0.0
 10
-94.2029
 20
3.436
 30
0.0
 10
-91.5368
 20
3.2397
 30
0.0
 10
-91.5368
 20
3.2397
 30
0.0
 10
-93.2706
 20
0.4695
 30
0.0
 10
-91.4325
 20
-2.452
 30
0.0
 10
-89.5214
 20
-2.4896
 30
0.0
 10
-89.5214
 20
-2.4896
 30
0.0
 10
-95.9546
 20
-4.7228
 30
0.0
 10
-94.5543
 20
-14.1245
 30
0.0
 10
-87.6824
 20
-12.0666
 30
0.0
 10
-87.6824
 20
-12.0666
 30
0.0
 10
-89.1369
 20
-20.2265
 30
0.0
 10
-99.7664
 20
-17.8365
 30
0.0
 10
-100.7699
 20
-9.1676
 30
0.0
  0
SPLINE
  5
77
330
1F
100
AcDbEntity
  8
layer 1
 62
     7
100
AcDbSpline
210
0.0
220
0.0
230
1.0
 70
    11
 71
     3
 72
    40
 73
    36
 74
     0
 42
0.0000000001
 43
0.0000000001
 12
1.0
 22
0.0
 32
0.0
 13
1.0
 23
0.0
 33
0.0
 40
0.0
 40
0.0
 40
0.0
 40
0.0
 40
0.1
 40
0.1
 40
0.1
 40
0.1
 40
0.2
 40
0.2
 40
0.2
 40
0.2
 40
0.3
 40
0.3
 40
0.3
 40
0.3
 40
0.4
 40
0.4
 40
0.4
 40
0.4
 40
0.5
 40
0.5
 40
0.5
 40
0.5
 40
0.6
 40
0.6
 40
0.6
 40
0.6
 40
0.7
 40
0.7
 40
0.7
 40
0.7
 40
0.8
 40
0.8
 40
0.8
 40
0.8
 40
1.0
 40
1.0
 40
1.0
 40
1.0
 10
-98.9479
 20
-53.1773
 30
0.0
 10
-92.7203
 20
-46.4409
 30
0.0
 10
-81.9169
 20
-37.3404
 30
0.0
 10
-92.0678
 20
-28.2157
 30
0.0
 10
-92.0678
 20
-28.2157
 30
0.0
 10
-90.4519
 20
-28.9879
 30
0.0
 10
-85.403
 20
-28.7194
 30
0.0
 10
-83.7017
 20
-27.1204
 30
0.0
 10
-83.7017
 20
-27.1204
 30
0.0
 10
-81.1329
 20
-28.0883
 30
0.0
 10
-79.846
 20
-29.8047
 30
0.0
 10
-78.7056
 20
-31.9686
 30
0.0
 10
-78.7056
 20
-31.9686
 30
0.0
 10
-79.4409
 20
-32.598
 30
0.0
 10
-80.8798
 20
-32.9636
 30
0.0
 10
-81.8221
 20
-32.9656
 30
0.0
 10
-81.8221
 20
-32.9656
 30
0.0
 10
-78.8551
 20
-36.5534
 30
0.0
 10
-80.1907
 20
-42.7934
 30
0.0
 10
-82.6941
 20
-43.9926
 30
0.0
 10
-82.6941
 20
-43.9926
 30
0.0
 10
-80.2582
 20
-43.9908
 30
0.0
 10
-78.9323
 20
-45.8472
 30
0.0
 10
-78.3941
 20
-47.8881
 30
0.0
 10
-78.3941
 20
-47.8881
 30
0.0
 10
-86.8569
 20
-47.3323
 30
0.0
 10
-90.5907
 20
-56.1355
 30
0.0
 10
-92.6364
 20
-58.2948
 30
0.0
 10
-92.6364
 20
-58.2948
 30
0.0
 10
-92.3223
 20
-55.024
 30
0.0
 10
-93.9172
 20
-52.3515
 30
0.0
 10
-98.9479
 20
-53.1774
 30
0.0
 10
-98.9479
 20
-53.1774
 30
0.0
 10
-98.9479
 20
-53.1774
 30
0.0
 10
-98.9479
 20
-53.1773
 30
0.0
 10
-98.9479
 20
-53.1773
 30
0.0
  0
SPLINE
  5
78
330
1F
100
AcDbEntity
  8
layer 1
 62
     7
100
AcDbSpline
210
0.0
220
0.0
230
1.0
 70
    11
 71
     3
 72
    16
 73
    12
 74
     0
 42
0.0000000001
 43
0.0000000001
 12
1.0
 22
0.0
 32
0.0
 13
1.0
 23
0.0
 33
0.0
 40
0.0
 40
0.0
 40
0.0
 40
0.0
 40
0.25
 40
0.25
 40
0.25
 40
0.25
 40
0.5
 40
0.5
 40
0.5
 40
0.5
 40
1.0
 40
1.0
 40
1.0
 40
1.0
 10
-105.5447
 20
-0.0723
 30
0.0
 10
-104.4919
 20
4.7791
 30
0.0
 10
-100.938
 20
6.6661
 30
0.0
 10
-97.9732
 20
7.3429
 30
0.0
 10
-97.9732
 20
7.3429
 30
0.0
 10
-100.938
 20
8.0197
 30
0.0
 10
-104.4919
 20
9.9066
 30
0.0
 10
-105.5447
 20
14.7581
 30
0.0
 10
-105.5447
 20
14.7581
 30
0.0
 10
-105.5447
 20
14.7581
 30
0.0
 10
-105.5447
 20
-0.0723
 30
0.0
 10
-105.5447
 20
-0.0723
 30
0.0
  0
SPLINE
  5
79
330
1F
100
AcDbEntity
  8
layer 1
 62
     7
100
AcDbSpline
210
0.0
220
0.0
230
1.0
 70
    11
 71
     3
 72
    16
 73
    12
 74
     0
 42
0.0000000001
 43
0.0000000001
 12
1.0
 22
0.0
 32
0.0
 13
1.0
 23
0.0
 33
0.0
 40
0.0
 40
0.0
 40
0.0
 40
0.0
 40
0.25
 40
0.25
 40
0.25
 40
0.25
 40
0.5
 40
0.5
 40
0.5
 40
0.5
 40
1.0
 40
1.0
 40
1.0
 40
1.0
 10
-55.9099
 20
-62.1251
 30
0.0
 10
-63.5013
 20
-60.6328
 30
0.0
 10
-69.8397
 20
-69.6767
 30
0.0
 10
-66.7349
 20
-76.2364
 30
0.0
 10
-66.7349
 20
-76.2364
 30
0.0
 10
-66.421
 20
-69.4525
 30
0.0
 10
-61.3495
 20
-65.3583
 30
0.0
 10
-55.8012
 20
-67.1837
 30
0.0
 10
-55.8012
 20
-67.1837
 30
0.0
 10
-52.111
 20
-67.6942
 30
0.0
 10
-52.4582
 20
-63.1492
 30
0.0
 10
-55.9099
 20
-62.1251
 30
0.0
  0
SPLINE
  5
7A
330
1F
100
AcDbEntity
  8
layer 1
 62
     7
100
AcDbSpline
210
0.0
220
0.0
230
1.0
 70
    11
 71
     3
 72
    16
 73
    12
 74
     0
 42
0.0000000001
 43
0.0000000001
 12
1.0
 22
0.0
 32
0.0
 13
1.0
 23
0.0
 33
0.0
 40
0.0
 40
0.0
 40
0.0
 40
0.0
 40
0.25
 40
0.25
 40
0.25
 40
0.25
 40
0.5
 40
0.5
 40
0.5
 40
0.5
 40
1.0
 40
1.0
 40
1.0
 40
1.0
 10
-84.0115
 20
-62.1251
 30
0.0
 10
-76.4201
 20
-60.6328
 30
0.0
 10
-70.0817
 20
-69.6767
 30
0.0
 10
-73.1864
 20
-76.2364
 30
0.0
 10
-73.1864
 20
-76.2364
 30
0.0
 10
-73.5004
 20
-69.4525
 30
0.0
 10
-78.5719
 20
-65.3583
 30
0.0
 10
-84.1201
 20
-67.1837
 30
0.0
 10
-84.1201
 20
-67.1837
 30
0.0
 10
-87.8104
 20
-67.6942
 30
0.0
 10
-87.4632
 20
-63.1492
 30
0.0
 10
-84.0115
 20
-62.1251
 30
0.0
  0
SPLINE
  5
7B
330
1F
100
AcDbEntity
  8
layer 1
 62
     7
100
AcDbSpline
210
0.0
220
0.0
230
1.0
 70
    11
 71
     3
 72
    16
 73
    12
 74
     0
 42
0.0000000001
 43
0.0000000001
 12
1.0
 22
0.0
 32
0.0
 13
1.0
 23
0.0
 33
0.0
 40
0.0
 40
0.0
 40
0.0
 40
0.0
 40
0.25
 40
0.25
 40
0.25
 40
0.25
 40
0.5
 40
0.5
 40
0.5
 40
0.5
 40
1.0
 40
1.0
 40
1.0
 40
1.0
 10
-79.5613
 20
-101.269
 30
0.0
 10
-76.6104
 20
-106.4602
 30
0.0
 10
-66.2645
 20
-109.3248
 30
0.0
 10
-60.593
 20
-101.4461
 30
0.0
 10
-60.593
 20
-101.4461
 30
0.0
 10
-65.4127
 20
-101.5377
 30
0.0
 10
-68.4083
 20
-96.8476
 30
0.0
 10
-69.8271
 20
-92.3018
 30
0.0
 10
-69.8271
 20
-92.3018
 30
0.0
 10
-70.1246
 20
-96.6625
 30
0.0
 10
-75.5137
 20
-102.1097
 30
0.0
 10
-79.5613
 20
-101.269
 30
0.0
  0
SPLINE
  5
7C
330
1F
100
AcDbEntity
  8
layer 1
 62
     7
100
AcDbSpline
210
0.0
220
0.0
230
1.0
 70
    11
 71
     3
 72
    20
 73
    16
 74
     0
 42
0.0000000001
 43
0.0000000001
 12
1.0
 22
0.0
 32
0.0
 13
1.0
 23
0.0
 33
0.0
 40
0.0
 40
0.0
 40
0.0
 40
0.0
 40
0.2
 40
0.2
 40
0.2
 40
0.2
 40
0.4
 40
0.4
 40
0.4
 40
0.4
 40
0.6
 40
0.6
 40
0.6
 40
0.6
 40
1.0
 40
1.0
 40
1.0
 40
1.0
 10
-44.508
 20
-61.3802
 30
0.0
 10
-43.3835
 20
-58.3381
 30
0.0
 10
-40.9619
 20
-57.1366
 30
0.0
 10
-38.5773
 20
-57.5248
 30
0.0
 10
-38.5773
 20
-57.5248
 30
0.0
 10
-33.4667
 20
-63.8345
 30
0.0
 10
-33.9097
 20
-72.4982
 30
0.0
 10
-34.4129
 20
-82.3592
 30
0.0
 10
-34.4129
 20
-82.3592
 30
0.0
 10
-35.8624
 20
-78.5048
 30
0.0
 10
-39.5546
 20
-78.5059
 30
0.0
 10
-40.675
 20
-80.075
 30
0.0
 10
-40.675
 20
-80.075
 30
0.0
 10
-39.8021
 20
-74.7239
 30
0.0
 10
-40.823
 20
-65.7489
 30
0.0
 10
-44.508
 20
-61.3802
 30
0.0
  0
SPLINE
  5
7D
330
1F
100
AcDbEntity
  8
layer 1
 62
     7
100
AcDbSpline
210
0.0
220
0.0
230
1.0
 70
    11
 71
     3
 72
    28
 73
    24
 74
     0
 42
0.0000000001
 43
0.0000000001
 12
1.0
 22
0.0
 32
0.0
 13
1.0
 23
0.0
 33
0.0
 40
0.0
 40
0.0
 40
0.0
 40
0.0
 40
0.1428571428571428
 40
0.1428571428571428
 40
0.1428571428571428
 40
0.1428571428571428
 40
0.2857142857142857
 40
0.2857142857142857
 40
0.2857142857142857
 40
0.2857142857142857
 40
0.4285714285714285
 40
0.4285714285714285
 40
0.4285714285714285
 40
0.4285714285714285
 40
0.5714285714285714
 40
0.5714285714285714
 40
0.5714285714285714
 40
0.5714285714285714
 40
0.7142857142857143
 40
0.7142857142857143
 40
0.7142857142857143
 40
0.7142857142857143
 40
1.0
 40
1.0
 40
1.0
 40
1.0
 10
-52.144
 20
-74.1983
 30
0.0
 10
-65.4951
 20
-71.266
 30
0.0
 10
-69.0644
 20
-88.285
 30
0.0
 10
-62.6367
 20
-93.4601
 30
0.0
 10
-62.6367
 20
-93.4601
 30
0.0
 10
-58.8359
 20
-91.1354
 30
0.0
 10
-61.832
 20
-86.4092
 30
0.0
 10
-60.4952
 20
-82.7467
 30
0.0
 10
-60.4952
 20
-82.7467
 30
0.0
 10
-59.5275
 20
-80.0954
 30
0.0
 10
-57.1038
 20
-78.5935
 30
0.0
 10
-53.1648
 20
-79.5012
 30
0.0
 10
-53.1648
 20
-79.5012
 30
0.0
 10
-58.2542
 20
-83.3552
 30
0.0
 10
-52.6946
 20
-87.6672
 30
0.0
 10
-48.9892
 20
-84.906
 30
0.0
 10
-48.9892
 20
-84.906
 30
0.0
 10
-44.6898
 20
-81.0413
 30
0.0
 10
-48.3045
 20
-75.1117
 30
0.0
 10
-52.1439
 20
-74.1985
 30
0.0
 10
-52.1439
 20
-74.1985
 30
0.0
 10
-52.1439
 20
-74.1985
 30
0.0
 10
-52.144
 20
-74.1983
 30
0.0
 10
-52.144
 20
-74.1983
 30
0.0
  0
SPLINE
  5
7E
330
1F
100
AcDbEntity
  8
layer 1
 62
     7
100
AcDbSpline
210
0.0
220
0.0
230
1.0
 70
    11
 71
     3
 72
    32
 73
    28
 74
     0
 42
0.0000000001
 43
0.0000000001
 12
1.0
 22
0.0
 32
0.0
 13
1.0
 23
0.0
 33
0.0
 40
0.0
 40
0.0
 40
0.0
 40
0.0
 40
0.125
 40
0.125
 40
0.125
 40
0.125
 40
0.25
 40
0.25
 40
0.25
 40
0.25
 40
0.375
 40
0.375
 40
0.375
 40
0.375
 40
0.5
 40
0.5
 40
0.5
 40
0.5
 40
0.625
 40
0.625
 40
0.625
 40
0.625
 40
0.75
 40
0.75
 40
0.75
 40
0.75
 40
1.0
 40
1.0
 40
1.0
 40
1.0
 10
-47.8474
 20
-103.9224
 30
0.0
 10
-49.5442
 20
-101.27
 30
0.0
 10
-47.4234
 20
-98.9403
 30
0.0
 10
-40.8118
 20
-94.2591
 30
0.0
 10
-40.8118
 20
-94.2591
 30
0.0
 10
-35.767
 20
-90.6872
 30
0.0
 10
-34.7541
 20
-82.5622
 30
0.0
 10
-41.3974
 20
-83.4422
 30
0.0
 10
-41.3974
 20
-83.4422
 30
0.0
 10
-42.8168
 20
-90.419
 30
0.0
 10
-54.4416
 20
-93.2069
 30
0.0
 10
-56.1106
 20
-86.6237
 30
0.0
 10
-56.1106
 20
-86.6237
 30
0.0
 10
-58.5798
 20
-87.1047
 30
0.0
 10
-59.3358
 20
-89.3923
 30
0.0
 10
-55.2445
 20
-92.6937
 30
0.0
 10
-55.2445
 20
-92.6937
 30
0.0
 10
-53.755
 20
-93.824
 30
0.0
 10
-54.1087
 20
-95.881
 30
0.0
 10
-57.2601
 20
-97.0362
 30
0.0
 10
-57.2601
 20
-97.0362
 30
0.0
 10
-55.8066
 20
-98.3947
 30
0.0
 10
-52.8624
 20
-97.9261
 30
0.0
 10
-51.9649
 20
-97.9292
 30
0.0
 10
-51.9649
 20
-97.9292
 30
0.0
 10
-52.8055
 20
-101.5965
 30
0.0
 10
-50.1202
 20
-103.5004
 30
0.0
 10
-47.8474
 20
-103.9224
 30
0.0
  0
SPLINE
  5
7F
330
1F
100
AcDbEntity
  8
layer 1
 62
     7
100
AcDbSpline
210
0.0
220
0.0
230
1.0
 70
    11
 71
     3
 72
    20
 73
    16
 74
     0
 42
0.0000000001
 43
0.0000000001
 12
1.0
 22
0.0
 32
0.0
 13
1.0
 23
0.0
 33
0.0
 40
0.0
 40
0.0
 40
0.0
 40
0.0
 40
0.2
 40
0.2
 40
0.2
 40
0.2
 40
0.4
 40
0.4
 40
0.4
 40
0.4
 40
0.6
 40
0.6
 40
0.6
 40
0.6
 40
1.0
 40
1.0
 40
1.0
 40
1.0
 10
-95.4977
 20
-61.3802
 30
0.0
 10
-96.6222
 20
-58.3381
 30
0.0
 10
-99.0438
 20
-57.1366
 30
0.0
 10
-101.4284
 20
-57.5248
 30
0.0
 10
-101.4284
 20
-57.5248
 30
0.0
 10
-106.5391
 20
-63.8345
 30
0.0
 10
-106.0961
 20
-72.4982
 30
0.0
 10
-105.5928
 20
-82.3592
 30
0.0
 10
-105.5928
 20
-82.3592
 30
0.0
 10
-104.1433
 20
-78.5048
 30
0.0
 10
-100.4511
 20
-78.5059
 30
0.0
 10
-99.3307
 20
-80.075
 30
0.0
 10
-99.3307
 20
-80.075
 30
0.0
 10
-100.2036
 20
-74.7239
 30
0.0
 10
-99.1828
 20
-65.7489
 30
0.0
 10
-95.4977
 20
-61.3802
 30
0.0
  0
SPLINE
  5
80
330
1F
100
AcDbEntity
  8
layer 1
 62
     7
100
AcDbSpline
210
0.0
220
0.0
230
1.0
 70
    11
 71
     3
 72
    28
 73
    24
 74
     0
 42
0.0000000001
 43
0.0000000001
 12
1.0
 22
0.0
 32
0.0
 13
1.0
 23
0.0
 33
0.0
 40
0.0
 40
0.0
 40
0.0
 40
0.0
 40
0.1428571428571428
 40
0.1428571428571428
 40
0.1428571428571428
 40
0.1428571428571428
 40
0.2857142857142857
 40
0.2857142857142857
 40
0.2857142857142857
 40
0.2857142857142857
 40
0.4285714285714285
 40
0.4285714285714285
 40
0.4285714285714285
 40
0.4285714285714285
 40
0.5714285714285714
 40
0.5714285714285714
 40
0.5714285714285714
 40
0.5714285714285714
 40
0.7142857142857143
 40
0.7142857142857143
 40
0.7142857142857143
 40
0.7142857142857143
 40
1.0
 40
1.0
 40
1.0
 40
1.0
 10
-87.8619
 20
-74.1983
 30
0.0
 10
-74.5108
 20
-71.266
 30
0.0
 10
-70.9414
 20
-88.285
 30
0.0
 10
-77.3691
 20
-93.4601
 30
0.0
 10
-77.3691
 20
-93.4601
 30
0.0
 10
-81.1699
 20
-91.1354
 30
0.0
 10
-78.1738
 20
-86.4092
 30
0.0
 10
-79.5106
 20
-82.7467
 30
0.0
 10
-79.5106
 20
-82.7467
 30
0.0
 10
-80.4783
 20
-80.0954
 30
0.0
 10
-82.902
 20
-78.5935
 30
0.0
 10
-86.841
 20
-79.5012
 30
0.0
 10
-86.841
 20
-79.5012
 30
0.0
 10
-81.7516
 20
-83.3552
 30
0.0
 10
-87.3112
 20
-87.6672
 30
0.0
 10
-91.0166
 20
-84.906
 30
0.0
 10
-91.0166
 20
-84.906
 30
0.0
 10
-95.3161
 20
-81.0413
 30
0.0
 10
-91.7013
 20
-75.1117
 30
0.0
 10
-87.862
 20
-74.1985
 30
0.0
 10
-87.862
 20
-74.1985
 30
0.0
 10
-87.862
 20
-74.1985
 30
0.0
 10
-87.8619
 20
-74.1983
 30
0.0
 10
-87.8619
 20
-74.1983
 30
0.0
  0
SPLINE
  5
81
330
1F
100
AcDbEntity
  8
layer 1
 62
     7
100
AcDbSpline
210
0.0
220
0.0
230
1.0
 70
    11
 71
     3
 72
    32
 73
    28
 74
     0
 42
0.0000000001
 43
0.0000000001
 12
1.0
 22
0.0
 32
0.0
 13
1.0
 23
0.0
 33
0.0
 40
0.0
 40
0.0
 40
0.0
 40
0.0
 40
0.125
 40
0.125
 40
0.125
 40
0.125
 40
0.25
 40
0.25
 40
0.25
 40
0.25
 40
0.375
 40
0.375
 40
0.375
 40
0.375
 40
0.5
 40
0.5
 40
0.5
 40
0.5
 40
0.625
 40
0.625
 40
0.625
 40
0.625
 40
0.75
 40
0.75
 40
0.75
 40
0.75
 40
1.0
 40
1.0
 40
1.0
 40
1.0
 10
-92.1585
 20
-103.9224
 30
0.0
 10
-90.4616
 20
-101.27
 30
0.0
 10
-92.5825
 20
-98.9403
 30
0.0
 10
-99.194
 20
-94.2591
 30
0.0
 10
-99.194
 20
-94.2591
 30
0.0
 10
-104.2389
 20
-90.6872
 30
0.0
 10
-105.2517
 20
-82.5622
 30
0.0
 10
-98.6084
 20
-83.4422
 30
0.0
 10
-98.6084
 20
-83.4422
 30
0.0
 10
-97.189
 20
-90.419
 30
0.0
 10
-85.5643
 20
-93.2069
 30
0.0
 10
-83.8952
 20
-86.6237
 30
0.0
 10
-83.8952
 20
-86.6237
 30
0.0
 10
-81.4261
 20
-87.1047
 30
0.0
 10
-80.67
 20
-89.3923
 30
0.0
 10
-84.7613
 20
-92.6937
 30
0.0
 10
-84.7613
 20
-92.6937
 30
0.0
 10
-86.2508
 20
-93.824
 30
0.0
 10
-85.8972
 20
-95.881
 30
0.0
 10
-82.7457
 20
-97.0362
 30
0.0
 10
-82.7457
 20
-97.0362
 30
0.0
 10
-84.1993
 20
-98.3947
 30
0.0
 10
-87.1434
 20
-97.9261
 30
0.0
 10
-88.0409
 20
-97.9292
 30
0.0
 10
-88.0409
 20
-97.9292
 30
0.0
 10
-87.2004
 20
-101.5965
 30
0.0
 10
-89.8856
 20
-103.5004
 30
0.0
 10
-92.1585
 20
-103.9224
 30
0.0
  0
SPLINE
  5
82
330
1F
100
AcDbEntity
  8
layer 1
 62
     7
100
AcDbSpline
210
0.0
220
0.0
230
1.0
 70
    11
 71
     3
 72
    16
 73
    12
 74
     0
 42
0.0000000001
 43
0.0000000001
 12
1.0
 22
0.0
 32
0.0
 13
1.0
 23
0.0
 33
0.0
 40
0.0
 40
0.0
 40
0.0
 40
0.0
 40
0.25
 40
0.25
 40
0.25
 40
0.25
 40
0.5
 40
0.5
 40
0.5
 40
0.5
 40
1.0
 40
1.0
 40
1.0
 40
1.0
 10
-105.7936
 20
-11.8851
 30
0.0
 10
-104.5138
 20
-16.5317
 30
0.0
 10
-102.5782
 20
-19.8511
 30
0.0
 10
-98.7338
 20
-20.7417
 30
0.0
 10
-98.7338
 20
-20.7417
 30
0.0
 10
-103.0064
 20
-26.3296
 30
0.0
 10
-103.4257
 20
-40.4508
 30
0.0
 10
-103.3201
 20
-46.0689
 30
0.0
 10
-103.3201
 20
-46.0689
 30
0.0
 10
-107.0913
 20
-37.2502
 30
0.0
 10
-105.1224
 20
-21.145
 30
0.0
 10
-105.7936
 20
-11.8851
 30
0.0
  0
SPLINE
  5
83
330
1F
100
AcDbEntity
  8
layer 1
 62
     7
100
AcDbSpline
210
0.0
220
0.0
230
1.0
 70
    11
 71
     3
 72
    40
 73
    36
 74
     0
 42
0.0000000001
 43
0.0000000001
 12
1.0
 22
0.0
 32
0.0
 13
1.0
 23
0.0
 33
0.0
 40
0.0
 40
0.0
 40
0.0
 40
0.0
 40
0.1
 40
0.1
 40
0.1
 40
0.1
 40
0.2
 40
0.2
 40
0.2
 40
0.2
 40
0.3
 40
0.3
 40
0.3
 40
0.3
 40
0.4
 40
0.4
 40
0.4
 40
0.4
 40
0.5
 40
0.5
 40
0.5
 40
0.5
 40
0.6
 40
0.6
 40
0.6
 40
0.6
 40
0.7
 40
0.7
 40
0.7
 40
0.7
 40
0.8
 40
0.8
 40
0.8
 40
0.8
 40
1.0
 40
1.0
 40
1.0
 40
1.0
 10
-40.7518
 20
67.8631
 30
0.0
 10
-46.9794
 20
61.1266
 30
0.0
 10
-57.7828
 20
52.0261
 30
0.0
 10
-47.6319
 20
42.9015
 30
0.0
 10
-47.6319
 20
42.9015
 30
0.0
 10
-49.2478
 20
43.6737
 30
0.0
 10
-54.2968
 20
43.4052
 30
0.0
 10
-55.9981
 20
41.8062
 30
0.0
 10
-55.9981
 20
41.8062
 30
0.0
 10
-58.5668
 20
42.7741
 30
0.0
 10
-59.8538
 20
44.4904
 30
0.0
 10
-60.9941
 20
46.6543
 30
0.0
 10
-60.9941
 20
46.6543
 30
0.0
 10
-60.2589
 20
47.2838
 30
0.0
 10
-58.8199
 20
47.6493
 30
0.0
 10
-57.8776
 20
47.6513
 30
0.0
 10
-57.8776
 20
47.6513
 30
0.0
 10
-60.8447
 20
51.2392
 30
0.0
 10
-59.509
 20
57.4791
 30
0.0
 10
-57.0057
 20
58.6784
 30
0.0
 10
-57.0057
 20
58.6784
 30
0.0
 10
-59.4416
 20
58.6766
 30
0.0
 10
-60.7674
 20
60.533
 30
0.0
 10
-61.3056
 20
62.5739
 30
0.0
 10
-61.3056
 20
62.5739
 30
0.0
 10
-52.8428
 20
62.0181
 30
0.0
 10
-49.1091
 20
70.8212
 30
0.0
 10
-47.0633
 20
72.9806
 30
0.0
 10
-47.0633
 20
72.9806
 30
0.0
 10
-47.3774
 20
69.7097
 30
0.0
 10
-45.7826
 20
67.0372
 30
0.0
 10
-40.7519
 20
67.8632
 30
0.0
 10
-40.7519
 20
67.8632
 30
0.0
 10
-40.7519
 20
67.8632
 30
0.0
 10
-40.7518
 20
67.8631
 30
0.0
 10
-40.7518
 20
67.8631
 30
0.0
  0
SPLINE
  5
84
330
1F
100
AcDbEntity
  8
layer 1
 62
     7
100
AcDbSpline
210
0.0
220
0.0
230
1.0
 70
    11
 71
     3
 72
    24
 73
    20
 74
     0
 42
0.0000000001
 43
0.0000000001
 12
1.0
 22
0.0
 32
0.0
 13
1.0
 23
0.0
 33
0.0
 40
0.0
 40
0.0
 40
0.0
 40
0.0
 40
0.1666666666666667
 40
0.1666666666666667
 40
0.1666666666666667
 40
0.1666666666666667
 40
0.3333333333333333
 40
0.3333333333333333
 40
0.3333333333333333
 40
0.3333333333333333
 40
0.5
 40
0.5
 40
0.5
 40
0.5
 40
0.6666666666666666
 40
0.6666666666666666
 40
0.6666666666666666
 40
0.6666666666666666
 40
1.0
 40
1.0
 40
1.0
 40
1.0
 10
-63.0978
 20
67.8631
 30
0.0
 10
-65.9169
 20
65.974
 30
0.0
 10
-66.1395
 20
62.6514
 30
0.0
 10
-66.5881
 20
57.7871
 30
0.0
 10
-66.5881
 20
57.7871
 30
0.0
 10
-67.0415
 20
52.8694
 30
0.0
 10
-70.5477
 20
49.429
 30
0.0
 10
-69.7505
 20
46.0288
 30
0.0
 10
-69.7505
 20
46.0288
 30
0.0
 10
-76.3665
 20
60.1713
 30
0.0
 10
-71.9451
 20
62.406
 30
0.0
 10
-75.8831
 20
67.9465
 30
0.0
 10
-75.8831
 20
67.9465
 30
0.0
 10
-72.4883
 20
70.5828
 30
0.0
 10
-70.6022
 20
73.1341
 30
0.0
 10
-69.8073
 20
78.5528
 30
0.0
 10
-69.8073
 20
78.5528
 30
0.0
 10
-69.0411
 20
75.3388
 30
0.0
 10
-68.0148
 20
68.9704
 30
0.0
 10
-63.0978
 20
67.8631
 30
0.0
  0
SPLINE
  5
85
330
1F
100
AcDbEntity
  8
layer 1
 62
     7
100
AcDbSpline
210
0.0
220
0.0
230
1.0
 70
    11
 71
     3
 72
    24
 73
    20
 74
     0
 42
0.0000000001
 43
0.0000000001
 12
1.0
 22
0.0
 32
0.0
 13
1.0
 23
0.0
 33
0.0
 40
0.0
 40
0.0
 40
0.0
 40
0.0
 40
0.1666666666666667
 40
0.1666666666666667
 40
0.1666666666666667
 40
0.1666666666666667
 40
0.3333333333333333
 40
0.3333333333333333
 40
0.3333333333333333
 40
0.3333333333333333
 40
0.5
 40
0.5
 40
0.5
 40
0.5
 40
0.6666666666666666
 40
0.6666666666666666
 40
0.6666666666666666
 40
0.6666666666666666
 40
1.0
 40
1.0
 40
1.0
 40
1.0
 10
-59.6294
 20
38.9781
 30
0.0
 10
-61.3114
 20
37.5439
 30
0.0
 10
-62.7848
 20
34.1645
 30
0.0
 10
-62.3805
 20
29.5845
 30
0.0
 10
-62.3805
 20
29.5845
 30
0.0
 10
-63.0917
 20
31.2743
 30
0.0
 10
-64.5886
 20
31.6371
 30
0.0
 10
-65.7038
 20
31.6179
 30
0.0
 10
-65.7038
 20
31.6179
 30
0.0
 10
-67.2878
 20
32.3727
 30
0.0
 10
-67.7214
 20
34.5532
 30
0.0
 10
-67.8838
 20
36.4755
 30
0.0
 10
-67.8838
 20
36.4755
 30
0.0
 10
-68.1467
 20
39.5864
 30
0.0
 10
-65.3194
 20
41.5426
 30
0.0
 10
-64.9743
 20
43.5269
 30
0.0
 10
-64.9743
 20
43.5269
 30
0.0
 10
-64.7199
 20
40.2561
 30
0.0
 10
-62.1584
 20
38.664
 30
0.0
 10
-59.6294
 20
38.9781
 30
0.0
  0
SPLINE
  5
86
330
1F
100
AcDbEntity
  8
layer 1
 62
     7
100
AcDbSpline
210
0.0
220
0.0
230
1.0
 70
    11
 71
     3
 72
    20
 73
    16
 74
     0
 42
0.0000000001
 43
0.0000000001
 12
1.0
 22
0.0
 32
0.0
 13
1.0
 23
0.0
 33
0.0
 40
0.0
 40
0.0
 40
0.0
 40
0.0
 40
0.2
 40
0.2
 40
0.2
 40
0.2
 40
0.4
 40
0.4
 40
0.4
 40
0.4
 40
0.6
 40
0.6
 40
0.6
 40
0.6
 40
1.0
 40
1.0
 40
1.0
 40
1.0
 10
-39.046
 20
23.8534
 30
0.0
 10
-38.5673
 20
15.6529
 30
0.0
 10
-45.613
 20
11.2498
 30
0.0
 10
-48.2791
 20
11.4461
 30
0.0
 10
-48.2791
 20
11.4461
 30
0.0
 10
-46.5453
 20
14.2164
 30
0.0
 10
-48.3834
 20
17.1378
 30
0.0
 10
-50.2945
 20
17.1755
 30
0.0
 10
-50.2945
 20
17.1755
 30
0.0
 10
-43.8613
 20
19.4086
 30
0.0
 10
-45.2616
 20
28.8104
 30
0.0
 10
-52.1335
 20
26.7524
 30
0.0
 10
-52.1335
 20
26.7524
 30
0.0
 10
-50.679
 20
34.9123
 30
0.0
 10
-40.0495
 20
32.5223
 30
0.0
 10
-39.046
 20
23.8534
 30
0.0
  0
SPLINE
  5
87
330
1F
100
AcDbEntity
  8
layer 1
 62
     7
100
AcDbSpline
210
0.0
220
0.0
230
1.0
 70
    11
 71
     3
 72
    20
 73
    16
 74
     0
 42
0.0000000001
 43
0.0000000001
 12
1.0
 22
0.0
 32
0.0
 13
1.0
 23
0.0
 33
0.0
 40
0.0
 40
0.0
 40
0.0
 40
0.0
 40
0.2
 40
0.2
 40
0.2
 40
0.2
 40
0.4
 40
0.4
 40
0.4
 40
0.4
 40
0.6
 40
0.6
 40
0.6
 40
0.6
 40
1.0
 40
1.0
 40
1.0
 40
1.0
 10
-33.9098
 20
26.5709
 30
0.0
 10
-35.1895
 20
31.2175
 30
0.0
 10
-37.1251
 20
34.5369
 30
0.0
 10
-40.9695
 20
35.4276
 30
0.0
 10
-40.9695
 20
35.4276
 30
0.0
 10
-36.6969
 20
41.0154
 30
0.0
 10
-36.2777
 20
55.1366
 30
0.0
 10
-36.3832
 20
60.7548
 30
0.0
 10
-36.3832
 20
60.7548
 30
0.0
 10
-32.612
 20
51.9361
 30
0.0
 10
-34.581
 20
35.8308
 30
0.0
 10
-33.9098
 20
26.571
 30
0.0
 10
-33.9098
 20
26.571
 30
0.0
 10
-33.9098
 20
26.571
 30
0.0
 10
-33.9098
 20
26.5709
 30
0.0
 10
-33.9098
 20
26.5709
 30
0.0
  0
SPLINE
  5
88
330
1F
100
AcDbEntity
  8
layer 1
 62
     7
100
AcDbSpline
210
0.0
220
0.0
230
1.0
 70
    11
 71
     3
 72
    16
 73
    12
 74
     0
 42
0.0000000001
 43
0.0000000001
 12
1.0
 22
0.0
 32
0.0
 13
1.0
 23
0.0
 33
0.0
 40
0.0
 40
0.0
 40
0.0
 40
0.0
 40
0.25
 40
0.25
 40
0.25
 40
0.25
 40
0.5
 40
0.5
 40
0.5
 40
0.5
 40
1.0
 40
1.0
 40
1.0
 40
1.0
 10
-33.9098
 20
16.0892
 30
0.0
 10
-33.9098
 20
10.2583
 30
0.0
 10
-33.9098
 20
4.4275
 30
0.0
 10
-33.9098
 20
-1.4033
 30
0.0
 10
-33.9098
 20
-1.4033
 30
0.0
 10
-34.9983
 20
4.6128
 30
0.0
 10
-38.5165
 20
6.6662
 30
0.0
 10
-41.4812
 20
7.343
 30
0.0
 10
-41.4812
 20
7.343
 30
0.0
 10
-38.5165
 20
8.0198
 30
0.0
 10
-34.9982
 20
10.0731
 30
0.0
 10
-33.9098
 20
16.0892
 30
0.0
  0
SPLINE
  5
89
330
1F
100
AcDbEntity
  8
layer 1
 62
     7
100
AcDbSpline
210
0.0
220
0.0
230
1.0
 70
    11
 71
     3
 72
    16
 73
    12
 74
     0
 42
0.0000000001
 43
0.0000000001
 12
1.0
 22
0.0
 32
0.0
 13
1.0
 23
0.0
 33
0.0
 40
0.0
 40
0.0
 40
0.0
 40
0.0
 40
0.25
 40
0.25
 40
0.25
 40
0.25
 40
0.5
 40
0.5
 40
0.5
 40
0.5
 40
1.0
 40
1.0
 40
1.0
 40
1.0
 10
-77.4169
 20
28.9455
 30
0.0
 10
-77.1245
 20
31.3492
 30
0.0
 10
-77.6416
 20
36.2679
 30
0.0
 10
-80.4498
 20
38.9773
 30
0.0
 10
-80.4498
 20
38.9773
 30
0.0
 10
-78.2108
 20
38.3355
 30
0.0
 10
-75.1561
 20
40.2917
 30
0.0
 10
-74.9248
 20
43.5838
 30
0.0
 10
-74.9248
 20
43.5838
 30
0.0
 10
-69.997
 20
35.4771
 30
0.0
 10
-71.8109
 20
31.7112
 30
0.0
 10
-77.4169
 20
28.9455
 30
0.0
  0
SPLINE
  5
8A
330
1F
100
AcDbEntity
  8
layer 1
 62
     7
100
AcDbSpline
210
0.0
220
0.0
230
1.0
 70
    11
 71
     3
 72
    24
 73
    20
 74
     0
 42
0.0000000001
 43
0.0000000001
 12
1.0
 22
0.0
 32
0.0
 13
1.0
 23
0.0
 33
0.0
 40
0.0
 40
0.0
 40
0.0
 40
0.0
 40
0.1666666666666667
 40
0.1666666666666667
 40
0.1666666666666667
 40
0.1666666666666667
 40
0.3333333333333333
 40
0.3333333333333333
 40
0.3333333333333333
 40
0.3333333333333333
 40
0.5
 40
0.5
 40
0.5
 40
0.5
 40
0.6666666666666666
 40
0.6666666666666666
 40
0.6666666666666666
 40
0.6666666666666666
 40
1.0
 40
1.0
 40
1.0
 40
1.0
 10
-54.7041
 20
16.99
 30
0.0
 10
-53.5025
 20
14.4464
 30
0.0
 10
-54.8719
 20
11.4172
 30
0.0
 10
-56.0381
 20
11.1684
 30
0.0
 10
-56.0381
 20
11.1684
 30
0.0
 10
-61.422
 20
11.0816
 30
0.0
 10
-67.4909
 20
20.2438
 30
0.0
 10
-68.0113
 20
24.9266
 30
0.0
 10
-68.0113
 20
24.9266
 30
0.0
 10
-66.2849
 20
22.4013
 30
0.0
 10
-62.565
 20
23.2609
 30
0.0
 10
-62.22
 20
25.2452
 30
0.0
 10
-62.22
 20
25.2452
 30
0.0
 10
-61.7084
 20
19.728
 30
0.0
 10
-56.5339
 20
17.2327
 30
0.0
 10
-54.7041
 20
16.99
 30
0.0
 10
-54.7041
 20
16.99
 30
0.0
 10
-54.7041
 20
16.99
 30
0.0
 10
-54.7041
 20
16.99
 30
0.0
 10
-54.7041
 20
16.99
 30
0.0
  0
SPLINE
  5
8B
330
1F
100
AcDbEntity
  8
layer 1
 62
     7
100
AcDbSpline
210
0.0
220
0.0
230
1.0
 70
    11
 71
     3
 72
    24
 73
    20
 74
     0
 42
0.0000000001
 43
0.0000000001
 12
1.0
 22
0.0
 32
0.0
 13
1.0
 23
0.0
 33
0.0
 40
0.0
 40
0.0
 40
0.0
 40
0.0
 40
0.1666666666666667
 40
0.1666666666666667
 40
0.1666666666666667
 40
0.1666666666666667
 40
0.3333333333333333
 40
0.3333333333333333
 40
0.3333333333333333
 40
0.3333333333333333
 40
0.5
 40
0.5
 40
0.5
 40
0.5
 40
0.6666666666666666
 40
0.6666666666666666
 40
0.6666666666666666
 40
0.6666666666666666
 40
1.0
 40
1.0
 40
1.0
 40
1.0
 10
-85.0916
 20
16.99
 30
0.0
 10
-86.2931
 20
14.4464
 30
0.0
 10
-84.9237
 20
11.4172
 30
0.0
 10
-83.7576
 20
11.1684
 30
0.0
 10
-83.7576
 20
11.1684
 30
0.0
 10
-78.3736
 20
11.0816
 30
0.0
 10
-72.3047
 20
20.2438
 30
0.0
 10
-71.7843
 20
24.9266
 30
0.0
 10
-71.7843
 20
24.9266
 30
0.0
 10
-73.5107
 20
22.4013
 30
0.0
 10
-77.2306
 20
23.2609
 30
0.0
 10
-77.5756
 20
25.2452
 30
0.0
 10
-77.5756
 20
25.2452
 30
0.0
 10
-78.0873
 20
19.728
 30
0.0
 10
-83.2617
 20
17.2327
 30
0.0
 10
-85.0915
 20
16.99
 30
0.0
 10
-85.0915
 20
16.99
 30
0.0
 10
-85.0915
 20
16.99
 30
0.0
 10
-85.0916
 20
16.99
 30
0.0
 10
-85.0916
 20
16.99
 30
0.0
  0
SPLINE
  5
8C
330
1F
100
AcDbEntity
  8
layer 1
 62
     7
100
AcDbSpline
210
0.0
220
0.0
230
1.0
 70
    11
 71
     3
 72
    20
 73
    16
 74
     0
 42
0.0000000001
 43
0.0000000001
 12
1.0
 22
0.0
 32
0.0
 13
1.0
 23
0.0
 33
0.0
 40
0.0
 40
0.0
 40
0.0
 40
0.0
 40
0.2
 40
0.2
 40
0.2
 40
0.2
 40
0.4
 40
0.4
 40
0.4
 40
0.4
 40
0.6
 40
0.6
 40
0.6
 40
0.6
 40
1.0
 40
1.0
 40
1.0
 40
1.0
 10
-100.7699
 20
23.8534
 30
0.0
 10
-101.2486
 20
15.6529
 30
0.0
 10
-94.2029
 20
11.2498
 30
0.0
 10
-91.5368
 20
11.4461
 30
0.0
 10
-91.5368
 20
11.4461
 30
0.0
 10
-93.2706
 20
14.2164
 30
0.0
 10
-91.4325
 20
17.1378
 30
0.0
 10
-89.5214
 20
17.1755
 30
0.0
 10
-89.5214
 20
17.1755
 30
0.0
 10
-95.9546
 20
19.4086
 30
0.0
 10
-94.5543
 20
28.8104
 30
0.0
 10
-87.6824
 20
26.7524
 30
0.0
 10
-87.6824
 20
26.7524
 30
0.0
 10
-89.1369
 20
34.9123
 30
0.0
 10
-99.7664
 20
32.5223
 30
0.0
 10
-100.7699
 20
23.8534
 30
0.0
  0
SPLINE
  5
8D
330
1F
100
AcDbEntity
  8
layer 1
 62
     7
100
AcDbSpline
210
0.0
220
0.0
230
1.0
 70
    11
 71
     3
 72
    40
 73
    36
 74
     0
 42
0.0000000001
 43
0.0000000001
 12
1.0
 22
0.0
 32
0.0
 13
1.0
 23
0.0
 33
0.0
 40
0.0
 40
0.0
 40
0.0
 40
0.0
 40
0.1
 40
0.1
 40
0.1
 40
0.1
 40
0.2
 40
0.2
 40
0.2
 40
0.2
 40
0.3
 40
0.3
 40
0.3
 40
0.3
 40
0.4
 40
0.4
 40
0.4
 40
0.4
 40
0.5
 40
0.5
 40
0.5
 40
0.5
 40
0.6
 40
0.6
 40
0.6
 40
0.6
 40
0.7
 40
0.7
 40
0.7
 40
0.7
 40
0.8
 40
0.8
 40
0.8
 40
0.8
 40
1.0
 40
1.0
 40
1.0
 40
1.0
 10
-98.9479
 20
67.8631
 30
0.0
 10
-92.7203
 20
61.1266
 30
0.0
 10
-81.9169
 20
52.0261
 30
0.0
 10
-92.0678
 20
42.9015
 30
0.0
 10
-92.0678
 20
42.9015
 30
0.0
 10
-90.4519
 20
43.6737
 30
0.0
 10
-85.403
 20
43.4052
 30
0.0
 10
-83.7017
 20
41.8062
 30
0.0
 10
-83.7017
 20
41.8062
 30
0.0
 10
-81.1329
 20
42.7741
 30
0.0
 10
-79.846
 20
44.4904
 30
0.0
 10
-78.7056
 20
46.6543
 30
0.0
 10
-78.7056
 20
46.6543
 30
0.0
 10
-79.4409
 20
47.2838
 30
0.0
 10
-80.8798
 20
47.6493
 30
0.0
 10
-81.8221
 20
47.6513
 30
0.0
 10
-81.8221
 20
47.6513
 30
0.0
 10
-78.8551
 20
51.2392
 30
0.0
 10
-80.1907
 20
57.4791
 30
0.0
 10
-82.6941
 20
58.6784
 30
0.0
 10
-82.6941
 20
58.6784
 30
0.0
 10
-80.2582
 20
58.6766
 30
0.0
 10
-78.9323
 20
60.533
 30
0.0
 10
-78.3941
 20
62.5739
 30
0.0
 10
-78.3941
 20
62.5739
 30
0.0
 10
-86.8569
 20
62.0181
 30
0.0
 10
-90.5907
 20
70.8212
 30
0.0
 10
-92.6364
 20
72.9806
 30
0.0
 10
-92.6364
 20
72.9806
 30
0.0
 10
-92.3223
 20
69.7097
 30
0.0
 10
-93.9172
 20
67.0372
 30
0.0
 10
-98.9479
 20
67.8632
 30
0.0
 10
-98.9479
 20
67.8632
 30
0.0
 10
-98.9479
 20
67.8632
 30
0.0
 10
-98.9479
 20
67.8631
 30
0.0
 10
-98.9479
 20
67.8631
 30
0.0
  0
SPLINE
  5
8E
330
1F
100
AcDbEntity
  8
layer 1
 62
     7
100
AcDbSpline
210
0.0
220
0.0
230
1.0
 70
    11
 71
     3
 72
    16
 73
    12
 74
     0
 42
0.0000000001
 43
0.0000000001
 12
1.0
 22
0.0
 32
0.0
 13
1.0
 23
0.0
 33
0.0
 40
0.0
 40
0.0
 40
0.0
 40
0.0
 40
0.25
 40
0.25
 40
0.25
 40
0.25
 40
0.5
 40
0.5
 40
0.5
 40
0.5
 40
1.0
 40
1.0
 40
1.0
 40
1.0
 10
-55.9099
 20
76.8109
 30
0.0
 10
-63.5013
 20
75.3186
 30
0.0
 10
-69.8397
 20
84.3625
 30
0.0
 10
-66.7349
 20
90.9222
 30
0.0
 10
-66.7349
 20
90.9222
 30
0.0
 10
-66.421
 20
84.1383
 30
0.0
 10
-61.3495
 20
80.0442
 30
0.0
 10
-55.8012
 20
81.8696
 30
0.0
 10
-55.8012
 20
81.8696
 30
0.0
 10
-52.111
 20
82.3801
 30
0.0
 10
-52.4582
 20
77.835
 30
0.0
 10
-55.9099
 20
76.8109
 30
0.0
  0
SPLINE
  5
8F
330
1F
100
AcDbEntity
  8
layer 1
 62
     7
100
AcDbSpline
210
0.0
220
0.0
230
1.0
 70
    11
 71
     3
 72
    16
 73
    12
 74
     0
 42
0.0000000001
 43
0.0000000001
 12
1.0
 22
0.0
 32
0.0
 13
1.0
 23
0.0
 33
0.0
 40
0.0
 40
0.0
 40
0.0
 40
0.0
 40
0.25
 40
0.25
 40
0.25
 40
0.25
 40
0.5
 40
0.5
 40
0.5
 40
0.5
 40
1.0
 40
1.0
 40
1.0
 40
1.0
 10
-84.0115
 20
76.8109
 30
0.0
 10
-76.4201
 20
75.3186
 30
0.0
 10
-70.0817
 20
84.3625
 30
0.0
 10
-73.1864
 20
90.9222
 30
0.0
 10
-73.1864
 20
90.9222
 30
0.0
 10
-73.5004
 20
84.1383
 30
0.0
 10
-78.5719
 20
80.0442
 30
0.0
 10
-84.1201
 20
81.8696
 30
0.0
 10
-84.1201
 20
81.8696
 30
0.0
 10
-87.8104
 20
82.3801
 30
0.0
 10
-87.4632
 20
77.835
 30
0.0
 10
-84.0115
 20
76.8109
 30
0.0
  0
SPLINE
  5
90
330
1F
100
AcDbEntity
  8
layer 1
 62
     7
100
AcDbSpline
210
0.0
220
0.0
230
1.0
 70
    11
 71
     3
 72
    16
 73
    12
 74
     0
 42
0.0000000001
 43
0.0000000001
 12
1.0
 22
0.0
 32
0.0
 13
1.0
 23
0.0
 33
0.0
 40
0.0
 40
0.0
 40
0.0
 40
0.0
 40
0.25
 40
0.25
 40
0.25
 40
0.25
 40
0.5
 40
0.5
 40
0.5
 40
0.5
 40
1.0
 40
1.0
 40
1.0
 40
1.0
 10
-79.5613
 20
115.9549
 30
0.0
 10
-76.6104
 20
121.146
 30
0.0
 10
-66.2645
 20
124.0107
 30
0.0
 10
-60.593
 20
116.132
 30
0.0
 10
-60.593
 20
116.132
 30
0.0
 10
-65.4127
 20
116.2235
 30
0.0
 10
-68.4083
 20
111.5335
 30
0.0
 10
-69.8271
 20
106.9876
 30
0.0
 10
-69.8271
 20
106.9876
 30
0.0
 10
-70.1246
 20
111.3484
 30
0.0
 10
-75.5137
 20
116.7955
 30
0.0
 10
-79.5613
 20
115.9549
 30
0.0
  0
SPLINE
  5
91
330
1F
100
AcDbEntity
  8
layer 1
 62
     7
100
AcDbSpline
210
0.0
220
0.0
230
1.0
 70
    11
 71
     3
 72
    20
 73
    16
 74
     0
 42
0.0000000001
 43
0.0000000001
 12
1.0
 22
0.0
 32
0.0
 13
1.0
 23
0.0
 33
0.0
 40
0.0
 40
0.0
 40
0.0
 40
0.0
 40
0.2
 40
0.2
 40
0.2
 40
0.2
 40
0.4
 40
0.4
 40
0.4
 40
0.4
 40
0.6
 40
0.6
 40
0.6
 40
0.6
 40
1.0
 40
1.0
 40
1.0
 40
1.0
 10
-44.508
 20
76.066
 30
0.0
 10
-43.3835
 20
73.024
 30
0.0
 10
-40.9619
 20
71.8224
 30
0.0
 10
-38.5773
 20
72.2106
 30
0.0
 10
-38.5773
 20
72.2106
 30
0.0
 10
-33.4667
 20
78.5204
 30
0.0
 10
-33.9097
 20
87.1841
 30
0.0
 10
-34.4129
 20
97.045
 30
0.0
 10
-34.4129
 20
97.045
 30
0.0
 10
-35.8624
 20
93.1907
 30
0.0
 10
-39.5546
 20
93.1918
 30
0.0
 10
-40.675
 20
94.7608
 30
0.0
 10
-40.675
 20
94.7608
 30
0.0
 10
-39.8021
 20
89.4097
 30
0.0
 10
-40.823
 20
80.4348
 30
0.0
 10
-44.508
 20
76.066
 30
0.0
  0
SPLINE
  5
92
330
1F
100
AcDbEntity
  8
layer 1
 62
     7
100
AcDbSpline
210
0.0
220
0.0
230
1.0
 70
    11
 71
     3
 72
    28
 73
    24
 74
     0
 42
0.0000000001
 43
0.0000000001
 12
1.0
 22
0.0
 32
0.0
 13
1.0
 23
0.0
 33
0.0
 40
0.0
 40
0.0
 40
0.0
 40
0.0
 40
0.1428571428571428
 40
0.1428571428571428
 40
0.1428571428571428
 40
0.1428571428571428
 40
0.2857142857142857
 40
0.2857142857142857
 40
0.2857142857142857
 40
0.2857142857142857
 40
0.4285714285714285
 40
0.4285714285714285
 40
0.4285714285714285
 40
0.4285714285714285
 40
0.5714285714285714
 40
0.5714285714285714
 40
0.5714285714285714
 40
0.5714285714285714
 40
0.7142857142857143
 40
0.7142857142857143
 40
0.7142857142857143
 40
0.7142857142857143
 40
1.0
 40
1.0
 40
1.0
 40
1.0
 10
-52.144
 20
88.8842
 30
0.0
 10
-65.4951
 20
85.9519
 30
0.0
 10
-69.0644
 20
102.9708
 30
0.0
 10
-62.6367
 20
108.146
 30
0.0
 10
-62.6367
 20
108.146
 30
0.0
 10
-58.8359
 20
105.8212
 30
0.0
 10
-61.832
 20
101.095
 30
0.0
 10
-60.4952
 20
97.4325
 30
0.0
 10
-60.4952
 20
97.4325
 30
0.0
 10
-59.5275
 20
94.7812
 30
0.0
 10
-57.1038
 20
93.2794
 30
0.0
 10
-53.1648
 20
94.1871
 30
0.0
 10
-53.1648
 20
94.1871
 30
0.0
 10
-58.2542
 20
98.0411
 30
0.0
 10
-52.6946
 20
102.3531
 30
0.0
 10
-48.9892
 20
99.5919
 30
0.0
 10
-48.9892
 20
99.5919
 30
0.0
 10
-44.6898
 20
95.7272
 30
0.0
 10
-48.3045
 20
89.7975
 30
0.0
 10
-52.1439
 20
88.8843
 30
0.0
 10
-52.1439
 20
88.8843
 30
0.0
 10
-52.1439
 20
88.8843
 30
0.0
 10
-52.144
 20
88.8842
 30
0.0
 10
-52.144
 20
88.8842
 30
0.0
  0
SPLINE
  5
93
330
1F
100
AcDbEntity
  8
layer 1
 62
     7
100
AcDbSpline
210
0.0
220
0.0
230
1.0
 70
    11
 71
     3
 72
    32
 73
    28
 74
     0
 42
0.0000000001
 43
0.0000000001
 12
1.0
 22
0.0
 32
0.0
 13
1.0
 23
0.0
 33
0.0
 40
0.0
 40
0.0
 40
0.0
 40
0.0
 40
0.125
 40
0.125
 40
0.125
 40
0.125
 40
0.25
 40
0.25
 40
0.25
 40
0.25
 40
0.375
 40
0.375
 40
0.375
 40
0.375
 40
0.5
 40
0.5
 40
0.5
 40
0.5
 40
0.625
 40
0.625
 40
0.625
 40
0.625
 40
0.75
 40
0.75
 40
0.75
 40
0.75
 40
1.0
 40
1.0
 40
1.0
 40
1.0
 10
-47.8474
 20
118.6083
 30
0.0
 10
-49.5442
 20
115.9559
 30
0.0
 10
-47.4234
 20
113.6262
 30
0.0
 10
-40.8118
 20
108.9449
 30
0.0
 10
-40.8118
 20
108.9449
 30
0.0
 10
-35.767
 20
105.373
 30
0.0
 10
-34.7541
 20
97.2481
 30
0.0
 10
-41.3974
 20
98.1281
 30
0.0
 10
-41.3974
 20
98.1281
 30
0.0
 10
-42.8168
 20
105.1049
 30
0.0
 10
-54.4416
 20
107.8927
 30
0.0
 10
-56.1106
 20
101.3096
 30
0.0
 10
-56.1106
 20
101.3096
 30
0.0
 10
-58.5798
 20
101.7906
 30
0.0
 10
-59.3358
 20
104.0781
 30
0.0
 10
-55.2445
 20
107.3796
 30
0.0
 10
-55.2445
 20
107.3796
 30
0.0
 10
-53.755
 20
108.5099
 30
0.0
 10
-54.1087
 20
110.5669
 30
0.0
 10
-57.2601
 20
111.722
 30
0.0
 10
-57.2601
 20
111.722
 30
0.0
 10
-55.8066
 20
113.0806
 30
0.0
 10
-52.8624
 20
112.612
 30
0.0
 10
-51.9649
 20
112.615
 30
0.0
 10
-51.9649
 20
112.615
 30
0.0
 10
-52.8055
 20
116.2824
 30
0.0
 10
-50.1202
 20
118.1862
 30
0.0
 10
-47.8474
 20
118.6083
 30
0.0
  0
SPLINE
  5
94
330
1F
100
AcDbEntity
  8
layer 1
 62
     7
100
AcDbSpline
210
0.0
220
0.0
230
1.0
 70
    11
 71
     3
 72
    20
 73
    16
 74
     0
 42
0.0000000001
 43
0.0000000001
 12
1.0
 22
0.0
 32
0.0
 13
1.0
 23
0.0
 33
0.0
 40
0.0
 40
0.0
 40
0.0
 40
0.0
 40
0.2
 40
0.2
 40
0.2
 40
0.2
 40
0.4
 40
0.4
 40
0.4
 40
0.4
 40
0.6
 40
0.6
 40
0.6
 40
0.6
 40
1.0
 40
1.0
 40
1.0
 40
1.0
 10
-95.4977
 20
76.066
 30
0.0
 10
-96.6222
 20
73.024
 30
0.0
 10
-99.0438
 20
71.8224
 30
0.0
 10
-101.4284
 20
72.2106
 30
0.0
 10
-101.4284
 20
72.2106
 30
0.0
 10
-106.5391
 20
78.5204
 30
0.0
 10
-106.0961
 20
87.1841
 30
0.0
 10
-105.5928
 20
97.045
 30
0.0
 10
-105.5928
 20
97.045
 30
0.0
 10
-104.1433
 20
93.1907
 30
0.0
 10
-100.4511
 20
93.1918
 30
0.0
 10
-99.3307
 20
94.7608
 30
0.0
 10
-99.3307
 20
94.7608
 30
0.0
 10
-100.2036
 20
89.4097
 30
0.0
 10
-99.1828
 20
80.4348
 30
0.0
 10
-95.4977
 20
76.066
 30
0.0
  0
SPLINE
  5
95
330
1F
100
AcDbEntity
  8
layer 1
 62
     7
100
AcDbSpline
210
0.0
220
0.0
230
1.0
 70
    11
 71
     3
 72
    28
 73
    24
 74
     0
 42
0.0000000001
 43
0.0000000001
 12
1.0
 22
0.0
 32
0.0
 13
1.0
 23
0.0
 33
0.0
 40
0.0
 40
0.0
 40
0.0
 40
0.0
 40
0.1428571428571428
 40
0.1428571428571428
 40
0.1428571428571428
 40
0.1428571428571428
 40
0.2857142857142857
 40
0.2857142857142857
 40
0.2857142857142857
 40
0.2857142857142857
 40
0.4285714285714285
 40
0.4285714285714285
 40
0.4285714285714285
 40
0.4285714285714285
 40
0.5714285714285714
 40
0.5714285714285714
 40
0.5714285714285714
 40
0.5714285714285714
 40
0.7142857142857143
 40
0.7142857142857143
 40
0.7142857142857143
 40
0.7142857142857143
 40
1.0
 40
1.0
 40
1.0
 40
1.0
 10
-87.8619
 20
88.8842
 30
0.0
 10
-74.5108
 20
85.9519
 30
0.0
 10
-70.9414
 20
102.9708
 30
0.0
 10
-77.3691
 20
108.146
 30
0.0
 10
-77.3691
 20
108.146
 30
0.0
 10
-81.1699
 20
105.8212
 30
0.0
 10
-78.1738
 20
101.095
 30
0.0
 10
-79.5106
 20
97.4325
 30
0.0
 10
-79.5106
 20
97.4325
 30
0.0
 10
-80.4783
 20
94.7812
 30
0.0
 10
-82.902
 20
93.2794
 30
0.0
 10
-86.841
 20
94.1871
 30
0.0
 10
-86.841
 20
94.1871
 30
0.0
 10
-81.7516
 20
98.0411
 30
0.0
 10
-87.3112
 20
102.3531
 30
0.0
 10
-91.0166
 20
99.5919
 30
0.0
 10
-91.0166
 20
99.5919
 30
0.0
 10
-95.3161
 20
95.7272
 30
0.0
 10
-91.7013
 20
89.7975
 30
0.0
 10
-87.862
 20
88.8843
 30
0.0
 10
-87.862
 20
88.8843
 30
0.0
 10
-87.862
 20
88.8843
 30
0.0
 10
-87.8619
 20
88.8842
 30
0.0
 10
-87.8619
 20
88.8842
 30
0.0
  0
SPLINE
  5
96
330
1F
100
AcDbEntity
  8
layer 1
 62
     7
100
AcDbSpline
210
0.0
220
0.0
230
1.0
 70
    11
 71
     3
 72
    32
 73
    28
 74
     0
 42
0.0000000001
 43
0.0000000001
 12
1.0
 22
0.0
 32
0.0
 13
1.0
 23
0.0
 33
0.0
 40
0.0
 40
0.0
 40
0.0
 40
0.0
 40
0.125
 40
0.125
 40
0.125
 40
0.125
 40
0.25
 40
0.25
 40
0.25
 40
0.25
 40
0.375
 40
0.375
 40
0.375
 40
0.375
 40
0.5
 40
0.5
 40
0.5
 40
0.5
 40
0.625
 40
0.625
 40
0.625
 40
0.625
 40
0.75
 40
0.75
 40
0.75
 40
0.75
 40
1.0
 40
1.0
 40
1.0
 40
1.0
 10
-92.1585
 20
118.6083
 30
0.0
 10
-90.4616
 20
115.9559
 30
0.0
 10
-92.5825
 20
113.6262
 30
0.0
 10
-99.194
 20
108.9449
 30
0.0
 10
-99.194
 20
108.9449
 30
0.0
 10
-104.2389
 20
105.373
 30
0.0
 10
-105.2517
 20
97.2481
 30
0.0
 10
-98.6084
 20
98.1281
 30
0.0
 10
-98.6084
 20
98.1281
 30
0.0
 10
-97.189
 20
105.1049
 30
0.0
 10
-85.5643
 20
107.8927
 30
0.0
 10
-83.8952
 20
101.3096
 30
0.0
 10
-83.8952
 20
101.3096
 30
0.0
 10
-81.4261
 20
101.7906
 30
0.0
 10
-80.67
 20
104.0781
 30
0.0
 10
-84.7613
 20
107.3796
 30
0.0
 10
-84.7613
 20
107.3796
 30
0.0
 10
-86.2508
 20
108.5099
 30
0.0
 10
-85.8972
 20
110.5669
 30
0.0
 10
-82.7457
 20
111.722
 30
0.0
 10
-82.7457
 20
111.722
 30
0.0
 10
-84.1993
 20
113.0806
 30
0.0
 10
-87.1434
 20
112.612
 30
0.0
 10
-88.0409
 20
112.615
 30
0.0
 10
-88.0409
 20
112.615
 30
0.0
 10
-87.2004
 20
116.2824
 30
0.0
 10
-89.8856
 20
118.1862
 30
0.0
 10
-92.1585
 20
118.6083
 30
0.0
  0
SPLINE
  5
97
330
1F
100
AcDbEntity
  8
layer 1
 62
     7
100
AcDbSpline
210
0.0
220
0.0
230
1.0
 70
    11
 71
     3
 72
    20
 73
    16
 74
     0
 42
0.0000000001
 43
0.0000000001
 12
1.0
 22
0.0
 32
0.0
 13
1.0
 23
0.0
 33
0.0
 40
0.0
 40
0.0
 40
0.0
 40
0.0
 40
0.2
 40
0.2
 40
0.2
 40
0.2
 40
0.4
 40
0.4
 40
0.4
 40
0.4
 40
0.6
 40
0.6
 40
0.6
 40
0.6
 40
1.0
 40
1.0
 40
1.0
 40
1.0
 10
-105.7936
 20
26.5709
 30
0.0
 10
-104.5138
 20
31.2175
 30
0.0
 10
-102.5782
 20
34.5369
 30
0.0
 10
-98.7338
 20
35.4276
 30
0.0
 10
-98.7338
 20
35.4276
 30
0.0
 10
-103.0064
 20
41.0154
 30
0.0
 10
-103.4257
 20
55.1366
 30
0.0
 10
-103.3201
 20
60.7548
 30
0.0
 10
-103.3201
 20
60.7548
 30
0.0
 10
-107.0913
 20
51.9361
 30
0.0
 10
-105.1224
 20
35.8308
 30
0.0
 10
-105.7936
 20
26.571
 30
0.0
 10
-105.7936
 20
26.571
 30
0.0
 10
-105.7936
 20
26.571
 30
0.0
 10
-105.7936
 20
26.5709
 30
0.0
 10
-105.7936
 20
26.5709
 30
0.0
  0
ENDSEC
  0
SECTION
  2
OBJECTS
  0
DICTIONARY
  5
C
330
0
100
AcDbDictionary
281
     1
  3
ACAD_GROUP
350
D
  3
ACAD_LAYOUT
350
1A
  3
ACAD_MATERIAL
350
3B
  3
ACAD_MLEADERSTYLE
350
BA
  3
ACAD_MLINESTYLE
350
17
  3
ACAD_PLOTSETTINGS
350
19
  3
ACAD_PLOTSTYLENAME
350
E
  3
ACAD_TABLESTYLE
350
B9
  3
ACAD_VISUALSTYLE
350
2A
  0
DICTIONARY
  5
D
102
{ACAD_REACTORS
330
C
102
}
330
C
100
AcDbDictionary
281
     1
  0
DICTIONARY
  5
1A
102
{ACAD_REACTORS
330
C
102
}
330
C
100
AcDbDictionary
281
     1
  3
Layout1
350
1E
  3
Layout2
350
26
  3
Model
350
22
  0
DICTIONARY
  5
3B
102
{ACAD_REACTORS
330
C
102
}
330
C
100
AcDbDictionary
281
     1
  3
ByBlock
350
3D
  3
ByLayer
350
3C
  3
Global
350
3E
  0
DICTIONARY
  5
BA
102
{ACAD_REACTORS
330
C
102
}
330
C
100
AcDbDictionary
281
     1
  0
DICTIONARY
  5
17
102
{ACAD_REACTORS
330
C
102
}
330
C
100
AcDbDictionary
281
     1
  3
Standard
350
18
  0
DICTIONARY
  5
19
102
{ACAD_REACTORS
330
C
102
}
330
C
100
AcDbDictionary
281
     1
  0
ACDBDICTIONARYWDFLT
  5
E
102
{ACAD_REACTORS
330
C
102
}
330
C
100
AcDbDictionary
281
     1
  3
Normal
350
F
100
AcDbDictionaryWithDefault
340
F
  0
DICTIONARY
  5
B9
102
{ACAD_REACTORS
330
C
102
}
330
C
100
AcDbDictionary
281
     1
  0
DICTIONARY
  5
2A
102
{ACAD_REACTORS
330
C
102
}
330
C
100
AcDbDictionary
281
     1
  3
2dWireframe
350
2F
  3
3D Hidden
350
31
  3
3dWireframe
350
30
  3
Basic
350
32
  3
Brighten
350
36
  3
ColorChange
350
3A
  3
Conceptual
350
34
  3
Dim
350
35
  3
Facepattern
350
39
  3
Flat
350
2B
  3
FlatWithEdges
350
2C
  3
Gouraud
350
2D
  3
GouraudWithEdges
350
2E
  3
Linepattern
350
38
  3
Realistic
350
33
  3
Thicken
350
37
  0
LAYOUT
  5
1E
102
{ACAD_REACTORS
330
1A
102
}
330
1A
100
AcDbPlotSettings
  1

  2
none_device
  4

  6

 40
0.0
 41
0.0
 42
0.0
 43
0.0
 44
0.0
 45
0.0
 46
0.0
 47
0.0
 48
0.0
 49
0.0
140
0.0
141
0.0
142
1.0
143
1.0
 70
   688
 72
     0
 73
     0
 74
     5
  7

 75
    16
 76
     0
 77
     2
 78
   300
147
1.0
148
0.0
149
0.0
100
AcDbLayout
  1
Layout1
 70
     1
 71
     1
 10
0.0
 20
0.0
 11
12.0
 21
9.0
 12
0.0
 22
0.0
 32
0.0
 14
1.000000000000000E+20
 24
1.000000000000000E+20
 34
1.000000000000000E+20
 15
-1.000000000000000E+20
 25
-1.000000000000000E+20
 35
-1.000000000000000E+20
146
0.0
 13
0.0
 23
0.0
 33
0.0
 16
1.0
 26
0.0
 36
0.0
 17
0.0
 27
1.0
 37
0.0
 76
     0
330
1B
  0
LAYOUT
  5
26
102
{ACAD_REACTORS
330
1A
102
}
330
1A
100
AcDbPlotSettings
  1

  2
none_device
  4

  6

 40
0.0
 41
0.0
 42
0.0
 43
0.0
 44
0.0
 45
0.0
 46
0.0
 47
0.0
 48
0.0
 49
0.0
140
0.0
141
0.0
142
1.0
143
1.0
 70
   688
 72
     0
 73
     0
 74
     5
  7

 75
    16
 76
     0
 77
     2
 78
   300
147
1.0
148
0.0
149
0.0
100
AcDbLayout
  1
Layout2
 70
     1
 71
     2
 10
0.0
 20
0.0
 11
0.0
 21
0.0
 12
0.0
 22
0.0
 32
0.0
 14
0.0
 24
0.0
 34
0.0
 15
0.0
 25
0.0
 35
0.0
146
0.0
 13
0.0
 23
0.0
 33
0.0
 16
1.0
 26
0.0
 36
0.0
 17
0.0
 27
1.0
 37
0.0
 76
     0
330
23
  0
LAYOUT
  5
22
102
{ACAD_REACTORS
330
1A
102
}
330
1A
100
AcDbPlotSettings
  1

  2
none_device
  4

  6

 40
0.0
 41
0.0
 42
0.0
 43
0.0
 44
0.0
 45
0.0
 46
0.0
 47
0.0
 48
0.0
 49
0.0
140
0.0
141
0.0
142
1.0
143
1.0
 70
  1712
 72
     0
 73
     0
 74
     0
  7

 75
     0
 76
     0
 77
     2
 78
   300
147
1.0
148
0.0
149
0.0
100
AcDbLayout
  1
Model
 70
     1
 71
     0
 10
0.0
 20
0.0
 11
12.0
 21
9.0
 12
0.0
 22
0.0
 32
0.0
 14
-187.3656
 24
-114.9967
 34
0.0
 15
-25.544
 25
131.825
 35
0.0
146
0.0
 13
0.0
 23
0.0
 33
0.0
 16
1.0
 26
0.0
 36
0.0
 17
0.0
 27
1.0
 37
0.0
 76
     0
330
1F
331
29
  0
MATERIAL
  5
3D
102
{ACAD_REACTORS
330
3B
102
}
330
3B
100
AcDbMaterial
  1
ByBlock
 72
     1
 94
      127
  0
MATERIAL
  5
3C
102
{ACAD_REACTORS
330
3B
102
}
330
3B
100
AcDbMaterial
  1
ByLayer
 72
     1
 94
      127
  0
MATERIAL
  5
3E
102
{ACAD_REACTORS
330
3B
102
}
330
3B
100
AcDbMaterial
  1
Global
 72
     1
 94
      127
  0
MLINESTYLE
  5
18
102
{ACAD_REACTORS
330
17
102
}
330
17
100
AcDbMlineStyle
  2
Standard
 70
     0
  3

 62
   256
 51
90.0
 52
90.0
 71
     2
 49
0.5
 62
   256
  6
BYLAYER
 49
-0.5
 62
   256
  6
BYLAYER
  0
ACDBPLACEHOLDER
  5
F
102
{ACAD_REACTORS
330
E
102
}
330
E
  0
VISUALSTYLE
  5
2F
102
{ACAD_REACTORS
330
2A
102
}
102
{ACAD_XDICTIONARY
360
A1
102
}
330
2A
100
AcDbVisualStyle
  2
2dWireframe
 70
     4
 71
     0
 72
     2
 73
     0
 90
        0
 40
-0.6
 41
-30.0
 62
     5
 63
     7
421
 16777215
 74
     1
 91
        4
 64
     7
 65
   257
 75
     1
175
     1
 42
1.0
 92
        0
 66
   257
 43
1.0
 76
     1
 77
     6
 78
     2
 67
     7
 79
     5
170
     0
171
     0
290
     0
174
     0
 93
        1
 44
0.0
173
     0
291
     0
 45
0.0
  0
VISUALSTYLE
  5
31
102
{ACAD_REACTORS
330
2A
102
}
102
{ACAD_XDICTIONARY
360
A5
102
}
330
2A
100
AcDbVisualStyle
  2
3D Hidden
 70
     6
 71
     1
 72
     2
 73
     2
 90
        0
 40
-0.6
 41
-30.0
 62
     5
 63
     7
421
 16777215
 74
     2
 91
        2
 64
     7
 65
   257
 75
     2
175
     1
 42
40.0
 92
        0
 66
   257
 43
1.0
 76
     1
 77
     6
 78
     2
 67
     7
 79
     3
170
     0
171
     0
290
     0
174
     0
 93
        1
 44
0.0
173
     0
291
     0
 45
0.0
  0
VISUALSTYLE
  5
30
102
{ACAD_REACTORS
330
2A
102
}
102
{ACAD_XDICTIONARY
360
A3
102
}
330
2A
100
AcDbVisualStyle
  2
3dWireframe
 70
     5
 71
     0
 72
     2
 73
     0
 90
        0
 40
-0.6
 41
-30.0
 62
     5
 63
     7
421
 16777215
 74
     1
 91
        4
 64
     7
 65
   257
 75
     1
175
     1
 42
1.0
 92
        0
 66
   257
 43
1.0
 76
     1
 77
     6
 78
     2
 67
     7
 79
     5
170
     0
171
     0
290
     0
174
     0
 93
        1
 44
0.0
173
     0
291
     0
 45
0.0
  0
VISUALSTYLE
  5
32
102
{ACAD_REACTORS
330
2A
102
}
102
{ACAD_XDICTIONARY
360
A7
102
}
330
2A
100
AcDbVisualStyle
  2
Basic
 70
     7
 71
     1
 72
     0
 73
     1
 90
        0
 40
-0.6
 41
-30.0
 62
     5
 63
     7
421
 16777215
 74
     0
 91
        4
 64
     7
 65
   257
 75
     1
175
     1
 42
1.0
 92
        8
 66
     7
 43
1.0
 76
     1
 77
     6
 78
     2
 67
     7
 79
     5
170
     0
171
     0
290
     0
174
     0
 93
        1
 44
0.0
173
     0
291
     1
 45
0.0
  0
VISUALSTYLE
  5
36
102
{ACAD_REACTORS
330
2A
102
}
102
{ACAD_XDICTIONARY
360
AF
102
}
330
2A
100
AcDbVisualStyle
  2
Brighten
 70
    12
 71
     2
 72
     2
 73
     0
 90
        0
 40
-0.6
 41
-30.0
 62
     5
 63
     7
421
 16777215
 74
     1
 91
        4
 64
     7
 65
   257
 75
     1
175
     1
 42
1.0
 92
        8
 66
     7
 43
1.0
 76
     1
 77
     6
 78
     2
 67
     7
 79
     5
170
     0
171
     0
290
     0
174
     0
 93
        1
 44
50.0
173
     0
291
     1
 45
0.0
  0
VISUALSTYLE
  5
3A
102
{ACAD_REACTORS
330
2A
102
}
102
{ACAD_XDICTIONARY
360
B7
102
}
330
2A
100
AcDbVisualStyle
  2
ColorChange
 70
    16
 71
     2
 72
     2
 73
     3
 90
        0
 40
-0.6
 41
-30.0
 62
     5
 63
     8
421
  8421504
 74
     1
 91
        4
 64
     7
 65
   257
 75
     1
175
     1
 42
1.0
 92
        8
 66
     8
424
  8421504
 43
1.0
 76
     1
 77
     6
 78
     2
 67
     7
 79
     5
170
     0
171
     0
290
     0
174
     0
 93
        1
 44
0.0
173
     0
291
     1
 45
0.0
  0
VISUALSTYLE
  5
34
102
{ACAD_REACTORS
330
2A
102
}
102
{ACAD_XDICTIONARY
360
AB
102
}
330
2A
100
AcDbVisualStyle
  2
Conceptual
 70
     9
 71
     3
 72
     2
 73
     0
 90
        0
 40
-0.6
 41
-30.0
 62
     5
 63
     7
421
 16777215
 74
     2
 91
        2
 64
     7
 65
   257
 75
     1
175
     1
 42
40.0
 92
        8
 66
     7
 43
1.0
 76
     1
 77
     6
 78
     2
 67
     7
 79
     3
170
     0
171
     0
290
     0
174
     0
 93
        1
 44
0.0
173
     0
291
     0
 45
0.0
  0
VISUALSTYLE
  5
35
102
{ACAD_REACTORS
330
2A
102
}
102
{ACAD_XDICTIONARY
360
AD
102
}
330
2A
100
AcDbVisualStyle
  2
Dim
 70
    11
 71
     2
 72
     2
 73
     0
 90
        0
 40
-0.6
 41
-30.0
 62
     5
 63
     7
421
 16777215
 74
     1
 91
        4
 64
     7
 65
   257
 75
     1
175
     1
 42
1.0
 92
        8
 66
     7
 43
1.0
 76
     1
 77
     6
 78
     2
 67
     7
 79
     5
170
     0
171
     0
290
     0
174
     0
 93
        1
 44
-50.0
173
     0
291
     1
 45
0.0
  0
VISUALSTYLE
  5
39
102
{ACAD_REACTORS
330
2A
102
}
102
{ACAD_XDICTIONARY
360
B5
102
}
330
2A
100
AcDbVisualStyle
  2
Facepattern
 70
    15
 71
     2
 72
     2
 73
     0
 90
        0
 40
-0.6
 41
-30.0
 62
     5
 63
     7
421
 16777215
 74
     1
 91
        4
 64
     7
 65
   257
 75
     1
175
     1
 42
1.0
 92
        8
 66
     7
 43
1.0
 76
     1
 77
     6
 78
     2
 67
     7
 79
     5
170
     0
171
     0
290
     0
174
     0
 93
        1
 44
0.0
173
     0
291
     1
 45
0.0
  0
VISUALSTYLE
  5
2B
102
{ACAD_REACTORS
330
2A
102
}
102
{ACAD_XDICTIONARY
360
99
102
}
330
2A
100
AcDbVisualStyle
  2
Flat
 70
     0
 71
     2
 72
     1
 73
     1
 90
        2
 40
-0.6
 41
30.0
 62
     5
 63
     7
421
 16777215
 74
     0
 91
        4
 64
     7
 65
   257
 75
     1
175
     1
 42
1.0
 92
        8
 66
     7
 43
1.0
 76
     1
 77
     6
 78
     2
 67
     7
 79
     5
170
     0
171
     0
290
     0
174
     0
 93
       13
 44
0.0
173
     0
291
     1
 45
0.0
  0
VISUALSTYLE
  5
2C
102
{ACAD_REACTORS
330
2A
102
}
102
{ACAD_XDICTIONARY
360
9B
102
}
330
2A
100
AcDbVisualStyle
  2
FlatWithEdges
 70
     1
 71
     2
 72
     1
 73
     1
 90
        2
 40
-0.6
 41
30.0
 62
     5
 63
     7
421
 16777215
 74
     1
 91
        4
 64
     7
 65
   257
 75
     1
175
     1
 42
1.0
 92
        0
 66
   257
 43
1.0
 76
     1
 77
     6
 78
     2
 67
     7
 79
     5
170
     0
171
     0
290
     0
174
     0
 93
       13
 44
0.0
173
     0
291
     1
 45
0.0
  0
VISUALSTYLE
  5
2D
102
{ACAD_REACTORS
330
2A
102
}
102
{ACAD_XDICTIONARY
360
9D
102
}
330
2A
100
AcDbVisualStyle
  2
Gouraud
 70
     2
 71
     2
 72
     2
 73
     1
 90
        2
 40
-0.6
 41
30.0
 62
     5
 63
     7
421
 16777215
 74
     0
 91
        4
 64
     7
 65
   257
 75
     1
175
     1
 42
1.0
 92
        0
 66
     7
 43
1.0
 76
     1
 77
     6
 78
     2
 67
     7
 79
     5
170
     0
171
     0
290
     0
174
     0
 93
       13
 44
0.0
173
     0
291
     1
 45
0.0
  0
VISUALSTYLE
  5
2E
102
{ACAD_REACTORS
330
2A
102
}
102
{ACAD_XDICTIONARY
360
9F
102
}
330
2A
100
AcDbVisualStyle
  2
GouraudWithEdges
 70
     3
 71
     2
 72
     2
 73
     1
 90
        2
 40
-0.6
 41
30.0
 62
     5
 63
     7
421
 16777215
 74
     1
 91
        4
 64
     7
 65
   257
 75
     1
175
     1
 42
1.0
 92
        0
 66
   257
 43
1.0
 76
     1
 77
     6
 78
     2
 67
     7
 79
     5
170
     0
171
     0
290
     0
174
     0
 93
       13
 44
0.0
173
     0
291
     1
 45
0.0
  0
VISUALSTYLE
  5
38
102
{ACAD_REACTORS
330
2A
102
}
102
{ACAD_XDICTIONARY
360
B3
102
}
330
2A
100
AcDbVisualStyle
  2
Linepattern
 70
    14
 71
     2
 72
     2
 73
     0
 90
        0
 40
-0.6
 41
-30.0
 62
     5
 63
     7
421
 16777215
 74
     1
 91
        4
 64
     7
 65
   257
 75
     7
175
     7
 42
1.0
 92
        8
 66
     7
 43
1.0
 76
     1
 77
     6
 78
     2
 67
     7
 79
     5
170
     0
171
     0
290
     0
174
     0
 93
        1
 44
0.0
173
     0
291
     1
 45
0.0
  0
VISUALSTYLE
  5
33
102
{ACAD_REACTORS
330
2A
102
}
102
{ACAD_XDICTIONARY
360
A9
102
}
330
2A
100
AcDbVisualStyle
  2
Realistic
 70
     8
 71
     2
 72
     2
 73
     0
 90
        0
 40
-0.6
 41
-30.0
 62
     5
 63
     7
421
 16777215
 74
     1
 91
        0
 64
     7
 65
   257
 75
     1
175
     1
 42
1.0
 92
        8
 66
     8
424
  7895160
 43
1.0
 76
     1
 77
     6
 78
     2
 67
     7
 79
     5
170
     0
171
     0
290
     0
174
     0
 93
       13
 44
0.0
173
     0
291
     0
 45
0.0
  0
VISUALSTYLE
  5
37
102
{ACAD_REACTORS
330
2A
102
}
102
{ACAD_XDICTIONARY
360
B1
102
}
330
2A
100
AcDbVisualStyle
  2
Thicken
 70
    13
 71
     2
 72
     2
 73
     0
 90
        0
 40
-0.6
 41
-30.0
 62
     5
 63
     7
421
 16777215
 74
     1
 91
        4
 64
     7
 65
   257
 75
     1
175
     1
 42
1.0
 92
       12
 66
     7
 43
1.0
 76
     1
 77
     6
 78
     2
 67
     7
 79
     5
170
     0
171
     0
290
     0
174
     0
 93
        1
 44
0.0
173
     0
291
     1
 45
0.0
  0
DICTIONARY
  5
A1
330
2F
100
AcDbDictionary
280
     1
281
     1
  3
ACAD_XREC_ROUNDTRIP
360
A2
  0
DICTIONARY
  5
A5
330
31
100
AcDbDictionary
280
     1
281
     1
  3
ACAD_XREC_ROUNDTRIP
360
A6
  0
DICTIONARY
  5
A3
330
30
100
AcDbDictionary
280
     1
281
     1
  3
ACAD_XREC_ROUNDTRIP
360
A4
  0
DICTIONARY
  5
A7
330
32
100
AcDbDictionary
280
     1
281
     1
  3
ACAD_XREC_ROUNDTRIP
360
A8
  0
DICTIONARY
  5
AF
330
36
100
AcDbDictionary
280
     1
281
     1
  3
ACAD_XREC_ROUNDTRIP
360
B0
  0
DICTIONARY
  5
B7
330
3A
100
AcDbDictionary
280
     1
281
     1
  3
ACAD_XREC_ROUNDTRIP
360
B8
  0
DICTIONARY
  5
AB
330
34
100
AcDbDictionary
280
     1
281
     1
  3
ACAD_XREC_ROUNDTRIP
360
AC
  0
DICTIONARY
  5
AD
330
35
100
AcDbDictionary
280
     1
281
     1
  3
ACAD_XREC_ROUNDTRIP
360
AE
  0
DICTIONARY
  5
B5
330
39
100
AcDbDictionary
280
     1
281
     1
  3
ACAD_XREC_ROUNDTRIP
360
B6
  0
DICTIONARY
  5
99
330
2B
100
AcDbDictionary
280
     1
281
     1
  3
ACAD_XREC_ROUNDTRIP
360
9A
  0
DICTIONARY
  5
9B
330
2C
100
AcDbDictionary
280
     1
281
     1
  3
ACAD_XREC_ROUNDTRIP
360
9C
  0
DICTIONARY
  5
9D
330
2D
100
AcDbDictionary
280
     1
281
     1
  3
ACAD_XREC_ROUNDTRIP
360
9E
  0
DICTIONARY
  5
9F
330
2E
100
AcDbDictionary
280
     1
281
     1
  3
ACAD_XREC_ROUNDTRIP
360
A0
  0
DICTIONARY
  5
B3
330
38
100
AcDbDictionary
280
     1
281
     1
  3
ACAD_XREC_ROUNDTRIP
360
B4
  0
DICTIONARY
  5
A9
330
33
100
AcDbDictionary
280
     1
281
     1
  3
ACAD_XREC_ROUNDTRIP
360
AA
  0
DICTIONARY
  5
B1
330
37
100
AcDbDictionary
280
     1
281
     1
  3
ACAD_XREC_ROUNDTRIP
360
B2
  0
XRECORD
  5
A2
102
{ACAD_REACTORS
330
A1
102
}
330
A1
100
AcDbXrecord
280
     1
102
RTVSPropertyOp0
 70
     1
102
RTVSPropertyOp1
 70
     1
102
RTVSPropertyOp2
 70
     1
102
RTVSPropertyOp3
 70
     1
102
RTVSPropertyOp4
 70
     1
102
RTVSPropertyOp5
 70
     1
102
RTVSPropertyOp6
 70
     1
102
RTVSPropertyOp7
 70
     1
102
RTVSPropertyOp8
 70
     1
102
RTVSPropertyOp9
 70
     1
102
RTVSPropertyOp10
 70
     1
102
RTVSPropertyOp11
 70
     1
102
RTVSPropertyOp12
 70
     1
102
RTVSPropertyOp13
 70
     1
102
RTVSPropertyOp14
 70
     1
102
RTVSPropertyOp15
 70
     1
102
RTVSPropertyOp16
 70
     1
102
RTVSPropertyOp17
 70
     1
102
RTVSPropertyOp18
 70
     1
102
RTVSPropertyOp19
 70
     1
102
RTVSPropertyOp20
 70
     1
102
RTVSPropertyOp21
 70
     1
102
RTVSPropertyOp22
 70
     1
102
RTVSPropertyOp23
 70
     1
102
RTVSPropertyOp24
 70
     1
102
RTVSPropertyOp25
 70
     1
102
RTVSPropertyOp26
 70
     1
102
RTVSPropertyOp27
 70
     1
102
RTVSPropertyOp28
 70
     1
102
RTVSPropertyOp29
 70
     1
102
RTVSPropertyOp30
 70
     1
102
RTVSPropertyOp31
 70
     1
102
RTVSPropertyOp32
 70
     1
  0
XRECORD
  5
A6
102
{ACAD_REACTORS
330
A5
102
}
330
A5
100
AcDbXrecord
280
     1
102
RTVSPropertyOp0
 70
     1
102
RTVSPropertyOp1
 70
     1
102
RTVSPropertyOp2
 70
     1
102
RTVSPropertyOp3
 70
     1
102
RTVSPropertyOp4
 70
     1
102
RTVSPropertyOp5
 70
     1
102
RTVSPropertyOp6
 70
     1
102
RTVSPropertyOp7
 70
     1
102
RTVSPropertyOp8
 70
     1
102
RTVSPropertyOp9
 70
     1
102
RTVSPropertyOp10
 70
     1
102
RTVSPropertyOp11
 70
     1
102
RTVSPropertyOp12
 70
     1
102
RTVSPropertyOp13
 70
     1
102
RTVSPropertyOp14
 70
     1
102
RTVSPropertyOp15
 70
     1
102
RTVSPropertyOp16
 70
     1
102
RTVSPropertyOp17
 70
     1
102
RTVSPropertyOp18
 70
     1
102
RTVSPropertyOp19
 70
     1
102
RTVSPropertyOp20
 70
     1
102
RTVSPropertyOp21
 70
     1
102
RTVSPropertyOp22
 70
     1
102
RTVSPropertyOp23
 70
     1
102
RTVSPropertyOp24
 70
     1
102
RTVSPropertyOp25
 70
     1
102
RTVSPropertyOp26
 70
     1
102
RTVSPropertyOp27
 70
     1
102
RTVSPropertyOp28
 70
     1
102
RTVSPropertyOp29
 70
     1
102
RTVSPropertyOp30
 70
     1
102
RTVSPropertyOp31
 70
     1
102
RTVSPropertyOp32
 70
     1
  0
XRECORD
  5
A4
102
{ACAD_REACTORS
330
A3
102
}
330
A3
100
AcDbXrecord
280
     1
102
RTVSPropertyOp0
 70
     1
102
RTVSPropertyOp1
 70
     1
102
RTVSPropertyOp2
 70
     1
102
RTVSPropertyOp3
 70
     1
102
RTVSPropertyOp4
 70
     1
102
RTVSPropertyOp5
 70
     1
102
RTVSPropertyOp6
 70
     1
102
RTVSPropertyOp7
 70
     1
102
RTVSPropertyOp8
 70
     1
102
RTVSPropertyOp9
 70
     1
102
RTVSPropertyOp10
 70
     1
102
RTVSPropertyOp11
 70
     1
102
RTVSPropertyOp12
 70
     1
102
RTVSPropertyOp13
 70
     1
102
RTVSPropertyOp14
 70
     1
102
RTVSPropertyOp15
 70
     1
102
RTVSPropertyOp16
 70
     1
102
RTVSPropertyOp17
 70
     1
102
RTVSPropertyOp18
 70
     1
102
RTVSPropertyOp19
 70
     1
102
RTVSPropertyOp20
 70
     1
102
RTVSPropertyOp21
 70
     1
102
RTVSPropertyOp22
 70
     1
102
RTVSPropertyOp23
 70
     1
102
RTVSPropertyOp24
 70
     1
102
RTVSPropertyOp25
 70
     1
102
RTVSPropertyOp26
 70
     1
102
RTVSPropertyOp27
 70
     1
102
RTVSPropertyOp28
 70
     1
102
RTVSPropertyOp29
 70
     1
102
RTVSPropertyOp30
 70
     1
102
RTVSPropertyOp31
 70
     1
102
RTVSPropertyOp32
 70
     1
  0
XRECORD
  5
A8
102
{ACAD_REACTORS
330
A7
102
}
330
A7
100
AcDbXrecord
280
     1
102
RTVSPropertyOp0
 70
     1
102
RTVSPropertyOp1
 70
     1
102
RTVSPropertyOp2
 70
     1
102
RTVSPropertyOp3
 70
     1
102
RTVSPropertyOp4
 70
     1
102
RTVSPropertyOp5
 70
     1
102
RTVSPropertyOp6
 70
     1
102
RTVSPropertyOp7
 70
     1
102
RTVSPropertyOp8
 70
     1
102
RTVSPropertyOp9
 70
     1
102
RTVSPropertyOp10
 70
     1
102
RTVSPropertyOp11
 70
     1
102
RTVSPropertyOp12
 70
     1
102
RTVSPropertyOp13
 70
     1
102
RTVSPropertyOp14
 70
     1
102
RTVSPropertyOp15
 70
     1
102
RTVSPropertyOp16
 70
     1
102
RTVSPropertyOp17
 70
     1
102
RTVSPropertyOp18
 70
     1
102
RTVSPropertyOp19
 70
     1
102
RTVSPropertyOp20
 70
     1
102
RTVSPropertyOp21
 70
     1
102
RTVSPropertyOp22
 70
     1
102
RTVSPropertyOp23
 70
     1
102
RTVSPropertyOp24
 70
     1
102
RTVSPropertyOp25
 70
     1
102
RTVSPropertyOp26
 70
     1
102
RTVSPropertyOp27
 70
     1
102
RTVSPropertyOp28
 70
     1
102
RTVSPropertyOp29
 70
     1
102
RTVSPropertyOp30
 70
     1
102
RTVSPropertyOp31
 70
     1
102
RTVSPropertyOp32
 70
     1
  0
XRECORD
  5
B0
102
{ACAD_REACTORS
330
AF
102
}
330
AF
100
AcDbXrecord
280
     1
102
RTVSPropertyOp0
 70
     1
102
RTVSPropertyOp1
 70
     1
102
RTVSPropertyOp2
 70
     1
102
RTVSPropertyOp3
 70
     1
102
RTVSPropertyOp4
 70
     1
102
RTVSPropertyOp5
 70
     1
102
RTVSPropertyOp6
 70
     1
102
RTVSPropertyOp7
 70
     1
102
RTVSPropertyOp8
 70
     1
102
RTVSPropertyOp9
 70
     1
102
RTVSPropertyOp10
 70
     1
102
RTVSPropertyOp11
 70
     1
102
RTVSPropertyOp12
 70
     1
102
RTVSPropertyOp13
 70
     1
102
RTVSPropertyOp14
 70
     1
102
RTVSPropertyOp15
 70
     1
102
RTVSPropertyOp16
 70
     1
102
RTVSPropertyOp17
 70
     1
102
RTVSPropertyOp18
 70
     1
102
RTVSPropertyOp19
 70
     1
102
RTVSPropertyOp20
 70
     1
102
RTVSPropertyOp21
 70
     1
102
RTVSPropertyOp22
 70
     1
102
RTVSPropertyOp23
 70
     1
102
RTVSPropertyOp24
 70
     1
102
RTVSPropertyOp25
 70
     1
102
RTVSPropertyOp26
 70
     1
102
RTVSPropertyOp27
 70
     1
102
RTVSPropertyOp28
 70
     1
102
RTVSPropertyOp29
 70
     1
102
RTVSPropertyOp30
 70
     1
102
RTVSPropertyOp31
 70
     1
102
RTVSPropertyOp32
 70
     1
  0
XRECORD
  5
B8
102
{ACAD_REACTORS
330
B7
102
}
330
B7
100
AcDbXrecord
280
     1
102
RTVSPropertyOp0
 70
     1
102
RTVSPropertyOp1
 70
     1
102
RTVSPropertyOp2
 70
     1
102
RTVSPropertyOp3
 70
     1
102
RTVSPropertyOp4
 70
     1
102
RTVSPropertyOp5
 70
     1
102
RTVSPropertyOp6
 70
     1
102
RTVSPropertyOp7
 70
     1
102
RTVSPropertyOp8
 70
     1
102
RTVSPropertyOp9
 70
     1
102
RTVSPropertyOp10
 70
     1
102
RTVSPropertyOp11
 70
     1
102
RTVSPropertyOp12
 70
     1
102
RTVSPropertyOp13
 70
     1
102
RTVSPropertyOp14
 70
     1
102
RTVSPropertyOp15
 70
     1
102
RTVSPropertyOp16
 70
     1
102
RTVSPropertyOp17
 70
     1
102
RTVSPropertyOp18
 70
     1
102
RTVSPropertyOp19
 70
     1
102
RTVSPropertyOp20
 70
     1
102
RTVSPropertyOp21
 70
     1
102
RTVSPropertyOp22
 70
     1
102
RTVSPropertyOp23
 70
     1
102
RTVSPropertyOp24
 70
     1
102
RTVSPropertyOp25
 70
     1
102
RTVSPropertyOp26
 70
     1
102
RTVSPropertyOp27
 70
     1
102
RTVSPropertyOp28
 70
     1
102
RTVSPropertyOp29
 70
     1
102
RTVSPropertyOp30
 70
     1
102
RTVSPropertyOp31
 70
     1
102
RTVSPropertyOp32
 70
     1
  0
XRECORD
  5
AC
102
{ACAD_REACTORS
330
AB
102
}
330
AB
100
AcDbXrecord
280
     1
102
RTVSPropertyOp0
 70
     1
102
RTVSPropertyOp1
 70
     1
102
RTVSPropertyOp2
 70
     1
102
RTVSPropertyOp3
 70
     1
102
RTVSPropertyOp4
 70
     1
102
RTVSPropertyOp5
 70
     1
102
RTVSPropertyOp6
 70
     1
102
RTVSPropertyOp7
 70
     1
102
RTVSPropertyOp8
 70
     1
102
RTVSPropertyOp9
 70
     1
102
RTVSPropertyOp10
 70
     1
102
RTVSPropertyOp11
 70
     1
102
RTVSPropertyOp12
 70
     1
102
RTVSPropertyOp13
 70
     1
102
RTVSPropertyOp14
 70
     1
102
RTVSPropertyOp15
 70
     1
102
RTVSPropertyOp16
 70
     1
102
RTVSPropertyOp17
 70
     1
102
RTVSPropertyOp18
 70
     1
102
RTVSPropertyOp19
 70
     1
102
RTVSPropertyOp20
 70
     1
102
RTVSPropertyOp21
 70
     1
102
RTVSPropertyOp22
 70
     1
102
RTVSPropertyOp23
 70
     1
102
RTVSPropertyOp24
 70
     1
102
RTVSPropertyOp25
 70
     1
102
RTVSPropertyOp26
 70
     1
102
RTVSPropertyOp27
 70
     1
102
RTVSPropertyOp28
 70
     1
102
RTVSPropertyOp29
 70
     1
102
RTVSPropertyOp30
 70
     1
102
RTVSPropertyOp31
 70
     1
102
RTVSPropertyOp32
 70
     1
  0
XRECORD
  5
AE
102
{ACAD_REACTORS
330
AD
102
}
330
AD
100
AcDbXrecord
280
     1
102
RTVSPropertyOp0
 70
     1
102
RTVSPropertyOp1
 70
     1
102
RTVSPropertyOp2
 70
     1
102
RTVSPropertyOp3
 70
     1
102
RTVSPropertyOp4
 70
     1
102
RTVSPropertyOp5
 70
     1
102
RTVSPropertyOp6
 70
     1
102
RTVSPropertyOp7
 70
     1
102
RTVSPropertyOp8
 70
     1
102
RTVSPropertyOp9
 70
     1
102
RTVSPropertyOp10
 70
     1
102
RTVSPropertyOp11
 70
     1
102
RTVSPropertyOp12
 70
     1
102
RTVSPropertyOp13
 70
     1
102
RTVSPropertyOp14
 70
     1
102
RTVSPropertyOp15
 70
     1
102
RTVSPropertyOp16
 70
     1
102
RTVSPropertyOp17
 70
     1
102
RTVSPropertyOp18
 70
     1
102
RTVSPropertyOp19
 70
     1
102
RTVSPropertyOp20
 70
     1
102
RTVSPropertyOp21
 70
     1
102
RTVSPropertyOp22
 70
     1
102
RTVSPropertyOp23
 70
     1
102
RTVSPropertyOp24
 70
     1
102
RTVSPropertyOp25
 70
     1
102
RTVSPropertyOp26
 70
     1
102
RTVSPropertyOp27
 70
     1
102
RTVSPropertyOp28
 70
     1
102
RTVSPropertyOp29
 70
     1
102
RTVSPropertyOp30
 70
     1
102
RTVSPropertyOp31
 70
     1
102
RTVSPropertyOp32
 70
     1
  0
XRECORD
  5
B6
102
{ACAD_REACTORS
330
B5
102
}
330
B5
100
AcDbXrecord
280
     1
102
RTVSPropertyOp0
 70
     1
102
RTVSPropertyOp1
 70
     1
102
RTVSPropertyOp2
 70
     1
102
RTVSPropertyOp3
 70
     1
102
RTVSPropertyOp4
 70
     1
102
RTVSPropertyOp5
 70
     1
102
RTVSPropertyOp6
 70
     1
102
RTVSPropertyOp7
 70
     1
102
RTVSPropertyOp8
 70
     1
102
RTVSPropertyOp9
 70
     1
102
RTVSPropertyOp10
 70
     1
102
RTVSPropertyOp11
 70
     1
102
RTVSPropertyOp12
 70
     1
102
RTVSPropertyOp13
 70
     1
102
RTVSPropertyOp14
 70
     1
102
RTVSPropertyOp15
 70
     1
102
RTVSPropertyOp16
 70
     1
102
RTVSPropertyOp17
 70
     1
102
RTVSPropertyOp18
 70
     1
102
RTVSPropertyOp19
 70
     1
102
RTVSPropertyOp20
 70
     1
102
RTVSPropertyOp21
 70
     1
102
RTVSPropertyOp22
 70
     1
102
RTVSPropertyOp23
 70
     1
102
RTVSPropertyOp24
 70
     1
102
RTVSPropertyOp25
 70
     1
102
RTVSPropertyOp26
 70
     1
102
RTVSPropertyOp27
 70
     1
102
RTVSPropertyOp28
 70
     1
102
RTVSPropertyOp29
 70
     1
102
RTVSPropertyOp30
 70
     1
102
RTVSPropertyOp31
 70
     1
102
RTVSPropertyOp32
 70
     1
  0
XRECORD
  5
9A
102
{ACAD_REACTORS
330
99
102
}
330
99
100
AcDbXrecord
280
     1
102
RTVSPropertyOp0
 70
     1
102
RTVSPropertyOp1
 70
     1
102
RTVSPropertyOp2
 70
     1
102
RTVSPropertyOp3
 70
     1
102
RTVSPropertyOp4
 70
     1
102
RTVSPropertyOp5
 70
     1
102
RTVSPropertyOp6
 70
     1
102
RTVSPropertyOp7
 70
     1
102
RTVSPropertyOp8
 70
     1
102
RTVSPropertyOp9
 70
     1
102
RTVSPropertyOp10
 70
     1
102
RTVSPropertyOp11
 70
     1
102
RTVSPropertyOp12
 70
     1
102
RTVSPropertyOp13
 70
     1
102
RTVSPropertyOp14
 70
     1
102
RTVSPropertyOp15
 70
     1
102
RTVSPropertyOp16
 70
     1
102
RTVSPropertyOp17
 70
     1
102
RTVSPropertyOp18
 70
     1
102
RTVSPropertyOp19
 70
     1
102
RTVSPropertyOp20
 70
     1
102
RTVSPropertyOp21
 70
     1
102
RTVSPropertyOp22
 70
     1
102
RTVSPropertyOp23
 70
     1
102
RTVSPropertyOp24
 70
     1
102
RTVSPropertyOp25
 70
     1
102
RTVSPropertyOp26
 70
     1
102
RTVSPropertyOp27
 70
     1
102
RTVSPropertyOp28
 70
     1
102
RTVSPropertyOp29
 70
     1
102
RTVSPropertyOp30
 70
     1
102
RTVSPropertyOp31
 70
     1
102
RTVSPropertyOp32
 70
     1
  0
XRECORD
  5
9C
102
{ACAD_REACTORS
330
9B
102
}
330
9B
100
AcDbXrecord
280
     1
102
RTVSPropertyOp0
 70
     1
102
RTVSPropertyOp1
 70
     1
102
RTVSPropertyOp2
 70
     1
102
RTVSPropertyOp3
 70
     1
102
RTVSPropertyOp4
 70
     1
102
RTVSPropertyOp5
 70
     1
102
RTVSPropertyOp6
 70
     1
102
RTVSPropertyOp7
 70
     1
102
RTVSPropertyOp8
 70
     1
102
RTVSPropertyOp9
 70
     1
102
RTVSPropertyOp10
 70
     1
102
RTVSPropertyOp11
 70
     1
102
RTVSPropertyOp12
 70
     1
102
RTVSPropertyOp13
 70
     1
102
RTVSPropertyOp14
 70
     1
102
RTVSPropertyOp15
 70
     1
102
RTVSPropertyOp16
 70
     1
102
RTVSPropertyOp17
 70
     1
102
RTVSPropertyOp18
 70
     1
102
RTVSPropertyOp19
 70
     1
102
RTVSPropertyOp20
 70
     1
102
RTVSPropertyOp21
 70
     1
102
RTVSPropertyOp22
 70
     1
102
RTVSPropertyOp23
 70
     1
102
RTVSPropertyOp24
 70
     1
102
RTVSPropertyOp25
 70
     1
102
RTVSPropertyOp26
 70
     1
102
RTVSPropertyOp27
 70
     1
102
RTVSPropertyOp28
 70
     1
102
RTVSPropertyOp29
 70
     1
102
RTVSPropertyOp30
 70
     1
102
RTVSPropertyOp31
 70
     1
102
RTVSPropertyOp32
 70
     1
  0
XRECORD
  5
9E
102
{ACAD_REACTORS
330
9D
102
}
330
9D
100
AcDbXrecord
280
     1
102
RTVSPropertyOp0
 70
     1
102
RTVSPropertyOp1
 70
     1
102
RTVSPropertyOp2
 70
     1
102
RTVSPropertyOp3
 70
     1
102
RTVSPropertyOp4
 70
     1
102
RTVSPropertyOp5
 70
     1
102
RTVSPropertyOp6
 70
     1
102
RTVSPropertyOp7
 70
     1
102
RTVSPropertyOp8
 70
     1
102
RTVSPropertyOp9
 70
     1
102
RTVSPropertyOp10
 70
     1
102
RTVSPropertyOp11
 70
     1
102
RTVSPropertyOp12
 70
     1
102
RTVSPropertyOp13
 70
     1
102
RTVSPropertyOp14
 70
     1
102
RTVSPropertyOp15
 70
     1
102
RTVSPropertyOp16
 70
     1
102
RTVSPropertyOp17
 70
     1
102
RTVSPropertyOp18
 70
     1
102
RTVSPropertyOp19
 70
     1
102
RTVSPropertyOp20
 70
     1
102
RTVSPropertyOp21
 70
     1
102
RTVSPropertyOp22
 70
     1
102
RTVSPropertyOp23
 70
     1
102
RTVSPropertyOp24
 70
     1
102
RTVSPropertyOp25
 70
     1
102
RTVSPropertyOp26
 70
     1
102
RTVSPropertyOp27
 70
     1
102
RTVSPropertyOp28
 70
     1
102
RTVSPropertyOp29
 70
     1
102
RTVSPropertyOp30
 70
     1
102
RTVSPropertyOp31
 70
     1
102
RTVSPropertyOp32
 70
     1
  0
XRECORD
  5
A0
102
{ACAD_REACTORS
330
9F
102
}
330
9F
100
AcDbXrecord
280
     1
102
RTVSPropertyOp0
 70
     1
102
RTVSPropertyOp1
 70
     1
102
RTVSPropertyOp2
 70
     1
102
RTVSPropertyOp3
 70
     1
102
RTVSPropertyOp4
 70
     1
102
RTVSPropertyOp5
 70
     1
102
RTVSPropertyOp6
 70
     1
102
RTVSPropertyOp7
 70
     1
102
RTVSPropertyOp8
 70
     1
102
RTVSPropertyOp9
 70
     1
102
RTVSPropertyOp10
 70
     1
102
RTVSPropertyOp11
 70
     1
102
RTVSPropertyOp12
 70
     1
102
RTVSPropertyOp13
 70
     1
102
RTVSPropertyOp14
 70
     1
102
RTVSPropertyOp15
 70
     1
102
RTVSPropertyOp16
 70
     1
102
RTVSPropertyOp17
 70
     1
102
RTVSPropertyOp18
 70
     1
102
RTVSPropertyOp19
 70
     1
102
RTVSPropertyOp20
 70
     1
102
RTVSPropertyOp21
 70
     1
102
RTVSPropertyOp22
 70
     1
102
RTVSPropertyOp23
 70
     1
102
RTVSPropertyOp24
 70
     1
102
RTVSPropertyOp25
 70
     1
102
RTVSPropertyOp26
 70
     1
102
RTVSPropertyOp27
 70
     1
102
RTVSPropertyOp28
 70
     1
102
RTVSPropertyOp29
 70
     1
102
RTVSPropertyOp30
 70
     1
102
RTVSPropertyOp31
 70
     1
102
RTVSPropertyOp32
 70
     1
  0
XRECORD
  5
B4
102
{ACAD_REACTORS
330
B3
102
}
330
B3
100
AcDbXrecord
280
     1
102
RTVSPropertyOp0
 70
     1
102
RTVSPropertyOp1
 70
     1
102
RTVSPropertyOp2
 70
     1
102
RTVSPropertyOp3
 70
     1
102
RTVSPropertyOp4
 70
     1
102
RTVSPropertyOp5
 70
     1
102
RTVSPropertyOp6
 70
     1
102
RTVSPropertyOp7
 70
     1
102
RTVSPropertyOp8
 70
     1
102
RTVSPropertyOp9
 70
     1
102
RTVSPropertyOp10
 70
     1
102
RTVSPropertyOp11
 70
     1
102
RTVSPropertyOp12
 70
     1
102
RTVSPropertyOp13
 70
     1
102
RTVSPropertyOp14
 70
     1
102
RTVSPropertyOp15
 70
     1
102
RTVSPropertyOp16
 70
     1
102
RTVSPropertyOp17
 70
     1
102
RTVSPropertyOp18
 70
     1
102
RTVSPropertyOp19
 70
     1
102
RTVSPropertyOp20
 70
     1
102
RTVSPropertyOp21
 70
     1
102
RTVSPropertyOp22
 70
     1
102
RTVSPropertyOp23
 70
     1
102
RTVSPropertyOp24
 70
     1
102
RTVSPropertyOp25
 70
     1
102
RTVSPropertyOp26
 70
     1
102
RTVSPropertyOp27
 70
     1
102
RTVSPropertyOp28
 70
     1
102
RTVSPropertyOp29
 70
     1
102
RTVSPropertyOp30
 70
     1
102
RTVSPropertyOp31
 70
     1
102
RTVSPropertyOp32
 70
     1
  0
XRECORD
  5
AA
102
{ACAD_REACTORS
330
A9
102
}
330
A9
100
AcDbXrecord
280
     1
102
RTVSPropertyOp0
 70
     1
102
RTVSPropertyOp1
 70
     1
102
RTVSPropertyOp2
 70
     1
102
RTVSPropertyOp3
 70
     1
102
RTVSPropertyOp4
 70
     1
102
RTVSPropertyOp5
 70
     1
102
RTVSPropertyOp6
 70
     1
102
RTVSPropertyOp7
 70
     1
102
RTVSPropertyOp8
 70
     1
102
RTVSPropertyOp9
 70
     1
102
RTVSPropertyOp10
 70
     1
102
RTVSPropertyOp11
 70
     1
102
RTVSPropertyOp12
 70
     1
102
RTVSPropertyOp13
 70
     1
102
RTVSPropertyOp14
 70
     1
102
RTVSPropertyOp15
 70
     1
102
RTVSPropertyOp16
 70
     1
102
RTVSPropertyOp17
 70
     1
102
RTVSPropertyOp18
 70
     1
102
RTVSPropertyOp19
 70
     1
102
RTVSPropertyOp20
 70
     1
102
RTVSPropertyOp21
 70
     1
102
RTVSPropertyOp22
 70
     1
102
RTVSPropertyOp23
 70
     1
102
RTVSPropertyOp24
 70
     1
102
RTVSPropertyOp25
 70
     1
102
RTVSPropertyOp26
 70
     1
102
RTVSPropertyOp27
 70
     1
102
RTVSPropertyOp28
 70
     1
102
RTVSPropertyOp29
 70
     1
102
RTVSPropertyOp30
 70
     1
102
RTVSPropertyOp31
 70
     1
102
RTVSPropertyOp32
 70
     1
  0
XRECORD
  5
B2
102
{ACAD_REACTORS
330
B1
102
}
330
B1
100
AcDbXrecord
280
     1
102
RTVSPropertyOp0
 70
     1
102
RTVSPropertyOp1
 70
     1
102
RTVSPropertyOp2
 70
     1
102
RTVSPropertyOp3
 70
     1
102
RTVSPropertyOp4
 70
     1
102
RTVSPropertyOp5
 70
     1
102
RTVSPropertyOp6
 70
     1
102
RTVSPropertyOp7
 70
     1
102
RTVSPropertyOp8
 70
     1
102
RTVSPropertyOp9
 70
     1
102
RTVSPropertyOp10
 70
     1
102
RTVSPropertyOp11
 70
     1
102
RTVSPropertyOp12
 70
     1
102
RTVSPropertyOp13
 70
     1
102
RTVSPropertyOp14
 70
     1
102
RTVSPropertyOp15
 70
     1
102
RTVSPropertyOp16
 70
     1
102
RTVSPropertyOp17
 70
     1
102
RTVSPropertyOp18
 70
     1
102
RTVSPropertyOp19
 70
     1
102
RTVSPropertyOp20
 70
     1
102
RTVSPropertyOp21
 70
     1
102
RTVSPropertyOp22
 70
     1
102
RTVSPropertyOp23
 70
     1
102
RTVSPropertyOp24
 70
     1
102
RTVSPropertyOp25
 70
     1
102
RTVSPropertyOp26
 70
     1
102
RTVSPropertyOp27
 70
     1
102
RTVSPropertyOp28
 70
     1
102
RTVSPropertyOp29
 70
     1
102
RTVSPropertyOp30
 70
     1
102
RTVSPropertyOp31
 70
     1
102
RTVSPropertyOp32
 70
     1
  0
ENDSEC
  0
EOF
