  0
SECTION
  2
HEADER
  9
$ACADVER
  1
AC1021
  9
$ACADMAINTVER
 70
    25
  9
$DWGCODEPAGE
  3
ANSI_1252
  9
$INSBASE
 10
0.0
 20
0.0
 30
0.0
  9
$EXTMIN
 10
67.1371
 20
-114.8591
 30
0.0
  9
$EXTMAX
 10
196.228
 20
131.9591
 30
0.0
  9
$LIMMIN
 10
0.0
 20
0.0
  9
$LIMMAX
 10
12.0
 20
9.0
  9
$ORTHOMODE
 70
     0
  9
$REGENMODE
 70
     1
  9
$FILLMODE
 70
     1
  9
$QTEXTMODE
 70
     0
  9
$MIRRTEXT
 70
     1
  9
$LTSCALE
 40
1.0
  9
$ATTMODE
 70
     1
  9
$TEXTSIZE
 40
0.2
  9
$TRACEWID
 40
0.05
  9
$TEXTSTYLE
  7
Standard
  9
$CLAYER
  8
0
  9
$CELTYPE
  6
ByLayer
  9
$CECOLOR
 62
   256
  9
$CELTSCALE
 40
1.0
  9
$DISPSILH
 70
     0
  9
$DIMSCALE
 40
1.0
  9
$DIMASZ
 40
0.18
  9
$DIMEXO
 40
0.0625
  9
$DIMDLI
 40
0.38
  9
$DIMRND
 40
0.0
  9
$DIMDLE
 40
0.0
  9
$DIMEXE
 40
0.18
  9
$DIMTP
 40
0.0
  9
$DIMTM
 40
0.0
  9
$DIMTXT
 40
0.18
  9
$DIMCEN
 40
0.09
  9
$DIMTSZ
 40
0.0
  9
$DIMTOL
 70
     0
  9
$DIMLIM
 70
     0
  9
$DIMTIH
 70
     1
  9
$DIMTOH
 70
     1
  9
$DIMSE1
 70
     0
  9
$DIMSE2
 70
     0
  9
$DIMTAD
 70
     0
  9
$DIMZIN
 70
     0
  9
$DIMBLK
  1

  9
$DIMASO
 70
     1
  9
$DIMSHO
 70
     1
  9
$DIMPOST
  1

  9
$DIMAPOST
  1

  9
$DIMALT
 70
     0
  9
$DIMALTD
 70
     2
  9
$DIMALTF
 40
25.4
  9
$DIMLFAC
 40
1.0
  9
$DIMTOFL
 70
     0
  9
$DIMTVP
 40
0.0
  9
$DIMTIX
 70
     0
  9
$DIMSOXD
 70
     0
  9
$DIMSAH
 70
     0
  9
$DIMBLK1
  1

  9
$DIMBLK2
  1

  9
$DIMSTYLE
  2
Standard
  9
$DIMCLRD
 70
     0
  9
$DIMCLRE
 70
     0
  9
$DIMCLRT
 70
     0
  9
$DIMTFAC
 40
1.0
  9
$DIMGAP
 40
0.09
  9
$DIMJUST
 70
     0
  9
$DIMSD1
 70
     0
  9
$DIMSD2
 70
     0
  9
$DIMTOLJ
 70
     1
  9
$DIMTZIN
 70
     0
  9
$DIMALTZ
 70
     0
  9
$DIMALTTZ
 70
     0
  9
$DIMUPT
 70
     0
  9
$DIMDEC
 70
     4
  9
$DIMTDEC
 70
     4
  9
$DIMALTU
 70
     2
  9
$DIMALTTD
 70
     2
  9
$DIMTXSTY
  7
Standard
  9
$DIMAUNIT
 70
     0
  9
$DIMADEC
 70
     0
  9
$DIMALTRND
 40
0.0
  9
$DIMAZIN
 70
     0
  9
$DIMDSEP
 70
    46
  9
$DIMATFIT
 70
     3
  9
$DIMFRAC
 70
     0
  9
$DIMLDRBLK
  1

  9
$DIMLUNIT
 70
     2
  9
$DIMLWD
 70
    -2
  9
$DIMLWE
 70
    -2
  9
$DIMTMOVE
 70
     0
  9
$DIMFXL
 40
1.0
  9
$DIMFXLON
 70
     0
  9
$DIMJOGANG
 40
0.7853981633974483
  9
$DIMTFILL
 70
     0
  9
$DIMTFILLCLR
 70
     0
  9
$DIMARCSYM
 70
     0
  9
$DIMLTYPE
  6

  9
$DIMLTEX1
  6

  9
$DIMLTEX2
  6

  9
$LUNITS
 70
     2
  9
$LUPREC
 70
     4
  9
$SKETCHINC
 40
0.1
  9
$FILLETRAD
 40
0.5
  9
$AUNITS
 70
     0
  9
$AUPREC
 70
     0
  9
$MENU
  1
.
  9
$ELEVATION
 40
0.0
  9
$PELEVATION
 40
0.0
  9
$THICKNESS
 40
0.0
  9
$LIMCHECK
 70
     0
  9
$CHAMFERA
 40
0.5
  9
$CHAMFERB
 40
0.5
  9
$CHAMFERC
 40
1.0
  9
$CHAMFERD
 40
0.0
  9
$SKPOLY
 70
     0
  9
$TDCREATE
 40
2458492.630708877
  9
$TDUCREATE
 40
2458492.630708877
  9
$TDUPDATE
 40
2458492.630708993
  9
$TDUUPDATE
 40
2458492.630708993
  9
$TDINDWG
 40
0.0000000116
  9
$TDUSRTIMER
 40
0.0000000116
  9
$USRTIMER
 70
     1
  9
$ANGBASE
 50
0.0
  9
$ANGDIR
 70
     0
  9
$PDMODE
 70
     0
  9
$PDSIZE
 40
0.0
  9
$PLINEWID
 40
0.0
  9
$SPLFRAME
 70
     0
  9
$SPLINETYPE
 70
     6
  9
$SPLINESEGS
 70
     8
  9
$HANDSEED
  5
A4
  9
$SURFTAB1
 70
     6
  9
$SURFTAB2
 70
     6
  9
$SURFTYPE
 70
     6
  9
$SURFU
 70
     6
  9
$SURFV
 70
     6
  9
$UCSBASE
  2

  9
$UCSNAME
  2

  9
$UCSORG
 10
0.0
 20
0.0
 30
0.0
  9
$UCSXDIR
 10
1.0
 20
0.0
 30
0.0
  9
$UCSYDIR
 10
0.0
 20
1.0
 30
0.0
  9
$UCSORTHOREF
  2

  9
$UCSORTHOVIEW
 70
     0
  9
$UCSORGTOP
 10
0.0
 20
0.0
 30
0.0
  9
$UCSORGBOTTOM
 10
0.0
 20
0.0
 30
0.0
  9
$UCSORGLEFT
 10
0.0
 20
0.0
 30
0.0
  9
$UCSORGRIGHT
 10
0.0
 20
0.0
 30
0.0
  9
$UCSORGFRONT
 10
0.0
 20
0.0
 30
0.0
  9
$UCSORGBACK
 10
0.0
 20
0.0
 30
0.0
  9
$PUCSBASE
  2

  9
$PUCSNAME
  2

  9
$PUCSORG
 10
0.0
 20
0.0
 30
0.0
  9
$PUCSXDIR
 10
1.0
 20
0.0
 30
0.0
  9
$PUCSYDIR
 10
0.0
 20
1.0
 30
0.0
  9
$PUCSORTHOREF
  2

  9
$PUCSORTHOVIEW
 70
     0
  9
$PUCSORGTOP
 10
0.0
 20
0.0
 30
0.0
  9
$PUCSORGBOTTOM
 10
0.0
 20
0.0
 30
0.0
  9
$PUCSORGLEFT
 10
0.0
 20
0.0
 30
0.0
  9
$PUCSORGRIGHT
 10
0.0
 20
0.0
 30
0.0
  9
$PUCSORGFRONT
 10
0.0
 20
0.0
 30
0.0
  9
$PUCSORGBACK
 10
0.0
 20
0.0
 30
0.0
  9
$USERI1
 70
     0
  9
$USERI2
 70
     0
  9
$USERI3
 70
     0
  9
$USERI4
 70
     0
  9
$USERI5
 70
     0
  9
$USERR1
 40
0.0
  9
$USERR2
 40
0.0
  9
$USERR3
 40
0.0
  9
$USERR4
 40
0.0
  9
$USERR5
 40
0.0
  9
$WORLDVIEW
 70
     1
  9
$SHADEDGE
 70
     3
  9
$SHADEDIF
 70
    70
  9
$TILEMODE
 70
     1
  9
$MAXACTVP
 70
    64
  9
$PINSBASE
 10
0.0
 20
0.0
 30
0.0
  9
$PLIMCHECK
 70
     0
  9
$PEXTMIN
 10
1.000000000000000E+20
 20
1.000000000000000E+20
 30
1.000000000000000E+20
  9
$PEXTMAX
 10
-1.000000000000000E+20
 20
-1.000000000000000E+20
 30
-1.000000000000000E+20
  9
$PLIMMIN
 10
0.0
 20
0.0
  9
$PLIMMAX
 10
12.0
 20
9.0
  9
$UNITMODE
 70
     0
  9
$VISRETAIN
 70
     1
  9
$PLINEGEN
 70
     0
  9
$PSLTSCALE
 70
     1
  9
$TREEDEPTH
 70
  3020
  9
$CMLSTYLE
  2
Standard
  9
$CMLJUST
 70
     0
  9
$CMLSCALE
 40
1.0
  9
$PROXYGRAPHICS
 70
     1
  9
$MEASUREMENT
 70
     0
  9
$CELWEIGHT
370
    -1
  9
$ENDCAPS
280
     0
  9
$JOINSTYLE
280
     0
  9
$LWDISPLAY
290
     0
  9
$INSUNITS
 70
     4
  9
$HYPERLINKBASE
  1

  9
$STYLESHEET
  1

  9
$XEDIT
290
     1
  9
$CEPSNTYPE
380
     0
  9
$PSTYLEMODE
290
     1
  9
$FINGERPRINTGUID
  2
{B8FF58A5-1211-4FA7-A711-854532D8CD98}
  9
$VERSIONGUID
  2
{FAEB1C32-E019-11D5-929B-00C0DF256EC4}
  9
$EXTNAMES
290
     1
  9
$PSVPSCALE
 40
0.0
  9
$OLESTARTUP
290
     0
  9
$SORTENTS
280
   127
  9
$INDEXCTL
280
     0
  9
$HIDETEXT
280
     1
  9
$XCLIPFRAME
290
     0
  9
$HALOGAP
280
     0
  9
$OBSCOLOR
 70
   257
  9
$OBSLTYPE
280
     0
  9
$INTERSECTIONDISPLAY
280
     0
  9
$INTERSECTIONCOLOR
 70
   257
  9
$DIMASSOC
280
     2
  9
$PROJECTNAME
  1

  9
$CAMERADISPLAY
290
     0
  9
$LENSLENGTH
 40
50.0
  9
$CAMERAHEIGHT
 40
0.0
  9
$STEPSPERSEC
 40
2.0
  9
$STEPSIZE
 40
6.0
  9
$3DDWFPREC
 40
2.0
  9
$PSOLWIDTH
 40
0.25
  9
$PSOLHEIGHT
 40
4.0
  9
$LOFTANG1
 40
1.570796326794897
  9
$LOFTANG2
 40
1.570796326794897
  9
$LOFTMAG1
 40
0.0
  9
$LOFTMAG2
 40
0.0
  9
$LOFTPARAM
 70
     7
  9
$LOFTNORMALS
280
     1
  9
$LATITUDE
 40
37.795
  9
$LONGITUDE
 40
-122.394
  9
$NORTHDIRECTION
 40
0.0
  9
$TIMEZONE
 70
 -8000
  9
$LIGHTGLYPHDISPLAY
280
     1
  9
$TILEMODELIGHTSYNCH
280
     1
  9
$SOLIDHIST
280
     1
  9
$SHOWHIST
280
     1
  9
$DWFFRAME
280
     2
  9
$DGNFRAME
280
     2
  9
$REALWORLDSCALE
290
     1
  9
$INTERFERECOLOR
 62
   256
  9
$CSHADOW
280
     0
  9
$SHADOWPLANELOCATION
 40
0.0
  0
ENDSEC
  0
SECTION
  2
CLASSES
  0
CLASS
  1
ACDBDICTIONARYWDFLT
  2
AcDbDictionaryWithDefault
  3
ObjectDBX Classes
 90
        0
 91
        4
280
     0
281
     0
  0
CLASS
  1
VISUALSTYLE
  2
AcDbVisualStyle
  3
ObjectDBX Classes
 90
     4095
 91
        4
280
     0
281
     0
  0
CLASS
  1
MATERIAL
  2
AcDbMaterial
  3
ObjectDBX Classes
 90
     1153
 91
        4
280
     0
281
     0
  0
ENDSEC
  0
SECTION
  2
TABLES
  0
TABLE
  2
VPORT
  5
8
330
0
100
AcDbSymbolTable
 70
     1
  0
VPORT
  5
29
330
8
100
AcDbSymbolTableRecord
100
AcDbViewportTableRecord
  2
*Active
 70
     0
 10
0.0
 20
0.0
 11
1.0
 21
1.0
 12
10.42990654205607
 22
4.5
 13
0.0
 23
0.0
 14
0.5
 24
0.5
 15
0.5
 25
0.5
 16
0.0
 26
0.0
 36
1.0
 17
0.0
 27
0.0
 37
0.0
 40
9.0
 41
1.972972972850329
 42
50.0
 43
0.0
 44
0.0
 50
0.0
 51
0.0
 71
     0
 72
   100
 73
     1
 74
     3
 75
     0
 76
     0
 77
     0
 78
     0
281
     0
 65
     1
110
0.0
120
0.0
130
0.0
111
1.0
121
0.0
131
0.0
112
0.0
122
1.0
132
0.0
 79
     0
146
0.0
 60
     3
 61
     5
292
     1
282
     1
141
0.0
142
0.0
 63
   250
  0
ENDTAB
  0
TABLE
  2
LTYPE
  5
5
330
0
100
AcDbSymbolTable
 70
     1
  0
LTYPE
  5
14
330
5
100
AcDbSymbolTableRecord
100
AcDbLinetypeTableRecord
  2
ByBlock
 70
     0
  3

 72
    65
 73
     0
 40
0.0
  0
LTYPE
  5
15
330
5
100
AcDbSymbolTableRecord
100
AcDbLinetypeTableRecord
  2
ByLayer
 70
     0
  3

 72
    65
 73
     0
 40
0.0
  0
LTYPE
  5
16
330
5
100
AcDbSymbolTableRecord
100
AcDbLinetypeTableRecord
  2
Continuous
 70
     0
  3
Solid line
 72
    65
 73
     0
 40
0.0
  0
ENDTAB
  0
TABLE
  2
LAYER
  5
2
330
0
100
AcDbSymbolTable
 70
     3
  0
LAYER
  5
10
330
2
100
AcDbSymbolTableRecord
100
AcDbLayerTableRecord
  2
0
 70
     0
 62
     7
  6
Continuous
370
    -3
390
F
347
3E
  0
LAYER
  5
40
330
2
100
AcDbSymbolTableRecord
100
AcDbLayerTableRecord
  2
layer 1
 70
     0
 62
     7
  6
Continuous
370
    -3
390
F
347
3E
  0
LAYER
  5
81
330
2
100
AcDbSymbolTableRecord
100
AcDbLayerTableRecord
  2
Master Guides
 70
     0
 62
     7
  6
Continuous
370
    -3
390
F
347
3E
  0
ENDTAB
  0
TABLE
  2
STYLE
  5
3
330
0
100
AcDbSymbolTable
 70
     1
  0
STYLE
  5
11
330
3
100
AcDbSymbolTableRecord
100
AcDbTextStyleTableRecord
  2
Standard
 70
     0
 40
0.0
 41
1.0
 50
0.0
 71
     0
 42
0.2
  3
txt
  4

  0
ENDTAB
  0
TABLE
  2
VIEW
  5
6
330
0
100
AcDbSymbolTable
 70
     0
  0
ENDTAB
  0
TABLE
  2
UCS
  5
7
330
0
100
AcDbSymbolTable
 70
     0
  0
ENDTAB
  0
TABLE
  2
APPID
  5
9
330
0
100
AcDbSymbolTable
 70
     2
  0
APPID
  5
12
330
9
100
AcDbSymbolTableRecord
100
AcDbRegAppTableRecord
  2
ACAD
 70
     0
  0
APPID
  5
3F
330
9
100
AcDbSymbolTableRecord
100
AcDbRegAppTableRecord
  2
ODA
 70
     0
  0
ENDTAB
  0
TABLE
  2
DIMSTYLE
  5
A
330
0
100
AcDbSymbolTable
 70
     1
100
AcDbDimStyleTable
  0
DIMSTYLE
105
27
330
A
100
AcDbSymbolTableRecord
100
AcDbDimStyleTableRecord
  2
Standard
 70
     0
178
     0
340
11
  0
ENDTAB
  0
TABLE
  2
BLOCK_RECORD
  5
1
330
0
100
AcDbSymbolTable
 70
     1
  0
BLOCK_RECORD
  5
1F
330
1
100
AcDbSymbolTableRecord
100
AcDbBlockTableRecord
  2
*Model_Space
340
22
 70
     0
280
     1
281
     0
  0
BLOCK_RECORD
  5
1B
330
1
100
AcDbSymbolTableRecord
100
AcDbBlockTableRecord
  2
*Paper_Space
340
1E
 70
     0
280
     1
281
     0
  0
BLOCK_RECORD
  5
23
330
1
100
AcDbSymbolTableRecord
100
AcDbBlockTableRecord
  2
*Paper_Space0
340
26
 70
     0
280
     1
281
     0
  0
ENDTAB
  0
ENDSEC
  0
SECTION
  2
BLOCKS
  0
BLOCK
  5
20
330
1F
100
AcDbEntity
  8
0
100
AcDbBlockBegin
  2
*Model_Space
 70
     0
 10
0.0
 20
0.0
 30
0.0
  3
*Model_Space
  1

  0
ENDBLK
  5
21
330
1F
100
AcDbEntity
  8
0
100
AcDbBlockEnd
  0
BLOCK
  5
1C
330
1B
100
AcDbEntity
 67
     1
  8
0
100
AcDbBlockBegin
  2
*Paper_Space
 70
     0
 10
0.0
 20
0.0
 30
0.0
  3
*Paper_Space
  1

  0
ENDBLK
  5
1D
330
1B
100
AcDbEntity
 67
     1
  8
0
100
AcDbBlockEnd
  0
BLOCK
  5
24
330
23
100
AcDbEntity
  8
0
100
AcDbBlockBegin
  2
*Paper_Space0
 70
     0
 10
0.0
 20
0.0
 30
0.0
  3
*Paper_Space0
  1

  0
ENDBLK
  5
25
330
23
100
AcDbEntity
  8
0
100
AcDbBlockEnd
  0
ENDSEC
  0
SECTION
  2
ENTITIES
  0
SPLINE
  5
41
330
1F
100
AcDbEntity
  8
layer 1
100
AcDbSpline
210
0.0
220
0.0
230
1.0
 70
    11
 71
     3
 72
    20
 73
    16
 74
     0
 42
0.0000000001
 43
0.0000000001
 12
1.0
 22
0.0
 32
0.0
 13
1.0
 23
0.0
 33
0.0
 40
0.0
 40
0.0
 40
0.0
 40
0.0
 40
0.2
 40
0.2
 40
0.2
 40
0.2
 40
0.4
 40
0.4
 40
0.4
 40
0.4
 40
0.6
 40
0.6
 40
0.6
 40
0.6
 40
1.0
 40
1.0
 40
1.0
 40
1.0
 10
67.1371
 20
131.9591
 30
0.0
 10
67.1371
 20
131.9591
 30
0.0
 10
196.228
 20
131.9591
 30
0.0
 10
196.228
 20
131.9591
 30
0.0
 10
196.228
 20
131.9591
 30
0.0
 10
196.228
 20
131.9591
 30
0.0
 10
196.228
 20
-114.8591
 30
0.0
 10
196.228
 20
-114.8591
 30
0.0
 10
196.228
 20
-114.8591
 30
0.0
 10
196.228
 20
-114.8591
 30
0.0
 10
67.1371
 20
-114.8591
 30
0.0
 10
67.1371
 20
-114.8591
 30
0.0
 10
67.1371
 20
-114.8591
 30
0.0
 10
67.1371
 20
-114.8591
 30
0.0
 10
67.1371
 20
131.9591
 30
0.0
 10
67.1371
 20
131.9591
 30
0.0
  0
SPLINE
  5
42
330
1F
100
AcDbEntity
  8
layer 1
 62
     7
100
AcDbSpline
210
0.0
220
0.0
230
1.0
 70
    11
 71
     3
 72
    48
 73
    44
 74
     0
 42
0.0000000001
 43
0.0000000001
 12
1.0
 22
0.0
 32
0.0
 13
1.0
 23
0.0
 33
0.0
 40
0.0
 40
0.0
 40
0.0
 40
0.0
 40
0.0833333333333333
 40
0.0833333333333333
 40
0.0833333333333333
 40
0.0833333333333333
 40
0.1666666666666667
 40
0.1666666666666667
 40
0.1666666666666667
 40
0.1666666666666667
 40
0.25
 40
0.25
 40
0.25
 40
0.25
 40
0.3333333333333333
 40
0.3333333333333333
 40
0.3333333333333333
 40
0.3333333333333333
 40
0.4166666666666667
 40
0.4166666666666667
 40
0.4166666666666667
 40
0.4166666666666667
 40
0.5
 40
0.5
 40
0.5
 40
0.5
 40
0.5833333333333334
 40
0.5833333333333334
 40
0.5833333333333334
 40
0.5833333333333334
 40
0.6666666666666666
 40
0.6666666666666666
 40
0.6666666666666666
 40
0.6666666666666666
 40
0.75
 40
0.75
 40
0.75
 40
0.75
 40
0.8333333333333334
 40
0.8333333333333334
 40
0.8333333333333334
 40
0.8333333333333334
 40
1.0
 40
1.0
 40
1.0
 40
1.0
 10
108.168
 20
11.5033
 30
0.0
 10
107.5093
 20
12.219
 30
0.0
 10
106.6105
 20
14.1422
 30
0.0
 10
104.0396
 20
14.0208
 30
0.0
 10
104.0396
 20
14.0208
 30
0.0
 10
94.0983
 20
13.0378
 30
0.0
 10
81.8932
 20
13.9532
 30
0.0
 10
75.5633
 20
18.9753
 30
0.0
 10
75.5633
 20
18.9753
 30
0.0
 10
78.8783
 20
21.4157
 30
0.0
 10
82.1375
 20
22.4561
 30
0.0
 10
84.7802
 20
22.4434
 30
0.0
 10
84.7802
 20
22.4434
 30
0.0
 10
79.922
 20
24.6539
 30
0.0
 10
75.2564
 20
25.5053
 30
0.0
 10
72.8997
 20
31.9615
 30
0.0
 10
72.8997
 20
31.9615
 30
0.0
 10
72.8997
 20
31.9615
 30
0.0
 10
72.8997
 20
-14.6642
 30
0.0
 10
72.8997
 20
-14.6642
 30
0.0
 10
72.8997
 20
-14.6642
 30
0.0
 10
75.2564
 20
-8.2074
 30
0.0
 10
79.922
 20
-7.3566
 30
0.0
 10
84.7802
 20
-5.1459
 30
0.0
 10
84.7802
 20
-5.1459
 30
0.0
 10
82.1375
 20
-5.1583
 30
0.0
 10
78.8783
 20
-4.1183
 30
0.0
 10
75.5633
 20
-1.6775
 30
0.0
 10
75.5633
 20
-1.6775
 30
0.0
 10
81.8932
 20
3.3447
 30
0.0
 10
94.0983
 20
4.26
 30
0.0
 10
104.0396
 20
3.2771
 30
0.0
 10
104.0396
 20
3.2771
 30
0.0
 10
106.6105
 20
3.1556
 30
0.0
 10
107.5093
 20
5.0789
 30
0.0
 10
108.168
 20
5.7942
 30
0.0
 10
108.168
 20
5.7942
 30
0.0
 10
108.685
 20
6.567
 30
0.0
 10
109.2919
 20
7.3552
 30
0.0
 10
110.1803
 20
8.6487
 30
0.0
 10
110.1803
 20
8.6487
 30
0.0
 10
109.2919
 20
9.9422
 30
0.0
 10
108.685
 20
10.7309
 30
0.0
 10
108.168
 20
11.5033
 30
0.0
  0
SPLINE
  5
43
330
1F
100
AcDbEntity
  8
layer 1
 62
     7
100
AcDbSpline
210
0.0
220
0.0
230
1.0
 70
    11
 71
     3
 72
    48
 73
    44
 74
     0
 42
0.0000000001
 43
0.0000000001
 12
1.0
 22
0.0
 32
0.0
 13
1.0
 23
0.0
 33
0.0
 40
0.0
 40
0.0
 40
0.0
 40
0.0
 40
0.0833333333333333
 40
0.0833333333333333
 40
0.0833333333333333
 40
0.0833333333333333
 40
0.1666666666666667
 40
0.1666666666666667
 40
0.1666666666666667
 40
0.1666666666666667
 40
0.25
 40
0.25
 40
0.25
 40
0.25
 40
0.3333333333333333
 40
0.3333333333333333
 40
0.3333333333333333
 40
0.3333333333333333
 40
0.4166666666666667
 40
0.4166666666666667
 40
0.4166666666666667
 40
0.4166666666666667
 40
0.5
 40
0.5
 40
0.5
 40
0.5
 40
0.5833333333333334
 40
0.5833333333333334
 40
0.5833333333333334
 40
0.5833333333333334
 40
0.6666666666666666
 40
0.6666666666666666
 40
0.6666666666666666
 40
0.6666666666666666
 40
0.75
 40
0.75
 40
0.75
 40
0.75
 40
0.8333333333333334
 40
0.8333333333333334
 40
0.8333333333333334
 40
0.8333333333333334
 40
1.0
 40
1.0
 40
1.0
 40
1.0
 10
124.471
 20
9.6854
 30
0.0
 10
125.0026
 20
9.869
 30
0.0
 10
125.0314
 20
10.4313
 30
0.0
 10
124.3298
 20
10.9661
 30
0.0
 10
124.3298
 20
10.9661
 30
0.0
 10
123.611
 20
11.5179
 30
0.0
 10
122.1211
 20
12.0582
 30
0.0
 10
119.6108
 20
13.3499
 30
0.0
 10
119.6108
 20
13.3499
 30
0.0
 10
116.9313
 20
14.7291
 30
0.0
 10
116.3567
 20
14.604
 30
0.0
 10
114.9029
 20
15.6285
 30
0.0
 10
114.9029
 20
15.6285
 30
0.0
 10
116.0877
 20
15.3284
 30
0.0
 10
118.4015
 20
14.995
 30
0.0
 10
119.9288
 20
14.7003
 30
0.0
 10
119.9288
 20
14.7003
 30
0.0
 10
121.5557
 20
14.3866
 30
0.0
 10
123.1419
 20
14.1153
 30
0.0
 10
124.1819
 20
13.9796
 30
0.0
 10
124.1819
 20
13.9796
 30
0.0
 10
127.77
 20
13.4178
 30
0.0
 10
125.5631
 20
15.6549
 30
0.0
 10
123.5288
 20
17.5156
 30
0.0
 10
123.5288
 20
17.5156
 30
0.0
 10
119.1934
 20
21.7354
 30
0.0
 10
116.571
 20
22.3419
 30
0.0
 10
113.7109
 20
19.7851
 30
0.0
 10
113.7109
 20
19.7851
 30
0.0
 10
112.5836
 20
18.7343
 30
0.0
 10
111.3454
 20
17.9102
 30
0.0
 10
109.9949
 20
17.2037
 30
0.0
 10
109.9949
 20
17.2037
 30
0.0
 10
109.9949
 20
17.2037
 30
0.0
 10
111.4025
 20
14.0189
 30
0.0
 10
111.4025
 20
14.0189
 30
0.0
 10
111.4025
 20
14.0189
 30
0.0
 10
112.96
 20
10.4902
 30
0.0
 10
113.9821
 20
9.5749
 30
0.0
 10
116.6138
 20
9.3607
 30
0.0
 10
116.6138
 20
9.3607
 30
0.0
 10
118.7226
 20
9.1876
 30
0.0
 10
123.62
 20
9.3891
 30
0.0
 10
124.471
 20
9.6854
 30
0.0
  0
SPLINE
  5
44
330
1F
100
AcDbEntity
  8
layer 1
 62
     7
100
AcDbSpline
210
0.0
220
0.0
230
1.0
 70
    11
 71
     3
 72
    44
 73
    40
 74
     0
 42
0.0000000001
 43
0.0000000001
 12
1.0
 22
0.0
 32
0.0
 13
1.0
 23
0.0
 33
0.0
 40
0.0
 40
0.0
 40
0.0
 40
0.0
 40
0.0909090909090909
 40
0.0909090909090909
 40
0.0909090909090909
 40
0.0909090909090909
 40
0.1818181818181818
 40
0.1818181818181818
 40
0.1818181818181818
 40
0.1818181818181818
 40
0.2727272727272727
 40
0.2727272727272727
 40
0.2727272727272727
 40
0.2727272727272727
 40
0.3636363636363636
 40
0.3636363636363636
 40
0.3636363636363636
 40
0.3636363636363636
 40
0.4545454545454545
 40
0.4545454545454545
 40
0.4545454545454545
 40
0.4545454545454545
 40
0.5454545454545454
 40
0.5454545454545454
 40
0.5454545454545454
 40
0.5454545454545454
 40
0.6363636363636364
 40
0.6363636363636364
 40
0.6363636363636364
 40
0.6363636363636364
 40
0.7272727272727273
 40
0.7272727272727273
 40
0.7272727272727273
 40
0.7272727272727273
 40
0.8181818181818182
 40
0.8181818181818182
 40
0.8181818181818182
 40
0.8181818181818182
 40
1.0
 40
1.0
 40
1.0
 40
1.0
 10
152.5759
 20
10.1261
 30
0.0
 10
154.2014
 20
10.5953
 30
0.0
 10
154.8865
 20
12.2582
 30
0.0
 10
155.6233
 20
14.0244
 30
0.0
 10
155.6233
 20
14.0244
 30
0.0
 10
156.1886
 20
15.3804
 30
0.0
 10
156.8098
 20
16.752
 30
0.0
 10
157.7658
 20
17.9815
 30
0.0
 10
157.7658
 20
17.9815
 30
0.0
 10
156.2831
 20
18.0546
 30
0.0
 10
154.6582
 20
18.7361
 30
0.0
 10
153.5575
 20
19.2713
 30
0.0
 10
153.5575
 20
19.2713
 30
0.0
 10
150.76
 20
20.6488
 30
0.0
 10
149.461
 20
20.6844
 30
0.0
 10
147.3929
 20
19.4371
 30
0.0
 10
147.3929
 20
19.4371
 30
0.0
 10
144.7759
 20
17.86
 30
0.0
 10
141.9122
 20
15.3658
 30
0.0
 10
141.9122
 20
14.6647
 30
0.0
 10
141.9122
 20
14.6647
 30
0.0
 10
141.9122
 20
13.7906
 30
0.0
 10
142.6365
 20
13.8421
 30
0.0
 10
148.5298
 20
15.1287
 30
0.0
 10
148.5298
 20
15.1287
 30
0.0
 10
151.2915
 20
15.7317
 30
0.0
 10
153.6269
 20
16.1473
 30
0.0
 10
153.7214
 20
16.0546
 30
0.0
 10
153.7214
 20
16.0546
 30
0.0
 10
153.8141
 20
15.96
 30
0.0
 10
151.5035
 20
14.6953
 30
0.0
 10
148.5868
 20
13.2429
 30
0.0
 10
148.5868
 20
13.2429
 30
0.0
 10
145.6697
 20
11.7906
 30
0.0
 10
143.3394
 20
10.8593
 30
0.0
 10
143.2823
 20
10.0226
 30
0.0
 10
143.2823
 20
10.0226
 30
0.0
 10
145.4162
 20
9.152
 30
0.0
 10
150.453
 20
9.2465
 30
0.0
 10
152.5759
 20
10.1261
 30
0.0
  0
SPLINE
  5
45
330
1F
100
AcDbEntity
  8
layer 1
 62
     7
100
AcDbSpline
210
0.0
220
0.0
230
1.0
 70
    11
 71
     3
 72
   104
 73
   100
 74
     0
 42
0.0000000001
 43
0.0000000001
 12
1.0
 22
0.0
 32
0.0
 13
1.0
 23
0.0
 33
0.0
 40
0.0
 40
0.0
 40
0.0
 40
0.0
 40
0.0384615384615385
 40
0.0384615384615385
 40
0.0384615384615385
 40
0.0384615384615385
 40
0.0769230769230769
 40
0.0769230769230769
 40
0.0769230769230769
 40
0.0769230769230769
 40
0.1153846153846154
 40
0.1153846153846154
 40
0.1153846153846154
 40
0.1153846153846154
 40
0.1538461538461539
 40
0.1538461538461539
 40
0.1538461538461539
 40
0.1538461538461539
 40
0.1923076923076923
 40
0.1923076923076923
 40
0.1923076923076923
 40
0.1923076923076923
 40
0.2307692307692308
 40
0.2307692307692308
 40
0.2307692307692308
 40
0.2307692307692308
 40
0.2692307692307692
 40
0.2692307692307692
 40
0.2692307692307692
 40
0.2692307692307692
 40
0.3076923076923077
 40
0.3076923076923077
 40
0.3076923076923077
 40
0.3076923076923077
 40
0.3461538461538461
 40
0.3461538461538461
 40
0.3461538461538461
 40
0.3461538461538461
 40
0.3846153846153846
 40
0.3846153846153846
 40
0.3846153846153846
 40
0.3846153846153846
 40
0.4230769230769231
 40
0.4230769230769231
 40
0.4230769230769231
 40
0.4230769230769231
 40
0.4615384615384616
 40
0.4615384615384616
 40
0.4615384615384616
 40
0.4615384615384616
 40
0.5
 40
0.5
 40
0.5
 40
0.5
 40
0.5384615384615384
 40
0.5384615384615384
 40
0.5384615384615384
 40
0.5384615384615384
 40
0.5769230769230769
 40
0.5769230769230769
 40
0.5769230769230769
 40
0.5769230769230769
 40
0.6153846153846154
 40
0.6153846153846154
 40
0.6153846153846154
 40
0.6153846153846154
 40
0.6538461538461539
 40
0.6538461538461539
 40
0.6538461538461539
 40
0.6538461538461539
 40
0.6923076923076923
 40
0.6923076923076923
 40
0.6923076923076923
 40
0.6923076923076923
 40
0.7307692307692307
 40
0.7307692307692307
 40
0.7307692307692307
 40
0.7307692307692307
 40
0.7692307692307693
 40
0.7692307692307693
 40
0.7692307692307693
 40
0.7692307692307693
 40
0.8076923076923077
 40
0.8076923076923077
 40
0.8076923076923077
 40
0.8076923076923077
 40
0.8461538461538461
 40
0.8461538461538461
 40
0.8461538461538461
 40
0.8461538461538461
 40
0.8846153846153846
 40
0.8846153846153846
 40
0.8846153846153846
 40
0.8846153846153846
 40
0.9230769230769231
 40
0.9230769230769231
 40
0.9230769230769231
 40
0.9230769230769231
 40
1.0
 40
1.0
 40
1.0
 40
1.0
 10
190.4987
 20
12.8163
 30
0.0
 10
190.4987
 20
12.8163
 30
0.0
 10
178.8864
 20
11.9458
 30
0.0
 10
179.4751
 20
17.5302
 30
0.0
 10
179.4751
 20
17.5302
 30
0.0
 10
181.3555
 20
13.1233
 30
0.0
 10
187.5624
 20
13.6138
 30
0.0
 10
187.73
 20
17.8869
 30
0.0
 10
187.73
 20
17.8869
 30
0.0
 10
187.73
 20
20.1597
 30
0.0
 10
186.681
 20
22.0295
 30
0.0
 10
183.0165
 20
23.1609
 30
0.0
 10
183.0165
 20
23.1609
 30
0.0
 10
181.6838
 20
23.571
 30
0.0
 10
179.6888
 20
24.8772
 30
0.0
 10
179.2431
 20
26.0616
 30
0.0
 10
179.2431
 20
26.0616
 30
0.0
 10
178.5917
 20
27.6441
 30
0.0
 10
177.6906
 20
27.8834
 30
0.0
 10
177.2001
 20
27.6939
 30
0.0
 10
177.2001
 20
27.6939
 30
0.0
 10
176.5849
 20
27.4587
 30
0.0
 10
176.1798
 20
26.6288
 30
0.0
 10
176.8754
 20
24.331
 30
0.0
 10
176.8754
 20
24.331
 30
0.0
 10
178.0459
 20
20.984
 30
0.0
 10
177.0183
 20
17.0019
 30
0.0
 10
174.2706
 20
14.0103
 30
0.0
 10
174.2706
 20
14.0103
 30
0.0
 10
167.6928
 20
21.264
 30
0.0
 10
171.448
 20
24.0793
 30
0.0
 10
169.9176
 20
28.0634
 30
0.0
 10
169.9176
 20
28.0634
 30
0.0
 10
169.1182
 20
29.826
 30
0.0
 10
166.6295
 20
30.8522
 30
0.0
 10
166.6989
 20
28.2703
 30
0.0
 10
166.6989
 20
28.2703
 30
0.0
 10
167.168
 20
23.835
 30
0.0
 10
164.5989
 20
21.4353
 30
0.0
 10
160.8651
 20
20.7484
 30
0.0
 10
160.8651
 20
20.7484
 30
0.0
 10
161.7891
 20
20.0332
 30
0.0
 10
162.7401
 20
19.7778
 30
0.0
 10
163.9604
 20
19.4353
 30
0.0
 10
163.9604
 20
19.4353
 30
0.0
 10
161.3483
 20
17.671
 30
0.0
 10
158.6257
 20
12.7003
 30
0.0
 10
158.5366
 20
8.6487
 30
0.0
 10
158.5366
 20
8.6487
 30
0.0
 10
158.6257
 20
4.597
 30
0.0
 10
161.3483
 20
-0.3736
 30
0.0
 10
163.9604
 20
-2.1379
 30
0.0
 10
163.9604
 20
-2.1379
 30
0.0
 10
162.7401
 20
-2.4805
 30
0.0
 10
161.7891
 20
-2.7358
 30
0.0
 10
160.8651
 20
-3.4511
 30
0.0
 10
160.8651
 20
-3.4511
 30
0.0
 10
164.5989
 20
-4.138
 30
0.0
 10
167.168
 20
-6.5376
 30
0.0
 10
166.6989
 20
-10.973
 30
0.0
 10
166.6989
 20
-10.973
 30
0.0
 10
166.6295
 20
-13.5544
 30
0.0
 10
169.1182
 20
-12.5285
 30
0.0
 10
169.9176
 20
-10.7661
 30
0.0
 10
169.9176
 20
-10.7661
 30
0.0
 10
171.448
 20
-6.782
 30
0.0
 10
167.6928
 20
-3.9667
 30
0.0
 10
174.2706
 20
3.2876
 30
0.0
 10
174.2706
 20
3.2876
 30
0.0
 10
177.0183
 20
0.2956
 30
0.0
 10
178.0459
 20
-3.6867
 30
0.0
 10
176.8754
 20
-7.0337
 30
0.0
 10
176.8754
 20
-7.0337
 30
0.0
 10
176.1798
 20
-9.3315
 30
0.0
 10
176.5849
 20
-10.1608
 30
0.0
 10
177.2001
 20
-10.3966
 30
0.0
 10
177.2001
 20
-10.3966
 30
0.0
 10
177.6906
 20
-10.5856
 30
0.0
 10
178.5917
 20
-10.3467
 30
0.0
 10
179.2431
 20
-8.7641
 30
0.0
 10
179.2431
 20
-8.7641
 30
0.0
 10
179.6888
 20
-7.5794
 30
0.0
 10
181.6838
 20
-6.2736
 30
0.0
 10
183.0165
 20
-5.8612
 30
0.0
 10
183.0165
 20
-5.8612
 30
0.0
 10
186.681
 20
-4.7321
 30
0.0
 10
187.73
 20
-2.8623
 30
0.0
 10
187.73
 20
-0.5892
 30
0.0
 10
187.73
 20
-0.5892
 30
0.0
 10
187.5624
 20
3.6836
 30
0.0
 10
181.3555
 20
4.174
 30
0.0
 10
179.4751
 20
-0.2325
 30
0.0
 10
179.4751
 20
-0.2325
 30
0.0
 10
178.8864
 20
5.352
 30
0.0
 10
190.4987
 20
4.481
 30
0.0
 10
190.4987
 20
4.481
 30
0.0
 10
190.4987
 20
4.481
 30
0.0
 10
190.4987
 20
4.481
 30
0.0
 10
190.4987
 20
12.8163
 30
0.0
 10
190.4987
 20
12.8163
 30
0.0
  0
SPLINE
  5
46
330
1F
100
AcDbEntity
  8
layer 1
 62
     7
100
AcDbSpline
210
0.0
220
0.0
230
1.0
 70
    11
 71
     3
 72
    48
 73
    44
 74
     0
 42
0.0000000001
 43
0.0000000001
 12
1.0
 22
0.0
 32
0.0
 13
1.0
 23
0.0
 33
0.0
 40
0.0
 40
0.0
 40
0.0
 40
0.0
 40
0.0833333333333333
 40
0.0833333333333333
 40
0.0833333333333333
 40
0.0833333333333333
 40
0.1666666666666667
 40
0.1666666666666667
 40
0.1666666666666667
 40
0.1666666666666667
 40
0.25
 40
0.25
 40
0.25
 40
0.25
 40
0.3333333333333333
 40
0.3333333333333333
 40
0.3333333333333333
 40
0.3333333333333333
 40
0.4166666666666667
 40
0.4166666666666667
 40
0.4166666666666667
 40
0.4166666666666667
 40
0.5
 40
0.5
 40
0.5
 40
0.5
 40
0.5833333333333334
 40
0.5833333333333334
 40
0.5833333333333334
 40
0.5833333333333334
 40
0.6666666666666666
 40
0.6666666666666666
 40
0.6666666666666666
 40
0.6666666666666666
 40
0.75
 40
0.75
 40
0.75
 40
0.75
 40
0.8333333333333334
 40
0.8333333333333334
 40
0.8333333333333334
 40
0.8333333333333334
 40
1.0
 40
1.0
 40
1.0
 40
1.0
 10
142.4425
 20
18.6917
 30
0.0
 10
143.7678
 20
20.1026
 30
0.0
 10
144.7704
 20
21.3481
 30
0.0
 10
145.4431
 20
22.4204
 30
0.0
 10
145.4431
 20
22.4204
 30
0.0
 10
147.0897
 20
24.7343
 30
0.0
 10
146.194
 20
27.223
 30
0.0
 10
145.2504
 20
29.3998
 30
0.0
 10
145.2504
 20
29.3998
 30
0.0
 10
144.7489
 20
30.5521
 30
0.0
 10
144.2154
 20
31.6191
 30
0.0
 10
143.9176
 20
32.3348
 30
0.0
 10
143.9176
 20
32.3348
 30
0.0
 10
143.5394
 20
32.2132
 30
0.0
 10
141.5057
 20
31.5761
 30
0.0
 10
140.1729
 20
31.2015
 30
0.0
 10
140.1729
 20
31.2015
 30
0.0
 10
137.2845
 20
30.3899
 30
0.0
 10
136.4922
 20
29.7958
 30
0.0
 10
135.6701
 20
27.8263
 30
0.0
 10
135.6701
 20
27.8263
 30
0.0
 10
134.7652
 20
25.6637
 30
0.0
 10
134.3318
 20
19.7139
 30
0.0
 10
135.0453
 20
19.2713
 30
0.0
 10
135.0453
 20
19.2713
 30
0.0
 10
135.8217
 20
18.7912
 30
0.0
 10
137.0238
 20
19.6924
 30
0.0
 10
139.618
 20
24.2703
 30
0.0
 10
139.618
 20
24.2703
 30
0.0
 10
140.8796
 20
26.2667
 30
0.0
 10
141.2202
 20
26.6895
 30
0.0
 10
142.1424
 20
28.2598
 30
0.0
 10
142.1424
 20
28.2598
 30
0.0
 10
141.618
 20
26.5453
 30
0.0
 10
141.5824
 20
26.2309
 30
0.0
 10
140.8292
 20
23.8797
 30
0.0
 10
140.8292
 20
23.8797
 30
0.0
 10
140.0766
 20
21.5266
 30
0.0
 10
139.1718
 20
18.2596
 30
0.0
 10
139.1718
 20
17.8869
 30
0.0
 10
139.1718
 20
17.8869
 30
0.0
 10
139.1718
 20
16.7003
 30
0.0
 10
140.9956
 20
17.1484
 30
0.0
 10
142.4425
 20
18.6917
 30
0.0
  0
SPLINE
  5
47
330
1F
100
AcDbEntity
  8
layer 1
 62
     7
100
AcDbSpline
210
0.0
220
0.0
230
1.0
 70
    11
 71
     3
 72
    56
 73
    52
 74
     0
 42
0.0000000001
 43
0.0000000001
 12
1.0
 22
0.0
 32
0.0
 13
1.0
 23
0.0
 33
0.0
 40
0.0
 40
0.0
 40
0.0
 40
0.0
 40
0.0714285714285714
 40
0.0714285714285714
 40
0.0714285714285714
 40
0.0714285714285714
 40
0.1428571428571428
 40
0.1428571428571428
 40
0.1428571428571428
 40
0.1428571428571428
 40
0.2142857142857143
 40
0.2142857142857143
 40
0.2142857142857143
 40
0.2142857142857143
 40
0.2857142857142857
 40
0.2857142857142857
 40
0.2857142857142857
 40
0.2857142857142857
 40
0.3571428571428572
 40
0.3571428571428572
 40
0.3571428571428572
 40
0.3571428571428572
 40
0.4285714285714285
 40
0.4285714285714285
 40
0.4285714285714285
 40
0.4285714285714285
 40
0.5
 40
0.5
 40
0.5
 40
0.5
 40
0.5714285714285714
 40
0.5714285714285714
 40
0.5714285714285714
 40
0.5714285714285714
 40
0.6428571428571429
 40
0.6428571428571429
 40
0.6428571428571429
 40
0.6428571428571429
 40
0.7142857142857143
 40
0.7142857142857143
 40
0.7142857142857143
 40
0.7142857142857143
 40
0.7857142857142857
 40
0.7857142857142857
 40
0.7857142857142857
 40
0.7857142857142857
 40
0.8571428571428571
 40
0.8571428571428571
 40
0.8571428571428571
 40
0.8571428571428571
 40
1.0
 40
1.0
 40
1.0
 40
1.0
 10
103.6417
 20
19.6157
 30
0.0
 10
111.1564
 20
20.5292
 30
0.0
 10
111.3916
 20
26.1543
 30
0.0
 10
117.752
 20
25.0946
 30
0.0
 10
117.752
 20
25.0946
 30
0.0
 10
117.4579
 20
26.1971
 30
0.0
 10
117.3917
 20
27.471
 30
0.0
 10
117.7306
 20
28.7448
 30
0.0
 10
117.7306
 20
28.7448
 30
0.0
 10
114.4604
 20
29.0057
 30
0.0
 10
110.0539
 20
31.6478
 30
0.0
 10
109.001
 20
35.1213
 30
0.0
 10
109.001
 20
35.1213
 30
0.0
 10
107.7807
 20
39.7223
 30
0.0
 10
110.4498
 20
43.917
 30
0.0
 10
116.4051
 20
45.4726
 30
0.0
 10
116.4051
 20
45.4726
 30
0.0
 10
117.9429
 20
46.0883
 30
0.0
 10
118.3677
 20
46.7807
 30
0.0
 10
117.7055
 20
47.5781
 30
0.0
 10
117.7055
 20
47.5781
 30
0.0
 10
117.267
 20
48.1061
 30
0.0
 10
116.6458
 20
48.8304
 30
0.0
 10
115.2007
 20
48.3559
 30
0.0
 10
115.2007
 20
48.3559
 30
0.0
 10
110.876
 20
46.6929
 30
0.0
 10
107.5971
 20
45.6101
 30
0.0
 10
104.0679
 20
46.4468
 30
0.0
 10
104.0679
 20
46.4468
 30
0.0
 10
100.314
 20
47.2283
 30
0.0
 10
97.9536
 20
47.5352
 30
0.0
 10
96.0842
 20
45.0875
 30
0.0
 10
96.0842
 20
45.0875
 30
0.0
 10
106.1355
 20
41.1072
 30
0.0
 10
99.8307
 20
28.9143
 30
0.0
 10
91.463
 20
32.1347
 30
0.0
 10
91.463
 20
32.1347
 30
0.0
 10
93.3703
 20
33.6245
 30
0.0
 10
94.4122
 20
35.6834
 30
0.0
 10
94.4122
 20
37.0715
 30
0.0
 10
94.4122
 20
37.0715
 30
0.0
 10
93.4009
 20
41.7279
 30
0.0
 10
88.4176
 20
41.2122
 30
0.0
 10
86.9405
 20
37.9543
 30
0.0
 10
86.9405
 20
37.9543
 30
0.0
 10
84.3695
 20
31.8601
 30
0.0
 10
90.3144
 20
23.0554
 30
0.0
 10
99.8573
 20
18.9645
 30
0.0
 10
99.8573
 20
18.9645
 30
0.0
 10
101.8824
 20
18.1277
 30
0.0
 10
105.7469
 20
16.6506
 30
0.0
 10
103.6417
 20
19.6157
 30
0.0
  0
SPLINE
  5
48
330
1F
100
AcDbEntity
  8
layer 1
 62
     7
100
AcDbSpline
210
0.0
220
0.0
230
1.0
 70
    11
 71
     3
 72
    28
 73
    24
 74
     0
 42
0.0000000001
 43
0.0000000001
 12
1.0
 22
0.0
 32
0.0
 13
1.0
 23
0.0
 33
0.0
 40
0.0
 40
0.0
 40
0.0
 40
0.0
 40
0.1428571428571428
 40
0.1428571428571428
 40
0.1428571428571428
 40
0.1428571428571428
 40
0.2857142857142857
 40
0.2857142857142857
 40
0.2857142857142857
 40
0.2857142857142857
 40
0.4285714285714285
 40
0.4285714285714285
 40
0.4285714285714285
 40
0.4285714285714285
 40
0.5714285714285714
 40
0.5714285714285714
 40
0.5714285714285714
 40
0.5714285714285714
 40
0.7142857142857143
 40
0.7142857142857143
 40
0.7142857142857143
 40
0.7142857142857143
 40
1.0
 40
1.0
 40
1.0
 40
1.0
 10
154.2425
 20
30.142
 30
0.0
 10
155.9087
 20
26.3059
 30
0.0
 10
159.7246
 20
26.4968
 30
0.0
 10
160.5883
 20
28.8307
 30
0.0
 10
160.5883
 20
28.8307
 30
0.0
 10
162.4582
 20
35.0875
 30
0.0
 10
153.5999
 20
36.4791
 30
0.0
 10
150.5973
 20
35.5318
 30
0.0
 10
150.5973
 20
35.5318
 30
0.0
 10
147.9588
 20
34.7413
 30
0.0
 10
147.5089
 20
33.953
 30
0.0
 10
148.3886
 20
31.6619
 30
0.0
 10
148.3886
 20
31.6619
 30
0.0
 10
149.5021
 20
29.4372
 30
0.0
 10
150.3996
 20
26.7484
 30
0.0
 10
150.2584
 20
24.3863
 30
0.0
 10
150.2584
 20
24.3863
 30
0.0
 10
152.453
 20
24.2222
 30
0.0
 10
154.8331
 20
23.6066
 30
0.0
 10
156.5832
 20
22.7415
 30
0.0
 10
156.5832
 20
22.7415
 30
0.0
 10
153.8356
 20
25.1855
 30
0.0
 10
153.6374
 20
28.8252
 30
0.0
 10
154.2425
 20
30.142
 30
0.0
  0
SPLINE
  5
49
330
1F
100
AcDbEntity
  8
layer 1
 62
     7
100
AcDbSpline
210
0.0
220
0.0
230
1.0
 70
    11
 71
     3
 72
    48
 73
    44
 74
     0
 42
0.0000000001
 43
0.0000000001
 12
1.0
 22
0.0
 32
0.0
 13
1.0
 23
0.0
 33
0.0
 40
0.0
 40
0.0
 40
0.0
 40
0.0
 40
0.0833333333333333
 40
0.0833333333333333
 40
0.0833333333333333
 40
0.0833333333333333
 40
0.1666666666666667
 40
0.1666666666666667
 40
0.1666666666666667
 40
0.1666666666666667
 40
0.25
 40
0.25
 40
0.25
 40
0.25
 40
0.3333333333333333
 40
0.3333333333333333
 40
0.3333333333333333
 40
0.3333333333333333
 40
0.4166666666666667
 40
0.4166666666666667
 40
0.4166666666666667
 40
0.4166666666666667
 40
0.5
 40
0.5
 40
0.5
 40
0.5
 40
0.5833333333333334
 40
0.5833333333333334
 40
0.5833333333333334
 40
0.5833333333333334
 40
0.6666666666666666
 40
0.6666666666666666
 40
0.6666666666666666
 40
0.6666666666666666
 40
0.75
 40
0.75
 40
0.75
 40
0.75
 40
0.8333333333333334
 40
0.8333333333333334
 40
0.8333333333333334
 40
0.8333333333333334
 40
1.0
 40
1.0
 40
1.0
 40
1.0
 10
190.4987
 20
54.1418
 30
0.0
 10
187.9154
 20
50.2345
 30
0.0
 10
180.722
 20
49.6905
 30
0.0
 10
178.8434
 20
52.793
 30
0.0
 10
178.8434
 20
52.793
 30
0.0
 10
179.0951
 20
49.6635
 30
0.0
 10
177.8336
 20
47.2854
 30
0.0
 10
175.871
 20
45.4621
 30
0.0
 10
175.871
 20
45.4621
 30
0.0
 10
175.4055
 20
45.0496
 30
0.0
 10
173.9815
 20
44.117
 30
0.0
 10
172.2994
 20
43.7936
 30
0.0
 10
172.2994
 20
43.7936
 30
0.0
 10
169.4516
 20
42.3664
 30
0.0
 10
169.691
 20
40.4755
 30
0.0
 10
172.1993
 20
40.2348
 30
0.0
 10
172.1993
 20
40.2348
 30
0.0
 10
173.2859
 20
40.1293
 30
0.0
 10
174.5524
 20
40.9464
 30
0.0
 10
176.9827
 20
42.1791
 30
0.0
 10
176.9827
 20
42.1791
 30
0.0
 10
179.8852
 20
43.6511
 30
0.0
 10
180.8631
 20
43.9206
 30
0.0
 10
183.2057
 20
43.901
 30
0.0
 10
183.2057
 20
43.901
 30
0.0
 10
185.6053
 20
43.6438
 30
0.0
 10
189.3231
 20
43.0501
 30
0.0
 10
189.0093
 20
42.4417
 30
0.0
 10
189.0093
 20
42.4417
 30
0.0
 10
188.6183
 20
39.4657
 30
0.0
 10
185.6373
 20
37.8045
 30
0.0
 10
182.9805
 20
36.9536
 30
0.0
 10
182.9805
 20
36.9536
 30
0.0
 10
178.2332
 20
36.206
 30
0.0
 10
179.9158
 20
33.0947
 30
0.0
 10
183.2234
 20
32.8787
 30
0.0
 10
183.2234
 20
32.8787
 30
0.0
 10
187.5016
 20
32.4508
 30
0.0
 10
190.0726
 20
27.4409
 30
0.0
 10
190.4987
 20
25.7423
 30
0.0
 10
190.4987
 20
25.7423
 30
0.0
 10
190.4987
 20
25.7423
 30
0.0
 10
190.4987
 20
54.1418
 30
0.0
 10
190.4987
 20
54.1418
 30
0.0
  0
SPLINE
  5
4A
330
1F
100
AcDbEntity
  8
layer 1
 62
     7
100
AcDbSpline
210
0.0
220
0.0
230
1.0
 70
    11
 71
     3
 72
    24
 73
    20
 74
     0
 42
0.0000000001
 43
0.0000000001
 12
1.0
 22
0.0
 32
0.0
 13
1.0
 23
0.0
 33
0.0
 40
0.0
 40
0.0
 40
0.0
 40
0.0
 40
0.1666666666666667
 40
0.1666666666666667
 40
0.1666666666666667
 40
0.1666666666666667
 40
0.3333333333333333
 40
0.3333333333333333
 40
0.3333333333333333
 40
0.3333333333333333
 40
0.5
 40
0.5
 40
0.5
 40
0.5
 40
0.6666666666666666
 40
0.6666666666666666
 40
0.6666666666666666
 40
0.6666666666666666
 40
1.0
 40
1.0
 40
1.0
 40
1.0
 10
183.6354
 20
28.9732
 30
0.0
 10
180.5008
 20
31.7602
 30
0.0
 10
176.0245
 20
32.8911
 30
0.0
 10
170.06
 20
37.0733
 30
0.0
 10
170.06
 20
37.0733
 30
0.0
 10
163.5233
 20
41.6762
 30
0.0
 10
160.6633
 20
42.6732
 30
0.0
 10
157.7055
 20
42.7431
 30
0.0
 10
157.7055
 20
42.7431
 30
0.0
 10
155.336
 20
42.8591
 30
0.0
 10
154.4476
 20
41.794
 30
0.0
 10
152.8613
 20
40.3828
 30
0.0
 10
152.8613
 20
40.3828
 30
0.0
 10
158.9524
 20
41.4995
 30
0.0
 10
164.6116
 20
37.9315
 30
0.0
 10
168.6295
 20
35.3784
 30
0.0
 10
168.6295
 20
35.3784
 30
0.0
 10
175.3677
 20
31.0805
 30
0.0
 10
179.6856
 20
29.7226
 30
0.0
 10
183.6354
 20
28.9732
 30
0.0
  0
SPLINE
  5
4B
330
1F
100
AcDbEntity
  8
layer 1
 62
     7
100
AcDbSpline
210
0.0
220
0.0
230
1.0
 70
    11
 71
     3
 72
    28
 73
    24
 74
     0
 42
0.0000000001
 43
0.0000000001
 12
1.0
 22
0.0
 32
0.0
 13
1.0
 23
0.0
 33
0.0
 40
0.0
 40
0.0
 40
0.0
 40
0.0
 40
0.1428571428571428
 40
0.1428571428571428
 40
0.1428571428571428
 40
0.1428571428571428
 40
0.2857142857142857
 40
0.2857142857142857
 40
0.2857142857142857
 40
0.2857142857142857
 40
0.4285714285714285
 40
0.4285714285714285
 40
0.4285714285714285
 40
0.4285714285714285
 40
0.5714285714285714
 40
0.5714285714285714
 40
0.5714285714285714
 40
0.5714285714285714
 40
0.7142857142857143
 40
0.7142857142857143
 40
0.7142857142857143
 40
0.7142857142857143
 40
1.0
 40
1.0
 40
1.0
 40
1.0
 10
121.3593
 20
37.3213
 30
0.0
 10
123.4881
 20
36.19
 30
0.0
 10
125.8571
 20
35.2678
 30
0.0
 10
127.9518
 20
34.5914
 30
0.0
 10
127.9518
 20
34.5914
 30
0.0
 10
129.6946
 20
34.0365
 30
0.0
 10
131.538
 20
33.2888
 30
0.0
 10
132.05
 20
32.9303
 30
0.0
 10
132.05
 20
32.9303
 30
0.0
 10
133.4645
 20
31.9383
 30
0.0
 10
133.7842
 20
32.1438
 30
0.0
 10
133.0471
 20
33.5692
 30
0.0
 10
133.0471
 20
33.5692
 30
0.0
 10
130.0463
 20
38.0507
 30
0.0
 10
123.8289
 20
42.443
 30
0.0
 10
118.2499
 20
39.605
 30
0.0
 10
118.2499
 20
39.605
 30
0.0
 10
114.6335
 20
37.255
 30
0.0
 10
114.4425
 20
32.0511
 30
0.0
 10
118.1854
 20
29.9958
 30
0.0
 10
118.1854
 20
29.9958
 30
0.0
 10
120.5869
 20
32.4165
 30
0.0
 10
121.3291
 20
34.9038
 30
0.0
 10
121.3593
 20
37.3213
 30
0.0
  0
SPLINE
  5
4C
330
1F
100
AcDbEntity
  8
layer 1
 62
     7
100
AcDbSpline
210
0.0
220
0.0
230
1.0
 70
    11
 71
     3
 72
    44
 73
    40
 74
     0
 42
0.0000000001
 43
0.0000000001
 12
1.0
 22
0.0
 32
0.0
 13
1.0
 23
0.0
 33
0.0
 40
0.0
 40
0.0
 40
0.0
 40
0.0
 40
0.0909090909090909
 40
0.0909090909090909
 40
0.0909090909090909
 40
0.0909090909090909
 40
0.1818181818181818
 40
0.1818181818181818
 40
0.1818181818181818
 40
0.1818181818181818
 40
0.2727272727272727
 40
0.2727272727272727
 40
0.2727272727272727
 40
0.2727272727272727
 40
0.3636363636363636
 40
0.3636363636363636
 40
0.3636363636363636
 40
0.3636363636363636
 40
0.4545454545454545
 40
0.4545454545454545
 40
0.4545454545454545
 40
0.4545454545454545
 40
0.5454545454545454
 40
0.5454545454545454
 40
0.5454545454545454
 40
0.5454545454545454
 40
0.6363636363636364
 40
0.6363636363636364
 40
0.6363636363636364
 40
0.6363636363636364
 40
0.7272727272727273
 40
0.7272727272727273
 40
0.7272727272727273
 40
0.7272727272727273
 40
0.8181818181818182
 40
0.8181818181818182
 40
0.8181818181818182
 40
0.8181818181818182
 40
1.0
 40
1.0
 40
1.0
 40
1.0
 10
140.8402
 20
37.0107
 30
0.0
 10
139.6769
 20
38.9948
 30
0.0
 10
136.6725
 20
42.8519
 30
0.0
 10
134.4496
 20
45.1054
 30
0.0
 10
134.4496
 20
45.1054
 30
0.0
 10
132.8169
 20
46.7592
 30
0.0
 10
129.579
 20
49.4156
 30
0.0
 10
127.2543
 20
51.0086
 30
0.0
 10
127.2543
 20
51.0086
 30
0.0
 10
121.7716
 20
54.7625
 30
0.0
 10
120.2338
 20
56.3487
 30
0.0
 10
117.0313
 20
61.549
 30
0.0
 10
117.0313
 20
61.549
 30
0.0
 10
113.0527
 20
68.0132
 30
0.0
 10
110.5511
 20
71.2514
 30
0.0
 10
108.0839
 20
73.1336
 30
0.0
 10
108.0839
 20
73.1336
 30
0.0
 10
104.6658
 20
75.2852
 30
0.0
 10
102.125
 20
76.607
 30
0.0
 10
98.2944
 20
76.4878
 30
0.0
 10
98.2944
 20
76.4878
 30
0.0
 10
108.8955
 20
74.411
 30
0.0
 10
111.8949
 20
66.1899
 30
0.0
 10
114.4284
 20
61.212
 30
0.0
 10
114.4284
 20
61.212
 30
0.0
 10
117.604
 20
54.5108
 30
0.0
 10
120.3818
 20
51.7329
 30
0.0
 10
125.7485
 20
47.7709
 30
0.0
 10
125.7485
 20
47.7709
 30
0.0
 10
130.5209
 20
44.2453
 30
0.0
 10
132.7117
 20
42.1453
 30
0.0
 10
136.1071
 20
37.8493
 30
0.0
 10
136.1071
 20
37.8493
 30
0.0
 10
137.9911
 20
35.4619
 30
0.0
 10
138.5831
 20
34.9929
 30
0.0
 10
139.5714
 20
35.1089
 30
0.0
 10
139.5714
 20
35.1089
 30
0.0
 10
141.4946
 20
35.4637
 30
0.0
 10
141.4326
 20
35.9904
 30
0.0
 10
140.8402
 20
37.0107
 30
0.0
  0
SPLINE
  5
4D
330
1F
100
AcDbEntity
  8
layer 1
 62
     7
100
AcDbSpline
210
0.0
220
0.0
230
1.0
 70
    11
 71
     3
 72
    96
 73
    92
 74
     0
 42
0.0000000001
 43
0.0000000001
 12
1.0
 22
0.0
 32
0.0
 13
1.0
 23
0.0
 33
0.0
 40
0.0
 40
0.0
 40
0.0
 40
0.0
 40
0.0416666666666667
 40
0.0416666666666667
 40
0.0416666666666667
 40
0.0416666666666667
 40
0.0833333333333333
 40
0.0833333333333333
 40
0.0833333333333333
 40
0.0833333333333333
 40
0.125
 40
0.125
 40
0.125
 40
0.125
 40
0.1666666666666667
 40
0.1666666666666667
 40
0.1666666666666667
 40
0.1666666666666667
 40
0.2083333333333333
 40
0.2083333333333333
 40
0.2083333333333333
 40
0.2083333333333333
 40
0.25
 40
0.25
 40
0.25
 40
0.25
 40
0.2916666666666667
 40
0.2916666666666667
 40
0.2916666666666667
 40
0.2916666666666667
 40
0.3333333333333333
 40
0.3333333333333333
 40
0.3333333333333333
 40
0.3333333333333333
 40
0.375
 40
0.375
 40
0.375
 40
0.375
 40
0.4166666666666667
 40
0.4166666666666667
 40
0.4166666666666667
 40
0.4166666666666667
 40
0.4583333333333333
 40
0.4583333333333333
 40
0.4583333333333333
 40
0.4583333333333333
 40
0.5
 40
0.5
 40
0.5
 40
0.5
 40
0.5416666666666666
 40
0.5416666666666666
 40
0.5416666666666666
 40
0.5416666666666666
 40
0.5833333333333334
 40
0.5833333333333334
 40
0.5833333333333334
 40
0.5833333333333334
 40
0.625
 40
0.625
 40
0.625
 40
0.625
 40
0.6666666666666666
 40
0.6666666666666666
 40
0.6666666666666666
 40
0.6666666666666666
 40
0.7083333333333334
 40
0.7083333333333334
 40
0.7083333333333334
 40
0.7083333333333334
 40
0.75
 40
0.75
 40
0.75
 40
0.75
 40
0.7916666666666666
 40
0.7916666666666666
 40
0.7916666666666666
 40
0.7916666666666666
 40
0.8333333333333334
 40
0.8333333333333334
 40
0.8333333333333334
 40
0.8333333333333334
 40
0.875
 40
0.875
 40
0.875
 40
0.875
 40
0.9166666666666666
 40
0.9166666666666666
 40
0.9166666666666666
 40
0.9166666666666666
 40
1.0
 40
1.0
 40
1.0
 40
1.0
 10
76.8728
 20
47.8471
 30
0.0
 10
77.5525
 20
52.2504
 30
0.0
 10
80.5979
 20
56.1131
 30
0.0
 10
83.3848
 20
57.6545
 30
0.0
 10
83.3848
 20
57.6545
 30
0.0
 10
86.4376
 20
55.1872
 30
0.0
 10
85.7238
 20
50.024
 30
0.0
 10
85.7361
 20
45.8704
 30
0.0
 10
85.7361
 20
45.8704
 30
0.0
 10
88.9638
 20
50.2327
 30
0.0
 10
90.3966
 20
49.8832
 30
0.0
 10
93.2297
 20
50.2719
 30
0.0
 10
93.2297
 20
50.2719
 30
0.0
 10
94.6031
 20
50.4573
 30
0.0
 10
95.5275
 20
51.0393
 30
0.0
 10
97.2562
 20
52.8054
 30
0.0
 10
97.2562
 20
52.8054
 30
0.0
 10
99.9733
 20
55.5777
 30
0.0
 10
101.8948
 20
56.2309
 30
0.0
 10
105.3933
 20
55.5672
 30
0.0
 10
105.3933
 20
55.5672
 30
0.0
 10
109.8752
 20
54.7177
 30
0.0
 10
110.8673
 20
55.9577
 30
0.0
 10
108.1036
 20
58.9571
 30
0.0
 10
108.1036
 20
58.9571
 30
0.0
 10
107.0993
 20
60.0455
 30
0.0
 10
105.4061
 20
62.6571
 30
0.0
 10
104.3392
 20
64.7608
 30
0.0
 10
104.3392
 20
64.7608
 30
0.0
 10
101.9715
 20
70.4412
 30
0.0
 10
98.0788
 20
72.7713
 30
0.0
 10
93.6882
 20
71.0642
 30
0.0
 10
93.6882
 20
71.0642
 30
0.0
 10
89.6329
 20
69.3459
 30
0.0
 10
90.7103
 20
62.6411
 30
0.0
 10
96.0107
 20
61.5797
 30
0.0
 10
96.0107
 20
61.5797
 30
0.0
 10
91.3365
 20
58.6306
 30
0.0
 10
87.235
 20
61.5705
 30
0.0
 10
85.4739
 20
64.527
 30
0.0
 10
85.4739
 20
64.527
 30
0.0
 10
83.6488
 20
67.8045
 30
0.0
 10
85.0656
 20
74.1969
 30
0.0
 10
89.5292
 20
77.1656
 30
0.0
 10
89.5292
 20
77.1656
 30
0.0
 10
95.7664
 20
81.2817
 30
0.0
 10
99.5257
 20
81.8256
 30
0.0
 10
105.4934
 20
80.523
 30
0.0
 10
105.4934
 20
80.523
 30
0.0
 10
103.2471
 20
82.3911
 30
0.0
 10
101.4558
 20
84.8944
 30
0.0
 10
99.9879
 20
87.4796
 30
0.0
 10
99.9879
 20
87.4796
 30
0.0
 10
97.9162
 20
82.3609
 30
0.0
 10
92.2235
 20
78.7464
 30
0.0
 10
88.2253
 20
79.3565
 30
0.0
 10
88.2253
 20
79.3565
 30
0.0
 10
87.8239
 20
81.3584
 30
0.0
 10
88.9246
 20
83.2635
 30
0.0
 10
90.07
 20
84.3395
 30
0.0
 10
90.07
 20
84.3395
 30
0.0
 10
92.2235
 20
86.1467
 30
0.0
 10
91.0118
 20
88.3358
 30
0.0
 10
87.531
 20
85.9649
 30
0.0
 10
87.531
 20
85.9649
 30
0.0
 10
83.922
 20
83.8932
 30
0.0
 10
78.7445
 20
86.3395
 30
0.0
 10
76.8942
 20
84.1216
 30
0.0
 10
76.8942
 20
84.1216
 30
0.0
 10
75.2656
 20
82.4929
 30
0.0
 10
74.8746
 20
80.55
 30
0.0
 10
76.3522
 20
79.0711
 30
0.0
 10
76.3522
 20
79.0711
 30
0.0
 10
77.1779
 20
78.2448
 30
0.0
 10
78.8194
 20
77.4259
 30
0.0
 10
81.6434
 20
78.2786
 30
0.0
 10
81.6434
 20
78.2786
 30
0.0
 10
79.3369
 20
74.9176
 30
0.0
 10
75.7615
 20
74.4448
 30
0.0
 10
72.8997
 20
75.7954
 30
0.0
 10
72.8997
 20
75.7954
 30
0.0
 10
72.8997
 20
75.7954
 30
0.0
 10
72.8997
 20
39.5228
 30
0.0
 10
72.8997
 20
39.5228
 30
0.0
 10
72.8997
 20
39.5228
 30
0.0
 10
76.0078
 20
38.0544
 30
0.0
 10
79.0084
 20
37.5103
 30
0.0
 10
81.4099
 20
34.9628
 30
0.0
 10
81.4099
 20
34.9628
 30
0.0
 10
79.8219
 20
38.6111
 30
0.0
 10
76.3681
 20
43.8672
 30
0.0
 10
76.8728
 20
47.8471
 30
0.0
  0
SPLINE
  5
4E
330
1F
100
AcDbEntity
  8
layer 1
 62
     7
100
AcDbSpline
210
0.0
220
0.0
230
1.0
 70
    11
 71
     3
 72
    44
 73
    40
 74
     0
 42
0.0000000001
 43
0.0000000001
 12
1.0
 22
0.0
 32
0.0
 13
1.0
 23
0.0
 33
0.0
 40
0.0
 40
0.0
 40
0.0
 40
0.0
 40
0.0909090909090909
 40
0.0909090909090909
 40
0.0909090909090909
 40
0.0909090909090909
 40
0.1818181818181818
 40
0.1818181818181818
 40
0.1818181818181818
 40
0.1818181818181818
 40
0.2727272727272727
 40
0.2727272727272727
 40
0.2727272727272727
 40
0.2727272727272727
 40
0.3636363636363636
 40
0.3636363636363636
 40
0.3636363636363636
 40
0.3636363636363636
 40
0.4545454545454545
 40
0.4545454545454545
 40
0.4545454545454545
 40
0.4545454545454545
 40
0.5454545454545454
 40
0.5454545454545454
 40
0.5454545454545454
 40
0.5454545454545454
 40
0.6363636363636364
 40
0.6363636363636364
 40
0.6363636363636364
 40
0.6363636363636364
 40
0.7272727272727273
 40
0.7272727272727273
 40
0.7272727272727273
 40
0.7272727272727273
 40
0.8181818181818182
 40
0.8181818181818182
 40
0.8181818181818182
 40
0.8181818181818182
 40
1.0
 40
1.0
 40
1.0
 40
1.0
 10
149.6715
 20
59.4028
 30
0.0
 10
150.1977
 20
66.5073
 30
0.0
 10
147.925
 20
74.9888
 30
0.0
 10
140.0587
 20
75.2104
 30
0.0
 10
140.0587
 20
75.2104
 30
0.0
 10
136.6922
 20
75.2104
 30
0.0
 10
132.9329
 20
72.3324
 30
0.0
 10
136.1852
 20
68.0844
 30
0.0
 10
136.1852
 20
68.0844
 30
0.0
 10
137.001
 20
72.6678
 30
0.0
 10
142.3245
 20
72.987
 30
0.0
 10
143.7286
 20
69.2975
 30
0.0
 10
143.7286
 20
69.2975
 30
0.0
 10
144.9311
 20
66.3949
 30
0.0
 10
143.4628
 20
63.6706
 30
0.0
 10
139.8911
 20
62.1789
 30
0.0
 10
139.8911
 20
62.1789
 30
0.0
 10
136.3496
 20
61.2709
 30
0.0
 10
134.4602
 20
61.9633
 30
0.0
 10
131.6357
 20
63.6921
 30
0.0
 10
131.6357
 20
63.6921
 30
0.0
 10
132.1176
 20
60.0094
 30
0.0
 10
131.5877
 20
58.1058
 30
0.0
 10
131.1721
 20
55.4279
 30
0.0
 10
131.1721
 20
55.4279
 30
0.0
 10
131.2059
 20
51.8348
 30
0.0
 10
134.3834
 20
51.0055
 30
0.0
 10
135.559
 20
53.7439
 30
0.0
 10
135.559
 20
53.7439
 30
0.0
 10
137.0023
 20
55.7759
 30
0.0
 10
138.9151
 20
60.9836
 30
0.0
 10
141.8322
 20
61.0517
 30
0.0
 10
141.8322
 20
61.0517
 30
0.0
 10
146.8882
 20
56.4218
 30
0.0
 10
145.3344
 20
45.5799
 30
0.0
 10
143.8323
 20
38.9321
 30
0.0
 10
143.8323
 20
38.9321
 30
0.0
 10
146.8828
 20
44.2504
 30
0.0
 10
149.445
 20
53.5549
 30
0.0
 10
149.6715
 20
59.4028
 30
0.0
  0
SPLINE
  5
4F
330
1F
100
AcDbEntity
  8
layer 1
 62
     7
100
AcDbSpline
210
0.0
220
0.0
230
1.0
 70
    11
 71
     3
 72
    32
 73
    28
 74
     0
 42
0.0000000001
 43
0.0000000001
 12
1.0
 22
0.0
 32
0.0
 13
1.0
 23
0.0
 33
0.0
 40
0.0
 40
0.0
 40
0.0
 40
0.0
 40
0.125
 40
0.125
 40
0.125
 40
0.125
 40
0.25
 40
0.25
 40
0.25
 40
0.25
 40
0.375
 40
0.375
 40
0.375
 40
0.375
 40
0.5
 40
0.5
 40
0.5
 40
0.5
 40
0.625
 40
0.625
 40
0.625
 40
0.625
 40
0.75
 40
0.75
 40
0.75
 40
0.75
 40
1.0
 40
1.0
 40
1.0
 40
1.0
 10
171.5215
 20
51.917
 30
0.0
 10
176.4757
 20
51.9454
 30
0.0
 10
176.9434
 20
53.5156
 30
0.0
 10
176.5187
 20
56.9498
 30
0.0
 10
176.5187
 20
56.9498
 30
0.0
 10
176.4081
 20
59.7208
 30
0.0
 10
177.0718
 20
61.9898
 30
0.0
 10
179.8943
 20
62.6662
 30
0.0
 10
179.8943
 20
62.6662
 30
0.0
 10
183.5587
 20
63.3925
 30
0.0
 10
184.8165
 20
59.2371
 30
0.0
 10
182.8485
 20
56.7146
 30
0.0
 10
182.8485
 20
56.7146
 30
0.0
 10
187.6048
 20
56.3149
 30
0.0
 10
187.4427
 20
61.3567
 30
0.0
 10
186.1635
 20
63.6884
 30
0.0
 10
186.1635
 20
63.6884
 30
0.0
 10
184.9363
 20
65.7775
 30
0.0
 10
182.6649
 20
67.0765
 30
0.0
 10
179.3892
 20
67.0709
 30
0.0
 10
179.3892
 20
67.0709
 30
0.0
 10
171.5069
 20
66.8927
 30
0.0
 10
164.3153
 20
58.6447
 30
0.0
 10
159.0628
 20
47.1264
 30
0.0
 10
159.0628
 20
47.1264
 30
0.0
 10
163.0949
 20
50.8268
 30
0.0
 10
167.2201
 20
51.8471
 30
0.0
 10
171.5215
 20
51.917
 30
0.0
  0
SPLINE
  5
50
330
1F
100
AcDbEntity
  8
layer 1
 62
     7
100
AcDbSpline
210
0.0
220
0.0
230
1.0
 70
    11
 71
     3
 72
    68
 73
    64
 74
     0
 42
0.0000000001
 43
0.0000000001
 12
1.0
 22
0.0
 32
0.0
 13
1.0
 23
0.0
 33
0.0
 40
0.0
 40
0.0
 40
0.0
 40
0.0
 40
0.0588235294117647
 40
0.0588235294117647
 40
0.0588235294117647
 40
0.0588235294117647
 40
0.1176470588235294
 40
0.1176470588235294
 40
0.1176470588235294
 40
0.1176470588235294
 40
0.1764705882352941
 40
0.1764705882352941
 40
0.1764705882352941
 40
0.1764705882352941
 40
0.2352941176470588
 40
0.2352941176470588
 40
0.2352941176470588
 40
0.2352941176470588
 40
0.2941176470588235
 40
0.2941176470588235
 40
0.2941176470588235
 40
0.2941176470588235
 40
0.3529411764705883
 40
0.3529411764705883
 40
0.3529411764705883
 40
0.3529411764705883
 40
0.4117647058823529
 40
0.4117647058823529
 40
0.4117647058823529
 40
0.4117647058823529
 40
0.4705882352941176
 40
0.4705882352941176
 40
0.4705882352941176
 40
0.4705882352941176
 40
0.5294117647058824
 40
0.5294117647058824
 40
0.5294117647058824
 40
0.5294117647058824
 40
0.5882352941176471
 40
0.5882352941176471
 40
0.5882352941176471
 40
0.5882352941176471
 40
0.6470588235294118
 40
0.6470588235294118
 40
0.6470588235294118
 40
0.6470588235294118
 40
0.7058823529411765
 40
0.7058823529411765
 40
0.7058823529411765
 40
0.7058823529411765
 40
0.7647058823529411
 40
0.7647058823529411
 40
0.7647058823529411
 40
0.7647058823529411
 40
0.8235294117647058
 40
0.8235294117647058
 40
0.8235294117647058
 40
0.8235294117647058
 40
0.8823529411764706
 40
0.8823529411764706
 40
0.8823529411764706
 40
0.8823529411764706
 40
1.0
 40
1.0
 40
1.0
 40
1.0
 10
122.2727
 20
66.3877
 30
0.0
 10
122.2745
 20
68.4558
 30
0.0
 10
123.2524
 20
70.9513
 30
0.0
 10
124.2924
 20
72.2023
 30
0.0
 10
124.2924
 20
72.2023
 30
0.0
 10
125.8535
 20
71.5528
 30
0.0
 10
127.1524
 20
70.8535
 30
0.0
 10
128.3906
 20
69.2729
 30
0.0
 10
128.3906
 20
69.2729
 30
0.0
 10
128.6619
 20
75.979
 30
0.0
 10
131.7983
 20
80.7679
 30
0.0
 10
138.2441
 20
80.7711
 30
0.0
 10
138.2441
 20
80.7711
 30
0.0
 10
133.2881
 20
83.8951
 30
0.0
 10
134.7278
 20
91.1101
 30
0.0
 10
138.6008
 20
91.9897
 30
0.0
 10
138.6008
 20
91.9897
 30
0.0
 10
138.2835
 20
92.0948
 30
0.0
 10
134.387
 20
92.3752
 30
0.0
 10
132.9132
 20
95.5705
 30
0.0
 10
132.9132
 20
95.5705
 30
0.0
 10
133.2968
 20
96.1788
 30
0.0
 10
133.9107
 20
96.5693
 30
0.0
 10
134.5067
 20
96.9068
 30
0.0
 10
134.5067
 20
96.9068
 30
0.0
 10
133.6627
 20
97.0709
 30
0.0
 10
133.0617
 20
97.1563
 30
0.0
 10
132.414
 20
97.6308
 30
0.0
 10
132.414
 20
97.6308
 30
0.0
 10
134.1623
 20
99.2938
 30
0.0
 10
134.7547
 20
100.9567
 30
0.0
 10
137.1183
 20
102.6141
 30
0.0
 10
137.1183
 20
102.6141
 30
0.0
 10
139.734
 20
104.0305
 30
0.0
 10
139.645
 20
105.6095
 30
0.0
 10
138.5885
 20
106.2625
 30
0.0
 10
138.5885
 20
106.2625
 30
0.0
 10
137.7198
 20
106.7996
 30
0.0
 10
135.966
 20
104.8923
 30
0.0
 10
133.9107
 20
101.6879
 30
0.0
 10
133.9107
 20
101.6879
 30
0.0
 10
131.6842
 20
97.021
 30
0.0
 10
128.4085
 20
95.3654
 30
0.0
 10
124.2499
 20
95.0886
 30
0.0
 10
124.2499
 20
95.0886
 30
0.0
 10
131.2433
 20
92.4163
 30
0.0
 10
130.4957
 20
85.1511
 30
0.0
 10
126.7706
 20
80.9085
 30
0.0
 10
126.7706
 20
80.9085
 30
0.0
 10
122.2371
 20
76.8568
 30
0.0
 10
117.2473
 20
76.5252
 30
0.0
 10
112.5193
 20
77.8453
 30
0.0
 10
112.5193
 20
77.8453
 30
0.0
 10
118.9455
 20
72.8728
 30
0.0
 10
118.8098
 20
69.1674
 30
0.0
 10
119.1204
 20
64.4036
 30
0.0
 10
119.1204
 20
64.4036
 30
0.0
 10
119.2775
 20
63.212
 30
0.0
 10
119.852
 20
62.8786
 30
0.0
 10
120.4389
 20
62.8786
 30
0.0
 10
120.4389
 20
62.8786
 30
0.0
 10
122.1266
 20
62.5539
 30
0.0
 10
122.2604
 20
64.9603
 30
0.0
 10
122.2727
 20
66.3877
 30
0.0
  0
SPLINE
  5
51
330
1F
100
AcDbEntity
  8
layer 1
 62
     7
100
AcDbSpline
210
0.0
220
0.0
230
1.0
 70
    11
 71
     3
 72
    40
 73
    36
 74
     0
 42
0.0000000001
 43
0.0000000001
 12
1.0
 22
0.0
 32
0.0
 13
1.0
 23
0.0
 33
0.0
 40
0.0
 40
0.0
 40
0.0
 40
0.0
 40
0.1
 40
0.1
 40
0.1
 40
0.1
 40
0.2
 40
0.2
 40
0.2
 40
0.2
 40
0.3
 40
0.3
 40
0.3
 40
0.3
 40
0.4
 40
0.4
 40
0.4
 40
0.4
 40
0.5
 40
0.5
 40
0.5
 40
0.5
 40
0.6
 40
0.6
 40
0.6
 40
0.6
 40
0.7
 40
0.7
 40
0.7
 40
0.7
 40
0.8
 40
0.8
 40
0.8
 40
0.8
 40
1.0
 40
1.0
 40
1.0
 40
1.0
 10
161.6178
 20
96.6963
 30
0.0
 10
158.4134
 20
100.293
 30
0.0
 10
156.0265
 20
102.052
 30
0.0
 10
151.4482
 20
102.0433
 30
0.0
 10
151.4482
 20
102.0433
 30
0.0
 10
147.113
 20
101.524
 30
0.0
 10
144.2958
 20
100.3306
 30
0.0
 10
141.1522
 20
97.5883
 30
0.0
 10
141.1522
 20
97.5883
 30
0.0
 10
143.7696
 20
96.8479
 30
0.0
 10
145.2861
 20
96.3053
 30
0.0
 10
147.7304
 20
94.5785
 30
0.0
 10
147.7304
 20
94.5785
 30
0.0
 10
146.426
 20
96.7247
 30
0.0
 10
146.4082
 20
98.3465
 30
0.0
 10
146.105
 20
99.5883
 30
0.0
 10
146.105
 20
99.5883
 30
0.0
 10
148.881
 20
100.5123
 30
0.0
 10
152.485
 20
98.1483
 30
0.0
 10
153.568
 20
96.4963
 30
0.0
 10
153.568
 20
96.4963
 30
0.0
 10
155.0628
 20
93.6865
 30
0.0
 10
154.5599
 20
90.2788
 30
0.0
 10
156.5207
 20
87.7558
 30
0.0
 10
156.5207
 20
87.7558
 30
0.0
 10
156.7545
 20
91.1672
 30
0.0
 10
157.5324
 20
92.9104
 30
0.0
 10
158.2586
 20
93.517
 30
0.0
 10
158.2586
 20
93.517
 30
0.0
 10
167.7763
 20
87.0067
 30
0.0
 10
163.7
 20
70.9285
 30
0.0
 10
161.9512
 20
61.4261
 30
0.0
 10
161.9512
 20
61.4261
 30
0.0
 10
166.7972
 20
70.0574
 30
0.0
 10
170.2902
 20
87.3777
 30
0.0
 10
161.6178
 20
96.6963
 30
0.0
  0
SPLINE
  5
52
330
1F
100
AcDbEntity
  8
layer 1
 62
     7
100
AcDbSpline
210
0.0
220
0.0
230
1.0
 70
    11
 71
     3
 72
    36
 73
    32
 74
     0
 42
0.0000000001
 43
0.0000000001
 12
1.0
 22
0.0
 32
0.0
 13
1.0
 23
0.0
 33
0.0
 40
0.0
 40
0.0
 40
0.0
 40
0.0
 40
0.1111111111111111
 40
0.1111111111111111
 40
0.1111111111111111
 40
0.1111111111111111
 40
0.2222222222222222
 40
0.2222222222222222
 40
0.2222222222222222
 40
0.2222222222222222
 40
0.3333333333333333
 40
0.3333333333333333
 40
0.3333333333333333
 40
0.3333333333333333
 40
0.4444444444444444
 40
0.4444444444444444
 40
0.4444444444444444
 40
0.4444444444444444
 40
0.5555555555555556
 40
0.5555555555555556
 40
0.5555555555555556
 40
0.5555555555555556
 40
0.6666666666666666
 40
0.6666666666666666
 40
0.6666666666666666
 40
0.6666666666666666
 40
0.7777777777777778
 40
0.7777777777777778
 40
0.7777777777777778
 40
0.7777777777777778
 40
1.0
 40
1.0
 40
1.0
 40
1.0
 10
190.3205
 20
66.368
 30
0.0
 10
190.3205
 20
66.368
 30
0.0
 10
190.4987
 20
97.1083
 30
0.0
 10
190.4987
 20
97.1083
 30
0.0
 10
190.4987
 20
97.1083
 30
0.0
 10
187.8547
 20
94.0308
 30
0.0
 10
186.3241
 20
92.0984
 30
0.0
 10
183.3537
 20
91.1064
 30
0.0
 10
183.3537
 20
91.1064
 30
0.0
 10
180.5579
 20
90.2659
 30
0.0
 10
180.2474
 20
89.4832
 30
0.0
 10
182.0958
 20
87.9399
 30
0.0
 10
182.0958
 20
87.9399
 30
0.0
 10
184.183
 20
86.6464
 30
0.0
 10
185.2591
 20
84.9583
 30
0.0
 10
185.3002
 20
82.598
 30
0.0
 10
185.3002
 20
82.598
 30
0.0
 10
184.5581
 20
78.2379
 30
0.0
 10
181.5463
 20
77.494
 30
0.0
 10
178.062
 20
77.494
 30
0.0
 10
178.062
 20
77.494
 30
0.0
 10
182.5686
 20
83.3296
 30
0.0
 10
174.2135
 20
85.7134
 30
0.0
 10
171.8764
 20
78.9318
 30
0.0
 10
171.8764
 20
78.9318
 30
0.0
 10
171.0237
 20
77.2245
 30
0.0
 10
168.9684
 20
69.9862
 30
0.0
 10
168.3993
 20
66.4287
 30
0.0
 10
168.3993
 20
66.4287
 30
0.0
 10
177.5248
 20
72.8819
 30
0.0
 10
184.9166
 20
73.9114
 30
0.0
 10
190.3205
 20
66.368
 30
0.0
  0
SPLINE
  5
53
330
1F
100
AcDbEntity
  8
layer 1
 62
     7
100
AcDbSpline
210
0.0
220
0.0
230
1.0
 70
    11
 71
     3
 72
    32
 73
    28
 74
     0
 42
0.0000000001
 43
0.0000000001
 12
1.0
 22
0.0
 32
0.0
 13
1.0
 23
0.0
 33
0.0
 40
0.0
 40
0.0
 40
0.0
 40
0.0
 40
0.125
 40
0.125
 40
0.125
 40
0.125
 40
0.25
 40
0.25
 40
0.25
 40
0.25
 40
0.375
 40
0.375
 40
0.375
 40
0.375
 40
0.5
 40
0.5
 40
0.5
 40
0.5
 40
0.625
 40
0.625
 40
0.625
 40
0.625
 40
0.75
 40
0.75
 40
0.75
 40
0.75
 40
1.0
 40
1.0
 40
1.0
 40
1.0
 10
124.6496
 20
88.8013
 30
0.0
 10
121.2561
 20
86.0467
 30
0.0
 10
117.9552
 20
88.054
 30
0.0
 10
117.9552
 20
91.1941
 30
0.0
 10
117.9552
 20
91.1941
 30
0.0
 10
118.0412
 20
93.6165
 30
0.0
 10
119.3432
 20
94.632
 30
0.0
 10
121.5396
 20
95.4189
 30
0.0
 10
121.5396
 20
95.4189
 30
0.0
 10
120.084
 20
96.0162
 30
0.0
 10
119.2775
 20
98.1893
 30
0.0
 10
119.4899
 20
99.8039
 30
0.0
 10
119.4899
 20
99.8039
 30
0.0
 10
110.5119
 20
97.6523
 30
0.0
 10
107.1582
 20
107.8753
 30
0.0
 10
110.3731
 20
113.911
 30
0.0
 10
110.3731
 20
113.911
 30
0.0
 10
107.1938
 20
112.2357
 30
0.0
 10
107.7789
 20
105.8341
 30
0.0
 10
108.3
 20
102.8407
 30
0.0
 10
108.3
 20
102.8407
 30
0.0
 10
110.6622
 20
94.6231
 30
0.0
 10
105.602
 20
86.7998
 30
0.0
 10
113.8232
 20
82.9195
 30
0.0
 10
113.8232
 20
82.9195
 30
0.0
 10
118.7513
 20
80.871
 30
0.0
 10
125.8124
 20
83.6814
 30
0.0
 10
124.6496
 20
88.8013
 30
0.0
  0
SPLINE
  5
54
330
1F
100
AcDbEntity
  8
layer 1
 62
     7
100
AcDbSpline
210
0.0
220
0.0
230
1.0
 70
    11
 71
     3
 72
    24
 73
    20
 74
     0
 42
0.0000000001
 43
0.0000000001
 12
1.0
 22
0.0
 32
0.0
 13
1.0
 23
0.0
 33
0.0
 40
0.0
 40
0.0
 40
0.0
 40
0.0
 40
0.1666666666666667
 40
0.1666666666666667
 40
0.1666666666666667
 40
0.1666666666666667
 40
0.3333333333333333
 40
0.3333333333333333
 40
0.3333333333333333
 40
0.3333333333333333
 40
0.5
 40
0.5
 40
0.5
 40
0.5
 40
0.6666666666666666
 40
0.6666666666666666
 40
0.6666666666666666
 40
0.6666666666666666
 40
1.0
 40
1.0
 40
1.0
 40
1.0
 10
105.8432
 20
93.765
 30
0.0
 10
105.8076
 20
97.1563
 30
0.0
 10
106.7174
 20
98.5872
 30
0.0
 10
105.4345
 20
103.0691
 30
0.0
 10
105.4345
 20
103.0691
 30
0.0
 10
104.7229
 20
108.1178
 30
0.0
 10
105.7505
 20
111.3007
 30
0.0
 10
106.7457
 20
114.1485
 30
0.0
 10
106.7457
 20
114.1485
 30
0.0
 10
103.9807
 20
112.0662
 30
0.0
 10
101.7039
 20
104.7709
 30
0.0
 10
101.449
 20
99.1796
 30
0.0
 10
101.449
 20
99.1796
 30
0.0
 10
101.1526
 20
92.6656
 30
0.0
 10
103.645
 20
86.1541
 30
0.0
 10
108.1711
 20
82.5052
 30
0.0
 10
108.1711
 20
82.5052
 30
0.0
 10
106.0752
 20
87.8951
 30
0.0
 10
105.8126
 20
91.0745
 30
0.0
 10
105.8432
 20
93.765
 30
0.0
  0
SPLINE
  5
55
330
1F
100
AcDbEntity
  8
layer 1
 62
     7
100
AcDbSpline
210
0.0
220
0.0
230
1.0
 70
    11
 71
     3
 72
    20
 73
    16
 74
     0
 42
0.0000000001
 43
0.0000000001
 12
1.0
 22
0.0
 32
0.0
 13
1.0
 23
0.0
 33
0.0
 40
0.0
 40
0.0
 40
0.0
 40
0.0
 40
0.2
 40
0.2
 40
0.2
 40
0.2
 40
0.4
 40
0.4
 40
0.4
 40
0.4
 40
0.6
 40
0.6
 40
0.6
 40
0.6
 40
1.0
 40
1.0
 40
1.0
 40
1.0
 10
180.8201
 20
94.6036
 30
0.0
 10
183.9442
 20
95.3065
 30
0.0
 10
186.2009
 20
97.5558
 30
0.0
 10
186.2009
 20
98.2574
 30
0.0
 10
186.2009
 20
98.2574
 30
0.0
 10
184.4347
 20
97.6326
 30
0.0
 10
182.3561
 20
96.2838
 30
0.0
 10
179.8139
 20
96.473
 30
0.0
 10
179.8139
 20
96.473
 30
0.0
 10
170.8237
 20
96.2323
 30
0.0
 10
168.0441
 20
89.3402
 30
0.0
 10
170.524
 20
86.1718
 30
0.0
 10
170.524
 20
86.1718
 30
0.0
 10
172.9361
 20
91.9271
 30
0.0
 10
175.755
 20
93.3813
 30
0.0
 10
180.8201
 20
94.6036
 30
0.0
  0
SPLINE
  5
56
330
1F
100
AcDbEntity
  8
layer 1
 62
     7
100
AcDbSpline
210
0.0
220
0.0
230
1.0
 70
    11
 71
     3
 72
    20
 73
    16
 74
     0
 42
0.0000000001
 43
0.0000000001
 12
1.0
 22
0.0
 32
0.0
 13
1.0
 23
0.0
 33
0.0
 40
0.0
 40
0.0
 40
0.0
 40
0.0
 40
0.2
 40
0.2
 40
0.2
 40
0.2
 40
0.4
 40
0.4
 40
0.4
 40
0.4
 40
0.6
 40
0.6
 40
0.6
 40
0.6
 40
1.0
 40
1.0
 40
1.0
 40
1.0
 10
97.8983
 20
99.6381
 30
0.0
 10
95.6613
 20
96.5447
 30
0.0
 10
94.7369
 20
95.6559
 30
0.0
 10
90.805
 20
93.6736
 30
0.0
 10
90.805
 20
93.6736
 30
0.0
 10
85.3223
 20
90.714
 30
0.0
 10
77.8365
 20
90.3839
 30
0.0
 10
76.4928
 20
87.3155
 30
0.0
 10
76.4928
 20
87.3155
 30
0.0
 10
80.6408
 20
89.0387
 30
0.0
 10
86.1092
 20
89.0886
 30
0.0
 10
90.7031
 20
90.9333
 30
0.0
 10
90.7031
 20
90.9333
 30
0.0
 10
97.301
 20
93.4152
 30
0.0
 10
98.1789
 20
97.813
 30
0.0
 10
97.8983
 20
99.6381
 30
0.0
  0
SPLINE
  5
57
330
1F
100
AcDbEntity
  8
layer 1
 62
     7
100
AcDbSpline
210
0.0
220
0.0
230
1.0
 70
    11
 71
     3
 72
    44
 73
    40
 74
     0
 42
0.0000000001
 43
0.0000000001
 12
1.0
 22
0.0
 32
0.0
 13
1.0
 23
0.0
 33
0.0
 40
0.0
 40
0.0
 40
0.0
 40
0.0
 40
0.0909090909090909
 40
0.0909090909090909
 40
0.0909090909090909
 40
0.0909090909090909
 40
0.1818181818181818
 40
0.1818181818181818
 40
0.1818181818181818
 40
0.1818181818181818
 40
0.2727272727272727
 40
0.2727272727272727
 40
0.2727272727272727
 40
0.2727272727272727
 40
0.3636363636363636
 40
0.3636363636363636
 40
0.3636363636363636
 40
0.3636363636363636
 40
0.4545454545454545
 40
0.4545454545454545
 40
0.4545454545454545
 40
0.4545454545454545
 40
0.5454545454545454
 40
0.5454545454545454
 40
0.5454545454545454
 40
0.5454545454545454
 40
0.6363636363636364
 40
0.6363636363636364
 40
0.6363636363636364
 40
0.6363636363636364
 40
0.7272727272727273
 40
0.7272727272727273
 40
0.7272727272727273
 40
0.7272727272727273
 40
0.8181818181818182
 40
0.8181818181818182
 40
0.8181818181818182
 40
0.8181818181818182
 40
1.0
 40
1.0
 40
1.0
 40
1.0
 10
84.0772
 20
93.8362
 30
0.0
 10
88.5175
 20
94.0536
 30
0.0
 10
87.806
 20
96.9247
 30
0.0
 10
84.2038
 20
98.3091
 30
0.0
 10
84.2038
 20
98.3091
 30
0.0
 10
80.9477
 20
99.9273
 30
0.0
 10
79.1085
 20
104.168
 30
0.0
 10
79.9041
 20
105.8843
 30
0.0
 10
79.9041
 20
105.8843
 30
0.0
 10
81.2049
 20
106.7102
 30
0.0
 10
83.8503
 20
106.2073
 30
0.0
 10
87.5059
 20
104.4392
 30
0.0
 10
87.5059
 20
104.4392
 30
0.0
 10
92.4642
 20
102.0415
 30
0.0
 10
93.4115
 20
102.0839
 30
0.0
 10
96.4017
 20
104.8389
 30
0.0
 10
96.4017
 20
104.8389
 30
0.0
 10
98.6749
 20
106.6818
 30
0.0
 10
100.6744
 20
112.7586
 30
0.0
 10
101.265
 20
113.5899
 30
0.0
 10
101.265
 20
113.5899
 30
0.0
 10
101.686
 20
114.2535
 30
0.0
 10
100.9868
 20
114.6016
 30
0.0
 10
100.5571
 20
114.2265
 30
0.0
 10
100.5571
 20
114.2265
 30
0.0
 10
89.9773
 20
106.4749
 30
0.0
 10
81.0012
 20
103.9291
 30
0.0
 10
72.8997
 20
113.2295
 30
0.0
 10
72.8997
 20
113.2295
 30
0.0
 10
72.8997
 20
113.2295
 30
0.0
 10
72.8997
 20
90.5514
 30
0.0
 10
72.8997
 20
90.5514
 30
0.0
 10
72.8997
 20
90.5514
 30
0.0
 10
74.0378
 20
89.3795
 30
0.0
 10
75.3633
 20
91.9185
 30
0.0
 10
77.6437
 20
93.1101
 30
0.0
 10
77.6437
 20
93.1101
 30
0.0
 10
79.5205
 20
94.093
 30
0.0
 10
82.2768
 20
93.6613
 30
0.0
 10
84.0772
 20
93.8362
 30
0.0
  0
SPLINE
  5
58
330
1F
100
AcDbEntity
  8
layer 1
 62
     7
100
AcDbSpline
210
0.0
220
0.0
230
1.0
 70
    11
 71
     3
 72
    44
 73
    40
 74
     0
 42
0.0000000001
 43
0.0000000001
 12
1.0
 22
0.0
 32
0.0
 13
1.0
 23
0.0
 33
0.0
 40
0.0
 40
0.0
 40
0.0
 40
0.0
 40
0.0909090909090909
 40
0.0909090909090909
 40
0.0909090909090909
 40
0.0909090909090909
 40
0.1818181818181818
 40
0.1818181818181818
 40
0.1818181818181818
 40
0.1818181818181818
 40
0.2727272727272727
 40
0.2727272727272727
 40
0.2727272727272727
 40
0.2727272727272727
 40
0.3636363636363636
 40
0.3636363636363636
 40
0.3636363636363636
 40
0.3636363636363636
 40
0.4545454545454545
 40
0.4545454545454545
 40
0.4545454545454545
 40
0.4545454545454545
 40
0.5454545454545454
 40
0.5454545454545454
 40
0.5454545454545454
 40
0.5454545454545454
 40
0.6363636363636364
 40
0.6363636363636364
 40
0.6363636363636364
 40
0.6363636363636364
 40
0.7272727272727273
 40
0.7272727272727273
 40
0.7272727272727273
 40
0.7272727272727273
 40
0.8181818181818182
 40
0.8181818181818182
 40
0.8181818181818182
 40
0.8181818181818182
 40
1.0
 40
1.0
 40
1.0
 40
1.0
 10
127.2863
 20
103.8917
 30
0.0
 10
128.4299
 20
107.661
 30
0.0
 10
129.2561
 20
108.9207
 30
0.0
 10
133.6805
 20
111.2902
 30
0.0
 10
133.6805
 20
111.2902
 30
0.0
 10
135.2005
 20
112.3819
 30
0.0
 10
134.3373
 20
113.5077
 30
0.0
 10
132.6884
 20
112.4997
 30
0.0
 10
132.6884
 20
112.4997
 30
0.0
 10
128.7921
 20
109.5437
 30
0.0
 10
126.7314
 20
108.9742
 30
0.0
 10
122.7294
 20
108.4265
 30
0.0
 10
122.7294
 20
108.4265
 30
0.0
 10
121.6681
 20
117.0779
 30
0.0
 10
131.3539
 20
120.5532
 30
0.0
 10
138.7137
 20
120.9633
 30
0.0
 10
138.7137
 20
120.9633
 30
0.0
 10
127.8466
 20
124.9744
 30
0.0
 10
113.6734
 20
120.1891
 30
0.0
 10
112.3424
 20
109.4149
 30
0.0
 10
112.3424
 20
109.4149
 30
0.0
 10
112.0963
 20
105.9305
 30
0.0
 10
114.4228
 20
103.1262
 30
0.0
 10
117.4008
 20
104.0643
 30
0.0
 10
117.4008
 20
104.0643
 30
0.0
 10
115.7949
 20
104.8869
 30
0.0
 10
114.7759
 20
107.4131
 30
0.0
 10
116.3352
 20
109.0065
 30
0.0
 10
116.3352
 20
109.0065
 30
0.0
 10
119.3561
 20
112.0269
 30
0.0
 10
124.15
 20
107.1422
 30
0.0
 10
122.0855
 20
103.1476
 30
0.0
 10
122.0855
 20
103.1476
 30
0.0
 10
121.14
 20
101.3207
 30
0.0
 10
121.1652
 20
100.0305
 30
0.0
 10
122.1585
 20
99.4527
 30
0.0
 10
122.1585
 20
99.4527
 30
0.0
 10
125.7521
 20
98.2054
 30
0.0
 10
126.6368
 20
101.7934
 30
0.0
 10
127.2863
 20
103.8917
 30
0.0
  0
SPLINE
  5
59
330
1F
100
AcDbEntity
  8
layer 1
 62
     7
100
AcDbSpline
210
0.0
220
0.0
230
1.0
 70
    11
 71
     3
 72
    12
 73
     8
 74
     0
 42
0.0000000001
 43
0.0000000001
 12
1.0
 22
0.0
 32
0.0
 13
1.0
 23
0.0
 33
0.0
 40
0.0
 40
0.0
 40
0.0
 40
0.0
 40
0.3333333333333333
 40
0.3333333333333333
 40
0.3333333333333333
 40
0.3333333333333333
 40
1.0
 40
1.0
 40
1.0
 40
1.0
 10
156.2567
 20
105.0225
 30
0.0
 10
145.5304
 20
108.7512
 30
0.0
 10
138.2067
 20
103.1955
 30
0.0
 10
137.033
 20
98.0359
 30
0.0
 10
137.033
 20
98.0359
 30
0.0
 10
142.1834
 20
102.4712
 30
0.0
 10
147.3432
 20
105.6774
 30
0.0
 10
156.2567
 20
105.0225
 30
0.0
  0
SPLINE
  5
5A
330
1F
100
AcDbEntity
  8
layer 1
 62
     7
100
AcDbSpline
210
0.0
220
0.0
230
1.0
 70
    11
 71
     3
 72
    52
 73
    48
 74
     0
 42
0.0000000001
 43
0.0000000001
 12
1.0
 22
0.0
 32
0.0
 13
1.0
 23
0.0
 33
0.0
 40
0.0
 40
0.0
 40
0.0
 40
0.0
 40
0.0769230769230769
 40
0.0769230769230769
 40
0.0769230769230769
 40
0.0769230769230769
 40
0.1538461538461539
 40
0.1538461538461539
 40
0.1538461538461539
 40
0.1538461538461539
 40
0.2307692307692308
 40
0.2307692307692308
 40
0.2307692307692308
 40
0.2307692307692308
 40
0.3076923076923077
 40
0.3076923076923077
 40
0.3076923076923077
 40
0.3076923076923077
 40
0.3846153846153846
 40
0.3846153846153846
 40
0.3846153846153846
 40
0.3846153846153846
 40
0.4615384615384616
 40
0.4615384615384616
 40
0.4615384615384616
 40
0.4615384615384616
 40
0.5384615384615384
 40
0.5384615384615384
 40
0.5384615384615384
 40
0.5384615384615384
 40
0.6153846153846154
 40
0.6153846153846154
 40
0.6153846153846154
 40
0.6153846153846154
 40
0.6923076923076923
 40
0.6923076923076923
 40
0.6923076923076923
 40
0.6923076923076923
 40
0.7692307692307693
 40
0.7692307692307693
 40
0.7692307692307693
 40
0.7692307692307693
 40
0.8461538461538461
 40
0.8461538461538461
 40
0.8461538461538461
 40
0.8461538461538461
 40
1.0
 40
1.0
 40
1.0
 40
1.0
 10
185.4568
 20
102.4123
 30
0.0
 10
188.5704
 20
102.0236
 30
0.0
 10
189.8497
 20
102.1219
 30
0.0
 10
190.4987
 20
103.9844
 30
0.0
 10
190.4987
 20
103.9844
 30
0.0
 10
190.4987
 20
103.9844
 30
0.0
 10
190.4987
 20
126.0357
 30
0.0
 10
190.4987
 20
126.0357
 30
0.0
 10
190.4987
 20
126.0357
 30
0.0
 10
190.4987
 20
126.0357
 30
0.0
 10
182.1671
 20
125.87
 30
0.0
 10
182.1671
 20
125.87
 30
0.0
 10
182.1671
 20
125.87
 30
0.0
 10
178.7648
 20
126.0357
 30
0.0
 10
176.9453
 20
122.5944
 30
0.0
 10
180.4365
 20
122.9547
 30
0.0
 10
180.4365
 20
122.9547
 30
0.0
 10
185.2162
 20
123.2831
 30
0.0
 10
187.6711
 20
121.4114
 30
0.0
 10
188.7896
 20
119.706
 30
0.0
 10
188.7896
 20
119.706
 30
0.0
 10
189.4926
 20
118.6318
 30
0.0
 10
189.4944
 20
118.4856
 30
0.0
 10
188.8093
 20
117.8005
 30
0.0
 10
188.8093
 20
117.8005
 30
0.0
 10
184.447
 20
115.0582
 30
0.0
 10
181.6642
 20
119.4237
 30
0.0
 10
182.4757
 20
114.7422
 30
0.0
 10
182.4757
 20
114.7422
 30
0.0
 10
182.5991
 20
112.5677
 30
0.0
 10
180.9417
 20
110.1338
 30
0.0
 10
178.2725
 20
110.4265
 30
0.0
 10
178.2725
 20
110.4265
 30
0.0
 10
176.7684
 20
110.1215
 30
0.0
 10
176.7274
 20
109.4774
 30
0.0
 10
177.0398
 20
107.3381
 30
0.0
 10
177.0398
 20
107.3381
 30
0.0
 10
177.2859
 20
105.397
 30
0.0
 10
176.3707
 20
103.9109
 30
0.0
 10
175.7391
 20
102.8887
 30
0.0
 10
175.7391
 20
102.8887
 30
0.0
 10
174.0742
 20
100.3803
 30
0.0
 10
176.0386
 20
99.0813
 30
0.0
 10
177.6961
 20
100.2735
 30
0.0
 10
177.6961
 20
100.2735
 30
0.0
 10
180.1118
 20
101.3956
 30
0.0
 10
183.2198
 20
102.6818
 30
0.0
 10
185.4568
 20
102.4123
 30
0.0
  0
SPLINE
  5
5B
330
1F
100
AcDbEntity
  8
layer 1
 62
     7
100
AcDbSpline
210
0.0
220
0.0
230
1.0
 70
    11
 71
     3
 72
    12
 73
     8
 74
     0
 42
0.0000000001
 43
0.0000000001
 12
1.0
 22
0.0
 32
0.0
 13
1.0
 23
0.0
 33
0.0
 40
0.0
 40
0.0
 40
0.0
 40
0.0
 40
0.3333333333333333
 40
0.3333333333333333
 40
0.3333333333333333
 40
0.3333333333333333
 40
1.0
 40
1.0
 40
1.0
 40
1.0
 10
153.0093
 20
109.2239
 30
0.0
 10
144.3904
 20
114.4157
 30
0.0
 10
131.3736
 20
110.7801
 30
0.0
 10
130.2336
 20
102.373
 30
0.0
 10
130.2336
 20
102.373
 30
0.0
 10
136.3263
 20
110.4375
 30
0.0
 10
146.0159
 20
110.0538
 30
0.0
 10
153.0093
 20
109.2239
 30
0.0
  0
SPLINE
  5
5C
330
1F
100
AcDbEntity
  8
layer 1
 62
     7
100
AcDbSpline
210
0.0
220
0.0
230
1.0
 70
    11
 71
     3
 72
    28
 73
    24
 74
     0
 42
0.0000000001
 43
0.0000000001
 12
1.0
 22
0.0
 32
0.0
 13
1.0
 23
0.0
 33
0.0
 40
0.0
 40
0.0
 40
0.0
 40
0.0
 40
0.1428571428571428
 40
0.1428571428571428
 40
0.1428571428571428
 40
0.1428571428571428
 40
0.2857142857142857
 40
0.2857142857142857
 40
0.2857142857142857
 40
0.2857142857142857
 40
0.4285714285714285
 40
0.4285714285714285
 40
0.4285714285714285
 40
0.4285714285714285
 40
0.5714285714285714
 40
0.5714285714285714
 40
0.5714285714285714
 40
0.5714285714285714
 40
0.7142857142857143
 40
0.7142857142857143
 40
0.7142857142857143
 40
0.7142857142857143
 40
1.0
 40
1.0
 40
1.0
 40
1.0
 10
160.9757
 20
125.4489
 30
0.0
 10
162.3706
 20
124.5355
 30
0.0
 10
162.7025
 20
123.1008
 30
0.0
 10
163.616
 20
121.8288
 30
0.0
 10
163.616
 20
121.8288
 30
0.0
 10
164.8794
 20
120.0787
 30
0.0
 10
165.6001
 20
119.8055
 30
0.0
 10
167.3036
 20
121.7074
 30
0.0
 10
167.3036
 20
121.7074
 30
0.0
 10
168.4651
 20
123.0437
 30
0.0
 10
169.3502
 20
124.5944
 30
0.0
 10
170.5437
 20
126.0357
 30
0.0
 10
170.5437
 20
126.0357
 30
0.0
 10
170.5437
 20
126.0357
 30
0.0
 10
134.6333
 20
126.0198
 30
0.0
 10
134.6333
 20
126.0198
 30
0.0
 10
134.6333
 20
126.0198
 30
0.0
 10
144.7955
 20
124.5158
 30
0.0
 10
155.2236
 20
116.755
 30
0.0
 10
160.1174
 20
109.4523
 30
0.0
 10
160.1174
 20
109.4523
 30
0.0
 10
158.5066
 20
114.2055
 30
0.0
 10
156.9793
 20
121.4844
 30
0.0
 10
160.9757
 20
125.4489
 30
0.0
  0
SPLINE
  5
5D
330
1F
100
AcDbEntity
  8
layer 1
 62
     7
100
AcDbSpline
210
0.0
220
0.0
230
1.0
 70
    11
 71
     3
 72
    36
 73
    32
 74
     0
 42
0.0000000001
 43
0.0000000001
 12
1.0
 22
0.0
 32
0.0
 13
1.0
 23
0.0
 33
0.0
 40
0.0
 40
0.0
 40
0.0
 40
0.0
 40
0.1111111111111111
 40
0.1111111111111111
 40
0.1111111111111111
 40
0.1111111111111111
 40
0.2222222222222222
 40
0.2222222222222222
 40
0.2222222222222222
 40
0.2222222222222222
 40
0.3333333333333333
 40
0.3333333333333333
 40
0.3333333333333333
 40
0.3333333333333333
 40
0.4444444444444444
 40
0.4444444444444444
 40
0.4444444444444444
 40
0.4444444444444444
 40
0.5555555555555556
 40
0.5555555555555556
 40
0.5555555555555556
 40
0.5555555555555556
 40
0.6666666666666666
 40
0.6666666666666666
 40
0.6666666666666666
 40
0.6666666666666666
 40
0.7777777777777778
 40
0.7777777777777778
 40
0.7777777777777778
 40
0.7777777777777778
 40
1.0
 40
1.0
 40
1.0
 40
1.0
 10
96.2391
 20
116.2516
 30
0.0
 10
104.537
 20
119.6949
 30
0.0
 10
113.4775
 20
124.1197
 30
0.0
 10
117.693
 20
126.0198
 30
0.0
 10
117.693
 20
126.0198
 30
0.0
 10
117.693
 20
126.0198
 30
0.0
 10
72.9476
 20
126.2482
 30
0.0
 10
72.9476
 20
126.2482
 30
0.0
 10
72.9476
 20
126.2482
 30
0.0
 10
73.1353
 20
124.175
 30
0.0
 10
72.6731
 20
121.695
 30
0.0
 10
72.9673
 20
119.8147
 30
0.0
 10
72.9673
 20
119.8147
 30
0.0
 10
75.3012
 20
125.0081
 30
0.0
 10
80.3842
 20
126.8811
 30
0.0
 10
84.5175
 20
125.0296
 30
0.0
 10
84.5175
 20
125.0296
 30
0.0
 10
87.954
 20
123.3648
 30
0.0
 10
89.1192
 20
119.5789
 30
0.0
 10
86.7802
 20
117.0031
 30
0.0
 10
86.7802
 20
117.0031
 30
0.0
 10
84.2001
 20
114.5942
 30
0.0
 10
81.0711
 20
116.9473
 30
0.0
 10
81.3008
 20
120.9565
 30
0.0
 10
81.3008
 20
120.9565
 30
0.0
 10
78.4646
 20
119.4383
 30
0.0
 10
78.5002
 20
114.7514
 30
0.0
 10
81.7986
 20
113.3168
 30
0.0
 10
81.7986
 20
113.3168
 30
0.0
 10
86.9725
 20
112.0946
 30
0.0
 10
90.9904
 20
114.0914
 30
0.0
 10
96.2391
 20
116.2516
 30
0.0
  0
SPLINE
  5
5E
330
1F
100
AcDbEntity
  8
layer 1
 62
     7
100
AcDbSpline
210
0.0
220
0.0
230
1.0
 70
    11
 71
     3
 72
    12
 73
     8
 74
     0
 42
0.0000000001
 43
0.0000000001
 12
1.0
 22
0.0
 32
0.0
 13
1.0
 23
0.0
 33
0.0
 40
0.0
 40
0.0
 40
0.0
 40
0.0
 40
0.3333333333333333
 40
0.3333333333333333
 40
0.3333333333333333
 40
0.3333333333333333
 40
1.0
 40
1.0
 40
1.0
 40
1.0
 10
152.644
 20
113.1939
 30
0.0
 10
145.065
 20
121.0332
 30
0.0
 10
132.1176
 20
118.9957
 30
0.0
 10
128.1856
 20
113.2687
 30
0.0
 10
128.1856
 20
113.2687
 30
0.0
 10
136.9311
 20
117.2542
 30
0.0
 10
144.7636
 20
116.0503
 30
0.0
 10
152.644
 20
113.1939
 30
0.0
  0
SPLINE
  5
5F
330
1F
100
AcDbEntity
  8
layer 1
 62
     7
100
AcDbSpline
210
0.0
220
0.0
230
1.0
 70
    11
 71
     3
 72
    32
 73
    28
 74
     0
 42
0.0000000001
 43
0.0000000001
 12
1.0
 22
0.0
 32
0.0
 13
1.0
 23
0.0
 33
0.0
 40
0.0
 40
0.0
 40
0.0
 40
0.0
 40
0.125
 40
0.125
 40
0.125
 40
0.125
 40
0.25
 40
0.25
 40
0.25
 40
0.25
 40
0.375
 40
0.375
 40
0.375
 40
0.375
 40
0.5
 40
0.5
 40
0.5
 40
0.5
 40
0.625
 40
0.625
 40
0.625
 40
0.625
 40
0.75
 40
0.75
 40
0.75
 40
0.75
 40
1.0
 40
1.0
 40
1.0
 40
1.0
 10
166.7898
 20
97.2102
 30
0.0
 10
167.6964
 20
106.6051
 30
0.0
 10
171.9993
 20
108.8457
 30
0.0
 10
174.3762
 20
110.8815
 30
0.0
 10
174.3762
 20
110.8815
 30
0.0
 10
173.5604
 20
111.788
 30
0.0
 10
171.9422
 20
115.2186
 30
0.0
 10
172.8365
 20
117.3935
 30
0.0
 10
172.8365
 20
117.3935
 30
0.0
 10
173.4321
 20
115.7502
 30
0.0
 10
174.4026
 20
114.9993
 30
0.0
 10
175.7495
 20
114.9993
 30
0.0
 10
175.7495
 20
114.9993
 30
0.0
 10
177.8336
 20
114.9993
 30
0.0
 10
178.4936
 20
115.6593
 30
0.0
 10
178.4936
 20
117.7305
 30
0.0
 10
178.4936
 20
117.7305
 30
0.0
 10
178.4936
 20
119.8539
 30
0.0
 10
176.2154
 20
120.9277
 30
0.0
 10
174.8434
 20
120.9277
 30
0.0
 10
174.8434
 20
120.9277
 30
0.0
 10
170.92
 20
120.4372
 30
0.0
 10
169.5215
 20
118.1233
 30
0.0
 10
168.0851
 20
116.3763
 30
0.0
 10
168.0851
 20
116.3763
 30
0.0
 10
164.344
 20
111.8059
 30
0.0
 10
164.6578
 20
103.3847
 30
0.0
 10
166.7898
 20
97.2102
 30
0.0
  0
SPLINE
  5
60
330
1F
100
AcDbEntity
  8
layer 1
 62
     7
100
AcDbSpline
210
0.0
220
0.0
230
1.0
 70
    11
 71
     3
 72
    28
 73
    24
 74
     0
 42
0.0000000001
 43
0.0000000001
 12
1.0
 22
0.0
 32
0.0
 13
1.0
 23
0.0
 33
0.0
 40
0.0
 40
0.0
 40
0.0
 40
0.0
 40
0.1428571428571428
 40
0.1428571428571428
 40
0.1428571428571428
 40
0.1428571428571428
 40
0.2857142857142857
 40
0.2857142857142857
 40
0.2857142857142857
 40
0.2857142857142857
 40
0.4285714285714285
 40
0.4285714285714285
 40
0.4285714285714285
 40
0.4285714285714285
 40
0.5714285714285714
 40
0.5714285714285714
 40
0.5714285714285714
 40
0.5714285714285714
 40
0.7142857142857143
 40
0.7142857142857143
 40
0.7142857142857143
 40
0.7142857142857143
 40
1.0
 40
1.0
 40
1.0
 40
1.0
 10
141.4737
 20
86.9159
 30
0.0
 10
141.4737
 20
82.8121
 30
0.0
 10
147.2344
 20
83.4205
 30
0.0
 10
149.2413
 20
85.5562
 30
0.0
 10
149.2413
 20
85.5562
 30
0.0
 10
149.2021
 20
83.0584
 30
0.0
 10
148.453
 20
80.7783
 30
0.0
 10
145.1381
 20
79.6133
 30
0.0
 10
145.1381
 20
79.6133
 30
0.0
 10
159.147
 20
72.1949
 30
0.0
 10
153.0487
 20
52.9301
 30
0.0
 10
148.8545
 20
41.6155
 30
0.0
 10
148.8545
 20
41.6155
 30
0.0
 10
156.4795
 20
49.7329
 30
0.0
 10
161.1519
 20
69.683
 30
0.0
 10
156.1425
 20
82.0092
 30
0.0
 10
156.1425
 20
82.0092
 30
0.0
 10
154.1868
 20
86.8121
 30
0.0
 10
150.5887
 20
91.0333
 30
0.0
 10
146.4978
 20
91.0333
 30
0.0
 10
146.4978
 20
91.0333
 30
0.0
 10
143.7391
 20
91.0333
 30
0.0
 10
141.4737
 20
89.854
 30
0.0
 10
141.4737
 20
86.9159
 30
0.0
  0
SPLINE
  5
61
330
1F
100
AcDbEntity
  8
layer 1
 62
     7
100
AcDbSpline
210
0.0
220
0.0
230
1.0
 70
    11
 71
     3
 72
    36
 73
    32
 74
     0
 42
0.0000000001
 43
0.0000000001
 12
1.0
 22
0.0
 32
0.0
 13
1.0
 23
0.0
 33
0.0
 40
0.0
 40
0.0
 40
0.0
 40
0.0
 40
0.1111111111111111
 40
0.1111111111111111
 40
0.1111111111111111
 40
0.1111111111111111
 40
0.2222222222222222
 40
0.2222222222222222
 40
0.2222222222222222
 40
0.2222222222222222
 40
0.3333333333333333
 40
0.3333333333333333
 40
0.3333333333333333
 40
0.3333333333333333
 40
0.4444444444444444
 40
0.4444444444444444
 40
0.4444444444444444
 40
0.4444444444444444
 40
0.5555555555555556
 40
0.5555555555555556
 40
0.5555555555555556
 40
0.5555555555555556
 40
0.6666666666666666
 40
0.6666666666666666
 40
0.6666666666666666
 40
0.6666666666666666
 40
0.7777777777777778
 40
0.7777777777777778
 40
0.7777777777777778
 40
0.7777777777777778
 40
1.0
 40
1.0
 40
1.0
 40
1.0
 10
138.0857
 20
12.9679
 30
0.0
 10
136.9383
 20
14.1135
 30
0.0
 10
135.3859
 20
14.7574
 30
0.0
 10
133.7646
 20
14.7574
 30
0.0
 10
133.7646
 20
14.7574
 30
0.0
 10
132.1445
 20
14.7574
 30
0.0
 10
130.5903
 20
14.1135
 30
0.0
 10
129.4453
 20
12.9679
 30
0.0
 10
129.4453
 20
12.9679
 30
0.0
 10
128.2998
 20
11.8225
 30
0.0
 10
127.6558
 20
10.2687
 30
0.0
 10
127.6558
 20
8.6487
 30
0.0
 10
127.6558
 20
8.6487
 30
0.0
 10
127.6558
 20
7.0286
 30
0.0
 10
128.2998
 20
5.4749
 30
0.0
 10
129.4453
 20
4.3294
 30
0.0
 10
129.4453
 20
4.3294
 30
0.0
 10
130.5903
 20
3.1839
 30
0.0
 10
132.1445
 20
2.5399
 30
0.0
 10
133.7646
 20
2.5399
 30
0.0
 10
133.7646
 20
2.5399
 30
0.0
 10
135.3859
 20
2.5399
 30
0.0
 10
136.9383
 20
3.1839
 30
0.0
 10
138.0857
 20
4.3294
 30
0.0
 10
138.0857
 20
4.3294
 30
0.0
 10
139.2307
 20
5.4749
 30
0.0
 10
139.8733
 20
7.0286
 30
0.0
 10
139.8733
 20
8.6487
 30
0.0
 10
139.8733
 20
8.6487
 30
0.0
 10
139.8733
 20
10.2687
 30
0.0
 10
139.2307
 20
11.8225
 30
0.0
 10
138.0857
 20
12.9679
 30
0.0
  0
SPLINE
  5
62
330
1F
100
AcDbEntity
  8
layer 1
 62
     7
100
AcDbSpline
210
0.0
220
0.0
230
1.0
 70
    11
 71
     3
 72
    48
 73
    44
 74
     0
 42
0.0000000001
 43
0.0000000001
 12
1.0
 22
0.0
 32
0.0
 13
1.0
 23
0.0
 33
0.0
 40
0.0
 40
0.0
 40
0.0
 40
0.0
 40
0.0833333333333333
 40
0.0833333333333333
 40
0.0833333333333333
 40
0.0833333333333333
 40
0.1666666666666667
 40
0.1666666666666667
 40
0.1666666666666667
 40
0.1666666666666667
 40
0.25
 40
0.25
 40
0.25
 40
0.25
 40
0.3333333333333333
 40
0.3333333333333333
 40
0.3333333333333333
 40
0.3333333333333333
 40
0.4166666666666667
 40
0.4166666666666667
 40
0.4166666666666667
 40
0.4166666666666667
 40
0.5
 40
0.5
 40
0.5
 40
0.5
 40
0.5833333333333334
 40
0.5833333333333334
 40
0.5833333333333334
 40
0.5833333333333334
 40
0.6666666666666666
 40
0.6666666666666666
 40
0.6666666666666666
 40
0.6666666666666666
 40
0.75
 40
0.75
 40
0.75
 40
0.75
 40
0.8333333333333334
 40
0.8333333333333334
 40
0.8333333333333334
 40
0.8333333333333334
 40
1.0
 40
1.0
 40
1.0
 40
1.0
 10
125.3647
 20
18.4615
 30
0.0
 10
124.0394
 20
19.8724
 30
0.0
 10
123.0382
 20
21.1179
 30
0.0
 10
122.3641
 20
22.1884
 30
0.0
 10
122.3641
 20
22.1884
 30
0.0
 10
120.719
 20
24.5041
 30
0.0
 10
121.6128
 20
26.9928
 30
0.0
 10
122.5569
 20
29.1696
 30
0.0
 10
122.5569
 20
29.1696
 30
0.0
 10
123.0597
 20
30.3219
 30
0.0
 10
123.5931
 20
31.3889
 30
0.0
 10
123.8909
 20
32.1046
 30
0.0
 10
123.8909
 20
32.1046
 30
0.0
 10
124.2696
 20
31.983
 30
0.0
 10
126.2445
 20
31.2322
 30
0.0
 10
127.5772
 20
30.8572
 30
0.0
 10
127.5772
 20
30.8572
 30
0.0
 10
129.4878
 20
30.2168
 30
0.0
 10
130.6245
 20
29.2783
 30
0.0
 10
131.4484
 20
27.3089
 30
0.0
 10
131.4484
 20
27.3089
 30
0.0
 10
132.3532
 20
25.1444
 30
0.0
 10
133.074
 20
19.1376
 30
0.0
 10
131.7841
 20
18.7538
 30
0.0
 10
131.7841
 20
18.7538
 30
0.0
 10
131.0077
 20
18.2739
 30
0.0
 10
130.842
 20
18.7146
 30
0.0
 10
128.2481
 20
23.291
 30
0.0
 10
128.2481
 20
23.291
 30
0.0
 10
126.9867
 20
25.2892
 30
0.0
 10
126.587
 20
26.4593
 30
0.0
 10
125.6663
 20
28.0296
 30
0.0
 10
125.6663
 20
28.0296
 30
0.0
 10
126.191
 20
26.3151
 30
0.0
 10
126.2248
 20
26.0007
 30
0.0
 10
126.9793
 20
23.6495
 30
0.0
 10
126.9793
 20
23.6495
 30
0.0
 10
127.7324
 20
21.2964
 30
0.0
 10
128.3495
 20
18.2025
 30
0.0
 10
128.3495
 20
17.8299
 30
0.0
 10
128.3495
 20
17.8299
 30
0.0
 10
128.3495
 20
16.6432
 30
0.0
 10
126.8136
 20
16.9182
 30
0.0
 10
125.3647
 20
18.4615
 30
0.0
  0
SPLINE
  5
63
330
1F
100
AcDbEntity
  8
layer 1
 62
     7
100
AcDbSpline
210
0.0
220
0.0
230
1.0
 70
    11
 71
     3
 72
    48
 73
    44
 74
     0
 42
0.0000000001
 43
0.0000000001
 12
1.0
 22
0.0
 32
0.0
 13
1.0
 23
0.0
 33
0.0
 40
0.0
 40
0.0
 40
0.0
 40
0.0
 40
0.0833333333333333
 40
0.0833333333333333
 40
0.0833333333333333
 40
0.0833333333333333
 40
0.1666666666666667
 40
0.1666666666666667
 40
0.1666666666666667
 40
0.1666666666666667
 40
0.25
 40
0.25
 40
0.25
 40
0.25
 40
0.3333333333333333
 40
0.3333333333333333
 40
0.3333333333333333
 40
0.3333333333333333
 40
0.4166666666666667
 40
0.4166666666666667
 40
0.4166666666666667
 40
0.4166666666666667
 40
0.5
 40
0.5
 40
0.5
 40
0.5
 40
0.5833333333333334
 40
0.5833333333333334
 40
0.5833333333333334
 40
0.5833333333333334
 40
0.6666666666666666
 40
0.6666666666666666
 40
0.6666666666666666
 40
0.6666666666666666
 40
0.75
 40
0.75
 40
0.75
 40
0.75
 40
0.8333333333333334
 40
0.8333333333333334
 40
0.8333333333333334
 40
0.8333333333333334
 40
1.0
 40
1.0
 40
1.0
 40
1.0
 10
124.471
 20
7.6124
 30
0.0
 10
125.0026
 20
7.4283
 30
0.0
 10
125.0314
 20
6.8665
 30
0.0
 10
124.3298
 20
6.3312
 30
0.0
 10
124.3298
 20
6.3312
 30
0.0
 10
123.611
 20
5.7799
 30
0.0
 10
122.1211
 20
5.2391
 30
0.0
 10
119.6108
 20
3.9476
 30
0.0
 10
119.6108
 20
3.9476
 30
0.0
 10
116.9313
 20
2.5686
 30
0.0
 10
116.3567
 20
2.6933
 30
0.0
 10
114.9029
 20
1.6694
 30
0.0
 10
114.9029
 20
1.6694
 30
0.0
 10
116.0877
 20
1.9689
 30
0.0
 10
118.4015
 20
2.3028
 30
0.0
 10
119.9288
 20
2.597
 30
0.0
 10
119.9288
 20
2.597
 30
0.0
 10
121.5557
 20
2.9112
 30
0.0
 10
123.1419
 20
3.1826
 30
0.0
 10
124.1819
 20
3.3177
 30
0.0
 10
124.1819
 20
3.3177
 30
0.0
 10
127.77
 20
3.88
 30
0.0
 10
125.5631
 20
1.6424
 30
0.0
 10
123.5288
 20
-0.2183
 30
0.0
 10
123.5288
 20
-0.2183
 30
0.0
 10
119.1934
 20
-4.4376
 30
0.0
 10
116.571
 20
-5.0442
 30
0.0
 10
113.7109
 20
-2.4878
 30
0.0
 10
113.7109
 20
-2.4878
 30
0.0
 10
112.5836
 20
-1.4368
 30
0.0
 10
111.3454
 20
-0.6125
 30
0.0
 10
109.9949
 20
0.0941
 30
0.0
 10
109.9949
 20
0.0941
 30
0.0
 10
109.9949
 20
0.0941
 30
0.0
 10
111.4025
 20
3.2785
 30
0.0
 10
111.4025
 20
3.2785
 30
0.0
 10
111.4025
 20
3.2785
 30
0.0
 10
112.96
 20
6.8076
 30
0.0
 10
113.9821
 20
7.7228
 30
0.0
 10
116.6138
 20
7.9371
 30
0.0
 10
116.6138
 20
7.9371
 30
0.0
 10
118.7226
 20
8.1102
 30
0.0
 10
123.62
 20
7.9084
 30
0.0
 10
124.471
 20
7.6124
 30
0.0
  0
SPLINE
  5
64
330
1F
100
AcDbEntity
  8
layer 1
 62
     7
100
AcDbSpline
210
0.0
220
0.0
230
1.0
 70
    11
 71
     3
 72
    44
 73
    40
 74
     0
 42
0.0000000001
 43
0.0000000001
 12
1.0
 22
0.0
 32
0.0
 13
1.0
 23
0.0
 33
0.0
 40
0.0
 40
0.0
 40
0.0
 40
0.0
 40
0.0909090909090909
 40
0.0909090909090909
 40
0.0909090909090909
 40
0.0909090909090909
 40
0.1818181818181818
 40
0.1818181818181818
 40
0.1818181818181818
 40
0.1818181818181818
 40
0.2727272727272727
 40
0.2727272727272727
 40
0.2727272727272727
 40
0.2727272727272727
 40
0.3636363636363636
 40
0.3636363636363636
 40
0.3636363636363636
 40
0.3636363636363636
 40
0.4545454545454545
 40
0.4545454545454545
 40
0.4545454545454545
 40
0.4545454545454545
 40
0.5454545454545454
 40
0.5454545454545454
 40
0.5454545454545454
 40
0.5454545454545454
 40
0.6363636363636364
 40
0.6363636363636364
 40
0.6363636363636364
 40
0.6363636363636364
 40
0.7272727272727273
 40
0.7272727272727273
 40
0.7272727272727273
 40
0.7272727272727273
 40
0.8181818181818182
 40
0.8181818181818182
 40
0.8181818181818182
 40
0.8181818181818182
 40
1.0
 40
1.0
 40
1.0
 40
1.0
 10
152.5759
 20
7.1716
 30
0.0
 10
154.2014
 20
6.7025
 30
0.0
 10
154.8865
 20
5.0396
 30
0.0
 10
155.6233
 20
3.2734
 30
0.0
 10
155.6233
 20
3.2734
 30
0.0
 10
156.1886
 20
1.9174
 30
0.0
 10
156.8098
 20
0.5453
 30
0.0
 10
157.7658
 20
-0.6837
 30
0.0
 10
157.7658
 20
-0.6837
 30
0.0
 10
156.2831
 20
-0.7567
 30
0.0
 10
154.6582
 20
-1.4386
 30
0.0
 10
153.5575
 20
-1.974
 30
0.0
 10
153.5575
 20
-1.974
 30
0.0
 10
150.76
 20
-3.351
 30
0.0
 10
149.461
 20
-3.3866
 30
0.0
 10
147.3929
 20
-2.1398
 30
0.0
 10
147.3929
 20
-2.1398
 30
0.0
 10
144.7759
 20
-0.5627
 30
0.0
 10
141.9122
 20
1.9315
 30
0.0
 10
141.9122
 20
2.6326
 30
0.0
 10
141.9122
 20
2.6326
 30
0.0
 10
141.9122
 20
3.5067
 30
0.0
 10
142.6365
 20
3.4552
 30
0.0
 10
148.5298
 20
2.1691
 30
0.0
 10
148.5298
 20
2.1691
 30
0.0
 10
151.2915
 20
1.5656
 30
0.0
 10
153.6269
 20
1.1501
 30
0.0
 10
153.7214
 20
1.2428
 30
0.0
 10
153.7214
 20
1.2428
 30
0.0
 10
153.8141
 20
1.3373
 30
0.0
 10
151.5035
 20
2.6024
 30
0.0
 10
148.5868
 20
4.0549
 30
0.0
 10
148.5868
 20
4.0549
 30
0.0
 10
145.6697
 20
5.5069
 30
0.0
 10
143.3394
 20
6.4381
 30
0.0
 10
143.2823
 20
7.2749
 30
0.0
 10
143.2823
 20
7.2749
 30
0.0
 10
145.4162
 20
8.1458
 30
0.0
 10
150.453
 20
8.0513
 30
0.0
 10
152.5759
 20
7.1716
 30
0.0
  0
SPLINE
  5
65
330
1F
100
AcDbEntity
  8
layer 1
 62
     7
100
AcDbSpline
210
0.0
220
0.0
230
1.0
 70
    11
 71
     3
 72
    48
 73
    44
 74
     0
 42
0.0000000001
 43
0.0000000001
 12
1.0
 22
0.0
 32
0.0
 13
1.0
 23
0.0
 33
0.0
 40
0.0
 40
0.0
 40
0.0
 40
0.0
 40
0.0833333333333333
 40
0.0833333333333333
 40
0.0833333333333333
 40
0.0833333333333333
 40
0.1666666666666667
 40
0.1666666666666667
 40
0.1666666666666667
 40
0.1666666666666667
 40
0.25
 40
0.25
 40
0.25
 40
0.25
 40
0.3333333333333333
 40
0.3333333333333333
 40
0.3333333333333333
 40
0.3333333333333333
 40
0.4166666666666667
 40
0.4166666666666667
 40
0.4166666666666667
 40
0.4166666666666667
 40
0.5
 40
0.5
 40
0.5
 40
0.5
 40
0.5833333333333334
 40
0.5833333333333334
 40
0.5833333333333334
 40
0.5833333333333334
 40
0.6666666666666666
 40
0.6666666666666666
 40
0.6666666666666666
 40
0.6666666666666666
 40
0.75
 40
0.75
 40
0.75
 40
0.75
 40
0.8333333333333334
 40
0.8333333333333334
 40
0.8333333333333334
 40
0.8333333333333334
 40
1.0
 40
1.0
 40
1.0
 40
1.0
 10
142.4425
 20
-1.394
 30
0.0
 10
143.7678
 20
-2.8052
 30
0.0
 10
144.7704
 20
-4.0502
 30
0.0
 10
145.4431
 20
-5.1226
 30
0.0
 10
145.4431
 20
-5.1226
 30
0.0
 10
147.0897
 20
-7.4365
 30
0.0
 10
146.194
 20
-9.9257
 30
0.0
 10
145.2504
 20
-12.1019
 30
0.0
 10
145.2504
 20
-12.1019
 30
0.0
 10
144.7489
 20
-13.2548
 30
0.0
 10
144.2154
 20
-14.3216
 30
0.0
 10
143.9176
 20
-15.0369
 30
0.0
 10
143.9176
 20
-15.0369
 30
0.0
 10
143.5394
 20
-14.9155
 30
0.0
 10
141.5057
 20
-14.2788
 30
0.0
 10
140.1729
 20
-13.9042
 30
0.0
 10
140.1729
 20
-13.9042
 30
0.0
 10
137.2845
 20
-13.0922
 30
0.0
 10
136.4922
 20
-12.4985
 30
0.0
 10
135.6701
 20
-10.5285
 30
0.0
 10
135.6701
 20
-10.5285
 30
0.0
 10
134.7652
 20
-8.3664
 30
0.0
 10
134.3318
 20
-2.4161
 30
0.0
 10
135.0453
 20
-1.974
 30
0.0
 10
135.0453
 20
-1.974
 30
0.0
 10
135.8217
 20
-1.4939
 30
0.0
 10
137.0238
 20
-2.3946
 30
0.0
 10
139.618
 20
-6.9728
 30
0.0
 10
139.618
 20
-6.9728
 30
0.0
 10
140.8796
 20
-8.9692
 30
0.0
 10
141.2202
 20
-9.3922
 30
0.0
 10
142.1424
 20
-10.962
 30
0.0
 10
142.1424
 20
-10.962
 30
0.0
 10
141.618
 20
-9.2474
 30
0.0
 10
141.5824
 20
-8.9336
 30
0.0
 10
140.8292
 20
-6.582
 30
0.0
 10
140.8292
 20
-6.582
 30
0.0
 10
140.0766
 20
-4.2289
 30
0.0
 10
139.1718
 20
-0.9623
 30
0.0
 10
139.1718
 20
-0.5892
 30
0.0
 10
139.1718
 20
-0.5892
 30
0.0
 10
139.1718
 20
0.597
 30
0.0
 10
140.9956
 20
0.1494
 30
0.0
 10
142.4425
 20
-1.394
 30
0.0
  0
SPLINE
  5
66
330
1F
100
AcDbEntity
  8
layer 1
 62
     7
100
AcDbSpline
210
0.0
220
0.0
230
1.0
 70
    11
 71
     3
 72
    56
 73
    52
 74
     0
 42
0.0000000001
 43
0.0000000001
 12
1.0
 22
0.0
 32
0.0
 13
1.0
 23
0.0
 33
0.0
 40
0.0
 40
0.0
 40
0.0
 40
0.0
 40
0.0714285714285714
 40
0.0714285714285714
 40
0.0714285714285714
 40
0.0714285714285714
 40
0.1428571428571428
 40
0.1428571428571428
 40
0.1428571428571428
 40
0.1428571428571428
 40
0.2142857142857143
 40
0.2142857142857143
 40
0.2142857142857143
 40
0.2142857142857143
 40
0.2857142857142857
 40
0.2857142857142857
 40
0.2857142857142857
 40
0.2857142857142857
 40
0.3571428571428572
 40
0.3571428571428572
 40
0.3571428571428572
 40
0.3571428571428572
 40
0.4285714285714285
 40
0.4285714285714285
 40
0.4285714285714285
 40
0.4285714285714285
 40
0.5
 40
0.5
 40
0.5
 40
0.5
 40
0.5714285714285714
 40
0.5714285714285714
 40
0.5714285714285714
 40
0.5714285714285714
 40
0.6428571428571429
 40
0.6428571428571429
 40
0.6428571428571429
 40
0.6428571428571429
 40
0.7142857142857143
 40
0.7142857142857143
 40
0.7142857142857143
 40
0.7142857142857143
 40
0.7857142857142857
 40
0.7857142857142857
 40
0.7857142857142857
 40
0.7857142857142857
 40
0.8571428571428571
 40
0.8571428571428571
 40
0.8571428571428571
 40
0.8571428571428571
 40
1.0
 40
1.0
 40
1.0
 40
1.0
 10
103.6417
 20
-2.3178
 30
0.0
 10
111.1564
 20
-3.2314
 30
0.0
 10
111.3916
 20
-8.857
 30
0.0
 10
117.752
 20
-7.7973
 30
0.0
 10
117.752
 20
-7.7973
 30
0.0
 10
117.4579
 20
-8.8998
 30
0.0
 10
117.3917
 20
-10.1736
 30
0.0
 10
117.7306
 20
-11.4475
 30
0.0
 10
117.7306
 20
-11.4475
 30
0.0
 10
114.4604
 20
-11.7078
 30
0.0
 10
110.0539
 20
-14.35
 30
0.0
 10
109.001
 20
-17.8238
 30
0.0
 10
109.001
 20
-17.8238
 30
0.0
 10
107.7807
 20
-22.425
 30
0.0
 10
110.4498
 20
-26.6192
 30
0.0
 10
116.4051
 20
-28.1752
 30
0.0
 10
116.4051
 20
-28.1752
 30
0.0
 10
117.9429
 20
-28.7905
 30
0.0
 10
118.3677
 20
-29.4829
 30
0.0
 10
117.7055
 20
-30.2803
 30
0.0
 10
117.7055
 20
-30.2803
 30
0.0
 10
117.267
 20
-30.8083
 30
0.0
 10
116.6458
 20
-31.5327
 30
0.0
 10
115.2007
 20
-31.0581
 30
0.0
 10
115.2007
 20
-31.0581
 30
0.0
 10
110.876
 20
-29.3956
 30
0.0
 10
107.5971
 20
-28.3127
 30
0.0
 10
104.0679
 20
-29.1495
 30
0.0
 10
104.0679
 20
-29.1495
 30
0.0
 10
100.314
 20
-29.9304
 30
0.0
 10
97.9536
 20
-30.2374
 30
0.0
 10
96.0842
 20
-27.7898
 30
0.0
 10
96.0842
 20
-27.7898
 30
0.0
 10
106.1355
 20
-23.8094
 30
0.0
 10
99.8307
 20
-11.6169
 30
0.0
 10
91.463
 20
-14.8373
 30
0.0
 10
91.463
 20
-14.8373
 30
0.0
 10
93.3703
 20
-16.3267
 30
0.0
 10
94.4122
 20
-18.3857
 30
0.0
 10
94.4122
 20
-19.7736
 30
0.0
 10
94.4122
 20
-19.7736
 30
0.0
 10
93.4009
 20
-24.4305
 30
0.0
 10
88.4176
 20
-23.9149
 30
0.0
 10
86.9405
 20
-20.657
 30
0.0
 10
86.9405
 20
-20.657
 30
0.0
 10
84.3695
 20
-14.5624
 30
0.0
 10
90.3144
 20
-5.758
 30
0.0
 10
99.8573
 20
-1.667
 30
0.0
 10
99.8573
 20
-1.667
 30
0.0
 10
101.8824
 20
-0.8303
 30
0.0
 10
105.7469
 20
0.6472
 30
0.0
 10
103.6417
 20
-2.3178
 30
0.0
  0
SPLINE
  5
67
330
1F
100
AcDbEntity
  8
layer 1
 62
     7
100
AcDbSpline
210
0.0
220
0.0
230
1.0
 70
    11
 71
     3
 72
    28
 73
    24
 74
     0
 42
0.0000000001
 43
0.0000000001
 12
1.0
 22
0.0
 32
0.0
 13
1.0
 23
0.0
 33
0.0
 40
0.0
 40
0.0
 40
0.0
 40
0.0
 40
0.1428571428571428
 40
0.1428571428571428
 40
0.1428571428571428
 40
0.1428571428571428
 40
0.2857142857142857
 40
0.2857142857142857
 40
0.2857142857142857
 40
0.2857142857142857
 40
0.4285714285714285
 40
0.4285714285714285
 40
0.4285714285714285
 40
0.4285714285714285
 40
0.5714285714285714
 40
0.5714285714285714
 40
0.5714285714285714
 40
0.5714285714285714
 40
0.7142857142857143
 40
0.7142857142857143
 40
0.7142857142857143
 40
0.7142857142857143
 40
1.0
 40
1.0
 40
1.0
 40
1.0
 10
154.2425
 20
-12.8442
 30
0.0
 10
155.9087
 20
-9.0086
 30
0.0
 10
159.7246
 20
-9.1994
 30
0.0
 10
160.5883
 20
-11.5329
 30
0.0
 10
160.5883
 20
-11.5329
 30
0.0
 10
162.4582
 20
-17.7897
 30
0.0
 10
153.5999
 20
-19.1813
 30
0.0
 10
150.5973
 20
-18.234
 30
0.0
 10
150.5973
 20
-18.234
 30
0.0
 10
147.9588
 20
-17.4439
 30
0.0
 10
147.5089
 20
-16.6551
 30
0.0
 10
148.3886
 20
-14.3641
 30
0.0
 10
148.3886
 20
-14.3641
 30
0.0
 10
149.5021
 20
-12.1395
 30
0.0
 10
150.3996
 20
-9.4511
 30
0.0
 10
150.2584
 20
-7.089
 30
0.0
 10
150.2584
 20
-7.089
 30
0.0
 10
152.453
 20
-6.9245
 30
0.0
 10
154.8331
 20
-6.3093
 30
0.0
 10
156.5832
 20
-5.4437
 30
0.0
 10
156.5832
 20
-5.4437
 30
0.0
 10
153.8356
 20
-7.8882
 30
0.0
 10
153.6374
 20
-11.5279
 30
0.0
 10
154.2425
 20
-12.8442
 30
0.0
  0
SPLINE
  5
68
330
1F
100
AcDbEntity
  8
layer 1
 62
     7
100
AcDbSpline
210
0.0
220
0.0
230
1.0
 70
    11
 71
     3
 72
    48
 73
    44
 74
     0
 42
0.0000000001
 43
0.0000000001
 12
1.0
 22
0.0
 32
0.0
 13
1.0
 23
0.0
 33
0.0
 40
0.0
 40
0.0
 40
0.0
 40
0.0
 40
0.0833333333333333
 40
0.0833333333333333
 40
0.0833333333333333
 40
0.0833333333333333
 40
0.1666666666666667
 40
0.1666666666666667
 40
0.1666666666666667
 40
0.1666666666666667
 40
0.25
 40
0.25
 40
0.25
 40
0.25
 40
0.3333333333333333
 40
0.3333333333333333
 40
0.3333333333333333
 40
0.3333333333333333
 40
0.4166666666666667
 40
0.4166666666666667
 40
0.4166666666666667
 40
0.4166666666666667
 40
0.5
 40
0.5
 40
0.5
 40
0.5
 40
0.5833333333333334
 40
0.5833333333333334
 40
0.5833333333333334
 40
0.5833333333333334
 40
0.6666666666666666
 40
0.6666666666666666
 40
0.6666666666666666
 40
0.6666666666666666
 40
0.75
 40
0.75
 40
0.75
 40
0.75
 40
0.8333333333333334
 40
0.8333333333333334
 40
0.8333333333333334
 40
0.8333333333333334
 40
1.0
 40
1.0
 40
1.0
 40
1.0
 10
190.4987
 20
-36.844
 30
0.0
 10
187.9154
 20
-32.9372
 30
0.0
 10
180.722
 20
-32.3926
 30
0.0
 10
178.8434
 20
-35.4953
 30
0.0
 10
178.8434
 20
-35.4953
 30
0.0
 10
179.0951
 20
-32.3662
 30
0.0
 10
177.8336
 20
-29.9875
 30
0.0
 10
175.871
 20
-28.1642
 30
0.0
 10
175.871
 20
-28.1642
 30
0.0
 10
175.4055
 20
-27.7523
 30
0.0
 10
173.9815
 20
-26.8192
 30
0.0
 10
172.2994
 20
-26.4963
 30
0.0
 10
172.2994
 20
-26.4963
 30
0.0
 10
169.4516
 20
-25.0691
 30
0.0
 10
169.691
 20
-23.1759
 30
0.0
 10
172.1993
 20
-22.937
 30
0.0
 10
172.1993
 20
-22.937
 30
0.0
 10
173.2859
 20
-22.8319
 30
0.0
 10
174.5524
 20
-23.6491
 30
0.0
 10
176.9827
 20
-24.8817
 30
0.0
 10
176.9827
 20
-24.8817
 30
0.0
 10
179.8852
 20
-26.3534
 30
0.0
 10
180.8631
 20
-26.6228
 30
0.0
 10
183.2057
 20
-26.6031
 30
0.0
 10
183.2057
 20
-26.6031
 30
0.0
 10
185.6053
 20
-26.3465
 30
0.0
 10
189.3231
 20
-25.7523
 30
0.0
 10
189.0093
 20
-25.1439
 30
0.0
 10
189.0093
 20
-25.1439
 30
0.0
 10
188.6183
 20
-22.1679
 30
0.0
 10
185.6373
 20
-20.5072
 30
0.0
 10
182.9805
 20
-19.6558
 30
0.0
 10
182.9805
 20
-19.6558
 30
0.0
 10
178.2332
 20
-18.9086
 30
0.0
 10
179.9158
 20
-15.7969
 30
0.0
 10
183.2234
 20
-15.5813
 30
0.0
 10
183.2234
 20
-15.5813
 30
0.0
 10
187.5016
 20
-15.1529
 30
0.0
 10
190.0726
 20
-10.1431
 30
0.0
 10
190.4987
 20
-8.4449
 30
0.0
 10
190.4987
 20
-8.4449
 30
0.0
 10
190.4987
 20
-8.4449
 30
0.0
 10
190.4987
 20
-36.844
 30
0.0
 10
190.4987
 20
-36.844
 30
0.0
  0
SPLINE
  5
69
330
1F
100
AcDbEntity
  8
layer 1
 62
     7
100
AcDbSpline
210
0.0
220
0.0
230
1.0
 70
    11
 71
     3
 72
    24
 73
    20
 74
     0
 42
0.0000000001
 43
0.0000000001
 12
1.0
 22
0.0
 32
0.0
 13
1.0
 23
0.0
 33
0.0
 40
0.0
 40
0.0
 40
0.0
 40
0.0
 40
0.1666666666666667
 40
0.1666666666666667
 40
0.1666666666666667
 40
0.1666666666666667
 40
0.3333333333333333
 40
0.3333333333333333
 40
0.3333333333333333
 40
0.3333333333333333
 40
0.5
 40
0.5
 40
0.5
 40
0.5
 40
0.6666666666666666
 40
0.6666666666666666
 40
0.6666666666666666
 40
0.6666666666666666
 40
1.0
 40
1.0
 40
1.0
 40
1.0
 10
183.6354
 20
-11.6758
 30
0.0
 10
180.5008
 20
-14.4624
 30
0.0
 10
176.0245
 20
-15.5936
 30
0.0
 10
170.06
 20
-19.7756
 30
0.0
 10
170.06
 20
-19.7756
 30
0.0
 10
163.5233
 20
-24.3785
 30
0.0
 10
160.6633
 20
-25.3759
 30
0.0
 10
157.7055
 20
-25.4453
 30
0.0
 10
157.7055
 20
-25.4453
 30
0.0
 10
155.336
 20
-25.5613
 30
0.0
 10
154.4476
 20
-24.4963
 30
0.0
 10
152.8613
 20
-23.085
 30
0.0
 10
152.8613
 20
-23.085
 30
0.0
 10
158.9524
 20
-24.2022
 30
0.0
 10
164.6116
 20
-20.6337
 30
0.0
 10
168.6295
 20
-18.0806
 30
0.0
 10
168.6295
 20
-18.0806
 30
0.0
 10
175.3677
 20
-13.7828
 30
0.0
 10
179.6856
 20
-12.4249
 30
0.0
 10
183.6354
 20
-11.6758
 30
0.0
  0
SPLINE
  5
6A
330
1F
100
AcDbEntity
  8
layer 1
 62
     7
100
AcDbSpline
210
0.0
220
0.0
230
1.0
 70
    11
 71
     3
 72
    28
 73
    24
 74
     0
 42
0.0000000001
 43
0.0000000001
 12
1.0
 22
0.0
 32
0.0
 13
1.0
 23
0.0
 33
0.0
 40
0.0
 40
0.0
 40
0.0
 40
0.0
 40
0.1428571428571428
 40
0.1428571428571428
 40
0.1428571428571428
 40
0.1428571428571428
 40
0.2857142857142857
 40
0.2857142857142857
 40
0.2857142857142857
 40
0.2857142857142857
 40
0.4285714285714285
 40
0.4285714285714285
 40
0.4285714285714285
 40
0.4285714285714285
 40
0.5714285714285714
 40
0.5714285714285714
 40
0.5714285714285714
 40
0.5714285714285714
 40
0.7142857142857143
 40
0.7142857142857143
 40
0.7142857142857143
 40
0.7142857142857143
 40
1.0
 40
1.0
 40
1.0
 40
1.0
 10
121.3593
 20
-20.0235
 30
0.0
 10
123.4881
 20
-18.8926
 30
0.0
 10
125.8571
 20
-17.97
 30
0.0
 10
127.9518
 20
-17.2941
 30
0.0
 10
127.9518
 20
-17.2941
 30
0.0
 10
129.6946
 20
-16.7392
 30
0.0
 10
131.538
 20
-15.9915
 30
0.0
 10
132.05
 20
-15.633
 30
0.0
 10
132.05
 20
-15.633
 30
0.0
 10
133.4645
 20
-14.6409
 30
0.0
 10
133.7842
 20
-14.846
 30
0.0
 10
133.0471
 20
-16.2714
 30
0.0
 10
133.0471
 20
-16.2714
 30
0.0
 10
130.0463
 20
-20.7534
 30
0.0
 10
123.8289
 20
-25.1457
 30
0.0
 10
118.2499
 20
-22.3072
 30
0.0
 10
118.2499
 20
-22.3072
 30
0.0
 10
114.6335
 20
-19.9577
 30
0.0
 10
114.4425
 20
-14.7533
 30
0.0
 10
118.1854
 20
-12.698
 30
0.0
 10
118.1854
 20
-12.698
 30
0.0
 10
120.5869
 20
-15.1192
 30
0.0
 10
121.3291
 20
-17.6061
 30
0.0
 10
121.3593
 20
-20.0235
 30
0.0
  0
SPLINE
  5
6B
330
1F
100
AcDbEntity
  8
layer 1
 62
     7
100
AcDbSpline
210
0.0
220
0.0
230
1.0
 70
    11
 71
     3
 72
    44
 73
    40
 74
     0
 42
0.0000000001
 43
0.0000000001
 12
1.0
 22
0.0
 32
0.0
 13
1.0
 23
0.0
 33
0.0
 40
0.0
 40
0.0
 40
0.0
 40
0.0
 40
0.0909090909090909
 40
0.0909090909090909
 40
0.0909090909090909
 40
0.0909090909090909
 40
0.1818181818181818
 40
0.1818181818181818
 40
0.1818181818181818
 40
0.1818181818181818
 40
0.2727272727272727
 40
0.2727272727272727
 40
0.2727272727272727
 40
0.2727272727272727
 40
0.3636363636363636
 40
0.3636363636363636
 40
0.3636363636363636
 40
0.3636363636363636
 40
0.4545454545454545
 40
0.4545454545454545
 40
0.4545454545454545
 40
0.4545454545454545
 40
0.5454545454545454
 40
0.5454545454545454
 40
0.5454545454545454
 40
0.5454545454545454
 40
0.6363636363636364
 40
0.6363636363636364
 40
0.6363636363636364
 40
0.6363636363636364
 40
0.7272727272727273
 40
0.7272727272727273
 40
0.7272727272727273
 40
0.7272727272727273
 40
0.8181818181818182
 40
0.8181818181818182
 40
0.8181818181818182
 40
0.8181818181818182
 40
1.0
 40
1.0
 40
1.0
 40
1.0
 10
140.8402
 20
-19.7129
 30
0.0
 10
139.6769
 20
-21.697
 30
0.0
 10
136.6725
 20
-25.5541
 30
0.0
 10
134.4496
 20
-27.8076
 30
0.0
 10
134.4496
 20
-27.8076
 30
0.0
 10
132.8169
 20
-29.4614
 30
0.0
 10
129.579
 20
-32.1182
 30
0.0
 10
127.2543
 20
-33.7113
 30
0.0
 10
127.2543
 20
-33.7113
 30
0.0
 10
121.7716
 20
-37.4652
 30
0.0
 10
120.2338
 20
-39.0509
 30
0.0
 10
117.0313
 20
-44.2517
 30
0.0
 10
117.0313
 20
-44.2517
 30
0.0
 10
113.0527
 20
-50.7153
 30
0.0
 10
110.5511
 20
-53.9535
 30
0.0
 10
108.0839
 20
-55.8357
 30
0.0
 10
108.0839
 20
-55.8357
 30
0.0
 10
104.6658
 20
-57.9875
 30
0.0
 10
102.125
 20
-59.3097
 30
0.0
 10
98.2944
 20
-59.19
 30
0.0
 10
98.2944
 20
-59.19
 30
0.0
 10
108.8955
 20
-57.1132
 30
0.0
 10
111.8949
 20
-48.892
 30
0.0
 10
114.4284
 20
-43.9147
 30
0.0
 10
114.4284
 20
-43.9147
 30
0.0
 10
117.604
 20
-37.2135
 30
0.0
 10
120.3818
 20
-34.4356
 30
0.0
 10
125.7485
 20
-30.473
 30
0.0
 10
125.7485
 20
-30.473
 30
0.0
 10
130.5209
 20
-26.9475
 30
0.0
 10
132.7117
 20
-24.8479
 30
0.0
 10
136.1071
 20
-20.5515
 30
0.0
 10
136.1071
 20
-20.5515
 30
0.0
 10
137.9911
 20
-18.1646
 30
0.0
 10
138.5831
 20
-17.6952
 30
0.0
 10
139.5714
 20
-17.8112
 30
0.0
 10
139.5714
 20
-17.8112
 30
0.0
 10
141.4946
 20
-18.1664
 30
0.0
 10
141.4326
 20
-18.6926
 30
0.0
 10
140.8402
 20
-19.7129
 30
0.0
  0
SPLINE
  5
6C
330
1F
100
AcDbEntity
  8
layer 1
 62
     7
100
AcDbSpline
210
0.0
220
0.0
230
1.0
 70
    11
 71
     3
 72
    96
 73
    92
 74
     0
 42
0.0000000001
 43
0.0000000001
 12
1.0
 22
0.0
 32
0.0
 13
1.0
 23
0.0
 33
0.0
 40
0.0
 40
0.0
 40
0.0
 40
0.0
 40
0.0416666666666667
 40
0.0416666666666667
 40
0.0416666666666667
 40
0.0416666666666667
 40
0.0833333333333333
 40
0.0833333333333333
 40
0.0833333333333333
 40
0.0833333333333333
 40
0.125
 40
0.125
 40
0.125
 40
0.125
 40
0.1666666666666667
 40
0.1666666666666667
 40
0.1666666666666667
 40
0.1666666666666667
 40
0.2083333333333333
 40
0.2083333333333333
 40
0.2083333333333333
 40
0.2083333333333333
 40
0.25
 40
0.25
 40
0.25
 40
0.25
 40
0.2916666666666667
 40
0.2916666666666667
 40
0.2916666666666667
 40
0.2916666666666667
 40
0.3333333333333333
 40
0.3333333333333333
 40
0.3333333333333333
 40
0.3333333333333333
 40
0.375
 40
0.375
 40
0.375
 40
0.375
 40
0.4166666666666667
 40
0.4166666666666667
 40
0.4166666666666667
 40
0.4166666666666667
 40
0.4583333333333333
 40
0.4583333333333333
 40
0.4583333333333333
 40
0.4583333333333333
 40
0.5
 40
0.5
 40
0.5
 40
0.5
 40
0.5416666666666666
 40
0.5416666666666666
 40
0.5416666666666666
 40
0.5416666666666666
 40
0.5833333333333334
 40
0.5833333333333334
 40
0.5833333333333334
 40
0.5833333333333334
 40
0.625
 40
0.625
 40
0.625
 40
0.625
 40
0.6666666666666666
 40
0.6666666666666666
 40
0.6666666666666666
 40
0.6666666666666666
 40
0.7083333333333334
 40
0.7083333333333334
 40
0.7083333333333334
 40
0.7083333333333334
 40
0.75
 40
0.75
 40
0.75
 40
0.75
 40
0.7916666666666666
 40
0.7916666666666666
 40
0.7916666666666666
 40
0.7916666666666666
 40
0.8333333333333334
 40
0.8333333333333334
 40
0.8333333333333334
 40
0.8333333333333334
 40
0.875
 40
0.875
 40
0.875
 40
0.875
 40
0.9166666666666666
 40
0.9166666666666666
 40
0.9166666666666666
 40
0.9166666666666666
 40
1.0
 40
1.0
 40
1.0
 40
1.0
 10
76.8728
 20
-30.5498
 30
0.0
 10
77.5525
 20
-34.9531
 30
0.0
 10
80.5979
 20
-38.8158
 30
0.0
 10
83.3848
 20
-40.3572
 30
0.0
 10
83.3848
 20
-40.3572
 30
0.0
 10
86.4376
 20
-37.8894
 30
0.0
 10
85.7238
 20
-32.7265
 30
0.0
 10
85.7361
 20
-28.5731
 30
0.0
 10
85.7361
 20
-28.5731
 30
0.0
 10
88.9638
 20
-32.9352
 30
0.0
 10
90.3966
 20
-32.5854
 30
0.0
 10
93.2297
 20
-32.9746
 30
0.0
 10
93.2297
 20
-32.9746
 30
0.0
 10
94.6031
 20
-33.16
 30
0.0
 10
95.5275
 20
-33.7414
 30
0.0
 10
97.2562
 20
-35.5076
 30
0.0
 10
97.2562
 20
-35.5076
 30
0.0
 10
99.9733
 20
-38.2804
 30
0.0
 10
101.8948
 20
-38.933
 30
0.0
 10
105.3933
 20
-38.2694
 30
0.0
 10
105.3933
 20
-38.2694
 30
0.0
 10
109.8752
 20
-37.4204
 30
0.0
 10
110.8673
 20
-38.6604
 30
0.0
 10
108.1036
 20
-41.6594
 30
0.0
 10
108.1036
 20
-41.6594
 30
0.0
 10
107.0993
 20
-42.7477
 30
0.0
 10
105.4061
 20
-45.3598
 30
0.0
 10
104.3392
 20
-47.463
 30
0.0
 10
104.3392
 20
-47.463
 30
0.0
 10
101.9715
 20
-53.1439
 30
0.0
 10
98.0788
 20
-55.4736
 30
0.0
 10
93.6882
 20
-53.7663
 30
0.0
 10
93.6882
 20
-53.7663
 30
0.0
 10
89.6329
 20
-52.0481
 30
0.0
 10
90.7103
 20
-45.3437
 30
0.0
 10
96.0107
 20
-44.2818
 30
0.0
 10
96.0107
 20
-44.2818
 30
0.0
 10
91.3365
 20
-41.3327
 30
0.0
 10
87.235
 20
-44.2732
 30
0.0
 10
85.4739
 20
-47.2292
 30
0.0
 10
85.4739
 20
-47.2292
 30
0.0
 10
83.6488
 20
-50.5066
 30
0.0
 10
85.0656
 20
-56.8991
 30
0.0
 10
89.5292
 20
-59.8677
 30
0.0
 10
89.5292
 20
-59.8677
 30
0.0
 10
95.7664
 20
-63.9839
 30
0.0
 10
99.5257
 20
-64.5278
 30
0.0
 10
105.4934
 20
-63.2257
 30
0.0
 10
105.4934
 20
-63.2257
 30
0.0
 10
103.2471
 20
-65.0937
 30
0.0
 10
101.4558
 20
-67.5967
 30
0.0
 10
99.9879
 20
-70.1817
 30
0.0
 10
99.9879
 20
-70.1817
 30
0.0
 10
97.9162
 20
-65.0631
 30
0.0
 10
92.2235
 20
-61.4485
 30
0.0
 10
88.2253
 20
-62.0587
 30
0.0
 10
88.2253
 20
-62.0587
 30
0.0
 10
87.8239
 20
-64.0605
 30
0.0
 10
88.9246
 20
-65.966
 30
0.0
 10
90.07
 20
-67.0416
 30
0.0
 10
90.07
 20
-67.0416
 30
0.0
 10
92.2235
 20
-68.849
 30
0.0
 10
91.0118
 20
-71.038
 30
0.0
 10
87.531
 20
-68.6672
 30
0.0
 10
87.531
 20
-68.6672
 30
0.0
 10
83.922
 20
-66.5959
 30
0.0
 10
78.7445
 20
-69.0416
 30
0.0
 10
76.8942
 20
-66.8243
 30
0.0
 10
76.8942
 20
-66.8243
 30
0.0
 10
75.2656
 20
-65.195
 30
0.0
 10
74.8746
 20
-63.2526
 30
0.0
 10
76.3522
 20
-61.7732
 30
0.0
 10
76.3522
 20
-61.7732
 30
0.0
 10
77.1779
 20
-60.9475
 30
0.0
 10
78.8194
 20
-60.1286
 30
0.0
 10
81.6434
 20
-60.9813
 30
0.0
 10
81.6434
 20
-60.9813
 30
0.0
 10
79.3369
 20
-57.6198
 30
0.0
 10
75.7615
 20
-57.147
 30
0.0
 10
72.8997
 20
-58.4976
 30
0.0
 10
72.8997
 20
-58.4976
 30
0.0
 10
72.8997
 20
-58.4976
 30
0.0
 10
72.8997
 20
-22.2249
 30
0.0
 10
72.8997
 20
-22.2249
 30
0.0
 10
72.8997
 20
-22.2249
 30
0.0
 10
76.0078
 20
-20.757
 30
0.0
 10
79.0084
 20
-20.2126
 30
0.0
 10
81.4099
 20
-17.665
 30
0.0
 10
81.4099
 20
-17.665
 30
0.0
 10
79.8219
 20
-21.3134
 30
0.0
 10
76.3681
 20
-26.5693
 30
0.0
 10
76.8728
 20
-30.5498
 30
0.0
  0
SPLINE
  5
6D
330
1F
100
AcDbEntity
  8
layer 1
 62
     7
100
AcDbSpline
210
0.0
220
0.0
230
1.0
 70
    11
 71
     3
 72
    44
 73
    40
 74
     0
 42
0.0000000001
 43
0.0000000001
 12
1.0
 22
0.0
 32
0.0
 13
1.0
 23
0.0
 33
0.0
 40
0.0
 40
0.0
 40
0.0
 40
0.0
 40
0.0909090909090909
 40
0.0909090909090909
 40
0.0909090909090909
 40
0.0909090909090909
 40
0.1818181818181818
 40
0.1818181818181818
 40
0.1818181818181818
 40
0.1818181818181818
 40
0.2727272727272727
 40
0.2727272727272727
 40
0.2727272727272727
 40
0.2727272727272727
 40
0.3636363636363636
 40
0.3636363636363636
 40
0.3636363636363636
 40
0.3636363636363636
 40
0.4545454545454545
 40
0.4545454545454545
 40
0.4545454545454545
 40
0.4545454545454545
 40
0.5454545454545454
 40
0.5454545454545454
 40
0.5454545454545454
 40
0.5454545454545454
 40
0.6363636363636364
 40
0.6363636363636364
 40
0.6363636363636364
 40
0.6363636363636364
 40
0.7272727272727273
 40
0.7272727272727273
 40
0.7272727272727273
 40
0.7272727272727273
 40
0.8181818181818182
 40
0.8181818181818182
 40
0.8181818181818182
 40
0.8181818181818182
 40
1.0
 40
1.0
 40
1.0
 40
1.0
 10
149.6715
 20
-42.1037
 30
0.0
 10
150.1977
 20
-49.2095
 30
0.0
 10
147.925
 20
-57.6915
 30
0.0
 10
140.0587
 20
-57.9125
 30
0.0
 10
140.0587
 20
-57.9125
 30
0.0
 10
136.6922
 20
-57.9125
 30
0.0
 10
132.9329
 20
-55.0347
 30
0.0
 10
136.1852
 20
-50.787
 30
0.0
 10
136.1852
 20
-50.787
 30
0.0
 10
137.001
 20
-55.3703
 30
0.0
 10
142.3245
 20
-55.6896
 30
0.0
 10
143.7286
 20
-52.0002
 30
0.0
 10
143.7286
 20
-52.0002
 30
0.0
 10
144.9311
 20
-49.0971
 30
0.0
 10
143.4628
 20
-46.3727
 30
0.0
 10
139.8911
 20
-44.8815
 30
0.0
 10
139.8911
 20
-44.8815
 30
0.0
 10
136.3496
 20
-43.9736
 30
0.0
 10
134.4602
 20
-44.6655
 30
0.0
 10
131.6357
 20
-46.3942
 30
0.0
 10
131.6357
 20
-46.3942
 30
0.0
 10
132.1176
 20
-42.7121
 30
0.0
 10
131.5877
 20
-40.8084
 30
0.0
 10
131.1721
 20
-38.1306
 30
0.0
 10
131.1721
 20
-38.1306
 30
0.0
 10
131.2059
 20
-34.537
 30
0.0
 10
134.3834
 20
-33.7076
 30
0.0
 10
135.559
 20
-36.4461
 30
0.0
 10
135.559
 20
-36.4461
 30
0.0
 10
137.0023
 20
-38.4782
 30
0.0
 10
138.9151
 20
-43.6863
 30
0.0
 10
141.8322
 20
-43.7539
 30
0.0
 10
141.8322
 20
-43.7539
 30
0.0
 10
146.8882
 20
-39.124
 30
0.0
 10
145.3344
 20
-28.2821
 30
0.0
 10
143.8323
 20
-21.6344
 30
0.0
 10
143.8323
 20
-21.6344
 30
0.0
 10
146.8828
 20
-26.9531
 30
0.0
 10
149.445
 20
-36.2571
 30
0.0
 10
149.6715
 20
-42.1037
 30
0.0
  0
SPLINE
  5
6E
330
1F
100
AcDbEntity
  8
layer 1
 62
     7
100
AcDbSpline
210
0.0
220
0.0
230
1.0
 70
    11
 71
     3
 72
    32
 73
    28
 74
     0
 42
0.0000000001
 43
0.0000000001
 12
1.0
 22
0.0
 32
0.0
 13
1.0
 23
0.0
 33
0.0
 40
0.0
 40
0.0
 40
0.0
 40
0.0
 40
0.125
 40
0.125
 40
0.125
 40
0.125
 40
0.25
 40
0.25
 40
0.25
 40
0.25
 40
0.375
 40
0.375
 40
0.375
 40
0.375
 40
0.5
 40
0.5
 40
0.5
 40
0.5
 40
0.625
 40
0.625
 40
0.625
 40
0.625
 40
0.75
 40
0.75
 40
0.75
 40
0.75
 40
1.0
 40
1.0
 40
1.0
 40
1.0
 10
171.5215
 20
-34.6192
 30
0.0
 10
176.4757
 20
-34.6481
 30
0.0
 10
176.9434
 20
-36.2179
 30
0.0
 10
176.5187
 20
-39.6524
 30
0.0
 10
176.5187
 20
-39.6524
 30
0.0
 10
176.4081
 20
-42.423
 30
0.0
 10
177.0718
 20
-44.6925
 30
0.0
 10
179.8943
 20
-45.3685
 30
0.0
 10
179.8943
 20
-45.3685
 30
0.0
 10
183.5587
 20
-46.0946
 30
0.0
 10
184.8165
 20
-41.9393
 30
0.0
 10
182.8485
 20
-39.4167
 30
0.0
 10
182.8485
 20
-39.4167
 30
0.0
 10
187.6048
 20
-39.0171
 30
0.0
 10
187.4427
 20
-44.0589
 30
0.0
 10
186.1635
 20
-46.391
 30
0.0
 10
186.1635
 20
-46.391
 30
0.0
 10
184.9363
 20
-48.4801
 30
0.0
 10
182.6649
 20
-49.779
 30
0.0
 10
179.3892
 20
-49.7736
 30
0.0
 10
179.3892
 20
-49.7736
 30
0.0
 10
171.5069
 20
-49.595
 30
0.0
 10
164.3153
 20
-41.3473
 30
0.0
 10
159.0628
 20
-29.8291
 30
0.0
 10
159.0628
 20
-29.8291
 30
0.0
 10
163.0949
 20
-33.5291
 30
0.0
 10
167.2201
 20
-34.5498
 30
0.0
 10
171.5215
 20
-34.6192
 30
0.0
  0
SPLINE
  5
6F
330
1F
100
AcDbEntity
  8
layer 1
 62
     7
100
AcDbSpline
210
0.0
220
0.0
230
1.0
 70
    11
 71
     3
 72
    68
 73
    64
 74
     0
 42
0.0000000001
 43
0.0000000001
 12
1.0
 22
0.0
 32
0.0
 13
1.0
 23
0.0
 33
0.0
 40
0.0
 40
0.0
 40
0.0
 40
0.0
 40
0.0588235294117647
 40
0.0588235294117647
 40
0.0588235294117647
 40
0.0588235294117647
 40
0.1176470588235294
 40
0.1176470588235294
 40
0.1176470588235294
 40
0.1176470588235294
 40
0.1764705882352941
 40
0.1764705882352941
 40
0.1764705882352941
 40
0.1764705882352941
 40
0.2352941176470588
 40
0.2352941176470588
 40
0.2352941176470588
 40
0.2352941176470588
 40
0.2941176470588235
 40
0.2941176470588235
 40
0.2941176470588235
 40
0.2941176470588235
 40
0.3529411764705883
 40
0.3529411764705883
 40
0.3529411764705883
 40
0.3529411764705883
 40
0.4117647058823529
 40
0.4117647058823529
 40
0.4117647058823529
 40
0.4117647058823529
 40
0.4705882352941176
 40
0.4705882352941176
 40
0.4705882352941176
 40
0.4705882352941176
 40
0.5294117647058824
 40
0.5294117647058824
 40
0.5294117647058824
 40
0.5294117647058824
 40
0.5882352941176471
 40
0.5882352941176471
 40
0.5882352941176471
 40
0.5882352941176471
 40
0.6470588235294118
 40
0.6470588235294118
 40
0.6470588235294118
 40
0.6470588235294118
 40
0.7058823529411765
 40
0.7058823529411765
 40
0.7058823529411765
 40
0.7058823529411765
 40
0.7647058823529411
 40
0.7647058823529411
 40
0.7647058823529411
 40
0.7647058823529411
 40
0.8235294117647058
 40
0.8235294117647058
 40
0.8235294117647058
 40
0.8235294117647058
 40
0.8823529411764706
 40
0.8823529411764706
 40
0.8823529411764706
 40
0.8823529411764706
 40
1.0
 40
1.0
 40
1.0
 40
1.0
 10
122.2727
 20
-49.0903
 30
0.0
 10
122.2745
 20
-51.158
 30
0.0
 10
123.2524
 20
-53.654
 30
0.0
 10
124.2924
 20
-54.9045
 30
0.0
 10
124.2924
 20
-54.9045
 30
0.0
 10
125.8535
 20
-54.2551
 30
0.0
 10
127.1524
 20
-53.5558
 30
0.0
 10
128.3906
 20
-51.975
 30
0.0
 10
128.3906
 20
-51.975
 30
0.0
 10
128.6619
 20
-58.6817
 30
0.0
 10
131.7983
 20
-63.47
 30
0.0
 10
138.2441
 20
-63.4736
 30
0.0
 10
138.2441
 20
-63.4736
 30
0.0
 10
133.2881
 20
-66.5977
 30
0.0
 10
134.7278
 20
-73.8127
 30
0.0
 10
138.6008
 20
-74.692
 30
0.0
 10
138.6008
 20
-74.692
 30
0.0
 10
138.2835
 20
-74.7973
 30
0.0
 10
134.387
 20
-75.0774
 30
0.0
 10
132.9132
 20
-78.2726
 30
0.0
 10
132.9132
 20
-78.2726
 30
0.0
 10
133.2968
 20
-78.881
 30
0.0
 10
133.9107
 20
-79.272
 30
0.0
 10
134.5067
 20
-79.6091
 30
0.0
 10
134.5067
 20
-79.6091
 30
0.0
 10
133.6627
 20
-79.773
 30
0.0
 10
133.0617
 20
-79.8589
 30
0.0
 10
132.414
 20
-80.3335
 30
0.0
 10
132.414
 20
-80.3335
 30
0.0
 10
134.1623
 20
-81.9964
 30
0.0
 10
134.7547
 20
-83.6588
 30
0.0
 10
137.1183
 20
-85.3164
 30
0.0
 10
137.1183
 20
-85.3164
 30
0.0
 10
139.734
 20
-86.7332
 30
0.0
 10
139.645
 20
-88.312
 30
0.0
 10
138.5885
 20
-88.9648
 30
0.0
 10
138.5885
 20
-88.9648
 30
0.0
 10
137.7198
 20
-89.5018
 30
0.0
 10
135.966
 20
-87.5945
 30
0.0
 10
133.9107
 20
-84.3906
 30
0.0
 10
133.9107
 20
-84.3906
 30
0.0
 10
131.6842
 20
-79.7233
 30
0.0
 10
128.4085
 20
-78.0676
 30
0.0
 10
124.2499
 20
-77.7913
 30
0.0
 10
124.2499
 20
-77.7913
 30
0.0
 10
131.2433
 20
-75.1184
 30
0.0
 10
130.4957
 20
-67.8538
 30
0.0
 10
126.7706
 20
-63.6111
 30
0.0
 10
126.7706
 20
-63.6111
 30
0.0
 10
122.2371
 20
-59.5595
 30
0.0
 10
117.2473
 20
-59.2275
 30
0.0
 10
112.5193
 20
-60.5478
 30
0.0
 10
112.5193
 20
-60.5478
 30
0.0
 10
118.9455
 20
-55.5754
 30
0.0
 10
118.8098
 20
-51.87
 30
0.0
 10
119.1204
 20
-47.1063
 30
0.0
 10
119.1204
 20
-47.1063
 30
0.0
 10
119.2775
 20
-45.9147
 30
0.0
 10
119.852
 20
-45.5808
 30
0.0
 10
120.4389
 20
-45.5808
 30
0.0
 10
120.4389
 20
-45.5808
 30
0.0
 10
122.1266
 20
-45.2561
 30
0.0
 10
122.2604
 20
-47.663
 30
0.0
 10
122.2727
 20
-49.0903
 30
0.0
  0
SPLINE
  5
70
330
1F
100
AcDbEntity
  8
layer 1
 62
     7
100
AcDbSpline
210
0.0
220
0.0
230
1.0
 70
    11
 71
     3
 72
    40
 73
    36
 74
     0
 42
0.0000000001
 43
0.0000000001
 12
1.0
 22
0.0
 32
0.0
 13
1.0
 23
0.0
 33
0.0
 40
0.0
 40
0.0
 40
0.0
 40
0.0
 40
0.1
 40
0.1
 40
0.1
 40
0.1
 40
0.2
 40
0.2
 40
0.2
 40
0.2
 40
0.3
 40
0.3
 40
0.3
 40
0.3
 40
0.4
 40
0.4
 40
0.4
 40
0.4
 40
0.5
 40
0.5
 40
0.5
 40
0.5
 40
0.6
 40
0.6
 40
0.6
 40
0.6
 40
0.7
 40
0.7
 40
0.7
 40
0.7
 40
0.8
 40
0.8
 40
0.8
 40
0.8
 40
1.0
 40
1.0
 40
1.0
 40
1.0
 10
161.6178
 20
-79.3985
 30
0.0
 10
158.4134
 20
-82.9953
 30
0.0
 10
156.0265
 20
-84.7547
 30
0.0
 10
151.4482
 20
-84.7455
 30
0.0
 10
151.4482
 20
-84.7455
 30
0.0
 10
147.113
 20
-84.2262
 30
0.0
 10
144.2958
 20
-83.0327
 30
0.0
 10
141.1522
 20
-80.2905
 30
0.0
 10
141.1522
 20
-80.2905
 30
0.0
 10
143.7696
 20
-79.5502
 30
0.0
 10
145.2861
 20
-79.008
 30
0.0
 10
147.7304
 20
-77.2807
 30
0.0
 10
147.7304
 20
-77.2807
 30
0.0
 10
146.426
 20
-79.4273
 30
0.0
 10
146.4082
 20
-81.0487
 30
0.0
 10
146.105
 20
-82.2905
 30
0.0
 10
146.105
 20
-82.2905
 30
0.0
 10
148.881
 20
-83.2149
 30
0.0
 10
152.485
 20
-80.851
 30
0.0
 10
153.568
 20
-79.199
 30
0.0
 10
153.568
 20
-79.199
 30
0.0
 10
155.0628
 20
-76.3886
 30
0.0
 10
154.5599
 20
-72.9809
 30
0.0
 10
156.5207
 20
-70.4585
 30
0.0
 10
156.5207
 20
-70.4585
 30
0.0
 10
156.7545
 20
-73.8698
 30
0.0
 10
157.5324
 20
-75.6127
 30
0.0
 10
158.2586
 20
-76.2192
 30
0.0
 10
158.2586
 20
-76.2192
 30
0.0
 10
167.7763
 20
-69.7089
 30
0.0
 10
163.7
 20
-53.6307
 30
0.0
 10
161.9512
 20
-44.1284
 30
0.0
 10
161.9512
 20
-44.1284
 30
0.0
 10
166.7972
 20
-52.7601
 30
0.0
 10
170.2902
 20
-70.0803
 30
0.0
 10
161.6178
 20
-79.3985
 30
0.0
  0
SPLINE
  5
71
330
1F
100
AcDbEntity
  8
layer 1
 62
     7
100
AcDbSpline
210
0.0
220
0.0
230
1.0
 70
    11
 71
     3
 72
    36
 73
    32
 74
     0
 42
0.0000000001
 43
0.0000000001
 12
1.0
 22
0.0
 32
0.0
 13
1.0
 23
0.0
 33
0.0
 40
0.0
 40
0.0
 40
0.0
 40
0.0
 40
0.1111111111111111
 40
0.1111111111111111
 40
0.1111111111111111
 40
0.1111111111111111
 40
0.2222222222222222
 40
0.2222222222222222
 40
0.2222222222222222
 40
0.2222222222222222
 40
0.3333333333333333
 40
0.3333333333333333
 40
0.3333333333333333
 40
0.3333333333333333
 40
0.4444444444444444
 40
0.4444444444444444
 40
0.4444444444444444
 40
0.4444444444444444
 40
0.5555555555555556
 40
0.5555555555555556
 40
0.5555555555555556
 40
0.5555555555555556
 40
0.6666666666666666
 40
0.6666666666666666
 40
0.6666666666666666
 40
0.6666666666666666
 40
0.7777777777777778
 40
0.7777777777777778
 40
0.7777777777777778
 40
0.7777777777777778
 40
1.0
 40
1.0
 40
1.0
 40
1.0
 10
190.3205
 20
-49.0707
 30
0.0
 10
190.3205
 20
-49.0707
 30
0.0
 10
190.4987
 20
-79.8104
 30
0.0
 10
190.4987
 20
-79.8104
 30
0.0
 10
190.4987
 20
-79.8104
 30
0.0
 10
187.8547
 20
-76.733
 30
0.0
 10
186.3241
 20
-74.8011
 30
0.0
 10
183.3537
 20
-73.809
 30
0.0
 10
183.3537
 20
-73.809
 30
0.0
 10
180.5579
 20
-72.9686
 30
0.0
 10
180.2474
 20
-72.1853
 30
0.0
 10
182.0958
 20
-70.6421
 30
0.0
 10
182.0958
 20
-70.6421
 30
0.0
 10
184.183
 20
-69.3486
 30
0.0
 10
185.2591
 20
-67.661
 30
0.0
 10
185.3002
 20
-65.3006
 30
0.0
 10
185.3002
 20
-65.3006
 30
0.0
 10
184.5581
 20
-60.9402
 30
0.0
 10
181.5463
 20
-60.1962
 30
0.0
 10
178.062
 20
-60.1962
 30
0.0
 10
178.062
 20
-60.1962
 30
0.0
 10
182.5686
 20
-66.0318
 30
0.0
 10
174.2135
 20
-68.4155
 30
0.0
 10
171.8764
 20
-61.6344
 30
0.0
 10
171.8764
 20
-61.6344
 30
0.0
 10
171.0237
 20
-59.9268
 30
0.0
 10
168.9684
 20
-52.6889
 30
0.0
 10
168.3993
 20
-49.1314
 30
0.0
 10
168.3993
 20
-49.1314
 30
0.0
 10
177.5248
 20
-55.5841
 30
0.0
 10
184.9166
 20
-56.6136
 30
0.0
 10
190.3205
 20
-49.0707
 30
0.0
  0
SPLINE
  5
72
330
1F
100
AcDbEntity
  8
layer 1
 62
     7
100
AcDbSpline
210
0.0
220
0.0
230
1.0
 70
    11
 71
     3
 72
    32
 73
    28
 74
     0
 42
0.0000000001
 43
0.0000000001
 12
1.0
 22
0.0
 32
0.0
 13
1.0
 23
0.0
 33
0.0
 40
0.0
 40
0.0
 40
0.0
 40
0.0
 40
0.125
 40
0.125
 40
0.125
 40
0.125
 40
0.25
 40
0.25
 40
0.25
 40
0.25
 40
0.375
 40
0.375
 40
0.375
 40
0.375
 40
0.5
 40
0.5
 40
0.5
 40
0.5
 40
0.625
 40
0.625
 40
0.625
 40
0.625
 40
0.75
 40
0.75
 40
0.75
 40
0.75
 40
1.0
 40
1.0
 40
1.0
 40
1.0
 10
124.6496
 20
-71.504
 30
0.0
 10
121.2561
 20
-68.7494
 30
0.0
 10
117.9552
 20
-70.7563
 30
0.0
 10
117.9552
 20
-73.8963
 30
0.0
 10
117.9552
 20
-73.8963
 30
0.0
 10
118.0412
 20
-76.3192
 30
0.0
 10
119.3432
 20
-77.3345
 30
0.0
 10
121.5396
 20
-78.121
 30
0.0
 10
121.5396
 20
-78.121
 30
0.0
 10
120.084
 20
-78.7189
 30
0.0
 10
119.2775
 20
-80.892
 30
0.0
 10
119.4899
 20
-82.5066
 30
0.0
 10
119.4899
 20
-82.5066
 30
0.0
 10
110.5119
 20
-80.3548
 30
0.0
 10
107.1582
 20
-90.5779
 30
0.0
 10
110.3731
 20
-96.6132
 30
0.0
 10
110.3731
 20
-96.6132
 30
0.0
 10
107.1938
 20
-94.9383
 30
0.0
 10
107.7789
 20
-88.5368
 30
0.0
 10
108.3
 20
-85.5428
 30
0.0
 10
108.3
 20
-85.5428
 30
0.0
 10
110.6622
 20
-77.3254
 30
0.0
 10
105.602
 20
-69.502
 30
0.0
 10
113.8232
 20
-65.6216
 30
0.0
 10
113.8232
 20
-65.6216
 30
0.0
 10
118.7513
 20
-63.5737
 30
0.0
 10
125.8124
 20
-66.3835
 30
0.0
 10
124.6496
 20
-71.504
 30
0.0
  0
SPLINE
  5
73
330
1F
100
AcDbEntity
  8
layer 1
 62
     7
100
AcDbSpline
210
0.0
220
0.0
230
1.0
 70
    11
 71
     3
 72
    24
 73
    20
 74
     0
 42
0.0000000001
 43
0.0000000001
 12
1.0
 22
0.0
 32
0.0
 13
1.0
 23
0.0
 33
0.0
 40
0.0
 40
0.0
 40
0.0
 40
0.0
 40
0.1666666666666667
 40
0.1666666666666667
 40
0.1666666666666667
 40
0.1666666666666667
 40
0.3333333333333333
 40
0.3333333333333333
 40
0.3333333333333333
 40
0.3333333333333333
 40
0.5
 40
0.5
 40
0.5
 40
0.5
 40
0.6666666666666666
 40
0.6666666666666666
 40
0.6666666666666666
 40
0.6666666666666666
 40
1.0
 40
1.0
 40
1.0
 40
1.0
 10
105.8432
 20
-76.4672
 30
0.0
 10
105.8076
 20
-79.8589
 30
0.0
 10
106.7174
 20
-81.2899
 30
0.0
 10
105.4345
 20
-85.7712
 30
0.0
 10
105.4345
 20
-85.7712
 30
0.0
 10
104.7229
 20
-90.8204
 30
0.0
 10
105.7505
 20
-94.0034
 30
0.0
 10
106.7457
 20
-96.8506
 30
0.0
 10
106.7457
 20
-96.8506
 30
0.0
 10
103.9807
 20
-94.7684
 30
0.0
 10
101.7039
 20
-87.4735
 30
0.0
 10
101.449
 20
-81.8822
 30
0.0
 10
101.449
 20
-81.8822
 30
0.0
 10
101.1526
 20
-75.3683
 30
0.0
 10
103.645
 20
-68.8562
 30
0.0
 10
108.1711
 20
-65.2079
 30
0.0
 10
108.1711
 20
-65.2079
 30
0.0
 10
106.0752
 20
-70.5978
 30
0.0
 10
105.8126
 20
-73.7766
 30
0.0
 10
105.8432
 20
-76.4672
 30
0.0
  0
SPLINE
  5
74
330
1F
100
AcDbEntity
  8
layer 1
 62
     7
100
AcDbSpline
210
0.0
220
0.0
230
1.0
 70
    11
 71
     3
 72
    20
 73
    16
 74
     0
 42
0.0000000001
 43
0.0000000001
 12
1.0
 22
0.0
 32
0.0
 13
1.0
 23
0.0
 33
0.0
 40
0.0
 40
0.0
 40
0.0
 40
0.0
 40
0.2
 40
0.2
 40
0.2
 40
0.2
 40
0.4
 40
0.4
 40
0.4
 40
0.4
 40
0.6
 40
0.6
 40
0.6
 40
0.6
 40
1.0
 40
1.0
 40
1.0
 40
1.0
 10
180.8201
 20
-77.3058
 30
0.0
 10
183.9442
 20
-78.0086
 30
0.0
 10
186.2009
 20
-80.2585
 30
0.0
 10
186.2009
 20
-80.9596
 30
0.0
 10
186.2009
 20
-80.9596
 30
0.0
 10
184.4347
 20
-80.3353
 30
0.0
 10
182.3561
 20
-78.9865
 30
0.0
 10
179.8139
 20
-79.1757
 30
0.0
 10
179.8139
 20
-79.1757
 30
0.0
 10
170.8237
 20
-78.933
 30
0.0
 10
168.0441
 20
-72.0428
 30
0.0
 10
170.524
 20
-68.8741
 30
0.0
 10
170.524
 20
-68.8741
 30
0.0
 10
172.9361
 20
-74.6298
 30
0.0
 10
175.755
 20
-76.0836
 30
0.0
 10
180.8201
 20
-77.3058
 30
0.0
  0
SPLINE
  5
75
330
1F
100
AcDbEntity
  8
layer 1
 62
     7
100
AcDbSpline
210
0.0
220
0.0
230
1.0
 70
    11
 71
     3
 72
    20
 73
    16
 74
     0
 42
0.0000000001
 43
0.0000000001
 12
1.0
 22
0.0
 32
0.0
 13
1.0
 23
0.0
 33
0.0
 40
0.0
 40
0.0
 40
0.0
 40
0.0
 40
0.2
 40
0.2
 40
0.2
 40
0.2
 40
0.4
 40
0.4
 40
0.4
 40
0.4
 40
0.6
 40
0.6
 40
0.6
 40
0.6
 40
1.0
 40
1.0
 40
1.0
 40
1.0
 10
97.8983
 20
-82.3404
 30
0.0
 10
95.6613
 20
-79.2469
 30
0.0
 10
94.7369
 20
-78.3586
 30
0.0
 10
90.805
 20
-76.3763
 30
0.0
 10
90.805
 20
-76.3763
 30
0.0
 10
85.3223
 20
-73.4162
 30
0.0
 10
77.8365
 20
-73.0864
 30
0.0
 10
76.4928
 20
-70.0177
 30
0.0
 10
76.4928
 20
-70.0177
 30
0.0
 10
80.6408
 20
-71.741
 30
0.0
 10
86.1092
 20
-71.7913
 30
0.0
 10
90.7031
 20
-73.6359
 30
0.0
 10
90.7031
 20
-73.6359
 30
0.0
 10
97.301
 20
-76.1174
 30
0.0
 10
98.1789
 20
-80.5134
 30
0.0
 10
97.8983
 20
-82.3404
 30
0.0
  0
SPLINE
  5
76
330
1F
100
AcDbEntity
  8
layer 1
 62
     7
100
AcDbSpline
210
0.0
220
0.0
230
1.0
 70
    11
 71
     3
 72
    44
 73
    40
 74
     0
 42
0.0000000001
 43
0.0000000001
 12
1.0
 22
0.0
 32
0.0
 13
1.0
 23
0.0
 33
0.0
 40
0.0
 40
0.0
 40
0.0
 40
0.0
 40
0.0909090909090909
 40
0.0909090909090909
 40
0.0909090909090909
 40
0.0909090909090909
 40
0.1818181818181818
 40
0.1818181818181818
 40
0.1818181818181818
 40
0.1818181818181818
 40
0.2727272727272727
 40
0.2727272727272727
 40
0.2727272727272727
 40
0.2727272727272727
 40
0.3636363636363636
 40
0.3636363636363636
 40
0.3636363636363636
 40
0.3636363636363636
 40
0.4545454545454545
 40
0.4545454545454545
 40
0.4545454545454545
 40
0.4545454545454545
 40
0.5454545454545454
 40
0.5454545454545454
 40
0.5454545454545454
 40
0.5454545454545454
 40
0.6363636363636364
 40
0.6363636363636364
 40
0.6363636363636364
 40
0.6363636363636364
 40
0.7272727272727273
 40
0.7272727272727273
 40
0.7272727272727273
 40
0.7272727272727273
 40
0.8181818181818182
 40
0.8181818181818182
 40
0.8181818181818182
 40
0.8181818181818182
 40
1.0
 40
1.0
 40
1.0
 40
1.0
 10
84.0772
 20
-76.5384
 30
0.0
 10
88.5175
 20
-76.7563
 30
0.0
 10
87.806
 20
-79.6269
 30
0.0
 10
84.2038
 20
-81.0112
 30
0.0
 10
84.2038
 20
-81.0112
 30
0.0
 10
80.9477
 20
-82.6295
 30
0.0
 10
79.1085
 20
-86.8701
 30
0.0
 10
79.9041
 20
-88.5866
 30
0.0
 10
79.9041
 20
-88.5866
 30
0.0
 10
81.2049
 20
-89.4127
 30
0.0
 10
83.8503
 20
-88.9095
 30
0.0
 10
87.5059
 20
-87.1415
 30
0.0
 10
87.5059
 20
-87.1415
 30
0.0
 10
92.4642
 20
-84.7436
 30
0.0
 10
93.4115
 20
-84.7865
 30
0.0
 10
96.4017
 20
-87.5412
 30
0.0
 10
96.4017
 20
-87.5412
 30
0.0
 10
98.6749
 20
-89.384
 30
0.0
 10
100.6744
 20
-95.4608
 30
0.0
 10
101.265
 20
-96.2921
 30
0.0
 10
101.265
 20
-96.2921
 30
0.0
 10
101.686
 20
-96.9557
 30
0.0
 10
100.9868
 20
-97.3038
 30
0.0
 10
100.5571
 20
-96.9292
 30
0.0
 10
100.5571
 20
-96.9292
 30
0.0
 10
89.9773
 20
-89.1771
 30
0.0
 10
81.0012
 20
-86.6313
 30
0.0
 10
72.8997
 20
-95.9317
 30
0.0
 10
72.8997
 20
-95.9317
 30
0.0
 10
72.8997
 20
-95.9317
 30
0.0
 10
72.8997
 20
-73.2541
 30
0.0
 10
72.8997
 20
-73.2541
 30
0.0
 10
72.8997
 20
-73.2541
 30
0.0
 10
74.0378
 20
-72.0822
 30
0.0
 10
75.3633
 20
-74.6206
 30
0.0
 10
77.6437
 20
-75.8128
 30
0.0
 10
77.6437
 20
-75.8128
 30
0.0
 10
79.5205
 20
-76.7955
 30
0.0
 10
82.2768
 20
-76.364
 30
0.0
 10
84.0772
 20
-76.5384
 30
0.0
  0
SPLINE
  5
77
330
1F
100
AcDbEntity
  8
layer 1
 62
     7
100
AcDbSpline
210
0.0
220
0.0
230
1.0
 70
    11
 71
     3
 72
    44
 73
    40
 74
     0
 42
0.0000000001
 43
0.0000000001
 12
1.0
 22
0.0
 32
0.0
 13
1.0
 23
0.0
 33
0.0
 40
0.0
 40
0.0
 40
0.0
 40
0.0
 40
0.0909090909090909
 40
0.0909090909090909
 40
0.0909090909090909
 40
0.0909090909090909
 40
0.1818181818181818
 40
0.1818181818181818
 40
0.1818181818181818
 40
0.1818181818181818
 40
0.2727272727272727
 40
0.2727272727272727
 40
0.2727272727272727
 40
0.2727272727272727
 40
0.3636363636363636
 40
0.3636363636363636
 40
0.3636363636363636
 40
0.3636363636363636
 40
0.4545454545454545
 40
0.4545454545454545
 40
0.4545454545454545
 40
0.4545454545454545
 40
0.5454545454545454
 40
0.5454545454545454
 40
0.5454545454545454
 40
0.5454545454545454
 40
0.6363636363636364
 40
0.6363636363636364
 40
0.6363636363636364
 40
0.6363636363636364
 40
0.7272727272727273
 40
0.7272727272727273
 40
0.7272727272727273
 40
0.7272727272727273
 40
0.8181818181818182
 40
0.8181818181818182
 40
0.8181818181818182
 40
0.8181818181818182
 40
1.0
 40
1.0
 40
1.0
 40
1.0
 10
127.2863
 20
-86.5939
 30
0.0
 10
128.4299
 20
-90.3637
 30
0.0
 10
129.2561
 20
-91.6234
 30
0.0
 10
133.6805
 20
-93.9924
 30
0.0
 10
133.6805
 20
-93.9924
 30
0.0
 10
135.2005
 20
-95.0844
 30
0.0
 10
134.3373
 20
-96.2103
 30
0.0
 10
132.6884
 20
-95.2022
 30
0.0
 10
132.6884
 20
-95.2022
 30
0.0
 10
128.7921
 20
-92.2459
 30
0.0
 10
126.7314
 20
-91.6769
 30
0.0
 10
122.7294
 20
-91.1292
 30
0.0
 10
122.7294
 20
-91.1292
 30
0.0
 10
121.6681
 20
-99.7801
 30
0.0
 10
131.3539
 20
-103.2554
 30
0.0
 10
138.7137
 20
-103.666
 30
0.0
 10
138.7137
 20
-103.666
 30
0.0
 10
127.8466
 20
-107.6765
 30
0.0
 10
113.6734
 20
-102.8918
 30
0.0
 10
112.3424
 20
-92.1176
 30
0.0
 10
112.3424
 20
-92.1176
 30
0.0
 10
112.0963
 20
-88.6331
 30
0.0
 10
114.4228
 20
-85.8283
 30
0.0
 10
117.4008
 20
-86.767
 30
0.0
 10
117.4008
 20
-86.767
 30
0.0
 10
115.7949
 20
-87.5895
 30
0.0
 10
114.7759
 20
-90.1157
 30
0.0
 10
116.3352
 20
-91.7087
 30
0.0
 10
116.3352
 20
-91.7087
 30
0.0
 10
119.3561
 20
-94.7292
 30
0.0
 10
124.15
 20
-89.8444
 30
0.0
 10
122.0855
 20
-85.8498
 30
0.0
 10
122.0855
 20
-85.8498
 30
0.0
 10
121.14
 20
-84.0229
 30
0.0
 10
121.1652
 20
-82.7332
 30
0.0
 10
122.1585
 20
-82.1548
 30
0.0
 10
122.1585
 20
-82.1548
 30
0.0
 10
125.7521
 20
-80.9081
 30
0.0
 10
126.6368
 20
-84.4956
 30
0.0
 10
127.2863
 20
-86.5939
 30
0.0
  0
SPLINE
  5
78
330
1F
100
AcDbEntity
  8
layer 1
 62
     7
100
AcDbSpline
210
0.0
220
0.0
230
1.0
 70
    11
 71
     3
 72
    12
 73
     8
 74
     0
 42
0.0000000001
 43
0.0000000001
 12
1.0
 22
0.0
 32
0.0
 13
1.0
 23
0.0
 33
0.0
 40
0.0
 40
0.0
 40
0.0
 40
0.0
 40
0.3333333333333333
 40
0.3333333333333333
 40
0.3333333333333333
 40
0.3333333333333333
 40
1.0
 40
1.0
 40
1.0
 40
1.0
 10
156.2567
 20
-87.7251
 30
0.0
 10
145.5304
 20
-91.4539
 30
0.0
 10
138.2067
 20
-85.8982
 30
0.0
 10
137.033
 20
-80.7386
 30
0.0
 10
137.033
 20
-80.7386
 30
0.0
 10
142.1834
 20
-85.1739
 30
0.0
 10
147.3432
 20
-88.3797
 30
0.0
 10
156.2567
 20
-87.7251
 30
0.0
  0
SPLINE
  5
79
330
1F
100
AcDbEntity
  8
layer 1
 62
     7
100
AcDbSpline
210
0.0
220
0.0
230
1.0
 70
    11
 71
     3
 72
    52
 73
    48
 74
     0
 42
0.0000000001
 43
0.0000000001
 12
1.0
 22
0.0
 32
0.0
 13
1.0
 23
0.0
 33
0.0
 40
0.0
 40
0.0
 40
0.0
 40
0.0
 40
0.0769230769230769
 40
0.0769230769230769
 40
0.0769230769230769
 40
0.0769230769230769
 40
0.1538461538461539
 40
0.1538461538461539
 40
0.1538461538461539
 40
0.1538461538461539
 40
0.2307692307692308
 40
0.2307692307692308
 40
0.2307692307692308
 40
0.2307692307692308
 40
0.3076923076923077
 40
0.3076923076923077
 40
0.3076923076923077
 40
0.3076923076923077
 40
0.3846153846153846
 40
0.3846153846153846
 40
0.3846153846153846
 40
0.3846153846153846
 40
0.4615384615384616
 40
0.4615384615384616
 40
0.4615384615384616
 40
0.4615384615384616
 40
0.5384615384615384
 40
0.5384615384615384
 40
0.5384615384615384
 40
0.5384615384615384
 40
0.6153846153846154
 40
0.6153846153846154
 40
0.6153846153846154
 40
0.6153846153846154
 40
0.6923076923076923
 40
0.6923076923076923
 40
0.6923076923076923
 40
0.6923076923076923
 40
0.7692307692307693
 40
0.7692307692307693
 40
0.7692307692307693
 40
0.7692307692307693
 40
0.8461538461538461
 40
0.8461538461538461
 40
0.8461538461538461
 40
0.8461538461538461
 40
1.0
 40
1.0
 40
1.0
 40
1.0
 10
185.4568
 20
-85.115
 30
0.0
 10
188.5704
 20
-84.7258
 30
0.0
 10
189.8497
 20
-84.824
 30
0.0
 10
190.4987
 20
-86.6866
 30
0.0
 10
190.4987
 20
-86.6866
 30
0.0
 10
190.4987
 20
-86.6866
 30
0.0
 10
190.4987
 20
-108.738
 30
0.0
 10
190.4987
 20
-108.738
 30
0.0
 10
190.4987
 20
-108.738
 30
0.0
 10
190.4987
 20
-108.738
 30
0.0
 10
182.1671
 20
-108.5722
 30
0.0
 10
182.1671
 20
-108.5722
 30
0.0
 10
182.1671
 20
-108.5722
 30
0.0
 10
178.7648
 20
-108.738
 30
0.0
 10
176.9453
 20
-105.2965
 30
0.0
 10
180.4365
 20
-105.6568
 30
0.0
 10
180.4365
 20
-105.6568
 30
0.0
 10
185.2162
 20
-105.9835
 30
0.0
 10
187.6711
 20
-104.1136
 30
0.0
 10
188.7896
 20
-102.4081
 30
0.0
 10
188.7896
 20
-102.4081
 30
0.0
 10
189.4926
 20
-101.3339
 30
0.0
 10
189.4944
 20
-101.1878
 30
0.0
 10
188.8093
 20
-100.5026
 30
0.0
 10
188.8093
 20
-100.5026
 30
0.0
 10
184.447
 20
-97.7605
 30
0.0
 10
181.6642
 20
-102.1264
 30
0.0
 10
182.4757
 20
-97.4449
 30
0.0
 10
182.4757
 20
-97.4449
 30
0.0
 10
182.5991
 20
-95.27
 30
0.0
 10
180.9417
 20
-92.8365
 30
0.0
 10
178.2725
 20
-93.1292
 30
0.0
 10
178.2725
 20
-93.1292
 30
0.0
 10
176.7684
 20
-92.8241
 30
0.0
 10
176.7274
 20
-92.1797
 30
0.0
 10
177.0398
 20
-90.0408
 30
0.0
 10
177.0398
 20
-90.0408
 30
0.0
 10
177.2859
 20
-88.0997
 30
0.0
 10
176.3707
 20
-86.6135
 30
0.0
 10
175.7391
 20
-85.5913
 30
0.0
 10
175.7391
 20
-85.5913
 30
0.0
 10
174.0742
 20
-83.0825
 30
0.0
 10
176.0386
 20
-81.784
 30
0.0
 10
177.6961
 20
-82.9756
 30
0.0
 10
177.6961
 20
-82.9756
 30
0.0
 10
180.1118
 20
-84.0979
 30
0.0
 10
183.2198
 20
-85.3844
 30
0.0
 10
185.4568
 20
-85.115
 30
0.0
  0
SPLINE
  5
7A
330
1F
100
AcDbEntity
  8
layer 1
 62
     7
100
AcDbSpline
210
0.0
220
0.0
230
1.0
 70
    11
 71
     3
 72
    12
 73
     8
 74
     0
 42
0.0000000001
 43
0.0000000001
 12
1.0
 22
0.0
 32
0.0
 13
1.0
 23
0.0
 33
0.0
 40
0.0
 40
0.0
 40
0.0
 40
0.0
 40
0.3333333333333333
 40
0.3333333333333333
 40
0.3333333333333333
 40
0.3333333333333333
 40
1.0
 40
1.0
 40
1.0
 40
1.0
 10
153.0093
 20
-91.9266
 30
0.0
 10
144.3904
 20
-97.1182
 30
0.0
 10
131.3736
 20
-93.4823
 30
0.0
 10
130.2336
 20
-85.0757
 30
0.0
 10
130.2336
 20
-85.0757
 30
0.0
 10
136.3263
 20
-93.1397
 30
0.0
 10
146.0159
 20
-92.7561
 30
0.0
 10
153.0093
 20
-91.9266
 30
0.0
  0
SPLINE
  5
7B
330
1F
100
AcDbEntity
  8
layer 1
 62
     7
100
AcDbSpline
210
0.0
220
0.0
230
1.0
 70
    11
 71
     3
 72
    28
 73
    24
 74
     0
 42
0.0000000001
 43
0.0000000001
 12
1.0
 22
0.0
 32
0.0
 13
1.0
 23
0.0
 33
0.0
 40
0.0
 40
0.0
 40
0.0
 40
0.0
 40
0.1428571428571428
 40
0.1428571428571428
 40
0.1428571428571428
 40
0.1428571428571428
 40
0.2857142857142857
 40
0.2857142857142857
 40
0.2857142857142857
 40
0.2857142857142857
 40
0.4285714285714285
 40
0.4285714285714285
 40
0.4285714285714285
 40
0.4285714285714285
 40
0.5714285714285714
 40
0.5714285714285714
 40
0.5714285714285714
 40
0.5714285714285714
 40
0.7142857142857143
 40
0.7142857142857143
 40
0.7142857142857143
 40
0.7142857142857143
 40
1.0
 40
1.0
 40
1.0
 40
1.0
 10
160.9757
 20
-108.151
 30
0.0
 10
162.3706
 20
-107.2358
 30
0.0
 10
162.7025
 20
-105.8035
 30
0.0
 10
163.616
 20
-104.531
 30
0.0
 10
163.616
 20
-104.531
 30
0.0
 10
164.8794
 20
-102.7809
 30
0.0
 10
165.6001
 20
-102.5082
 30
0.0
 10
167.3036
 20
-104.4099
 30
0.0
 10
167.3036
 20
-104.4099
 30
0.0
 10
168.4651
 20
-105.7464
 30
0.0
 10
169.3502
 20
-107.2965
 30
0.0
 10
170.5437
 20
-108.738
 30
0.0
 10
170.5437
 20
-108.738
 30
0.0
 10
170.5437
 20
-108.738
 30
0.0
 10
134.6333
 20
-108.722
 30
0.0
 10
134.6333
 20
-108.722
 30
0.0
 10
134.6333
 20
-108.722
 30
0.0
 10
144.7955
 20
-107.2179
 30
0.0
 10
155.2236
 20
-99.4572
 30
0.0
 10
160.1174
 20
-92.155
 30
0.0
 10
160.1174
 20
-92.155
 30
0.0
 10
158.5066
 20
-96.9077
 30
0.0
 10
156.9793
 20
-104.1871
 30
0.0
 10
160.9757
 20
-108.151
 30
0.0
  0
SPLINE
  5
7C
330
1F
100
AcDbEntity
  8
layer 1
 62
     7
100
AcDbSpline
210
0.0
220
0.0
230
1.0
 70
    11
 71
     3
 72
    36
 73
    32
 74
     0
 42
0.0000000001
 43
0.0000000001
 12
1.0
 22
0.0
 32
0.0
 13
1.0
 23
0.0
 33
0.0
 40
0.0
 40
0.0
 40
0.0
 40
0.0
 40
0.1111111111111111
 40
0.1111111111111111
 40
0.1111111111111111
 40
0.1111111111111111
 40
0.2222222222222222
 40
0.2222222222222222
 40
0.2222222222222222
 40
0.2222222222222222
 40
0.3333333333333333
 40
0.3333333333333333
 40
0.3333333333333333
 40
0.3333333333333333
 40
0.4444444444444444
 40
0.4444444444444444
 40
0.4444444444444444
 40
0.4444444444444444
 40
0.5555555555555556
 40
0.5555555555555556
 40
0.5555555555555556
 40
0.5555555555555556
 40
0.6666666666666666
 40
0.6666666666666666
 40
0.6666666666666666
 40
0.6666666666666666
 40
0.7777777777777778
 40
0.7777777777777778
 40
0.7777777777777778
 40
0.7777777777777778
 40
1.0
 40
1.0
 40
1.0
 40
1.0
 10
96.2391
 20
-98.9539
 30
0.0
 10
104.537
 20
-102.3976
 30
0.0
 10
113.4775
 20
-106.822
 30
0.0
 10
117.693
 20
-108.722
 30
0.0
 10
117.693
 20
-108.722
 30
0.0
 10
117.693
 20
-108.722
 30
0.0
 10
72.9476
 20
-108.9503
 30
0.0
 10
72.9476
 20
-108.9503
 30
0.0
 10
72.9476
 20
-108.9503
 30
0.0
 10
73.1353
 20
-106.8773
 30
0.0
 10
72.6731
 20
-104.3973
 30
0.0
 10
72.9673
 20
-102.5169
 30
0.0
 10
72.9673
 20
-102.5169
 30
0.0
 10
75.3012
 20
-107.7103
 30
0.0
 10
80.3842
 20
-109.5838
 30
0.0
 10
84.5175
 20
-107.7318
 30
0.0
 10
84.5175
 20
-107.7318
 30
0.0
 10
87.954
 20
-106.0675
 30
0.0
 10
89.1192
 20
-102.2816
 30
0.0
 10
86.7802
 20
-99.7052
 30
0.0
 10
86.7802
 20
-99.7052
 30
0.0
 10
84.2001
 20
-97.2969
 30
0.0
 10
81.0711
 20
-99.65
 30
0.0
 10
81.3008
 20
-103.6586
 30
0.0
 10
81.3008
 20
-103.6586
 30
0.0
 10
78.4646
 20
-102.1405
 30
0.0
 10
78.5002
 20
-97.4535
 30
0.0
 10
81.7986
 20
-96.0194
 30
0.0
 10
81.7986
 20
-96.0194
 30
0.0
 10
86.9725
 20
-94.7971
 30
0.0
 10
90.9904
 20
-96.7935
 30
0.0
 10
96.2391
 20
-98.9539
 30
0.0
  0
SPLINE
  5
7D
330
1F
100
AcDbEntity
  8
layer 1
 62
     7
100
AcDbSpline
210
0.0
220
0.0
230
1.0
 70
    11
 71
     3
 72
    12
 73
     8
 74
     0
 42
0.0000000001
 43
0.0000000001
 12
1.0
 22
0.0
 32
0.0
 13
1.0
 23
0.0
 33
0.0
 40
0.0
 40
0.0
 40
0.0
 40
0.0
 40
0.3333333333333333
 40
0.3333333333333333
 40
0.3333333333333333
 40
0.3333333333333333
 40
1.0
 40
1.0
 40
1.0
 40
1.0
 10
152.644
 20
-95.8961
 30
0.0
 10
145.065
 20
-103.7354
 30
0.0
 10
132.1176
 20
-101.698
 30
0.0
 10
128.1856
 20
-95.971
 30
0.0
 10
128.1856
 20
-95.971
 30
0.0
 10
136.9311
 20
-99.9569
 30
0.0
 10
144.7636
 20
-98.7525
 30
0.0
 10
152.644
 20
-95.8961
 30
0.0
  0
SPLINE
  5
7E
330
1F
100
AcDbEntity
  8
layer 1
 62
     7
100
AcDbSpline
210
0.0
220
0.0
230
1.0
 70
    11
 71
     3
 72
    32
 73
    28
 74
     0
 42
0.0000000001
 43
0.0000000001
 12
1.0
 22
0.0
 32
0.0
 13
1.0
 23
0.0
 33
0.0
 40
0.0
 40
0.0
 40
0.0
 40
0.0
 40
0.125
 40
0.125
 40
0.125
 40
0.125
 40
0.25
 40
0.25
 40
0.25
 40
0.25
 40
0.375
 40
0.375
 40
0.375
 40
0.375
 40
0.5
 40
0.5
 40
0.5
 40
0.5
 40
0.625
 40
0.625
 40
0.625
 40
0.625
 40
0.75
 40
0.75
 40
0.75
 40
0.75
 40
1.0
 40
1.0
 40
1.0
 40
1.0
 10
166.7898
 20
-79.9123
 30
0.0
 10
167.6964
 20
-89.3072
 30
0.0
 10
171.9993
 20
-91.5484
 30
0.0
 10
174.3762
 20
-93.5842
 30
0.0
 10
174.3762
 20
-93.5842
 30
0.0
 10
173.5604
 20
-94.4903
 30
0.0
 10
171.9422
 20
-97.9212
 30
0.0
 10
172.8365
 20
-100.0957
 30
0.0
 10
172.8365
 20
-100.0957
 30
0.0
 10
173.4321
 20
-98.4529
 30
0.0
 10
174.4026
 20
-97.7015
 30
0.0
 10
175.7495
 20
-97.7015
 30
0.0
 10
175.7495
 20
-97.7015
 30
0.0
 10
177.8336
 20
-97.7015
 30
0.0
 10
178.4936
 20
-98.362
 30
0.0
 10
178.4936
 20
-100.4332
 30
0.0
 10
178.4936
 20
-100.4332
 30
0.0
 10
178.4936
 20
-102.5561
 30
0.0
 10
176.2154
 20
-103.6304
 30
0.0
 10
174.8434
 20
-103.6304
 30
0.0
 10
174.8434
 20
-103.6304
 30
0.0
 10
170.92
 20
-103.1399
 30
0.0
 10
169.5215
 20
-100.8255
 30
0.0
 10
168.0851
 20
-99.079
 30
0.0
 10
168.0851
 20
-99.079
 30
0.0
 10
164.344
 20
-94.508
 30
0.0
 10
164.6578
 20
-86.0874
 30
0.0
 10
166.7898
 20
-79.9123
 30
0.0
  0
SPLINE
  5
7F
330
1F
100
AcDbEntity
  8
layer 1
 62
     7
100
AcDbSpline
210
0.0
220
0.0
230
1.0
 70
    11
 71
     3
 72
    28
 73
    24
 74
     0
 42
0.0000000001
 43
0.0000000001
 12
1.0
 22
0.0
 32
0.0
 13
1.0
 23
0.0
 33
0.0
 40
0.0
 40
0.0
 40
0.0
 40
0.0
 40
0.1428571428571428
 40
0.1428571428571428
 40
0.1428571428571428
 40
0.1428571428571428
 40
0.2857142857142857
 40
0.2857142857142857
 40
0.2857142857142857
 40
0.2857142857142857
 40
0.4285714285714285
 40
0.4285714285714285
 40
0.4285714285714285
 40
0.4285714285714285
 40
0.5714285714285714
 40
0.5714285714285714
 40
0.5714285714285714
 40
0.5714285714285714
 40
0.7142857142857143
 40
0.7142857142857143
 40
0.7142857142857143
 40
0.7142857142857143
 40
1.0
 40
1.0
 40
1.0
 40
1.0
 10
141.4737
 20
-69.618
 30
0.0
 10
141.4737
 20
-65.5148
 30
0.0
 10
147.2344
 20
-66.1232
 30
0.0
 10
149.2413
 20
-68.2584
 30
0.0
 10
149.2413
 20
-68.2584
 30
0.0
 10
149.2021
 20
-65.7609
 30
0.0
 10
148.453
 20
-63.481
 30
0.0
 10
145.1381
 20
-62.3158
 30
0.0
 10
145.1381
 20
-62.3158
 30
0.0
 10
159.147
 20
-54.8976
 30
0.0
 10
153.0487
 20
-35.6328
 30
0.0
 10
148.8545
 20
-24.3177
 30
0.0
 10
148.8545
 20
-24.3177
 30
0.0
 10
156.4795
 20
-32.4356
 30
0.0
 10
161.1519
 20
-52.3856
 30
0.0
 10
156.1425
 20
-64.7119
 30
0.0
 10
156.1425
 20
-64.7119
 30
0.0
 10
154.1868
 20
-69.5144
 30
0.0
 10
150.5887
 20
-73.736
 30
0.0
 10
146.4978
 20
-73.736
 30
0.0
 10
146.4978
 20
-73.736
 30
0.0
 10
143.7391
 20
-73.736
 30
0.0
 10
141.4737
 20
-72.5567
 30
0.0
 10
141.4737
 20
-69.618
 30
0.0
  0
SPLINE
  5
80
330
1F
100
AcDbEntity
  8
layer 1
 62
     7
100
AcDbSpline
210
0.0
220
0.0
230
1.0
 70
    11
 71
     3
 72
    48
 73
    44
 74
     0
 42
0.0000000001
 43
0.0000000001
 12
1.0
 22
0.0
 32
0.0
 13
1.0
 23
0.0
 33
0.0
 40
0.0
 40
0.0
 40
0.0
 40
0.0
 40
0.0833333333333333
 40
0.0833333333333333
 40
0.0833333333333333
 40
0.0833333333333333
 40
0.1666666666666667
 40
0.1666666666666667
 40
0.1666666666666667
 40
0.1666666666666667
 40
0.25
 40
0.25
 40
0.25
 40
0.25
 40
0.3333333333333333
 40
0.3333333333333333
 40
0.3333333333333333
 40
0.3333333333333333
 40
0.4166666666666667
 40
0.4166666666666667
 40
0.4166666666666667
 40
0.4166666666666667
 40
0.5
 40
0.5
 40
0.5
 40
0.5
 40
0.5833333333333334
 40
0.5833333333333334
 40
0.5833333333333334
 40
0.5833333333333334
 40
0.6666666666666666
 40
0.6666666666666666
 40
0.6666666666666666
 40
0.6666666666666666
 40
0.75
 40
0.75
 40
0.75
 40
0.75
 40
0.8333333333333334
 40
0.8333333333333334
 40
0.8333333333333334
 40
0.8333333333333334
 40
1.0
 40
1.0
 40
1.0
 40
1.0
 10
125.3647
 20
-1.1638
 30
0.0
 10
124.0394
 20
-2.575
 30
0.0
 10
123.0382
 20
-3.8206
 30
0.0
 10
122.3641
 20
-4.8906
 30
0.0
 10
122.3641
 20
-4.8906
 30
0.0
 10
120.719
 20
-7.2068
 30
0.0
 10
121.6128
 20
-9.6955
 30
0.0
 10
122.5569
 20
-11.8717
 30
0.0
 10
122.5569
 20
-11.8717
 30
0.0
 10
123.0597
 20
-13.0246
 30
0.0
 10
123.5931
 20
-14.0914
 30
0.0
 10
123.8909
 20
-14.8067
 30
0.0
 10
123.8909
 20
-14.8067
 30
0.0
 10
124.2696
 20
-14.6857
 30
0.0
 10
126.2445
 20
-13.9344
 30
0.0
 10
127.5772
 20
-13.5599
 30
0.0
 10
127.5772
 20
-13.5599
 30
0.0
 10
129.4878
 20
-12.9191
 30
0.0
 10
130.6245
 20
-11.981
 30
0.0
 10
131.4484
 20
-10.011
 30
0.0
 10
131.4484
 20
-10.011
 30
0.0
 10
132.3532
 20
-7.8471
 30
0.0
 10
133.074
 20
-1.8401
 30
0.0
 10
131.7841
 20
-1.4565
 30
0.0
 10
131.7841
 20
-1.4565
 30
0.0
 10
131.0077
 20
-0.9764
 30
0.0
 10
130.842
 20
-1.4173
 30
0.0
 10
128.2481
 20
-5.9932
 30
0.0
 10
128.2481
 20
-5.9932
 30
0.0
 10
126.9867
 20
-7.9913
 30
0.0
 10
126.587
 20
-9.162
 30
0.0
 10
125.6663
 20
-10.7318
 30
0.0
 10
125.6663
 20
-10.7318
 30
0.0
 10
126.191
 20
-9.0172
 30
0.0
 10
126.2248
 20
-8.7034
 30
0.0
 10
126.9793
 20
-6.3518
 30
0.0
 10
126.9793
 20
-6.3518
 30
0.0
 10
127.7324
 20
-3.9987
 30
0.0
 10
128.3495
 20
-0.9052
 30
0.0
 10
128.3495
 20
-0.5303
 30
0.0
 10
128.3495
 20
-0.5303
 30
0.0
 10
128.3495
 20
0.6541
 30
0.0
 10
126.8136
 20
0.3796
 30
0.0
 10
125.3647
 20
-1.1638
 30
0.0
  0
ENDSEC
  0
SECTION
  2
OBJECTS
  0
DICTIONARY
  5
C
330
0
100
AcDbDictionary
281
     1
  3
ACAD_GROUP
350
D
  3
ACAD_LAYOUT
350
1A
  3
ACAD_MATERIAL
350
3B
  3
ACAD_MLEADERSTYLE
350
A3
  3
ACAD_MLINESTYLE
350
17
  3
ACAD_PLOTSETTINGS
350
19
  3
ACAD_PLOTSTYLENAME
350
E
  3
ACAD_TABLESTYLE
350
A2
  3
ACAD_VISUALSTYLE
350
2A
  0
DICTIONARY
  5
D
102
{ACAD_REACTORS
330
C
102
}
330
C
100
AcDbDictionary
281
     1
  0
DICTIONARY
  5
1A
102
{ACAD_REACTORS
330
C
102
}
330
C
100
AcDbDictionary
281
     1
  3
Layout1
350
1E
  3
Layout2
350
26
  3
Model
350
22
  0
DICTIONARY
  5
3B
102
{ACAD_REACTORS
330
C
102
}
330
C
100
AcDbDictionary
281
     1
  3
ByBlock
350
3D
  3
ByLayer
350
3C
  3
Global
350
3E
  0
DICTIONARY
  5
A3
102
{ACAD_REACTORS
330
C
102
}
330
C
100
AcDbDictionary
281
     1
  0
DICTIONARY
  5
17
102
{ACAD_REACTORS
330
C
102
}
330
C
100
AcDbDictionary
281
     1
  3
Standard
350
18
  0
DICTIONARY
  5
19
102
{ACAD_REACTORS
330
C
102
}
330
C
100
AcDbDictionary
281
     1
  0
ACDBDICTIONARYWDFLT
  5
E
102
{ACAD_REACTORS
330
C
102
}
330
C
100
AcDbDictionary
281
     1
  3
Normal
350
F
100
AcDbDictionaryWithDefault
340
F
  0
DICTIONARY
  5
A2
102
{ACAD_REACTORS
330
C
102
}
330
C
100
AcDbDictionary
281
     1
  0
DICTIONARY
  5
2A
102
{ACAD_REACTORS
330
C
102
}
330
C
100
AcDbDictionary
281
     1
  3
2dWireframe
350
2F
  3
3D Hidden
350
31
  3
3dWireframe
350
30
  3
Basic
350
32
  3
Brighten
350
36
  3
ColorChange
350
3A
  3
Conceptual
350
34
  3
Dim
350
35
  3
Facepattern
350
39
  3
Flat
350
2B
  3
FlatWithEdges
350
2C
  3
Gouraud
350
2D
  3
GouraudWithEdges
350
2E
  3
Linepattern
350
38
  3
Realistic
350
33
  3
Thicken
350
37
  0
LAYOUT
  5
1E
102
{ACAD_REACTORS
330
1A
102
}
330
1A
100
AcDbPlotSettings
  1

  2
none_device
  4

  6

 40
0.0
 41
0.0
 42
0.0
 43
0.0
 44
0.0
 45
0.0
 46
0.0
 47
0.0
 48
0.0
 49
0.0
140
0.0
141
0.0
142
1.0
143
1.0
 70
   688
 72
     0
 73
     0
 74
     5
  7

 75
    16
 76
     0
 77
     2
 78
   300
147
1.0
148
0.0
149
0.0
100
AcDbLayout
  1
Layout1
 70
     1
 71
     1
 10
0.0
 20
0.0
 11
12.0
 21
9.0
 12
0.0
 22
0.0
 32
0.0
 14
1.000000000000000E+20
 24
1.000000000000000E+20
 34
1.000000000000000E+20
 15
-1.000000000000000E+20
 25
-1.000000000000000E+20
 35
-1.000000000000000E+20
146
0.0
 13
0.0
 23
0.0
 33
0.0
 16
1.0
 26
0.0
 36
0.0
 17
0.0
 27
1.0
 37
0.0
 76
     0
330
1B
  0
LAYOUT
  5
26
102
{ACAD_REACTORS
330
1A
102
}
330
1A
100
AcDbPlotSettings
  1

  2
none_device
  4

  6

 40
0.0
 41
0.0
 42
0.0
 43
0.0
 44
0.0
 45
0.0
 46
0.0
 47
0.0
 48
0.0
 49
0.0
140
0.0
141
0.0
142
1.0
143
1.0
 70
   688
 72
     0
 73
     0
 74
     5
  7

 75
    16
 76
     0
 77
     2
 78
   300
147
1.0
148
0.0
149
0.0
100
AcDbLayout
  1
Layout2
 70
     1
 71
     2
 10
0.0
 20
0.0
 11
0.0
 21
0.0
 12
0.0
 22
0.0
 32
0.0
 14
0.0
 24
0.0
 34
0.0
 15
0.0
 25
0.0
 35
0.0
146
0.0
 13
0.0
 23
0.0
 33
0.0
 16
1.0
 26
0.0
 36
0.0
 17
0.0
 27
1.0
 37
0.0
 76
     0
330
23
  0
LAYOUT
  5
22
102
{ACAD_REACTORS
330
1A
102
}
330
1A
100
AcDbPlotSettings
  1

  2
none_device
  4

  6

 40
0.0
 41
0.0
 42
0.0
 43
0.0
 44
0.0
 45
0.0
 46
0.0
 47
0.0
 48
0.0
 49
0.0
140
0.0
141
0.0
142
1.0
143
1.0
 70
  1712
 72
     0
 73
     0
 74
     0
  7

 75
     0
 76
     0
 77
     2
 78
   300
147
1.0
148
0.0
149
0.0
100
AcDbLayout
  1
Model
 70
     1
 71
     0
 10
0.0
 20
0.0
 11
12.0
 21
9.0
 12
0.0
 22
0.0
 32
0.0
 14
67.1371
 24
-114.8591
 34
0.0
 15
196.228
 25
131.9591
 35
0.0
146
0.0
 13
0.0
 23
0.0
 33
0.0
 16
1.0
 26
0.0
 36
0.0
 17
0.0
 27
1.0
 37
0.0
 76
     0
330
1F
331
29
  0
MATERIAL
  5
3D
102
{ACAD_REACTORS
330
3B
102
}
330
3B
100
AcDbMaterial
  1
ByBlock
 72
     1
 94
      127
  0
MATERIAL
  5
3C
102
{ACAD_REACTORS
330
3B
102
}
330
3B
100
AcDbMaterial
  1
ByLayer
 72
     1
 94
      127
  0
MATERIAL
  5
3E
102
{ACAD_REACTORS
330
3B
102
}
330
3B
100
AcDbMaterial
  1
Global
 72
     1
 94
      127
  0
MLINESTYLE
  5
18
102
{ACAD_REACTORS
330
17
102
}
330
17
100
AcDbMlineStyle
  2
Standard
 70
     0
  3

 62
   256
 51
90.0
 52
90.0
 71
     2
 49
0.5
 62
   256
  6
BYLAYER
 49
-0.5
 62
   256
  6
BYLAYER
  0
ACDBPLACEHOLDER
  5
F
102
{ACAD_REACTORS
330
E
102
}
330
E
  0
VISUALSTYLE
  5
2F
102
{ACAD_REACTORS
330
2A
102
}
102
{ACAD_XDICTIONARY
360
8A
102
}
330
2A
100
AcDbVisualStyle
  2
2dWireframe
 70
     4
 71
     0
 72
     2
 73
     0
 90
        0
 40
-0.6
 41
-30.0
 62
     5
 63
     7
421
 16777215
 74
     1
 91
        4
 64
     7
 65
   257
 75
     1
175
     1
 42
1.0
 92
        0
 66
   257
 43
1.0
 76
     1
 77
     6
 78
     2
 67
     7
 79
     5
170
     0
171
     0
290
     0
174
     0
 93
        1
 44
0.0
173
     0
291
     0
 45
0.0
  0
VISUALSTYLE
  5
31
102
{ACAD_REACTORS
330
2A
102
}
102
{ACAD_XDICTIONARY
360
8E
102
}
330
2A
100
AcDbVisualStyle
  2
3D Hidden
 70
     6
 71
     1
 72
     2
 73
     2
 90
        0
 40
-0.6
 41
-30.0
 62
     5
 63
     7
421
 16777215
 74
     2
 91
        2
 64
     7
 65
   257
 75
     2
175
     1
 42
40.0
 92
        0
 66
   257
 43
1.0
 76
     1
 77
     6
 78
     2
 67
     7
 79
     3
170
     0
171
     0
290
     0
174
     0
 93
        1
 44
0.0
173
     0
291
     0
 45
0.0
  0
VISUALSTYLE
  5
30
102
{ACAD_REACTORS
330
2A
102
}
102
{ACAD_XDICTIONARY
360
8C
102
}
330
2A
100
AcDbVisualStyle
  2
3dWireframe
 70
     5
 71
     0
 72
     2
 73
     0
 90
        0
 40
-0.6
 41
-30.0
 62
     5
 63
     7
421
 16777215
 74
     1
 91
        4
 64
     7
 65
   257
 75
     1
175
     1
 42
1.0
 92
        0
 66
   257
 43
1.0
 76
     1
 77
     6
 78
     2
 67
     7
 79
     5
170
     0
171
     0
290
     0
174
     0
 93
        1
 44
0.0
173
     0
291
     0
 45
0.0
  0
VISUALSTYLE
  5
32
102
{ACAD_REACTORS
330
2A
102
}
102
{ACAD_XDICTIONARY
360
90
102
}
330
2A
100
AcDbVisualStyle
  2
Basic
 70
     7
 71
     1
 72
     0
 73
     1
 90
        0
 40
-0.6
 41
-30.0
 62
     5
 63
     7
421
 16777215
 74
     0
 91
        4
 64
     7
 65
   257
 75
     1
175
     1
 42
1.0
 92
        8
 66
     7
 43
1.0
 76
     1
 77
     6
 78
     2
 67
     7
 79
     5
170
     0
171
     0
290
     0
174
     0
 93
        1
 44
0.0
173
     0
291
     1
 45
0.0
  0
VISUALSTYLE
  5
36
102
{ACAD_REACTORS
330
2A
102
}
102
{ACAD_XDICTIONARY
360
98
102
}
330
2A
100
AcDbVisualStyle
  2
Brighten
 70
    12
 71
     2
 72
     2
 73
     0
 90
        0
 40
-0.6
 41
-30.0
 62
     5
 63
     7
421
 16777215
 74
     1
 91
        4
 64
     7
 65
   257
 75
     1
175
     1
 42
1.0
 92
        8
 66
     7
 43
1.0
 76
     1
 77
     6
 78
     2
 67
     7
 79
     5
170
     0
171
     0
290
     0
174
     0
 93
        1
 44
50.0
173
     0
291
     1
 45
0.0
  0
VISUALSTYLE
  5
3A
102
{ACAD_REACTORS
330
2A
102
}
102
{ACAD_XDICTIONARY
360
A0
102
}
330
2A
100
AcDbVisualStyle
  2
ColorChange
 70
    16
 71
     2
 72
     2
 73
     3
 90
        0
 40
-0.6
 41
-30.0
 62
     5
 63
     8
421
  8421504
 74
     1
 91
        4
 64
     7
 65
   257
 75
     1
175
     1
 42
1.0
 92
        8
 66
     8
424
  8421504
 43
1.0
 76
     1
 77
     6
 78
     2
 67
     7
 79
     5
170
     0
171
     0
290
     0
174
     0
 93
        1
 44
0.0
173
     0
291
     1
 45
0.0
  0
VISUALSTYLE
  5
34
102
{ACAD_REACTORS
330
2A
102
}
102
{ACAD_XDICTIONARY
360
94
102
}
330
2A
100
AcDbVisualStyle
  2
Conceptual
 70
     9
 71
     3
 72
     2
 73
     0
 90
        0
 40
-0.6
 41
-30.0
 62
     5
 63
     7
421
 16777215
 74
     2
 91
        2
 64
     7
 65
   257
 75
     1
175
     1
 42
40.0
 92
        8
 66
     7
 43
1.0
 76
     1
 77
     6
 78
     2
 67
     7
 79
     3
170
     0
171
     0
290
     0
174
     0
 93
        1
 44
0.0
173
     0
291
     0
 45
0.0
  0
VISUALSTYLE
  5
35
102
{ACAD_REACTORS
330
2A
102
}
102
{ACAD_XDICTIONARY
360
96
102
}
330
2A
100
AcDbVisualStyle
  2
Dim
 70
    11
 71
     2
 72
     2
 73
     0
 90
        0
 40
-0.6
 41
-30.0
 62
     5
 63
     7
421
 16777215
 74
     1
 91
        4
 64
     7
 65
   257
 75
     1
175
     1
 42
1.0
 92
        8
 66
     7
 43
1.0
 76
     1
 77
     6
 78
     2
 67
     7
 79
     5
170
     0
171
     0
290
     0
174
     0
 93
        1
 44
-50.0
173
     0
291
     1
 45
0.0
  0
VISUALSTYLE
  5
39
102
{ACAD_REACTORS
330
2A
102
}
102
{ACAD_XDICTIONARY
360
9E
102
}
330
2A
100
AcDbVisualStyle
  2
Facepattern
 70
    15
 71
     2
 72
     2
 73
     0
 90
        0
 40
-0.6
 41
-30.0
 62
     5
 63
     7
421
 16777215
 74
     1
 91
        4
 64
     7
 65
   257
 75
     1
175
     1
 42
1.0
 92
        8
 66
     7
 43
1.0
 76
     1
 77
     6
 78
     2
 67
     7
 79
     5
170
     0
171
     0
290
     0
174
     0
 93
        1
 44
0.0
173
     0
291
     1
 45
0.0
  0
VISUALSTYLE
  5
2B
102
{ACAD_REACTORS
330
2A
102
}
102
{ACAD_XDICTIONARY
360
82
102
}
330
2A
100
AcDbVisualStyle
  2
Flat
 70
     0
 71
     2
 72
     1
 73
     1
 90
        2
 40
-0.6
 41
30.0
 62
     5
 63
     7
421
 16777215
 74
     0
 91
        4
 64
     7
 65
   257
 75
     1
175
     1
 42
1.0
 92
        8
 66
     7
 43
1.0
 76
     1
 77
     6
 78
     2
 67
     7
 79
     5
170
     0
171
     0
290
     0
174
     0
 93
       13
 44
0.0
173
     0
291
     1
 45
0.0
  0
VISUALSTYLE
  5
2C
102
{ACAD_REACTORS
330
2A
102
}
102
{ACAD_XDICTIONARY
360
84
102
}
330
2A
100
AcDbVisualStyle
  2
FlatWithEdges
 70
     1
 71
     2
 72
     1
 73
     1
 90
        2
 40
-0.6
 41
30.0
 62
     5
 63
     7
421
 16777215
 74
     1
 91
        4
 64
     7
 65
   257
 75
     1
175
     1
 42
1.0
 92
        0
 66
   257
 43
1.0
 76
     1
 77
     6
 78
     2
 67
     7
 79
     5
170
     0
171
     0
290
     0
174
     0
 93
       13
 44
0.0
173
     0
291
     1
 45
0.0
  0
VISUALSTYLE
  5
2D
102
{ACAD_REACTORS
330
2A
102
}
102
{ACAD_XDICTIONARY
360
86
102
}
330
2A
100
AcDbVisualStyle
  2
Gouraud
 70
     2
 71
     2
 72
     2
 73
     1
 90
        2
 40
-0.6
 41
30.0
 62
     5
 63
     7
421
 16777215
 74
     0
 91
        4
 64
     7
 65
   257
 75
     1
175
     1
 42
1.0
 92
        0
 66
     7
 43
1.0
 76
     1
 77
     6
 78
     2
 67
     7
 79
     5
170
     0
171
     0
290
     0
174
     0
 93
       13
 44
0.0
173
     0
291
     1
 45
0.0
  0
VISUALSTYLE
  5
2E
102
{ACAD_REACTORS
330
2A
102
}
102
{ACAD_XDICTIONARY
360
88
102
}
330
2A
100
AcDbVisualStyle
  2
GouraudWithEdges
 70
     3
 71
     2
 72
     2
 73
     1
 90
        2
 40
-0.6
 41
30.0
 62
     5
 63
     7
421
 16777215
 74
     1
 91
        4
 64
     7
 65
   257
 75
     1
175
     1
 42
1.0
 92
        0
 66
   257
 43
1.0
 76
     1
 77
     6
 78
     2
 67
     7
 79
     5
170
     0
171
     0
290
     0
174
     0
 93
       13
 44
0.0
173
     0
291
     1
 45
0.0
  0
VISUALSTYLE
  5
38
102
{ACAD_REACTORS
330
2A
102
}
102
{ACAD_XDICTIONARY
360
9C
102
}
330
2A
100
AcDbVisualStyle
  2
Linepattern
 70
    14
 71
     2
 72
     2
 73
     0
 90
        0
 40
-0.6
 41
-30.0
 62
     5
 63
     7
421
 16777215
 74
     1
 91
        4
 64
     7
 65
   257
 75
     7
175
     7
 42
1.0
 92
        8
 66
     7
 43
1.0
 76
     1
 77
     6
 78
     2
 67
     7
 79
     5
170
     0
171
     0
290
     0
174
     0
 93
        1
 44
0.0
173
     0
291
     1
 45
0.0
  0
VISUALSTYLE
  5
33
102
{ACAD_REACTORS
330
2A
102
}
102
{ACAD_XDICTIONARY
360
92
102
}
330
2A
100
AcDbVisualStyle
  2
Realistic
 70
     8
 71
     2
 72
     2
 73
     0
 90
        0
 40
-0.6
 41
-30.0
 62
     5
 63
     7
421
 16777215
 74
     1
 91
        0
 64
     7
 65
   257
 75
     1
175
     1
 42
1.0
 92
        8
 66
     8
424
  7895160
 43
1.0
 76
     1
 77
     6
 78
     2
 67
     7
 79
     5
170
     0
171
     0
290
     0
174
     0
 93
       13
 44
0.0
173
     0
291
     0
 45
0.0
  0
VISUALSTYLE
  5
37
102
{ACAD_REACTORS
330
2A
102
}
102
{ACAD_XDICTIONARY
360
9A
102
}
330
2A
100
AcDbVisualStyle
  2
Thicken
 70
    13
 71
     2
 72
     2
 73
     0
 90
        0
 40
-0.6
 41
-30.0
 62
     5
 63
     7
421
 16777215
 74
     1
 91
        4
 64
     7
 65
   257
 75
     1
175
     1
 42
1.0
 92
       12
 66
     7
 43
1.0
 76
     1
 77
     6
 78
     2
 67
     7
 79
     5
170
     0
171
     0
290
     0
174
     0
 93
        1
 44
0.0
173
     0
291
     1
 45
0.0
  0
DICTIONARY
  5
8A
330
2F
100
AcDbDictionary
280
     1
281
     1
  3
ACAD_XREC_ROUNDTRIP
360
8B
  0
DICTIONARY
  5
8E
330
31
100
AcDbDictionary
280
     1
281
     1
  3
ACAD_XREC_ROUNDTRIP
360
8F
  0
DICTIONARY
  5
8C
330
30
100
AcDbDictionary
280
     1
281
     1
  3
ACAD_XREC_ROUNDTRIP
360
8D
  0
DICTIONARY
  5
90
330
32
100
AcDbDictionary
280
     1
281
     1
  3
ACAD_XREC_ROUNDTRIP
360
91
  0
DICTIONARY
  5
98
330
36
100
AcDbDictionary
280
     1
281
     1
  3
ACAD_XREC_ROUNDTRIP
360
99
  0
DICTIONARY
  5
A0
330
3A
100
AcDbDictionary
280
     1
281
     1
  3
ACAD_XREC_ROUNDTRIP
360
A1
  0
DICTIONARY
  5
94
330
34
100
AcDbDictionary
280
     1
281
     1
  3
ACAD_XREC_ROUNDTRIP
360
95
  0
DICTIONARY
  5
96
330
35
100
AcDbDictionary
280
     1
281
     1
  3
ACAD_XREC_ROUNDTRIP
360
97
  0
DICTIONARY
  5
9E
330
39
100
AcDbDictionary
280
     1
281
     1
  3
ACAD_XREC_ROUNDTRIP
360
9F
  0
DICTIONARY
  5
82
330
2B
100
AcDbDictionary
280
     1
281
     1
  3
ACAD_XREC_ROUNDTRIP
360
83
  0
DICTIONARY
  5
84
330
2C
100
AcDbDictionary
280
     1
281
     1
  3
ACAD_XREC_ROUNDTRIP
360
85
  0
DICTIONARY
  5
86
330
2D
100
AcDbDictionary
280
     1
281
     1
  3
ACAD_XREC_ROUNDTRIP
360
87
  0
DICTIONARY
  5
88
330
2E
100
AcDbDictionary
280
     1
281
     1
  3
ACAD_XREC_ROUNDTRIP
360
89
  0
DICTIONARY
  5
9C
330
38
100
AcDbDictionary
280
     1
281
     1
  3
ACAD_XREC_ROUNDTRIP
360
9D
  0
DICTIONARY
  5
92
330
33
100
AcDbDictionary
280
     1
281
     1
  3
ACAD_XREC_ROUNDTRIP
360
93
  0
DICTIONARY
  5
9A
330
37
100
AcDbDictionary
280
     1
281
     1
  3
ACAD_XREC_ROUNDTRIP
360
9B
  0
XRECORD
  5
8B
102
{ACAD_REACTORS
330
8A
102
}
330
8A
100
AcDbXrecord
280
     1
102
RTVSPropertyOp0
 70
     1
102
RTVSPropertyOp1
 70
     1
102
RTVSPropertyOp2
 70
     1
102
RTVSPropertyOp3
 70
     1
102
RTVSPropertyOp4
 70
     1
102
RTVSPropertyOp5
 70
     1
102
RTVSPropertyOp6
 70
     1
102
RTVSPropertyOp7
 70
     1
102
RTVSPropertyOp8
 70
     1
102
RTVSPropertyOp9
 70
     1
102
RTVSPropertyOp10
 70
     1
102
RTVSPropertyOp11
 70
     1
102
RTVSPropertyOp12
 70
     1
102
RTVSPropertyOp13
 70
     1
102
RTVSPropertyOp14
 70
     1
102
RTVSPropertyOp15
 70
     1
102
RTVSPropertyOp16
 70
     1
102
RTVSPropertyOp17
 70
     1
102
RTVSPropertyOp18
 70
     1
102
RTVSPropertyOp19
 70
     1
102
RTVSPropertyOp20
 70
     1
102
RTVSPropertyOp21
 70
     1
102
RTVSPropertyOp22
 70
     1
102
RTVSPropertyOp23
 70
     1
102
RTVSPropertyOp24
 70
     1
102
RTVSPropertyOp25
 70
     1
102
RTVSPropertyOp26
 70
     1
102
RTVSPropertyOp27
 70
     1
102
RTVSPropertyOp28
 70
     1
102
RTVSPropertyOp29
 70
     1
102
RTVSPropertyOp30
 70
     1
102
RTVSPropertyOp31
 70
     1
102
RTVSPropertyOp32
 70
     1
  0
XRECORD
  5
8F
102
{ACAD_REACTORS
330
8E
102
}
330
8E
100
AcDbXrecord
280
     1
102
RTVSPropertyOp0
 70
     1
102
RTVSPropertyOp1
 70
     1
102
RTVSPropertyOp2
 70
     1
102
RTVSPropertyOp3
 70
     1
102
RTVSPropertyOp4
 70
     1
102
RTVSPropertyOp5
 70
     1
102
RTVSPropertyOp6
 70
     1
102
RTVSPropertyOp7
 70
     1
102
RTVSPropertyOp8
 70
     1
102
RTVSPropertyOp9
 70
     1
102
RTVSPropertyOp10
 70
     1
102
RTVSPropertyOp11
 70
     1
102
RTVSPropertyOp12
 70
     1
102
RTVSPropertyOp13
 70
     1
102
RTVSPropertyOp14
 70
     1
102
RTVSPropertyOp15
 70
     1
102
RTVSPropertyOp16
 70
     1
102
RTVSPropertyOp17
 70
     1
102
RTVSPropertyOp18
 70
     1
102
RTVSPropertyOp19
 70
     1
102
RTVSPropertyOp20
 70
     1
102
RTVSPropertyOp21
 70
     1
102
RTVSPropertyOp22
 70
     1
102
RTVSPropertyOp23
 70
     1
102
RTVSPropertyOp24
 70
     1
102
RTVSPropertyOp25
 70
     1
102
RTVSPropertyOp26
 70
     1
102
RTVSPropertyOp27
 70
     1
102
RTVSPropertyOp28
 70
     1
102
RTVSPropertyOp29
 70
     1
102
RTVSPropertyOp30
 70
     1
102
RTVSPropertyOp31
 70
     1
102
RTVSPropertyOp32
 70
     1
  0
XRECORD
  5
8D
102
{ACAD_REACTORS
330
8C
102
}
330
8C
100
AcDbXrecord
280
     1
102
RTVSPropertyOp0
 70
     1
102
RTVSPropertyOp1
 70
     1
102
RTVSPropertyOp2
 70
     1
102
RTVSPropertyOp3
 70
     1
102
RTVSPropertyOp4
 70
     1
102
RTVSPropertyOp5
 70
     1
102
RTVSPropertyOp6
 70
     1
102
RTVSPropertyOp7
 70
     1
102
RTVSPropertyOp8
 70
     1
102
RTVSPropertyOp9
 70
     1
102
RTVSPropertyOp10
 70
     1
102
RTVSPropertyOp11
 70
     1
102
RTVSPropertyOp12
 70
     1
102
RTVSPropertyOp13
 70
     1
102
RTVSPropertyOp14
 70
     1
102
RTVSPropertyOp15
 70
     1
102
RTVSPropertyOp16
 70
     1
102
RTVSPropertyOp17
 70
     1
102
RTVSPropertyOp18
 70
     1
102
RTVSPropertyOp19
 70
     1
102
RTVSPropertyOp20
 70
     1
102
RTVSPropertyOp21
 70
     1
102
RTVSPropertyOp22
 70
     1
102
RTVSPropertyOp23
 70
     1
102
RTVSPropertyOp24
 70
     1
102
RTVSPropertyOp25
 70
     1
102
RTVSPropertyOp26
 70
     1
102
RTVSPropertyOp27
 70
     1
102
RTVSPropertyOp28
 70
     1
102
RTVSPropertyOp29
 70
     1
102
RTVSPropertyOp30
 70
     1
102
RTVSPropertyOp31
 70
     1
102
RTVSPropertyOp32
 70
     1
  0
XRECORD
  5
91
102
{ACAD_REACTORS
330
90
102
}
330
90
100
AcDbXrecord
280
     1
102
RTVSPropertyOp0
 70
     1
102
RTVSPropertyOp1
 70
     1
102
RTVSPropertyOp2
 70
     1
102
RTVSPropertyOp3
 70
     1
102
RTVSPropertyOp4
 70
     1
102
RTVSPropertyOp5
 70
     1
102
RTVSPropertyOp6
 70
     1
102
RTVSPropertyOp7
 70
     1
102
RTVSPropertyOp8
 70
     1
102
RTVSPropertyOp9
 70
     1
102
RTVSPropertyOp10
 70
     1
102
RTVSPropertyOp11
 70
     1
102
RTVSPropertyOp12
 70
     1
102
RTVSPropertyOp13
 70
     1
102
RTVSPropertyOp14
 70
     1
102
RTVSPropertyOp15
 70
     1
102
RTVSPropertyOp16
 70
     1
102
RTVSPropertyOp17
 70
     1
102
RTVSPropertyOp18
 70
     1
102
RTVSPropertyOp19
 70
     1
102
RTVSPropertyOp20
 70
     1
102
RTVSPropertyOp21
 70
     1
102
RTVSPropertyOp22
 70
     1
102
RTVSPropertyOp23
 70
     1
102
RTVSPropertyOp24
 70
     1
102
RTVSPropertyOp25
 70
     1
102
RTVSPropertyOp26
 70
     1
102
RTVSPropertyOp27
 70
     1
102
RTVSPropertyOp28
 70
     1
102
RTVSPropertyOp29
 70
     1
102
RTVSPropertyOp30
 70
     1
102
RTVSPropertyOp31
 70
     1
102
RTVSPropertyOp32
 70
     1
  0
XRECORD
  5
99
102
{ACAD_REACTORS
330
98
102
}
330
98
100
AcDbXrecord
280
     1
102
RTVSPropertyOp0
 70
     1
102
RTVSPropertyOp1
 70
     1
102
RTVSPropertyOp2
 70
     1
102
RTVSPropertyOp3
 70
     1
102
RTVSPropertyOp4
 70
     1
102
RTVSPropertyOp5
 70
     1
102
RTVSPropertyOp6
 70
     1
102
RTVSPropertyOp7
 70
     1
102
RTVSPropertyOp8
 70
     1
102
RTVSPropertyOp9
 70
     1
102
RTVSPropertyOp10
 70
     1
102
RTVSPropertyOp11
 70
     1
102
RTVSPropertyOp12
 70
     1
102
RTVSPropertyOp13
 70
     1
102
RTVSPropertyOp14
 70
     1
102
RTVSPropertyOp15
 70
     1
102
RTVSPropertyOp16
 70
     1
102
RTVSPropertyOp17
 70
     1
102
RTVSPropertyOp18
 70
     1
102
RTVSPropertyOp19
 70
     1
102
RTVSPropertyOp20
 70
     1
102
RTVSPropertyOp21
 70
     1
102
RTVSPropertyOp22
 70
     1
102
RTVSPropertyOp23
 70
     1
102
RTVSPropertyOp24
 70
     1
102
RTVSPropertyOp25
 70
     1
102
RTVSPropertyOp26
 70
     1
102
RTVSPropertyOp27
 70
     1
102
RTVSPropertyOp28
 70
     1
102
RTVSPropertyOp29
 70
     1
102
RTVSPropertyOp30
 70
     1
102
RTVSPropertyOp31
 70
     1
102
RTVSPropertyOp32
 70
     1
  0
XRECORD
  5
A1
102
{ACAD_REACTORS
330
A0
102
}
330
A0
100
AcDbXrecord
280
     1
102
RTVSPropertyOp0
 70
     1
102
RTVSPropertyOp1
 70
     1
102
RTVSPropertyOp2
 70
     1
102
RTVSPropertyOp3
 70
     1
102
RTVSPropertyOp4
 70
     1
102
RTVSPropertyOp5
 70
     1
102
RTVSPropertyOp6
 70
     1
102
RTVSPropertyOp7
 70
     1
102
RTVSPropertyOp8
 70
     1
102
RTVSPropertyOp9
 70
     1
102
RTVSPropertyOp10
 70
     1
102
RTVSPropertyOp11
 70
     1
102
RTVSPropertyOp12
 70
     1
102
RTVSPropertyOp13
 70
     1
102
RTVSPropertyOp14
 70
     1
102
RTVSPropertyOp15
 70
     1
102
RTVSPropertyOp16
 70
     1
102
RTVSPropertyOp17
 70
     1
102
RTVSPropertyOp18
 70
     1
102
RTVSPropertyOp19
 70
     1
102
RTVSPropertyOp20
 70
     1
102
RTVSPropertyOp21
 70
     1
102
RTVSPropertyOp22
 70
     1
102
RTVSPropertyOp23
 70
     1
102
RTVSPropertyOp24
 70
     1
102
RTVSPropertyOp25
 70
     1
102
RTVSPropertyOp26
 70
     1
102
RTVSPropertyOp27
 70
     1
102
RTVSPropertyOp28
 70
     1
102
RTVSPropertyOp29
 70
     1
102
RTVSPropertyOp30
 70
     1
102
RTVSPropertyOp31
 70
     1
102
RTVSPropertyOp32
 70
     1
  0
XRECORD
  5
95
102
{ACAD_REACTORS
330
94
102
}
330
94
100
AcDbXrecord
280
     1
102
RTVSPropertyOp0
 70
     1
102
RTVSPropertyOp1
 70
     1
102
RTVSPropertyOp2
 70
     1
102
RTVSPropertyOp3
 70
     1
102
RTVSPropertyOp4
 70
     1
102
RTVSPropertyOp5
 70
     1
102
RTVSPropertyOp6
 70
     1
102
RTVSPropertyOp7
 70
     1
102
RTVSPropertyOp8
 70
     1
102
RTVSPropertyOp9
 70
     1
102
RTVSPropertyOp10
 70
     1
102
RTVSPropertyOp11
 70
     1
102
RTVSPropertyOp12
 70
     1
102
RTVSPropertyOp13
 70
     1
102
RTVSPropertyOp14
 70
     1
102
RTVSPropertyOp15
 70
     1
102
RTVSPropertyOp16
 70
     1
102
RTVSPropertyOp17
 70
     1
102
RTVSPropertyOp18
 70
     1
102
RTVSPropertyOp19
 70
     1
102
RTVSPropertyOp20
 70
     1
102
RTVSPropertyOp21
 70
     1
102
RTVSPropertyOp22
 70
     1
102
RTVSPropertyOp23
 70
     1
102
RTVSPropertyOp24
 70
     1
102
RTVSPropertyOp25
 70
     1
102
RTVSPropertyOp26
 70
     1
102
RTVSPropertyOp27
 70
     1
102
RTVSPropertyOp28
 70
     1
102
RTVSPropertyOp29
 70
     1
102
RTVSPropertyOp30
 70
     1
102
RTVSPropertyOp31
 70
     1
102
RTVSPropertyOp32
 70
     1
  0
XRECORD
  5
97
102
{ACAD_REACTORS
330
96
102
}
330
96
100
AcDbXrecord
280
     1
102
RTVSPropertyOp0
 70
     1
102
RTVSPropertyOp1
 70
     1
102
RTVSPropertyOp2
 70
     1
102
RTVSPropertyOp3
 70
     1
102
RTVSPropertyOp4
 70
     1
102
RTVSPropertyOp5
 70
     1
102
RTVSPropertyOp6
 70
     1
102
RTVSPropertyOp7
 70
     1
102
RTVSPropertyOp8
 70
     1
102
RTVSPropertyOp9
 70
     1
102
RTVSPropertyOp10
 70
     1
102
RTVSPropertyOp11
 70
     1
102
RTVSPropertyOp12
 70
     1
102
RTVSPropertyOp13
 70
     1
102
RTVSPropertyOp14
 70
     1
102
RTVSPropertyOp15
 70
     1
102
RTVSPropertyOp16
 70
     1
102
RTVSPropertyOp17
 70
     1
102
RTVSPropertyOp18
 70
     1
102
RTVSPropertyOp19
 70
     1
102
RTVSPropertyOp20
 70
     1
102
RTVSPropertyOp21
 70
     1
102
RTVSPropertyOp22
 70
     1
102
RTVSPropertyOp23
 70
     1
102
RTVSPropertyOp24
 70
     1
102
RTVSPropertyOp25
 70
     1
102
RTVSPropertyOp26
 70
     1
102
RTVSPropertyOp27
 70
     1
102
RTVSPropertyOp28
 70
     1
102
RTVSPropertyOp29
 70
     1
102
RTVSPropertyOp30
 70
     1
102
RTVSPropertyOp31
 70
     1
102
RTVSPropertyOp32
 70
     1
  0
XRECORD
  5
9F
102
{ACAD_REACTORS
330
9E
102
}
330
9E
100
AcDbXrecord
280
     1
102
RTVSPropertyOp0
 70
     1
102
RTVSPropertyOp1
 70
     1
102
RTVSPropertyOp2
 70
     1
102
RTVSPropertyOp3
 70
     1
102
RTVSPropertyOp4
 70
     1
102
RTVSPropertyOp5
 70
     1
102
RTVSPropertyOp6
 70
     1
102
RTVSPropertyOp7
 70
     1
102
RTVSPropertyOp8
 70
     1
102
RTVSPropertyOp9
 70
     1
102
RTVSPropertyOp10
 70
     1
102
RTVSPropertyOp11
 70
     1
102
RTVSPropertyOp12
 70
     1
102
RTVSPropertyOp13
 70
     1
102
RTVSPropertyOp14
 70
     1
102
RTVSPropertyOp15
 70
     1
102
RTVSPropertyOp16
 70
     1
102
RTVSPropertyOp17
 70
     1
102
RTVSPropertyOp18
 70
     1
102
RTVSPropertyOp19
 70
     1
102
RTVSPropertyOp20
 70
     1
102
RTVSPropertyOp21
 70
     1
102
RTVSPropertyOp22
 70
     1
102
RTVSPropertyOp23
 70
     1
102
RTVSPropertyOp24
 70
     1
102
RTVSPropertyOp25
 70
     1
102
RTVSPropertyOp26
 70
     1
102
RTVSPropertyOp27
 70
     1
102
RTVSPropertyOp28
 70
     1
102
RTVSPropertyOp29
 70
     1
102
RTVSPropertyOp30
 70
     1
102
RTVSPropertyOp31
 70
     1
102
RTVSPropertyOp32
 70
     1
  0
XRECORD
  5
83
102
{ACAD_REACTORS
330
82
102
}
330
82
100
AcDbXrecord
280
     1
102
RTVSPropertyOp0
 70
     1
102
RTVSPropertyOp1
 70
     1
102
RTVSPropertyOp2
 70
     1
102
RTVSPropertyOp3
 70
     1
102
RTVSPropertyOp4
 70
     1
102
RTVSPropertyOp5
 70
     1
102
RTVSPropertyOp6
 70
     1
102
RTVSPropertyOp7
 70
     1
102
RTVSPropertyOp8
 70
     1
102
RTVSPropertyOp9
 70
     1
102
RTVSPropertyOp10
 70
     1
102
RTVSPropertyOp11
 70
     1
102
RTVSPropertyOp12
 70
     1
102
RTVSPropertyOp13
 70
     1
102
RTVSPropertyOp14
 70
     1
102
RTVSPropertyOp15
 70
     1
102
RTVSPropertyOp16
 70
     1
102
RTVSPropertyOp17
 70
     1
102
RTVSPropertyOp18
 70
     1
102
RTVSPropertyOp19
 70
     1
102
RTVSPropertyOp20
 70
     1
102
RTVSPropertyOp21
 70
     1
102
RTVSPropertyOp22
 70
     1
102
RTVSPropertyOp23
 70
     1
102
RTVSPropertyOp24
 70
     1
102
RTVSPropertyOp25
 70
     1
102
RTVSPropertyOp26
 70
     1
102
RTVSPropertyOp27
 70
     1
102
RTVSPropertyOp28
 70
     1
102
RTVSPropertyOp29
 70
     1
102
RTVSPropertyOp30
 70
     1
102
RTVSPropertyOp31
 70
     1
102
RTVSPropertyOp32
 70
     1
  0
XRECORD
  5
85
102
{ACAD_REACTORS
330
84
102
}
330
84
100
AcDbXrecord
280
     1
102
RTVSPropertyOp0
 70
     1
102
RTVSPropertyOp1
 70
     1
102
RTVSPropertyOp2
 70
     1
102
RTVSPropertyOp3
 70
     1
102
RTVSPropertyOp4
 70
     1
102
RTVSPropertyOp5
 70
     1
102
RTVSPropertyOp6
 70
     1
102
RTVSPropertyOp7
 70
     1
102
RTVSPropertyOp8
 70
     1
102
RTVSPropertyOp9
 70
     1
102
RTVSPropertyOp10
 70
     1
102
RTVSPropertyOp11
 70
     1
102
RTVSPropertyOp12
 70
     1
102
RTVSPropertyOp13
 70
     1
102
RTVSPropertyOp14
 70
     1
102
RTVSPropertyOp15
 70
     1
102
RTVSPropertyOp16
 70
     1
102
RTVSPropertyOp17
 70
     1
102
RTVSPropertyOp18
 70
     1
102
RTVSPropertyOp19
 70
     1
102
RTVSPropertyOp20
 70
     1
102
RTVSPropertyOp21
 70
     1
102
RTVSPropertyOp22
 70
     1
102
RTVSPropertyOp23
 70
     1
102
RTVSPropertyOp24
 70
     1
102
RTVSPropertyOp25
 70
     1
102
RTVSPropertyOp26
 70
     1
102
RTVSPropertyOp27
 70
     1
102
RTVSPropertyOp28
 70
     1
102
RTVSPropertyOp29
 70
     1
102
RTVSPropertyOp30
 70
     1
102
RTVSPropertyOp31
 70
     1
102
RTVSPropertyOp32
 70
     1
  0
XRECORD
  5
87
102
{ACAD_REACTORS
330
86
102
}
330
86
100
AcDbXrecord
280
     1
102
RTVSPropertyOp0
 70
     1
102
RTVSPropertyOp1
 70
     1
102
RTVSPropertyOp2
 70
     1
102
RTVSPropertyOp3
 70
     1
102
RTVSPropertyOp4
 70
     1
102
RTVSPropertyOp5
 70
     1
102
RTVSPropertyOp6
 70
     1
102
RTVSPropertyOp7
 70
     1
102
RTVSPropertyOp8
 70
     1
102
RTVSPropertyOp9
 70
     1
102
RTVSPropertyOp10
 70
     1
102
RTVSPropertyOp11
 70
     1
102
RTVSPropertyOp12
 70
     1
102
RTVSPropertyOp13
 70
     1
102
RTVSPropertyOp14
 70
     1
102
RTVSPropertyOp15
 70
     1
102
RTVSPropertyOp16
 70
     1
102
RTVSPropertyOp17
 70
     1
102
RTVSPropertyOp18
 70
     1
102
RTVSPropertyOp19
 70
     1
102
RTVSPropertyOp20
 70
     1
102
RTVSPropertyOp21
 70
     1
102
RTVSPropertyOp22
 70
     1
102
RTVSPropertyOp23
 70
     1
102
RTVSPropertyOp24
 70
     1
102
RTVSPropertyOp25
 70
     1
102
RTVSPropertyOp26
 70
     1
102
RTVSPropertyOp27
 70
     1
102
RTVSPropertyOp28
 70
     1
102
RTVSPropertyOp29
 70
     1
102
RTVSPropertyOp30
 70
     1
102
RTVSPropertyOp31
 70
     1
102
RTVSPropertyOp32
 70
     1
  0
XRECORD
  5
89
102
{ACAD_REACTORS
330
88
102
}
330
88
100
AcDbXrecord
280
     1
102
RTVSPropertyOp0
 70
     1
102
RTVSPropertyOp1
 70
     1
102
RTVSPropertyOp2
 70
     1
102
RTVSPropertyOp3
 70
     1
102
RTVSPropertyOp4
 70
     1
102
RTVSPropertyOp5
 70
     1
102
RTVSPropertyOp6
 70
     1
102
RTVSPropertyOp7
 70
     1
102
RTVSPropertyOp8
 70
     1
102
RTVSPropertyOp9
 70
     1
102
RTVSPropertyOp10
 70
     1
102
RTVSPropertyOp11
 70
     1
102
RTVSPropertyOp12
 70
     1
102
RTVSPropertyOp13
 70
     1
102
RTVSPropertyOp14
 70
     1
102
RTVSPropertyOp15
 70
     1
102
RTVSPropertyOp16
 70
     1
102
RTVSPropertyOp17
 70
     1
102
RTVSPropertyOp18
 70
     1
102
RTVSPropertyOp19
 70
     1
102
RTVSPropertyOp20
 70
     1
102
RTVSPropertyOp21
 70
     1
102
RTVSPropertyOp22
 70
     1
102
RTVSPropertyOp23
 70
     1
102
RTVSPropertyOp24
 70
     1
102
RTVSPropertyOp25
 70
     1
102
RTVSPropertyOp26
 70
     1
102
RTVSPropertyOp27
 70
     1
102
RTVSPropertyOp28
 70
     1
102
RTVSPropertyOp29
 70
     1
102
RTVSPropertyOp30
 70
     1
102
RTVSPropertyOp31
 70
     1
102
RTVSPropertyOp32
 70
     1
  0
XRECORD
  5
9D
102
{ACAD_REACTORS
330
9C
102
}
330
9C
100
AcDbXrecord
280
     1
102
RTVSPropertyOp0
 70
     1
102
RTVSPropertyOp1
 70
     1
102
RTVSPropertyOp2
 70
     1
102
RTVSPropertyOp3
 70
     1
102
RTVSPropertyOp4
 70
     1
102
RTVSPropertyOp5
 70
     1
102
RTVSPropertyOp6
 70
     1
102
RTVSPropertyOp7
 70
     1
102
RTVSPropertyOp8
 70
     1
102
RTVSPropertyOp9
 70
     1
102
RTVSPropertyOp10
 70
     1
102
RTVSPropertyOp11
 70
     1
102
RTVSPropertyOp12
 70
     1
102
RTVSPropertyOp13
 70
     1
102
RTVSPropertyOp14
 70
     1
102
RTVSPropertyOp15
 70
     1
102
RTVSPropertyOp16
 70
     1
102
RTVSPropertyOp17
 70
     1
102
RTVSPropertyOp18
 70
     1
102
RTVSPropertyOp19
 70
     1
102
RTVSPropertyOp20
 70
     1
102
RTVSPropertyOp21
 70
     1
102
RTVSPropertyOp22
 70
     1
102
RTVSPropertyOp23
 70
     1
102
RTVSPropertyOp24
 70
     1
102
RTVSPropertyOp25
 70
     1
102
RTVSPropertyOp26
 70
     1
102
RTVSPropertyOp27
 70
     1
102
RTVSPropertyOp28
 70
     1
102
RTVSPropertyOp29
 70
     1
102
RTVSPropertyOp30
 70
     1
102
RTVSPropertyOp31
 70
     1
102
RTVSPropertyOp32
 70
     1
  0
XRECORD
  5
93
102
{ACAD_REACTORS
330
92
102
}
330
92
100
AcDbXrecord
280
     1
102
RTVSPropertyOp0
 70
     1
102
RTVSPropertyOp1
 70
     1
102
RTVSPropertyOp2
 70
     1
102
RTVSPropertyOp3
 70
     1
102
RTVSPropertyOp4
 70
     1
102
RTVSPropertyOp5
 70
     1
102
RTVSPropertyOp6
 70
     1
102
RTVSPropertyOp7
 70
     1
102
RTVSPropertyOp8
 70
     1
102
RTVSPropertyOp9
 70
     1
102
RTVSPropertyOp10
 70
     1
102
RTVSPropertyOp11
 70
     1
102
RTVSPropertyOp12
 70
     1
102
RTVSPropertyOp13
 70
     1
102
RTVSPropertyOp14
 70
     1
102
RTVSPropertyOp15
 70
     1
102
RTVSPropertyOp16
 70
     1
102
RTVSPropertyOp17
 70
     1
102
RTVSPropertyOp18
 70
     1
102
RTVSPropertyOp19
 70
     1
102
RTVSPropertyOp20
 70
     1
102
RTVSPropertyOp21
 70
     1
102
RTVSPropertyOp22
 70
     1
102
RTVSPropertyOp23
 70
     1
102
RTVSPropertyOp24
 70
     1
102
RTVSPropertyOp25
 70
     1
102
RTVSPropertyOp26
 70
     1
102
RTVSPropertyOp27
 70
     1
102
RTVSPropertyOp28
 70
     1
102
RTVSPropertyOp29
 70
     1
102
RTVSPropertyOp30
 70
     1
102
RTVSPropertyOp31
 70
     1
102
RTVSPropertyOp32
 70
     1
  0
XRECORD
  5
9B
102
{ACAD_REACTORS
330
9A
102
}
330
9A
100
AcDbXrecord
280
     1
102
RTVSPropertyOp0
 70
     1
102
RTVSPropertyOp1
 70
     1
102
RTVSPropertyOp2
 70
     1
102
RTVSPropertyOp3
 70
     1
102
RTVSPropertyOp4
 70
     1
102
RTVSPropertyOp5
 70
     1
102
RTVSPropertyOp6
 70
     1
102
RTVSPropertyOp7
 70
     1
102
RTVSPropertyOp8
 70
     1
102
RTVSPropertyOp9
 70
     1
102
RTVSPropertyOp10
 70
     1
102
RTVSPropertyOp11
 70
     1
102
RTVSPropertyOp12
 70
     1
102
RTVSPropertyOp13
 70
     1
102
RTVSPropertyOp14
 70
     1
102
RTVSPropertyOp15
 70
     1
102
RTVSPropertyOp16
 70
     1
102
RTVSPropertyOp17
 70
     1
102
RTVSPropertyOp18
 70
     1
102
RTVSPropertyOp19
 70
     1
102
RTVSPropertyOp20
 70
     1
102
RTVSPropertyOp21
 70
     1
102
RTVSPropertyOp22
 70
     1
102
RTVSPropertyOp23
 70
     1
102
RTVSPropertyOp24
 70
     1
102
RTVSPropertyOp25
 70
     1
102
RTVSPropertyOp26
 70
     1
102
RTVSPropertyOp27
 70
     1
102
RTVSPropertyOp28
 70
     1
102
RTVSPropertyOp29
 70
     1
102
RTVSPropertyOp30
 70
     1
102
RTVSPropertyOp31
 70
     1
102
RTVSPropertyOp32
 70
     1
  0
ENDSEC
  0
EOF
