  0
SECTION
  2
HEADER
  9
$ACADVER
  1
AC1021
  9
$ACADMAINTVER
 70
    25
  9
$DWGCODEPAGE
  3
ANSI_1252
  9
$INSBASE
 10
0.0
 20
0.0
 30
0.0
  9
$EXTMIN
 10
-187.4942
 20
-115.2779
 30
0.0
  9
$EXTMAX
 10
-30.4187
 20
131.8722
 30
0.0
  9
$LIMMIN
 10
0.0
 20
0.0
  9
$LIMMAX
 10
12.0
 20
9.0
  9
$ORTHOMODE
 70
     0
  9
$REGENMODE
 70
     1
  9
$FILLMODE
 70
     1
  9
$QTEXTMODE
 70
     0
  9
$MIRRTEXT
 70
     1
  9
$LTSCALE
 40
1.0
  9
$ATTMODE
 70
     1
  9
$TEXTSIZE
 40
0.2
  9
$TRACEWID
 40
0.05
  9
$TEXTSTYLE
  7
Standard
  9
$CLAYER
  8
0
  9
$CELTYPE
  6
ByLayer
  9
$CECOLOR
 62
   256
  9
$CELTSCALE
 40
1.0
  9
$DISPSILH
 70
     0
  9
$DIMSCALE
 40
1.0
  9
$DIMASZ
 40
0.18
  9
$DIMEXO
 40
0.0625
  9
$DIMDLI
 40
0.38
  9
$DIMRND
 40
0.0
  9
$DIMDLE
 40
0.0
  9
$DIMEXE
 40
0.18
  9
$DIMTP
 40
0.0
  9
$DIMTM
 40
0.0
  9
$DIMTXT
 40
0.18
  9
$DIMCEN
 40
0.09
  9
$DIMTSZ
 40
0.0
  9
$DIMTOL
 70
     0
  9
$DIMLIM
 70
     0
  9
$DIMTIH
 70
     1
  9
$DIMTOH
 70
     1
  9
$DIMSE1
 70
     0
  9
$DIMSE2
 70
     0
  9
$DIMTAD
 70
     0
  9
$DIMZIN
 70
     0
  9
$DIMBLK
  1

  9
$DIMASO
 70
     1
  9
$DIMSHO
 70
     1
  9
$DIMPOST
  1

  9
$DIMAPOST
  1

  9
$DIMALT
 70
     0
  9
$DIMALTD
 70
     2
  9
$DIMALTF
 40
25.4
  9
$DIMLFAC
 40
1.0
  9
$DIMTOFL
 70
     0
  9
$DIMTVP
 40
0.0
  9
$DIMTIX
 70
     0
  9
$DIMSOXD
 70
     0
  9
$DIMSAH
 70
     0
  9
$DIMBLK1
  1

  9
$DIMBLK2
  1

  9
$DIMSTYLE
  2
Standard
  9
$DIMCLRD
 70
     0
  9
$DIMCLRE
 70
     0
  9
$DIMCLRT
 70
     0
  9
$DIMTFAC
 40
1.0
  9
$DIMGAP
 40
0.09
  9
$DIMJUST
 70
     0
  9
$DIMSD1
 70
     0
  9
$DIMSD2
 70
     0
  9
$DIMTOLJ
 70
     1
  9
$DIMTZIN
 70
     0
  9
$DIMALTZ
 70
     0
  9
$DIMALTTZ
 70
     0
  9
$DIMUPT
 70
     0
  9
$DIMDEC
 70
     4
  9
$DIMTDEC
 70
     4
  9
$DIMALTU
 70
     2
  9
$DIMALTTD
 70
     2
  9
$DIMTXSTY
  7
Standard
  9
$DIMAUNIT
 70
     0
  9
$DIMADEC
 70
     0
  9
$DIMALTRND
 40
0.0
  9
$DIMAZIN
 70
     0
  9
$DIMDSEP
 70
    46
  9
$DIMATFIT
 70
     3
  9
$DIMFRAC
 70
     0
  9
$DIMLDRBLK
  1

  9
$DIMLUNIT
 70
     2
  9
$DIMLWD
 70
    -2
  9
$DIMLWE
 70
    -2
  9
$DIMTMOVE
 70
     0
  9
$DIMFXL
 40
1.0
  9
$DIMFXLON
 70
     0
  9
$DIMJOGANG
 40
0.7853981633974483
  9
$DIMTFILL
 70
     0
  9
$DIMTFILLCLR
 70
     0
  9
$DIMARCSYM
 70
     0
  9
$DIMLTYPE
  6

  9
$DIMLTEX1
  6

  9
$DIMLTEX2
  6

  9
$LUNITS
 70
     2
  9
$LUPREC
 70
     4
  9
$SKETCHINC
 40
0.1
  9
$FILLETRAD
 40
0.5
  9
$AUNITS
 70
     0
  9
$AUPREC
 70
     0
  9
$MENU
  1
.
  9
$ELEVATION
 40
0.0
  9
$PELEVATION
 40
0.0
  9
$THICKNESS
 40
0.0
  9
$LIMCHECK
 70
     0
  9
$CHAMFERA
 40
0.5
  9
$CHAMFERB
 40
0.5
  9
$CHAMFERC
 40
1.0
  9
$CHAMFERD
 40
0.0
  9
$SKPOLY
 70
     0
  9
$TDCREATE
 40
2458492.629670023
  9
$TDUCREATE
 40
2458492.629670023
  9
$TDUPDATE
 40
2458492.629670162
  9
$TDUUPDATE
 40
2458492.629670162
  9
$TDINDWG
 40
0.0000000116
  9
$TDUSRTIMER
 40
0.0000000116
  9
$USRTIMER
 70
     1
  9
$ANGBASE
 50
0.0
  9
$ANGDIR
 70
     0
  9
$PDMODE
 70
     0
  9
$PDSIZE
 40
0.0
  9
$PLINEWID
 40
0.0
  9
$SPLFRAME
 70
     0
  9
$SPLINETYPE
 70
     6
  9
$SPLINESEGS
 70
     8
  9
$HANDSEED
  5
A0
  9
$SURFTAB1
 70
     6
  9
$SURFTAB2
 70
     6
  9
$SURFTYPE
 70
     6
  9
$SURFU
 70
     6
  9
$SURFV
 70
     6
  9
$UCSBASE
  2

  9
$UCSNAME
  2

  9
$UCSORG
 10
0.0
 20
0.0
 30
0.0
  9
$UCSXDIR
 10
1.0
 20
0.0
 30
0.0
  9
$UCSYDIR
 10
0.0
 20
1.0
 30
0.0
  9
$UCSORTHOREF
  2

  9
$UCSORTHOVIEW
 70
     0
  9
$UCSORGTOP
 10
0.0
 20
0.0
 30
0.0
  9
$UCSORGBOTTOM
 10
0.0
 20
0.0
 30
0.0
  9
$UCSORGLEFT
 10
0.0
 20
0.0
 30
0.0
  9
$UCSORGRIGHT
 10
0.0
 20
0.0
 30
0.0
  9
$UCSORGFRONT
 10
0.0
 20
0.0
 30
0.0
  9
$UCSORGBACK
 10
0.0
 20
0.0
 30
0.0
  9
$PUCSBASE
  2

  9
$PUCSNAME
  2

  9
$PUCSORG
 10
0.0
 20
0.0
 30
0.0
  9
$PUCSXDIR
 10
1.0
 20
0.0
 30
0.0
  9
$PUCSYDIR
 10
0.0
 20
1.0
 30
0.0
  9
$PUCSORTHOREF
  2

  9
$PUCSORTHOVIEW
 70
     0
  9
$PUCSORGTOP
 10
0.0
 20
0.0
 30
0.0
  9
$PUCSORGBOTTOM
 10
0.0
 20
0.0
 30
0.0
  9
$PUCSORGLEFT
 10
0.0
 20
0.0
 30
0.0
  9
$PUCSORGRIGHT
 10
0.0
 20
0.0
 30
0.0
  9
$PUCSORGFRONT
 10
0.0
 20
0.0
 30
0.0
  9
$PUCSORGBACK
 10
0.0
 20
0.0
 30
0.0
  9
$USERI1
 70
     0
  9
$USERI2
 70
     0
  9
$USERI3
 70
     0
  9
$USERI4
 70
     0
  9
$USERI5
 70
     0
  9
$USERR1
 40
0.0
  9
$USERR2
 40
0.0
  9
$USERR3
 40
0.0
  9
$USERR4
 40
0.0
  9
$USERR5
 40
0.0
  9
$WORLDVIEW
 70
     1
  9
$SHADEDGE
 70
     3
  9
$SHADEDIF
 70
    70
  9
$TILEMODE
 70
     1
  9
$MAXACTVP
 70
    64
  9
$PINSBASE
 10
0.0
 20
0.0
 30
0.0
  9
$PLIMCHECK
 70
     0
  9
$PEXTMIN
 10
1.000000000000000E+20
 20
1.000000000000000E+20
 30
1.000000000000000E+20
  9
$PEXTMAX
 10
-1.000000000000000E+20
 20
-1.000000000000000E+20
 30
-1.000000000000000E+20
  9
$PLIMMIN
 10
0.0
 20
0.0
  9
$PLIMMAX
 10
12.0
 20
9.0
  9
$UNITMODE
 70
     0
  9
$VISRETAIN
 70
     1
  9
$PLINEGEN
 70
     0
  9
$PSLTSCALE
 70
     1
  9
$TREEDEPTH
 70
  3020
  9
$CMLSTYLE
  2
Standard
  9
$CMLJUST
 70
     0
  9
$CMLSCALE
 40
1.0
  9
$PROXYGRAPHICS
 70
     1
  9
$MEASUREMENT
 70
     0
  9
$CELWEIGHT
370
    -1
  9
$ENDCAPS
280
     0
  9
$JOINSTYLE
280
     0
  9
$LWDISPLAY
290
     0
  9
$INSUNITS
 70
     4
  9
$HYPERLINKBASE
  1

  9
$STYLESHEET
  1

  9
$XEDIT
290
     1
  9
$CEPSNTYPE
380
     0
  9
$PSTYLEMODE
290
     1
  9
$FINGERPRINTGUID
  2
{92706990-7E1F-47CB-A7A6-64D1D61FAF39}
  9
$VERSIONGUID
  2
{FAEB1C32-E019-11D5-929B-00C0DF256EC4}
  9
$EXTNAMES
290
     1
  9
$PSVPSCALE
 40
0.0
  9
$OLESTARTUP
290
     0
  9
$SORTENTS
280
   127
  9
$INDEXCTL
280
     0
  9
$HIDETEXT
280
     1
  9
$XCLIPFRAME
290
     0
  9
$HALOGAP
280
     0
  9
$OBSCOLOR
 70
   257
  9
$OBSLTYPE
280
     0
  9
$INTERSECTIONDISPLAY
280
     0
  9
$INTERSECTIONCOLOR
 70
   257
  9
$DIMASSOC
280
     2
  9
$PROJECTNAME
  1

  9
$CAMERADISPLAY
290
     0
  9
$LENSLENGTH
 40
50.0
  9
$CAMERAHEIGHT
 40
0.0
  9
$STEPSPERSEC
 40
2.0
  9
$STEPSIZE
 40
6.0
  9
$3DDWFPREC
 40
2.0
  9
$PSOLWIDTH
 40
0.25
  9
$PSOLHEIGHT
 40
4.0
  9
$LOFTANG1
 40
1.570796326794897
  9
$LOFTANG2
 40
1.570796326794897
  9
$LOFTMAG1
 40
0.0
  9
$LOFTMAG2
 40
0.0
  9
$LOFTPARAM
 70
     7
  9
$LOFTNORMALS
280
     1
  9
$LATITUDE
 40
37.795
  9
$LONGITUDE
 40
-122.394
  9
$NORTHDIRECTION
 40
0.0
  9
$TIMEZONE
 70
 -8000
  9
$LIGHTGLYPHDISPLAY
280
     1
  9
$TILEMODELIGHTSYNCH
280
     1
  9
$SOLIDHIST
280
     1
  9
$SHOWHIST
280
     1
  9
$DWFFRAME
280
     2
  9
$DGNFRAME
280
     2
  9
$REALWORLDSCALE
290
     1
  9
$INTERFERECOLOR
 62
   256
  9
$CSHADOW
280
     0
  9
$SHADOWPLANELOCATION
 40
0.0
  0
ENDSEC
  0
SECTION
  2
CLASSES
  0
CLASS
  1
ACDBDICTIONARYWDFLT
  2
AcDbDictionaryWithDefault
  3
ObjectDBX Classes
 90
        0
 91
        4
280
     0
281
     0
  0
CLASS
  1
VISUALSTYLE
  2
AcDbVisualStyle
  3
ObjectDBX Classes
 90
     4095
 91
        4
280
     0
281
     0
  0
CLASS
  1
MATERIAL
  2
AcDbMaterial
  3
ObjectDBX Classes
 90
     1153
 91
        4
280
     0
281
     0
  0
ENDSEC
  0
SECTION
  2
TABLES
  0
TABLE
  2
VPORT
  5
8
330
0
100
AcDbSymbolTable
 70
     1
  0
VPORT
  5
29
330
8
100
AcDbSymbolTableRecord
100
AcDbViewportTableRecord
  2
*Active
 70
     0
 10
0.0
 20
0.0
 11
1.0
 21
1.0
 12
10.42990654205607
 22
4.5
 13
0.0
 23
0.0
 14
0.5
 24
0.5
 15
0.5
 25
0.5
 16
0.0
 26
0.0
 36
1.0
 17
0.0
 27
0.0
 37
0.0
 40
9.0
 41
1.972972972850329
 42
50.0
 43
0.0
 44
0.0
 50
0.0
 51
0.0
 71
     0
 72
   100
 73
     1
 74
     3
 75
     0
 76
     0
 77
     0
 78
     0
281
     0
 65
     1
110
0.0
120
0.0
130
0.0
111
1.0
121
0.0
131
0.0
112
0.0
122
1.0
132
0.0
 79
     0
146
0.0
 60
     3
 61
     5
292
     1
282
     1
141
0.0
142
0.0
 63
   250
  0
ENDTAB
  0
TABLE
  2
LTYPE
  5
5
330
0
100
AcDbSymbolTable
 70
     1
  0
LTYPE
  5
14
330
5
100
AcDbSymbolTableRecord
100
AcDbLinetypeTableRecord
  2
ByBlock
 70
     0
  3

 72
    65
 73
     0
 40
0.0
  0
LTYPE
  5
15
330
5
100
AcDbSymbolTableRecord
100
AcDbLinetypeTableRecord
  2
ByLayer
 70
     0
  3

 72
    65
 73
     0
 40
0.0
  0
LTYPE
  5
16
330
5
100
AcDbSymbolTableRecord
100
AcDbLinetypeTableRecord
  2
Continuous
 70
     0
  3
Solid line
 72
    65
 73
     0
 40
0.0
  0
ENDTAB
  0
TABLE
  2
LAYER
  5
2
330
0
100
AcDbSymbolTable
 70
     3
  0
LAYER
  5
10
330
2
100
AcDbSymbolTableRecord
100
AcDbLayerTableRecord
  2
0
 70
     0
 62
     7
  6
Continuous
370
    -3
390
F
347
3E
  0
LAYER
  5
40
330
2
100
AcDbSymbolTableRecord
100
AcDbLayerTableRecord
  2
layer 1
 70
     0
 62
     7
  6
Continuous
370
    -3
390
F
347
3E
  0
LAYER
  5
7D
330
2
100
AcDbSymbolTableRecord
100
AcDbLayerTableRecord
  2
Master Guides
 70
     0
 62
     7
  6
Continuous
370
    -3
390
F
347
3E
  0
ENDTAB
  0
TABLE
  2
STYLE
  5
3
330
0
100
AcDbSymbolTable
 70
     1
  0
STYLE
  5
11
330
3
100
AcDbSymbolTableRecord
100
AcDbTextStyleTableRecord
  2
Standard
 70
     0
 40
0.0
 41
1.0
 50
0.0
 71
     0
 42
0.2
  3
txt
  4

  0
ENDTAB
  0
TABLE
  2
VIEW
  5
6
330
0
100
AcDbSymbolTable
 70
     0
  0
ENDTAB
  0
TABLE
  2
UCS
  5
7
330
0
100
AcDbSymbolTable
 70
     0
  0
ENDTAB
  0
TABLE
  2
APPID
  5
9
330
0
100
AcDbSymbolTable
 70
     2
  0
APPID
  5
12
330
9
100
AcDbSymbolTableRecord
100
AcDbRegAppTableRecord
  2
ACAD
 70
     0
  0
APPID
  5
3F
330
9
100
AcDbSymbolTableRecord
100
AcDbRegAppTableRecord
  2
ODA
 70
     0
  0
ENDTAB
  0
TABLE
  2
DIMSTYLE
  5
A
330
0
100
AcDbSymbolTable
 70
     1
100
AcDbDimStyleTable
  0
DIMSTYLE
105
27
330
A
100
AcDbSymbolTableRecord
100
AcDbDimStyleTableRecord
  2
Standard
 70
     0
178
     0
340
11
  0
ENDTAB
  0
TABLE
  2
BLOCK_RECORD
  5
1
330
0
100
AcDbSymbolTable
 70
     1
  0
BLOCK_RECORD
  5
1F
330
1
100
AcDbSymbolTableRecord
100
AcDbBlockTableRecord
  2
*Model_Space
340
22
 70
     0
280
     1
281
     0
  0
BLOCK_RECORD
  5
1B
330
1
100
AcDbSymbolTableRecord
100
AcDbBlockTableRecord
  2
*Paper_Space
340
1E
 70
     0
280
     1
281
     0
  0
BLOCK_RECORD
  5
23
330
1
100
AcDbSymbolTableRecord
100
AcDbBlockTableRecord
  2
*Paper_Space0
340
26
 70
     0
280
     1
281
     0
  0
ENDTAB
  0
ENDSEC
  0
SECTION
  2
BLOCKS
  0
BLOCK
  5
20
330
1F
100
AcDbEntity
  8
0
100
AcDbBlockBegin
  2
*Model_Space
 70
     0
 10
0.0
 20
0.0
 30
0.0
  3
*Model_Space
  1

  0
ENDBLK
  5
21
330
1F
100
AcDbEntity
  8
0
100
AcDbBlockEnd
  0
BLOCK
  5
1C
330
1B
100
AcDbEntity
 67
     1
  8
0
100
AcDbBlockBegin
  2
*Paper_Space
 70
     0
 10
0.0
 20
0.0
 30
0.0
  3
*Paper_Space
  1

  0
ENDBLK
  5
1D
330
1B
100
AcDbEntity
 67
     1
  8
0
100
AcDbBlockEnd
  0
BLOCK
  5
24
330
23
100
AcDbEntity
  8
0
100
AcDbBlockBegin
  2
*Paper_Space0
 70
     0
 10
0.0
 20
0.0
 30
0.0
  3
*Paper_Space0
  1

  0
ENDBLK
  5
25
330
23
100
AcDbEntity
  8
0
100
AcDbBlockEnd
  0
ENDSEC
  0
SECTION
  2
ENTITIES
  0
SPLINE
  5
41
330
1F
100
AcDbEntity
  8
layer 1
100
AcDbSpline
210
0.0
220
0.0
230
1.0
 70
    11
 71
     3
 72
    20
 73
    16
 74
     0
 42
0.0000000001
 43
0.0000000001
 12
1.0
 22
0.0
 32
0.0
 13
1.0
 23
0.0
 33
0.0
 40
0.0
 40
0.0
 40
0.0
 40
0.0
 40
0.2
 40
0.2
 40
0.2
 40
0.2
 40
0.4
 40
0.4
 40
0.4
 40
0.4
 40
0.6
 40
0.6
 40
0.6
 40
0.6
 40
1.0
 40
1.0
 40
1.0
 40
1.0
 10
-187.4942
 20
-115.2779
 30
0.0
 10
-187.4942
 20
-115.2779
 30
0.0
 10
-30.4187
 20
-115.2779
 30
0.0
 10
-30.4187
 20
-115.2779
 30
0.0
 10
-30.4187
 20
-115.2779
 30
0.0
 10
-30.4187
 20
-115.2779
 30
0.0
 10
-30.4187
 20
131.8722
 30
0.0
 10
-30.4187
 20
131.8722
 30
0.0
 10
-30.4187
 20
131.8722
 30
0.0
 10
-30.4187
 20
131.8722
 30
0.0
 10
-187.4942
 20
131.8722
 30
0.0
 10
-187.4942
 20
131.8722
 30
0.0
 10
-187.4942
 20
131.8722
 30
0.0
 10
-187.4942
 20
131.8722
 30
0.0
 10
-187.4942
 20
-115.2779
 30
0.0
 10
-187.4942
 20
-115.2779
 30
0.0
  0
SPLINE
  5
42
330
1F
100
AcDbEntity
  8
layer 1
 62
     7
100
AcDbSpline
210
0.0
220
0.0
230
1.0
 70
    11
 71
     3
 72
    36
 73
    32
 74
     0
 42
0.0000000001
 43
0.0000000001
 12
1.0
 22
0.0
 32
0.0
 13
1.0
 23
0.0
 33
0.0
 40
0.0
 40
0.0
 40
0.0
 40
0.0
 40
0.1111111111111111
 40
0.1111111111111111
 40
0.1111111111111111
 40
0.1111111111111111
 40
0.2222222222222222
 40
0.2222222222222222
 40
0.2222222222222222
 40
0.2222222222222222
 40
0.3333333333333333
 40
0.3333333333333333
 40
0.3333333333333333
 40
0.3333333333333333
 40
0.4444444444444444
 40
0.4444444444444444
 40
0.4444444444444444
 40
0.4444444444444444
 40
0.5555555555555556
 40
0.5555555555555556
 40
0.5555555555555556
 40
0.5555555555555556
 40
0.6666666666666666
 40
0.6666666666666666
 40
0.6666666666666666
 40
0.6666666666666666
 40
0.7777777777777778
 40
0.7777777777777778
 40
0.7777777777777778
 40
0.7777777777777778
 40
1.0
 40
1.0
 40
1.0
 40
1.0
 10
-116.6487
 20
23.8951
 30
0.0
 10
-115.7509
 20
20.7164
 30
0.0
 10
-109.662
 20
20.5921
 30
0.0
 10
-108.8572
 20
24.6554
 30
0.0
 10
-108.8572
 20
24.6554
 30
0.0
 10
-108.0524
 20
20.5921
 30
0.0
 10
-102.031
 20
20.8516
 30
0.0
 10
-101.0657
 20
23.8951
 30
0.0
 10
-101.0657
 20
23.8951
 30
0.0
 10
-99.3522
 20
17.5889
 30
0.0
 10
-95.2655
 20
11.2937
 30
0.0
 10
-83.7845
 20
8.2972
 30
0.0
 10
-83.7845
 20
8.2972
 30
0.0
 10
-95.2655
 20
5.3006
 30
0.0
 10
-100.0281
 20
-1.603
 30
0.0
 10
-101.0657
 20
-7.3008
 30
0.0
 10
-101.0657
 20
-7.3008
 30
0.0
 10
-101.9635
 20
-4.1221
 30
0.0
 10
-108.0524
 20
-3.9978
 30
0.0
 10
-108.8572
 20
-8.0611
 30
0.0
 10
-108.8572
 20
-8.0611
 30
0.0
 10
-109.662
 20
-3.9978
 30
0.0
 10
-115.6834
 20
-4.2573
 30
0.0
 10
-116.6487
 20
-7.3008
 30
0.0
 10
-116.6487
 20
-7.3008
 30
0.0
 10
-118.3622
 20
-0.9946
 30
0.0
 10
-122.449
 20
5.3006
 30
0.0
 10
-133.9299
 20
8.2972
 30
0.0
 10
-133.9299
 20
8.2972
 30
0.0
 10
-122.449
 20
11.2937
 30
0.0
 10
-117.6864
 20
18.1973
 30
0.0
 10
-116.6487
 20
23.8951
 30
0.0
  0
SPLINE
  5
43
330
1F
100
AcDbEntity
  8
layer 1
 62
     7
100
AcDbSpline
210
0.0
220
0.0
230
1.0
 70
    11
 71
     3
 72
    24
 73
    20
 74
     0
 42
0.0000000001
 43
0.0000000001
 12
1.0
 22
0.0
 32
0.0
 13
1.0
 23
0.0
 33
0.0
 40
0.0
 40
0.0
 40
0.0
 40
0.0
 40
0.1666666666666667
 40
0.1666666666666667
 40
0.1666666666666667
 40
0.1666666666666667
 40
0.3333333333333333
 40
0.3333333333333333
 40
0.3333333333333333
 40
0.3333333333333333
 40
0.5
 40
0.5
 40
0.5
 40
0.5
 40
0.6666666666666666
 40
0.6666666666666666
 40
0.6666666666666666
 40
0.6666666666666666
 40
1.0
 40
1.0
 40
1.0
 40
1.0
 10
-133.5709
 20
13.4653
 30
0.0
 10
-139.0467
 20
9.4607
 30
0.0
 10
-151.592
 20
13.8951
 30
0.0
 10
-153.3949
 20
18.5186
 30
0.0
 10
-153.3949
 20
18.5186
 30
0.0
 10
-145.0676
 20
15.6618
 30
0.0
 10
-139.4175
 20
20.7843
 30
0.0
 10
-142.0879
 20
27.3492
 30
0.0
 10
-142.0879
 20
27.3492
 30
0.0
 10
-141.3212
 20
26.7537
 30
0.0
 10
-140.255
 20
26.1693
 30
0.0
 10
-139.4309
 20
26.337
 30
0.0
 10
-139.4309
 20
26.337
 30
0.0
 10
-141.5355
 20
22.5846
 30
0.0
 10
-140.5904
 20
16.1166
 30
0.0
 10
-133.571
 20
13.4652
 30
0.0
 10
-133.571
 20
13.4652
 30
0.0
 10
-133.571
 20
13.4652
 30
0.0
 10
-133.5709
 20
13.4653
 30
0.0
 10
-133.5709
 20
13.4653
 30
0.0
  0
SPLINE
  5
44
330
1F
100
AcDbEntity
  8
layer 1
 62
     7
100
AcDbSpline
210
0.0
220
0.0
230
1.0
 70
    11
 71
     3
 72
    40
 73
    36
 74
     0
 42
0.0000000001
 43
0.0000000001
 12
1.0
 22
0.0
 32
0.0
 13
1.0
 23
0.0
 33
0.0
 40
0.0
 40
0.0
 40
0.0
 40
0.0
 40
0.1
 40
0.1
 40
0.1
 40
0.1
 40
0.2
 40
0.2
 40
0.2
 40
0.2
 40
0.3
 40
0.3
 40
0.3
 40
0.3
 40
0.4
 40
0.4
 40
0.4
 40
0.4
 40
0.5
 40
0.5
 40
0.5
 40
0.5
 40
0.6
 40
0.6
 40
0.6
 40
0.6
 40
0.7
 40
0.7
 40
0.7
 40
0.7
 40
0.8
 40
0.8
 40
0.8
 40
0.8
 40
1.0
 40
1.0
 40
1.0
 40
1.0
 10
-131.9763
 20
18.8255
 30
0.0
 10
-132.987
 20
19.44
 30
0.0
 10
-133.8743
 20
20.9262
 30
0.0
 10
-133.8743
 20
22.0043
 30
0.0
 10
-133.8743
 20
22.0043
 30
0.0
 10
-134.0471
 20
24.4578
 30
0.0
 10
-130.4247
 20
27.53
 30
0.0
 10
-126.9333
 20
24.5088
 30
0.0
 10
-126.9333
 20
24.5088
 30
0.0
 10
-126.9333
 20
26.4321
 30
0.0
 10
-129.1153
 20
30.9232
 30
0.0
 10
-132.7496
 20
30.4849
 30
0.0
 10
-132.7496
 20
30.4849
 30
0.0
 10
-131.6312
 20
31.9006
 30
0.0
 10
-132.8388
 20
37.8606
 30
0.0
 10
-135.4855
 20
38.3234
 30
0.0
 10
-135.4855
 20
38.3234
 30
0.0
 10
-135.0069
 20
35.2475
 30
0.0
 10
-136.4326
 20
32.4826
 30
0.0
 10
-139.216
 20
32.4148
 30
0.0
 10
-139.216
 20
32.4148
 30
0.0
 10
-144.6625
 20
33.2353
 30
0.0
 10
-143.6974
 20
39.8724
 30
0.0
 10
-138.1886
 20
42.4554
 30
0.0
 10
-138.1886
 20
42.4554
 30
0.0
 10
-132.8118
 20
44.4194
 30
0.0
 10
-126.7101
 20
41.8824
 30
0.0
 10
-123.1048
 20
37.5467
 30
0.0
 10
-123.1048
 20
37.5467
 30
0.0
 10
-119.4207
 20
32.8249
 30
0.0
 10
-119.4947
 20
26.8876
 30
0.0
 10
-122.096
 20
22.7036
 30
0.0
 10
-122.096
 20
22.7036
 30
0.0
 10
-124.0228
 20
19.5457
 30
0.0
 10
-128.5498
 20
16.8416
 30
0.0
 10
-131.9763
 20
18.8255
 30
0.0
  0
SPLINE
  5
45
330
1F
100
AcDbEntity
  8
layer 1
 62
     7
100
AcDbSpline
210
0.0
220
0.0
230
1.0
 70
    11
 71
     3
 72
    24
 73
    20
 74
     0
 42
0.0000000001
 43
0.0000000001
 12
1.0
 22
0.0
 32
0.0
 13
1.0
 23
0.0
 33
0.0
 40
0.0
 40
0.0
 40
0.0
 40
0.0
 40
0.1666666666666667
 40
0.1666666666666667
 40
0.1666666666666667
 40
0.1666666666666667
 40
0.3333333333333333
 40
0.3333333333333333
 40
0.3333333333333333
 40
0.3333333333333333
 40
0.5
 40
0.5
 40
0.5
 40
0.5
 40
0.6666666666666666
 40
0.6666666666666666
 40
0.6666666666666666
 40
0.6666666666666666
 40
1.0
 40
1.0
 40
1.0
 40
1.0
 10
-174.994
 20
20.5016
 30
0.0
 10
-174.994
 20
20.5016
 30
0.0
 10
-174.994
 20
37.8439
 30
0.0
 10
-174.994
 20
37.8439
 30
0.0
 10
-174.994
 20
37.8439
 30
0.0
 10
-172.4516
 20
33.9539
 30
0.0
 10
-165.601
 20
34.059
 30
0.0
 10
-163.4977
 20
38.7363
 30
0.0
 10
-163.4977
 20
38.7363
 30
0.0
 10
-163.9397
 20
35.7386
 30
0.0
 10
-164.2263
 20
31.6901
 30
0.0
 10
-163.3489
 20
27.3892
 30
0.0
 10
-163.3489
 20
27.3892
 30
0.0
 10
-169.8461
 20
28.7101
 30
0.0
 10
-173.3838
 20
24.9585
 30
0.0
 10
-174.994
 20
20.5015
 30
0.0
 10
-174.994
 20
20.5015
 30
0.0
 10
-174.994
 20
20.5015
 30
0.0
 10
-174.994
 20
20.5016
 30
0.0
 10
-174.994
 20
20.5016
 30
0.0
  0
SPLINE
  5
46
330
1F
100
AcDbEntity
  8
layer 1
 62
     7
100
AcDbSpline
210
0.0
220
0.0
230
1.0
 70
    11
 71
     3
 72
    44
 73
    40
 74
     0
 42
0.0000000001
 43
0.0000000001
 12
1.0
 22
0.0
 32
0.0
 13
1.0
 23
0.0
 33
0.0
 40
0.0
 40
0.0
 40
0.0
 40
0.0
 40
0.0909090909090909
 40
0.0909090909090909
 40
0.0909090909090909
 40
0.0909090909090909
 40
0.1818181818181818
 40
0.1818181818181818
 40
0.1818181818181818
 40
0.1818181818181818
 40
0.2727272727272727
 40
0.2727272727272727
 40
0.2727272727272727
 40
0.2727272727272727
 40
0.3636363636363636
 40
0.3636363636363636
 40
0.3636363636363636
 40
0.3636363636363636
 40
0.4545454545454545
 40
0.4545454545454545
 40
0.4545454545454545
 40
0.4545454545454545
 40
0.5454545454545454
 40
0.5454545454545454
 40
0.5454545454545454
 40
0.5454545454545454
 40
0.6363636363636364
 40
0.6363636363636364
 40
0.6363636363636364
 40
0.6363636363636364
 40
0.7272727272727273
 40
0.7272727272727273
 40
0.7272727272727273
 40
0.7272727272727273
 40
0.8181818181818182
 40
0.8181818181818182
 40
0.8181818181818182
 40
0.8181818181818182
 40
1.0
 40
1.0
 40
1.0
 40
1.0
 10
-155.7524
 20
44.1778
 30
0.0
 10
-152.5939
 20
49.099
 30
0.0
 10
-145.8099
 20
54.5967
 30
0.0
 10
-140.1945
 20
55.5684
 30
0.0
 10
-140.1945
 20
55.5684
 30
0.0
 10
-132.402
 20
57.5989
 30
0.0
 10
-124.7965
 20
56.5038
 30
0.0
 10
-120.4891
 20
54.4805
 30
0.0
 10
-120.4891
 20
54.4805
 30
0.0
 10
-121.5009
 20
49.4642
 30
0.0
 10
-120.4756
 20
43.5191
 30
0.0
 10
-120.1265
 20
39.7905
 30
0.0
 10
-120.1265
 20
39.7905
 30
0.0
 10
-123.0212
 20
45.1841
 30
0.0
 10
-129.9917
 20
47.3329
 30
0.0
 10
-136.3361
 20
46.4368
 30
0.0
 10
-136.3361
 20
46.4368
 30
0.0
 10
-142.0365
 20
45.4659
 30
0.0
 10
-147.4329
 20
42.2056
 30
0.0
 10
-147.6293
 20
35.7437
 30
0.0
 10
-147.6293
 20
35.7437
 30
0.0
 10
-147.6869
 20
33.2968
 30
0.0
 10
-146.7629
 20
31.7953
 30
0.0
 10
-146.0895
 20
30.6267
 30
0.0
 10
-146.0895
 20
30.6267
 30
0.0
 10
-148.7161
 20
32.1806
 30
0.0
 10
-152.777
 20
29.5947
 30
0.0
 10
-151.6202
 20
25.8213
 30
0.0
 10
-151.6202
 20
25.8213
 30
0.0
 10
-147.2874
 20
27.8212
 30
0.0
 10
-146.3434
 20
21.9613
 30
0.0
 10
-150.4021
 20
21.7364
 30
0.0
 10
-150.4021
 20
21.7364
 30
0.0
 10
-160.8379
 20
22.6091
 30
0.0
 10
-158.9984
 20
39.6559
 30
0.0
 10
-155.7523
 20
44.1778
 30
0.0
 10
-155.7523
 20
44.1778
 30
0.0
 10
-155.7523
 20
44.1778
 30
0.0
 10
-155.7524
 20
44.1778
 30
0.0
 10
-155.7524
 20
44.1778
 30
0.0
  0
SPLINE
  5
47
330
1F
100
AcDbEntity
  8
layer 1
 62
     7
100
AcDbSpline
210
0.0
220
0.0
230
1.0
 70
    11
 71
     3
 72
    20
 73
    16
 74
     0
 42
0.0000000001
 43
0.0000000001
 12
1.0
 22
0.0
 32
0.0
 13
1.0
 23
0.0
 33
0.0
 40
0.0
 40
0.0
 40
0.0
 40
0.0
 40
0.2
 40
0.2
 40
0.2
 40
0.2
 40
0.4
 40
0.4
 40
0.4
 40
0.4
 40
0.6
 40
0.6
 40
0.6
 40
0.6
 40
1.0
 40
1.0
 40
1.0
 40
1.0
 10
-112.6519
 20
27.3762
 30
0.0
 10
-112.6939
 20
29.2237
 30
0.0
 10
-110.7363
 20
29.8484
 30
0.0
 10
-108.8572
 20
29.5131
 30
0.0
 10
-108.8572
 20
29.5131
 30
0.0
 10
-106.9782
 20
29.8484
 30
0.0
 10
-105.0205
 20
29.2237
 30
0.0
 10
-105.0625
 20
27.3762
 30
0.0
 10
-105.0625
 20
27.3762
 30
0.0
 10
-105.2006
 20
24.8236
 30
0.0
 10
-107.8744
 20
24.4058
 30
0.0
 10
-108.8572
 20
26.9583
 30
0.0
 10
-108.8572
 20
26.9583
 30
0.0
 10
-109.84
 20
24.4058
 30
0.0
 10
-112.5138
 20
24.8236
 30
0.0
 10
-112.6519
 20
27.3762
 30
0.0
  0
SPLINE
  5
48
330
1F
100
AcDbEntity
  8
layer 1
 62
     7
100
AcDbSpline
210
0.0
220
0.0
230
1.0
 70
    11
 71
     3
 72
    20
 73
    16
 74
     0
 42
0.0000000001
 43
0.0000000001
 12
1.0
 22
0.0
 32
0.0
 13
1.0
 23
0.0
 33
0.0
 40
0.0
 40
0.0
 40
0.0
 40
0.0
 40
0.2
 40
0.2
 40
0.2
 40
0.2
 40
0.4
 40
0.4
 40
0.4
 40
0.4
 40
0.6
 40
0.6
 40
0.6
 40
0.6
 40
1.0
 40
1.0
 40
1.0
 40
1.0
 10
-114.889
 20
32.3628
 30
0.0
 10
-113.2343
 20
33.6632
 30
0.0
 10
-110.6495
 20
33.9239
 30
0.0
 10
-108.8571
 20
33.2017
 30
0.0
 10
-108.8571
 20
33.2017
 30
0.0
 10
-107.0647
 20
33.9239
 30
0.0
 10
-104.4799
 20
33.6632
 30
0.0
 10
-102.8253
 20
32.3628
 30
0.0
 10
-102.8253
 20
32.3628
 30
0.0
 10
-104.6587
 20
36.3782
 30
0.0
 10
-106.5571
 20
39.548
 30
0.0
 10
-108.8571
 20
43.3909
 30
0.0
 10
-108.8571
 20
43.3909
 30
0.0
 10
-111.1572
 20
39.5479
 30
0.0
 10
-113.0555
 20
36.3781
 30
0.0
 10
-114.889
 20
32.3628
 30
0.0
  0
SPLINE
  5
49
330
1F
100
AcDbEntity
  8
layer 1
 62
     7
100
AcDbSpline
210
0.0
220
0.0
230
1.0
 70
    11
 71
     3
 72
    16
 73
    12
 74
     0
 42
0.0000000001
 43
0.0000000001
 12
1.0
 22
0.0
 32
0.0
 13
1.0
 23
0.0
 33
0.0
 40
0.0
 40
0.0
 40
0.0
 40
0.0
 40
0.25
 40
0.25
 40
0.25
 40
0.25
 40
0.5
 40
0.5
 40
0.5
 40
0.5
 40
1.0
 40
1.0
 40
1.0
 40
1.0
 10
-117.1551
 20
32.6189
 30
0.0
 10
-118.2987
 20
43.7564
 30
0.0
 10
-119.1426
 20
48.0642
 30
0.0
 10
-118.446
 20
53.6513
 30
0.0
 10
-118.446
 20
53.6513
 30
0.0
 10
-116.747
 20
52.7305
 30
0.0
 10
-111.1232
 20
47.666
 30
0.0
 10
-111.1966
 20
47.3212
 30
0.0
 10
-111.1966
 20
47.3212
 30
0.0
 10
-114.3087
 20
42.6081
 30
0.0
 10
-116.3172
 20
38.0679
 30
0.0
 10
-117.1551
 20
32.6189
 30
0.0
  0
SPLINE
  5
4A
330
1F
100
AcDbEntity
  8
layer 1
 62
     7
100
AcDbSpline
210
0.0
220
0.0
230
1.0
 70
    11
 71
     3
 72
    32
 73
    28
 74
     0
 42
0.0000000001
 43
0.0000000001
 12
1.0
 22
0.0
 32
0.0
 13
1.0
 23
0.0
 33
0.0
 40
0.0
 40
0.0
 40
0.0
 40
0.0
 40
0.125
 40
0.125
 40
0.125
 40
0.125
 40
0.25
 40
0.25
 40
0.25
 40
0.25
 40
0.375
 40
0.375
 40
0.375
 40
0.375
 40
0.5
 40
0.5
 40
0.5
 40
0.5
 40
0.625
 40
0.625
 40
0.625
 40
0.625
 40
0.75
 40
0.75
 40
0.75
 40
0.75
 40
1.0
 40
1.0
 40
1.0
 40
1.0
 10
-173.2454
 20
45.9105
 30
0.0
 10
-173.2454
 20
46.965
 30
0.0
 10
-172.3021
 20
49.6005
 30
0.0
 10
-171.4214
 20
51.0067
 30
0.0
 10
-171.4214
 20
51.0067
 30
0.0
 10
-165.0759
 20
59.8419
 30
0.0
 10
-151.3425
 20
61.1342
 30
0.0
 10
-140.7043
 20
59.6457
 30
0.0
 10
-140.7043
 20
59.6457
 30
0.0
 10
-150.8892
 20
57.5221
 30
0.0
 10
-158.23
 20
50.817
 30
0.0
 10
-161.8789
 20
42.9123
 30
0.0
 10
-161.8789
 20
42.9123
 30
0.0
 10
-161.4048
 20
46.8173
 30
0.0
 10
-165.6555
 20
49.3989
 30
0.0
 10
-169.2658
 20
47.5907
 30
0.0
 10
-169.2658
 20
47.5907
 30
0.0
 10
-167.0483
 20
46.6805
 30
0.0
 10
-166.6026
 20
44.2724
 30
0.0
 10
-168.0439
 20
42.8281
 30
0.0
 10
-168.0439
 20
42.8281
 30
0.0
 10
-170.417
 20
41.0534
 30
0.0
 10
-173.422
 20
42.699
 30
0.0
 10
-173.2453
 20
45.9105
 30
0.0
 10
-173.2453
 20
45.9105
 30
0.0
 10
-173.2453
 20
45.9105
 30
0.0
 10
-173.2454
 20
45.9105
 30
0.0
 10
-173.2454
 20
45.9105
 30
0.0
  0
SPLINE
  5
4B
330
1F
100
AcDbEntity
  8
layer 1
 62
     7
100
AcDbSpline
210
0.0
220
0.0
230
1.0
 70
    11
 71
     3
 72
    16
 73
    12
 74
     0
 42
0.0000000001
 43
0.0000000001
 12
1.0
 22
0.0
 32
0.0
 13
1.0
 23
0.0
 33
0.0
 40
0.0
 40
0.0
 40
0.0
 40
0.0
 40
0.25
 40
0.25
 40
0.25
 40
0.25
 40
0.5
 40
0.5
 40
0.5
 40
0.5
 40
1.0
 40
1.0
 40
1.0
 40
1.0
 10
-176.3346
 20
69.6992
 30
0.0
 10
-173.0434
 20
67.0088
 30
0.0
 10
-167.568
 20
61.8616
 30
0.0
 10
-161.3586
 20
61.8191
 30
0.0
 10
-161.3586
 20
61.8191
 30
0.0
 10
-167.6711
 20
59.1401
 30
0.0
 10
-171.1219
 20
56.4562
 30
0.0
 10
-174.9692
 20
52.5162
 30
0.0
 10
-174.9692
 20
52.5162
 30
0.0
 10
-174.6124
 20
56.7943
 30
0.0
 10
-175.4951
 20
64.8908
 30
0.0
 10
-176.3346
 20
69.6992
 30
0.0
  0
SPLINE
  5
4C
330
1F
100
AcDbEntity
  8
layer 1
 62
     7
100
AcDbSpline
210
0.0
220
0.0
230
1.0
 70
    11
 71
     3
 72
    20
 73
    16
 74
     0
 42
0.0000000001
 43
0.0000000001
 12
1.0
 22
0.0
 32
0.0
 13
1.0
 23
0.0
 33
0.0
 40
0.0
 40
0.0
 40
0.0
 40
0.0
 40
0.2
 40
0.2
 40
0.2
 40
0.2
 40
0.4
 40
0.4
 40
0.4
 40
0.4
 40
0.6
 40
0.6
 40
0.6
 40
0.6
 40
1.0
 40
1.0
 40
1.0
 40
1.0
 10
-111.951
 20
53.301
 30
0.0
 10
-113.0411
 20
54.4718
 30
0.0
 10
-114.7339
 20
55.7521
 30
0.0
 10
-116.4267
 20
56.8133
 30
0.0
 10
-116.4267
 20
56.8133
 30
0.0
 10
-115.1156
 20
57.4779
 30
0.0
 10
-113.2111
 20
57.67
 30
0.0
 10
-112.5923
 20
57.1161
 30
0.0
 10
-112.5923
 20
57.1161
 30
0.0
 10
-111.6112
 20
56.3816
 30
0.0
 10
-111.1793
 20
54.2153
 30
0.0
 10
-111.9511
 20
53.301
 30
0.0
 10
-111.9511
 20
53.301
 30
0.0
 10
-111.9511
 20
53.301
 30
0.0
 10
-111.951
 20
53.301
 30
0.0
 10
-111.951
 20
53.301
 30
0.0
  0
SPLINE
  5
4D
330
1F
100
AcDbEntity
  8
layer 1
 62
     7
100
AcDbSpline
210
0.0
220
0.0
230
1.0
 70
    11
 71
     3
 72
    32
 73
    28
 74
     0
 42
0.0000000001
 43
0.0000000001
 12
1.0
 22
0.0
 32
0.0
 13
1.0
 23
0.0
 33
0.0
 40
0.0
 40
0.0
 40
0.0
 40
0.0
 40
0.125
 40
0.125
 40
0.125
 40
0.125
 40
0.25
 40
0.25
 40
0.25
 40
0.25
 40
0.375
 40
0.375
 40
0.375
 40
0.375
 40
0.5
 40
0.5
 40
0.5
 40
0.5
 40
0.625
 40
0.625
 40
0.625
 40
0.625
 40
0.75
 40
0.75
 40
0.75
 40
0.75
 40
1.0
 40
1.0
 40
1.0
 40
1.0
 10
-124.6581
 20
60.0247
 30
0.0
 10
-132.3568
 20
62.5513
 30
0.0
 10
-138.9167
 20
63.5785
 30
0.0
 10
-145.2435
 20
64.2212
 30
0.0
 10
-145.2435
 20
64.2212
 30
0.0
 10
-140.8229
 20
66.4618
 30
0.0
 10
-141.8312
 20
71.1011
 30
0.0
 10
-142.9969
 20
72.0417
 30
0.0
 10
-142.9969
 20
72.0417
 30
0.0
 10
-144.1046
 20
69.4174
 30
0.0
 10
-146.9517
 20
68.5699
 30
0.0
 10
-148.2538
 20
70.1458
 30
0.0
 10
-148.2538
 20
70.1458
 30
0.0
 10
-149.3297
 20
71.0025
 30
0.0
 10
-149.6378
 20
73.1763
 30
0.0
 10
-148.0384
 20
74.6311
 30
0.0
 10
-148.0384
 20
74.6311
 30
0.0
 10
-145.0225
 20
77.2192
 30
0.0
 10
-140.2233
 20
75.7494
 30
0.0
 10
-137.3416
 20
73.6422
 30
0.0
 10
-137.3416
 20
73.6422
 30
0.0
 10
-131.8552
 20
69.8415
 30
0.0
 10
-127.4649
 20
62.7653
 30
0.0
 10
-124.6581
 20
60.0248
 30
0.0
 10
-124.6581
 20
60.0248
 30
0.0
 10
-124.6581
 20
60.0248
 30
0.0
 10
-124.6581
 20
60.0247
 30
0.0
 10
-124.6581
 20
60.0247
 30
0.0
  0
SPLINE
  5
4E
330
1F
100
AcDbEntity
  8
layer 1
 62
     7
100
AcDbSpline
210
0.0
220
0.0
230
1.0
 70
    11
 71
     3
 72
    60
 73
    56
 74
     0
 42
0.0000000001
 43
0.0000000001
 12
1.0
 22
0.0
 32
0.0
 13
1.0
 23
0.0
 33
0.0
 40
0.0
 40
0.0
 40
0.0
 40
0.0
 40
0.0666666666666667
 40
0.0666666666666667
 40
0.0666666666666667
 40
0.0666666666666667
 40
0.1333333333333333
 40
0.1333333333333333
 40
0.1333333333333333
 40
0.1333333333333333
 40
0.2
 40
0.2
 40
0.2
 40
0.2
 40
0.2666666666666667
 40
0.2666666666666667
 40
0.2666666666666667
 40
0.2666666666666667
 40
0.3333333333333333
 40
0.3333333333333333
 40
0.3333333333333333
 40
0.3333333333333333
 40
0.4
 40
0.4
 40
0.4
 40
0.4
 40
0.4666666666666667
 40
0.4666666666666667
 40
0.4666666666666667
 40
0.4666666666666667
 40
0.5333333333333333
 40
0.5333333333333333
 40
0.5333333333333333
 40
0.5333333333333333
 40
0.6
 40
0.6
 40
0.6
 40
0.6
 40
0.6666666666666666
 40
0.6666666666666666
 40
0.6666666666666666
 40
0.6666666666666666
 40
0.7333333333333333
 40
0.7333333333333333
 40
0.7333333333333333
 40
0.7333333333333333
 40
0.8
 40
0.8
 40
0.8
 40
0.8
 40
0.8666666666666667
 40
0.8666666666666667
 40
0.8666666666666667
 40
0.8666666666666667
 40
1.0
 40
1.0
 40
1.0
 40
1.0
 10
-168.8644
 20
69.7208
 30
0.0
 10
-176.285
 20
74.9158
 30
0.0
 10
-180.232
 20
81.9799
 30
0.0
 10
-182.3203
 20
90.4468
 30
0.0
 10
-182.3203
 20
90.4468
 30
0.0
 10
-185.0031
 20
101.5779
 30
0.0
 10
-180.0691
 20
111.9393
 30
0.0
 10
-171.3432
 20
116.22
 30
0.0
 10
-171.3432
 20
116.22
 30
0.0
 10
-163.8685
 20
119.8869
 30
0.0
 10
-154.8949
 20
119.5746
 30
0.0
 10
-148.1184
 20
114.5474
 30
0.0
 10
-148.1184
 20
114.5474
 30
0.0
 10
-142.7173
 20
110.857
 30
0.0
 10
-138.822
 20
101.2669
 30
0.0
 10
-142.1128
 20
97.1562
 30
0.0
 10
-142.1128
 20
97.1562
 30
0.0
 10
-143.4682
 20
95.6096
 30
0.0
 10
-145.0881
 20
94.7934
 30
0.0
 10
-146.6036
 20
94.7702
 30
0.0
 10
-146.6036
 20
94.7702
 30
0.0
 10
-148.1013
 20
94.9252
 30
0.0
 10
-149.7816
 20
95.4315
 30
0.0
 10
-150.199
 20
97.6877
 30
0.0
 10
-150.199
 20
97.6877
 30
0.0
 10
-150.4739
 20
99.9483
 30
0.0
 10
-148.3648
 20
100.8584
 30
0.0
 10
-146.6287
 20
100.5297
 30
0.0
 10
-146.6287
 20
100.5297
 30
0.0
 10
-147.8266
 20
103.8742
 30
0.0
 10
-152.3036
 20
103.6587
 30
0.0
 10
-154.0738
 20
101.158
 30
0.0
 10
-154.0738
 20
101.158
 30
0.0
 10
-151.5909
 20
107.0707
 30
0.0
 10
-155.8997
 20
113.5029
 30
0.0
 10
-163.3515
 20
113.0132
 30
0.0
 10
-163.3515
 20
113.0132
 30
0.0
 10
-170.9676
 20
112.4147
 30
0.0
 10
-174.5246
 20
107.532
 30
0.0
 10
-175.1246
 20
101.9805
 30
0.0
 10
-175.1246
 20
101.9805
 30
0.0
 10
-176.4091
 20
86.7851
 30
0.0
 10
-162.9759
 20
76.5684
 30
0.0
 10
-151.3191
 20
79.4799
 30
0.0
 10
-151.3191
 20
79.4799
 30
0.0
 10
-156.2629
 20
74.698
 30
0.0
 10
-156.397
 20
69.8062
 30
0.0
 10
-152.1144
 20
64.9997
 30
0.0
 10
-152.1144
 20
64.9997
 30
0.0
 10
-158.1381
 20
65.3703
 30
0.0
 10
-164.5793
 20
66.9307
 30
0.0
 10
-168.8644
 20
69.7209
 30
0.0
 10
-168.8644
 20
69.7209
 30
0.0
 10
-168.8644
 20
69.7209
 30
0.0
 10
-168.8644
 20
69.7208
 30
0.0
 10
-168.8644
 20
69.7208
 30
0.0
  0
SPLINE
  5
4F
330
1F
100
AcDbEntity
  8
layer 1
 62
     7
100
AcDbSpline
210
0.0
220
0.0
230
1.0
 70
    11
 71
     3
 72
    24
 73
    20
 74
     0
 42
0.0000000001
 43
0.0000000001
 12
1.0
 22
0.0
 32
0.0
 13
1.0
 23
0.0
 33
0.0
 40
0.0
 40
0.0
 40
0.0
 40
0.0
 40
0.1666666666666667
 40
0.1666666666666667
 40
0.1666666666666667
 40
0.1666666666666667
 40
0.3333333333333333
 40
0.3333333333333333
 40
0.3333333333333333
 40
0.3333333333333333
 40
0.5
 40
0.5
 40
0.5
 40
0.5
 40
0.6666666666666666
 40
0.6666666666666666
 40
0.6666666666666666
 40
0.6666666666666666
 40
1.0
 40
1.0
 40
1.0
 40
1.0
 10
-146.7538
 20
81.3527
 30
0.0
 10
-142.8487
 20
83.3602
 30
0.0
 10
-140.3122
 20
86.3451
 30
0.0
 10
-138.4206
 20
91.1991
 30
0.0
 10
-138.4206
 20
91.1991
 30
0.0
 10
-138.3204
 20
83.7886
 30
0.0
 10
-133.7991
 20
80.0236
 30
0.0
 10
-126.491
 20
80.4525
 30
0.0
 10
-126.491
 20
80.4525
 30
0.0
 10
-130.4298
 20
77.9057
 30
0.0
 10
-131.5003
 20
74.7215
 30
0.0
 10
-131.1537
 20
70.6558
 30
0.0
 10
-131.1537
 20
70.6558
 30
0.0
 10
-132.9673
 20
74.8559
 30
0.0
 10
-137.7792
 20
79.9747
 30
0.0
 10
-146.7539
 20
81.3527
 30
0.0
 10
-146.7539
 20
81.3527
 30
0.0
 10
-146.7539
 20
81.3527
 30
0.0
 10
-146.7538
 20
81.3527
 30
0.0
 10
-146.7538
 20
81.3527
 30
0.0
  0
SPLINE
  5
50
330
1F
100
AcDbEntity
  8
layer 1
 62
     7
100
AcDbSpline
210
0.0
220
0.0
230
1.0
 70
    11
 71
     3
 72
    32
 73
    28
 74
     0
 42
0.0000000001
 43
0.0000000001
 12
1.0
 22
0.0
 32
0.0
 13
1.0
 23
0.0
 33
0.0
 40
0.0
 40
0.0
 40
0.0
 40
0.0
 40
0.125
 40
0.125
 40
0.125
 40
0.125
 40
0.25
 40
0.25
 40
0.25
 40
0.25
 40
0.375
 40
0.375
 40
0.375
 40
0.375
 40
0.5
 40
0.5
 40
0.5
 40
0.5
 40
0.625
 40
0.625
 40
0.625
 40
0.625
 40
0.75
 40
0.75
 40
0.75
 40
0.75
 40
1.0
 40
1.0
 40
1.0
 40
1.0
 10
-165.915
 20
87.0677
 30
0.0
 10
-171.0212
 20
92.1224
 30
0.0
 10
-172.6899
 20
101.2704
 30
0.0
 10
-168.0768
 20
105.491
 30
0.0
 10
-168.0768
 20
105.491
 30
0.0
 10
-165.935
 20
107.028
 30
0.0
 10
-163.1777
 20
107.5671
 30
0.0
 10
-161.6612
 20
106.0832
 30
0.0
 10
-161.6612
 20
106.0832
 30
0.0
 10
-158.8863
 20
102.6274
 30
0.0
 10
-161.4121
 20
99.4153
 30
0.0
 10
-164.9237
 20
98.9161
 30
0.0
 10
-164.9237
 20
98.9161
 30
0.0
 10
-163.3623
 20
94.892
 30
0.0
 10
-157.12
 20
95.9868
 30
0.0
 10
-155.303
 20
99.1569
 30
0.0
 10
-155.303
 20
99.1569
 30
0.0
 10
-158.3175
 20
91.5242
 30
0.0
 10
-147.5471
 20
88.9117
 30
0.0
 10
-142.5716
 20
92.6337
 30
0.0
 10
-142.5716
 20
92.6337
 30
0.0
 10
-144.8622
 20
84.6928
 30
0.0
 10
-157.8443
 20
79.3178
 30
0.0
 10
-165.915
 20
87.0676
 30
0.0
 10
-165.915
 20
87.0676
 30
0.0
 10
-165.915
 20
87.0676
 30
0.0
 10
-165.915
 20
87.0677
 30
0.0
 10
-165.915
 20
87.0677
 30
0.0
  0
SPLINE
  5
51
330
1F
100
AcDbEntity
  8
layer 1
 62
     7
100
AcDbSpline
210
0.0
220
0.0
230
1.0
 70
    11
 71
     3
 72
    24
 73
    20
 74
     0
 42
0.0000000001
 43
0.0000000001
 12
1.0
 22
0.0
 32
0.0
 13
1.0
 23
0.0
 33
0.0
 40
0.0
 40
0.0
 40
0.0
 40
0.0
 40
0.1666666666666667
 40
0.1666666666666667
 40
0.1666666666666667
 40
0.1666666666666667
 40
0.3333333333333333
 40
0.3333333333333333
 40
0.3333333333333333
 40
0.3333333333333333
 40
0.5
 40
0.5
 40
0.5
 40
0.5
 40
0.6666666666666666
 40
0.6666666666666666
 40
0.6666666666666666
 40
0.6666666666666666
 40
1.0
 40
1.0
 40
1.0
 40
1.0
 10
-84.1434
 20
13.4653
 30
0.0
 10
-78.6676
 20
9.4607
 30
0.0
 10
-66.1223
 20
13.8951
 30
0.0
 10
-64.3195
 20
18.5186
 30
0.0
 10
-64.3195
 20
18.5186
 30
0.0
 10
-72.6467
 20
15.6618
 30
0.0
 10
-78.2969
 20
20.7843
 30
0.0
 10
-75.6264
 20
27.3492
 30
0.0
 10
-75.6264
 20
27.3492
 30
0.0
 10
-76.3931
 20
26.7537
 30
0.0
 10
-77.4594
 20
26.1693
 30
0.0
 10
-78.2834
 20
26.337
 30
0.0
 10
-78.2834
 20
26.337
 30
0.0
 10
-76.1788
 20
22.5846
 30
0.0
 10
-77.1239
 20
16.1166
 30
0.0
 10
-84.1433
 20
13.4652
 30
0.0
 10
-84.1433
 20
13.4652
 30
0.0
 10
-84.1433
 20
13.4652
 30
0.0
 10
-84.1434
 20
13.4653
 30
0.0
 10
-84.1434
 20
13.4653
 30
0.0
  0
SPLINE
  5
52
330
1F
100
AcDbEntity
  8
layer 1
 62
     7
100
AcDbSpline
210
0.0
220
0.0
230
1.0
 70
    11
 71
     3
 72
    40
 73
    36
 74
     0
 42
0.0000000001
 43
0.0000000001
 12
1.0
 22
0.0
 32
0.0
 13
1.0
 23
0.0
 33
0.0
 40
0.0
 40
0.0
 40
0.0
 40
0.0
 40
0.1
 40
0.1
 40
0.1
 40
0.1
 40
0.2
 40
0.2
 40
0.2
 40
0.2
 40
0.3
 40
0.3
 40
0.3
 40
0.3
 40
0.4
 40
0.4
 40
0.4
 40
0.4
 40
0.5
 40
0.5
 40
0.5
 40
0.5
 40
0.6
 40
0.6
 40
0.6
 40
0.6
 40
0.7
 40
0.7
 40
0.7
 40
0.7
 40
0.8
 40
0.8
 40
0.8
 40
0.8
 40
1.0
 40
1.0
 40
1.0
 40
1.0
 10
-85.738
 20
18.8255
 30
0.0
 10
-84.7274
 20
19.44
 30
0.0
 10
-83.84
 20
20.9262
 30
0.0
 10
-83.84
 20
22.0043
 30
0.0
 10
-83.84
 20
22.0043
 30
0.0
 10
-83.6672
 20
24.4578
 30
0.0
 10
-87.2896
 20
27.53
 30
0.0
 10
-90.7811
 20
24.5088
 30
0.0
 10
-90.7811
 20
24.5088
 30
0.0
 10
-90.7811
 20
26.4321
 30
0.0
 10
-88.599
 20
30.9232
 30
0.0
 10
-84.9648
 20
30.4849
 30
0.0
 10
-84.9648
 20
30.4849
 30
0.0
 10
-86.0832
 20
31.9006
 30
0.0
 10
-84.8755
 20
37.8606
 30
0.0
 10
-82.2288
 20
38.3234
 30
0.0
 10
-82.2288
 20
38.3234
 30
0.0
 10
-82.7075
 20
35.2475
 30
0.0
 10
-81.2817
 20
32.4826
 30
0.0
 10
-78.4983
 20
32.4148
 30
0.0
 10
-78.4983
 20
32.4148
 30
0.0
 10
-73.0518
 20
33.2353
 30
0.0
 10
-74.017
 20
39.8724
 30
0.0
 10
-79.5257
 20
42.4554
 30
0.0
 10
-79.5257
 20
42.4554
 30
0.0
 10
-84.9026
 20
44.4194
 30
0.0
 10
-91.0042
 20
41.8824
 30
0.0
 10
-94.6095
 20
37.5467
 30
0.0
 10
-94.6095
 20
37.5467
 30
0.0
 10
-98.2936
 20
32.8249
 30
0.0
 10
-98.2196
 20
26.8876
 30
0.0
 10
-95.6183
 20
22.7036
 30
0.0
 10
-95.6183
 20
22.7036
 30
0.0
 10
-93.6915
 20
19.5457
 30
0.0
 10
-89.1645
 20
16.8416
 30
0.0
 10
-85.738
 20
18.8255
 30
0.0
  0
SPLINE
  5
53
330
1F
100
AcDbEntity
  8
layer 1
 62
     7
100
AcDbSpline
210
0.0
220
0.0
230
1.0
 70
    11
 71
     3
 72
    24
 73
    20
 74
     0
 42
0.0000000001
 43
0.0000000001
 12
1.0
 22
0.0
 32
0.0
 13
1.0
 23
0.0
 33
0.0
 40
0.0
 40
0.0
 40
0.0
 40
0.0
 40
0.1666666666666667
 40
0.1666666666666667
 40
0.1666666666666667
 40
0.1666666666666667
 40
0.3333333333333333
 40
0.3333333333333333
 40
0.3333333333333333
 40
0.3333333333333333
 40
0.5
 40
0.5
 40
0.5
 40
0.5
 40
0.6666666666666666
 40
0.6666666666666666
 40
0.6666666666666666
 40
0.6666666666666666
 40
1.0
 40
1.0
 40
1.0
 40
1.0
 10
-42.7203
 20
20.5016
 30
0.0
 10
-42.7203
 20
20.5016
 30
0.0
 10
-42.7203
 20
37.8439
 30
0.0
 10
-42.7203
 20
37.8439
 30
0.0
 10
-42.7203
 20
37.8439
 30
0.0
 10
-45.2628
 20
33.9539
 30
0.0
 10
-52.1133
 20
34.059
 30
0.0
 10
-54.2166
 20
38.7363
 30
0.0
 10
-54.2166
 20
38.7363
 30
0.0
 10
-53.7747
 20
35.7386
 30
0.0
 10
-53.4881
 20
31.6901
 30
0.0
 10
-54.3654
 20
27.3892
 30
0.0
 10
-54.3654
 20
27.3892
 30
0.0
 10
-47.8682
 20
28.7101
 30
0.0
 10
-44.3305
 20
24.9585
 30
0.0
 10
-42.7203
 20
20.5015
 30
0.0
 10
-42.7203
 20
20.5015
 30
0.0
 10
-42.7203
 20
20.5015
 30
0.0
 10
-42.7203
 20
20.5016
 30
0.0
 10
-42.7203
 20
20.5016
 30
0.0
  0
SPLINE
  5
54
330
1F
100
AcDbEntity
  8
layer 1
 62
     7
100
AcDbSpline
210
0.0
220
0.0
230
1.0
 70
    11
 71
     3
 72
    44
 73
    40
 74
     0
 42
0.0000000001
 43
0.0000000001
 12
1.0
 22
0.0
 32
0.0
 13
1.0
 23
0.0
 33
0.0
 40
0.0
 40
0.0
 40
0.0
 40
0.0
 40
0.0909090909090909
 40
0.0909090909090909
 40
0.0909090909090909
 40
0.0909090909090909
 40
0.1818181818181818
 40
0.1818181818181818
 40
0.1818181818181818
 40
0.1818181818181818
 40
0.2727272727272727
 40
0.2727272727272727
 40
0.2727272727272727
 40
0.2727272727272727
 40
0.3636363636363636
 40
0.3636363636363636
 40
0.3636363636363636
 40
0.3636363636363636
 40
0.4545454545454545
 40
0.4545454545454545
 40
0.4545454545454545
 40
0.4545454545454545
 40
0.5454545454545454
 40
0.5454545454545454
 40
0.5454545454545454
 40
0.5454545454545454
 40
0.6363636363636364
 40
0.6363636363636364
 40
0.6363636363636364
 40
0.6363636363636364
 40
0.7272727272727273
 40
0.7272727272727273
 40
0.7272727272727273
 40
0.7272727272727273
 40
0.8181818181818182
 40
0.8181818181818182
 40
0.8181818181818182
 40
0.8181818181818182
 40
1.0
 40
1.0
 40
1.0
 40
1.0
 10
-61.9619
 20
44.1778
 30
0.0
 10
-65.1204
 20
49.099
 30
0.0
 10
-71.9045
 20
54.5967
 30
0.0
 10
-77.5198
 20
55.5684
 30
0.0
 10
-77.5198
 20
55.5684
 30
0.0
 10
-85.3124
 20
57.5989
 30
0.0
 10
-92.9178
 20
56.5038
 30
0.0
 10
-97.2252
 20
54.4805
 30
0.0
 10
-97.2252
 20
54.4805
 30
0.0
 10
-96.2134
 20
49.4642
 30
0.0
 10
-97.2387
 20
43.5191
 30
0.0
 10
-97.5878
 20
39.7905
 30
0.0
 10
-97.5878
 20
39.7905
 30
0.0
 10
-94.6931
 20
45.1841
 30
0.0
 10
-87.7227
 20
47.3329
 30
0.0
 10
-81.3782
 20
46.4368
 30
0.0
 10
-81.3782
 20
46.4368
 30
0.0
 10
-75.6778
 20
45.4659
 30
0.0
 10
-70.2814
 20
42.2056
 30
0.0
 10
-70.0851
 20
35.7437
 30
0.0
 10
-70.0851
 20
35.7437
 30
0.0
 10
-70.0274
 20
33.2968
 30
0.0
 10
-70.9514
 20
31.7953
 30
0.0
 10
-71.6248
 20
30.6267
 30
0.0
 10
-71.6248
 20
30.6267
 30
0.0
 10
-68.9982
 20
32.1806
 30
0.0
 10
-64.9373
 20
29.5947
 30
0.0
 10
-66.0941
 20
25.8213
 30
0.0
 10
-66.0941
 20
25.8213
 30
0.0
 10
-70.4269
 20
27.8212
 30
0.0
 10
-71.3709
 20
21.9613
 30
0.0
 10
-67.3122
 20
21.7364
 30
0.0
 10
-67.3122
 20
21.7364
 30
0.0
 10
-56.8764
 20
22.6091
 30
0.0
 10
-58.7159
 20
39.6559
 30
0.0
 10
-61.962
 20
44.1778
 30
0.0
 10
-61.962
 20
44.1778
 30
0.0
 10
-61.962
 20
44.1778
 30
0.0
 10
-61.9619
 20
44.1778
 30
0.0
 10
-61.9619
 20
44.1778
 30
0.0
  0
SPLINE
  5
55
330
1F
100
AcDbEntity
  8
layer 1
 62
     7
100
AcDbSpline
210
0.0
220
0.0
230
1.0
 70
    11
 71
     3
 72
    16
 73
    12
 74
     0
 42
0.0000000001
 43
0.0000000001
 12
1.0
 22
0.0
 32
0.0
 13
1.0
 23
0.0
 33
0.0
 40
0.0
 40
0.0
 40
0.0
 40
0.0
 40
0.25
 40
0.25
 40
0.25
 40
0.25
 40
0.5
 40
0.5
 40
0.5
 40
0.5
 40
1.0
 40
1.0
 40
1.0
 40
1.0
 10
-100.5592
 20
32.6189
 30
0.0
 10
-99.4156
 20
43.7564
 30
0.0
 10
-98.5717
 20
48.0642
 30
0.0
 10
-99.2684
 20
53.6513
 30
0.0
 10
-99.2684
 20
53.6513
 30
0.0
 10
-100.9674
 20
52.7305
 30
0.0
 10
-106.5911
 20
47.666
 30
0.0
 10
-106.5177
 20
47.3212
 30
0.0
 10
-106.5177
 20
47.3212
 30
0.0
 10
-103.4056
 20
42.6081
 30
0.0
 10
-101.3971
 20
38.0679
 30
0.0
 10
-100.5592
 20
32.6189
 30
0.0
  0
SPLINE
  5
56
330
1F
100
AcDbEntity
  8
layer 1
 62
     7
100
AcDbSpline
210
0.0
220
0.0
230
1.0
 70
    11
 71
     3
 72
    32
 73
    28
 74
     0
 42
0.0000000001
 43
0.0000000001
 12
1.0
 22
0.0
 32
0.0
 13
1.0
 23
0.0
 33
0.0
 40
0.0
 40
0.0
 40
0.0
 40
0.0
 40
0.125
 40
0.125
 40
0.125
 40
0.125
 40
0.25
 40
0.25
 40
0.25
 40
0.25
 40
0.375
 40
0.375
 40
0.375
 40
0.375
 40
0.5
 40
0.5
 40
0.5
 40
0.5
 40
0.625
 40
0.625
 40
0.625
 40
0.625
 40
0.75
 40
0.75
 40
0.75
 40
0.75
 40
1.0
 40
1.0
 40
1.0
 40
1.0
 10
-44.469
 20
45.9105
 30
0.0
 10
-44.469
 20
46.965
 30
0.0
 10
-45.4122
 20
49.6005
 30
0.0
 10
-46.2929
 20
51.0067
 30
0.0
 10
-46.2929
 20
51.0067
 30
0.0
 10
-52.6385
 20
59.8419
 30
0.0
 10
-66.3718
 20
61.1342
 30
0.0
 10
-77.0101
 20
59.6457
 30
0.0
 10
-77.0101
 20
59.6457
 30
0.0
 10
-66.8251
 20
57.5221
 30
0.0
 10
-59.4843
 20
50.817
 30
0.0
 10
-55.8354
 20
42.9123
 30
0.0
 10
-55.8354
 20
42.9123
 30
0.0
 10
-56.3096
 20
46.8173
 30
0.0
 10
-52.0588
 20
49.3989
 30
0.0
 10
-48.4485
 20
47.5907
 30
0.0
 10
-48.4485
 20
47.5907
 30
0.0
 10
-50.666
 20
46.6805
 30
0.0
 10
-51.1118
 20
44.2724
 30
0.0
 10
-49.6705
 20
42.8281
 30
0.0
 10
-49.6705
 20
42.8281
 30
0.0
 10
-47.2973
 20
41.0534
 30
0.0
 10
-44.2924
 20
42.699
 30
0.0
 10
-44.4691
 20
45.9105
 30
0.0
 10
-44.4691
 20
45.9105
 30
0.0
 10
-44.4691
 20
45.9105
 30
0.0
 10
-44.469
 20
45.9105
 30
0.0
 10
-44.469
 20
45.9105
 30
0.0
  0
SPLINE
  5
57
330
1F
100
AcDbEntity
  8
layer 1
 62
     7
100
AcDbSpline
210
0.0
220
0.0
230
1.0
 70
    11
 71
     3
 72
    16
 73
    12
 74
     0
 42
0.0000000001
 43
0.0000000001
 12
1.0
 22
0.0
 32
0.0
 13
1.0
 23
0.0
 33
0.0
 40
0.0
 40
0.0
 40
0.0
 40
0.0
 40
0.25
 40
0.25
 40
0.25
 40
0.25
 40
0.5
 40
0.5
 40
0.5
 40
0.5
 40
1.0
 40
1.0
 40
1.0
 40
1.0
 10
-41.3797
 20
69.6992
 30
0.0
 10
-44.671
 20
67.0088
 30
0.0
 10
-50.1463
 20
61.8616
 30
0.0
 10
-56.3557
 20
61.8191
 30
0.0
 10
-56.3557
 20
61.8191
 30
0.0
 10
-50.0433
 20
59.1401
 30
0.0
 10
-46.5924
 20
56.4562
 30
0.0
 10
-42.7451
 20
52.5162
 30
0.0
 10
-42.7451
 20
52.5162
 30
0.0
 10
-43.1019
 20
56.7943
 30
0.0
 10
-42.2193
 20
64.8908
 30
0.0
 10
-41.3797
 20
69.6992
 30
0.0
  0
SPLINE
  5
58
330
1F
100
AcDbEntity
  8
layer 1
 62
     7
100
AcDbSpline
210
0.0
220
0.0
230
1.0
 70
    11
 71
     3
 72
    20
 73
    16
 74
     0
 42
0.0000000001
 43
0.0000000001
 12
1.0
 22
0.0
 32
0.0
 13
1.0
 23
0.0
 33
0.0
 40
0.0
 40
0.0
 40
0.0
 40
0.0
 40
0.2
 40
0.2
 40
0.2
 40
0.2
 40
0.4
 40
0.4
 40
0.4
 40
0.4
 40
0.6
 40
0.6
 40
0.6
 40
0.6
 40
1.0
 40
1.0
 40
1.0
 40
1.0
 10
-105.7634
 20
53.301
 30
0.0
 10
-104.6733
 20
54.4718
 30
0.0
 10
-102.9805
 20
55.7521
 30
0.0
 10
-101.2876
 20
56.8133
 30
0.0
 10
-101.2876
 20
56.8133
 30
0.0
 10
-102.5988
 20
57.4779
 30
0.0
 10
-104.5033
 20
57.67
 30
0.0
 10
-105.122
 20
57.1161
 30
0.0
 10
-105.122
 20
57.1161
 30
0.0
 10
-106.1031
 20
56.3816
 30
0.0
 10
-106.535
 20
54.2153
 30
0.0
 10
-105.7633
 20
53.301
 30
0.0
 10
-105.7633
 20
53.301
 30
0.0
 10
-105.7633
 20
53.301
 30
0.0
 10
-105.7634
 20
53.301
 30
0.0
 10
-105.7634
 20
53.301
 30
0.0
  0
SPLINE
  5
59
330
1F
100
AcDbEntity
  8
layer 1
 62
     7
100
AcDbSpline
210
0.0
220
0.0
230
1.0
 70
    11
 71
     3
 72
   120
 73
   116
 74
     0
 42
0.0000000001
 43
0.0000000001
 12
1.0
 22
0.0
 32
0.0
 13
1.0
 23
0.0
 33
0.0
 40
0.0
 40
0.0
 40
0.0
 40
0.0
 40
0.0333333333333333
 40
0.0333333333333333
 40
0.0333333333333333
 40
0.0333333333333333
 40
0.0666666666666667
 40
0.0666666666666667
 40
0.0666666666666667
 40
0.0666666666666667
 40
0.1
 40
0.1
 40
0.1
 40
0.1
 40
0.1333333333333333
 40
0.1333333333333333
 40
0.1333333333333333
 40
0.1333333333333333
 40
0.1666666666666667
 40
0.1666666666666667
 40
0.1666666666666667
 40
0.1666666666666667
 40
0.2
 40
0.2
 40
0.2
 40
0.2
 40
0.2333333333333333
 40
0.2333333333333333
 40
0.2333333333333333
 40
0.2333333333333333
 40
0.2666666666666667
 40
0.2666666666666667
 40
0.2666666666666667
 40
0.2666666666666667
 40
0.3
 40
0.3
 40
0.3
 40
0.3
 40
0.3333333333333333
 40
0.3333333333333333
 40
0.3333333333333333
 40
0.3333333333333333
 40
0.3666666666666666
 40
0.3666666666666666
 40
0.3666666666666666
 40
0.3666666666666666
 40
0.4
 40
0.4
 40
0.4
 40
0.4
 40
0.4333333333333333
 40
0.4333333333333333
 40
0.4333333333333333
 40
0.4333333333333333
 40
0.4666666666666667
 40
0.4666666666666667
 40
0.4666666666666667
 40
0.4666666666666667
 40
0.5
 40
0.5
 40
0.5
 40
0.5
 40
0.5333333333333333
 40
0.5333333333333333
 40
0.5333333333333333
 40
0.5333333333333333
 40
0.5666666666666667
 40
0.5666666666666667
 40
0.5666666666666667
 40
0.5666666666666667
 40
0.6
 40
0.6
 40
0.6
 40
0.6
 40
0.6333333333333333
 40
0.6333333333333333
 40
0.6333333333333333
 40
0.6333333333333333
 40
0.6666666666666666
 40
0.6666666666666666
 40
0.6666666666666666
 40
0.6666666666666666
 40
0.7
 40
0.7
 40
0.7
 40
0.7
 40
0.7333333333333333
 40
0.7333333333333333
 40
0.7333333333333333
 40
0.7333333333333333
 40
0.7666666666666667
 40
0.7666666666666667
 40
0.7666666666666667
 40
0.7666666666666667
 40
0.8
 40
0.8
 40
0.8
 40
0.8
 40
0.8333333333333334
 40
0.8333333333333334
 40
0.8333333333333334
 40
0.8333333333333334
 40
0.8666666666666667
 40
0.8666666666666667
 40
0.8666666666666667
 40
0.8666666666666667
 40
0.9
 40
0.9
 40
0.9
 40
0.9
 40
0.9333333333333333
 40
0.9333333333333333
 40
0.9333333333333333
 40
0.9333333333333333
 40
1.0
 40
1.0
 40
1.0
 40
1.0
 10
-60.0216
 20
123.3527
 30
0.0
 10
-74.4513
 20
119.8903
 30
0.0
 10
-79.7913
 20
111.7229
 30
0.0
 10
-80.9776
 20
98.7888
 30
0.0
 10
-80.9776
 20
98.7888
 30
0.0
 10
-80.9959
 20
95.2809
 30
0.0
 10
-81.5434
 20
92.3255
 30
0.0
 10
-82.5822
 20
90.1267
 30
0.0
 10
-82.5822
 20
90.1267
 30
0.0
 10
-84.2201
 20
86.8446
 30
0.0
 10
-88.2455
 20
84.6028
 30
0.0
 10
-91.0803
 20
85.7345
 30
0.0
 10
-91.0803
 20
85.7345
 30
0.0
 10
-92.691
 20
86.5563
 30
0.0
 10
-93.7286
 20
88.221
 30
0.0
 10
-93.2686
 20
89.8874
 30
0.0
 10
-93.2686
 20
89.8874
 30
0.0
 10
-92.3014
 20
93.2413
 30
0.0
 10
-88.3955
 20
93.1752
 30
0.0
 10
-86.9444
 20
90.6963
 30
0.0
 10
-86.9444
 20
90.6963
 30
0.0
 10
-86.3835
 20
92.5291
 30
0.0
 10
-87.8038
 20
95.9427
 30
0.0
 10
-91.9875
 20
95.7282
 30
0.0
 10
-91.9875
 20
95.7282
 30
0.0
 10
-95.8096
 20
95.6231
 30
0.0
 10
-98.1101
 20
92.5172
 30
0.0
 10
-98.244
 20
88.8453
 30
0.0
 10
-98.244
 20
88.8453
 30
0.0
 10
-98.2264
 20
86.6442
 30
0.0
 10
-97.2023
 20
84.4234
 30
0.0
 10
-95.3632
 20
82.4669
 30
0.0
 10
-95.3632
 20
82.4669
 30
0.0
 10
-103.0002
 20
84.502
 30
0.0
 10
-109.9598
 20
77.4413
 30
0.0
 10
-103.8945
 20
70.027
 30
0.0
 10
-103.8945
 20
70.027
 30
0.0
 10
-102.759
 20
68.964
 30
0.0
 10
-99.3821
 20
66.7384
 30
0.0
 10
-96.7413
 20
68.7136
 30
0.0
 10
-96.7413
 20
68.7136
 30
0.0
 10
-97.9167
 20
69.346
 30
0.0
 10
-99.8165
 20
72.0698
 30
0.0
 10
-98.6667
 20
74.6823
 30
0.0
 10
-98.6667
 20
74.6823
 30
0.0
 10
-97.1696
 20
78.3793
 30
0.0
 10
-91.4566
 20
77.4201
 30
0.0
 10
-91.4035
 20
71.606
 30
0.0
 10
-91.4035
 20
71.606
 30
0.0
 10
-91.3315
 20
66.2569
 30
0.0
 10
-95.5955
 20
62.08
 30
0.0
 10
-99.304
 20
58.612
 30
0.0
 10
-99.304
 20
58.612
 30
0.0
 10
-101.1277
 20
62.0223
 30
0.0
 10
-105.8972
 20
62.2489
 30
0.0
 10
-108.8571
 20
61.0482
 30
0.0
 10
-108.8571
 20
61.0482
 30
0.0
 10
-111.8171
 20
62.2489
 30
0.0
 10
-116.5866
 20
62.0223
 30
0.0
 10
-118.4103
 20
58.612
 30
0.0
 10
-118.4103
 20
58.612
 30
0.0
 10
-122.1187
 20
62.08
 30
0.0
 10
-126.3828
 20
66.2569
 30
0.0
 10
-126.3108
 20
71.606
 30
0.0
 10
-126.3108
 20
71.606
 30
0.0
 10
-126.2576
 20
77.4201
 30
0.0
 10
-120.5446
 20
78.3794
 30
0.0
 10
-119.0475
 20
74.6823
 30
0.0
 10
-119.0475
 20
74.6823
 30
0.0
 10
-117.8978
 20
72.0698
 30
0.0
 10
-119.7975
 20
69.346
 30
0.0
 10
-120.9729
 20
68.7136
 30
0.0
 10
-120.9729
 20
68.7136
 30
0.0
 10
-118.3323
 20
66.7384
 30
0.0
 10
-114.9554
 20
68.9639
 30
0.0
 10
-113.8197
 20
70.027
 30
0.0
 10
-113.8197
 20
70.027
 30
0.0
 10
-107.7544
 20
77.4413
 30
0.0
 10
-114.714
 20
84.502
 30
0.0
 10
-122.351
 20
82.4669
 30
0.0
 10
-122.351
 20
82.4669
 30
0.0
 10
-120.5119
 20
84.4234
 30
0.0
 10
-119.4879
 20
86.6442
 30
0.0
 10
-119.4702
 20
88.8453
 30
0.0
 10
-119.4702
 20
88.8453
 30
0.0
 10
-119.6042
 20
92.5172
 30
0.0
 10
-121.9047
 20
95.6231
 30
0.0
 10
-125.7267
 20
95.7282
 30
0.0
 10
-125.7267
 20
95.7282
 30
0.0
 10
-129.9104
 20
95.9427
 30
0.0
 10
-131.3306
 20
92.5291
 30
0.0
 10
-130.7699
 20
90.6963
 30
0.0
 10
-130.7699
 20
90.6963
 30
0.0
 10
-129.3187
 20
93.1752
 30
0.0
 10
-125.4128
 20
93.2413
 30
0.0
 10
-124.4457
 20
89.8874
 30
0.0
 10
-124.4457
 20
89.8874
 30
0.0
 10
-123.9855
 20
88.221
 30
0.0
 10
-125.0233
 20
86.5562
 30
0.0
 10
-126.634
 20
85.7345
 30
0.0
 10
-126.634
 20
85.7345
 30
0.0
 10
-129.4688
 20
84.6027
 30
0.0
 10
-133.4942
 20
86.8445
 30
0.0
 10
-135.1321
 20
90.1267
 30
0.0
 10
-135.1321
 20
90.1267
 30
0.0
 10
-136.1709
 20
92.3255
 30
0.0
 10
-136.7184
 20
95.2809
 30
0.0
 10
-136.7366
 20
98.7888
 30
0.0
 10
-136.7366
 20
98.7888
 30
0.0
 10
-137.9229
 20
111.7229
 30
0.0
 10
-143.263
 20
119.8903
 30
0.0
 10
-157.6927
 20
123.3527
 30
0.0
 10
-157.6927
 20
123.3527
 30
0.0
 10
-157.6927
 20
123.3527
 30
0.0
 10
-60.0216
 20
123.3527
 30
0.0
 10
-60.0216
 20
123.3527
 30
0.0
  0
SPLINE
  5
5A
330
1F
100
AcDbEntity
  8
layer 1
 62
     7
100
AcDbSpline
210
0.0
220
0.0
230
1.0
 70
    11
 71
     3
 72
    32
 73
    28
 74
     0
 42
0.0000000001
 43
0.0000000001
 12
1.0
 22
0.0
 32
0.0
 13
1.0
 23
0.0
 33
0.0
 40
0.0
 40
0.0
 40
0.0
 40
0.0
 40
0.125
 40
0.125
 40
0.125
 40
0.125
 40
0.25
 40
0.25
 40
0.25
 40
0.25
 40
0.375
 40
0.375
 40
0.375
 40
0.375
 40
0.5
 40
0.5
 40
0.5
 40
0.5
 40
0.625
 40
0.625
 40
0.625
 40
0.625
 40
0.75
 40
0.75
 40
0.75
 40
0.75
 40
1.0
 40
1.0
 40
1.0
 40
1.0
 10
-93.0563
 20
60.0247
 30
0.0
 10
-85.3576
 20
62.5513
 30
0.0
 10
-78.7976
 20
63.5785
 30
0.0
 10
-72.4708
 20
64.2212
 30
0.0
 10
-72.4708
 20
64.2212
 30
0.0
 10
-76.8914
 20
66.4618
 30
0.0
 10
-75.8831
 20
71.1011
 30
0.0
 10
-74.7174
 20
72.0417
 30
0.0
 10
-74.7174
 20
72.0417
 30
0.0
 10
-73.6097
 20
69.4174
 30
0.0
 10
-70.7626
 20
68.5699
 30
0.0
 10
-69.4606
 20
70.1458
 30
0.0
 10
-69.4606
 20
70.1458
 30
0.0
 10
-68.3847
 20
71.0025
 30
0.0
 10
-68.0766
 20
73.1763
 30
0.0
 10
-69.6759
 20
74.6311
 30
0.0
 10
-69.6759
 20
74.6311
 30
0.0
 10
-72.6918
 20
77.2192
 30
0.0
 10
-77.491
 20
75.7494
 30
0.0
 10
-80.3727
 20
73.6422
 30
0.0
 10
-80.3727
 20
73.6422
 30
0.0
 10
-85.8591
 20
69.8415
 30
0.0
 10
-90.2495
 20
62.7653
 30
0.0
 10
-93.0563
 20
60.0248
 30
0.0
 10
-93.0563
 20
60.0248
 30
0.0
 10
-93.0563
 20
60.0248
 30
0.0
 10
-93.0563
 20
60.0247
 30
0.0
 10
-93.0563
 20
60.0247
 30
0.0
  0
SPLINE
  5
5B
330
1F
100
AcDbEntity
  8
layer 1
 62
     7
100
AcDbSpline
210
0.0
220
0.0
230
1.0
 70
    11
 71
     3
 72
    60
 73
    56
 74
     0
 42
0.0000000001
 43
0.0000000001
 12
1.0
 22
0.0
 32
0.0
 13
1.0
 23
0.0
 33
0.0
 40
0.0
 40
0.0
 40
0.0
 40
0.0
 40
0.0666666666666667
 40
0.0666666666666667
 40
0.0666666666666667
 40
0.0666666666666667
 40
0.1333333333333333
 40
0.1333333333333333
 40
0.1333333333333333
 40
0.1333333333333333
 40
0.2
 40
0.2
 40
0.2
 40
0.2
 40
0.2666666666666667
 40
0.2666666666666667
 40
0.2666666666666667
 40
0.2666666666666667
 40
0.3333333333333333
 40
0.3333333333333333
 40
0.3333333333333333
 40
0.3333333333333333
 40
0.4
 40
0.4
 40
0.4
 40
0.4
 40
0.4666666666666667
 40
0.4666666666666667
 40
0.4666666666666667
 40
0.4666666666666667
 40
0.5333333333333333
 40
0.5333333333333333
 40
0.5333333333333333
 40
0.5333333333333333
 40
0.6
 40
0.6
 40
0.6
 40
0.6
 40
0.6666666666666666
 40
0.6666666666666666
 40
0.6666666666666666
 40
0.6666666666666666
 40
0.7333333333333333
 40
0.7333333333333333
 40
0.7333333333333333
 40
0.7333333333333333
 40
0.8
 40
0.8
 40
0.8
 40
0.8
 40
0.8666666666666667
 40
0.8666666666666667
 40
0.8666666666666667
 40
0.8666666666666667
 40
1.0
 40
1.0
 40
1.0
 40
1.0
 10
-48.85
 20
69.7208
 30
0.0
 10
-41.4293
 20
74.9158
 30
0.0
 10
-37.4823
 20
81.9799
 30
0.0
 10
-35.394
 20
90.4468
 30
0.0
 10
-35.394
 20
90.4468
 30
0.0
 10
-32.7112
 20
101.5779
 30
0.0
 10
-37.6453
 20
111.9393
 30
0.0
 10
-46.3711
 20
116.22
 30
0.0
 10
-46.3711
 20
116.22
 30
0.0
 10
-53.8459
 20
119.8869
 30
0.0
 10
-62.8195
 20
119.5746
 30
0.0
 10
-69.5959
 20
114.5474
 30
0.0
 10
-69.5959
 20
114.5474
 30
0.0
 10
-74.9971
 20
110.857
 30
0.0
 10
-78.8923
 20
101.2669
 30
0.0
 10
-75.6016
 20
97.1562
 30
0.0
 10
-75.6016
 20
97.1562
 30
0.0
 10
-74.2461
 20
95.6096
 30
0.0
 10
-72.6262
 20
94.7934
 30
0.0
 10
-71.1107
 20
94.7702
 30
0.0
 10
-71.1107
 20
94.7702
 30
0.0
 10
-69.613
 20
94.9252
 30
0.0
 10
-67.9327
 20
95.4315
 30
0.0
 10
-67.5153
 20
97.6877
 30
0.0
 10
-67.5153
 20
97.6877
 30
0.0
 10
-67.2405
 20
99.9483
 30
0.0
 10
-69.3495
 20
100.8584
 30
0.0
 10
-71.0856
 20
100.5297
 30
0.0
 10
-71.0856
 20
100.5297
 30
0.0
 10
-69.8878
 20
103.8742
 30
0.0
 10
-65.4108
 20
103.6587
 30
0.0
 10
-63.6405
 20
101.158
 30
0.0
 10
-63.6405
 20
101.158
 30
0.0
 10
-66.1234
 20
107.0707
 30
0.0
 10
-61.8147
 20
113.5029
 30
0.0
 10
-54.3628
 20
113.0132
 30
0.0
 10
-54.3628
 20
113.0132
 30
0.0
 10
-46.7467
 20
112.4147
 30
0.0
 10
-43.1898
 20
107.532
 30
0.0
 10
-42.5898
 20
101.9805
 30
0.0
 10
-42.5898
 20
101.9805
 30
0.0
 10
-41.3052
 20
86.7851
 30
0.0
 10
-54.7385
 20
76.5684
 30
0.0
 10
-66.3952
 20
79.4799
 30
0.0
 10
-66.3952
 20
79.4799
 30
0.0
 10
-61.4514
 20
74.698
 30
0.0
 10
-61.3174
 20
69.8062
 30
0.0
 10
-65.5999
 20
64.9997
 30
0.0
 10
-65.5999
 20
64.9997
 30
0.0
 10
-59.5762
 20
65.3703
 30
0.0
 10
-53.135
 20
66.9307
 30
0.0
 10
-48.85
 20
69.7209
 30
0.0
 10
-48.85
 20
69.7209
 30
0.0
 10
-48.85
 20
69.7209
 30
0.0
 10
-48.85
 20
69.7208
 30
0.0
 10
-48.85
 20
69.7208
 30
0.0
  0
SPLINE
  5
5C
330
1F
100
AcDbEntity
  8
layer 1
 62
     7
100
AcDbSpline
210
0.0
220
0.0
230
1.0
 70
    11
 71
     3
 72
    24
 73
    20
 74
     0
 42
0.0000000001
 43
0.0000000001
 12
1.0
 22
0.0
 32
0.0
 13
1.0
 23
0.0
 33
0.0
 40
0.0
 40
0.0
 40
0.0
 40
0.0
 40
0.1666666666666667
 40
0.1666666666666667
 40
0.1666666666666667
 40
0.1666666666666667
 40
0.3333333333333333
 40
0.3333333333333333
 40
0.3333333333333333
 40
0.3333333333333333
 40
0.5
 40
0.5
 40
0.5
 40
0.5
 40
0.6666666666666666
 40
0.6666666666666666
 40
0.6666666666666666
 40
0.6666666666666666
 40
1.0
 40
1.0
 40
1.0
 40
1.0
 10
-70.9605
 20
81.3527
 30
0.0
 10
-74.8657
 20
83.3602
 30
0.0
 10
-77.4022
 20
86.3451
 30
0.0
 10
-79.2937
 20
91.1991
 30
0.0
 10
-79.2937
 20
91.1991
 30
0.0
 10
-79.3939
 20
83.7886
 30
0.0
 10
-83.9152
 20
80.0236
 30
0.0
 10
-91.2233
 20
80.4525
 30
0.0
 10
-91.2233
 20
80.4525
 30
0.0
 10
-87.2846
 20
77.9057
 30
0.0
 10
-86.214
 20
74.7215
 30
0.0
 10
-86.5607
 20
70.6558
 30
0.0
 10
-86.5607
 20
70.6558
 30
0.0
 10
-84.747
 20
74.8559
 30
0.0
 10
-79.9351
 20
79.9747
 30
0.0
 10
-70.9604
 20
81.3527
 30
0.0
 10
-70.9604
 20
81.3527
 30
0.0
 10
-70.9604
 20
81.3527
 30
0.0
 10
-70.9605
 20
81.3527
 30
0.0
 10
-70.9605
 20
81.3527
 30
0.0
  0
SPLINE
  5
5D
330
1F
100
AcDbEntity
  8
layer 1
 62
     7
100
AcDbSpline
210
0.0
220
0.0
230
1.0
 70
    11
 71
     3
 72
    32
 73
    28
 74
     0
 42
0.0000000001
 43
0.0000000001
 12
1.0
 22
0.0
 32
0.0
 13
1.0
 23
0.0
 33
0.0
 40
0.0
 40
0.0
 40
0.0
 40
0.0
 40
0.125
 40
0.125
 40
0.125
 40
0.125
 40
0.25
 40
0.25
 40
0.25
 40
0.25
 40
0.375
 40
0.375
 40
0.375
 40
0.375
 40
0.5
 40
0.5
 40
0.5
 40
0.5
 40
0.625
 40
0.625
 40
0.625
 40
0.625
 40
0.75
 40
0.75
 40
0.75
 40
0.75
 40
1.0
 40
1.0
 40
1.0
 40
1.0
 10
-51.7993
 20
87.0677
 30
0.0
 10
-46.6931
 20
92.1224
 30
0.0
 10
-45.0244
 20
101.2704
 30
0.0
 10
-49.6375
 20
105.491
 30
0.0
 10
-49.6375
 20
105.491
 30
0.0
 10
-51.7794
 20
107.028
 30
0.0
 10
-54.5366
 20
107.5671
 30
0.0
 10
-56.0531
 20
106.0832
 30
0.0
 10
-56.0531
 20
106.0832
 30
0.0
 10
-58.828
 20
102.6274
 30
0.0
 10
-56.3023
 20
99.4153
 30
0.0
 10
-52.7906
 20
98.9161
 30
0.0
 10
-52.7906
 20
98.9161
 30
0.0
 10
-54.352
 20
94.892
 30
0.0
 10
-60.5943
 20
95.9868
 30
0.0
 10
-62.4113
 20
99.1569
 30
0.0
 10
-62.4113
 20
99.1569
 30
0.0
 10
-59.3968
 20
91.5242
 30
0.0
 10
-70.1672
 20
88.9117
 30
0.0
 10
-75.1427
 20
92.6337
 30
0.0
 10
-75.1427
 20
92.6337
 30
0.0
 10
-72.8521
 20
84.6928
 30
0.0
 10
-59.8701
 20
79.3178
 30
0.0
 10
-51.7993
 20
87.0676
 30
0.0
 10
-51.7993
 20
87.0676
 30
0.0
 10
-51.7993
 20
87.0676
 30
0.0
 10
-51.7993
 20
87.0677
 30
0.0
 10
-51.7993
 20
87.0677
 30
0.0
  0
SPLINE
  5
5E
330
1F
100
AcDbEntity
  8
layer 1
 62
     7
100
AcDbSpline
210
0.0
220
0.0
230
1.0
 70
    11
 71
     3
 72
    40
 73
    36
 74
     0
 42
0.0000000001
 43
0.0000000001
 12
1.0
 22
0.0
 32
0.0
 13
1.0
 23
0.0
 33
0.0
 40
0.0
 40
0.0
 40
0.0
 40
0.0
 40
0.1
 40
0.1
 40
0.1
 40
0.1
 40
0.2
 40
0.2
 40
0.2
 40
0.2
 40
0.3
 40
0.3
 40
0.3
 40
0.3
 40
0.4
 40
0.4
 40
0.4
 40
0.4
 40
0.5
 40
0.5
 40
0.5
 40
0.5
 40
0.6
 40
0.6
 40
0.6
 40
0.6
 40
0.7
 40
0.7
 40
0.7
 40
0.7
 40
0.8
 40
0.8
 40
0.8
 40
0.8
 40
1.0
 40
1.0
 40
1.0
 40
1.0
 10
-42.7203
 20
1.9028
 30
0.0
 10
-44.2509
 20
8.3688
 30
0.0
 10
-53.7804
 20
8.3688
 30
0.0
 10
-54.3917
 20
3.7989
 30
0.0
 10
-54.3917
 20
3.7989
 30
0.0
 10
-51.2554
 20
4.1345
 30
0.0
 10
-50.0122
 20
2.3719
 30
0.0
 10
-49.9105
 20
0.4295
 30
0.0
 10
-49.9105
 20
0.4295
 30
0.0
 10
-49.9105
 20
-0.8566
 30
0.0
 10
-50.7233
 20
-2.5213
 30
0.0
 10
-51.6465
 20
-3.1262
 30
0.0
 10
-51.6465
 20
-3.1262
 30
0.0
 10
-57.696
 20
-5.9104
 30
0.0
 10
-61.335
 20
1.728
 30
0.0
 10
-61.325
 20
8.3076
 30
0.0
 10
-61.325
 20
8.3076
 30
0.0
 10
-61.3148
 20
15.2035
 30
0.0
 10
-56.8555
 20
22.1633
 30
0.0
 10
-51.6465
 20
19.7205
 30
0.0
 10
-51.6465
 20
19.7205
 30
0.0
 10
-50.7232
 20
19.1156
 30
0.0
 10
-49.9105
 20
17.4509
 30
0.0
 10
-49.9105
 20
16.1648
 30
0.0
 10
-49.9105
 20
16.1648
 30
0.0
 10
-50.0122
 20
14.2223
 30
0.0
 10
-51.2554
 20
12.4598
 30
0.0
 10
-54.3917
 20
12.7954
 30
0.0
 10
-54.3917
 20
12.7954
 30
0.0
 10
-53.7804
 20
8.2255
 30
0.0
 10
-44.2509
 20
8.2255
 30
0.0
 10
-42.7203
 20
14.6915
 30
0.0
 10
-42.7203
 20
14.6915
 30
0.0
 10
-42.7203
 20
14.6915
 30
0.0
 10
-42.7203
 20
1.9028
 30
0.0
 10
-42.7203
 20
1.9028
 30
0.0
  0
SPLINE
  5
5F
330
1F
100
AcDbEntity
  8
layer 1
 62
     7
100
AcDbSpline
210
0.0
220
0.0
230
1.0
 70
    11
 71
     3
 72
    16
 73
    12
 74
     0
 42
0.0000000001
 43
0.0000000001
 12
1.0
 22
0.0
 32
0.0
 13
1.0
 23
0.0
 33
0.0
 40
0.0
 40
0.0
 40
0.0
 40
0.0
 40
0.25
 40
0.25
 40
0.25
 40
0.25
 40
0.5
 40
0.5
 40
0.5
 40
0.5
 40
1.0
 40
1.0
 40
1.0
 40
1.0
 10
-64.6313
 20
3.8066
 30
0.0
 10
-67.4366
 20
6.0852
 30
0.0
 10
-70.759
 20
7.7607
 30
0.0
 10
-74.8912
 20
8.2972
 30
0.0
 10
-74.8912
 20
8.2972
 30
0.0
 10
-70.759
 20
8.8336
 30
0.0
 10
-67.4367
 20
10.509
 30
0.0
 10
-64.6313
 20
12.7877
 30
0.0
 10
-64.6313
 20
12.7877
 30
0.0
 10
-64.8875
 20
9.7533
 30
0.0
 10
-65.0825
 20
7.0828
 30
0.0
 10
-64.6313
 20
3.8066
 30
0.0
  0
SPLINE
  5
60
330
1F
100
AcDbEntity
  8
layer 1
 62
     7
100
AcDbSpline
210
0.0
220
0.0
230
1.0
 70
    11
 71
     3
 72
    24
 73
    20
 74
     0
 42
0.0000000001
 43
0.0000000001
 12
1.0
 22
0.0
 32
0.0
 13
1.0
 23
0.0
 33
0.0
 40
0.0
 40
0.0
 40
0.0
 40
0.0
 40
0.1666666666666667
 40
0.1666666666666667
 40
0.1666666666666667
 40
0.1666666666666667
 40
0.3333333333333333
 40
0.3333333333333333
 40
0.3333333333333333
 40
0.3333333333333333
 40
0.5
 40
0.5
 40
0.5
 40
0.5
 40
0.6666666666666666
 40
0.6666666666666666
 40
0.6666666666666666
 40
0.6666666666666666
 40
1.0
 40
1.0
 40
1.0
 40
1.0
 10
-84.1434
 20
3.1289
 30
0.0
 10
-78.6676
 20
7.1335
 30
0.0
 10
-66.1223
 20
2.6992
 30
0.0
 10
-64.3195
 20
-1.9244
 30
0.0
 10
-64.3195
 20
-1.9244
 30
0.0
 10
-72.6467
 20
0.9324
 30
0.0
 10
-78.2969
 20
-4.1901
 30
0.0
 10
-75.6264
 20
-10.755
 30
0.0
 10
-75.6264
 20
-10.755
 30
0.0
 10
-76.3931
 20
-10.1594
 30
0.0
 10
-77.4594
 20
-9.5751
 30
0.0
 10
-78.2834
 20
-9.7428
 30
0.0
 10
-78.2834
 20
-9.7428
 30
0.0
 10
-76.1788
 20
-5.9904
 30
0.0
 10
-77.1239
 20
0.4776
 30
0.0
 10
-84.1433
 20
3.129
 30
0.0
 10
-84.1433
 20
3.129
 30
0.0
 10
-84.1433
 20
3.129
 30
0.0
 10
-84.1434
 20
3.1289
 30
0.0
 10
-84.1434
 20
3.1289
 30
0.0
  0
SPLINE
  5
61
330
1F
100
AcDbEntity
  8
layer 1
 62
     7
100
AcDbSpline
210
0.0
220
0.0
230
1.0
 70
    11
 71
     3
 72
    40
 73
    36
 74
     0
 42
0.0000000001
 43
0.0000000001
 12
1.0
 22
0.0
 32
0.0
 13
1.0
 23
0.0
 33
0.0
 40
0.0
 40
0.0
 40
0.0
 40
0.0
 40
0.1
 40
0.1
 40
0.1
 40
0.1
 40
0.2
 40
0.2
 40
0.2
 40
0.2
 40
0.3
 40
0.3
 40
0.3
 40
0.3
 40
0.4
 40
0.4
 40
0.4
 40
0.4
 40
0.5
 40
0.5
 40
0.5
 40
0.5
 40
0.6
 40
0.6
 40
0.6
 40
0.6
 40
0.7
 40
0.7
 40
0.7
 40
0.7
 40
0.8
 40
0.8
 40
0.8
 40
0.8
 40
1.0
 40
1.0
 40
1.0
 40
1.0
 10
-85.738
 20
-2.2313
 30
0.0
 10
-84.7274
 20
-2.8458
 30
0.0
 10
-83.84
 20
-4.3319
 30
0.0
 10
-83.84
 20
-5.4101
 30
0.0
 10
-83.84
 20
-5.4101
 30
0.0
 10
-83.6672
 20
-7.8636
 30
0.0
 10
-87.2896
 20
-10.9358
 30
0.0
 10
-90.7811
 20
-7.9146
 30
0.0
 10
-90.7811
 20
-7.9146
 30
0.0
 10
-90.7811
 20
-9.8378
 30
0.0
 10
-88.599
 20
-14.329
 30
0.0
 10
-84.9648
 20
-13.8906
 30
0.0
 10
-84.9648
 20
-13.8906
 30
0.0
 10
-86.0832
 20
-15.3064
 30
0.0
 10
-84.8755
 20
-21.2663
 30
0.0
 10
-82.2288
 20
-21.7292
 30
0.0
 10
-82.2288
 20
-21.7292
 30
0.0
 10
-82.7075
 20
-18.6532
 30
0.0
 10
-81.2817
 20
-15.8884
 30
0.0
 10
-78.4983
 20
-15.8205
 30
0.0
 10
-78.4983
 20
-15.8205
 30
0.0
 10
-73.0518
 20
-16.6411
 30
0.0
 10
-74.017
 20
-23.2782
 30
0.0
 10
-79.5257
 20
-25.8611
 30
0.0
 10
-79.5257
 20
-25.8611
 30
0.0
 10
-84.9026
 20
-27.8252
 30
0.0
 10
-91.0042
 20
-25.2882
 30
0.0
 10
-94.6095
 20
-20.9525
 30
0.0
 10
-94.6095
 20
-20.9525
 30
0.0
 10
-98.2936
 20
-16.2307
 30
0.0
 10
-98.2196
 20
-10.2934
 30
0.0
 10
-95.6183
 20
-6.1094
 30
0.0
 10
-95.6183
 20
-6.1094
 30
0.0
 10
-93.6915
 20
-2.9515
 30
0.0
 10
-89.1645
 20
-0.2474
 30
0.0
 10
-85.738
 20
-2.2313
 30
0.0
  0
SPLINE
  5
62
330
1F
100
AcDbEntity
  8
layer 1
 62
     7
100
AcDbSpline
210
0.0
220
0.0
230
1.0
 70
    11
 71
     3
 72
    24
 73
    20
 74
     0
 42
0.0000000001
 43
0.0000000001
 12
1.0
 22
0.0
 32
0.0
 13
1.0
 23
0.0
 33
0.0
 40
0.0
 40
0.0
 40
0.0
 40
0.0
 40
0.1666666666666667
 40
0.1666666666666667
 40
0.1666666666666667
 40
0.1666666666666667
 40
0.3333333333333333
 40
0.3333333333333333
 40
0.3333333333333333
 40
0.3333333333333333
 40
0.5
 40
0.5
 40
0.5
 40
0.5
 40
0.6666666666666666
 40
0.6666666666666666
 40
0.6666666666666666
 40
0.6666666666666666
 40
1.0
 40
1.0
 40
1.0
 40
1.0
 10
-42.7203
 20
-3.9074
 30
0.0
 10
-42.7203
 20
-3.9074
 30
0.0
 10
-42.7203
 20
-21.2497
 30
0.0
 10
-42.7203
 20
-21.2497
 30
0.0
 10
-42.7203
 20
-21.2497
 30
0.0
 10
-45.2628
 20
-17.3597
 30
0.0
 10
-52.1133
 20
-17.4648
 30
0.0
 10
-54.2166
 20
-22.1421
 30
0.0
 10
-54.2166
 20
-22.1421
 30
0.0
 10
-53.7747
 20
-19.1444
 30
0.0
 10
-53.4881
 20
-15.0958
 30
0.0
 10
-54.3654
 20
-10.795
 30
0.0
 10
-54.3654
 20
-10.795
 30
0.0
 10
-47.8682
 20
-12.1159
 30
0.0
 10
-44.3305
 20
-8.3643
 30
0.0
 10
-42.7203
 20
-3.9073
 30
0.0
 10
-42.7203
 20
-3.9073
 30
0.0
 10
-42.7203
 20
-3.9073
 30
0.0
 10
-42.7203
 20
-3.9074
 30
0.0
 10
-42.7203
 20
-3.9074
 30
0.0
  0
SPLINE
  5
63
330
1F
100
AcDbEntity
  8
layer 1
 62
     7
100
AcDbSpline
210
0.0
220
0.0
230
1.0
 70
    11
 71
     3
 72
    44
 73
    40
 74
     0
 42
0.0000000001
 43
0.0000000001
 12
1.0
 22
0.0
 32
0.0
 13
1.0
 23
0.0
 33
0.0
 40
0.0
 40
0.0
 40
0.0
 40
0.0
 40
0.0909090909090909
 40
0.0909090909090909
 40
0.0909090909090909
 40
0.0909090909090909
 40
0.1818181818181818
 40
0.1818181818181818
 40
0.1818181818181818
 40
0.1818181818181818
 40
0.2727272727272727
 40
0.2727272727272727
 40
0.2727272727272727
 40
0.2727272727272727
 40
0.3636363636363636
 40
0.3636363636363636
 40
0.3636363636363636
 40
0.3636363636363636
 40
0.4545454545454545
 40
0.4545454545454545
 40
0.4545454545454545
 40
0.4545454545454545
 40
0.5454545454545454
 40
0.5454545454545454
 40
0.5454545454545454
 40
0.5454545454545454
 40
0.6363636363636364
 40
0.6363636363636364
 40
0.6363636363636364
 40
0.6363636363636364
 40
0.7272727272727273
 40
0.7272727272727273
 40
0.7272727272727273
 40
0.7272727272727273
 40
0.8181818181818182
 40
0.8181818181818182
 40
0.8181818181818182
 40
0.8181818181818182
 40
1.0
 40
1.0
 40
1.0
 40
1.0
 10
-61.9619
 20
-27.5836
 30
0.0
 10
-65.1204
 20
-32.5048
 30
0.0
 10
-71.9045
 20
-38.0025
 30
0.0
 10
-77.5198
 20
-38.9742
 30
0.0
 10
-77.5198
 20
-38.9742
 30
0.0
 10
-85.3124
 20
-41.0047
 30
0.0
 10
-92.9178
 20
-39.9096
 30
0.0
 10
-97.2252
 20
-37.8863
 30
0.0
 10
-97.2252
 20
-37.8863
 30
0.0
 10
-96.2134
 20
-32.87
 30
0.0
 10
-97.2387
 20
-26.9249
 30
0.0
 10
-97.5878
 20
-23.1962
 30
0.0
 10
-97.5878
 20
-23.1962
 30
0.0
 10
-94.6931
 20
-28.5899
 30
0.0
 10
-87.7227
 20
-30.7387
 30
0.0
 10
-81.3782
 20
-29.8426
 30
0.0
 10
-81.3782
 20
-29.8426
 30
0.0
 10
-75.6778
 20
-28.8717
 30
0.0
 10
-70.2814
 20
-25.6114
 30
0.0
 10
-70.0851
 20
-19.1495
 30
0.0
 10
-70.0851
 20
-19.1495
 30
0.0
 10
-70.0274
 20
-16.7026
 30
0.0
 10
-70.9514
 20
-15.2011
 30
0.0
 10
-71.6248
 20
-14.0324
 30
0.0
 10
-71.6248
 20
-14.0324
 30
0.0
 10
-68.9982
 20
-15.5864
 30
0.0
 10
-64.9373
 20
-13.0005
 30
0.0
 10
-66.0941
 20
-9.2271
 30
0.0
 10
-66.0941
 20
-9.2271
 30
0.0
 10
-70.4269
 20
-11.227
 30
0.0
 10
-71.3709
 20
-5.367
 30
0.0
 10
-67.3122
 20
-5.1422
 30
0.0
 10
-67.3122
 20
-5.1422
 30
0.0
 10
-56.8764
 20
-6.0149
 30
0.0
 10
-58.7159
 20
-23.0617
 30
0.0
 10
-61.962
 20
-27.5836
 30
0.0
 10
-61.962
 20
-27.5836
 30
0.0
 10
-61.962
 20
-27.5836
 30
0.0
 10
-61.9619
 20
-27.5836
 30
0.0
 10
-61.9619
 20
-27.5836
 30
0.0
  0
SPLINE
  5
64
330
1F
100
AcDbEntity
  8
layer 1
 62
     7
100
AcDbSpline
210
0.0
220
0.0
230
1.0
 70
    11
 71
     3
 72
    20
 73
    16
 74
     0
 42
0.0000000001
 43
0.0000000001
 12
1.0
 22
0.0
 32
0.0
 13
1.0
 23
0.0
 33
0.0
 40
0.0
 40
0.0
 40
0.0
 40
0.0
 40
0.2
 40
0.2
 40
0.2
 40
0.2
 40
0.4
 40
0.4
 40
0.4
 40
0.4
 40
0.6
 40
0.6
 40
0.6
 40
0.6
 40
1.0
 40
1.0
 40
1.0
 40
1.0
 10
-105.0625
 20
-10.782
 30
0.0
 10
-105.0204
 20
-12.6295
 30
0.0
 10
-106.9781
 20
-13.2542
 30
0.0
 10
-108.8571
 20
-12.9189
 30
0.0
 10
-108.8571
 20
-12.9189
 30
0.0
 10
-110.7362
 20
-13.2542
 30
0.0
 10
-112.6938
 20
-12.6295
 30
0.0
 10
-112.6518
 20
-10.782
 30
0.0
 10
-112.6518
 20
-10.782
 30
0.0
 10
-112.5137
 20
-8.2294
 30
0.0
 10
-109.84
 20
-7.8116
 30
0.0
 10
-108.8571
 20
-10.3641
 30
0.0
 10
-108.8571
 20
-10.3641
 30
0.0
 10
-107.8743
 20
-7.8116
 30
0.0
 10
-105.2006
 20
-8.2294
 30
0.0
 10
-105.0625
 20
-10.782
 30
0.0
  0
SPLINE
  5
65
330
1F
100
AcDbEntity
  8
layer 1
 62
     7
100
AcDbSpline
210
0.0
220
0.0
230
1.0
 70
    11
 71
     3
 72
    20
 73
    16
 74
     0
 42
0.0000000001
 43
0.0000000001
 12
1.0
 22
0.0
 32
0.0
 13
1.0
 23
0.0
 33
0.0
 40
0.0
 40
0.0
 40
0.0
 40
0.0
 40
0.2
 40
0.2
 40
0.2
 40
0.2
 40
0.4
 40
0.4
 40
0.4
 40
0.4
 40
0.6
 40
0.6
 40
0.6
 40
0.6
 40
1.0
 40
1.0
 40
1.0
 40
1.0
 10
-102.8253
 20
-15.7686
 30
0.0
 10
-104.48
 20
-17.069
 30
0.0
 10
-107.0648
 20
-17.3297
 30
0.0
 10
-108.8572
 20
-16.6075
 30
0.0
 10
-108.8572
 20
-16.6075
 30
0.0
 10
-110.6496
 20
-17.3297
 30
0.0
 10
-113.2344
 20
-17.069
 30
0.0
 10
-114.8891
 20
-15.7686
 30
0.0
 10
-114.8891
 20
-15.7686
 30
0.0
 10
-113.0556
 20
-19.784
 30
0.0
 10
-111.1573
 20
-22.9538
 30
0.0
 10
-108.8572
 20
-26.7967
 30
0.0
 10
-108.8572
 20
-26.7967
 30
0.0
 10
-106.5572
 20
-22.9537
 30
0.0
 10
-104.6588
 20
-19.7839
 30
0.0
 10
-102.8253
 20
-15.7686
 30
0.0
  0
SPLINE
  5
66
330
1F
100
AcDbEntity
  8
layer 1
 62
     7
100
AcDbSpline
210
0.0
220
0.0
230
1.0
 70
    11
 71
     3
 72
    16
 73
    12
 74
     0
 42
0.0000000001
 43
0.0000000001
 12
1.0
 22
0.0
 32
0.0
 13
1.0
 23
0.0
 33
0.0
 40
0.0
 40
0.0
 40
0.0
 40
0.0
 40
0.25
 40
0.25
 40
0.25
 40
0.25
 40
0.5
 40
0.5
 40
0.5
 40
0.5
 40
1.0
 40
1.0
 40
1.0
 40
1.0
 10
-100.5592
 20
-16.0247
 30
0.0
 10
-99.4156
 20
-27.1621
 30
0.0
 10
-98.5717
 20
-31.47
 30
0.0
 10
-99.2684
 20
-37.0571
 30
0.0
 10
-99.2684
 20
-37.0571
 30
0.0
 10
-100.9674
 20
-36.1363
 30
0.0
 10
-106.5911
 20
-31.0718
 30
0.0
 10
-106.5177
 20
-30.7269
 30
0.0
 10
-106.5177
 20
-30.7269
 30
0.0
 10
-103.4056
 20
-26.0139
 30
0.0
 10
-101.3971
 20
-21.4737
 30
0.0
 10
-100.5592
 20
-16.0247
 30
0.0
  0
SPLINE
  5
67
330
1F
100
AcDbEntity
  8
layer 1
 62
     7
100
AcDbSpline
210
0.0
220
0.0
230
1.0
 70
    11
 71
     3
 72
    32
 73
    28
 74
     0
 42
0.0000000001
 43
0.0000000001
 12
1.0
 22
0.0
 32
0.0
 13
1.0
 23
0.0
 33
0.0
 40
0.0
 40
0.0
 40
0.0
 40
0.0
 40
0.125
 40
0.125
 40
0.125
 40
0.125
 40
0.25
 40
0.25
 40
0.25
 40
0.25
 40
0.375
 40
0.375
 40
0.375
 40
0.375
 40
0.5
 40
0.5
 40
0.5
 40
0.5
 40
0.625
 40
0.625
 40
0.625
 40
0.625
 40
0.75
 40
0.75
 40
0.75
 40
0.75
 40
1.0
 40
1.0
 40
1.0
 40
1.0
 10
-44.469
 20
-29.3163
 30
0.0
 10
-44.469
 20
-30.3708
 30
0.0
 10
-45.4122
 20
-33.0063
 30
0.0
 10
-46.2929
 20
-34.4125
 30
0.0
 10
-46.2929
 20
-34.4125
 30
0.0
 10
-52.6385
 20
-43.2476
 30
0.0
 10
-66.3718
 20
-44.54
 30
0.0
 10
-77.0101
 20
-43.0515
 30
0.0
 10
-77.0101
 20
-43.0515
 30
0.0
 10
-66.8251
 20
-40.9279
 30
0.0
 10
-59.4843
 20
-34.2228
 30
0.0
 10
-55.8354
 20
-26.3181
 30
0.0
 10
-55.8354
 20
-26.3181
 30
0.0
 10
-56.3096
 20
-30.2231
 30
0.0
 10
-52.0588
 20
-32.8046
 30
0.0
 10
-48.4485
 20
-30.9965
 30
0.0
 10
-48.4485
 20
-30.9965
 30
0.0
 10
-50.666
 20
-30.0862
 30
0.0
 10
-51.1118
 20
-27.6782
 30
0.0
 10
-49.6705
 20
-26.2338
 30
0.0
 10
-49.6705
 20
-26.2338
 30
0.0
 10
-47.2973
 20
-24.4592
 30
0.0
 10
-44.2924
 20
-26.1048
 30
0.0
 10
-44.4691
 20
-29.3163
 30
0.0
 10
-44.4691
 20
-29.3163
 30
0.0
 10
-44.4691
 20
-29.3163
 30
0.0
 10
-44.469
 20
-29.3163
 30
0.0
 10
-44.469
 20
-29.3163
 30
0.0
  0
SPLINE
  5
68
330
1F
100
AcDbEntity
  8
layer 1
 62
     7
100
AcDbSpline
210
0.0
220
0.0
230
1.0
 70
    11
 71
     3
 72
    16
 73
    12
 74
     0
 42
0.0000000001
 43
0.0000000001
 12
1.0
 22
0.0
 32
0.0
 13
1.0
 23
0.0
 33
0.0
 40
0.0
 40
0.0
 40
0.0
 40
0.0
 40
0.25
 40
0.25
 40
0.25
 40
0.25
 40
0.5
 40
0.5
 40
0.5
 40
0.5
 40
1.0
 40
1.0
 40
1.0
 40
1.0
 10
-41.3797
 20
-53.105
 30
0.0
 10
-44.671
 20
-50.4146
 30
0.0
 10
-50.1463
 20
-45.2673
 30
0.0
 10
-56.3557
 20
-45.2249
 30
0.0
 10
-56.3557
 20
-45.2249
 30
0.0
 10
-50.0433
 20
-42.5459
 30
0.0
 10
-46.5924
 20
-39.862
 30
0.0
 10
-42.7451
 20
-35.922
 30
0.0
 10
-42.7451
 20
-35.922
 30
0.0
 10
-43.1019
 20
-40.2001
 30
0.0
 10
-42.2193
 20
-48.2966
 30
0.0
 10
-41.3797
 20
-53.105
 30
0.0
  0
SPLINE
  5
69
330
1F
100
AcDbEntity
  8
layer 1
 62
     7
100
AcDbSpline
210
0.0
220
0.0
230
1.0
 70
    11
 71
     3
 72
    20
 73
    16
 74
     0
 42
0.0000000001
 43
0.0000000001
 12
1.0
 22
0.0
 32
0.0
 13
1.0
 23
0.0
 33
0.0
 40
0.0
 40
0.0
 40
0.0
 40
0.0
 40
0.2
 40
0.2
 40
0.2
 40
0.2
 40
0.4
 40
0.4
 40
0.4
 40
0.4
 40
0.6
 40
0.6
 40
0.6
 40
0.6
 40
1.0
 40
1.0
 40
1.0
 40
1.0
 10
-105.7634
 20
-36.7068
 30
0.0
 10
-104.6733
 20
-37.8776
 30
0.0
 10
-102.9805
 20
-39.1579
 30
0.0
 10
-101.2876
 20
-40.2191
 30
0.0
 10
-101.2876
 20
-40.2191
 30
0.0
 10
-102.5988
 20
-40.8837
 30
0.0
 10
-104.5033
 20
-41.0758
 30
0.0
 10
-105.122
 20
-40.5218
 30
0.0
 10
-105.122
 20
-40.5218
 30
0.0
 10
-106.1031
 20
-39.7874
 30
0.0
 10
-106.535
 20
-37.6211
 30
0.0
 10
-105.7633
 20
-36.7068
 30
0.0
 10
-105.7633
 20
-36.7068
 30
0.0
 10
-105.7633
 20
-36.7068
 30
0.0
 10
-105.7634
 20
-36.7068
 30
0.0
 10
-105.7634
 20
-36.7068
 30
0.0
  0
SPLINE
  5
6A
330
1F
100
AcDbEntity
  8
layer 1
 62
     7
100
AcDbSpline
210
0.0
220
0.0
230
1.0
 70
    11
 71
     3
 72
    32
 73
    28
 74
     0
 42
0.0000000001
 43
0.0000000001
 12
1.0
 22
0.0
 32
0.0
 13
1.0
 23
0.0
 33
0.0
 40
0.0
 40
0.0
 40
0.0
 40
0.0
 40
0.125
 40
0.125
 40
0.125
 40
0.125
 40
0.25
 40
0.25
 40
0.25
 40
0.25
 40
0.375
 40
0.375
 40
0.375
 40
0.375
 40
0.5
 40
0.5
 40
0.5
 40
0.5
 40
0.625
 40
0.625
 40
0.625
 40
0.625
 40
0.75
 40
0.75
 40
0.75
 40
0.75
 40
1.0
 40
1.0
 40
1.0
 40
1.0
 10
-93.0563
 20
-43.4305
 30
0.0
 10
-85.3576
 20
-45.9571
 30
0.0
 10
-78.7976
 20
-46.9843
 30
0.0
 10
-72.4708
 20
-47.627
 30
0.0
 10
-72.4708
 20
-47.627
 30
0.0
 10
-76.8914
 20
-49.8676
 30
0.0
 10
-75.8831
 20
-54.5068
 30
0.0
 10
-74.7174
 20
-55.4475
 30
0.0
 10
-74.7174
 20
-55.4475
 30
0.0
 10
-73.6097
 20
-52.8232
 30
0.0
 10
-70.7626
 20
-51.9757
 30
0.0
 10
-69.4606
 20
-53.5516
 30
0.0
 10
-69.4606
 20
-53.5516
 30
0.0
 10
-68.3847
 20
-54.4083
 30
0.0
 10
-68.0766
 20
-56.5821
 30
0.0
 10
-69.6759
 20
-58.0368
 30
0.0
 10
-69.6759
 20
-58.0368
 30
0.0
 10
-72.6918
 20
-60.625
 30
0.0
 10
-77.491
 20
-59.1551
 30
0.0
 10
-80.3727
 20
-57.048
 30
0.0
 10
-80.3727
 20
-57.048
 30
0.0
 10
-85.8591
 20
-53.2473
 30
0.0
 10
-90.2495
 20
-46.1711
 30
0.0
 10
-93.0563
 20
-43.4306
 30
0.0
 10
-93.0563
 20
-43.4306
 30
0.0
 10
-93.0563
 20
-43.4306
 30
0.0
 10
-93.0563
 20
-43.4305
 30
0.0
 10
-93.0563
 20
-43.4305
 30
0.0
  0
SPLINE
  5
6B
330
1F
100
AcDbEntity
  8
layer 1
 62
     7
100
AcDbSpline
210
0.0
220
0.0
230
1.0
 70
    11
 71
     3
 72
    60
 73
    56
 74
     0
 42
0.0000000001
 43
0.0000000001
 12
1.0
 22
0.0
 32
0.0
 13
1.0
 23
0.0
 33
0.0
 40
0.0
 40
0.0
 40
0.0
 40
0.0
 40
0.0666666666666667
 40
0.0666666666666667
 40
0.0666666666666667
 40
0.0666666666666667
 40
0.1333333333333333
 40
0.1333333333333333
 40
0.1333333333333333
 40
0.1333333333333333
 40
0.2
 40
0.2
 40
0.2
 40
0.2
 40
0.2666666666666667
 40
0.2666666666666667
 40
0.2666666666666667
 40
0.2666666666666667
 40
0.3333333333333333
 40
0.3333333333333333
 40
0.3333333333333333
 40
0.3333333333333333
 40
0.4
 40
0.4
 40
0.4
 40
0.4
 40
0.4666666666666667
 40
0.4666666666666667
 40
0.4666666666666667
 40
0.4666666666666667
 40
0.5333333333333333
 40
0.5333333333333333
 40
0.5333333333333333
 40
0.5333333333333333
 40
0.6
 40
0.6
 40
0.6
 40
0.6
 40
0.6666666666666666
 40
0.6666666666666666
 40
0.6666666666666666
 40
0.6666666666666666
 40
0.7333333333333333
 40
0.7333333333333333
 40
0.7333333333333333
 40
0.7333333333333333
 40
0.8
 40
0.8
 40
0.8
 40
0.8
 40
0.8666666666666667
 40
0.8666666666666667
 40
0.8666666666666667
 40
0.8666666666666667
 40
1.0
 40
1.0
 40
1.0
 40
1.0
 10
-48.85
 20
-53.1266
 30
0.0
 10
-41.4293
 20
-58.3216
 30
0.0
 10
-37.4823
 20
-65.3856
 30
0.0
 10
-35.394
 20
-73.8526
 30
0.0
 10
-35.394
 20
-73.8526
 30
0.0
 10
-32.7112
 20
-84.9837
 30
0.0
 10
-37.6453
 20
-95.3451
 30
0.0
 10
-46.3711
 20
-99.6258
 30
0.0
 10
-46.3711
 20
-99.6258
 30
0.0
 10
-53.8459
 20
-103.2927
 30
0.0
 10
-62.8195
 20
-102.9803
 30
0.0
 10
-69.5959
 20
-97.9532
 30
0.0
 10
-69.5959
 20
-97.9532
 30
0.0
 10
-74.9971
 20
-94.2628
 30
0.0
 10
-78.8923
 20
-84.6727
 30
0.0
 10
-75.6016
 20
-80.562
 30
0.0
 10
-75.6016
 20
-80.562
 30
0.0
 10
-74.2461
 20
-79.0154
 30
0.0
 10
-72.6262
 20
-78.1992
 30
0.0
 10
-71.1107
 20
-78.176
 30
0.0
 10
-71.1107
 20
-78.176
 30
0.0
 10
-69.613
 20
-78.331
 30
0.0
 10
-67.9327
 20
-78.8373
 30
0.0
 10
-67.5153
 20
-81.0934
 30
0.0
 10
-67.5153
 20
-81.0934
 30
0.0
 10
-67.2405
 20
-83.3541
 30
0.0
 10
-69.3495
 20
-84.2642
 30
0.0
 10
-71.0856
 20
-83.9355
 30
0.0
 10
-71.0856
 20
-83.9355
 30
0.0
 10
-69.8878
 20
-87.28
 30
0.0
 10
-65.4108
 20
-87.0645
 30
0.0
 10
-63.6405
 20
-84.5638
 30
0.0
 10
-63.6405
 20
-84.5638
 30
0.0
 10
-66.1234
 20
-90.4765
 30
0.0
 10
-61.8147
 20
-96.9086
 30
0.0
 10
-54.3628
 20
-96.419
 30
0.0
 10
-54.3628
 20
-96.419
 30
0.0
 10
-46.7467
 20
-95.8205
 30
0.0
 10
-43.1898
 20
-90.9378
 30
0.0
 10
-42.5898
 20
-85.3863
 30
0.0
 10
-42.5898
 20
-85.3863
 30
0.0
 10
-41.3052
 20
-70.1909
 30
0.0
 10
-54.7385
 20
-59.9741
 30
0.0
 10
-66.3952
 20
-62.8856
 30
0.0
 10
-66.3952
 20
-62.8856
 30
0.0
 10
-61.4514
 20
-58.1038
 30
0.0
 10
-61.3174
 20
-53.212
 30
0.0
 10
-65.5999
 20
-48.4055
 30
0.0
 10
-65.5999
 20
-48.4055
 30
0.0
 10
-59.5762
 20
-48.7761
 30
0.0
 10
-53.135
 20
-50.3365
 30
0.0
 10
-48.85
 20
-53.1267
 30
0.0
 10
-48.85
 20
-53.1267
 30
0.0
 10
-48.85
 20
-53.1267
 30
0.0
 10
-48.85
 20
-53.1266
 30
0.0
 10
-48.85
 20
-53.1266
 30
0.0
  0
SPLINE
  5
6C
330
1F
100
AcDbEntity
  8
layer 1
 62
     7
100
AcDbSpline
210
0.0
220
0.0
230
1.0
 70
    11
 71
     3
 72
    24
 73
    20
 74
     0
 42
0.0000000001
 43
0.0000000001
 12
1.0
 22
0.0
 32
0.0
 13
1.0
 23
0.0
 33
0.0
 40
0.0
 40
0.0
 40
0.0
 40
0.0
 40
0.1666666666666667
 40
0.1666666666666667
 40
0.1666666666666667
 40
0.1666666666666667
 40
0.3333333333333333
 40
0.3333333333333333
 40
0.3333333333333333
 40
0.3333333333333333
 40
0.5
 40
0.5
 40
0.5
 40
0.5
 40
0.6666666666666666
 40
0.6666666666666666
 40
0.6666666666666666
 40
0.6666666666666666
 40
1.0
 40
1.0
 40
1.0
 40
1.0
 10
-70.9605
 20
-64.7585
 30
0.0
 10
-74.8657
 20
-66.766
 30
0.0
 10
-77.4022
 20
-69.7509
 30
0.0
 10
-79.2937
 20
-74.6049
 30
0.0
 10
-79.2937
 20
-74.6049
 30
0.0
 10
-79.3939
 20
-67.1944
 30
0.0
 10
-83.9152
 20
-63.4294
 30
0.0
 10
-91.2233
 20
-63.8582
 30
0.0
 10
-91.2233
 20
-63.8582
 30
0.0
 10
-87.2846
 20
-61.3115
 30
0.0
 10
-86.214
 20
-58.1273
 30
0.0
 10
-86.5607
 20
-54.0616
 30
0.0
 10
-86.5607
 20
-54.0616
 30
0.0
 10
-84.747
 20
-58.2617
 30
0.0
 10
-79.9351
 20
-63.3805
 30
0.0
 10
-70.9604
 20
-64.7585
 30
0.0
 10
-70.9604
 20
-64.7585
 30
0.0
 10
-70.9604
 20
-64.7585
 30
0.0
 10
-70.9605
 20
-64.7585
 30
0.0
 10
-70.9605
 20
-64.7585
 30
0.0
  0
SPLINE
  5
6D
330
1F
100
AcDbEntity
  8
layer 1
 62
     7
100
AcDbSpline
210
0.0
220
0.0
230
1.0
 70
    11
 71
     3
 72
    32
 73
    28
 74
     0
 42
0.0000000001
 43
0.0000000001
 12
1.0
 22
0.0
 32
0.0
 13
1.0
 23
0.0
 33
0.0
 40
0.0
 40
0.0
 40
0.0
 40
0.0
 40
0.125
 40
0.125
 40
0.125
 40
0.125
 40
0.25
 40
0.25
 40
0.25
 40
0.25
 40
0.375
 40
0.375
 40
0.375
 40
0.375
 40
0.5
 40
0.5
 40
0.5
 40
0.5
 40
0.625
 40
0.625
 40
0.625
 40
0.625
 40
0.75
 40
0.75
 40
0.75
 40
0.75
 40
1.0
 40
1.0
 40
1.0
 40
1.0
 10
-51.7993
 20
-70.4735
 30
0.0
 10
-46.6931
 20
-75.5282
 30
0.0
 10
-45.0244
 20
-84.6762
 30
0.0
 10
-49.6375
 20
-88.8967
 30
0.0
 10
-49.6375
 20
-88.8967
 30
0.0
 10
-51.7794
 20
-90.4338
 30
0.0
 10
-54.5366
 20
-90.9729
 30
0.0
 10
-56.0531
 20
-89.489
 30
0.0
 10
-56.0531
 20
-89.489
 30
0.0
 10
-58.828
 20
-86.0332
 30
0.0
 10
-56.3023
 20
-82.8211
 30
0.0
 10
-52.7906
 20
-82.3219
 30
0.0
 10
-52.7906
 20
-82.3219
 30
0.0
 10
-54.352
 20
-78.2978
 30
0.0
 10
-60.5943
 20
-79.3926
 30
0.0
 10
-62.4113
 20
-82.5627
 30
0.0
 10
-62.4113
 20
-82.5627
 30
0.0
 10
-59.3968
 20
-74.93
 30
0.0
 10
-70.1672
 20
-72.3175
 30
0.0
 10
-75.1427
 20
-76.0395
 30
0.0
 10
-75.1427
 20
-76.0395
 30
0.0
 10
-72.8521
 20
-68.0986
 30
0.0
 10
-59.8701
 20
-62.7236
 30
0.0
 10
-51.7993
 20
-70.4734
 30
0.0
 10
-51.7993
 20
-70.4734
 30
0.0
 10
-51.7993
 20
-70.4734
 30
0.0
 10
-51.7993
 20
-70.4735
 30
0.0
 10
-51.7993
 20
-70.4735
 30
0.0
  0
SPLINE
  5
6E
330
1F
100
AcDbEntity
  8
layer 1
 62
     7
100
AcDbSpline
210
0.0
220
0.0
230
1.0
 70
    11
 71
     3
 72
    40
 73
    36
 74
     0
 42
0.0000000001
 43
0.0000000001
 12
1.0
 22
0.0
 32
0.0
 13
1.0
 23
0.0
 33
0.0
 40
0.0
 40
0.0
 40
0.0
 40
0.0
 40
0.1
 40
0.1
 40
0.1
 40
0.1
 40
0.2
 40
0.2
 40
0.2
 40
0.2
 40
0.3
 40
0.3
 40
0.3
 40
0.3
 40
0.4
 40
0.4
 40
0.4
 40
0.4
 40
0.5
 40
0.5
 40
0.5
 40
0.5
 40
0.6
 40
0.6
 40
0.6
 40
0.6
 40
0.7
 40
0.7
 40
0.7
 40
0.7
 40
0.8
 40
0.8
 40
0.8
 40
0.8
 40
1.0
 40
1.0
 40
1.0
 40
1.0
 10
-174.994
 20
1.9028
 30
0.0
 10
-173.4634
 20
8.3688
 30
0.0
 10
-163.9339
 20
8.3688
 30
0.0
 10
-163.3226
 20
3.7989
 30
0.0
 10
-163.3226
 20
3.7989
 30
0.0
 10
-166.4589
 20
4.1345
 30
0.0
 10
-167.7021
 20
2.3719
 30
0.0
 10
-167.8039
 20
0.4295
 30
0.0
 10
-167.8039
 20
0.4295
 30
0.0
 10
-167.8039
 20
-0.8566
 30
0.0
 10
-166.991
 20
-2.5213
 30
0.0
 10
-166.0679
 20
-3.1262
 30
0.0
 10
-166.0679
 20
-3.1262
 30
0.0
 10
-159.9859
 20
-5.4511
 30
0.0
 10
-156.323
 20
2.0618
 30
0.0
 10
-156.3338
 20
8.2633
 30
0.0
 10
-156.3338
 20
8.2633
 30
0.0
 10
-156.3456
 20
15.1675
 30
0.0
 10
-161.1975
 20
22.6585
 30
0.0
 10
-166.0679
 20
19.7204
 30
0.0
 10
-166.0679
 20
19.7204
 30
0.0
 10
-166.9911
 20
19.1155
 30
0.0
 10
-167.8039
 20
17.4508
 30
0.0
 10
-167.8039
 20
16.1647
 30
0.0
 10
-167.8039
 20
16.1647
 30
0.0
 10
-167.7021
 20
14.2222
 30
0.0
 10
-166.4589
 20
12.4597
 30
0.0
 10
-163.3226
 20
12.7953
 30
0.0
 10
-163.3226
 20
12.7953
 30
0.0
 10
-163.9339
 20
8.2254
 30
0.0
 10
-173.4634
 20
8.2254
 30
0.0
 10
-174.994
 20
14.6914
 30
0.0
 10
-174.994
 20
14.6914
 30
0.0
 10
-174.994
 20
14.6914
 30
0.0
 10
-174.994
 20
1.9028
 30
0.0
 10
-174.994
 20
1.9028
 30
0.0
  0
SPLINE
  5
6F
330
1F
100
AcDbEntity
  8
layer 1
 62
     7
100
AcDbSpline
210
0.0
220
0.0
230
1.0
 70
    11
 71
     3
 72
    16
 73
    12
 74
     0
 42
0.0000000001
 43
0.0000000001
 12
1.0
 22
0.0
 32
0.0
 13
1.0
 23
0.0
 33
0.0
 40
0.0
 40
0.0
 40
0.0
 40
0.0
 40
0.25
 40
0.25
 40
0.25
 40
0.25
 40
0.5
 40
0.5
 40
0.5
 40
0.5
 40
1.0
 40
1.0
 40
1.0
 40
1.0
 10
-153.0831
 20
3.8066
 30
0.0
 10
-150.2777
 20
6.0852
 30
0.0
 10
-146.9553
 20
7.7607
 30
0.0
 10
-142.8231
 20
8.2972
 30
0.0
 10
-142.8231
 20
8.2972
 30
0.0
 10
-146.9553
 20
8.8336
 30
0.0
 10
-150.2776
 20
10.509
 30
0.0
 10
-153.0831
 20
12.7877
 30
0.0
 10
-153.0831
 20
12.7877
 30
0.0
 10
-152.6212
 20
9.4963
 30
0.0
 10
-152.529
 20
6.98
 30
0.0
 10
-153.0831
 20
3.8066
 30
0.0
  0
SPLINE
  5
70
330
1F
100
AcDbEntity
  8
layer 1
 62
     7
100
AcDbSpline
210
0.0
220
0.0
230
1.0
 70
    11
 71
     3
 72
    24
 73
    20
 74
     0
 42
0.0000000001
 43
0.0000000001
 12
1.0
 22
0.0
 32
0.0
 13
1.0
 23
0.0
 33
0.0
 40
0.0
 40
0.0
 40
0.0
 40
0.0
 40
0.1666666666666667
 40
0.1666666666666667
 40
0.1666666666666667
 40
0.1666666666666667
 40
0.3333333333333333
 40
0.3333333333333333
 40
0.3333333333333333
 40
0.3333333333333333
 40
0.5
 40
0.5
 40
0.5
 40
0.5
 40
0.6666666666666666
 40
0.6666666666666666
 40
0.6666666666666666
 40
0.6666666666666666
 40
1.0
 40
1.0
 40
1.0
 40
1.0
 10
-133.5709
 20
3.1289
 30
0.0
 10
-139.0467
 20
7.1335
 30
0.0
 10
-151.592
 20
2.6992
 30
0.0
 10
-153.3949
 20
-1.9244
 30
0.0
 10
-153.3949
 20
-1.9244
 30
0.0
 10
-145.0676
 20
0.9324
 30
0.0
 10
-139.4175
 20
-4.1901
 30
0.0
 10
-142.0879
 20
-10.755
 30
0.0
 10
-142.0879
 20
-10.755
 30
0.0
 10
-141.3212
 20
-10.1594
 30
0.0
 10
-140.255
 20
-9.5751
 30
0.0
 10
-139.4309
 20
-9.7428
 30
0.0
 10
-139.4309
 20
-9.7428
 30
0.0
 10
-141.5355
 20
-5.9904
 30
0.0
 10
-140.5904
 20
0.4776
 30
0.0
 10
-133.571
 20
3.129
 30
0.0
 10
-133.571
 20
3.129
 30
0.0
 10
-133.571
 20
3.129
 30
0.0
 10
-133.5709
 20
3.1289
 30
0.0
 10
-133.5709
 20
3.1289
 30
0.0
  0
SPLINE
  5
71
330
1F
100
AcDbEntity
  8
layer 1
 62
     7
100
AcDbSpline
210
0.0
220
0.0
230
1.0
 70
    11
 71
     3
 72
    40
 73
    36
 74
     0
 42
0.0000000001
 43
0.0000000001
 12
1.0
 22
0.0
 32
0.0
 13
1.0
 23
0.0
 33
0.0
 40
0.0
 40
0.0
 40
0.0
 40
0.0
 40
0.1
 40
0.1
 40
0.1
 40
0.1
 40
0.2
 40
0.2
 40
0.2
 40
0.2
 40
0.3
 40
0.3
 40
0.3
 40
0.3
 40
0.4
 40
0.4
 40
0.4
 40
0.4
 40
0.5
 40
0.5
 40
0.5
 40
0.5
 40
0.6
 40
0.6
 40
0.6
 40
0.6
 40
0.7
 40
0.7
 40
0.7
 40
0.7
 40
0.8
 40
0.8
 40
0.8
 40
0.8
 40
1.0
 40
1.0
 40
1.0
 40
1.0
 10
-131.9763
 20
-2.2313
 30
0.0
 10
-132.987
 20
-2.8458
 30
0.0
 10
-133.8743
 20
-4.3319
 30
0.0
 10
-133.8743
 20
-5.4101
 30
0.0
 10
-133.8743
 20
-5.4101
 30
0.0
 10
-134.0471
 20
-7.8636
 30
0.0
 10
-130.4247
 20
-10.9358
 30
0.0
 10
-126.9333
 20
-7.9146
 30
0.0
 10
-126.9333
 20
-7.9146
 30
0.0
 10
-126.9333
 20
-9.8378
 30
0.0
 10
-129.1153
 20
-14.329
 30
0.0
 10
-132.7496
 20
-13.8906
 30
0.0
 10
-132.7496
 20
-13.8906
 30
0.0
 10
-131.6312
 20
-15.3064
 30
0.0
 10
-132.8388
 20
-21.2663
 30
0.0
 10
-135.4855
 20
-21.7292
 30
0.0
 10
-135.4855
 20
-21.7292
 30
0.0
 10
-135.0069
 20
-18.6532
 30
0.0
 10
-136.4326
 20
-15.8884
 30
0.0
 10
-139.216
 20
-15.8205
 30
0.0
 10
-139.216
 20
-15.8205
 30
0.0
 10
-144.6625
 20
-16.6411
 30
0.0
 10
-143.6974
 20
-23.2782
 30
0.0
 10
-138.1886
 20
-25.8611
 30
0.0
 10
-138.1886
 20
-25.8611
 30
0.0
 10
-132.8118
 20
-27.8252
 30
0.0
 10
-126.7101
 20
-25.2882
 30
0.0
 10
-123.1048
 20
-20.9525
 30
0.0
 10
-123.1048
 20
-20.9525
 30
0.0
 10
-119.4207
 20
-16.2307
 30
0.0
 10
-119.4947
 20
-10.2934
 30
0.0
 10
-122.096
 20
-6.1094
 30
0.0
 10
-122.096
 20
-6.1094
 30
0.0
 10
-124.0228
 20
-2.9515
 30
0.0
 10
-128.5498
 20
-0.2474
 30
0.0
 10
-131.9763
 20
-2.2313
 30
0.0
  0
SPLINE
  5
72
330
1F
100
AcDbEntity
  8
layer 1
 62
     7
100
AcDbSpline
210
0.0
220
0.0
230
1.0
 70
    11
 71
     3
 72
    24
 73
    20
 74
     0
 42
0.0000000001
 43
0.0000000001
 12
1.0
 22
0.0
 32
0.0
 13
1.0
 23
0.0
 33
0.0
 40
0.0
 40
0.0
 40
0.0
 40
0.0
 40
0.1666666666666667
 40
0.1666666666666667
 40
0.1666666666666667
 40
0.1666666666666667
 40
0.3333333333333333
 40
0.3333333333333333
 40
0.3333333333333333
 40
0.3333333333333333
 40
0.5
 40
0.5
 40
0.5
 40
0.5
 40
0.6666666666666666
 40
0.6666666666666666
 40
0.6666666666666666
 40
0.6666666666666666
 40
1.0
 40
1.0
 40
1.0
 40
1.0
 10
-174.994
 20
-3.9074
 30
0.0
 10
-174.994
 20
-3.9074
 30
0.0
 10
-174.994
 20
-21.2497
 30
0.0
 10
-174.994
 20
-21.2497
 30
0.0
 10
-174.994
 20
-21.2497
 30
0.0
 10
-172.4516
 20
-17.3597
 30
0.0
 10
-165.601
 20
-17.4648
 30
0.0
 10
-163.4977
 20
-22.1421
 30
0.0
 10
-163.4977
 20
-22.1421
 30
0.0
 10
-163.9397
 20
-19.1444
 30
0.0
 10
-164.2263
 20
-15.0958
 30
0.0
 10
-163.3489
 20
-10.795
 30
0.0
 10
-163.3489
 20
-10.795
 30
0.0
 10
-169.8461
 20
-12.1159
 30
0.0
 10
-173.3838
 20
-8.3643
 30
0.0
 10
-174.994
 20
-3.9073
 30
0.0
 10
-174.994
 20
-3.9073
 30
0.0
 10
-174.994
 20
-3.9073
 30
0.0
 10
-174.994
 20
-3.9074
 30
0.0
 10
-174.994
 20
-3.9074
 30
0.0
  0
SPLINE
  5
73
330
1F
100
AcDbEntity
  8
layer 1
 62
     7
100
AcDbSpline
210
0.0
220
0.0
230
1.0
 70
    11
 71
     3
 72
    44
 73
    40
 74
     0
 42
0.0000000001
 43
0.0000000001
 12
1.0
 22
0.0
 32
0.0
 13
1.0
 23
0.0
 33
0.0
 40
0.0
 40
0.0
 40
0.0
 40
0.0
 40
0.0909090909090909
 40
0.0909090909090909
 40
0.0909090909090909
 40
0.0909090909090909
 40
0.1818181818181818
 40
0.1818181818181818
 40
0.1818181818181818
 40
0.1818181818181818
 40
0.2727272727272727
 40
0.2727272727272727
 40
0.2727272727272727
 40
0.2727272727272727
 40
0.3636363636363636
 40
0.3636363636363636
 40
0.3636363636363636
 40
0.3636363636363636
 40
0.4545454545454545
 40
0.4545454545454545
 40
0.4545454545454545
 40
0.4545454545454545
 40
0.5454545454545454
 40
0.5454545454545454
 40
0.5454545454545454
 40
0.5454545454545454
 40
0.6363636363636364
 40
0.6363636363636364
 40
0.6363636363636364
 40
0.6363636363636364
 40
0.7272727272727273
 40
0.7272727272727273
 40
0.7272727272727273
 40
0.7272727272727273
 40
0.8181818181818182
 40
0.8181818181818182
 40
0.8181818181818182
 40
0.8181818181818182
 40
1.0
 40
1.0
 40
1.0
 40
1.0
 10
-155.7524
 20
-27.5836
 30
0.0
 10
-152.5939
 20
-32.5048
 30
0.0
 10
-145.8099
 20
-38.0025
 30
0.0
 10
-140.1945
 20
-38.9742
 30
0.0
 10
-140.1945
 20
-38.9742
 30
0.0
 10
-132.402
 20
-41.0047
 30
0.0
 10
-124.7965
 20
-39.9096
 30
0.0
 10
-120.4891
 20
-37.8863
 30
0.0
 10
-120.4891
 20
-37.8863
 30
0.0
 10
-121.5009
 20
-32.87
 30
0.0
 10
-120.4756
 20
-26.9249
 30
0.0
 10
-120.1265
 20
-23.1962
 30
0.0
 10
-120.1265
 20
-23.1962
 30
0.0
 10
-123.0212
 20
-28.5899
 30
0.0
 10
-129.9917
 20
-30.7387
 30
0.0
 10
-136.3361
 20
-29.8426
 30
0.0
 10
-136.3361
 20
-29.8426
 30
0.0
 10
-142.0365
 20
-28.8717
 30
0.0
 10
-147.4329
 20
-25.6114
 30
0.0
 10
-147.6293
 20
-19.1495
 30
0.0
 10
-147.6293
 20
-19.1495
 30
0.0
 10
-147.6869
 20
-16.7026
 30
0.0
 10
-146.7629
 20
-15.2011
 30
0.0
 10
-146.0895
 20
-14.0324
 30
0.0
 10
-146.0895
 20
-14.0324
 30
0.0
 10
-148.7161
 20
-15.5864
 30
0.0
 10
-152.777
 20
-13.0005
 30
0.0
 10
-151.6202
 20
-9.2271
 30
0.0
 10
-151.6202
 20
-9.2271
 30
0.0
 10
-147.2874
 20
-11.227
 30
0.0
 10
-146.3434
 20
-5.367
 30
0.0
 10
-150.4021
 20
-5.1422
 30
0.0
 10
-150.4021
 20
-5.1422
 30
0.0
 10
-160.8379
 20
-6.0149
 30
0.0
 10
-158.9984
 20
-23.0617
 30
0.0
 10
-155.7523
 20
-27.5836
 30
0.0
 10
-155.7523
 20
-27.5836
 30
0.0
 10
-155.7523
 20
-27.5836
 30
0.0
 10
-155.7524
 20
-27.5836
 30
0.0
 10
-155.7524
 20
-27.5836
 30
0.0
  0
SPLINE
  5
74
330
1F
100
AcDbEntity
  8
layer 1
 62
     7
100
AcDbSpline
210
0.0
220
0.0
230
1.0
 70
    11
 71
     3
 72
    16
 73
    12
 74
     0
 42
0.0000000001
 43
0.0000000001
 12
1.0
 22
0.0
 32
0.0
 13
1.0
 23
0.0
 33
0.0
 40
0.0
 40
0.0
 40
0.0
 40
0.0
 40
0.25
 40
0.25
 40
0.25
 40
0.25
 40
0.5
 40
0.5
 40
0.5
 40
0.5
 40
1.0
 40
1.0
 40
1.0
 40
1.0
 10
-117.1551
 20
-16.0247
 30
0.0
 10
-118.2987
 20
-27.1621
 30
0.0
 10
-119.1426
 20
-31.47
 30
0.0
 10
-118.446
 20
-37.0571
 30
0.0
 10
-118.446
 20
-37.0571
 30
0.0
 10
-116.747
 20
-36.1363
 30
0.0
 10
-111.1232
 20
-31.0718
 30
0.0
 10
-111.1966
 20
-30.7269
 30
0.0
 10
-111.1966
 20
-30.7269
 30
0.0
 10
-114.3087
 20
-26.0139
 30
0.0
 10
-116.3172
 20
-21.4737
 30
0.0
 10
-117.1551
 20
-16.0247
 30
0.0
  0
SPLINE
  5
75
330
1F
100
AcDbEntity
  8
layer 1
 62
     7
100
AcDbSpline
210
0.0
220
0.0
230
1.0
 70
    11
 71
     3
 72
    32
 73
    28
 74
     0
 42
0.0000000001
 43
0.0000000001
 12
1.0
 22
0.0
 32
0.0
 13
1.0
 23
0.0
 33
0.0
 40
0.0
 40
0.0
 40
0.0
 40
0.0
 40
0.125
 40
0.125
 40
0.125
 40
0.125
 40
0.25
 40
0.25
 40
0.25
 40
0.25
 40
0.375
 40
0.375
 40
0.375
 40
0.375
 40
0.5
 40
0.5
 40
0.5
 40
0.5
 40
0.625
 40
0.625
 40
0.625
 40
0.625
 40
0.75
 40
0.75
 40
0.75
 40
0.75
 40
1.0
 40
1.0
 40
1.0
 40
1.0
 10
-173.2454
 20
-29.3163
 30
0.0
 10
-173.2454
 20
-30.3708
 30
0.0
 10
-172.3021
 20
-33.0063
 30
0.0
 10
-171.4214
 20
-34.4125
 30
0.0
 10
-171.4214
 20
-34.4125
 30
0.0
 10
-165.0759
 20
-43.2476
 30
0.0
 10
-151.3425
 20
-44.54
 30
0.0
 10
-140.7043
 20
-43.0515
 30
0.0
 10
-140.7043
 20
-43.0515
 30
0.0
 10
-150.8892
 20
-40.9279
 30
0.0
 10
-158.23
 20
-34.2228
 30
0.0
 10
-161.8789
 20
-26.3181
 30
0.0
 10
-161.8789
 20
-26.3181
 30
0.0
 10
-161.4048
 20
-30.2231
 30
0.0
 10
-165.6555
 20
-32.8046
 30
0.0
 10
-169.2658
 20
-30.9965
 30
0.0
 10
-169.2658
 20
-30.9965
 30
0.0
 10
-167.0483
 20
-30.0862
 30
0.0
 10
-166.6026
 20
-27.6782
 30
0.0
 10
-168.0439
 20
-26.2338
 30
0.0
 10
-168.0439
 20
-26.2338
 30
0.0
 10
-170.417
 20
-24.4592
 30
0.0
 10
-173.422
 20
-26.1048
 30
0.0
 10
-173.2453
 20
-29.3163
 30
0.0
 10
-173.2453
 20
-29.3163
 30
0.0
 10
-173.2453
 20
-29.3163
 30
0.0
 10
-173.2454
 20
-29.3163
 30
0.0
 10
-173.2454
 20
-29.3163
 30
0.0
  0
SPLINE
  5
76
330
1F
100
AcDbEntity
  8
layer 1
 62
     7
100
AcDbSpline
210
0.0
220
0.0
230
1.0
 70
    11
 71
     3
 72
    16
 73
    12
 74
     0
 42
0.0000000001
 43
0.0000000001
 12
1.0
 22
0.0
 32
0.0
 13
1.0
 23
0.0
 33
0.0
 40
0.0
 40
0.0
 40
0.0
 40
0.0
 40
0.25
 40
0.25
 40
0.25
 40
0.25
 40
0.5
 40
0.5
 40
0.5
 40
0.5
 40
1.0
 40
1.0
 40
1.0
 40
1.0
 10
-176.3346
 20
-53.105
 30
0.0
 10
-173.0434
 20
-50.4146
 30
0.0
 10
-167.568
 20
-45.2673
 30
0.0
 10
-161.3586
 20
-45.2249
 30
0.0
 10
-161.3586
 20
-45.2249
 30
0.0
 10
-167.6711
 20
-42.5459
 30
0.0
 10
-171.1219
 20
-39.862
 30
0.0
 10
-174.9692
 20
-35.922
 30
0.0
 10
-174.9692
 20
-35.922
 30
0.0
 10
-174.6124
 20
-40.2001
 30
0.0
 10
-175.4951
 20
-48.2966
 30
0.0
 10
-176.3346
 20
-53.105
 30
0.0
  0
SPLINE
  5
77
330
1F
100
AcDbEntity
  8
layer 1
 62
     7
100
AcDbSpline
210
0.0
220
0.0
230
1.0
 70
    11
 71
     3
 72
    20
 73
    16
 74
     0
 42
0.0000000001
 43
0.0000000001
 12
1.0
 22
0.0
 32
0.0
 13
1.0
 23
0.0
 33
0.0
 40
0.0
 40
0.0
 40
0.0
 40
0.0
 40
0.2
 40
0.2
 40
0.2
 40
0.2
 40
0.4
 40
0.4
 40
0.4
 40
0.4
 40
0.6
 40
0.6
 40
0.6
 40
0.6
 40
1.0
 40
1.0
 40
1.0
 40
1.0
 10
-111.951
 20
-36.7068
 30
0.0
 10
-113.0411
 20
-37.8776
 30
0.0
 10
-114.7339
 20
-39.1579
 30
0.0
 10
-116.4267
 20
-40.2191
 30
0.0
 10
-116.4267
 20
-40.2191
 30
0.0
 10
-115.1156
 20
-40.8837
 30
0.0
 10
-113.2111
 20
-41.0758
 30
0.0
 10
-112.5923
 20
-40.5218
 30
0.0
 10
-112.5923
 20
-40.5218
 30
0.0
 10
-111.6112
 20
-39.7874
 30
0.0
 10
-111.1793
 20
-37.6211
 30
0.0
 10
-111.9511
 20
-36.7068
 30
0.0
 10
-111.9511
 20
-36.7068
 30
0.0
 10
-111.9511
 20
-36.7068
 30
0.0
 10
-111.951
 20
-36.7068
 30
0.0
 10
-111.951
 20
-36.7068
 30
0.0
  0
SPLINE
  5
78
330
1F
100
AcDbEntity
  8
layer 1
 62
     7
100
AcDbSpline
210
0.0
220
0.0
230
1.0
 70
    11
 71
     3
 72
   120
 73
   116
 74
     0
 42
0.0000000001
 43
0.0000000001
 12
1.0
 22
0.0
 32
0.0
 13
1.0
 23
0.0
 33
0.0
 40
0.0
 40
0.0
 40
0.0
 40
0.0
 40
0.0333333333333333
 40
0.0333333333333333
 40
0.0333333333333333
 40
0.0333333333333333
 40
0.0666666666666667
 40
0.0666666666666667
 40
0.0666666666666667
 40
0.0666666666666667
 40
0.1
 40
0.1
 40
0.1
 40
0.1
 40
0.1333333333333333
 40
0.1333333333333333
 40
0.1333333333333333
 40
0.1333333333333333
 40
0.1666666666666667
 40
0.1666666666666667
 40
0.1666666666666667
 40
0.1666666666666667
 40
0.2
 40
0.2
 40
0.2
 40
0.2
 40
0.2333333333333333
 40
0.2333333333333333
 40
0.2333333333333333
 40
0.2333333333333333
 40
0.2666666666666667
 40
0.2666666666666667
 40
0.2666666666666667
 40
0.2666666666666667
 40
0.3
 40
0.3
 40
0.3
 40
0.3
 40
0.3333333333333333
 40
0.3333333333333333
 40
0.3333333333333333
 40
0.3333333333333333
 40
0.3666666666666666
 40
0.3666666666666666
 40
0.3666666666666666
 40
0.3666666666666666
 40
0.4
 40
0.4
 40
0.4
 40
0.4
 40
0.4333333333333333
 40
0.4333333333333333
 40
0.4333333333333333
 40
0.4333333333333333
 40
0.4666666666666667
 40
0.4666666666666667
 40
0.4666666666666667
 40
0.4666666666666667
 40
0.5
 40
0.5
 40
0.5
 40
0.5
 40
0.5333333333333333
 40
0.5333333333333333
 40
0.5333333333333333
 40
0.5333333333333333
 40
0.5666666666666667
 40
0.5666666666666667
 40
0.5666666666666667
 40
0.5666666666666667
 40
0.6
 40
0.6
 40
0.6
 40
0.6
 40
0.6333333333333333
 40
0.6333333333333333
 40
0.6333333333333333
 40
0.6333333333333333
 40
0.6666666666666666
 40
0.6666666666666666
 40
0.6666666666666666
 40
0.6666666666666666
 40
0.7
 40
0.7
 40
0.7
 40
0.7
 40
0.7333333333333333
 40
0.7333333333333333
 40
0.7333333333333333
 40
0.7333333333333333
 40
0.7666666666666667
 40
0.7666666666666667
 40
0.7666666666666667
 40
0.7666666666666667
 40
0.8
 40
0.8
 40
0.8
 40
0.8
 40
0.8333333333333334
 40
0.8333333333333334
 40
0.8333333333333334
 40
0.8333333333333334
 40
0.8666666666666667
 40
0.8666666666666667
 40
0.8666666666666667
 40
0.8666666666666667
 40
0.9
 40
0.9
 40
0.9
 40
0.9
 40
0.9333333333333333
 40
0.9333333333333333
 40
0.9333333333333333
 40
0.9333333333333333
 40
1.0
 40
1.0
 40
1.0
 40
1.0
 10
-157.6928
 20
-106.7584
 30
0.0
 10
-143.2631
 20
-103.2961
 30
0.0
 10
-137.923
 20
-95.1287
 30
0.0
 10
-136.7367
 20
-82.1946
 30
0.0
 10
-136.7367
 20
-82.1946
 30
0.0
 10
-136.7184
 20
-78.6867
 30
0.0
 10
-136.171
 20
-75.7313
 30
0.0
 10
-135.1322
 20
-73.5325
 30
0.0
 10
-135.1322
 20
-73.5325
 30
0.0
 10
-133.4943
 20
-70.2504
 30
0.0
 10
-129.4689
 20
-68.0086
 30
0.0
 10
-126.634
 20
-69.1403
 30
0.0
 10
-126.634
 20
-69.1403
 30
0.0
 10
-125.0234
 20
-69.962
 30
0.0
 10
-123.9857
 20
-71.6268
 30
0.0
 10
-124.4457
 20
-73.2932
 30
0.0
 10
-124.4457
 20
-73.2932
 30
0.0
 10
-125.4129
 20
-76.6471
 30
0.0
 10
-129.3188
 20
-76.5809
 30
0.0
 10
-130.7699
 20
-74.1021
 30
0.0
 10
-130.7699
 20
-74.1021
 30
0.0
 10
-131.3308
 20
-75.9349
 30
0.0
 10
-129.9105
 20
-79.3484
 30
0.0
 10
-125.7268
 20
-79.134
 30
0.0
 10
-125.7268
 20
-79.134
 30
0.0
 10
-121.9048
 20
-79.0289
 30
0.0
 10
-119.6043
 20
-75.923
 30
0.0
 10
-119.4703
 20
-72.2511
 30
0.0
 10
-119.4703
 20
-72.2511
 30
0.0
 10
-119.4879
 20
-70.05
 30
0.0
 10
-120.512
 20
-67.8292
 30
0.0
 10
-122.3511
 20
-65.8727
 30
0.0
 10
-122.3511
 20
-65.8727
 30
0.0
 10
-114.7141
 20
-67.9078
 30
0.0
 10
-107.7545
 20
-60.8471
 30
0.0
 10
-113.8198
 20
-53.4328
 30
0.0
 10
-113.8198
 20
-53.4328
 30
0.0
 10
-114.9554
 20
-52.3697
 30
0.0
 10
-118.3323
 20
-50.1442
 30
0.0
 10
-120.973
 20
-52.1194
 30
0.0
 10
-120.973
 20
-52.1194
 30
0.0
 10
-119.7976
 20
-52.7518
 30
0.0
 10
-117.8979
 20
-55.4756
 30
0.0
 10
-119.0476
 20
-58.088
 30
0.0
 10
-119.0476
 20
-58.088
 30
0.0
 10
-120.5447
 20
-61.7851
 30
0.0
 10
-126.2577
 20
-60.8259
 30
0.0
 10
-126.3109
 20
-55.0118
 30
0.0
 10
-126.3109
 20
-55.0118
 30
0.0
 10
-126.3828
 20
-49.6627
 30
0.0
 10
-122.1188
 20
-45.4857
 30
0.0
 10
-118.4104
 20
-42.0178
 30
0.0
 10
-118.4104
 20
-42.0178
 30
0.0
 10
-116.5867
 20
-45.4281
 30
0.0
 10
-111.8171
 20
-45.6547
 30
0.0
 10
-108.8572
 20
-44.454
 30
0.0
 10
-108.8572
 20
-44.454
 30
0.0
 10
-105.8972
 20
-45.6547
 30
0.0
 10
-101.1278
 20
-45.4281
 30
0.0
 10
-99.3041
 20
-42.0178
 30
0.0
 10
-99.3041
 20
-42.0178
 30
0.0
 10
-95.5956
 20
-45.4858
 30
0.0
 10
-91.3315
 20
-49.6627
 30
0.0
 10
-91.4035
 20
-55.0118
 30
0.0
 10
-91.4035
 20
-55.0118
 30
0.0
 10
-91.4567
 20
-60.8259
 30
0.0
 10
-97.1697
 20
-61.7851
 30
0.0
 10
-98.6668
 20
-58.088
 30
0.0
 10
-98.6668
 20
-58.088
 30
0.0
 10
-99.8165
 20
-55.4756
 30
0.0
 10
-97.9168
 20
-52.7518
 30
0.0
 10
-96.7414
 20
-52.1194
 30
0.0
 10
-96.7414
 20
-52.1194
 30
0.0
 10
-99.3821
 20
-50.1442
 30
0.0
 10
-102.759
 20
-52.3697
 30
0.0
 10
-103.8946
 20
-53.4328
 30
0.0
 10
-103.8946
 20
-53.4328
 30
0.0
 10
-109.9599
 20
-60.8471
 30
0.0
 10
-103.0003
 20
-67.9078
 30
0.0
 10
-95.3633
 20
-65.8727
 30
0.0
 10
-95.3633
 20
-65.8727
 30
0.0
 10
-97.2024
 20
-67.8292
 30
0.0
 10
-98.2264
 20
-70.05
 30
0.0
 10
-98.2441
 20
-72.2511
 30
0.0
 10
-98.2441
 20
-72.2511
 30
0.0
 10
-98.1101
 20
-75.923
 30
0.0
 10
-95.8097
 20
-79.0289
 30
0.0
 10
-91.9876
 20
-79.134
 30
0.0
 10
-91.9876
 20
-79.134
 30
0.0
 10
-87.8039
 20
-79.3484
 30
0.0
 10
-86.3837
 20
-75.9349
 30
0.0
 10
-86.9445
 20
-74.1021
 30
0.0
 10
-86.9445
 20
-74.1021
 30
0.0
 10
-88.3956
 20
-76.5809
 30
0.0
 10
-92.3015
 20
-76.6471
 30
0.0
 10
-93.2687
 20
-73.2932
 30
0.0
 10
-93.2687
 20
-73.2932
 30
0.0
 10
-93.7288
 20
-71.6268
 30
0.0
 10
-92.6911
 20
-69.9619
 30
0.0
 10
-91.0804
 20
-69.1403
 30
0.0
 10
-91.0804
 20
-69.1403
 30
0.0
 10
-88.2455
 20
-68.0085
 30
0.0
 10
-84.2202
 20
-70.2503
 30
0.0
 10
-82.5822
 20
-73.5325
 30
0.0
 10
-82.5822
 20
-73.5325
 30
0.0
 10
-81.5434
 20
-75.7313
 30
0.0
 10
-80.996
 20
-78.6867
 30
0.0
 10
-80.9777
 20
-82.1946
 30
0.0
 10
-80.9777
 20
-82.1946
 30
0.0
 10
-79.7914
 20
-95.1287
 30
0.0
 10
-74.4514
 20
-103.2961
 30
0.0
 10
-60.0216
 20
-106.7584
 30
0.0
 10
-60.0216
 20
-106.7584
 30
0.0
 10
-60.0216
 20
-106.7584
 30
0.0
 10
-157.6928
 20
-106.7584
 30
0.0
 10
-157.6928
 20
-106.7584
 30
0.0
  0
SPLINE
  5
79
330
1F
100
AcDbEntity
  8
layer 1
 62
     7
100
AcDbSpline
210
0.0
220
0.0
230
1.0
 70
    11
 71
     3
 72
    32
 73
    28
 74
     0
 42
0.0000000001
 43
0.0000000001
 12
1.0
 22
0.0
 32
0.0
 13
1.0
 23
0.0
 33
0.0
 40
0.0
 40
0.0
 40
0.0
 40
0.0
 40
0.125
 40
0.125
 40
0.125
 40
0.125
 40
0.25
 40
0.25
 40
0.25
 40
0.25
 40
0.375
 40
0.375
 40
0.375
 40
0.375
 40
0.5
 40
0.5
 40
0.5
 40
0.5
 40
0.625
 40
0.625
 40
0.625
 40
0.625
 40
0.75
 40
0.75
 40
0.75
 40
0.75
 40
1.0
 40
1.0
 40
1.0
 40
1.0
 10
-124.6581
 20
-43.4305
 30
0.0
 10
-132.3568
 20
-45.9571
 30
0.0
 10
-138.9167
 20
-46.9843
 30
0.0
 10
-145.2435
 20
-47.627
 30
0.0
 10
-145.2435
 20
-47.627
 30
0.0
 10
-140.8229
 20
-49.8676
 30
0.0
 10
-141.8312
 20
-54.5068
 30
0.0
 10
-142.9969
 20
-55.4475
 30
0.0
 10
-142.9969
 20
-55.4475
 30
0.0
 10
-144.1046
 20
-52.8232
 30
0.0
 10
-146.9517
 20
-51.9757
 30
0.0
 10
-148.2538
 20
-53.5516
 30
0.0
 10
-148.2538
 20
-53.5516
 30
0.0
 10
-149.3297
 20
-54.4083
 30
0.0
 10
-149.6378
 20
-56.5821
 30
0.0
 10
-148.0384
 20
-58.0368
 30
0.0
 10
-148.0384
 20
-58.0368
 30
0.0
 10
-145.0225
 20
-60.625
 30
0.0
 10
-140.2233
 20
-59.1551
 30
0.0
 10
-137.3416
 20
-57.048
 30
0.0
 10
-137.3416
 20
-57.048
 30
0.0
 10
-131.8552
 20
-53.2473
 30
0.0
 10
-127.4649
 20
-46.1711
 30
0.0
 10
-124.6581
 20
-43.4306
 30
0.0
 10
-124.6581
 20
-43.4306
 30
0.0
 10
-124.6581
 20
-43.4306
 30
0.0
 10
-124.6581
 20
-43.4305
 30
0.0
 10
-124.6581
 20
-43.4305
 30
0.0
  0
SPLINE
  5
7A
330
1F
100
AcDbEntity
  8
layer 1
 62
     7
100
AcDbSpline
210
0.0
220
0.0
230
1.0
 70
    11
 71
     3
 72
    60
 73
    56
 74
     0
 42
0.0000000001
 43
0.0000000001
 12
1.0
 22
0.0
 32
0.0
 13
1.0
 23
0.0
 33
0.0
 40
0.0
 40
0.0
 40
0.0
 40
0.0
 40
0.0666666666666667
 40
0.0666666666666667
 40
0.0666666666666667
 40
0.0666666666666667
 40
0.1333333333333333
 40
0.1333333333333333
 40
0.1333333333333333
 40
0.1333333333333333
 40
0.2
 40
0.2
 40
0.2
 40
0.2
 40
0.2666666666666667
 40
0.2666666666666667
 40
0.2666666666666667
 40
0.2666666666666667
 40
0.3333333333333333
 40
0.3333333333333333
 40
0.3333333333333333
 40
0.3333333333333333
 40
0.4
 40
0.4
 40
0.4
 40
0.4
 40
0.4666666666666667
 40
0.4666666666666667
 40
0.4666666666666667
 40
0.4666666666666667
 40
0.5333333333333333
 40
0.5333333333333333
 40
0.5333333333333333
 40
0.5333333333333333
 40
0.6
 40
0.6
 40
0.6
 40
0.6
 40
0.6666666666666666
 40
0.6666666666666666
 40
0.6666666666666666
 40
0.6666666666666666
 40
0.7333333333333333
 40
0.7333333333333333
 40
0.7333333333333333
 40
0.7333333333333333
 40
0.8
 40
0.8
 40
0.8
 40
0.8
 40
0.8666666666666667
 40
0.8666666666666667
 40
0.8666666666666667
 40
0.8666666666666667
 40
1.0
 40
1.0
 40
1.0
 40
1.0
 10
-168.8644
 20
-53.1266
 30
0.0
 10
-176.285
 20
-58.3216
 30
0.0
 10
-180.232
 20
-65.3856
 30
0.0
 10
-182.3203
 20
-73.8526
 30
0.0
 10
-182.3203
 20
-73.8526
 30
0.0
 10
-185.0031
 20
-84.9837
 30
0.0
 10
-180.0691
 20
-95.3451
 30
0.0
 10
-171.3432
 20
-99.6258
 30
0.0
 10
-171.3432
 20
-99.6258
 30
0.0
 10
-163.8685
 20
-103.2927
 30
0.0
 10
-154.8949
 20
-102.9803
 30
0.0
 10
-148.1184
 20
-97.9532
 30
0.0
 10
-148.1184
 20
-97.9532
 30
0.0
 10
-142.7173
 20
-94.2628
 30
0.0
 10
-138.822
 20
-84.6727
 30
0.0
 10
-142.1128
 20
-80.562
 30
0.0
 10
-142.1128
 20
-80.562
 30
0.0
 10
-143.4682
 20
-79.0154
 30
0.0
 10
-145.0881
 20
-78.1992
 30
0.0
 10
-146.6036
 20
-78.176
 30
0.0
 10
-146.6036
 20
-78.176
 30
0.0
 10
-148.1013
 20
-78.331
 30
0.0
 10
-149.7816
 20
-78.8373
 30
0.0
 10
-150.199
 20
-81.0934
 30
0.0
 10
-150.199
 20
-81.0934
 30
0.0
 10
-150.4739
 20
-83.3541
 30
0.0
 10
-148.3648
 20
-84.2642
 30
0.0
 10
-146.6287
 20
-83.9355
 30
0.0
 10
-146.6287
 20
-83.9355
 30
0.0
 10
-147.8266
 20
-87.28
 30
0.0
 10
-152.3036
 20
-87.0645
 30
0.0
 10
-154.0738
 20
-84.5638
 30
0.0
 10
-154.0738
 20
-84.5638
 30
0.0
 10
-151.5909
 20
-90.4765
 30
0.0
 10
-155.8997
 20
-96.9086
 30
0.0
 10
-163.3515
 20
-96.419
 30
0.0
 10
-163.3515
 20
-96.419
 30
0.0
 10
-170.9676
 20
-95.8205
 30
0.0
 10
-174.5246
 20
-90.9378
 30
0.0
 10
-175.1246
 20
-85.3863
 30
0.0
 10
-175.1246
 20
-85.3863
 30
0.0
 10
-176.4091
 20
-70.1909
 30
0.0
 10
-162.9759
 20
-59.9741
 30
0.0
 10
-151.3191
 20
-62.8856
 30
0.0
 10
-151.3191
 20
-62.8856
 30
0.0
 10
-156.2629
 20
-58.1038
 30
0.0
 10
-156.397
 20
-53.212
 30
0.0
 10
-152.1144
 20
-48.4055
 30
0.0
 10
-152.1144
 20
-48.4055
 30
0.0
 10
-158.1381
 20
-48.7761
 30
0.0
 10
-164.5793
 20
-50.3365
 30
0.0
 10
-168.8644
 20
-53.1267
 30
0.0
 10
-168.8644
 20
-53.1267
 30
0.0
 10
-168.8644
 20
-53.1267
 30
0.0
 10
-168.8644
 20
-53.1266
 30
0.0
 10
-168.8644
 20
-53.1266
 30
0.0
  0
SPLINE
  5
7B
330
1F
100
AcDbEntity
  8
layer 1
 62
     7
100
AcDbSpline
210
0.0
220
0.0
230
1.0
 70
    11
 71
     3
 72
    24
 73
    20
 74
     0
 42
0.0000000001
 43
0.0000000001
 12
1.0
 22
0.0
 32
0.0
 13
1.0
 23
0.0
 33
0.0
 40
0.0
 40
0.0
 40
0.0
 40
0.0
 40
0.1666666666666667
 40
0.1666666666666667
 40
0.1666666666666667
 40
0.1666666666666667
 40
0.3333333333333333
 40
0.3333333333333333
 40
0.3333333333333333
 40
0.3333333333333333
 40
0.5
 40
0.5
 40
0.5
 40
0.5
 40
0.6666666666666666
 40
0.6666666666666666
 40
0.6666666666666666
 40
0.6666666666666666
 40
1.0
 40
1.0
 40
1.0
 40
1.0
 10
-146.7538
 20
-64.7585
 30
0.0
 10
-142.8487
 20
-66.766
 30
0.0
 10
-140.3122
 20
-69.7509
 30
0.0
 10
-138.4206
 20
-74.6049
 30
0.0
 10
-138.4206
 20
-74.6049
 30
0.0
 10
-138.3204
 20
-67.1944
 30
0.0
 10
-133.7991
 20
-63.4294
 30
0.0
 10
-126.491
 20
-63.8582
 30
0.0
 10
-126.491
 20
-63.8582
 30
0.0
 10
-130.4298
 20
-61.3115
 30
0.0
 10
-131.5003
 20
-58.1273
 30
0.0
 10
-131.1537
 20
-54.0616
 30
0.0
 10
-131.1537
 20
-54.0616
 30
0.0
 10
-132.9673
 20
-58.2617
 30
0.0
 10
-137.7792
 20
-63.3805
 30
0.0
 10
-146.7539
 20
-64.7585
 30
0.0
 10
-146.7539
 20
-64.7585
 30
0.0
 10
-146.7539
 20
-64.7585
 30
0.0
 10
-146.7538
 20
-64.7585
 30
0.0
 10
-146.7538
 20
-64.7585
 30
0.0
  0
SPLINE
  5
7C
330
1F
100
AcDbEntity
  8
layer 1
 62
     7
100
AcDbSpline
210
0.0
220
0.0
230
1.0
 70
    11
 71
     3
 72
    32
 73
    28
 74
     0
 42
0.0000000001
 43
0.0000000001
 12
1.0
 22
0.0
 32
0.0
 13
1.0
 23
0.0
 33
0.0
 40
0.0
 40
0.0
 40
0.0
 40
0.0
 40
0.125
 40
0.125
 40
0.125
 40
0.125
 40
0.25
 40
0.25
 40
0.25
 40
0.25
 40
0.375
 40
0.375
 40
0.375
 40
0.375
 40
0.5
 40
0.5
 40
0.5
 40
0.5
 40
0.625
 40
0.625
 40
0.625
 40
0.625
 40
0.75
 40
0.75
 40
0.75
 40
0.75
 40
1.0
 40
1.0
 40
1.0
 40
1.0
 10
-165.915
 20
-70.4735
 30
0.0
 10
-171.0212
 20
-75.5282
 30
0.0
 10
-172.6899
 20
-84.6762
 30
0.0
 10
-168.0768
 20
-88.8967
 30
0.0
 10
-168.0768
 20
-88.8967
 30
0.0
 10
-165.935
 20
-90.4338
 30
0.0
 10
-163.1777
 20
-90.9729
 30
0.0
 10
-161.6612
 20
-89.489
 30
0.0
 10
-161.6612
 20
-89.489
 30
0.0
 10
-158.8863
 20
-86.0332
 30
0.0
 10
-161.4121
 20
-82.8211
 30
0.0
 10
-164.9237
 20
-82.3219
 30
0.0
 10
-164.9237
 20
-82.3219
 30
0.0
 10
-163.3623
 20
-78.2978
 30
0.0
 10
-157.12
 20
-79.3926
 30
0.0
 10
-155.303
 20
-82.5627
 30
0.0
 10
-155.303
 20
-82.5627
 30
0.0
 10
-158.3175
 20
-74.93
 30
0.0
 10
-147.5471
 20
-72.3175
 30
0.0
 10
-142.5716
 20
-76.0395
 30
0.0
 10
-142.5716
 20
-76.0395
 30
0.0
 10
-144.8622
 20
-68.0986
 30
0.0
 10
-157.8443
 20
-62.7236
 30
0.0
 10
-165.915
 20
-70.4734
 30
0.0
 10
-165.915
 20
-70.4734
 30
0.0
 10
-165.915
 20
-70.4734
 30
0.0
 10
-165.915
 20
-70.4735
 30
0.0
 10
-165.915
 20
-70.4735
 30
0.0
  0
ENDSEC
  0
SECTION
  2
OBJECTS
  0
DICTIONARY
  5
C
330
0
100
AcDbDictionary
281
     1
  3
ACAD_GROUP
350
D
  3
ACAD_LAYOUT
350
1A
  3
ACAD_MATERIAL
350
3B
  3
ACAD_MLEADERSTYLE
350
9F
  3
ACAD_MLINESTYLE
350
17
  3
ACAD_PLOTSETTINGS
350
19
  3
ACAD_PLOTSTYLENAME
350
E
  3
ACAD_TABLESTYLE
350
9E
  3
ACAD_VISUALSTYLE
350
2A
  0
DICTIONARY
  5
D
102
{ACAD_REACTORS
330
C
102
}
330
C
100
AcDbDictionary
281
     1
  0
DICTIONARY
  5
1A
102
{ACAD_REACTORS
330
C
102
}
330
C
100
AcDbDictionary
281
     1
  3
Layout1
350
1E
  3
Layout2
350
26
  3
Model
350
22
  0
DICTIONARY
  5
3B
102
{ACAD_REACTORS
330
C
102
}
330
C
100
AcDbDictionary
281
     1
  3
ByBlock
350
3D
  3
ByLayer
350
3C
  3
Global
350
3E
  0
DICTIONARY
  5
9F
102
{ACAD_REACTORS
330
C
102
}
330
C
100
AcDbDictionary
281
     1
  0
DICTIONARY
  5
17
102
{ACAD_REACTORS
330
C
102
}
330
C
100
AcDbDictionary
281
     1
  3
Standard
350
18
  0
DICTIONARY
  5
19
102
{ACAD_REACTORS
330
C
102
}
330
C
100
AcDbDictionary
281
     1
  0
ACDBDICTIONARYWDFLT
  5
E
102
{ACAD_REACTORS
330
C
102
}
330
C
100
AcDbDictionary
281
     1
  3
Normal
350
F
100
AcDbDictionaryWithDefault
340
F
  0
DICTIONARY
  5
9E
102
{ACAD_REACTORS
330
C
102
}
330
C
100
AcDbDictionary
281
     1
  0
DICTIONARY
  5
2A
102
{ACAD_REACTORS
330
C
102
}
330
C
100
AcDbDictionary
281
     1
  3
2dWireframe
350
2F
  3
3D Hidden
350
31
  3
3dWireframe
350
30
  3
Basic
350
32
  3
Brighten
350
36
  3
ColorChange
350
3A
  3
Conceptual
350
34
  3
Dim
350
35
  3
Facepattern
350
39
  3
Flat
350
2B
  3
FlatWithEdges
350
2C
  3
Gouraud
350
2D
  3
GouraudWithEdges
350
2E
  3
Linepattern
350
38
  3
Realistic
350
33
  3
Thicken
350
37
  0
LAYOUT
  5
1E
102
{ACAD_REACTORS
330
1A
102
}
330
1A
100
AcDbPlotSettings
  1

  2
none_device
  4

  6

 40
0.0
 41
0.0
 42
0.0
 43
0.0
 44
0.0
 45
0.0
 46
0.0
 47
0.0
 48
0.0
 49
0.0
140
0.0
141
0.0
142
1.0
143
1.0
 70
   688
 72
     0
 73
     0
 74
     5
  7

 75
    16
 76
     0
 77
     2
 78
   300
147
1.0
148
0.0
149
0.0
100
AcDbLayout
  1
Layout1
 70
     1
 71
     1
 10
0.0
 20
0.0
 11
12.0
 21
9.0
 12
0.0
 22
0.0
 32
0.0
 14
1.000000000000000E+20
 24
1.000000000000000E+20
 34
1.000000000000000E+20
 15
-1.000000000000000E+20
 25
-1.000000000000000E+20
 35
-1.000000000000000E+20
146
0.0
 13
0.0
 23
0.0
 33
0.0
 16
1.0
 26
0.0
 36
0.0
 17
0.0
 27
1.0
 37
0.0
 76
     0
330
1B
  0
LAYOUT
  5
26
102
{ACAD_REACTORS
330
1A
102
}
330
1A
100
AcDbPlotSettings
  1

  2
none_device
  4

  6

 40
0.0
 41
0.0
 42
0.0
 43
0.0
 44
0.0
 45
0.0
 46
0.0
 47
0.0
 48
0.0
 49
0.0
140
0.0
141
0.0
142
1.0
143
1.0
 70
   688
 72
     0
 73
     0
 74
     5
  7

 75
    16
 76
     0
 77
     2
 78
   300
147
1.0
148
0.0
149
0.0
100
AcDbLayout
  1
Layout2
 70
     1
 71
     2
 10
0.0
 20
0.0
 11
0.0
 21
0.0
 12
0.0
 22
0.0
 32
0.0
 14
0.0
 24
0.0
 34
0.0
 15
0.0
 25
0.0
 35
0.0
146
0.0
 13
0.0
 23
0.0
 33
0.0
 16
1.0
 26
0.0
 36
0.0
 17
0.0
 27
1.0
 37
0.0
 76
     0
330
23
  0
LAYOUT
  5
22
102
{ACAD_REACTORS
330
1A
102
}
330
1A
100
AcDbPlotSettings
  1

  2
none_device
  4

  6

 40
0.0
 41
0.0
 42
0.0
 43
0.0
 44
0.0
 45
0.0
 46
0.0
 47
0.0
 48
0.0
 49
0.0
140
0.0
141
0.0
142
1.0
143
1.0
 70
  1712
 72
     0
 73
     0
 74
     0
  7

 75
     0
 76
     0
 77
     2
 78
   300
147
1.0
148
0.0
149
0.0
100
AcDbLayout
  1
Model
 70
     1
 71
     0
 10
0.0
 20
0.0
 11
12.0
 21
9.0
 12
0.0
 22
0.0
 32
0.0
 14
-187.4942
 24
-115.2779
 34
0.0
 15
-30.4187
 25
131.8722
 35
0.0
146
0.0
 13
0.0
 23
0.0
 33
0.0
 16
1.0
 26
0.0
 36
0.0
 17
0.0
 27
1.0
 37
0.0
 76
     0
330
1F
331
29
  0
MATERIAL
  5
3D
102
{ACAD_REACTORS
330
3B
102
}
330
3B
100
AcDbMaterial
  1
ByBlock
 72
     1
 94
      127
  0
MATERIAL
  5
3C
102
{ACAD_REACTORS
330
3B
102
}
330
3B
100
AcDbMaterial
  1
ByLayer
 72
     1
 94
      127
  0
MATERIAL
  5
3E
102
{ACAD_REACTORS
330
3B
102
}
330
3B
100
AcDbMaterial
  1
Global
 72
     1
 94
      127
  0
MLINESTYLE
  5
18
102
{ACAD_REACTORS
330
17
102
}
330
17
100
AcDbMlineStyle
  2
Standard
 70
     0
  3

 62
   256
 51
90.0
 52
90.0
 71
     2
 49
0.5
 62
   256
  6
BYLAYER
 49
-0.5
 62
   256
  6
BYLAYER
  0
ACDBPLACEHOLDER
  5
F
102
{ACAD_REACTORS
330
E
102
}
330
E
  0
VISUALSTYLE
  5
2F
102
{ACAD_REACTORS
330
2A
102
}
102
{ACAD_XDICTIONARY
360
86
102
}
330
2A
100
AcDbVisualStyle
  2
2dWireframe
 70
     4
 71
     0
 72
     2
 73
     0
 90
        0
 40
-0.6
 41
-30.0
 62
     5
 63
     7
421
 16777215
 74
     1
 91
        4
 64
     7
 65
   257
 75
     1
175
     1
 42
1.0
 92
        0
 66
   257
 43
1.0
 76
     1
 77
     6
 78
     2
 67
     7
 79
     5
170
     0
171
     0
290
     0
174
     0
 93
        1
 44
0.0
173
     0
291
     0
 45
0.0
  0
VISUALSTYLE
  5
31
102
{ACAD_REACTORS
330
2A
102
}
102
{ACAD_XDICTIONARY
360
8A
102
}
330
2A
100
AcDbVisualStyle
  2
3D Hidden
 70
     6
 71
     1
 72
     2
 73
     2
 90
        0
 40
-0.6
 41
-30.0
 62
     5
 63
     7
421
 16777215
 74
     2
 91
        2
 64
     7
 65
   257
 75
     2
175
     1
 42
40.0
 92
        0
 66
   257
 43
1.0
 76
     1
 77
     6
 78
     2
 67
     7
 79
     3
170
     0
171
     0
290
     0
174
     0
 93
        1
 44
0.0
173
     0
291
     0
 45
0.0
  0
VISUALSTYLE
  5
30
102
{ACAD_REACTORS
330
2A
102
}
102
{ACAD_XDICTIONARY
360
88
102
}
330
2A
100
AcDbVisualStyle
  2
3dWireframe
 70
     5
 71
     0
 72
     2
 73
     0
 90
        0
 40
-0.6
 41
-30.0
 62
     5
 63
     7
421
 16777215
 74
     1
 91
        4
 64
     7
 65
   257
 75
     1
175
     1
 42
1.0
 92
        0
 66
   257
 43
1.0
 76
     1
 77
     6
 78
     2
 67
     7
 79
     5
170
     0
171
     0
290
     0
174
     0
 93
        1
 44
0.0
173
     0
291
     0
 45
0.0
  0
VISUALSTYLE
  5
32
102
{ACAD_REACTORS
330
2A
102
}
102
{ACAD_XDICTIONARY
360
8C
102
}
330
2A
100
AcDbVisualStyle
  2
Basic
 70
     7
 71
     1
 72
     0
 73
     1
 90
        0
 40
-0.6
 41
-30.0
 62
     5
 63
     7
421
 16777215
 74
     0
 91
        4
 64
     7
 65
   257
 75
     1
175
     1
 42
1.0
 92
        8
 66
     7
 43
1.0
 76
     1
 77
     6
 78
     2
 67
     7
 79
     5
170
     0
171
     0
290
     0
174
     0
 93
        1
 44
0.0
173
     0
291
     1
 45
0.0
  0
VISUALSTYLE
  5
36
102
{ACAD_REACTORS
330
2A
102
}
102
{ACAD_XDICTIONARY
360
94
102
}
330
2A
100
AcDbVisualStyle
  2
Brighten
 70
    12
 71
     2
 72
     2
 73
     0
 90
        0
 40
-0.6
 41
-30.0
 62
     5
 63
     7
421
 16777215
 74
     1
 91
        4
 64
     7
 65
   257
 75
     1
175
     1
 42
1.0
 92
        8
 66
     7
 43
1.0
 76
     1
 77
     6
 78
     2
 67
     7
 79
     5
170
     0
171
     0
290
     0
174
     0
 93
        1
 44
50.0
173
     0
291
     1
 45
0.0
  0
VISUALSTYLE
  5
3A
102
{ACAD_REACTORS
330
2A
102
}
102
{ACAD_XDICTIONARY
360
9C
102
}
330
2A
100
AcDbVisualStyle
  2
ColorChange
 70
    16
 71
     2
 72
     2
 73
     3
 90
        0
 40
-0.6
 41
-30.0
 62
     5
 63
     8
421
  8421504
 74
     1
 91
        4
 64
     7
 65
   257
 75
     1
175
     1
 42
1.0
 92
        8
 66
     8
424
  8421504
 43
1.0
 76
     1
 77
     6
 78
     2
 67
     7
 79
     5
170
     0
171
     0
290
     0
174
     0
 93
        1
 44
0.0
173
     0
291
     1
 45
0.0
  0
VISUALSTYLE
  5
34
102
{ACAD_REACTORS
330
2A
102
}
102
{ACAD_XDICTIONARY
360
90
102
}
330
2A
100
AcDbVisualStyle
  2
Conceptual
 70
     9
 71
     3
 72
     2
 73
     0
 90
        0
 40
-0.6
 41
-30.0
 62
     5
 63
     7
421
 16777215
 74
     2
 91
        2
 64
     7
 65
   257
 75
     1
175
     1
 42
40.0
 92
        8
 66
     7
 43
1.0
 76
     1
 77
     6
 78
     2
 67
     7
 79
     3
170
     0
171
     0
290
     0
174
     0
 93
        1
 44
0.0
173
     0
291
     0
 45
0.0
  0
VISUALSTYLE
  5
35
102
{ACAD_REACTORS
330
2A
102
}
102
{ACAD_XDICTIONARY
360
92
102
}
330
2A
100
AcDbVisualStyle
  2
Dim
 70
    11
 71
     2
 72
     2
 73
     0
 90
        0
 40
-0.6
 41
-30.0
 62
     5
 63
     7
421
 16777215
 74
     1
 91
        4
 64
     7
 65
   257
 75
     1
175
     1
 42
1.0
 92
        8
 66
     7
 43
1.0
 76
     1
 77
     6
 78
     2
 67
     7
 79
     5
170
     0
171
     0
290
     0
174
     0
 93
        1
 44
-50.0
173
     0
291
     1
 45
0.0
  0
VISUALSTYLE
  5
39
102
{ACAD_REACTORS
330
2A
102
}
102
{ACAD_XDICTIONARY
360
9A
102
}
330
2A
100
AcDbVisualStyle
  2
Facepattern
 70
    15
 71
     2
 72
     2
 73
     0
 90
        0
 40
-0.6
 41
-30.0
 62
     5
 63
     7
421
 16777215
 74
     1
 91
        4
 64
     7
 65
   257
 75
     1
175
     1
 42
1.0
 92
        8
 66
     7
 43
1.0
 76
     1
 77
     6
 78
     2
 67
     7
 79
     5
170
     0
171
     0
290
     0
174
     0
 93
        1
 44
0.0
173
     0
291
     1
 45
0.0
  0
VISUALSTYLE
  5
2B
102
{ACAD_REACTORS
330
2A
102
}
102
{ACAD_XDICTIONARY
360
7E
102
}
330
2A
100
AcDbVisualStyle
  2
Flat
 70
     0
 71
     2
 72
     1
 73
     1
 90
        2
 40
-0.6
 41
30.0
 62
     5
 63
     7
421
 16777215
 74
     0
 91
        4
 64
     7
 65
   257
 75
     1
175
     1
 42
1.0
 92
        8
 66
     7
 43
1.0
 76
     1
 77
     6
 78
     2
 67
     7
 79
     5
170
     0
171
     0
290
     0
174
     0
 93
       13
 44
0.0
173
     0
291
     1
 45
0.0
  0
VISUALSTYLE
  5
2C
102
{ACAD_REACTORS
330
2A
102
}
102
{ACAD_XDICTIONARY
360
80
102
}
330
2A
100
AcDbVisualStyle
  2
FlatWithEdges
 70
     1
 71
     2
 72
     1
 73
     1
 90
        2
 40
-0.6
 41
30.0
 62
     5
 63
     7
421
 16777215
 74
     1
 91
        4
 64
     7
 65
   257
 75
     1
175
     1
 42
1.0
 92
        0
 66
   257
 43
1.0
 76
     1
 77
     6
 78
     2
 67
     7
 79
     5
170
     0
171
     0
290
     0
174
     0
 93
       13
 44
0.0
173
     0
291
     1
 45
0.0
  0
VISUALSTYLE
  5
2D
102
{ACAD_REACTORS
330
2A
102
}
102
{ACAD_XDICTIONARY
360
82
102
}
330
2A
100
AcDbVisualStyle
  2
Gouraud
 70
     2
 71
     2
 72
     2
 73
     1
 90
        2
 40
-0.6
 41
30.0
 62
     5
 63
     7
421
 16777215
 74
     0
 91
        4
 64
     7
 65
   257
 75
     1
175
     1
 42
1.0
 92
        0
 66
     7
 43
1.0
 76
     1
 77
     6
 78
     2
 67
     7
 79
     5
170
     0
171
     0
290
     0
174
     0
 93
       13
 44
0.0
173
     0
291
     1
 45
0.0
  0
VISUALSTYLE
  5
2E
102
{ACAD_REACTORS
330
2A
102
}
102
{ACAD_XDICTIONARY
360
84
102
}
330
2A
100
AcDbVisualStyle
  2
GouraudWithEdges
 70
     3
 71
     2
 72
     2
 73
     1
 90
        2
 40
-0.6
 41
30.0
 62
     5
 63
     7
421
 16777215
 74
     1
 91
        4
 64
     7
 65
   257
 75
     1
175
     1
 42
1.0
 92
        0
 66
   257
 43
1.0
 76
     1
 77
     6
 78
     2
 67
     7
 79
     5
170
     0
171
     0
290
     0
174
     0
 93
       13
 44
0.0
173
     0
291
     1
 45
0.0
  0
VISUALSTYLE
  5
38
102
{ACAD_REACTORS
330
2A
102
}
102
{ACAD_XDICTIONARY
360
98
102
}
330
2A
100
AcDbVisualStyle
  2
Linepattern
 70
    14
 71
     2
 72
     2
 73
     0
 90
        0
 40
-0.6
 41
-30.0
 62
     5
 63
     7
421
 16777215
 74
     1
 91
        4
 64
     7
 65
   257
 75
     7
175
     7
 42
1.0
 92
        8
 66
     7
 43
1.0
 76
     1
 77
     6
 78
     2
 67
     7
 79
     5
170
     0
171
     0
290
     0
174
     0
 93
        1
 44
0.0
173
     0
291
     1
 45
0.0
  0
VISUALSTYLE
  5
33
102
{ACAD_REACTORS
330
2A
102
}
102
{ACAD_XDICTIONARY
360
8E
102
}
330
2A
100
AcDbVisualStyle
  2
Realistic
 70
     8
 71
     2
 72
     2
 73
     0
 90
        0
 40
-0.6
 41
-30.0
 62
     5
 63
     7
421
 16777215
 74
     1
 91
        0
 64
     7
 65
   257
 75
     1
175
     1
 42
1.0
 92
        8
 66
     8
424
  7895160
 43
1.0
 76
     1
 77
     6
 78
     2
 67
     7
 79
     5
170
     0
171
     0
290
     0
174
     0
 93
       13
 44
0.0
173
     0
291
     0
 45
0.0
  0
VISUALSTYLE
  5
37
102
{ACAD_REACTORS
330
2A
102
}
102
{ACAD_XDICTIONARY
360
96
102
}
330
2A
100
AcDbVisualStyle
  2
Thicken
 70
    13
 71
     2
 72
     2
 73
     0
 90
        0
 40
-0.6
 41
-30.0
 62
     5
 63
     7
421
 16777215
 74
     1
 91
        4
 64
     7
 65
   257
 75
     1
175
     1
 42
1.0
 92
       12
 66
     7
 43
1.0
 76
     1
 77
     6
 78
     2
 67
     7
 79
     5
170
     0
171
     0
290
     0
174
     0
 93
        1
 44
0.0
173
     0
291
     1
 45
0.0
  0
DICTIONARY
  5
86
330
2F
100
AcDbDictionary
280
     1
281
     1
  3
ACAD_XREC_ROUNDTRIP
360
87
  0
DICTIONARY
  5
8A
330
31
100
AcDbDictionary
280
     1
281
     1
  3
ACAD_XREC_ROUNDTRIP
360
8B
  0
DICTIONARY
  5
88
330
30
100
AcDbDictionary
280
     1
281
     1
  3
ACAD_XREC_ROUNDTRIP
360
89
  0
DICTIONARY
  5
8C
330
32
100
AcDbDictionary
280
     1
281
     1
  3
ACAD_XREC_ROUNDTRIP
360
8D
  0
DICTIONARY
  5
94
330
36
100
AcDbDictionary
280
     1
281
     1
  3
ACAD_XREC_ROUNDTRIP
360
95
  0
DICTIONARY
  5
9C
330
3A
100
AcDbDictionary
280
     1
281
     1
  3
ACAD_XREC_ROUNDTRIP
360
9D
  0
DICTIONARY
  5
90
330
34
100
AcDbDictionary
280
     1
281
     1
  3
ACAD_XREC_ROUNDTRIP
360
91
  0
DICTIONARY
  5
92
330
35
100
AcDbDictionary
280
     1
281
     1
  3
ACAD_XREC_ROUNDTRIP
360
93
  0
DICTIONARY
  5
9A
330
39
100
AcDbDictionary
280
     1
281
     1
  3
ACAD_XREC_ROUNDTRIP
360
9B
  0
DICTIONARY
  5
7E
330
2B
100
AcDbDictionary
280
     1
281
     1
  3
ACAD_XREC_ROUNDTRIP
360
7F
  0
DICTIONARY
  5
80
330
2C
100
AcDbDictionary
280
     1
281
     1
  3
ACAD_XREC_ROUNDTRIP
360
81
  0
DICTIONARY
  5
82
330
2D
100
AcDbDictionary
280
     1
281
     1
  3
ACAD_XREC_ROUNDTRIP
360
83
  0
DICTIONARY
  5
84
330
2E
100
AcDbDictionary
280
     1
281
     1
  3
ACAD_XREC_ROUNDTRIP
360
85
  0
DICTIONARY
  5
98
330
38
100
AcDbDictionary
280
     1
281
     1
  3
ACAD_XREC_ROUNDTRIP
360
99
  0
DICTIONARY
  5
8E
330
33
100
AcDbDictionary
280
     1
281
     1
  3
ACAD_XREC_ROUNDTRIP
360
8F
  0
DICTIONARY
  5
96
330
37
100
AcDbDictionary
280
     1
281
     1
  3
ACAD_XREC_ROUNDTRIP
360
97
  0
XRECORD
  5
87
102
{ACAD_REACTORS
330
86
102
}
330
86
100
AcDbXrecord
280
     1
102
RTVSPropertyOp0
 70
     1
102
RTVSPropertyOp1
 70
     1
102
RTVSPropertyOp2
 70
     1
102
RTVSPropertyOp3
 70
     1
102
RTVSPropertyOp4
 70
     1
102
RTVSPropertyOp5
 70
     1
102
RTVSPropertyOp6
 70
     1
102
RTVSPropertyOp7
 70
     1
102
RTVSPropertyOp8
 70
     1
102
RTVSPropertyOp9
 70
     1
102
RTVSPropertyOp10
 70
     1
102
RTVSPropertyOp11
 70
     1
102
RTVSPropertyOp12
 70
     1
102
RTVSPropertyOp13
 70
     1
102
RTVSPropertyOp14
 70
     1
102
RTVSPropertyOp15
 70
     1
102
RTVSPropertyOp16
 70
     1
102
RTVSPropertyOp17
 70
     1
102
RTVSPropertyOp18
 70
     1
102
RTVSPropertyOp19
 70
     1
102
RTVSPropertyOp20
 70
     1
102
RTVSPropertyOp21
 70
     1
102
RTVSPropertyOp22
 70
     1
102
RTVSPropertyOp23
 70
     1
102
RTVSPropertyOp24
 70
     1
102
RTVSPropertyOp25
 70
     1
102
RTVSPropertyOp26
 70
     1
102
RTVSPropertyOp27
 70
     1
102
RTVSPropertyOp28
 70
     1
102
RTVSPropertyOp29
 70
     1
102
RTVSPropertyOp30
 70
     1
102
RTVSPropertyOp31
 70
     1
102
RTVSPropertyOp32
 70
     1
  0
XRECORD
  5
8B
102
{ACAD_REACTORS
330
8A
102
}
330
8A
100
AcDbXrecord
280
     1
102
RTVSPropertyOp0
 70
     1
102
RTVSPropertyOp1
 70
     1
102
RTVSPropertyOp2
 70
     1
102
RTVSPropertyOp3
 70
     1
102
RTVSPropertyOp4
 70
     1
102
RTVSPropertyOp5
 70
     1
102
RTVSPropertyOp6
 70
     1
102
RTVSPropertyOp7
 70
     1
102
RTVSPropertyOp8
 70
     1
102
RTVSPropertyOp9
 70
     1
102
RTVSPropertyOp10
 70
     1
102
RTVSPropertyOp11
 70
     1
102
RTVSPropertyOp12
 70
     1
102
RTVSPropertyOp13
 70
     1
102
RTVSPropertyOp14
 70
     1
102
RTVSPropertyOp15
 70
     1
102
RTVSPropertyOp16
 70
     1
102
RTVSPropertyOp17
 70
     1
102
RTVSPropertyOp18
 70
     1
102
RTVSPropertyOp19
 70
     1
102
RTVSPropertyOp20
 70
     1
102
RTVSPropertyOp21
 70
     1
102
RTVSPropertyOp22
 70
     1
102
RTVSPropertyOp23
 70
     1
102
RTVSPropertyOp24
 70
     1
102
RTVSPropertyOp25
 70
     1
102
RTVSPropertyOp26
 70
     1
102
RTVSPropertyOp27
 70
     1
102
RTVSPropertyOp28
 70
     1
102
RTVSPropertyOp29
 70
     1
102
RTVSPropertyOp30
 70
     1
102
RTVSPropertyOp31
 70
     1
102
RTVSPropertyOp32
 70
     1
  0
XRECORD
  5
89
102
{ACAD_REACTORS
330
88
102
}
330
88
100
AcDbXrecord
280
     1
102
RTVSPropertyOp0
 70
     1
102
RTVSPropertyOp1
 70
     1
102
RTVSPropertyOp2
 70
     1
102
RTVSPropertyOp3
 70
     1
102
RTVSPropertyOp4
 70
     1
102
RTVSPropertyOp5
 70
     1
102
RTVSPropertyOp6
 70
     1
102
RTVSPropertyOp7
 70
     1
102
RTVSPropertyOp8
 70
     1
102
RTVSPropertyOp9
 70
     1
102
RTVSPropertyOp10
 70
     1
102
RTVSPropertyOp11
 70
     1
102
RTVSPropertyOp12
 70
     1
102
RTVSPropertyOp13
 70
     1
102
RTVSPropertyOp14
 70
     1
102
RTVSPropertyOp15
 70
     1
102
RTVSPropertyOp16
 70
     1
102
RTVSPropertyOp17
 70
     1
102
RTVSPropertyOp18
 70
     1
102
RTVSPropertyOp19
 70
     1
102
RTVSPropertyOp20
 70
     1
102
RTVSPropertyOp21
 70
     1
102
RTVSPropertyOp22
 70
     1
102
RTVSPropertyOp23
 70
     1
102
RTVSPropertyOp24
 70
     1
102
RTVSPropertyOp25
 70
     1
102
RTVSPropertyOp26
 70
     1
102
RTVSPropertyOp27
 70
     1
102
RTVSPropertyOp28
 70
     1
102
RTVSPropertyOp29
 70
     1
102
RTVSPropertyOp30
 70
     1
102
RTVSPropertyOp31
 70
     1
102
RTVSPropertyOp32
 70
     1
  0
XRECORD
  5
8D
102
{ACAD_REACTORS
330
8C
102
}
330
8C
100
AcDbXrecord
280
     1
102
RTVSPropertyOp0
 70
     1
102
RTVSPropertyOp1
 70
     1
102
RTVSPropertyOp2
 70
     1
102
RTVSPropertyOp3
 70
     1
102
RTVSPropertyOp4
 70
     1
102
RTVSPropertyOp5
 70
     1
102
RTVSPropertyOp6
 70
     1
102
RTVSPropertyOp7
 70
     1
102
RTVSPropertyOp8
 70
     1
102
RTVSPropertyOp9
 70
     1
102
RTVSPropertyOp10
 70
     1
102
RTVSPropertyOp11
 70
     1
102
RTVSPropertyOp12
 70
     1
102
RTVSPropertyOp13
 70
     1
102
RTVSPropertyOp14
 70
     1
102
RTVSPropertyOp15
 70
     1
102
RTVSPropertyOp16
 70
     1
102
RTVSPropertyOp17
 70
     1
102
RTVSPropertyOp18
 70
     1
102
RTVSPropertyOp19
 70
     1
102
RTVSPropertyOp20
 70
     1
102
RTVSPropertyOp21
 70
     1
102
RTVSPropertyOp22
 70
     1
102
RTVSPropertyOp23
 70
     1
102
RTVSPropertyOp24
 70
     1
102
RTVSPropertyOp25
 70
     1
102
RTVSPropertyOp26
 70
     1
102
RTVSPropertyOp27
 70
     1
102
RTVSPropertyOp28
 70
     1
102
RTVSPropertyOp29
 70
     1
102
RTVSPropertyOp30
 70
     1
102
RTVSPropertyOp31
 70
     1
102
RTVSPropertyOp32
 70
     1
  0
XRECORD
  5
95
102
{ACAD_REACTORS
330
94
102
}
330
94
100
AcDbXrecord
280
     1
102
RTVSPropertyOp0
 70
     1
102
RTVSPropertyOp1
 70
     1
102
RTVSPropertyOp2
 70
     1
102
RTVSPropertyOp3
 70
     1
102
RTVSPropertyOp4
 70
     1
102
RTVSPropertyOp5
 70
     1
102
RTVSPropertyOp6
 70
     1
102
RTVSPropertyOp7
 70
     1
102
RTVSPropertyOp8
 70
     1
102
RTVSPropertyOp9
 70
     1
102
RTVSPropertyOp10
 70
     1
102
RTVSPropertyOp11
 70
     1
102
RTVSPropertyOp12
 70
     1
102
RTVSPropertyOp13
 70
     1
102
RTVSPropertyOp14
 70
     1
102
RTVSPropertyOp15
 70
     1
102
RTVSPropertyOp16
 70
     1
102
RTVSPropertyOp17
 70
     1
102
RTVSPropertyOp18
 70
     1
102
RTVSPropertyOp19
 70
     1
102
RTVSPropertyOp20
 70
     1
102
RTVSPropertyOp21
 70
     1
102
RTVSPropertyOp22
 70
     1
102
RTVSPropertyOp23
 70
     1
102
RTVSPropertyOp24
 70
     1
102
RTVSPropertyOp25
 70
     1
102
RTVSPropertyOp26
 70
     1
102
RTVSPropertyOp27
 70
     1
102
RTVSPropertyOp28
 70
     1
102
RTVSPropertyOp29
 70
     1
102
RTVSPropertyOp30
 70
     1
102
RTVSPropertyOp31
 70
     1
102
RTVSPropertyOp32
 70
     1
  0
XRECORD
  5
9D
102
{ACAD_REACTORS
330
9C
102
}
330
9C
100
AcDbXrecord
280
     1
102
RTVSPropertyOp0
 70
     1
102
RTVSPropertyOp1
 70
     1
102
RTVSPropertyOp2
 70
     1
102
RTVSPropertyOp3
 70
     1
102
RTVSPropertyOp4
 70
     1
102
RTVSPropertyOp5
 70
     1
102
RTVSPropertyOp6
 70
     1
102
RTVSPropertyOp7
 70
     1
102
RTVSPropertyOp8
 70
     1
102
RTVSPropertyOp9
 70
     1
102
RTVSPropertyOp10
 70
     1
102
RTVSPropertyOp11
 70
     1
102
RTVSPropertyOp12
 70
     1
102
RTVSPropertyOp13
 70
     1
102
RTVSPropertyOp14
 70
     1
102
RTVSPropertyOp15
 70
     1
102
RTVSPropertyOp16
 70
     1
102
RTVSPropertyOp17
 70
     1
102
RTVSPropertyOp18
 70
     1
102
RTVSPropertyOp19
 70
     1
102
RTVSPropertyOp20
 70
     1
102
RTVSPropertyOp21
 70
     1
102
RTVSPropertyOp22
 70
     1
102
RTVSPropertyOp23
 70
     1
102
RTVSPropertyOp24
 70
     1
102
RTVSPropertyOp25
 70
     1
102
RTVSPropertyOp26
 70
     1
102
RTVSPropertyOp27
 70
     1
102
RTVSPropertyOp28
 70
     1
102
RTVSPropertyOp29
 70
     1
102
RTVSPropertyOp30
 70
     1
102
RTVSPropertyOp31
 70
     1
102
RTVSPropertyOp32
 70
     1
  0
XRECORD
  5
91
102
{ACAD_REACTORS
330
90
102
}
330
90
100
AcDbXrecord
280
     1
102
RTVSPropertyOp0
 70
     1
102
RTVSPropertyOp1
 70
     1
102
RTVSPropertyOp2
 70
     1
102
RTVSPropertyOp3
 70
     1
102
RTVSPropertyOp4
 70
     1
102
RTVSPropertyOp5
 70
     1
102
RTVSPropertyOp6
 70
     1
102
RTVSPropertyOp7
 70
     1
102
RTVSPropertyOp8
 70
     1
102
RTVSPropertyOp9
 70
     1
102
RTVSPropertyOp10
 70
     1
102
RTVSPropertyOp11
 70
     1
102
RTVSPropertyOp12
 70
     1
102
RTVSPropertyOp13
 70
     1
102
RTVSPropertyOp14
 70
     1
102
RTVSPropertyOp15
 70
     1
102
RTVSPropertyOp16
 70
     1
102
RTVSPropertyOp17
 70
     1
102
RTVSPropertyOp18
 70
     1
102
RTVSPropertyOp19
 70
     1
102
RTVSPropertyOp20
 70
     1
102
RTVSPropertyOp21
 70
     1
102
RTVSPropertyOp22
 70
     1
102
RTVSPropertyOp23
 70
     1
102
RTVSPropertyOp24
 70
     1
102
RTVSPropertyOp25
 70
     1
102
RTVSPropertyOp26
 70
     1
102
RTVSPropertyOp27
 70
     1
102
RTVSPropertyOp28
 70
     1
102
RTVSPropertyOp29
 70
     1
102
RTVSPropertyOp30
 70
     1
102
RTVSPropertyOp31
 70
     1
102
RTVSPropertyOp32
 70
     1
  0
XRECORD
  5
93
102
{ACAD_REACTORS
330
92
102
}
330
92
100
AcDbXrecord
280
     1
102
RTVSPropertyOp0
 70
     1
102
RTVSPropertyOp1
 70
     1
102
RTVSPropertyOp2
 70
     1
102
RTVSPropertyOp3
 70
     1
102
RTVSPropertyOp4
 70
     1
102
RTVSPropertyOp5
 70
     1
102
RTVSPropertyOp6
 70
     1
102
RTVSPropertyOp7
 70
     1
102
RTVSPropertyOp8
 70
     1
102
RTVSPropertyOp9
 70
     1
102
RTVSPropertyOp10
 70
     1
102
RTVSPropertyOp11
 70
     1
102
RTVSPropertyOp12
 70
     1
102
RTVSPropertyOp13
 70
     1
102
RTVSPropertyOp14
 70
     1
102
RTVSPropertyOp15
 70
     1
102
RTVSPropertyOp16
 70
     1
102
RTVSPropertyOp17
 70
     1
102
RTVSPropertyOp18
 70
     1
102
RTVSPropertyOp19
 70
     1
102
RTVSPropertyOp20
 70
     1
102
RTVSPropertyOp21
 70
     1
102
RTVSPropertyOp22
 70
     1
102
RTVSPropertyOp23
 70
     1
102
RTVSPropertyOp24
 70
     1
102
RTVSPropertyOp25
 70
     1
102
RTVSPropertyOp26
 70
     1
102
RTVSPropertyOp27
 70
     1
102
RTVSPropertyOp28
 70
     1
102
RTVSPropertyOp29
 70
     1
102
RTVSPropertyOp30
 70
     1
102
RTVSPropertyOp31
 70
     1
102
RTVSPropertyOp32
 70
     1
  0
XRECORD
  5
9B
102
{ACAD_REACTORS
330
9A
102
}
330
9A
100
AcDbXrecord
280
     1
102
RTVSPropertyOp0
 70
     1
102
RTVSPropertyOp1
 70
     1
102
RTVSPropertyOp2
 70
     1
102
RTVSPropertyOp3
 70
     1
102
RTVSPropertyOp4
 70
     1
102
RTVSPropertyOp5
 70
     1
102
RTVSPropertyOp6
 70
     1
102
RTVSPropertyOp7
 70
     1
102
RTVSPropertyOp8
 70
     1
102
RTVSPropertyOp9
 70
     1
102
RTVSPropertyOp10
 70
     1
102
RTVSPropertyOp11
 70
     1
102
RTVSPropertyOp12
 70
     1
102
RTVSPropertyOp13
 70
     1
102
RTVSPropertyOp14
 70
     1
102
RTVSPropertyOp15
 70
     1
102
RTVSPropertyOp16
 70
     1
102
RTVSPropertyOp17
 70
     1
102
RTVSPropertyOp18
 70
     1
102
RTVSPropertyOp19
 70
     1
102
RTVSPropertyOp20
 70
     1
102
RTVSPropertyOp21
 70
     1
102
RTVSPropertyOp22
 70
     1
102
RTVSPropertyOp23
 70
     1
102
RTVSPropertyOp24
 70
     1
102
RTVSPropertyOp25
 70
     1
102
RTVSPropertyOp26
 70
     1
102
RTVSPropertyOp27
 70
     1
102
RTVSPropertyOp28
 70
     1
102
RTVSPropertyOp29
 70
     1
102
RTVSPropertyOp30
 70
     1
102
RTVSPropertyOp31
 70
     1
102
RTVSPropertyOp32
 70
     1
  0
XRECORD
  5
7F
102
{ACAD_REACTORS
330
7E
102
}
330
7E
100
AcDbXrecord
280
     1
102
RTVSPropertyOp0
 70
     1
102
RTVSPropertyOp1
 70
     1
102
RTVSPropertyOp2
 70
     1
102
RTVSPropertyOp3
 70
     1
102
RTVSPropertyOp4
 70
     1
102
RTVSPropertyOp5
 70
     1
102
RTVSPropertyOp6
 70
     1
102
RTVSPropertyOp7
 70
     1
102
RTVSPropertyOp8
 70
     1
102
RTVSPropertyOp9
 70
     1
102
RTVSPropertyOp10
 70
     1
102
RTVSPropertyOp11
 70
     1
102
RTVSPropertyOp12
 70
     1
102
RTVSPropertyOp13
 70
     1
102
RTVSPropertyOp14
 70
     1
102
RTVSPropertyOp15
 70
     1
102
RTVSPropertyOp16
 70
     1
102
RTVSPropertyOp17
 70
     1
102
RTVSPropertyOp18
 70
     1
102
RTVSPropertyOp19
 70
     1
102
RTVSPropertyOp20
 70
     1
102
RTVSPropertyOp21
 70
     1
102
RTVSPropertyOp22
 70
     1
102
RTVSPropertyOp23
 70
     1
102
RTVSPropertyOp24
 70
     1
102
RTVSPropertyOp25
 70
     1
102
RTVSPropertyOp26
 70
     1
102
RTVSPropertyOp27
 70
     1
102
RTVSPropertyOp28
 70
     1
102
RTVSPropertyOp29
 70
     1
102
RTVSPropertyOp30
 70
     1
102
RTVSPropertyOp31
 70
     1
102
RTVSPropertyOp32
 70
     1
  0
XRECORD
  5
81
102
{ACAD_REACTORS
330
80
102
}
330
80
100
AcDbXrecord
280
     1
102
RTVSPropertyOp0
 70
     1
102
RTVSPropertyOp1
 70
     1
102
RTVSPropertyOp2
 70
     1
102
RTVSPropertyOp3
 70
     1
102
RTVSPropertyOp4
 70
     1
102
RTVSPropertyOp5
 70
     1
102
RTVSPropertyOp6
 70
     1
102
RTVSPropertyOp7
 70
     1
102
RTVSPropertyOp8
 70
     1
102
RTVSPropertyOp9
 70
     1
102
RTVSPropertyOp10
 70
     1
102
RTVSPropertyOp11
 70
     1
102
RTVSPropertyOp12
 70
     1
102
RTVSPropertyOp13
 70
     1
102
RTVSPropertyOp14
 70
     1
102
RTVSPropertyOp15
 70
     1
102
RTVSPropertyOp16
 70
     1
102
RTVSPropertyOp17
 70
     1
102
RTVSPropertyOp18
 70
     1
102
RTVSPropertyOp19
 70
     1
102
RTVSPropertyOp20
 70
     1
102
RTVSPropertyOp21
 70
     1
102
RTVSPropertyOp22
 70
     1
102
RTVSPropertyOp23
 70
     1
102
RTVSPropertyOp24
 70
     1
102
RTVSPropertyOp25
 70
     1
102
RTVSPropertyOp26
 70
     1
102
RTVSPropertyOp27
 70
     1
102
RTVSPropertyOp28
 70
     1
102
RTVSPropertyOp29
 70
     1
102
RTVSPropertyOp30
 70
     1
102
RTVSPropertyOp31
 70
     1
102
RTVSPropertyOp32
 70
     1
  0
XRECORD
  5
83
102
{ACAD_REACTORS
330
82
102
}
330
82
100
AcDbXrecord
280
     1
102
RTVSPropertyOp0
 70
     1
102
RTVSPropertyOp1
 70
     1
102
RTVSPropertyOp2
 70
     1
102
RTVSPropertyOp3
 70
     1
102
RTVSPropertyOp4
 70
     1
102
RTVSPropertyOp5
 70
     1
102
RTVSPropertyOp6
 70
     1
102
RTVSPropertyOp7
 70
     1
102
RTVSPropertyOp8
 70
     1
102
RTVSPropertyOp9
 70
     1
102
RTVSPropertyOp10
 70
     1
102
RTVSPropertyOp11
 70
     1
102
RTVSPropertyOp12
 70
     1
102
RTVSPropertyOp13
 70
     1
102
RTVSPropertyOp14
 70
     1
102
RTVSPropertyOp15
 70
     1
102
RTVSPropertyOp16
 70
     1
102
RTVSPropertyOp17
 70
     1
102
RTVSPropertyOp18
 70
     1
102
RTVSPropertyOp19
 70
     1
102
RTVSPropertyOp20
 70
     1
102
RTVSPropertyOp21
 70
     1
102
RTVSPropertyOp22
 70
     1
102
RTVSPropertyOp23
 70
     1
102
RTVSPropertyOp24
 70
     1
102
RTVSPropertyOp25
 70
     1
102
RTVSPropertyOp26
 70
     1
102
RTVSPropertyOp27
 70
     1
102
RTVSPropertyOp28
 70
     1
102
RTVSPropertyOp29
 70
     1
102
RTVSPropertyOp30
 70
     1
102
RTVSPropertyOp31
 70
     1
102
RTVSPropertyOp32
 70
     1
  0
XRECORD
  5
85
102
{ACAD_REACTORS
330
84
102
}
330
84
100
AcDbXrecord
280
     1
102
RTVSPropertyOp0
 70
     1
102
RTVSPropertyOp1
 70
     1
102
RTVSPropertyOp2
 70
     1
102
RTVSPropertyOp3
 70
     1
102
RTVSPropertyOp4
 70
     1
102
RTVSPropertyOp5
 70
     1
102
RTVSPropertyOp6
 70
     1
102
RTVSPropertyOp7
 70
     1
102
RTVSPropertyOp8
 70
     1
102
RTVSPropertyOp9
 70
     1
102
RTVSPropertyOp10
 70
     1
102
RTVSPropertyOp11
 70
     1
102
RTVSPropertyOp12
 70
     1
102
RTVSPropertyOp13
 70
     1
102
RTVSPropertyOp14
 70
     1
102
RTVSPropertyOp15
 70
     1
102
RTVSPropertyOp16
 70
     1
102
RTVSPropertyOp17
 70
     1
102
RTVSPropertyOp18
 70
     1
102
RTVSPropertyOp19
 70
     1
102
RTVSPropertyOp20
 70
     1
102
RTVSPropertyOp21
 70
     1
102
RTVSPropertyOp22
 70
     1
102
RTVSPropertyOp23
 70
     1
102
RTVSPropertyOp24
 70
     1
102
RTVSPropertyOp25
 70
     1
102
RTVSPropertyOp26
 70
     1
102
RTVSPropertyOp27
 70
     1
102
RTVSPropertyOp28
 70
     1
102
RTVSPropertyOp29
 70
     1
102
RTVSPropertyOp30
 70
     1
102
RTVSPropertyOp31
 70
     1
102
RTVSPropertyOp32
 70
     1
  0
XRECORD
  5
99
102
{ACAD_REACTORS
330
98
102
}
330
98
100
AcDbXrecord
280
     1
102
RTVSPropertyOp0
 70
     1
102
RTVSPropertyOp1
 70
     1
102
RTVSPropertyOp2
 70
     1
102
RTVSPropertyOp3
 70
     1
102
RTVSPropertyOp4
 70
     1
102
RTVSPropertyOp5
 70
     1
102
RTVSPropertyOp6
 70
     1
102
RTVSPropertyOp7
 70
     1
102
RTVSPropertyOp8
 70
     1
102
RTVSPropertyOp9
 70
     1
102
RTVSPropertyOp10
 70
     1
102
RTVSPropertyOp11
 70
     1
102
RTVSPropertyOp12
 70
     1
102
RTVSPropertyOp13
 70
     1
102
RTVSPropertyOp14
 70
     1
102
RTVSPropertyOp15
 70
     1
102
RTVSPropertyOp16
 70
     1
102
RTVSPropertyOp17
 70
     1
102
RTVSPropertyOp18
 70
     1
102
RTVSPropertyOp19
 70
     1
102
RTVSPropertyOp20
 70
     1
102
RTVSPropertyOp21
 70
     1
102
RTVSPropertyOp22
 70
     1
102
RTVSPropertyOp23
 70
     1
102
RTVSPropertyOp24
 70
     1
102
RTVSPropertyOp25
 70
     1
102
RTVSPropertyOp26
 70
     1
102
RTVSPropertyOp27
 70
     1
102
RTVSPropertyOp28
 70
     1
102
RTVSPropertyOp29
 70
     1
102
RTVSPropertyOp30
 70
     1
102
RTVSPropertyOp31
 70
     1
102
RTVSPropertyOp32
 70
     1
  0
XRECORD
  5
8F
102
{ACAD_REACTORS
330
8E
102
}
330
8E
100
AcDbXrecord
280
     1
102
RTVSPropertyOp0
 70
     1
102
RTVSPropertyOp1
 70
     1
102
RTVSPropertyOp2
 70
     1
102
RTVSPropertyOp3
 70
     1
102
RTVSPropertyOp4
 70
     1
102
RTVSPropertyOp5
 70
     1
102
RTVSPropertyOp6
 70
     1
102
RTVSPropertyOp7
 70
     1
102
RTVSPropertyOp8
 70
     1
102
RTVSPropertyOp9
 70
     1
102
RTVSPropertyOp10
 70
     1
102
RTVSPropertyOp11
 70
     1
102
RTVSPropertyOp12
 70
     1
102
RTVSPropertyOp13
 70
     1
102
RTVSPropertyOp14
 70
     1
102
RTVSPropertyOp15
 70
     1
102
RTVSPropertyOp16
 70
     1
102
RTVSPropertyOp17
 70
     1
102
RTVSPropertyOp18
 70
     1
102
RTVSPropertyOp19
 70
     1
102
RTVSPropertyOp20
 70
     1
102
RTVSPropertyOp21
 70
     1
102
RTVSPropertyOp22
 70
     1
102
RTVSPropertyOp23
 70
     1
102
RTVSPropertyOp24
 70
     1
102
RTVSPropertyOp25
 70
     1
102
RTVSPropertyOp26
 70
     1
102
RTVSPropertyOp27
 70
     1
102
RTVSPropertyOp28
 70
     1
102
RTVSPropertyOp29
 70
     1
102
RTVSPropertyOp30
 70
     1
102
RTVSPropertyOp31
 70
     1
102
RTVSPropertyOp32
 70
     1
  0
XRECORD
  5
97
102
{ACAD_REACTORS
330
96
102
}
330
96
100
AcDbXrecord
280
     1
102
RTVSPropertyOp0
 70
     1
102
RTVSPropertyOp1
 70
     1
102
RTVSPropertyOp2
 70
     1
102
RTVSPropertyOp3
 70
     1
102
RTVSPropertyOp4
 70
     1
102
RTVSPropertyOp5
 70
     1
102
RTVSPropertyOp6
 70
     1
102
RTVSPropertyOp7
 70
     1
102
RTVSPropertyOp8
 70
     1
102
RTVSPropertyOp9
 70
     1
102
RTVSPropertyOp10
 70
     1
102
RTVSPropertyOp11
 70
     1
102
RTVSPropertyOp12
 70
     1
102
RTVSPropertyOp13
 70
     1
102
RTVSPropertyOp14
 70
     1
102
RTVSPropertyOp15
 70
     1
102
RTVSPropertyOp16
 70
     1
102
RTVSPropertyOp17
 70
     1
102
RTVSPropertyOp18
 70
     1
102
RTVSPropertyOp19
 70
     1
102
RTVSPropertyOp20
 70
     1
102
RTVSPropertyOp21
 70
     1
102
RTVSPropertyOp22
 70
     1
102
RTVSPropertyOp23
 70
     1
102
RTVSPropertyOp24
 70
     1
102
RTVSPropertyOp25
 70
     1
102
RTVSPropertyOp26
 70
     1
102
RTVSPropertyOp27
 70
     1
102
RTVSPropertyOp28
 70
     1
102
RTVSPropertyOp29
 70
     1
102
RTVSPropertyOp30
 70
     1
102
RTVSPropertyOp31
 70
     1
102
RTVSPropertyOp32
 70
     1
  0
ENDSEC
  0
EOF
