  0
SECTION
  2
HEADER
  9
$ACADVER
  1
AC1021
  9
$ACADMAINTVER
 70
    25
  9
$DWGCODEPAGE
  3
ANSI_1252
  9
$INSBASE
 10
0.0
 20
0.0
 30
0.0
  9
$EXTMIN
 10
-187.1872
 20
-114.9154
 30
0.0
  9
$EXTMAX
 10
-68.8328
 20
131.7209
 30
0.0
  9
$LIMMIN
 10
0.0
 20
0.0
  9
$LIMMAX
 10
12.0
 20
9.0
  9
$ORTHOMODE
 70
     0
  9
$REGENMODE
 70
     1
  9
$FILLMODE
 70
     1
  9
$QTEXTMODE
 70
     0
  9
$MIRRTEXT
 70
     1
  9
$LTSCALE
 40
1.0
  9
$ATTMODE
 70
     1
  9
$TEXTSIZE
 40
0.2
  9
$TRACEWID
 40
0.05
  9
$TEXTSTYLE
  7
Standard
  9
$CLAYER
  8
0
  9
$CELTYPE
  6
ByLayer
  9
$CECOLOR
 62
   256
  9
$CELTSCALE
 40
1.0
  9
$DISPSILH
 70
     0
  9
$DIMSCALE
 40
1.0
  9
$DIMASZ
 40
0.18
  9
$DIMEXO
 40
0.0625
  9
$DIMDLI
 40
0.38
  9
$DIMRND
 40
0.0
  9
$DIMDLE
 40
0.0
  9
$DIMEXE
 40
0.18
  9
$DIMTP
 40
0.0
  9
$DIMTM
 40
0.0
  9
$DIMTXT
 40
0.18
  9
$DIMCEN
 40
0.09
  9
$DIMTSZ
 40
0.0
  9
$DIMTOL
 70
     0
  9
$DIMLIM
 70
     0
  9
$DIMTIH
 70
     1
  9
$DIMTOH
 70
     1
  9
$DIMSE1
 70
     0
  9
$DIMSE2
 70
     0
  9
$DIMTAD
 70
     0
  9
$DIMZIN
 70
     0
  9
$DIMBLK
  1

  9
$DIMASO
 70
     1
  9
$DIMSHO
 70
     1
  9
$DIMPOST
  1

  9
$DIMAPOST
  1

  9
$DIMALT
 70
     0
  9
$DIMALTD
 70
     2
  9
$DIMALTF
 40
25.4
  9
$DIMLFAC
 40
1.0
  9
$DIMTOFL
 70
     0
  9
$DIMTVP
 40
0.0
  9
$DIMTIX
 70
     0
  9
$DIMSOXD
 70
     0
  9
$DIMSAH
 70
     0
  9
$DIMBLK1
  1

  9
$DIMBLK2
  1

  9
$DIMSTYLE
  2
Standard
  9
$DIMCLRD
 70
     0
  9
$DIMCLRE
 70
     0
  9
$DIMCLRT
 70
     0
  9
$DIMTFAC
 40
1.0
  9
$DIMGAP
 40
0.09
  9
$DIMJUST
 70
     0
  9
$DIMSD1
 70
     0
  9
$DIMSD2
 70
     0
  9
$DIMTOLJ
 70
     1
  9
$DIMTZIN
 70
     0
  9
$DIMALTZ
 70
     0
  9
$DIMALTTZ
 70
     0
  9
$DIMUPT
 70
     0
  9
$DIMDEC
 70
     4
  9
$DIMTDEC
 70
     4
  9
$DIMALTU
 70
     2
  9
$DIMALTTD
 70
     2
  9
$DIMTXSTY
  7
Standard
  9
$DIMAUNIT
 70
     0
  9
$DIMADEC
 70
     0
  9
$DIMALTRND
 40
0.0
  9
$DIMAZIN
 70
     0
  9
$DIMDSEP
 70
    46
  9
$DIMATFIT
 70
     3
  9
$DIMFRAC
 70
     0
  9
$DIMLDRBLK
  1

  9
$DIMLUNIT
 70
     2
  9
$DIMLWD
 70
    -2
  9
$DIMLWE
 70
    -2
  9
$DIMTMOVE
 70
     0
  9
$DIMFXL
 40
1.0
  9
$DIMFXLON
 70
     0
  9
$DIMJOGANG
 40
0.7853981633974483
  9
$DIMTFILL
 70
     0
  9
$DIMTFILLCLR
 70
     0
  9
$DIMARCSYM
 70
     0
  9
$DIMLTYPE
  6

  9
$DIMLTEX1
  6

  9
$DIMLTEX2
  6

  9
$LUNITS
 70
     2
  9
$LUPREC
 70
     4
  9
$SKETCHINC
 40
0.1
  9
$FILLETRAD
 40
0.5
  9
$AUNITS
 70
     0
  9
$AUPREC
 70
     0
  9
$MENU
  1
.
  9
$ELEVATION
 40
0.0
  9
$PELEVATION
 40
0.0
  9
$THICKNESS
 40
0.0
  9
$LIMCHECK
 70
     0
  9
$CHAMFERA
 40
0.5
  9
$CHAMFERB
 40
0.5
  9
$CHAMFERC
 40
1.0
  9
$CHAMFERD
 40
0.0
  9
$SKPOLY
 70
     0
  9
$TDCREATE
 40
2458492.617973438
  9
$TDUCREATE
 40
2458492.617973438
  9
$TDUPDATE
 40
2458492.617973646
  9
$TDUUPDATE
 40
2458492.617973646
  9
$TDINDWG
 40
0.0000000116
  9
$TDUSRTIMER
 40
0.0000000116
  9
$USRTIMER
 70
     1
  9
$ANGBASE
 50
0.0
  9
$ANGDIR
 70
     0
  9
$PDMODE
 70
     0
  9
$PDSIZE
 40
0.0
  9
$PLINEWID
 40
0.0
  9
$SPLFRAME
 70
     0
  9
$SPLINETYPE
 70
     6
  9
$SPLINESEGS
 70
     8
  9
$HANDSEED
  5
AE
  9
$SURFTAB1
 70
     6
  9
$SURFTAB2
 70
     6
  9
$SURFTYPE
 70
     6
  9
$SURFU
 70
     6
  9
$SURFV
 70
     6
  9
$UCSBASE
  2

  9
$UCSNAME
  2

  9
$UCSORG
 10
0.0
 20
0.0
 30
0.0
  9
$UCSXDIR
 10
1.0
 20
0.0
 30
0.0
  9
$UCSYDIR
 10
0.0
 20
1.0
 30
0.0
  9
$UCSORTHOREF
  2

  9
$UCSORTHOVIEW
 70
     0
  9
$UCSORGTOP
 10
0.0
 20
0.0
 30
0.0
  9
$UCSORGBOTTOM
 10
0.0
 20
0.0
 30
0.0
  9
$UCSORGLEFT
 10
0.0
 20
0.0
 30
0.0
  9
$UCSORGRIGHT
 10
0.0
 20
0.0
 30
0.0
  9
$UCSORGFRONT
 10
0.0
 20
0.0
 30
0.0
  9
$UCSORGBACK
 10
0.0
 20
0.0
 30
0.0
  9
$PUCSBASE
  2

  9
$PUCSNAME
  2

  9
$PUCSORG
 10
0.0
 20
0.0
 30
0.0
  9
$PUCSXDIR
 10
1.0
 20
0.0
 30
0.0
  9
$PUCSYDIR
 10
0.0
 20
1.0
 30
0.0
  9
$PUCSORTHOREF
  2

  9
$PUCSORTHOVIEW
 70
     0
  9
$PUCSORGTOP
 10
0.0
 20
0.0
 30
0.0
  9
$PUCSORGBOTTOM
 10
0.0
 20
0.0
 30
0.0
  9
$PUCSORGLEFT
 10
0.0
 20
0.0
 30
0.0
  9
$PUCSORGRIGHT
 10
0.0
 20
0.0
 30
0.0
  9
$PUCSORGFRONT
 10
0.0
 20
0.0
 30
0.0
  9
$PUCSORGBACK
 10
0.0
 20
0.0
 30
0.0
  9
$USERI1
 70
     0
  9
$USERI2
 70
     0
  9
$USERI3
 70
     0
  9
$USERI4
 70
     0
  9
$USERI5
 70
     0
  9
$USERR1
 40
0.0
  9
$USERR2
 40
0.0
  9
$USERR3
 40
0.0
  9
$USERR4
 40
0.0
  9
$USERR5
 40
0.0
  9
$WORLDVIEW
 70
     1
  9
$SHADEDGE
 70
     3
  9
$SHADEDIF
 70
    70
  9
$TILEMODE
 70
     1
  9
$MAXACTVP
 70
    64
  9
$PINSBASE
 10
0.0
 20
0.0
 30
0.0
  9
$PLIMCHECK
 70
     0
  9
$PEXTMIN
 10
1.000000000000000E+20
 20
1.000000000000000E+20
 30
1.000000000000000E+20
  9
$PEXTMAX
 10
-1.000000000000000E+20
 20
-1.000000000000000E+20
 30
-1.000000000000000E+20
  9
$PLIMMIN
 10
0.0
 20
0.0
  9
$PLIMMAX
 10
12.0
 20
9.0
  9
$UNITMODE
 70
     0
  9
$VISRETAIN
 70
     1
  9
$PLINEGEN
 70
     0
  9
$PSLTSCALE
 70
     1
  9
$TREEDEPTH
 70
  3020
  9
$CMLSTYLE
  2
Standard
  9
$CMLJUST
 70
     0
  9
$CMLSCALE
 40
1.0
  9
$PROXYGRAPHICS
 70
     1
  9
$MEASUREMENT
 70
     0
  9
$CELWEIGHT
370
    -1
  9
$ENDCAPS
280
     0
  9
$JOINSTYLE
280
     0
  9
$LWDISPLAY
290
     0
  9
$INSUNITS
 70
     4
  9
$HYPERLINKBASE
  1

  9
$STYLESHEET
  1

  9
$XEDIT
290
     1
  9
$CEPSNTYPE
380
     0
  9
$PSTYLEMODE
290
     1
  9
$FINGERPRINTGUID
  2
{340598CA-93ED-4967-BF5A-1D91A4DB2B21}
  9
$VERSIONGUID
  2
{FAEB1C32-E019-11D5-929B-00C0DF256EC4}
  9
$EXTNAMES
290
     1
  9
$PSVPSCALE
 40
0.0
  9
$OLESTARTUP
290
     0
  9
$SORTENTS
280
   127
  9
$INDEXCTL
280
     0
  9
$HIDETEXT
280
     1
  9
$XCLIPFRAME
290
     0
  9
$HALOGAP
280
     0
  9
$OBSCOLOR
 70
   257
  9
$OBSLTYPE
280
     0
  9
$INTERSECTIONDISPLAY
280
     0
  9
$INTERSECTIONCOLOR
 70
   257
  9
$DIMASSOC
280
     2
  9
$PROJECTNAME
  1

  9
$CAMERADISPLAY
290
     0
  9
$LENSLENGTH
 40
50.0
  9
$CAMERAHEIGHT
 40
0.0
  9
$STEPSPERSEC
 40
2.0
  9
$STEPSIZE
 40
6.0
  9
$3DDWFPREC
 40
2.0
  9
$PSOLWIDTH
 40
0.25
  9
$PSOLHEIGHT
 40
4.0
  9
$LOFTANG1
 40
1.570796326794897
  9
$LOFTANG2
 40
1.570796326794897
  9
$LOFTMAG1
 40
0.0
  9
$LOFTMAG2
 40
0.0
  9
$LOFTPARAM
 70
     7
  9
$LOFTNORMALS
280
     1
  9
$LATITUDE
 40
37.795
  9
$LONGITUDE
 40
-122.394
  9
$NORTHDIRECTION
 40
0.0
  9
$TIMEZONE
 70
 -8000
  9
$LIGHTGLYPHDISPLAY
280
     1
  9
$TILEMODELIGHTSYNCH
280
     1
  9
$SOLIDHIST
280
     1
  9
$SHOWHIST
280
     1
  9
$DWFFRAME
280
     2
  9
$DGNFRAME
280
     2
  9
$REALWORLDSCALE
290
     1
  9
$INTERFERECOLOR
 62
   256
  9
$CSHADOW
280
     0
  9
$SHADOWPLANELOCATION
 40
0.0
  0
ENDSEC
  0
SECTION
  2
CLASSES
  0
CLASS
  1
ACDBDICTIONARYWDFLT
  2
AcDbDictionaryWithDefault
  3
ObjectDBX Classes
 90
        0
 91
        4
280
     0
281
     0
  0
CLASS
  1
VISUALSTYLE
  2
AcDbVisualStyle
  3
ObjectDBX Classes
 90
     4095
 91
        4
280
     0
281
     0
  0
CLASS
  1
MATERIAL
  2
AcDbMaterial
  3
ObjectDBX Classes
 90
     1153
 91
        4
280
     0
281
     0
  0
ENDSEC
  0
SECTION
  2
TABLES
  0
TABLE
  2
VPORT
  5
8
330
0
100
AcDbSymbolTable
 70
     1
  0
VPORT
  5
29
330
8
100
AcDbSymbolTableRecord
100
AcDbViewportTableRecord
  2
*Active
 70
     0
 10
0.0
 20
0.0
 11
1.0
 21
1.0
 12
10.42990654205607
 22
4.5
 13
0.0
 23
0.0
 14
0.5
 24
0.5
 15
0.5
 25
0.5
 16
0.0
 26
0.0
 36
1.0
 17
0.0
 27
0.0
 37
0.0
 40
9.0
 41
1.972972972850329
 42
50.0
 43
0.0
 44
0.0
 50
0.0
 51
0.0
 71
     0
 72
   100
 73
     1
 74
     3
 75
     0
 76
     0
 77
     0
 78
     0
281
     0
 65
     1
110
0.0
120
0.0
130
0.0
111
1.0
121
0.0
131
0.0
112
0.0
122
1.0
132
0.0
 79
     0
146
0.0
 60
     3
 61
     5
292
     1
282
     1
141
0.0
142
0.0
 63
   250
  0
ENDTAB
  0
TABLE
  2
LTYPE
  5
5
330
0
100
AcDbSymbolTable
 70
     1
  0
LTYPE
  5
14
330
5
100
AcDbSymbolTableRecord
100
AcDbLinetypeTableRecord
  2
ByBlock
 70
     0
  3

 72
    65
 73
     0
 40
0.0
  0
LTYPE
  5
15
330
5
100
AcDbSymbolTableRecord
100
AcDbLinetypeTableRecord
  2
ByLayer
 70
     0
  3

 72
    65
 73
     0
 40
0.0
  0
LTYPE
  5
16
330
5
100
AcDbSymbolTableRecord
100
AcDbLinetypeTableRecord
  2
Continuous
 70
     0
  3
Solid line
 72
    65
 73
     0
 40
0.0
  0
ENDTAB
  0
TABLE
  2
LAYER
  5
2
330
0
100
AcDbSymbolTable
 70
     3
  0
LAYER
  5
10
330
2
100
AcDbSymbolTableRecord
100
AcDbLayerTableRecord
  2
0
 70
     0
 62
     7
  6
Continuous
370
    -3
390
F
347
3E
  0
LAYER
  5
40
330
2
100
AcDbSymbolTableRecord
100
AcDbLayerTableRecord
  2
layer 1
 70
     0
 62
     7
  6
Continuous
370
    -3
390
F
347
3E
  0
LAYER
  5
8B
330
2
100
AcDbSymbolTableRecord
100
AcDbLayerTableRecord
  2
Master Guides
 70
     0
 62
     7
  6
Continuous
370
    -3
390
F
347
3E
  0
ENDTAB
  0
TABLE
  2
STYLE
  5
3
330
0
100
AcDbSymbolTable
 70
     1
  0
STYLE
  5
11
330
3
100
AcDbSymbolTableRecord
100
AcDbTextStyleTableRecord
  2
Standard
 70
     0
 40
0.0
 41
1.0
 50
0.0
 71
     0
 42
0.2
  3
txt
  4

  0
ENDTAB
  0
TABLE
  2
VIEW
  5
6
330
0
100
AcDbSymbolTable
 70
     0
  0
ENDTAB
  0
TABLE
  2
UCS
  5
7
330
0
100
AcDbSymbolTable
 70
     0
  0
ENDTAB
  0
TABLE
  2
APPID
  5
9
330
0
100
AcDbSymbolTable
 70
     2
  0
APPID
  5
12
330
9
100
AcDbSymbolTableRecord
100
AcDbRegAppTableRecord
  2
ACAD
 70
     0
  0
APPID
  5
3F
330
9
100
AcDbSymbolTableRecord
100
AcDbRegAppTableRecord
  2
ODA
 70
     0
  0
ENDTAB
  0
TABLE
  2
DIMSTYLE
  5
A
330
0
100
AcDbSymbolTable
 70
     1
100
AcDbDimStyleTable
  0
DIMSTYLE
105
27
330
A
100
AcDbSymbolTableRecord
100
AcDbDimStyleTableRecord
  2
Standard
 70
     0
178
     0
340
11
  0
ENDTAB
  0
TABLE
  2
BLOCK_RECORD
  5
1
330
0
100
AcDbSymbolTable
 70
     1
  0
BLOCK_RECORD
  5
1F
330
1
100
AcDbSymbolTableRecord
100
AcDbBlockTableRecord
  2
*Model_Space
340
22
 70
     0
280
     1
281
     0
  0
BLOCK_RECORD
  5
1B
330
1
100
AcDbSymbolTableRecord
100
AcDbBlockTableRecord
  2
*Paper_Space
340
1E
 70
     0
280
     1
281
     0
  0
BLOCK_RECORD
  5
23
330
1
100
AcDbSymbolTableRecord
100
AcDbBlockTableRecord
  2
*Paper_Space0
340
26
 70
     0
280
     1
281
     0
  0
ENDTAB
  0
ENDSEC
  0
SECTION
  2
BLOCKS
  0
BLOCK
  5
20
330
1F
100
AcDbEntity
  8
0
100
AcDbBlockBegin
  2
*Model_Space
 70
     0
 10
0.0
 20
0.0
 30
0.0
  3
*Model_Space
  1

  0
ENDBLK
  5
21
330
1F
100
AcDbEntity
  8
0
100
AcDbBlockEnd
  0
BLOCK
  5
1C
330
1B
100
AcDbEntity
 67
     1
  8
0
100
AcDbBlockBegin
  2
*Paper_Space
 70
     0
 10
0.0
 20
0.0
 30
0.0
  3
*Paper_Space
  1

  0
ENDBLK
  5
1D
330
1B
100
AcDbEntity
 67
     1
  8
0
100
AcDbBlockEnd
  0
BLOCK
  5
24
330
23
100
AcDbEntity
  8
0
100
AcDbBlockBegin
  2
*Paper_Space0
 70
     0
 10
0.0
 20
0.0
 30
0.0
  3
*Paper_Space0
  1

  0
ENDBLK
  5
25
330
23
100
AcDbEntity
  8
0
100
AcDbBlockEnd
  0
ENDSEC
  0
SECTION
  2
ENTITIES
  0
SPLINE
  5
41
330
1F
100
AcDbEntity
  8
layer 1
 62
   250
100
AcDbSpline
210
0.0
220
0.0
230
1.0
 70
    11
 71
     3
 72
    20
 73
    16
 74
     0
 42
0.0000000001
 43
0.0000000001
 12
1.0
 22
0.0
 32
0.0
 13
1.0
 23
0.0
 33
0.0
 40
0.0
 40
0.0
 40
0.0
 40
0.0
 40
0.2
 40
0.2
 40
0.2
 40
0.2
 40
0.4
 40
0.4
 40
0.4
 40
0.4
 40
0.6
 40
0.6
 40
0.6
 40
0.6
 40
1.0
 40
1.0
 40
1.0
 40
1.0
 10
-68.8328
 20
-114.9154
 30
0.0
 10
-68.8328
 20
-114.9154
 30
0.0
 10
-187.1872
 20
-114.9154
 30
0.0
 10
-187.1872
 20
-114.9154
 30
0.0
 10
-187.1872
 20
-114.9154
 30
0.0
 10
-187.1872
 20
-114.9154
 30
0.0
 10
-187.1872
 20
131.7209
 30
0.0
 10
-187.1872
 20
131.7209
 30
0.0
 10
-187.1872
 20
131.7209
 30
0.0
 10
-187.1872
 20
131.7209
 30
0.0
 10
-68.8328
 20
131.7209
 30
0.0
 10
-68.8328
 20
131.7209
 30
0.0
 10
-68.8328
 20
131.7209
 30
0.0
 10
-68.8328
 20
131.7209
 30
0.0
 10
-68.8328
 20
-114.9154
 30
0.0
 10
-68.8328
 20
-114.9154
 30
0.0
  0
SPLINE
  5
42
330
1F
100
AcDbEntity
  8
layer 1
 62
     7
100
AcDbSpline
210
0.0
220
0.0
230
1.0
 70
    11
 71
     3
 72
    36
 73
    32
 74
     0
 42
0.0000000001
 43
0.0000000001
 12
1.0
 22
0.0
 32
0.0
 13
1.0
 23
0.0
 33
0.0
 40
0.0
 40
0.0
 40
0.0
 40
0.0
 40
0.1111111111111111
 40
0.1111111111111111
 40
0.1111111111111111
 40
0.1111111111111111
 40
0.2222222222222222
 40
0.2222222222222222
 40
0.2222222222222222
 40
0.2222222222222222
 40
0.3333333333333333
 40
0.3333333333333333
 40
0.3333333333333333
 40
0.3333333333333333
 40
0.4444444444444444
 40
0.4444444444444444
 40
0.4444444444444444
 40
0.4444444444444444
 40
0.5555555555555556
 40
0.5555555555555556
 40
0.5555555555555556
 40
0.5555555555555556
 40
0.6666666666666666
 40
0.6666666666666666
 40
0.6666666666666666
 40
0.6666666666666666
 40
0.7777777777777778
 40
0.7777777777777778
 40
0.7777777777777778
 40
0.7777777777777778
 40
1.0
 40
1.0
 40
1.0
 40
1.0
 10
-163.4131
 20
39.6615
 30
0.0
 10
-159.6718
 20
39.4312
 30
0.0
 10
-159.4479
 20
37.7507
 30
0.0
 10
-156.2
 20
34.8142
 30
0.0
 10
-156.2
 20
34.8142
 30
0.0
 10
-154.7881
 20
33.5372
 30
0.0
 10
-152.0456
 20
32.781
 30
0.0
 10
-149.3138
 20
32.3613
 30
0.0
 10
-149.3138
 20
32.3613
 30
0.0
 10
-152.0456
 20
31.9415
 30
0.0
 10
-154.7881
 20
31.1846
 30
0.0
 10
-156.2
 20
29.908
 30
0.0
 10
-156.2
 20
29.908
 30
0.0
 10
-159.4479
 20
26.9711
 30
0.0
 10
-159.6718
 20
25.2907
 30
0.0
 10
-163.4131
 20
25.0606
 30
0.0
 10
-163.4131
 20
25.0606
 30
0.0
 10
-167.1543
 20
25.2907
 30
0.0
 10
-167.3779
 20
26.9711
 30
0.0
 10
-170.6255
 20
29.908
 30
0.0
 10
-170.6255
 20
29.908
 30
0.0
 10
-172.0377
 20
31.1846
 30
0.0
 10
-174.7799
 20
31.9415
 30
0.0
 10
-177.5124
 20
32.3613
 30
0.0
 10
-177.5124
 20
32.3613
 30
0.0
 10
-174.7799
 20
32.781
 30
0.0
 10
-172.0377
 20
33.5372
 30
0.0
 10
-170.6255
 20
34.8142
 30
0.0
 10
-170.6255
 20
34.8142
 30
0.0
 10
-167.3779
 20
37.7507
 30
0.0
 10
-167.1543
 20
39.4312
 30
0.0
 10
-163.4131
 20
39.6615
 30
0.0
  0
SPLINE
  5
43
330
1F
100
AcDbEntity
  8
layer 1
 62
     7
100
AcDbSpline
210
0.0
220
0.0
230
1.0
 70
    11
 71
     3
 72
    68
 73
    64
 74
     0
 42
0.0000000001
 43
0.0000000001
 12
1.0
 22
0.0
 32
0.0
 13
1.0
 23
0.0
 33
0.0
 40
0.0
 40
0.0
 40
0.0
 40
0.0
 40
0.0588235294117647
 40
0.0588235294117647
 40
0.0588235294117647
 40
0.0588235294117647
 40
0.1176470588235294
 40
0.1176470588235294
 40
0.1176470588235294
 40
0.1176470588235294
 40
0.1764705882352941
 40
0.1764705882352941
 40
0.1764705882352941
 40
0.1764705882352941
 40
0.2352941176470588
 40
0.2352941176470588
 40
0.2352941176470588
 40
0.2352941176470588
 40
0.2941176470588235
 40
0.2941176470588235
 40
0.2941176470588235
 40
0.2941176470588235
 40
0.3529411764705883
 40
0.3529411764705883
 40
0.3529411764705883
 40
0.3529411764705883
 40
0.4117647058823529
 40
0.4117647058823529
 40
0.4117647058823529
 40
0.4117647058823529
 40
0.4705882352941176
 40
0.4705882352941176
 40
0.4705882352941176
 40
0.4705882352941176
 40
0.5294117647058824
 40
0.5294117647058824
 40
0.5294117647058824
 40
0.5294117647058824
 40
0.5882352941176471
 40
0.5882352941176471
 40
0.5882352941176471
 40
0.5882352941176471
 40
0.6470588235294118
 40
0.6470588235294118
 40
0.6470588235294118
 40
0.6470588235294118
 40
0.7058823529411765
 40
0.7058823529411765
 40
0.7058823529411765
 40
0.7058823529411765
 40
0.7647058823529411
 40
0.7647058823529411
 40
0.7647058823529411
 40
0.7647058823529411
 40
0.8235294117647058
 40
0.8235294117647058
 40
0.8235294117647058
 40
0.8235294117647058
 40
0.8823529411764706
 40
0.8823529411764706
 40
0.8823529411764706
 40
0.8823529411764706
 40
1.0
 40
1.0
 40
1.0
 40
1.0
 10
-163.4131
 20
46.4958
 30
0.0
 10
-163.0601
 20
45.312
 30
0.0
 10
-162.1959
 20
44.3256
 30
0.0
 10
-160.7792
 20
43.7501
 30
0.0
 10
-160.7792
 20
43.7501
 30
0.0
 10
-156.1683
 20
41.8748
 30
0.0
 10
-155.1693
 20
47.8745
 30
0.0
 10
-158.1825
 20
48.2056
 30
0.0
 10
-158.1825
 20
48.2056
 30
0.0
 10
-162.0876
 20
48.6344
 30
0.0
 10
-158.5258
 20
52.7973
 30
0.0
 10
-155.9962
 20
51.5071
 30
0.0
 10
-155.9962
 20
51.5071
 30
0.0
 10
-153.7584
 20
50.3655
 30
0.0
 10
-152.6687
 20
45.5394
 30
0.0
 10
-151.9072
 20
43.2766
 30
0.0
 10
-151.9072
 20
43.2766
 30
0.0
 10
-150.5838
 20
39.3434
 30
0.0
 10
-148.9049
 20
35.8544
 30
0.0
 10
-145.6845
 20
33.3449
 30
0.0
 10
-145.6845
 20
33.3449
 30
0.0
 10
-147.9911
 20
34.5127
 30
0.0
 10
-149.2064
 20
35.9327
 30
0.0
 10
-150.7397
 20
38.3688
 30
0.0
 10
-150.7397
 20
38.3688
 30
0.0
 10
-151.1955
 20
39.0933
 30
0.0
 10
-151.6526
 20
39.8095
 30
0.0
 10
-152.1918
 20
40.4757
 30
0.0
 10
-152.1918
 20
40.4757
 30
0.0
 10
-154.1736
 20
42.9285
 30
0.0
 10
-159.9138
 20
41.8252
 30
0.0
 10
-163.4131
 20
40.8697
 30
0.0
 10
-163.4131
 20
40.8697
 30
0.0
 10
-166.9117
 20
41.8252
 30
0.0
 10
-172.6519
 20
42.9285
 30
0.0
 10
-174.6346
 20
40.4757
 30
0.0
 10
-174.6346
 20
40.4757
 30
0.0
 10
-175.1732
 20
39.8095
 30
0.0
 10
-175.6303
 20
39.0933
 30
0.0
 10
-176.0865
 20
38.3688
 30
0.0
 10
-176.0865
 20
38.3688
 30
0.0
 10
-177.6197
 20
35.9327
 30
0.0
 10
-178.8351
 20
34.5127
 30
0.0
 10
-181.1413
 20
33.3449
 30
0.0
 10
-181.1413
 20
33.3449
 30
0.0
 10
-177.9207
 20
35.8544
 30
0.0
 10
-176.2424
 20
39.3434
 30
0.0
 10
-174.919
 20
43.2766
 30
0.0
 10
-174.919
 20
43.2766
 30
0.0
 10
-174.1571
 20
45.5394
 30
0.0
 10
-173.0674
 20
50.3655
 30
0.0
 10
-170.8293
 20
51.5071
 30
0.0
 10
-170.8293
 20
51.5071
 30
0.0
 10
-168.3001
 20
52.7973
 30
0.0
 10
-164.7382
 20
48.6344
 30
0.0
 10
-168.6434
 20
48.2056
 30
0.0
 10
-168.6434
 20
48.2056
 30
0.0
 10
-171.6563
 20
47.8745
 30
0.0
 10
-170.6573
 20
41.8748
 30
0.0
 10
-166.047
 20
43.7501
 30
0.0
 10
-166.047
 20
43.7501
 30
0.0
 10
-164.6299
 20
44.3256
 30
0.0
 10
-163.7661
 20
45.312
 30
0.0
 10
-163.4131
 20
46.4958
 30
0.0
  0
SPLINE
  5
44
330
1F
100
AcDbEntity
  8
layer 1
 62
     7
100
AcDbSpline
210
0.0
220
0.0
230
1.0
 70
    11
 71
     3
 72
    68
 73
    64
 74
     0
 42
0.0000000001
 43
0.0000000001
 12
1.0
 22
0.0
 32
0.0
 13
1.0
 23
0.0
 33
0.0
 40
0.0
 40
0.0
 40
0.0
 40
0.0
 40
0.0588235294117647
 40
0.0588235294117647
 40
0.0588235294117647
 40
0.0588235294117647
 40
0.1176470588235294
 40
0.1176470588235294
 40
0.1176470588235294
 40
0.1176470588235294
 40
0.1764705882352941
 40
0.1764705882352941
 40
0.1764705882352941
 40
0.1764705882352941
 40
0.2352941176470588
 40
0.2352941176470588
 40
0.2352941176470588
 40
0.2352941176470588
 40
0.2941176470588235
 40
0.2941176470588235
 40
0.2941176470588235
 40
0.2941176470588235
 40
0.3529411764705883
 40
0.3529411764705883
 40
0.3529411764705883
 40
0.3529411764705883
 40
0.4117647058823529
 40
0.4117647058823529
 40
0.4117647058823529
 40
0.4117647058823529
 40
0.4705882352941176
 40
0.4705882352941176
 40
0.4705882352941176
 40
0.4705882352941176
 40
0.5294117647058824
 40
0.5294117647058824
 40
0.5294117647058824
 40
0.5294117647058824
 40
0.5882352941176471
 40
0.5882352941176471
 40
0.5882352941176471
 40
0.5882352941176471
 40
0.6470588235294118
 40
0.6470588235294118
 40
0.6470588235294118
 40
0.6470588235294118
 40
0.7058823529411765
 40
0.7058823529411765
 40
0.7058823529411765
 40
0.7058823529411765
 40
0.7647058823529411
 40
0.7647058823529411
 40
0.7647058823529411
 40
0.7647058823529411
 40
0.8235294117647058
 40
0.8235294117647058
 40
0.8235294117647058
 40
0.8235294117647058
 40
0.8823529411764706
 40
0.8823529411764706
 40
0.8823529411764706
 40
0.8823529411764706
 40
1.0
 40
1.0
 40
1.0
 40
1.0
 10
-163.4131
 20
23.8531
 30
0.0
 10
-159.9138
 20
22.8967
 30
0.0
 10
-154.1736
 20
21.793
 30
0.0
 10
-152.1918
 20
24.2462
 30
0.0
 10
-152.1918
 20
24.2462
 30
0.0
 10
-151.6526
 20
24.913
 30
0.0
 10
-151.1955
 20
25.6285
 30
0.0
 10
-150.7397
 20
26.3534
 30
0.0
 10
-150.7397
 20
26.3534
 30
0.0
 10
-149.2064
 20
28.7892
 30
0.0
 10
-147.9911
 20
30.2098
 30
0.0
 10
-145.6845
 20
31.377
 30
0.0
 10
-145.6845
 20
31.377
 30
0.0
 10
-148.9049
 20
28.8675
 30
0.0
 10
-150.5838
 20
25.3788
 30
0.0
 10
-151.9072
 20
21.4456
 30
0.0
 10
-151.9072
 20
21.4456
 30
0.0
 10
-152.6687
 20
19.1826
 30
0.0
 10
-153.7584
 20
14.3563
 30
0.0
 10
-155.9962
 20
13.215
 30
0.0
 10
-155.9962
 20
13.215
 30
0.0
 10
-158.5258
 20
11.9245
 30
0.0
 10
-162.0876
 20
16.088
 30
0.0
 10
-158.1825
 20
16.5165
 30
0.0
 10
-158.1825
 20
16.5165
 30
0.0
 10
-155.1693
 20
16.8473
 30
0.0
 10
-156.1683
 20
22.8477
 30
0.0
 10
-160.7792
 20
20.9723
 30
0.0
 10
-160.7792
 20
20.9723
 30
0.0
 10
-162.1959
 20
20.3958
 30
0.0
 10
-163.0601
 20
19.4099
 30
0.0
 10
-163.4131
 20
18.2261
 30
0.0
 10
-163.4131
 20
18.2261
 30
0.0
 10
-163.7661
 20
19.4099
 30
0.0
 10
-164.6299
 20
20.3958
 30
0.0
 10
-166.047
 20
20.9723
 30
0.0
 10
-166.047
 20
20.9723
 30
0.0
 10
-170.6573
 20
22.8477
 30
0.0
 10
-171.6563
 20
16.8473
 30
0.0
 10
-168.6434
 20
16.5165
 30
0.0
 10
-168.6434
 20
16.5165
 30
0.0
 10
-164.7382
 20
16.088
 30
0.0
 10
-168.3001
 20
11.9245
 30
0.0
 10
-170.8293
 20
13.215
 30
0.0
 10
-170.8293
 20
13.215
 30
0.0
 10
-173.0674
 20
14.3563
 30
0.0
 10
-174.1571
 20
19.1826
 30
0.0
 10
-174.919
 20
21.4456
 30
0.0
 10
-174.919
 20
21.4456
 30
0.0
 10
-176.2424
 20
25.3788
 30
0.0
 10
-177.9207
 20
28.8675
 30
0.0
 10
-181.1413
 20
31.377
 30
0.0
 10
-181.1413
 20
31.377
 30
0.0
 10
-178.8351
 20
30.2098
 30
0.0
 10
-177.6197
 20
28.7892
 30
0.0
 10
-176.0865
 20
26.3534
 30
0.0
 10
-176.0865
 20
26.3534
 30
0.0
 10
-175.6303
 20
25.6285
 30
0.0
 10
-175.1732
 20
24.913
 30
0.0
 10
-174.6346
 20
24.2462
 30
0.0
 10
-174.6346
 20
24.2462
 30
0.0
 10
-172.6519
 20
21.793
 30
0.0
 10
-166.9117
 20
22.8967
 30
0.0
 10
-163.4131
 20
23.8531
 30
0.0
  0
SPLINE
  5
45
330
1F
100
AcDbEntity
  8
layer 1
 62
     7
100
AcDbSpline
210
0.0
220
0.0
230
1.0
 70
    11
 71
     3
 72
    36
 73
    32
 74
     0
 42
0.0000000001
 43
0.0000000001
 12
1.0
 22
0.0
 32
0.0
 13
1.0
 23
0.0
 33
0.0
 40
0.0
 40
0.0
 40
0.0
 40
0.0
 40
0.1111111111111111
 40
0.1111111111111111
 40
0.1111111111111111
 40
0.1111111111111111
 40
0.2222222222222222
 40
0.2222222222222222
 40
0.2222222222222222
 40
0.2222222222222222
 40
0.3333333333333333
 40
0.3333333333333333
 40
0.3333333333333333
 40
0.3333333333333333
 40
0.4444444444444444
 40
0.4444444444444444
 40
0.4444444444444444
 40
0.4444444444444444
 40
0.5555555555555556
 40
0.5555555555555556
 40
0.5555555555555556
 40
0.5555555555555556
 40
0.6666666666666666
 40
0.6666666666666666
 40
0.6666666666666666
 40
0.6666666666666666
 40
0.7777777777777778
 40
0.7777777777777778
 40
0.7777777777777778
 40
0.7777777777777778
 40
1.0
 40
1.0
 40
1.0
 40
1.0
 10
-163.4131
 20
72.8653
 30
0.0
 10
-159.6718
 20
73.0949
 30
0.0
 10
-159.4479
 20
74.7757
 30
0.0
 10
-156.2
 20
77.7126
 30
0.0
 10
-156.2
 20
77.7126
 30
0.0
 10
-154.7881
 20
78.9892
 30
0.0
 10
-152.0456
 20
79.7454
 30
0.0
 10
-149.3138
 20
80.1653
 30
0.0
 10
-149.3138
 20
80.1653
 30
0.0
 10
-152.0456
 20
80.5849
 30
0.0
 10
-154.7881
 20
81.3418
 30
0.0
 10
-156.2
 20
82.6184
 30
0.0
 10
-156.2
 20
82.6184
 30
0.0
 10
-159.4479
 20
85.5553
 30
0.0
 10
-159.6718
 20
87.2358
 30
0.0
 10
-163.4131
 20
87.4657
 30
0.0
 10
-163.4131
 20
87.4657
 30
0.0
 10
-167.1543
 20
87.2358
 30
0.0
 10
-167.3779
 20
85.5553
 30
0.0
 10
-170.6255
 20
82.6184
 30
0.0
 10
-170.6255
 20
82.6184
 30
0.0
 10
-172.0377
 20
81.3418
 30
0.0
 10
-174.7799
 20
80.5849
 30
0.0
 10
-177.5124
 20
80.1653
 30
0.0
 10
-177.5124
 20
80.1653
 30
0.0
 10
-174.7799
 20
79.7454
 30
0.0
 10
-172.0377
 20
78.9892
 30
0.0
 10
-170.6255
 20
77.7126
 30
0.0
 10
-170.6255
 20
77.7126
 30
0.0
 10
-167.3779
 20
74.7757
 30
0.0
 10
-167.1543
 20
73.0949
 30
0.0
 10
-163.4131
 20
72.8653
 30
0.0
  0
SPLINE
  5
46
330
1F
100
AcDbEntity
  8
layer 1
 62
     7
100
AcDbSpline
210
0.0
220
0.0
230
1.0
 70
    11
 71
     3
 72
    68
 73
    64
 74
     0
 42
0.0000000001
 43
0.0000000001
 12
1.0
 22
0.0
 32
0.0
 13
1.0
 23
0.0
 33
0.0
 40
0.0
 40
0.0
 40
0.0
 40
0.0
 40
0.0588235294117647
 40
0.0588235294117647
 40
0.0588235294117647
 40
0.0588235294117647
 40
0.1176470588235294
 40
0.1176470588235294
 40
0.1176470588235294
 40
0.1176470588235294
 40
0.1764705882352941
 40
0.1764705882352941
 40
0.1764705882352941
 40
0.1764705882352941
 40
0.2352941176470588
 40
0.2352941176470588
 40
0.2352941176470588
 40
0.2352941176470588
 40
0.2941176470588235
 40
0.2941176470588235
 40
0.2941176470588235
 40
0.2941176470588235
 40
0.3529411764705883
 40
0.3529411764705883
 40
0.3529411764705883
 40
0.3529411764705883
 40
0.4117647058823529
 40
0.4117647058823529
 40
0.4117647058823529
 40
0.4117647058823529
 40
0.4705882352941176
 40
0.4705882352941176
 40
0.4705882352941176
 40
0.4705882352941176
 40
0.5294117647058824
 40
0.5294117647058824
 40
0.5294117647058824
 40
0.5294117647058824
 40
0.5882352941176471
 40
0.5882352941176471
 40
0.5882352941176471
 40
0.5882352941176471
 40
0.6470588235294118
 40
0.6470588235294118
 40
0.6470588235294118
 40
0.6470588235294118
 40
0.7058823529411765
 40
0.7058823529411765
 40
0.7058823529411765
 40
0.7058823529411765
 40
0.7647058823529411
 40
0.7647058823529411
 40
0.7647058823529411
 40
0.7647058823529411
 40
0.8235294117647058
 40
0.8235294117647058
 40
0.8235294117647058
 40
0.8235294117647058
 40
0.8823529411764706
 40
0.8823529411764706
 40
0.8823529411764706
 40
0.8823529411764706
 40
1.0
 40
1.0
 40
1.0
 40
1.0
 10
-163.4131
 20
66.0306
 30
0.0
 10
-163.0601
 20
67.2148
 30
0.0
 10
-162.1959
 20
68.2004
 30
0.0
 10
-160.7792
 20
68.7763
 30
0.0
 10
-160.7792
 20
68.7763
 30
0.0
 10
-156.1683
 20
70.6519
 30
0.0
 10
-155.1693
 20
64.6516
 30
0.0
 10
-158.1825
 20
64.3211
 30
0.0
 10
-158.1825
 20
64.3211
 30
0.0
 10
-162.0876
 20
63.8926
 30
0.0
 10
-158.5258
 20
59.7287
 30
0.0
 10
-155.9962
 20
61.0196
 30
0.0
 10
-155.9962
 20
61.0196
 30
0.0
 10
-153.7584
 20
62.1612
 30
0.0
 10
-152.6687
 20
66.987
 30
0.0
 10
-151.9072
 20
69.2501
 30
0.0
 10
-151.9072
 20
69.2501
 30
0.0
 10
-150.5838
 20
73.1831
 30
0.0
 10
-148.9049
 20
76.672
 30
0.0
 10
-145.6845
 20
79.181
 30
0.0
 10
-145.6845
 20
79.181
 30
0.0
 10
-147.9911
 20
78.014
 30
0.0
 10
-149.2064
 20
76.5935
 30
0.0
 10
-150.7397
 20
74.1576
 30
0.0
 10
-150.7397
 20
74.1576
 30
0.0
 10
-151.1955
 20
73.4328
 30
0.0
 10
-151.6526
 20
72.717
 30
0.0
 10
-152.1918
 20
72.0501
 30
0.0
 10
-152.1918
 20
72.0501
 30
0.0
 10
-154.1736
 20
69.5973
 30
0.0
 10
-159.9138
 20
70.7013
 30
0.0
 10
-163.4131
 20
71.6573
 30
0.0
 10
-163.4131
 20
71.6573
 30
0.0
 10
-166.9117
 20
70.7013
 30
0.0
 10
-172.6519
 20
69.5973
 30
0.0
 10
-174.6346
 20
72.0501
 30
0.0
 10
-174.6346
 20
72.0501
 30
0.0
 10
-175.1732
 20
72.717
 30
0.0
 10
-175.6303
 20
73.4328
 30
0.0
 10
-176.0865
 20
74.1576
 30
0.0
 10
-176.0865
 20
74.1576
 30
0.0
 10
-177.6197
 20
76.5935
 30
0.0
 10
-178.8351
 20
78.014
 30
0.0
 10
-181.1413
 20
79.181
 30
0.0
 10
-181.1413
 20
79.181
 30
0.0
 10
-177.9207
 20
76.672
 30
0.0
 10
-176.2424
 20
73.1831
 30
0.0
 10
-174.919
 20
69.2501
 30
0.0
 10
-174.919
 20
69.2501
 30
0.0
 10
-174.1571
 20
66.987
 30
0.0
 10
-173.0674
 20
62.1612
 30
0.0
 10
-170.8293
 20
61.0196
 30
0.0
 10
-170.8293
 20
61.0196
 30
0.0
 10
-168.3001
 20
59.7287
 30
0.0
 10
-164.7382
 20
63.8926
 30
0.0
 10
-168.6434
 20
64.3211
 30
0.0
 10
-168.6434
 20
64.3211
 30
0.0
 10
-171.6563
 20
64.6516
 30
0.0
 10
-170.6573
 20
70.6519
 30
0.0
 10
-166.047
 20
68.7763
 30
0.0
 10
-166.047
 20
68.7763
 30
0.0
 10
-164.6299
 20
68.2004
 30
0.0
 10
-163.7661
 20
67.2148
 30
0.0
 10
-163.4131
 20
66.0306
 30
0.0
  0
SPLINE
  5
47
330
1F
100
AcDbEntity
  8
layer 1
 62
     7
100
AcDbSpline
210
0.0
220
0.0
230
1.0
 70
    11
 71
     3
 72
    68
 73
    64
 74
     0
 42
0.0000000001
 43
0.0000000001
 12
1.0
 22
0.0
 32
0.0
 13
1.0
 23
0.0
 33
0.0
 40
0.0
 40
0.0
 40
0.0
 40
0.0
 40
0.0588235294117647
 40
0.0588235294117647
 40
0.0588235294117647
 40
0.0588235294117647
 40
0.1176470588235294
 40
0.1176470588235294
 40
0.1176470588235294
 40
0.1176470588235294
 40
0.1764705882352941
 40
0.1764705882352941
 40
0.1764705882352941
 40
0.1764705882352941
 40
0.2352941176470588
 40
0.2352941176470588
 40
0.2352941176470588
 40
0.2352941176470588
 40
0.2941176470588235
 40
0.2941176470588235
 40
0.2941176470588235
 40
0.2941176470588235
 40
0.3529411764705883
 40
0.3529411764705883
 40
0.3529411764705883
 40
0.3529411764705883
 40
0.4117647058823529
 40
0.4117647058823529
 40
0.4117647058823529
 40
0.4117647058823529
 40
0.4705882352941176
 40
0.4705882352941176
 40
0.4705882352941176
 40
0.4705882352941176
 40
0.5294117647058824
 40
0.5294117647058824
 40
0.5294117647058824
 40
0.5294117647058824
 40
0.5882352941176471
 40
0.5882352941176471
 40
0.5882352941176471
 40
0.5882352941176471
 40
0.6470588235294118
 40
0.6470588235294118
 40
0.6470588235294118
 40
0.6470588235294118
 40
0.7058823529411765
 40
0.7058823529411765
 40
0.7058823529411765
 40
0.7058823529411765
 40
0.7647058823529411
 40
0.7647058823529411
 40
0.7647058823529411
 40
0.7647058823529411
 40
0.8235294117647058
 40
0.8235294117647058
 40
0.8235294117647058
 40
0.8235294117647058
 40
0.8823529411764706
 40
0.8823529411764706
 40
0.8823529411764706
 40
0.8823529411764706
 40
1.0
 40
1.0
 40
1.0
 40
1.0
 10
-163.4131
 20
88.674
 30
0.0
 10
-159.9138
 20
89.6297
 30
0.0
 10
-154.1736
 20
90.7331
 30
0.0
 10
-152.1918
 20
88.2803
 30
0.0
 10
-152.1918
 20
88.2803
 30
0.0
 10
-151.6526
 20
87.6137
 30
0.0
 10
-151.1955
 20
86.8979
 30
0.0
 10
-150.7397
 20
86.1728
 30
0.0
 10
-150.7397
 20
86.1728
 30
0.0
 10
-149.2064
 20
83.7372
 30
0.0
 10
-147.9911
 20
82.3167
 30
0.0
 10
-145.6845
 20
81.1494
 30
0.0
 10
-145.6845
 20
81.1494
 30
0.0
 10
-148.9049
 20
83.659
 30
0.0
 10
-150.5838
 20
87.1479
 30
0.0
 10
-151.9072
 20
91.0808
 30
0.0
 10
-151.9072
 20
91.0808
 30
0.0
 10
-152.6687
 20
93.3444
 30
0.0
 10
-153.7584
 20
98.1698
 30
0.0
 10
-155.9962
 20
99.3114
 30
0.0
 10
-155.9962
 20
99.3114
 30
0.0
 10
-158.5258
 20
100.602
 30
0.0
 10
-162.0876
 20
96.4384
 30
0.0
 10
-158.1825
 20
96.0099
 30
0.0
 10
-158.1825
 20
96.0099
 30
0.0
 10
-155.1693
 20
95.6794
 30
0.0
 10
-156.1683
 20
89.6794
 30
0.0
 10
-160.7792
 20
91.5544
 30
0.0
 10
-160.7792
 20
91.5544
 30
0.0
 10
-162.1959
 20
92.1306
 30
0.0
 10
-163.0601
 20
93.1159
 30
0.0
 10
-163.4131
 20
94.3004
 30
0.0
 10
-163.4131
 20
94.3004
 30
0.0
 10
-163.7661
 20
93.1159
 30
0.0
 10
-164.6299
 20
92.1306
 30
0.0
 10
-166.047
 20
91.5544
 30
0.0
 10
-166.047
 20
91.5544
 30
0.0
 10
-170.6573
 20
89.6794
 30
0.0
 10
-171.6563
 20
95.6794
 30
0.0
 10
-168.6434
 20
96.0099
 30
0.0
 10
-168.6434
 20
96.0099
 30
0.0
 10
-164.7382
 20
96.4384
 30
0.0
 10
-168.3001
 20
100.602
 30
0.0
 10
-170.8293
 20
99.3114
 30
0.0
 10
-170.8293
 20
99.3114
 30
0.0
 10
-173.0674
 20
98.1698
 30
0.0
 10
-174.1571
 20
93.3444
 30
0.0
 10
-174.919
 20
91.0808
 30
0.0
 10
-174.919
 20
91.0808
 30
0.0
 10
-176.2424
 20
87.1479
 30
0.0
 10
-177.9207
 20
83.659
 30
0.0
 10
-181.1413
 20
81.1494
 30
0.0
 10
-181.1413
 20
81.1494
 30
0.0
 10
-178.8351
 20
82.3167
 30
0.0
 10
-177.6197
 20
83.7372
 30
0.0
 10
-176.0865
 20
86.1728
 30
0.0
 10
-176.0865
 20
86.1728
 30
0.0
 10
-175.6303
 20
86.8979
 30
0.0
 10
-175.1732
 20
87.6137
 30
0.0
 10
-174.6346
 20
88.2803
 30
0.0
 10
-174.6346
 20
88.2803
 30
0.0
 10
-172.6519
 20
90.7331
 30
0.0
 10
-166.9117
 20
89.6297
 30
0.0
 10
-163.4131
 20
88.674
 30
0.0
  0
SPLINE
  5
48
330
1F
100
AcDbEntity
  8
layer 1
 62
     7
100
AcDbSpline
210
0.0
220
0.0
230
1.0
 70
    11
 71
     3
 72
    68
 73
    64
 74
     0
 42
0.0000000001
 43
0.0000000001
 12
1.0
 22
0.0
 32
0.0
 13
1.0
 23
0.0
 33
0.0
 40
0.0
 40
0.0
 40
0.0
 40
0.0
 40
0.0588235294117647
 40
0.0588235294117647
 40
0.0588235294117647
 40
0.0588235294117647
 40
0.1176470588235294
 40
0.1176470588235294
 40
0.1176470588235294
 40
0.1176470588235294
 40
0.1764705882352941
 40
0.1764705882352941
 40
0.1764705882352941
 40
0.1764705882352941
 40
0.2352941176470588
 40
0.2352941176470588
 40
0.2352941176470588
 40
0.2352941176470588
 40
0.2941176470588235
 40
0.2941176470588235
 40
0.2941176470588235
 40
0.2941176470588235
 40
0.3529411764705883
 40
0.3529411764705883
 40
0.3529411764705883
 40
0.3529411764705883
 40
0.4117647058823529
 40
0.4117647058823529
 40
0.4117647058823529
 40
0.4117647058823529
 40
0.4705882352941176
 40
0.4705882352941176
 40
0.4705882352941176
 40
0.4705882352941176
 40
0.5294117647058824
 40
0.5294117647058824
 40
0.5294117647058824
 40
0.5294117647058824
 40
0.5882352941176471
 40
0.5882352941176471
 40
0.5882352941176471
 40
0.5882352941176471
 40
0.6470588235294118
 40
0.6470588235294118
 40
0.6470588235294118
 40
0.6470588235294118
 40
0.7058823529411765
 40
0.7058823529411765
 40
0.7058823529411765
 40
0.7058823529411765
 40
0.7647058823529411
 40
0.7647058823529411
 40
0.7647058823529411
 40
0.7647058823529411
 40
0.8235294117647058
 40
0.8235294117647058
 40
0.8235294117647058
 40
0.8235294117647058
 40
0.8823529411764706
 40
0.8823529411764706
 40
0.8823529411764706
 40
0.8823529411764706
 40
1.0
 40
1.0
 40
1.0
 40
1.0
 10
-163.4131
 20
119.2673
 30
0.0
 10
-159.9138
 20
118.3117
 30
0.0
 10
-154.1736
 20
117.208
 30
0.0
 10
-152.1918
 20
119.661
 30
0.0
 10
-152.1918
 20
119.661
 30
0.0
 10
-151.6526
 20
120.3273
 30
0.0
 10
-151.1955
 20
121.0434
 30
0.0
 10
-150.7397
 20
121.7679
 30
0.0
 10
-150.7397
 20
121.7679
 30
0.0
 10
-149.2064
 20
124.2038
 30
0.0
 10
-147.9911
 20
125.6244
 30
0.0
 10
-145.6845
 20
126.7913
 30
0.0
 10
-145.6845
 20
126.7913
 30
0.0
 10
-148.9049
 20
124.2821
 30
0.0
 10
-150.5838
 20
120.7935
 30
0.0
 10
-151.9072
 20
116.8602
 30
0.0
 10
-151.9072
 20
116.8602
 30
0.0
 10
-152.6687
 20
114.597
 30
0.0
 10
-153.7584
 20
109.7713
 30
0.0
 10
-155.9962
 20
108.6293
 30
0.0
 10
-155.9962
 20
108.6293
 30
0.0
 10
-158.5258
 20
107.3394
 30
0.0
 10
-162.0876
 20
111.502
 30
0.0
 10
-158.1825
 20
111.9315
 30
0.0
 10
-158.1825
 20
111.9315
 30
0.0
 10
-155.1693
 20
112.262
 30
0.0
 10
-156.1683
 20
118.262
 30
0.0
 10
-160.7792
 20
116.3864
 30
0.0
 10
-160.7792
 20
116.3864
 30
0.0
 10
-162.1959
 20
115.8108
 30
0.0
 10
-163.0601
 20
114.8249
 30
0.0
 10
-163.4131
 20
113.641
 30
0.0
 10
-163.4131
 20
113.641
 30
0.0
 10
-163.7661
 20
114.8249
 30
0.0
 10
-164.6299
 20
115.8108
 30
0.0
 10
-166.047
 20
116.3864
 30
0.0
 10
-166.047
 20
116.3864
 30
0.0
 10
-170.6573
 20
118.262
 30
0.0
 10
-171.6563
 20
112.262
 30
0.0
 10
-168.6434
 20
111.9315
 30
0.0
 10
-168.6434
 20
111.9315
 30
0.0
 10
-164.7382
 20
111.502
 30
0.0
 10
-168.3001
 20
107.3394
 30
0.0
 10
-170.8293
 20
108.6293
 30
0.0
 10
-170.8293
 20
108.6293
 30
0.0
 10
-173.0674
 20
109.7713
 30
0.0
 10
-174.1571
 20
114.597
 30
0.0
 10
-174.919
 20
116.8602
 30
0.0
 10
-174.919
 20
116.8602
 30
0.0
 10
-176.2424
 20
120.7935
 30
0.0
 10
-177.9207
 20
124.2821
 30
0.0
 10
-181.1413
 20
126.7913
 30
0.0
 10
-181.1413
 20
126.7913
 30
0.0
 10
-178.8351
 20
125.6244
 30
0.0
 10
-177.6197
 20
124.2038
 30
0.0
 10
-176.0865
 20
121.7679
 30
0.0
 10
-176.0865
 20
121.7679
 30
0.0
 10
-175.6303
 20
121.0434
 30
0.0
 10
-175.1732
 20
120.3273
 30
0.0
 10
-174.6346
 20
119.661
 30
0.0
 10
-174.6346
 20
119.661
 30
0.0
 10
-172.6519
 20
117.208
 30
0.0
 10
-166.9117
 20
118.3117
 30
0.0
 10
-163.4131
 20
119.2673
 30
0.0
  0
SPLINE
  5
49
330
1F
100
AcDbEntity
  8
layer 1
 62
     7
100
AcDbSpline
210
0.0
220
0.0
230
1.0
 70
    11
 71
     3
 72
    36
 73
    32
 74
     0
 42
0.0000000001
 43
0.0000000001
 12
1.0
 22
0.0
 32
0.0
 13
1.0
 23
0.0
 33
0.0
 40
0.0
 40
0.0
 40
0.0
 40
0.0
 40
0.1111111111111111
 40
0.1111111111111111
 40
0.1111111111111111
 40
0.1111111111111111
 40
0.2222222222222222
 40
0.2222222222222222
 40
0.2222222222222222
 40
0.2222222222222222
 40
0.3333333333333333
 40
0.3333333333333333
 40
0.3333333333333333
 40
0.3333333333333333
 40
0.4444444444444444
 40
0.4444444444444444
 40
0.4444444444444444
 40
0.4444444444444444
 40
0.5555555555555556
 40
0.5555555555555556
 40
0.5555555555555556
 40
0.5555555555555556
 40
0.6666666666666666
 40
0.6666666666666666
 40
0.6666666666666666
 40
0.6666666666666666
 40
0.7777777777777778
 40
0.7777777777777778
 40
0.7777777777777778
 40
0.7777777777777778
 40
1.0
 40
1.0
 40
1.0
 40
1.0
 10
-92.9182
 20
39.6615
 30
0.0
 10
-96.6597
 20
39.4312
 30
0.0
 10
-96.8834
 20
37.7507
 30
0.0
 10
-100.1315
 20
34.8142
 30
0.0
 10
-100.1315
 20
34.8142
 30
0.0
 10
-101.543
 20
33.5372
 30
0.0
 10
-104.286
 20
32.781
 30
0.0
 10
-107.0175
 20
32.3613
 30
0.0
 10
-107.0175
 20
32.3613
 30
0.0
 10
-104.286
 20
31.9415
 30
0.0
 10
-101.543
 20
31.1846
 30
0.0
 10
-100.1315
 20
29.908
 30
0.0
 10
-100.1315
 20
29.908
 30
0.0
 10
-96.8834
 20
26.9711
 30
0.0
 10
-96.6597
 20
25.2907
 30
0.0
 10
-92.9182
 20
25.0606
 30
0.0
 10
-92.9182
 20
25.0606
 30
0.0
 10
-89.177
 20
25.2907
 30
0.0
 10
-88.9532
 20
26.9711
 30
0.0
 10
-85.7054
 20
29.908
 30
0.0
 10
-85.7054
 20
29.908
 30
0.0
 10
-84.2939
 20
31.1846
 30
0.0
 10
-81.5511
 20
31.9415
 30
0.0
 10
-78.8192
 20
32.3613
 30
0.0
 10
-78.8192
 20
32.3613
 30
0.0
 10
-81.5511
 20
32.781
 30
0.0
 10
-84.2939
 20
33.5372
 30
0.0
 10
-85.7054
 20
34.8142
 30
0.0
 10
-85.7054
 20
34.8142
 30
0.0
 10
-88.9532
 20
37.7507
 30
0.0
 10
-89.177
 20
39.4312
 30
0.0
 10
-92.9182
 20
39.6615
 30
0.0
  0
SPLINE
  5
4A
330
1F
100
AcDbEntity
  8
layer 1
 62
     7
100
AcDbSpline
210
0.0
220
0.0
230
1.0
 70
    11
 71
     3
 72
    68
 73
    64
 74
     0
 42
0.0000000001
 43
0.0000000001
 12
1.0
 22
0.0
 32
0.0
 13
1.0
 23
0.0
 33
0.0
 40
0.0
 40
0.0
 40
0.0
 40
0.0
 40
0.0588235294117647
 40
0.0588235294117647
 40
0.0588235294117647
 40
0.0588235294117647
 40
0.1176470588235294
 40
0.1176470588235294
 40
0.1176470588235294
 40
0.1176470588235294
 40
0.1764705882352941
 40
0.1764705882352941
 40
0.1764705882352941
 40
0.1764705882352941
 40
0.2352941176470588
 40
0.2352941176470588
 40
0.2352941176470588
 40
0.2352941176470588
 40
0.2941176470588235
 40
0.2941176470588235
 40
0.2941176470588235
 40
0.2941176470588235
 40
0.3529411764705883
 40
0.3529411764705883
 40
0.3529411764705883
 40
0.3529411764705883
 40
0.4117647058823529
 40
0.4117647058823529
 40
0.4117647058823529
 40
0.4117647058823529
 40
0.4705882352941176
 40
0.4705882352941176
 40
0.4705882352941176
 40
0.4705882352941176
 40
0.5294117647058824
 40
0.5294117647058824
 40
0.5294117647058824
 40
0.5294117647058824
 40
0.5882352941176471
 40
0.5882352941176471
 40
0.5882352941176471
 40
0.5882352941176471
 40
0.6470588235294118
 40
0.6470588235294118
 40
0.6470588235294118
 40
0.6470588235294118
 40
0.7058823529411765
 40
0.7058823529411765
 40
0.7058823529411765
 40
0.7058823529411765
 40
0.7647058823529411
 40
0.7647058823529411
 40
0.7647058823529411
 40
0.7647058823529411
 40
0.8235294117647058
 40
0.8235294117647058
 40
0.8235294117647058
 40
0.8235294117647058
 40
0.8823529411764706
 40
0.8823529411764706
 40
0.8823529411764706
 40
0.8823529411764706
 40
1.0
 40
1.0
 40
1.0
 40
1.0
 10
-92.9182
 20
46.4958
 30
0.0
 10
-93.2715
 20
45.312
 30
0.0
 10
-94.1354
 20
44.3256
 30
0.0
 10
-95.5524
 20
43.7501
 30
0.0
 10
-95.5524
 20
43.7501
 30
0.0
 10
-100.163
 20
41.8748
 30
0.0
 10
-101.1616
 20
47.8745
 30
0.0
 10
-98.1488
 20
48.2056
 30
0.0
 10
-98.1488
 20
48.2056
 30
0.0
 10
-94.2437
 20
48.6344
 30
0.0
 10
-97.8055
 20
52.7973
 30
0.0
 10
-100.3347
 20
51.5071
 30
0.0
 10
-100.3347
 20
51.5071
 30
0.0
 10
-102.5729
 20
50.3655
 30
0.0
 10
-103.6625
 20
45.5394
 30
0.0
 10
-104.4244
 20
43.2766
 30
0.0
 10
-104.4244
 20
43.2766
 30
0.0
 10
-105.7475
 20
39.3434
 30
0.0
 10
-107.426
 20
35.8544
 30
0.0
 10
-110.6467
 20
33.3449
 30
0.0
 10
-110.6467
 20
33.3449
 30
0.0
 10
-108.3402
 20
34.5127
 30
0.0
 10
-107.1252
 20
35.9327
 30
0.0
 10
-105.5916
 20
38.3688
 30
0.0
 10
-105.5916
 20
38.3688
 30
0.0
 10
-105.1354
 20
39.0933
 30
0.0
 10
-104.6786
 20
39.8095
 30
0.0
 10
-104.1394
 20
40.4757
 30
0.0
 10
-104.1394
 20
40.4757
 30
0.0
 10
-102.1573
 20
42.9285
 30
0.0
 10
-96.4174
 20
41.8252
 30
0.0
 10
-92.9182
 20
40.8697
 30
0.0
 10
-92.9182
 20
40.8697
 30
0.0
 10
-89.4192
 20
41.8252
 30
0.0
 10
-83.6794
 20
42.9285
 30
0.0
 10
-81.6966
 20
40.4757
 30
0.0
 10
-81.6966
 20
40.4757
 30
0.0
 10
-81.1581
 20
39.8095
 30
0.0
 10
-80.7009
 20
39.0933
 30
0.0
 10
-80.2451
 20
38.3688
 30
0.0
 10
-80.2451
 20
38.3688
 30
0.0
 10
-78.7115
 20
35.9327
 30
0.0
 10
-77.4964
 20
34.5127
 30
0.0
 10
-75.1897
 20
33.3449
 30
0.0
 10
-75.1897
 20
33.3449
 30
0.0
 10
-78.4109
 20
35.8544
 30
0.0
 10
-80.0889
 20
39.3434
 30
0.0
 10
-81.4125
 20
43.2766
 30
0.0
 10
-81.4125
 20
43.2766
 30
0.0
 10
-82.1742
 20
45.5394
 30
0.0
 10
-83.2637
 20
50.3655
 30
0.0
 10
-85.502
 20
51.5071
 30
0.0
 10
-85.502
 20
51.5071
 30
0.0
 10
-88.0312
 20
52.7973
 30
0.0
 10
-91.593
 20
48.6344
 30
0.0
 10
-87.6879
 20
48.2056
 30
0.0
 10
-87.6879
 20
48.2056
 30
0.0
 10
-84.675
 20
47.8745
 30
0.0
 10
-85.6737
 20
41.8748
 30
0.0
 10
-90.2846
 20
43.7501
 30
0.0
 10
-90.2846
 20
43.7501
 30
0.0
 10
-91.7013
 20
44.3256
 30
0.0
 10
-92.5651
 20
45.312
 30
0.0
 10
-92.9182
 20
46.4958
 30
0.0
  0
SPLINE
  5
4B
330
1F
100
AcDbEntity
  8
layer 1
 62
     7
100
AcDbSpline
210
0.0
220
0.0
230
1.0
 70
    11
 71
     3
 72
   188
 73
   184
 74
     0
 42
0.0000000001
 43
0.0000000001
 12
1.0
 22
0.0
 32
0.0
 13
1.0
 23
0.0
 33
0.0
 40
0.0
 40
0.0
 40
0.0
 40
0.0
 40
0.0212765957446809
 40
0.0212765957446809
 40
0.0212765957446809
 40
0.0212765957446809
 40
0.0425531914893617
 40
0.0425531914893617
 40
0.0425531914893617
 40
0.0425531914893617
 40
0.0638297872340425
 40
0.0638297872340425
 40
0.0638297872340425
 40
0.0638297872340425
 40
0.0851063829787234
 40
0.0851063829787234
 40
0.0851063829787234
 40
0.0851063829787234
 40
0.1063829787234043
 40
0.1063829787234043
 40
0.1063829787234043
 40
0.1063829787234043
 40
0.1276595744680851
 40
0.1276595744680851
 40
0.1276595744680851
 40
0.1276595744680851
 40
0.148936170212766
 40
0.148936170212766
 40
0.148936170212766
 40
0.148936170212766
 40
0.1702127659574468
 40
0.1702127659574468
 40
0.1702127659574468
 40
0.1702127659574468
 40
0.1914893617021277
 40
0.1914893617021277
 40
0.1914893617021277
 40
0.1914893617021277
 40
0.2127659574468085
 40
0.2127659574468085
 40
0.2127659574468085
 40
0.2127659574468085
 40
0.2340425531914894
 40
0.2340425531914894
 40
0.2340425531914894
 40
0.2340425531914894
 40
0.2553191489361702
 40
0.2553191489361702
 40
0.2553191489361702
 40
0.2553191489361702
 40
0.2765957446808511
 40
0.2765957446808511
 40
0.2765957446808511
 40
0.2765957446808511
 40
0.2978723404255319
 40
0.2978723404255319
 40
0.2978723404255319
 40
0.2978723404255319
 40
0.3191489361702128
 40
0.3191489361702128
 40
0.3191489361702128
 40
0.3191489361702128
 40
0.3404255319148936
 40
0.3404255319148936
 40
0.3404255319148936
 40
0.3404255319148936
 40
0.3617021276595745
 40
0.3617021276595745
 40
0.3617021276595745
 40
0.3617021276595745
 40
0.3829787234042553
 40
0.3829787234042553
 40
0.3829787234042553
 40
0.3829787234042553
 40
0.4042553191489361
 40
0.4042553191489361
 40
0.4042553191489361
 40
0.4042553191489361
 40
0.425531914893617
 40
0.425531914893617
 40
0.425531914893617
 40
0.425531914893617
 40
0.4468085106382979
 40
0.4468085106382979
 40
0.4468085106382979
 40
0.4468085106382979
 40
0.4680851063829787
 40
0.4680851063829787
 40
0.4680851063829787
 40
0.4680851063829787
 40
0.4893617021276596
 40
0.4893617021276596
 40
0.4893617021276596
 40
0.4893617021276596
 40
0.5106382978723404
 40
0.5106382978723404
 40
0.5106382978723404
 40
0.5106382978723404
 40
0.5319148936170213
 40
0.5319148936170213
 40
0.5319148936170213
 40
0.5319148936170213
 40
0.5531914893617021
 40
0.5531914893617021
 40
0.5531914893617021
 40
0.5531914893617021
 40
0.574468085106383
 40
0.574468085106383
 40
0.574468085106383
 40
0.574468085106383
 40
0.5957446808510638
 40
0.5957446808510638
 40
0.5957446808510638
 40
0.5957446808510638
 40
0.6170212765957447
 40
0.6170212765957447
 40
0.6170212765957447
 40
0.6170212765957447
 40
0.6382978723404256
 40
0.6382978723404256
 40
0.6382978723404256
 40
0.6382978723404256
 40
0.6595744680851063
 40
0.6595744680851063
 40
0.6595744680851063
 40
0.6595744680851063
 40
0.6808510638297872
 40
0.6808510638297872
 40
0.6808510638297872
 40
0.6808510638297872
 40
0.7021276595744681
 40
0.7021276595744681
 40
0.7021276595744681
 40
0.7021276595744681
 40
0.723404255319149
 40
0.723404255319149
 40
0.723404255319149
 40
0.723404255319149
 40
0.7446808510638298
 40
0.7446808510638298
 40
0.7446808510638298
 40
0.7446808510638298
 40
0.7659574468085106
 40
0.7659574468085106
 40
0.7659574468085106
 40
0.7659574468085106
 40
0.7872340425531915
 40
0.7872340425531915
 40
0.7872340425531915
 40
0.7872340425531915
 40
0.8085106382978723
 40
0.8085106382978723
 40
0.8085106382978723
 40
0.8085106382978723
 40
0.8297872340425532
 40
0.8297872340425532
 40
0.8297872340425532
 40
0.8297872340425532
 40
0.851063829787234
 40
0.851063829787234
 40
0.851063829787234
 40
0.851063829787234
 40
0.8723404255319149
 40
0.8723404255319149
 40
0.8723404255319149
 40
0.8723404255319149
 40
0.8936170212765957
 40
0.8936170212765957
 40
0.8936170212765957
 40
0.8936170212765957
 40
0.9148936170212766
 40
0.9148936170212766
 40
0.9148936170212766
 40
0.9148936170212766
 40
0.9361702127659575
 40
0.9361702127659575
 40
0.9361702127659575
 40
0.9361702127659575
 40
0.9574468085106383
 40
0.9574468085106383
 40
0.9574468085106383
 40
0.9574468085106383
 40
1.0
 40
1.0
 40
1.0
 40
1.0
 10
-128.1656
 20
22.0951
 30
0.0
 10
-128.1235
 20
22.228
 30
0.0
 10
-128.0765
 20
22.36
 30
0.0
 10
-128.0262
 20
22.4888
 30
0.0
 10
-128.0262
 20
22.4888
 30
0.0
 10
-126.2876
 20
26.8947
 30
0.0
 10
-122.2558
 20
29.6111
 30
0.0
 10
-117.5989
 20
27.7175
 30
0.0
 10
-117.5989
 20
27.7175
 30
0.0
 10
-114.5792
 20
26.4902
 30
0.0
 10
-111.9997
 20
23.8024
 30
0.0
 10
-113.0555
 20
20.2971
 30
0.0
 10
-113.0555
 20
20.2971
 30
0.0
 10
-114.8963
 20
14.1839
 30
0.0
 10
-121.5509
 20
17.554
 30
0.0
 10
-119.978
 20
21.5421
 30
0.0
 10
-119.978
 20
21.5421
 30
0.0
 10
-119.7867
 20
22.0286
 30
0.0
 10
-119.3476
 20
22.5271
 30
0.0
 10
-118.8496
 20
22.7179
 30
0.0
 10
-118.8496
 20
22.7179
 30
0.0
 10
-118.6064
 20
23.2272
 30
0.0
 10
-118.9994
 20
23.6502
 30
0.0
 10
-119.4623
 20
23.8394
 30
0.0
 10
-119.4623
 20
23.8394
 30
0.0
 10
-124.2096
 20
25.7848
 30
0.0
 10
-127.3842
 20
15.4782
 30
0.0
 10
-119.9496
 20
12.4563
 30
0.0
 10
-119.9496
 20
12.4563
 30
0.0
 10
-118.3794
 20
11.8181
 30
0.0
 10
-115.9658
 20
11.6572
 30
0.0
 10
-114.3162
 20
11.8896
 30
0.0
 10
-114.3162
 20
11.8896
 30
0.0
 10
-111.2191
 20
12.3243
 30
0.0
 10
-108.9755
 20
14.0462
 30
0.0
 10
-107.7739
 20
16.9926
 30
0.0
 10
-107.7739
 20
16.9926
 30
0.0
 10
-106.5189
 20
20.0697
 30
0.0
 10
-106.9074
 20
23.3431
 30
0.0
 10
-108.408
 20
26.2479
 30
0.0
 10
-108.408
 20
26.2479
 30
0.0
 10
-109.5791
 20
28.5145
 30
0.0
 10
-111.6848
 20
30.9127
 30
0.0
 10
-114.0541
 20
31.9196
 30
0.0
 10
-114.0541
 20
31.9196
 30
0.0
 10
-114.7014
 20
32.197
 30
0.0
 10
-114.7062
 20
32.525
 30
0.0
 10
-114.0541
 20
32.8026
 30
0.0
 10
-114.0541
 20
32.8026
 30
0.0
 10
-111.6848
 20
33.8092
 30
0.0
 10
-109.5791
 20
36.2074
 30
0.0
 10
-108.408
 20
38.4736
 30
0.0
 10
-108.408
 20
38.4736
 30
0.0
 10
-106.9074
 20
41.3791
 30
0.0
 10
-106.5189
 20
44.6525
 30
0.0
 10
-107.7739
 20
47.7296
 30
0.0
 10
-107.7739
 20
47.7296
 30
0.0
 10
-108.9755
 20
50.676
 30
0.0
 10
-111.2191
 20
52.3974
 30
0.0
 10
-114.3162
 20
52.8325
 30
0.0
 10
-114.3162
 20
52.8325
 30
0.0
 10
-115.9658
 20
53.065
 30
0.0
 10
-118.3794
 20
52.9037
 30
0.0
 10
-119.9496
 20
52.2656
 30
0.0
 10
-119.9496
 20
52.2656
 30
0.0
 10
-127.3842
 20
49.244
 30
0.0
 10
-124.2096
 20
38.9374
 30
0.0
 10
-119.4623
 20
40.8823
 30
0.0
 10
-119.4623
 20
40.8823
 30
0.0
 10
-118.9994
 20
41.0719
 30
0.0
 10
-118.6064
 20
41.4949
 30
0.0
 10
-118.8496
 20
42.0039
 30
0.0
 10
-118.8496
 20
42.0039
 30
0.0
 10
-119.3476
 20
42.1948
 30
0.0
 10
-119.7867
 20
42.6936
 30
0.0
 10
-119.978
 20
43.1798
 30
0.0
 10
-119.978
 20
43.1798
 30
0.0
 10
-121.5509
 20
47.1682
 30
0.0
 10
-114.8963
 20
50.5381
 30
0.0
 10
-113.0555
 20
44.4246
 30
0.0
 10
-113.0555
 20
44.4246
 30
0.0
 10
-111.9997
 20
40.9196
 30
0.0
 10
-114.5792
 20
38.2319
 30
0.0
 10
-117.5989
 20
37.0043
 30
0.0
 10
-117.5989
 20
37.0043
 30
0.0
 10
-122.2558
 20
35.1111
 30
0.0
 10
-126.2876
 20
37.8278
 30
0.0
 10
-128.0262
 20
42.2333
 30
0.0
 10
-128.0262
 20
42.2333
 30
0.0
 10
-128.0765
 20
42.3622
 30
0.0
 10
-128.1235
 20
42.4935
 30
0.0
 10
-128.1656
 20
42.627
 30
0.0
 10
-128.1656
 20
42.627
 30
0.0
 10
-128.2077
 20
42.4935
 30
0.0
 10
-128.2545
 20
42.3622
 30
0.0
 10
-128.3054
 20
42.2333
 30
0.0
 10
-128.3054
 20
42.2333
 30
0.0
 10
-130.044
 20
37.8278
 30
0.0
 10
-134.0751
 20
35.1111
 30
0.0
 10
-138.7324
 20
37.0043
 30
0.0
 10
-138.7324
 20
37.0043
 30
0.0
 10
-141.7526
 20
38.2319
 30
0.0
 10
-144.3319
 20
40.9196
 30
0.0
 10
-143.2761
 20
44.4246
 30
0.0
 10
-143.2761
 20
44.4246
 30
0.0
 10
-141.4349
 20
50.5381
 30
0.0
 10
-134.7803
 20
47.1682
 30
0.0
 10
-136.3532
 20
43.1798
 30
0.0
 10
-136.3532
 20
43.1798
 30
0.0
 10
-136.5449
 20
42.6936
 30
0.0
 10
-136.9837
 20
42.1948
 30
0.0
 10
-137.4813
 20
42.0039
 30
0.0
 10
-137.4813
 20
42.0039
 30
0.0
 10
-137.7249
 20
41.4949
 30
0.0
 10
-137.3321
 20
41.0719
 30
0.0
 10
-136.8693
 20
40.8823
 30
0.0
 10
-136.8693
 20
40.8823
 30
0.0
 10
-132.122
 20
38.9374
 30
0.0
 10
-128.9471
 20
49.244
 30
0.0
 10
-136.3816
 20
52.2656
 30
0.0
 10
-136.3816
 20
52.2656
 30
0.0
 10
-137.9519
 20
52.9037
 30
0.0
 10
-140.3655
 20
53.065
 30
0.0
 10
-142.015
 20
52.8325
 30
0.0
 10
-142.015
 20
52.8325
 30
0.0
 10
-145.1124
 20
52.3974
 30
0.0
 10
-147.3555
 20
50.676
 30
0.0
 10
-148.5574
 20
47.7296
 30
0.0
 10
-148.5574
 20
47.7296
 30
0.0
 10
-149.8124
 20
44.6525
 30
0.0
 10
-149.4242
 20
41.3791
 30
0.0
 10
-147.9236
 20
38.4736
 30
0.0
 10
-147.9236
 20
38.4736
 30
0.0
 10
-146.7522
 20
36.2074
 30
0.0
 10
-144.6464
 20
33.8092
 30
0.0
 10
-142.2768
 20
32.8026
 30
0.0
 10
-142.2768
 20
32.8026
 30
0.0
 10
-141.625
 20
32.525
 30
0.0
 10
-141.6302
 20
32.197
 30
0.0
 10
-142.2768
 20
31.9196
 30
0.0
 10
-142.2768
 20
31.9196
 30
0.0
 10
-144.6464
 20
30.9127
 30
0.0
 10
-146.7522
 20
28.5145
 30
0.0
 10
-147.9236
 20
26.2479
 30
0.0
 10
-147.9236
 20
26.2479
 30
0.0
 10
-149.4242
 20
23.3431
 30
0.0
 10
-149.8124
 20
20.0697
 30
0.0
 10
-148.5574
 20
16.9926
 30
0.0
 10
-148.5574
 20
16.9926
 30
0.0
 10
-147.3555
 20
14.0462
 30
0.0
 10
-145.1124
 20
12.3243
 30
0.0
 10
-142.015
 20
11.8896
 30
0.0
 10
-142.015
 20
11.8896
 30
0.0
 10
-140.3655
 20
11.6572
 30
0.0
 10
-137.9519
 20
11.8181
 30
0.0
 10
-136.3816
 20
12.4563
 30
0.0
 10
-136.3816
 20
12.4563
 30
0.0
 10
-128.9471
 20
15.4782
 30
0.0
 10
-132.122
 20
25.7848
 30
0.0
 10
-136.8693
 20
23.8394
 30
0.0
 10
-136.8693
 20
23.8394
 30
0.0
 10
-137.3321
 20
23.6502
 30
0.0
 10
-137.7249
 20
23.2272
 30
0.0
 10
-137.4813
 20
22.7179
 30
0.0
 10
-137.4813
 20
22.7179
 30
0.0
 10
-136.9837
 20
22.5271
 30
0.0
 10
-136.5449
 20
22.0286
 30
0.0
 10
-136.3532
 20
21.5421
 30
0.0
 10
-136.3532
 20
21.5421
 30
0.0
 10
-134.7803
 20
17.554
 30
0.0
 10
-141.4349
 20
14.1839
 30
0.0
 10
-143.2761
 20
20.2971
 30
0.0
 10
-143.2761
 20
20.2971
 30
0.0
 10
-144.3319
 20
23.8024
 30
0.0
 10
-141.7526
 20
26.4902
 30
0.0
 10
-138.7324
 20
27.7175
 30
0.0
 10
-138.7324
 20
27.7175
 30
0.0
 10
-134.0751
 20
29.6111
 30
0.0
 10
-130.044
 20
26.8947
 30
0.0
 10
-128.3054
 20
22.4888
 30
0.0
 10
-128.3054
 20
22.4888
 30
0.0
 10
-128.2545
 20
22.36
 30
0.0
 10
-128.2077
 20
22.228
 30
0.0
 10
-128.1656
 20
22.0951
 30
0.0
  0
SPLINE
  5
4C
330
1F
100
AcDbEntity
  8
layer 1
 62
     7
100
AcDbSpline
210
0.0
220
0.0
230
1.0
 70
    11
 71
     3
 72
    68
 73
    64
 74
     0
 42
0.0000000001
 43
0.0000000001
 12
1.0
 22
0.0
 32
0.0
 13
1.0
 23
0.0
 33
0.0
 40
0.0
 40
0.0
 40
0.0
 40
0.0
 40
0.0588235294117647
 40
0.0588235294117647
 40
0.0588235294117647
 40
0.0588235294117647
 40
0.1176470588235294
 40
0.1176470588235294
 40
0.1176470588235294
 40
0.1176470588235294
 40
0.1764705882352941
 40
0.1764705882352941
 40
0.1764705882352941
 40
0.1764705882352941
 40
0.2352941176470588
 40
0.2352941176470588
 40
0.2352941176470588
 40
0.2352941176470588
 40
0.2941176470588235
 40
0.2941176470588235
 40
0.2941176470588235
 40
0.2941176470588235
 40
0.3529411764705883
 40
0.3529411764705883
 40
0.3529411764705883
 40
0.3529411764705883
 40
0.4117647058823529
 40
0.4117647058823529
 40
0.4117647058823529
 40
0.4117647058823529
 40
0.4705882352941176
 40
0.4705882352941176
 40
0.4705882352941176
 40
0.4705882352941176
 40
0.5294117647058824
 40
0.5294117647058824
 40
0.5294117647058824
 40
0.5294117647058824
 40
0.5882352941176471
 40
0.5882352941176471
 40
0.5882352941176471
 40
0.5882352941176471
 40
0.6470588235294118
 40
0.6470588235294118
 40
0.6470588235294118
 40
0.6470588235294118
 40
0.7058823529411765
 40
0.7058823529411765
 40
0.7058823529411765
 40
0.7058823529411765
 40
0.7647058823529411
 40
0.7647058823529411
 40
0.7647058823529411
 40
0.7647058823529411
 40
0.8235294117647058
 40
0.8235294117647058
 40
0.8235294117647058
 40
0.8235294117647058
 40
0.8823529411764706
 40
0.8823529411764706
 40
0.8823529411764706
 40
0.8823529411764706
 40
1.0
 40
1.0
 40
1.0
 40
1.0
 10
-92.9182
 20
23.8531
 30
0.0
 10
-96.4174
 20
22.8967
 30
0.0
 10
-102.1573
 20
21.793
 30
0.0
 10
-104.1394
 20
24.2462
 30
0.0
 10
-104.1394
 20
24.2462
 30
0.0
 10
-104.6786
 20
24.913
 30
0.0
 10
-105.1354
 20
25.6285
 30
0.0
 10
-105.5916
 20
26.3534
 30
0.0
 10
-105.5916
 20
26.3534
 30
0.0
 10
-107.1252
 20
28.7892
 30
0.0
 10
-108.3402
 20
30.2098
 30
0.0
 10
-110.6467
 20
31.377
 30
0.0
 10
-110.6467
 20
31.377
 30
0.0
 10
-107.426
 20
28.8675
 30
0.0
 10
-105.7475
 20
25.3788
 30
0.0
 10
-104.4244
 20
21.4456
 30
0.0
 10
-104.4244
 20
21.4456
 30
0.0
 10
-103.6625
 20
19.1826
 30
0.0
 10
-102.5729
 20
14.3563
 30
0.0
 10
-100.3347
 20
13.215
 30
0.0
 10
-100.3347
 20
13.215
 30
0.0
 10
-97.8055
 20
11.9245
 30
0.0
 10
-94.2437
 20
16.088
 30
0.0
 10
-98.1488
 20
16.5165
 30
0.0
 10
-98.1488
 20
16.5165
 30
0.0
 10
-101.1616
 20
16.8473
 30
0.0
 10
-100.163
 20
22.8477
 30
0.0
 10
-95.5524
 20
20.9723
 30
0.0
 10
-95.5524
 20
20.9723
 30
0.0
 10
-94.1354
 20
20.3958
 30
0.0
 10
-93.2715
 20
19.4099
 30
0.0
 10
-92.9182
 20
18.2261
 30
0.0
 10
-92.9182
 20
18.2261
 30
0.0
 10
-92.5651
 20
19.4099
 30
0.0
 10
-91.7013
 20
20.3958
 30
0.0
 10
-90.2846
 20
20.9723
 30
0.0
 10
-90.2846
 20
20.9723
 30
0.0
 10
-85.6737
 20
22.8477
 30
0.0
 10
-84.675
 20
16.8473
 30
0.0
 10
-87.6879
 20
16.5165
 30
0.0
 10
-87.6879
 20
16.5165
 30
0.0
 10
-91.593
 20
16.088
 30
0.0
 10
-88.0312
 20
11.9245
 30
0.0
 10
-85.502
 20
13.215
 30
0.0
 10
-85.502
 20
13.215
 30
0.0
 10
-83.2637
 20
14.3563
 30
0.0
 10
-82.1742
 20
19.1826
 30
0.0
 10
-81.4125
 20
21.4456
 30
0.0
 10
-81.4125
 20
21.4456
 30
0.0
 10
-80.0889
 20
25.3788
 30
0.0
 10
-78.4109
 20
28.8675
 30
0.0
 10
-75.1897
 20
31.377
 30
0.0
 10
-75.1897
 20
31.377
 30
0.0
 10
-77.4964
 20
30.2098
 30
0.0
 10
-78.7115
 20
28.7892
 30
0.0
 10
-80.2451
 20
26.3534
 30
0.0
 10
-80.2451
 20
26.3534
 30
0.0
 10
-80.7009
 20
25.6285
 30
0.0
 10
-81.1581
 20
24.913
 30
0.0
 10
-81.6966
 20
24.2462
 30
0.0
 10
-81.6966
 20
24.2462
 30
0.0
 10
-83.6794
 20
21.793
 30
0.0
 10
-89.4192
 20
22.8967
 30
0.0
 10
-92.9182
 20
23.8531
 30
0.0
  0
SPLINE
  5
4D
330
1F
100
AcDbEntity
  8
layer 1
 62
     7
100
AcDbSpline
210
0.0
220
0.0
230
1.0
 70
    11
 71
     3
 72
    36
 73
    32
 74
     0
 42
0.0000000001
 43
0.0000000001
 12
1.0
 22
0.0
 32
0.0
 13
1.0
 23
0.0
 33
0.0
 40
0.0
 40
0.0
 40
0.0
 40
0.0
 40
0.1111111111111111
 40
0.1111111111111111
 40
0.1111111111111111
 40
0.1111111111111111
 40
0.2222222222222222
 40
0.2222222222222222
 40
0.2222222222222222
 40
0.2222222222222222
 40
0.3333333333333333
 40
0.3333333333333333
 40
0.3333333333333333
 40
0.3333333333333333
 40
0.4444444444444444
 40
0.4444444444444444
 40
0.4444444444444444
 40
0.4444444444444444
 40
0.5555555555555556
 40
0.5555555555555556
 40
0.5555555555555556
 40
0.5555555555555556
 40
0.6666666666666666
 40
0.6666666666666666
 40
0.6666666666666666
 40
0.6666666666666666
 40
0.7777777777777778
 40
0.7777777777777778
 40
0.7777777777777778
 40
0.7777777777777778
 40
1.0
 40
1.0
 40
1.0
 40
1.0
 10
-92.9182
 20
72.8653
 30
0.0
 10
-96.6597
 20
73.0949
 30
0.0
 10
-96.8834
 20
74.7757
 30
0.0
 10
-100.1315
 20
77.7126
 30
0.0
 10
-100.1315
 20
77.7126
 30
0.0
 10
-101.543
 20
78.9892
 30
0.0
 10
-104.286
 20
79.7454
 30
0.0
 10
-107.0175
 20
80.1653
 30
0.0
 10
-107.0175
 20
80.1653
 30
0.0
 10
-104.286
 20
80.5849
 30
0.0
 10
-101.543
 20
81.3418
 30
0.0
 10
-100.1315
 20
82.6184
 30
0.0
 10
-100.1315
 20
82.6184
 30
0.0
 10
-96.8834
 20
85.5553
 30
0.0
 10
-96.6597
 20
87.2358
 30
0.0
 10
-92.9182
 20
87.4657
 30
0.0
 10
-92.9182
 20
87.4657
 30
0.0
 10
-89.177
 20
87.2358
 30
0.0
 10
-88.9532
 20
85.5553
 30
0.0
 10
-85.7054
 20
82.6184
 30
0.0
 10
-85.7054
 20
82.6184
 30
0.0
 10
-84.2939
 20
81.3418
 30
0.0
 10
-81.5511
 20
80.5849
 30
0.0
 10
-78.8192
 20
80.1653
 30
0.0
 10
-78.8192
 20
80.1653
 30
0.0
 10
-81.5511
 20
79.7454
 30
0.0
 10
-84.2939
 20
78.9892
 30
0.0
 10
-85.7054
 20
77.7126
 30
0.0
 10
-85.7054
 20
77.7126
 30
0.0
 10
-88.9532
 20
74.7757
 30
0.0
 10
-89.177
 20
73.0949
 30
0.0
 10
-92.9182
 20
72.8653
 30
0.0
  0
SPLINE
  5
4E
330
1F
100
AcDbEntity
  8
layer 1
 62
     7
100
AcDbSpline
210
0.0
220
0.0
230
1.0
 70
    11
 71
     3
 72
    68
 73
    64
 74
     0
 42
0.0000000001
 43
0.0000000001
 12
1.0
 22
0.0
 32
0.0
 13
1.0
 23
0.0
 33
0.0
 40
0.0
 40
0.0
 40
0.0
 40
0.0
 40
0.0588235294117647
 40
0.0588235294117647
 40
0.0588235294117647
 40
0.0588235294117647
 40
0.1176470588235294
 40
0.1176470588235294
 40
0.1176470588235294
 40
0.1176470588235294
 40
0.1764705882352941
 40
0.1764705882352941
 40
0.1764705882352941
 40
0.1764705882352941
 40
0.2352941176470588
 40
0.2352941176470588
 40
0.2352941176470588
 40
0.2352941176470588
 40
0.2941176470588235
 40
0.2941176470588235
 40
0.2941176470588235
 40
0.2941176470588235
 40
0.3529411764705883
 40
0.3529411764705883
 40
0.3529411764705883
 40
0.3529411764705883
 40
0.4117647058823529
 40
0.4117647058823529
 40
0.4117647058823529
 40
0.4117647058823529
 40
0.4705882352941176
 40
0.4705882352941176
 40
0.4705882352941176
 40
0.4705882352941176
 40
0.5294117647058824
 40
0.5294117647058824
 40
0.5294117647058824
 40
0.5294117647058824
 40
0.5882352941176471
 40
0.5882352941176471
 40
0.5882352941176471
 40
0.5882352941176471
 40
0.6470588235294118
 40
0.6470588235294118
 40
0.6470588235294118
 40
0.6470588235294118
 40
0.7058823529411765
 40
0.7058823529411765
 40
0.7058823529411765
 40
0.7058823529411765
 40
0.7647058823529411
 40
0.7647058823529411
 40
0.7647058823529411
 40
0.7647058823529411
 40
0.8235294117647058
 40
0.8235294117647058
 40
0.8235294117647058
 40
0.8235294117647058
 40
0.8823529411764706
 40
0.8823529411764706
 40
0.8823529411764706
 40
0.8823529411764706
 40
1.0
 40
1.0
 40
1.0
 40
1.0
 10
-92.9182
 20
66.0306
 30
0.0
 10
-93.2715
 20
67.2148
 30
0.0
 10
-94.1354
 20
68.2004
 30
0.0
 10
-95.5524
 20
68.7763
 30
0.0
 10
-95.5524
 20
68.7763
 30
0.0
 10
-100.163
 20
70.6519
 30
0.0
 10
-101.1616
 20
64.6516
 30
0.0
 10
-98.1488
 20
64.3211
 30
0.0
 10
-98.1488
 20
64.3211
 30
0.0
 10
-94.2437
 20
63.8926
 30
0.0
 10
-97.8055
 20
59.7287
 30
0.0
 10
-100.3347
 20
61.0196
 30
0.0
 10
-100.3347
 20
61.0196
 30
0.0
 10
-102.5729
 20
62.1612
 30
0.0
 10
-103.6625
 20
66.987
 30
0.0
 10
-104.4244
 20
69.2501
 30
0.0
 10
-104.4244
 20
69.2501
 30
0.0
 10
-105.7475
 20
73.1831
 30
0.0
 10
-107.426
 20
76.672
 30
0.0
 10
-110.6467
 20
79.181
 30
0.0
 10
-110.6467
 20
79.181
 30
0.0
 10
-108.3402
 20
78.014
 30
0.0
 10
-107.1252
 20
76.5935
 30
0.0
 10
-105.5916
 20
74.1576
 30
0.0
 10
-105.5916
 20
74.1576
 30
0.0
 10
-105.1354
 20
73.4328
 30
0.0
 10
-104.6786
 20
72.717
 30
0.0
 10
-104.1394
 20
72.0501
 30
0.0
 10
-104.1394
 20
72.0501
 30
0.0
 10
-102.1573
 20
69.5973
 30
0.0
 10
-96.4174
 20
70.7013
 30
0.0
 10
-92.9182
 20
71.6573
 30
0.0
 10
-92.9182
 20
71.6573
 30
0.0
 10
-89.4192
 20
70.7013
 30
0.0
 10
-83.6794
 20
69.5973
 30
0.0
 10
-81.6966
 20
72.0501
 30
0.0
 10
-81.6966
 20
72.0501
 30
0.0
 10
-81.1581
 20
72.717
 30
0.0
 10
-80.7009
 20
73.4328
 30
0.0
 10
-80.2451
 20
74.1576
 30
0.0
 10
-80.2451
 20
74.1576
 30
0.0
 10
-78.7115
 20
76.5935
 30
0.0
 10
-77.4964
 20
78.014
 30
0.0
 10
-75.1897
 20
79.181
 30
0.0
 10
-75.1897
 20
79.181
 30
0.0
 10
-78.4109
 20
76.672
 30
0.0
 10
-80.0889
 20
73.1831
 30
0.0
 10
-81.4125
 20
69.2501
 30
0.0
 10
-81.4125
 20
69.2501
 30
0.0
 10
-82.1742
 20
66.987
 30
0.0
 10
-83.2637
 20
62.1612
 30
0.0
 10
-85.502
 20
61.0196
 30
0.0
 10
-85.502
 20
61.0196
 30
0.0
 10
-88.0312
 20
59.7287
 30
0.0
 10
-91.593
 20
63.8926
 30
0.0
 10
-87.6879
 20
64.3211
 30
0.0
 10
-87.6879
 20
64.3211
 30
0.0
 10
-84.675
 20
64.6516
 30
0.0
 10
-85.6737
 20
70.6519
 30
0.0
 10
-90.2846
 20
68.7763
 30
0.0
 10
-90.2846
 20
68.7763
 30
0.0
 10
-91.7013
 20
68.2004
 30
0.0
 10
-92.5651
 20
67.2148
 30
0.0
 10
-92.9182
 20
66.0306
 30
0.0
  0
SPLINE
  5
4F
330
1F
100
AcDbEntity
  8
layer 1
 62
     7
100
AcDbSpline
210
0.0
220
0.0
230
1.0
 70
    11
 71
     3
 72
    72
 73
    68
 74
     0
 42
0.0000000001
 43
0.0000000001
 12
1.0
 22
0.0
 32
0.0
 13
1.0
 23
0.0
 33
0.0
 40
0.0
 40
0.0
 40
0.0
 40
0.0
 40
0.0555555555555556
 40
0.0555555555555556
 40
0.0555555555555556
 40
0.0555555555555556
 40
0.1111111111111111
 40
0.1111111111111111
 40
0.1111111111111111
 40
0.1111111111111111
 40
0.1666666666666667
 40
0.1666666666666667
 40
0.1666666666666667
 40
0.1666666666666667
 40
0.2222222222222222
 40
0.2222222222222222
 40
0.2222222222222222
 40
0.2222222222222222
 40
0.2777777777777778
 40
0.2777777777777778
 40
0.2777777777777778
 40
0.2777777777777778
 40
0.3333333333333333
 40
0.3333333333333333
 40
0.3333333333333333
 40
0.3333333333333333
 40
0.3888888888888889
 40
0.3888888888888889
 40
0.3888888888888889
 40
0.3888888888888889
 40
0.4444444444444444
 40
0.4444444444444444
 40
0.4444444444444444
 40
0.4444444444444444
 40
0.5
 40
0.5
 40
0.5
 40
0.5
 40
0.5555555555555556
 40
0.5555555555555556
 40
0.5555555555555556
 40
0.5555555555555556
 40
0.6111111111111112
 40
0.6111111111111112
 40
0.6111111111111112
 40
0.6111111111111112
 40
0.6666666666666666
 40
0.6666666666666666
 40
0.6666666666666666
 40
0.6666666666666666
 40
0.7222222222222222
 40
0.7222222222222222
 40
0.7222222222222222
 40
0.7222222222222222
 40
0.7777777777777778
 40
0.7777777777777778
 40
0.7777777777777778
 40
0.7777777777777778
 40
0.8333333333333334
 40
0.8333333333333334
 40
0.8333333333333334
 40
0.8333333333333334
 40
0.8888888888888888
 40
0.8888888888888888
 40
0.8888888888888888
 40
0.8888888888888888
 40
1.0
 40
1.0
 40
1.0
 40
1.0
 10
-114.3592
 20
56.2629
 30
0.0
 10
-110.3031
 20
57.2569
 30
0.0
 10
-106.9571
 20
60.6958
 30
0.0
 10
-105.7108
 20
65.0792
 30
0.0
 10
-105.7108
 20
65.0792
 30
0.0
 10
-104.9874
 20
62.492
 30
0.0
 10
-102.9635
 20
60.0146
 30
0.0
 10
-100.4474
 20
59.1609
 30
0.0
 10
-100.4474
 20
59.1609
 30
0.0
 10
-97.4049
 20
58.1271
 30
0.0
 10
-94.3974
 20
59.4214
 30
0.0
 10
-93.1937
 20
62.4603
 30
0.0
 10
-93.1937
 20
62.4603
 30
0.0
 10
-93.0815
 20
62.7433
 30
0.0
 10
-92.9899
 20
63.0262
 30
0.0
 10
-92.9182
 20
63.3068
 30
0.0
 10
-92.9182
 20
63.3068
 30
0.0
 10
-92.8471
 20
63.0262
 30
0.0
 10
-92.7549
 20
62.7433
 30
0.0
 10
-92.6429
 20
62.4603
 30
0.0
 10
-92.6429
 20
62.4603
 30
0.0
 10
-91.4386
 20
59.4214
 30
0.0
 10
-88.4321
 20
58.1271
 30
0.0
 10
-85.3893
 20
59.1609
 30
0.0
 10
-85.3893
 20
59.1609
 30
0.0
 10
-82.8729
 20
60.0146
 30
0.0
 10
-80.8492
 20
62.492
 30
0.0
 10
-80.1261
 20
65.0792
 30
0.0
 10
-80.1261
 20
65.0792
 30
0.0
 10
-79.0367
 20
61.2487
 30
0.0
 10
-76.3439
 20
58.1394
 30
0.0
 10
-72.9753
 20
56.7528
 30
0.0
 10
-72.9753
 20
56.7528
 30
0.0
 10
-72.9753
 20
56.7528
 30
0.0
 10
-72.9753
 20
55.773
 30
0.0
 10
-72.9753
 20
55.773
 30
0.0
 10
-72.9753
 20
55.773
 30
0.0
 10
-76.3439
 20
54.3866
 30
0.0
 10
-79.0367
 20
51.2784
 30
0.0
 10
-80.1261
 20
47.4475
 30
0.0
 10
-80.1261
 20
47.4475
 30
0.0
 10
-80.8492
 20
50.0344
 30
0.0
 10
-82.8729
 20
52.5118
 30
0.0
 10
-85.3893
 20
53.3659
 30
0.0
 10
-85.3893
 20
53.3659
 30
0.0
 10
-88.4321
 20
54.3992
 30
0.0
 10
-91.4386
 20
53.1054
 30
0.0
 10
-92.6429
 20
50.0662
 30
0.0
 10
-92.6429
 20
50.0662
 30
0.0
 10
-92.7549
 20
49.7832
 30
0.0
 10
-92.8471
 20
49.4998
 30
0.0
 10
-92.9182
 20
49.2199
 30
0.0
 10
-92.9182
 20
49.2199
 30
0.0
 10
-92.9899
 20
49.4998
 30
0.0
 10
-93.0815
 20
49.7832
 30
0.0
 10
-93.1937
 20
50.0662
 30
0.0
 10
-93.1937
 20
50.0662
 30
0.0
 10
-94.3974
 20
53.1054
 30
0.0
 10
-97.4049
 20
54.3992
 30
0.0
 10
-100.4474
 20
53.3659
 30
0.0
 10
-100.4474
 20
53.3659
 30
0.0
 10
-102.9635
 20
52.5118
 30
0.0
 10
-104.9874
 20
50.0344
 30
0.0
 10
-105.7108
 20
47.4475
 30
0.0
 10
-105.7108
 20
47.4475
 30
0.0
 10
-106.9571
 20
51.8312
 30
0.0
 10
-110.3031
 20
55.2692
 30
0.0
 10
-114.3592
 20
56.2629
 30
0.0
  0
SPLINE
  5
50
330
1F
100
AcDbEntity
  8
layer 1
 62
     7
100
AcDbSpline
210
0.0
220
0.0
230
1.0
 70
    11
 71
     3
 72
    52
 73
    48
 74
     0
 42
0.0000000001
 43
0.0000000001
 12
1.0
 22
0.0
 32
0.0
 13
1.0
 23
0.0
 33
0.0
 40
0.0
 40
0.0
 40
0.0
 40
0.0
 40
0.0769230769230769
 40
0.0769230769230769
 40
0.0769230769230769
 40
0.0769230769230769
 40
0.1538461538461539
 40
0.1538461538461539
 40
0.1538461538461539
 40
0.1538461538461539
 40
0.2307692307692308
 40
0.2307692307692308
 40
0.2307692307692308
 40
0.2307692307692308
 40
0.3076923076923077
 40
0.3076923076923077
 40
0.3076923076923077
 40
0.3076923076923077
 40
0.3846153846153846
 40
0.3846153846153846
 40
0.3846153846153846
 40
0.3846153846153846
 40
0.4615384615384616
 40
0.4615384615384616
 40
0.4615384615384616
 40
0.4615384615384616
 40
0.5384615384615384
 40
0.5384615384615384
 40
0.5384615384615384
 40
0.5384615384615384
 40
0.6153846153846154
 40
0.6153846153846154
 40
0.6153846153846154
 40
0.6153846153846154
 40
0.6923076923076923
 40
0.6923076923076923
 40
0.6923076923076923
 40
0.6923076923076923
 40
0.7692307692307693
 40
0.7692307692307693
 40
0.7692307692307693
 40
0.7692307692307693
 40
0.8461538461538461
 40
0.8461538461538461
 40
0.8461538461538461
 40
0.8461538461538461
 40
1.0
 40
1.0
 40
1.0
 40
1.0
 10
-128.1656
 20
64.8628
 30
0.0
 10
-128.0537
 20
64.4214
 30
0.0
 10
-127.9179
 20
63.9955
 30
0.0
 10
-127.7626
 20
63.5957
 30
0.0
 10
-127.7626
 20
63.5957
 30
0.0
 10
-126.5399
 20
60.448
 30
0.0
 10
-124.0659
 20
58.2246
 30
0.0
 10
-121.0395
 20
56.8949
 30
0.0
 10
-121.0395
 20
56.8949
 30
0.0
 10
-120.4183
 20
56.6221
 30
0.0
 10
-119.7973
 20
56.413
 30
0.0
 10
-119.1795
 20
56.2629
 30
0.0
 10
-119.1795
 20
56.2629
 30
0.0
 10
-119.7973
 20
56.1134
 30
0.0
 10
-120.4183
 20
55.9046
 30
0.0
 10
-121.0395
 20
55.6318
 30
0.0
 10
-121.0395
 20
55.6318
 30
0.0
 10
-124.0659
 20
54.3018
 30
0.0
 10
-126.5399
 20
52.0781
 30
0.0
 10
-127.7626
 20
48.9307
 30
0.0
 10
-127.7626
 20
48.9307
 30
0.0
 10
-127.9179
 20
48.5309
 30
0.0
 10
-128.0537
 20
48.1051
 30
0.0
 10
-128.1656
 20
47.6633
 30
0.0
 10
-128.1656
 20
47.6633
 30
0.0
 10
-128.2773
 20
48.1051
 30
0.0
 10
-128.4131
 20
48.5309
 30
0.0
 10
-128.5687
 20
48.9307
 30
0.0
 10
-128.5687
 20
48.9307
 30
0.0
 10
-129.7917
 20
52.0781
 30
0.0
 10
-132.2654
 20
54.3018
 30
0.0
 10
-135.2917
 20
55.6318
 30
0.0
 10
-135.2917
 20
55.6318
 30
0.0
 10
-135.913
 20
55.9046
 30
0.0
 10
-136.5343
 20
56.1134
 30
0.0
 10
-137.1515
 20
56.2629
 30
0.0
 10
-137.1515
 20
56.2629
 30
0.0
 10
-136.5343
 20
56.413
 30
0.0
 10
-135.913
 20
56.6221
 30
0.0
 10
-135.2917
 20
56.8949
 30
0.0
 10
-135.2917
 20
56.8949
 30
0.0
 10
-132.2654
 20
58.2246
 30
0.0
 10
-129.7917
 20
60.448
 30
0.0
 10
-128.5687
 20
63.5957
 30
0.0
 10
-128.5687
 20
63.5957
 30
0.0
 10
-128.4131
 20
63.9955
 30
0.0
 10
-128.2773
 20
64.4214
 30
0.0
 10
-128.1656
 20
64.8628
 30
0.0
  0
SPLINE
  5
51
330
1F
100
AcDbEntity
  8
layer 1
 62
     7
100
AcDbSpline
210
0.0
220
0.0
230
1.0
 70
    11
 71
     3
 72
   188
 73
   184
 74
     0
 42
0.0000000001
 43
0.0000000001
 12
1.0
 22
0.0
 32
0.0
 13
1.0
 23
0.0
 33
0.0
 40
0.0
 40
0.0
 40
0.0
 40
0.0
 40
0.0212765957446809
 40
0.0212765957446809
 40
0.0212765957446809
 40
0.0212765957446809
 40
0.0425531914893617
 40
0.0425531914893617
 40
0.0425531914893617
 40
0.0425531914893617
 40
0.0638297872340425
 40
0.0638297872340425
 40
0.0638297872340425
 40
0.0638297872340425
 40
0.0851063829787234
 40
0.0851063829787234
 40
0.0851063829787234
 40
0.0851063829787234
 40
0.1063829787234043
 40
0.1063829787234043
 40
0.1063829787234043
 40
0.1063829787234043
 40
0.1276595744680851
 40
0.1276595744680851
 40
0.1276595744680851
 40
0.1276595744680851
 40
0.148936170212766
 40
0.148936170212766
 40
0.148936170212766
 40
0.148936170212766
 40
0.1702127659574468
 40
0.1702127659574468
 40
0.1702127659574468
 40
0.1702127659574468
 40
0.1914893617021277
 40
0.1914893617021277
 40
0.1914893617021277
 40
0.1914893617021277
 40
0.2127659574468085
 40
0.2127659574468085
 40
0.2127659574468085
 40
0.2127659574468085
 40
0.2340425531914894
 40
0.2340425531914894
 40
0.2340425531914894
 40
0.2340425531914894
 40
0.2553191489361702
 40
0.2553191489361702
 40
0.2553191489361702
 40
0.2553191489361702
 40
0.2765957446808511
 40
0.2765957446808511
 40
0.2765957446808511
 40
0.2765957446808511
 40
0.2978723404255319
 40
0.2978723404255319
 40
0.2978723404255319
 40
0.2978723404255319
 40
0.3191489361702128
 40
0.3191489361702128
 40
0.3191489361702128
 40
0.3191489361702128
 40
0.3404255319148936
 40
0.3404255319148936
 40
0.3404255319148936
 40
0.3404255319148936
 40
0.3617021276595745
 40
0.3617021276595745
 40
0.3617021276595745
 40
0.3617021276595745
 40
0.3829787234042553
 40
0.3829787234042553
 40
0.3829787234042553
 40
0.3829787234042553
 40
0.4042553191489361
 40
0.4042553191489361
 40
0.4042553191489361
 40
0.4042553191489361
 40
0.425531914893617
 40
0.425531914893617
 40
0.425531914893617
 40
0.425531914893617
 40
0.4468085106382979
 40
0.4468085106382979
 40
0.4468085106382979
 40
0.4468085106382979
 40
0.4680851063829787
 40
0.4680851063829787
 40
0.4680851063829787
 40
0.4680851063829787
 40
0.4893617021276596
 40
0.4893617021276596
 40
0.4893617021276596
 40
0.4893617021276596
 40
0.5106382978723404
 40
0.5106382978723404
 40
0.5106382978723404
 40
0.5106382978723404
 40
0.5319148936170213
 40
0.5319148936170213
 40
0.5319148936170213
 40
0.5319148936170213
 40
0.5531914893617021
 40
0.5531914893617021
 40
0.5531914893617021
 40
0.5531914893617021
 40
0.574468085106383
 40
0.574468085106383
 40
0.574468085106383
 40
0.574468085106383
 40
0.5957446808510638
 40
0.5957446808510638
 40
0.5957446808510638
 40
0.5957446808510638
 40
0.6170212765957447
 40
0.6170212765957447
 40
0.6170212765957447
 40
0.6170212765957447
 40
0.6382978723404256
 40
0.6382978723404256
 40
0.6382978723404256
 40
0.6382978723404256
 40
0.6595744680851063
 40
0.6595744680851063
 40
0.6595744680851063
 40
0.6595744680851063
 40
0.6808510638297872
 40
0.6808510638297872
 40
0.6808510638297872
 40
0.6808510638297872
 40
0.7021276595744681
 40
0.7021276595744681
 40
0.7021276595744681
 40
0.7021276595744681
 40
0.723404255319149
 40
0.723404255319149
 40
0.723404255319149
 40
0.723404255319149
 40
0.7446808510638298
 40
0.7446808510638298
 40
0.7446808510638298
 40
0.7446808510638298
 40
0.7659574468085106
 40
0.7659574468085106
 40
0.7659574468085106
 40
0.7659574468085106
 40
0.7872340425531915
 40
0.7872340425531915
 40
0.7872340425531915
 40
0.7872340425531915
 40
0.8085106382978723
 40
0.8085106382978723
 40
0.8085106382978723
 40
0.8085106382978723
 40
0.8297872340425532
 40
0.8297872340425532
 40
0.8297872340425532
 40
0.8297872340425532
 40
0.851063829787234
 40
0.851063829787234
 40
0.851063829787234
 40
0.851063829787234
 40
0.8723404255319149
 40
0.8723404255319149
 40
0.8723404255319149
 40
0.8723404255319149
 40
0.8936170212765957
 40
0.8936170212765957
 40
0.8936170212765957
 40
0.8936170212765957
 40
0.9148936170212766
 40
0.9148936170212766
 40
0.9148936170212766
 40
0.9148936170212766
 40
0.9361702127659575
 40
0.9361702127659575
 40
0.9361702127659575
 40
0.9361702127659575
 40
0.9574468085106383
 40
0.9574468085106383
 40
0.9574468085106383
 40
0.9574468085106383
 40
1.0
 40
1.0
 40
1.0
 40
1.0
 10
-128.1656
 20
90.4312
 30
0.0
 10
-128.1235
 20
90.2977
 30
0.0
 10
-128.0765
 20
90.1667
 30
0.0
 10
-128.0262
 20
90.0378
 30
0.0
 10
-128.0262
 20
90.0378
 30
0.0
 10
-126.2876
 20
85.6324
 30
0.0
 10
-122.2558
 20
82.9153
 30
0.0
 10
-117.5989
 20
84.8092
 30
0.0
 10
-117.5989
 20
84.8092
 30
0.0
 10
-114.5792
 20
86.0365
 30
0.0
 10
-111.9997
 20
88.7239
 30
0.0
 10
-113.0555
 20
92.2293
 30
0.0
 10
-113.0555
 20
92.2293
 30
0.0
 10
-114.8963
 20
98.3431
 30
0.0
 10
-121.5509
 20
94.9728
 30
0.0
 10
-119.978
 20
90.9841
 30
0.0
 10
-119.978
 20
90.9841
 30
0.0
 10
-119.7867
 20
90.4982
 30
0.0
 10
-119.3476
 20
89.9996
 30
0.0
 10
-118.8496
 20
89.8082
 30
0.0
 10
-118.8496
 20
89.8082
 30
0.0
 10
-118.6064
 20
89.2995
 30
0.0
 10
-118.9994
 20
88.8763
 30
0.0
 10
-119.4623
 20
88.6863
 30
0.0
 10
-119.4623
 20
88.6863
 30
0.0
 10
-124.2096
 20
86.7416
 30
0.0
 10
-127.3842
 20
97.0482
 30
0.0
 10
-119.9496
 20
100.0701
 30
0.0
 10
-119.9496
 20
100.0701
 30
0.0
 10
-118.3794
 20
100.7083
 30
0.0
 10
-115.9658
 20
100.8689
 30
0.0
 10
-114.3162
 20
100.6371
 30
0.0
 10
-114.3162
 20
100.6371
 30
0.0
 10
-111.2191
 20
100.2018
 30
0.0
 10
-108.9755
 20
98.4803
 30
0.0
 10
-107.7739
 20
95.5342
 30
0.0
 10
-107.7739
 20
95.5342
 30
0.0
 10
-106.5189
 20
92.4565
 30
0.0
 10
-106.9074
 20
89.183
 30
0.0
 10
-108.408
 20
86.2782
 30
0.0
 10
-108.408
 20
86.2782
 30
0.0
 10
-109.5791
 20
84.012
 30
0.0
 10
-111.6848
 20
81.6137
 30
0.0
 10
-114.0541
 20
80.6068
 30
0.0
 10
-114.0541
 20
80.6068
 30
0.0
 10
-114.7014
 20
80.329
 30
0.0
 10
-114.7062
 20
80.0014
 30
0.0
 10
-114.0541
 20
79.7242
 30
0.0
 10
-114.0541
 20
79.7242
 30
0.0
 10
-111.6848
 20
78.7173
 30
0.0
 10
-109.5791
 20
76.319
 30
0.0
 10
-108.408
 20
74.0522
 30
0.0
 10
-108.408
 20
74.0522
 30
0.0
 10
-106.9074
 20
71.1477
 30
0.0
 10
-106.5189
 20
67.8742
 30
0.0
 10
-107.7739
 20
64.7971
 30
0.0
 10
-107.7739
 20
64.7971
 30
0.0
 10
-108.9755
 20
61.8504
 30
0.0
 10
-111.2191
 20
60.1289
 30
0.0
 10
-114.3162
 20
59.6936
 30
0.0
 10
-114.3162
 20
59.6936
 30
0.0
 10
-115.9658
 20
59.4618
 30
0.0
 10
-118.3794
 20
59.6224
 30
0.0
 10
-119.9496
 20
60.2603
 30
0.0
 10
-119.9496
 20
60.2603
 30
0.0
 10
-127.3842
 20
63.2825
 30
0.0
 10
-124.2096
 20
73.5891
 30
0.0
 10
-119.4623
 20
71.6444
 30
0.0
 10
-119.4623
 20
71.6444
 30
0.0
 10
-118.9994
 20
71.4547
 30
0.0
 10
-118.6064
 20
71.0318
 30
0.0
 10
-118.8496
 20
70.5225
 30
0.0
 10
-118.8496
 20
70.5225
 30
0.0
 10
-119.3476
 20
70.3316
 30
0.0
 10
-119.7867
 20
69.8328
 30
0.0
 10
-119.978
 20
69.3466
 30
0.0
 10
-119.978
 20
69.3466
 30
0.0
 10
-121.5509
 20
65.3585
 30
0.0
 10
-114.8963
 20
61.9882
 30
0.0
 10
-113.0555
 20
68.1017
 30
0.0
 10
-113.0555
 20
68.1017
 30
0.0
 10
-111.9997
 20
71.6071
 30
0.0
 10
-114.5792
 20
74.2945
 30
0.0
 10
-117.5989
 20
75.5218
 30
0.0
 10
-117.5989
 20
75.5218
 30
0.0
 10
-122.2558
 20
77.4153
 30
0.0
 10
-126.2876
 20
74.6986
 30
0.0
 10
-128.0262
 20
70.2932
 30
0.0
 10
-128.0262
 20
70.2932
 30
0.0
 10
-128.0765
 20
70.1645
 30
0.0
 10
-128.1235
 20
70.0329
 30
0.0
 10
-128.1656
 20
69.8995
 30
0.0
 10
-128.1656
 20
69.8995
 30
0.0
 10
-128.2077
 20
70.0329
 30
0.0
 10
-128.2545
 20
70.1645
 30
0.0
 10
-128.3054
 20
70.2932
 30
0.0
 10
-128.3054
 20
70.2932
 30
0.0
 10
-130.044
 20
74.6986
 30
0.0
 10
-134.0751
 20
77.4153
 30
0.0
 10
-138.7324
 20
75.5218
 30
0.0
 10
-138.7324
 20
75.5218
 30
0.0
 10
-141.7526
 20
74.2945
 30
0.0
 10
-144.3319
 20
71.6071
 30
0.0
 10
-143.2761
 20
68.1017
 30
0.0
 10
-143.2761
 20
68.1017
 30
0.0
 10
-141.4349
 20
61.9882
 30
0.0
 10
-134.7803
 20
65.3585
 30
0.0
 10
-136.3532
 20
69.3466
 30
0.0
 10
-136.3532
 20
69.3466
 30
0.0
 10
-136.5449
 20
69.8328
 30
0.0
 10
-136.9837
 20
70.3316
 30
0.0
 10
-137.4813
 20
70.5225
 30
0.0
 10
-137.4813
 20
70.5225
 30
0.0
 10
-137.7249
 20
71.0318
 30
0.0
 10
-137.3321
 20
71.4547
 30
0.0
 10
-136.8693
 20
71.6444
 30
0.0
 10
-136.8693
 20
71.6444
 30
0.0
 10
-132.122
 20
73.5891
 30
0.0
 10
-128.9471
 20
63.2825
 30
0.0
 10
-136.3816
 20
60.2603
 30
0.0
 10
-136.3816
 20
60.2603
 30
0.0
 10
-137.9519
 20
59.6224
 30
0.0
 10
-140.3655
 20
59.4618
 30
0.0
 10
-142.015
 20
59.6936
 30
0.0
 10
-142.015
 20
59.6936
 30
0.0
 10
-145.1124
 20
60.1289
 30
0.0
 10
-147.3555
 20
61.8504
 30
0.0
 10
-148.5574
 20
64.7971
 30
0.0
 10
-148.5574
 20
64.7971
 30
0.0
 10
-149.8124
 20
67.8742
 30
0.0
 10
-149.4242
 20
71.1477
 30
0.0
 10
-147.9236
 20
74.0522
 30
0.0
 10
-147.9236
 20
74.0522
 30
0.0
 10
-146.7522
 20
76.319
 30
0.0
 10
-144.6464
 20
78.7173
 30
0.0
 10
-142.2768
 20
79.7242
 30
0.0
 10
-142.2768
 20
79.7242
 30
0.0
 10
-141.625
 20
80.0014
 30
0.0
 10
-141.6302
 20
80.329
 30
0.0
 10
-142.2768
 20
80.6068
 30
0.0
 10
-142.2768
 20
80.6068
 30
0.0
 10
-144.6464
 20
81.6137
 30
0.0
 10
-146.7522
 20
84.012
 30
0.0
 10
-147.9236
 20
86.2782
 30
0.0
 10
-147.9236
 20
86.2782
 30
0.0
 10
-149.4242
 20
89.183
 30
0.0
 10
-149.8124
 20
92.4565
 30
0.0
 10
-148.5574
 20
95.5342
 30
0.0
 10
-148.5574
 20
95.5342
 30
0.0
 10
-147.3555
 20
98.4803
 30
0.0
 10
-145.1124
 20
100.2018
 30
0.0
 10
-142.015
 20
100.6371
 30
0.0
 10
-142.015
 20
100.6371
 30
0.0
 10
-140.3655
 20
100.8689
 30
0.0
 10
-137.9519
 20
100.7083
 30
0.0
 10
-136.3816
 20
100.0701
 30
0.0
 10
-136.3816
 20
100.0701
 30
0.0
 10
-128.9471
 20
97.0482
 30
0.0
 10
-132.122
 20
86.7416
 30
0.0
 10
-136.8693
 20
88.6863
 30
0.0
 10
-136.8693
 20
88.6863
 30
0.0
 10
-137.3321
 20
88.8763
 30
0.0
 10
-137.7249
 20
89.2995
 30
0.0
 10
-137.4813
 20
89.8082
 30
0.0
 10
-137.4813
 20
89.8082
 30
0.0
 10
-136.9837
 20
89.9996
 30
0.0
 10
-136.5449
 20
90.4982
 30
0.0
 10
-136.3532
 20
90.9841
 30
0.0
 10
-136.3532
 20
90.9841
 30
0.0
 10
-134.7803
 20
94.9728
 30
0.0
 10
-141.4349
 20
98.3431
 30
0.0
 10
-143.2761
 20
92.2293
 30
0.0
 10
-143.2761
 20
92.2293
 30
0.0
 10
-144.3319
 20
88.7239
 30
0.0
 10
-141.7526
 20
86.0365
 30
0.0
 10
-138.7324
 20
84.8092
 30
0.0
 10
-138.7324
 20
84.8092
 30
0.0
 10
-134.0751
 20
82.9153
 30
0.0
 10
-130.044
 20
85.6324
 30
0.0
 10
-128.3054
 20
90.0378
 30
0.0
 10
-128.3054
 20
90.0378
 30
0.0
 10
-128.2545
 20
90.1667
 30
0.0
 10
-128.2077
 20
90.2977
 30
0.0
 10
-128.1656
 20
90.4312
 30
0.0
  0
SPLINE
  5
52
330
1F
100
AcDbEntity
  8
layer 1
 62
     7
100
AcDbSpline
210
0.0
220
0.0
230
1.0
 70
    11
 71
     3
 72
    68
 73
    64
 74
     0
 42
0.0000000001
 43
0.0000000001
 12
1.0
 22
0.0
 32
0.0
 13
1.0
 23
0.0
 33
0.0
 40
0.0
 40
0.0
 40
0.0
 40
0.0
 40
0.0588235294117647
 40
0.0588235294117647
 40
0.0588235294117647
 40
0.0588235294117647
 40
0.1176470588235294
 40
0.1176470588235294
 40
0.1176470588235294
 40
0.1176470588235294
 40
0.1764705882352941
 40
0.1764705882352941
 40
0.1764705882352941
 40
0.1764705882352941
 40
0.2352941176470588
 40
0.2352941176470588
 40
0.2352941176470588
 40
0.2352941176470588
 40
0.2941176470588235
 40
0.2941176470588235
 40
0.2941176470588235
 40
0.2941176470588235
 40
0.3529411764705883
 40
0.3529411764705883
 40
0.3529411764705883
 40
0.3529411764705883
 40
0.4117647058823529
 40
0.4117647058823529
 40
0.4117647058823529
 40
0.4117647058823529
 40
0.4705882352941176
 40
0.4705882352941176
 40
0.4705882352941176
 40
0.4705882352941176
 40
0.5294117647058824
 40
0.5294117647058824
 40
0.5294117647058824
 40
0.5294117647058824
 40
0.5882352941176471
 40
0.5882352941176471
 40
0.5882352941176471
 40
0.5882352941176471
 40
0.6470588235294118
 40
0.6470588235294118
 40
0.6470588235294118
 40
0.6470588235294118
 40
0.7058823529411765
 40
0.7058823529411765
 40
0.7058823529411765
 40
0.7058823529411765
 40
0.7647058823529411
 40
0.7647058823529411
 40
0.7647058823529411
 40
0.7647058823529411
 40
0.8235294117647058
 40
0.8235294117647058
 40
0.8235294117647058
 40
0.8235294117647058
 40
0.8823529411764706
 40
0.8823529411764706
 40
0.8823529411764706
 40
0.8823529411764706
 40
1.0
 40
1.0
 40
1.0
 40
1.0
 10
-92.9182
 20
88.674
 30
0.0
 10
-96.4174
 20
89.6297
 30
0.0
 10
-102.1573
 20
90.7331
 30
0.0
 10
-104.1394
 20
88.2803
 30
0.0
 10
-104.1394
 20
88.2803
 30
0.0
 10
-104.6786
 20
87.6137
 30
0.0
 10
-105.1354
 20
86.8979
 30
0.0
 10
-105.5916
 20
86.1728
 30
0.0
 10
-105.5916
 20
86.1728
 30
0.0
 10
-107.1252
 20
83.7372
 30
0.0
 10
-108.3402
 20
82.3167
 30
0.0
 10
-110.6467
 20
81.1494
 30
0.0
 10
-110.6467
 20
81.1494
 30
0.0
 10
-107.426
 20
83.659
 30
0.0
 10
-105.7475
 20
87.1479
 30
0.0
 10
-104.4244
 20
91.0808
 30
0.0
 10
-104.4244
 20
91.0808
 30
0.0
 10
-103.6625
 20
93.3444
 30
0.0
 10
-102.5729
 20
98.1698
 30
0.0
 10
-100.3347
 20
99.3114
 30
0.0
 10
-100.3347
 20
99.3114
 30
0.0
 10
-97.8055
 20
100.602
 30
0.0
 10
-94.2437
 20
96.4384
 30
0.0
 10
-98.1488
 20
96.0099
 30
0.0
 10
-98.1488
 20
96.0099
 30
0.0
 10
-101.1616
 20
95.6794
 30
0.0
 10
-100.163
 20
89.6794
 30
0.0
 10
-95.5524
 20
91.5544
 30
0.0
 10
-95.5524
 20
91.5544
 30
0.0
 10
-94.1354
 20
92.1306
 30
0.0
 10
-93.2715
 20
93.1159
 30
0.0
 10
-92.9182
 20
94.3004
 30
0.0
 10
-92.9182
 20
94.3004
 30
0.0
 10
-92.5651
 20
93.1159
 30
0.0
 10
-91.7013
 20
92.1306
 30
0.0
 10
-90.2846
 20
91.5544
 30
0.0
 10
-90.2846
 20
91.5544
 30
0.0
 10
-85.6737
 20
89.6794
 30
0.0
 10
-84.675
 20
95.6794
 30
0.0
 10
-87.6879
 20
96.0099
 30
0.0
 10
-87.6879
 20
96.0099
 30
0.0
 10
-91.593
 20
96.4384
 30
0.0
 10
-88.0312
 20
100.602
 30
0.0
 10
-85.502
 20
99.3114
 30
0.0
 10
-85.502
 20
99.3114
 30
0.0
 10
-83.2637
 20
98.1698
 30
0.0
 10
-82.1742
 20
93.3444
 30
0.0
 10
-81.4125
 20
91.0808
 30
0.0
 10
-81.4125
 20
91.0808
 30
0.0
 10
-80.0889
 20
87.1479
 30
0.0
 10
-78.4109
 20
83.659
 30
0.0
 10
-75.1897
 20
81.1494
 30
0.0
 10
-75.1897
 20
81.1494
 30
0.0
 10
-77.4964
 20
82.3167
 30
0.0
 10
-78.7115
 20
83.7372
 30
0.0
 10
-80.2451
 20
86.1728
 30
0.0
 10
-80.2451
 20
86.1728
 30
0.0
 10
-80.7009
 20
86.8979
 30
0.0
 10
-81.1581
 20
87.6137
 30
0.0
 10
-81.6966
 20
88.2803
 30
0.0
 10
-81.6966
 20
88.2803
 30
0.0
 10
-83.6794
 20
90.7331
 30
0.0
 10
-89.4192
 20
89.6297
 30
0.0
 10
-92.9182
 20
88.674
 30
0.0
  0
SPLINE
  5
53
330
1F
100
AcDbEntity
  8
layer 1
 62
     7
100
AcDbSpline
210
0.0
220
0.0
230
1.0
 70
    11
 71
     3
 72
    52
 73
    48
 74
     0
 42
0.0000000001
 43
0.0000000001
 12
1.0
 22
0.0
 32
0.0
 13
1.0
 23
0.0
 33
0.0
 40
0.0
 40
0.0
 40
0.0
 40
0.0
 40
0.0769230769230769
 40
0.0769230769230769
 40
0.0769230769230769
 40
0.0769230769230769
 40
0.1538461538461539
 40
0.1538461538461539
 40
0.1538461538461539
 40
0.1538461538461539
 40
0.2307692307692308
 40
0.2307692307692308
 40
0.2307692307692308
 40
0.2307692307692308
 40
0.3076923076923077
 40
0.3076923076923077
 40
0.3076923076923077
 40
0.3076923076923077
 40
0.3846153846153846
 40
0.3846153846153846
 40
0.3846153846153846
 40
0.3846153846153846
 40
0.4615384615384616
 40
0.4615384615384616
 40
0.4615384615384616
 40
0.4615384615384616
 40
0.5384615384615384
 40
0.5384615384615384
 40
0.5384615384615384
 40
0.5384615384615384
 40
0.6153846153846154
 40
0.6153846153846154
 40
0.6153846153846154
 40
0.6153846153846154
 40
0.6923076923076923
 40
0.6923076923076923
 40
0.6923076923076923
 40
0.6923076923076923
 40
0.7692307692307693
 40
0.7692307692307693
 40
0.7692307692307693
 40
0.7692307692307693
 40
0.8461538461538461
 40
0.8461538461538461
 40
0.8461538461538461
 40
0.8461538461538461
 40
1.0
 40
1.0
 40
1.0
 40
1.0
 10
-119.5484
 20
103.9707
 30
0.0
 10
-120.0442
 20
104.1091
 30
0.0
 10
-120.5419
 20
104.2864
 30
0.0
 10
-121.0395
 20
104.5049
 30
0.0
 10
-121.0395
 20
104.5049
 30
0.0
 10
-124.0659
 20
105.8349
 30
0.0
 10
-126.5399
 20
108.0584
 30
0.0
 10
-127.7626
 20
111.2061
 30
0.0
 10
-127.7626
 20
111.2061
 30
0.0
 10
-127.9179
 20
111.6059
 30
0.0
 10
-128.0537
 20
112.0317
 30
0.0
 10
-128.1656
 20
112.4732
 30
0.0
 10
-128.1656
 20
112.4732
 30
0.0
 10
-128.2773
 20
112.0317
 30
0.0
 10
-128.4131
 20
111.6059
 30
0.0
 10
-128.5687
 20
111.2061
 30
0.0
 10
-128.5687
 20
111.2061
 30
0.0
 10
-129.7917
 20
108.0584
 30
0.0
 10
-132.2654
 20
105.8349
 30
0.0
 10
-135.2917
 20
104.5049
 30
0.0
 10
-135.2917
 20
104.5049
 30
0.0
 10
-135.7894
 20
104.2864
 30
0.0
 10
-136.2868
 20
104.1091
 30
0.0
 10
-136.7829
 20
103.9707
 30
0.0
 10
-136.7829
 20
103.9707
 30
0.0
 10
-136.2868
 20
103.8316
 30
0.0
 10
-135.7894
 20
103.655
 30
0.0
 10
-135.2917
 20
103.4364
 30
0.0
 10
-135.2917
 20
103.4364
 30
0.0
 10
-132.2654
 20
102.1064
 30
0.0
 10
-129.7917
 20
99.8823
 30
0.0
 10
-128.5687
 20
96.7353
 30
0.0
 10
-128.5687
 20
96.7353
 30
0.0
 10
-128.4131
 20
96.3352
 30
0.0
 10
-128.2773
 20
95.909
 30
0.0
 10
-128.1656
 20
95.4679
 30
0.0
 10
-128.1656
 20
95.4679
 30
0.0
 10
-128.0537
 20
95.909
 30
0.0
 10
-127.9179
 20
96.3352
 30
0.0
 10
-127.7626
 20
96.7353
 30
0.0
 10
-127.7626
 20
96.7353
 30
0.0
 10
-126.5399
 20
99.8823
 30
0.0
 10
-124.0659
 20
102.1064
 30
0.0
 10
-121.0395
 20
103.4364
 30
0.0
 10
-121.0395
 20
103.4364
 30
0.0
 10
-120.5419
 20
103.655
 30
0.0
 10
-120.0442
 20
103.8316
 30
0.0
 10
-119.5484
 20
103.9707
 30
0.0
  0
SPLINE
  5
54
330
1F
100
AcDbEntity
  8
layer 1
 62
     7
100
AcDbSpline
210
0.0
220
0.0
230
1.0
 70
    11
 71
     3
 72
    72
 73
    68
 74
     0
 42
0.0000000001
 43
0.0000000001
 12
1.0
 22
0.0
 32
0.0
 13
1.0
 23
0.0
 33
0.0
 40
0.0
 40
0.0
 40
0.0
 40
0.0
 40
0.0555555555555556
 40
0.0555555555555556
 40
0.0555555555555556
 40
0.0555555555555556
 40
0.1111111111111111
 40
0.1111111111111111
 40
0.1111111111111111
 40
0.1111111111111111
 40
0.1666666666666667
 40
0.1666666666666667
 40
0.1666666666666667
 40
0.1666666666666667
 40
0.2222222222222222
 40
0.2222222222222222
 40
0.2222222222222222
 40
0.2222222222222222
 40
0.2777777777777778
 40
0.2777777777777778
 40
0.2777777777777778
 40
0.2777777777777778
 40
0.3333333333333333
 40
0.3333333333333333
 40
0.3333333333333333
 40
0.3333333333333333
 40
0.3888888888888889
 40
0.3888888888888889
 40
0.3888888888888889
 40
0.3888888888888889
 40
0.4444444444444444
 40
0.4444444444444444
 40
0.4444444444444444
 40
0.4444444444444444
 40
0.5
 40
0.5
 40
0.5
 40
0.5
 40
0.5555555555555556
 40
0.5555555555555556
 40
0.5555555555555556
 40
0.5555555555555556
 40
0.6111111111111112
 40
0.6111111111111112
 40
0.6111111111111112
 40
0.6111111111111112
 40
0.6666666666666666
 40
0.6666666666666666
 40
0.6666666666666666
 40
0.6666666666666666
 40
0.7222222222222222
 40
0.7222222222222222
 40
0.7222222222222222
 40
0.7222222222222222
 40
0.7777777777777778
 40
0.7777777777777778
 40
0.7777777777777778
 40
0.7777777777777778
 40
0.8333333333333334
 40
0.8333333333333334
 40
0.8333333333333334
 40
0.8333333333333334
 40
0.8888888888888888
 40
0.8888888888888888
 40
0.8888888888888888
 40
0.8888888888888888
 40
1.0
 40
1.0
 40
1.0
 40
1.0
 10
-92.9182
 20
110.9172
 30
0.0
 10
-92.9899
 20
110.6366
 30
0.0
 10
-93.0815
 20
110.354
 30
0.0
 10
-93.1937
 20
110.0703
 30
0.0
 10
-93.1937
 20
110.0703
 30
0.0
 10
-94.3974
 20
107.0311
 30
0.0
 10
-97.4049
 20
105.7375
 30
0.0
 10
-100.4474
 20
106.7706
 30
0.0
 10
-100.4474
 20
106.7706
 30
0.0
 10
-102.9635
 20
107.6249
 30
0.0
 10
-104.9874
 20
110.1024
 30
0.0
 10
-105.7108
 20
112.6892
 30
0.0
 10
-105.7108
 20
112.6892
 30
0.0
 10
-106.9192
 20
108.4391
 30
0.0
 10
-110.1017
 20
105.0769
 30
0.0
 10
-113.9919
 20
103.9707
 30
0.0
 10
-113.9919
 20
103.9707
 30
0.0
 10
-110.1017
 20
102.8645
 30
0.0
 10
-106.9192
 20
99.5023
 30
0.0
 10
-105.7108
 20
95.2515
 30
0.0
 10
-105.7108
 20
95.2515
 30
0.0
 10
-104.9874
 20
97.8387
 30
0.0
 10
-102.9635
 20
100.3165
 30
0.0
 10
-100.4474
 20
101.1707
 30
0.0
 10
-100.4474
 20
101.1707
 30
0.0
 10
-97.4049
 20
102.2039
 30
0.0
 10
-94.3974
 20
100.9096
 30
0.0
 10
-93.1937
 20
97.8704
 30
0.0
 10
-93.1937
 20
97.8704
 30
0.0
 10
-93.0815
 20
97.5871
 30
0.0
 10
-92.9899
 20
97.3048
 30
0.0
 10
-92.9182
 20
97.0245
 30
0.0
 10
-92.9182
 20
97.0245
 30
0.0
 10
-92.8471
 20
97.3048
 30
0.0
 10
-92.7552
 20
97.5871
 30
0.0
 10
-92.6429
 20
97.8704
 30
0.0
 10
-92.6429
 20
97.8704
 30
0.0
 10
-91.4386
 20
100.9096
 30
0.0
 10
-88.4321
 20
102.2039
 30
0.0
 10
-85.3893
 20
101.1707
 30
0.0
 10
-85.3893
 20
101.1707
 30
0.0
 10
-82.8729
 20
100.3165
 30
0.0
 10
-80.8492
 20
97.8387
 30
0.0
 10
-80.1261
 20
95.2515
 30
0.0
 10
-80.1261
 20
95.2515
 30
0.0
 10
-79.0367
 20
99.0826
 30
0.0
 10
-76.3442
 20
102.1918
 30
0.0
 10
-72.9753
 20
103.5782
 30
0.0
 10
-72.9753
 20
103.5782
 30
0.0
 10
-72.9753
 20
103.5782
 30
0.0
 10
-72.9753
 20
104.3631
 30
0.0
 10
-72.9753
 20
104.3631
 30
0.0
 10
-72.9753
 20
104.3631
 30
0.0
 10
-76.3442
 20
105.7496
 30
0.0
 10
-79.0367
 20
108.8587
 30
0.0
 10
-80.1261
 20
112.6892
 30
0.0
 10
-80.1261
 20
112.6892
 30
0.0
 10
-80.8492
 20
110.1024
 30
0.0
 10
-82.8729
 20
107.6249
 30
0.0
 10
-85.3893
 20
106.7706
 30
0.0
 10
-85.3893
 20
106.7706
 30
0.0
 10
-88.4321
 20
105.7375
 30
0.0
 10
-91.4386
 20
107.0311
 30
0.0
 10
-92.6429
 20
110.0703
 30
0.0
 10
-92.6429
 20
110.0703
 30
0.0
 10
-92.7552
 20
110.354
 30
0.0
 10
-92.8471
 20
110.6366
 30
0.0
 10
-92.9182
 20
110.9172
 30
0.0
  0
SPLINE
  5
55
330
1F
100
AcDbEntity
  8
layer 1
 62
     7
100
AcDbSpline
210
0.0
220
0.0
230
1.0
 70
    11
 71
     3
 72
    68
 73
    64
 74
     0
 42
0.0000000001
 43
0.0000000001
 12
1.0
 22
0.0
 32
0.0
 13
1.0
 23
0.0
 33
0.0
 40
0.0
 40
0.0
 40
0.0
 40
0.0
 40
0.0588235294117647
 40
0.0588235294117647
 40
0.0588235294117647
 40
0.0588235294117647
 40
0.1176470588235294
 40
0.1176470588235294
 40
0.1176470588235294
 40
0.1176470588235294
 40
0.1764705882352941
 40
0.1764705882352941
 40
0.1764705882352941
 40
0.1764705882352941
 40
0.2352941176470588
 40
0.2352941176470588
 40
0.2352941176470588
 40
0.2352941176470588
 40
0.2941176470588235
 40
0.2941176470588235
 40
0.2941176470588235
 40
0.2941176470588235
 40
0.3529411764705883
 40
0.3529411764705883
 40
0.3529411764705883
 40
0.3529411764705883
 40
0.4117647058823529
 40
0.4117647058823529
 40
0.4117647058823529
 40
0.4117647058823529
 40
0.4705882352941176
 40
0.4705882352941176
 40
0.4705882352941176
 40
0.4705882352941176
 40
0.5294117647058824
 40
0.5294117647058824
 40
0.5294117647058824
 40
0.5294117647058824
 40
0.5882352941176471
 40
0.5882352941176471
 40
0.5882352941176471
 40
0.5882352941176471
 40
0.6470588235294118
 40
0.6470588235294118
 40
0.6470588235294118
 40
0.6470588235294118
 40
0.7058823529411765
 40
0.7058823529411765
 40
0.7058823529411765
 40
0.7058823529411765
 40
0.7647058823529411
 40
0.7647058823529411
 40
0.7647058823529411
 40
0.7647058823529411
 40
0.8235294117647058
 40
0.8235294117647058
 40
0.8235294117647058
 40
0.8235294117647058
 40
0.8823529411764706
 40
0.8823529411764706
 40
0.8823529411764706
 40
0.8823529411764706
 40
1.0
 40
1.0
 40
1.0
 40
1.0
 10
-92.9182
 20
119.2673
 30
0.0
 10
-96.4174
 20
118.3117
 30
0.0
 10
-102.1573
 20
117.208
 30
0.0
 10
-104.1394
 20
119.661
 30
0.0
 10
-104.1394
 20
119.661
 30
0.0
 10
-104.6786
 20
120.3273
 30
0.0
 10
-105.1354
 20
121.0434
 30
0.0
 10
-105.5916
 20
121.7679
 30
0.0
 10
-105.5916
 20
121.7679
 30
0.0
 10
-107.1252
 20
124.2038
 30
0.0
 10
-108.3402
 20
125.6244
 30
0.0
 10
-110.6467
 20
126.7913
 30
0.0
 10
-110.6467
 20
126.7913
 30
0.0
 10
-107.426
 20
124.2821
 30
0.0
 10
-105.7475
 20
120.7935
 30
0.0
 10
-104.4244
 20
116.8602
 30
0.0
 10
-104.4244
 20
116.8602
 30
0.0
 10
-103.6625
 20
114.597
 30
0.0
 10
-102.5729
 20
109.7713
 30
0.0
 10
-100.3347
 20
108.6293
 30
0.0
 10
-100.3347
 20
108.6293
 30
0.0
 10
-97.8055
 20
107.3394
 30
0.0
 10
-94.2437
 20
111.502
 30
0.0
 10
-98.1488
 20
111.9315
 30
0.0
 10
-98.1488
 20
111.9315
 30
0.0
 10
-101.1616
 20
112.262
 30
0.0
 10
-100.163
 20
118.262
 30
0.0
 10
-95.5524
 20
116.3864
 30
0.0
 10
-95.5524
 20
116.3864
 30
0.0
 10
-94.1354
 20
115.8108
 30
0.0
 10
-93.2715
 20
114.8249
 30
0.0
 10
-92.9182
 20
113.641
 30
0.0
 10
-92.9182
 20
113.641
 30
0.0
 10
-92.5651
 20
114.8249
 30
0.0
 10
-91.7013
 20
115.8108
 30
0.0
 10
-90.2846
 20
116.3864
 30
0.0
 10
-90.2846
 20
116.3864
 30
0.0
 10
-85.6737
 20
118.262
 30
0.0
 10
-84.675
 20
112.262
 30
0.0
 10
-87.6879
 20
111.9315
 30
0.0
 10
-87.6879
 20
111.9315
 30
0.0
 10
-91.593
 20
111.502
 30
0.0
 10
-88.0312
 20
107.3394
 30
0.0
 10
-85.502
 20
108.6293
 30
0.0
 10
-85.502
 20
108.6293
 30
0.0
 10
-83.2637
 20
109.7713
 30
0.0
 10
-82.1742
 20
114.597
 30
0.0
 10
-81.4125
 20
116.8602
 30
0.0
 10
-81.4125
 20
116.8602
 30
0.0
 10
-80.0889
 20
120.7935
 30
0.0
 10
-78.4109
 20
124.2821
 30
0.0
 10
-75.1897
 20
126.7913
 30
0.0
 10
-75.1897
 20
126.7913
 30
0.0
 10
-77.4964
 20
125.6244
 30
0.0
 10
-78.7115
 20
124.2038
 30
0.0
 10
-80.2451
 20
121.7679
 30
0.0
 10
-80.2451
 20
121.7679
 30
0.0
 10
-80.7009
 20
121.0434
 30
0.0
 10
-81.1581
 20
120.3273
 30
0.0
 10
-81.6966
 20
119.661
 30
0.0
 10
-81.6966
 20
119.661
 30
0.0
 10
-83.6794
 20
117.208
 30
0.0
 10
-89.4192
 20
118.3117
 30
0.0
 10
-92.9182
 20
119.2673
 30
0.0
  0
SPLINE
  5
56
330
1F
100
AcDbEntity
  8
layer 1
 62
     7
100
AcDbSpline
210
0.0
220
0.0
230
1.0
 70
    11
 71
     3
 72
    36
 73
    32
 74
     0
 42
0.0000000001
 43
0.0000000001
 12
1.0
 22
0.0
 32
0.0
 13
1.0
 23
0.0
 33
0.0
 40
0.0
 40
0.0
 40
0.0
 40
0.0
 40
0.1111111111111111
 40
0.1111111111111111
 40
0.1111111111111111
 40
0.1111111111111111
 40
0.2222222222222222
 40
0.2222222222222222
 40
0.2222222222222222
 40
0.2222222222222222
 40
0.3333333333333333
 40
0.3333333333333333
 40
0.3333333333333333
 40
0.3333333333333333
 40
0.4444444444444444
 40
0.4444444444444444
 40
0.4444444444444444
 40
0.4444444444444444
 40
0.5555555555555556
 40
0.5555555555555556
 40
0.5555555555555556
 40
0.5555555555555556
 40
0.6666666666666666
 40
0.6666666666666666
 40
0.6666666666666666
 40
0.6666666666666666
 40
0.7777777777777778
 40
0.7777777777777778
 40
0.7777777777777778
 40
0.7777777777777778
 40
1.0
 40
1.0
 40
1.0
 40
1.0
 10
-163.4131
 20
-22.6161
 30
0.0
 10
-159.6718
 20
-22.386
 30
0.0
 10
-159.4479
 20
-20.7055
 30
0.0
 10
-156.2
 20
-17.769
 30
0.0
 10
-156.2
 20
-17.769
 30
0.0
 10
-154.7881
 20
-16.492
 30
0.0
 10
-152.0456
 20
-15.7355
 30
0.0
 10
-149.3138
 20
-15.3159
 30
0.0
 10
-149.3138
 20
-15.3159
 30
0.0
 10
-152.0456
 20
-14.8963
 30
0.0
 10
-154.7881
 20
-14.1391
 30
0.0
 10
-156.2
 20
-12.8625
 30
0.0
 10
-156.2
 20
-12.8625
 30
0.0
 10
-159.4479
 20
-9.9256
 30
0.0
 10
-159.6718
 20
-8.2454
 30
0.0
 10
-163.4131
 20
-8.0155
 30
0.0
 10
-163.4131
 20
-8.0155
 30
0.0
 10
-167.1543
 20
-8.2454
 30
0.0
 10
-167.3779
 20
-9.9256
 30
0.0
 10
-170.6255
 20
-12.8625
 30
0.0
 10
-170.6255
 20
-12.8625
 30
0.0
 10
-172.0377
 20
-14.1391
 30
0.0
 10
-174.7799
 20
-14.8963
 30
0.0
 10
-177.5124
 20
-15.3159
 30
0.0
 10
-177.5124
 20
-15.3159
 30
0.0
 10
-174.7799
 20
-15.7355
 30
0.0
 10
-172.0377
 20
-16.492
 30
0.0
 10
-170.6255
 20
-17.769
 30
0.0
 10
-170.6255
 20
-17.769
 30
0.0
 10
-167.3779
 20
-20.7055
 30
0.0
 10
-167.1543
 20
-22.386
 30
0.0
 10
-163.4131
 20
-22.6161
 30
0.0
  0
SPLINE
  5
57
330
1F
100
AcDbEntity
  8
layer 1
 62
     7
100
AcDbSpline
210
0.0
220
0.0
230
1.0
 70
    11
 71
     3
 72
    68
 73
    64
 74
     0
 42
0.0000000001
 43
0.0000000001
 12
1.0
 22
0.0
 32
0.0
 13
1.0
 23
0.0
 33
0.0
 40
0.0
 40
0.0
 40
0.0
 40
0.0
 40
0.0588235294117647
 40
0.0588235294117647
 40
0.0588235294117647
 40
0.0588235294117647
 40
0.1176470588235294
 40
0.1176470588235294
 40
0.1176470588235294
 40
0.1176470588235294
 40
0.1764705882352941
 40
0.1764705882352941
 40
0.1764705882352941
 40
0.1764705882352941
 40
0.2352941176470588
 40
0.2352941176470588
 40
0.2352941176470588
 40
0.2352941176470588
 40
0.2941176470588235
 40
0.2941176470588235
 40
0.2941176470588235
 40
0.2941176470588235
 40
0.3529411764705883
 40
0.3529411764705883
 40
0.3529411764705883
 40
0.3529411764705883
 40
0.4117647058823529
 40
0.4117647058823529
 40
0.4117647058823529
 40
0.4117647058823529
 40
0.4705882352941176
 40
0.4705882352941176
 40
0.4705882352941176
 40
0.4705882352941176
 40
0.5294117647058824
 40
0.5294117647058824
 40
0.5294117647058824
 40
0.5294117647058824
 40
0.5882352941176471
 40
0.5882352941176471
 40
0.5882352941176471
 40
0.5882352941176471
 40
0.6470588235294118
 40
0.6470588235294118
 40
0.6470588235294118
 40
0.6470588235294118
 40
0.7058823529411765
 40
0.7058823529411765
 40
0.7058823529411765
 40
0.7058823529411765
 40
0.7647058823529411
 40
0.7647058823529411
 40
0.7647058823529411
 40
0.7647058823529411
 40
0.8235294117647058
 40
0.8235294117647058
 40
0.8235294117647058
 40
0.8235294117647058
 40
0.8823529411764706
 40
0.8823529411764706
 40
0.8823529411764706
 40
0.8823529411764706
 40
1.0
 40
1.0
 40
1.0
 40
1.0
 10
-163.4131
 20
-29.4509
 30
0.0
 10
-163.0601
 20
-28.2665
 30
0.0
 10
-162.1959
 20
-27.2802
 30
0.0
 10
-160.7792
 20
-26.7049
 30
0.0
 10
-160.7792
 20
-26.7049
 30
0.0
 10
-156.1683
 20
-24.8293
 30
0.0
 10
-155.1693
 20
-30.8296
 30
0.0
 10
-158.1825
 20
-31.1601
 30
0.0
 10
-158.1825
 20
-31.1601
 30
0.0
 10
-162.0876
 20
-31.5892
 30
0.0
 10
-158.5258
 20
-35.7519
 30
0.0
 10
-155.9962
 20
-34.4616
 30
0.0
 10
-155.9962
 20
-34.4616
 30
0.0
 10
-153.7584
 20
-33.32
 30
0.0
 10
-152.6687
 20
-28.4939
 30
0.0
 10
-151.9072
 20
-26.2311
 30
0.0
 10
-151.9072
 20
-26.2311
 30
0.0
 10
-150.5838
 20
-22.2979
 30
0.0
 10
-148.9049
 20
-18.8092
 30
0.0
 10
-145.6845
 20
-16.2999
 30
0.0
 10
-145.6845
 20
-16.2999
 30
0.0
 10
-147.9911
 20
-17.4669
 30
0.0
 10
-149.2064
 20
-18.8878
 30
0.0
 10
-150.7397
 20
-21.323
 30
0.0
 10
-150.7397
 20
-21.323
 30
0.0
 10
-151.1955
 20
-22.0481
 30
0.0
 10
-151.6526
 20
-22.764
 30
0.0
 10
-152.1918
 20
-23.4309
 30
0.0
 10
-152.1918
 20
-23.4309
 30
0.0
 10
-154.1736
 20
-25.8833
 30
0.0
 10
-159.9138
 20
-24.78
 30
0.0
 10
-163.4131
 20
-23.8242
 30
0.0
 10
-163.4131
 20
-23.8242
 30
0.0
 10
-166.9117
 20
-24.78
 30
0.0
 10
-172.6519
 20
-25.8833
 30
0.0
 10
-174.6346
 20
-23.4309
 30
0.0
 10
-174.6346
 20
-23.4309
 30
0.0
 10
-175.1732
 20
-22.764
 30
0.0
 10
-175.6303
 20
-22.0481
 30
0.0
 10
-176.0865
 20
-21.323
 30
0.0
 10
-176.0865
 20
-21.323
 30
0.0
 10
-177.6197
 20
-18.8878
 30
0.0
 10
-178.8351
 20
-17.4669
 30
0.0
 10
-181.1413
 20
-16.2999
 30
0.0
 10
-181.1413
 20
-16.2999
 30
0.0
 10
-177.9207
 20
-18.8092
 30
0.0
 10
-176.2424
 20
-22.2979
 30
0.0
 10
-174.919
 20
-26.2311
 30
0.0
 10
-174.919
 20
-26.2311
 30
0.0
 10
-174.1571
 20
-28.4939
 30
0.0
 10
-173.0674
 20
-33.32
 30
0.0
 10
-170.8293
 20
-34.4616
 30
0.0
 10
-170.8293
 20
-34.4616
 30
0.0
 10
-168.3001
 20
-35.7519
 30
0.0
 10
-164.7382
 20
-31.5892
 30
0.0
 10
-168.6434
 20
-31.1601
 30
0.0
 10
-168.6434
 20
-31.1601
 30
0.0
 10
-171.6563
 20
-30.8296
 30
0.0
 10
-170.6573
 20
-24.8293
 30
0.0
 10
-166.047
 20
-26.7049
 30
0.0
 10
-166.047
 20
-26.7049
 30
0.0
 10
-164.6299
 20
-27.2802
 30
0.0
 10
-163.7661
 20
-28.2665
 30
0.0
 10
-163.4131
 20
-29.4509
 30
0.0
  0
SPLINE
  5
58
330
1F
100
AcDbEntity
  8
layer 1
 62
     7
100
AcDbSpline
210
0.0
220
0.0
230
1.0
 70
    11
 71
     3
 72
    68
 73
    64
 74
     0
 42
0.0000000001
 43
0.0000000001
 12
1.0
 22
0.0
 32
0.0
 13
1.0
 23
0.0
 33
0.0
 40
0.0
 40
0.0
 40
0.0
 40
0.0
 40
0.0588235294117647
 40
0.0588235294117647
 40
0.0588235294117647
 40
0.0588235294117647
 40
0.1176470588235294
 40
0.1176470588235294
 40
0.1176470588235294
 40
0.1176470588235294
 40
0.1764705882352941
 40
0.1764705882352941
 40
0.1764705882352941
 40
0.1764705882352941
 40
0.2352941176470588
 40
0.2352941176470588
 40
0.2352941176470588
 40
0.2352941176470588
 40
0.2941176470588235
 40
0.2941176470588235
 40
0.2941176470588235
 40
0.2941176470588235
 40
0.3529411764705883
 40
0.3529411764705883
 40
0.3529411764705883
 40
0.3529411764705883
 40
0.4117647058823529
 40
0.4117647058823529
 40
0.4117647058823529
 40
0.4117647058823529
 40
0.4705882352941176
 40
0.4705882352941176
 40
0.4705882352941176
 40
0.4705882352941176
 40
0.5294117647058824
 40
0.5294117647058824
 40
0.5294117647058824
 40
0.5294117647058824
 40
0.5882352941176471
 40
0.5882352941176471
 40
0.5882352941176471
 40
0.5882352941176471
 40
0.6470588235294118
 40
0.6470588235294118
 40
0.6470588235294118
 40
0.6470588235294118
 40
0.7058823529411765
 40
0.7058823529411765
 40
0.7058823529411765
 40
0.7058823529411765
 40
0.7647058823529411
 40
0.7647058823529411
 40
0.7647058823529411
 40
0.7647058823529411
 40
0.8235294117647058
 40
0.8235294117647058
 40
0.8235294117647058
 40
0.8235294117647058
 40
0.8823529411764706
 40
0.8823529411764706
 40
0.8823529411764706
 40
0.8823529411764706
 40
1.0
 40
1.0
 40
1.0
 40
1.0
 10
-163.4131
 20
-6.8076
 30
0.0
 10
-159.9138
 20
-5.8512
 30
0.0
 10
-154.1736
 20
-4.7481
 30
0.0
 10
-152.1918
 20
-7.2007
 30
0.0
 10
-152.1918
 20
-7.2007
 30
0.0
 10
-151.6526
 20
-7.8675
 30
0.0
 10
-151.1955
 20
-8.583
 30
0.0
 10
-150.7397
 20
-9.3081
 30
0.0
 10
-150.7397
 20
-9.3081
 30
0.0
 10
-149.2064
 20
-11.7437
 30
0.0
 10
-147.9911
 20
-13.1643
 30
0.0
 10
-145.6845
 20
-14.3315
 30
0.0
 10
-145.6845
 20
-14.3315
 30
0.0
 10
-148.9049
 20
-11.822
 30
0.0
 10
-150.5838
 20
-8.333
 30
0.0
 10
-151.9072
 20
-4.3998
 30
0.0
 10
-151.9072
 20
-4.3998
 30
0.0
 10
-152.6687
 20
-2.1372
 30
0.0
 10
-153.7584
 20
2.6892
 30
0.0
 10
-155.9962
 20
3.8302
 30
0.0
 10
-155.9962
 20
3.8302
 30
0.0
 10
-158.5258
 20
5.1211
 30
0.0
 10
-162.0876
 20
0.9575
 30
0.0
 10
-158.1825
 20
0.5287
 30
0.0
 10
-158.1825
 20
0.5287
 30
0.0
 10
-155.1693
 20
0.1985
 30
0.0
 10
-156.1683
 20
-5.8019
 30
0.0
 10
-160.7792
 20
-3.9265
 30
0.0
 10
-160.7792
 20
-3.9265
 30
0.0
 10
-162.1959
 20
-3.3503
 30
0.0
 10
-163.0601
 20
-2.365
 30
0.0
 10
-163.4131
 20
-1.1805
 30
0.0
 10
-163.4131
 20
-1.1805
 30
0.0
 10
-163.7661
 20
-2.365
 30
0.0
 10
-164.6299
 20
-3.3503
 30
0.0
 10
-166.047
 20
-3.9265
 30
0.0
 10
-166.047
 20
-3.9265
 30
0.0
 10
-170.6573
 20
-5.8019
 30
0.0
 10
-171.6563
 20
0.1985
 30
0.0
 10
-168.6434
 20
0.5287
 30
0.0
 10
-168.6434
 20
0.5287
 30
0.0
 10
-164.7382
 20
0.9575
 30
0.0
 10
-168.3001
 20
5.1211
 30
0.0
 10
-170.8293
 20
3.8302
 30
0.0
 10
-170.8293
 20
3.8302
 30
0.0
 10
-173.0674
 20
2.6892
 30
0.0
 10
-174.1571
 20
-2.1372
 30
0.0
 10
-174.919
 20
-4.3998
 30
0.0
 10
-174.919
 20
-4.3998
 30
0.0
 10
-176.2424
 20
-8.333
 30
0.0
 10
-177.9207
 20
-11.822
 30
0.0
 10
-181.1413
 20
-14.3315
 30
0.0
 10
-181.1413
 20
-14.3315
 30
0.0
 10
-178.8351
 20
-13.1643
 30
0.0
 10
-177.6197
 20
-11.7437
 30
0.0
 10
-176.0865
 20
-9.3081
 30
0.0
 10
-176.0865
 20
-9.3081
 30
0.0
 10
-175.6303
 20
-8.583
 30
0.0
 10
-175.1732
 20
-7.8675
 30
0.0
 10
-174.6346
 20
-7.2007
 30
0.0
 10
-174.6346
 20
-7.2007
 30
0.0
 10
-172.6519
 20
-4.7481
 30
0.0
 10
-166.9117
 20
-5.8512
 30
0.0
 10
-163.4131
 20
-6.8076
 30
0.0
  0
SPLINE
  5
59
330
1F
100
AcDbEntity
  8
layer 1
 62
     7
100
AcDbSpline
210
0.0
220
0.0
230
1.0
 70
    11
 71
     3
 72
    36
 73
    32
 74
     0
 42
0.0000000001
 43
0.0000000001
 12
1.0
 22
0.0
 32
0.0
 13
1.0
 23
0.0
 33
0.0
 40
0.0
 40
0.0
 40
0.0
 40
0.0
 40
0.1111111111111111
 40
0.1111111111111111
 40
0.1111111111111111
 40
0.1111111111111111
 40
0.2222222222222222
 40
0.2222222222222222
 40
0.2222222222222222
 40
0.2222222222222222
 40
0.3333333333333333
 40
0.3333333333333333
 40
0.3333333333333333
 40
0.3333333333333333
 40
0.4444444444444444
 40
0.4444444444444444
 40
0.4444444444444444
 40
0.4444444444444444
 40
0.5555555555555556
 40
0.5555555555555556
 40
0.5555555555555556
 40
0.5555555555555556
 40
0.6666666666666666
 40
0.6666666666666666
 40
0.6666666666666666
 40
0.6666666666666666
 40
0.7777777777777778
 40
0.7777777777777778
 40
0.7777777777777778
 40
0.7777777777777778
 40
1.0
 40
1.0
 40
1.0
 40
1.0
 10
-163.4131
 20
-55.8198
 30
0.0
 10
-159.6718
 20
-56.05
 30
0.0
 10
-159.4479
 20
-57.7299
 30
0.0
 10
-156.2
 20
-60.667
 30
0.0
 10
-156.2
 20
-60.667
 30
0.0
 10
-154.7881
 20
-61.9437
 30
0.0
 10
-152.0456
 20
-62.6999
 30
0.0
 10
-149.3138
 20
-63.1199
 30
0.0
 10
-149.3138
 20
-63.1199
 30
0.0
 10
-152.0456
 20
-63.5397
 30
0.0
 10
-154.7881
 20
-64.2967
 30
0.0
 10
-156.2
 20
-65.5732
 30
0.0
 10
-156.2
 20
-65.5732
 30
0.0
 10
-159.4479
 20
-68.5098
 30
0.0
 10
-159.6718
 20
-70.1907
 30
0.0
 10
-163.4131
 20
-70.4206
 30
0.0
 10
-163.4131
 20
-70.4206
 30
0.0
 10
-167.1543
 20
-70.1907
 30
0.0
 10
-167.3779
 20
-68.5098
 30
0.0
 10
-170.6255
 20
-65.5732
 30
0.0
 10
-170.6255
 20
-65.5732
 30
0.0
 10
-172.0377
 20
-64.2967
 30
0.0
 10
-174.7799
 20
-63.5397
 30
0.0
 10
-177.5124
 20
-63.1199
 30
0.0
 10
-177.5124
 20
-63.1199
 30
0.0
 10
-174.7799
 20
-62.6999
 30
0.0
 10
-172.0377
 20
-61.9437
 30
0.0
 10
-170.6255
 20
-60.667
 30
0.0
 10
-170.6255
 20
-60.667
 30
0.0
 10
-167.3779
 20
-57.7299
 30
0.0
 10
-167.1543
 20
-56.05
 30
0.0
 10
-163.4131
 20
-55.8198
 30
0.0
  0
SPLINE
  5
5A
330
1F
100
AcDbEntity
  8
layer 1
 62
     7
100
AcDbSpline
210
0.0
220
0.0
230
1.0
 70
    11
 71
     3
 72
    68
 73
    64
 74
     0
 42
0.0000000001
 43
0.0000000001
 12
1.0
 22
0.0
 32
0.0
 13
1.0
 23
0.0
 33
0.0
 40
0.0
 40
0.0
 40
0.0
 40
0.0
 40
0.0588235294117647
 40
0.0588235294117647
 40
0.0588235294117647
 40
0.0588235294117647
 40
0.1176470588235294
 40
0.1176470588235294
 40
0.1176470588235294
 40
0.1176470588235294
 40
0.1764705882352941
 40
0.1764705882352941
 40
0.1764705882352941
 40
0.1764705882352941
 40
0.2352941176470588
 40
0.2352941176470588
 40
0.2352941176470588
 40
0.2352941176470588
 40
0.2941176470588235
 40
0.2941176470588235
 40
0.2941176470588235
 40
0.2941176470588235
 40
0.3529411764705883
 40
0.3529411764705883
 40
0.3529411764705883
 40
0.3529411764705883
 40
0.4117647058823529
 40
0.4117647058823529
 40
0.4117647058823529
 40
0.4117647058823529
 40
0.4705882352941176
 40
0.4705882352941176
 40
0.4705882352941176
 40
0.4705882352941176
 40
0.5294117647058824
 40
0.5294117647058824
 40
0.5294117647058824
 40
0.5294117647058824
 40
0.5882352941176471
 40
0.5882352941176471
 40
0.5882352941176471
 40
0.5882352941176471
 40
0.6470588235294118
 40
0.6470588235294118
 40
0.6470588235294118
 40
0.6470588235294118
 40
0.7058823529411765
 40
0.7058823529411765
 40
0.7058823529411765
 40
0.7058823529411765
 40
0.7647058823529411
 40
0.7647058823529411
 40
0.7647058823529411
 40
0.7647058823529411
 40
0.8235294117647058
 40
0.8235294117647058
 40
0.8235294117647058
 40
0.8235294117647058
 40
0.8823529411764706
 40
0.8823529411764706
 40
0.8823529411764706
 40
0.8823529411764706
 40
1.0
 40
1.0
 40
1.0
 40
1.0
 10
-163.4131
 20
-48.9851
 30
0.0
 10
-163.0601
 20
-50.1693
 30
0.0
 10
-162.1959
 20
-51.155
 30
0.0
 10
-160.7792
 20
-51.7311
 30
0.0
 10
-160.7792
 20
-51.7311
 30
0.0
 10
-156.1683
 20
-53.6065
 30
0.0
 10
-155.1693
 20
-47.6061
 30
0.0
 10
-158.1825
 20
-47.2757
 30
0.0
 10
-158.1825
 20
-47.2757
 30
0.0
 10
-162.0876
 20
-46.8465
 30
0.0
 10
-158.5258
 20
-42.6836
 30
0.0
 10
-155.9962
 20
-43.9744
 30
0.0
 10
-155.9962
 20
-43.9744
 30
0.0
 10
-153.7584
 20
-45.1154
 30
0.0
 10
-152.6687
 20
-49.9415
 30
0.0
 10
-151.9072
 20
-52.2046
 30
0.0
 10
-151.9072
 20
-52.2046
 30
0.0
 10
-150.5838
 20
-56.1379
 30
0.0
 10
-148.9049
 20
-59.6265
 30
0.0
 10
-145.6845
 20
-62.1358
 30
0.0
 10
-145.6845
 20
-62.1358
 30
0.0
 10
-147.9911
 20
-60.9689
 30
0.0
 10
-149.2064
 20
-59.5485
 30
0.0
 10
-150.7397
 20
-57.1124
 30
0.0
 10
-150.7397
 20
-57.1124
 30
0.0
 10
-151.1955
 20
-56.3876
 30
0.0
 10
-151.6526
 20
-55.6717
 30
0.0
 10
-152.1918
 20
-55.0055
 30
0.0
 10
-152.1918
 20
-55.0055
 30
0.0
 10
-154.1736
 20
-52.5524
 30
0.0
 10
-159.9138
 20
-53.6562
 30
0.0
 10
-163.4131
 20
-54.6118
 30
0.0
 10
-163.4131
 20
-54.6118
 30
0.0
 10
-166.9117
 20
-53.6562
 30
0.0
 10
-172.6519
 20
-52.5524
 30
0.0
 10
-174.6346
 20
-55.0055
 30
0.0
 10
-174.6346
 20
-55.0055
 30
0.0
 10
-175.1732
 20
-55.6717
 30
0.0
 10
-175.6303
 20
-56.3876
 30
0.0
 10
-176.0865
 20
-57.1124
 30
0.0
 10
-176.0865
 20
-57.1124
 30
0.0
 10
-177.6197
 20
-59.5485
 30
0.0
 10
-178.8351
 20
-60.9689
 30
0.0
 10
-181.1413
 20
-62.1358
 30
0.0
 10
-181.1413
 20
-62.1358
 30
0.0
 10
-177.9207
 20
-59.6265
 30
0.0
 10
-176.2424
 20
-56.1379
 30
0.0
 10
-174.919
 20
-52.2046
 30
0.0
 10
-174.919
 20
-52.2046
 30
0.0
 10
-174.1571
 20
-49.9415
 30
0.0
 10
-173.0674
 20
-45.1154
 30
0.0
 10
-170.8293
 20
-43.9744
 30
0.0
 10
-170.8293
 20
-43.9744
 30
0.0
 10
-168.3001
 20
-42.6836
 30
0.0
 10
-164.7382
 20
-46.8465
 30
0.0
 10
-168.6434
 20
-47.2757
 30
0.0
 10
-168.6434
 20
-47.2757
 30
0.0
 10
-171.6563
 20
-47.6061
 30
0.0
 10
-170.6573
 20
-53.6065
 30
0.0
 10
-166.047
 20
-51.7311
 30
0.0
 10
-166.047
 20
-51.7311
 30
0.0
 10
-164.6299
 20
-51.155
 30
0.0
 10
-163.7661
 20
-50.1693
 30
0.0
 10
-163.4131
 20
-48.9851
 30
0.0
  0
SPLINE
  5
5B
330
1F
100
AcDbEntity
  8
layer 1
 62
     7
100
AcDbSpline
210
0.0
220
0.0
230
1.0
 70
    11
 71
     3
 72
    68
 73
    64
 74
     0
 42
0.0000000001
 43
0.0000000001
 12
1.0
 22
0.0
 32
0.0
 13
1.0
 23
0.0
 33
0.0
 40
0.0
 40
0.0
 40
0.0
 40
0.0
 40
0.0588235294117647
 40
0.0588235294117647
 40
0.0588235294117647
 40
0.0588235294117647
 40
0.1176470588235294
 40
0.1176470588235294
 40
0.1176470588235294
 40
0.1176470588235294
 40
0.1764705882352941
 40
0.1764705882352941
 40
0.1764705882352941
 40
0.1764705882352941
 40
0.2352941176470588
 40
0.2352941176470588
 40
0.2352941176470588
 40
0.2352941176470588
 40
0.2941176470588235
 40
0.2941176470588235
 40
0.2941176470588235
 40
0.2941176470588235
 40
0.3529411764705883
 40
0.3529411764705883
 40
0.3529411764705883
 40
0.3529411764705883
 40
0.4117647058823529
 40
0.4117647058823529
 40
0.4117647058823529
 40
0.4117647058823529
 40
0.4705882352941176
 40
0.4705882352941176
 40
0.4705882352941176
 40
0.4705882352941176
 40
0.5294117647058824
 40
0.5294117647058824
 40
0.5294117647058824
 40
0.5294117647058824
 40
0.5882352941176471
 40
0.5882352941176471
 40
0.5882352941176471
 40
0.5882352941176471
 40
0.6470588235294118
 40
0.6470588235294118
 40
0.6470588235294118
 40
0.6470588235294118
 40
0.7058823529411765
 40
0.7058823529411765
 40
0.7058823529411765
 40
0.7058823529411765
 40
0.7647058823529411
 40
0.7647058823529411
 40
0.7647058823529411
 40
0.7647058823529411
 40
0.8235294117647058
 40
0.8235294117647058
 40
0.8235294117647058
 40
0.8235294117647058
 40
0.8823529411764706
 40
0.8823529411764706
 40
0.8823529411764706
 40
0.8823529411764706
 40
1.0
 40
1.0
 40
1.0
 40
1.0
 10
-163.4131
 20
-71.6283
 30
0.0
 10
-159.9138
 20
-72.5842
 30
0.0
 10
-154.1736
 20
-73.6876
 30
0.0
 10
-152.1918
 20
-71.2349
 30
0.0
 10
-152.1918
 20
-71.2349
 30
0.0
 10
-151.6526
 20
-70.5686
 30
0.0
 10
-151.1955
 20
-69.8524
 30
0.0
 10
-150.7397
 20
-69.1277
 30
0.0
 10
-150.7397
 20
-69.1277
 30
0.0
 10
-149.2064
 20
-66.6917
 30
0.0
 10
-147.9911
 20
-65.2715
 30
0.0
 10
-145.6845
 20
-64.1042
 30
0.0
 10
-145.6845
 20
-64.1042
 30
0.0
 10
-148.9049
 20
-66.6135
 30
0.0
 10
-150.5838
 20
-70.1024
 30
0.0
 10
-151.9072
 20
-74.0353
 30
0.0
 10
-151.9072
 20
-74.0353
 30
0.0
 10
-152.6687
 20
-76.2986
 30
0.0
 10
-153.7584
 20
-81.1246
 30
0.0
 10
-155.9962
 20
-82.2659
 30
0.0
 10
-155.9962
 20
-82.2659
 30
0.0
 10
-158.5258
 20
-83.5562
 30
0.0
 10
-162.0876
 20
-79.3932
 30
0.0
 10
-158.1825
 20
-78.9647
 30
0.0
 10
-158.1825
 20
-78.9647
 30
0.0
 10
-155.1693
 20
-78.6339
 30
0.0
 10
-156.1683
 20
-72.6336
 30
0.0
 10
-160.7792
 20
-74.5092
 30
0.0
 10
-160.7792
 20
-74.5092
 30
0.0
 10
-162.1959
 20
-75.0851
 30
0.0
 10
-163.0601
 20
-76.071
 30
0.0
 10
-163.4131
 20
-77.2549
 30
0.0
 10
-163.4131
 20
-77.2549
 30
0.0
 10
-163.7661
 20
-76.071
 30
0.0
 10
-164.6299
 20
-75.0851
 30
0.0
 10
-166.047
 20
-74.5092
 30
0.0
 10
-166.047
 20
-74.5092
 30
0.0
 10
-170.6573
 20
-72.6336
 30
0.0
 10
-171.6563
 20
-78.6339
 30
0.0
 10
-168.6434
 20
-78.9647
 30
0.0
 10
-168.6434
 20
-78.9647
 30
0.0
 10
-164.7382
 20
-79.3932
 30
0.0
 10
-168.3001
 20
-83.5562
 30
0.0
 10
-170.8293
 20
-82.2659
 30
0.0
 10
-170.8293
 20
-82.2659
 30
0.0
 10
-173.0674
 20
-81.1246
 30
0.0
 10
-174.1571
 20
-76.2986
 30
0.0
 10
-174.919
 20
-74.0353
 30
0.0
 10
-174.919
 20
-74.0353
 30
0.0
 10
-176.2424
 20
-70.1024
 30
0.0
 10
-177.9207
 20
-66.6135
 30
0.0
 10
-181.1413
 20
-64.1042
 30
0.0
 10
-181.1413
 20
-64.1042
 30
0.0
 10
-178.8351
 20
-65.2715
 30
0.0
 10
-177.6197
 20
-66.6917
 30
0.0
 10
-176.0865
 20
-69.1277
 30
0.0
 10
-176.0865
 20
-69.1277
 30
0.0
 10
-175.6303
 20
-69.8524
 30
0.0
 10
-175.1732
 20
-70.5686
 30
0.0
 10
-174.6346
 20
-71.2349
 30
0.0
 10
-174.6346
 20
-71.2349
 30
0.0
 10
-172.6519
 20
-73.6876
 30
0.0
 10
-166.9117
 20
-72.5842
 30
0.0
 10
-163.4131
 20
-71.6283
 30
0.0
  0
SPLINE
  5
5C
330
1F
100
AcDbEntity
  8
layer 1
 62
     7
100
AcDbSpline
210
0.0
220
0.0
230
1.0
 70
    11
 71
     3
 72
    68
 73
    64
 74
     0
 42
0.0000000001
 43
0.0000000001
 12
1.0
 22
0.0
 32
0.0
 13
1.0
 23
0.0
 33
0.0
 40
0.0
 40
0.0
 40
0.0
 40
0.0
 40
0.0588235294117647
 40
0.0588235294117647
 40
0.0588235294117647
 40
0.0588235294117647
 40
0.1176470588235294
 40
0.1176470588235294
 40
0.1176470588235294
 40
0.1176470588235294
 40
0.1764705882352941
 40
0.1764705882352941
 40
0.1764705882352941
 40
0.1764705882352941
 40
0.2352941176470588
 40
0.2352941176470588
 40
0.2352941176470588
 40
0.2352941176470588
 40
0.2941176470588235
 40
0.2941176470588235
 40
0.2941176470588235
 40
0.2941176470588235
 40
0.3529411764705883
 40
0.3529411764705883
 40
0.3529411764705883
 40
0.3529411764705883
 40
0.4117647058823529
 40
0.4117647058823529
 40
0.4117647058823529
 40
0.4117647058823529
 40
0.4705882352941176
 40
0.4705882352941176
 40
0.4705882352941176
 40
0.4705882352941176
 40
0.5294117647058824
 40
0.5294117647058824
 40
0.5294117647058824
 40
0.5294117647058824
 40
0.5882352941176471
 40
0.5882352941176471
 40
0.5882352941176471
 40
0.5882352941176471
 40
0.6470588235294118
 40
0.6470588235294118
 40
0.6470588235294118
 40
0.6470588235294118
 40
0.7058823529411765
 40
0.7058823529411765
 40
0.7058823529411765
 40
0.7058823529411765
 40
0.7647058823529411
 40
0.7647058823529411
 40
0.7647058823529411
 40
0.7647058823529411
 40
0.8235294117647058
 40
0.8235294117647058
 40
0.8235294117647058
 40
0.8235294117647058
 40
0.8823529411764706
 40
0.8823529411764706
 40
0.8823529411764706
 40
0.8823529411764706
 40
1.0
 40
1.0
 40
1.0
 40
1.0
 10
-163.4131
 20
-102.2219
 30
0.0
 10
-159.9138
 20
-101.2662
 30
0.0
 10
-154.1736
 20
-100.1625
 30
0.0
 10
-152.1918
 20
-102.6152
 30
0.0
 10
-152.1918
 20
-102.6152
 30
0.0
 10
-151.6526
 20
-103.2819
 30
0.0
 10
-151.1955
 20
-103.998
 30
0.0
 10
-150.7397
 20
-104.7231
 30
0.0
 10
-150.7397
 20
-104.7231
 30
0.0
 10
-149.2064
 20
-107.1587
 30
0.0
 10
-147.9911
 20
-108.5786
 30
0.0
 10
-145.6845
 20
-109.7462
 30
0.0
 10
-145.6845
 20
-109.7462
 30
0.0
 10
-148.9049
 20
-107.2369
 30
0.0
 10
-150.5838
 20
-103.7477
 30
0.0
 10
-151.9072
 20
-99.8148
 30
0.0
 10
-151.9072
 20
-99.8148
 30
0.0
 10
-152.6687
 20
-97.5518
 30
0.0
 10
-153.7584
 20
-92.7261
 30
0.0
 10
-155.9962
 20
-91.5845
 30
0.0
 10
-155.9962
 20
-91.5845
 30
0.0
 10
-158.5258
 20
-90.2939
 30
0.0
 10
-162.0876
 20
-94.4572
 30
0.0
 10
-158.1825
 20
-94.886
 30
0.0
 10
-158.1825
 20
-94.886
 30
0.0
 10
-155.1693
 20
-95.2165
 30
0.0
 10
-156.1683
 20
-101.2171
 30
0.0
 10
-160.7792
 20
-99.3412
 30
0.0
 10
-160.7792
 20
-99.3412
 30
0.0
 10
-162.1959
 20
-98.7656
 30
0.0
 10
-163.0601
 20
-97.7797
 30
0.0
 10
-163.4131
 20
-96.5955
 30
0.0
 10
-163.4131
 20
-96.5955
 30
0.0
 10
-163.7661
 20
-97.7797
 30
0.0
 10
-164.6299
 20
-98.7656
 30
0.0
 10
-166.047
 20
-99.3412
 30
0.0
 10
-166.047
 20
-99.3412
 30
0.0
 10
-170.6573
 20
-101.2171
 30
0.0
 10
-171.6563
 20
-95.2165
 30
0.0
 10
-168.6434
 20
-94.886
 30
0.0
 10
-168.6434
 20
-94.886
 30
0.0
 10
-164.7382
 20
-94.4572
 30
0.0
 10
-168.3001
 20
-90.2939
 30
0.0
 10
-170.8293
 20
-91.5845
 30
0.0
 10
-170.8293
 20
-91.5845
 30
0.0
 10
-173.0674
 20
-92.7261
 30
0.0
 10
-174.1571
 20
-97.5518
 30
0.0
 10
-174.919
 20
-99.8148
 30
0.0
 10
-174.919
 20
-99.8148
 30
0.0
 10
-176.2424
 20
-103.7477
 30
0.0
 10
-177.9207
 20
-107.2369
 30
0.0
 10
-181.1413
 20
-109.7462
 30
0.0
 10
-181.1413
 20
-109.7462
 30
0.0
 10
-178.8351
 20
-108.5786
 30
0.0
 10
-177.6197
 20
-107.1587
 30
0.0
 10
-176.0865
 20
-104.7231
 30
0.0
 10
-176.0865
 20
-104.7231
 30
0.0
 10
-175.6303
 20
-103.998
 30
0.0
 10
-175.1732
 20
-103.2819
 30
0.0
 10
-174.6346
 20
-102.6152
 30
0.0
 10
-174.6346
 20
-102.6152
 30
0.0
 10
-172.6519
 20
-100.1625
 30
0.0
 10
-166.9117
 20
-101.2662
 30
0.0
 10
-163.4131
 20
-102.2219
 30
0.0
  0
SPLINE
  5
5D
330
1F
100
AcDbEntity
  8
layer 1
 62
     7
100
AcDbSpline
210
0.0
220
0.0
230
1.0
 70
    11
 71
     3
 72
    36
 73
    32
 74
     0
 42
0.0000000001
 43
0.0000000001
 12
1.0
 22
0.0
 32
0.0
 13
1.0
 23
0.0
 33
0.0
 40
0.0
 40
0.0
 40
0.0
 40
0.0
 40
0.1111111111111111
 40
0.1111111111111111
 40
0.1111111111111111
 40
0.1111111111111111
 40
0.2222222222222222
 40
0.2222222222222222
 40
0.2222222222222222
 40
0.2222222222222222
 40
0.3333333333333333
 40
0.3333333333333333
 40
0.3333333333333333
 40
0.3333333333333333
 40
0.4444444444444444
 40
0.4444444444444444
 40
0.4444444444444444
 40
0.4444444444444444
 40
0.5555555555555556
 40
0.5555555555555556
 40
0.5555555555555556
 40
0.5555555555555556
 40
0.6666666666666666
 40
0.6666666666666666
 40
0.6666666666666666
 40
0.6666666666666666
 40
0.7777777777777778
 40
0.7777777777777778
 40
0.7777777777777778
 40
0.7777777777777778
 40
1.0
 40
1.0
 40
1.0
 40
1.0
 10
-92.9182
 20
-22.6161
 30
0.0
 10
-96.6597
 20
-22.386
 30
0.0
 10
-96.8834
 20
-20.7055
 30
0.0
 10
-100.1315
 20
-17.769
 30
0.0
 10
-100.1315
 20
-17.769
 30
0.0
 10
-101.543
 20
-16.492
 30
0.0
 10
-104.286
 20
-15.7355
 30
0.0
 10
-107.0175
 20
-15.3159
 30
0.0
 10
-107.0175
 20
-15.3159
 30
0.0
 10
-104.286
 20
-14.8963
 30
0.0
 10
-101.543
 20
-14.1391
 30
0.0
 10
-100.1315
 20
-12.8625
 30
0.0
 10
-100.1315
 20
-12.8625
 30
0.0
 10
-96.8834
 20
-9.9256
 30
0.0
 10
-96.6597
 20
-8.2454
 30
0.0
 10
-92.9182
 20
-8.0155
 30
0.0
 10
-92.9182
 20
-8.0155
 30
0.0
 10
-89.177
 20
-8.2454
 30
0.0
 10
-88.9532
 20
-9.9256
 30
0.0
 10
-85.7054
 20
-12.8625
 30
0.0
 10
-85.7054
 20
-12.8625
 30
0.0
 10
-84.2939
 20
-14.1391
 30
0.0
 10
-81.5511
 20
-14.8963
 30
0.0
 10
-78.8192
 20
-15.3159
 30
0.0
 10
-78.8192
 20
-15.3159
 30
0.0
 10
-81.5511
 20
-15.7355
 30
0.0
 10
-84.2939
 20
-16.492
 30
0.0
 10
-85.7054
 20
-17.769
 30
0.0
 10
-85.7054
 20
-17.769
 30
0.0
 10
-88.9532
 20
-20.7055
 30
0.0
 10
-89.177
 20
-22.386
 30
0.0
 10
-92.9182
 20
-22.6161
 30
0.0
  0
SPLINE
  5
5E
330
1F
100
AcDbEntity
  8
layer 1
 62
     7
100
AcDbSpline
210
0.0
220
0.0
230
1.0
 70
    11
 71
     3
 72
    68
 73
    64
 74
     0
 42
0.0000000001
 43
0.0000000001
 12
1.0
 22
0.0
 32
0.0
 13
1.0
 23
0.0
 33
0.0
 40
0.0
 40
0.0
 40
0.0
 40
0.0
 40
0.0588235294117647
 40
0.0588235294117647
 40
0.0588235294117647
 40
0.0588235294117647
 40
0.1176470588235294
 40
0.1176470588235294
 40
0.1176470588235294
 40
0.1176470588235294
 40
0.1764705882352941
 40
0.1764705882352941
 40
0.1764705882352941
 40
0.1764705882352941
 40
0.2352941176470588
 40
0.2352941176470588
 40
0.2352941176470588
 40
0.2352941176470588
 40
0.2941176470588235
 40
0.2941176470588235
 40
0.2941176470588235
 40
0.2941176470588235
 40
0.3529411764705883
 40
0.3529411764705883
 40
0.3529411764705883
 40
0.3529411764705883
 40
0.4117647058823529
 40
0.4117647058823529
 40
0.4117647058823529
 40
0.4117647058823529
 40
0.4705882352941176
 40
0.4705882352941176
 40
0.4705882352941176
 40
0.4705882352941176
 40
0.5294117647058824
 40
0.5294117647058824
 40
0.5294117647058824
 40
0.5294117647058824
 40
0.5882352941176471
 40
0.5882352941176471
 40
0.5882352941176471
 40
0.5882352941176471
 40
0.6470588235294118
 40
0.6470588235294118
 40
0.6470588235294118
 40
0.6470588235294118
 40
0.7058823529411765
 40
0.7058823529411765
 40
0.7058823529411765
 40
0.7058823529411765
 40
0.7647058823529411
 40
0.7647058823529411
 40
0.7647058823529411
 40
0.7647058823529411
 40
0.8235294117647058
 40
0.8235294117647058
 40
0.8235294117647058
 40
0.8235294117647058
 40
0.8823529411764706
 40
0.8823529411764706
 40
0.8823529411764706
 40
0.8823529411764706
 40
1.0
 40
1.0
 40
1.0
 40
1.0
 10
-92.9182
 20
-29.4509
 30
0.0
 10
-93.2715
 20
-28.2665
 30
0.0
 10
-94.1354
 20
-27.2802
 30
0.0
 10
-95.5524
 20
-26.7049
 30
0.0
 10
-95.5524
 20
-26.7049
 30
0.0
 10
-100.163
 20
-24.8293
 30
0.0
 10
-101.1616
 20
-30.8296
 30
0.0
 10
-98.1488
 20
-31.1601
 30
0.0
 10
-98.1488
 20
-31.1601
 30
0.0
 10
-94.2437
 20
-31.5892
 30
0.0
 10
-97.8055
 20
-35.7519
 30
0.0
 10
-100.3347
 20
-34.4616
 30
0.0
 10
-100.3347
 20
-34.4616
 30
0.0
 10
-102.5729
 20
-33.32
 30
0.0
 10
-103.6625
 20
-28.4939
 30
0.0
 10
-104.4244
 20
-26.2311
 30
0.0
 10
-104.4244
 20
-26.2311
 30
0.0
 10
-105.7475
 20
-22.2979
 30
0.0
 10
-107.426
 20
-18.8092
 30
0.0
 10
-110.6467
 20
-16.2999
 30
0.0
 10
-110.6467
 20
-16.2999
 30
0.0
 10
-108.3402
 20
-17.4669
 30
0.0
 10
-107.1252
 20
-18.8878
 30
0.0
 10
-105.5916
 20
-21.323
 30
0.0
 10
-105.5916
 20
-21.323
 30
0.0
 10
-105.1354
 20
-22.0481
 30
0.0
 10
-104.6786
 20
-22.764
 30
0.0
 10
-104.1394
 20
-23.4309
 30
0.0
 10
-104.1394
 20
-23.4309
 30
0.0
 10
-102.1573
 20
-25.8833
 30
0.0
 10
-96.4174
 20
-24.78
 30
0.0
 10
-92.9182
 20
-23.8242
 30
0.0
 10
-92.9182
 20
-23.8242
 30
0.0
 10
-89.4192
 20
-24.78
 30
0.0
 10
-83.6794
 20
-25.8833
 30
0.0
 10
-81.6966
 20
-23.4309
 30
0.0
 10
-81.6966
 20
-23.4309
 30
0.0
 10
-81.1581
 20
-22.764
 30
0.0
 10
-80.7009
 20
-22.0481
 30
0.0
 10
-80.2451
 20
-21.323
 30
0.0
 10
-80.2451
 20
-21.323
 30
0.0
 10
-78.7115
 20
-18.8878
 30
0.0
 10
-77.4964
 20
-17.4669
 30
0.0
 10
-75.1897
 20
-16.2999
 30
0.0
 10
-75.1897
 20
-16.2999
 30
0.0
 10
-78.4109
 20
-18.8092
 30
0.0
 10
-80.0889
 20
-22.2979
 30
0.0
 10
-81.4125
 20
-26.2311
 30
0.0
 10
-81.4125
 20
-26.2311
 30
0.0
 10
-82.1742
 20
-28.4939
 30
0.0
 10
-83.2637
 20
-33.32
 30
0.0
 10
-85.502
 20
-34.4616
 30
0.0
 10
-85.502
 20
-34.4616
 30
0.0
 10
-88.0312
 20
-35.7519
 30
0.0
 10
-91.593
 20
-31.5892
 30
0.0
 10
-87.6879
 20
-31.1601
 30
0.0
 10
-87.6879
 20
-31.1601
 30
0.0
 10
-84.675
 20
-30.8296
 30
0.0
 10
-85.6737
 20
-24.8293
 30
0.0
 10
-90.2846
 20
-26.7049
 30
0.0
 10
-90.2846
 20
-26.7049
 30
0.0
 10
-91.7013
 20
-27.2802
 30
0.0
 10
-92.5651
 20
-28.2665
 30
0.0
 10
-92.9182
 20
-29.4509
 30
0.0
  0
SPLINE
  5
5F
330
1F
100
AcDbEntity
  8
layer 1
 62
     7
100
AcDbSpline
210
0.0
220
0.0
230
1.0
 70
    11
 71
     3
 72
   188
 73
   184
 74
     0
 42
0.0000000001
 43
0.0000000001
 12
1.0
 22
0.0
 32
0.0
 13
1.0
 23
0.0
 33
0.0
 40
0.0
 40
0.0
 40
0.0
 40
0.0
 40
0.0212765957446809
 40
0.0212765957446809
 40
0.0212765957446809
 40
0.0212765957446809
 40
0.0425531914893617
 40
0.0425531914893617
 40
0.0425531914893617
 40
0.0425531914893617
 40
0.0638297872340425
 40
0.0638297872340425
 40
0.0638297872340425
 40
0.0638297872340425
 40
0.0851063829787234
 40
0.0851063829787234
 40
0.0851063829787234
 40
0.0851063829787234
 40
0.1063829787234043
 40
0.1063829787234043
 40
0.1063829787234043
 40
0.1063829787234043
 40
0.1276595744680851
 40
0.1276595744680851
 40
0.1276595744680851
 40
0.1276595744680851
 40
0.148936170212766
 40
0.148936170212766
 40
0.148936170212766
 40
0.148936170212766
 40
0.1702127659574468
 40
0.1702127659574468
 40
0.1702127659574468
 40
0.1702127659574468
 40
0.1914893617021277
 40
0.1914893617021277
 40
0.1914893617021277
 40
0.1914893617021277
 40
0.2127659574468085
 40
0.2127659574468085
 40
0.2127659574468085
 40
0.2127659574468085
 40
0.2340425531914894
 40
0.2340425531914894
 40
0.2340425531914894
 40
0.2340425531914894
 40
0.2553191489361702
 40
0.2553191489361702
 40
0.2553191489361702
 40
0.2553191489361702
 40
0.2765957446808511
 40
0.2765957446808511
 40
0.2765957446808511
 40
0.2765957446808511
 40
0.2978723404255319
 40
0.2978723404255319
 40
0.2978723404255319
 40
0.2978723404255319
 40
0.3191489361702128
 40
0.3191489361702128
 40
0.3191489361702128
 40
0.3191489361702128
 40
0.3404255319148936
 40
0.3404255319148936
 40
0.3404255319148936
 40
0.3404255319148936
 40
0.3617021276595745
 40
0.3617021276595745
 40
0.3617021276595745
 40
0.3617021276595745
 40
0.3829787234042553
 40
0.3829787234042553
 40
0.3829787234042553
 40
0.3829787234042553
 40
0.4042553191489361
 40
0.4042553191489361
 40
0.4042553191489361
 40
0.4042553191489361
 40
0.425531914893617
 40
0.425531914893617
 40
0.425531914893617
 40
0.425531914893617
 40
0.4468085106382979
 40
0.4468085106382979
 40
0.4468085106382979
 40
0.4468085106382979
 40
0.4680851063829787
 40
0.4680851063829787
 40
0.4680851063829787
 40
0.4680851063829787
 40
0.4893617021276596
 40
0.4893617021276596
 40
0.4893617021276596
 40
0.4893617021276596
 40
0.5106382978723404
 40
0.5106382978723404
 40
0.5106382978723404
 40
0.5106382978723404
 40
0.5319148936170213
 40
0.5319148936170213
 40
0.5319148936170213
 40
0.5319148936170213
 40
0.5531914893617021
 40
0.5531914893617021
 40
0.5531914893617021
 40
0.5531914893617021
 40
0.574468085106383
 40
0.574468085106383
 40
0.574468085106383
 40
0.574468085106383
 40
0.5957446808510638
 40
0.5957446808510638
 40
0.5957446808510638
 40
0.5957446808510638
 40
0.6170212765957447
 40
0.6170212765957447
 40
0.6170212765957447
 40
0.6170212765957447
 40
0.6382978723404256
 40
0.6382978723404256
 40
0.6382978723404256
 40
0.6382978723404256
 40
0.6595744680851063
 40
0.6595744680851063
 40
0.6595744680851063
 40
0.6595744680851063
 40
0.6808510638297872
 40
0.6808510638297872
 40
0.6808510638297872
 40
0.6808510638297872
 40
0.7021276595744681
 40
0.7021276595744681
 40
0.7021276595744681
 40
0.7021276595744681
 40
0.723404255319149
 40
0.723404255319149
 40
0.723404255319149
 40
0.723404255319149
 40
0.7446808510638298
 40
0.7446808510638298
 40
0.7446808510638298
 40
0.7446808510638298
 40
0.7659574468085106
 40
0.7659574468085106
 40
0.7659574468085106
 40
0.7659574468085106
 40
0.7872340425531915
 40
0.7872340425531915
 40
0.7872340425531915
 40
0.7872340425531915
 40
0.8085106382978723
 40
0.8085106382978723
 40
0.8085106382978723
 40
0.8085106382978723
 40
0.8297872340425532
 40
0.8297872340425532
 40
0.8297872340425532
 40
0.8297872340425532
 40
0.851063829787234
 40
0.851063829787234
 40
0.851063829787234
 40
0.851063829787234
 40
0.8723404255319149
 40
0.8723404255319149
 40
0.8723404255319149
 40
0.8723404255319149
 40
0.8936170212765957
 40
0.8936170212765957
 40
0.8936170212765957
 40
0.8936170212765957
 40
0.9148936170212766
 40
0.9148936170212766
 40
0.9148936170212766
 40
0.9148936170212766
 40
0.9361702127659575
 40
0.9361702127659575
 40
0.9361702127659575
 40
0.9361702127659575
 40
0.9574468085106383
 40
0.9574468085106383
 40
0.9574468085106383
 40
0.9574468085106383
 40
1.0
 40
1.0
 40
1.0
 40
1.0
 10
-128.1656
 20
-5.0497
 30
0.0
 10
-128.1235
 20
-5.1835
 30
0.0
 10
-128.0765
 20
-5.3148
 30
0.0
 10
-128.0262
 20
-5.4437
 30
0.0
 10
-128.0262
 20
-5.4437
 30
0.0
 10
-126.2876
 20
-9.8492
 30
0.0
 10
-122.2558
 20
-12.5659
 30
0.0
 10
-117.5989
 20
-10.672
 30
0.0
 10
-117.5989
 20
-10.672
 30
0.0
 10
-114.5792
 20
-9.445
 30
0.0
 10
-111.9997
 20
-6.7573
 30
0.0
 10
-113.0555
 20
-3.2523
 30
0.0
 10
-113.0555
 20
-3.2523
 30
0.0
 10
-114.8963
 20
2.8615
 30
0.0
 10
-121.5509
 20
-0.5082
 30
0.0
 10
-119.978
 20
-4.4972
 30
0.0
 10
-119.978
 20
-4.4972
 30
0.0
 10
-119.7867
 20
-4.983
 30
0.0
 10
-119.3476
 20
-5.4816
 30
0.0
 10
-118.8496
 20
-5.6727
 30
0.0
 10
-118.8496
 20
-5.6727
 30
0.0
 10
-118.6064
 20
-6.1814
 30
0.0
 10
-118.9994
 20
-6.605
 30
0.0
 10
-119.4623
 20
-6.7946
 30
0.0
 10
-119.4623
 20
-6.7946
 30
0.0
 10
-124.2096
 20
-8.7393
 30
0.0
 10
-127.3842
 20
1.5673
 30
0.0
 10
-119.9496
 20
4.5886
 30
0.0
 10
-119.9496
 20
4.5886
 30
0.0
 10
-118.3794
 20
5.2271
 30
0.0
 10
-115.9658
 20
5.388
 30
0.0
 10
-114.3162
 20
5.1559
 30
0.0
 10
-114.3162
 20
5.1559
 30
0.0
 10
-111.2191
 20
4.7208
 30
0.0
 10
-108.9755
 20
2.999
 30
0.0
 10
-107.7739
 20
0.0529
 30
0.0
 10
-107.7739
 20
0.0529
 30
0.0
 10
-106.5189
 20
-3.0245
 30
0.0
 10
-106.9074
 20
-6.2979
 30
0.0
 10
-108.408
 20
-9.203
 30
0.0
 10
-108.408
 20
-9.203
 30
0.0
 10
-109.5791
 20
-11.4693
 30
0.0
 10
-111.6848
 20
-13.8675
 30
0.0
 10
-114.0541
 20
-14.8741
 30
0.0
 10
-114.0541
 20
-14.8741
 30
0.0
 10
-114.7014
 20
-15.1519
 30
0.0
 10
-114.7062
 20
-15.4796
 30
0.0
 10
-114.0541
 20
-15.7571
 30
0.0
 10
-114.0541
 20
-15.7571
 30
0.0
 10
-111.6848
 20
-16.7643
 30
0.0
 10
-109.5791
 20
-19.1622
 30
0.0
 10
-108.408
 20
-21.4287
 30
0.0
 10
-108.408
 20
-21.4287
 30
0.0
 10
-106.9074
 20
-24.3333
 30
0.0
 10
-106.5189
 20
-27.6073
 30
0.0
 10
-107.7739
 20
-30.6841
 30
0.0
 10
-107.7739
 20
-30.6841
 30
0.0
 10
-108.9755
 20
-33.6308
 30
0.0
 10
-111.2191
 20
-35.352
 30
0.0
 10
-114.3162
 20
-35.7873
 30
0.0
 10
-114.3162
 20
-35.7873
 30
0.0
 10
-115.9658
 20
-36.0192
 30
0.0
 10
-118.3794
 20
-35.8585
 30
0.0
 10
-119.9496
 20
-35.2204
 30
0.0
 10
-119.9496
 20
-35.2204
 30
0.0
 10
-127.3842
 20
-32.1988
 30
0.0
 10
-124.2096
 20
-21.8921
 30
0.0
 10
-119.4623
 20
-23.8365
 30
0.0
 10
-119.4623
 20
-23.8365
 30
0.0
 10
-118.9994
 20
-24.0262
 30
0.0
 10
-118.6064
 20
-24.4497
 30
0.0
 10
-118.8496
 20
-24.9588
 30
0.0
 10
-118.8496
 20
-24.9588
 30
0.0
 10
-119.3476
 20
-25.1493
 30
0.0
 10
-119.7867
 20
-25.6481
 30
0.0
 10
-119.978
 20
-26.1346
 30
0.0
 10
-119.978
 20
-26.1346
 30
0.0
 10
-121.5509
 20
-30.1227
 30
0.0
 10
-114.8963
 20
-33.493
 30
0.0
 10
-113.0555
 20
-27.3792
 30
0.0
 10
-113.0555
 20
-27.3792
 30
0.0
 10
-111.9997
 20
-23.8742
 30
0.0
 10
-114.5792
 20
-21.1861
 30
0.0
 10
-117.5989
 20
-19.9591
 30
0.0
 10
-117.5989
 20
-19.9591
 30
0.0
 10
-122.2558
 20
-18.0656
 30
0.0
 10
-126.2876
 20
-20.7826
 30
0.0
 10
-128.0262
 20
-25.1879
 30
0.0
 10
-128.0262
 20
-25.1879
 30
0.0
 10
-128.0765
 20
-25.317
 30
0.0
 10
-128.1235
 20
-25.4481
 30
0.0
 10
-128.1656
 20
-25.5816
 30
0.0
 10
-128.1656
 20
-25.5816
 30
0.0
 10
-128.2077
 20
-25.4481
 30
0.0
 10
-128.2545
 20
-25.317
 30
0.0
 10
-128.3054
 20
-25.1879
 30
0.0
 10
-128.3054
 20
-25.1879
 30
0.0
 10
-130.044
 20
-20.7826
 30
0.0
 10
-134.0751
 20
-18.0656
 30
0.0
 10
-138.7324
 20
-19.9591
 30
0.0
 10
-138.7324
 20
-19.9591
 30
0.0
 10
-141.7526
 20
-21.1861
 30
0.0
 10
-144.3319
 20
-23.8742
 30
0.0
 10
-143.2761
 20
-27.3792
 30
0.0
 10
-143.2761
 20
-27.3792
 30
0.0
 10
-141.4349
 20
-33.493
 30
0.0
 10
-134.7803
 20
-30.1227
 30
0.0
 10
-136.3532
 20
-26.1346
 30
0.0
 10
-136.3532
 20
-26.1346
 30
0.0
 10
-136.5449
 20
-25.6481
 30
0.0
 10
-136.9837
 20
-25.1493
 30
0.0
 10
-137.4813
 20
-24.9588
 30
0.0
 10
-137.4813
 20
-24.9588
 30
0.0
 10
-137.7249
 20
-24.4497
 30
0.0
 10
-137.3321
 20
-24.0262
 30
0.0
 10
-136.8693
 20
-23.8365
 30
0.0
 10
-136.8693
 20
-23.8365
 30
0.0
 10
-132.122
 20
-21.8921
 30
0.0
 10
-128.9471
 20
-32.1988
 30
0.0
 10
-136.3816
 20
-35.2204
 30
0.0
 10
-136.3816
 20
-35.2204
 30
0.0
 10
-137.9519
 20
-35.8585
 30
0.0
 10
-140.3655
 20
-36.0192
 30
0.0
 10
-142.015
 20
-35.7873
 30
0.0
 10
-142.015
 20
-35.7873
 30
0.0
 10
-145.1124
 20
-35.352
 30
0.0
 10
-147.3555
 20
-33.6308
 30
0.0
 10
-148.5574
 20
-30.6841
 30
0.0
 10
-148.5574
 20
-30.6841
 30
0.0
 10
-149.8124
 20
-27.6073
 30
0.0
 10
-149.4242
 20
-24.3333
 30
0.0
 10
-147.9236
 20
-21.4287
 30
0.0
 10
-147.9236
 20
-21.4287
 30
0.0
 10
-146.7522
 20
-19.1622
 30
0.0
 10
-144.6464
 20
-16.7643
 30
0.0
 10
-142.2768
 20
-15.7571
 30
0.0
 10
-142.2768
 20
-15.7571
 30
0.0
 10
-141.625
 20
-15.4796
 30
0.0
 10
-141.6302
 20
-15.1519
 30
0.0
 10
-142.2768
 20
-14.8741
 30
0.0
 10
-142.2768
 20
-14.8741
 30
0.0
 10
-144.6464
 20
-13.8675
 30
0.0
 10
-146.7522
 20
-11.4693
 30
0.0
 10
-147.9236
 20
-9.203
 30
0.0
 10
-147.9236
 20
-9.203
 30
0.0
 10
-149.4242
 20
-6.2979
 30
0.0
 10
-149.8124
 20
-3.0245
 30
0.0
 10
-148.5574
 20
0.0529
 30
0.0
 10
-148.5574
 20
0.0529
 30
0.0
 10
-147.3555
 20
2.999
 30
0.0
 10
-145.1124
 20
4.7208
 30
0.0
 10
-142.015
 20
5.1559
 30
0.0
 10
-142.015
 20
5.1559
 30
0.0
 10
-140.3655
 20
5.388
 30
0.0
 10
-137.9519
 20
5.2271
 30
0.0
 10
-136.3816
 20
4.5886
 30
0.0
 10
-136.3816
 20
4.5886
 30
0.0
 10
-128.9471
 20
1.5673
 30
0.0
 10
-132.122
 20
-8.7393
 30
0.0
 10
-136.8693
 20
-6.7946
 30
0.0
 10
-136.8693
 20
-6.7946
 30
0.0
 10
-137.3321
 20
-6.605
 30
0.0
 10
-137.7249
 20
-6.1814
 30
0.0
 10
-137.4813
 20
-5.6727
 30
0.0
 10
-137.4813
 20
-5.6727
 30
0.0
 10
-136.9837
 20
-5.4816
 30
0.0
 10
-136.5449
 20
-4.983
 30
0.0
 10
-136.3532
 20
-4.4972
 30
0.0
 10
-136.3532
 20
-4.4972
 30
0.0
 10
-134.7803
 20
-0.5082
 30
0.0
 10
-141.4349
 20
2.8615
 30
0.0
 10
-143.2761
 20
-3.2523
 30
0.0
 10
-143.2761
 20
-3.2523
 30
0.0
 10
-144.3319
 20
-6.7573
 30
0.0
 10
-141.7526
 20
-9.445
 30
0.0
 10
-138.7324
 20
-10.672
 30
0.0
 10
-138.7324
 20
-10.672
 30
0.0
 10
-134.0751
 20
-12.5659
 30
0.0
 10
-130.044
 20
-9.8492
 30
0.0
 10
-128.3054
 20
-5.4437
 30
0.0
 10
-128.3054
 20
-5.4437
 30
0.0
 10
-128.2545
 20
-5.3148
 30
0.0
 10
-128.2077
 20
-5.1835
 30
0.0
 10
-128.1656
 20
-5.0497
 30
0.0
  0
SPLINE
  5
60
330
1F
100
AcDbEntity
  8
layer 1
 62
     7
100
AcDbSpline
210
0.0
220
0.0
230
1.0
 70
    11
 71
     3
 72
    68
 73
    64
 74
     0
 42
0.0000000001
 43
0.0000000001
 12
1.0
 22
0.0
 32
0.0
 13
1.0
 23
0.0
 33
0.0
 40
0.0
 40
0.0
 40
0.0
 40
0.0
 40
0.0588235294117647
 40
0.0588235294117647
 40
0.0588235294117647
 40
0.0588235294117647
 40
0.1176470588235294
 40
0.1176470588235294
 40
0.1176470588235294
 40
0.1176470588235294
 40
0.1764705882352941
 40
0.1764705882352941
 40
0.1764705882352941
 40
0.1764705882352941
 40
0.2352941176470588
 40
0.2352941176470588
 40
0.2352941176470588
 40
0.2352941176470588
 40
0.2941176470588235
 40
0.2941176470588235
 40
0.2941176470588235
 40
0.2941176470588235
 40
0.3529411764705883
 40
0.3529411764705883
 40
0.3529411764705883
 40
0.3529411764705883
 40
0.4117647058823529
 40
0.4117647058823529
 40
0.4117647058823529
 40
0.4117647058823529
 40
0.4705882352941176
 40
0.4705882352941176
 40
0.4705882352941176
 40
0.4705882352941176
 40
0.5294117647058824
 40
0.5294117647058824
 40
0.5294117647058824
 40
0.5294117647058824
 40
0.5882352941176471
 40
0.5882352941176471
 40
0.5882352941176471
 40
0.5882352941176471
 40
0.6470588235294118
 40
0.6470588235294118
 40
0.6470588235294118
 40
0.6470588235294118
 40
0.7058823529411765
 40
0.7058823529411765
 40
0.7058823529411765
 40
0.7058823529411765
 40
0.7647058823529411
 40
0.7647058823529411
 40
0.7647058823529411
 40
0.7647058823529411
 40
0.8235294117647058
 40
0.8235294117647058
 40
0.8235294117647058
 40
0.8235294117647058
 40
0.8823529411764706
 40
0.8823529411764706
 40
0.8823529411764706
 40
0.8823529411764706
 40
1.0
 40
1.0
 40
1.0
 40
1.0
 10
-92.9182
 20
-6.8076
 30
0.0
 10
-96.4174
 20
-5.8512
 30
0.0
 10
-102.1573
 20
-4.7481
 30
0.0
 10
-104.1394
 20
-7.2007
 30
0.0
 10
-104.1394
 20
-7.2007
 30
0.0
 10
-104.6786
 20
-7.8675
 30
0.0
 10
-105.1354
 20
-8.583
 30
0.0
 10
-105.5916
 20
-9.3081
 30
0.0
 10
-105.5916
 20
-9.3081
 30
0.0
 10
-107.1252
 20
-11.7437
 30
0.0
 10
-108.3402
 20
-13.1643
 30
0.0
 10
-110.6467
 20
-14.3315
 30
0.0
 10
-110.6467
 20
-14.3315
 30
0.0
 10
-107.426
 20
-11.822
 30
0.0
 10
-105.7475
 20
-8.333
 30
0.0
 10
-104.4244
 20
-4.3998
 30
0.0
 10
-104.4244
 20
-4.3998
 30
0.0
 10
-103.6625
 20
-2.1372
 30
0.0
 10
-102.5729
 20
2.6892
 30
0.0
 10
-100.3347
 20
3.8302
 30
0.0
 10
-100.3347
 20
3.8302
 30
0.0
 10
-97.8055
 20
5.1211
 30
0.0
 10
-94.2437
 20
0.9575
 30
0.0
 10
-98.1488
 20
0.5287
 30
0.0
 10
-98.1488
 20
0.5287
 30
0.0
 10
-101.1616
 20
0.1985
 30
0.0
 10
-100.163
 20
-5.8019
 30
0.0
 10
-95.5524
 20
-3.9265
 30
0.0
 10
-95.5524
 20
-3.9265
 30
0.0
 10
-94.1354
 20
-3.3503
 30
0.0
 10
-93.2715
 20
-2.365
 30
0.0
 10
-92.9182
 20
-1.1805
 30
0.0
 10
-92.9182
 20
-1.1805
 30
0.0
 10
-92.5651
 20
-2.365
 30
0.0
 10
-91.7013
 20
-3.3503
 30
0.0
 10
-90.2846
 20
-3.9265
 30
0.0
 10
-90.2846
 20
-3.9265
 30
0.0
 10
-85.6737
 20
-5.8019
 30
0.0
 10
-84.675
 20
0.1985
 30
0.0
 10
-87.6879
 20
0.5287
 30
0.0
 10
-87.6879
 20
0.5287
 30
0.0
 10
-91.593
 20
0.9575
 30
0.0
 10
-88.0312
 20
5.1211
 30
0.0
 10
-85.502
 20
3.8302
 30
0.0
 10
-85.502
 20
3.8302
 30
0.0
 10
-83.2637
 20
2.6892
 30
0.0
 10
-82.1742
 20
-2.1372
 30
0.0
 10
-81.4125
 20
-4.3998
 30
0.0
 10
-81.4125
 20
-4.3998
 30
0.0
 10
-80.0889
 20
-8.333
 30
0.0
 10
-78.4109
 20
-11.822
 30
0.0
 10
-75.1897
 20
-14.3315
 30
0.0
 10
-75.1897
 20
-14.3315
 30
0.0
 10
-77.4964
 20
-13.1643
 30
0.0
 10
-78.7115
 20
-11.7437
 30
0.0
 10
-80.2451
 20
-9.3081
 30
0.0
 10
-80.2451
 20
-9.3081
 30
0.0
 10
-80.7009
 20
-8.583
 30
0.0
 10
-81.1581
 20
-7.8675
 30
0.0
 10
-81.6966
 20
-7.2007
 30
0.0
 10
-81.6966
 20
-7.2007
 30
0.0
 10
-83.6794
 20
-4.7481
 30
0.0
 10
-89.4192
 20
-5.8512
 30
0.0
 10
-92.9182
 20
-6.8076
 30
0.0
  0
SPLINE
  5
61
330
1F
100
AcDbEntity
  8
layer 1
 62
     7
100
AcDbSpline
210
0.0
220
0.0
230
1.0
 70
    11
 71
     3
 72
    36
 73
    32
 74
     0
 42
0.0000000001
 43
0.0000000001
 12
1.0
 22
0.0
 32
0.0
 13
1.0
 23
0.0
 33
0.0
 40
0.0
 40
0.0
 40
0.0
 40
0.0
 40
0.1111111111111111
 40
0.1111111111111111
 40
0.1111111111111111
 40
0.1111111111111111
 40
0.2222222222222222
 40
0.2222222222222222
 40
0.2222222222222222
 40
0.2222222222222222
 40
0.3333333333333333
 40
0.3333333333333333
 40
0.3333333333333333
 40
0.3333333333333333
 40
0.4444444444444444
 40
0.4444444444444444
 40
0.4444444444444444
 40
0.4444444444444444
 40
0.5555555555555556
 40
0.5555555555555556
 40
0.5555555555555556
 40
0.5555555555555556
 40
0.6666666666666666
 40
0.6666666666666666
 40
0.6666666666666666
 40
0.6666666666666666
 40
0.7777777777777778
 40
0.7777777777777778
 40
0.7777777777777778
 40
0.7777777777777778
 40
1.0
 40
1.0
 40
1.0
 40
1.0
 10
-92.9182
 20
-55.8198
 30
0.0
 10
-96.6597
 20
-56.05
 30
0.0
 10
-96.8834
 20
-57.7299
 30
0.0
 10
-100.1315
 20
-60.667
 30
0.0
 10
-100.1315
 20
-60.667
 30
0.0
 10
-101.543
 20
-61.9437
 30
0.0
 10
-104.286
 20
-62.6999
 30
0.0
 10
-107.0175
 20
-63.1199
 30
0.0
 10
-107.0175
 20
-63.1199
 30
0.0
 10
-104.286
 20
-63.5397
 30
0.0
 10
-101.543
 20
-64.2967
 30
0.0
 10
-100.1315
 20
-65.5732
 30
0.0
 10
-100.1315
 20
-65.5732
 30
0.0
 10
-96.8834
 20
-68.5098
 30
0.0
 10
-96.6597
 20
-70.1907
 30
0.0
 10
-92.9182
 20
-70.4206
 30
0.0
 10
-92.9182
 20
-70.4206
 30
0.0
 10
-89.177
 20
-70.1907
 30
0.0
 10
-88.9532
 20
-68.5098
 30
0.0
 10
-85.7054
 20
-65.5732
 30
0.0
 10
-85.7054
 20
-65.5732
 30
0.0
 10
-84.2939
 20
-64.2967
 30
0.0
 10
-81.5511
 20
-63.5397
 30
0.0
 10
-78.8192
 20
-63.1199
 30
0.0
 10
-78.8192
 20
-63.1199
 30
0.0
 10
-81.5511
 20
-62.6999
 30
0.0
 10
-84.2939
 20
-61.9437
 30
0.0
 10
-85.7054
 20
-60.667
 30
0.0
 10
-85.7054
 20
-60.667
 30
0.0
 10
-88.9532
 20
-57.7299
 30
0.0
 10
-89.177
 20
-56.05
 30
0.0
 10
-92.9182
 20
-55.8198
 30
0.0
  0
SPLINE
  5
62
330
1F
100
AcDbEntity
  8
layer 1
 62
     7
100
AcDbSpline
210
0.0
220
0.0
230
1.0
 70
    11
 71
     3
 72
    68
 73
    64
 74
     0
 42
0.0000000001
 43
0.0000000001
 12
1.0
 22
0.0
 32
0.0
 13
1.0
 23
0.0
 33
0.0
 40
0.0
 40
0.0
 40
0.0
 40
0.0
 40
0.0588235294117647
 40
0.0588235294117647
 40
0.0588235294117647
 40
0.0588235294117647
 40
0.1176470588235294
 40
0.1176470588235294
 40
0.1176470588235294
 40
0.1176470588235294
 40
0.1764705882352941
 40
0.1764705882352941
 40
0.1764705882352941
 40
0.1764705882352941
 40
0.2352941176470588
 40
0.2352941176470588
 40
0.2352941176470588
 40
0.2352941176470588
 40
0.2941176470588235
 40
0.2941176470588235
 40
0.2941176470588235
 40
0.2941176470588235
 40
0.3529411764705883
 40
0.3529411764705883
 40
0.3529411764705883
 40
0.3529411764705883
 40
0.4117647058823529
 40
0.4117647058823529
 40
0.4117647058823529
 40
0.4117647058823529
 40
0.4705882352941176
 40
0.4705882352941176
 40
0.4705882352941176
 40
0.4705882352941176
 40
0.5294117647058824
 40
0.5294117647058824
 40
0.5294117647058824
 40
0.5294117647058824
 40
0.5882352941176471
 40
0.5882352941176471
 40
0.5882352941176471
 40
0.5882352941176471
 40
0.6470588235294118
 40
0.6470588235294118
 40
0.6470588235294118
 40
0.6470588235294118
 40
0.7058823529411765
 40
0.7058823529411765
 40
0.7058823529411765
 40
0.7058823529411765
 40
0.7647058823529411
 40
0.7647058823529411
 40
0.7647058823529411
 40
0.7647058823529411
 40
0.8235294117647058
 40
0.8235294117647058
 40
0.8235294117647058
 40
0.8235294117647058
 40
0.8823529411764706
 40
0.8823529411764706
 40
0.8823529411764706
 40
0.8823529411764706
 40
1.0
 40
1.0
 40
1.0
 40
1.0
 10
-92.9182
 20
-48.9851
 30
0.0
 10
-93.2715
 20
-50.1693
 30
0.0
 10
-94.1354
 20
-51.155
 30
0.0
 10
-95.5524
 20
-51.7311
 30
0.0
 10
-95.5524
 20
-51.7311
 30
0.0
 10
-100.163
 20
-53.6065
 30
0.0
 10
-101.1616
 20
-47.6061
 30
0.0
 10
-98.1488
 20
-47.2757
 30
0.0
 10
-98.1488
 20
-47.2757
 30
0.0
 10
-94.2437
 20
-46.8465
 30
0.0
 10
-97.8055
 20
-42.6836
 30
0.0
 10
-100.3347
 20
-43.9744
 30
0.0
 10
-100.3347
 20
-43.9744
 30
0.0
 10
-102.5729
 20
-45.1154
 30
0.0
 10
-103.6625
 20
-49.9415
 30
0.0
 10
-104.4244
 20
-52.2046
 30
0.0
 10
-104.4244
 20
-52.2046
 30
0.0
 10
-105.7475
 20
-56.1379
 30
0.0
 10
-107.426
 20
-59.6265
 30
0.0
 10
-110.6467
 20
-62.1358
 30
0.0
 10
-110.6467
 20
-62.1358
 30
0.0
 10
-108.3402
 20
-60.9689
 30
0.0
 10
-107.1252
 20
-59.5485
 30
0.0
 10
-105.5916
 20
-57.1124
 30
0.0
 10
-105.5916
 20
-57.1124
 30
0.0
 10
-105.1354
 20
-56.3876
 30
0.0
 10
-104.6786
 20
-55.6717
 30
0.0
 10
-104.1394
 20
-55.0055
 30
0.0
 10
-104.1394
 20
-55.0055
 30
0.0
 10
-102.1573
 20
-52.5524
 30
0.0
 10
-96.4174
 20
-53.6562
 30
0.0
 10
-92.9182
 20
-54.6118
 30
0.0
 10
-92.9182
 20
-54.6118
 30
0.0
 10
-89.4192
 20
-53.6562
 30
0.0
 10
-83.6794
 20
-52.5524
 30
0.0
 10
-81.6966
 20
-55.0055
 30
0.0
 10
-81.6966
 20
-55.0055
 30
0.0
 10
-81.1581
 20
-55.6717
 30
0.0
 10
-80.7009
 20
-56.3876
 30
0.0
 10
-80.2451
 20
-57.1124
 30
0.0
 10
-80.2451
 20
-57.1124
 30
0.0
 10
-78.7115
 20
-59.5485
 30
0.0
 10
-77.4964
 20
-60.9689
 30
0.0
 10
-75.1897
 20
-62.1358
 30
0.0
 10
-75.1897
 20
-62.1358
 30
0.0
 10
-78.4109
 20
-59.6265
 30
0.0
 10
-80.0889
 20
-56.1379
 30
0.0
 10
-81.4125
 20
-52.2046
 30
0.0
 10
-81.4125
 20
-52.2046
 30
0.0
 10
-82.1742
 20
-49.9415
 30
0.0
 10
-83.2637
 20
-45.1154
 30
0.0
 10
-85.502
 20
-43.9744
 30
0.0
 10
-85.502
 20
-43.9744
 30
0.0
 10
-88.0312
 20
-42.6836
 30
0.0
 10
-91.593
 20
-46.8465
 30
0.0
 10
-87.6879
 20
-47.2757
 30
0.0
 10
-87.6879
 20
-47.2757
 30
0.0
 10
-84.675
 20
-47.6061
 30
0.0
 10
-85.6737
 20
-53.6065
 30
0.0
 10
-90.2846
 20
-51.7311
 30
0.0
 10
-90.2846
 20
-51.7311
 30
0.0
 10
-91.7013
 20
-51.155
 30
0.0
 10
-92.5651
 20
-50.1693
 30
0.0
 10
-92.9182
 20
-48.9851
 30
0.0
  0
SPLINE
  5
63
330
1F
100
AcDbEntity
  8
layer 1
 62
     7
100
AcDbSpline
210
0.0
220
0.0
230
1.0
 70
    11
 71
     3
 72
    72
 73
    68
 74
     0
 42
0.0000000001
 43
0.0000000001
 12
1.0
 22
0.0
 32
0.0
 13
1.0
 23
0.0
 33
0.0
 40
0.0
 40
0.0
 40
0.0
 40
0.0
 40
0.0555555555555556
 40
0.0555555555555556
 40
0.0555555555555556
 40
0.0555555555555556
 40
0.1111111111111111
 40
0.1111111111111111
 40
0.1111111111111111
 40
0.1111111111111111
 40
0.1666666666666667
 40
0.1666666666666667
 40
0.1666666666666667
 40
0.1666666666666667
 40
0.2222222222222222
 40
0.2222222222222222
 40
0.2222222222222222
 40
0.2222222222222222
 40
0.2777777777777778
 40
0.2777777777777778
 40
0.2777777777777778
 40
0.2777777777777778
 40
0.3333333333333333
 40
0.3333333333333333
 40
0.3333333333333333
 40
0.3333333333333333
 40
0.3888888888888889
 40
0.3888888888888889
 40
0.3888888888888889
 40
0.3888888888888889
 40
0.4444444444444444
 40
0.4444444444444444
 40
0.4444444444444444
 40
0.4444444444444444
 40
0.5
 40
0.5
 40
0.5
 40
0.5
 40
0.5555555555555556
 40
0.5555555555555556
 40
0.5555555555555556
 40
0.5555555555555556
 40
0.6111111111111112
 40
0.6111111111111112
 40
0.6111111111111112
 40
0.6111111111111112
 40
0.6666666666666666
 40
0.6666666666666666
 40
0.6666666666666666
 40
0.6666666666666666
 40
0.7222222222222222
 40
0.7222222222222222
 40
0.7222222222222222
 40
0.7222222222222222
 40
0.7777777777777778
 40
0.7777777777777778
 40
0.7777777777777778
 40
0.7777777777777778
 40
0.8333333333333334
 40
0.8333333333333334
 40
0.8333333333333334
 40
0.8333333333333334
 40
0.8888888888888888
 40
0.8888888888888888
 40
0.8888888888888888
 40
0.8888888888888888
 40
1.0
 40
1.0
 40
1.0
 40
1.0
 10
-114.3592
 20
-39.2177
 30
0.0
 10
-110.3031
 20
-40.2117
 30
0.0
 10
-106.9571
 20
-43.6504
 30
0.0
 10
-105.7108
 20
-48.034
 30
0.0
 10
-105.7108
 20
-48.034
 30
0.0
 10
-104.9874
 20
-45.4468
 30
0.0
 10
-102.9635
 20
-42.9691
 30
0.0
 10
-100.4474
 20
-42.1151
 30
0.0
 10
-100.4474
 20
-42.1151
 30
0.0
 10
-97.4049
 20
-41.0823
 30
0.0
 10
-94.3974
 20
-42.3759
 30
0.0
 10
-93.1937
 20
-45.4151
 30
0.0
 10
-93.1937
 20
-45.4151
 30
0.0
 10
-93.0815
 20
-45.698
 30
0.0
 10
-92.9899
 20
-45.9811
 30
0.0
 10
-92.9182
 20
-46.2616
 30
0.0
 10
-92.9182
 20
-46.2616
 30
0.0
 10
-92.8471
 20
-45.9811
 30
0.0
 10
-92.7549
 20
-45.698
 30
0.0
 10
-92.6429
 20
-45.4151
 30
0.0
 10
-92.6429
 20
-45.4151
 30
0.0
 10
-91.4386
 20
-42.3759
 30
0.0
 10
-88.4321
 20
-41.0823
 30
0.0
 10
-85.3893
 20
-42.1151
 30
0.0
 10
-85.3893
 20
-42.1151
 30
0.0
 10
-82.8729
 20
-42.9691
 30
0.0
 10
-80.8492
 20
-45.4468
 30
0.0
 10
-80.1261
 20
-48.034
 30
0.0
 10
-80.1261
 20
-48.034
 30
0.0
 10
-79.0367
 20
-44.2032
 30
0.0
 10
-76.3439
 20
-41.0943
 30
0.0
 10
-72.9753
 20
-39.7076
 30
0.0
 10
-72.9753
 20
-39.7076
 30
0.0
 10
-72.9753
 20
-39.7076
 30
0.0
 10
-72.9753
 20
-38.7278
 30
0.0
 10
-72.9753
 20
-38.7278
 30
0.0
 10
-72.9753
 20
-38.7278
 30
0.0
 10
-76.3439
 20
-37.3415
 30
0.0
 10
-79.0367
 20
-34.2332
 30
0.0
 10
-80.1261
 20
-30.4017
 30
0.0
 10
-80.1261
 20
-30.4017
 30
0.0
 10
-80.8492
 20
-32.9889
 30
0.0
 10
-82.8729
 20
-35.4667
 30
0.0
 10
-85.3893
 20
-36.3203
 30
0.0
 10
-85.3893
 20
-36.3203
 30
0.0
 10
-88.4321
 20
-37.3538
 30
0.0
 10
-91.4386
 20
-36.0601
 30
0.0
 10
-92.6429
 20
-33.0206
 30
0.0
 10
-92.6429
 20
-33.0206
 30
0.0
 10
-92.7549
 20
-32.7374
 30
0.0
 10
-92.8471
 20
-32.455
 30
0.0
 10
-92.9182
 20
-32.1741
 30
0.0
 10
-92.9182
 20
-32.1741
 30
0.0
 10
-92.9899
 20
-32.455
 30
0.0
 10
-93.0815
 20
-32.7374
 30
0.0
 10
-93.1937
 20
-33.0206
 30
0.0
 10
-93.1937
 20
-33.0206
 30
0.0
 10
-94.3974
 20
-36.0601
 30
0.0
 10
-97.4049
 20
-37.3538
 30
0.0
 10
-100.4474
 20
-36.3203
 30
0.0
 10
-100.4474
 20
-36.3203
 30
0.0
 10
-102.9635
 20
-35.4667
 30
0.0
 10
-104.9874
 20
-32.9889
 30
0.0
 10
-105.7108
 20
-30.4017
 30
0.0
 10
-105.7108
 20
-30.4017
 30
0.0
 10
-106.9571
 20
-34.786
 30
0.0
 10
-110.3031
 20
-38.2241
 30
0.0
 10
-114.3592
 20
-39.2177
 30
0.0
  0
SPLINE
  5
64
330
1F
100
AcDbEntity
  8
layer 1
 62
     7
100
AcDbSpline
210
0.0
220
0.0
230
1.0
 70
    11
 71
     3
 72
    52
 73
    48
 74
     0
 42
0.0000000001
 43
0.0000000001
 12
1.0
 22
0.0
 32
0.0
 13
1.0
 23
0.0
 33
0.0
 40
0.0
 40
0.0
 40
0.0
 40
0.0
 40
0.0769230769230769
 40
0.0769230769230769
 40
0.0769230769230769
 40
0.0769230769230769
 40
0.1538461538461539
 40
0.1538461538461539
 40
0.1538461538461539
 40
0.1538461538461539
 40
0.2307692307692308
 40
0.2307692307692308
 40
0.2307692307692308
 40
0.2307692307692308
 40
0.3076923076923077
 40
0.3076923076923077
 40
0.3076923076923077
 40
0.3076923076923077
 40
0.3846153846153846
 40
0.3846153846153846
 40
0.3846153846153846
 40
0.3846153846153846
 40
0.4615384615384616
 40
0.4615384615384616
 40
0.4615384615384616
 40
0.4615384615384616
 40
0.5384615384615384
 40
0.5384615384615384
 40
0.5384615384615384
 40
0.5384615384615384
 40
0.6153846153846154
 40
0.6153846153846154
 40
0.6153846153846154
 40
0.6153846153846154
 40
0.6923076923076923
 40
0.6923076923076923
 40
0.6923076923076923
 40
0.6923076923076923
 40
0.7692307692307693
 40
0.7692307692307693
 40
0.7692307692307693
 40
0.7692307692307693
 40
0.8461538461538461
 40
0.8461538461538461
 40
0.8461538461538461
 40
0.8461538461538461
 40
1.0
 40
1.0
 40
1.0
 40
1.0
 10
-128.1656
 20
-47.8177
 30
0.0
 10
-128.0537
 20
-47.3761
 30
0.0
 10
-127.9179
 20
-46.9501
 30
0.0
 10
-127.7626
 20
-46.5503
 30
0.0
 10
-127.7626
 20
-46.5503
 30
0.0
 10
-126.5399
 20
-43.4032
 30
0.0
 10
-124.0659
 20
-41.1794
 30
0.0
 10
-121.0395
 20
-39.8494
 30
0.0
 10
-121.0395
 20
-39.8494
 30
0.0
 10
-120.4183
 20
-39.5763
 30
0.0
 10
-119.7973
 20
-39.3679
 30
0.0
 10
-119.1795
 20
-39.2177
 30
0.0
 10
-119.1795
 20
-39.2177
 30
0.0
 10
-119.7973
 20
-39.0679
 30
0.0
 10
-120.4183
 20
-38.8588
 30
0.0
 10
-121.0395
 20
-38.5863
 30
0.0
 10
-121.0395
 20
-38.5863
 30
0.0
 10
-124.0659
 20
-37.2566
 30
0.0
 10
-126.5399
 20
-35.033
 30
0.0
 10
-127.7626
 20
-31.8852
 30
0.0
 10
-127.7626
 20
-31.8852
 30
0.0
 10
-127.9179
 20
-31.4854
 30
0.0
 10
-128.0537
 20
-31.06
 30
0.0
 10
-128.1656
 20
-30.6181
 30
0.0
 10
-128.1656
 20
-30.6181
 30
0.0
 10
-128.2773
 20
-31.06
 30
0.0
 10
-128.4131
 20
-31.4854
 30
0.0
 10
-128.5687
 20
-31.8852
 30
0.0
 10
-128.5687
 20
-31.8852
 30
0.0
 10
-129.7917
 20
-35.033
 30
0.0
 10
-132.2654
 20
-37.2566
 30
0.0
 10
-135.2917
 20
-38.5863
 30
0.0
 10
-135.2917
 20
-38.5863
 30
0.0
 10
-135.913
 20
-38.8588
 30
0.0
 10
-136.5343
 20
-39.0679
 30
0.0
 10
-137.1515
 20
-39.2177
 30
0.0
 10
-137.1515
 20
-39.2177
 30
0.0
 10
-136.5343
 20
-39.3679
 30
0.0
 10
-135.913
 20
-39.5763
 30
0.0
 10
-135.2917
 20
-39.8494
 30
0.0
 10
-135.2917
 20
-39.8494
 30
0.0
 10
-132.2654
 20
-41.1794
 30
0.0
 10
-129.7917
 20
-43.4032
 30
0.0
 10
-128.5687
 20
-46.5503
 30
0.0
 10
-128.5687
 20
-46.5503
 30
0.0
 10
-128.4131
 20
-46.9501
 30
0.0
 10
-128.2773
 20
-47.3761
 30
0.0
 10
-128.1656
 20
-47.8177
 30
0.0
  0
SPLINE
  5
65
330
1F
100
AcDbEntity
  8
layer 1
 62
     7
100
AcDbSpline
210
0.0
220
0.0
230
1.0
 70
    11
 71
     3
 72
   188
 73
   184
 74
     0
 42
0.0000000001
 43
0.0000000001
 12
1.0
 22
0.0
 32
0.0
 13
1.0
 23
0.0
 33
0.0
 40
0.0
 40
0.0
 40
0.0
 40
0.0
 40
0.0212765957446809
 40
0.0212765957446809
 40
0.0212765957446809
 40
0.0212765957446809
 40
0.0425531914893617
 40
0.0425531914893617
 40
0.0425531914893617
 40
0.0425531914893617
 40
0.0638297872340425
 40
0.0638297872340425
 40
0.0638297872340425
 40
0.0638297872340425
 40
0.0851063829787234
 40
0.0851063829787234
 40
0.0851063829787234
 40
0.0851063829787234
 40
0.1063829787234043
 40
0.1063829787234043
 40
0.1063829787234043
 40
0.1063829787234043
 40
0.1276595744680851
 40
0.1276595744680851
 40
0.1276595744680851
 40
0.1276595744680851
 40
0.148936170212766
 40
0.148936170212766
 40
0.148936170212766
 40
0.148936170212766
 40
0.1702127659574468
 40
0.1702127659574468
 40
0.1702127659574468
 40
0.1702127659574468
 40
0.1914893617021277
 40
0.1914893617021277
 40
0.1914893617021277
 40
0.1914893617021277
 40
0.2127659574468085
 40
0.2127659574468085
 40
0.2127659574468085
 40
0.2127659574468085
 40
0.2340425531914894
 40
0.2340425531914894
 40
0.2340425531914894
 40
0.2340425531914894
 40
0.2553191489361702
 40
0.2553191489361702
 40
0.2553191489361702
 40
0.2553191489361702
 40
0.2765957446808511
 40
0.2765957446808511
 40
0.2765957446808511
 40
0.2765957446808511
 40
0.2978723404255319
 40
0.2978723404255319
 40
0.2978723404255319
 40
0.2978723404255319
 40
0.3191489361702128
 40
0.3191489361702128
 40
0.3191489361702128
 40
0.3191489361702128
 40
0.3404255319148936
 40
0.3404255319148936
 40
0.3404255319148936
 40
0.3404255319148936
 40
0.3617021276595745
 40
0.3617021276595745
 40
0.3617021276595745
 40
0.3617021276595745
 40
0.3829787234042553
 40
0.3829787234042553
 40
0.3829787234042553
 40
0.3829787234042553
 40
0.4042553191489361
 40
0.4042553191489361
 40
0.4042553191489361
 40
0.4042553191489361
 40
0.425531914893617
 40
0.425531914893617
 40
0.425531914893617
 40
0.425531914893617
 40
0.4468085106382979
 40
0.4468085106382979
 40
0.4468085106382979
 40
0.4468085106382979
 40
0.4680851063829787
 40
0.4680851063829787
 40
0.4680851063829787
 40
0.4680851063829787
 40
0.4893617021276596
 40
0.4893617021276596
 40
0.4893617021276596
 40
0.4893617021276596
 40
0.5106382978723404
 40
0.5106382978723404
 40
0.5106382978723404
 40
0.5106382978723404
 40
0.5319148936170213
 40
0.5319148936170213
 40
0.5319148936170213
 40
0.5319148936170213
 40
0.5531914893617021
 40
0.5531914893617021
 40
0.5531914893617021
 40
0.5531914893617021
 40
0.574468085106383
 40
0.574468085106383
 40
0.574468085106383
 40
0.574468085106383
 40
0.5957446808510638
 40
0.5957446808510638
 40
0.5957446808510638
 40
0.5957446808510638
 40
0.6170212765957447
 40
0.6170212765957447
 40
0.6170212765957447
 40
0.6170212765957447
 40
0.6382978723404256
 40
0.6382978723404256
 40
0.6382978723404256
 40
0.6382978723404256
 40
0.6595744680851063
 40
0.6595744680851063
 40
0.6595744680851063
 40
0.6595744680851063
 40
0.6808510638297872
 40
0.6808510638297872
 40
0.6808510638297872
 40
0.6808510638297872
 40
0.7021276595744681
 40
0.7021276595744681
 40
0.7021276595744681
 40
0.7021276595744681
 40
0.723404255319149
 40
0.723404255319149
 40
0.723404255319149
 40
0.723404255319149
 40
0.7446808510638298
 40
0.7446808510638298
 40
0.7446808510638298
 40
0.7446808510638298
 40
0.7659574468085106
 40
0.7659574468085106
 40
0.7659574468085106
 40
0.7659574468085106
 40
0.7872340425531915
 40
0.7872340425531915
 40
0.7872340425531915
 40
0.7872340425531915
 40
0.8085106382978723
 40
0.8085106382978723
 40
0.8085106382978723
 40
0.8085106382978723
 40
0.8297872340425532
 40
0.8297872340425532
 40
0.8297872340425532
 40
0.8297872340425532
 40
0.851063829787234
 40
0.851063829787234
 40
0.851063829787234
 40
0.851063829787234
 40
0.8723404255319149
 40
0.8723404255319149
 40
0.8723404255319149
 40
0.8723404255319149
 40
0.8936170212765957
 40
0.8936170212765957
 40
0.8936170212765957
 40
0.8936170212765957
 40
0.9148936170212766
 40
0.9148936170212766
 40
0.9148936170212766
 40
0.9148936170212766
 40
0.9361702127659575
 40
0.9361702127659575
 40
0.9361702127659575
 40
0.9361702127659575
 40
0.9574468085106383
 40
0.9574468085106383
 40
0.9574468085106383
 40
0.9574468085106383
 40
1.0
 40
1.0
 40
1.0
 40
1.0
 10
-128.1656
 20
-73.3864
 30
0.0
 10
-128.1235
 20
-73.2526
 30
0.0
 10
-128.0765
 20
-73.1209
 30
0.0
 10
-128.0262
 20
-72.9924
 30
0.0
 10
-128.0262
 20
-72.9924
 30
0.0
 10
-126.2876
 20
-68.5866
 30
0.0
 10
-122.2558
 20
-65.8698
 30
0.0
 10
-117.5989
 20
-67.7634
 30
0.0
 10
-117.5989
 20
-67.7634
 30
0.0
 10
-114.5792
 20
-68.9914
 30
0.0
 10
-111.9997
 20
-71.6788
 30
0.0
 10
-113.0555
 20
-75.1835
 30
0.0
 10
-113.0555
 20
-75.1835
 30
0.0
 10
-114.8963
 20
-81.2973
 30
0.0
 10
-121.5509
 20
-77.9276
 30
0.0
 10
-119.978
 20
-73.9389
 30
0.0
 10
-119.978
 20
-73.9389
 30
0.0
 10
-119.7867
 20
-73.4524
 30
0.0
 10
-119.3476
 20
-72.9535
 30
0.0
 10
-118.8496
 20
-72.7634
 30
0.0
 10
-118.8496
 20
-72.7634
 30
0.0
 10
-118.6064
 20
-72.254
 30
0.0
 10
-118.9994
 20
-71.8311
 30
0.0
 10
-119.4623
 20
-71.6412
 30
0.0
 10
-119.4623
 20
-71.6412
 30
0.0
 10
-124.2096
 20
-69.6964
 30
0.0
 10
-127.3842
 20
-80.003
 30
0.0
 10
-119.9496
 20
-83.0246
 30
0.0
 10
-119.9496
 20
-83.0246
 30
0.0
 10
-118.3794
 20
-83.6628
 30
0.0
 10
-115.9658
 20
-83.8237
 30
0.0
 10
-114.3162
 20
-83.5913
 30
0.0
 10
-114.3162
 20
-83.5913
 30
0.0
 10
-111.2191
 20
-83.1569
 30
0.0
 10
-108.9755
 20
-81.4347
 30
0.0
 10
-107.7739
 20
-78.4888
 30
0.0
 10
-107.7739
 20
-78.4888
 30
0.0
 10
-106.5189
 20
-75.4113
 30
0.0
 10
-106.9074
 20
-72.1381
 30
0.0
 10
-108.408
 20
-69.2331
 30
0.0
 10
-108.408
 20
-69.2331
 30
0.0
 10
-109.5791
 20
-66.9665
 30
0.0
 10
-111.6848
 20
-64.5685
 30
0.0
 10
-114.0541
 20
-63.5616
 30
0.0
 10
-114.0541
 20
-63.5616
 30
0.0
 10
-114.7014
 20
-63.2842
 30
0.0
 10
-114.7062
 20
-62.9559
 30
0.0
 10
-114.0541
 20
-62.6787
 30
0.0
 10
-114.0541
 20
-62.6787
 30
0.0
 10
-111.6848
 20
-61.6718
 30
0.0
 10
-109.5791
 20
-59.2735
 30
0.0
 10
-108.408
 20
-57.0073
 30
0.0
 10
-108.408
 20
-57.0073
 30
0.0
 10
-106.9074
 20
-54.1023
 30
0.0
 10
-106.5189
 20
-50.8284
 30
0.0
 10
-107.7739
 20
-47.7519
 30
0.0
 10
-107.7739
 20
-47.7519
 30
0.0
 10
-108.9755
 20
-44.8052
 30
0.0
 10
-111.2191
 20
-43.0838
 30
0.0
 10
-114.3162
 20
-42.6484
 30
0.0
 10
-114.3162
 20
-42.6484
 30
0.0
 10
-115.9658
 20
-42.4162
 30
0.0
 10
-118.3794
 20
-42.5772
 30
0.0
 10
-119.9496
 20
-43.2157
 30
0.0
 10
-119.9496
 20
-43.2157
 30
0.0
 10
-127.3842
 20
-46.237
 30
0.0
 10
-124.2096
 20
-56.5433
 30
0.0
 10
-119.4623
 20
-54.5989
 30
0.0
 10
-119.4623
 20
-54.5989
 30
0.0
 10
-118.9994
 20
-54.4093
 30
0.0
 10
-118.6064
 20
-53.986
 30
0.0
 10
-118.8496
 20
-53.4773
 30
0.0
 10
-118.8496
 20
-53.4773
 30
0.0
 10
-119.3476
 20
-53.2861
 30
0.0
 10
-119.7867
 20
-52.7876
 30
0.0
 10
-119.978
 20
-52.3014
 30
0.0
 10
-119.978
 20
-52.3014
 30
0.0
 10
-121.5509
 20
-48.313
 30
0.0
 10
-114.8963
 20
-44.9428
 30
0.0
 10
-113.0555
 20
-51.0569
 30
0.0
 10
-113.0555
 20
-51.0569
 30
0.0
 10
-111.9997
 20
-54.5619
 30
0.0
 10
-114.5792
 20
-57.2493
 30
0.0
 10
-117.5989
 20
-58.4766
 30
0.0
 10
-117.5989
 20
-58.4766
 30
0.0
 10
-122.2558
 20
-60.3701
 30
0.0
 10
-126.2876
 20
-57.6538
 30
0.0
 10
-128.0262
 20
-53.2479
 30
0.0
 10
-128.0262
 20
-53.2479
 30
0.0
 10
-128.0765
 20
-53.1187
 30
0.0
 10
-128.1235
 20
-52.9874
 30
0.0
 10
-128.1656
 20
-52.8543
 30
0.0
 10
-128.1656
 20
-52.8543
 30
0.0
 10
-128.2077
 20
-52.9874
 30
0.0
 10
-128.2545
 20
-53.1187
 30
0.0
 10
-128.3054
 20
-53.2479
 30
0.0
 10
-128.3054
 20
-53.2479
 30
0.0
 10
-130.044
 20
-57.6538
 30
0.0
 10
-134.0751
 20
-60.3701
 30
0.0
 10
-138.7324
 20
-58.4766
 30
0.0
 10
-138.7324
 20
-58.4766
 30
0.0
 10
-141.7526
 20
-57.2493
 30
0.0
 10
-144.3319
 20
-54.5619
 30
0.0
 10
-143.2761
 20
-51.0569
 30
0.0
 10
-143.2761
 20
-51.0569
 30
0.0
 10
-141.4349
 20
-44.9428
 30
0.0
 10
-134.7803
 20
-48.313
 30
0.0
 10
-136.3532
 20
-52.3014
 30
0.0
 10
-136.3532
 20
-52.3014
 30
0.0
 10
-136.5449
 20
-52.7876
 30
0.0
 10
-136.9837
 20
-53.2861
 30
0.0
 10
-137.4813
 20
-53.4773
 30
0.0
 10
-137.4813
 20
-53.4773
 30
0.0
 10
-137.7249
 20
-53.986
 30
0.0
 10
-137.3321
 20
-54.4093
 30
0.0
 10
-136.8693
 20
-54.5989
 30
0.0
 10
-136.8693
 20
-54.5989
 30
0.0
 10
-132.122
 20
-56.5433
 30
0.0
 10
-128.9471
 20
-46.237
 30
0.0
 10
-136.3816
 20
-43.2157
 30
0.0
 10
-136.3816
 20
-43.2157
 30
0.0
 10
-137.9519
 20
-42.5772
 30
0.0
 10
-140.3655
 20
-42.4162
 30
0.0
 10
-142.015
 20
-42.6484
 30
0.0
 10
-142.015
 20
-42.6484
 30
0.0
 10
-145.1124
 20
-43.0838
 30
0.0
 10
-147.3555
 20
-44.8052
 30
0.0
 10
-148.5574
 20
-47.7519
 30
0.0
 10
-148.5574
 20
-47.7519
 30
0.0
 10
-149.8124
 20
-50.8284
 30
0.0
 10
-149.4242
 20
-54.1023
 30
0.0
 10
-147.9236
 20
-57.0073
 30
0.0
 10
-147.9236
 20
-57.0073
 30
0.0
 10
-146.7522
 20
-59.2735
 30
0.0
 10
-144.6464
 20
-61.6718
 30
0.0
 10
-142.2768
 20
-62.6787
 30
0.0
 10
-142.2768
 20
-62.6787
 30
0.0
 10
-141.625
 20
-62.9559
 30
0.0
 10
-141.6302
 20
-63.2842
 30
0.0
 10
-142.2768
 20
-63.5616
 30
0.0
 10
-142.2768
 20
-63.5616
 30
0.0
 10
-144.6464
 20
-64.5685
 30
0.0
 10
-146.7522
 20
-66.9665
 30
0.0
 10
-147.9236
 20
-69.2331
 30
0.0
 10
-147.9236
 20
-69.2331
 30
0.0
 10
-149.4242
 20
-72.1381
 30
0.0
 10
-149.8124
 20
-75.4113
 30
0.0
 10
-148.5574
 20
-78.4888
 30
0.0
 10
-148.5574
 20
-78.4888
 30
0.0
 10
-147.3555
 20
-81.4347
 30
0.0
 10
-145.1124
 20
-83.1569
 30
0.0
 10
-142.015
 20
-83.5913
 30
0.0
 10
-142.015
 20
-83.5913
 30
0.0
 10
-140.3655
 20
-83.8237
 30
0.0
 10
-137.9519
 20
-83.6628
 30
0.0
 10
-136.3816
 20
-83.0246
 30
0.0
 10
-136.3816
 20
-83.0246
 30
0.0
 10
-128.9471
 20
-80.003
 30
0.0
 10
-132.122
 20
-69.6964
 30
0.0
 10
-136.8693
 20
-71.6412
 30
0.0
 10
-136.8693
 20
-71.6412
 30
0.0
 10
-137.3321
 20
-71.8311
 30
0.0
 10
-137.7249
 20
-72.254
 30
0.0
 10
-137.4813
 20
-72.7634
 30
0.0
 10
-137.4813
 20
-72.7634
 30
0.0
 10
-136.9837
 20
-72.9535
 30
0.0
 10
-136.5449
 20
-73.4524
 30
0.0
 10
-136.3532
 20
-73.9389
 30
0.0
 10
-136.3532
 20
-73.9389
 30
0.0
 10
-134.7803
 20
-77.9276
 30
0.0
 10
-141.4349
 20
-81.2973
 30
0.0
 10
-143.2761
 20
-75.1835
 30
0.0
 10
-143.2761
 20
-75.1835
 30
0.0
 10
-144.3319
 20
-71.6788
 30
0.0
 10
-141.7526
 20
-68.9914
 30
0.0
 10
-138.7324
 20
-67.7634
 30
0.0
 10
-138.7324
 20
-67.7634
 30
0.0
 10
-134.0751
 20
-65.8698
 30
0.0
 10
-130.044
 20
-68.5866
 30
0.0
 10
-128.3054
 20
-72.9924
 30
0.0
 10
-128.3054
 20
-72.9924
 30
0.0
 10
-128.2545
 20
-73.1209
 30
0.0
 10
-128.2077
 20
-73.2526
 30
0.0
 10
-128.1656
 20
-73.3864
 30
0.0
  0
SPLINE
  5
66
330
1F
100
AcDbEntity
  8
layer 1
 62
     7
100
AcDbSpline
210
0.0
220
0.0
230
1.0
 70
    11
 71
     3
 72
    68
 73
    64
 74
     0
 42
0.0000000001
 43
0.0000000001
 12
1.0
 22
0.0
 32
0.0
 13
1.0
 23
0.0
 33
0.0
 40
0.0
 40
0.0
 40
0.0
 40
0.0
 40
0.0588235294117647
 40
0.0588235294117647
 40
0.0588235294117647
 40
0.0588235294117647
 40
0.1176470588235294
 40
0.1176470588235294
 40
0.1176470588235294
 40
0.1176470588235294
 40
0.1764705882352941
 40
0.1764705882352941
 40
0.1764705882352941
 40
0.1764705882352941
 40
0.2352941176470588
 40
0.2352941176470588
 40
0.2352941176470588
 40
0.2352941176470588
 40
0.2941176470588235
 40
0.2941176470588235
 40
0.2941176470588235
 40
0.2941176470588235
 40
0.3529411764705883
 40
0.3529411764705883
 40
0.3529411764705883
 40
0.3529411764705883
 40
0.4117647058823529
 40
0.4117647058823529
 40
0.4117647058823529
 40
0.4117647058823529
 40
0.4705882352941176
 40
0.4705882352941176
 40
0.4705882352941176
 40
0.4705882352941176
 40
0.5294117647058824
 40
0.5294117647058824
 40
0.5294117647058824
 40
0.5294117647058824
 40
0.5882352941176471
 40
0.5882352941176471
 40
0.5882352941176471
 40
0.5882352941176471
 40
0.6470588235294118
 40
0.6470588235294118
 40
0.6470588235294118
 40
0.6470588235294118
 40
0.7058823529411765
 40
0.7058823529411765
 40
0.7058823529411765
 40
0.7058823529411765
 40
0.7647058823529411
 40
0.7647058823529411
 40
0.7647058823529411
 40
0.7647058823529411
 40
0.8235294117647058
 40
0.8235294117647058
 40
0.8235294117647058
 40
0.8235294117647058
 40
0.8823529411764706
 40
0.8823529411764706
 40
0.8823529411764706
 40
0.8823529411764706
 40
1.0
 40
1.0
 40
1.0
 40
1.0
 10
-92.9182
 20
-71.6283
 30
0.0
 10
-96.4174
 20
-72.5842
 30
0.0
 10
-102.1573
 20
-73.6876
 30
0.0
 10
-104.1394
 20
-71.2349
 30
0.0
 10
-104.1394
 20
-71.2349
 30
0.0
 10
-104.6786
 20
-70.5686
 30
0.0
 10
-105.1354
 20
-69.8524
 30
0.0
 10
-105.5916
 20
-69.1277
 30
0.0
 10
-105.5916
 20
-69.1277
 30
0.0
 10
-107.1252
 20
-66.6917
 30
0.0
 10
-108.3402
 20
-65.2715
 30
0.0
 10
-110.6467
 20
-64.1042
 30
0.0
 10
-110.6467
 20
-64.1042
 30
0.0
 10
-107.426
 20
-66.6135
 30
0.0
 10
-105.7475
 20
-70.1024
 30
0.0
 10
-104.4244
 20
-74.0353
 30
0.0
 10
-104.4244
 20
-74.0353
 30
0.0
 10
-103.6625
 20
-76.2986
 30
0.0
 10
-102.5729
 20
-81.1246
 30
0.0
 10
-100.3347
 20
-82.2659
 30
0.0
 10
-100.3347
 20
-82.2659
 30
0.0
 10
-97.8055
 20
-83.5562
 30
0.0
 10
-94.2437
 20
-79.3932
 30
0.0
 10
-98.1488
 20
-78.9647
 30
0.0
 10
-98.1488
 20
-78.9647
 30
0.0
 10
-101.1616
 20
-78.6339
 30
0.0
 10
-100.163
 20
-72.6336
 30
0.0
 10
-95.5524
 20
-74.5092
 30
0.0
 10
-95.5524
 20
-74.5092
 30
0.0
 10
-94.1354
 20
-75.0851
 30
0.0
 10
-93.2715
 20
-76.071
 30
0.0
 10
-92.9182
 20
-77.2549
 30
0.0
 10
-92.9182
 20
-77.2549
 30
0.0
 10
-92.5651
 20
-76.071
 30
0.0
 10
-91.7013
 20
-75.0851
 30
0.0
 10
-90.2846
 20
-74.5092
 30
0.0
 10
-90.2846
 20
-74.5092
 30
0.0
 10
-85.6737
 20
-72.6336
 30
0.0
 10
-84.675
 20
-78.6339
 30
0.0
 10
-87.6879
 20
-78.9647
 30
0.0
 10
-87.6879
 20
-78.9647
 30
0.0
 10
-91.593
 20
-79.3932
 30
0.0
 10
-88.0312
 20
-83.5562
 30
0.0
 10
-85.502
 20
-82.2659
 30
0.0
 10
-85.502
 20
-82.2659
 30
0.0
 10
-83.2637
 20
-81.1246
 30
0.0
 10
-82.1742
 20
-76.2986
 30
0.0
 10
-81.4125
 20
-74.0353
 30
0.0
 10
-81.4125
 20
-74.0353
 30
0.0
 10
-80.0889
 20
-70.1024
 30
0.0
 10
-78.4109
 20
-66.6135
 30
0.0
 10
-75.1897
 20
-64.1042
 30
0.0
 10
-75.1897
 20
-64.1042
 30
0.0
 10
-77.4964
 20
-65.2715
 30
0.0
 10
-78.7115
 20
-66.6917
 30
0.0
 10
-80.2451
 20
-69.1277
 30
0.0
 10
-80.2451
 20
-69.1277
 30
0.0
 10
-80.7009
 20
-69.8524
 30
0.0
 10
-81.1581
 20
-70.5686
 30
0.0
 10
-81.6966
 20
-71.2349
 30
0.0
 10
-81.6966
 20
-71.2349
 30
0.0
 10
-83.6794
 20
-73.6876
 30
0.0
 10
-89.4192
 20
-72.5842
 30
0.0
 10
-92.9182
 20
-71.6283
 30
0.0
  0
SPLINE
  5
67
330
1F
100
AcDbEntity
  8
layer 1
 62
     7
100
AcDbSpline
210
0.0
220
0.0
230
1.0
 70
    11
 71
     3
 72
    52
 73
    48
 74
     0
 42
0.0000000001
 43
0.0000000001
 12
1.0
 22
0.0
 32
0.0
 13
1.0
 23
0.0
 33
0.0
 40
0.0
 40
0.0
 40
0.0
 40
0.0
 40
0.0769230769230769
 40
0.0769230769230769
 40
0.0769230769230769
 40
0.0769230769230769
 40
0.1538461538461539
 40
0.1538461538461539
 40
0.1538461538461539
 40
0.1538461538461539
 40
0.2307692307692308
 40
0.2307692307692308
 40
0.2307692307692308
 40
0.2307692307692308
 40
0.3076923076923077
 40
0.3076923076923077
 40
0.3076923076923077
 40
0.3076923076923077
 40
0.3846153846153846
 40
0.3846153846153846
 40
0.3846153846153846
 40
0.3846153846153846
 40
0.4615384615384616
 40
0.4615384615384616
 40
0.4615384615384616
 40
0.4615384615384616
 40
0.5384615384615384
 40
0.5384615384615384
 40
0.5384615384615384
 40
0.5384615384615384
 40
0.6153846153846154
 40
0.6153846153846154
 40
0.6153846153846154
 40
0.6153846153846154
 40
0.6923076923076923
 40
0.6923076923076923
 40
0.6923076923076923
 40
0.6923076923076923
 40
0.7692307692307693
 40
0.7692307692307693
 40
0.7692307692307693
 40
0.7692307692307693
 40
0.8461538461538461
 40
0.8461538461538461
 40
0.8461538461538461
 40
0.8461538461538461
 40
1.0
 40
1.0
 40
1.0
 40
1.0
 10
-119.4287
 20
8.5224
 30
0.0
 10
-119.9642
 20
8.3794
 30
0.0
 10
-120.5019
 20
8.1913
 30
0.0
 10
-121.0395
 20
7.9546
 30
0.0
 10
-121.0395
 20
7.9546
 30
0.0
 10
-124.0659
 20
6.6249
 30
0.0
 10
-126.5399
 20
4.4014
 30
0.0
 10
-127.7626
 20
1.2541
 30
0.0
 10
-127.7626
 20
1.2541
 30
0.0
 10
-127.9179
 20
0.8542
 30
0.0
 10
-128.0537
 20
0.4284
 30
0.0
 10
-128.1656
 20
-0.013
 30
0.0
 10
-128.1656
 20
-0.013
 30
0.0
 10
-128.2773
 20
0.4284
 30
0.0
 10
-128.4131
 20
0.8542
 30
0.0
 10
-128.5687
 20
1.2541
 30
0.0
 10
-128.5687
 20
1.2541
 30
0.0
 10
-129.7917
 20
4.4014
 30
0.0
 10
-132.2654
 20
6.6249
 30
0.0
 10
-135.2917
 20
7.9546
 30
0.0
 10
-135.2917
 20
7.9546
 30
0.0
 10
-135.8293
 20
8.1913
 30
0.0
 10
-136.367
 20
8.3791
 30
0.0
 10
-136.9025
 20
8.5224
 30
0.0
 10
-136.9025
 20
8.5224
 30
0.0
 10
-136.367
 20
8.6658
 30
0.0
 10
-135.8293
 20
8.8541
 30
0.0
 10
-135.2917
 20
9.0904
 30
0.0
 10
-135.2917
 20
9.0904
 30
0.0
 10
-132.2654
 20
10.42
 30
0.0
 10
-129.7917
 20
12.6434
 30
0.0
 10
-128.5687
 20
15.7911
 30
0.0
 10
-128.5687
 20
15.7911
 30
0.0
 10
-128.4131
 20
16.1913
 30
0.0
 10
-128.2773
 20
16.6171
 30
0.0
 10
-128.1656
 20
17.0585
 30
0.0
 10
-128.1656
 20
17.0585
 30
0.0
 10
-128.0537
 20
16.6171
 30
0.0
 10
-127.9179
 20
16.1913
 30
0.0
 10
-127.7626
 20
15.7911
 30
0.0
 10
-127.7626
 20
15.7911
 30
0.0
 10
-126.5399
 20
12.6434
 30
0.0
 10
-124.0659
 20
10.42
 30
0.0
 10
-121.0395
 20
9.0904
 30
0.0
 10
-121.0395
 20
9.0904
 30
0.0
 10
-120.5019
 20
8.8541
 30
0.0
 10
-119.9642
 20
8.6658
 30
0.0
 10
-119.4287
 20
8.5224
 30
0.0
  0
SPLINE
  5
68
330
1F
100
AcDbEntity
  8
layer 1
 62
     7
100
AcDbSpline
210
0.0
220
0.0
230
1.0
 70
    11
 71
     3
 72
    72
 73
    68
 74
     0
 42
0.0000000001
 43
0.0000000001
 12
1.0
 22
0.0
 32
0.0
 13
1.0
 23
0.0
 33
0.0
 40
0.0
 40
0.0
 40
0.0
 40
0.0
 40
0.0555555555555556
 40
0.0555555555555556
 40
0.0555555555555556
 40
0.0555555555555556
 40
0.1111111111111111
 40
0.1111111111111111
 40
0.1111111111111111
 40
0.1111111111111111
 40
0.1666666666666667
 40
0.1666666666666667
 40
0.1666666666666667
 40
0.1666666666666667
 40
0.2222222222222222
 40
0.2222222222222222
 40
0.2222222222222222
 40
0.2222222222222222
 40
0.2777777777777778
 40
0.2777777777777778
 40
0.2777777777777778
 40
0.2777777777777778
 40
0.3333333333333333
 40
0.3333333333333333
 40
0.3333333333333333
 40
0.3333333333333333
 40
0.3888888888888889
 40
0.3888888888888889
 40
0.3888888888888889
 40
0.3888888888888889
 40
0.4444444444444444
 40
0.4444444444444444
 40
0.4444444444444444
 40
0.4444444444444444
 40
0.5
 40
0.5
 40
0.5
 40
0.5
 40
0.5555555555555556
 40
0.5555555555555556
 40
0.5555555555555556
 40
0.5555555555555556
 40
0.6111111111111112
 40
0.6111111111111112
 40
0.6111111111111112
 40
0.6111111111111112
 40
0.6666666666666666
 40
0.6666666666666666
 40
0.6666666666666666
 40
0.6666666666666666
 40
0.7222222222222222
 40
0.7222222222222222
 40
0.7222222222222222
 40
0.7222222222222222
 40
0.7777777777777778
 40
0.7777777777777778
 40
0.7777777777777778
 40
0.7777777777777778
 40
0.8333333333333334
 40
0.8333333333333334
 40
0.8333333333333334
 40
0.8333333333333334
 40
0.8888888888888888
 40
0.8888888888888888
 40
0.8888888888888888
 40
0.8888888888888888
 40
1.0
 40
1.0
 40
1.0
 40
1.0
 10
-72.9753
 20
8.0961
 30
0.0
 10
-76.3439
 20
6.7096
 30
0.0
 10
-79.0364
 20
3.6011
 30
0.0
 10
-80.1261
 20
-0.2294
 30
0.0
 10
-80.1261
 20
-0.2294
 30
0.0
 10
-80.8492
 20
2.3578
 30
0.0
 10
-82.8729
 20
4.8352
 30
0.0
 10
-85.3893
 20
5.6892
 30
0.0
 10
-85.3893
 20
5.6892
 30
0.0
 10
-88.4321
 20
6.7223
 30
0.0
 10
-91.4386
 20
5.4287
 30
0.0
 10
-92.6429
 20
2.3895
 30
0.0
 10
-92.6429
 20
2.3895
 30
0.0
 10
-92.7552
 20
2.1062
 30
0.0
 10
-92.8471
 20
1.8234
 30
0.0
 10
-92.9182
 20
1.5429
 30
0.0
 10
-92.9182
 20
1.5429
 30
0.0
 10
-92.9899
 20
1.8234
 30
0.0
 10
-93.0815
 20
2.1062
 30
0.0
 10
-93.1937
 20
2.3895
 30
0.0
 10
-93.1937
 20
2.3895
 30
0.0
 10
-94.3974
 20
5.4287
 30
0.0
 10
-97.4049
 20
6.7223
 30
0.0
 10
-100.4474
 20
5.6892
 30
0.0
 10
-100.4474
 20
5.6892
 30
0.0
 10
-102.9635
 20
4.8352
 30
0.0
 10
-104.9874
 20
2.3578
 30
0.0
 10
-105.7108
 20
-0.2294
 30
0.0
 10
-105.7108
 20
-0.2294
 30
0.0
 10
-106.932
 20
4.0651
 30
0.0
 10
-110.1686
 20
7.4523
 30
0.0
 10
-114.1133
 20
8.5224
 30
0.0
 10
-114.1133
 20
8.5224
 30
0.0
 10
-110.1686
 20
9.5929
 30
0.0
 10
-106.932
 20
12.9804
 30
0.0
 10
-105.7108
 20
17.275
 30
0.0
 10
-105.7108
 20
17.275
 30
0.0
 10
-104.9874
 20
14.6874
 30
0.0
 10
-102.9635
 20
12.2102
 30
0.0
 10
-100.4474
 20
11.3563
 30
0.0
 10
-100.4474
 20
11.3563
 30
0.0
 10
-97.4049
 20
10.3231
 30
0.0
 10
-94.3974
 20
11.6168
 30
0.0
 10
-93.1937
 20
14.656
 30
0.0
 10
-93.1937
 20
14.656
 30
0.0
 10
-93.0815
 20
14.939
 30
0.0
 10
-92.9899
 20
15.222
 30
0.0
 10
-92.9182
 20
15.5023
 30
0.0
 10
-92.9182
 20
15.5023
 30
0.0
 10
-92.8471
 20
15.222
 30
0.0
 10
-92.7552
 20
14.939
 30
0.0
 10
-92.6429
 20
14.656
 30
0.0
 10
-92.6429
 20
14.656
 30
0.0
 10
-91.4386
 20
11.6168
 30
0.0
 10
-88.4321
 20
10.3231
 30
0.0
 10
-85.3893
 20
11.3563
 30
0.0
 10
-85.3893
 20
11.3563
 30
0.0
 10
-82.8729
 20
12.2102
 30
0.0
 10
-80.8492
 20
14.6874
 30
0.0
 10
-80.1261
 20
17.275
 30
0.0
 10
-80.1261
 20
17.275
 30
0.0
 10
-79.0364
 20
13.4444
 30
0.0
 10
-76.3439
 20
10.3352
 30
0.0
 10
-72.9753
 20
8.9488
 30
0.0
 10
-72.9753
 20
8.9488
 30
0.0
 10
-72.9753
 20
8.9488
 30
0.0
 10
-72.9753
 20
8.0961
 30
0.0
 10
-72.9753
 20
8.0961
 30
0.0
  0
SPLINE
  5
69
330
1F
100
AcDbEntity
  8
layer 1
 62
     7
100
AcDbSpline
210
0.0
220
0.0
230
1.0
 70
    11
 71
     3
 72
    52
 73
    48
 74
     0
 42
0.0000000001
 43
0.0000000001
 12
1.0
 22
0.0
 32
0.0
 13
1.0
 23
0.0
 33
0.0
 40
0.0
 40
0.0
 40
0.0
 40
0.0
 40
0.0769230769230769
 40
0.0769230769230769
 40
0.0769230769230769
 40
0.0769230769230769
 40
0.1538461538461539
 40
0.1538461538461539
 40
0.1538461538461539
 40
0.1538461538461539
 40
0.2307692307692308
 40
0.2307692307692308
 40
0.2307692307692308
 40
0.2307692307692308
 40
0.3076923076923077
 40
0.3076923076923077
 40
0.3076923076923077
 40
0.3076923076923077
 40
0.3846153846153846
 40
0.3846153846153846
 40
0.3846153846153846
 40
0.3846153846153846
 40
0.4615384615384616
 40
0.4615384615384616
 40
0.4615384615384616
 40
0.4615384615384616
 40
0.5384615384615384
 40
0.5384615384615384
 40
0.5384615384615384
 40
0.5384615384615384
 40
0.6153846153846154
 40
0.6153846153846154
 40
0.6153846153846154
 40
0.6153846153846154
 40
0.6923076923076923
 40
0.6923076923076923
 40
0.6923076923076923
 40
0.6923076923076923
 40
0.7692307692307693
 40
0.7692307692307693
 40
0.7692307692307693
 40
0.7692307692307693
 40
0.8461538461538461
 40
0.8461538461538461
 40
0.8461538461538461
 40
0.8461538461538461
 40
1.0
 40
1.0
 40
1.0
 40
1.0
 10
-119.5484
 20
-86.9252
 30
0.0
 10
-120.0442
 20
-87.064
 30
0.0
 10
-120.5419
 20
-87.2409
 30
0.0
 10
-121.0395
 20
-87.4598
 30
0.0
 10
-121.0395
 20
-87.4598
 30
0.0
 10
-124.0659
 20
-88.7895
 30
0.0
 10
-126.5399
 20
-91.0132
 30
0.0
 10
-127.7626
 20
-94.1606
 30
0.0
 10
-127.7626
 20
-94.1606
 30
0.0
 10
-127.9179
 20
-94.5604
 30
0.0
 10
-128.0537
 20
-94.9866
 30
0.0
 10
-128.1656
 20
-95.4277
 30
0.0
 10
-128.1656
 20
-95.4277
 30
0.0
 10
-128.2773
 20
-94.9866
 30
0.0
 10
-128.4131
 20
-94.5604
 30
0.0
 10
-128.5687
 20
-94.1606
 30
0.0
 10
-128.5687
 20
-94.1606
 30
0.0
 10
-129.7917
 20
-91.0132
 30
0.0
 10
-132.2654
 20
-88.7895
 30
0.0
 10
-135.2917
 20
-87.4598
 30
0.0
 10
-135.2917
 20
-87.4598
 30
0.0
 10
-135.7894
 20
-87.2409
 30
0.0
 10
-136.2868
 20
-87.064
 30
0.0
 10
-136.7829
 20
-86.9252
 30
0.0
 10
-136.7829
 20
-86.9252
 30
0.0
 10
-136.2868
 20
-86.7861
 30
0.0
 10
-135.7894
 20
-86.6095
 30
0.0
 10
-135.2917
 20
-86.3907
 30
0.0
 10
-135.2917
 20
-86.3907
 30
0.0
 10
-132.2654
 20
-85.0609
 30
0.0
 10
-129.7917
 20
-82.8372
 30
0.0
 10
-128.5687
 20
-79.6898
 30
0.0
 10
-128.5687
 20
-79.6898
 30
0.0
 10
-128.4131
 20
-79.29
 30
0.0
 10
-128.2773
 20
-78.8642
 30
0.0
 10
-128.1656
 20
-78.4224
 30
0.0
 10
-128.1656
 20
-78.4224
 30
0.0
 10
-128.0537
 20
-78.8642
 30
0.0
 10
-127.9179
 20
-79.29
 30
0.0
 10
-127.7626
 20
-79.6898
 30
0.0
 10
-127.7626
 20
-79.6898
 30
0.0
 10
-126.5399
 20
-82.8372
 30
0.0
 10
-124.0659
 20
-85.0609
 30
0.0
 10
-121.0395
 20
-86.3907
 30
0.0
 10
-121.0395
 20
-86.3907
 30
0.0
 10
-120.5419
 20
-86.6095
 30
0.0
 10
-120.0442
 20
-86.7861
 30
0.0
 10
-119.5484
 20
-86.9252
 30
0.0
  0
SPLINE
  5
6A
330
1F
100
AcDbEntity
  8
layer 1
 62
     7
100
AcDbSpline
210
0.0
220
0.0
230
1.0
 70
    11
 71
     3
 72
    72
 73
    68
 74
     0
 42
0.0000000001
 43
0.0000000001
 12
1.0
 22
0.0
 32
0.0
 13
1.0
 23
0.0
 33
0.0
 40
0.0
 40
0.0
 40
0.0
 40
0.0
 40
0.0555555555555556
 40
0.0555555555555556
 40
0.0555555555555556
 40
0.0555555555555556
 40
0.1111111111111111
 40
0.1111111111111111
 40
0.1111111111111111
 40
0.1111111111111111
 40
0.1666666666666667
 40
0.1666666666666667
 40
0.1666666666666667
 40
0.1666666666666667
 40
0.2222222222222222
 40
0.2222222222222222
 40
0.2222222222222222
 40
0.2222222222222222
 40
0.2777777777777778
 40
0.2777777777777778
 40
0.2777777777777778
 40
0.2777777777777778
 40
0.3333333333333333
 40
0.3333333333333333
 40
0.3333333333333333
 40
0.3333333333333333
 40
0.3888888888888889
 40
0.3888888888888889
 40
0.3888888888888889
 40
0.3888888888888889
 40
0.4444444444444444
 40
0.4444444444444444
 40
0.4444444444444444
 40
0.4444444444444444
 40
0.5
 40
0.5
 40
0.5
 40
0.5
 40
0.5555555555555556
 40
0.5555555555555556
 40
0.5555555555555556
 40
0.5555555555555556
 40
0.6111111111111112
 40
0.6111111111111112
 40
0.6111111111111112
 40
0.6111111111111112
 40
0.6666666666666666
 40
0.6666666666666666
 40
0.6666666666666666
 40
0.6666666666666666
 40
0.7222222222222222
 40
0.7222222222222222
 40
0.7222222222222222
 40
0.7222222222222222
 40
0.7777777777777778
 40
0.7777777777777778
 40
0.7777777777777778
 40
0.7777777777777778
 40
0.8333333333333334
 40
0.8333333333333334
 40
0.8333333333333334
 40
0.8333333333333334
 40
0.8888888888888888
 40
0.8888888888888888
 40
0.8888888888888888
 40
0.8888888888888888
 40
1.0
 40
1.0
 40
1.0
 40
1.0
 10
-92.9182
 20
-93.8714
 30
0.0
 10
-92.9899
 20
-93.5914
 30
0.0
 10
-93.0815
 20
-93.3085
 30
0.0
 10
-93.1937
 20
-93.0249
 30
0.0
 10
-93.1937
 20
-93.0249
 30
0.0
 10
-94.3974
 20
-89.986
 30
0.0
 10
-97.4049
 20
-88.692
 30
0.0
 10
-100.4474
 20
-89.7255
 30
0.0
 10
-100.4474
 20
-89.7255
 30
0.0
 10
-102.9635
 20
-90.5797
 30
0.0
 10
-104.9874
 20
-93.0572
 30
0.0
 10
-105.7108
 20
-95.6438
 30
0.0
 10
-105.7108
 20
-95.6438
 30
0.0
 10
-106.9192
 20
-91.3933
 30
0.0
 10
-110.1017
 20
-88.0314
 30
0.0
 10
-113.9919
 20
-86.9252
 30
0.0
 10
-113.9919
 20
-86.9252
 30
0.0
 10
-110.1017
 20
-85.819
 30
0.0
 10
-106.9192
 20
-82.4568
 30
0.0
 10
-105.7108
 20
-78.2066
 30
0.0
 10
-105.7108
 20
-78.2066
 30
0.0
 10
-104.9874
 20
-80.7935
 30
0.0
 10
-102.9635
 20
-83.2707
 30
0.0
 10
-100.4474
 20
-84.1252
 30
0.0
 10
-100.4474
 20
-84.1252
 30
0.0
 10
-97.4049
 20
-85.1581
 30
0.0
 10
-94.3974
 20
-83.8644
 30
0.0
 10
-93.1937
 20
-80.8253
 30
0.0
 10
-93.1937
 20
-80.8253
 30
0.0
 10
-93.0815
 20
-80.5422
 30
0.0
 10
-92.9899
 20
-80.2593
 30
0.0
 10
-92.9182
 20
-79.979
 30
0.0
 10
-92.9182
 20
-79.979
 30
0.0
 10
-92.8471
 20
-80.2593
 30
0.0
 10
-92.7552
 20
-80.5422
 30
0.0
 10
-92.6429
 20
-80.8253
 30
0.0
 10
-92.6429
 20
-80.8253
 30
0.0
 10
-91.4386
 20
-83.8644
 30
0.0
 10
-88.4321
 20
-85.1581
 30
0.0
 10
-85.3893
 20
-84.1252
 30
0.0
 10
-85.3893
 20
-84.1252
 30
0.0
 10
-82.8729
 20
-83.2707
 30
0.0
 10
-80.8492
 20
-80.7935
 30
0.0
 10
-80.1261
 20
-78.2066
 30
0.0
 10
-80.1261
 20
-78.2066
 30
0.0
 10
-79.0367
 20
-82.0372
 30
0.0
 10
-76.3442
 20
-85.1463
 30
0.0
 10
-72.9753
 20
-86.5327
 30
0.0
 10
-72.9753
 20
-86.5327
 30
0.0
 10
-72.9753
 20
-86.5327
 30
0.0
 10
-72.9753
 20
-87.3177
 30
0.0
 10
-72.9753
 20
-87.3177
 30
0.0
 10
-72.9753
 20
-87.3177
 30
0.0
 10
-76.3442
 20
-88.7041
 30
0.0
 10
-79.0367
 20
-91.8129
 30
0.0
 10
-80.1261
 20
-95.6438
 30
0.0
 10
-80.1261
 20
-95.6438
 30
0.0
 10
-80.8492
 20
-93.0572
 30
0.0
 10
-82.8729
 20
-90.5797
 30
0.0
 10
-85.3893
 20
-89.7255
 30
0.0
 10
-85.3893
 20
-89.7255
 30
0.0
 10
-88.4321
 20
-88.692
 30
0.0
 10
-91.4386
 20
-89.986
 30
0.0
 10
-92.6429
 20
-93.0249
 30
0.0
 10
-92.6429
 20
-93.0249
 30
0.0
 10
-92.7552
 20
-93.3085
 30
0.0
 10
-92.8471
 20
-93.5914
 30
0.0
 10
-92.9182
 20
-93.8714
 30
0.0
  0
SPLINE
  5
6B
330
1F
100
AcDbEntity
  8
layer 1
 62
     7
100
AcDbSpline
210
0.0
220
0.0
230
1.0
 70
    11
 71
     3
 72
    68
 73
    64
 74
     0
 42
0.0000000001
 43
0.0000000001
 12
1.0
 22
0.0
 32
0.0
 13
1.0
 23
0.0
 33
0.0
 40
0.0
 40
0.0
 40
0.0
 40
0.0
 40
0.0588235294117647
 40
0.0588235294117647
 40
0.0588235294117647
 40
0.0588235294117647
 40
0.1176470588235294
 40
0.1176470588235294
 40
0.1176470588235294
 40
0.1176470588235294
 40
0.1764705882352941
 40
0.1764705882352941
 40
0.1764705882352941
 40
0.1764705882352941
 40
0.2352941176470588
 40
0.2352941176470588
 40
0.2352941176470588
 40
0.2352941176470588
 40
0.2941176470588235
 40
0.2941176470588235
 40
0.2941176470588235
 40
0.2941176470588235
 40
0.3529411764705883
 40
0.3529411764705883
 40
0.3529411764705883
 40
0.3529411764705883
 40
0.4117647058823529
 40
0.4117647058823529
 40
0.4117647058823529
 40
0.4117647058823529
 40
0.4705882352941176
 40
0.4705882352941176
 40
0.4705882352941176
 40
0.4705882352941176
 40
0.5294117647058824
 40
0.5294117647058824
 40
0.5294117647058824
 40
0.5294117647058824
 40
0.5882352941176471
 40
0.5882352941176471
 40
0.5882352941176471
 40
0.5882352941176471
 40
0.6470588235294118
 40
0.6470588235294118
 40
0.6470588235294118
 40
0.6470588235294118
 40
0.7058823529411765
 40
0.7058823529411765
 40
0.7058823529411765
 40
0.7058823529411765
 40
0.7647058823529411
 40
0.7647058823529411
 40
0.7647058823529411
 40
0.7647058823529411
 40
0.8235294117647058
 40
0.8235294117647058
 40
0.8235294117647058
 40
0.8235294117647058
 40
0.8823529411764706
 40
0.8823529411764706
 40
0.8823529411764706
 40
0.8823529411764706
 40
1.0
 40
1.0
 40
1.0
 40
1.0
 10
-92.9182
 20
-102.2219
 30
0.0
 10
-96.4174
 20
-101.2662
 30
0.0
 10
-102.1573
 20
-100.1625
 30
0.0
 10
-104.1394
 20
-102.6152
 30
0.0
 10
-104.1394
 20
-102.6152
 30
0.0
 10
-104.6786
 20
-103.2819
 30
0.0
 10
-105.1354
 20
-103.998
 30
0.0
 10
-105.5916
 20
-104.7231
 30
0.0
 10
-105.5916
 20
-104.7231
 30
0.0
 10
-107.1252
 20
-107.1587
 30
0.0
 10
-108.3402
 20
-108.5786
 30
0.0
 10
-110.6467
 20
-109.7462
 30
0.0
 10
-110.6467
 20
-109.7462
 30
0.0
 10
-107.426
 20
-107.2369
 30
0.0
 10
-105.7475
 20
-103.7477
 30
0.0
 10
-104.4244
 20
-99.8148
 30
0.0
 10
-104.4244
 20
-99.8148
 30
0.0
 10
-103.6625
 20
-97.5518
 30
0.0
 10
-102.5729
 20
-92.7261
 30
0.0
 10
-100.3347
 20
-91.5845
 30
0.0
 10
-100.3347
 20
-91.5845
 30
0.0
 10
-97.8055
 20
-90.2939
 30
0.0
 10
-94.2437
 20
-94.4572
 30
0.0
 10
-98.1488
 20
-94.886
 30
0.0
 10
-98.1488
 20
-94.886
 30
0.0
 10
-101.1616
 20
-95.2165
 30
0.0
 10
-100.163
 20
-101.2171
 30
0.0
 10
-95.5524
 20
-99.3412
 30
0.0
 10
-95.5524
 20
-99.3412
 30
0.0
 10
-94.1354
 20
-98.7656
 30
0.0
 10
-93.2715
 20
-97.7797
 30
0.0
 10
-92.9182
 20
-96.5955
 30
0.0
 10
-92.9182
 20
-96.5955
 30
0.0
 10
-92.5651
 20
-97.7797
 30
0.0
 10
-91.7013
 20
-98.7656
 30
0.0
 10
-90.2846
 20
-99.3412
 30
0.0
 10
-90.2846
 20
-99.3412
 30
0.0
 10
-85.6737
 20
-101.2171
 30
0.0
 10
-84.675
 20
-95.2165
 30
0.0
 10
-87.6879
 20
-94.886
 30
0.0
 10
-87.6879
 20
-94.886
 30
0.0
 10
-91.593
 20
-94.4572
 30
0.0
 10
-88.0312
 20
-90.2939
 30
0.0
 10
-85.502
 20
-91.5845
 30
0.0
 10
-85.502
 20
-91.5845
 30
0.0
 10
-83.2637
 20
-92.7261
 30
0.0
 10
-82.1742
 20
-97.5518
 30
0.0
 10
-81.4125
 20
-99.8148
 30
0.0
 10
-81.4125
 20
-99.8148
 30
0.0
 10
-80.0889
 20
-103.7477
 30
0.0
 10
-78.4109
 20
-107.2369
 30
0.0
 10
-75.1897
 20
-109.7462
 30
0.0
 10
-75.1897
 20
-109.7462
 30
0.0
 10
-77.4964
 20
-108.5786
 30
0.0
 10
-78.7115
 20
-107.1587
 30
0.0
 10
-80.2451
 20
-104.7231
 30
0.0
 10
-80.2451
 20
-104.7231
 30
0.0
 10
-80.7009
 20
-103.998
 30
0.0
 10
-81.1581
 20
-103.2819
 30
0.0
 10
-81.6966
 20
-102.6152
 30
0.0
 10
-81.6966
 20
-102.6152
 30
0.0
 10
-83.6794
 20
-100.1625
 30
0.0
 10
-89.4192
 20
-101.2662
 30
0.0
 10
-92.9182
 20
-102.2219
 30
0.0
  0
SPLINE
  5
6C
330
1F
100
AcDbEntity
  8
layer 1
 62
     7
100
AcDbSpline
210
0.0
220
0.0
230
1.0
 70
    11
 71
     3
 72
    20
 73
    16
 74
     0
 42
0.0000000001
 43
0.0000000001
 12
1.0
 22
0.0
 32
0.0
 13
1.0
 23
0.0
 33
0.0
 40
0.0
 40
0.0
 40
0.0
 40
0.0
 40
0.2
 40
0.2
 40
0.2
 40
0.2
 40
0.4
 40
0.4
 40
0.4
 40
0.4
 40
0.6
 40
0.6
 40
0.6
 40
0.6
 40
1.0
 40
1.0
 40
1.0
 40
1.0
 10
-183.045
 20
107.7233
 30
0.0
 10
-180.8527
 20
108.4826
 30
0.0
 10
-179.2281
 20
110.0543
 30
0.0
 10
-178.2688
 20
112.4071
 30
0.0
 10
-178.2688
 20
112.4071
 30
0.0
 10
-177.0138
 20
115.4842
 30
0.0
 10
-177.4016
 20
118.7578
 30
0.0
 10
-178.9029
 20
121.6628
 30
0.0
 10
-178.9029
 20
121.6628
 30
0.0
 10
-179.8188
 20
123.4355
 30
0.0
 10
-181.3064
 20
125.2886
 30
0.0
 10
-183.045
 20
126.4935
 30
0.0
 10
-183.045
 20
126.4935
 30
0.0
 10
-183.045
 20
126.4935
 30
0.0
 10
-183.045
 20
107.7233
 30
0.0
 10
-183.045
 20
107.7233
 30
0.0
  0
SPLINE
  5
6D
330
1F
100
AcDbEntity
  8
layer 1
 62
     7
100
AcDbSpline
210
0.0
220
0.0
230
1.0
 70
    11
 71
     3
 72
    72
 73
    68
 74
     0
 42
0.0000000001
 43
0.0000000001
 12
1.0
 22
0.0
 32
0.0
 13
1.0
 23
0.0
 33
0.0
 40
0.0
 40
0.0
 40
0.0
 40
0.0
 40
0.0555555555555556
 40
0.0555555555555556
 40
0.0555555555555556
 40
0.0555555555555556
 40
0.1111111111111111
 40
0.1111111111111111
 40
0.1111111111111111
 40
0.1111111111111111
 40
0.1666666666666667
 40
0.1666666666666667
 40
0.1666666666666667
 40
0.1666666666666667
 40
0.2222222222222222
 40
0.2222222222222222
 40
0.2222222222222222
 40
0.2222222222222222
 40
0.2777777777777778
 40
0.2777777777777778
 40
0.2777777777777778
 40
0.2777777777777778
 40
0.3333333333333333
 40
0.3333333333333333
 40
0.3333333333333333
 40
0.3333333333333333
 40
0.3888888888888889
 40
0.3888888888888889
 40
0.3888888888888889
 40
0.3888888888888889
 40
0.4444444444444444
 40
0.4444444444444444
 40
0.4444444444444444
 40
0.4444444444444444
 40
0.5
 40
0.5
 40
0.5
 40
0.5
 40
0.5555555555555556
 40
0.5555555555555556
 40
0.5555555555555556
 40
0.5555555555555556
 40
0.6111111111111112
 40
0.6111111111111112
 40
0.6111111111111112
 40
0.6111111111111112
 40
0.6666666666666666
 40
0.6666666666666666
 40
0.6666666666666666
 40
0.6666666666666666
 40
0.7222222222222222
 40
0.7222222222222222
 40
0.7222222222222222
 40
0.7222222222222222
 40
0.7777777777777778
 40
0.7777777777777778
 40
0.7777777777777778
 40
0.7777777777777778
 40
0.8333333333333334
 40
0.8333333333333334
 40
0.8333333333333334
 40
0.8333333333333334
 40
0.8888888888888888
 40
0.8888888888888888
 40
0.8888888888888888
 40
0.8888888888888888
 40
1.0
 40
1.0
 40
1.0
 40
1.0
 10
-183.045
 20
103.4441
 30
0.0
 10
-179.8219
 20
101.9985
 30
0.0
 10
-177.2607
 20
98.964
 30
0.0
 10
-176.2052
 20
95.2515
 30
0.0
 10
-176.2052
 20
95.2515
 30
0.0
 10
-175.482
 20
97.8387
 30
0.0
 10
-173.4584
 20
100.3165
 30
0.0
 10
-170.9423
 20
101.1707
 30
0.0
 10
-170.9423
 20
101.1707
 30
0.0
 10
-167.8991
 20
102.2039
 30
0.0
 10
-164.8923
 20
100.9096
 30
0.0
 10
-163.6883
 20
97.8704
 30
0.0
 10
-163.6883
 20
97.8704
 30
0.0
 10
-163.5757
 20
97.5871
 30
0.0
 10
-163.4842
 20
97.3048
 30
0.0
 10
-163.4131
 20
97.0245
 30
0.0
 10
-163.4131
 20
97.0245
 30
0.0
 10
-163.3417
 20
97.3048
 30
0.0
 10
-163.2501
 20
97.5871
 30
0.0
 10
-163.1373
 20
97.8704
 30
0.0
 10
-163.1373
 20
97.8704
 30
0.0
 10
-161.9335
 20
100.9096
 30
0.0
 10
-158.9267
 20
102.2039
 30
0.0
 10
-155.8836
 20
101.1707
 30
0.0
 10
-155.8836
 20
101.1707
 30
0.0
 10
-153.3678
 20
100.3165
 30
0.0
 10
-151.3439
 20
97.8387
 30
0.0
 10
-150.6203
 20
95.2515
 30
0.0
 10
-150.6203
 20
95.2515
 30
0.0
 10
-149.412
 20
99.5023
 30
0.0
 10
-146.2295
 20
102.8645
 30
0.0
 10
-142.3394
 20
103.9707
 30
0.0
 10
-142.3394
 20
103.9707
 30
0.0
 10
-146.2295
 20
105.0769
 30
0.0
 10
-149.412
 20
108.4391
 30
0.0
 10
-150.6203
 20
112.6892
 30
0.0
 10
-150.6203
 20
112.6892
 30
0.0
 10
-151.3439
 20
110.1024
 30
0.0
 10
-153.3678
 20
107.6249
 30
0.0
 10
-155.8836
 20
106.7706
 30
0.0
 10
-155.8836
 20
106.7706
 30
0.0
 10
-158.9267
 20
105.7375
 30
0.0
 10
-161.9335
 20
107.0311
 30
0.0
 10
-163.1373
 20
110.0703
 30
0.0
 10
-163.1373
 20
110.0703
 30
0.0
 10
-163.2501
 20
110.354
 30
0.0
 10
-163.3417
 20
110.6366
 30
0.0
 10
-163.4131
 20
110.9172
 30
0.0
 10
-163.4131
 20
110.9172
 30
0.0
 10
-163.4842
 20
110.6366
 30
0.0
 10
-163.5757
 20
110.354
 30
0.0
 10
-163.6883
 20
110.0703
 30
0.0
 10
-163.6883
 20
110.0703
 30
0.0
 10
-164.8923
 20
107.0311
 30
0.0
 10
-167.8991
 20
105.7375
 30
0.0
 10
-170.9423
 20
106.7706
 30
0.0
 10
-170.9423
 20
106.7706
 30
0.0
 10
-173.4584
 20
107.6249
 30
0.0
 10
-175.482
 20
110.1024
 30
0.0
 10
-176.2052
 20
112.6892
 30
0.0
 10
-176.2052
 20
112.6892
 30
0.0
 10
-177.2607
 20
108.977
 30
0.0
 10
-179.8219
 20
105.9428
 30
0.0
 10
-183.045
 20
104.4973
 30
0.0
 10
-183.045
 20
104.4973
 30
0.0
 10
-183.045
 20
104.4973
 30
0.0
 10
-183.045
 20
103.4441
 30
0.0
 10
-183.045
 20
103.4441
 30
0.0
  0
SPLINE
  5
6E
330
1F
100
AcDbEntity
  8
layer 1
 62
     7
100
AcDbSpline
210
0.0
220
0.0
230
1.0
 70
    11
 71
     3
 72
    20
 73
    16
 74
     0
 42
0.0000000001
 43
0.0000000001
 12
1.0
 22
0.0
 32
0.0
 13
1.0
 23
0.0
 33
0.0
 40
0.0
 40
0.0
 40
0.0
 40
0.0
 40
0.2
 40
0.2
 40
0.2
 40
0.2
 40
0.4
 40
0.4
 40
0.4
 40
0.4
 40
0.6
 40
0.6
 40
0.6
 40
0.6
 40
1.0
 40
1.0
 40
1.0
 40
1.0
 10
-183.045
 20
81.4472
 30
0.0
 10
-181.3064
 20
82.6524
 30
0.0
 10
-179.8188
 20
84.5055
 30
0.0
 10
-178.9029
 20
86.2782
 30
0.0
 10
-178.9029
 20
86.2782
 30
0.0
 10
-177.4016
 20
89.183
 30
0.0
 10
-177.0138
 20
92.4565
 30
0.0
 10
-178.2688
 20
95.5342
 30
0.0
 10
-178.2688
 20
95.5342
 30
0.0
 10
-179.2281
 20
97.8871
 30
0.0
 10
-180.8527
 20
99.4585
 30
0.0
 10
-183.045
 20
100.2181
 30
0.0
 10
-183.045
 20
100.2181
 30
0.0
 10
-183.045
 20
100.2181
 30
0.0
 10
-183.045
 20
81.4472
 30
0.0
 10
-183.045
 20
81.4472
 30
0.0
  0
SPLINE
  5
6F
330
1F
100
AcDbEntity
  8
layer 1
 62
     7
100
AcDbSpline
210
0.0
220
0.0
230
1.0
 70
    11
 71
     3
 72
    20
 73
    16
 74
     0
 42
0.0000000001
 43
0.0000000001
 12
1.0
 22
0.0
 32
0.0
 13
1.0
 23
0.0
 33
0.0
 40
0.0
 40
0.0
 40
0.0
 40
0.0
 40
0.2
 40
0.2
 40
0.2
 40
0.2
 40
0.4
 40
0.4
 40
0.4
 40
0.4
 40
0.6
 40
0.6
 40
0.6
 40
0.6
 40
1.0
 40
1.0
 40
1.0
 40
1.0
 10
-183.045
 20
60.1126
 30
0.0
 10
-180.8527
 20
60.8719
 30
0.0
 10
-179.2281
 20
62.4436
 30
0.0
 10
-178.2688
 20
64.7971
 30
0.0
 10
-178.2688
 20
64.7971
 30
0.0
 10
-177.0138
 20
67.8742
 30
0.0
 10
-177.4016
 20
71.1477
 30
0.0
 10
-178.9029
 20
74.0522
 30
0.0
 10
-178.9029
 20
74.0522
 30
0.0
 10
-179.8188
 20
75.8255
 30
0.0
 10
-181.3064
 20
77.6783
 30
0.0
 10
-183.045
 20
78.8835
 30
0.0
 10
-183.045
 20
78.8835
 30
0.0
 10
-183.045
 20
78.8835
 30
0.0
 10
-183.045
 20
60.1126
 30
0.0
 10
-183.045
 20
60.1126
 30
0.0
  0
SPLINE
  5
70
330
1F
100
AcDbEntity
  8
layer 1
 62
     7
100
AcDbSpline
210
0.0
220
0.0
230
1.0
 70
    11
 71
     3
 72
    72
 73
    68
 74
     0
 42
0.0000000001
 43
0.0000000001
 12
1.0
 22
0.0
 32
0.0
 13
1.0
 23
0.0
 33
0.0
 40
0.0
 40
0.0
 40
0.0
 40
0.0
 40
0.0555555555555556
 40
0.0555555555555556
 40
0.0555555555555556
 40
0.0555555555555556
 40
0.1111111111111111
 40
0.1111111111111111
 40
0.1111111111111111
 40
0.1111111111111111
 40
0.1666666666666667
 40
0.1666666666666667
 40
0.1666666666666667
 40
0.1666666666666667
 40
0.2222222222222222
 40
0.2222222222222222
 40
0.2222222222222222
 40
0.2222222222222222
 40
0.2777777777777778
 40
0.2777777777777778
 40
0.2777777777777778
 40
0.2777777777777778
 40
0.3333333333333333
 40
0.3333333333333333
 40
0.3333333333333333
 40
0.3333333333333333
 40
0.3888888888888889
 40
0.3888888888888889
 40
0.3888888888888889
 40
0.3888888888888889
 40
0.4444444444444444
 40
0.4444444444444444
 40
0.4444444444444444
 40
0.4444444444444444
 40
0.5
 40
0.5
 40
0.5
 40
0.5
 40
0.5555555555555556
 40
0.5555555555555556
 40
0.5555555555555556
 40
0.5555555555555556
 40
0.6111111111111112
 40
0.6111111111111112
 40
0.6111111111111112
 40
0.6111111111111112
 40
0.6666666666666666
 40
0.6666666666666666
 40
0.6666666666666666
 40
0.6666666666666666
 40
0.7222222222222222
 40
0.7222222222222222
 40
0.7222222222222222
 40
0.7222222222222222
 40
0.7777777777777778
 40
0.7777777777777778
 40
0.7777777777777778
 40
0.7777777777777778
 40
0.8333333333333334
 40
0.8333333333333334
 40
0.8333333333333334
 40
0.8333333333333334
 40
0.8888888888888888
 40
0.8888888888888888
 40
0.8888888888888888
 40
0.8888888888888888
 40
1.0
 40
1.0
 40
1.0
 40
1.0
 10
-183.045
 20
55.6393
 30
0.0
 10
-179.8219
 20
54.1933
 30
0.0
 10
-177.2607
 20
51.16
 30
0.0
 10
-176.2052
 20
47.4475
 30
0.0
 10
-176.2052
 20
47.4475
 30
0.0
 10
-175.482
 20
50.0344
 30
0.0
 10
-173.4584
 20
52.5118
 30
0.0
 10
-170.9423
 20
53.3659
 30
0.0
 10
-170.9423
 20
53.3659
 30
0.0
 10
-167.8991
 20
54.3992
 30
0.0
 10
-164.8923
 20
53.1054
 30
0.0
 10
-163.6883
 20
50.0662
 30
0.0
 10
-163.6883
 20
50.0662
 30
0.0
 10
-163.576
 20
49.7832
 30
0.0
 10
-163.4842
 20
49.4998
 30
0.0
 10
-163.4131
 20
49.2199
 30
0.0
 10
-163.4131
 20
49.2199
 30
0.0
 10
-163.3417
 20
49.4998
 30
0.0
 10
-163.2498
 20
49.7832
 30
0.0
 10
-163.1373
 20
50.0662
 30
0.0
 10
-163.1373
 20
50.0662
 30
0.0
 10
-161.9335
 20
53.1054
 30
0.0
 10
-158.9267
 20
54.3992
 30
0.0
 10
-155.8836
 20
53.3659
 30
0.0
 10
-155.8836
 20
53.3659
 30
0.0
 10
-153.3678
 20
52.5118
 30
0.0
 10
-151.3439
 20
50.0344
 30
0.0
 10
-150.6203
 20
47.4475
 30
0.0
 10
-150.6203
 20
47.4475
 30
0.0
 10
-149.3739
 20
51.8312
 30
0.0
 10
-146.0284
 20
55.2692
 30
0.0
 10
-141.9719
 20
56.2629
 30
0.0
 10
-141.9719
 20
56.2629
 30
0.0
 10
-146.0284
 20
57.2569
 30
0.0
 10
-149.3739
 20
60.6958
 30
0.0
 10
-150.6203
 20
65.0792
 30
0.0
 10
-150.6203
 20
65.0792
 30
0.0
 10
-151.3439
 20
62.492
 30
0.0
 10
-153.3678
 20
60.0146
 30
0.0
 10
-155.8836
 20
59.1609
 30
0.0
 10
-155.8836
 20
59.1609
 30
0.0
 10
-158.9267
 20
58.1271
 30
0.0
 10
-161.9335
 20
59.4214
 30
0.0
 10
-163.1373
 20
62.4603
 30
0.0
 10
-163.1373
 20
62.4603
 30
0.0
 10
-163.2498
 20
62.7433
 30
0.0
 10
-163.3417
 20
63.0262
 30
0.0
 10
-163.4131
 20
63.3068
 30
0.0
 10
-163.4131
 20
63.3068
 30
0.0
 10
-163.4842
 20
63.0262
 30
0.0
 10
-163.576
 20
62.7433
 30
0.0
 10
-163.6883
 20
62.4603
 30
0.0
 10
-163.6883
 20
62.4603
 30
0.0
 10
-164.8923
 20
59.4214
 30
0.0
 10
-167.8991
 20
58.1271
 30
0.0
 10
-170.9423
 20
59.1609
 30
0.0
 10
-170.9423
 20
59.1609
 30
0.0
 10
-173.4584
 20
60.0146
 30
0.0
 10
-175.482
 20
62.492
 30
0.0
 10
-176.2052
 20
65.0792
 30
0.0
 10
-176.2052
 20
65.0792
 30
0.0
 10
-177.2607
 20
61.367
 30
0.0
 10
-179.8219
 20
58.3328
 30
0.0
 10
-183.045
 20
56.8869
 30
0.0
 10
-183.045
 20
56.8869
 30
0.0
 10
-183.045
 20
56.8869
 30
0.0
 10
-183.045
 20
55.6393
 30
0.0
 10
-183.045
 20
55.6393
 30
0.0
  0
SPLINE
  5
71
330
1F
100
AcDbEntity
  8
layer 1
 62
     7
100
AcDbSpline
210
0.0
220
0.0
230
1.0
 70
    11
 71
     3
 72
    20
 73
    16
 74
     0
 42
0.0000000001
 43
0.0000000001
 12
1.0
 22
0.0
 32
0.0
 13
1.0
 23
0.0
 33
0.0
 40
0.0
 40
0.0
 40
0.0
 40
0.0
 40
0.2
 40
0.2
 40
0.2
 40
0.2
 40
0.4
 40
0.4
 40
0.4
 40
0.4
 40
0.6
 40
0.6
 40
0.6
 40
0.6
 40
1.0
 40
1.0
 40
1.0
 40
1.0
 10
-183.045
 20
33.6433
 30
0.0
 10
-181.3064
 20
34.8481
 30
0.0
 10
-179.8188
 20
36.7009
 30
0.0
 10
-178.9029
 20
38.4736
 30
0.0
 10
-178.9029
 20
38.4736
 30
0.0
 10
-177.4016
 20
41.3791
 30
0.0
 10
-177.0138
 20
44.6525
 30
0.0
 10
-178.2688
 20
47.7296
 30
0.0
 10
-178.2688
 20
47.7296
 30
0.0
 10
-179.2281
 20
50.0825
 30
0.0
 10
-180.8527
 20
51.6541
 30
0.0
 10
-183.045
 20
52.4136
 30
0.0
 10
-183.045
 20
52.4136
 30
0.0
 10
-183.045
 20
52.4136
 30
0.0
 10
-183.045
 20
33.6433
 30
0.0
 10
-183.045
 20
33.6433
 30
0.0
  0
SPLINE
  5
72
330
1F
100
AcDbEntity
  8
layer 1
 62
     7
100
AcDbSpline
210
0.0
220
0.0
230
1.0
 70
    11
 71
     3
 72
    20
 73
    16
 74
     0
 42
0.0000000001
 43
0.0000000001
 12
1.0
 22
0.0
 32
0.0
 13
1.0
 23
0.0
 33
0.0
 40
0.0
 40
0.0
 40
0.0
 40
0.0
 40
0.2
 40
0.2
 40
0.2
 40
0.2
 40
0.4
 40
0.4
 40
0.4
 40
0.4
 40
0.6
 40
0.6
 40
0.6
 40
0.6
 40
1.0
 40
1.0
 40
1.0
 40
1.0
 10
-183.045
 20
12.3086
 30
0.0
 10
-180.8527
 20
13.0679
 30
0.0
 10
-179.2281
 20
14.6396
 30
0.0
 10
-178.2688
 20
16.9926
 30
0.0
 10
-178.2688
 20
16.9926
 30
0.0
 10
-177.0138
 20
20.0697
 30
0.0
 10
-177.4016
 20
23.3431
 30
0.0
 10
-178.9029
 20
26.2479
 30
0.0
 10
-178.9029
 20
26.2479
 30
0.0
 10
-179.8188
 20
28.0209
 30
0.0
 10
-181.3064
 20
29.8738
 30
0.0
 10
-183.045
 20
31.0789
 30
0.0
 10
-183.045
 20
31.0789
 30
0.0
 10
-183.045
 20
31.0789
 30
0.0
 10
-183.045
 20
12.3086
 30
0.0
 10
-183.045
 20
12.3086
 30
0.0
  0
SPLINE
  5
73
330
1F
100
AcDbEntity
  8
layer 1
 62
     7
100
AcDbSpline
210
0.0
220
0.0
230
1.0
 70
    11
 71
     3
 72
    72
 73
    68
 74
     0
 42
0.0000000001
 43
0.0000000001
 12
1.0
 22
0.0
 32
0.0
 13
1.0
 23
0.0
 33
0.0
 40
0.0
 40
0.0
 40
0.0
 40
0.0
 40
0.0555555555555556
 40
0.0555555555555556
 40
0.0555555555555556
 40
0.0555555555555556
 40
0.1111111111111111
 40
0.1111111111111111
 40
0.1111111111111111
 40
0.1111111111111111
 40
0.1666666666666667
 40
0.1666666666666667
 40
0.1666666666666667
 40
0.1666666666666667
 40
0.2222222222222222
 40
0.2222222222222222
 40
0.2222222222222222
 40
0.2222222222222222
 40
0.2777777777777778
 40
0.2777777777777778
 40
0.2777777777777778
 40
0.2777777777777778
 40
0.3333333333333333
 40
0.3333333333333333
 40
0.3333333333333333
 40
0.3333333333333333
 40
0.3888888888888889
 40
0.3888888888888889
 40
0.3888888888888889
 40
0.3888888888888889
 40
0.4444444444444444
 40
0.4444444444444444
 40
0.4444444444444444
 40
0.4444444444444444
 40
0.5
 40
0.5
 40
0.5
 40
0.5
 40
0.5555555555555556
 40
0.5555555555555556
 40
0.5555555555555556
 40
0.5555555555555556
 40
0.6111111111111112
 40
0.6111111111111112
 40
0.6111111111111112
 40
0.6111111111111112
 40
0.6666666666666666
 40
0.6666666666666666
 40
0.6666666666666666
 40
0.6666666666666666
 40
0.7222222222222222
 40
0.7222222222222222
 40
0.7222222222222222
 40
0.7222222222222222
 40
0.7777777777777778
 40
0.7777777777777778
 40
0.7777777777777778
 40
0.7777777777777778
 40
0.8333333333333334
 40
0.8333333333333334
 40
0.8333333333333334
 40
0.8333333333333334
 40
0.8888888888888888
 40
0.8888888888888888
 40
0.8888888888888888
 40
0.8888888888888888
 40
1.0
 40
1.0
 40
1.0
 40
1.0
 10
-183.045
 20
7.9622
 30
0.0
 10
-179.8222
 20
6.5167
 30
0.0
 10
-177.2607
 20
3.4824
 30
0.0
 10
-176.2052
 20
-0.2294
 30
0.0
 10
-176.2052
 20
-0.2294
 30
0.0
 10
-175.482
 20
2.3578
 30
0.0
 10
-173.4584
 20
4.8352
 30
0.0
 10
-170.9423
 20
5.6892
 30
0.0
 10
-170.9423
 20
5.6892
 30
0.0
 10
-167.8991
 20
6.7223
 30
0.0
 10
-164.8923
 20
5.4287
 30
0.0
 10
-163.6883
 20
2.3895
 30
0.0
 10
-163.6883
 20
2.3895
 30
0.0
 10
-163.5757
 20
2.1062
 30
0.0
 10
-163.4842
 20
1.8234
 30
0.0
 10
-163.4131
 20
1.5429
 30
0.0
 10
-163.4131
 20
1.5429
 30
0.0
 10
-163.3417
 20
1.8234
 30
0.0
 10
-163.2501
 20
2.1062
 30
0.0
 10
-163.1373
 20
2.3895
 30
0.0
 10
-163.1373
 20
2.3895
 30
0.0
 10
-161.9335
 20
5.4287
 30
0.0
 10
-158.9267
 20
6.7223
 30
0.0
 10
-155.8836
 20
5.6892
 30
0.0
 10
-155.8836
 20
5.6892
 30
0.0
 10
-153.3678
 20
4.8352
 30
0.0
 10
-151.3439
 20
2.3578
 30
0.0
 10
-150.6203
 20
-0.2294
 30
0.0
 10
-150.6203
 20
-0.2294
 30
0.0
 10
-149.3995
 20
4.0651
 30
0.0
 10
-146.163
 20
7.4523
 30
0.0
 10
-142.2176
 20
8.5224
 30
0.0
 10
-142.2176
 20
8.5224
 30
0.0
 10
-146.163
 20
9.5929
 30
0.0
 10
-149.3995
 20
12.9804
 30
0.0
 10
-150.6203
 20
17.275
 30
0.0
 10
-150.6203
 20
17.275
 30
0.0
 10
-151.3439
 20
14.6874
 30
0.0
 10
-153.3678
 20
12.2102
 30
0.0
 10
-155.8836
 20
11.3563
 30
0.0
 10
-155.8836
 20
11.3563
 30
0.0
 10
-158.9267
 20
10.3231
 30
0.0
 10
-161.9335
 20
11.6168
 30
0.0
 10
-163.1373
 20
14.656
 30
0.0
 10
-163.1373
 20
14.656
 30
0.0
 10
-163.2501
 20
14.939
 30
0.0
 10
-163.3417
 20
15.222
 30
0.0
 10
-163.4131
 20
15.5023
 30
0.0
 10
-163.4131
 20
15.5023
 30
0.0
 10
-163.4842
 20
15.222
 30
0.0
 10
-163.5757
 20
14.939
 30
0.0
 10
-163.6883
 20
14.656
 30
0.0
 10
-163.6883
 20
14.656
 30
0.0
 10
-164.8923
 20
11.6168
 30
0.0
 10
-167.8991
 20
10.3231
 30
0.0
 10
-170.9423
 20
11.3563
 30
0.0
 10
-170.9423
 20
11.3563
 30
0.0
 10
-173.4584
 20
12.2102
 30
0.0
 10
-175.482
 20
14.6874
 30
0.0
 10
-176.2052
 20
17.275
 30
0.0
 10
-176.2052
 20
17.275
 30
0.0
 10
-177.2607
 20
13.5628
 30
0.0
 10
-179.8222
 20
10.5285
 30
0.0
 10
-183.045
 20
9.0826
 30
0.0
 10
-183.045
 20
9.0826
 30
0.0
 10
-183.045
 20
9.0826
 30
0.0
 10
-183.045
 20
7.9622
 30
0.0
 10
-183.045
 20
7.9622
 30
0.0
  0
SPLINE
  5
74
330
1F
100
AcDbEntity
  8
layer 1
 62
     7
100
AcDbSpline
210
0.0
220
0.0
230
1.0
 70
    11
 71
     3
 72
    20
 73
    16
 74
     0
 42
0.0000000001
 43
0.0000000001
 12
1.0
 22
0.0
 32
0.0
 13
1.0
 23
0.0
 33
0.0
 40
0.0
 40
0.0
 40
0.0
 40
0.0
 40
0.2
 40
0.2
 40
0.2
 40
0.2
 40
0.4
 40
0.4
 40
0.4
 40
0.4
 40
0.6
 40
0.6
 40
0.6
 40
0.6
 40
1.0
 40
1.0
 40
1.0
 40
1.0
 10
-183.045
 20
-14.0337
 30
0.0
 10
-181.3064
 20
-12.8286
 30
0.0
 10
-179.8188
 20
-10.9757
 30
0.0
 10
-178.9029
 20
-9.203
 30
0.0
 10
-178.9029
 20
-9.203
 30
0.0
 10
-177.4016
 20
-6.2979
 30
0.0
 10
-177.0138
 20
-3.0245
 30
0.0
 10
-178.2688
 20
0.0529
 30
0.0
 10
-178.2688
 20
0.0529
 30
0.0
 10
-179.2281
 20
2.4055
 30
0.0
 10
-180.8527
 20
3.9772
 30
0.0
 10
-183.045
 20
4.7369
 30
0.0
 10
-183.045
 20
4.7369
 30
0.0
 10
-183.045
 20
4.7369
 30
0.0
 10
-183.045
 20
-14.0337
 30
0.0
 10
-183.045
 20
-14.0337
 30
0.0
  0
SPLINE
  5
75
330
1F
100
AcDbEntity
  8
layer 1
 62
     7
100
AcDbSpline
210
0.0
220
0.0
230
1.0
 70
    11
 71
     3
 72
    20
 73
    16
 74
     0
 42
0.0000000001
 43
0.0000000001
 12
1.0
 22
0.0
 32
0.0
 13
1.0
 23
0.0
 33
0.0
 40
0.0
 40
0.0
 40
0.0
 40
0.0
 40
0.2
 40
0.2
 40
0.2
 40
0.2
 40
0.4
 40
0.4
 40
0.4
 40
0.4
 40
0.6
 40
0.6
 40
0.6
 40
0.6
 40
1.0
 40
1.0
 40
1.0
 40
1.0
 10
-183.045
 20
-35.3681
 30
0.0
 10
-180.8527
 20
-34.609
 30
0.0
 10
-179.2281
 20
-33.0374
 30
0.0
 10
-178.2688
 20
-30.6841
 30
0.0
 10
-178.2688
 20
-30.6841
 30
0.0
 10
-177.0138
 20
-27.6073
 30
0.0
 10
-177.4016
 20
-24.3333
 30
0.0
 10
-178.9029
 20
-21.4287
 30
0.0
 10
-178.9029
 20
-21.4287
 30
0.0
 10
-179.8188
 20
-19.6557
 30
0.0
 10
-181.3064
 20
-17.8029
 30
0.0
 10
-183.045
 20
-16.5977
 30
0.0
 10
-183.045
 20
-16.5977
 30
0.0
 10
-183.045
 20
-16.5977
 30
0.0
 10
-183.045
 20
-35.3681
 30
0.0
 10
-183.045
 20
-35.3681
 30
0.0
  0
SPLINE
  5
76
330
1F
100
AcDbEntity
  8
layer 1
 62
     7
100
AcDbSpline
210
0.0
220
0.0
230
1.0
 70
    11
 71
     3
 72
    72
 73
    68
 74
     0
 42
0.0000000001
 43
0.0000000001
 12
1.0
 22
0.0
 32
0.0
 13
1.0
 23
0.0
 33
0.0
 40
0.0
 40
0.0
 40
0.0
 40
0.0
 40
0.0555555555555556
 40
0.0555555555555556
 40
0.0555555555555556
 40
0.0555555555555556
 40
0.1111111111111111
 40
0.1111111111111111
 40
0.1111111111111111
 40
0.1111111111111111
 40
0.1666666666666667
 40
0.1666666666666667
 40
0.1666666666666667
 40
0.1666666666666667
 40
0.2222222222222222
 40
0.2222222222222222
 40
0.2222222222222222
 40
0.2222222222222222
 40
0.2777777777777778
 40
0.2777777777777778
 40
0.2777777777777778
 40
0.2777777777777778
 40
0.3333333333333333
 40
0.3333333333333333
 40
0.3333333333333333
 40
0.3333333333333333
 40
0.3888888888888889
 40
0.3888888888888889
 40
0.3888888888888889
 40
0.3888888888888889
 40
0.4444444444444444
 40
0.4444444444444444
 40
0.4444444444444444
 40
0.4444444444444444
 40
0.5
 40
0.5
 40
0.5
 40
0.5
 40
0.5555555555555556
 40
0.5555555555555556
 40
0.5555555555555556
 40
0.5555555555555556
 40
0.6111111111111112
 40
0.6111111111111112
 40
0.6111111111111112
 40
0.6111111111111112
 40
0.6666666666666666
 40
0.6666666666666666
 40
0.6666666666666666
 40
0.6666666666666666
 40
0.7222222222222222
 40
0.7222222222222222
 40
0.7222222222222222
 40
0.7222222222222222
 40
0.7777777777777778
 40
0.7777777777777778
 40
0.7777777777777778
 40
0.7777777777777778
 40
0.8333333333333334
 40
0.8333333333333334
 40
0.8333333333333334
 40
0.8333333333333334
 40
0.8888888888888888
 40
0.8888888888888888
 40
0.8888888888888888
 40
0.8888888888888888
 40
1.0
 40
1.0
 40
1.0
 40
1.0
 10
-183.045
 20
-39.8414
 30
0.0
 10
-179.8219
 20
-41.2876
 30
0.0
 10
-177.2607
 20
-44.3215
 30
0.0
 10
-176.2052
 20
-48.034
 30
0.0
 10
-176.2052
 20
-48.034
 30
0.0
 10
-175.482
 20
-45.4468
 30
0.0
 10
-173.4584
 20
-42.9691
 30
0.0
 10
-170.9423
 20
-42.1151
 30
0.0
 10
-170.9423
 20
-42.1151
 30
0.0
 10
-167.8991
 20
-41.0823
 30
0.0
 10
-164.8923
 20
-42.3759
 30
0.0
 10
-163.6883
 20
-45.4151
 30
0.0
 10
-163.6883
 20
-45.4151
 30
0.0
 10
-163.576
 20
-45.698
 30
0.0
 10
-163.4842
 20
-45.9811
 30
0.0
 10
-163.4131
 20
-46.2616
 30
0.0
 10
-163.4131
 20
-46.2616
 30
0.0
 10
-163.3417
 20
-45.9811
 30
0.0
 10
-163.2498
 20
-45.698
 30
0.0
 10
-163.1373
 20
-45.4151
 30
0.0
 10
-163.1373
 20
-45.4151
 30
0.0
 10
-161.9335
 20
-42.3759
 30
0.0
 10
-158.9267
 20
-41.0823
 30
0.0
 10
-155.8836
 20
-42.1151
 30
0.0
 10
-155.8836
 20
-42.1151
 30
0.0
 10
-153.3678
 20
-42.9691
 30
0.0
 10
-151.3439
 20
-45.4468
 30
0.0
 10
-150.6203
 20
-48.034
 30
0.0
 10
-150.6203
 20
-48.034
 30
0.0
 10
-149.3739
 20
-43.6504
 30
0.0
 10
-146.0284
 20
-40.2117
 30
0.0
 10
-141.9719
 20
-39.2177
 30
0.0
 10
-141.9719
 20
-39.2177
 30
0.0
 10
-146.0284
 20
-38.2241
 30
0.0
 10
-149.3739
 20
-34.786
 30
0.0
 10
-150.6203
 20
-30.4017
 30
0.0
 10
-150.6203
 20
-30.4017
 30
0.0
 10
-151.3439
 20
-32.9889
 30
0.0
 10
-153.3678
 20
-35.4667
 30
0.0
 10
-155.8836
 20
-36.3203
 30
0.0
 10
-155.8836
 20
-36.3203
 30
0.0
 10
-158.9267
 20
-37.3538
 30
0.0
 10
-161.9335
 20
-36.0601
 30
0.0
 10
-163.1373
 20
-33.0206
 30
0.0
 10
-163.1373
 20
-33.0206
 30
0.0
 10
-163.2498
 20
-32.7374
 30
0.0
 10
-163.3417
 20
-32.455
 30
0.0
 10
-163.4131
 20
-32.1741
 30
0.0
 10
-163.4131
 20
-32.1741
 30
0.0
 10
-163.4842
 20
-32.455
 30
0.0
 10
-163.576
 20
-32.7374
 30
0.0
 10
-163.6883
 20
-33.0206
 30
0.0
 10
-163.6883
 20
-33.0206
 30
0.0
 10
-164.8923
 20
-36.0601
 30
0.0
 10
-167.8991
 20
-37.3538
 30
0.0
 10
-170.9423
 20
-36.3203
 30
0.0
 10
-170.9423
 20
-36.3203
 30
0.0
 10
-173.4584
 20
-35.4667
 30
0.0
 10
-175.482
 20
-32.9889
 30
0.0
 10
-176.2052
 20
-30.4017
 30
0.0
 10
-176.2052
 20
-30.4017
 30
0.0
 10
-177.2607
 20
-34.1142
 30
0.0
 10
-179.8219
 20
-37.1484
 30
0.0
 10
-183.045
 20
-38.5944
 30
0.0
 10
-183.045
 20
-38.5944
 30
0.0
 10
-183.045
 20
-38.5944
 30
0.0
 10
-183.045
 20
-39.8414
 30
0.0
 10
-183.045
 20
-39.8414
 30
0.0
  0
SPLINE
  5
77
330
1F
100
AcDbEntity
  8
layer 1
 62
     7
100
AcDbSpline
210
0.0
220
0.0
230
1.0
 70
    11
 71
     3
 72
    20
 73
    16
 74
     0
 42
0.0000000001
 43
0.0000000001
 12
1.0
 22
0.0
 32
0.0
 13
1.0
 23
0.0
 33
0.0
 40
0.0
 40
0.0
 40
0.0
 40
0.0
 40
0.2
 40
0.2
 40
0.2
 40
0.2
 40
0.4
 40
0.4
 40
0.4
 40
0.4
 40
0.6
 40
0.6
 40
0.6
 40
0.6
 40
1.0
 40
1.0
 40
1.0
 40
1.0
 10
-183.045
 20
-61.838
 30
0.0
 10
-181.3064
 20
-60.6331
 30
0.0
 10
-179.8188
 20
-58.7797
 30
0.0
 10
-178.9029
 20
-57.0073
 30
0.0
 10
-178.9029
 20
-57.0073
 30
0.0
 10
-177.4016
 20
-54.1023
 30
0.0
 10
-177.0138
 20
-50.8284
 30
0.0
 10
-178.2688
 20
-47.7519
 30
0.0
 10
-178.2688
 20
-47.7519
 30
0.0
 10
-179.2281
 20
-45.3985
 30
0.0
 10
-180.8527
 20
-43.8271
 30
0.0
 10
-183.045
 20
-43.0678
 30
0.0
 10
-183.045
 20
-43.0678
 30
0.0
 10
-183.045
 20
-43.0678
 30
0.0
 10
-183.045
 20
-61.838
 30
0.0
 10
-183.045
 20
-61.838
 30
0.0
  0
SPLINE
  5
78
330
1F
100
AcDbEntity
  8
layer 1
 62
     7
100
AcDbSpline
210
0.0
220
0.0
230
1.0
 70
    11
 71
     3
 72
    20
 73
    16
 74
     0
 42
0.0000000001
 43
0.0000000001
 12
1.0
 22
0.0
 32
0.0
 13
1.0
 23
0.0
 33
0.0
 40
0.0
 40
0.0
 40
0.0
 40
0.0
 40
0.2
 40
0.2
 40
0.2
 40
0.2
 40
0.4
 40
0.4
 40
0.4
 40
0.4
 40
0.6
 40
0.6
 40
0.6
 40
0.6
 40
1.0
 40
1.0
 40
1.0
 40
1.0
 10
-183.045
 20
-83.1726
 30
0.0
 10
-180.8527
 20
-82.4133
 30
0.0
 10
-179.2281
 20
-80.8416
 30
0.0
 10
-178.2688
 20
-78.4888
 30
0.0
 10
-178.2688
 20
-78.4888
 30
0.0
 10
-177.0138
 20
-75.4113
 30
0.0
 10
-177.4016
 20
-72.1381
 30
0.0
 10
-178.9029
 20
-69.2331
 30
0.0
 10
-178.9029
 20
-69.2331
 30
0.0
 10
-179.8188
 20
-67.4603
 30
0.0
 10
-181.3064
 20
-65.6071
 30
0.0
 10
-183.045
 20
-64.4021
 30
0.0
 10
-183.045
 20
-64.4021
 30
0.0
 10
-183.045
 20
-64.4021
 30
0.0
 10
-183.045
 20
-83.1726
 30
0.0
 10
-183.045
 20
-83.1726
 30
0.0
  0
SPLINE
  5
79
330
1F
100
AcDbEntity
  8
layer 1
 62
     7
100
AcDbSpline
210
0.0
220
0.0
230
1.0
 70
    11
 71
     3
 72
    72
 73
    68
 74
     0
 42
0.0000000001
 43
0.0000000001
 12
1.0
 22
0.0
 32
0.0
 13
1.0
 23
0.0
 33
0.0
 40
0.0
 40
0.0
 40
0.0
 40
0.0
 40
0.0555555555555556
 40
0.0555555555555556
 40
0.0555555555555556
 40
0.0555555555555556
 40
0.1111111111111111
 40
0.1111111111111111
 40
0.1111111111111111
 40
0.1111111111111111
 40
0.1666666666666667
 40
0.1666666666666667
 40
0.1666666666666667
 40
0.1666666666666667
 40
0.2222222222222222
 40
0.2222222222222222
 40
0.2222222222222222
 40
0.2222222222222222
 40
0.2777777777777778
 40
0.2777777777777778
 40
0.2777777777777778
 40
0.2777777777777778
 40
0.3333333333333333
 40
0.3333333333333333
 40
0.3333333333333333
 40
0.3333333333333333
 40
0.3888888888888889
 40
0.3888888888888889
 40
0.3888888888888889
 40
0.3888888888888889
 40
0.4444444444444444
 40
0.4444444444444444
 40
0.4444444444444444
 40
0.4444444444444444
 40
0.5
 40
0.5
 40
0.5
 40
0.5
 40
0.5555555555555556
 40
0.5555555555555556
 40
0.5555555555555556
 40
0.5555555555555556
 40
0.6111111111111112
 40
0.6111111111111112
 40
0.6111111111111112
 40
0.6111111111111112
 40
0.6666666666666666
 40
0.6666666666666666
 40
0.6666666666666666
 40
0.6666666666666666
 40
0.7222222222222222
 40
0.7222222222222222
 40
0.7222222222222222
 40
0.7222222222222222
 40
0.7777777777777778
 40
0.7777777777777778
 40
0.7777777777777778
 40
0.7777777777777778
 40
0.8333333333333334
 40
0.8333333333333334
 40
0.8333333333333334
 40
0.8333333333333334
 40
0.8888888888888888
 40
0.8888888888888888
 40
0.8888888888888888
 40
0.8888888888888888
 40
1.0
 40
1.0
 40
1.0
 40
1.0
 10
-183.045
 20
-87.4518
 30
0.0
 10
-179.8219
 20
-88.897
 30
0.0
 10
-177.2607
 20
-91.9316
 30
0.0
 10
-176.2052
 20
-95.6438
 30
0.0
 10
-176.2052
 20
-95.6438
 30
0.0
 10
-175.482
 20
-93.0572
 30
0.0
 10
-173.4584
 20
-90.5797
 30
0.0
 10
-170.9423
 20
-89.7255
 30
0.0
 10
-170.9423
 20
-89.7255
 30
0.0
 10
-167.8991
 20
-88.692
 30
0.0
 10
-164.8923
 20
-89.986
 30
0.0
 10
-163.6883
 20
-93.0249
 30
0.0
 10
-163.6883
 20
-93.0249
 30
0.0
 10
-163.5757
 20
-93.3085
 30
0.0
 10
-163.4842
 20
-93.5914
 30
0.0
 10
-163.4131
 20
-93.8714
 30
0.0
 10
-163.4131
 20
-93.8714
 30
0.0
 10
-163.3417
 20
-93.5914
 30
0.0
 10
-163.2501
 20
-93.3085
 30
0.0
 10
-163.1373
 20
-93.0249
 30
0.0
 10
-163.1373
 20
-93.0249
 30
0.0
 10
-161.9335
 20
-89.986
 30
0.0
 10
-158.9267
 20
-88.692
 30
0.0
 10
-155.8836
 20
-89.7255
 30
0.0
 10
-155.8836
 20
-89.7255
 30
0.0
 10
-153.3678
 20
-90.5797
 30
0.0
 10
-151.3439
 20
-93.0572
 30
0.0
 10
-150.6203
 20
-95.6438
 30
0.0
 10
-150.6203
 20
-95.6438
 30
0.0
 10
-149.412
 20
-91.3933
 30
0.0
 10
-146.2295
 20
-88.0314
 30
0.0
 10
-142.3394
 20
-86.9252
 30
0.0
 10
-142.3394
 20
-86.9252
 30
0.0
 10
-146.2295
 20
-85.819
 30
0.0
 10
-149.412
 20
-82.4568
 30
0.0
 10
-150.6203
 20
-78.2066
 30
0.0
 10
-150.6203
 20
-78.2066
 30
0.0
 10
-151.3439
 20
-80.7935
 30
0.0
 10
-153.3678
 20
-83.2707
 30
0.0
 10
-155.8836
 20
-84.1252
 30
0.0
 10
-155.8836
 20
-84.1252
 30
0.0
 10
-158.9267
 20
-85.1581
 30
0.0
 10
-161.9335
 20
-83.8644
 30
0.0
 10
-163.1373
 20
-80.8253
 30
0.0
 10
-163.1373
 20
-80.8253
 30
0.0
 10
-163.2501
 20
-80.5422
 30
0.0
 10
-163.3417
 20
-80.2593
 30
0.0
 10
-163.4131
 20
-79.979
 30
0.0
 10
-163.4131
 20
-79.979
 30
0.0
 10
-163.4842
 20
-80.2593
 30
0.0
 10
-163.5757
 20
-80.5422
 30
0.0
 10
-163.6883
 20
-80.8253
 30
0.0
 10
-163.6883
 20
-80.8253
 30
0.0
 10
-164.8923
 20
-83.8644
 30
0.0
 10
-167.8991
 20
-85.1581
 30
0.0
 10
-170.9423
 20
-84.1252
 30
0.0
 10
-170.9423
 20
-84.1252
 30
0.0
 10
-173.4584
 20
-83.2707
 30
0.0
 10
-175.482
 20
-80.7935
 30
0.0
 10
-176.2052
 20
-78.2066
 30
0.0
 10
-176.2052
 20
-78.2066
 30
0.0
 10
-177.2607
 20
-81.9188
 30
0.0
 10
-179.8219
 20
-84.9534
 30
0.0
 10
-183.045
 20
-86.3986
 30
0.0
 10
-183.045
 20
-86.3986
 30
0.0
 10
-183.045
 20
-86.3986
 30
0.0
 10
-183.045
 20
-87.4518
 30
0.0
 10
-183.045
 20
-87.4518
 30
0.0
  0
SPLINE
  5
7A
330
1F
100
AcDbEntity
  8
layer 1
 62
     7
100
AcDbSpline
210
0.0
220
0.0
230
1.0
 70
    11
 71
     3
 72
    20
 73
    16
 74
     0
 42
0.0000000001
 43
0.0000000001
 12
1.0
 22
0.0
 32
0.0
 13
1.0
 23
0.0
 33
0.0
 40
0.0
 40
0.0
 40
0.0
 40
0.0
 40
0.2
 40
0.2
 40
0.2
 40
0.2
 40
0.4
 40
0.4
 40
0.4
 40
0.4
 40
0.6
 40
0.6
 40
0.6
 40
0.6
 40
1.0
 40
1.0
 40
1.0
 40
1.0
 10
-183.045
 20
-109.4487
 30
0.0
 10
-181.3064
 20
-108.2438
 30
0.0
 10
-179.8188
 20
-106.3904
 30
0.0
 10
-178.9029
 20
-104.6177
 30
0.0
 10
-178.9029
 20
-104.6177
 30
0.0
 10
-177.4016
 20
-101.7126
 30
0.0
 10
-177.0138
 20
-98.4391
 30
0.0
 10
-178.2688
 20
-95.362
 30
0.0
 10
-178.2688
 20
-95.362
 30
0.0
 10
-179.2281
 20
-93.0091
 30
0.0
 10
-180.8527
 20
-91.4374
 30
0.0
 10
-183.045
 20
-90.6781
 30
0.0
 10
-183.045
 20
-90.6781
 30
0.0
 10
-183.045
 20
-90.6781
 30
0.0
 10
-183.045
 20
-109.4487
 30
0.0
 10
-183.045
 20
-109.4487
 30
0.0
  0
SPLINE
  5
7B
330
1F
100
AcDbEntity
  8
layer 1
 62
     7
100
AcDbSpline
210
0.0
220
0.0
230
1.0
 70
    11
 71
     3
 72
    24
 73
    20
 74
     0
 42
0.0000000001
 43
0.0000000001
 12
1.0
 22
0.0
 32
0.0
 13
1.0
 23
0.0
 33
0.0
 40
0.0
 40
0.0
 40
0.0
 40
0.0
 40
0.1666666666666667
 40
0.1666666666666667
 40
0.1666666666666667
 40
0.1666666666666667
 40
0.3333333333333333
 40
0.3333333333333333
 40
0.3333333333333333
 40
0.3333333333333333
 40
0.5
 40
0.5
 40
0.5
 40
0.5
 40
0.6666666666666666
 40
0.6666666666666666
 40
0.6666666666666666
 40
0.6666666666666666
 40
1.0
 40
1.0
 40
1.0
 40
1.0
 10
-150.1031
 20
-110.5992
 30
0.0
 10
-152.5619
 20
-110.1599
 30
0.0
 10
-154.9242
 20
-109.4311
 30
0.0
 10
-156.2
 20
-108.2775
 30
0.0
 10
-156.2
 20
-108.2775
 30
0.0
 10
-159.4479
 20
-105.3406
 30
0.0
 10
-159.6718
 20
-103.6601
 30
0.0
 10
-163.4131
 20
-103.4301
 30
0.0
 10
-163.4131
 20
-103.4301
 30
0.0
 10
-167.1543
 20
-103.6601
 30
0.0
 10
-167.3779
 20
-105.3406
 30
0.0
 10
-170.6255
 20
-108.2775
 30
0.0
 10
-170.6255
 20
-108.2775
 30
0.0
 10
-171.9016
 20
-109.4311
 30
0.0
 10
-174.2633
 20
-110.1599
 30
0.0
 10
-176.7227
 20
-110.5992
 30
0.0
 10
-176.7227
 20
-110.5992
 30
0.0
 10
-176.7227
 20
-110.5992
 30
0.0
 10
-150.1031
 20
-110.5992
 30
0.0
 10
-150.1031
 20
-110.5992
 30
0.0
  0
SPLINE
  5
7C
330
1F
100
AcDbEntity
  8
layer 1
 62
     7
100
AcDbSpline
210
0.0
220
0.0
230
1.0
 70
    11
 71
     3
 72
   104
 73
   100
 74
     0
 42
0.0000000001
 43
0.0000000001
 12
1.0
 22
0.0
 32
0.0
 13
1.0
 23
0.0
 33
0.0
 40
0.0
 40
0.0
 40
0.0
 40
0.0
 40
0.0384615384615385
 40
0.0384615384615385
 40
0.0384615384615385
 40
0.0384615384615385
 40
0.0769230769230769
 40
0.0769230769230769
 40
0.0769230769230769
 40
0.0769230769230769
 40
0.1153846153846154
 40
0.1153846153846154
 40
0.1153846153846154
 40
0.1153846153846154
 40
0.1538461538461539
 40
0.1538461538461539
 40
0.1538461538461539
 40
0.1538461538461539
 40
0.1923076923076923
 40
0.1923076923076923
 40
0.1923076923076923
 40
0.1923076923076923
 40
0.2307692307692308
 40
0.2307692307692308
 40
0.2307692307692308
 40
0.2307692307692308
 40
0.2692307692307692
 40
0.2692307692307692
 40
0.2692307692307692
 40
0.2692307692307692
 40
0.3076923076923077
 40
0.3076923076923077
 40
0.3076923076923077
 40
0.3076923076923077
 40
0.3461538461538461
 40
0.3461538461538461
 40
0.3461538461538461
 40
0.3461538461538461
 40
0.3846153846153846
 40
0.3846153846153846
 40
0.3846153846153846
 40
0.3846153846153846
 40
0.4230769230769231
 40
0.4230769230769231
 40
0.4230769230769231
 40
0.4230769230769231
 40
0.4615384615384616
 40
0.4615384615384616
 40
0.4615384615384616
 40
0.4615384615384616
 40
0.5
 40
0.5
 40
0.5
 40
0.5
 40
0.5384615384615384
 40
0.5384615384615384
 40
0.5384615384615384
 40
0.5384615384615384
 40
0.5769230769230769
 40
0.5769230769230769
 40
0.5769230769230769
 40
0.5769230769230769
 40
0.6153846153846154
 40
0.6153846153846154
 40
0.6153846153846154
 40
0.6153846153846154
 40
0.6538461538461539
 40
0.6538461538461539
 40
0.6538461538461539
 40
0.6538461538461539
 40
0.6923076923076923
 40
0.6923076923076923
 40
0.6923076923076923
 40
0.6923076923076923
 40
0.7307692307692307
 40
0.7307692307692307
 40
0.7307692307692307
 40
0.7307692307692307
 40
0.7692307692307693
 40
0.7692307692307693
 40
0.7692307692307693
 40
0.7692307692307693
 40
0.8076923076923077
 40
0.8076923076923077
 40
0.8076923076923077
 40
0.8076923076923077
 40
0.8461538461538461
 40
0.8461538461538461
 40
0.8461538461538461
 40
0.8461538461538461
 40
0.8846153846153846
 40
0.8846153846153846
 40
0.8846153846153846
 40
0.8846153846153846
 40
0.9230769230769231
 40
0.9230769230769231
 40
0.9230769230769231
 40
0.9230769230769231
 40
1.0
 40
1.0
 40
1.0
 40
1.0
 10
-114.5
 20
-110.5992
 30
0.0
 10
-114.4328
 20
-110.4926
 30
0.0
 10
-114.2842
 20
-110.3877
 30
0.0
 10
-114.0541
 20
-110.2891
 30
0.0
 10
-114.0541
 20
-110.2891
 30
0.0
 10
-111.6848
 20
-109.2825
 30
0.0
 10
-109.5791
 20
-106.8839
 30
0.0
 10
-108.408
 20
-104.6177
 30
0.0
 10
-108.408
 20
-104.6177
 30
0.0
 10
-106.9074
 20
-101.7126
 30
0.0
 10
-106.5189
 20
-98.4391
 30
0.0
 10
-107.7739
 20
-95.362
 30
0.0
 10
-107.7739
 20
-95.362
 30
0.0
 10
-108.9755
 20
-92.4156
 30
0.0
 10
-111.2191
 20
-90.6938
 30
0.0
 10
-114.3162
 20
-90.2585
 30
0.0
 10
-114.3162
 20
-90.2585
 30
0.0
 10
-115.9658
 20
-90.027
 30
0.0
 10
-118.3794
 20
-90.1879
 30
0.0
 10
-119.9496
 20
-90.8258
 30
0.0
 10
-119.9496
 20
-90.8258
 30
0.0
 10
-127.3842
 20
-93.8477
 30
0.0
 10
-124.2096
 20
-104.154
 30
0.0
 10
-119.4623
 20
-102.2092
 30
0.0
 10
-119.4623
 20
-102.2092
 30
0.0
 10
-118.9994
 20
-102.019
 30
0.0
 10
-118.6064
 20
-101.5964
 30
0.0
 10
-118.8496
 20
-101.0873
 30
0.0
 10
-118.8496
 20
-101.0873
 30
0.0
 10
-119.3476
 20
-100.8965
 30
0.0
 10
-119.7867
 20
-100.398
 30
0.0
 10
-119.978
 20
-99.9115
 30
0.0
 10
-119.978
 20
-99.9115
 30
0.0
 10
-121.5509
 20
-95.9231
 30
0.0
 10
-114.8963
 20
-92.5528
 30
0.0
 10
-113.0555
 20
-98.6663
 30
0.0
 10
-113.0555
 20
-98.6663
 30
0.0
 10
-111.9997
 20
-102.1716
 30
0.0
 10
-114.5792
 20
-104.8594
 30
0.0
 10
-117.5989
 20
-106.0867
 30
0.0
 10
-117.5989
 20
-106.0867
 30
0.0
 10
-122.2558
 20
-107.9803
 30
0.0
 10
-126.2876
 20
-105.2632
 30
0.0
 10
-128.0262
 20
-100.8584
 30
0.0
 10
-128.0262
 20
-100.8584
 30
0.0
 10
-128.0765
 20
-100.7291
 30
0.0
 10
-128.1235
 20
-100.5978
 30
0.0
 10
-128.1656
 20
-100.4643
 30
0.0
 10
-128.1656
 20
-100.4643
 30
0.0
 10
-128.2077
 20
-100.5978
 30
0.0
 10
-128.2545
 20
-100.7291
 30
0.0
 10
-128.3054
 20
-100.8584
 30
0.0
 10
-128.3054
 20
-100.8584
 30
0.0
 10
-130.044
 20
-105.2632
 30
0.0
 10
-134.0751
 20
-107.9803
 30
0.0
 10
-138.7324
 20
-106.0867
 30
0.0
 10
-138.7324
 20
-106.0867
 30
0.0
 10
-141.7526
 20
-104.8594
 30
0.0
 10
-144.3319
 20
-102.1716
 30
0.0
 10
-143.2761
 20
-98.6663
 30
0.0
 10
-143.2761
 20
-98.6663
 30
0.0
 10
-141.4349
 20
-92.5528
 30
0.0
 10
-134.7803
 20
-95.9231
 30
0.0
 10
-136.3532
 20
-99.9115
 30
0.0
 10
-136.3532
 20
-99.9115
 30
0.0
 10
-136.5449
 20
-100.398
 30
0.0
 10
-136.9837
 20
-100.8965
 30
0.0
 10
-137.4813
 20
-101.0873
 30
0.0
 10
-137.4813
 20
-101.0873
 30
0.0
 10
-137.7249
 20
-101.5964
 30
0.0
 10
-137.3321
 20
-102.019
 30
0.0
 10
-136.8693
 20
-102.2092
 30
0.0
 10
-136.8693
 20
-102.2092
 30
0.0
 10
-132.122
 20
-104.154
 30
0.0
 10
-128.9471
 20
-93.8477
 30
0.0
 10
-136.3816
 20
-90.8258
 30
0.0
 10
-136.3816
 20
-90.8258
 30
0.0
 10
-137.9519
 20
-90.1879
 30
0.0
 10
-140.3655
 20
-90.027
 30
0.0
 10
-142.015
 20
-90.2585
 30
0.0
 10
-142.015
 20
-90.2585
 30
0.0
 10
-145.1124
 20
-90.6938
 30
0.0
 10
-147.3555
 20
-92.4156
 30
0.0
 10
-148.5574
 20
-95.362
 30
0.0
 10
-148.5574
 20
-95.362
 30
0.0
 10
-149.8124
 20
-98.4391
 30
0.0
 10
-149.4242
 20
-101.7126
 30
0.0
 10
-147.9236
 20
-104.6177
 30
0.0
 10
-147.9236
 20
-104.6177
 30
0.0
 10
-146.7522
 20
-106.8839
 30
0.0
 10
-144.6464
 20
-109.2825
 30
0.0
 10
-142.2768
 20
-110.2891
 30
0.0
 10
-142.2768
 20
-110.2891
 30
0.0
 10
-142.0471
 20
-110.3877
 30
0.0
 10
-141.8985
 20
-110.4926
 30
0.0
 10
-141.8313
 20
-110.5992
 30
0.0
 10
-141.8313
 20
-110.5992
 30
0.0
 10
-141.8313
 20
-110.5992
 30
0.0
 10
-114.5
 20
-110.5992
 30
0.0
 10
-114.5
 20
-110.5992
 30
0.0
  0
SPLINE
  5
7D
330
1F
100
AcDbEntity
  8
layer 1
 62
     7
100
AcDbSpline
210
0.0
220
0.0
230
1.0
 70
    11
 71
     3
 72
    24
 73
    20
 74
     0
 42
0.0000000001
 43
0.0000000001
 12
1.0
 22
0.0
 32
0.0
 13
1.0
 23
0.0
 33
0.0
 40
0.0
 40
0.0
 40
0.0
 40
0.0
 40
0.1666666666666667
 40
0.1666666666666667
 40
0.1666666666666667
 40
0.1666666666666667
 40
0.3333333333333333
 40
0.3333333333333333
 40
0.3333333333333333
 40
0.3333333333333333
 40
0.5
 40
0.5
 40
0.5
 40
0.5
 40
0.6666666666666666
 40
0.6666666666666666
 40
0.6666666666666666
 40
0.6666666666666666
 40
1.0
 40
1.0
 40
1.0
 40
1.0
 10
-79.6086
 20
-110.5992
 30
0.0
 10
-82.0676
 20
-110.1599
 30
0.0
 10
-84.43
 20
-109.4311
 30
0.0
 10
-85.7054
 20
-108.2775
 30
0.0
 10
-85.7054
 20
-108.2775
 30
0.0
 10
-88.9532
 20
-105.3406
 30
0.0
 10
-89.177
 20
-103.6601
 30
0.0
 10
-92.9182
 20
-103.4301
 30
0.0
 10
-92.9182
 20
-103.4301
 30
0.0
 10
-96.6597
 20
-103.6601
 30
0.0
 10
-96.8834
 20
-105.3406
 30
0.0
 10
-100.1315
 20
-108.2775
 30
0.0
 10
-100.1315
 20
-108.2775
 30
0.0
 10
-101.4069
 20
-109.4311
 30
0.0
 10
-103.7693
 20
-110.1599
 30
0.0
 10
-106.2281
 20
-110.5992
 30
0.0
 10
-106.2281
 20
-110.5992
 30
0.0
 10
-106.2281
 20
-110.5992
 30
0.0
 10
-79.6086
 20
-110.5992
 30
0.0
 10
-79.6086
 20
-110.5992
 30
0.0
  0
SPLINE
  5
7E
330
1F
100
AcDbEntity
  8
layer 1
 62
     7
100
AcDbSpline
210
0.0
220
0.0
230
1.0
 70
    11
 71
     3
 72
    28
 73
    24
 74
     0
 42
0.0000000001
 43
0.0000000001
 12
1.0
 22
0.0
 32
0.0
 13
1.0
 23
0.0
 33
0.0
 40
0.0
 40
0.0
 40
0.0
 40
0.0
 40
0.1428571428571428
 40
0.1428571428571428
 40
0.1428571428571428
 40
0.1428571428571428
 40
0.2857142857142857
 40
0.2857142857142857
 40
0.2857142857142857
 40
0.2857142857142857
 40
0.4285714285714285
 40
0.4285714285714285
 40
0.4285714285714285
 40
0.4285714285714285
 40
0.5714285714285714
 40
0.5714285714285714
 40
0.5714285714285714
 40
0.5714285714285714
 40
0.7142857142857143
 40
0.7142857142857143
 40
0.7142857142857143
 40
0.7142857142857143
 40
1.0
 40
1.0
 40
1.0
 40
1.0
 10
-72.9753
 20
-90.577
 30
0.0
 10
-75.3258
 20
-91.2922
 30
0.0
 10
-77.0583
 20
-92.8993
 30
0.0
 10
-78.0625
 20
-95.362
 30
0.0
 10
-78.0625
 20
-95.362
 30
0.0
 10
-79.3178
 20
-98.4391
 30
0.0
 10
-78.9297
 20
-101.7126
 30
0.0
 10
-77.4284
 20
-104.6177
 30
0.0
 10
-77.4284
 20
-104.6177
 30
0.0
 10
-76.4584
 20
-106.4952
 30
0.0
 10
-74.847
 20
-108.4631
 30
0.0
 10
-72.9753
 20
-109.6555
 30
0.0
 10
-72.9753
 20
-109.6555
 30
0.0
 10
-72.9753
 20
-109.6555
 30
0.0
 10
-72.9753
 20
-100.919
 30
0.0
 10
-72.9753
 20
-100.919
 30
0.0
 10
-72.9753
 20
-100.919
 30
0.0
 10
-73.0357
 20
-100.4835
 30
0.0
 10
-73.0385
 20
-100.0287
 30
0.0
 10
-72.9753
 20
-99.5566
 30
0.0
 10
-72.9753
 20
-99.5566
 30
0.0
 10
-72.9753
 20
-99.5566
 30
0.0
 10
-72.9753
 20
-90.577
 30
0.0
 10
-72.9753
 20
-90.577
 30
0.0
  0
SPLINE
  5
7F
330
1F
100
AcDbEntity
  8
layer 1
 62
     7
100
AcDbSpline
210
0.0
220
0.0
230
1.0
 70
    11
 71
     3
 72
    28
 73
    24
 74
     0
 42
0.0000000001
 43
0.0000000001
 12
1.0
 22
0.0
 32
0.0
 13
1.0
 23
0.0
 33
0.0
 40
0.0
 40
0.0
 40
0.0
 40
0.0
 40
0.1428571428571428
 40
0.1428571428571428
 40
0.1428571428571428
 40
0.1428571428571428
 40
0.2857142857142857
 40
0.2857142857142857
 40
0.2857142857142857
 40
0.2857142857142857
 40
0.4285714285714285
 40
0.4285714285714285
 40
0.4285714285714285
 40
0.4285714285714285
 40
0.5714285714285714
 40
0.5714285714285714
 40
0.5714285714285714
 40
0.5714285714285714
 40
0.7142857142857143
 40
0.7142857142857143
 40
0.7142857142857143
 40
0.7142857142857143
 40
1.0
 40
1.0
 40
1.0
 40
1.0
 10
-72.9753
 20
-64.1952
 30
0.0
 10
-74.847
 20
-65.3877
 30
0.0
 10
-76.4584
 20
-67.3556
 30
0.0
 10
-77.4284
 20
-69.2331
 30
0.0
 10
-77.4284
 20
-69.2331
 30
0.0
 10
-78.9297
 20
-72.1381
 30
0.0
 10
-79.3178
 20
-75.4113
 30
0.0
 10
-78.0625
 20
-78.4888
 30
0.0
 10
-78.0625
 20
-78.4888
 30
0.0
 10
-77.0583
 20
-80.9513
 30
0.0
 10
-75.3258
 20
-82.5579
 30
0.0
 10
-72.9753
 20
-83.2732
 30
0.0
 10
-72.9753
 20
-83.2732
 30
0.0
 10
-72.9753
 20
-83.2732
 30
0.0
 10
-72.9753
 20
-74.2932
 30
0.0
 10
-72.9753
 20
-74.2932
 30
0.0
 10
-72.9753
 20
-74.2932
 30
0.0
 10
-73.0388
 20
-73.8214
 30
0.0
 10
-73.0357
 20
-73.3667
 30
0.0
 10
-72.9753
 20
-72.9311
 30
0.0
 10
-72.9753
 20
-72.9311
 30
0.0
 10
-72.9753
 20
-72.9311
 30
0.0
 10
-72.9753
 20
-64.1952
 30
0.0
 10
-72.9753
 20
-64.1952
 30
0.0
  0
SPLINE
  5
80
330
1F
100
AcDbEntity
  8
layer 1
 62
     7
100
AcDbSpline
210
0.0
220
0.0
230
1.0
 70
    11
 71
     3
 72
    28
 73
    24
 74
     0
 42
0.0000000001
 43
0.0000000001
 12
1.0
 22
0.0
 32
0.0
 13
1.0
 23
0.0
 33
0.0
 40
0.0
 40
0.0
 40
0.0
 40
0.0
 40
0.1428571428571428
 40
0.1428571428571428
 40
0.1428571428571428
 40
0.1428571428571428
 40
0.2857142857142857
 40
0.2857142857142857
 40
0.2857142857142857
 40
0.2857142857142857
 40
0.4285714285714285
 40
0.4285714285714285
 40
0.4285714285714285
 40
0.4285714285714285
 40
0.5714285714285714
 40
0.5714285714285714
 40
0.5714285714285714
 40
0.5714285714285714
 40
0.7142857142857143
 40
0.7142857142857143
 40
0.7142857142857143
 40
0.7142857142857143
 40
1.0
 40
1.0
 40
1.0
 40
1.0
 10
-72.9753
 20
-42.9669
 30
0.0
 10
-75.3258
 20
-43.6822
 30
0.0
 10
-77.0583
 20
-45.2889
 30
0.0
 10
-78.0625
 20
-47.7519
 30
0.0
 10
-78.0625
 20
-47.7519
 30
0.0
 10
-79.3178
 20
-50.8284
 30
0.0
 10
-78.9297
 20
-54.1023
 30
0.0
 10
-77.4284
 20
-57.0073
 30
0.0
 10
-77.4284
 20
-57.0073
 30
0.0
 10
-76.4584
 20
-58.8848
 30
0.0
 10
-74.847
 20
-60.8527
 30
0.0
 10
-72.9753
 20
-62.0452
 30
0.0
 10
-72.9753
 20
-62.0452
 30
0.0
 10
-72.9753
 20
-62.0452
 30
0.0
 10
-72.9753
 20
-53.3096
 30
0.0
 10
-72.9753
 20
-53.3096
 30
0.0
 10
-72.9753
 20
-53.3096
 30
0.0
 10
-73.0357
 20
-52.874
 30
0.0
 10
-73.0385
 20
-52.4193
 30
0.0
 10
-72.9753
 20
-51.9472
 30
0.0
 10
-72.9753
 20
-51.9472
 30
0.0
 10
-72.9753
 20
-51.9472
 30
0.0
 10
-72.9753
 20
-42.9669
 30
0.0
 10
-72.9753
 20
-42.9669
 30
0.0
  0
SPLINE
  5
81
330
1F
100
AcDbEntity
  8
layer 1
 62
     7
100
AcDbSpline
210
0.0
220
0.0
230
1.0
 70
    11
 71
     3
 72
    28
 73
    24
 74
     0
 42
0.0000000001
 43
0.0000000001
 12
1.0
 22
0.0
 32
0.0
 13
1.0
 23
0.0
 33
0.0
 40
0.0
 40
0.0
 40
0.0
 40
0.0
 40
0.1428571428571428
 40
0.1428571428571428
 40
0.1428571428571428
 40
0.1428571428571428
 40
0.2857142857142857
 40
0.2857142857142857
 40
0.2857142857142857
 40
0.2857142857142857
 40
0.4285714285714285
 40
0.4285714285714285
 40
0.4285714285714285
 40
0.4285714285714285
 40
0.5714285714285714
 40
0.5714285714285714
 40
0.5714285714285714
 40
0.5714285714285714
 40
0.7142857142857143
 40
0.7142857142857143
 40
0.7142857142857143
 40
0.7142857142857143
 40
1.0
 40
1.0
 40
1.0
 40
1.0
 10
-72.9753
 20
-16.3907
 30
0.0
 10
-74.847
 20
-17.5834
 30
0.0
 10
-76.4584
 20
-19.5513
 30
0.0
 10
-77.4284
 20
-21.4287
 30
0.0
 10
-77.4284
 20
-21.4287
 30
0.0
 10
-78.9297
 20
-24.3333
 30
0.0
 10
-79.3178
 20
-27.6073
 30
0.0
 10
-78.0625
 20
-30.6841
 30
0.0
 10
-78.0625
 20
-30.6841
 30
0.0
 10
-77.0583
 20
-33.1471
 30
0.0
 10
-75.3258
 20
-34.7537
 30
0.0
 10
-72.9753
 20
-35.4688
 30
0.0
 10
-72.9753
 20
-35.4688
 30
0.0
 10
-72.9753
 20
-35.4688
 30
0.0
 10
-72.9753
 20
-26.4888
 30
0.0
 10
-72.9753
 20
-26.4888
 30
0.0
 10
-72.9753
 20
-26.4888
 30
0.0
 10
-73.0388
 20
-26.0168
 30
0.0
 10
-73.0357
 20
-25.5621
 30
0.0
 10
-72.9753
 20
-25.1265
 30
0.0
 10
-72.9753
 20
-25.1265
 30
0.0
 10
-72.9753
 20
-25.1265
 30
0.0
 10
-72.9753
 20
-16.3907
 30
0.0
 10
-72.9753
 20
-16.3907
 30
0.0
  0
SPLINE
  5
82
330
1F
100
AcDbEntity
  8
layer 1
 62
     7
100
AcDbSpline
210
0.0
220
0.0
230
1.0
 70
    11
 71
     3
 72
    28
 73
    24
 74
     0
 42
0.0000000001
 43
0.0000000001
 12
1.0
 22
0.0
 32
0.0
 13
1.0
 23
0.0
 33
0.0
 40
0.0
 40
0.0
 40
0.0
 40
0.0
 40
0.1428571428571428
 40
0.1428571428571428
 40
0.1428571428571428
 40
0.1428571428571428
 40
0.2857142857142857
 40
0.2857142857142857
 40
0.2857142857142857
 40
0.2857142857142857
 40
0.4285714285714285
 40
0.4285714285714285
 40
0.4285714285714285
 40
0.4285714285714285
 40
0.5714285714285714
 40
0.5714285714285714
 40
0.5714285714285714
 40
0.5714285714285714
 40
0.7142857142857143
 40
0.7142857142857143
 40
0.7142857142857143
 40
0.7142857142857143
 40
1.0
 40
1.0
 40
1.0
 40
1.0
 10
-72.9753
 20
4.8377
 30
0.0
 10
-75.3258
 20
4.1224
 30
0.0
 10
-77.0583
 20
2.5156
 30
0.0
 10
-78.0625
 20
0.0529
 30
0.0
 10
-78.0625
 20
0.0529
 30
0.0
 10
-79.3178
 20
-3.0245
 30
0.0
 10
-78.9297
 20
-6.2979
 30
0.0
 10
-77.4284
 20
-9.203
 30
0.0
 10
-77.4284
 20
-9.203
 30
0.0
 10
-76.4584
 20
-11.0805
 30
0.0
 10
-74.847
 20
-13.0487
 30
0.0
 10
-72.9753
 20
-14.2409
 30
0.0
 10
-72.9753
 20
-14.2409
 30
0.0
 10
-72.9753
 20
-14.2409
 30
0.0
 10
-72.9753
 20
-5.505
 30
0.0
 10
-72.9753
 20
-5.505
 30
0.0
 10
-72.9753
 20
-5.505
 30
0.0
 10
-73.0357
 20
-5.0694
 30
0.0
 10
-73.0385
 20
-4.6146
 30
0.0
 10
-72.9753
 20
-4.1427
 30
0.0
 10
-72.9753
 20
-4.1427
 30
0.0
 10
-72.9753
 20
-4.1427
 30
0.0
 10
-72.9753
 20
4.8377
 30
0.0
 10
-72.9753
 20
4.8377
 30
0.0
  0
SPLINE
  5
83
330
1F
100
AcDbEntity
  8
layer 1
 62
     7
100
AcDbSpline
210
0.0
220
0.0
230
1.0
 70
    11
 71
     3
 72
    28
 73
    24
 74
     0
 42
0.0000000001
 43
0.0000000001
 12
1.0
 22
0.0
 32
0.0
 13
1.0
 23
0.0
 33
0.0
 40
0.0
 40
0.0
 40
0.0
 40
0.0
 40
0.1428571428571428
 40
0.1428571428571428
 40
0.1428571428571428
 40
0.1428571428571428
 40
0.2857142857142857
 40
0.2857142857142857
 40
0.2857142857142857
 40
0.2857142857142857
 40
0.4285714285714285
 40
0.4285714285714285
 40
0.4285714285714285
 40
0.4285714285714285
 40
0.5714285714285714
 40
0.5714285714285714
 40
0.5714285714285714
 40
0.5714285714285714
 40
0.7142857142857143
 40
0.7142857142857143
 40
0.7142857142857143
 40
0.7142857142857143
 40
1.0
 40
1.0
 40
1.0
 40
1.0
 10
-72.9753
 20
31.286
 30
0.0
 10
-74.847
 20
30.0936
 30
0.0
 10
-76.4584
 20
28.1254
 30
0.0
 10
-77.4284
 20
26.2479
 30
0.0
 10
-77.4284
 20
26.2479
 30
0.0
 10
-78.9297
 20
23.3431
 30
0.0
 10
-79.3178
 20
20.0697
 30
0.0
 10
-78.0625
 20
16.9926
 30
0.0
 10
-78.0625
 20
16.9926
 30
0.0
 10
-77.0583
 20
14.5299
 30
0.0
 10
-75.3258
 20
12.9227
 30
0.0
 10
-72.9753
 20
12.2078
 30
0.0
 10
-72.9753
 20
12.2078
 30
0.0
 10
-72.9753
 20
12.2078
 30
0.0
 10
-72.9753
 20
21.1879
 30
0.0
 10
-72.9753
 20
21.1879
 30
0.0
 10
-72.9753
 20
21.1879
 30
0.0
 10
-73.0388
 20
21.6598
 30
0.0
 10
-73.0357
 20
22.1146
 30
0.0
 10
-72.9753
 20
22.5502
 30
0.0
 10
-72.9753
 20
22.5502
 30
0.0
 10
-72.9753
 20
22.5502
 30
0.0
 10
-72.9753
 20
31.286
 30
0.0
 10
-72.9753
 20
31.286
 30
0.0
  0
SPLINE
  5
84
330
1F
100
AcDbEntity
  8
layer 1
 62
     7
100
AcDbSpline
210
0.0
220
0.0
230
1.0
 70
    11
 71
     3
 72
    28
 73
    24
 74
     0
 42
0.0000000001
 43
0.0000000001
 12
1.0
 22
0.0
 32
0.0
 13
1.0
 23
0.0
 33
0.0
 40
0.0
 40
0.0
 40
0.0
 40
0.0
 40
0.1428571428571428
 40
0.1428571428571428
 40
0.1428571428571428
 40
0.1428571428571428
 40
0.2857142857142857
 40
0.2857142857142857
 40
0.2857142857142857
 40
0.2857142857142857
 40
0.4285714285714285
 40
0.4285714285714285
 40
0.4285714285714285
 40
0.4285714285714285
 40
0.5714285714285714
 40
0.5714285714285714
 40
0.5714285714285714
 40
0.5714285714285714
 40
0.7142857142857143
 40
0.7142857142857143
 40
0.7142857142857143
 40
0.7142857142857143
 40
1.0
 40
1.0
 40
1.0
 40
1.0
 10
-72.9753
 20
52.5143
 30
0.0
 10
-75.3258
 20
51.7991
 30
0.0
 10
-77.0583
 20
50.1923
 30
0.0
 10
-78.0625
 20
47.7296
 30
0.0
 10
-78.0625
 20
47.7296
 30
0.0
 10
-79.3178
 20
44.6525
 30
0.0
 10
-78.9297
 20
41.3791
 30
0.0
 10
-77.4284
 20
38.4736
 30
0.0
 10
-77.4284
 20
38.4736
 30
0.0
 10
-76.4584
 20
36.5961
 30
0.0
 10
-74.847
 20
34.628
 30
0.0
 10
-72.9753
 20
33.4358
 30
0.0
 10
-72.9753
 20
33.4358
 30
0.0
 10
-72.9753
 20
33.4358
 30
0.0
 10
-72.9753
 20
42.1719
 30
0.0
 10
-72.9753
 20
42.1719
 30
0.0
 10
-72.9753
 20
42.1719
 30
0.0
 10
-73.0357
 20
42.6076
 30
0.0
 10
-73.0385
 20
43.0623
 30
0.0
 10
-72.9753
 20
43.5343
 30
0.0
 10
-72.9753
 20
43.5343
 30
0.0
 10
-72.9753
 20
43.5343
 30
0.0
 10
-72.9753
 20
52.5143
 30
0.0
 10
-72.9753
 20
52.5143
 30
0.0
  0
SPLINE
  5
85
330
1F
100
AcDbEntity
  8
layer 1
 62
     7
100
AcDbSpline
210
0.0
220
0.0
230
1.0
 70
    11
 71
     3
 72
    28
 73
    24
 74
     0
 42
0.0000000001
 43
0.0000000001
 12
1.0
 22
0.0
 32
0.0
 13
1.0
 23
0.0
 33
0.0
 40
0.0
 40
0.0
 40
0.0
 40
0.0
 40
0.1428571428571428
 40
0.1428571428571428
 40
0.1428571428571428
 40
0.1428571428571428
 40
0.2857142857142857
 40
0.2857142857142857
 40
0.2857142857142857
 40
0.2857142857142857
 40
0.4285714285714285
 40
0.4285714285714285
 40
0.4285714285714285
 40
0.4285714285714285
 40
0.5714285714285714
 40
0.5714285714285714
 40
0.5714285714285714
 40
0.5714285714285714
 40
0.7142857142857143
 40
0.7142857142857143
 40
0.7142857142857143
 40
0.7142857142857143
 40
1.0
 40
1.0
 40
1.0
 40
1.0
 10
-72.9753
 20
79.0907
 30
0.0
 10
-74.847
 20
77.8982
 30
0.0
 10
-76.4584
 20
75.93
 30
0.0
 10
-77.4284
 20
74.0522
 30
0.0
 10
-77.4284
 20
74.0522
 30
0.0
 10
-78.9297
 20
71.1477
 30
0.0
 10
-79.3178
 20
67.8742
 30
0.0
 10
-78.0625
 20
64.7971
 30
0.0
 10
-78.0625
 20
64.7971
 30
0.0
 10
-77.0583
 20
62.3341
 30
0.0
 10
-75.3258
 20
60.7274
 30
0.0
 10
-72.9753
 20
60.0121
 30
0.0
 10
-72.9753
 20
60.0121
 30
0.0
 10
-72.9753
 20
60.0121
 30
0.0
 10
-72.9753
 20
68.9921
 30
0.0
 10
-72.9753
 20
68.9921
 30
0.0
 10
-72.9753
 20
68.9921
 30
0.0
 10
-73.0388
 20
69.4641
 30
0.0
 10
-73.0357
 20
69.9189
 30
0.0
 10
-72.9753
 20
70.3544
 30
0.0
 10
-72.9753
 20
70.3544
 30
0.0
 10
-72.9753
 20
70.3544
 30
0.0
 10
-72.9753
 20
79.0907
 30
0.0
 10
-72.9753
 20
79.0907
 30
0.0
  0
SPLINE
  5
86
330
1F
100
AcDbEntity
  8
layer 1
 62
     7
100
AcDbSpline
210
0.0
220
0.0
230
1.0
 70
    11
 71
     3
 72
    28
 73
    24
 74
     0
 42
0.0000000001
 43
0.0000000001
 12
1.0
 22
0.0
 32
0.0
 13
1.0
 23
0.0
 33
0.0
 40
0.0
 40
0.0
 40
0.0
 40
0.0
 40
0.1428571428571428
 40
0.1428571428571428
 40
0.1428571428571428
 40
0.1428571428571428
 40
0.2857142857142857
 40
0.2857142857142857
 40
0.2857142857142857
 40
0.2857142857142857
 40
0.4285714285714285
 40
0.4285714285714285
 40
0.4285714285714285
 40
0.4285714285714285
 40
0.5714285714285714
 40
0.5714285714285714
 40
0.5714285714285714
 40
0.5714285714285714
 40
0.7142857142857143
 40
0.7142857142857143
 40
0.7142857142857143
 40
0.7142857142857143
 40
1.0
 40
1.0
 40
1.0
 40
1.0
 10
-72.9753
 20
100.3186
 30
0.0
 10
-75.3258
 20
99.6033
 30
0.0
 10
-77.0583
 20
97.9968
 30
0.0
 10
-78.0625
 20
95.5342
 30
0.0
 10
-78.0625
 20
95.5342
 30
0.0
 10
-79.3178
 20
92.4565
 30
0.0
 10
-78.9297
 20
89.183
 30
0.0
 10
-77.4284
 20
86.2782
 30
0.0
 10
-77.4284
 20
86.2782
 30
0.0
 10
-76.4584
 20
84.4007
 30
0.0
 10
-74.847
 20
82.4328
 30
0.0
 10
-72.9753
 20
81.2403
 30
0.0
 10
-72.9753
 20
81.2403
 30
0.0
 10
-72.9753
 20
81.2403
 30
0.0
 10
-72.9753
 20
89.9766
 30
0.0
 10
-72.9753
 20
89.9766
 30
0.0
 10
-72.9753
 20
89.9766
 30
0.0
 10
-73.0357
 20
90.4121
 30
0.0
 10
-73.0385
 20
90.8669
 30
0.0
 10
-72.9753
 20
91.3389
 30
0.0
 10
-72.9753
 20
91.3389
 30
0.0
 10
-72.9753
 20
91.3389
 30
0.0
 10
-72.9753
 20
100.3186
 30
0.0
 10
-72.9753
 20
100.3186
 30
0.0
  0
SPLINE
  5
87
330
1F
100
AcDbEntity
  8
layer 1
 62
     7
100
AcDbSpline
210
0.0
220
0.0
230
1.0
 70
    11
 71
     3
 72
    28
 73
    24
 74
     0
 42
0.0000000001
 43
0.0000000001
 12
1.0
 22
0.0
 32
0.0
 13
1.0
 23
0.0
 33
0.0
 40
0.0
 40
0.0
 40
0.0
 40
0.0
 40
0.1428571428571428
 40
0.1428571428571428
 40
0.1428571428571428
 40
0.1428571428571428
 40
0.2857142857142857
 40
0.2857142857142857
 40
0.2857142857142857
 40
0.2857142857142857
 40
0.4285714285714285
 40
0.4285714285714285
 40
0.4285714285714285
 40
0.4285714285714285
 40
0.5714285714285714
 40
0.5714285714285714
 40
0.5714285714285714
 40
0.5714285714285714
 40
0.7142857142857143
 40
0.7142857142857143
 40
0.7142857142857143
 40
0.7142857142857143
 40
1.0
 40
1.0
 40
1.0
 40
1.0
 10
-72.9753
 20
126.7007
 30
0.0
 10
-74.847
 20
125.5082
 30
0.0
 10
-76.4584
 20
123.5403
 30
0.0
 10
-77.4284
 20
121.6628
 30
0.0
 10
-77.4284
 20
121.6628
 30
0.0
 10
-78.9297
 20
118.7578
 30
0.0
 10
-79.3178
 20
115.4842
 30
0.0
 10
-78.0625
 20
112.4071
 30
0.0
 10
-78.0625
 20
112.4071
 30
0.0
 10
-77.0583
 20
109.9446
 30
0.0
 10
-75.3258
 20
108.3377
 30
0.0
 10
-72.9753
 20
107.6224
 30
0.0
 10
-72.9753
 20
107.6224
 30
0.0
 10
-72.9753
 20
107.6224
 30
0.0
 10
-72.9753
 20
116.6024
 30
0.0
 10
-72.9753
 20
116.6024
 30
0.0
 10
-72.9753
 20
116.6024
 30
0.0
 10
-73.0388
 20
117.0745
 30
0.0
 10
-73.0357
 20
117.5289
 30
0.0
 10
-72.9753
 20
117.9648
 30
0.0
 10
-72.9753
 20
117.9648
 30
0.0
 10
-72.9753
 20
117.9648
 30
0.0
 10
-72.9753
 20
126.7007
 30
0.0
 10
-72.9753
 20
126.7007
 30
0.0
  0
SPLINE
  5
88
330
1F
100
AcDbEntity
  8
layer 1
 62
     7
100
AcDbSpline
210
0.0
220
0.0
230
1.0
 70
    11
 71
     3
 72
    24
 73
    20
 74
     0
 42
0.0000000001
 43
0.0000000001
 12
1.0
 22
0.0
 32
0.0
 13
1.0
 23
0.0
 33
0.0
 40
0.0
 40
0.0
 40
0.0
 40
0.0
 40
0.1666666666666667
 40
0.1666666666666667
 40
0.1666666666666667
 40
0.1666666666666667
 40
0.3333333333333333
 40
0.3333333333333333
 40
0.3333333333333333
 40
0.3333333333333333
 40
0.5
 40
0.5
 40
0.5
 40
0.5
 40
0.6666666666666666
 40
0.6666666666666666
 40
0.6666666666666666
 40
0.6666666666666666
 40
1.0
 40
1.0
 40
1.0
 40
1.0
 10
-105.0302
 20
127.4045
 30
0.0
 10
-103.0233
 20
126.9544
 30
0.0
 10
-101.1977
 20
126.2873
 30
0.0
 10
-100.1315
 20
125.3226
 30
0.0
 10
-100.1315
 20
125.3226
 30
0.0
 10
-96.8834
 20
122.3861
 30
0.0
 10
-96.6597
 20
120.7058
 30
0.0
 10
-92.9182
 20
120.475
 30
0.0
 10
-92.9182
 20
120.475
 30
0.0
 10
-89.177
 20
120.7058
 30
0.0
 10
-88.9532
 20
122.3861
 30
0.0
 10
-85.7054
 20
125.3226
 30
0.0
 10
-85.7054
 20
125.3226
 30
0.0
 10
-84.6393
 20
126.2873
 30
0.0
 10
-82.8137
 20
126.9544
 30
0.0
 10
-80.8069
 20
127.4045
 30
0.0
 10
-80.8069
 20
127.4045
 30
0.0
 10
-80.8069
 20
127.4045
 30
0.0
 10
-105.0302
 20
127.4045
 30
0.0
 10
-105.0302
 20
127.4045
 30
0.0
  0
SPLINE
  5
89
330
1F
100
AcDbEntity
  8
layer 1
 62
     7
100
AcDbSpline
210
0.0
220
0.0
230
1.0
 70
    11
 71
     3
 72
   104
 73
   100
 74
     0
 42
0.0000000001
 43
0.0000000001
 12
1.0
 22
0.0
 32
0.0
 13
1.0
 23
0.0
 33
0.0
 40
0.0
 40
0.0
 40
0.0
 40
0.0
 40
0.0384615384615385
 40
0.0384615384615385
 40
0.0384615384615385
 40
0.0384615384615385
 40
0.0769230769230769
 40
0.0769230769230769
 40
0.0769230769230769
 40
0.0769230769230769
 40
0.1153846153846154
 40
0.1153846153846154
 40
0.1153846153846154
 40
0.1153846153846154
 40
0.1538461538461539
 40
0.1538461538461539
 40
0.1538461538461539
 40
0.1538461538461539
 40
0.1923076923076923
 40
0.1923076923076923
 40
0.1923076923076923
 40
0.1923076923076923
 40
0.2307692307692308
 40
0.2307692307692308
 40
0.2307692307692308
 40
0.2307692307692308
 40
0.2692307692307692
 40
0.2692307692307692
 40
0.2692307692307692
 40
0.2692307692307692
 40
0.3076923076923077
 40
0.3076923076923077
 40
0.3076923076923077
 40
0.3076923076923077
 40
0.3461538461538461
 40
0.3461538461538461
 40
0.3461538461538461
 40
0.3461538461538461
 40
0.3846153846153846
 40
0.3846153846153846
 40
0.3846153846153846
 40
0.3846153846153846
 40
0.4230769230769231
 40
0.4230769230769231
 40
0.4230769230769231
 40
0.4230769230769231
 40
0.4615384615384616
 40
0.4615384615384616
 40
0.4615384615384616
 40
0.4615384615384616
 40
0.5
 40
0.5
 40
0.5
 40
0.5
 40
0.5384615384615384
 40
0.5384615384615384
 40
0.5384615384615384
 40
0.5384615384615384
 40
0.5769230769230769
 40
0.5769230769230769
 40
0.5769230769230769
 40
0.5769230769230769
 40
0.6153846153846154
 40
0.6153846153846154
 40
0.6153846153846154
 40
0.6153846153846154
 40
0.6538461538461539
 40
0.6538461538461539
 40
0.6538461538461539
 40
0.6538461538461539
 40
0.6923076923076923
 40
0.6923076923076923
 40
0.6923076923076923
 40
0.6923076923076923
 40
0.7307692307692307
 40
0.7307692307692307
 40
0.7307692307692307
 40
0.7307692307692307
 40
0.7692307692307693
 40
0.7692307692307693
 40
0.7692307692307693
 40
0.7692307692307693
 40
0.8076923076923077
 40
0.8076923076923077
 40
0.8076923076923077
 40
0.8076923076923077
 40
0.8461538461538461
 40
0.8461538461538461
 40
0.8461538461538461
 40
0.8461538461538461
 40
0.8846153846153846
 40
0.8846153846153846
 40
0.8846153846153846
 40
0.8846153846153846
 40
0.9230769230769231
 40
0.9230769230769231
 40
0.9230769230769231
 40
0.9230769230769231
 40
1.0
 40
1.0
 40
1.0
 40
1.0
 10
-142.1288
 20
127.4045
 30
0.0
 10
-142.1736
 20
127.3808
 30
0.0
 10
-142.2231
 20
127.3573
 30
0.0
 10
-142.2768
 20
127.3343
 30
0.0
 10
-142.2768
 20
127.3343
 30
0.0
 10
-144.6464
 20
126.3274
 30
0.0
 10
-146.7522
 20
123.9291
 30
0.0
 10
-147.9236
 20
121.6628
 30
0.0
 10
-147.9236
 20
121.6628
 30
0.0
 10
-149.4242
 20
118.7578
 30
0.0
 10
-149.8124
 20
115.4842
 30
0.0
 10
-148.5574
 20
112.4071
 30
0.0
 10
-148.5574
 20
112.4071
 30
0.0
 10
-147.3555
 20
109.4609
 30
0.0
 10
-145.1124
 20
107.7393
 30
0.0
 10
-142.015
 20
107.3043
 30
0.0
 10
-142.015
 20
107.3043
 30
0.0
 10
-140.3655
 20
107.0719
 30
0.0
 10
-137.9519
 20
107.2328
 30
0.0
 10
-136.3816
 20
107.8713
 30
0.0
 10
-136.3816
 20
107.8713
 30
0.0
 10
-128.9471
 20
110.8929
 30
0.0
 10
-132.122
 20
121.1995
 30
0.0
 10
-136.8693
 20
119.2547
 30
0.0
 10
-136.8693
 20
119.2547
 30
0.0
 10
-137.3321
 20
119.0648
 30
0.0
 10
-137.7249
 20
118.6415
 30
0.0
 10
-137.4813
 20
118.1322
 30
0.0
 10
-137.4813
 20
118.1322
 30
0.0
 10
-136.9837
 20
117.9424
 30
0.0
 10
-136.5449
 20
117.4432
 30
0.0
 10
-136.3532
 20
116.9567
 30
0.0
 10
-136.3532
 20
116.9567
 30
0.0
 10
-134.7803
 20
112.9682
 30
0.0
 10
-141.4349
 20
109.5986
 30
0.0
 10
-143.2761
 20
115.7121
 30
0.0
 10
-143.2761
 20
115.7121
 30
0.0
 10
-144.3319
 20
119.2171
 30
0.0
 10
-141.7526
 20
121.9045
 30
0.0
 10
-138.7324
 20
123.1321
 30
0.0
 10
-138.7324
 20
123.1321
 30
0.0
 10
-134.0751
 20
125.0258
 30
0.0
 10
-130.044
 20
122.309
 30
0.0
 10
-128.3054
 20
117.9035
 30
0.0
 10
-128.3054
 20
117.9035
 30
0.0
 10
-128.2545
 20
117.7747
 30
0.0
 10
-128.2077
 20
117.6433
 30
0.0
 10
-128.1656
 20
117.5101
 30
0.0
 10
-128.1656
 20
117.5101
 30
0.0
 10
-128.1235
 20
117.6433
 30
0.0
 10
-128.0765
 20
117.7747
 30
0.0
 10
-128.0262
 20
117.9035
 30
0.0
 10
-128.0262
 20
117.9035
 30
0.0
 10
-126.2876
 20
122.309
 30
0.0
 10
-122.2558
 20
125.0258
 30
0.0
 10
-117.5989
 20
123.1321
 30
0.0
 10
-117.5989
 20
123.1321
 30
0.0
 10
-114.5792
 20
121.9045
 30
0.0
 10
-111.9997
 20
119.2171
 30
0.0
 10
-113.0555
 20
115.7121
 30
0.0
 10
-113.0555
 20
115.7121
 30
0.0
 10
-114.8963
 20
109.5986
 30
0.0
 10
-121.5509
 20
112.9682
 30
0.0
 10
-119.978
 20
116.9567
 30
0.0
 10
-119.978
 20
116.9567
 30
0.0
 10
-119.7867
 20
117.4432
 30
0.0
 10
-119.3476
 20
117.9424
 30
0.0
 10
-118.8496
 20
118.1322
 30
0.0
 10
-118.8496
 20
118.1322
 30
0.0
 10
-118.6064
 20
118.6415
 30
0.0
 10
-118.9994
 20
119.0648
 30
0.0
 10
-119.4623
 20
119.2547
 30
0.0
 10
-119.4623
 20
119.2547
 30
0.0
 10
-124.2096
 20
121.1995
 30
0.0
 10
-127.3842
 20
110.8929
 30
0.0
 10
-119.9496
 20
107.8713
 30
0.0
 10
-119.9496
 20
107.8713
 30
0.0
 10
-118.3794
 20
107.2328
 30
0.0
 10
-115.9658
 20
107.0719
 30
0.0
 10
-114.3162
 20
107.3043
 30
0.0
 10
-114.3162
 20
107.3043
 30
0.0
 10
-111.2191
 20
107.7393
 30
0.0
 10
-108.9755
 20
109.4609
 30
0.0
 10
-107.7739
 20
112.4071
 30
0.0
 10
-107.7739
 20
112.4071
 30
0.0
 10
-106.5189
 20
115.4842
 30
0.0
 10
-106.9074
 20
118.7578
 30
0.0
 10
-108.408
 20
121.6628
 30
0.0
 10
-108.408
 20
121.6628
 30
0.0
 10
-109.5791
 20
123.9291
 30
0.0
 10
-111.6848
 20
126.3274
 30
0.0
 10
-114.0541
 20
127.3343
 30
0.0
 10
-114.0541
 20
127.3343
 30
0.0
 10
-114.1078
 20
127.3573
 30
0.0
 10
-114.1573
 20
127.3808
 30
0.0
 10
-114.2025
 20
127.4045
 30
0.0
 10
-114.2025
 20
127.4045
 30
0.0
 10
-114.2025
 20
127.4045
 30
0.0
 10
-142.1288
 20
127.4045
 30
0.0
 10
-142.1288
 20
127.4045
 30
0.0
  0
SPLINE
  5
8A
330
1F
100
AcDbEntity
  8
layer 1
 62
     7
100
AcDbSpline
210
0.0
220
0.0
230
1.0
 70
    11
 71
     3
 72
    24
 73
    20
 74
     0
 42
0.0000000001
 43
0.0000000001
 12
1.0
 22
0.0
 32
0.0
 13
1.0
 23
0.0
 33
0.0
 40
0.0
 40
0.0
 40
0.0
 40
0.0
 40
0.1666666666666667
 40
0.1666666666666667
 40
0.1666666666666667
 40
0.1666666666666667
 40
0.3333333333333333
 40
0.3333333333333333
 40
0.3333333333333333
 40
0.3333333333333333
 40
0.5
 40
0.5
 40
0.5
 40
0.5
 40
0.6666666666666666
 40
0.6666666666666666
 40
0.6666666666666666
 40
0.6666666666666666
 40
1.0
 40
1.0
 40
1.0
 40
1.0
 10
-175.5244
 20
127.4045
 30
0.0
 10
-173.5176
 20
126.9544
 30
0.0
 10
-171.6923
 20
126.2873
 30
0.0
 10
-170.6255
 20
125.3226
 30
0.0
 10
-170.6255
 20
125.3226
 30
0.0
 10
-167.3779
 20
122.3861
 30
0.0
 10
-167.1543
 20
120.7058
 30
0.0
 10
-163.4131
 20
120.475
 30
0.0
 10
-163.4131
 20
120.475
 30
0.0
 10
-159.6718
 20
120.7058
 30
0.0
 10
-159.4479
 20
122.3861
 30
0.0
 10
-156.2
 20
125.3226
 30
0.0
 10
-156.2
 20
125.3226
 30
0.0
 10
-155.1336
 20
126.2873
 30
0.0
 10
-153.308
 20
126.9544
 30
0.0
 10
-151.3014
 20
127.4045
 30
0.0
 10
-151.3014
 20
127.4045
 30
0.0
 10
-151.3014
 20
127.4045
 30
0.0
 10
-175.5244
 20
127.4045
 30
0.0
 10
-175.5244
 20
127.4045
 30
0.0
  0
ENDSEC
  0
SECTION
  2
OBJECTS
  0
DICTIONARY
  5
C
330
0
100
AcDbDictionary
281
     1
  3
ACAD_GROUP
350
D
  3
ACAD_LAYOUT
350
1A
  3
ACAD_MATERIAL
350
3B
  3
ACAD_MLEADERSTYLE
350
AD
  3
ACAD_MLINESTYLE
350
17
  3
ACAD_PLOTSETTINGS
350
19
  3
ACAD_PLOTSTYLENAME
350
E
  3
ACAD_TABLESTYLE
350
AC
  3
ACAD_VISUALSTYLE
350
2A
  0
DICTIONARY
  5
D
102
{ACAD_REACTORS
330
C
102
}
330
C
100
AcDbDictionary
281
     1
  0
DICTIONARY
  5
1A
102
{ACAD_REACTORS
330
C
102
}
330
C
100
AcDbDictionary
281
     1
  3
Layout1
350
1E
  3
Layout2
350
26
  3
Model
350
22
  0
DICTIONARY
  5
3B
102
{ACAD_REACTORS
330
C
102
}
330
C
100
AcDbDictionary
281
     1
  3
ByBlock
350
3D
  3
ByLayer
350
3C
  3
Global
350
3E
  0
DICTIONARY
  5
AD
102
{ACAD_REACTORS
330
C
102
}
330
C
100
AcDbDictionary
281
     1
  0
DICTIONARY
  5
17
102
{ACAD_REACTORS
330
C
102
}
330
C
100
AcDbDictionary
281
     1
  3
Standard
350
18
  0
DICTIONARY
  5
19
102
{ACAD_REACTORS
330
C
102
}
330
C
100
AcDbDictionary
281
     1
  0
ACDBDICTIONARYWDFLT
  5
E
102
{ACAD_REACTORS
330
C
102
}
330
C
100
AcDbDictionary
281
     1
  3
Normal
350
F
100
AcDbDictionaryWithDefault
340
F
  0
DICTIONARY
  5
AC
102
{ACAD_REACTORS
330
C
102
}
330
C
100
AcDbDictionary
281
     1
  0
DICTIONARY
  5
2A
102
{ACAD_REACTORS
330
C
102
}
330
C
100
AcDbDictionary
281
     1
  3
2dWireframe
350
2F
  3
3D Hidden
350
31
  3
3dWireframe
350
30
  3
Basic
350
32
  3
Brighten
350
36
  3
ColorChange
350
3A
  3
Conceptual
350
34
  3
Dim
350
35
  3
Facepattern
350
39
  3
Flat
350
2B
  3
FlatWithEdges
350
2C
  3
Gouraud
350
2D
  3
GouraudWithEdges
350
2E
  3
Linepattern
350
38
  3
Realistic
350
33
  3
Thicken
350
37
  0
LAYOUT
  5
1E
102
{ACAD_REACTORS
330
1A
102
}
330
1A
100
AcDbPlotSettings
  1

  2
none_device
  4

  6

 40
0.0
 41
0.0
 42
0.0
 43
0.0
 44
0.0
 45
0.0
 46
0.0
 47
0.0
 48
0.0
 49
0.0
140
0.0
141
0.0
142
1.0
143
1.0
 70
   688
 72
     0
 73
     0
 74
     5
  7

 75
    16
 76
     0
 77
     2
 78
   300
147
1.0
148
0.0
149
0.0
100
AcDbLayout
  1
Layout1
 70
     1
 71
     1
 10
0.0
 20
0.0
 11
12.0
 21
9.0
 12
0.0
 22
0.0
 32
0.0
 14
1.000000000000000E+20
 24
1.000000000000000E+20
 34
1.000000000000000E+20
 15
-1.000000000000000E+20
 25
-1.000000000000000E+20
 35
-1.000000000000000E+20
146
0.0
 13
0.0
 23
0.0
 33
0.0
 16
1.0
 26
0.0
 36
0.0
 17
0.0
 27
1.0
 37
0.0
 76
     0
330
1B
  0
LAYOUT
  5
26
102
{ACAD_REACTORS
330
1A
102
}
330
1A
100
AcDbPlotSettings
  1

  2
none_device
  4

  6

 40
0.0
 41
0.0
 42
0.0
 43
0.0
 44
0.0
 45
0.0
 46
0.0
 47
0.0
 48
0.0
 49
0.0
140
0.0
141
0.0
142
1.0
143
1.0
 70
   688
 72
     0
 73
     0
 74
     5
  7

 75
    16
 76
     0
 77
     2
 78
   300
147
1.0
148
0.0
149
0.0
100
AcDbLayout
  1
Layout2
 70
     1
 71
     2
 10
0.0
 20
0.0
 11
0.0
 21
0.0
 12
0.0
 22
0.0
 32
0.0
 14
0.0
 24
0.0
 34
0.0
 15
0.0
 25
0.0
 35
0.0
146
0.0
 13
0.0
 23
0.0
 33
0.0
 16
1.0
 26
0.0
 36
0.0
 17
0.0
 27
1.0
 37
0.0
 76
     0
330
23
  0
LAYOUT
  5
22
102
{ACAD_REACTORS
330
1A
102
}
330
1A
100
AcDbPlotSettings
  1

  2
none_device
  4

  6

 40
0.0
 41
0.0
 42
0.0
 43
0.0
 44
0.0
 45
0.0
 46
0.0
 47
0.0
 48
0.0
 49
0.0
140
0.0
141
0.0
142
1.0
143
1.0
 70
  1712
 72
     0
 73
     0
 74
     0
  7

 75
     0
 76
     0
 77
     2
 78
   300
147
1.0
148
0.0
149
0.0
100
AcDbLayout
  1
Model
 70
     1
 71
     0
 10
0.0
 20
0.0
 11
12.0
 21
9.0
 12
0.0
 22
0.0
 32
0.0
 14
-187.1872
 24
-114.9154
 34
0.0
 15
-68.8328
 25
131.7209
 35
0.0
146
0.0
 13
0.0
 23
0.0
 33
0.0
 16
1.0
 26
0.0
 36
0.0
 17
0.0
 27
1.0
 37
0.0
 76
     0
330
1F
331
29
  0
MATERIAL
  5
3D
102
{ACAD_REACTORS
330
3B
102
}
330
3B
100
AcDbMaterial
  1
ByBlock
 72
     1
 94
      127
  0
MATERIAL
  5
3C
102
{ACAD_REACTORS
330
3B
102
}
330
3B
100
AcDbMaterial
  1
ByLayer
 72
     1
 94
      127
  0
MATERIAL
  5
3E
102
{ACAD_REACTORS
330
3B
102
}
330
3B
100
AcDbMaterial
  1
Global
 72
     1
 94
      127
  0
MLINESTYLE
  5
18
102
{ACAD_REACTORS
330
17
102
}
330
17
100
AcDbMlineStyle
  2
Standard
 70
     0
  3

 62
   256
 51
90.0
 52
90.0
 71
     2
 49
0.5
 62
   256
  6
BYLAYER
 49
-0.5
 62
   256
  6
BYLAYER
  0
ACDBPLACEHOLDER
  5
F
102
{ACAD_REACTORS
330
E
102
}
330
E
  0
VISUALSTYLE
  5
2F
102
{ACAD_REACTORS
330
2A
102
}
102
{ACAD_XDICTIONARY
360
94
102
}
330
2A
100
AcDbVisualStyle
  2
2dWireframe
 70
     4
 71
     0
 72
     2
 73
     0
 90
        0
 40
-0.6
 41
-30.0
 62
     5
 63
     7
421
 16777215
 74
     1
 91
        4
 64
     7
 65
   257
 75
     1
175
     1
 42
1.0
 92
        0
 66
   257
 43
1.0
 76
     1
 77
     6
 78
     2
 67
     7
 79
     5
170
     0
171
     0
290
     0
174
     0
 93
        1
 44
0.0
173
     0
291
     0
 45
0.0
  0
VISUALSTYLE
  5
31
102
{ACAD_REACTORS
330
2A
102
}
102
{ACAD_XDICTIONARY
360
98
102
}
330
2A
100
AcDbVisualStyle
  2
3D Hidden
 70
     6
 71
     1
 72
     2
 73
     2
 90
        0
 40
-0.6
 41
-30.0
 62
     5
 63
     7
421
 16777215
 74
     2
 91
        2
 64
     7
 65
   257
 75
     2
175
     1
 42
40.0
 92
        0
 66
   257
 43
1.0
 76
     1
 77
     6
 78
     2
 67
     7
 79
     3
170
     0
171
     0
290
     0
174
     0
 93
        1
 44
0.0
173
     0
291
     0
 45
0.0
  0
VISUALSTYLE
  5
30
102
{ACAD_REACTORS
330
2A
102
}
102
{ACAD_XDICTIONARY
360
96
102
}
330
2A
100
AcDbVisualStyle
  2
3dWireframe
 70
     5
 71
     0
 72
     2
 73
     0
 90
        0
 40
-0.6
 41
-30.0
 62
     5
 63
     7
421
 16777215
 74
     1
 91
        4
 64
     7
 65
   257
 75
     1
175
     1
 42
1.0
 92
        0
 66
   257
 43
1.0
 76
     1
 77
     6
 78
     2
 67
     7
 79
     5
170
     0
171
     0
290
     0
174
     0
 93
        1
 44
0.0
173
     0
291
     0
 45
0.0
  0
VISUALSTYLE
  5
32
102
{ACAD_REACTORS
330
2A
102
}
102
{ACAD_XDICTIONARY
360
9A
102
}
330
2A
100
AcDbVisualStyle
  2
Basic
 70
     7
 71
     1
 72
     0
 73
     1
 90
        0
 40
-0.6
 41
-30.0
 62
     5
 63
     7
421
 16777215
 74
     0
 91
        4
 64
     7
 65
   257
 75
     1
175
     1
 42
1.0
 92
        8
 66
     7
 43
1.0
 76
     1
 77
     6
 78
     2
 67
     7
 79
     5
170
     0
171
     0
290
     0
174
     0
 93
        1
 44
0.0
173
     0
291
     1
 45
0.0
  0
VISUALSTYLE
  5
36
102
{ACAD_REACTORS
330
2A
102
}
102
{ACAD_XDICTIONARY
360
A2
102
}
330
2A
100
AcDbVisualStyle
  2
Brighten
 70
    12
 71
     2
 72
     2
 73
     0
 90
        0
 40
-0.6
 41
-30.0
 62
     5
 63
     7
421
 16777215
 74
     1
 91
        4
 64
     7
 65
   257
 75
     1
175
     1
 42
1.0
 92
        8
 66
     7
 43
1.0
 76
     1
 77
     6
 78
     2
 67
     7
 79
     5
170
     0
171
     0
290
     0
174
     0
 93
        1
 44
50.0
173
     0
291
     1
 45
0.0
  0
VISUALSTYLE
  5
3A
102
{ACAD_REACTORS
330
2A
102
}
102
{ACAD_XDICTIONARY
360
AA
102
}
330
2A
100
AcDbVisualStyle
  2
ColorChange
 70
    16
 71
     2
 72
     2
 73
     3
 90
        0
 40
-0.6
 41
-30.0
 62
     5
 63
     8
421
  8421504
 74
     1
 91
        4
 64
     7
 65
   257
 75
     1
175
     1
 42
1.0
 92
        8
 66
     8
424
  8421504
 43
1.0
 76
     1
 77
     6
 78
     2
 67
     7
 79
     5
170
     0
171
     0
290
     0
174
     0
 93
        1
 44
0.0
173
     0
291
     1
 45
0.0
  0
VISUALSTYLE
  5
34
102
{ACAD_REACTORS
330
2A
102
}
102
{ACAD_XDICTIONARY
360
9E
102
}
330
2A
100
AcDbVisualStyle
  2
Conceptual
 70
     9
 71
     3
 72
     2
 73
     0
 90
        0
 40
-0.6
 41
-30.0
 62
     5
 63
     7
421
 16777215
 74
     2
 91
        2
 64
     7
 65
   257
 75
     1
175
     1
 42
40.0
 92
        8
 66
     7
 43
1.0
 76
     1
 77
     6
 78
     2
 67
     7
 79
     3
170
     0
171
     0
290
     0
174
     0
 93
        1
 44
0.0
173
     0
291
     0
 45
0.0
  0
VISUALSTYLE
  5
35
102
{ACAD_REACTORS
330
2A
102
}
102
{ACAD_XDICTIONARY
360
A0
102
}
330
2A
100
AcDbVisualStyle
  2
Dim
 70
    11
 71
     2
 72
     2
 73
     0
 90
        0
 40
-0.6
 41
-30.0
 62
     5
 63
     7
421
 16777215
 74
     1
 91
        4
 64
     7
 65
   257
 75
     1
175
     1
 42
1.0
 92
        8
 66
     7
 43
1.0
 76
     1
 77
     6
 78
     2
 67
     7
 79
     5
170
     0
171
     0
290
     0
174
     0
 93
        1
 44
-50.0
173
     0
291
     1
 45
0.0
  0
VISUALSTYLE
  5
39
102
{ACAD_REACTORS
330
2A
102
}
102
{ACAD_XDICTIONARY
360
A8
102
}
330
2A
100
AcDbVisualStyle
  2
Facepattern
 70
    15
 71
     2
 72
     2
 73
     0
 90
        0
 40
-0.6
 41
-30.0
 62
     5
 63
     7
421
 16777215
 74
     1
 91
        4
 64
     7
 65
   257
 75
     1
175
     1
 42
1.0
 92
        8
 66
     7
 43
1.0
 76
     1
 77
     6
 78
     2
 67
     7
 79
     5
170
     0
171
     0
290
     0
174
     0
 93
        1
 44
0.0
173
     0
291
     1
 45
0.0
  0
VISUALSTYLE
  5
2B
102
{ACAD_REACTORS
330
2A
102
}
102
{ACAD_XDICTIONARY
360
8C
102
}
330
2A
100
AcDbVisualStyle
  2
Flat
 70
     0
 71
     2
 72
     1
 73
     1
 90
        2
 40
-0.6
 41
30.0
 62
     5
 63
     7
421
 16777215
 74
     0
 91
        4
 64
     7
 65
   257
 75
     1
175
     1
 42
1.0
 92
        8
 66
     7
 43
1.0
 76
     1
 77
     6
 78
     2
 67
     7
 79
     5
170
     0
171
     0
290
     0
174
     0
 93
       13
 44
0.0
173
     0
291
     1
 45
0.0
  0
VISUALSTYLE
  5
2C
102
{ACAD_REACTORS
330
2A
102
}
102
{ACAD_XDICTIONARY
360
8E
102
}
330
2A
100
AcDbVisualStyle
  2
FlatWithEdges
 70
     1
 71
     2
 72
     1
 73
     1
 90
        2
 40
-0.6
 41
30.0
 62
     5
 63
     7
421
 16777215
 74
     1
 91
        4
 64
     7
 65
   257
 75
     1
175
     1
 42
1.0
 92
        0
 66
   257
 43
1.0
 76
     1
 77
     6
 78
     2
 67
     7
 79
     5
170
     0
171
     0
290
     0
174
     0
 93
       13
 44
0.0
173
     0
291
     1
 45
0.0
  0
VISUALSTYLE
  5
2D
102
{ACAD_REACTORS
330
2A
102
}
102
{ACAD_XDICTIONARY
360
90
102
}
330
2A
100
AcDbVisualStyle
  2
Gouraud
 70
     2
 71
     2
 72
     2
 73
     1
 90
        2
 40
-0.6
 41
30.0
 62
     5
 63
     7
421
 16777215
 74
     0
 91
        4
 64
     7
 65
   257
 75
     1
175
     1
 42
1.0
 92
        0
 66
     7
 43
1.0
 76
     1
 77
     6
 78
     2
 67
     7
 79
     5
170
     0
171
     0
290
     0
174
     0
 93
       13
 44
0.0
173
     0
291
     1
 45
0.0
  0
VISUALSTYLE
  5
2E
102
{ACAD_REACTORS
330
2A
102
}
102
{ACAD_XDICTIONARY
360
92
102
}
330
2A
100
AcDbVisualStyle
  2
GouraudWithEdges
 70
     3
 71
     2
 72
     2
 73
     1
 90
        2
 40
-0.6
 41
30.0
 62
     5
 63
     7
421
 16777215
 74
     1
 91
        4
 64
     7
 65
   257
 75
     1
175
     1
 42
1.0
 92
        0
 66
   257
 43
1.0
 76
     1
 77
     6
 78
     2
 67
     7
 79
     5
170
     0
171
     0
290
     0
174
     0
 93
       13
 44
0.0
173
     0
291
     1
 45
0.0
  0
VISUALSTYLE
  5
38
102
{ACAD_REACTORS
330
2A
102
}
102
{ACAD_XDICTIONARY
360
A6
102
}
330
2A
100
AcDbVisualStyle
  2
Linepattern
 70
    14
 71
     2
 72
     2
 73
     0
 90
        0
 40
-0.6
 41
-30.0
 62
     5
 63
     7
421
 16777215
 74
     1
 91
        4
 64
     7
 65
   257
 75
     7
175
     7
 42
1.0
 92
        8
 66
     7
 43
1.0
 76
     1
 77
     6
 78
     2
 67
     7
 79
     5
170
     0
171
     0
290
     0
174
     0
 93
        1
 44
0.0
173
     0
291
     1
 45
0.0
  0
VISUALSTYLE
  5
33
102
{ACAD_REACTORS
330
2A
102
}
102
{ACAD_XDICTIONARY
360
9C
102
}
330
2A
100
AcDbVisualStyle
  2
Realistic
 70
     8
 71
     2
 72
     2
 73
     0
 90
        0
 40
-0.6
 41
-30.0
 62
     5
 63
     7
421
 16777215
 74
     1
 91
        0
 64
     7
 65
   257
 75
     1
175
     1
 42
1.0
 92
        8
 66
     8
424
  7895160
 43
1.0
 76
     1
 77
     6
 78
     2
 67
     7
 79
     5
170
     0
171
     0
290
     0
174
     0
 93
       13
 44
0.0
173
     0
291
     0
 45
0.0
  0
VISUALSTYLE
  5
37
102
{ACAD_REACTORS
330
2A
102
}
102
{ACAD_XDICTIONARY
360
A4
102
}
330
2A
100
AcDbVisualStyle
  2
Thicken
 70
    13
 71
     2
 72
     2
 73
     0
 90
        0
 40
-0.6
 41
-30.0
 62
     5
 63
     7
421
 16777215
 74
     1
 91
        4
 64
     7
 65
   257
 75
     1
175
     1
 42
1.0
 92
       12
 66
     7
 43
1.0
 76
     1
 77
     6
 78
     2
 67
     7
 79
     5
170
     0
171
     0
290
     0
174
     0
 93
        1
 44
0.0
173
     0
291
     1
 45
0.0
  0
DICTIONARY
  5
94
330
2F
100
AcDbDictionary
280
     1
281
     1
  3
ACAD_XREC_ROUNDTRIP
360
95
  0
DICTIONARY
  5
98
330
31
100
AcDbDictionary
280
     1
281
     1
  3
ACAD_XREC_ROUNDTRIP
360
99
  0
DICTIONARY
  5
96
330
30
100
AcDbDictionary
280
     1
281
     1
  3
ACAD_XREC_ROUNDTRIP
360
97
  0
DICTIONARY
  5
9A
330
32
100
AcDbDictionary
280
     1
281
     1
  3
ACAD_XREC_ROUNDTRIP
360
9B
  0
DICTIONARY
  5
A2
330
36
100
AcDbDictionary
280
     1
281
     1
  3
ACAD_XREC_ROUNDTRIP
360
A3
  0
DICTIONARY
  5
AA
330
3A
100
AcDbDictionary
280
     1
281
     1
  3
ACAD_XREC_ROUNDTRIP
360
AB
  0
DICTIONARY
  5
9E
330
34
100
AcDbDictionary
280
     1
281
     1
  3
ACAD_XREC_ROUNDTRIP
360
9F
  0
DICTIONARY
  5
A0
330
35
100
AcDbDictionary
280
     1
281
     1
  3
ACAD_XREC_ROUNDTRIP
360
A1
  0
DICTIONARY
  5
A8
330
39
100
AcDbDictionary
280
     1
281
     1
  3
ACAD_XREC_ROUNDTRIP
360
A9
  0
DICTIONARY
  5
8C
330
2B
100
AcDbDictionary
280
     1
281
     1
  3
ACAD_XREC_ROUNDTRIP
360
8D
  0
DICTIONARY
  5
8E
330
2C
100
AcDbDictionary
280
     1
281
     1
  3
ACAD_XREC_ROUNDTRIP
360
8F
  0
DICTIONARY
  5
90
330
2D
100
AcDbDictionary
280
     1
281
     1
  3
ACAD_XREC_ROUNDTRIP
360
91
  0
DICTIONARY
  5
92
330
2E
100
AcDbDictionary
280
     1
281
     1
  3
ACAD_XREC_ROUNDTRIP
360
93
  0
DICTIONARY
  5
A6
330
38
100
AcDbDictionary
280
     1
281
     1
  3
ACAD_XREC_ROUNDTRIP
360
A7
  0
DICTIONARY
  5
9C
330
33
100
AcDbDictionary
280
     1
281
     1
  3
ACAD_XREC_ROUNDTRIP
360
9D
  0
DICTIONARY
  5
A4
330
37
100
AcDbDictionary
280
     1
281
     1
  3
ACAD_XREC_ROUNDTRIP
360
A5
  0
XRECORD
  5
95
102
{ACAD_REACTORS
330
94
102
}
330
94
100
AcDbXrecord
280
     1
102
RTVSPropertyOp0
 70
     1
102
RTVSPropertyOp1
 70
     1
102
RTVSPropertyOp2
 70
     1
102
RTVSPropertyOp3
 70
     1
102
RTVSPropertyOp4
 70
     1
102
RTVSPropertyOp5
 70
     1
102
RTVSPropertyOp6
 70
     1
102
RTVSPropertyOp7
 70
     1
102
RTVSPropertyOp8
 70
     1
102
RTVSPropertyOp9
 70
     1
102
RTVSPropertyOp10
 70
     1
102
RTVSPropertyOp11
 70
     1
102
RTVSPropertyOp12
 70
     1
102
RTVSPropertyOp13
 70
     1
102
RTVSPropertyOp14
 70
     1
102
RTVSPropertyOp15
 70
     1
102
RTVSPropertyOp16
 70
     1
102
RTVSPropertyOp17
 70
     1
102
RTVSPropertyOp18
 70
     1
102
RTVSPropertyOp19
 70
     1
102
RTVSPropertyOp20
 70
     1
102
RTVSPropertyOp21
 70
     1
102
RTVSPropertyOp22
 70
     1
102
RTVSPropertyOp23
 70
     1
102
RTVSPropertyOp24
 70
     1
102
RTVSPropertyOp25
 70
     1
102
RTVSPropertyOp26
 70
     1
102
RTVSPropertyOp27
 70
     1
102
RTVSPropertyOp28
 70
     1
102
RTVSPropertyOp29
 70
     1
102
RTVSPropertyOp30
 70
     1
102
RTVSPropertyOp31
 70
     1
102
RTVSPropertyOp32
 70
     1
  0
XRECORD
  5
99
102
{ACAD_REACTORS
330
98
102
}
330
98
100
AcDbXrecord
280
     1
102
RTVSPropertyOp0
 70
     1
102
RTVSPropertyOp1
 70
     1
102
RTVSPropertyOp2
 70
     1
102
RTVSPropertyOp3
 70
     1
102
RTVSPropertyOp4
 70
     1
102
RTVSPropertyOp5
 70
     1
102
RTVSPropertyOp6
 70
     1
102
RTVSPropertyOp7
 70
     1
102
RTVSPropertyOp8
 70
     1
102
RTVSPropertyOp9
 70
     1
102
RTVSPropertyOp10
 70
     1
102
RTVSPropertyOp11
 70
     1
102
RTVSPropertyOp12
 70
     1
102
RTVSPropertyOp13
 70
     1
102
RTVSPropertyOp14
 70
     1
102
RTVSPropertyOp15
 70
     1
102
RTVSPropertyOp16
 70
     1
102
RTVSPropertyOp17
 70
     1
102
RTVSPropertyOp18
 70
     1
102
RTVSPropertyOp19
 70
     1
102
RTVSPropertyOp20
 70
     1
102
RTVSPropertyOp21
 70
     1
102
RTVSPropertyOp22
 70
     1
102
RTVSPropertyOp23
 70
     1
102
RTVSPropertyOp24
 70
     1
102
RTVSPropertyOp25
 70
     1
102
RTVSPropertyOp26
 70
     1
102
RTVSPropertyOp27
 70
     1
102
RTVSPropertyOp28
 70
     1
102
RTVSPropertyOp29
 70
     1
102
RTVSPropertyOp30
 70
     1
102
RTVSPropertyOp31
 70
     1
102
RTVSPropertyOp32
 70
     1
  0
XRECORD
  5
97
102
{ACAD_REACTORS
330
96
102
}
330
96
100
AcDbXrecord
280
     1
102
RTVSPropertyOp0
 70
     1
102
RTVSPropertyOp1
 70
     1
102
RTVSPropertyOp2
 70
     1
102
RTVSPropertyOp3
 70
     1
102
RTVSPropertyOp4
 70
     1
102
RTVSPropertyOp5
 70
     1
102
RTVSPropertyOp6
 70
     1
102
RTVSPropertyOp7
 70
     1
102
RTVSPropertyOp8
 70
     1
102
RTVSPropertyOp9
 70
     1
102
RTVSPropertyOp10
 70
     1
102
RTVSPropertyOp11
 70
     1
102
RTVSPropertyOp12
 70
     1
102
RTVSPropertyOp13
 70
     1
102
RTVSPropertyOp14
 70
     1
102
RTVSPropertyOp15
 70
     1
102
RTVSPropertyOp16
 70
     1
102
RTVSPropertyOp17
 70
     1
102
RTVSPropertyOp18
 70
     1
102
RTVSPropertyOp19
 70
     1
102
RTVSPropertyOp20
 70
     1
102
RTVSPropertyOp21
 70
     1
102
RTVSPropertyOp22
 70
     1
102
RTVSPropertyOp23
 70
     1
102
RTVSPropertyOp24
 70
     1
102
RTVSPropertyOp25
 70
     1
102
RTVSPropertyOp26
 70
     1
102
RTVSPropertyOp27
 70
     1
102
RTVSPropertyOp28
 70
     1
102
RTVSPropertyOp29
 70
     1
102
RTVSPropertyOp30
 70
     1
102
RTVSPropertyOp31
 70
     1
102
RTVSPropertyOp32
 70
     1
  0
XRECORD
  5
9B
102
{ACAD_REACTORS
330
9A
102
}
330
9A
100
AcDbXrecord
280
     1
102
RTVSPropertyOp0
 70
     1
102
RTVSPropertyOp1
 70
     1
102
RTVSPropertyOp2
 70
     1
102
RTVSPropertyOp3
 70
     1
102
RTVSPropertyOp4
 70
     1
102
RTVSPropertyOp5
 70
     1
102
RTVSPropertyOp6
 70
     1
102
RTVSPropertyOp7
 70
     1
102
RTVSPropertyOp8
 70
     1
102
RTVSPropertyOp9
 70
     1
102
RTVSPropertyOp10
 70
     1
102
RTVSPropertyOp11
 70
     1
102
RTVSPropertyOp12
 70
     1
102
RTVSPropertyOp13
 70
     1
102
RTVSPropertyOp14
 70
     1
102
RTVSPropertyOp15
 70
     1
102
RTVSPropertyOp16
 70
     1
102
RTVSPropertyOp17
 70
     1
102
RTVSPropertyOp18
 70
     1
102
RTVSPropertyOp19
 70
     1
102
RTVSPropertyOp20
 70
     1
102
RTVSPropertyOp21
 70
     1
102
RTVSPropertyOp22
 70
     1
102
RTVSPropertyOp23
 70
     1
102
RTVSPropertyOp24
 70
     1
102
RTVSPropertyOp25
 70
     1
102
RTVSPropertyOp26
 70
     1
102
RTVSPropertyOp27
 70
     1
102
RTVSPropertyOp28
 70
     1
102
RTVSPropertyOp29
 70
     1
102
RTVSPropertyOp30
 70
     1
102
RTVSPropertyOp31
 70
     1
102
RTVSPropertyOp32
 70
     1
  0
XRECORD
  5
A3
102
{ACAD_REACTORS
330
A2
102
}
330
A2
100
AcDbXrecord
280
     1
102
RTVSPropertyOp0
 70
     1
102
RTVSPropertyOp1
 70
     1
102
RTVSPropertyOp2
 70
     1
102
RTVSPropertyOp3
 70
     1
102
RTVSPropertyOp4
 70
     1
102
RTVSPropertyOp5
 70
     1
102
RTVSPropertyOp6
 70
     1
102
RTVSPropertyOp7
 70
     1
102
RTVSPropertyOp8
 70
     1
102
RTVSPropertyOp9
 70
     1
102
RTVSPropertyOp10
 70
     1
102
RTVSPropertyOp11
 70
     1
102
RTVSPropertyOp12
 70
     1
102
RTVSPropertyOp13
 70
     1
102
RTVSPropertyOp14
 70
     1
102
RTVSPropertyOp15
 70
     1
102
RTVSPropertyOp16
 70
     1
102
RTVSPropertyOp17
 70
     1
102
RTVSPropertyOp18
 70
     1
102
RTVSPropertyOp19
 70
     1
102
RTVSPropertyOp20
 70
     1
102
RTVSPropertyOp21
 70
     1
102
RTVSPropertyOp22
 70
     1
102
RTVSPropertyOp23
 70
     1
102
RTVSPropertyOp24
 70
     1
102
RTVSPropertyOp25
 70
     1
102
RTVSPropertyOp26
 70
     1
102
RTVSPropertyOp27
 70
     1
102
RTVSPropertyOp28
 70
     1
102
RTVSPropertyOp29
 70
     1
102
RTVSPropertyOp30
 70
     1
102
RTVSPropertyOp31
 70
     1
102
RTVSPropertyOp32
 70
     1
  0
XRECORD
  5
AB
102
{ACAD_REACTORS
330
AA
102
}
330
AA
100
AcDbXrecord
280
     1
102
RTVSPropertyOp0
 70
     1
102
RTVSPropertyOp1
 70
     1
102
RTVSPropertyOp2
 70
     1
102
RTVSPropertyOp3
 70
     1
102
RTVSPropertyOp4
 70
     1
102
RTVSPropertyOp5
 70
     1
102
RTVSPropertyOp6
 70
     1
102
RTVSPropertyOp7
 70
     1
102
RTVSPropertyOp8
 70
     1
102
RTVSPropertyOp9
 70
     1
102
RTVSPropertyOp10
 70
     1
102
RTVSPropertyOp11
 70
     1
102
RTVSPropertyOp12
 70
     1
102
RTVSPropertyOp13
 70
     1
102
RTVSPropertyOp14
 70
     1
102
RTVSPropertyOp15
 70
     1
102
RTVSPropertyOp16
 70
     1
102
RTVSPropertyOp17
 70
     1
102
RTVSPropertyOp18
 70
     1
102
RTVSPropertyOp19
 70
     1
102
RTVSPropertyOp20
 70
     1
102
RTVSPropertyOp21
 70
     1
102
RTVSPropertyOp22
 70
     1
102
RTVSPropertyOp23
 70
     1
102
RTVSPropertyOp24
 70
     1
102
RTVSPropertyOp25
 70
     1
102
RTVSPropertyOp26
 70
     1
102
RTVSPropertyOp27
 70
     1
102
RTVSPropertyOp28
 70
     1
102
RTVSPropertyOp29
 70
     1
102
RTVSPropertyOp30
 70
     1
102
RTVSPropertyOp31
 70
     1
102
RTVSPropertyOp32
 70
     1
  0
XRECORD
  5
9F
102
{ACAD_REACTORS
330
9E
102
}
330
9E
100
AcDbXrecord
280
     1
102
RTVSPropertyOp0
 70
     1
102
RTVSPropertyOp1
 70
     1
102
RTVSPropertyOp2
 70
     1
102
RTVSPropertyOp3
 70
     1
102
RTVSPropertyOp4
 70
     1
102
RTVSPropertyOp5
 70
     1
102
RTVSPropertyOp6
 70
     1
102
RTVSPropertyOp7
 70
     1
102
RTVSPropertyOp8
 70
     1
102
RTVSPropertyOp9
 70
     1
102
RTVSPropertyOp10
 70
     1
102
RTVSPropertyOp11
 70
     1
102
RTVSPropertyOp12
 70
     1
102
RTVSPropertyOp13
 70
     1
102
RTVSPropertyOp14
 70
     1
102
RTVSPropertyOp15
 70
     1
102
RTVSPropertyOp16
 70
     1
102
RTVSPropertyOp17
 70
     1
102
RTVSPropertyOp18
 70
     1
102
RTVSPropertyOp19
 70
     1
102
RTVSPropertyOp20
 70
     1
102
RTVSPropertyOp21
 70
     1
102
RTVSPropertyOp22
 70
     1
102
RTVSPropertyOp23
 70
     1
102
RTVSPropertyOp24
 70
     1
102
RTVSPropertyOp25
 70
     1
102
RTVSPropertyOp26
 70
     1
102
RTVSPropertyOp27
 70
     1
102
RTVSPropertyOp28
 70
     1
102
RTVSPropertyOp29
 70
     1
102
RTVSPropertyOp30
 70
     1
102
RTVSPropertyOp31
 70
     1
102
RTVSPropertyOp32
 70
     1
  0
XRECORD
  5
A1
102
{ACAD_REACTORS
330
A0
102
}
330
A0
100
AcDbXrecord
280
     1
102
RTVSPropertyOp0
 70
     1
102
RTVSPropertyOp1
 70
     1
102
RTVSPropertyOp2
 70
     1
102
RTVSPropertyOp3
 70
     1
102
RTVSPropertyOp4
 70
     1
102
RTVSPropertyOp5
 70
     1
102
RTVSPropertyOp6
 70
     1
102
RTVSPropertyOp7
 70
     1
102
RTVSPropertyOp8
 70
     1
102
RTVSPropertyOp9
 70
     1
102
RTVSPropertyOp10
 70
     1
102
RTVSPropertyOp11
 70
     1
102
RTVSPropertyOp12
 70
     1
102
RTVSPropertyOp13
 70
     1
102
RTVSPropertyOp14
 70
     1
102
RTVSPropertyOp15
 70
     1
102
RTVSPropertyOp16
 70
     1
102
RTVSPropertyOp17
 70
     1
102
RTVSPropertyOp18
 70
     1
102
RTVSPropertyOp19
 70
     1
102
RTVSPropertyOp20
 70
     1
102
RTVSPropertyOp21
 70
     1
102
RTVSPropertyOp22
 70
     1
102
RTVSPropertyOp23
 70
     1
102
RTVSPropertyOp24
 70
     1
102
RTVSPropertyOp25
 70
     1
102
RTVSPropertyOp26
 70
     1
102
RTVSPropertyOp27
 70
     1
102
RTVSPropertyOp28
 70
     1
102
RTVSPropertyOp29
 70
     1
102
RTVSPropertyOp30
 70
     1
102
RTVSPropertyOp31
 70
     1
102
RTVSPropertyOp32
 70
     1
  0
XRECORD
  5
A9
102
{ACAD_REACTORS
330
A8
102
}
330
A8
100
AcDbXrecord
280
     1
102
RTVSPropertyOp0
 70
     1
102
RTVSPropertyOp1
 70
     1
102
RTVSPropertyOp2
 70
     1
102
RTVSPropertyOp3
 70
     1
102
RTVSPropertyOp4
 70
     1
102
RTVSPropertyOp5
 70
     1
102
RTVSPropertyOp6
 70
     1
102
RTVSPropertyOp7
 70
     1
102
RTVSPropertyOp8
 70
     1
102
RTVSPropertyOp9
 70
     1
102
RTVSPropertyOp10
 70
     1
102
RTVSPropertyOp11
 70
     1
102
RTVSPropertyOp12
 70
     1
102
RTVSPropertyOp13
 70
     1
102
RTVSPropertyOp14
 70
     1
102
RTVSPropertyOp15
 70
     1
102
RTVSPropertyOp16
 70
     1
102
RTVSPropertyOp17
 70
     1
102
RTVSPropertyOp18
 70
     1
102
RTVSPropertyOp19
 70
     1
102
RTVSPropertyOp20
 70
     1
102
RTVSPropertyOp21
 70
     1
102
RTVSPropertyOp22
 70
     1
102
RTVSPropertyOp23
 70
     1
102
RTVSPropertyOp24
 70
     1
102
RTVSPropertyOp25
 70
     1
102
RTVSPropertyOp26
 70
     1
102
RTVSPropertyOp27
 70
     1
102
RTVSPropertyOp28
 70
     1
102
RTVSPropertyOp29
 70
     1
102
RTVSPropertyOp30
 70
     1
102
RTVSPropertyOp31
 70
     1
102
RTVSPropertyOp32
 70
     1
  0
XRECORD
  5
8D
102
{ACAD_REACTORS
330
8C
102
}
330
8C
100
AcDbXrecord
280
     1
102
RTVSPropertyOp0
 70
     1
102
RTVSPropertyOp1
 70
     1
102
RTVSPropertyOp2
 70
     1
102
RTVSPropertyOp3
 70
     1
102
RTVSPropertyOp4
 70
     1
102
RTVSPropertyOp5
 70
     1
102
RTVSPropertyOp6
 70
     1
102
RTVSPropertyOp7
 70
     1
102
RTVSPropertyOp8
 70
     1
102
RTVSPropertyOp9
 70
     1
102
RTVSPropertyOp10
 70
     1
102
RTVSPropertyOp11
 70
     1
102
RTVSPropertyOp12
 70
     1
102
RTVSPropertyOp13
 70
     1
102
RTVSPropertyOp14
 70
     1
102
RTVSPropertyOp15
 70
     1
102
RTVSPropertyOp16
 70
     1
102
RTVSPropertyOp17
 70
     1
102
RTVSPropertyOp18
 70
     1
102
RTVSPropertyOp19
 70
     1
102
RTVSPropertyOp20
 70
     1
102
RTVSPropertyOp21
 70
     1
102
RTVSPropertyOp22
 70
     1
102
RTVSPropertyOp23
 70
     1
102
RTVSPropertyOp24
 70
     1
102
RTVSPropertyOp25
 70
     1
102
RTVSPropertyOp26
 70
     1
102
RTVSPropertyOp27
 70
     1
102
RTVSPropertyOp28
 70
     1
102
RTVSPropertyOp29
 70
     1
102
RTVSPropertyOp30
 70
     1
102
RTVSPropertyOp31
 70
     1
102
RTVSPropertyOp32
 70
     1
  0
XRECORD
  5
8F
102
{ACAD_REACTORS
330
8E
102
}
330
8E
100
AcDbXrecord
280
     1
102
RTVSPropertyOp0
 70
     1
102
RTVSPropertyOp1
 70
     1
102
RTVSPropertyOp2
 70
     1
102
RTVSPropertyOp3
 70
     1
102
RTVSPropertyOp4
 70
     1
102
RTVSPropertyOp5
 70
     1
102
RTVSPropertyOp6
 70
     1
102
RTVSPropertyOp7
 70
     1
102
RTVSPropertyOp8
 70
     1
102
RTVSPropertyOp9
 70
     1
102
RTVSPropertyOp10
 70
     1
102
RTVSPropertyOp11
 70
     1
102
RTVSPropertyOp12
 70
     1
102
RTVSPropertyOp13
 70
     1
102
RTVSPropertyOp14
 70
     1
102
RTVSPropertyOp15
 70
     1
102
RTVSPropertyOp16
 70
     1
102
RTVSPropertyOp17
 70
     1
102
RTVSPropertyOp18
 70
     1
102
RTVSPropertyOp19
 70
     1
102
RTVSPropertyOp20
 70
     1
102
RTVSPropertyOp21
 70
     1
102
RTVSPropertyOp22
 70
     1
102
RTVSPropertyOp23
 70
     1
102
RTVSPropertyOp24
 70
     1
102
RTVSPropertyOp25
 70
     1
102
RTVSPropertyOp26
 70
     1
102
RTVSPropertyOp27
 70
     1
102
RTVSPropertyOp28
 70
     1
102
RTVSPropertyOp29
 70
     1
102
RTVSPropertyOp30
 70
     1
102
RTVSPropertyOp31
 70
     1
102
RTVSPropertyOp32
 70
     1
  0
XRECORD
  5
91
102
{ACAD_REACTORS
330
90
102
}
330
90
100
AcDbXrecord
280
     1
102
RTVSPropertyOp0
 70
     1
102
RTVSPropertyOp1
 70
     1
102
RTVSPropertyOp2
 70
     1
102
RTVSPropertyOp3
 70
     1
102
RTVSPropertyOp4
 70
     1
102
RTVSPropertyOp5
 70
     1
102
RTVSPropertyOp6
 70
     1
102
RTVSPropertyOp7
 70
     1
102
RTVSPropertyOp8
 70
     1
102
RTVSPropertyOp9
 70
     1
102
RTVSPropertyOp10
 70
     1
102
RTVSPropertyOp11
 70
     1
102
RTVSPropertyOp12
 70
     1
102
RTVSPropertyOp13
 70
     1
102
RTVSPropertyOp14
 70
     1
102
RTVSPropertyOp15
 70
     1
102
RTVSPropertyOp16
 70
     1
102
RTVSPropertyOp17
 70
     1
102
RTVSPropertyOp18
 70
     1
102
RTVSPropertyOp19
 70
     1
102
RTVSPropertyOp20
 70
     1
102
RTVSPropertyOp21
 70
     1
102
RTVSPropertyOp22
 70
     1
102
RTVSPropertyOp23
 70
     1
102
RTVSPropertyOp24
 70
     1
102
RTVSPropertyOp25
 70
     1
102
RTVSPropertyOp26
 70
     1
102
RTVSPropertyOp27
 70
     1
102
RTVSPropertyOp28
 70
     1
102
RTVSPropertyOp29
 70
     1
102
RTVSPropertyOp30
 70
     1
102
RTVSPropertyOp31
 70
     1
102
RTVSPropertyOp32
 70
     1
  0
XRECORD
  5
93
102
{ACAD_REACTORS
330
92
102
}
330
92
100
AcDbXrecord
280
     1
102
RTVSPropertyOp0
 70
     1
102
RTVSPropertyOp1
 70
     1
102
RTVSPropertyOp2
 70
     1
102
RTVSPropertyOp3
 70
     1
102
RTVSPropertyOp4
 70
     1
102
RTVSPropertyOp5
 70
     1
102
RTVSPropertyOp6
 70
     1
102
RTVSPropertyOp7
 70
     1
102
RTVSPropertyOp8
 70
     1
102
RTVSPropertyOp9
 70
     1
102
RTVSPropertyOp10
 70
     1
102
RTVSPropertyOp11
 70
     1
102
RTVSPropertyOp12
 70
     1
102
RTVSPropertyOp13
 70
     1
102
RTVSPropertyOp14
 70
     1
102
RTVSPropertyOp15
 70
     1
102
RTVSPropertyOp16
 70
     1
102
RTVSPropertyOp17
 70
     1
102
RTVSPropertyOp18
 70
     1
102
RTVSPropertyOp19
 70
     1
102
RTVSPropertyOp20
 70
     1
102
RTVSPropertyOp21
 70
     1
102
RTVSPropertyOp22
 70
     1
102
RTVSPropertyOp23
 70
     1
102
RTVSPropertyOp24
 70
     1
102
RTVSPropertyOp25
 70
     1
102
RTVSPropertyOp26
 70
     1
102
RTVSPropertyOp27
 70
     1
102
RTVSPropertyOp28
 70
     1
102
RTVSPropertyOp29
 70
     1
102
RTVSPropertyOp30
 70
     1
102
RTVSPropertyOp31
 70
     1
102
RTVSPropertyOp32
 70
     1
  0
XRECORD
  5
A7
102
{ACAD_REACTORS
330
A6
102
}
330
A6
100
AcDbXrecord
280
     1
102
RTVSPropertyOp0
 70
     1
102
RTVSPropertyOp1
 70
     1
102
RTVSPropertyOp2
 70
     1
102
RTVSPropertyOp3
 70
     1
102
RTVSPropertyOp4
 70
     1
102
RTVSPropertyOp5
 70
     1
102
RTVSPropertyOp6
 70
     1
102
RTVSPropertyOp7
 70
     1
102
RTVSPropertyOp8
 70
     1
102
RTVSPropertyOp9
 70
     1
102
RTVSPropertyOp10
 70
     1
102
RTVSPropertyOp11
 70
     1
102
RTVSPropertyOp12
 70
     1
102
RTVSPropertyOp13
 70
     1
102
RTVSPropertyOp14
 70
     1
102
RTVSPropertyOp15
 70
     1
102
RTVSPropertyOp16
 70
     1
102
RTVSPropertyOp17
 70
     1
102
RTVSPropertyOp18
 70
     1
102
RTVSPropertyOp19
 70
     1
102
RTVSPropertyOp20
 70
     1
102
RTVSPropertyOp21
 70
     1
102
RTVSPropertyOp22
 70
     1
102
RTVSPropertyOp23
 70
     1
102
RTVSPropertyOp24
 70
     1
102
RTVSPropertyOp25
 70
     1
102
RTVSPropertyOp26
 70
     1
102
RTVSPropertyOp27
 70
     1
102
RTVSPropertyOp28
 70
     1
102
RTVSPropertyOp29
 70
     1
102
RTVSPropertyOp30
 70
     1
102
RTVSPropertyOp31
 70
     1
102
RTVSPropertyOp32
 70
     1
  0
XRECORD
  5
9D
102
{ACAD_REACTORS
330
9C
102
}
330
9C
100
AcDbXrecord
280
     1
102
RTVSPropertyOp0
 70
     1
102
RTVSPropertyOp1
 70
     1
102
RTVSPropertyOp2
 70
     1
102
RTVSPropertyOp3
 70
     1
102
RTVSPropertyOp4
 70
     1
102
RTVSPropertyOp5
 70
     1
102
RTVSPropertyOp6
 70
     1
102
RTVSPropertyOp7
 70
     1
102
RTVSPropertyOp8
 70
     1
102
RTVSPropertyOp9
 70
     1
102
RTVSPropertyOp10
 70
     1
102
RTVSPropertyOp11
 70
     1
102
RTVSPropertyOp12
 70
     1
102
RTVSPropertyOp13
 70
     1
102
RTVSPropertyOp14
 70
     1
102
RTVSPropertyOp15
 70
     1
102
RTVSPropertyOp16
 70
     1
102
RTVSPropertyOp17
 70
     1
102
RTVSPropertyOp18
 70
     1
102
RTVSPropertyOp19
 70
     1
102
RTVSPropertyOp20
 70
     1
102
RTVSPropertyOp21
 70
     1
102
RTVSPropertyOp22
 70
     1
102
RTVSPropertyOp23
 70
     1
102
RTVSPropertyOp24
 70
     1
102
RTVSPropertyOp25
 70
     1
102
RTVSPropertyOp26
 70
     1
102
RTVSPropertyOp27
 70
     1
102
RTVSPropertyOp28
 70
     1
102
RTVSPropertyOp29
 70
     1
102
RTVSPropertyOp30
 70
     1
102
RTVSPropertyOp31
 70
     1
102
RTVSPropertyOp32
 70
     1
  0
XRECORD
  5
A5
102
{ACAD_REACTORS
330
A4
102
}
330
A4
100
AcDbXrecord
280
     1
102
RTVSPropertyOp0
 70
     1
102
RTVSPropertyOp1
 70
     1
102
RTVSPropertyOp2
 70
     1
102
RTVSPropertyOp3
 70
     1
102
RTVSPropertyOp4
 70
     1
102
RTVSPropertyOp5
 70
     1
102
RTVSPropertyOp6
 70
     1
102
RTVSPropertyOp7
 70
     1
102
RTVSPropertyOp8
 70
     1
102
RTVSPropertyOp9
 70
     1
102
RTVSPropertyOp10
 70
     1
102
RTVSPropertyOp11
 70
     1
102
RTVSPropertyOp12
 70
     1
102
RTVSPropertyOp13
 70
     1
102
RTVSPropertyOp14
 70
     1
102
RTVSPropertyOp15
 70
     1
102
RTVSPropertyOp16
 70
     1
102
RTVSPropertyOp17
 70
     1
102
RTVSPropertyOp18
 70
     1
102
RTVSPropertyOp19
 70
     1
102
RTVSPropertyOp20
 70
     1
102
RTVSPropertyOp21
 70
     1
102
RTVSPropertyOp22
 70
     1
102
RTVSPropertyOp23
 70
     1
102
RTVSPropertyOp24
 70
     1
102
RTVSPropertyOp25
 70
     1
102
RTVSPropertyOp26
 70
     1
102
RTVSPropertyOp27
 70
     1
102
RTVSPropertyOp28
 70
     1
102
RTVSPropertyOp29
 70
     1
102
RTVSPropertyOp30
 70
     1
102
RTVSPropertyOp31
 70
     1
102
RTVSPropertyOp32
 70
     1
  0
ENDSEC
  0
EOF
