  0
SECTION
  2
HEADER
  9
$ACADVER
  1
AC1021
  9
$ACADMAINTVER
 70
    25
  9
$DWGCODEPAGE
  3
ANSI_1252
  9
$INSBASE
 10
0.0
 20
0.0
 30
0.0
  9
$EXTMIN
 10
-187.138
 20
-115.028
 30
0.0
  9
$EXTMAX
 10
-7.9044
 20
131.6927
 30
0.0
  9
$LIMMIN
 10
0.0
 20
0.0
  9
$LIMMAX
 10
12.0
 20
9.0
  9
$ORTHOMODE
 70
     0
  9
$REGENMODE
 70
     1
  9
$FILLMODE
 70
     1
  9
$QTEXTMODE
 70
     0
  9
$MIRRTEXT
 70
     1
  9
$LTSCALE
 40
1.0
  9
$ATTMODE
 70
     1
  9
$TEXTSIZE
 40
0.2
  9
$TRACEWID
 40
0.05
  9
$TEXTSTYLE
  7
Standard
  9
$CLAYER
  8
0
  9
$CELTYPE
  6
ByLayer
  9
$CECOLOR
 62
   256
  9
$CELTSCALE
 40
1.0
  9
$DISPSILH
 70
     0
  9
$DIMSCALE
 40
1.0
  9
$DIMASZ
 40
0.18
  9
$DIMEXO
 40
0.0625
  9
$DIMDLI
 40
0.38
  9
$DIMRND
 40
0.0
  9
$DIMDLE
 40
0.0
  9
$DIMEXE
 40
0.18
  9
$DIMTP
 40
0.0
  9
$DIMTM
 40
0.0
  9
$DIMTXT
 40
0.18
  9
$DIMCEN
 40
0.09
  9
$DIMTSZ
 40
0.0
  9
$DIMTOL
 70
     0
  9
$DIMLIM
 70
     0
  9
$DIMTIH
 70
     1
  9
$DIMTOH
 70
     1
  9
$DIMSE1
 70
     0
  9
$DIMSE2
 70
     0
  9
$DIMTAD
 70
     0
  9
$DIMZIN
 70
     0
  9
$DIMBLK
  1

  9
$DIMASO
 70
     1
  9
$DIMSHO
 70
     1
  9
$DIMPOST
  1

  9
$DIMAPOST
  1

  9
$DIMALT
 70
     0
  9
$DIMALTD
 70
     2
  9
$DIMALTF
 40
25.4
  9
$DIMLFAC
 40
1.0
  9
$DIMTOFL
 70
     0
  9
$DIMTVP
 40
0.0
  9
$DIMTIX
 70
     0
  9
$DIMSOXD
 70
     0
  9
$DIMSAH
 70
     0
  9
$DIMBLK1
  1

  9
$DIMBLK2
  1

  9
$DIMSTYLE
  2
Standard
  9
$DIMCLRD
 70
     0
  9
$DIMCLRE
 70
     0
  9
$DIMCLRT
 70
     0
  9
$DIMTFAC
 40
1.0
  9
$DIMGAP
 40
0.09
  9
$DIMJUST
 70
     0
  9
$DIMSD1
 70
     0
  9
$DIMSD2
 70
     0
  9
$DIMTOLJ
 70
     1
  9
$DIMTZIN
 70
     0
  9
$DIMALTZ
 70
     0
  9
$DIMALTTZ
 70
     0
  9
$DIMUPT
 70
     0
  9
$DIMDEC
 70
     4
  9
$DIMTDEC
 70
     4
  9
$DIMALTU
 70
     2
  9
$DIMALTTD
 70
     2
  9
$DIMTXSTY
  7
Standard
  9
$DIMAUNIT
 70
     0
  9
$DIMADEC
 70
     0
  9
$DIMALTRND
 40
0.0
  9
$DIMAZIN
 70
     0
  9
$DIMDSEP
 70
    46
  9
$DIMATFIT
 70
     3
  9
$DIMFRAC
 70
     0
  9
$DIMLDRBLK
  1

  9
$DIMLUNIT
 70
     2
  9
$DIMLWD
 70
    -2
  9
$DIMLWE
 70
    -2
  9
$DIMTMOVE
 70
     0
  9
$DIMFXL
 40
1.0
  9
$DIMFXLON
 70
     0
  9
$DIMJOGANG
 40
0.7853981633974483
  9
$DIMTFILL
 70
     0
  9
$DIMTFILLCLR
 70
     0
  9
$DIMARCSYM
 70
     0
  9
$DIMLTYPE
  6

  9
$DIMLTEX1
  6

  9
$DIMLTEX2
  6

  9
$LUNITS
 70
     2
  9
$LUPREC
 70
     4
  9
$SKETCHINC
 40
0.1
  9
$FILLETRAD
 40
0.5
  9
$AUNITS
 70
     0
  9
$AUPREC
 70
     0
  9
$MENU
  1
.
  9
$ELEVATION
 40
0.0
  9
$PELEVATION
 40
0.0
  9
$THICKNESS
 40
0.0
  9
$LIMCHECK
 70
     0
  9
$CHAMFERA
 40
0.5
  9
$CHAMFERB
 40
0.5
  9
$CHAMFERC
 40
1.0
  9
$CHAMFERD
 40
0.0
  9
$SKPOLY
 70
     0
  9
$TDCREATE
 40
2458492.559730868
  9
$TDUCREATE
 40
2458492.559730868
  9
$TDUPDATE
 40
2458492.559730949
  9
$TDUUPDATE
 40
2458492.559730949
  9
$TDINDWG
 40
0.0000000116
  9
$TDUSRTIMER
 40
0.0000000116
  9
$USRTIMER
 70
     1
  9
$ANGBASE
 50
0.0
  9
$ANGDIR
 70
     0
  9
$PDMODE
 70
     0
  9
$PDSIZE
 40
0.0
  9
$PLINEWID
 40
0.0
  9
$SPLFRAME
 70
     0
  9
$SPLINETYPE
 70
     6
  9
$SPLINESEGS
 70
     8
  9
$HANDSEED
  5
C9
  9
$SURFTAB1
 70
     6
  9
$SURFTAB2
 70
     6
  9
$SURFTYPE
 70
     6
  9
$SURFU
 70
     6
  9
$SURFV
 70
     6
  9
$UCSBASE
  2

  9
$UCSNAME
  2

  9
$UCSORG
 10
0.0
 20
0.0
 30
0.0
  9
$UCSXDIR
 10
1.0
 20
0.0
 30
0.0
  9
$UCSYDIR
 10
0.0
 20
1.0
 30
0.0
  9
$UCSORTHOREF
  2

  9
$UCSORTHOVIEW
 70
     0
  9
$UCSORGTOP
 10
0.0
 20
0.0
 30
0.0
  9
$UCSORGBOTTOM
 10
0.0
 20
0.0
 30
0.0
  9
$UCSORGLEFT
 10
0.0
 20
0.0
 30
0.0
  9
$UCSORGRIGHT
 10
0.0
 20
0.0
 30
0.0
  9
$UCSORGFRONT
 10
0.0
 20
0.0
 30
0.0
  9
$UCSORGBACK
 10
0.0
 20
0.0
 30
0.0
  9
$PUCSBASE
  2

  9
$PUCSNAME
  2

  9
$PUCSORG
 10
0.0
 20
0.0
 30
0.0
  9
$PUCSXDIR
 10
1.0
 20
0.0
 30
0.0
  9
$PUCSYDIR
 10
0.0
 20
1.0
 30
0.0
  9
$PUCSORTHOREF
  2

  9
$PUCSORTHOVIEW
 70
     0
  9
$PUCSORGTOP
 10
0.0
 20
0.0
 30
0.0
  9
$PUCSORGBOTTOM
 10
0.0
 20
0.0
 30
0.0
  9
$PUCSORGLEFT
 10
0.0
 20
0.0
 30
0.0
  9
$PUCSORGRIGHT
 10
0.0
 20
0.0
 30
0.0
  9
$PUCSORGFRONT
 10
0.0
 20
0.0
 30
0.0
  9
$PUCSORGBACK
 10
0.0
 20
0.0
 30
0.0
  9
$USERI1
 70
     0
  9
$USERI2
 70
     0
  9
$USERI3
 70
     0
  9
$USERI4
 70
     0
  9
$USERI5
 70
     0
  9
$USERR1
 40
0.0
  9
$USERR2
 40
0.0
  9
$USERR3
 40
0.0
  9
$USERR4
 40
0.0
  9
$USERR5
 40
0.0
  9
$WORLDVIEW
 70
     1
  9
$SHADEDGE
 70
     3
  9
$SHADEDIF
 70
    70
  9
$TILEMODE
 70
     1
  9
$MAXACTVP
 70
    64
  9
$PINSBASE
 10
0.0
 20
0.0
 30
0.0
  9
$PLIMCHECK
 70
     0
  9
$PEXTMIN
 10
1.000000000000000E+20
 20
1.000000000000000E+20
 30
1.000000000000000E+20
  9
$PEXTMAX
 10
-1.000000000000000E+20
 20
-1.000000000000000E+20
 30
-1.000000000000000E+20
  9
$PLIMMIN
 10
0.0
 20
0.0
  9
$PLIMMAX
 10
12.0
 20
9.0
  9
$UNITMODE
 70
     0
  9
$VISRETAIN
 70
     1
  9
$PLINEGEN
 70
     0
  9
$PSLTSCALE
 70
     1
  9
$TREEDEPTH
 70
  3020
  9
$CMLSTYLE
  2
Standard
  9
$CMLJUST
 70
     0
  9
$CMLSCALE
 40
1.0
  9
$PROXYGRAPHICS
 70
     1
  9
$MEASUREMENT
 70
     0
  9
$CELWEIGHT
370
    -1
  9
$ENDCAPS
280
     0
  9
$JOINSTYLE
280
     0
  9
$LWDISPLAY
290
     0
  9
$INSUNITS
 70
     4
  9
$HYPERLINKBASE
  1

  9
$STYLESHEET
  1

  9
$XEDIT
290
     1
  9
$CEPSNTYPE
380
     0
  9
$PSTYLEMODE
290
     1
  9
$FINGERPRINTGUID
  2
{080EDC50-B64D-4AE5-8B64-F1262E4DBB19}
  9
$VERSIONGUID
  2
{FAEB1C32-E019-11D5-929B-00C0DF256EC4}
  9
$EXTNAMES
290
     1
  9
$PSVPSCALE
 40
0.0
  9
$OLESTARTUP
290
     0
  9
$SORTENTS
280
   127
  9
$INDEXCTL
280
     0
  9
$HIDETEXT
280
     1
  9
$XCLIPFRAME
290
     0
  9
$HALOGAP
280
     0
  9
$OBSCOLOR
 70
   257
  9
$OBSLTYPE
280
     0
  9
$INTERSECTIONDISPLAY
280
     0
  9
$INTERSECTIONCOLOR
 70
   257
  9
$DIMASSOC
280
     2
  9
$PROJECTNAME
  1

  9
$CAMERADISPLAY
290
     0
  9
$LENSLENGTH
 40
50.0
  9
$CAMERAHEIGHT
 40
0.0
  9
$STEPSPERSEC
 40
2.0
  9
$STEPSIZE
 40
6.0
  9
$3DDWFPREC
 40
2.0
  9
$PSOLWIDTH
 40
0.25
  9
$PSOLHEIGHT
 40
4.0
  9
$LOFTANG1
 40
1.570796326794897
  9
$LOFTANG2
 40
1.570796326794897
  9
$LOFTMAG1
 40
0.0
  9
$LOFTMAG2
 40
0.0
  9
$LOFTPARAM
 70
     7
  9
$LOFTNORMALS
280
     1
  9
$LATITUDE
 40
37.795
  9
$LONGITUDE
 40
-122.394
  9
$NORTHDIRECTION
 40
0.0
  9
$TIMEZONE
 70
 -8000
  9
$LIGHTGLYPHDISPLAY
280
     1
  9
$TILEMODELIGHTSYNCH
280
     1
  9
$SOLIDHIST
280
     1
  9
$SHOWHIST
280
     1
  9
$DWFFRAME
280
     2
  9
$DGNFRAME
280
     2
  9
$REALWORLDSCALE
290
     1
  9
$INTERFERECOLOR
 62
   256
  9
$CSHADOW
280
     0
  9
$SHADOWPLANELOCATION
 40
0.0
  0
ENDSEC
  0
SECTION
  2
CLASSES
  0
CLASS
  1
ACDBDICTIONARYWDFLT
  2
AcDbDictionaryWithDefault
  3
ObjectDBX Classes
 90
        0
 91
        4
280
     0
281
     0
  0
CLASS
  1
VISUALSTYLE
  2
AcDbVisualStyle
  3
ObjectDBX Classes
 90
     4095
 91
        4
280
     0
281
     0
  0
CLASS
  1
MATERIAL
  2
AcDbMaterial
  3
ObjectDBX Classes
 90
     1153
 91
        4
280
     0
281
     0
  0
ENDSEC
  0
SECTION
  2
TABLES
  0
TABLE
  2
VPORT
  5
8
330
0
100
AcDbSymbolTable
 70
     1
  0
VPORT
  5
29
330
8
100
AcDbSymbolTableRecord
100
AcDbViewportTableRecord
  2
*Active
 70
     0
 10
0.0
 20
0.0
 11
1.0
 21
1.0
 12
10.42990654205607
 22
4.5
 13
0.0
 23
0.0
 14
0.5
 24
0.5
 15
0.5
 25
0.5
 16
0.0
 26
0.0
 36
1.0
 17
0.0
 27
0.0
 37
0.0
 40
9.0
 41
1.972972972850329
 42
50.0
 43
0.0
 44
0.0
 50
0.0
 51
0.0
 71
     0
 72
   100
 73
     1
 74
     3
 75
     0
 76
     0
 77
     0
 78
     0
281
     0
 65
     1
110
0.0
120
0.0
130
0.0
111
1.0
121
0.0
131
0.0
112
0.0
122
1.0
132
0.0
 79
     0
146
0.0
 60
     3
 61
     5
292
     1
282
     1
141
0.0
142
0.0
 63
   250
  0
ENDTAB
  0
TABLE
  2
LTYPE
  5
5
330
0
100
AcDbSymbolTable
 70
     1
  0
LTYPE
  5
14
330
5
100
AcDbSymbolTableRecord
100
AcDbLinetypeTableRecord
  2
ByBlock
 70
     0
  3

 72
    65
 73
     0
 40
0.0
  0
LTYPE
  5
15
330
5
100
AcDbSymbolTableRecord
100
AcDbLinetypeTableRecord
  2
ByLayer
 70
     0
  3

 72
    65
 73
     0
 40
0.0
  0
LTYPE
  5
16
330
5
100
AcDbSymbolTableRecord
100
AcDbLinetypeTableRecord
  2
Continuous
 70
     0
  3
Solid line
 72
    65
 73
     0
 40
0.0
  0
ENDTAB
  0
TABLE
  2
LAYER
  5
2
330
0
100
AcDbSymbolTable
 70
     3
  0
LAYER
  5
10
330
2
100
AcDbSymbolTableRecord
100
AcDbLayerTableRecord
  2
0
 70
     0
 62
     7
  6
Continuous
370
    -3
390
F
347
3E
  0
LAYER
  5
40
330
2
100
AcDbSymbolTableRecord
100
AcDbLayerTableRecord
  2
layer 1
 70
     0
 62
     7
  6
Continuous
370
    -3
390
F
347
3E
  0
LAYER
  5
A6
330
2
100
AcDbSymbolTableRecord
100
AcDbLayerTableRecord
  2
Master Guides
 70
     0
 62
     7
  6
Continuous
370
    -3
390
F
347
3E
  0
ENDTAB
  0
TABLE
  2
STYLE
  5
3
330
0
100
AcDbSymbolTable
 70
     1
  0
STYLE
  5
11
330
3
100
AcDbSymbolTableRecord
100
AcDbTextStyleTableRecord
  2
Standard
 70
     0
 40
0.0
 41
1.0
 50
0.0
 71
     0
 42
0.2
  3
txt
  4

  0
ENDTAB
  0
TABLE
  2
VIEW
  5
6
330
0
100
AcDbSymbolTable
 70
     0
  0
ENDTAB
  0
TABLE
  2
UCS
  5
7
330
0
100
AcDbSymbolTable
 70
     0
  0
ENDTAB
  0
TABLE
  2
APPID
  5
9
330
0
100
AcDbSymbolTable
 70
     2
  0
APPID
  5
12
330
9
100
AcDbSymbolTableRecord
100
AcDbRegAppTableRecord
  2
ACAD
 70
     0
  0
APPID
  5
3F
330
9
100
AcDbSymbolTableRecord
100
AcDbRegAppTableRecord
  2
ODA
 70
     0
  0
ENDTAB
  0
TABLE
  2
DIMSTYLE
  5
A
330
0
100
AcDbSymbolTable
 70
     1
100
AcDbDimStyleTable
  0
DIMSTYLE
105
27
330
A
100
AcDbSymbolTableRecord
100
AcDbDimStyleTableRecord
  2
Standard
 70
     0
178
     0
340
11
  0
ENDTAB
  0
TABLE
  2
BLOCK_RECORD
  5
1
330
0
100
AcDbSymbolTable
 70
     1
  0
BLOCK_RECORD
  5
1F
330
1
100
AcDbSymbolTableRecord
100
AcDbBlockTableRecord
  2
*Model_Space
340
22
 70
     0
280
     1
281
     0
  0
BLOCK_RECORD
  5
1B
330
1
100
AcDbSymbolTableRecord
100
AcDbBlockTableRecord
  2
*Paper_Space
340
1E
 70
     0
280
     1
281
     0
  0
BLOCK_RECORD
  5
23
330
1
100
AcDbSymbolTableRecord
100
AcDbBlockTableRecord
  2
*Paper_Space0
340
26
 70
     0
280
     1
281
     0
  0
ENDTAB
  0
ENDSEC
  0
SECTION
  2
BLOCKS
  0
BLOCK
  5
20
330
1F
100
AcDbEntity
  8
0
100
AcDbBlockBegin
  2
*Model_Space
 70
     0
 10
0.0
 20
0.0
 30
0.0
  3
*Model_Space
  1

  0
ENDBLK
  5
21
330
1F
100
AcDbEntity
  8
0
100
AcDbBlockEnd
  0
BLOCK
  5
1C
330
1B
100
AcDbEntity
 67
     1
  8
0
100
AcDbBlockBegin
  2
*Paper_Space
 70
     0
 10
0.0
 20
0.0
 30
0.0
  3
*Paper_Space
  1

  0
ENDBLK
  5
1D
330
1B
100
AcDbEntity
 67
     1
  8
0
100
AcDbBlockEnd
  0
BLOCK
  5
24
330
23
100
AcDbEntity
  8
0
100
AcDbBlockBegin
  2
*Paper_Space0
 70
     0
 10
0.0
 20
0.0
 30
0.0
  3
*Paper_Space0
  1

  0
ENDBLK
  5
25
330
23
100
AcDbEntity
  8
0
100
AcDbBlockEnd
  0
ENDSEC
  0
SECTION
  2
ENTITIES
  0
SPLINE
  5
41
330
1F
100
AcDbEntity
  8
layer 1
 62
   250
100
AcDbSpline
210
0.0
220
0.0
230
1.0
 70
    11
 71
     3
 72
   188
 73
   184
 74
     0
 42
0.0000000001
 43
0.0000000001
 12
1.0
 22
0.0
 32
0.0
 13
1.0
 23
0.0
 33
0.0
 40
0.0
 40
0.0
 40
0.0
 40
0.0
 40
0.0212765957446809
 40
0.0212765957446809
 40
0.0212765957446809
 40
0.0212765957446809
 40
0.0425531914893617
 40
0.0425531914893617
 40
0.0425531914893617
 40
0.0425531914893617
 40
0.0638297872340425
 40
0.0638297872340425
 40
0.0638297872340425
 40
0.0638297872340425
 40
0.0851063829787234
 40
0.0851063829787234
 40
0.0851063829787234
 40
0.0851063829787234
 40
0.1063829787234043
 40
0.1063829787234043
 40
0.1063829787234043
 40
0.1063829787234043
 40
0.1276595744680851
 40
0.1276595744680851
 40
0.1276595744680851
 40
0.1276595744680851
 40
0.148936170212766
 40
0.148936170212766
 40
0.148936170212766
 40
0.148936170212766
 40
0.1702127659574468
 40
0.1702127659574468
 40
0.1702127659574468
 40
0.1702127659574468
 40
0.1914893617021277
 40
0.1914893617021277
 40
0.1914893617021277
 40
0.1914893617021277
 40
0.2127659574468085
 40
0.2127659574468085
 40
0.2127659574468085
 40
0.2127659574468085
 40
0.2340425531914894
 40
0.2340425531914894
 40
0.2340425531914894
 40
0.2340425531914894
 40
0.2553191489361702
 40
0.2553191489361702
 40
0.2553191489361702
 40
0.2553191489361702
 40
0.2765957446808511
 40
0.2765957446808511
 40
0.2765957446808511
 40
0.2765957446808511
 40
0.2978723404255319
 40
0.2978723404255319
 40
0.2978723404255319
 40
0.2978723404255319
 40
0.3191489361702128
 40
0.3191489361702128
 40
0.3191489361702128
 40
0.3191489361702128
 40
0.3404255319148936
 40
0.3404255319148936
 40
0.3404255319148936
 40
0.3404255319148936
 40
0.3617021276595745
 40
0.3617021276595745
 40
0.3617021276595745
 40
0.3617021276595745
 40
0.3829787234042553
 40
0.3829787234042553
 40
0.3829787234042553
 40
0.3829787234042553
 40
0.4042553191489361
 40
0.4042553191489361
 40
0.4042553191489361
 40
0.4042553191489361
 40
0.425531914893617
 40
0.425531914893617
 40
0.425531914893617
 40
0.425531914893617
 40
0.4468085106382979
 40
0.4468085106382979
 40
0.4468085106382979
 40
0.4468085106382979
 40
0.4680851063829787
 40
0.4680851063829787
 40
0.4680851063829787
 40
0.4680851063829787
 40
0.4893617021276596
 40
0.4893617021276596
 40
0.4893617021276596
 40
0.4893617021276596
 40
0.5106382978723404
 40
0.5106382978723404
 40
0.5106382978723404
 40
0.5106382978723404
 40
0.5319148936170213
 40
0.5319148936170213
 40
0.5319148936170213
 40
0.5319148936170213
 40
0.5531914893617021
 40
0.5531914893617021
 40
0.5531914893617021
 40
0.5531914893617021
 40
0.574468085106383
 40
0.574468085106383
 40
0.574468085106383
 40
0.574468085106383
 40
0.5957446808510638
 40
0.5957446808510638
 40
0.5957446808510638
 40
0.5957446808510638
 40
0.6170212765957447
 40
0.6170212765957447
 40
0.6170212765957447
 40
0.6170212765957447
 40
0.6382978723404256
 40
0.6382978723404256
 40
0.6382978723404256
 40
0.6382978723404256
 40
0.6595744680851063
 40
0.6595744680851063
 40
0.6595744680851063
 40
0.6595744680851063
 40
0.6808510638297872
 40
0.6808510638297872
 40
0.6808510638297872
 40
0.6808510638297872
 40
0.7021276595744681
 40
0.7021276595744681
 40
0.7021276595744681
 40
0.7021276595744681
 40
0.723404255319149
 40
0.723404255319149
 40
0.723404255319149
 40
0.723404255319149
 40
0.7446808510638298
 40
0.7446808510638298
 40
0.7446808510638298
 40
0.7446808510638298
 40
0.7659574468085106
 40
0.7659574468085106
 40
0.7659574468085106
 40
0.7659574468085106
 40
0.7872340425531915
 40
0.7872340425531915
 40
0.7872340425531915
 40
0.7872340425531915
 40
0.8085106382978723
 40
0.8085106382978723
 40
0.8085106382978723
 40
0.8085106382978723
 40
0.8297872340425532
 40
0.8297872340425532
 40
0.8297872340425532
 40
0.8297872340425532
 40
0.851063829787234
 40
0.851063829787234
 40
0.851063829787234
 40
0.851063829787234
 40
0.8723404255319149
 40
0.8723404255319149
 40
0.8723404255319149
 40
0.8723404255319149
 40
0.8936170212765957
 40
0.8936170212765957
 40
0.8936170212765957
 40
0.8936170212765957
 40
0.9148936170212766
 40
0.9148936170212766
 40
0.9148936170212766
 40
0.9148936170212766
 40
0.9361702127659575
 40
0.9361702127659575
 40
0.9361702127659575
 40
0.9361702127659575
 40
0.9574468085106383
 40
0.9574468085106383
 40
0.9574468085106383
 40
0.9574468085106383
 40
1.0
 40
1.0
 40
1.0
 40
1.0
 10
-187.1083
 20
131.6927
 30
0.0
 10
-187.1083
 20
131.6927
 30
0.0
 10
-75.012
 20
131.6927
 30
0.0
 10
-75.012
 20
131.6927
 30
0.0
 10
-75.012
 20
131.6927
 30
0.0
 10
-74.767
 20
124.2267
 30
0.0
 10
-61.0354
 20
121.7098
 30
0.0
 10
-55.3749
 20
121.5331
 30
0.0
 10
-55.3749
 20
121.5331
 30
0.0
 10
-55.3047
 20
114.9935
 30
0.0
 10
-58.2662
 20
112.9997
 30
0.0
 10
-63.6125
 20
110.5728
 30
0.0
 10
-63.6125
 20
110.5728
 30
0.0
 10
-62.1015
 20
108.6718
 30
0.0
 10
-60.2283
 20
107.0771
 30
0.0
 10
-58.8357
 20
105.0716
 30
0.0
 10
-58.8357
 20
105.0716
 30
0.0
 10
-56.9835
 20
102.2725
 30
0.0
 10
-53.3555
 20
101.8755
 30
0.0
 10
-50.3057
 20
101.5414
 30
0.0
 10
-50.3057
 20
101.5414
 30
0.0
 10
-49.6511
 20
97.774
 30
0.0
 10
-51.0367
 20
94.1601
 30
0.0
 10
-53.1397
 20
91.1031
 30
0.0
 10
-53.1397
 20
91.1031
 30
0.0
 10
-52.7079
 20
87.6354
 30
0.0
 10
-52.7149
 20
83.7777
 30
0.0
 10
-55.0267
 20
80.9158
 30
0.0
 10
-55.0267
 20
80.9158
 30
0.0
 10
-57.7842
 20
80.6232
 30
0.0
 10
-60.5487
 20
80.9296
 30
0.0
 10
-63.2852
 20
81.2568
 30
0.0
 10
-63.2852
 20
81.2568
 30
0.0
 10
-61.2938
 20
76.9745
 30
0.0
 10
-56.9346
 20
74.2586
 30
0.0
 10
-52.492
 20
73.0819
 30
0.0
 10
-52.492
 20
73.0819
 30
0.0
 10
-50.7929
 20
76.3895
 30
0.0
 10
-48.9059
 20
80.4004
 30
0.0
 10
-45.0063
 20
81.4728
 30
0.0
 10
-45.0063
 20
81.4728
 30
0.0
 10
-41.3298
 20
81.6609
 30
0.0
 10
-38.2729
 20
78.959
 30
0.0
 10
-36.0167
 20
76.3548
 30
0.0
 10
-36.0167
 20
76.3548
 30
0.0
 10
-31.3861
 20
69.9345
 30
0.0
 10
-29.9376
 20
61.829
 30
0.0
 10
-29.6381
 20
54.0718
 30
0.0
 10
-29.6381
 20
54.0718
 30
0.0
 10
-25.4322
 20
50.4926
 30
0.0
 10
-23.5521
 20
44.365
 30
0.0
 10
-25.2165
 20
39.0866
 30
0.0
 10
-25.2165
 20
39.0866
 30
0.0
 10
-26.8319
 20
35.1035
 30
0.0
 10
-31.7064
 20
34.449
 30
0.0
 10
-35.4735
 20
34.1774
 30
0.0
 10
-35.4735
 20
34.1774
 30
0.0
 10
-35.3203
 20
32.722
 30
0.0
 10
-34.8887
 20
31.225
 30
0.0
 10
-35.2576
 20
29.7697
 30
0.0
 10
-35.2576
 20
29.7697
 30
0.0
 10
-35.8217
 20
28.2447
 30
0.0
 10
-37.66
 20
28.0915
 30
0.0
 10
-38.9621
 20
27.583
 30
0.0
 10
-38.9621
 20
27.583
 30
0.0
 10
-38.3145
 20
25.3478
 30
0.0
 10
-38.057
 20
22.6948
 30
0.0
 10
-35.9609
 20
21.2672
 30
0.0
 10
-35.9609
 20
21.2672
 30
0.0
 10
-33.1339
 20
18.9833
 30
0.0
 10
-31.5113
 20
15.6549
 30
0.0
 10
-30.439
 20
12.2567
 30
0.0
 10
-30.439
 20
12.2567
 30
0.0
 10
-28.3917
 20
12.8974
 30
0.0
 10
-26.428
 20
13.7608
 30
0.0
 10
-24.6036
 20
14.9029
 30
0.0
 10
-24.6036
 20
14.9029
 30
0.0
 10
-21.6094
 20
12.8346
 30
0.0
 10
-20.1541
 20
9.2972
 30
0.0
 10
-20.3701
 20
5.7112
 30
0.0
 10
-20.3701
 20
5.7112
 30
0.0
 10
-18.7405
 20
5.1541
 30
0.0
 10
-16.2058
 20
5.2723
 30
0.0
 10
-15.6278
 20
3.2668
 30
0.0
 10
-15.6278
 20
3.2668
 30
0.0
 10
-14.4302
 20
-0.7509
 30
0.0
 10
-14.4649
 20
-5.3189
 30
0.0
 10
-16.3173
 20
-9.1419
 30
0.0
 10
-16.3173
 20
-9.1419
 30
0.0
 10
-17.3826
 20
-11.7669
 30
0.0
 10
-19.7989
 20
-13.285
 30
0.0
 10
-22.0133
 20
-14.8101
 30
0.0
 10
-22.0133
 20
-14.8101
 30
0.0
 10
-21.129
 20
-16.1817
 30
0.0
 10
-19.2627
 20
-16.6692
 30
0.0
 10
-18.1418
 20
-17.8878
 30
0.0
 10
-18.1418
 20
-17.8878
 30
0.0
 10
-17.8213
 20
-18.6329
 30
0.0
 10
-18.6221
 20
-19.2665
 30
0.0
 10
-18.9633
 20
-19.8444
 30
0.0
 10
-18.9633
 20
-19.8444
 30
0.0
 10
-21.9854
 20
-23.4098
 30
0.0
 10
-26.6718
 20
-25.0462
 30
0.0
 10
-31.1423
 20
-25.9027
 30
0.0
 10
-31.1423
 20
-25.9027
 30
0.0
 10
-30.8359
 20
-27.4974
 30
0.0
 10
-30.258
 20
-29.0431
 30
0.0
 10
-29.123
 20
-30.2478
 30
0.0
 10
-29.123
 20
-30.2478
 30
0.0
 10
-25.6691
 20
-26.7522
 30
0.0
 10
-20.342
 20
-26.4527
 30
0.0
 10
-15.7184
 20
-26.6896
 30
0.0
 10
-15.7184
 20
-26.6896
 30
0.0
 10
-13.1419
 20
-27.0169
 30
0.0
 10
-10.5375
 20
-26.9472
 30
0.0
 10
-7.996
 20
-26.3483
 30
0.0
 10
-7.996
 20
-26.3483
 30
0.0
 10
-7.4319
 20
-33.5832
 30
0.0
 10
-9.3957
 20
-41.9532
 30
0.0
 10
-16.1291
 20
-45.8181
 30
0.0
 10
-16.1291
 20
-45.8181
 30
0.0
 10
-14.7575
 20
-49.1048
 30
0.0
 10
-15.0498
 20
-52.9972
 30
0.0
 10
-16.9996
 20
-55.9914
 30
0.0
 10
-16.9996
 20
-55.9914
 30
0.0
 10
-19.221
 20
-60.0373
 30
0.0
 10
-25.0493
 20
-60.831
 30
0.0
 10
-28.7817
 20
-58.5332
 30
0.0
 10
-28.7817
 20
-58.5332
 30
0.0
 10
-30.5852
 20
-57.036
 30
0.0
 10
-31.3441
 20
-54.6614
 30
0.0
 10
-32.9736
 20
-52.9833
 30
0.0
 10
-32.9736
 20
-52.9833
 30
0.0
 10
-33.8581
 20
-54.2576
 30
0.0
 10
-34.8746
 20
-55.692
 30
0.0
 10
-34.4498
 20
-57.3423
 30
0.0
 10
-34.4498
 20
-57.3423
 30
0.0
 10
-33.8859
 20
-59.8491
 30
0.0
 10
-33.0014
 20
-62.2863
 30
0.0
 10
-32.8066
 20
-64.87
 30
0.0
 10
-32.8066
 20
-64.87
 30
0.0
 10
-28.0366
 20
-63.7904
 30
0.0
 10
-22.2849
 20
-63.3796
 30
0.0
 10
-18.4412
 20
-66.9866
 30
0.0
 10
-18.4412
 20
-66.9866
 30
0.0
 10
-14.7713
 20
-70.4894
 30
0.0
 10
-14.9176
 20
-76.0947
 30
0.0
 10
-15.7115
 20
-80.7255
 30
0.0
 10
-15.7115
 20
-80.7255
 30
0.0
 10
-17.1459
 20
-80.4329
 30
0.0
 10
-18.5943
 20
-80.1822
 30
0.0
 10
-20.0356
 20
-79.9734
 30
0.0
 10
-20.0356
 20
-79.9734
 30
0.0
 10
-18.3018
 20
-82.8075
 30
0.0
 10
-18.5037
 20
-86.2264
 30
0.0
 10
-19.8756
 20
-89.1652
 30
0.0
 10
-19.8756
 20
-89.1652
 30
0.0
 10
-24.4504
 20
-88.3085
 30
0.0
 10
-29.0393
 20
-90.3001
 30
0.0
 10
-32.3191
 20
-93.4267
 30
0.0
 10
-32.3191
 20
-93.4267
 30
0.0
 10
-30.5365
 20
-95.1884
 30
0.0
 10
-28.4266
 20
-96.8735
 30
0.0
 10
-27.793
 20
-99.4222
 30
0.0
 10
-27.793
 20
-99.4222
 30
0.0
 10
-26.4559
 20
-103.8579
 30
0.0
 10
-26.8181
 20
-109.6027
 30
0.0
 10
-30.9472
 20
-112.4715
 30
0.0
 10
-30.9472
 20
-112.4715
 30
0.0
 10
-36.2603
 20
-116.5868
 30
0.0
 10
-44.8601
 20
-114.2124
 30
0.0
 10
-47.4157
 20
-108.0289
 30
0.0
 10
-47.4157
 20
-108.0289
 30
0.0
 10
-61.3177
 20
-116.5953
 30
0.0
 10
-70.8795
 20
-114.8371
 30
0.0
 10
-86.8148
 20
-114.9505
 30
0.0
 10
-86.8148
 20
-114.9505
 30
0.0
 10
-86.8148
 20
-114.9505
 30
0.0
 10
-187.138
 20
-114.9505
 30
0.0
 10
-187.138
 20
-114.9505
 30
0.0
 10
-187.138
 20
-114.9505
 30
0.0
 10
-187.138
 20
-114.9505
 30
0.0
 10
-187.1083
 20
131.6927
 30
0.0
 10
-187.1083
 20
131.6927
 30
0.0
  0
SPLINE
  5
42
330
1F
100
AcDbEntity
  8
layer 1
 62
   250
100
AcDbSpline
210
0.0
220
0.0
230
1.0
 70
    11
 71
     3
 72
    24
 73
    20
 74
     0
 42
0.0000000001
 43
0.0000000001
 12
1.0
 22
0.0
 32
0.0
 13
1.0
 23
0.0
 33
0.0
 40
0.0
 40
0.0
 40
0.0
 40
0.0
 40
0.1666666666666667
 40
0.1666666666666667
 40
0.1666666666666667
 40
0.1666666666666667
 40
0.3333333333333333
 40
0.3333333333333333
 40
0.3333333333333333
 40
0.3333333333333333
 40
0.5
 40
0.5
 40
0.5
 40
0.5
 40
0.6666666666666666
 40
0.6666666666666666
 40
0.6666666666666666
 40
0.6666666666666666
 40
1.0
 40
1.0
 40
1.0
 40
1.0
 10
-42.5081
 20
-13.2031
 30
0.0
 10
-40.174
 20
-14.3712
 30
0.0
 10
-38.6725
 20
-16.8004
 30
0.0
 10
-37.4093
 20
-19.0298
 30
0.0
 10
-37.4093
 20
-19.0298
 30
0.0
 10
-36.0446
 20
-21.467
 30
0.0
 10
-35.014
 20
-24.5936
 30
0.0
 10
-36.6156
 20
-27.177
 30
0.0
 10
-36.6156
 20
-27.177
 30
0.0
 10
-39.8464
 20
-26.7104
 30
0.0
 10
-43.6276
 20
-26.8498
 30
0.0
 10
-46.044
 20
-24.2802
 30
0.0
 10
-46.044
 20
-24.2802
 30
0.0
 10
-49.2542
 20
-21.4738
 30
0.0
 10
-50.02
 20
-16.363
 30
0.0
 10
-47.7569
 20
-12.7628
 30
0.0
 10
-47.7569
 20
-12.7628
 30
0.0
 10
-47.0622
 20
-11.1977
 30
0.0
 10
-43.7329
 20
-12.5901
 30
0.0
 10
-42.5081
 20
-13.2031
 30
0.0
  0
SPLINE
  5
43
330
1F
100
AcDbEntity
  8
layer 1
 62
   250
100
AcDbSpline
210
0.0
220
0.0
230
1.0
 70
    11
 71
     3
 72
    28
 73
    24
 74
     0
 42
0.0000000001
 43
0.0000000001
 12
1.0
 22
0.0
 32
0.0
 13
1.0
 23
0.0
 33
0.0
 40
0.0
 40
0.0
 40
0.0
 40
0.0
 40
0.1428571428571428
 40
0.1428571428571428
 40
0.1428571428571428
 40
0.1428571428571428
 40
0.2857142857142857
 40
0.2857142857142857
 40
0.2857142857142857
 40
0.2857142857142857
 40
0.4285714285714285
 40
0.4285714285714285
 40
0.4285714285714285
 40
0.4285714285714285
 40
0.5714285714285714
 40
0.5714285714285714
 40
0.5714285714285714
 40
0.5714285714285714
 40
0.7142857142857143
 40
0.7142857142857143
 40
0.7142857142857143
 40
0.7142857142857143
 40
1.0
 40
1.0
 40
1.0
 40
1.0
 10
-43.9479
 20
-10.9802
 30
0.0
 10
-40.8145
 20
-9.6571
 30
0.0
 10
-36.9845
 20
-8.8076
 30
0.0
 10
-33.8581
 20
-10.6111
 30
0.0
 10
-33.8581
 20
-10.6111
 30
0.0
 10
-30.1117
 20
-12.6514
 30
0.0
 10
-28.155
 20
-16.8294
 30
0.0
 10
-24.2694
 20
-18.6816
 30
0.0
 10
-24.2694
 20
-18.6816
 30
0.0
 10
-25.2374
 20
-20.2554
 30
0.0
 10
-27.5143
 20
-20.8055
 30
0.0
 10
-29.0952
 20
-21.7804
 30
0.0
 10
-29.0952
 20
-21.7804
 30
0.0
 10
-31.3025
 20
-23.1382
 30
0.0
 10
-34.1226
 20
-21.8709
 30
0.0
 10
-35.1741
 20
-19.6565
 30
0.0
 10
-35.1741
 20
-19.6565
 30
0.0
 10
-36.6412
 20
-16.9767
 30
0.0
 10
-38.3908
 20
-14.3158
 30
0.0
 10
-40.9314
 20
-12.6002
 30
0.0
 10
-40.9314
 20
-12.6002
 30
0.0
 10
-41.8589
 20
-11.9737
 30
0.0
 10
-42.9457
 20
-11.4942
 30
0.0
 10
-43.9479
 20
-10.9802
 30
0.0
  0
SPLINE
  5
44
330
1F
100
AcDbEntity
  8
layer 1
 62
   250
100
AcDbSpline
210
0.0
220
0.0
230
1.0
 70
    11
 71
     3
 72
   236
 73
   232
 74
     0
 42
0.0000000001
 43
0.0000000001
 12
1.0
 22
0.0
 32
0.0
 13
1.0
 23
0.0
 33
0.0
 40
0.0
 40
0.0
 40
0.0
 40
0.0
 40
0.0169491525423729
 40
0.0169491525423729
 40
0.0169491525423729
 40
0.0169491525423729
 40
0.0338983050847458
 40
0.0338983050847458
 40
0.0338983050847458
 40
0.0338983050847458
 40
0.0508474576271186
 40
0.0508474576271186
 40
0.0508474576271186
 40
0.0508474576271186
 40
0.0677966101694915
 40
0.0677966101694915
 40
0.0677966101694915
 40
0.0677966101694915
 40
0.0847457627118644
 40
0.0847457627118644
 40
0.0847457627118644
 40
0.0847457627118644
 40
0.1016949152542373
 40
0.1016949152542373
 40
0.1016949152542373
 40
0.1016949152542373
 40
0.1186440677966102
 40
0.1186440677966102
 40
0.1186440677966102
 40
0.1186440677966102
 40
0.1355932203389831
 40
0.1355932203389831
 40
0.1355932203389831
 40
0.1355932203389831
 40
0.1525423728813559
 40
0.1525423728813559
 40
0.1525423728813559
 40
0.1525423728813559
 40
0.1694915254237288
 40
0.1694915254237288
 40
0.1694915254237288
 40
0.1694915254237288
 40
0.1864406779661017
 40
0.1864406779661017
 40
0.1864406779661017
 40
0.1864406779661017
 40
0.2033898305084746
 40
0.2033898305084746
 40
0.2033898305084746
 40
0.2033898305084746
 40
0.2203389830508475
 40
0.2203389830508475
 40
0.2203389830508475
 40
0.2203389830508475
 40
0.2372881355932203
 40
0.2372881355932203
 40
0.2372881355932203
 40
0.2372881355932203
 40
0.2542372881355932
 40
0.2542372881355932
 40
0.2542372881355932
 40
0.2542372881355932
 40
0.2711864406779661
 40
0.2711864406779661
 40
0.2711864406779661
 40
0.2711864406779661
 40
0.288135593220339
 40
0.288135593220339
 40
0.288135593220339
 40
0.288135593220339
 40
0.3050847457627119
 40
0.3050847457627119
 40
0.3050847457627119
 40
0.3050847457627119
 40
0.3220338983050847
 40
0.3220338983050847
 40
0.3220338983050847
 40
0.3220338983050847
 40
0.3389830508474576
 40
0.3389830508474576
 40
0.3389830508474576
 40
0.3389830508474576
 40
0.3559322033898305
 40
0.3559322033898305
 40
0.3559322033898305
 40
0.3559322033898305
 40
0.3728813559322034
 40
0.3728813559322034
 40
0.3728813559322034
 40
0.3728813559322034
 40
0.3898305084745763
 40
0.3898305084745763
 40
0.3898305084745763
 40
0.3898305084745763
 40
0.4067796610169492
 40
0.4067796610169492
 40
0.4067796610169492
 40
0.4067796610169492
 40
0.423728813559322
 40
0.423728813559322
 40
0.423728813559322
 40
0.423728813559322
 40
0.4406779661016949
 40
0.4406779661016949
 40
0.4406779661016949
 40
0.4406779661016949
 40
0.4576271186440678
 40
0.4576271186440678
 40
0.4576271186440678
 40
0.4576271186440678
 40
0.4745762711864407
 40
0.4745762711864407
 40
0.4745762711864407
 40
0.4745762711864407
 40
0.4915254237288136
 40
0.4915254237288136
 40
0.4915254237288136
 40
0.4915254237288136
 40
0.5084745762711864
 40
0.5084745762711864
 40
0.5084745762711864
 40
0.5084745762711864
 40
0.5254237288135594
 40
0.5254237288135594
 40
0.5254237288135594
 40
0.5254237288135594
 40
0.5423728813559322
 40
0.5423728813559322
 40
0.5423728813559322
 40
0.5423728813559322
 40
0.559322033898305
 40
0.559322033898305
 40
0.559322033898305
 40
0.559322033898305
 40
0.576271186440678
 40
0.576271186440678
 40
0.576271186440678
 40
0.576271186440678
 40
0.5932203389830508
 40
0.5932203389830508
 40
0.5932203389830508
 40
0.5932203389830508
 40
0.6101694915254238
 40
0.6101694915254238
 40
0.6101694915254238
 40
0.6101694915254238
 40
0.6271186440677966
 40
0.6271186440677966
 40
0.6271186440677966
 40
0.6271186440677966
 40
0.6440677966101694
 40
0.6440677966101694
 40
0.6440677966101694
 40
0.6440677966101694
 40
0.6610169491525424
 40
0.6610169491525424
 40
0.6610169491525424
 40
0.6610169491525424
 40
0.6779661016949152
 40
0.6779661016949152
 40
0.6779661016949152
 40
0.6779661016949152
 40
0.6949152542372882
 40
0.6949152542372882
 40
0.6949152542372882
 40
0.6949152542372882
 40
0.711864406779661
 40
0.711864406779661
 40
0.711864406779661
 40
0.711864406779661
 40
0.7288135593220338
 40
0.7288135593220338
 40
0.7288135593220338
 40
0.7288135593220338
 40
0.7457627118644068
 40
0.7457627118644068
 40
0.7457627118644068
 40
0.7457627118644068
 40
0.7627118644067796
 40
0.7627118644067796
 40
0.7627118644067796
 40
0.7627118644067796
 40
0.7796610169491526
 40
0.7796610169491526
 40
0.7796610169491526
 40
0.7796610169491526
 40
0.7966101694915254
 40
0.7966101694915254
 40
0.7966101694915254
 40
0.7966101694915254
 40
0.8135593220338984
 40
0.8135593220338984
 40
0.8135593220338984
 40
0.8135593220338984
 40
0.8305084745762712
 40
0.8305084745762712
 40
0.8305084745762712
 40
0.8305084745762712
 40
0.847457627118644
 40
0.847457627118644
 40
0.847457627118644
 40
0.847457627118644
 40
0.864406779661017
 40
0.864406779661017
 40
0.864406779661017
 40
0.864406779661017
 40
0.8813559322033898
 40
0.8813559322033898
 40
0.8813559322033898
 40
0.8813559322033898
 40
0.8983050847457628
 40
0.8983050847457628
 40
0.8983050847457628
 40
0.8983050847457628
 40
0.9152542372881356
 40
0.9152542372881356
 40
0.9152542372881356
 40
0.9152542372881356
 40
0.9322033898305084
 40
0.9322033898305084
 40
0.9322033898305084
 40
0.9322033898305084
 40
0.9491525423728814
 40
0.9491525423728814
 40
0.9491525423728814
 40
0.9491525423728814
 40
0.9661016949152542
 40
0.9661016949152542
 40
0.9661016949152542
 40
0.9661016949152542
 40
1.0
 40
1.0
 40
1.0
 40
1.0
 10
-133.1995
 20
26.5274
 30
0.0
 10
-132.4962
 20
27.4459
 30
0.0
 10
-130.9712
 20
26.9232
 30
0.0
 10
-130.7136
 20
25.8705
 30
0.0
 10
-130.7136
 20
25.8705
 30
0.0
 10
-130.3963
 20
24.8646
 30
0.0
 10
-130.2908
 20
23.8052
 30
0.0
 10
-130.3125
 20
22.7415
 30
0.0
 10
-130.3125
 20
22.7415
 30
0.0
 10
-129.7794
 20
23.9511
 30
0.0
 10
-129.3024
 20
25.1899
 30
0.0
 10
-128.7411
 20
26.3855
 30
0.0
 10
-128.7411
 20
26.3855
 30
0.0
 10
-128.1215
 20
27.8686
 30
0.0
 10
-126.2342
 20
28.5091
 30
0.0
 10
-124.7929
 20
27.9034
 30
0.0
 10
-124.7929
 20
27.9034
 30
0.0
 10
-123.4768
 20
27.0469
 30
0.0
 10
-123.5952
 20
25.1947
 30
0.0
 10
-124.1663
 20
23.9343
 30
0.0
 10
-124.1663
 20
23.9343
 30
0.0
 10
-125.7609
 20
21.3926
 30
0.0
 10
-128.8107
 20
20.4944
 30
0.0
 10
-130.8999
 20
18.475
 30
0.0
 10
-130.8999
 20
18.475
 30
0.0
 10
-128.0796
 20
18.9416
 30
0.0
 10
-125.6842
 20
20.6058
 30
0.0
 10
-122.9615
 20
21.351
 30
0.0
 10
-122.9615
 20
21.351
 30
0.0
 10
-121.0536
 20
21.6295
 30
0.0
 10
-121.1999
 20
18.8232
 30
0.0
 10
-122.3905
 20
18.0154
 30
0.0
 10
-122.3905
 20
18.0154
 30
0.0
 10
-125.4127
 20
15.9891
 30
0.0
 10
-129.2217
 20
17.2772
 30
0.0
 10
-132.5988
 20
16.9778
 30
0.0
 10
-132.5988
 20
16.9778
 30
0.0
 10
-129.9041
 20
16.3095
 30
0.0
 10
-127.1953
 20
15.6549
 30
0.0
 10
-124.5491
 20
14.7914
 30
0.0
 10
-124.5491
 20
14.7914
 30
0.0
 10
-124.5561
 20
13.5379
 30
0.0
 10
-124.8835
 20
12.3195
 30
0.0
 10
-126.3736
 20
12.2567
 30
0.0
 10
-126.3736
 20
12.2567
 30
0.0
 10
-128.9291
 20
12.7372
 30
0.0
 10
-131.1297
 20
14.2343
 30
0.0
 10
-133.4067
 20
15.4042
 30
0.0
 10
-133.4067
 20
15.4042
 30
0.0
 10
-133.0167
 20
13.7538
 30
0.0
 10
-132.6963
 20
12.0895
 30
0.0
 10
-132.4388
 20
10.4113
 30
0.0
 10
-132.4388
 20
10.4113
 30
0.0
 10
-129.2983
 20
10.4394
 30
0.0
 10
-125.7747
 20
8.7541
 30
0.0
 10
-122.9685
 20
10.871
 30
0.0
 10
-122.9685
 20
10.871
 30
0.0
 10
-121.3044
 20
12.0129
 30
0.0
 10
-121.4644
 20
14.2553
 30
0.0
 10
-122.293
 20
15.8568
 30
0.0
 10
-122.293
 20
15.8568
 30
0.0
 10
-121.1093
 20
16.9987
 30
0.0
 10
-119.3823
 20
18.1199
 30
0.0
 10
-119.5633
 20
20.007
 30
0.0
 10
-119.5633
 20
20.007
 30
0.0
 10
-119.1945
 20
21.7966
 30
0.0
 10
-120.6219
 20
22.9942
 30
0.0
 10
-121.7291
 20
24.1222
 30
0.0
 10
-121.7291
 20
24.1222
 30
0.0
 10
-121.1371
 20
26.5734
 30
0.0
 10
-121.1162
 20
29.9157
 30
0.0
 10
-123.832
 20
31.0997
 30
0.0
 10
-123.832
 20
31.0997
 30
0.0
 10
-125.3778
 20
32.2278
 30
0.0
 10
-127.1048
 20
31.211
 30
0.0
 10
-128.4625
 20
30.3336
 30
0.0
 10
-128.4625
 20
30.3336
 30
0.0
 10
-129.3052
 20
31.6705
 30
0.0
 10
-130.5934
 20
31.998
 30
0.0
 10
-132.0627
 20
31.5592
 30
0.0
 10
-132.0627
 20
31.5592
 30
0.0
 10
-129.7091
 20
33.8294
 30
0.0
 10
-128.4766
 20
37.875
 30
0.0
 10
-131.4779
 20
40.1799
 30
0.0
 10
-131.4779
 20
40.1799
 30
0.0
 10
-130.5656
 20
42.6728
 30
0.0
 10
-129.6185
 20
45.9316
 30
0.0
 10
-131.6589
 20
48.1252
 30
0.0
 10
-131.6589
 20
48.1252
 30
0.0
 10
-133.4346
 20
49.4273
 30
0.0
 10
-135.5513
 20
48.313
 30
0.0
 10
-136.9441
 20
47.0109
 30
0.0
 10
-136.9441
 20
47.0109
 30
0.0
 10
-139.1305
 20
47.4635
 30
0.0
 10
-141.3589
 20
47.2269
 30
0.0
 10
-142.9605
 20
45.5418
 30
0.0
 10
-142.9605
 20
45.5418
 30
0.0
 10
-144.2696
 20
45.5626
 30
0.0
 10
-145.7318
 20
46.0291
 30
0.0
 10
-146.9155
 20
45.2701
 30
0.0
 10
-146.9155
 20
45.2701
 30
0.0
 10
-148.2248
 20
44.4484
 30
0.0
 10
-148.7469
 20
42.9096
 30
0.0
 10
-149.4989
 20
41.6493
 30
0.0
 10
-149.4989
 20
41.6493
 30
0.0
 10
-151.8387
 20
42.3038
 30
0.0
 10
-154.7564
 20
40.8275
 30
0.0
 10
-154.8329
 20
38.237
 30
0.0
 10
-154.8329
 20
38.237
 30
0.0
 10
-154.2272
 20
36.6494
 30
0.0
 10
-152.8275
 20
35.4935
 30
0.0
 10
-152.2286
 20
33.8988
 30
0.0
 10
-152.2286
 20
33.8988
 30
0.0
 10
-151.8038
 20
31.3782
 30
0.0
 10
-152.542
 20
28.6345
 30
0.0
 10
-151.198
 20
26.3158
 30
0.0
 10
-151.198
 20
26.3158
 30
0.0
 10
-149.5199
 20
27.2836
 30
0.0
 10
-147.7513
 20
28.0984
 30
0.0
 10
-145.8362
 20
28.4604
 30
0.0
 10
-145.8362
 20
28.4604
 30
0.0
 10
-146.5257
 20
31.5732
 30
0.0
 10
-149.2204
 20
33.2444
 30
0.0
 10
-151.3513
 20
35.2985
 30
0.0
 10
-151.3513
 20
35.2985
 30
0.0
 10
-151.2121
 20
37.1021
 30
0.0
 10
-149.3772
 20
38.2493
 30
0.0
 10
-147.7441
 20
36.5103
 30
0.0
 10
-147.7441
 20
36.5103
 30
0.0
 10
-147.4598
 20
36.0823
 30
0.0
 10
-145.1161
 20
32.765
 30
0.0
 10
-145.1025
 20
32.647
 30
0.0
 10
-145.1025
 20
32.647
 30
0.0
 10
-145.1473
 20
33.3726
 30
0.0
 10
-145.5356
 20
34.1748
 30
0.0
 10
-145.7318
 20
34.8041
 30
0.0
 10
-145.7318
 20
34.8041
 30
0.0
 10
-146.3654
 20
36.6494
 30
0.0
 10
-147.9741
 20
38.5436
 30
0.0
 10
-146.9783
 20
40.549
 30
0.0
 10
-146.9783
 20
40.549
 30
0.0
 10
-146.1706
 20
41.287
 30
0.0
 10
-144.5689
 20
42.2829
 30
0.0
 10
-143.8726
 20
40.8901
 30
0.0
 10
-143.8726
 20
40.8901
 30
0.0
 10
-142.7724
 20
38.7802
 30
0.0
 10
-143.0578
 20
36.2734
 30
0.0
 10
-142.8142
 20
33.9685
 30
0.0
 10
-142.8142
 20
33.9685
 30
0.0
 10
-142.2085
 20
36.566
 30
0.0
 10
-142.3407
 20
39.2397
 30
0.0
 10
-142.0413
 20
41.865
 30
0.0
 10
-142.0413
 20
41.865
 30
0.0
 10
-142.2035
 20
42.819
 30
0.0
 10
-139.3605
 20
45.0659
 30
0.0
 10
-138.8553
 20
42.5582
 30
0.0
 10
-138.8553
 20
42.5582
 30
0.0
 10
-138.4235
 20
40.4156
 30
0.0
 10
-139.1231
 20
38.2121
 30
0.0
 10
-139.4369
 20
36.0575
 30
0.0
 10
-139.4369
 20
36.0575
 30
0.0
 10
-138.3298
 20
38.2651
 30
0.0
 10
-137.5359
 20
40.6185
 30
0.0
 10
-137.3758
 20
43.0975
 30
0.0
 10
-137.3758
 20
43.0975
 30
0.0
 10
-137.3395
 20
44.127
 30
0.0
 10
-136.3132
 20
44.4524
 30
0.0
 10
-135.5753
 20
44.2113
 30
0.0
 10
-135.5753
 20
44.2113
 30
0.0
 10
-133.7275
 20
43.6089
 30
0.0
 10
-135.2691
 20
38.5921
 30
0.0
 10
-136.0248
 20
37.4155
 30
0.0
 10
-136.0248
 20
37.4155
 30
0.0
 10
-134.7715
 20
37.6731
 30
0.0
 10
-133.0376
 20
38.6828
 30
0.0
 10
-132.0558
 20
37.3946
 30
0.0
 10
-132.0558
 20
37.3946
 30
0.0
 10
-130.9485
 20
36.2665
 30
0.0
 10
-131.9652
 20
34.0661
 30
0.0
 10
-133.4553
 20
33.9547
 30
0.0
 10
-133.4553
 20
33.9547
 30
0.0
 10
-135.802
 20
33.7666
 30
0.0
 10
-138.1695
 20
33.5647
 30
0.0
 10
-140.3771
 20
32.6732
 30
0.0
 10
-140.3771
 20
32.6732
 30
0.0
 10
-138.6849
 20
32.165
 30
0.0
 10
-136.3453
 20
32.8614
 30
0.0
 10
-135.2938
 20
31.1484
 30
0.0
 10
-135.2938
 20
31.1484
 30
0.0
 10
-135.0431
 20
29.9785
 30
0.0
 10
-135.2588
 20
28.4954
 30
0.0
 10
-136.4635
 20
27.9312
 30
0.0
 10
-136.4635
 20
27.9312
 30
0.0
 10
-138.9495
 20
26.3436
 30
0.0
 10
-141.6862
 20
28.4117
 30
0.0
 10
-144.3183
 20
28.0915
 30
0.0
 10
-144.3183
 20
28.0915
 30
0.0
 10
-145.0563
 20
26.0302
 30
0.0
 10
-143.3016
 20
23.8786
 30
0.0
 10
-143.4269
 20
21.6992
 30
0.0
 10
-143.4269
 20
21.6992
 30
0.0
 10
-142.3545
 20
21.4275
 30
0.0
 10
-141.2057
 20
21.3369
 30
0.0
 10
-140.2168
 20
20.8146
 30
0.0
 10
-140.2168
 20
20.8146
 30
0.0
 10
-138.6918
 20
19.3245
 30
0.0
 10
-139.2838
 20
17.131
 30
0.0
 10
-139.6528
 20
15.2996
 30
0.0
 10
-139.6528
 20
15.2996
 30
0.0
 10
-137.8562
 20
15.8359
 30
0.0
 10
-136.004
 20
16.407
 30
0.0
 10
-134.7296
 20
17.8761
 30
0.0
 10
-134.7296
 20
17.8761
 30
0.0
 10
-136.192
 20
19.6865
 30
0.0
 10
-138.2601
 20
20.7868
 30
0.0
 10
-140.1192
 20
22.1308
 30
0.0
 10
-140.1192
 20
22.1308
 30
0.0
 10
-139.4369
 20
23.0638
 30
0.0
 10
-138.5386
 20
24.6724
 30
0.0
 10
-137.132
 20
23.9065
 30
0.0
 10
-137.132
 20
23.9065
 30
0.0
 10
-134.7094
 20
23.2444
 30
0.0
 10
-134.3933
 20
20.4226
 30
0.0
 10
-132.3693
 20
19.3074
 30
0.0
 10
-132.3693
 20
19.3074
 30
0.0
 10
-132.708
 20
19.7593
 30
0.0
 10
-132.996
 20
20.3162
 30
0.0
 10
-133.1438
 20
20.6362
 30
0.0
 10
-133.1438
 20
20.6362
 30
0.0
 10
-133.7846
 20
22.4356
 30
0.0
 10
-135.0936
 20
25.1089
 30
0.0
 10
-133.1995
 20
26.5274
 30
0.0
  0
SPLINE
  5
45
330
1F
100
AcDbEntity
  8
layer 1
 62
   250
100
AcDbSpline
210
0.0
220
0.0
230
1.0
 70
    11
 71
     3
 72
    20
 73
    16
 74
     0
 42
0.0000000001
 43
0.0000000001
 12
1.0
 22
0.0
 32
0.0
 13
1.0
 23
0.0
 33
0.0
 40
0.0
 40
0.0
 40
0.0
 40
0.0
 40
0.2
 40
0.2
 40
0.2
 40
0.2
 40
0.4
 40
0.4
 40
0.4
 40
0.4
 40
0.6
 40
0.6
 40
0.6
 40
0.6
 40
1.0
 40
1.0
 40
1.0
 40
1.0
 10
-115.8868
 20
121.2825
 30
0.0
 10
-113.5679
 20
119.8062
 30
0.0
 10
-113.3241
 20
117.209
 30
0.0
 10
-113.366
 20
114.7022
 30
0.0
 10
-113.366
 20
114.7022
 30
0.0
 10
-110.309
 20
114.4653
 30
0.0
 10
-107.3358
 20
115.2801
 30
0.0
 10
-104.3414
 20
115.7537
 30
0.0
 10
-104.3414
 20
115.7537
 30
0.0
 10
-105.9639
 20
117.2507
 30
0.0
 10
-108.2132
 20
117.5432
 30
0.0
 10
-110.1002
 20
118.539
 30
0.0
 10
-110.1002
 20
118.539
 30
0.0
 10
-111.8897
 20
119.7714
 30
0.0
 10
-113.3521
 20
122.5986
 30
0.0
 10
-115.8868
 20
121.2825
 30
0.0
  0
SPLINE
  5
46
330
1F
100
AcDbEntity
  8
layer 1
 62
   250
100
AcDbSpline
210
0.0
220
0.0
230
1.0
 70
    11
 71
     3
 72
    24
 73
    20
 74
     0
 42
0.0000000001
 43
0.0000000001
 12
1.0
 22
0.0
 32
0.0
 13
1.0
 23
0.0
 33
0.0
 40
0.0
 40
0.0
 40
0.0
 40
0.0
 40
0.1666666666666667
 40
0.1666666666666667
 40
0.1666666666666667
 40
0.1666666666666667
 40
0.3333333333333333
 40
0.3333333333333333
 40
0.3333333333333333
 40
0.3333333333333333
 40
0.5
 40
0.5
 40
0.5
 40
0.5
 40
0.6666666666666666
 40
0.6666666666666666
 40
0.6666666666666666
 40
0.6666666666666666
 40
1.0
 40
1.0
 40
1.0
 40
1.0
 10
-89.0916
 20
120.8367
 30
0.0
 10
-86.7102
 20
119.4721
 30
0.0
 10
-83.9249
 20
119.1029
 30
0.0
 10
-81.4875
 20
117.8635
 30
0.0
 10
-81.4875
 20
117.8635
 30
0.0
 10
-77.8179
 20
116.06
 30
0.0
 10
-74.2248
 20
113.8177
 30
0.0
 10
-70.0955
 20
113.2607
 30
0.0
 10
-70.0955
 20
113.2607
 30
0.0
 10
-66.405
 20
112.8359
 30
0.0
 10
-62.9232
 20
114.9458
 30
0.0
 10
-60.8272
 20
117.8635
 30
0.0
 10
-60.8272
 20
117.8635
 30
0.0
 10
-62.9719
 20
118.142
 30
0.0
 10
-65.1375
 20
118.3787
 30
0.0
 10
-67.2057
 20
119.0263
 30
0.0
 10
-67.2057
 20
119.0263
 30
0.0
 10
-74.1761
 20
121.4356
 30
0.0
 10
-81.8288
 20
122.0973
 30
0.0
 10
-89.0916
 20
120.8367
 30
0.0
  0
SPLINE
  5
47
330
1F
100
AcDbEntity
  8
layer 1
 62
   250
100
AcDbSpline
210
0.0
220
0.0
230
1.0
 70
    11
 71
     3
 72
    36
 73
    32
 74
     0
 42
0.0000000001
 43
0.0000000001
 12
1.0
 22
0.0
 32
0.0
 13
1.0
 23
0.0
 33
0.0
 40
0.0
 40
0.0
 40
0.0
 40
0.0
 40
0.1111111111111111
 40
0.1111111111111111
 40
0.1111111111111111
 40
0.1111111111111111
 40
0.2222222222222222
 40
0.2222222222222222
 40
0.2222222222222222
 40
0.2222222222222222
 40
0.3333333333333333
 40
0.3333333333333333
 40
0.3333333333333333
 40
0.3333333333333333
 40
0.4444444444444444
 40
0.4444444444444444
 40
0.4444444444444444
 40
0.4444444444444444
 40
0.5555555555555556
 40
0.5555555555555556
 40
0.5555555555555556
 40
0.5555555555555556
 40
0.6666666666666666
 40
0.6666666666666666
 40
0.6666666666666666
 40
0.6666666666666666
 40
0.7777777777777778
 40
0.7777777777777778
 40
0.7777777777777778
 40
0.7777777777777778
 40
1.0
 40
1.0
 40
1.0
 40
1.0
 10
-134.4372
 20
120.5026
 30
0.0
 10
-136.4775
 20
118.8591
 30
0.0
 10
-137.5499
 20
116.0809
 30
0.0
 10
-140.1542
 20
115.1408
 30
0.0
 10
-140.1542
 20
115.1408
 30
0.0
 10
-142.09
 20
114.1033
 30
0.0
 10
-145.9128
 20
113.9709
 30
0.0
 10
-145.0632
 20
110.8444
 30
0.0
 10
-145.0632
 20
110.8444
 30
0.0
 10
-143.5663
 20
112.3833
 30
0.0
 10
-141.5608
 20
112.0003
 30
0.0
 10
-139.6945
 20
111.5616
 30
0.0
 10
-139.6945
 20
111.5616
 30
0.0
 10
-139.3534
 20
111.868
 30
0.0
 10
-138.6639
 20
112.4808
 30
0.0
 10
-138.3229
 20
112.7871
 30
0.0
 10
-138.3229
 20
112.7871
 30
0.0
 10
-136.7212
 20
112.7174
 30
0.0
 10
-135.1266
 20
112.8915
 30
0.0
 10
-133.5877
 20
113.3372
 30
0.0
 10
-133.5877
 20
113.3372
 30
0.0
 10
-133.4693
 20
115.0711
 30
0.0
 10
-133.72
 20
116.9374
 30
0.0
 10
-132.9748
 20
118.5668
 30
0.0
 10
-132.9748
 20
118.5668
 30
0.0
 10
-132.1184
 20
120.2032
 30
0.0
 10
-130.0503
 20
119.855
 30
0.0
 10
-128.5184
 20
120.0431
 30
0.0
 10
-128.5184
 20
120.0431
 30
0.0
 10
-130.2801
 20
121.1712
 30
0.0
 10
-132.564
 20
121.7561
 30
0.0
 10
-134.4372
 20
120.5026
 30
0.0
  0
SPLINE
  5
48
330
1F
100
AcDbEntity
  8
layer 1
 62
   250
100
AcDbSpline
210
0.0
220
0.0
230
1.0
 70
    11
 71
     3
 72
    60
 73
    56
 74
     0
 42
0.0000000001
 43
0.0000000001
 12
1.0
 22
0.0
 32
0.0
 13
1.0
 23
0.0
 33
0.0
 40
0.0
 40
0.0
 40
0.0
 40
0.0
 40
0.0666666666666667
 40
0.0666666666666667
 40
0.0666666666666667
 40
0.0666666666666667
 40
0.1333333333333333
 40
0.1333333333333333
 40
0.1333333333333333
 40
0.1333333333333333
 40
0.2
 40
0.2
 40
0.2
 40
0.2
 40
0.2666666666666667
 40
0.2666666666666667
 40
0.2666666666666667
 40
0.2666666666666667
 40
0.3333333333333333
 40
0.3333333333333333
 40
0.3333333333333333
 40
0.3333333333333333
 40
0.4
 40
0.4
 40
0.4
 40
0.4
 40
0.4666666666666667
 40
0.4666666666666667
 40
0.4666666666666667
 40
0.4666666666666667
 40
0.5333333333333333
 40
0.5333333333333333
 40
0.5333333333333333
 40
0.5333333333333333
 40
0.6
 40
0.6
 40
0.6
 40
0.6
 40
0.6666666666666666
 40
0.6666666666666666
 40
0.6666666666666666
 40
0.6666666666666666
 40
0.7333333333333333
 40
0.7333333333333333
 40
0.7333333333333333
 40
0.7333333333333333
 40
0.8
 40
0.8
 40
0.8
 40
0.8
 40
0.8666666666666667
 40
0.8666666666666667
 40
0.8666666666666667
 40
0.8666666666666667
 40
1.0
 40
1.0
 40
1.0
 40
1.0
 10
-122.6343
 20
111.1926
 30
0.0
 10
-122.669
 20
107.4672
 30
0.0
 10
-122.2234
 20
103.7488
 30
0.0
 10
-122.69
 20
100.0372
 30
0.0
 10
-122.69
 20
100.0372
 30
0.0
 10
-123.1356
 20
98.7698
 30
0.0
 10
-121.2068
 20
98.2753
 30
0.0
 10
-120.7124
 20
99.2643
 30
0.0
 10
-120.7124
 20
99.2643
 30
0.0
 10
-119.0898
 20
101.402
 30
0.0
 10
-118.0105
 20
103.881
 30
0.0
 10
-116.778
 20
106.2484
 30
0.0
 10
-116.778
 20
106.2484
 30
0.0
 10
-117.1331
 20
107.0005
 30
0.0
 10
-117.4534
 20
107.7596
 30
0.0
 10
-117.7391
 20
108.5395
 30
0.0
 10
-117.7391
 20
108.5395
 30
0.0
 10
-117.0915
 20
110.5797
 30
0.0
 10
-114.8353
 20
108.999
 30
0.0
 10
-113.5054
 20
108.6787
 30
0.0
 10
-113.5054
 20
108.6787
 30
0.0
 10
-112.9552
 20
107.0005
 30
0.0
 10
-113.9508
 20
106.0187
 30
0.0
 10
-115.483
 20
105.5382
 30
0.0
 10
-115.483
 20
105.5382
 30
0.0
 10
-116.6039
 20
102.948
 30
0.0
 10
-117.9339
 20
100.462
 30
0.0
 10
-119.1526
 20
97.9203
 30
0.0
 10
-119.1526
 20
97.9203
 30
0.0
 10
-119.0551
 20
97.614
 30
0.0
 10
-118.86
 20
97.001
 30
0.0
 10
-118.7625
 20
96.6947
 30
0.0
 10
-118.7625
 20
96.6947
 30
0.0
 10
-117.2656
 20
97.0429
 30
0.0
 10
-116.2766
 20
98.3242
 30
0.0
 10
-115.1417
 20
99.2572
 30
0.0
 10
-115.1417
 20
99.2572
 30
0.0
 10
-112.2032
 20
102.1122
 30
0.0
 10
-108.2827
 20
103.8879
 30
0.0
 10
-105.9918
 20
107.3975
 30
0.0
 10
-105.9918
 20
107.3975
 30
0.0
 10
-104.3136
 20
109.3751
 30
0.0
 10
-102.6982
 20
112.989
 30
0.0
 10
-105.6576
 20
114.6184
 30
0.0
 10
-105.6576
 20
114.6184
 30
0.0
 10
-108.5195
 20
113.6158
 30
0.0
 10
-112.774
 20
111.9585
 30
0.0
 10
-114.9607
 20
114.9388
 30
0.0
 10
-114.9607
 20
114.9388
 30
0.0
 10
-114.7725
 20
116.8399
 30
0.0
 10
-114.32
 20
119.5765
 30
0.0
 10
-116.7083
 20
120.245
 30
0.0
 10
-116.7083
 20
120.245
 30
0.0
 10
-120.6914
 20
119.3536
 30
0.0
 10
-122.4949
 20
114.8901
 30
0.0
 10
-122.6343
 20
111.1926
 30
0.0
  0
SPLINE
  5
49
330
1F
100
AcDbEntity
  8
layer 1
 62
   250
100
AcDbSpline
210
0.0
220
0.0
230
1.0
 70
    11
 71
     3
 72
    24
 73
    20
 74
     0
 42
0.0000000001
 43
0.0000000001
 12
1.0
 22
0.0
 32
0.0
 13
1.0
 23
0.0
 33
0.0
 40
0.0
 40
0.0
 40
0.0
 40
0.0
 40
0.1666666666666667
 40
0.1666666666666667
 40
0.1666666666666667
 40
0.1666666666666667
 40
0.3333333333333333
 40
0.3333333333333333
 40
0.3333333333333333
 40
0.3333333333333333
 40
0.5
 40
0.5
 40
0.5
 40
0.5
 40
0.6666666666666666
 40
0.6666666666666666
 40
0.6666666666666666
 40
0.6666666666666666
 40
1.0
 40
1.0
 40
1.0
 40
1.0
 10
-105.7202
 20
118.3858
 30
0.0
 10
-101.2357
 20
118.1351
 30
0.0
 10
-96.6956
 20
118.3927
 30
0.0
 10
-92.2739
 20
117.4248
 30
0.0
 10
-92.2739
 20
117.4248
 30
0.0
 10
-86.0348
 20
116.2898
 30
0.0
 10
-80.6451
 20
112.7524
 30
0.0
 10
-75.5339
 20
109.215
 30
0.0
 10
-75.5339
 20
109.215
 30
0.0
 10
-74.2248
 20
108.7553
 30
0.0
 10
-74.3918
 20
110.134
 30
0.0
 10
-74.197
 20
110.9836
 30
0.0
 10
-74.197
 20
110.9836
 30
0.0
 10
-80.9445
 20
116.6936
 30
0.0
 10
-89.8228
 20
119.7018
 30
0.0
 10
-98.6314
 20
119.6949
 30
0.0
 10
-98.6314
 20
119.6949
 30
0.0
 10
-101.0338
 20
119.6252
 30
0.0
 10
-103.7565
 20
120.0778
 30
0.0
 10
-105.7202
 20
118.3858
 30
0.0
  0
SPLINE
  5
4A
330
1F
100
AcDbEntity
  8
layer 1
 62
   250
100
AcDbSpline
210
0.0
220
0.0
230
1.0
 70
    11
 71
     3
 72
    64
 73
    60
 74
     0
 42
0.0000000001
 43
0.0000000001
 12
1.0
 22
0.0
 32
0.0
 13
1.0
 23
0.0
 33
0.0
 40
0.0
 40
0.0
 40
0.0
 40
0.0
 40
0.0625
 40
0.0625
 40
0.0625
 40
0.0625
 40
0.125
 40
0.125
 40
0.125
 40
0.125
 40
0.1875
 40
0.1875
 40
0.1875
 40
0.1875
 40
0.25
 40
0.25
 40
0.25
 40
0.25
 40
0.3125
 40
0.3125
 40
0.3125
 40
0.3125
 40
0.375
 40
0.375
 40
0.375
 40
0.375
 40
0.4375
 40
0.4375
 40
0.4375
 40
0.4375
 40
0.5
 40
0.5
 40
0.5
 40
0.5
 40
0.5625
 40
0.5625
 40
0.5625
 40
0.5625
 40
0.625
 40
0.625
 40
0.625
 40
0.625
 40
0.6875
 40
0.6875
 40
0.6875
 40
0.6875
 40
0.75
 40
0.75
 40
0.75
 40
0.75
 40
0.8125
 40
0.8125
 40
0.8125
 40
0.8125
 40
0.875
 40
0.875
 40
0.875
 40
0.875
 40
1.0
 40
1.0
 40
1.0
 40
1.0
 10
-133.6781
 20
111.5477
 30
0.0
 10
-135.8161
 20
111.0602
 30
0.0
 10
-138.4551
 20
111.8262
 30
0.0
 10
-139.8338
 20
109.6536
 30
0.0
 10
-139.8338
 20
109.6536
 30
0.0
 10
-140.6834
 20
110.1412
 30
0.0
 10
-141.498
 20
110.6773
 30
0.0
 10
-142.2919
 20
111.2414
 30
0.0
 10
-142.2919
 20
111.2414
 30
0.0
 10
-143.7751
 20
110.7401
 30
0.0
 10
-143.9145
 20
109.4029
 30
0.0
 10
-143.7473
 20
108.0172
 30
0.0
 10
-143.7473
 20
108.0172
 30
0.0
 10
-141.7349
 20
106.3112
 30
0.0
 10
-139.8269
 20
104.4799
 30
0.0
 10
-138.0303
 20
102.5441
 30
0.0
 10
-138.0303
 20
102.5441
 30
0.0
 10
-136.937
 20
102.6555
 30
0.0
 10
-135.8368
 20
102.6414
 30
0.0
 10
-134.7715
 20
102.37
 30
0.0
 10
-134.7715
 20
102.37
 30
0.0
 10
-135.0082
 20
101.4648
 30
0.0
 10
-135.2381
 20
100.5593
 30
0.0
 10
-135.4748
 20
99.6472
 30
0.0
 10
-135.4748
 20
99.6472
 30
0.0
 10
-133.6574
 20
98.6376
 30
0.0
 10
-130.308
 20
95.6085
 30
0.0
 10
-129.0267
 20
98.7489
 30
0.0
 10
-129.0267
 20
98.7489
 30
0.0
 10
-129.0893
 20
101.2279
 30
0.0
 10
-130.482
 20
103.4422
 30
0.0
 10
-131.4569
 20
105.6705
 30
0.0
 10
-131.4569
 20
105.6705
 30
0.0
 10
-132.5153
 20
105.9771
 30
0.0
 10
-133.8385
 20
106.2137
 30
0.0
 10
-133.7965
 20
107.5994
 30
0.0
 10
-133.7965
 20
107.5994
 30
0.0
 10
-133.3162
 20
109.2707
 30
0.0
 10
-131.5545
 20
109.6954
 30
0.0
 10
-130.0432
 20
109.8277
 30
0.0
 10
-130.0432
 20
109.8277
 30
0.0
 10
-130.1548
 20
106.4296
 30
0.0
 10
-128.5114
 20
103.4562
 30
0.0
 10
-127.411
 20
100.3436
 30
0.0
 10
-127.411
 20
100.3436
 30
0.0
 10
-127.0559
 20
99.1599
 30
0.0
 10
-125.1899
 20
98.3381
 30
0.0
 10
-124.7998
 20
99.9954
 30
0.0
 10
-124.7998
 20
99.9954
 30
0.0
 10
-123.5048
 20
105.19
 30
0.0
 10
-124.6048
 20
110.6773
 30
0.0
 10
-126.1855
 20
115.684
 30
0.0
 10
-126.1855
 20
115.684
 30
0.0
 10
-126.7009
 20
117.6338
 30
0.0
 10
-128.3373
 20
119.7088
 30
0.0
 10
-130.6074
 20
118.8732
 30
0.0
 10
-130.6074
 20
118.8732
 30
0.0
 10
-133.7409
 20
117.6128
 30
0.0
 10
-130.6771
 20
113.0031
 30
0.0
 10
-133.6781
 20
111.5477
 30
0.0
  0
SPLINE
  5
4B
330
1F
100
AcDbEntity
  8
layer 1
 62
   250
100
AcDbSpline
210
0.0
220
0.0
230
1.0
 70
    11
 71
     3
 72
    32
 73
    28
 74
     0
 42
0.0000000001
 43
0.0000000001
 12
1.0
 22
0.0
 32
0.0
 13
1.0
 23
0.0
 33
0.0
 40
0.0
 40
0.0
 40
0.0
 40
0.0
 40
0.125
 40
0.125
 40
0.125
 40
0.125
 40
0.25
 40
0.25
 40
0.25
 40
0.25
 40
0.375
 40
0.375
 40
0.375
 40
0.375
 40
0.5
 40
0.5
 40
0.5
 40
0.5
 40
0.625
 40
0.625
 40
0.625
 40
0.625
 40
0.75
 40
0.75
 40
0.75
 40
0.75
 40
1.0
 40
1.0
 40
1.0
 40
1.0
 10
-98.924
 20
116.1713
 30
0.0
 10
-97.3433
 20
115.0782
 30
0.0
 10
-95.3935
 20
114.8901
 30
0.0
 10
-93.6108
 20
114.3122
 30
0.0
 10
-93.6108
 20
114.3122
 30
0.0
 10
-89.7115
 20
113.0447
 30
0.0
 10
-86.2714
 20
110.531
 30
0.0
 10
-83.6742
 20
107.3765
 30
0.0
 10
-83.6742
 20
107.3765
 30
0.0
 10
-79.1131
 20
101.7155
 30
0.0
 10
-76.1606
 20
94.7521
 30
0.0
 10
-75.5549
 20
87.4823
 30
0.0
 10
-75.5549
 20
87.4823
 30
0.0
 10
-75.5826
 20
85.7553
 30
0.0
 10
-74.7959
 20
84.2859
 30
0.0
 10
-73.424
 20
83.2416
 30
0.0
 10
-73.424
 20
83.2416
 30
0.0
 10
-72.8808
 20
84.6341
 30
0.0
 10
-72.5813
 20
86.1104
 30
0.0
 10
-72.9574
 20
87.5867
 30
0.0
 10
-72.9574
 20
87.5867
 30
0.0
 10
-74.5381
 20
96.2908
 30
0.0
 10
-78.5352
 20
104.7165
 30
0.0
 10
-84.997
 20
110.8583
 30
0.0
 10
-84.997
 20
110.8583
 30
0.0
 10
-88.806
 20
114.1312
 30
0.0
 10
-93.778
 20
116.638
 30
0.0
 10
-98.924
 20
116.1713
 30
0.0
  0
SPLINE
  5
4C
330
1F
100
AcDbEntity
  8
layer 1
 62
   250
100
AcDbSpline
210
0.0
220
0.0
230
1.0
 70
    11
 71
     3
 72
    20
 73
    16
 74
     0
 42
0.0000000001
 43
0.0000000001
 12
1.0
 22
0.0
 32
0.0
 13
1.0
 23
0.0
 33
0.0
 40
0.0
 40
0.0
 40
0.0
 40
0.0
 40
0.2
 40
0.2
 40
0.2
 40
0.2
 40
0.4
 40
0.4
 40
0.4
 40
0.4
 40
0.6
 40
0.6
 40
0.6
 40
0.6
 40
1.0
 40
1.0
 40
1.0
 40
1.0
 10
-102.3291
 20
114.0267
 30
0.0
 10
-100.2052
 20
111.8541
 30
0.0
 10
-97.1344
 20
110.7538
 30
0.0
 10
-95.4701
 20
108.1079
 30
0.0
 10
-95.4701
 20
108.1079
 30
0.0
 10
-91.9117
 20
102.8504
 30
0.0
 10
-89.9133
 20
96.1795
 30
0.0
 10
-91.4801
 20
89.8776
 30
0.0
 10
-91.4801
 20
89.8776
 30
0.0
 10
-87.3438
 20
88.84
 30
0.0
 10
-85.3384
 20
93.9234
 30
0.0
 10
-85.6099
 20
97.2517
 30
0.0
 10
-85.6099
 20
97.2517
 30
0.0
 10
-86.7799
 20
105.5523
 30
0.0
 10
-93.6039
 20
113.5532
 30
0.0
 10
-102.3291
 20
114.0267
 30
0.0
  0
SPLINE
  5
4D
330
1F
100
AcDbEntity
  8
layer 1
 62
   250
100
AcDbSpline
210
0.0
220
0.0
230
1.0
 70
    11
 71
     3
 72
    24
 73
    20
 74
     0
 42
0.0000000001
 43
0.0000000001
 12
1.0
 22
0.0
 32
0.0
 13
1.0
 23
0.0
 33
0.0
 40
0.0
 40
0.0
 40
0.0
 40
0.0
 40
0.1666666666666667
 40
0.1666666666666667
 40
0.1666666666666667
 40
0.1666666666666667
 40
0.3333333333333333
 40
0.3333333333333333
 40
0.3333333333333333
 40
0.3333333333333333
 40
0.5
 40
0.5
 40
0.5
 40
0.5
 40
0.6666666666666666
 40
0.6666666666666666
 40
0.6666666666666666
 40
0.6666666666666666
 40
1.0
 40
1.0
 40
1.0
 40
1.0
 10
-86.8076
 20
106.2415
 30
0.0
 10
-84.1477
 20
101.8825
 30
0.0
 10
-83.1309
 20
96.7366
 30
0.0
 10
-82.9568
 20
91.6811
 30
0.0
 10
-82.9568
 20
91.6811
 30
0.0
 10
-83.0334
 20
90.3301
 30
0.0
 10
-82.1004
 20
88.7566
 30
0.0
 10
-80.5544
 20
89.0351
 30
0.0
 10
-80.5544
 20
89.0351
 30
0.0
 10
-80.0321
 20
91.326
 30
0.0
 10
-80.652
 20
93.6727
 30
0.0
 10
-81.1186
 20
95.9218
 30
0.0
 10
-81.1186
 20
95.9218
 30
0.0
 10
-82.4486
 20
101.8199
 30
0.0
 10
-85.1782
 20
107.676
 30
0.0
 10
-90.1988
 20
111.318
 30
0.0
 10
-90.1988
 20
111.318
 30
0.0
 10
-89.7671
 20
109.2288
 30
0.0
 10
-87.8173
 20
108.0172
 30
0.0
 10
-86.8076
 20
106.2415
 30
0.0
  0
SPLINE
  5
4E
330
1F
100
AcDbEntity
  8
layer 1
 62
   250
100
AcDbSpline
210
0.0
220
0.0
230
1.0
 70
    11
 71
     3
 72
    24
 73
    20
 74
     0
 42
0.0000000001
 43
0.0000000001
 12
1.0
 22
0.0
 32
0.0
 13
1.0
 23
0.0
 33
0.0
 40
0.0
 40
0.0
 40
0.0
 40
0.0
 40
0.1666666666666667
 40
0.1666666666666667
 40
0.1666666666666667
 40
0.1666666666666667
 40
0.3333333333333333
 40
0.3333333333333333
 40
0.3333333333333333
 40
0.3333333333333333
 40
0.5
 40
0.5
 40
0.5
 40
0.5
 40
0.6666666666666666
 40
0.6666666666666666
 40
0.6666666666666666
 40
0.6666666666666666
 40
1.0
 40
1.0
 40
1.0
 40
1.0
 10
-103.5058
 20
109.0966
 30
0.0
 10
-102.8792
 20
107.9406
 30
0.0
 10
-102.0505
 20
106.8752
 30
0.0
 10
-101.6674
 20
105.601
 30
0.0
 10
-101.6674
 20
105.601
 30
0.0
 10
-101.3264
 20
103.5188
 30
0.0
 10
-101.7789
 20
101.423
 30
0.0
 10
-101.9321
 20
99.3478
 30
0.0
 10
-101.9321
 20
99.3478
 30
0.0
 10
-100.0798
 20
99.9188
 30
0.0
 10
-98.13
 20
100.2949
 30
0.0
 10
-96.2918
 20
99.4384
 30
0.0
 10
-96.2918
 20
99.4384
 30
0.0
 10
-97.8725
 20
101.416
 30
0.0
 10
-98.8473
 20
103.7416
 30
0.0
 10
-99.5853
 20
106.1371
 30
0.0
 10
-99.5853
 20
106.1371
 30
0.0
 10
-100.1076
 20
107.8779
 30
0.0
 10
-101.6118
 20
109.2707
 30
0.0
 10
-103.5058
 20
109.0966
 30
0.0
  0
SPLINE
  5
4F
330
1F
100
AcDbEntity
  8
layer 1
 62
   250
100
AcDbSpline
210
0.0
220
0.0
230
1.0
 70
    11
 71
     3
 72
    40
 73
    36
 74
     0
 42
0.0000000001
 43
0.0000000001
 12
1.0
 22
0.0
 32
0.0
 13
1.0
 23
0.0
 33
0.0
 40
0.0
 40
0.0
 40
0.0
 40
0.0
 40
0.1
 40
0.1
 40
0.1
 40
0.1
 40
0.2
 40
0.2
 40
0.2
 40
0.2
 40
0.3
 40
0.3
 40
0.3
 40
0.3
 40
0.4
 40
0.4
 40
0.4
 40
0.4
 40
0.5
 40
0.5
 40
0.5
 40
0.5
 40
0.6
 40
0.6
 40
0.6
 40
0.6
 40
0.7
 40
0.7
 40
0.7
 40
0.7
 40
0.8
 40
0.8
 40
0.8
 40
0.8
 40
1.0
 40
1.0
 40
1.0
 40
1.0
 10
-74.7819
 20
104.4171
 30
0.0
 10
-73.8766
 20
100.7056
 30
0.0
 10
-70.4646
 20
98.2266
 30
0.0
 10
-69.615
 20
94.4804
 30
0.0
 10
-69.615
 20
94.4804
 30
0.0
 10
-68.8002
 20
92.2661
 30
0.0
 10
-69.3087
 20
89.9473
 30
0.0
 10
-69.9423
 20
87.7677
 30
0.0
 10
-69.9423
 20
87.7677
 30
0.0
 10
-68.4104
 20
87.7538
 30
0.0
 10
-66.6207
 20
87.3569
 30
0.0
 10
-65.4369
 20
88.6172
 30
0.0
 10
-65.4369
 20
88.6172
 30
0.0
 10
-63.6265
 20
89.8219
 30
0.0
 10
-63.5011
 20
92.099
 30
0.0
 10
-63.5499
 20
94.0625
 30
0.0
 10
-63.5499
 20
94.0625
 30
0.0
 10
-61.7951
 20
93.4707
 30
0.0
 10
-59.7897
 20
92.6351
 30
0.0
 10
-58.0419
 20
93.7214
 30
0.0
 10
-58.0419
 20
93.7214
 30
0.0
 10
-56.4473
 20
94.362
 30
0.0
 10
-55.9598
 20
96.1167
 30
0.0
 10
-55.4096
 20
97.5721
 30
0.0
 10
-55.4096
 20
97.5721
 30
0.0
 10
-57.8609
 20
98.3312
 30
0.0
 10
-60.4443
 20
99.0345
 30
0.0
 10
-62.3731
 20
100.8171
 30
0.0
 10
-62.3731
 20
100.8171
 30
0.0
 10
-65.4231
 20
103.3239
 30
0.0
 10
-67.0176
 20
107.4603
 30
0.0
 10
-70.7919
 20
109.0756
 30
0.0
 10
-70.7919
 20
109.0756
 30
0.0
 10
-73.3543
 20
109.8277
 30
0.0
 10
-75.3739
 20
106.7081
 30
0.0
 10
-74.7819
 20
104.4171
 30
0.0
  0
SPLINE
  5
50
330
1F
100
AcDbEntity
  8
layer 1
 62
   250
100
AcDbSpline
210
0.0
220
0.0
230
1.0
 70
    11
 71
     3
 72
    40
 73
    36
 74
     0
 42
0.0000000001
 43
0.0000000001
 12
1.0
 22
0.0
 32
0.0
 13
1.0
 23
0.0
 33
0.0
 40
0.0
 40
0.0
 40
0.0
 40
0.0
 40
0.1
 40
0.1
 40
0.1
 40
0.1
 40
0.2
 40
0.2
 40
0.2
 40
0.2
 40
0.3
 40
0.3
 40
0.3
 40
0.3
 40
0.4
 40
0.4
 40
0.4
 40
0.4
 40
0.5
 40
0.5
 40
0.5
 40
0.5
 40
0.6
 40
0.6
 40
0.6
 40
0.6
 40
0.7
 40
0.7
 40
0.7
 40
0.7
 40
0.8
 40
0.8
 40
0.8
 40
0.8
 40
1.0
 40
1.0
 40
1.0
 40
1.0
 10
-150.4947
 20
108.052
 30
0.0
 10
-151.1564
 20
107.5924
 30
0.0
 10
-152.7161
 20
107.2234
 30
0.0
 10
-151.9084
 20
106.1719
 30
0.0
 10
-151.9084
 20
106.1719
 30
0.0
 10
-150.8221
 20
105.1066
 30
0.0
 10
-148.9837
 20
104.4659
 30
0.0
 10
-148.8375
 20
102.732
 30
0.0
 10
-148.8375
 20
102.732
 30
0.0
 10
-148.2664
 20
97.8578
 30
0.0
 10
-147.8487
 20
92.3149
 30
0.0
 10
-144.0397
 20
88.7285
 30
0.0
 10
-144.0397
 20
88.7285
 30
0.0
 10
-141.8253
 20
86.4586
 30
0.0
 10
-138.5805
 20
85.8388
 30
0.0
 10
-135.5374
 20
85.7065
 30
0.0
 10
-135.5374
 20
85.7065
 30
0.0
 10
-137.2993
 20
87.3638
 30
0.0
 10
-139.7711
 20
88.3597
 30
0.0
 10
-140.7322
 20
90.748
 30
0.0
 10
-140.7322
 20
90.748
 30
0.0
 10
-142.4173
 20
93.3592
 30
0.0
 10
-141.4771
 20
96.4997
 30
0.0
 10
-141.8184
 20
99.3687
 30
0.0
 10
-141.8184
 20
99.3687
 30
0.0
 10
-141.9437
 20
100.8381
 30
0.0
 10
-143.4059
 20
101.4299
 30
0.0
 10
-144.4574
 20
102.1609
 30
0.0
 10
-144.4574
 20
102.1609
 30
0.0
 10
-144.2764
 20
103.2474
 30
0.0
 10
-143.8586
 20
104.3405
 30
0.0
 10
-144.0536
 20
105.4477
 30
0.0
 10
-144.0536
 20
105.4477
 30
0.0
 10
-144.8335
 20
107.9754
 30
0.0
 10
-148.1551
 20
109.6048
 30
0.0
 10
-150.4947
 20
108.052
 30
0.0
  0
SPLINE
  5
51
330
1F
100
AcDbEntity
  8
layer 1
 62
   250
100
AcDbSpline
210
0.0
220
0.0
230
1.0
 70
    11
 71
     3
 72
    48
 73
    44
 74
     0
 42
0.0000000001
 43
0.0000000001
 12
1.0
 22
0.0
 32
0.0
 13
1.0
 23
0.0
 33
0.0
 40
0.0
 40
0.0
 40
0.0
 40
0.0
 40
0.0833333333333333
 40
0.0833333333333333
 40
0.0833333333333333
 40
0.0833333333333333
 40
0.1666666666666667
 40
0.1666666666666667
 40
0.1666666666666667
 40
0.1666666666666667
 40
0.25
 40
0.25
 40
0.25
 40
0.25
 40
0.3333333333333333
 40
0.3333333333333333
 40
0.3333333333333333
 40
0.3333333333333333
 40
0.4166666666666667
 40
0.4166666666666667
 40
0.4166666666666667
 40
0.4166666666666667
 40
0.5
 40
0.5
 40
0.5
 40
0.5
 40
0.5833333333333334
 40
0.5833333333333334
 40
0.5833333333333334
 40
0.5833333333333334
 40
0.6666666666666666
 40
0.6666666666666666
 40
0.6666666666666666
 40
0.6666666666666666
 40
0.75
 40
0.75
 40
0.75
 40
0.75
 40
0.8333333333333334
 40
0.8333333333333334
 40
0.8333333333333334
 40
0.8333333333333334
 40
1.0
 40
1.0
 40
1.0
 40
1.0
 10
-117.1124
 20
94.2088
 30
0.0
 10
-114.2643
 20
94.0766
 30
0.0
 10
-111.8966
 20
95.8523
 30
0.0
 10
-109.5013
 20
97.1126
 30
0.0
 10
-109.5013
 20
97.1126
 30
0.0
 10
-109.3829
 20
97.976
 30
0.0
 10
-109.2644
 20
98.8326
 30
0.0
 10
-109.1462
 20
99.6891
 30
0.0
 10
-109.1462
 20
99.6891
 30
0.0
 10
-107.0084
 20
99.6751
 30
0.0
 10
-106.5628
 20
97.7045
 30
0.0
 10
-106.2425
 20
96.0054
 30
0.0
 10
-106.2425
 20
96.0054
 30
0.0
 10
-107.9903
 20
95.8592
 30
0.0
 10
-109.7659
 20
95.6154
 30
0.0
 10
-111.2004
 20
94.5222
 30
0.0
 10
-111.2004
 20
94.5222
 30
0.0
 10
-112.7255
 20
93.3871
 30
0.0
 10
-115.0233
 20
93.0598
 30
0.0
 10
-115.8658
 20
91.2006
 30
0.0
 10
-115.8658
 20
91.2006
 30
0.0
 10
-112.8437
 20
91.5419
 30
0.0
 10
-110.0096
 20
92.8441
 30
0.0
 10
-106.9597
 20
92.9623
 30
0.0
 10
-106.9597
 20
92.9623
 30
0.0
 10
-104.3483
 20
93.1573
 30
0.0
 10
-101.6395
 20
92.8092
 30
0.0
 10
-99.105
 20
93.6099
 30
0.0
 10
-99.105
 20
93.6099
 30
0.0
 10
-97.4198
 20
94.3132
 30
0.0
 10
-95.7069
 20
96.5068
 30
0.0
 10
-97.016
 20
98.2685
 30
0.0
 10
-97.016
 20
98.2685
 30
0.0
 10
-98.9448
 20
99.3826
 30
0.0
 10
-101.1173
 20
98.1222
 30
0.0
 10
-103.0742
 20
97.7602
 30
0.0
 10
-103.0742
 20
97.7602
 30
0.0
 10
-103.2621
 20
100.9146
 30
0.0
 10
-101.8136
 20
104.5983
 30
0.0
 10
-104.0142
 20
107.2999
 30
0.0
 10
-104.0142
 20
107.2999
 30
0.0
 10
-107.2799
 20
101.8825
 30
0.0
 10
-113.7489
 20
99.5775
 30
0.0
 10
-117.1124
 20
94.2088
 30
0.0
  0
SPLINE
  5
52
330
1F
100
AcDbEntity
  8
layer 1
 62
   250
100
AcDbSpline
210
0.0
220
0.0
230
1.0
 70
    11
 71
     3
 72
    40
 73
    36
 74
     0
 42
0.0000000001
 43
0.0000000001
 12
1.0
 22
0.0
 32
0.0
 13
1.0
 23
0.0
 33
0.0
 40
0.0
 40
0.0
 40
0.0
 40
0.0
 40
0.1
 40
0.1
 40
0.1
 40
0.1
 40
0.2
 40
0.2
 40
0.2
 40
0.2
 40
0.3
 40
0.3
 40
0.3
 40
0.3
 40
0.4
 40
0.4
 40
0.4
 40
0.4
 40
0.5
 40
0.5
 40
0.5
 40
0.5
 40
0.6
 40
0.6
 40
0.6
 40
0.6
 40
0.7
 40
0.7
 40
0.7
 40
0.7
 40
0.8
 40
0.8
 40
0.8
 40
0.8
 40
1.0
 40
1.0
 40
1.0
 40
1.0
 10
-180.3121
 20
104.5774
 30
0.0
 10
-178.6755
 20
94.2297
 30
0.0
 10
-181.0083
 20
83.0534
 30
0.0
 10
-176.1897
 20
73.3744
 30
0.0
 10
-176.1897
 20
73.3744
 30
0.0
 10
-172.4435
 20
73.4997
 30
0.0
 10
-168.7041
 20
73.0053
 30
0.0
 10
-165.2432
 20
71.5152
 30
0.0
 10
-165.2432
 20
71.5152
 30
0.0
 10
-165.7516
 20
72.873
 30
0.0
 10
-167.0885
 20
73.5553
 30
0.0
 10
-168.119
 20
74.4606
 30
0.0
 10
-168.119
 20
74.4606
 30
0.0
 10
-169.9504
 20
75.93
 30
0.0
 10
-170.9185
 20
78.1652
 30
0.0
 10
-172.6454
 20
79.732
 30
0.0
 10
-172.6454
 20
79.732
 30
0.0
 10
-173.7316
 20
80.3935
 30
0.0
 10
-175.0337
 20
80.5328
 30
0.0
 10
-176.2454
 20
80.8601
 30
0.0
 10
-176.2454
 20
80.8601
 30
0.0
 10
-177.5615
 20
83.5967
 30
0.0
 10
-175.7927
 20
86.2288
 30
0.0
 10
-175.0826
 20
88.8539
 30
0.0
 10
-175.0826
 20
88.8539
 30
0.0
 10
-174.6299
 20
90.2466
 30
0.0
 10
-172.9448
 20
90.5252
 30
0.0
 10
-171.8306
 20
91.2006
 30
0.0
 10
-171.8306
 20
91.2006
 30
0.0
 10
-171.5033
 20
92.4959
 30
0.0
 10
-171.1063
 20
93.7909
 30
0.0
 10
-170.9741
 20
95.1209
 30
0.0
 10
-170.9741
 20
95.1209
 30
0.0
 10
-173.1049
 20
99.0483
 30
0.0
 10
-176.2731
 20
102.5719
 30
0.0
 10
-180.3121
 20
104.5774
 30
0.0
  0
SPLINE
  5
53
330
1F
100
AcDbEntity
  8
layer 1
 62
   250
100
AcDbSpline
210
0.0
220
0.0
230
1.0
 70
    11
 71
     3
 72
    32
 73
    28
 74
     0
 42
0.0000000001
 43
0.0000000001
 12
1.0
 22
0.0
 32
0.0
 13
1.0
 23
0.0
 33
0.0
 40
0.0
 40
0.0
 40
0.0
 40
0.0
 40
0.125
 40
0.125
 40
0.125
 40
0.125
 40
0.25
 40
0.25
 40
0.25
 40
0.25
 40
0.375
 40
0.375
 40
0.375
 40
0.375
 40
0.5
 40
0.5
 40
0.5
 40
0.5
 40
0.625
 40
0.625
 40
0.625
 40
0.625
 40
0.75
 40
0.75
 40
0.75
 40
0.75
 40
1.0
 40
1.0
 40
1.0
 40
1.0
 10
-141.9785
 20
102.8155
 30
0.0
 10
-140.7669
 20
100.7266
 30
0.0
 10
-139.9104
 20
98.4078
 30
0.0
 10
-140.3212
 20
95.9498
 30
0.0
 10
-140.3212
 20
95.9498
 30
0.0
 10
-140.8784
 20
92.294
 30
0.0
 10
-138.3854
 20
87.7259
 30
0.0
 10
-134.3467
 20
87.7329
 30
0.0
 10
-134.3467
 20
87.7329
 30
0.0
 10
-132.2856
 20
87.7467
 30
0.0
 10
-131.4707
 20
89.8916
 30
0.0
 10
-130.5864
 20
91.3816
 30
0.0
 10
-130.5864
 20
91.3816
 30
0.0
 10
-131.3385
 20
92.7116
 30
0.0
 10
-131.9792
 20
94.0975
 30
0.0
 10
-132.5222
 20
95.5179
 30
0.0
 10
-132.5222
 20
95.5179
 30
0.0
 10
-134.3536
 20
97.022
 30
0.0
 10
-136.3034
 20
98.3798
 30
0.0
 10
-138.5455
 20
99.1877
 30
0.0
 10
-138.5455
 20
99.1877
 30
0.0
 10
-138.9356
 20
100.0372
 30
0.0
 10
-138.9425
 20
101.0051
 30
0.0
 10
-139.1305
 20
101.9102
 30
0.0
 10
-139.1305
 20
101.9102
 30
0.0
 10
-140.0776
 20
102.2168
 30
0.0
 10
-141.0316
 20
102.5161
 30
0.0
 10
-141.9785
 20
102.8155
 30
0.0
  0
SPLINE
  5
54
330
1F
100
AcDbEntity
  8
layer 1
 62
   250
100
AcDbSpline
210
0.0
220
0.0
230
1.0
 70
    11
 71
     3
 72
    16
 73
    12
 74
     0
 42
0.0000000001
 43
0.0000000001
 12
1.0
 22
0.0
 32
0.0
 13
1.0
 23
0.0
 33
0.0
 40
0.0
 40
0.0
 40
0.0
 40
0.0
 40
0.25
 40
0.25
 40
0.25
 40
0.25
 40
0.5
 40
0.5
 40
0.5
 40
0.5
 40
1.0
 40
1.0
 40
1.0
 40
1.0
 10
-130.0016
 20
94.3481
 30
0.0
 10
-128.8665
 20
93.9234
 30
0.0
 10
-127.6201
 20
92.8719
 30
0.0
 10
-126.3877
 20
93.6587
 30
0.0
 10
-126.3877
 20
93.6587
 30
0.0
 10
-125.4684
 20
94.5711
 30
0.0
 10
-125.9419
 20
95.9079
 30
0.0
 10
-126.0395
 20
97.0151
 30
0.0
 10
-126.0395
 20
97.0151
 30
0.0
 10
-128.0099
 20
97.3633
 30
0.0
 10
-129.6394
 20
96.3884
 30
0.0
 10
-130.0016
 20
94.3481
 30
0.0
  0
SPLINE
  5
55
330
1F
100
AcDbEntity
  8
layer 1
 62
   250
100
AcDbSpline
210
0.0
220
0.0
230
1.0
 70
    11
 71
     3
 72
    16
 73
    12
 74
     0
 42
0.0000000001
 43
0.0000000001
 12
1.0
 22
0.0
 32
0.0
 13
1.0
 23
0.0
 33
0.0
 40
0.0
 40
0.0
 40
0.0
 40
0.0
 40
0.25
 40
0.25
 40
0.25
 40
0.25
 40
0.5
 40
0.5
 40
0.5
 40
0.5
 40
1.0
 40
1.0
 40
1.0
 40
1.0
 10
-123.7205
 20
97.412
 30
0.0
 10
-123.6579
 20
95.887
 30
0.0
 10
-123.4489
 20
94.2019
 30
0.0
 10
-121.9936
 20
93.3523
 30
0.0
 10
-121.9936
 20
93.3523
 30
0.0
 10
-121.1928
 20
93.422
 30
0.0
 10
-120.3432
 20
93.7562
 30
0.0
 10
-119.9394
 20
94.4942
 30
0.0
 10
-119.9394
 20
94.4942
 30
0.0
 10
-120.3432
 20
96.249
 30
0.0
 10
-121.917
 20
97.4886
 30
0.0
 10
-123.7205
 20
97.412
 30
0.0
  0
SPLINE
  5
56
330
1F
100
AcDbEntity
  8
layer 1
 62
   250
100
AcDbSpline
210
0.0
220
0.0
230
1.0
 70
    11
 71
     3
 72
    36
 73
    32
 74
     0
 42
0.0000000001
 43
0.0000000001
 12
1.0
 22
0.0
 32
0.0
 13
1.0
 23
0.0
 33
0.0
 40
0.0
 40
0.0
 40
0.0
 40
0.0
 40
0.1111111111111111
 40
0.1111111111111111
 40
0.1111111111111111
 40
0.1111111111111111
 40
0.2222222222222222
 40
0.2222222222222222
 40
0.2222222222222222
 40
0.2222222222222222
 40
0.3333333333333333
 40
0.3333333333333333
 40
0.3333333333333333
 40
0.3333333333333333
 40
0.4444444444444444
 40
0.4444444444444444
 40
0.4444444444444444
 40
0.4444444444444444
 40
0.5555555555555556
 40
0.5555555555555556
 40
0.5555555555555556
 40
0.5555555555555556
 40
0.6666666666666666
 40
0.6666666666666666
 40
0.6666666666666666
 40
0.6666666666666666
 40
0.7777777777777778
 40
0.7777777777777778
 40
0.7777777777777778
 40
0.7777777777777778
 40
1.0
 40
1.0
 40
1.0
 40
1.0
 10
-163.7671
 20
94.8912
 30
0.0
 10
-165.0622
 20
95.0027
 30
0.0
 10
-166.5734
 20
95.5806
 30
0.0
 10
-167.6874
 20
94.6127
 30
0.0
 10
-167.6874
 20
94.6127
 30
0.0
 10
-169.0105
 20
93.8189
 30
0.0
 10
-169.5048
 20
92.3287
 30
0.0
 10
-169.8739
 20
90.9221
 30
0.0
 10
-169.8739
 20
90.9221
 30
0.0
 10
-168.2654
 20
91.1031
 30
0.0
 10
-166.4619
 20
91.7995
 30
0.0
 10
-164.9646
 20
90.8246
 30
0.0
 10
-164.9646
 20
90.8246
 30
0.0
 10
-163.3839
 20
89.996
 30
0.0
 10
-162.827
 20
88.1646
 30
0.0
 10
-161.9357
 20
86.744
 30
0.0
 10
-161.9357
 20
86.744
 30
0.0
 10
-161.3507
 20
88.283
 30
0.0
 10
-161.0165
 20
89.9334
 30
0.0
 10
-160.2017
 20
91.3747
 30
0.0
 10
-160.2017
 20
91.3747
 30
0.0
 10
-159.3243
 20
92.1895
 30
0.0
 10
-158.2103
 20
92.6769
 30
0.0
 10
-157.2494
 20
93.3802
 30
0.0
 10
-157.2494
 20
93.3802
 30
0.0
 10
-157.305
 20
94.7171
 30
0.0
 10
-158.6141
 20
95.5388
 30
0.0
 10
-159.6587
 20
96.1308
 30
0.0
 10
-159.6587
 20
96.1308
 30
0.0
 10
-161.1419
 20
96.8966
 30
0.0
 10
-162.5206
 20
95.5319
 30
0.0
 10
-163.7671
 20
94.8912
 30
0.0
  0
SPLINE
  5
57
330
1F
100
AcDbEntity
  8
layer 1
 62
   250
100
AcDbSpline
210
0.0
220
0.0
230
1.0
 70
    11
 71
     3
 72
    76
 73
    72
 74
     0
 42
0.0000000001
 43
0.0000000001
 12
1.0
 22
0.0
 32
0.0
 13
1.0
 23
0.0
 33
0.0
 40
0.0
 40
0.0
 40
0.0
 40
0.0
 40
0.0526315789473684
 40
0.0526315789473684
 40
0.0526315789473684
 40
0.0526315789473684
 40
0.1052631578947368
 40
0.1052631578947368
 40
0.1052631578947368
 40
0.1052631578947368
 40
0.1578947368421053
 40
0.1578947368421053
 40
0.1578947368421053
 40
0.1578947368421053
 40
0.2105263157894737
 40
0.2105263157894737
 40
0.2105263157894737
 40
0.2105263157894737
 40
0.2631578947368421
 40
0.2631578947368421
 40
0.2631578947368421
 40
0.2631578947368421
 40
0.3157894736842105
 40
0.3157894736842105
 40
0.3157894736842105
 40
0.3157894736842105
 40
0.3684210526315789
 40
0.3684210526315789
 40
0.3684210526315789
 40
0.3684210526315789
 40
0.4210526315789473
 40
0.4210526315789473
 40
0.4210526315789473
 40
0.4210526315789473
 40
0.4736842105263158
 40
0.4736842105263158
 40
0.4736842105263158
 40
0.4736842105263158
 40
0.5263157894736842
 40
0.5263157894736842
 40
0.5263157894736842
 40
0.5263157894736842
 40
0.5789473684210527
 40
0.5789473684210527
 40
0.5789473684210527
 40
0.5789473684210527
 40
0.631578947368421
 40
0.631578947368421
 40
0.631578947368421
 40
0.631578947368421
 40
0.6842105263157895
 40
0.6842105263157895
 40
0.6842105263157895
 40
0.6842105263157895
 40
0.7368421052631579
 40
0.7368421052631579
 40
0.7368421052631579
 40
0.7368421052631579
 40
0.7894736842105263
 40
0.7894736842105263
 40
0.7894736842105263
 40
0.7894736842105263
 40
0.8421052631578947
 40
0.8421052631578947
 40
0.8421052631578947
 40
0.8421052631578947
 40
0.8947368421052632
 40
0.8947368421052632
 40
0.8947368421052632
 40
0.8947368421052632
 40
1.0
 40
1.0
 40
1.0
 40
1.0
 10
-154.4013
 20
92.4331
 30
0.0
 10
-154.5266
 20
92.0571
 30
0.0
 10
-154.7773
 20
91.2913
 30
0.0
 10
-154.9026
 20
90.9081
 30
0.0
 10
-154.9026
 20
90.9081
 30
0.0
 10
-155.8844
 20
90.9568
 30
0.0
 10
-156.8594
 20
90.9639
 30
0.0
 10
-157.8411
 20
90.929
 30
0.0
 10
-157.8411
 20
90.929
 30
0.0
 10
-159.2895
 20
90.4486
 30
0.0
 10
-159.2687
 20
88.7285
 30
0.0
 10
-159.5124
 20
87.496
 30
0.0
 10
-159.5124
 20
87.496
 30
0.0
 10
-159.6656
 20
85.992
 30
0.0
 10
-161.2394
 20
85.0102
 30
0.0
 10
-161.1837
 20
83.4435
 30
0.0
 10
-161.1837
 20
83.4435
 30
0.0
 10
-161.0096
 20
81.4728
 30
0.0
 10
-159.5543
 20
79.9897
 30
0.0
 10
-158.6488
 20
78.3183
 30
0.0
 10
-158.6488
 20
78.3183
 30
0.0
 10
-157.5973
 20
77.4271
 30
0.0
 10
-159.4289
 20
75.8952
 30
0.0
 10
-160.2226
 20
76.7655
 30
0.0
 10
-160.2226
 20
76.7655
 30
0.0
 10
-163.9062
 20
80.0105
 30
0.0
 10
-161.852
 20
86.1591
 30
0.0
 10
-165.7933
 20
89.223
 30
0.0
 10
-165.7933
 20
89.223
 30
0.0
 10
-167.7571
 20
90.4973
 30
0.0
 10
-169.6022
 20
88.0602
 30
0.0
 10
-171.7052
 20
88.5059
 30
0.0
 10
-171.7052
 20
88.5059
 30
0.0
 10
-173.6271
 20
88.5754
 30
0.0
 10
-173.5366
 20
86.4029
 30
0.0
 10
-173.4322
 20
85.0589
 30
0.0
 10
-173.4322
 20
85.0589
 30
0.0
 10
-173.9127
 20
84.641
 30
0.0
 10
-174.3861
 20
84.2233
 30
0.0
 10
-174.8666
 20
83.8124
 30
0.0
 10
-174.8666
 20
83.8124
 30
0.0
 10
-174.9153
 20
83.4226
 30
0.0
 10
-175.0129
 20
82.6427
 30
0.0
 10
-175.0616
 20
82.2527
 30
0.0
 10
-175.0616
 20
82.2527
 30
0.0
 10
-173.3278
 20
82.002
 30
0.0
 10
-170.9532
 20
82.2596
 30
0.0
 10
-170.1802
 20
80.2681
 30
0.0
 10
-170.1802
 20
80.2681
 30
0.0
 10
-168.2794
 20
76.5985
 30
0.0
 10
-164.9787
 20
72.0374
 30
0.0
 10
-160.2226
 20
73.1865
 30
0.0
 10
-160.2226
 20
73.1865
 30
0.0
 10
-159.1364
 20
74.217
 30
0.0
 10
-158.0849
 20
75.6026
 30
0.0
 10
-156.4207
 20
75.5121
 30
0.0
 10
-156.4207
 20
75.5121
 30
0.0
 10
-153.3079
 20
75.3659
 30
0.0
 10
-151.0867
 20
78.4021
 30
0.0
 10
-150.7733
 20
81.2499
 30
0.0
 10
-150.7733
 20
81.2499
 30
0.0
 10
-150.3694
 20
84.0215
 30
0.0
 10
-151.7343
 20
86.5839
 30
0.0
 10
-152.2008
 20
89.2579
 30
0.0
 10
-152.2008
 20
89.2579
 30
0.0
 10
-151.5253
 20
89.2717
 30
0.0
 10
-150.1815
 20
89.2996
 30
0.0
 10
-149.506
 20
89.3067
 30
0.0
 10
-149.506
 20
89.3067
 30
0.0
 10
-149.7567
 20
91.702
 30
0.0
 10
-152.0476
 20
93.7562
 30
0.0
 10
-154.4013
 20
92.4331
 30
0.0
  0
SPLINE
  5
58
330
1F
100
AcDbEntity
  8
layer 1
 62
   250
100
AcDbSpline
210
0.0
220
0.0
230
1.0
 70
    11
 71
     3
 72
    16
 73
    12
 74
     0
 42
0.0000000001
 43
0.0000000001
 12
1.0
 22
0.0
 32
0.0
 13
1.0
 23
0.0
 33
0.0
 40
0.0
 40
0.0
 40
0.0
 40
0.0
 40
0.25
 40
0.25
 40
0.25
 40
0.25
 40
0.5
 40
0.5
 40
0.5
 40
0.5
 40
1.0
 40
1.0
 40
1.0
 40
1.0
 10
-127.0491
 20
91.4234
 30
0.0
 10
-126.7705
 20
89.1117
 30
0.0
 10
-124.3334
 20
88.0811
 30
0.0
 10
-122.307
 20
89.0351
 30
0.0
 10
-122.307
 20
89.0351
 30
0.0
 10
-122.5299
 20
90.0725
 30
0.0
 10
-122.4741
 20
91.2703
 30
0.0
 10
-123.2192
 20
92.1128
 30
0.0
 10
-123.2192
 20
92.1128
 30
0.0
 10
-124.5004
 20
92.9485
 30
0.0
 10
-125.8654
 20
91.9039
 30
0.0
 10
-127.0491
 20
91.4234
 30
0.0
  0
SPLINE
  5
59
330
1F
100
AcDbEntity
  8
layer 1
 62
   250
100
AcDbSpline
210
0.0
220
0.0
230
1.0
 70
    11
 71
     3
 72
    16
 73
    12
 74
     0
 42
0.0000000001
 43
0.0000000001
 12
1.0
 22
0.0
 32
0.0
 13
1.0
 23
0.0
 33
0.0
 40
0.0
 40
0.0
 40
0.0
 40
0.0
 40
0.25
 40
0.25
 40
0.25
 40
0.25
 40
0.5
 40
0.5
 40
0.5
 40
0.5
 40
1.0
 40
1.0
 40
1.0
 40
1.0
 10
-119.7445
 20
92.0362
 30
0.0
 10
-121.5131
 20
91.6951
 30
0.0
 10
-121.2834
 20
89.5922
 30
0.0
 10
-120.7124
 20
88.3387
 30
0.0
 10
-120.7124
 20
88.3387
 30
0.0
 10
-119.7165
 20
88.5476
 30
0.0
 10
-118.2752
 20
88.0949
 30
0.0
 10
-117.7948
 20
89.2927
 30
0.0
 10
-117.7948
 20
89.2927
 30
0.0
 10
-117.0149
 20
90.4555
 30
0.0
 10
-118.2333
 20
92.67
 30
0.0
 10
-119.7445
 20
92.0362
 30
0.0
  0
SPLINE
  5
5A
330
1F
100
AcDbEntity
  8
layer 1
 62
   250
100
AcDbSpline
210
0.0
220
0.0
230
1.0
 70
    11
 71
     3
 72
    32
 73
    28
 74
     0
 42
0.0000000001
 43
0.0000000001
 12
1.0
 22
0.0
 32
0.0
 13
1.0
 23
0.0
 33
0.0
 40
0.0
 40
0.0
 40
0.0
 40
0.0
 40
0.125
 40
0.125
 40
0.125
 40
0.125
 40
0.25
 40
0.25
 40
0.25
 40
0.25
 40
0.375
 40
0.375
 40
0.375
 40
0.375
 40
0.5
 40
0.5
 40
0.5
 40
0.5
 40
0.625
 40
0.625
 40
0.625
 40
0.625
 40
0.75
 40
0.75
 40
0.75
 40
0.75
 40
1.0
 40
1.0
 40
1.0
 40
1.0
 10
-102.3778
 20
91.8273
 30
0.0
 10
-102.1968
 20
90.8874
 30
0.0
 10
-101.5839
 20
89.9125
 30
0.0
 10
-102.0156
 20
88.9514
 30
0.0
 10
-102.0156
 20
88.9514
 30
0.0
 10
-102.5241
 20
86.946
 30
0.0
 10
-105.0378
 20
86.939
 30
0.0
 10
-106.1659
 20
85.5394
 30
0.0
 10
-106.1659
 20
85.5394
 30
0.0
 10
-104.223
 20
82.4408
 30
0.0
 10
-104.1814
 20
78.6039
 30
0.0
 10
-106.0336
 20
75.4564
 30
0.0
 10
-106.0336
 20
75.4564
 30
0.0
 10
-105.2328
 20
75.9647
 30
0.0
 10
-104.2301
 20
76.4035
 30
0.0
 10
-103.9098
 20
77.3853
 30
0.0
 10
-103.9098
 20
77.3853
 30
0.0
 10
-102.9208
 20
80.0453
 30
0.0
 10
-102.3428
 20
82.9631
 30
0.0
 10
-100.2886
 20
85.0799
 30
0.0
 10
-100.2886
 20
85.0799
 30
0.0
 10
-98.2832
 20
87.0434
 30
0.0
 10
-98.4644
 20
90.2119
 30
0.0
 10
-100.2052
 20
92.28
 30
0.0
 10
-100.2052
 20
92.28
 30
0.0
 10
-100.9293
 20
92.1267
 30
0.0
 10
-101.6536
 20
91.9805
 30
0.0
 10
-102.3778
 20
91.8273
 30
0.0
  0
SPLINE
  5
5B
330
1F
100
AcDbEntity
  8
layer 1
 62
   250
100
AcDbSpline
210
0.0
220
0.0
230
1.0
 70
    11
 71
     3
 72
    52
 73
    48
 74
     0
 42
0.0000000001
 43
0.0000000001
 12
1.0
 22
0.0
 32
0.0
 13
1.0
 23
0.0
 33
0.0
 40
0.0
 40
0.0
 40
0.0
 40
0.0
 40
0.0769230769230769
 40
0.0769230769230769
 40
0.0769230769230769
 40
0.0769230769230769
 40
0.1538461538461539
 40
0.1538461538461539
 40
0.1538461538461539
 40
0.1538461538461539
 40
0.2307692307692308
 40
0.2307692307692308
 40
0.2307692307692308
 40
0.2307692307692308
 40
0.3076923076923077
 40
0.3076923076923077
 40
0.3076923076923077
 40
0.3076923076923077
 40
0.3846153846153846
 40
0.3846153846153846
 40
0.3846153846153846
 40
0.3846153846153846
 40
0.4615384615384616
 40
0.4615384615384616
 40
0.4615384615384616
 40
0.4615384615384616
 40
0.5384615384615384
 40
0.5384615384615384
 40
0.5384615384615384
 40
0.5384615384615384
 40
0.6153846153846154
 40
0.6153846153846154
 40
0.6153846153846154
 40
0.6153846153846154
 40
0.6923076923076923
 40
0.6923076923076923
 40
0.6923076923076923
 40
0.6923076923076923
 40
0.7692307692307693
 40
0.7692307692307693
 40
0.7692307692307693
 40
0.7692307692307693
 40
0.8461538461538461
 40
0.8461538461538461
 40
0.8461538461538461
 40
0.8461538461538461
 40
1.0
 40
1.0
 40
1.0
 40
1.0
 10
-117.0287
 20
88.861
 30
0.0
 10
-115.8519
 20
86.6049
 30
0.0
 10
-112.9552
 20
85.4489
 30
0.0
 10
-110.8661
 20
87.2525
 30
0.0
 10
-110.8661
 20
87.2525
 30
0.0
 10
-110.344
 20
85.7832
 30
0.0
 10
-110.5528
 20
84.2721
 30
0.0
 10
-111.3327
 20
82.9421
 30
0.0
 10
-111.3327
 20
82.9421
 30
0.0
 10
-111.6669
 20
82.9838
 30
0.0
 10
-112.3214
 20
83.0675
 30
0.0
 10
-112.6486
 20
83.1091
 30
0.0
 10
-112.6486
 20
83.1091
 30
0.0
 10
-112.8924
 20
83.7636
 30
0.0
 10
-113.1362
 20
84.4184
 30
0.0
 10
-113.38
 20
85.0658
 30
0.0
 10
-113.38
 20
85.0658
 30
0.0
 10
-115.4758
 20
85.6719
 30
0.0
 10
-117.5441
 20
86.3611
 30
0.0
 10
-119.6471
 20
86.9181
 30
0.0
 10
-119.6471
 20
86.9181
 30
0.0
 10
-118.7835
 20
84.2233
 30
0.0
 10
-116.5135
 20
82.3083
 30
0.0
 10
-115.483
 20
79.6833
 30
0.0
 10
-115.483
 20
79.6833
 30
0.0
 10
-114.5638
 20
77.2878
 30
0.0
 10
-112.2379
 20
75.6445
 30
0.0
 10
-109.738
 20
75.2892
 30
0.0
 10
-109.738
 20
75.2892
 30
0.0
 10
-107.3984
 20
75.3659
 30
0.0
 10
-106.0615
 20
77.7753
 30
0.0
 10
-105.7549
 20
79.8364
 30
0.0
 10
-105.7549
 20
79.8364
 30
0.0
 10
-105.6436
 20
82.0298
 30
0.0
 10
-107.078
 20
83.903
 30
0.0
 10
-108.1922
 20
85.6647
 30
0.0
 10
-108.1922
 20
85.6647
 30
0.0
 10
-106.7786
 20
87.4195
 30
0.0
 10
-103.9863
 20
87.5657
 30
0.0
 10
-102.9905
 20
89.6478
 30
0.0
 10
-102.9905
 20
89.6478
 30
0.0
 10
-103.0533
 20
90.8524
 30
0.0
 10
-104.6062
 20
91.1241
 30
0.0
 10
-105.5601
 20
91.2075
 30
0.0
 10
-105.5601
 20
91.2075
 30
0.0
 10
-109.571
 20
91.3678
 30
0.0
 10
-112.9552
 20
88.4779
 30
0.0
 10
-117.0287
 20
88.861
 30
0.0
  0
SPLINE
  5
5C
330
1F
100
AcDbEntity
  8
layer 1
 62
   250
100
AcDbSpline
210
0.0
220
0.0
230
1.0
 70
    11
 71
     3
 72
    20
 73
    16
 74
     0
 42
0.0000000001
 43
0.0000000001
 12
1.0
 22
0.0
 32
0.0
 13
1.0
 23
0.0
 33
0.0
 40
0.0
 40
0.0
 40
0.0
 40
0.0
 40
0.2
 40
0.2
 40
0.2
 40
0.2
 40
0.4
 40
0.4
 40
0.4
 40
0.4
 40
0.6
 40
0.6
 40
0.6
 40
0.6
 40
1.0
 40
1.0
 40
1.0
 40
1.0
 10
-62.1084
 20
90.8803
 30
0.0
 10
-62.6098
 20
89.5155
 30
0.0
 10
-63.1739
 20
88.1787
 30
0.0
 10
-63.7797
 20
86.8624
 30
0.0
 10
-63.7797
 20
86.8624
 30
0.0
 10
-62.1921
 20
85.2817
 30
0.0
 10
-60.0682
 20
84.481
 30
0.0
 10
-57.8817
 20
84.1677
 30
0.0
 10
-57.8817
 20
84.1677
 30
0.0
 10
-57.1435
 20
86.5492
 30
0.0
 10
-56.879
 20
89.0489
 30
0.0
 10
-57.276
 20
91.521
 30
0.0
 10
-57.276
 20
91.521
 30
0.0
 10
-58.8914
 20
91.2982
 30
0.0
 10
-60.4999
 20
91.0753
 30
0.0
 10
-62.1084
 20
90.8803
 30
0.0
  0
SPLINE
  5
5D
330
1F
100
AcDbEntity
  8
layer 1
 62
   250
100
AcDbSpline
210
0.0
220
0.0
230
1.0
 70
    11
 71
     3
 72
    44
 73
    40
 74
     0
 42
0.0000000001
 43
0.0000000001
 12
1.0
 22
0.0
 32
0.0
 13
1.0
 23
0.0
 33
0.0
 40
0.0
 40
0.0
 40
0.0
 40
0.0
 40
0.0909090909090909
 40
0.0909090909090909
 40
0.0909090909090909
 40
0.0909090909090909
 40
0.1818181818181818
 40
0.1818181818181818
 40
0.1818181818181818
 40
0.1818181818181818
 40
0.2727272727272727
 40
0.2727272727272727
 40
0.2727272727272727
 40
0.2727272727272727
 40
0.3636363636363636
 40
0.3636363636363636
 40
0.3636363636363636
 40
0.3636363636363636
 40
0.4545454545454545
 40
0.4545454545454545
 40
0.4545454545454545
 40
0.4545454545454545
 40
0.5454545454545454
 40
0.5454545454545454
 40
0.5454545454545454
 40
0.5454545454545454
 40
0.6363636363636364
 40
0.6363636363636364
 40
0.6363636363636364
 40
0.6363636363636364
 40
0.7272727272727273
 40
0.7272727272727273
 40
0.7272727272727273
 40
0.7272727272727273
 40
0.8181818181818182
 40
0.8181818181818182
 40
0.8181818181818182
 40
0.8181818181818182
 40
1.0
 40
1.0
 40
1.0
 40
1.0
 10
-133.6224
 20
85.595
 30
0.0
 10
-135.5235
 20
84.495
 30
0.0
 10
-136.1224
 20
82.0089
 30
0.0
 10
-135.8368
 20
79.9618
 30
0.0
 10
-135.8368
 20
79.9618
 30
0.0
 10
-135.5861
 20
78.9241
 30
0.0
 10
-135.3841
 20
77.42
 30
0.0
 10
-134.082
 20
77.2391
 30
0.0
 10
-134.082
 20
77.2391
 30
0.0
 10
-131.2341
 20
76.5985
 30
0.0
 10
-128.6785
 20
78.2905
 30
0.0
 10
-126.4293
 20
79.7946
 30
0.0
 10
-126.4293
 20
79.7946
 30
0.0
 10
-124.4029
 20
81.2221
 30
0.0
 10
-121.931
 20
81.6678
 30
0.0
 10
-119.5496
 20
82.1204
 30
0.0
 10
-119.5496
 20
82.1204
 30
0.0
 10
-120.1275
 20
83.5479
 30
0.0
 10
-120.5104
 20
85.1495
 30
0.0
 10
-121.6385
 20
86.2567
 30
0.0
 10
-121.6385
 20
86.2567
 30
0.0
 10
-122.6343
 20
86.7302
 30
0.0
 10
-123.7624
 20
86.7024
 30
0.0
 10
-124.8277
 20
86.8068
 30
0.0
 10
-124.8277
 20
86.8068
 30
0.0
 10
-125.4265
 20
85.3514
 30
0.0
 10
-125.2177
 20
83.0603
 30
0.0
 10
-127.0838
 20
82.573
 30
0.0
 10
-127.0838
 20
82.573
 30
0.0
 10
-127.0003
 20
83.917
 30
0.0
 10
-126.861
 20
85.254
 30
0.0
 10
-126.6869
 20
86.5908
 30
0.0
 10
-126.6869
 20
86.5908
 30
0.0
 10
-127.7176
 20
87.6076
 30
0.0
 10
-128.7132
 20
88.6728
 30
0.0
 10
-129.8623
 20
89.5574
 30
0.0
 10
-129.8623
 20
89.5574
 30
0.0
 10
-131.0112
 20
88.1436
 30
0.0
 10
-132.0418
 20
86.577
 30
0.0
 10
-133.6224
 20
85.595
 30
0.0
  0
SPLINE
  5
5E
330
1F
100
AcDbEntity
  8
layer 1
 62
   250
100
AcDbSpline
210
0.0
220
0.0
230
1.0
 70
    11
 71
     3
 72
    36
 73
    32
 74
     0
 42
0.0000000001
 43
0.0000000001
 12
1.0
 22
0.0
 32
0.0
 13
1.0
 23
0.0
 33
0.0
 40
0.0
 40
0.0
 40
0.0
 40
0.0
 40
0.1111111111111111
 40
0.1111111111111111
 40
0.1111111111111111
 40
0.1111111111111111
 40
0.2222222222222222
 40
0.2222222222222222
 40
0.2222222222222222
 40
0.2222222222222222
 40
0.3333333333333333
 40
0.3333333333333333
 40
0.3333333333333333
 40
0.3333333333333333
 40
0.4444444444444444
 40
0.4444444444444444
 40
0.4444444444444444
 40
0.4444444444444444
 40
0.5555555555555556
 40
0.5555555555555556
 40
0.5555555555555556
 40
0.5555555555555556
 40
0.6666666666666666
 40
0.6666666666666666
 40
0.6666666666666666
 40
0.6666666666666666
 40
0.7777777777777778
 40
0.7777777777777778
 40
0.7777777777777778
 40
0.7777777777777778
 40
1.0
 40
1.0
 40
1.0
 40
1.0
 10
-86.9468
 20
82.9978
 30
0.0
 10
-88.2839
 20
79.7736
 30
0.0
 10
-90.5192
 20
76.1875
 30
0.0
 10
-94.3351
 20
75.7836
 30
0.0
 10
-94.3351
 20
75.7836
 30
0.0
 10
-93.2489
 20
71.8215
 30
0.0
 10
-88.1515
 20
72.3507
 30
0.0
 10
-85.791
 20
74.781
 30
0.0
 10
-85.791
 20
74.781
 30
0.0
 10
-85.0111
 20
73.0611
 30
0.0
 10
-84.7256
 20
70.8675
 30
0.0
 10
-83.0334
 20
69.7463
 30
0.0
 10
-83.0334
 20
69.7463
 30
0.0
 10
-81.2927
 20
69.0709
 30
0.0
 10
-79.3567
 20
69.6907
 30
0.0
 10
-78.382
 20
71.2854
 30
0.0
 10
-78.382
 20
71.2854
 30
0.0
 10
-79.2035
 20
72.2532
 30
0.0
 10
-80.2341
 20
73.0889
 30
0.0
 10
-80.7635
 20
74.2657
 30
0.0
 10
-80.7635
 20
74.2657
 30
0.0
 10
-80.652
 20
77.5663
 30
0.0
 10
-79.1898
 20
80.7276
 30
0.0
 10
-79.5029
 20
84.0562
 30
0.0
 10
-79.5029
 20
84.0562
 30
0.0
 10
-79.677
 20
85.6368
 30
0.0
 10
-80.7354
 20
87.6564
 30
0.0
 10
-82.6086
 20
87.4195
 30
0.0
 10
-82.6086
 20
87.4195
 30
0.0
 10
-84.8579
 20
87.1272
 30
0.0
 10
-86.1113
 20
84.8779
 30
0.0
 10
-86.9468
 20
82.9978
 30
0.0
  0
SPLINE
  5
5F
330
1F
100
AcDbEntity
  8
layer 1
 62
   250
100
AcDbSpline
210
0.0
220
0.0
230
1.0
 70
    11
 71
     3
 72
    76
 73
    72
 74
     0
 42
0.0000000001
 43
0.0000000001
 12
1.0
 22
0.0
 32
0.0
 13
1.0
 23
0.0
 33
0.0
 40
0.0
 40
0.0
 40
0.0
 40
0.0
 40
0.0526315789473684
 40
0.0526315789473684
 40
0.0526315789473684
 40
0.0526315789473684
 40
0.1052631578947368
 40
0.1052631578947368
 40
0.1052631578947368
 40
0.1052631578947368
 40
0.1578947368421053
 40
0.1578947368421053
 40
0.1578947368421053
 40
0.1578947368421053
 40
0.2105263157894737
 40
0.2105263157894737
 40
0.2105263157894737
 40
0.2105263157894737
 40
0.2631578947368421
 40
0.2631578947368421
 40
0.2631578947368421
 40
0.2631578947368421
 40
0.3157894736842105
 40
0.3157894736842105
 40
0.3157894736842105
 40
0.3157894736842105
 40
0.3684210526315789
 40
0.3684210526315789
 40
0.3684210526315789
 40
0.3684210526315789
 40
0.4210526315789473
 40
0.4210526315789473
 40
0.4210526315789473
 40
0.4210526315789473
 40
0.4736842105263158
 40
0.4736842105263158
 40
0.4736842105263158
 40
0.4736842105263158
 40
0.5263157894736842
 40
0.5263157894736842
 40
0.5263157894736842
 40
0.5263157894736842
 40
0.5789473684210527
 40
0.5789473684210527
 40
0.5789473684210527
 40
0.5789473684210527
 40
0.631578947368421
 40
0.631578947368421
 40
0.631578947368421
 40
0.631578947368421
 40
0.6842105263157895
 40
0.6842105263157895
 40
0.6842105263157895
 40
0.6842105263157895
 40
0.7368421052631579
 40
0.7368421052631579
 40
0.7368421052631579
 40
0.7368421052631579
 40
0.7894736842105263
 40
0.7894736842105263
 40
0.7894736842105263
 40
0.7894736842105263
 40
0.8421052631578947
 40
0.8421052631578947
 40
0.8421052631578947
 40
0.8421052631578947
 40
0.8947368421052632
 40
0.8947368421052632
 40
0.8947368421052632
 40
0.8947368421052632
 40
1.0
 40
1.0
 40
1.0
 40
1.0
 10
-142.5844
 20
84.5576
 30
0.0
 10
-142.828
 20
80.6441
 30
0.0
 10
-145.0147
 20
77.3017
 30
0.0
 10
-147.5075
 20
74.4259
 30
0.0
 10
-147.5075
 20
74.4259
 30
0.0
 10
-150.1049
 20
71.2018
 30
0.0
 10
-152.5071
 20
67.8106
 30
0.0
 10
-154.5962
 20
64.2314
 30
0.0
 10
-154.5962
 20
64.2314
 30
0.0
 10
-154.8817
 20
66.1952
 30
0.0
 10
-155.0836
 20
68.1657
 30
0.0
 10
-155.2159
 20
70.1434
 30
0.0
 10
-155.2159
 20
70.1434
 30
0.0
 10
-154.7426
 20
71.2645
 30
0.0
 10
-154.4222
 20
72.4482
 30
0.0
 10
-154.2203
 20
73.646
 30
0.0
 10
-154.2203
 20
73.646
 30
0.0
 10
-156.4415
 20
74.1542
 30
0.0
 10
-158.4609
 20
73.0889
 30
0.0
 10
-159.9788
 20
71.543
 30
0.0
 10
-159.9788
 20
71.543
 30
0.0
 10
-159.0041
 20
70.5472
 30
0.0
 10
-157.5766
 20
70.213
 30
0.0
 10
-156.532
 20
69.3425
 30
0.0
 10
-156.532
 20
69.3425
 30
0.0
 10
-155.9751
 20
66.2231
 30
0.0
 10
-155.8497
 20
62.7344
 30
0.0
 10
-157.3538
 20
59.8444
 30
0.0
 10
-157.3538
 20
59.8444
 30
0.0
 10
-158.1267
 20
61.0004
 30
0.0
 10
-158.7326
 20
62.3096
 30
0.0
 10
-159.7979
 20
63.2358
 30
0.0
 10
-159.7979
 20
63.2358
 30
0.0
 10
-160.4873
 20
63.7928
 30
0.0
 10
-161.685
 20
64.8999
 30
0.0
 10
-162.2908
 20
63.5977
 30
0.0
 10
-162.2908
 20
63.5977
 30
0.0
 10
-162.9175
 20
61.3557
 30
0.0
 10
-160.0904
 20
60.5686
 30
0.0
 10
-158.8926
 20
59.2318
 30
0.0
 10
-158.8926
 20
59.2318
 30
0.0
 10
-157.4929
 20
58.1246
 30
0.0
 10
-157.8481
 20
56.2583
 30
0.0
 10
-158.2103
 20
54.7473
 30
0.0
 10
-158.2103
 20
54.7473
 30
0.0
 10
-160.1251
 20
47.0249
 30
0.0
 10
-159.8397
 20
38.9196
 30
0.0
 10
-158.4819
 20
31.1276
 30
0.0
 10
-158.4819
 20
31.1276
 30
0.0
 10
-158.2172
 20
28.9339
 30
0.0
 10
-156.6086
 20
27.2001
 30
0.0
 10
-154.5685
 20
26.4549
 30
0.0
 10
-154.5685
 20
26.4549
 30
0.0
 10
-155.2718
 20
30.4312
 30
0.0
 10
-157.0822
 20
34.1636
 30
0.0
 10
-157.3538
 20
38.237
 30
0.0
 10
-157.3538
 20
38.237
 30
0.0
 10
-158.2868
 20
48.313
 30
0.0
 10
-156.2882
 20
59.0854
 30
0.0
 10
-150.0491
 20
67.2674
 30
0.0
 10
-150.0491
 20
67.2674
 30
0.0
 10
-146.7695
 20
71.5012
 30
0.0
 10
-142.9395
 20
75.6026
 30
0.0
 10
-137.7865
 20
77.5037
 30
0.0
 10
-137.7865
 20
77.5037
 30
0.0
 10
-137.9259
 20
79.356
 30
0.0
 10
-138.0513
 20
81.2152
 30
0.0
 10
-138.0442
 20
83.0744
 30
0.0
 10
-138.0442
 20
83.0744
 30
0.0
 10
-139.5692
 20
83.541
 30
0.0
 10
-141.0804
 20
84.0284
 30
0.0
 10
-142.5844
 20
84.5576
 30
0.0
  0
SPLINE
  5
60
330
1F
100
AcDbEntity
  8
layer 1
 62
   250
100
AcDbSpline
210
0.0
220
0.0
230
1.0
 70
    11
 71
     3
 72
    28
 73
    24
 74
     0
 42
0.0000000001
 43
0.0000000001
 12
1.0
 22
0.0
 32
0.0
 13
1.0
 23
0.0
 33
0.0
 40
0.0
 40
0.0
 40
0.0
 40
0.0
 40
0.1428571428571428
 40
0.1428571428571428
 40
0.1428571428571428
 40
0.1428571428571428
 40
0.2857142857142857
 40
0.2857142857142857
 40
0.2857142857142857
 40
0.2857142857142857
 40
0.4285714285714285
 40
0.4285714285714285
 40
0.4285714285714285
 40
0.4285714285714285
 40
0.5714285714285714
 40
0.5714285714285714
 40
0.5714285714285714
 40
0.5714285714285714
 40
0.7142857142857143
 40
0.7142857142857143
 40
0.7142857142857143
 40
0.7142857142857143
 40
1.0
 40
1.0
 40
1.0
 40
1.0
 10
-75.5339
 20
79.2375
 30
0.0
 10
-75.3808
 20
74.9413
 30
0.0
 10
-73.6678
 20
70.3662
 30
0.0
 10
-75.9239
 20
66.3065
 30
0.0
 10
-75.9239
 20
66.3065
 30
0.0
 10
-73.7373
 20
64.4195
 30
0.0
 10
-71.0495
 20
66.5154
 30
0.0
 10
-70.4506
 20
68.8481
 30
0.0
 10
-70.4506
 20
68.8481
 30
0.0
 10
-68.668
 20
68.11
 30
0.0
 10
-66.4675
 20
67.6087
 30
0.0
 10
-64.9218
 20
69.1197
 30
0.0
 10
-64.9218
 20
69.1197
 30
0.0
 10
-63.8493
 20
69.6001
 30
0.0
 10
-64.8381
 20
70.8467
 30
0.0
 10
-65.3325
 20
71.362
 30
0.0
 10
-65.3325
 20
71.362
 30
0.0
 10
-68.4104
 20
74.0917
 30
0.0
 10
-67.9021
 20
79.0078
 30
0.0
 10
-71.1401
 20
81.5981
 30
0.0
 10
-71.1401
 20
81.5981
 30
0.0
 10
-72.8321
 20
83.1788
 30
0.0
 10
-75.8472
 20
81.5006
 30
0.0
 10
-75.5339
 20
79.2375
 30
0.0
  0
SPLINE
  5
61
330
1F
100
AcDbEntity
  8
layer 1
 62
   250
100
AcDbSpline
210
0.0
220
0.0
230
1.0
 70
    11
 71
     3
 72
    28
 73
    24
 74
     0
 42
0.0000000001
 43
0.0000000001
 12
1.0
 22
0.0
 32
0.0
 13
1.0
 23
0.0
 33
0.0
 40
0.0
 40
0.0
 40
0.0
 40
0.0
 40
0.1428571428571428
 40
0.1428571428571428
 40
0.1428571428571428
 40
0.1428571428571428
 40
0.2857142857142857
 40
0.2857142857142857
 40
0.2857142857142857
 40
0.2857142857142857
 40
0.4285714285714285
 40
0.4285714285714285
 40
0.4285714285714285
 40
0.4285714285714285
 40
0.5714285714285714
 40
0.5714285714285714
 40
0.5714285714285714
 40
0.5714285714285714
 40
0.7142857142857143
 40
0.7142857142857143
 40
0.7142857142857143
 40
0.7142857142857143
 40
1.0
 40
1.0
 40
1.0
 40
1.0
 10
-127.6896
 20
77.6291
 30
0.0
 10
-129.2912
 20
76.5497
 30
0.0
 10
-131.4291
 20
76.6054
 30
0.0
 10
-132.9191
 20
75.3172
 30
0.0
 10
-132.9191
 20
75.3172
 30
0.0
 10
-129.3052
 20
74.8644
 30
0.0
 10
-125.3849
 20
76.7795
 30
0.0
 10
-122.0842
 20
74.5093
 30
0.0
 10
-122.0842
 20
74.5093
 30
0.0
 10
-120.3781
 20
73.9104
 30
0.0
 10
-120.6288
 20
71.9609
 30
0.0
 10
-120.3713
 20
70.5193
 30
0.0
 10
-120.3713
 20
70.5193
 30
0.0
 10
-118.4423
 20
71.5082
 30
0.0
 10
-117.1472
 20
73.4928
 30
0.0
 10
-117.5231
 20
75.714
 30
0.0
 10
-117.5231
 20
75.714
 30
0.0
 10
-117.7182
 20
77.3784
 30
0.0
 10
-117.175
 20
80.1568
 30
0.0
 10
-119.5425
 20
80.2681
 30
0.0
 10
-119.5425
 20
80.2681
 30
0.0
 10
-122.6134
 20
81.2917
 30
0.0
 10
-125.2596
 20
79.147
 30
0.0
 10
-127.6896
 20
77.6291
 30
0.0
  0
SPLINE
  5
62
330
1F
100
AcDbEntity
  8
layer 1
 62
   250
100
AcDbSpline
210
0.0
220
0.0
230
1.0
 70
    11
 71
     3
 72
    52
 73
    48
 74
     0
 42
0.0000000001
 43
0.0000000001
 12
1.0
 22
0.0
 32
0.0
 13
1.0
 23
0.0
 33
0.0
 40
0.0
 40
0.0
 40
0.0
 40
0.0
 40
0.0769230769230769
 40
0.0769230769230769
 40
0.0769230769230769
 40
0.0769230769230769
 40
0.1538461538461539
 40
0.1538461538461539
 40
0.1538461538461539
 40
0.1538461538461539
 40
0.2307692307692308
 40
0.2307692307692308
 40
0.2307692307692308
 40
0.2307692307692308
 40
0.3076923076923077
 40
0.3076923076923077
 40
0.3076923076923077
 40
0.3076923076923077
 40
0.3846153846153846
 40
0.3846153846153846
 40
0.3846153846153846
 40
0.3846153846153846
 40
0.4615384615384616
 40
0.4615384615384616
 40
0.4615384615384616
 40
0.4615384615384616
 40
0.5384615384615384
 40
0.5384615384615384
 40
0.5384615384615384
 40
0.5384615384615384
 40
0.6153846153846154
 40
0.6153846153846154
 40
0.6153846153846154
 40
0.6153846153846154
 40
0.6923076923076923
 40
0.6923076923076923
 40
0.6923076923076923
 40
0.6923076923076923
 40
0.7692307692307693
 40
0.7692307692307693
 40
0.7692307692307693
 40
0.7692307692307693
 40
0.8461538461538461
 40
0.8461538461538461
 40
0.8461538461538461
 40
0.8461538461538461
 40
1.0
 40
1.0
 40
1.0
 40
1.0
 10
-48.0495
 20
74.0358
 30
0.0
 10
-50.8277
 20
68.7299
 30
0.0
 10
-51.7331
 20
62.5254
 30
0.0
 10
-51.0227
 20
56.6065
 30
0.0
 10
-51.0227
 20
56.6065
 30
0.0
 10
-50.4588
 20
51.7322
 30
0.0
 10
-49.7345
 20
46.7811
 30
0.0
 10
-47.7848
 20
42.248
 30
0.0
 10
-47.7848
 20
42.248
 30
0.0
 10
-45.7724
 20
39.7133
 30
0.0
 10
-42.3463
 20
39.01
 30
0.0
 10
-39.3869
 20
38.1605
 30
0.0
 10
-39.3869
 20
38.1605
 30
0.0
 10
-36.1838
 20
37.5408
 30
0.0
 10
-31.748
 20
36.9488
 30
0.0
 10
-29.7565
 20
40.2147
 30
0.0
 10
-29.7565
 20
40.2147
 30
0.0
 10
-27.939
 20
43.8286
 30
0.0
 10
-29.8122
 20
48.6404
 30
0.0
 10
-33.3358
 20
50.4717
 30
0.0
 10
-33.3358
 20
50.4717
 30
0.0
 10
-36.5389
 20
51.3213
 30
0.0
 10
-39.763
 20
49.678
 30
0.0
 10
-42.3742
 20
47.9442
 30
0.0
 10
-42.3742
 20
47.9442
 30
0.0
 10
-43.7739
 20
47.0805
 30
0.0
 10
-44.3937
 20
45.0891
 30
0.0
 10
-46.1416
 20
44.8245
 30
0.0
 10
-46.1416
 20
44.8245
 30
0.0
 10
-44.4146
 20
48.313
 30
0.0
 10
-41.3714
 20
51.0149
 30
0.0
 10
-37.8272
 20
52.5817
 30
0.0
 10
-37.8272
 20
52.5817
 30
0.0
 10
-36.2465
 20
53.3895
 30
0.0
 10
-33.9834
 20
54.0162
 30
0.0
 10
-33.8719
 20
56.147
 30
0.0
 10
-33.8719
 20
56.147
 30
0.0
 10
-33.3775
 20
61.0562
 30
0.0
 10
-35.1881
 20
65.847
 30
0.0
 10
-37.2701
 20
70.199
 30
0.0
 10
-37.2701
 20
70.199
 30
0.0
 10
-38.7183
 20
72.9565
 30
0.0
 10
-40.6404
 20
75.9021
 30
0.0
 10
-43.732
 20
76.9536
 30
0.0
 10
-43.732
 20
76.9536
 30
0.0
 10
-45.7862
 20
77.5803
 30
0.0
 10
-47.179
 20
75.5679
 30
0.0
 10
-48.0495
 20
74.0358
 30
0.0
  0
SPLINE
  5
63
330
1F
100
AcDbEntity
  8
layer 1
 62
   250
100
AcDbSpline
210
0.0
220
0.0
230
1.0
 70
    11
 71
     3
 72
    56
 73
    52
 74
     0
 42
0.0000000001
 43
0.0000000001
 12
1.0
 22
0.0
 32
0.0
 13
1.0
 23
0.0
 33
0.0
 40
0.0
 40
0.0
 40
0.0
 40
0.0
 40
0.0714285714285714
 40
0.0714285714285714
 40
0.0714285714285714
 40
0.0714285714285714
 40
0.1428571428571428
 40
0.1428571428571428
 40
0.1428571428571428
 40
0.1428571428571428
 40
0.2142857142857143
 40
0.2142857142857143
 40
0.2142857142857143
 40
0.2142857142857143
 40
0.2857142857142857
 40
0.2857142857142857
 40
0.2857142857142857
 40
0.2857142857142857
 40
0.3571428571428572
 40
0.3571428571428572
 40
0.3571428571428572
 40
0.3571428571428572
 40
0.4285714285714285
 40
0.4285714285714285
 40
0.4285714285714285
 40
0.4285714285714285
 40
0.5
 40
0.5
 40
0.5
 40
0.5
 40
0.5714285714285714
 40
0.5714285714285714
 40
0.5714285714285714
 40
0.5714285714285714
 40
0.6428571428571429
 40
0.6428571428571429
 40
0.6428571428571429
 40
0.6428571428571429
 40
0.7142857142857143
 40
0.7142857142857143
 40
0.7142857142857143
 40
0.7142857142857143
 40
0.7857142857142857
 40
0.7857142857142857
 40
0.7857142857142857
 40
0.7857142857142857
 40
0.8571428571428571
 40
0.8571428571428571
 40
0.8571428571428571
 40
0.8571428571428571
 40
1.0
 40
1.0
 40
1.0
 40
1.0
 10
-180.4722
 20
73.3812
 30
0.0
 10
-181.8579
 20
71.8562
 30
0.0
 10
-180.7716
 20
69.8091
 30
0.0
 10
-180.6951
 20
68.0404
 30
0.0
 10
-180.6951
 20
68.0404
 30
0.0
 10
-180.6672
 20
65.5963
 30
0.0
 10
-179.01
 20
63.1311
 30
0.0
 10
-176.5588
 20
62.5882
 30
0.0
 10
-176.5588
 20
62.5882
 30
0.0
 10
-173.279
 20
62.5115
 30
0.0
 10
-170.062
 20
64.1758
 30
0.0
 10
-166.7822
 20
63.2636
 30
0.0
 10
-166.7822
 20
63.2636
 30
0.0
 10
-166.7891
 20
62.8944
 30
0.0
 10
-166.817
 20
62.1493
 30
0.0
 10
-166.8241
 20
61.7804
 30
0.0
 10
-166.8241
 20
61.7804
 30
0.0
 10
-170.2708
 20
60.6661
 30
0.0
 10
-174.5184
 20
61.8499
 30
0.0
 10
-177.2551
 20
58.9461
 30
0.0
 10
-177.2551
 20
58.9461
 30
0.0
 10
-178.9193
 20
57.3863
 30
0.0
 10
-178.5502
 20
55.0467
 30
0.0
 10
-177.6659
 20
53.1875
 30
0.0
 10
-177.6659
 20
53.1875
 30
0.0
 10
-176.141
 20
52.5399
 30
0.0
 10
-174.6578
 20
51.781
 30
0.0
 10
-173.1118
 20
51.1821
 30
0.0
 10
-173.1118
 20
51.1821
 30
0.0
 10
-172.2623
 20
52.4355
 30
0.0
 10
-172.0603
 20
54.622
 30
0.0
 10
-170.1595
 20
54.6498
 30
0.0
 10
-170.1595
 20
54.6498
 30
0.0
 10
-167.4715
 20
54.9839
 30
0.0
 10
-164.0735
 20
55.764
 30
0.0
 10
-163.1751
 20
58.7095
 30
0.0
 10
-163.1751
 20
58.7095
 30
0.0
 10
-163.2865
 20
60.6661
 30
0.0
 10
-163.8087
 20
62.5951
 30
0.0
 10
-163.5093
 20
64.5658
 30
0.0
 10
-163.5093
 20
64.5658
 30
0.0
 10
-162.9801
 20
67.3233
 30
0.0
 10
-165.2224
 20
69.7673
 30
0.0
 10
-167.6456
 20
70.6726
 30
0.0
 10
-167.6456
 20
70.6726
 30
0.0
 10
-170.7303
 20
71.8912
 30
0.0
 10
-174.0867
 20
71.181
 30
0.0
 10
-177.2968
 20
71.3689
 30
0.0
 10
-177.2968
 20
71.3689
 30
0.0
 10
-178.6617
 20
71.4595
 30
0.0
 10
-179.2047
 20
73.1097
 30
0.0
 10
-180.4722
 20
73.3812
 30
0.0
  0
SPLINE
  5
64
330
1F
100
AcDbEntity
  8
layer 1
 62
   250
100
AcDbSpline
210
0.0
220
0.0
230
1.0
 70
    11
 71
     3
 72
    32
 73
    28
 74
     0
 42
0.0000000001
 43
0.0000000001
 12
1.0
 22
0.0
 32
0.0
 13
1.0
 23
0.0
 33
0.0
 40
0.0
 40
0.0
 40
0.0
 40
0.0
 40
0.125
 40
0.125
 40
0.125
 40
0.125
 40
0.25
 40
0.25
 40
0.25
 40
0.25
 40
0.375
 40
0.375
 40
0.375
 40
0.375
 40
0.5
 40
0.5
 40
0.5
 40
0.5
 40
0.625
 40
0.625
 40
0.625
 40
0.625
 40
0.75
 40
0.75
 40
0.75
 40
0.75
 40
1.0
 40
1.0
 40
1.0
 40
1.0
 10
-142.9187
 20
66.4528
 30
0.0
 10
-146.6441
 20
62.5254
 30
0.0
 10
-151.6785
 20
59.5033
 30
0.0
 10
-153.6911
 20
54.239
 30
0.0
 10
-153.6911
 20
54.239
 30
0.0
 10
-155.028
 20
50.4926
 30
0.0
 10
-155.8287
 20
46.5095
 30
0.0
 10
-155.766
 20
42.5195
 30
0.0
 10
-155.766
 20
42.5195
 30
0.0
 10
-154.2203
 20
44.8522
 30
0.0
 10
-154.0462
 20
47.8604
 30
0.0
 10
-152.1661
 20
50.0052
 30
0.0
 10
-152.1661
 20
50.0052
 30
0.0
 10
-149.4783
 20
53.5286
 30
0.0
 10
-145.0913
 20
54.9214
 30
0.0
 10
-141.714
 20
57.5883
 30
0.0
 10
-141.714
 20
57.5883
 30
0.0
 10
-139.43
 20
59.2456
 30
0.0
 10
-139.0818
 20
62.2121
 30
0.0
 10
-137.5011
 20
64.3846
 30
0.0
 10
-137.5011
 20
64.3846
 30
0.0
 10
-135.7254
 20
66.9889
 30
0.0
 10
-137.0973
 20
70.2408
 30
0.0
 10
-137.6612
 20
73.0193
 30
0.0
 10
-137.6612
 20
73.0193
 30
0.0
 10
-139.2907
 20
70.7353
 30
0.0
 10
-140.8991
 20
68.4235
 30
0.0
 10
-142.9187
 20
66.4528
 30
0.0
  0
SPLINE
  5
65
330
1F
100
AcDbEntity
  8
layer 1
 62
   250
100
AcDbSpline
210
0.0
220
0.0
230
1.0
 70
    11
 71
     3
 72
    20
 73
    16
 74
     0
 42
0.0000000001
 43
0.0000000001
 12
1.0
 22
0.0
 32
0.0
 13
1.0
 23
0.0
 33
0.0
 40
0.0
 40
0.0
 40
0.0
 40
0.0
 40
0.2
 40
0.2
 40
0.2
 40
0.2
 40
0.4
 40
0.4
 40
0.4
 40
0.4
 40
0.6
 40
0.6
 40
0.6
 40
0.6
 40
1.0
 40
1.0
 40
1.0
 40
1.0
 10
-90.4148
 20
71.3829
 30
0.0
 10
-91.4732
 20
68.9943
 30
0.0
 10
-90.0038
 20
66.7313
 30
0.0
 10
-89.217
 20
64.517
 30
0.0
 10
-89.217
 20
64.517
 30
0.0
 10
-86.9399
 20
64.8721
 30
0.0
 10
-84.4262
 20
65.8817
 30
0.0
 10
-83.9318
 20
68.4164
 30
0.0
 10
-83.9318
 20
68.4164
 30
0.0
 10
-85.1574
 20
69.1337
 30
0.0
 10
-86.1461
 20
70.1224
 30
0.0
 10
-86.724
 20
71.4246
 30
0.0
 10
-86.724
 20
71.4246
 30
0.0
 10
-87.9567
 20
71.4036
 30
0.0
 10
-89.1892
 20
71.3898
 30
0.0
 10
-90.4148
 20
71.3829
 30
0.0
  0
SPLINE
  5
66
330
1F
100
AcDbEntity
  8
layer 1
 62
   250
100
AcDbSpline
210
0.0
220
0.0
230
1.0
 70
    11
 71
     3
 72
    24
 73
    20
 74
     0
 42
0.0000000001
 43
0.0000000001
 12
1.0
 22
0.0
 32
0.0
 13
1.0
 23
0.0
 33
0.0
 40
0.0
 40
0.0
 40
0.0
 40
0.0
 40
0.1666666666666667
 40
0.1666666666666667
 40
0.1666666666666667
 40
0.1666666666666667
 40
0.3333333333333333
 40
0.3333333333333333
 40
0.3333333333333333
 40
0.3333333333333333
 40
0.5
 40
0.5
 40
0.5
 40
0.5
 40
0.6666666666666666
 40
0.6666666666666666
 40
0.6666666666666666
 40
0.6666666666666666
 40
1.0
 40
1.0
 40
1.0
 40
1.0
 10
-60.8343
 20
71.0416
 30
0.0
 10
-62.6378
 20
68.3189
 30
0.0
 10
-62.415
 20
64.9278
 30
0.0
 10
-62.0249
 20
61.836
 30
0.0
 10
-62.0249
 20
61.836
 30
0.0
 10
-61.3773
 20
57.2611
 30
0.0
 10
-60.0613
 20
52.5956
 30
0.0
 10
-57.1853
 20
48.8981
 30
0.0
 10
-57.1853
 20
48.8981
 30
0.0
 10
-55.716
 20
46.9761
 30
0.0
 10
-53.4251
 20
46.0221
 30
0.0
 10
-51.3083
 20
44.9847
 30
0.0
 10
-51.3083
 20
44.9847
 30
0.0
 10
-52.7846
 20
51.9063
 30
0.0
 10
-54.0588
 20
59.0089
 30
0.0
 10
-53.0979
 20
66.0977
 30
0.0
 10
-53.0979
 20
66.0977
 30
0.0
 10
-55.6882
 20
67.734
 30
0.0
 10
-57.9861
 20
69.8508
 30
0.0
 10
-60.8343
 20
71.0416
 30
0.0
  0
SPLINE
  5
67
330
1F
100
AcDbEntity
  8
layer 1
 62
   250
100
AcDbSpline
210
0.0
220
0.0
230
1.0
 70
    11
 71
     3
 72
    40
 73
    36
 74
     0
 42
0.0000000001
 43
0.0000000001
 12
1.0
 22
0.0
 32
0.0
 13
1.0
 23
0.0
 33
0.0
 40
0.0
 40
0.0
 40
0.0
 40
0.0
 40
0.1
 40
0.1
 40
0.1
 40
0.1
 40
0.2
 40
0.2
 40
0.2
 40
0.2
 40
0.3
 40
0.3
 40
0.3
 40
0.3
 40
0.4
 40
0.4
 40
0.4
 40
0.4
 40
0.5
 40
0.5
 40
0.5
 40
0.5
 40
0.6
 40
0.6
 40
0.6
 40
0.6
 40
0.7
 40
0.7
 40
0.7
 40
0.7
 40
0.8
 40
0.8
 40
0.8
 40
0.8
 40
1.0
 40
1.0
 40
1.0
 40
1.0
 10
-135.0153
 20
65.7495
 30
0.0
 10
-131.4917
 20
66.5712
 30
0.0
 10
-127.7733
 20
67.4067
 30
0.0
 10
-124.2081
 20
66.2508
 30
0.0
 10
-124.2081
 20
66.2508
 30
0.0
 10
-120.0788
 20
65.3316
 30
0.0
 10
-118.1011
 20
59.8723
 30
0.0
 10
-120.2666
 20
56.3768
 30
0.0
 10
-120.2666
 20
56.3768
 30
0.0
 10
-121.2834
 20
54.9702
 30
0.0
 10
-123.2401
 20
55.4297
 30
0.0
 10
-124.7163
 20
55.3462
 30
0.0
 10
-124.7163
 20
55.3462
 30
0.0
 10
-124.1244
 20
57.3376
 30
0.0
 10
-123.5464
 20
59.5521
 30
0.0
 10
-125.0296
 20
61.3138
 30
0.0
 10
-125.0296
 20
61.3138
 30
0.0
 10
-127.0559
 20
60.513
 30
0.0
 10
-129.8344
 20
59.6635
 30
0.0
 10
-129.4724
 20
56.8921
 30
0.0
 10
-129.4724
 20
56.8921
 30
0.0
 10
-128.3025
 20
53.6123
 30
0.0
 10
-124.1244
 20
52.4565
 30
0.0
 10
-121.1093
 20
53.7377
 30
0.0
 10
-121.1093
 20
53.7377
 30
0.0
 10
-117.6972
 20
55.4925
 30
0.0
 10
-116.9103
 20
60.1579
 30
0.0
 10
-118.5538
 20
63.3959
 30
0.0
 10
-118.5538
 20
63.3959
 30
0.0
 10
-120.4686
 20
67.6018
 30
0.0
 10
-125.7191
 20
68.9734
 30
0.0
 10
-129.9667
 20
68.5417
 30
0.0
 10
-129.9667
 20
68.5417
 30
0.0
 10
-131.8817
 20
68.2354
 30
0.0
 10
-134.5695
 20
68.1031
 30
0.0
 10
-135.0153
 20
65.7495
 30
0.0
  0
SPLINE
  5
68
330
1F
100
AcDbEntity
  8
layer 1
 62
   250
100
AcDbSpline
210
0.0
220
0.0
230
1.0
 70
    11
 71
     3
 72
    16
 73
    12
 74
     0
 42
0.0000000001
 43
0.0000000001
 12
1.0
 22
0.0
 32
0.0
 13
1.0
 23
0.0
 33
0.0
 40
0.0
 40
0.0
 40
0.0
 40
0.0
 40
0.25
 40
0.25
 40
0.25
 40
0.25
 40
0.5
 40
0.5
 40
0.5
 40
0.5
 40
1.0
 40
1.0
 40
1.0
 40
1.0
 10
-72.5397
 20
63.8694
 30
0.0
 10
-71.4324
 20
62.2121
 30
0.0
 10
-69.7194
 20
61.2094
 30
0.0
 10
-67.8881
 20
60.527
 30
0.0
 10
-67.8881
 20
60.527
 30
0.0
 10
-67.0107
 20
62.3584
 30
0.0
 10
-66.3006
 20
64.3151
 30
0.0
 10
-66.5929
 20
66.3762
 30
0.0
 10
-66.5929
 20
66.3762
 30
0.0
 10
-69.0718
 20
67.0098
 30
0.0
 10
-70.945
 20
65.5614
 30
0.0
 10
-72.5397
 20
63.8694
 30
0.0
  0
SPLINE
  5
69
330
1F
100
AcDbEntity
  8
layer 1
 62
   250
100
AcDbSpline
210
0.0
220
0.0
230
1.0
 70
    11
 71
     3
 72
    16
 73
    12
 74
     0
 42
0.0000000001
 43
0.0000000001
 12
1.0
 22
0.0
 32
0.0
 13
1.0
 23
0.0
 33
0.0
 40
0.0
 40
0.0
 40
0.0
 40
0.0
 40
0.25
 40
0.25
 40
0.25
 40
0.25
 40
0.5
 40
0.5
 40
0.5
 40
0.5
 40
1.0
 40
1.0
 40
1.0
 40
1.0
 10
-179.8455
 20
53.5636
 30
0.0
 10
-180.1659
 20
56.4393
 30
0.0
 10
-179.3929
 20
59.4059
 30
0.0
 10
-176.9208
 20
61.1327
 30
0.0
 10
-176.9208
 20
61.1327
 30
0.0
 10
-179.1631
 20
61.9962
 30
0.0
 10
-180.9736
 20
63.5838
 30
0.0
 10
-182.2688
 20
65.5963
 30
0.0
 10
-182.2688
 20
65.5963
 30
0.0
 10
-185.6212
 20
62.2905
 30
0.0
 10
-185.6272
 20
54.5932
 30
0.0
 10
-179.8455
 20
53.5636
 30
0.0
  0
SPLINE
  5
6A
330
1F
100
AcDbEntity
  8
layer 1
 62
   250
100
AcDbSpline
210
0.0
220
0.0
230
1.0
 70
    11
 71
     3
 72
    20
 73
    16
 74
     0
 42
0.0000000001
 43
0.0000000001
 12
1.0
 22
0.0
 32
0.0
 13
1.0
 23
0.0
 33
0.0
 40
0.0
 40
0.0
 40
0.0
 40
0.0
 40
0.2
 40
0.2
 40
0.2
 40
0.2
 40
0.4
 40
0.4
 40
0.4
 40
0.4
 40
0.6
 40
0.6
 40
0.6
 40
0.6
 40
1.0
 40
1.0
 40
1.0
 40
1.0
 10
-136.7907
 20
62.5325
 30
0.0
 10
-137.5847
 20
61.2372
 30
0.0
 10
-138.1695
 20
59.8235
 30
0.0
 10
-138.8659
 20
58.4657
 30
0.0
 10
-138.8659
 20
58.4657
 30
0.0
 10
-136.8326
 20
58.4797
 30
0.0
 10
-134.7993
 20
58.2569
 30
0.0
 10
-132.8426
 20
57.6789
 30
0.0
 10
-132.8426
 20
57.6789
 30
0.0
 10
-131.9861
 20
59.4059
 30
0.0
 10
-131.3454
 20
61.2372
 30
0.0
 10
-131.1575
 20
63.1592
 30
0.0
 10
-131.1575
 20
63.1592
 30
0.0
 10
-133.0376
 20
63.1592
 30
0.0
 10
-135.0221
 20
63.3402
 30
0.0
 10
-136.7907
 20
62.5325
 30
0.0
  0
SPLINE
  5
6B
330
1F
100
AcDbEntity
  8
layer 1
 62
   250
100
AcDbSpline
210
0.0
220
0.0
230
1.0
 70
    11
 71
     3
 72
    24
 73
    20
 74
     0
 42
0.0000000001
 43
0.0000000001
 12
1.0
 22
0.0
 32
0.0
 13
1.0
 23
0.0
 33
0.0
 40
0.0
 40
0.0
 40
0.0
 40
0.0
 40
0.1666666666666667
 40
0.1666666666666667
 40
0.1666666666666667
 40
0.1666666666666667
 40
0.3333333333333333
 40
0.3333333333333333
 40
0.3333333333333333
 40
0.3333333333333333
 40
0.5
 40
0.5
 40
0.5
 40
0.5
 40
0.6666666666666666
 40
0.6666666666666666
 40
0.6666666666666666
 40
0.6666666666666666
 40
1.0
 40
1.0
 40
1.0
 40
1.0
 10
-145.3211
 20
53.5286
 30
0.0
 10
-148.6774
 20
51.1821
 30
0.0
 10
-152.0685
 20
48.2017
 30
0.0
 10
-153.1409
 20
44.0864
 30
0.0
 10
-153.1409
 20
44.0864
 30
0.0
 10
-150.9264
 20
46.2729
 30
0.0
 10
-149.1369
 20
48.9676
 30
0.0
 10
-146.2401
 20
50.3464
 30
0.0
 10
-146.2401
 20
50.3464
 30
0.0
 10
-141.7696
 20
53.1319
 30
0.0
 10
-136.4078
 20
53.487
 30
0.0
 10
-131.2828
 20
53.1039
 30
0.0
 10
-131.2828
 20
53.1039
 30
0.0
 10
-131.9861
 20
54.3503
 30
0.0
 10
-132.8078
 20
55.5202
 30
0.0
 10
-133.7131
 20
56.6274
 30
0.0
 10
-133.7131
 20
56.6274
 30
0.0
 10
-137.8841
 20
57.9434
 30
0.0
 10
-141.9647
 20
55.8407
 30
0.0
 10
-145.3211
 20
53.5286
 30
0.0
  0
SPLINE
  5
6C
330
1F
100
AcDbEntity
  8
layer 1
 62
   250
100
AcDbSpline
210
0.0
220
0.0
230
1.0
 70
    11
 71
     3
 72
    52
 73
    48
 74
     0
 42
0.0000000001
 43
0.0000000001
 12
1.0
 22
0.0
 32
0.0
 13
1.0
 23
0.0
 33
0.0
 40
0.0
 40
0.0
 40
0.0
 40
0.0
 40
0.0769230769230769
 40
0.0769230769230769
 40
0.0769230769230769
 40
0.0769230769230769
 40
0.1538461538461539
 40
0.1538461538461539
 40
0.1538461538461539
 40
0.1538461538461539
 40
0.2307692307692308
 40
0.2307692307692308
 40
0.2307692307692308
 40
0.2307692307692308
 40
0.3076923076923077
 40
0.3076923076923077
 40
0.3076923076923077
 40
0.3076923076923077
 40
0.3846153846153846
 40
0.3846153846153846
 40
0.3846153846153846
 40
0.3846153846153846
 40
0.4615384615384616
 40
0.4615384615384616
 40
0.4615384615384616
 40
0.4615384615384616
 40
0.5384615384615384
 40
0.5384615384615384
 40
0.5384615384615384
 40
0.5384615384615384
 40
0.6153846153846154
 40
0.6153846153846154
 40
0.6153846153846154
 40
0.6153846153846154
 40
0.6923076923076923
 40
0.6923076923076923
 40
0.6923076923076923
 40
0.6923076923076923
 40
0.7692307692307693
 40
0.7692307692307693
 40
0.7692307692307693
 40
0.7692307692307693
 40
0.8461538461538461
 40
0.8461538461538461
 40
0.8461538461538461
 40
0.8461538461538461
 40
1.0
 40
1.0
 40
1.0
 40
1.0
 10
-64.9705
 20
55.5063
 30
0.0
 10
-64.2044
 20
54.1762
 30
0.0
 10
-63.2993
 20
52.9091
 30
0.0
 10
-62.958
 20
51.3771
 30
0.0
 10
-62.958
 20
51.3771
 30
0.0
 10
-61.8509
 20
47.2546
 30
0.0
 10
-58.9958
 20
43.4597
 30
0.0
 10
-54.9083
 20
41.9347
 30
0.0
 10
-54.9083
 20
41.9347
 30
0.0
 10
-54.6926
 20
41.2939
 30
0.0
 10
-54.4835
 20
40.6394
 30
0.0
 10
-54.2678
 20
39.9918
 30
0.0
 10
-54.2678
 20
39.9918
 30
0.0
 10
-52.4571
 20
39.6786
 30
0.0
 10
-51.0783
 20
38.5783
 30
0.0
 10
-50.1106
 20
37.0533
 30
0.0
 10
-50.1106
 20
37.0533
 30
0.0
 10
-48.8641
 20
35.1732
 30
0.0
 10
-46.5454
 20
34.8599
 30
0.0
 10
-44.5538
 20
34.282
 30
0.0
 10
-44.5538
 20
34.282
 30
0.0
 10
-43.1054
 20
33.4115
 30
0.0
 10
-42.1375
 20
31.9212
 30
0.0
 10
-40.6751
 20
31.0509
 30
0.0
 10
-40.6751
 20
31.0509
 30
0.0
 10
-38.8995
 20
31.2807
 30
0.0
 10
-39.8048
 20
33.2583
 30
0.0
 10
-40.6891
 20
33.9895
 30
0.0
 10
-40.6891
 20
33.9895
 30
0.0
 10
-44.1917
 20
37.4084
 30
0.0
 10
-47.5969
 20
40.9945
 30
0.0
 10
-51.921
 20
43.39
 30
0.0
 10
-51.921
 20
43.39
 30
0.0
 10
-52.4781
 20
43.2438
 30
0.0
 10
-53.5923
 20
42.9512
 30
0.0
 10
-54.1493
 20
42.8121
 30
0.0
 10
-54.1493
 20
42.8121
 30
0.0
 10
-58.1671
 20
45.1448
 30
0.0
 10
-61.5792
 20
48.8632
 30
0.0
 10
-62.6657
 20
53.4729
 30
0.0
 10
-62.6657
 20
53.4729
 30
0.0
 10
-62.5124
 20
54.5385
 30
0.0
 10
-61.621
 20
55.7569
 30
0.0
 10
-62.5819
 20
56.704
 30
0.0
 10
-62.5819
 20
56.704
 30
0.0
 10
-63.5637
 20
57.0034
 30
0.0
 10
-65.3325
 20
57.0175
 30
0.0
 10
-64.9705
 20
55.5063
 30
0.0
  0
SPLINE
  5
6D
330
1F
100
AcDbEntity
  8
layer 1
 62
   250
100
AcDbSpline
210
0.0
220
0.0
230
1.0
 70
    11
 71
     3
 72
    24
 73
    20
 74
     0
 42
0.0000000001
 43
0.0000000001
 12
1.0
 22
0.0
 32
0.0
 13
1.0
 23
0.0
 33
0.0
 40
0.0
 40
0.0
 40
0.0
 40
0.0
 40
0.1666666666666667
 40
0.1666666666666667
 40
0.1666666666666667
 40
0.1666666666666667
 40
0.3333333333333333
 40
0.3333333333333333
 40
0.3333333333333333
 40
0.3333333333333333
 40
0.5
 40
0.5
 40
0.5
 40
0.5
 40
0.6666666666666666
 40
0.6666666666666666
 40
0.6666666666666666
 40
0.6666666666666666
 40
1.0
 40
1.0
 40
1.0
 40
1.0
 10
-170.8209
 20
52.2683
 30
0.0
 10
-170.7931
 20
47.3731
 30
0.0
 10
-167.959
 20
42.9861
 30
0.0
 10
-164.6305
 20
39.595
 30
0.0
 10
-164.6305
 20
39.595
 30
0.0
 10
-162.4927
 20
37.5547
 30
0.0
 10
-161.9774
 20
34.4211
 30
0.0
 10
-159.8675
 20
32.374
 30
0.0
 10
-159.8675
 20
32.374
 30
0.0
 10
-160.3967
 20
35.7442
 30
0.0
 10
-162.2002
 20
38.8359
 30
0.0
 10
-162.033
 20
42.3246
 30
0.0
 10
-162.033
 20
42.3246
 30
0.0
 10
-161.9148
 20
46.5654
 30
0.0
 10
-162.3952
 20
50.7851
 30
0.0
 10
-163.1892
 20
54.9423
 30
0.0
 10
-163.1892
 20
54.9423
 30
0.0
 10
-165.6679
 20
53.8699
 30
0.0
 10
-168.2097
 20
52.9647
 30
0.0
 10
-170.8209
 20
52.2683
 30
0.0
  0
SPLINE
  5
6E
330
1F
100
AcDbEntity
  8
layer 1
 62
   250
100
AcDbSpline
210
0.0
220
0.0
230
1.0
 70
    11
 71
     3
 72
    28
 73
    24
 74
     0
 42
0.0000000001
 43
0.0000000001
 12
1.0
 22
0.0
 32
0.0
 13
1.0
 23
0.0
 33
0.0
 40
0.0
 40
0.0
 40
0.0
 40
0.0
 40
0.1428571428571428
 40
0.1428571428571428
 40
0.1428571428571428
 40
0.1428571428571428
 40
0.2857142857142857
 40
0.2857142857142857
 40
0.2857142857142857
 40
0.2857142857142857
 40
0.4285714285714285
 40
0.4285714285714285
 40
0.4285714285714285
 40
0.4285714285714285
 40
0.5714285714285714
 40
0.5714285714285714
 40
0.5714285714285714
 40
0.5714285714285714
 40
0.7142857142857143
 40
0.7142857142857143
 40
0.7142857142857143
 40
0.7142857142857143
 40
1.0
 40
1.0
 40
1.0
 40
1.0
 10
-97.8168
 20
46.4817
 30
0.0
 10
-98.3528
 20
45.0542
 30
0.0
 10
-97.1066
 20
44.2605
 30
0.0
 10
-96.0758
 20
43.6197
 30
0.0
 10
-96.0758
 20
43.6197
 30
0.0
 10
-95.3796
 20
44.5807
 30
0.0
 10
-95.2124
 20
46.4469
 30
0.0
 10
-93.6736
 20
46.2798
 30
0.0
 10
-93.6736
 20
46.2798
 30
0.0
 10
-91.8004
 20
46.1613
 30
0.0
 10
-91.5845
 20
43.7591
 30
0.0
 10
-91.5079
 20
42.2829
 30
0.0
 10
-91.5079
 20
42.2829
 30
0.0
 10
-91.2781
 20
39.9571
 30
0.0
 10
-92.9911
 20
38.1605
 30
0.0
 10
-94.0425
 20
36.2734
 30
0.0
 10
-94.0425
 20
36.2734
 30
0.0
 10
-89.6905
 20
37.9585
 30
0.0
 10
-87.8521
 20
44.6644
 30
0.0
 10
-91.5566
 20
47.9371
 30
0.0
 10
-91.5566
 20
47.9371
 30
0.0
 10
-93.2905
 20
50.0331
 30
0.0
 10
-97.5939
 20
49.5108
 30
0.0
 10
-97.8168
 20
46.4817
 30
0.0
  0
SPLINE
  5
6F
330
1F
100
AcDbEntity
  8
layer 1
 62
   250
100
AcDbSpline
210
0.0
220
0.0
230
1.0
 70
    11
 71
     3
 72
    20
 73
    16
 74
     0
 42
0.0000000001
 43
0.0000000001
 12
1.0
 22
0.0
 32
0.0
 13
1.0
 23
0.0
 33
0.0
 40
0.0
 40
0.0
 40
0.0
 40
0.0
 40
0.2
 40
0.2
 40
0.2
 40
0.2
 40
0.4
 40
0.4
 40
0.4
 40
0.4
 40
0.6
 40
0.6
 40
0.6
 40
0.6
 40
1.0
 40
1.0
 40
1.0
 40
1.0
 10
-102.3222
 20
39.1702
 30
0.0
 10
-101.2636
 20
39.6994
 30
0.0
 10
-100.2749
 20
41.4821
 30
0.0
 10
-98.9448
 20
40.5907
 30
0.0
 10
-98.9448
 20
40.5907
 30
0.0
 10
-96.7234
 20
39.8107
 30
0.0
 10
-97.6846
 20
37.1926
 30
0.0
 10
-97.7123
 20
35.4726
 30
0.0
 10
-97.7123
 20
35.4726
 30
0.0
 10
-95.2612
 20
37.5477
 30
0.0
 10
-95.1984
 20
41.8231
 30
0.0
 10
-98.3112
 20
43.2856
 30
0.0
 10
-98.3112
 20
43.2856
 30
0.0
 10
-100.7831
 20
44.9081
 30
0.0
 10
-104.2857
 20
41.5796
 30
0.0
 10
-102.3222
 20
39.1702
 30
0.0
  0
SPLINE
  5
70
330
1F
100
AcDbEntity
  8
layer 1
 62
   250
100
AcDbSpline
210
0.0
220
0.0
230
1.0
 70
    11
 71
     3
 72
    36
 73
    32
 74
     0
 42
0.0000000001
 43
0.0000000001
 12
1.0
 22
0.0
 32
0.0
 13
1.0
 23
0.0
 33
0.0
 40
0.0
 40
0.0
 40
0.0
 40
0.0
 40
0.1111111111111111
 40
0.1111111111111111
 40
0.1111111111111111
 40
0.1111111111111111
 40
0.2222222222222222
 40
0.2222222222222222
 40
0.2222222222222222
 40
0.2222222222222222
 40
0.3333333333333333
 40
0.3333333333333333
 40
0.3333333333333333
 40
0.3333333333333333
 40
0.4444444444444444
 40
0.4444444444444444
 40
0.4444444444444444
 40
0.4444444444444444
 40
0.5555555555555556
 40
0.5555555555555556
 40
0.5555555555555556
 40
0.5555555555555556
 40
0.6666666666666666
 40
0.6666666666666666
 40
0.6666666666666666
 40
0.6666666666666666
 40
0.7777777777777778
 40
0.7777777777777778
 40
0.7777777777777778
 40
0.7777777777777778
 40
1.0
 40
1.0
 40
1.0
 40
1.0
 10
-75.9796
 20
43.7451
 30
0.0
 10
-76.0771
 20
30.438
 30
0.0
 10
-75.8681
 20
17.1241
 30
0.0
 10
-76.1118
 20
3.817
 30
0.0
 10
-76.1118
 20
3.817
 30
0.0
 10
-74.162
 20
5.8364
 30
0.0
 10
-72.0313
 20
8.1832
 30
0.0
 10
-68.9396
 20
7.9185
 30
0.0
 10
-68.9396
 20
7.9185
 30
0.0
 10
-69.3016
 20
11.0311
 30
0.0
 10
-67.0107
 20
13.0784
 30
0.0
 10
-64.7058
 20
14.6729
 30
0.0
 10
-64.7058
 20
14.6729
 30
0.0
 10
-64.7058
 20
15.0142
 30
0.0
 10
-64.7058
 20
15.6896
 30
0.0
 10
-64.7058
 20
16.0239
 30
0.0
 10
-64.7058
 20
16.0239
 30
0.0
 10
-67.1013
 20
16.553
 30
0.0
 10
-69.9145
 20
17.2216
 30
0.0
 10
-71.1817
 20
19.5612
 30
0.0
 10
-71.1817
 20
19.5612
 30
0.0
 10
-72.7277
 20
22.4371
 30
0.0
 10
-72.7346
 20
25.912
 30
0.0
 10
-72.1775
 20
29.0593
 30
0.0
 10
-72.1775
 20
29.0593
 30
0.0
 10
-71.147
 20
33.3349
 30
0.0
 10
-67.352
 20
36.1412
 30
0.0
 10
-63.5568
 20
37.889
 30
0.0
 10
-63.5568
 20
37.889
 30
0.0
 10
-68.1875
 20
38.5783
 30
0.0
 10
-72.4351
 20
40.7301
 30
0.0
 10
-75.9796
 20
43.7451
 30
0.0
  0
SPLINE
  5
71
330
1F
100
AcDbEntity
  8
layer 1
 62
   250
100
AcDbSpline
210
0.0
220
0.0
230
1.0
 70
    11
 71
     3
 72
    24
 73
    20
 74
     0
 42
0.0000000001
 43
0.0000000001
 12
1.0
 22
0.0
 32
0.0
 13
1.0
 23
0.0
 33
0.0
 40
0.0
 40
0.0
 40
0.0
 40
0.0
 40
0.1666666666666667
 40
0.1666666666666667
 40
0.1666666666666667
 40
0.1666666666666667
 40
0.3333333333333333
 40
0.3333333333333333
 40
0.3333333333333333
 40
0.3333333333333333
 40
0.5
 40
0.5
 40
0.5
 40
0.5
 40
0.6666666666666666
 40
0.6666666666666666
 40
0.6666666666666666
 40
0.6666666666666666
 40
1.0
 40
1.0
 40
1.0
 40
1.0
 10
-109.4735
 20
35.6398
 30
0.0
 10
-109.7729
 20
34.5117
 30
0.0
 10
-108.9093
 20
33.5856
 30
0.0
 10
-108.046
 20
33.0077
 30
0.0
 10
-108.046
 20
33.0077
 30
0.0
 10
-107.6909
 20
34.8599
 30
0.0
 10
-106.3259
 20
37.0116
 30
0.0
 10
-104.1742
 20
36.6773
 30
0.0
 10
-104.1742
 20
36.6773
 30
0.0
 10
-102.4266
 20
36.5172
 30
0.0
 10
-102.2733
 20
34.2261
 30
0.0
 10
-100.6509
 20
33.7944
 30
0.0
 10
-100.6509
 20
33.7944
 30
0.0
 10
-101.006
 20
35.1523
 30
0.0
 10
-101.382
 20
36.6494
 30
0.0
 10
-102.5936
 20
37.5059
 30
0.0
 10
-102.5936
 20
37.5059
 30
0.0
 10
-104.6409
 20
39.5323
 30
0.0
 10
-108.798
 20
38.4877
 30
0.0
 10
-109.4735
 20
35.6398
 30
0.0
  0
SPLINE
  5
72
330
1F
100
AcDbEntity
  8
layer 1
 62
   250
100
AcDbSpline
210
0.0
220
0.0
230
1.0
 70
    11
 71
     3
 72
   168
 73
   164
 74
     0
 42
0.0000000001
 43
0.0000000001
 12
1.0
 22
0.0
 32
0.0
 13
1.0
 23
0.0
 33
0.0
 40
0.0
 40
0.0
 40
0.0
 40
0.0
 40
0.0238095238095238
 40
0.0238095238095238
 40
0.0238095238095238
 40
0.0238095238095238
 40
0.0476190476190476
 40
0.0476190476190476
 40
0.0476190476190476
 40
0.0476190476190476
 40
0.0714285714285714
 40
0.0714285714285714
 40
0.0714285714285714
 40
0.0714285714285714
 40
0.0952380952380952
 40
0.0952380952380952
 40
0.0952380952380952
 40
0.0952380952380952
 40
0.119047619047619
 40
0.119047619047619
 40
0.119047619047619
 40
0.119047619047619
 40
0.1428571428571428
 40
0.1428571428571428
 40
0.1428571428571428
 40
0.1428571428571428
 40
0.1666666666666667
 40
0.1666666666666667
 40
0.1666666666666667
 40
0.1666666666666667
 40
0.1904761904761905
 40
0.1904761904761905
 40
0.1904761904761905
 40
0.1904761904761905
 40
0.2142857142857143
 40
0.2142857142857143
 40
0.2142857142857143
 40
0.2142857142857143
 40
0.2380952380952381
 40
0.2380952380952381
 40
0.2380952380952381
 40
0.2380952380952381
 40
0.2619047619047619
 40
0.2619047619047619
 40
0.2619047619047619
 40
0.2619047619047619
 40
0.2857142857142857
 40
0.2857142857142857
 40
0.2857142857142857
 40
0.2857142857142857
 40
0.3095238095238095
 40
0.3095238095238095
 40
0.3095238095238095
 40
0.3095238095238095
 40
0.3333333333333333
 40
0.3333333333333333
 40
0.3333333333333333
 40
0.3333333333333333
 40
0.3571428571428572
 40
0.3571428571428572
 40
0.3571428571428572
 40
0.3571428571428572
 40
0.3809523809523809
 40
0.3809523809523809
 40
0.3809523809523809
 40
0.3809523809523809
 40
0.4047619047619048
 40
0.4047619047619048
 40
0.4047619047619048
 40
0.4047619047619048
 40
0.4285714285714285
 40
0.4285714285714285
 40
0.4285714285714285
 40
0.4285714285714285
 40
0.4523809523809524
 40
0.4523809523809524
 40
0.4523809523809524
 40
0.4523809523809524
 40
0.4761904761904762
 40
0.4761904761904762
 40
0.4761904761904762
 40
0.4761904761904762
 40
0.5
 40
0.5
 40
0.5
 40
0.5
 40
0.5238095238095238
 40
0.5238095238095238
 40
0.5238095238095238
 40
0.5238095238095238
 40
0.5476190476190477
 40
0.5476190476190477
 40
0.5476190476190477
 40
0.5476190476190477
 40
0.5714285714285714
 40
0.5714285714285714
 40
0.5714285714285714
 40
0.5714285714285714
 40
0.5952380952380952
 40
0.5952380952380952
 40
0.5952380952380952
 40
0.5952380952380952
 40
0.6190476190476191
 40
0.6190476190476191
 40
0.6190476190476191
 40
0.6190476190476191
 40
0.6428571428571429
 40
0.6428571428571429
 40
0.6428571428571429
 40
0.6428571428571429
 40
0.6666666666666666
 40
0.6666666666666666
 40
0.6666666666666666
 40
0.6666666666666666
 40
0.6904761904761905
 40
0.6904761904761905
 40
0.6904761904761905
 40
0.6904761904761905
 40
0.7142857142857143
 40
0.7142857142857143
 40
0.7142857142857143
 40
0.7142857142857143
 40
0.7380952380952381
 40
0.7380952380952381
 40
0.7380952380952381
 40
0.7380952380952381
 40
0.7619047619047619
 40
0.7619047619047619
 40
0.7619047619047619
 40
0.7619047619047619
 40
0.7857142857142857
 40
0.7857142857142857
 40
0.7857142857142857
 40
0.7857142857142857
 40
0.8095238095238095
 40
0.8095238095238095
 40
0.8095238095238095
 40
0.8095238095238095
 40
0.8333333333333334
 40
0.8333333333333334
 40
0.8333333333333334
 40
0.8333333333333334
 40
0.8571428571428571
 40
0.8571428571428571
 40
0.8571428571428571
 40
0.8571428571428571
 40
0.8809523809523809
 40
0.8809523809523809
 40
0.8809523809523809
 40
0.8809523809523809
 40
0.9047619047619048
 40
0.9047619047619048
 40
0.9047619047619048
 40
0.9047619047619048
 40
0.9285714285714286
 40
0.9285714285714286
 40
0.9285714285714286
 40
0.9285714285714286
 40
0.9523809523809523
 40
0.9523809523809523
 40
0.9523809523809523
 40
0.9523809523809523
 40
1.0
 40
1.0
 40
1.0
 40
1.0
 10
-106.897
 20
27.0051
 30
0.0
 10
-110.5459
 20
21.8382
 30
0.0
 10
-112.7183
 20
15.8429
 30
0.0
 10
-114.7169
 20
9.8892
 30
0.0
 10
-114.7169
 20
9.8892
 30
0.0
 10
-111.9594
 20
12.6396
 30
0.0
 10
-109.4385
 20
16.0309
 30
0.0
 10
-105.5392
 20
17.1938
 30
0.0
 10
-105.5392
 20
17.1938
 30
0.0
 10
-101.382
 20
18.0293
 30
0.0
 10
-96.4798
 20
15.2509
 30
0.0
 10
-96.0063
 20
10.8014
 30
0.0
 10
-96.0063
 20
10.8014
 30
0.0
 10
-95.8391
 20
8.2039
 30
0.0
 10
-94.3281
 20
5.4186
 30
0.0
 10
-95.5466
 20
2.9048
 30
0.0
 10
-95.5466
 20
2.9048
 30
0.0
 10
-98.1653
 20
-0.5536
 30
0.0
 10
-106.1473
 20
-3.7772
 30
0.0
 10
-110.9591
 20
-2.1518
 30
0.0
 10
-110.9591
 20
-2.1518
 30
0.0
 10
-109.3231
 20
-1.1005
 30
0.0
 10
-107.6295
 20
0.2065
 30
0.0
 10
-105.7285
 20
1.6618
 30
0.0
 10
-105.7285
 20
1.6618
 30
0.0
 10
-106.1395
 20
2.0657
 30
0.0
 10
-107.0989
 20
2.1319
 30
0.0
 10
-107.5097
 20
2.5358
 30
0.0
 10
-107.5097
 20
2.5358
 30
0.0
 10
-109.1044
 20
0.8019
 30
0.0
 10
-112.2657
 20
0.579
 30
0.0
 10
-112.99
 20
-1.8303
 30
0.0
 10
-112.99
 20
-1.8303
 30
0.0
 10
-114.71
 20
-1.5517
 30
0.0
 10
-115.0699
 20
-1.5011
 30
0.0
 10
-116.8037
 20
-1.3063
 30
0.0
 10
-116.8037
 20
-1.3063
 30
0.0
 10
-114.7914
 20
0.3093
 30
0.0
 10
-113.9649
 20
1.8743
 30
0.0
 10
-112.1822
 20
3.7613
 30
0.0
 10
-112.1822
 20
3.7613
 30
0.0
 10
-111.4093
 20
4.3393
 30
0.0
 10
-111.2283
 20
5.2585
 30
0.0
 10
-111.2492
 20
6.1778
 30
0.0
 10
-111.2492
 20
6.1778
 30
0.0
 10
-113.1362
 20
4.5621
 30
0.0
 10
-114.7028
 20
2.6194
 30
0.0
 10
-116.6249
 20
1.0457
 30
0.0
 10
-116.6249
 20
1.0457
 30
0.0
 10
-117.3281
 20
0.5374
 30
0.0
 10
-117.7182
 20
-0.2287
 30
0.0
 10
-118.0942
 20
-0.9807
 30
0.0
 10
-118.0942
 20
-0.9807
 30
0.0
 10
-119.654
 20
-0.6604
 30
0.0
 10
-121.2416
 20
-0.3681
 30
0.0
 10
-122.8431
 20
-0.4097
 30
0.0
 10
-122.8431
 20
-0.4097
 30
0.0
 10
-123.0241
 20
-1.1617
 30
0.0
 10
-122.885
 20
-1.8441
 30
0.0
 10
-122.4323
 20
-2.457
 30
0.0
 10
-122.4323
 20
-2.457
 30
0.0
 10
-118.9019
 20
-6.8161
 30
0.0
 10
-114.515
 20
-10.7085
 30
0.0
 10
-108.9024
 20
-12.0038
 30
0.0
 10
-108.9024
 20
-12.0038
 30
0.0
 10
-109.1878
 20
-13.7376
 30
0.0
 10
-108.8119
 20
-15.7918
 30
0.0
 10
-110.1211
 20
-17.1776
 30
0.0
 10
-110.1211
 20
-17.1776
 30
0.0
 10
-110.9079
 20
-18.1942
 30
0.0
 10
-111.9385
 20
-19.378
 30
0.0
 10
-111.3953
 20
-20.7568
 30
0.0
 10
-111.3953
 20
-20.7568
 30
0.0
 10
-111.2492
 20
-21.9405
 30
0.0
 10
-109.9539
 20
-22.1981
 30
0.0
 10
-109.1044
 20
-22.7204
 30
0.0
 10
-109.1044
 20
-22.7204
 30
0.0
 10
-109.2437
 20
-21.5645
 30
0.0
 10
-109.571
 20
-20.4154
 30
0.0
 10
-109.4873
 20
-19.2457
 30
0.0
 10
-109.4873
 20
-19.2457
 30
0.0
 10
-108.7006
 20
-16.9547
 30
0.0
 10
-106.0127
 20
-16.7389
 30
0.0
 10
-104.0489
 20
-16.0842
 30
0.0
 10
-104.0489
 20
-16.0842
 30
0.0
 10
-104.077
 20
-15.75
 30
0.0
 10
-104.1326
 20
-15.0885
 30
0.0
 10
-104.1604
 20
-14.7542
 30
0.0
 10
-104.1604
 20
-14.7542
 30
0.0
 10
-105.5182
 20
-14.9145
 30
0.0
 10
-106.6951
 20
-15.6456
 30
0.0
 10
-107.8719
 20
-16.2792
 30
0.0
 10
-107.8719
 20
-16.2792
 30
0.0
 10
-107.8301
 20
-14.8867
 30
0.0
 10
-107.7953
 20
-13.5008
 30
0.0
 10
-107.7604
 20
-12.1151
 30
0.0
 10
-107.7604
 20
-12.1151
 30
0.0
 10
-105.7411
 20
-12.2474
 30
0.0
 10
-103.7216
 20
-12.2684
 30
0.0
 10
-101.6954
 20
-12.2474
 30
0.0
 10
-101.6954
 20
-12.2474
 30
0.0
 10
-101.1104
 20
-13.6124
 30
0.0
 10
-100.5255
 20
-14.977
 30
0.0
 10
-99.9267
 20
-16.3349
 30
0.0
 10
-99.9267
 20
-16.3349
 30
0.0
 10
-100.5674
 20
-17.4214
 30
0.0
 10
-101.2775
 20
-18.4937
 30
0.0
 10
-101.6954
 20
-19.6984
 30
0.0
 10
-101.6954
 20
-19.6984
 30
0.0
 10
-101.8556
 20
-21.0562
 30
0.0
 10
-100.3724
 20
-21.4253
 30
0.0
 10
-99.4253
 20
-21.857
 30
0.0
 10
-99.4253
 20
-21.857
 30
0.0
 10
-99.6342
 20
-20.2554
 30
0.0
 10
-100.066
 20
-18.1246
 30
0.0
 10
-98.3041
 20
-17.2053
 30
0.0
 10
-98.3041
 20
-17.2053
 30
0.0
 10
-97.009
 20
-15.8894
 30
0.0
 10
-94.0425
 20
-16.8781
 30
0.0
 10
-93.6456
 20
-14.8239
 30
0.0
 10
-93.6456
 20
-14.8239
 30
0.0
 10
-95.3238
 20
-14.225
 30
0.0
 10
-96.8488
 20
-15.409
 30
0.0
 10
-98.4851
 20
-15.5343
 30
0.0
 10
-98.4851
 20
-15.5343
 30
0.0
 10
-99.7247
 20
-14.7404
 30
0.0
 10
-99.6691
 20
-13.0482
 30
0.0
 10
-100.066
 20
-11.781
 30
0.0
 10
-100.066
 20
-11.781
 30
0.0
 10
-96.5216
 20
-10.9245
 30
0.0
 10
-92.9841
 20
-9.5874
 30
0.0
 10
-90.2335
 20
-7.1155
 30
0.0
 10
-90.2335
 20
-7.1155
 30
0.0
 10
-86.0278
 20
-3.4875
 30
0.0
 10
-84.1196
 20
2.125
 30
0.0
 10
-83.6811
 20
7.5285
 30
0.0
 10
-83.6811
 20
7.5285
 30
0.0
 10
-83.0196
 20
13.8305
 30
0.0
 10
-84.3775
 20
20.0696
 30
0.0
 10
-85.3315
 20
26.2671
 30
0.0
 10
-85.3315
 20
26.2671
 30
0.0
 10
-86.0207
 20
27.994
 30
0.0
 10
-83.8134
 20
28.2516
 30
0.0
 10
-83.2703
 20
29.5328
 30
0.0
 10
-83.2703
 20
29.5328
 30
0.0
 10
-84.3775
 20
29.6931
 30
0.0
 10
-85.4846
 20
29.8323
 30
0.0
 10
-86.5917
 20
29.9367
 30
0.0
 10
-86.5917
 20
29.9367
 30
0.0
 10
-85.6518
 20
31.3154
 30
0.0
 10
-84.4053
 20
32.4226
 30
0.0
 10
-83.1519
 20
33.509
 30
0.0
 10
-83.1519
 20
33.509
 30
0.0
 10
-84.3287
 20
33.3767
 30
0.0
 10
-85.5125
 20
33.0355
 30
0.0
 10
-86.7032
 20
33.1955
 30
0.0
 10
-86.7032
 20
33.1955
 30
0.0
 10
-88.3396
 20
33.8851
 30
0.0
 10
-89.7881
 20
35.1941
 30
0.0
 10
-91.6332
 20
35.2776
 30
0.0
 10
-91.6332
 20
35.2776
 30
0.0
 10
-97.768
 20
35.6886
 30
0.0
 10
-103.6938
 20
32.1303
 30
0.0
 10
-106.897
 20
27.0051
 30
0.0
  0
SPLINE
  5
73
330
1F
100
AcDbEntity
  8
layer 1
 62
   250
100
AcDbSpline
210
0.0
220
0.0
230
1.0
 70
    11
 71
     3
 72
    68
 73
    64
 74
     0
 42
0.0000000001
 43
0.0000000001
 12
1.0
 22
0.0
 32
0.0
 13
1.0
 23
0.0
 33
0.0
 40
0.0
 40
0.0
 40
0.0
 40
0.0
 40
0.0588235294117647
 40
0.0588235294117647
 40
0.0588235294117647
 40
0.0588235294117647
 40
0.1176470588235294
 40
0.1176470588235294
 40
0.1176470588235294
 40
0.1176470588235294
 40
0.1764705882352941
 40
0.1764705882352941
 40
0.1764705882352941
 40
0.1764705882352941
 40
0.2352941176470588
 40
0.2352941176470588
 40
0.2352941176470588
 40
0.2352941176470588
 40
0.2941176470588235
 40
0.2941176470588235
 40
0.2941176470588235
 40
0.2941176470588235
 40
0.3529411764705883
 40
0.3529411764705883
 40
0.3529411764705883
 40
0.3529411764705883
 40
0.4117647058823529
 40
0.4117647058823529
 40
0.4117647058823529
 40
0.4117647058823529
 40
0.4705882352941176
 40
0.4705882352941176
 40
0.4705882352941176
 40
0.4705882352941176
 40
0.5294117647058824
 40
0.5294117647058824
 40
0.5294117647058824
 40
0.5294117647058824
 40
0.5882352941176471
 40
0.5882352941176471
 40
0.5882352941176471
 40
0.5882352941176471
 40
0.6470588235294118
 40
0.6470588235294118
 40
0.6470588235294118
 40
0.6470588235294118
 40
0.7058823529411765
 40
0.7058823529411765
 40
0.7058823529411765
 40
0.7058823529411765
 40
0.7647058823529411
 40
0.7647058823529411
 40
0.7647058823529411
 40
0.7647058823529411
 40
0.8235294117647058
 40
0.8235294117647058
 40
0.8235294117647058
 40
0.8235294117647058
 40
0.8823529411764706
 40
0.8823529411764706
 40
0.8823529411764706
 40
0.8823529411764706
 40
1.0
 40
1.0
 40
1.0
 40
1.0
 10
-68.6402
 20
28.4047
 30
0.0
 10
-69.5663
 20
25.4523
 30
0.0
 10
-68.8769
 20
21.511
 30
0.0
 10
-65.792
 20
20.1322
 30
0.0
 10
-65.792
 20
20.1322
 30
0.0
 10
-63.9747
 20
19.3037
 30
0.0
 10
-62.213
 20
20.7868
 30
0.0
 10
-61.5304
 20
22.3884
 30
0.0
 10
-61.5304
 20
22.3884
 30
0.0
 10
-63.1042
 20
22.9873
 30
0.0
 10
-64.8172
 20
23.809
 30
0.0
 10
-65.4022
 20
25.5288
 30
0.0
 10
-65.4022
 20
25.5288
 30
0.0
 10
-66.0148
 20
28.175
 30
0.0
 10
-64.5387
 20
31.0788
 30
0.0
 10
-62.018
 20
32.1024
 30
0.0
 10
-62.018
 20
32.1024
 30
0.0
 10
-58.3134
 20
33.8362
 30
0.0
 10
-53.8986
 20
32.9032
 30
0.0
 10
-50.5214
 20
30.8419
 30
0.0
 10
-50.5214
 20
30.8419
 30
0.0
 10
-52.318
 20
30.9953
 30
0.0
 10
-54.3581
 20
31.4686
 30
0.0
 10
-55.911
 20
30.2502
 30
0.0
 10
-55.911
 20
30.2502
 30
0.0
 10
-58.6198
 20
28.6067
 30
0.0
 10
-60.277
 20
23.8786
 30
0.0
 10
-57.0879
 20
21.8661
 30
0.0
 10
-57.0879
 20
21.8661
 30
0.0
 10
-55.6953
 20
20.6545
 30
0.0
 10
-53.843
 20
21.2813
 30
0.0
 10
-52.6312
 20
22.4093
 30
0.0
 10
-52.6312
 20
22.4093
 30
0.0
 10
-53.272
 20
23.036
 30
0.0
 10
-54.1284
 20
23.4886
 30
0.0
 10
-54.5393
 20
24.3103
 30
0.0
 10
-54.5393
 20
24.3103
 30
0.0
 10
-55.2844
 20
25.891
 30
0.0
 10
-54.2119
 20
27.7781
 30
0.0
 10
-52.7846
 20
28.5441
 30
0.0
 10
-52.7846
 20
28.5441
 30
0.0
 10
-50.7652
 20
29.2752
 30
0.0
 10
-48.3558
 20
28.767
 30
0.0
 10
-46.9839
 20
27.0609
 30
0.0
 10
-46.9839
 20
27.0609
 30
0.0
 10
-44.5607
 20
24.5541
 30
0.0
 10
-45.2223
 20
20.8008
 30
0.0
 10
-45.1874
 20
17.6395
 30
0.0
 10
-45.1874
 20
17.6395
 30
0.0
 10
-44.2127
 20
18.0851
 30
0.0
 10
-43.2377
 20
18.5238
 30
0.0
 10
-42.256
 20
18.9554
 30
0.0
 10
-42.256
 20
18.9554
 30
0.0
 10
-42.2072
 20
23.2658
 30
0.0
 10
-43.7739
 20
27.6318
 30
0.0
 10
-46.5941
 20
30.8978
 30
0.0
 10
-46.5941
 20
30.8978
 30
0.0
 10
-49.9017
 20
34.7762
 30
0.0
 10
-55.5003
 20
35.6398
 30
0.0
 10
-60.3049
 20
34.9922
 30
0.0
 10
-60.3049
 20
34.9922
 30
0.0
 10
-63.8772
 20
34.3098
 30
0.0
 10
-67.6862
 20
32.1581
 30
0.0
 10
-68.6402
 20
28.4047
 30
0.0
  0
SPLINE
  5
74
330
1F
100
AcDbEntity
  8
layer 1
 62
   250
100
AcDbSpline
210
0.0
220
0.0
230
1.0
 70
    11
 71
     3
 72
   136
 73
   132
 74
     0
 42
0.0000000001
 43
0.0000000001
 12
1.0
 22
0.0
 32
0.0
 13
1.0
 23
0.0
 33
0.0
 40
0.0
 40
0.0
 40
0.0
 40
0.0
 40
0.0294117647058824
 40
0.0294117647058824
 40
0.0294117647058824
 40
0.0294117647058824
 40
0.0588235294117647
 40
0.0588235294117647
 40
0.0588235294117647
 40
0.0588235294117647
 40
0.0882352941176471
 40
0.0882352941176471
 40
0.0882352941176471
 40
0.0882352941176471
 40
0.1176470588235294
 40
0.1176470588235294
 40
0.1176470588235294
 40
0.1176470588235294
 40
0.1470588235294118
 40
0.1470588235294118
 40
0.1470588235294118
 40
0.1470588235294118
 40
0.1764705882352941
 40
0.1764705882352941
 40
0.1764705882352941
 40
0.1764705882352941
 40
0.2058823529411765
 40
0.2058823529411765
 40
0.2058823529411765
 40
0.2058823529411765
 40
0.2352941176470588
 40
0.2352941176470588
 40
0.2352941176470588
 40
0.2352941176470588
 40
0.2647058823529412
 40
0.2647058823529412
 40
0.2647058823529412
 40
0.2647058823529412
 40
0.2941176470588235
 40
0.2941176470588235
 40
0.2941176470588235
 40
0.2941176470588235
 40
0.3235294117647059
 40
0.3235294117647059
 40
0.3235294117647059
 40
0.3235294117647059
 40
0.3529411764705883
 40
0.3529411764705883
 40
0.3529411764705883
 40
0.3529411764705883
 40
0.3823529411764706
 40
0.3823529411764706
 40
0.3823529411764706
 40
0.3823529411764706
 40
0.4117647058823529
 40
0.4117647058823529
 40
0.4117647058823529
 40
0.4117647058823529
 40
0.4411764705882353
 40
0.4411764705882353
 40
0.4411764705882353
 40
0.4411764705882353
 40
0.4705882352941176
 40
0.4705882352941176
 40
0.4705882352941176
 40
0.4705882352941176
 40
0.5
 40
0.5
 40
0.5
 40
0.5
 40
0.5294117647058824
 40
0.5294117647058824
 40
0.5294117647058824
 40
0.5294117647058824
 40
0.5588235294117647
 40
0.5588235294117647
 40
0.5588235294117647
 40
0.5588235294117647
 40
0.5882352941176471
 40
0.5882352941176471
 40
0.5882352941176471
 40
0.5882352941176471
 40
0.6176470588235294
 40
0.6176470588235294
 40
0.6176470588235294
 40
0.6176470588235294
 40
0.6470588235294118
 40
0.6470588235294118
 40
0.6470588235294118
 40
0.6470588235294118
 40
0.6764705882352942
 40
0.6764705882352942
 40
0.6764705882352942
 40
0.6764705882352942
 40
0.7058823529411765
 40
0.7058823529411765
 40
0.7058823529411765
 40
0.7058823529411765
 40
0.7352941176470589
 40
0.7352941176470589
 40
0.7352941176470589
 40
0.7352941176470589
 40
0.7647058823529411
 40
0.7647058823529411
 40
0.7647058823529411
 40
0.7647058823529411
 40
0.7941176470588235
 40
0.7941176470588235
 40
0.7941176470588235
 40
0.7941176470588235
 40
0.8235294117647058
 40
0.8235294117647058
 40
0.8235294117647058
 40
0.8235294117647058
 40
0.8529411764705882
 40
0.8529411764705882
 40
0.8529411764705882
 40
0.8529411764705882
 40
0.8823529411764706
 40
0.8823529411764706
 40
0.8823529411764706
 40
0.8823529411764706
 40
0.9117647058823529
 40
0.9117647058823529
 40
0.9117647058823529
 40
0.9117647058823529
 40
0.9411764705882353
 40
0.9411764705882353
 40
0.9411764705882353
 40
0.9411764705882353
 40
1.0
 40
1.0
 40
1.0
 40
1.0
 10
-177.8957
 20
30.4243
 30
0.0
 10
-178.8219
 20
28.6138
 30
0.0
 10
-177.7635
 20
26.664
 30
0.0
 10
-177.269
 20
24.8952
 30
0.0
 10
-177.269
 20
24.8952
 30
0.0
 10
-178.2717
 20
24.0806
 30
0.0
 10
-179.8108
 20
23.5304
 30
0.0
 10
-179.9777
 20
22.0751
 30
0.0
 10
-179.9777
 20
22.0751
 30
0.0
 10
-180.5697
 20
20.216
 30
0.0
 10
-179.2885
 20
18.5725
 30
0.0
 10
-178.202
 20
17.2077
 30
0.0
 10
-178.202
 20
17.2077
 30
0.0
 10
-179.1004
 20
15.9681
 30
0.0
 10
-180.2772
 20
14.6869
 30
0.0
 10
-180.0405
 20
13.0157
 30
0.0
 10
-180.0405
 20
13.0157
 30
0.0
 10
-180.2215
 20
10.9545
 30
0.0
 10
-178.3483
 20
9.4295
 30
0.0
 10
-176.5588
 20
8.8794
 30
0.0
 10
-176.5588
 20
8.8794
 30
0.0
 10
-175.3332
 20
9.3598
 30
0.0
 10
-174.3096
 20
10.2512
 30
0.0
 10
-173.0702
 20
10.7038
 30
0.0
 10
-173.0702
 20
10.7038
 30
0.0
 10
-171.3363
 20
10.9545
 30
0.0
 10
-169.6301
 20
10.3
 30
0.0
 10
-167.9521
 20
9.9449
 30
0.0
 10
-167.9521
 20
9.9449
 30
0.0
 10
-167.3949
 20
11.4837
 30
0.0
 10
-166.8378
 20
13.0228
 30
0.0
 10
-166.2599
 20
14.5476
 30
0.0
 10
-166.2599
 20
14.5476
 30
0.0
 10
-168.711
 20
14.6312
 30
0.0
 10
-170.7165
 20
13.2385
 30
0.0
 10
-172.5966
 20
11.8529
 30
0.0
 10
-172.5966
 20
11.8529
 30
0.0
 10
-173.1884
 20
12.5909
 30
0.0
 10
-174.3652
 20
13.3779
 30
0.0
 10
-173.8151
 20
14.4919
 30
0.0
 10
-173.8151
 20
14.4919
 30
0.0
 10
-173.5156
 20
15.829
 30
0.0
 10
-171.963
 20
16.191
 30
0.0
 10
-170.995
 20
16.9362
 30
0.0
 10
-170.995
 20
16.9362
 30
0.0
 10
-173.1468
 20
17.3331
 30
0.0
 10
-176.329
 20
17.3816
 30
0.0
 10
-176.9487
 20
20.0347
 30
0.0
 10
-176.9487
 20
20.0347
 30
0.0
 10
-175.2704
 20
23.1195
 30
0.0
 10
-171.8028
 20
20.4317
 30
0.0
 10
-169.6998
 20
19.3176
 30
0.0
 10
-169.6998
 20
19.3176
 30
0.0
 10
-171.7539
 20
21.8592
 30
0.0
 10
-174.2957
 20
24.3382
 30
0.0
 10
-174.9153
 20
27.6737
 30
0.0
 10
-174.9153
 20
27.6737
 30
0.0
 10
-175.2775
 20
29.9854
 30
0.0
 10
-172.109
 20
30.8419
 30
0.0
 10
-170.7303
 20
29.3309
 30
0.0
 10
-170.7303
 20
29.3309
 30
0.0
 10
-168.6657
 20
26.6849
 30
0.0
 10
-169.3561
 20
24.1489
 30
0.0
 10
-167.8059
 20
21.3647
 30
0.0
 10
-167.8059
 20
21.3647
 30
0.0
 10
-167.7152
 20
23.4399
 30
0.0
 10
-168.3141
 20
25.912
 30
0.0
 10
-166.796
 20
27.6111
 30
0.0
 10
-166.796
 20
27.6111
 30
0.0
 10
-166.0927
 20
28.5441
 30
0.0
 10
-164.7767
 20
28.3281
 30
0.0
 10
-163.8506
 20
27.8896
 30
0.0
 10
-163.8506
 20
27.8896
 30
0.0
 10
-162.2837
 20
25.1737
 30
0.0
 10
-164.4146
 20
22.4302
 30
0.0
 10
-165.3756
 20
19.9165
 30
0.0
 10
-165.3756
 20
19.9165
 30
0.0
 10
-163.9062
 20
20.8495
 30
0.0
 10
-162.2978
 20
22.5487
 30
0.0
 10
-160.3967
 20
21.6225
 30
0.0
 10
-160.3967
 20
21.6225
 30
0.0
 10
-160.0167
 20
21.3383
 30
0.0
 10
-159.7682
 20
20.9561
 30
0.0
 10
-159.6786
 20
20.5566
 30
0.0
 10
-159.6786
 20
20.5566
 30
0.0
 10
-159.437
 20
19.4801
 30
0.0
 10
-160.0554
 20
18.7995
 30
0.0
 10
-161.1887
 20
18.8789
 30
0.0
 10
-161.1887
 20
18.8789
 30
0.0
 10
-162.002
 20
18.9357
 30
0.0
 10
-162.8188
 20
18.9231
 30
0.0
 10
-163.5101
 20
18.5194
 30
0.0
 10
-163.5101
 20
18.5194
 30
0.0
 10
-164.745
 20
17.7984
 30
0.0
 10
-165.3338
 20
16.588
 30
0.0
 10
-165.3128
 20
15.1255
 30
0.0
 10
-165.3128
 20
15.1255
 30
0.0
 10
-162.7991
 20
14.6451
 30
0.0
 10
-160.362
 20
13.8374
 30
0.0
 10
-157.9108
 20
13.0715
 30
0.0
 10
-157.9108
 20
13.0715
 30
0.0
 10
-158.1125
 20
14.2235
 30
0.0
 10
-158.3713
 20
15.3711
 30
0.0
 10
-158.5139
 20
16.5332
 30
0.0
 10
-158.5139
 20
16.5332
 30
0.0
 10
-158.5975
 20
17.2192
 30
0.0
 10
-158.639
 20
17.371
 30
0.0
 10
-158.2487
 20
17.9872
 30
0.0
 10
-158.2487
 20
17.9872
 30
0.0
 10
-157.439
 20
19.2639
 30
0.0
 10
-155.8081
 20
19.8178
 30
0.0
 10
-154.5475
 20
20.5849
 30
0.0
 10
-154.5475
 20
20.5849
 30
0.0
 10
-155.1324
 20
23.6001
 30
0.0
 10
-157.3397
 20
26.3715
 30
0.0
 10
-160.6543
 20
26.253
 30
0.0
 10
-160.6543
 20
26.253
 30
0.0
 10
-161.1209
 20
28.5091
 30
0.0
 10
-161.6919
 20
31.5383
 30
0.0
 10
-164.352
 20
32.1093
 30
0.0
 10
-164.352
 20
32.1093
 30
0.0
 10
-166.1067
 20
32.7639
 30
0.0
 10
-167.6108
 20
31.6148
 30
0.0
 10
-168.9199
 20
30.6053
 30
0.0
 10
-168.9199
 20
30.6053
 30
0.0
 10
-170.1873
 20
31.5661
 30
0.0
 10
-171.4408
 20
32.7429
 30
0.0
 10
-173.0909
 20
32.9311
 30
0.0
 10
-173.0909
 20
32.9311
 30
0.0
 10
-174.9641
 20
32.9588
 30
0.0
 10
-176.9487
 20
32.0953
 30
0.0
 10
-177.8957
 20
30.4243
 30
0.0
  0
SPLINE
  5
75
330
1F
100
AcDbEntity
  8
layer 1
 62
   250
100
AcDbSpline
210
0.0
220
0.0
230
1.0
 70
    11
 71
     3
 72
    44
 73
    40
 74
     0
 42
0.0000000001
 43
0.0000000001
 12
1.0
 22
0.0
 32
0.0
 13
1.0
 23
0.0
 33
0.0
 40
0.0
 40
0.0
 40
0.0
 40
0.0
 40
0.0909090909090909
 40
0.0909090909090909
 40
0.0909090909090909
 40
0.0909090909090909
 40
0.1818181818181818
 40
0.1818181818181818
 40
0.1818181818181818
 40
0.1818181818181818
 40
0.2727272727272727
 40
0.2727272727272727
 40
0.2727272727272727
 40
0.2727272727272727
 40
0.3636363636363636
 40
0.3636363636363636
 40
0.3636363636363636
 40
0.3636363636363636
 40
0.4545454545454545
 40
0.4545454545454545
 40
0.4545454545454545
 40
0.4545454545454545
 40
0.5454545454545454
 40
0.5454545454545454
 40
0.5454545454545454
 40
0.5454545454545454
 40
0.6363636363636364
 40
0.6363636363636364
 40
0.6363636363636364
 40
0.6363636363636364
 40
0.7272727272727273
 40
0.7272727272727273
 40
0.7272727272727273
 40
0.7272727272727273
 40
0.8181818181818182
 40
0.8181818181818182
 40
0.8181818181818182
 40
0.8181818181818182
 40
1.0
 40
1.0
 40
1.0
 40
1.0
 10
-151.1633
 20
23.217
 30
0.0
 10
-152.2914
 20
21.5807
 30
0.0
 10
-152.2148
 20
19.5196
 30
0.0
 10
-152.4167
 20
17.6254
 30
0.0
 10
-152.4167
 20
17.6254
 30
0.0
 10
-154.1227
 20
18.0571
 30
0.0
 10
-156.7271
 20
17.4305
 30
0.0
 10
-156.3927
 20
15.1883
 30
0.0
 10
-156.3927
 20
15.1883
 30
0.0
 10
-152.1382
 20
9.6454
 30
0.0
 10
-151.9432
 20
2.1737
 30
0.0
 10
-147.8557
 20
-3.4735
 30
0.0
 10
-147.8557
 20
-3.4735
 30
0.0
 10
-145.6134
 20
-6.3844
 30
0.0
 10
-143.6359
 20
-9.859
 30
0.0
 10
-140.1889
 20
-11.4954
 30
0.0
 10
-140.1889
 20
-11.4954
 30
0.0
 10
-141.3311
 20
-9.3368
 30
0.0
 10
-143.1205
 20
-7.5681
 30
0.0
 10
-143.9771
 20
-5.2563
 30
0.0
 10
-143.9771
 20
-5.2563
 30
0.0
 10
-145.7596
 20
-1.0363
 30
0.0
 10
-145.8434
 20
3.6569
 30
0.0
 10
-145.4952
 20
8.1552
 30
0.0
 10
-145.4952
 20
8.1552
 30
0.0
 10
-145.2445
 20
11.63
 30
0.0
 10
-143.8379
 20
15.0839
 30
0.0
 10
-141.1917
 20
17.4166
 30
0.0
 10
-141.1917
 20
17.4166
 30
0.0
 10
-142.6401
 20
18.7604
 30
0.0
 10
-144.4924
 20
19.3176
 30
0.0
 10
-146.3167
 20
18.28
 30
0.0
 10
-146.3167
 20
18.28
 30
0.0
 10
-146.1428
 20
20.9539
 30
0.0
 10
-145.697
 20
23.809
 30
0.0
 10
-146.9643
 20
26.3018
 30
0.0
 10
-146.9643
 20
26.3018
 30
0.0
 10
-148.4962
 20
25.5081
 30
0.0
 10
-150.2581
 20
24.7977
 30
0.0
 10
-151.1633
 20
23.217
 30
0.0
  0
SPLINE
  5
76
330
1F
100
AcDbEntity
  8
layer 1
 62
   250
100
AcDbSpline
210
0.0
220
0.0
230
1.0
 70
    11
 71
     3
 72
    32
 73
    28
 74
     0
 42
0.0000000001
 43
0.0000000001
 12
1.0
 22
0.0
 32
0.0
 13
1.0
 23
0.0
 33
0.0
 40
0.0
 40
0.0
 40
0.0
 40
0.0
 40
0.125
 40
0.125
 40
0.125
 40
0.125
 40
0.25
 40
0.25
 40
0.25
 40
0.25
 40
0.375
 40
0.375
 40
0.375
 40
0.375
 40
0.5
 40
0.5
 40
0.5
 40
0.5
 40
0.625
 40
0.625
 40
0.625
 40
0.625
 40
0.75
 40
0.75
 40
0.75
 40
0.75
 40
1.0
 40
1.0
 40
1.0
 40
1.0
 10
-44.9089
 20
15.077
 30
0.0
 10
-46.7473
 20
13.3013
 30
0.0
 10
-47.2625
 20
10.5366
 30
0.0
 10
-46.7821
 20
8.0926
 30
0.0
 10
-46.7821
 20
8.0926
 30
0.0
 10
-46.2111
 20
4.6875
 30
0.0
 10
-45.6958
 20
1.2476
 30
0.0
 10
-45.9255
 20
-2.2201
 30
0.0
 10
-45.9255
 20
-2.2201
 30
0.0
 10
-44.4981
 20
-2.2619
 30
0.0
 10
-43.0706
 20
-2.3316
 30
0.0
 10
-41.643
 20
-2.4013
 30
0.0
 10
-41.643
 20
-2.4013
 30
0.0
 10
-40.6682
 20
1.0179
 30
0.0
 10
-40.2505
 20
5.0287
 30
0.0
 10
-37.3745
 20
7.4728
 30
0.0
 10
-37.3745
 20
7.4728
 30
0.0
 10
-36.4763
 20
8.378
 30
0.0
 10
-34.5265
 20
8.6149
 30
0.0
 10
-34.6587
 20
10.1956
 30
0.0
 10
-34.6587
 20
10.1956
 30
0.0
 10
-34.7493
 20
13.5867
 30
0.0
 10
-37.7784
 20
15.634
 30
0.0
 10
-40.1251
 20
17.5838
 30
0.0
 10
-40.1251
 20
17.5838
 30
0.0
 10
-41.7337
 20
16.783
 30
0.0
 10
-43.4466
 20
16.1422
 30
0.0
 10
-44.9089
 20
15.077
 30
0.0
  0
SPLINE
  5
77
330
1F
100
AcDbEntity
  8
layer 1
 62
   250
100
AcDbSpline
210
0.0
220
0.0
230
1.0
 70
    11
 71
     3
 72
    24
 73
    20
 74
     0
 42
0.0000000001
 43
0.0000000001
 12
1.0
 22
0.0
 32
0.0
 13
1.0
 23
0.0
 33
0.0
 40
0.0
 40
0.0
 40
0.0
 40
0.0
 40
0.1666666666666667
 40
0.1666666666666667
 40
0.1666666666666667
 40
0.1666666666666667
 40
0.3333333333333333
 40
0.3333333333333333
 40
0.3333333333333333
 40
0.3333333333333333
 40
0.5
 40
0.5
 40
0.5
 40
0.5
 40
0.6666666666666666
 40
0.6666666666666666
 40
0.6666666666666666
 40
0.6666666666666666
 40
1.0
 40
1.0
 40
1.0
 40
1.0
 10
-105.6923
 20
15.9194
 30
0.0
 10
-105.9571
 20
14.9723
 30
0.0
 10
-106.3051
 20
14.0324
 30
0.0
 10
-106.3538
 20
13.0366
 30
0.0
 10
-106.3538
 20
13.0366
 30
0.0
 10
-106.1937
 20
10.9824
 30
0.0
 10
-104.216
 20
9.7638
 30
0.0
 10
-102.4404
 20
9.1859
 30
0.0
 10
-102.4404
 20
9.1859
 30
0.0
 10
-100.3933
 20
8.6846
 30
0.0
 10
-98.6873
 20
10.314
 30
0.0
 10
-97.2736
 20
11.5534
 30
0.0
 10
-97.2736
 20
11.5534
 30
0.0
 10
-98.2484
 20
12.8765
 30
0.0
 10
-99.1677
 20
14.3874
 30
0.0
 10
-100.7065
 20
15.1255
 30
0.0
 10
-100.7065
 20
15.1255
 30
0.0
 10
-102.2454
 20
15.9056
 30
0.0
 10
-104.0282
 20
15.7662
 30
0.0
 10
-105.6923
 20
15.9194
 30
0.0
  0
SPLINE
  5
78
330
1F
100
AcDbEntity
  8
layer 1
 62
   250
100
AcDbSpline
210
0.0
220
0.0
230
1.0
 70
    11
 71
     3
 72
    28
 73
    24
 74
     0
 42
0.0000000001
 43
0.0000000001
 12
1.0
 22
0.0
 32
0.0
 13
1.0
 23
0.0
 33
0.0
 40
0.0
 40
0.0
 40
0.0
 40
0.0
 40
0.1428571428571428
 40
0.1428571428571428
 40
0.1428571428571428
 40
0.1428571428571428
 40
0.2857142857142857
 40
0.2857142857142857
 40
0.2857142857142857
 40
0.2857142857142857
 40
0.4285714285714285
 40
0.4285714285714285
 40
0.4285714285714285
 40
0.4285714285714285
 40
0.5714285714285714
 40
0.5714285714285714
 40
0.5714285714285714
 40
0.5714285714285714
 40
0.7142857142857143
 40
0.7142857142857143
 40
0.7142857142857143
 40
0.7142857142857143
 40
1.0
 40
1.0
 40
1.0
 40
1.0
 10
-57.8748
 20
12.6955
 30
0.0
 10
-59.6434
 20
12.0478
 30
0.0
 10
-61.7533
 20
12.3751
 30
0.0
 10
-63.2993
 20
11.1704
 30
0.0
 10
-63.2993
 20
11.1704
 30
0.0
 10
-64.5805
 20
10.3209
 30
0.0
 10
-64.281
 20
8.5939
 30
0.0
 10
-64.5874
 20
7.2849
 30
0.0
 10
-64.5874
 20
7.2849
 30
0.0
 10
-57.5614
 20
7.4381
 30
0.0
 10
-51.3709
 20
2.4732
 30
0.0
 10
-48.7179
 20
-3.8008
 30
0.0
 10
-48.7179
 20
-3.8008
 30
0.0
 10
-46.0927
 20
-0.3192
 30
0.0
 10
-47.5341
 20
4.2905
 30
0.0
 10
-47.9241
 20
8.2388
 30
0.0
 10
-47.9241
 20
8.2388
 30
0.0
 10
-48.3558
 20
11.0799
 30
0.0
 10
-49.1566
 20
15.0282
 30
0.0
 10
-52.6384
 20
15.3762
 30
0.0
 10
-52.6384
 20
15.3762
 30
0.0
 10
-54.8945
 20
15.9891
 30
0.0
 10
-56.2105
 20
13.712
 30
0.0
 10
-57.8748
 20
12.6955
 30
0.0
  0
SPLINE
  5
79
330
1F
100
AcDbEntity
  8
layer 1
 62
   250
100
AcDbSpline
210
0.0
220
0.0
230
1.0
 70
    11
 71
     3
 72
    16
 73
    12
 74
     0
 42
0.0000000001
 43
0.0000000001
 12
1.0
 22
0.0
 32
0.0
 13
1.0
 23
0.0
 33
0.0
 40
0.0
 40
0.0
 40
0.0
 40
0.0
 40
0.25
 40
0.25
 40
0.25
 40
0.25
 40
0.5
 40
0.5
 40
0.5
 40
0.5
 40
1.0
 40
1.0
 40
1.0
 40
1.0
 10
-109.3132
 20
11.6022
 30
0.0
 10
-108.7075
 20
9.5479
 30
0.0
 10
-106.6394
 20
8.58
 30
0.0
 10
-104.6339
 20
8.5105
 30
0.0
 10
-104.6339
 20
8.5105
 30
0.0
 10
-106.5628
 20
10.105
 30
0.0
 10
-107.5865
 20
12.3401
 30
0.0
 10
-107.656
 20
14.8401
 30
0.0
 10
-107.656
 20
14.8401
 30
0.0
 10
-108.4151
 20
13.9627
 30
0.0
 10
-109.94
 20
12.9531
 30
0.0
 10
-109.3132
 20
11.6022
 30
0.0
  0
SPLINE
  5
7A
330
1F
100
AcDbEntity
  8
layer 1
 62
   250
100
AcDbSpline
210
0.0
220
0.0
230
1.0
 70
    11
 71
     3
 72
    68
 73
    64
 74
     0
 42
0.0000000001
 43
0.0000000001
 12
1.0
 22
0.0
 32
0.0
 13
1.0
 23
0.0
 33
0.0
 40
0.0
 40
0.0
 40
0.0
 40
0.0
 40
0.0588235294117647
 40
0.0588235294117647
 40
0.0588235294117647
 40
0.0588235294117647
 40
0.1176470588235294
 40
0.1176470588235294
 40
0.1176470588235294
 40
0.1176470588235294
 40
0.1764705882352941
 40
0.1764705882352941
 40
0.1764705882352941
 40
0.1764705882352941
 40
0.2352941176470588
 40
0.2352941176470588
 40
0.2352941176470588
 40
0.2352941176470588
 40
0.2941176470588235
 40
0.2941176470588235
 40
0.2941176470588235
 40
0.2941176470588235
 40
0.3529411764705883
 40
0.3529411764705883
 40
0.3529411764705883
 40
0.3529411764705883
 40
0.4117647058823529
 40
0.4117647058823529
 40
0.4117647058823529
 40
0.4117647058823529
 40
0.4705882352941176
 40
0.4705882352941176
 40
0.4705882352941176
 40
0.4705882352941176
 40
0.5294117647058824
 40
0.5294117647058824
 40
0.5294117647058824
 40
0.5294117647058824
 40
0.5882352941176471
 40
0.5882352941176471
 40
0.5882352941176471
 40
0.5882352941176471
 40
0.6470588235294118
 40
0.6470588235294118
 40
0.6470588235294118
 40
0.6470588235294118
 40
0.7058823529411765
 40
0.7058823529411765
 40
0.7058823529411765
 40
0.7058823529411765
 40
0.7647058823529411
 40
0.7647058823529411
 40
0.7647058823529411
 40
0.7647058823529411
 40
0.8235294117647058
 40
0.8235294117647058
 40
0.8235294117647058
 40
0.8235294117647058
 40
0.8823529411764706
 40
0.8823529411764706
 40
0.8823529411764706
 40
0.8823529411764706
 40
1.0
 40
1.0
 40
1.0
 40
1.0
 10
-142.2154
 20
10.5925
 30
0.0
 10
-144.0886
 20
4.9172
 30
0.0
 10
-143.7751
 20
-1.6143
 30
0.0
 10
-140.8225
 20
-6.8857
 30
0.0
 10
-140.8225
 20
-6.8857
 30
0.0
 10
-139.5275
 20
-9.5945
 30
0.0
 10
-137.1948
 20
-11.6
 30
0.0
 10
-135.7951
 20
-14.246
 30
0.0
 10
-135.7951
 20
-14.246
 30
0.0
 10
-141.0732
 20
-14.1275
 30
0.0
 10
-145.8293
 20
-10.7713
 30
0.0
 10
-149.0394
 20
-6.7604
 30
0.0
 10
-149.0394
 20
-6.7604
 30
0.0
 10
-152.4305
 20
-2.7146
 30
0.0
 10
-154.2619
 20
2.2922
 30
0.0
 10
-156.0585
 20
7.1734
 30
0.0
 10
-156.0585
 20
7.1734
 30
0.0
 10
-157.3676
 20
10.7178
 30
0.0
 10
-161.3019
 20
12.3124
 30
0.0
 10
-164.8393
 20
12.3751
 30
0.0
 10
-164.8393
 20
12.3751
 30
0.0
 10
-165.2363
 20
10.3278
 30
0.0
 10
-166.0998
 20
8.1623
 30
0.0
 10
-165.1806
 20
6.115
 30
0.0
 10
-165.1806
 20
6.115
 30
0.0
 10
-163.2098
 20
1.1989
 30
0.0
 10
-160.0694
 20
-3.2995
 30
0.0
 10
-156.0307
 20
-6.7464
 30
0.0
 10
-156.0307
 20
-6.7464
 30
0.0
 10
-151.0727
 20
-10.5414
 30
0.0
 10
-145.4463
 20
-13.4661
 30
0.0
 10
-139.4997
 20
-15.3949
 30
0.0
 10
-139.4997
 20
-15.3949
 30
0.0
 10
-138.2323
 20
-15.8266
 30
0.0
 10
-138.8033
 20
-17.7068
 30
0.0
 10
-137.9885
 20
-18.619
 30
0.0
 10
-137.9885
 20
-18.619
 30
0.0
 10
-135.7045
 20
-19.5521
 30
0.0
 10
-132.752
 20
-18.5494
 30
0.0
 10
-131.7355
 20
-16.2305
 30
0.0
 10
-131.7355
 20
-16.2305
 30
0.0
 10
-131.3663
 20
-14.0093
 30
0.0
 10
-132.9191
 20
-10.8408
 30
0.0
 10
-135.5513
 20
-11.8018
 30
0.0
 10
-135.5513
 20
-11.8018
 30
0.0
 10
-137.7935
 20
-9.9983
 30
0.0
 10
-138.5386
 20
-7.0946
 30
0.0
 10
-139.1097
 20
-4.4137
 30
0.0
 10
-139.1097
 20
-4.4137
 30
0.0
 10
-139.7504
 20
-0.8973
 30
0.0
 10
-139.6807
 20
3.0789
 30
0.0
 10
-137.4802
 20
6.0731
 30
0.0
 10
-137.4802
 20
6.0731
 30
0.0
 10
-136.5193
 20
7.5703
 30
0.0
 10
-134.9525
 20
9.0954
 30
0.0
 10
-135.621
 20
11.0589
 30
0.0
 10
-135.621
 20
11.0589
 30
0.0
 10
-135.9552
 20
12.0895
 30
0.0
 10
-136.1224
 20
13.8514
 30
0.0
 10
-137.5221
 20
13.8721
 30
0.0
 10
-137.5221
 20
13.8721
 30
0.0
 10
-139.7364
 20
14.4015
 30
0.0
 10
-141.6374
 20
12.5909
 30
0.0
 10
-142.2154
 20
10.5925
 30
0.0
  0
SPLINE
  5
7B
330
1F
100
AcDbEntity
  8
layer 1
 62
   250
100
AcDbSpline
210
0.0
220
0.0
230
1.0
 70
    11
 71
     3
 72
    36
 73
    32
 74
     0
 42
0.0000000001
 43
0.0000000001
 12
1.0
 22
0.0
 32
0.0
 13
1.0
 23
0.0
 33
0.0
 40
0.0
 40
0.0
 40
0.0
 40
0.0
 40
0.1111111111111111
 40
0.1111111111111111
 40
0.1111111111111111
 40
0.1111111111111111
 40
0.2222222222222222
 40
0.2222222222222222
 40
0.2222222222222222
 40
0.2222222222222222
 40
0.3333333333333333
 40
0.3333333333333333
 40
0.3333333333333333
 40
0.3333333333333333
 40
0.4444444444444444
 40
0.4444444444444444
 40
0.4444444444444444
 40
0.4444444444444444
 40
0.5555555555555556
 40
0.5555555555555556
 40
0.5555555555555556
 40
0.5555555555555556
 40
0.6666666666666666
 40
0.6666666666666666
 40
0.6666666666666666
 40
0.6666666666666666
 40
0.7777777777777778
 40
0.7777777777777778
 40
0.7777777777777778
 40
0.7777777777777778
 40
1.0
 40
1.0
 40
1.0
 40
1.0
 10
-111.1655
 20
10.2791
 30
0.0
 10
-112.2867
 20
8.1901
 30
0.0
 10
-110.9148
 20
5.7668
 30
0.0
 10
-108.4708
 20
5.9271
 30
0.0
 10
-108.4708
 20
5.9271
 30
0.0
 10
-107.8371
 20
5.001
 30
0.0
 10
-107.5378
 20
3.4409
 30
0.0
 10
-106.1868
 20
3.3365
 30
0.0
 10
-106.1868
 20
3.3365
 30
0.0
 10
-104.5573
 20
3.1973
 30
0.0
 10
-103.1227
 20
2.5289
 30
0.0
 10
-101.772
 20
1.6584
 30
0.0
 10
-101.772
 20
1.6584
 30
0.0
 10
-99.7804
 20
0.7672
 30
0.0
 10
-98.0813
 20
2.696
 30
0.0
 10
-96.9044
 20
4.047
 30
0.0
 10
-96.9044
 20
4.047
 30
0.0
 10
-98.5827
 20
3.5385
 30
0.0
 10
-100.4906
 20
2.6055
 30
0.0
 10
-102.1062
 20
3.8101
 30
0.0
 10
-102.1062
 20
3.8101
 30
0.0
 10
-103.6799
 20
4.4437
 30
0.0
 10
-103.8191
 20
6.1497
 30
0.0
 10
-103.8957
 20
7.6052
 30
0.0
 10
-103.8957
 20
7.6052
 30
0.0
 10
-105.8036
 20
7.3475
 30
0.0
 10
-108.3524
 20
7.1246
 30
0.0
 10
-109.2994
 20
9.2485
 30
0.0
 10
-109.2994
 20
9.2485
 30
0.0
 10
-109.6685
 20
9.8543
 30
0.0
 10
-110.7756
 20
12.1035
 30
0.0
 10
-111.1655
 20
10.2791
 30
0.0
  0
SPLINE
  5
7C
330
1F
100
AcDbEntity
  8
layer 1
 62
   250
100
AcDbSpline
210
0.0
220
0.0
230
1.0
 70
    11
 71
     3
 72
    12
 73
     8
 74
     0
 42
0.0000000001
 43
0.0000000001
 12
1.0
 22
0.0
 32
0.0
 13
1.0
 23
0.0
 33
0.0
 40
0.0
 40
0.0
 40
0.0
 40
0.0
 40
0.3333333333333333
 40
0.3333333333333333
 40
0.3333333333333333
 40
0.3333333333333333
 40
1.0
 40
1.0
 40
1.0
 40
1.0
 10
-119.9603
 20
1.1641
 30
0.0
 10
-116.1863
 20
2.4314
 30
0.0
 10
-114.5638
 20
6.4701
 30
0.0
 10
-112.7462
 20
9.6664
 30
0.0
 10
-112.7462
 20
9.6664
 30
0.0
 10
-115.6569
 20
7.2849
 30
0.0
 10
-117.2097
 20
3.7126
 30
0.0
 10
-119.9603
 20
1.1641
 30
0.0
  0
SPLINE
  5
7D
330
1F
100
AcDbEntity
  8
layer 1
 62
   250
100
AcDbSpline
210
0.0
220
0.0
230
1.0
 70
    11
 71
     3
 72
    24
 73
    20
 74
     0
 42
0.0000000001
 43
0.0000000001
 12
1.0
 22
0.0
 32
0.0
 13
1.0
 23
0.0
 33
0.0
 40
0.0
 40
0.0
 40
0.0
 40
0.0
 40
0.1666666666666667
 40
0.1666666666666667
 40
0.1666666666666667
 40
0.1666666666666667
 40
0.3333333333333333
 40
0.3333333333333333
 40
0.3333333333333333
 40
0.3333333333333333
 40
0.5
 40
0.5
 40
0.5
 40
0.5
 40
0.6666666666666666
 40
0.6666666666666666
 40
0.6666666666666666
 40
0.6666666666666666
 40
1.0
 40
1.0
 40
1.0
 40
1.0
 10
-37.6183
 20
5.0497
 30
0.0
 10
-39.3313
 20
1.9927
 30
0.0
 10
-40.5915
 20
-1.4961
 30
0.0
 10
-40.529
 20
-5.0404
 30
0.0
 10
-40.529
 20
-5.0404
 30
0.0
 10
-38.5583
 20
-3.4944
 30
0.0
 10
-36.5041
 20
-1.8441
 30
0.0
 10
-33.8929
 20
-1.67
 30
0.0
 10
-33.8929
 20
-1.67
 30
0.0
 10
-31.0447
 20
-1.0086
 30
0.0
 10
-27.3404
 20
-1.4752
 30
0.0
 10
-25.4462
 20
1.2057
 30
0.0
 10
-25.4462
 20
1.2057
 30
0.0
 10
-23.963
 20
3.9773
 30
0.0
 10
-25.7316
 20
6.9017
 30
0.0
 10
-26.8669
 20
9.4295
 30
0.0
 10
-26.8669
 20
9.4295
 30
0.0
 10
-30.1464
 20
7.1246
 30
0.0
 10
-35.0
 20
8.4198
 30
0.0
 10
-37.6183
 20
5.0497
 30
0.0
  0
SPLINE
  5
7E
330
1F
100
AcDbEntity
  8
layer 1
 62
   250
100
AcDbSpline
210
0.0
220
0.0
230
1.0
 70
    11
 71
     3
 72
    20
 73
    16
 74
     0
 42
0.0000000001
 43
0.0000000001
 12
1.0
 22
0.0
 32
0.0
 13
1.0
 23
0.0
 33
0.0
 40
0.0
 40
0.0
 40
0.0
 40
0.0
 40
0.2
 40
0.2
 40
0.2
 40
0.2
 40
0.4
 40
0.4
 40
0.4
 40
0.4
 40
0.6
 40
0.6
 40
0.6
 40
0.6
 40
1.0
 40
1.0
 40
1.0
 40
1.0
 10
-102.4822
 20
7.7862
 30
0.0
 10
-103.0949
 20
6.0105
 30
0.0
 10
-101.5142
 20
4.59
 30
0.0
 10
-99.9893
 20
4.0121
 30
0.0
 10
-99.9893
 20
4.0121
 30
0.0
 10
-98.8892
 20
4.7153
 30
0.0
 10
-97.8028
 20
5.4395
 30
0.0
 10
-96.7444
 20
6.2056
 30
0.0
 10
-96.7444
 20
6.2056
 30
0.0
 10
-96.9185
 20
7.1804
 30
0.0
 10
-97.0785
 20
8.1623
 30
0.0
 10
-97.2248
 20
9.1372
 30
0.0
 10
-97.2248
 20
9.1372
 30
0.0
 10
-98.9517
 20
8.58
 30
0.0
 10
-100.7275
 20
8.2457
 30
0.0
 10
-102.4822
 20
7.7862
 30
0.0
  0
SPLINE
  5
7F
330
1F
100
AcDbEntity
  8
layer 1
 62
   250
100
AcDbSpline
210
0.0
220
0.0
230
1.0
 70
    11
 71
     3
 72
    16
 73
    12
 74
     0
 42
0.0000000001
 43
0.0000000001
 12
1.0
 22
0.0
 32
0.0
 13
1.0
 23
0.0
 33
0.0
 40
0.0
 40
0.0
 40
0.0
 40
0.0
 40
0.25
 40
0.25
 40
0.25
 40
0.25
 40
0.5
 40
0.5
 40
0.5
 40
0.5
 40
1.0
 40
1.0
 40
1.0
 40
1.0
 10
-131.3245
 20
5.5439
 30
0.0
 10
-130.3985
 20
1.4008
 30
0.0
 10
-125.0783
 20
0.2796
 30
0.0
 10
-121.5131
 20
1.2267
 30
0.0
 10
-121.5131
 20
1.2267
 30
0.0
 10
-123.804
 20
2.863
 30
0.0
 10
-125.8375
 20
4.8269
 30
0.0
 10
-128.0937
 20
6.505
 30
0.0
 10
-128.0937
 20
6.505
 30
0.0
 10
-129.2217
 20
7.3475
 30
0.0
 10
-130.4193
 20
6.1497
 30
0.0
 10
-131.3245
 20
5.5439
 30
0.0
  0
SPLINE
  5
80
330
1F
100
AcDbEntity
  8
layer 1
 62
   250
100
AcDbSpline
210
0.0
220
0.0
230
1.0
 70
    11
 71
     3
 72
    28
 73
    24
 74
     0
 42
0.0000000001
 43
0.0000000001
 12
1.0
 22
0.0
 32
0.0
 13
1.0
 23
0.0
 33
0.0
 40
0.0
 40
0.0
 40
0.0
 40
0.0
 40
0.1428571428571428
 40
0.1428571428571428
 40
0.1428571428571428
 40
0.1428571428571428
 40
0.2857142857142857
 40
0.2857142857142857
 40
0.2857142857142857
 40
0.2857142857142857
 40
0.4285714285714285
 40
0.4285714285714285
 40
0.4285714285714285
 40
0.4285714285714285
 40
0.5714285714285714
 40
0.5714285714285714
 40
0.5714285714285714
 40
0.5714285714285714
 40
0.7142857142857143
 40
0.7142857142857143
 40
0.7142857142857143
 40
0.7142857142857143
 40
1.0
 40
1.0
 40
1.0
 40
1.0
 10
-73.5076
 20
-0.1173
 30
0.0
 10
-71.6205
 20
-2.06
 30
0.0
 10
-69.3922
 20
-3.7522
 30
0.0
 10
-66.8506
 20
-4.7409
 30
0.0
 10
-66.8506
 20
-4.7409
 30
0.0
 10
-63.7171
 20
-5.6462
 30
0.0
 10
-60.4999
 20
-4.5878
 30
0.0
 10
-57.4082
 20
-3.9958
 30
0.0
 10
-57.4082
 20
-3.9958
 30
0.0
 10
-54.616
 20
-3.2577
 30
0.0
 10
-52.1857
 20
-5.2492
 30
0.0
 10
-49.7345
 20
-6.2381
 30
0.0
 10
-49.7345
 20
-6.2381
 30
0.0
 10
-49.7833
 20
-3.3482
 30
0.0
 10
-51.7122
 20
-1.0155
 30
0.0
 10
-53.6968
 20
0.8785
 30
0.0
 10
-53.6968
 20
0.8785
 30
0.0
 10
-57.3038
 20
4.1373
 30
0.0
 10
-62.38
 20
5.8921
 30
0.0
 10
-67.2196
 20
5.1123
 30
0.0
 10
-67.2196
 20
5.1123
 30
0.0
 10
-69.9076
 20
4.423
 30
0.0
 10
-72.6163
 20
2.6123
 30
0.0
 10
-73.5076
 20
-0.1173
 30
0.0
  0
SPLINE
  5
81
330
1F
100
AcDbEntity
  8
layer 1
 62
   250
100
AcDbSpline
210
0.0
220
0.0
230
1.0
 70
    11
 71
     3
 72
    20
 73
    16
 74
     0
 42
0.0000000001
 43
0.0000000001
 12
1.0
 22
0.0
 32
0.0
 13
1.0
 23
0.0
 33
0.0
 40
0.0
 40
0.0
 40
0.0
 40
0.0
 40
0.2
 40
0.2
 40
0.2
 40
0.2
 40
0.4
 40
0.4
 40
0.4
 40
0.4
 40
0.6
 40
0.6
 40
0.6
 40
0.6
 40
1.0
 40
1.0
 40
1.0
 40
1.0
 10
-131.993
 20
-2.9793
 30
0.0
 10
-129.7021
 20
-3.4807
 30
0.0
 10
-127.3345
 20
-2.638
 30
0.0
 10
-125.0783
 20
-2.1854
 30
0.0
 10
-125.0783
 20
-2.1854
 30
0.0
 10
-123.9574
 20
-2.1714
 30
0.0
 10
-124.0409
 20
-0.7579
 30
0.0
 10
-123.5533
 20
-0.0686
 30
0.0
 10
-123.5533
 20
-0.0686
 30
0.0
 10
-126.1855
 20
0.1195
 30
0.0
 10
-128.6785
 20
1.2545
 30
0.0
 10
-131.3176
 20
1.2685
 30
0.0
 10
-131.3176
 20
1.2685
 30
0.0
 10
-133.4553
 20
1.2476
 30
0.0
 10
-134.2423
 20
-2.4708
 30
0.0
 10
-131.993
 20
-2.9793
 30
0.0
  0
SPLINE
  5
82
330
1F
100
AcDbEntity
  8
layer 1
 62
   250
100
AcDbSpline
210
0.0
220
0.0
230
1.0
 70
    11
 71
     3
 72
    32
 73
    28
 74
     0
 42
0.0000000001
 43
0.0000000001
 12
1.0
 22
0.0
 32
0.0
 13
1.0
 23
0.0
 33
0.0
 40
0.0
 40
0.0
 40
0.0
 40
0.0
 40
0.125
 40
0.125
 40
0.125
 40
0.125
 40
0.25
 40
0.25
 40
0.25
 40
0.25
 40
0.375
 40
0.375
 40
0.375
 40
0.375
 40
0.5
 40
0.5
 40
0.5
 40
0.5
 40
0.625
 40
0.625
 40
0.625
 40
0.625
 40
0.75
 40
0.75
 40
0.75
 40
0.75
 40
1.0
 40
1.0
 40
1.0
 40
1.0
 10
-30.3554
 20
-3.0418
 30
0.0
 10
-34.5265
 20
-2.638
 30
0.0
 10
-39.366
 20
-4.2814
 30
0.0
 10
-40.9538
 20
-8.4871
 30
0.0
 10
-40.9538
 20
-8.4871
 30
0.0
 10
-38.809
 20
-8.2714
 30
0.0
 10
-36.5668
 20
-7.8536
 30
0.0
 10
-34.4708
 20
-8.5778
 30
0.0
 10
-34.4708
 20
-8.5778
 30
0.0
 10
-32.0336
 20
-9.4483
 30
0.0
 10
-29.9238
 20
-11.0636
 30
0.0
 10
-27.4517
 20
-11.8576
 30
0.0
 10
-27.4517
 20
-11.8576
 30
0.0
 10
-25.7388
 20
-12.4774
 30
0.0
 10
-23.9281
 20
-11.9551
 30
0.0
 10
-22.1943
 20
-11.7392
 30
0.0
 10
-22.1943
 20
-11.7392
 30
0.0
 10
-20.0148
 20
-9.5248
 30
0.0
 10
-20.5998
 20
-6.2241
 30
0.0
 10
-19.1932
 20
-3.6198
 30
0.0
 10
-19.1932
 20
-3.6198
 30
0.0
 10
-18.5037
 20
-2.1366
 30
0.0
 10
-19.9103
 20
-0.9042
 30
0.0
 10
-20.544
 20
0.2936
 30
0.0
 10
-20.544
 20
0.2936
 30
0.0
 10
-23.232
 20
-2.0878
 30
0.0
 10
-26.7484
 20
-3.39
 30
0.0
 10
-30.3554
 20
-3.0418
 30
0.0
  0
SPLINE
  5
83
330
1F
100
AcDbEntity
  8
layer 1
 62
   250
100
AcDbSpline
210
0.0
220
0.0
230
1.0
 70
    11
 71
     3
 72
    20
 73
    16
 74
     0
 42
0.0000000001
 43
0.0000000001
 12
1.0
 22
0.0
 32
0.0
 13
1.0
 23
0.0
 33
0.0
 40
0.0
 40
0.0
 40
0.0
 40
0.0
 40
0.2
 40
0.2
 40
0.2
 40
0.2
 40
0.4
 40
0.4
 40
0.4
 40
0.4
 40
0.6
 40
0.6
 40
0.6
 40
0.6
 40
1.0
 40
1.0
 40
1.0
 40
1.0
 10
-130.4471
 20
-4.6156
 30
0.0
 10
-130.3636
 20
-5.9178
 30
0.0
 10
-130.9206
 20
-8.1112
 30
0.0
 10
-129.0614
 20
-8.3618
 30
0.0
 10
-129.0614
 20
-8.3618
 30
0.0
 10
-126.6384
 20
-7.7004
 30
0.0
 10
-124.4935
 20
-6.1475
 30
0.0
 10
-122.4046
 20
-4.7688
 30
0.0
 10
-122.4046
 20
-4.7688
 30
0.0
 10
-121.5341
 20
-3.9402
 30
0.0
 10
-123.066
 20
-3.209
 30
0.0
 10
-123.7274
 20
-3.014
 30
0.0
 10
-123.7274
 20
-3.014
 30
0.0
 10
-126.0185
 20
-3.2925
 30
0.0
 10
-128.2259
 20
-4.0236
 30
0.0
 10
-130.4471
 20
-4.6156
 30
0.0
  0
SPLINE
  5
84
330
1F
100
AcDbEntity
  8
layer 1
 62
   250
100
AcDbSpline
210
0.0
220
0.0
230
1.0
 70
    11
 71
     3
 72
    16
 73
    12
 74
     0
 42
0.0000000001
 43
0.0000000001
 12
1.0
 22
0.0
 32
0.0
 13
1.0
 23
0.0
 33
0.0
 40
0.0
 40
0.0
 40
0.0
 40
0.0
 40
0.25
 40
0.25
 40
0.25
 40
0.25
 40
0.5
 40
0.5
 40
0.5
 40
0.5
 40
1.0
 40
1.0
 40
1.0
 40
1.0
 10
-46.1693
 20
-3.8495
 30
0.0
 10
-48.293
 20
-4.6296
 30
0.0
 10
-49.4699
 20
-7.5125
 30
0.0
 10
-47.8057
 20
-9.2879
 30
0.0
 10
-47.8057
 20
-9.2879
 30
0.0
 10
-45.3407
 20
-12.0873
 30
0.0
 10
-40.5778
 20
-8.1808
 30
0.0
 10
-42.1514
 20
-5.0822
 30
0.0
 10
-42.1514
 20
-5.0822
 30
0.0
 10
-42.9521
 20
-3.6685
 30
0.0
 10
-44.7348
 20
-3.4318
 30
0.0
 10
-46.1693
 20
-3.8495
 30
0.0
  0
SPLINE
  5
85
330
1F
100
AcDbEntity
  8
layer 1
 62
   250
100
AcDbSpline
210
0.0
220
0.0
230
1.0
 70
    11
 71
     3
 72
    32
 73
    28
 74
     0
 42
0.0000000001
 43
0.0000000001
 12
1.0
 22
0.0
 32
0.0
 13
1.0
 23
0.0
 33
0.0
 40
0.0
 40
0.0
 40
0.0
 40
0.0
 40
0.125
 40
0.125
 40
0.125
 40
0.125
 40
0.25
 40
0.25
 40
0.25
 40
0.25
 40
0.375
 40
0.375
 40
0.375
 40
0.375
 40
0.5
 40
0.5
 40
0.5
 40
0.5
 40
0.625
 40
0.625
 40
0.625
 40
0.625
 40
0.75
 40
0.75
 40
0.75
 40
0.75
 40
1.0
 40
1.0
 40
1.0
 40
1.0
 10
-62.6657
 20
-7.4079
 30
0.0
 10
-65.2281
 20
-8.6753
 30
0.0
 10
-68.1457
 20
-6.2311
 30
0.0
 10
-70.569
 20
-7.9302
 30
0.0
 10
-70.569
 20
-7.9302
 30
0.0
 10
-72.1915
 20
-8.8912
 30
0.0
 10
-72.9158
 20
-10.7504
 30
0.0
 10
-73.9879
 20
-12.2195
 30
0.0
 10
-73.9879
 20
-12.2195
 30
0.0
 10
-70.945
 20
-13.2363
 30
0.0
 10
-67.9925
 20
-14.5244
 30
0.0
 10
-65.3394
 20
-16.328
 30
0.0
 10
-65.3394
 20
-16.328
 30
0.0
 10
-63.6683
 20
-17.491
 30
0.0
 10
-61.6071
 20
-17.9993
 30
0.0
 10
-59.5947
 20
-17.6511
 30
0.0
 10
-59.5947
 20
-17.6511
 30
0.0
 10
-54.9292
 20
-17.4701
 30
0.0
 10
-51.74
 20
-13.6958
 30
0.0
 10
-48.0423
 20
-11.3631
 30
0.0
 10
-48.0423
 20
-11.3631
 30
0.0
 10
-49.1426
 20
-9.5945
 30
0.0
 10
-50.1872
 20
-7.5681
 30
0.0
 10
-52.2345
 20
-6.7533
 30
0.0
 10
-52.2345
 20
-6.7533
 30
0.0
 10
-55.5977
 20
-5.0682
 30
0.0
 10
-59.3859
 20
-6.0919
 30
0.0
 10
-62.6657
 20
-7.4079
 30
0.0
  0
SPLINE
  5
86
330
1F
100
AcDbEntity
  8
layer 1
 62
   250
100
AcDbSpline
210
0.0
220
0.0
230
1.0
 70
    11
 71
     3
 72
    28
 73
    24
 74
     0
 42
0.0000000001
 43
0.0000000001
 12
1.0
 22
0.0
 32
0.0
 13
1.0
 23
0.0
 33
0.0
 40
0.0
 40
0.0
 40
0.0
 40
0.0
 40
0.1428571428571428
 40
0.1428571428571428
 40
0.1428571428571428
 40
0.1428571428571428
 40
0.2857142857142857
 40
0.2857142857142857
 40
0.2857142857142857
 40
0.2857142857142857
 40
0.4285714285714285
 40
0.4285714285714285
 40
0.4285714285714285
 40
0.4285714285714285
 40
0.5714285714285714
 40
0.5714285714285714
 40
0.5714285714285714
 40
0.5714285714285714
 40
0.7142857142857143
 40
0.7142857142857143
 40
0.7142857142857143
 40
0.7142857142857143
 40
1.0
 40
1.0
 40
1.0
 40
1.0
 10
-98.6314
 20
-19.8794
 30
0.0
 10
-97.0369
 20
-20.3458
 30
0.0
 10
-95.3725
 20
-20.5199
 30
0.0
 10
-93.7153
 20
-20.5339
 30
0.0
 10
-93.7153
 20
-20.5339
 30
0.0
 10
-82.3442
 20
-20.7705
 30
0.0
 10
-70.7988
 20
-22.9642
 30
0.0
 10
-60.7158
 20
-28.4164
 30
0.0
 10
-60.7158
 20
-28.4164
 30
0.0
 10
-60.4302
 20
-27.0795
 30
0.0
 10
-60.1517
 20
-25.7494
 30
0.0
 10
-59.8803
 20
-24.4195
 30
0.0
 10
-59.8803
 20
-24.4195
 30
0.0
 10
-63.5221
 20
-22.3375
 30
0.0
 10
-67.5468
 20
-21.0771
 30
0.0
 10
-71.537
 20
-19.8515
 30
0.0
 10
-71.537
 20
-19.8515
 30
0.0
 10
-78.0894
 20
-18.0968
 30
0.0
 10
-84.8161
 20
-16.5856
 30
0.0
 10
-91.6401
 20
-16.7528
 30
0.0
 10
-91.6401
 20
-16.7528
 30
0.0
 10
-94.2237
 20
-16.9338
 30
0.0
 10
-97.3711
 20
-17.2053
 30
0.0
 10
-98.6314
 20
-19.8794
 30
0.0
  0
SPLINE
  5
87
330
1F
100
AcDbEntity
  8
layer 1
 62
   250
100
AcDbSpline
210
0.0
220
0.0
230
1.0
 70
    11
 71
     3
 72
    80
 73
    76
 74
     0
 42
0.0000000001
 43
0.0000000001
 12
1.0
 22
0.0
 32
0.0
 13
1.0
 23
0.0
 33
0.0
 40
0.0
 40
0.0
 40
0.0
 40
0.0
 40
0.05
 40
0.05
 40
0.05
 40
0.05
 40
0.1
 40
0.1
 40
0.1
 40
0.1
 40
0.15
 40
0.15
 40
0.15
 40
0.15
 40
0.2
 40
0.2
 40
0.2
 40
0.2
 40
0.25
 40
0.25
 40
0.25
 40
0.25
 40
0.3
 40
0.3
 40
0.3
 40
0.3
 40
0.35
 40
0.35
 40
0.35
 40
0.35
 40
0.4
 40
0.4
 40
0.4
 40
0.4
 40
0.45
 40
0.45
 40
0.45
 40
0.45
 40
0.5
 40
0.5
 40
0.5
 40
0.5
 40
0.55
 40
0.55
 40
0.55
 40
0.55
 40
0.6
 40
0.6
 40
0.6
 40
0.6
 40
0.65
 40
0.65
 40
0.65
 40
0.65
 40
0.7
 40
0.7
 40
0.7
 40
0.7
 40
0.75
 40
0.75
 40
0.75
 40
0.75
 40
0.8
 40
0.8
 40
0.8
 40
0.8
 40
0.85
 40
0.85
 40
0.85
 40
0.85
 40
0.9
 40
0.9
 40
0.9
 40
0.9
 40
1.0
 40
1.0
 40
1.0
 40
1.0
 10
-55.8206
 20
-19.364
 30
0.0
 10
-57.457
 20
-20.8333
 30
0.0
 10
-57.8052
 20
-23.1592
 30
0.0
 10
-58.2299
 20
-25.2134
 30
0.0
 10
-58.2299
 20
-25.2134
 30
0.0
 10
-59.539
 20
-33.1864
 30
0.0
 10
-58.9819
 20
-41.7166
 30
0.0
 10
-55.1661
 20
-48.9585
 30
0.0
 10
-55.1661
 20
-48.9585
 30
0.0
 10
-58.5988
 20
-47.8026
 30
0.0
 10
-62.2268
 20
-47.134
 30
0.0
 10
-65.8548
 20
-47.517
 30
0.0
 10
-65.8548
 20
-47.517
 30
0.0
 10
-66.8645
 20
-47.6145
 30
0.0
 10
-68.3267
 20
-47.726
 30
0.0
 10
-68.5079
 20
-48.9933
 30
0.0
 10
-68.5079
 20
-48.9933
 30
0.0
 10
-68.1528
 20
-50.1075
 30
0.0
 10
-67.1848
 20
-51.2912
 30
0.0
 10
-65.8686
 20
-50.9083
 30
0.0
 10
-65.8686
 20
-50.9083
 30
0.0
 10
-61.6071
 20
-50.2676
 30
0.0
 10
-56.9487
 20
-49.9751
 30
0.0
 10
-53.056
 20
-52.1824
 30
0.0
 10
-53.056
 20
-52.1824
 30
0.0
 10
-49.6371
 20
-54.16
 30
0.0
 10
-45.9812
 20
-56.3257
 30
0.0
 10
-44.129
 20
-59.9885
 30
0.0
 10
-44.129
 20
-59.9885
 30
0.0
 10
-42.1722
 20
-63.8532
 30
0.0
 10
-41.2461
 20
-68.1983
 30
0.0
 10
-41.0304
 20
-72.5086
 30
0.0
 10
-41.0304
 20
-72.5086
 30
0.0
 10
-39.9302
 20
-71.2343
 30
0.0
 10
-38.5723
 20
-70.0993
 30
0.0
 10
-37.869
 20
-68.5395
 30
0.0
 10
-37.869
 20
-68.5395
 30
0.0
 10
-38.2936
 20
-63.8253
 30
0.0
 10
-39.366
 20
-59.1946
 30
0.0
 10
-40.5081
 20
-54.6127
 30
0.0
 10
-40.5081
 20
-54.6127
 30
0.0
 10
-42.8895
 20
-45.79
 30
0.0
 10
-46.1344
 20
-36.682
 30
0.0
 10
-52.7846
 20
-30.1364
 30
0.0
 10
-52.7846
 20
-30.1364
 30
0.0
 10
-53.6758
 20
-31.543
 30
0.0
 10
-54.4697
 20
-33.465
 30
0.0
 10
-53.1953
 20
-34.9272
 30
0.0
 10
-53.1953
 20
-34.9272
 30
0.0
 10
-47.952
 20
-41.3962
 30
0.0
 10
-44.8184
 20
-49.3554
 30
0.0
 10
-42.9174
 20
-57.3911
 30
0.0
 10
-42.9174
 20
-57.3911
 30
0.0
 10
-44.7628
 20
-55.72
 30
0.0
 10
-46.2181
 20
-53.6377
 30
0.0
 10
-48.3071
 20
-52.2383
 30
0.0
 10
-48.3071
 20
-52.2383
 30
0.0
 10
-50.0271
 20
-50.9918
 30
0.0
 10
-52.1717
 20
-50.0378
 30
0.0
 10
-53.0631
 20
-47.9557
 30
0.0
 10
-53.0631
 20
-47.9557
 30
0.0
 10
-55.1173
 20
-43.2554
 30
0.0
 10
-55.6953
 20
-38.0051
 30
0.0
 10
-55.3887
 20
-32.9218
 30
0.0
 10
-55.3887
 20
-32.9218
 30
0.0
 10
-55.1242
 20
-29.064
 30
0.0
 10
-53.4807
 20
-25.0602
 30
0.0
 10
-49.8321
 20
-23.2914
 30
0.0
 10
-49.8321
 20
-23.2914
 30
0.0
 10
-50.6258
 20
-21.272
 30
0.0
 10
-50.8836
 20
-19.1205
 30
0.0
 10
-50.7442
 20
-16.9615
 30
0.0
 10
-50.7442
 20
-16.9615
 30
0.0
 10
-52.4015
 20
-17.8252
 30
0.0
 10
-54.1772
 20
-18.4657
 30
0.0
 10
-55.8206
 20
-19.364
 30
0.0
  0
SPLINE
  5
88
330
1F
100
AcDbEntity
  8
layer 1
 62
   250
100
AcDbSpline
210
0.0
220
0.0
230
1.0
 70
    11
 71
     3
 72
    24
 73
    20
 74
     0
 42
0.0000000001
 43
0.0000000001
 12
1.0
 22
0.0
 32
0.0
 13
1.0
 23
0.0
 33
0.0
 40
0.0
 40
0.0
 40
0.0
 40
0.0
 40
0.1666666666666667
 40
0.1666666666666667
 40
0.1666666666666667
 40
0.1666666666666667
 40
0.3333333333333333
 40
0.3333333333333333
 40
0.3333333333333333
 40
0.3333333333333333
 40
0.5
 40
0.5
 40
0.5
 40
0.5
 40
0.6666666666666666
 40
0.6666666666666666
 40
0.6666666666666666
 40
0.6666666666666666
 40
1.0
 40
1.0
 40
1.0
 40
1.0
 10
-131.1156
 20
-17.6929
 30
0.0
 10
-131.06
 20
-18.0827
 30
0.0
 10
-130.9415
 20
-18.8626
 30
0.0
 10
-130.8859
 20
-19.2526
 30
0.0
 10
-130.8859
 20
-19.2526
 30
0.0
 10
-125.0158
 20
-21.0143
 30
0.0
 10
-118.8322
 20
-21.5019
 30
0.0
 10
-112.7255
 20
-21.5992
 30
0.0
 10
-112.7255
 20
-21.5992
 30
0.0
 10
-112.7324
 20
-20.311
 30
0.0
 10
-112.7255
 20
-19.0298
 30
0.0
 10
-112.7045
 20
-17.7417
 30
0.0
 10
-112.7045
 20
-17.7417
 30
0.0
 10
-116.3394
 20
-18.048
 30
0.0
 10
-119.9812
 20
-18.0758
 30
0.0
 10
-123.623
 20
-17.9365
 30
0.0
 10
-123.623
 20
-17.9365
 30
0.0
 10
-126.1229
 20
-17.867
 30
0.0
 10
-128.6158
 20
-17.2891
 30
0.0
 10
-131.1156
 20
-17.6929
 30
0.0
  0
SPLINE
  5
89
330
1F
100
AcDbEntity
  8
layer 1
 62
   250
100
AcDbSpline
210
0.0
220
0.0
230
1.0
 70
    11
 71
     3
 72
    20
 73
    16
 74
     0
 42
0.0000000001
 43
0.0000000001
 12
1.0
 22
0.0
 32
0.0
 13
1.0
 23
0.0
 33
0.0
 40
0.0
 40
0.0
 40
0.0
 40
0.0
 40
0.2
 40
0.2
 40
0.2
 40
0.2
 40
0.4
 40
0.4
 40
0.4
 40
0.4
 40
0.6
 40
0.6
 40
0.6
 40
0.6
 40
1.0
 40
1.0
 40
1.0
 40
1.0
 10
-107.3427
 20
-18.4937
 30
0.0
 10
-108.3663
 20
-19.183
 30
0.0
 10
-107.8857
 20
-20.4782
 30
0.0
 10
-107.9485
 20
-21.4879
 30
0.0
 10
-107.9485
 20
-21.4879
 30
0.0
 10
-106.2772
 20
-21.286
 30
0.0
 10
-104.6131
 20
-21.07
 30
0.0
 10
-102.9417
 20
-20.8821
 30
0.0
 10
-102.9417
 20
-20.8821
 30
0.0
 10
-103.1368
 20
-19.5869
 30
0.0
 10
-102.9836
 20
-18.2918
 30
0.0
 10
-102.4056
 20
-17.1079
 30
0.0
 10
-102.4056
 20
-17.1079
 30
0.0
 10
-104.035
 20
-17.5535
 30
0.0
 10
-105.9777
 20
-17.3517
 30
0.0
 10
-107.3427
 20
-18.4937
 30
0.0
  0
SPLINE
  5
8A
330
1F
100
AcDbEntity
  8
layer 1
 62
   250
100
AcDbSpline
210
0.0
220
0.0
230
1.0
 70
    11
 71
     3
 72
    44
 73
    40
 74
     0
 42
0.0000000001
 43
0.0000000001
 12
1.0
 22
0.0
 32
0.0
 13
1.0
 23
0.0
 33
0.0
 40
0.0
 40
0.0
 40
0.0
 40
0.0
 40
0.0909090909090909
 40
0.0909090909090909
 40
0.0909090909090909
 40
0.0909090909090909
 40
0.1818181818181818
 40
0.1818181818181818
 40
0.1818181818181818
 40
0.1818181818181818
 40
0.2727272727272727
 40
0.2727272727272727
 40
0.2727272727272727
 40
0.2727272727272727
 40
0.3636363636363636
 40
0.3636363636363636
 40
0.3636363636363636
 40
0.3636363636363636
 40
0.4545454545454545
 40
0.4545454545454545
 40
0.4545454545454545
 40
0.4545454545454545
 40
0.5454545454545454
 40
0.5454545454545454
 40
0.5454545454545454
 40
0.5454545454545454
 40
0.6363636363636364
 40
0.6363636363636364
 40
0.6363636363636364
 40
0.6363636363636364
 40
0.7272727272727273
 40
0.7272727272727273
 40
0.7272727272727273
 40
0.7272727272727273
 40
0.8181818181818182
 40
0.8181818181818182
 40
0.8181818181818182
 40
0.8181818181818182
 40
1.0
 40
1.0
 40
1.0
 40
1.0
 10
-169.6163
 20
-34.2867
 30
0.0
 10
-168.2307
 20
-36.4731
 30
0.0
 10
-166.3712
 20
-38.5761
 30
0.0
 10
-166.1764
 20
-41.2848
 30
0.0
 10
-166.1764
 20
-41.2848
 30
0.0
 10
-165.8839
 20
-42.8724
 30
0.0
 10
-167.2905
 20
-44.5506
 30
0.0
 10
-168.913
 20
-44.46
 30
0.0
 10
-168.913
 20
-44.46
 30
0.0
 10
-170.9044
 20
-44.6063
 30
0.0
 10
-172.1997
 20
-42.4339
 30
0.0
 10
-172.2554
 20
-40.6582
 30
0.0
 10
-172.2554
 20
-40.6582
 30
0.0
 10
-172.5757
 20
-38.4924
 30
0.0
 10
-171.2736
 20
-36.6054
 30
0.0
 10
-170.2289
 20
-34.8437
 30
0.0
 10
-170.2289
 20
-34.8437
 30
0.0
 10
-170.5493
 20
-34.7112
 30
0.0
 10
-171.19
 20
-34.4399
 30
0.0
 10
-171.5103
 20
-34.3074
 30
0.0
 10
-171.5103
 20
-34.3074
 30
0.0
 10
-173.9683
 20
-37.3715
 30
0.0
 10
-174.7134
 20
-42.3502
 30
0.0
 10
-171.3641
 20
-45.0661
 30
0.0
 10
-171.3641
 20
-45.0661
 30
0.0
 10
-168.8223
 20
-47.1409
 30
0.0
 10
-165.1387
 20
-44.8848
 30
0.0
 10
-164.923
 20
-41.8697
 30
0.0
 10
-164.923
 20
-41.8697
 30
0.0
 10
-164.9368
 20
-38.4299
 30
0.0
 10
-167.2348
 20
-35.6793
 30
0.0
 10
-168.8364
 20
-32.8312
 30
0.0
 10
-168.8364
 20
-32.8312
 30
0.0
 10
-170.0342
 20
-30.6168
 30
0.0
 10
-168.7041
 20
-28.2632
 30
0.0
 10
-168.154
 20
-26.0837
 30
0.0
 10
-168.154
 20
-26.0837
 30
0.0
 10
-171.0716
 20
-27.6505
 30
0.0
 10
-171.2388
 20
-31.724
 30
0.0
 10
-169.6163
 20
-34.2867
 30
0.0
  0
SPLINE
  5
8B
330
1F
100
AcDbEntity
  8
layer 1
 62
   250
100
AcDbSpline
210
0.0
220
0.0
230
1.0
 70
    11
 71
     3
 72
    48
 73
    44
 74
     0
 42
0.0000000001
 43
0.0000000001
 12
1.0
 22
0.0
 32
0.0
 13
1.0
 23
0.0
 33
0.0
 40
0.0
 40
0.0
 40
0.0
 40
0.0
 40
0.0833333333333333
 40
0.0833333333333333
 40
0.0833333333333333
 40
0.0833333333333333
 40
0.1666666666666667
 40
0.1666666666666667
 40
0.1666666666666667
 40
0.1666666666666667
 40
0.25
 40
0.25
 40
0.25
 40
0.25
 40
0.3333333333333333
 40
0.3333333333333333
 40
0.3333333333333333
 40
0.3333333333333333
 40
0.4166666666666667
 40
0.4166666666666667
 40
0.4166666666666667
 40
0.4166666666666667
 40
0.5
 40
0.5
 40
0.5
 40
0.5
 40
0.5833333333333334
 40
0.5833333333333334
 40
0.5833333333333334
 40
0.5833333333333334
 40
0.6666666666666666
 40
0.6666666666666666
 40
0.6666666666666666
 40
0.6666666666666666
 40
0.75
 40
0.75
 40
0.75
 40
0.75
 40
0.8333333333333334
 40
0.8333333333333334
 40
0.8333333333333334
 40
0.8333333333333334
 40
1.0
 40
1.0
 40
1.0
 40
1.0
 10
-125.4127
 20
-32.7407
 30
0.0
 10
-128.3303
 20
-31.4873
 30
0.0
 10
-131.2897
 20
-33.465
 30
0.0
 10
-132.2368
 20
-36.2782
 30
0.0
 10
-132.2368
 20
-36.2782
 30
0.0
 10
-130.6631
 20
-37.0511
 30
0.0
 10
-128.6229
 20
-37.4618
 30
0.0
 10
-127.7105
 20
-39.1122
 30
0.0
 10
-127.7105
 20
-39.1122
 30
0.0
 10
-126.6731
 20
-41.9741
 30
0.0
 10
-126.7984
 20
-45.1843
 30
0.0
 10
-125.3709
 20
-47.9349
 30
0.0
 10
-125.3709
 20
-47.9349
 30
0.0
 10
-124.1453
 20
-49.4459
 30
0.0
 10
-122.509
 20
-50.6367
 30
0.0
 10
-121.6803
 20
-52.468
 30
0.0
 10
-121.6803
 20
-52.468
 30
0.0
 10
-120.7611
 20
-54.362
 30
0.0
 10
-118.6651
 20
-56.4928
 30
0.0
 10
-116.5414
 20
-54.7451
 30
0.0
 10
-116.5414
 20
-54.7451
 30
0.0
 10
-117.8435
 20
-53.4289
 30
0.0
 10
-119.1317
 20
-52.0921
 30
0.0
 10
-120.2666
 20
-50.6296
 30
0.0
 10
-120.2666
 20
-50.6296
 30
0.0
 10
-118.3727
 20
-49.5852
 30
0.0
 10
-116.0399
 20
-48.5128
 30
0.0
 10
-115.5665
 20
-46.1592
 30
0.0
 10
-115.5665
 20
-46.1592
 30
0.0
 10
-115.0023
 20
-42.2945
 30
0.0
 10
-115.7615
 20
-37.3366
 30
0.0
 10
-112.1057
 20
-34.7671
 30
0.0
 10
-112.1057
 20
-34.7671
 30
0.0
 10
-113.742
 20
-33.4231
 30
0.0
 10
-115.8102
 20
-32.9496
 30
0.0
 10
-117.8852
 20
-33.3605
 30
0.0
 10
-117.8852
 20
-33.3605
 30
0.0
 10
-117.2237
 20
-30.4219
 30
0.0
 10
-119.654
 20
-28.3469
 30
0.0
 10
-121.555
 20
-26.5294
 30
0.0
 10
-121.555
 20
-26.5294
 30
0.0
 10
-123.7205
 20
-27.8872
 30
0.0
 10
-125.3709
 20
-30.1017
 30
0.0
 10
-125.4127
 20
-32.7407
 30
0.0
  0
SPLINE
  5
8C
330
1F
100
AcDbEntity
  8
layer 1
 62
   250
100
AcDbSpline
210
0.0
220
0.0
230
1.0
 70
    11
 71
     3
 72
    32
 73
    28
 74
     0
 42
0.0000000001
 43
0.0000000001
 12
1.0
 22
0.0
 32
0.0
 13
1.0
 23
0.0
 33
0.0
 40
0.0
 40
0.0
 40
0.0
 40
0.0
 40
0.125
 40
0.125
 40
0.125
 40
0.125
 40
0.25
 40
0.25
 40
0.25
 40
0.25
 40
0.375
 40
0.375
 40
0.375
 40
0.375
 40
0.5
 40
0.5
 40
0.5
 40
0.5
 40
0.625
 40
0.625
 40
0.625
 40
0.625
 40
0.75
 40
0.75
 40
0.75
 40
0.75
 40
1.0
 40
1.0
 40
1.0
 40
1.0
 10
-75.7986
 20
-26.6896
 30
0.0
 10
-75.7706
 20
-28.291
 30
0.0
 10
-75.8193
 20
-29.9135
 30
0.0
 10
-75.6174
 20
-31.5083
 30
0.0
 10
-75.6174
 20
-31.5083
 30
0.0
 10
-74.7888
 20
-32.7267
 30
0.0
 10
-73.3822
 20
-33.444
 30
0.0
 10
-72.6441
 20
-34.7393
 30
0.0
 10
-72.6441
 20
-34.7393
 30
0.0
 10
-71.2932
 20
-37.7194
 30
0.0
 10
-71.739
 20
-41.1177
 30
0.0
 10
-70.7431
 20
-44.1887
 30
0.0
 10
-70.7431
 20
-44.1887
 30
0.0
 10
-67.7697
 20
-44.5994
 30
0.0
 10
-64.6014
 20
-43.6176
 30
0.0
 10
-61.5304
 20
-44.0352
 30
0.0
 10
-61.5304
 20
-44.0352
 30
0.0
 10
-62.7004
 20
-40.5467
 30
0.0
 10
-62.4219
 20
-36.8351
 30
0.0
 10
-62.8675
 20
-33.2352
 30
0.0
 10
-62.8675
 20
-33.2352
 30
0.0
 10
-62.9301
 20
-31.7102
 30
0.0
 10
-64.5945
 20
-31.2714
 30
0.0
 10
-65.6876
 20
-30.6518
 30
0.0
 10
-65.6876
 20
-30.6518
 30
0.0
 10
-68.9953
 20
-29.1825
 30
0.0
 10
-72.2541
 20
-27.5111
 30
0.0
 10
-75.7986
 20
-26.6896
 30
0.0
  0
SPLINE
  5
8D
330
1F
100
AcDbEntity
  8
layer 1
 62
   250
100
AcDbSpline
210
0.0
220
0.0
230
1.0
 70
    11
 71
     3
 72
    56
 73
    52
 74
     0
 42
0.0000000001
 43
0.0000000001
 12
1.0
 22
0.0
 32
0.0
 13
1.0
 23
0.0
 33
0.0
 40
0.0
 40
0.0
 40
0.0
 40
0.0
 40
0.0714285714285714
 40
0.0714285714285714
 40
0.0714285714285714
 40
0.0714285714285714
 40
0.1428571428571428
 40
0.1428571428571428
 40
0.1428571428571428
 40
0.1428571428571428
 40
0.2142857142857143
 40
0.2142857142857143
 40
0.2142857142857143
 40
0.2142857142857143
 40
0.2857142857142857
 40
0.2857142857142857
 40
0.2857142857142857
 40
0.2857142857142857
 40
0.3571428571428572
 40
0.3571428571428572
 40
0.3571428571428572
 40
0.3571428571428572
 40
0.4285714285714285
 40
0.4285714285714285
 40
0.4285714285714285
 40
0.4285714285714285
 40
0.5
 40
0.5
 40
0.5
 40
0.5
 40
0.5714285714285714
 40
0.5714285714285714
 40
0.5714285714285714
 40
0.5714285714285714
 40
0.6428571428571429
 40
0.6428571428571429
 40
0.6428571428571429
 40
0.6428571428571429
 40
0.7142857142857143
 40
0.7142857142857143
 40
0.7142857142857143
 40
0.7142857142857143
 40
0.7857142857142857
 40
0.7857142857142857
 40
0.7857142857142857
 40
0.7857142857142857
 40
0.8571428571428571
 40
0.8571428571428571
 40
0.8571428571428571
 40
0.8571428571428571
 40
1.0
 40
1.0
 40
1.0
 40
1.0
 10
-156.8043
 20
-33.933
 30
0.0
 10
-156.4247
 20
-34.267
 30
0.0
 10
-155.9905
 20
-34.3649
 30
0.0
 10
-155.601
 20
-34.1506
 30
0.0
 10
-155.601
 20
-34.1506
 30
0.0
 10
-154.6981
 20
-33.6536
 30
0.0
 10
-153.6386
 20
-32.9891
 30
0.0
 10
-152.7022
 20
-32.4413
 30
0.0
 10
-152.7022
 20
-32.4413
 30
0.0
 10
-149.4086
 20
-30.2758
 30
0.0
 10
-144.9241
 20
-29.454
 30
0.0
 10
-141.2335
 20
-31.0626
 30
0.0
 10
-141.2335
 20
-31.0626
 30
0.0
 10
-138.6223
 20
-32.0165
 30
0.0
 10
-137.6752
 20
-35.9021
 30
0.0
 10
-139.6179
 20
-37.8935
 30
0.0
 10
-139.6179
 20
-37.8935
 30
0.0
 10
-143.4618
 20
-40.4284
 30
0.0
 10
-148.6286
 20
-39.4742
 30
0.0
 10
-152.4099
 20
-37.2877
 30
0.0
 10
-152.4099
 20
-37.2877
 30
0.0
 10
-156.9987
 20
-34.7183
 30
0.0
 10
-161.9286
 20
-32.2325
 30
0.0
 10
-167.3392
 20
-32.4692
 30
0.0
 10
-167.3392
 20
-32.4692
 30
0.0
 10
-167.367
 20
-32.7267
 30
0.0
 10
-167.4158
 20
-33.2352
 30
0.0
 10
-167.4367
 20
-33.4928
 30
0.0
 10
-167.4367
 20
-33.4928
 30
0.0
 10
-163.3074
 20
-33.7573
 30
0.0
 10
-159.2965
 20
-35.0388
 30
0.0
 10
-155.7522
 20
-37.1625
 30
0.0
 10
-155.7522
 20
-37.1625
 30
0.0
 10
-151.2468
 20
-39.8155
 30
0.0
 10
-145.7806
 20
-42.0229
 30
0.0
 10
-140.5302
 20
-40.3587
 30
0.0
 10
-140.5302
 20
-40.3587
 30
0.0
 10
-137.2504
 20
-39.4186
 30
0.0
 10
-135.8161
 20
-35.0038
 30
0.0
 10
-137.7168
 20
-32.2185
 30
0.0
 10
-137.7168
 20
-32.2185
 30
0.0
 10
-139.3256
 20
-29.3774
 30
0.0
 10
-142.9118
 20
-28.5626
 30
0.0
 10
-145.9406
 20
-28.7995
 30
0.0
 10
-145.9406
 20
-28.7995
 30
0.0
 10
-149.9488
 20
-28.8458
 30
0.0
 10
-153.6126
 20
-30.7577
 30
0.0
 10
-156.6528
 20
-33.2534
 30
0.0
 10
-156.6528
 20
-33.2534
 30
0.0
 10
-157.1128
 20
-33.6309
 30
0.0
 10
-157.083
 20
-33.6877
 30
0.0
 10
-156.8043
 20
-33.933
 30
0.0
  0
SPLINE
  5
8E
330
1F
100
AcDbEntity
  8
layer 1
 62
   250
100
AcDbSpline
210
0.0
220
0.0
230
1.0
 70
    11
 71
     3
 72
    28
 73
    24
 74
     0
 42
0.0000000001
 43
0.0000000001
 12
1.0
 22
0.0
 32
0.0
 13
1.0
 23
0.0
 33
0.0
 40
0.0
 40
0.0
 40
0.0
 40
0.0
 40
0.1428571428571428
 40
0.1428571428571428
 40
0.1428571428571428
 40
0.1428571428571428
 40
0.2857142857142857
 40
0.2857142857142857
 40
0.2857142857142857
 40
0.2857142857142857
 40
0.4285714285714285
 40
0.4285714285714285
 40
0.4285714285714285
 40
0.4285714285714285
 40
0.5714285714285714
 40
0.5714285714285714
 40
0.5714285714285714
 40
0.5714285714285714
 40
0.7142857142857143
 40
0.7142857142857143
 40
0.7142857142857143
 40
0.7142857142857143
 40
1.0
 40
1.0
 40
1.0
 40
1.0
 10
-43.5859
 20
-29.5654
 30
0.0
 10
-44.6094
 20
-31.8146
 30
0.0
 10
-41.5943
 20
-34.9134
 30
0.0
 10
-44.4215
 20
-36.5567
 30
0.0
 10
-44.4215
 20
-36.5567
 30
0.0
 10
-41.0582
 20
-37.7891
 30
0.0
 10
-40.4244
 20
-42.6637
 30
0.0
 10
-36.6085
 20
-42.8237
 30
0.0
 10
-36.6085
 20
-42.8237
 30
0.0
 10
-35.1184
 20
-42.8865
 30
0.0
 10
-33.0086
 20
-43.0118
 30
0.0
 10
-32.535
 20
-41.2082
 30
0.0
 10
-32.535
 20
-41.2082
 30
0.0
 10
-30.3205
 20
-37.65
 30
0.0
 10
-32.2565
 20
-33.5346
 30
0.0
 10
-34.2757
 20
-30.394
 30
0.0
 10
-34.2757
 20
-30.394
 30
0.0
 10
-34.8537
 20
-30.5821
 30
0.0
 10
-36.0097
 20
-30.9511
 30
0.0
 10
-36.5876
 20
-31.1391
 30
0.0
 10
-36.5876
 20
-31.1391
 30
0.0
 10
-38.419
 20
-29.2799
 30
0.0
 10
-41.1557
 20
-29.0292
 30
0.0
 10
-43.5859
 20
-29.5654
 30
0.0
  0
SPLINE
  5
8F
330
1F
100
AcDbEntity
  8
layer 1
 62
   250
100
AcDbSpline
210
0.0
220
0.0
230
1.0
 70
    11
 71
     3
 72
    32
 73
    28
 74
     0
 42
0.0000000001
 43
0.0000000001
 12
1.0
 22
0.0
 32
0.0
 13
1.0
 23
0.0
 33
0.0
 40
0.0
 40
0.0
 40
0.0
 40
0.0
 40
0.125
 40
0.125
 40
0.125
 40
0.125
 40
0.25
 40
0.25
 40
0.25
 40
0.25
 40
0.375
 40
0.375
 40
0.375
 40
0.375
 40
0.5
 40
0.5
 40
0.5
 40
0.5
 40
0.625
 40
0.625
 40
0.625
 40
0.625
 40
0.75
 40
0.75
 40
0.75
 40
0.75
 40
1.0
 40
1.0
 40
1.0
 40
1.0
 10
-97.8236
 20
-31.5499
 30
0.0
 10
-101.0687
 20
-32.7686
 30
0.0
 10
-101.96
 20
-36.6194
 30
0.0
 10
-102.0434
 20
-39.718
 30
0.0
 10
-102.0434
 20
-39.718
 30
0.0
 10
-96.8419
 20
-41.814
 30
0.0
 10
-93.7292
 20
-46.9878
 30
0.0
 10
-88.6041
 20
-49.237
 30
0.0
 10
-88.6041
 20
-49.237
 30
0.0
 10
-87.5735
 20
-49.7315
 30
0.0
 10
-86.4176
 20
-49.418
 30
0.0
 10
-85.3315
 20
-49.3902
 30
0.0
 10
-85.3315
 20
-49.3902
 30
0.0
 10
-86.4038
 20
-47.4822
 30
0.0
 10
-87.8452
 20
-45.7274
 30
0.0
 10
-88.3396
 20
-43.5548
 30
0.0
 10
-88.3396
 20
-43.5548
 30
0.0
 10
-88.841
 20
-41.6609
 30
0.0
 10
-88.6807
 20
-39.6833
 30
0.0
 10
-88.9314
 20
-37.7613
 30
0.0
 10
-88.9314
 20
-37.7613
 30
0.0
 10
-90.1222
 20
-36.1669
 30
0.0
 10
-90.7211
 20
-34.3074
 30
0.0
 10
-91.1668
 20
-32.3926
 30
0.0
 10
-91.1668
 20
-32.3926
 30
0.0
 10
-92.8379
 20
-30.6656
 30
0.0
 10
-95.7207
 20
-30.5194
 30
0.0
 10
-97.8236
 20
-31.5499
 30
0.0
  0
SPLINE
  5
90
330
1F
100
AcDbEntity
  8
layer 1
 62
   250
100
AcDbSpline
210
0.0
220
0.0
230
1.0
 70
    11
 71
     3
 72
    28
 73
    24
 74
     0
 42
0.0000000001
 43
0.0000000001
 12
1.0
 22
0.0
 32
0.0
 13
1.0
 23
0.0
 33
0.0
 40
0.0
 40
0.0
 40
0.0
 40
0.0
 40
0.1428571428571428
 40
0.1428571428571428
 40
0.1428571428571428
 40
0.1428571428571428
 40
0.2857142857142857
 40
0.2857142857142857
 40
0.2857142857142857
 40
0.2857142857142857
 40
0.4285714285714285
 40
0.4285714285714285
 40
0.4285714285714285
 40
0.4285714285714285
 40
0.5714285714285714
 40
0.5714285714285714
 40
0.5714285714285714
 40
0.5714285714285714
 40
0.7142857142857143
 40
0.7142857142857143
 40
0.7142857142857143
 40
0.7142857142857143
 40
1.0
 40
1.0
 40
1.0
 40
1.0
 10
-88.0193
 20
-30.6447
 30
0.0
 10
-88.27
 20
-32.5736
 30
0.0
 10
-88.43
 20
-34.614
 30
0.0
 10
-87.3716
 20
-36.3478
 30
0.0
 10
-87.3716
 20
-36.3478
 30
0.0
 10
-86.0207
 20
-38.5968
 30
0.0
 10
-87.5945
 20
-41.3196
 30
0.0
 10
-86.5083
 20
-43.6732
 30
0.0
 10
-86.5083
 20
-43.6732
 30
0.0
 10
-85.0808
 20
-48.5825
 30
0.0
 10
-78.1939
 20
-51.6811
 30
0.0
 10
-74.1899
 20
-47.7677
 30
0.0
 10
-74.1899
 20
-47.7677
 30
0.0
 10
-75.6036
 20
-44.8639
 30
0.0
 10
-74.8863
 20
-41.619
 30
0.0
 10
-75.3667
 20
-38.5483
 30
0.0
 10
-75.3667
 20
-38.5483
 30
0.0
 10
-75.8681
 20
-36.0275
 30
0.0
 10
-78.2008
 20
-34.4606
 30
0.0
 10
-80.5336
 20
-33.8201
 30
0.0
 10
-80.5336
 20
-33.8201
 30
0.0
 10
-83.1657
 20
-33.0959
 30
0.0
 10
-85.5472
 20
-31.759
 30
0.0
 10
-88.0193
 20
-30.6447
 30
0.0
  0
SPLINE
  5
91
330
1F
100
AcDbEntity
  8
layer 1
 62
   250
100
AcDbSpline
210
0.0
220
0.0
230
1.0
 70
    11
 71
     3
 72
    36
 73
    32
 74
     0
 42
0.0000000001
 43
0.0000000001
 12
1.0
 22
0.0
 32
0.0
 13
1.0
 23
0.0
 33
0.0
 40
0.0
 40
0.0
 40
0.0
 40
0.0
 40
0.1111111111111111
 40
0.1111111111111111
 40
0.1111111111111111
 40
0.1111111111111111
 40
0.2222222222222222
 40
0.2222222222222222
 40
0.2222222222222222
 40
0.2222222222222222
 40
0.3333333333333333
 40
0.3333333333333333
 40
0.3333333333333333
 40
0.3333333333333333
 40
0.4444444444444444
 40
0.4444444444444444
 40
0.4444444444444444
 40
0.4444444444444444
 40
0.5555555555555556
 40
0.5555555555555556
 40
0.5555555555555556
 40
0.5555555555555556
 40
0.6666666666666666
 40
0.6666666666666666
 40
0.6666666666666666
 40
0.6666666666666666
 40
0.7777777777777778
 40
0.7777777777777778
 40
0.7777777777777778
 40
0.7777777777777778
 40
1.0
 40
1.0
 40
1.0
 40
1.0
 10
-24.6802
 20
-30.8537
 30
0.0
 10
-26.1914
 20
-32.692
 30
0.0
 10
-28.0227
 20
-34.3005
 30
0.0
 10
-29.2065
 20
-36.3895
 30
0.0
 10
-29.2065
 20
-36.3895
 30
0.0
 10
-29.7426
 20
-38.0817
 30
0.0
 10
-29.2762
 20
-39.927
 30
0.0
 10
-28.4404
 20
-41.4449
 30
0.0
 10
-28.4404
 20
-41.4449
 30
0.0
 10
-25.6342
 20
-42.0786
 30
0.0
 10
-22.7513
 20
-42.7611
 30
0.0
 10
-19.8546
 20
-42.6637
 30
0.0
 10
-19.8546
 20
-42.6637
 30
0.0
 10
-17.2016
 20
-42.5521
 30
0.0
 10
-15.4608
 20
-40.3031
 30
0.0
 10
-13.4065
 20
-38.9381
 30
0.0
 10
-13.4065
 20
-38.9381
 30
0.0
 10
-13.6295
 20
-38.6596
 30
0.0
 10
-14.0749
 20
-38.1026
 30
0.0
 10
-14.2908
 20
-37.824
 30
0.0
 10
-14.2908
 20
-37.824
 30
0.0
 10
-13.2603
 20
-35.6445
 30
0.0
 10
-12.6545
 20
-33.3046
 30
0.0
 10
-12.1948
 20
-30.9511
 30
0.0
 10
-12.1948
 20
-30.9511
 30
0.0
 10
-15.7463
 20
-31.7449
 30
0.0
 10
-19.5133
 20
-29.7951
 30
0.0
 10
-22.8628
 20
-31.5639
 30
0.0
 10
-22.8628
 20
-31.5639
 30
0.0
 10
-23.4686
 20
-31.327
 30
0.0
 10
-24.0744
 20
-31.0904
 30
0.0
 10
-24.6802
 20
-30.8537
 30
0.0
  0
SPLINE
  5
92
330
1F
100
AcDbEntity
  8
layer 1
 62
   250
100
AcDbSpline
210
0.0
220
0.0
230
1.0
 70
    11
 71
     3
 72
    24
 73
    20
 74
     0
 42
0.0000000001
 43
0.0000000001
 12
1.0
 22
0.0
 32
0.0
 13
1.0
 23
0.0
 33
0.0
 40
0.0
 40
0.0
 40
0.0
 40
0.0
 40
0.1666666666666667
 40
0.1666666666666667
 40
0.1666666666666667
 40
0.1666666666666667
 40
0.3333333333333333
 40
0.3333333333333333
 40
0.3333333333333333
 40
0.3333333333333333
 40
0.5
 40
0.5
 40
0.5
 40
0.5
 40
0.6666666666666666
 40
0.6666666666666666
 40
0.6666666666666666
 40
0.6666666666666666
 40
1.0
 40
1.0
 40
1.0
 40
1.0
 10
-159.0198
 20
-38.7061
 30
0.0
 10
-160.214
 20
-42.6594
 30
0.0
 10
-159.9498
 20
-47.0919
 30
0.0
 10
-158.4191
 20
-50.9221
 30
0.0
 10
-158.4191
 20
-50.9221
 30
0.0
 10
-158.1337
 20
-51.9039
 30
0.0
 10
-157.0194
 20
-52.0711
 30
0.0
 10
-156.2535
 20
-52.5028
 30
0.0
 10
-156.2535
 20
-52.5028
 30
0.0
 10
-156.8733
 20
-49.9334
 30
0.0
 10
-157.7924
 20
-47.4057
 30
0.0
 10
-157.9178
 20
-44.7456
 30
0.0
 10
-157.9178
 20
-44.7456
 30
0.0
 10
-158.106
 20
-42.571
 30
0.0
 10
-157.8249
 20
-40.4037
 30
0.0
 10
-157.333
 20
-38.293
 30
0.0
 10
-157.333
 20
-38.293
 30
0.0
 10
-156.9145
 20
-36.497
 30
0.0
 10
-158.4622
 20
-36.8602
 30
0.0
 10
-159.0198
 20
-38.7061
 30
0.0
  0
SPLINE
  5
93
330
1F
100
AcDbEntity
  8
layer 1
 62
   250
100
AcDbSpline
210
0.0
220
0.0
230
1.0
 70
    11
 71
     3
 72
    28
 73
    24
 74
     0
 42
0.0000000001
 43
0.0000000001
 12
1.0
 22
0.0
 32
0.0
 13
1.0
 23
0.0
 33
0.0
 40
0.0
 40
0.0
 40
0.0
 40
0.0
 40
0.1428571428571428
 40
0.1428571428571428
 40
0.1428571428571428
 40
0.1428571428571428
 40
0.2857142857142857
 40
0.2857142857142857
 40
0.2857142857142857
 40
0.2857142857142857
 40
0.4285714285714285
 40
0.4285714285714285
 40
0.4285714285714285
 40
0.4285714285714285
 40
0.5714285714285714
 40
0.5714285714285714
 40
0.5714285714285714
 40
0.5714285714285714
 40
0.7142857142857143
 40
0.7142857142857143
 40
0.7142857142857143
 40
0.7142857142857143
 40
1.0
 40
1.0
 40
1.0
 40
1.0
 10
-110.2603
 20
-44.4949
 30
0.0
 10
-107.8022
 20
-46.8555
 30
0.0
 10
-107.2383
 20
-50.6714
 30
0.0
 10
-104.2927
 20
-52.5725
 30
0.0
 10
-104.2927
 20
-52.5725
 30
0.0
 10
-100.3305
 20
-55.2325
 30
0.0
 10
-95.2543
 20
-56.5277
 30
0.0
 10
-90.547
 20
-55.4972
 30
0.0
 10
-90.547
 20
-55.4972
 30
0.0
 10
-88.6878
 20
-55.0653
 30
0.0
 10
-87.873
 20
-53.2132
 30
0.0
 10
-87.2047
 20
-51.6324
 30
0.0
 10
-87.2047
 20
-51.6324
 30
0.0
 10
-89.7462
 20
-50.567
 30
0.0
 10
-92.3993
 20
-49.5086
 30
0.0
 10
-94.3351
 20
-47.4683
 30
0.0
 10
-94.3351
 20
-47.4683
 30
0.0
 10
-96.5565
 20
-45.2399
 30
0.0
 10
-98.9727
 20
-42.9491
 30
0.0
 10
-102.141
 20
-42.2527
 30
0.0
 10
-102.141
 20
-42.2527
 30
0.0
 10
-105.0238
 20
-41.4381
 30
0.0
 10
-108.1504
 20
-42.4407
 30
0.0
 10
-110.2603
 20
-44.4949
 30
0.0
  0
SPLINE
  5
94
330
1F
100
AcDbEntity
  8
layer 1
 62
   250
100
AcDbSpline
210
0.0
220
0.0
230
1.0
 70
    11
 71
     3
 72
    56
 73
    52
 74
     0
 42
0.0000000001
 43
0.0000000001
 12
1.0
 22
0.0
 32
0.0
 13
1.0
 23
0.0
 33
0.0
 40
0.0
 40
0.0
 40
0.0
 40
0.0
 40
0.0714285714285714
 40
0.0714285714285714
 40
0.0714285714285714
 40
0.0714285714285714
 40
0.1428571428571428
 40
0.1428571428571428
 40
0.1428571428571428
 40
0.1428571428571428
 40
0.2142857142857143
 40
0.2142857142857143
 40
0.2142857142857143
 40
0.2142857142857143
 40
0.2857142857142857
 40
0.2857142857142857
 40
0.2857142857142857
 40
0.2857142857142857
 40
0.3571428571428572
 40
0.3571428571428572
 40
0.3571428571428572
 40
0.3571428571428572
 40
0.4285714285714285
 40
0.4285714285714285
 40
0.4285714285714285
 40
0.4285714285714285
 40
0.5
 40
0.5
 40
0.5
 40
0.5
 40
0.5714285714285714
 40
0.5714285714285714
 40
0.5714285714285714
 40
0.5714285714285714
 40
0.6428571428571429
 40
0.6428571428571429
 40
0.6428571428571429
 40
0.6428571428571429
 40
0.7142857142857143
 40
0.7142857142857143
 40
0.7142857142857143
 40
0.7142857142857143
 40
0.7857142857142857
 40
0.7857142857142857
 40
0.7857142857142857
 40
0.7857142857142857
 40
0.8571428571428571
 40
0.8571428571428571
 40
0.8571428571428571
 40
0.8571428571428571
 40
1.0
 40
1.0
 40
1.0
 40
1.0
 10
-142.8767
 20
-44.0214
 30
0.0
 10
-142.7654
 20
-44.6482
 30
0.0
 10
-142.6539
 20
-45.2748
 30
0.0
 10
-142.5426
 20
-45.9015
 30
0.0
 10
-142.5426
 20
-45.9015
 30
0.0
 10
-145.5439
 20
-45.428
 30
0.0
 10
-148.5171
 20
-46.1382
 30
0.0
 10
-151.3303
 20
-47.1619
 30
0.0
 10
-151.3303
 20
-47.1619
 30
0.0
 10
-150.279
 20
-49.2439
 30
0.0
 10
-149.6173
 20
-51.5141
 30
0.0
 10
-148.4546
 20
-53.5474
 30
0.0
 10
-148.4546
 20
-53.5474
 30
0.0
 10
-147.1593
 20
-55.6503
 30
0.0
 10
-144.4993
 20
-55.9985
 30
0.0
 10
-142.3545
 20
-56.7434
 30
0.0
 10
-142.3545
 20
-56.7434
 30
0.0
 10
-142.8421
 20
-57.5233
 30
0.0
 10
-143.3294
 20
-58.2963
 30
0.0
 10
-143.8169
 20
-59.0762
 30
0.0
 10
-143.8169
 20
-59.0762
 30
0.0
 10
-140.0218
 20
-61.0678
 30
0.0
 10
-135.5374
 20
-60.65
 30
0.0
 10
-131.7145
 20
-58.9648
 30
0.0
 10
-131.7145
 20
-58.9648
 30
0.0
 10
-129.2634
 20
-58.0597
 30
0.0
 10
-126.889
 20
-56.1446
 30
0.0
 10
-124.1384
 20
-56.82
 30
0.0
 10
-124.1384
 20
-56.82
 30
0.0
 10
-124.0619
 20
-56.6669
 30
0.0
 10
-123.9225
 20
-56.3467
 30
0.0
 10
-123.8528
 20
-56.1934
 30
0.0
 10
-123.8528
 20
-56.1934
 30
0.0
 10
-125.1621
 20
-55.6363
 30
0.0
 10
-126.5687
 20
-55.2465
 30
0.0
 10
-127.7733
 20
-54.4804
 30
0.0
 10
-127.7733
 20
-54.4804
 30
0.0
 10
-129.4931
 20
-52.7744
 30
0.0
 10
-130.1616
 20
-50.3442
 30
0.0
 10
-131.4638
 20
-48.3528
 30
0.0
 10
-131.4638
 20
-48.3528
 30
0.0
 10
-132.606
 20
-46.3123
 30
0.0
 10
-134.3326
 20
-44.7107
 30
0.0
 10
-136.2128
 20
-43.3669
 30
0.0
 10
-136.2128
 20
-43.3669
 30
0.0
 10
-136.6097
 20
-44.1049
 30
0.0
 10
-136.9998
 20
-44.85
 30
0.0
 10
-137.3896
 20
-45.5953
 30
0.0
 10
-137.3896
 20
-45.5953
 30
0.0
 10
-138.9843
 20
-44.3905
 30
0.0
 10
-140.927
 20
-44.0702
 30
0.0
 10
-142.8767
 20
-44.0214
 30
0.0
  0
SPLINE
  5
95
330
1F
100
AcDbEntity
  8
layer 1
 62
   250
100
AcDbSpline
210
0.0
220
0.0
230
1.0
 70
    11
 71
     3
 72
    44
 73
    40
 74
     0
 42
0.0000000001
 43
0.0000000001
 12
1.0
 22
0.0
 32
0.0
 13
1.0
 23
0.0
 33
0.0
 40
0.0
 40
0.0
 40
0.0
 40
0.0
 40
0.0909090909090909
 40
0.0909090909090909
 40
0.0909090909090909
 40
0.0909090909090909
 40
0.1818181818181818
 40
0.1818181818181818
 40
0.1818181818181818
 40
0.1818181818181818
 40
0.2727272727272727
 40
0.2727272727272727
 40
0.2727272727272727
 40
0.2727272727272727
 40
0.3636363636363636
 40
0.3636363636363636
 40
0.3636363636363636
 40
0.3636363636363636
 40
0.4545454545454545
 40
0.4545454545454545
 40
0.4545454545454545
 40
0.4545454545454545
 40
0.5454545454545454
 40
0.5454545454545454
 40
0.5454545454545454
 40
0.5454545454545454
 40
0.6363636363636364
 40
0.6363636363636364
 40
0.6363636363636364
 40
0.6363636363636364
 40
0.7272727272727273
 40
0.7272727272727273
 40
0.7272727272727273
 40
0.7272727272727273
 40
0.8181818181818182
 40
0.8181818181818182
 40
0.8181818181818182
 40
0.8181818181818182
 40
1.0
 40
1.0
 40
1.0
 40
1.0
 10
-37.9106
 20
-49.1186
 30
0.0
 10
-38.7949
 20
-50.7202
 30
0.0
 10
-37.9663
 20
-52.5168
 30
0.0
 10
-37.6531
 20
-54.1463
 30
0.0
 10
-37.6531
 20
-54.1463
 30
0.0
 10
-36.4902
 20
-51.0127
 30
0.0
 10
-35.2854
 20
-47.3429
 30
0.0
 10
-31.8456
 20
-46.0548
 30
0.0
 10
-31.8456
 20
-46.0548
 30
0.0
 10
-27.8137
 20
-43.938
 30
0.0
 10
-21.1637
 20
-47.1271
 30
0.0
 10
-22.2639
 20
-52.1617
 30
0.0
 10
-22.2639
 20
-52.1617
 30
0.0
 10
-22.5287
 20
-54.2297
 30
0.0
 10
-24.7568
 20
-54.1671
 30
0.0
 10
-26.3515
 20
-54.0138
 30
0.0
 10
-26.3515
 20
-54.0138
 30
0.0
 10
-26.1705
 20
-52.5516
 30
0.0
 10
-25.8223
 20
-51.0962
 30
0.0
 10
-25.8432
 20
-49.62
 30
0.0
 10
-25.8432
 20
-49.62
 30
0.0
 10
-26.3446
 20
-47.4822
 30
0.0
 10
-28.9976
 20
-47.712
 30
0.0
 10
-30.6062
 20
-48.2481
 30
0.0
 10
-30.6062
 20
-48.2481
 30
0.0
 10
-29.666
 20
-49.7105
 30
0.0
 10
-28.7748
 20
-51.2703
 30
0.0
 10
-28.8861
 20
-53.0808
 30
0.0
 10
-28.8861
 20
-53.0808
 30
0.0
 10
-29.1717
 20
-55.7129
 30
0.0
 10
-25.9407
 20
-57.2726
 30
0.0
 10
-23.754
 20
-56.2421
 30
0.0
 10
-23.754
 20
-56.2421
 30
0.0
 10
-19.6946
 20
-55.1281
 30
0.0
 10
-19.5064
 20
-49.5295
 30
0.0
 10
-21.9019
 20
-46.7371
 30
0.0
 10
-21.9019
 20
-46.7371
 30
0.0
 10
-26.0382
 20
-41.6538
 30
0.0
 10
-35.3622
 20
-43.0884
 30
0.0
 10
-37.9106
 20
-49.1186
 30
0.0
  0
SPLINE
  5
96
330
1F
100
AcDbEntity
  8
layer 1
 62
   250
100
AcDbSpline
210
0.0
220
0.0
230
1.0
 70
    11
 71
     3
 72
    24
 73
    20
 74
     0
 42
0.0000000001
 43
0.0000000001
 12
1.0
 22
0.0
 32
0.0
 13
1.0
 23
0.0
 33
0.0
 40
0.0
 40
0.0
 40
0.0
 40
0.0
 40
0.1666666666666667
 40
0.1666666666666667
 40
0.1666666666666667
 40
0.1666666666666667
 40
0.3333333333333333
 40
0.3333333333333333
 40
0.3333333333333333
 40
0.3333333333333333
 40
0.5
 40
0.5
 40
0.5
 40
0.5
 40
0.6666666666666666
 40
0.6666666666666666
 40
0.6666666666666666
 40
0.6666666666666666
 40
1.0
 40
1.0
 40
1.0
 40
1.0
 10
-78.4724
 20
-53.6658
 30
0.0
 10
-79.879
 20
-55.8591
 30
0.0
 10
-79.8303
 20
-58.6166
 30
0.0
 10
-79.3639
 20
-61.0887
 30
0.0
 10
-79.3639
 20
-61.0887
 30
0.0
 10
-78.9181
 20
-63.686
 30
0.0
 10
-77.0033
 20
-65.6846
 30
0.0
 10
-76.3278
 20
-68.2123
 30
0.0
 10
-76.3278
 20
-68.2123
 30
0.0
 10
-72.3656
 20
-67.6691
 30
0.0
 10
-68.5357
 20
-64.7375
 30
0.0
 10
-67.7488
 20
-60.6849
 30
0.0
 10
-67.7488
 20
-60.6849
 30
0.0
 10
-66.5163
 20
-55.9636
 30
0.0
 10
-68.9674
 20
-51.1937
 30
0.0
 10
-72.1985
 20
-47.8721
 30
0.0
 10
-72.1985
 20
-47.8721
 30
0.0
 10
-74.4965
 20
-49.5433
 30
0.0
 10
-76.9336
 20
-51.2147
 30
0.0
 10
-78.4724
 20
-53.6658
 30
0.0
  0
SPLINE
  5
97
330
1F
100
AcDbEntity
  8
layer 1
 62
   250
100
AcDbSpline
210
0.0
220
0.0
230
1.0
 70
    11
 71
     3
 72
    20
 73
    16
 74
     0
 42
0.0000000001
 43
0.0000000001
 12
1.0
 22
0.0
 32
0.0
 13
1.0
 23
0.0
 33
0.0
 40
0.0
 40
0.0
 40
0.0
 40
0.0
 40
0.2
 40
0.2
 40
0.2
 40
0.2
 40
0.4
 40
0.4
 40
0.4
 40
0.4
 40
0.6
 40
0.6
 40
0.6
 40
0.6
 40
1.0
 40
1.0
 40
1.0
 40
1.0
 10
-84.9833
 20
-59.7795
 30
0.0
 10
-84.2311
 20
-61.0538
 30
0.0
 10
-82.7689
 20
-61.4229
 30
0.0
 10
-81.3902
 20
-61.5482
 30
0.0
 10
-81.3902
 20
-61.5482
 30
0.0
 10
-81.6409
 20
-58.2963
 30
0.0
 10
-81.0071
 20
-55.0862
 30
0.0
 10
-79.7537
 20
-52.099
 30
0.0
 10
-79.7537
 20
-52.099
 30
0.0
 10
-81.3274
 20
-51.6394
 30
0.0
 10
-82.8384
 20
-51.0056
 30
0.0
 10
-84.259
 20
-50.191
 30
0.0
 10
-84.259
 20
-50.191
 30
0.0
 10
-85.8259
 20
-53.032
 30
0.0
 10
-87.114
 20
-56.8759
 30
0.0
 10
-84.9833
 20
-59.7795
 30
0.0
  0
SPLINE
  5
98
330
1F
100
AcDbEntity
  8
layer 1
 62
   250
100
AcDbSpline
210
0.0
220
0.0
230
1.0
 70
    11
 71
     3
 72
    52
 73
    48
 74
     0
 42
0.0000000001
 43
0.0000000001
 12
1.0
 22
0.0
 32
0.0
 13
1.0
 23
0.0
 33
0.0
 40
0.0
 40
0.0
 40
0.0
 40
0.0
 40
0.0769230769230769
 40
0.0769230769230769
 40
0.0769230769230769
 40
0.0769230769230769
 40
0.1538461538461539
 40
0.1538461538461539
 40
0.1538461538461539
 40
0.1538461538461539
 40
0.2307692307692308
 40
0.2307692307692308
 40
0.2307692307692308
 40
0.2307692307692308
 40
0.3076923076923077
 40
0.3076923076923077
 40
0.3076923076923077
 40
0.3076923076923077
 40
0.3846153846153846
 40
0.3846153846153846
 40
0.3846153846153846
 40
0.3846153846153846
 40
0.4615384615384616
 40
0.4615384615384616
 40
0.4615384615384616
 40
0.4615384615384616
 40
0.5384615384615384
 40
0.5384615384615384
 40
0.5384615384615384
 40
0.5384615384615384
 40
0.6153846153846154
 40
0.6153846153846154
 40
0.6153846153846154
 40
0.6153846153846154
 40
0.6923076923076923
 40
0.6923076923076923
 40
0.6923076923076923
 40
0.6923076923076923
 40
0.7692307692307693
 40
0.7692307692307693
 40
0.7692307692307693
 40
0.7692307692307693
 40
0.8461538461538461
 40
0.8461538461538461
 40
0.8461538461538461
 40
0.8461538461538461
 40
1.0
 40
1.0
 40
1.0
 40
1.0
 10
-168.3281
 20
-58.6586
 30
0.0
 10
-167.9938
 20
-58.8952
 30
0.0
 10
-167.3323
 20
-59.3687
 30
0.0
 10
-166.998
 20
-59.6055
 30
0.0
 10
-166.998
 20
-59.6055
 30
0.0
 10
-169.4631
 20
-61.3603
 30
0.0
 10
-169.846
 20
-64.4101
 30
0.0
 10
-170.6259
 20
-67.1051
 30
0.0
 10
-170.6259
 20
-67.1051
 30
0.0
 10
-170.2083
 20
-67.2027
 30
0.0
 10
-169.3656
 20
-67.3974
 30
0.0
 10
-168.9477
 20
-67.495
 30
0.0
 10
-168.9477
 20
-67.495
 30
0.0
 10
-169.8807
 20
-69.5213
 30
0.0
 10
-171.3223
 20
-71.2343
 30
0.0
 10
-172.6035
 20
-73.0449
 30
0.0
 10
-172.6035
 20
-73.0449
 30
0.0
 10
-168.4535
 20
-73.5323
 30
0.0
 10
-164.2057
 20
-72.4042
 30
0.0
 10
-160.8494
 20
-69.9182
 30
0.0
 10
-160.8494
 20
-69.9182
 30
0.0
 10
-160.3202
 20
-70.148
 30
0.0
 10
-159.784
 20
-70.3778
 30
0.0
 10
-159.2548
 20
-70.6147
 30
0.0
 10
-159.2548
 20
-70.6147
 30
0.0
 10
-157.3397
 20
-69.5073
 30
0.0
 10
-155.2021
 20
-68.4839
 30
0.0
 10
-154.0878
 20
-66.4644
 30
0.0
 10
-154.0878
 20
-66.4644
 30
0.0
 10
-152.3052
 20
-63.9019
 30
0.0
 10
-152.4933
 20
-60.6569
 30
0.0
 10
-151.7343
 20
-57.7602
 30
0.0
 10
-151.7343
 20
-57.7602
 30
0.0
 10
-150.9126
 20
-56.6321
 30
0.0
 10
-149.1091
 20
-56.7157
 30
0.0
 10
-148.4474
 20
-55.3857
 30
0.0
 10
-148.4474
 20
-55.3857
 30
0.0
 10
-150.1953
 20
-55.2255
 30
0.0
 10
-151.957
 20
-55.2255
 30
0.0
 10
-153.698
 20
-54.9958
 30
0.0
 10
-153.698
 20
-54.9958
 30
0.0
 10
-155.801
 20
-54.564
 30
0.0
 10
-157.6254
 20
-52.9485
 30
0.0
 10
-159.8815
 20
-53.2758
 30
0.0
 10
-159.8815
 20
-53.2758
 30
0.0
 10
-163.4327
 20
-53.5124
 30
0.0
 10
-165.8142
 20
-56.5068
 30
0.0
 10
-168.3281
 20
-58.6586
 30
0.0
  0
SPLINE
  5
99
330
1F
100
AcDbEntity
  8
layer 1
 62
   250
100
AcDbSpline
210
0.0
220
0.0
230
1.0
 70
    11
 71
     3
 72
    52
 73
    48
 74
     0
 42
0.0000000001
 43
0.0000000001
 12
1.0
 22
0.0
 32
0.0
 13
1.0
 23
0.0
 33
0.0
 40
0.0
 40
0.0
 40
0.0
 40
0.0
 40
0.0769230769230769
 40
0.0769230769230769
 40
0.0769230769230769
 40
0.0769230769230769
 40
0.1538461538461539
 40
0.1538461538461539
 40
0.1538461538461539
 40
0.1538461538461539
 40
0.2307692307692308
 40
0.2307692307692308
 40
0.2307692307692308
 40
0.2307692307692308
 40
0.3076923076923077
 40
0.3076923076923077
 40
0.3076923076923077
 40
0.3076923076923077
 40
0.3846153846153846
 40
0.3846153846153846
 40
0.3846153846153846
 40
0.3846153846153846
 40
0.4615384615384616
 40
0.4615384615384616
 40
0.4615384615384616
 40
0.4615384615384616
 40
0.5384615384615384
 40
0.5384615384615384
 40
0.5384615384615384
 40
0.5384615384615384
 40
0.6153846153846154
 40
0.6153846153846154
 40
0.6153846153846154
 40
0.6153846153846154
 40
0.6923076923076923
 40
0.6923076923076923
 40
0.6923076923076923
 40
0.6923076923076923
 40
0.7692307692307693
 40
0.7692307692307693
 40
0.7692307692307693
 40
0.7692307692307693
 40
0.8461538461538461
 40
0.8461538461538461
 40
0.8461538461538461
 40
0.8461538461538461
 40
1.0
 40
1.0
 40
1.0
 40
1.0
 10
-64.6918
 20
-54.4735
 30
0.0
 10
-64.6918
 20
-57.4817
 30
0.0
 10
-64.0651
 20
-60.5595
 30
0.0
 10
-64.9425
 20
-63.5119
 30
0.0
 10
-64.9425
 20
-63.5119
 30
0.0
 10
-65.3535
 20
-65.4129
 30
0.0
 10
-66.8435
 20
-66.7848
 30
0.0
 10
-67.7
 20
-68.4768
 30
0.0
 10
-67.7
 20
-68.4768
 30
0.0
 10
-68.3338
 20
-71.2274
 30
0.0
 10
-68.4035
 20
-74.2843
 30
0.0
 10
-70.2068
 20
-76.6101
 30
0.0
 10
-70.2068
 20
-76.6101
 30
0.0
 10
-71.5577
 20
-78.5528
 30
0.0
 10
-73.7791
 20
-79.5555
 30
0.0
 10
-75.4711
 20
-81.1362
 30
0.0
 10
-75.4711
 20
-81.1362
 30
0.0
 10
-76.1328
 20
-86.5468
 30
0.0
 10
-75.3808
 20
-92.0549
 30
0.0
 10
-75.7915
 20
-97.5071
 30
0.0
 10
-75.7915
 20
-97.5071
 30
0.0
 10
-74.0507
 20
-97.2705
 30
0.0
 10
-72.3447
 20
-96.8526
 30
0.0
 10
-70.6875
 20
-96.2678
 30
0.0
 10
-70.6875
 20
-96.2678
 30
0.0
 10
-72.637
 20
-93.0645
 30
0.0
 10
-73.3822
 20
-88.6079
 30
0.0
 10
-71.0773
 20
-85.4049
 30
0.0
 10
-71.0773
 20
-85.4049
 30
0.0
 10
-69.803
 20
-83.5038
 30
0.0
 10
-67.4355
 20
-83.1
 30
0.0
 10
-65.3882
 20
-82.5638
 30
0.0
 10
-65.3882
 20
-82.5638
 30
0.0
 10
-65.7086
 20
-79.9037
 30
0.0
 10
-65.9383
 20
-77.1531
 30
0.0
 10
-65.242
 20
-74.535
 30
0.0
 10
-65.242
 20
-74.535
 30
0.0
 10
-64.3229
 20
-71.3389
 30
0.0
 10
-62.5332
 20
-68.4977
 30
0.0
 10
-60.6809
 20
-65.768
 30
0.0
 10
-60.6809
 20
-65.768
 30
0.0
 10
-61.4401
 20
-61.778
 30
0.0
 10
-60.9803
 20
-57.6767
 30
0.0
 10
-59.4693
 20
-53.9165
 30
0.0
 10
-59.4693
 20
-53.9165
 30
0.0
 10
-61.1963
 20
-54.0348
 30
0.0
 10
-63.1182
 20
-53.5892
 30
0.0
 10
-64.6918
 20
-54.4735
 30
0.0
  0
SPLINE
  5
9A
330
1F
100
AcDbEntity
  8
layer 1
 62
   250
100
AcDbSpline
210
0.0
220
0.0
230
1.0
 70
    11
 71
     3
 72
    32
 73
    28
 74
     0
 42
0.0000000001
 43
0.0000000001
 12
1.0
 22
0.0
 32
0.0
 13
1.0
 23
0.0
 33
0.0
 40
0.0
 40
0.0
 40
0.0
 40
0.0
 40
0.125
 40
0.125
 40
0.125
 40
0.125
 40
0.25
 40
0.25
 40
0.25
 40
0.25
 40
0.375
 40
0.375
 40
0.375
 40
0.375
 40
0.5
 40
0.5
 40
0.5
 40
0.5
 40
0.625
 40
0.625
 40
0.625
 40
0.625
 40
0.75
 40
0.75
 40
0.75
 40
0.75
 40
1.0
 40
1.0
 40
1.0
 40
1.0
 10
-56.6284
 20
-62.6833
 30
0.0
 10
-55.751
 20
-66.6176
 30
0.0
 10
-53.1256
 20
-69.779
 30
0.0
 10
-51.2037
 20
-73.2259
 30
0.0
 10
-51.2037
 20
-73.2259
 30
0.0
 10
-49.5952
 20
-76.7214
 30
0.0
 10
-49.2471
 20
-80.6627
 30
0.0
 10
-49.2401
 20
-84.4647
 30
0.0
 10
-49.2401
 20
-84.4647
 30
0.0
 10
-49.1983
 20
-88.1763
 30
0.0
 10
-51.4962
 20
-91.3238
 30
0.0
 10
-51.9628
 20
-94.9308
 30
0.0
 10
-51.9628
 20
-94.9308
 30
0.0
 10
-50.8626
 20
-93.9072
 30
0.0
 10
-49.9296
 20
-92.7094
 30
0.0
 10
-49.2401
 20
-91.3725
 30
0.0
 10
-49.2401
 20
-91.3725
 30
0.0
 10
-45.3963
 20
-84.4578
 30
0.0
 10
-44.3587
 20
-76.1714
 30
0.0
 10
-45.7096
 20
-68.428
 30
0.0
 10
-45.7096
 20
-68.428
 30
0.0
 10
-46.7055
 20
-62.7948
 30
0.0
 10
-50.4657
 20
-57.8089
 30
0.0
 10
-55.4933
 20
-55.1281
 30
0.0
 10
-55.4933
 20
-55.1281
 30
0.0
 10
-57.1087
 20
-57.231
 30
0.0
 10
-57.1784
 20
-60.1765
 30
0.0
 10
-56.6284
 20
-62.6833
 30
0.0
  0
SPLINE
  5
9B
330
1F
100
AcDbEntity
  8
layer 1
 62
   250
100
AcDbSpline
210
0.0
220
0.0
230
1.0
 70
    11
 71
     3
 72
    28
 73
    24
 74
     0
 42
0.0000000001
 43
0.0000000001
 12
1.0
 22
0.0
 32
0.0
 13
1.0
 23
0.0
 33
0.0
 40
0.0
 40
0.0
 40
0.0
 40
0.0
 40
0.1428571428571428
 40
0.1428571428571428
 40
0.1428571428571428
 40
0.1428571428571428
 40
0.2857142857142857
 40
0.2857142857142857
 40
0.2857142857142857
 40
0.2857142857142857
 40
0.4285714285714285
 40
0.4285714285714285
 40
0.4285714285714285
 40
0.4285714285714285
 40
0.5714285714285714
 40
0.5714285714285714
 40
0.5714285714285714
 40
0.5714285714285714
 40
0.7142857142857143
 40
0.7142857142857143
 40
0.7142857142857143
 40
0.7142857142857143
 40
1.0
 40
1.0
 40
1.0
 40
1.0
 10
-108.3663
 20
-62.3769
 30
0.0
 10
-106.8901
 20
-63.3449
 30
0.0
 10
-105.783
 20
-64.7446
 30
0.0
 10
-104.3901
 20
-65.8099
 30
0.0
 10
-104.3901
 20
-65.8099
 30
0.0
 10
-101.2636
 20
-67.8988
 30
0.0
 10
-97.211
 20
-66.736
 30
0.0
 10
-94.1263
 20
-65.1623
 30
0.0
 10
-94.1263
 20
-65.1623
 30
0.0
 10
-90.8115
 20
-63.5955
 30
0.0
 10
-87.8034
 20
-60.6431
 30
0.0
 10
-87.873
 20
-56.7297
 30
0.0
 10
-87.873
 20
-56.7297
 30
0.0
 10
-90.0178
 20
-57.3633
 30
0.0
 10
-92.2321
 20
-57.9969
 30
0.0
 10
-94.4951
 20
-57.7046
 30
0.0
 10
-94.4951
 20
-57.7046
 30
0.0
 10
-97.3641
 20
-57.5374
 30
0.0
 10
-99.8779
 20
-55.727
 30
0.0
 10
-102.7607
 20
-55.7339
 30
0.0
 10
-102.7607
 20
-55.7339
 30
0.0
 10
-105.9152
 20
-56.3467
 30
0.0
 10
-107.6838
 20
-59.4871
 30
0.0
 10
-108.3663
 20
-62.3769
 30
0.0
  0
SPLINE
  5
9C
330
1F
100
AcDbEntity
  8
layer 1
 62
   250
100
AcDbSpline
210
0.0
220
0.0
230
1.0
 70
    11
 71
     3
 72
    64
 73
    60
 74
     0
 42
0.0000000001
 43
0.0000000001
 12
1.0
 22
0.0
 32
0.0
 13
1.0
 23
0.0
 33
0.0
 40
0.0
 40
0.0
 40
0.0
 40
0.0
 40
0.0625
 40
0.0625
 40
0.0625
 40
0.0625
 40
0.125
 40
0.125
 40
0.125
 40
0.125
 40
0.1875
 40
0.1875
 40
0.1875
 40
0.1875
 40
0.25
 40
0.25
 40
0.25
 40
0.25
 40
0.3125
 40
0.3125
 40
0.3125
 40
0.3125
 40
0.375
 40
0.375
 40
0.375
 40
0.375
 40
0.4375
 40
0.4375
 40
0.4375
 40
0.4375
 40
0.5
 40
0.5
 40
0.5
 40
0.5
 40
0.5625
 40
0.5625
 40
0.5625
 40
0.5625
 40
0.625
 40
0.625
 40
0.625
 40
0.625
 40
0.6875
 40
0.6875
 40
0.6875
 40
0.6875
 40
0.75
 40
0.75
 40
0.75
 40
0.75
 40
0.8125
 40
0.8125
 40
0.8125
 40
0.8125
 40
0.875
 40
0.875
 40
0.875
 40
0.875
 40
1.0
 40
1.0
 40
1.0
 40
1.0
 10
-136.1781
 20
-69.2567
 30
0.0
 10
-140.3283
 20
-69.0547
 30
0.0
 10
-142.5148
 20
-73.0587
 30
0.0
 10
-145.112
 20
-75.5796
 30
0.0
 10
-145.112
 20
-75.5796
 30
0.0
 10
-147.5005
 20
-77.2228
 30
0.0
 10
-150.5016
 20
-75.9765
 30
0.0
 10
-153.0434
 20
-75.3636
 30
0.0
 10
-153.0434
 20
-75.3636
 30
0.0
 10
-154.3247
 20
-78.0723
 30
0.0
 10
-153.3776
 20
-81.4497
 30
0.0
 10
-150.3206
 20
-82.3408
 30
0.0
 10
-150.3206
 20
-82.3408
 30
0.0
 10
-151.595
 20
-84.3604
 30
0.0
 10
-152.3402
 20
-86.7071
 30
0.0
 10
-151.3025
 20
-89.0188
 30
0.0
 10
-151.3025
 20
-89.0188
 30
0.0
 10
-148.9141
 20
-89.7847
 30
0.0
 10
-146.3516
 20
-90.0495
 30
0.0
 10
-144.0886
 20
-88.7542
 30
0.0
 10
-144.0886
 20
-88.7542
 30
0.0
 10
-143.5453
 20
-89.4575
 30
0.0
 10
-143.2946
 20
-90.502
 30
0.0
 10
-142.3754
 20
-90.8433
 30
0.0
 10
-142.3754
 20
-90.8433
 30
0.0
 10
-140.5024
 20
-91.672
 30
0.0
 10
-138.7058
 20
-90.2792
 30
0.0
 10
-137.0067
 20
-89.6316
 30
0.0
 10
-137.0067
 20
-89.6316
 30
0.0
 10
-137.5916
 20
-88.4201
 30
0.0
 10
-138.5595
 20
-87.2292
 30
0.0
 10
-138.3923
 20
-85.8157
 30
0.0
 10
-138.3923
 20
-85.8157
 30
0.0
 10
-138.086
 20
-81.7422
 30
0.0
 10
-135.3076
 20
-78.5318
 30
0.0
 10
-133.915
 20
-74.8413
 30
0.0
 10
-133.915
 20
-74.8413
 30
0.0
 10
-133.3021
 20
-73.3651
 30
0.0
 10
-133.9288
 20
-71.8263
 30
0.0
 10
-134.3536
 20
-70.4056
 30
0.0
 10
-134.3536
 20
-70.4056
 30
0.0
 10
-131.9652
 20
-66.1859
 30
0.0
 10
-128.3581
 20
-62.6345
 30
0.0
 10
-124.0966
 20
-60.3227
 30
0.0
 10
-124.0966
 20
-60.3227
 30
0.0
 10
-120.6427
 20
-58.4148
 30
0.0
 10
-116.4786
 20
-58.6376
 30
0.0
 10
-112.809
 20
-59.7516
 30
0.0
 10
-112.809
 20
-59.7516
 30
0.0
 10
-111.5346
 20
-60.072
 30
0.0
 10
-109.2159
 20
-60.7336
 30
0.0
 10
-109.4108
 20
-58.6307
 30
0.0
 10
-109.4108
 20
-58.6307
 30
0.0
 10
-111.3258
 20
-56.8131
 30
0.0
 10
-114.2643
 20
-57.2448
 30
0.0
 10
-116.6945
 20
-57.0708
 30
0.0
 10
-116.6945
 20
-57.0708
 30
0.0
 10
-124.9183
 20
-57.0013
 30
0.0
 10
-131.6867
 20
-62.8922
 30
0.0
 10
-136.1781
 20
-69.2567
 30
0.0
  0
SPLINE
  5
9D
330
1F
100
AcDbEntity
  8
layer 1
 62
   250
100
AcDbSpline
210
0.0
220
0.0
230
1.0
 70
    11
 71
     3
 72
    20
 73
    16
 74
     0
 42
0.0000000001
 43
0.0000000001
 12
1.0
 22
0.0
 32
0.0
 13
1.0
 23
0.0
 33
0.0
 40
0.0
 40
0.0
 40
0.0
 40
0.0
 40
0.2
 40
0.2
 40
0.2
 40
0.2
 40
0.4
 40
0.4
 40
0.4
 40
0.4
 40
0.6
 40
0.6
 40
0.6
 40
0.6
 40
1.0
 40
1.0
 40
1.0
 40
1.0
 10
-150.6551
 20
-60.4621
 30
0.0
 10
-150.3973
 20
-61.5552
 30
0.0
 10
-150.5504
 20
-63.0314
 30
0.0
 10
-149.1717
 20
-63.3727
 30
0.0
 10
-149.1717
 20
-63.3727
 30
0.0
 10
-145.2373
 20
-65.5105
 30
0.0
 10
-140.8017
 20
-66.4994
 30
0.0
 10
-136.3869
 20
-66.9798
 30
0.0
 10
-136.3869
 20
-66.9798
 30
0.0
 10
-135.788
 20
-66.1718
 30
0.0
 10
-135.1823
 20
-65.3641
 30
0.0
 10
-134.5764
 20
-64.5565
 30
0.0
 10
-134.5764
 20
-64.5565
 30
0.0
 10
-140.1959
 20
-64.5077
 30
0.0
 10
-145.6483
 20
-62.934
 30
0.0
 10
-150.6551
 20
-60.4621
 30
0.0
  0
SPLINE
  5
9E
330
1F
100
AcDbEntity
  8
layer 1
 62
   250
100
AcDbSpline
210
0.0
220
0.0
230
1.0
 70
    11
 71
     3
 72
    20
 73
    16
 74
     0
 42
0.0000000001
 43
0.0000000001
 12
1.0
 22
0.0
 32
0.0
 13
1.0
 23
0.0
 33
0.0
 40
0.0
 40
0.0
 40
0.0
 40
0.0
 40
0.2
 40
0.2
 40
0.2
 40
0.2
 40
0.4
 40
0.4
 40
0.4
 40
0.4
 40
0.6
 40
0.6
 40
0.6
 40
0.6
 40
1.0
 40
1.0
 40
1.0
 40
1.0
 10
-128.3722
 20
-65.0647
 30
0.0
 10
-129.1171
 20
-65.8586
 30
0.0
 10
-129.8623
 20
-66.6385
 30
0.0
 10
-130.6005
 20
-67.4462
 30
0.0
 10
-130.6005
 20
-67.4462
 30
0.0
 10
-125.9767
 20
-67.7596
 30
0.0
 10
-121.3321
 20
-67.0633
 30
0.0
 10
-116.7921
 20
-66.2346
 30
0.0
 10
-116.7921
 20
-66.2346
 30
0.0
 10
-115.7893
 20
-64.8003
 30
0.0
 10
-114.891
 20
-63.2961
 30
0.0
 10
-114.0971
 20
-61.7364
 30
0.0
 10
-114.0971
 20
-61.7364
 30
0.0
 10
-118.6512
 20
-63.6025
 30
0.0
 10
-123.3097
 20
-65.6289
 30
0.0
 10
-128.3722
 20
-65.0647
 30
0.0
  0
SPLINE
  5
9F
330
1F
100
AcDbEntity
  8
layer 1
 62
   250
100
AcDbSpline
210
0.0
220
0.0
230
1.0
 70
    11
 71
     3
 72
    44
 73
    40
 74
     0
 42
0.0000000001
 43
0.0000000001
 12
1.0
 22
0.0
 32
0.0
 13
1.0
 23
0.0
 33
0.0
 40
0.0
 40
0.0
 40
0.0
 40
0.0
 40
0.0909090909090909
 40
0.0909090909090909
 40
0.0909090909090909
 40
0.0909090909090909
 40
0.1818181818181818
 40
0.1818181818181818
 40
0.1818181818181818
 40
0.1818181818181818
 40
0.2727272727272727
 40
0.2727272727272727
 40
0.2727272727272727
 40
0.2727272727272727
 40
0.3636363636363636
 40
0.3636363636363636
 40
0.3636363636363636
 40
0.3636363636363636
 40
0.4545454545454545
 40
0.4545454545454545
 40
0.4545454545454545
 40
0.4545454545454545
 40
0.5454545454545454
 40
0.5454545454545454
 40
0.5454545454545454
 40
0.5454545454545454
 40
0.6363636363636364
 40
0.6363636363636364
 40
0.6363636363636364
 40
0.6363636363636364
 40
0.7272727272727273
 40
0.7272727272727273
 40
0.7272727272727273
 40
0.7272727272727273
 40
0.8181818181818182
 40
0.8181818181818182
 40
0.8181818181818182
 40
0.8181818181818182
 40
1.0
 40
1.0
 40
1.0
 40
1.0
 10
-114.7795
 20
-67.3974
 30
0.0
 10
-118.0454
 20
-68.2611
 30
0.0
 10
-119.5425
 20
-71.4362
 30
0.0
 10
-120.6636
 20
-74.3121
 30
0.0
 10
-120.6636
 20
-74.3121
 30
0.0
 10
-121.6803
 20
-77.1603
 30
0.0
 10
-125.1271
 20
-76.9931
 30
0.0
 10
-127.6061
 20
-77.1462
 30
0.0
 10
-127.6061
 20
-77.1462
 30
0.0
 10
-127.2789
 20
-79.7018
 30
0.0
 10
-125.8862
 20
-81.972
 30
0.0
 10
-123.3097
 20
-82.7587
 30
0.0
 10
-123.3097
 20
-82.7587
 30
0.0
 10
-124.1663
 20
-85.3144
 30
0.0
 10
-123.08
 20
-87.8002
 30
0.0
 10
-121.75
 20
-89.9729
 30
0.0
 10
-121.75
 20
-89.9729
 30
0.0
 10
-119.5774
 20
-89.2347
 30
0.0
 10
-117.551
 20
-88.0719
 30
0.0
 10
-116.1863
 20
-86.1777
 30
0.0
 10
-116.1863
 20
-86.1777
 30
0.0
 10
-114.2712
 20
-88.9283
 30
0.0
 10
-110.5876
 20
-87.6679
 30
0.0
 10
-109.0487
 20
-85.2377
 30
0.0
 10
-109.0487
 20
-85.2377
 30
0.0
 10
-112.7393
 20
-82.3202
 30
0.0
 10
-111.1446
 20
-77.2437
 30
0.0
 10
-110.4971
 20
-73.3234
 30
0.0
 10
-110.4971
 20
-73.3234
 30
0.0
 10
-110.0165
 20
-71.102
 30
0.0
 10
-111.8966
 20
-69.5492
 30
0.0
 10
-112.809
 20
-67.7735
 30
0.0
 10
-112.809
 20
-67.7735
 30
0.0
 10
-112.4051
 20
-65.6289
 30
0.0
 10
-110.7407
 20
-64.0829
 30
0.0
 10
-109.6545
 20
-62.2794
 30
0.0
 10
-109.6545
 20
-62.2794
 30
0.0
 10
-112.6906
 20
-61.8059
 30
0.0
 10
-113.4078
 20
-65.4685
 30
0.0
 10
-114.7795
 20
-67.3974
 30
0.0
  0
SPLINE
  5
A0
330
1F
100
AcDbEntity
  8
layer 1
 62
   250
100
AcDbSpline
210
0.0
220
0.0
230
1.0
 70
    11
 71
     3
 72
    24
 73
    20
 74
     0
 42
0.0000000001
 43
0.0000000001
 12
1.0
 22
0.0
 32
0.0
 13
1.0
 23
0.0
 33
0.0
 40
0.0
 40
0.0
 40
0.0
 40
0.0
 40
0.1666666666666667
 40
0.1666666666666667
 40
0.1666666666666667
 40
0.1666666666666667
 40
0.3333333333333333
 40
0.3333333333333333
 40
0.3333333333333333
 40
0.3333333333333333
 40
0.5
 40
0.5
 40
0.5
 40
0.5
 40
0.6666666666666666
 40
0.6666666666666666
 40
0.6666666666666666
 40
0.6666666666666666
 40
1.0
 40
1.0
 40
1.0
 40
1.0
 10
-96.3893
 20
-69.2288
 30
0.0
 10
-98.5548
 20
-71.8888
 30
0.0
 10
-97.9072
 20
-75.4889
 30
0.0
 10
-97.6149
 20
-78.6365
 30
0.0
 10
-97.6149
 20
-78.6365
 30
0.0
 10
-94.356
 20
-78.8523
 30
0.0
 10
-90.5958
 20
-78.5318
 30
0.0
 10
-88.2074
 20
-76.046
 30
0.0
 10
-88.2074
 20
-76.046
 30
0.0
 10
-86.522
 20
-74.4097
 30
0.0
 10
-86.7171
 20
-71.8888
 30
0.0
 10
-85.986
 20
-69.8139
 30
0.0
 10
-85.986
 20
-69.8139
 30
0.0
 10
-85.018
 20
-67.1955
 30
0.0
 10
-82.7619
 20
-65.3991
 30
0.0
 10
-80.9376
 20
-63.4006
 30
0.0
 10
-80.9376
 20
-63.4006
 30
0.0
 10
-86.5361
 20
-62.3769
 30
0.0
 10
-92.9285
 20
-64.6331
 30
0.0
 10
-96.3893
 20
-69.2288
 30
0.0
  0
SPLINE
  5
A1
330
1F
100
AcDbEntity
  8
layer 1
 62
   250
100
AcDbSpline
210
0.0
220
0.0
230
1.0
 70
    11
 71
     3
 72
    24
 73
    20
 74
     0
 42
0.0000000001
 43
0.0000000001
 12
1.0
 22
0.0
 32
0.0
 13
1.0
 23
0.0
 33
0.0
 40
0.0
 40
0.0
 40
0.0
 40
0.0
 40
0.1666666666666667
 40
0.1666666666666667
 40
0.1666666666666667
 40
0.1666666666666667
 40
0.3333333333333333
 40
0.3333333333333333
 40
0.3333333333333333
 40
0.3333333333333333
 40
0.5
 40
0.5
 40
0.5
 40
0.5
 40
0.6666666666666666
 40
0.6666666666666666
 40
0.6666666666666666
 40
0.6666666666666666
 40
1.0
 40
1.0
 40
1.0
 40
1.0
 10
-80.2203
 20
-81.1224
 30
0.0
 10
-79.9834
 20
-77.4109
 30
0.0
 10
-75.7567
 20
-76.9512
 30
0.0
 10
-73.7304
 20
-74.535
 30
0.0
 10
-73.7304
 20
-74.535
 30
0.0
 10
-72.0244
 20
-72.989
 30
0.0
 10
-71.9547
 20
-70.5868
 30
0.0
 10
-71.697
 20
-68.4698
 30
0.0
 10
-71.697
 20
-68.4698
 30
0.0
 10
-73.424
 20
-68.9503
 30
0.0
 10
-75.137
 20
-70.0923
 30
0.0
 10
-76.9545
 20
-69.8417
 30
0.0
 10
-76.9545
 20
-69.8417
 30
0.0
 10
-78.2983
 20
-68.4977
 30
0.0
 10
-78.9878
 20
-66.6873
 30
0.0
 10
-79.7189
 20
-64.9813
 30
0.0
 10
-79.7189
 20
-64.9813
 30
0.0
 10
-86.5012
 20
-67.1677
 30
0.0
 10
-87.1488
 20
-78.7548
 30
0.0
 10
-80.2203
 20
-81.1224
 30
0.0
  0
SPLINE
  5
A2
330
1F
100
AcDbEntity
  8
layer 1
 62
   250
100
AcDbSpline
210
0.0
220
0.0
230
1.0
 70
    11
 71
     3
 72
    28
 73
    24
 74
     0
 42
0.0000000001
 43
0.0000000001
 12
1.0
 22
0.0
 32
0.0
 13
1.0
 23
0.0
 33
0.0
 40
0.0
 40
0.0
 40
0.0
 40
0.0
 40
0.1428571428571428
 40
0.1428571428571428
 40
0.1428571428571428
 40
0.1428571428571428
 40
0.2857142857142857
 40
0.2857142857142857
 40
0.2857142857142857
 40
0.2857142857142857
 40
0.4285714285714285
 40
0.4285714285714285
 40
0.4285714285714285
 40
0.4285714285714285
 40
0.5714285714285714
 40
0.5714285714285714
 40
0.5714285714285714
 40
0.5714285714285714
 40
0.7142857142857143
 40
0.7142857142857143
 40
0.7142857142857143
 40
0.7142857142857143
 40
1.0
 40
1.0
 40
1.0
 40
1.0
 10
-32.5001
 20
-68.8737
 30
0.0
 10
-37.8132
 20
-71.3317
 30
0.0
 10
-41.7546
 20
-76.5752
 30
0.0
 10
-42.7224
 20
-82.3339
 30
0.0
 10
-42.7224
 20
-82.3339
 30
0.0
 10
-42.5552
 20
-84.0888
 30
0.0
 10
-41.7753
 20
-85.7044
 30
0.0
 10
-41.2601
 20
-87.3686
 30
0.0
 10
-41.2601
 20
-87.3686
 30
0.0
 10
-40.1738
 20
-84.3673
 30
0.0
 10
-38.6906
 20
-81.38
 30
0.0
 10
-36.149
 20
-79.3398
 30
0.0
 10
-36.149
 20
-79.3398
 30
0.0
 10
-31.7968
 20
-75.9555
 30
0.0
 10
-25.6691
 20
-74.4374
 30
0.0
 10
-20.5022
 20
-76.8399
 30
0.0
 10
-20.5022
 20
-76.8399
 30
0.0
 10
-20.1053
 20
-74.911
 30
0.0
 10
-20.0497
 20
-72.808
 30
0.0
 10
-21.2891
 20
-71.1577
 30
0.0
 10
-21.2891
 20
-71.1577
 30
0.0
 10
-23.7124
 20
-67.5786
 30
0.0
 10
-28.8164
 20
-67.2583
 30
0.0
 10
-32.5001
 20
-68.8737
 30
0.0
  0
SPLINE
  5
A3
330
1F
100
AcDbEntity
  8
layer 1
 62
   250
100
AcDbSpline
210
0.0
220
0.0
230
1.0
 70
    11
 71
     3
 72
    64
 73
    60
 74
     0
 42
0.0000000001
 43
0.0000000001
 12
1.0
 22
0.0
 32
0.0
 13
1.0
 23
0.0
 33
0.0
 40
0.0
 40
0.0
 40
0.0
 40
0.0
 40
0.0625
 40
0.0625
 40
0.0625
 40
0.0625
 40
0.125
 40
0.125
 40
0.125
 40
0.125
 40
0.1875
 40
0.1875
 40
0.1875
 40
0.1875
 40
0.25
 40
0.25
 40
0.25
 40
0.25
 40
0.3125
 40
0.3125
 40
0.3125
 40
0.3125
 40
0.375
 40
0.375
 40
0.375
 40
0.375
 40
0.4375
 40
0.4375
 40
0.4375
 40
0.4375
 40
0.5
 40
0.5
 40
0.5
 40
0.5
 40
0.5625
 40
0.5625
 40
0.5625
 40
0.5625
 40
0.625
 40
0.625
 40
0.625
 40
0.625
 40
0.6875
 40
0.6875
 40
0.6875
 40
0.6875
 40
0.75
 40
0.75
 40
0.75
 40
0.75
 40
0.8125
 40
0.8125
 40
0.8125
 40
0.8125
 40
0.875
 40
0.875
 40
0.875
 40
0.875
 40
1.0
 40
1.0
 40
1.0
 40
1.0
 10
-61.9414
 20
-80.2588
 30
0.0
 10
-61.8509
 20
-84.4857
 30
0.0
 10
-58.5919
 20
-87.8839
 30
0.0
 10
-58.5572
 20
-92.1315
 30
0.0
 10
-58.5572
 20
-92.1315
 30
0.0
 10
-58.1534
 20
-95.655
 30
0.0
 10
-60.1588
 20
-99.7354
 30
0.0
 10
-63.8144
 20
-100.5502
 30
0.0
 10
-63.8144
 20
-100.5502
 30
0.0
 10
-63.4872
 20
-97.7371
 30
0.0
 10
-61.05
 20
-95.641
 30
0.0
 10
-61.1056
 20
-92.7513
 30
0.0
 10
-61.1056
 20
-92.7513
 30
0.0
 10
-61.0709
 20
-89.8754
 30
0.0
 10
-63.1808
 20
-86.2126
 30
0.0
 10
-66.4815
 20
-86.7209
 30
0.0
 10
-66.4815
 20
-86.7209
 30
0.0
 10
-68.9674
 20
-87.0066
 30
0.0
 10
-70.4089
 20
-89.5968
 30
0.0
 10
-69.636
 20
-91.9086
 30
0.0
 10
-69.636
 20
-91.9086
 30
0.0
 10
-68.5148
 20
-91.6092
 30
0.0
 10
-67.3937
 20
-91.3028
 30
0.0
 10
-66.2727
 20
-90.9894
 30
0.0
 10
-66.2727
 20
-90.9894
 30
0.0
 10
-65.2699
 20
-92.0687
 30
0.0
 10
-63.8493
 20
-93.2455
 30
0.0
 10
-64.3157
 20
-94.9169
 30
0.0
 10
-64.3157
 20
-94.9169
 30
0.0
 10
-64.9146
 20
-98.1479
 30
0.0
 10
-68.3547
 20
-99.5335
 30
0.0
 10
-71.0076
 20
-100.7731
 30
0.0
 10
-71.0076
 20
-100.7731
 30
0.0
 10
-73.7791
 20
-102.1378
 30
0.0
 10
-76.8848
 20
-101.5111
 30
0.0
 10
-79.8303
 20
-101.734
 30
0.0
 10
-79.8303
 20
-101.734
 30
0.0
 10
-79.9696
 20
-101.9359
 30
0.0
 10
-80.2341
 20
-102.3538
 30
0.0
 10
-80.3665
 20
-102.5557
 30
0.0
 10
-80.3665
 20
-102.5557
 30
0.0
 10
-79.3219
 20
-103.5307
 30
0.0
 10
-77.7553
 20
-103.7254
 30
0.0
 10
-76.4044
 20
-104.0529
 30
0.0
 10
-76.4044
 20
-104.0529
 30
0.0
 10
-69.2528
 20
-105.4176
 30
0.0
 10
-60.9943
 20
-103.3287
 30
0.0
 10
-56.5239
 20
-97.2705
 30
0.0
 10
-56.5239
 20
-97.2705
 30
0.0
 10
-52.3249
 20
-91.4769
 30
0.0
 10
-50.3194
 20
-83.4482
 30
0.0
 10
-53.2441
 20
-76.6727
 30
0.0
 10
-53.2441
 20
-76.6727
 30
0.0
 10
-54.2678
 20
-73.8177
 30
0.0
 10
-56.698
 20
-71.8888
 30
0.0
 10
-59.2605
 20
-70.4615
 30
0.0
 10
-59.2605
 20
-70.4615
 30
0.0
 10
-60.5208
 20
-73.602
 30
0.0
 10
-61.9483
 20
-76.8121
 30
0.0
 10
-61.9414
 20
-80.2588
 30
0.0
  0
SPLINE
  5
A4
330
1F
100
AcDbEntity
  8
layer 1
 62
   250
100
AcDbSpline
210
0.0
220
0.0
230
1.0
 70
    11
 71
     3
 72
    28
 73
    24
 74
     0
 42
0.0000000001
 43
0.0000000001
 12
1.0
 22
0.0
 32
0.0
 13
1.0
 23
0.0
 33
0.0
 40
0.0
 40
0.0
 40
0.0
 40
0.0
 40
0.1428571428571428
 40
0.1428571428571428
 40
0.1428571428571428
 40
0.1428571428571428
 40
0.2857142857142857
 40
0.2857142857142857
 40
0.2857142857142857
 40
0.2857142857142857
 40
0.4285714285714285
 40
0.4285714285714285
 40
0.4285714285714285
 40
0.4285714285714285
 40
0.5714285714285714
 40
0.5714285714285714
 40
0.5714285714285714
 40
0.5714285714285714
 40
0.7142857142857143
 40
0.7142857142857143
 40
0.7142857142857143
 40
0.7142857142857143
 40
1.0
 40
1.0
 40
1.0
 40
1.0
 10
-34.9093
 20
-81.9301
 30
0.0
 10
-38.969
 20
-85.4328
 30
0.0
 10
-39.2128
 20
-91.3517
 30
0.0
 10
-42.7433
 20
-95.265
 30
0.0
 10
-42.7433
 20
-95.265
 30
0.0
 10
-40.3687
 20
-94.1788
 30
0.0
 10
-37.7922
 20
-93.3083
 30
0.0
 10
-35.9052
 20
-91.4213
 30
0.0
 10
-35.9052
 20
-91.4213
 30
0.0
 10
-34.06
 20
-89.7641
 30
0.0
 10
-32.556
 20
-87.6401
 30
0.0
 10
-30.258
 20
-86.5677
 30
0.0
 10
-30.258
 20
-86.5677
 30
0.0
 10
-28.3638
 20
-85.6347
 30
0.0
 10
-26.1983
 20
-85.6695
 30
0.0
 10
-24.1371
 20
-85.558
 30
0.0
 10
-24.1371
 20
-85.558
 30
0.0
 10
-24.4435
 20
-84.214
 30
0.0
 10
-24.346
 20
-82.6056
 30
0.0
 10
-25.4603
 20
-81.6098
 30
0.0
 10
-25.4603
 20
-81.6098
 30
0.0
 10
-27.9671
 20
-79.0473
 30
0.0
 10
-32.3956
 20
-79.7018
 30
0.0
 10
-34.9093
 20
-81.9301
 30
0.0
  0
SPLINE
  5
A5
330
1F
100
AcDbEntity
  8
layer 1
 62
   250
100
AcDbSpline
210
0.0
220
0.0
230
1.0
 70
    11
 71
     3
 72
    96
 73
    92
 74
     0
 42
0.0000000001
 43
0.0000000001
 12
1.0
 22
0.0
 32
0.0
 13
1.0
 23
0.0
 33
0.0
 40
0.0
 40
0.0
 40
0.0
 40
0.0
 40
0.0416666666666667
 40
0.0416666666666667
 40
0.0416666666666667
 40
0.0416666666666667
 40
0.0833333333333333
 40
0.0833333333333333
 40
0.0833333333333333
 40
0.0833333333333333
 40
0.125
 40
0.125
 40
0.125
 40
0.125
 40
0.1666666666666667
 40
0.1666666666666667
 40
0.1666666666666667
 40
0.1666666666666667
 40
0.2083333333333333
 40
0.2083333333333333
 40
0.2083333333333333
 40
0.2083333333333333
 40
0.25
 40
0.25
 40
0.25
 40
0.25
 40
0.2916666666666667
 40
0.2916666666666667
 40
0.2916666666666667
 40
0.2916666666666667
 40
0.3333333333333333
 40
0.3333333333333333
 40
0.3333333333333333
 40
0.3333333333333333
 40
0.375
 40
0.375
 40
0.375
 40
0.375
 40
0.4166666666666667
 40
0.4166666666666667
 40
0.4166666666666667
 40
0.4166666666666667
 40
0.4583333333333333
 40
0.4583333333333333
 40
0.4583333333333333
 40
0.4583333333333333
 40
0.5
 40
0.5
 40
0.5
 40
0.5
 40
0.5416666666666666
 40
0.5416666666666666
 40
0.5416666666666666
 40
0.5416666666666666
 40
0.5833333333333334
 40
0.5833333333333334
 40
0.5833333333333334
 40
0.5833333333333334
 40
0.625
 40
0.625
 40
0.625
 40
0.625
 40
0.6666666666666666
 40
0.6666666666666666
 40
0.6666666666666666
 40
0.6666666666666666
 40
0.7083333333333334
 40
0.7083333333333334
 40
0.7083333333333334
 40
0.7083333333333334
 40
0.75
 40
0.75
 40
0.75
 40
0.75
 40
0.7916666666666666
 40
0.7916666666666666
 40
0.7916666666666666
 40
0.7916666666666666
 40
0.8333333333333334
 40
0.8333333333333334
 40
0.8333333333333334
 40
0.8333333333333334
 40
0.875
 40
0.875
 40
0.875
 40
0.875
 40
0.9166666666666666
 40
0.9166666666666666
 40
0.9166666666666666
 40
0.9166666666666666
 40
1.0
 40
1.0
 40
1.0
 40
1.0
 10
-92.4202
 20
-90.6484
 30
0.0
 10
-93.6805
 20
-94.6661
 30
0.0
 10
-92.4549
 20
-99.0671
 30
0.0
 10
-90.1153
 20
-102.4373
 30
0.0
 10
-90.1153
 20
-102.4373
 30
0.0
 10
-87.3786
 20
-106.6154
 30
0.0
 10
-82.4764
 20
-108.76
 30
0.0
 10
-77.6994
 20
-109.5539
 30
0.0
 10
-77.6994
 20
-109.5539
 30
0.0
 10
-69.9423
 20
-110.6472
 30
0.0
 10
-61.7812
 20
-109.1013
 30
0.0
 10
-55.138
 20
-104.8816
 30
0.0
 10
-55.138
 20
-104.8816
 30
0.0
 10
-50.1175
 20
-102.2354
 30
0.0
 10
-45.4033
 20
-97.73
 30
0.0
 10
-39.3172
 20
-98.3288
 30
0.0
 10
-39.3172
 20
-98.3288
 30
0.0
 10
-37.0542
 20
-98.3846
 30
0.0
 10
-34.8816
 20
-100.1742
 30
0.0
 10
-34.798
 20
-102.5139
 30
0.0
 10
-34.798
 20
-102.5139
 30
0.0
 10
-34.5055
 20
-104.7075
 30
0.0
 10
-35.571
 20
-107.8617
 30
0.0
 10
-38.3354
 20
-107.1933
 30
0.0
 10
-38.3354
 20
-107.1933
 30
0.0
 10
-38.5652
 20
-105.8981
 30
0.0
 10
-38.7742
 20
-104.6028
 30
0.0
 10
-38.9831
 20
-103.3146
 30
0.0
 10
-38.9831
 20
-103.3146
 30
0.0
 10
-40.1599
 20
-103.3913
 30
0.0
 10
-41.7824
 20
-103.1405
 30
0.0
 10
-42.2629
 20
-104.5471
 30
0.0
 10
-42.2629
 20
-104.5471
 30
0.0
 10
-43.2865
 20
-106.0791
 30
0.0
 10
-42.3463
 20
-108.0079
 30
0.0
 10
-41.1557
 20
-109.136
 30
0.0
 10
-41.1557
 20
-109.136
 30
0.0
 10
-38.628
 20
-111.0511
 30
0.0
 10
-35.0487
 20
-109.6445
 30
0.0
 10
-33.1477
 20
-107.5137
 30
0.0
 10
-33.1477
 20
-107.5137
 30
0.0
 10
-30.3902
 20
-104.1642
 30
0.0
 10
-32.4166
 20
-98.5657
 30
0.0
 10
-36.5181
 20
-97.4446
 30
0.0
 10
-36.5181
 20
-97.4446
 30
0.0
 10
-40.2712
 20
-95.8082
 30
0.0
 10
-44.2753
 20
-97.1173
 30
0.0
 10
-47.9101
 20
-98.3567
 30
0.0
 10
-47.9101
 20
-98.3567
 30
0.0
 10
-45.7724
 20
-95.7873
 30
0.0
 10
-43.941
 20
-92.988
 30
0.0
 10
-42.5205
 20
-89.9588
 30
0.0
 10
-42.5205
 20
-89.9588
 30
0.0
 10
-43.0359
 20
-88.9283
 30
0.0
 10
-43.3421
 20
-87.7236
 30
0.0
 10
-44.2474
 20
-86.9578
 30
0.0
 10
-44.2474
 20
-86.9578
 30
0.0
 10
-47.165
 20
-93.0229
 30
0.0
 10
-51.3221
 20
-98.6492
 30
0.0
 10
-57.0462
 20
-102.3398
 30
0.0
 10
-57.0462
 20
-102.3398
 30
0.0
 10
-62.0668
 20
-105.7309
 30
0.0
 10
-68.2154
 20
-107.0402
 30
0.0
 10
-74.197
 20
-107.0608
 30
0.0
 10
-74.197
 20
-107.0608
 30
0.0
 10
-78.9181
 20
-107.0471
 30
0.0
 10
-84.0918
 20
-105.2157
 30
0.0
 10
-86.5709
 20
-100.9472
 30
0.0
 10
-86.5709
 20
-100.9472
 30
0.0
 10
-88.0611
 20
-98.4542
 30
0.0
 10
-89.4328
 20
-95.1187
 30
0.0
 10
-87.9149
 20
-92.3404
 30
0.0
 10
-87.9149
 20
-92.3404
 30
0.0
 10
-87.3786
 20
-91.0869
 30
0.0
 10
-85.805
 20
-91.0522
 30
0.0
 10
-84.649
 20
-91.1428
 30
0.0
 10
-84.649
 20
-91.1428
 30
0.0
 10
-82.6714
 20
-91.6023
 30
0.0
 10
-83.0753
 20
-94.0326
 30
0.0
 10
-82.9291
 20
-95.5645
 30
0.0
 10
-82.9291
 20
-95.5645
 30
0.0
 10
-81.7174
 20
-95.3904
 30
0.0
 10
-80.2134
 20
-95.7386
 30
0.0
 10
-79.315
 20
-94.694
 30
0.0
 10
-79.315
 20
-94.694
 30
0.0
 10
-76.4253
 20
-92.013
 30
0.0
 10
-78.2427
 20
-86.9019
 30
0.0
 10
-81.6128
 20
-85.558
 30
0.0
 10
-81.6128
 20
-85.558
 30
0.0
 10
-85.7979
 20
-83.8937
 30
0.0
 10
-91.0553
 20
-86.3449
 30
0.0
 10
-92.4202
 20
-90.6484
 30
0.0
  0
ENDSEC
  0
SECTION
  2
OBJECTS
  0
DICTIONARY
  5
C
330
0
100
AcDbDictionary
281
     1
  3
ACAD_GROUP
350
D
  3
ACAD_LAYOUT
350
1A
  3
ACAD_MATERIAL
350
3B
  3
ACAD_MLEADERSTYLE
350
C8
  3
ACAD_MLINESTYLE
350
17
  3
ACAD_PLOTSETTINGS
350
19
  3
ACAD_PLOTSTYLENAME
350
E
  3
ACAD_TABLESTYLE
350
C7
  3
ACAD_VISUALSTYLE
350
2A
  0
DICTIONARY
  5
D
102
{ACAD_REACTORS
330
C
102
}
330
C
100
AcDbDictionary
281
     1
  0
DICTIONARY
  5
1A
102
{ACAD_REACTORS
330
C
102
}
330
C
100
AcDbDictionary
281
     1
  3
Layout1
350
1E
  3
Layout2
350
26
  3
Model
350
22
  0
DICTIONARY
  5
3B
102
{ACAD_REACTORS
330
C
102
}
330
C
100
AcDbDictionary
281
     1
  3
ByBlock
350
3D
  3
ByLayer
350
3C
  3
Global
350
3E
  0
DICTIONARY
  5
C8
102
{ACAD_REACTORS
330
C
102
}
330
C
100
AcDbDictionary
281
     1
  0
DICTIONARY
  5
17
102
{ACAD_REACTORS
330
C
102
}
330
C
100
AcDbDictionary
281
     1
  3
Standard
350
18
  0
DICTIONARY
  5
19
102
{ACAD_REACTORS
330
C
102
}
330
C
100
AcDbDictionary
281
     1
  0
ACDBDICTIONARYWDFLT
  5
E
102
{ACAD_REACTORS
330
C
102
}
330
C
100
AcDbDictionary
281
     1
  3
Normal
350
F
100
AcDbDictionaryWithDefault
340
F
  0
DICTIONARY
  5
C7
102
{ACAD_REACTORS
330
C
102
}
330
C
100
AcDbDictionary
281
     1
  0
DICTIONARY
  5
2A
102
{ACAD_REACTORS
330
C
102
}
330
C
100
AcDbDictionary
281
     1
  3
2dWireframe
350
2F
  3
3D Hidden
350
31
  3
3dWireframe
350
30
  3
Basic
350
32
  3
Brighten
350
36
  3
ColorChange
350
3A
  3
Conceptual
350
34
  3
Dim
350
35
  3
Facepattern
350
39
  3
Flat
350
2B
  3
FlatWithEdges
350
2C
  3
Gouraud
350
2D
  3
GouraudWithEdges
350
2E
  3
Linepattern
350
38
  3
Realistic
350
33
  3
Thicken
350
37
  0
LAYOUT
  5
1E
102
{ACAD_REACTORS
330
1A
102
}
330
1A
100
AcDbPlotSettings
  1

  2
none_device
  4

  6

 40
0.0
 41
0.0
 42
0.0
 43
0.0
 44
0.0
 45
0.0
 46
0.0
 47
0.0
 48
0.0
 49
0.0
140
0.0
141
0.0
142
1.0
143
1.0
 70
   688
 72
     0
 73
     0
 74
     5
  7

 75
    16
 76
     0
 77
     2
 78
   300
147
1.0
148
0.0
149
0.0
100
AcDbLayout
  1
Layout1
 70
     1
 71
     1
 10
0.0
 20
0.0
 11
12.0
 21
9.0
 12
0.0
 22
0.0
 32
0.0
 14
1.000000000000000E+20
 24
1.000000000000000E+20
 34
1.000000000000000E+20
 15
-1.000000000000000E+20
 25
-1.000000000000000E+20
 35
-1.000000000000000E+20
146
0.0
 13
0.0
 23
0.0
 33
0.0
 16
1.0
 26
0.0
 36
0.0
 17
0.0
 27
1.0
 37
0.0
 76
     0
330
1B
  0
LAYOUT
  5
26
102
{ACAD_REACTORS
330
1A
102
}
330
1A
100
AcDbPlotSettings
  1

  2
none_device
  4

  6

 40
0.0
 41
0.0
 42
0.0
 43
0.0
 44
0.0
 45
0.0
 46
0.0
 47
0.0
 48
0.0
 49
0.0
140
0.0
141
0.0
142
1.0
143
1.0
 70
   688
 72
     0
 73
     0
 74
     5
  7

 75
    16
 76
     0
 77
     2
 78
   300
147
1.0
148
0.0
149
0.0
100
AcDbLayout
  1
Layout2
 70
     1
 71
     2
 10
0.0
 20
0.0
 11
0.0
 21
0.0
 12
0.0
 22
0.0
 32
0.0
 14
0.0
 24
0.0
 34
0.0
 15
0.0
 25
0.0
 35
0.0
146
0.0
 13
0.0
 23
0.0
 33
0.0
 16
1.0
 26
0.0
 36
0.0
 17
0.0
 27
1.0
 37
0.0
 76
     0
330
23
  0
LAYOUT
  5
22
102
{ACAD_REACTORS
330
1A
102
}
330
1A
100
AcDbPlotSettings
  1

  2
none_device
  4

  6

 40
0.0
 41
0.0
 42
0.0
 43
0.0
 44
0.0
 45
0.0
 46
0.0
 47
0.0
 48
0.0
 49
0.0
140
0.0
141
0.0
142
1.0
143
1.0
 70
  1712
 72
     0
 73
     0
 74
     0
  7

 75
     0
 76
     0
 77
     2
 78
   300
147
1.0
148
0.0
149
0.0
100
AcDbLayout
  1
Model
 70
     1
 71
     0
 10
0.0
 20
0.0
 11
12.0
 21
9.0
 12
0.0
 22
0.0
 32
0.0
 14
-187.138
 24
-115.028
 34
0.0
 15
-7.9044
 25
131.6927
 35
0.0
146
0.0
 13
0.0
 23
0.0
 33
0.0
 16
1.0
 26
0.0
 36
0.0
 17
0.0
 27
1.0
 37
0.0
 76
     0
330
1F
331
29
  0
MATERIAL
  5
3D
102
{ACAD_REACTORS
330
3B
102
}
330
3B
100
AcDbMaterial
  1
ByBlock
 72
     1
 94
      127
  0
MATERIAL
  5
3C
102
{ACAD_REACTORS
330
3B
102
}
330
3B
100
AcDbMaterial
  1
ByLayer
 72
     1
 94
      127
  0
MATERIAL
  5
3E
102
{ACAD_REACTORS
330
3B
102
}
330
3B
100
AcDbMaterial
  1
Global
 72
     1
 94
      127
  0
MLINESTYLE
  5
18
102
{ACAD_REACTORS
330
17
102
}
330
17
100
AcDbMlineStyle
  2
Standard
 70
     0
  3

 62
   256
 51
90.0
 52
90.0
 71
     2
 49
0.5
 62
   256
  6
BYLAYER
 49
-0.5
 62
   256
  6
BYLAYER
  0
ACDBPLACEHOLDER
  5
F
102
{ACAD_REACTORS
330
E
102
}
330
E
  0
VISUALSTYLE
  5
2F
102
{ACAD_REACTORS
330
2A
102
}
102
{ACAD_XDICTIONARY
360
AF
102
}
330
2A
100
AcDbVisualStyle
  2
2dWireframe
 70
     4
 71
     0
 72
     2
 73
     0
 90
        0
 40
-0.6
 41
-30.0
 62
     5
 63
     7
421
 16777215
 74
     1
 91
        4
 64
     7
 65
   257
 75
     1
175
     1
 42
1.0
 92
        0
 66
   257
 43
1.0
 76
     1
 77
     6
 78
     2
 67
     7
 79
     5
170
     0
171
     0
290
     0
174
     0
 93
        1
 44
0.0
173
     0
291
     0
 45
0.0
  0
VISUALSTYLE
  5
31
102
{ACAD_REACTORS
330
2A
102
}
102
{ACAD_XDICTIONARY
360
B3
102
}
330
2A
100
AcDbVisualStyle
  2
3D Hidden
 70
     6
 71
     1
 72
     2
 73
     2
 90
        0
 40
-0.6
 41
-30.0
 62
     5
 63
     7
421
 16777215
 74
     2
 91
        2
 64
     7
 65
   257
 75
     2
175
     1
 42
40.0
 92
        0
 66
   257
 43
1.0
 76
     1
 77
     6
 78
     2
 67
     7
 79
     3
170
     0
171
     0
290
     0
174
     0
 93
        1
 44
0.0
173
     0
291
     0
 45
0.0
  0
VISUALSTYLE
  5
30
102
{ACAD_REACTORS
330
2A
102
}
102
{ACAD_XDICTIONARY
360
B1
102
}
330
2A
100
AcDbVisualStyle
  2
3dWireframe
 70
     5
 71
     0
 72
     2
 73
     0
 90
        0
 40
-0.6
 41
-30.0
 62
     5
 63
     7
421
 16777215
 74
     1
 91
        4
 64
     7
 65
   257
 75
     1
175
     1
 42
1.0
 92
        0
 66
   257
 43
1.0
 76
     1
 77
     6
 78
     2
 67
     7
 79
     5
170
     0
171
     0
290
     0
174
     0
 93
        1
 44
0.0
173
     0
291
     0
 45
0.0
  0
VISUALSTYLE
  5
32
102
{ACAD_REACTORS
330
2A
102
}
102
{ACAD_XDICTIONARY
360
B5
102
}
330
2A
100
AcDbVisualStyle
  2
Basic
 70
     7
 71
     1
 72
     0
 73
     1
 90
        0
 40
-0.6
 41
-30.0
 62
     5
 63
     7
421
 16777215
 74
     0
 91
        4
 64
     7
 65
   257
 75
     1
175
     1
 42
1.0
 92
        8
 66
     7
 43
1.0
 76
     1
 77
     6
 78
     2
 67
     7
 79
     5
170
     0
171
     0
290
     0
174
     0
 93
        1
 44
0.0
173
     0
291
     1
 45
0.0
  0
VISUALSTYLE
  5
36
102
{ACAD_REACTORS
330
2A
102
}
102
{ACAD_XDICTIONARY
360
BD
102
}
330
2A
100
AcDbVisualStyle
  2
Brighten
 70
    12
 71
     2
 72
     2
 73
     0
 90
        0
 40
-0.6
 41
-30.0
 62
     5
 63
     7
421
 16777215
 74
     1
 91
        4
 64
     7
 65
   257
 75
     1
175
     1
 42
1.0
 92
        8
 66
     7
 43
1.0
 76
     1
 77
     6
 78
     2
 67
     7
 79
     5
170
     0
171
     0
290
     0
174
     0
 93
        1
 44
50.0
173
     0
291
     1
 45
0.0
  0
VISUALSTYLE
  5
3A
102
{ACAD_REACTORS
330
2A
102
}
102
{ACAD_XDICTIONARY
360
C5
102
}
330
2A
100
AcDbVisualStyle
  2
ColorChange
 70
    16
 71
     2
 72
     2
 73
     3
 90
        0
 40
-0.6
 41
-30.0
 62
     5
 63
     8
421
  8421504
 74
     1
 91
        4
 64
     7
 65
   257
 75
     1
175
     1
 42
1.0
 92
        8
 66
     8
424
  8421504
 43
1.0
 76
     1
 77
     6
 78
     2
 67
     7
 79
     5
170
     0
171
     0
290
     0
174
     0
 93
        1
 44
0.0
173
     0
291
     1
 45
0.0
  0
VISUALSTYLE
  5
34
102
{ACAD_REACTORS
330
2A
102
}
102
{ACAD_XDICTIONARY
360
B9
102
}
330
2A
100
AcDbVisualStyle
  2
Conceptual
 70
     9
 71
     3
 72
     2
 73
     0
 90
        0
 40
-0.6
 41
-30.0
 62
     5
 63
     7
421
 16777215
 74
     2
 91
        2
 64
     7
 65
   257
 75
     1
175
     1
 42
40.0
 92
        8
 66
     7
 43
1.0
 76
     1
 77
     6
 78
     2
 67
     7
 79
     3
170
     0
171
     0
290
     0
174
     0
 93
        1
 44
0.0
173
     0
291
     0
 45
0.0
  0
VISUALSTYLE
  5
35
102
{ACAD_REACTORS
330
2A
102
}
102
{ACAD_XDICTIONARY
360
BB
102
}
330
2A
100
AcDbVisualStyle
  2
Dim
 70
    11
 71
     2
 72
     2
 73
     0
 90
        0
 40
-0.6
 41
-30.0
 62
     5
 63
     7
421
 16777215
 74
     1
 91
        4
 64
     7
 65
   257
 75
     1
175
     1
 42
1.0
 92
        8
 66
     7
 43
1.0
 76
     1
 77
     6
 78
     2
 67
     7
 79
     5
170
     0
171
     0
290
     0
174
     0
 93
        1
 44
-50.0
173
     0
291
     1
 45
0.0
  0
VISUALSTYLE
  5
39
102
{ACAD_REACTORS
330
2A
102
}
102
{ACAD_XDICTIONARY
360
C3
102
}
330
2A
100
AcDbVisualStyle
  2
Facepattern
 70
    15
 71
     2
 72
     2
 73
     0
 90
        0
 40
-0.6
 41
-30.0
 62
     5
 63
     7
421
 16777215
 74
     1
 91
        4
 64
     7
 65
   257
 75
     1
175
     1
 42
1.0
 92
        8
 66
     7
 43
1.0
 76
     1
 77
     6
 78
     2
 67
     7
 79
     5
170
     0
171
     0
290
     0
174
     0
 93
        1
 44
0.0
173
     0
291
     1
 45
0.0
  0
VISUALSTYLE
  5
2B
102
{ACAD_REACTORS
330
2A
102
}
102
{ACAD_XDICTIONARY
360
A7
102
}
330
2A
100
AcDbVisualStyle
  2
Flat
 70
     0
 71
     2
 72
     1
 73
     1
 90
        2
 40
-0.6
 41
30.0
 62
     5
 63
     7
421
 16777215
 74
     0
 91
        4
 64
     7
 65
   257
 75
     1
175
     1
 42
1.0
 92
        8
 66
     7
 43
1.0
 76
     1
 77
     6
 78
     2
 67
     7
 79
     5
170
     0
171
     0
290
     0
174
     0
 93
       13
 44
0.0
173
     0
291
     1
 45
0.0
  0
VISUALSTYLE
  5
2C
102
{ACAD_REACTORS
330
2A
102
}
102
{ACAD_XDICTIONARY
360
A9
102
}
330
2A
100
AcDbVisualStyle
  2
FlatWithEdges
 70
     1
 71
     2
 72
     1
 73
     1
 90
        2
 40
-0.6
 41
30.0
 62
     5
 63
     7
421
 16777215
 74
     1
 91
        4
 64
     7
 65
   257
 75
     1
175
     1
 42
1.0
 92
        0
 66
   257
 43
1.0
 76
     1
 77
     6
 78
     2
 67
     7
 79
     5
170
     0
171
     0
290
     0
174
     0
 93
       13
 44
0.0
173
     0
291
     1
 45
0.0
  0
VISUALSTYLE
  5
2D
102
{ACAD_REACTORS
330
2A
102
}
102
{ACAD_XDICTIONARY
360
AB
102
}
330
2A
100
AcDbVisualStyle
  2
Gouraud
 70
     2
 71
     2
 72
     2
 73
     1
 90
        2
 40
-0.6
 41
30.0
 62
     5
 63
     7
421
 16777215
 74
     0
 91
        4
 64
     7
 65
   257
 75
     1
175
     1
 42
1.0
 92
        0
 66
     7
 43
1.0
 76
     1
 77
     6
 78
     2
 67
     7
 79
     5
170
     0
171
     0
290
     0
174
     0
 93
       13
 44
0.0
173
     0
291
     1
 45
0.0
  0
VISUALSTYLE
  5
2E
102
{ACAD_REACTORS
330
2A
102
}
102
{ACAD_XDICTIONARY
360
AD
102
}
330
2A
100
AcDbVisualStyle
  2
GouraudWithEdges
 70
     3
 71
     2
 72
     2
 73
     1
 90
        2
 40
-0.6
 41
30.0
 62
     5
 63
     7
421
 16777215
 74
     1
 91
        4
 64
     7
 65
   257
 75
     1
175
     1
 42
1.0
 92
        0
 66
   257
 43
1.0
 76
     1
 77
     6
 78
     2
 67
     7
 79
     5
170
     0
171
     0
290
     0
174
     0
 93
       13
 44
0.0
173
     0
291
     1
 45
0.0
  0
VISUALSTYLE
  5
38
102
{ACAD_REACTORS
330
2A
102
}
102
{ACAD_XDICTIONARY
360
C1
102
}
330
2A
100
AcDbVisualStyle
  2
Linepattern
 70
    14
 71
     2
 72
     2
 73
     0
 90
        0
 40
-0.6
 41
-30.0
 62
     5
 63
     7
421
 16777215
 74
     1
 91
        4
 64
     7
 65
   257
 75
     7
175
     7
 42
1.0
 92
        8
 66
     7
 43
1.0
 76
     1
 77
     6
 78
     2
 67
     7
 79
     5
170
     0
171
     0
290
     0
174
     0
 93
        1
 44
0.0
173
     0
291
     1
 45
0.0
  0
VISUALSTYLE
  5
33
102
{ACAD_REACTORS
330
2A
102
}
102
{ACAD_XDICTIONARY
360
B7
102
}
330
2A
100
AcDbVisualStyle
  2
Realistic
 70
     8
 71
     2
 72
     2
 73
     0
 90
        0
 40
-0.6
 41
-30.0
 62
     5
 63
     7
421
 16777215
 74
     1
 91
        0
 64
     7
 65
   257
 75
     1
175
     1
 42
1.0
 92
        8
 66
     8
424
  7895160
 43
1.0
 76
     1
 77
     6
 78
     2
 67
     7
 79
     5
170
     0
171
     0
290
     0
174
     0
 93
       13
 44
0.0
173
     0
291
     0
 45
0.0
  0
VISUALSTYLE
  5
37
102
{ACAD_REACTORS
330
2A
102
}
102
{ACAD_XDICTIONARY
360
BF
102
}
330
2A
100
AcDbVisualStyle
  2
Thicken
 70
    13
 71
     2
 72
     2
 73
     0
 90
        0
 40
-0.6
 41
-30.0
 62
     5
 63
     7
421
 16777215
 74
     1
 91
        4
 64
     7
 65
   257
 75
     1
175
     1
 42
1.0
 92
       12
 66
     7
 43
1.0
 76
     1
 77
     6
 78
     2
 67
     7
 79
     5
170
     0
171
     0
290
     0
174
     0
 93
        1
 44
0.0
173
     0
291
     1
 45
0.0
  0
DICTIONARY
  5
AF
330
2F
100
AcDbDictionary
280
     1
281
     1
  3
ACAD_XREC_ROUNDTRIP
360
B0
  0
DICTIONARY
  5
B3
330
31
100
AcDbDictionary
280
     1
281
     1
  3
ACAD_XREC_ROUNDTRIP
360
B4
  0
DICTIONARY
  5
B1
330
30
100
AcDbDictionary
280
     1
281
     1
  3
ACAD_XREC_ROUNDTRIP
360
B2
  0
DICTIONARY
  5
B5
330
32
100
AcDbDictionary
280
     1
281
     1
  3
ACAD_XREC_ROUNDTRIP
360
B6
  0
DICTIONARY
  5
BD
330
36
100
AcDbDictionary
280
     1
281
     1
  3
ACAD_XREC_ROUNDTRIP
360
BE
  0
DICTIONARY
  5
C5
330
3A
100
AcDbDictionary
280
     1
281
     1
  3
ACAD_XREC_ROUNDTRIP
360
C6
  0
DICTIONARY
  5
B9
330
34
100
AcDbDictionary
280
     1
281
     1
  3
ACAD_XREC_ROUNDTRIP
360
BA
  0
DICTIONARY
  5
BB
330
35
100
AcDbDictionary
280
     1
281
     1
  3
ACAD_XREC_ROUNDTRIP
360
BC
  0
DICTIONARY
  5
C3
330
39
100
AcDbDictionary
280
     1
281
     1
  3
ACAD_XREC_ROUNDTRIP
360
C4
  0
DICTIONARY
  5
A7
330
2B
100
AcDbDictionary
280
     1
281
     1
  3
ACAD_XREC_ROUNDTRIP
360
A8
  0
DICTIONARY
  5
A9
330
2C
100
AcDbDictionary
280
     1
281
     1
  3
ACAD_XREC_ROUNDTRIP
360
AA
  0
DICTIONARY
  5
AB
330
2D
100
AcDbDictionary
280
     1
281
     1
  3
ACAD_XREC_ROUNDTRIP
360
AC
  0
DICTIONARY
  5
AD
330
2E
100
AcDbDictionary
280
     1
281
     1
  3
ACAD_XREC_ROUNDTRIP
360
AE
  0
DICTIONARY
  5
C1
330
38
100
AcDbDictionary
280
     1
281
     1
  3
ACAD_XREC_ROUNDTRIP
360
C2
  0
DICTIONARY
  5
B7
330
33
100
AcDbDictionary
280
     1
281
     1
  3
ACAD_XREC_ROUNDTRIP
360
B8
  0
DICTIONARY
  5
BF
330
37
100
AcDbDictionary
280
     1
281
     1
  3
ACAD_XREC_ROUNDTRIP
360
C0
  0
XRECORD
  5
B0
102
{ACAD_REACTORS
330
AF
102
}
330
AF
100
AcDbXrecord
280
     1
102
RTVSPropertyOp0
 70
     1
102
RTVSPropertyOp1
 70
     1
102
RTVSPropertyOp2
 70
     1
102
RTVSPropertyOp3
 70
     1
102
RTVSPropertyOp4
 70
     1
102
RTVSPropertyOp5
 70
     1
102
RTVSPropertyOp6
 70
     1
102
RTVSPropertyOp7
 70
     1
102
RTVSPropertyOp8
 70
     1
102
RTVSPropertyOp9
 70
     1
102
RTVSPropertyOp10
 70
     1
102
RTVSPropertyOp11
 70
     1
102
RTVSPropertyOp12
 70
     1
102
RTVSPropertyOp13
 70
     1
102
RTVSPropertyOp14
 70
     1
102
RTVSPropertyOp15
 70
     1
102
RTVSPropertyOp16
 70
     1
102
RTVSPropertyOp17
 70
     1
102
RTVSPropertyOp18
 70
     1
102
RTVSPropertyOp19
 70
     1
102
RTVSPropertyOp20
 70
     1
102
RTVSPropertyOp21
 70
     1
102
RTVSPropertyOp22
 70
     1
102
RTVSPropertyOp23
 70
     1
102
RTVSPropertyOp24
 70
     1
102
RTVSPropertyOp25
 70
     1
102
RTVSPropertyOp26
 70
     1
102
RTVSPropertyOp27
 70
     1
102
RTVSPropertyOp28
 70
     1
102
RTVSPropertyOp29
 70
     1
102
RTVSPropertyOp30
 70
     1
102
RTVSPropertyOp31
 70
     1
102
RTVSPropertyOp32
 70
     1
  0
XRECORD
  5
B4
102
{ACAD_REACTORS
330
B3
102
}
330
B3
100
AcDbXrecord
280
     1
102
RTVSPropertyOp0
 70
     1
102
RTVSPropertyOp1
 70
     1
102
RTVSPropertyOp2
 70
     1
102
RTVSPropertyOp3
 70
     1
102
RTVSPropertyOp4
 70
     1
102
RTVSPropertyOp5
 70
     1
102
RTVSPropertyOp6
 70
     1
102
RTVSPropertyOp7
 70
     1
102
RTVSPropertyOp8
 70
     1
102
RTVSPropertyOp9
 70
     1
102
RTVSPropertyOp10
 70
     1
102
RTVSPropertyOp11
 70
     1
102
RTVSPropertyOp12
 70
     1
102
RTVSPropertyOp13
 70
     1
102
RTVSPropertyOp14
 70
     1
102
RTVSPropertyOp15
 70
     1
102
RTVSPropertyOp16
 70
     1
102
RTVSPropertyOp17
 70
     1
102
RTVSPropertyOp18
 70
     1
102
RTVSPropertyOp19
 70
     1
102
RTVSPropertyOp20
 70
     1
102
RTVSPropertyOp21
 70
     1
102
RTVSPropertyOp22
 70
     1
102
RTVSPropertyOp23
 70
     1
102
RTVSPropertyOp24
 70
     1
102
RTVSPropertyOp25
 70
     1
102
RTVSPropertyOp26
 70
     1
102
RTVSPropertyOp27
 70
     1
102
RTVSPropertyOp28
 70
     1
102
RTVSPropertyOp29
 70
     1
102
RTVSPropertyOp30
 70
     1
102
RTVSPropertyOp31
 70
     1
102
RTVSPropertyOp32
 70
     1
  0
XRECORD
  5
B2
102
{ACAD_REACTORS
330
B1
102
}
330
B1
100
AcDbXrecord
280
     1
102
RTVSPropertyOp0
 70
     1
102
RTVSPropertyOp1
 70
     1
102
RTVSPropertyOp2
 70
     1
102
RTVSPropertyOp3
 70
     1
102
RTVSPropertyOp4
 70
     1
102
RTVSPropertyOp5
 70
     1
102
RTVSPropertyOp6
 70
     1
102
RTVSPropertyOp7
 70
     1
102
RTVSPropertyOp8
 70
     1
102
RTVSPropertyOp9
 70
     1
102
RTVSPropertyOp10
 70
     1
102
RTVSPropertyOp11
 70
     1
102
RTVSPropertyOp12
 70
     1
102
RTVSPropertyOp13
 70
     1
102
RTVSPropertyOp14
 70
     1
102
RTVSPropertyOp15
 70
     1
102
RTVSPropertyOp16
 70
     1
102
RTVSPropertyOp17
 70
     1
102
RTVSPropertyOp18
 70
     1
102
RTVSPropertyOp19
 70
     1
102
RTVSPropertyOp20
 70
     1
102
RTVSPropertyOp21
 70
     1
102
RTVSPropertyOp22
 70
     1
102
RTVSPropertyOp23
 70
     1
102
RTVSPropertyOp24
 70
     1
102
RTVSPropertyOp25
 70
     1
102
RTVSPropertyOp26
 70
     1
102
RTVSPropertyOp27
 70
     1
102
RTVSPropertyOp28
 70
     1
102
RTVSPropertyOp29
 70
     1
102
RTVSPropertyOp30
 70
     1
102
RTVSPropertyOp31
 70
     1
102
RTVSPropertyOp32
 70
     1
  0
XRECORD
  5
B6
102
{ACAD_REACTORS
330
B5
102
}
330
B5
100
AcDbXrecord
280
     1
102
RTVSPropertyOp0
 70
     1
102
RTVSPropertyOp1
 70
     1
102
RTVSPropertyOp2
 70
     1
102
RTVSPropertyOp3
 70
     1
102
RTVSPropertyOp4
 70
     1
102
RTVSPropertyOp5
 70
     1
102
RTVSPropertyOp6
 70
     1
102
RTVSPropertyOp7
 70
     1
102
RTVSPropertyOp8
 70
     1
102
RTVSPropertyOp9
 70
     1
102
RTVSPropertyOp10
 70
     1
102
RTVSPropertyOp11
 70
     1
102
RTVSPropertyOp12
 70
     1
102
RTVSPropertyOp13
 70
     1
102
RTVSPropertyOp14
 70
     1
102
RTVSPropertyOp15
 70
     1
102
RTVSPropertyOp16
 70
     1
102
RTVSPropertyOp17
 70
     1
102
RTVSPropertyOp18
 70
     1
102
RTVSPropertyOp19
 70
     1
102
RTVSPropertyOp20
 70
     1
102
RTVSPropertyOp21
 70
     1
102
RTVSPropertyOp22
 70
     1
102
RTVSPropertyOp23
 70
     1
102
RTVSPropertyOp24
 70
     1
102
RTVSPropertyOp25
 70
     1
102
RTVSPropertyOp26
 70
     1
102
RTVSPropertyOp27
 70
     1
102
RTVSPropertyOp28
 70
     1
102
RTVSPropertyOp29
 70
     1
102
RTVSPropertyOp30
 70
     1
102
RTVSPropertyOp31
 70
     1
102
RTVSPropertyOp32
 70
     1
  0
XRECORD
  5
BE
102
{ACAD_REACTORS
330
BD
102
}
330
BD
100
AcDbXrecord
280
     1
102
RTVSPropertyOp0
 70
     1
102
RTVSPropertyOp1
 70
     1
102
RTVSPropertyOp2
 70
     1
102
RTVSPropertyOp3
 70
     1
102
RTVSPropertyOp4
 70
     1
102
RTVSPropertyOp5
 70
     1
102
RTVSPropertyOp6
 70
     1
102
RTVSPropertyOp7
 70
     1
102
RTVSPropertyOp8
 70
     1
102
RTVSPropertyOp9
 70
     1
102
RTVSPropertyOp10
 70
     1
102
RTVSPropertyOp11
 70
     1
102
RTVSPropertyOp12
 70
     1
102
RTVSPropertyOp13
 70
     1
102
RTVSPropertyOp14
 70
     1
102
RTVSPropertyOp15
 70
     1
102
RTVSPropertyOp16
 70
     1
102
RTVSPropertyOp17
 70
     1
102
RTVSPropertyOp18
 70
     1
102
RTVSPropertyOp19
 70
     1
102
RTVSPropertyOp20
 70
     1
102
RTVSPropertyOp21
 70
     1
102
RTVSPropertyOp22
 70
     1
102
RTVSPropertyOp23
 70
     1
102
RTVSPropertyOp24
 70
     1
102
RTVSPropertyOp25
 70
     1
102
RTVSPropertyOp26
 70
     1
102
RTVSPropertyOp27
 70
     1
102
RTVSPropertyOp28
 70
     1
102
RTVSPropertyOp29
 70
     1
102
RTVSPropertyOp30
 70
     1
102
RTVSPropertyOp31
 70
     1
102
RTVSPropertyOp32
 70
     1
  0
XRECORD
  5
C6
102
{ACAD_REACTORS
330
C5
102
}
330
C5
100
AcDbXrecord
280
     1
102
RTVSPropertyOp0
 70
     1
102
RTVSPropertyOp1
 70
     1
102
RTVSPropertyOp2
 70
     1
102
RTVSPropertyOp3
 70
     1
102
RTVSPropertyOp4
 70
     1
102
RTVSPropertyOp5
 70
     1
102
RTVSPropertyOp6
 70
     1
102
RTVSPropertyOp7
 70
     1
102
RTVSPropertyOp8
 70
     1
102
RTVSPropertyOp9
 70
     1
102
RTVSPropertyOp10
 70
     1
102
RTVSPropertyOp11
 70
     1
102
RTVSPropertyOp12
 70
     1
102
RTVSPropertyOp13
 70
     1
102
RTVSPropertyOp14
 70
     1
102
RTVSPropertyOp15
 70
     1
102
RTVSPropertyOp16
 70
     1
102
RTVSPropertyOp17
 70
     1
102
RTVSPropertyOp18
 70
     1
102
RTVSPropertyOp19
 70
     1
102
RTVSPropertyOp20
 70
     1
102
RTVSPropertyOp21
 70
     1
102
RTVSPropertyOp22
 70
     1
102
RTVSPropertyOp23
 70
     1
102
RTVSPropertyOp24
 70
     1
102
RTVSPropertyOp25
 70
     1
102
RTVSPropertyOp26
 70
     1
102
RTVSPropertyOp27
 70
     1
102
RTVSPropertyOp28
 70
     1
102
RTVSPropertyOp29
 70
     1
102
RTVSPropertyOp30
 70
     1
102
RTVSPropertyOp31
 70
     1
102
RTVSPropertyOp32
 70
     1
  0
XRECORD
  5
BA
102
{ACAD_REACTORS
330
B9
102
}
330
B9
100
AcDbXrecord
280
     1
102
RTVSPropertyOp0
 70
     1
102
RTVSPropertyOp1
 70
     1
102
RTVSPropertyOp2
 70
     1
102
RTVSPropertyOp3
 70
     1
102
RTVSPropertyOp4
 70
     1
102
RTVSPropertyOp5
 70
     1
102
RTVSPropertyOp6
 70
     1
102
RTVSPropertyOp7
 70
     1
102
RTVSPropertyOp8
 70
     1
102
RTVSPropertyOp9
 70
     1
102
RTVSPropertyOp10
 70
     1
102
RTVSPropertyOp11
 70
     1
102
RTVSPropertyOp12
 70
     1
102
RTVSPropertyOp13
 70
     1
102
RTVSPropertyOp14
 70
     1
102
RTVSPropertyOp15
 70
     1
102
RTVSPropertyOp16
 70
     1
102
RTVSPropertyOp17
 70
     1
102
RTVSPropertyOp18
 70
     1
102
RTVSPropertyOp19
 70
     1
102
RTVSPropertyOp20
 70
     1
102
RTVSPropertyOp21
 70
     1
102
RTVSPropertyOp22
 70
     1
102
RTVSPropertyOp23
 70
     1
102
RTVSPropertyOp24
 70
     1
102
RTVSPropertyOp25
 70
     1
102
RTVSPropertyOp26
 70
     1
102
RTVSPropertyOp27
 70
     1
102
RTVSPropertyOp28
 70
     1
102
RTVSPropertyOp29
 70
     1
102
RTVSPropertyOp30
 70
     1
102
RTVSPropertyOp31
 70
     1
102
RTVSPropertyOp32
 70
     1
  0
XRECORD
  5
BC
102
{ACAD_REACTORS
330
BB
102
}
330
BB
100
AcDbXrecord
280
     1
102
RTVSPropertyOp0
 70
     1
102
RTVSPropertyOp1
 70
     1
102
RTVSPropertyOp2
 70
     1
102
RTVSPropertyOp3
 70
     1
102
RTVSPropertyOp4
 70
     1
102
RTVSPropertyOp5
 70
     1
102
RTVSPropertyOp6
 70
     1
102
RTVSPropertyOp7
 70
     1
102
RTVSPropertyOp8
 70
     1
102
RTVSPropertyOp9
 70
     1
102
RTVSPropertyOp10
 70
     1
102
RTVSPropertyOp11
 70
     1
102
RTVSPropertyOp12
 70
     1
102
RTVSPropertyOp13
 70
     1
102
RTVSPropertyOp14
 70
     1
102
RTVSPropertyOp15
 70
     1
102
RTVSPropertyOp16
 70
     1
102
RTVSPropertyOp17
 70
     1
102
RTVSPropertyOp18
 70
     1
102
RTVSPropertyOp19
 70
     1
102
RTVSPropertyOp20
 70
     1
102
RTVSPropertyOp21
 70
     1
102
RTVSPropertyOp22
 70
     1
102
RTVSPropertyOp23
 70
     1
102
RTVSPropertyOp24
 70
     1
102
RTVSPropertyOp25
 70
     1
102
RTVSPropertyOp26
 70
     1
102
RTVSPropertyOp27
 70
     1
102
RTVSPropertyOp28
 70
     1
102
RTVSPropertyOp29
 70
     1
102
RTVSPropertyOp30
 70
     1
102
RTVSPropertyOp31
 70
     1
102
RTVSPropertyOp32
 70
     1
  0
XRECORD
  5
C4
102
{ACAD_REACTORS
330
C3
102
}
330
C3
100
AcDbXrecord
280
     1
102
RTVSPropertyOp0
 70
     1
102
RTVSPropertyOp1
 70
     1
102
RTVSPropertyOp2
 70
     1
102
RTVSPropertyOp3
 70
     1
102
RTVSPropertyOp4
 70
     1
102
RTVSPropertyOp5
 70
     1
102
RTVSPropertyOp6
 70
     1
102
RTVSPropertyOp7
 70
     1
102
RTVSPropertyOp8
 70
     1
102
RTVSPropertyOp9
 70
     1
102
RTVSPropertyOp10
 70
     1
102
RTVSPropertyOp11
 70
     1
102
RTVSPropertyOp12
 70
     1
102
RTVSPropertyOp13
 70
     1
102
RTVSPropertyOp14
 70
     1
102
RTVSPropertyOp15
 70
     1
102
RTVSPropertyOp16
 70
     1
102
RTVSPropertyOp17
 70
     1
102
RTVSPropertyOp18
 70
     1
102
RTVSPropertyOp19
 70
     1
102
RTVSPropertyOp20
 70
     1
102
RTVSPropertyOp21
 70
     1
102
RTVSPropertyOp22
 70
     1
102
RTVSPropertyOp23
 70
     1
102
RTVSPropertyOp24
 70
     1
102
RTVSPropertyOp25
 70
     1
102
RTVSPropertyOp26
 70
     1
102
RTVSPropertyOp27
 70
     1
102
RTVSPropertyOp28
 70
     1
102
RTVSPropertyOp29
 70
     1
102
RTVSPropertyOp30
 70
     1
102
RTVSPropertyOp31
 70
     1
102
RTVSPropertyOp32
 70
     1
  0
XRECORD
  5
A8
102
{ACAD_REACTORS
330
A7
102
}
330
A7
100
AcDbXrecord
280
     1
102
RTVSPropertyOp0
 70
     1
102
RTVSPropertyOp1
 70
     1
102
RTVSPropertyOp2
 70
     1
102
RTVSPropertyOp3
 70
     1
102
RTVSPropertyOp4
 70
     1
102
RTVSPropertyOp5
 70
     1
102
RTVSPropertyOp6
 70
     1
102
RTVSPropertyOp7
 70
     1
102
RTVSPropertyOp8
 70
     1
102
RTVSPropertyOp9
 70
     1
102
RTVSPropertyOp10
 70
     1
102
RTVSPropertyOp11
 70
     1
102
RTVSPropertyOp12
 70
     1
102
RTVSPropertyOp13
 70
     1
102
RTVSPropertyOp14
 70
     1
102
RTVSPropertyOp15
 70
     1
102
RTVSPropertyOp16
 70
     1
102
RTVSPropertyOp17
 70
     1
102
RTVSPropertyOp18
 70
     1
102
RTVSPropertyOp19
 70
     1
102
RTVSPropertyOp20
 70
     1
102
RTVSPropertyOp21
 70
     1
102
RTVSPropertyOp22
 70
     1
102
RTVSPropertyOp23
 70
     1
102
RTVSPropertyOp24
 70
     1
102
RTVSPropertyOp25
 70
     1
102
RTVSPropertyOp26
 70
     1
102
RTVSPropertyOp27
 70
     1
102
RTVSPropertyOp28
 70
     1
102
RTVSPropertyOp29
 70
     1
102
RTVSPropertyOp30
 70
     1
102
RTVSPropertyOp31
 70
     1
102
RTVSPropertyOp32
 70
     1
  0
XRECORD
  5
AA
102
{ACAD_REACTORS
330
A9
102
}
330
A9
100
AcDbXrecord
280
     1
102
RTVSPropertyOp0
 70
     1
102
RTVSPropertyOp1
 70
     1
102
RTVSPropertyOp2
 70
     1
102
RTVSPropertyOp3
 70
     1
102
RTVSPropertyOp4
 70
     1
102
RTVSPropertyOp5
 70
     1
102
RTVSPropertyOp6
 70
     1
102
RTVSPropertyOp7
 70
     1
102
RTVSPropertyOp8
 70
     1
102
RTVSPropertyOp9
 70
     1
102
RTVSPropertyOp10
 70
     1
102
RTVSPropertyOp11
 70
     1
102
RTVSPropertyOp12
 70
     1
102
RTVSPropertyOp13
 70
     1
102
RTVSPropertyOp14
 70
     1
102
RTVSPropertyOp15
 70
     1
102
RTVSPropertyOp16
 70
     1
102
RTVSPropertyOp17
 70
     1
102
RTVSPropertyOp18
 70
     1
102
RTVSPropertyOp19
 70
     1
102
RTVSPropertyOp20
 70
     1
102
RTVSPropertyOp21
 70
     1
102
RTVSPropertyOp22
 70
     1
102
RTVSPropertyOp23
 70
     1
102
RTVSPropertyOp24
 70
     1
102
RTVSPropertyOp25
 70
     1
102
RTVSPropertyOp26
 70
     1
102
RTVSPropertyOp27
 70
     1
102
RTVSPropertyOp28
 70
     1
102
RTVSPropertyOp29
 70
     1
102
RTVSPropertyOp30
 70
     1
102
RTVSPropertyOp31
 70
     1
102
RTVSPropertyOp32
 70
     1
  0
XRECORD
  5
AC
102
{ACAD_REACTORS
330
AB
102
}
330
AB
100
AcDbXrecord
280
     1
102
RTVSPropertyOp0
 70
     1
102
RTVSPropertyOp1
 70
     1
102
RTVSPropertyOp2
 70
     1
102
RTVSPropertyOp3
 70
     1
102
RTVSPropertyOp4
 70
     1
102
RTVSPropertyOp5
 70
     1
102
RTVSPropertyOp6
 70
     1
102
RTVSPropertyOp7
 70
     1
102
RTVSPropertyOp8
 70
     1
102
RTVSPropertyOp9
 70
     1
102
RTVSPropertyOp10
 70
     1
102
RTVSPropertyOp11
 70
     1
102
RTVSPropertyOp12
 70
     1
102
RTVSPropertyOp13
 70
     1
102
RTVSPropertyOp14
 70
     1
102
RTVSPropertyOp15
 70
     1
102
RTVSPropertyOp16
 70
     1
102
RTVSPropertyOp17
 70
     1
102
RTVSPropertyOp18
 70
     1
102
RTVSPropertyOp19
 70
     1
102
RTVSPropertyOp20
 70
     1
102
RTVSPropertyOp21
 70
     1
102
RTVSPropertyOp22
 70
     1
102
RTVSPropertyOp23
 70
     1
102
RTVSPropertyOp24
 70
     1
102
RTVSPropertyOp25
 70
     1
102
RTVSPropertyOp26
 70
     1
102
RTVSPropertyOp27
 70
     1
102
RTVSPropertyOp28
 70
     1
102
RTVSPropertyOp29
 70
     1
102
RTVSPropertyOp30
 70
     1
102
RTVSPropertyOp31
 70
     1
102
RTVSPropertyOp32
 70
     1
  0
XRECORD
  5
AE
102
{ACAD_REACTORS
330
AD
102
}
330
AD
100
AcDbXrecord
280
     1
102
RTVSPropertyOp0
 70
     1
102
RTVSPropertyOp1
 70
     1
102
RTVSPropertyOp2
 70
     1
102
RTVSPropertyOp3
 70
     1
102
RTVSPropertyOp4
 70
     1
102
RTVSPropertyOp5
 70
     1
102
RTVSPropertyOp6
 70
     1
102
RTVSPropertyOp7
 70
     1
102
RTVSPropertyOp8
 70
     1
102
RTVSPropertyOp9
 70
     1
102
RTVSPropertyOp10
 70
     1
102
RTVSPropertyOp11
 70
     1
102
RTVSPropertyOp12
 70
     1
102
RTVSPropertyOp13
 70
     1
102
RTVSPropertyOp14
 70
     1
102
RTVSPropertyOp15
 70
     1
102
RTVSPropertyOp16
 70
     1
102
RTVSPropertyOp17
 70
     1
102
RTVSPropertyOp18
 70
     1
102
RTVSPropertyOp19
 70
     1
102
RTVSPropertyOp20
 70
     1
102
RTVSPropertyOp21
 70
     1
102
RTVSPropertyOp22
 70
     1
102
RTVSPropertyOp23
 70
     1
102
RTVSPropertyOp24
 70
     1
102
RTVSPropertyOp25
 70
     1
102
RTVSPropertyOp26
 70
     1
102
RTVSPropertyOp27
 70
     1
102
RTVSPropertyOp28
 70
     1
102
RTVSPropertyOp29
 70
     1
102
RTVSPropertyOp30
 70
     1
102
RTVSPropertyOp31
 70
     1
102
RTVSPropertyOp32
 70
     1
  0
XRECORD
  5
C2
102
{ACAD_REACTORS
330
C1
102
}
330
C1
100
AcDbXrecord
280
     1
102
RTVSPropertyOp0
 70
     1
102
RTVSPropertyOp1
 70
     1
102
RTVSPropertyOp2
 70
     1
102
RTVSPropertyOp3
 70
     1
102
RTVSPropertyOp4
 70
     1
102
RTVSPropertyOp5
 70
     1
102
RTVSPropertyOp6
 70
     1
102
RTVSPropertyOp7
 70
     1
102
RTVSPropertyOp8
 70
     1
102
RTVSPropertyOp9
 70
     1
102
RTVSPropertyOp10
 70
     1
102
RTVSPropertyOp11
 70
     1
102
RTVSPropertyOp12
 70
     1
102
RTVSPropertyOp13
 70
     1
102
RTVSPropertyOp14
 70
     1
102
RTVSPropertyOp15
 70
     1
102
RTVSPropertyOp16
 70
     1
102
RTVSPropertyOp17
 70
     1
102
RTVSPropertyOp18
 70
     1
102
RTVSPropertyOp19
 70
     1
102
RTVSPropertyOp20
 70
     1
102
RTVSPropertyOp21
 70
     1
102
RTVSPropertyOp22
 70
     1
102
RTVSPropertyOp23
 70
     1
102
RTVSPropertyOp24
 70
     1
102
RTVSPropertyOp25
 70
     1
102
RTVSPropertyOp26
 70
     1
102
RTVSPropertyOp27
 70
     1
102
RTVSPropertyOp28
 70
     1
102
RTVSPropertyOp29
 70
     1
102
RTVSPropertyOp30
 70
     1
102
RTVSPropertyOp31
 70
     1
102
RTVSPropertyOp32
 70
     1
  0
XRECORD
  5
B8
102
{ACAD_REACTORS
330
B7
102
}
330
B7
100
AcDbXrecord
280
     1
102
RTVSPropertyOp0
 70
     1
102
RTVSPropertyOp1
 70
     1
102
RTVSPropertyOp2
 70
     1
102
RTVSPropertyOp3
 70
     1
102
RTVSPropertyOp4
 70
     1
102
RTVSPropertyOp5
 70
     1
102
RTVSPropertyOp6
 70
     1
102
RTVSPropertyOp7
 70
     1
102
RTVSPropertyOp8
 70
     1
102
RTVSPropertyOp9
 70
     1
102
RTVSPropertyOp10
 70
     1
102
RTVSPropertyOp11
 70
     1
102
RTVSPropertyOp12
 70
     1
102
RTVSPropertyOp13
 70
     1
102
RTVSPropertyOp14
 70
     1
102
RTVSPropertyOp15
 70
     1
102
RTVSPropertyOp16
 70
     1
102
RTVSPropertyOp17
 70
     1
102
RTVSPropertyOp18
 70
     1
102
RTVSPropertyOp19
 70
     1
102
RTVSPropertyOp20
 70
     1
102
RTVSPropertyOp21
 70
     1
102
RTVSPropertyOp22
 70
     1
102
RTVSPropertyOp23
 70
     1
102
RTVSPropertyOp24
 70
     1
102
RTVSPropertyOp25
 70
     1
102
RTVSPropertyOp26
 70
     1
102
RTVSPropertyOp27
 70
     1
102
RTVSPropertyOp28
 70
     1
102
RTVSPropertyOp29
 70
     1
102
RTVSPropertyOp30
 70
     1
102
RTVSPropertyOp31
 70
     1
102
RTVSPropertyOp32
 70
     1
  0
XRECORD
  5
C0
102
{ACAD_REACTORS
330
BF
102
}
330
BF
100
AcDbXrecord
280
     1
102
RTVSPropertyOp0
 70
     1
102
RTVSPropertyOp1
 70
     1
102
RTVSPropertyOp2
 70
     1
102
RTVSPropertyOp3
 70
     1
102
RTVSPropertyOp4
 70
     1
102
RTVSPropertyOp5
 70
     1
102
RTVSPropertyOp6
 70
     1
102
RTVSPropertyOp7
 70
     1
102
RTVSPropertyOp8
 70
     1
102
RTVSPropertyOp9
 70
     1
102
RTVSPropertyOp10
 70
     1
102
RTVSPropertyOp11
 70
     1
102
RTVSPropertyOp12
 70
     1
102
RTVSPropertyOp13
 70
     1
102
RTVSPropertyOp14
 70
     1
102
RTVSPropertyOp15
 70
     1
102
RTVSPropertyOp16
 70
     1
102
RTVSPropertyOp17
 70
     1
102
RTVSPropertyOp18
 70
     1
102
RTVSPropertyOp19
 70
     1
102
RTVSPropertyOp20
 70
     1
102
RTVSPropertyOp21
 70
     1
102
RTVSPropertyOp22
 70
     1
102
RTVSPropertyOp23
 70
     1
102
RTVSPropertyOp24
 70
     1
102
RTVSPropertyOp25
 70
     1
102
RTVSPropertyOp26
 70
     1
102
RTVSPropertyOp27
 70
     1
102
RTVSPropertyOp28
 70
     1
102
RTVSPropertyOp29
 70
     1
102
RTVSPropertyOp30
 70
     1
102
RTVSPropertyOp31
 70
     1
102
RTVSPropertyOp32
 70
     1
  0
ENDSEC
  0
EOF
