  0
SECTION
  2
HEADER
  9
$ACADVER
  1
AC1021
  9
$ACADMAINTVER
 70
    25
  9
$DWGCODEPAGE
  3
ANSI_1252
  9
$INSBASE
 10
0.0
 20
0.0
 30
0.0
  9
$EXTMIN
 10
78.1689
 20
-114.9153
 30
0.0
  9
$EXTMAX
 10
196.4984
 20
131.6706
 30
0.0
  9
$LIMMIN
 10
0.0
 20
0.0
  9
$LIMMAX
 10
12.0
 20
9.0
  9
$ORTHOMODE
 70
     0
  9
$REGENMODE
 70
     1
  9
$FILLMODE
 70
     1
  9
$QTEXTMODE
 70
     0
  9
$MIRRTEXT
 70
     1
  9
$LTSCALE
 40
1.0
  9
$ATTMODE
 70
     1
  9
$TEXTSIZE
 40
0.2
  9
$TRACEWID
 40
0.05
  9
$TEXTSTYLE
  7
Standard
  9
$CLAYER
  8
0
  9
$CELTYPE
  6
ByLayer
  9
$CECOLOR
 62
   256
  9
$CELTSCALE
 40
1.0
  9
$DISPSILH
 70
     0
  9
$DIMSCALE
 40
1.0
  9
$DIMASZ
 40
0.18
  9
$DIMEXO
 40
0.0625
  9
$DIMDLI
 40
0.38
  9
$DIMRND
 40
0.0
  9
$DIMDLE
 40
0.0
  9
$DIMEXE
 40
0.18
  9
$DIMTP
 40
0.0
  9
$DIMTM
 40
0.0
  9
$DIMTXT
 40
0.18
  9
$DIMCEN
 40
0.09
  9
$DIMTSZ
 40
0.0
  9
$DIMTOL
 70
     0
  9
$DIMLIM
 70
     0
  9
$DIMTIH
 70
     1
  9
$DIMTOH
 70
     1
  9
$DIMSE1
 70
     0
  9
$DIMSE2
 70
     0
  9
$DIMTAD
 70
     0
  9
$DIMZIN
 70
     0
  9
$DIMBLK
  1

  9
$DIMASO
 70
     1
  9
$DIMSHO
 70
     1
  9
$DIMPOST
  1

  9
$DIMAPOST
  1

  9
$DIMALT
 70
     0
  9
$DIMALTD
 70
     2
  9
$DIMALTF
 40
25.4
  9
$DIMLFAC
 40
1.0
  9
$DIMTOFL
 70
     0
  9
$DIMTVP
 40
0.0
  9
$DIMTIX
 70
     0
  9
$DIMSOXD
 70
     0
  9
$DIMSAH
 70
     0
  9
$DIMBLK1
  1

  9
$DIMBLK2
  1

  9
$DIMSTYLE
  2
Standard
  9
$DIMCLRD
 70
     0
  9
$DIMCLRE
 70
     0
  9
$DIMCLRT
 70
     0
  9
$DIMTFAC
 40
1.0
  9
$DIMGAP
 40
0.09
  9
$DIMJUST
 70
     0
  9
$DIMSD1
 70
     0
  9
$DIMSD2
 70
     0
  9
$DIMTOLJ
 70
     1
  9
$DIMTZIN
 70
     0
  9
$DIMALTZ
 70
     0
  9
$DIMALTTZ
 70
     0
  9
$DIMUPT
 70
     0
  9
$DIMDEC
 70
     4
  9
$DIMTDEC
 70
     4
  9
$DIMALTU
 70
     2
  9
$DIMALTTD
 70
     2
  9
$DIMTXSTY
  7
Standard
  9
$DIMAUNIT
 70
     0
  9
$DIMADEC
 70
     0
  9
$DIMALTRND
 40
0.0
  9
$DIMAZIN
 70
     0
  9
$DIMDSEP
 70
    46
  9
$DIMATFIT
 70
     3
  9
$DIMFRAC
 70
     0
  9
$DIMLDRBLK
  1

  9
$DIMLUNIT
 70
     2
  9
$DIMLWD
 70
    -2
  9
$DIMLWE
 70
    -2
  9
$DIMTMOVE
 70
     0
  9
$DIMFXL
 40
1.0
  9
$DIMFXLON
 70
     0
  9
$DIMJOGANG
 40
0.7853981633974483
  9
$DIMTFILL
 70
     0
  9
$DIMTFILLCLR
 70
     0
  9
$DIMARCSYM
 70
     0
  9
$DIMLTYPE
  6

  9
$DIMLTEX1
  6

  9
$DIMLTEX2
  6

  9
$LUNITS
 70
     2
  9
$LUPREC
 70
     4
  9
$SKETCHINC
 40
0.1
  9
$FILLETRAD
 40
0.5
  9
$AUNITS
 70
     0
  9
$AUPREC
 70
     0
  9
$MENU
  1
.
  9
$ELEVATION
 40
0.0
  9
$PELEVATION
 40
0.0
  9
$THICKNESS
 40
0.0
  9
$LIMCHECK
 70
     0
  9
$CHAMFERA
 40
0.5
  9
$CHAMFERB
 40
0.5
  9
$CHAMFERC
 40
1.0
  9
$CHAMFERD
 40
0.0
  9
$SKPOLY
 70
     0
  9
$TDCREATE
 40
2458492.559333703
  9
$TDUCREATE
 40
2458492.559333703
  9
$TDUPDATE
 40
2458492.559333796
  9
$TDUUPDATE
 40
2458492.559333796
  9
$TDINDWG
 40
0.0000000116
  9
$TDUSRTIMER
 40
0.0000000116
  9
$USRTIMER
 70
     1
  9
$ANGBASE
 50
0.0
  9
$ANGDIR
 70
     0
  9
$PDMODE
 70
     0
  9
$PDSIZE
 40
0.0
  9
$PLINEWID
 40
0.0
  9
$SPLFRAME
 70
     0
  9
$SPLINETYPE
 70
     6
  9
$SPLINESEGS
 70
     8
  9
$HANDSEED
  5
C0
  9
$SURFTAB1
 70
     6
  9
$SURFTAB2
 70
     6
  9
$SURFTYPE
 70
     6
  9
$SURFU
 70
     6
  9
$SURFV
 70
     6
  9
$UCSBASE
  2

  9
$UCSNAME
  2

  9
$UCSORG
 10
0.0
 20
0.0
 30
0.0
  9
$UCSXDIR
 10
1.0
 20
0.0
 30
0.0
  9
$UCSYDIR
 10
0.0
 20
1.0
 30
0.0
  9
$UCSORTHOREF
  2

  9
$UCSORTHOVIEW
 70
     0
  9
$UCSORGTOP
 10
0.0
 20
0.0
 30
0.0
  9
$UCSORGBOTTOM
 10
0.0
 20
0.0
 30
0.0
  9
$UCSORGLEFT
 10
0.0
 20
0.0
 30
0.0
  9
$UCSORGRIGHT
 10
0.0
 20
0.0
 30
0.0
  9
$UCSORGFRONT
 10
0.0
 20
0.0
 30
0.0
  9
$UCSORGBACK
 10
0.0
 20
0.0
 30
0.0
  9
$PUCSBASE
  2

  9
$PUCSNAME
  2

  9
$PUCSORG
 10
0.0
 20
0.0
 30
0.0
  9
$PUCSXDIR
 10
1.0
 20
0.0
 30
0.0
  9
$PUCSYDIR
 10
0.0
 20
1.0
 30
0.0
  9
$PUCSORTHOREF
  2

  9
$PUCSORTHOVIEW
 70
     0
  9
$PUCSORGTOP
 10
0.0
 20
0.0
 30
0.0
  9
$PUCSORGBOTTOM
 10
0.0
 20
0.0
 30
0.0
  9
$PUCSORGLEFT
 10
0.0
 20
0.0
 30
0.0
  9
$PUCSORGRIGHT
 10
0.0
 20
0.0
 30
0.0
  9
$PUCSORGFRONT
 10
0.0
 20
0.0
 30
0.0
  9
$PUCSORGBACK
 10
0.0
 20
0.0
 30
0.0
  9
$USERI1
 70
     0
  9
$USERI2
 70
     0
  9
$USERI3
 70
     0
  9
$USERI4
 70
     0
  9
$USERI5
 70
     0
  9
$USERR1
 40
0.0
  9
$USERR2
 40
0.0
  9
$USERR3
 40
0.0
  9
$USERR4
 40
0.0
  9
$USERR5
 40
0.0
  9
$WORLDVIEW
 70
     1
  9
$SHADEDGE
 70
     3
  9
$SHADEDIF
 70
    70
  9
$TILEMODE
 70
     1
  9
$MAXACTVP
 70
    64
  9
$PINSBASE
 10
0.0
 20
0.0
 30
0.0
  9
$PLIMCHECK
 70
     0
  9
$PEXTMIN
 10
1.000000000000000E+20
 20
1.000000000000000E+20
 30
1.000000000000000E+20
  9
$PEXTMAX
 10
-1.000000000000000E+20
 20
-1.000000000000000E+20
 30
-1.000000000000000E+20
  9
$PLIMMIN
 10
0.0
 20
0.0
  9
$PLIMMAX
 10
12.0
 20
9.0
  9
$UNITMODE
 70
     0
  9
$VISRETAIN
 70
     1
  9
$PLINEGEN
 70
     0
  9
$PSLTSCALE
 70
     1
  9
$TREEDEPTH
 70
  3020
  9
$CMLSTYLE
  2
Standard
  9
$CMLJUST
 70
     0
  9
$CMLSCALE
 40
1.0
  9
$PROXYGRAPHICS
 70
     1
  9
$MEASUREMENT
 70
     0
  9
$CELWEIGHT
370
    -1
  9
$ENDCAPS
280
     0
  9
$JOINSTYLE
280
     0
  9
$LWDISPLAY
290
     0
  9
$INSUNITS
 70
     4
  9
$HYPERLINKBASE
  1

  9
$STYLESHEET
  1

  9
$XEDIT
290
     1
  9
$CEPSNTYPE
380
     0
  9
$PSTYLEMODE
290
     1
  9
$FINGERPRINTGUID
  2
{D5D95864-8852-4954-A41A-0E35FCF8C06E}
  9
$VERSIONGUID
  2
{FAEB1C32-E019-11D5-929B-00C0DF256EC4}
  9
$EXTNAMES
290
     1
  9
$PSVPSCALE
 40
0.0
  9
$OLESTARTUP
290
     0
  9
$SORTENTS
280
   127
  9
$INDEXCTL
280
     0
  9
$HIDETEXT
280
     1
  9
$XCLIPFRAME
290
     0
  9
$HALOGAP
280
     0
  9
$OBSCOLOR
 70
   257
  9
$OBSLTYPE
280
     0
  9
$INTERSECTIONDISPLAY
280
     0
  9
$INTERSECTIONCOLOR
 70
   257
  9
$DIMASSOC
280
     2
  9
$PROJECTNAME
  1

  9
$CAMERADISPLAY
290
     0
  9
$LENSLENGTH
 40
50.0
  9
$CAMERAHEIGHT
 40
0.0
  9
$STEPSPERSEC
 40
2.0
  9
$STEPSIZE
 40
6.0
  9
$3DDWFPREC
 40
2.0
  9
$PSOLWIDTH
 40
0.25
  9
$PSOLHEIGHT
 40
4.0
  9
$LOFTANG1
 40
1.570796326794897
  9
$LOFTANG2
 40
1.570796326794897
  9
$LOFTMAG1
 40
0.0
  9
$LOFTMAG2
 40
0.0
  9
$LOFTPARAM
 70
     7
  9
$LOFTNORMALS
280
     1
  9
$LATITUDE
 40
37.795
  9
$LONGITUDE
 40
-122.394
  9
$NORTHDIRECTION
 40
0.0
  9
$TIMEZONE
 70
 -8000
  9
$LIGHTGLYPHDISPLAY
280
     1
  9
$TILEMODELIGHTSYNCH
280
     1
  9
$SOLIDHIST
280
     1
  9
$SHOWHIST
280
     1
  9
$DWFFRAME
280
     2
  9
$DGNFRAME
280
     2
  9
$REALWORLDSCALE
290
     1
  9
$INTERFERECOLOR
 62
   256
  9
$CSHADOW
280
     0
  9
$SHADOWPLANELOCATION
 40
0.0
  0
ENDSEC
  0
SECTION
  2
CLASSES
  0
CLASS
  1
ACDBDICTIONARYWDFLT
  2
AcDbDictionaryWithDefault
  3
ObjectDBX Classes
 90
        0
 91
        4
280
     0
281
     0
  0
CLASS
  1
VISUALSTYLE
  2
AcDbVisualStyle
  3
ObjectDBX Classes
 90
     4095
 91
        4
280
     0
281
     0
  0
CLASS
  1
MATERIAL
  2
AcDbMaterial
  3
ObjectDBX Classes
 90
     1153
 91
        4
280
     0
281
     0
  0
ENDSEC
  0
SECTION
  2
TABLES
  0
TABLE
  2
VPORT
  5
8
330
0
100
AcDbSymbolTable
 70
     1
  0
VPORT
  5
29
330
8
100
AcDbSymbolTableRecord
100
AcDbViewportTableRecord
  2
*Active
 70
     0
 10
0.0
 20
0.0
 11
1.0
 21
1.0
 12
10.42990654205607
 22
4.5
 13
0.0
 23
0.0
 14
0.5
 24
0.5
 15
0.5
 25
0.5
 16
0.0
 26
0.0
 36
1.0
 17
0.0
 27
0.0
 37
0.0
 40
9.0
 41
1.972972972850329
 42
50.0
 43
0.0
 44
0.0
 50
0.0
 51
0.0
 71
     0
 72
   100
 73
     1
 74
     3
 75
     0
 76
     0
 77
     0
 78
     0
281
     0
 65
     1
110
0.0
120
0.0
130
0.0
111
1.0
121
0.0
131
0.0
112
0.0
122
1.0
132
0.0
 79
     0
146
0.0
 60
     3
 61
     5
292
     1
282
     1
141
0.0
142
0.0
 63
   250
  0
ENDTAB
  0
TABLE
  2
LTYPE
  5
5
330
0
100
AcDbSymbolTable
 70
     1
  0
LTYPE
  5
14
330
5
100
AcDbSymbolTableRecord
100
AcDbLinetypeTableRecord
  2
ByBlock
 70
     0
  3

 72
    65
 73
     0
 40
0.0
  0
LTYPE
  5
15
330
5
100
AcDbSymbolTableRecord
100
AcDbLinetypeTableRecord
  2
ByLayer
 70
     0
  3

 72
    65
 73
     0
 40
0.0
  0
LTYPE
  5
16
330
5
100
AcDbSymbolTableRecord
100
AcDbLinetypeTableRecord
  2
Continuous
 70
     0
  3
Solid line
 72
    65
 73
     0
 40
0.0
  0
ENDTAB
  0
TABLE
  2
LAYER
  5
2
330
0
100
AcDbSymbolTable
 70
     3
  0
LAYER
  5
10
330
2
100
AcDbSymbolTableRecord
100
AcDbLayerTableRecord
  2
0
 70
     0
 62
     7
  6
Continuous
370
    -3
390
F
347
3E
  0
LAYER
  5
40
330
2
100
AcDbSymbolTableRecord
100
AcDbLayerTableRecord
  2
layer 1
 70
     0
 62
     7
  6
Continuous
370
    -3
390
F
347
3E
  0
LAYER
  5
9D
330
2
100
AcDbSymbolTableRecord
100
AcDbLayerTableRecord
  2
Master Guides
 70
     0
 62
     7
  6
Continuous
370
    -3
390
F
347
3E
  0
ENDTAB
  0
TABLE
  2
STYLE
  5
3
330
0
100
AcDbSymbolTable
 70
     1
  0
STYLE
  5
11
330
3
100
AcDbSymbolTableRecord
100
AcDbTextStyleTableRecord
  2
Standard
 70
     0
 40
0.0
 41
1.0
 50
0.0
 71
     0
 42
0.2
  3
txt
  4

  0
ENDTAB
  0
TABLE
  2
VIEW
  5
6
330
0
100
AcDbSymbolTable
 70
     0
  0
ENDTAB
  0
TABLE
  2
UCS
  5
7
330
0
100
AcDbSymbolTable
 70
     0
  0
ENDTAB
  0
TABLE
  2
APPID
  5
9
330
0
100
AcDbSymbolTable
 70
     2
  0
APPID
  5
12
330
9
100
AcDbSymbolTableRecord
100
AcDbRegAppTableRecord
  2
ACAD
 70
     0
  0
APPID
  5
3F
330
9
100
AcDbSymbolTableRecord
100
AcDbRegAppTableRecord
  2
ODA
 70
     0
  0
ENDTAB
  0
TABLE
  2
DIMSTYLE
  5
A
330
0
100
AcDbSymbolTable
 70
     1
100
AcDbDimStyleTable
  0
DIMSTYLE
105
27
330
A
100
AcDbSymbolTableRecord
100
AcDbDimStyleTableRecord
  2
Standard
 70
     0
178
     0
340
11
  0
ENDTAB
  0
TABLE
  2
BLOCK_RECORD
  5
1
330
0
100
AcDbSymbolTable
 70
     1
  0
BLOCK_RECORD
  5
1F
330
1
100
AcDbSymbolTableRecord
100
AcDbBlockTableRecord
  2
*Model_Space
340
22
 70
     0
280
     1
281
     0
  0
BLOCK_RECORD
  5
1B
330
1
100
AcDbSymbolTableRecord
100
AcDbBlockTableRecord
  2
*Paper_Space
340
1E
 70
     0
280
     1
281
     0
  0
BLOCK_RECORD
  5
23
330
1
100
AcDbSymbolTableRecord
100
AcDbBlockTableRecord
  2
*Paper_Space0
340
26
 70
     0
280
     1
281
     0
  0
ENDTAB
  0
ENDSEC
  0
SECTION
  2
BLOCKS
  0
BLOCK
  5
20
330
1F
100
AcDbEntity
  8
0
100
AcDbBlockBegin
  2
*Model_Space
 70
     0
 10
0.0
 20
0.0
 30
0.0
  3
*Model_Space
  1

  0
ENDBLK
  5
21
330
1F
100
AcDbEntity
  8
0
100
AcDbBlockEnd
  0
BLOCK
  5
1C
330
1B
100
AcDbEntity
 67
     1
  8
0
100
AcDbBlockBegin
  2
*Paper_Space
 70
     0
 10
0.0
 20
0.0
 30
0.0
  3
*Paper_Space
  1

  0
ENDBLK
  5
1D
330
1B
100
AcDbEntity
 67
     1
  8
0
100
AcDbBlockEnd
  0
BLOCK
  5
24
330
23
100
AcDbEntity
  8
0
100
AcDbBlockBegin
  2
*Paper_Space0
 70
     0
 10
0.0
 20
0.0
 30
0.0
  3
*Paper_Space0
  1

  0
ENDBLK
  5
25
330
23
100
AcDbEntity
  8
0
100
AcDbBlockEnd
  0
ENDSEC
  0
SECTION
  2
ENTITIES
  0
SPLINE
  5
41
330
1F
100
AcDbEntity
  8
layer 1
100
AcDbSpline
210
0.0
220
0.0
230
1.0
 70
    11
 71
     3
 72
    20
 73
    16
 74
     0
 42
0.0000000001
 43
0.0000000001
 12
1.0
 22
0.0
 32
0.0
 13
1.0
 23
0.0
 33
0.0
 40
0.0
 40
0.0
 40
0.0
 40
0.0
 40
0.2
 40
0.2
 40
0.2
 40
0.2
 40
0.4
 40
0.4
 40
0.4
 40
0.4
 40
0.6
 40
0.6
 40
0.6
 40
0.6
 40
1.0
 40
1.0
 40
1.0
 40
1.0
 10
78.1689
 20
131.6706
 30
0.0
 10
78.1689
 20
131.6706
 30
0.0
 10
196.4984
 20
131.6706
 30
0.0
 10
196.4984
 20
131.6706
 30
0.0
 10
196.4984
 20
131.6706
 30
0.0
 10
196.4984
 20
131.6706
 30
0.0
 10
196.4984
 20
-114.9153
 30
0.0
 10
196.4984
 20
-114.9153
 30
0.0
 10
196.4984
 20
-114.9153
 30
0.0
 10
196.4984
 20
-114.9153
 30
0.0
 10
78.1689
 20
-114.9153
 30
0.0
 10
78.1689
 20
-114.9153
 30
0.0
 10
78.1689
 20
-114.9153
 30
0.0
 10
78.1689
 20
-114.9153
 30
0.0
 10
78.1689
 20
131.6706
 30
0.0
 10
78.1689
 20
131.6706
 30
0.0
  0
SPLINE
  5
42
330
1F
100
AcDbEntity
  8
layer 1
 62
     7
100
AcDbSpline
210
0.0
220
0.0
230
1.0
 70
    11
 71
     3
 72
    24
 73
    20
 74
     0
 42
0.0000000001
 43
0.0000000001
 12
1.0
 22
0.0
 32
0.0
 13
1.0
 23
0.0
 33
0.0
 40
0.0
 40
0.0
 40
0.0
 40
0.0
 40
0.1666666666666667
 40
0.1666666666666667
 40
0.1666666666666667
 40
0.1666666666666667
 40
0.3333333333333333
 40
0.3333333333333333
 40
0.3333333333333333
 40
0.3333333333333333
 40
0.5
 40
0.5
 40
0.5
 40
0.5
 40
0.6666666666666666
 40
0.6666666666666666
 40
0.6666666666666666
 40
0.6666666666666666
 40
1.0
 40
1.0
 40
1.0
 40
1.0
 10
149.2409
 20
25.2352
 30
0.0
 10
148.2864
 20
24.7194
 30
0.0
 10
147.3687
 20
24.4298
 30
0.0
 10
146.4479
 20
24.4174
 30
0.0
 10
146.4479
 20
24.4174
 30
0.0
 10
145.9983
 20
25.2209
 30
0.0
 10
145.802
 20
26.117
 30
0.0
 10
145.7597
 20
27.245
 30
0.0
 10
145.7597
 20
27.245
 30
0.0
 10
147.3283
 20
28.5533
 30
0.0
 10
148.3228
 20
29.3052
 30
0.0
 10
150.0123
 20
30.5909
 30
0.0
 10
150.0123
 20
30.5909
 30
0.0
 10
149.7435
 20
28.485
 30
0.0
 10
149.5897
 20
27.2477
 30
0.0
 10
149.2409
 20
25.2351
 30
0.0
 10
149.2409
 20
25.2351
 30
0.0
 10
149.2409
 20
25.2351
 30
0.0
 10
149.2409
 20
25.2352
 30
0.0
 10
149.2409
 20
25.2352
 30
0.0
  0
SPLINE
  5
43
330
1F
100
AcDbEntity
  8
layer 1
 62
     7
100
AcDbSpline
210
0.0
220
0.0
230
1.0
 70
    11
 71
     3
 72
    24
 73
    20
 74
     0
 42
0.0000000001
 43
0.0000000001
 12
1.0
 22
0.0
 32
0.0
 13
1.0
 23
0.0
 33
0.0
 40
0.0
 40
0.0
 40
0.0
 40
0.0
 40
0.1666666666666667
 40
0.1666666666666667
 40
0.1666666666666667
 40
0.1666666666666667
 40
0.3333333333333333
 40
0.3333333333333333
 40
0.3333333333333333
 40
0.3333333333333333
 40
0.5
 40
0.5
 40
0.5
 40
0.5
 40
0.6666666666666666
 40
0.6666666666666666
 40
0.6666666666666666
 40
0.6666666666666666
 40
1.0
 40
1.0
 40
1.0
 40
1.0
 10
155.9221
 20
17.0339
 30
0.0
 10
154.8375
 20
17.0645
 30
0.0
 10
153.898
 20
17.2725
 30
0.0
 10
153.0945
 20
17.7221
 30
0.0
 10
153.0945
 20
17.7221
 30
0.0
 10
153.1068
 20
18.6428
 30
0.0
 10
153.3849
 20
19.517
 30
0.0
 10
153.9122
 20
20.5151
 30
0.0
 10
153.9122
 20
20.5151
 30
0.0
 10
155.9247
 20
20.8638
 30
0.0
 10
157.1621
 20
21.0177
 30
0.0
 10
159.2681
 20
21.2865
 30
0.0
 10
159.2681
 20
21.2865
 30
0.0
 10
157.9823
 20
19.597
 30
0.0
 10
157.2304
 20
18.6024
 30
0.0
 10
155.9222
 20
17.0339
 30
0.0
 10
155.9222
 20
17.0339
 30
0.0
 10
155.9222
 20
17.0339
 30
0.0
 10
155.9221
 20
17.0339
 30
0.0
 10
155.9221
 20
17.0339
 30
0.0
  0
SPLINE
  5
44
330
1F
100
AcDbEntity
  8
layer 1
 62
     7
100
AcDbSpline
210
0.0
220
0.0
230
1.0
 70
    11
 71
     3
 72
    24
 73
    20
 74
     0
 42
0.0000000001
 43
0.0000000001
 12
1.0
 22
0.0
 32
0.0
 13
1.0
 23
0.0
 33
0.0
 40
0.0
 40
0.0
 40
0.0
 40
0.0
 40
0.1666666666666667
 40
0.1666666666666667
 40
0.1666666666666667
 40
0.1666666666666667
 40
0.3333333333333333
 40
0.3333333333333333
 40
0.3333333333333333
 40
0.3333333333333333
 40
0.5
 40
0.5
 40
0.5
 40
0.5
 40
0.6666666666666666
 40
0.6666666666666666
 40
0.6666666666666666
 40
0.6666666666666666
 40
1.0
 40
1.0
 40
1.0
 40
1.0
 10
125.4061
 20
25.2352
 30
0.0
 10
126.3606
 20
24.7194
 30
0.0
 10
127.2782
 20
24.4298
 30
0.0
 10
128.199
 20
24.4174
 30
0.0
 10
128.199
 20
24.4174
 30
0.0
 10
128.6487
 20
25.2209
 30
0.0
 10
128.845
 20
26.117
 30
0.0
 10
128.8873
 20
27.245
 30
0.0
 10
128.8873
 20
27.245
 30
0.0
 10
127.3187
 20
28.5533
 30
0.0
 10
126.3241
 20
29.3052
 30
0.0
 10
124.6346
 20
30.5909
 30
0.0
 10
124.6346
 20
30.5909
 30
0.0
 10
124.9035
 20
28.485
 30
0.0
 10
125.0573
 20
27.2477
 30
0.0
 10
125.4061
 20
25.2351
 30
0.0
 10
125.4061
 20
25.2351
 30
0.0
 10
125.4061
 20
25.2351
 30
0.0
 10
125.4061
 20
25.2352
 30
0.0
 10
125.4061
 20
25.2352
 30
0.0
  0
SPLINE
  5
45
330
1F
100
AcDbEntity
  8
layer 1
 62
     7
100
AcDbSpline
210
0.0
220
0.0
230
1.0
 70
    11
 71
     3
 72
    24
 73
    20
 74
     0
 42
0.0000000001
 43
0.0000000001
 12
1.0
 22
0.0
 32
0.0
 13
1.0
 23
0.0
 33
0.0
 40
0.0
 40
0.0
 40
0.0
 40
0.0
 40
0.1666666666666667
 40
0.1666666666666667
 40
0.1666666666666667
 40
0.1666666666666667
 40
0.3333333333333333
 40
0.3333333333333333
 40
0.3333333333333333
 40
0.3333333333333333
 40
0.5
 40
0.5
 40
0.5
 40
0.5
 40
0.6666666666666666
 40
0.6666666666666666
 40
0.6666666666666666
 40
0.6666666666666666
 40
1.0
 40
1.0
 40
1.0
 40
1.0
 10
118.725
 20
17.0339
 30
0.0
 10
119.8095
 20
17.0645
 30
0.0
 10
120.7491
 20
17.2725
 30
0.0
 10
121.5526
 20
17.7221
 30
0.0
 10
121.5526
 20
17.7221
 30
0.0
 10
121.5402
 20
18.6428
 30
0.0
 10
121.2622
 20
19.517
 30
0.0
 10
120.7348
 20
20.5151
 30
0.0
 10
120.7348
 20
20.5151
 30
0.0
 10
118.7223
 20
20.8638
 30
0.0
 10
117.485
 20
21.0177
 30
0.0
 10
115.379
 20
21.2865
 30
0.0
 10
115.379
 20
21.2865
 30
0.0
 10
116.6648
 20
19.597
 30
0.0
 10
117.4167
 20
18.6024
 30
0.0
 10
118.7249
 20
17.0339
 30
0.0
 10
118.7249
 20
17.0339
 30
0.0
 10
118.7249
 20
17.0339
 30
0.0
 10
118.725
 20
17.0339
 30
0.0
 10
118.725
 20
17.0339
 30
0.0
  0
SPLINE
  5
46
330
1F
100
AcDbEntity
  8
layer 1
 62
     7
100
AcDbSpline
210
0.0
220
0.0
230
1.0
 70
    11
 71
     3
 72
   100
 73
    96
 74
     0
 42
0.0000000001
 43
0.0000000001
 12
1.0
 22
0.0
 32
0.0
 13
1.0
 23
0.0
 33
0.0
 40
0.0
 40
0.0
 40
0.0
 40
0.0
 40
0.04
 40
0.04
 40
0.04
 40
0.04
 40
0.08
 40
0.08
 40
0.08
 40
0.08
 40
0.12
 40
0.12
 40
0.12
 40
0.12
 40
0.16
 40
0.16
 40
0.16
 40
0.16
 40
0.2
 40
0.2
 40
0.2
 40
0.2
 40
0.24
 40
0.24
 40
0.24
 40
0.24
 40
0.28
 40
0.28
 40
0.28
 40
0.28
 40
0.32
 40
0.32
 40
0.32
 40
0.32
 40
0.36
 40
0.36
 40
0.36
 40
0.36
 40
0.4
 40
0.4
 40
0.4
 40
0.4
 40
0.44
 40
0.44
 40
0.44
 40
0.44
 40
0.48
 40
0.48
 40
0.48
 40
0.48
 40
0.52
 40
0.52
 40
0.52
 40
0.52
 40
0.56
 40
0.56
 40
0.56
 40
0.56
 40
0.6
 40
0.6
 40
0.6
 40
0.6
 40
0.64
 40
0.64
 40
0.64
 40
0.64
 40
0.68
 40
0.68
 40
0.68
 40
0.68
 40
0.72
 40
0.72
 40
0.72
 40
0.72
 40
0.76
 40
0.76
 40
0.76
 40
0.76
 40
0.8
 40
0.8
 40
0.8
 40
0.8
 40
0.84
 40
0.84
 40
0.84
 40
0.84
 40
0.88
 40
0.88
 40
0.88
 40
0.88
 40
0.92
 40
0.92
 40
0.92
 40
0.92
 40
1.0
 40
1.0
 40
1.0
 40
1.0
 10
144.9364
 20
0.6807
 30
0.0
 10
144.9364
 20
0.6807
 30
0.0
 10
141.1604
 20
1.6506
 30
0.0
 10
141.1604
 20
1.6506
 30
0.0
 10
141.1604
 20
1.6506
 30
0.0
 10
141.1604
 20
1.6506
 30
0.0
 10
140.0458
 20
-2.0853
 30
0.0
 10
140.0458
 20
-2.0853
 30
0.0
 10
140.0458
 20
-2.0853
 30
0.0
 10
140.0458
 20
-2.0853
 30
0.0
 10
137.2606
 20
0.6427
 30
0.0
 10
137.2606
 20
0.6427
 30
0.0
 10
137.2606
 20
0.6427
 30
0.0
 10
137.2606
 20
0.6427
 30
0.0
 10
134.4274
 20
-2.0354
 30
0.0
 10
134.4274
 20
-2.0354
 30
0.0
 10
134.4274
 20
-2.0354
 30
0.0
 10
134.4274
 20
-2.0354
 30
0.0
 10
133.3794
 20
1.7197
 30
0.0
 10
133.3794
 20
1.7197
 30
0.0
 10
133.3794
 20
1.7197
 30
0.0
 10
133.3794
 20
1.7197
 30
0.0
 10
129.5867
 20
0.817
 30
0.0
 10
129.5867
 20
0.817
 30
0.0
 10
129.5867
 20
0.817
 30
0.0
 10
129.5867
 20
0.817
 30
0.0
 10
130.5567
 20
4.5931
 30
0.0
 10
130.5567
 20
4.5931
 30
0.0
 10
130.5567
 20
4.5931
 30
0.0
 10
130.5567
 20
4.5931
 30
0.0
 10
126.8207
 20
5.7076
 30
0.0
 10
126.8207
 20
5.7076
 30
0.0
 10
126.8207
 20
5.7076
 30
0.0
 10
126.8207
 20
5.7076
 30
0.0
 10
129.5488
 20
8.4928
 30
0.0
 10
129.5488
 20
8.4928
 30
0.0
 10
129.5488
 20
8.4928
 30
0.0
 10
129.5488
 20
8.4928
 30
0.0
 10
126.8706
 20
11.326
 30
0.0
 10
126.8706
 20
11.326
 30
0.0
 10
126.8706
 20
11.326
 30
0.0
 10
126.8706
 20
11.326
 30
0.0
 10
130.6258
 20
12.374
 30
0.0
 10
130.6258
 20
12.374
 30
0.0
 10
130.6258
 20
12.374
 30
0.0
 10
130.6258
 20
12.374
 30
0.0
 10
129.7231
 20
16.1668
 30
0.0
 10
129.7231
 20
16.1668
 30
0.0
 10
129.7231
 20
16.1668
 30
0.0
 10
129.7231
 20
16.1668
 30
0.0
 10
133.4991
 20
15.1968
 30
0.0
 10
133.4991
 20
15.1968
 30
0.0
 10
133.4991
 20
15.1968
 30
0.0
 10
133.4991
 20
15.1968
 30
0.0
 10
134.6137
 20
18.9328
 30
0.0
 10
134.6137
 20
18.9328
 30
0.0
 10
134.6137
 20
18.9328
 30
0.0
 10
134.6137
 20
18.9328
 30
0.0
 10
137.3988
 20
16.2048
 30
0.0
 10
137.3988
 20
16.2048
 30
0.0
 10
137.3988
 20
16.2048
 30
0.0
 10
137.3988
 20
16.2048
 30
0.0
 10
140.2321
 20
18.8829
 30
0.0
 10
140.2321
 20
18.8829
 30
0.0
 10
140.2321
 20
18.8829
 30
0.0
 10
140.2321
 20
18.8829
 30
0.0
 10
141.2801
 20
15.1277
 30
0.0
 10
141.2801
 20
15.1277
 30
0.0
 10
141.2801
 20
15.1277
 30
0.0
 10
141.2801
 20
15.1277
 30
0.0
 10
145.0728
 20
16.0305
 30
0.0
 10
145.0728
 20
16.0305
 30
0.0
 10
145.0728
 20
16.0305
 30
0.0
 10
145.0728
 20
16.0305
 30
0.0
 10
144.1029
 20
12.2544
 30
0.0
 10
144.1029
 20
12.2544
 30
0.0
 10
144.1029
 20
12.2544
 30
0.0
 10
144.1029
 20
12.2544
 30
0.0
 10
147.8388
 20
11.1399
 30
0.0
 10
147.8388
 20
11.1399
 30
0.0
 10
147.8388
 20
11.1399
 30
0.0
 10
147.8388
 20
11.1399
 30
0.0
 10
145.1108
 20
8.3547
 30
0.0
 10
145.1108
 20
8.3547
 30
0.0
 10
145.1108
 20
8.3547
 30
0.0
 10
145.1108
 20
8.3547
 30
0.0
 10
147.789
 20
5.5215
 30
0.0
 10
147.789
 20
5.5215
 30
0.0
 10
147.789
 20
5.5215
 30
0.0
 10
147.789
 20
5.5215
 30
0.0
 10
144.0338
 20
4.4734
 30
0.0
 10
144.0338
 20
4.4734
 30
0.0
 10
144.0338
 20
4.4734
 30
0.0
 10
144.0338
 20
4.4734
 30
0.0
 10
144.9364
 20
0.6807
 30
0.0
 10
144.9364
 20
0.6807
 30
0.0
  0
SPLINE
  5
47
330
1F
100
AcDbEntity
  8
layer 1
 62
     7
100
AcDbSpline
210
0.0
220
0.0
230
1.0
 70
    11
 71
     3
 72
    20
 73
    16
 74
     0
 42
0.0000000001
 43
0.0000000001
 12
1.0
 22
0.0
 32
0.0
 13
1.0
 23
0.0
 33
0.0
 40
0.0
 40
0.0
 40
0.0
 40
0.0
 40
0.2
 40
0.2
 40
0.2
 40
0.2
 40
0.4
 40
0.4
 40
0.4
 40
0.4
 40
0.6
 40
0.6
 40
0.6
 40
0.6
 40
1.0
 40
1.0
 40
1.0
 40
1.0
 10
126.8222
 20
46.9502
 30
0.0
 10
128.1281
 20
48.8492
 30
0.0
 10
129.7827
 20
51.0072
 30
0.0
 10
131.3674
 20
52.7581
 30
0.0
 10
131.3674
 20
52.7581
 30
0.0
 10
128.8539
 20
54.5389
 30
0.0
 10
127.1438
 20
55.4909
 30
0.0
 10
124.2957
 20
57.1129
 30
0.0
 10
124.2957
 20
57.1129
 30
0.0
 10
123.0595
 20
55.2184
 30
0.0
 10
121.2308
 20
51.618
 30
0.0
 10
120.2874
 20
49.9465
 30
0.0
 10
120.2874
 20
49.9465
 30
0.0
 10
122.7762
 20
48.7079
 30
0.0
 10
124.6342
 20
48.1051
 30
0.0
 10
126.8222
 20
46.9502
 30
0.0
  0
SPLINE
  5
48
330
1F
100
AcDbEntity
  8
layer 1
 62
     7
100
AcDbSpline
210
0.0
220
0.0
230
1.0
 70
    11
 71
     3
 72
    20
 73
    16
 74
     0
 42
0.0000000001
 43
0.0000000001
 12
1.0
 22
0.0
 32
0.0
 13
1.0
 23
0.0
 33
0.0
 40
0.0
 40
0.0
 40
0.0
 40
0.0
 40
0.2
 40
0.2
 40
0.2
 40
0.2
 40
0.4
 40
0.4
 40
0.4
 40
0.4
 40
0.6
 40
0.6
 40
0.6
 40
0.6
 40
1.0
 40
1.0
 40
1.0
 40
1.0
 10
98.8328
 20
18.7149
 30
0.0
 10
97.8411
 20
20.7953
 30
0.0
 10
96.7995
 20
23.3073
 30
0.0
 10
96.0756
 20
25.5551
 30
0.0
 10
96.0756
 20
25.5551
 30
0.0
 10
93.2767
 20
24.2687
 30
0.0
 10
91.5971
 20
23.2639
 30
0.0
 10
88.7683
 20
21.6083
 30
0.0
 10
88.7683
 20
21.6083
 30
0.0
 10
89.7908
 20
19.5905
 30
0.0
 10
91.9945
 20
16.2066
 30
0.0
 10
92.9704
 20
14.5538
 30
0.0
 10
92.9704
 20
14.5538
 30
0.0
 10
95.2875
 20
16.09
 30
0.0
 10
96.7385
 20
17.3975
 30
0.0
 10
98.8328
 20
18.7149
 30
0.0
  0
SPLINE
  5
49
330
1F
100
AcDbEntity
  8
layer 1
 62
     7
100
AcDbSpline
210
0.0
220
0.0
230
1.0
 70
    11
 71
     3
 72
    24
 73
    20
 74
     0
 42
0.0000000001
 43
0.0000000001
 12
1.0
 22
0.0
 32
0.0
 13
1.0
 23
0.0
 33
0.0
 40
0.0
 40
0.0
 40
0.0
 40
0.0
 40
0.1666666666666667
 40
0.1666666666666667
 40
0.1666666666666667
 40
0.1666666666666667
 40
0.3333333333333333
 40
0.3333333333333333
 40
0.3333333333333333
 40
0.3333333333333333
 40
0.5
 40
0.5
 40
0.5
 40
0.5
 40
0.6666666666666666
 40
0.6666666666666666
 40
0.6666666666666666
 40
0.6666666666666666
 40
1.0
 40
1.0
 40
1.0
 40
1.0
 10
117.3125
 20
36.8862
 30
0.0
 10
117.4438
 20
38.281
 30
0.0
 10
117.8642
 20
40.1386
 30
0.0
 10
118.1134
 20
41.8717
 30
0.0
 10
118.1134
 20
41.8717
 30
0.0
 10
119.739
 20
41.221
 30
0.0
 10
121.5579
 20
40.6563
 30
0.0
 10
122.8315
 20
40.0726
 30
0.0
 10
122.8315
 20
40.0726
 30
0.0
 10
122.4776
 20
38.8861
 30
0.0
 10
121.3012
 20
36.521
 30
0.0
 10
121.1991
 20
36.527
 30
0.0
 10
121.1991
 20
36.527
 30
0.0
 10
121.1534
 20
36.4356
 30
0.0
 10
118.5168
 20
36.5994
 30
0.0
 10
117.3124
 20
36.8862
 30
0.0
 10
117.3124
 20
36.8862
 30
0.0
 10
117.3124
 20
36.8862
 30
0.0
 10
117.3125
 20
36.8862
 30
0.0
 10
117.3125
 20
36.8862
 30
0.0
  0
SPLINE
  5
4A
330
1F
100
AcDbEntity
  8
layer 1
 62
     7
100
AcDbSpline
210
0.0
220
0.0
230
1.0
 70
    11
 71
     3
 72
    24
 73
    20
 74
     0
 42
0.0000000001
 43
0.0000000001
 12
1.0
 22
0.0
 32
0.0
 13
1.0
 23
0.0
 33
0.0
 40
0.0
 40
0.0
 40
0.0
 40
0.0
 40
0.1666666666666667
 40
0.1666666666666667
 40
0.1666666666666667
 40
0.1666666666666667
 40
0.3333333333333333
 40
0.3333333333333333
 40
0.3333333333333333
 40
0.3333333333333333
 40
0.5
 40
0.5
 40
0.5
 40
0.5
 40
0.6666666666666666
 40
0.6666666666666666
 40
0.6666666666666666
 40
0.6666666666666666
 40
1.0
 40
1.0
 40
1.0
 40
1.0
 10
105.8481
 20
23.0724
 30
0.0
 10
105.2645
 20
24.346
 30
0.0
 10
104.6997
 20
26.1649
 30
0.0
 10
104.049
 20
27.7904
 30
0.0
 10
104.049
 20
27.7904
 30
0.0
 10
105.7821
 20
28.0398
 30
0.0
 10
107.6398
 20
28.4602
 30
0.0
 10
109.0345
 20
28.5914
 30
0.0
 10
109.0345
 20
28.5914
 30
0.0
 10
109.3213
 20
27.387
 30
0.0
 10
109.4851
 20
24.7504
 30
0.0
 10
109.3937
 20
24.7046
 30
0.0
 10
109.3937
 20
24.7046
 30
0.0
 10
109.3997
 20
24.6026
 30
0.0
 10
107.0346
 20
23.4262
 30
0.0
 10
105.8481
 20
23.0723
 30
0.0
 10
105.8481
 20
23.0723
 30
0.0
 10
105.8481
 20
23.0723
 30
0.0
 10
105.8481
 20
23.0724
 30
0.0
 10
105.8481
 20
23.0724
 30
0.0
  0
SPLINE
  5
4B
330
1F
100
AcDbEntity
  8
layer 1
 62
     7
100
AcDbSpline
210
0.0
220
0.0
230
1.0
 70
    11
 71
     3
 72
    20
 73
    16
 74
     0
 42
0.0000000001
 43
0.0000000001
 12
1.0
 22
0.0
 32
0.0
 13
1.0
 23
0.0
 33
0.0
 40
0.0
 40
0.0
 40
0.0
 40
0.0
 40
0.2
 40
0.2
 40
0.2
 40
0.2
 40
0.4
 40
0.4
 40
0.4
 40
0.4
 40
0.6
 40
0.6
 40
0.6
 40
0.6
 40
1.0
 40
1.0
 40
1.0
 40
1.0
 10
102.7976
 20
11.7873
 30
0.0
 10
102.6468
 20
12.004
 30
0.0
 10
99.4941
 20
9.183
 30
0.0
 10
98.7068
 20
8.3777
 30
0.0
 10
98.7068
 20
8.3777
 30
0.0
 10
99.4941
 20
7.5725
 30
0.0
 10
102.6468
 20
4.7513
 30
0.0
 10
102.7976
 20
4.9682
 30
0.0
 10
102.7976
 20
4.9682
 30
0.0
 10
103.5549
 20
6.0569
 30
0.0
 10
104.4499
 20
7.1581
 30
0.0
 10
105.4177
 20
8.3777
 30
0.0
 10
105.4177
 20
8.3777
 30
0.0
 10
104.45
 20
9.5974
 30
0.0
 10
103.5549
 20
10.6986
 30
0.0
 10
102.7976
 20
11.7873
 30
0.0
  0
SPLINE
  5
4C
330
1F
100
AcDbEntity
  8
layer 1
 62
     7
100
AcDbSpline
210
0.0
220
0.0
230
1.0
 70
    11
 71
     3
 72
    20
 73
    16
 74
     0
 42
0.0000000001
 43
0.0000000001
 12
1.0
 22
0.0
 32
0.0
 13
1.0
 23
0.0
 33
0.0
 40
0.0
 40
0.0
 40
0.0
 40
0.0
 40
0.2
 40
0.2
 40
0.2
 40
0.2
 40
0.4
 40
0.4
 40
0.4
 40
0.4
 40
0.6
 40
0.6
 40
0.6
 40
0.6
 40
1.0
 40
1.0
 40
1.0
 40
1.0
 10
135.3237
 20
28.8373
 30
0.0
 10
135.8925
 20
27.9133
 30
0.0
 10
136.5424
 20
27.2037
 30
0.0
 10
137.3335
 20
26.7326
 30
0.0
 10
137.3335
 20
26.7326
 30
0.0
 10
138.1247
 20
27.2036
 30
0.0
 10
138.7428
 20
27.8815
 30
0.0
 10
139.3434
 20
28.8373
 30
0.0
 10
139.3434
 20
28.8373
 30
0.0
 10
138.6391
 20
30.7545
 30
0.0
 10
138.1537
 20
31.9029
 30
0.0
 10
137.3335
 20
33.8612
 30
0.0
 10
137.3335
 20
33.8612
 30
0.0
 10
136.5133
 20
31.9029
 30
0.0
 10
136.0279
 20
30.7545
 30
0.0
 10
135.3237
 20
28.8373
 30
0.0
  0
SPLINE
  5
4D
330
1F
100
AcDbEntity
  8
layer 1
 62
     7
100
AcDbSpline
210
0.0
220
0.0
230
1.0
 70
    11
 71
     3
 72
    20
 73
    16
 74
     0
 42
0.0000000001
 43
0.0000000001
 12
1.0
 22
0.0
 32
0.0
 13
1.0
 23
0.0
 33
0.0
 40
0.0
 40
0.0
 40
0.0
 40
0.0
 40
0.2
 40
0.2
 40
0.2
 40
0.2
 40
0.4
 40
0.4
 40
0.4
 40
0.4
 40
0.6
 40
0.6
 40
0.6
 40
0.6
 40
1.0
 40
1.0
 40
1.0
 40
1.0
 10
94.0198
 20
33.6469
 30
0.0
 10
93.7566
 20
36.8846
 30
0.0
 10
93.5886
 20
39.6351
 30
0.0
 10
93.5406
 20
42.9345
 30
0.0
 10
93.5406
 20
42.9345
 30
0.0
 10
91.022
 20
42.1472
 30
0.0
 10
88.1152
 20
41.2491
 30
0.0
 10
85.4911
 20
41.016
 30
0.0
 10
85.4911
 20
41.016
 30
0.0
 10
85.4911
 20
41.016
 30
0.0
 10
85.4911
 20
29.5435
 30
0.0
 10
85.4911
 20
29.5435
 30
0.0
 10
85.4911
 20
29.5435
 30
0.0
 10
87.6714
 20
30.8983
 30
0.0
 10
92.0907
 20
32.7184
 30
0.0
 10
94.0198
 20
33.6469
 30
0.0
  0
SPLINE
  5
4E
330
1F
100
AcDbEntity
  8
layer 1
 62
     7
100
AcDbSpline
210
0.0
220
0.0
230
1.0
 70
    11
 71
     3
 72
    24
 73
    20
 74
     0
 42
0.0000000001
 43
0.0000000001
 12
1.0
 22
0.0
 32
0.0
 13
1.0
 23
0.0
 33
0.0
 40
0.0
 40
0.0
 40
0.0
 40
0.0
 40
0.1666666666666667
 40
0.1666666666666667
 40
0.1666666666666667
 40
0.1666666666666667
 40
0.3333333333333333
 40
0.3333333333333333
 40
0.3333333333333333
 40
0.3333333333333333
 40
0.5
 40
0.5
 40
0.5
 40
0.5
 40
0.6666666666666666
 40
0.6666666666666666
 40
0.6666666666666666
 40
0.6666666666666666
 40
1.0
 40
1.0
 40
1.0
 40
1.0
 10
108.9873
 20
36.7153
 30
0.0
 10
109.1688
 20
39.0128
 30
0.0
 10
109.5227
 20
41.7091
 30
0.0
 10
110.0198
 20
44.0177
 30
0.0
 10
110.0198
 20
44.0177
 30
0.0
 10
106.9525
 20
44.3031
 30
0.0
 10
104.9956
 20
44.2726
 30
0.0
 10
101.718
 20
44.2532
 30
0.0
 10
101.718
 20
44.2532
 30
0.0
 10
101.5946
 20
41.9944
 30
0.0
 10
101.8112
 20
37.9621
 30
0.0
 10
101.8299
 20
36.0427
 30
0.0
 10
101.8299
 20
36.0427
 30
0.0
 10
104.6047
 20
36.2145
 30
0.0
 10
106.5151
 20
36.6214
 30
0.0
 10
108.9873
 20
36.7152
 30
0.0
 10
108.9873
 20
36.7152
 30
0.0
 10
108.9873
 20
36.7152
 30
0.0
 10
108.9873
 20
36.7153
 30
0.0
 10
108.9873
 20
36.7153
 30
0.0
  0
SPLINE
  5
4F
330
1F
100
AcDbEntity
  8
layer 1
 62
     7
100
AcDbSpline
210
0.0
220
0.0
230
1.0
 70
    11
 71
     3
 72
    20
 73
    16
 74
     0
 42
0.0000000001
 43
0.0000000001
 12
1.0
 22
0.0
 32
0.0
 13
1.0
 23
0.0
 33
0.0
 40
0.0
 40
0.0
 40
0.0
 40
0.0
 40
0.2
 40
0.2
 40
0.2
 40
0.2
 40
0.4
 40
0.4
 40
0.4
 40
0.4
 40
0.6
 40
0.6
 40
0.6
 40
0.6
 40
1.0
 40
1.0
 40
1.0
 40
1.0
 10
134.1725
 20
43.1668
 30
0.0
 10
134.9836
 20
44.309
 30
0.0
 10
136.2765
 20
45.7076
 30
0.0
 10
137.3336
 20
47.0838
 30
0.0
 10
137.3336
 20
47.0838
 30
0.0
 10
138.3907
 20
45.7076
 30
0.0
 10
139.6837
 20
44.309
 30
0.0
 10
140.4948
 20
43.1668
 30
0.0
 10
140.4948
 20
43.1668
 30
0.0
 10
139.5951
 20
42.3162
 30
0.0
 10
137.3938
 20
40.8561
 30
0.0
 10
137.3336
 20
40.9123
 30
0.0
 10
137.3336
 20
40.9123
 30
0.0
 10
137.2736
 20
40.8561
 30
0.0
 10
135.0722
 20
42.3162
 30
0.0
 10
134.1725
 20
43.1668
 30
0.0
  0
SPLINE
  5
50
330
1F
100
AcDbEntity
  8
layer 1
 62
     7
100
AcDbSpline
210
0.0
220
0.0
230
1.0
 70
    11
 71
     3
 72
    20
 73
    16
 74
     0
 42
0.0000000001
 43
0.0000000001
 12
1.0
 22
0.0
 32
0.0
 13
1.0
 23
0.0
 33
0.0
 40
0.0
 40
0.0
 40
0.0
 40
0.0
 40
0.2
 40
0.2
 40
0.2
 40
0.2
 40
0.4
 40
0.4
 40
0.4
 40
0.4
 40
0.6
 40
0.6
 40
0.6
 40
0.6
 40
1.0
 40
1.0
 40
1.0
 40
1.0
 10
94.2733
 20
51.5018
 30
0.0
 10
94.9384
 20
54.7971
 30
0.0
 10
95.2564
 20
57.8664
 30
0.0
 10
96.3998
 20
61.3085
 30
0.0
 10
96.3998
 20
61.3085
 30
0.0
 10
93.5686
 20
60.9517
 30
0.0
 10
89.2103
 20
60.1945
 30
0.0
 10
85.4911
 20
59.2788
 30
0.0
 10
85.4911
 20
59.2788
 30
0.0
 10
85.4911
 20
56.0926
 30
0.0
 10
85.4911
 20
52.6846
 30
0.0
 10
85.4911
 20
49.2194
 30
0.0
 10
85.4911
 20
49.2194
 30
0.0
 10
88.7147
 20
50.1866
 30
0.0
 10
91.2827
 20
50.9382
 30
0.0
 10
94.2733
 20
51.5018
 30
0.0
  0
SPLINE
  5
51
330
1F
100
AcDbEntity
  8
layer 1
 62
     7
100
AcDbSpline
210
0.0
220
0.0
230
1.0
 70
    11
 71
     3
 72
    24
 73
    20
 74
     0
 42
0.0000000001
 43
0.0000000001
 12
1.0
 22
0.0
 32
0.0
 13
1.0
 23
0.0
 33
0.0
 40
0.0
 40
0.0
 40
0.0
 40
0.0
 40
0.1666666666666667
 40
0.1666666666666667
 40
0.1666666666666667
 40
0.1666666666666667
 40
0.3333333333333333
 40
0.3333333333333333
 40
0.3333333333333333
 40
0.3333333333333333
 40
0.5
 40
0.5
 40
0.5
 40
0.5
 40
0.6666666666666666
 40
0.6666666666666666
 40
0.6666666666666666
 40
0.6666666666666666
 40
1.0
 40
1.0
 40
1.0
 40
1.0
 10
112.4529
 20
51.7649
 30
0.0
 10
112.638
 20
53.4144
 30
0.0
 10
115.439
 20
58.8911
 30
0.0
 10
116.457
 20
60.1867
 30
0.0
 10
116.457
 20
60.1867
 30
0.0
 10
114.1545
 20
61.2221
 30
0.0
 10
108.152
 20
61.9321
 30
0.0
 10
106.4556
 20
61.9352
 30
0.0
 10
106.4556
 20
61.9352
 30
0.0
 10
104.9398
 20
59.0168
 30
0.0
 10
103.554
 20
55.03
 30
0.0
 10
102.9758
 20
52.4035
 30
0.0
 10
102.9758
 20
52.4035
 30
0.0
 10
105.4155
 20
52.473
 30
0.0
 10
109.0055
 20
52.2673
 30
0.0
 10
112.4528
 20
51.7649
 30
0.0
 10
112.4528
 20
51.7649
 30
0.0
 10
112.4528
 20
51.7649
 30
0.0
 10
112.4529
 20
51.7649
 30
0.0
 10
112.4529
 20
51.7649
 30
0.0
  0
SPLINE
  5
52
330
1F
100
AcDbEntity
  8
layer 1
 62
     7
100
AcDbSpline
210
0.0
220
0.0
230
1.0
 70
    11
 71
     3
 72
    20
 73
    16
 74
     0
 42
0.0000000001
 43
0.0000000001
 12
1.0
 22
0.0
 32
0.0
 13
1.0
 23
0.0
 33
0.0
 40
0.0
 40
0.0
 40
0.0
 40
0.0
 40
0.2
 40
0.2
 40
0.2
 40
0.2
 40
0.4
 40
0.4
 40
0.4
 40
0.4
 40
0.6
 40
0.6
 40
0.6
 40
0.6
 40
1.0
 40
1.0
 40
1.0
 40
1.0
 10
129.1344
 20
75.4355
 30
0.0
 10
130.1025
 20
77.078
 30
0.0
 10
130.6465
 20
83.4705
 30
0.0
 10
127.6872
 20
86.6514
 30
0.0
 10
127.6872
 20
86.6514
 30
0.0
 10
123.8219
 20
83.7953
 30
0.0
 10
114.9211
 20
74.4955
 30
0.0
 10
112.4014
 20
70.4273
 30
0.0
 10
112.4014
 20
70.4273
 30
0.0
 10
115.3992
 20
69.3316
 30
0.0
 10
118.2054
 20
68.5057
 30
0.0
 10
121.3816
 20
67.2249
 30
0.0
 10
121.3816
 20
67.2249
 30
0.0
 10
122.7903
 20
68.5728
 30
0.0
 10
127.9567
 20
73.4762
 30
0.0
 10
129.1344
 20
75.4355
 30
0.0
  0
SPLINE
  5
53
330
1F
100
AcDbEntity
  8
layer 1
 62
     7
100
AcDbSpline
210
0.0
220
0.0
230
1.0
 70
    11
 71
     3
 72
    20
 73
    16
 74
     0
 42
0.0000000001
 43
0.0000000001
 12
1.0
 22
0.0
 32
0.0
 13
1.0
 23
0.0
 33
0.0
 40
0.0
 40
0.0
 40
0.0
 40
0.0
 40
0.2
 40
0.2
 40
0.2
 40
0.2
 40
0.4
 40
0.4
 40
0.4
 40
0.4
 40
0.6
 40
0.6
 40
0.6
 40
0.6
 40
1.0
 40
1.0
 40
1.0
 40
1.0
 10
102.8009
 20
79.0661
 30
0.0
 10
100.6174
 20
79.3678
 30
0.0
 10
98.165
 20
79.6287
 30
0.0
 10
95.9095
 20
80.3077
 30
0.0
 10
95.9095
 20
80.3077
 30
0.0
 10
95.3276
 20
78.2068
 30
0.0
 10
94.6156
 20
75.837
 30
0.0
 10
93.767
 20
73.842
 30
0.0
 10
93.767
 20
73.842
 30
0.0
 10
96.128
 20
73.6866
 30
0.0
 10
97.7193
 20
73.3863
 30
0.0
 10
100.1768
 20
73.0697
 30
0.0
 10
100.1768
 20
73.0697
 30
0.0
 10
100.8029
 20
74.5625
 30
0.0
 10
101.9839
 20
77.6298
 30
0.0
 10
102.8009
 20
79.0661
 30
0.0
  0
SPLINE
  5
54
330
1F
100
AcDbEntity
  8
layer 1
 62
     7
100
AcDbSpline
210
0.0
220
0.0
230
1.0
 70
    11
 71
     3
 72
    16
 73
    12
 74
     0
 42
0.0000000001
 43
0.0000000001
 12
1.0
 22
0.0
 32
0.0
 13
1.0
 23
0.0
 33
0.0
 40
0.0
 40
0.0
 40
0.0
 40
0.0
 40
0.25
 40
0.25
 40
0.25
 40
0.25
 40
0.5
 40
0.5
 40
0.5
 40
0.5
 40
1.0
 40
1.0
 40
1.0
 40
1.0
 10
88.1776
 20
83.7069
 30
0.0
 10
87.5866
 20
84.0058
 30
0.0
 10
86.498
 20
84.7984
 30
0.0
 10
85.4911
 20
85.2669
 30
0.0
 10
85.4911
 20
85.2669
 30
0.0
 10
85.4911
 20
85.2669
 30
0.0
 10
85.4911
 20
76.4557
 30
0.0
 10
85.4911
 20
76.4557
 30
0.0
 10
85.4911
 20
76.4557
 30
0.0
 10
86.3455
 20
77.5679
 30
0.0
 10
87.6426
 20
80.5593
 30
0.0
 10
88.1776
 20
83.7069
 30
0.0
  0
SPLINE
  5
55
330
1F
100
AcDbEntity
  8
layer 1
 62
     7
100
AcDbSpline
210
0.0
220
0.0
230
1.0
 70
    11
 71
     3
 72
    28
 73
    24
 74
     0
 42
0.0000000001
 43
0.0000000001
 12
1.0
 22
0.0
 32
0.0
 13
1.0
 23
0.0
 33
0.0
 40
0.0
 40
0.0
 40
0.0
 40
0.0
 40
0.1428571428571428
 40
0.1428571428571428
 40
0.1428571428571428
 40
0.1428571428571428
 40
0.2857142857142857
 40
0.2857142857142857
 40
0.2857142857142857
 40
0.2857142857142857
 40
0.4285714285714285
 40
0.4285714285714285
 40
0.4285714285714285
 40
0.4285714285714285
 40
0.5714285714285714
 40
0.5714285714285714
 40
0.5714285714285714
 40
0.5714285714285714
 40
0.7142857142857143
 40
0.7142857142857143
 40
0.7142857142857143
 40
0.7142857142857143
 40
1.0
 40
1.0
 40
1.0
 40
1.0
 10
106.1305
 20
87.1269
 30
0.0
 10
100.3969
 20
91.7571
 30
0.0
 10
100.9752
 20
100.3284
 30
0.0
 10
107.5349
 20
103.4935
 30
0.0
 10
107.5349
 20
103.4935
 30
0.0
 10
107.299
 20
105.653
 30
0.0
 10
107.2974
 20
108.9507
 30
0.0
 10
107.7288
 20
111.1575
 30
0.0
 10
107.7288
 20
111.1575
 30
0.0
 10
103.3914
 20
105.6695
 30
0.0
 10
98.7129
 20
104.0218
 30
0.0
 10
93.3779
 20
103.6008
 30
0.0
 10
93.3779
 20
103.6008
 30
0.0
 10
95.5246
 20
99.4102
 30
0.0
 10
97.1091
 20
92.813
 30
0.0
 10
96.8119
 20
88.5984
 30
0.0
 10
96.8119
 20
88.5984
 30
0.0
 10
100.6269
 20
87.4463
 30
0.0
 10
102.3052
 20
87.4137
 30
0.0
 10
106.1304
 20
87.1269
 30
0.0
 10
106.1304
 20
87.1269
 30
0.0
 10
106.1304
 20
87.1269
 30
0.0
 10
106.1305
 20
87.1269
 30
0.0
 10
106.1305
 20
87.1269
 30
0.0
  0
SPLINE
  5
56
330
1F
100
AcDbEntity
  8
layer 1
 62
     7
100
AcDbSpline
210
0.0
220
0.0
230
1.0
 70
    11
 71
     3
 72
    12
 73
     8
 74
     0
 42
0.0000000001
 43
0.0000000001
 12
1.0
 22
0.0
 32
0.0
 13
1.0
 23
0.0
 33
0.0
 40
0.0
 40
0.0
 40
0.0
 40
0.0
 40
0.3333333333333333
 40
0.3333333333333333
 40
0.3333333333333333
 40
0.3333333333333333
 40
1.0
 40
1.0
 40
1.0
 40
1.0
 10
119.7723
 20
91.2583
 30
0.0
 10
117.2511
 20
92.2382
 30
0.0
 10
111.6306
 20
90.1618
 30
0.0
 10
109.9344
 20
87.627
 30
0.0
 10
109.9344
 20
87.627
 30
0.0
 10
112.092
 20
87.6243
 30
0.0
 10
116.9289
 20
89.1405
 30
0.0
 10
119.7723
 20
91.2583
 30
0.0
  0
SPLINE
  5
57
330
1F
100
AcDbEntity
  8
layer 1
 62
     7
100
AcDbSpline
210
0.0
220
0.0
230
1.0
 70
    11
 71
     3
 72
    16
 73
    12
 74
     0
 42
0.0000000001
 43
0.0000000001
 12
1.0
 22
0.0
 32
0.0
 13
1.0
 23
0.0
 33
0.0
 40
0.0
 40
0.0
 40
0.0
 40
0.0
 40
0.25
 40
0.25
 40
0.25
 40
0.25
 40
0.5
 40
0.5
 40
0.5
 40
0.5
 40
1.0
 40
1.0
 40
1.0
 40
1.0
 10
85.4911
 20
100.9081
 30
0.0
 10
85.4911
 20
100.9081
 30
0.0
 10
85.4911
 20
96.3854
 30
0.0
 10
85.4911
 20
96.3854
 30
0.0
 10
85.4911
 20
96.3854
 30
0.0
 10
86.2205
 20
95.6022
 30
0.0
 10
86.9729
 20
94.8604
 30
0.0
 10
87.9798
 20
94.0454
 30
0.0
 10
87.9798
 20
94.0454
 30
0.0
 10
87.6475
 20
96.038
 30
0.0
 10
86.5994
 20
98.8082
 30
0.0
 10
85.4911
 20
100.9081
 30
0.0
  0
SPLINE
  5
58
330
1F
100
AcDbEntity
  8
layer 1
 62
     7
100
AcDbSpline
210
0.0
220
0.0
230
1.0
 70
    11
 71
     3
 72
    20
 73
    16
 74
     0
 42
0.0000000001
 43
0.0000000001
 12
1.0
 22
0.0
 32
0.0
 13
1.0
 23
0.0
 33
0.0
 40
0.0
 40
0.0
 40
0.0
 40
0.0
 40
0.2
 40
0.2
 40
0.2
 40
0.2
 40
0.4
 40
0.4
 40
0.4
 40
0.4
 40
0.6
 40
0.6
 40
0.6
 40
0.6
 40
1.0
 40
1.0
 40
1.0
 40
1.0
 10
130.6277
 20
104.3311
 30
0.0
 10
124.704
 20
107.3488
 30
0.0
 10
125.7996
 20
115.0818
 30
0.0
 10
132.0563
 20
116.4578
 30
0.0
 10
132.0563
 20
116.4578
 30
0.0
 10
131.8642
 20
118.0089
 30
0.0
 10
130.8572
 20
122.6793
 30
0.0
 10
129.8364
 20
124.3792
 30
0.0
 10
129.8364
 20
124.3792
 30
0.0
 10
122.2078
 20
116.2348
 30
0.0
 10
122.371
 20
104.2251
 30
0.0
 10
127.4669
 20
98.3343
 30
0.0
 10
127.4669
 20
98.3343
 30
0.0
 10
128.4286
 20
99.9148
 30
0.0
 10
129.5188
 20
101.991
 30
0.0
 10
130.6277
 20
104.3311
 30
0.0
  0
SPLINE
  5
59
330
1F
100
AcDbEntity
  8
layer 1
 62
     7
100
AcDbSpline
210
0.0
220
0.0
230
1.0
 70
    11
 71
     3
 72
    28
 73
    24
 74
     0
 42
0.0000000001
 43
0.0000000001
 12
1.0
 22
0.0
 32
0.0
 13
1.0
 23
0.0
 33
0.0
 40
0.0
 40
0.0
 40
0.0
 40
0.0
 40
0.1428571428571428
 40
0.1428571428571428
 40
0.1428571428571428
 40
0.1428571428571428
 40
0.2857142857142857
 40
0.2857142857142857
 40
0.2857142857142857
 40
0.2857142857142857
 40
0.4285714285714285
 40
0.4285714285714285
 40
0.4285714285714285
 40
0.4285714285714285
 40
0.5714285714285714
 40
0.5714285714285714
 40
0.5714285714285714
 40
0.5714285714285714
 40
0.7142857142857143
 40
0.7142857142857143
 40
0.7142857142857143
 40
0.7142857142857143
 40
1.0
 40
1.0
 40
1.0
 40
1.0
 10
95.8845
 20
112.2805
 30
0.0
 10
100.8718
 20
115.7094
 30
0.0
 10
98.606
 20
122.0729
 30
0.0
 10
93.4978
 20
122.1535
 30
0.0
 10
93.4978
 20
122.1535
 30
0.0
 10
90.8956
 20
121.8359
 30
0.0
 10
89.8094
 20
121.0295
 30
0.0
 10
88.5593
 20
119.1754
 30
0.0
 10
88.5593
 20
119.1754
 30
0.0
 10
87.5128
 20
119.4396
 30
0.0
 10
86.2797
 20
119.8767
 30
0.0
 10
85.491
 20
120.5098
 30
0.0
 10
85.491
 20
120.5098
 30
0.0
 10
85.491
 20
120.5098
 30
0.0
 10
85.491
 20
113.7738
 30
0.0
 10
85.491
 20
113.7738
 30
0.0
 10
85.491
 20
113.7738
 30
0.0
 10
88.6938
 20
111.5353
 30
0.0
 10
93.3423
 20
111.0533
 30
0.0
 10
95.8844
 20
112.2805
 30
0.0
 10
95.8844
 20
112.2805
 30
0.0
 10
95.8844
 20
112.2805
 30
0.0
 10
95.8845
 20
112.2805
 30
0.0
 10
95.8845
 20
112.2805
 30
0.0
  0
SPLINE
  5
5A
330
1F
100
AcDbEntity
  8
layer 1
 62
     7
100
AcDbSpline
210
0.0
220
0.0
230
1.0
 70
    11
 71
     3
 72
    20
 73
    16
 74
     0
 42
0.0000000001
 43
0.0000000001
 12
1.0
 22
0.0
 32
0.0
 13
1.0
 23
0.0
 33
0.0
 40
0.0
 40
0.0
 40
0.0
 40
0.0
 40
0.2
 40
0.2
 40
0.2
 40
0.2
 40
0.4
 40
0.4
 40
0.4
 40
0.4
 40
0.6
 40
0.6
 40
0.6
 40
0.6
 40
1.0
 40
1.0
 40
1.0
 40
1.0
 10
115.0513
 20
125.2783
 30
0.0
 10
115.0513
 20
125.2783
 30
0.0
 10
109.1821
 20
125.2783
 30
0.0
 10
109.1821
 20
125.2783
 30
0.0
 10
109.1821
 20
125.2783
 30
0.0
 10
109.7322
 20
123.3968
 30
0.0
 10
110.1239
 20
120.3719
 30
0.0
 10
109.6748
 20
117.5482
 30
0.0
 10
109.6748
 20
117.5482
 30
0.0
 10
110.8382
 20
120.0817
 30
0.0
 10
112.7585
 20
123.16
 30
0.0
 10
115.0514
 20
125.2783
 30
0.0
 10
115.0514
 20
125.2783
 30
0.0
 10
115.0514
 20
125.2783
 30
0.0
 10
115.0513
 20
125.2783
 30
0.0
 10
115.0513
 20
125.2783
 30
0.0
  0
SPLINE
  5
5B
330
1F
100
AcDbEntity
  8
layer 1
 62
     7
100
AcDbSpline
210
0.0
220
0.0
230
1.0
 70
    11
 71
     3
 72
    20
 73
    16
 74
     0
 42
0.0000000001
 43
0.0000000001
 12
1.0
 22
0.0
 32
0.0
 13
1.0
 23
0.0
 33
0.0
 40
0.0
 40
0.0
 40
0.0
 40
0.0
 40
0.2
 40
0.2
 40
0.2
 40
0.2
 40
0.4
 40
0.4
 40
0.4
 40
0.4
 40
0.6
 40
0.6
 40
0.6
 40
0.6
 40
1.0
 40
1.0
 40
1.0
 40
1.0
 10
147.845
 20
46.9502
 30
0.0
 10
146.5391
 20
48.8492
 30
0.0
 10
144.8844
 20
51.0072
 30
0.0
 10
143.2997
 20
52.7581
 30
0.0
 10
143.2997
 20
52.7581
 30
0.0
 10
145.8133
 20
54.5389
 30
0.0
 10
147.5233
 20
55.4909
 30
0.0
 10
150.3714
 20
57.1129
 30
0.0
 10
150.3714
 20
57.1129
 30
0.0
 10
151.6077
 20
55.2184
 30
0.0
 10
153.4364
 20
51.618
 30
0.0
 10
154.3798
 20
49.9465
 30
0.0
 10
154.3798
 20
49.9465
 30
0.0
 10
151.8909
 20
48.7079
 30
0.0
 10
150.033
 20
48.1051
 30
0.0
 10
147.845
 20
46.9502
 30
0.0
  0
SPLINE
  5
5C
330
1F
100
AcDbEntity
  8
layer 1
 62
     7
100
AcDbSpline
210
0.0
220
0.0
230
1.0
 70
    11
 71
     3
 72
    20
 73
    16
 74
     0
 42
0.0000000001
 43
0.0000000001
 12
1.0
 22
0.0
 32
0.0
 13
1.0
 23
0.0
 33
0.0
 40
0.0
 40
0.0
 40
0.0
 40
0.0
 40
0.2
 40
0.2
 40
0.2
 40
0.2
 40
0.4
 40
0.4
 40
0.4
 40
0.4
 40
0.6
 40
0.6
 40
0.6
 40
0.6
 40
1.0
 40
1.0
 40
1.0
 40
1.0
 10
175.8344
 20
18.7149
 30
0.0
 10
176.8261
 20
20.7953
 30
0.0
 10
177.8677
 20
23.3073
 30
0.0
 10
178.5916
 20
25.5551
 30
0.0
 10
178.5916
 20
25.5551
 30
0.0
 10
181.3905
 20
24.2687
 30
0.0
 10
183.0701
 20
23.2639
 30
0.0
 10
185.8989
 20
21.6083
 30
0.0
 10
185.8989
 20
21.6083
 30
0.0
 10
184.8764
 20
19.5905
 30
0.0
 10
182.6727
 20
16.2066
 30
0.0
 10
181.6968
 20
14.5538
 30
0.0
 10
181.6968
 20
14.5538
 30
0.0
 10
179.3797
 20
16.09
 30
0.0
 10
177.9286
 20
17.3975
 30
0.0
 10
175.8344
 20
18.7149
 30
0.0
  0
SPLINE
  5
5D
330
1F
100
AcDbEntity
  8
layer 1
 62
     7
100
AcDbSpline
210
0.0
220
0.0
230
1.0
 70
    11
 71
     3
 72
    24
 73
    20
 74
     0
 42
0.0000000001
 43
0.0000000001
 12
1.0
 22
0.0
 32
0.0
 13
1.0
 23
0.0
 33
0.0
 40
0.0
 40
0.0
 40
0.0
 40
0.0
 40
0.1666666666666667
 40
0.1666666666666667
 40
0.1666666666666667
 40
0.1666666666666667
 40
0.3333333333333333
 40
0.3333333333333333
 40
0.3333333333333333
 40
0.3333333333333333
 40
0.5
 40
0.5
 40
0.5
 40
0.5
 40
0.6666666666666666
 40
0.6666666666666666
 40
0.6666666666666666
 40
0.6666666666666666
 40
1.0
 40
1.0
 40
1.0
 40
1.0
 10
157.3547
 20
36.8862
 30
0.0
 10
157.2234
 20
38.281
 30
0.0
 10
156.803
 20
40.1386
 30
0.0
 10
156.5537
 20
41.8717
 30
0.0
 10
156.5537
 20
41.8717
 30
0.0
 10
154.9282
 20
41.221
 30
0.0
 10
153.1093
 20
40.6563
 30
0.0
 10
151.8357
 20
40.0726
 30
0.0
 10
151.8357
 20
40.0726
 30
0.0
 10
152.1896
 20
38.8861
 30
0.0
 10
153.366
 20
36.521
 30
0.0
 10
153.468
 20
36.527
 30
0.0
 10
153.468
 20
36.527
 30
0.0
 10
153.5138
 20
36.4356
 30
0.0
 10
156.1504
 20
36.5994
 30
0.0
 10
157.3548
 20
36.8862
 30
0.0
 10
157.3548
 20
36.8862
 30
0.0
 10
157.3548
 20
36.8862
 30
0.0
 10
157.3547
 20
36.8862
 30
0.0
 10
157.3547
 20
36.8862
 30
0.0
  0
SPLINE
  5
5E
330
1F
100
AcDbEntity
  8
layer 1
 62
     7
100
AcDbSpline
210
0.0
220
0.0
230
1.0
 70
    11
 71
     3
 72
    24
 73
    20
 74
     0
 42
0.0000000001
 43
0.0000000001
 12
1.0
 22
0.0
 32
0.0
 13
1.0
 23
0.0
 33
0.0
 40
0.0
 40
0.0
 40
0.0
 40
0.0
 40
0.1666666666666667
 40
0.1666666666666667
 40
0.1666666666666667
 40
0.1666666666666667
 40
0.3333333333333333
 40
0.3333333333333333
 40
0.3333333333333333
 40
0.3333333333333333
 40
0.5
 40
0.5
 40
0.5
 40
0.5
 40
0.6666666666666666
 40
0.6666666666666666
 40
0.6666666666666666
 40
0.6666666666666666
 40
1.0
 40
1.0
 40
1.0
 40
1.0
 10
168.819
 20
23.0724
 30
0.0
 10
169.4027
 20
24.346
 30
0.0
 10
169.9674
 20
26.1649
 30
0.0
 10
170.6181
 20
27.7904
 30
0.0
 10
170.6181
 20
27.7904
 30
0.0
 10
168.8851
 20
28.0398
 30
0.0
 10
167.0274
 20
28.4602
 30
0.0
 10
165.6327
 20
28.5914
 30
0.0
 10
165.6327
 20
28.5914
 30
0.0
 10
165.3459
 20
27.387
 30
0.0
 10
165.1821
 20
24.7504
 30
0.0
 10
165.2734
 20
24.7046
 30
0.0
 10
165.2734
 20
24.7046
 30
0.0
 10
165.2675
 20
24.6026
 30
0.0
 10
167.6326
 20
23.4262
 30
0.0
 10
168.819
 20
23.0723
 30
0.0
 10
168.819
 20
23.0723
 30
0.0
 10
168.819
 20
23.0723
 30
0.0
 10
168.819
 20
23.0724
 30
0.0
 10
168.819
 20
23.0724
 30
0.0
  0
SPLINE
  5
5F
330
1F
100
AcDbEntity
  8
layer 1
 62
     7
100
AcDbSpline
210
0.0
220
0.0
230
1.0
 70
    11
 71
     3
 72
    20
 73
    16
 74
     0
 42
0.0000000001
 43
0.0000000001
 12
1.0
 22
0.0
 32
0.0
 13
1.0
 23
0.0
 33
0.0
 40
0.0
 40
0.0
 40
0.0
 40
0.0
 40
0.2
 40
0.2
 40
0.2
 40
0.2
 40
0.4
 40
0.4
 40
0.4
 40
0.4
 40
0.6
 40
0.6
 40
0.6
 40
0.6
 40
1.0
 40
1.0
 40
1.0
 40
1.0
 10
171.8696
 20
11.7873
 30
0.0
 10
172.0204
 20
12.004
 30
0.0
 10
175.173
 20
9.183
 30
0.0
 10
175.9604
 20
8.3777
 30
0.0
 10
175.9604
 20
8.3777
 30
0.0
 10
175.173
 20
7.5725
 30
0.0
 10
172.0204
 20
4.7513
 30
0.0
 10
171.8696
 20
4.9682
 30
0.0
 10
171.8696
 20
4.9682
 30
0.0
 10
171.1123
 20
6.0569
 30
0.0
 10
170.2173
 20
7.1581
 30
0.0
 10
169.2495
 20
8.3777
 30
0.0
 10
169.2495
 20
8.3777
 30
0.0
 10
170.2172
 20
9.5974
 30
0.0
 10
171.1123
 20
10.6986
 30
0.0
 10
171.8696
 20
11.7873
 30
0.0
  0
SPLINE
  5
60
330
1F
100
AcDbEntity
  8
layer 1
 62
     7
100
AcDbSpline
210
0.0
220
0.0
230
1.0
 70
    11
 71
     3
 72
    16
 73
    12
 74
     0
 42
0.0000000001
 43
0.0000000001
 12
1.0
 22
0.0
 32
0.0
 13
1.0
 23
0.0
 33
0.0
 40
0.0
 40
0.0
 40
0.0
 40
0.0
 40
0.25
 40
0.25
 40
0.25
 40
0.25
 40
0.5
 40
0.5
 40
0.5
 40
0.5
 40
1.0
 40
1.0
 40
1.0
 40
1.0
 10
189.1761
 20
11.3103
 30
0.0
 10
188.5443
 20
10.0605
 30
0.0
 10
187.7645
 20
9.2775
 30
0.0
 10
187.2061
 20
8.3776
 30
0.0
 10
187.2061
 20
8.3776
 30
0.0
 10
187.7645
 20
7.4777
 30
0.0
 10
188.5444
 20
6.6949
 30
0.0
 10
189.1761
 20
5.4449
 30
0.0
 10
189.1761
 20
5.4449
 30
0.0
 10
189.1761
 20
5.4449
 30
0.0
 10
189.1761
 20
11.3103
 30
0.0
 10
189.1761
 20
11.3103
 30
0.0
  0
SPLINE
  5
61
330
1F
100
AcDbEntity
  8
layer 1
 62
     7
100
AcDbSpline
210
0.0
220
0.0
230
1.0
 70
    11
 71
     3
 72
    20
 73
    16
 74
     0
 42
0.0000000001
 43
0.0000000001
 12
1.0
 22
0.0
 32
0.0
 13
1.0
 23
0.0
 33
0.0
 40
0.0
 40
0.0
 40
0.0
 40
0.0
 40
0.2
 40
0.2
 40
0.2
 40
0.2
 40
0.4
 40
0.4
 40
0.4
 40
0.4
 40
0.6
 40
0.6
 40
0.6
 40
0.6
 40
1.0
 40
1.0
 40
1.0
 40
1.0
 10
180.6474
 20
33.6469
 30
0.0
 10
180.9106
 20
36.8846
 30
0.0
 10
181.0785
 20
39.6351
 30
0.0
 10
181.1266
 20
42.9345
 30
0.0
 10
181.1266
 20
42.9345
 30
0.0
 10
183.6452
 20
42.1472
 30
0.0
 10
186.5519
 20
41.2491
 30
0.0
 10
189.176
 20
41.016
 30
0.0
 10
189.176
 20
41.016
 30
0.0
 10
189.176
 20
41.016
 30
0.0
 10
189.176
 20
29.5435
 30
0.0
 10
189.176
 20
29.5435
 30
0.0
 10
189.176
 20
29.5435
 30
0.0
 10
186.9958
 20
30.8983
 30
0.0
 10
182.5765
 20
32.7184
 30
0.0
 10
180.6474
 20
33.6469
 30
0.0
  0
SPLINE
  5
62
330
1F
100
AcDbEntity
  8
layer 1
 62
     7
100
AcDbSpline
210
0.0
220
0.0
230
1.0
 70
    11
 71
     3
 72
    24
 73
    20
 74
     0
 42
0.0000000001
 43
0.0000000001
 12
1.0
 22
0.0
 32
0.0
 13
1.0
 23
0.0
 33
0.0
 40
0.0
 40
0.0
 40
0.0
 40
0.0
 40
0.1666666666666667
 40
0.1666666666666667
 40
0.1666666666666667
 40
0.1666666666666667
 40
0.3333333333333333
 40
0.3333333333333333
 40
0.3333333333333333
 40
0.3333333333333333
 40
0.5
 40
0.5
 40
0.5
 40
0.5
 40
0.6666666666666666
 40
0.6666666666666666
 40
0.6666666666666666
 40
0.6666666666666666
 40
1.0
 40
1.0
 40
1.0
 40
1.0
 10
165.6798
 20
36.7153
 30
0.0
 10
165.4984
 20
39.0128
 30
0.0
 10
165.1445
 20
41.7091
 30
0.0
 10
164.6474
 20
44.0177
 30
0.0
 10
164.6474
 20
44.0177
 30
0.0
 10
167.7146
 20
44.3031
 30
0.0
 10
169.6716
 20
44.2726
 30
0.0
 10
172.9491
 20
44.2532
 30
0.0
 10
172.9491
 20
44.2532
 30
0.0
 10
173.0726
 20
41.9944
 30
0.0
 10
172.856
 20
37.9621
 30
0.0
 10
172.8373
 20
36.0427
 30
0.0
 10
172.8373
 20
36.0427
 30
0.0
 10
170.0625
 20
36.2145
 30
0.0
 10
168.1521
 20
36.6214
 30
0.0
 10
165.6798
 20
36.7152
 30
0.0
 10
165.6798
 20
36.7152
 30
0.0
 10
165.6798
 20
36.7152
 30
0.0
 10
165.6798
 20
36.7153
 30
0.0
 10
165.6798
 20
36.7153
 30
0.0
  0
SPLINE
  5
63
330
1F
100
AcDbEntity
  8
layer 1
 62
     7
100
AcDbSpline
210
0.0
220
0.0
230
1.0
 70
    11
 71
     3
 72
    20
 73
    16
 74
     0
 42
0.0000000001
 43
0.0000000001
 12
1.0
 22
0.0
 32
0.0
 13
1.0
 23
0.0
 33
0.0
 40
0.0
 40
0.0
 40
0.0
 40
0.0
 40
0.2
 40
0.2
 40
0.2
 40
0.2
 40
0.4
 40
0.4
 40
0.4
 40
0.4
 40
0.6
 40
0.6
 40
0.6
 40
0.6
 40
1.0
 40
1.0
 40
1.0
 40
1.0
 10
180.3938
 20
51.5018
 30
0.0
 10
179.7288
 20
54.7971
 30
0.0
 10
179.4108
 20
57.8664
 30
0.0
 10
178.2674
 20
61.3085
 30
0.0
 10
178.2674
 20
61.3085
 30
0.0
 10
181.0986
 20
60.9517
 30
0.0
 10
185.4569
 20
60.1945
 30
0.0
 10
189.176
 20
59.2788
 30
0.0
 10
189.176
 20
59.2788
 30
0.0
 10
189.176
 20
56.0926
 30
0.0
 10
189.176
 20
52.6846
 30
0.0
 10
189.176
 20
49.2194
 30
0.0
 10
189.176
 20
49.2194
 30
0.0
 10
185.9525
 20
50.1866
 30
0.0
 10
183.3845
 20
50.9382
 30
0.0
 10
180.3938
 20
51.5018
 30
0.0
  0
SPLINE
  5
64
330
1F
100
AcDbEntity
  8
layer 1
 62
     7
100
AcDbSpline
210
0.0
220
0.0
230
1.0
 70
    11
 71
     3
 72
    24
 73
    20
 74
     0
 42
0.0000000001
 43
0.0000000001
 12
1.0
 22
0.0
 32
0.0
 13
1.0
 23
0.0
 33
0.0
 40
0.0
 40
0.0
 40
0.0
 40
0.0
 40
0.1666666666666667
 40
0.1666666666666667
 40
0.1666666666666667
 40
0.1666666666666667
 40
0.3333333333333333
 40
0.3333333333333333
 40
0.3333333333333333
 40
0.3333333333333333
 40
0.5
 40
0.5
 40
0.5
 40
0.5
 40
0.6666666666666666
 40
0.6666666666666666
 40
0.6666666666666666
 40
0.6666666666666666
 40
1.0
 40
1.0
 40
1.0
 40
1.0
 10
162.2143
 20
51.7649
 30
0.0
 10
162.0292
 20
53.4144
 30
0.0
 10
159.2282
 20
58.8911
 30
0.0
 10
158.2102
 20
60.1867
 30
0.0
 10
158.2102
 20
60.1867
 30
0.0
 10
160.5127
 20
61.2221
 30
0.0
 10
166.5152
 20
61.9321
 30
0.0
 10
168.2116
 20
61.9352
 30
0.0
 10
168.2116
 20
61.9352
 30
0.0
 10
169.7274
 20
59.0168
 30
0.0
 10
171.1132
 20
55.03
 30
0.0
 10
171.6914
 20
52.4035
 30
0.0
 10
171.6914
 20
52.4035
 30
0.0
 10
169.2516
 20
52.473
 30
0.0
 10
165.6617
 20
52.2673
 30
0.0
 10
162.2144
 20
51.7649
 30
0.0
 10
162.2144
 20
51.7649
 30
0.0
 10
162.2144
 20
51.7649
 30
0.0
 10
162.2143
 20
51.7649
 30
0.0
 10
162.2143
 20
51.7649
 30
0.0
  0
SPLINE
  5
65
330
1F
100
AcDbEntity
  8
layer 1
 62
     7
100
AcDbSpline
210
0.0
220
0.0
230
1.0
 70
    11
 71
     3
 72
    20
 73
    16
 74
     0
 42
0.0000000001
 43
0.0000000001
 12
1.0
 22
0.0
 32
0.0
 13
1.0
 23
0.0
 33
0.0
 40
0.0
 40
0.0
 40
0.0
 40
0.0
 40
0.2
 40
0.2
 40
0.2
 40
0.2
 40
0.4
 40
0.4
 40
0.4
 40
0.4
 40
0.6
 40
0.6
 40
0.6
 40
0.6
 40
1.0
 40
1.0
 40
1.0
 40
1.0
 10
145.1368
 20
63.6675
 30
0.0
 10
142.0868
 20
66.3952
 30
0.0
 10
138.2205
 20
70.1072
 30
0.0
 10
137.3336
 20
74.1271
 30
0.0
 10
137.3336
 20
74.1271
 30
0.0
 10
136.4468
 20
70.1072
 30
0.0
 10
132.5805
 20
66.3952
 30
0.0
 10
129.5304
 20
63.6675
 30
0.0
 10
129.5304
 20
63.6675
 30
0.0
 10
132.5284
 20
61.9377
 30
0.0
 10
134.7995
 20
60.5604
 30
0.0
 10
137.3336
 20
58.5873
 30
0.0
 10
137.3336
 20
58.5873
 30
0.0
 10
139.8679
 20
60.5604
 30
0.0
 10
142.1389
 20
61.9376
 30
0.0
 10
145.1368
 20
63.6675
 30
0.0
  0
SPLINE
  5
66
330
1F
100
AcDbEntity
  8
layer 1
 62
     7
100
AcDbSpline
210
0.0
220
0.0
230
1.0
 70
    11
 71
     3
 72
    20
 73
    16
 74
     0
 42
0.0000000001
 43
0.0000000001
 12
1.0
 22
0.0
 32
0.0
 13
1.0
 23
0.0
 33
0.0
 40
0.0
 40
0.0
 40
0.0
 40
0.0
 40
0.2
 40
0.2
 40
0.2
 40
0.2
 40
0.4
 40
0.4
 40
0.4
 40
0.4
 40
0.6
 40
0.6
 40
0.6
 40
0.6
 40
1.0
 40
1.0
 40
1.0
 40
1.0
 10
145.5328
 20
75.4355
 30
0.0
 10
144.5647
 20
77.078
 30
0.0
 10
144.0206
 20
83.4705
 30
0.0
 10
146.98
 20
86.6514
 30
0.0
 10
146.98
 20
86.6514
 30
0.0
 10
150.8453
 20
83.7953
 30
0.0
 10
159.7461
 20
74.4955
 30
0.0
 10
162.2658
 20
70.4273
 30
0.0
 10
162.2658
 20
70.4273
 30
0.0
 10
159.268
 20
69.3316
 30
0.0
 10
156.4618
 20
68.5057
 30
0.0
 10
153.2856
 20
67.2249
 30
0.0
 10
153.2856
 20
67.2249
 30
0.0
 10
151.8769
 20
68.5728
 30
0.0
 10
146.7105
 20
73.4762
 30
0.0
 10
145.5328
 20
75.4355
 30
0.0
  0
SPLINE
  5
67
330
1F
100
AcDbEntity
  8
layer 1
 62
     7
100
AcDbSpline
210
0.0
220
0.0
230
1.0
 70
    11
 71
     3
 72
    20
 73
    16
 74
     0
 42
0.0000000001
 43
0.0000000001
 12
1.0
 22
0.0
 32
0.0
 13
1.0
 23
0.0
 33
0.0
 40
0.0
 40
0.0
 40
0.0
 40
0.0
 40
0.2
 40
0.2
 40
0.2
 40
0.2
 40
0.4
 40
0.4
 40
0.4
 40
0.4
 40
0.6
 40
0.6
 40
0.6
 40
0.6
 40
1.0
 40
1.0
 40
1.0
 40
1.0
 10
171.8663
 20
79.0661
 30
0.0
 10
174.0497
 20
79.3678
 30
0.0
 10
176.5022
 20
79.6287
 30
0.0
 10
178.7577
 20
80.3077
 30
0.0
 10
178.7577
 20
80.3077
 30
0.0
 10
179.3396
 20
78.2068
 30
0.0
 10
180.0516
 20
75.837
 30
0.0
 10
180.9002
 20
73.842
 30
0.0
 10
180.9002
 20
73.842
 30
0.0
 10
178.5392
 20
73.6866
 30
0.0
 10
176.9479
 20
73.3863
 30
0.0
 10
174.4904
 20
73.0697
 30
0.0
 10
174.4904
 20
73.0697
 30
0.0
 10
173.8643
 20
74.5625
 30
0.0
 10
172.6832
 20
77.6298
 30
0.0
 10
171.8663
 20
79.0661
 30
0.0
  0
SPLINE
  5
68
330
1F
100
AcDbEntity
  8
layer 1
 62
     7
100
AcDbSpline
210
0.0
220
0.0
230
1.0
 70
    11
 71
     3
 72
    16
 73
    12
 74
     0
 42
0.0000000001
 43
0.0000000001
 12
1.0
 22
0.0
 32
0.0
 13
1.0
 23
0.0
 33
0.0
 40
0.0
 40
0.0
 40
0.0
 40
0.0
 40
0.25
 40
0.25
 40
0.25
 40
0.25
 40
0.5
 40
0.5
 40
0.5
 40
0.5
 40
1.0
 40
1.0
 40
1.0
 40
1.0
 10
186.4895
 20
83.7069
 30
0.0
 10
187.0806
 20
84.0058
 30
0.0
 10
188.1692
 20
84.7984
 30
0.0
 10
189.176
 20
85.2669
 30
0.0
 10
189.176
 20
85.2669
 30
0.0
 10
189.176
 20
85.2669
 30
0.0
 10
189.176
 20
76.4557
 30
0.0
 10
189.176
 20
76.4557
 30
0.0
 10
189.176
 20
76.4557
 30
0.0
 10
188.3216
 20
77.5679
 30
0.0
 10
187.0246
 20
80.5593
 30
0.0
 10
186.4895
 20
83.7069
 30
0.0
  0
SPLINE
  5
69
330
1F
100
AcDbEntity
  8
layer 1
 62
     7
100
AcDbSpline
210
0.0
220
0.0
230
1.0
 70
    11
 71
     3
 72
    20
 73
    16
 74
     0
 42
0.0000000001
 43
0.0000000001
 12
1.0
 22
0.0
 32
0.0
 13
1.0
 23
0.0
 33
0.0
 40
0.0
 40
0.0
 40
0.0
 40
0.0
 40
0.2
 40
0.2
 40
0.2
 40
0.2
 40
0.4
 40
0.4
 40
0.4
 40
0.4
 40
0.6
 40
0.6
 40
0.6
 40
0.6
 40
1.0
 40
1.0
 40
1.0
 40
1.0
 10
141.0578
 20
92.7701
 30
0.0
 10
139.8534
 20
94.5745
 30
0.0
 10
138.0095
 20
97.2817
 30
0.0
 10
137.3336
 20
99.0996
 30
0.0
 10
137.3336
 20
99.0996
 30
0.0
 10
136.6577
 20
97.2817
 30
0.0
 10
134.8139
 20
94.5745
 30
0.0
 10
133.6095
 20
92.7701
 30
0.0
 10
133.6095
 20
92.7701
 30
0.0
 10
135.1773
 20
90.7265
 30
0.0
 10
136.9126
 20
87.7512
 30
0.0
 10
137.3336
 20
85.5967
 30
0.0
 10
137.3336
 20
85.5967
 30
0.0
 10
137.7548
 20
87.7512
 30
0.0
 10
139.49
 20
90.7265
 30
0.0
 10
141.0578
 20
92.7701
 30
0.0
  0
SPLINE
  5
6A
330
1F
100
AcDbEntity
  8
layer 1
 62
     7
100
AcDbSpline
210
0.0
220
0.0
230
1.0
 70
    11
 71
     3
 72
    28
 73
    24
 74
     0
 42
0.0000000001
 43
0.0000000001
 12
1.0
 22
0.0
 32
0.0
 13
1.0
 23
0.0
 33
0.0
 40
0.0
 40
0.0
 40
0.0
 40
0.0
 40
0.1428571428571428
 40
0.1428571428571428
 40
0.1428571428571428
 40
0.1428571428571428
 40
0.2857142857142857
 40
0.2857142857142857
 40
0.2857142857142857
 40
0.2857142857142857
 40
0.4285714285714285
 40
0.4285714285714285
 40
0.4285714285714285
 40
0.4285714285714285
 40
0.5714285714285714
 40
0.5714285714285714
 40
0.5714285714285714
 40
0.5714285714285714
 40
0.7142857142857143
 40
0.7142857142857143
 40
0.7142857142857143
 40
0.7142857142857143
 40
1.0
 40
1.0
 40
1.0
 40
1.0
 10
168.5366
 20
87.1269
 30
0.0
 10
174.2703
 20
91.7571
 30
0.0
 10
173.692
 20
100.3284
 30
0.0
 10
167.1323
 20
103.4935
 30
0.0
 10
167.1323
 20
103.4935
 30
0.0
 10
167.3682
 20
105.653
 30
0.0
 10
167.3697
 20
108.9507
 30
0.0
 10
166.9383
 20
111.1575
 30
0.0
 10
166.9383
 20
111.1575
 30
0.0
 10
171.2758
 20
105.6695
 30
0.0
 10
175.9543
 20
104.0218
 30
0.0
 10
181.2893
 20
103.6008
 30
0.0
 10
181.2893
 20
103.6008
 30
0.0
 10
179.1426
 20
99.4102
 30
0.0
 10
177.5581
 20
92.813
 30
0.0
 10
177.8553
 20
88.5984
 30
0.0
 10
177.8553
 20
88.5984
 30
0.0
 10
174.0403
 20
87.4463
 30
0.0
 10
172.362
 20
87.4137
 30
0.0
 10
168.5367
 20
87.1269
 30
0.0
 10
168.5367
 20
87.1269
 30
0.0
 10
168.5367
 20
87.1269
 30
0.0
 10
168.5366
 20
87.1269
 30
0.0
 10
168.5366
 20
87.1269
 30
0.0
  0
SPLINE
  5
6B
330
1F
100
AcDbEntity
  8
layer 1
 62
     7
100
AcDbSpline
210
0.0
220
0.0
230
1.0
 70
    11
 71
     3
 72
    12
 73
     8
 74
     0
 42
0.0000000001
 43
0.0000000001
 12
1.0
 22
0.0
 32
0.0
 13
1.0
 23
0.0
 33
0.0
 40
0.0
 40
0.0
 40
0.0
 40
0.0
 40
0.3333333333333333
 40
0.3333333333333333
 40
0.3333333333333333
 40
0.3333333333333333
 40
1.0
 40
1.0
 40
1.0
 40
1.0
 10
154.8948
 20
91.2583
 30
0.0
 10
157.4161
 20
92.2382
 30
0.0
 10
163.0366
 20
90.1618
 30
0.0
 10
164.7328
 20
87.627
 30
0.0
 10
164.7328
 20
87.627
 30
0.0
 10
162.5752
 20
87.6243
 30
0.0
 10
157.7382
 20
89.1405
 30
0.0
 10
154.8948
 20
91.2583
 30
0.0
  0
SPLINE
  5
6C
330
1F
100
AcDbEntity
  8
layer 1
 62
     7
100
AcDbSpline
210
0.0
220
0.0
230
1.0
 70
    11
 71
     3
 72
    16
 73
    12
 74
     0
 42
0.0000000001
 43
0.0000000001
 12
1.0
 22
0.0
 32
0.0
 13
1.0
 23
0.0
 33
0.0
 40
0.0
 40
0.0
 40
0.0
 40
0.0
 40
0.25
 40
0.25
 40
0.25
 40
0.25
 40
0.5
 40
0.5
 40
0.5
 40
0.5
 40
1.0
 40
1.0
 40
1.0
 40
1.0
 10
189.1761
 20
100.9081
 30
0.0
 10
189.1761
 20
100.9081
 30
0.0
 10
189.1761
 20
96.3854
 30
0.0
 10
189.1761
 20
96.3854
 30
0.0
 10
189.1761
 20
96.3854
 30
0.0
 10
188.4468
 20
95.6022
 30
0.0
 10
187.6944
 20
94.8604
 30
0.0
 10
186.6875
 20
94.0454
 30
0.0
 10
186.6875
 20
94.0454
 30
0.0
 10
187.0198
 20
96.038
 30
0.0
 10
188.0679
 20
98.8082
 30
0.0
 10
189.1761
 20
100.9081
 30
0.0
  0
SPLINE
  5
6D
330
1F
100
AcDbEntity
  8
layer 1
 62
     7
100
AcDbSpline
210
0.0
220
0.0
230
1.0
 70
    11
 71
     3
 72
    20
 73
    16
 74
     0
 42
0.0000000001
 43
0.0000000001
 12
1.0
 22
0.0
 32
0.0
 13
1.0
 23
0.0
 33
0.0
 40
0.0
 40
0.0
 40
0.0
 40
0.0
 40
0.2
 40
0.2
 40
0.2
 40
0.2
 40
0.4
 40
0.4
 40
0.4
 40
0.4
 40
0.6
 40
0.6
 40
0.6
 40
0.6
 40
1.0
 40
1.0
 40
1.0
 40
1.0
 10
144.0395
 20
104.3311
 30
0.0
 10
149.9631
 20
107.3488
 30
0.0
 10
148.8676
 20
115.0818
 30
0.0
 10
142.6109
 20
116.4578
 30
0.0
 10
142.6109
 20
116.4578
 30
0.0
 10
142.8029
 20
118.0089
 30
0.0
 10
143.81
 20
122.6793
 30
0.0
 10
144.8308
 20
124.3792
 30
0.0
 10
144.8308
 20
124.3792
 30
0.0
 10
152.4594
 20
116.2348
 30
0.0
 10
152.2961
 20
104.2251
 30
0.0
 10
147.2003
 20
98.3343
 30
0.0
 10
147.2003
 20
98.3343
 30
0.0
 10
146.2385
 20
99.9148
 30
0.0
 10
145.1484
 20
101.991
 30
0.0
 10
144.0395
 20
104.3311
 30
0.0
  0
SPLINE
  5
6E
330
1F
100
AcDbEntity
  8
layer 1
 62
     7
100
AcDbSpline
210
0.0
220
0.0
230
1.0
 70
    11
 71
     3
 72
    28
 73
    24
 74
     0
 42
0.0000000001
 43
0.0000000001
 12
1.0
 22
0.0
 32
0.0
 13
1.0
 23
0.0
 33
0.0
 40
0.0
 40
0.0
 40
0.0
 40
0.0
 40
0.1428571428571428
 40
0.1428571428571428
 40
0.1428571428571428
 40
0.1428571428571428
 40
0.2857142857142857
 40
0.2857142857142857
 40
0.2857142857142857
 40
0.2857142857142857
 40
0.4285714285714285
 40
0.4285714285714285
 40
0.4285714285714285
 40
0.4285714285714285
 40
0.5714285714285714
 40
0.5714285714285714
 40
0.5714285714285714
 40
0.5714285714285714
 40
0.7142857142857143
 40
0.7142857142857143
 40
0.7142857142857143
 40
0.7142857142857143
 40
1.0
 40
1.0
 40
1.0
 40
1.0
 10
178.7827
 20
112.2805
 30
0.0
 10
173.7954
 20
115.7094
 30
0.0
 10
176.0611
 20
122.0729
 30
0.0
 10
181.1693
 20
122.1535
 30
0.0
 10
181.1693
 20
122.1535
 30
0.0
 10
183.7716
 20
121.8359
 30
0.0
 10
184.8578
 20
121.0295
 30
0.0
 10
186.1078
 20
119.1754
 30
0.0
 10
186.1078
 20
119.1754
 30
0.0
 10
187.1544
 20
119.4396
 30
0.0
 10
188.3875
 20
119.8767
 30
0.0
 10
189.1761
 20
120.5098
 30
0.0
 10
189.1761
 20
120.5098
 30
0.0
 10
189.1761
 20
120.5098
 30
0.0
 10
189.1761
 20
113.7738
 30
0.0
 10
189.1761
 20
113.7738
 30
0.0
 10
189.1761
 20
113.7738
 30
0.0
 10
185.9734
 20
111.5353
 30
0.0
 10
181.3249
 20
111.0533
 30
0.0
 10
178.7827
 20
112.2805
 30
0.0
 10
178.7827
 20
112.2805
 30
0.0
 10
178.7827
 20
112.2805
 30
0.0
 10
178.7827
 20
112.2805
 30
0.0
 10
178.7827
 20
112.2805
 30
0.0
  0
SPLINE
  5
6F
330
1F
100
AcDbEntity
  8
layer 1
 62
     7
100
AcDbSpline
210
0.0
220
0.0
230
1.0
 70
    11
 71
     3
 72
    20
 73
    16
 74
     0
 42
0.0000000001
 43
0.0000000001
 12
1.0
 22
0.0
 32
0.0
 13
1.0
 23
0.0
 33
0.0
 40
0.0
 40
0.0
 40
0.0
 40
0.0
 40
0.2
 40
0.2
 40
0.2
 40
0.2
 40
0.4
 40
0.4
 40
0.4
 40
0.4
 40
0.6
 40
0.6
 40
0.6
 40
0.6
 40
1.0
 40
1.0
 40
1.0
 40
1.0
 10
159.6159
 20
125.2783
 30
0.0
 10
159.6159
 20
125.2783
 30
0.0
 10
165.4851
 20
125.2783
 30
0.0
 10
165.4851
 20
125.2783
 30
0.0
 10
165.4851
 20
125.2783
 30
0.0
 10
164.935
 20
123.3968
 30
0.0
 10
164.5433
 20
120.3719
 30
0.0
 10
164.9924
 20
117.5482
 30
0.0
 10
164.9924
 20
117.5482
 30
0.0
 10
163.8289
 20
120.0817
 30
0.0
 10
161.9087
 20
123.16
 30
0.0
 10
159.6158
 20
125.2783
 30
0.0
 10
159.6158
 20
125.2783
 30
0.0
 10
159.6158
 20
125.2783
 30
0.0
 10
159.6159
 20
125.2783
 30
0.0
 10
159.6159
 20
125.2783
 30
0.0
  0
SPLINE
  5
70
330
1F
100
AcDbEntity
  8
layer 1
 62
     7
100
AcDbSpline
210
0.0
220
0.0
230
1.0
 70
    11
 71
     3
 72
    20
 73
    16
 74
     0
 42
0.0000000001
 43
0.0000000001
 12
1.0
 22
0.0
 32
0.0
 13
1.0
 23
0.0
 33
0.0
 40
0.0
 40
0.0
 40
0.0
 40
0.0
 40
0.2
 40
0.2
 40
0.2
 40
0.2
 40
0.4
 40
0.4
 40
0.4
 40
0.4
 40
0.6
 40
0.6
 40
0.6
 40
0.6
 40
1.0
 40
1.0
 40
1.0
 40
1.0
 10
117.002
 20
6.4011
 30
0.0
 10
117.926
 20
6.9699
 30
0.0
 10
118.6356
 20
7.6198
 30
0.0
 10
119.1068
 20
8.411
 30
0.0
 10
119.1068
 20
8.411
 30
0.0
 10
118.6357
 20
9.2022
 30
0.0
 10
117.9578
 20
9.8202
 30
0.0
 10
117.002
 20
10.4209
 30
0.0
 10
117.002
 20
10.4209
 30
0.0
 10
115.0848
 20
9.7166
 30
0.0
 10
113.9364
 20
9.2312
 30
0.0
 10
111.9781
 20
8.411
 30
0.0
 10
111.9781
 20
8.411
 30
0.0
 10
113.9364
 20
7.5908
 30
0.0
 10
115.0848
 20
7.1053
 30
0.0
 10
117.002
 20
6.4011
 30
0.0
  0
SPLINE
  5
71
330
1F
100
AcDbEntity
  8
layer 1
 62
     7
100
AcDbSpline
210
0.0
220
0.0
230
1.0
 70
    11
 71
     3
 72
    20
 73
    16
 74
     0
 42
0.0000000001
 43
0.0000000001
 12
1.0
 22
0.0
 32
0.0
 13
1.0
 23
0.0
 33
0.0
 40
0.0
 40
0.0
 40
0.0
 40
0.0
 40
0.2
 40
0.2
 40
0.2
 40
0.2
 40
0.4
 40
0.4
 40
0.4
 40
0.4
 40
0.6
 40
0.6
 40
0.6
 40
0.6
 40
1.0
 40
1.0
 40
1.0
 40
1.0
 10
157.7498
 20
6.4011
 30
0.0
 10
156.8258
 20
6.9699
 30
0.0
 10
156.1162
 20
7.6198
 30
0.0
 10
155.645
 20
8.411
 30
0.0
 10
155.645
 20
8.411
 30
0.0
 10
156.1161
 20
9.2022
 30
0.0
 10
156.794
 20
9.8202
 30
0.0
 10
157.7498
 20
10.4209
 30
0.0
 10
157.7498
 20
10.4209
 30
0.0
 10
159.667
 20
9.7166
 30
0.0
 10
160.8154
 20
9.2312
 30
0.0
 10
162.7737
 20
8.411
 30
0.0
 10
162.7737
 20
8.411
 30
0.0
 10
160.8154
 20
7.5908
 30
0.0
 10
159.667
 20
7.1053
 30
0.0
 10
157.7498
 20
6.4011
 30
0.0
  0
SPLINE
  5
72
330
1F
100
AcDbEntity
  8
layer 1
 62
     7
100
AcDbSpline
210
0.0
220
0.0
230
1.0
 70
    11
 71
     3
 72
    24
 73
    20
 74
     0
 42
0.0000000001
 43
0.0000000001
 12
1.0
 22
0.0
 32
0.0
 13
1.0
 23
0.0
 33
0.0
 40
0.0
 40
0.0
 40
0.0
 40
0.0
 40
0.1666666666666667
 40
0.1666666666666667
 40
0.1666666666666667
 40
0.1666666666666667
 40
0.3333333333333333
 40
0.3333333333333333
 40
0.3333333333333333
 40
0.3333333333333333
 40
0.5
 40
0.5
 40
0.5
 40
0.5
 40
0.6666666666666666
 40
0.6666666666666666
 40
0.6666666666666666
 40
0.6666666666666666
 40
1.0
 40
1.0
 40
1.0
 40
1.0
 10
149.2409
 20
-8.4799
 30
0.0
 10
148.2864
 20
-7.9642
 30
0.0
 10
147.3687
 20
-7.6745
 30
0.0
 10
146.4479
 20
-7.6622
 30
0.0
 10
146.4479
 20
-7.6622
 30
0.0
 10
145.9983
 20
-8.4657
 30
0.0
 10
145.802
 20
-9.3618
 30
0.0
 10
145.7597
 20
-10.4898
 30
0.0
 10
145.7597
 20
-10.4898
 30
0.0
 10
147.3283
 20
-11.7981
 30
0.0
 10
148.3228
 20
-12.55
 30
0.0
 10
150.0123
 20
-13.8357
 30
0.0
 10
150.0123
 20
-13.8357
 30
0.0
 10
149.7435
 20
-11.7297
 30
0.0
 10
149.5897
 20
-10.4924
 30
0.0
 10
149.2409
 20
-8.4798
 30
0.0
 10
149.2409
 20
-8.4798
 30
0.0
 10
149.2409
 20
-8.4798
 30
0.0
 10
149.2409
 20
-8.4799
 30
0.0
 10
149.2409
 20
-8.4799
 30
0.0
  0
SPLINE
  5
73
330
1F
100
AcDbEntity
  8
layer 1
 62
     7
100
AcDbSpline
210
0.0
220
0.0
230
1.0
 70
    11
 71
     3
 72
    24
 73
    20
 74
     0
 42
0.0000000001
 43
0.0000000001
 12
1.0
 22
0.0
 32
0.0
 13
1.0
 23
0.0
 33
0.0
 40
0.0
 40
0.0
 40
0.0
 40
0.0
 40
0.1666666666666667
 40
0.1666666666666667
 40
0.1666666666666667
 40
0.1666666666666667
 40
0.3333333333333333
 40
0.3333333333333333
 40
0.3333333333333333
 40
0.3333333333333333
 40
0.5
 40
0.5
 40
0.5
 40
0.5
 40
0.6666666666666666
 40
0.6666666666666666
 40
0.6666666666666666
 40
0.6666666666666666
 40
1.0
 40
1.0
 40
1.0
 40
1.0
 10
155.9221
 20
-0.2785
 30
0.0
 10
154.8375
 20
-0.3092
 30
0.0
 10
153.898
 20
-0.5171
 30
0.0
 10
153.0945
 20
-0.9667
 30
0.0
 10
153.0945
 20
-0.9667
 30
0.0
 10
153.1068
 20
-1.8874
 30
0.0
 10
153.3849
 20
-2.7617
 30
0.0
 10
153.9122
 20
-3.7597
 30
0.0
 10
153.9122
 20
-3.7597
 30
0.0
 10
155.9247
 20
-4.1084
 30
0.0
 10
157.1621
 20
-4.2623
 30
0.0
 10
159.2681
 20
-4.5311
 30
0.0
 10
159.2681
 20
-4.5311
 30
0.0
 10
157.9823
 20
-2.8417
 30
0.0
 10
157.2304
 20
-1.8471
 30
0.0
 10
155.9222
 20
-0.2785
 30
0.0
 10
155.9222
 20
-0.2785
 30
0.0
 10
155.9222
 20
-0.2785
 30
0.0
 10
155.9221
 20
-0.2785
 30
0.0
 10
155.9221
 20
-0.2785
 30
0.0
  0
SPLINE
  5
74
330
1F
100
AcDbEntity
  8
layer 1
 62
     7
100
AcDbSpline
210
0.0
220
0.0
230
1.0
 70
    11
 71
     3
 72
    24
 73
    20
 74
     0
 42
0.0000000001
 43
0.0000000001
 12
1.0
 22
0.0
 32
0.0
 13
1.0
 23
0.0
 33
0.0
 40
0.0
 40
0.0
 40
0.0
 40
0.0
 40
0.1666666666666667
 40
0.1666666666666667
 40
0.1666666666666667
 40
0.1666666666666667
 40
0.3333333333333333
 40
0.3333333333333333
 40
0.3333333333333333
 40
0.3333333333333333
 40
0.5
 40
0.5
 40
0.5
 40
0.5
 40
0.6666666666666666
 40
0.6666666666666666
 40
0.6666666666666666
 40
0.6666666666666666
 40
1.0
 40
1.0
 40
1.0
 40
1.0
 10
125.4061
 20
-8.4799
 30
0.0
 10
126.3606
 20
-7.9642
 30
0.0
 10
127.2782
 20
-7.6745
 30
0.0
 10
128.199
 20
-7.6622
 30
0.0
 10
128.199
 20
-7.6622
 30
0.0
 10
128.6487
 20
-8.4657
 30
0.0
 10
128.845
 20
-9.3618
 30
0.0
 10
128.8873
 20
-10.4898
 30
0.0
 10
128.8873
 20
-10.4898
 30
0.0
 10
127.3187
 20
-11.7981
 30
0.0
 10
126.3241
 20
-12.55
 30
0.0
 10
124.6346
 20
-13.8357
 30
0.0
 10
124.6346
 20
-13.8357
 30
0.0
 10
124.9035
 20
-11.7297
 30
0.0
 10
125.0573
 20
-10.4924
 30
0.0
 10
125.4061
 20
-8.4798
 30
0.0
 10
125.4061
 20
-8.4798
 30
0.0
 10
125.4061
 20
-8.4798
 30
0.0
 10
125.4061
 20
-8.4799
 30
0.0
 10
125.4061
 20
-8.4799
 30
0.0
  0
SPLINE
  5
75
330
1F
100
AcDbEntity
  8
layer 1
 62
     7
100
AcDbSpline
210
0.0
220
0.0
230
1.0
 70
    11
 71
     3
 72
    24
 73
    20
 74
     0
 42
0.0000000001
 43
0.0000000001
 12
1.0
 22
0.0
 32
0.0
 13
1.0
 23
0.0
 33
0.0
 40
0.0
 40
0.0
 40
0.0
 40
0.0
 40
0.1666666666666667
 40
0.1666666666666667
 40
0.1666666666666667
 40
0.1666666666666667
 40
0.3333333333333333
 40
0.3333333333333333
 40
0.3333333333333333
 40
0.3333333333333333
 40
0.5
 40
0.5
 40
0.5
 40
0.5
 40
0.6666666666666666
 40
0.6666666666666666
 40
0.6666666666666666
 40
0.6666666666666666
 40
1.0
 40
1.0
 40
1.0
 40
1.0
 10
118.725
 20
-0.2785
 30
0.0
 10
119.8095
 20
-0.3092
 30
0.0
 10
120.7491
 20
-0.5171
 30
0.0
 10
121.5526
 20
-0.9667
 30
0.0
 10
121.5526
 20
-0.9667
 30
0.0
 10
121.5402
 20
-1.8874
 30
0.0
 10
121.2622
 20
-2.7617
 30
0.0
 10
120.7348
 20
-3.7597
 30
0.0
 10
120.7348
 20
-3.7597
 30
0.0
 10
118.7223
 20
-4.1084
 30
0.0
 10
117.485
 20
-4.2623
 30
0.0
 10
115.379
 20
-4.5311
 30
0.0
 10
115.379
 20
-4.5311
 30
0.0
 10
116.6648
 20
-2.8417
 30
0.0
 10
117.4167
 20
-1.8471
 30
0.0
 10
118.7249
 20
-0.2785
 30
0.0
 10
118.7249
 20
-0.2785
 30
0.0
 10
118.7249
 20
-0.2785
 30
0.0
 10
118.725
 20
-0.2785
 30
0.0
 10
118.725
 20
-0.2785
 30
0.0
  0
SPLINE
  5
76
330
1F
100
AcDbEntity
  8
layer 1
 62
     7
100
AcDbSpline
210
0.0
220
0.0
230
1.0
 70
    11
 71
     3
 72
    20
 73
    16
 74
     0
 42
0.0000000001
 43
0.0000000001
 12
1.0
 22
0.0
 32
0.0
 13
1.0
 23
0.0
 33
0.0
 40
0.0
 40
0.0
 40
0.0
 40
0.0
 40
0.2
 40
0.2
 40
0.2
 40
0.2
 40
0.4
 40
0.4
 40
0.4
 40
0.4
 40
0.6
 40
0.6
 40
0.6
 40
0.6
 40
1.0
 40
1.0
 40
1.0
 40
1.0
 10
126.8222
 20
-30.1949
 30
0.0
 10
128.1281
 20
-32.0939
 30
0.0
 10
129.7827
 20
-34.252
 30
0.0
 10
131.3674
 20
-36.0028
 30
0.0
 10
131.3674
 20
-36.0028
 30
0.0
 10
128.8539
 20
-37.7836
 30
0.0
 10
127.1438
 20
-38.7357
 30
0.0
 10
124.2957
 20
-40.3577
 30
0.0
 10
124.2957
 20
-40.3577
 30
0.0
 10
123.0595
 20
-38.4632
 30
0.0
 10
121.2308
 20
-34.8628
 30
0.0
 10
120.2874
 20
-33.1913
 30
0.0
 10
120.2874
 20
-33.1913
 30
0.0
 10
122.7762
 20
-31.9526
 30
0.0
 10
124.6342
 20
-31.3498
 30
0.0
 10
126.8222
 20
-30.1949
 30
0.0
  0
SPLINE
  5
77
330
1F
100
AcDbEntity
  8
layer 1
 62
     7
100
AcDbSpline
210
0.0
220
0.0
230
1.0
 70
    11
 71
     3
 72
    20
 73
    16
 74
     0
 42
0.0000000001
 43
0.0000000001
 12
1.0
 22
0.0
 32
0.0
 13
1.0
 23
0.0
 33
0.0
 40
0.0
 40
0.0
 40
0.0
 40
0.0
 40
0.2
 40
0.2
 40
0.2
 40
0.2
 40
0.4
 40
0.4
 40
0.4
 40
0.4
 40
0.6
 40
0.6
 40
0.6
 40
0.6
 40
1.0
 40
1.0
 40
1.0
 40
1.0
 10
98.8328
 20
-1.9596
 30
0.0
 10
97.8411
 20
-4.04
 30
0.0
 10
96.7995
 20
-6.552
 30
0.0
 10
96.0756
 20
-8.7999
 30
0.0
 10
96.0756
 20
-8.7999
 30
0.0
 10
93.2767
 20
-7.5134
 30
0.0
 10
91.5971
 20
-6.5086
 30
0.0
 10
88.7683
 20
-4.8531
 30
0.0
 10
88.7683
 20
-4.8531
 30
0.0
 10
89.7908
 20
-2.8352
 30
0.0
 10
91.9945
 20
0.5487
 30
0.0
 10
92.9704
 20
2.2015
 30
0.0
 10
92.9704
 20
2.2015
 30
0.0
 10
95.2875
 20
0.6653
 30
0.0
 10
96.7385
 20
-0.6423
 30
0.0
 10
98.8328
 20
-1.9596
 30
0.0
  0
SPLINE
  5
78
330
1F
100
AcDbEntity
  8
layer 1
 62
     7
100
AcDbSpline
210
0.0
220
0.0
230
1.0
 70
    11
 71
     3
 72
    24
 73
    20
 74
     0
 42
0.0000000001
 43
0.0000000001
 12
1.0
 22
0.0
 32
0.0
 13
1.0
 23
0.0
 33
0.0
 40
0.0
 40
0.0
 40
0.0
 40
0.0
 40
0.1666666666666667
 40
0.1666666666666667
 40
0.1666666666666667
 40
0.1666666666666667
 40
0.3333333333333333
 40
0.3333333333333333
 40
0.3333333333333333
 40
0.3333333333333333
 40
0.5
 40
0.5
 40
0.5
 40
0.5
 40
0.6666666666666666
 40
0.6666666666666666
 40
0.6666666666666666
 40
0.6666666666666666
 40
1.0
 40
1.0
 40
1.0
 40
1.0
 10
117.3125
 20
-20.131
 30
0.0
 10
117.4438
 20
-21.5257
 30
0.0
 10
117.8642
 20
-23.3834
 30
0.0
 10
118.1134
 20
-25.1165
 30
0.0
 10
118.1134
 20
-25.1165
 30
0.0
 10
119.739
 20
-24.4658
 30
0.0
 10
121.5579
 20
-23.901
 30
0.0
 10
122.8315
 20
-23.3174
 30
0.0
 10
122.8315
 20
-23.3174
 30
0.0
 10
122.4776
 20
-22.1309
 30
0.0
 10
121.3012
 20
-19.7657
 30
0.0
 10
121.1991
 20
-19.7718
 30
0.0
 10
121.1991
 20
-19.7718
 30
0.0
 10
121.1534
 20
-19.6804
 30
0.0
 10
118.5168
 20
-19.8441
 30
0.0
 10
117.3124
 20
-20.131
 30
0.0
 10
117.3124
 20
-20.131
 30
0.0
 10
117.3124
 20
-20.131
 30
0.0
 10
117.3125
 20
-20.131
 30
0.0
 10
117.3125
 20
-20.131
 30
0.0
  0
SPLINE
  5
79
330
1F
100
AcDbEntity
  8
layer 1
 62
     7
100
AcDbSpline
210
0.0
220
0.0
230
1.0
 70
    11
 71
     3
 72
    24
 73
    20
 74
     0
 42
0.0000000001
 43
0.0000000001
 12
1.0
 22
0.0
 32
0.0
 13
1.0
 23
0.0
 33
0.0
 40
0.0
 40
0.0
 40
0.0
 40
0.0
 40
0.1666666666666667
 40
0.1666666666666667
 40
0.1666666666666667
 40
0.1666666666666667
 40
0.3333333333333333
 40
0.3333333333333333
 40
0.3333333333333333
 40
0.3333333333333333
 40
0.5
 40
0.5
 40
0.5
 40
0.5
 40
0.6666666666666666
 40
0.6666666666666666
 40
0.6666666666666666
 40
0.6666666666666666
 40
1.0
 40
1.0
 40
1.0
 40
1.0
 10
105.8481
 20
-6.3171
 30
0.0
 10
105.2645
 20
-7.5906
 30
0.0
 10
104.6997
 20
-9.4096
 30
0.0
 10
104.049
 20
-11.0351
 30
0.0
 10
104.049
 20
-11.0351
 30
0.0
 10
105.7821
 20
-11.2844
 30
0.0
 10
107.6398
 20
-11.7048
 30
0.0
 10
109.0345
 20
-11.8361
 30
0.0
 10
109.0345
 20
-11.8361
 30
0.0
 10
109.3213
 20
-10.6316
 30
0.0
 10
109.4851
 20
-7.9951
 30
0.0
 10
109.3937
 20
-7.9493
 30
0.0
 10
109.3937
 20
-7.9493
 30
0.0
 10
109.3997
 20
-7.8473
 30
0.0
 10
107.0346
 20
-6.6708
 30
0.0
 10
105.8481
 20
-6.317
 30
0.0
 10
105.8481
 20
-6.317
 30
0.0
 10
105.8481
 20
-6.317
 30
0.0
 10
105.8481
 20
-6.3171
 30
0.0
 10
105.8481
 20
-6.3171
 30
0.0
  0
SPLINE
  5
7A
330
1F
100
AcDbEntity
  8
layer 1
 62
     7
100
AcDbSpline
210
0.0
220
0.0
230
1.0
 70
    11
 71
     3
 72
    20
 73
    16
 74
     0
 42
0.0000000001
 43
0.0000000001
 12
1.0
 22
0.0
 32
0.0
 13
1.0
 23
0.0
 33
0.0
 40
0.0
 40
0.0
 40
0.0
 40
0.0
 40
0.2
 40
0.2
 40
0.2
 40
0.2
 40
0.4
 40
0.4
 40
0.4
 40
0.4
 40
0.6
 40
0.6
 40
0.6
 40
0.6
 40
1.0
 40
1.0
 40
1.0
 40
1.0
 10
85.4911
 20
5.445
 30
0.0
 10
85.4911
 20
5.445
 30
0.0
 10
85.4911
 20
11.3103
 30
0.0
 10
85.4911
 20
11.3103
 30
0.0
 10
85.4911
 20
11.3103
 30
0.0
 10
86.123
 20
10.0605
 30
0.0
 10
86.9027
 20
9.2775
 30
0.0
 10
87.4612
 20
8.3776
 30
0.0
 10
87.4612
 20
8.3776
 30
0.0
 10
86.9027
 20
7.4777
 30
0.0
 10
86.1229
 20
6.6949
 30
0.0
 10
85.4911
 20
5.4449
 30
0.0
 10
85.4911
 20
5.4449
 30
0.0
 10
85.4911
 20
5.4449
 30
0.0
 10
85.4911
 20
5.445
 30
0.0
 10
85.4911
 20
5.445
 30
0.0
  0
SPLINE
  5
7B
330
1F
100
AcDbEntity
  8
layer 1
 62
     7
100
AcDbSpline
210
0.0
220
0.0
230
1.0
 70
    11
 71
     3
 72
    20
 73
    16
 74
     0
 42
0.0000000001
 43
0.0000000001
 12
1.0
 22
0.0
 32
0.0
 13
1.0
 23
0.0
 33
0.0
 40
0.0
 40
0.0
 40
0.0
 40
0.0
 40
0.2
 40
0.2
 40
0.2
 40
0.2
 40
0.4
 40
0.4
 40
0.4
 40
0.4
 40
0.6
 40
0.6
 40
0.6
 40
0.6
 40
1.0
 40
1.0
 40
1.0
 40
1.0
 10
135.3237
 20
-12.0819
 30
0.0
 10
135.8925
 20
-11.158
 30
0.0
 10
136.5424
 20
-10.4483
 30
0.0
 10
137.3335
 20
-9.9772
 30
0.0
 10
137.3335
 20
-9.9772
 30
0.0
 10
138.1247
 20
-10.4483
 30
0.0
 10
138.7428
 20
-11.1262
 30
0.0
 10
139.3434
 20
-12.0819
 30
0.0
 10
139.3434
 20
-12.0819
 30
0.0
 10
138.6391
 20
-13.9992
 30
0.0
 10
138.1537
 20
-15.1476
 30
0.0
 10
137.3335
 20
-17.1059
 30
0.0
 10
137.3335
 20
-17.1059
 30
0.0
 10
136.5133
 20
-15.1476
 30
0.0
 10
136.0279
 20
-13.9992
 30
0.0
 10
135.3237
 20
-12.0819
 30
0.0
  0
SPLINE
  5
7C
330
1F
100
AcDbEntity
  8
layer 1
 62
     7
100
AcDbSpline
210
0.0
220
0.0
230
1.0
 70
    11
 71
     3
 72
    20
 73
    16
 74
     0
 42
0.0000000001
 43
0.0000000001
 12
1.0
 22
0.0
 32
0.0
 13
1.0
 23
0.0
 33
0.0
 40
0.0
 40
0.0
 40
0.0
 40
0.0
 40
0.2
 40
0.2
 40
0.2
 40
0.2
 40
0.4
 40
0.4
 40
0.4
 40
0.4
 40
0.6
 40
0.6
 40
0.6
 40
0.6
 40
1.0
 40
1.0
 40
1.0
 40
1.0
 10
94.0198
 20
-16.8917
 30
0.0
 10
93.7566
 20
-20.1294
 30
0.0
 10
93.5886
 20
-22.8799
 30
0.0
 10
93.5406
 20
-26.1793
 30
0.0
 10
93.5406
 20
-26.1793
 30
0.0
 10
91.022
 20
-25.392
 30
0.0
 10
88.1152
 20
-24.4939
 30
0.0
 10
85.4911
 20
-24.2607
 30
0.0
 10
85.4911
 20
-24.2607
 30
0.0
 10
85.4911
 20
-24.2607
 30
0.0
 10
85.4911
 20
-12.7882
 30
0.0
 10
85.4911
 20
-12.7882
 30
0.0
 10
85.4911
 20
-12.7882
 30
0.0
 10
87.6714
 20
-14.143
 30
0.0
 10
92.0907
 20
-15.9632
 30
0.0
 10
94.0198
 20
-16.8917
 30
0.0
  0
SPLINE
  5
7D
330
1F
100
AcDbEntity
  8
layer 1
 62
     7
100
AcDbSpline
210
0.0
220
0.0
230
1.0
 70
    11
 71
     3
 72
    24
 73
    20
 74
     0
 42
0.0000000001
 43
0.0000000001
 12
1.0
 22
0.0
 32
0.0
 13
1.0
 23
0.0
 33
0.0
 40
0.0
 40
0.0
 40
0.0
 40
0.0
 40
0.1666666666666667
 40
0.1666666666666667
 40
0.1666666666666667
 40
0.1666666666666667
 40
0.3333333333333333
 40
0.3333333333333333
 40
0.3333333333333333
 40
0.3333333333333333
 40
0.5
 40
0.5
 40
0.5
 40
0.5
 40
0.6666666666666666
 40
0.6666666666666666
 40
0.6666666666666666
 40
0.6666666666666666
 40
1.0
 40
1.0
 40
1.0
 40
1.0
 10
108.9873
 20
-19.96
 30
0.0
 10
109.1688
 20
-22.2576
 30
0.0
 10
109.5227
 20
-24.9539
 30
0.0
 10
110.0198
 20
-27.2625
 30
0.0
 10
110.0198
 20
-27.2625
 30
0.0
 10
106.9525
 20
-27.5479
 30
0.0
 10
104.9956
 20
-27.5174
 30
0.0
 10
101.718
 20
-27.498
 30
0.0
 10
101.718
 20
-27.498
 30
0.0
 10
101.5946
 20
-25.2392
 30
0.0
 10
101.8112
 20
-21.2068
 30
0.0
 10
101.8299
 20
-19.2875
 30
0.0
 10
101.8299
 20
-19.2875
 30
0.0
 10
104.6047
 20
-19.4593
 30
0.0
 10
106.5151
 20
-19.8662
 30
0.0
 10
108.9873
 20
-19.96
 30
0.0
 10
108.9873
 20
-19.96
 30
0.0
 10
108.9873
 20
-19.96
 30
0.0
 10
108.9873
 20
-19.96
 30
0.0
 10
108.9873
 20
-19.96
 30
0.0
  0
SPLINE
  5
7E
330
1F
100
AcDbEntity
  8
layer 1
 62
     7
100
AcDbSpline
210
0.0
220
0.0
230
1.0
 70
    11
 71
     3
 72
    20
 73
    16
 74
     0
 42
0.0000000001
 43
0.0000000001
 12
1.0
 22
0.0
 32
0.0
 13
1.0
 23
0.0
 33
0.0
 40
0.0
 40
0.0
 40
0.0
 40
0.0
 40
0.2
 40
0.2
 40
0.2
 40
0.2
 40
0.4
 40
0.4
 40
0.4
 40
0.4
 40
0.6
 40
0.6
 40
0.6
 40
0.6
 40
1.0
 40
1.0
 40
1.0
 40
1.0
 10
134.1725
 20
-26.4114
 30
0.0
 10
134.9836
 20
-27.5537
 30
0.0
 10
136.2765
 20
-28.9523
 30
0.0
 10
137.3336
 20
-30.3285
 30
0.0
 10
137.3336
 20
-30.3285
 30
0.0
 10
138.3907
 20
-28.9523
 30
0.0
 10
139.6837
 20
-27.5537
 30
0.0
 10
140.4948
 20
-26.4114
 30
0.0
 10
140.4948
 20
-26.4114
 30
0.0
 10
139.5951
 20
-25.5608
 30
0.0
 10
137.3938
 20
-24.1007
 30
0.0
 10
137.3336
 20
-24.157
 30
0.0
 10
137.3336
 20
-24.157
 30
0.0
 10
137.2736
 20
-24.1007
 30
0.0
 10
135.0722
 20
-25.5608
 30
0.0
 10
134.1725
 20
-26.4114
 30
0.0
  0
SPLINE
  5
7F
330
1F
100
AcDbEntity
  8
layer 1
 62
     7
100
AcDbSpline
210
0.0
220
0.0
230
1.0
 70
    11
 71
     3
 72
    20
 73
    16
 74
     0
 42
0.0000000001
 43
0.0000000001
 12
1.0
 22
0.0
 32
0.0
 13
1.0
 23
0.0
 33
0.0
 40
0.0
 40
0.0
 40
0.0
 40
0.0
 40
0.2
 40
0.2
 40
0.2
 40
0.2
 40
0.4
 40
0.4
 40
0.4
 40
0.4
 40
0.6
 40
0.6
 40
0.6
 40
0.6
 40
1.0
 40
1.0
 40
1.0
 40
1.0
 10
94.2733
 20
-34.7465
 30
0.0
 10
94.9384
 20
-38.0418
 30
0.0
 10
95.2564
 20
-41.1111
 30
0.0
 10
96.3998
 20
-44.5532
 30
0.0
 10
96.3998
 20
-44.5532
 30
0.0
 10
93.5686
 20
-44.1965
 30
0.0
 10
89.2103
 20
-43.4393
 30
0.0
 10
85.4911
 20
-42.5235
 30
0.0
 10
85.4911
 20
-42.5235
 30
0.0
 10
85.4911
 20
-39.3373
 30
0.0
 10
85.4911
 20
-35.9294
 30
0.0
 10
85.4911
 20
-32.4641
 30
0.0
 10
85.4911
 20
-32.4641
 30
0.0
 10
88.7147
 20
-33.4313
 30
0.0
 10
91.2827
 20
-34.183
 30
0.0
 10
94.2733
 20
-34.7465
 30
0.0
  0
SPLINE
  5
80
330
1F
100
AcDbEntity
  8
layer 1
 62
     7
100
AcDbSpline
210
0.0
220
0.0
230
1.0
 70
    11
 71
     3
 72
    24
 73
    20
 74
     0
 42
0.0000000001
 43
0.0000000001
 12
1.0
 22
0.0
 32
0.0
 13
1.0
 23
0.0
 33
0.0
 40
0.0
 40
0.0
 40
0.0
 40
0.0
 40
0.1666666666666667
 40
0.1666666666666667
 40
0.1666666666666667
 40
0.1666666666666667
 40
0.3333333333333333
 40
0.3333333333333333
 40
0.3333333333333333
 40
0.3333333333333333
 40
0.5
 40
0.5
 40
0.5
 40
0.5
 40
0.6666666666666666
 40
0.6666666666666666
 40
0.6666666666666666
 40
0.6666666666666666
 40
1.0
 40
1.0
 40
1.0
 40
1.0
 10
112.4529
 20
-35.0096
 30
0.0
 10
112.638
 20
-36.6592
 30
0.0
 10
115.439
 20
-42.1358
 30
0.0
 10
116.457
 20
-43.4314
 30
0.0
 10
116.457
 20
-43.4314
 30
0.0
 10
114.1545
 20
-44.4668
 30
0.0
 10
108.152
 20
-45.1768
 30
0.0
 10
106.4556
 20
-45.18
 30
0.0
 10
106.4556
 20
-45.18
 30
0.0
 10
104.9398
 20
-42.2615
 30
0.0
 10
103.554
 20
-38.2748
 30
0.0
 10
102.9758
 20
-35.6482
 30
0.0
 10
102.9758
 20
-35.6482
 30
0.0
 10
105.4155
 20
-35.7177
 30
0.0
 10
109.0055
 20
-35.512
 30
0.0
 10
112.4528
 20
-35.0096
 30
0.0
 10
112.4528
 20
-35.0096
 30
0.0
 10
112.4528
 20
-35.0096
 30
0.0
 10
112.4529
 20
-35.0096
 30
0.0
 10
112.4529
 20
-35.0096
 30
0.0
  0
SPLINE
  5
81
330
1F
100
AcDbEntity
  8
layer 1
 62
     7
100
AcDbSpline
210
0.0
220
0.0
230
1.0
 70
    11
 71
     3
 72
    20
 73
    16
 74
     0
 42
0.0000000001
 43
0.0000000001
 12
1.0
 22
0.0
 32
0.0
 13
1.0
 23
0.0
 33
0.0
 40
0.0
 40
0.0
 40
0.0
 40
0.0
 40
0.2
 40
0.2
 40
0.2
 40
0.2
 40
0.4
 40
0.4
 40
0.4
 40
0.4
 40
0.6
 40
0.6
 40
0.6
 40
0.6
 40
1.0
 40
1.0
 40
1.0
 40
1.0
 10
129.1344
 20
-58.6802
 30
0.0
 10
130.1025
 20
-60.3228
 30
0.0
 10
130.6465
 20
-66.7152
 30
0.0
 10
127.6872
 20
-69.8961
 30
0.0
 10
127.6872
 20
-69.8961
 30
0.0
 10
123.8219
 20
-67.0401
 30
0.0
 10
114.9211
 20
-57.7402
 30
0.0
 10
112.4014
 20
-53.6721
 30
0.0
 10
112.4014
 20
-53.6721
 30
0.0
 10
115.3992
 20
-52.5764
 30
0.0
 10
118.2054
 20
-51.7504
 30
0.0
 10
121.3816
 20
-50.4696
 30
0.0
 10
121.3816
 20
-50.4696
 30
0.0
 10
122.7903
 20
-51.8176
 30
0.0
 10
127.9567
 20
-56.721
 30
0.0
 10
129.1344
 20
-58.6802
 30
0.0
  0
SPLINE
  5
82
330
1F
100
AcDbEntity
  8
layer 1
 62
     7
100
AcDbSpline
210
0.0
220
0.0
230
1.0
 70
    11
 71
     3
 72
    20
 73
    16
 74
     0
 42
0.0000000001
 43
0.0000000001
 12
1.0
 22
0.0
 32
0.0
 13
1.0
 23
0.0
 33
0.0
 40
0.0
 40
0.0
 40
0.0
 40
0.0
 40
0.2
 40
0.2
 40
0.2
 40
0.2
 40
0.4
 40
0.4
 40
0.4
 40
0.4
 40
0.6
 40
0.6
 40
0.6
 40
0.6
 40
1.0
 40
1.0
 40
1.0
 40
1.0
 10
102.8009
 20
-62.3109
 30
0.0
 10
100.6174
 20
-62.6125
 30
0.0
 10
98.165
 20
-62.8734
 30
0.0
 10
95.9095
 20
-63.5524
 30
0.0
 10
95.9095
 20
-63.5524
 30
0.0
 10
95.3276
 20
-61.4515
 30
0.0
 10
94.6156
 20
-59.0817
 30
0.0
 10
93.767
 20
-57.0867
 30
0.0
 10
93.767
 20
-57.0867
 30
0.0
 10
96.128
 20
-56.9314
 30
0.0
 10
97.7193
 20
-56.6311
 30
0.0
 10
100.1768
 20
-56.3144
 30
0.0
 10
100.1768
 20
-56.3144
 30
0.0
 10
100.8029
 20
-57.8072
 30
0.0
 10
101.9839
 20
-60.8745
 30
0.0
 10
102.8009
 20
-62.3109
 30
0.0
  0
SPLINE
  5
83
330
1F
100
AcDbEntity
  8
layer 1
 62
     7
100
AcDbSpline
210
0.0
220
0.0
230
1.0
 70
    11
 71
     3
 72
    16
 73
    12
 74
     0
 42
0.0000000001
 43
0.0000000001
 12
1.0
 22
0.0
 32
0.0
 13
1.0
 23
0.0
 33
0.0
 40
0.0
 40
0.0
 40
0.0
 40
0.0
 40
0.25
 40
0.25
 40
0.25
 40
0.25
 40
0.5
 40
0.5
 40
0.5
 40
0.5
 40
1.0
 40
1.0
 40
1.0
 40
1.0
 10
88.1776
 20
-66.9516
 30
0.0
 10
87.5866
 20
-67.2505
 30
0.0
 10
86.498
 20
-68.0431
 30
0.0
 10
85.4911
 20
-68.5116
 30
0.0
 10
85.4911
 20
-68.5116
 30
0.0
 10
85.4911
 20
-68.5116
 30
0.0
 10
85.4911
 20
-59.7004
 30
0.0
 10
85.4911
 20
-59.7004
 30
0.0
 10
85.4911
 20
-59.7004
 30
0.0
 10
86.3455
 20
-60.8125
 30
0.0
 10
87.6426
 20
-63.804
 30
0.0
 10
88.1776
 20
-66.9516
 30
0.0
  0
SPLINE
  5
84
330
1F
100
AcDbEntity
  8
layer 1
 62
     7
100
AcDbSpline
210
0.0
220
0.0
230
1.0
 70
    11
 71
     3
 72
    28
 73
    24
 74
     0
 42
0.0000000001
 43
0.0000000001
 12
1.0
 22
0.0
 32
0.0
 13
1.0
 23
0.0
 33
0.0
 40
0.0
 40
0.0
 40
0.0
 40
0.0
 40
0.1428571428571428
 40
0.1428571428571428
 40
0.1428571428571428
 40
0.1428571428571428
 40
0.2857142857142857
 40
0.2857142857142857
 40
0.2857142857142857
 40
0.2857142857142857
 40
0.4285714285714285
 40
0.4285714285714285
 40
0.4285714285714285
 40
0.4285714285714285
 40
0.5714285714285714
 40
0.5714285714285714
 40
0.5714285714285714
 40
0.5714285714285714
 40
0.7142857142857143
 40
0.7142857142857143
 40
0.7142857142857143
 40
0.7142857142857143
 40
1.0
 40
1.0
 40
1.0
 40
1.0
 10
106.1305
 20
-70.3716
 30
0.0
 10
100.3969
 20
-75.0019
 30
0.0
 10
100.9752
 20
-83.5731
 30
0.0
 10
107.5349
 20
-86.7382
 30
0.0
 10
107.5349
 20
-86.7382
 30
0.0
 10
107.299
 20
-88.8977
 30
0.0
 10
107.2974
 20
-92.1954
 30
0.0
 10
107.7288
 20
-94.4023
 30
0.0
 10
107.7288
 20
-94.4023
 30
0.0
 10
103.3914
 20
-88.9143
 30
0.0
 10
98.7129
 20
-87.2666
 30
0.0
 10
93.3779
 20
-86.8456
 30
0.0
 10
93.3779
 20
-86.8456
 30
0.0
 10
95.5246
 20
-82.655
 30
0.0
 10
97.1091
 20
-76.0578
 30
0.0
 10
96.8119
 20
-71.8432
 30
0.0
 10
96.8119
 20
-71.8432
 30
0.0
 10
100.6269
 20
-70.691
 30
0.0
 10
102.3052
 20
-70.6585
 30
0.0
 10
106.1304
 20
-70.3716
 30
0.0
 10
106.1304
 20
-70.3716
 30
0.0
 10
106.1304
 20
-70.3716
 30
0.0
 10
106.1305
 20
-70.3716
 30
0.0
 10
106.1305
 20
-70.3716
 30
0.0
  0
SPLINE
  5
85
330
1F
100
AcDbEntity
  8
layer 1
 62
     7
100
AcDbSpline
210
0.0
220
0.0
230
1.0
 70
    11
 71
     3
 72
    12
 73
     8
 74
     0
 42
0.0000000001
 43
0.0000000001
 12
1.0
 22
0.0
 32
0.0
 13
1.0
 23
0.0
 33
0.0
 40
0.0
 40
0.0
 40
0.0
 40
0.0
 40
0.3333333333333333
 40
0.3333333333333333
 40
0.3333333333333333
 40
0.3333333333333333
 40
1.0
 40
1.0
 40
1.0
 40
1.0
 10
119.7723
 20
-74.5029
 30
0.0
 10
117.2511
 20
-75.4829
 30
0.0
 10
111.6306
 20
-73.4065
 30
0.0
 10
109.9344
 20
-70.8716
 30
0.0
 10
109.9344
 20
-70.8716
 30
0.0
 10
112.092
 20
-70.869
 30
0.0
 10
116.9289
 20
-72.3851
 30
0.0
 10
119.7723
 20
-74.5029
 30
0.0
  0
SPLINE
  5
86
330
1F
100
AcDbEntity
  8
layer 1
 62
     7
100
AcDbSpline
210
0.0
220
0.0
230
1.0
 70
    11
 71
     3
 72
    16
 73
    12
 74
     0
 42
0.0000000001
 43
0.0000000001
 12
1.0
 22
0.0
 32
0.0
 13
1.0
 23
0.0
 33
0.0
 40
0.0
 40
0.0
 40
0.0
 40
0.0
 40
0.25
 40
0.25
 40
0.25
 40
0.25
 40
0.5
 40
0.5
 40
0.5
 40
0.5
 40
1.0
 40
1.0
 40
1.0
 40
1.0
 10
85.4911
 20
-84.1528
 30
0.0
 10
85.4911
 20
-84.1528
 30
0.0
 10
85.4911
 20
-79.6301
 30
0.0
 10
85.4911
 20
-79.6301
 30
0.0
 10
85.4911
 20
-79.6301
 30
0.0
 10
86.2205
 20
-78.8469
 30
0.0
 10
86.9729
 20
-78.1051
 30
0.0
 10
87.9798
 20
-77.2902
 30
0.0
 10
87.9798
 20
-77.2902
 30
0.0
 10
87.6475
 20
-79.2828
 30
0.0
 10
86.5994
 20
-82.053
 30
0.0
 10
85.4911
 20
-84.1528
 30
0.0
  0
SPLINE
  5
87
330
1F
100
AcDbEntity
  8
layer 1
 62
     7
100
AcDbSpline
210
0.0
220
0.0
230
1.0
 70
    11
 71
     3
 72
    20
 73
    16
 74
     0
 42
0.0000000001
 43
0.0000000001
 12
1.0
 22
0.0
 32
0.0
 13
1.0
 23
0.0
 33
0.0
 40
0.0
 40
0.0
 40
0.0
 40
0.0
 40
0.2
 40
0.2
 40
0.2
 40
0.2
 40
0.4
 40
0.4
 40
0.4
 40
0.4
 40
0.6
 40
0.6
 40
0.6
 40
0.6
 40
1.0
 40
1.0
 40
1.0
 40
1.0
 10
130.6277
 20
-87.5758
 30
0.0
 10
124.704
 20
-90.5936
 30
0.0
 10
125.7996
 20
-98.3265
 30
0.0
 10
132.0563
 20
-99.7025
 30
0.0
 10
132.0563
 20
-99.7025
 30
0.0
 10
131.8642
 20
-101.2537
 30
0.0
 10
130.8572
 20
-105.924
 30
0.0
 10
129.8364
 20
-107.6239
 30
0.0
 10
129.8364
 20
-107.6239
 30
0.0
 10
122.2078
 20
-99.4795
 30
0.0
 10
122.371
 20
-87.4699
 30
0.0
 10
127.4669
 20
-81.579
 30
0.0
 10
127.4669
 20
-81.579
 30
0.0
 10
128.4286
 20
-83.1595
 30
0.0
 10
129.5188
 20
-85.2357
 30
0.0
 10
130.6277
 20
-87.5758
 30
0.0
  0
SPLINE
  5
88
330
1F
100
AcDbEntity
  8
layer 1
 62
     7
100
AcDbSpline
210
0.0
220
0.0
230
1.0
 70
    11
 71
     3
 72
    28
 73
    24
 74
     0
 42
0.0000000001
 43
0.0000000001
 12
1.0
 22
0.0
 32
0.0
 13
1.0
 23
0.0
 33
0.0
 40
0.0
 40
0.0
 40
0.0
 40
0.0
 40
0.1428571428571428
 40
0.1428571428571428
 40
0.1428571428571428
 40
0.1428571428571428
 40
0.2857142857142857
 40
0.2857142857142857
 40
0.2857142857142857
 40
0.2857142857142857
 40
0.4285714285714285
 40
0.4285714285714285
 40
0.4285714285714285
 40
0.4285714285714285
 40
0.5714285714285714
 40
0.5714285714285714
 40
0.5714285714285714
 40
0.5714285714285714
 40
0.7142857142857143
 40
0.7142857142857143
 40
0.7142857142857143
 40
0.7142857142857143
 40
1.0
 40
1.0
 40
1.0
 40
1.0
 10
95.8845
 20
-95.5252
 30
0.0
 10
100.8718
 20
-98.9542
 30
0.0
 10
98.606
 20
-105.3177
 30
0.0
 10
93.4978
 20
-105.3982
 30
0.0
 10
93.4978
 20
-105.3982
 30
0.0
 10
90.8956
 20
-105.0806
 30
0.0
 10
89.8094
 20
-104.2742
 30
0.0
 10
88.5593
 20
-102.4201
 30
0.0
 10
88.5593
 20
-102.4201
 30
0.0
 10
87.5128
 20
-102.6843
 30
0.0
 10
86.2797
 20
-103.1214
 30
0.0
 10
85.491
 20
-103.7545
 30
0.0
 10
85.491
 20
-103.7545
 30
0.0
 10
85.491
 20
-103.7545
 30
0.0
 10
85.491
 20
-97.0186
 30
0.0
 10
85.491
 20
-97.0186
 30
0.0
 10
85.491
 20
-97.0186
 30
0.0
 10
88.6938
 20
-94.7801
 30
0.0
 10
93.3423
 20
-94.2981
 30
0.0
 10
95.8844
 20
-95.5252
 30
0.0
 10
95.8844
 20
-95.5252
 30
0.0
 10
95.8844
 20
-95.5252
 30
0.0
 10
95.8845
 20
-95.5252
 30
0.0
 10
95.8845
 20
-95.5252
 30
0.0
  0
SPLINE
  5
89
330
1F
100
AcDbEntity
  8
layer 1
 62
     7
100
AcDbSpline
210
0.0
220
0.0
230
1.0
 70
    11
 71
     3
 72
    20
 73
    16
 74
     0
 42
0.0000000001
 43
0.0000000001
 12
1.0
 22
0.0
 32
0.0
 13
1.0
 23
0.0
 33
0.0
 40
0.0
 40
0.0
 40
0.0
 40
0.0
 40
0.2
 40
0.2
 40
0.2
 40
0.2
 40
0.4
 40
0.4
 40
0.4
 40
0.4
 40
0.6
 40
0.6
 40
0.6
 40
0.6
 40
1.0
 40
1.0
 40
1.0
 40
1.0
 10
115.0513
 20
-108.5231
 30
0.0
 10
115.0513
 20
-108.5231
 30
0.0
 10
109.1821
 20
-108.5231
 30
0.0
 10
109.1821
 20
-108.5231
 30
0.0
 10
109.1821
 20
-108.5231
 30
0.0
 10
109.7322
 20
-106.6416
 30
0.0
 10
110.1239
 20
-103.6166
 30
0.0
 10
109.6748
 20
-100.793
 30
0.0
 10
109.6748
 20
-100.793
 30
0.0
 10
110.8382
 20
-103.3265
 30
0.0
 10
112.7585
 20
-106.4048
 30
0.0
 10
115.0514
 20
-108.5231
 30
0.0
 10
115.0514
 20
-108.5231
 30
0.0
 10
115.0514
 20
-108.5231
 30
0.0
 10
115.0513
 20
-108.5231
 30
0.0
 10
115.0513
 20
-108.5231
 30
0.0
  0
SPLINE
  5
8A
330
1F
100
AcDbEntity
  8
layer 1
 62
     7
100
AcDbSpline
210
0.0
220
0.0
230
1.0
 70
    11
 71
     3
 72
    20
 73
    16
 74
     0
 42
0.0000000001
 43
0.0000000001
 12
1.0
 22
0.0
 32
0.0
 13
1.0
 23
0.0
 33
0.0
 40
0.0
 40
0.0
 40
0.0
 40
0.0
 40
0.2
 40
0.2
 40
0.2
 40
0.2
 40
0.4
 40
0.4
 40
0.4
 40
0.4
 40
0.6
 40
0.6
 40
0.6
 40
0.6
 40
1.0
 40
1.0
 40
1.0
 40
1.0
 10
147.845
 20
-30.1949
 30
0.0
 10
146.5391
 20
-32.0939
 30
0.0
 10
144.8844
 20
-34.252
 30
0.0
 10
143.2997
 20
-36.0028
 30
0.0
 10
143.2997
 20
-36.0028
 30
0.0
 10
145.8133
 20
-37.7836
 30
0.0
 10
147.5233
 20
-38.7357
 30
0.0
 10
150.3714
 20
-40.3577
 30
0.0
 10
150.3714
 20
-40.3577
 30
0.0
 10
151.6077
 20
-38.4632
 30
0.0
 10
153.4364
 20
-34.8628
 30
0.0
 10
154.3798
 20
-33.1913
 30
0.0
 10
154.3798
 20
-33.1913
 30
0.0
 10
151.8909
 20
-31.9526
 30
0.0
 10
150.033
 20
-31.3498
 30
0.0
 10
147.845
 20
-30.1949
 30
0.0
  0
SPLINE
  5
8B
330
1F
100
AcDbEntity
  8
layer 1
 62
     7
100
AcDbSpline
210
0.0
220
0.0
230
1.0
 70
    11
 71
     3
 72
    20
 73
    16
 74
     0
 42
0.0000000001
 43
0.0000000001
 12
1.0
 22
0.0
 32
0.0
 13
1.0
 23
0.0
 33
0.0
 40
0.0
 40
0.0
 40
0.0
 40
0.0
 40
0.2
 40
0.2
 40
0.2
 40
0.2
 40
0.4
 40
0.4
 40
0.4
 40
0.4
 40
0.6
 40
0.6
 40
0.6
 40
0.6
 40
1.0
 40
1.0
 40
1.0
 40
1.0
 10
175.8344
 20
-1.9596
 30
0.0
 10
176.8261
 20
-4.04
 30
0.0
 10
177.8677
 20
-6.552
 30
0.0
 10
178.5916
 20
-8.7999
 30
0.0
 10
178.5916
 20
-8.7999
 30
0.0
 10
181.3905
 20
-7.5134
 30
0.0
 10
183.0701
 20
-6.5086
 30
0.0
 10
185.8989
 20
-4.8531
 30
0.0
 10
185.8989
 20
-4.8531
 30
0.0
 10
184.8764
 20
-2.8352
 30
0.0
 10
182.6727
 20
0.5487
 30
0.0
 10
181.6968
 20
2.2015
 30
0.0
 10
181.6968
 20
2.2015
 30
0.0
 10
179.3797
 20
0.6653
 30
0.0
 10
177.9286
 20
-0.6423
 30
0.0
 10
175.8344
 20
-1.9596
 30
0.0
  0
SPLINE
  5
8C
330
1F
100
AcDbEntity
  8
layer 1
 62
     7
100
AcDbSpline
210
0.0
220
0.0
230
1.0
 70
    11
 71
     3
 72
    24
 73
    20
 74
     0
 42
0.0000000001
 43
0.0000000001
 12
1.0
 22
0.0
 32
0.0
 13
1.0
 23
0.0
 33
0.0
 40
0.0
 40
0.0
 40
0.0
 40
0.0
 40
0.1666666666666667
 40
0.1666666666666667
 40
0.1666666666666667
 40
0.1666666666666667
 40
0.3333333333333333
 40
0.3333333333333333
 40
0.3333333333333333
 40
0.3333333333333333
 40
0.5
 40
0.5
 40
0.5
 40
0.5
 40
0.6666666666666666
 40
0.6666666666666666
 40
0.6666666666666666
 40
0.6666666666666666
 40
1.0
 40
1.0
 40
1.0
 40
1.0
 10
157.3547
 20
-20.131
 30
0.0
 10
157.2234
 20
-21.5257
 30
0.0
 10
156.803
 20
-23.3834
 30
0.0
 10
156.5537
 20
-25.1165
 30
0.0
 10
156.5537
 20
-25.1165
 30
0.0
 10
154.9282
 20
-24.4658
 30
0.0
 10
153.1093
 20
-23.901
 30
0.0
 10
151.8357
 20
-23.3174
 30
0.0
 10
151.8357
 20
-23.3174
 30
0.0
 10
152.1896
 20
-22.1309
 30
0.0
 10
153.366
 20
-19.7657
 30
0.0
 10
153.468
 20
-19.7718
 30
0.0
 10
153.468
 20
-19.7718
 30
0.0
 10
153.5138
 20
-19.6804
 30
0.0
 10
156.1504
 20
-19.8441
 30
0.0
 10
157.3548
 20
-20.131
 30
0.0
 10
157.3548
 20
-20.131
 30
0.0
 10
157.3548
 20
-20.131
 30
0.0
 10
157.3547
 20
-20.131
 30
0.0
 10
157.3547
 20
-20.131
 30
0.0
  0
SPLINE
  5
8D
330
1F
100
AcDbEntity
  8
layer 1
 62
     7
100
AcDbSpline
210
0.0
220
0.0
230
1.0
 70
    11
 71
     3
 72
    24
 73
    20
 74
     0
 42
0.0000000001
 43
0.0000000001
 12
1.0
 22
0.0
 32
0.0
 13
1.0
 23
0.0
 33
0.0
 40
0.0
 40
0.0
 40
0.0
 40
0.0
 40
0.1666666666666667
 40
0.1666666666666667
 40
0.1666666666666667
 40
0.1666666666666667
 40
0.3333333333333333
 40
0.3333333333333333
 40
0.3333333333333333
 40
0.3333333333333333
 40
0.5
 40
0.5
 40
0.5
 40
0.5
 40
0.6666666666666666
 40
0.6666666666666666
 40
0.6666666666666666
 40
0.6666666666666666
 40
1.0
 40
1.0
 40
1.0
 40
1.0
 10
168.819
 20
-6.3171
 30
0.0
 10
169.4027
 20
-7.5906
 30
0.0
 10
169.9674
 20
-9.4096
 30
0.0
 10
170.6181
 20
-11.0351
 30
0.0
 10
170.6181
 20
-11.0351
 30
0.0
 10
168.8851
 20
-11.2844
 30
0.0
 10
167.0274
 20
-11.7048
 30
0.0
 10
165.6327
 20
-11.8361
 30
0.0
 10
165.6327
 20
-11.8361
 30
0.0
 10
165.3459
 20
-10.6316
 30
0.0
 10
165.1821
 20
-7.9951
 30
0.0
 10
165.2734
 20
-7.9493
 30
0.0
 10
165.2734
 20
-7.9493
 30
0.0
 10
165.2675
 20
-7.8473
 30
0.0
 10
167.6326
 20
-6.6708
 30
0.0
 10
168.819
 20
-6.317
 30
0.0
 10
168.819
 20
-6.317
 30
0.0
 10
168.819
 20
-6.317
 30
0.0
 10
168.819
 20
-6.3171
 30
0.0
 10
168.819
 20
-6.3171
 30
0.0
  0
SPLINE
  5
8E
330
1F
100
AcDbEntity
  8
layer 1
 62
     7
100
AcDbSpline
210
0.0
220
0.0
230
1.0
 70
    11
 71
     3
 72
    20
 73
    16
 74
     0
 42
0.0000000001
 43
0.0000000001
 12
1.0
 22
0.0
 32
0.0
 13
1.0
 23
0.0
 33
0.0
 40
0.0
 40
0.0
 40
0.0
 40
0.0
 40
0.2
 40
0.2
 40
0.2
 40
0.2
 40
0.4
 40
0.4
 40
0.4
 40
0.4
 40
0.6
 40
0.6
 40
0.6
 40
0.6
 40
1.0
 40
1.0
 40
1.0
 40
1.0
 10
180.6474
 20
-16.8917
 30
0.0
 10
180.9106
 20
-20.1294
 30
0.0
 10
181.0785
 20
-22.8799
 30
0.0
 10
181.1266
 20
-26.1793
 30
0.0
 10
181.1266
 20
-26.1793
 30
0.0
 10
183.6452
 20
-25.392
 30
0.0
 10
186.5519
 20
-24.4939
 30
0.0
 10
189.176
 20
-24.2607
 30
0.0
 10
189.176
 20
-24.2607
 30
0.0
 10
189.176
 20
-24.2607
 30
0.0
 10
189.176
 20
-12.7882
 30
0.0
 10
189.176
 20
-12.7882
 30
0.0
 10
189.176
 20
-12.7882
 30
0.0
 10
186.9958
 20
-14.143
 30
0.0
 10
182.5765
 20
-15.9632
 30
0.0
 10
180.6474
 20
-16.8917
 30
0.0
  0
SPLINE
  5
8F
330
1F
100
AcDbEntity
  8
layer 1
 62
     7
100
AcDbSpline
210
0.0
220
0.0
230
1.0
 70
    11
 71
     3
 72
    24
 73
    20
 74
     0
 42
0.0000000001
 43
0.0000000001
 12
1.0
 22
0.0
 32
0.0
 13
1.0
 23
0.0
 33
0.0
 40
0.0
 40
0.0
 40
0.0
 40
0.0
 40
0.1666666666666667
 40
0.1666666666666667
 40
0.1666666666666667
 40
0.1666666666666667
 40
0.3333333333333333
 40
0.3333333333333333
 40
0.3333333333333333
 40
0.3333333333333333
 40
0.5
 40
0.5
 40
0.5
 40
0.5
 40
0.6666666666666666
 40
0.6666666666666666
 40
0.6666666666666666
 40
0.6666666666666666
 40
1.0
 40
1.0
 40
1.0
 40
1.0
 10
165.6798
 20
-19.96
 30
0.0
 10
165.4984
 20
-22.2576
 30
0.0
 10
165.1445
 20
-24.9539
 30
0.0
 10
164.6474
 20
-27.2625
 30
0.0
 10
164.6474
 20
-27.2625
 30
0.0
 10
167.7146
 20
-27.5479
 30
0.0
 10
169.6716
 20
-27.5174
 30
0.0
 10
172.9491
 20
-27.498
 30
0.0
 10
172.9491
 20
-27.498
 30
0.0
 10
173.0726
 20
-25.2392
 30
0.0
 10
172.856
 20
-21.2068
 30
0.0
 10
172.8373
 20
-19.2875
 30
0.0
 10
172.8373
 20
-19.2875
 30
0.0
 10
170.0625
 20
-19.4593
 30
0.0
 10
168.1521
 20
-19.8662
 30
0.0
 10
165.6798
 20
-19.96
 30
0.0
 10
165.6798
 20
-19.96
 30
0.0
 10
165.6798
 20
-19.96
 30
0.0
 10
165.6798
 20
-19.96
 30
0.0
 10
165.6798
 20
-19.96
 30
0.0
  0
SPLINE
  5
90
330
1F
100
AcDbEntity
  8
layer 1
 62
     7
100
AcDbSpline
210
0.0
220
0.0
230
1.0
 70
    11
 71
     3
 72
    20
 73
    16
 74
     0
 42
0.0000000001
 43
0.0000000001
 12
1.0
 22
0.0
 32
0.0
 13
1.0
 23
0.0
 33
0.0
 40
0.0
 40
0.0
 40
0.0
 40
0.0
 40
0.2
 40
0.2
 40
0.2
 40
0.2
 40
0.4
 40
0.4
 40
0.4
 40
0.4
 40
0.6
 40
0.6
 40
0.6
 40
0.6
 40
1.0
 40
1.0
 40
1.0
 40
1.0
 10
180.3938
 20
-34.7465
 30
0.0
 10
179.7288
 20
-38.0418
 30
0.0
 10
179.4108
 20
-41.1111
 30
0.0
 10
178.2674
 20
-44.5532
 30
0.0
 10
178.2674
 20
-44.5532
 30
0.0
 10
181.0986
 20
-44.1965
 30
0.0
 10
185.4569
 20
-43.4393
 30
0.0
 10
189.176
 20
-42.5235
 30
0.0
 10
189.176
 20
-42.5235
 30
0.0
 10
189.176
 20
-39.3373
 30
0.0
 10
189.176
 20
-35.9294
 30
0.0
 10
189.176
 20
-32.4641
 30
0.0
 10
189.176
 20
-32.4641
 30
0.0
 10
185.9525
 20
-33.4313
 30
0.0
 10
183.3845
 20
-34.183
 30
0.0
 10
180.3938
 20
-34.7465
 30
0.0
  0
SPLINE
  5
91
330
1F
100
AcDbEntity
  8
layer 1
 62
     7
100
AcDbSpline
210
0.0
220
0.0
230
1.0
 70
    11
 71
     3
 72
    24
 73
    20
 74
     0
 42
0.0000000001
 43
0.0000000001
 12
1.0
 22
0.0
 32
0.0
 13
1.0
 23
0.0
 33
0.0
 40
0.0
 40
0.0
 40
0.0
 40
0.0
 40
0.1666666666666667
 40
0.1666666666666667
 40
0.1666666666666667
 40
0.1666666666666667
 40
0.3333333333333333
 40
0.3333333333333333
 40
0.3333333333333333
 40
0.3333333333333333
 40
0.5
 40
0.5
 40
0.5
 40
0.5
 40
0.6666666666666666
 40
0.6666666666666666
 40
0.6666666666666666
 40
0.6666666666666666
 40
1.0
 40
1.0
 40
1.0
 40
1.0
 10
162.2143
 20
-35.0096
 30
0.0
 10
162.0292
 20
-36.6592
 30
0.0
 10
159.2282
 20
-42.1358
 30
0.0
 10
158.2102
 20
-43.4314
 30
0.0
 10
158.2102
 20
-43.4314
 30
0.0
 10
160.5127
 20
-44.4668
 30
0.0
 10
166.5152
 20
-45.1768
 30
0.0
 10
168.2116
 20
-45.18
 30
0.0
 10
168.2116
 20
-45.18
 30
0.0
 10
169.7274
 20
-42.2615
 30
0.0
 10
171.1132
 20
-38.2748
 30
0.0
 10
171.6914
 20
-35.6482
 30
0.0
 10
171.6914
 20
-35.6482
 30
0.0
 10
169.2516
 20
-35.7177
 30
0.0
 10
165.6617
 20
-35.512
 30
0.0
 10
162.2144
 20
-35.0096
 30
0.0
 10
162.2144
 20
-35.0096
 30
0.0
 10
162.2144
 20
-35.0096
 30
0.0
 10
162.2143
 20
-35.0096
 30
0.0
 10
162.2143
 20
-35.0096
 30
0.0
  0
SPLINE
  5
92
330
1F
100
AcDbEntity
  8
layer 1
 62
     7
100
AcDbSpline
210
0.0
220
0.0
230
1.0
 70
    11
 71
     3
 72
    20
 73
    16
 74
     0
 42
0.0000000001
 43
0.0000000001
 12
1.0
 22
0.0
 32
0.0
 13
1.0
 23
0.0
 33
0.0
 40
0.0
 40
0.0
 40
0.0
 40
0.0
 40
0.2
 40
0.2
 40
0.2
 40
0.2
 40
0.4
 40
0.4
 40
0.4
 40
0.4
 40
0.6
 40
0.6
 40
0.6
 40
0.6
 40
1.0
 40
1.0
 40
1.0
 40
1.0
 10
145.1368
 20
-46.9122
 30
0.0
 10
142.0868
 20
-49.6398
 30
0.0
 10
138.2205
 20
-53.3518
 30
0.0
 10
137.3336
 20
-57.3717
 30
0.0
 10
137.3336
 20
-57.3717
 30
0.0
 10
136.4468
 20
-53.3518
 30
0.0
 10
132.5805
 20
-49.6398
 30
0.0
 10
129.5304
 20
-46.9122
 30
0.0
 10
129.5304
 20
-46.9122
 30
0.0
 10
132.5284
 20
-45.1823
 30
0.0
 10
134.7995
 20
-43.805
 30
0.0
 10
137.3336
 20
-41.8319
 30
0.0
 10
137.3336
 20
-41.8319
 30
0.0
 10
139.8679
 20
-43.805
 30
0.0
 10
142.1389
 20
-45.1823
 30
0.0
 10
145.1368
 20
-46.9122
 30
0.0
  0
SPLINE
  5
93
330
1F
100
AcDbEntity
  8
layer 1
 62
     7
100
AcDbSpline
210
0.0
220
0.0
230
1.0
 70
    11
 71
     3
 72
    20
 73
    16
 74
     0
 42
0.0000000001
 43
0.0000000001
 12
1.0
 22
0.0
 32
0.0
 13
1.0
 23
0.0
 33
0.0
 40
0.0
 40
0.0
 40
0.0
 40
0.0
 40
0.2
 40
0.2
 40
0.2
 40
0.2
 40
0.4
 40
0.4
 40
0.4
 40
0.4
 40
0.6
 40
0.6
 40
0.6
 40
0.6
 40
1.0
 40
1.0
 40
1.0
 40
1.0
 10
145.5328
 20
-58.6802
 30
0.0
 10
144.5647
 20
-60.3228
 30
0.0
 10
144.0206
 20
-66.7152
 30
0.0
 10
146.98
 20
-69.8961
 30
0.0
 10
146.98
 20
-69.8961
 30
0.0
 10
150.8453
 20
-67.0401
 30
0.0
 10
159.7461
 20
-57.7402
 30
0.0
 10
162.2658
 20
-53.6721
 30
0.0
 10
162.2658
 20
-53.6721
 30
0.0
 10
159.268
 20
-52.5764
 30
0.0
 10
156.4618
 20
-51.7504
 30
0.0
 10
153.2856
 20
-50.4696
 30
0.0
 10
153.2856
 20
-50.4696
 30
0.0
 10
151.8769
 20
-51.8176
 30
0.0
 10
146.7105
 20
-56.721
 30
0.0
 10
145.5328
 20
-58.6802
 30
0.0
  0
SPLINE
  5
94
330
1F
100
AcDbEntity
  8
layer 1
 62
     7
100
AcDbSpline
210
0.0
220
0.0
230
1.0
 70
    11
 71
     3
 72
    20
 73
    16
 74
     0
 42
0.0000000001
 43
0.0000000001
 12
1.0
 22
0.0
 32
0.0
 13
1.0
 23
0.0
 33
0.0
 40
0.0
 40
0.0
 40
0.0
 40
0.0
 40
0.2
 40
0.2
 40
0.2
 40
0.2
 40
0.4
 40
0.4
 40
0.4
 40
0.4
 40
0.6
 40
0.6
 40
0.6
 40
0.6
 40
1.0
 40
1.0
 40
1.0
 40
1.0
 10
171.8663
 20
-62.3109
 30
0.0
 10
174.0497
 20
-62.6125
 30
0.0
 10
176.5022
 20
-62.8734
 30
0.0
 10
178.7577
 20
-63.5524
 30
0.0
 10
178.7577
 20
-63.5524
 30
0.0
 10
179.3396
 20
-61.4515
 30
0.0
 10
180.0516
 20
-59.0817
 30
0.0
 10
180.9002
 20
-57.0867
 30
0.0
 10
180.9002
 20
-57.0867
 30
0.0
 10
178.5392
 20
-56.9314
 30
0.0
 10
176.9479
 20
-56.6311
 30
0.0
 10
174.4904
 20
-56.3144
 30
0.0
 10
174.4904
 20
-56.3144
 30
0.0
 10
173.8643
 20
-57.8072
 30
0.0
 10
172.6832
 20
-60.8745
 30
0.0
 10
171.8663
 20
-62.3109
 30
0.0
  0
SPLINE
  5
95
330
1F
100
AcDbEntity
  8
layer 1
 62
     7
100
AcDbSpline
210
0.0
220
0.0
230
1.0
 70
    11
 71
     3
 72
    16
 73
    12
 74
     0
 42
0.0000000001
 43
0.0000000001
 12
1.0
 22
0.0
 32
0.0
 13
1.0
 23
0.0
 33
0.0
 40
0.0
 40
0.0
 40
0.0
 40
0.0
 40
0.25
 40
0.25
 40
0.25
 40
0.25
 40
0.5
 40
0.5
 40
0.5
 40
0.5
 40
1.0
 40
1.0
 40
1.0
 40
1.0
 10
186.4895
 20
-66.9516
 30
0.0
 10
187.0806
 20
-67.2505
 30
0.0
 10
188.1692
 20
-68.0431
 30
0.0
 10
189.176
 20
-68.5116
 30
0.0
 10
189.176
 20
-68.5116
 30
0.0
 10
189.176
 20
-68.5116
 30
0.0
 10
189.176
 20
-59.7004
 30
0.0
 10
189.176
 20
-59.7004
 30
0.0
 10
189.176
 20
-59.7004
 30
0.0
 10
188.3216
 20
-60.8125
 30
0.0
 10
187.0246
 20
-63.804
 30
0.0
 10
186.4895
 20
-66.9516
 30
0.0
  0
SPLINE
  5
96
330
1F
100
AcDbEntity
  8
layer 1
 62
     7
100
AcDbSpline
210
0.0
220
0.0
230
1.0
 70
    11
 71
     3
 72
    20
 73
    16
 74
     0
 42
0.0000000001
 43
0.0000000001
 12
1.0
 22
0.0
 32
0.0
 13
1.0
 23
0.0
 33
0.0
 40
0.0
 40
0.0
 40
0.0
 40
0.0
 40
0.2
 40
0.2
 40
0.2
 40
0.2
 40
0.4
 40
0.4
 40
0.4
 40
0.4
 40
0.6
 40
0.6
 40
0.6
 40
0.6
 40
1.0
 40
1.0
 40
1.0
 40
1.0
 10
141.0578
 20
-76.0149
 30
0.0
 10
139.8534
 20
-77.8192
 30
0.0
 10
138.0095
 20
-80.5264
 30
0.0
 10
137.3336
 20
-82.3444
 30
0.0
 10
137.3336
 20
-82.3444
 30
0.0
 10
136.6577
 20
-80.5264
 30
0.0
 10
134.8139
 20
-77.8192
 30
0.0
 10
133.6095
 20
-76.0149
 30
0.0
 10
133.6095
 20
-76.0149
 30
0.0
 10
135.1773
 20
-73.9713
 30
0.0
 10
136.9126
 20
-70.9959
 30
0.0
 10
137.3336
 20
-68.8414
 30
0.0
 10
137.3336
 20
-68.8414
 30
0.0
 10
137.7548
 20
-70.9959
 30
0.0
 10
139.49
 20
-73.9713
 30
0.0
 10
141.0578
 20
-76.0149
 30
0.0
  0
SPLINE
  5
97
330
1F
100
AcDbEntity
  8
layer 1
 62
     7
100
AcDbSpline
210
0.0
220
0.0
230
1.0
 70
    11
 71
     3
 72
    28
 73
    24
 74
     0
 42
0.0000000001
 43
0.0000000001
 12
1.0
 22
0.0
 32
0.0
 13
1.0
 23
0.0
 33
0.0
 40
0.0
 40
0.0
 40
0.0
 40
0.0
 40
0.1428571428571428
 40
0.1428571428571428
 40
0.1428571428571428
 40
0.1428571428571428
 40
0.2857142857142857
 40
0.2857142857142857
 40
0.2857142857142857
 40
0.2857142857142857
 40
0.4285714285714285
 40
0.4285714285714285
 40
0.4285714285714285
 40
0.4285714285714285
 40
0.5714285714285714
 40
0.5714285714285714
 40
0.5714285714285714
 40
0.5714285714285714
 40
0.7142857142857143
 40
0.7142857142857143
 40
0.7142857142857143
 40
0.7142857142857143
 40
1.0
 40
1.0
 40
1.0
 40
1.0
 10
168.5366
 20
-70.3716
 30
0.0
 10
174.2703
 20
-75.0019
 30
0.0
 10
173.692
 20
-83.5731
 30
0.0
 10
167.1323
 20
-86.7382
 30
0.0
 10
167.1323
 20
-86.7382
 30
0.0
 10
167.3682
 20
-88.8977
 30
0.0
 10
167.3697
 20
-92.1954
 30
0.0
 10
166.9383
 20
-94.4023
 30
0.0
 10
166.9383
 20
-94.4023
 30
0.0
 10
171.2758
 20
-88.9143
 30
0.0
 10
175.9543
 20
-87.2666
 30
0.0
 10
181.2893
 20
-86.8456
 30
0.0
 10
181.2893
 20
-86.8456
 30
0.0
 10
179.1426
 20
-82.655
 30
0.0
 10
177.5581
 20
-76.0578
 30
0.0
 10
177.8553
 20
-71.8432
 30
0.0
 10
177.8553
 20
-71.8432
 30
0.0
 10
174.0403
 20
-70.691
 30
0.0
 10
172.362
 20
-70.6585
 30
0.0
 10
168.5367
 20
-70.3716
 30
0.0
 10
168.5367
 20
-70.3716
 30
0.0
 10
168.5367
 20
-70.3716
 30
0.0
 10
168.5366
 20
-70.3716
 30
0.0
 10
168.5366
 20
-70.3716
 30
0.0
  0
SPLINE
  5
98
330
1F
100
AcDbEntity
  8
layer 1
 62
     7
100
AcDbSpline
210
0.0
220
0.0
230
1.0
 70
    11
 71
     3
 72
    12
 73
     8
 74
     0
 42
0.0000000001
 43
0.0000000001
 12
1.0
 22
0.0
 32
0.0
 13
1.0
 23
0.0
 33
0.0
 40
0.0
 40
0.0
 40
0.0
 40
0.0
 40
0.3333333333333333
 40
0.3333333333333333
 40
0.3333333333333333
 40
0.3333333333333333
 40
1.0
 40
1.0
 40
1.0
 40
1.0
 10
154.8948
 20
-74.5029
 30
0.0
 10
157.4161
 20
-75.4829
 30
0.0
 10
163.0366
 20
-73.4065
 30
0.0
 10
164.7328
 20
-70.8716
 30
0.0
 10
164.7328
 20
-70.8716
 30
0.0
 10
162.5752
 20
-70.869
 30
0.0
 10
157.7382
 20
-72.3851
 30
0.0
 10
154.8948
 20
-74.5029
 30
0.0
  0
SPLINE
  5
99
330
1F
100
AcDbEntity
  8
layer 1
 62
     7
100
AcDbSpline
210
0.0
220
0.0
230
1.0
 70
    11
 71
     3
 72
    16
 73
    12
 74
     0
 42
0.0000000001
 43
0.0000000001
 12
1.0
 22
0.0
 32
0.0
 13
1.0
 23
0.0
 33
0.0
 40
0.0
 40
0.0
 40
0.0
 40
0.0
 40
0.25
 40
0.25
 40
0.25
 40
0.25
 40
0.5
 40
0.5
 40
0.5
 40
0.5
 40
1.0
 40
1.0
 40
1.0
 40
1.0
 10
189.1761
 20
-84.1528
 30
0.0
 10
189.1761
 20
-84.1528
 30
0.0
 10
189.1761
 20
-79.6301
 30
0.0
 10
189.1761
 20
-79.6301
 30
0.0
 10
189.1761
 20
-79.6301
 30
0.0
 10
188.4468
 20
-78.8469
 30
0.0
 10
187.6944
 20
-78.1051
 30
0.0
 10
186.6875
 20
-77.2902
 30
0.0
 10
186.6875
 20
-77.2902
 30
0.0
 10
187.0198
 20
-79.2828
 30
0.0
 10
188.0679
 20
-82.053
 30
0.0
 10
189.1761
 20
-84.1528
 30
0.0
  0
SPLINE
  5
9A
330
1F
100
AcDbEntity
  8
layer 1
 62
     7
100
AcDbSpline
210
0.0
220
0.0
230
1.0
 70
    11
 71
     3
 72
    20
 73
    16
 74
     0
 42
0.0000000001
 43
0.0000000001
 12
1.0
 22
0.0
 32
0.0
 13
1.0
 23
0.0
 33
0.0
 40
0.0
 40
0.0
 40
0.0
 40
0.0
 40
0.2
 40
0.2
 40
0.2
 40
0.2
 40
0.4
 40
0.4
 40
0.4
 40
0.4
 40
0.6
 40
0.6
 40
0.6
 40
0.6
 40
1.0
 40
1.0
 40
1.0
 40
1.0
 10
144.0395
 20
-87.5758
 30
0.0
 10
149.9631
 20
-90.5936
 30
0.0
 10
148.8676
 20
-98.3265
 30
0.0
 10
142.6109
 20
-99.7025
 30
0.0
 10
142.6109
 20
-99.7025
 30
0.0
 10
142.8029
 20
-101.2537
 30
0.0
 10
143.81
 20
-105.924
 30
0.0
 10
144.8308
 20
-107.6239
 30
0.0
 10
144.8308
 20
-107.6239
 30
0.0
 10
152.4594
 20
-99.4795
 30
0.0
 10
152.2961
 20
-87.4699
 30
0.0
 10
147.2003
 20
-81.579
 30
0.0
 10
147.2003
 20
-81.579
 30
0.0
 10
146.2385
 20
-83.1595
 30
0.0
 10
145.1484
 20
-85.2357
 30
0.0
 10
144.0395
 20
-87.5758
 30
0.0
  0
SPLINE
  5
9B
330
1F
100
AcDbEntity
  8
layer 1
 62
     7
100
AcDbSpline
210
0.0
220
0.0
230
1.0
 70
    11
 71
     3
 72
    28
 73
    24
 74
     0
 42
0.0000000001
 43
0.0000000001
 12
1.0
 22
0.0
 32
0.0
 13
1.0
 23
0.0
 33
0.0
 40
0.0
 40
0.0
 40
0.0
 40
0.0
 40
0.1428571428571428
 40
0.1428571428571428
 40
0.1428571428571428
 40
0.1428571428571428
 40
0.2857142857142857
 40
0.2857142857142857
 40
0.2857142857142857
 40
0.2857142857142857
 40
0.4285714285714285
 40
0.4285714285714285
 40
0.4285714285714285
 40
0.4285714285714285
 40
0.5714285714285714
 40
0.5714285714285714
 40
0.5714285714285714
 40
0.5714285714285714
 40
0.7142857142857143
 40
0.7142857142857143
 40
0.7142857142857143
 40
0.7142857142857143
 40
1.0
 40
1.0
 40
1.0
 40
1.0
 10
178.7827
 20
-95.5252
 30
0.0
 10
173.7954
 20
-98.9542
 30
0.0
 10
176.0611
 20
-105.3177
 30
0.0
 10
181.1693
 20
-105.3982
 30
0.0
 10
181.1693
 20
-105.3982
 30
0.0
 10
183.7716
 20
-105.0806
 30
0.0
 10
184.8578
 20
-104.2742
 30
0.0
 10
186.1078
 20
-102.4201
 30
0.0
 10
186.1078
 20
-102.4201
 30
0.0
 10
187.1544
 20
-102.6843
 30
0.0
 10
188.3875
 20
-103.1214
 30
0.0
 10
189.1761
 20
-103.7545
 30
0.0
 10
189.1761
 20
-103.7545
 30
0.0
 10
189.1761
 20
-103.7545
 30
0.0
 10
189.1761
 20
-97.0186
 30
0.0
 10
189.1761
 20
-97.0186
 30
0.0
 10
189.1761
 20
-97.0186
 30
0.0
 10
185.9734
 20
-94.7801
 30
0.0
 10
181.3249
 20
-94.2981
 30
0.0
 10
178.7827
 20
-95.5252
 30
0.0
 10
178.7827
 20
-95.5252
 30
0.0
 10
178.7827
 20
-95.5252
 30
0.0
 10
178.7827
 20
-95.5252
 30
0.0
 10
178.7827
 20
-95.5252
 30
0.0
  0
SPLINE
  5
9C
330
1F
100
AcDbEntity
  8
layer 1
 62
     7
100
AcDbSpline
210
0.0
220
0.0
230
1.0
 70
    11
 71
     3
 72
    20
 73
    16
 74
     0
 42
0.0000000001
 43
0.0000000001
 12
1.0
 22
0.0
 32
0.0
 13
1.0
 23
0.0
 33
0.0
 40
0.0
 40
0.0
 40
0.0
 40
0.0
 40
0.2
 40
0.2
 40
0.2
 40
0.2
 40
0.4
 40
0.4
 40
0.4
 40
0.4
 40
0.6
 40
0.6
 40
0.6
 40
0.6
 40
1.0
 40
1.0
 40
1.0
 40
1.0
 10
159.6159
 20
-108.5231
 30
0.0
 10
159.6159
 20
-108.5231
 30
0.0
 10
165.4851
 20
-108.5231
 30
0.0
 10
165.4851
 20
-108.5231
 30
0.0
 10
165.4851
 20
-108.5231
 30
0.0
 10
164.935
 20
-106.6416
 30
0.0
 10
164.5433
 20
-103.6166
 30
0.0
 10
164.9924
 20
-100.793
 30
0.0
 10
164.9924
 20
-100.793
 30
0.0
 10
163.8289
 20
-103.3265
 30
0.0
 10
161.9087
 20
-106.4048
 30
0.0
 10
159.6158
 20
-108.5231
 30
0.0
 10
159.6158
 20
-108.5231
 30
0.0
 10
159.6158
 20
-108.5231
 30
0.0
 10
159.6159
 20
-108.5231
 30
0.0
 10
159.6159
 20
-108.5231
 30
0.0
  0
ENDSEC
  0
SECTION
  2
OBJECTS
  0
DICTIONARY
  5
C
330
0
100
AcDbDictionary
281
     1
  3
ACAD_GROUP
350
D
  3
ACAD_LAYOUT
350
1A
  3
ACAD_MATERIAL
350
3B
  3
ACAD_MLEADERSTYLE
350
BF
  3
ACAD_MLINESTYLE
350
17
  3
ACAD_PLOTSETTINGS
350
19
  3
ACAD_PLOTSTYLENAME
350
E
  3
ACAD_TABLESTYLE
350
BE
  3
ACAD_VISUALSTYLE
350
2A
  0
DICTIONARY
  5
D
102
{ACAD_REACTORS
330
C
102
}
330
C
100
AcDbDictionary
281
     1
  0
DICTIONARY
  5
1A
102
{ACAD_REACTORS
330
C
102
}
330
C
100
AcDbDictionary
281
     1
  3
Layout1
350
1E
  3
Layout2
350
26
  3
Model
350
22
  0
DICTIONARY
  5
3B
102
{ACAD_REACTORS
330
C
102
}
330
C
100
AcDbDictionary
281
     1
  3
ByBlock
350
3D
  3
ByLayer
350
3C
  3
Global
350
3E
  0
DICTIONARY
  5
BF
102
{ACAD_REACTORS
330
C
102
}
330
C
100
AcDbDictionary
281
     1
  0
DICTIONARY
  5
17
102
{ACAD_REACTORS
330
C
102
}
330
C
100
AcDbDictionary
281
     1
  3
Standard
350
18
  0
DICTIONARY
  5
19
102
{ACAD_REACTORS
330
C
102
}
330
C
100
AcDbDictionary
281
     1
  0
ACDBDICTIONARYWDFLT
  5
E
102
{ACAD_REACTORS
330
C
102
}
330
C
100
AcDbDictionary
281
     1
  3
Normal
350
F
100
AcDbDictionaryWithDefault
340
F
  0
DICTIONARY
  5
BE
102
{ACAD_REACTORS
330
C
102
}
330
C
100
AcDbDictionary
281
     1
  0
DICTIONARY
  5
2A
102
{ACAD_REACTORS
330
C
102
}
330
C
100
AcDbDictionary
281
     1
  3
2dWireframe
350
2F
  3
3D Hidden
350
31
  3
3dWireframe
350
30
  3
Basic
350
32
  3
Brighten
350
36
  3
ColorChange
350
3A
  3
Conceptual
350
34
  3
Dim
350
35
  3
Facepattern
350
39
  3
Flat
350
2B
  3
FlatWithEdges
350
2C
  3
Gouraud
350
2D
  3
GouraudWithEdges
350
2E
  3
Linepattern
350
38
  3
Realistic
350
33
  3
Thicken
350
37
  0
LAYOUT
  5
1E
102
{ACAD_REACTORS
330
1A
102
}
330
1A
100
AcDbPlotSettings
  1

  2
none_device
  4

  6

 40
0.0
 41
0.0
 42
0.0
 43
0.0
 44
0.0
 45
0.0
 46
0.0
 47
0.0
 48
0.0
 49
0.0
140
0.0
141
0.0
142
1.0
143
1.0
 70
   688
 72
     0
 73
     0
 74
     5
  7

 75
    16
 76
     0
 77
     2
 78
   300
147
1.0
148
0.0
149
0.0
100
AcDbLayout
  1
Layout1
 70
     1
 71
     1
 10
0.0
 20
0.0
 11
12.0
 21
9.0
 12
0.0
 22
0.0
 32
0.0
 14
1.000000000000000E+20
 24
1.000000000000000E+20
 34
1.000000000000000E+20
 15
-1.000000000000000E+20
 25
-1.000000000000000E+20
 35
-1.000000000000000E+20
146
0.0
 13
0.0
 23
0.0
 33
0.0
 16
1.0
 26
0.0
 36
0.0
 17
0.0
 27
1.0
 37
0.0
 76
     0
330
1B
  0
LAYOUT
  5
26
102
{ACAD_REACTORS
330
1A
102
}
330
1A
100
AcDbPlotSettings
  1

  2
none_device
  4

  6

 40
0.0
 41
0.0
 42
0.0
 43
0.0
 44
0.0
 45
0.0
 46
0.0
 47
0.0
 48
0.0
 49
0.0
140
0.0
141
0.0
142
1.0
143
1.0
 70
   688
 72
     0
 73
     0
 74
     5
  7

 75
    16
 76
     0
 77
     2
 78
   300
147
1.0
148
0.0
149
0.0
100
AcDbLayout
  1
Layout2
 70
     1
 71
     2
 10
0.0
 20
0.0
 11
0.0
 21
0.0
 12
0.0
 22
0.0
 32
0.0
 14
0.0
 24
0.0
 34
0.0
 15
0.0
 25
0.0
 35
0.0
146
0.0
 13
0.0
 23
0.0
 33
0.0
 16
1.0
 26
0.0
 36
0.0
 17
0.0
 27
1.0
 37
0.0
 76
     0
330
23
  0
LAYOUT
  5
22
102
{ACAD_REACTORS
330
1A
102
}
330
1A
100
AcDbPlotSettings
  1

  2
none_device
  4

  6

 40
0.0
 41
0.0
 42
0.0
 43
0.0
 44
0.0
 45
0.0
 46
0.0
 47
0.0
 48
0.0
 49
0.0
140
0.0
141
0.0
142
1.0
143
1.0
 70
  1712
 72
     0
 73
     0
 74
     0
  7

 75
     0
 76
     0
 77
     2
 78
   300
147
1.0
148
0.0
149
0.0
100
AcDbLayout
  1
Model
 70
     1
 71
     0
 10
0.0
 20
0.0
 11
12.0
 21
9.0
 12
0.0
 22
0.0
 32
0.0
 14
78.1689
 24
-114.9153
 34
0.0
 15
196.4984
 25
131.6706
 35
0.0
146
0.0
 13
0.0
 23
0.0
 33
0.0
 16
1.0
 26
0.0
 36
0.0
 17
0.0
 27
1.0
 37
0.0
 76
     0
330
1F
331
29
  0
MATERIAL
  5
3D
102
{ACAD_REACTORS
330
3B
102
}
330
3B
100
AcDbMaterial
  1
ByBlock
 72
     1
 94
      127
  0
MATERIAL
  5
3C
102
{ACAD_REACTORS
330
3B
102
}
330
3B
100
AcDbMaterial
  1
ByLayer
 72
     1
 94
      127
  0
MATERIAL
  5
3E
102
{ACAD_REACTORS
330
3B
102
}
330
3B
100
AcDbMaterial
  1
Global
 72
     1
 94
      127
  0
MLINESTYLE
  5
18
102
{ACAD_REACTORS
330
17
102
}
330
17
100
AcDbMlineStyle
  2
Standard
 70
     0
  3

 62
   256
 51
90.0
 52
90.0
 71
     2
 49
0.5
 62
   256
  6
BYLAYER
 49
-0.5
 62
   256
  6
BYLAYER
  0
ACDBPLACEHOLDER
  5
F
102
{ACAD_REACTORS
330
E
102
}
330
E
  0
VISUALSTYLE
  5
2F
102
{ACAD_REACTORS
330
2A
102
}
102
{ACAD_XDICTIONARY
360
A6
102
}
330
2A
100
AcDbVisualStyle
  2
2dWireframe
 70
     4
 71
     0
 72
     2
 73
     0
 90
        0
 40
-0.6
 41
-30.0
 62
     5
 63
     7
421
 16777215
 74
     1
 91
        4
 64
     7
 65
   257
 75
     1
175
     1
 42
1.0
 92
        0
 66
   257
 43
1.0
 76
     1
 77
     6
 78
     2
 67
     7
 79
     5
170
     0
171
     0
290
     0
174
     0
 93
        1
 44
0.0
173
     0
291
     0
 45
0.0
  0
VISUALSTYLE
  5
31
102
{ACAD_REACTORS
330
2A
102
}
102
{ACAD_XDICTIONARY
360
AA
102
}
330
2A
100
AcDbVisualStyle
  2
3D Hidden
 70
     6
 71
     1
 72
     2
 73
     2
 90
        0
 40
-0.6
 41
-30.0
 62
     5
 63
     7
421
 16777215
 74
     2
 91
        2
 64
     7
 65
   257
 75
     2
175
     1
 42
40.0
 92
        0
 66
   257
 43
1.0
 76
     1
 77
     6
 78
     2
 67
     7
 79
     3
170
     0
171
     0
290
     0
174
     0
 93
        1
 44
0.0
173
     0
291
     0
 45
0.0
  0
VISUALSTYLE
  5
30
102
{ACAD_REACTORS
330
2A
102
}
102
{ACAD_XDICTIONARY
360
A8
102
}
330
2A
100
AcDbVisualStyle
  2
3dWireframe
 70
     5
 71
     0
 72
     2
 73
     0
 90
        0
 40
-0.6
 41
-30.0
 62
     5
 63
     7
421
 16777215
 74
     1
 91
        4
 64
     7
 65
   257
 75
     1
175
     1
 42
1.0
 92
        0
 66
   257
 43
1.0
 76
     1
 77
     6
 78
     2
 67
     7
 79
     5
170
     0
171
     0
290
     0
174
     0
 93
        1
 44
0.0
173
     0
291
     0
 45
0.0
  0
VISUALSTYLE
  5
32
102
{ACAD_REACTORS
330
2A
102
}
102
{ACAD_XDICTIONARY
360
AC
102
}
330
2A
100
AcDbVisualStyle
  2
Basic
 70
     7
 71
     1
 72
     0
 73
     1
 90
        0
 40
-0.6
 41
-30.0
 62
     5
 63
     7
421
 16777215
 74
     0
 91
        4
 64
     7
 65
   257
 75
     1
175
     1
 42
1.0
 92
        8
 66
     7
 43
1.0
 76
     1
 77
     6
 78
     2
 67
     7
 79
     5
170
     0
171
     0
290
     0
174
     0
 93
        1
 44
0.0
173
     0
291
     1
 45
0.0
  0
VISUALSTYLE
  5
36
102
{ACAD_REACTORS
330
2A
102
}
102
{ACAD_XDICTIONARY
360
B4
102
}
330
2A
100
AcDbVisualStyle
  2
Brighten
 70
    12
 71
     2
 72
     2
 73
     0
 90
        0
 40
-0.6
 41
-30.0
 62
     5
 63
     7
421
 16777215
 74
     1
 91
        4
 64
     7
 65
   257
 75
     1
175
     1
 42
1.0
 92
        8
 66
     7
 43
1.0
 76
     1
 77
     6
 78
     2
 67
     7
 79
     5
170
     0
171
     0
290
     0
174
     0
 93
        1
 44
50.0
173
     0
291
     1
 45
0.0
  0
VISUALSTYLE
  5
3A
102
{ACAD_REACTORS
330
2A
102
}
102
{ACAD_XDICTIONARY
360
BC
102
}
330
2A
100
AcDbVisualStyle
  2
ColorChange
 70
    16
 71
     2
 72
     2
 73
     3
 90
        0
 40
-0.6
 41
-30.0
 62
     5
 63
     8
421
  8421504
 74
     1
 91
        4
 64
     7
 65
   257
 75
     1
175
     1
 42
1.0
 92
        8
 66
     8
424
  8421504
 43
1.0
 76
     1
 77
     6
 78
     2
 67
     7
 79
     5
170
     0
171
     0
290
     0
174
     0
 93
        1
 44
0.0
173
     0
291
     1
 45
0.0
  0
VISUALSTYLE
  5
34
102
{ACAD_REACTORS
330
2A
102
}
102
{ACAD_XDICTIONARY
360
B0
102
}
330
2A
100
AcDbVisualStyle
  2
Conceptual
 70
     9
 71
     3
 72
     2
 73
     0
 90
        0
 40
-0.6
 41
-30.0
 62
     5
 63
     7
421
 16777215
 74
     2
 91
        2
 64
     7
 65
   257
 75
     1
175
     1
 42
40.0
 92
        8
 66
     7
 43
1.0
 76
     1
 77
     6
 78
     2
 67
     7
 79
     3
170
     0
171
     0
290
     0
174
     0
 93
        1
 44
0.0
173
     0
291
     0
 45
0.0
  0
VISUALSTYLE
  5
35
102
{ACAD_REACTORS
330
2A
102
}
102
{ACAD_XDICTIONARY
360
B2
102
}
330
2A
100
AcDbVisualStyle
  2
Dim
 70
    11
 71
     2
 72
     2
 73
     0
 90
        0
 40
-0.6
 41
-30.0
 62
     5
 63
     7
421
 16777215
 74
     1
 91
        4
 64
     7
 65
   257
 75
     1
175
     1
 42
1.0
 92
        8
 66
     7
 43
1.0
 76
     1
 77
     6
 78
     2
 67
     7
 79
     5
170
     0
171
     0
290
     0
174
     0
 93
        1
 44
-50.0
173
     0
291
     1
 45
0.0
  0
VISUALSTYLE
  5
39
102
{ACAD_REACTORS
330
2A
102
}
102
{ACAD_XDICTIONARY
360
BA
102
}
330
2A
100
AcDbVisualStyle
  2
Facepattern
 70
    15
 71
     2
 72
     2
 73
     0
 90
        0
 40
-0.6
 41
-30.0
 62
     5
 63
     7
421
 16777215
 74
     1
 91
        4
 64
     7
 65
   257
 75
     1
175
     1
 42
1.0
 92
        8
 66
     7
 43
1.0
 76
     1
 77
     6
 78
     2
 67
     7
 79
     5
170
     0
171
     0
290
     0
174
     0
 93
        1
 44
0.0
173
     0
291
     1
 45
0.0
  0
VISUALSTYLE
  5
2B
102
{ACAD_REACTORS
330
2A
102
}
102
{ACAD_XDICTIONARY
360
9E
102
}
330
2A
100
AcDbVisualStyle
  2
Flat
 70
     0
 71
     2
 72
     1
 73
     1
 90
        2
 40
-0.6
 41
30.0
 62
     5
 63
     7
421
 16777215
 74
     0
 91
        4
 64
     7
 65
   257
 75
     1
175
     1
 42
1.0
 92
        8
 66
     7
 43
1.0
 76
     1
 77
     6
 78
     2
 67
     7
 79
     5
170
     0
171
     0
290
     0
174
     0
 93
       13
 44
0.0
173
     0
291
     1
 45
0.0
  0
VISUALSTYLE
  5
2C
102
{ACAD_REACTORS
330
2A
102
}
102
{ACAD_XDICTIONARY
360
A0
102
}
330
2A
100
AcDbVisualStyle
  2
FlatWithEdges
 70
     1
 71
     2
 72
     1
 73
     1
 90
        2
 40
-0.6
 41
30.0
 62
     5
 63
     7
421
 16777215
 74
     1
 91
        4
 64
     7
 65
   257
 75
     1
175
     1
 42
1.0
 92
        0
 66
   257
 43
1.0
 76
     1
 77
     6
 78
     2
 67
     7
 79
     5
170
     0
171
     0
290
     0
174
     0
 93
       13
 44
0.0
173
     0
291
     1
 45
0.0
  0
VISUALSTYLE
  5
2D
102
{ACAD_REACTORS
330
2A
102
}
102
{ACAD_XDICTIONARY
360
A2
102
}
330
2A
100
AcDbVisualStyle
  2
Gouraud
 70
     2
 71
     2
 72
     2
 73
     1
 90
        2
 40
-0.6
 41
30.0
 62
     5
 63
     7
421
 16777215
 74
     0
 91
        4
 64
     7
 65
   257
 75
     1
175
     1
 42
1.0
 92
        0
 66
     7
 43
1.0
 76
     1
 77
     6
 78
     2
 67
     7
 79
     5
170
     0
171
     0
290
     0
174
     0
 93
       13
 44
0.0
173
     0
291
     1
 45
0.0
  0
VISUALSTYLE
  5
2E
102
{ACAD_REACTORS
330
2A
102
}
102
{ACAD_XDICTIONARY
360
A4
102
}
330
2A
100
AcDbVisualStyle
  2
GouraudWithEdges
 70
     3
 71
     2
 72
     2
 73
     1
 90
        2
 40
-0.6
 41
30.0
 62
     5
 63
     7
421
 16777215
 74
     1
 91
        4
 64
     7
 65
   257
 75
     1
175
     1
 42
1.0
 92
        0
 66
   257
 43
1.0
 76
     1
 77
     6
 78
     2
 67
     7
 79
     5
170
     0
171
     0
290
     0
174
     0
 93
       13
 44
0.0
173
     0
291
     1
 45
0.0
  0
VISUALSTYLE
  5
38
102
{ACAD_REACTORS
330
2A
102
}
102
{ACAD_XDICTIONARY
360
B8
102
}
330
2A
100
AcDbVisualStyle
  2
Linepattern
 70
    14
 71
     2
 72
     2
 73
     0
 90
        0
 40
-0.6
 41
-30.0
 62
     5
 63
     7
421
 16777215
 74
     1
 91
        4
 64
     7
 65
   257
 75
     7
175
     7
 42
1.0
 92
        8
 66
     7
 43
1.0
 76
     1
 77
     6
 78
     2
 67
     7
 79
     5
170
     0
171
     0
290
     0
174
     0
 93
        1
 44
0.0
173
     0
291
     1
 45
0.0
  0
VISUALSTYLE
  5
33
102
{ACAD_REACTORS
330
2A
102
}
102
{ACAD_XDICTIONARY
360
AE
102
}
330
2A
100
AcDbVisualStyle
  2
Realistic
 70
     8
 71
     2
 72
     2
 73
     0
 90
        0
 40
-0.6
 41
-30.0
 62
     5
 63
     7
421
 16777215
 74
     1
 91
        0
 64
     7
 65
   257
 75
     1
175
     1
 42
1.0
 92
        8
 66
     8
424
  7895160
 43
1.0
 76
     1
 77
     6
 78
     2
 67
     7
 79
     5
170
     0
171
     0
290
     0
174
     0
 93
       13
 44
0.0
173
     0
291
     0
 45
0.0
  0
VISUALSTYLE
  5
37
102
{ACAD_REACTORS
330
2A
102
}
102
{ACAD_XDICTIONARY
360
B6
102
}
330
2A
100
AcDbVisualStyle
  2
Thicken
 70
    13
 71
     2
 72
     2
 73
     0
 90
        0
 40
-0.6
 41
-30.0
 62
     5
 63
     7
421
 16777215
 74
     1
 91
        4
 64
     7
 65
   257
 75
     1
175
     1
 42
1.0
 92
       12
 66
     7
 43
1.0
 76
     1
 77
     6
 78
     2
 67
     7
 79
     5
170
     0
171
     0
290
     0
174
     0
 93
        1
 44
0.0
173
     0
291
     1
 45
0.0
  0
DICTIONARY
  5
A6
330
2F
100
AcDbDictionary
280
     1
281
     1
  3
ACAD_XREC_ROUNDTRIP
360
A7
  0
DICTIONARY
  5
AA
330
31
100
AcDbDictionary
280
     1
281
     1
  3
ACAD_XREC_ROUNDTRIP
360
AB
  0
DICTIONARY
  5
A8
330
30
100
AcDbDictionary
280
     1
281
     1
  3
ACAD_XREC_ROUNDTRIP
360
A9
  0
DICTIONARY
  5
AC
330
32
100
AcDbDictionary
280
     1
281
     1
  3
ACAD_XREC_ROUNDTRIP
360
AD
  0
DICTIONARY
  5
B4
330
36
100
AcDbDictionary
280
     1
281
     1
  3
ACAD_XREC_ROUNDTRIP
360
B5
  0
DICTIONARY
  5
BC
330
3A
100
AcDbDictionary
280
     1
281
     1
  3
ACAD_XREC_ROUNDTRIP
360
BD
  0
DICTIONARY
  5
B0
330
34
100
AcDbDictionary
280
     1
281
     1
  3
ACAD_XREC_ROUNDTRIP
360
B1
  0
DICTIONARY
  5
B2
330
35
100
AcDbDictionary
280
     1
281
     1
  3
ACAD_XREC_ROUNDTRIP
360
B3
  0
DICTIONARY
  5
BA
330
39
100
AcDbDictionary
280
     1
281
     1
  3
ACAD_XREC_ROUNDTRIP
360
BB
  0
DICTIONARY
  5
9E
330
2B
100
AcDbDictionary
280
     1
281
     1
  3
ACAD_XREC_ROUNDTRIP
360
9F
  0
DICTIONARY
  5
A0
330
2C
100
AcDbDictionary
280
     1
281
     1
  3
ACAD_XREC_ROUNDTRIP
360
A1
  0
DICTIONARY
  5
A2
330
2D
100
AcDbDictionary
280
     1
281
     1
  3
ACAD_XREC_ROUNDTRIP
360
A3
  0
DICTIONARY
  5
A4
330
2E
100
AcDbDictionary
280
     1
281
     1
  3
ACAD_XREC_ROUNDTRIP
360
A5
  0
DICTIONARY
  5
B8
330
38
100
AcDbDictionary
280
     1
281
     1
  3
ACAD_XREC_ROUNDTRIP
360
B9
  0
DICTIONARY
  5
AE
330
33
100
AcDbDictionary
280
     1
281
     1
  3
ACAD_XREC_ROUNDTRIP
360
AF
  0
DICTIONARY
  5
B6
330
37
100
AcDbDictionary
280
     1
281
     1
  3
ACAD_XREC_ROUNDTRIP
360
B7
  0
XRECORD
  5
A7
102
{ACAD_REACTORS
330
A6
102
}
330
A6
100
AcDbXrecord
280
     1
102
RTVSPropertyOp0
 70
     1
102
RTVSPropertyOp1
 70
     1
102
RTVSPropertyOp2
 70
     1
102
RTVSPropertyOp3
 70
     1
102
RTVSPropertyOp4
 70
     1
102
RTVSPropertyOp5
 70
     1
102
RTVSPropertyOp6
 70
     1
102
RTVSPropertyOp7
 70
     1
102
RTVSPropertyOp8
 70
     1
102
RTVSPropertyOp9
 70
     1
102
RTVSPropertyOp10
 70
     1
102
RTVSPropertyOp11
 70
     1
102
RTVSPropertyOp12
 70
     1
102
RTVSPropertyOp13
 70
     1
102
RTVSPropertyOp14
 70
     1
102
RTVSPropertyOp15
 70
     1
102
RTVSPropertyOp16
 70
     1
102
RTVSPropertyOp17
 70
     1
102
RTVSPropertyOp18
 70
     1
102
RTVSPropertyOp19
 70
     1
102
RTVSPropertyOp20
 70
     1
102
RTVSPropertyOp21
 70
     1
102
RTVSPropertyOp22
 70
     1
102
RTVSPropertyOp23
 70
     1
102
RTVSPropertyOp24
 70
     1
102
RTVSPropertyOp25
 70
     1
102
RTVSPropertyOp26
 70
     1
102
RTVSPropertyOp27
 70
     1
102
RTVSPropertyOp28
 70
     1
102
RTVSPropertyOp29
 70
     1
102
RTVSPropertyOp30
 70
     1
102
RTVSPropertyOp31
 70
     1
102
RTVSPropertyOp32
 70
     1
  0
XRECORD
  5
AB
102
{ACAD_REACTORS
330
AA
102
}
330
AA
100
AcDbXrecord
280
     1
102
RTVSPropertyOp0
 70
     1
102
RTVSPropertyOp1
 70
     1
102
RTVSPropertyOp2
 70
     1
102
RTVSPropertyOp3
 70
     1
102
RTVSPropertyOp4
 70
     1
102
RTVSPropertyOp5
 70
     1
102
RTVSPropertyOp6
 70
     1
102
RTVSPropertyOp7
 70
     1
102
RTVSPropertyOp8
 70
     1
102
RTVSPropertyOp9
 70
     1
102
RTVSPropertyOp10
 70
     1
102
RTVSPropertyOp11
 70
     1
102
RTVSPropertyOp12
 70
     1
102
RTVSPropertyOp13
 70
     1
102
RTVSPropertyOp14
 70
     1
102
RTVSPropertyOp15
 70
     1
102
RTVSPropertyOp16
 70
     1
102
RTVSPropertyOp17
 70
     1
102
RTVSPropertyOp18
 70
     1
102
RTVSPropertyOp19
 70
     1
102
RTVSPropertyOp20
 70
     1
102
RTVSPropertyOp21
 70
     1
102
RTVSPropertyOp22
 70
     1
102
RTVSPropertyOp23
 70
     1
102
RTVSPropertyOp24
 70
     1
102
RTVSPropertyOp25
 70
     1
102
RTVSPropertyOp26
 70
     1
102
RTVSPropertyOp27
 70
     1
102
RTVSPropertyOp28
 70
     1
102
RTVSPropertyOp29
 70
     1
102
RTVSPropertyOp30
 70
     1
102
RTVSPropertyOp31
 70
     1
102
RTVSPropertyOp32
 70
     1
  0
XRECORD
  5
A9
102
{ACAD_REACTORS
330
A8
102
}
330
A8
100
AcDbXrecord
280
     1
102
RTVSPropertyOp0
 70
     1
102
RTVSPropertyOp1
 70
     1
102
RTVSPropertyOp2
 70
     1
102
RTVSPropertyOp3
 70
     1
102
RTVSPropertyOp4
 70
     1
102
RTVSPropertyOp5
 70
     1
102
RTVSPropertyOp6
 70
     1
102
RTVSPropertyOp7
 70
     1
102
RTVSPropertyOp8
 70
     1
102
RTVSPropertyOp9
 70
     1
102
RTVSPropertyOp10
 70
     1
102
RTVSPropertyOp11
 70
     1
102
RTVSPropertyOp12
 70
     1
102
RTVSPropertyOp13
 70
     1
102
RTVSPropertyOp14
 70
     1
102
RTVSPropertyOp15
 70
     1
102
RTVSPropertyOp16
 70
     1
102
RTVSPropertyOp17
 70
     1
102
RTVSPropertyOp18
 70
     1
102
RTVSPropertyOp19
 70
     1
102
RTVSPropertyOp20
 70
     1
102
RTVSPropertyOp21
 70
     1
102
RTVSPropertyOp22
 70
     1
102
RTVSPropertyOp23
 70
     1
102
RTVSPropertyOp24
 70
     1
102
RTVSPropertyOp25
 70
     1
102
RTVSPropertyOp26
 70
     1
102
RTVSPropertyOp27
 70
     1
102
RTVSPropertyOp28
 70
     1
102
RTVSPropertyOp29
 70
     1
102
RTVSPropertyOp30
 70
     1
102
RTVSPropertyOp31
 70
     1
102
RTVSPropertyOp32
 70
     1
  0
XRECORD
  5
AD
102
{ACAD_REACTORS
330
AC
102
}
330
AC
100
AcDbXrecord
280
     1
102
RTVSPropertyOp0
 70
     1
102
RTVSPropertyOp1
 70
     1
102
RTVSPropertyOp2
 70
     1
102
RTVSPropertyOp3
 70
     1
102
RTVSPropertyOp4
 70
     1
102
RTVSPropertyOp5
 70
     1
102
RTVSPropertyOp6
 70
     1
102
RTVSPropertyOp7
 70
     1
102
RTVSPropertyOp8
 70
     1
102
RTVSPropertyOp9
 70
     1
102
RTVSPropertyOp10
 70
     1
102
RTVSPropertyOp11
 70
     1
102
RTVSPropertyOp12
 70
     1
102
RTVSPropertyOp13
 70
     1
102
RTVSPropertyOp14
 70
     1
102
RTVSPropertyOp15
 70
     1
102
RTVSPropertyOp16
 70
     1
102
RTVSPropertyOp17
 70
     1
102
RTVSPropertyOp18
 70
     1
102
RTVSPropertyOp19
 70
     1
102
RTVSPropertyOp20
 70
     1
102
RTVSPropertyOp21
 70
     1
102
RTVSPropertyOp22
 70
     1
102
RTVSPropertyOp23
 70
     1
102
RTVSPropertyOp24
 70
     1
102
RTVSPropertyOp25
 70
     1
102
RTVSPropertyOp26
 70
     1
102
RTVSPropertyOp27
 70
     1
102
RTVSPropertyOp28
 70
     1
102
RTVSPropertyOp29
 70
     1
102
RTVSPropertyOp30
 70
     1
102
RTVSPropertyOp31
 70
     1
102
RTVSPropertyOp32
 70
     1
  0
XRECORD
  5
B5
102
{ACAD_REACTORS
330
B4
102
}
330
B4
100
AcDbXrecord
280
     1
102
RTVSPropertyOp0
 70
     1
102
RTVSPropertyOp1
 70
     1
102
RTVSPropertyOp2
 70
     1
102
RTVSPropertyOp3
 70
     1
102
RTVSPropertyOp4
 70
     1
102
RTVSPropertyOp5
 70
     1
102
RTVSPropertyOp6
 70
     1
102
RTVSPropertyOp7
 70
     1
102
RTVSPropertyOp8
 70
     1
102
RTVSPropertyOp9
 70
     1
102
RTVSPropertyOp10
 70
     1
102
RTVSPropertyOp11
 70
     1
102
RTVSPropertyOp12
 70
     1
102
RTVSPropertyOp13
 70
     1
102
RTVSPropertyOp14
 70
     1
102
RTVSPropertyOp15
 70
     1
102
RTVSPropertyOp16
 70
     1
102
RTVSPropertyOp17
 70
     1
102
RTVSPropertyOp18
 70
     1
102
RTVSPropertyOp19
 70
     1
102
RTVSPropertyOp20
 70
     1
102
RTVSPropertyOp21
 70
     1
102
RTVSPropertyOp22
 70
     1
102
RTVSPropertyOp23
 70
     1
102
RTVSPropertyOp24
 70
     1
102
RTVSPropertyOp25
 70
     1
102
RTVSPropertyOp26
 70
     1
102
RTVSPropertyOp27
 70
     1
102
RTVSPropertyOp28
 70
     1
102
RTVSPropertyOp29
 70
     1
102
RTVSPropertyOp30
 70
     1
102
RTVSPropertyOp31
 70
     1
102
RTVSPropertyOp32
 70
     1
  0
XRECORD
  5
BD
102
{ACAD_REACTORS
330
BC
102
}
330
BC
100
AcDbXrecord
280
     1
102
RTVSPropertyOp0
 70
     1
102
RTVSPropertyOp1
 70
     1
102
RTVSPropertyOp2
 70
     1
102
RTVSPropertyOp3
 70
     1
102
RTVSPropertyOp4
 70
     1
102
RTVSPropertyOp5
 70
     1
102
RTVSPropertyOp6
 70
     1
102
RTVSPropertyOp7
 70
     1
102
RTVSPropertyOp8
 70
     1
102
RTVSPropertyOp9
 70
     1
102
RTVSPropertyOp10
 70
     1
102
RTVSPropertyOp11
 70
     1
102
RTVSPropertyOp12
 70
     1
102
RTVSPropertyOp13
 70
     1
102
RTVSPropertyOp14
 70
     1
102
RTVSPropertyOp15
 70
     1
102
RTVSPropertyOp16
 70
     1
102
RTVSPropertyOp17
 70
     1
102
RTVSPropertyOp18
 70
     1
102
RTVSPropertyOp19
 70
     1
102
RTVSPropertyOp20
 70
     1
102
RTVSPropertyOp21
 70
     1
102
RTVSPropertyOp22
 70
     1
102
RTVSPropertyOp23
 70
     1
102
RTVSPropertyOp24
 70
     1
102
RTVSPropertyOp25
 70
     1
102
RTVSPropertyOp26
 70
     1
102
RTVSPropertyOp27
 70
     1
102
RTVSPropertyOp28
 70
     1
102
RTVSPropertyOp29
 70
     1
102
RTVSPropertyOp30
 70
     1
102
RTVSPropertyOp31
 70
     1
102
RTVSPropertyOp32
 70
     1
  0
XRECORD
  5
B1
102
{ACAD_REACTORS
330
B0
102
}
330
B0
100
AcDbXrecord
280
     1
102
RTVSPropertyOp0
 70
     1
102
RTVSPropertyOp1
 70
     1
102
RTVSPropertyOp2
 70
     1
102
RTVSPropertyOp3
 70
     1
102
RTVSPropertyOp4
 70
     1
102
RTVSPropertyOp5
 70
     1
102
RTVSPropertyOp6
 70
     1
102
RTVSPropertyOp7
 70
     1
102
RTVSPropertyOp8
 70
     1
102
RTVSPropertyOp9
 70
     1
102
RTVSPropertyOp10
 70
     1
102
RTVSPropertyOp11
 70
     1
102
RTVSPropertyOp12
 70
     1
102
RTVSPropertyOp13
 70
     1
102
RTVSPropertyOp14
 70
     1
102
RTVSPropertyOp15
 70
     1
102
RTVSPropertyOp16
 70
     1
102
RTVSPropertyOp17
 70
     1
102
RTVSPropertyOp18
 70
     1
102
RTVSPropertyOp19
 70
     1
102
RTVSPropertyOp20
 70
     1
102
RTVSPropertyOp21
 70
     1
102
RTVSPropertyOp22
 70
     1
102
RTVSPropertyOp23
 70
     1
102
RTVSPropertyOp24
 70
     1
102
RTVSPropertyOp25
 70
     1
102
RTVSPropertyOp26
 70
     1
102
RTVSPropertyOp27
 70
     1
102
RTVSPropertyOp28
 70
     1
102
RTVSPropertyOp29
 70
     1
102
RTVSPropertyOp30
 70
     1
102
RTVSPropertyOp31
 70
     1
102
RTVSPropertyOp32
 70
     1
  0
XRECORD
  5
B3
102
{ACAD_REACTORS
330
B2
102
}
330
B2
100
AcDbXrecord
280
     1
102
RTVSPropertyOp0
 70
     1
102
RTVSPropertyOp1
 70
     1
102
RTVSPropertyOp2
 70
     1
102
RTVSPropertyOp3
 70
     1
102
RTVSPropertyOp4
 70
     1
102
RTVSPropertyOp5
 70
     1
102
RTVSPropertyOp6
 70
     1
102
RTVSPropertyOp7
 70
     1
102
RTVSPropertyOp8
 70
     1
102
RTVSPropertyOp9
 70
     1
102
RTVSPropertyOp10
 70
     1
102
RTVSPropertyOp11
 70
     1
102
RTVSPropertyOp12
 70
     1
102
RTVSPropertyOp13
 70
     1
102
RTVSPropertyOp14
 70
     1
102
RTVSPropertyOp15
 70
     1
102
RTVSPropertyOp16
 70
     1
102
RTVSPropertyOp17
 70
     1
102
RTVSPropertyOp18
 70
     1
102
RTVSPropertyOp19
 70
     1
102
RTVSPropertyOp20
 70
     1
102
RTVSPropertyOp21
 70
     1
102
RTVSPropertyOp22
 70
     1
102
RTVSPropertyOp23
 70
     1
102
RTVSPropertyOp24
 70
     1
102
RTVSPropertyOp25
 70
     1
102
RTVSPropertyOp26
 70
     1
102
RTVSPropertyOp27
 70
     1
102
RTVSPropertyOp28
 70
     1
102
RTVSPropertyOp29
 70
     1
102
RTVSPropertyOp30
 70
     1
102
RTVSPropertyOp31
 70
     1
102
RTVSPropertyOp32
 70
     1
  0
XRECORD
  5
BB
102
{ACAD_REACTORS
330
BA
102
}
330
BA
100
AcDbXrecord
280
     1
102
RTVSPropertyOp0
 70
     1
102
RTVSPropertyOp1
 70
     1
102
RTVSPropertyOp2
 70
     1
102
RTVSPropertyOp3
 70
     1
102
RTVSPropertyOp4
 70
     1
102
RTVSPropertyOp5
 70
     1
102
RTVSPropertyOp6
 70
     1
102
RTVSPropertyOp7
 70
     1
102
RTVSPropertyOp8
 70
     1
102
RTVSPropertyOp9
 70
     1
102
RTVSPropertyOp10
 70
     1
102
RTVSPropertyOp11
 70
     1
102
RTVSPropertyOp12
 70
     1
102
RTVSPropertyOp13
 70
     1
102
RTVSPropertyOp14
 70
     1
102
RTVSPropertyOp15
 70
     1
102
RTVSPropertyOp16
 70
     1
102
RTVSPropertyOp17
 70
     1
102
RTVSPropertyOp18
 70
     1
102
RTVSPropertyOp19
 70
     1
102
RTVSPropertyOp20
 70
     1
102
RTVSPropertyOp21
 70
     1
102
RTVSPropertyOp22
 70
     1
102
RTVSPropertyOp23
 70
     1
102
RTVSPropertyOp24
 70
     1
102
RTVSPropertyOp25
 70
     1
102
RTVSPropertyOp26
 70
     1
102
RTVSPropertyOp27
 70
     1
102
RTVSPropertyOp28
 70
     1
102
RTVSPropertyOp29
 70
     1
102
RTVSPropertyOp30
 70
     1
102
RTVSPropertyOp31
 70
     1
102
RTVSPropertyOp32
 70
     1
  0
XRECORD
  5
9F
102
{ACAD_REACTORS
330
9E
102
}
330
9E
100
AcDbXrecord
280
     1
102
RTVSPropertyOp0
 70
     1
102
RTVSPropertyOp1
 70
     1
102
RTVSPropertyOp2
 70
     1
102
RTVSPropertyOp3
 70
     1
102
RTVSPropertyOp4
 70
     1
102
RTVSPropertyOp5
 70
     1
102
RTVSPropertyOp6
 70
     1
102
RTVSPropertyOp7
 70
     1
102
RTVSPropertyOp8
 70
     1
102
RTVSPropertyOp9
 70
     1
102
RTVSPropertyOp10
 70
     1
102
RTVSPropertyOp11
 70
     1
102
RTVSPropertyOp12
 70
     1
102
RTVSPropertyOp13
 70
     1
102
RTVSPropertyOp14
 70
     1
102
RTVSPropertyOp15
 70
     1
102
RTVSPropertyOp16
 70
     1
102
RTVSPropertyOp17
 70
     1
102
RTVSPropertyOp18
 70
     1
102
RTVSPropertyOp19
 70
     1
102
RTVSPropertyOp20
 70
     1
102
RTVSPropertyOp21
 70
     1
102
RTVSPropertyOp22
 70
     1
102
RTVSPropertyOp23
 70
     1
102
RTVSPropertyOp24
 70
     1
102
RTVSPropertyOp25
 70
     1
102
RTVSPropertyOp26
 70
     1
102
RTVSPropertyOp27
 70
     1
102
RTVSPropertyOp28
 70
     1
102
RTVSPropertyOp29
 70
     1
102
RTVSPropertyOp30
 70
     1
102
RTVSPropertyOp31
 70
     1
102
RTVSPropertyOp32
 70
     1
  0
XRECORD
  5
A1
102
{ACAD_REACTORS
330
A0
102
}
330
A0
100
AcDbXrecord
280
     1
102
RTVSPropertyOp0
 70
     1
102
RTVSPropertyOp1
 70
     1
102
RTVSPropertyOp2
 70
     1
102
RTVSPropertyOp3
 70
     1
102
RTVSPropertyOp4
 70
     1
102
RTVSPropertyOp5
 70
     1
102
RTVSPropertyOp6
 70
     1
102
RTVSPropertyOp7
 70
     1
102
RTVSPropertyOp8
 70
     1
102
RTVSPropertyOp9
 70
     1
102
RTVSPropertyOp10
 70
     1
102
RTVSPropertyOp11
 70
     1
102
RTVSPropertyOp12
 70
     1
102
RTVSPropertyOp13
 70
     1
102
RTVSPropertyOp14
 70
     1
102
RTVSPropertyOp15
 70
     1
102
RTVSPropertyOp16
 70
     1
102
RTVSPropertyOp17
 70
     1
102
RTVSPropertyOp18
 70
     1
102
RTVSPropertyOp19
 70
     1
102
RTVSPropertyOp20
 70
     1
102
RTVSPropertyOp21
 70
     1
102
RTVSPropertyOp22
 70
     1
102
RTVSPropertyOp23
 70
     1
102
RTVSPropertyOp24
 70
     1
102
RTVSPropertyOp25
 70
     1
102
RTVSPropertyOp26
 70
     1
102
RTVSPropertyOp27
 70
     1
102
RTVSPropertyOp28
 70
     1
102
RTVSPropertyOp29
 70
     1
102
RTVSPropertyOp30
 70
     1
102
RTVSPropertyOp31
 70
     1
102
RTVSPropertyOp32
 70
     1
  0
XRECORD
  5
A3
102
{ACAD_REACTORS
330
A2
102
}
330
A2
100
AcDbXrecord
280
     1
102
RTVSPropertyOp0
 70
     1
102
RTVSPropertyOp1
 70
     1
102
RTVSPropertyOp2
 70
     1
102
RTVSPropertyOp3
 70
     1
102
RTVSPropertyOp4
 70
     1
102
RTVSPropertyOp5
 70
     1
102
RTVSPropertyOp6
 70
     1
102
RTVSPropertyOp7
 70
     1
102
RTVSPropertyOp8
 70
     1
102
RTVSPropertyOp9
 70
     1
102
RTVSPropertyOp10
 70
     1
102
RTVSPropertyOp11
 70
     1
102
RTVSPropertyOp12
 70
     1
102
RTVSPropertyOp13
 70
     1
102
RTVSPropertyOp14
 70
     1
102
RTVSPropertyOp15
 70
     1
102
RTVSPropertyOp16
 70
     1
102
RTVSPropertyOp17
 70
     1
102
RTVSPropertyOp18
 70
     1
102
RTVSPropertyOp19
 70
     1
102
RTVSPropertyOp20
 70
     1
102
RTVSPropertyOp21
 70
     1
102
RTVSPropertyOp22
 70
     1
102
RTVSPropertyOp23
 70
     1
102
RTVSPropertyOp24
 70
     1
102
RTVSPropertyOp25
 70
     1
102
RTVSPropertyOp26
 70
     1
102
RTVSPropertyOp27
 70
     1
102
RTVSPropertyOp28
 70
     1
102
RTVSPropertyOp29
 70
     1
102
RTVSPropertyOp30
 70
     1
102
RTVSPropertyOp31
 70
     1
102
RTVSPropertyOp32
 70
     1
  0
XRECORD
  5
A5
102
{ACAD_REACTORS
330
A4
102
}
330
A4
100
AcDbXrecord
280
     1
102
RTVSPropertyOp0
 70
     1
102
RTVSPropertyOp1
 70
     1
102
RTVSPropertyOp2
 70
     1
102
RTVSPropertyOp3
 70
     1
102
RTVSPropertyOp4
 70
     1
102
RTVSPropertyOp5
 70
     1
102
RTVSPropertyOp6
 70
     1
102
RTVSPropertyOp7
 70
     1
102
RTVSPropertyOp8
 70
     1
102
RTVSPropertyOp9
 70
     1
102
RTVSPropertyOp10
 70
     1
102
RTVSPropertyOp11
 70
     1
102
RTVSPropertyOp12
 70
     1
102
RTVSPropertyOp13
 70
     1
102
RTVSPropertyOp14
 70
     1
102
RTVSPropertyOp15
 70
     1
102
RTVSPropertyOp16
 70
     1
102
RTVSPropertyOp17
 70
     1
102
RTVSPropertyOp18
 70
     1
102
RTVSPropertyOp19
 70
     1
102
RTVSPropertyOp20
 70
     1
102
RTVSPropertyOp21
 70
     1
102
RTVSPropertyOp22
 70
     1
102
RTVSPropertyOp23
 70
     1
102
RTVSPropertyOp24
 70
     1
102
RTVSPropertyOp25
 70
     1
102
RTVSPropertyOp26
 70
     1
102
RTVSPropertyOp27
 70
     1
102
RTVSPropertyOp28
 70
     1
102
RTVSPropertyOp29
 70
     1
102
RTVSPropertyOp30
 70
     1
102
RTVSPropertyOp31
 70
     1
102
RTVSPropertyOp32
 70
     1
  0
XRECORD
  5
B9
102
{ACAD_REACTORS
330
B8
102
}
330
B8
100
AcDbXrecord
280
     1
102
RTVSPropertyOp0
 70
     1
102
RTVSPropertyOp1
 70
     1
102
RTVSPropertyOp2
 70
     1
102
RTVSPropertyOp3
 70
     1
102
RTVSPropertyOp4
 70
     1
102
RTVSPropertyOp5
 70
     1
102
RTVSPropertyOp6
 70
     1
102
RTVSPropertyOp7
 70
     1
102
RTVSPropertyOp8
 70
     1
102
RTVSPropertyOp9
 70
     1
102
RTVSPropertyOp10
 70
     1
102
RTVSPropertyOp11
 70
     1
102
RTVSPropertyOp12
 70
     1
102
RTVSPropertyOp13
 70
     1
102
RTVSPropertyOp14
 70
     1
102
RTVSPropertyOp15
 70
     1
102
RTVSPropertyOp16
 70
     1
102
RTVSPropertyOp17
 70
     1
102
RTVSPropertyOp18
 70
     1
102
RTVSPropertyOp19
 70
     1
102
RTVSPropertyOp20
 70
     1
102
RTVSPropertyOp21
 70
     1
102
RTVSPropertyOp22
 70
     1
102
RTVSPropertyOp23
 70
     1
102
RTVSPropertyOp24
 70
     1
102
RTVSPropertyOp25
 70
     1
102
RTVSPropertyOp26
 70
     1
102
RTVSPropertyOp27
 70
     1
102
RTVSPropertyOp28
 70
     1
102
RTVSPropertyOp29
 70
     1
102
RTVSPropertyOp30
 70
     1
102
RTVSPropertyOp31
 70
     1
102
RTVSPropertyOp32
 70
     1
  0
XRECORD
  5
AF
102
{ACAD_REACTORS
330
AE
102
}
330
AE
100
AcDbXrecord
280
     1
102
RTVSPropertyOp0
 70
     1
102
RTVSPropertyOp1
 70
     1
102
RTVSPropertyOp2
 70
     1
102
RTVSPropertyOp3
 70
     1
102
RTVSPropertyOp4
 70
     1
102
RTVSPropertyOp5
 70
     1
102
RTVSPropertyOp6
 70
     1
102
RTVSPropertyOp7
 70
     1
102
RTVSPropertyOp8
 70
     1
102
RTVSPropertyOp9
 70
     1
102
RTVSPropertyOp10
 70
     1
102
RTVSPropertyOp11
 70
     1
102
RTVSPropertyOp12
 70
     1
102
RTVSPropertyOp13
 70
     1
102
RTVSPropertyOp14
 70
     1
102
RTVSPropertyOp15
 70
     1
102
RTVSPropertyOp16
 70
     1
102
RTVSPropertyOp17
 70
     1
102
RTVSPropertyOp18
 70
     1
102
RTVSPropertyOp19
 70
     1
102
RTVSPropertyOp20
 70
     1
102
RTVSPropertyOp21
 70
     1
102
RTVSPropertyOp22
 70
     1
102
RTVSPropertyOp23
 70
     1
102
RTVSPropertyOp24
 70
     1
102
RTVSPropertyOp25
 70
     1
102
RTVSPropertyOp26
 70
     1
102
RTVSPropertyOp27
 70
     1
102
RTVSPropertyOp28
 70
     1
102
RTVSPropertyOp29
 70
     1
102
RTVSPropertyOp30
 70
     1
102
RTVSPropertyOp31
 70
     1
102
RTVSPropertyOp32
 70
     1
  0
XRECORD
  5
B7
102
{ACAD_REACTORS
330
B6
102
}
330
B6
100
AcDbXrecord
280
     1
102
RTVSPropertyOp0
 70
     1
102
RTVSPropertyOp1
 70
     1
102
RTVSPropertyOp2
 70
     1
102
RTVSPropertyOp3
 70
     1
102
RTVSPropertyOp4
 70
     1
102
RTVSPropertyOp5
 70
     1
102
RTVSPropertyOp6
 70
     1
102
RTVSPropertyOp7
 70
     1
102
RTVSPropertyOp8
 70
     1
102
RTVSPropertyOp9
 70
     1
102
RTVSPropertyOp10
 70
     1
102
RTVSPropertyOp11
 70
     1
102
RTVSPropertyOp12
 70
     1
102
RTVSPropertyOp13
 70
     1
102
RTVSPropertyOp14
 70
     1
102
RTVSPropertyOp15
 70
     1
102
RTVSPropertyOp16
 70
     1
102
RTVSPropertyOp17
 70
     1
102
RTVSPropertyOp18
 70
     1
102
RTVSPropertyOp19
 70
     1
102
RTVSPropertyOp20
 70
     1
102
RTVSPropertyOp21
 70
     1
102
RTVSPropertyOp22
 70
     1
102
RTVSPropertyOp23
 70
     1
102
RTVSPropertyOp24
 70
     1
102
RTVSPropertyOp25
 70
     1
102
RTVSPropertyOp26
 70
     1
102
RTVSPropertyOp27
 70
     1
102
RTVSPropertyOp28
 70
     1
102
RTVSPropertyOp29
 70
     1
102
RTVSPropertyOp30
 70
     1
102
RTVSPropertyOp31
 70
     1
102
RTVSPropertyOp32
 70
     1
  0
ENDSEC
  0
EOF
