  0
SECTION
  2
HEADER
  9
$ACADVER
  1
AC1021
  9
$ACADMAINTVER
 70
    25
  9
$DWGCODEPAGE
  3
ANSI_1252
  9
$INSBASE
 10
0.0
 20
0.0
 30
0.0
  9
$EXTMIN
 10
-53.8688
 20
-115.0154
 30
0.0
  9
$EXTMAX
 10
64.2414
 20
131.9695
 30
0.0
  9
$LIMMIN
 10
0.0
 20
0.0
  9
$LIMMAX
 10
12.0
 20
9.0
  9
$ORTHOMODE
 70
     0
  9
$REGENMODE
 70
     1
  9
$FILLMODE
 70
     1
  9
$QTEXTMODE
 70
     0
  9
$MIRRTEXT
 70
     1
  9
$LTSCALE
 40
1.0
  9
$ATTMODE
 70
     1
  9
$TEXTSIZE
 40
0.2
  9
$TRACEWID
 40
0.05
  9
$TEXTSTYLE
  7
Standard
  9
$CLAYER
  8
0
  9
$CELTYPE
  6
ByLayer
  9
$CECOLOR
 62
   256
  9
$CELTSCALE
 40
1.0
  9
$DISPSILH
 70
     0
  9
$DIMSCALE
 40
1.0
  9
$DIMASZ
 40
0.18
  9
$DIMEXO
 40
0.0625
  9
$DIMDLI
 40
0.38
  9
$DIMRND
 40
0.0
  9
$DIMDLE
 40
0.0
  9
$DIMEXE
 40
0.18
  9
$DIMTP
 40
0.0
  9
$DIMTM
 40
0.0
  9
$DIMTXT
 40
0.18
  9
$DIMCEN
 40
0.09
  9
$DIMTSZ
 40
0.0
  9
$DIMTOL
 70
     0
  9
$DIMLIM
 70
     0
  9
$DIMTIH
 70
     1
  9
$DIMTOH
 70
     1
  9
$DIMSE1
 70
     0
  9
$DIMSE2
 70
     0
  9
$DIMTAD
 70
     0
  9
$DIMZIN
 70
     0
  9
$DIMBLK
  1

  9
$DIMASO
 70
     1
  9
$DIMSHO
 70
     1
  9
$DIMPOST
  1

  9
$DIMAPOST
  1

  9
$DIMALT
 70
     0
  9
$DIMALTD
 70
     2
  9
$DIMALTF
 40
25.4
  9
$DIMLFAC
 40
1.0
  9
$DIMTOFL
 70
     0
  9
$DIMTVP
 40
0.0
  9
$DIMTIX
 70
     0
  9
$DIMSOXD
 70
     0
  9
$DIMSAH
 70
     0
  9
$DIMBLK1
  1

  9
$DIMBLK2
  1

  9
$DIMSTYLE
  2
Standard
  9
$DIMCLRD
 70
     0
  9
$DIMCLRE
 70
     0
  9
$DIMCLRT
 70
     0
  9
$DIMTFAC
 40
1.0
  9
$DIMGAP
 40
0.09
  9
$DIMJUST
 70
     0
  9
$DIMSD1
 70
     0
  9
$DIMSD2
 70
     0
  9
$DIMTOLJ
 70
     1
  9
$DIMTZIN
 70
     0
  9
$DIMALTZ
 70
     0
  9
$DIMALTTZ
 70
     0
  9
$DIMUPT
 70
     0
  9
$DIMDEC
 70
     4
  9
$DIMTDEC
 70
     4
  9
$DIMALTU
 70
     2
  9
$DIMALTTD
 70
     2
  9
$DIMTXSTY
  7
Standard
  9
$DIMAUNIT
 70
     0
  9
$DIMADEC
 70
     0
  9
$DIMALTRND
 40
0.0
  9
$DIMAZIN
 70
     0
  9
$DIMDSEP
 70
    46
  9
$DIMATFIT
 70
     3
  9
$DIMFRAC
 70
     0
  9
$DIMLDRBLK
  1

  9
$DIMLUNIT
 70
     2
  9
$DIMLWD
 70
    -2
  9
$DIMLWE
 70
    -2
  9
$DIMTMOVE
 70
     0
  9
$DIMFXL
 40
1.0
  9
$DIMFXLON
 70
     0
  9
$DIMJOGANG
 40
0.7853981633974483
  9
$DIMTFILL
 70
     0
  9
$DIMTFILLCLR
 70
     0
  9
$DIMARCSYM
 70
     0
  9
$DIMLTYPE
  6

  9
$DIMLTEX1
  6

  9
$DIMLTEX2
  6

  9
$LUNITS
 70
     2
  9
$LUPREC
 70
     4
  9
$SKETCHINC
 40
0.1
  9
$FILLETRAD
 40
0.5
  9
$AUNITS
 70
     0
  9
$AUPREC
 70
     0
  9
$MENU
  1
.
  9
$ELEVATION
 40
0.0
  9
$PELEVATION
 40
0.0
  9
$THICKNESS
 40
0.0
  9
$LIMCHECK
 70
     0
  9
$CHAMFERA
 40
0.5
  9
$CHAMFERB
 40
0.5
  9
$CHAMFERC
 40
1.0
  9
$CHAMFERD
 40
0.0
  9
$SKPOLY
 70
     0
  9
$TDCREATE
 40
2458492.558927396
  9
$TDUCREATE
 40
2458492.558927396
  9
$TDUPDATE
 40
2458492.558927489
  9
$TDUUPDATE
 40
2458492.558927489
  9
$TDINDWG
 40
0.0000000116
  9
$TDUSRTIMER
 40
0.0000000116
  9
$USRTIMER
 70
     1
  9
$ANGBASE
 50
0.0
  9
$ANGDIR
 70
     0
  9
$PDMODE
 70
     0
  9
$PDSIZE
 40
0.0
  9
$PLINEWID
 40
0.0
  9
$SPLFRAME
 70
     0
  9
$SPLINETYPE
 70
     6
  9
$SPLINESEGS
 70
     8
  9
$HANDSEED
  5
98
  9
$SURFTAB1
 70
     6
  9
$SURFTAB2
 70
     6
  9
$SURFTYPE
 70
     6
  9
$SURFU
 70
     6
  9
$SURFV
 70
     6
  9
$UCSBASE
  2

  9
$UCSNAME
  2

  9
$UCSORG
 10
0.0
 20
0.0
 30
0.0
  9
$UCSXDIR
 10
1.0
 20
0.0
 30
0.0
  9
$UCSYDIR
 10
0.0
 20
1.0
 30
0.0
  9
$UCSORTHOREF
  2

  9
$UCSORTHOVIEW
 70
     0
  9
$UCSORGTOP
 10
0.0
 20
0.0
 30
0.0
  9
$UCSORGBOTTOM
 10
0.0
 20
0.0
 30
0.0
  9
$UCSORGLEFT
 10
0.0
 20
0.0
 30
0.0
  9
$UCSORGRIGHT
 10
0.0
 20
0.0
 30
0.0
  9
$UCSORGFRONT
 10
0.0
 20
0.0
 30
0.0
  9
$UCSORGBACK
 10
0.0
 20
0.0
 30
0.0
  9
$PUCSBASE
  2

  9
$PUCSNAME
  2

  9
$PUCSORG
 10
0.0
 20
0.0
 30
0.0
  9
$PUCSXDIR
 10
1.0
 20
0.0
 30
0.0
  9
$PUCSYDIR
 10
0.0
 20
1.0
 30
0.0
  9
$PUCSORTHOREF
  2

  9
$PUCSORTHOVIEW
 70
     0
  9
$PUCSORGTOP
 10
0.0
 20
0.0
 30
0.0
  9
$PUCSORGBOTTOM
 10
0.0
 20
0.0
 30
0.0
  9
$PUCSORGLEFT
 10
0.0
 20
0.0
 30
0.0
  9
$PUCSORGRIGHT
 10
0.0
 20
0.0
 30
0.0
  9
$PUCSORGFRONT
 10
0.0
 20
0.0
 30
0.0
  9
$PUCSORGBACK
 10
0.0
 20
0.0
 30
0.0
  9
$USERI1
 70
     0
  9
$USERI2
 70
     0
  9
$USERI3
 70
     0
  9
$USERI4
 70
     0
  9
$USERI5
 70
     0
  9
$USERR1
 40
0.0
  9
$USERR2
 40
0.0
  9
$USERR3
 40
0.0
  9
$USERR4
 40
0.0
  9
$USERR5
 40
0.0
  9
$WORLDVIEW
 70
     1
  9
$SHADEDGE
 70
     3
  9
$SHADEDIF
 70
    70
  9
$TILEMODE
 70
     1
  9
$MAXACTVP
 70
    64
  9
$PINSBASE
 10
0.0
 20
0.0
 30
0.0
  9
$PLIMCHECK
 70
     0
  9
$PEXTMIN
 10
1.000000000000000E+20
 20
1.000000000000000E+20
 30
1.000000000000000E+20
  9
$PEXTMAX
 10
-1.000000000000000E+20
 20
-1.000000000000000E+20
 30
-1.000000000000000E+20
  9
$PLIMMIN
 10
0.0
 20
0.0
  9
$PLIMMAX
 10
12.0
 20
9.0
  9
$UNITMODE
 70
     0
  9
$VISRETAIN
 70
     1
  9
$PLINEGEN
 70
     0
  9
$PSLTSCALE
 70
     1
  9
$TREEDEPTH
 70
  3020
  9
$CMLSTYLE
  2
Standard
  9
$CMLJUST
 70
     0
  9
$CMLSCALE
 40
1.0
  9
$PROXYGRAPHICS
 70
     1
  9
$MEASUREMENT
 70
     0
  9
$CELWEIGHT
370
    -1
  9
$ENDCAPS
280
     0
  9
$JOINSTYLE
280
     0
  9
$LWDISPLAY
290
     0
  9
$INSUNITS
 70
     4
  9
$HYPERLINKBASE
  1

  9
$STYLESHEET
  1

  9
$XEDIT
290
     1
  9
$CEPSNTYPE
380
     0
  9
$PSTYLEMODE
290
     1
  9
$FINGERPRINTGUID
  2
{49A69271-B200-4F66-92E2-A37A43964436}
  9
$VERSIONGUID
  2
{FAEB1C32-E019-11D5-929B-00C0DF256EC4}
  9
$EXTNAMES
290
     1
  9
$PSVPSCALE
 40
0.0
  9
$OLESTARTUP
290
     0
  9
$SORTENTS
280
   127
  9
$INDEXCTL
280
     0
  9
$HIDETEXT
280
     1
  9
$XCLIPFRAME
290
     0
  9
$HALOGAP
280
     0
  9
$OBSCOLOR
 70
   257
  9
$OBSLTYPE
280
     0
  9
$INTERSECTIONDISPLAY
280
     0
  9
$INTERSECTIONCOLOR
 70
   257
  9
$DIMASSOC
280
     2
  9
$PROJECTNAME
  1

  9
$CAMERADISPLAY
290
     0
  9
$LENSLENGTH
 40
50.0
  9
$CAMERAHEIGHT
 40
0.0
  9
$STEPSPERSEC
 40
2.0
  9
$STEPSIZE
 40
6.0
  9
$3DDWFPREC
 40
2.0
  9
$PSOLWIDTH
 40
0.25
  9
$PSOLHEIGHT
 40
4.0
  9
$LOFTANG1
 40
1.570796326794897
  9
$LOFTANG2
 40
1.570796326794897
  9
$LOFTMAG1
 40
0.0
  9
$LOFTMAG2
 40
0.0
  9
$LOFTPARAM
 70
     7
  9
$LOFTNORMALS
280
     1
  9
$LATITUDE
 40
37.795
  9
$LONGITUDE
 40
-122.394
  9
$NORTHDIRECTION
 40
0.0
  9
$TIMEZONE
 70
 -8000
  9
$LIGHTGLYPHDISPLAY
280
     1
  9
$TILEMODELIGHTSYNCH
280
     1
  9
$SOLIDHIST
280
     1
  9
$SHOWHIST
280
     1
  9
$DWFFRAME
280
     2
  9
$DGNFRAME
280
     2
  9
$REALWORLDSCALE
290
     1
  9
$INTERFERECOLOR
 62
   256
  9
$CSHADOW
280
     0
  9
$SHADOWPLANELOCATION
 40
0.0
  0
ENDSEC
  0
SECTION
  2
CLASSES
  0
CLASS
  1
ACDBDICTIONARYWDFLT
  2
AcDbDictionaryWithDefault
  3
ObjectDBX Classes
 90
        0
 91
        4
280
     0
281
     0
  0
CLASS
  1
VISUALSTYLE
  2
AcDbVisualStyle
  3
ObjectDBX Classes
 90
     4095
 91
        4
280
     0
281
     0
  0
CLASS
  1
MATERIAL
  2
AcDbMaterial
  3
ObjectDBX Classes
 90
     1153
 91
        4
280
     0
281
     0
  0
ENDSEC
  0
SECTION
  2
TABLES
  0
TABLE
  2
VPORT
  5
8
330
0
100
AcDbSymbolTable
 70
     1
  0
VPORT
  5
29
330
8
100
AcDbSymbolTableRecord
100
AcDbViewportTableRecord
  2
*Active
 70
     0
 10
0.0
 20
0.0
 11
1.0
 21
1.0
 12
10.42990654205607
 22
4.5
 13
0.0
 23
0.0
 14
0.5
 24
0.5
 15
0.5
 25
0.5
 16
0.0
 26
0.0
 36
1.0
 17
0.0
 27
0.0
 37
0.0
 40
9.0
 41
1.972972972850329
 42
50.0
 43
0.0
 44
0.0
 50
0.0
 51
0.0
 71
     0
 72
   100
 73
     1
 74
     3
 75
     0
 76
     0
 77
     0
 78
     0
281
     0
 65
     1
110
0.0
120
0.0
130
0.0
111
1.0
121
0.0
131
0.0
112
0.0
122
1.0
132
0.0
 79
     0
146
0.0
 60
     3
 61
     5
292
     1
282
     1
141
0.0
142
0.0
 63
   250
  0
ENDTAB
  0
TABLE
  2
LTYPE
  5
5
330
0
100
AcDbSymbolTable
 70
     1
  0
LTYPE
  5
14
330
5
100
AcDbSymbolTableRecord
100
AcDbLinetypeTableRecord
  2
ByBlock
 70
     0
  3

 72
    65
 73
     0
 40
0.0
  0
LTYPE
  5
15
330
5
100
AcDbSymbolTableRecord
100
AcDbLinetypeTableRecord
  2
ByLayer
 70
     0
  3

 72
    65
 73
     0
 40
0.0
  0
LTYPE
  5
16
330
5
100
AcDbSymbolTableRecord
100
AcDbLinetypeTableRecord
  2
Continuous
 70
     0
  3
Solid line
 72
    65
 73
     0
 40
0.0
  0
ENDTAB
  0
TABLE
  2
LAYER
  5
2
330
0
100
AcDbSymbolTable
 70
     3
  0
LAYER
  5
10
330
2
100
AcDbSymbolTableRecord
100
AcDbLayerTableRecord
  2
0
 70
     0
 62
     7
  6
Continuous
370
    -3
390
F
347
3E
  0
LAYER
  5
40
330
2
100
AcDbSymbolTableRecord
100
AcDbLayerTableRecord
  2
layer 1
 70
     0
 62
     7
  6
Continuous
370
    -3
390
F
347
3E
  0
LAYER
  5
75
330
2
100
AcDbSymbolTableRecord
100
AcDbLayerTableRecord
  2
Master Guides
 70
     0
 62
     7
  6
Continuous
370
    -3
390
F
347
3E
  0
ENDTAB
  0
TABLE
  2
STYLE
  5
3
330
0
100
AcDbSymbolTable
 70
     1
  0
STYLE
  5
11
330
3
100
AcDbSymbolTableRecord
100
AcDbTextStyleTableRecord
  2
Standard
 70
     0
 40
0.0
 41
1.0
 50
0.0
 71
     0
 42
0.2
  3
txt
  4

  0
ENDTAB
  0
TABLE
  2
VIEW
  5
6
330
0
100
AcDbSymbolTable
 70
     0
  0
ENDTAB
  0
TABLE
  2
UCS
  5
7
330
0
100
AcDbSymbolTable
 70
     0
  0
ENDTAB
  0
TABLE
  2
APPID
  5
9
330
0
100
AcDbSymbolTable
 70
     2
  0
APPID
  5
12
330
9
100
AcDbSymbolTableRecord
100
AcDbRegAppTableRecord
  2
ACAD
 70
     0
  0
APPID
  5
3F
330
9
100
AcDbSymbolTableRecord
100
AcDbRegAppTableRecord
  2
ODA
 70
     0
  0
ENDTAB
  0
TABLE
  2
DIMSTYLE
  5
A
330
0
100
AcDbSymbolTable
 70
     1
100
AcDbDimStyleTable
  0
DIMSTYLE
105
27
330
A
100
AcDbSymbolTableRecord
100
AcDbDimStyleTableRecord
  2
Standard
 70
     0
178
     0
340
11
  0
ENDTAB
  0
TABLE
  2
BLOCK_RECORD
  5
1
330
0
100
AcDbSymbolTable
 70
     1
  0
BLOCK_RECORD
  5
1F
330
1
100
AcDbSymbolTableRecord
100
AcDbBlockTableRecord
  2
*Model_Space
340
22
 70
     0
280
     1
281
     0
  0
BLOCK_RECORD
  5
1B
330
1
100
AcDbSymbolTableRecord
100
AcDbBlockTableRecord
  2
*Paper_Space
340
1E
 70
     0
280
     1
281
     0
  0
BLOCK_RECORD
  5
23
330
1
100
AcDbSymbolTableRecord
100
AcDbBlockTableRecord
  2
*Paper_Space0
340
26
 70
     0
280
     1
281
     0
  0
ENDTAB
  0
ENDSEC
  0
SECTION
  2
BLOCKS
  0
BLOCK
  5
20
330
1F
100
AcDbEntity
  8
0
100
AcDbBlockBegin
  2
*Model_Space
 70
     0
 10
0.0
 20
0.0
 30
0.0
  3
*Model_Space
  1

  0
ENDBLK
  5
21
330
1F
100
AcDbEntity
  8
0
100
AcDbBlockEnd
  0
BLOCK
  5
1C
330
1B
100
AcDbEntity
 67
     1
  8
0
100
AcDbBlockBegin
  2
*Paper_Space
 70
     0
 10
0.0
 20
0.0
 30
0.0
  3
*Paper_Space
  1

  0
ENDBLK
  5
1D
330
1B
100
AcDbEntity
 67
     1
  8
0
100
AcDbBlockEnd
  0
BLOCK
  5
24
330
23
100
AcDbEntity
  8
0
100
AcDbBlockBegin
  2
*Paper_Space0
 70
     0
 10
0.0
 20
0.0
 30
0.0
  3
*Paper_Space0
  1

  0
ENDBLK
  5
25
330
23
100
AcDbEntity
  8
0
100
AcDbBlockEnd
  0
ENDSEC
  0
SECTION
  2
ENTITIES
  0
SPLINE
  5
41
330
1F
100
AcDbEntity
  8
layer 1
100
AcDbSpline
210
0.0
220
0.0
230
1.0
 70
    11
 71
     3
 72
    20
 73
    16
 74
     0
 42
0.0000000001
 43
0.0000000001
 12
1.0
 22
0.0
 32
0.0
 13
1.0
 23
0.0
 33
0.0
 40
0.0
 40
0.0
 40
0.0
 40
0.0
 40
0.2
 40
0.2
 40
0.2
 40
0.2
 40
0.4
 40
0.4
 40
0.4
 40
0.4
 40
0.6
 40
0.6
 40
0.6
 40
0.6
 40
1.0
 40
1.0
 40
1.0
 40
1.0
 10
-53.8688
 20
131.9695
 30
0.0
 10
-53.8688
 20
131.9695
 30
0.0
 10
64.2414
 20
131.9695
 30
0.0
 10
64.2414
 20
131.9695
 30
0.0
 10
64.2414
 20
131.9695
 30
0.0
 10
64.2414
 20
131.9695
 30
0.0
 10
64.2414
 20
-115.0154
 30
0.0
 10
64.2414
 20
-115.0154
 30
0.0
 10
64.2414
 20
-115.0154
 30
0.0
 10
64.2414
 20
-115.0154
 30
0.0
 10
-53.8688
 20
-115.0154
 30
0.0
 10
-53.8688
 20
-115.0154
 30
0.0
 10
-53.8688
 20
-115.0154
 30
0.0
 10
-53.8688
 20
-115.0154
 30
0.0
 10
-53.8688
 20
131.9695
 30
0.0
 10
-53.8688
 20
131.9695
 30
0.0
  0
SPLINE
  5
42
330
1F
100
AcDbEntity
  8
layer 1
 62
     7
100
AcDbSpline
210
0.0
220
0.0
230
1.0
 70
    11
 71
     3
 72
    32
 73
    28
 74
     0
 42
0.0000000001
 43
0.0000000001
 12
1.0
 22
0.0
 32
0.0
 13
1.0
 23
0.0
 33
0.0
 40
0.0
 40
0.0
 40
0.0
 40
0.0
 40
0.125
 40
0.125
 40
0.125
 40
0.125
 40
0.25
 40
0.25
 40
0.25
 40
0.25
 40
0.375
 40
0.375
 40
0.375
 40
0.375
 40
0.5
 40
0.5
 40
0.5
 40
0.5
 40
0.625
 40
0.625
 40
0.625
 40
0.625
 40
0.75
 40
0.75
 40
0.75
 40
0.75
 40
1.0
 40
1.0
 40
1.0
 40
1.0
 10
-44.5387
 20
41.6878
 30
0.0
 10
-42.0213
 20
49.8587
 30
0.0
 10
-33.6677
 20
56.9685
 30
0.0
 10
-22.2367
 20
60.8948
 30
0.0
 10
-22.2367
 20
60.8948
 30
0.0
 10
-22.555
 20
53.8856
 30
0.0
 10
-19.5838
 20
50.5904
 30
0.0
 10
-16.8248
 20
48.2503
 30
0.0
 10
-16.8248
 20
48.2503
 30
0.0
 10
-19.8768
 20
48.6748
 30
0.0
 10
-23.7947
 20
47.8201
 30
0.0
 10
-25.7586
 20
46.5413
 30
0.0
 10
-25.7586
 20
46.5413
 30
0.0
 10
-26.7034
 20
54.3394
 30
0.0
 10
-40.0907
 20
49.0845
 30
0.0
 10
-32.6354
 20
43.0166
 30
0.0
 10
-32.6354
 20
43.0166
 30
0.0
 10
-34.873
 20
39.8266
 30
0.0
 10
-42.7016
 20
38.5242
 30
0.0
 10
-38.9164
 20
27.674
 30
0.0
 10
-38.9164
 20
27.674
 30
0.0
 10
-35.7049
 20
17.9734
 30
0.0
 10
-39.8412
 20
15.2481
 30
0.0
 10
-44.5387
 20
15.2481
 30
0.0
 10
-44.5387
 20
15.2481
 30
0.0
 10
-44.5387
 20
28.8365
 30
0.0
 10
-44.5387
 20
28.0993
 30
0.0
 10
-44.5387
 20
41.6878
 30
0.0
  0
SPLINE
  5
43
330
1F
100
AcDbEntity
  8
layer 1
 62
     7
100
AcDbSpline
210
0.0
220
0.0
230
1.0
 70
    11
 71
     3
 72
    16
 73
    12
 74
     0
 42
0.0000000001
 43
0.0000000001
 12
1.0
 22
0.0
 32
0.0
 13
1.0
 23
0.0
 33
0.0
 40
0.0
 40
0.0
 40
0.0
 40
0.0
 40
0.25
 40
0.25
 40
0.25
 40
0.25
 40
0.5
 40
0.5
 40
0.5
 40
0.5
 40
1.0
 40
1.0
 40
1.0
 40
1.0
 10
-44.5034
 20
67.1106
 30
0.0
 10
-41.4174
 20
63.6715
 30
0.0
 10
-39.2458
 20
60.8513
 30
0.0
 10
-34.9289
 20
57.9492
 30
0.0
 10
-34.9289
 20
57.9492
 30
0.0
 10
-37.8181
 20
56.205
 30
0.0
 10
-41.5445
 20
53.5539
 30
0.0
 10
-44.5034
 20
49.9959
 30
0.0
 10
-44.5034
 20
49.9959
 30
0.0
 10
-44.5034
 20
63.5843
 30
0.0
 10
-44.5034
 20
53.5223
 30
0.0
 10
-44.5034
 20
67.1106
 30
0.0
  0
SPLINE
  5
44
330
1F
100
AcDbEntity
  8
layer 1
 62
     7
100
AcDbSpline
210
0.0
220
0.0
230
1.0
 70
    11
 71
     3
 72
    32
 73
    28
 74
     0
 42
0.0000000001
 43
0.0000000001
 12
1.0
 22
0.0
 32
0.0
 13
1.0
 23
0.0
 33
0.0
 40
0.0
 40
0.0
 40
0.0
 40
0.0
 40
0.125
 40
0.125
 40
0.125
 40
0.125
 40
0.25
 40
0.25
 40
0.25
 40
0.25
 40
0.375
 40
0.375
 40
0.375
 40
0.375
 40
0.5
 40
0.5
 40
0.5
 40
0.5
 40
0.625
 40
0.625
 40
0.625
 40
0.625
 40
0.75
 40
0.75
 40
0.75
 40
0.75
 40
1.0
 40
1.0
 40
1.0
 40
1.0
 10
-0.6809
 20
22.2801
 30
0.0
 10
-1.6332
 20
18.5721
 30
0.0
 10
-7.5562
 20
18.959
 30
0.0
 10
-7.5385
 20
23.3125
 30
0.0
 10
-7.5385
 20
23.3125
 30
0.0
 10
-15.8961
 20
23.0505
 30
0.0
 10
-12.5581
 20
29.1096
 30
0.0
 10
-9.5005
 20
29.1987
 30
0.0
 10
-9.5005
 20
29.1987
 30
0.0
 10
-8.2654
 20
29.3633
 30
0.0
 10
-4.9514
 20
29.0757
 30
0.0
 10
-3.5996
 20
28.7482
 30
0.0
 10
-3.5996
 20
28.7482
 30
0.0
 10
-3.3296
 20
30.8225
 30
0.0
 10
-3.3993
 20
35.4193
 30
0.0
 10
2.6611
 20
39.7942
 30
0.0
 10
2.6611
 20
39.7942
 30
0.0
 10
0.4407
 20
41.2559
 30
0.0
 10
-0.3561
 20
41.8009
 30
0.0
 10
-2.5565
 20
42.5879
 30
0.0
 10
-2.5565
 20
42.5879
 30
0.0
 10
-18.2993
 20
33.4866
 30
0.0
 10
-22.2729
 20
19.2114
 30
0.0
 10
-1.1227
 20
12.8624
 30
0.0
 10
-1.1227
 20
12.8624
 30
0.0
 10
0.9145
 20
14.2668
 30
0.0
 10
2.9255
 20
20.3057
 30
0.0
 10
-0.6809
 20
22.2801
 30
0.0
  0
SPLINE
  5
45
330
1F
100
AcDbEntity
  8
layer 1
 62
     7
100
AcDbSpline
210
0.0
220
0.0
230
1.0
 70
    11
 71
     3
 72
    48
 73
    44
 74
     0
 42
0.0000000001
 43
0.0000000001
 12
1.0
 22
0.0
 32
0.0
 13
1.0
 23
0.0
 33
0.0
 40
0.0
 40
0.0
 40
0.0
 40
0.0
 40
0.0833333333333333
 40
0.0833333333333333
 40
0.0833333333333333
 40
0.0833333333333333
 40
0.1666666666666667
 40
0.1666666666666667
 40
0.1666666666666667
 40
0.1666666666666667
 40
0.25
 40
0.25
 40
0.25
 40
0.25
 40
0.3333333333333333
 40
0.3333333333333333
 40
0.3333333333333333
 40
0.3333333333333333
 40
0.4166666666666667
 40
0.4166666666666667
 40
0.4166666666666667
 40
0.4166666666666667
 40
0.5
 40
0.5
 40
0.5
 40
0.5
 40
0.5833333333333334
 40
0.5833333333333334
 40
0.5833333333333334
 40
0.5833333333333334
 40
0.6666666666666666
 40
0.6666666666666666
 40
0.6666666666666666
 40
0.6666666666666666
 40
0.75
 40
0.75
 40
0.75
 40
0.75
 40
0.8333333333333334
 40
0.8333333333333334
 40
0.8333333333333334
 40
0.8333333333333334
 40
1.0
 40
1.0
 40
1.0
 40
1.0
 10
-31.6987
 20
25.2398
 30
0.0
 10
-29.8162
 20
24.4319
 30
0.0
 10
-25.699
 20
25.3659
 30
0.0
 10
-25.0599
 20
28.4611
 30
0.0
 10
-25.0599
 20
28.4611
 30
0.0
 10
-31.3667
 20
28.3633
 30
0.0
 10
-29.9442
 20
33.3279
 30
0.0
 10
-33.4395
 20
33.0342
 30
0.0
 10
-33.4395
 20
33.0342
 30
0.0
 10
-36.152
 20
34.1836
 30
0.0
 10
-32.4073
 20
39.6961
 30
0.0
 10
-29.6554
 20
41.01
 30
0.0
 10
-29.6554
 20
41.01
 30
0.0
 10
-26.7866
 20
31.485
 30
0.0
 10
-14.8026
 20
39.9972
 30
0.0
 10
-22.2365
 20
44.3407
 30
0.0
 10
-22.2365
 20
44.3407
 30
0.0
 10
-19.3713
 20
45.3962
 30
0.0
 10
-10.1393
 20
45.9213
 30
0.0
 10
-5.364
 20
43.6872
 30
0.0
 10
-5.364
 20
43.6872
 30
0.0
 10
-9.265
 20
42.5199
 30
0.0
 10
-25.8105
 20
33.3883
 30
0.0
 10
-21.4074
 20
22.7713
 30
0.0
 10
-21.4074
 20
22.7713
 30
0.0
 10
-25.4296
 20
22.8231
 30
0.0
 10
-30.3277
 20
18.7352
 30
0.0
 10
-29.876
 20
14.3653
 30
0.0
 10
-29.876
 20
14.3653
 30
0.0
 10
-29.036
 20
8.4768
 30
0.0
 10
-39.7281
 20
6.487
 30
0.0
 10
-44.5383
 20
10.0685
 30
0.0
 10
-44.5383
 20
10.0685
 30
0.0
 10
-44.5383
 20
10.0685
 30
0.0
 10
-44.5383
 20
14.0807
 30
0.0
 10
-44.5383
 20
14.0807
 30
0.0
 10
-44.5383
 20
14.0807
 30
0.0
 10
-41.1426
 20
11.6455
 30
0.0
 10
-25.7557
 20
14.9408
 30
0.0
 10
-31.6983
 20
25.2396
 30
0.0
 10
-31.6983
 20
25.2396
 30
0.0
 10
-31.6983
 20
25.2396
 30
0.0
 10
-31.6987
 20
25.2398
 30
0.0
 10
-31.6987
 20
25.2398
 30
0.0
  0
SPLINE
  5
46
330
1F
100
AcDbEntity
  8
layer 1
 62
     7
100
AcDbSpline
210
0.0
220
0.0
230
1.0
 70
    11
 71
     3
 72
    12
 73
     8
 74
     0
 42
0.0000000001
 43
0.0000000001
 12
1.0
 22
0.0
 32
0.0
 13
1.0
 23
0.0
 33
0.0
 40
0.0
 40
0.0
 40
0.0
 40
0.0
 40
0.3333333333333333
 40
0.3333333333333333
 40
0.3333333333333333
 40
0.3333333333333333
 40
1.0
 40
1.0
 40
1.0
 40
1.0
 10
5.1863
 20
117.5502
 30
0.0
 10
6.3356
 20
116.3475
 30
0.0
 10
7.5009
 20
113.4361
 30
0.0
 10
5.1863
 20
109.6031
 30
0.0
 10
5.1863
 20
109.6031
 30
0.0
 10
2.8717
 20
113.4361
 30
0.0
 10
4.037
 20
116.3475
 30
0.0
 10
5.1863
 20
117.5502
 30
0.0
  0
SPLINE
  5
47
330
1F
100
AcDbEntity
  8
layer 1
 62
     7
100
AcDbSpline
210
0.0
220
0.0
230
1.0
 70
    11
 71
     3
 72
    20
 73
    16
 74
     0
 42
0.0000000001
 43
0.0000000001
 12
1.0
 22
0.0
 32
0.0
 13
1.0
 23
0.0
 33
0.0
 40
0.0
 40
0.0
 40
0.0
 40
0.0
 40
0.2
 40
0.2
 40
0.2
 40
0.2
 40
0.4
 40
0.4
 40
0.4
 40
0.4
 40
0.6
 40
0.6
 40
0.6
 40
0.6
 40
1.0
 40
1.0
 40
1.0
 40
1.0
 10
3.2368
 20
12.7496
 30
0.0
 10
3.6101
 20
12.7059
 30
0.0
 10
4.1718
 20
12.6077
 30
0.0
 10
5.1863
 20
12.6093
 30
0.0
 10
5.1863
 20
12.6093
 30
0.0
 10
6.2008
 20
12.6077
 30
0.0
 10
6.7625
 20
12.7059
 30
0.0
 10
7.1358
 20
12.7496
 30
0.0
 10
7.1358
 20
12.7496
 30
0.0
 10
6.381
 20
13.9668
 30
0.0
 10
5.5903
 20
15.4664
 30
0.0
 10
5.1863
 20
17.6189
 30
0.0
 10
5.1863
 20
17.6189
 30
0.0
 10
4.7825
 20
15.4664
 30
0.0
 10
3.9916
 20
13.9668
 30
0.0
 10
3.2368
 20
12.7496
 30
0.0
  0
SPLINE
  5
48
330
1F
100
AcDbEntity
  8
layer 1
 62
     7
100
AcDbSpline
210
0.0
220
0.0
230
1.0
 70
    11
 71
     3
 72
    36
 73
    32
 74
     0
 42
0.0000000001
 43
0.0000000001
 12
1.0
 22
0.0
 32
0.0
 13
1.0
 23
0.0
 33
0.0
 40
0.0
 40
0.0
 40
0.0
 40
0.0
 40
0.1111111111111111
 40
0.1111111111111111
 40
0.1111111111111111
 40
0.1111111111111111
 40
0.2222222222222222
 40
0.2222222222222222
 40
0.2222222222222222
 40
0.2222222222222222
 40
0.3333333333333333
 40
0.3333333333333333
 40
0.3333333333333333
 40
0.3333333333333333
 40
0.4444444444444444
 40
0.4444444444444444
 40
0.4444444444444444
 40
0.4444444444444444
 40
0.5555555555555556
 40
0.5555555555555556
 40
0.5555555555555556
 40
0.5555555555555556
 40
0.6666666666666666
 40
0.6666666666666666
 40
0.6666666666666666
 40
0.6666666666666666
 40
0.7777777777777778
 40
0.7777777777777778
 40
0.7777777777777778
 40
0.7777777777777778
 40
1.0
 40
1.0
 40
1.0
 40
1.0
 10
0.416
 20
10.4083
 30
0.0
 10
-0.5092
 20
10.4093
 30
0.0
 10
-1.5594
 20
9.1918
 30
0.0
 10
-1.3509
 20
8.477
 30
0.0
 10
-1.3509
 20
8.477
 30
0.0
 10
-1.5594
 20
7.7621
 30
0.0
 10
-0.5092
 20
6.5447
 30
0.0
 10
0.416
 20
6.5456
 30
0.0
 10
0.416
 20
6.5456
 30
0.0
 10
2.0216
 20
6.582
 30
0.0
 10
3.0811
 20
6.6048
 30
0.0
 10
5.1865
 20
6.5567
 30
0.0
 10
5.1865
 20
6.5567
 30
0.0
 10
7.2918
 20
6.6048
 30
0.0
 10
8.3512
 20
6.5818
 30
0.0
 10
9.957
 20
6.5456
 30
0.0
 10
9.957
 20
6.5456
 30
0.0
 10
10.8822
 20
6.5447
 30
0.0
 10
11.9324
 20
7.7621
 30
0.0
 10
11.7239
 20
8.477
 30
0.0
 10
11.7239
 20
8.477
 30
0.0
 10
11.9324
 20
9.1918
 30
0.0
 10
10.8822
 20
10.4093
 30
0.0
 10
9.957
 20
10.4083
 30
0.0
 10
9.957
 20
10.4083
 30
0.0
 10
8.3514
 20
10.3719
 30
0.0
 10
7.2918
 20
10.3491
 30
0.0
 10
5.1865
 20
10.3972
 30
0.0
 10
5.1865
 20
10.3972
 30
0.0
 10
3.0811
 20
10.3491
 30
0.0
 10
2.0218
 20
10.3721
 30
0.0
 10
0.416
 20
10.4083
 30
0.0
  0
SPLINE
  5
49
330
1F
100
AcDbEntity
  8
layer 1
 62
     7
100
AcDbSpline
210
0.0
220
0.0
230
1.0
 70
    11
 71
     3
 72
    12
 73
     8
 74
     0
 42
0.0000000001
 43
0.0000000001
 12
1.0
 22
0.0
 32
0.0
 13
1.0
 23
0.0
 33
0.0
 40
0.0
 40
0.0
 40
0.0
 40
0.0
 40
0.3333333333333333
 40
0.3333333333333333
 40
0.3333333333333333
 40
0.3333333333333333
 40
1.0
 40
1.0
 40
1.0
 40
1.0
 10
-11.8611
 20
13.5232
 30
0.0
 10
-16.5881
 20
22.0617
 30
0.0
 10
-29.4586
 20
17.9717
 30
0.0
 10
-25.2163
 20
10.2234
 30
0.0
 10
-25.2163
 20
10.2234
 30
0.0
 10
-22.4745
 20
13.1735
 30
0.0
 10
-16.0651
 20
15.0715
 30
0.0
 10
-11.8611
 20
13.5232
 30
0.0
  0
SPLINE
  5
4A
330
1F
100
AcDbEntity
  8
layer 1
 62
     7
100
AcDbSpline
210
0.0
220
0.0
230
1.0
 70
    11
 71
     3
 72
    20
 73
    16
 74
     0
 42
0.0000000001
 43
0.0000000001
 12
1.0
 22
0.0
 32
0.0
 13
1.0
 23
0.0
 33
0.0
 40
0.0
 40
0.0
 40
0.0
 40
0.0
 40
0.2
 40
0.2
 40
0.2
 40
0.2
 40
0.4
 40
0.4
 40
0.4
 40
0.4
 40
0.6
 40
0.6
 40
0.6
 40
0.6
 40
1.0
 40
1.0
 40
1.0
 40
1.0
 10
-1.3796
 20
63.6805
 30
0.0
 10
-3.6396
 20
61.2796
 30
0.0
 10
-1.5492
 20
58.7439
 30
0.0
 10
-1.6435
 20
55.6888
 30
0.0
 10
-1.6435
 20
55.6888
 30
0.0
 10
-1.7438
 20
52.4399
 30
0.0
 10
-2.4649
 20
50.97
 30
0.0
 10
-7.2873
 20
47.3201
 30
0.0
 10
-7.2873
 20
47.3201
 30
0.0
 10
-5.062
 20
46.9178
 30
0.0
 10
-4.0204
 20
46.5662
 30
0.0
 10
-2.0701
 20
45.5501
 30
0.0
 10
-2.0701
 20
45.5501
 30
0.0
 10
4.7831
 20
51.7307
 30
0.0
 10
3.1532
 20
60.4564
 30
0.0
 10
-1.3796
 20
63.6805
 30
0.0
  0
SPLINE
  5
4B
330
1F
100
AcDbEntity
  8
layer 1
 62
     7
100
AcDbSpline
210
0.0
220
0.0
230
1.0
 70
    11
 71
     3
 72
    24
 73
    20
 74
     0
 42
0.0000000001
 43
0.0000000001
 12
1.0
 22
0.0
 32
0.0
 13
1.0
 23
0.0
 33
0.0
 40
0.0
 40
0.0
 40
0.0
 40
0.0
 40
0.1666666666666667
 40
0.1666666666666667
 40
0.1666666666666667
 40
0.1666666666666667
 40
0.3333333333333333
 40
0.3333333333333333
 40
0.3333333333333333
 40
0.3333333333333333
 40
0.5
 40
0.5
 40
0.5
 40
0.5
 40
0.6666666666666666
 40
0.6666666666666666
 40
0.6666666666666666
 40
0.6666666666666666
 40
1.0
 40
1.0
 40
1.0
 40
1.0
 10
-5.5279
 20
66.0666
 30
0.0
 10
-7.9387
 20
64.6594
 30
0.0
 10
-9.2662
 20
60.9807
 30
0.0
 10
-8.1169
 20
58.0446
 30
0.0
 10
-8.1169
 20
58.0446
 30
0.0
 10
-11.9717
 20
59.865
 30
0.0
 10
-14.9278
 20
55.8172
 30
0.0
 10
-12.9872
 20
53.4412
 30
0.0
 10
-12.9872
 20
53.4412
 30
0.0
 10
-8.2325
 20
57.7332
 30
0.0
 10
-5.2952
 20
52.2197
 30
0.0
 10
-8.5356
 20
50.8075
 30
0.0
 10
-8.5356
 20
50.8075
 30
0.0
 10
-9.1738
 20
50.4053
 30
0.0
 10
-12.1701
 20
49.87
 30
0.0
 10
-13.3766
 20
50.7995
 30
0.0
 10
-13.3766
 20
50.7995
 30
0.0
 10
-24.2173
 20
57.751
 30
0.0
 10
-17.3673
 20
70.2577
 30
0.0
 10
-5.5279
 20
66.0666
 30
0.0
  0
SPLINE
  5
4C
330
1F
100
AcDbEntity
  8
layer 1
 62
     7
100
AcDbSpline
210
0.0
220
0.0
230
1.0
 70
    11
 71
     3
 72
    32
 73
    28
 74
     0
 42
0.0000000001
 43
0.0000000001
 12
1.0
 22
0.0
 32
0.0
 13
1.0
 23
0.0
 33
0.0
 40
0.0
 40
0.0
 40
0.0
 40
0.0
 40
0.125
 40
0.125
 40
0.125
 40
0.125
 40
0.25
 40
0.25
 40
0.25
 40
0.25
 40
0.375
 40
0.375
 40
0.375
 40
0.375
 40
0.5
 40
0.5
 40
0.5
 40
0.5
 40
0.625
 40
0.625
 40
0.625
 40
0.625
 40
0.75
 40
0.75
 40
0.75
 40
0.75
 40
1.0
 40
1.0
 40
1.0
 40
1.0
 10
-10.2539
 20
78.2901
 30
0.0
 10
-9.2255
 20
78.553
 30
0.0
 10
-8.0738
 20
78.4064
 30
0.0
 10
-6.8224
 20
78.1416
 30
0.0
 10
-6.8224
 20
78.1416
 30
0.0
 10
-8.0111
 20
82.1648
 30
0.0
 10
-2.784
 20
84.1945
 30
0.0
 10
-0.6186
 20
81.8325
 30
0.0
 10
-0.6186
 20
81.8325
 30
0.0
 10
-4.9106
 20
77.0778
 30
0.0
 10
1.3188
 20
75.2354
 30
0.0
 10
3.1522
 20
78.7707
 30
0.0
 10
3.1522
 20
78.7707
 30
0.0
 10
3.386
 20
79.3246
 30
0.0
 10
4.1319
 20
81.4366
 30
0.0
 10
3.3707
 20
83.2329
 30
0.0
 10
3.3707
 20
83.2329
 30
0.0
 10
0.7493
 20
89.532
 30
0.0
 10
-5.1944
 20
90.1844
 30
0.0
 10
-8.0159
 20
87.5265
 30
0.0
 10
-8.0159
 20
87.5265
 30
0.0
 10
-10.7092
 20
84.9896
 30
0.0
 10
-11.4468
 20
80.9792
 30
0.0
 10
-10.2541
 20
78.2899
 30
0.0
 10
-10.2541
 20
78.2899
 30
0.0
 10
-10.2541
 20
78.2899
 30
0.0
 10
-10.2539
 20
78.2901
 30
0.0
 10
-10.2539
 20
78.2901
 30
0.0
  0
SPLINE
  5
4D
330
1F
100
AcDbEntity
  8
layer 1
 62
     7
100
AcDbSpline
210
0.0
220
0.0
230
1.0
 70
    11
 71
     3
 72
   108
 73
   104
 74
     0
 42
0.0000000001
 43
0.0000000001
 12
1.0
 22
0.0
 32
0.0
 13
1.0
 23
0.0
 33
0.0
 40
0.0
 40
0.0
 40
0.0
 40
0.0
 40
0.037037037037037
 40
0.037037037037037
 40
0.037037037037037
 40
0.037037037037037
 40
0.0740740740740741
 40
0.0740740740740741
 40
0.0740740740740741
 40
0.0740740740740741
 40
0.1111111111111111
 40
0.1111111111111111
 40
0.1111111111111111
 40
0.1111111111111111
 40
0.1481481481481481
 40
0.1481481481481481
 40
0.1481481481481481
 40
0.1481481481481481
 40
0.1851851851851852
 40
0.1851851851851852
 40
0.1851851851851852
 40
0.1851851851851852
 40
0.2222222222222222
 40
0.2222222222222222
 40
0.2222222222222222
 40
0.2222222222222222
 40
0.2592592592592592
 40
0.2592592592592592
 40
0.2592592592592592
 40
0.2592592592592592
 40
0.2962962962962963
 40
0.2962962962962963
 40
0.2962962962962963
 40
0.2962962962962963
 40
0.3333333333333333
 40
0.3333333333333333
 40
0.3333333333333333
 40
0.3333333333333333
 40
0.3703703703703703
 40
0.3703703703703703
 40
0.3703703703703703
 40
0.3703703703703703
 40
0.4074074074074074
 40
0.4074074074074074
 40
0.4074074074074074
 40
0.4074074074074074
 40
0.4444444444444444
 40
0.4444444444444444
 40
0.4444444444444444
 40
0.4444444444444444
 40
0.4814814814814815
 40
0.4814814814814815
 40
0.4814814814814815
 40
0.4814814814814815
 40
0.5185185185185185
 40
0.5185185185185185
 40
0.5185185185185185
 40
0.5185185185185185
 40
0.5555555555555556
 40
0.5555555555555556
 40
0.5555555555555556
 40
0.5555555555555556
 40
0.5925925925925926
 40
0.5925925925925926
 40
0.5925925925925926
 40
0.5925925925925926
 40
0.6296296296296297
 40
0.6296296296296297
 40
0.6296296296296297
 40
0.6296296296296297
 40
0.6666666666666666
 40
0.6666666666666666
 40
0.6666666666666666
 40
0.6666666666666666
 40
0.7037037037037037
 40
0.7037037037037037
 40
0.7037037037037037
 40
0.7037037037037037
 40
0.7407407407407407
 40
0.7407407407407407
 40
0.7407407407407407
 40
0.7407407407407407
 40
0.7777777777777778
 40
0.7777777777777778
 40
0.7777777777777778
 40
0.7777777777777778
 40
0.8148148148148148
 40
0.8148148148148148
 40
0.8148148148148148
 40
0.8148148148148148
 40
0.8518518518518519
 40
0.8518518518518519
 40
0.8518518518518519
 40
0.8518518518518519
 40
0.8888888888888888
 40
0.8888888888888888
 40
0.8888888888888888
 40
0.8888888888888888
 40
0.9259259259259259
 40
0.9259259259259259
 40
0.9259259259259259
 40
0.9259259259259259
 40
1.0
 40
1.0
 40
1.0
 40
1.0
 10
-25.0072
 20
62.5571
 30
0.0
 10
-35.579
 20
64.7686
 30
0.0
 10
-39.4928
 20
72.7897
 30
0.0
 10
-39.4522
 20
77.9706
 30
0.0
 10
-39.4522
 20
77.9706
 30
0.0
 10
-39.0676
 20
85.7859
 30
0.0
 10
-28.1989
 20
91.9867
 30
0.0
 10
-19.1337
 20
85.8574
 30
0.0
 10
-19.1337
 20
85.8574
 30
0.0
 10
-20.9308
 20
85.3497
 30
0.0
 10
-23.8497
 20
83.4851
 30
0.0
 10
-25.2073
 20
81.3259
 30
0.0
 10
-25.2073
 20
81.3259
 30
0.0
 10
-24.1573
 20
80.9464
 30
0.0
 10
-22.3748
 20
79.8102
 30
0.0
 10
-20.7865
 20
77.6215
 30
0.0
 10
-20.7865
 20
77.6215
 30
0.0
 10
-24.847
 20
77.9009
 30
0.0
 10
-27.5274
 20
70.9632
 30
0.0
 10
-30.2922
 20
77.2401
 30
0.0
 10
-30.2922
 20
77.2401
 30
0.0
 10
-31.5695
 20
80.9537
 30
0.0
 10
-38.1201
 20
74.671
 30
0.0
 10
-32.0388
 20
69.4417
 30
0.0
 10
-32.0388
 20
69.4417
 30
0.0
 10
-30.3758
 20
67.749
 30
0.0
 10
-23.4791
 20
64.8027
 30
0.0
 10
-20.0922
 20
66.6595
 30
0.0
 10
-20.0922
 20
66.6595
 30
0.0
 10
-15.1152
 20
70.0544
 30
0.0
 10
-11.2556
 20
71.0212
 30
0.0
 10
-7.5575
 20
70.0883
 30
0.0
 10
-7.5575
 20
70.0883
 30
0.0
 10
-8.2817
 20
71.3282
 30
0.0
 10
-8.9147
 20
71.8365
 30
0.0
 10
-10.1168
 20
73.4731
 30
0.0
 10
-10.1168
 20
73.4731
 30
0.0
 10
-11.4451
 20
74.1018
 30
0.0
 10
-13.0587
 20
73.9715
 30
0.0
 10
-14.4452
 20
71.7366
 30
0.0
 10
-14.4452
 20
71.7366
 30
0.0
 10
-15.986
 20
72.9758
 30
0.0
 10
-16.1276
 20
77.1338
 30
0.0
 10
-12.4982
 20
77.8833
 30
0.0
 10
-12.4982
 20
77.8833
 30
0.0
 10
-15.8819
 20
83.5318
 30
0.0
 10
-12.2753
 20
90.8653
 30
0.0
 10
-4.9501
 20
92.2439
 30
0.0
 10
-4.9501
 20
92.2439
 30
0.0
 10
-0.6039
 20
92.9125
 30
0.0
 10
5.0859
 20
95.9462
 30
0.0
 10
2.7577
 20
104.0048
 30
0.0
 10
2.7577
 20
104.0048
 30
0.0
 10
-0.5364
 20
113.2073
 30
0.0
 10
-9.9718
 20
109.6097
 30
0.0
 10
-8.8681
 20
103.813
 30
0.0
 10
-8.8681
 20
103.813
 30
0.0
 10
-3.3183
 20
103.2624
 30
0.0
 10
-6.73
 20
98.3097
 30
0.0
 10
-1.4921
 20
97.0312
 30
0.0
 10
-1.4921
 20
97.0312
 30
0.0
 10
-1.9946
 20
93.9014
 30
0.0
 10
-7.3132
 20
94.9504
 30
0.0
 10
-8.1543
 20
96.8812
 30
0.0
 10
-8.1543
 20
96.8812
 30
0.0
 10
-9.4726
 20
90.964
 30
0.0
 10
-19.4684
 20
93.6065
 30
0.0
 10
-18.957
 20
97.8469
 30
0.0
 10
-18.957
 20
97.8469
 30
0.0
 10
-10.1282
 20
96.381
 30
0.0
 10
-12.2898
 20
103.3515
 30
0.0
 10
-12.0606
 20
105.3056
 30
0.0
 10
-12.0606
 20
105.3056
 30
0.0
 10
-12.0022
 20
113.5559
 30
0.0
 10
-1.0025
 20
113.6571
 30
0.0
 10
1.658
 20
110.5173
 30
0.0
 10
1.658
 20
110.5173
 30
0.0
 10
-0.7212
 20
115.0162
 30
0.0
 10
5.9513
 20
119.7801
 30
0.0
 10
1.9258
 20
125.3212
 30
0.0
 10
1.9258
 20
125.3212
 30
0.0
 10
0.4503
 20
118.77
 30
0.0
 10
-3.9166
 20
113.2857
 30
0.0
 10
-12.6126
 20
113.2157
 30
0.0
 10
-12.6126
 20
113.2157
 30
0.0
 10
-15.0309
 20
113.1962
 30
0.0
 10
-28.9713
 20
108.3067
 30
0.0
 10
-21.2608
 20
92.379
 30
0.0
 10
-21.2608
 20
92.379
 30
0.0
 10
-35.6993
 20
95.3653
 30
0.0
 10
-45.9129
 20
86.9461
 30
0.0
 10
-42.7926
 20
74.9583
 30
0.0
 10
-42.7926
 20
74.9583
 30
0.0
 10
-41.1419
 20
68.7081
 30
0.0
 10
-36.5329
 20
63.627
 30
0.0
 10
-32.7996
 20
60.9874
 30
0.0
 10
-32.7996
 20
60.9874
 30
0.0
 10
-31.7669
 20
60.2707
 30
0.0
 10
-30.6376
 20
60.1666
 30
0.0
 10
-29.2001
 20
60.5616
 30
0.0
 10
-29.2001
 20
60.5616
 30
0.0
 10
-26.4286
 20
61.1518
 30
0.0
 10
-25.9251
 20
62.07
 30
0.0
 10
-25.0072
 20
62.5571
 30
0.0
  0
SPLINE
  5
4E
330
1F
100
AcDbEntity
  8
layer 1
 62
     7
100
AcDbSpline
210
0.0
220
0.0
230
1.0
 70
    11
 71
     3
 72
    32
 73
    28
 74
     0
 42
0.0000000001
 43
0.0000000001
 12
1.0
 22
0.0
 32
0.0
 13
1.0
 23
0.0
 33
0.0
 40
0.0
 40
0.0
 40
0.0
 40
0.0
 40
0.125
 40
0.125
 40
0.125
 40
0.125
 40
0.25
 40
0.25
 40
0.25
 40
0.25
 40
0.375
 40
0.375
 40
0.375
 40
0.375
 40
0.5
 40
0.5
 40
0.5
 40
0.5
 40
0.625
 40
0.625
 40
0.625
 40
0.625
 40
0.75
 40
0.75
 40
0.75
 40
0.75
 40
1.0
 40
1.0
 40
1.0
 40
1.0
 10
-44.5387
 20
-24.7339
 30
0.0
 10
-42.0213
 20
-32.9048
 30
0.0
 10
-33.6677
 20
-40.0146
 30
0.0
 10
-22.2367
 20
-43.9409
 30
0.0
 10
-22.2367
 20
-43.9409
 30
0.0
 10
-22.555
 20
-36.9317
 30
0.0
 10
-19.5838
 20
-33.6365
 30
0.0
 10
-16.8248
 20
-31.2964
 30
0.0
 10
-16.8248
 20
-31.2964
 30
0.0
 10
-19.8768
 20
-31.7209
 30
0.0
 10
-23.7947
 20
-30.8661
 30
0.0
 10
-25.7586
 20
-29.5873
 30
0.0
 10
-25.7586
 20
-29.5873
 30
0.0
 10
-26.7034
 20
-37.3855
 30
0.0
 10
-40.0907
 20
-32.1306
 30
0.0
 10
-32.6354
 20
-26.0627
 30
0.0
 10
-32.6354
 20
-26.0627
 30
0.0
 10
-34.873
 20
-22.8727
 30
0.0
 10
-42.7016
 20
-21.5703
 30
0.0
 10
-38.9164
 20
-10.7201
 30
0.0
 10
-38.9164
 20
-10.7201
 30
0.0
 10
-35.7049
 20
-1.0195
 30
0.0
 10
-39.8412
 20
1.7058
 30
0.0
 10
-44.5387
 20
1.7058
 30
0.0
 10
-44.5387
 20
1.7058
 30
0.0
 10
-44.5387
 20
-11.8826
 30
0.0
 10
-44.5387
 20
-11.1453
 30
0.0
 10
-44.5387
 20
-24.7339
 30
0.0
  0
SPLINE
  5
4F
330
1F
100
AcDbEntity
  8
layer 1
 62
     7
100
AcDbSpline
210
0.0
220
0.0
230
1.0
 70
    11
 71
     3
 72
    16
 73
    12
 74
     0
 42
0.0000000001
 43
0.0000000001
 12
1.0
 22
0.0
 32
0.0
 13
1.0
 23
0.0
 33
0.0
 40
0.0
 40
0.0
 40
0.0
 40
0.0
 40
0.25
 40
0.25
 40
0.25
 40
0.25
 40
0.5
 40
0.5
 40
0.5
 40
0.5
 40
1.0
 40
1.0
 40
1.0
 40
1.0
 10
-44.5034
 20
-50.1565
 30
0.0
 10
-41.4174
 20
-46.7174
 30
0.0
 10
-39.2458
 20
-43.8972
 30
0.0
 10
-34.9289
 20
-40.995
 30
0.0
 10
-34.9289
 20
-40.995
 30
0.0
 10
-37.8181
 20
-39.2509
 30
0.0
 10
-41.5445
 20
-36.5998
 30
0.0
 10
-44.5034
 20
-33.0418
 30
0.0
 10
-44.5034
 20
-33.0418
 30
0.0
 10
-44.5034
 20
-46.6302
 30
0.0
 10
-44.5034
 20
-36.5682
 30
0.0
 10
-44.5034
 20
-50.1565
 30
0.0
  0
SPLINE
  5
50
330
1F
100
AcDbEntity
  8
layer 1
 62
     7
100
AcDbSpline
210
0.0
220
0.0
230
1.0
 70
    11
 71
     3
 72
    32
 73
    28
 74
     0
 42
0.0000000001
 43
0.0000000001
 12
1.0
 22
0.0
 32
0.0
 13
1.0
 23
0.0
 33
0.0
 40
0.0
 40
0.0
 40
0.0
 40
0.0
 40
0.125
 40
0.125
 40
0.125
 40
0.125
 40
0.25
 40
0.25
 40
0.25
 40
0.25
 40
0.375
 40
0.375
 40
0.375
 40
0.375
 40
0.5
 40
0.5
 40
0.5
 40
0.5
 40
0.625
 40
0.625
 40
0.625
 40
0.625
 40
0.75
 40
0.75
 40
0.75
 40
0.75
 40
1.0
 40
1.0
 40
1.0
 40
1.0
 10
-0.6809
 20
-5.3262
 30
0.0
 10
-1.6332
 20
-1.6182
 30
0.0
 10
-7.5562
 20
-2.0051
 30
0.0
 10
-7.5385
 20
-6.3586
 30
0.0
 10
-7.5385
 20
-6.3586
 30
0.0
 10
-15.8961
 20
-6.0966
 30
0.0
 10
-12.5581
 20
-12.1557
 30
0.0
 10
-9.5005
 20
-12.2448
 30
0.0
 10
-9.5005
 20
-12.2448
 30
0.0
 10
-8.2654
 20
-12.4094
 30
0.0
 10
-4.9514
 20
-12.1217
 30
0.0
 10
-3.5996
 20
-11.7942
 30
0.0
 10
-3.5996
 20
-11.7942
 30
0.0
 10
-3.3296
 20
-13.8685
 30
0.0
 10
-3.3993
 20
-18.4654
 30
0.0
 10
2.6611
 20
-22.8403
 30
0.0
 10
2.6611
 20
-22.8403
 30
0.0
 10
0.4407
 20
-24.3019
 30
0.0
 10
-0.3561
 20
-24.847
 30
0.0
 10
-2.5565
 20
-25.634
 30
0.0
 10
-2.5565
 20
-25.634
 30
0.0
 10
-18.2993
 20
-16.5327
 30
0.0
 10
-22.2729
 20
-2.2575
 30
0.0
 10
-1.1227
 20
4.0915
 30
0.0
 10
-1.1227
 20
4.0915
 30
0.0
 10
0.9145
 20
2.6872
 30
0.0
 10
2.9255
 20
-3.3518
 30
0.0
 10
-0.6809
 20
-5.3262
 30
0.0
  0
SPLINE
  5
51
330
1F
100
AcDbEntity
  8
layer 1
 62
     7
100
AcDbSpline
210
0.0
220
0.0
230
1.0
 70
    11
 71
     3
 72
    48
 73
    44
 74
     0
 42
0.0000000001
 43
0.0000000001
 12
1.0
 22
0.0
 32
0.0
 13
1.0
 23
0.0
 33
0.0
 40
0.0
 40
0.0
 40
0.0
 40
0.0
 40
0.0833333333333333
 40
0.0833333333333333
 40
0.0833333333333333
 40
0.0833333333333333
 40
0.1666666666666667
 40
0.1666666666666667
 40
0.1666666666666667
 40
0.1666666666666667
 40
0.25
 40
0.25
 40
0.25
 40
0.25
 40
0.3333333333333333
 40
0.3333333333333333
 40
0.3333333333333333
 40
0.3333333333333333
 40
0.4166666666666667
 40
0.4166666666666667
 40
0.4166666666666667
 40
0.4166666666666667
 40
0.5
 40
0.5
 40
0.5
 40
0.5
 40
0.5833333333333334
 40
0.5833333333333334
 40
0.5833333333333334
 40
0.5833333333333334
 40
0.6666666666666666
 40
0.6666666666666666
 40
0.6666666666666666
 40
0.6666666666666666
 40
0.75
 40
0.75
 40
0.75
 40
0.75
 40
0.8333333333333334
 40
0.8333333333333334
 40
0.8333333333333334
 40
0.8333333333333334
 40
1.0
 40
1.0
 40
1.0
 40
1.0
 10
-31.6987
 20
-8.2859
 30
0.0
 10
-29.8162
 20
-7.4779
 30
0.0
 10
-25.699
 20
-8.412
 30
0.0
 10
-25.0599
 20
-11.5072
 30
0.0
 10
-25.0599
 20
-11.5072
 30
0.0
 10
-31.3667
 20
-11.4094
 30
0.0
 10
-29.9442
 20
-16.374
 30
0.0
 10
-33.4395
 20
-16.0802
 30
0.0
 10
-33.4395
 20
-16.0802
 30
0.0
 10
-36.152
 20
-17.2297
 30
0.0
 10
-32.4073
 20
-22.7422
 30
0.0
 10
-29.6554
 20
-24.0561
 30
0.0
 10
-29.6554
 20
-24.0561
 30
0.0
 10
-26.7866
 20
-14.531
 30
0.0
 10
-14.8026
 20
-23.0432
 30
0.0
 10
-22.2365
 20
-27.3867
 30
0.0
 10
-22.2365
 20
-27.3867
 30
0.0
 10
-19.3713
 20
-28.4423
 30
0.0
 10
-10.1393
 20
-28.9674
 30
0.0
 10
-5.364
 20
-26.7333
 30
0.0
 10
-5.364
 20
-26.7333
 30
0.0
 10
-9.265
 20
-25.566
 30
0.0
 10
-25.8105
 20
-16.4344
 30
0.0
 10
-21.4074
 20
-5.8174
 30
0.0
 10
-21.4074
 20
-5.8174
 30
0.0
 10
-25.4296
 20
-5.8691
 30
0.0
 10
-32.3506
 20
-0.4505
 30
0.0
 10
-30.1422
 20
7.1667
 30
0.0
 10
-30.1422
 20
7.1667
 30
0.0
 10
-32.9223
 20
5.336
 30
0.0
 10
-39.1427
 20
3.7059
 30
0.0
 10
-44.5383
 20
6.8852
 30
0.0
 10
-44.5383
 20
6.8852
 30
0.0
 10
-44.5383
 20
6.8852
 30
0.0
 10
-44.5383
 20
2.8731
 30
0.0
 10
-44.5383
 20
2.8731
 30
0.0
 10
-44.5383
 20
2.8731
 30
0.0
 10
-41.1426
 20
5.3082
 30
0.0
 10
-25.7557
 20
2.013
 30
0.0
 10
-31.6983
 20
-8.2859
 30
0.0
 10
-31.6983
 20
-8.2859
 30
0.0
 10
-31.6983
 20
-8.2859
 30
0.0
 10
-31.6987
 20
-8.2859
 30
0.0
 10
-31.6987
 20
-8.2859
 30
0.0
  0
SPLINE
  5
52
330
1F
100
AcDbEntity
  8
layer 1
 62
     7
100
AcDbSpline
210
0.0
220
0.0
230
1.0
 70
    11
 71
     3
 72
    20
 73
    16
 74
     0
 42
0.0000000001
 43
0.0000000001
 12
1.0
 22
0.0
 32
0.0
 13
1.0
 23
0.0
 33
0.0
 40
0.0
 40
0.0
 40
0.0
 40
0.0
 40
0.2
 40
0.2
 40
0.2
 40
0.2
 40
0.4
 40
0.4
 40
0.4
 40
0.4
 40
0.6
 40
0.6
 40
0.6
 40
0.6
 40
1.0
 40
1.0
 40
1.0
 40
1.0
 10
-4.8023
 20
-55.8358
 30
0.0
 10
-0.9925
 20
-53.4472
 30
0.0
 10
3.9307
 20
-46.515
 30
0.0
 10
5.1865
 20
-40.7014
 30
0.0
 10
5.1865
 20
-40.7014
 30
0.0
 10
6.4423
 20
-46.515
 30
0.0
 10
11.3653
 20
-53.4472
 30
0.0
 10
15.1753
 20
-55.8358
 30
0.0
 10
15.1753
 20
-55.8358
 30
0.0
 10
10.0298
 20
-54.9172
 30
0.0
 10
5.9251
 20
-56.1723
 30
0.0
 10
5.1865
 20
-59.4734
 30
0.0
 10
5.1865
 20
-59.4734
 30
0.0
 10
4.4481
 20
-56.1725
 30
0.0
 10
0.3432
 20
-54.9172
 30
0.0
 10
-4.8023
 20
-55.8358
 30
0.0
  0
SPLINE
  5
53
330
1F
100
AcDbEntity
  8
layer 1
 62
     7
100
AcDbSpline
210
0.0
220
0.0
230
1.0
 70
    11
 71
     3
 72
    20
 73
    16
 74
     0
 42
0.0000000001
 43
0.0000000001
 12
1.0
 22
0.0
 32
0.0
 13
1.0
 23
0.0
 33
0.0
 40
0.0
 40
0.0
 40
0.0
 40
0.0
 40
0.2
 40
0.2
 40
0.2
 40
0.2
 40
0.4
 40
0.4
 40
0.4
 40
0.4
 40
0.6
 40
0.6
 40
0.6
 40
0.6
 40
1.0
 40
1.0
 40
1.0
 40
1.0
 10
0.2817
 20
-27.652
 30
0.0
 10
2.043
 20
-26.6903
 30
0.0
 10
3.7465
 20
-25.3832
 30
0.0
 10
5.1863
 20
-24.2879
 30
0.0
 10
5.1863
 20
-24.2879
 30
0.0
 10
6.6261
 20
-25.3834
 30
0.0
 10
8.3296
 20
-26.6903
 30
0.0
 10
10.0909
 20
-27.652
 30
0.0
 10
10.0909
 20
-27.652
 30
0.0
 10
7.5003
 20
-30.347
 30
0.0
 10
5.9707
 20
-33.5479
 30
0.0
 10
5.1863
 20
-34.9617
 30
0.0
 10
5.1863
 20
-34.9617
 30
0.0
 10
4.4019
 20
-33.5479
 30
0.0
 10
2.8723
 20
-30.347
 30
0.0
 10
0.2817
 20
-27.652
 30
0.0
  0
SPLINE
  5
54
330
1F
100
AcDbEntity
  8
layer 1
 62
     7
100
AcDbSpline
210
0.0
220
0.0
230
1.0
 70
    11
 71
     3
 72
    20
 73
    16
 74
     0
 42
0.0000000001
 43
0.0000000001
 12
1.0
 22
0.0
 32
0.0
 13
1.0
 23
0.0
 33
0.0
 40
0.0
 40
0.0
 40
0.0
 40
0.0
 40
0.2
 40
0.2
 40
0.2
 40
0.2
 40
0.4
 40
0.4
 40
0.4
 40
0.4
 40
0.6
 40
0.6
 40
0.6
 40
0.6
 40
1.0
 40
1.0
 40
1.0
 40
1.0
 10
0.3553
 20
-73.832
 30
0.0
 10
3.222
 20
-72.502
 30
0.0
 10
3.8201
 20
-71.637
 30
0.0
 10
5.1863
 20
-69.6573
 30
0.0
 10
5.1863
 20
-69.6573
 30
0.0
 10
6.5525
 20
-71.637
 30
0.0
 10
7.1506
 20
-72.502
 30
0.0
 10
10.0173
 20
-73.832
 30
0.0
 10
10.0173
 20
-73.832
 30
0.0
 10
7.5003
 20
-75.4216
 30
0.0
 10
6.3392
 20
-75.8959
 30
0.0
 10
5.1863
 20
-78.8572
 30
0.0
 10
5.1863
 20
-78.8572
 30
0.0
 10
4.0334
 20
-75.8959
 30
0.0
 10
2.8723
 20
-75.4214
 30
0.0
 10
0.3553
 20
-73.832
 30
0.0
  0
SPLINE
  5
55
330
1F
100
AcDbEntity
  8
layer 1
 62
     7
100
AcDbSpline
210
0.0
220
0.0
230
1.0
 70
    11
 71
     3
 72
    20
 73
    16
 74
     0
 42
0.0000000001
 43
0.0000000001
 12
1.0
 22
0.0
 32
0.0
 13
1.0
 23
0.0
 33
0.0
 40
0.0
 40
0.0
 40
0.0
 40
0.0
 40
0.2
 40
0.2
 40
0.2
 40
0.2
 40
0.4
 40
0.4
 40
0.4
 40
0.4
 40
0.6
 40
0.6
 40
0.6
 40
0.6
 40
1.0
 40
1.0
 40
1.0
 40
1.0
 10
0.3597
 20
-11.2676
 30
0.0
 10
1.0287
 20
-8.8236
 30
0.0
 10
3.6685
 20
-6.7363
 30
0.0
 10
5.1863
 20
-4.0026
 30
0.0
 10
5.1863
 20
-4.0026
 30
0.0
 10
6.7043
 20
-6.7363
 30
0.0
 10
9.3439
 20
-8.8236
 30
0.0
 10
10.0129
 20
-11.2676
 30
0.0
 10
10.0129
 20
-11.2676
 30
0.0
 10
10.9332
 20
-16.3031
 30
0.0
 10
6.5948
 20
-20.5184
 30
0.0
 10
5.1863
 20
-21.23
 30
0.0
 10
5.1863
 20
-21.23
 30
0.0
 10
3.7778
 20
-20.5184
 30
0.0
 10
-0.5606
 20
-16.3031
 30
0.0
 10
0.3597
 20
-11.2676
 30
0.0
  0
SPLINE
  5
56
330
1F
100
AcDbEntity
  8
layer 1
 62
     7
100
AcDbSpline
210
0.0
220
0.0
230
1.0
 70
    11
 71
     3
 72
    12
 73
     8
 74
     0
 42
0.0000000001
 43
0.0000000001
 12
1.0
 22
0.0
 32
0.0
 13
1.0
 23
0.0
 33
0.0
 40
0.0
 40
0.0
 40
0.0
 40
0.0
 40
0.3333333333333333
 40
0.3333333333333333
 40
0.3333333333333333
 40
0.3333333333333333
 40
1.0
 40
1.0
 40
1.0
 40
1.0
 10
-21.6342
 20
8.477
 30
0.0
 10
-19.5417
 20
11.0919
 30
0.0
 10
-10.3012
 20
11.4157
 30
0.0
 10
-6.2314
 20
8.477
 30
0.0
 10
-6.2314
 20
8.477
 30
0.0
 10
-10.3012
 20
5.5382
 30
0.0
 10
-19.5417
 20
5.862
 30
0.0
 10
-21.6342
 20
8.477
 30
0.0
  0
SPLINE
  5
57
330
1F
100
AcDbEntity
  8
layer 1
 62
     7
100
AcDbSpline
210
0.0
220
0.0
230
1.0
 70
    11
 71
     3
 72
    12
 73
     8
 74
     0
 42
0.0000000001
 43
0.0000000001
 12
1.0
 22
0.0
 32
0.0
 13
1.0
 23
0.0
 33
0.0
 40
0.0
 40
0.0
 40
0.0
 40
0.0
 40
0.3333333333333333
 40
0.3333333333333333
 40
0.3333333333333333
 40
0.3333333333333333
 40
1.0
 40
1.0
 40
1.0
 40
1.0
 10
-11.8611
 20
3.4309
 30
0.0
 10
-16.5881
 20
-5.1076
 30
0.0
 10
-29.4586
 20
-1.0176
 30
0.0
 10
-25.2163
 20
6.7307
 30
0.0
 10
-25.2163
 20
6.7307
 30
0.0
 10
-22.4745
 20
3.7807
 30
0.0
 10
-16.0651
 20
1.8827
 30
0.0
 10
-11.8611
 20
3.4309
 30
0.0
  0
SPLINE
  5
58
330
1F
100
AcDbEntity
  8
layer 1
 62
     7
100
AcDbSpline
210
0.0
220
0.0
230
1.0
 70
    11
 71
     3
 72
    20
 73
    16
 74
     0
 42
0.0000000001
 43
0.0000000001
 12
1.0
 22
0.0
 32
0.0
 13
1.0
 23
0.0
 33
0.0
 40
0.0
 40
0.0
 40
0.0
 40
0.0
 40
0.2
 40
0.2
 40
0.2
 40
0.2
 40
0.4
 40
0.4
 40
0.4
 40
0.4
 40
0.6
 40
0.6
 40
0.6
 40
0.6
 40
1.0
 40
1.0
 40
1.0
 40
1.0
 10
-1.3796
 20
-46.7264
 30
0.0
 10
-3.6396
 20
-44.3255
 30
0.0
 10
-1.5492
 20
-41.7898
 30
0.0
 10
-1.6435
 20
-38.7347
 30
0.0
 10
-1.6435
 20
-38.7347
 30
0.0
 10
-1.7438
 20
-35.4858
 30
0.0
 10
-2.4649
 20
-34.0159
 30
0.0
 10
-7.2873
 20
-30.366
 30
0.0
 10
-7.2873
 20
-30.366
 30
0.0
 10
-5.062
 20
-29.9637
 30
0.0
 10
-4.0204
 20
-29.6121
 30
0.0
 10
-2.0701
 20
-28.596
 30
0.0
 10
-2.0701
 20
-28.596
 30
0.0
 10
4.7831
 20
-34.7765
 30
0.0
 10
3.1532
 20
-43.5022
 30
0.0
 10
-1.3796
 20
-46.7264
 30
0.0
  0
SPLINE
  5
59
330
1F
100
AcDbEntity
  8
layer 1
 62
     7
100
AcDbSpline
210
0.0
220
0.0
230
1.0
 70
    11
 71
     3
 72
    24
 73
    20
 74
     0
 42
0.0000000001
 43
0.0000000001
 12
1.0
 22
0.0
 32
0.0
 13
1.0
 23
0.0
 33
0.0
 40
0.0
 40
0.0
 40
0.0
 40
0.0
 40
0.1666666666666667
 40
0.1666666666666667
 40
0.1666666666666667
 40
0.1666666666666667
 40
0.3333333333333333
 40
0.3333333333333333
 40
0.3333333333333333
 40
0.3333333333333333
 40
0.5
 40
0.5
 40
0.5
 40
0.5
 40
0.6666666666666666
 40
0.6666666666666666
 40
0.6666666666666666
 40
0.6666666666666666
 40
1.0
 40
1.0
 40
1.0
 40
1.0
 10
-5.5279
 20
-49.1125
 30
0.0
 10
-7.9387
 20
-47.7053
 30
0.0
 10
-9.2662
 20
-44.0266
 30
0.0
 10
-8.1169
 20
-41.0905
 30
0.0
 10
-8.1169
 20
-41.0905
 30
0.0
 10
-11.9717
 20
-42.9108
 30
0.0
 10
-14.9278
 20
-38.863
 30
0.0
 10
-12.9872
 20
-36.4871
 30
0.0
 10
-12.9872
 20
-36.4871
 30
0.0
 10
-8.2325
 20
-40.7791
 30
0.0
 10
-5.2952
 20
-35.2656
 30
0.0
 10
-8.5356
 20
-33.8534
 30
0.0
 10
-8.5356
 20
-33.8534
 30
0.0
 10
-9.1738
 20
-33.4512
 30
0.0
 10
-12.1701
 20
-32.9159
 30
0.0
 10
-13.3766
 20
-33.8454
 30
0.0
 10
-13.3766
 20
-33.8454
 30
0.0
 10
-24.2173
 20
-40.7969
 30
0.0
 10
-17.3673
 20
-53.3036
 30
0.0
 10
-5.5279
 20
-49.1125
 30
0.0
  0
SPLINE
  5
5A
330
1F
100
AcDbEntity
  8
layer 1
 62
     7
100
AcDbSpline
210
0.0
220
0.0
230
1.0
 70
    11
 71
     3
 72
    32
 73
    28
 74
     0
 42
0.0000000001
 43
0.0000000001
 12
1.0
 22
0.0
 32
0.0
 13
1.0
 23
0.0
 33
0.0
 40
0.0
 40
0.0
 40
0.0
 40
0.0
 40
0.125
 40
0.125
 40
0.125
 40
0.125
 40
0.25
 40
0.25
 40
0.25
 40
0.25
 40
0.375
 40
0.375
 40
0.375
 40
0.375
 40
0.5
 40
0.5
 40
0.5
 40
0.5
 40
0.625
 40
0.625
 40
0.625
 40
0.625
 40
0.75
 40
0.75
 40
0.75
 40
0.75
 40
1.0
 40
1.0
 40
1.0
 40
1.0
 10
-10.2539
 20
-61.336
 30
0.0
 10
-9.2255
 20
-61.5989
 30
0.0
 10
-8.0738
 20
-61.4523
 30
0.0
 10
-6.8224
 20
-61.1875
 30
0.0
 10
-6.8224
 20
-61.1875
 30
0.0
 10
-8.0111
 20
-65.2107
 30
0.0
 10
-2.784
 20
-67.2404
 30
0.0
 10
-0.6186
 20
-64.8784
 30
0.0
 10
-0.6186
 20
-64.8784
 30
0.0
 10
-4.9106
 20
-60.1237
 30
0.0
 10
1.3188
 20
-58.2813
 30
0.0
 10
3.1522
 20
-61.8166
 30
0.0
 10
3.1522
 20
-61.8166
 30
0.0
 10
3.386
 20
-62.3704
 30
0.0
 10
4.1319
 20
-64.4825
 30
0.0
 10
3.3707
 20
-66.2787
 30
0.0
 10
3.3707
 20
-66.2787
 30
0.0
 10
0.7493
 20
-72.5779
 30
0.0
 10
-5.1944
 20
-73.2302
 30
0.0
 10
-8.0159
 20
-70.5724
 30
0.0
 10
-8.0159
 20
-70.5724
 30
0.0
 10
-10.7092
 20
-68.0355
 30
0.0
 10
-11.4468
 20
-64.0251
 30
0.0
 10
-10.2541
 20
-61.3358
 30
0.0
 10
-10.2541
 20
-61.3358
 30
0.0
 10
-10.2541
 20
-61.3358
 30
0.0
 10
-10.2539
 20
-61.336
 30
0.0
 10
-10.2539
 20
-61.336
 30
0.0
  0
SPLINE
  5
5B
330
1F
100
AcDbEntity
  8
layer 1
 62
     7
100
AcDbSpline
210
0.0
220
0.0
230
1.0
 70
    11
 71
     3
 72
   108
 73
   104
 74
     0
 42
0.0000000001
 43
0.0000000001
 12
1.0
 22
0.0
 32
0.0
 13
1.0
 23
0.0
 33
0.0
 40
0.0
 40
0.0
 40
0.0
 40
0.0
 40
0.037037037037037
 40
0.037037037037037
 40
0.037037037037037
 40
0.037037037037037
 40
0.0740740740740741
 40
0.0740740740740741
 40
0.0740740740740741
 40
0.0740740740740741
 40
0.1111111111111111
 40
0.1111111111111111
 40
0.1111111111111111
 40
0.1111111111111111
 40
0.1481481481481481
 40
0.1481481481481481
 40
0.1481481481481481
 40
0.1481481481481481
 40
0.1851851851851852
 40
0.1851851851851852
 40
0.1851851851851852
 40
0.1851851851851852
 40
0.2222222222222222
 40
0.2222222222222222
 40
0.2222222222222222
 40
0.2222222222222222
 40
0.2592592592592592
 40
0.2592592592592592
 40
0.2592592592592592
 40
0.2592592592592592
 40
0.2962962962962963
 40
0.2962962962962963
 40
0.2962962962962963
 40
0.2962962962962963
 40
0.3333333333333333
 40
0.3333333333333333
 40
0.3333333333333333
 40
0.3333333333333333
 40
0.3703703703703703
 40
0.3703703703703703
 40
0.3703703703703703
 40
0.3703703703703703
 40
0.4074074074074074
 40
0.4074074074074074
 40
0.4074074074074074
 40
0.4074074074074074
 40
0.4444444444444444
 40
0.4444444444444444
 40
0.4444444444444444
 40
0.4444444444444444
 40
0.4814814814814815
 40
0.4814814814814815
 40
0.4814814814814815
 40
0.4814814814814815
 40
0.5185185185185185
 40
0.5185185185185185
 40
0.5185185185185185
 40
0.5185185185185185
 40
0.5555555555555556
 40
0.5555555555555556
 40
0.5555555555555556
 40
0.5555555555555556
 40
0.5925925925925926
 40
0.5925925925925926
 40
0.5925925925925926
 40
0.5925925925925926
 40
0.6296296296296297
 40
0.6296296296296297
 40
0.6296296296296297
 40
0.6296296296296297
 40
0.6666666666666666
 40
0.6666666666666666
 40
0.6666666666666666
 40
0.6666666666666666
 40
0.7037037037037037
 40
0.7037037037037037
 40
0.7037037037037037
 40
0.7037037037037037
 40
0.7407407407407407
 40
0.7407407407407407
 40
0.7407407407407407
 40
0.7407407407407407
 40
0.7777777777777778
 40
0.7777777777777778
 40
0.7777777777777778
 40
0.7777777777777778
 40
0.8148148148148148
 40
0.8148148148148148
 40
0.8148148148148148
 40
0.8148148148148148
 40
0.8518518518518519
 40
0.8518518518518519
 40
0.8518518518518519
 40
0.8518518518518519
 40
0.8888888888888888
 40
0.8888888888888888
 40
0.8888888888888888
 40
0.8888888888888888
 40
0.9259259259259259
 40
0.9259259259259259
 40
0.9259259259259259
 40
0.9259259259259259
 40
1.0
 40
1.0
 40
1.0
 40
1.0
 10
-25.0072
 20
-45.603
 30
0.0
 10
-35.579
 20
-47.8145
 30
0.0
 10
-39.4928
 20
-55.8356
 30
0.0
 10
-39.4522
 20
-61.0165
 30
0.0
 10
-39.4522
 20
-61.0165
 30
0.0
 10
-39.0676
 20
-68.8318
 30
0.0
 10
-28.1989
 20
-75.0326
 30
0.0
 10
-19.1337
 20
-68.9032
 30
0.0
 10
-19.1337
 20
-68.9032
 30
0.0
 10
-20.9308
 20
-68.3956
 30
0.0
 10
-23.8497
 20
-66.5309
 30
0.0
 10
-25.2073
 20
-64.3717
 30
0.0
 10
-25.2073
 20
-64.3717
 30
0.0
 10
-24.1573
 20
-63.9923
 30
0.0
 10
-22.3748
 20
-62.8561
 30
0.0
 10
-20.7865
 20
-60.6674
 30
0.0
 10
-20.7865
 20
-60.6674
 30
0.0
 10
-24.847
 20
-60.9468
 30
0.0
 10
-27.5274
 20
-54.009
 30
0.0
 10
-30.2922
 20
-60.286
 30
0.0
 10
-30.2922
 20
-60.286
 30
0.0
 10
-31.5695
 20
-63.9996
 30
0.0
 10
-38.1201
 20
-57.7169
 30
0.0
 10
-32.0388
 20
-52.4876
 30
0.0
 10
-32.0388
 20
-52.4876
 30
0.0
 10
-30.3758
 20
-50.7949
 30
0.0
 10
-23.4791
 20
-47.8486
 30
0.0
 10
-20.0922
 20
-49.7054
 30
0.0
 10
-20.0922
 20
-49.7054
 30
0.0
 10
-15.1152
 20
-53.1003
 30
0.0
 10
-11.2556
 20
-54.0671
 30
0.0
 10
-7.5575
 20
-53.1342
 30
0.0
 10
-7.5575
 20
-53.1342
 30
0.0
 10
-8.2817
 20
-54.3741
 30
0.0
 10
-8.9147
 20
-54.8823
 30
0.0
 10
-10.1168
 20
-56.5189
 30
0.0
 10
-10.1168
 20
-56.5189
 30
0.0
 10
-11.4451
 20
-57.1477
 30
0.0
 10
-13.0587
 20
-57.0174
 30
0.0
 10
-14.4452
 20
-54.7825
 30
0.0
 10
-14.4452
 20
-54.7825
 30
0.0
 10
-15.986
 20
-56.0216
 30
0.0
 10
-16.1276
 20
-60.1796
 30
0.0
 10
-12.4982
 20
-60.9291
 30
0.0
 10
-12.4982
 20
-60.9291
 30
0.0
 10
-15.8819
 20
-66.5777
 30
0.0
 10
-12.2753
 20
-73.9111
 30
0.0
 10
-4.9501
 20
-75.2898
 30
0.0
 10
-4.9501
 20
-75.2898
 30
0.0
 10
-0.6039
 20
-75.9584
 30
0.0
 10
5.0859
 20
-78.9921
 30
0.0
 10
2.7577
 20
-87.0507
 30
0.0
 10
2.7577
 20
-87.0507
 30
0.0
 10
-0.5364
 20
-96.2532
 30
0.0
 10
-9.9718
 20
-92.6555
 30
0.0
 10
-8.8681
 20
-86.8588
 30
0.0
 10
-8.8681
 20
-86.8588
 30
0.0
 10
-3.3183
 20
-86.3083
 30
0.0
 10
-6.73
 20
-81.3556
 30
0.0
 10
-1.4921
 20
-80.0771
 30
0.0
 10
-1.4921
 20
-80.0771
 30
0.0
 10
-1.9946
 20
-76.9473
 30
0.0
 10
-7.3132
 20
-77.9963
 30
0.0
 10
-8.1543
 20
-79.9271
 30
0.0
 10
-8.1543
 20
-79.9271
 30
0.0
 10
-9.4726
 20
-74.0098
 30
0.0
 10
-19.4684
 20
-76.6523
 30
0.0
 10
-18.957
 20
-80.8927
 30
0.0
 10
-18.957
 20
-80.8927
 30
0.0
 10
-10.1282
 20
-79.4269
 30
0.0
 10
-12.2898
 20
-86.3974
 30
0.0
 10
-12.0606
 20
-88.3515
 30
0.0
 10
-12.0606
 20
-88.3515
 30
0.0
 10
-12.0022
 20
-96.6018
 30
0.0
 10
-1.0025
 20
-96.703
 30
0.0
 10
1.658
 20
-93.5631
 30
0.0
 10
1.658
 20
-93.5631
 30
0.0
 10
-0.7212
 20
-98.0621
 30
0.0
 10
5.9513
 20
-102.826
 30
0.0
 10
1.9258
 20
-108.3671
 30
0.0
 10
1.9258
 20
-108.3671
 30
0.0
 10
0.4503
 20
-101.8159
 30
0.0
 10
-3.9166
 20
-96.3316
 30
0.0
 10
-12.6126
 20
-96.2616
 30
0.0
 10
-12.6126
 20
-96.2616
 30
0.0
 10
-15.0309
 20
-96.2421
 30
0.0
 10
-28.9713
 20
-91.3526
 30
0.0
 10
-21.2608
 20
-75.4249
 30
0.0
 10
-21.2608
 20
-75.4249
 30
0.0
 10
-35.6993
 20
-78.4112
 30
0.0
 10
-45.9129
 20
-69.9919
 30
0.0
 10
-42.7926
 20
-58.0041
 30
0.0
 10
-42.7926
 20
-58.0041
 30
0.0
 10
-41.1419
 20
-51.754
 30
0.0
 10
-36.5329
 20
-46.6729
 30
0.0
 10
-32.7996
 20
-44.0333
 30
0.0
 10
-32.7996
 20
-44.0333
 30
0.0
 10
-31.7669
 20
-43.3165
 30
0.0
 10
-30.6376
 20
-43.2125
 30
0.0
 10
-29.2001
 20
-43.6075
 30
0.0
 10
-29.2001
 20
-43.6075
 30
0.0
 10
-26.4286
 20
-44.1977
 30
0.0
 10
-25.9251
 20
-45.1158
 30
0.0
 10
-25.0072
 20
-45.603
 30
0.0
  0
SPLINE
  5
5C
330
1F
100
AcDbEntity
  8
layer 1
 62
     7
100
AcDbSpline
210
0.0
220
0.0
230
1.0
 70
    11
 71
     3
 72
    32
 73
    28
 74
     0
 42
0.0000000001
 43
0.0000000001
 12
1.0
 22
0.0
 32
0.0
 13
1.0
 23
0.0
 33
0.0
 40
0.0
 40
0.0
 40
0.0
 40
0.0
 40
0.125
 40
0.125
 40
0.125
 40
0.125
 40
0.25
 40
0.25
 40
0.25
 40
0.25
 40
0.375
 40
0.375
 40
0.375
 40
0.375
 40
0.5
 40
0.5
 40
0.5
 40
0.5
 40
0.625
 40
0.625
 40
0.625
 40
0.625
 40
0.75
 40
0.75
 40
0.75
 40
0.75
 40
1.0
 40
1.0
 40
1.0
 40
1.0
 10
54.9114
 20
41.6878
 30
0.0
 10
52.3941
 20
49.8587
 30
0.0
 10
44.0405
 20
56.9685
 30
0.0
 10
32.6095
 20
60.8948
 30
0.0
 10
32.6095
 20
60.8948
 30
0.0
 10
32.9278
 20
53.8856
 30
0.0
 10
29.9566
 20
50.5904
 30
0.0
 10
27.1976
 20
48.2503
 30
0.0
 10
27.1976
 20
48.2503
 30
0.0
 10
30.2496
 20
48.6748
 30
0.0
 10
34.1675
 20
47.8201
 30
0.0
 10
36.1314
 20
46.5413
 30
0.0
 10
36.1314
 20
46.5413
 30
0.0
 10
37.0762
 20
54.3394
 30
0.0
 10
50.4635
 20
49.0845
 30
0.0
 10
43.0082
 20
43.0166
 30
0.0
 10
43.0082
 20
43.0166
 30
0.0
 10
45.2458
 20
39.8266
 30
0.0
 10
53.0744
 20
38.5242
 30
0.0
 10
49.2891
 20
27.674
 30
0.0
 10
49.2891
 20
27.674
 30
0.0
 10
46.0777
 20
17.9734
 30
0.0
 10
50.214
 20
15.2481
 30
0.0
 10
54.9114
 20
15.2481
 30
0.0
 10
54.9114
 20
15.2481
 30
0.0
 10
54.9114
 20
28.8365
 30
0.0
 10
54.9114
 20
28.0993
 30
0.0
 10
54.9114
 20
41.6878
 30
0.0
  0
SPLINE
  5
5D
330
1F
100
AcDbEntity
  8
layer 1
 62
     7
100
AcDbSpline
210
0.0
220
0.0
230
1.0
 70
    11
 71
     3
 72
    16
 73
    12
 74
     0
 42
0.0000000001
 43
0.0000000001
 12
1.0
 22
0.0
 32
0.0
 13
1.0
 23
0.0
 33
0.0
 40
0.0
 40
0.0
 40
0.0
 40
0.0
 40
0.25
 40
0.25
 40
0.25
 40
0.25
 40
0.5
 40
0.5
 40
0.5
 40
0.5
 40
1.0
 40
1.0
 40
1.0
 40
1.0
 10
54.876
 20
67.1106
 30
0.0
 10
51.79
 20
63.6715
 30
0.0
 10
49.6184
 20
60.8513
 30
0.0
 10
45.3015
 20
57.9492
 30
0.0
 10
45.3015
 20
57.9492
 30
0.0
 10
48.1907
 20
56.205
 30
0.0
 10
51.9171
 20
53.5539
 30
0.0
 10
54.876
 20
49.9959
 30
0.0
 10
54.876
 20
49.9959
 30
0.0
 10
54.876
 20
63.5843
 30
0.0
 10
54.876
 20
53.5223
 30
0.0
 10
54.876
 20
67.1106
 30
0.0
  0
SPLINE
  5
5E
330
1F
100
AcDbEntity
  8
layer 1
 62
     7
100
AcDbSpline
210
0.0
220
0.0
230
1.0
 70
    11
 71
     3
 72
    32
 73
    28
 74
     0
 42
0.0000000001
 43
0.0000000001
 12
1.0
 22
0.0
 32
0.0
 13
1.0
 23
0.0
 33
0.0
 40
0.0
 40
0.0
 40
0.0
 40
0.0
 40
0.125
 40
0.125
 40
0.125
 40
0.125
 40
0.25
 40
0.25
 40
0.25
 40
0.25
 40
0.375
 40
0.375
 40
0.375
 40
0.375
 40
0.5
 40
0.5
 40
0.5
 40
0.5
 40
0.625
 40
0.625
 40
0.625
 40
0.625
 40
0.75
 40
0.75
 40
0.75
 40
0.75
 40
1.0
 40
1.0
 40
1.0
 40
1.0
 10
11.0537
 20
22.2801
 30
0.0
 10
12.006
 20
18.5721
 30
0.0
 10
17.929
 20
18.959
 30
0.0
 10
17.9113
 20
23.3125
 30
0.0
 10
17.9113
 20
23.3125
 30
0.0
 10
26.2689
 20
23.0505
 30
0.0
 10
22.9309
 20
29.1096
 30
0.0
 10
19.8733
 20
29.1987
 30
0.0
 10
19.8733
 20
29.1987
 30
0.0
 10
18.6382
 20
29.3633
 30
0.0
 10
15.3242
 20
29.0757
 30
0.0
 10
13.9724
 20
28.7482
 30
0.0
 10
13.9724
 20
28.7482
 30
0.0
 10
13.7024
 20
30.8225
 30
0.0
 10
13.7721
 20
35.4193
 30
0.0
 10
7.7117
 20
39.7942
 30
0.0
 10
7.7117
 20
39.7942
 30
0.0
 10
9.932
 20
41.2559
 30
0.0
 10
10.7289
 20
41.8009
 30
0.0
 10
12.9293
 20
42.5879
 30
0.0
 10
12.9293
 20
42.5879
 30
0.0
 10
28.672
 20
33.4866
 30
0.0
 10
32.6457
 20
19.2114
 30
0.0
 10
11.4954
 20
12.8624
 30
0.0
 10
11.4954
 20
12.8624
 30
0.0
 10
9.4583
 20
14.2668
 30
0.0
 10
7.4473
 20
20.3057
 30
0.0
 10
11.0537
 20
22.2801
 30
0.0
  0
SPLINE
  5
5F
330
1F
100
AcDbEntity
  8
layer 1
 62
     7
100
AcDbSpline
210
0.0
220
0.0
230
1.0
 70
    11
 71
     3
 72
    48
 73
    44
 74
     0
 42
0.0000000001
 43
0.0000000001
 12
1.0
 22
0.0
 32
0.0
 13
1.0
 23
0.0
 33
0.0
 40
0.0
 40
0.0
 40
0.0
 40
0.0
 40
0.0833333333333333
 40
0.0833333333333333
 40
0.0833333333333333
 40
0.0833333333333333
 40
0.1666666666666667
 40
0.1666666666666667
 40
0.1666666666666667
 40
0.1666666666666667
 40
0.25
 40
0.25
 40
0.25
 40
0.25
 40
0.3333333333333333
 40
0.3333333333333333
 40
0.3333333333333333
 40
0.3333333333333333
 40
0.4166666666666667
 40
0.4166666666666667
 40
0.4166666666666667
 40
0.4166666666666667
 40
0.5
 40
0.5
 40
0.5
 40
0.5
 40
0.5833333333333334
 40
0.5833333333333334
 40
0.5833333333333334
 40
0.5833333333333334
 40
0.6666666666666666
 40
0.6666666666666666
 40
0.6666666666666666
 40
0.6666666666666666
 40
0.75
 40
0.75
 40
0.75
 40
0.75
 40
0.8333333333333334
 40
0.8333333333333334
 40
0.8333333333333334
 40
0.8333333333333334
 40
1.0
 40
1.0
 40
1.0
 40
1.0
 10
42.0713
 20
25.2398
 30
0.0
 10
40.1888
 20
24.4319
 30
0.0
 10
36.0716
 20
25.3659
 30
0.0
 10
35.4325
 20
28.4611
 30
0.0
 10
35.4325
 20
28.4611
 30
0.0
 10
41.7393
 20
28.3633
 30
0.0
 10
40.3168
 20
33.3279
 30
0.0
 10
43.8121
 20
33.0342
 30
0.0
 10
43.8121
 20
33.0342
 30
0.0
 10
46.5246
 20
34.1836
 30
0.0
 10
42.7799
 20
39.6961
 30
0.0
 10
40.028
 20
41.01
 30
0.0
 10
40.028
 20
41.01
 30
0.0
 10
37.1592
 20
31.485
 30
0.0
 10
25.1752
 20
39.9972
 30
0.0
 10
32.6091
 20
44.3407
 30
0.0
 10
32.6091
 20
44.3407
 30
0.0
 10
29.7439
 20
45.3962
 30
0.0
 10
20.5119
 20
45.9213
 30
0.0
 10
15.7366
 20
43.6872
 30
0.0
 10
15.7366
 20
43.6872
 30
0.0
 10
19.6376
 20
42.5199
 30
0.0
 10
36.1831
 20
33.3883
 30
0.0
 10
31.78
 20
22.7713
 30
0.0
 10
31.78
 20
22.7713
 30
0.0
 10
35.8022
 20
22.8231
 30
0.0
 10
40.7003
 20
18.7352
 30
0.0
 10
40.2486
 20
14.3653
 30
0.0
 10
40.2486
 20
14.3653
 30
0.0
 10
39.4086
 20
8.4768
 30
0.0
 10
50.1007
 20
6.487
 30
0.0
 10
54.9109
 20
10.0685
 30
0.0
 10
54.9109
 20
10.0685
 30
0.0
 10
54.9109
 20
10.0685
 30
0.0
 10
54.9109
 20
14.0807
 30
0.0
 10
54.9109
 20
14.0807
 30
0.0
 10
54.9109
 20
14.0807
 30
0.0
 10
51.5152
 20
11.6455
 30
0.0
 10
36.1283
 20
14.9408
 30
0.0
 10
42.0709
 20
25.2396
 30
0.0
 10
42.0709
 20
25.2396
 30
0.0
 10
42.0709
 20
25.2396
 30
0.0
 10
42.0713
 20
25.2398
 30
0.0
 10
42.0713
 20
25.2398
 30
0.0
  0
SPLINE
  5
60
330
1F
100
AcDbEntity
  8
layer 1
 62
     7
100
AcDbSpline
210
0.0
220
0.0
230
1.0
 70
    11
 71
     3
 72
    20
 73
    16
 74
     0
 42
0.0000000001
 43
0.0000000001
 12
1.0
 22
0.0
 32
0.0
 13
1.0
 23
0.0
 33
0.0
 40
0.0
 40
0.0
 40
0.0
 40
0.0
 40
0.2
 40
0.2
 40
0.2
 40
0.2
 40
0.4
 40
0.4
 40
0.4
 40
0.4
 40
0.6
 40
0.6
 40
0.6
 40
0.6
 40
1.0
 40
1.0
 40
1.0
 40
1.0
 10
15.1751
 20
72.7897
 30
0.0
 10
11.3653
 20
70.4011
 30
0.0
 10
6.4421
 20
63.4689
 30
0.0
 10
5.1863
 20
57.6554
 30
0.0
 10
5.1863
 20
57.6554
 30
0.0
 10
3.9305
 20
63.4689
 30
0.0
 10
-0.9925
 20
70.4011
 30
0.0
 10
-4.8025
 20
72.7897
 30
0.0
 10
-4.8025
 20
72.7897
 30
0.0
 10
0.343
 20
71.8712
 30
0.0
 10
4.4477
 20
73.1262
 30
0.0
 10
5.1863
 20
76.4274
 30
0.0
 10
5.1863
 20
76.4274
 30
0.0
 10
5.9247
 20
73.1264
 30
0.0
 10
10.0296
 20
71.8712
 30
0.0
 10
15.1751
 20
72.7897
 30
0.0
  0
SPLINE
  5
61
330
1F
100
AcDbEntity
  8
layer 1
 62
     7
100
AcDbSpline
210
0.0
220
0.0
230
1.0
 70
    11
 71
     3
 72
    20
 73
    16
 74
     0
 42
0.0000000001
 43
0.0000000001
 12
1.0
 22
0.0
 32
0.0
 13
1.0
 23
0.0
 33
0.0
 40
0.0
 40
0.0
 40
0.0
 40
0.0
 40
0.2
 40
0.2
 40
0.2
 40
0.2
 40
0.4
 40
0.4
 40
0.4
 40
0.4
 40
0.6
 40
0.6
 40
0.6
 40
0.6
 40
1.0
 40
1.0
 40
1.0
 40
1.0
 10
10.0911
 20
44.6059
 30
0.0
 10
8.3298
 20
43.6443
 30
0.0
 10
6.6263
 20
42.3371
 30
0.0
 10
5.1865
 20
41.2419
 30
0.0
 10
5.1865
 20
41.2419
 30
0.0
 10
3.7467
 20
42.3373
 30
0.0
 10
2.0432
 20
43.6443
 30
0.0
 10
0.2819
 20
44.6059
 30
0.0
 10
0.2819
 20
44.6059
 30
0.0
 10
2.8724
 20
47.3009
 30
0.0
 10
4.4021
 20
50.5019
 30
0.0
 10
5.1865
 20
51.9156
 30
0.0
 10
5.1865
 20
51.9156
 30
0.0
 10
5.9709
 20
50.5019
 30
0.0
 10
7.5005
 20
47.3009
 30
0.0
 10
10.0911
 20
44.6059
 30
0.0
  0
SPLINE
  5
62
330
1F
100
AcDbEntity
  8
layer 1
 62
     7
100
AcDbSpline
210
0.0
220
0.0
230
1.0
 70
    11
 71
     3
 72
    20
 73
    16
 74
     0
 42
0.0000000001
 43
0.0000000001
 12
1.0
 22
0.0
 32
0.0
 13
1.0
 23
0.0
 33
0.0
 40
0.0
 40
0.0
 40
0.0
 40
0.0
 40
0.2
 40
0.2
 40
0.2
 40
0.2
 40
0.4
 40
0.4
 40
0.4
 40
0.4
 40
0.6
 40
0.6
 40
0.6
 40
0.6
 40
1.0
 40
1.0
 40
1.0
 40
1.0
 10
10.0173
 20
90.7861
 30
0.0
 10
7.1506
 20
89.4561
 30
0.0
 10
6.5525
 20
88.5911
 30
0.0
 10
5.1863
 20
86.6114
 30
0.0
 10
5.1863
 20
86.6114
 30
0.0
 10
3.8201
 20
88.5911
 30
0.0
 10
3.222
 20
89.4561
 30
0.0
 10
0.3553
 20
90.7861
 30
0.0
 10
0.3553
 20
90.7861
 30
0.0
 10
2.8723
 20
92.3758
 30
0.0
 10
4.0334
 20
92.8501
 30
0.0
 10
5.1863
 20
95.8113
 30
0.0
 10
5.1863
 20
95.8113
 30
0.0
 10
6.3392
 20
92.8501
 30
0.0
 10
7.5003
 20
92.3756
 30
0.0
 10
10.0173
 20
90.7861
 30
0.0
  0
SPLINE
  5
63
330
1F
100
AcDbEntity
  8
layer 1
 62
     7
100
AcDbSpline
210
0.0
220
0.0
230
1.0
 70
    11
 71
     3
 72
    20
 73
    16
 74
     0
 42
0.0000000001
 43
0.0000000001
 12
1.0
 22
0.0
 32
0.0
 13
1.0
 23
0.0
 33
0.0
 40
0.0
 40
0.0
 40
0.0
 40
0.0
 40
0.2
 40
0.2
 40
0.2
 40
0.2
 40
0.4
 40
0.4
 40
0.4
 40
0.4
 40
0.6
 40
0.6
 40
0.6
 40
0.6
 40
1.0
 40
1.0
 40
1.0
 40
1.0
 10
10.0131
 20
28.2217
 30
0.0
 10
10.9334
 20
33.2572
 30
0.0
 10
6.595
 20
37.4725
 30
0.0
 10
5.1865
 20
38.1841
 30
0.0
 10
5.1865
 20
38.1841
 30
0.0
 10
3.7779
 20
37.4725
 30
0.0
 10
-0.5604
 20
33.2572
 30
0.0
 10
0.3599
 20
28.2217
 30
0.0
 10
0.3599
 20
28.2217
 30
0.0
 10
1.0289
 20
25.7778
 30
0.0
 10
3.6687
 20
23.6904
 30
0.0
 10
5.1865
 20
20.9567
 30
0.0
 10
5.1865
 20
20.9567
 30
0.0
 10
6.7045
 20
23.6904
 30
0.0
 10
9.3441
 20
25.7778
 30
0.0
 10
10.0131
 20
28.2217
 30
0.0
  0
SPLINE
  5
64
330
1F
100
AcDbEntity
  8
layer 1
 62
     7
100
AcDbSpline
210
0.0
220
0.0
230
1.0
 70
    11
 71
     3
 72
    12
 73
     8
 74
     0
 42
0.0000000001
 43
0.0000000001
 12
1.0
 22
0.0
 32
0.0
 13
1.0
 23
0.0
 33
0.0
 40
0.0
 40
0.0
 40
0.0
 40
0.0
 40
0.3333333333333333
 40
0.3333333333333333
 40
0.3333333333333333
 40
0.3333333333333333
 40
1.0
 40
1.0
 40
1.0
 40
1.0
 10
22.2337
 20
13.5232
 30
0.0
 10
26.9607
 20
22.0617
 30
0.0
 10
39.8312
 20
17.9717
 30
0.0
 10
35.5889
 20
10.2234
 30
0.0
 10
35.5889
 20
10.2234
 30
0.0
 10
32.8471
 20
13.1735
 30
0.0
 10
26.4377
 20
15.0715
 30
0.0
 10
22.2337
 20
13.5232
 30
0.0
  0
SPLINE
  5
65
330
1F
100
AcDbEntity
  8
layer 1
 62
     7
100
AcDbSpline
210
0.0
220
0.0
230
1.0
 70
    11
 71
     3
 72
    20
 73
    16
 74
     0
 42
0.0000000001
 43
0.0000000001
 12
1.0
 22
0.0
 32
0.0
 13
1.0
 23
0.0
 33
0.0
 40
0.0
 40
0.0
 40
0.0
 40
0.0
 40
0.2
 40
0.2
 40
0.2
 40
0.2
 40
0.4
 40
0.4
 40
0.4
 40
0.4
 40
0.6
 40
0.6
 40
0.6
 40
0.6
 40
1.0
 40
1.0
 40
1.0
 40
1.0
 10
11.7524
 20
63.6805
 30
0.0
 10
14.0124
 20
61.2796
 30
0.0
 10
11.922
 20
58.7439
 30
0.0
 10
12.0163
 20
55.6888
 30
0.0
 10
12.0163
 20
55.6888
 30
0.0
 10
12.1165
 20
52.4399
 30
0.0
 10
12.8377
 20
50.97
 30
0.0
 10
17.6601
 20
47.3201
 30
0.0
 10
17.6601
 20
47.3201
 30
0.0
 10
15.4348
 20
46.9178
 30
0.0
 10
14.3932
 20
46.5662
 30
0.0
 10
12.4429
 20
45.5501
 30
0.0
 10
12.4429
 20
45.5501
 30
0.0
 10
5.5897
 20
51.7307
 30
0.0
 10
7.2196
 20
60.4564
 30
0.0
 10
11.7524
 20
63.6805
 30
0.0
  0
SPLINE
  5
66
330
1F
100
AcDbEntity
  8
layer 1
 62
     7
100
AcDbSpline
210
0.0
220
0.0
230
1.0
 70
    11
 71
     3
 72
    24
 73
    20
 74
     0
 42
0.0000000001
 43
0.0000000001
 12
1.0
 22
0.0
 32
0.0
 13
1.0
 23
0.0
 33
0.0
 40
0.0
 40
0.0
 40
0.0
 40
0.0
 40
0.1666666666666667
 40
0.1666666666666667
 40
0.1666666666666667
 40
0.1666666666666667
 40
0.3333333333333333
 40
0.3333333333333333
 40
0.3333333333333333
 40
0.3333333333333333
 40
0.5
 40
0.5
 40
0.5
 40
0.5
 40
0.6666666666666666
 40
0.6666666666666666
 40
0.6666666666666666
 40
0.6666666666666666
 40
1.0
 40
1.0
 40
1.0
 40
1.0
 10
15.9005
 20
66.0666
 30
0.0
 10
18.3113
 20
64.6594
 30
0.0
 10
19.6388
 20
60.9807
 30
0.0
 10
18.4895
 20
58.0446
 30
0.0
 10
18.4895
 20
58.0446
 30
0.0
 10
22.3443
 20
59.865
 30
0.0
 10
25.3003
 20
55.8172
 30
0.0
 10
23.3598
 20
53.4412
 30
0.0
 10
23.3598
 20
53.4412
 30
0.0
 10
18.6051
 20
57.7332
 30
0.0
 10
15.6678
 20
52.2197
 30
0.0
 10
18.9082
 20
50.8075
 30
0.0
 10
18.9082
 20
50.8075
 30
0.0
 10
19.5464
 20
50.4053
 30
0.0
 10
22.5427
 20
49.87
 30
0.0
 10
23.7492
 20
50.7995
 30
0.0
 10
23.7492
 20
50.7995
 30
0.0
 10
34.5899
 20
57.751
 30
0.0
 10
27.7399
 20
70.2577
 30
0.0
 10
15.9005
 20
66.0666
 30
0.0
  0
SPLINE
  5
67
330
1F
100
AcDbEntity
  8
layer 1
 62
     7
100
AcDbSpline
210
0.0
220
0.0
230
1.0
 70
    11
 71
     3
 72
    32
 73
    28
 74
     0
 42
0.0000000001
 43
0.0000000001
 12
1.0
 22
0.0
 32
0.0
 13
1.0
 23
0.0
 33
0.0
 40
0.0
 40
0.0
 40
0.0
 40
0.0
 40
0.125
 40
0.125
 40
0.125
 40
0.125
 40
0.25
 40
0.25
 40
0.25
 40
0.25
 40
0.375
 40
0.375
 40
0.375
 40
0.375
 40
0.5
 40
0.5
 40
0.5
 40
0.5
 40
0.625
 40
0.625
 40
0.625
 40
0.625
 40
0.75
 40
0.75
 40
0.75
 40
0.75
 40
1.0
 40
1.0
 40
1.0
 40
1.0
 10
20.6265
 20
78.2901
 30
0.0
 10
19.5981
 20
78.553
 30
0.0
 10
18.4464
 20
78.4064
 30
0.0
 10
17.195
 20
78.1416
 30
0.0
 10
17.195
 20
78.1416
 30
0.0
 10
18.3837
 20
82.1648
 30
0.0
 10
13.1566
 20
84.1945
 30
0.0
 10
10.9912
 20
81.8325
 30
0.0
 10
10.9912
 20
81.8325
 30
0.0
 10
15.2832
 20
77.0778
 30
0.0
 10
9.0538
 20
75.2354
 30
0.0
 10
7.2204
 20
78.7707
 30
0.0
 10
7.2204
 20
78.7707
 30
0.0
 10
6.9866
 20
79.3246
 30
0.0
 10
6.2407
 20
81.4366
 30
0.0
 10
7.0019
 20
83.2329
 30
0.0
 10
7.0019
 20
83.2329
 30
0.0
 10
9.6233
 20
89.532
 30
0.0
 10
15.567
 20
90.1844
 30
0.0
 10
18.3885
 20
87.5265
 30
0.0
 10
18.3885
 20
87.5265
 30
0.0
 10
21.0818
 20
84.9896
 30
0.0
 10
21.8194
 20
80.9792
 30
0.0
 10
20.6267
 20
78.2899
 30
0.0
 10
20.6267
 20
78.2899
 30
0.0
 10
20.6267
 20
78.2899
 30
0.0
 10
20.6265
 20
78.2901
 30
0.0
 10
20.6265
 20
78.2901
 30
0.0
  0
SPLINE
  5
68
330
1F
100
AcDbEntity
  8
layer 1
 62
     7
100
AcDbSpline
210
0.0
220
0.0
230
1.0
 70
    11
 71
     3
 72
   112
 73
   108
 74
     0
 42
0.0000000001
 43
0.0000000001
 12
1.0
 22
0.0
 32
0.0
 13
1.0
 23
0.0
 33
0.0
 40
0.0
 40
0.0
 40
0.0
 40
0.0
 40
0.0357142857142857
 40
0.0357142857142857
 40
0.0357142857142857
 40
0.0357142857142857
 40
0.0714285714285714
 40
0.0714285714285714
 40
0.0714285714285714
 40
0.0714285714285714
 40
0.1071428571428571
 40
0.1071428571428571
 40
0.1071428571428571
 40
0.1071428571428571
 40
0.1428571428571428
 40
0.1428571428571428
 40
0.1428571428571428
 40
0.1428571428571428
 40
0.1785714285714286
 40
0.1785714285714286
 40
0.1785714285714286
 40
0.1785714285714286
 40
0.2142857142857143
 40
0.2142857142857143
 40
0.2142857142857143
 40
0.2142857142857143
 40
0.25
 40
0.25
 40
0.25
 40
0.25
 40
0.2857142857142857
 40
0.2857142857142857
 40
0.2857142857142857
 40
0.2857142857142857
 40
0.3214285714285715
 40
0.3214285714285715
 40
0.3214285714285715
 40
0.3214285714285715
 40
0.3571428571428572
 40
0.3571428571428572
 40
0.3571428571428572
 40
0.3571428571428572
 40
0.3928571428571428
 40
0.3928571428571428
 40
0.3928571428571428
 40
0.3928571428571428
 40
0.4285714285714285
 40
0.4285714285714285
 40
0.4285714285714285
 40
0.4285714285714285
 40
0.4642857142857143
 40
0.4642857142857143
 40
0.4642857142857143
 40
0.4642857142857143
 40
0.5
 40
0.5
 40
0.5
 40
0.5
 40
0.5357142857142857
 40
0.5357142857142857
 40
0.5357142857142857
 40
0.5357142857142857
 40
0.5714285714285714
 40
0.5714285714285714
 40
0.5714285714285714
 40
0.5714285714285714
 40
0.6071428571428571
 40
0.6071428571428571
 40
0.6071428571428571
 40
0.6071428571428571
 40
0.6428571428571429
 40
0.6428571428571429
 40
0.6428571428571429
 40
0.6428571428571429
 40
0.6785714285714286
 40
0.6785714285714286
 40
0.6785714285714286
 40
0.6785714285714286
 40
0.7142857142857143
 40
0.7142857142857143
 40
0.7142857142857143
 40
0.7142857142857143
 40
0.75
 40
0.75
 40
0.75
 40
0.75
 40
0.7857142857142857
 40
0.7857142857142857
 40
0.7857142857142857
 40
0.7857142857142857
 40
0.8214285714285714
 40
0.8214285714285714
 40
0.8214285714285714
 40
0.8214285714285714
 40
0.8571428571428571
 40
0.8571428571428571
 40
0.8571428571428571
 40
0.8571428571428571
 40
0.8928571428571429
 40
0.8928571428571429
 40
0.8928571428571429
 40
0.8928571428571429
 40
0.9285714285714286
 40
0.9285714285714286
 40
0.9285714285714286
 40
0.9285714285714286
 40
1.0
 40
1.0
 40
1.0
 40
1.0
 10
35.38
 20
62.5571
 30
0.0
 10
45.9517
 20
64.7686
 30
0.0
 10
49.8656
 20
72.7897
 30
0.0
 10
49.825
 20
77.9706
 30
0.0
 10
49.825
 20
77.9706
 30
0.0
 10
49.4403
 20
85.7859
 30
0.0
 10
38.5717
 20
91.9867
 30
0.0
 10
29.5064
 20
85.8574
 30
0.0
 10
29.5064
 20
85.8574
 30
0.0
 10
31.3036
 20
85.3497
 30
0.0
 10
34.2225
 20
83.4851
 30
0.0
 10
35.5801
 20
81.3259
 30
0.0
 10
35.5801
 20
81.3259
 30
0.0
 10
34.5301
 20
80.9464
 30
0.0
 10
32.7476
 20
79.8102
 30
0.0
 10
31.1593
 20
77.6215
 30
0.0
 10
31.1593
 20
77.6215
 30
0.0
 10
35.2198
 20
77.9009
 30
0.0
 10
37.9002
 20
70.9632
 30
0.0
 10
40.665
 20
77.2401
 30
0.0
 10
40.665
 20
77.2401
 30
0.0
 10
41.9423
 20
80.9537
 30
0.0
 10
48.4929
 20
74.671
 30
0.0
 10
42.4116
 20
69.4417
 30
0.0
 10
42.4116
 20
69.4417
 30
0.0
 10
40.7486
 20
67.749
 30
0.0
 10
33.8519
 20
64.8027
 30
0.0
 10
30.465
 20
66.6595
 30
0.0
 10
30.465
 20
66.6595
 30
0.0
 10
25.488
 20
70.0544
 30
0.0
 10
21.6284
 20
71.0212
 30
0.0
 10
17.9303
 20
70.0883
 30
0.0
 10
17.9303
 20
70.0883
 30
0.0
 10
18.6545
 20
71.3282
 30
0.0
 10
19.2875
 20
71.8365
 30
0.0
 10
20.4896
 20
73.4731
 30
0.0
 10
20.4896
 20
73.4731
 30
0.0
 10
21.8179
 20
74.1018
 30
0.0
 10
23.4315
 20
73.9715
 30
0.0
 10
24.818
 20
71.7366
 30
0.0
 10
24.818
 20
71.7366
 30
0.0
 10
26.3588
 20
72.9758
 30
0.0
 10
26.5004
 20
77.1338
 30
0.0
 10
22.8709
 20
77.8833
 30
0.0
 10
22.8709
 20
77.8833
 30
0.0
 10
26.2547
 20
83.5318
 30
0.0
 10
22.6481
 20
90.8653
 30
0.0
 10
15.3229
 20
92.2439
 30
0.0
 10
15.3229
 20
92.2439
 30
0.0
 10
10.9767
 20
92.9125
 30
0.0
 10
5.2869
 20
95.9462
 30
0.0
 10
7.6151
 20
104.0048
 30
0.0
 10
7.6151
 20
104.0048
 30
0.0
 10
10.9092
 20
113.2073
 30
0.0
 10
20.3446
 20
109.6097
 30
0.0
 10
19.2409
 20
103.813
 30
0.0
 10
19.2409
 20
103.813
 30
0.0
 10
13.691
 20
103.2624
 30
0.0
 10
17.1028
 20
98.3097
 30
0.0
 10
11.8649
 20
97.0312
 30
0.0
 10
11.8649
 20
97.0312
 30
0.0
 10
12.3674
 20
93.9014
 30
0.0
 10
17.686
 20
94.9504
 30
0.0
 10
18.5271
 20
96.8812
 30
0.0
 10
18.5271
 20
96.8812
 30
0.0
 10
19.8453
 20
90.964
 30
0.0
 10
29.8412
 20
93.6065
 30
0.0
 10
29.3297
 20
97.8469
 30
0.0
 10
29.3297
 20
97.8469
 30
0.0
 10
20.5009
 20
96.381
 30
0.0
 10
22.6626
 20
103.3515
 30
0.0
 10
22.4334
 20
105.3055
 30
0.0
 10
22.4334
 20
105.3055
 30
0.0
 10
22.375
 20
113.5559
 30
0.0
 10
11.3751
 20
113.6569
 30
0.0
 10
8.7146
 20
110.5173
 30
0.0
 10
8.7146
 20
110.5173
 30
0.0
 10
11.0938
 20
115.0162
 30
0.0
 10
4.4213
 20
119.7801
 30
0.0
 10
8.4468
 20
125.3212
 30
0.0
 10
8.4468
 20
125.3212
 30
0.0
 10
9.9223
 20
118.77
 30
0.0
 10
14.2892
 20
113.2857
 30
0.0
 10
22.9852
 20
113.2157
 30
0.0
 10
22.9852
 20
113.2157
 30
0.0
 10
25.4034
 20
113.1962
 30
0.0
 10
39.3438
 20
108.3067
 30
0.0
 10
31.6334
 20
92.379
 30
0.0
 10
31.6334
 20
92.379
 30
0.0
 10
46.0719
 20
95.3653
 30
0.0
 10
56.2855
 20
86.9461
 30
0.0
 10
53.1652
 20
74.9583
 30
0.0
 10
53.1652
 20
74.9583
 30
0.0
 10
51.5145
 20
68.7081
 30
0.0
 10
46.9055
 20
63.627
 30
0.0
 10
43.1722
 20
60.9874
 30
0.0
 10
43.1722
 20
60.9874
 30
0.0
 10
42.1395
 20
60.2707
 30
0.0
 10
41.0101
 20
60.1666
 30
0.0
 10
39.5727
 20
60.5616
 30
0.0
 10
39.5727
 20
60.5616
 30
0.0
 10
36.8012
 20
61.1518
 30
0.0
 10
36.2977
 20
62.07
 30
0.0
 10
35.3798
 20
62.5571
 30
0.0
 10
35.3798
 20
62.5571
 30
0.0
 10
35.3798
 20
62.5571
 30
0.0
 10
35.38
 20
62.5571
 30
0.0
 10
35.38
 20
62.5571
 30
0.0
  0
SPLINE
  5
69
330
1F
100
AcDbEntity
  8
layer 1
 62
     7
100
AcDbSpline
210
0.0
220
0.0
230
1.0
 70
    11
 71
     3
 72
    32
 73
    28
 74
     0
 42
0.0000000001
 43
0.0000000001
 12
1.0
 22
0.0
 32
0.0
 13
1.0
 23
0.0
 33
0.0
 40
0.0
 40
0.0
 40
0.0
 40
0.0
 40
0.125
 40
0.125
 40
0.125
 40
0.125
 40
0.25
 40
0.25
 40
0.25
 40
0.25
 40
0.375
 40
0.375
 40
0.375
 40
0.375
 40
0.5
 40
0.5
 40
0.5
 40
0.5
 40
0.625
 40
0.625
 40
0.625
 40
0.625
 40
0.75
 40
0.75
 40
0.75
 40
0.75
 40
1.0
 40
1.0
 40
1.0
 40
1.0
 10
54.9114
 20
-24.7339
 30
0.0
 10
52.3941
 20
-32.9048
 30
0.0
 10
44.0405
 20
-40.0146
 30
0.0
 10
32.6095
 20
-43.9409
 30
0.0
 10
32.6095
 20
-43.9409
 30
0.0
 10
32.9278
 20
-36.9317
 30
0.0
 10
29.9566
 20
-33.6365
 30
0.0
 10
27.1976
 20
-31.2964
 30
0.0
 10
27.1976
 20
-31.2964
 30
0.0
 10
30.2496
 20
-31.7209
 30
0.0
 10
34.1675
 20
-30.8661
 30
0.0
 10
36.1314
 20
-29.5873
 30
0.0
 10
36.1314
 20
-29.5873
 30
0.0
 10
37.0762
 20
-37.3855
 30
0.0
 10
50.4635
 20
-32.1306
 30
0.0
 10
43.0082
 20
-26.0627
 30
0.0
 10
43.0082
 20
-26.0627
 30
0.0
 10
45.2458
 20
-22.8727
 30
0.0
 10
53.0744
 20
-21.5703
 30
0.0
 10
49.2891
 20
-10.7201
 30
0.0
 10
49.2891
 20
-10.7201
 30
0.0
 10
46.0777
 20
-1.0195
 30
0.0
 10
50.214
 20
1.7058
 30
0.0
 10
54.9114
 20
1.7058
 30
0.0
 10
54.9114
 20
1.7058
 30
0.0
 10
54.9114
 20
-11.8826
 30
0.0
 10
54.9114
 20
-11.1453
 30
0.0
 10
54.9114
 20
-24.7339
 30
0.0
  0
SPLINE
  5
6A
330
1F
100
AcDbEntity
  8
layer 1
 62
     7
100
AcDbSpline
210
0.0
220
0.0
230
1.0
 70
    11
 71
     3
 72
    16
 73
    12
 74
     0
 42
0.0000000001
 43
0.0000000001
 12
1.0
 22
0.0
 32
0.0
 13
1.0
 23
0.0
 33
0.0
 40
0.0
 40
0.0
 40
0.0
 40
0.0
 40
0.25
 40
0.25
 40
0.25
 40
0.25
 40
0.5
 40
0.5
 40
0.5
 40
0.5
 40
1.0
 40
1.0
 40
1.0
 40
1.0
 10
54.876
 20
-50.1565
 30
0.0
 10
51.79
 20
-46.7174
 30
0.0
 10
49.6184
 20
-43.8972
 30
0.0
 10
45.3015
 20
-40.995
 30
0.0
 10
45.3015
 20
-40.995
 30
0.0
 10
48.1907
 20
-39.2509
 30
0.0
 10
51.9171
 20
-36.5998
 30
0.0
 10
54.876
 20
-33.0418
 30
0.0
 10
54.876
 20
-33.0418
 30
0.0
 10
54.876
 20
-46.6302
 30
0.0
 10
54.876
 20
-36.5682
 30
0.0
 10
54.876
 20
-50.1565
 30
0.0
  0
SPLINE
  5
6B
330
1F
100
AcDbEntity
  8
layer 1
 62
     7
100
AcDbSpline
210
0.0
220
0.0
230
1.0
 70
    11
 71
     3
 72
    32
 73
    28
 74
     0
 42
0.0000000001
 43
0.0000000001
 12
1.0
 22
0.0
 32
0.0
 13
1.0
 23
0.0
 33
0.0
 40
0.0
 40
0.0
 40
0.0
 40
0.0
 40
0.125
 40
0.125
 40
0.125
 40
0.125
 40
0.25
 40
0.25
 40
0.25
 40
0.25
 40
0.375
 40
0.375
 40
0.375
 40
0.375
 40
0.5
 40
0.5
 40
0.5
 40
0.5
 40
0.625
 40
0.625
 40
0.625
 40
0.625
 40
0.75
 40
0.75
 40
0.75
 40
0.75
 40
1.0
 40
1.0
 40
1.0
 40
1.0
 10
11.0537
 20
-5.3262
 30
0.0
 10
12.006
 20
-1.6182
 30
0.0
 10
17.929
 20
-2.0051
 30
0.0
 10
17.9113
 20
-6.3586
 30
0.0
 10
17.9113
 20
-6.3586
 30
0.0
 10
26.2689
 20
-6.0966
 30
0.0
 10
22.9309
 20
-12.1557
 30
0.0
 10
19.8733
 20
-12.2448
 30
0.0
 10
19.8733
 20
-12.2448
 30
0.0
 10
18.6382
 20
-12.4094
 30
0.0
 10
15.3242
 20
-12.1217
 30
0.0
 10
13.9724
 20
-11.7942
 30
0.0
 10
13.9724
 20
-11.7942
 30
0.0
 10
13.7024
 20
-13.8685
 30
0.0
 10
13.7721
 20
-18.4654
 30
0.0
 10
7.7117
 20
-22.8403
 30
0.0
 10
7.7117
 20
-22.8403
 30
0.0
 10
9.932
 20
-24.3019
 30
0.0
 10
10.7289
 20
-24.847
 30
0.0
 10
12.9293
 20
-25.634
 30
0.0
 10
12.9293
 20
-25.634
 30
0.0
 10
28.672
 20
-16.5327
 30
0.0
 10
32.6457
 20
-2.2575
 30
0.0
 10
11.4954
 20
4.0915
 30
0.0
 10
11.4954
 20
4.0915
 30
0.0
 10
9.4583
 20
2.6872
 30
0.0
 10
7.4473
 20
-3.3518
 30
0.0
 10
11.0537
 20
-5.3262
 30
0.0
  0
SPLINE
  5
6C
330
1F
100
AcDbEntity
  8
layer 1
 62
     7
100
AcDbSpline
210
0.0
220
0.0
230
1.0
 70
    11
 71
     3
 72
    48
 73
    44
 74
     0
 42
0.0000000001
 43
0.0000000001
 12
1.0
 22
0.0
 32
0.0
 13
1.0
 23
0.0
 33
0.0
 40
0.0
 40
0.0
 40
0.0
 40
0.0
 40
0.0833333333333333
 40
0.0833333333333333
 40
0.0833333333333333
 40
0.0833333333333333
 40
0.1666666666666667
 40
0.1666666666666667
 40
0.1666666666666667
 40
0.1666666666666667
 40
0.25
 40
0.25
 40
0.25
 40
0.25
 40
0.3333333333333333
 40
0.3333333333333333
 40
0.3333333333333333
 40
0.3333333333333333
 40
0.4166666666666667
 40
0.4166666666666667
 40
0.4166666666666667
 40
0.4166666666666667
 40
0.5
 40
0.5
 40
0.5
 40
0.5
 40
0.5833333333333334
 40
0.5833333333333334
 40
0.5833333333333334
 40
0.5833333333333334
 40
0.6666666666666666
 40
0.6666666666666666
 40
0.6666666666666666
 40
0.6666666666666666
 40
0.75
 40
0.75
 40
0.75
 40
0.75
 40
0.8333333333333334
 40
0.8333333333333334
 40
0.8333333333333334
 40
0.8333333333333334
 40
1.0
 40
1.0
 40
1.0
 40
1.0
 10
42.0713
 20
-8.2859
 30
0.0
 10
40.1888
 20
-7.4779
 30
0.0
 10
36.0716
 20
-8.412
 30
0.0
 10
35.4325
 20
-11.5072
 30
0.0
 10
35.4325
 20
-11.5072
 30
0.0
 10
41.7393
 20
-11.4094
 30
0.0
 10
40.3168
 20
-16.374
 30
0.0
 10
43.8121
 20
-16.0802
 30
0.0
 10
43.8121
 20
-16.0802
 30
0.0
 10
46.5246
 20
-17.2297
 30
0.0
 10
42.7799
 20
-22.7422
 30
0.0
 10
40.028
 20
-24.0561
 30
0.0
 10
40.028
 20
-24.0561
 30
0.0
 10
37.1592
 20
-14.531
 30
0.0
 10
25.1752
 20
-23.0432
 30
0.0
 10
32.6091
 20
-27.3867
 30
0.0
 10
32.6091
 20
-27.3867
 30
0.0
 10
29.7439
 20
-28.4423
 30
0.0
 10
20.5119
 20
-28.9674
 30
0.0
 10
15.7366
 20
-26.7333
 30
0.0
 10
15.7366
 20
-26.7333
 30
0.0
 10
19.6376
 20
-25.566
 30
0.0
 10
36.1831
 20
-16.4344
 30
0.0
 10
31.78
 20
-5.8174
 30
0.0
 10
31.78
 20
-5.8174
 30
0.0
 10
35.8022
 20
-5.8691
 30
0.0
 10
42.7232
 20
-0.4505
 30
0.0
 10
40.5148
 20
7.1667
 30
0.0
 10
40.5148
 20
7.1667
 30
0.0
 10
43.2949
 20
5.336
 30
0.0
 10
49.5153
 20
3.7059
 30
0.0
 10
54.9109
 20
6.8852
 30
0.0
 10
54.9109
 20
6.8852
 30
0.0
 10
54.9109
 20
6.8852
 30
0.0
 10
54.9109
 20
2.8731
 30
0.0
 10
54.9109
 20
2.8731
 30
0.0
 10
54.9109
 20
2.8731
 30
0.0
 10
51.5152
 20
5.3082
 30
0.0
 10
36.1283
 20
2.013
 30
0.0
 10
42.0709
 20
-8.2859
 30
0.0
 10
42.0709
 20
-8.2859
 30
0.0
 10
42.0709
 20
-8.2859
 30
0.0
 10
42.0713
 20
-8.2859
 30
0.0
 10
42.0713
 20
-8.2859
 30
0.0
  0
SPLINE
  5
6D
330
1F
100
AcDbEntity
  8
layer 1
 62
     7
100
AcDbSpline
210
0.0
220
0.0
230
1.0
 70
    11
 71
     3
 72
    12
 73
     8
 74
     0
 42
0.0000000001
 43
0.0000000001
 12
1.0
 22
0.0
 32
0.0
 13
1.0
 23
0.0
 33
0.0
 40
0.0
 40
0.0
 40
0.0
 40
0.0
 40
0.3333333333333333
 40
0.3333333333333333
 40
0.3333333333333333
 40
0.3333333333333333
 40
1.0
 40
1.0
 40
1.0
 40
1.0
 10
5.1863
 20
-92.649
 30
0.0
 10
2.8717
 20
-96.482
 30
0.0
 10
4.037
 20
-99.3934
 30
0.0
 10
5.1863
 20
-100.5961
 30
0.0
 10
5.1863
 20
-100.5961
 30
0.0
 10
6.3356
 20
-99.3934
 30
0.0
 10
7.5009
 20
-96.482
 30
0.0
 10
5.1863
 20
-92.649
 30
0.0
  0
SPLINE
  5
6E
330
1F
100
AcDbEntity
  8
layer 1
 62
     7
100
AcDbSpline
210
0.0
220
0.0
230
1.0
 70
    11
 71
     3
 72
    20
 73
    16
 74
     0
 42
0.0000000001
 43
0.0000000001
 12
1.0
 22
0.0
 32
0.0
 13
1.0
 23
0.0
 33
0.0
 40
0.0
 40
0.0
 40
0.0
 40
0.0
 40
0.2
 40
0.2
 40
0.2
 40
0.2
 40
0.4
 40
0.4
 40
0.4
 40
0.4
 40
0.6
 40
0.6
 40
0.6
 40
0.6
 40
1.0
 40
1.0
 40
1.0
 40
1.0
 10
7.1358
 20
4.2046
 30
0.0
 10
6.7625
 20
4.2483
 30
0.0
 10
6.2008
 20
4.3464
 30
0.0
 10
5.1863
 20
4.3448
 30
0.0
 10
5.1863
 20
4.3448
 30
0.0
 10
4.1718
 20
4.3464
 30
0.0
 10
3.6101
 20
4.2483
 30
0.0
 10
3.2368
 20
4.2046
 30
0.0
 10
3.2368
 20
4.2046
 30
0.0
 10
3.9916
 20
2.9873
 30
0.0
 10
4.7823
 20
1.4877
 30
0.0
 10
5.1863
 20
-0.6648
 30
0.0
 10
5.1863
 20
-0.6648
 30
0.0
 10
5.5901
 20
1.4877
 30
0.0
 10
6.381
 20
2.9873
 30
0.0
 10
7.1358
 20
4.2046
 30
0.0
  0
SPLINE
  5
6F
330
1F
100
AcDbEntity
  8
layer 1
 62
     7
100
AcDbSpline
210
0.0
220
0.0
230
1.0
 70
    11
 71
     3
 72
    12
 73
     8
 74
     0
 42
0.0000000001
 43
0.0000000001
 12
1.0
 22
0.0
 32
0.0
 13
1.0
 23
0.0
 33
0.0
 40
0.0
 40
0.0
 40
0.0
 40
0.0
 40
0.3333333333333333
 40
0.3333333333333333
 40
0.3333333333333333
 40
0.3333333333333333
 40
1.0
 40
1.0
 40
1.0
 40
1.0
 10
32.0069
 20
8.477
 30
0.0
 10
29.9144
 20
11.0919
 30
0.0
 10
20.674
 20
11.4157
 30
0.0
 10
16.6041
 20
8.477
 30
0.0
 10
16.6041
 20
8.477
 30
0.0
 10
20.674
 20
5.5382
 30
0.0
 10
29.9144
 20
5.862
 30
0.0
 10
32.0069
 20
8.477
 30
0.0
  0
SPLINE
  5
70
330
1F
100
AcDbEntity
  8
layer 1
 62
     7
100
AcDbSpline
210
0.0
220
0.0
230
1.0
 70
    11
 71
     3
 72
    12
 73
     8
 74
     0
 42
0.0000000001
 43
0.0000000001
 12
1.0
 22
0.0
 32
0.0
 13
1.0
 23
0.0
 33
0.0
 40
0.0
 40
0.0
 40
0.0
 40
0.0
 40
0.3333333333333333
 40
0.3333333333333333
 40
0.3333333333333333
 40
0.3333333333333333
 40
1.0
 40
1.0
 40
1.0
 40
1.0
 10
22.2337
 20
3.4309
 30
0.0
 10
26.9607
 20
-5.1076
 30
0.0
 10
39.8312
 20
-1.0176
 30
0.0
 10
35.5889
 20
6.7307
 30
0.0
 10
35.5889
 20
6.7307
 30
0.0
 10
32.8471
 20
3.7807
 30
0.0
 10
26.4377
 20
1.8827
 30
0.0
 10
22.2337
 20
3.4309
 30
0.0
  0
SPLINE
  5
71
330
1F
100
AcDbEntity
  8
layer 1
 62
     7
100
AcDbSpline
210
0.0
220
0.0
230
1.0
 70
    11
 71
     3
 72
    20
 73
    16
 74
     0
 42
0.0000000001
 43
0.0000000001
 12
1.0
 22
0.0
 32
0.0
 13
1.0
 23
0.0
 33
0.0
 40
0.0
 40
0.0
 40
0.0
 40
0.0
 40
0.2
 40
0.2
 40
0.2
 40
0.2
 40
0.4
 40
0.4
 40
0.4
 40
0.4
 40
0.6
 40
0.6
 40
0.6
 40
0.6
 40
1.0
 40
1.0
 40
1.0
 40
1.0
 10
11.7524
 20
-46.7264
 30
0.0
 10
14.0124
 20
-44.3255
 30
0.0
 10
11.922
 20
-41.7898
 30
0.0
 10
12.0163
 20
-38.7347
 30
0.0
 10
12.0163
 20
-38.7347
 30
0.0
 10
12.1165
 20
-35.4858
 30
0.0
 10
12.8377
 20
-34.0159
 30
0.0
 10
17.6601
 20
-30.366
 30
0.0
 10
17.6601
 20
-30.366
 30
0.0
 10
15.4348
 20
-29.9637
 30
0.0
 10
14.3932
 20
-29.6121
 30
0.0
 10
12.4429
 20
-28.596
 30
0.0
 10
12.4429
 20
-28.596
 30
0.0
 10
5.5897
 20
-34.7765
 30
0.0
 10
7.2196
 20
-43.5022
 30
0.0
 10
11.7524
 20
-46.7264
 30
0.0
  0
SPLINE
  5
72
330
1F
100
AcDbEntity
  8
layer 1
 62
     7
100
AcDbSpline
210
0.0
220
0.0
230
1.0
 70
    11
 71
     3
 72
    24
 73
    20
 74
     0
 42
0.0000000001
 43
0.0000000001
 12
1.0
 22
0.0
 32
0.0
 13
1.0
 23
0.0
 33
0.0
 40
0.0
 40
0.0
 40
0.0
 40
0.0
 40
0.1666666666666667
 40
0.1666666666666667
 40
0.1666666666666667
 40
0.1666666666666667
 40
0.3333333333333333
 40
0.3333333333333333
 40
0.3333333333333333
 40
0.3333333333333333
 40
0.5
 40
0.5
 40
0.5
 40
0.5
 40
0.6666666666666666
 40
0.6666666666666666
 40
0.6666666666666666
 40
0.6666666666666666
 40
1.0
 40
1.0
 40
1.0
 40
1.0
 10
15.9005
 20
-49.1125
 30
0.0
 10
18.3113
 20
-47.7053
 30
0.0
 10
19.6388
 20
-44.0266
 30
0.0
 10
18.4895
 20
-41.0905
 30
0.0
 10
18.4895
 20
-41.0905
 30
0.0
 10
22.3443
 20
-42.9108
 30
0.0
 10
25.3003
 20
-38.863
 30
0.0
 10
23.3598
 20
-36.4871
 30
0.0
 10
23.3598
 20
-36.4871
 30
0.0
 10
18.6051
 20
-40.7791
 30
0.0
 10
15.6678
 20
-35.2656
 30
0.0
 10
18.9082
 20
-33.8534
 30
0.0
 10
18.9082
 20
-33.8534
 30
0.0
 10
19.5464
 20
-33.4512
 30
0.0
 10
22.5427
 20
-32.9159
 30
0.0
 10
23.7492
 20
-33.8454
 30
0.0
 10
23.7492
 20
-33.8454
 30
0.0
 10
34.5899
 20
-40.7969
 30
0.0
 10
27.7399
 20
-53.3036
 30
0.0
 10
15.9005
 20
-49.1125
 30
0.0
  0
SPLINE
  5
73
330
1F
100
AcDbEntity
  8
layer 1
 62
     7
100
AcDbSpline
210
0.0
220
0.0
230
1.0
 70
    11
 71
     3
 72
    32
 73
    28
 74
     0
 42
0.0000000001
 43
0.0000000001
 12
1.0
 22
0.0
 32
0.0
 13
1.0
 23
0.0
 33
0.0
 40
0.0
 40
0.0
 40
0.0
 40
0.0
 40
0.125
 40
0.125
 40
0.125
 40
0.125
 40
0.25
 40
0.25
 40
0.25
 40
0.25
 40
0.375
 40
0.375
 40
0.375
 40
0.375
 40
0.5
 40
0.5
 40
0.5
 40
0.5
 40
0.625
 40
0.625
 40
0.625
 40
0.625
 40
0.75
 40
0.75
 40
0.75
 40
0.75
 40
1.0
 40
1.0
 40
1.0
 40
1.0
 10
20.6265
 20
-61.336
 30
0.0
 10
19.5981
 20
-61.5989
 30
0.0
 10
18.4464
 20
-61.4523
 30
0.0
 10
17.195
 20
-61.1875
 30
0.0
 10
17.195
 20
-61.1875
 30
0.0
 10
18.3837
 20
-65.2107
 30
0.0
 10
13.1566
 20
-67.2404
 30
0.0
 10
10.9912
 20
-64.8784
 30
0.0
 10
10.9912
 20
-64.8784
 30
0.0
 10
15.2832
 20
-60.1237
 30
0.0
 10
9.0538
 20
-58.2813
 30
0.0
 10
7.2204
 20
-61.8166
 30
0.0
 10
7.2204
 20
-61.8166
 30
0.0
 10
6.9866
 20
-62.3704
 30
0.0
 10
6.2407
 20
-64.4825
 30
0.0
 10
7.0019
 20
-66.2787
 30
0.0
 10
7.0019
 20
-66.2787
 30
0.0
 10
9.6233
 20
-72.5779
 30
0.0
 10
15.567
 20
-73.2302
 30
0.0
 10
18.3885
 20
-70.5724
 30
0.0
 10
18.3885
 20
-70.5724
 30
0.0
 10
21.0818
 20
-68.0355
 30
0.0
 10
21.8194
 20
-64.0251
 30
0.0
 10
20.6267
 20
-61.3358
 30
0.0
 10
20.6267
 20
-61.3358
 30
0.0
 10
20.6267
 20
-61.3358
 30
0.0
 10
20.6265
 20
-61.336
 30
0.0
 10
20.6265
 20
-61.336
 30
0.0
  0
SPLINE
  5
74
330
1F
100
AcDbEntity
  8
layer 1
 62
     7
100
AcDbSpline
210
0.0
220
0.0
230
1.0
 70
    11
 71
     3
 72
   108
 73
   104
 74
     0
 42
0.0000000001
 43
0.0000000001
 12
1.0
 22
0.0
 32
0.0
 13
1.0
 23
0.0
 33
0.0
 40
0.0
 40
0.0
 40
0.0
 40
0.0
 40
0.037037037037037
 40
0.037037037037037
 40
0.037037037037037
 40
0.037037037037037
 40
0.0740740740740741
 40
0.0740740740740741
 40
0.0740740740740741
 40
0.0740740740740741
 40
0.1111111111111111
 40
0.1111111111111111
 40
0.1111111111111111
 40
0.1111111111111111
 40
0.1481481481481481
 40
0.1481481481481481
 40
0.1481481481481481
 40
0.1481481481481481
 40
0.1851851851851852
 40
0.1851851851851852
 40
0.1851851851851852
 40
0.1851851851851852
 40
0.2222222222222222
 40
0.2222222222222222
 40
0.2222222222222222
 40
0.2222222222222222
 40
0.2592592592592592
 40
0.2592592592592592
 40
0.2592592592592592
 40
0.2592592592592592
 40
0.2962962962962963
 40
0.2962962962962963
 40
0.2962962962962963
 40
0.2962962962962963
 40
0.3333333333333333
 40
0.3333333333333333
 40
0.3333333333333333
 40
0.3333333333333333
 40
0.3703703703703703
 40
0.3703703703703703
 40
0.3703703703703703
 40
0.3703703703703703
 40
0.4074074074074074
 40
0.4074074074074074
 40
0.4074074074074074
 40
0.4074074074074074
 40
0.4444444444444444
 40
0.4444444444444444
 40
0.4444444444444444
 40
0.4444444444444444
 40
0.4814814814814815
 40
0.4814814814814815
 40
0.4814814814814815
 40
0.4814814814814815
 40
0.5185185185185185
 40
0.5185185185185185
 40
0.5185185185185185
 40
0.5185185185185185
 40
0.5555555555555556
 40
0.5555555555555556
 40
0.5555555555555556
 40
0.5555555555555556
 40
0.5925925925925926
 40
0.5925925925925926
 40
0.5925925925925926
 40
0.5925925925925926
 40
0.6296296296296297
 40
0.6296296296296297
 40
0.6296296296296297
 40
0.6296296296296297
 40
0.6666666666666666
 40
0.6666666666666666
 40
0.6666666666666666
 40
0.6666666666666666
 40
0.7037037037037037
 40
0.7037037037037037
 40
0.7037037037037037
 40
0.7037037037037037
 40
0.7407407407407407
 40
0.7407407407407407
 40
0.7407407407407407
 40
0.7407407407407407
 40
0.7777777777777778
 40
0.7777777777777778
 40
0.7777777777777778
 40
0.7777777777777778
 40
0.8148148148148148
 40
0.8148148148148148
 40
0.8148148148148148
 40
0.8148148148148148
 40
0.8518518518518519
 40
0.8518518518518519
 40
0.8518518518518519
 40
0.8518518518518519
 40
0.8888888888888888
 40
0.8888888888888888
 40
0.8888888888888888
 40
0.8888888888888888
 40
0.9259259259259259
 40
0.9259259259259259
 40
0.9259259259259259
 40
0.9259259259259259
 40
1.0
 40
1.0
 40
1.0
 40
1.0
 10
35.38
 20
-45.603
 30
0.0
 10
45.9517
 20
-47.8145
 30
0.0
 10
49.8656
 20
-55.8356
 30
0.0
 10
49.825
 20
-61.0165
 30
0.0
 10
49.825
 20
-61.0165
 30
0.0
 10
49.4403
 20
-68.8318
 30
0.0
 10
38.5717
 20
-75.0326
 30
0.0
 10
29.5064
 20
-68.9032
 30
0.0
 10
29.5064
 20
-68.9032
 30
0.0
 10
31.3036
 20
-68.3956
 30
0.0
 10
34.2225
 20
-66.5309
 30
0.0
 10
35.5801
 20
-64.3717
 30
0.0
 10
35.5801
 20
-64.3717
 30
0.0
 10
34.5301
 20
-63.9923
 30
0.0
 10
32.7476
 20
-62.8561
 30
0.0
 10
31.1593
 20
-60.6674
 30
0.0
 10
31.1593
 20
-60.6674
 30
0.0
 10
35.2198
 20
-60.9468
 30
0.0
 10
37.9002
 20
-54.009
 30
0.0
 10
40.665
 20
-60.286
 30
0.0
 10
40.665
 20
-60.286
 30
0.0
 10
41.9423
 20
-63.9996
 30
0.0
 10
48.4929
 20
-57.7169
 30
0.0
 10
42.4116
 20
-52.4876
 30
0.0
 10
42.4116
 20
-52.4876
 30
0.0
 10
40.7486
 20
-50.7949
 30
0.0
 10
33.8519
 20
-47.8486
 30
0.0
 10
30.465
 20
-49.7054
 30
0.0
 10
30.465
 20
-49.7054
 30
0.0
 10
25.488
 20
-53.1003
 30
0.0
 10
21.6284
 20
-54.0671
 30
0.0
 10
17.9303
 20
-53.1342
 30
0.0
 10
17.9303
 20
-53.1342
 30
0.0
 10
18.6545
 20
-54.3741
 30
0.0
 10
19.2875
 20
-54.8823
 30
0.0
 10
20.4896
 20
-56.5189
 30
0.0
 10
20.4896
 20
-56.5189
 30
0.0
 10
21.8179
 20
-57.1477
 30
0.0
 10
23.4315
 20
-57.0174
 30
0.0
 10
24.818
 20
-54.7825
 30
0.0
 10
24.818
 20
-54.7825
 30
0.0
 10
26.3588
 20
-56.0216
 30
0.0
 10
26.5004
 20
-60.1796
 30
0.0
 10
22.8709
 20
-60.9291
 30
0.0
 10
22.8709
 20
-60.9291
 30
0.0
 10
26.2547
 20
-66.5777
 30
0.0
 10
22.6481
 20
-73.9111
 30
0.0
 10
15.3229
 20
-75.2898
 30
0.0
 10
15.3229
 20
-75.2898
 30
0.0
 10
10.9767
 20
-75.9584
 30
0.0
 10
5.2869
 20
-78.9921
 30
0.0
 10
7.6151
 20
-87.0507
 30
0.0
 10
7.6151
 20
-87.0507
 30
0.0
 10
10.9092
 20
-96.2532
 30
0.0
 10
20.3446
 20
-92.6555
 30
0.0
 10
19.2409
 20
-86.8588
 30
0.0
 10
19.2409
 20
-86.8588
 30
0.0
 10
13.691
 20
-86.3083
 30
0.0
 10
17.1028
 20
-81.3556
 30
0.0
 10
11.8649
 20
-80.0771
 30
0.0
 10
11.8649
 20
-80.0771
 30
0.0
 10
12.3674
 20
-76.9473
 30
0.0
 10
17.686
 20
-77.9963
 30
0.0
 10
18.5271
 20
-79.9271
 30
0.0
 10
18.5271
 20
-79.9271
 30
0.0
 10
19.8453
 20
-74.0098
 30
0.0
 10
29.8412
 20
-76.6523
 30
0.0
 10
29.3297
 20
-80.8927
 30
0.0
 10
29.3297
 20
-80.8927
 30
0.0
 10
20.5009
 20
-79.4269
 30
0.0
 10
22.6626
 20
-86.3974
 30
0.0
 10
22.4334
 20
-88.3515
 30
0.0
 10
22.4334
 20
-88.3515
 30
0.0
 10
22.375
 20
-96.6018
 30
0.0
 10
11.3753
 20
-96.703
 30
0.0
 10
8.7148
 20
-93.5631
 30
0.0
 10
8.7148
 20
-93.5631
 30
0.0
 10
11.094
 20
-98.0621
 30
0.0
 10
4.4215
 20
-102.826
 30
0.0
 10
8.447
 20
-108.3671
 30
0.0
 10
8.447
 20
-108.3671
 30
0.0
 10
9.9225
 20
-101.8159
 30
0.0
 10
14.2893
 20
-96.3316
 30
0.0
 10
22.9853
 20
-96.2616
 30
0.0
 10
22.9853
 20
-96.2616
 30
0.0
 10
25.4036
 20
-96.2421
 30
0.0
 10
39.344
 20
-91.3526
 30
0.0
 10
31.6336
 20
-75.4249
 30
0.0
 10
31.6336
 20
-75.4249
 30
0.0
 10
46.0721
 20
-78.4112
 30
0.0
 10
56.2857
 20
-69.9919
 30
0.0
 10
53.1654
 20
-58.0041
 30
0.0
 10
53.1654
 20
-58.0041
 30
0.0
 10
51.5146
 20
-51.754
 30
0.0
 10
46.9057
 20
-46.6729
 30
0.0
 10
43.1724
 20
-44.0333
 30
0.0
 10
43.1724
 20
-44.0333
 30
0.0
 10
42.1397
 20
-43.3165
 30
0.0
 10
41.0103
 20
-43.2125
 30
0.0
 10
39.5729
 20
-43.6075
 30
0.0
 10
39.5729
 20
-43.6075
 30
0.0
 10
36.8014
 20
-44.1977
 30
0.0
 10
36.2979
 20
-45.1158
 30
0.0
 10
35.38
 20
-45.603
 30
0.0
  0
ENDSEC
  0
SECTION
  2
OBJECTS
  0
DICTIONARY
  5
C
330
0
100
AcDbDictionary
281
     1
  3
ACAD_GROUP
350
D
  3
ACAD_LAYOUT
350
1A
  3
ACAD_MATERIAL
350
3B
  3
ACAD_MLEADERSTYLE
350
97
  3
ACAD_MLINESTYLE
350
17
  3
ACAD_PLOTSETTINGS
350
19
  3
ACAD_PLOTSTYLENAME
350
E
  3
ACAD_TABLESTYLE
350
96
  3
ACAD_VISUALSTYLE
350
2A
  0
DICTIONARY
  5
D
102
{ACAD_REACTORS
330
C
102
}
330
C
100
AcDbDictionary
281
     1
  0
DICTIONARY
  5
1A
102
{ACAD_REACTORS
330
C
102
}
330
C
100
AcDbDictionary
281
     1
  3
Layout1
350
1E
  3
Layout2
350
26
  3
Model
350
22
  0
DICTIONARY
  5
3B
102
{ACAD_REACTORS
330
C
102
}
330
C
100
AcDbDictionary
281
     1
  3
ByBlock
350
3D
  3
ByLayer
350
3C
  3
Global
350
3E
  0
DICTIONARY
  5
97
102
{ACAD_REACTORS
330
C
102
}
330
C
100
AcDbDictionary
281
     1
  0
DICTIONARY
  5
17
102
{ACAD_REACTORS
330
C
102
}
330
C
100
AcDbDictionary
281
     1
  3
Standard
350
18
  0
DICTIONARY
  5
19
102
{ACAD_REACTORS
330
C
102
}
330
C
100
AcDbDictionary
281
     1
  0
ACDBDICTIONARYWDFLT
  5
E
102
{ACAD_REACTORS
330
C
102
}
330
C
100
AcDbDictionary
281
     1
  3
Normal
350
F
100
AcDbDictionaryWithDefault
340
F
  0
DICTIONARY
  5
96
102
{ACAD_REACTORS
330
C
102
}
330
C
100
AcDbDictionary
281
     1
  0
DICTIONARY
  5
2A
102
{ACAD_REACTORS
330
C
102
}
330
C
100
AcDbDictionary
281
     1
  3
2dWireframe
350
2F
  3
3D Hidden
350
31
  3
3dWireframe
350
30
  3
Basic
350
32
  3
Brighten
350
36
  3
ColorChange
350
3A
  3
Conceptual
350
34
  3
Dim
350
35
  3
Facepattern
350
39
  3
Flat
350
2B
  3
FlatWithEdges
350
2C
  3
Gouraud
350
2D
  3
GouraudWithEdges
350
2E
  3
Linepattern
350
38
  3
Realistic
350
33
  3
Thicken
350
37
  0
LAYOUT
  5
1E
102
{ACAD_REACTORS
330
1A
102
}
330
1A
100
AcDbPlotSettings
  1

  2
none_device
  4

  6

 40
0.0
 41
0.0
 42
0.0
 43
0.0
 44
0.0
 45
0.0
 46
0.0
 47
0.0
 48
0.0
 49
0.0
140
0.0
141
0.0
142
1.0
143
1.0
 70
   688
 72
     0
 73
     0
 74
     5
  7

 75
    16
 76
     0
 77
     2
 78
   300
147
1.0
148
0.0
149
0.0
100
AcDbLayout
  1
Layout1
 70
     1
 71
     1
 10
0.0
 20
0.0
 11
12.0
 21
9.0
 12
0.0
 22
0.0
 32
0.0
 14
1.000000000000000E+20
 24
1.000000000000000E+20
 34
1.000000000000000E+20
 15
-1.000000000000000E+20
 25
-1.000000000000000E+20
 35
-1.000000000000000E+20
146
0.0
 13
0.0
 23
0.0
 33
0.0
 16
1.0
 26
0.0
 36
0.0
 17
0.0
 27
1.0
 37
0.0
 76
     0
330
1B
  0
LAYOUT
  5
26
102
{ACAD_REACTORS
330
1A
102
}
330
1A
100
AcDbPlotSettings
  1

  2
none_device
  4

  6

 40
0.0
 41
0.0
 42
0.0
 43
0.0
 44
0.0
 45
0.0
 46
0.0
 47
0.0
 48
0.0
 49
0.0
140
0.0
141
0.0
142
1.0
143
1.0
 70
   688
 72
     0
 73
     0
 74
     5
  7

 75
    16
 76
     0
 77
     2
 78
   300
147
1.0
148
0.0
149
0.0
100
AcDbLayout
  1
Layout2
 70
     1
 71
     2
 10
0.0
 20
0.0
 11
0.0
 21
0.0
 12
0.0
 22
0.0
 32
0.0
 14
0.0
 24
0.0
 34
0.0
 15
0.0
 25
0.0
 35
0.0
146
0.0
 13
0.0
 23
0.0
 33
0.0
 16
1.0
 26
0.0
 36
0.0
 17
0.0
 27
1.0
 37
0.0
 76
     0
330
23
  0
LAYOUT
  5
22
102
{ACAD_REACTORS
330
1A
102
}
330
1A
100
AcDbPlotSettings
  1

  2
none_device
  4

  6

 40
0.0
 41
0.0
 42
0.0
 43
0.0
 44
0.0
 45
0.0
 46
0.0
 47
0.0
 48
0.0
 49
0.0
140
0.0
141
0.0
142
1.0
143
1.0
 70
  1712
 72
     0
 73
     0
 74
     0
  7

 75
     0
 76
     0
 77
     2
 78
   300
147
1.0
148
0.0
149
0.0
100
AcDbLayout
  1
Model
 70
     1
 71
     0
 10
0.0
 20
0.0
 11
12.0
 21
9.0
 12
0.0
 22
0.0
 32
0.0
 14
-53.8688
 24
-115.0154
 34
0.0
 15
64.2414
 25
131.9695
 35
0.0
146
0.0
 13
0.0
 23
0.0
 33
0.0
 16
1.0
 26
0.0
 36
0.0
 17
0.0
 27
1.0
 37
0.0
 76
     0
330
1F
331
29
  0
MATERIAL
  5
3D
102
{ACAD_REACTORS
330
3B
102
}
330
3B
100
AcDbMaterial
  1
ByBlock
 72
     1
 94
      127
  0
MATERIAL
  5
3C
102
{ACAD_REACTORS
330
3B
102
}
330
3B
100
AcDbMaterial
  1
ByLayer
 72
     1
 94
      127
  0
MATERIAL
  5
3E
102
{ACAD_REACTORS
330
3B
102
}
330
3B
100
AcDbMaterial
  1
Global
 72
     1
 94
      127
  0
MLINESTYLE
  5
18
102
{ACAD_REACTORS
330
17
102
}
330
17
100
AcDbMlineStyle
  2
Standard
 70
     0
  3

 62
   256
 51
90.0
 52
90.0
 71
     2
 49
0.5
 62
   256
  6
BYLAYER
 49
-0.5
 62
   256
  6
BYLAYER
  0
ACDBPLACEHOLDER
  5
F
102
{ACAD_REACTORS
330
E
102
}
330
E
  0
VISUALSTYLE
  5
2F
102
{ACAD_REACTORS
330
2A
102
}
102
{ACAD_XDICTIONARY
360
7E
102
}
330
2A
100
AcDbVisualStyle
  2
2dWireframe
 70
     4
 71
     0
 72
     2
 73
     0
 90
        0
 40
-0.6
 41
-30.0
 62
     5
 63
     7
421
 16777215
 74
     1
 91
        4
 64
     7
 65
   257
 75
     1
175
     1
 42
1.0
 92
        0
 66
   257
 43
1.0
 76
     1
 77
     6
 78
     2
 67
     7
 79
     5
170
     0
171
     0
290
     0
174
     0
 93
        1
 44
0.0
173
     0
291
     0
 45
0.0
  0
VISUALSTYLE
  5
31
102
{ACAD_REACTORS
330
2A
102
}
102
{ACAD_XDICTIONARY
360
82
102
}
330
2A
100
AcDbVisualStyle
  2
3D Hidden
 70
     6
 71
     1
 72
     2
 73
     2
 90
        0
 40
-0.6
 41
-30.0
 62
     5
 63
     7
421
 16777215
 74
     2
 91
        2
 64
     7
 65
   257
 75
     2
175
     1
 42
40.0
 92
        0
 66
   257
 43
1.0
 76
     1
 77
     6
 78
     2
 67
     7
 79
     3
170
     0
171
     0
290
     0
174
     0
 93
        1
 44
0.0
173
     0
291
     0
 45
0.0
  0
VISUALSTYLE
  5
30
102
{ACAD_REACTORS
330
2A
102
}
102
{ACAD_XDICTIONARY
360
80
102
}
330
2A
100
AcDbVisualStyle
  2
3dWireframe
 70
     5
 71
     0
 72
     2
 73
     0
 90
        0
 40
-0.6
 41
-30.0
 62
     5
 63
     7
421
 16777215
 74
     1
 91
        4
 64
     7
 65
   257
 75
     1
175
     1
 42
1.0
 92
        0
 66
   257
 43
1.0
 76
     1
 77
     6
 78
     2
 67
     7
 79
     5
170
     0
171
     0
290
     0
174
     0
 93
        1
 44
0.0
173
     0
291
     0
 45
0.0
  0
VISUALSTYLE
  5
32
102
{ACAD_REACTORS
330
2A
102
}
102
{ACAD_XDICTIONARY
360
84
102
}
330
2A
100
AcDbVisualStyle
  2
Basic
 70
     7
 71
     1
 72
     0
 73
     1
 90
        0
 40
-0.6
 41
-30.0
 62
     5
 63
     7
421
 16777215
 74
     0
 91
        4
 64
     7
 65
   257
 75
     1
175
     1
 42
1.0
 92
        8
 66
     7
 43
1.0
 76
     1
 77
     6
 78
     2
 67
     7
 79
     5
170
     0
171
     0
290
     0
174
     0
 93
        1
 44
0.0
173
     0
291
     1
 45
0.0
  0
VISUALSTYLE
  5
36
102
{ACAD_REACTORS
330
2A
102
}
102
{ACAD_XDICTIONARY
360
8C
102
}
330
2A
100
AcDbVisualStyle
  2
Brighten
 70
    12
 71
     2
 72
     2
 73
     0
 90
        0
 40
-0.6
 41
-30.0
 62
     5
 63
     7
421
 16777215
 74
     1
 91
        4
 64
     7
 65
   257
 75
     1
175
     1
 42
1.0
 92
        8
 66
     7
 43
1.0
 76
     1
 77
     6
 78
     2
 67
     7
 79
     5
170
     0
171
     0
290
     0
174
     0
 93
        1
 44
50.0
173
     0
291
     1
 45
0.0
  0
VISUALSTYLE
  5
3A
102
{ACAD_REACTORS
330
2A
102
}
102
{ACAD_XDICTIONARY
360
94
102
}
330
2A
100
AcDbVisualStyle
  2
ColorChange
 70
    16
 71
     2
 72
     2
 73
     3
 90
        0
 40
-0.6
 41
-30.0
 62
     5
 63
     8
421
  8421504
 74
     1
 91
        4
 64
     7
 65
   257
 75
     1
175
     1
 42
1.0
 92
        8
 66
     8
424
  8421504
 43
1.0
 76
     1
 77
     6
 78
     2
 67
     7
 79
     5
170
     0
171
     0
290
     0
174
     0
 93
        1
 44
0.0
173
     0
291
     1
 45
0.0
  0
VISUALSTYLE
  5
34
102
{ACAD_REACTORS
330
2A
102
}
102
{ACAD_XDICTIONARY
360
88
102
}
330
2A
100
AcDbVisualStyle
  2
Conceptual
 70
     9
 71
     3
 72
     2
 73
     0
 90
        0
 40
-0.6
 41
-30.0
 62
     5
 63
     7
421
 16777215
 74
     2
 91
        2
 64
     7
 65
   257
 75
     1
175
     1
 42
40.0
 92
        8
 66
     7
 43
1.0
 76
     1
 77
     6
 78
     2
 67
     7
 79
     3
170
     0
171
     0
290
     0
174
     0
 93
        1
 44
0.0
173
     0
291
     0
 45
0.0
  0
VISUALSTYLE
  5
35
102
{ACAD_REACTORS
330
2A
102
}
102
{ACAD_XDICTIONARY
360
8A
102
}
330
2A
100
AcDbVisualStyle
  2
Dim
 70
    11
 71
     2
 72
     2
 73
     0
 90
        0
 40
-0.6
 41
-30.0
 62
     5
 63
     7
421
 16777215
 74
     1
 91
        4
 64
     7
 65
   257
 75
     1
175
     1
 42
1.0
 92
        8
 66
     7
 43
1.0
 76
     1
 77
     6
 78
     2
 67
     7
 79
     5
170
     0
171
     0
290
     0
174
     0
 93
        1
 44
-50.0
173
     0
291
     1
 45
0.0
  0
VISUALSTYLE
  5
39
102
{ACAD_REACTORS
330
2A
102
}
102
{ACAD_XDICTIONARY
360
92
102
}
330
2A
100
AcDbVisualStyle
  2
Facepattern
 70
    15
 71
     2
 72
     2
 73
     0
 90
        0
 40
-0.6
 41
-30.0
 62
     5
 63
     7
421
 16777215
 74
     1
 91
        4
 64
     7
 65
   257
 75
     1
175
     1
 42
1.0
 92
        8
 66
     7
 43
1.0
 76
     1
 77
     6
 78
     2
 67
     7
 79
     5
170
     0
171
     0
290
     0
174
     0
 93
        1
 44
0.0
173
     0
291
     1
 45
0.0
  0
VISUALSTYLE
  5
2B
102
{ACAD_REACTORS
330
2A
102
}
102
{ACAD_XDICTIONARY
360
76
102
}
330
2A
100
AcDbVisualStyle
  2
Flat
 70
     0
 71
     2
 72
     1
 73
     1
 90
        2
 40
-0.6
 41
30.0
 62
     5
 63
     7
421
 16777215
 74
     0
 91
        4
 64
     7
 65
   257
 75
     1
175
     1
 42
1.0
 92
        8
 66
     7
 43
1.0
 76
     1
 77
     6
 78
     2
 67
     7
 79
     5
170
     0
171
     0
290
     0
174
     0
 93
       13
 44
0.0
173
     0
291
     1
 45
0.0
  0
VISUALSTYLE
  5
2C
102
{ACAD_REACTORS
330
2A
102
}
102
{ACAD_XDICTIONARY
360
78
102
}
330
2A
100
AcDbVisualStyle
  2
FlatWithEdges
 70
     1
 71
     2
 72
     1
 73
     1
 90
        2
 40
-0.6
 41
30.0
 62
     5
 63
     7
421
 16777215
 74
     1
 91
        4
 64
     7
 65
   257
 75
     1
175
     1
 42
1.0
 92
        0
 66
   257
 43
1.0
 76
     1
 77
     6
 78
     2
 67
     7
 79
     5
170
     0
171
     0
290
     0
174
     0
 93
       13
 44
0.0
173
     0
291
     1
 45
0.0
  0
VISUALSTYLE
  5
2D
102
{ACAD_REACTORS
330
2A
102
}
102
{ACAD_XDICTIONARY
360
7A
102
}
330
2A
100
AcDbVisualStyle
  2
Gouraud
 70
     2
 71
     2
 72
     2
 73
     1
 90
        2
 40
-0.6
 41
30.0
 62
     5
 63
     7
421
 16777215
 74
     0
 91
        4
 64
     7
 65
   257
 75
     1
175
     1
 42
1.0
 92
        0
 66
     7
 43
1.0
 76
     1
 77
     6
 78
     2
 67
     7
 79
     5
170
     0
171
     0
290
     0
174
     0
 93
       13
 44
0.0
173
     0
291
     1
 45
0.0
  0
VISUALSTYLE
  5
2E
102
{ACAD_REACTORS
330
2A
102
}
102
{ACAD_XDICTIONARY
360
7C
102
}
330
2A
100
AcDbVisualStyle
  2
GouraudWithEdges
 70
     3
 71
     2
 72
     2
 73
     1
 90
        2
 40
-0.6
 41
30.0
 62
     5
 63
     7
421
 16777215
 74
     1
 91
        4
 64
     7
 65
   257
 75
     1
175
     1
 42
1.0
 92
        0
 66
   257
 43
1.0
 76
     1
 77
     6
 78
     2
 67
     7
 79
     5
170
     0
171
     0
290
     0
174
     0
 93
       13
 44
0.0
173
     0
291
     1
 45
0.0
  0
VISUALSTYLE
  5
38
102
{ACAD_REACTORS
330
2A
102
}
102
{ACAD_XDICTIONARY
360
90
102
}
330
2A
100
AcDbVisualStyle
  2
Linepattern
 70
    14
 71
     2
 72
     2
 73
     0
 90
        0
 40
-0.6
 41
-30.0
 62
     5
 63
     7
421
 16777215
 74
     1
 91
        4
 64
     7
 65
   257
 75
     7
175
     7
 42
1.0
 92
        8
 66
     7
 43
1.0
 76
     1
 77
     6
 78
     2
 67
     7
 79
     5
170
     0
171
     0
290
     0
174
     0
 93
        1
 44
0.0
173
     0
291
     1
 45
0.0
  0
VISUALSTYLE
  5
33
102
{ACAD_REACTORS
330
2A
102
}
102
{ACAD_XDICTIONARY
360
86
102
}
330
2A
100
AcDbVisualStyle
  2
Realistic
 70
     8
 71
     2
 72
     2
 73
     0
 90
        0
 40
-0.6
 41
-30.0
 62
     5
 63
     7
421
 16777215
 74
     1
 91
        0
 64
     7
 65
   257
 75
     1
175
     1
 42
1.0
 92
        8
 66
     8
424
  7895160
 43
1.0
 76
     1
 77
     6
 78
     2
 67
     7
 79
     5
170
     0
171
     0
290
     0
174
     0
 93
       13
 44
0.0
173
     0
291
     0
 45
0.0
  0
VISUALSTYLE
  5
37
102
{ACAD_REACTORS
330
2A
102
}
102
{ACAD_XDICTIONARY
360
8E
102
}
330
2A
100
AcDbVisualStyle
  2
Thicken
 70
    13
 71
     2
 72
     2
 73
     0
 90
        0
 40
-0.6
 41
-30.0
 62
     5
 63
     7
421
 16777215
 74
     1
 91
        4
 64
     7
 65
   257
 75
     1
175
     1
 42
1.0
 92
       12
 66
     7
 43
1.0
 76
     1
 77
     6
 78
     2
 67
     7
 79
     5
170
     0
171
     0
290
     0
174
     0
 93
        1
 44
0.0
173
     0
291
     1
 45
0.0
  0
DICTIONARY
  5
7E
330
2F
100
AcDbDictionary
280
     1
281
     1
  3
ACAD_XREC_ROUNDTRIP
360
7F
  0
DICTIONARY
  5
82
330
31
100
AcDbDictionary
280
     1
281
     1
  3
ACAD_XREC_ROUNDTRIP
360
83
  0
DICTIONARY
  5
80
330
30
100
AcDbDictionary
280
     1
281
     1
  3
ACAD_XREC_ROUNDTRIP
360
81
  0
DICTIONARY
  5
84
330
32
100
AcDbDictionary
280
     1
281
     1
  3
ACAD_XREC_ROUNDTRIP
360
85
  0
DICTIONARY
  5
8C
330
36
100
AcDbDictionary
280
     1
281
     1
  3
ACAD_XREC_ROUNDTRIP
360
8D
  0
DICTIONARY
  5
94
330
3A
100
AcDbDictionary
280
     1
281
     1
  3
ACAD_XREC_ROUNDTRIP
360
95
  0
DICTIONARY
  5
88
330
34
100
AcDbDictionary
280
     1
281
     1
  3
ACAD_XREC_ROUNDTRIP
360
89
  0
DICTIONARY
  5
8A
330
35
100
AcDbDictionary
280
     1
281
     1
  3
ACAD_XREC_ROUNDTRIP
360
8B
  0
DICTIONARY
  5
92
330
39
100
AcDbDictionary
280
     1
281
     1
  3
ACAD_XREC_ROUNDTRIP
360
93
  0
DICTIONARY
  5
76
330
2B
100
AcDbDictionary
280
     1
281
     1
  3
ACAD_XREC_ROUNDTRIP
360
77
  0
DICTIONARY
  5
78
330
2C
100
AcDbDictionary
280
     1
281
     1
  3
ACAD_XREC_ROUNDTRIP
360
79
  0
DICTIONARY
  5
7A
330
2D
100
AcDbDictionary
280
     1
281
     1
  3
ACAD_XREC_ROUNDTRIP
360
7B
  0
DICTIONARY
  5
7C
330
2E
100
AcDbDictionary
280
     1
281
     1
  3
ACAD_XREC_ROUNDTRIP
360
7D
  0
DICTIONARY
  5
90
330
38
100
AcDbDictionary
280
     1
281
     1
  3
ACAD_XREC_ROUNDTRIP
360
91
  0
DICTIONARY
  5
86
330
33
100
AcDbDictionary
280
     1
281
     1
  3
ACAD_XREC_ROUNDTRIP
360
87
  0
DICTIONARY
  5
8E
330
37
100
AcDbDictionary
280
     1
281
     1
  3
ACAD_XREC_ROUNDTRIP
360
8F
  0
XRECORD
  5
7F
102
{ACAD_REACTORS
330
7E
102
}
330
7E
100
AcDbXrecord
280
     1
102
RTVSPropertyOp0
 70
     1
102
RTVSPropertyOp1
 70
     1
102
RTVSPropertyOp2
 70
     1
102
RTVSPropertyOp3
 70
     1
102
RTVSPropertyOp4
 70
     1
102
RTVSPropertyOp5
 70
     1
102
RTVSPropertyOp6
 70
     1
102
RTVSPropertyOp7
 70
     1
102
RTVSPropertyOp8
 70
     1
102
RTVSPropertyOp9
 70
     1
102
RTVSPropertyOp10
 70
     1
102
RTVSPropertyOp11
 70
     1
102
RTVSPropertyOp12
 70
     1
102
RTVSPropertyOp13
 70
     1
102
RTVSPropertyOp14
 70
     1
102
RTVSPropertyOp15
 70
     1
102
RTVSPropertyOp16
 70
     1
102
RTVSPropertyOp17
 70
     1
102
RTVSPropertyOp18
 70
     1
102
RTVSPropertyOp19
 70
     1
102
RTVSPropertyOp20
 70
     1
102
RTVSPropertyOp21
 70
     1
102
RTVSPropertyOp22
 70
     1
102
RTVSPropertyOp23
 70
     1
102
RTVSPropertyOp24
 70
     1
102
RTVSPropertyOp25
 70
     1
102
RTVSPropertyOp26
 70
     1
102
RTVSPropertyOp27
 70
     1
102
RTVSPropertyOp28
 70
     1
102
RTVSPropertyOp29
 70
     1
102
RTVSPropertyOp30
 70
     1
102
RTVSPropertyOp31
 70
     1
102
RTVSPropertyOp32
 70
     1
  0
XRECORD
  5
83
102
{ACAD_REACTORS
330
82
102
}
330
82
100
AcDbXrecord
280
     1
102
RTVSPropertyOp0
 70
     1
102
RTVSPropertyOp1
 70
     1
102
RTVSPropertyOp2
 70
     1
102
RTVSPropertyOp3
 70
     1
102
RTVSPropertyOp4
 70
     1
102
RTVSPropertyOp5
 70
     1
102
RTVSPropertyOp6
 70
     1
102
RTVSPropertyOp7
 70
     1
102
RTVSPropertyOp8
 70
     1
102
RTVSPropertyOp9
 70
     1
102
RTVSPropertyOp10
 70
     1
102
RTVSPropertyOp11
 70
     1
102
RTVSPropertyOp12
 70
     1
102
RTVSPropertyOp13
 70
     1
102
RTVSPropertyOp14
 70
     1
102
RTVSPropertyOp15
 70
     1
102
RTVSPropertyOp16
 70
     1
102
RTVSPropertyOp17
 70
     1
102
RTVSPropertyOp18
 70
     1
102
RTVSPropertyOp19
 70
     1
102
RTVSPropertyOp20
 70
     1
102
RTVSPropertyOp21
 70
     1
102
RTVSPropertyOp22
 70
     1
102
RTVSPropertyOp23
 70
     1
102
RTVSPropertyOp24
 70
     1
102
RTVSPropertyOp25
 70
     1
102
RTVSPropertyOp26
 70
     1
102
RTVSPropertyOp27
 70
     1
102
RTVSPropertyOp28
 70
     1
102
RTVSPropertyOp29
 70
     1
102
RTVSPropertyOp30
 70
     1
102
RTVSPropertyOp31
 70
     1
102
RTVSPropertyOp32
 70
     1
  0
XRECORD
  5
81
102
{ACAD_REACTORS
330
80
102
}
330
80
100
AcDbXrecord
280
     1
102
RTVSPropertyOp0
 70
     1
102
RTVSPropertyOp1
 70
     1
102
RTVSPropertyOp2
 70
     1
102
RTVSPropertyOp3
 70
     1
102
RTVSPropertyOp4
 70
     1
102
RTVSPropertyOp5
 70
     1
102
RTVSPropertyOp6
 70
     1
102
RTVSPropertyOp7
 70
     1
102
RTVSPropertyOp8
 70
     1
102
RTVSPropertyOp9
 70
     1
102
RTVSPropertyOp10
 70
     1
102
RTVSPropertyOp11
 70
     1
102
RTVSPropertyOp12
 70
     1
102
RTVSPropertyOp13
 70
     1
102
RTVSPropertyOp14
 70
     1
102
RTVSPropertyOp15
 70
     1
102
RTVSPropertyOp16
 70
     1
102
RTVSPropertyOp17
 70
     1
102
RTVSPropertyOp18
 70
     1
102
RTVSPropertyOp19
 70
     1
102
RTVSPropertyOp20
 70
     1
102
RTVSPropertyOp21
 70
     1
102
RTVSPropertyOp22
 70
     1
102
RTVSPropertyOp23
 70
     1
102
RTVSPropertyOp24
 70
     1
102
RTVSPropertyOp25
 70
     1
102
RTVSPropertyOp26
 70
     1
102
RTVSPropertyOp27
 70
     1
102
RTVSPropertyOp28
 70
     1
102
RTVSPropertyOp29
 70
     1
102
RTVSPropertyOp30
 70
     1
102
RTVSPropertyOp31
 70
     1
102
RTVSPropertyOp32
 70
     1
  0
XRECORD
  5
85
102
{ACAD_REACTORS
330
84
102
}
330
84
100
AcDbXrecord
280
     1
102
RTVSPropertyOp0
 70
     1
102
RTVSPropertyOp1
 70
     1
102
RTVSPropertyOp2
 70
     1
102
RTVSPropertyOp3
 70
     1
102
RTVSPropertyOp4
 70
     1
102
RTVSPropertyOp5
 70
     1
102
RTVSPropertyOp6
 70
     1
102
RTVSPropertyOp7
 70
     1
102
RTVSPropertyOp8
 70
     1
102
RTVSPropertyOp9
 70
     1
102
RTVSPropertyOp10
 70
     1
102
RTVSPropertyOp11
 70
     1
102
RTVSPropertyOp12
 70
     1
102
RTVSPropertyOp13
 70
     1
102
RTVSPropertyOp14
 70
     1
102
RTVSPropertyOp15
 70
     1
102
RTVSPropertyOp16
 70
     1
102
RTVSPropertyOp17
 70
     1
102
RTVSPropertyOp18
 70
     1
102
RTVSPropertyOp19
 70
     1
102
RTVSPropertyOp20
 70
     1
102
RTVSPropertyOp21
 70
     1
102
RTVSPropertyOp22
 70
     1
102
RTVSPropertyOp23
 70
     1
102
RTVSPropertyOp24
 70
     1
102
RTVSPropertyOp25
 70
     1
102
RTVSPropertyOp26
 70
     1
102
RTVSPropertyOp27
 70
     1
102
RTVSPropertyOp28
 70
     1
102
RTVSPropertyOp29
 70
     1
102
RTVSPropertyOp30
 70
     1
102
RTVSPropertyOp31
 70
     1
102
RTVSPropertyOp32
 70
     1
  0
XRECORD
  5
8D
102
{ACAD_REACTORS
330
8C
102
}
330
8C
100
AcDbXrecord
280
     1
102
RTVSPropertyOp0
 70
     1
102
RTVSPropertyOp1
 70
     1
102
RTVSPropertyOp2
 70
     1
102
RTVSPropertyOp3
 70
     1
102
RTVSPropertyOp4
 70
     1
102
RTVSPropertyOp5
 70
     1
102
RTVSPropertyOp6
 70
     1
102
RTVSPropertyOp7
 70
     1
102
RTVSPropertyOp8
 70
     1
102
RTVSPropertyOp9
 70
     1
102
RTVSPropertyOp10
 70
     1
102
RTVSPropertyOp11
 70
     1
102
RTVSPropertyOp12
 70
     1
102
RTVSPropertyOp13
 70
     1
102
RTVSPropertyOp14
 70
     1
102
RTVSPropertyOp15
 70
     1
102
RTVSPropertyOp16
 70
     1
102
RTVSPropertyOp17
 70
     1
102
RTVSPropertyOp18
 70
     1
102
RTVSPropertyOp19
 70
     1
102
RTVSPropertyOp20
 70
     1
102
RTVSPropertyOp21
 70
     1
102
RTVSPropertyOp22
 70
     1
102
RTVSPropertyOp23
 70
     1
102
RTVSPropertyOp24
 70
     1
102
RTVSPropertyOp25
 70
     1
102
RTVSPropertyOp26
 70
     1
102
RTVSPropertyOp27
 70
     1
102
RTVSPropertyOp28
 70
     1
102
RTVSPropertyOp29
 70
     1
102
RTVSPropertyOp30
 70
     1
102
RTVSPropertyOp31
 70
     1
102
RTVSPropertyOp32
 70
     1
  0
XRECORD
  5
95
102
{ACAD_REACTORS
330
94
102
}
330
94
100
AcDbXrecord
280
     1
102
RTVSPropertyOp0
 70
     1
102
RTVSPropertyOp1
 70
     1
102
RTVSPropertyOp2
 70
     1
102
RTVSPropertyOp3
 70
     1
102
RTVSPropertyOp4
 70
     1
102
RTVSPropertyOp5
 70
     1
102
RTVSPropertyOp6
 70
     1
102
RTVSPropertyOp7
 70
     1
102
RTVSPropertyOp8
 70
     1
102
RTVSPropertyOp9
 70
     1
102
RTVSPropertyOp10
 70
     1
102
RTVSPropertyOp11
 70
     1
102
RTVSPropertyOp12
 70
     1
102
RTVSPropertyOp13
 70
     1
102
RTVSPropertyOp14
 70
     1
102
RTVSPropertyOp15
 70
     1
102
RTVSPropertyOp16
 70
     1
102
RTVSPropertyOp17
 70
     1
102
RTVSPropertyOp18
 70
     1
102
RTVSPropertyOp19
 70
     1
102
RTVSPropertyOp20
 70
     1
102
RTVSPropertyOp21
 70
     1
102
RTVSPropertyOp22
 70
     1
102
RTVSPropertyOp23
 70
     1
102
RTVSPropertyOp24
 70
     1
102
RTVSPropertyOp25
 70
     1
102
RTVSPropertyOp26
 70
     1
102
RTVSPropertyOp27
 70
     1
102
RTVSPropertyOp28
 70
     1
102
RTVSPropertyOp29
 70
     1
102
RTVSPropertyOp30
 70
     1
102
RTVSPropertyOp31
 70
     1
102
RTVSPropertyOp32
 70
     1
  0
XRECORD
  5
89
102
{ACAD_REACTORS
330
88
102
}
330
88
100
AcDbXrecord
280
     1
102
RTVSPropertyOp0
 70
     1
102
RTVSPropertyOp1
 70
     1
102
RTVSPropertyOp2
 70
     1
102
RTVSPropertyOp3
 70
     1
102
RTVSPropertyOp4
 70
     1
102
RTVSPropertyOp5
 70
     1
102
RTVSPropertyOp6
 70
     1
102
RTVSPropertyOp7
 70
     1
102
RTVSPropertyOp8
 70
     1
102
RTVSPropertyOp9
 70
     1
102
RTVSPropertyOp10
 70
     1
102
RTVSPropertyOp11
 70
     1
102
RTVSPropertyOp12
 70
     1
102
RTVSPropertyOp13
 70
     1
102
RTVSPropertyOp14
 70
     1
102
RTVSPropertyOp15
 70
     1
102
RTVSPropertyOp16
 70
     1
102
RTVSPropertyOp17
 70
     1
102
RTVSPropertyOp18
 70
     1
102
RTVSPropertyOp19
 70
     1
102
RTVSPropertyOp20
 70
     1
102
RTVSPropertyOp21
 70
     1
102
RTVSPropertyOp22
 70
     1
102
RTVSPropertyOp23
 70
     1
102
RTVSPropertyOp24
 70
     1
102
RTVSPropertyOp25
 70
     1
102
RTVSPropertyOp26
 70
     1
102
RTVSPropertyOp27
 70
     1
102
RTVSPropertyOp28
 70
     1
102
RTVSPropertyOp29
 70
     1
102
RTVSPropertyOp30
 70
     1
102
RTVSPropertyOp31
 70
     1
102
RTVSPropertyOp32
 70
     1
  0
XRECORD
  5
8B
102
{ACAD_REACTORS
330
8A
102
}
330
8A
100
AcDbXrecord
280
     1
102
RTVSPropertyOp0
 70
     1
102
RTVSPropertyOp1
 70
     1
102
RTVSPropertyOp2
 70
     1
102
RTVSPropertyOp3
 70
     1
102
RTVSPropertyOp4
 70
     1
102
RTVSPropertyOp5
 70
     1
102
RTVSPropertyOp6
 70
     1
102
RTVSPropertyOp7
 70
     1
102
RTVSPropertyOp8
 70
     1
102
RTVSPropertyOp9
 70
     1
102
RTVSPropertyOp10
 70
     1
102
RTVSPropertyOp11
 70
     1
102
RTVSPropertyOp12
 70
     1
102
RTVSPropertyOp13
 70
     1
102
RTVSPropertyOp14
 70
     1
102
RTVSPropertyOp15
 70
     1
102
RTVSPropertyOp16
 70
     1
102
RTVSPropertyOp17
 70
     1
102
RTVSPropertyOp18
 70
     1
102
RTVSPropertyOp19
 70
     1
102
RTVSPropertyOp20
 70
     1
102
RTVSPropertyOp21
 70
     1
102
RTVSPropertyOp22
 70
     1
102
RTVSPropertyOp23
 70
     1
102
RTVSPropertyOp24
 70
     1
102
RTVSPropertyOp25
 70
     1
102
RTVSPropertyOp26
 70
     1
102
RTVSPropertyOp27
 70
     1
102
RTVSPropertyOp28
 70
     1
102
RTVSPropertyOp29
 70
     1
102
RTVSPropertyOp30
 70
     1
102
RTVSPropertyOp31
 70
     1
102
RTVSPropertyOp32
 70
     1
  0
XRECORD
  5
93
102
{ACAD_REACTORS
330
92
102
}
330
92
100
AcDbXrecord
280
     1
102
RTVSPropertyOp0
 70
     1
102
RTVSPropertyOp1
 70
     1
102
RTVSPropertyOp2
 70
     1
102
RTVSPropertyOp3
 70
     1
102
RTVSPropertyOp4
 70
     1
102
RTVSPropertyOp5
 70
     1
102
RTVSPropertyOp6
 70
     1
102
RTVSPropertyOp7
 70
     1
102
RTVSPropertyOp8
 70
     1
102
RTVSPropertyOp9
 70
     1
102
RTVSPropertyOp10
 70
     1
102
RTVSPropertyOp11
 70
     1
102
RTVSPropertyOp12
 70
     1
102
RTVSPropertyOp13
 70
     1
102
RTVSPropertyOp14
 70
     1
102
RTVSPropertyOp15
 70
     1
102
RTVSPropertyOp16
 70
     1
102
RTVSPropertyOp17
 70
     1
102
RTVSPropertyOp18
 70
     1
102
RTVSPropertyOp19
 70
     1
102
RTVSPropertyOp20
 70
     1
102
RTVSPropertyOp21
 70
     1
102
RTVSPropertyOp22
 70
     1
102
RTVSPropertyOp23
 70
     1
102
RTVSPropertyOp24
 70
     1
102
RTVSPropertyOp25
 70
     1
102
RTVSPropertyOp26
 70
     1
102
RTVSPropertyOp27
 70
     1
102
RTVSPropertyOp28
 70
     1
102
RTVSPropertyOp29
 70
     1
102
RTVSPropertyOp30
 70
     1
102
RTVSPropertyOp31
 70
     1
102
RTVSPropertyOp32
 70
     1
  0
XRECORD
  5
77
102
{ACAD_REACTORS
330
76
102
}
330
76
100
AcDbXrecord
280
     1
102
RTVSPropertyOp0
 70
     1
102
RTVSPropertyOp1
 70
     1
102
RTVSPropertyOp2
 70
     1
102
RTVSPropertyOp3
 70
     1
102
RTVSPropertyOp4
 70
     1
102
RTVSPropertyOp5
 70
     1
102
RTVSPropertyOp6
 70
     1
102
RTVSPropertyOp7
 70
     1
102
RTVSPropertyOp8
 70
     1
102
RTVSPropertyOp9
 70
     1
102
RTVSPropertyOp10
 70
     1
102
RTVSPropertyOp11
 70
     1
102
RTVSPropertyOp12
 70
     1
102
RTVSPropertyOp13
 70
     1
102
RTVSPropertyOp14
 70
     1
102
RTVSPropertyOp15
 70
     1
102
RTVSPropertyOp16
 70
     1
102
RTVSPropertyOp17
 70
     1
102
RTVSPropertyOp18
 70
     1
102
RTVSPropertyOp19
 70
     1
102
RTVSPropertyOp20
 70
     1
102
RTVSPropertyOp21
 70
     1
102
RTVSPropertyOp22
 70
     1
102
RTVSPropertyOp23
 70
     1
102
RTVSPropertyOp24
 70
     1
102
RTVSPropertyOp25
 70
     1
102
RTVSPropertyOp26
 70
     1
102
RTVSPropertyOp27
 70
     1
102
RTVSPropertyOp28
 70
     1
102
RTVSPropertyOp29
 70
     1
102
RTVSPropertyOp30
 70
     1
102
RTVSPropertyOp31
 70
     1
102
RTVSPropertyOp32
 70
     1
  0
XRECORD
  5
79
102
{ACAD_REACTORS
330
78
102
}
330
78
100
AcDbXrecord
280
     1
102
RTVSPropertyOp0
 70
     1
102
RTVSPropertyOp1
 70
     1
102
RTVSPropertyOp2
 70
     1
102
RTVSPropertyOp3
 70
     1
102
RTVSPropertyOp4
 70
     1
102
RTVSPropertyOp5
 70
     1
102
RTVSPropertyOp6
 70
     1
102
RTVSPropertyOp7
 70
     1
102
RTVSPropertyOp8
 70
     1
102
RTVSPropertyOp9
 70
     1
102
RTVSPropertyOp10
 70
     1
102
RTVSPropertyOp11
 70
     1
102
RTVSPropertyOp12
 70
     1
102
RTVSPropertyOp13
 70
     1
102
RTVSPropertyOp14
 70
     1
102
RTVSPropertyOp15
 70
     1
102
RTVSPropertyOp16
 70
     1
102
RTVSPropertyOp17
 70
     1
102
RTVSPropertyOp18
 70
     1
102
RTVSPropertyOp19
 70
     1
102
RTVSPropertyOp20
 70
     1
102
RTVSPropertyOp21
 70
     1
102
RTVSPropertyOp22
 70
     1
102
RTVSPropertyOp23
 70
     1
102
RTVSPropertyOp24
 70
     1
102
RTVSPropertyOp25
 70
     1
102
RTVSPropertyOp26
 70
     1
102
RTVSPropertyOp27
 70
     1
102
RTVSPropertyOp28
 70
     1
102
RTVSPropertyOp29
 70
     1
102
RTVSPropertyOp30
 70
     1
102
RTVSPropertyOp31
 70
     1
102
RTVSPropertyOp32
 70
     1
  0
XRECORD
  5
7B
102
{ACAD_REACTORS
330
7A
102
}
330
7A
100
AcDbXrecord
280
     1
102
RTVSPropertyOp0
 70
     1
102
RTVSPropertyOp1
 70
     1
102
RTVSPropertyOp2
 70
     1
102
RTVSPropertyOp3
 70
     1
102
RTVSPropertyOp4
 70
     1
102
RTVSPropertyOp5
 70
     1
102
RTVSPropertyOp6
 70
     1
102
RTVSPropertyOp7
 70
     1
102
RTVSPropertyOp8
 70
     1
102
RTVSPropertyOp9
 70
     1
102
RTVSPropertyOp10
 70
     1
102
RTVSPropertyOp11
 70
     1
102
RTVSPropertyOp12
 70
     1
102
RTVSPropertyOp13
 70
     1
102
RTVSPropertyOp14
 70
     1
102
RTVSPropertyOp15
 70
     1
102
RTVSPropertyOp16
 70
     1
102
RTVSPropertyOp17
 70
     1
102
RTVSPropertyOp18
 70
     1
102
RTVSPropertyOp19
 70
     1
102
RTVSPropertyOp20
 70
     1
102
RTVSPropertyOp21
 70
     1
102
RTVSPropertyOp22
 70
     1
102
RTVSPropertyOp23
 70
     1
102
RTVSPropertyOp24
 70
     1
102
RTVSPropertyOp25
 70
     1
102
RTVSPropertyOp26
 70
     1
102
RTVSPropertyOp27
 70
     1
102
RTVSPropertyOp28
 70
     1
102
RTVSPropertyOp29
 70
     1
102
RTVSPropertyOp30
 70
     1
102
RTVSPropertyOp31
 70
     1
102
RTVSPropertyOp32
 70
     1
  0
XRECORD
  5
7D
102
{ACAD_REACTORS
330
7C
102
}
330
7C
100
AcDbXrecord
280
     1
102
RTVSPropertyOp0
 70
     1
102
RTVSPropertyOp1
 70
     1
102
RTVSPropertyOp2
 70
     1
102
RTVSPropertyOp3
 70
     1
102
RTVSPropertyOp4
 70
     1
102
RTVSPropertyOp5
 70
     1
102
RTVSPropertyOp6
 70
     1
102
RTVSPropertyOp7
 70
     1
102
RTVSPropertyOp8
 70
     1
102
RTVSPropertyOp9
 70
     1
102
RTVSPropertyOp10
 70
     1
102
RTVSPropertyOp11
 70
     1
102
RTVSPropertyOp12
 70
     1
102
RTVSPropertyOp13
 70
     1
102
RTVSPropertyOp14
 70
     1
102
RTVSPropertyOp15
 70
     1
102
RTVSPropertyOp16
 70
     1
102
RTVSPropertyOp17
 70
     1
102
RTVSPropertyOp18
 70
     1
102
RTVSPropertyOp19
 70
     1
102
RTVSPropertyOp20
 70
     1
102
RTVSPropertyOp21
 70
     1
102
RTVSPropertyOp22
 70
     1
102
RTVSPropertyOp23
 70
     1
102
RTVSPropertyOp24
 70
     1
102
RTVSPropertyOp25
 70
     1
102
RTVSPropertyOp26
 70
     1
102
RTVSPropertyOp27
 70
     1
102
RTVSPropertyOp28
 70
     1
102
RTVSPropertyOp29
 70
     1
102
RTVSPropertyOp30
 70
     1
102
RTVSPropertyOp31
 70
     1
102
RTVSPropertyOp32
 70
     1
  0
XRECORD
  5
91
102
{ACAD_REACTORS
330
90
102
}
330
90
100
AcDbXrecord
280
     1
102
RTVSPropertyOp0
 70
     1
102
RTVSPropertyOp1
 70
     1
102
RTVSPropertyOp2
 70
     1
102
RTVSPropertyOp3
 70
     1
102
RTVSPropertyOp4
 70
     1
102
RTVSPropertyOp5
 70
     1
102
RTVSPropertyOp6
 70
     1
102
RTVSPropertyOp7
 70
     1
102
RTVSPropertyOp8
 70
     1
102
RTVSPropertyOp9
 70
     1
102
RTVSPropertyOp10
 70
     1
102
RTVSPropertyOp11
 70
     1
102
RTVSPropertyOp12
 70
     1
102
RTVSPropertyOp13
 70
     1
102
RTVSPropertyOp14
 70
     1
102
RTVSPropertyOp15
 70
     1
102
RTVSPropertyOp16
 70
     1
102
RTVSPropertyOp17
 70
     1
102
RTVSPropertyOp18
 70
     1
102
RTVSPropertyOp19
 70
     1
102
RTVSPropertyOp20
 70
     1
102
RTVSPropertyOp21
 70
     1
102
RTVSPropertyOp22
 70
     1
102
RTVSPropertyOp23
 70
     1
102
RTVSPropertyOp24
 70
     1
102
RTVSPropertyOp25
 70
     1
102
RTVSPropertyOp26
 70
     1
102
RTVSPropertyOp27
 70
     1
102
RTVSPropertyOp28
 70
     1
102
RTVSPropertyOp29
 70
     1
102
RTVSPropertyOp30
 70
     1
102
RTVSPropertyOp31
 70
     1
102
RTVSPropertyOp32
 70
     1
  0
XRECORD
  5
87
102
{ACAD_REACTORS
330
86
102
}
330
86
100
AcDbXrecord
280
     1
102
RTVSPropertyOp0
 70
     1
102
RTVSPropertyOp1
 70
     1
102
RTVSPropertyOp2
 70
     1
102
RTVSPropertyOp3
 70
     1
102
RTVSPropertyOp4
 70
     1
102
RTVSPropertyOp5
 70
     1
102
RTVSPropertyOp6
 70
     1
102
RTVSPropertyOp7
 70
     1
102
RTVSPropertyOp8
 70
     1
102
RTVSPropertyOp9
 70
     1
102
RTVSPropertyOp10
 70
     1
102
RTVSPropertyOp11
 70
     1
102
RTVSPropertyOp12
 70
     1
102
RTVSPropertyOp13
 70
     1
102
RTVSPropertyOp14
 70
     1
102
RTVSPropertyOp15
 70
     1
102
RTVSPropertyOp16
 70
     1
102
RTVSPropertyOp17
 70
     1
102
RTVSPropertyOp18
 70
     1
102
RTVSPropertyOp19
 70
     1
102
RTVSPropertyOp20
 70
     1
102
RTVSPropertyOp21
 70
     1
102
RTVSPropertyOp22
 70
     1
102
RTVSPropertyOp23
 70
     1
102
RTVSPropertyOp24
 70
     1
102
RTVSPropertyOp25
 70
     1
102
RTVSPropertyOp26
 70
     1
102
RTVSPropertyOp27
 70
     1
102
RTVSPropertyOp28
 70
     1
102
RTVSPropertyOp29
 70
     1
102
RTVSPropertyOp30
 70
     1
102
RTVSPropertyOp31
 70
     1
102
RTVSPropertyOp32
 70
     1
  0
XRECORD
  5
8F
102
{ACAD_REACTORS
330
8E
102
}
330
8E
100
AcDbXrecord
280
     1
102
RTVSPropertyOp0
 70
     1
102
RTVSPropertyOp1
 70
     1
102
RTVSPropertyOp2
 70
     1
102
RTVSPropertyOp3
 70
     1
102
RTVSPropertyOp4
 70
     1
102
RTVSPropertyOp5
 70
     1
102
RTVSPropertyOp6
 70
     1
102
RTVSPropertyOp7
 70
     1
102
RTVSPropertyOp8
 70
     1
102
RTVSPropertyOp9
 70
     1
102
RTVSPropertyOp10
 70
     1
102
RTVSPropertyOp11
 70
     1
102
RTVSPropertyOp12
 70
     1
102
RTVSPropertyOp13
 70
     1
102
RTVSPropertyOp14
 70
     1
102
RTVSPropertyOp15
 70
     1
102
RTVSPropertyOp16
 70
     1
102
RTVSPropertyOp17
 70
     1
102
RTVSPropertyOp18
 70
     1
102
RTVSPropertyOp19
 70
     1
102
RTVSPropertyOp20
 70
     1
102
RTVSPropertyOp21
 70
     1
102
RTVSPropertyOp22
 70
     1
102
RTVSPropertyOp23
 70
     1
102
RTVSPropertyOp24
 70
     1
102
RTVSPropertyOp25
 70
     1
102
RTVSPropertyOp26
 70
     1
102
RTVSPropertyOp27
 70
     1
102
RTVSPropertyOp28
 70
     1
102
RTVSPropertyOp29
 70
     1
102
RTVSPropertyOp30
 70
     1
102
RTVSPropertyOp31
 70
     1
102
RTVSPropertyOp32
 70
     1
  0
ENDSEC
  0
EOF
