  0
SECTION
  2
HEADER
  9
$ACADVER
  1
AC1021
  9
$ACADMAINTVER
 70
    25
  9
$DWGCODEPAGE
  3
ANSI_1252
  9
$INSBASE
 10
0.0
 20
0.0
 30
0.0
  9
$EXTMIN
 10
-186.8777
 20
-103.8408
 30
0.0
  9
$EXTMAX
 10
-83.012
 20
121.4763
 30
0.0
  9
$LIMMIN
 10
0.0
 20
0.0
  9
$LIMMAX
 10
12.0
 20
9.0
  9
$ORTHOMODE
 70
     0
  9
$REGENMODE
 70
     1
  9
$FILLMODE
 70
     1
  9
$QTEXTMODE
 70
     0
  9
$MIRRTEXT
 70
     1
  9
$LTSCALE
 40
1.0
  9
$ATTMODE
 70
     1
  9
$TEXTSIZE
 40
0.2
  9
$TRACEWID
 40
0.05
  9
$TEXTSTYLE
  7
Standard
  9
$CLAYER
  8
0
  9
$CELTYPE
  6
ByLayer
  9
$CECOLOR
 62
   256
  9
$CELTSCALE
 40
1.0
  9
$DISPSILH
 70
     0
  9
$DIMSCALE
 40
1.0
  9
$DIMASZ
 40
0.18
  9
$DIMEXO
 40
0.0625
  9
$DIMDLI
 40
0.38
  9
$DIMRND
 40
0.0
  9
$DIMDLE
 40
0.0
  9
$DIMEXE
 40
0.18
  9
$DIMTP
 40
0.0
  9
$DIMTM
 40
0.0
  9
$DIMTXT
 40
0.18
  9
$DIMCEN
 40
0.09
  9
$DIMTSZ
 40
0.0
  9
$DIMTOL
 70
     0
  9
$DIMLIM
 70
     0
  9
$DIMTIH
 70
     1
  9
$DIMTOH
 70
     1
  9
$DIMSE1
 70
     0
  9
$DIMSE2
 70
     0
  9
$DIMTAD
 70
     0
  9
$DIMZIN
 70
     0
  9
$DIMBLK
  1

  9
$DIMASO
 70
     1
  9
$DIMSHO
 70
     1
  9
$DIMPOST
  1

  9
$DIMAPOST
  1

  9
$DIMALT
 70
     0
  9
$DIMALTD
 70
     2
  9
$DIMALTF
 40
25.4
  9
$DIMLFAC
 40
1.0
  9
$DIMTOFL
 70
     0
  9
$DIMTVP
 40
0.0
  9
$DIMTIX
 70
     0
  9
$DIMSOXD
 70
     0
  9
$DIMSAH
 70
     0
  9
$DIMBLK1
  1

  9
$DIMBLK2
  1

  9
$DIMSTYLE
  2
Standard
  9
$DIMCLRD
 70
     0
  9
$DIMCLRE
 70
     0
  9
$DIMCLRT
 70
     0
  9
$DIMTFAC
 40
1.0
  9
$DIMGAP
 40
0.09
  9
$DIMJUST
 70
     0
  9
$DIMSD1
 70
     0
  9
$DIMSD2
 70
     0
  9
$DIMTOLJ
 70
     1
  9
$DIMTZIN
 70
     0
  9
$DIMALTZ
 70
     0
  9
$DIMALTTZ
 70
     0
  9
$DIMUPT
 70
     0
  9
$DIMDEC
 70
     4
  9
$DIMTDEC
 70
     4
  9
$DIMALTU
 70
     2
  9
$DIMALTTD
 70
     2
  9
$DIMTXSTY
  7
Standard
  9
$DIMAUNIT
 70
     0
  9
$DIMADEC
 70
     0
  9
$DIMALTRND
 40
0.0
  9
$DIMAZIN
 70
     0
  9
$DIMDSEP
 70
    46
  9
$DIMATFIT
 70
     3
  9
$DIMFRAC
 70
     0
  9
$DIMLDRBLK
  1

  9
$DIMLUNIT
 70
     2
  9
$DIMLWD
 70
    -2
  9
$DIMLWE
 70
    -2
  9
$DIMTMOVE
 70
     0
  9
$DIMFXL
 40
1.0
  9
$DIMFXLON
 70
     0
  9
$DIMJOGANG
 40
0.7853981633974483
  9
$DIMTFILL
 70
     0
  9
$DIMTFILLCLR
 70
     0
  9
$DIMARCSYM
 70
     0
  9
$DIMLTYPE
  6

  9
$DIMLTEX1
  6

  9
$DIMLTEX2
  6

  9
$LUNITS
 70
     2
  9
$LUPREC
 70
     4
  9
$SKETCHINC
 40
0.1
  9
$FILLETRAD
 40
0.5
  9
$AUNITS
 70
     0
  9
$AUPREC
 70
     0
  9
$MENU
  1
.
  9
$ELEVATION
 40
0.0
  9
$PELEVATION
 40
0.0
  9
$THICKNESS
 40
0.0
  9
$LIMCHECK
 70
     0
  9
$CHAMFERA
 40
0.5
  9
$CHAMFERB
 40
0.5
  9
$CHAMFERC
 40
1.0
  9
$CHAMFERD
 40
0.0
  9
$SKPOLY
 70
     0
  9
$TDCREATE
 40
2458492.554475428
  9
$TDUCREATE
 40
2458492.554475428
  9
$TDUPDATE
 40
2458492.55447566
  9
$TDUUPDATE
 40
2458492.55447566
  9
$TDINDWG
 40
0.0000000116
  9
$TDUSRTIMER
 40
0.0000000116
  9
$USRTIMER
 70
     1
  9
$ANGBASE
 50
0.0
  9
$ANGDIR
 70
     0
  9
$PDMODE
 70
     0
  9
$PDSIZE
 40
0.0
  9
$PLINEWID
 40
0.0
  9
$SPLFRAME
 70
     0
  9
$SPLINETYPE
 70
     6
  9
$SPLINESEGS
 70
     8
  9
$HANDSEED
  5
9F
  9
$SURFTAB1
 70
     6
  9
$SURFTAB2
 70
     6
  9
$SURFTYPE
 70
     6
  9
$SURFU
 70
     6
  9
$SURFV
 70
     6
  9
$UCSBASE
  2

  9
$UCSNAME
  2

  9
$UCSORG
 10
0.0
 20
0.0
 30
0.0
  9
$UCSXDIR
 10
1.0
 20
0.0
 30
0.0
  9
$UCSYDIR
 10
0.0
 20
1.0
 30
0.0
  9
$UCSORTHOREF
  2

  9
$UCSORTHOVIEW
 70
     0
  9
$UCSORGTOP
 10
0.0
 20
0.0
 30
0.0
  9
$UCSORGBOTTOM
 10
0.0
 20
0.0
 30
0.0
  9
$UCSORGLEFT
 10
0.0
 20
0.0
 30
0.0
  9
$UCSORGRIGHT
 10
0.0
 20
0.0
 30
0.0
  9
$UCSORGFRONT
 10
0.0
 20
0.0
 30
0.0
  9
$UCSORGBACK
 10
0.0
 20
0.0
 30
0.0
  9
$PUCSBASE
  2

  9
$PUCSNAME
  2

  9
$PUCSORG
 10
0.0
 20
0.0
 30
0.0
  9
$PUCSXDIR
 10
1.0
 20
0.0
 30
0.0
  9
$PUCSYDIR
 10
0.0
 20
1.0
 30
0.0
  9
$PUCSORTHOREF
  2

  9
$PUCSORTHOVIEW
 70
     0
  9
$PUCSORGTOP
 10
0.0
 20
0.0
 30
0.0
  9
$PUCSORGBOTTOM
 10
0.0
 20
0.0
 30
0.0
  9
$PUCSORGLEFT
 10
0.0
 20
0.0
 30
0.0
  9
$PUCSORGRIGHT
 10
0.0
 20
0.0
 30
0.0
  9
$PUCSORGFRONT
 10
0.0
 20
0.0
 30
0.0
  9
$PUCSORGBACK
 10
0.0
 20
0.0
 30
0.0
  9
$USERI1
 70
     0
  9
$USERI2
 70
     0
  9
$USERI3
 70
     0
  9
$USERI4
 70
     0
  9
$USERI5
 70
     0
  9
$USERR1
 40
0.0
  9
$USERR2
 40
0.0
  9
$USERR3
 40
0.0
  9
$USERR4
 40
0.0
  9
$USERR5
 40
0.0
  9
$WORLDVIEW
 70
     1
  9
$SHADEDGE
 70
     3
  9
$SHADEDIF
 70
    70
  9
$TILEMODE
 70
     1
  9
$MAXACTVP
 70
    64
  9
$PINSBASE
 10
0.0
 20
0.0
 30
0.0
  9
$PLIMCHECK
 70
     0
  9
$PEXTMIN
 10
1.000000000000000E+20
 20
1.000000000000000E+20
 30
1.000000000000000E+20
  9
$PEXTMAX
 10
-1.000000000000000E+20
 20
-1.000000000000000E+20
 30
-1.000000000000000E+20
  9
$PLIMMIN
 10
0.0
 20
0.0
  9
$PLIMMAX
 10
12.0
 20
9.0
  9
$UNITMODE
 70
     0
  9
$VISRETAIN
 70
     1
  9
$PLINEGEN
 70
     0
  9
$PSLTSCALE
 70
     1
  9
$TREEDEPTH
 70
  3020
  9
$CMLSTYLE
  2
Standard
  9
$CMLJUST
 70
     0
  9
$CMLSCALE
 40
1.0
  9
$PROXYGRAPHICS
 70
     1
  9
$MEASUREMENT
 70
     0
  9
$CELWEIGHT
370
    -1
  9
$ENDCAPS
280
     0
  9
$JOINSTYLE
280
     0
  9
$LWDISPLAY
290
     0
  9
$INSUNITS
 70
     4
  9
$HYPERLINKBASE
  1

  9
$STYLESHEET
  1

  9
$XEDIT
290
     1
  9
$CEPSNTYPE
380
     0
  9
$PSTYLEMODE
290
     1
  9
$FINGERPRINTGUID
  2
{0691ABC2-1B39-4B14-BAFC-D5ED0F7FED39}
  9
$VERSIONGUID
  2
{FAEB1C32-E019-11D5-929B-00C0DF256EC4}
  9
$EXTNAMES
290
     1
  9
$PSVPSCALE
 40
0.0
  9
$OLESTARTUP
290
     0
  9
$SORTENTS
280
   127
  9
$INDEXCTL
280
     0
  9
$HIDETEXT
280
     1
  9
$XCLIPFRAME
290
     0
  9
$HALOGAP
280
     0
  9
$OBSCOLOR
 70
   257
  9
$OBSLTYPE
280
     0
  9
$INTERSECTIONDISPLAY
280
     0
  9
$INTERSECTIONCOLOR
 70
   257
  9
$DIMASSOC
280
     2
  9
$PROJECTNAME
  1

  9
$CAMERADISPLAY
290
     0
  9
$LENSLENGTH
 40
50.0
  9
$CAMERAHEIGHT
 40
0.0
  9
$STEPSPERSEC
 40
2.0
  9
$STEPSIZE
 40
6.0
  9
$3DDWFPREC
 40
2.0
  9
$PSOLWIDTH
 40
0.25
  9
$PSOLHEIGHT
 40
4.0
  9
$LOFTANG1
 40
1.570796326794897
  9
$LOFTANG2
 40
1.570796326794897
  9
$LOFTMAG1
 40
0.0
  9
$LOFTMAG2
 40
0.0
  9
$LOFTPARAM
 70
     7
  9
$LOFTNORMALS
280
     1
  9
$LATITUDE
 40
37.795
  9
$LONGITUDE
 40
-122.394
  9
$NORTHDIRECTION
 40
0.0
  9
$TIMEZONE
 70
 -8000
  9
$LIGHTGLYPHDISPLAY
280
     1
  9
$TILEMODELIGHTSYNCH
280
     1
  9
$SOLIDHIST
280
     1
  9
$SHOWHIST
280
     1
  9
$DWFFRAME
280
     2
  9
$DGNFRAME
280
     2
  9
$REALWORLDSCALE
290
     1
  9
$INTERFERECOLOR
 62
   256
  9
$CSHADOW
280
     0
  9
$SHADOWPLANELOCATION
 40
0.0
  0
ENDSEC
  0
SECTION
  2
CLASSES
  0
CLASS
  1
ACDBDICTIONARYWDFLT
  2
AcDbDictionaryWithDefault
  3
ObjectDBX Classes
 90
        0
 91
        4
280
     0
281
     0
  0
CLASS
  1
VISUALSTYLE
  2
AcDbVisualStyle
  3
ObjectDBX Classes
 90
     4095
 91
        4
280
     0
281
     0
  0
CLASS
  1
MATERIAL
  2
AcDbMaterial
  3
ObjectDBX Classes
 90
     1153
 91
        4
280
     0
281
     0
  0
ENDSEC
  0
SECTION
  2
TABLES
  0
TABLE
  2
VPORT
  5
8
330
0
100
AcDbSymbolTable
 70
     1
  0
VPORT
  5
29
330
8
100
AcDbSymbolTableRecord
100
AcDbViewportTableRecord
  2
*Active
 70
     0
 10
0.0
 20
0.0
 11
1.0
 21
1.0
 12
10.42990654205607
 22
4.5
 13
0.0
 23
0.0
 14
0.5
 24
0.5
 15
0.5
 25
0.5
 16
0.0
 26
0.0
 36
1.0
 17
0.0
 27
0.0
 37
0.0
 40
9.0
 41
1.972972972850329
 42
50.0
 43
0.0
 44
0.0
 50
0.0
 51
0.0
 71
     0
 72
   100
 73
     1
 74
     3
 75
     0
 76
     0
 77
     0
 78
     0
281
     0
 65
     1
110
0.0
120
0.0
130
0.0
111
1.0
121
0.0
131
0.0
112
0.0
122
1.0
132
0.0
 79
     0
146
0.0
 60
     3
 61
     5
292
     1
282
     1
141
0.0
142
0.0
 63
   250
  0
ENDTAB
  0
TABLE
  2
LTYPE
  5
5
330
0
100
AcDbSymbolTable
 70
     1
  0
LTYPE
  5
14
330
5
100
AcDbSymbolTableRecord
100
AcDbLinetypeTableRecord
  2
ByBlock
 70
     0
  3

 72
    65
 73
     0
 40
0.0
  0
LTYPE
  5
15
330
5
100
AcDbSymbolTableRecord
100
AcDbLinetypeTableRecord
  2
ByLayer
 70
     0
  3

 72
    65
 73
     0
 40
0.0
  0
LTYPE
  5
16
330
5
100
AcDbSymbolTableRecord
100
AcDbLinetypeTableRecord
  2
Continuous
 70
     0
  3
Solid line
 72
    65
 73
     0
 40
0.0
  0
ENDTAB
  0
TABLE
  2
LAYER
  5
2
330
0
100
AcDbSymbolTable
 70
     3
  0
LAYER
  5
10
330
2
100
AcDbSymbolTableRecord
100
AcDbLayerTableRecord
  2
0
 70
     0
 62
     7
  6
Continuous
370
    -3
390
F
347
3E
  0
LAYER
  5
40
330
2
100
AcDbSymbolTableRecord
100
AcDbLayerTableRecord
  2
layer 1
 70
     0
 62
     7
  6
Continuous
370
    -3
390
F
347
3E
  0
LAYER
  5
7C
330
2
100
AcDbSymbolTableRecord
100
AcDbLayerTableRecord
  2
Master Guides
 70
     0
 62
     7
  6
Continuous
370
    -3
390
F
347
3E
  0
ENDTAB
  0
TABLE
  2
STYLE
  5
3
330
0
100
AcDbSymbolTable
 70
     1
  0
STYLE
  5
11
330
3
100
AcDbSymbolTableRecord
100
AcDbTextStyleTableRecord
  2
Standard
 70
     0
 40
0.0
 41
1.0
 50
0.0
 71
     0
 42
0.2
  3
txt
  4

  0
ENDTAB
  0
TABLE
  2
VIEW
  5
6
330
0
100
AcDbSymbolTable
 70
     0
  0
ENDTAB
  0
TABLE
  2
UCS
  5
7
330
0
100
AcDbSymbolTable
 70
     0
  0
ENDTAB
  0
TABLE
  2
APPID
  5
9
330
0
100
AcDbSymbolTable
 70
     2
  0
APPID
  5
12
330
9
100
AcDbSymbolTableRecord
100
AcDbRegAppTableRecord
  2
ACAD
 70
     0
  0
APPID
  5
3F
330
9
100
AcDbSymbolTableRecord
100
AcDbRegAppTableRecord
  2
ODA
 70
     0
  0
ENDTAB
  0
TABLE
  2
DIMSTYLE
  5
A
330
0
100
AcDbSymbolTable
 70
     1
100
AcDbDimStyleTable
  0
DIMSTYLE
105
27
330
A
100
AcDbSymbolTableRecord
100
AcDbDimStyleTableRecord
  2
Standard
 70
     0
178
     0
340
11
  0
ENDTAB
  0
TABLE
  2
BLOCK_RECORD
  5
1
330
0
100
AcDbSymbolTable
 70
     1
  0
BLOCK_RECORD
  5
1F
330
1
100
AcDbSymbolTableRecord
100
AcDbBlockTableRecord
  2
*Model_Space
340
22
 70
     0
280
     1
281
     0
  0
BLOCK_RECORD
  5
1B
330
1
100
AcDbSymbolTableRecord
100
AcDbBlockTableRecord
  2
*Paper_Space
340
1E
 70
     0
280
     1
281
     0
  0
BLOCK_RECORD
  5
23
330
1
100
AcDbSymbolTableRecord
100
AcDbBlockTableRecord
  2
*Paper_Space0
340
26
 70
     0
280
     1
281
     0
  0
ENDTAB
  0
ENDSEC
  0
SECTION
  2
BLOCKS
  0
BLOCK
  5
20
330
1F
100
AcDbEntity
  8
0
100
AcDbBlockBegin
  2
*Model_Space
 70
     0
 10
0.0
 20
0.0
 30
0.0
  3
*Model_Space
  1

  0
ENDBLK
  5
21
330
1F
100
AcDbEntity
  8
0
100
AcDbBlockEnd
  0
BLOCK
  5
1C
330
1B
100
AcDbEntity
 67
     1
  8
0
100
AcDbBlockBegin
  2
*Paper_Space
 70
     0
 10
0.0
 20
0.0
 30
0.0
  3
*Paper_Space
  1

  0
ENDBLK
  5
1D
330
1B
100
AcDbEntity
 67
     1
  8
0
100
AcDbBlockEnd
  0
BLOCK
  5
24
330
23
100
AcDbEntity
  8
0
100
AcDbBlockBegin
  2
*Paper_Space0
 70
     0
 10
0.0
 20
0.0
 30
0.0
  3
*Paper_Space0
  1

  0
ENDBLK
  5
25
330
23
100
AcDbEntity
  8
0
100
AcDbBlockEnd
  0
ENDSEC
  0
SECTION
  2
ENTITIES
  0
LWPOLYLINE
  5
41
330
1F
100
AcDbEntity
  8
layer 1
100
AcDbPolyline
 90
        5
 70
     1
 43
0.0
 10
-186.8777
 20
-103.8408
 10
-83.0121
 20
-103.8408
 10
-83.0121
 20
121.4762
 10
-186.8777
 20
121.4762
 10
-186.8777
 20
-103.8408
  0
SPLINE
  5
42
330
1F
100
AcDbEntity
  8
layer 1
 62
     7
100
AcDbSpline
210
0.0
220
0.0
230
1.0
 70
    11
 71
     3
 72
    40
 73
    36
 74
     0
 42
0.0000000001
 43
0.0000000001
 12
1.0
 22
0.0
 32
0.0
 13
1.0
 23
0.0
 33
0.0
 40
0.0
 40
0.0
 40
0.0
 40
0.0
 40
0.1
 40
0.1
 40
0.1
 40
0.1
 40
0.2
 40
0.2
 40
0.2
 40
0.2
 40
0.3
 40
0.3
 40
0.3
 40
0.3
 40
0.4
 40
0.4
 40
0.4
 40
0.4
 40
0.5
 40
0.5
 40
0.5
 40
0.5
 40
0.6
 40
0.6
 40
0.6
 40
0.6
 40
0.7
 40
0.7
 40
0.7
 40
0.7
 40
0.8
 40
0.8
 40
0.8
 40
0.8
 40
1.0
 40
1.0
 40
1.0
 40
1.0
 10
-105.8261
 20
14.3299
 30
0.0
 10
-106.5982
 20
17.2705
 30
0.0
 10
-105.0803
 20
19.4917
 30
0.0
 10
-102.9987
 20
19.5594
 30
0.0
 10
-102.9987
 20
19.5594
 30
0.0
 10
-100.3583
 20
19.6452
 30
0.0
 10
-99.2704
 20
16.4555
 30
0.0
 10
-99.2704
 20
14.3727
 30
0.0
 10
-99.2704
 20
14.3727
 30
0.0
 10
-99.2704
 20
13.7822
 30
0.0
 10
-95.8888
 20
20.8155
 30
0.0
 10
-99.5613
 20
25.8438
 30
0.0
 10
-99.5613
 20
25.8438
 30
0.0
 10
-104.1172
 20
31.2392
 30
0.0
 10
-109.135
 20
33.4842
 30
0.0
 10
-113.201
 20
34.7097
 30
0.0
 10
-113.201
 20
34.7097
 30
0.0
 10
-112.5607
 20
32.2684
 30
0.0
 10
-111.2871
 20
20.2735
 30
0.0
 10
-120.7038
 20
16.2164
 30
0.0
 10
-120.7038
 20
16.2164
 30
0.0
 10
-118.115
 20
14.8282
 30
0.0
 10
-118.3507
 20
10.5997
 30
0.0
 10
-121.8129
 20
10.0251
 30
0.0
 10
-121.8129
 20
10.0251
 30
0.0
 10
-120.8434
 20
9.3012
 30
0.0
 10
-119.8248
 20
8.5338
 30
0.0
 10
-119.3926
 20
7.3973
 30
0.0
 10
-119.3926
 20
7.3973
 30
0.0
 10
-119.2239
 20
18.4891
 30
0.0
 10
-108.7241
 20
18.5459
 30
0.0
 10
-105.826
 20
14.3299
 30
0.0
 10
-105.826
 20
14.3299
 30
0.0
 10
-105.826
 20
14.3299
 30
0.0
 10
-105.8261
 20
14.3299
 30
0.0
 10
-105.8261
 20
14.3299
 30
0.0
  0
SPLINE
  5
43
330
1F
100
AcDbEntity
  8
layer 1
 62
     7
100
AcDbSpline
210
0.0
220
0.0
230
1.0
 70
    11
 71
     3
 72
    24
 73
    20
 74
     0
 42
0.0000000001
 43
0.0000000001
 12
1.0
 22
0.0
 32
0.0
 13
1.0
 23
0.0
 33
0.0
 40
0.0
 40
0.0
 40
0.0
 40
0.0
 40
0.1666666666666667
 40
0.1666666666666667
 40
0.1666666666666667
 40
0.1666666666666667
 40
0.3333333333333333
 40
0.3333333333333333
 40
0.3333333333333333
 40
0.3333333333333333
 40
0.5
 40
0.5
 40
0.5
 40
0.5
 40
0.6666666666666666
 40
0.6666666666666666
 40
0.6666666666666666
 40
0.6666666666666666
 40
1.0
 40
1.0
 40
1.0
 40
1.0
 10
-179.3693
 20
112.4086
 30
0.0
 10
-174.5551
 20
112.4086
 30
0.0
 10
-180.6303
 20
112.4086
 30
0.0
 10
-175.8161
 20
112.4086
 30
0.0
 10
-175.8161
 20
112.4086
 30
0.0
 10
-174.9975
 20
108.6996
 30
0.0
 10
-170.1854
 20
109.2569
 30
0.0
 10
-173.8813
 20
101.9016
 30
0.0
 10
-173.8813
 20
101.9016
 30
0.0
 10
-174.2804
 20
101.2319
 30
0.0
 10
-175.1617
 20
101.4012
 30
0.0
 10
-175.2895
 20
102.1909
 30
0.0
 10
-175.2895
 20
102.1909
 30
0.0
 10
-175.6505
 20
103.4457
 30
0.0
 10
-175.7727
 20
106.6393
 30
0.0
 10
-179.3693
 20
105.2502
 30
0.0
 10
-179.3693
 20
105.2502
 30
0.0
 10
-179.3693
 20
110.0011
 30
0.0
 10
-179.3693
 20
107.6577
 30
0.0
 10
-179.3693
 20
112.4086
 30
0.0
  0
SPLINE
  5
44
330
1F
100
AcDbEntity
  8
layer 1
 62
     7
100
AcDbSpline
210
0.0
220
0.0
230
1.0
 70
    11
 71
     3
 72
    16
 73
    12
 74
     0
 42
0.0000000001
 43
0.0000000001
 12
1.0
 22
0.0
 32
0.0
 13
1.0
 23
0.0
 33
0.0
 40
0.0
 40
0.0
 40
0.0
 40
0.0
 40
0.25
 40
0.25
 40
0.25
 40
0.25
 40
0.5
 40
0.5
 40
0.5
 40
0.5
 40
1.0
 40
1.0
 40
1.0
 40
1.0
 10
-167.5126
 20
112.4086
 30
0.0
 10
-162.6984
 20
112.4086
 30
0.0
 10
-161.4065
 20
112.4086
 30
0.0
 10
-156.5923
 20
112.4086
 30
0.0
 10
-156.5923
 20
112.4086
 30
0.0
 10
-156.9643
 20
110.5599
 30
0.0
 10
-157.9317
 20
109.2073
 30
0.0
 10
-161.1068
 20
109.2934
 30
0.0
 10
-161.1068
 20
109.2934
 30
0.0
 10
-163.4751
 20
109.3992
 30
0.0
 10
-166.5133
 20
110.7729
 30
0.0
 10
-167.5126
 20
112.4086
 30
0.0
  0
SPLINE
  5
45
330
1F
100
AcDbEntity
  8
layer 1
 62
     7
100
AcDbSpline
210
0.0
220
0.0
230
1.0
 70
    11
 71
     3
 72
    20
 73
    16
 74
     0
 42
0.0000000001
 43
0.0000000001
 12
1.0
 22
0.0
 32
0.0
 13
1.0
 23
0.0
 33
0.0
 40
0.0
 40
0.0
 40
0.0
 40
0.0
 40
0.2
 40
0.2
 40
0.2
 40
0.2
 40
0.4
 40
0.4
 40
0.4
 40
0.4
 40
0.6
 40
0.6
 40
0.6
 40
0.6
 40
1.0
 40
1.0
 40
1.0
 40
1.0
 10
-151.1711
 20
112.4086
 30
0.0
 10
-146.3568
 20
112.4086
 30
0.0
 10
-149.9962
 20
112.4086
 30
0.0
 10
-145.182
 20
112.4086
 30
0.0
 10
-145.182
 20
112.4086
 30
0.0
 10
-145.554
 20
110.5599
 30
0.0
 10
-149.6005
 20
108.6517
 30
0.0
 10
-152.7756
 20
108.7378
 30
0.0
 10
-152.7756
 20
108.7378
 30
0.0
 10
-151.7175
 20
109.8391
 30
0.0
 10
-151.1672
 20
111.1897
 30
0.0
 10
-151.1712
 20
112.4086
 30
0.0
 10
-151.1712
 20
112.4086
 30
0.0
 10
-151.1712
 20
112.4086
 30
0.0
 10
-151.1711
 20
112.4086
 30
0.0
 10
-151.1711
 20
112.4086
 30
0.0
  0
SPLINE
  5
46
330
1F
100
AcDbEntity
  8
layer 1
 62
     7
100
AcDbSpline
210
0.0
220
0.0
230
1.0
 70
    11
 71
     3
 72
    56
 73
    52
 74
     0
 42
0.0000000001
 43
0.0000000001
 12
1.0
 22
0.0
 32
0.0
 13
1.0
 23
0.0
 33
0.0
 40
0.0
 40
0.0
 40
0.0
 40
0.0
 40
0.0714285714285714
 40
0.0714285714285714
 40
0.0714285714285714
 40
0.0714285714285714
 40
0.1428571428571428
 40
0.1428571428571428
 40
0.1428571428571428
 40
0.1428571428571428
 40
0.2142857142857143
 40
0.2142857142857143
 40
0.2142857142857143
 40
0.2142857142857143
 40
0.2857142857142857
 40
0.2857142857142857
 40
0.2857142857142857
 40
0.2857142857142857
 40
0.3571428571428572
 40
0.3571428571428572
 40
0.3571428571428572
 40
0.3571428571428572
 40
0.4285714285714285
 40
0.4285714285714285
 40
0.4285714285714285
 40
0.4285714285714285
 40
0.5
 40
0.5
 40
0.5
 40
0.5
 40
0.5714285714285714
 40
0.5714285714285714
 40
0.5714285714285714
 40
0.5714285714285714
 40
0.6428571428571429
 40
0.6428571428571429
 40
0.6428571428571429
 40
0.6428571428571429
 40
0.7142857142857143
 40
0.7142857142857143
 40
0.7142857142857143
 40
0.7142857142857143
 40
0.7857142857142857
 40
0.7857142857142857
 40
0.7857142857142857
 40
0.7857142857142857
 40
0.8571428571428571
 40
0.8571428571428571
 40
0.8571428571428571
 40
0.8571428571428571
 40
1.0
 40
1.0
 40
1.0
 40
1.0
 10
-139.4357
 20
102.0075
 30
0.0
 10
-141.9032
 20
102.0075
 30
0.0
 10
-143.9034
 20
100.0072
 30
0.0
 10
-143.9034
 20
97.5398
 30
0.0
 10
-143.9034
 20
97.5398
 30
0.0
 10
-143.8352
 20
94.9668
 30
0.0
 10
-141.8761
 20
92.6731
 30
0.0
 10
-138.2652
 20
93.0793
 30
0.0
 10
-138.2652
 20
93.0793
 30
0.0
 10
-136.7979
 20
87.9439
 30
0.0
 10
-146.4806
 20
85.6035
 30
0.0
 10
-150.6042
 20
91.8531
 30
0.0
 10
-150.6042
 20
91.8531
 30
0.0
 10
-147.4865
 20
93.9114
 30
0.0
 10
-146.2439
 20
100.1986
 30
0.0
 10
-152.102
 20
103.5772
 30
0.0
 10
-152.102
 20
103.5772
 30
0.0
 10
-144.0401
 20
101.8115
 30
0.0
 10
-138.1243
 20
110.5345
 30
0.0
 10
-138.4968
 20
112.4088
 30
0.0
 10
-138.4968
 20
112.4088
 30
0.0
 10
-138.4968
 20
112.4088
 30
0.0
 10
-131.393
 20
112.4088
 30
0.0
 10
-131.393
 20
112.4088
 30
0.0
 10
-131.393
 20
112.4088
 30
0.0
 10
-131.7655
 20
110.5346
 30
0.0
 10
-125.8497
 20
101.8115
 30
0.0
 10
-117.7878
 20
103.5772
 30
0.0
 10
-117.7878
 20
103.5772
 30
0.0
 10
-123.6459
 20
100.1986
 30
0.0
 10
-122.4033
 20
93.9114
 30
0.0
 10
-119.2856
 20
91.8531
 30
0.0
 10
-119.2856
 20
91.8531
 30
0.0
 10
-123.4092
 20
85.6035
 30
0.0
 10
-133.0919
 20
87.9439
 30
0.0
 10
-131.6245
 20
93.0793
 30
0.0
 10
-131.6245
 20
93.0793
 30
0.0
 10
-128.0137
 20
92.6731
 30
0.0
 10
-126.0546
 20
94.9668
 30
0.0
 10
-125.9864
 20
97.5398
 30
0.0
 10
-125.9864
 20
97.5398
 30
0.0
 10
-125.9864
 20
100.0072
 30
0.0
 10
-127.9866
 20
102.0075
 30
0.0
 10
-130.4541
 20
102.0075
 30
0.0
 10
-130.4541
 20
102.0075
 30
0.0
 10
-132.4575
 20
102.0075
 30
0.0
 10
-134.153
 20
100.6888
 30
0.0
 10
-134.9449
 20
98.8721
 30
0.0
 10
-134.9449
 20
98.8721
 30
0.0
 10
-135.7368
 20
100.6888
 30
0.0
 10
-137.4323
 20
102.0075
 30
0.0
 10
-139.4357
 20
102.0075
 30
0.0
  0
SPLINE
  5
47
330
1F
100
AcDbEntity
  8
layer 1
 62
     7
100
AcDbSpline
210
0.0
220
0.0
230
1.0
 70
    11
 71
     3
 72
    16
 73
    12
 74
     0
 42
0.0000000001
 43
0.0000000001
 12
1.0
 22
0.0
 32
0.0
 13
1.0
 23
0.0
 33
0.0
 40
0.0
 40
0.0
 40
0.0
 40
0.0
 40
0.25
 40
0.25
 40
0.25
 40
0.25
 40
0.5
 40
0.5
 40
0.5
 40
0.5
 40
1.0
 40
1.0
 40
1.0
 40
1.0
 10
-152.5616
 20
95.055
 30
0.0
 10
-156.0652
 20
98.4545
 30
0.0
 10
-161.1089
 20
101.5264
 30
0.0
 10
-163.5066
 20
103.6562
 30
0.0
 10
-163.5066
 20
103.6562
 30
0.0
 10
-161.7829
 20
103.1703
 30
0.0
 10
-158.3098
 20
102.2933
 30
0.0
 10
-155.7491
 20
102.7397
 30
0.0
 10
-155.7491
 20
102.7397
 30
0.0
 10
-156.3567
 20
97.6655
 30
0.0
 10
-149.6164
 20
99.0181
 30
0.0
 10
-152.5616
 20
95.055
 30
0.0
  0
SPLINE
  5
48
330
1F
100
AcDbEntity
  8
layer 1
 62
     7
100
AcDbSpline
210
0.0
220
0.0
230
1.0
 70
    11
 71
     3
 72
    28
 73
    24
 74
     0
 42
0.0000000001
 43
0.0000000001
 12
1.0
 22
0.0
 32
0.0
 13
1.0
 23
0.0
 33
0.0
 40
0.0
 40
0.0
 40
0.0
 40
0.0
 40
0.1428571428571428
 40
0.1428571428571428
 40
0.1428571428571428
 40
0.1428571428571428
 40
0.2857142857142857
 40
0.2857142857142857
 40
0.2857142857142857
 40
0.2857142857142857
 40
0.4285714285714285
 40
0.4285714285714285
 40
0.4285714285714285
 40
0.4285714285714285
 40
0.5714285714285714
 40
0.5714285714285714
 40
0.5714285714285714
 40
0.5714285714285714
 40
0.7142857142857143
 40
0.7142857142857143
 40
0.7142857142857143
 40
0.7142857142857143
 40
1.0
 40
1.0
 40
1.0
 40
1.0
 10
-179.3693
 20
96.5376
 30
0.0
 10
-176.0128
 20
94.2972
 30
0.0
 10
-171.6414
 20
94.891
 30
0.0
 10
-170.8763
 20
99.129
 30
0.0
 10
-170.8763
 20
99.129
 30
0.0
 10
-169.9768
 20
96.7157
 30
0.0
 10
-168.3499
 20
92.1713
 30
0.0
 10
-170.1293
 20
86.7055
 30
0.0
 10
-170.1293
 20
86.7055
 30
0.0
 10
-171.3922
 20
83.5253
 30
0.0
 10
-174.4599
 20
84.2345
 30
0.0
 10
-174.7767
 20
86.617
 30
0.0
 10
-174.7767
 20
86.617
 30
0.0
 10
-175.1377
 20
87.8717
 30
0.0
 10
-175.341
 20
91.2543
 30
0.0
 10
-179.3694
 20
91.4038
 30
0.0
 10
-179.3694
 20
91.4038
 30
0.0
 10
-179.3694
 20
96.1547
 30
0.0
 10
-179.3694
 20
91.7869
 30
0.0
 10
-179.3694
 20
96.5377
 30
0.0
 10
-179.3694
 20
96.5377
 30
0.0
 10
-179.3694
 20
96.5377
 30
0.0
 10
-179.3693
 20
96.5376
 30
0.0
 10
-179.3693
 20
96.5376
 30
0.0
  0
SPLINE
  5
49
330
1F
100
AcDbEntity
  8
layer 1
 62
     7
100
AcDbSpline
210
0.0
220
0.0
230
1.0
 70
    11
 71
     3
 72
    16
 73
    12
 74
     0
 42
0.0000000001
 43
0.0000000001
 12
1.0
 22
0.0
 32
0.0
 13
1.0
 23
0.0
 33
0.0
 40
0.0
 40
0.0
 40
0.0
 40
0.0
 40
0.25
 40
0.25
 40
0.25
 40
0.25
 40
0.5
 40
0.5
 40
0.5
 40
0.5
 40
1.0
 40
1.0
 40
1.0
 40
1.0
 10
-179.3693
 20
64.9713
 30
0.0
 10
-179.3693
 20
69.7855
 30
0.0
 10
-179.3693
 20
69.4922
 30
0.0
 10
-179.3693
 20
74.3064
 30
0.0
 10
-179.3693
 20
74.3064
 30
0.0
 10
-178.7231
 20
71.8953
 30
0.0
 10
-177.024
 20
70.5675
 30
0.0
 10
-174.4961
 20
70.3726
 30
0.0
 10
-174.4961
 20
70.3726
 30
0.0
 10
-176.1725
 20
69.444
 30
0.0
 10
-178.7255
 20
67.171
 30
0.0
 10
-179.3693
 20
64.9713
 30
0.0
  0
SPLINE
  5
4A
330
1F
100
AcDbEntity
  8
layer 1
 62
     7
100
AcDbSpline
210
0.0
220
0.0
230
1.0
 70
    11
 71
     3
 72
    36
 73
    32
 74
     0
 42
0.0000000001
 43
0.0000000001
 12
1.0
 22
0.0
 32
0.0
 13
1.0
 23
0.0
 33
0.0
 40
0.0
 40
0.0
 40
0.0
 40
0.0
 40
0.1111111111111111
 40
0.1111111111111111
 40
0.1111111111111111
 40
0.1111111111111111
 40
0.2222222222222222
 40
0.2222222222222222
 40
0.2222222222222222
 40
0.2222222222222222
 40
0.3333333333333333
 40
0.3333333333333333
 40
0.3333333333333333
 40
0.3333333333333333
 40
0.4444444444444444
 40
0.4444444444444444
 40
0.4444444444444444
 40
0.4444444444444444
 40
0.5555555555555556
 40
0.5555555555555556
 40
0.5555555555555556
 40
0.5555555555555556
 40
0.6666666666666666
 40
0.6666666666666666
 40
0.6666666666666666
 40
0.6666666666666666
 40
0.7777777777777778
 40
0.7777777777777778
 40
0.7777777777777778
 40
0.7777777777777778
 40
1.0
 40
1.0
 40
1.0
 40
1.0
 10
-154.0123
 20
68.8924
 30
0.0
 10
-148.784
 20
70.36
 30
0.0
 10
-151.8253
 20
77.5512
 30
0.0
 10
-156.3502
 20
74.379
 30
0.0
 10
-156.3502
 20
74.379
 30
0.0
 10
-156.8673
 20
74.0165
 30
0.0
 10
-158.2536
 20
72.4252
 30
0.0
 10
-158.5883
 20
69.6101
 30
0.0
 10
-158.5883
 20
69.6101
 30
0.0
 10
-159.3445
 20
71.3634
 30
0.0
 10
-163.0953
 20
73.9078
 30
0.0
 10
-167.306
 20
73.111
 30
0.0
 10
-167.306
 20
73.111
 30
0.0
 10
-173.0968
 20
72.0152
 30
0.0
 10
-177.0895
 20
78.3034
 30
0.0
 10
-175.9499
 20
81.1004
 30
0.0
 10
-175.9499
 20
81.1004
 30
0.0
 10
-172.0029
 20
78.5413
 30
0.0
 10
-169.5301
 20
79.599
 30
0.0
 10
-167.7388
 20
80.8544
 30
0.0
 10
-167.7388
 20
80.8544
 30
0.0
 10
-163.5803
 20
83.7689
 30
0.0
 10
-164.2427
 20
93.2572
 30
0.0
 10
-166.8738
 20
100.4477
 30
0.0
 10
-166.8738
 20
100.4477
 30
0.0
 10
-163.2475
 20
97.3569
 30
0.0
 10
-153.6015
 20
90.2781
 30
0.0
 10
-151.0735
 20
85.064
 30
0.0
 10
-151.0735
 20
85.064
 30
0.0
 10
-143.3391
 20
69.7576
 30
0.0
 10
-150.1793
 20
63.668
 30
0.0
 10
-154.0123
 20
68.8924
 30
0.0
  0
SPLINE
  5
4B
330
1F
100
AcDbEntity
  8
layer 1
 62
     7
100
AcDbSpline
210
0.0
220
0.0
230
1.0
 70
    11
 71
     3
 72
    20
 73
    16
 74
     0
 42
0.0000000001
 43
0.0000000001
 12
1.0
 22
0.0
 32
0.0
 13
1.0
 23
0.0
 33
0.0
 40
0.0
 40
0.0
 40
0.0
 40
0.0
 40
0.2
 40
0.2
 40
0.2
 40
0.2
 40
0.4
 40
0.4
 40
0.4
 40
0.4
 40
0.6
 40
0.6
 40
0.6
 40
0.6
 40
1.0
 40
1.0
 40
1.0
 40
1.0
 10
-174.4025
 20
50.3845
 30
0.0
 10
-178.7942
 20
59.2767
 30
0.0
 10
-174.8207
 20
67.767
 30
0.0
 10
-167.083
 20
67.928
 30
0.0
 10
-167.083
 20
67.928
 30
0.0
 10
-157.1828
 20
67.556
 30
0.0
 10
-157.3658
 20
54.0986
 30
0.0
 10
-166.6014
 20
57.9294
 30
0.0
 10
-166.6014
 20
57.9294
 30
0.0
 10
-166.6878
 20
56.8423
 30
0.0
 10
-166.3717
 20
56.1808
 30
0.0
 10
-165.5877
 20
55.2728
 30
0.0
 10
-165.5877
 20
55.2728
 30
0.0
 10
-169.5244
 20
57.3925
 30
0.0
 10
-173.3573
 20
55.0752
 30
0.0
 10
-174.4025
 20
50.3845
 30
0.0
  0
SPLINE
  5
4C
330
1F
100
AcDbEntity
  8
layer 1
 62
     7
100
AcDbSpline
210
0.0
220
0.0
230
1.0
 70
    11
 71
     3
 72
    52
 73
    48
 74
     0
 42
0.0000000001
 43
0.0000000001
 12
1.0
 22
0.0
 32
0.0
 13
1.0
 23
0.0
 33
0.0
 40
0.0
 40
0.0
 40
0.0
 40
0.0
 40
0.0769230769230769
 40
0.0769230769230769
 40
0.0769230769230769
 40
0.0769230769230769
 40
0.1538461538461539
 40
0.1538461538461539
 40
0.1538461538461539
 40
0.1538461538461539
 40
0.2307692307692308
 40
0.2307692307692308
 40
0.2307692307692308
 40
0.2307692307692308
 40
0.3076923076923077
 40
0.3076923076923077
 40
0.3076923076923077
 40
0.3076923076923077
 40
0.3846153846153846
 40
0.3846153846153846
 40
0.3846153846153846
 40
0.3846153846153846
 40
0.4615384615384616
 40
0.4615384615384616
 40
0.4615384615384616
 40
0.4615384615384616
 40
0.5384615384615384
 40
0.5384615384615384
 40
0.5384615384615384
 40
0.5384615384615384
 40
0.6153846153846154
 40
0.6153846153846154
 40
0.6153846153846154
 40
0.6153846153846154
 40
0.6923076923076923
 40
0.6923076923076923
 40
0.6923076923076923
 40
0.6923076923076923
 40
0.7692307692307693
 40
0.7692307692307693
 40
0.7692307692307693
 40
0.7692307692307693
 40
0.8461538461538461
 40
0.8461538461538461
 40
0.8461538461538461
 40
0.8461538461538461
 40
1.0
 40
1.0
 40
1.0
 40
1.0
 10
-159.4965
 20
49.7794
 30
0.0
 10
-160.6125
 20
47.1927
 30
0.0
 10
-160.3345
 20
43.8718
 30
0.0
 10
-158.2483
 20
40.8591
 30
0.0
 10
-158.2483
 20
40.8591
 30
0.0
 10
-163.6652
 20
40.6272
 30
0.0
 10
-167.2735
 20
42.9646
 30
0.0
 10
-168.8225
 20
45.038
 30
0.0
 10
-168.8225
 20
45.038
 30
0.0
 10
-170.8955
 20
48.6745
 30
0.0
 10
-168.9647
 20
53.4556
 30
0.0
 10
-162.1093
 20
47.0119
 30
0.0
 10
-162.1093
 20
47.0119
 30
0.0
 10
-161.4247
 20
49.1293
 30
0.0
 10
-161.9108
 20
51.4275
 30
0.0
 10
-162.7313
 20
52.916
 30
0.0
 10
-162.7313
 20
52.916
 30
0.0
 10
-157.4999
 20
49.6249
 30
0.0
 10
-152.6885
 20
56.6129
 30
0.0
 10
-155.4048
 20
64.3313
 30
0.0
 10
-155.4048
 20
64.3313
 30
0.0
 10
-151.5666
 20
59.4574
 30
0.0
 10
-143.6099
 20
60.9726
 30
0.0
 10
-143.9246
 20
76.2047
 30
0.0
 10
-143.9246
 20
76.2047
 30
0.0
 10
-141.9599
 20
73.5638
 30
0.0
 10
-141.0846
 20
66.2004
 30
0.0
 10
-143.7349
 20
60.6393
 30
0.0
 10
-143.7349
 20
60.6393
 30
0.0
 10
-141.369
 20
60.652
 30
0.0
 10
-139.8206
 20
61.9342
 30
0.0
 10
-138.4448
 20
63.903
 30
0.0
 10
-138.4448
 20
63.903
 30
0.0
 10
-137.8257
 20
57.5453
 30
0.0
 10
-143.2246
 20
51.9217
 30
0.0
 10
-145.7509
 20
51.1699
 30
0.0
 10
-145.7509
 20
51.1699
 30
0.0
 10
-143.9492
 20
49.3834
 30
0.0
 10
-139.9264
 20
50.2605
 30
0.0
 10
-138.5829
 20
52.8493
 30
0.0
 10
-138.5829
 20
52.8493
 30
0.0
 10
-139.5124
 20
41.2617
 30
0.0
 10
-155.3742
 20
41.3921
 30
0.0
 10
-159.4966
 20
49.7793
 30
0.0
 10
-159.4966
 20
49.7793
 30
0.0
 10
-159.4966
 20
49.7793
 30
0.0
 10
-159.4965
 20
49.7794
 30
0.0
 10
-159.4965
 20
49.7794
 30
0.0
  0
SPLINE
  5
4D
330
1F
100
AcDbEntity
  8
layer 1
 62
     7
100
AcDbSpline
210
0.0
220
0.0
230
1.0
 70
    11
 71
     3
 72
    20
 73
    16
 74
     0
 42
0.0000000001
 43
0.0000000001
 12
1.0
 22
0.0
 32
0.0
 13
1.0
 23
0.0
 33
0.0
 40
0.0
 40
0.0
 40
0.0
 40
0.0
 40
0.2
 40
0.2
 40
0.2
 40
0.2
 40
0.4
 40
0.4
 40
0.4
 40
0.4
 40
0.6
 40
0.6
 40
0.6
 40
0.6
 40
1.0
 40
1.0
 40
1.0
 40
1.0
 10
-179.3693
 20
38.1859
 30
0.0
 10
-179.3693
 20
43.0001
 30
0.0
 10
-179.3693
 20
45.5742
 30
0.0
 10
-179.3693
 20
50.3884
 30
0.0
 10
-179.3693
 20
50.3884
 30
0.0
 10
-178.3036
 20
46.5087
 30
0.0
 10
-172.1286
 20
36.0193
 30
0.0
 10
-161.4881
 20
37.2231
 30
0.0
 10
-161.4881
 20
37.2231
 30
0.0
 10
-165.338
 20
34.7906
 30
0.0
 10
-171.7029
 20
33.5591
 30
0.0
 10
-174.9044
 20
37.0875
 30
0.0
 10
-174.9044
 20
37.0875
 30
0.0
 10
-177.4002
 20
39.8384
 30
0.0
 10
-179.1029
 20
39.0963
 30
0.0
 10
-179.3693
 20
38.1859
 30
0.0
  0
SPLINE
  5
4E
330
1F
100
AcDbEntity
  8
layer 1
 62
     7
100
AcDbSpline
210
0.0
220
0.0
230
1.0
 70
    11
 71
     3
 72
    16
 73
    12
 74
     0
 42
0.0000000001
 43
0.0000000001
 12
1.0
 22
0.0
 32
0.0
 13
1.0
 23
0.0
 33
0.0
 40
0.0
 40
0.0
 40
0.0
 40
0.0
 40
0.25
 40
0.25
 40
0.25
 40
0.25
 40
0.5
 40
0.5
 40
0.5
 40
0.5
 40
1.0
 40
1.0
 40
1.0
 40
1.0
 10
-179.3693
 20
16.7132
 30
0.0
 10
-179.3693
 20
21.5275
 30
0.0
 10
-179.3693
 20
27.2158
 30
0.0
 10
-179.3693
 20
32.03
 30
0.0
 10
-179.3693
 20
32.03
 30
0.0
 10
-178.287
 20
30.1174
 30
0.0
 10
-175.2171
 20
29.475
 30
0.0
 10
-172.3153
 20
29.4669
 30
0.0
 10
-172.3153
 20
29.4669
 30
0.0
 10
-174.7394
 20
26.9806
 30
0.0
 10
-178.2894
 20
22.8384
 30
0.0
 10
-179.3693
 20
16.7132
 30
0.0
  0
SPLINE
  5
4F
330
1F
100
AcDbEntity
  8
layer 1
 62
     7
100
AcDbSpline
210
0.0
220
0.0
230
1.0
 70
    11
 71
     3
 72
    16
 73
    12
 74
     0
 42
0.0000000001
 43
0.0000000001
 12
1.0
 22
0.0
 32
0.0
 13
1.0
 23
0.0
 33
0.0
 40
0.0
 40
0.0
 40
0.0
 40
0.0
 40
0.25
 40
0.25
 40
0.25
 40
0.25
 40
0.5
 40
0.5
 40
0.5
 40
0.5
 40
1.0
 40
1.0
 40
1.0
 40
1.0
 10
-179.3693
 20
9.6241
 30
0.0
 10
-179.3693
 20
4.8098
 30
0.0
 10
-179.3693
 20
1.4982
 30
0.0
 10
-179.3693
 20
-3.316
 30
0.0
 10
-179.3693
 20
-3.316
 30
0.0
 10
-178.5841
 20
-1.0469
 30
0.0
 10
-175.9301
 20
-0.4639
 30
0.0
 10
-172.4341
 20
-1.4066
 30
0.0
 10
-172.4341
 20
-1.4066
 30
0.0
 10
-174.8582
 20
0.129
 30
0.0
 10
-177.8734
 20
3.8554
 30
0.0
 10
-179.3693
 20
9.6241
 30
0.0
  0
SPLINE
  5
50
330
1F
100
AcDbEntity
  8
layer 1
 62
     7
100
AcDbSpline
210
0.0
220
0.0
230
1.0
 70
    11
 71
     3
 72
    20
 73
    16
 74
     0
 42
0.0000000001
 43
0.0000000001
 12
1.0
 22
0.0
 32
0.0
 13
1.0
 23
0.0
 33
0.0
 40
0.0
 40
0.0
 40
0.0
 40
0.0
 40
0.2
 40
0.2
 40
0.2
 40
0.2
 40
0.4
 40
0.4
 40
0.4
 40
0.4
 40
0.6
 40
0.6
 40
0.6
 40
0.6
 40
1.0
 40
1.0
 40
1.0
 40
1.0
 10
-179.3693
 20
-8.6944
 30
0.0
 10
-179.3693
 20
-13.5086
 30
0.0
 10
-179.3693
 20
-23.9277
 30
0.0
 10
-179.3693
 20
-28.7419
 30
0.0
 10
-179.3693
 20
-28.7419
 30
0.0
 10
-178.4225
 20
-21.9498
 30
0.0
 10
-174.6917
 20
-20.7207
 30
0.0
 10
-172.811
 20
-14.0713
 30
0.0
 10
-172.811
 20
-14.0713
 30
0.0
 10
-171.5985
 20
-9.0545
 30
0.0
 10
-173.5673
 20
-4.7194
 30
0.0
 10
-175.7637
 20
-7.7471
 30
0.0
 10
-175.7637
 20
-7.7471
 30
0.0
 10
-176.168
 20
-9.2641
 30
0.0
 10
-178.0854
 20
-10.4
 30
0.0
 10
-179.3693
 20
-8.6944
 30
0.0
  0
SPLINE
  5
51
330
1F
100
AcDbEntity
  8
layer 1
 62
     7
100
AcDbSpline
210
0.0
220
0.0
230
1.0
 70
    11
 71
     3
 72
    32
 73
    28
 74
     0
 42
0.0000000001
 43
0.0000000001
 12
1.0
 22
0.0
 32
0.0
 13
1.0
 23
0.0
 33
0.0
 40
0.0
 40
0.0
 40
0.0
 40
0.0
 40
0.125
 40
0.125
 40
0.125
 40
0.125
 40
0.25
 40
0.25
 40
0.25
 40
0.25
 40
0.375
 40
0.375
 40
0.375
 40
0.375
 40
0.5
 40
0.5
 40
0.5
 40
0.5
 40
0.625
 40
0.625
 40
0.625
 40
0.625
 40
0.75
 40
0.75
 40
0.75
 40
0.75
 40
1.0
 40
1.0
 40
1.0
 40
1.0
 10
-179.3693
 20
-40.7675
 30
0.0
 10
-179.3693
 20
-45.5817
 30
0.0
 10
-179.3693
 20
-74.3579
 30
0.0
 10
-179.3693
 20
-79.1721
 30
0.0
 10
-179.3693
 20
-79.1721
 30
0.0
 10
-178.6675
 20
-76.8156
 30
0.0
 10
-176.9297
 20
-75.8559
 30
0.0
 10
-174.0278
 20
-75.848
 30
0.0
 10
-174.0278
 20
-75.848
 30
0.0
 10
-176.206
 20
-74.4596
 30
0.0
 10
-178.7722
 20
-66.2899
 30
0.0
 10
-172.1822
 20
-63.4983
 30
0.0
 10
-172.1822
 20
-63.4983
 30
0.0
 10
-167.169
 20
-61.1908
 30
0.0
 10
-168.5845
 20
-56.7293
 30
0.0
 10
-169.2133
 20
-55.803
 30
0.0
 10
-169.2133
 20
-55.803
 30
0.0
 10
-170.9204
 20
-53.2879
 30
0.0
 10
-176.0268
 20
-53.1284
 30
0.0
 10
-175.9943
 20
-58.7286
 30
0.0
 10
-175.9943
 20
-58.7286
 30
0.0
 10
-180.1304
 20
-58.48
 30
0.0
 10
-180.1915
 20
-49.4897
 30
0.0
 10
-173.9936
 20
-49.8585
 30
0.0
 10
-173.9936
 20
-49.8585
 30
0.0
 10
-176.0451
 20
-47.159
 30
0.0
 10
-178.7057
 20
-43.5135
 30
0.0
 10
-179.3693
 20
-40.7675
 30
0.0
  0
SPLINE
  5
52
330
1F
100
AcDbEntity
  8
layer 1
 62
     7
100
AcDbSpline
210
0.0
220
0.0
230
1.0
 70
    11
 71
     3
 72
    20
 73
    16
 74
     0
 42
0.0000000001
 43
0.0000000001
 12
1.0
 22
0.0
 32
0.0
 13
1.0
 23
0.0
 33
0.0
 40
0.0
 40
0.0
 40
0.0
 40
0.0
 40
0.2
 40
0.2
 40
0.2
 40
0.2
 40
0.4
 40
0.4
 40
0.4
 40
0.4
 40
0.6
 40
0.6
 40
0.6
 40
0.6
 40
1.0
 40
1.0
 40
1.0
 40
1.0
 10
-169.6067
 20
-3.5069
 30
0.0
 10
-168.3507
 20
-4.9527
 30
0.0
 10
-167.6085
 20
-5.7523
 30
0.0
 10
-167.1518
 20
-8.3971
 30
0.0
 10
-167.1518
 20
-8.3971
 30
0.0
 10
-165.453
 20
-7.0985
 30
0.0
 10
-164.1693
 20
-6.2301
 30
0.0
 10
-162.5573
 20
-5.2317
 30
0.0
 10
-162.5573
 20
-5.2317
 30
0.0
 10
-165.6094
 20
-5.0662
 30
0.0
 10
-167.7112
 20
-4.2515
 30
0.0
 10
-169.6067
 20
-3.507
 30
0.0
 10
-169.6067
 20
-3.507
 30
0.0
 10
-169.6067
 20
-3.507
 30
0.0
 10
-169.6067
 20
-3.5069
 30
0.0
 10
-169.6067
 20
-3.5069
 30
0.0
  0
SPLINE
  5
53
330
1F
100
AcDbEntity
  8
layer 1
 62
     7
100
AcDbSpline
210
0.0
220
0.0
230
1.0
 70
    11
 71
     3
 72
    20
 73
    16
 74
     0
 42
0.0000000001
 43
0.0000000001
 12
1.0
 22
0.0
 32
0.0
 13
1.0
 23
0.0
 33
0.0
 40
0.0
 40
0.0
 40
0.0
 40
0.0
 40
0.2
 40
0.2
 40
0.2
 40
0.2
 40
0.4
 40
0.4
 40
0.4
 40
0.4
 40
0.6
 40
0.6
 40
0.6
 40
0.6
 40
1.0
 40
1.0
 40
1.0
 40
1.0
 10
-151.9655
 20
-0.7666
 30
0.0
 10
-148.9967
 20
0.0141
 30
0.0
 10
-143.5287
 20
-1.0945
 30
0.0
 10
-141.3022
 20
-3.4538
 30
0.0
 10
-141.3022
 20
-3.4538
 30
0.0
 10
-143.0279
 20
0.0987
 30
0.0
 10
-140.3657
 20
2.9282
 30
0.0
 10
-137.6592
 20
2.7923
 30
0.0
 10
-137.6592
 20
2.7923
 30
0.0
 10
-137.5751
 20
3.7138
 30
0.0
 10
-137.7049
 20
4.3949
 30
0.0
 10
-137.6084
 20
5.3873
 30
0.0
 10
-137.6084
 20
5.3873
 30
0.0
 10
-140.6034
 20
7.2655
 30
0.0
 10
-145.2742
 20
7.8518
 30
0.0
 10
-151.9655
 20
-0.7666
 30
0.0
  0
SPLINE
  5
54
330
1F
100
AcDbEntity
  8
layer 1
 62
     7
100
AcDbSpline
210
0.0
220
0.0
230
1.0
 70
    11
 71
     3
 72
    20
 73
    16
 74
     0
 42
0.0000000001
 43
0.0000000001
 12
1.0
 22
0.0
 32
0.0
 13
1.0
 23
0.0
 33
0.0
 40
0.0
 40
0.0
 40
0.0
 40
0.0
 40
0.2
 40
0.2
 40
0.2
 40
0.2
 40
0.4
 40
0.4
 40
0.4
 40
0.4
 40
0.6
 40
0.6
 40
0.6
 40
0.6
 40
1.0
 40
1.0
 40
1.0
 40
1.0
 10
-138.7774
 20
-5.2226
 30
0.0
 10
-137.2244
 20
-5.6395
 30
0.0
 10
-135.3526
 20
-4.8437
 30
0.0
 10
-134.9449
 20
-4.1262
 30
0.0
 10
-134.9449
 20
-4.1262
 30
0.0
 10
-134.5371
 20
-4.8437
 30
0.0
 10
-132.6654
 20
-5.6395
 30
0.0
 10
-131.1124
 20
-5.2226
 30
0.0
 10
-131.1124
 20
-5.2226
 30
0.0
 10
-133.343
 20
-7.9743
 30
0.0
 10
-134.0322
 20
-9.8014
 30
0.0
 10
-134.9449
 20
-14.0237
 30
0.0
 10
-134.9449
 20
-14.0237
 30
0.0
 10
-135.8577
 20
-9.8014
 30
0.0
 10
-136.5468
 20
-7.9743
 30
0.0
 10
-138.7774
 20
-5.2226
 30
0.0
  0
SPLINE
  5
55
330
1F
100
AcDbEntity
  8
layer 1
 62
     7
100
AcDbSpline
210
0.0
220
0.0
230
1.0
 70
    11
 71
     3
 72
    36
 73
    32
 74
     0
 42
0.0000000001
 43
0.0000000001
 12
1.0
 22
0.0
 32
0.0
 13
1.0
 23
0.0
 33
0.0
 40
0.0
 40
0.0
 40
0.0
 40
0.0
 40
0.1111111111111111
 40
0.1111111111111111
 40
0.1111111111111111
 40
0.1111111111111111
 40
0.2222222222222222
 40
0.2222222222222222
 40
0.2222222222222222
 40
0.2222222222222222
 40
0.3333333333333333
 40
0.3333333333333333
 40
0.3333333333333333
 40
0.3333333333333333
 40
0.4444444444444444
 40
0.4444444444444444
 40
0.4444444444444444
 40
0.4444444444444444
 40
0.5555555555555556
 40
0.5555555555555556
 40
0.5555555555555556
 40
0.5555555555555556
 40
0.6666666666666666
 40
0.6666666666666666
 40
0.6666666666666666
 40
0.6666666666666666
 40
0.7777777777777778
 40
0.7777777777777778
 40
0.7777777777777778
 40
0.7777777777777778
 40
1.0
 40
1.0
 40
1.0
 40
1.0
 10
-158.5995
 20
9.005
 30
0.0
 10
-158.5995
 20
6.9222
 30
0.0
 10
-160.2879
 20
5.2338
 30
0.0
 10
-162.3707
 20
5.2338
 30
0.0
 10
-162.3707
 20
5.2338
 30
0.0
 10
-164.4534
 20
5.2338
 30
0.0
 10
-166.1418
 20
6.9222
 30
0.0
 10
-166.1418
 20
9.005
 30
0.0
 10
-166.1418
 20
9.005
 30
0.0
 10
-166.1418
 20
9.5955
 30
0.0
 10
-166.006
 20
10.1544
 30
0.0
 10
-165.808
 20
10.6595
 30
0.0
 10
-165.808
 20
10.6595
 30
0.0
 10
-168.3727
 20
7.8377
 30
0.0
 10
-173.6419
 20
8.2968
 30
0.0
 10
-175.0235
 20
12.7761
 30
0.0
 10
-175.0235
 20
12.7761
 30
0.0
 10
-174.9264
 20
7.7275
 30
0.0
 10
-170.8334
 20
2.1585
 30
0.0
 10
-167.0259
 20
0.4712
 30
0.0
 10
-167.0259
 20
0.4712
 30
0.0
 10
-161.4385
 20
-1.8572
 30
0.0
 10
-156.3488
 20
-1.8585
 30
0.0
 10
-154.4086
 20
3.0581
 30
0.0
 10
-154.4086
 20
3.0581
 30
0.0
 10
-152.8045
 20
6.6558
 30
0.0
 10
-154.252
 20
11.6698
 30
0.0
 10
-159.4884
 20
11.4337
 30
0.0
 10
-159.4884
 20
11.4337
 30
0.0
 10
-158.9279
 20
10.7652
 30
0.0
 10
-158.5995
 20
9.9235
 30
0.0
 10
-158.5995
 20
9.005
 30
0.0
  0
SPLINE
  5
56
330
1F
100
AcDbEntity
  8
layer 1
 62
     7
100
AcDbSpline
210
0.0
220
0.0
230
1.0
 70
    11
 71
     3
 72
    40
 73
    36
 74
     0
 42
0.0000000001
 43
0.0000000001
 12
1.0
 22
0.0
 32
0.0
 13
1.0
 23
0.0
 33
0.0
 40
0.0
 40
0.0
 40
0.0
 40
0.0
 40
0.1
 40
0.1
 40
0.1
 40
0.1
 40
0.2
 40
0.2
 40
0.2
 40
0.2
 40
0.3
 40
0.3
 40
0.3
 40
0.3
 40
0.4
 40
0.4
 40
0.4
 40
0.4
 40
0.5
 40
0.5
 40
0.5
 40
0.5
 40
0.6
 40
0.6
 40
0.6
 40
0.6
 40
0.7
 40
0.7
 40
0.7
 40
0.7
 40
0.8
 40
0.8
 40
0.8
 40
0.8
 40
1.0
 40
1.0
 40
1.0
 40
1.0
 10
-164.0761
 20
14.3299
 30
0.0
 10
-163.304
 20
17.2705
 30
0.0
 10
-164.8219
 20
19.4917
 30
0.0
 10
-166.9036
 20
19.5594
 30
0.0
 10
-166.9036
 20
19.5594
 30
0.0
 10
-169.544
 20
19.6452
 30
0.0
 10
-170.6318
 20
16.4555
 30
0.0
 10
-170.6318
 20
14.3727
 30
0.0
 10
-170.6318
 20
14.3727
 30
0.0
 10
-170.6318
 20
13.7822
 30
0.0
 10
-174.0134
 20
20.8155
 30
0.0
 10
-170.3409
 20
25.8438
 30
0.0
 10
-170.3409
 20
25.8438
 30
0.0
 10
-165.7851
 20
31.2392
 30
0.0
 10
-160.7672
 20
33.4842
 30
0.0
 10
-156.7012
 20
34.7097
 30
0.0
 10
-156.7012
 20
34.7097
 30
0.0
 10
-157.3415
 20
32.2684
 30
0.0
 10
-158.6151
 20
20.2735
 30
0.0
 10
-149.1985
 20
16.2164
 30
0.0
 10
-149.1985
 20
16.2164
 30
0.0
 10
-151.7872
 20
14.8282
 30
0.0
 10
-151.5515
 20
10.5997
 30
0.0
 10
-148.0894
 20
10.0251
 30
0.0
 10
-148.0894
 20
10.0251
 30
0.0
 10
-149.0589
 20
9.3012
 30
0.0
 10
-150.0774
 20
8.5338
 30
0.0
 10
-150.5097
 20
7.3973
 30
0.0
 10
-150.5097
 20
7.3973
 30
0.0
 10
-150.6784
 20
18.4891
 30
0.0
 10
-161.1781
 20
18.5459
 30
0.0
 10
-164.0762
 20
14.3299
 30
0.0
 10
-164.0762
 20
14.3299
 30
0.0
 10
-164.0762
 20
14.3299
 30
0.0
 10
-164.0761
 20
14.3299
 30
0.0
 10
-164.0761
 20
14.3299
 30
0.0
  0
SPLINE
  5
57
330
1F
100
AcDbEntity
  8
layer 1
 62
     7
100
AcDbSpline
210
0.0
220
0.0
230
1.0
 70
    11
 71
     3
 72
    80
 73
    76
 74
     0
 42
0.0000000001
 43
0.0000000001
 12
1.0
 22
0.0
 32
0.0
 13
1.0
 23
0.0
 33
0.0
 40
0.0
 40
0.0
 40
0.0
 40
0.0
 40
0.05
 40
0.05
 40
0.05
 40
0.05
 40
0.1
 40
0.1
 40
0.1
 40
0.1
 40
0.15
 40
0.15
 40
0.15
 40
0.15
 40
0.2
 40
0.2
 40
0.2
 40
0.2
 40
0.25
 40
0.25
 40
0.25
 40
0.25
 40
0.3
 40
0.3
 40
0.3
 40
0.3
 40
0.35
 40
0.35
 40
0.35
 40
0.35
 40
0.4
 40
0.4
 40
0.4
 40
0.4
 40
0.45
 40
0.45
 40
0.45
 40
0.45
 40
0.5
 40
0.5
 40
0.5
 40
0.5
 40
0.55
 40
0.55
 40
0.55
 40
0.55
 40
0.6
 40
0.6
 40
0.6
 40
0.6
 40
0.65
 40
0.65
 40
0.65
 40
0.65
 40
0.7
 40
0.7
 40
0.7
 40
0.7
 40
0.75
 40
0.75
 40
0.75
 40
0.75
 40
0.8
 40
0.8
 40
0.8
 40
0.8
 40
0.85
 40
0.85
 40
0.85
 40
0.85
 40
0.9
 40
0.9
 40
0.9
 40
0.9
 40
1.0
 40
1.0
 40
1.0
 40
1.0
 10
-137.949
 20
30.3179
 30
0.0
 10
-139.2956
 20
30.201
 30
0.0
 10
-141.4053
 20
28.2522
 30
0.0
 10
-141.4053
 20
25.7529
 30
0.0
 10
-141.4053
 20
25.7529
 30
0.0
 10
-141.2743
 20
22.2135
 30
0.0
 10
-138.7883
 20
21.3163
 30
0.0
 10
-136.76
 20
23.3365
 30
0.0
 10
-136.76
 20
23.3365
 30
0.0
 10
-136.4694
 20
22.7699
 30
0.0
 10
-135.8151
 20
20.1152
 30
0.0
 10
-139.6787
 20
19.3218
 30
0.0
 10
-139.6787
 20
19.3218
 30
0.0
 10
-143.0645
 20
18.3173
 30
0.0
 10
-147.6878
 20
19.6611
 30
0.0
 10
-149.3848
 20
21.8362
 30
0.0
 10
-149.3848
 20
21.8362
 30
0.0
 10
-153.1166
 20
26.6642
 30
0.0
 10
-152.4332
 20
34.5403
 30
0.0
 10
-150.7539
 20
35.5159
 30
0.0
 10
-150.7539
 20
35.5159
 30
0.0
 10
-151.2232
 20
31.0351
 30
0.0
 10
-149.8495
 20
28.5944
 30
0.0
 10
-147.7906
 20
27.9272
 30
0.0
 10
-147.7906
 20
27.9272
 30
0.0
 10
-148.0867
 20
35.895
 30
0.0
 10
-144.4378
 20
37.3297
 30
0.0
 10
-142.6098
 20
38.7978
 30
0.0
 10
-142.6098
 20
38.7978
 30
0.0
 10
-136.4591
 20
43.5053
 30
0.0
 10
-136.2281
 20
46.0107
 30
0.0
 10
-134.9449
 20
48.1711
 30
0.0
 10
-134.9449
 20
48.1711
 30
0.0
 10
-133.6617
 20
46.0107
 30
0.0
 10
-133.4306
 20
43.5053
 30
0.0
 10
-127.28
 20
38.7978
 30
0.0
 10
-127.28
 20
38.7978
 30
0.0
 10
-125.452
 20
37.3297
 30
0.0
 10
-121.8031
 20
35.8951
 30
0.0
 10
-122.0992
 20
27.9272
 30
0.0
 10
-122.0992
 20
27.9272
 30
0.0
 10
-120.0403
 20
28.5944
 30
0.0
 10
-118.6666
 20
31.0351
 30
0.0
 10
-119.1359
 20
35.5159
 30
0.0
 10
-119.1359
 20
35.5159
 30
0.0
 10
-117.4566
 20
34.5403
 30
0.0
 10
-116.7732
 20
26.6641
 30
0.0
 10
-120.505
 20
21.8362
 30
0.0
 10
-120.505
 20
21.8362
 30
0.0
 10
-122.202
 20
19.6611
 30
0.0
 10
-126.8253
 20
18.3173
 30
0.0
 10
-130.2111
 20
19.3218
 30
0.0
 10
-130.2111
 20
19.3218
 30
0.0
 10
-134.0747
 20
20.1152
 30
0.0
 10
-133.4205
 20
22.7699
 30
0.0
 10
-133.1298
 20
23.3365
 30
0.0
 10
-133.1298
 20
23.3365
 30
0.0
 10
-131.1015
 20
21.3163
 30
0.0
 10
-128.6155
 20
22.2135
 30
0.0
 10
-128.4845
 20
25.7529
 30
0.0
 10
-128.4845
 20
25.7529
 30
0.0
 10
-128.4845
 20
28.2522
 30
0.0
 10
-130.5942
 20
30.201
 30
0.0
 10
-131.9408
 20
30.3179
 30
0.0
 10
-131.9408
 20
30.3179
 30
0.0
 10
-133.1354
 20
30.4215
 30
0.0
 10
-134.3501
 20
29.9378
 30
0.0
 10
-134.945
 20
28.7574
 30
0.0
 10
-134.945
 20
28.7574
 30
0.0
 10
-135.5399
 20
29.9378
 30
0.0
 10
-136.7546
 20
30.4216
 30
0.0
 10
-137.9492
 20
30.3179
 30
0.0
 10
-137.9492
 20
30.3179
 30
0.0
 10
-137.9492
 20
30.3179
 30
0.0
 10
-137.949
 20
30.3179
 30
0.0
 10
-137.949
 20
30.3179
 30
0.0
  0
SPLINE
  5
58
330
1F
100
AcDbEntity
  8
layer 1
 62
     7
100
AcDbSpline
210
0.0
220
0.0
230
1.0
 70
    11
 71
     3
 72
    28
 73
    24
 74
     0
 42
0.0000000001
 43
0.0000000001
 12
1.0
 22
0.0
 32
0.0
 13
1.0
 23
0.0
 33
0.0
 40
0.0
 40
0.0
 40
0.0
 40
0.0
 40
0.1428571428571428
 40
0.1428571428571428
 40
0.1428571428571428
 40
0.1428571428571428
 40
0.2857142857142857
 40
0.2857142857142857
 40
0.2857142857142857
 40
0.2857142857142857
 40
0.4285714285714285
 40
0.4285714285714285
 40
0.4285714285714285
 40
0.4285714285714285
 40
0.5714285714285714
 40
0.5714285714285714
 40
0.5714285714285714
 40
0.5714285714285714
 40
0.7142857142857143
 40
0.7142857142857143
 40
0.7142857142857143
 40
0.7142857142857143
 40
1.0
 40
1.0
 40
1.0
 40
1.0
 10
-134.9449
 20
9.0487
 30
0.0
 10
-136.1686
 20
11.4853
 30
0.0
 10
-142.7804
 20
12.7761
 30
0.0
 10
-144.4628
 20
12.062
 30
0.0
 10
-144.4628
 20
12.062
 30
0.0
 10
-144.2052
 20
13.1568
 30
0.0
 10
-144.2813
 20
13.611
 30
0.0
 10
-144.5315
 20
14.737
 30
0.0
 10
-144.5315
 20
14.737
 30
0.0
 10
-140.5671
 20
14.1607
 30
0.0
 10
-136.4426
 20
15.0725
 30
0.0
 10
-134.9449
 20
18.58
 30
0.0
 10
-134.9449
 20
18.58
 30
0.0
 10
-133.447
 20
15.0725
 30
0.0
 10
-129.3226
 20
14.1607
 30
0.0
 10
-125.3582
 20
14.737
 30
0.0
 10
-125.3582
 20
14.737
 30
0.0
 10
-125.6084
 20
13.611
 30
0.0
 10
-125.6845
 20
13.1568
 30
0.0
 10
-125.4269
 20
12.062
 30
0.0
 10
-125.4269
 20
12.062
 30
0.0
 10
-127.1093
 20
12.7761
 30
0.0
 10
-133.721
 20
11.4853
 30
0.0
 10
-134.9449
 20
9.0487
 30
0.0
  0
SPLINE
  5
59
330
1F
100
AcDbEntity
  8
layer 1
 62
     7
100
AcDbSpline
210
0.0
220
0.0
230
1.0
 70
    27
 71
     3
 72
    12
 73
     8
 74
     0
 42
0.0000000001
 43
0.0000000001
 12
1.0
 22
0.0
 32
0.0
 13
1.0
 23
0.0
 33
0.0
 40
0.0
 40
0.0
 40
0.0
 40
0.0
 40
0.3333333333333333
 40
0.3333333333333333
 40
0.3333333333333333
 40
0.3333333333333333
 40
1.0
 40
1.0
 40
1.0
 40
1.0
 10
-134.9678
 20
18.58
 30
0.0
 10
-134.9678
 20
18.58
 30
0.0
 10
-134.9678
 20
18.58
 30
0.0
 10
-134.9678
 20
18.58
 30
0.0
 10
-134.9678
 20
18.58
 30
0.0
 10
-134.9678
 20
18.58
 30
0.0
 10
-134.9678
 20
18.58
 30
0.0
 10
-134.9678
 20
18.58
 30
0.0
  0
SPLINE
  5
5A
330
1F
100
AcDbEntity
  8
layer 1
 62
     7
100
AcDbSpline
210
0.0
220
0.0
230
1.0
 70
    27
 71
     3
 72
    12
 73
     8
 74
     0
 42
0.0000000001
 43
0.0000000001
 12
1.0
 22
0.0
 32
0.0
 13
1.0
 23
0.0
 33
0.0
 40
0.0
 40
0.0
 40
0.0
 40
0.0
 40
0.3333333333333333
 40
0.3333333333333333
 40
0.3333333333333333
 40
0.3333333333333333
 40
1.0
 40
1.0
 40
1.0
 40
1.0
 10
-134.9218
 20
18.58
 30
0.0
 10
-134.9218
 20
18.58
 30
0.0
 10
-134.9218
 20
18.58
 30
0.0
 10
-134.9218
 20
18.58
 30
0.0
 10
-134.9218
 20
18.58
 30
0.0
 10
-134.9218
 20
18.58
 30
0.0
 10
-134.9218
 20
18.58
 30
0.0
 10
-134.9218
 20
18.58
 30
0.0
  0
SPLINE
  5
5B
330
1F
100
AcDbEntity
  8
layer 1
 62
     7
100
AcDbSpline
210
0.0
220
0.0
230
1.0
 70
    11
 71
     3
 72
    28
 73
    24
 74
     0
 42
0.0000000001
 43
0.0000000001
 12
1.0
 22
0.0
 32
0.0
 13
1.0
 23
0.0
 33
0.0
 40
0.0
 40
0.0
 40
0.0
 40
0.0
 40
0.1428571428571428
 40
0.1428571428571428
 40
0.1428571428571428
 40
0.1428571428571428
 40
0.2857142857142857
 40
0.2857142857142857
 40
0.2857142857142857
 40
0.2857142857142857
 40
0.4285714285714285
 40
0.4285714285714285
 40
0.4285714285714285
 40
0.4285714285714285
 40
0.5714285714285714
 40
0.5714285714285714
 40
0.5714285714285714
 40
0.5714285714285714
 40
0.7142857142857143
 40
0.7142857142857143
 40
0.7142857142857143
 40
0.7142857142857143
 40
1.0
 40
1.0
 40
1.0
 40
1.0
 10
-171.9515
 20
-94.7733
 30
0.0
 10
-167.1372
 20
-94.7733
 30
0.0
 10
-162.114
 20
-94.7733
 30
0.0
 10
-157.2999
 20
-94.7733
 30
0.0
 10
-157.2999
 20
-94.7733
 30
0.0
 10
-158.7978
 20
-93.0883
 30
0.0
 10
-157.4707
 20
-90.1692
 30
0.0
 10
-155.19
 20
-89.8774
 30
0.0
 10
-155.19
 20
-89.8774
 30
0.0
 10
-156.8011
 20
-82.8724
 30
0.0
 10
-168.8782
 20
-85.5952
 30
0.0
 10
-170.6752
 20
-88.8504
 30
0.0
 10
-170.6752
 20
-88.8504
 30
0.0
 10
-168.7869
 20
-88.3017
 30
0.0
 10
-167.421
 20
-88.3627
 30
0.0
 10
-166.477
 20
-89.8085
 30
0.0
 10
-166.477
 20
-89.8085
 30
0.0
 10
-169.423
 20
-91.038
 30
0.0
 10
-171.5069
 20
-93.2055
 30
0.0
 10
-171.9515
 20
-94.7732
 30
0.0
 10
-171.9515
 20
-94.7732
 30
0.0
 10
-171.9515
 20
-94.7732
 30
0.0
 10
-171.9515
 20
-94.7733
 30
0.0
 10
-171.9515
 20
-94.7733
 30
0.0
  0
SPLINE
  5
5C
330
1F
100
AcDbEntity
  8
layer 1
 62
     7
100
AcDbSpline
210
0.0
220
0.0
230
1.0
 70
    11
 71
     3
 72
    32
 73
    28
 74
     0
 42
0.0000000001
 43
0.0000000001
 12
1.0
 22
0.0
 32
0.0
 13
1.0
 23
0.0
 33
0.0
 40
0.0
 40
0.0
 40
0.0
 40
0.0
 40
0.125
 40
0.125
 40
0.125
 40
0.125
 40
0.25
 40
0.25
 40
0.25
 40
0.25
 40
0.375
 40
0.375
 40
0.375
 40
0.375
 40
0.5
 40
0.5
 40
0.5
 40
0.5
 40
0.625
 40
0.625
 40
0.625
 40
0.625
 40
0.75
 40
0.75
 40
0.75
 40
0.75
 40
1.0
 40
1.0
 40
1.0
 40
1.0
 10
-150.0887
 20
-94.7733
 30
0.0
 10
-145.2745
 20
-94.7733
 30
0.0
 10
-151.3471
 20
-94.7733
 30
0.0
 10
-146.5329
 20
-94.7733
 30
0.0
 10
-146.5329
 20
-94.7733
 30
0.0
 10
-148.0308
 20
-93.0883
 30
0.0
 10
-147.7722
 20
-88.361
 30
0.0
 10
-145.4914
 20
-88.0692
 30
0.0
 10
-145.4914
 20
-88.0692
 30
0.0
 10
-145.3173
 20
-93.2327
 30
0.0
 10
-141.1436
 20
-91.5087
 30
0.0
 10
-141.016
 20
-89.6978
 30
0.0
 10
-141.016
 20
-89.6978
 30
0.0
 10
-140.0773
 20
-76.3798
 30
0.0
 10
-154.7494
 20
-68.1543
 30
0.0
 10
-159.7437
 20
-65.3439
 30
0.0
 10
-159.7437
 20
-65.3439
 30
0.0
 10
-154.7322
 20
-73.8361
 30
0.0
 10
-159.6128
 20
-79.404
 30
0.0
 10
-161.4632
 20
-80.1923
 30
0.0
 10
-161.4632
 20
-80.1923
 30
0.0
 10
-153.3957
 20
-80.5999
 30
0.0
 10
-149.644
 20
-88.2741
 30
0.0
 10
-150.0886
 20
-94.7733
 30
0.0
 10
-150.0886
 20
-94.7733
 30
0.0
 10
-150.0886
 20
-94.7733
 30
0.0
 10
-150.0887
 20
-94.7733
 30
0.0
 10
-150.0887
 20
-94.7733
 30
0.0
  0
SPLINE
  5
5D
330
1F
100
AcDbEntity
  8
layer 1
 62
     7
100
AcDbSpline
210
0.0
220
0.0
230
1.0
 70
    11
 71
     3
 72
    28
 73
    24
 74
     0
 42
0.0000000001
 43
0.0000000001
 12
1.0
 22
0.0
 32
0.0
 13
1.0
 23
0.0
 33
0.0
 40
0.0
 40
0.0
 40
0.0
 40
0.0
 40
0.1428571428571428
 40
0.1428571428571428
 40
0.1428571428571428
 40
0.1428571428571428
 40
0.2857142857142857
 40
0.2857142857142857
 40
0.2857142857142857
 40
0.2857142857142857
 40
0.4285714285714285
 40
0.4285714285714285
 40
0.4285714285714285
 40
0.4285714285714285
 40
0.5714285714285714
 40
0.5714285714285714
 40
0.5714285714285714
 40
0.5714285714285714
 40
0.7142857142857143
 40
0.7142857142857143
 40
0.7142857142857143
 40
0.7142857142857143
 40
1.0
 40
1.0
 40
1.0
 40
1.0
 10
-179.3693
 20
-89.9846
 30
0.0
 10
-179.3693
 20
-94.7988
 30
0.0
 10
-179.3693
 20
-89.9591
 30
0.0
 10
-179.3693
 20
-94.7733
 30
0.0
 10
-179.3693
 20
-94.7733
 30
0.0
 10
-179.3693
 20
-94.7733
 30
0.0
 10
-177.5967
 20
-94.7733
 30
0.0
 10
-177.5967
 20
-94.7733
 30
0.0
 10
-177.5967
 20
-94.7733
 30
0.0
 10
-175.934
 20
-87.4911
 30
0.0
 10
-173.972
 20
-85.7429
 30
0.0
 10
-172.0491
 20
-83.6994
 30
0.0
 10
-172.0491
 20
-83.6994
 30
0.0
 10
-172.8154
 20
-77.533
 30
0.0
 10
-180.8716
 20
-80.2446
 30
0.0
 10
-177.2216
 20
-91.0515
 30
0.0
 10
-177.2216
 20
-91.0515
 30
0.0
 10
-177.7575
 20
-91.3716
 30
0.0
 10
-178.8999
 20
-90.6893
 30
0.0
 10
-179.3692
 20
-89.9846
 30
0.0
 10
-179.3692
 20
-89.9846
 30
0.0
 10
-179.3692
 20
-89.9846
 30
0.0
 10
-179.3693
 20
-89.9846
 30
0.0
 10
-179.3693
 20
-89.9846
 30
0.0
  0
SPLINE
  5
5E
330
1F
100
AcDbEntity
  8
layer 1
 62
     7
100
AcDbSpline
210
0.0
220
0.0
230
1.0
 70
    11
 71
     3
 72
    24
 73
    20
 74
     0
 42
0.0000000001
 43
0.0000000001
 12
1.0
 22
0.0
 32
0.0
 13
1.0
 23
0.0
 33
0.0
 40
0.0
 40
0.0
 40
0.0
 40
0.0
 40
0.1666666666666667
 40
0.1666666666666667
 40
0.1666666666666667
 40
0.1666666666666667
 40
0.3333333333333333
 40
0.3333333333333333
 40
0.3333333333333333
 40
0.3333333333333333
 40
0.5
 40
0.5
 40
0.5
 40
0.5
 40
0.6666666666666666
 40
0.6666666666666666
 40
0.6666666666666666
 40
0.6666666666666666
 40
1.0
 40
1.0
 40
1.0
 40
1.0
 10
-169.8081
 20
-77.2502
 30
0.0
 10
-168.846
 20
-77.9839
 30
0.0
 10
-168.363
 20
-78.9012
 30
0.0
 10
-168.5015
 20
-81.2858
 30
0.0
 10
-168.5015
 20
-81.2858
 30
0.0
 10
-164.9549
 20
-79.2798
 30
0.0
 10
-160.9679
 20
-75.0308
 30
0.0
 10
-162.2643
 20
-69.6945
 30
0.0
 10
-162.2643
 20
-69.6945
 30
0.0
 10
-163.9212
 20
-64.3863
 30
0.0
 10
-170.4034
 20
-65.0913
 30
0.0
 10
-171.1915
 20
-69.9057
 30
0.0
 10
-171.1915
 20
-69.9057
 30
0.0
 10
-171.8714
 20
-73.3925
 30
0.0
 10
-168.2584
 20
-74.1415
 30
0.0
 10
-166.9933
 20
-71.5059
 30
0.0
 10
-166.9933
 20
-71.5059
 30
0.0
 10
-164.9407
 20
-72.8271
 30
0.0
 10
-166.6118
 20
-76.8748
 30
0.0
 10
-169.8081
 20
-77.2502
 30
0.0
  0
SPLINE
  5
5F
330
1F
100
AcDbEntity
  8
layer 1
 62
     7
100
AcDbSpline
210
0.0
220
0.0
230
1.0
 70
    11
 71
     3
 72
    72
 73
    68
 74
     0
 42
0.0000000001
 43
0.0000000001
 12
1.0
 22
0.0
 32
0.0
 13
1.0
 23
0.0
 33
0.0
 40
0.0
 40
0.0
 40
0.0
 40
0.0
 40
0.0555555555555556
 40
0.0555555555555556
 40
0.0555555555555556
 40
0.0555555555555556
 40
0.1111111111111111
 40
0.1111111111111111
 40
0.1111111111111111
 40
0.1111111111111111
 40
0.1666666666666667
 40
0.1666666666666667
 40
0.1666666666666667
 40
0.1666666666666667
 40
0.2222222222222222
 40
0.2222222222222222
 40
0.2222222222222222
 40
0.2222222222222222
 40
0.2777777777777778
 40
0.2777777777777778
 40
0.2777777777777778
 40
0.2777777777777778
 40
0.3333333333333333
 40
0.3333333333333333
 40
0.3333333333333333
 40
0.3333333333333333
 40
0.3888888888888889
 40
0.3888888888888889
 40
0.3888888888888889
 40
0.3888888888888889
 40
0.4444444444444444
 40
0.4444444444444444
 40
0.4444444444444444
 40
0.4444444444444444
 40
0.5
 40
0.5
 40
0.5
 40
0.5
 40
0.5555555555555556
 40
0.5555555555555556
 40
0.5555555555555556
 40
0.5555555555555556
 40
0.6111111111111112
 40
0.6111111111111112
 40
0.6111111111111112
 40
0.6111111111111112
 40
0.6666666666666666
 40
0.6666666666666666
 40
0.6666666666666666
 40
0.6666666666666666
 40
0.7222222222222222
 40
0.7222222222222222
 40
0.7222222222222222
 40
0.7222222222222222
 40
0.7777777777777778
 40
0.7777777777777778
 40
0.7777777777777778
 40
0.7777777777777778
 40
0.8333333333333334
 40
0.8333333333333334
 40
0.8333333333333334
 40
0.8333333333333334
 40
0.8888888888888888
 40
0.8888888888888888
 40
0.8888888888888888
 40
0.8888888888888888
 40
1.0
 40
1.0
 40
1.0
 40
1.0
 10
-141.3593
 20
-13.1588
 30
0.0
 10
-142.966
 20
-13.1588
 30
0.0
 10
-144.2685
 20
-14.4613
 30
0.0
 10
-144.2685
 20
-16.068
 30
0.0
 10
-144.2685
 20
-16.068
 30
0.0
 10
-144.2685
 20
-17.6746
 30
0.0
 10
-142.966
 20
-18.9771
 30
0.0
 10
-141.3593
 20
-18.9771
 30
0.0
 10
-141.3593
 20
-18.9771
 30
0.0
 10
-140.0392
 20
-18.9771
 30
0.0
 10
-138.9245
 20
-18.0979
 30
0.0
 10
-138.6058
 20
-16.9155
 30
0.0
 10
-138.6058
 20
-16.9155
 30
0.0
 10
-138.9642
 20
-18.8993
 30
0.0
 10
-139.5924
 20
-21.2266
 30
0.0
 10
-141.3232
 20
-23.2914
 30
0.0
 10
-141.3232
 20
-23.2914
 30
0.0
 10
-141.33
 20
-21.7676
 30
0.0
 10
-142.6325
 20
-20.4651
 30
0.0
 10
-144.2391
 20
-20.4651
 30
0.0
 10
-144.2391
 20
-20.4651
 30
0.0
 10
-145.8458
 20
-20.4651
 30
0.0
 10
-147.1483
 20
-21.7676
 30
0.0
 10
-147.1483
 20
-23.3742
 30
0.0
 10
-147.1483
 20
-23.3742
 30
0.0
 10
-147.1483
 20
-24.8543
 30
0.0
 10
-146.043
 20
-26.0763
 30
0.0
 10
-144.6628
 20
-26.2227
 30
0.0
 10
-144.6628
 20
-26.2227
 30
0.0
 10
-144.4316
 20
-26.7725
 30
0.0
 10
-144.3795
 20
-26.9407
 30
0.0
 10
-144.3767
 20
-27.2763
 30
0.0
 10
-144.3767
 20
-27.2763
 30
0.0
 10
-153.1849
 20
-28.8771
 30
0.0
 10
-157.1275
 20
-23.838
 30
0.0
 10
-153.5993
 20
-16.875
 30
0.0
 10
-153.5993
 20
-16.875
 30
0.0
 10
-153.2638
 20
-18.4095
 30
0.0
 10
-151.9244
 20
-19.549
 30
0.0
 10
-150.3188
 20
-19.549
 30
0.0
 10
-150.3188
 20
-19.549
 30
0.0
 10
-148.4846
 20
-19.549
 30
0.0
 10
-146.9978
 20
-18.0621
 30
0.0
 10
-147.0042
 20
-15.9926
 30
0.0
 10
-147.0042
 20
-15.9926
 30
0.0
 10
-147.2225
 20
-8.5643
 30
0.0
 10
-155.9158
 20
-9.7955
 30
0.0
 10
-158.5841
 20
-15.2741
 30
0.0
 10
-158.5841
 20
-15.2741
 30
0.0
 10
-159.9069
 20
-12.8487
 30
0.0
 10
-163.6817
 20
-12.3506
 30
0.0
 10
-166.2346
 20
-12.7228
 30
0.0
 10
-166.2346
 20
-12.7228
 30
0.0
 10
-160.1933
 20
-7.4317
 30
0.0
 10
-154.3048
 20
-6.1736
 30
0.0
 10
-150.0825
 20
-6.4595
 30
0.0
 10
-150.0825
 20
-6.4595
 30
0.0
 10
-145.9105
 20
-6.4626
 30
0.0
 10
-141.2683
 20
-9.0346
 30
0.0
 10
-140.3923
 20
-13.3201
 30
0.0
 10
-140.3923
 20
-13.3201
 30
0.0
 10
-140.641
 20
-13.2269
 30
0.0
 10
-140.9922
 20
-13.1589
 30
0.0
 10
-141.3594
 20
-13.1589
 30
0.0
 10
-141.3594
 20
-13.1589
 30
0.0
 10
-141.3594
 20
-13.1589
 30
0.0
 10
-141.3593
 20
-13.1588
 30
0.0
 10
-141.3593
 20
-13.1588
 30
0.0
  0
SPLINE
  5
60
330
1F
100
AcDbEntity
  8
layer 1
 62
     7
100
AcDbSpline
210
0.0
220
0.0
230
1.0
 70
    11
 71
     3
 72
    76
 73
    72
 74
     0
 42
0.0000000001
 43
0.0000000001
 12
1.0
 22
0.0
 32
0.0
 13
1.0
 23
0.0
 33
0.0
 40
0.0
 40
0.0
 40
0.0
 40
0.0
 40
0.0526315789473684
 40
0.0526315789473684
 40
0.0526315789473684
 40
0.0526315789473684
 40
0.1052631578947368
 40
0.1052631578947368
 40
0.1052631578947368
 40
0.1052631578947368
 40
0.1578947368421053
 40
0.1578947368421053
 40
0.1578947368421053
 40
0.1578947368421053
 40
0.2105263157894737
 40
0.2105263157894737
 40
0.2105263157894737
 40
0.2105263157894737
 40
0.2631578947368421
 40
0.2631578947368421
 40
0.2631578947368421
 40
0.2631578947368421
 40
0.3157894736842105
 40
0.3157894736842105
 40
0.3157894736842105
 40
0.3157894736842105
 40
0.3684210526315789
 40
0.3684210526315789
 40
0.3684210526315789
 40
0.3684210526315789
 40
0.4210526315789473
 40
0.4210526315789473
 40
0.4210526315789473
 40
0.4210526315789473
 40
0.4736842105263158
 40
0.4736842105263158
 40
0.4736842105263158
 40
0.4736842105263158
 40
0.5263157894736842
 40
0.5263157894736842
 40
0.5263157894736842
 40
0.5263157894736842
 40
0.5789473684210527
 40
0.5789473684210527
 40
0.5789473684210527
 40
0.5789473684210527
 40
0.631578947368421
 40
0.631578947368421
 40
0.631578947368421
 40
0.631578947368421
 40
0.6842105263157895
 40
0.6842105263157895
 40
0.6842105263157895
 40
0.6842105263157895
 40
0.7368421052631579
 40
0.7368421052631579
 40
0.7368421052631579
 40
0.7368421052631579
 40
0.7894736842105263
 40
0.7894736842105263
 40
0.7894736842105263
 40
0.7894736842105263
 40
0.8421052631578947
 40
0.8421052631578947
 40
0.8421052631578947
 40
0.8421052631578947
 40
0.8947368421052632
 40
0.8947368421052632
 40
0.8947368421052632
 40
0.8947368421052632
 40
1.0
 40
1.0
 40
1.0
 40
1.0
 10
-159.2166
 20
-26.2829
 30
0.0
 10
-160.0613
 20
-24.75
 30
0.0
 10
-160.4862
 20
-19.2328
 30
0.0
 10
-159.0731
 20
-16.6562
 30
0.0
 10
-159.0731
 20
-16.6562
 30
0.0
 10
-163.1621
 20
-15.8552
 30
0.0
 10
-168.0601
 20
-16.5783
 30
0.0
 10
-169.4336
 20
-18.9984
 30
0.0
 10
-169.4336
 20
-18.9984
 30
0.0
 10
-167.2249
 20
-18.7948
 30
0.0
 10
-165.5088
 20
-19.2071
 30
0.0
 10
-164.7316
 20
-20.7639
 30
0.0
 10
-164.7316
 20
-20.7639
 30
0.0
 10
-175.5434
 20
-23.0941
 30
0.0
 10
-177.3626
 20
-33.8067
 30
0.0
 10
-173.3563
 20
-41.4179
 30
0.0
 10
-173.3563
 20
-41.4179
 30
0.0
 10
-168.8753
 20
-50.5506
 30
0.0
 10
-157.8873
 20
-60.6445
 30
0.0
 10
-151.0402
 20
-65.8593
 30
0.0
 10
-151.0402
 20
-65.8593
 30
0.0
 10
-156.0082
 20
-59.9151
 30
0.0
 10
-155.4012
 20
-52.7666
 30
0.0
 10
-154.2549
 20
-48.8503
 30
0.0
 10
-154.2549
 20
-48.8503
 30
0.0
 10
-154.8158
 20
-49.4636
 30
0.0
 10
-155.6948
 20
-49.8898
 30
0.0
 10
-156.6734
 20
-49.8898
 30
0.0
 10
-156.6734
 20
-49.8898
 30
0.0
 10
-158.4946
 20
-49.8898
 30
0.0
 10
-159.9709
 20
-48.4135
 30
0.0
 10
-159.9709
 20
-46.5924
 30
0.0
 10
-159.9709
 20
-46.5924
 30
0.0
 10
-159.9709
 20
-45.597
 30
0.0
 10
-159.53
 20
-44.7047
 30
0.0
 10
-158.6732
 20
-44.0075
 30
0.0
 10
-158.6732
 20
-44.0075
 30
0.0
 10
-155.8971
 20
-41.1314
 30
0.0
 10
-152.2735
 20
-42.8597
 30
0.0
 10
-151.6214
 20
-44.6326
 30
0.0
 10
-151.6214
 20
-44.6326
 30
0.0
 10
-150.2155
 20
-40.3172
 30
0.0
 10
-144.4002
 20
-37.5711
 30
0.0
 10
-140.2554
 20
-39.2808
 30
0.0
 10
-140.2554
 20
-39.2808
 30
0.0
 10
-140.8122
 20
-37.1035
 30
0.0
 10
-138.1142
 20
-31.9456
 30
0.0
 10
-138.3794
 20
-28.6349
 30
0.0
 10
-138.3794
 20
-28.6349
 30
0.0
 10
-140.5156
 20
-33.5453
 30
0.0
 10
-149.5959
 20
-33.2336
 30
0.0
 10
-153.4094
 20
-31.2402
 30
0.0
 10
-153.4094
 20
-31.2402
 30
0.0
 10
-155.9244
 20
-29.6644
 30
0.0
 10
-158.6397
 20
-29.5275
 30
0.0
 10
-160.3319
 20
-32.9206
 30
0.0
 10
-160.3319
 20
-32.9206
 30
0.0
 10
-158.8946
 20
-33.446
 30
0.0
 10
-157.8785
 20
-34.8038
 30
0.0
 10
-157.8785
 20
-36.3988
 30
0.0
 10
-157.8785
 20
-36.3988
 30
0.0
 10
-157.8785
 20
-38.4287
 30
0.0
 10
-159.5241
 20
-40.0743
 30
0.0
 10
-161.533
 20
-40.0644
 30
0.0
 10
-161.533
 20
-40.0644
 30
0.0
 10
-169.6743
 20
-39.7201
 30
0.0
 10
-168.3547
 20
-25.8833
 30
0.0
 10
-159.2167
 20
-26.2829
 30
0.0
 10
-159.2167
 20
-26.2829
 30
0.0
 10
-159.2167
 20
-26.2829
 30
0.0
 10
-159.2166
 20
-26.2829
 30
0.0
 10
-159.2166
 20
-26.2829
 30
0.0
  0
SPLINE
  5
61
330
1F
100
AcDbEntity
  8
layer 1
 62
     7
100
AcDbSpline
210
0.0
220
0.0
230
1.0
 70
    11
 71
     3
 72
    12
 73
     8
 74
     0
 42
0.0000000001
 43
0.0000000001
 12
1.0
 22
0.0
 32
0.0
 13
1.0
 23
0.0
 33
0.0
 40
0.0
 40
0.0
 40
0.0
 40
0.0
 40
0.3333333333333333
 40
0.3333333333333333
 40
0.3333333333333333
 40
0.3333333333333333
 40
1.0
 40
1.0
 40
1.0
 40
1.0
 10
-134.9449
 20
-19.7346
 30
0.0
 10
-134.3952
 20
-22.0754
 30
0.0
 10
-132.8377
 20
-25.9972
 30
0.0
 10
-134.9449
 20
-26.1051
 30
0.0
 10
-134.9449
 20
-26.1051
 30
0.0
 10
-137.0521
 20
-25.9972
 30
0.0
 10
-135.4946
 20
-22.0754
 30
0.0
 10
-134.9449
 20
-19.7346
 30
0.0
  0
SPLINE
  5
62
330
1F
100
AcDbEntity
  8
layer 1
 62
     7
100
AcDbSpline
210
0.0
220
0.0
230
1.0
 70
    11
 71
     3
 72
    12
 73
     8
 74
     0
 42
0.0000000001
 43
0.0000000001
 12
1.0
 22
0.0
 32
0.0
 13
1.0
 23
0.0
 33
0.0
 40
0.0
 40
0.0
 40
0.0
 40
0.0
 40
0.3333333333333333
 40
0.3333333333333333
 40
0.3333333333333333
 40
0.3333333333333333
 40
1.0
 40
1.0
 40
1.0
 40
1.0
 10
-134.9449
 20
-40.8026
 30
0.0
 10
-133.6791
 20
-40.6013
 30
0.0
 10
-134.5821
 20
-35.9049
 30
0.0
 10
-134.9449
 20
-33.4973
 30
0.0
 10
-134.9449
 20
-33.4973
 30
0.0
 10
-135.3076
 20
-35.9049
 30
0.0
 10
-136.2107
 20
-40.6013
 30
0.0
 10
-134.9449
 20
-40.8026
 30
0.0
  0
SPLINE
  5
63
330
1F
100
AcDbEntity
  8
layer 1
 62
     7
100
AcDbSpline
210
0.0
220
0.0
230
1.0
 70
    11
 71
     3
 72
    24
 73
    20
 74
     0
 42
0.0000000001
 43
0.0000000001
 12
1.0
 22
0.0
 32
0.0
 13
1.0
 23
0.0
 33
0.0
 40
0.0
 40
0.0
 40
0.0
 40
0.0
 40
0.1666666666666667
 40
0.1666666666666667
 40
0.1666666666666667
 40
0.1666666666666667
 40
0.3333333333333333
 40
0.3333333333333333
 40
0.3333333333333333
 40
0.3333333333333333
 40
0.5
 40
0.5
 40
0.5
 40
0.5
 40
0.6666666666666666
 40
0.6666666666666666
 40
0.6666666666666666
 40
0.6666666666666666
 40
1.0
 40
1.0
 40
1.0
 40
1.0
 10
-90.5204
 20
112.4086
 30
0.0
 10
-95.3346
 20
112.4086
 30
0.0
 10
-89.2594
 20
112.4086
 30
0.0
 10
-94.0736
 20
112.4086
 30
0.0
 10
-94.0736
 20
112.4086
 30
0.0
 10
-94.8922
 20
108.6996
 30
0.0
 10
-99.7043
 20
109.2569
 30
0.0
 10
-96.0084
 20
101.9016
 30
0.0
 10
-96.0084
 20
101.9016
 30
0.0
 10
-95.6093
 20
101.2319
 30
0.0
 10
-94.728
 20
101.4012
 30
0.0
 10
-94.6002
 20
102.1909
 30
0.0
 10
-94.6002
 20
102.1909
 30
0.0
 10
-94.2392
 20
103.4457
 30
0.0
 10
-94.117
 20
106.6393
 30
0.0
 10
-90.5204
 20
105.2502
 30
0.0
 10
-90.5204
 20
105.2502
 30
0.0
 10
-90.5204
 20
110.0011
 30
0.0
 10
-90.5204
 20
107.6577
 30
0.0
 10
-90.5204
 20
112.4086
 30
0.0
  0
SPLINE
  5
64
330
1F
100
AcDbEntity
  8
layer 1
 62
     7
100
AcDbSpline
210
0.0
220
0.0
230
1.0
 70
    11
 71
     3
 72
    16
 73
    12
 74
     0
 42
0.0000000001
 43
0.0000000001
 12
1.0
 22
0.0
 32
0.0
 13
1.0
 23
0.0
 33
0.0
 40
0.0
 40
0.0
 40
0.0
 40
0.0
 40
0.25
 40
0.25
 40
0.25
 40
0.25
 40
0.5
 40
0.5
 40
0.5
 40
0.5
 40
1.0
 40
1.0
 40
1.0
 40
1.0
 10
-102.3772
 20
112.4086
 30
0.0
 10
-107.1914
 20
112.4086
 30
0.0
 10
-108.4833
 20
112.4086
 30
0.0
 10
-113.2975
 20
112.4086
 30
0.0
 10
-113.2975
 20
112.4086
 30
0.0
 10
-112.9254
 20
110.5599
 30
0.0
 10
-111.9581
 20
109.2073
 30
0.0
 10
-108.783
 20
109.2934
 30
0.0
 10
-108.783
 20
109.2934
 30
0.0
 10
-106.4147
 20
109.3992
 30
0.0
 10
-103.3765
 20
110.7729
 30
0.0
 10
-102.3772
 20
112.4086
 30
0.0
  0
SPLINE
  5
65
330
1F
100
AcDbEntity
  8
layer 1
 62
     7
100
AcDbSpline
210
0.0
220
0.0
230
1.0
 70
    11
 71
     3
 72
    20
 73
    16
 74
     0
 42
0.0000000001
 43
0.0000000001
 12
1.0
 22
0.0
 32
0.0
 13
1.0
 23
0.0
 33
0.0
 40
0.0
 40
0.0
 40
0.0
 40
0.0
 40
0.2
 40
0.2
 40
0.2
 40
0.2
 40
0.4
 40
0.4
 40
0.4
 40
0.4
 40
0.6
 40
0.6
 40
0.6
 40
0.6
 40
1.0
 40
1.0
 40
1.0
 40
1.0
 10
-118.7186
 20
112.4086
 30
0.0
 10
-123.5329
 20
112.4086
 30
0.0
 10
-119.8935
 20
112.4086
 30
0.0
 10
-124.7077
 20
112.4086
 30
0.0
 10
-124.7077
 20
112.4086
 30
0.0
 10
-124.3357
 20
110.5599
 30
0.0
 10
-120.2892
 20
108.6517
 30
0.0
 10
-117.1141
 20
108.7378
 30
0.0
 10
-117.1141
 20
108.7378
 30
0.0
 10
-118.1722
 20
109.8391
 30
0.0
 10
-118.7225
 20
111.1897
 30
0.0
 10
-118.7185
 20
112.4086
 30
0.0
 10
-118.7185
 20
112.4086
 30
0.0
 10
-118.7185
 20
112.4086
 30
0.0
 10
-118.7186
 20
112.4086
 30
0.0
 10
-118.7186
 20
112.4086
 30
0.0
  0
SPLINE
  5
66
330
1F
100
AcDbEntity
  8
layer 1
 62
     7
100
AcDbSpline
210
0.0
220
0.0
230
1.0
 70
    11
 71
     3
 72
    16
 73
    12
 74
     0
 42
0.0000000001
 43
0.0000000001
 12
1.0
 22
0.0
 32
0.0
 13
1.0
 23
0.0
 33
0.0
 40
0.0
 40
0.0
 40
0.0
 40
0.0
 40
0.25
 40
0.25
 40
0.25
 40
0.25
 40
0.5
 40
0.5
 40
0.5
 40
0.5
 40
1.0
 40
1.0
 40
1.0
 40
1.0
 10
-117.3281
 20
95.055
 30
0.0
 10
-113.8245
 20
98.4545
 30
0.0
 10
-108.7808
 20
101.5264
 30
0.0
 10
-106.3831
 20
103.6562
 30
0.0
 10
-106.3831
 20
103.6562
 30
0.0
 10
-108.1068
 20
103.1703
 30
0.0
 10
-111.5799
 20
102.2933
 30
0.0
 10
-114.1406
 20
102.7397
 30
0.0
 10
-114.1406
 20
102.7397
 30
0.0
 10
-113.533
 20
97.6655
 30
0.0
 10
-120.2733
 20
99.0181
 30
0.0
 10
-117.3281
 20
95.055
 30
0.0
  0
SPLINE
  5
67
330
1F
100
AcDbEntity
  8
layer 1
 62
     7
100
AcDbSpline
210
0.0
220
0.0
230
1.0
 70
    11
 71
     3
 72
    28
 73
    24
 74
     0
 42
0.0000000001
 43
0.0000000001
 12
1.0
 22
0.0
 32
0.0
 13
1.0
 23
0.0
 33
0.0
 40
0.0
 40
0.0
 40
0.0
 40
0.0
 40
0.1428571428571428
 40
0.1428571428571428
 40
0.1428571428571428
 40
0.1428571428571428
 40
0.2857142857142857
 40
0.2857142857142857
 40
0.2857142857142857
 40
0.2857142857142857
 40
0.4285714285714285
 40
0.4285714285714285
 40
0.4285714285714285
 40
0.4285714285714285
 40
0.5714285714285714
 40
0.5714285714285714
 40
0.5714285714285714
 40
0.5714285714285714
 40
0.7142857142857143
 40
0.7142857142857143
 40
0.7142857142857143
 40
0.7142857142857143
 40
1.0
 40
1.0
 40
1.0
 40
1.0
 10
-90.5204
 20
96.5376
 30
0.0
 10
-93.8769
 20
94.2972
 30
0.0
 10
-98.2483
 20
94.891
 30
0.0
 10
-99.0134
 20
99.129
 30
0.0
 10
-99.0134
 20
99.129
 30
0.0
 10
-99.9129
 20
96.7157
 30
0.0
 10
-101.5398
 20
92.1713
 30
0.0
 10
-99.7604
 20
86.7055
 30
0.0
 10
-99.7604
 20
86.7055
 30
0.0
 10
-98.4975
 20
83.5253
 30
0.0
 10
-95.4298
 20
84.2345
 30
0.0
 10
-95.113
 20
86.617
 30
0.0
 10
-95.113
 20
86.617
 30
0.0
 10
-94.752
 20
87.8717
 30
0.0
 10
-94.5487
 20
91.2543
 30
0.0
 10
-90.5204
 20
91.4038
 30
0.0
 10
-90.5204
 20
91.4038
 30
0.0
 10
-90.5204
 20
96.1547
 30
0.0
 10
-90.5204
 20
91.7869
 30
0.0
 10
-90.5204
 20
96.5377
 30
0.0
 10
-90.5204
 20
96.5377
 30
0.0
 10
-90.5204
 20
96.5377
 30
0.0
 10
-90.5204
 20
96.5376
 30
0.0
 10
-90.5204
 20
96.5376
 30
0.0
  0
SPLINE
  5
68
330
1F
100
AcDbEntity
  8
layer 1
 62
     7
100
AcDbSpline
210
0.0
220
0.0
230
1.0
 70
    11
 71
     3
 72
    20
 73
    16
 74
     0
 42
0.0000000001
 43
0.0000000001
 12
1.0
 22
0.0
 32
0.0
 13
1.0
 23
0.0
 33
0.0
 40
0.0
 40
0.0
 40
0.0
 40
0.0
 40
0.2
 40
0.2
 40
0.2
 40
0.2
 40
0.4
 40
0.4
 40
0.4
 40
0.4
 40
0.6
 40
0.6
 40
0.6
 40
0.6
 40
1.0
 40
1.0
 40
1.0
 40
1.0
 10
-127.0235
 20
83.5422
 30
0.0
 10
-131.2327
 20
79.6261
 30
0.0
 10
-133.5437
 20
75.2593
 30
0.0
 10
-134.9449
 20
69.0825
 30
0.0
 10
-134.9449
 20
69.0825
 30
0.0
 10
-136.346
 20
75.2593
 30
0.0
 10
-138.657
 20
79.6261
 30
0.0
 10
-142.8663
 20
83.5422
 30
0.0
 10
-142.8663
 20
83.5422
 30
0.0
 10
-137.849
 20
83.1073
 30
0.0
 10
-136.2728
 20
84.9054
 30
0.0
 10
-134.9449
 20
87.2546
 30
0.0
 10
-134.9449
 20
87.2546
 30
0.0
 10
-133.6169
 20
84.9054
 30
0.0
 10
-132.0408
 20
83.1073
 30
0.0
 10
-127.0235
 20
83.5422
 30
0.0
  0
SPLINE
  5
69
330
1F
100
AcDbEntity
  8
layer 1
 62
     7
100
AcDbSpline
210
0.0
220
0.0
230
1.0
 70
    11
 71
     3
 72
    16
 73
    12
 74
     0
 42
0.0000000001
 43
0.0000000001
 12
1.0
 22
0.0
 32
0.0
 13
1.0
 23
0.0
 33
0.0
 40
0.0
 40
0.0
 40
0.0
 40
0.0
 40
0.25
 40
0.25
 40
0.25
 40
0.25
 40
0.5
 40
0.5
 40
0.5
 40
0.5
 40
1.0
 40
1.0
 40
1.0
 40
1.0
 10
-90.5204
 20
64.9713
 30
0.0
 10
-90.5204
 20
69.7855
 30
0.0
 10
-90.5204
 20
69.4922
 30
0.0
 10
-90.5204
 20
74.3064
 30
0.0
 10
-90.5204
 20
74.3064
 30
0.0
 10
-91.1666
 20
71.8953
 30
0.0
 10
-92.8657
 20
70.5675
 30
0.0
 10
-95.3936
 20
70.3726
 30
0.0
 10
-95.3936
 20
70.3726
 30
0.0
 10
-93.7172
 20
69.444
 30
0.0
 10
-91.1642
 20
67.171
 30
0.0
 10
-90.5204
 20
64.9713
 30
0.0
  0
SPLINE
  5
6A
330
1F
100
AcDbEntity
  8
layer 1
 62
     7
100
AcDbSpline
210
0.0
220
0.0
230
1.0
 70
    11
 71
     3
 72
    36
 73
    32
 74
     0
 42
0.0000000001
 43
0.0000000001
 12
1.0
 22
0.0
 32
0.0
 13
1.0
 23
0.0
 33
0.0
 40
0.0
 40
0.0
 40
0.0
 40
0.0
 40
0.1111111111111111
 40
0.1111111111111111
 40
0.1111111111111111
 40
0.1111111111111111
 40
0.2222222222222222
 40
0.2222222222222222
 40
0.2222222222222222
 40
0.2222222222222222
 40
0.3333333333333333
 40
0.3333333333333333
 40
0.3333333333333333
 40
0.3333333333333333
 40
0.4444444444444444
 40
0.4444444444444444
 40
0.4444444444444444
 40
0.4444444444444444
 40
0.5555555555555556
 40
0.5555555555555556
 40
0.5555555555555556
 40
0.5555555555555556
 40
0.6666666666666666
 40
0.6666666666666666
 40
0.6666666666666666
 40
0.6666666666666666
 40
0.7777777777777778
 40
0.7777777777777778
 40
0.7777777777777778
 40
0.7777777777777778
 40
1.0
 40
1.0
 40
1.0
 40
1.0
 10
-115.8774
 20
68.8924
 30
0.0
 10
-121.1057
 20
70.36
 30
0.0
 10
-118.0644
 20
77.5512
 30
0.0
 10
-113.5395
 20
74.379
 30
0.0
 10
-113.5395
 20
74.379
 30
0.0
 10
-113.0224
 20
74.0165
 30
0.0
 10
-111.6361
 20
72.4252
 30
0.0
 10
-111.3014
 20
69.6101
 30
0.0
 10
-111.3014
 20
69.6101
 30
0.0
 10
-110.5452
 20
71.3634
 30
0.0
 10
-106.7944
 20
73.9078
 30
0.0
 10
-102.5837
 20
73.111
 30
0.0
 10
-102.5837
 20
73.111
 30
0.0
 10
-96.7929
 20
72.0152
 30
0.0
 10
-92.8002
 20
78.3034
 30
0.0
 10
-93.9398
 20
81.1004
 30
0.0
 10
-93.9398
 20
81.1004
 30
0.0
 10
-97.8868
 20
78.5413
 30
0.0
 10
-100.3596
 20
79.599
 30
0.0
 10
-102.1509
 20
80.8544
 30
0.0
 10
-102.1509
 20
80.8544
 30
0.0
 10
-106.3094
 20
83.7689
 30
0.0
 10
-105.647
 20
93.2572
 30
0.0
 10
-103.0159
 20
100.4477
 30
0.0
 10
-103.0159
 20
100.4477
 30
0.0
 10
-106.6421
 20
97.3569
 30
0.0
 10
-116.2882
 20
90.2781
 30
0.0
 10
-118.8162
 20
85.064
 30
0.0
 10
-118.8162
 20
85.064
 30
0.0
 10
-126.5506
 20
69.7576
 30
0.0
 10
-119.7104
 20
63.668
 30
0.0
 10
-115.8774
 20
68.8924
 30
0.0
  0
SPLINE
  5
6B
330
1F
100
AcDbEntity
  8
layer 1
 62
     7
100
AcDbSpline
210
0.0
220
0.0
230
1.0
 70
    11
 71
     3
 72
    20
 73
    16
 74
     0
 42
0.0000000001
 43
0.0000000001
 12
1.0
 22
0.0
 32
0.0
 13
1.0
 23
0.0
 33
0.0
 40
0.0
 40
0.0
 40
0.0
 40
0.0
 40
0.2
 40
0.2
 40
0.2
 40
0.2
 40
0.4
 40
0.4
 40
0.4
 40
0.4
 40
0.6
 40
0.6
 40
0.6
 40
0.6
 40
1.0
 40
1.0
 40
1.0
 40
1.0
 10
-95.4872
 20
50.3845
 30
0.0
 10
-91.0955
 20
59.2767
 30
0.0
 10
-95.069
 20
67.767
 30
0.0
 10
-102.8067
 20
67.928
 30
0.0
 10
-102.8067
 20
67.928
 30
0.0
 10
-112.7069
 20
67.556
 30
0.0
 10
-112.5238
 20
54.0986
 30
0.0
 10
-103.2883
 20
57.9294
 30
0.0
 10
-103.2883
 20
57.9294
 30
0.0
 10
-103.2019
 20
56.8423
 30
0.0
 10
-103.518
 20
56.1808
 30
0.0
 10
-104.302
 20
55.2728
 30
0.0
 10
-104.302
 20
55.2728
 30
0.0
 10
-100.3653
 20
57.3925
 30
0.0
 10
-96.5324
 20
55.0752
 30
0.0
 10
-95.4872
 20
50.3845
 30
0.0
  0
SPLINE
  5
6C
330
1F
100
AcDbEntity
  8
layer 1
 62
     7
100
AcDbSpline
210
0.0
220
0.0
230
1.0
 70
    11
 71
     3
 72
    52
 73
    48
 74
     0
 42
0.0000000001
 43
0.0000000001
 12
1.0
 22
0.0
 32
0.0
 13
1.0
 23
0.0
 33
0.0
 40
0.0
 40
0.0
 40
0.0
 40
0.0
 40
0.0769230769230769
 40
0.0769230769230769
 40
0.0769230769230769
 40
0.0769230769230769
 40
0.1538461538461539
 40
0.1538461538461539
 40
0.1538461538461539
 40
0.1538461538461539
 40
0.2307692307692308
 40
0.2307692307692308
 40
0.2307692307692308
 40
0.2307692307692308
 40
0.3076923076923077
 40
0.3076923076923077
 40
0.3076923076923077
 40
0.3076923076923077
 40
0.3846153846153846
 40
0.3846153846153846
 40
0.3846153846153846
 40
0.3846153846153846
 40
0.4615384615384616
 40
0.4615384615384616
 40
0.4615384615384616
 40
0.4615384615384616
 40
0.5384615384615384
 40
0.5384615384615384
 40
0.5384615384615384
 40
0.5384615384615384
 40
0.6153846153846154
 40
0.6153846153846154
 40
0.6153846153846154
 40
0.6153846153846154
 40
0.6923076923076923
 40
0.6923076923076923
 40
0.6923076923076923
 40
0.6923076923076923
 40
0.7692307692307693
 40
0.7692307692307693
 40
0.7692307692307693
 40
0.7692307692307693
 40
0.8461538461538461
 40
0.8461538461538461
 40
0.8461538461538461
 40
0.8461538461538461
 40
1.0
 40
1.0
 40
1.0
 40
1.0
 10
-110.3932
 20
49.7794
 30
0.0
 10
-109.2772
 20
47.1927
 30
0.0
 10
-109.5552
 20
43.8718
 30
0.0
 10
-111.6414
 20
40.8591
 30
0.0
 10
-111.6414
 20
40.8591
 30
0.0
 10
-106.2245
 20
40.6272
 30
0.0
 10
-102.6162
 20
42.9646
 30
0.0
 10
-101.0672
 20
45.038
 30
0.0
 10
-101.0672
 20
45.038
 30
0.0
 10
-98.9942
 20
48.6745
 30
0.0
 10
-100.925
 20
53.4556
 30
0.0
 10
-107.7804
 20
47.0119
 30
0.0
 10
-107.7804
 20
47.0119
 30
0.0
 10
-108.465
 20
49.1293
 30
0.0
 10
-107.9789
 20
51.4275
 30
0.0
 10
-107.1584
 20
52.916
 30
0.0
 10
-107.1584
 20
52.916
 30
0.0
 10
-112.3898
 20
49.6249
 30
0.0
 10
-117.2012
 20
56.6129
 30
0.0
 10
-114.4849
 20
64.3313
 30
0.0
 10
-114.4849
 20
64.3313
 30
0.0
 10
-118.3231
 20
59.4574
 30
0.0
 10
-126.2798
 20
60.9726
 30
0.0
 10
-125.9651
 20
76.2047
 30
0.0
 10
-125.9651
 20
76.2047
 30
0.0
 10
-127.9298
 20
73.5638
 30
0.0
 10
-128.8051
 20
66.2004
 30
0.0
 10
-126.1548
 20
60.6393
 30
0.0
 10
-126.1548
 20
60.6393
 30
0.0
 10
-128.5207
 20
60.652
 30
0.0
 10
-130.0691
 20
61.9342
 30
0.0
 10
-131.4449
 20
63.903
 30
0.0
 10
-131.4449
 20
63.903
 30
0.0
 10
-132.064
 20
57.5453
 30
0.0
 10
-126.6651
 20
51.9217
 30
0.0
 10
-124.1387
 20
51.1699
 30
0.0
 10
-124.1387
 20
51.1699
 30
0.0
 10
-125.9405
 20
49.3834
 30
0.0
 10
-129.9633
 20
50.2605
 30
0.0
 10
-131.3068
 20
52.8493
 30
0.0
 10
-131.3068
 20
52.8493
 30
0.0
 10
-130.3773
 20
41.2617
 30
0.0
 10
-114.5155
 20
41.3921
 30
0.0
 10
-110.3931
 20
49.7793
 30
0.0
 10
-110.3931
 20
49.7793
 30
0.0
 10
-110.3931
 20
49.7793
 30
0.0
 10
-110.3932
 20
49.7794
 30
0.0
 10
-110.3932
 20
49.7794
 30
0.0
  0
SPLINE
  5
6D
330
1F
100
AcDbEntity
  8
layer 1
 62
     7
100
AcDbSpline
210
0.0
220
0.0
230
1.0
 70
    11
 71
     3
 72
    20
 73
    16
 74
     0
 42
0.0000000001
 43
0.0000000001
 12
1.0
 22
0.0
 32
0.0
 13
1.0
 23
0.0
 33
0.0
 40
0.0
 40
0.0
 40
0.0
 40
0.0
 40
0.2
 40
0.2
 40
0.2
 40
0.2
 40
0.4
 40
0.4
 40
0.4
 40
0.4
 40
0.6
 40
0.6
 40
0.6
 40
0.6
 40
1.0
 40
1.0
 40
1.0
 40
1.0
 10
-90.5204
 20
38.1859
 30
0.0
 10
-90.5204
 20
43.0001
 30
0.0
 10
-90.5204
 20
45.5742
 30
0.0
 10
-90.5204
 20
50.3884
 30
0.0
 10
-90.5204
 20
50.3884
 30
0.0
 10
-91.5861
 20
46.5087
 30
0.0
 10
-97.7611
 20
36.0193
 30
0.0
 10
-108.4016
 20
37.2231
 30
0.0
 10
-108.4016
 20
37.2231
 30
0.0
 10
-104.5517
 20
34.7906
 30
0.0
 10
-98.1868
 20
33.5591
 30
0.0
 10
-94.9853
 20
37.0875
 30
0.0
 10
-94.9853
 20
37.0875
 30
0.0
 10
-92.4895
 20
39.8384
 30
0.0
 10
-90.7868
 20
39.0963
 30
0.0
 10
-90.5204
 20
38.1859
 30
0.0
  0
SPLINE
  5
6E
330
1F
100
AcDbEntity
  8
layer 1
 62
     7
100
AcDbSpline
210
0.0
220
0.0
230
1.0
 70
    11
 71
     3
 72
    16
 73
    12
 74
     0
 42
0.0000000001
 43
0.0000000001
 12
1.0
 22
0.0
 32
0.0
 13
1.0
 23
0.0
 33
0.0
 40
0.0
 40
0.0
 40
0.0
 40
0.0
 40
0.25
 40
0.25
 40
0.25
 40
0.25
 40
0.5
 40
0.5
 40
0.5
 40
0.5
 40
1.0
 40
1.0
 40
1.0
 40
1.0
 10
-90.5204
 20
16.7132
 30
0.0
 10
-90.5204
 20
21.5275
 30
0.0
 10
-90.5204
 20
27.2158
 30
0.0
 10
-90.5204
 20
32.03
 30
0.0
 10
-90.5204
 20
32.03
 30
0.0
 10
-91.6027
 20
30.1174
 30
0.0
 10
-94.6726
 20
29.475
 30
0.0
 10
-97.5744
 20
29.4669
 30
0.0
 10
-97.5744
 20
29.4669
 30
0.0
 10
-95.1503
 20
26.9806
 30
0.0
 10
-91.6003
 20
22.8384
 30
0.0
 10
-90.5204
 20
16.7132
 30
0.0
  0
SPLINE
  5
6F
330
1F
100
AcDbEntity
  8
layer 1
 62
     7
100
AcDbSpline
210
0.0
220
0.0
230
1.0
 70
    11
 71
     3
 72
    16
 73
    12
 74
     0
 42
0.0000000001
 43
0.0000000001
 12
1.0
 22
0.0
 32
0.0
 13
1.0
 23
0.0
 33
0.0
 40
0.0
 40
0.0
 40
0.0
 40
0.0
 40
0.25
 40
0.25
 40
0.25
 40
0.25
 40
0.5
 40
0.5
 40
0.5
 40
0.5
 40
1.0
 40
1.0
 40
1.0
 40
1.0
 10
-90.5204
 20
9.6241
 30
0.0
 10
-90.5204
 20
4.8098
 30
0.0
 10
-90.5204
 20
1.4982
 30
0.0
 10
-90.5204
 20
-3.316
 30
0.0
 10
-90.5204
 20
-3.316
 30
0.0
 10
-91.3056
 20
-1.0469
 30
0.0
 10
-93.9596
 20
-0.4639
 30
0.0
 10
-97.4556
 20
-1.4066
 30
0.0
 10
-97.4556
 20
-1.4066
 30
0.0
 10
-95.0315
 20
0.129
 30
0.0
 10
-92.0163
 20
3.8554
 30
0.0
 10
-90.5204
 20
9.6241
 30
0.0
  0
SPLINE
  5
70
330
1F
100
AcDbEntity
  8
layer 1
 62
     7
100
AcDbSpline
210
0.0
220
0.0
230
1.0
 70
    11
 71
     3
 72
    20
 73
    16
 74
     0
 42
0.0000000001
 43
0.0000000001
 12
1.0
 22
0.0
 32
0.0
 13
1.0
 23
0.0
 33
0.0
 40
0.0
 40
0.0
 40
0.0
 40
0.0
 40
0.2
 40
0.2
 40
0.2
 40
0.2
 40
0.4
 40
0.4
 40
0.4
 40
0.4
 40
0.6
 40
0.6
 40
0.6
 40
0.6
 40
1.0
 40
1.0
 40
1.0
 40
1.0
 10
-90.5204
 20
-8.6944
 30
0.0
 10
-90.5204
 20
-13.5086
 30
0.0
 10
-90.5204
 20
-23.9277
 30
0.0
 10
-90.5204
 20
-28.7419
 30
0.0
 10
-90.5204
 20
-28.7419
 30
0.0
 10
-91.4672
 20
-21.9498
 30
0.0
 10
-95.198
 20
-20.7207
 30
0.0
 10
-97.0787
 20
-14.0713
 30
0.0
 10
-97.0787
 20
-14.0713
 30
0.0
 10
-98.2912
 20
-9.0545
 30
0.0
 10
-96.3224
 20
-4.7194
 30
0.0
 10
-94.126
 20
-7.7471
 30
0.0
 10
-94.126
 20
-7.7471
 30
0.0
 10
-93.7217
 20
-9.2641
 30
0.0
 10
-91.8043
 20
-10.4
 30
0.0
 10
-90.5204
 20
-8.6944
 30
0.0
  0
SPLINE
  5
71
330
1F
100
AcDbEntity
  8
layer 1
 62
     7
100
AcDbSpline
210
0.0
220
0.0
230
1.0
 70
    11
 71
     3
 72
    36
 73
    32
 74
     0
 42
0.0000000001
 43
0.0000000001
 12
1.0
 22
0.0
 32
0.0
 13
1.0
 23
0.0
 33
0.0
 40
0.0
 40
0.0
 40
0.0
 40
0.0
 40
0.1111111111111111
 40
0.1111111111111111
 40
0.1111111111111111
 40
0.1111111111111111
 40
0.2222222222222222
 40
0.2222222222222222
 40
0.2222222222222222
 40
0.2222222222222222
 40
0.3333333333333333
 40
0.3333333333333333
 40
0.3333333333333333
 40
0.3333333333333333
 40
0.4444444444444444
 40
0.4444444444444444
 40
0.4444444444444444
 40
0.4444444444444444
 40
0.5555555555555556
 40
0.5555555555555556
 40
0.5555555555555556
 40
0.5555555555555556
 40
0.6666666666666666
 40
0.6666666666666666
 40
0.6666666666666666
 40
0.6666666666666666
 40
0.7777777777777778
 40
0.7777777777777778
 40
0.7777777777777778
 40
0.7777777777777778
 40
1.0
 40
1.0
 40
1.0
 40
1.0
 10
-90.5204
 20
-40.7675
 30
0.0
 10
-90.5204
 20
-45.5817
 30
0.0
 10
-90.5204
 20
-74.3579
 30
0.0
 10
-90.5204
 20
-79.1721
 30
0.0
 10
-90.5204
 20
-79.1721
 30
0.0
 10
-91.2222
 20
-76.8156
 30
0.0
 10
-92.96
 20
-75.8559
 30
0.0
 10
-95.8619
 20
-75.848
 30
0.0
 10
-95.8619
 20
-75.848
 30
0.0
 10
-93.6837
 20
-74.4596
 30
0.0
 10
-91.1175
 20
-66.2899
 30
0.0
 10
-97.7074
 20
-63.4983
 30
0.0
 10
-97.7074
 20
-63.4983
 30
0.0
 10
-102.7207
 20
-61.1908
 30
0.0
 10
-101.3052
 20
-56.7293
 30
0.0
 10
-100.6764
 20
-55.803
 30
0.0
 10
-100.6764
 20
-55.803
 30
0.0
 10
-98.9693
 20
-53.2879
 30
0.0
 10
-93.8629
 20
-53.1284
 30
0.0
 10
-93.8954
 20
-58.7286
 30
0.0
 10
-93.8954
 20
-58.7286
 30
0.0
 10
-89.7593
 20
-58.48
 30
0.0
 10
-89.6982
 20
-49.4897
 30
0.0
 10
-95.8961
 20
-49.8585
 30
0.0
 10
-95.8961
 20
-49.8585
 30
0.0
 10
-93.8447
 20
-47.1589
 30
0.0
 10
-91.1841
 20
-43.5134
 30
0.0
 10
-90.5205
 20
-40.7675
 30
0.0
 10
-90.5205
 20
-40.7675
 30
0.0
 10
-90.5205
 20
-40.7675
 30
0.0
 10
-90.5204
 20
-40.7675
 30
0.0
 10
-90.5204
 20
-40.7675
 30
0.0
  0
SPLINE
  5
72
330
1F
100
AcDbEntity
  8
layer 1
 62
     7
100
AcDbSpline
210
0.0
220
0.0
230
1.0
 70
    11
 71
     3
 72
    20
 73
    16
 74
     0
 42
0.0000000001
 43
0.0000000001
 12
1.0
 22
0.0
 32
0.0
 13
1.0
 23
0.0
 33
0.0
 40
0.0
 40
0.0
 40
0.0
 40
0.0
 40
0.2
 40
0.2
 40
0.2
 40
0.2
 40
0.4
 40
0.4
 40
0.4
 40
0.4
 40
0.6
 40
0.6
 40
0.6
 40
0.6
 40
1.0
 40
1.0
 40
1.0
 40
1.0
 10
-100.2831
 20
-3.5069
 30
0.0
 10
-101.5391
 20
-4.9527
 30
0.0
 10
-102.2813
 20
-5.7523
 30
0.0
 10
-102.738
 20
-8.3971
 30
0.0
 10
-102.738
 20
-8.3971
 30
0.0
 10
-104.4367
 20
-7.0985
 30
0.0
 10
-105.7205
 20
-6.2301
 30
0.0
 10
-107.3325
 20
-5.2317
 30
0.0
 10
-107.3325
 20
-5.2317
 30
0.0
 10
-104.2804
 20
-5.0662
 30
0.0
 10
-102.1786
 20
-4.2515
 30
0.0
 10
-100.2831
 20
-3.507
 30
0.0
 10
-100.2831
 20
-3.507
 30
0.0
 10
-100.2831
 20
-3.507
 30
0.0
 10
-100.2831
 20
-3.5069
 30
0.0
 10
-100.2831
 20
-3.5069
 30
0.0
  0
SPLINE
  5
73
330
1F
100
AcDbEntity
  8
layer 1
 62
     7
100
AcDbSpline
210
0.0
220
0.0
230
1.0
 70
    11
 71
     3
 72
    20
 73
    16
 74
     0
 42
0.0000000001
 43
0.0000000001
 12
1.0
 22
0.0
 32
0.0
 13
1.0
 23
0.0
 33
0.0
 40
0.0
 40
0.0
 40
0.0
 40
0.0
 40
0.2
 40
0.2
 40
0.2
 40
0.2
 40
0.4
 40
0.4
 40
0.4
 40
0.4
 40
0.6
 40
0.6
 40
0.6
 40
0.6
 40
1.0
 40
1.0
 40
1.0
 40
1.0
 10
-117.9242
 20
-0.7666
 30
0.0
 10
-120.893
 20
0.0141
 30
0.0
 10
-126.361
 20
-1.0945
 30
0.0
 10
-128.5875
 20
-3.4538
 30
0.0
 10
-128.5875
 20
-3.4538
 30
0.0
 10
-126.8618
 20
0.0987
 30
0.0
 10
-129.524
 20
2.9282
 30
0.0
 10
-132.2305
 20
2.7923
 30
0.0
 10
-132.2305
 20
2.7923
 30
0.0
 10
-132.3146
 20
3.7138
 30
0.0
 10
-132.1848
 20
4.3949
 30
0.0
 10
-132.2813
 20
5.3873
 30
0.0
 10
-132.2813
 20
5.3873
 30
0.0
 10
-129.2863
 20
7.2655
 30
0.0
 10
-124.6155
 20
7.8518
 30
0.0
 10
-117.9242
 20
-0.7666
 30
0.0
  0
SPLINE
  5
74
330
1F
100
AcDbEntity
  8
layer 1
 62
     7
100
AcDbSpline
210
0.0
220
0.0
230
1.0
 70
    11
 71
     3
 72
    36
 73
    32
 74
     0
 42
0.0000000001
 43
0.0000000001
 12
1.0
 22
0.0
 32
0.0
 13
1.0
 23
0.0
 33
0.0
 40
0.0
 40
0.0
 40
0.0
 40
0.0
 40
0.1111111111111111
 40
0.1111111111111111
 40
0.1111111111111111
 40
0.1111111111111111
 40
0.2222222222222222
 40
0.2222222222222222
 40
0.2222222222222222
 40
0.2222222222222222
 40
0.3333333333333333
 40
0.3333333333333333
 40
0.3333333333333333
 40
0.3333333333333333
 40
0.4444444444444444
 40
0.4444444444444444
 40
0.4444444444444444
 40
0.4444444444444444
 40
0.5555555555555556
 40
0.5555555555555556
 40
0.5555555555555556
 40
0.5555555555555556
 40
0.6666666666666666
 40
0.6666666666666666
 40
0.6666666666666666
 40
0.6666666666666666
 40
0.7777777777777778
 40
0.7777777777777778
 40
0.7777777777777778
 40
0.7777777777777778
 40
1.0
 40
1.0
 40
1.0
 40
1.0
 10
-111.2903
 20
9.005
 30
0.0
 10
-111.2903
 20
6.9222
 30
0.0
 10
-109.6018
 20
5.2338
 30
0.0
 10
-107.5191
 20
5.2338
 30
0.0
 10
-107.5191
 20
5.2338
 30
0.0
 10
-105.4364
 20
5.2338
 30
0.0
 10
-103.748
 20
6.9222
 30
0.0
 10
-103.748
 20
9.005
 30
0.0
 10
-103.748
 20
9.005
 30
0.0
 10
-103.748
 20
9.5955
 30
0.0
 10
-103.8838
 20
10.1544
 30
0.0
 10
-104.0817
 20
10.6595
 30
0.0
 10
-104.0817
 20
10.6595
 30
0.0
 10
-101.5171
 20
7.8377
 30
0.0
 10
-96.2479
 20
8.2968
 30
0.0
 10
-94.8663
 20
12.7761
 30
0.0
 10
-94.8663
 20
12.7761
 30
0.0
 10
-94.9634
 20
7.7275
 30
0.0
 10
-99.0564
 20
2.1585
 30
0.0
 10
-102.8639
 20
0.4712
 30
0.0
 10
-102.8639
 20
0.4712
 30
0.0
 10
-108.4513
 20
-1.8572
 30
0.0
 10
-113.541
 20
-1.8585
 30
0.0
 10
-115.4812
 20
3.0581
 30
0.0
 10
-115.4812
 20
3.0581
 30
0.0
 10
-117.0853
 20
6.6558
 30
0.0
 10
-115.6378
 20
11.6698
 30
0.0
 10
-110.4014
 20
11.4337
 30
0.0
 10
-110.4014
 20
11.4337
 30
0.0
 10
-110.9619
 20
10.7652
 30
0.0
 10
-111.2903
 20
9.9235
 30
0.0
 10
-111.2903
 20
9.005
 30
0.0
  0
SPLINE
  5
75
330
1F
100
AcDbEntity
  8
layer 1
 62
     7
100
AcDbSpline
210
0.0
220
0.0
230
1.0
 70
    11
 71
     3
 72
    28
 73
    24
 74
     0
 42
0.0000000001
 43
0.0000000001
 12
1.0
 22
0.0
 32
0.0
 13
1.0
 23
0.0
 33
0.0
 40
0.0
 40
0.0
 40
0.0
 40
0.0
 40
0.1428571428571428
 40
0.1428571428571428
 40
0.1428571428571428
 40
0.1428571428571428
 40
0.2857142857142857
 40
0.2857142857142857
 40
0.2857142857142857
 40
0.2857142857142857
 40
0.4285714285714285
 40
0.4285714285714285
 40
0.4285714285714285
 40
0.4285714285714285
 40
0.5714285714285714
 40
0.5714285714285714
 40
0.5714285714285714
 40
0.5714285714285714
 40
0.7142857142857143
 40
0.7142857142857143
 40
0.7142857142857143
 40
0.7142857142857143
 40
1.0
 40
1.0
 40
1.0
 40
1.0
 10
-97.9383
 20
-94.7733
 30
0.0
 10
-102.7526
 20
-94.7733
 30
0.0
 10
-107.7758
 20
-94.7733
 30
0.0
 10
-112.5899
 20
-94.7733
 30
0.0
 10
-112.5899
 20
-94.7733
 30
0.0
 10
-111.092
 20
-93.0883
 30
0.0
 10
-112.4191
 20
-90.1692
 30
0.0
 10
-114.6998
 20
-89.8774
 30
0.0
 10
-114.6998
 20
-89.8774
 30
0.0
 10
-113.0887
 20
-82.8724
 30
0.0
 10
-101.0116
 20
-85.5952
 30
0.0
 10
-99.2146
 20
-88.8504
 30
0.0
 10
-99.2146
 20
-88.8504
 30
0.0
 10
-101.1029
 20
-88.3017
 30
0.0
 10
-102.4687
 20
-88.3627
 30
0.0
 10
-103.4128
 20
-89.8085
 30
0.0
 10
-103.4128
 20
-89.8085
 30
0.0
 10
-100.4668
 20
-91.038
 30
0.0
 10
-98.3829
 20
-93.2055
 30
0.0
 10
-97.9382
 20
-94.7732
 30
0.0
 10
-97.9382
 20
-94.7732
 30
0.0
 10
-97.9382
 20
-94.7732
 30
0.0
 10
-97.9383
 20
-94.7733
 30
0.0
 10
-97.9383
 20
-94.7733
 30
0.0
  0
SPLINE
  5
76
330
1F
100
AcDbEntity
  8
layer 1
 62
     7
100
AcDbSpline
210
0.0
220
0.0
230
1.0
 70
    11
 71
     3
 72
    32
 73
    28
 74
     0
 42
0.0000000001
 43
0.0000000001
 12
1.0
 22
0.0
 32
0.0
 13
1.0
 23
0.0
 33
0.0
 40
0.0
 40
0.0
 40
0.0
 40
0.0
 40
0.125
 40
0.125
 40
0.125
 40
0.125
 40
0.25
 40
0.25
 40
0.25
 40
0.25
 40
0.375
 40
0.375
 40
0.375
 40
0.375
 40
0.5
 40
0.5
 40
0.5
 40
0.5
 40
0.625
 40
0.625
 40
0.625
 40
0.625
 40
0.75
 40
0.75
 40
0.75
 40
0.75
 40
1.0
 40
1.0
 40
1.0
 40
1.0
 10
-119.801
 20
-94.7733
 30
0.0
 10
-124.6152
 20
-94.7733
 30
0.0
 10
-118.5426
 20
-94.7733
 30
0.0
 10
-123.3568
 20
-94.7733
 30
0.0
 10
-123.3568
 20
-94.7733
 30
0.0
 10
-121.8589
 20
-93.0883
 30
0.0
 10
-122.1175
 20
-88.361
 30
0.0
 10
-124.3983
 20
-88.0692
 30
0.0
 10
-124.3983
 20
-88.0692
 30
0.0
 10
-124.5724
 20
-93.2327
 30
0.0
 10
-128.7461
 20
-91.5087
 30
0.0
 10
-128.8737
 20
-89.6978
 30
0.0
 10
-128.8737
 20
-89.6978
 30
0.0
 10
-129.8124
 20
-76.3798
 30
0.0
 10
-115.1403
 20
-68.1543
 30
0.0
 10
-110.146
 20
-65.3439
 30
0.0
 10
-110.146
 20
-65.3439
 30
0.0
 10
-115.1575
 20
-73.8361
 30
0.0
 10
-110.2769
 20
-79.404
 30
0.0
 10
-108.4265
 20
-80.1923
 30
0.0
 10
-108.4265
 20
-80.1923
 30
0.0
 10
-116.494
 20
-80.5999
 30
0.0
 10
-120.2457
 20
-88.2741
 30
0.0
 10
-119.8011
 20
-94.7733
 30
0.0
 10
-119.8011
 20
-94.7733
 30
0.0
 10
-119.8011
 20
-94.7733
 30
0.0
 10
-119.801
 20
-94.7733
 30
0.0
 10
-119.801
 20
-94.7733
 30
0.0
  0
SPLINE
  5
77
330
1F
100
AcDbEntity
  8
layer 1
 62
     7
100
AcDbSpline
210
0.0
220
0.0
230
1.0
 70
    11
 71
     3
 72
    28
 73
    24
 74
     0
 42
0.0000000001
 43
0.0000000001
 12
1.0
 22
0.0
 32
0.0
 13
1.0
 23
0.0
 33
0.0
 40
0.0
 40
0.0
 40
0.0
 40
0.0
 40
0.1428571428571428
 40
0.1428571428571428
 40
0.1428571428571428
 40
0.1428571428571428
 40
0.2857142857142857
 40
0.2857142857142857
 40
0.2857142857142857
 40
0.2857142857142857
 40
0.4285714285714285
 40
0.4285714285714285
 40
0.4285714285714285
 40
0.4285714285714285
 40
0.5714285714285714
 40
0.5714285714285714
 40
0.5714285714285714
 40
0.5714285714285714
 40
0.7142857142857143
 40
0.7142857142857143
 40
0.7142857142857143
 40
0.7142857142857143
 40
1.0
 40
1.0
 40
1.0
 40
1.0
 10
-90.5204
 20
-89.9846
 30
0.0
 10
-90.5204
 20
-94.7988
 30
0.0
 10
-90.5204
 20
-89.9591
 30
0.0
 10
-90.5204
 20
-94.7733
 30
0.0
 10
-90.5204
 20
-94.7733
 30
0.0
 10
-90.5204
 20
-94.7733
 30
0.0
 10
-92.293
 20
-94.7733
 30
0.0
 10
-92.293
 20
-94.7733
 30
0.0
 10
-92.293
 20
-94.7733
 30
0.0
 10
-93.9556
 20
-87.4911
 30
0.0
 10
-95.9177
 20
-85.7429
 30
0.0
 10
-97.8406
 20
-83.6994
 30
0.0
 10
-97.8406
 20
-83.6994
 30
0.0
 10
-97.0743
 20
-77.533
 30
0.0
 10
-89.0181
 20
-80.2446
 30
0.0
 10
-92.6681
 20
-91.0515
 30
0.0
 10
-92.6681
 20
-91.0515
 30
0.0
 10
-92.1322
 20
-91.3716
 30
0.0
 10
-90.9898
 20
-90.6893
 30
0.0
 10
-90.5205
 20
-89.9846
 30
0.0
 10
-90.5205
 20
-89.9846
 30
0.0
 10
-90.5205
 20
-89.9846
 30
0.0
 10
-90.5204
 20
-89.9846
 30
0.0
 10
-90.5204
 20
-89.9846
 30
0.0
  0
SPLINE
  5
78
330
1F
100
AcDbEntity
  8
layer 1
 62
     7
100
AcDbSpline
210
0.0
220
0.0
230
1.0
 70
    11
 71
     3
 72
    24
 73
    20
 74
     0
 42
0.0000000001
 43
0.0000000001
 12
1.0
 22
0.0
 32
0.0
 13
1.0
 23
0.0
 33
0.0
 40
0.0
 40
0.0
 40
0.0
 40
0.0
 40
0.1666666666666667
 40
0.1666666666666667
 40
0.1666666666666667
 40
0.1666666666666667
 40
0.3333333333333333
 40
0.3333333333333333
 40
0.3333333333333333
 40
0.3333333333333333
 40
0.5
 40
0.5
 40
0.5
 40
0.5
 40
0.6666666666666666
 40
0.6666666666666666
 40
0.6666666666666666
 40
0.6666666666666666
 40
1.0
 40
1.0
 40
1.0
 40
1.0
 10
-100.0817
 20
-77.2502
 30
0.0
 10
-101.0438
 20
-77.9839
 30
0.0
 10
-101.5268
 20
-78.9012
 30
0.0
 10
-101.3882
 20
-81.2858
 30
0.0
 10
-101.3882
 20
-81.2858
 30
0.0
 10
-104.9349
 20
-79.2798
 30
0.0
 10
-108.9219
 20
-75.0308
 30
0.0
 10
-107.6255
 20
-69.6945
 30
0.0
 10
-107.6255
 20
-69.6945
 30
0.0
 10
-105.9686
 20
-64.3863
 30
0.0
 10
-99.4864
 20
-65.0913
 30
0.0
 10
-98.6983
 20
-69.9057
 30
0.0
 10
-98.6983
 20
-69.9057
 30
0.0
 10
-98.0184
 20
-73.3925
 30
0.0
 10
-101.6314
 20
-74.1415
 30
0.0
 10
-102.8965
 20
-71.5059
 30
0.0
 10
-102.8965
 20
-71.5059
 30
0.0
 10
-104.9491
 20
-72.8271
 30
0.0
 10
-103.278
 20
-76.8748
 30
0.0
 10
-100.0817
 20
-77.2502
 30
0.0
  0
SPLINE
  5
79
330
1F
100
AcDbEntity
  8
layer 1
 62
     7
100
AcDbSpline
210
0.0
220
0.0
230
1.0
 70
    11
 71
     3
 72
    72
 73
    68
 74
     0
 42
0.0000000001
 43
0.0000000001
 12
1.0
 22
0.0
 32
0.0
 13
1.0
 23
0.0
 33
0.0
 40
0.0
 40
0.0
 40
0.0
 40
0.0
 40
0.0555555555555556
 40
0.0555555555555556
 40
0.0555555555555556
 40
0.0555555555555556
 40
0.1111111111111111
 40
0.1111111111111111
 40
0.1111111111111111
 40
0.1111111111111111
 40
0.1666666666666667
 40
0.1666666666666667
 40
0.1666666666666667
 40
0.1666666666666667
 40
0.2222222222222222
 40
0.2222222222222222
 40
0.2222222222222222
 40
0.2222222222222222
 40
0.2777777777777778
 40
0.2777777777777778
 40
0.2777777777777778
 40
0.2777777777777778
 40
0.3333333333333333
 40
0.3333333333333333
 40
0.3333333333333333
 40
0.3333333333333333
 40
0.3888888888888889
 40
0.3888888888888889
 40
0.3888888888888889
 40
0.3888888888888889
 40
0.4444444444444444
 40
0.4444444444444444
 40
0.4444444444444444
 40
0.4444444444444444
 40
0.5
 40
0.5
 40
0.5
 40
0.5
 40
0.5555555555555556
 40
0.5555555555555556
 40
0.5555555555555556
 40
0.5555555555555556
 40
0.6111111111111112
 40
0.6111111111111112
 40
0.6111111111111112
 40
0.6111111111111112
 40
0.6666666666666666
 40
0.6666666666666666
 40
0.6666666666666666
 40
0.6666666666666666
 40
0.7222222222222222
 40
0.7222222222222222
 40
0.7222222222222222
 40
0.7222222222222222
 40
0.7777777777777778
 40
0.7777777777777778
 40
0.7777777777777778
 40
0.7777777777777778
 40
0.8333333333333334
 40
0.8333333333333334
 40
0.8333333333333334
 40
0.8333333333333334
 40
0.8888888888888888
 40
0.8888888888888888
 40
0.8888888888888888
 40
0.8888888888888888
 40
1.0
 40
1.0
 40
1.0
 40
1.0
 10
-128.5304
 20
-13.1588
 30
0.0
 10
-126.9237
 20
-13.1588
 30
0.0
 10
-125.6212
 20
-14.4613
 30
0.0
 10
-125.6212
 20
-16.068
 30
0.0
 10
-125.6212
 20
-16.068
 30
0.0
 10
-125.6212
 20
-17.6746
 30
0.0
 10
-126.9237
 20
-18.9771
 30
0.0
 10
-128.5304
 20
-18.9771
 30
0.0
 10
-128.5304
 20
-18.9771
 30
0.0
 10
-129.8505
 20
-18.9771
 30
0.0
 10
-130.9652
 20
-18.0979
 30
0.0
 10
-131.2839
 20
-16.9155
 30
0.0
 10
-131.2839
 20
-16.9155
 30
0.0
 10
-130.9255
 20
-18.8993
 30
0.0
 10
-130.2973
 20
-21.2266
 30
0.0
 10
-128.5665
 20
-23.2914
 30
0.0
 10
-128.5665
 20
-23.2914
 30
0.0
 10
-128.5597
 20
-21.7676
 30
0.0
 10
-127.2572
 20
-20.4651
 30
0.0
 10
-125.6506
 20
-20.4651
 30
0.0
 10
-125.6506
 20
-20.4651
 30
0.0
 10
-124.0439
 20
-20.4651
 30
0.0
 10
-122.7414
 20
-21.7676
 30
0.0
 10
-122.7414
 20
-23.3742
 30
0.0
 10
-122.7414
 20
-23.3742
 30
0.0
 10
-122.7414
 20
-24.8543
 30
0.0
 10
-123.8467
 20
-26.0763
 30
0.0
 10
-125.2269
 20
-26.2227
 30
0.0
 10
-125.2269
 20
-26.2227
 30
0.0
 10
-125.4581
 20
-26.7725
 30
0.0
 10
-125.5102
 20
-26.9407
 30
0.0
 10
-125.513
 20
-27.2763
 30
0.0
 10
-125.513
 20
-27.2763
 30
0.0
 10
-116.7048
 20
-28.8771
 30
0.0
 10
-112.7622
 20
-23.838
 30
0.0
 10
-116.2904
 20
-16.875
 30
0.0
 10
-116.2904
 20
-16.875
 30
0.0
 10
-116.6259
 20
-18.4095
 30
0.0
 10
-117.9653
 20
-19.549
 30
0.0
 10
-119.5709
 20
-19.549
 30
0.0
 10
-119.5709
 20
-19.549
 30
0.0
 10
-121.4051
 20
-19.549
 30
0.0
 10
-122.8919
 20
-18.0621
 30
0.0
 10
-122.8855
 20
-15.9926
 30
0.0
 10
-122.8855
 20
-15.9926
 30
0.0
 10
-122.6672
 20
-8.5643
 30
0.0
 10
-113.9739
 20
-9.7955
 30
0.0
 10
-111.3056
 20
-15.2741
 30
0.0
 10
-111.3056
 20
-15.2741
 30
0.0
 10
-109.9828
 20
-12.8487
 30
0.0
 10
-106.208
 20
-12.3506
 30
0.0
 10
-103.6551
 20
-12.7228
 30
0.0
 10
-103.6551
 20
-12.7228
 30
0.0
 10
-109.6964
 20
-7.4317
 30
0.0
 10
-115.5849
 20
-6.1736
 30
0.0
 10
-119.8072
 20
-6.4595
 30
0.0
 10
-119.8072
 20
-6.4595
 30
0.0
 10
-123.9792
 20
-6.4626
 30
0.0
 10
-128.6214
 20
-9.0346
 30
0.0
 10
-129.4974
 20
-13.3201
 30
0.0
 10
-129.4974
 20
-13.3201
 30
0.0
 10
-129.2487
 20
-13.2269
 30
0.0
 10
-128.8975
 20
-13.1589
 30
0.0
 10
-128.5303
 20
-13.1589
 30
0.0
 10
-128.5303
 20
-13.1589
 30
0.0
 10
-128.5303
 20
-13.1589
 30
0.0
 10
-128.5304
 20
-13.1588
 30
0.0
 10
-128.5304
 20
-13.1588
 30
0.0
  0
SPLINE
  5
7A
330
1F
100
AcDbEntity
  8
layer 1
 62
     7
100
AcDbSpline
210
0.0
220
0.0
230
1.0
 70
    11
 71
     3
 72
    76
 73
    72
 74
     0
 42
0.0000000001
 43
0.0000000001
 12
1.0
 22
0.0
 32
0.0
 13
1.0
 23
0.0
 33
0.0
 40
0.0
 40
0.0
 40
0.0
 40
0.0
 40
0.0526315789473684
 40
0.0526315789473684
 40
0.0526315789473684
 40
0.0526315789473684
 40
0.1052631578947368
 40
0.1052631578947368
 40
0.1052631578947368
 40
0.1052631578947368
 40
0.1578947368421053
 40
0.1578947368421053
 40
0.1578947368421053
 40
0.1578947368421053
 40
0.2105263157894737
 40
0.2105263157894737
 40
0.2105263157894737
 40
0.2105263157894737
 40
0.2631578947368421
 40
0.2631578947368421
 40
0.2631578947368421
 40
0.2631578947368421
 40
0.3157894736842105
 40
0.3157894736842105
 40
0.3157894736842105
 40
0.3157894736842105
 40
0.3684210526315789
 40
0.3684210526315789
 40
0.3684210526315789
 40
0.3684210526315789
 40
0.4210526315789473
 40
0.4210526315789473
 40
0.4210526315789473
 40
0.4210526315789473
 40
0.4736842105263158
 40
0.4736842105263158
 40
0.4736842105263158
 40
0.4736842105263158
 40
0.5263157894736842
 40
0.5263157894736842
 40
0.5263157894736842
 40
0.5263157894736842
 40
0.5789473684210527
 40
0.5789473684210527
 40
0.5789473684210527
 40
0.5789473684210527
 40
0.631578947368421
 40
0.631578947368421
 40
0.631578947368421
 40
0.631578947368421
 40
0.6842105263157895
 40
0.6842105263157895
 40
0.6842105263157895
 40
0.6842105263157895
 40
0.7368421052631579
 40
0.7368421052631579
 40
0.7368421052631579
 40
0.7368421052631579
 40
0.7894736842105263
 40
0.7894736842105263
 40
0.7894736842105263
 40
0.7894736842105263
 40
0.8421052631578947
 40
0.8421052631578947
 40
0.8421052631578947
 40
0.8421052631578947
 40
0.8947368421052632
 40
0.8947368421052632
 40
0.8947368421052632
 40
0.8947368421052632
 40
1.0
 40
1.0
 40
1.0
 40
1.0
 10
-110.6732
 20
-26.2829
 30
0.0
 10
-109.8285
 20
-24.75
 30
0.0
 10
-109.4036
 20
-19.2328
 30
0.0
 10
-110.8167
 20
-16.6562
 30
0.0
 10
-110.8167
 20
-16.6562
 30
0.0
 10
-106.7277
 20
-15.8552
 30
0.0
 10
-101.8297
 20
-16.5783
 30
0.0
 10
-100.4562
 20
-18.9984
 30
0.0
 10
-100.4562
 20
-18.9984
 30
0.0
 10
-102.6649
 20
-18.7948
 30
0.0
 10
-104.381
 20
-19.2071
 30
0.0
 10
-105.1582
 20
-20.7639
 30
0.0
 10
-105.1582
 20
-20.7639
 30
0.0
 10
-94.3464
 20
-23.0941
 30
0.0
 10
-92.5272
 20
-33.8067
 30
0.0
 10
-96.5335
 20
-41.4179
 30
0.0
 10
-96.5335
 20
-41.4179
 30
0.0
 10
-101.0145
 20
-50.5506
 30
0.0
 10
-112.0025
 20
-60.6445
 30
0.0
 10
-118.8496
 20
-65.8593
 30
0.0
 10
-118.8496
 20
-65.8593
 30
0.0
 10
-113.8816
 20
-59.9151
 30
0.0
 10
-114.4886
 20
-52.7666
 30
0.0
 10
-115.6349
 20
-48.8503
 30
0.0
 10
-115.6349
 20
-48.8503
 30
0.0
 10
-115.074
 20
-49.4636
 30
0.0
 10
-114.195
 20
-49.8898
 30
0.0
 10
-113.2164
 20
-49.8898
 30
0.0
 10
-113.2164
 20
-49.8898
 30
0.0
 10
-111.3952
 20
-49.8898
 30
0.0
 10
-109.9189
 20
-48.4135
 30
0.0
 10
-109.9189
 20
-46.5924
 30
0.0
 10
-109.9189
 20
-46.5924
 30
0.0
 10
-109.9189
 20
-45.597
 30
0.0
 10
-110.3598
 20
-44.7047
 30
0.0
 10
-111.2166
 20
-44.0075
 30
0.0
 10
-111.2166
 20
-44.0075
 30
0.0
 10
-113.9926
 20
-41.1314
 30
0.0
 10
-117.6163
 20
-42.8597
 30
0.0
 10
-118.2684
 20
-44.6326
 30
0.0
 10
-118.2684
 20
-44.6326
 30
0.0
 10
-119.6743
 20
-40.3172
 30
0.0
 10
-125.4896
 20
-37.5711
 30
0.0
 10
-129.6344
 20
-39.2808
 30
0.0
 10
-129.6344
 20
-39.2808
 30
0.0
 10
-129.0775
 20
-37.1035
 30
0.0
 10
-131.7755
 20
-31.9456
 30
0.0
 10
-131.5104
 20
-28.6349
 30
0.0
 10
-131.5104
 20
-28.6349
 30
0.0
 10
-129.3742
 20
-33.5453
 30
0.0
 10
-120.2939
 20
-33.2336
 30
0.0
 10
-116.4804
 20
-31.2402
 30
0.0
 10
-116.4804
 20
-31.2402
 30
0.0
 10
-113.9654
 20
-29.6644
 30
0.0
 10
-111.2501
 20
-29.5275
 30
0.0
 10
-109.5579
 20
-32.9206
 30
0.0
 10
-109.5579
 20
-32.9206
 30
0.0
 10
-110.9952
 20
-33.446
 30
0.0
 10
-112.0113
 20
-34.8038
 30
0.0
 10
-112.0113
 20
-36.3988
 30
0.0
 10
-112.0113
 20
-36.3988
 30
0.0
 10
-112.0113
 20
-38.4287
 30
0.0
 10
-110.3657
 20
-40.0743
 30
0.0
 10
-108.3568
 20
-40.0644
 30
0.0
 10
-108.3568
 20
-40.0644
 30
0.0
 10
-100.2155
 20
-39.7201
 30
0.0
 10
-101.5351
 20
-25.8833
 30
0.0
 10
-110.6731
 20
-26.2829
 30
0.0
 10
-110.6731
 20
-26.2829
 30
0.0
 10
-110.6731
 20
-26.2829
 30
0.0
 10
-110.6732
 20
-26.2829
 30
0.0
 10
-110.6732
 20
-26.2829
 30
0.0
  0
SPLINE
  5
7B
330
1F
100
AcDbEntity
  8
layer 1
 62
     7
100
AcDbSpline
210
0.0
220
0.0
230
1.0
 70
    11
 71
     3
 72
    60
 73
    56
 74
     0
 42
0.0000000001
 43
0.0000000001
 12
1.0
 22
0.0
 32
0.0
 13
1.0
 23
0.0
 33
0.0
 40
0.0
 40
0.0
 40
0.0
 40
0.0
 40
0.0666666666666667
 40
0.0666666666666667
 40
0.0666666666666667
 40
0.0666666666666667
 40
0.1333333333333333
 40
0.1333333333333333
 40
0.1333333333333333
 40
0.1333333333333333
 40
0.2
 40
0.2
 40
0.2
 40
0.2
 40
0.2666666666666667
 40
0.2666666666666667
 40
0.2666666666666667
 40
0.2666666666666667
 40
0.3333333333333333
 40
0.3333333333333333
 40
0.3333333333333333
 40
0.3333333333333333
 40
0.4
 40
0.4
 40
0.4
 40
0.4
 40
0.4666666666666667
 40
0.4666666666666667
 40
0.4666666666666667
 40
0.4666666666666667
 40
0.5333333333333333
 40
0.5333333333333333
 40
0.5333333333333333
 40
0.5333333333333333
 40
0.6
 40
0.6
 40
0.6
 40
0.6
 40
0.6666666666666666
 40
0.6666666666666666
 40
0.6666666666666666
 40
0.6666666666666666
 40
0.7333333333333333
 40
0.7333333333333333
 40
0.7333333333333333
 40
0.7333333333333333
 40
0.8
 40
0.8
 40
0.8
 40
0.8
 40
0.8666666666666667
 40
0.8666666666666667
 40
0.8666666666666667
 40
0.8666666666666667
 40
1.0
 40
1.0
 40
1.0
 40
1.0
 10
-131.2509
 20
-57.1524
 30
0.0
 10
-127.5743
 20
-53.9599
 30
0.0
 10
-122.3053
 20
-55.6135
 30
0.0
 10
-121.3677
 20
-61.0214
 30
0.0
 10
-121.3677
 20
-61.0214
 30
0.0
 10
-120.7155
 20
-59.2485
 30
0.0
 10
-120.1356
 20
-55.6473
 30
0.0
 10
-124.4613
 20
-52.6702
 30
0.0
 10
-124.4613
 20
-52.6702
 30
0.0
 10
-123.6045
 20
-51.7287
 30
0.0
 10
-121.74
 20
-51.2037
 30
0.0
 10
-120.276
 20
-53.3821
 30
0.0
 10
-120.276
 20
-53.3821
 30
0.0
 10
-118.7413
 20
-45.3629
 30
0.0
 10
-125.7325
 20
-43.6466
 30
0.0
 10
-128.3342
 20
-43.6466
 30
0.0
 10
-128.3342
 20
-43.6466
 30
0.0
 10
-131.6641
 20
-43.802
 30
0.0
 10
-133.9853
 20
-47.2447
 30
0.0
 10
-130.6115
 20
-49.7047
 30
0.0
 10
-130.6115
 20
-49.7047
 30
0.0
 10
-126.2187
 20
-53.2148
 30
0.0
 10
-130.9013
 20
-57.8238
 30
0.0
 10
-134.9449
 20
-54.701
 30
0.0
 10
-134.9449
 20
-54.701
 30
0.0
 10
-138.9884
 20
-57.8238
 30
0.0
 10
-143.6711
 20
-53.2149
 30
0.0
 10
-139.2783
 20
-49.7047
 30
0.0
 10
-139.2783
 20
-49.7047
 30
0.0
 10
-135.9044
 20
-47.2447
 30
0.0
 10
-138.2257
 20
-43.802
 30
0.0
 10
-141.5556
 20
-43.6466
 30
0.0
 10
-141.5556
 20
-43.6466
 30
0.0
 10
-144.1573
 20
-43.6466
 30
0.0
 10
-151.1484
 20
-45.3629
 30
0.0
 10
-149.6137
 20
-53.3821
 30
0.0
 10
-149.6137
 20
-53.3821
 30
0.0
 10
-148.1498
 20
-51.2037
 30
0.0
 10
-146.2853
 20
-51.7287
 30
0.0
 10
-145.4285
 20
-52.6702
 30
0.0
 10
-145.4285
 20
-52.6702
 30
0.0
 10
-149.7542
 20
-55.6473
 30
0.0
 10
-149.1743
 20
-59.2486
 30
0.0
 10
-148.5221
 20
-61.0214
 30
0.0
 10
-148.5221
 20
-61.0214
 30
0.0
 10
-147.5845
 20
-55.6135
 30
0.0
 10
-142.3155
 20
-53.9599
 30
0.0
 10
-138.6389
 20
-57.1524
 30
0.0
 10
-138.6389
 20
-57.1524
 30
0.0
 10
-150.2776
 20
-65.5889
 30
0.0
 10
-136.966
 20
-76.5076
 30
0.0
 10
-134.9449
 20
-88.259
 30
0.0
 10
-134.9449
 20
-88.259
 30
0.0
 10
-132.9239
 20
-76.5075
 30
0.0
 10
-119.6122
 20
-65.5889
 30
0.0
 10
-131.2509
 20
-57.1524
 30
0.0
  0
ENDSEC
  0
SECTION
  2
OBJECTS
  0
DICTIONARY
  5
C
330
0
100
AcDbDictionary
281
     1
  3
ACAD_GROUP
350
D
  3
ACAD_LAYOUT
350
1A
  3
ACAD_MATERIAL
350
3B
  3
ACAD_MLEADERSTYLE
350
9E
  3
ACAD_MLINESTYLE
350
17
  3
ACAD_PLOTSETTINGS
350
19
  3
ACAD_PLOTSTYLENAME
350
E
  3
ACAD_TABLESTYLE
350
9D
  3
ACAD_VISUALSTYLE
350
2A
  0
DICTIONARY
  5
D
102
{ACAD_REACTORS
330
C
102
}
330
C
100
AcDbDictionary
281
     1
  0
DICTIONARY
  5
1A
102
{ACAD_REACTORS
330
C
102
}
330
C
100
AcDbDictionary
281
     1
  3
Layout1
350
1E
  3
Layout2
350
26
  3
Model
350
22
  0
DICTIONARY
  5
3B
102
{ACAD_REACTORS
330
C
102
}
330
C
100
AcDbDictionary
281
     1
  3
ByBlock
350
3D
  3
ByLayer
350
3C
  3
Global
350
3E
  0
DICTIONARY
  5
9E
102
{ACAD_REACTORS
330
C
102
}
330
C
100
AcDbDictionary
281
     1
  0
DICTIONARY
  5
17
102
{ACAD_REACTORS
330
C
102
}
330
C
100
AcDbDictionary
281
     1
  3
Standard
350
18
  0
DICTIONARY
  5
19
102
{ACAD_REACTORS
330
C
102
}
330
C
100
AcDbDictionary
281
     1
  0
ACDBDICTIONARYWDFLT
  5
E
102
{ACAD_REACTORS
330
C
102
}
330
C
100
AcDbDictionary
281
     1
  3
Normal
350
F
100
AcDbDictionaryWithDefault
340
F
  0
DICTIONARY
  5
9D
102
{ACAD_REACTORS
330
C
102
}
330
C
100
AcDbDictionary
281
     1
  0
DICTIONARY
  5
2A
102
{ACAD_REACTORS
330
C
102
}
330
C
100
AcDbDictionary
281
     1
  3
2dWireframe
350
2F
  3
3D Hidden
350
31
  3
3dWireframe
350
30
  3
Basic
350
32
  3
Brighten
350
36
  3
ColorChange
350
3A
  3
Conceptual
350
34
  3
Dim
350
35
  3
Facepattern
350
39
  3
Flat
350
2B
  3
FlatWithEdges
350
2C
  3
Gouraud
350
2D
  3
GouraudWithEdges
350
2E
  3
Linepattern
350
38
  3
Realistic
350
33
  3
Thicken
350
37
  0
LAYOUT
  5
1E
102
{ACAD_REACTORS
330
1A
102
}
330
1A
100
AcDbPlotSettings
  1

  2
none_device
  4

  6

 40
0.0
 41
0.0
 42
0.0
 43
0.0
 44
0.0
 45
0.0
 46
0.0
 47
0.0
 48
0.0
 49
0.0
140
0.0
141
0.0
142
1.0
143
1.0
 70
   688
 72
     0
 73
     0
 74
     5
  7

 75
    16
 76
     0
 77
     2
 78
   300
147
1.0
148
0.0
149
0.0
100
AcDbLayout
  1
Layout1
 70
     1
 71
     1
 10
0.0
 20
0.0
 11
12.0
 21
9.0
 12
0.0
 22
0.0
 32
0.0
 14
1.000000000000000E+20
 24
1.000000000000000E+20
 34
1.000000000000000E+20
 15
-1.000000000000000E+20
 25
-1.000000000000000E+20
 35
-1.000000000000000E+20
146
0.0
 13
0.0
 23
0.0
 33
0.0
 16
1.0
 26
0.0
 36
0.0
 17
0.0
 27
1.0
 37
0.0
 76
     0
330
1B
  0
LAYOUT
  5
26
102
{ACAD_REACTORS
330
1A
102
}
330
1A
100
AcDbPlotSettings
  1

  2
none_device
  4

  6

 40
0.0
 41
0.0
 42
0.0
 43
0.0
 44
0.0
 45
0.0
 46
0.0
 47
0.0
 48
0.0
 49
0.0
140
0.0
141
0.0
142
1.0
143
1.0
 70
   688
 72
     0
 73
     0
 74
     5
  7

 75
    16
 76
     0
 77
     2
 78
   300
147
1.0
148
0.0
149
0.0
100
AcDbLayout
  1
Layout2
 70
     1
 71
     2
 10
0.0
 20
0.0
 11
0.0
 21
0.0
 12
0.0
 22
0.0
 32
0.0
 14
0.0
 24
0.0
 34
0.0
 15
0.0
 25
0.0
 35
0.0
146
0.0
 13
0.0
 23
0.0
 33
0.0
 16
1.0
 26
0.0
 36
0.0
 17
0.0
 27
1.0
 37
0.0
 76
     0
330
23
  0
LAYOUT
  5
22
102
{ACAD_REACTORS
330
1A
102
}
330
1A
100
AcDbPlotSettings
  1

  2
none_device
  4

  6

 40
0.0
 41
0.0
 42
0.0
 43
0.0
 44
0.0
 45
0.0
 46
0.0
 47
0.0
 48
0.0
 49
0.0
140
0.0
141
0.0
142
1.0
143
1.0
 70
  1712
 72
     0
 73
     0
 74
     0
  7

 75
     0
 76
     0
 77
     2
 78
   300
147
1.0
148
0.0
149
0.0
100
AcDbLayout
  1
Model
 70
     1
 71
     0
 10
0.0
 20
0.0
 11
12.0
 21
9.0
 12
0.0
 22
0.0
 32
0.0
 14
-186.8777
 24
-103.8408
 34
0.0
 15
-83.012
 25
121.4763
 35
0.0
146
0.0
 13
0.0
 23
0.0
 33
0.0
 16
1.0
 26
0.0
 36
0.0
 17
0.0
 27
1.0
 37
0.0
 76
     0
330
1F
331
29
  0
MATERIAL
  5
3D
102
{ACAD_REACTORS
330
3B
102
}
330
3B
100
AcDbMaterial
  1
ByBlock
 72
     1
 94
      127
  0
MATERIAL
  5
3C
102
{ACAD_REACTORS
330
3B
102
}
330
3B
100
AcDbMaterial
  1
ByLayer
 72
     1
 94
      127
  0
MATERIAL
  5
3E
102
{ACAD_REACTORS
330
3B
102
}
330
3B
100
AcDbMaterial
  1
Global
 72
     1
 94
      127
  0
MLINESTYLE
  5
18
102
{ACAD_REACTORS
330
17
102
}
330
17
100
AcDbMlineStyle
  2
Standard
 70
     0
  3

 62
   256
 51
90.0
 52
90.0
 71
     2
 49
0.5
 62
   256
  6
BYLAYER
 49
-0.5
 62
   256
  6
BYLAYER
  0
ACDBPLACEHOLDER
  5
F
102
{ACAD_REACTORS
330
E
102
}
330
E
  0
VISUALSTYLE
  5
2F
102
{ACAD_REACTORS
330
2A
102
}
102
{ACAD_XDICTIONARY
360
85
102
}
330
2A
100
AcDbVisualStyle
  2
2dWireframe
 70
     4
 71
     0
 72
     2
 73
     0
 90
        0
 40
-0.6
 41
-30.0
 62
     5
 63
     7
421
 16777215
 74
     1
 91
        4
 64
     7
 65
   257
 75
     1
175
     1
 42
1.0
 92
        0
 66
   257
 43
1.0
 76
     1
 77
     6
 78
     2
 67
     7
 79
     5
170
     0
171
     0
290
     0
174
     0
 93
        1
 44
0.0
173
     0
291
     0
 45
0.0
  0
VISUALSTYLE
  5
31
102
{ACAD_REACTORS
330
2A
102
}
102
{ACAD_XDICTIONARY
360
89
102
}
330
2A
100
AcDbVisualStyle
  2
3D Hidden
 70
     6
 71
     1
 72
     2
 73
     2
 90
        0
 40
-0.6
 41
-30.0
 62
     5
 63
     7
421
 16777215
 74
     2
 91
        2
 64
     7
 65
   257
 75
     2
175
     1
 42
40.0
 92
        0
 66
   257
 43
1.0
 76
     1
 77
     6
 78
     2
 67
     7
 79
     3
170
     0
171
     0
290
     0
174
     0
 93
        1
 44
0.0
173
     0
291
     0
 45
0.0
  0
VISUALSTYLE
  5
30
102
{ACAD_REACTORS
330
2A
102
}
102
{ACAD_XDICTIONARY
360
87
102
}
330
2A
100
AcDbVisualStyle
  2
3dWireframe
 70
     5
 71
     0
 72
     2
 73
     0
 90
        0
 40
-0.6
 41
-30.0
 62
     5
 63
     7
421
 16777215
 74
     1
 91
        4
 64
     7
 65
   257
 75
     1
175
     1
 42
1.0
 92
        0
 66
   257
 43
1.0
 76
     1
 77
     6
 78
     2
 67
     7
 79
     5
170
     0
171
     0
290
     0
174
     0
 93
        1
 44
0.0
173
     0
291
     0
 45
0.0
  0
VISUALSTYLE
  5
32
102
{ACAD_REACTORS
330
2A
102
}
102
{ACAD_XDICTIONARY
360
8B
102
}
330
2A
100
AcDbVisualStyle
  2
Basic
 70
     7
 71
     1
 72
     0
 73
     1
 90
        0
 40
-0.6
 41
-30.0
 62
     5
 63
     7
421
 16777215
 74
     0
 91
        4
 64
     7
 65
   257
 75
     1
175
     1
 42
1.0
 92
        8
 66
     7
 43
1.0
 76
     1
 77
     6
 78
     2
 67
     7
 79
     5
170
     0
171
     0
290
     0
174
     0
 93
        1
 44
0.0
173
     0
291
     1
 45
0.0
  0
VISUALSTYLE
  5
36
102
{ACAD_REACTORS
330
2A
102
}
102
{ACAD_XDICTIONARY
360
93
102
}
330
2A
100
AcDbVisualStyle
  2
Brighten
 70
    12
 71
     2
 72
     2
 73
     0
 90
        0
 40
-0.6
 41
-30.0
 62
     5
 63
     7
421
 16777215
 74
     1
 91
        4
 64
     7
 65
   257
 75
     1
175
     1
 42
1.0
 92
        8
 66
     7
 43
1.0
 76
     1
 77
     6
 78
     2
 67
     7
 79
     5
170
     0
171
     0
290
     0
174
     0
 93
        1
 44
50.0
173
     0
291
     1
 45
0.0
  0
VISUALSTYLE
  5
3A
102
{ACAD_REACTORS
330
2A
102
}
102
{ACAD_XDICTIONARY
360
9B
102
}
330
2A
100
AcDbVisualStyle
  2
ColorChange
 70
    16
 71
     2
 72
     2
 73
     3
 90
        0
 40
-0.6
 41
-30.0
 62
     5
 63
     8
421
  8421504
 74
     1
 91
        4
 64
     7
 65
   257
 75
     1
175
     1
 42
1.0
 92
        8
 66
     8
424
  8421504
 43
1.0
 76
     1
 77
     6
 78
     2
 67
     7
 79
     5
170
     0
171
     0
290
     0
174
     0
 93
        1
 44
0.0
173
     0
291
     1
 45
0.0
  0
VISUALSTYLE
  5
34
102
{ACAD_REACTORS
330
2A
102
}
102
{ACAD_XDICTIONARY
360
8F
102
}
330
2A
100
AcDbVisualStyle
  2
Conceptual
 70
     9
 71
     3
 72
     2
 73
     0
 90
        0
 40
-0.6
 41
-30.0
 62
     5
 63
     7
421
 16777215
 74
     2
 91
        2
 64
     7
 65
   257
 75
     1
175
     1
 42
40.0
 92
        8
 66
     7
 43
1.0
 76
     1
 77
     6
 78
     2
 67
     7
 79
     3
170
     0
171
     0
290
     0
174
     0
 93
        1
 44
0.0
173
     0
291
     0
 45
0.0
  0
VISUALSTYLE
  5
35
102
{ACAD_REACTORS
330
2A
102
}
102
{ACAD_XDICTIONARY
360
91
102
}
330
2A
100
AcDbVisualStyle
  2
Dim
 70
    11
 71
     2
 72
     2
 73
     0
 90
        0
 40
-0.6
 41
-30.0
 62
     5
 63
     7
421
 16777215
 74
     1
 91
        4
 64
     7
 65
   257
 75
     1
175
     1
 42
1.0
 92
        8
 66
     7
 43
1.0
 76
     1
 77
     6
 78
     2
 67
     7
 79
     5
170
     0
171
     0
290
     0
174
     0
 93
        1
 44
-50.0
173
     0
291
     1
 45
0.0
  0
VISUALSTYLE
  5
39
102
{ACAD_REACTORS
330
2A
102
}
102
{ACAD_XDICTIONARY
360
99
102
}
330
2A
100
AcDbVisualStyle
  2
Facepattern
 70
    15
 71
     2
 72
     2
 73
     0
 90
        0
 40
-0.6
 41
-30.0
 62
     5
 63
     7
421
 16777215
 74
     1
 91
        4
 64
     7
 65
   257
 75
     1
175
     1
 42
1.0
 92
        8
 66
     7
 43
1.0
 76
     1
 77
     6
 78
     2
 67
     7
 79
     5
170
     0
171
     0
290
     0
174
     0
 93
        1
 44
0.0
173
     0
291
     1
 45
0.0
  0
VISUALSTYLE
  5
2B
102
{ACAD_REACTORS
330
2A
102
}
102
{ACAD_XDICTIONARY
360
7D
102
}
330
2A
100
AcDbVisualStyle
  2
Flat
 70
     0
 71
     2
 72
     1
 73
     1
 90
        2
 40
-0.6
 41
30.0
 62
     5
 63
     7
421
 16777215
 74
     0
 91
        4
 64
     7
 65
   257
 75
     1
175
     1
 42
1.0
 92
        8
 66
     7
 43
1.0
 76
     1
 77
     6
 78
     2
 67
     7
 79
     5
170
     0
171
     0
290
     0
174
     0
 93
       13
 44
0.0
173
     0
291
     1
 45
0.0
  0
VISUALSTYLE
  5
2C
102
{ACAD_REACTORS
330
2A
102
}
102
{ACAD_XDICTIONARY
360
7F
102
}
330
2A
100
AcDbVisualStyle
  2
FlatWithEdges
 70
     1
 71
     2
 72
     1
 73
     1
 90
        2
 40
-0.6
 41
30.0
 62
     5
 63
     7
421
 16777215
 74
     1
 91
        4
 64
     7
 65
   257
 75
     1
175
     1
 42
1.0
 92
        0
 66
   257
 43
1.0
 76
     1
 77
     6
 78
     2
 67
     7
 79
     5
170
     0
171
     0
290
     0
174
     0
 93
       13
 44
0.0
173
     0
291
     1
 45
0.0
  0
VISUALSTYLE
  5
2D
102
{ACAD_REACTORS
330
2A
102
}
102
{ACAD_XDICTIONARY
360
81
102
}
330
2A
100
AcDbVisualStyle
  2
Gouraud
 70
     2
 71
     2
 72
     2
 73
     1
 90
        2
 40
-0.6
 41
30.0
 62
     5
 63
     7
421
 16777215
 74
     0
 91
        4
 64
     7
 65
   257
 75
     1
175
     1
 42
1.0
 92
        0
 66
     7
 43
1.0
 76
     1
 77
     6
 78
     2
 67
     7
 79
     5
170
     0
171
     0
290
     0
174
     0
 93
       13
 44
0.0
173
     0
291
     1
 45
0.0
  0
VISUALSTYLE
  5
2E
102
{ACAD_REACTORS
330
2A
102
}
102
{ACAD_XDICTIONARY
360
83
102
}
330
2A
100
AcDbVisualStyle
  2
GouraudWithEdges
 70
     3
 71
     2
 72
     2
 73
     1
 90
        2
 40
-0.6
 41
30.0
 62
     5
 63
     7
421
 16777215
 74
     1
 91
        4
 64
     7
 65
   257
 75
     1
175
     1
 42
1.0
 92
        0
 66
   257
 43
1.0
 76
     1
 77
     6
 78
     2
 67
     7
 79
     5
170
     0
171
     0
290
     0
174
     0
 93
       13
 44
0.0
173
     0
291
     1
 45
0.0
  0
VISUALSTYLE
  5
38
102
{ACAD_REACTORS
330
2A
102
}
102
{ACAD_XDICTIONARY
360
97
102
}
330
2A
100
AcDbVisualStyle
  2
Linepattern
 70
    14
 71
     2
 72
     2
 73
     0
 90
        0
 40
-0.6
 41
-30.0
 62
     5
 63
     7
421
 16777215
 74
     1
 91
        4
 64
     7
 65
   257
 75
     7
175
     7
 42
1.0
 92
        8
 66
     7
 43
1.0
 76
     1
 77
     6
 78
     2
 67
     7
 79
     5
170
     0
171
     0
290
     0
174
     0
 93
        1
 44
0.0
173
     0
291
     1
 45
0.0
  0
VISUALSTYLE
  5
33
102
{ACAD_REACTORS
330
2A
102
}
102
{ACAD_XDICTIONARY
360
8D
102
}
330
2A
100
AcDbVisualStyle
  2
Realistic
 70
     8
 71
     2
 72
     2
 73
     0
 90
        0
 40
-0.6
 41
-30.0
 62
     5
 63
     7
421
 16777215
 74
     1
 91
        0
 64
     7
 65
   257
 75
     1
175
     1
 42
1.0
 92
        8
 66
     8
424
  7895160
 43
1.0
 76
     1
 77
     6
 78
     2
 67
     7
 79
     5
170
     0
171
     0
290
     0
174
     0
 93
       13
 44
0.0
173
     0
291
     0
 45
0.0
  0
VISUALSTYLE
  5
37
102
{ACAD_REACTORS
330
2A
102
}
102
{ACAD_XDICTIONARY
360
95
102
}
330
2A
100
AcDbVisualStyle
  2
Thicken
 70
    13
 71
     2
 72
     2
 73
     0
 90
        0
 40
-0.6
 41
-30.0
 62
     5
 63
     7
421
 16777215
 74
     1
 91
        4
 64
     7
 65
   257
 75
     1
175
     1
 42
1.0
 92
       12
 66
     7
 43
1.0
 76
     1
 77
     6
 78
     2
 67
     7
 79
     5
170
     0
171
     0
290
     0
174
     0
 93
        1
 44
0.0
173
     0
291
     1
 45
0.0
  0
DICTIONARY
  5
85
330
2F
100
AcDbDictionary
280
     1
281
     1
  3
ACAD_XREC_ROUNDTRIP
360
86
  0
DICTIONARY
  5
89
330
31
100
AcDbDictionary
280
     1
281
     1
  3
ACAD_XREC_ROUNDTRIP
360
8A
  0
DICTIONARY
  5
87
330
30
100
AcDbDictionary
280
     1
281
     1
  3
ACAD_XREC_ROUNDTRIP
360
88
  0
DICTIONARY
  5
8B
330
32
100
AcDbDictionary
280
     1
281
     1
  3
ACAD_XREC_ROUNDTRIP
360
8C
  0
DICTIONARY
  5
93
330
36
100
AcDbDictionary
280
     1
281
     1
  3
ACAD_XREC_ROUNDTRIP
360
94
  0
DICTIONARY
  5
9B
330
3A
100
AcDbDictionary
280
     1
281
     1
  3
ACAD_XREC_ROUNDTRIP
360
9C
  0
DICTIONARY
  5
8F
330
34
100
AcDbDictionary
280
     1
281
     1
  3
ACAD_XREC_ROUNDTRIP
360
90
  0
DICTIONARY
  5
91
330
35
100
AcDbDictionary
280
     1
281
     1
  3
ACAD_XREC_ROUNDTRIP
360
92
  0
DICTIONARY
  5
99
330
39
100
AcDbDictionary
280
     1
281
     1
  3
ACAD_XREC_ROUNDTRIP
360
9A
  0
DICTIONARY
  5
7D
330
2B
100
AcDbDictionary
280
     1
281
     1
  3
ACAD_XREC_ROUNDTRIP
360
7E
  0
DICTIONARY
  5
7F
330
2C
100
AcDbDictionary
280
     1
281
     1
  3
ACAD_XREC_ROUNDTRIP
360
80
  0
DICTIONARY
  5
81
330
2D
100
AcDbDictionary
280
     1
281
     1
  3
ACAD_XREC_ROUNDTRIP
360
82
  0
DICTIONARY
  5
83
330
2E
100
AcDbDictionary
280
     1
281
     1
  3
ACAD_XREC_ROUNDTRIP
360
84
  0
DICTIONARY
  5
97
330
38
100
AcDbDictionary
280
     1
281
     1
  3
ACAD_XREC_ROUNDTRIP
360
98
  0
DICTIONARY
  5
8D
330
33
100
AcDbDictionary
280
     1
281
     1
  3
ACAD_XREC_ROUNDTRIP
360
8E
  0
DICTIONARY
  5
95
330
37
100
AcDbDictionary
280
     1
281
     1
  3
ACAD_XREC_ROUNDTRIP
360
96
  0
XRECORD
  5
86
102
{ACAD_REACTORS
330
85
102
}
330
85
100
AcDbXrecord
280
     1
102
RTVSPropertyOp0
 70
     1
102
RTVSPropertyOp1
 70
     1
102
RTVSPropertyOp2
 70
     1
102
RTVSPropertyOp3
 70
     1
102
RTVSPropertyOp4
 70
     1
102
RTVSPropertyOp5
 70
     1
102
RTVSPropertyOp6
 70
     1
102
RTVSPropertyOp7
 70
     1
102
RTVSPropertyOp8
 70
     1
102
RTVSPropertyOp9
 70
     1
102
RTVSPropertyOp10
 70
     1
102
RTVSPropertyOp11
 70
     1
102
RTVSPropertyOp12
 70
     1
102
RTVSPropertyOp13
 70
     1
102
RTVSPropertyOp14
 70
     1
102
RTVSPropertyOp15
 70
     1
102
RTVSPropertyOp16
 70
     1
102
RTVSPropertyOp17
 70
     1
102
RTVSPropertyOp18
 70
     1
102
RTVSPropertyOp19
 70
     1
102
RTVSPropertyOp20
 70
     1
102
RTVSPropertyOp21
 70
     1
102
RTVSPropertyOp22
 70
     1
102
RTVSPropertyOp23
 70
     1
102
RTVSPropertyOp24
 70
     1
102
RTVSPropertyOp25
 70
     1
102
RTVSPropertyOp26
 70
     1
102
RTVSPropertyOp27
 70
     1
102
RTVSPropertyOp28
 70
     1
102
RTVSPropertyOp29
 70
     1
102
RTVSPropertyOp30
 70
     1
102
RTVSPropertyOp31
 70
     1
102
RTVSPropertyOp32
 70
     1
  0
XRECORD
  5
8A
102
{ACAD_REACTORS
330
89
102
}
330
89
100
AcDbXrecord
280
     1
102
RTVSPropertyOp0
 70
     1
102
RTVSPropertyOp1
 70
     1
102
RTVSPropertyOp2
 70
     1
102
RTVSPropertyOp3
 70
     1
102
RTVSPropertyOp4
 70
     1
102
RTVSPropertyOp5
 70
     1
102
RTVSPropertyOp6
 70
     1
102
RTVSPropertyOp7
 70
     1
102
RTVSPropertyOp8
 70
     1
102
RTVSPropertyOp9
 70
     1
102
RTVSPropertyOp10
 70
     1
102
RTVSPropertyOp11
 70
     1
102
RTVSPropertyOp12
 70
     1
102
RTVSPropertyOp13
 70
     1
102
RTVSPropertyOp14
 70
     1
102
RTVSPropertyOp15
 70
     1
102
RTVSPropertyOp16
 70
     1
102
RTVSPropertyOp17
 70
     1
102
RTVSPropertyOp18
 70
     1
102
RTVSPropertyOp19
 70
     1
102
RTVSPropertyOp20
 70
     1
102
RTVSPropertyOp21
 70
     1
102
RTVSPropertyOp22
 70
     1
102
RTVSPropertyOp23
 70
     1
102
RTVSPropertyOp24
 70
     1
102
RTVSPropertyOp25
 70
     1
102
RTVSPropertyOp26
 70
     1
102
RTVSPropertyOp27
 70
     1
102
RTVSPropertyOp28
 70
     1
102
RTVSPropertyOp29
 70
     1
102
RTVSPropertyOp30
 70
     1
102
RTVSPropertyOp31
 70
     1
102
RTVSPropertyOp32
 70
     1
  0
XRECORD
  5
88
102
{ACAD_REACTORS
330
87
102
}
330
87
100
AcDbXrecord
280
     1
102
RTVSPropertyOp0
 70
     1
102
RTVSPropertyOp1
 70
     1
102
RTVSPropertyOp2
 70
     1
102
RTVSPropertyOp3
 70
     1
102
RTVSPropertyOp4
 70
     1
102
RTVSPropertyOp5
 70
     1
102
RTVSPropertyOp6
 70
     1
102
RTVSPropertyOp7
 70
     1
102
RTVSPropertyOp8
 70
     1
102
RTVSPropertyOp9
 70
     1
102
RTVSPropertyOp10
 70
     1
102
RTVSPropertyOp11
 70
     1
102
RTVSPropertyOp12
 70
     1
102
RTVSPropertyOp13
 70
     1
102
RTVSPropertyOp14
 70
     1
102
RTVSPropertyOp15
 70
     1
102
RTVSPropertyOp16
 70
     1
102
RTVSPropertyOp17
 70
     1
102
RTVSPropertyOp18
 70
     1
102
RTVSPropertyOp19
 70
     1
102
RTVSPropertyOp20
 70
     1
102
RTVSPropertyOp21
 70
     1
102
RTVSPropertyOp22
 70
     1
102
RTVSPropertyOp23
 70
     1
102
RTVSPropertyOp24
 70
     1
102
RTVSPropertyOp25
 70
     1
102
RTVSPropertyOp26
 70
     1
102
RTVSPropertyOp27
 70
     1
102
RTVSPropertyOp28
 70
     1
102
RTVSPropertyOp29
 70
     1
102
RTVSPropertyOp30
 70
     1
102
RTVSPropertyOp31
 70
     1
102
RTVSPropertyOp32
 70
     1
  0
XRECORD
  5
8C
102
{ACAD_REACTORS
330
8B
102
}
330
8B
100
AcDbXrecord
280
     1
102
RTVSPropertyOp0
 70
     1
102
RTVSPropertyOp1
 70
     1
102
RTVSPropertyOp2
 70
     1
102
RTVSPropertyOp3
 70
     1
102
RTVSPropertyOp4
 70
     1
102
RTVSPropertyOp5
 70
     1
102
RTVSPropertyOp6
 70
     1
102
RTVSPropertyOp7
 70
     1
102
RTVSPropertyOp8
 70
     1
102
RTVSPropertyOp9
 70
     1
102
RTVSPropertyOp10
 70
     1
102
RTVSPropertyOp11
 70
     1
102
RTVSPropertyOp12
 70
     1
102
RTVSPropertyOp13
 70
     1
102
RTVSPropertyOp14
 70
     1
102
RTVSPropertyOp15
 70
     1
102
RTVSPropertyOp16
 70
     1
102
RTVSPropertyOp17
 70
     1
102
RTVSPropertyOp18
 70
     1
102
RTVSPropertyOp19
 70
     1
102
RTVSPropertyOp20
 70
     1
102
RTVSPropertyOp21
 70
     1
102
RTVSPropertyOp22
 70
     1
102
RTVSPropertyOp23
 70
     1
102
RTVSPropertyOp24
 70
     1
102
RTVSPropertyOp25
 70
     1
102
RTVSPropertyOp26
 70
     1
102
RTVSPropertyOp27
 70
     1
102
RTVSPropertyOp28
 70
     1
102
RTVSPropertyOp29
 70
     1
102
RTVSPropertyOp30
 70
     1
102
RTVSPropertyOp31
 70
     1
102
RTVSPropertyOp32
 70
     1
  0
XRECORD
  5
94
102
{ACAD_REACTORS
330
93
102
}
330
93
100
AcDbXrecord
280
     1
102
RTVSPropertyOp0
 70
     1
102
RTVSPropertyOp1
 70
     1
102
RTVSPropertyOp2
 70
     1
102
RTVSPropertyOp3
 70
     1
102
RTVSPropertyOp4
 70
     1
102
RTVSPropertyOp5
 70
     1
102
RTVSPropertyOp6
 70
     1
102
RTVSPropertyOp7
 70
     1
102
RTVSPropertyOp8
 70
     1
102
RTVSPropertyOp9
 70
     1
102
RTVSPropertyOp10
 70
     1
102
RTVSPropertyOp11
 70
     1
102
RTVSPropertyOp12
 70
     1
102
RTVSPropertyOp13
 70
     1
102
RTVSPropertyOp14
 70
     1
102
RTVSPropertyOp15
 70
     1
102
RTVSPropertyOp16
 70
     1
102
RTVSPropertyOp17
 70
     1
102
RTVSPropertyOp18
 70
     1
102
RTVSPropertyOp19
 70
     1
102
RTVSPropertyOp20
 70
     1
102
RTVSPropertyOp21
 70
     1
102
RTVSPropertyOp22
 70
     1
102
RTVSPropertyOp23
 70
     1
102
RTVSPropertyOp24
 70
     1
102
RTVSPropertyOp25
 70
     1
102
RTVSPropertyOp26
 70
     1
102
RTVSPropertyOp27
 70
     1
102
RTVSPropertyOp28
 70
     1
102
RTVSPropertyOp29
 70
     1
102
RTVSPropertyOp30
 70
     1
102
RTVSPropertyOp31
 70
     1
102
RTVSPropertyOp32
 70
     1
  0
XRECORD
  5
9C
102
{ACAD_REACTORS
330
9B
102
}
330
9B
100
AcDbXrecord
280
     1
102
RTVSPropertyOp0
 70
     1
102
RTVSPropertyOp1
 70
     1
102
RTVSPropertyOp2
 70
     1
102
RTVSPropertyOp3
 70
     1
102
RTVSPropertyOp4
 70
     1
102
RTVSPropertyOp5
 70
     1
102
RTVSPropertyOp6
 70
     1
102
RTVSPropertyOp7
 70
     1
102
RTVSPropertyOp8
 70
     1
102
RTVSPropertyOp9
 70
     1
102
RTVSPropertyOp10
 70
     1
102
RTVSPropertyOp11
 70
     1
102
RTVSPropertyOp12
 70
     1
102
RTVSPropertyOp13
 70
     1
102
RTVSPropertyOp14
 70
     1
102
RTVSPropertyOp15
 70
     1
102
RTVSPropertyOp16
 70
     1
102
RTVSPropertyOp17
 70
     1
102
RTVSPropertyOp18
 70
     1
102
RTVSPropertyOp19
 70
     1
102
RTVSPropertyOp20
 70
     1
102
RTVSPropertyOp21
 70
     1
102
RTVSPropertyOp22
 70
     1
102
RTVSPropertyOp23
 70
     1
102
RTVSPropertyOp24
 70
     1
102
RTVSPropertyOp25
 70
     1
102
RTVSPropertyOp26
 70
     1
102
RTVSPropertyOp27
 70
     1
102
RTVSPropertyOp28
 70
     1
102
RTVSPropertyOp29
 70
     1
102
RTVSPropertyOp30
 70
     1
102
RTVSPropertyOp31
 70
     1
102
RTVSPropertyOp32
 70
     1
  0
XRECORD
  5
90
102
{ACAD_REACTORS
330
8F
102
}
330
8F
100
AcDbXrecord
280
     1
102
RTVSPropertyOp0
 70
     1
102
RTVSPropertyOp1
 70
     1
102
RTVSPropertyOp2
 70
     1
102
RTVSPropertyOp3
 70
     1
102
RTVSPropertyOp4
 70
     1
102
RTVSPropertyOp5
 70
     1
102
RTVSPropertyOp6
 70
     1
102
RTVSPropertyOp7
 70
     1
102
RTVSPropertyOp8
 70
     1
102
RTVSPropertyOp9
 70
     1
102
RTVSPropertyOp10
 70
     1
102
RTVSPropertyOp11
 70
     1
102
RTVSPropertyOp12
 70
     1
102
RTVSPropertyOp13
 70
     1
102
RTVSPropertyOp14
 70
     1
102
RTVSPropertyOp15
 70
     1
102
RTVSPropertyOp16
 70
     1
102
RTVSPropertyOp17
 70
     1
102
RTVSPropertyOp18
 70
     1
102
RTVSPropertyOp19
 70
     1
102
RTVSPropertyOp20
 70
     1
102
RTVSPropertyOp21
 70
     1
102
RTVSPropertyOp22
 70
     1
102
RTVSPropertyOp23
 70
     1
102
RTVSPropertyOp24
 70
     1
102
RTVSPropertyOp25
 70
     1
102
RTVSPropertyOp26
 70
     1
102
RTVSPropertyOp27
 70
     1
102
RTVSPropertyOp28
 70
     1
102
RTVSPropertyOp29
 70
     1
102
RTVSPropertyOp30
 70
     1
102
RTVSPropertyOp31
 70
     1
102
RTVSPropertyOp32
 70
     1
  0
XRECORD
  5
92
102
{ACAD_REACTORS
330
91
102
}
330
91
100
AcDbXrecord
280
     1
102
RTVSPropertyOp0
 70
     1
102
RTVSPropertyOp1
 70
     1
102
RTVSPropertyOp2
 70
     1
102
RTVSPropertyOp3
 70
     1
102
RTVSPropertyOp4
 70
     1
102
RTVSPropertyOp5
 70
     1
102
RTVSPropertyOp6
 70
     1
102
RTVSPropertyOp7
 70
     1
102
RTVSPropertyOp8
 70
     1
102
RTVSPropertyOp9
 70
     1
102
RTVSPropertyOp10
 70
     1
102
RTVSPropertyOp11
 70
     1
102
RTVSPropertyOp12
 70
     1
102
RTVSPropertyOp13
 70
     1
102
RTVSPropertyOp14
 70
     1
102
RTVSPropertyOp15
 70
     1
102
RTVSPropertyOp16
 70
     1
102
RTVSPropertyOp17
 70
     1
102
RTVSPropertyOp18
 70
     1
102
RTVSPropertyOp19
 70
     1
102
RTVSPropertyOp20
 70
     1
102
RTVSPropertyOp21
 70
     1
102
RTVSPropertyOp22
 70
     1
102
RTVSPropertyOp23
 70
     1
102
RTVSPropertyOp24
 70
     1
102
RTVSPropertyOp25
 70
     1
102
RTVSPropertyOp26
 70
     1
102
RTVSPropertyOp27
 70
     1
102
RTVSPropertyOp28
 70
     1
102
RTVSPropertyOp29
 70
     1
102
RTVSPropertyOp30
 70
     1
102
RTVSPropertyOp31
 70
     1
102
RTVSPropertyOp32
 70
     1
  0
XRECORD
  5
9A
102
{ACAD_REACTORS
330
99
102
}
330
99
100
AcDbXrecord
280
     1
102
RTVSPropertyOp0
 70
     1
102
RTVSPropertyOp1
 70
     1
102
RTVSPropertyOp2
 70
     1
102
RTVSPropertyOp3
 70
     1
102
RTVSPropertyOp4
 70
     1
102
RTVSPropertyOp5
 70
     1
102
RTVSPropertyOp6
 70
     1
102
RTVSPropertyOp7
 70
     1
102
RTVSPropertyOp8
 70
     1
102
RTVSPropertyOp9
 70
     1
102
RTVSPropertyOp10
 70
     1
102
RTVSPropertyOp11
 70
     1
102
RTVSPropertyOp12
 70
     1
102
RTVSPropertyOp13
 70
     1
102
RTVSPropertyOp14
 70
     1
102
RTVSPropertyOp15
 70
     1
102
RTVSPropertyOp16
 70
     1
102
RTVSPropertyOp17
 70
     1
102
RTVSPropertyOp18
 70
     1
102
RTVSPropertyOp19
 70
     1
102
RTVSPropertyOp20
 70
     1
102
RTVSPropertyOp21
 70
     1
102
RTVSPropertyOp22
 70
     1
102
RTVSPropertyOp23
 70
     1
102
RTVSPropertyOp24
 70
     1
102
RTVSPropertyOp25
 70
     1
102
RTVSPropertyOp26
 70
     1
102
RTVSPropertyOp27
 70
     1
102
RTVSPropertyOp28
 70
     1
102
RTVSPropertyOp29
 70
     1
102
RTVSPropertyOp30
 70
     1
102
RTVSPropertyOp31
 70
     1
102
RTVSPropertyOp32
 70
     1
  0
XRECORD
  5
7E
102
{ACAD_REACTORS
330
7D
102
}
330
7D
100
AcDbXrecord
280
     1
102
RTVSPropertyOp0
 70
     1
102
RTVSPropertyOp1
 70
     1
102
RTVSPropertyOp2
 70
     1
102
RTVSPropertyOp3
 70
     1
102
RTVSPropertyOp4
 70
     1
102
RTVSPropertyOp5
 70
     1
102
RTVSPropertyOp6
 70
     1
102
RTVSPropertyOp7
 70
     1
102
RTVSPropertyOp8
 70
     1
102
RTVSPropertyOp9
 70
     1
102
RTVSPropertyOp10
 70
     1
102
RTVSPropertyOp11
 70
     1
102
RTVSPropertyOp12
 70
     1
102
RTVSPropertyOp13
 70
     1
102
RTVSPropertyOp14
 70
     1
102
RTVSPropertyOp15
 70
     1
102
RTVSPropertyOp16
 70
     1
102
RTVSPropertyOp17
 70
     1
102
RTVSPropertyOp18
 70
     1
102
RTVSPropertyOp19
 70
     1
102
RTVSPropertyOp20
 70
     1
102
RTVSPropertyOp21
 70
     1
102
RTVSPropertyOp22
 70
     1
102
RTVSPropertyOp23
 70
     1
102
RTVSPropertyOp24
 70
     1
102
RTVSPropertyOp25
 70
     1
102
RTVSPropertyOp26
 70
     1
102
RTVSPropertyOp27
 70
     1
102
RTVSPropertyOp28
 70
     1
102
RTVSPropertyOp29
 70
     1
102
RTVSPropertyOp30
 70
     1
102
RTVSPropertyOp31
 70
     1
102
RTVSPropertyOp32
 70
     1
  0
XRECORD
  5
80
102
{ACAD_REACTORS
330
7F
102
}
330
7F
100
AcDbXrecord
280
     1
102
RTVSPropertyOp0
 70
     1
102
RTVSPropertyOp1
 70
     1
102
RTVSPropertyOp2
 70
     1
102
RTVSPropertyOp3
 70
     1
102
RTVSPropertyOp4
 70
     1
102
RTVSPropertyOp5
 70
     1
102
RTVSPropertyOp6
 70
     1
102
RTVSPropertyOp7
 70
     1
102
RTVSPropertyOp8
 70
     1
102
RTVSPropertyOp9
 70
     1
102
RTVSPropertyOp10
 70
     1
102
RTVSPropertyOp11
 70
     1
102
RTVSPropertyOp12
 70
     1
102
RTVSPropertyOp13
 70
     1
102
RTVSPropertyOp14
 70
     1
102
RTVSPropertyOp15
 70
     1
102
RTVSPropertyOp16
 70
     1
102
RTVSPropertyOp17
 70
     1
102
RTVSPropertyOp18
 70
     1
102
RTVSPropertyOp19
 70
     1
102
RTVSPropertyOp20
 70
     1
102
RTVSPropertyOp21
 70
     1
102
RTVSPropertyOp22
 70
     1
102
RTVSPropertyOp23
 70
     1
102
RTVSPropertyOp24
 70
     1
102
RTVSPropertyOp25
 70
     1
102
RTVSPropertyOp26
 70
     1
102
RTVSPropertyOp27
 70
     1
102
RTVSPropertyOp28
 70
     1
102
RTVSPropertyOp29
 70
     1
102
RTVSPropertyOp30
 70
     1
102
RTVSPropertyOp31
 70
     1
102
RTVSPropertyOp32
 70
     1
  0
XRECORD
  5
82
102
{ACAD_REACTORS
330
81
102
}
330
81
100
AcDbXrecord
280
     1
102
RTVSPropertyOp0
 70
     1
102
RTVSPropertyOp1
 70
     1
102
RTVSPropertyOp2
 70
     1
102
RTVSPropertyOp3
 70
     1
102
RTVSPropertyOp4
 70
     1
102
RTVSPropertyOp5
 70
     1
102
RTVSPropertyOp6
 70
     1
102
RTVSPropertyOp7
 70
     1
102
RTVSPropertyOp8
 70
     1
102
RTVSPropertyOp9
 70
     1
102
RTVSPropertyOp10
 70
     1
102
RTVSPropertyOp11
 70
     1
102
RTVSPropertyOp12
 70
     1
102
RTVSPropertyOp13
 70
     1
102
RTVSPropertyOp14
 70
     1
102
RTVSPropertyOp15
 70
     1
102
RTVSPropertyOp16
 70
     1
102
RTVSPropertyOp17
 70
     1
102
RTVSPropertyOp18
 70
     1
102
RTVSPropertyOp19
 70
     1
102
RTVSPropertyOp20
 70
     1
102
RTVSPropertyOp21
 70
     1
102
RTVSPropertyOp22
 70
     1
102
RTVSPropertyOp23
 70
     1
102
RTVSPropertyOp24
 70
     1
102
RTVSPropertyOp25
 70
     1
102
RTVSPropertyOp26
 70
     1
102
RTVSPropertyOp27
 70
     1
102
RTVSPropertyOp28
 70
     1
102
RTVSPropertyOp29
 70
     1
102
RTVSPropertyOp30
 70
     1
102
RTVSPropertyOp31
 70
     1
102
RTVSPropertyOp32
 70
     1
  0
XRECORD
  5
84
102
{ACAD_REACTORS
330
83
102
}
330
83
100
AcDbXrecord
280
     1
102
RTVSPropertyOp0
 70
     1
102
RTVSPropertyOp1
 70
     1
102
RTVSPropertyOp2
 70
     1
102
RTVSPropertyOp3
 70
     1
102
RTVSPropertyOp4
 70
     1
102
RTVSPropertyOp5
 70
     1
102
RTVSPropertyOp6
 70
     1
102
RTVSPropertyOp7
 70
     1
102
RTVSPropertyOp8
 70
     1
102
RTVSPropertyOp9
 70
     1
102
RTVSPropertyOp10
 70
     1
102
RTVSPropertyOp11
 70
     1
102
RTVSPropertyOp12
 70
     1
102
RTVSPropertyOp13
 70
     1
102
RTVSPropertyOp14
 70
     1
102
RTVSPropertyOp15
 70
     1
102
RTVSPropertyOp16
 70
     1
102
RTVSPropertyOp17
 70
     1
102
RTVSPropertyOp18
 70
     1
102
RTVSPropertyOp19
 70
     1
102
RTVSPropertyOp20
 70
     1
102
RTVSPropertyOp21
 70
     1
102
RTVSPropertyOp22
 70
     1
102
RTVSPropertyOp23
 70
     1
102
RTVSPropertyOp24
 70
     1
102
RTVSPropertyOp25
 70
     1
102
RTVSPropertyOp26
 70
     1
102
RTVSPropertyOp27
 70
     1
102
RTVSPropertyOp28
 70
     1
102
RTVSPropertyOp29
 70
     1
102
RTVSPropertyOp30
 70
     1
102
RTVSPropertyOp31
 70
     1
102
RTVSPropertyOp32
 70
     1
  0
XRECORD
  5
98
102
{ACAD_REACTORS
330
97
102
}
330
97
100
AcDbXrecord
280
     1
102
RTVSPropertyOp0
 70
     1
102
RTVSPropertyOp1
 70
     1
102
RTVSPropertyOp2
 70
     1
102
RTVSPropertyOp3
 70
     1
102
RTVSPropertyOp4
 70
     1
102
RTVSPropertyOp5
 70
     1
102
RTVSPropertyOp6
 70
     1
102
RTVSPropertyOp7
 70
     1
102
RTVSPropertyOp8
 70
     1
102
RTVSPropertyOp9
 70
     1
102
RTVSPropertyOp10
 70
     1
102
RTVSPropertyOp11
 70
     1
102
RTVSPropertyOp12
 70
     1
102
RTVSPropertyOp13
 70
     1
102
RTVSPropertyOp14
 70
     1
102
RTVSPropertyOp15
 70
     1
102
RTVSPropertyOp16
 70
     1
102
RTVSPropertyOp17
 70
     1
102
RTVSPropertyOp18
 70
     1
102
RTVSPropertyOp19
 70
     1
102
RTVSPropertyOp20
 70
     1
102
RTVSPropertyOp21
 70
     1
102
RTVSPropertyOp22
 70
     1
102
RTVSPropertyOp23
 70
     1
102
RTVSPropertyOp24
 70
     1
102
RTVSPropertyOp25
 70
     1
102
RTVSPropertyOp26
 70
     1
102
RTVSPropertyOp27
 70
     1
102
RTVSPropertyOp28
 70
     1
102
RTVSPropertyOp29
 70
     1
102
RTVSPropertyOp30
 70
     1
102
RTVSPropertyOp31
 70
     1
102
RTVSPropertyOp32
 70
     1
  0
XRECORD
  5
8E
102
{ACAD_REACTORS
330
8D
102
}
330
8D
100
AcDbXrecord
280
     1
102
RTVSPropertyOp0
 70
     1
102
RTVSPropertyOp1
 70
     1
102
RTVSPropertyOp2
 70
     1
102
RTVSPropertyOp3
 70
     1
102
RTVSPropertyOp4
 70
     1
102
RTVSPropertyOp5
 70
     1
102
RTVSPropertyOp6
 70
     1
102
RTVSPropertyOp7
 70
     1
102
RTVSPropertyOp8
 70
     1
102
RTVSPropertyOp9
 70
     1
102
RTVSPropertyOp10
 70
     1
102
RTVSPropertyOp11
 70
     1
102
RTVSPropertyOp12
 70
     1
102
RTVSPropertyOp13
 70
     1
102
RTVSPropertyOp14
 70
     1
102
RTVSPropertyOp15
 70
     1
102
RTVSPropertyOp16
 70
     1
102
RTVSPropertyOp17
 70
     1
102
RTVSPropertyOp18
 70
     1
102
RTVSPropertyOp19
 70
     1
102
RTVSPropertyOp20
 70
     1
102
RTVSPropertyOp21
 70
     1
102
RTVSPropertyOp22
 70
     1
102
RTVSPropertyOp23
 70
     1
102
RTVSPropertyOp24
 70
     1
102
RTVSPropertyOp25
 70
     1
102
RTVSPropertyOp26
 70
     1
102
RTVSPropertyOp27
 70
     1
102
RTVSPropertyOp28
 70
     1
102
RTVSPropertyOp29
 70
     1
102
RTVSPropertyOp30
 70
     1
102
RTVSPropertyOp31
 70
     1
102
RTVSPropertyOp32
 70
     1
  0
XRECORD
  5
96
102
{ACAD_REACTORS
330
95
102
}
330
95
100
AcDbXrecord
280
     1
102
RTVSPropertyOp0
 70
     1
102
RTVSPropertyOp1
 70
     1
102
RTVSPropertyOp2
 70
     1
102
RTVSPropertyOp3
 70
     1
102
RTVSPropertyOp4
 70
     1
102
RTVSPropertyOp5
 70
     1
102
RTVSPropertyOp6
 70
     1
102
RTVSPropertyOp7
 70
     1
102
RTVSPropertyOp8
 70
     1
102
RTVSPropertyOp9
 70
     1
102
RTVSPropertyOp10
 70
     1
102
RTVSPropertyOp11
 70
     1
102
RTVSPropertyOp12
 70
     1
102
RTVSPropertyOp13
 70
     1
102
RTVSPropertyOp14
 70
     1
102
RTVSPropertyOp15
 70
     1
102
RTVSPropertyOp16
 70
     1
102
RTVSPropertyOp17
 70
     1
102
RTVSPropertyOp18
 70
     1
102
RTVSPropertyOp19
 70
     1
102
RTVSPropertyOp20
 70
     1
102
RTVSPropertyOp21
 70
     1
102
RTVSPropertyOp22
 70
     1
102
RTVSPropertyOp23
 70
     1
102
RTVSPropertyOp24
 70
     1
102
RTVSPropertyOp25
 70
     1
102
RTVSPropertyOp26
 70
     1
102
RTVSPropertyOp27
 70
     1
102
RTVSPropertyOp28
 70
     1
102
RTVSPropertyOp29
 70
     1
102
RTVSPropertyOp30
 70
     1
102
RTVSPropertyOp31
 70
     1
102
RTVSPropertyOp32
 70
     1
  0
ENDSEC
  0
EOF
