  0
SECTION
  2
HEADER
  9
$ACADVER
  1
AC1021
  9
$ACADMAINTVER
 70
    25
  9
$DWGCODEPAGE
  3
ANSI_1252
  9
$INSBASE
 10
0.0
 20
0.0
 30
0.0
  9
$EXTMIN
 10
91.9299
 20
-114.8959
 30
0.0
  9
$EXTMAX
 10
196.5284
 20
131.8338
 30
0.0
  9
$LIMMIN
 10
0.0
 20
0.0
  9
$LIMMAX
 10
12.0
 20
9.0
  9
$ORTHOMODE
 70
     0
  9
$REGENMODE
 70
     1
  9
$FILLMODE
 70
     1
  9
$QTEXTMODE
 70
     0
  9
$MIRRTEXT
 70
     1
  9
$LTSCALE
 40
1.0
  9
$ATTMODE
 70
     1
  9
$TEXTSIZE
 40
0.2
  9
$TRACEWID
 40
0.05
  9
$TEXTSTYLE
  7
Standard
  9
$CLAYER
  8
0
  9
$CELTYPE
  6
ByLayer
  9
$CECOLOR
 62
   256
  9
$CELTSCALE
 40
1.0
  9
$DISPSILH
 70
     0
  9
$DIMSCALE
 40
1.0
  9
$DIMASZ
 40
0.18
  9
$DIMEXO
 40
0.0625
  9
$DIMDLI
 40
0.38
  9
$DIMRND
 40
0.0
  9
$DIMDLE
 40
0.0
  9
$DIMEXE
 40
0.18
  9
$DIMTP
 40
0.0
  9
$DIMTM
 40
0.0
  9
$DIMTXT
 40
0.18
  9
$DIMCEN
 40
0.09
  9
$DIMTSZ
 40
0.0
  9
$DIMTOL
 70
     0
  9
$DIMLIM
 70
     0
  9
$DIMTIH
 70
     1
  9
$DIMTOH
 70
     1
  9
$DIMSE1
 70
     0
  9
$DIMSE2
 70
     0
  9
$DIMTAD
 70
     0
  9
$DIMZIN
 70
     0
  9
$DIMBLK
  1

  9
$DIMASO
 70
     1
  9
$DIMSHO
 70
     1
  9
$DIMPOST
  1

  9
$DIMAPOST
  1

  9
$DIMALT
 70
     0
  9
$DIMALTD
 70
     2
  9
$DIMALTF
 40
25.4
  9
$DIMLFAC
 40
1.0
  9
$DIMTOFL
 70
     0
  9
$DIMTVP
 40
0.0
  9
$DIMTIX
 70
     0
  9
$DIMSOXD
 70
     0
  9
$DIMSAH
 70
     0
  9
$DIMBLK1
  1

  9
$DIMBLK2
  1

  9
$DIMSTYLE
  2
Standard
  9
$DIMCLRD
 70
     0
  9
$DIMCLRE
 70
     0
  9
$DIMCLRT
 70
     0
  9
$DIMTFAC
 40
1.0
  9
$DIMGAP
 40
0.09
  9
$DIMJUST
 70
     0
  9
$DIMSD1
 70
     0
  9
$DIMSD2
 70
     0
  9
$DIMTOLJ
 70
     1
  9
$DIMTZIN
 70
     0
  9
$DIMALTZ
 70
     0
  9
$DIMALTTZ
 70
     0
  9
$DIMUPT
 70
     0
  9
$DIMDEC
 70
     4
  9
$DIMTDEC
 70
     4
  9
$DIMALTU
 70
     2
  9
$DIMALTTD
 70
     2
  9
$DIMTXSTY
  7
Standard
  9
$DIMAUNIT
 70
     0
  9
$DIMADEC
 70
     0
  9
$DIMALTRND
 40
0.0
  9
$DIMAZIN
 70
     0
  9
$DIMDSEP
 70
    46
  9
$DIMATFIT
 70
     3
  9
$DIMFRAC
 70
     0
  9
$DIMLDRBLK
  1

  9
$DIMLUNIT
 70
     2
  9
$DIMLWD
 70
    -2
  9
$DIMLWE
 70
    -2
  9
$DIMTMOVE
 70
     0
  9
$DIMFXL
 40
1.0
  9
$DIMFXLON
 70
     0
  9
$DIMJOGANG
 40
0.7853981633974483
  9
$DIMTFILL
 70
     0
  9
$DIMTFILLCLR
 70
     0
  9
$DIMARCSYM
 70
     0
  9
$DIMLTYPE
  6

  9
$DIMLTEX1
  6

  9
$DIMLTEX2
  6

  9
$LUNITS
 70
     2
  9
$LUPREC
 70
     4
  9
$SKETCHINC
 40
0.1
  9
$FILLETRAD
 40
0.5
  9
$AUNITS
 70
     0
  9
$AUPREC
 70
     0
  9
$MENU
  1
.
  9
$ELEVATION
 40
0.0
  9
$PELEVATION
 40
0.0
  9
$THICKNESS
 40
0.0
  9
$LIMCHECK
 70
     0
  9
$CHAMFERA
 40
0.5
  9
$CHAMFERB
 40
0.5
  9
$CHAMFERC
 40
1.0
  9
$CHAMFERD
 40
0.0
  9
$SKPOLY
 70
     0
  9
$TDCREATE
 40
2458492.553484769
  9
$TDUCREATE
 40
2458492.553484769
  9
$TDUPDATE
 40
2458492.553484838
  9
$TDUUPDATE
 40
2458492.553484838
  9
$TDINDWG
 40
0.0000000116
  9
$TDUSRTIMER
 40
0.0000000116
  9
$USRTIMER
 70
     1
  9
$ANGBASE
 50
0.0
  9
$ANGDIR
 70
     0
  9
$PDMODE
 70
     0
  9
$PDSIZE
 40
0.0
  9
$PLINEWID
 40
0.0
  9
$SPLFRAME
 70
     0
  9
$SPLINETYPE
 70
     6
  9
$SPLINESEGS
 70
     8
  9
$HANDSEED
  5
8C
  9
$SURFTAB1
 70
     6
  9
$SURFTAB2
 70
     6
  9
$SURFTYPE
 70
     6
  9
$SURFU
 70
     6
  9
$SURFV
 70
     6
  9
$UCSBASE
  2

  9
$UCSNAME
  2

  9
$UCSORG
 10
0.0
 20
0.0
 30
0.0
  9
$UCSXDIR
 10
1.0
 20
0.0
 30
0.0
  9
$UCSYDIR
 10
0.0
 20
1.0
 30
0.0
  9
$UCSORTHOREF
  2

  9
$UCSORTHOVIEW
 70
     0
  9
$UCSORGTOP
 10
0.0
 20
0.0
 30
0.0
  9
$UCSORGBOTTOM
 10
0.0
 20
0.0
 30
0.0
  9
$UCSORGLEFT
 10
0.0
 20
0.0
 30
0.0
  9
$UCSORGRIGHT
 10
0.0
 20
0.0
 30
0.0
  9
$UCSORGFRONT
 10
0.0
 20
0.0
 30
0.0
  9
$UCSORGBACK
 10
0.0
 20
0.0
 30
0.0
  9
$PUCSBASE
  2

  9
$PUCSNAME
  2

  9
$PUCSORG
 10
0.0
 20
0.0
 30
0.0
  9
$PUCSXDIR
 10
1.0
 20
0.0
 30
0.0
  9
$PUCSYDIR
 10
0.0
 20
1.0
 30
0.0
  9
$PUCSORTHOREF
  2

  9
$PUCSORTHOVIEW
 70
     0
  9
$PUCSORGTOP
 10
0.0
 20
0.0
 30
0.0
  9
$PUCSORGBOTTOM
 10
0.0
 20
0.0
 30
0.0
  9
$PUCSORGLEFT
 10
0.0
 20
0.0
 30
0.0
  9
$PUCSORGRIGHT
 10
0.0
 20
0.0
 30
0.0
  9
$PUCSORGFRONT
 10
0.0
 20
0.0
 30
0.0
  9
$PUCSORGBACK
 10
0.0
 20
0.0
 30
0.0
  9
$USERI1
 70
     0
  9
$USERI2
 70
     0
  9
$USERI3
 70
     0
  9
$USERI4
 70
     0
  9
$USERI5
 70
     0
  9
$USERR1
 40
0.0
  9
$USERR2
 40
0.0
  9
$USERR3
 40
0.0
  9
$USERR4
 40
0.0
  9
$USERR5
 40
0.0
  9
$WORLDVIEW
 70
     1
  9
$SHADEDGE
 70
     3
  9
$SHADEDIF
 70
    70
  9
$TILEMODE
 70
     1
  9
$MAXACTVP
 70
    64
  9
$PINSBASE
 10
0.0
 20
0.0
 30
0.0
  9
$PLIMCHECK
 70
     0
  9
$PEXTMIN
 10
1.000000000000000E+20
 20
1.000000000000000E+20
 30
1.000000000000000E+20
  9
$PEXTMAX
 10
-1.000000000000000E+20
 20
-1.000000000000000E+20
 30
-1.000000000000000E+20
  9
$PLIMMIN
 10
0.0
 20
0.0
  9
$PLIMMAX
 10
12.0
 20
9.0
  9
$UNITMODE
 70
     0
  9
$VISRETAIN
 70
     1
  9
$PLINEGEN
 70
     0
  9
$PSLTSCALE
 70
     1
  9
$TREEDEPTH
 70
  3020
  9
$CMLSTYLE
  2
Standard
  9
$CMLJUST
 70
     0
  9
$CMLSCALE
 40
1.0
  9
$PROXYGRAPHICS
 70
     1
  9
$MEASUREMENT
 70
     0
  9
$CELWEIGHT
370
    -1
  9
$ENDCAPS
280
     0
  9
$JOINSTYLE
280
     0
  9
$LWDISPLAY
290
     0
  9
$INSUNITS
 70
     4
  9
$HYPERLINKBASE
  1

  9
$STYLESHEET
  1

  9
$XEDIT
290
     1
  9
$CEPSNTYPE
380
     0
  9
$PSTYLEMODE
290
     1
  9
$FINGERPRINTGUID
  2
{E4738996-31B0-47C9-8B73-796258589A1F}
  9
$VERSIONGUID
  2
{FAEB1C32-E019-11D5-929B-00C0DF256EC4}
  9
$EXTNAMES
290
     1
  9
$PSVPSCALE
 40
0.0
  9
$OLESTARTUP
290
     0
  9
$SORTENTS
280
   127
  9
$INDEXCTL
280
     0
  9
$HIDETEXT
280
     1
  9
$XCLIPFRAME
290
     0
  9
$HALOGAP
280
     0
  9
$OBSCOLOR
 70
   257
  9
$OBSLTYPE
280
     0
  9
$INTERSECTIONDISPLAY
280
     0
  9
$INTERSECTIONCOLOR
 70
   257
  9
$DIMASSOC
280
     2
  9
$PROJECTNAME
  1

  9
$CAMERADISPLAY
290
     0
  9
$LENSLENGTH
 40
50.0
  9
$CAMERAHEIGHT
 40
0.0
  9
$STEPSPERSEC
 40
2.0
  9
$STEPSIZE
 40
6.0
  9
$3DDWFPREC
 40
2.0
  9
$PSOLWIDTH
 40
0.25
  9
$PSOLHEIGHT
 40
4.0
  9
$LOFTANG1
 40
1.570796326794897
  9
$LOFTANG2
 40
1.570796326794897
  9
$LOFTMAG1
 40
0.0
  9
$LOFTMAG2
 40
0.0
  9
$LOFTPARAM
 70
     7
  9
$LOFTNORMALS
280
     1
  9
$LATITUDE
 40
37.795
  9
$LONGITUDE
 40
-122.394
  9
$NORTHDIRECTION
 40
0.0
  9
$TIMEZONE
 70
 -8000
  9
$LIGHTGLYPHDISPLAY
280
     1
  9
$TILEMODELIGHTSYNCH
280
     1
  9
$SOLIDHIST
280
     1
  9
$SHOWHIST
280
     1
  9
$DWFFRAME
280
     2
  9
$DGNFRAME
280
     2
  9
$REALWORLDSCALE
290
     1
  9
$INTERFERECOLOR
 62
   256
  9
$CSHADOW
280
     0
  9
$SHADOWPLANELOCATION
 40
0.0
  0
ENDSEC
  0
SECTION
  2
CLASSES
  0
CLASS
  1
ACDBDICTIONARYWDFLT
  2
AcDbDictionaryWithDefault
  3
ObjectDBX Classes
 90
        0
 91
        4
280
     0
281
     0
  0
CLASS
  1
VISUALSTYLE
  2
AcDbVisualStyle
  3
ObjectDBX Classes
 90
     4095
 91
        4
280
     0
281
     0
  0
CLASS
  1
MATERIAL
  2
AcDbMaterial
  3
ObjectDBX Classes
 90
     1153
 91
        4
280
     0
281
     0
  0
ENDSEC
  0
SECTION
  2
TABLES
  0
TABLE
  2
VPORT
  5
8
330
0
100
AcDbSymbolTable
 70
     1
  0
VPORT
  5
29
330
8
100
AcDbSymbolTableRecord
100
AcDbViewportTableRecord
  2
*Active
 70
     0
 10
0.0
 20
0.0
 11
1.0
 21
1.0
 12
10.42990654205607
 22
4.5
 13
0.0
 23
0.0
 14
0.5
 24
0.5
 15
0.5
 25
0.5
 16
0.0
 26
0.0
 36
1.0
 17
0.0
 27
0.0
 37
0.0
 40
9.0
 41
1.972972972850329
 42
50.0
 43
0.0
 44
0.0
 50
0.0
 51
0.0
 71
     0
 72
   100
 73
     1
 74
     3
 75
     0
 76
     0
 77
     0
 78
     0
281
     0
 65
     1
110
0.0
120
0.0
130
0.0
111
1.0
121
0.0
131
0.0
112
0.0
122
1.0
132
0.0
 79
     0
146
0.0
 60
     3
 61
     5
292
     1
282
     1
141
0.0
142
0.0
 63
   250
  0
ENDTAB
  0
TABLE
  2
LTYPE
  5
5
330
0
100
AcDbSymbolTable
 70
     1
  0
LTYPE
  5
14
330
5
100
AcDbSymbolTableRecord
100
AcDbLinetypeTableRecord
  2
ByBlock
 70
     0
  3

 72
    65
 73
     0
 40
0.0
  0
LTYPE
  5
15
330
5
100
AcDbSymbolTableRecord
100
AcDbLinetypeTableRecord
  2
ByLayer
 70
     0
  3

 72
    65
 73
     0
 40
0.0
  0
LTYPE
  5
16
330
5
100
AcDbSymbolTableRecord
100
AcDbLinetypeTableRecord
  2
Continuous
 70
     0
  3
Solid line
 72
    65
 73
     0
 40
0.0
  0
ENDTAB
  0
TABLE
  2
LAYER
  5
2
330
0
100
AcDbSymbolTable
 70
     3
  0
LAYER
  5
10
330
2
100
AcDbSymbolTableRecord
100
AcDbLayerTableRecord
  2
0
 70
     0
 62
     7
  6
Continuous
370
    -3
390
F
347
3E
  0
LAYER
  5
40
330
2
100
AcDbSymbolTableRecord
100
AcDbLayerTableRecord
  2
layer 1
 70
     0
 62
     7
  6
Continuous
370
    -3
390
F
347
3E
  0
LAYER
  5
69
330
2
100
AcDbSymbolTableRecord
100
AcDbLayerTableRecord
  2
Master Guides
 70
     0
 62
     7
  6
Continuous
370
    -3
390
F
347
3E
  0
ENDTAB
  0
TABLE
  2
STYLE
  5
3
330
0
100
AcDbSymbolTable
 70
     1
  0
STYLE
  5
11
330
3
100
AcDbSymbolTableRecord
100
AcDbTextStyleTableRecord
  2
Standard
 70
     0
 40
0.0
 41
1.0
 50
0.0
 71
     0
 42
0.2
  3
txt
  4

  0
ENDTAB
  0
TABLE
  2
VIEW
  5
6
330
0
100
AcDbSymbolTable
 70
     0
  0
ENDTAB
  0
TABLE
  2
UCS
  5
7
330
0
100
AcDbSymbolTable
 70
     0
  0
ENDTAB
  0
TABLE
  2
APPID
  5
9
330
0
100
AcDbSymbolTable
 70
     2
  0
APPID
  5
12
330
9
100
AcDbSymbolTableRecord
100
AcDbRegAppTableRecord
  2
ACAD
 70
     0
  0
APPID
  5
3F
330
9
100
AcDbSymbolTableRecord
100
AcDbRegAppTableRecord
  2
ODA
 70
     0
  0
ENDTAB
  0
TABLE
  2
DIMSTYLE
  5
A
330
0
100
AcDbSymbolTable
 70
     1
100
AcDbDimStyleTable
  0
DIMSTYLE
105
27
330
A
100
AcDbSymbolTableRecord
100
AcDbDimStyleTableRecord
  2
Standard
 70
     0
178
     0
340
11
  0
ENDTAB
  0
TABLE
  2
BLOCK_RECORD
  5
1
330
0
100
AcDbSymbolTable
 70
     1
  0
BLOCK_RECORD
  5
1F
330
1
100
AcDbSymbolTableRecord
100
AcDbBlockTableRecord
  2
*Model_Space
340
22
 70
     0
280
     1
281
     0
  0
BLOCK_RECORD
  5
1B
330
1
100
AcDbSymbolTableRecord
100
AcDbBlockTableRecord
  2
*Paper_Space
340
1E
 70
     0
280
     1
281
     0
  0
BLOCK_RECORD
  5
23
330
1
100
AcDbSymbolTableRecord
100
AcDbBlockTableRecord
  2
*Paper_Space0
340
26
 70
     0
280
     1
281
     0
  0
ENDTAB
  0
ENDSEC
  0
SECTION
  2
BLOCKS
  0
BLOCK
  5
20
330
1F
100
AcDbEntity
  8
0
100
AcDbBlockBegin
  2
*Model_Space
 70
     0
 10
0.0
 20
0.0
 30
0.0
  3
*Model_Space
  1

  0
ENDBLK
  5
21
330
1F
100
AcDbEntity
  8
0
100
AcDbBlockEnd
  0
BLOCK
  5
1C
330
1B
100
AcDbEntity
 67
     1
  8
0
100
AcDbBlockBegin
  2
*Paper_Space
 70
     0
 10
0.0
 20
0.0
 30
0.0
  3
*Paper_Space
  1

  0
ENDBLK
  5
1D
330
1B
100
AcDbEntity
 67
     1
  8
0
100
AcDbBlockEnd
  0
BLOCK
  5
24
330
23
100
AcDbEntity
  8
0
100
AcDbBlockBegin
  2
*Paper_Space0
 70
     0
 10
0.0
 20
0.0
 30
0.0
  3
*Paper_Space0
  1

  0
ENDBLK
  5
25
330
23
100
AcDbEntity
  8
0
100
AcDbBlockEnd
  0
ENDSEC
  0
SECTION
  2
ENTITIES
  0
SPLINE
  5
41
330
1F
100
AcDbEntity
  8
layer 1
100
AcDbSpline
210
0.0
220
0.0
230
1.0
 70
    11
 71
     3
 72
    20
 73
    16
 74
     0
 42
0.0000000001
 43
0.0000000001
 12
1.0
 22
0.0
 32
0.0
 13
1.0
 23
0.0
 33
0.0
 40
0.0
 40
0.0
 40
0.0
 40
0.0
 40
0.2
 40
0.2
 40
0.2
 40
0.2
 40
0.4
 40
0.4
 40
0.4
 40
0.4
 40
0.6
 40
0.6
 40
0.6
 40
0.6
 40
1.0
 40
1.0
 40
1.0
 40
1.0
 10
91.9299
 20
131.8338
 30
0.0
 10
91.9299
 20
131.8338
 30
0.0
 10
196.5284
 20
131.8338
 30
0.0
 10
196.5284
 20
131.8338
 30
0.0
 10
196.5284
 20
131.8338
 30
0.0
 10
196.5284
 20
131.8338
 30
0.0
 10
196.5284
 20
-114.8959
 30
0.0
 10
196.5284
 20
-114.8959
 30
0.0
 10
196.5284
 20
-114.8959
 30
0.0
 10
196.5284
 20
-114.8959
 30
0.0
 10
91.9299
 20
-114.8959
 30
0.0
 10
91.9299
 20
-114.8959
 30
0.0
 10
91.9299
 20
-114.8959
 30
0.0
 10
91.9299
 20
-114.8959
 30
0.0
 10
91.9299
 20
131.8338
 30
0.0
 10
91.9299
 20
131.8338
 30
0.0
  0
SPLINE
  5
42
330
1F
100
AcDbEntity
  8
layer 1
 62
     7
370
    25
100
AcDbSpline
210
0.0
220
0.0
230
1.0
 70
    11
 71
     3
 72
    16
 73
    12
 74
     0
 42
0.0000000001
 43
0.0000000001
 12
1.0
 22
0.0
 32
0.0
 13
1.0
 23
0.0
 33
0.0
 40
0.0
 40
0.0
 40
0.0
 40
0.0
 40
0.25
 40
0.25
 40
0.25
 40
0.25
 40
0.5
 40
0.5
 40
0.5
 40
0.5
 40
1.0
 40
1.0
 40
1.0
 40
1.0
 10
107.1363
 20
70.9436
 30
0.0
 10
102.1071
 20
70.2627
 30
0.0
 10
99.0401
 20
67.6943
 30
0.0
 10
97.2752
 20
62.9873
 30
0.0
 10
97.2752
 20
62.9873
 30
0.0
 10
97.2752
 20
62.9873
 30
0.0
 10
97.2752
 20
78.8999
 30
0.0
 10
97.2752
 20
78.8999
 30
0.0
 10
97.2752
 20
78.8999
 30
0.0
 10
98.8428
 20
74.207
 30
0.0
 10
102.3841
 20
71.7359
 30
0.0
 10
107.1363
 20
70.9436
 30
0.0
  0
SPLINE
  5
43
330
1F
100
AcDbEntity
  8
layer 1
 62
     7
370
    25
100
AcDbSpline
210
0.0
220
0.0
230
1.0
 70
    11
 71
     3
 72
    16
 73
    12
 74
     0
 42
0.0000000001
 43
0.0000000001
 12
1.0
 22
0.0
 32
0.0
 13
1.0
 23
0.0
 33
0.0
 40
0.0
 40
0.0
 40
0.0
 40
0.0
 40
0.25
 40
0.25
 40
0.25
 40
0.25
 40
0.5
 40
0.5
 40
0.5
 40
0.5
 40
1.0
 40
1.0
 40
1.0
 40
1.0
 10
116.6622
 20
71.1678
 30
0.0
 10
123.0276
 20
72.9634
 30
0.0
 10
127.1091
 20
75.8368
 30
0.0
 10
131.7899
 20
80.3563
 30
0.0
 10
131.7899
 20
80.3563
 30
0.0
 10
132.9918
 20
73.9271
 30
0.0
 10
133.1761
 20
68.4317
 30
0.0
 10
131.7899
 20
61.9783
 30
0.0
 10
131.7899
 20
61.9783
 30
0.0
 10
127.2943
 20
66.6955
 30
0.0
 10
122.6588
 20
68.9581
 30
0.0
 10
116.6622
 20
71.1678
 30
0.0
  0
SPLINE
  5
44
330
1F
100
AcDbEntity
  8
layer 1
 62
     7
370
    25
100
AcDbSpline
210
0.0
220
0.0
230
1.0
 70
    11
 71
     3
 72
    16
 73
    12
 74
     0
 42
0.0000000001
 43
0.0000000001
 12
1.0
 22
0.0
 32
0.0
 13
1.0
 23
0.0
 33
0.0
 40
0.0
 40
0.0
 40
0.0
 40
0.0
 40
0.25
 40
0.25
 40
0.25
 40
0.25
 40
0.5
 40
0.5
 40
0.5
 40
0.5
 40
1.0
 40
1.0
 40
1.0
 40
1.0
 10
97.2752
 20
126.7497
 30
0.0
 10
103.017
 20
124.4945
 30
0.0
 10
106.8259
 20
121.5445
 30
0.0
 10
110.4989
 20
116.5522
 30
0.0
 10
110.4989
 20
116.5522
 30
0.0
 10
104.5281
 20
117.0339
 30
0.0
 10
100.5152
 20
115.0605
 30
0.0
 10
97.2752
 20
110.0534
 30
0.0
 10
97.2752
 20
110.0534
 30
0.0
 10
97.2752
 20
110.0534
 30
0.0
 10
97.2752
 20
126.7497
 30
0.0
 10
97.2752
 20
126.7497
 30
0.0
  0
SPLINE
  5
45
330
1F
100
AcDbEntity
  8
layer 1
 62
     7
370
    25
100
AcDbSpline
210
0.0
220
0.0
230
1.0
 70
    11
 71
     3
 72
    44
 73
    40
 74
     0
 42
0.0000000001
 43
0.0000000001
 12
1.0
 22
0.0
 32
0.0
 13
1.0
 23
0.0
 33
0.0
 40
0.0
 40
0.0
 40
0.0
 40
0.0
 40
0.0909090909090909
 40
0.0909090909090909
 40
0.0909090909090909
 40
0.0909090909090909
 40
0.1818181818181818
 40
0.1818181818181818
 40
0.1818181818181818
 40
0.1818181818181818
 40
0.2727272727272727
 40
0.2727272727272727
 40
0.2727272727272727
 40
0.2727272727272727
 40
0.3636363636363636
 40
0.3636363636363636
 40
0.3636363636363636
 40
0.3636363636363636
 40
0.4545454545454545
 40
0.4545454545454545
 40
0.4545454545454545
 40
0.4545454545454545
 40
0.5454545454545454
 40
0.5454545454545454
 40
0.5454545454545454
 40
0.5454545454545454
 40
0.6363636363636364
 40
0.6363636363636364
 40
0.6363636363636364
 40
0.6363636363636364
 40
0.7272727272727273
 40
0.7272727272727273
 40
0.7272727272727273
 40
0.7272727272727273
 40
0.8181818181818182
 40
0.8181818181818182
 40
0.8181818181818182
 40
0.8181818181818182
 40
1.0
 40
1.0
 40
1.0
 40
1.0
 10
104.3353
 20
91.1147
 30
0.0
 10
107.2253
 20
91.1147
 30
0.0
 10
107.6162
 20
87.5446
 30
0.0
 10
104.8951
 20
86.9682
 30
0.0
 10
104.8951
 20
86.9682
 30
0.0
 10
100.9099
 20
85.7713
 30
0.0
 10
100.5838
 20
80.7549
 30
0.0
 10
104.2234
 20
78.6756
 30
0.0
 10
104.2234
 20
78.6756
 30
0.0
 10
115.6477
 20
75.1287
 30
0.0
 10
123.7995
 20
80.4953
 30
0.0
 10
131.1175
 20
88.9853
 30
0.0
 10
131.1175
 20
88.9853
 30
0.0
 10
128.8224
 20
97.2882
 30
0.0
 10
125.2367
 20
103.0357
 30
0.0
 10
119.0147
 20
108.9322
 30
0.0
 10
119.0147
 20
108.9322
 30
0.0
 10
115.166
 20
111.2774
 30
0.0
 10
112.1417
 20
111.696
 30
0.0
 10
107.809
 20
110.613
 30
0.0
 10
107.809
 20
110.613
 30
0.0
 10
104.0537
 20
109.931
 30
0.0
 10
102.7909
 20
105.6586
 30
0.0
 10
105.4556
 20
102.993
 30
0.0
 10
105.4556
 20
102.993
 30
0.0
 10
107.9248
 20
102.2129
 30
0.0
 10
107.6331
 20
99.0107
 30
0.0
 10
105.2314
 20
98.7346
 30
0.0
 10
105.2314
 20
98.7346
 30
0.0
 10
102.3267
 20
98.8337
 30
0.0
 10
98.0859
 20
101.5134
 30
0.0
 10
97.2752
 20
106.0192
 30
0.0
 10
97.2752
 20
106.0192
 30
0.0
 10
97.2752
 20
106.0192
 30
0.0
 10
97.2752
 20
85.736
 30
0.0
 10
97.2752
 20
85.736
 30
0.0
 10
97.2752
 20
85.736
 30
0.0
 10
98.4239
 20
88.8947
 30
0.0
 10
100.8774
 20
91.0388
 30
0.0
 10
104.3353
 20
91.1147
 30
0.0
  0
SPLINE
  5
46
330
1F
100
AcDbEntity
  8
layer 1
 62
     7
370
    25
100
AcDbSpline
210
0.0
220
0.0
230
1.0
 70
    11
 71
     3
 72
    16
 73
    12
 74
     0
 42
0.0000000001
 43
0.0000000001
 12
1.0
 22
0.0
 32
0.0
 13
1.0
 23
0.0
 33
0.0
 40
0.0
 40
0.0
 40
0.0
 40
0.0
 40
0.25
 40
0.25
 40
0.25
 40
0.25
 40
0.5
 40
0.5
 40
0.5
 40
0.5
 40
1.0
 40
1.0
 40
1.0
 40
1.0
 10
126.8598
 20
108.0363
 30
0.0
 10
130.7681
 20
113.6197
 30
0.0
 10
137.2798
 20
113.5445
 30
0.0
 10
140.8675
 20
107.7
 30
0.0
 10
140.8675
 20
107.7
 30
0.0
 10
142.2027
 20
102.0258
 30
0.0
 10
140.9628
 20
97.5439
 30
0.0
 10
135.8242
 20
94.364
 30
0.0
 10
135.8242
 20
94.364
 30
0.0
 10
133.91
 20
100.0105
 30
0.0
 10
131.0164
 20
103.8787
 30
0.0
 10
126.8598
 20
108.0363
 30
0.0
  0
SPLINE
  5
47
330
1F
100
AcDbEntity
  8
layer 1
 62
     7
370
    25
100
AcDbSpline
210
0.0
220
0.0
230
1.0
 70
    11
 71
     3
 72
    24
 73
    20
 74
     0
 42
0.0000000001
 43
0.0000000001
 12
1.0
 22
0.0
 32
0.0
 13
1.0
 23
0.0
 33
0.0
 40
0.0
 40
0.0
 40
0.0
 40
0.0
 40
0.1666666666666667
 40
0.1666666666666667
 40
0.1666666666666667
 40
0.1666666666666667
 40
0.3333333333333333
 40
0.3333333333333333
 40
0.3333333333333333
 40
0.3333333333333333
 40
0.5
 40
0.5
 40
0.5
 40
0.5
 40
0.6666666666666666
 40
0.6666666666666666
 40
0.6666666666666666
 40
0.6666666666666666
 40
1.0
 40
1.0
 40
1.0
 40
1.0
 10
108.0332
 20
126.7497
 30
0.0
 10
113.3886
 20
122.7713
 30
0.0
 10
118.3105
 20
118.3978
 30
0.0
 10
122.2651
 20
112.9664
 30
0.0
 10
122.2651
 20
112.9664
 30
0.0
 10
129.1437
 20
119.8461
 30
0.0
 10
136.773
 20
119.9934
 30
0.0
 10
144.229
 20
113.8633
 30
0.0
 10
144.229
 20
113.8633
 30
0.0
 10
151.6848
 20
119.9934
 30
0.0
 10
159.3143
 20
119.8461
 30
0.0
 10
166.193
 20
112.9664
 30
0.0
 10
166.193
 20
112.9664
 30
0.0
 10
170.1474
 20
118.3978
 30
0.0
 10
175.0692
 20
122.7713
 30
0.0
 10
180.4249
 20
126.7497
 30
0.0
 10
180.4249
 20
126.7497
 30
0.0
 10
180.4249
 20
126.7497
 30
0.0
 10
108.0332
 20
126.7497
 30
0.0
 10
108.0332
 20
126.7497
 30
0.0
  0
SPLINE
  5
48
330
1F
100
AcDbEntity
  8
layer 1
 62
     7
370
    25
100
AcDbSpline
210
0.0
220
0.0
230
1.0
 70
    24
 71
     3
 72
     8
 73
     4
 74
     0
 42
0.0000000001
 43
0.0000000001
 12
1.0
 22
0.0
 32
0.0
 13
1.0
 23
0.0
 33
0.0
 40
0.0
 40
0.0
 40
0.0
 40
0.0
 40
1.0
 40
1.0
 40
1.0
 40
1.0
 10
105.4556
 20
23.317
 30
0.0
 10
105.4556
 20
23.317
 30
0.0
 10
105.4556
 20
40.575
 30
0.0
 10
105.4556
 20
40.575
 30
0.0
  0
SPLINE
  5
49
330
1F
100
AcDbEntity
  8
layer 1
 62
     7
370
    25
100
AcDbSpline
210
0.0
220
0.0
230
1.0
 70
    11
 71
     3
 72
    24
 73
    20
 74
     0
 42
0.0000000001
 43
0.0000000001
 12
1.0
 22
0.0
 32
0.0
 13
1.0
 23
0.0
 33
0.0
 40
0.0
 40
0.0
 40
0.0
 40
0.0
 40
0.1666666666666667
 40
0.1666666666666667
 40
0.1666666666666667
 40
0.1666666666666667
 40
0.3333333333333333
 40
0.3333333333333333
 40
0.3333333333333333
 40
0.3333333333333333
 40
0.5
 40
0.5
 40
0.5
 40
0.5
 40
0.6666666666666666
 40
0.6666666666666666
 40
0.6666666666666666
 40
0.6666666666666666
 40
1.0
 40
1.0
 40
1.0
 40
1.0
 10
105.4556
 20
23.317
 30
0.0
 10
105.4556
 20
23.317
 30
0.0
 10
102.8779
 20
22.0846
 30
0.0
 10
102.8779
 20
22.0846
 30
0.0
 10
102.8779
 20
22.0846
 30
0.0
 10
102.8779
 20
22.0846
 30
0.0
 10
100.5255
 20
20.1796
 30
0.0
 10
100.5255
 20
20.1796
 30
0.0
 10
100.5255
 20
20.1796
 30
0.0
 10
100.5255
 20
20.1796
 30
0.0
 10
98.6196
 20
18.0506
 30
0.0
 10
98.6196
 20
18.0506
 30
0.0
 10
98.6196
 20
18.0506
 30
0.0
 10
98.6196
 20
18.0506
 30
0.0
 10
97.2752
 20
15.4727
 30
0.0
 10
97.2752
 20
15.4727
 30
0.0
 10
97.2752
 20
15.4727
 30
0.0
 10
97.2752
 20
15.4727
 30
0.0
 10
105.4556
 20
23.317
 30
0.0
 10
105.4556
 20
23.317
 30
0.0
  0
SPLINE
  5
4A
330
1F
100
AcDbEntity
  8
layer 1
 62
     7
370
    25
100
AcDbSpline
210
0.0
220
0.0
230
1.0
 70
    11
 71
     3
 72
    44
 73
    40
 74
     0
 42
0.0000000001
 43
0.0000000001
 12
1.0
 22
0.0
 32
0.0
 13
1.0
 23
0.0
 33
0.0
 40
0.0
 40
0.0
 40
0.0
 40
0.0
 40
0.0909090909090909
 40
0.0909090909090909
 40
0.0909090909090909
 40
0.0909090909090909
 40
0.1818181818181818
 40
0.1818181818181818
 40
0.1818181818181818
 40
0.1818181818181818
 40
0.2727272727272727
 40
0.2727272727272727
 40
0.2727272727272727
 40
0.2727272727272727
 40
0.3636363636363636
 40
0.3636363636363636
 40
0.3636363636363636
 40
0.3636363636363636
 40
0.4545454545454545
 40
0.4545454545454545
 40
0.4545454545454545
 40
0.4545454545454545
 40
0.5454545454545454
 40
0.5454545454545454
 40
0.5454545454545454
 40
0.5454545454545454
 40
0.6363636363636364
 40
0.6363636363636364
 40
0.6363636363636364
 40
0.6363636363636364
 40
0.7272727272727273
 40
0.7272727272727273
 40
0.7272727272727273
 40
0.7272727272727273
 40
0.8181818181818182
 40
0.8181818181818182
 40
0.8181818181818182
 40
0.8181818181818182
 40
1.0
 40
1.0
 40
1.0
 40
1.0
 10
126.1871
 20
59.6248
 30
0.0
 10
122.4866
 20
62.9373
 30
0.0
 10
118.658
 20
63.8517
 30
0.0
 10
113.8604
 20
64.3317
 30
0.0
 10
113.8604
 20
64.3317
 30
0.0
 10
110.5285
 20
64.8951
 30
0.0
 10
107.4013
 20
64.1195
 30
0.0
 10
104.2234
 20
63.2115
 30
0.0
 10
104.2234
 20
63.2115
 30
0.0
 10
100.4495
 20
61.174
 30
0.0
 10
100.7477
 20
56.4411
 30
0.0
 10
104.8951
 20
54.9188
 30
0.0
 10
104.8951
 20
54.9188
 30
0.0
 10
107.3799
 20
54.2101
 30
0.0
 10
107.4829
 20
50.9088
 30
0.0
 10
104.3353
 20
50.6604
 30
0.0
 10
104.3353
 20
50.6604
 30
0.0
 10
100.909
 20
51.1023
 30
0.0
 10
98.2877
 20
52.7933
 30
0.0
 10
97.2752
 20
56.1513
 30
0.0
 10
97.2752
 20
56.1513
 30
0.0
 10
97.2752
 20
56.1513
 30
0.0
 10
97.2752
 20
15.4727
 30
0.0
 10
97.2752
 20
15.4727
 30
0.0
 10
97.2752
 20
15.4727
 30
0.0
 10
99.32
 20
19.3931
 30
0.0
 10
101.3094
 20
21.5407
 30
0.0
 10
105.4556
 20
23.317
 30
0.0
 10
105.4556
 20
23.317
 30
0.0
 10
105.4556
 20
23.317
 30
0.0
 10
105.4556
 20
40.575
 30
0.0
 10
105.4556
 20
40.575
 30
0.0
 10
105.4556
 20
40.575
 30
0.0
 10
114.1949
 20
40.3277
 30
0.0
 10
120.1044
 20
43.2333
 30
0.0
 10
126.1871
 20
49.315
 30
0.0
 10
126.1871
 20
49.315
 30
0.0
 10
129.3328
 20
52.6823
 30
0.0
 10
129.5078
 20
56.305
 30
0.0
 10
126.1871
 20
59.6248
 30
0.0
  0
SPLINE
  5
4B
330
1F
100
AcDbEntity
  8
layer 1
 62
     7
370
    25
100
AcDbSpline
210
0.0
220
0.0
230
1.0
 70
    11
 71
     3
 72
    76
 73
    72
 74
     0
 42
0.0000000001
 43
0.0000000001
 12
1.0
 22
0.0
 32
0.0
 13
1.0
 23
0.0
 33
0.0
 40
0.0
 40
0.0
 40
0.0
 40
0.0
 40
0.0526315789473684
 40
0.0526315789473684
 40
0.0526315789473684
 40
0.0526315789473684
 40
0.1052631578947368
 40
0.1052631578947368
 40
0.1052631578947368
 40
0.1052631578947368
 40
0.1578947368421053
 40
0.1578947368421053
 40
0.1578947368421053
 40
0.1578947368421053
 40
0.2105263157894737
 40
0.2105263157894737
 40
0.2105263157894737
 40
0.2105263157894737
 40
0.2631578947368421
 40
0.2631578947368421
 40
0.2631578947368421
 40
0.2631578947368421
 40
0.3157894736842105
 40
0.3157894736842105
 40
0.3157894736842105
 40
0.3157894736842105
 40
0.3684210526315789
 40
0.3684210526315789
 40
0.3684210526315789
 40
0.3684210526315789
 40
0.4210526315789473
 40
0.4210526315789473
 40
0.4210526315789473
 40
0.4210526315789473
 40
0.4736842105263158
 40
0.4736842105263158
 40
0.4736842105263158
 40
0.4736842105263158
 40
0.5263157894736842
 40
0.5263157894736842
 40
0.5263157894736842
 40
0.5263157894736842
 40
0.5789473684210527
 40
0.5789473684210527
 40
0.5789473684210527
 40
0.5789473684210527
 40
0.631578947368421
 40
0.631578947368421
 40
0.631578947368421
 40
0.631578947368421
 40
0.6842105263157895
 40
0.6842105263157895
 40
0.6842105263157895
 40
0.6842105263157895
 40
0.7368421052631579
 40
0.7368421052631579
 40
0.7368421052631579
 40
0.7368421052631579
 40
0.7894736842105263
 40
0.7894736842105263
 40
0.7894736842105263
 40
0.7894736842105263
 40
0.8421052631578947
 40
0.8421052631578947
 40
0.8421052631578947
 40
0.8421052631578947
 40
0.8947368421052632
 40
0.8947368421052632
 40
0.8947368421052632
 40
0.8947368421052632
 40
1.0
 40
1.0
 40
1.0
 40
1.0
 10
166.0808
 20
17.8262
 30
0.0
 10
164.0665
 20
19.1687
 30
0.0
 10
161.6787
 20
17.5724
 30
0.0
 10
162.7193
 20
15.2485
 30
0.0
 10
162.7193
 20
15.2485
 30
0.0
 10
163.0399
 20
14.4553
 30
0.0
 10
162.419
 20
13.7383
 30
0.0
 10
161.7103
 20
13.9041
 30
0.0
 10
161.7103
 20
13.9041
 30
0.0
 10
161.7103
 20
13.9041
 30
0.0
 10
158.7972
 20
14.5768
 30
0.0
 10
158.7972
 20
14.5768
 30
0.0
 10
158.7972
 20
14.5768
 30
0.0
 10
156.4252
 20
15.1449
 30
0.0
 10
154.7862
 20
16.5449
 30
0.0
 10
153.4185
 20
18.4988
 30
0.0
 10
153.4185
 20
18.4988
 30
0.0
 10
147.1069
 20
29.1154
 30
0.0
 10
147.9741
 20
38.8293
 30
0.0
 10
156.7801
 20
47.6342
 30
0.0
 10
156.7801
 20
47.6342
 30
0.0
 10
161.2304
 20
39.9209
 30
0.0
 10
166.8479
 20
36.2953
 30
0.0
 10
175.8308
 20
35.8681
 30
0.0
 10
175.8308
 20
35.8681
 30
0.0
 10
175.8308
 20
35.8681
 30
0.0
 10
175.8308
 20
19.6191
 30
0.0
 10
175.8308
 20
19.6191
 30
0.0
 10
175.8308
 20
19.6191
 30
0.0
 10
182.201
 20
18.6815
 30
0.0
 10
186.1313
 20
14.9641
 30
0.0
 10
186.476
 20
8.469
 30
0.0
 10
186.476
 20
8.469
 30
0.0
 10
186.1313
 20
1.9738
 30
0.0
 10
182.201
 20
-1.7435
 30
0.0
 10
175.8308
 20
-2.6812
 30
0.0
 10
175.8308
 20
-2.6812
 30
0.0
 10
175.8308
 20
-2.6812
 30
0.0
 10
175.8308
 20
-18.9301
 30
0.0
 10
175.8308
 20
-18.9301
 30
0.0
 10
175.8308
 20
-18.9301
 30
0.0
 10
166.8479
 20
-19.3571
 30
0.0
 10
161.2304
 20
-22.9829
 30
0.0
 10
156.7801
 20
-30.6963
 30
0.0
 10
156.7801
 20
-30.6963
 30
0.0
 10
147.9741
 20
-21.8913
 30
0.0
 10
147.1069
 20
-12.1774
 30
0.0
 10
153.4185
 20
-1.56
 30
0.0
 10
153.4185
 20
-1.56
 30
0.0
 10
154.7862
 20
0.3931
 30
0.0
 10
156.4252
 20
1.794
 30
0.0
 10
158.7972
 20
2.3621
 30
0.0
 10
158.7972
 20
2.3621
 30
0.0
 10
158.7972
 20
2.3621
 30
0.0
 10
161.7103
 20
3.0339
 30
0.0
 10
161.7103
 20
3.0339
 30
0.0
 10
161.7103
 20
3.0339
 30
0.0
 10
162.419
 20
3.1997
 30
0.0
 10
163.0399
 20
2.4826
 30
0.0
 10
162.7193
 20
1.6894
 30
0.0
 10
162.7193
 20
1.6894
 30
0.0
 10
161.6787
 20
-0.6344
 30
0.0
 10
164.0665
 20
-2.2307
 30
0.0
 10
166.0808
 20
-0.8882
 30
0.0
 10
166.0808
 20
-0.8882
 30
0.0
 10
169.3553
 20
2.161
 30
0.0
 10
168.991
 20
5.5031
 30
0.0
 10
165.9686
 20
8.469
 30
0.0
 10
165.9686
 20
8.469
 30
0.0
 10
168.991
 20
11.4349
 30
0.0
 10
169.3553
 20
14.777
 30
0.0
 10
166.0808
 20
17.8262
 30
0.0
  0
SPLINE
  5
4C
330
1F
100
AcDbEntity
  8
layer 1
 62
     7
370
    25
100
AcDbSpline
210
0.0
220
0.0
230
1.0
 70
    11
 71
     3
 72
    16
 73
    12
 74
     0
 42
0.0000000001
 43
0.0000000001
 12
1.0
 22
0.0
 32
0.0
 13
1.0
 23
0.0
 33
0.0
 40
0.0
 40
0.0
 40
0.0
 40
0.0
 40
0.25
 40
0.25
 40
0.25
 40
0.25
 40
0.5
 40
0.5
 40
0.5
 40
0.5
 40
1.0
 40
1.0
 40
1.0
 40
1.0
 10
181.3217
 20
70.9436
 30
0.0
 10
186.351
 20
70.2627
 30
0.0
 10
189.418
 20
67.6943
 30
0.0
 10
191.1829
 20
62.9873
 30
0.0
 10
191.1829
 20
62.9873
 30
0.0
 10
191.1829
 20
62.9873
 30
0.0
 10
191.1829
 20
78.8999
 30
0.0
 10
191.1829
 20
78.8999
 30
0.0
 10
191.1829
 20
78.8999
 30
0.0
 10
189.6153
 20
74.207
 30
0.0
 10
186.0739
 20
71.7359
 30
0.0
 10
181.3217
 20
70.9436
 30
0.0
  0
SPLINE
  5
4D
330
1F
100
AcDbEntity
  8
layer 1
 62
     7
370
    25
100
AcDbSpline
210
0.0
220
0.0
230
1.0
 70
    11
 71
     3
 72
    16
 73
    12
 74
     0
 42
0.0000000001
 43
0.0000000001
 12
1.0
 22
0.0
 32
0.0
 13
1.0
 23
0.0
 33
0.0
 40
0.0
 40
0.0
 40
0.0
 40
0.0
 40
0.25
 40
0.25
 40
0.25
 40
0.25
 40
0.5
 40
0.5
 40
0.5
 40
0.5
 40
1.0
 40
1.0
 40
1.0
 40
1.0
 10
171.7959
 20
71.1678
 30
0.0
 10
165.4304
 20
72.9634
 30
0.0
 10
161.349
 20
75.8368
 30
0.0
 10
156.6679
 20
80.3563
 30
0.0
 10
156.6679
 20
80.3563
 30
0.0
 10
155.4662
 20
73.9271
 30
0.0
 10
155.2819
 20
68.4317
 30
0.0
 10
156.6679
 20
61.9783
 30
0.0
 10
156.6679
 20
61.9783
 30
0.0
 10
161.1635
 20
66.6955
 30
0.0
 10
165.7999
 20
68.9581
 30
0.0
 10
171.7959
 20
71.1678
 30
0.0
  0
SPLINE
  5
4E
330
1F
100
AcDbEntity
  8
layer 1
 62
     7
370
    25
100
AcDbSpline
210
0.0
220
0.0
230
1.0
 70
    11
 71
     3
 72
    28
 73
    24
 74
     0
 42
0.0000000001
 43
0.0000000001
 12
1.0
 22
0.0
 32
0.0
 13
1.0
 23
0.0
 33
0.0
 40
0.0
 40
0.0
 40
0.0
 40
0.0
 40
0.1428571428571428
 40
0.1428571428571428
 40
0.1428571428571428
 40
0.1428571428571428
 40
0.2857142857142857
 40
0.2857142857142857
 40
0.2857142857142857
 40
0.2857142857142857
 40
0.4285714285714285
 40
0.4285714285714285
 40
0.4285714285714285
 40
0.4285714285714285
 40
0.5714285714285714
 40
0.5714285714285714
 40
0.5714285714285714
 40
0.5714285714285714
 40
0.7142857142857143
 40
0.7142857142857143
 40
0.7142857142857143
 40
0.7142857142857143
 40
1.0
 40
1.0
 40
1.0
 40
1.0
 10
152.0731
 20
55.5906
 30
0.0
 10
149.7585
 20
65.7808
 30
0.0
 10
150.0524
 20
74.7267
 30
0.0
 10
151.6248
 20
84.9513
 30
0.0
 10
151.6248
 20
84.9513
 30
0.0
 10
148.6421
 20
87.8911
 30
0.0
 10
146.3785
 20
91.3018
 30
0.0
 10
144.229
 20
94.9245
 30
0.0
 10
144.229
 20
94.9245
 30
0.0
 10
142.0793
 20
91.3018
 30
0.0
 10
139.8157
 20
87.8911
 30
0.0
 10
136.8332
 20
84.9513
 30
0.0
 10
136.8332
 20
84.9513
 30
0.0
 10
138.4056
 20
74.7267
 30
0.0
 10
138.6993
 20
65.7808
 30
0.0
 10
136.3849
 20
55.5906
 30
0.0
 10
136.3849
 20
55.5906
 30
0.0
 10
140.2994
 20
52.4588
 30
0.0
 10
142.9181
 20
49.1234
 30
0.0
 10
144.229
 20
44.1608
 30
0.0
 10
144.229
 20
44.1608
 30
0.0
 10
145.54
 20
49.1234
 30
0.0
 10
148.1584
 20
52.4588
 30
0.0
 10
152.0731
 20
55.5906
 30
0.0
  0
SPLINE
  5
4F
330
1F
100
AcDbEntity
  8
layer 1
 62
     7
370
    25
100
AcDbSpline
210
0.0
220
0.0
230
1.0
 70
    11
 71
     3
 72
    16
 73
    12
 74
     0
 42
0.0000000001
 43
0.0000000001
 12
1.0
 22
0.0
 32
0.0
 13
1.0
 23
0.0
 33
0.0
 40
0.0
 40
0.0
 40
0.0
 40
0.0
 40
0.25
 40
0.25
 40
0.25
 40
0.25
 40
0.5
 40
0.5
 40
0.5
 40
0.5
 40
1.0
 40
1.0
 40
1.0
 40
1.0
 10
191.1829
 20
126.7497
 30
0.0
 10
185.4411
 20
124.4945
 30
0.0
 10
181.632
 20
121.5445
 30
0.0
 10
177.9592
 20
116.5522
 30
0.0
 10
177.9592
 20
116.5522
 30
0.0
 10
183.9299
 20
117.0339
 30
0.0
 10
187.9428
 20
115.0605
 30
0.0
 10
191.1829
 20
110.0534
 30
0.0
 10
191.1829
 20
110.0534
 30
0.0
 10
191.1829
 20
110.0534
 30
0.0
 10
191.1829
 20
126.7497
 30
0.0
 10
191.1829
 20
126.7497
 30
0.0
  0
SPLINE
  5
50
330
1F
100
AcDbEntity
  8
layer 1
 62
     7
370
    25
100
AcDbSpline
210
0.0
220
0.0
230
1.0
 70
    11
 71
     3
 72
    44
 73
    40
 74
     0
 42
0.0000000001
 43
0.0000000001
 12
1.0
 22
0.0
 32
0.0
 13
1.0
 23
0.0
 33
0.0
 40
0.0
 40
0.0
 40
0.0
 40
0.0
 40
0.0909090909090909
 40
0.0909090909090909
 40
0.0909090909090909
 40
0.0909090909090909
 40
0.1818181818181818
 40
0.1818181818181818
 40
0.1818181818181818
 40
0.1818181818181818
 40
0.2727272727272727
 40
0.2727272727272727
 40
0.2727272727272727
 40
0.2727272727272727
 40
0.3636363636363636
 40
0.3636363636363636
 40
0.3636363636363636
 40
0.3636363636363636
 40
0.4545454545454545
 40
0.4545454545454545
 40
0.4545454545454545
 40
0.4545454545454545
 40
0.5454545454545454
 40
0.5454545454545454
 40
0.5454545454545454
 40
0.5454545454545454
 40
0.6363636363636364
 40
0.6363636363636364
 40
0.6363636363636364
 40
0.6363636363636364
 40
0.7272727272727273
 40
0.7272727272727273
 40
0.7272727272727273
 40
0.7272727272727273
 40
0.8181818181818182
 40
0.8181818181818182
 40
0.8181818181818182
 40
0.8181818181818182
 40
1.0
 40
1.0
 40
1.0
 40
1.0
 10
184.1225
 20
91.1147
 30
0.0
 10
181.2327
 20
91.1147
 30
0.0
 10
180.8416
 20
87.5446
 30
0.0
 10
183.563
 20
86.9682
 30
0.0
 10
183.563
 20
86.9682
 30
0.0
 10
187.5481
 20
85.7713
 30
0.0
 10
187.8743
 20
80.7549
 30
0.0
 10
184.2347
 20
78.6756
 30
0.0
 10
184.2347
 20
78.6756
 30
0.0
 10
172.8103
 20
75.1287
 30
0.0
 10
164.6595
 20
80.4953
 30
0.0
 10
157.3406
 20
88.9853
 30
0.0
 10
157.3406
 20
88.9853
 30
0.0
 10
159.6357
 20
97.2882
 30
0.0
 10
163.2214
 20
103.0357
 30
0.0
 10
169.4433
 20
108.9322
 30
0.0
 10
169.4433
 20
108.9322
 30
0.0
 10
173.2921
 20
111.2774
 30
0.0
 10
176.3164
 20
111.696
 30
0.0
 10
180.649
 20
110.613
 30
0.0
 10
180.649
 20
110.613
 30
0.0
 10
184.4043
 20
109.931
 30
0.0
 10
185.6681
 20
105.6586
 30
0.0
 10
183.0025
 20
102.993
 30
0.0
 10
183.0025
 20
102.993
 30
0.0
 10
180.5333
 20
102.2129
 30
0.0
 10
180.825
 20
99.0107
 30
0.0
 10
183.2266
 20
98.7346
 30
0.0
 10
183.2266
 20
98.7346
 30
0.0
 10
186.1313
 20
98.8337
 30
0.0
 10
190.3731
 20
101.5134
 30
0.0
 10
191.1829
 20
106.0192
 30
0.0
 10
191.1829
 20
106.0192
 30
0.0
 10
191.1829
 20
106.0192
 30
0.0
 10
191.1829
 20
85.736
 30
0.0
 10
191.1829
 20
85.736
 30
0.0
 10
191.1829
 20
85.736
 30
0.0
 10
190.0339
 20
88.8947
 30
0.0
 10
187.5804
 20
91.0388
 30
0.0
 10
184.1225
 20
91.1147
 30
0.0
  0
SPLINE
  5
51
330
1F
100
AcDbEntity
  8
layer 1
 62
     7
370
    25
100
AcDbSpline
210
0.0
220
0.0
230
1.0
 70
    11
 71
     3
 72
    16
 73
    12
 74
     0
 42
0.0000000001
 43
0.0000000001
 12
1.0
 22
0.0
 32
0.0
 13
1.0
 23
0.0
 33
0.0
 40
0.0
 40
0.0
 40
0.0
 40
0.0
 40
0.25
 40
0.25
 40
0.25
 40
0.25
 40
0.5
 40
0.5
 40
0.5
 40
0.5
 40
1.0
 40
1.0
 40
1.0
 40
1.0
 10
161.599
 20
108.0363
 30
0.0
 10
157.69
 20
113.6197
 30
0.0
 10
151.1782
 20
113.5445
 30
0.0
 10
147.5906
 20
107.7
 30
0.0
 10
147.5906
 20
107.7
 30
0.0
 10
146.2564
 20
102.0258
 30
0.0
 10
147.495
 20
97.5439
 30
0.0
 10
152.6337
 20
94.364
 30
0.0
 10
152.6337
 20
94.364
 30
0.0
 10
154.549
 20
100.0105
 30
0.0
 10
157.4416
 20
103.8787
 30
0.0
 10
161.599
 20
108.0363
 30
0.0
  0
SPLINE
  5
52
330
1F
100
AcDbEntity
  8
layer 1
 62
     7
370
    25
100
AcDbSpline
210
0.0
220
0.0
230
1.0
 70
    24
 71
     3
 72
     8
 73
     4
 74
     0
 42
0.0000000001
 43
0.0000000001
 12
1.0
 22
0.0
 32
0.0
 13
1.0
 23
0.0
 33
0.0
 40
0.0
 40
0.0
 40
0.0
 40
0.0
 40
1.0
 40
1.0
 40
1.0
 40
1.0
 10
183.0025
 20
23.317
 30
0.0
 10
183.0025
 20
23.317
 30
0.0
 10
183.0025
 20
40.575
 30
0.0
 10
183.0025
 20
40.575
 30
0.0
  0
SPLINE
  5
53
330
1F
100
AcDbEntity
  8
layer 1
 62
     7
370
    25
100
AcDbSpline
210
0.0
220
0.0
230
1.0
 70
    11
 71
     3
 72
    24
 73
    20
 74
     0
 42
0.0000000001
 43
0.0000000001
 12
1.0
 22
0.0
 32
0.0
 13
1.0
 23
0.0
 33
0.0
 40
0.0
 40
0.0
 40
0.0
 40
0.0
 40
0.1666666666666667
 40
0.1666666666666667
 40
0.1666666666666667
 40
0.1666666666666667
 40
0.3333333333333333
 40
0.3333333333333333
 40
0.3333333333333333
 40
0.3333333333333333
 40
0.5
 40
0.5
 40
0.5
 40
0.5
 40
0.6666666666666666
 40
0.6666666666666666
 40
0.6666666666666666
 40
0.6666666666666666
 40
1.0
 40
1.0
 40
1.0
 40
1.0
 10
183.0025
 20
23.317
 30
0.0
 10
183.0025
 20
23.317
 30
0.0
 10
185.5801
 20
22.0846
 30
0.0
 10
185.5801
 20
22.0846
 30
0.0
 10
185.5801
 20
22.0846
 30
0.0
 10
185.5801
 20
22.0846
 30
0.0
 10
187.9336
 20
20.1796
 30
0.0
 10
187.9336
 20
20.1796
 30
0.0
 10
187.9336
 20
20.1796
 30
0.0
 10
187.9336
 20
20.1796
 30
0.0
 10
189.8385
 20
18.0506
 30
0.0
 10
189.8385
 20
18.0506
 30
0.0
 10
189.8385
 20
18.0506
 30
0.0
 10
189.8385
 20
18.0506
 30
0.0
 10
191.1829
 20
15.4727
 30
0.0
 10
191.1829
 20
15.4727
 30
0.0
 10
191.1829
 20
15.4727
 30
0.0
 10
191.1829
 20
15.4727
 30
0.0
 10
183.0025
 20
23.317
 30
0.0
 10
183.0025
 20
23.317
 30
0.0
  0
SPLINE
  5
54
330
1F
100
AcDbEntity
  8
layer 1
 62
     7
370
    25
100
AcDbSpline
210
0.0
220
0.0
230
1.0
 70
    11
 71
     3
 72
    44
 73
    40
 74
     0
 42
0.0000000001
 43
0.0000000001
 12
1.0
 22
0.0
 32
0.0
 13
1.0
 23
0.0
 33
0.0
 40
0.0
 40
0.0
 40
0.0
 40
0.0
 40
0.0909090909090909
 40
0.0909090909090909
 40
0.0909090909090909
 40
0.0909090909090909
 40
0.1818181818181818
 40
0.1818181818181818
 40
0.1818181818181818
 40
0.1818181818181818
 40
0.2727272727272727
 40
0.2727272727272727
 40
0.2727272727272727
 40
0.2727272727272727
 40
0.3636363636363636
 40
0.3636363636363636
 40
0.3636363636363636
 40
0.3636363636363636
 40
0.4545454545454545
 40
0.4545454545454545
 40
0.4545454545454545
 40
0.4545454545454545
 40
0.5454545454545454
 40
0.5454545454545454
 40
0.5454545454545454
 40
0.5454545454545454
 40
0.6363636363636364
 40
0.6363636363636364
 40
0.6363636363636364
 40
0.6363636363636364
 40
0.7272727272727273
 40
0.7272727272727273
 40
0.7272727272727273
 40
0.7272727272727273
 40
0.8181818181818182
 40
0.8181818181818182
 40
0.8181818181818182
 40
0.8181818181818182
 40
1.0
 40
1.0
 40
1.0
 40
1.0
 10
162.2707
 20
59.6248
 30
0.0
 10
165.9715
 20
62.9373
 30
0.0
 10
169.8001
 20
63.8517
 30
0.0
 10
174.5976
 20
64.3317
 30
0.0
 10
174.5976
 20
64.3317
 30
0.0
 10
177.9295
 20
64.8951
 30
0.0
 10
181.0568
 20
64.1195
 30
0.0
 10
184.2347
 20
63.2115
 30
0.0
 10
184.2347
 20
63.2115
 30
0.0
 10
188.0085
 20
61.174
 30
0.0
 10
187.7111
 20
56.4411
 30
0.0
 10
183.563
 20
54.9188
 30
0.0
 10
183.563
 20
54.9188
 30
0.0
 10
181.0779
 20
54.2101
 30
0.0
 10
180.9751
 20
50.9088
 30
0.0
 10
184.1225
 20
50.6604
 30
0.0
 10
184.1225
 20
50.6604
 30
0.0
 10
187.549
 20
51.1023
 30
0.0
 10
190.1701
 20
52.7933
 30
0.0
 10
191.1829
 20
56.1513
 30
0.0
 10
191.1829
 20
56.1513
 30
0.0
 10
191.1829
 20
56.1513
 30
0.0
 10
191.1829
 20
15.4727
 30
0.0
 10
191.1829
 20
15.4727
 30
0.0
 10
191.1829
 20
15.4727
 30
0.0
 10
189.138
 20
19.3931
 30
0.0
 10
187.1487
 20
21.5407
 30
0.0
 10
183.0025
 20
23.317
 30
0.0
 10
183.0025
 20
23.317
 30
0.0
 10
183.0025
 20
23.317
 30
0.0
 10
183.0025
 20
40.575
 30
0.0
 10
183.0025
 20
40.575
 30
0.0
 10
183.0025
 20
40.575
 30
0.0
 10
174.2632
 20
40.3277
 30
0.0
 10
168.3537
 20
43.2333
 30
0.0
 10
162.2707
 20
49.315
 30
0.0
 10
162.2707
 20
49.315
 30
0.0
 10
159.1253
 20
52.6823
 30
0.0
 10
158.95
 20
56.305
 30
0.0
 10
162.2707
 20
59.6248
 30
0.0
  0
SPLINE
  5
55
330
1F
100
AcDbEntity
  8
layer 1
 62
     7
370
    25
100
AcDbSpline
210
0.0
220
0.0
230
1.0
 70
    11
 71
     3
 72
    20
 73
    16
 74
     0
 42
0.0000000001
 43
0.0000000001
 12
1.0
 22
0.0
 32
0.0
 13
1.0
 23
0.0
 33
0.0
 40
0.0
 40
0.0
 40
0.0
 40
0.0
 40
0.2
 40
0.2
 40
0.2
 40
0.2
 40
0.4
 40
0.4
 40
0.4
 40
0.4
 40
0.6
 40
0.6
 40
0.6
 40
0.6
 40
1.0
 40
1.0
 40
1.0
 40
1.0
 10
144.229
 20
18.1625
 30
0.0
 10
142.2823
 20
12.0483
 30
0.0
 10
138.5197
 20
9.2437
 30
0.0
 10
132.2385
 20
8.469
 30
0.0
 10
132.2385
 20
8.469
 30
0.0
 10
138.5197
 20
7.6943
 30
0.0
 10
142.2823
 20
4.8897
 30
0.0
 10
144.229
 20
-1.2245
 30
0.0
 10
144.229
 20
-1.2245
 30
0.0
 10
146.1757
 20
4.8897
 30
0.0
 10
149.9383
 20
7.6943
 30
0.0
 10
156.2196
 20
8.469
 30
0.0
 10
156.2196
 20
8.469
 30
0.0
 10
149.9383
 20
9.2437
 30
0.0
 10
146.1757
 20
12.0483
 30
0.0
 10
144.229
 20
18.1625
 30
0.0
  0
SPLINE
  5
56
330
1F
100
AcDbEntity
  8
layer 1
 62
     7
370
    25
100
AcDbSpline
210
0.0
220
0.0
230
1.0
 70
    11
 71
     3
 72
    76
 73
    72
 74
     0
 42
0.0000000001
 43
0.0000000001
 12
1.0
 22
0.0
 32
0.0
 13
1.0
 23
0.0
 33
0.0
 40
0.0
 40
0.0
 40
0.0
 40
0.0
 40
0.0526315789473684
 40
0.0526315789473684
 40
0.0526315789473684
 40
0.0526315789473684
 40
0.1052631578947368
 40
0.1052631578947368
 40
0.1052631578947368
 40
0.1052631578947368
 40
0.1578947368421053
 40
0.1578947368421053
 40
0.1578947368421053
 40
0.1578947368421053
 40
0.2105263157894737
 40
0.2105263157894737
 40
0.2105263157894737
 40
0.2105263157894737
 40
0.2631578947368421
 40
0.2631578947368421
 40
0.2631578947368421
 40
0.2631578947368421
 40
0.3157894736842105
 40
0.3157894736842105
 40
0.3157894736842105
 40
0.3157894736842105
 40
0.3684210526315789
 40
0.3684210526315789
 40
0.3684210526315789
 40
0.3684210526315789
 40
0.4210526315789473
 40
0.4210526315789473
 40
0.4210526315789473
 40
0.4210526315789473
 40
0.4736842105263158
 40
0.4736842105263158
 40
0.4736842105263158
 40
0.4736842105263158
 40
0.5263157894736842
 40
0.5263157894736842
 40
0.5263157894736842
 40
0.5263157894736842
 40
0.5789473684210527
 40
0.5789473684210527
 40
0.5789473684210527
 40
0.5789473684210527
 40
0.631578947368421
 40
0.631578947368421
 40
0.631578947368421
 40
0.631578947368421
 40
0.6842105263157895
 40
0.6842105263157895
 40
0.6842105263157895
 40
0.6842105263157895
 40
0.7368421052631579
 40
0.7368421052631579
 40
0.7368421052631579
 40
0.7368421052631579
 40
0.7894736842105263
 40
0.7894736842105263
 40
0.7894736842105263
 40
0.7894736842105263
 40
0.8421052631578947
 40
0.8421052631578947
 40
0.8421052631578947
 40
0.8421052631578947
 40
0.8947368421052632
 40
0.8947368421052632
 40
0.8947368421052632
 40
0.8947368421052632
 40
1.0
 40
1.0
 40
1.0
 40
1.0
 10
122.3772
 20
-0.8882
 30
0.0
 10
124.3915
 20
-2.2307
 30
0.0
 10
126.7792
 20
-0.6344
 30
0.0
 10
125.7388
 20
1.6894
 30
0.0
 10
125.7388
 20
1.6894
 30
0.0
 10
125.4181
 20
2.4826
 30
0.0
 10
126.0389
 20
3.1997
 30
0.0
 10
126.7478
 20
3.0339
 30
0.0
 10
126.7478
 20
3.0339
 30
0.0
 10
126.7478
 20
3.0339
 30
0.0
 10
129.6609
 20
2.3621
 30
0.0
 10
129.6609
 20
2.3621
 30
0.0
 10
129.6609
 20
2.3621
 30
0.0
 10
132.0338
 20
1.794
 30
0.0
 10
133.6718
 20
0.3931
 30
0.0
 10
135.0405
 20
-1.56
 30
0.0
 10
135.0405
 20
-1.56
 30
0.0
 10
141.3511
 20
-12.1774
 30
0.0
 10
140.4839
 20
-21.8913
 30
0.0
 10
131.678
 20
-30.6963
 30
0.0
 10
131.678
 20
-30.6963
 30
0.0
 10
127.2277
 20
-22.9829
 30
0.0
 10
121.6099
 20
-19.3571
 30
0.0
 10
112.628
 20
-18.9301
 30
0.0
 10
112.628
 20
-18.9301
 30
0.0
 10
112.628
 20
-18.9301
 30
0.0
 10
112.628
 20
-2.6812
 30
0.0
 10
112.628
 20
-2.6812
 30
0.0
 10
112.628
 20
-2.6812
 30
0.0
 10
106.2571
 20
-1.7435
 30
0.0
 10
102.3267
 20
1.9738
 30
0.0
 10
101.9818
 20
8.469
 30
0.0
 10
101.9818
 20
8.469
 30
0.0
 10
102.3267
 20
14.9641
 30
0.0
 10
106.2571
 20
18.6815
 30
0.0
 10
112.628
 20
19.6191
 30
0.0
 10
112.628
 20
19.6191
 30
0.0
 10
112.628
 20
19.6191
 30
0.0
 10
112.628
 20
35.8681
 30
0.0
 10
112.628
 20
35.8681
 30
0.0
 10
112.628
 20
35.8681
 30
0.0
 10
121.6099
 20
36.2953
 30
0.0
 10
127.2277
 20
39.9209
 30
0.0
 10
131.678
 20
47.6342
 30
0.0
 10
131.678
 20
47.6342
 30
0.0
 10
140.4839
 20
38.8293
 30
0.0
 10
141.3511
 20
29.1154
 30
0.0
 10
135.0405
 20
18.4988
 30
0.0
 10
135.0405
 20
18.4988
 30
0.0
 10
133.6718
 20
16.5449
 30
0.0
 10
132.0338
 20
15.1449
 30
0.0
 10
129.6609
 20
14.5768
 30
0.0
 10
129.6609
 20
14.5768
 30
0.0
 10
129.6609
 20
14.5768
 30
0.0
 10
126.7478
 20
13.9041
 30
0.0
 10
126.7478
 20
13.9041
 30
0.0
 10
126.7478
 20
13.9041
 30
0.0
 10
126.0389
 20
13.7383
 30
0.0
 10
125.4181
 20
14.4553
 30
0.0
 10
125.7388
 20
15.2485
 30
0.0
 10
125.7388
 20
15.2485
 30
0.0
 10
126.7792
 20
17.5724
 30
0.0
 10
124.3915
 20
19.1687
 30
0.0
 10
122.3772
 20
17.8262
 30
0.0
 10
122.3772
 20
17.8262
 30
0.0
 10
119.1036
 20
14.777
 30
0.0
 10
119.4668
 20
11.4349
 30
0.0
 10
122.4894
 20
8.469
 30
0.0
 10
122.4894
 20
8.469
 30
0.0
 10
119.4668
 20
5.5031
 30
0.0
 10
119.1036
 20
2.161
 30
0.0
 10
122.3772
 20
-0.8882
 30
0.0
  0
SPLINE
  5
57
330
1F
100
AcDbEntity
  8
layer 1
 62
     7
370
    25
100
AcDbSpline
210
0.0
220
0.0
230
1.0
 70
    11
 71
     3
 72
    16
 73
    12
 74
     0
 42
0.0000000001
 43
0.0000000001
 12
1.0
 22
0.0
 32
0.0
 13
1.0
 23
0.0
 33
0.0
 40
0.0
 40
0.0
 40
0.0
 40
0.0
 40
0.25
 40
0.25
 40
0.25
 40
0.25
 40
0.5
 40
0.5
 40
0.5
 40
0.5
 40
1.0
 40
1.0
 40
1.0
 40
1.0
 10
107.1363
 20
-54.0057
 30
0.0
 10
102.1071
 20
-53.3237
 30
0.0
 10
99.0401
 20
-50.7561
 30
0.0
 10
97.2752
 20
-46.0494
 30
0.0
 10
97.2752
 20
-46.0494
 30
0.0
 10
97.2752
 20
-46.0494
 30
0.0
 10
97.2752
 20
-61.962
 30
0.0
 10
97.2752
 20
-61.962
 30
0.0
 10
97.2752
 20
-61.962
 30
0.0
 10
98.8428
 20
-57.2688
 30
0.0
 10
102.3841
 20
-54.7977
 30
0.0
 10
107.1363
 20
-54.0057
 30
0.0
  0
SPLINE
  5
58
330
1F
100
AcDbEntity
  8
layer 1
 62
     7
370
    25
100
AcDbSpline
210
0.0
220
0.0
230
1.0
 70
    11
 71
     3
 72
    16
 73
    12
 74
     0
 42
0.0000000001
 43
0.0000000001
 12
1.0
 22
0.0
 32
0.0
 13
1.0
 23
0.0
 33
0.0
 40
0.0
 40
0.0
 40
0.0
 40
0.0
 40
0.25
 40
0.25
 40
0.25
 40
0.25
 40
0.5
 40
0.5
 40
0.5
 40
0.5
 40
1.0
 40
1.0
 40
1.0
 40
1.0
 10
116.6622
 20
-54.2298
 30
0.0
 10
123.0276
 20
-56.0255
 30
0.0
 10
127.1091
 20
-58.8988
 30
0.0
 10
131.7899
 20
-63.4184
 30
0.0
 10
131.7899
 20
-63.4184
 30
0.0
 10
132.9918
 20
-56.9892
 30
0.0
 10
133.1761
 20
-51.4937
 30
0.0
 10
131.7899
 20
-45.0403
 30
0.0
 10
131.7899
 20
-45.0403
 30
0.0
 10
127.2943
 20
-49.7565
 30
0.0
 10
122.6588
 20
-52.0201
 30
0.0
 10
116.6622
 20
-54.2298
 30
0.0
  0
SPLINE
  5
59
330
1F
100
AcDbEntity
  8
layer 1
 62
     7
370
    25
100
AcDbSpline
210
0.0
220
0.0
230
1.0
 70
    11
 71
     3
 72
    16
 73
    12
 74
     0
 42
0.0000000001
 43
0.0000000001
 12
1.0
 22
0.0
 32
0.0
 13
1.0
 23
0.0
 33
0.0
 40
0.0
 40
0.0
 40
0.0
 40
0.0
 40
0.25
 40
0.25
 40
0.25
 40
0.25
 40
0.5
 40
0.5
 40
0.5
 40
0.5
 40
1.0
 40
1.0
 40
1.0
 40
1.0
 10
97.2752
 20
-109.8118
 30
0.0
 10
103.017
 20
-107.5565
 30
0.0
 10
106.8259
 20
-104.6065
 30
0.0
 10
110.4989
 20
-99.6142
 30
0.0
 10
110.4989
 20
-99.6142
 30
0.0
 10
104.5281
 20
-100.0959
 30
0.0
 10
100.5152
 20
-98.1225
 30
0.0
 10
97.2752
 20
-93.1145
 30
0.0
 10
97.2752
 20
-93.1145
 30
0.0
 10
97.2752
 20
-93.1145
 30
0.0
 10
97.2752
 20
-109.8118
 30
0.0
 10
97.2752
 20
-109.8118
 30
0.0
  0
SPLINE
  5
5A
330
1F
100
AcDbEntity
  8
layer 1
 62
     7
370
    25
100
AcDbSpline
210
0.0
220
0.0
230
1.0
 70
    11
 71
     3
 72
    44
 73
    40
 74
     0
 42
0.0000000001
 43
0.0000000001
 12
1.0
 22
0.0
 32
0.0
 13
1.0
 23
0.0
 33
0.0
 40
0.0
 40
0.0
 40
0.0
 40
0.0
 40
0.0909090909090909
 40
0.0909090909090909
 40
0.0909090909090909
 40
0.0909090909090909
 40
0.1818181818181818
 40
0.1818181818181818
 40
0.1818181818181818
 40
0.1818181818181818
 40
0.2727272727272727
 40
0.2727272727272727
 40
0.2727272727272727
 40
0.2727272727272727
 40
0.3636363636363636
 40
0.3636363636363636
 40
0.3636363636363636
 40
0.3636363636363636
 40
0.4545454545454545
 40
0.4545454545454545
 40
0.4545454545454545
 40
0.4545454545454545
 40
0.5454545454545454
 40
0.5454545454545454
 40
0.5454545454545454
 40
0.5454545454545454
 40
0.6363636363636364
 40
0.6363636363636364
 40
0.6363636363636364
 40
0.6363636363636364
 40
0.7272727272727273
 40
0.7272727272727273
 40
0.7272727272727273
 40
0.7272727272727273
 40
0.8181818181818182
 40
0.8181818181818182
 40
0.8181818181818182
 40
0.8181818181818182
 40
1.0
 40
1.0
 40
1.0
 40
1.0
 10
104.3353
 20
-74.1767
 30
0.0
 10
107.2253
 20
-74.1767
 30
0.0
 10
107.6162
 20
-70.6057
 30
0.0
 10
104.8951
 20
-70.0302
 30
0.0
 10
104.8951
 20
-70.0302
 30
0.0
 10
100.9099
 20
-68.8331
 30
0.0
 10
100.5838
 20
-63.8169
 30
0.0
 10
104.2234
 20
-61.7376
 30
0.0
 10
104.2234
 20
-61.7376
 30
0.0
 10
115.6477
 20
-58.1908
 30
0.0
 10
123.7995
 20
-63.5574
 30
0.0
 10
131.1175
 20
-72.0474
 30
0.0
 10
131.1175
 20
-72.0474
 30
0.0
 10
128.8224
 20
-80.3503
 30
0.0
 10
125.2367
 20
-86.0975
 30
0.0
 10
119.0147
 20
-91.9942
 30
0.0
 10
119.0147
 20
-91.9942
 30
0.0
 10
115.166
 20
-94.3394
 30
0.0
 10
112.1417
 20
-94.7581
 30
0.0
 10
107.809
 20
-93.675
 30
0.0
 10
107.809
 20
-93.675
 30
0.0
 10
104.0537
 20
-92.9931
 30
0.0
 10
102.7909
 20
-88.7197
 30
0.0
 10
105.4556
 20
-86.055
 30
0.0
 10
105.4556
 20
-86.055
 30
0.0
 10
107.9248
 20
-85.2749
 30
0.0
 10
107.6331
 20
-82.0727
 30
0.0
 10
105.2314
 20
-81.7967
 30
0.0
 10
105.2314
 20
-81.7967
 30
0.0
 10
102.3267
 20
-81.8958
 30
0.0
 10
98.0859
 20
-84.5754
 30
0.0
 10
97.2752
 20
-89.0803
 30
0.0
 10
97.2752
 20
-89.0803
 30
0.0
 10
97.2752
 20
-89.0803
 30
0.0
 10
97.2752
 20
-68.7971
 30
0.0
 10
97.2752
 20
-68.7971
 30
0.0
 10
97.2752
 20
-68.7971
 30
0.0
 10
98.4239
 20
-71.9565
 30
0.0
 10
100.8774
 20
-74.1006
 30
0.0
 10
104.3353
 20
-74.1767
 30
0.0
  0
SPLINE
  5
5B
330
1F
100
AcDbEntity
  8
layer 1
 62
     7
370
    25
100
AcDbSpline
210
0.0
220
0.0
230
1.0
 70
    11
 71
     3
 72
    16
 73
    12
 74
     0
 42
0.0000000001
 43
0.0000000001
 12
1.0
 22
0.0
 32
0.0
 13
1.0
 23
0.0
 33
0.0
 40
0.0
 40
0.0
 40
0.0
 40
0.0
 40
0.25
 40
0.25
 40
0.25
 40
0.25
 40
0.5
 40
0.5
 40
0.5
 40
0.5
 40
1.0
 40
1.0
 40
1.0
 40
1.0
 10
126.8598
 20
-91.0974
 30
0.0
 10
130.7681
 20
-96.6817
 30
0.0
 10
137.2798
 20
-96.6065
 30
0.0
 10
140.8675
 20
-90.762
 30
0.0
 10
140.8675
 20
-90.762
 30
0.0
 10
142.2027
 20
-85.0878
 30
0.0
 10
140.9628
 20
-80.606
 30
0.0
 10
135.8242
 20
-77.426
 30
0.0
 10
135.8242
 20
-77.426
 30
0.0
 10
133.91
 20
-83.0725
 30
0.0
 10
131.0164
 20
-86.9408
 30
0.0
 10
126.8598
 20
-91.0974
 30
0.0
  0
SPLINE
  5
5C
330
1F
100
AcDbEntity
  8
layer 1
 62
     7
370
    25
100
AcDbSpline
210
0.0
220
0.0
230
1.0
 70
    11
 71
     3
 72
    24
 73
    20
 74
     0
 42
0.0000000001
 43
0.0000000001
 12
1.0
 22
0.0
 32
0.0
 13
1.0
 23
0.0
 33
0.0
 40
0.0
 40
0.0
 40
0.0
 40
0.0
 40
0.1666666666666667
 40
0.1666666666666667
 40
0.1666666666666667
 40
0.1666666666666667
 40
0.3333333333333333
 40
0.3333333333333333
 40
0.3333333333333333
 40
0.3333333333333333
 40
0.5
 40
0.5
 40
0.5
 40
0.5
 40
0.6666666666666666
 40
0.6666666666666666
 40
0.6666666666666666
 40
0.6666666666666666
 40
1.0
 40
1.0
 40
1.0
 40
1.0
 10
108.0332
 20
-109.8118
 30
0.0
 10
113.3886
 20
-105.8333
 30
0.0
 10
118.3105
 20
-101.4598
 30
0.0
 10
122.2651
 20
-96.0285
 30
0.0
 10
122.2651
 20
-96.0285
 30
0.0
 10
129.1437
 20
-102.9081
 30
0.0
 10
136.773
 20
-103.0555
 30
0.0
 10
144.229
 20
-96.9253
 30
0.0
 10
144.229
 20
-96.9253
 30
0.0
 10
151.6848
 20
-103.0555
 30
0.0
 10
159.3143
 20
-102.9081
 30
0.0
 10
166.193
 20
-96.0285
 30
0.0
 10
166.193
 20
-96.0285
 30
0.0
 10
170.1474
 20
-101.4598
 30
0.0
 10
175.0692
 20
-105.8333
 30
0.0
 10
180.4249
 20
-109.8118
 30
0.0
 10
180.4249
 20
-109.8118
 30
0.0
 10
180.4249
 20
-109.8118
 30
0.0
 10
108.0332
 20
-109.8118
 30
0.0
 10
108.0332
 20
-109.8118
 30
0.0
  0
SPLINE
  5
5D
330
1F
100
AcDbEntity
  8
layer 1
 62
     7
370
    25
100
AcDbSpline
210
0.0
220
0.0
230
1.0
 70
    24
 71
     3
 72
     8
 73
     4
 74
     0
 42
0.0000000001
 43
0.0000000001
 12
1.0
 22
0.0
 32
0.0
 13
1.0
 23
0.0
 33
0.0
 40
0.0
 40
0.0
 40
0.0
 40
0.0
 40
1.0
 40
1.0
 40
1.0
 40
1.0
 10
105.4556
 20
-6.3791
 30
0.0
 10
105.4556
 20
-6.3791
 30
0.0
 10
105.4556
 20
-23.6368
 30
0.0
 10
105.4556
 20
-23.6368
 30
0.0
  0
SPLINE
  5
5E
330
1F
100
AcDbEntity
  8
layer 1
 62
     7
370
    25
100
AcDbSpline
210
0.0
220
0.0
230
1.0
 70
    11
 71
     3
 72
    24
 73
    20
 74
     0
 42
0.0000000001
 43
0.0000000001
 12
1.0
 22
0.0
 32
0.0
 13
1.0
 23
0.0
 33
0.0
 40
0.0
 40
0.0
 40
0.0
 40
0.0
 40
0.1666666666666667
 40
0.1666666666666667
 40
0.1666666666666667
 40
0.1666666666666667
 40
0.3333333333333333
 40
0.3333333333333333
 40
0.3333333333333333
 40
0.3333333333333333
 40
0.5
 40
0.5
 40
0.5
 40
0.5
 40
0.6666666666666666
 40
0.6666666666666666
 40
0.6666666666666666
 40
0.6666666666666666
 40
1.0
 40
1.0
 40
1.0
 40
1.0
 10
105.4556
 20
-6.3791
 30
0.0
 10
105.4556
 20
-6.3791
 30
0.0
 10
102.8779
 20
-5.1466
 30
0.0
 10
102.8779
 20
-5.1466
 30
0.0
 10
102.8779
 20
-5.1466
 30
0.0
 10
102.8779
 20
-5.1466
 30
0.0
 10
100.5255
 20
-3.2417
 30
0.0
 10
100.5255
 20
-3.2417
 30
0.0
 10
100.5255
 20
-3.2417
 30
0.0
 10
100.5255
 20
-3.2417
 30
0.0
 10
98.6196
 20
-1.1124
 30
0.0
 10
98.6196
 20
-1.1124
 30
0.0
 10
98.6196
 20
-1.1124
 30
0.0
 10
98.6196
 20
-1.1124
 30
0.0
 10
97.2752
 20
1.4653
 30
0.0
 10
97.2752
 20
1.4653
 30
0.0
 10
97.2752
 20
1.4653
 30
0.0
 10
97.2752
 20
1.4653
 30
0.0
 10
105.4556
 20
-6.3791
 30
0.0
 10
105.4556
 20
-6.3791
 30
0.0
  0
SPLINE
  5
5F
330
1F
100
AcDbEntity
  8
layer 1
 62
     7
370
    25
100
AcDbSpline
210
0.0
220
0.0
230
1.0
 70
    11
 71
     3
 72
    44
 73
    40
 74
     0
 42
0.0000000001
 43
0.0000000001
 12
1.0
 22
0.0
 32
0.0
 13
1.0
 23
0.0
 33
0.0
 40
0.0
 40
0.0
 40
0.0
 40
0.0
 40
0.0909090909090909
 40
0.0909090909090909
 40
0.0909090909090909
 40
0.0909090909090909
 40
0.1818181818181818
 40
0.1818181818181818
 40
0.1818181818181818
 40
0.1818181818181818
 40
0.2727272727272727
 40
0.2727272727272727
 40
0.2727272727272727
 40
0.2727272727272727
 40
0.3636363636363636
 40
0.3636363636363636
 40
0.3636363636363636
 40
0.3636363636363636
 40
0.4545454545454545
 40
0.4545454545454545
 40
0.4545454545454545
 40
0.4545454545454545
 40
0.5454545454545454
 40
0.5454545454545454
 40
0.5454545454545454
 40
0.5454545454545454
 40
0.6363636363636364
 40
0.6363636363636364
 40
0.6363636363636364
 40
0.6363636363636364
 40
0.7272727272727273
 40
0.7272727272727273
 40
0.7272727272727273
 40
0.7272727272727273
 40
0.8181818181818182
 40
0.8181818181818182
 40
0.8181818181818182
 40
0.8181818181818182
 40
1.0
 40
1.0
 40
1.0
 40
1.0
 10
126.1871
 20
-42.6869
 30
0.0
 10
122.4866
 20
-45.9984
 30
0.0
 10
118.658
 20
-46.9138
 30
0.0
 10
113.8604
 20
-47.3938
 30
0.0
 10
113.8604
 20
-47.3938
 30
0.0
 10
110.5285
 20
-47.9571
 30
0.0
 10
107.4013
 20
-47.1815
 30
0.0
 10
104.2234
 20
-46.2735
 30
0.0
 10
104.2234
 20
-46.2735
 30
0.0
 10
100.4495
 20
-44.236
 30
0.0
 10
100.7477
 20
-39.5032
 30
0.0
 10
104.8951
 20
-37.9809
 30
0.0
 10
104.8951
 20
-37.9809
 30
0.0
 10
107.3799
 20
-37.2721
 30
0.0
 10
107.4829
 20
-33.9699
 30
0.0
 10
104.3353
 20
-33.7225
 30
0.0
 10
104.3353
 20
-33.7225
 30
0.0
 10
100.909
 20
-34.1643
 30
0.0
 10
98.2877
 20
-35.8554
 30
0.0
 10
97.2752
 20
-39.2131
 30
0.0
 10
97.2752
 20
-39.2131
 30
0.0
 10
97.2752
 20
-39.2131
 30
0.0
 10
97.2752
 20
1.4653
 30
0.0
 10
97.2752
 20
1.4653
 30
0.0
 10
97.2752
 20
1.4653
 30
0.0
 10
99.32
 20
-2.4542
 30
0.0
 10
101.3094
 20
-4.6027
 30
0.0
 10
105.4556
 20
-6.3791
 30
0.0
 10
105.4556
 20
-6.3791
 30
0.0
 10
105.4556
 20
-6.3791
 30
0.0
 10
105.4556
 20
-23.6368
 30
0.0
 10
105.4556
 20
-23.6368
 30
0.0
 10
105.4556
 20
-23.6368
 30
0.0
 10
114.1949
 20
-23.3895
 30
0.0
 10
120.1044
 20
-26.2951
 30
0.0
 10
126.1871
 20
-32.3771
 30
0.0
 10
126.1871
 20
-32.3771
 30
0.0
 10
129.3328
 20
-35.7441
 30
0.0
 10
129.5078
 20
-39.3661
 30
0.0
 10
126.1871
 20
-42.6869
 30
0.0
  0
SPLINE
  5
60
330
1F
100
AcDbEntity
  8
layer 1
 62
     7
370
    25
100
AcDbSpline
210
0.0
220
0.0
230
1.0
 70
    11
 71
     3
 72
    16
 73
    12
 74
     0
 42
0.0000000001
 43
0.0000000001
 12
1.0
 22
0.0
 32
0.0
 13
1.0
 23
0.0
 33
0.0
 40
0.0
 40
0.0
 40
0.0
 40
0.0
 40
0.25
 40
0.25
 40
0.25
 40
0.25
 40
0.5
 40
0.5
 40
0.5
 40
0.5
 40
1.0
 40
1.0
 40
1.0
 40
1.0
 10
181.3217
 20
-54.0057
 30
0.0
 10
186.351
 20
-53.3237
 30
0.0
 10
189.418
 20
-50.7561
 30
0.0
 10
191.1829
 20
-46.0494
 30
0.0
 10
191.1829
 20
-46.0494
 30
0.0
 10
191.1829
 20
-46.0494
 30
0.0
 10
191.1829
 20
-61.962
 30
0.0
 10
191.1829
 20
-61.962
 30
0.0
 10
191.1829
 20
-61.962
 30
0.0
 10
189.6153
 20
-57.2688
 30
0.0
 10
186.0739
 20
-54.7977
 30
0.0
 10
181.3217
 20
-54.0057
 30
0.0
  0
SPLINE
  5
61
330
1F
100
AcDbEntity
  8
layer 1
 62
     7
370
    25
100
AcDbSpline
210
0.0
220
0.0
230
1.0
 70
    11
 71
     3
 72
    16
 73
    12
 74
     0
 42
0.0000000001
 43
0.0000000001
 12
1.0
 22
0.0
 32
0.0
 13
1.0
 23
0.0
 33
0.0
 40
0.0
 40
0.0
 40
0.0
 40
0.0
 40
0.25
 40
0.25
 40
0.25
 40
0.25
 40
0.5
 40
0.5
 40
0.5
 40
0.5
 40
1.0
 40
1.0
 40
1.0
 40
1.0
 10
171.7959
 20
-54.2298
 30
0.0
 10
165.4304
 20
-56.0255
 30
0.0
 10
161.349
 20
-58.8988
 30
0.0
 10
156.6679
 20
-63.4184
 30
0.0
 10
156.6679
 20
-63.4184
 30
0.0
 10
155.4662
 20
-56.9892
 30
0.0
 10
155.2819
 20
-51.4937
 30
0.0
 10
156.6679
 20
-45.0403
 30
0.0
 10
156.6679
 20
-45.0403
 30
0.0
 10
161.1635
 20
-49.7565
 30
0.0
 10
165.7999
 20
-52.0201
 30
0.0
 10
171.7959
 20
-54.2298
 30
0.0
  0
SPLINE
  5
62
330
1F
100
AcDbEntity
  8
layer 1
 62
     7
370
    25
100
AcDbSpline
210
0.0
220
0.0
230
1.0
 70
    11
 71
     3
 72
    28
 73
    24
 74
     0
 42
0.0000000001
 43
0.0000000001
 12
1.0
 22
0.0
 32
0.0
 13
1.0
 23
0.0
 33
0.0
 40
0.0
 40
0.0
 40
0.0
 40
0.0
 40
0.1428571428571428
 40
0.1428571428571428
 40
0.1428571428571428
 40
0.1428571428571428
 40
0.2857142857142857
 40
0.2857142857142857
 40
0.2857142857142857
 40
0.2857142857142857
 40
0.4285714285714285
 40
0.4285714285714285
 40
0.4285714285714285
 40
0.4285714285714285
 40
0.5714285714285714
 40
0.5714285714285714
 40
0.5714285714285714
 40
0.5714285714285714
 40
0.7142857142857143
 40
0.7142857142857143
 40
0.7142857142857143
 40
0.7142857142857143
 40
1.0
 40
1.0
 40
1.0
 40
1.0
 10
152.0731
 20
-38.6526
 30
0.0
 10
149.7585
 20
-48.8429
 30
0.0
 10
150.0524
 20
-57.7887
 30
0.0
 10
151.6248
 20
-68.0131
 30
0.0
 10
151.6248
 20
-68.0131
 30
0.0
 10
148.6421
 20
-70.9532
 30
0.0
 10
146.3785
 20
-74.3639
 30
0.0
 10
144.229
 20
-77.9865
 30
0.0
 10
144.229
 20
-77.9865
 30
0.0
 10
142.0793
 20
-74.3639
 30
0.0
 10
139.8157
 20
-70.9532
 30
0.0
 10
136.8332
 20
-68.0131
 30
0.0
 10
136.8332
 20
-68.0131
 30
0.0
 10
138.4056
 20
-57.7887
 30
0.0
 10
138.6993
 20
-48.8429
 30
0.0
 10
136.3849
 20
-38.6526
 30
0.0
 10
136.3849
 20
-38.6526
 30
0.0
 10
140.2994
 20
-35.5209
 30
0.0
 10
142.9181
 20
-32.1845
 30
0.0
 10
144.229
 20
-27.2228
 30
0.0
 10
144.229
 20
-27.2228
 30
0.0
 10
145.54
 20
-32.1845
 30
0.0
 10
148.1584
 20
-35.5209
 30
0.0
 10
152.0731
 20
-38.6526
 30
0.0
  0
SPLINE
  5
63
330
1F
100
AcDbEntity
  8
layer 1
 62
     7
370
    25
100
AcDbSpline
210
0.0
220
0.0
230
1.0
 70
    11
 71
     3
 72
    16
 73
    12
 74
     0
 42
0.0000000001
 43
0.0000000001
 12
1.0
 22
0.0
 32
0.0
 13
1.0
 23
0.0
 33
0.0
 40
0.0
 40
0.0
 40
0.0
 40
0.0
 40
0.25
 40
0.25
 40
0.25
 40
0.25
 40
0.5
 40
0.5
 40
0.5
 40
0.5
 40
1.0
 40
1.0
 40
1.0
 40
1.0
 10
191.1829
 20
-109.8118
 30
0.0
 10
185.4411
 20
-107.5565
 30
0.0
 10
181.632
 20
-104.6065
 30
0.0
 10
177.9592
 20
-99.6142
 30
0.0
 10
177.9592
 20
-99.6142
 30
0.0
 10
183.9299
 20
-100.0959
 30
0.0
 10
187.9428
 20
-98.1225
 30
0.0
 10
191.1829
 20
-93.1145
 30
0.0
 10
191.1829
 20
-93.1145
 30
0.0
 10
191.1829
 20
-93.1145
 30
0.0
 10
191.1829
 20
-109.8118
 30
0.0
 10
191.1829
 20
-109.8118
 30
0.0
  0
SPLINE
  5
64
330
1F
100
AcDbEntity
  8
layer 1
 62
     7
370
    25
100
AcDbSpline
210
0.0
220
0.0
230
1.0
 70
    11
 71
     3
 72
    44
 73
    40
 74
     0
 42
0.0000000001
 43
0.0000000001
 12
1.0
 22
0.0
 32
0.0
 13
1.0
 23
0.0
 33
0.0
 40
0.0
 40
0.0
 40
0.0
 40
0.0
 40
0.0909090909090909
 40
0.0909090909090909
 40
0.0909090909090909
 40
0.0909090909090909
 40
0.1818181818181818
 40
0.1818181818181818
 40
0.1818181818181818
 40
0.1818181818181818
 40
0.2727272727272727
 40
0.2727272727272727
 40
0.2727272727272727
 40
0.2727272727272727
 40
0.3636363636363636
 40
0.3636363636363636
 40
0.3636363636363636
 40
0.3636363636363636
 40
0.4545454545454545
 40
0.4545454545454545
 40
0.4545454545454545
 40
0.4545454545454545
 40
0.5454545454545454
 40
0.5454545454545454
 40
0.5454545454545454
 40
0.5454545454545454
 40
0.6363636363636364
 40
0.6363636363636364
 40
0.6363636363636364
 40
0.6363636363636364
 40
0.7272727272727273
 40
0.7272727272727273
 40
0.7272727272727273
 40
0.7272727272727273
 40
0.8181818181818182
 40
0.8181818181818182
 40
0.8181818181818182
 40
0.8181818181818182
 40
1.0
 40
1.0
 40
1.0
 40
1.0
 10
184.1225
 20
-74.1767
 30
0.0
 10
181.2327
 20
-74.1767
 30
0.0
 10
180.8416
 20
-70.6057
 30
0.0
 10
183.563
 20
-70.0302
 30
0.0
 10
183.563
 20
-70.0302
 30
0.0
 10
187.5481
 20
-68.8331
 30
0.0
 10
187.8743
 20
-63.8169
 30
0.0
 10
184.2347
 20
-61.7376
 30
0.0
 10
184.2347
 20
-61.7376
 30
0.0
 10
172.8103
 20
-58.1908
 30
0.0
 10
164.6595
 20
-63.5574
 30
0.0
 10
157.3406
 20
-72.0474
 30
0.0
 10
157.3406
 20
-72.0474
 30
0.0
 10
159.6357
 20
-80.3503
 30
0.0
 10
163.2214
 20
-86.0975
 30
0.0
 10
169.4433
 20
-91.9942
 30
0.0
 10
169.4433
 20
-91.9942
 30
0.0
 10
173.2921
 20
-94.3394
 30
0.0
 10
176.3164
 20
-94.7581
 30
0.0
 10
180.649
 20
-93.675
 30
0.0
 10
180.649
 20
-93.675
 30
0.0
 10
184.4043
 20
-92.9931
 30
0.0
 10
185.6681
 20
-88.7197
 30
0.0
 10
183.0025
 20
-86.055
 30
0.0
 10
183.0025
 20
-86.055
 30
0.0
 10
180.5333
 20
-85.2749
 30
0.0
 10
180.825
 20
-82.0727
 30
0.0
 10
183.2266
 20
-81.7967
 30
0.0
 10
183.2266
 20
-81.7967
 30
0.0
 10
186.1313
 20
-81.8958
 30
0.0
 10
190.3731
 20
-84.5754
 30
0.0
 10
191.1829
 20
-89.0803
 30
0.0
 10
191.1829
 20
-89.0803
 30
0.0
 10
191.1829
 20
-89.0803
 30
0.0
 10
191.1829
 20
-68.7971
 30
0.0
 10
191.1829
 20
-68.7971
 30
0.0
 10
191.1829
 20
-68.7971
 30
0.0
 10
190.0339
 20
-71.9565
 30
0.0
 10
187.5804
 20
-74.1006
 30
0.0
 10
184.1225
 20
-74.1767
 30
0.0
  0
SPLINE
  5
65
330
1F
100
AcDbEntity
  8
layer 1
 62
     7
370
    25
100
AcDbSpline
210
0.0
220
0.0
230
1.0
 70
    11
 71
     3
 72
    16
 73
    12
 74
     0
 42
0.0000000001
 43
0.0000000001
 12
1.0
 22
0.0
 32
0.0
 13
1.0
 23
0.0
 33
0.0
 40
0.0
 40
0.0
 40
0.0
 40
0.0
 40
0.25
 40
0.25
 40
0.25
 40
0.25
 40
0.5
 40
0.5
 40
0.5
 40
0.5
 40
1.0
 40
1.0
 40
1.0
 40
1.0
 10
161.599
 20
-91.0974
 30
0.0
 10
157.69
 20
-96.6817
 30
0.0
 10
151.1782
 20
-96.6065
 30
0.0
 10
147.5906
 20
-90.762
 30
0.0
 10
147.5906
 20
-90.762
 30
0.0
 10
146.2564
 20
-85.0878
 30
0.0
 10
147.495
 20
-80.606
 30
0.0
 10
152.6337
 20
-77.426
 30
0.0
 10
152.6337
 20
-77.426
 30
0.0
 10
154.549
 20
-83.0725
 30
0.0
 10
157.4416
 20
-86.9408
 30
0.0
 10
161.599
 20
-91.0974
 30
0.0
  0
SPLINE
  5
66
330
1F
100
AcDbEntity
  8
layer 1
 62
     7
370
    25
100
AcDbSpline
210
0.0
220
0.0
230
1.0
 70
    24
 71
     3
 72
     8
 73
     4
 74
     0
 42
0.0000000001
 43
0.0000000001
 12
1.0
 22
0.0
 32
0.0
 13
1.0
 23
0.0
 33
0.0
 40
0.0
 40
0.0
 40
0.0
 40
0.0
 40
1.0
 40
1.0
 40
1.0
 40
1.0
 10
183.0025
 20
-6.3791
 30
0.0
 10
183.0025
 20
-6.3791
 30
0.0
 10
183.0025
 20
-23.6368
 30
0.0
 10
183.0025
 20
-23.6368
 30
0.0
  0
SPLINE
  5
67
330
1F
100
AcDbEntity
  8
layer 1
 62
     7
370
    25
100
AcDbSpline
210
0.0
220
0.0
230
1.0
 70
    11
 71
     3
 72
    24
 73
    20
 74
     0
 42
0.0000000001
 43
0.0000000001
 12
1.0
 22
0.0
 32
0.0
 13
1.0
 23
0.0
 33
0.0
 40
0.0
 40
0.0
 40
0.0
 40
0.0
 40
0.1666666666666667
 40
0.1666666666666667
 40
0.1666666666666667
 40
0.1666666666666667
 40
0.3333333333333333
 40
0.3333333333333333
 40
0.3333333333333333
 40
0.3333333333333333
 40
0.5
 40
0.5
 40
0.5
 40
0.5
 40
0.6666666666666666
 40
0.6666666666666666
 40
0.6666666666666666
 40
0.6666666666666666
 40
1.0
 40
1.0
 40
1.0
 40
1.0
 10
183.0025
 20
-6.3791
 30
0.0
 10
183.0025
 20
-6.3791
 30
0.0
 10
185.5801
 20
-5.1466
 30
0.0
 10
185.5801
 20
-5.1466
 30
0.0
 10
185.5801
 20
-5.1466
 30
0.0
 10
185.5801
 20
-5.1466
 30
0.0
 10
187.9336
 20
-3.2417
 30
0.0
 10
187.9336
 20
-3.2417
 30
0.0
 10
187.9336
 20
-3.2417
 30
0.0
 10
187.9336
 20
-3.2417
 30
0.0
 10
189.8385
 20
-1.1124
 30
0.0
 10
189.8385
 20
-1.1124
 30
0.0
 10
189.8385
 20
-1.1124
 30
0.0
 10
189.8385
 20
-1.1124
 30
0.0
 10
191.1829
 20
1.4653
 30
0.0
 10
191.1829
 20
1.4653
 30
0.0
 10
191.1829
 20
1.4653
 30
0.0
 10
191.1829
 20
1.4653
 30
0.0
 10
183.0025
 20
-6.3791
 30
0.0
 10
183.0025
 20
-6.3791
 30
0.0
  0
SPLINE
  5
68
330
1F
100
AcDbEntity
  8
layer 1
 62
     7
370
    25
100
AcDbSpline
210
0.0
220
0.0
230
1.0
 70
    11
 71
     3
 72
    44
 73
    40
 74
     0
 42
0.0000000001
 43
0.0000000001
 12
1.0
 22
0.0
 32
0.0
 13
1.0
 23
0.0
 33
0.0
 40
0.0
 40
0.0
 40
0.0
 40
0.0
 40
0.0909090909090909
 40
0.0909090909090909
 40
0.0909090909090909
 40
0.0909090909090909
 40
0.1818181818181818
 40
0.1818181818181818
 40
0.1818181818181818
 40
0.1818181818181818
 40
0.2727272727272727
 40
0.2727272727272727
 40
0.2727272727272727
 40
0.2727272727272727
 40
0.3636363636363636
 40
0.3636363636363636
 40
0.3636363636363636
 40
0.3636363636363636
 40
0.4545454545454545
 40
0.4545454545454545
 40
0.4545454545454545
 40
0.4545454545454545
 40
0.5454545454545454
 40
0.5454545454545454
 40
0.5454545454545454
 40
0.5454545454545454
 40
0.6363636363636364
 40
0.6363636363636364
 40
0.6363636363636364
 40
0.6363636363636364
 40
0.7272727272727273
 40
0.7272727272727273
 40
0.7272727272727273
 40
0.7272727272727273
 40
0.8181818181818182
 40
0.8181818181818182
 40
0.8181818181818182
 40
0.8181818181818182
 40
1.0
 40
1.0
 40
1.0
 40
1.0
 10
162.2707
 20
-42.6869
 30
0.0
 10
165.9715
 20
-45.9984
 30
0.0
 10
169.8001
 20
-46.9138
 30
0.0
 10
174.5976
 20
-47.3938
 30
0.0
 10
174.5976
 20
-47.3938
 30
0.0
 10
177.9295
 20
-47.9571
 30
0.0
 10
181.0568
 20
-47.1815
 30
0.0
 10
184.2347
 20
-46.2735
 30
0.0
 10
184.2347
 20
-46.2735
 30
0.0
 10
188.0085
 20
-44.236
 30
0.0
 10
187.7111
 20
-39.5032
 30
0.0
 10
183.563
 20
-37.9809
 30
0.0
 10
183.563
 20
-37.9809
 30
0.0
 10
181.0779
 20
-37.2721
 30
0.0
 10
180.9751
 20
-33.9699
 30
0.0
 10
184.1225
 20
-33.7225
 30
0.0
 10
184.1225
 20
-33.7225
 30
0.0
 10
187.549
 20
-34.1643
 30
0.0
 10
190.1701
 20
-35.8554
 30
0.0
 10
191.1829
 20
-39.2131
 30
0.0
 10
191.1829
 20
-39.2131
 30
0.0
 10
191.1829
 20
-39.2131
 30
0.0
 10
191.1829
 20
1.4653
 30
0.0
 10
191.1829
 20
1.4653
 30
0.0
 10
191.1829
 20
1.4653
 30
0.0
 10
189.138
 20
-2.4542
 30
0.0
 10
187.1487
 20
-4.6027
 30
0.0
 10
183.0025
 20
-6.3791
 30
0.0
 10
183.0025
 20
-6.3791
 30
0.0
 10
183.0025
 20
-6.3791
 30
0.0
 10
183.0025
 20
-23.6368
 30
0.0
 10
183.0025
 20
-23.6368
 30
0.0
 10
183.0025
 20
-23.6368
 30
0.0
 10
174.2632
 20
-23.3895
 30
0.0
 10
168.3537
 20
-26.2951
 30
0.0
 10
162.2707
 20
-32.3771
 30
0.0
 10
162.2707
 20
-32.3771
 30
0.0
 10
159.1253
 20
-35.7441
 30
0.0
 10
158.95
 20
-39.3661
 30
0.0
 10
162.2707
 20
-42.6869
 30
0.0
  0
ENDSEC
  0
SECTION
  2
OBJECTS
  0
DICTIONARY
  5
C
330
0
100
AcDbDictionary
281
     1
  3
ACAD_GROUP
350
D
  3
ACAD_LAYOUT
350
1A
  3
ACAD_MATERIAL
350
3B
  3
ACAD_MLEADERSTYLE
350
8B
  3
ACAD_MLINESTYLE
350
17
  3
ACAD_PLOTSETTINGS
350
19
  3
ACAD_PLOTSTYLENAME
350
E
  3
ACAD_TABLESTYLE
350
8A
  3
ACAD_VISUALSTYLE
350
2A
  0
DICTIONARY
  5
D
102
{ACAD_REACTORS
330
C
102
}
330
C
100
AcDbDictionary
281
     1
  0
DICTIONARY
  5
1A
102
{ACAD_REACTORS
330
C
102
}
330
C
100
AcDbDictionary
281
     1
  3
Layout1
350
1E
  3
Layout2
350
26
  3
Model
350
22
  0
DICTIONARY
  5
3B
102
{ACAD_REACTORS
330
C
102
}
330
C
100
AcDbDictionary
281
     1
  3
ByBlock
350
3D
  3
ByLayer
350
3C
  3
Global
350
3E
  0
DICTIONARY
  5
8B
102
{ACAD_REACTORS
330
C
102
}
330
C
100
AcDbDictionary
281
     1
  0
DICTIONARY
  5
17
102
{ACAD_REACTORS
330
C
102
}
330
C
100
AcDbDictionary
281
     1
  3
Standard
350
18
  0
DICTIONARY
  5
19
102
{ACAD_REACTORS
330
C
102
}
330
C
100
AcDbDictionary
281
     1
  0
ACDBDICTIONARYWDFLT
  5
E
102
{ACAD_REACTORS
330
C
102
}
330
C
100
AcDbDictionary
281
     1
  3
Normal
350
F
100
AcDbDictionaryWithDefault
340
F
  0
DICTIONARY
  5
8A
102
{ACAD_REACTORS
330
C
102
}
330
C
100
AcDbDictionary
281
     1
  0
DICTIONARY
  5
2A
102
{ACAD_REACTORS
330
C
102
}
330
C
100
AcDbDictionary
281
     1
  3
2dWireframe
350
2F
  3
3D Hidden
350
31
  3
3dWireframe
350
30
  3
Basic
350
32
  3
Brighten
350
36
  3
ColorChange
350
3A
  3
Conceptual
350
34
  3
Dim
350
35
  3
Facepattern
350
39
  3
Flat
350
2B
  3
FlatWithEdges
350
2C
  3
Gouraud
350
2D
  3
GouraudWithEdges
350
2E
  3
Linepattern
350
38
  3
Realistic
350
33
  3
Thicken
350
37
  0
LAYOUT
  5
1E
102
{ACAD_REACTORS
330
1A
102
}
330
1A
100
AcDbPlotSettings
  1

  2
none_device
  4

  6

 40
0.0
 41
0.0
 42
0.0
 43
0.0
 44
0.0
 45
0.0
 46
0.0
 47
0.0
 48
0.0
 49
0.0
140
0.0
141
0.0
142
1.0
143
1.0
 70
   688
 72
     0
 73
     0
 74
     5
  7

 75
    16
 76
     0
 77
     2
 78
   300
147
1.0
148
0.0
149
0.0
100
AcDbLayout
  1
Layout1
 70
     1
 71
     1
 10
0.0
 20
0.0
 11
12.0
 21
9.0
 12
0.0
 22
0.0
 32
0.0
 14
1.000000000000000E+20
 24
1.000000000000000E+20
 34
1.000000000000000E+20
 15
-1.000000000000000E+20
 25
-1.000000000000000E+20
 35
-1.000000000000000E+20
146
0.0
 13
0.0
 23
0.0
 33
0.0
 16
1.0
 26
0.0
 36
0.0
 17
0.0
 27
1.0
 37
0.0
 76
     0
330
1B
  0
LAYOUT
  5
26
102
{ACAD_REACTORS
330
1A
102
}
330
1A
100
AcDbPlotSettings
  1

  2
none_device
  4

  6

 40
0.0
 41
0.0
 42
0.0
 43
0.0
 44
0.0
 45
0.0
 46
0.0
 47
0.0
 48
0.0
 49
0.0
140
0.0
141
0.0
142
1.0
143
1.0
 70
   688
 72
     0
 73
     0
 74
     5
  7

 75
    16
 76
     0
 77
     2
 78
   300
147
1.0
148
0.0
149
0.0
100
AcDbLayout
  1
Layout2
 70
     1
 71
     2
 10
0.0
 20
0.0
 11
0.0
 21
0.0
 12
0.0
 22
0.0
 32
0.0
 14
0.0
 24
0.0
 34
0.0
 15
0.0
 25
0.0
 35
0.0
146
0.0
 13
0.0
 23
0.0
 33
0.0
 16
1.0
 26
0.0
 36
0.0
 17
0.0
 27
1.0
 37
0.0
 76
     0
330
23
  0
LAYOUT
  5
22
102
{ACAD_REACTORS
330
1A
102
}
330
1A
100
AcDbPlotSettings
  1

  2
none_device
  4

  6

 40
0.0
 41
0.0
 42
0.0
 43
0.0
 44
0.0
 45
0.0
 46
0.0
 47
0.0
 48
0.0
 49
0.0
140
0.0
141
0.0
142
1.0
143
1.0
 70
  1712
 72
     0
 73
     0
 74
     0
  7

 75
     0
 76
     0
 77
     2
 78
   300
147
1.0
148
0.0
149
0.0
100
AcDbLayout
  1
Model
 70
     1
 71
     0
 10
0.0
 20
0.0
 11
12.0
 21
9.0
 12
0.0
 22
0.0
 32
0.0
 14
91.9299
 24
-114.8959
 34
0.0
 15
196.5284
 25
131.8338
 35
0.0
146
0.0
 13
0.0
 23
0.0
 33
0.0
 16
1.0
 26
0.0
 36
0.0
 17
0.0
 27
1.0
 37
0.0
 76
     0
330
1F
331
29
  0
MATERIAL
  5
3D
102
{ACAD_REACTORS
330
3B
102
}
330
3B
100
AcDbMaterial
  1
ByBlock
 72
     1
 94
      127
  0
MATERIAL
  5
3C
102
{ACAD_REACTORS
330
3B
102
}
330
3B
100
AcDbMaterial
  1
ByLayer
 72
     1
 94
      127
  0
MATERIAL
  5
3E
102
{ACAD_REACTORS
330
3B
102
}
330
3B
100
AcDbMaterial
  1
Global
 72
     1
 94
      127
  0
MLINESTYLE
  5
18
102
{ACAD_REACTORS
330
17
102
}
330
17
100
AcDbMlineStyle
  2
Standard
 70
     0
  3

 62
   256
 51
90.0
 52
90.0
 71
     2
 49
0.5
 62
   256
  6
BYLAYER
 49
-0.5
 62
   256
  6
BYLAYER
  0
ACDBPLACEHOLDER
  5
F
102
{ACAD_REACTORS
330
E
102
}
330
E
  0
VISUALSTYLE
  5
2F
102
{ACAD_REACTORS
330
2A
102
}
102
{ACAD_XDICTIONARY
360
72
102
}
330
2A
100
AcDbVisualStyle
  2
2dWireframe
 70
     4
 71
     0
 72
     2
 73
     0
 90
        0
 40
-0.6
 41
-30.0
 62
     5
 63
     7
421
 16777215
 74
     1
 91
        4
 64
     7
 65
   257
 75
     1
175
     1
 42
1.0
 92
        0
 66
   257
 43
1.0
 76
     1
 77
     6
 78
     2
 67
     7
 79
     5
170
     0
171
     0
290
     0
174
     0
 93
        1
 44
0.0
173
     0
291
     0
 45
0.0
  0
VISUALSTYLE
  5
31
102
{ACAD_REACTORS
330
2A
102
}
102
{ACAD_XDICTIONARY
360
76
102
}
330
2A
100
AcDbVisualStyle
  2
3D Hidden
 70
     6
 71
     1
 72
     2
 73
     2
 90
        0
 40
-0.6
 41
-30.0
 62
     5
 63
     7
421
 16777215
 74
     2
 91
        2
 64
     7
 65
   257
 75
     2
175
     1
 42
40.0
 92
        0
 66
   257
 43
1.0
 76
     1
 77
     6
 78
     2
 67
     7
 79
     3
170
     0
171
     0
290
     0
174
     0
 93
        1
 44
0.0
173
     0
291
     0
 45
0.0
  0
VISUALSTYLE
  5
30
102
{ACAD_REACTORS
330
2A
102
}
102
{ACAD_XDICTIONARY
360
74
102
}
330
2A
100
AcDbVisualStyle
  2
3dWireframe
 70
     5
 71
     0
 72
     2
 73
     0
 90
        0
 40
-0.6
 41
-30.0
 62
     5
 63
     7
421
 16777215
 74
     1
 91
        4
 64
     7
 65
   257
 75
     1
175
     1
 42
1.0
 92
        0
 66
   257
 43
1.0
 76
     1
 77
     6
 78
     2
 67
     7
 79
     5
170
     0
171
     0
290
     0
174
     0
 93
        1
 44
0.0
173
     0
291
     0
 45
0.0
  0
VISUALSTYLE
  5
32
102
{ACAD_REACTORS
330
2A
102
}
102
{ACAD_XDICTIONARY
360
78
102
}
330
2A
100
AcDbVisualStyle
  2
Basic
 70
     7
 71
     1
 72
     0
 73
     1
 90
        0
 40
-0.6
 41
-30.0
 62
     5
 63
     7
421
 16777215
 74
     0
 91
        4
 64
     7
 65
   257
 75
     1
175
     1
 42
1.0
 92
        8
 66
     7
 43
1.0
 76
     1
 77
     6
 78
     2
 67
     7
 79
     5
170
     0
171
     0
290
     0
174
     0
 93
        1
 44
0.0
173
     0
291
     1
 45
0.0
  0
VISUALSTYLE
  5
36
102
{ACAD_REACTORS
330
2A
102
}
102
{ACAD_XDICTIONARY
360
80
102
}
330
2A
100
AcDbVisualStyle
  2
Brighten
 70
    12
 71
     2
 72
     2
 73
     0
 90
        0
 40
-0.6
 41
-30.0
 62
     5
 63
     7
421
 16777215
 74
     1
 91
        4
 64
     7
 65
   257
 75
     1
175
     1
 42
1.0
 92
        8
 66
     7
 43
1.0
 76
     1
 77
     6
 78
     2
 67
     7
 79
     5
170
     0
171
     0
290
     0
174
     0
 93
        1
 44
50.0
173
     0
291
     1
 45
0.0
  0
VISUALSTYLE
  5
3A
102
{ACAD_REACTORS
330
2A
102
}
102
{ACAD_XDICTIONARY
360
88
102
}
330
2A
100
AcDbVisualStyle
  2
ColorChange
 70
    16
 71
     2
 72
     2
 73
     3
 90
        0
 40
-0.6
 41
-30.0
 62
     5
 63
     8
421
  8421504
 74
     1
 91
        4
 64
     7
 65
   257
 75
     1
175
     1
 42
1.0
 92
        8
 66
     8
424
  8421504
 43
1.0
 76
     1
 77
     6
 78
     2
 67
     7
 79
     5
170
     0
171
     0
290
     0
174
     0
 93
        1
 44
0.0
173
     0
291
     1
 45
0.0
  0
VISUALSTYLE
  5
34
102
{ACAD_REACTORS
330
2A
102
}
102
{ACAD_XDICTIONARY
360
7C
102
}
330
2A
100
AcDbVisualStyle
  2
Conceptual
 70
     9
 71
     3
 72
     2
 73
     0
 90
        0
 40
-0.6
 41
-30.0
 62
     5
 63
     7
421
 16777215
 74
     2
 91
        2
 64
     7
 65
   257
 75
     1
175
     1
 42
40.0
 92
        8
 66
     7
 43
1.0
 76
     1
 77
     6
 78
     2
 67
     7
 79
     3
170
     0
171
     0
290
     0
174
     0
 93
        1
 44
0.0
173
     0
291
     0
 45
0.0
  0
VISUALSTYLE
  5
35
102
{ACAD_REACTORS
330
2A
102
}
102
{ACAD_XDICTIONARY
360
7E
102
}
330
2A
100
AcDbVisualStyle
  2
Dim
 70
    11
 71
     2
 72
     2
 73
     0
 90
        0
 40
-0.6
 41
-30.0
 62
     5
 63
     7
421
 16777215
 74
     1
 91
        4
 64
     7
 65
   257
 75
     1
175
     1
 42
1.0
 92
        8
 66
     7
 43
1.0
 76
     1
 77
     6
 78
     2
 67
     7
 79
     5
170
     0
171
     0
290
     0
174
     0
 93
        1
 44
-50.0
173
     0
291
     1
 45
0.0
  0
VISUALSTYLE
  5
39
102
{ACAD_REACTORS
330
2A
102
}
102
{ACAD_XDICTIONARY
360
86
102
}
330
2A
100
AcDbVisualStyle
  2
Facepattern
 70
    15
 71
     2
 72
     2
 73
     0
 90
        0
 40
-0.6
 41
-30.0
 62
     5
 63
     7
421
 16777215
 74
     1
 91
        4
 64
     7
 65
   257
 75
     1
175
     1
 42
1.0
 92
        8
 66
     7
 43
1.0
 76
     1
 77
     6
 78
     2
 67
     7
 79
     5
170
     0
171
     0
290
     0
174
     0
 93
        1
 44
0.0
173
     0
291
     1
 45
0.0
  0
VISUALSTYLE
  5
2B
102
{ACAD_REACTORS
330
2A
102
}
102
{ACAD_XDICTIONARY
360
6A
102
}
330
2A
100
AcDbVisualStyle
  2
Flat
 70
     0
 71
     2
 72
     1
 73
     1
 90
        2
 40
-0.6
 41
30.0
 62
     5
 63
     7
421
 16777215
 74
     0
 91
        4
 64
     7
 65
   257
 75
     1
175
     1
 42
1.0
 92
        8
 66
     7
 43
1.0
 76
     1
 77
     6
 78
     2
 67
     7
 79
     5
170
     0
171
     0
290
     0
174
     0
 93
       13
 44
0.0
173
     0
291
     1
 45
0.0
  0
VISUALSTYLE
  5
2C
102
{ACAD_REACTORS
330
2A
102
}
102
{ACAD_XDICTIONARY
360
6C
102
}
330
2A
100
AcDbVisualStyle
  2
FlatWithEdges
 70
     1
 71
     2
 72
     1
 73
     1
 90
        2
 40
-0.6
 41
30.0
 62
     5
 63
     7
421
 16777215
 74
     1
 91
        4
 64
     7
 65
   257
 75
     1
175
     1
 42
1.0
 92
        0
 66
   257
 43
1.0
 76
     1
 77
     6
 78
     2
 67
     7
 79
     5
170
     0
171
     0
290
     0
174
     0
 93
       13
 44
0.0
173
     0
291
     1
 45
0.0
  0
VISUALSTYLE
  5
2D
102
{ACAD_REACTORS
330
2A
102
}
102
{ACAD_XDICTIONARY
360
6E
102
}
330
2A
100
AcDbVisualStyle
  2
Gouraud
 70
     2
 71
     2
 72
     2
 73
     1
 90
        2
 40
-0.6
 41
30.0
 62
     5
 63
     7
421
 16777215
 74
     0
 91
        4
 64
     7
 65
   257
 75
     1
175
     1
 42
1.0
 92
        0
 66
     7
 43
1.0
 76
     1
 77
     6
 78
     2
 67
     7
 79
     5
170
     0
171
     0
290
     0
174
     0
 93
       13
 44
0.0
173
     0
291
     1
 45
0.0
  0
VISUALSTYLE
  5
2E
102
{ACAD_REACTORS
330
2A
102
}
102
{ACAD_XDICTIONARY
360
70
102
}
330
2A
100
AcDbVisualStyle
  2
GouraudWithEdges
 70
     3
 71
     2
 72
     2
 73
     1
 90
        2
 40
-0.6
 41
30.0
 62
     5
 63
     7
421
 16777215
 74
     1
 91
        4
 64
     7
 65
   257
 75
     1
175
     1
 42
1.0
 92
        0
 66
   257
 43
1.0
 76
     1
 77
     6
 78
     2
 67
     7
 79
     5
170
     0
171
     0
290
     0
174
     0
 93
       13
 44
0.0
173
     0
291
     1
 45
0.0
  0
VISUALSTYLE
  5
38
102
{ACAD_REACTORS
330
2A
102
}
102
{ACAD_XDICTIONARY
360
84
102
}
330
2A
100
AcDbVisualStyle
  2
Linepattern
 70
    14
 71
     2
 72
     2
 73
     0
 90
        0
 40
-0.6
 41
-30.0
 62
     5
 63
     7
421
 16777215
 74
     1
 91
        4
 64
     7
 65
   257
 75
     7
175
     7
 42
1.0
 92
        8
 66
     7
 43
1.0
 76
     1
 77
     6
 78
     2
 67
     7
 79
     5
170
     0
171
     0
290
     0
174
     0
 93
        1
 44
0.0
173
     0
291
     1
 45
0.0
  0
VISUALSTYLE
  5
33
102
{ACAD_REACTORS
330
2A
102
}
102
{ACAD_XDICTIONARY
360
7A
102
}
330
2A
100
AcDbVisualStyle
  2
Realistic
 70
     8
 71
     2
 72
     2
 73
     0
 90
        0
 40
-0.6
 41
-30.0
 62
     5
 63
     7
421
 16777215
 74
     1
 91
        0
 64
     7
 65
   257
 75
     1
175
     1
 42
1.0
 92
        8
 66
     8
424
  7895160
 43
1.0
 76
     1
 77
     6
 78
     2
 67
     7
 79
     5
170
     0
171
     0
290
     0
174
     0
 93
       13
 44
0.0
173
     0
291
     0
 45
0.0
  0
VISUALSTYLE
  5
37
102
{ACAD_REACTORS
330
2A
102
}
102
{ACAD_XDICTIONARY
360
82
102
}
330
2A
100
AcDbVisualStyle
  2
Thicken
 70
    13
 71
     2
 72
     2
 73
     0
 90
        0
 40
-0.6
 41
-30.0
 62
     5
 63
     7
421
 16777215
 74
     1
 91
        4
 64
     7
 65
   257
 75
     1
175
     1
 42
1.0
 92
       12
 66
     7
 43
1.0
 76
     1
 77
     6
 78
     2
 67
     7
 79
     5
170
     0
171
     0
290
     0
174
     0
 93
        1
 44
0.0
173
     0
291
     1
 45
0.0
  0
DICTIONARY
  5
72
330
2F
100
AcDbDictionary
280
     1
281
     1
  3
ACAD_XREC_ROUNDTRIP
360
73
  0
DICTIONARY
  5
76
330
31
100
AcDbDictionary
280
     1
281
     1
  3
ACAD_XREC_ROUNDTRIP
360
77
  0
DICTIONARY
  5
74
330
30
100
AcDbDictionary
280
     1
281
     1
  3
ACAD_XREC_ROUNDTRIP
360
75
  0
DICTIONARY
  5
78
330
32
100
AcDbDictionary
280
     1
281
     1
  3
ACAD_XREC_ROUNDTRIP
360
79
  0
DICTIONARY
  5
80
330
36
100
AcDbDictionary
280
     1
281
     1
  3
ACAD_XREC_ROUNDTRIP
360
81
  0
DICTIONARY
  5
88
330
3A
100
AcDbDictionary
280
     1
281
     1
  3
ACAD_XREC_ROUNDTRIP
360
89
  0
DICTIONARY
  5
7C
330
34
100
AcDbDictionary
280
     1
281
     1
  3
ACAD_XREC_ROUNDTRIP
360
7D
  0
DICTIONARY
  5
7E
330
35
100
AcDbDictionary
280
     1
281
     1
  3
ACAD_XREC_ROUNDTRIP
360
7F
  0
DICTIONARY
  5
86
330
39
100
AcDbDictionary
280
     1
281
     1
  3
ACAD_XREC_ROUNDTRIP
360
87
  0
DICTIONARY
  5
6A
330
2B
100
AcDbDictionary
280
     1
281
     1
  3
ACAD_XREC_ROUNDTRIP
360
6B
  0
DICTIONARY
  5
6C
330
2C
100
AcDbDictionary
280
     1
281
     1
  3
ACAD_XREC_ROUNDTRIP
360
6D
  0
DICTIONARY
  5
6E
330
2D
100
AcDbDictionary
280
     1
281
     1
  3
ACAD_XREC_ROUNDTRIP
360
6F
  0
DICTIONARY
  5
70
330
2E
100
AcDbDictionary
280
     1
281
     1
  3
ACAD_XREC_ROUNDTRIP
360
71
  0
DICTIONARY
  5
84
330
38
100
AcDbDictionary
280
     1
281
     1
  3
ACAD_XREC_ROUNDTRIP
360
85
  0
DICTIONARY
  5
7A
330
33
100
AcDbDictionary
280
     1
281
     1
  3
ACAD_XREC_ROUNDTRIP
360
7B
  0
DICTIONARY
  5
82
330
37
100
AcDbDictionary
280
     1
281
     1
  3
ACAD_XREC_ROUNDTRIP
360
83
  0
XRECORD
  5
73
102
{ACAD_REACTORS
330
72
102
}
330
72
100
AcDbXrecord
280
     1
102
RTVSPropertyOp0
 70
     1
102
RTVSPropertyOp1
 70
     1
102
RTVSPropertyOp2
 70
     1
102
RTVSPropertyOp3
 70
     1
102
RTVSPropertyOp4
 70
     1
102
RTVSPropertyOp5
 70
     1
102
RTVSPropertyOp6
 70
     1
102
RTVSPropertyOp7
 70
     1
102
RTVSPropertyOp8
 70
     1
102
RTVSPropertyOp9
 70
     1
102
RTVSPropertyOp10
 70
     1
102
RTVSPropertyOp11
 70
     1
102
RTVSPropertyOp12
 70
     1
102
RTVSPropertyOp13
 70
     1
102
RTVSPropertyOp14
 70
     1
102
RTVSPropertyOp15
 70
     1
102
RTVSPropertyOp16
 70
     1
102
RTVSPropertyOp17
 70
     1
102
RTVSPropertyOp18
 70
     1
102
RTVSPropertyOp19
 70
     1
102
RTVSPropertyOp20
 70
     1
102
RTVSPropertyOp21
 70
     1
102
RTVSPropertyOp22
 70
     1
102
RTVSPropertyOp23
 70
     1
102
RTVSPropertyOp24
 70
     1
102
RTVSPropertyOp25
 70
     1
102
RTVSPropertyOp26
 70
     1
102
RTVSPropertyOp27
 70
     1
102
RTVSPropertyOp28
 70
     1
102
RTVSPropertyOp29
 70
     1
102
RTVSPropertyOp30
 70
     1
102
RTVSPropertyOp31
 70
     1
102
RTVSPropertyOp32
 70
     1
  0
XRECORD
  5
77
102
{ACAD_REACTORS
330
76
102
}
330
76
100
AcDbXrecord
280
     1
102
RTVSPropertyOp0
 70
     1
102
RTVSPropertyOp1
 70
     1
102
RTVSPropertyOp2
 70
     1
102
RTVSPropertyOp3
 70
     1
102
RTVSPropertyOp4
 70
     1
102
RTVSPropertyOp5
 70
     1
102
RTVSPropertyOp6
 70
     1
102
RTVSPropertyOp7
 70
     1
102
RTVSPropertyOp8
 70
     1
102
RTVSPropertyOp9
 70
     1
102
RTVSPropertyOp10
 70
     1
102
RTVSPropertyOp11
 70
     1
102
RTVSPropertyOp12
 70
     1
102
RTVSPropertyOp13
 70
     1
102
RTVSPropertyOp14
 70
     1
102
RTVSPropertyOp15
 70
     1
102
RTVSPropertyOp16
 70
     1
102
RTVSPropertyOp17
 70
     1
102
RTVSPropertyOp18
 70
     1
102
RTVSPropertyOp19
 70
     1
102
RTVSPropertyOp20
 70
     1
102
RTVSPropertyOp21
 70
     1
102
RTVSPropertyOp22
 70
     1
102
RTVSPropertyOp23
 70
     1
102
RTVSPropertyOp24
 70
     1
102
RTVSPropertyOp25
 70
     1
102
RTVSPropertyOp26
 70
     1
102
RTVSPropertyOp27
 70
     1
102
RTVSPropertyOp28
 70
     1
102
RTVSPropertyOp29
 70
     1
102
RTVSPropertyOp30
 70
     1
102
RTVSPropertyOp31
 70
     1
102
RTVSPropertyOp32
 70
     1
  0
XRECORD
  5
75
102
{ACAD_REACTORS
330
74
102
}
330
74
100
AcDbXrecord
280
     1
102
RTVSPropertyOp0
 70
     1
102
RTVSPropertyOp1
 70
     1
102
RTVSPropertyOp2
 70
     1
102
RTVSPropertyOp3
 70
     1
102
RTVSPropertyOp4
 70
     1
102
RTVSPropertyOp5
 70
     1
102
RTVSPropertyOp6
 70
     1
102
RTVSPropertyOp7
 70
     1
102
RTVSPropertyOp8
 70
     1
102
RTVSPropertyOp9
 70
     1
102
RTVSPropertyOp10
 70
     1
102
RTVSPropertyOp11
 70
     1
102
RTVSPropertyOp12
 70
     1
102
RTVSPropertyOp13
 70
     1
102
RTVSPropertyOp14
 70
     1
102
RTVSPropertyOp15
 70
     1
102
RTVSPropertyOp16
 70
     1
102
RTVSPropertyOp17
 70
     1
102
RTVSPropertyOp18
 70
     1
102
RTVSPropertyOp19
 70
     1
102
RTVSPropertyOp20
 70
     1
102
RTVSPropertyOp21
 70
     1
102
RTVSPropertyOp22
 70
     1
102
RTVSPropertyOp23
 70
     1
102
RTVSPropertyOp24
 70
     1
102
RTVSPropertyOp25
 70
     1
102
RTVSPropertyOp26
 70
     1
102
RTVSPropertyOp27
 70
     1
102
RTVSPropertyOp28
 70
     1
102
RTVSPropertyOp29
 70
     1
102
RTVSPropertyOp30
 70
     1
102
RTVSPropertyOp31
 70
     1
102
RTVSPropertyOp32
 70
     1
  0
XRECORD
  5
79
102
{ACAD_REACTORS
330
78
102
}
330
78
100
AcDbXrecord
280
     1
102
RTVSPropertyOp0
 70
     1
102
RTVSPropertyOp1
 70
     1
102
RTVSPropertyOp2
 70
     1
102
RTVSPropertyOp3
 70
     1
102
RTVSPropertyOp4
 70
     1
102
RTVSPropertyOp5
 70
     1
102
RTVSPropertyOp6
 70
     1
102
RTVSPropertyOp7
 70
     1
102
RTVSPropertyOp8
 70
     1
102
RTVSPropertyOp9
 70
     1
102
RTVSPropertyOp10
 70
     1
102
RTVSPropertyOp11
 70
     1
102
RTVSPropertyOp12
 70
     1
102
RTVSPropertyOp13
 70
     1
102
RTVSPropertyOp14
 70
     1
102
RTVSPropertyOp15
 70
     1
102
RTVSPropertyOp16
 70
     1
102
RTVSPropertyOp17
 70
     1
102
RTVSPropertyOp18
 70
     1
102
RTVSPropertyOp19
 70
     1
102
RTVSPropertyOp20
 70
     1
102
RTVSPropertyOp21
 70
     1
102
RTVSPropertyOp22
 70
     1
102
RTVSPropertyOp23
 70
     1
102
RTVSPropertyOp24
 70
     1
102
RTVSPropertyOp25
 70
     1
102
RTVSPropertyOp26
 70
     1
102
RTVSPropertyOp27
 70
     1
102
RTVSPropertyOp28
 70
     1
102
RTVSPropertyOp29
 70
     1
102
RTVSPropertyOp30
 70
     1
102
RTVSPropertyOp31
 70
     1
102
RTVSPropertyOp32
 70
     1
  0
XRECORD
  5
81
102
{ACAD_REACTORS
330
80
102
}
330
80
100
AcDbXrecord
280
     1
102
RTVSPropertyOp0
 70
     1
102
RTVSPropertyOp1
 70
     1
102
RTVSPropertyOp2
 70
     1
102
RTVSPropertyOp3
 70
     1
102
RTVSPropertyOp4
 70
     1
102
RTVSPropertyOp5
 70
     1
102
RTVSPropertyOp6
 70
     1
102
RTVSPropertyOp7
 70
     1
102
RTVSPropertyOp8
 70
     1
102
RTVSPropertyOp9
 70
     1
102
RTVSPropertyOp10
 70
     1
102
RTVSPropertyOp11
 70
     1
102
RTVSPropertyOp12
 70
     1
102
RTVSPropertyOp13
 70
     1
102
RTVSPropertyOp14
 70
     1
102
RTVSPropertyOp15
 70
     1
102
RTVSPropertyOp16
 70
     1
102
RTVSPropertyOp17
 70
     1
102
RTVSPropertyOp18
 70
     1
102
RTVSPropertyOp19
 70
     1
102
RTVSPropertyOp20
 70
     1
102
RTVSPropertyOp21
 70
     1
102
RTVSPropertyOp22
 70
     1
102
RTVSPropertyOp23
 70
     1
102
RTVSPropertyOp24
 70
     1
102
RTVSPropertyOp25
 70
     1
102
RTVSPropertyOp26
 70
     1
102
RTVSPropertyOp27
 70
     1
102
RTVSPropertyOp28
 70
     1
102
RTVSPropertyOp29
 70
     1
102
RTVSPropertyOp30
 70
     1
102
RTVSPropertyOp31
 70
     1
102
RTVSPropertyOp32
 70
     1
  0
XRECORD
  5
89
102
{ACAD_REACTORS
330
88
102
}
330
88
100
AcDbXrecord
280
     1
102
RTVSPropertyOp0
 70
     1
102
RTVSPropertyOp1
 70
     1
102
RTVSPropertyOp2
 70
     1
102
RTVSPropertyOp3
 70
     1
102
RTVSPropertyOp4
 70
     1
102
RTVSPropertyOp5
 70
     1
102
RTVSPropertyOp6
 70
     1
102
RTVSPropertyOp7
 70
     1
102
RTVSPropertyOp8
 70
     1
102
RTVSPropertyOp9
 70
     1
102
RTVSPropertyOp10
 70
     1
102
RTVSPropertyOp11
 70
     1
102
RTVSPropertyOp12
 70
     1
102
RTVSPropertyOp13
 70
     1
102
RTVSPropertyOp14
 70
     1
102
RTVSPropertyOp15
 70
     1
102
RTVSPropertyOp16
 70
     1
102
RTVSPropertyOp17
 70
     1
102
RTVSPropertyOp18
 70
     1
102
RTVSPropertyOp19
 70
     1
102
RTVSPropertyOp20
 70
     1
102
RTVSPropertyOp21
 70
     1
102
RTVSPropertyOp22
 70
     1
102
RTVSPropertyOp23
 70
     1
102
RTVSPropertyOp24
 70
     1
102
RTVSPropertyOp25
 70
     1
102
RTVSPropertyOp26
 70
     1
102
RTVSPropertyOp27
 70
     1
102
RTVSPropertyOp28
 70
     1
102
RTVSPropertyOp29
 70
     1
102
RTVSPropertyOp30
 70
     1
102
RTVSPropertyOp31
 70
     1
102
RTVSPropertyOp32
 70
     1
  0
XRECORD
  5
7D
102
{ACAD_REACTORS
330
7C
102
}
330
7C
100
AcDbXrecord
280
     1
102
RTVSPropertyOp0
 70
     1
102
RTVSPropertyOp1
 70
     1
102
RTVSPropertyOp2
 70
     1
102
RTVSPropertyOp3
 70
     1
102
RTVSPropertyOp4
 70
     1
102
RTVSPropertyOp5
 70
     1
102
RTVSPropertyOp6
 70
     1
102
RTVSPropertyOp7
 70
     1
102
RTVSPropertyOp8
 70
     1
102
RTVSPropertyOp9
 70
     1
102
RTVSPropertyOp10
 70
     1
102
RTVSPropertyOp11
 70
     1
102
RTVSPropertyOp12
 70
     1
102
RTVSPropertyOp13
 70
     1
102
RTVSPropertyOp14
 70
     1
102
RTVSPropertyOp15
 70
     1
102
RTVSPropertyOp16
 70
     1
102
RTVSPropertyOp17
 70
     1
102
RTVSPropertyOp18
 70
     1
102
RTVSPropertyOp19
 70
     1
102
RTVSPropertyOp20
 70
     1
102
RTVSPropertyOp21
 70
     1
102
RTVSPropertyOp22
 70
     1
102
RTVSPropertyOp23
 70
     1
102
RTVSPropertyOp24
 70
     1
102
RTVSPropertyOp25
 70
     1
102
RTVSPropertyOp26
 70
     1
102
RTVSPropertyOp27
 70
     1
102
RTVSPropertyOp28
 70
     1
102
RTVSPropertyOp29
 70
     1
102
RTVSPropertyOp30
 70
     1
102
RTVSPropertyOp31
 70
     1
102
RTVSPropertyOp32
 70
     1
  0
XRECORD
  5
7F
102
{ACAD_REACTORS
330
7E
102
}
330
7E
100
AcDbXrecord
280
     1
102
RTVSPropertyOp0
 70
     1
102
RTVSPropertyOp1
 70
     1
102
RTVSPropertyOp2
 70
     1
102
RTVSPropertyOp3
 70
     1
102
RTVSPropertyOp4
 70
     1
102
RTVSPropertyOp5
 70
     1
102
RTVSPropertyOp6
 70
     1
102
RTVSPropertyOp7
 70
     1
102
RTVSPropertyOp8
 70
     1
102
RTVSPropertyOp9
 70
     1
102
RTVSPropertyOp10
 70
     1
102
RTVSPropertyOp11
 70
     1
102
RTVSPropertyOp12
 70
     1
102
RTVSPropertyOp13
 70
     1
102
RTVSPropertyOp14
 70
     1
102
RTVSPropertyOp15
 70
     1
102
RTVSPropertyOp16
 70
     1
102
RTVSPropertyOp17
 70
     1
102
RTVSPropertyOp18
 70
     1
102
RTVSPropertyOp19
 70
     1
102
RTVSPropertyOp20
 70
     1
102
RTVSPropertyOp21
 70
     1
102
RTVSPropertyOp22
 70
     1
102
RTVSPropertyOp23
 70
     1
102
RTVSPropertyOp24
 70
     1
102
RTVSPropertyOp25
 70
     1
102
RTVSPropertyOp26
 70
     1
102
RTVSPropertyOp27
 70
     1
102
RTVSPropertyOp28
 70
     1
102
RTVSPropertyOp29
 70
     1
102
RTVSPropertyOp30
 70
     1
102
RTVSPropertyOp31
 70
     1
102
RTVSPropertyOp32
 70
     1
  0
XRECORD
  5
87
102
{ACAD_REACTORS
330
86
102
}
330
86
100
AcDbXrecord
280
     1
102
RTVSPropertyOp0
 70
     1
102
RTVSPropertyOp1
 70
     1
102
RTVSPropertyOp2
 70
     1
102
RTVSPropertyOp3
 70
     1
102
RTVSPropertyOp4
 70
     1
102
RTVSPropertyOp5
 70
     1
102
RTVSPropertyOp6
 70
     1
102
RTVSPropertyOp7
 70
     1
102
RTVSPropertyOp8
 70
     1
102
RTVSPropertyOp9
 70
     1
102
RTVSPropertyOp10
 70
     1
102
RTVSPropertyOp11
 70
     1
102
RTVSPropertyOp12
 70
     1
102
RTVSPropertyOp13
 70
     1
102
RTVSPropertyOp14
 70
     1
102
RTVSPropertyOp15
 70
     1
102
RTVSPropertyOp16
 70
     1
102
RTVSPropertyOp17
 70
     1
102
RTVSPropertyOp18
 70
     1
102
RTVSPropertyOp19
 70
     1
102
RTVSPropertyOp20
 70
     1
102
RTVSPropertyOp21
 70
     1
102
RTVSPropertyOp22
 70
     1
102
RTVSPropertyOp23
 70
     1
102
RTVSPropertyOp24
 70
     1
102
RTVSPropertyOp25
 70
     1
102
RTVSPropertyOp26
 70
     1
102
RTVSPropertyOp27
 70
     1
102
RTVSPropertyOp28
 70
     1
102
RTVSPropertyOp29
 70
     1
102
RTVSPropertyOp30
 70
     1
102
RTVSPropertyOp31
 70
     1
102
RTVSPropertyOp32
 70
     1
  0
XRECORD
  5
6B
102
{ACAD_REACTORS
330
6A
102
}
330
6A
100
AcDbXrecord
280
     1
102
RTVSPropertyOp0
 70
     1
102
RTVSPropertyOp1
 70
     1
102
RTVSPropertyOp2
 70
     1
102
RTVSPropertyOp3
 70
     1
102
RTVSPropertyOp4
 70
     1
102
RTVSPropertyOp5
 70
     1
102
RTVSPropertyOp6
 70
     1
102
RTVSPropertyOp7
 70
     1
102
RTVSPropertyOp8
 70
     1
102
RTVSPropertyOp9
 70
     1
102
RTVSPropertyOp10
 70
     1
102
RTVSPropertyOp11
 70
     1
102
RTVSPropertyOp12
 70
     1
102
RTVSPropertyOp13
 70
     1
102
RTVSPropertyOp14
 70
     1
102
RTVSPropertyOp15
 70
     1
102
RTVSPropertyOp16
 70
     1
102
RTVSPropertyOp17
 70
     1
102
RTVSPropertyOp18
 70
     1
102
RTVSPropertyOp19
 70
     1
102
RTVSPropertyOp20
 70
     1
102
RTVSPropertyOp21
 70
     1
102
RTVSPropertyOp22
 70
     1
102
RTVSPropertyOp23
 70
     1
102
RTVSPropertyOp24
 70
     1
102
RTVSPropertyOp25
 70
     1
102
RTVSPropertyOp26
 70
     1
102
RTVSPropertyOp27
 70
     1
102
RTVSPropertyOp28
 70
     1
102
RTVSPropertyOp29
 70
     1
102
RTVSPropertyOp30
 70
     1
102
RTVSPropertyOp31
 70
     1
102
RTVSPropertyOp32
 70
     1
  0
XRECORD
  5
6D
102
{ACAD_REACTORS
330
6C
102
}
330
6C
100
AcDbXrecord
280
     1
102
RTVSPropertyOp0
 70
     1
102
RTVSPropertyOp1
 70
     1
102
RTVSPropertyOp2
 70
     1
102
RTVSPropertyOp3
 70
     1
102
RTVSPropertyOp4
 70
     1
102
RTVSPropertyOp5
 70
     1
102
RTVSPropertyOp6
 70
     1
102
RTVSPropertyOp7
 70
     1
102
RTVSPropertyOp8
 70
     1
102
RTVSPropertyOp9
 70
     1
102
RTVSPropertyOp10
 70
     1
102
RTVSPropertyOp11
 70
     1
102
RTVSPropertyOp12
 70
     1
102
RTVSPropertyOp13
 70
     1
102
RTVSPropertyOp14
 70
     1
102
RTVSPropertyOp15
 70
     1
102
RTVSPropertyOp16
 70
     1
102
RTVSPropertyOp17
 70
     1
102
RTVSPropertyOp18
 70
     1
102
RTVSPropertyOp19
 70
     1
102
RTVSPropertyOp20
 70
     1
102
RTVSPropertyOp21
 70
     1
102
RTVSPropertyOp22
 70
     1
102
RTVSPropertyOp23
 70
     1
102
RTVSPropertyOp24
 70
     1
102
RTVSPropertyOp25
 70
     1
102
RTVSPropertyOp26
 70
     1
102
RTVSPropertyOp27
 70
     1
102
RTVSPropertyOp28
 70
     1
102
RTVSPropertyOp29
 70
     1
102
RTVSPropertyOp30
 70
     1
102
RTVSPropertyOp31
 70
     1
102
RTVSPropertyOp32
 70
     1
  0
XRECORD
  5
6F
102
{ACAD_REACTORS
330
6E
102
}
330
6E
100
AcDbXrecord
280
     1
102
RTVSPropertyOp0
 70
     1
102
RTVSPropertyOp1
 70
     1
102
RTVSPropertyOp2
 70
     1
102
RTVSPropertyOp3
 70
     1
102
RTVSPropertyOp4
 70
     1
102
RTVSPropertyOp5
 70
     1
102
RTVSPropertyOp6
 70
     1
102
RTVSPropertyOp7
 70
     1
102
RTVSPropertyOp8
 70
     1
102
RTVSPropertyOp9
 70
     1
102
RTVSPropertyOp10
 70
     1
102
RTVSPropertyOp11
 70
     1
102
RTVSPropertyOp12
 70
     1
102
RTVSPropertyOp13
 70
     1
102
RTVSPropertyOp14
 70
     1
102
RTVSPropertyOp15
 70
     1
102
RTVSPropertyOp16
 70
     1
102
RTVSPropertyOp17
 70
     1
102
RTVSPropertyOp18
 70
     1
102
RTVSPropertyOp19
 70
     1
102
RTVSPropertyOp20
 70
     1
102
RTVSPropertyOp21
 70
     1
102
RTVSPropertyOp22
 70
     1
102
RTVSPropertyOp23
 70
     1
102
RTVSPropertyOp24
 70
     1
102
RTVSPropertyOp25
 70
     1
102
RTVSPropertyOp26
 70
     1
102
RTVSPropertyOp27
 70
     1
102
RTVSPropertyOp28
 70
     1
102
RTVSPropertyOp29
 70
     1
102
RTVSPropertyOp30
 70
     1
102
RTVSPropertyOp31
 70
     1
102
RTVSPropertyOp32
 70
     1
  0
XRECORD
  5
71
102
{ACAD_REACTORS
330
70
102
}
330
70
100
AcDbXrecord
280
     1
102
RTVSPropertyOp0
 70
     1
102
RTVSPropertyOp1
 70
     1
102
RTVSPropertyOp2
 70
     1
102
RTVSPropertyOp3
 70
     1
102
RTVSPropertyOp4
 70
     1
102
RTVSPropertyOp5
 70
     1
102
RTVSPropertyOp6
 70
     1
102
RTVSPropertyOp7
 70
     1
102
RTVSPropertyOp8
 70
     1
102
RTVSPropertyOp9
 70
     1
102
RTVSPropertyOp10
 70
     1
102
RTVSPropertyOp11
 70
     1
102
RTVSPropertyOp12
 70
     1
102
RTVSPropertyOp13
 70
     1
102
RTVSPropertyOp14
 70
     1
102
RTVSPropertyOp15
 70
     1
102
RTVSPropertyOp16
 70
     1
102
RTVSPropertyOp17
 70
     1
102
RTVSPropertyOp18
 70
     1
102
RTVSPropertyOp19
 70
     1
102
RTVSPropertyOp20
 70
     1
102
RTVSPropertyOp21
 70
     1
102
RTVSPropertyOp22
 70
     1
102
RTVSPropertyOp23
 70
     1
102
RTVSPropertyOp24
 70
     1
102
RTVSPropertyOp25
 70
     1
102
RTVSPropertyOp26
 70
     1
102
RTVSPropertyOp27
 70
     1
102
RTVSPropertyOp28
 70
     1
102
RTVSPropertyOp29
 70
     1
102
RTVSPropertyOp30
 70
     1
102
RTVSPropertyOp31
 70
     1
102
RTVSPropertyOp32
 70
     1
  0
XRECORD
  5
85
102
{ACAD_REACTORS
330
84
102
}
330
84
100
AcDbXrecord
280
     1
102
RTVSPropertyOp0
 70
     1
102
RTVSPropertyOp1
 70
     1
102
RTVSPropertyOp2
 70
     1
102
RTVSPropertyOp3
 70
     1
102
RTVSPropertyOp4
 70
     1
102
RTVSPropertyOp5
 70
     1
102
RTVSPropertyOp6
 70
     1
102
RTVSPropertyOp7
 70
     1
102
RTVSPropertyOp8
 70
     1
102
RTVSPropertyOp9
 70
     1
102
RTVSPropertyOp10
 70
     1
102
RTVSPropertyOp11
 70
     1
102
RTVSPropertyOp12
 70
     1
102
RTVSPropertyOp13
 70
     1
102
RTVSPropertyOp14
 70
     1
102
RTVSPropertyOp15
 70
     1
102
RTVSPropertyOp16
 70
     1
102
RTVSPropertyOp17
 70
     1
102
RTVSPropertyOp18
 70
     1
102
RTVSPropertyOp19
 70
     1
102
RTVSPropertyOp20
 70
     1
102
RTVSPropertyOp21
 70
     1
102
RTVSPropertyOp22
 70
     1
102
RTVSPropertyOp23
 70
     1
102
RTVSPropertyOp24
 70
     1
102
RTVSPropertyOp25
 70
     1
102
RTVSPropertyOp26
 70
     1
102
RTVSPropertyOp27
 70
     1
102
RTVSPropertyOp28
 70
     1
102
RTVSPropertyOp29
 70
     1
102
RTVSPropertyOp30
 70
     1
102
RTVSPropertyOp31
 70
     1
102
RTVSPropertyOp32
 70
     1
  0
XRECORD
  5
7B
102
{ACAD_REACTORS
330
7A
102
}
330
7A
100
AcDbXrecord
280
     1
102
RTVSPropertyOp0
 70
     1
102
RTVSPropertyOp1
 70
     1
102
RTVSPropertyOp2
 70
     1
102
RTVSPropertyOp3
 70
     1
102
RTVSPropertyOp4
 70
     1
102
RTVSPropertyOp5
 70
     1
102
RTVSPropertyOp6
 70
     1
102
RTVSPropertyOp7
 70
     1
102
RTVSPropertyOp8
 70
     1
102
RTVSPropertyOp9
 70
     1
102
RTVSPropertyOp10
 70
     1
102
RTVSPropertyOp11
 70
     1
102
RTVSPropertyOp12
 70
     1
102
RTVSPropertyOp13
 70
     1
102
RTVSPropertyOp14
 70
     1
102
RTVSPropertyOp15
 70
     1
102
RTVSPropertyOp16
 70
     1
102
RTVSPropertyOp17
 70
     1
102
RTVSPropertyOp18
 70
     1
102
RTVSPropertyOp19
 70
     1
102
RTVSPropertyOp20
 70
     1
102
RTVSPropertyOp21
 70
     1
102
RTVSPropertyOp22
 70
     1
102
RTVSPropertyOp23
 70
     1
102
RTVSPropertyOp24
 70
     1
102
RTVSPropertyOp25
 70
     1
102
RTVSPropertyOp26
 70
     1
102
RTVSPropertyOp27
 70
     1
102
RTVSPropertyOp28
 70
     1
102
RTVSPropertyOp29
 70
     1
102
RTVSPropertyOp30
 70
     1
102
RTVSPropertyOp31
 70
     1
102
RTVSPropertyOp32
 70
     1
  0
XRECORD
  5
83
102
{ACAD_REACTORS
330
82
102
}
330
82
100
AcDbXrecord
280
     1
102
RTVSPropertyOp0
 70
     1
102
RTVSPropertyOp1
 70
     1
102
RTVSPropertyOp2
 70
     1
102
RTVSPropertyOp3
 70
     1
102
RTVSPropertyOp4
 70
     1
102
RTVSPropertyOp5
 70
     1
102
RTVSPropertyOp6
 70
     1
102
RTVSPropertyOp7
 70
     1
102
RTVSPropertyOp8
 70
     1
102
RTVSPropertyOp9
 70
     1
102
RTVSPropertyOp10
 70
     1
102
RTVSPropertyOp11
 70
     1
102
RTVSPropertyOp12
 70
     1
102
RTVSPropertyOp13
 70
     1
102
RTVSPropertyOp14
 70
     1
102
RTVSPropertyOp15
 70
     1
102
RTVSPropertyOp16
 70
     1
102
RTVSPropertyOp17
 70
     1
102
RTVSPropertyOp18
 70
     1
102
RTVSPropertyOp19
 70
     1
102
RTVSPropertyOp20
 70
     1
102
RTVSPropertyOp21
 70
     1
102
RTVSPropertyOp22
 70
     1
102
RTVSPropertyOp23
 70
     1
102
RTVSPropertyOp24
 70
     1
102
RTVSPropertyOp25
 70
     1
102
RTVSPropertyOp26
 70
     1
102
RTVSPropertyOp27
 70
     1
102
RTVSPropertyOp28
 70
     1
102
RTVSPropertyOp29
 70
     1
102
RTVSPropertyOp30
 70
     1
102
RTVSPropertyOp31
 70
     1
102
RTVSPropertyOp32
 70
     1
  0
ENDSEC
  0
EOF
