  0
SECTION
  2
HEADER
  9
$ACADVER
  1
AC1021
  9
$ACADMAINTVER
 70
    25
  9
$DWGCODEPAGE
  3
ANSI_1252
  9
$INSBASE
 10
0.0
 20
0.0
 30
0.0
  9
$EXTMIN
 10
-187.5173
 20
-114.9155
 30
0.0
  9
$EXTMAX
 10
-74.512
 20
131.6561
 30
0.0
  9
$LIMMIN
 10
0.0
 20
0.0
  9
$LIMMAX
 10
12.0
 20
9.0
  9
$ORTHOMODE
 70
     0
  9
$REGENMODE
 70
     1
  9
$FILLMODE
 70
     1
  9
$QTEXTMODE
 70
     0
  9
$MIRRTEXT
 70
     1
  9
$LTSCALE
 40
1.0
  9
$ATTMODE
 70
     1
  9
$TEXTSIZE
 40
0.2
  9
$TRACEWID
 40
0.05
  9
$TEXTSTYLE
  7
Standard
  9
$CLAYER
  8
0
  9
$CELTYPE
  6
ByLayer
  9
$CECOLOR
 62
   256
  9
$CELTSCALE
 40
1.0
  9
$DISPSILH
 70
     0
  9
$DIMSCALE
 40
1.0
  9
$DIMASZ
 40
0.18
  9
$DIMEXO
 40
0.0625
  9
$DIMDLI
 40
0.38
  9
$DIMRND
 40
0.0
  9
$DIMDLE
 40
0.0
  9
$DIMEXE
 40
0.18
  9
$DIMTP
 40
0.0
  9
$DIMTM
 40
0.0
  9
$DIMTXT
 40
0.18
  9
$DIMCEN
 40
0.09
  9
$DIMTSZ
 40
0.0
  9
$DIMTOL
 70
     0
  9
$DIMLIM
 70
     0
  9
$DIMTIH
 70
     1
  9
$DIMTOH
 70
     1
  9
$DIMSE1
 70
     0
  9
$DIMSE2
 70
     0
  9
$DIMTAD
 70
     0
  9
$DIMZIN
 70
     0
  9
$DIMBLK
  1

  9
$DIMASO
 70
     1
  9
$DIMSHO
 70
     1
  9
$DIMPOST
  1

  9
$DIMAPOST
  1

  9
$DIMALT
 70
     0
  9
$DIMALTD
 70
     2
  9
$DIMALTF
 40
25.4
  9
$DIMLFAC
 40
1.0
  9
$DIMTOFL
 70
     0
  9
$DIMTVP
 40
0.0
  9
$DIMTIX
 70
     0
  9
$DIMSOXD
 70
     0
  9
$DIMSAH
 70
     0
  9
$DIMBLK1
  1

  9
$DIMBLK2
  1

  9
$DIMSTYLE
  2
Standard
  9
$DIMCLRD
 70
     0
  9
$DIMCLRE
 70
     0
  9
$DIMCLRT
 70
     0
  9
$DIMTFAC
 40
1.0
  9
$DIMGAP
 40
0.09
  9
$DIMJUST
 70
     0
  9
$DIMSD1
 70
     0
  9
$DIMSD2
 70
     0
  9
$DIMTOLJ
 70
     1
  9
$DIMTZIN
 70
     0
  9
$DIMALTZ
 70
     0
  9
$DIMALTTZ
 70
     0
  9
$DIMUPT
 70
     0
  9
$DIMDEC
 70
     4
  9
$DIMTDEC
 70
     4
  9
$DIMALTU
 70
     2
  9
$DIMALTTD
 70
     2
  9
$DIMTXSTY
  7
Standard
  9
$DIMAUNIT
 70
     0
  9
$DIMADEC
 70
     0
  9
$DIMALTRND
 40
0.0
  9
$DIMAZIN
 70
     0
  9
$DIMDSEP
 70
    46
  9
$DIMATFIT
 70
     3
  9
$DIMFRAC
 70
     0
  9
$DIMLDRBLK
  1

  9
$DIMLUNIT
 70
     2
  9
$DIMLWD
 70
    -2
  9
$DIMLWE
 70
    -2
  9
$DIMTMOVE
 70
     0
  9
$DIMFXL
 40
1.0
  9
$DIMFXLON
 70
     0
  9
$DIMJOGANG
 40
0.7853981633974483
  9
$DIMTFILL
 70
     0
  9
$DIMTFILLCLR
 70
     0
  9
$DIMARCSYM
 70
     0
  9
$DIMLTYPE
  6

  9
$DIMLTEX1
  6

  9
$DIMLTEX2
  6

  9
$LUNITS
 70
     2
  9
$LUPREC
 70
     4
  9
$SKETCHINC
 40
0.1
  9
$FILLETRAD
 40
0.5
  9
$AUNITS
 70
     0
  9
$AUPREC
 70
     0
  9
$MENU
  1
.
  9
$ELEVATION
 40
0.0
  9
$PELEVATION
 40
0.0
  9
$THICKNESS
 40
0.0
  9
$LIMCHECK
 70
     0
  9
$CHAMFERA
 40
0.5
  9
$CHAMFERB
 40
0.5
  9
$CHAMFERC
 40
1.0
  9
$CHAMFERD
 40
0.0
  9
$SKPOLY
 70
     0
  9
$TDCREATE
 40
2458492.552548345
  9
$TDUCREATE
 40
2458492.552548345
  9
$TDUPDATE
 40
2458492.552548437
  9
$TDUUPDATE
 40
2458492.552548437
  9
$TDINDWG
 40
0.0000000116
  9
$TDUSRTIMER
 40
0.0000000116
  9
$USRTIMER
 70
     1
  9
$ANGBASE
 50
0.0
  9
$ANGDIR
 70
     0
  9
$PDMODE
 70
     0
  9
$PDSIZE
 40
0.0
  9
$PLINEWID
 40
0.0
  9
$SPLFRAME
 70
     0
  9
$SPLINETYPE
 70
     6
  9
$SPLINESEGS
 70
     8
  9
$HANDSEED
  5
BB
  9
$SURFTAB1
 70
     6
  9
$SURFTAB2
 70
     6
  9
$SURFTYPE
 70
     6
  9
$SURFU
 70
     6
  9
$SURFV
 70
     6
  9
$UCSBASE
  2

  9
$UCSNAME
  2

  9
$UCSORG
 10
0.0
 20
0.0
 30
0.0
  9
$UCSXDIR
 10
1.0
 20
0.0
 30
0.0
  9
$UCSYDIR
 10
0.0
 20
1.0
 30
0.0
  9
$UCSORTHOREF
  2

  9
$UCSORTHOVIEW
 70
     0
  9
$UCSORGTOP
 10
0.0
 20
0.0
 30
0.0
  9
$UCSORGBOTTOM
 10
0.0
 20
0.0
 30
0.0
  9
$UCSORGLEFT
 10
0.0
 20
0.0
 30
0.0
  9
$UCSORGRIGHT
 10
0.0
 20
0.0
 30
0.0
  9
$UCSORGFRONT
 10
0.0
 20
0.0
 30
0.0
  9
$UCSORGBACK
 10
0.0
 20
0.0
 30
0.0
  9
$PUCSBASE
  2

  9
$PUCSNAME
  2

  9
$PUCSORG
 10
0.0
 20
0.0
 30
0.0
  9
$PUCSXDIR
 10
1.0
 20
0.0
 30
0.0
  9
$PUCSYDIR
 10
0.0
 20
1.0
 30
0.0
  9
$PUCSORTHOREF
  2

  9
$PUCSORTHOVIEW
 70
     0
  9
$PUCSORGTOP
 10
0.0
 20
0.0
 30
0.0
  9
$PUCSORGBOTTOM
 10
0.0
 20
0.0
 30
0.0
  9
$PUCSORGLEFT
 10
0.0
 20
0.0
 30
0.0
  9
$PUCSORGRIGHT
 10
0.0
 20
0.0
 30
0.0
  9
$PUCSORGFRONT
 10
0.0
 20
0.0
 30
0.0
  9
$PUCSORGBACK
 10
0.0
 20
0.0
 30
0.0
  9
$USERI1
 70
     0
  9
$USERI2
 70
     0
  9
$USERI3
 70
     0
  9
$USERI4
 70
     0
  9
$USERI5
 70
     0
  9
$USERR1
 40
0.0
  9
$USERR2
 40
0.0
  9
$USERR3
 40
0.0
  9
$USERR4
 40
0.0
  9
$USERR5
 40
0.0
  9
$WORLDVIEW
 70
     1
  9
$SHADEDGE
 70
     3
  9
$SHADEDIF
 70
    70
  9
$TILEMODE
 70
     1
  9
$MAXACTVP
 70
    64
  9
$PINSBASE
 10
0.0
 20
0.0
 30
0.0
  9
$PLIMCHECK
 70
     0
  9
$PEXTMIN
 10
1.000000000000000E+20
 20
1.000000000000000E+20
 30
1.000000000000000E+20
  9
$PEXTMAX
 10
-1.000000000000000E+20
 20
-1.000000000000000E+20
 30
-1.000000000000000E+20
  9
$PLIMMIN
 10
0.0
 20
0.0
  9
$PLIMMAX
 10
12.0
 20
9.0
  9
$UNITMODE
 70
     0
  9
$VISRETAIN
 70
     1
  9
$PLINEGEN
 70
     0
  9
$PSLTSCALE
 70
     1
  9
$TREEDEPTH
 70
  3020
  9
$CMLSTYLE
  2
Standard
  9
$CMLJUST
 70
     0
  9
$CMLSCALE
 40
1.0
  9
$PROXYGRAPHICS
 70
     1
  9
$MEASUREMENT
 70
     0
  9
$CELWEIGHT
370
    -1
  9
$ENDCAPS
280
     0
  9
$JOINSTYLE
280
     0
  9
$LWDISPLAY
290
     0
  9
$INSUNITS
 70
     4
  9
$HYPERLINKBASE
  1

  9
$STYLESHEET
  1

  9
$XEDIT
290
     1
  9
$CEPSNTYPE
380
     0
  9
$PSTYLEMODE
290
     1
  9
$FINGERPRINTGUID
  2
{2A6D0077-E5D5-4988-A372-3BC9FA5EB32F}
  9
$VERSIONGUID
  2
{FAEB1C32-E019-11D5-929B-00C0DF256EC4}
  9
$EXTNAMES
290
     1
  9
$PSVPSCALE
 40
0.0
  9
$OLESTARTUP
290
     0
  9
$SORTENTS
280
   127
  9
$INDEXCTL
280
     0
  9
$HIDETEXT
280
     1
  9
$XCLIPFRAME
290
     0
  9
$HALOGAP
280
     0
  9
$OBSCOLOR
 70
   257
  9
$OBSLTYPE
280
     0
  9
$INTERSECTIONDISPLAY
280
     0
  9
$INTERSECTIONCOLOR
 70
   257
  9
$DIMASSOC
280
     2
  9
$PROJECTNAME
  1

  9
$CAMERADISPLAY
290
     0
  9
$LENSLENGTH
 40
50.0
  9
$CAMERAHEIGHT
 40
0.0
  9
$STEPSPERSEC
 40
2.0
  9
$STEPSIZE
 40
6.0
  9
$3DDWFPREC
 40
2.0
  9
$PSOLWIDTH
 40
0.25
  9
$PSOLHEIGHT
 40
4.0
  9
$LOFTANG1
 40
1.570796326794897
  9
$LOFTANG2
 40
1.570796326794897
  9
$LOFTMAG1
 40
0.0
  9
$LOFTMAG2
 40
0.0
  9
$LOFTPARAM
 70
     7
  9
$LOFTNORMALS
280
     1
  9
$LATITUDE
 40
37.795
  9
$LONGITUDE
 40
-122.394
  9
$NORTHDIRECTION
 40
0.0
  9
$TIMEZONE
 70
 -8000
  9
$LIGHTGLYPHDISPLAY
280
     1
  9
$TILEMODELIGHTSYNCH
280
     1
  9
$SOLIDHIST
280
     1
  9
$SHOWHIST
280
     1
  9
$DWFFRAME
280
     2
  9
$DGNFRAME
280
     2
  9
$REALWORLDSCALE
290
     1
  9
$INTERFERECOLOR
 62
   256
  9
$CSHADOW
280
     0
  9
$SHADOWPLANELOCATION
 40
0.0
  0
ENDSEC
  0
SECTION
  2
CLASSES
  0
CLASS
  1
ACDBDICTIONARYWDFLT
  2
AcDbDictionaryWithDefault
  3
ObjectDBX Classes
 90
        0
 91
        4
280
     0
281
     0
  0
CLASS
  1
VISUALSTYLE
  2
AcDbVisualStyle
  3
ObjectDBX Classes
 90
     4095
 91
        4
280
     0
281
     0
  0
CLASS
  1
MATERIAL
  2
AcDbMaterial
  3
ObjectDBX Classes
 90
     1153
 91
        4
280
     0
281
     0
  0
ENDSEC
  0
SECTION
  2
TABLES
  0
TABLE
  2
VPORT
  5
8
330
0
100
AcDbSymbolTable
 70
     1
  0
VPORT
  5
29
330
8
100
AcDbSymbolTableRecord
100
AcDbViewportTableRecord
  2
*Active
 70
     0
 10
0.0
 20
0.0
 11
1.0
 21
1.0
 12
10.42990654205607
 22
4.5
 13
0.0
 23
0.0
 14
0.5
 24
0.5
 15
0.5
 25
0.5
 16
0.0
 26
0.0
 36
1.0
 17
0.0
 27
0.0
 37
0.0
 40
9.0
 41
1.972972972850329
 42
50.0
 43
0.0
 44
0.0
 50
0.0
 51
0.0
 71
     0
 72
   100
 73
     1
 74
     3
 75
     0
 76
     0
 77
     0
 78
     0
281
     0
 65
     1
110
0.0
120
0.0
130
0.0
111
1.0
121
0.0
131
0.0
112
0.0
122
1.0
132
0.0
 79
     0
146
0.0
 60
     3
 61
     5
292
     1
282
     1
141
0.0
142
0.0
 63
   250
  0
ENDTAB
  0
TABLE
  2
LTYPE
  5
5
330
0
100
AcDbSymbolTable
 70
     1
  0
LTYPE
  5
14
330
5
100
AcDbSymbolTableRecord
100
AcDbLinetypeTableRecord
  2
ByBlock
 70
     0
  3

 72
    65
 73
     0
 40
0.0
  0
LTYPE
  5
15
330
5
100
AcDbSymbolTableRecord
100
AcDbLinetypeTableRecord
  2
ByLayer
 70
     0
  3

 72
    65
 73
     0
 40
0.0
  0
LTYPE
  5
16
330
5
100
AcDbSymbolTableRecord
100
AcDbLinetypeTableRecord
  2
Continuous
 70
     0
  3
Solid line
 72
    65
 73
     0
 40
0.0
  0
ENDTAB
  0
TABLE
  2
LAYER
  5
2
330
0
100
AcDbSymbolTable
 70
     3
  0
LAYER
  5
10
330
2
100
AcDbSymbolTableRecord
100
AcDbLayerTableRecord
  2
0
 70
     0
 62
     7
  6
Continuous
370
    -3
390
F
347
3E
  0
LAYER
  5
40
330
2
100
AcDbSymbolTableRecord
100
AcDbLayerTableRecord
  2
layer 1
 70
     0
 62
     7
  6
Continuous
370
    -3
390
F
347
3E
  0
LAYER
  5
98
330
2
100
AcDbSymbolTableRecord
100
AcDbLayerTableRecord
  2
Master Guides
 70
     0
 62
     7
  6
Continuous
370
    -3
390
F
347
3E
  0
ENDTAB
  0
TABLE
  2
STYLE
  5
3
330
0
100
AcDbSymbolTable
 70
     1
  0
STYLE
  5
11
330
3
100
AcDbSymbolTableRecord
100
AcDbTextStyleTableRecord
  2
Standard
 70
     0
 40
0.0
 41
1.0
 50
0.0
 71
     0
 42
0.2
  3
txt
  4

  0
ENDTAB
  0
TABLE
  2
VIEW
  5
6
330
0
100
AcDbSymbolTable
 70
     0
  0
ENDTAB
  0
TABLE
  2
UCS
  5
7
330
0
100
AcDbSymbolTable
 70
     0
  0
ENDTAB
  0
TABLE
  2
APPID
  5
9
330
0
100
AcDbSymbolTable
 70
     2
  0
APPID
  5
12
330
9
100
AcDbSymbolTableRecord
100
AcDbRegAppTableRecord
  2
ACAD
 70
     0
  0
APPID
  5
3F
330
9
100
AcDbSymbolTableRecord
100
AcDbRegAppTableRecord
  2
ODA
 70
     0
  0
ENDTAB
  0
TABLE
  2
DIMSTYLE
  5
A
330
0
100
AcDbSymbolTable
 70
     1
100
AcDbDimStyleTable
  0
DIMSTYLE
105
27
330
A
100
AcDbSymbolTableRecord
100
AcDbDimStyleTableRecord
  2
Standard
 70
     0
178
     0
340
11
  0
ENDTAB
  0
TABLE
  2
BLOCK_RECORD
  5
1
330
0
100
AcDbSymbolTable
 70
     1
  0
BLOCK_RECORD
  5
1F
330
1
100
AcDbSymbolTableRecord
100
AcDbBlockTableRecord
  2
*Model_Space
340
22
 70
     0
280
     1
281
     0
  0
BLOCK_RECORD
  5
1B
330
1
100
AcDbSymbolTableRecord
100
AcDbBlockTableRecord
  2
*Paper_Space
340
1E
 70
     0
280
     1
281
     0
  0
BLOCK_RECORD
  5
23
330
1
100
AcDbSymbolTableRecord
100
AcDbBlockTableRecord
  2
*Paper_Space0
340
26
 70
     0
280
     1
281
     0
  0
ENDTAB
  0
ENDSEC
  0
SECTION
  2
BLOCKS
  0
BLOCK
  5
20
330
1F
100
AcDbEntity
  8
0
100
AcDbBlockBegin
  2
*Model_Space
 70
     0
 10
0.0
 20
0.0
 30
0.0
  3
*Model_Space
  1

  0
ENDBLK
  5
21
330
1F
100
AcDbEntity
  8
0
100
AcDbBlockEnd
  0
BLOCK
  5
1C
330
1B
100
AcDbEntity
 67
     1
  8
0
100
AcDbBlockBegin
  2
*Paper_Space
 70
     0
 10
0.0
 20
0.0
 30
0.0
  3
*Paper_Space
  1

  0
ENDBLK
  5
1D
330
1B
100
AcDbEntity
 67
     1
  8
0
100
AcDbBlockEnd
  0
BLOCK
  5
24
330
23
100
AcDbEntity
  8
0
100
AcDbBlockBegin
  2
*Paper_Space0
 70
     0
 10
0.0
 20
0.0
 30
0.0
  3
*Paper_Space0
  1

  0
ENDBLK
  5
25
330
23
100
AcDbEntity
  8
0
100
AcDbBlockEnd
  0
ENDSEC
  0
SECTION
  2
ENTITIES
  0
SPLINE
  5
41
330
1F
100
AcDbEntity
  8
layer 1
100
AcDbSpline
210
0.0
220
0.0
230
1.0
 70
    11
 71
     3
 72
    20
 73
    16
 74
     0
 42
0.0000000001
 43
0.0000000001
 12
1.0
 22
0.0
 32
0.0
 13
1.0
 23
0.0
 33
0.0
 40
0.0
 40
0.0
 40
0.0
 40
0.0
 40
0.2
 40
0.2
 40
0.2
 40
0.2
 40
0.4
 40
0.4
 40
0.4
 40
0.4
 40
0.6
 40
0.6
 40
0.6
 40
0.6
 40
1.0
 40
1.0
 40
1.0
 40
1.0
 10
-187.5173
 20
131.6561
 30
0.0
 10
-187.5173
 20
131.6561
 30
0.0
 10
-74.512
 20
131.6561
 30
0.0
 10
-74.512
 20
131.6561
 30
0.0
 10
-74.512
 20
131.6561
 30
0.0
 10
-74.512
 20
131.6561
 30
0.0
 10
-74.512
 20
-114.9155
 30
0.0
 10
-74.512
 20
-114.9155
 30
0.0
 10
-74.512
 20
-114.9155
 30
0.0
 10
-74.512
 20
-114.9155
 30
0.0
 10
-187.5173
 20
-114.9155
 30
0.0
 10
-187.5173
 20
-114.9155
 30
0.0
 10
-187.5173
 20
-114.9155
 30
0.0
 10
-187.5173
 20
-114.9155
 30
0.0
 10
-187.5173
 20
131.6561
 30
0.0
 10
-187.5173
 20
131.6561
 30
0.0
  0
SPLINE
  5
42
330
1F
100
AcDbEntity
  8
layer 1
 62
     7
100
AcDbSpline
210
0.0
220
0.0
230
1.0
 70
    11
 71
     3
 72
    44
 73
    40
 74
     0
 42
0.0000000001
 43
0.0000000001
 12
1.0
 22
0.0
 32
0.0
 13
1.0
 23
0.0
 33
0.0
 40
0.0
 40
0.0
 40
0.0
 40
0.0
 40
0.0909090909090909
 40
0.0909090909090909
 40
0.0909090909090909
 40
0.0909090909090909
 40
0.1818181818181818
 40
0.1818181818181818
 40
0.1818181818181818
 40
0.1818181818181818
 40
0.2727272727272727
 40
0.2727272727272727
 40
0.2727272727272727
 40
0.2727272727272727
 40
0.3636363636363636
 40
0.3636363636363636
 40
0.3636363636363636
 40
0.3636363636363636
 40
0.4545454545454545
 40
0.4545454545454545
 40
0.4545454545454545
 40
0.4545454545454545
 40
0.5454545454545454
 40
0.5454545454545454
 40
0.5454545454545454
 40
0.5454545454545454
 40
0.6363636363636364
 40
0.6363636363636364
 40
0.6363636363636364
 40
0.6363636363636364
 40
0.7272727272727273
 40
0.7272727272727273
 40
0.7272727272727273
 40
0.7272727272727273
 40
0.8181818181818182
 40
0.8181818181818182
 40
0.8181818181818182
 40
0.8181818181818182
 40
1.0
 40
1.0
 40
1.0
 40
1.0
 10
-156.4899
 20
55.6563
 30
0.0
 10
-158.4482
 20
58.862
 30
0.0
 10
-154.1305
 20
60.6094
 30
0.0
 10
-152.6084
 20
63.0919
 30
0.0
 10
-152.6084
 20
63.0919
 30
0.0
 10
-150.9322
 20
65.8261
 30
0.0
 10
-152.4022
 20
69.0052
 30
0.0
 10
-148.7823
 20
69.5003
 30
0.0
 10
-148.7823
 20
69.5003
 30
0.0
 10
-147.6955
 20
73.3036
 30
0.0
 10
-148.6076
 20
72.4419
 30
0.0
 10
-147.3916
 20
75.9896
 30
0.0
 10
-147.3916
 20
75.9896
 30
0.0
 10
-152.8579
 20
70.7571
 30
0.0
 10
-165.7822
 20
67.1468
 30
0.0
 10
-178.8636
 20
83.108
 30
0.0
 10
-178.8636
 20
83.108
 30
0.0
 10
-178.8636
 20
83.108
 30
0.0
 10
-178.8636
 20
-46.1803
 30
0.0
 10
-178.8636
 20
-46.1803
 30
0.0
 10
-178.8636
 20
-46.1803
 30
0.0
 10
-176.2691
 20
-45.2234
 30
0.0
 10
-174.0864
 20
-42.6613
 30
0.0
 10
-172.1562
 20
-40.5934
 30
0.0
 10
-172.1562
 20
-40.5934
 30
0.0
 10
-176.7198
 20
-12.0197
 30
0.0
 10
-169.5302
 20
13.2172
 30
0.0
 10
-160.3341
 20
26.9766
 30
0.0
 10
-160.3341
 20
26.9766
 30
0.0
 10
-158.5976
 20
30.21
 30
0.0
 10
-162.9178
 20
40.8061
 30
0.0
 10
-160.4476
 20
41.2688
 30
0.0
 10
-160.4476
 20
41.2688
 30
0.0
 10
-162.2104
 20
45.0467
 30
0.0
 10
-159.6365
 20
44.3659
 30
0.0
 10
-158.9098
 20
47.9944
 30
0.0
 10
-158.9098
 20
47.9944
 30
0.0
 10
-158.1832
 20
50.2527
 30
0.0
 10
-160.757
 20
52.5291
 30
0.0
 10
-156.4899
 20
55.6563
 30
0.0
  0
SPLINE
  5
43
330
1F
100
AcDbEntity
  8
layer 1
 62
     7
100
AcDbSpline
210
0.0
220
0.0
230
1.0
 70
    11
 71
     3
 72
    16
 73
    12
 74
     0
 42
0.0000000001
 43
0.0000000001
 12
1.0
 22
0.0
 32
0.0
 13
1.0
 23
0.0
 33
0.0
 40
0.0
 40
0.0
 40
0.0
 40
0.0
 40
0.25
 40
0.25
 40
0.25
 40
0.25
 40
0.5
 40
0.5
 40
0.5
 40
0.5
 40
1.0
 40
1.0
 40
1.0
 40
1.0
 10
-82.9908
 20
76.1235
 30
0.0
 10
-88.2474
 20
72.5601
 30
0.0
 10
-94.2909
 20
71.7768
 30
0.0
 10
-98.9823
 20
76.5718
 30
0.0
 10
-98.9823
 20
76.5718
 30
0.0
 10
-94.3801
 20
76.7995
 30
0.0
 10
-89.4369
 20
80.3281
 30
0.0
 10
-82.9908
 20
78.9216
 30
0.0
 10
-82.9908
 20
78.9216
 30
0.0
 10
-82.9522
 20
77.8456
 30
0.0
 10
-83.2176
 20
77.7552
 30
0.0
 10
-82.9908
 20
76.1235
 30
0.0
  0
SPLINE
  5
44
330
1F
100
AcDbEntity
  8
layer 1
 62
     7
100
AcDbSpline
210
0.0
220
0.0
230
1.0
 70
    11
 71
     3
 72
    32
 73
    28
 74
     0
 42
0.0000000001
 43
0.0000000001
 12
1.0
 22
0.0
 32
0.0
 13
1.0
 23
0.0
 33
0.0
 40
0.0
 40
0.0
 40
0.0
 40
0.0
 40
0.125
 40
0.125
 40
0.125
 40
0.125
 40
0.25
 40
0.25
 40
0.25
 40
0.25
 40
0.375
 40
0.375
 40
0.375
 40
0.375
 40
0.5
 40
0.5
 40
0.5
 40
0.5
 40
0.625
 40
0.625
 40
0.625
 40
0.625
 40
0.75
 40
0.75
 40
0.75
 40
0.75
 40
1.0
 40
1.0
 40
1.0
 40
1.0
 10
-155.0883
 20
47.7403
 30
0.0
 10
-153.1303
 20
50.9459
 30
0.0
 10
-150.5213
 20
50.3854
 30
0.0
 10
-151.713
 20
53.8559
 30
0.0
 10
-151.713
 20
53.8559
 30
0.0
 10
-152.0024
 20
54.6985
 30
0.0
 10
-151.1793
 20
55.3238
 30
0.0
 10
-150.4442
 20
57.2905
 30
0.0
 10
-150.4442
 20
57.2905
 30
0.0
 10
-149.0232
 20
61.0924
 30
0.0
 10
-143.3595
 20
61.0613
 30
0.0
 10
-144.3247
 20
66.2022
 30
0.0
 10
-144.3247
 20
66.2022
 30
0.0
 10
-142.1134
 20
67.6975
 30
0.0
 10
-139.3875
 20
68.9799
 30
0.0
 10
-138.6233
 20
71.0428
 30
0.0
 10
-138.6233
 20
71.0428
 30
0.0
 10
-139.2789
 20
66.0322
 30
0.0
 10
-138.9538
 20
62.0096
 30
0.0
 10
-137.2774
 20
59.0801
 30
0.0
 10
-137.2774
 20
59.0801
 30
0.0
 10
-143.4304
 20
50.654
 30
0.0
 10
-150.2924
 20
42.2221
 30
0.0
 10
-156.1308
 20
33.3166
 30
0.0
 10
-156.1308
 20
33.3166
 30
0.0
 10
-156.8588
 20
35.5748
 30
0.0
 10
-156.5935
 20
42.7993
 30
0.0
 10
-155.0883
 20
47.7403
 30
0.0
  0
SPLINE
  5
45
330
1F
100
AcDbEntity
  8
layer 1
 62
     7
100
AcDbSpline
210
0.0
220
0.0
230
1.0
 70
    11
 71
     3
 72
    80
 73
    76
 74
     0
 42
0.0000000001
 43
0.0000000001
 12
1.0
 22
0.0
 32
0.0
 13
1.0
 23
0.0
 33
0.0
 40
0.0
 40
0.0
 40
0.0
 40
0.0
 40
0.05
 40
0.05
 40
0.05
 40
0.05
 40
0.1
 40
0.1
 40
0.1
 40
0.1
 40
0.15
 40
0.15
 40
0.15
 40
0.15
 40
0.2
 40
0.2
 40
0.2
 40
0.2
 40
0.25
 40
0.25
 40
0.25
 40
0.25
 40
0.3
 40
0.3
 40
0.3
 40
0.3
 40
0.35
 40
0.35
 40
0.35
 40
0.35
 40
0.4
 40
0.4
 40
0.4
 40
0.4
 40
0.45
 40
0.45
 40
0.45
 40
0.45
 40
0.5
 40
0.5
 40
0.5
 40
0.5
 40
0.55
 40
0.55
 40
0.55
 40
0.55
 40
0.6
 40
0.6
 40
0.6
 40
0.6
 40
0.65
 40
0.65
 40
0.65
 40
0.65
 40
0.7
 40
0.7
 40
0.7
 40
0.7
 40
0.75
 40
0.75
 40
0.75
 40
0.75
 40
0.8
 40
0.8
 40
0.8
 40
0.8
 40
0.85
 40
0.85
 40
0.85
 40
0.85
 40
0.9
 40
0.9
 40
0.9
 40
0.9
 40
1.0
 40
1.0
 40
1.0
 40
1.0
 10
-92.1243
 20
47.9053
 30
0.0
 10
-80.4759
 20
16.5875
 30
0.0
 10
-106.9299
 20
-15.8205
 30
0.0
 10
-113.6071
 20
-20.7324
 30
0.0
 10
-113.6071
 20
-20.7324
 30
0.0
 10
-114.0905
 20
-20.7277
 30
0.0
 10
-113.9399
 20
-18.5778
 30
0.0
 10
-115.5256
 20
-17.6946
 30
0.0
 10
-115.5256
 20
-17.6946
 30
0.0
 10
-116.8608
 20
-16.952
 30
0.0
 10
-119.8844
 20
-17.1485
 30
0.0
 10
-121.48
 20
-16.063
 30
0.0
 10
-121.48
 20
-16.063
 30
0.0
 10
-122.4465
 20
-15.4061
 30
0.0
 10
-123.7901
 20
-12.3091
 30
0.0
 10
-124.7121
 20
-11.6017
 30
0.0
 10
-124.7121
 20
-11.6017
 30
0.0
 10
-125.4627
 20
-11.0233
 30
0.0
 10
-127.5161
 20
-11.9861
 30
0.0
 10
-128.1741
 20
-11.4089
 30
0.0
 10
-128.1741
 20
-11.4089
 30
0.0
 10
-129.8817
 20
-9.9133
 30
0.0
 10
-129.7926
 20
-9.5903
 30
0.0
 10
-130.1794
 20
-8.4695
 30
0.0
 10
-130.1794
 20
-8.4695
 30
0.0
 10
-116.9225
 20
-10.1471
 30
0.0
 10
-107.7687
 20
1.3242
 30
0.0
 10
-102.7336
 20
29.8929
 30
0.0
 10
-102.7336
 20
29.8929
 30
0.0
 10
-101.5456
 20
37.0414
 30
0.0
 10
-104.1052
 20
36.1893
 30
0.0
 10
-108.1361
 20
34.1156
 30
0.0
 10
-108.1361
 20
34.1156
 30
0.0
 10
-117.3032
 20
29.0507
 30
0.0
 10
-123.3538
 20
18.2603
 30
0.0
 10
-128.068
 20
11.1949
 30
0.0
 10
-128.068
 20
11.1949
 30
0.0
 10
-129.9891
 20
6.8676
 30
0.0
 10
-133.1042
 20
6.1926
 30
0.0
 10
-129.4251
 20
12.9315
 30
0.0
 10
-129.4251
 20
12.9315
 30
0.0
 10
-124.2337
 20
24.6363
 30
0.0
 10
-128.1152
 20
41.0726
 30
0.0
 10
-131.9462
 20
45.8796
 30
0.0
 10
-131.9462
 20
45.8796
 30
0.0
 10
-133.6923
 20
48.7934
 30
0.0
 10
-132.2232
 20
50.7361
 30
0.0
 10
-130.3879
 20
50.3276
 30
0.0
 10
-130.3879
 20
50.3276
 30
0.0
 10
-129.125
 20
47.9957
 30
0.0
 10
-112.9431
 20
40.9159
 30
0.0
 10
-107.0539
 20
39.0467
 30
0.0
 10
-107.0539
 20
39.0467
 30
0.0
 10
-104.2135
 20
38.3057
 30
0.0
 10
-100.1284
 20
38.6697
 30
0.0
 10
-103.0147
 20
45.4638
 30
0.0
 10
-103.0147
 20
45.4638
 30
0.0
 10
-108.6457
 20
57.3747
 30
0.0
 10
-114.4628
 20
64.2425
 30
0.0
 10
-121.2365
 20
69.0052
 30
0.0
 10
-121.2365
 20
69.0052
 30
0.0
 10
-124.3432
 20
71.5947
 30
0.0
 10
-123.1286
 20
73.3072
 30
0.0
 10
-119.988
 20
70.8827
 30
0.0
 10
-119.988
 20
70.8827
 30
0.0
 10
-112.6853
 20
63.9485
 30
0.0
 10
-93.7572
 20
64.398
 30
0.0
 10
-82.9908
 20
72.9324
 30
0.0
 10
-82.9908
 20
72.9324
 30
0.0
 10
-82.9908
 20
72.9324
 30
0.0
 10
-82.9908
 20
36.6148
 30
0.0
 10
-82.9908
 20
36.6148
 30
0.0
 10
-82.9908
 20
36.6148
 30
0.0
 10
-83.7177
 20
38.8733
 30
0.0
 10
-87.6557
 20
48.779
 30
0.0
 10
-92.1243
 20
47.9053
 30
0.0
  0
SPLINE
  5
46
330
1F
100
AcDbEntity
  8
layer 1
 62
     7
100
AcDbSpline
210
0.0
220
0.0
230
1.0
 70
    11
 71
     3
 72
    20
 73
    16
 74
     0
 42
0.0000000001
 43
0.0000000001
 12
1.0
 22
0.0
 32
0.0
 13
1.0
 23
0.0
 33
0.0
 40
0.0
 40
0.0
 40
0.0
 40
0.0
 40
0.2
 40
0.2
 40
0.2
 40
0.2
 40
0.4
 40
0.4
 40
0.4
 40
0.4
 40
0.6
 40
0.6
 40
0.6
 40
0.6
 40
1.0
 40
1.0
 40
1.0
 40
1.0
 10
-168.1756
 20
-53.8722
 30
0.0
 10
-170.8641
 20
-55.0809
 30
0.0
 10
-174.0325
 20
-55.9089
 30
0.0
 10
-178.8636
 20
-56.4402
 30
0.0
 10
-178.8636
 20
-56.4402
 30
0.0
 10
-178.8636
 20
-56.4402
 30
0.0
 10
-178.8636
 20
-82.705
 30
0.0
 10
-178.8636
 20
-82.705
 30
0.0
 10
-178.8636
 20
-82.705
 30
0.0
 10
-169.1541
 20
-88.2509
 30
0.0
 10
-163.3759
 20
-82.6543
 30
0.0
 10
-149.8632
 20
-88.8182
 30
0.0
 10
-149.8632
 20
-88.8182
 30
0.0
 10
-157.8856
 20
-76.6568
 30
0.0
 10
-163.2217
 20
-69.026
 30
0.0
 10
-168.1756
 20
-53.8722
 30
0.0
  0
SPLINE
  5
47
330
1F
100
AcDbEntity
  8
layer 1
 62
     7
100
AcDbSpline
210
0.0
220
0.0
230
1.0
 70
    11
 71
     3
 72
    16
 73
    12
 74
     0
 42
0.0000000001
 43
0.0000000001
 12
1.0
 22
0.0
 32
0.0
 13
1.0
 23
0.0
 33
0.0
 40
0.0
 40
0.0
 40
0.0
 40
0.0
 40
0.25
 40
0.25
 40
0.25
 40
0.25
 40
0.5
 40
0.5
 40
0.5
 40
0.5
 40
1.0
 40
1.0
 40
1.0
 40
1.0
 10
-178.8636
 20
-92.137
 30
0.0
 10
-178.8636
 20
-92.137
 30
0.0
 10
-178.8636
 20
-104.5194
 30
0.0
 10
-178.8636
 20
-104.5194
 30
0.0
 10
-178.8636
 20
-104.5194
 30
0.0
 10
-178.8636
 20
-104.5194
 30
0.0
 10
-158.9061
 20
-104.6723
 30
0.0
 10
-158.9061
 20
-104.6723
 30
0.0
 10
-158.9061
 20
-104.6723
 30
0.0
 10
-169.2818
 20
-100.5342
 30
0.0
 10
-173.243
 20
-98.0131
 30
0.0
 10
-178.8636
 20
-92.137
 30
0.0
  0
SPLINE
  5
48
330
1F
100
AcDbEntity
  8
layer 1
 62
     7
100
AcDbSpline
210
0.0
220
0.0
230
1.0
 70
    11
 71
     3
 72
    16
 73
    12
 74
     0
 42
0.0000000001
 43
0.0000000001
 12
1.0
 22
0.0
 32
0.0
 13
1.0
 23
0.0
 33
0.0
 40
0.0
 40
0.0
 40
0.0
 40
0.0
 40
0.25
 40
0.25
 40
0.25
 40
0.25
 40
0.5
 40
0.5
 40
0.5
 40
0.5
 40
1.0
 40
1.0
 40
1.0
 40
1.0
 10
-82.9896
 20
-70.2434
 30
0.0
 10
-82.9896
 20
-70.2434
 30
0.0
 10
-82.9896
 20
-104.5194
 30
0.0
 10
-82.9896
 20
-104.5194
 30
0.0
 10
-82.9896
 20
-104.5194
 30
0.0
 10
-82.9896
 20
-104.5194
 30
0.0
 10
-108.9761
 20
-104.6723
 30
0.0
 10
-108.9761
 20
-104.6723
 30
0.0
 10
-108.9761
 20
-104.6723
 30
0.0
 10
-95.1886
 20
-95.8535
 30
0.0
 10
-85.1987
 20
-80.402
 30
0.0
 10
-82.9896
 20
-70.2434
 30
0.0
  0
SPLINE
  5
49
330
1F
100
AcDbEntity
  8
layer 1
 62
     7
100
AcDbSpline
210
0.0
220
0.0
230
1.0
 70
    11
 71
     3
 72
    76
 73
    72
 74
     0
 42
0.0000000001
 43
0.0000000001
 12
1.0
 22
0.0
 32
0.0
 13
1.0
 23
0.0
 33
0.0
 40
0.0
 40
0.0
 40
0.0
 40
0.0
 40
0.0526315789473684
 40
0.0526315789473684
 40
0.0526315789473684
 40
0.0526315789473684
 40
0.1052631578947368
 40
0.1052631578947368
 40
0.1052631578947368
 40
0.1052631578947368
 40
0.1578947368421053
 40
0.1578947368421053
 40
0.1578947368421053
 40
0.1578947368421053
 40
0.2105263157894737
 40
0.2105263157894737
 40
0.2105263157894737
 40
0.2105263157894737
 40
0.2631578947368421
 40
0.2631578947368421
 40
0.2631578947368421
 40
0.2631578947368421
 40
0.3157894736842105
 40
0.3157894736842105
 40
0.3157894736842105
 40
0.3157894736842105
 40
0.3684210526315789
 40
0.3684210526315789
 40
0.3684210526315789
 40
0.3684210526315789
 40
0.4210526315789473
 40
0.4210526315789473
 40
0.4210526315789473
 40
0.4210526315789473
 40
0.4736842105263158
 40
0.4736842105263158
 40
0.4736842105263158
 40
0.4736842105263158
 40
0.5263157894736842
 40
0.5263157894736842
 40
0.5263157894736842
 40
0.5263157894736842
 40
0.5789473684210527
 40
0.5789473684210527
 40
0.5789473684210527
 40
0.5789473684210527
 40
0.631578947368421
 40
0.631578947368421
 40
0.631578947368421
 40
0.631578947368421
 40
0.6842105263157895
 40
0.6842105263157895
 40
0.6842105263157895
 40
0.6842105263157895
 40
0.7368421052631579
 40
0.7368421052631579
 40
0.7368421052631579
 40
0.7368421052631579
 40
0.7894736842105263
 40
0.7894736842105263
 40
0.7894736842105263
 40
0.7894736842105263
 40
0.8421052631578947
 40
0.8421052631578947
 40
0.8421052631578947
 40
0.8421052631578947
 40
0.8947368421052632
 40
0.8947368421052632
 40
0.8947368421052632
 40
0.8947368421052632
 40
1.0
 40
1.0
 40
1.0
 40
1.0
 10
-101.4731
 20
-57.3921
 30
0.0
 10
-102.3276
 20
-60.6181
 30
0.0
 10
-100.9743
 20
-61.5462
 30
0.0
 10
-101.3864
 20
-63.5033
 30
0.0
 10
-101.3864
 20
-63.5033
 30
0.0
 10
-101.8408
 20
-65.6653
 30
0.0
 10
-103.4651
 20
-67.1704
 30
0.0
 10
-103.0881
 20
-69.1201
 30
0.0
 10
-103.0881
 20
-69.1201
 30
0.0
 10
-104.2462
 20
-69.2913
 30
0.0
 10
-107.6817
 20
-73.4416
 30
0.0
 10
-109.2109
 20
-78.2209
 30
0.0
 10
-109.2109
 20
-78.2209
 30
0.0
 10
-108.6701
 20
-78.1426
 30
0.0
 10
-107.019
 20
-77.0869
 30
0.0
 10
-106.3369
 20
-77.2892
 30
0.0
 10
-106.3369
 20
-77.2892
 30
0.0
 10
-105.6246
 20
-77.5003
 30
0.0
 10
-107.0792
 20
-82.1012
 30
0.0
 10
-106.1006
 20
-81.5552
 30
0.0
 10
-106.1006
 20
-81.5552
 30
0.0
 10
-103.1458
 20
-79.9115
 30
0.0
 10
-99.1004
 20
-73.8911
 30
0.0
 10
-100.4741
 20
-69.9864
 30
0.0
 10
-100.4741
 20
-69.9864
 30
0.0
 10
-98.0314
 20
-68.2934
 30
0.0
 10
-99.3728
 20
-66.2569
 30
0.0
 10
-98.3906
 20
-62.5728
 30
0.0
 10
-98.3906
 20
-62.5728
 30
0.0
 10
-97.4795
 20
-59.1577
 30
0.0
 10
-95.9432
 20
-56.0138
 30
0.0
 10
-98.2412
 20
-53.2058
 30
0.0
 10
-98.2412
 20
-53.2058
 30
0.0
 10
-93.6257
 20
-49.6772
 30
0.0
 10
-86.9954
 20
-32.6279
 30
0.0
 10
-94.8116
 20
-23.0727
 30
0.0
 10
-94.8116
 20
-23.0727
 30
0.0
 10
-93.8186
 20
-33.1557
 30
0.0
 10
-97.1917
 20
-42.1167
 30
0.0
 10
-100.2258
 20
-43.4217
 30
0.0
 10
-100.2258
 20
-43.4217
 30
0.0
 10
-100.1345
 20
-41.1743
 30
0.0
 10
-100.667
 20
-39.8006
 30
0.0
 10
-101.7442
 20
-38.8269
 30
0.0
 10
-101.7442
 20
-38.8269
 30
0.0
 10
-101.2238
 20
-37.4495
 30
0.0
 10
-101.5493
 20
-36.1057
 30
0.0
 10
-103.917
 20
-34.1522
 30
0.0
 10
-103.917
 20
-34.1522
 30
0.0
 10
-103.4289
 20
-31.3192
 30
0.0
 10
-105.7658
 20
-29.2609
 30
0.0
 10
-107.442
 20
-28.9151
 30
0.0
 10
-107.442
 20
-28.9151
 30
0.0
 10
-91.4265
 20
-14.6469
 30
0.0
 10
-86.6398
 20
1.7255
 30
0.0
 10
-82.9908
 20
15.8573
 30
0.0
 10
-82.9908
 20
15.8573
 30
0.0
 10
-82.9908
 20
15.8573
 30
0.0
 10
-82.9908
 20
-32.5159
 30
0.0
 10
-82.9908
 20
-32.5159
 30
0.0
 10
-82.9908
 20
-32.5159
 30
0.0
 10
-82.9908
 20
-55.498
 30
0.0
 10
-93.2231
 20
-69.8599
 30
0.0
 10
-94.9683
 20
-73.1066
 30
0.0
 10
-94.9683
 20
-73.1066
 30
0.0
 10
-103.7097
 20
-89.1014
 30
0.0
 10
-129.982
 20
-87.3275
 30
0.0
 10
-136.9784
 20
-101.4198
 30
0.0
 10
-136.9784
 20
-101.4198
 30
0.0
 10
-141.9132
 20
-74.9104
 30
0.0
 10
-117.96
 20
-72.3905
 30
0.0
 10
-101.4731
 20
-57.3921
 30
0.0
  0
SPLINE
  5
4A
330
1F
100
AcDbEntity
  8
layer 1
 62
     7
100
AcDbSpline
210
0.0
220
0.0
230
1.0
 70
    11
 71
     3
 72
    24
 73
    20
 74
     0
 42
0.0000000001
 43
0.0000000001
 12
1.0
 22
0.0
 32
0.0
 13
1.0
 23
0.0
 33
0.0
 40
0.0
 40
0.0
 40
0.0
 40
0.0
 40
0.1666666666666667
 40
0.1666666666666667
 40
0.1666666666666667
 40
0.1666666666666667
 40
0.3333333333333333
 40
0.3333333333333333
 40
0.3333333333333333
 40
0.3333333333333333
 40
0.5
 40
0.5
 40
0.5
 40
0.5
 40
0.6666666666666666
 40
0.6666666666666666
 40
0.6666666666666666
 40
0.6666666666666666
 40
1.0
 40
1.0
 40
1.0
 40
1.0
 10
-163.9398
 20
-51.2126
 30
0.0
 10
-154.3739
 20
-46.027
 30
0.0
 10
-149.5597
 20
-40.5573
 30
0.0
 10
-145.7939
 20
-28.7874
 30
0.0
 10
-145.7939
 20
-28.7874
 30
0.0
 10
-145.9997
 20
-34.7115
 30
0.0
 10
-147.8112
 20
-39.8715
 30
0.0
 10
-148.1039
 20
-45.0364
 30
0.0
 10
-148.1039
 20
-45.0364
 30
0.0
 10
-148.645
 20
-54.5605
 30
0.0
 10
-147.6519
 20
-62.4559
 30
0.0
 10
-145.6011
 20
-64.4479
 30
0.0
 10
-145.6011
 20
-64.4479
 30
0.0
 10
-147.2688
 20
-68.1536
 30
0.0
 10
-146.847
 20
-78.4439
 30
0.0
 10
-144.2801
 20
-85.5768
 30
0.0
 10
-144.2801
 20
-85.5768
 30
0.0
 10
-151.2731
 20
-80.2925
 30
0.0
 10
-158.4325
 20
-65.7843
 30
0.0
 10
-163.9398
 20
-51.2126
 30
0.0
  0
SPLINE
  5
4B
330
1F
100
AcDbEntity
  8
layer 1
 62
     7
100
AcDbSpline
210
0.0
220
0.0
230
1.0
 70
    11
 71
     3
 72
    24
 73
    20
 74
     0
 42
0.0000000001
 43
0.0000000001
 12
1.0
 22
0.0
 32
0.0
 13
1.0
 23
0.0
 33
0.0
 40
0.0
 40
0.0
 40
0.0
 40
0.0
 40
0.1666666666666667
 40
0.1666666666666667
 40
0.1666666666666667
 40
0.1666666666666667
 40
0.3333333333333333
 40
0.3333333333333333
 40
0.3333333333333333
 40
0.3333333333333333
 40
0.5
 40
0.5
 40
0.5
 40
0.5
 40
0.6666666666666666
 40
0.6666666666666666
 40
0.6666666666666666
 40
0.6666666666666666
 40
1.0
 40
1.0
 40
1.0
 40
1.0
 10
-108.0506
 20
-37.4566
 30
0.0
 10
-110.0618
 20
-38.1797
 30
0.0
 10
-111.2924
 20
-36.7794
 30
0.0
 10
-110.9885
 20
-33.2436
 30
0.0
 10
-110.9885
 20
-33.2436
 30
0.0
 10
-115.045
 20
-35.3899
 30
0.0
 10
-140.9856
 20
-58.4707
 30
0.0
 10
-139.7744
 20
-74.4853
 30
0.0
 10
-139.7744
 20
-74.4853
 30
0.0
 10
-131.6725
 20
-61.257
 30
0.0
 10
-109.8088
 20
-51.3163
 30
0.0
 10
-104.3039
 20
-48.3673
 30
0.0
 10
-104.3039
 20
-48.3673
 30
0.0
 10
-103.6052
 20
-46.8418
 30
0.0
 10
-104.0256
 20
-45.121
 30
0.0
 10
-105.3343
 20
-44.2124
 30
0.0
 10
-105.3343
 20
-44.2124
 30
0.0
 10
-106.866
 20
-42.6094
 30
0.0
 10
-109.0051
 20
-40.4043
 30
0.0
 10
-108.0506
 20
-37.4566
 30
0.0
  0
SPLINE
  5
4C
330
1F
100
AcDbEntity
  8
layer 1
 62
     7
100
AcDbSpline
210
0.0
220
0.0
230
1.0
 70
    11
 71
     3
 72
    60
 73
    56
 74
     0
 42
0.0000000001
 43
0.0000000001
 12
1.0
 22
0.0
 32
0.0
 13
1.0
 23
0.0
 33
0.0
 40
0.0
 40
0.0
 40
0.0
 40
0.0
 40
0.0666666666666667
 40
0.0666666666666667
 40
0.0666666666666667
 40
0.0666666666666667
 40
0.1333333333333333
 40
0.1333333333333333
 40
0.1333333333333333
 40
0.1333333333333333
 40
0.2
 40
0.2
 40
0.2
 40
0.2
 40
0.2666666666666667
 40
0.2666666666666667
 40
0.2666666666666667
 40
0.2666666666666667
 40
0.3333333333333333
 40
0.3333333333333333
 40
0.3333333333333333
 40
0.3333333333333333
 40
0.4
 40
0.4
 40
0.4
 40
0.4
 40
0.4666666666666667
 40
0.4666666666666667
 40
0.4666666666666667
 40
0.4666666666666667
 40
0.5333333333333333
 40
0.5333333333333333
 40
0.5333333333333333
 40
0.5333333333333333
 40
0.6
 40
0.6
 40
0.6
 40
0.6
 40
0.6666666666666666
 40
0.6666666666666666
 40
0.6666666666666666
 40
0.6666666666666666
 40
0.7333333333333333
 40
0.7333333333333333
 40
0.7333333333333333
 40
0.7333333333333333
 40
0.8
 40
0.8
 40
0.8
 40
0.8
 40
0.8666666666666667
 40
0.8666666666666667
 40
0.8666666666666667
 40
0.8666666666666667
 40
1.0
 40
1.0
 40
1.0
 40
1.0
 10
-156.5889
 20
15.497
 30
0.0
 10
-156.0656
 20
15.7802
 30
0.0
 10
-156.4359
 20
14.1208
 30
0.0
 10
-155.9537
 20
12.1011
 30
0.0
 10
-155.9537
 20
12.1011
 30
0.0
 10
-155.6995
 20
11.3372
 30
0.0
 10
-155.8044
 20
11.566
 30
0.0
 10
-154.7595
 20
11.3927
 30
0.0
 10
-154.7595
 20
11.3927
 30
0.0
 10
-154.1774
 20
4.5116
 30
0.0
 10
-147.9919
 20
2.1485
 30
0.0
 10
-147.4832
 20
2.6196
 30
0.0
 10
-147.4832
 20
2.6196
 30
0.0
 10
-147.3086
 20
2.7821
 30
0.0
 10
-150.197
 20
7.0699
 30
0.0
 10
-150.0561
 20
8.4894
 30
0.0
 10
-150.0561
 20
8.4894
 30
0.0
 10
-149.9716
 20
9.3452
 30
0.0
 10
-146.0493
 20
6.8796
 30
0.0
 10
-146.3035
 20
7.5979
 30
0.0
 10
-146.3035
 20
7.5979
 30
0.0
 10
-146.8094
 20
12.1627
 30
0.0
 10
-149.8957
 20
13.4893
 30
0.0
 10
-151.0889
 20
13.4809
 30
0.0
 10
-151.0889
 20
13.4809
 30
0.0
 10
-151.2046
 20
16.6671
 30
0.0
 10
-152.024
 20
15.6478
 30
0.0
 10
-152.653
 20
17.1518
 30
0.0
 10
-152.653
 20
17.1518
 30
0.0
 10
-153.482
 20
19.1351
 30
0.0
 10
-152.5386
 20
20.4246
 30
0.0
 10
-153.5064
 20
22.0912
 30
0.0
 10
-153.5064
 20
22.0912
 30
0.0
 10
-150.1669
 20
26.9177
 30
0.0
 10
-147.9762
 20
30.1943
 30
0.0
 10
-143.3268
 20
35.0627
 30
0.0
 10
-143.3268
 20
35.0627
 30
0.0
 10
-141.8651
 20
29.2579
 30
0.0
 10
-142.8412
 20
6.1118
 30
0.0
 10
-146.7083
 20
-0.2449
 30
0.0
 10
-146.7083
 20
-0.2449
 30
0.0
 10
-148.2014
 20
1.2748
 30
0.0
 10
-151.4514
 20
3.8897
 30
0.0
 10
-154.6715
 20
-2.7046
 30
0.0
 10
-154.6715
 20
-2.7046
 30
0.0
 10
-158.828
 20
-11.2124
 30
0.0
 10
-152.3782
 20
-11.9994
 30
0.0
 10
-151.3514
 20
-11.6751
 30
0.0
 10
-151.3514
 20
-11.6751
 30
0.0
 10
-152.1854
 20
-15.1421
 30
0.0
 10
-161.6514
 20
-31.5084
 30
0.0
 10
-168.137
 20
-35.0669
 30
0.0
 10
-168.137
 20
-35.0669
 30
0.0
 10
-171.1992
 20
-13.3454
 30
0.0
 10
-163.3506
 20
7.9519
 30
0.0
 10
-156.5889
 20
15.497
 30
0.0
  0
SPLINE
  5
4D
330
1F
100
AcDbEntity
  8
layer 1
 62
     7
100
AcDbSpline
210
0.0
220
0.0
230
1.0
 70
    11
 71
     3
 72
    20
 73
    16
 74
     0
 42
0.0000000001
 43
0.0000000001
 12
1.0
 22
0.0
 32
0.0
 13
1.0
 23
0.0
 33
0.0
 40
0.0
 40
0.0
 40
0.0
 40
0.0
 40
0.2
 40
0.2
 40
0.2
 40
0.2
 40
0.4
 40
0.4
 40
0.4
 40
0.4
 40
0.6
 40
0.6
 40
0.6
 40
0.6
 40
1.0
 40
1.0
 40
1.0
 40
1.0
 10
-97.482
 20
122.9431
 30
0.0
 10
-97.482
 20
122.9431
 30
0.0
 10
-82.9908
 20
122.9431
 30
0.0
 10
-82.9908
 20
122.9431
 30
0.0
 10
-82.9908
 20
122.9431
 30
0.0
 10
-82.9908
 20
122.9431
 30
0.0
 10
-82.9908
 20
85.4967
 30
0.0
 10
-82.9908
 20
85.4967
 30
0.0
 10
-82.9908
 20
85.4967
 30
0.0
 10
-87.7957
 20
84.2628
 30
0.0
 10
-99.1054
 20
83.6673
 30
0.0
 10
-107.4685
 20
84.8038
 30
0.0
 10
-107.4685
 20
84.8038
 30
0.0
 10
-100.3042
 20
101.652
 30
0.0
 10
-98.2533
 20
112.3326
 30
0.0
 10
-97.482
 20
122.9431
 30
0.0
  0
SPLINE
  5
4E
330
1F
100
AcDbEntity
  8
layer 1
 62
     7
100
AcDbSpline
210
0.0
220
0.0
230
1.0
 70
    11
 71
     3
 72
    28
 73
    24
 74
     0
 42
0.0000000001
 43
0.0000000001
 12
1.0
 22
0.0
 32
0.0
 13
1.0
 23
0.0
 33
0.0
 40
0.0
 40
0.0
 40
0.0
 40
0.0
 40
0.1428571428571428
 40
0.1428571428571428
 40
0.1428571428571428
 40
0.1428571428571428
 40
0.2857142857142857
 40
0.2857142857142857
 40
0.2857142857142857
 40
0.2857142857142857
 40
0.4285714285714285
 40
0.4285714285714285
 40
0.4285714285714285
 40
0.4285714285714285
 40
0.5714285714285714
 40
0.5714285714285714
 40
0.5714285714285714
 40
0.5714285714285714
 40
0.7142857142857143
 40
0.7142857142857143
 40
0.7142857142857143
 40
0.7142857142857143
 40
1.0
 40
1.0
 40
1.0
 40
1.0
 10
-101.2467
 20
122.9431
 30
0.0
 10
-101.2467
 20
122.9431
 30
0.0
 10
-153.2821
 20
122.9431
 30
0.0
 10
-153.2821
 20
122.9431
 30
0.0
 10
-153.2821
 20
122.9431
 30
0.0
 10
-151.5709
 20
113.611
 30
0.0
 10
-143.1969
 20
101.4592
 30
0.0
 10
-135.6374
 20
94.2094
 30
0.0
 10
-135.6374
 20
94.2094
 30
0.0
 10
-135.9675
 20
96.8702
 30
0.0
 10
-134.5623
 20
101.6495
 30
0.0
 10
-128.685
 20
98.4608
 30
0.0
 10
-128.685
 20
98.4608
 30
0.0
 10
-121.9427
 20
94.8024
 30
0.0
 10
-126.3836
 20
90.3507
 30
0.0
 10
-127.5235
 20
89.7734
 30
0.0
 10
-127.5235
 20
89.7734
 30
0.0
 10
-123.6697
 20
87.4946
 30
0.0
 10
-121.1039
 20
86.8029
 30
0.0
 10
-116.4477
 20
85.8496
 30
0.0
 10
-116.4477
 20
85.8496
 30
0.0
 10
-110.0198
 20
96.3304
 30
0.0
 10
-102.5673
 20
111.8578
 30
0.0
 10
-101.2467
 20
122.9431
 30
0.0
  0
SPLINE
  5
4F
330
1F
100
AcDbEntity
  8
layer 1
 62
     7
100
AcDbSpline
210
0.0
220
0.0
230
1.0
 70
    11
 71
     3
 72
    20
 73
    16
 74
     0
 42
0.0000000001
 43
0.0000000001
 12
1.0
 22
0.0
 32
0.0
 13
1.0
 23
0.0
 33
0.0
 40
0.0
 40
0.0
 40
0.0
 40
0.0
 40
0.2
 40
0.2
 40
0.2
 40
0.2
 40
0.4
 40
0.4
 40
0.4
 40
0.4
 40
0.6
 40
0.6
 40
0.6
 40
0.6
 40
1.0
 40
1.0
 40
1.0
 40
1.0
 10
-168.9348
 20
122.9431
 30
0.0
 10
-168.9348
 20
122.9431
 30
0.0
 10
-178.8636
 20
122.9431
 30
0.0
 10
-178.8636
 20
122.9431
 30
0.0
 10
-178.8636
 20
122.9431
 30
0.0
 10
-178.8636
 20
122.9431
 30
0.0
 10
-178.8636
 20
98.6765
 30
0.0
 10
-178.8636
 20
98.6765
 30
0.0
 10
-178.8636
 20
98.6765
 30
0.0
 10
-170.5929
 20
98.2439
 30
0.0
 10
-163.624
 20
96.1446
 30
0.0
 10
-152.4396
 20
90.5339
 30
0.0
 10
-152.4396
 20
90.5339
 30
0.0
 10
-169.1952
 20
101.5508
 30
0.0
 10
-168.0985
 20
116.2225
 30
0.0
 10
-168.9348
 20
122.9431
 30
0.0
  0
SPLINE
  5
50
330
1F
100
AcDbEntity
  8
layer 1
 62
     7
100
AcDbSpline
210
0.0
220
0.0
230
1.0
 70
    11
 71
     3
 72
    12
 73
     8
 74
     0
 42
0.0000000001
 43
0.0000000001
 12
1.0
 22
0.0
 32
0.0
 13
1.0
 23
0.0
 33
0.0
 40
0.0
 40
0.0
 40
0.0
 40
0.0
 40
0.3333333333333333
 40
0.3333333333333333
 40
0.3333333333333333
 40
0.3333333333333333
 40
1.0
 40
1.0
 40
1.0
 40
1.0
 10
-98.0953
 20
81.8441
 30
0.0
 10
-102.6664
 20
80.951
 30
0.0
 10
-109.5484
 20
79.634
 30
0.0
 10
-111.4164
 20
83.0561
 30
0.0
 10
-111.4164
 20
83.0561
 30
0.0
 10
-105.5873
 20
82.7344
 30
0.0
 10
-98.2026
 20
83.0985
 30
0.0
 10
-98.0953
 20
81.8441
 30
0.0
  0
SPLINE
  5
51
330
1F
100
AcDbEntity
  8
layer 1
 62
     7
100
AcDbSpline
210
0.0
220
0.0
230
1.0
 70
    11
 71
     3
 72
    12
 73
     8
 74
     0
 42
0.0000000001
 43
0.0000000001
 12
1.0
 22
0.0
 32
0.0
 13
1.0
 23
0.0
 33
0.0
 40
0.0
 40
0.0
 40
0.0
 40
0.0
 40
0.3333333333333333
 40
0.3333333333333333
 40
0.3333333333333333
 40
0.3333333333333333
 40
1.0
 40
1.0
 40
1.0
 40
1.0
 10
-119.8616
 20
77.5516
 30
0.0
 10
-113.2434
 20
74.5582
 30
0.0
 10
-112.9514
 20
67.7373
 30
0.0
 10
-107.7964
 20
68.9028
 30
0.0
 10
-107.7964
 20
68.9028
 30
0.0
 10
-106.9431
 20
75.3548
 30
0.0
 10
-114.8124
 20
80.4293
 30
0.0
 10
-119.8616
 20
77.5516
 30
0.0
  0
SPLINE
  5
52
330
1F
100
AcDbEntity
  8
layer 1
 62
     7
100
AcDbSpline
210
0.0
220
0.0
230
1.0
 70
    11
 71
     3
 72
    24
 73
    20
 74
     0
 42
0.0000000001
 43
0.0000000001
 12
1.0
 22
0.0
 32
0.0
 13
1.0
 23
0.0
 33
0.0
 40
0.0
 40
0.0
 40
0.0
 40
0.0
 40
0.1666666666666667
 40
0.1666666666666667
 40
0.1666666666666667
 40
0.1666666666666667
 40
0.3333333333333333
 40
0.3333333333333333
 40
0.3333333333333333
 40
0.3333333333333333
 40
0.5
 40
0.5
 40
0.5
 40
0.5
 40
0.6666666666666666
 40
0.6666666666666666
 40
0.6666666666666666
 40
0.6666666666666666
 40
1.0
 40
1.0
 40
1.0
 40
1.0
 10
-127.9622
 20
-36.1371
 30
0.0
 10
-125.4581
 20
-28.7692
 30
0.0
 10
-127.6947
 20
-21.8038
 30
0.0
 10
-133.9598
 20
-18.033
 30
0.0
 10
-133.9598
 20
-18.033
 30
0.0
 10
-132.351
 20
-17.6209
 30
0.0
 10
-131.1182
 20
-16.9823
 30
0.0
 10
-129.4334
 20
-18.5331
 30
0.0
 10
-129.4334
 20
-18.5331
 30
0.0
 10
-126.1954
 20
-21.5132
 30
0.0
 10
-124.8615
 20
-19.1393
 30
0.0
 10
-123.6237
 20
-21.264
 30
0.0
 10
-123.6237
 20
-21.264
 30
0.0
 10
-121.9103
 20
-24.2055
 30
0.0
 10
-121.0509
 20
-26.1854
 30
0.0
 10
-118.3009
 20
-25.6771
 30
0.0
 10
-118.3009
 20
-25.6771
 30
0.0
 10
-118.2623
 20
-26.7544
 30
0.0
 10
-124.1914
 20
-33.1724
 30
0.0
 10
-127.9622
 20
-36.1371
 30
0.0
  0
SPLINE
  5
53
330
1F
100
AcDbEntity
  8
layer 1
 62
     7
100
AcDbSpline
210
0.0
220
0.0
230
1.0
 70
    11
 71
     3
 72
    12
 73
     8
 74
     0
 42
0.0000000001
 43
0.0000000001
 12
1.0
 22
0.0
 32
0.0
 13
1.0
 23
0.0
 33
0.0
 40
0.0
 40
0.0
 40
0.0
 40
0.0
 40
0.3333333333333333
 40
0.3333333333333333
 40
0.3333333333333333
 40
0.3333333333333333
 40
1.0
 40
1.0
 40
1.0
 40
1.0
 10
-110.4196
 20
77.3841
 30
0.0
 10
-103.8013
 20
74.3895
 30
0.0
 10
-108.0204
 20
67.3156
 30
0.0
 10
-100.9262
 20
68.6075
 30
0.0
 10
-100.9262
 20
68.6075
 30
0.0
 10
-103.3605
 20
74.217
 30
0.0
 10
-108.3626
 20
78.2793
 30
0.0
 10
-110.4196
 20
77.3841
 30
0.0
  0
SPLINE
  5
54
330
1F
100
AcDbEntity
  8
layer 1
 62
     7
100
AcDbSpline
210
0.0
220
0.0
230
1.0
 70
    11
 71
     3
 72
    12
 73
     8
 74
     0
 42
0.0000000001
 43
0.0000000001
 12
1.0
 22
0.0
 32
0.0
 13
1.0
 23
0.0
 33
0.0
 40
0.0
 40
0.0
 40
0.0
 40
0.0
 40
0.3333333333333333
 40
0.3333333333333333
 40
0.3333333333333333
 40
0.3333333333333333
 40
1.0
 40
1.0
 40
1.0
 40
1.0
 10
-103.1279
 20
74.686
 30
0.0
 10
-100.9357
 20
72.9565
 30
0.0
 10
-100.0114
 20
66.7263
 30
0.0
 10
-93.3388
 20
70.6729
 30
0.0
 10
-93.3388
 20
70.6729
 30
0.0
 10
-99.0606
 20
71.9828
 30
0.0
 10
-99.9331
 20
76.1294
 30
0.0
 10
-103.1279
 20
74.686
 30
0.0
  0
SPLINE
  5
55
330
1F
100
AcDbEntity
  8
layer 1
 62
     7
100
AcDbSpline
210
0.0
220
0.0
230
1.0
 70
    11
 71
     3
 72
    16
 73
    12
 74
     0
 42
0.0000000001
 43
0.0000000001
 12
1.0
 22
0.0
 32
0.0
 13
1.0
 23
0.0
 33
0.0
 40
0.0
 40
0.0
 40
0.0
 40
0.0
 40
0.25
 40
0.25
 40
0.25
 40
0.25
 40
0.5
 40
0.5
 40
0.5
 40
0.5
 40
1.0
 40
1.0
 40
1.0
 40
1.0
 10
-112.5948
 20
81.1281
 30
0.0
 10
-115.7524
 20
82.0402
 30
0.0
 10
-118.0214
 20
82.4719
 30
0.0
 10
-120.8858
 20
82.8164
 30
0.0
 10
-120.8858
 20
82.8164
 30
0.0
 10
-124.2262
 20
83.2178
 30
0.0
 10
-127.1064
 20
84.5592
 30
0.0
 10
-128.1501
 20
86.4703
 30
0.0
 10
-128.1501
 20
86.4703
 30
0.0
 10
-122.3213
 20
86.1486
 30
0.0
 10
-113.0817
 20
82.9731
 30
0.0
 10
-112.5948
 20
81.1281
 30
0.0
  0
SPLINE
  5
56
330
1F
100
AcDbEntity
  8
layer 1
 62
     7
100
AcDbSpline
210
0.0
220
0.0
230
1.0
 70
    11
 71
     3
 72
    16
 73
    12
 74
     0
 42
0.0000000001
 43
0.0000000001
 12
1.0
 22
0.0
 32
0.0
 13
1.0
 23
0.0
 33
0.0
 40
0.0
 40
0.0
 40
0.0
 40
0.0
 40
0.25
 40
0.25
 40
0.25
 40
0.25
 40
0.5
 40
0.5
 40
0.5
 40
0.5
 40
1.0
 40
1.0
 40
1.0
 40
1.0
 10
-117.9903
 20
80.0316
 30
0.0
 10
-121.4414
 20
79.9749
 30
0.0
 10
-122.6572
 20
80.0267
 30
0.0
 10
-125.5229
 20
80.3713
 30
0.0
 10
-125.5229
 20
80.3713
 30
0.0
 10
-128.8624
 20
80.7739
 30
0.0
 10
-129.6781
 20
83.2104
 30
0.0
 10
-129.6672
 20
85.2906
 30
0.0
 10
-129.6672
 20
85.2906
 30
0.0
 10
-127.1681
 20
81.6392
 30
0.0
 10
-120.1207
 20
81.75
 30
0.0
 10
-117.9903
 20
80.0316
 30
0.0
  0
SPLINE
  5
57
330
1F
100
AcDbEntity
  8
layer 1
 62
     7
100
AcDbSpline
210
0.0
220
0.0
230
1.0
 70
    11
 71
     3
 72
    20
 73
    16
 74
     0
 42
0.0000000001
 43
0.0000000001
 12
1.0
 22
0.0
 32
0.0
 13
1.0
 23
0.0
 33
0.0
 40
0.0
 40
0.0
 40
0.0
 40
0.0
 40
0.2
 40
0.2
 40
0.2
 40
0.2
 40
0.4
 40
0.4
 40
0.4
 40
0.4
 40
0.6
 40
0.6
 40
0.6
 40
0.6
 40
1.0
 40
1.0
 40
1.0
 40
1.0
 10
-117.2729
 20
70.8849
 30
0.0
 10
-122.9814
 20
73.5324
 30
0.0
 10
-125.1434
 20
75.8404
 30
0.0
 10
-128.3611
 20
79.1783
 30
0.0
 10
-128.3611
 20
79.1783
 30
0.0
 10
-125.024
 20
77.7154
 30
0.0
 10
-124.1806
 20
77.8768
 30
0.0
 10
-122.2164
 20
77.2117
 30
0.0
 10
-122.2164
 20
77.2117
 30
0.0
 10
-119.6194
 20
76.3321
 30
0.0
 10
-117.7576
 20
74.2207
 30
0.0
 10
-116.6778
 20
73.0722
 30
0.0
 10
-116.6778
 20
73.0722
 30
0.0
 10
-115.492
 20
71.8104
 30
0.0
 10
-115.3979
 20
70.0812
 30
0.0
 10
-117.2729
 20
70.8849
 30
0.0
  0
SPLINE
  5
58
330
1F
100
AcDbEntity
  8
layer 1
 62
     7
100
AcDbSpline
210
0.0
220
0.0
230
1.0
 70
    11
 71
     3
 72
    16
 73
    12
 74
     0
 42
0.0000000001
 43
0.0000000001
 12
1.0
 22
0.0
 32
0.0
 13
1.0
 23
0.0
 33
0.0
 40
0.0
 40
0.0
 40
0.0
 40
0.0
 40
0.25
 40
0.25
 40
0.25
 40
0.25
 40
0.5
 40
0.5
 40
0.5
 40
0.5
 40
1.0
 40
1.0
 40
1.0
 40
1.0
 10
-82.9908
 20
82.9404
 30
0.0
 10
-83.1438
 20
82.9105
 30
0.0
 10
-82.8331
 20
80.2244
 30
0.0
 10
-82.9908
 20
80.1942
 30
0.0
 10
-82.9908
 20
80.1942
 30
0.0
 10
-90.7119
 20
81.7959
 30
0.0
 10
-100.4066
 20
75.1533
 30
0.0
 10
-106.5128
 20
79.7265
 30
0.0
 10
-106.5128
 20
79.7265
 30
0.0
 10
-100.6839
 20
79.405
 30
0.0
 10
-89.0417
 20
82.1297
 30
0.0
 10
-82.9908
 20
82.9404
 30
0.0
  0
SPLINE
  5
59
330
1F
100
AcDbEntity
  8
layer 1
 62
     7
100
AcDbSpline
210
0.0
220
0.0
230
1.0
 70
    11
 71
     3
 72
    16
 73
    12
 74
     0
 42
0.0000000001
 43
0.0000000001
 12
1.0
 22
0.0
 32
0.0
 13
1.0
 23
0.0
 33
0.0
 40
0.0
 40
0.0
 40
0.0
 40
0.0
 40
0.25
 40
0.25
 40
0.25
 40
0.25
 40
0.5
 40
0.5
 40
0.5
 40
0.5
 40
1.0
 40
1.0
 40
1.0
 40
1.0
 10
-167.2044
 20
122.9431
 30
0.0
 10
-166.6476
 20
120.8682
 30
0.0
 10
-165.0076
 20
116.4998
 30
0.0
 10
-158.7024
 20
114.2077
 30
0.0
 10
-158.7024
 20
114.2077
 30
0.0
 10
-160.3958
 20
118.493
 30
0.0
 10
-158.0182
 20
118.5748
 30
0.0
 10
-161.6067
 20
122.9431
 30
0.0
 10
-161.6067
 20
122.9431
 30
0.0
 10
-161.6067
 20
122.9431
 30
0.0
 10
-167.2044
 20
122.9431
 30
0.0
 10
-167.2044
 20
122.9431
 30
0.0
  0
SPLINE
  5
5A
330
1F
100
AcDbEntity
  8
layer 1
 62
     7
100
AcDbSpline
210
0.0
220
0.0
230
1.0
 70
    11
 71
     3
 72
    12
 73
     8
 74
     0
 42
0.0000000001
 43
0.0000000001
 12
1.0
 22
0.0
 32
0.0
 13
1.0
 23
0.0
 33
0.0
 40
0.0
 40
0.0
 40
0.0
 40
0.0
 40
0.3333333333333333
 40
0.3333333333333333
 40
0.3333333333333333
 40
0.3333333333333333
 40
1.0
 40
1.0
 40
1.0
 40
1.0
 10
-154.9752
 20
118.3276
 30
0.0
 10
-153.9015
 20
113.7967
 30
0.0
 10
-152.2591
 20
106.9844
 30
0.0
 10
-148.3701
 20
106.6962
 30
0.0
 10
-148.3701
 20
106.6962
 30
0.0
 10
-151.0707
 20
111.8723
 30
0.0
 10
-153.7883
 20
118.7485
 30
0.0
 10
-154.9752
 20
118.3276
 30
0.0
  0
SPLINE
  5
5B
330
1F
100
AcDbEntity
  8
layer 1
 62
     7
100
AcDbSpline
210
0.0
220
0.0
230
1.0
 70
    11
 71
     3
 72
    12
 73
     8
 74
     0
 42
0.0000000001
 43
0.0000000001
 12
1.0
 22
0.0
 32
0.0
 13
1.0
 23
0.0
 33
0.0
 40
0.0
 40
0.0
 40
0.0
 40
0.0
 40
0.3333333333333333
 40
0.3333333333333333
 40
0.3333333333333333
 40
0.3333333333333333
 40
1.0
 40
1.0
 40
1.0
 40
1.0
 10
-149.8957
 20
96.7326
 30
0.0
 10
-155.3562
 20
101.523
 30
0.0
 10
-159.6304
 20
97.5535
 30
0.0
 10
-161.8334
 20
104.29
 30
0.0
 10
-161.8334
 20
104.29
 30
0.0
 10
-156.3103
 20
107.7316
 30
0.0
 10
-149.3608
 20
102.5183
 30
0.0
 10
-149.8957
 20
96.7326
 30
0.0
  0
SPLINE
  5
5C
330
1F
100
AcDbEntity
  8
layer 1
 62
     7
100
AcDbSpline
210
0.0
220
0.0
230
1.0
 70
    11
 71
     3
 72
    12
 73
     8
 74
     0
 42
0.0000000001
 43
0.0000000001
 12
1.0
 22
0.0
 32
0.0
 13
1.0
 23
0.0
 33
0.0
 40
0.0
 40
0.0
 40
0.0
 40
0.0
 40
0.3333333333333333
 40
0.3333333333333333
 40
0.3333333333333333
 40
0.3333333333333333
 40
1.0
 40
1.0
 40
1.0
 40
1.0
 10
-153.9484
 20
105.2611
 30
0.0
 10
-159.4086
 20
110.0524
 30
0.0
 10
-162.9733
 20
102.8632
 30
0.0
 10
-164.5146
 20
109.9284
 30
0.0
 10
-164.5146
 20
109.9284
 30
0.0
 10
-158.4001
 20
110.0284
 30
0.0
 10
-153.9821
 20
107.5039
 30
0.0
 10
-153.9484
 20
105.2611
 30
0.0
  0
SPLINE
  5
5D
330
1F
100
AcDbEntity
  8
layer 1
 62
     7
100
AcDbSpline
210
0.0
220
0.0
230
1.0
 70
    11
 71
     3
 72
    12
 73
     8
 74
     0
 42
0.0000000001
 43
0.0000000001
 12
1.0
 22
0.0
 32
0.0
 13
1.0
 23
0.0
 33
0.0
 40
0.0
 40
0.0
 40
0.0
 40
0.0
 40
0.3333333333333333
 40
0.3333333333333333
 40
0.3333333333333333
 40
0.3333333333333333
 40
1.0
 40
1.0
 40
1.0
 40
1.0
 10
-159.4172
 20
110.7888
 30
0.0
 10
-161.8973
 20
112.0709
 30
0.0
 10
-165.5413
 20
109.9127
 30
0.0
 10
-165.5533
 20
116.5563
 30
0.0
 10
-165.5533
 20
116.5563
 30
0.0
 10
-161.9972
 20
111.8868
 30
0.0
 10
-159.4206
 20
114.2943
 30
0.0
 10
-159.4172
 20
110.7888
 30
0.0
  0
SPLINE
  5
5E
330
1F
100
AcDbEntity
  8
layer 1
 62
     7
100
AcDbSpline
210
0.0
220
0.0
230
1.0
 70
    11
 71
     3
 72
    16
 73
    12
 74
     0
 42
0.0000000001
 43
0.0000000001
 12
1.0
 22
0.0
 32
0.0
 13
1.0
 23
0.0
 33
0.0
 40
0.0
 40
0.0
 40
0.0
 40
0.0
 40
0.25
 40
0.25
 40
0.25
 40
0.25
 40
0.5
 40
0.5
 40
0.5
 40
0.5
 40
1.0
 40
1.0
 40
1.0
 40
1.0
 10
-149.6402
 20
104.8274
 30
0.0
 10
-147.5061
 20
102.3279
 30
0.0
 10
-146.1758
 20
100.4396
 30
0.0
 10
-144.6777
 20
97.9728
 30
0.0
 10
-144.6777
 20
97.9728
 30
0.0
 10
-142.9328
 20
95.0964
 30
0.0
 10
-140.5216
 20
93.0272
 30
0.0
 10
-138.3501
 20
92.8668
 30
0.0
 10
-138.3501
 20
92.8668
 30
0.0
 10
-141.0507
 20
98.0428
 30
0.0
 10
-147.7593
 20
105.1454
 30
0.0
 10
-149.6402
 20
104.8274
 30
0.0
  0
SPLINE
  5
5F
330
1F
100
AcDbEntity
  8
layer 1
 62
     7
100
AcDbSpline
210
0.0
220
0.0
230
1.0
 70
    11
 71
     3
 72
    16
 73
    12
 74
     0
 42
0.0000000001
 43
0.0000000001
 12
1.0
 22
0.0
 32
0.0
 13
1.0
 23
0.0
 33
0.0
 40
0.0
 40
0.0
 40
0.0
 40
0.0
 40
0.25
 40
0.25
 40
0.25
 40
0.25
 40
0.5
 40
0.5
 40
0.5
 40
0.5
 40
1.0
 40
1.0
 40
1.0
 40
1.0
 10
-147.8423
 20
98.7511
 30
0.0
 10
-146.4698
 20
95.5843
 30
0.0
 10
-146.4867
 20
95.2071
 30
0.0
 10
-144.9899
 20
92.7403
 30
0.0
 10
-144.9899
 20
92.7403
 30
0.0
 10
-143.2438
 20
89.8651
 30
0.0
 10
-140.2624
 20
88.9227
 30
0.0
 10
-138.7983
 20
90.9967
 30
0.0
 10
-138.7983
 20
90.9967
 30
0.0
 10
-143.1558
 20
91.7654
 30
0.0
 10
-145.3984
 20
97.5208
 30
0.0
 10
-147.8423
 20
98.7511
 30
0.0
  0
SPLINE
  5
60
330
1F
100
AcDbEntity
  8
layer 1
 62
     7
100
AcDbSpline
210
0.0
220
0.0
230
1.0
 70
    11
 71
     3
 72
    20
 73
    16
 74
     0
 42
0.0000000001
 43
0.0000000001
 12
1.0
 22
0.0
 32
0.0
 13
1.0
 23
0.0
 33
0.0
 40
0.0
 40
0.0
 40
0.0
 40
0.0
 40
0.2
 40
0.2
 40
0.2
 40
0.2
 40
0.4
 40
0.4
 40
0.4
 40
0.4
 40
0.6
 40
0.6
 40
0.6
 40
0.6
 40
1.0
 40
1.0
 40
1.0
 40
1.0
 10
-156.2564
 20
95.8398
 30
0.0
 10
-151.4879
 20
91.734
 30
0.0
 10
-149.2728
 20
91.2148
 30
0.0
 10
-144.9044
 20
89.6627
 30
0.0
 10
-144.9044
 20
89.6627
 30
0.0
 10
-147.6146
 20
92.098
 30
0.0
 10
-147.8158
 20
92.9332
 30
0.0
 10
-149.233
 20
94.4466
 30
0.0
 10
-149.233
 20
94.4466
 30
0.0
 10
-151.1069
 20
96.4497
 30
0.0
 10
-153.018
 20
96.7761
 30
0.0
 10
-154.5099
 20
97.2849
 30
0.0
 10
-154.5099
 20
97.2849
 30
0.0
 10
-156.149
 20
97.8438
 30
0.0
 10
-157.7624
 20
97.2148
 30
0.0
 10
-156.2564
 20
95.8398
 30
0.0
  0
SPLINE
  5
61
330
1F
100
AcDbEntity
  8
layer 1
 62
     7
100
AcDbSpline
210
0.0
220
0.0
230
1.0
 70
    11
 71
     3
 72
    16
 73
    12
 74
     0
 42
0.0000000001
 43
0.0000000001
 12
1.0
 22
0.0
 32
0.0
 13
1.0
 23
0.0
 33
0.0
 40
0.0
 40
0.0
 40
0.0
 40
0.0
 40
0.25
 40
0.25
 40
0.25
 40
0.25
 40
0.5
 40
0.5
 40
0.5
 40
0.5
 40
1.0
 40
1.0
 40
1.0
 40
1.0
 10
-156.8117
 20
122.9431
 30
0.0
 10
-156.8117
 20
122.9431
 30
0.0
 10
-159.1001
 20
122.9431
 30
0.0
 10
-159.1001
 20
122.9431
 30
0.0
 10
-159.1001
 20
122.9431
 30
0.0
 10
-156.5093
 20
118.7713
 30
0.0
 10
-159.0507
 20
113.6727
 30
0.0
 10
-153.4292
 20
109.7875
 30
0.0
 10
-153.4292
 20
109.7875
 30
0.0
 10
-156.1286
 20
114.9631
 30
0.0
 10
-156.3986
 20
119.5799
 30
0.0
 10
-156.8117
 20
122.9431
 30
0.0
  0
SPLINE
  5
62
330
1F
100
AcDbEntity
  8
layer 1
 62
     7
100
AcDbSpline
210
0.0
220
0.0
230
1.0
 70
    11
 71
     3
 72
    16
 73
    12
 74
     0
 42
0.0000000001
 43
0.0000000001
 12
1.0
 22
0.0
 32
0.0
 13
1.0
 23
0.0
 33
0.0
 40
0.0
 40
0.0
 40
0.0
 40
0.0
 40
0.25
 40
0.25
 40
0.25
 40
0.25
 40
0.5
 40
0.5
 40
0.5
 40
0.5
 40
1.0
 40
1.0
 40
1.0
 40
1.0
 10
-112.2275
 20
57.1736
 30
0.0
 10
-114.9629
 20
58.9944
 30
0.0
 10
-116.996
 20
60.0911
 30
0.0
 10
-119.6241
 20
61.2828
 30
0.0
 10
-119.6241
 20
61.2828
 30
0.0
 10
-122.6874
 20
62.6735
 30
0.0
 10
-125.0289
 20
64.821
 30
0.0
 10
-125.4469
 20
66.9576
 30
0.0
 10
-125.4469
 20
66.9576
 30
0.0
 10
-119.9868
 20
64.8931
 30
0.0
 10
-112.1346
 20
59.0788
 30
0.0
 10
-112.2275
 20
57.1736
 30
0.0
  0
SPLINE
  5
63
330
1F
100
AcDbEntity
  8
layer 1
 62
     7
100
AcDbSpline
210
0.0
220
0.0
230
1.0
 70
    11
 71
     3
 72
    12
 73
     8
 74
     0
 42
0.0000000001
 43
0.0000000001
 12
1.0
 22
0.0
 32
0.0
 13
1.0
 23
0.0
 33
0.0
 40
0.0
 40
0.0
 40
0.0
 40
0.0
 40
0.3333333333333333
 40
0.3333333333333333
 40
0.3333333333333333
 40
0.3333333333333333
 40
1.0
 40
1.0
 40
1.0
 40
1.0
 10
-122.5187
 20
66.9166
 30
0.0
 10
-126.3546
 20
69.5584
 30
0.0
 10
-132.11
 20
73.5556
 30
0.0
 10
-130.9713
 20
77.2841
 30
0.0
 10
-130.9713
 20
77.2841
 30
0.0
 10
-127.1233
 20
72.8939
 30
0.0
 10
-121.6981
 20
67.8711
 30
0.0
 10
-122.5187
 20
66.9166
 30
0.0
  0
SPLINE
  5
64
330
1F
100
AcDbEntity
  8
layer 1
 62
     7
100
AcDbSpline
210
0.0
220
0.0
230
1.0
 70
    11
 71
     3
 72
    12
 73
     8
 74
     0
 42
0.0000000001
 43
0.0000000001
 12
1.0
 22
0.0
 32
0.0
 13
1.0
 23
0.0
 33
0.0
 40
0.0
 40
0.0
 40
0.0
 40
0.0
 40
0.3333333333333333
 40
0.3333333333333333
 40
0.3333333333333333
 40
0.3333333333333333
 40
1.0
 40
1.0
 40
1.0
 40
1.0
 10
-132.6727
 20
76.1812
 30
0.0
 10
-131.223
 20
73.5976
 30
0.0
 10
-131.2027
 20
64.2583
 30
0.0
 10
-134.5021
 20
64.0593
 30
0.0
 10
-134.5021
 20
64.0593
 30
0.0
 10
-138.6089
 20
63.9063
 30
0.0
 10
-138.2365
 20
74.9028
 30
0.0
 10
-132.6727
 20
76.1812
 30
0.0
  0
SPLINE
  5
65
330
1F
100
AcDbEntity
  8
layer 1
 62
     7
100
AcDbSpline
210
0.0
220
0.0
230
1.0
 70
    11
 71
     3
 72
    12
 73
     8
 74
     0
 42
0.0000000001
 43
0.0000000001
 12
1.0
 22
0.0
 32
0.0
 13
1.0
 23
0.0
 33
0.0
 40
0.0
 40
0.0
 40
0.0
 40
0.0
 40
0.3333333333333333
 40
0.3333333333333333
 40
0.3333333333333333
 40
0.3333333333333333
 40
1.0
 40
1.0
 40
1.0
 40
1.0
 10
-114.6606
 20
55.2682
 30
0.0
 10
-111.6718
 20
56.2215
 30
0.0
 10
-104.2873
 20
49.2044
 30
0.0
 10
-107.7181
 20
43.1476
 30
0.0
 10
-107.7181
 20
43.1476
 30
0.0
 10
-113.894
 20
42.6752
 30
0.0
 10
-114.6266
 20
49.3814
 30
0.0
 10
-114.6606
 20
55.2682
 30
0.0
  0
SPLINE
  5
66
330
1F
100
AcDbEntity
  8
layer 1
 62
     7
100
AcDbSpline
210
0.0
220
0.0
230
1.0
 70
    11
 71
     3
 72
    16
 73
    12
 74
     0
 42
0.0000000001
 43
0.0000000001
 12
1.0
 22
0.0
 32
0.0
 13
1.0
 23
0.0
 33
0.0
 40
0.0
 40
0.0
 40
0.0
 40
0.0
 40
0.25
 40
0.25
 40
0.25
 40
0.25
 40
0.5
 40
0.5
 40
0.5
 40
0.5
 40
1.0
 40
1.0
 40
1.0
 40
1.0
 10
-129.7987
 20
67.9085
 30
0.0
 10
-127.9813
 20
66.3984
 30
0.0
 10
-128.0294
 20
59.38
 30
0.0
 10
-129.2008
 20
56.6155
 30
0.0
 10
-129.2008
 20
56.6155
 30
0.0
 10
-129.8758
 20
59.6922
 30
0.0
 10
-131.1774
 20
61.9409
 30
0.0
 10
-132.3667
 20
63.0447
 30
0.0
 10
-132.3667
 20
63.0447
 30
0.0
 10
-131.6787
 20
64.427
 30
0.0
 10
-130.3602
 20
66.8503
 30
0.0
 10
-129.7987
 20
67.9085
 30
0.0
  0
SPLINE
  5
67
330
1F
100
AcDbEntity
  8
layer 1
 62
     7
100
AcDbSpline
210
0.0
220
0.0
230
1.0
 70
    11
 71
     3
 72
    16
 73
    12
 74
     0
 42
0.0000000001
 43
0.0000000001
 12
1.0
 22
0.0
 32
0.0
 13
1.0
 23
0.0
 33
0.0
 40
0.0
 40
0.0
 40
0.0
 40
0.0
 40
0.25
 40
0.25
 40
0.25
 40
0.25
 40
0.5
 40
0.5
 40
0.5
 40
0.5
 40
1.0
 40
1.0
 40
1.0
 40
1.0
 10
-136.305
 20
61.301
 30
0.0
 10
-132.4703
 20
63.7243
 30
0.0
 10
-129.7456
 20
55.243
 30
0.0
 10
-130.9157
 20
52.4798
 30
0.0
 10
-130.9157
 20
52.4798
 30
0.0
 10
-133.1549
 20
54.5476
 30
0.0
 10
-134.0526
 20
55.7372
 30
0.0
 10
-135.0901
 20
57.2445
 30
0.0
 10
-135.0901
 20
57.2445
 30
0.0
 10
-135.4613
 20
57.9702
 30
0.0
 10
-136.7159
 20
59.8393
 30
0.0
 10
-136.305
 20
61.301
 30
0.0
  0
SPLINE
  5
68
330
1F
100
AcDbEntity
  8
layer 1
 62
     7
100
AcDbSpline
210
0.0
220
0.0
230
1.0
 70
    11
 71
     3
 72
    16
 73
    12
 74
     0
 42
0.0000000001
 43
0.0000000001
 12
1.0
 22
0.0
 32
0.0
 13
1.0
 23
0.0
 33
0.0
 40
0.0
 40
0.0
 40
0.0
 40
0.0
 40
0.25
 40
0.25
 40
0.25
 40
0.25
 40
0.5
 40
0.5
 40
0.5
 40
0.5
 40
1.0
 40
1.0
 40
1.0
 40
1.0
 10
-126.5702
 20
62.5109
 30
0.0
 10
-124.0973
 20
62.3625
 30
0.0
 10
-123.7432
 20
53.0246
 30
0.0
 10
-124.56
 20
50.1601
 30
0.0
 10
-124.56
 20
50.1601
 30
0.0
 10
-126.1593
 20
49.714
 30
0.0
 10
-127.8598
 20
50.1987
 30
0.0
 10
-129.3397
 20
51.5953
 30
0.0
 10
-129.3397
 20
51.5953
 30
0.0
 10
-127.1897
 20
53.2788
 30
0.0
 10
-126.5268
 20
60.7467
 30
0.0
 10
-126.5702
 20
62.5109
 30
0.0
  0
SPLINE
  5
69
330
1F
100
AcDbEntity
  8
layer 1
 62
     7
100
AcDbSpline
210
0.0
220
0.0
230
1.0
 70
    11
 71
     3
 72
    16
 73
    12
 74
     0
 42
0.0000000001
 43
0.0000000001
 12
1.0
 22
0.0
 32
0.0
 13
1.0
 23
0.0
 33
0.0
 40
0.0
 40
0.0
 40
0.0
 40
0.0
 40
0.25
 40
0.25
 40
0.25
 40
0.25
 40
0.5
 40
0.5
 40
0.5
 40
0.5
 40
1.0
 40
1.0
 40
1.0
 40
1.0
 10
-122.7368
 20
57.9714
 30
0.0
 10
-119.6074
 20
59.3368
 30
0.0
 10
-118.9
 20
47.9293
 30
0.0
 10
-119.2637
 20
46.2255
 30
0.0
 10
-119.2637
 20
46.2255
 30
0.0
 10
-120.8124
 20
46.687
 30
0.0
 10
-122.4622
 20
48.1814
 30
0.0
 10
-123.1863
 20
49.173
 30
0.0
 10
-123.1863
 20
49.173
 30
0.0
 10
-122.5995
 20
50.6565
 30
0.0
 10
-122.138
 20
54.1392
 30
0.0
 10
-122.7368
 20
57.9714
 30
0.0
  0
SPLINE
  5
6A
330
1F
100
AcDbEntity
  8
layer 1
 62
     7
100
AcDbSpline
210
0.0
220
0.0
230
1.0
 70
    11
 71
     3
 72
    20
 73
    16
 74
     0
 42
0.0000000001
 43
0.0000000001
 12
1.0
 22
0.0
 32
0.0
 13
1.0
 23
0.0
 33
0.0
 40
0.0
 40
0.0
 40
0.0
 40
0.0
 40
0.2
 40
0.2
 40
0.2
 40
0.2
 40
0.4
 40
0.4
 40
0.4
 40
0.4
 40
0.6
 40
0.6
 40
0.6
 40
0.6
 40
1.0
 40
1.0
 40
1.0
 40
1.0
 10
-118.5505
 20
58.0726
 30
0.0
 10
-117.7191
 20
58.1219
 30
0.0
 10
-117.1295
 20
58.7149
 30
0.0
 10
-116.762
 20
57.5472
 30
0.0
 10
-116.762
 20
57.5472
 30
0.0
 10
-115.6861
 20
54.1308
 30
0.0
 10
-115.4123
 20
45.6131
 30
0.0
 10
-115.5811
 20
44.3082
 30
0.0
 10
-115.5811
 20
44.3082
 30
0.0
 10
-116.4752
 20
44.8215
 30
0.0
 10
-117.015
 20
45.4567
 30
0.0
 10
-117.8393
 20
45.5422
 30
0.0
 10
-117.8393
 20
45.5422
 30
0.0
 10
-117.7576
 20
47.8825
 30
0.0
 10
-117.9517
 20
54.2404
 30
0.0
 10
-118.5505
 20
58.0726
 30
0.0
  0
SPLINE
  5
6B
330
1F
100
AcDbEntity
  8
layer 1
 62
     7
100
AcDbSpline
210
0.0
220
0.0
230
1.0
 70
    11
 71
     3
 72
    12
 73
     8
 74
     0
 42
0.0000000001
 43
0.0000000001
 12
1.0
 22
0.0
 32
0.0
 13
1.0
 23
0.0
 33
0.0
 40
0.0
 40
0.0
 40
0.0
 40
0.0
 40
0.3333333333333333
 40
0.3333333333333333
 40
0.3333333333333333
 40
0.3333333333333333
 40
1.0
 40
1.0
 40
1.0
 40
1.0
 10
-157.2768
 20
89.5276
 30
0.0
 10
-153.4015
 20
86.9452
 30
0.0
 10
-147.5554
 20
83.0815
 30
0.0
 10
-144.5139
 20
85.522
 30
0.0
 10
-144.5139
 20
85.522
 30
0.0
 10
-150.0175
 20
87.468
 30
0.0
 10
-156.6948
 20
90.6447
 30
0.0
 10
-157.2768
 20
89.5276
 30
0.0
  0
SPLINE
  5
6C
330
1F
100
AcDbEntity
  8
layer 1
 62
     7
100
AcDbSpline
210
0.0
220
0.0
230
1.0
 70
    11
 71
     3
 72
    12
 73
     8
 74
     0
 42
0.0000000001
 43
0.0000000001
 12
1.0
 22
0.0
 32
0.0
 13
1.0
 23
0.0
 33
0.0
 40
0.0
 40
0.0
 40
0.0
 40
0.0
 40
0.3333333333333333
 40
0.3333333333333333
 40
0.3333333333333333
 40
0.3333333333333333
 40
1.0
 40
1.0
 40
1.0
 40
1.0
 10
-144.9079
 20
83.5322
 30
0.0
 10
-147.8447
 20
83.9228
 30
0.0
 10
-156.5262
 20
80.4774
 30
0.0
 10
-155.4873
 20
77.3406
 30
0.0
 10
-155.4873
 20
77.3406
 30
0.0
 10
-154.1077
 20
73.4686
 30
0.0
 10
-144.032
 20
77.8924
 30
0.0
 10
-144.9079
 20
83.5322
 30
0.0
  0
SPLINE
  5
6D
330
1F
100
AcDbEntity
  8
layer 1
 62
     7
100
AcDbSpline
210
0.0
220
0.0
230
1.0
 70
    11
 71
     3
 72
    16
 73
    12
 74
     0
 42
0.0000000001
 43
0.0000000001
 12
1.0
 22
0.0
 32
0.0
 13
1.0
 23
0.0
 33
0.0
 40
0.0
 40
0.0
 40
0.0
 40
0.0
 40
0.25
 40
0.25
 40
0.25
 40
0.25
 40
0.5
 40
0.5
 40
0.5
 40
0.5
 40
1.0
 40
1.0
 40
1.0
 40
1.0
 10
-169.7325
 20
92.285
 30
0.0
 10
-171.1763
 20
94.1936
 30
0.0
 10
-175.7314
 20
95.953
 30
0.0
 10
-178.8636
 20
96.4037
 30
0.0
 10
-178.8636
 20
96.4037
 30
0.0
 10
-178.8636
 20
96.4037
 30
0.0
 10
-178.8636
 20
88.5453
 30
0.0
 10
-178.8636
 20
88.5453
 30
0.0
 10
-178.8636
 20
88.5453
 30
0.0
 10
-176.5245
 20
90.587
 30
0.0
 10
-173.5046
 20
91.27
 30
0.0
 10
-169.7325
 20
92.285
 30
0.0
  0
SPLINE
  5
6E
330
1F
100
AcDbEntity
  8
layer 1
 62
     7
100
AcDbSpline
210
0.0
220
0.0
230
1.0
 70
    11
 71
     3
 72
    16
 73
    12
 74
     0
 42
0.0000000001
 43
0.0000000001
 12
1.0
 22
0.0
 32
0.0
 13
1.0
 23
0.0
 33
0.0
 40
0.0
 40
0.0
 40
0.0
 40
0.0
 40
0.25
 40
0.25
 40
0.25
 40
0.25
 40
0.5
 40
0.5
 40
0.5
 40
0.5
 40
1.0
 40
1.0
 40
1.0
 40
1.0
 10
-153.2675
 20
83.1913
 30
0.0
 10
-155.3451
 20
84.3192
 30
0.0
 10
-160.8453
 20
81.116
 30
0.0
 10
-162.9782
 20
79.005
 30
0.0
 10
-162.9782
 20
79.005
 30
0.0
 10
-159.8701
 20
79.5171
 30
0.0
 10
-158.0216
 20
80.2535
 30
0.0
 10
-156.5549
 20
79.5581
 30
0.0
 10
-156.5549
 20
79.5581
 30
0.0
 10
-155.5271
 20
80.7088
 30
0.0
 10
-154.0425
 20
82.2766
 30
0.0
 10
-153.2675
 20
83.1913
 30
0.0
  0
SPLINE
  5
6F
330
1F
100
AcDbEntity
  8
layer 1
 62
     7
100
AcDbSpline
210
0.0
220
0.0
230
1.0
 70
    11
 71
     3
 72
    16
 73
    12
 74
     0
 42
0.0000000001
 43
0.0000000001
 12
1.0
 22
0.0
 32
0.0
 13
1.0
 23
0.0
 33
0.0
 40
0.0
 40
0.0
 40
0.0
 40
0.0
 40
0.25
 40
0.25
 40
0.25
 40
0.25
 40
0.5
 40
0.5
 40
0.5
 40
0.5
 40
1.0
 40
1.0
 40
1.0
 40
1.0
 10
-156.1597
 20
74.2543
 30
0.0
 10
-155.3308
 20
78.7143
 30
0.0
 10
-163.6625
 20
78.101
 30
0.0
 10
-165.7955
 20
75.9884
 30
0.0
 10
-165.7955
 20
75.9884
 30
0.0
 10
-163.0443
 20
74.6761
 30
0.0
 10
-163.383
 20
74.6727
 30
0.0
 10
-161.5984
 20
74.2664
 30
0.0
 10
-161.5984
 20
74.2664
 30
0.0
 10
-160.7861
 20
74.1905
 30
0.0
 10
-157.3648
 20
73.3313
 30
0.0
 10
-156.1597
 20
74.2543
 30
0.0
  0
SPLINE
  5
70
330
1F
100
AcDbEntity
  8
layer 1
 62
     7
100
AcDbSpline
210
0.0
220
0.0
230
1.0
 70
    11
 71
     3
 72
    16
 73
    12
 74
     0
 42
0.0000000001
 43
0.0000000001
 12
1.0
 22
0.0
 32
0.0
 13
1.0
 23
0.0
 33
0.0
 40
0.0
 40
0.0
 40
0.0
 40
0.0
 40
0.25
 40
0.25
 40
0.25
 40
0.25
 40
0.5
 40
0.5
 40
0.5
 40
0.5
 40
1.0
 40
1.0
 40
1.0
 40
1.0
 10
-159.3111
 20
84.077
 30
0.0
 10
-160.3656
 20
86.3186
 30
0.0
 10
-167.6165
 20
82.3525
 30
0.0
 10
-169.9735
 20
80.5317
 30
0.0
 10
-169.9735
 20
80.5317
 30
0.0
 10
-169.794
 20
78.8806
 30
0.0
 10
-169.2686
 20
77.6478
 30
0.0
 10
-167.4238
 20
76.7911
 30
0.0
 10
-167.4238
 20
76.7911
 30
0.0
 10
-166.6562
 20
79.4121
 30
0.0
 10
-160.9656
 20
83.4637
 30
0.0
 10
-159.3111
 20
84.077
 30
0.0
  0
SPLINE
  5
71
330
1F
100
AcDbEntity
  8
layer 1
 62
     7
100
AcDbSpline
210
0.0
220
0.0
230
1.0
 70
    11
 71
     3
 72
    16
 73
    12
 74
     0
 42
0.0000000001
 43
0.0000000001
 12
1.0
 22
0.0
 32
0.0
 13
1.0
 23
0.0
 33
0.0
 40
0.0
 40
0.0
 40
0.0
 40
0.0
 40
0.25
 40
0.25
 40
0.25
 40
0.25
 40
0.5
 40
0.5
 40
0.5
 40
0.5
 40
1.0
 40
1.0
 40
1.0
 40
1.0
 10
-164.6158
 20
85.6208
 30
0.0
 10
-164.5088
 20
89.0334
 30
0.0
 10
-174.4758
 20
85.1277
 30
0.0
 10
-175.9242
 20
84.1578
 30
0.0
 10
-175.9242
 20
84.1578
 30
0.0
 10
-174.9206
 20
82.8911
 30
0.0
 10
-173.1995
 20
82.1899
 30
0.0
 10
-172.009
 20
81.8861
 30
0.0
 10
-172.009
 20
81.8861
 30
0.0
 10
-169.6844
 20
81.9814
 30
0.0
 10
-168.3961
 20
84.7554
 30
0.0
 10
-164.6158
 20
85.6208
 30
0.0
  0
SPLINE
  5
72
330
1F
100
AcDbEntity
  8
layer 1
 62
     7
100
AcDbSpline
210
0.0
220
0.0
230
1.0
 70
    11
 71
     3
 72
    20
 73
    16
 74
     0
 42
0.0000000001
 43
0.0000000001
 12
1.0
 22
0.0
 32
0.0
 13
1.0
 23
0.0
 33
0.0
 40
0.0
 40
0.0
 40
0.0
 40
0.0
 40
0.2
 40
0.2
 40
0.2
 40
0.2
 40
0.4
 40
0.4
 40
0.4
 40
0.4
 40
0.6
 40
0.6
 40
0.6
 40
0.6
 40
1.0
 40
1.0
 40
1.0
 40
1.0
 10
-166.1848
 20
89.1022
 30
0.0
 10
-166.4477
 20
89.8941
 30
0.0
 10
-166.1416
 20
90.2988
 30
0.0
 10
-167.3358
 20
90.5688
 30
0.0
 10
-167.3358
 20
90.5688
 30
0.0
 10
-170.075
 20
91.1883
 30
0.0
 10
-175.993
 20
88.7854
 30
0.0
 10
-177.9199
 20
86.3679
 30
0.0
 10
-177.9199
 20
86.3679
 30
0.0
 10
-178.0309
 20
84.6181
 30
0.0
 10
-177.5861
 20
84.6857
 30
0.0
 10
-177.0873
 20
84.4506
 30
0.0
 10
-177.0873
 20
84.4506
 30
0.0
 10
-174.8324
 20
87.1703
 30
0.0
 10
-170.0772
 20
88.848
 30
0.0
 10
-166.1848
 20
89.1022
 30
0.0
  0
SPLINE
  5
73
330
1F
100
AcDbEntity
  8
layer 1
 62
     7
100
AcDbSpline
210
0.0
220
0.0
230
1.0
 70
    11
 71
     3
 72
    16
 73
    12
 74
     0
 42
0.0000000001
 43
0.0000000001
 12
1.0
 22
0.0
 32
0.0
 13
1.0
 23
0.0
 33
0.0
 40
0.0
 40
0.0
 40
0.0
 40
0.0
 40
0.25
 40
0.25
 40
0.25
 40
0.25
 40
0.5
 40
0.5
 40
0.5
 40
0.5
 40
1.0
 40
1.0
 40
1.0
 40
1.0
 10
-168.8468
 20
94.4503
 30
0.0
 10
-167.8131
 20
93.3249
 30
0.0
 10
-166.9524
 20
91.8932
 30
0.0
 10
-164.0892
 20
90.7267
 30
0.0
 10
-164.0892
 20
90.7267
 30
0.0
 10
-158.1289
 20
88.2998
 30
0.0
 10
-159.2556
 20
86.6064
 30
0.0
 10
-156.4069
 20
86.9571
 30
0.0
 10
-156.4069
 20
86.9571
 30
0.0
 10
-160.463
 20
91.1556
 30
0.0
 10
-167.1331
 20
95.2891
 30
0.0
 10
-168.8468
 20
94.4503
 30
0.0
  0
SPLINE
  5
74
330
1F
100
AcDbEntity
  8
layer 1
 62
     7
100
AcDbSpline
210
0.0
220
0.0
230
1.0
 70
    11
 71
     3
 72
    16
 73
    12
 74
     0
 42
0.0000000001
 43
0.0000000001
 12
1.0
 22
0.0
 32
0.0
 13
1.0
 23
0.0
 33
0.0
 40
0.0
 40
0.0
 40
0.0
 40
0.0
 40
0.25
 40
0.25
 40
0.25
 40
0.25
 40
0.5
 40
0.5
 40
0.5
 40
0.5
 40
1.0
 40
1.0
 40
1.0
 40
1.0
 10
-119.4565
 20
21.3187
 30
0.0
 10
-120.9231
 20
18.3784
 30
0.0
 10
-122.1417
 20
16.4153
 30
0.0
 10
-123.8274
 20
14.0739
 30
0.0
 10
-123.8274
 20
14.0739
 30
0.0
 10
-125.7928
 20
11.343
 30
0.0
 10
-126.756
 20
8.3148
 30
0.0
 10
-126.0557
 20
6.254
 30
0.0
 10
-126.0557
 20
6.254
 30
0.0
 10
-122.3465
 20
10.7612
 30
0.0
 10
-118.4286
 20
19.7124
 30
0.0
 10
-119.4565
 20
21.3187
 30
0.0
  0
SPLINE
  5
75
330
1F
100
AcDbEntity
  8
layer 1
 62
     7
100
AcDbSpline
210
0.0
220
0.0
230
1.0
 70
    11
 71
     3
 72
    12
 73
     8
 74
     0
 42
0.0000000001
 43
0.0000000001
 12
1.0
 22
0.0
 32
0.0
 13
1.0
 23
0.0
 33
0.0
 40
0.0
 40
0.0
 40
0.0
 40
0.0
 40
0.3333333333333333
 40
0.3333333333333333
 40
0.3333333333333333
 40
0.3333333333333333
 40
1.0
 40
1.0
 40
1.0
 40
1.0
 10
-127.579
 20
8.3811
 30
0.0
 10
-129.3202
 20
4.0621
 30
0.0
 10
-131.9665
 20
-2.426
 30
0.0
 10
-135.8543
 20
-2.1286
 30
0.0
 10
-135.8543
 20
-2.1286
 30
0.0
 10
-132.4089
 20
2.5847
 30
0.0
 10
-128.6887
 20
8.9753
 30
0.0
 10
-127.579
 20
8.3811
 30
0.0
  0
SPLINE
  5
76
330
1F
100
AcDbEntity
  8
layer 1
 62
     7
100
AcDbSpline
210
0.0
220
0.0
230
1.0
 70
    11
 71
     3
 72
    12
 73
     8
 74
     0
 42
0.0000000001
 43
0.0000000001
 12
1.0
 22
0.0
 32
0.0
 13
1.0
 23
0.0
 33
0.0
 40
0.0
 40
0.0
 40
0.0
 40
0.0
 40
0.3333333333333333
 40
0.3333333333333333
 40
0.3333333333333333
 40
0.3333333333333333
 40
1.0
 40
1.0
 40
1.0
 40
1.0
 10
-133.9175
 20
-4.2458
 30
0.0
 10
-132.5897
 20
-1.6597
 30
0.0
 10
-125.0435
 20
0.0321
 30
0.0
 10
-124.0445
 20
-3.118
 30
0.0
 10
-124.0445
 20
-3.118
 30
0.0
 10
-122.8886
 20
-7.0621
 30
0.0
 10
-131.3159
 20
-9.3265
 30
0.0
 10
-133.9175
 20
-4.2458
 30
0.0
  0
SPLINE
  5
77
330
1F
100
AcDbEntity
  8
layer 1
 62
     7
100
AcDbSpline
210
0.0
220
0.0
230
1.0
 70
    11
 71
     3
 72
    12
 73
     8
 74
     0
 42
0.0000000001
 43
0.0000000001
 12
1.0
 22
0.0
 32
0.0
 13
1.0
 23
0.0
 33
0.0
 40
0.0
 40
0.0
 40
0.0
 40
0.0
 40
0.3333333333333333
 40
0.3333333333333333
 40
0.3333333333333333
 40
0.3333333333333333
 40
1.0
 40
1.0
 40
1.0
 40
1.0
 10
-115.4945
 20
19.4075
 30
0.0
 10
-117.3381
 20
21.9455
 30
0.0
 10
-112.9962
 20
31.1621
 30
0.0
 10
-106.1682
 20
29.8062
 30
0.0
 10
-106.1682
 20
29.8062
 30
0.0
 10
-103.7797
 20
24.0906
 30
0.0
 10
-109.9162
 20
21.29
 30
0.0
 10
-115.4945
 20
19.4075
 30
0.0
  0
SPLINE
  5
78
330
1F
100
AcDbEntity
  8
layer 1
 62
     7
100
AcDbSpline
210
0.0
220
0.0
230
1.0
 70
    11
 71
     3
 72
    16
 73
    12
 74
     0
 42
0.0000000001
 43
0.0000000001
 12
1.0
 22
0.0
 32
0.0
 13
1.0
 23
0.0
 33
0.0
 40
0.0
 40
0.0
 40
0.0
 40
0.0
 40
0.25
 40
0.25
 40
0.25
 40
0.25
 40
0.5
 40
0.5
 40
0.5
 40
0.5
 40
1.0
 40
1.0
 40
1.0
 40
1.0
 10
-127.6657
 20
0.7241
 30
0.0
 10
-126.8028
 20
2.9243
 30
0.0
 10
-120.1917
 20
4.5344
 30
0.0
 10
-117.1319
 20
3.4016
 30
0.0
 10
-117.1319
 20
3.4016
 30
0.0
 10
-120.3882
 20
2.2725
 30
0.0
 10
-121.9776
 20
0.6732
 30
0.0
 10
-122.6514
 20
-0.8017
 30
0.0
 10
-122.6514
 20
-0.8017
 30
0.0
 10
-124.0433
 20
0.5119
 30
0.0
 10
-126.4848
 20
0.5226
 30
0.0
 10
-127.6657
 20
0.7241
 30
0.0
  0
SPLINE
  5
79
330
1F
100
AcDbEntity
  8
layer 1
 62
     7
100
AcDbSpline
210
0.0
220
0.0
230
1.0
 70
    11
 71
     3
 72
    16
 73
    12
 74
     0
 42
0.0000000001
 43
0.0000000001
 12
1.0
 22
0.0
 32
0.0
 13
1.0
 23
0.0
 33
0.0
 40
0.0
 40
0.0
 40
0.0
 40
0.0
 40
0.25
 40
0.25
 40
0.25
 40
0.25
 40
0.5
 40
0.5
 40
0.5
 40
0.5
 40
1.0
 40
1.0
 40
1.0
 40
1.0
 10
-121.4004
 20
-4.8832
 30
0.0
 10
-122.5129
 20
0.1179
 30
0.0
 10
-116.821
 20
2.6315
 30
0.0
 10
-113.4879
 20
3.0051
 30
0.0
 10
-113.4879
 20
3.0051
 30
0.0
 10
-113.9952
 20
1.7339
 30
0.0
 10
-116.4838
 20
-1.133
 30
0.0
 10
-117.5889
 20
-2.5923
 30
0.0
 10
-117.5889
 20
-2.5923
 30
0.0
 10
-118.1611
 20
-3.1731
 30
0.0
 10
-119.8844
 20
-4.8135
 30
0.0
 10
-121.4004
 20
-4.8832
 30
0.0
  0
SPLINE
  5
7A
330
1F
100
AcDbEntity
  8
layer 1
 62
     7
100
AcDbSpline
210
0.0
220
0.0
230
1.0
 70
    11
 71
     3
 72
    16
 73
    12
 74
     0
 42
0.0000000001
 43
0.0000000001
 12
1.0
 22
0.0
 32
0.0
 13
1.0
 23
0.0
 33
0.0
 40
0.0
 40
0.0
 40
0.0
 40
0.0
 40
0.25
 40
0.25
 40
0.25
 40
0.25
 40
0.5
 40
0.5
 40
0.5
 40
0.5
 40
1.0
 40
1.0
 40
1.0
 40
1.0
 10
-123.0768
 20
5.3479
 30
0.0
 10
-123.7117
 20
7.7425
 30
0.0
 10
-115.4365
 20
9.9174
 30
0.0
 10
-112.4601
 20
10.0405
 30
0.0
 10
-112.4601
 20
10.0405
 30
0.0
 10
-112.2876
 20
8.5943
 30
0.0
 10
-112.2818
 20
7.1699
 30
0.0
 10
-112.3216
 20
5.0527
 30
0.0
 10
-112.3216
 20
5.0527
 30
0.0
 10
-114.5967
 20
6.565
 30
0.0
 10
-121.4148
 20
5.9433
 30
0.0
 10
-123.0768
 20
5.3479
 30
0.0
  0
SPLINE
  5
7B
330
1F
100
AcDbEntity
  8
layer 1
 62
     7
100
AcDbSpline
210
0.0
220
0.0
230
1.0
 70
    11
 71
     3
 72
    16
 73
    12
 74
     0
 42
0.0000000001
 43
0.0000000001
 12
1.0
 22
0.0
 32
0.0
 13
1.0
 23
0.0
 33
0.0
 40
0.0
 40
0.0
 40
0.0
 40
0.0
 40
0.25
 40
0.25
 40
0.25
 40
0.25
 40
0.5
 40
0.5
 40
0.5
 40
0.5
 40
1.0
 40
1.0
 40
1.0
 40
1.0
 10
-119.0132
 20
10.5501
 30
0.0
 10
-119.1023
 20
13.9126
 30
0.0
 10
-111.2994
 20
16.2516
 30
0.0
 10
-108.1312
 20
16.5104
 30
0.0
 10
-108.1312
 20
16.5104
 30
0.0
 10
-108.083
 20
14.8945
 30
0.0
 10
-110.4196
 20
12.5169
 30
0.0
 10
-111.1344
 20
11.5179
 30
0.0
 10
-111.1344
 20
11.5179
 30
0.0
 10
-112.7263
 20
11.6096
 30
0.0
 10
-115.3568
 20
11.4998
 30
0.0
 10
-119.0132
 20
10.5501
 30
0.0
  0
SPLINE
  5
7C
330
1F
100
AcDbEntity
  8
layer 1
 62
     7
100
AcDbSpline
210
0.0
220
0.0
230
1.0
 70
    11
 71
     3
 72
    20
 73
    16
 74
     0
 42
0.0000000001
 43
0.0000000001
 12
1.0
 22
0.0
 32
0.0
 13
1.0
 23
0.0
 33
0.0
 40
0.0
 40
0.0
 40
0.0
 40
0.0
 40
0.2
 40
0.2
 40
0.2
 40
0.2
 40
0.4
 40
0.4
 40
0.4
 40
0.4
 40
0.6
 40
0.6
 40
0.6
 40
0.6
 40
1.0
 40
1.0
 40
1.0
 40
1.0
 10
-118.577
 20
14.5606
 30
0.0
 10
-118.8855
 20
15.3356
 30
0.0
 10
-119.6966
 20
15.8043
 30
0.0
 10
-118.6396
 20
16.4237
 30
0.0
 10
-118.6396
 20
16.4237
 30
0.0
 10
-115.528
 20
18.2448
 30
0.0
 10
-109.5123
 20
19.675
 30
0.0
 10
-107.0576
 20
19.9234
 30
0.0
 10
-107.0576
 20
19.9234
 30
0.0
 10
-107.2637
 20
18.9146
 30
0.0
 10
-107.4241
 20
19.0232
 30
0.0
 10
-107.2455
 20
18.2133
 30
0.0
 10
-107.2455
 20
18.2133
 30
0.0
 10
-109.4932
 20
17.5566
 30
0.0
 10
-115.1267
 20
16.3321
 30
0.0
 10
-118.577
 20
14.5606
 30
0.0
  0
SPLINE
  5
7D
330
1F
100
AcDbEntity
  8
layer 1
 62
     7
100
AcDbSpline
210
0.0
220
0.0
230
1.0
 70
    11
 71
     3
 72
    16
 73
    12
 74
     0
 42
0.0000000001
 43
0.0000000001
 12
1.0
 22
0.0
 32
0.0
 13
1.0
 23
0.0
 33
0.0
 40
0.0
 40
0.0
 40
0.0
 40
0.0
 40
0.25
 40
0.25
 40
0.25
 40
0.25
 40
0.5
 40
0.5
 40
0.5
 40
0.5
 40
1.0
 40
1.0
 40
1.0
 40
1.0
 10
-145.907
 20
-46.9393
 30
0.0
 10
-145.0479
 20
-43.7675
 30
0.0
 10
-144.6536
 20
-41.4911
 30
0.0
 10
-144.3572
 20
-38.6209
 30
0.0
 10
-144.3572
 20
-38.6209
 30
0.0
 10
-144.0101
 20
-35.2742
 30
0.0
 10
-142.7172
 20
-32.3725
 30
0.0
 10
-140.8239
 20
-31.2974
 30
0.0
 10
-140.8239
 20
-31.2974
 30
0.0
 10
-141.0482
 20
-37.1301
 30
0.0
 10
-144.0715
 20
-46.4225
 30
0.0
 10
-145.907
 20
-46.9393
 30
0.0
  0
SPLINE
  5
7E
330
1F
100
AcDbEntity
  8
layer 1
 62
     7
100
AcDbSpline
210
0.0
220
0.0
230
1.0
 70
    11
 71
     3
 72
    12
 73
     8
 74
     0
 42
0.0000000001
 43
0.0000000001
 12
1.0
 22
0.0
 32
0.0
 13
1.0
 23
0.0
 33
0.0
 40
0.0
 40
0.0
 40
0.0
 40
0.0
 40
0.3333333333333333
 40
0.3333333333333333
 40
0.3333333333333333
 40
0.3333333333333333
 40
1.0
 40
1.0
 40
1.0
 40
1.0
 10
-143.3752
 20
-31.8745
 30
0.0
 10
-141.8061
 20
-27.4895
 30
0.0
 10
-139.4696
 20
-20.8842
 30
0.0
 10
-142.5724
 20
-18.5223
 30
0.0
 10
-142.5724
 20
-18.5223
 30
0.0
 10
-143.1305
 20
-24.3333
 30
0.0
 10
-144.5993
 20
-31.5793
 30
0.0
 10
-143.3752
 20
-31.8745
 30
0.0
  0
SPLINE
  5
7F
330
1F
100
AcDbEntity
  8
layer 1
 62
     7
100
AcDbSpline
210
0.0
220
0.0
230
1.0
 70
    11
 71
     3
 72
    12
 73
     8
 74
     0
 42
0.0000000001
 43
0.0000000001
 12
1.0
 22
0.0
 32
0.0
 13
1.0
 23
0.0
 33
0.0
 40
0.0
 40
0.0
 40
0.0
 40
0.0
 40
0.3333333333333333
 40
0.3333333333333333
 40
0.3333333333333333
 40
0.3333333333333333
 40
1.0
 40
1.0
 40
1.0
 40
1.0
 10
-139.7176
 20
-18.2271
 30
0.0
 10
-140.4457
 20
-21.0421
 30
0.0
 10
-135.9326
 20
-27.322
 30
0.0
 10
-133.091
 20
-25.6336
 30
0.0
 10
-133.091
 20
-25.6336
 30
0.0
 10
-129.6058
 20
-23.4546
 30
0.0
 10
-134.3972
 20
-16.1617
 30
0.0
 10
-139.7176
 20
-18.2271
 30
0.0
  0
SPLINE
  5
80
330
1F
100
AcDbEntity
  8
layer 1
 62
     7
100
AcDbSpline
210
0.0
220
0.0
230
1.0
 70
    11
 71
     3
 72
    12
 73
     8
 74
     0
 42
0.0000000001
 43
0.0000000001
 12
1.0
 22
0.0
 32
0.0
 13
1.0
 23
0.0
 33
0.0
 40
0.0
 40
0.0
 40
0.0
 40
0.0
 40
0.3333333333333333
 40
0.3333333333333333
 40
0.3333333333333333
 40
0.3333333333333333
 40
1.0
 40
1.0
 40
1.0
 40
1.0
 10
-141.6772
 20
-48.1458
 30
0.0
 10
-144.7415
 20
-48.8156
 30
0.0
 10
-147.623
 20
-58.5864
 30
0.0
 10
-141.6205
 20
-62.1126
 30
0.0
 10
-141.6205
 20
-62.1126
 30
0.0
 10
-136.0376
 20
-59.4301
 30
0.0
 10
-138.7598
 20
-53.2589
 30
0.0
 10
-141.6772
 20
-48.1458
 30
0.0
  0
SPLINE
  5
81
330
1F
100
AcDbEntity
  8
layer 1
 62
     7
100
AcDbSpline
210
0.0
220
0.0
230
1.0
 70
    11
 71
     3
 72
    16
 73
    12
 74
     0
 42
0.0000000001
 43
0.0000000001
 12
1.0
 22
0.0
 32
0.0
 13
1.0
 23
0.0
 33
0.0
 40
0.0
 40
0.0
 40
0.0
 40
0.0
 40
0.25
 40
0.25
 40
0.25
 40
0.25
 40
0.5
 40
0.5
 40
0.5
 40
0.5
 40
1.0
 40
1.0
 40
1.0
 40
1.0
 10
-138.3513
 20
-26.0963
 30
0.0
 10
-139.1681
 20
-28.3135
 30
0.0
 10
-135.2999
 20
-33.91
 30
0.0
 10
-132.2618
 20
-35.0983
 30
0.0
 10
-132.2618
 20
-35.0983
 30
0.0
 10
-133.9428
 20
-32.0905
 30
0.0
 10
-134.0684
 20
-29.8393
 30
0.0
 10
-133.5911
 20
-28.2882
 30
0.0
 10
-133.5911
 20
-28.2882
 30
0.0
 10
-135.5023
 20
-28.345
 30
0.0
 10
-137.3342
 20
-26.7316
 30
0.0
 10
-138.3513
 20
-26.0963
 30
0.0
  0
SPLINE
  5
82
330
1F
100
AcDbEntity
  8
layer 1
 62
     7
100
AcDbSpline
210
0.0
220
0.0
230
1.0
 70
    11
 71
     3
 72
    16
 73
    12
 74
     0
 42
0.0000000001
 43
0.0000000001
 12
1.0
 22
0.0
 32
0.0
 13
1.0
 23
0.0
 33
0.0
 40
0.0
 40
0.0
 40
0.0
 40
0.0
 40
0.25
 40
0.25
 40
0.25
 40
0.25
 40
0.5
 40
0.5
 40
0.5
 40
0.5
 40
1.0
 40
1.0
 40
1.0
 40
1.0
 10
-129.9434
 20
-26.0711
 30
0.0
 10
-134.0971
 20
-29.0681
 30
0.0
 10
-131.517
 20
-34.7294
 30
0.0
 10
-129.2746
 20
-37.224
 30
0.0
 10
-129.2746
 20
-37.224
 30
0.0
 10
-128.8081
 20
-35.9369
 30
0.0
 10
-128.7621
 20
-32.1411
 30
0.0
 10
-128.6178
 20
-30.3166
 30
0.0
 10
-128.6178
 20
-30.3166
 30
0.0
 10
-128.6597
 20
-29.5019
 30
0.0
 10
-128.8562
 20
-27.1314
 30
0.0
 10
-129.9434
 20
-26.0711
 30
0.0
  0
SPLINE
  5
83
330
1F
100
AcDbEntity
  8
layer 1
 62
     7
100
AcDbSpline
210
0.0
220
0.0
230
1.0
 70
    11
 71
     3
 72
    16
 73
    12
 74
     0
 42
0.0000000001
 43
0.0000000001
 12
1.0
 22
0.0
 32
0.0
 13
1.0
 23
0.0
 33
0.0
 40
0.0
 40
0.0
 40
0.0
 40
0.0
 40
0.25
 40
0.25
 40
0.25
 40
0.25
 40
0.5
 40
0.5
 40
0.5
 40
0.5
 40
1.0
 40
1.0
 40
1.0
 40
1.0
 10
-137.9955
 20
-32.6001
 30
0.0
 10
-140.0622
 20
-33.9668
 30
0.0
 10
-135.3252
 20
-41.0923
 30
0.0
 10
-133.1839
 20
-43.1638
 30
0.0
 10
-133.1839
 20
-43.1638
 30
0.0
 10
-132.093
 20
-42.1973
 30
0.0
 10
-131.1422
 20
-41.1369
 30
0.0
 10
-129.7639
 20
-39.5294
 30
0.0
 10
-129.7639
 20
-39.5294
 30
0.0
 10
-132.4679
 20
-39.1474
 30
0.0
 10
-137.1496
 20
-34.1497
 30
0.0
 10
-137.9955
 20
-32.6001
 30
0.0
  0
SPLINE
  5
84
330
1F
100
AcDbEntity
  8
layer 1
 62
     7
100
AcDbSpline
210
0.0
220
0.0
230
1.0
 70
    11
 71
     3
 72
    16
 73
    12
 74
     0
 42
0.0000000001
 43
0.0000000001
 12
1.0
 22
0.0
 32
0.0
 13
1.0
 23
0.0
 33
0.0
 40
0.0
 40
0.0
 40
0.0
 40
0.0
 40
0.25
 40
0.25
 40
0.25
 40
0.25
 40
0.5
 40
0.5
 40
0.5
 40
0.5
 40
1.0
 40
1.0
 40
1.0
 40
1.0
 10
-138.4173
 20
-39.1881
 30
0.0
 10
-140.719
 20
-41.6407
 30
0.0
 10
-136.4447
 20
-48.5746
 30
0.0
 10
-134.2504
 20
-50.8739
 30
0.0
 10
-134.2504
 20
-50.8739
 30
0.0
 10
-133.1404
 20
-49.6991
 30
0.0
 10
-133.3055
 20
-46.3707
 30
0.0
 10
-133.1753
 20
-45.1487
 30
0.0
 10
-133.1753
 20
-45.1487
 30
0.0
 10
-134.425
 20
-44.1581
 30
0.0
 10
-136.3183
 20
-42.3287
 30
0.0
 10
-138.4173
 20
-39.1881
 30
0.0
  0
SPLINE
  5
85
330
1F
100
AcDbEntity
  8
layer 1
 62
     7
100
AcDbSpline
210
0.0
220
0.0
230
1.0
 70
    11
 71
     3
 72
    20
 73
    16
 74
     0
 42
0.0000000001
 43
0.0000000001
 12
1.0
 22
0.0
 32
0.0
 13
1.0
 23
0.0
 33
0.0
 40
0.0
 40
0.0
 40
0.0
 40
0.0
 40
0.2
 40
0.2
 40
0.2
 40
0.2
 40
0.4
 40
0.4
 40
0.4
 40
0.4
 40
0.6
 40
0.6
 40
0.6
 40
0.6
 40
1.0
 40
1.0
 40
1.0
 40
1.0
 10
-140.7576
 20
-42.4747
 30
0.0
 10
-141.5023
 20
-42.8482
 30
0.0
 10
-142.4219
 20
-42.66
 30
0.0
 10
-142.0434
 20
-43.8243
 30
0.0
 10
-142.0434
 20
-43.8243
 30
0.0
 10
-140.9287
 20
-47.2527
 30
0.0
 10
-137.3859
 20
-52.3201
 30
0.0
 10
-135.7167
 20
-54.1384
 30
0.0
 10
-135.7167
 20
-54.1384
 30
0.0
 10
-135.2
 20
-53.2481
 30
0.0
 10
-135.3915
 20
-53.2228
 30
0.0
 10
-134.7202
 20
-52.736
 30
0.0
 10
-134.7202
 20
-52.736
 30
0.0
 10
-135.9625
 20
-50.7511
 30
0.0
 10
-139.3573
 20
-46.0921
 30
0.0
 10
-140.7576
 20
-42.4747
 30
0.0
  0
SPLINE
  5
86
330
1F
100
AcDbEntity
  8
layer 1
 62
     7
100
AcDbSpline
210
0.0
220
0.0
230
1.0
 70
    11
 71
     3
 72
    16
 73
    12
 74
     0
 42
0.0000000001
 43
0.0000000001
 12
1.0
 22
0.0
 32
0.0
 13
1.0
 23
0.0
 33
0.0
 40
0.0
 40
0.0
 40
0.0
 40
0.0
 40
0.25
 40
0.25
 40
0.25
 40
0.25
 40
0.5
 40
0.5
 40
0.5
 40
0.5
 40
1.0
 40
1.0
 40
1.0
 40
1.0
 10
-138.7897
 20
10.731
 30
0.0
 10
-138.7416
 20
6.9182
 30
0.0
 10
-138.2186
 20
1.0579
 30
0.0
 10
-140.7082
 20
-0.9717
 30
0.0
 10
-140.7082
 20
-0.9717
 30
0.0
 10
-141.6652
 20
-1.7501
 30
0.0
 10
-143.8546
 20
-2.8418
 30
0.0
 10
-142.3713
 20
0.1105
 30
0.0
 10
-142.3713
 20
0.1105
 30
0.0
 10
-140.16
 20
3.1798
 30
0.0
 10
-139.8731
 20
7.7338
 30
0.0
 10
-138.7897
 20
10.731
 30
0.0
  0
SPLINE
  5
87
330
1F
100
AcDbEntity
  8
layer 1
 62
     7
100
AcDbSpline
210
0.0
220
0.0
230
1.0
 70
    11
 71
     3
 72
    20
 73
    16
 74
     0
 42
0.0000000001
 43
0.0000000001
 12
1.0
 22
0.0
 32
0.0
 13
1.0
 23
0.0
 33
0.0
 40
0.0
 40
0.0
 40
0.0
 40
0.0
 40
0.2
 40
0.2
 40
0.2
 40
0.2
 40
0.4
 40
0.4
 40
0.4
 40
0.4
 40
0.6
 40
0.6
 40
0.6
 40
0.6
 40
1.0
 40
1.0
 40
1.0
 40
1.0
 10
-138.0557
 20
0.759
 30
0.0
 10
-136.6545
 20
3.5525
 30
0.0
 10
-135.8456
 20
6.4746
 30
0.0
 10
-136.4352
 20
8.734
 30
0.0
 10
-136.4352
 20
8.734
 30
0.0
 10
-134.9997
 20
9.7126
 30
0.0
 10
-132.797
 20
13.1509
 30
0.0
 10
-131.5532
 20
14.9285
 30
0.0
 10
-131.5532
 20
14.9285
 30
0.0
 10
-130.8905
 20
15.9743
 30
0.0
 10
-129.5263
 20
15.6308
 30
0.0
 10
-130.2071
 20
13.6497
 30
0.0
 10
-130.2071
 20
13.6497
 30
0.0
 10
-131.563
 20
10.7513
 30
0.0
 10
-134.1467
 20
4.2102
 30
0.0
 10
-138.0557
 20
0.759
 30
0.0
  0
SPLINE
  5
88
330
1F
100
AcDbEntity
  8
layer 1
 62
     7
100
AcDbSpline
210
0.0
220
0.0
230
1.0
 70
    11
 71
     3
 72
    12
 73
     8
 74
     0
 42
0.0000000001
 43
0.0000000001
 12
1.0
 22
0.0
 32
0.0
 13
1.0
 23
0.0
 33
0.0
 40
0.0
 40
0.0
 40
0.0
 40
0.0
 40
0.3333333333333333
 40
0.3333333333333333
 40
0.3333333333333333
 40
0.3333333333333333
 40
1.0
 40
1.0
 40
1.0
 40
1.0
 10
-135.9132
 20
32.02
 30
0.0
 10
-136.9846
 20
32.5802
 30
0.0
 10
-141.1361
 20
45.905
 30
0.0
 10
-137.8596
 20
48.373
 30
0.0
 10
-137.8596
 20
48.373
 30
0.0
 10
-132.1689
 20
48.3042
 30
0.0
 10
-132.5644
 20
34.712
 30
0.0
 10
-135.9132
 20
32.02
 30
0.0
  0
SPLINE
  5
89
330
1F
100
AcDbEntity
  8
layer 1
 62
     7
100
AcDbSpline
210
0.0
220
0.0
230
1.0
 70
    11
 71
     3
 72
    16
 73
    12
 74
     0
 42
0.0000000001
 43
0.0000000001
 12
1.0
 22
0.0
 32
0.0
 13
1.0
 23
0.0
 33
0.0
 40
0.0
 40
0.0
 40
0.0
 40
0.0
 40
0.25
 40
0.25
 40
0.25
 40
0.25
 40
0.5
 40
0.5
 40
0.5
 40
0.5
 40
1.0
 40
1.0
 40
1.0
 40
1.0
 10
-141.4313
 20
17.8447
 30
0.0
 10
-141.5951
 20
22.019
 30
0.0
 10
-141.424
 20
30.0977
 30
0.0
 10
-140.5456
 20
31.386
 30
0.0
 10
-140.5456
 20
31.386
 30
0.0
 10
-140.5323
 20
28.012
 30
0.0
 10
-139.5455
 20
24.3979
 30
0.0
 10
-139.6093
 20
21.4791
 30
0.0
 10
-139.6093
 20
21.4791
 30
0.0
 10
-140.102
 20
19.0953
 30
0.0
 10
-140.3056
 20
17.9459
 30
0.0
 10
-141.4313
 20
17.8447
 30
0.0
  0
SPLINE
  5
8A
330
1F
100
AcDbEntity
  8
layer 1
 62
     7
100
AcDbSpline
210
0.0
220
0.0
230
1.0
 70
    11
 71
     3
 72
    16
 73
    12
 74
     0
 42
0.0000000001
 43
0.0000000001
 12
1.0
 22
0.0
 32
0.0
 13
1.0
 23
0.0
 33
0.0
 40
0.0
 40
0.0
 40
0.0
 40
0.0
 40
0.25
 40
0.25
 40
0.25
 40
0.25
 40
0.5
 40
0.5
 40
0.5
 40
0.5
 40
1.0
 40
1.0
 40
1.0
 40
1.0
 10
-136.7964
 20
10.3055
 30
0.0
 10
-138.3704
 20
19.6593
 30
0.0
 10
-130.929
 20
25.0774
 30
0.0
 10
-129.431
 20
24.0807
 30
0.0
 10
-129.431
 20
24.0807
 30
0.0
 10
-128.8516
 20
22.8408
 30
0.0
 10
-129.0287
 20
20.5379
 30
0.0
 10
-130.6471
 20
18.4505
 30
0.0
 10
-130.6471
 20
18.4505
 30
0.0
 10
-132.5413
 20
16.9565
 30
0.0
 10
-135.8096
 20
11.46
 30
0.0
 10
-136.7964
 20
10.3055
 30
0.0
  0
SPLINE
  5
8B
330
1F
100
AcDbEntity
  8
layer 1
 62
     7
100
AcDbSpline
210
0.0
220
0.0
230
1.0
 70
    11
 71
     3
 72
    16
 73
    12
 74
     0
 42
0.0000000001
 43
0.0000000001
 12
1.0
 22
0.0
 32
0.0
 13
1.0
 23
0.0
 33
0.0
 40
0.0
 40
0.0
 40
0.0
 40
0.0
 40
0.25
 40
0.25
 40
0.25
 40
0.25
 40
0.5
 40
0.5
 40
0.5
 40
0.5
 40
1.0
 40
1.0
 40
1.0
 40
1.0
 10
-136.3374
 20
20.6705
 30
0.0
 10
-136.7628
 20
24.5641
 30
0.0
 10
-131.5001
 20
28.5758
 30
0.0
 10
-129.5553
 20
30.8317
 30
0.0
 10
-129.5553
 20
30.8317
 30
0.0
 10
-129.1743
 20
30.1387
 30
0.0
 10
-128.7551
 20
28.206
 30
0.0
 10
-128.9935
 20
27.1815
 30
0.0
 10
-128.9935
 20
27.1815
 30
0.0
 10
-131.6473
 20
26.562
 30
0.0
 10
-135.3662
 20
22.5589
 30
0.0
 10
-136.3374
 20
20.6705
 30
0.0
  0
SPLINE
  5
8C
330
1F
100
AcDbEntity
  8
layer 1
 62
     7
100
AcDbSpline
210
0.0
220
0.0
230
1.0
 70
    11
 71
     3
 72
    16
 73
    12
 74
     0
 42
0.0000000001
 43
0.0000000001
 12
1.0
 22
0.0
 32
0.0
 13
1.0
 23
0.0
 33
0.0
 40
0.0
 40
0.0
 40
0.0
 40
0.0
 40
0.25
 40
0.25
 40
0.25
 40
0.25
 40
0.5
 40
0.5
 40
0.5
 40
0.5
 40
1.0
 40
1.0
 40
1.0
 40
1.0
 10
-134.2936
 20
27.9286
 30
0.0
 10
-134.9951
 20
31.0136
 30
0.0
 10
-133.0089
 20
35.6992
 30
0.0
 10
-131.0314
 20
38.1875
 30
0.0
 10
-131.0314
 20
38.1875
 30
0.0
 10
-129.8191
 20
37.1173
 30
0.0
 10
-130.3626
 20
33.4481
 30
0.0
 10
-130.1229
 20
32.243
 30
0.0
 10
-130.1229
 20
32.243
 30
0.0
 10
-132.2979
 20
30.0098
 30
0.0
 10
-133.2246
 20
28.7529
 30
0.0
 10
-134.2936
 20
27.9286
 30
0.0
  0
SPLINE
  5
8D
330
1F
100
AcDbEntity
  8
layer 1
 62
     7
100
AcDbSpline
210
0.0
220
0.0
230
1.0
 70
    11
 71
     3
 72
    20
 73
    16
 74
     0
 42
0.0000000001
 43
0.0000000001
 12
1.0
 22
0.0
 32
0.0
 13
1.0
 23
0.0
 33
0.0
 40
0.0
 40
0.0
 40
0.0
 40
0.0
 40
0.2
 40
0.2
 40
0.2
 40
0.2
 40
0.4
 40
0.4
 40
0.4
 40
0.4
 40
0.6
 40
0.6
 40
0.6
 40
0.6
 40
1.0
 40
1.0
 40
1.0
 40
1.0
 10
-137.6028
 20
25.4921
 30
0.0
 10
-137.5282
 20
23.6435
 30
0.0
 10
-139.6152
 20
23.1456
 30
0.0
 10
-138.8911
 20
25.4162
 30
0.0
 10
-138.8911
 20
25.4162
 30
0.0
 10
-137.7944
 20
28.8504
 30
0.0
 10
-143.9209
 20
45.2963
 30
0.0
 10
-141.5168
 20
49.5249
 30
0.0
 10
-141.5168
 20
49.5249
 30
0.0
 10
-140.184
 20
52.029
 30
0.0
 10
-137.9367
 20
51.6458
 30
0.0
 10
-137.2231
 20
50.4288
 30
0.0
 10
-137.2231
 20
50.4288
 30
0.0
 10
-144.4031
 20
48.0558
 30
0.0
 10
-136.5351
 20
29.2219
 30
0.0
 10
-137.6028
 20
25.4921
 30
0.0
  0
SPLINE
  5
8E
330
1F
100
AcDbEntity
  8
layer 1
 62
     7
100
AcDbSpline
210
0.0
220
0.0
230
1.0
 70
    11
 71
     3
 72
    16
 73
    12
 74
     0
 42
0.0000000001
 43
0.0000000001
 12
1.0
 22
0.0
 32
0.0
 13
1.0
 23
0.0
 33
0.0
 40
0.0
 40
0.0
 40
0.0
 40
0.0
 40
0.25
 40
0.25
 40
0.25
 40
0.25
 40
0.5
 40
0.5
 40
0.5
 40
0.5
 40
1.0
 40
1.0
 40
1.0
 40
1.0
 10
-144.2078
 20
-0.0098
 30
0.0
 10
-143.5788
 20
4.3345
 30
0.0
 10
-141.6506
 20
16.6069
 30
0.0
 10
-139.9225
 20
17.0445
 30
0.0
 10
-139.9225
 20
17.0445
 30
0.0
 10
-139.908
 20
13.6701
 30
0.0
 10
-140.9059
 20
7.563
 30
0.0
 10
-142.0471
 20
3.2847
 30
0.0
 10
-142.0471
 20
3.2847
 30
0.0
 10
-142.7089
 20
2.2037
 30
0.0
 10
-142.9702
 20
-0.1931
 30
0.0
 10
-144.2078
 20
-0.0098
 30
0.0
  0
SPLINE
  5
8F
330
1F
100
AcDbEntity
  8
layer 1
 62
     7
100
AcDbSpline
210
0.0
220
0.0
230
1.0
 70
    11
 71
     3
 72
    16
 73
    12
 74
     0
 42
0.0000000001
 43
0.0000000001
 12
1.0
 22
0.0
 32
0.0
 13
1.0
 23
0.0
 33
0.0
 40
0.0
 40
0.0
 40
0.0
 40
0.0
 40
0.25
 40
0.25
 40
0.25
 40
0.25
 40
0.5
 40
0.5
 40
0.5
 40
0.5
 40
1.0
 40
1.0
 40
1.0
 40
1.0
 10
-152.77
 20
-24.9962
 30
0.0
 10
-150.1187
 20
-22.2545
 30
0.0
 10
-145.7189
 20
-18.349
 30
0.0
 10
-146.1384
 20
-15.1649
 30
0.0
 10
-146.1384
 20
-15.1649
 30
0.0
 10
-146.2998
 20
-13.9429
 30
0.0
 10
-147.1444
 20
-11.6462
 30
0.0
 10
-148.0906
 20
-14.812
 30
0.0
 10
-148.0906
 20
-14.812
 30
0.0
 10
-148.587
 20
-18.5621
 30
0.0
 10
-151.502
 20
-22.0725
 30
0.0
 10
-152.77
 20
-24.9962
 30
0.0
  0
SPLINE
  5
90
330
1F
100
AcDbEntity
  8
layer 1
 62
     7
100
AcDbSpline
210
0.0
220
0.0
230
1.0
 70
    11
 71
     3
 72
    20
 73
    16
 74
     0
 42
0.0000000001
 43
0.0000000001
 12
1.0
 22
0.0
 32
0.0
 13
1.0
 23
0.0
 33
0.0
 40
0.0
 40
0.0
 40
0.0
 40
0.0
 40
0.2
 40
0.2
 40
0.2
 40
0.2
 40
0.4
 40
0.4
 40
0.4
 40
0.4
 40
0.6
 40
0.6
 40
0.6
 40
0.6
 40
1.0
 40
1.0
 40
1.0
 40
1.0
 10
-145.3949
 20
-18.244
 30
0.0
 10
-146.2915
 20
-21.2386
 30
0.0
 10
-147.7074
 20
-23.9186
 30
0.0
 10
-149.6862
 20
-25.1588
 30
0.0
 10
-149.6862
 20
-25.1588
 30
0.0
 10
-149.3138
 20
-26.8556
 30
0.0
 10
-150.0706
 20
-30.8673
 30
0.0
 10
-150.3837
 20
-33.0135
 30
0.0
 10
-150.3837
 20
-33.0135
 30
0.0
 10
-150.6188
 20
-34.2294
 30
0.0
 10
-149.3909
 20
-34.9164
 30
0.0
 10
-148.5281
 20
-33.0073
 30
0.0
 10
-148.5281
 20
-33.0073
 30
0.0
 10
-147.5255
 20
-29.9683
 30
0.0
 10
-144.919
 20
-23.4367
 30
0.0
 10
-145.3949
 20
-18.244
 30
0.0
  0
SPLINE
  5
91
330
1F
100
AcDbEntity
  8
layer 1
 62
     7
100
AcDbSpline
210
0.0
220
0.0
230
1.0
 70
    11
 71
     3
 72
    16
 73
    12
 74
     0
 42
0.0000000001
 43
0.0000000001
 12
1.0
 22
0.0
 32
0.0
 13
1.0
 23
0.0
 33
0.0
 40
0.0
 40
0.0
 40
0.0
 40
0.0
 40
0.25
 40
0.25
 40
0.25
 40
0.25
 40
0.5
 40
0.5
 40
0.5
 40
0.5
 40
1.0
 40
1.0
 40
1.0
 40
1.0
 10
-159.5715
 20
-28.3607
 30
0.0
 10
-162.5553
 20
-31.2853
 30
0.0
 10
-167.9719
 20
-37.2795
 30
0.0
 10
-168.2166
 20
-38.8195
 30
0.0
 10
-168.2166
 20
-38.8195
 30
0.0
 10
-165.892
 20
-36.3743
 30
0.0
 10
-162.6951
 20
-34.4222
 30
0.0
 10
-160.7404
 20
-32.2543
 30
0.0
 10
-160.7404
 20
-32.2543
 30
0.0
 10
-159.4629
 20
-30.1815
 30
0.0
 10
-158.8231
 20
-29.2054
 30
0.0
 10
-159.5715
 20
-28.3607
 30
0.0
  0
SPLINE
  5
92
330
1F
100
AcDbEntity
  8
layer 1
 62
     7
100
AcDbSpline
210
0.0
220
0.0
230
1.0
 70
    11
 71
     3
 72
    16
 73
    12
 74
     0
 42
0.0000000001
 43
0.0000000001
 12
1.0
 22
0.0
 32
0.0
 13
1.0
 23
0.0
 33
0.0
 40
0.0
 40
0.0
 40
0.0
 40
0.0
 40
0.25
 40
0.25
 40
0.25
 40
0.25
 40
0.5
 40
0.5
 40
0.5
 40
0.5
 40
1.0
 40
1.0
 40
1.0
 40
1.0
 10
-151.0285
 20
-26.0541
 30
0.0
 10
-158.5905
 20
-31.7796
 30
0.0
 10
-156.8925
 20
-40.8272
 30
0.0
 10
-155.1186
 20
-41.1286
 30
0.0
 10
-155.1186
 20
-41.1286
 30
0.0
 10
-153.846
 20
-40.6261
 30
0.0
 10
-152.3952
 20
-38.8279
 30
0.0
 10
-152.1409
 20
-36.1998
 30
0.0
 10
-152.1409
 20
-36.1998
 30
0.0
 10
-152.4939
 20
-33.8113
 30
0.0
 10
-151.1022
 20
-27.57
 30
0.0
 10
-151.0285
 20
-26.0541
 30
0.0
  0
SPLINE
  5
93
330
1F
100
AcDbEntity
  8
layer 1
 62
     7
100
AcDbSpline
210
0.0
220
0.0
230
1.0
 70
    11
 71
     3
 72
    16
 73
    12
 74
     0
 42
0.0000000001
 43
0.0000000001
 12
1.0
 22
0.0
 32
0.0
 13
1.0
 23
0.0
 33
0.0
 40
0.0
 40
0.0
 40
0.0
 40
0.0
 40
0.25
 40
0.25
 40
0.25
 40
0.25
 40
0.5
 40
0.5
 40
0.5
 40
0.5
 40
1.0
 40
1.0
 40
1.0
 40
1.0
 10
-157.8047
 20
-33.91
 30
0.0
 10
-160.7848
 20
-36.4514
 30
0.0
 10
-159.7076
 20
-42.9805
 30
0.0
 10
-159.8402
 20
-45.9573
 30
0.0
 10
-159.8402
 20
-45.9573
 30
0.0
 10
-159.0868
 20
-45.7139
 30
0.0
 10
-157.4564
 20
-44.5943
 30
0.0
 10
-156.9273
 20
-43.6858
 30
0.0
 10
-156.9273
 20
-43.6858
 30
0.0
 10
-158.4338
 20
-41.414
 30
0.0
 10
-158.3927
 20
-35.9502
 30
0.0
 10
-157.8047
 20
-33.91
 30
0.0
  0
SPLINE
  5
94
330
1F
100
AcDbEntity
  8
layer 1
 62
     7
100
AcDbSpline
210
0.0
220
0.0
230
1.0
 70
    11
 71
     3
 72
    20
 73
    16
 74
     0
 42
0.0000000001
 43
0.0000000001
 12
1.0
 22
0.0
 32
0.0
 13
1.0
 23
0.0
 33
0.0
 40
0.0
 40
0.0
 40
0.0
 40
0.0
 40
0.2
 40
0.2
 40
0.2
 40
0.2
 40
0.4
 40
0.4
 40
0.4
 40
0.4
 40
0.6
 40
0.6
 40
0.6
 40
0.6
 40
1.0
 40
1.0
 40
1.0
 40
1.0
 10
-162.0321
 20
-36.5517
 30
0.0
 10
-160.7089
 20
-35.256
 30
0.0
 10
-161.8874
 20
-33.4618
 30
0.0
 10
-162.9178
 20
-35.6117
 30
0.0
 10
-162.9178
 20
-35.6117
 30
0.0
 10
-164.1518
 20
-38.1855
 30
0.0
 10
-174.1287
 20
-43.488
 30
0.0
 10
-178.8636
 20
-47.9721
 30
0.0
 10
-178.8636
 20
-47.9721
 30
0.0
 10
-178.8636
 20
-47.9721
 30
0.0
 10
-178.8636
 20
-51.1703
 30
0.0
 10
-178.8636
 20
-51.1703
 30
0.0
 10
-178.8636
 20
-51.1703
 30
0.0
 10
-175.9232
 20
-45.5115
 30
0.0
 10
-163.4626
 20
-39.3162
 30
0.0
 10
-162.0321
 20
-36.5517
 30
0.0
  0
SPLINE
  5
95
330
1F
100
AcDbEntity
  8
layer 1
 62
     7
100
AcDbSpline
210
0.0
220
0.0
230
1.0
 70
    11
 71
     3
 72
    16
 73
    12
 74
     0
 42
0.0000000001
 43
0.0000000001
 12
1.0
 22
0.0
 32
0.0
 13
1.0
 23
0.0
 33
0.0
 40
0.0
 40
0.0
 40
0.0
 40
0.0
 40
0.25
 40
0.25
 40
0.25
 40
0.25
 40
0.5
 40
0.5
 40
0.5
 40
0.5
 40
1.0
 40
1.0
 40
1.0
 40
1.0
 10
-149.3438
 20
-13.4635
 30
0.0
 10
-151.8673
 20
-17.0557
 30
0.0
 10
-158.8833
 20
-27.3087
 30
0.0
 10
-157.9253
 20
-28.8127
 30
0.0
 10
-157.9253
 20
-28.8127
 30
0.0
 10
-155.6008
 20
-26.3675
 30
0.0
 10
-152.136
 20
-21.2399
 30
0.0
 10
-150.032
 20
-17.3438
 30
0.0
 10
-150.032
 20
-17.3438
 30
0.0
 10
-149.7717
 20
-16.1024
 30
0.0
 10
-148.3183
 20
-14.1792
 30
0.0
 10
-149.3438
 20
-13.4635
 30
0.0
  0
SPLINE
  5
96
330
1F
100
AcDbEntity
  8
layer 1
 62
     7
100
AcDbSpline
210
0.0
220
0.0
230
1.0
 70
    11
 71
     3
 72
    12
 73
     8
 74
     0
 42
0.0000000001
 43
0.0000000001
 12
1.0
 22
0.0
 32
0.0
 13
1.0
 23
0.0
 33
0.0
 40
0.0
 40
0.0
 40
0.0
 40
0.0
 40
0.3333333333333333
 40
0.3333333333333333
 40
0.3333333333333333
 40
0.3333333333333333
 40
1.0
 40
1.0
 40
1.0
 40
1.0
 10
-163.6758
 20
-42.0671
 30
0.0
 10
-164.8293
 20
-41.7046
 30
0.0
 10
-177.1921
 20
-48.1818
 30
0.0
 10
-176.622
 20
-52.2442
 30
0.0
 10
-176.622
 20
-52.2442
 30
0.0
 10
-172.5538
 20
-56.222
 30
0.0
 10
-163.2155
 20
-46.3392
 30
0.0
 10
-163.6758
 20
-42.0671
 30
0.0
  0
SPLINE
  5
97
330
1F
100
AcDbEntity
  8
layer 1
 62
     7
100
AcDbSpline
210
0.0
220
0.0
230
1.0
 70
    11
 71
     3
 72
    16
 73
    12
 74
     0
 42
0.0000000001
 43
0.0000000001
 12
1.0
 22
0.0
 32
0.0
 13
1.0
 23
0.0
 33
0.0
 40
0.0
 40
0.0
 40
0.0
 40
0.0
 40
0.25
 40
0.25
 40
0.25
 40
0.25
 40
0.5
 40
0.5
 40
0.5
 40
0.5
 40
1.0
 40
1.0
 40
1.0
 40
1.0
 10
-161.2911
 20
-40.5548
 30
0.0
 10
-162.5998
 20
-42.342
 30
0.0
 10
-163.9954
 20
-46.644
 30
0.0
 10
-164.3579
 20
-49.8027
 30
0.0
 10
-164.3579
 20
-49.8027
 30
0.0
 10
-163.1504
 20
-49.1977
 30
0.0
 10
-162.0287
 20
-48.6542
 30
0.0
 10
-161.3188
 20
-47.8987
 30
0.0
 10
-161.3188
 20
-47.8987
 30
0.0
 10
-161.9479
 20
-44.8328
 30
0.0
 10
-161.3247
 20
-41.5574
 30
0.0
 10
-161.2911
 20
-40.5548
 30
0.0
  0
ENDSEC
  0
SECTION
  2
OBJECTS
  0
DICTIONARY
  5
C
330
0
100
AcDbDictionary
281
     1
  3
ACAD_GROUP
350
D
  3
ACAD_LAYOUT
350
1A
  3
ACAD_MATERIAL
350
3B
  3
ACAD_MLEADERSTYLE
350
BA
  3
ACAD_MLINESTYLE
350
17
  3
ACAD_PLOTSETTINGS
350
19
  3
ACAD_PLOTSTYLENAME
350
E
  3
ACAD_TABLESTYLE
350
B9
  3
ACAD_VISUALSTYLE
350
2A
  0
DICTIONARY
  5
D
102
{ACAD_REACTORS
330
C
102
}
330
C
100
AcDbDictionary
281
     1
  0
DICTIONARY
  5
1A
102
{ACAD_REACTORS
330
C
102
}
330
C
100
AcDbDictionary
281
     1
  3
Layout1
350
1E
  3
Layout2
350
26
  3
Model
350
22
  0
DICTIONARY
  5
3B
102
{ACAD_REACTORS
330
C
102
}
330
C
100
AcDbDictionary
281
     1
  3
ByBlock
350
3D
  3
ByLayer
350
3C
  3
Global
350
3E
  0
DICTIONARY
  5
BA
102
{ACAD_REACTORS
330
C
102
}
330
C
100
AcDbDictionary
281
     1
  0
DICTIONARY
  5
17
102
{ACAD_REACTORS
330
C
102
}
330
C
100
AcDbDictionary
281
     1
  3
Standard
350
18
  0
DICTIONARY
  5
19
102
{ACAD_REACTORS
330
C
102
}
330
C
100
AcDbDictionary
281
     1
  0
ACDBDICTIONARYWDFLT
  5
E
102
{ACAD_REACTORS
330
C
102
}
330
C
100
AcDbDictionary
281
     1
  3
Normal
350
F
100
AcDbDictionaryWithDefault
340
F
  0
DICTIONARY
  5
B9
102
{ACAD_REACTORS
330
C
102
}
330
C
100
AcDbDictionary
281
     1
  0
DICTIONARY
  5
2A
102
{ACAD_REACTORS
330
C
102
}
330
C
100
AcDbDictionary
281
     1
  3
2dWireframe
350
2F
  3
3D Hidden
350
31
  3
3dWireframe
350
30
  3
Basic
350
32
  3
Brighten
350
36
  3
ColorChange
350
3A
  3
Conceptual
350
34
  3
Dim
350
35
  3
Facepattern
350
39
  3
Flat
350
2B
  3
FlatWithEdges
350
2C
  3
Gouraud
350
2D
  3
GouraudWithEdges
350
2E
  3
Linepattern
350
38
  3
Realistic
350
33
  3
Thicken
350
37
  0
LAYOUT
  5
1E
102
{ACAD_REACTORS
330
1A
102
}
330
1A
100
AcDbPlotSettings
  1

  2
none_device
  4

  6

 40
0.0
 41
0.0
 42
0.0
 43
0.0
 44
0.0
 45
0.0
 46
0.0
 47
0.0
 48
0.0
 49
0.0
140
0.0
141
0.0
142
1.0
143
1.0
 70
   688
 72
     0
 73
     0
 74
     5
  7

 75
    16
 76
     0
 77
     2
 78
   300
147
1.0
148
0.0
149
0.0
100
AcDbLayout
  1
Layout1
 70
     1
 71
     1
 10
0.0
 20
0.0
 11
12.0
 21
9.0
 12
0.0
 22
0.0
 32
0.0
 14
1.000000000000000E+20
 24
1.000000000000000E+20
 34
1.000000000000000E+20
 15
-1.000000000000000E+20
 25
-1.000000000000000E+20
 35
-1.000000000000000E+20
146
0.0
 13
0.0
 23
0.0
 33
0.0
 16
1.0
 26
0.0
 36
0.0
 17
0.0
 27
1.0
 37
0.0
 76
     0
330
1B
  0
LAYOUT
  5
26
102
{ACAD_REACTORS
330
1A
102
}
330
1A
100
AcDbPlotSettings
  1

  2
none_device
  4

  6

 40
0.0
 41
0.0
 42
0.0
 43
0.0
 44
0.0
 45
0.0
 46
0.0
 47
0.0
 48
0.0
 49
0.0
140
0.0
141
0.0
142
1.0
143
1.0
 70
   688
 72
     0
 73
     0
 74
     5
  7

 75
    16
 76
     0
 77
     2
 78
   300
147
1.0
148
0.0
149
0.0
100
AcDbLayout
  1
Layout2
 70
     1
 71
     2
 10
0.0
 20
0.0
 11
0.0
 21
0.0
 12
0.0
 22
0.0
 32
0.0
 14
0.0
 24
0.0
 34
0.0
 15
0.0
 25
0.0
 35
0.0
146
0.0
 13
0.0
 23
0.0
 33
0.0
 16
1.0
 26
0.0
 36
0.0
 17
0.0
 27
1.0
 37
0.0
 76
     0
330
23
  0
LAYOUT
  5
22
102
{ACAD_REACTORS
330
1A
102
}
330
1A
100
AcDbPlotSettings
  1

  2
none_device
  4

  6

 40
0.0
 41
0.0
 42
0.0
 43
0.0
 44
0.0
 45
0.0
 46
0.0
 47
0.0
 48
0.0
 49
0.0
140
0.0
141
0.0
142
1.0
143
1.0
 70
  1712
 72
     0
 73
     0
 74
     0
  7

 75
     0
 76
     0
 77
     2
 78
   300
147
1.0
148
0.0
149
0.0
100
AcDbLayout
  1
Model
 70
     1
 71
     0
 10
0.0
 20
0.0
 11
12.0
 21
9.0
 12
0.0
 22
0.0
 32
0.0
 14
-187.5173
 24
-114.9155
 34
0.0
 15
-74.512
 25
131.6561
 35
0.0
146
0.0
 13
0.0
 23
0.0
 33
0.0
 16
1.0
 26
0.0
 36
0.0
 17
0.0
 27
1.0
 37
0.0
 76
     0
330
1F
331
29
  0
MATERIAL
  5
3D
102
{ACAD_REACTORS
330
3B
102
}
330
3B
100
AcDbMaterial
  1
ByBlock
 72
     1
 94
      127
  0
MATERIAL
  5
3C
102
{ACAD_REACTORS
330
3B
102
}
330
3B
100
AcDbMaterial
  1
ByLayer
 72
     1
 94
      127
  0
MATERIAL
  5
3E
102
{ACAD_REACTORS
330
3B
102
}
330
3B
100
AcDbMaterial
  1
Global
 72
     1
 94
      127
  0
MLINESTYLE
  5
18
102
{ACAD_REACTORS
330
17
102
}
330
17
100
AcDbMlineStyle
  2
Standard
 70
     0
  3

 62
   256
 51
90.0
 52
90.0
 71
     2
 49
0.5
 62
   256
  6
BYLAYER
 49
-0.5
 62
   256
  6
BYLAYER
  0
ACDBPLACEHOLDER
  5
F
102
{ACAD_REACTORS
330
E
102
}
330
E
  0
VISUALSTYLE
  5
2F
102
{ACAD_REACTORS
330
2A
102
}
102
{ACAD_XDICTIONARY
360
A1
102
}
330
2A
100
AcDbVisualStyle
  2
2dWireframe
 70
     4
 71
     0
 72
     2
 73
     0
 90
        0
 40
-0.6
 41
-30.0
 62
     5
 63
     7
421
 16777215
 74
     1
 91
        4
 64
     7
 65
   257
 75
     1
175
     1
 42
1.0
 92
        0
 66
   257
 43
1.0
 76
     1
 77
     6
 78
     2
 67
     7
 79
     5
170
     0
171
     0
290
     0
174
     0
 93
        1
 44
0.0
173
     0
291
     0
 45
0.0
  0
VISUALSTYLE
  5
31
102
{ACAD_REACTORS
330
2A
102
}
102
{ACAD_XDICTIONARY
360
A5
102
}
330
2A
100
AcDbVisualStyle
  2
3D Hidden
 70
     6
 71
     1
 72
     2
 73
     2
 90
        0
 40
-0.6
 41
-30.0
 62
     5
 63
     7
421
 16777215
 74
     2
 91
        2
 64
     7
 65
   257
 75
     2
175
     1
 42
40.0
 92
        0
 66
   257
 43
1.0
 76
     1
 77
     6
 78
     2
 67
     7
 79
     3
170
     0
171
     0
290
     0
174
     0
 93
        1
 44
0.0
173
     0
291
     0
 45
0.0
  0
VISUALSTYLE
  5
30
102
{ACAD_REACTORS
330
2A
102
}
102
{ACAD_XDICTIONARY
360
A3
102
}
330
2A
100
AcDbVisualStyle
  2
3dWireframe
 70
     5
 71
     0
 72
     2
 73
     0
 90
        0
 40
-0.6
 41
-30.0
 62
     5
 63
     7
421
 16777215
 74
     1
 91
        4
 64
     7
 65
   257
 75
     1
175
     1
 42
1.0
 92
        0
 66
   257
 43
1.0
 76
     1
 77
     6
 78
     2
 67
     7
 79
     5
170
     0
171
     0
290
     0
174
     0
 93
        1
 44
0.0
173
     0
291
     0
 45
0.0
  0
VISUALSTYLE
  5
32
102
{ACAD_REACTORS
330
2A
102
}
102
{ACAD_XDICTIONARY
360
A7
102
}
330
2A
100
AcDbVisualStyle
  2
Basic
 70
     7
 71
     1
 72
     0
 73
     1
 90
        0
 40
-0.6
 41
-30.0
 62
     5
 63
     7
421
 16777215
 74
     0
 91
        4
 64
     7
 65
   257
 75
     1
175
     1
 42
1.0
 92
        8
 66
     7
 43
1.0
 76
     1
 77
     6
 78
     2
 67
     7
 79
     5
170
     0
171
     0
290
     0
174
     0
 93
        1
 44
0.0
173
     0
291
     1
 45
0.0
  0
VISUALSTYLE
  5
36
102
{ACAD_REACTORS
330
2A
102
}
102
{ACAD_XDICTIONARY
360
AF
102
}
330
2A
100
AcDbVisualStyle
  2
Brighten
 70
    12
 71
     2
 72
     2
 73
     0
 90
        0
 40
-0.6
 41
-30.0
 62
     5
 63
     7
421
 16777215
 74
     1
 91
        4
 64
     7
 65
   257
 75
     1
175
     1
 42
1.0
 92
        8
 66
     7
 43
1.0
 76
     1
 77
     6
 78
     2
 67
     7
 79
     5
170
     0
171
     0
290
     0
174
     0
 93
        1
 44
50.0
173
     0
291
     1
 45
0.0
  0
VISUALSTYLE
  5
3A
102
{ACAD_REACTORS
330
2A
102
}
102
{ACAD_XDICTIONARY
360
B7
102
}
330
2A
100
AcDbVisualStyle
  2
ColorChange
 70
    16
 71
     2
 72
     2
 73
     3
 90
        0
 40
-0.6
 41
-30.0
 62
     5
 63
     8
421
  8421504
 74
     1
 91
        4
 64
     7
 65
   257
 75
     1
175
     1
 42
1.0
 92
        8
 66
     8
424
  8421504
 43
1.0
 76
     1
 77
     6
 78
     2
 67
     7
 79
     5
170
     0
171
     0
290
     0
174
     0
 93
        1
 44
0.0
173
     0
291
     1
 45
0.0
  0
VISUALSTYLE
  5
34
102
{ACAD_REACTORS
330
2A
102
}
102
{ACAD_XDICTIONARY
360
AB
102
}
330
2A
100
AcDbVisualStyle
  2
Conceptual
 70
     9
 71
     3
 72
     2
 73
     0
 90
        0
 40
-0.6
 41
-30.0
 62
     5
 63
     7
421
 16777215
 74
     2
 91
        2
 64
     7
 65
   257
 75
     1
175
     1
 42
40.0
 92
        8
 66
     7
 43
1.0
 76
     1
 77
     6
 78
     2
 67
     7
 79
     3
170
     0
171
     0
290
     0
174
     0
 93
        1
 44
0.0
173
     0
291
     0
 45
0.0
  0
VISUALSTYLE
  5
35
102
{ACAD_REACTORS
330
2A
102
}
102
{ACAD_XDICTIONARY
360
AD
102
}
330
2A
100
AcDbVisualStyle
  2
Dim
 70
    11
 71
     2
 72
     2
 73
     0
 90
        0
 40
-0.6
 41
-30.0
 62
     5
 63
     7
421
 16777215
 74
     1
 91
        4
 64
     7
 65
   257
 75
     1
175
     1
 42
1.0
 92
        8
 66
     7
 43
1.0
 76
     1
 77
     6
 78
     2
 67
     7
 79
     5
170
     0
171
     0
290
     0
174
     0
 93
        1
 44
-50.0
173
     0
291
     1
 45
0.0
  0
VISUALSTYLE
  5
39
102
{ACAD_REACTORS
330
2A
102
}
102
{ACAD_XDICTIONARY
360
B5
102
}
330
2A
100
AcDbVisualStyle
  2
Facepattern
 70
    15
 71
     2
 72
     2
 73
     0
 90
        0
 40
-0.6
 41
-30.0
 62
     5
 63
     7
421
 16777215
 74
     1
 91
        4
 64
     7
 65
   257
 75
     1
175
     1
 42
1.0
 92
        8
 66
     7
 43
1.0
 76
     1
 77
     6
 78
     2
 67
     7
 79
     5
170
     0
171
     0
290
     0
174
     0
 93
        1
 44
0.0
173
     0
291
     1
 45
0.0
  0
VISUALSTYLE
  5
2B
102
{ACAD_REACTORS
330
2A
102
}
102
{ACAD_XDICTIONARY
360
99
102
}
330
2A
100
AcDbVisualStyle
  2
Flat
 70
     0
 71
     2
 72
     1
 73
     1
 90
        2
 40
-0.6
 41
30.0
 62
     5
 63
     7
421
 16777215
 74
     0
 91
        4
 64
     7
 65
   257
 75
     1
175
     1
 42
1.0
 92
        8
 66
     7
 43
1.0
 76
     1
 77
     6
 78
     2
 67
     7
 79
     5
170
     0
171
     0
290
     0
174
     0
 93
       13
 44
0.0
173
     0
291
     1
 45
0.0
  0
VISUALSTYLE
  5
2C
102
{ACAD_REACTORS
330
2A
102
}
102
{ACAD_XDICTIONARY
360
9B
102
}
330
2A
100
AcDbVisualStyle
  2
FlatWithEdges
 70
     1
 71
     2
 72
     1
 73
     1
 90
        2
 40
-0.6
 41
30.0
 62
     5
 63
     7
421
 16777215
 74
     1
 91
        4
 64
     7
 65
   257
 75
     1
175
     1
 42
1.0
 92
        0
 66
   257
 43
1.0
 76
     1
 77
     6
 78
     2
 67
     7
 79
     5
170
     0
171
     0
290
     0
174
     0
 93
       13
 44
0.0
173
     0
291
     1
 45
0.0
  0
VISUALSTYLE
  5
2D
102
{ACAD_REACTORS
330
2A
102
}
102
{ACAD_XDICTIONARY
360
9D
102
}
330
2A
100
AcDbVisualStyle
  2
Gouraud
 70
     2
 71
     2
 72
     2
 73
     1
 90
        2
 40
-0.6
 41
30.0
 62
     5
 63
     7
421
 16777215
 74
     0
 91
        4
 64
     7
 65
   257
 75
     1
175
     1
 42
1.0
 92
        0
 66
     7
 43
1.0
 76
     1
 77
     6
 78
     2
 67
     7
 79
     5
170
     0
171
     0
290
     0
174
     0
 93
       13
 44
0.0
173
     0
291
     1
 45
0.0
  0
VISUALSTYLE
  5
2E
102
{ACAD_REACTORS
330
2A
102
}
102
{ACAD_XDICTIONARY
360
9F
102
}
330
2A
100
AcDbVisualStyle
  2
GouraudWithEdges
 70
     3
 71
     2
 72
     2
 73
     1
 90
        2
 40
-0.6
 41
30.0
 62
     5
 63
     7
421
 16777215
 74
     1
 91
        4
 64
     7
 65
   257
 75
     1
175
     1
 42
1.0
 92
        0
 66
   257
 43
1.0
 76
     1
 77
     6
 78
     2
 67
     7
 79
     5
170
     0
171
     0
290
     0
174
     0
 93
       13
 44
0.0
173
     0
291
     1
 45
0.0
  0
VISUALSTYLE
  5
38
102
{ACAD_REACTORS
330
2A
102
}
102
{ACAD_XDICTIONARY
360
B3
102
}
330
2A
100
AcDbVisualStyle
  2
Linepattern
 70
    14
 71
     2
 72
     2
 73
     0
 90
        0
 40
-0.6
 41
-30.0
 62
     5
 63
     7
421
 16777215
 74
     1
 91
        4
 64
     7
 65
   257
 75
     7
175
     7
 42
1.0
 92
        8
 66
     7
 43
1.0
 76
     1
 77
     6
 78
     2
 67
     7
 79
     5
170
     0
171
     0
290
     0
174
     0
 93
        1
 44
0.0
173
     0
291
     1
 45
0.0
  0
VISUALSTYLE
  5
33
102
{ACAD_REACTORS
330
2A
102
}
102
{ACAD_XDICTIONARY
360
A9
102
}
330
2A
100
AcDbVisualStyle
  2
Realistic
 70
     8
 71
     2
 72
     2
 73
     0
 90
        0
 40
-0.6
 41
-30.0
 62
     5
 63
     7
421
 16777215
 74
     1
 91
        0
 64
     7
 65
   257
 75
     1
175
     1
 42
1.0
 92
        8
 66
     8
424
  7895160
 43
1.0
 76
     1
 77
     6
 78
     2
 67
     7
 79
     5
170
     0
171
     0
290
     0
174
     0
 93
       13
 44
0.0
173
     0
291
     0
 45
0.0
  0
VISUALSTYLE
  5
37
102
{ACAD_REACTORS
330
2A
102
}
102
{ACAD_XDICTIONARY
360
B1
102
}
330
2A
100
AcDbVisualStyle
  2
Thicken
 70
    13
 71
     2
 72
     2
 73
     0
 90
        0
 40
-0.6
 41
-30.0
 62
     5
 63
     7
421
 16777215
 74
     1
 91
        4
 64
     7
 65
   257
 75
     1
175
     1
 42
1.0
 92
       12
 66
     7
 43
1.0
 76
     1
 77
     6
 78
     2
 67
     7
 79
     5
170
     0
171
     0
290
     0
174
     0
 93
        1
 44
0.0
173
     0
291
     1
 45
0.0
  0
DICTIONARY
  5
A1
330
2F
100
AcDbDictionary
280
     1
281
     1
  3
ACAD_XREC_ROUNDTRIP
360
A2
  0
DICTIONARY
  5
A5
330
31
100
AcDbDictionary
280
     1
281
     1
  3
ACAD_XREC_ROUNDTRIP
360
A6
  0
DICTIONARY
  5
A3
330
30
100
AcDbDictionary
280
     1
281
     1
  3
ACAD_XREC_ROUNDTRIP
360
A4
  0
DICTIONARY
  5
A7
330
32
100
AcDbDictionary
280
     1
281
     1
  3
ACAD_XREC_ROUNDTRIP
360
A8
  0
DICTIONARY
  5
AF
330
36
100
AcDbDictionary
280
     1
281
     1
  3
ACAD_XREC_ROUNDTRIP
360
B0
  0
DICTIONARY
  5
B7
330
3A
100
AcDbDictionary
280
     1
281
     1
  3
ACAD_XREC_ROUNDTRIP
360
B8
  0
DICTIONARY
  5
AB
330
34
100
AcDbDictionary
280
     1
281
     1
  3
ACAD_XREC_ROUNDTRIP
360
AC
  0
DICTIONARY
  5
AD
330
35
100
AcDbDictionary
280
     1
281
     1
  3
ACAD_XREC_ROUNDTRIP
360
AE
  0
DICTIONARY
  5
B5
330
39
100
AcDbDictionary
280
     1
281
     1
  3
ACAD_XREC_ROUNDTRIP
360
B6
  0
DICTIONARY
  5
99
330
2B
100
AcDbDictionary
280
     1
281
     1
  3
ACAD_XREC_ROUNDTRIP
360
9A
  0
DICTIONARY
  5
9B
330
2C
100
AcDbDictionary
280
     1
281
     1
  3
ACAD_XREC_ROUNDTRIP
360
9C
  0
DICTIONARY
  5
9D
330
2D
100
AcDbDictionary
280
     1
281
     1
  3
ACAD_XREC_ROUNDTRIP
360
9E
  0
DICTIONARY
  5
9F
330
2E
100
AcDbDictionary
280
     1
281
     1
  3
ACAD_XREC_ROUNDTRIP
360
A0
  0
DICTIONARY
  5
B3
330
38
100
AcDbDictionary
280
     1
281
     1
  3
ACAD_XREC_ROUNDTRIP
360
B4
  0
DICTIONARY
  5
A9
330
33
100
AcDbDictionary
280
     1
281
     1
  3
ACAD_XREC_ROUNDTRIP
360
AA
  0
DICTIONARY
  5
B1
330
37
100
AcDbDictionary
280
     1
281
     1
  3
ACAD_XREC_ROUNDTRIP
360
B2
  0
XRECORD
  5
A2
102
{ACAD_REACTORS
330
A1
102
}
330
A1
100
AcDbXrecord
280
     1
102
RTVSPropertyOp0
 70
     1
102
RTVSPropertyOp1
 70
     1
102
RTVSPropertyOp2
 70
     1
102
RTVSPropertyOp3
 70
     1
102
RTVSPropertyOp4
 70
     1
102
RTVSPropertyOp5
 70
     1
102
RTVSPropertyOp6
 70
     1
102
RTVSPropertyOp7
 70
     1
102
RTVSPropertyOp8
 70
     1
102
RTVSPropertyOp9
 70
     1
102
RTVSPropertyOp10
 70
     1
102
RTVSPropertyOp11
 70
     1
102
RTVSPropertyOp12
 70
     1
102
RTVSPropertyOp13
 70
     1
102
RTVSPropertyOp14
 70
     1
102
RTVSPropertyOp15
 70
     1
102
RTVSPropertyOp16
 70
     1
102
RTVSPropertyOp17
 70
     1
102
RTVSPropertyOp18
 70
     1
102
RTVSPropertyOp19
 70
     1
102
RTVSPropertyOp20
 70
     1
102
RTVSPropertyOp21
 70
     1
102
RTVSPropertyOp22
 70
     1
102
RTVSPropertyOp23
 70
     1
102
RTVSPropertyOp24
 70
     1
102
RTVSPropertyOp25
 70
     1
102
RTVSPropertyOp26
 70
     1
102
RTVSPropertyOp27
 70
     1
102
RTVSPropertyOp28
 70
     1
102
RTVSPropertyOp29
 70
     1
102
RTVSPropertyOp30
 70
     1
102
RTVSPropertyOp31
 70
     1
102
RTVSPropertyOp32
 70
     1
  0
XRECORD
  5
A6
102
{ACAD_REACTORS
330
A5
102
}
330
A5
100
AcDbXrecord
280
     1
102
RTVSPropertyOp0
 70
     1
102
RTVSPropertyOp1
 70
     1
102
RTVSPropertyOp2
 70
     1
102
RTVSPropertyOp3
 70
     1
102
RTVSPropertyOp4
 70
     1
102
RTVSPropertyOp5
 70
     1
102
RTVSPropertyOp6
 70
     1
102
RTVSPropertyOp7
 70
     1
102
RTVSPropertyOp8
 70
     1
102
RTVSPropertyOp9
 70
     1
102
RTVSPropertyOp10
 70
     1
102
RTVSPropertyOp11
 70
     1
102
RTVSPropertyOp12
 70
     1
102
RTVSPropertyOp13
 70
     1
102
RTVSPropertyOp14
 70
     1
102
RTVSPropertyOp15
 70
     1
102
RTVSPropertyOp16
 70
     1
102
RTVSPropertyOp17
 70
     1
102
RTVSPropertyOp18
 70
     1
102
RTVSPropertyOp19
 70
     1
102
RTVSPropertyOp20
 70
     1
102
RTVSPropertyOp21
 70
     1
102
RTVSPropertyOp22
 70
     1
102
RTVSPropertyOp23
 70
     1
102
RTVSPropertyOp24
 70
     1
102
RTVSPropertyOp25
 70
     1
102
RTVSPropertyOp26
 70
     1
102
RTVSPropertyOp27
 70
     1
102
RTVSPropertyOp28
 70
     1
102
RTVSPropertyOp29
 70
     1
102
RTVSPropertyOp30
 70
     1
102
RTVSPropertyOp31
 70
     1
102
RTVSPropertyOp32
 70
     1
  0
XRECORD
  5
A4
102
{ACAD_REACTORS
330
A3
102
}
330
A3
100
AcDbXrecord
280
     1
102
RTVSPropertyOp0
 70
     1
102
RTVSPropertyOp1
 70
     1
102
RTVSPropertyOp2
 70
     1
102
RTVSPropertyOp3
 70
     1
102
RTVSPropertyOp4
 70
     1
102
RTVSPropertyOp5
 70
     1
102
RTVSPropertyOp6
 70
     1
102
RTVSPropertyOp7
 70
     1
102
RTVSPropertyOp8
 70
     1
102
RTVSPropertyOp9
 70
     1
102
RTVSPropertyOp10
 70
     1
102
RTVSPropertyOp11
 70
     1
102
RTVSPropertyOp12
 70
     1
102
RTVSPropertyOp13
 70
     1
102
RTVSPropertyOp14
 70
     1
102
RTVSPropertyOp15
 70
     1
102
RTVSPropertyOp16
 70
     1
102
RTVSPropertyOp17
 70
     1
102
RTVSPropertyOp18
 70
     1
102
RTVSPropertyOp19
 70
     1
102
RTVSPropertyOp20
 70
     1
102
RTVSPropertyOp21
 70
     1
102
RTVSPropertyOp22
 70
     1
102
RTVSPropertyOp23
 70
     1
102
RTVSPropertyOp24
 70
     1
102
RTVSPropertyOp25
 70
     1
102
RTVSPropertyOp26
 70
     1
102
RTVSPropertyOp27
 70
     1
102
RTVSPropertyOp28
 70
     1
102
RTVSPropertyOp29
 70
     1
102
RTVSPropertyOp30
 70
     1
102
RTVSPropertyOp31
 70
     1
102
RTVSPropertyOp32
 70
     1
  0
XRECORD
  5
A8
102
{ACAD_REACTORS
330
A7
102
}
330
A7
100
AcDbXrecord
280
     1
102
RTVSPropertyOp0
 70
     1
102
RTVSPropertyOp1
 70
     1
102
RTVSPropertyOp2
 70
     1
102
RTVSPropertyOp3
 70
     1
102
RTVSPropertyOp4
 70
     1
102
RTVSPropertyOp5
 70
     1
102
RTVSPropertyOp6
 70
     1
102
RTVSPropertyOp7
 70
     1
102
RTVSPropertyOp8
 70
     1
102
RTVSPropertyOp9
 70
     1
102
RTVSPropertyOp10
 70
     1
102
RTVSPropertyOp11
 70
     1
102
RTVSPropertyOp12
 70
     1
102
RTVSPropertyOp13
 70
     1
102
RTVSPropertyOp14
 70
     1
102
RTVSPropertyOp15
 70
     1
102
RTVSPropertyOp16
 70
     1
102
RTVSPropertyOp17
 70
     1
102
RTVSPropertyOp18
 70
     1
102
RTVSPropertyOp19
 70
     1
102
RTVSPropertyOp20
 70
     1
102
RTVSPropertyOp21
 70
     1
102
RTVSPropertyOp22
 70
     1
102
RTVSPropertyOp23
 70
     1
102
RTVSPropertyOp24
 70
     1
102
RTVSPropertyOp25
 70
     1
102
RTVSPropertyOp26
 70
     1
102
RTVSPropertyOp27
 70
     1
102
RTVSPropertyOp28
 70
     1
102
RTVSPropertyOp29
 70
     1
102
RTVSPropertyOp30
 70
     1
102
RTVSPropertyOp31
 70
     1
102
RTVSPropertyOp32
 70
     1
  0
XRECORD
  5
B0
102
{ACAD_REACTORS
330
AF
102
}
330
AF
100
AcDbXrecord
280
     1
102
RTVSPropertyOp0
 70
     1
102
RTVSPropertyOp1
 70
     1
102
RTVSPropertyOp2
 70
     1
102
RTVSPropertyOp3
 70
     1
102
RTVSPropertyOp4
 70
     1
102
RTVSPropertyOp5
 70
     1
102
RTVSPropertyOp6
 70
     1
102
RTVSPropertyOp7
 70
     1
102
RTVSPropertyOp8
 70
     1
102
RTVSPropertyOp9
 70
     1
102
RTVSPropertyOp10
 70
     1
102
RTVSPropertyOp11
 70
     1
102
RTVSPropertyOp12
 70
     1
102
RTVSPropertyOp13
 70
     1
102
RTVSPropertyOp14
 70
     1
102
RTVSPropertyOp15
 70
     1
102
RTVSPropertyOp16
 70
     1
102
RTVSPropertyOp17
 70
     1
102
RTVSPropertyOp18
 70
     1
102
RTVSPropertyOp19
 70
     1
102
RTVSPropertyOp20
 70
     1
102
RTVSPropertyOp21
 70
     1
102
RTVSPropertyOp22
 70
     1
102
RTVSPropertyOp23
 70
     1
102
RTVSPropertyOp24
 70
     1
102
RTVSPropertyOp25
 70
     1
102
RTVSPropertyOp26
 70
     1
102
RTVSPropertyOp27
 70
     1
102
RTVSPropertyOp28
 70
     1
102
RTVSPropertyOp29
 70
     1
102
RTVSPropertyOp30
 70
     1
102
RTVSPropertyOp31
 70
     1
102
RTVSPropertyOp32
 70
     1
  0
XRECORD
  5
B8
102
{ACAD_REACTORS
330
B7
102
}
330
B7
100
AcDbXrecord
280
     1
102
RTVSPropertyOp0
 70
     1
102
RTVSPropertyOp1
 70
     1
102
RTVSPropertyOp2
 70
     1
102
RTVSPropertyOp3
 70
     1
102
RTVSPropertyOp4
 70
     1
102
RTVSPropertyOp5
 70
     1
102
RTVSPropertyOp6
 70
     1
102
RTVSPropertyOp7
 70
     1
102
RTVSPropertyOp8
 70
     1
102
RTVSPropertyOp9
 70
     1
102
RTVSPropertyOp10
 70
     1
102
RTVSPropertyOp11
 70
     1
102
RTVSPropertyOp12
 70
     1
102
RTVSPropertyOp13
 70
     1
102
RTVSPropertyOp14
 70
     1
102
RTVSPropertyOp15
 70
     1
102
RTVSPropertyOp16
 70
     1
102
RTVSPropertyOp17
 70
     1
102
RTVSPropertyOp18
 70
     1
102
RTVSPropertyOp19
 70
     1
102
RTVSPropertyOp20
 70
     1
102
RTVSPropertyOp21
 70
     1
102
RTVSPropertyOp22
 70
     1
102
RTVSPropertyOp23
 70
     1
102
RTVSPropertyOp24
 70
     1
102
RTVSPropertyOp25
 70
     1
102
RTVSPropertyOp26
 70
     1
102
RTVSPropertyOp27
 70
     1
102
RTVSPropertyOp28
 70
     1
102
RTVSPropertyOp29
 70
     1
102
RTVSPropertyOp30
 70
     1
102
RTVSPropertyOp31
 70
     1
102
RTVSPropertyOp32
 70
     1
  0
XRECORD
  5
AC
102
{ACAD_REACTORS
330
AB
102
}
330
AB
100
AcDbXrecord
280
     1
102
RTVSPropertyOp0
 70
     1
102
RTVSPropertyOp1
 70
     1
102
RTVSPropertyOp2
 70
     1
102
RTVSPropertyOp3
 70
     1
102
RTVSPropertyOp4
 70
     1
102
RTVSPropertyOp5
 70
     1
102
RTVSPropertyOp6
 70
     1
102
RTVSPropertyOp7
 70
     1
102
RTVSPropertyOp8
 70
     1
102
RTVSPropertyOp9
 70
     1
102
RTVSPropertyOp10
 70
     1
102
RTVSPropertyOp11
 70
     1
102
RTVSPropertyOp12
 70
     1
102
RTVSPropertyOp13
 70
     1
102
RTVSPropertyOp14
 70
     1
102
RTVSPropertyOp15
 70
     1
102
RTVSPropertyOp16
 70
     1
102
RTVSPropertyOp17
 70
     1
102
RTVSPropertyOp18
 70
     1
102
RTVSPropertyOp19
 70
     1
102
RTVSPropertyOp20
 70
     1
102
RTVSPropertyOp21
 70
     1
102
RTVSPropertyOp22
 70
     1
102
RTVSPropertyOp23
 70
     1
102
RTVSPropertyOp24
 70
     1
102
RTVSPropertyOp25
 70
     1
102
RTVSPropertyOp26
 70
     1
102
RTVSPropertyOp27
 70
     1
102
RTVSPropertyOp28
 70
     1
102
RTVSPropertyOp29
 70
     1
102
RTVSPropertyOp30
 70
     1
102
RTVSPropertyOp31
 70
     1
102
RTVSPropertyOp32
 70
     1
  0
XRECORD
  5
AE
102
{ACAD_REACTORS
330
AD
102
}
330
AD
100
AcDbXrecord
280
     1
102
RTVSPropertyOp0
 70
     1
102
RTVSPropertyOp1
 70
     1
102
RTVSPropertyOp2
 70
     1
102
RTVSPropertyOp3
 70
     1
102
RTVSPropertyOp4
 70
     1
102
RTVSPropertyOp5
 70
     1
102
RTVSPropertyOp6
 70
     1
102
RTVSPropertyOp7
 70
     1
102
RTVSPropertyOp8
 70
     1
102
RTVSPropertyOp9
 70
     1
102
RTVSPropertyOp10
 70
     1
102
RTVSPropertyOp11
 70
     1
102
RTVSPropertyOp12
 70
     1
102
RTVSPropertyOp13
 70
     1
102
RTVSPropertyOp14
 70
     1
102
RTVSPropertyOp15
 70
     1
102
RTVSPropertyOp16
 70
     1
102
RTVSPropertyOp17
 70
     1
102
RTVSPropertyOp18
 70
     1
102
RTVSPropertyOp19
 70
     1
102
RTVSPropertyOp20
 70
     1
102
RTVSPropertyOp21
 70
     1
102
RTVSPropertyOp22
 70
     1
102
RTVSPropertyOp23
 70
     1
102
RTVSPropertyOp24
 70
     1
102
RTVSPropertyOp25
 70
     1
102
RTVSPropertyOp26
 70
     1
102
RTVSPropertyOp27
 70
     1
102
RTVSPropertyOp28
 70
     1
102
RTVSPropertyOp29
 70
     1
102
RTVSPropertyOp30
 70
     1
102
RTVSPropertyOp31
 70
     1
102
RTVSPropertyOp32
 70
     1
  0
XRECORD
  5
B6
102
{ACAD_REACTORS
330
B5
102
}
330
B5
100
AcDbXrecord
280
     1
102
RTVSPropertyOp0
 70
     1
102
RTVSPropertyOp1
 70
     1
102
RTVSPropertyOp2
 70
     1
102
RTVSPropertyOp3
 70
     1
102
RTVSPropertyOp4
 70
     1
102
RTVSPropertyOp5
 70
     1
102
RTVSPropertyOp6
 70
     1
102
RTVSPropertyOp7
 70
     1
102
RTVSPropertyOp8
 70
     1
102
RTVSPropertyOp9
 70
     1
102
RTVSPropertyOp10
 70
     1
102
RTVSPropertyOp11
 70
     1
102
RTVSPropertyOp12
 70
     1
102
RTVSPropertyOp13
 70
     1
102
RTVSPropertyOp14
 70
     1
102
RTVSPropertyOp15
 70
     1
102
RTVSPropertyOp16
 70
     1
102
RTVSPropertyOp17
 70
     1
102
RTVSPropertyOp18
 70
     1
102
RTVSPropertyOp19
 70
     1
102
RTVSPropertyOp20
 70
     1
102
RTVSPropertyOp21
 70
     1
102
RTVSPropertyOp22
 70
     1
102
RTVSPropertyOp23
 70
     1
102
RTVSPropertyOp24
 70
     1
102
RTVSPropertyOp25
 70
     1
102
RTVSPropertyOp26
 70
     1
102
RTVSPropertyOp27
 70
     1
102
RTVSPropertyOp28
 70
     1
102
RTVSPropertyOp29
 70
     1
102
RTVSPropertyOp30
 70
     1
102
RTVSPropertyOp31
 70
     1
102
RTVSPropertyOp32
 70
     1
  0
XRECORD
  5
9A
102
{ACAD_REACTORS
330
99
102
}
330
99
100
AcDbXrecord
280
     1
102
RTVSPropertyOp0
 70
     1
102
RTVSPropertyOp1
 70
     1
102
RTVSPropertyOp2
 70
     1
102
RTVSPropertyOp3
 70
     1
102
RTVSPropertyOp4
 70
     1
102
RTVSPropertyOp5
 70
     1
102
RTVSPropertyOp6
 70
     1
102
RTVSPropertyOp7
 70
     1
102
RTVSPropertyOp8
 70
     1
102
RTVSPropertyOp9
 70
     1
102
RTVSPropertyOp10
 70
     1
102
RTVSPropertyOp11
 70
     1
102
RTVSPropertyOp12
 70
     1
102
RTVSPropertyOp13
 70
     1
102
RTVSPropertyOp14
 70
     1
102
RTVSPropertyOp15
 70
     1
102
RTVSPropertyOp16
 70
     1
102
RTVSPropertyOp17
 70
     1
102
RTVSPropertyOp18
 70
     1
102
RTVSPropertyOp19
 70
     1
102
RTVSPropertyOp20
 70
     1
102
RTVSPropertyOp21
 70
     1
102
RTVSPropertyOp22
 70
     1
102
RTVSPropertyOp23
 70
     1
102
RTVSPropertyOp24
 70
     1
102
RTVSPropertyOp25
 70
     1
102
RTVSPropertyOp26
 70
     1
102
RTVSPropertyOp27
 70
     1
102
RTVSPropertyOp28
 70
     1
102
RTVSPropertyOp29
 70
     1
102
RTVSPropertyOp30
 70
     1
102
RTVSPropertyOp31
 70
     1
102
RTVSPropertyOp32
 70
     1
  0
XRECORD
  5
9C
102
{ACAD_REACTORS
330
9B
102
}
330
9B
100
AcDbXrecord
280
     1
102
RTVSPropertyOp0
 70
     1
102
RTVSPropertyOp1
 70
     1
102
RTVSPropertyOp2
 70
     1
102
RTVSPropertyOp3
 70
     1
102
RTVSPropertyOp4
 70
     1
102
RTVSPropertyOp5
 70
     1
102
RTVSPropertyOp6
 70
     1
102
RTVSPropertyOp7
 70
     1
102
RTVSPropertyOp8
 70
     1
102
RTVSPropertyOp9
 70
     1
102
RTVSPropertyOp10
 70
     1
102
RTVSPropertyOp11
 70
     1
102
RTVSPropertyOp12
 70
     1
102
RTVSPropertyOp13
 70
     1
102
RTVSPropertyOp14
 70
     1
102
RTVSPropertyOp15
 70
     1
102
RTVSPropertyOp16
 70
     1
102
RTVSPropertyOp17
 70
     1
102
RTVSPropertyOp18
 70
     1
102
RTVSPropertyOp19
 70
     1
102
RTVSPropertyOp20
 70
     1
102
RTVSPropertyOp21
 70
     1
102
RTVSPropertyOp22
 70
     1
102
RTVSPropertyOp23
 70
     1
102
RTVSPropertyOp24
 70
     1
102
RTVSPropertyOp25
 70
     1
102
RTVSPropertyOp26
 70
     1
102
RTVSPropertyOp27
 70
     1
102
RTVSPropertyOp28
 70
     1
102
RTVSPropertyOp29
 70
     1
102
RTVSPropertyOp30
 70
     1
102
RTVSPropertyOp31
 70
     1
102
RTVSPropertyOp32
 70
     1
  0
XRECORD
  5
9E
102
{ACAD_REACTORS
330
9D
102
}
330
9D
100
AcDbXrecord
280
     1
102
RTVSPropertyOp0
 70
     1
102
RTVSPropertyOp1
 70
     1
102
RTVSPropertyOp2
 70
     1
102
RTVSPropertyOp3
 70
     1
102
RTVSPropertyOp4
 70
     1
102
RTVSPropertyOp5
 70
     1
102
RTVSPropertyOp6
 70
     1
102
RTVSPropertyOp7
 70
     1
102
RTVSPropertyOp8
 70
     1
102
RTVSPropertyOp9
 70
     1
102
RTVSPropertyOp10
 70
     1
102
RTVSPropertyOp11
 70
     1
102
RTVSPropertyOp12
 70
     1
102
RTVSPropertyOp13
 70
     1
102
RTVSPropertyOp14
 70
     1
102
RTVSPropertyOp15
 70
     1
102
RTVSPropertyOp16
 70
     1
102
RTVSPropertyOp17
 70
     1
102
RTVSPropertyOp18
 70
     1
102
RTVSPropertyOp19
 70
     1
102
RTVSPropertyOp20
 70
     1
102
RTVSPropertyOp21
 70
     1
102
RTVSPropertyOp22
 70
     1
102
RTVSPropertyOp23
 70
     1
102
RTVSPropertyOp24
 70
     1
102
RTVSPropertyOp25
 70
     1
102
RTVSPropertyOp26
 70
     1
102
RTVSPropertyOp27
 70
     1
102
RTVSPropertyOp28
 70
     1
102
RTVSPropertyOp29
 70
     1
102
RTVSPropertyOp30
 70
     1
102
RTVSPropertyOp31
 70
     1
102
RTVSPropertyOp32
 70
     1
  0
XRECORD
  5
A0
102
{ACAD_REACTORS
330
9F
102
}
330
9F
100
AcDbXrecord
280
     1
102
RTVSPropertyOp0
 70
     1
102
RTVSPropertyOp1
 70
     1
102
RTVSPropertyOp2
 70
     1
102
RTVSPropertyOp3
 70
     1
102
RTVSPropertyOp4
 70
     1
102
RTVSPropertyOp5
 70
     1
102
RTVSPropertyOp6
 70
     1
102
RTVSPropertyOp7
 70
     1
102
RTVSPropertyOp8
 70
     1
102
RTVSPropertyOp9
 70
     1
102
RTVSPropertyOp10
 70
     1
102
RTVSPropertyOp11
 70
     1
102
RTVSPropertyOp12
 70
     1
102
RTVSPropertyOp13
 70
     1
102
RTVSPropertyOp14
 70
     1
102
RTVSPropertyOp15
 70
     1
102
RTVSPropertyOp16
 70
     1
102
RTVSPropertyOp17
 70
     1
102
RTVSPropertyOp18
 70
     1
102
RTVSPropertyOp19
 70
     1
102
RTVSPropertyOp20
 70
     1
102
RTVSPropertyOp21
 70
     1
102
RTVSPropertyOp22
 70
     1
102
RTVSPropertyOp23
 70
     1
102
RTVSPropertyOp24
 70
     1
102
RTVSPropertyOp25
 70
     1
102
RTVSPropertyOp26
 70
     1
102
RTVSPropertyOp27
 70
     1
102
RTVSPropertyOp28
 70
     1
102
RTVSPropertyOp29
 70
     1
102
RTVSPropertyOp30
 70
     1
102
RTVSPropertyOp31
 70
     1
102
RTVSPropertyOp32
 70
     1
  0
XRECORD
  5
B4
102
{ACAD_REACTORS
330
B3
102
}
330
B3
100
AcDbXrecord
280
     1
102
RTVSPropertyOp0
 70
     1
102
RTVSPropertyOp1
 70
     1
102
RTVSPropertyOp2
 70
     1
102
RTVSPropertyOp3
 70
     1
102
RTVSPropertyOp4
 70
     1
102
RTVSPropertyOp5
 70
     1
102
RTVSPropertyOp6
 70
     1
102
RTVSPropertyOp7
 70
     1
102
RTVSPropertyOp8
 70
     1
102
RTVSPropertyOp9
 70
     1
102
RTVSPropertyOp10
 70
     1
102
RTVSPropertyOp11
 70
     1
102
RTVSPropertyOp12
 70
     1
102
RTVSPropertyOp13
 70
     1
102
RTVSPropertyOp14
 70
     1
102
RTVSPropertyOp15
 70
     1
102
RTVSPropertyOp16
 70
     1
102
RTVSPropertyOp17
 70
     1
102
RTVSPropertyOp18
 70
     1
102
RTVSPropertyOp19
 70
     1
102
RTVSPropertyOp20
 70
     1
102
RTVSPropertyOp21
 70
     1
102
RTVSPropertyOp22
 70
     1
102
RTVSPropertyOp23
 70
     1
102
RTVSPropertyOp24
 70
     1
102
RTVSPropertyOp25
 70
     1
102
RTVSPropertyOp26
 70
     1
102
RTVSPropertyOp27
 70
     1
102
RTVSPropertyOp28
 70
     1
102
RTVSPropertyOp29
 70
     1
102
RTVSPropertyOp30
 70
     1
102
RTVSPropertyOp31
 70
     1
102
RTVSPropertyOp32
 70
     1
  0
XRECORD
  5
AA
102
{ACAD_REACTORS
330
A9
102
}
330
A9
100
AcDbXrecord
280
     1
102
RTVSPropertyOp0
 70
     1
102
RTVSPropertyOp1
 70
     1
102
RTVSPropertyOp2
 70
     1
102
RTVSPropertyOp3
 70
     1
102
RTVSPropertyOp4
 70
     1
102
RTVSPropertyOp5
 70
     1
102
RTVSPropertyOp6
 70
     1
102
RTVSPropertyOp7
 70
     1
102
RTVSPropertyOp8
 70
     1
102
RTVSPropertyOp9
 70
     1
102
RTVSPropertyOp10
 70
     1
102
RTVSPropertyOp11
 70
     1
102
RTVSPropertyOp12
 70
     1
102
RTVSPropertyOp13
 70
     1
102
RTVSPropertyOp14
 70
     1
102
RTVSPropertyOp15
 70
     1
102
RTVSPropertyOp16
 70
     1
102
RTVSPropertyOp17
 70
     1
102
RTVSPropertyOp18
 70
     1
102
RTVSPropertyOp19
 70
     1
102
RTVSPropertyOp20
 70
     1
102
RTVSPropertyOp21
 70
     1
102
RTVSPropertyOp22
 70
     1
102
RTVSPropertyOp23
 70
     1
102
RTVSPropertyOp24
 70
     1
102
RTVSPropertyOp25
 70
     1
102
RTVSPropertyOp26
 70
     1
102
RTVSPropertyOp27
 70
     1
102
RTVSPropertyOp28
 70
     1
102
RTVSPropertyOp29
 70
     1
102
RTVSPropertyOp30
 70
     1
102
RTVSPropertyOp31
 70
     1
102
RTVSPropertyOp32
 70
     1
  0
XRECORD
  5
B2
102
{ACAD_REACTORS
330
B1
102
}
330
B1
100
AcDbXrecord
280
     1
102
RTVSPropertyOp0
 70
     1
102
RTVSPropertyOp1
 70
     1
102
RTVSPropertyOp2
 70
     1
102
RTVSPropertyOp3
 70
     1
102
RTVSPropertyOp4
 70
     1
102
RTVSPropertyOp5
 70
     1
102
RTVSPropertyOp6
 70
     1
102
RTVSPropertyOp7
 70
     1
102
RTVSPropertyOp8
 70
     1
102
RTVSPropertyOp9
 70
     1
102
RTVSPropertyOp10
 70
     1
102
RTVSPropertyOp11
 70
     1
102
RTVSPropertyOp12
 70
     1
102
RTVSPropertyOp13
 70
     1
102
RTVSPropertyOp14
 70
     1
102
RTVSPropertyOp15
 70
     1
102
RTVSPropertyOp16
 70
     1
102
RTVSPropertyOp17
 70
     1
102
RTVSPropertyOp18
 70
     1
102
RTVSPropertyOp19
 70
     1
102
RTVSPropertyOp20
 70
     1
102
RTVSPropertyOp21
 70
     1
102
RTVSPropertyOp22
 70
     1
102
RTVSPropertyOp23
 70
     1
102
RTVSPropertyOp24
 70
     1
102
RTVSPropertyOp25
 70
     1
102
RTVSPropertyOp26
 70
     1
102
RTVSPropertyOp27
 70
     1
102
RTVSPropertyOp28
 70
     1
102
RTVSPropertyOp29
 70
     1
102
RTVSPropertyOp30
 70
     1
102
RTVSPropertyOp31
 70
     1
102
RTVSPropertyOp32
 70
     1
  0
ENDSEC
  0
EOF
