  0
SECTION
  2
HEADER
  9
$ACADVER
  1
AC1021
  9
$ACADMAINTVER
 70
    25
  9
$DWGCODEPAGE
  3
ANSI_1256
  9
$INSBASE
 10
0.0
 20
0.0
 30
0.0
  9
$EXTMIN
 10
-73.2895
 20
-112.0791
 30
0.0
  9
$EXTMAX
 10
51.0713
 20
127.6333
 30
0.0
  9
$LIMMIN
 10
0.0
 20
0.0
  9
$LIMMAX
 10
12.0
 20
9.0
  9
$ORTHOMODE
 70
     0
  9
$REGENMODE
 70
     1
  9
$FILLMODE
 70
     1
  9
$QTEXTMODE
 70
     0
  9
$MIRRTEXT
 70
     1
  9
$LTSCALE
 40
1.0
  9
$ATTMODE
 70
     1
  9
$TEXTSIZE
 40
0.2
  9
$TRACEWID
 40
0.05
  9
$TEXTSTYLE
  7
Standard
  9
$CLAYER
  8
0
  9
$CELTYPE
  6
ByLayer
  9
$CECOLOR
 62
   256
  9
$CELTSCALE
 40
1.0
  9
$DISPSILH
 70
     0
  9
$DIMSCALE
 40
1.0
  9
$DIMASZ
 40
0.18
  9
$DIMEXO
 40
0.0625
  9
$DIMDLI
 40
0.38
  9
$DIMRND
 40
0.0
  9
$DIMDLE
 40
0.0
  9
$DIMEXE
 40
0.18
  9
$DIMTP
 40
0.0
  9
$DIMTM
 40
0.0
  9
$DIMTXT
 40
0.18
  9
$DIMCEN
 40
0.09
  9
$DIMTSZ
 40
0.0
  9
$DIMTOL
 70
     0
  9
$DIMLIM
 70
     0
  9
$DIMTIH
 70
     1
  9
$DIMTOH
 70
     1
  9
$DIMSE1
 70
     0
  9
$DIMSE2
 70
     0
  9
$DIMTAD
 70
     0
  9
$DIMZIN
 70
     0
  9
$DIMBLK
  1

  9
$DIMASO
 70
     1
  9
$DIMSHO
 70
     1
  9
$DIMPOST
  1

  9
$DIMAPOST
  1

  9
$DIMALT
 70
     0
  9
$DIMALTD
 70
     2
  9
$DIMALTF
 40
25.4
  9
$DIMLFAC
 40
1.0
  9
$DIMTOFL
 70
     0
  9
$DIMTVP
 40
0.0
  9
$DIMTIX
 70
     0
  9
$DIMSOXD
 70
     0
  9
$DIMSAH
 70
     0
  9
$DIMBLK1
  1

  9
$DIMBLK2
  1

  9
$DIMSTYLE
  2
Standard
  9
$DIMCLRD
 70
     0
  9
$DIMCLRE
 70
     0
  9
$DIMCLRT
 70
     0
  9
$DIMTFAC
 40
1.0
  9
$DIMGAP
 40
0.09
  9
$DIMJUST
 70
     0
  9
$DIMSD1
 70
     0
  9
$DIMSD2
 70
     0
  9
$DIMTOLJ
 70
     1
  9
$DIMTZIN
 70
     0
  9
$DIMALTZ
 70
     0
  9
$DIMALTTZ
 70
     0
  9
$DIMUPT
 70
     0
  9
$DIMDEC
 70
     4
  9
$DIMTDEC
 70
     4
  9
$DIMALTU
 70
     2
  9
$DIMALTTD
 70
     2
  9
$DIMTXSTY
  7
Standard
  9
$DIMAUNIT
 70
     0
  9
$DIMADEC
 70
     0
  9
$DIMALTRND
 40
0.0
  9
$DIMAZIN
 70
     0
  9
$DIMDSEP
 70
    46
  9
$DIMATFIT
 70
     3
  9
$DIMFRAC
 70
     0
  9
$DIMLDRBLK
  1

  9
$DIMLUNIT
 70
     2
  9
$DIMLWD
 70
    -2
  9
$DIMLWE
 70
    -2
  9
$DIMTMOVE
 70
     0
  9
$DIMFXL
 40
1.0
  9
$DIMFXLON
 70
     0
  9
$DIMJOGANG
 40
0.7853981633974483
  9
$DIMTFILL
 70
     0
  9
$DIMTFILLCLR
 70
     0
  9
$DIMARCSYM
 70
     0
  9
$DIMLTYPE
  6

  9
$DIMLTEX1
  6

  9
$DIMLTEX2
  6

  9
$LUNITS
 70
     2
  9
$LUPREC
 70
     4
  9
$SKETCHINC
 40
0.1
  9
$FILLETRAD
 40
0.5
  9
$AUNITS
 70
     0
  9
$AUPREC
 70
     0
  9
$MENU
  1
.
  9
$ELEVATION
 40
0.0
  9
$PELEVATION
 40
0.0
  9
$THICKNESS
 40
0.0
  9
$LIMCHECK
 70
     0
  9
$CHAMFERA
 40
0.5
  9
$CHAMFERB
 40
0.5
  9
$CHAMFERC
 40
1.0
  9
$CHAMFERD
 40
0.0
  9
$SKPOLY
 70
     0
  9
$TDCREATE
 40
2458479.379726458
  9
$TDUCREATE
 40
2458479.213059792
  9
$TDUPDATE
 40
2458479.379726644
  9
$TDUUPDATE
 40
2458479.213059977
  9
$TDINDWG
 40
0.0000000116
  9
$TDUSRTIMER
 40
0.0000000116
  9
$USRTIMER
 70
     1
  9
$ANGBASE
 50
0.0
  9
$ANGDIR
 70
     0
  9
$PDMODE
 70
     0
  9
$PDSIZE
 40
0.0
  9
$PLINEWID
 40
0.0
  9
$SPLFRAME
 70
     0
  9
$SPLINETYPE
 70
     6
  9
$SPLINESEGS
 70
     8
  9
$HANDSEED
  5
9F
  9
$SURFTAB1
 70
     6
  9
$SURFTAB2
 70
     6
  9
$SURFTYPE
 70
     6
  9
$SURFU
 70
     6
  9
$SURFV
 70
     6
  9
$UCSBASE
  2

  9
$UCSNAME
  2

  9
$UCSORG
 10
0.0
 20
0.0
 30
0.0
  9
$UCSXDIR
 10
1.0
 20
0.0
 30
0.0
  9
$UCSYDIR
 10
0.0
 20
1.0
 30
0.0
  9
$UCSORTHOREF
  2

  9
$UCSORTHOVIEW
 70
     0
  9
$UCSORGTOP
 10
0.0
 20
0.0
 30
0.0
  9
$UCSORGBOTTOM
 10
0.0
 20
0.0
 30
0.0
  9
$UCSORGLEFT
 10
0.0
 20
0.0
 30
0.0
  9
$UCSORGRIGHT
 10
0.0
 20
0.0
 30
0.0
  9
$UCSORGFRONT
 10
0.0
 20
0.0
 30
0.0
  9
$UCSORGBACK
 10
0.0
 20
0.0
 30
0.0
  9
$PUCSBASE
  2

  9
$PUCSNAME
  2

  9
$PUCSORG
 10
0.0
 20
0.0
 30
0.0
  9
$PUCSXDIR
 10
1.0
 20
0.0
 30
0.0
  9
$PUCSYDIR
 10
0.0
 20
1.0
 30
0.0
  9
$PUCSORTHOREF
  2

  9
$PUCSORTHOVIEW
 70
     0
  9
$PUCSORGTOP
 10
0.0
 20
0.0
 30
0.0
  9
$PUCSORGBOTTOM
 10
0.0
 20
0.0
 30
0.0
  9
$PUCSORGLEFT
 10
0.0
 20
0.0
 30
0.0
  9
$PUCSORGRIGHT
 10
0.0
 20
0.0
 30
0.0
  9
$PUCSORGFRONT
 10
0.0
 20
0.0
 30
0.0
  9
$PUCSORGBACK
 10
0.0
 20
0.0
 30
0.0
  9
$USERI1
 70
     0
  9
$USERI2
 70
     0
  9
$USERI3
 70
     0
  9
$USERI4
 70
     0
  9
$USERI5
 70
     0
  9
$USERR1
 40
0.0
  9
$USERR2
 40
0.0
  9
$USERR3
 40
0.0
  9
$USERR4
 40
0.0
  9
$USERR5
 40
0.0
  9
$WORLDVIEW
 70
     1
  9
$SHADEDGE
 70
     3
  9
$SHADEDIF
 70
    70
  9
$TILEMODE
 70
     1
  9
$MAXACTVP
 70
    64
  9
$PINSBASE
 10
0.0
 20
0.0
 30
0.0
  9
$PLIMCHECK
 70
     0
  9
$PEXTMIN
 10
1.000000000000000E+20
 20
1.000000000000000E+20
 30
1.000000000000000E+20
  9
$PEXTMAX
 10
-1.000000000000000E+20
 20
-1.000000000000000E+20
 30
-1.000000000000000E+20
  9
$PLIMMIN
 10
0.0
 20
0.0
  9
$PLIMMAX
 10
12.0
 20
9.0
  9
$UNITMODE
 70
     0
  9
$VISRETAIN
 70
     1
  9
$PLINEGEN
 70
     0
  9
$PSLTSCALE
 70
     1
  9
$TREEDEPTH
 70
  3020
  9
$CMLSTYLE
  2
Standard
  9
$CMLJUST
 70
     0
  9
$CMLSCALE
 40
1.0
  9
$PROXYGRAPHICS
 70
     1
  9
$MEASUREMENT
 70
     0
  9
$CELWEIGHT
370
    -1
  9
$ENDCAPS
280
     0
  9
$JOINSTYLE
280
     0
  9
$LWDISPLAY
290
     0
  9
$INSUNITS
 70
     4
  9
$HYPERLINKBASE
  1

  9
$STYLESHEET
  1

  9
$XEDIT
290
     1
  9
$CEPSNTYPE
380
     0
  9
$PSTYLEMODE
290
     1
  9
$FINGERPRINTGUID
  2
{81B38B62-87F6-4B96-A45F-E32258258CCB}
  9
$VERSIONGUID
  2
{FAEB1C32-E019-11D5-929B-00C0DF256EC4}
  9
$EXTNAMES
290
     1
  9
$PSVPSCALE
 40
0.0
  9
$OLESTARTUP
290
     0
  9
$SORTENTS
280
   127
  9
$INDEXCTL
280
     0
  9
$HIDETEXT
280
     1
  9
$XCLIPFRAME
290
     0
  9
$HALOGAP
280
     0
  9
$OBSCOLOR
 70
   257
  9
$OBSLTYPE
280
     0
  9
$INTERSECTIONDISPLAY
280
     0
  9
$INTERSECTIONCOLOR
 70
   257
  9
$DIMASSOC
280
     2
  9
$PROJECTNAME
  1

  9
$CAMERADISPLAY
290
     0
  9
$LENSLENGTH
 40
50.0
  9
$CAMERAHEIGHT
 40
0.0
  9
$STEPSPERSEC
 40
2.0
  9
$STEPSIZE
 40
6.0
  9
$3DDWFPREC
 40
2.0
  9
$PSOLWIDTH
 40
0.25
  9
$PSOLHEIGHT
 40
4.0
  9
$LOFTANG1
 40
1.570796326794897
  9
$LOFTANG2
 40
1.570796326794897
  9
$LOFTMAG1
 40
0.0
  9
$LOFTMAG2
 40
0.0
  9
$LOFTPARAM
 70
     7
  9
$LOFTNORMALS
280
     1
  9
$LATITUDE
 40
37.795
  9
$LONGITUDE
 40
-122.394
  9
$NORTHDIRECTION
 40
0.0
  9
$TIMEZONE
 70
 -8000
  9
$LIGHTGLYPHDISPLAY
280
     1
  9
$TILEMODELIGHTSYNCH
280
     1
  9
$SOLIDHIST
280
     1
  9
$SHOWHIST
280
     1
  9
$DWFFRAME
280
     2
  9
$DGNFRAME
280
     2
  9
$REALWORLDSCALE
290
     1
  9
$INTERFERECOLOR
 62
   256
  9
$CSHADOW
280
     0
  9
$SHADOWPLANELOCATION
 40
0.0
  0
ENDSEC
  0
SECTION
  2
CLASSES
  0
CLASS
  1
ACDBDICTIONARYWDFLT
  2
AcDbDictionaryWithDefault
  3
ObjectDBX Classes
 90
        0
 91
        4
280
     0
281
     0
  0
CLASS
  1
VISUALSTYLE
  2
AcDbVisualStyle
  3
ObjectDBX Classes
 90
     4095
 91
        4
280
     0
281
     0
  0
CLASS
  1
MATERIAL
  2
AcDbMaterial
  3
ObjectDBX Classes
 90
     1153
 91
        4
280
     0
281
     0
  0
ENDSEC
  0
SECTION
  2
TABLES
  0
TABLE
  2
VPORT
  5
8
330
0
100
AcDbSymbolTable
 70
     1
  0
VPORT
  5
29
330
8
100
AcDbSymbolTableRecord
100
AcDbViewportTableRecord
  2
*Active
 70
     0
 10
0.0
 20
0.0
 11
1.0
 21
1.0
 12
10.42990654205607
 22
4.5
 13
0.0
 23
0.0
 14
0.5
 24
0.5
 15
0.5
 25
0.5
 16
0.0
 26
0.0
 36
1.0
 17
0.0
 27
0.0
 37
0.0
 40
9.0
 41
1.972972972850329
 42
50.0
 43
0.0
 44
0.0
 50
0.0
 51
0.0
 71
     0
 72
   100
 73
     1
 74
     3
 75
     0
 76
     0
 77
     0
 78
     0
281
     0
 65
     1
110
0.0
120
0.0
130
0.0
111
1.0
121
0.0
131
0.0
112
0.0
122
1.0
132
0.0
 79
     0
146
0.0
 60
     3
 61
     5
292
     1
282
     1
141
0.0
142
0.0
 63
   250
  0
ENDTAB
  0
TABLE
  2
LTYPE
  5
5
330
0
100
AcDbSymbolTable
 70
     1
  0
LTYPE
  5
14
330
5
100
AcDbSymbolTableRecord
100
AcDbLinetypeTableRecord
  2
ByBlock
 70
     0
  3

 72
    65
 73
     0
 40
0.0
  0
LTYPE
  5
15
330
5
100
AcDbSymbolTableRecord
100
AcDbLinetypeTableRecord
  2
ByLayer
 70
     0
  3

 72
    65
 73
     0
 40
0.0
  0
LTYPE
  5
16
330
5
100
AcDbSymbolTableRecord
100
AcDbLinetypeTableRecord
  2
Continuous
 70
     0
  3
Solid line
 72
    65
 73
     0
 40
0.0
  0
ENDTAB
  0
TABLE
  2
LAYER
  5
2
330
0
100
AcDbSymbolTable
 70
     3
  0
LAYER
  5
10
330
2
100
AcDbSymbolTableRecord
100
AcDbLayerTableRecord
  2
0
 70
     0
 62
     7
  6
Continuous
370
    -3
390
F
347
3E
  0
LAYER
  5
40
330
2
100
AcDbSymbolTableRecord
100
AcDbLayerTableRecord
  2
layer 1
 70
     0
 62
     7
  6
Continuous
370
    -3
390
F
347
3E
  0
LAYER
  5
7C
330
2
100
AcDbSymbolTableRecord
100
AcDbLayerTableRecord
  2
Master Guides
 70
     0
 62
     7
  6
Continuous
370
    -3
390
F
347
3E
  0
ENDTAB
  0
TABLE
  2
STYLE
  5
3
330
0
100
AcDbSymbolTable
 70
     1
  0
STYLE
  5
11
330
3
100
AcDbSymbolTableRecord
100
AcDbTextStyleTableRecord
  2
Standard
 70
     0
 40
0.0
 41
1.0
 50
0.0
 71
     0
 42
0.2
  3
txt
  4

  0
ENDTAB
  0
TABLE
  2
VIEW
  5
6
330
0
100
AcDbSymbolTable
 70
     0
  0
ENDTAB
  0
TABLE
  2
UCS
  5
7
330
0
100
AcDbSymbolTable
 70
     0
  0
ENDTAB
  0
TABLE
  2
APPID
  5
9
330
0
100
AcDbSymbolTable
 70
     2
  0
APPID
  5
12
330
9
100
AcDbSymbolTableRecord
100
AcDbRegAppTableRecord
  2
ACAD
 70
     0
  0
APPID
  5
3F
330
9
100
AcDbSymbolTableRecord
100
AcDbRegAppTableRecord
  2
ODA
 70
     0
  0
ENDTAB
  0
TABLE
  2
DIMSTYLE
  5
A
330
0
100
AcDbSymbolTable
 70
     1
100
AcDbDimStyleTable
  0
DIMSTYLE
105
27
330
A
100
AcDbSymbolTableRecord
100
AcDbDimStyleTableRecord
  2
Standard
 70
     0
178
     0
340
11
  0
ENDTAB
  0
TABLE
  2
BLOCK_RECORD
  5
1
330
0
100
AcDbSymbolTable
 70
     1
  0
BLOCK_RECORD
  5
1F
330
1
100
AcDbSymbolTableRecord
100
AcDbBlockTableRecord
  2
*Model_Space
340
22
 70
     0
280
     1
281
     0
  0
BLOCK_RECORD
  5
1B
330
1
100
AcDbSymbolTableRecord
100
AcDbBlockTableRecord
  2
*Paper_Space
340
1E
 70
     0
280
     1
281
     0
  0
BLOCK_RECORD
  5
23
330
1
100
AcDbSymbolTableRecord
100
AcDbBlockTableRecord
  2
*Paper_Space0
340
26
 70
     0
280
     1
281
     0
  0
ENDTAB
  0
ENDSEC
  0
SECTION
  2
BLOCKS
  0
BLOCK
  5
20
330
1F
100
AcDbEntity
  8
0
100
AcDbBlockBegin
  2
*Model_Space
 70
     0
 10
0.0
 20
0.0
 30
0.0
  3
*Model_Space
  1

  0
ENDBLK
  5
21
330
1F
100
AcDbEntity
  8
0
100
AcDbBlockEnd
  0
BLOCK
  5
1C
330
1B
100
AcDbEntity
 67
     1
  8
0
100
AcDbBlockBegin
  2
*Paper_Space
 70
     0
 10
0.0
 20
0.0
 30
0.0
  3
*Paper_Space
  1

  0
ENDBLK
  5
1D
330
1B
100
AcDbEntity
 67
     1
  8
0
100
AcDbBlockEnd
  0
BLOCK
  5
24
330
23
100
AcDbEntity
  8
0
100
AcDbBlockBegin
  2
*Paper_Space0
 70
     0
 10
0.0
 20
0.0
 30
0.0
  3
*Paper_Space0
  1

  0
ENDBLK
  5
25
330
23
100
AcDbEntity
  8
0
100
AcDbBlockEnd
  0
ENDSEC
  0
SECTION
  2
ENTITIES
  0
SPLINE
  5
41
330
1F
100
AcDbEntity
  8
layer 1
 62
   250
100
AcDbSpline
210
0.0
220
0.0
230
1.0
 70
    11
 71
     3
 72
    20
 73
    16
 74
     0
 42
0.0000000001
 43
0.0000000001
 12
1.0
 22
0.0
 32
0.0
 13
1.0
 23
0.0
 33
0.0
 40
0.0
 40
0.0
 40
0.0
 40
0.0
 40
0.2
 40
0.2
 40
0.2
 40
0.2
 40
0.4
 40
0.4
 40
0.4
 40
0.4
 40
0.6
 40
0.6
 40
0.6
 40
0.6
 40
1.0
 40
1.0
 40
1.0
 40
1.0
 10
51.0713
 20
-112.0791
 30
0.0
 10
51.0713
 20
-112.0791
 30
0.0
 10
-73.2895
 20
-112.0791
 30
0.0
 10
-73.2895
 20
-112.0791
 30
0.0
 10
-73.2895
 20
-112.0791
 30
0.0
 10
-73.2895
 20
-32.175
 30
0.0
 10
-73.2895
 20
47.7292
 30
0.0
 10
-73.2895
 20
127.6333
 30
0.0
 10
-73.2895
 20
127.6333
 30
0.0
 10
-73.2895
 20
127.6333
 30
0.0
 10
51.0713
 20
127.6333
 30
0.0
 10
51.0713
 20
127.6333
 30
0.0
 10
51.0713
 20
127.6333
 30
0.0
 10
51.0713
 20
47.7292
 30
0.0
 10
51.0713
 20
-32.175
 30
0.0
 10
51.0713
 20
-112.0791
 30
0.0
  0
SPLINE
  5
42
330
1F
100
AcDbEntity
  8
layer 1
 62
     7
100
AcDbSpline
210
0.0
220
0.0
230
1.0
 70
    11
 71
     3
 72
   104
 73
   100
 74
     0
 42
0.0000000001
 43
0.0000000001
 12
1.0
 22
0.0
 32
0.0
 13
1.0
 23
0.0
 33
0.0
 40
0.0
 40
0.0
 40
0.0
 40
0.0
 40
0.0384615384615385
 40
0.0384615384615385
 40
0.0384615384615385
 40
0.0384615384615385
 40
0.0769230769230769
 40
0.0769230769230769
 40
0.0769230769230769
 40
0.0769230769230769
 40
0.1153846153846154
 40
0.1153846153846154
 40
0.1153846153846154
 40
0.1153846153846154
 40
0.1538461538461539
 40
0.1538461538461539
 40
0.1538461538461539
 40
0.1538461538461539
 40
0.1923076923076923
 40
0.1923076923076923
 40
0.1923076923076923
 40
0.1923076923076923
 40
0.2307692307692308
 40
0.2307692307692308
 40
0.2307692307692308
 40
0.2307692307692308
 40
0.2692307692307692
 40
0.2692307692307692
 40
0.2692307692307692
 40
0.2692307692307692
 40
0.3076923076923077
 40
0.3076923076923077
 40
0.3076923076923077
 40
0.3076923076923077
 40
0.3461538461538461
 40
0.3461538461538461
 40
0.3461538461538461
 40
0.3461538461538461
 40
0.3846153846153846
 40
0.3846153846153846
 40
0.3846153846153846
 40
0.3846153846153846
 40
0.4230769230769231
 40
0.4230769230769231
 40
0.4230769230769231
 40
0.4230769230769231
 40
0.4615384615384616
 40
0.4615384615384616
 40
0.4615384615384616
 40
0.4615384615384616
 40
0.5
 40
0.5
 40
0.5
 40
0.5
 40
0.5384615384615384
 40
0.5384615384615384
 40
0.5384615384615384
 40
0.5384615384615384
 40
0.5769230769230769
 40
0.5769230769230769
 40
0.5769230769230769
 40
0.5769230769230769
 40
0.6153846153846154
 40
0.6153846153846154
 40
0.6153846153846154
 40
0.6153846153846154
 40
0.6538461538461539
 40
0.6538461538461539
 40
0.6538461538461539
 40
0.6538461538461539
 40
0.6923076923076923
 40
0.6923076923076923
 40
0.6923076923076923
 40
0.6923076923076923
 40
0.7307692307692307
 40
0.7307692307692307
 40
0.7307692307692307
 40
0.7307692307692307
 40
0.7692307692307693
 40
0.7692307692307693
 40
0.7692307692307693
 40
0.7692307692307693
 40
0.8076923076923077
 40
0.8076923076923077
 40
0.8076923076923077
 40
0.8076923076923077
 40
0.8461538461538461
 40
0.8461538461538461
 40
0.8461538461538461
 40
0.8461538461538461
 40
0.8846153846153846
 40
0.8846153846153846
 40
0.8846153846153846
 40
0.8846153846153846
 40
0.9230769230769231
 40
0.9230769230769231
 40
0.9230769230769231
 40
0.9230769230769231
 40
1.0
 40
1.0
 40
1.0
 40
1.0
 10
-31.6538
 20
-54.7227
 30
0.0
 10
-32.5776
 20
-56.2446
 30
0.0
 10
-33.9775
 20
-57.5681
 30
0.0
 10
-35.6065
 20
-58.3904
 30
0.0
 10
-35.6065
 20
-58.3904
 30
0.0
 10
-37.1989
 20
-59.194
 30
0.0
 10
-38.7047
 20
-58.7283
 30
0.0
 10
-39.1687
 20
-57.9384
 30
0.0
 10
-39.1687
 20
-57.9384
 30
0.0
 10
-39.7799
 20
-56.8951
 30
0.0
 10
-40.6664
 20
-57.1344
 30
0.0
 10
-40.4555
 20
-58.5464
 30
0.0
 10
-40.4555
 20
-58.5464
 30
0.0
 10
-40.2427
 20
-59.9584
 30
0.0
 10
-39.2138
 20
-60.8446
 30
0.0
 10
-39.2138
 20
-60.8446
 30
0.0
 10
-39.2138
 20
-60.8446
 30
0.0
 10
-41.8762
 20
-62.9453
 30
0.0
 10
-43.917
 20
-65.7443
 30
0.0
 10
-44.3925
 20
-68.7829
 30
0.0
 10
-44.3925
 20
-68.7829
 30
0.0
 10
-44.3925
 20
-68.7829
 30
0.0
 10
-46.5063
 20
-68.7821
 30
0.0
 10
-46.5063
 20
-68.7821
 30
0.0
 10
-46.5063
 20
-68.7821
 30
0.0
 10
-46.9798
 20
-65.7436
 30
0.0
 10
-49.0218
 20
-62.9457
 30
0.0
 10
-51.6855
 20
-60.8446
 30
0.0
 10
-51.6855
 20
-60.8446
 30
0.0
 10
-51.685
 20
-60.8446
 30
0.0
 10
-50.6566
 20
-59.9588
 30
0.0
 10
-50.4452
 20
-58.5464
 30
0.0
 10
-50.4452
 20
-58.5464
 30
0.0
 10
-50.2316
 20
-57.1341
 30
0.0
 10
-51.1189
 20
-56.8951
 30
0.0
 10
-51.7315
 20
-57.9384
 30
0.0
 10
-51.7315
 20
-57.9384
 30
0.0
 10
-52.193
 20
-58.728
 30
0.0
 10
-53.6983
 20
-59.1941
 30
0.0
 10
-55.2933
 20
-58.3904
 30
0.0
 10
-55.2933
 20
-58.3904
 30
0.0
 10
-56.9216
 20
-57.5671
 30
0.0
 10
-58.3244
 20
-56.2451
 30
0.0
 10
-59.2437
 20
-54.7228
 30
0.0
 10
-59.2437
 20
-54.7228
 30
0.0
 10
-61.035
 20
-51.7798
 30
0.0
 10
-60.8883
 20
-46.6122
 30
0.0
 10
-58.2038
 20
-44.1926
 30
0.0
 10
-58.2038
 20
-44.1926
 30
0.0
 10
-56.5678
 20
-42.7201
 30
0.0
 10
-53.7779
 20
-41.3419
 30
0.0
 10
-51.7598
 20
-42.8541
 30
0.0
 10
-51.7598
 20
-42.8541
 30
0.0
 10
-50.2102
 20
-44.0148
 30
0.0
 10
-50.7361
 20
-42.2194
 30
0.0
 10
-51.1997
 20
-41.6934
 30
0.0
 10
-51.1997
 20
-41.6934
 30
0.0
 10
-51.655
 20
-41.1672
 30
0.0
 10
-52.292
 20
-40.5147
 30
0.0
 10
-52.292
 20
-40.5147
 30
0.0
 10
-52.292
 20
-40.5147
 30
0.0
 10
-52.2915
 20
-40.5144
 30
0.0
 10
-49.5646
 20
-38.7824
 30
0.0
 10
-47.7747
 20
-35.8396
 30
0.0
 10
-47.7747
 20
-35.8396
 30
0.0
 10
-47.0871
 20
-34.713
 30
0.0
 10
-46.6799
 20
-33.5791
 30
0.0
 10
-46.5035
 20
-32.4596
 30
0.0
 10
-46.5035
 20
-32.4596
 30
0.0
 10
-46.5035
 20
-32.4596
 30
0.0
 10
-44.3947
 20
-32.459
 30
0.0
 10
-44.3947
 20
-32.459
 30
0.0
 10
-44.3947
 20
-32.459
 30
0.0
 10
-44.217
 20
-33.579
 30
0.0
 10
-43.8096
 20
-34.713
 30
0.0
 10
-43.1245
 20
-35.8396
 30
0.0
 10
-43.1245
 20
-35.8396
 30
0.0
 10
-41.334
 20
-38.7814
 30
0.0
 10
-38.6111
 20
-40.5147
 30
0.0
 10
-38.6111
 20
-40.5147
 30
0.0
 10
-38.6111
 20
-40.5147
 30
0.0
 10
-38.6094
 20
-40.5144
 30
0.0
 10
-39.2448
 20
-41.1677
 30
0.0
 10
-39.7026
 20
-41.6934
 30
0.0
 10
-39.7026
 20
-41.6934
 30
0.0
 10
-40.1593
 20
-42.2185
 30
0.0
 10
-40.6885
 20
-44.0148
 30
0.0
 10
-39.1393
 20
-42.8541
 30
0.0
 10
-39.1393
 20
-42.8541
 30
0.0
 10
-37.1196
 20
-41.3418
 30
0.0
 10
-34.3316
 20
-42.7204
 30
0.0
 10
-32.6972
 20
-44.1926
 30
0.0
 10
-32.6972
 20
-44.1926
 30
0.0
 10
-30.0031
 20
-46.617
 30
0.0
 10
-29.8652
 20
-51.7729
 30
0.0
 10
-31.6543
 20
-54.7228
 30
0.0
 10
-31.6543
 20
-54.7228
 30
0.0
 10
-31.6543
 20
-54.7228
 30
0.0
 10
-31.6538
 20
-54.7227
 30
0.0
 10
-31.6538
 20
-54.7227
 30
0.0
  0
SPLINE
  5
43
330
1F
100
AcDbEntity
  8
layer 1
 62
     7
100
AcDbSpline
210
0.0
220
0.0
230
1.0
 70
    11
 71
     3
 72
   104
 73
   100
 74
     0
 42
0.0000000001
 43
0.0000000001
 12
1.0
 22
0.0
 32
0.0
 13
1.0
 23
0.0
 33
0.0
 40
0.0
 40
0.0
 40
0.0
 40
0.0
 40
0.0384615384615385
 40
0.0384615384615385
 40
0.0384615384615385
 40
0.0384615384615385
 40
0.0769230769230769
 40
0.0769230769230769
 40
0.0769230769230769
 40
0.0769230769230769
 40
0.1153846153846154
 40
0.1153846153846154
 40
0.1153846153846154
 40
0.1153846153846154
 40
0.1538461538461539
 40
0.1538461538461539
 40
0.1538461538461539
 40
0.1538461538461539
 40
0.1923076923076923
 40
0.1923076923076923
 40
0.1923076923076923
 40
0.1923076923076923
 40
0.2307692307692308
 40
0.2307692307692308
 40
0.2307692307692308
 40
0.2307692307692308
 40
0.2692307692307692
 40
0.2692307692307692
 40
0.2692307692307692
 40
0.2692307692307692
 40
0.3076923076923077
 40
0.3076923076923077
 40
0.3076923076923077
 40
0.3076923076923077
 40
0.3461538461538461
 40
0.3461538461538461
 40
0.3461538461538461
 40
0.3461538461538461
 40
0.3846153846153846
 40
0.3846153846153846
 40
0.3846153846153846
 40
0.3846153846153846
 40
0.4230769230769231
 40
0.4230769230769231
 40
0.4230769230769231
 40
0.4230769230769231
 40
0.4615384615384616
 40
0.4615384615384616
 40
0.4615384615384616
 40
0.4615384615384616
 40
0.5
 40
0.5
 40
0.5
 40
0.5
 40
0.5384615384615384
 40
0.5384615384615384
 40
0.5384615384615384
 40
0.5384615384615384
 40
0.5769230769230769
 40
0.5769230769230769
 40
0.5769230769230769
 40
0.5769230769230769
 40
0.6153846153846154
 40
0.6153846153846154
 40
0.6153846153846154
 40
0.6153846153846154
 40
0.6538461538461539
 40
0.6538461538461539
 40
0.6538461538461539
 40
0.6538461538461539
 40
0.6923076923076923
 40
0.6923076923076923
 40
0.6923076923076923
 40
0.6923076923076923
 40
0.7307692307692307
 40
0.7307692307692307
 40
0.7307692307692307
 40
0.7307692307692307
 40
0.7692307692307693
 40
0.7692307692307693
 40
0.7692307692307693
 40
0.7692307692307693
 40
0.8076923076923077
 40
0.8076923076923077
 40
0.8076923076923077
 40
0.8076923076923077
 40
0.8461538461538461
 40
0.8461538461538461
 40
0.8461538461538461
 40
0.8461538461538461
 40
0.8846153846153846
 40
0.8846153846153846
 40
0.8846153846153846
 40
0.8846153846153846
 40
0.9230769230769231
 40
0.9230769230769231
 40
0.9230769230769231
 40
0.9230769230769231
 40
1.0
 40
1.0
 40
1.0
 40
1.0
 10
-31.6538
 20
-93.692
 30
0.0
 10
-32.5776
 20
-95.215
 30
0.0
 10
-33.9775
 20
-96.5382
 30
0.0
 10
-35.6065
 20
-97.3605
 30
0.0
 10
-35.6065
 20
-97.3605
 30
0.0
 10
-37.1989
 20
-98.1635
 30
0.0
 10
-38.7047
 20
-97.6984
 30
0.0
 10
-39.1687
 20
-96.9084
 30
0.0
 10
-39.1687
 20
-96.9084
 30
0.0
 10
-39.7799
 20
-95.8645
 30
0.0
 10
-40.6664
 20
-96.1043
 30
0.0
 10
-40.4555
 20
-97.5163
 30
0.0
 10
-40.4555
 20
-97.5163
 30
0.0
 10
-40.2427
 20
-98.9286
 30
0.0
 10
-39.2138
 20
-99.8145
 30
0.0
 10
-39.2138
 20
-99.8145
 30
0.0
 10
-39.2138
 20
-99.8145
 30
0.0
 10
-41.8762
 20
-101.9156
 30
0.0
 10
-43.917
 20
-104.7144
 30
0.0
 10
-44.3925
 20
-107.7531
 30
0.0
 10
-44.3925
 20
-107.7531
 30
0.0
 10
-44.3925
 20
-107.7531
 30
0.0
 10
-46.5063
 20
-107.7523
 30
0.0
 10
-46.5063
 20
-107.7523
 30
0.0
 10
-46.5063
 20
-107.7523
 30
0.0
 10
-46.9798
 20
-104.714
 30
0.0
 10
-49.0218
 20
-101.9158
 30
0.0
 10
-51.6855
 20
-99.8145
 30
0.0
 10
-51.6855
 20
-99.8145
 30
0.0
 10
-51.685
 20
-99.8139
 30
0.0
 10
-50.6566
 20
-98.9287
 30
0.0
 10
-50.4452
 20
-97.5163
 30
0.0
 10
-50.4452
 20
-97.5163
 30
0.0
 10
-50.2316
 20
-96.1034
 30
0.0
 10
-51.1189
 20
-95.8654
 30
0.0
 10
-51.7315
 20
-96.9084
 30
0.0
 10
-51.7315
 20
-96.9084
 30
0.0
 10
-52.193
 20
-97.6982
 30
0.0
 10
-53.6983
 20
-98.1644
 30
0.0
 10
-55.2933
 20
-97.3605
 30
0.0
 10
-55.2933
 20
-97.3605
 30
0.0
 10
-56.9216
 20
-96.5375
 30
0.0
 10
-58.3244
 20
-95.2152
 30
0.0
 10
-59.2437
 20
-93.6928
 30
0.0
 10
-59.2437
 20
-93.6928
 30
0.0
 10
-61.035
 20
-90.7489
 30
0.0
 10
-60.8883
 20
-85.5852
 30
0.0
 10
-58.2038
 20
-83.1656
 30
0.0
 10
-58.2038
 20
-83.1656
 30
0.0
 10
-56.5678
 20
-81.6926
 30
0.0
 10
-53.7779
 20
-80.3149
 30
0.0
 10
-51.7598
 20
-81.8272
 30
0.0
 10
-51.7598
 20
-81.8272
 30
0.0
 10
-50.2102
 20
-82.9872
 30
0.0
 10
-50.7361
 20
-81.1924
 30
0.0
 10
-51.1997
 20
-80.6664
 30
0.0
 10
-51.1997
 20
-80.6664
 30
0.0
 10
-51.655
 20
-80.1395
 30
0.0
 10
-52.292
 20
-79.4879
 30
0.0
 10
-52.292
 20
-79.4879
 30
0.0
 10
-52.292
 20
-79.4879
 30
0.0
 10
-52.2915
 20
-79.4879
 30
0.0
 10
-49.5646
 20
-77.7553
 30
0.0
 10
-47.7747
 20
-74.8124
 30
0.0
 10
-47.7747
 20
-74.8124
 30
0.0
 10
-47.0871
 20
-73.6854
 30
0.0
 10
-46.6799
 20
-72.5524
 30
0.0
 10
-46.5035
 20
-71.4324
 30
0.0
 10
-46.5035
 20
-71.4324
 30
0.0
 10
-46.5035
 20
-71.4324
 30
0.0
 10
-44.3947
 20
-71.4315
 30
0.0
 10
-44.3947
 20
-71.4315
 30
0.0
 10
-44.3947
 20
-71.4315
 30
0.0
 10
-44.217
 20
-72.5515
 30
0.0
 10
-43.8096
 20
-73.6859
 30
0.0
 10
-43.1245
 20
-74.8124
 30
0.0
 10
-43.1245
 20
-74.8124
 30
0.0
 10
-41.334
 20
-77.7549
 30
0.0
 10
-38.6111
 20
-79.4879
 30
0.0
 10
-38.6111
 20
-79.4879
 30
0.0
 10
-38.6111
 20
-79.4879
 30
0.0
 10
-38.6094
 20
-79.4879
 30
0.0
 10
-39.2448
 20
-80.1406
 30
0.0
 10
-39.7026
 20
-80.6664
 30
0.0
 10
-39.7026
 20
-80.6664
 30
0.0
 10
-40.1593
 20
-81.1921
 30
0.0
 10
-40.6885
 20
-82.9876
 30
0.0
 10
-39.1393
 20
-81.8272
 30
0.0
 10
-39.1393
 20
-81.8272
 30
0.0
 10
-37.1196
 20
-80.3144
 30
0.0
 10
-34.3316
 20
-81.6935
 30
0.0
 10
-32.6972
 20
-83.1656
 30
0.0
 10
-32.6972
 20
-83.1656
 30
0.0
 10
-30.0031
 20
-85.5905
 30
0.0
 10
-29.8652
 20
-90.7432
 30
0.0
 10
-31.6543
 20
-93.6928
 30
0.0
 10
-31.6543
 20
-93.6928
 30
0.0
 10
-31.6543
 20
-93.6928
 30
0.0
 10
-31.6538
 20
-93.692
 30
0.0
 10
-31.6538
 20
-93.692
 30
0.0
  0
SPLINE
  5
44
330
1F
100
AcDbEntity
  8
layer 1
 62
     7
100
AcDbSpline
210
0.0
220
0.0
230
1.0
 70
    11
 71
     3
 72
   124
 73
   120
 74
     0
 42
0.0000000001
 43
0.0000000001
 12
1.0
 22
0.0
 32
0.0
 13
1.0
 23
0.0
 33
0.0
 40
0.0
 40
0.0
 40
0.0
 40
0.0
 40
0.032258064516129
 40
0.032258064516129
 40
0.032258064516129
 40
0.032258064516129
 40
0.0645161290322581
 40
0.0645161290322581
 40
0.0645161290322581
 40
0.0645161290322581
 40
0.0967741935483871
 40
0.0967741935483871
 40
0.0967741935483871
 40
0.0967741935483871
 40
0.1290322580645161
 40
0.1290322580645161
 40
0.1290322580645161
 40
0.1290322580645161
 40
0.1612903225806452
 40
0.1612903225806452
 40
0.1612903225806452
 40
0.1612903225806452
 40
0.1935483870967742
 40
0.1935483870967742
 40
0.1935483870967742
 40
0.1935483870967742
 40
0.2258064516129032
 40
0.2258064516129032
 40
0.2258064516129032
 40
0.2258064516129032
 40
0.2580645161290323
 40
0.2580645161290323
 40
0.2580645161290323
 40
0.2580645161290323
 40
0.2903225806451613
 40
0.2903225806451613
 40
0.2903225806451613
 40
0.2903225806451613
 40
0.3225806451612903
 40
0.3225806451612903
 40
0.3225806451612903
 40
0.3225806451612903
 40
0.3548387096774194
 40
0.3548387096774194
 40
0.3548387096774194
 40
0.3548387096774194
 40
0.3870967741935484
 40
0.3870967741935484
 40
0.3870967741935484
 40
0.3870967741935484
 40
0.4193548387096774
 40
0.4193548387096774
 40
0.4193548387096774
 40
0.4193548387096774
 40
0.4516129032258064
 40
0.4516129032258064
 40
0.4516129032258064
 40
0.4516129032258064
 40
0.4838709677419355
 40
0.4838709677419355
 40
0.4838709677419355
 40
0.4838709677419355
 40
0.5161290322580645
 40
0.5161290322580645
 40
0.5161290322580645
 40
0.5161290322580645
 40
0.5483870967741935
 40
0.5483870967741935
 40
0.5483870967741935
 40
0.5483870967741935
 40
0.5806451612903226
 40
0.5806451612903226
 40
0.5806451612903226
 40
0.5806451612903226
 40
0.6129032258064516
 40
0.6129032258064516
 40
0.6129032258064516
 40
0.6129032258064516
 40
0.6451612903225806
 40
0.6451612903225806
 40
0.6451612903225806
 40
0.6451612903225806
 40
0.6774193548387096
 40
0.6774193548387096
 40
0.6774193548387096
 40
0.6774193548387096
 40
0.7096774193548387
 40
0.7096774193548387
 40
0.7096774193548387
 40
0.7096774193548387
 40
0.7419354838709677
 40
0.7419354838709677
 40
0.7419354838709677
 40
0.7419354838709677
 40
0.7741935483870968
 40
0.7741935483870968
 40
0.7741935483870968
 40
0.7741935483870968
 40
0.8064516129032258
 40
0.8064516129032258
 40
0.8064516129032258
 40
0.8064516129032258
 40
0.8387096774193549
 40
0.8387096774193549
 40
0.8387096774193549
 40
0.8387096774193549
 40
0.8709677419354839
 40
0.8709677419354839
 40
0.8709677419354839
 40
0.8709677419354839
 40
0.9032258064516129
 40
0.9032258064516129
 40
0.9032258064516129
 40
0.9032258064516129
 40
0.9354838709677419
 40
0.9354838709677419
 40
0.9354838709677419
 40
0.9354838709677419
 40
1.0
 40
1.0
 40
1.0
 40
1.0
 10
-27.8255
 20
-54.9908
 30
0.0
 10
-27.2551
 20
-55.9275
 30
0.0
 10
-26.1842
 20
-57.3283
 30
0.0
 10
-24.178
 20
-59.2547
 30
0.0
 10
-24.178
 20
-59.2547
 30
0.0
 10
-24.1772
 20
-59.2541
 30
0.0
 10
-21.6159
 20
-61.4741
 30
0.0
 10
-22.4055
 20
-62.8573
 30
0.0
 10
-22.4055
 20
-62.8573
 30
0.0
 10
-22.6852
 20
-63.3536
 30
0.0
 10
-22.937
 20
-63.7033
 30
0.0
 10
-23.1371
 20
-63.9469
 30
0.0
 10
-23.1371
 20
-63.9469
 30
0.0
 10
-24.1533
 20
-65.1875
 30
0.0
 10
-22.5372
 20
-65.2057
 30
0.0
 10
-21.5248
 20
-64.6695
 30
0.0
 10
-21.5248
 20
-64.6695
 30
0.0
 10
-21.0327
 20
-64.4093
 30
0.0
 10
-20.667
 20
-64.0562
 30
0.0
 10
-20.3983
 20
-63.7158
 30
0.0
 10
-20.3983
 20
-63.7158
 30
0.0
 10
-19.5857
 20
-62.6763
 30
0.0
 10
-20.1075
 20
-62.2586
 30
0.0
 10
-18.7521
 20
-63.2308
 30
0.0
 10
-18.7521
 20
-63.2308
 30
0.0
 10
-17.6757
 20
-64.001
 30
0.0
 10
-16.0753
 20
-65.5762
 30
0.0
 10
-15.4523
 20
-68.3704
 30
0.0
 10
-15.4523
 20
-68.3704
 30
0.0
 10
-14.5485
 20
-72.427
 30
0.0
 10
-16.5104
 20
-75.7063
 30
0.0
 10
-20.2894
 20
-77.5965
 30
0.0
 10
-20.2894
 20
-77.5965
 30
0.0
 10
-20.2887
 20
-77.5962
 30
0.0
 10
-20.427
 20
-75.7005
 30
0.0
 10
-22.2049
 20
-75.2047
 30
0.0
 10
-22.2049
 20
-75.2047
 30
0.0
 10
-22.2049
 20
-75.2041
 30
0.0
 10
-24.2522
 20
-74.9154
 30
0.0
 10
-23.1542
 20
-75.9761
 30
0.0
 10
-23.1542
 20
-75.9761
 30
0.0
 10
-22.0616
 20
-77.0368
 30
0.0
 10
-22.5026
 20
-79.0895
 30
0.0
 10
-23.8917
 20
-80.0956
 30
0.0
 10
-23.8917
 20
-80.0956
 30
0.0
 10
-24.7021
 20
-80.6829
 30
0.0
 10
-26.259
 20
-81.8466
 30
0.0
 10
-27.3685
 20
-83.6279
 30
0.0
 10
-27.3685
 20
-83.6279
 30
0.0
 10
-27.4397
 20
-83.744
 30
0.0
 10
-27.5063
 20
-83.8575
 30
0.0
 10
-27.5719
 20
-83.9648
 30
0.0
 10
-27.5719
 20
-83.9648
 30
0.0
 10
-28.7191
 20
-85.8295
 30
0.0
 10
-28.7888
 20
-85.5434
 30
0.0
 10
-29.6489
 20
-83.8592
 30
0.0
 10
-29.6489
 20
-83.8592
 30
0.0
 10
-29.6967
 20
-83.7654
 30
0.0
 10
-29.7593
 20
-83.6777
 30
0.0
 10
-29.8187
 20
-83.5833
 30
0.0
 10
-29.8187
 20
-83.5833
 30
0.0
 10
-30.9249
 20
-81.8264
 30
0.0
 10
-32.463
 20
-80.6787
 30
0.0
 10
-33.2679
 20
-80.0956
 30
0.0
 10
-33.2679
 20
-80.0956
 30
0.0
 10
-34.6567
 20
-79.0893
 30
0.0
 10
-35.1007
 20
-77.037
 30
0.0
 10
-34.0038
 20
-75.9761
 30
0.0
 10
-34.0038
 20
-75.9761
 30
0.0
 10
-32.9055
 20
-74.9148
 30
0.0
 10
-34.954
 20
-75.2047
 30
0.0
 10
-34.954
 20
-75.2047
 30
0.0
 10
-34.954
 20
-75.2047
 30
0.0
 10
-36.7318
 20
-75.7004
 30
0.0
 10
-36.8701
 20
-77.5965
 30
0.0
 10
-36.8701
 20
-77.5965
 30
0.0
 10
-36.8701
 20
-77.5965
 30
0.0
 10
-40.6502
 20
-75.7058
 30
0.0
 10
-42.608
 20
-72.4276
 30
0.0
 10
-41.7058
 20
-68.3704
 30
0.0
 10
-41.7058
 20
-68.3704
 30
0.0
 10
-41.0831
 20
-65.5753
 30
0.0
 10
-39.4806
 20
-64.0017
 30
0.0
 10
-38.4074
 20
-63.2308
 30
0.0
 10
-38.4074
 20
-63.2308
 30
0.0
 10
-37.0553
 20
-62.2583
 30
0.0
 10
-37.5748
 20
-62.6763
 30
0.0
 10
-36.7588
 20
-63.7158
 30
0.0
 10
-36.7588
 20
-63.7158
 30
0.0
 10
-36.4917
 20
-64.0557
 30
0.0
 10
-36.1247
 20
-64.4093
 30
0.0
 10
-35.6348
 20
-64.6695
 30
0.0
 10
-35.6348
 20
-64.6695
 30
0.0
 10
-34.6224
 20
-65.2057
 30
0.0
 10
-33.0024
 20
-65.1882
 30
0.0
 10
-34.0245
 20
-63.9469
 30
0.0
 10
-34.0245
 20
-63.9469
 30
0.0
 10
-34.2238
 20
-63.7029
 30
0.0
 10
-34.4723
 20
-63.3543
 30
0.0
 10
-34.755
 20
-62.8573
 30
0.0
 10
-34.755
 20
-62.8573
 30
0.0
 10
-35.5419
 20
-61.4737
 30
0.0
 10
-32.9833
 20
-59.2547
 30
0.0
 10
-32.9833
 20
-59.2547
 30
0.0
 10
-32.9833
 20
-59.2547
 30
0.0
 10
-31.118
 20
-57.4406
 30
0.0
 10
-30.061
 20
-56.0903
 30
0.0
 10
-29.4615
 20
-55.155
 30
0.0
 10
-29.4615
 20
-55.155
 30
0.0
 10
-29.3989
 20
-55.0582
 30
0.0
 10
-29.3397
 20
-54.9675
 30
0.0
 10
-29.2895
 20
-54.8783
 30
0.0
 10
-29.2895
 20
-54.8783
 30
0.0
 10
-28.5454
 20
-53.5632
 30
0.0
 10
-28.3946
 20
-54.0601
 30
0.0
 10
-27.8271
 20
-54.9916
 30
0.0
 10
-27.8271
 20
-54.9916
 30
0.0
 10
-27.8271
 20
-54.9916
 30
0.0
 10
-27.8255
 20
-54.9908
 30
0.0
 10
-27.8255
 20
-54.9908
 30
0.0
  0
SPLINE
  5
45
330
1F
100
AcDbEntity
  8
layer 1
 62
     7
100
AcDbSpline
210
0.0
220
0.0
230
1.0
 70
    11
 71
     3
 72
   104
 73
   100
 74
     0
 42
0.0000000001
 43
0.0000000001
 12
1.0
 22
0.0
 32
0.0
 13
1.0
 23
0.0
 33
0.0
 40
0.0
 40
0.0
 40
0.0
 40
0.0
 40
0.0384615384615385
 40
0.0384615384615385
 40
0.0384615384615385
 40
0.0384615384615385
 40
0.0769230769230769
 40
0.0769230769230769
 40
0.0769230769230769
 40
0.0769230769230769
 40
0.1153846153846154
 40
0.1153846153846154
 40
0.1153846153846154
 40
0.1153846153846154
 40
0.1538461538461539
 40
0.1538461538461539
 40
0.1538461538461539
 40
0.1538461538461539
 40
0.1923076923076923
 40
0.1923076923076923
 40
0.1923076923076923
 40
0.1923076923076923
 40
0.2307692307692308
 40
0.2307692307692308
 40
0.2307692307692308
 40
0.2307692307692308
 40
0.2692307692307692
 40
0.2692307692307692
 40
0.2692307692307692
 40
0.2692307692307692
 40
0.3076923076923077
 40
0.3076923076923077
 40
0.3076923076923077
 40
0.3076923076923077
 40
0.3461538461538461
 40
0.3461538461538461
 40
0.3461538461538461
 40
0.3461538461538461
 40
0.3846153846153846
 40
0.3846153846153846
 40
0.3846153846153846
 40
0.3846153846153846
 40
0.4230769230769231
 40
0.4230769230769231
 40
0.4230769230769231
 40
0.4230769230769231
 40
0.4615384615384616
 40
0.4615384615384616
 40
0.4615384615384616
 40
0.4615384615384616
 40
0.5
 40
0.5
 40
0.5
 40
0.5
 40
0.5384615384615384
 40
0.5384615384615384
 40
0.5384615384615384
 40
0.5384615384615384
 40
0.5769230769230769
 40
0.5769230769230769
 40
0.5769230769230769
 40
0.5769230769230769
 40
0.6153846153846154
 40
0.6153846153846154
 40
0.6153846153846154
 40
0.6153846153846154
 40
0.6538461538461539
 40
0.6538461538461539
 40
0.6538461538461539
 40
0.6538461538461539
 40
0.6923076923076923
 40
0.6923076923076923
 40
0.6923076923076923
 40
0.6923076923076923
 40
0.7307692307692307
 40
0.7307692307692307
 40
0.7307692307692307
 40
0.7307692307692307
 40
0.7692307692307693
 40
0.7692307692307693
 40
0.7692307692307693
 40
0.7692307692307693
 40
0.8076923076923077
 40
0.8076923076923077
 40
0.8076923076923077
 40
0.8076923076923077
 40
0.8461538461538461
 40
0.8461538461538461
 40
0.8461538461538461
 40
0.8461538461538461
 40
0.8846153846153846
 40
0.8846153846153846
 40
0.8846153846153846
 40
0.8846153846153846
 40
0.9230769230769231
 40
0.9230769230769231
 40
0.9230769230769231
 40
0.9230769230769231
 40
1.0
 40
1.0
 40
1.0
 40
1.0
 10
-58.2035
 20
33.7512
 30
0.0
 10
-56.5678
 20
35.2228
 30
0.0
 10
-53.7779
 20
36.6012
 30
0.0
 10
-51.7598
 20
35.0888
 30
0.0
 10
-51.7598
 20
35.0888
 30
0.0
 10
-50.2102
 20
33.9291
 30
0.0
 10
-50.7361
 20
35.7235
 30
0.0
 10
-51.1997
 20
36.2494
 30
0.0
 10
-51.1997
 20
36.2494
 30
0.0
 10
-51.655
 20
36.7757
 30
0.0
 10
-52.292
 20
37.4282
 30
0.0
 10
-52.292
 20
37.4282
 30
0.0
 10
-52.292
 20
37.4282
 30
0.0
 10
-52.2915
 20
37.4284
 30
0.0
 10
-49.5646
 20
39.1603
 30
0.0
 10
-47.7747
 20
42.1031
 30
0.0
 10
-47.7747
 20
42.1031
 30
0.0
 10
-47.0871
 20
43.231
 30
0.0
 10
-46.6799
 20
44.3639
 30
0.0
 10
-46.5035
 20
45.4833
 30
0.0
 10
-46.5035
 20
45.4833
 30
0.0
 10
-46.5035
 20
45.4833
 30
0.0
 10
-44.3947
 20
45.4839
 30
0.0
 10
-44.3947
 20
45.4839
 30
0.0
 10
-44.3947
 20
45.4839
 30
0.0
 10
-44.217
 20
44.365
 30
0.0
 10
-43.8096
 20
43.2301
 30
0.0
 10
-43.1245
 20
42.1031
 30
0.0
 10
-43.1245
 20
42.1031
 30
0.0
 10
-41.334
 20
39.1603
 30
0.0
 10
-38.6111
 20
37.4282
 30
0.0
 10
-38.6111
 20
37.4282
 30
0.0
 10
-38.6111
 20
37.4282
 30
0.0
 10
-38.6094
 20
37.4284
 30
0.0
 10
-39.2448
 20
36.7752
 30
0.0
 10
-39.7026
 20
36.2494
 30
0.0
 10
-39.7026
 20
36.2494
 30
0.0
 10
-40.1593
 20
35.7243
 30
0.0
 10
-40.6885
 20
33.9283
 30
0.0
 10
-39.1393
 20
35.0888
 30
0.0
 10
-39.1393
 20
35.0888
 30
0.0
 10
-37.1196
 20
36.6012
 30
0.0
 10
-34.3316
 20
35.2226
 30
0.0
 10
-32.6972
 20
33.7502
 30
0.0
 10
-32.6972
 20
33.7502
 30
0.0
 10
-30.0031
 20
31.3258
 30
0.0
 10
-29.8652
 20
26.17
 30
0.0
 10
-31.6543
 20
23.2204
 30
0.0
 10
-31.6543
 20
23.2204
 30
0.0
 10
-32.5776
 20
21.6981
 30
0.0
 10
-33.9775
 20
20.3752
 30
0.0
 10
-35.6065
 20
19.5528
 30
0.0
 10
-35.6065
 20
19.5528
 30
0.0
 10
-37.1989
 20
18.7497
 30
0.0
 10
-38.7047
 20
19.2147
 30
0.0
 10
-39.1687
 20
20.0048
 30
0.0
 10
-39.1687
 20
20.0048
 30
0.0
 10
-39.7799
 20
21.0486
 30
0.0
 10
-40.6664
 20
20.8088
 30
0.0
 10
-40.4555
 20
19.3966
 30
0.0
 10
-40.4555
 20
19.3966
 30
0.0
 10
-40.2427
 20
17.9846
 30
0.0
 10
-39.2138
 20
17.0982
 30
0.0
 10
-39.2138
 20
17.0982
 30
0.0
 10
-39.2138
 20
17.0982
 30
0.0
 10
-41.8762
 20
14.9975
 30
0.0
 10
-43.917
 20
12.1988
 30
0.0
 10
-44.3925
 20
9.1603
 30
0.0
 10
-44.3925
 20
9.1603
 30
0.0
 10
-44.3925
 20
9.1603
 30
0.0
 10
-46.5063
 20
9.1608
 30
0.0
 10
-46.5063
 20
9.1608
 30
0.0
 10
-46.5063
 20
9.1608
 30
0.0
 10
-46.9798
 20
12.1991
 30
0.0
 10
-49.0218
 20
14.9974
 30
0.0
 10
-51.6855
 20
17.0982
 30
0.0
 10
-51.6855
 20
17.0982
 30
0.0
 10
-51.685
 20
17.0982
 30
0.0
 10
-50.6566
 20
17.9843
 30
0.0
 10
-50.4452
 20
19.3966
 30
0.0
 10
-50.4452
 20
19.3966
 30
0.0
 10
-50.2316
 20
20.8096
 30
0.0
 10
-51.1189
 20
21.0477
 30
0.0
 10
-51.7315
 20
20.0048
 30
0.0
 10
-51.7315
 20
20.0048
 30
0.0
 10
-52.193
 20
19.2149
 30
0.0
 10
-53.6983
 20
18.7489
 30
0.0
 10
-55.2933
 20
19.5528
 30
0.0
 10
-55.2933
 20
19.5528
 30
0.0
 10
-56.9216
 20
20.3757
 30
0.0
 10
-58.3244
 20
21.6979
 30
0.0
 10
-59.2437
 20
23.2204
 30
0.0
 10
-59.2437
 20
23.2204
 30
0.0
 10
-61.035
 20
26.1642
 30
0.0
 10
-60.8883
 20
31.3309
 30
0.0
 10
-58.2038
 20
33.7502
 30
0.0
 10
-58.2038
 20
33.7502
 30
0.0
 10
-58.2038
 20
33.7502
 30
0.0
 10
-58.2035
 20
33.7512
 30
0.0
 10
-58.2035
 20
33.7512
 30
0.0
  0
SPLINE
  5
46
330
1F
100
AcDbEntity
  8
layer 1
 62
     7
100
AcDbSpline
210
0.0
220
0.0
230
1.0
 70
    11
 71
     3
 72
   104
 73
   100
 74
     0
 42
0.0000000001
 43
0.0000000001
 12
1.0
 22
0.0
 32
0.0
 13
1.0
 23
0.0
 33
0.0
 40
0.0
 40
0.0
 40
0.0
 40
0.0
 40
0.0384615384615385
 40
0.0384615384615385
 40
0.0384615384615385
 40
0.0384615384615385
 40
0.0769230769230769
 40
0.0769230769230769
 40
0.0769230769230769
 40
0.0769230769230769
 40
0.1153846153846154
 40
0.1153846153846154
 40
0.1153846153846154
 40
0.1153846153846154
 40
0.1538461538461539
 40
0.1538461538461539
 40
0.1538461538461539
 40
0.1538461538461539
 40
0.1923076923076923
 40
0.1923076923076923
 40
0.1923076923076923
 40
0.1923076923076923
 40
0.2307692307692308
 40
0.2307692307692308
 40
0.2307692307692308
 40
0.2307692307692308
 40
0.2692307692307692
 40
0.2692307692307692
 40
0.2692307692307692
 40
0.2692307692307692
 40
0.3076923076923077
 40
0.3076923076923077
 40
0.3076923076923077
 40
0.3076923076923077
 40
0.3461538461538461
 40
0.3461538461538461
 40
0.3461538461538461
 40
0.3461538461538461
 40
0.3846153846153846
 40
0.3846153846153846
 40
0.3846153846153846
 40
0.3846153846153846
 40
0.4230769230769231
 40
0.4230769230769231
 40
0.4230769230769231
 40
0.4230769230769231
 40
0.4615384615384616
 40
0.4615384615384616
 40
0.4615384615384616
 40
0.4615384615384616
 40
0.5
 40
0.5
 40
0.5
 40
0.5
 40
0.5384615384615384
 40
0.5384615384615384
 40
0.5384615384615384
 40
0.5384615384615384
 40
0.5769230769230769
 40
0.5769230769230769
 40
0.5769230769230769
 40
0.5769230769230769
 40
0.6153846153846154
 40
0.6153846153846154
 40
0.6153846153846154
 40
0.6153846153846154
 40
0.6538461538461539
 40
0.6538461538461539
 40
0.6538461538461539
 40
0.6538461538461539
 40
0.6923076923076923
 40
0.6923076923076923
 40
0.6923076923076923
 40
0.6923076923076923
 40
0.7307692307692307
 40
0.7307692307692307
 40
0.7307692307692307
 40
0.7307692307692307
 40
0.7692307692307693
 40
0.7692307692307693
 40
0.7692307692307693
 40
0.7692307692307693
 40
0.8076923076923077
 40
0.8076923076923077
 40
0.8076923076923077
 40
0.8076923076923077
 40
0.8461538461538461
 40
0.8461538461538461
 40
0.8461538461538461
 40
0.8461538461538461
 40
0.8846153846153846
 40
0.8846153846153846
 40
0.8846153846153846
 40
0.8846153846153846
 40
0.9230769230769231
 40
0.9230769230769231
 40
0.9230769230769231
 40
0.9230769230769231
 40
1.0
 40
1.0
 40
1.0
 40
1.0
 10
-31.6538
 20
-15.7492
 30
0.0
 10
-32.5776
 20
-17.2721
 30
0.0
 10
-33.9775
 20
-18.5954
 30
0.0
 10
-35.6065
 20
-19.4174
 30
0.0
 10
-35.6065
 20
-19.4174
 30
0.0
 10
-37.1989
 20
-20.2205
 30
0.0
 10
-38.7047
 20
-19.7556
 30
0.0
 10
-39.1687
 20
-18.9653
 30
0.0
 10
-39.1687
 20
-18.9653
 30
0.0
 10
-39.7799
 20
-17.9216
 30
0.0
 10
-40.6664
 20
-18.1614
 30
0.0
 10
-40.4555
 20
-19.5737
 30
0.0
 10
-40.4555
 20
-19.5737
 30
0.0
 10
-40.2427
 20
-20.9846
 30
0.0
 10
-39.2138
 20
-21.8719
 30
0.0
 10
-39.2138
 20
-21.8719
 30
0.0
 10
-39.2138
 20
-21.8719
 30
0.0
 10
-41.8762
 20
-23.9717
 30
0.0
 10
-43.917
 20
-26.7713
 30
0.0
 10
-44.3925
 20
-29.8101
 30
0.0
 10
-44.3925
 20
-29.8101
 30
0.0
 10
-44.3925
 20
-29.8101
 30
0.0
 10
-46.5063
 20
-29.8097
 30
0.0
 10
-46.5063
 20
-29.8097
 30
0.0
 10
-46.5063
 20
-29.8097
 30
0.0
 10
-46.9798
 20
-26.7712
 30
0.0
 10
-49.0218
 20
-23.9724
 30
0.0
 10
-51.6855
 20
-21.8719
 30
0.0
 10
-51.6855
 20
-21.8719
 30
0.0
 10
-51.685
 20
-21.8711
 30
0.0
 10
-50.6566
 20
-20.9855
 30
0.0
 10
-50.4452
 20
-19.5737
 30
0.0
 10
-50.4452
 20
-19.5737
 30
0.0
 10
-50.2316
 20
-18.1606
 30
0.0
 10
-51.1189
 20
-17.9222
 30
0.0
 10
-51.7315
 20
-18.9653
 30
0.0
 10
-51.7315
 20
-18.9653
 30
0.0
 10
-52.193
 20
-19.7554
 30
0.0
 10
-53.6983
 20
-20.2214
 30
0.0
 10
-55.2933
 20
-19.4174
 30
0.0
 10
-55.2933
 20
-19.4174
 30
0.0
 10
-56.9216
 20
-18.5948
 30
0.0
 10
-58.3244
 20
-17.2721
 30
0.0
 10
-59.2437
 20
-15.7497
 30
0.0
 10
-59.2437
 20
-15.7497
 30
0.0
 10
-61.035
 20
-12.8061
 30
0.0
 10
-60.8883
 20
-7.6421
 30
0.0
 10
-58.2038
 20
-5.2227
 30
0.0
 10
-58.2038
 20
-5.2227
 30
0.0
 10
-56.5678
 20
-3.7498
 30
0.0
 10
-53.7779
 20
-2.3717
 30
0.0
 10
-51.7598
 20
-3.8843
 30
0.0
 10
-51.7598
 20
-3.8843
 30
0.0
 10
-50.2102
 20
-5.0444
 30
0.0
 10
-50.7361
 20
-3.2495
 30
0.0
 10
-51.1997
 20
-2.7236
 30
0.0
 10
-51.1997
 20
-2.7236
 30
0.0
 10
-51.655
 20
-2.1978
 30
0.0
 10
-52.292
 20
-1.5447
 30
0.0
 10
-52.292
 20
-1.5447
 30
0.0
 10
-52.292
 20
-1.5447
 30
0.0
 10
-52.2915
 20
-1.544
 30
0.0
 10
-49.5646
 20
0.1877
 30
0.0
 10
-47.7747
 20
3.1303
 30
0.0
 10
-47.7747
 20
3.1303
 30
0.0
 10
-47.0871
 20
4.2575
 30
0.0
 10
-46.6799
 20
5.3908
 30
0.0
 10
-46.5035
 20
6.5102
 30
0.0
 10
-46.5035
 20
6.5102
 30
0.0
 10
-46.5035
 20
6.5102
 30
0.0
 10
-44.3947
 20
6.5102
 30
0.0
 10
-44.3947
 20
6.5102
 30
0.0
 10
-44.3947
 20
6.5102
 30
0.0
 10
-44.217
 20
5.3915
 30
0.0
 10
-43.8096
 20
4.2573
 30
0.0
 10
-43.1245
 20
3.1303
 30
0.0
 10
-43.1245
 20
3.1303
 30
0.0
 10
-41.334
 20
0.188
 30
0.0
 10
-38.6111
 20
-1.5447
 30
0.0
 10
-38.6111
 20
-1.5447
 30
0.0
 10
-38.6111
 20
-1.5447
 30
0.0
 10
-38.6094
 20
-1.544
 30
0.0
 10
-39.2448
 20
-2.1978
 30
0.0
 10
-39.7026
 20
-2.7236
 30
0.0
 10
-39.7026
 20
-2.7236
 30
0.0
 10
-40.1593
 20
-3.2492
 30
0.0
 10
-40.6885
 20
-5.0447
 30
0.0
 10
-39.1393
 20
-3.8843
 30
0.0
 10
-39.1393
 20
-3.8843
 30
0.0
 10
-37.1196
 20
-2.3714
 30
0.0
 10
-34.3316
 20
-3.7503
 30
0.0
 10
-32.6972
 20
-5.2227
 30
0.0
 10
-32.6972
 20
-5.2227
 30
0.0
 10
-30.0031
 20
-7.6477
 30
0.0
 10
-29.8652
 20
-12.8002
 30
0.0
 10
-31.6543
 20
-15.7497
 30
0.0
 10
-31.6543
 20
-15.7497
 30
0.0
 10
-31.6543
 20
-15.7497
 30
0.0
 10
-31.6538
 20
-15.7492
 30
0.0
 10
-31.6538
 20
-15.7492
 30
0.0
  0
SPLINE
  5
47
330
1F
100
AcDbEntity
  8
layer 1
 62
     7
100
AcDbSpline
210
0.0
220
0.0
230
1.0
 70
    11
 71
     3
 72
   124
 73
   120
 74
     0
 42
0.0000000001
 43
0.0000000001
 12
1.0
 22
0.0
 32
0.0
 13
1.0
 23
0.0
 33
0.0
 40
0.0
 40
0.0
 40
0.0
 40
0.0
 40
0.032258064516129
 40
0.032258064516129
 40
0.032258064516129
 40
0.032258064516129
 40
0.0645161290322581
 40
0.0645161290322581
 40
0.0645161290322581
 40
0.0645161290322581
 40
0.0967741935483871
 40
0.0967741935483871
 40
0.0967741935483871
 40
0.0967741935483871
 40
0.1290322580645161
 40
0.1290322580645161
 40
0.1290322580645161
 40
0.1290322580645161
 40
0.1612903225806452
 40
0.1612903225806452
 40
0.1612903225806452
 40
0.1612903225806452
 40
0.1935483870967742
 40
0.1935483870967742
 40
0.1935483870967742
 40
0.1935483870967742
 40
0.2258064516129032
 40
0.2258064516129032
 40
0.2258064516129032
 40
0.2258064516129032
 40
0.2580645161290323
 40
0.2580645161290323
 40
0.2580645161290323
 40
0.2580645161290323
 40
0.2903225806451613
 40
0.2903225806451613
 40
0.2903225806451613
 40
0.2903225806451613
 40
0.3225806451612903
 40
0.3225806451612903
 40
0.3225806451612903
 40
0.3225806451612903
 40
0.3548387096774194
 40
0.3548387096774194
 40
0.3548387096774194
 40
0.3548387096774194
 40
0.3870967741935484
 40
0.3870967741935484
 40
0.3870967741935484
 40
0.3870967741935484
 40
0.4193548387096774
 40
0.4193548387096774
 40
0.4193548387096774
 40
0.4193548387096774
 40
0.4516129032258064
 40
0.4516129032258064
 40
0.4516129032258064
 40
0.4516129032258064
 40
0.4838709677419355
 40
0.4838709677419355
 40
0.4838709677419355
 40
0.4838709677419355
 40
0.5161290322580645
 40
0.5161290322580645
 40
0.5161290322580645
 40
0.5161290322580645
 40
0.5483870967741935
 40
0.5483870967741935
 40
0.5483870967741935
 40
0.5483870967741935
 40
0.5806451612903226
 40
0.5806451612903226
 40
0.5806451612903226
 40
0.5806451612903226
 40
0.6129032258064516
 40
0.6129032258064516
 40
0.6129032258064516
 40
0.6129032258064516
 40
0.6451612903225806
 40
0.6451612903225806
 40
0.6451612903225806
 40
0.6451612903225806
 40
0.6774193548387096
 40
0.6774193548387096
 40
0.6774193548387096
 40
0.6774193548387096
 40
0.7096774193548387
 40
0.7096774193548387
 40
0.7096774193548387
 40
0.7096774193548387
 40
0.7419354838709677
 40
0.7419354838709677
 40
0.7419354838709677
 40
0.7419354838709677
 40
0.7741935483870968
 40
0.7741935483870968
 40
0.7741935483870968
 40
0.7741935483870968
 40
0.8064516129032258
 40
0.8064516129032258
 40
0.8064516129032258
 40
0.8064516129032258
 40
0.8387096774193549
 40
0.8387096774193549
 40
0.8387096774193549
 40
0.8387096774193549
 40
0.8709677419354839
 40
0.8709677419354839
 40
0.8709677419354839
 40
0.8709677419354839
 40
0.9032258064516129
 40
0.9032258064516129
 40
0.9032258064516129
 40
0.9032258064516129
 40
0.9354838709677419
 40
0.9354838709677419
 40
0.9354838709677419
 40
0.9354838709677419
 40
1.0
 40
1.0
 40
1.0
 40
1.0
 10
-27.8255
 20
22.9522
 30
0.0
 10
-27.2551
 20
22.0155
 30
0.0
 10
-26.1842
 20
20.6147
 30
0.0
 10
-24.178
 20
18.6882
 30
0.0
 10
-24.178
 20
18.6882
 30
0.0
 10
-24.1772
 20
18.6887
 30
0.0
 10
-21.6159
 20
16.4689
 30
0.0
 10
-22.4055
 20
15.0855
 30
0.0
 10
-22.4055
 20
15.0855
 30
0.0
 10
-22.6852
 20
14.5892
 30
0.0
 10
-22.937
 20
14.2393
 30
0.0
 10
-23.1371
 20
13.9957
 30
0.0
 10
-23.1371
 20
13.9957
 30
0.0
 10
-24.1533
 20
12.7554
 30
0.0
 10
-22.5372
 20
12.7372
 30
0.0
 10
-21.5248
 20
13.2736
 30
0.0
 10
-21.5248
 20
13.2736
 30
0.0
 10
-21.0327
 20
13.5334
 30
0.0
 10
-20.667
 20
13.8868
 30
0.0
 10
-20.3983
 20
14.227
 30
0.0
 10
-20.3983
 20
14.227
 30
0.0
 10
-19.5857
 20
15.2677
 30
0.0
 10
-20.1075
 20
15.6842
 30
0.0
 10
-18.7521
 20
14.712
 30
0.0
 10
-18.7521
 20
14.712
 30
0.0
 10
-17.6757
 20
13.9419
 30
0.0
 10
-16.0753
 20
12.3666
 30
0.0
 10
-15.4523
 20
9.5726
 30
0.0
 10
-15.4523
 20
9.5726
 30
0.0
 10
-14.5485
 20
5.5156
 30
0.0
 10
-16.5104
 20
2.2364
 30
0.0
 10
-20.2894
 20
0.3463
 30
0.0
 10
-20.2894
 20
0.3463
 30
0.0
 10
-20.2887
 20
0.3466
 30
0.0
 10
-20.427
 20
2.2424
 30
0.0
 10
-22.2049
 20
2.7384
 30
0.0
 10
-22.2049
 20
2.7384
 30
0.0
 10
-22.2049
 20
2.7387
 30
0.0
 10
-24.2522
 20
3.0278
 30
0.0
 10
-23.1542
 20
1.9667
 30
0.0
 10
-23.1542
 20
1.9667
 30
0.0
 10
-22.0616
 20
0.906
 30
0.0
 10
-22.5026
 20
-1.1463
 30
0.0
 10
-23.8917
 20
-2.1527
 30
0.0
 10
-23.8917
 20
-2.1527
 30
0.0
 10
-24.7021
 20
-2.7401
 30
0.0
 10
-26.259
 20
-3.9034
 30
0.0
 10
-27.3685
 20
-5.6852
 30
0.0
 10
-27.3685
 20
-5.6852
 30
0.0
 10
-27.4397
 20
-5.8
 30
0.0
 10
-27.5063
 20
-5.9147
 30
0.0
 10
-27.5719
 20
-6.0217
 30
0.0
 10
-27.5719
 20
-6.0217
 30
0.0
 10
-28.7191
 20
-7.8856
 30
0.0
 10
-28.7888
 20
-7.6003
 30
0.0
 10
-29.6489
 20
-5.9163
 30
0.0
 10
-29.6489
 20
-5.9163
 30
0.0
 10
-29.6967
 20
-5.8225
 30
0.0
 10
-29.7593
 20
-5.7348
 30
0.0
 10
-29.8187
 20
-5.6405
 30
0.0
 10
-29.8187
 20
-5.6405
 30
0.0
 10
-30.9249
 20
-3.8837
 30
0.0
 10
-32.463
 20
-2.7355
 30
0.0
 10
-33.2679
 20
-2.1527
 30
0.0
 10
-33.2679
 20
-2.1527
 30
0.0
 10
-34.6567
 20
-1.1463
 30
0.0
 10
-35.1007
 20
0.9059
 30
0.0
 10
-34.0038
 20
1.9667
 30
0.0
 10
-34.0038
 20
1.9667
 30
0.0
 10
-32.9055
 20
3.0281
 30
0.0
 10
-34.954
 20
2.7384
 30
0.0
 10
-34.954
 20
2.7384
 30
0.0
 10
-34.954
 20
2.7384
 30
0.0
 10
-36.7318
 20
2.2425
 30
0.0
 10
-36.8701
 20
0.3463
 30
0.0
 10
-36.8701
 20
0.3463
 30
0.0
 10
-36.8701
 20
0.3463
 30
0.0
 10
-40.6502
 20
2.237
 30
0.0
 10
-42.608
 20
5.5155
 30
0.0
 10
-41.7058
 20
9.5726
 30
0.0
 10
-41.7058
 20
9.5726
 30
0.0
 10
-41.0831
 20
12.3674
 30
0.0
 10
-39.4806
 20
13.9415
 30
0.0
 10
-38.4074
 20
14.712
 30
0.0
 10
-38.4074
 20
14.712
 30
0.0
 10
-37.0553
 20
15.6845
 30
0.0
 10
-37.5748
 20
15.2669
 30
0.0
 10
-36.7588
 20
14.227
 30
0.0
 10
-36.7588
 20
14.227
 30
0.0
 10
-36.4917
 20
13.8872
 30
0.0
 10
-36.1247
 20
13.5334
 30
0.0
 10
-35.6348
 20
13.2736
 30
0.0
 10
-35.6348
 20
13.2736
 30
0.0
 10
-34.6224
 20
12.7372
 30
0.0
 10
-33.0024
 20
12.755
 30
0.0
 10
-34.0245
 20
13.9957
 30
0.0
 10
-34.0245
 20
13.9957
 30
0.0
 10
-34.2238
 20
14.2399
 30
0.0
 10
-34.4723
 20
14.589
 30
0.0
 10
-34.755
 20
15.0855
 30
0.0
 10
-34.755
 20
15.0855
 30
0.0
 10
-35.5419
 20
16.4691
 30
0.0
 10
-32.9833
 20
18.6882
 30
0.0
 10
-32.9833
 20
18.6882
 30
0.0
 10
-32.9833
 20
18.6882
 30
0.0
 10
-31.118
 20
20.5021
 30
0.0
 10
-30.061
 20
21.8529
 30
0.0
 10
-29.4615
 20
22.7877
 30
0.0
 10
-29.4615
 20
22.7877
 30
0.0
 10
-29.3989
 20
22.8846
 30
0.0
 10
-29.3397
 20
22.9756
 30
0.0
 10
-29.2895
 20
23.0649
 30
0.0
 10
-29.2895
 20
23.0649
 30
0.0
 10
-28.5454
 20
24.3808
 30
0.0
 10
-28.3946
 20
23.8827
 30
0.0
 10
-27.8271
 20
22.9514
 30
0.0
 10
-27.8271
 20
22.9514
 30
0.0
 10
-27.8271
 20
22.9514
 30
0.0
 10
-27.8255
 20
22.9522
 30
0.0
 10
-27.8255
 20
22.9522
 30
0.0
  0
SPLINE
  5
48
330
1F
100
AcDbEntity
  8
layer 1
 62
     7
100
AcDbSpline
210
0.0
220
0.0
230
1.0
 70
    11
 71
     3
 72
   124
 73
   120
 74
     0
 42
0.0000000001
 43
0.0000000001
 12
1.0
 22
0.0
 32
0.0
 13
1.0
 23
0.0
 33
0.0
 40
0.0
 40
0.0
 40
0.0
 40
0.0
 40
0.032258064516129
 40
0.032258064516129
 40
0.032258064516129
 40
0.032258064516129
 40
0.0645161290322581
 40
0.0645161290322581
 40
0.0645161290322581
 40
0.0645161290322581
 40
0.0967741935483871
 40
0.0967741935483871
 40
0.0967741935483871
 40
0.0967741935483871
 40
0.1290322580645161
 40
0.1290322580645161
 40
0.1290322580645161
 40
0.1290322580645161
 40
0.1612903225806452
 40
0.1612903225806452
 40
0.1612903225806452
 40
0.1612903225806452
 40
0.1935483870967742
 40
0.1935483870967742
 40
0.1935483870967742
 40
0.1935483870967742
 40
0.2258064516129032
 40
0.2258064516129032
 40
0.2258064516129032
 40
0.2258064516129032
 40
0.2580645161290323
 40
0.2580645161290323
 40
0.2580645161290323
 40
0.2580645161290323
 40
0.2903225806451613
 40
0.2903225806451613
 40
0.2903225806451613
 40
0.2903225806451613
 40
0.3225806451612903
 40
0.3225806451612903
 40
0.3225806451612903
 40
0.3225806451612903
 40
0.3548387096774194
 40
0.3548387096774194
 40
0.3548387096774194
 40
0.3548387096774194
 40
0.3870967741935484
 40
0.3870967741935484
 40
0.3870967741935484
 40
0.3870967741935484
 40
0.4193548387096774
 40
0.4193548387096774
 40
0.4193548387096774
 40
0.4193548387096774
 40
0.4516129032258064
 40
0.4516129032258064
 40
0.4516129032258064
 40
0.4516129032258064
 40
0.4838709677419355
 40
0.4838709677419355
 40
0.4838709677419355
 40
0.4838709677419355
 40
0.5161290322580645
 40
0.5161290322580645
 40
0.5161290322580645
 40
0.5161290322580645
 40
0.5483870967741935
 40
0.5483870967741935
 40
0.5483870967741935
 40
0.5483870967741935
 40
0.5806451612903226
 40
0.5806451612903226
 40
0.5806451612903226
 40
0.5806451612903226
 40
0.6129032258064516
 40
0.6129032258064516
 40
0.6129032258064516
 40
0.6129032258064516
 40
0.6451612903225806
 40
0.6451612903225806
 40
0.6451612903225806
 40
0.6451612903225806
 40
0.6774193548387096
 40
0.6774193548387096
 40
0.6774193548387096
 40
0.6774193548387096
 40
0.7096774193548387
 40
0.7096774193548387
 40
0.7096774193548387
 40
0.7096774193548387
 40
0.7419354838709677
 40
0.7419354838709677
 40
0.7419354838709677
 40
0.7419354838709677
 40
0.7741935483870968
 40
0.7741935483870968
 40
0.7741935483870968
 40
0.7741935483870968
 40
0.8064516129032258
 40
0.8064516129032258
 40
0.8064516129032258
 40
0.8064516129032258
 40
0.8387096774193549
 40
0.8387096774193549
 40
0.8387096774193549
 40
0.8387096774193549
 40
0.8709677419354839
 40
0.8709677419354839
 40
0.8709677419354839
 40
0.8709677419354839
 40
0.9032258064516129
 40
0.9032258064516129
 40
0.9032258064516129
 40
0.9032258064516129
 40
0.9354838709677419
 40
0.9354838709677419
 40
0.9354838709677419
 40
0.9354838709677419
 40
1.0
 40
1.0
 40
1.0
 40
1.0
 10
-27.8255
 20
-16.0182
 30
0.0
 10
-27.2551
 20
-16.955
 30
0.0
 10
-26.1842
 20
-18.3556
 30
0.0
 10
-24.178
 20
-20.2819
 30
0.0
 10
-24.178
 20
-20.2819
 30
0.0
 10
-24.1772
 20
-20.2817
 30
0.0
 10
-21.6159
 20
-22.5012
 30
0.0
 10
-22.4055
 20
-23.8844
 30
0.0
 10
-22.4055
 20
-23.8844
 30
0.0
 10
-22.6852
 20
-24.3811
 30
0.0
 10
-22.937
 20
-24.7305
 30
0.0
 10
-23.1371
 20
-24.9741
 30
0.0
 10
-23.1371
 20
-24.9741
 30
0.0
 10
-24.1533
 20
-26.215
 30
0.0
 10
-22.5372
 20
-26.2329
 30
0.0
 10
-21.5248
 20
-25.6968
 30
0.0
 10
-21.5248
 20
-25.6968
 30
0.0
 10
-21.0327
 20
-25.4358
 30
0.0
 10
-20.667
 20
-25.0832
 30
0.0
 10
-20.3983
 20
-24.7428
 30
0.0
 10
-20.3983
 20
-24.7428
 30
0.0
 10
-19.5857
 20
-23.7028
 30
0.0
 10
-20.1075
 20
-23.2858
 30
0.0
 10
-18.7521
 20
-24.258
 30
0.0
 10
-18.7521
 20
-24.258
 30
0.0
 10
-17.6757
 20
-25.0286
 30
0.0
 10
-16.0753
 20
-26.6034
 30
0.0
 10
-15.4523
 20
-29.3976
 30
0.0
 10
-15.4523
 20
-29.3976
 30
0.0
 10
-14.5485
 20
-33.4546
 30
0.0
 10
-16.5104
 20
-36.7334
 30
0.0
 10
-20.2894
 20
-38.6236
 30
0.0
 10
-20.2894
 20
-38.6236
 30
0.0
 10
-20.2887
 20
-38.6227
 30
0.0
 10
-20.427
 20
-36.7278
 30
0.0
 10
-22.2049
 20
-36.2317
 30
0.0
 10
-22.2049
 20
-36.2317
 30
0.0
 10
-22.2049
 20
-36.2316
 30
0.0
 10
-24.2522
 20
-35.9422
 30
0.0
 10
-23.1542
 20
-37.0032
 30
0.0
 10
-23.1542
 20
-37.0032
 30
0.0
 10
-22.0616
 20
-38.0632
 30
0.0
 10
-22.5026
 20
-40.1165
 30
0.0
 10
-23.8917
 20
-41.1227
 30
0.0
 10
-23.8917
 20
-41.1227
 30
0.0
 10
-24.7021
 20
-41.7105
 30
0.0
 10
-26.259
 20
-42.8736
 30
0.0
 10
-27.3685
 20
-44.6549
 30
0.0
 10
-27.3685
 20
-44.6549
 30
0.0
 10
-27.4397
 20
-44.7705
 30
0.0
 10
-27.5063
 20
-44.8847
 30
0.0
 10
-27.5719
 20
-44.9918
 30
0.0
 10
-27.5719
 20
-44.9918
 30
0.0
 10
-28.7191
 20
-46.856
 30
0.0
 10
-28.7888
 20
-46.5703
 30
0.0
 10
-29.6489
 20
-44.8864
 30
0.0
 10
-29.6489
 20
-44.8864
 30
0.0
 10
-29.6967
 20
-44.7929
 30
0.0
 10
-29.7593
 20
-44.7046
 30
0.0
 10
-29.8187
 20
-44.6104
 30
0.0
 10
-29.8187
 20
-44.6104
 30
0.0
 10
-30.9249
 20
-42.854
 30
0.0
 10
-32.463
 20
-41.7057
 30
0.0
 10
-33.2679
 20
-41.1227
 30
0.0
 10
-33.2679
 20
-41.1227
 30
0.0
 10
-34.6567
 20
-40.1158
 30
0.0
 10
-35.1007
 20
-38.064
 30
0.0
 10
-34.0038
 20
-37.0032
 30
0.0
 10
-34.0038
 20
-37.0032
 30
0.0
 10
-32.9055
 20
-35.9422
 30
0.0
 10
-34.954
 20
-36.2317
 30
0.0
 10
-34.954
 20
-36.2317
 30
0.0
 10
-34.954
 20
-36.2317
 30
0.0
 10
-36.7318
 20
-36.7268
 30
0.0
 10
-36.8701
 20
-38.6236
 30
0.0
 10
-36.8701
 20
-38.6236
 30
0.0
 10
-36.8701
 20
-38.6236
 30
0.0
 10
-40.6502
 20
-36.7332
 30
0.0
 10
-42.608
 20
-33.4546
 30
0.0
 10
-41.7058
 20
-29.3976
 30
0.0
 10
-41.7058
 20
-29.3976
 30
0.0
 10
-41.0831
 20
-26.603
 30
0.0
 10
-39.4806
 20
-25.0288
 30
0.0
 10
-38.4074
 20
-24.258
 30
0.0
 10
-38.4074
 20
-24.258
 30
0.0
 10
-37.0553
 20
-23.2858
 30
0.0
 10
-37.5748
 20
-23.7033
 30
0.0
 10
-36.7588
 20
-24.7428
 30
0.0
 10
-36.7588
 20
-24.7428
 30
0.0
 10
-36.4917
 20
-25.0832
 30
0.0
 10
-36.1247
 20
-25.4364
 30
0.0
 10
-35.6348
 20
-25.6968
 30
0.0
 10
-35.6348
 20
-25.6968
 30
0.0
 10
-34.6224
 20
-26.2321
 30
0.0
 10
-33.0024
 20
-26.2153
 30
0.0
 10
-34.0245
 20
-24.9741
 30
0.0
 10
-34.0245
 20
-24.9741
 30
0.0
 10
-34.2238
 20
-24.7305
 30
0.0
 10
-34.4723
 20
-24.3813
 30
0.0
 10
-34.755
 20
-23.8844
 30
0.0
 10
-34.755
 20
-23.8844
 30
0.0
 10
-35.5419
 20
-22.5012
 30
0.0
 10
-32.9833
 20
-20.2819
 30
0.0
 10
-32.9833
 20
-20.2819
 30
0.0
 10
-32.9833
 20
-20.2819
 30
0.0
 10
-31.118
 20
-18.4683
 30
0.0
 10
-30.061
 20
-17.1173
 30
0.0
 10
-29.4615
 20
-16.1824
 30
0.0
 10
-29.4615
 20
-16.1824
 30
0.0
 10
-29.3989
 20
-16.0846
 30
0.0
 10
-29.3397
 20
-15.9944
 30
0.0
 10
-29.2895
 20
-15.9056
 30
0.0
 10
-29.2895
 20
-15.9056
 30
0.0
 10
-28.5454
 20
-14.5896
 30
0.0
 10
-28.3946
 20
-15.0872
 30
0.0
 10
-27.8271
 20
-16.0186
 30
0.0
 10
-27.8271
 20
-16.0186
 30
0.0
 10
-27.8271
 20
-16.0186
 30
0.0
 10
-27.8255
 20
-16.0182
 30
0.0
 10
-27.8255
 20
-16.0182
 30
0.0
  0
SPLINE
  5
49
330
1F
100
AcDbEntity
  8
layer 1
 62
     7
100
AcDbSpline
210
0.0
220
0.0
230
1.0
 70
    11
 71
     3
 72
   104
 73
   100
 74
     0
 42
0.0000000001
 43
0.0000000001
 12
1.0
 22
0.0
 32
0.0
 13
1.0
 23
0.0
 33
0.0
 40
0.0
 40
0.0
 40
0.0
 40
0.0
 40
0.0384615384615385
 40
0.0384615384615385
 40
0.0384615384615385
 40
0.0384615384615385
 40
0.0769230769230769
 40
0.0769230769230769
 40
0.0769230769230769
 40
0.0769230769230769
 40
0.1153846153846154
 40
0.1153846153846154
 40
0.1153846153846154
 40
0.1153846153846154
 40
0.1538461538461539
 40
0.1538461538461539
 40
0.1538461538461539
 40
0.1538461538461539
 40
0.1923076923076923
 40
0.1923076923076923
 40
0.1923076923076923
 40
0.1923076923076923
 40
0.2307692307692308
 40
0.2307692307692308
 40
0.2307692307692308
 40
0.2307692307692308
 40
0.2692307692307692
 40
0.2692307692307692
 40
0.2692307692307692
 40
0.2692307692307692
 40
0.3076923076923077
 40
0.3076923076923077
 40
0.3076923076923077
 40
0.3076923076923077
 40
0.3461538461538461
 40
0.3461538461538461
 40
0.3461538461538461
 40
0.3461538461538461
 40
0.3846153846153846
 40
0.3846153846153846
 40
0.3846153846153846
 40
0.3846153846153846
 40
0.4230769230769231
 40
0.4230769230769231
 40
0.4230769230769231
 40
0.4230769230769231
 40
0.4615384615384616
 40
0.4615384615384616
 40
0.4615384615384616
 40
0.4615384615384616
 40
0.5
 40
0.5
 40
0.5
 40
0.5
 40
0.5384615384615384
 40
0.5384615384615384
 40
0.5384615384615384
 40
0.5384615384615384
 40
0.5769230769230769
 40
0.5769230769230769
 40
0.5769230769230769
 40
0.5769230769230769
 40
0.6153846153846154
 40
0.6153846153846154
 40
0.6153846153846154
 40
0.6153846153846154
 40
0.6538461538461539
 40
0.6538461538461539
 40
0.6538461538461539
 40
0.6538461538461539
 40
0.6923076923076923
 40
0.6923076923076923
 40
0.6923076923076923
 40
0.6923076923076923
 40
0.7307692307692307
 40
0.7307692307692307
 40
0.7307692307692307
 40
0.7307692307692307
 40
0.7692307692307693
 40
0.7692307692307693
 40
0.7692307692307693
 40
0.7692307692307693
 40
0.8076923076923077
 40
0.8076923076923077
 40
0.8076923076923077
 40
0.8076923076923077
 40
0.8461538461538461
 40
0.8461538461538461
 40
0.8461538461538461
 40
0.8461538461538461
 40
0.8846153846153846
 40
0.8846153846153846
 40
0.8846153846153846
 40
0.8846153846153846
 40
0.9230769230769231
 40
0.9230769230769231
 40
0.9230769230769231
 40
0.9230769230769231
 40
1.0
 40
1.0
 40
1.0
 40
1.0
 10
-31.6538
 20
62.1936
 30
0.0
 10
-32.5776
 20
60.6718
 30
0.0
 10
-33.9775
 20
59.3476
 30
0.0
 10
-35.6065
 20
58.5257
 30
0.0
 10
-35.6065
 20
58.5257
 30
0.0
 10
-37.1989
 20
57.7223
 30
0.0
 10
-38.7047
 20
58.1876
 30
0.0
 10
-39.1687
 20
58.9778
 30
0.0
 10
-39.1687
 20
58.9778
 30
0.0
 10
-39.7799
 20
60.0212
 30
0.0
 10
-40.6664
 20
59.7817
 30
0.0
 10
-40.4555
 20
58.3695
 30
0.0
 10
-40.4555
 20
58.3695
 30
0.0
 10
-40.2427
 20
56.9581
 30
0.0
 10
-39.2138
 20
56.0711
 30
0.0
 10
-39.2138
 20
56.0711
 30
0.0
 10
-39.2138
 20
56.0711
 30
0.0
 10
-41.8762
 20
53.971
 30
0.0
 10
-43.917
 20
51.1718
 30
0.0
 10
-44.3925
 20
48.1333
 30
0.0
 10
-44.3925
 20
48.1333
 30
0.0
 10
-44.3925
 20
48.1333
 30
0.0
 10
-46.5063
 20
48.1333
 30
0.0
 10
-46.5063
 20
48.1333
 30
0.0
 10
-46.5063
 20
48.1333
 30
0.0
 10
-46.9798
 20
51.1727
 30
0.0
 10
-49.0218
 20
53.9705
 30
0.0
 10
-51.6855
 20
56.0711
 30
0.0
 10
-51.6855
 20
56.0711
 30
0.0
 10
-51.685
 20
56.0718
 30
0.0
 10
-50.6566
 20
56.9573
 30
0.0
 10
-50.4452
 20
58.3695
 30
0.0
 10
-50.4452
 20
58.3695
 30
0.0
 10
-50.2316
 20
59.7822
 30
0.0
 10
-51.1189
 20
60.0206
 30
0.0
 10
-51.7315
 20
58.9778
 30
0.0
 10
-51.7315
 20
58.9778
 30
0.0
 10
-52.193
 20
58.1884
 30
0.0
 10
-53.6983
 20
57.7219
 30
0.0
 10
-55.2933
 20
58.5257
 30
0.0
 10
-55.2933
 20
58.5257
 30
0.0
 10
-56.9216
 20
59.3482
 30
0.0
 10
-58.3244
 20
60.6708
 30
0.0
 10
-59.2437
 20
62.1934
 30
0.0
 10
-59.2437
 20
62.1934
 30
0.0
 10
-61.035
 20
65.1367
 30
0.0
 10
-60.8883
 20
70.3009
 30
0.0
 10
-58.2038
 20
72.7201
 30
0.0
 10
-58.2038
 20
72.7201
 30
0.0
 10
-56.5678
 20
74.193
 30
0.0
 10
-53.7779
 20
75.5712
 30
0.0
 10
-51.7598
 20
74.0587
 30
0.0
 10
-51.7598
 20
74.0587
 30
0.0
 10
-50.2102
 20
72.8984
 30
0.0
 10
-50.7361
 20
74.6937
 30
0.0
 10
-51.1997
 20
75.2195
 30
0.0
 10
-51.1997
 20
75.2195
 30
0.0
 10
-51.655
 20
75.7461
 30
0.0
 10
-52.292
 20
76.3982
 30
0.0
 10
-52.292
 20
76.3982
 30
0.0
 10
-52.292
 20
76.3982
 30
0.0
 10
-52.2915
 20
76.3987
 30
0.0
 10
-49.5646
 20
78.1305
 30
0.0
 10
-47.7747
 20
81.0735
 30
0.0
 10
-47.7747
 20
81.0735
 30
0.0
 10
-47.0871
 20
82.2013
 30
0.0
 10
-46.6799
 20
83.3336
 30
0.0
 10
-46.5035
 20
84.4533
 30
0.0
 10
-46.5035
 20
84.4533
 30
0.0
 10
-46.5035
 20
84.4533
 30
0.0
 10
-44.3947
 20
84.4542
 30
0.0
 10
-44.3947
 20
84.4542
 30
0.0
 10
-44.3947
 20
84.4542
 30
0.0
 10
-44.217
 20
83.3341
 30
0.0
 10
-43.8096
 20
82.2005
 30
0.0
 10
-43.1245
 20
81.0735
 30
0.0
 10
-43.1245
 20
81.0735
 30
0.0
 10
-41.334
 20
78.1308
 30
0.0
 10
-38.6111
 20
76.3982
 30
0.0
 10
-38.6111
 20
76.3982
 30
0.0
 10
-38.6111
 20
76.3982
 30
0.0
 10
-38.6094
 20
76.3987
 30
0.0
 10
-39.2448
 20
75.7457
 30
0.0
 10
-39.7026
 20
75.2195
 30
0.0
 10
-39.7026
 20
75.2195
 30
0.0
 10
-40.1593
 20
74.6947
 30
0.0
 10
-40.6885
 20
72.8984
 30
0.0
 10
-39.1393
 20
74.0587
 30
0.0
 10
-39.1393
 20
74.0587
 30
0.0
 10
-37.1196
 20
75.5714
 30
0.0
 10
-34.3316
 20
74.1925
 30
0.0
 10
-32.6972
 20
72.7201
 30
0.0
 10
-32.6972
 20
72.7201
 30
0.0
 10
-30.0031
 20
70.295
 30
0.0
 10
-29.8652
 20
65.143
 30
0.0
 10
-31.6543
 20
62.1934
 30
0.0
 10
-31.6543
 20
62.1934
 30
0.0
 10
-31.6543
 20
62.1934
 30
0.0
 10
-31.6538
 20
62.1936
 30
0.0
 10
-31.6538
 20
62.1936
 30
0.0
  0
SPLINE
  5
4A
330
1F
100
AcDbEntity
  8
layer 1
 62
     7
100
AcDbSpline
210
0.0
220
0.0
230
1.0
 70
    11
 71
     3
 72
   124
 73
   120
 74
     0
 42
0.0000000001
 43
0.0000000001
 12
1.0
 22
0.0
 32
0.0
 13
1.0
 23
0.0
 33
0.0
 40
0.0
 40
0.0
 40
0.0
 40
0.0
 40
0.032258064516129
 40
0.032258064516129
 40
0.032258064516129
 40
0.032258064516129
 40
0.0645161290322581
 40
0.0645161290322581
 40
0.0645161290322581
 40
0.0645161290322581
 40
0.0967741935483871
 40
0.0967741935483871
 40
0.0967741935483871
 40
0.0967741935483871
 40
0.1290322580645161
 40
0.1290322580645161
 40
0.1290322580645161
 40
0.1290322580645161
 40
0.1612903225806452
 40
0.1612903225806452
 40
0.1612903225806452
 40
0.1612903225806452
 40
0.1935483870967742
 40
0.1935483870967742
 40
0.1935483870967742
 40
0.1935483870967742
 40
0.2258064516129032
 40
0.2258064516129032
 40
0.2258064516129032
 40
0.2258064516129032
 40
0.2580645161290323
 40
0.2580645161290323
 40
0.2580645161290323
 40
0.2580645161290323
 40
0.2903225806451613
 40
0.2903225806451613
 40
0.2903225806451613
 40
0.2903225806451613
 40
0.3225806451612903
 40
0.3225806451612903
 40
0.3225806451612903
 40
0.3225806451612903
 40
0.3548387096774194
 40
0.3548387096774194
 40
0.3548387096774194
 40
0.3548387096774194
 40
0.3870967741935484
 40
0.3870967741935484
 40
0.3870967741935484
 40
0.3870967741935484
 40
0.4193548387096774
 40
0.4193548387096774
 40
0.4193548387096774
 40
0.4193548387096774
 40
0.4516129032258064
 40
0.4516129032258064
 40
0.4516129032258064
 40
0.4516129032258064
 40
0.4838709677419355
 40
0.4838709677419355
 40
0.4838709677419355
 40
0.4838709677419355
 40
0.5161290322580645
 40
0.5161290322580645
 40
0.5161290322580645
 40
0.5161290322580645
 40
0.5483870967741935
 40
0.5483870967741935
 40
0.5483870967741935
 40
0.5483870967741935
 40
0.5806451612903226
 40
0.5806451612903226
 40
0.5806451612903226
 40
0.5806451612903226
 40
0.6129032258064516
 40
0.6129032258064516
 40
0.6129032258064516
 40
0.6129032258064516
 40
0.6451612903225806
 40
0.6451612903225806
 40
0.6451612903225806
 40
0.6451612903225806
 40
0.6774193548387096
 40
0.6774193548387096
 40
0.6774193548387096
 40
0.6774193548387096
 40
0.7096774193548387
 40
0.7096774193548387
 40
0.7096774193548387
 40
0.7096774193548387
 40
0.7419354838709677
 40
0.7419354838709677
 40
0.7419354838709677
 40
0.7419354838709677
 40
0.7741935483870968
 40
0.7741935483870968
 40
0.7741935483870968
 40
0.7741935483870968
 40
0.8064516129032258
 40
0.8064516129032258
 40
0.8064516129032258
 40
0.8064516129032258
 40
0.8387096774193549
 40
0.8387096774193549
 40
0.8387096774193549
 40
0.8387096774193549
 40
0.8709677419354839
 40
0.8709677419354839
 40
0.8709677419354839
 40
0.8709677419354839
 40
0.9032258064516129
 40
0.9032258064516129
 40
0.9032258064516129
 40
0.9032258064516129
 40
0.9354838709677419
 40
0.9354838709677419
 40
0.9354838709677419
 40
0.9354838709677419
 40
1.0
 40
1.0
 40
1.0
 40
1.0
 10
-27.8255
 20
100.895
 30
0.0
 10
-27.2551
 20
99.9583
 30
0.0
 10
-26.1842
 20
98.5574
 30
0.0
 10
-24.178
 20
96.6311
 30
0.0
 10
-24.178
 20
96.6311
 30
0.0
 10
-24.1772
 20
96.6315
 30
0.0
 10
-21.6159
 20
94.4118
 30
0.0
 10
-22.4055
 20
93.0287
 30
0.0
 10
-22.4055
 20
93.0287
 30
0.0
 10
-22.6852
 20
92.5321
 30
0.0
 10
-22.937
 20
92.1825
 30
0.0
 10
-23.1371
 20
91.9392
 30
0.0
 10
-23.1371
 20
91.9392
 30
0.0
 10
-24.1533
 20
90.6982
 30
0.0
 10
-22.5372
 20
90.6802
 30
0.0
 10
-21.5248
 20
91.2166
 30
0.0
 10
-21.5248
 20
91.2166
 30
0.0
 10
-21.0327
 20
91.4774
 30
0.0
 10
-20.667
 20
91.8301
 30
0.0
 10
-20.3983
 20
92.1702
 30
0.0
 10
-20.3983
 20
92.1702
 30
0.0
 10
-19.5857
 20
93.2104
 30
0.0
 10
-20.1075
 20
93.6273
 30
0.0
 10
-18.7521
 20
92.6552
 30
0.0
 10
-18.7521
 20
92.6552
 30
0.0
 10
-17.6757
 20
91.8847
 30
0.0
 10
-16.0753
 20
90.3095
 30
0.0
 10
-15.4523
 20
87.5157
 30
0.0
 10
-15.4523
 20
87.5157
 30
0.0
 10
-14.5485
 20
83.4584
 30
0.0
 10
-16.5104
 20
80.1796
 30
0.0
 10
-20.2894
 20
78.2894
 30
0.0
 10
-20.2894
 20
78.2894
 30
0.0
 10
-20.2887
 20
78.2905
 30
0.0
 10
-20.427
 20
80.1853
 30
0.0
 10
-22.2049
 20
80.6813
 30
0.0
 10
-22.2049
 20
80.6813
 30
0.0
 10
-22.2049
 20
80.6816
 30
0.0
 10
-24.2522
 20
80.9708
 30
0.0
 10
-23.1542
 20
79.9098
 30
0.0
 10
-23.1542
 20
79.9098
 30
0.0
 10
-22.0616
 20
78.85
 30
0.0
 10
-22.5026
 20
76.7965
 30
0.0
 10
-23.8917
 20
75.7901
 30
0.0
 10
-23.8917
 20
75.7901
 30
0.0
 10
-24.7021
 20
75.2027
 30
0.0
 10
-26.259
 20
74.0392
 30
0.0
 10
-27.3685
 20
72.2578
 30
0.0
 10
-27.3685
 20
72.2578
 30
0.0
 10
-27.4397
 20
72.1428
 30
0.0
 10
-27.5063
 20
72.0285
 30
0.0
 10
-27.5719
 20
71.9212
 30
0.0
 10
-27.5719
 20
71.9212
 30
0.0
 10
-28.7191
 20
70.0571
 30
0.0
 10
-28.7888
 20
70.3426
 30
0.0
 10
-29.6489
 20
72.0265
 30
0.0
 10
-29.6489
 20
72.0265
 30
0.0
 10
-29.6967
 20
72.1203
 30
0.0
 10
-29.7593
 20
72.2083
 30
0.0
 10
-29.8187
 20
72.3026
 30
0.0
 10
-29.8187
 20
72.3026
 30
0.0
 10
-30.9249
 20
74.0591
 30
0.0
 10
-32.463
 20
75.2075
 30
0.0
 10
-33.2679
 20
75.7901
 30
0.0
 10
-33.2679
 20
75.7901
 30
0.0
 10
-34.6567
 20
76.7974
 30
0.0
 10
-35.1007
 20
78.8491
 30
0.0
 10
-34.0038
 20
79.9098
 30
0.0
 10
-34.0038
 20
79.9098
 30
0.0
 10
-32.9055
 20
80.9709
 30
0.0
 10
-34.954
 20
80.6813
 30
0.0
 10
-34.954
 20
80.6813
 30
0.0
 10
-34.954
 20
80.6813
 30
0.0
 10
-36.7318
 20
80.1853
 30
0.0
 10
-36.8701
 20
78.2894
 30
0.0
 10
-36.8701
 20
78.2894
 30
0.0
 10
-36.8701
 20
78.2894
 30
0.0
 10
-40.6502
 20
80.18
 30
0.0
 10
-42.608
 20
83.4583
 30
0.0
 10
-41.7058
 20
87.5157
 30
0.0
 10
-41.7058
 20
87.5157
 30
0.0
 10
-41.0831
 20
90.3102
 30
0.0
 10
-39.4806
 20
91.8842
 30
0.0
 10
-38.4074
 20
92.6552
 30
0.0
 10
-38.4074
 20
92.6552
 30
0.0
 10
-37.0553
 20
93.6274
 30
0.0
 10
-37.5748
 20
93.2095
 30
0.0
 10
-36.7588
 20
92.1702
 30
0.0
 10
-36.7588
 20
92.1702
 30
0.0
 10
-36.4917
 20
91.8301
 30
0.0
 10
-36.1247
 20
91.4765
 30
0.0
 10
-35.6348
 20
91.2166
 30
0.0
 10
-35.6348
 20
91.2166
 30
0.0
 10
-34.6224
 20
90.6811
 30
0.0
 10
-33.0024
 20
90.6976
 30
0.0
 10
-34.0245
 20
91.9392
 30
0.0
 10
-34.0245
 20
91.9392
 30
0.0
 10
-34.2238
 20
92.1825
 30
0.0
 10
-34.4723
 20
92.5314
 30
0.0
 10
-34.755
 20
93.0287
 30
0.0
 10
-34.755
 20
93.0287
 30
0.0
 10
-35.5419
 20
94.4119
 30
0.0
 10
-32.9833
 20
96.6311
 30
0.0
 10
-32.9833
 20
96.6311
 30
0.0
 10
-32.9833
 20
96.6311
 30
0.0
 10
-31.118
 20
98.4449
 30
0.0
 10
-30.061
 20
99.7957
 30
0.0
 10
-29.4615
 20
100.731
 30
0.0
 10
-29.4615
 20
100.731
 30
0.0
 10
-29.3989
 20
100.8286
 30
0.0
 10
-29.3397
 20
100.9187
 30
0.0
 10
-29.2895
 20
101.0079
 30
0.0
 10
-29.2895
 20
101.0079
 30
0.0
 10
-28.5454
 20
102.3236
 30
0.0
 10
-28.3946
 20
101.8257
 30
0.0
 10
-27.8271
 20
100.8942
 30
0.0
 10
-27.8271
 20
100.8942
 30
0.0
 10
-27.8271
 20
100.8942
 30
0.0
 10
-27.8255
 20
100.895
 30
0.0
 10
-27.8255
 20
100.895
 30
0.0
  0
SPLINE
  5
4B
330
1F
100
AcDbEntity
  8
layer 1
 62
     7
100
AcDbSpline
210
0.0
220
0.0
230
1.0
 70
    11
 71
     3
 72
   124
 73
   120
 74
     0
 42
0.0000000001
 43
0.0000000001
 12
1.0
 22
0.0
 32
0.0
 13
1.0
 23
0.0
 33
0.0
 40
0.0
 40
0.0
 40
0.0
 40
0.0
 40
0.032258064516129
 40
0.032258064516129
 40
0.032258064516129
 40
0.032258064516129
 40
0.0645161290322581
 40
0.0645161290322581
 40
0.0645161290322581
 40
0.0645161290322581
 40
0.0967741935483871
 40
0.0967741935483871
 40
0.0967741935483871
 40
0.0967741935483871
 40
0.1290322580645161
 40
0.1290322580645161
 40
0.1290322580645161
 40
0.1290322580645161
 40
0.1612903225806452
 40
0.1612903225806452
 40
0.1612903225806452
 40
0.1612903225806452
 40
0.1935483870967742
 40
0.1935483870967742
 40
0.1935483870967742
 40
0.1935483870967742
 40
0.2258064516129032
 40
0.2258064516129032
 40
0.2258064516129032
 40
0.2258064516129032
 40
0.2580645161290323
 40
0.2580645161290323
 40
0.2580645161290323
 40
0.2580645161290323
 40
0.2903225806451613
 40
0.2903225806451613
 40
0.2903225806451613
 40
0.2903225806451613
 40
0.3225806451612903
 40
0.3225806451612903
 40
0.3225806451612903
 40
0.3225806451612903
 40
0.3548387096774194
 40
0.3548387096774194
 40
0.3548387096774194
 40
0.3548387096774194
 40
0.3870967741935484
 40
0.3870967741935484
 40
0.3870967741935484
 40
0.3870967741935484
 40
0.4193548387096774
 40
0.4193548387096774
 40
0.4193548387096774
 40
0.4193548387096774
 40
0.4516129032258064
 40
0.4516129032258064
 40
0.4516129032258064
 40
0.4516129032258064
 40
0.4838709677419355
 40
0.4838709677419355
 40
0.4838709677419355
 40
0.4838709677419355
 40
0.5161290322580645
 40
0.5161290322580645
 40
0.5161290322580645
 40
0.5161290322580645
 40
0.5483870967741935
 40
0.5483870967741935
 40
0.5483870967741935
 40
0.5483870967741935
 40
0.5806451612903226
 40
0.5806451612903226
 40
0.5806451612903226
 40
0.5806451612903226
 40
0.6129032258064516
 40
0.6129032258064516
 40
0.6129032258064516
 40
0.6129032258064516
 40
0.6451612903225806
 40
0.6451612903225806
 40
0.6451612903225806
 40
0.6451612903225806
 40
0.6774193548387096
 40
0.6774193548387096
 40
0.6774193548387096
 40
0.6774193548387096
 40
0.7096774193548387
 40
0.7096774193548387
 40
0.7096774193548387
 40
0.7096774193548387
 40
0.7419354838709677
 40
0.7419354838709677
 40
0.7419354838709677
 40
0.7419354838709677
 40
0.7741935483870968
 40
0.7741935483870968
 40
0.7741935483870968
 40
0.7741935483870968
 40
0.8064516129032258
 40
0.8064516129032258
 40
0.8064516129032258
 40
0.8064516129032258
 40
0.8387096774193549
 40
0.8387096774193549
 40
0.8387096774193549
 40
0.8387096774193549
 40
0.8709677419354839
 40
0.8709677419354839
 40
0.8709677419354839
 40
0.8709677419354839
 40
0.9032258064516129
 40
0.9032258064516129
 40
0.9032258064516129
 40
0.9032258064516129
 40
0.9354838709677419
 40
0.9354838709677419
 40
0.9354838709677419
 40
0.9354838709677419
 40
1.0
 40
1.0
 40
1.0
 40
1.0
 10
-27.8255
 20
61.9246
 30
0.0
 10
-27.2551
 20
60.989
 30
0.0
 10
-26.1842
 20
59.5877
 30
0.0
 10
-24.178
 20
57.6613
 30
0.0
 10
-24.178
 20
57.6613
 30
0.0
 10
-24.1772
 20
57.6622
 30
0.0
 10
-21.6159
 20
55.4416
 30
0.0
 10
-22.4055
 20
54.0588
 30
0.0
 10
-22.4055
 20
54.0588
 30
0.0
 10
-22.6852
 20
53.5616
 30
0.0
 10
-22.937
 20
53.2122
 30
0.0
 10
-23.1371
 20
52.9688
 30
0.0
 10
-23.1371
 20
52.9688
 30
0.0
 10
-24.1533
 20
51.7279
 30
0.0
 10
-22.5372
 20
51.7103
 30
0.0
 10
-21.5248
 20
52.2463
 30
0.0
 10
-21.5248
 20
52.2463
 30
0.0
 10
-21.0327
 20
52.507
 30
0.0
 10
-20.667
 20
52.8597
 30
0.0
 10
-20.3983
 20
53.1997
 30
0.0
 10
-20.3983
 20
53.1997
 30
0.0
 10
-19.5857
 20
54.2402
 30
0.0
 10
-20.1075
 20
54.6572
 30
0.0
 10
-18.7521
 20
53.6854
 30
0.0
 10
-18.7521
 20
53.6854
 30
0.0
 10
-17.6757
 20
52.9144
 30
0.0
 10
-16.0753
 20
51.3397
 30
0.0
 10
-15.4523
 20
48.5456
 30
0.0
 10
-15.4523
 20
48.5456
 30
0.0
 10
-14.5485
 20
44.4893
 30
0.0
 10
-16.5104
 20
41.2095
 30
0.0
 10
-20.2894
 20
39.3193
 30
0.0
 10
-20.2894
 20
39.3193
 30
0.0
 10
-20.2887
 20
39.3201
 30
0.0
 10
-20.427
 20
41.2154
 30
0.0
 10
-22.2049
 20
41.7114
 30
0.0
 10
-22.2049
 20
41.7114
 30
0.0
 10
-22.2049
 20
41.7123
 30
0.0
 10
-24.2522
 20
42.0006
 30
0.0
 10
-23.1542
 20
40.9398
 30
0.0
 10
-23.1542
 20
40.9398
 30
0.0
 10
-22.0616
 20
39.8795
 30
0.0
 10
-22.5026
 20
37.8266
 30
0.0
 10
-23.8917
 20
36.8207
 30
0.0
 10
-23.8917
 20
36.8207
 30
0.0
 10
-24.7021
 20
36.2323
 30
0.0
 10
-26.259
 20
35.0696
 30
0.0
 10
-27.3685
 20
33.2881
 30
0.0
 10
-27.3685
 20
33.2881
 30
0.0
 10
-27.4397
 20
33.1725
 30
0.0
 10
-27.5063
 20
33.0584
 30
0.0
 10
-27.5719
 20
32.9513
 30
0.0
 10
-27.5719
 20
32.9513
 30
0.0
 10
-28.7191
 20
31.0869
 30
0.0
 10
-28.7888
 20
31.3724
 30
0.0
 10
-29.6489
 20
33.0567
 30
0.0
 10
-29.6489
 20
33.0567
 30
0.0
 10
-29.6967
 20
33.1501
 30
0.0
 10
-29.7593
 20
33.2385
 30
0.0
 10
-29.8187
 20
33.3325
 30
0.0
 10
-29.8187
 20
33.3325
 30
0.0
 10
-30.9249
 20
35.0888
 30
0.0
 10
-32.463
 20
36.2376
 30
0.0
 10
-33.2679
 20
36.8207
 30
0.0
 10
-33.2679
 20
36.8207
 30
0.0
 10
-34.6567
 20
37.8272
 30
0.0
 10
-35.1007
 20
39.8791
 30
0.0
 10
-34.0038
 20
40.9398
 30
0.0
 10
-34.0038
 20
40.9398
 30
0.0
 10
-32.9055
 20
42.0006
 30
0.0
 10
-34.954
 20
41.7114
 30
0.0
 10
-34.954
 20
41.7114
 30
0.0
 10
-34.954
 20
41.7114
 30
0.0
 10
-36.7318
 20
41.216
 30
0.0
 10
-36.8701
 20
39.3193
 30
0.0
 10
-36.8701
 20
39.3193
 30
0.0
 10
-36.8701
 20
39.3193
 30
0.0
 10
-40.6502
 20
41.2096
 30
0.0
 10
-42.608
 20
44.4887
 30
0.0
 10
-41.7058
 20
48.5456
 30
0.0
 10
-41.7058
 20
48.5456
 30
0.0
 10
-41.0831
 20
51.34
 30
0.0
 10
-39.4806
 20
52.9142
 30
0.0
 10
-38.4074
 20
53.6854
 30
0.0
 10
-38.4074
 20
53.6854
 30
0.0
 10
-37.0553
 20
54.6581
 30
0.0
 10
-37.5748
 20
54.2399
 30
0.0
 10
-36.7588
 20
53.1997
 30
0.0
 10
-36.7588
 20
53.1997
 30
0.0
 10
-36.4917
 20
52.8607
 30
0.0
 10
-36.1247
 20
52.5065
 30
0.0
 10
-35.6348
 20
52.2463
 30
0.0
 10
-35.6348
 20
52.2463
 30
0.0
 10
-34.6224
 20
51.7107
 30
0.0
 10
-33.0024
 20
51.7279
 30
0.0
 10
-34.0245
 20
52.9688
 30
0.0
 10
-34.0245
 20
52.9688
 30
0.0
 10
-34.2238
 20
53.2123
 30
0.0
 10
-34.4723
 20
53.5615
 30
0.0
 10
-34.755
 20
54.0588
 30
0.0
 10
-34.755
 20
54.0588
 30
0.0
 10
-35.5419
 20
55.4416
 30
0.0
 10
-32.9833
 20
57.6613
 30
0.0
 10
-32.9833
 20
57.6613
 30
0.0
 10
-32.9833
 20
57.6613
 30
0.0
 10
-31.118
 20
59.4747
 30
0.0
 10
-30.061
 20
60.8255
 30
0.0
 10
-29.4615
 20
61.7605
 30
0.0
 10
-29.4615
 20
61.7605
 30
0.0
 10
-29.3989
 20
61.8581
 30
0.0
 10
-29.3397
 20
61.9486
 30
0.0
 10
-29.2895
 20
62.0379
 30
0.0
 10
-29.2895
 20
62.0379
 30
0.0
 10
-28.5454
 20
63.3532
 30
0.0
 10
-28.3946
 20
62.8557
 30
0.0
 10
-27.8271
 20
61.9245
 30
0.0
 10
-27.8271
 20
61.9245
 30
0.0
 10
-27.8271
 20
61.9245
 30
0.0
 10
-27.8255
 20
61.9246
 30
0.0
 10
-27.8255
 20
61.9246
 30
0.0
  0
SPLINE
  5
4C
330
1F
100
AcDbEntity
  8
layer 1
 62
     7
100
AcDbSpline
210
0.0
220
0.0
230
1.0
 70
    11
 71
     3
 72
   104
 73
   100
 74
     0
 42
0.0000000001
 43
0.0000000001
 12
1.0
 22
0.0
 32
0.0
 13
1.0
 23
0.0
 33
0.0
 40
0.0
 40
0.0
 40
0.0
 40
0.0
 40
0.0384615384615385
 40
0.0384615384615385
 40
0.0384615384615385
 40
0.0384615384615385
 40
0.0769230769230769
 40
0.0769230769230769
 40
0.0769230769230769
 40
0.0769230769230769
 40
0.1153846153846154
 40
0.1153846153846154
 40
0.1153846153846154
 40
0.1153846153846154
 40
0.1538461538461539
 40
0.1538461538461539
 40
0.1538461538461539
 40
0.1538461538461539
 40
0.1923076923076923
 40
0.1923076923076923
 40
0.1923076923076923
 40
0.1923076923076923
 40
0.2307692307692308
 40
0.2307692307692308
 40
0.2307692307692308
 40
0.2307692307692308
 40
0.2692307692307692
 40
0.2692307692307692
 40
0.2692307692307692
 40
0.2692307692307692
 40
0.3076923076923077
 40
0.3076923076923077
 40
0.3076923076923077
 40
0.3076923076923077
 40
0.3461538461538461
 40
0.3461538461538461
 40
0.3461538461538461
 40
0.3461538461538461
 40
0.3846153846153846
 40
0.3846153846153846
 40
0.3846153846153846
 40
0.3846153846153846
 40
0.4230769230769231
 40
0.4230769230769231
 40
0.4230769230769231
 40
0.4230769230769231
 40
0.4615384615384616
 40
0.4615384615384616
 40
0.4615384615384616
 40
0.4615384615384616
 40
0.5
 40
0.5
 40
0.5
 40
0.5
 40
0.5384615384615384
 40
0.5384615384615384
 40
0.5384615384615384
 40
0.5384615384615384
 40
0.5769230769230769
 40
0.5769230769230769
 40
0.5769230769230769
 40
0.5769230769230769
 40
0.6153846153846154
 40
0.6153846153846154
 40
0.6153846153846154
 40
0.6153846153846154
 40
0.6538461538461539
 40
0.6538461538461539
 40
0.6538461538461539
 40
0.6538461538461539
 40
0.6923076923076923
 40
0.6923076923076923
 40
0.6923076923076923
 40
0.6923076923076923
 40
0.7307692307692307
 40
0.7307692307692307
 40
0.7307692307692307
 40
0.7307692307692307
 40
0.7692307692307693
 40
0.7692307692307693
 40
0.7692307692307693
 40
0.7692307692307693
 40
0.8076923076923077
 40
0.8076923076923077
 40
0.8076923076923077
 40
0.8076923076923077
 40
0.8461538461538461
 40
0.8461538461538461
 40
0.8461538461538461
 40
0.8461538461538461
 40
0.8846153846153846
 40
0.8846153846153846
 40
0.8846153846153846
 40
0.8846153846153846
 40
0.9230769230769231
 40
0.9230769230769231
 40
0.9230769230769231
 40
0.9230769230769231
 40
1.0
 40
1.0
 40
1.0
 40
1.0
 10
9.412
 20
33.7512
 30
0.0
 10
11.0474
 20
35.2228
 30
0.0
 10
13.8381
 20
36.6012
 30
0.0
 10
15.8561
 20
35.0888
 30
0.0
 10
15.8561
 20
35.0888
 30
0.0
 10
17.4074
 20
33.9291
 30
0.0
 10
16.8799
 20
35.7235
 30
0.0
 10
16.4163
 20
36.2494
 30
0.0
 10
16.4163
 20
36.2494
 30
0.0
 10
15.9604
 20
36.7757
 30
0.0
 10
15.3239
 20
37.4282
 30
0.0
 10
15.3239
 20
37.4282
 30
0.0
 10
15.3239
 20
37.4282
 30
0.0
 10
15.3258
 20
37.4284
 30
0.0
 10
18.0515
 20
39.1603
 30
0.0
 10
19.8416
 20
42.1031
 30
0.0
 10
19.8416
 20
42.1031
 30
0.0
 10
20.5284
 20
43.231
 30
0.0
 10
20.9364
 20
44.3639
 30
0.0
 10
21.1125
 20
45.4833
 30
0.0
 10
21.1125
 20
45.4833
 30
0.0
 10
21.1125
 20
45.4833
 30
0.0
 10
23.2226
 20
45.4839
 30
0.0
 10
23.2226
 20
45.4839
 30
0.0
 10
23.2226
 20
45.4839
 30
0.0
 10
23.3985
 20
44.365
 30
0.0
 10
23.8065
 20
43.2301
 30
0.0
 10
24.4918
 20
42.1031
 30
0.0
 10
24.4918
 20
42.1031
 30
0.0
 10
26.2815
 20
39.1603
 30
0.0
 10
29.0055
 20
37.4282
 30
0.0
 10
29.0055
 20
37.4282
 30
0.0
 10
29.0055
 20
37.4282
 30
0.0
 10
29.006
 20
37.4284
 30
0.0
 10
28.3714
 20
36.7752
 30
0.0
 10
27.9132
 20
36.2494
 30
0.0
 10
27.9132
 20
36.2494
 30
0.0
 10
27.4562
 20
35.7243
 30
0.0
 10
26.927
 20
33.9283
 30
0.0
 10
28.4773
 20
35.0888
 30
0.0
 10
28.4773
 20
35.0888
 30
0.0
 10
30.4978
 20
36.6012
 30
0.0
 10
33.2847
 20
35.2226
 30
0.0
 10
34.9188
 20
33.7502
 30
0.0
 10
34.9188
 20
33.7502
 30
0.0
 10
37.612
 20
31.3258
 30
0.0
 10
37.7503
 20
26.17
 30
0.0
 10
35.9615
 20
23.2204
 30
0.0
 10
35.9615
 20
23.2204
 30
0.0
 10
35.0401
 20
21.6981
 30
0.0
 10
33.6382
 20
20.3752
 30
0.0
 10
32.0098
 20
19.5528
 30
0.0
 10
32.0098
 20
19.5528
 30
0.0
 10
30.4184
 20
18.7497
 30
0.0
 10
28.9109
 20
19.2147
 30
0.0
 10
28.4478
 20
20.0048
 30
0.0
 10
28.4478
 20
20.0048
 30
0.0
 10
27.8377
 20
21.0486
 30
0.0
 10
26.9494
 20
20.8088
 30
0.0
 10
27.1605
 20
19.3966
 30
0.0
 10
27.1605
 20
19.3966
 30
0.0
 10
27.3725
 20
17.9846
 30
0.0
 10
28.402
 20
17.0982
 30
0.0
 10
28.402
 20
17.0982
 30
0.0
 10
28.402
 20
17.0982
 30
0.0
 10
25.7392
 20
14.9975
 30
0.0
 10
23.6991
 20
12.1988
 30
0.0
 10
23.2238
 20
9.1603
 30
0.0
 10
23.2238
 20
9.1603
 30
0.0
 10
23.2238
 20
9.1603
 30
0.0
 10
21.1113
 20
9.1608
 30
0.0
 10
21.1113
 20
9.1608
 30
0.0
 10
21.1113
 20
9.1608
 30
0.0
 10
20.6355
 20
12.1991
 30
0.0
 10
18.5937
 20
14.9974
 30
0.0
 10
15.9301
 20
17.0982
 30
0.0
 10
15.9301
 20
17.0982
 30
0.0
 10
15.9305
 20
17.0982
 30
0.0
 10
16.9596
 20
17.9843
 30
0.0
 10
17.1708
 20
19.3966
 30
0.0
 10
17.1708
 20
19.3966
 30
0.0
 10
17.3837
 20
20.8096
 30
0.0
 10
16.497
 20
21.0477
 30
0.0
 10
15.8843
 20
20.0048
 30
0.0
 10
15.8843
 20
20.0048
 30
0.0
 10
15.4225
 20
19.2149
 30
0.0
 10
13.9178
 20
18.7489
 30
0.0
 10
12.3228
 20
19.5528
 30
0.0
 10
12.3228
 20
19.5528
 30
0.0
 10
10.6937
 20
20.3757
 30
0.0
 10
9.2919
 20
21.6979
 30
0.0
 10
8.3718
 20
23.2204
 30
0.0
 10
8.3718
 20
23.2204
 30
0.0
 10
6.5803
 20
26.1642
 30
0.0
 10
6.7283
 20
31.3314
 30
0.0
 10
9.412
 20
33.7502
 30
0.0
 10
9.412
 20
33.7502
 30
0.0
 10
9.412
 20
33.7502
 30
0.0
 10
9.412
 20
33.7512
 30
0.0
 10
9.412
 20
33.7512
 30
0.0
  0
SPLINE
  5
4D
330
1F
100
AcDbEntity
  8
layer 1
 62
     7
100
AcDbSpline
210
0.0
220
0.0
230
1.0
 70
    11
 71
     3
 72
   100
 73
    96
 74
     0
 42
0.0000000001
 43
0.0000000001
 12
1.0
 22
0.0
 32
0.0
 13
1.0
 23
0.0
 33
0.0
 40
0.0
 40
0.0
 40
0.0
 40
0.0
 40
0.04
 40
0.04
 40
0.04
 40
0.04
 40
0.08
 40
0.08
 40
0.08
 40
0.08
 40
0.12
 40
0.12
 40
0.12
 40
0.12
 40
0.16
 40
0.16
 40
0.16
 40
0.16
 40
0.2
 40
0.2
 40
0.2
 40
0.2
 40
0.24
 40
0.24
 40
0.24
 40
0.24
 40
0.28
 40
0.28
 40
0.28
 40
0.28
 40
0.32
 40
0.32
 40
0.32
 40
0.32
 40
0.36
 40
0.36
 40
0.36
 40
0.36
 40
0.4
 40
0.4
 40
0.4
 40
0.4
 40
0.44
 40
0.44
 40
0.44
 40
0.44
 40
0.48
 40
0.48
 40
0.48
 40
0.48
 40
0.52
 40
0.52
 40
0.52
 40
0.52
 40
0.56
 40
0.56
 40
0.56
 40
0.56
 40
0.6
 40
0.6
 40
0.6
 40
0.6
 40
0.64
 40
0.64
 40
0.64
 40
0.64
 40
0.68
 40
0.68
 40
0.68
 40
0.68
 40
0.72
 40
0.72
 40
0.72
 40
0.72
 40
0.76
 40
0.76
 40
0.76
 40
0.76
 40
0.8
 40
0.8
 40
0.8
 40
0.8
 40
0.84
 40
0.84
 40
0.84
 40
0.84
 40
0.88
 40
0.88
 40
0.88
 40
0.88
 40
0.92
 40
0.92
 40
0.92
 40
0.92
 40
1.0
 40
1.0
 40
1.0
 40
1.0
 10
35.9617
 20
-54.7227
 30
0.0
 10
35.0401
 20
-56.2446
 30
0.0
 10
33.6382
 20
-57.5681
 30
0.0
 10
32.0098
 20
-58.3904
 30
0.0
 10
32.0098
 20
-58.3904
 30
0.0
 10
30.4184
 20
-59.194
 30
0.0
 10
28.9109
 20
-58.7283
 30
0.0
 10
28.4478
 20
-57.9384
 30
0.0
 10
28.4478
 20
-57.9384
 30
0.0
 10
27.8377
 20
-56.8951
 30
0.0
 10
26.9494
 20
-57.1344
 30
0.0
 10
27.1605
 20
-58.5464
 30
0.0
 10
27.1605
 20
-58.5464
 30
0.0
 10
27.3725
 20
-59.9584
 30
0.0
 10
28.402
 20
-60.8446
 30
0.0
 10
28.402
 20
-60.8446
 30
0.0
 10
28.402
 20
-60.8446
 30
0.0
 10
25.7392
 20
-62.9453
 30
0.0
 10
23.6991
 20
-65.7443
 30
0.0
 10
23.2238
 20
-68.7829
 30
0.0
 10
23.2238
 20
-68.7829
 30
0.0
 10
23.2238
 20
-68.7829
 30
0.0
 10
21.1113
 20
-68.7821
 30
0.0
 10
21.1113
 20
-68.7821
 30
0.0
 10
21.1113
 20
-68.7821
 30
0.0
 10
20.6355
 20
-65.7436
 30
0.0
 10
18.5937
 20
-62.9457
 30
0.0
 10
15.9301
 20
-60.8446
 30
0.0
 10
15.9301
 20
-60.8446
 30
0.0
 10
15.9305
 20
-60.8446
 30
0.0
 10
16.9596
 20
-59.9588
 30
0.0
 10
17.1708
 20
-58.5464
 30
0.0
 10
17.1708
 20
-58.5464
 30
0.0
 10
17.3837
 20
-57.1341
 30
0.0
 10
16.497
 20
-56.8951
 30
0.0
 10
15.8843
 20
-57.9384
 30
0.0
 10
15.8843
 20
-57.9384
 30
0.0
 10
15.4225
 20
-58.728
 30
0.0
 10
13.9178
 20
-59.1941
 30
0.0
 10
12.3228
 20
-58.3904
 30
0.0
 10
12.3228
 20
-58.3904
 30
0.0
 10
10.6937
 20
-57.5671
 30
0.0
 10
9.2919
 20
-56.2451
 30
0.0
 10
8.3718
 20
-54.7228
 30
0.0
 10
8.3718
 20
-54.7228
 30
0.0
 10
6.5803
 20
-51.7798
 30
0.0
 10
6.728
 20
-46.6118
 30
0.0
 10
9.412
 20
-44.1926
 30
0.0
 10
9.412
 20
-44.1926
 30
0.0
 10
11.0474
 20
-42.7201
 30
0.0
 10
13.8381
 20
-41.3419
 30
0.0
 10
15.8561
 20
-42.8541
 30
0.0
 10
15.8561
 20
-42.8541
 30
0.0
 10
17.4074
 20
-44.0148
 30
0.0
 10
16.8799
 20
-42.2194
 30
0.0
 10
16.4163
 20
-41.6934
 30
0.0
 10
16.4163
 20
-41.6934
 30
0.0
 10
15.9604
 20
-41.1672
 30
0.0
 10
15.3239
 20
-40.5147
 30
0.0
 10
15.3239
 20
-40.5147
 30
0.0
 10
15.3239
 20
-40.5147
 30
0.0
 10
15.3258
 20
-40.5144
 30
0.0
 10
18.0515
 20
-38.7824
 30
0.0
 10
19.8416
 20
-35.8396
 30
0.0
 10
19.8416
 20
-35.8396
 30
0.0
 10
20.5284
 20
-34.713
 30
0.0
 10
20.9364
 20
-33.5791
 30
0.0
 10
21.1125
 20
-32.4596
 30
0.0
 10
21.1125
 20
-32.4596
 30
0.0
 10
21.1125
 20
-32.4596
 30
0.0
 10
23.2226
 20
-32.459
 30
0.0
 10
23.2226
 20
-32.459
 30
0.0
 10
23.2226
 20
-32.459
 30
0.0
 10
23.3985
 20
-33.579
 30
0.0
 10
23.8065
 20
-34.713
 30
0.0
 10
24.4918
 20
-35.8396
 30
0.0
 10
24.4918
 20
-35.8396
 30
0.0
 10
26.2815
 20
-38.7814
 30
0.0
 10
29.0055
 20
-40.5147
 30
0.0
 10
29.0055
 20
-40.5147
 30
0.0
 10
29.0055
 20
-40.5147
 30
0.0
 10
29.006
 20
-40.5144
 30
0.0
 10
28.3714
 20
-41.1677
 30
0.0
 10
27.9132
 20
-41.6934
 30
0.0
 10
27.9132
 20
-41.6934
 30
0.0
 10
27.4562
 20
-42.2185
 30
0.0
 10
26.927
 20
-44.0148
 30
0.0
 10
28.4773
 20
-42.8541
 30
0.0
 10
28.4773
 20
-42.8541
 30
0.0
 10
30.4978
 20
-41.3418
 30
0.0
 10
33.2847
 20
-42.7204
 30
0.0
 10
34.9188
 20
-44.1926
 30
0.0
 10
34.9188
 20
-44.1926
 30
0.0
 10
37.612
 20
-46.617
 30
0.0
 10
37.7508
 20
-51.7729
 30
0.0
 10
35.9617
 20
-54.7227
 30
0.0
  0
SPLINE
  5
4E
330
1F
100
AcDbEntity
  8
layer 1
 62
     7
100
AcDbSpline
210
0.0
220
0.0
230
1.0
 70
    11
 71
     3
 72
   104
 73
   100
 74
     0
 42
0.0000000001
 43
0.0000000001
 12
1.0
 22
0.0
 32
0.0
 13
1.0
 23
0.0
 33
0.0
 40
0.0
 40
0.0
 40
0.0
 40
0.0
 40
0.0384615384615385
 40
0.0384615384615385
 40
0.0384615384615385
 40
0.0384615384615385
 40
0.0769230769230769
 40
0.0769230769230769
 40
0.0769230769230769
 40
0.0769230769230769
 40
0.1153846153846154
 40
0.1153846153846154
 40
0.1153846153846154
 40
0.1153846153846154
 40
0.1538461538461539
 40
0.1538461538461539
 40
0.1538461538461539
 40
0.1538461538461539
 40
0.1923076923076923
 40
0.1923076923076923
 40
0.1923076923076923
 40
0.1923076923076923
 40
0.2307692307692308
 40
0.2307692307692308
 40
0.2307692307692308
 40
0.2307692307692308
 40
0.2692307692307692
 40
0.2692307692307692
 40
0.2692307692307692
 40
0.2692307692307692
 40
0.3076923076923077
 40
0.3076923076923077
 40
0.3076923076923077
 40
0.3076923076923077
 40
0.3461538461538461
 40
0.3461538461538461
 40
0.3461538461538461
 40
0.3461538461538461
 40
0.3846153846153846
 40
0.3846153846153846
 40
0.3846153846153846
 40
0.3846153846153846
 40
0.4230769230769231
 40
0.4230769230769231
 40
0.4230769230769231
 40
0.4230769230769231
 40
0.4615384615384616
 40
0.4615384615384616
 40
0.4615384615384616
 40
0.4615384615384616
 40
0.5
 40
0.5
 40
0.5
 40
0.5
 40
0.5384615384615384
 40
0.5384615384615384
 40
0.5384615384615384
 40
0.5384615384615384
 40
0.5769230769230769
 40
0.5769230769230769
 40
0.5769230769230769
 40
0.5769230769230769
 40
0.6153846153846154
 40
0.6153846153846154
 40
0.6153846153846154
 40
0.6153846153846154
 40
0.6538461538461539
 40
0.6538461538461539
 40
0.6538461538461539
 40
0.6538461538461539
 40
0.6923076923076923
 40
0.6923076923076923
 40
0.6923076923076923
 40
0.6923076923076923
 40
0.7307692307692307
 40
0.7307692307692307
 40
0.7307692307692307
 40
0.7307692307692307
 40
0.7692307692307693
 40
0.7692307692307693
 40
0.7692307692307693
 40
0.7692307692307693
 40
0.8076923076923077
 40
0.8076923076923077
 40
0.8076923076923077
 40
0.8076923076923077
 40
0.8461538461538461
 40
0.8461538461538461
 40
0.8461538461538461
 40
0.8461538461538461
 40
0.8846153846153846
 40
0.8846153846153846
 40
0.8846153846153846
 40
0.8846153846153846
 40
0.9230769230769231
 40
0.9230769230769231
 40
0.9230769230769231
 40
0.9230769230769231
 40
1.0
 40
1.0
 40
1.0
 40
1.0
 10
35.9617
 20
-93.692
 30
0.0
 10
35.0401
 20
-95.215
 30
0.0
 10
33.6382
 20
-96.5382
 30
0.0
 10
32.0098
 20
-97.3605
 30
0.0
 10
32.0098
 20
-97.3605
 30
0.0
 10
30.4184
 20
-98.1635
 30
0.0
 10
28.9109
 20
-97.6984
 30
0.0
 10
28.4478
 20
-96.9084
 30
0.0
 10
28.4478
 20
-96.9084
 30
0.0
 10
27.8377
 20
-95.8645
 30
0.0
 10
26.9494
 20
-96.1043
 30
0.0
 10
27.1605
 20
-97.5163
 30
0.0
 10
27.1605
 20
-97.5163
 30
0.0
 10
27.3725
 20
-98.9286
 30
0.0
 10
28.402
 20
-99.8145
 30
0.0
 10
28.402
 20
-99.8145
 30
0.0
 10
28.402
 20
-99.8145
 30
0.0
 10
25.7392
 20
-101.9156
 30
0.0
 10
23.6991
 20
-104.7144
 30
0.0
 10
23.2238
 20
-107.7531
 30
0.0
 10
23.2238
 20
-107.7531
 30
0.0
 10
23.2238
 20
-107.7531
 30
0.0
 10
21.1113
 20
-107.7523
 30
0.0
 10
21.1113
 20
-107.7523
 30
0.0
 10
21.1113
 20
-107.7523
 30
0.0
 10
20.6355
 20
-104.714
 30
0.0
 10
18.5937
 20
-101.9158
 30
0.0
 10
15.9301
 20
-99.8145
 30
0.0
 10
15.9301
 20
-99.8145
 30
0.0
 10
15.9305
 20
-99.8139
 30
0.0
 10
16.9596
 20
-98.9287
 30
0.0
 10
17.1708
 20
-97.5163
 30
0.0
 10
17.1708
 20
-97.5163
 30
0.0
 10
17.3837
 20
-96.1034
 30
0.0
 10
16.497
 20
-95.8654
 30
0.0
 10
15.8843
 20
-96.9084
 30
0.0
 10
15.8843
 20
-96.9084
 30
0.0
 10
15.4225
 20
-97.6982
 30
0.0
 10
13.9178
 20
-98.1644
 30
0.0
 10
12.3228
 20
-97.3605
 30
0.0
 10
12.3228
 20
-97.3605
 30
0.0
 10
10.6937
 20
-96.5375
 30
0.0
 10
9.2919
 20
-95.2152
 30
0.0
 10
8.3718
 20
-93.6928
 30
0.0
 10
8.3718
 20
-93.6928
 30
0.0
 10
6.5803
 20
-90.75
 30
0.0
 10
6.728
 20
-85.585
 30
0.0
 10
9.412
 20
-83.1656
 30
0.0
 10
9.412
 20
-83.1656
 30
0.0
 10
11.0474
 20
-81.6926
 30
0.0
 10
13.8381
 20
-80.3149
 30
0.0
 10
15.8561
 20
-81.8272
 30
0.0
 10
15.8561
 20
-81.8272
 30
0.0
 10
17.4074
 20
-82.9872
 30
0.0
 10
16.8799
 20
-81.1924
 30
0.0
 10
16.4163
 20
-80.6664
 30
0.0
 10
16.4163
 20
-80.6664
 30
0.0
 10
15.9604
 20
-80.1395
 30
0.0
 10
15.3239
 20
-79.4879
 30
0.0
 10
15.3239
 20
-79.4879
 30
0.0
 10
15.3239
 20
-79.4879
 30
0.0
 10
15.3258
 20
-79.4879
 30
0.0
 10
18.0515
 20
-77.7553
 30
0.0
 10
19.8416
 20
-74.8124
 30
0.0
 10
19.8416
 20
-74.8124
 30
0.0
 10
20.5284
 20
-73.6854
 30
0.0
 10
20.9364
 20
-72.5524
 30
0.0
 10
21.1125
 20
-71.4324
 30
0.0
 10
21.1125
 20
-71.4324
 30
0.0
 10
21.1125
 20
-71.4324
 30
0.0
 10
23.2226
 20
-71.4315
 30
0.0
 10
23.2226
 20
-71.4315
 30
0.0
 10
23.2226
 20
-71.4315
 30
0.0
 10
23.3985
 20
-72.5515
 30
0.0
 10
23.8065
 20
-73.6859
 30
0.0
 10
24.4918
 20
-74.8124
 30
0.0
 10
24.4918
 20
-74.8124
 30
0.0
 10
26.2815
 20
-77.7549
 30
0.0
 10
29.0055
 20
-79.4879
 30
0.0
 10
29.0055
 20
-79.4879
 30
0.0
 10
29.0055
 20
-79.4879
 30
0.0
 10
29.006
 20
-79.4879
 30
0.0
 10
28.3714
 20
-80.1406
 30
0.0
 10
27.9132
 20
-80.6664
 30
0.0
 10
27.9132
 20
-80.6664
 30
0.0
 10
27.4562
 20
-81.1921
 30
0.0
 10
26.927
 20
-82.9876
 30
0.0
 10
28.4773
 20
-81.8272
 30
0.0
 10
28.4773
 20
-81.8272
 30
0.0
 10
30.4978
 20
-80.3144
 30
0.0
 10
33.2847
 20
-81.6935
 30
0.0
 10
34.9188
 20
-83.1656
 30
0.0
 10
34.9188
 20
-83.1656
 30
0.0
 10
37.612
 20
-85.5905
 30
0.0
 10
37.7503
 20
-90.7432
 30
0.0
 10
35.9615
 20
-93.6928
 30
0.0
 10
35.9615
 20
-93.6928
 30
0.0
 10
35.9615
 20
-93.6928
 30
0.0
 10
35.9617
 20
-93.692
 30
0.0
 10
35.9617
 20
-93.692
 30
0.0
  0
SPLINE
  5
4F
330
1F
100
AcDbEntity
  8
layer 1
 62
     7
100
AcDbSpline
210
0.0
220
0.0
230
1.0
 70
    11
 71
     3
 72
   124
 73
   120
 74
     0
 42
0.0000000001
 43
0.0000000001
 12
1.0
 22
0.0
 32
0.0
 13
1.0
 23
0.0
 33
0.0
 40
0.0
 40
0.0
 40
0.0
 40
0.0
 40
0.032258064516129
 40
0.032258064516129
 40
0.032258064516129
 40
0.032258064516129
 40
0.0645161290322581
 40
0.0645161290322581
 40
0.0645161290322581
 40
0.0645161290322581
 40
0.0967741935483871
 40
0.0967741935483871
 40
0.0967741935483871
 40
0.0967741935483871
 40
0.1290322580645161
 40
0.1290322580645161
 40
0.1290322580645161
 40
0.1290322580645161
 40
0.1612903225806452
 40
0.1612903225806452
 40
0.1612903225806452
 40
0.1612903225806452
 40
0.1935483870967742
 40
0.1935483870967742
 40
0.1935483870967742
 40
0.1935483870967742
 40
0.2258064516129032
 40
0.2258064516129032
 40
0.2258064516129032
 40
0.2258064516129032
 40
0.2580645161290323
 40
0.2580645161290323
 40
0.2580645161290323
 40
0.2580645161290323
 40
0.2903225806451613
 40
0.2903225806451613
 40
0.2903225806451613
 40
0.2903225806451613
 40
0.3225806451612903
 40
0.3225806451612903
 40
0.3225806451612903
 40
0.3225806451612903
 40
0.3548387096774194
 40
0.3548387096774194
 40
0.3548387096774194
 40
0.3548387096774194
 40
0.3870967741935484
 40
0.3870967741935484
 40
0.3870967741935484
 40
0.3870967741935484
 40
0.4193548387096774
 40
0.4193548387096774
 40
0.4193548387096774
 40
0.4193548387096774
 40
0.4516129032258064
 40
0.4516129032258064
 40
0.4516129032258064
 40
0.4516129032258064
 40
0.4838709677419355
 40
0.4838709677419355
 40
0.4838709677419355
 40
0.4838709677419355
 40
0.5161290322580645
 40
0.5161290322580645
 40
0.5161290322580645
 40
0.5161290322580645
 40
0.5483870967741935
 40
0.5483870967741935
 40
0.5483870967741935
 40
0.5483870967741935
 40
0.5806451612903226
 40
0.5806451612903226
 40
0.5806451612903226
 40
0.5806451612903226
 40
0.6129032258064516
 40
0.6129032258064516
 40
0.6129032258064516
 40
0.6129032258064516
 40
0.6451612903225806
 40
0.6451612903225806
 40
0.6451612903225806
 40
0.6451612903225806
 40
0.6774193548387096
 40
0.6774193548387096
 40
0.6774193548387096
 40
0.6774193548387096
 40
0.7096774193548387
 40
0.7096774193548387
 40
0.7096774193548387
 40
0.7096774193548387
 40
0.7419354838709677
 40
0.7419354838709677
 40
0.7419354838709677
 40
0.7419354838709677
 40
0.7741935483870968
 40
0.7741935483870968
 40
0.7741935483870968
 40
0.7741935483870968
 40
0.8064516129032258
 40
0.8064516129032258
 40
0.8064516129032258
 40
0.8064516129032258
 40
0.8387096774193549
 40
0.8387096774193549
 40
0.8387096774193549
 40
0.8387096774193549
 40
0.8709677419354839
 40
0.8709677419354839
 40
0.8709677419354839
 40
0.8709677419354839
 40
0.9032258064516129
 40
0.9032258064516129
 40
0.9032258064516129
 40
0.9032258064516129
 40
0.9354838709677419
 40
0.9354838709677419
 40
0.9354838709677419
 40
0.9354838709677419
 40
1.0
 40
1.0
 40
1.0
 40
1.0
 10
6.051
 20
-54.9908
 30
0.0
 10
6.621
 20
-55.9275
 30
0.0
 10
7.6916
 20
-57.3283
 30
0.0
 10
9.6983
 20
-59.2547
 30
0.0
 10
9.6983
 20
-59.2547
 30
0.0
 10
9.6991
 20
-59.2541
 30
0.0
 10
12.2599
 20
-61.4741
 30
0.0
 10
11.4706
 20
-62.8573
 30
0.0
 10
11.4706
 20
-62.8573
 30
0.0
 10
11.1911
 20
-63.3536
 30
0.0
 10
10.9391
 20
-63.7033
 30
0.0
 10
10.739
 20
-63.9469
 30
0.0
 10
10.739
 20
-63.9469
 30
0.0
 10
9.7228
 20
-65.1875
 30
0.0
 10
11.3393
 20
-65.2057
 30
0.0
 10
12.3512
 20
-64.6695
 30
0.0
 10
12.3512
 20
-64.6695
 30
0.0
 10
12.8438
 20
-64.4093
 30
0.0
 10
13.2087
 20
-64.0562
 30
0.0
 10
13.4778
 20
-63.7158
 30
0.0
 10
13.4778
 20
-63.7158
 30
0.0
 10
14.2905
 20
-62.6763
 30
0.0
 10
13.7692
 20
-62.2586
 30
0.0
 10
15.1244
 20
-63.2308
 30
0.0
 10
15.1244
 20
-63.2308
 30
0.0
 10
16.2005
 20
-64.001
 30
0.0
 10
17.8003
 20
-65.5762
 30
0.0
 10
18.4233
 20
-68.3704
 30
0.0
 10
18.4233
 20
-68.3704
 30
0.0
 10
19.3279
 20
-72.427
 30
0.0
 10
17.3656
 20
-75.7063
 30
0.0
 10
13.5864
 20
-77.5965
 30
0.0
 10
13.5864
 20
-77.5965
 30
0.0
 10
13.5875
 20
-77.5962
 30
0.0
 10
13.4493
 20
-75.7005
 30
0.0
 10
11.6712
 20
-75.2047
 30
0.0
 10
11.6712
 20
-75.2047
 30
0.0
 10
11.6712
 20
-75.2041
 30
0.0
 10
9.6243
 20
-74.9154
 30
0.0
 10
10.7217
 20
-75.9761
 30
0.0
 10
10.7217
 20
-75.9761
 30
0.0
 10
11.8149
 20
-77.0368
 30
0.0
 10
11.3734
 20
-79.0895
 30
0.0
 10
9.9842
 20
-80.0956
 30
0.0
 10
9.9842
 20
-80.0956
 30
0.0
 10
9.1741
 20
-80.6829
 30
0.0
 10
7.6173
 20
-81.8466
 30
0.0
 10
6.5076
 20
-83.6279
 30
0.0
 10
6.5076
 20
-83.6279
 30
0.0
 10
6.4369
 20
-83.744
 30
0.0
 10
6.3699
 20
-83.8575
 30
0.0
 10
6.304
 20
-83.9648
 30
0.0
 10
6.304
 20
-83.9648
 30
0.0
 10
5.1571
 20
-85.8295
 30
0.0
 10
5.0875
 20
-85.5434
 30
0.0
 10
4.227
 20
-83.8592
 30
0.0
 10
4.227
 20
-83.8592
 30
0.0
 10
4.1794
 20
-83.7654
 30
0.0
 10
4.1166
 20
-83.6777
 30
0.0
 10
4.0568
 20
-83.5833
 30
0.0
 10
4.0568
 20
-83.5833
 30
0.0
 10
2.9491
 20
-81.8264
 30
0.0
 10
1.4131
 20
-80.6787
 30
0.0
 10
0.6087
 20
-80.0956
 30
0.0
 10
0.6087
 20
-80.0956
 30
0.0
 10
-0.7806
 20
-79.0893
 30
0.0
 10
-1.2248
 20
-77.037
 30
0.0
 10
-0.1275
 20
-75.9761
 30
0.0
 10
-0.1275
 20
-75.9761
 30
0.0
 10
0.9708
 20
-74.9148
 30
0.0
 10
-1.0771
 20
-75.2047
 30
0.0
 10
-1.0771
 20
-75.2047
 30
0.0
 10
-1.0771
 20
-75.2047
 30
0.0
 10
-2.8555
 20
-75.7004
 30
0.0
 10
-2.9938
 20
-77.5965
 30
0.0
 10
-2.9938
 20
-77.5965
 30
0.0
 10
-2.9938
 20
-77.5965
 30
0.0
 10
-6.7738
 20
-75.7058
 30
0.0
 10
-8.7317
 20
-72.4276
 30
0.0
 10
-7.8294
 20
-68.3704
 30
0.0
 10
-7.8294
 20
-68.3704
 30
0.0
 10
-7.2069
 20
-65.5753
 30
0.0
 10
-5.6038
 20
-64.0017
 30
0.0
 10
-4.5321
 20
-63.2308
 30
0.0
 10
-4.5321
 20
-63.2308
 30
0.0
 10
-3.1792
 20
-62.2583
 30
0.0
 10
-3.6987
 20
-62.6763
 30
0.0
 10
-2.8826
 20
-63.7158
 30
0.0
 10
-2.8826
 20
-63.7158
 30
0.0
 10
-2.6152
 20
-64.0557
 30
0.0
 10
-2.249
 20
-64.4093
 30
0.0
 10
-1.7592
 20
-64.6695
 30
0.0
 10
-1.7592
 20
-64.6695
 30
0.0
 10
-0.7483
 20
-65.2057
 30
0.0
 10
0.8736
 20
-65.1882
 30
0.0
 10
-0.1481
 20
-63.9469
 30
0.0
 10
-0.1481
 20
-63.9469
 30
0.0
 10
-0.3476
 20
-63.7029
 30
0.0
 10
-0.5958
 20
-63.3543
 30
0.0
 10
-0.8788
 20
-62.8573
 30
0.0
 10
-0.8788
 20
-62.8573
 30
0.0
 10
-1.6658
 20
-61.4737
 30
0.0
 10
0.893
 20
-59.2547
 30
0.0
 10
0.893
 20
-59.2547
 30
0.0
 10
0.893
 20
-59.2547
 30
0.0
 10
2.7585
 20
-57.4406
 30
0.0
 10
3.8149
 20
-56.0903
 30
0.0
 10
4.4147
 20
-55.155
 30
0.0
 10
4.4147
 20
-55.155
 30
0.0
 10
4.4777
 20
-55.0582
 30
0.0
 10
4.5359
 20
-54.9675
 30
0.0
 10
4.5865
 20
-54.8783
 30
0.0
 10
4.5865
 20
-54.8783
 30
0.0
 10
5.3307
 20
-53.5632
 30
0.0
 10
5.4814
 20
-54.0601
 30
0.0
 10
6.049
 20
-54.9916
 30
0.0
 10
6.049
 20
-54.9916
 30
0.0
 10
6.049
 20
-54.9916
 30
0.0
 10
6.051
 20
-54.9908
 30
0.0
 10
6.051
 20
-54.9908
 30
0.0
  0
SPLINE
  5
50
330
1F
100
AcDbEntity
  8
layer 1
 62
     7
100
AcDbSpline
210
0.0
220
0.0
230
1.0
 70
    11
 71
     3
 72
   104
 73
   100
 74
     0
 42
0.0000000001
 43
0.0000000001
 12
1.0
 22
0.0
 32
0.0
 13
1.0
 23
0.0
 33
0.0
 40
0.0
 40
0.0
 40
0.0
 40
0.0
 40
0.0384615384615385
 40
0.0384615384615385
 40
0.0384615384615385
 40
0.0384615384615385
 40
0.0769230769230769
 40
0.0769230769230769
 40
0.0769230769230769
 40
0.0769230769230769
 40
0.1153846153846154
 40
0.1153846153846154
 40
0.1153846153846154
 40
0.1153846153846154
 40
0.1538461538461539
 40
0.1538461538461539
 40
0.1538461538461539
 40
0.1538461538461539
 40
0.1923076923076923
 40
0.1923076923076923
 40
0.1923076923076923
 40
0.1923076923076923
 40
0.2307692307692308
 40
0.2307692307692308
 40
0.2307692307692308
 40
0.2307692307692308
 40
0.2692307692307692
 40
0.2692307692307692
 40
0.2692307692307692
 40
0.2692307692307692
 40
0.3076923076923077
 40
0.3076923076923077
 40
0.3076923076923077
 40
0.3076923076923077
 40
0.3461538461538461
 40
0.3461538461538461
 40
0.3461538461538461
 40
0.3461538461538461
 40
0.3846153846153846
 40
0.3846153846153846
 40
0.3846153846153846
 40
0.3846153846153846
 40
0.4230769230769231
 40
0.4230769230769231
 40
0.4230769230769231
 40
0.4230769230769231
 40
0.4615384615384616
 40
0.4615384615384616
 40
0.4615384615384616
 40
0.4615384615384616
 40
0.5
 40
0.5
 40
0.5
 40
0.5
 40
0.5384615384615384
 40
0.5384615384615384
 40
0.5384615384615384
 40
0.5384615384615384
 40
0.5769230769230769
 40
0.5769230769230769
 40
0.5769230769230769
 40
0.5769230769230769
 40
0.6153846153846154
 40
0.6153846153846154
 40
0.6153846153846154
 40
0.6153846153846154
 40
0.6538461538461539
 40
0.6538461538461539
 40
0.6538461538461539
 40
0.6538461538461539
 40
0.6923076923076923
 40
0.6923076923076923
 40
0.6923076923076923
 40
0.6923076923076923
 40
0.7307692307692307
 40
0.7307692307692307
 40
0.7307692307692307
 40
0.7307692307692307
 40
0.7692307692307693
 40
0.7692307692307693
 40
0.7692307692307693
 40
0.7692307692307693
 40
0.8076923076923077
 40
0.8076923076923077
 40
0.8076923076923077
 40
0.8076923076923077
 40
0.8461538461538461
 40
0.8461538461538461
 40
0.8461538461538461
 40
0.8461538461538461
 40
0.8846153846153846
 40
0.8846153846153846
 40
0.8846153846153846
 40
0.8846153846153846
 40
0.9230769230769231
 40
0.9230769230769231
 40
0.9230769230769231
 40
0.9230769230769231
 40
1.0
 40
1.0
 40
1.0
 40
1.0
 10
35.9617
 20
-15.7492
 30
0.0
 10
35.0401
 20
-17.2721
 30
0.0
 10
33.6382
 20
-18.5954
 30
0.0
 10
32.0098
 20
-19.4174
 30
0.0
 10
32.0098
 20
-19.4174
 30
0.0
 10
30.4184
 20
-20.2205
 30
0.0
 10
28.9109
 20
-19.7556
 30
0.0
 10
28.4478
 20
-18.9653
 30
0.0
 10
28.4478
 20
-18.9653
 30
0.0
 10
27.8377
 20
-17.9216
 30
0.0
 10
26.9494
 20
-18.1614
 30
0.0
 10
27.1605
 20
-19.5737
 30
0.0
 10
27.1605
 20
-19.5737
 30
0.0
 10
27.3725
 20
-20.9846
 30
0.0
 10
28.402
 20
-21.8719
 30
0.0
 10
28.402
 20
-21.8719
 30
0.0
 10
28.402
 20
-21.8719
 30
0.0
 10
25.7392
 20
-23.9717
 30
0.0
 10
23.6991
 20
-26.7713
 30
0.0
 10
23.2238
 20
-29.8101
 30
0.0
 10
23.2238
 20
-29.8101
 30
0.0
 10
23.2238
 20
-29.8101
 30
0.0
 10
21.1113
 20
-29.8097
 30
0.0
 10
21.1113
 20
-29.8097
 30
0.0
 10
21.1113
 20
-29.8097
 30
0.0
 10
20.6355
 20
-26.7712
 30
0.0
 10
18.5937
 20
-23.9724
 30
0.0
 10
15.9301
 20
-21.8719
 30
0.0
 10
15.9301
 20
-21.8719
 30
0.0
 10
15.9305
 20
-21.8711
 30
0.0
 10
16.9596
 20
-20.9855
 30
0.0
 10
17.1708
 20
-19.5737
 30
0.0
 10
17.1708
 20
-19.5737
 30
0.0
 10
17.3837
 20
-18.1606
 30
0.0
 10
16.497
 20
-17.9222
 30
0.0
 10
15.8843
 20
-18.9653
 30
0.0
 10
15.8843
 20
-18.9653
 30
0.0
 10
15.4225
 20
-19.7554
 30
0.0
 10
13.9178
 20
-20.2214
 30
0.0
 10
12.3228
 20
-19.4174
 30
0.0
 10
12.3228
 20
-19.4174
 30
0.0
 10
10.6937
 20
-18.5948
 30
0.0
 10
9.2919
 20
-17.2721
 30
0.0
 10
8.3718
 20
-15.7497
 30
0.0
 10
8.3718
 20
-15.7497
 30
0.0
 10
6.5803
 20
-12.8061
 30
0.0
 10
6.728
 20
-7.6421
 30
0.0
 10
9.412
 20
-5.2227
 30
0.0
 10
9.412
 20
-5.2227
 30
0.0
 10
11.0474
 20
-3.7498
 30
0.0
 10
13.8381
 20
-2.3717
 30
0.0
 10
15.8561
 20
-3.8843
 30
0.0
 10
15.8561
 20
-3.8843
 30
0.0
 10
17.4074
 20
-5.0444
 30
0.0
 10
16.8799
 20
-3.2495
 30
0.0
 10
16.4163
 20
-2.7236
 30
0.0
 10
16.4163
 20
-2.7236
 30
0.0
 10
15.9604
 20
-2.1978
 30
0.0
 10
15.3239
 20
-1.5447
 30
0.0
 10
15.3239
 20
-1.5447
 30
0.0
 10
15.3239
 20
-1.5447
 30
0.0
 10
15.3258
 20
-1.544
 30
0.0
 10
18.0515
 20
0.1877
 30
0.0
 10
19.8416
 20
3.1303
 30
0.0
 10
19.8416
 20
3.1303
 30
0.0
 10
20.5284
 20
4.2575
 30
0.0
 10
20.9364
 20
5.3908
 30
0.0
 10
21.1125
 20
6.5102
 30
0.0
 10
21.1125
 20
6.5102
 30
0.0
 10
21.1125
 20
6.5102
 30
0.0
 10
23.2226
 20
6.5102
 30
0.0
 10
23.2226
 20
6.5102
 30
0.0
 10
23.2226
 20
6.5102
 30
0.0
 10
23.3985
 20
5.3915
 30
0.0
 10
23.8065
 20
4.2573
 30
0.0
 10
24.4918
 20
3.1303
 30
0.0
 10
24.4918
 20
3.1303
 30
0.0
 10
26.2815
 20
0.188
 30
0.0
 10
29.0055
 20
-1.5447
 30
0.0
 10
29.0055
 20
-1.5447
 30
0.0
 10
29.0055
 20
-1.5447
 30
0.0
 10
29.006
 20
-1.544
 30
0.0
 10
28.3714
 20
-2.1978
 30
0.0
 10
27.9132
 20
-2.7236
 30
0.0
 10
27.9132
 20
-2.7236
 30
0.0
 10
27.4562
 20
-3.2492
 30
0.0
 10
26.927
 20
-5.0447
 30
0.0
 10
28.4773
 20
-3.8843
 30
0.0
 10
28.4773
 20
-3.8843
 30
0.0
 10
30.4978
 20
-2.3714
 30
0.0
 10
33.2847
 20
-3.7503
 30
0.0
 10
34.9188
 20
-5.2227
 30
0.0
 10
34.9188
 20
-5.2227
 30
0.0
 10
37.612
 20
-7.6477
 30
0.0
 10
37.7503
 20
-12.8002
 30
0.0
 10
35.9615
 20
-15.7497
 30
0.0
 10
35.9615
 20
-15.7497
 30
0.0
 10
35.9615
 20
-15.7497
 30
0.0
 10
35.9617
 20
-15.7492
 30
0.0
 10
35.9617
 20
-15.7492
 30
0.0
  0
SPLINE
  5
51
330
1F
100
AcDbEntity
  8
layer 1
 62
     7
100
AcDbSpline
210
0.0
220
0.0
230
1.0
 70
    11
 71
     3
 72
   124
 73
   120
 74
     0
 42
0.0000000001
 43
0.0000000001
 12
1.0
 22
0.0
 32
0.0
 13
1.0
 23
0.0
 33
0.0
 40
0.0
 40
0.0
 40
0.0
 40
0.0
 40
0.032258064516129
 40
0.032258064516129
 40
0.032258064516129
 40
0.032258064516129
 40
0.0645161290322581
 40
0.0645161290322581
 40
0.0645161290322581
 40
0.0645161290322581
 40
0.0967741935483871
 40
0.0967741935483871
 40
0.0967741935483871
 40
0.0967741935483871
 40
0.1290322580645161
 40
0.1290322580645161
 40
0.1290322580645161
 40
0.1290322580645161
 40
0.1612903225806452
 40
0.1612903225806452
 40
0.1612903225806452
 40
0.1612903225806452
 40
0.1935483870967742
 40
0.1935483870967742
 40
0.1935483870967742
 40
0.1935483870967742
 40
0.2258064516129032
 40
0.2258064516129032
 40
0.2258064516129032
 40
0.2258064516129032
 40
0.2580645161290323
 40
0.2580645161290323
 40
0.2580645161290323
 40
0.2580645161290323
 40
0.2903225806451613
 40
0.2903225806451613
 40
0.2903225806451613
 40
0.2903225806451613
 40
0.3225806451612903
 40
0.3225806451612903
 40
0.3225806451612903
 40
0.3225806451612903
 40
0.3548387096774194
 40
0.3548387096774194
 40
0.3548387096774194
 40
0.3548387096774194
 40
0.3870967741935484
 40
0.3870967741935484
 40
0.3870967741935484
 40
0.3870967741935484
 40
0.4193548387096774
 40
0.4193548387096774
 40
0.4193548387096774
 40
0.4193548387096774
 40
0.4516129032258064
 40
0.4516129032258064
 40
0.4516129032258064
 40
0.4516129032258064
 40
0.4838709677419355
 40
0.4838709677419355
 40
0.4838709677419355
 40
0.4838709677419355
 40
0.5161290322580645
 40
0.5161290322580645
 40
0.5161290322580645
 40
0.5161290322580645
 40
0.5483870967741935
 40
0.5483870967741935
 40
0.5483870967741935
 40
0.5483870967741935
 40
0.5806451612903226
 40
0.5806451612903226
 40
0.5806451612903226
 40
0.5806451612903226
 40
0.6129032258064516
 40
0.6129032258064516
 40
0.6129032258064516
 40
0.6129032258064516
 40
0.6451612903225806
 40
0.6451612903225806
 40
0.6451612903225806
 40
0.6451612903225806
 40
0.6774193548387096
 40
0.6774193548387096
 40
0.6774193548387096
 40
0.6774193548387096
 40
0.7096774193548387
 40
0.7096774193548387
 40
0.7096774193548387
 40
0.7096774193548387
 40
0.7419354838709677
 40
0.7419354838709677
 40
0.7419354838709677
 40
0.7419354838709677
 40
0.7741935483870968
 40
0.7741935483870968
 40
0.7741935483870968
 40
0.7741935483870968
 40
0.8064516129032258
 40
0.8064516129032258
 40
0.8064516129032258
 40
0.8064516129032258
 40
0.8387096774193549
 40
0.8387096774193549
 40
0.8387096774193549
 40
0.8387096774193549
 40
0.8709677419354839
 40
0.8709677419354839
 40
0.8709677419354839
 40
0.8709677419354839
 40
0.9032258064516129
 40
0.9032258064516129
 40
0.9032258064516129
 40
0.9032258064516129
 40
0.9354838709677419
 40
0.9354838709677419
 40
0.9354838709677419
 40
0.9354838709677419
 40
1.0
 40
1.0
 40
1.0
 40
1.0
 10
6.051
 20
22.9522
 30
0.0
 10
6.621
 20
22.0155
 30
0.0
 10
7.6916
 20
20.6147
 30
0.0
 10
9.6983
 20
18.6882
 30
0.0
 10
9.6983
 20
18.6882
 30
0.0
 10
9.6991
 20
18.6887
 30
0.0
 10
12.2599
 20
16.4689
 30
0.0
 10
11.4706
 20
15.0855
 30
0.0
 10
11.4706
 20
15.0855
 30
0.0
 10
11.1911
 20
14.5892
 30
0.0
 10
10.9391
 20
14.2393
 30
0.0
 10
10.739
 20
13.9957
 30
0.0
 10
10.739
 20
13.9957
 30
0.0
 10
9.7228
 20
12.7554
 30
0.0
 10
11.3393
 20
12.7372
 30
0.0
 10
12.3512
 20
13.2736
 30
0.0
 10
12.3512
 20
13.2736
 30
0.0
 10
12.8438
 20
13.5334
 30
0.0
 10
13.2087
 20
13.8868
 30
0.0
 10
13.4778
 20
14.227
 30
0.0
 10
13.4778
 20
14.227
 30
0.0
 10
14.2905
 20
15.2677
 30
0.0
 10
13.7692
 20
15.6842
 30
0.0
 10
15.1244
 20
14.712
 30
0.0
 10
15.1244
 20
14.712
 30
0.0
 10
16.2005
 20
13.9419
 30
0.0
 10
17.8003
 20
12.3666
 30
0.0
 10
18.4233
 20
9.5726
 30
0.0
 10
18.4233
 20
9.5726
 30
0.0
 10
19.3279
 20
5.5156
 30
0.0
 10
17.3656
 20
2.2364
 30
0.0
 10
13.5864
 20
0.3463
 30
0.0
 10
13.5864
 20
0.3463
 30
0.0
 10
13.5875
 20
0.3466
 30
0.0
 10
13.4493
 20
2.2424
 30
0.0
 10
11.6712
 20
2.7384
 30
0.0
 10
11.6712
 20
2.7384
 30
0.0
 10
11.6712
 20
2.7387
 30
0.0
 10
9.6243
 20
3.0278
 30
0.0
 10
10.7217
 20
1.9667
 30
0.0
 10
10.7217
 20
1.9667
 30
0.0
 10
11.8149
 20
0.906
 30
0.0
 10
11.3734
 20
-1.1463
 30
0.0
 10
9.9842
 20
-2.1527
 30
0.0
 10
9.9842
 20
-2.1527
 30
0.0
 10
9.1741
 20
-2.7401
 30
0.0
 10
7.6173
 20
-3.9034
 30
0.0
 10
6.5076
 20
-5.6852
 30
0.0
 10
6.5076
 20
-5.6852
 30
0.0
 10
6.4369
 20
-5.8
 30
0.0
 10
6.3699
 20
-5.9147
 30
0.0
 10
6.304
 20
-6.0217
 30
0.0
 10
6.304
 20
-6.0217
 30
0.0
 10
5.1571
 20
-7.8856
 30
0.0
 10
5.0875
 20
-7.6003
 30
0.0
 10
4.227
 20
-5.9163
 30
0.0
 10
4.227
 20
-5.9163
 30
0.0
 10
4.1794
 20
-5.8225
 30
0.0
 10
4.1166
 20
-5.7348
 30
0.0
 10
4.0568
 20
-5.6405
 30
0.0
 10
4.0568
 20
-5.6405
 30
0.0
 10
2.9491
 20
-3.8837
 30
0.0
 10
1.4131
 20
-2.7355
 30
0.0
 10
0.6087
 20
-2.1527
 30
0.0
 10
0.6087
 20
-2.1527
 30
0.0
 10
-0.7806
 20
-1.1463
 30
0.0
 10
-1.2248
 20
0.9059
 30
0.0
 10
-0.1275
 20
1.9667
 30
0.0
 10
-0.1275
 20
1.9667
 30
0.0
 10
0.9708
 20
3.0281
 30
0.0
 10
-1.0771
 20
2.7384
 30
0.0
 10
-1.0771
 20
2.7384
 30
0.0
 10
-1.0771
 20
2.7384
 30
0.0
 10
-2.8555
 20
2.2425
 30
0.0
 10
-2.9938
 20
0.3463
 30
0.0
 10
-2.9938
 20
0.3463
 30
0.0
 10
-2.9938
 20
0.3463
 30
0.0
 10
-6.7738
 20
2.237
 30
0.0
 10
-8.7317
 20
5.5155
 30
0.0
 10
-7.8294
 20
9.5726
 30
0.0
 10
-7.8294
 20
9.5726
 30
0.0
 10
-7.2069
 20
12.3674
 30
0.0
 10
-5.6038
 20
13.9415
 30
0.0
 10
-4.5321
 20
14.712
 30
0.0
 10
-4.5321
 20
14.712
 30
0.0
 10
-3.1792
 20
15.6845
 30
0.0
 10
-3.6987
 20
15.2669
 30
0.0
 10
-2.8826
 20
14.227
 30
0.0
 10
-2.8826
 20
14.227
 30
0.0
 10
-2.6152
 20
13.8872
 30
0.0
 10
-2.249
 20
13.5334
 30
0.0
 10
-1.7592
 20
13.2736
 30
0.0
 10
-1.7592
 20
13.2736
 30
0.0
 10
-0.7483
 20
12.7372
 30
0.0
 10
0.8736
 20
12.755
 30
0.0
 10
-0.1481
 20
13.9957
 30
0.0
 10
-0.1481
 20
13.9957
 30
0.0
 10
-0.3476
 20
14.2399
 30
0.0
 10
-0.5958
 20
14.589
 30
0.0
 10
-0.8788
 20
15.0855
 30
0.0
 10
-0.8788
 20
15.0855
 30
0.0
 10
-1.6658
 20
16.4691
 30
0.0
 10
0.893
 20
18.6882
 30
0.0
 10
0.893
 20
18.6882
 30
0.0
 10
0.893
 20
18.6882
 30
0.0
 10
2.7585
 20
20.5021
 30
0.0
 10
3.8149
 20
21.8529
 30
0.0
 10
4.4147
 20
22.7877
 30
0.0
 10
4.4147
 20
22.7877
 30
0.0
 10
4.4777
 20
22.8846
 30
0.0
 10
4.5359
 20
22.9756
 30
0.0
 10
4.5865
 20
23.0649
 30
0.0
 10
4.5865
 20
23.0649
 30
0.0
 10
5.3307
 20
24.3808
 30
0.0
 10
5.4814
 20
23.8827
 30
0.0
 10
6.049
 20
22.9514
 30
0.0
 10
6.049
 20
22.9514
 30
0.0
 10
6.049
 20
22.9514
 30
0.0
 10
6.051
 20
22.9522
 30
0.0
 10
6.051
 20
22.9522
 30
0.0
  0
SPLINE
  5
52
330
1F
100
AcDbEntity
  8
layer 1
 62
     7
100
AcDbSpline
210
0.0
220
0.0
230
1.0
 70
    11
 71
     3
 72
   124
 73
   120
 74
     0
 42
0.0000000001
 43
0.0000000001
 12
1.0
 22
0.0
 32
0.0
 13
1.0
 23
0.0
 33
0.0
 40
0.0
 40
0.0
 40
0.0
 40
0.0
 40
0.032258064516129
 40
0.032258064516129
 40
0.032258064516129
 40
0.032258064516129
 40
0.0645161290322581
 40
0.0645161290322581
 40
0.0645161290322581
 40
0.0645161290322581
 40
0.0967741935483871
 40
0.0967741935483871
 40
0.0967741935483871
 40
0.0967741935483871
 40
0.1290322580645161
 40
0.1290322580645161
 40
0.1290322580645161
 40
0.1290322580645161
 40
0.1612903225806452
 40
0.1612903225806452
 40
0.1612903225806452
 40
0.1612903225806452
 40
0.1935483870967742
 40
0.1935483870967742
 40
0.1935483870967742
 40
0.1935483870967742
 40
0.2258064516129032
 40
0.2258064516129032
 40
0.2258064516129032
 40
0.2258064516129032
 40
0.2580645161290323
 40
0.2580645161290323
 40
0.2580645161290323
 40
0.2580645161290323
 40
0.2903225806451613
 40
0.2903225806451613
 40
0.2903225806451613
 40
0.2903225806451613
 40
0.3225806451612903
 40
0.3225806451612903
 40
0.3225806451612903
 40
0.3225806451612903
 40
0.3548387096774194
 40
0.3548387096774194
 40
0.3548387096774194
 40
0.3548387096774194
 40
0.3870967741935484
 40
0.3870967741935484
 40
0.3870967741935484
 40
0.3870967741935484
 40
0.4193548387096774
 40
0.4193548387096774
 40
0.4193548387096774
 40
0.4193548387096774
 40
0.4516129032258064
 40
0.4516129032258064
 40
0.4516129032258064
 40
0.4516129032258064
 40
0.4838709677419355
 40
0.4838709677419355
 40
0.4838709677419355
 40
0.4838709677419355
 40
0.5161290322580645
 40
0.5161290322580645
 40
0.5161290322580645
 40
0.5161290322580645
 40
0.5483870967741935
 40
0.5483870967741935
 40
0.5483870967741935
 40
0.5483870967741935
 40
0.5806451612903226
 40
0.5806451612903226
 40
0.5806451612903226
 40
0.5806451612903226
 40
0.6129032258064516
 40
0.6129032258064516
 40
0.6129032258064516
 40
0.6129032258064516
 40
0.6451612903225806
 40
0.6451612903225806
 40
0.6451612903225806
 40
0.6451612903225806
 40
0.6774193548387096
 40
0.6774193548387096
 40
0.6774193548387096
 40
0.6774193548387096
 40
0.7096774193548387
 40
0.7096774193548387
 40
0.7096774193548387
 40
0.7096774193548387
 40
0.7419354838709677
 40
0.7419354838709677
 40
0.7419354838709677
 40
0.7419354838709677
 40
0.7741935483870968
 40
0.7741935483870968
 40
0.7741935483870968
 40
0.7741935483870968
 40
0.8064516129032258
 40
0.8064516129032258
 40
0.8064516129032258
 40
0.8064516129032258
 40
0.8387096774193549
 40
0.8387096774193549
 40
0.8387096774193549
 40
0.8387096774193549
 40
0.8709677419354839
 40
0.8709677419354839
 40
0.8709677419354839
 40
0.8709677419354839
 40
0.9032258064516129
 40
0.9032258064516129
 40
0.9032258064516129
 40
0.9032258064516129
 40
0.9354838709677419
 40
0.9354838709677419
 40
0.9354838709677419
 40
0.9354838709677419
 40
1.0
 40
1.0
 40
1.0
 40
1.0
 10
6.051
 20
-16.0182
 30
0.0
 10
6.621
 20
-16.955
 30
0.0
 10
7.6916
 20
-18.3556
 30
0.0
 10
9.6983
 20
-20.2819
 30
0.0
 10
9.6983
 20
-20.2819
 30
0.0
 10
9.6991
 20
-20.2817
 30
0.0
 10
12.2599
 20
-22.5012
 30
0.0
 10
11.4706
 20
-23.8844
 30
0.0
 10
11.4706
 20
-23.8844
 30
0.0
 10
11.1911
 20
-24.3811
 30
0.0
 10
10.9391
 20
-24.7305
 30
0.0
 10
10.739
 20
-24.9741
 30
0.0
 10
10.739
 20
-24.9741
 30
0.0
 10
9.7228
 20
-26.215
 30
0.0
 10
11.3393
 20
-26.2329
 30
0.0
 10
12.3512
 20
-25.6968
 30
0.0
 10
12.3512
 20
-25.6968
 30
0.0
 10
12.8438
 20
-25.4358
 30
0.0
 10
13.2087
 20
-25.0832
 30
0.0
 10
13.4778
 20
-24.7428
 30
0.0
 10
13.4778
 20
-24.7428
 30
0.0
 10
14.2905
 20
-23.7028
 30
0.0
 10
13.7692
 20
-23.2858
 30
0.0
 10
15.1244
 20
-24.258
 30
0.0
 10
15.1244
 20
-24.258
 30
0.0
 10
16.2005
 20
-25.0286
 30
0.0
 10
17.8003
 20
-26.6034
 30
0.0
 10
18.4233
 20
-29.3976
 30
0.0
 10
18.4233
 20
-29.3976
 30
0.0
 10
19.3279
 20
-33.4546
 30
0.0
 10
17.3656
 20
-36.7334
 30
0.0
 10
13.5864
 20
-38.6236
 30
0.0
 10
13.5864
 20
-38.6236
 30
0.0
 10
13.5875
 20
-38.6227
 30
0.0
 10
13.4493
 20
-36.7278
 30
0.0
 10
11.6712
 20
-36.2317
 30
0.0
 10
11.6712
 20
-36.2317
 30
0.0
 10
11.6712
 20
-36.2316
 30
0.0
 10
9.6243
 20
-35.9422
 30
0.0
 10
10.7217
 20
-37.0032
 30
0.0
 10
10.7217
 20
-37.0032
 30
0.0
 10
11.8149
 20
-38.0632
 30
0.0
 10
11.3734
 20
-40.1165
 30
0.0
 10
9.9842
 20
-41.1227
 30
0.0
 10
9.9842
 20
-41.1227
 30
0.0
 10
9.1741
 20
-41.7105
 30
0.0
 10
7.6173
 20
-42.8736
 30
0.0
 10
6.5076
 20
-44.6549
 30
0.0
 10
6.5076
 20
-44.6549
 30
0.0
 10
6.4369
 20
-44.7705
 30
0.0
 10
6.3699
 20
-44.8847
 30
0.0
 10
6.304
 20
-44.9918
 30
0.0
 10
6.304
 20
-44.9918
 30
0.0
 10
5.1571
 20
-46.856
 30
0.0
 10
5.0875
 20
-46.5703
 30
0.0
 10
4.227
 20
-44.8864
 30
0.0
 10
4.227
 20
-44.8864
 30
0.0
 10
4.1794
 20
-44.7929
 30
0.0
 10
4.1166
 20
-44.7046
 30
0.0
 10
4.0568
 20
-44.6104
 30
0.0
 10
4.0568
 20
-44.6104
 30
0.0
 10
2.9491
 20
-42.854
 30
0.0
 10
1.4131
 20
-41.7057
 30
0.0
 10
0.6087
 20
-41.1227
 30
0.0
 10
0.6087
 20
-41.1227
 30
0.0
 10
-0.7806
 20
-40.1158
 30
0.0
 10
-1.2248
 20
-38.064
 30
0.0
 10
-0.1275
 20
-37.0032
 30
0.0
 10
-0.1275
 20
-37.0032
 30
0.0
 10
0.9708
 20
-35.9422
 30
0.0
 10
-1.0771
 20
-36.2317
 30
0.0
 10
-1.0771
 20
-36.2317
 30
0.0
 10
-1.0771
 20
-36.2317
 30
0.0
 10
-2.8555
 20
-36.7268
 30
0.0
 10
-2.9938
 20
-38.6236
 30
0.0
 10
-2.9938
 20
-38.6236
 30
0.0
 10
-2.9938
 20
-38.6236
 30
0.0
 10
-6.7738
 20
-36.7332
 30
0.0
 10
-8.7317
 20
-33.4546
 30
0.0
 10
-7.8294
 20
-29.3976
 30
0.0
 10
-7.8294
 20
-29.3976
 30
0.0
 10
-7.2069
 20
-26.603
 30
0.0
 10
-5.6038
 20
-25.0288
 30
0.0
 10
-4.5321
 20
-24.258
 30
0.0
 10
-4.5321
 20
-24.258
 30
0.0
 10
-3.1792
 20
-23.2858
 30
0.0
 10
-3.6987
 20
-23.7033
 30
0.0
 10
-2.8826
 20
-24.7428
 30
0.0
 10
-2.8826
 20
-24.7428
 30
0.0
 10
-2.6152
 20
-25.0832
 30
0.0
 10
-2.249
 20
-25.4364
 30
0.0
 10
-1.7592
 20
-25.6968
 30
0.0
 10
-1.7592
 20
-25.6968
 30
0.0
 10
-0.7483
 20
-26.2321
 30
0.0
 10
0.8736
 20
-26.2153
 30
0.0
 10
-0.1481
 20
-24.9741
 30
0.0
 10
-0.1481
 20
-24.9741
 30
0.0
 10
-0.3476
 20
-24.7305
 30
0.0
 10
-0.5958
 20
-24.3813
 30
0.0
 10
-0.8788
 20
-23.8844
 30
0.0
 10
-0.8788
 20
-23.8844
 30
0.0
 10
-1.6658
 20
-22.5012
 30
0.0
 10
0.893
 20
-20.2819
 30
0.0
 10
0.893
 20
-20.2819
 30
0.0
 10
0.893
 20
-20.2819
 30
0.0
 10
2.7585
 20
-18.4683
 30
0.0
 10
3.8149
 20
-17.1173
 30
0.0
 10
4.4147
 20
-16.1824
 30
0.0
 10
4.4147
 20
-16.1824
 30
0.0
 10
4.4777
 20
-16.0846
 30
0.0
 10
4.5359
 20
-15.9944
 30
0.0
 10
4.5865
 20
-15.9056
 30
0.0
 10
4.5865
 20
-15.9056
 30
0.0
 10
5.3307
 20
-14.5896
 30
0.0
 10
5.4814
 20
-15.0872
 30
0.0
 10
6.049
 20
-16.0186
 30
0.0
 10
6.049
 20
-16.0186
 30
0.0
 10
6.049
 20
-16.0186
 30
0.0
 10
6.051
 20
-16.0182
 30
0.0
 10
6.051
 20
-16.0182
 30
0.0
  0
SPLINE
  5
53
330
1F
100
AcDbEntity
  8
layer 1
 62
     7
100
AcDbSpline
210
0.0
220
0.0
230
1.0
 70
    11
 71
     3
 72
   104
 73
   100
 74
     0
 42
0.0000000001
 43
0.0000000001
 12
1.0
 22
0.0
 32
0.0
 13
1.0
 23
0.0
 33
0.0
 40
0.0
 40
0.0
 40
0.0
 40
0.0
 40
0.0384615384615385
 40
0.0384615384615385
 40
0.0384615384615385
 40
0.0384615384615385
 40
0.0769230769230769
 40
0.0769230769230769
 40
0.0769230769230769
 40
0.0769230769230769
 40
0.1153846153846154
 40
0.1153846153846154
 40
0.1153846153846154
 40
0.1153846153846154
 40
0.1538461538461539
 40
0.1538461538461539
 40
0.1538461538461539
 40
0.1538461538461539
 40
0.1923076923076923
 40
0.1923076923076923
 40
0.1923076923076923
 40
0.1923076923076923
 40
0.2307692307692308
 40
0.2307692307692308
 40
0.2307692307692308
 40
0.2307692307692308
 40
0.2692307692307692
 40
0.2692307692307692
 40
0.2692307692307692
 40
0.2692307692307692
 40
0.3076923076923077
 40
0.3076923076923077
 40
0.3076923076923077
 40
0.3076923076923077
 40
0.3461538461538461
 40
0.3461538461538461
 40
0.3461538461538461
 40
0.3461538461538461
 40
0.3846153846153846
 40
0.3846153846153846
 40
0.3846153846153846
 40
0.3846153846153846
 40
0.4230769230769231
 40
0.4230769230769231
 40
0.4230769230769231
 40
0.4230769230769231
 40
0.4615384615384616
 40
0.4615384615384616
 40
0.4615384615384616
 40
0.4615384615384616
 40
0.5
 40
0.5
 40
0.5
 40
0.5
 40
0.5384615384615384
 40
0.5384615384615384
 40
0.5384615384615384
 40
0.5384615384615384
 40
0.5769230769230769
 40
0.5769230769230769
 40
0.5769230769230769
 40
0.5769230769230769
 40
0.6153846153846154
 40
0.6153846153846154
 40
0.6153846153846154
 40
0.6153846153846154
 40
0.6538461538461539
 40
0.6538461538461539
 40
0.6538461538461539
 40
0.6538461538461539
 40
0.6923076923076923
 40
0.6923076923076923
 40
0.6923076923076923
 40
0.6923076923076923
 40
0.7307692307692307
 40
0.7307692307692307
 40
0.7307692307692307
 40
0.7307692307692307
 40
0.7692307692307693
 40
0.7692307692307693
 40
0.7692307692307693
 40
0.7692307692307693
 40
0.8076923076923077
 40
0.8076923076923077
 40
0.8076923076923077
 40
0.8076923076923077
 40
0.8461538461538461
 40
0.8461538461538461
 40
0.8461538461538461
 40
0.8461538461538461
 40
0.8846153846153846
 40
0.8846153846153846
 40
0.8846153846153846
 40
0.8846153846153846
 40
0.9230769230769231
 40
0.9230769230769231
 40
0.9230769230769231
 40
0.9230769230769231
 40
1.0
 40
1.0
 40
1.0
 40
1.0
 10
35.9617
 20
62.1936
 30
0.0
 10
35.0401
 20
60.6718
 30
0.0
 10
33.6382
 20
59.3476
 30
0.0
 10
32.0098
 20
58.5257
 30
0.0
 10
32.0098
 20
58.5257
 30
0.0
 10
30.4184
 20
57.7223
 30
0.0
 10
28.9109
 20
58.1876
 30
0.0
 10
28.4478
 20
58.9778
 30
0.0
 10
28.4478
 20
58.9778
 30
0.0
 10
27.8377
 20
60.0212
 30
0.0
 10
26.9494
 20
59.7817
 30
0.0
 10
27.1605
 20
58.3695
 30
0.0
 10
27.1605
 20
58.3695
 30
0.0
 10
27.3725
 20
56.9581
 30
0.0
 10
28.402
 20
56.0711
 30
0.0
 10
28.402
 20
56.0711
 30
0.0
 10
28.402
 20
56.0711
 30
0.0
 10
25.7392
 20
53.971
 30
0.0
 10
23.6991
 20
51.1718
 30
0.0
 10
23.2238
 20
48.1333
 30
0.0
 10
23.2238
 20
48.1333
 30
0.0
 10
23.2238
 20
48.1333
 30
0.0
 10
21.1113
 20
48.1333
 30
0.0
 10
21.1113
 20
48.1333
 30
0.0
 10
21.1113
 20
48.1333
 30
0.0
 10
20.6355
 20
51.1727
 30
0.0
 10
18.5937
 20
53.9705
 30
0.0
 10
15.9301
 20
56.0711
 30
0.0
 10
15.9301
 20
56.0711
 30
0.0
 10
15.9305
 20
56.0718
 30
0.0
 10
16.9596
 20
56.9573
 30
0.0
 10
17.1708
 20
58.3695
 30
0.0
 10
17.1708
 20
58.3695
 30
0.0
 10
17.3837
 20
59.7822
 30
0.0
 10
16.497
 20
60.0206
 30
0.0
 10
15.8843
 20
58.9778
 30
0.0
 10
15.8843
 20
58.9778
 30
0.0
 10
15.4225
 20
58.1884
 30
0.0
 10
13.9178
 20
57.7219
 30
0.0
 10
12.3228
 20
58.5257
 30
0.0
 10
12.3228
 20
58.5257
 30
0.0
 10
10.6937
 20
59.3482
 30
0.0
 10
9.2919
 20
60.6708
 30
0.0
 10
8.3718
 20
62.1934
 30
0.0
 10
8.3718
 20
62.1934
 30
0.0
 10
6.5803
 20
65.1367
 30
0.0
 10
6.728
 20
70.3009
 30
0.0
 10
9.412
 20
72.7201
 30
0.0
 10
9.412
 20
72.7201
 30
0.0
 10
11.0474
 20
74.193
 30
0.0
 10
13.8381
 20
75.5712
 30
0.0
 10
15.8561
 20
74.0587
 30
0.0
 10
15.8561
 20
74.0587
 30
0.0
 10
17.4074
 20
72.8984
 30
0.0
 10
16.8799
 20
74.6937
 30
0.0
 10
16.4163
 20
75.2195
 30
0.0
 10
16.4163
 20
75.2195
 30
0.0
 10
15.9604
 20
75.7461
 30
0.0
 10
15.3239
 20
76.3982
 30
0.0
 10
15.3239
 20
76.3982
 30
0.0
 10
15.3239
 20
76.3982
 30
0.0
 10
15.3258
 20
76.3987
 30
0.0
 10
18.0515
 20
78.1305
 30
0.0
 10
19.8416
 20
81.0735
 30
0.0
 10
19.8416
 20
81.0735
 30
0.0
 10
20.5284
 20
82.2013
 30
0.0
 10
20.9364
 20
83.3336
 30
0.0
 10
21.1125
 20
84.4533
 30
0.0
 10
21.1125
 20
84.4533
 30
0.0
 10
21.1125
 20
84.4533
 30
0.0
 10
23.2226
 20
84.4542
 30
0.0
 10
23.2226
 20
84.4542
 30
0.0
 10
23.2226
 20
84.4542
 30
0.0
 10
23.3985
 20
83.3341
 30
0.0
 10
23.8065
 20
82.2005
 30
0.0
 10
24.4918
 20
81.0735
 30
0.0
 10
24.4918
 20
81.0735
 30
0.0
 10
26.2815
 20
78.1308
 30
0.0
 10
29.0055
 20
76.3982
 30
0.0
 10
29.0055
 20
76.3982
 30
0.0
 10
29.0055
 20
76.3982
 30
0.0
 10
29.006
 20
76.3987
 30
0.0
 10
28.3714
 20
75.7457
 30
0.0
 10
27.9132
 20
75.2195
 30
0.0
 10
27.9132
 20
75.2195
 30
0.0
 10
27.4562
 20
74.6947
 30
0.0
 10
26.927
 20
72.8984
 30
0.0
 10
28.4773
 20
74.0587
 30
0.0
 10
28.4773
 20
74.0587
 30
0.0
 10
30.4978
 20
75.5714
 30
0.0
 10
33.2847
 20
74.1925
 30
0.0
 10
34.9188
 20
72.7201
 30
0.0
 10
34.9188
 20
72.7201
 30
0.0
 10
37.612
 20
70.295
 30
0.0
 10
37.7503
 20
65.143
 30
0.0
 10
35.9615
 20
62.1934
 30
0.0
 10
35.9615
 20
62.1934
 30
0.0
 10
35.9615
 20
62.1934
 30
0.0
 10
35.9617
 20
62.1936
 30
0.0
 10
35.9617
 20
62.1936
 30
0.0
  0
SPLINE
  5
54
330
1F
100
AcDbEntity
  8
layer 1
 62
     7
100
AcDbSpline
210
0.0
220
0.0
230
1.0
 70
    11
 71
     3
 72
   124
 73
   120
 74
     0
 42
0.0000000001
 43
0.0000000001
 12
1.0
 22
0.0
 32
0.0
 13
1.0
 23
0.0
 33
0.0
 40
0.0
 40
0.0
 40
0.0
 40
0.0
 40
0.032258064516129
 40
0.032258064516129
 40
0.032258064516129
 40
0.032258064516129
 40
0.0645161290322581
 40
0.0645161290322581
 40
0.0645161290322581
 40
0.0645161290322581
 40
0.0967741935483871
 40
0.0967741935483871
 40
0.0967741935483871
 40
0.0967741935483871
 40
0.1290322580645161
 40
0.1290322580645161
 40
0.1290322580645161
 40
0.1290322580645161
 40
0.1612903225806452
 40
0.1612903225806452
 40
0.1612903225806452
 40
0.1612903225806452
 40
0.1935483870967742
 40
0.1935483870967742
 40
0.1935483870967742
 40
0.1935483870967742
 40
0.2258064516129032
 40
0.2258064516129032
 40
0.2258064516129032
 40
0.2258064516129032
 40
0.2580645161290323
 40
0.2580645161290323
 40
0.2580645161290323
 40
0.2580645161290323
 40
0.2903225806451613
 40
0.2903225806451613
 40
0.2903225806451613
 40
0.2903225806451613
 40
0.3225806451612903
 40
0.3225806451612903
 40
0.3225806451612903
 40
0.3225806451612903
 40
0.3548387096774194
 40
0.3548387096774194
 40
0.3548387096774194
 40
0.3548387096774194
 40
0.3870967741935484
 40
0.3870967741935484
 40
0.3870967741935484
 40
0.3870967741935484
 40
0.4193548387096774
 40
0.4193548387096774
 40
0.4193548387096774
 40
0.4193548387096774
 40
0.4516129032258064
 40
0.4516129032258064
 40
0.4516129032258064
 40
0.4516129032258064
 40
0.4838709677419355
 40
0.4838709677419355
 40
0.4838709677419355
 40
0.4838709677419355
 40
0.5161290322580645
 40
0.5161290322580645
 40
0.5161290322580645
 40
0.5161290322580645
 40
0.5483870967741935
 40
0.5483870967741935
 40
0.5483870967741935
 40
0.5483870967741935
 40
0.5806451612903226
 40
0.5806451612903226
 40
0.5806451612903226
 40
0.5806451612903226
 40
0.6129032258064516
 40
0.6129032258064516
 40
0.6129032258064516
 40
0.6129032258064516
 40
0.6451612903225806
 40
0.6451612903225806
 40
0.6451612903225806
 40
0.6451612903225806
 40
0.6774193548387096
 40
0.6774193548387096
 40
0.6774193548387096
 40
0.6774193548387096
 40
0.7096774193548387
 40
0.7096774193548387
 40
0.7096774193548387
 40
0.7096774193548387
 40
0.7419354838709677
 40
0.7419354838709677
 40
0.7419354838709677
 40
0.7419354838709677
 40
0.7741935483870968
 40
0.7741935483870968
 40
0.7741935483870968
 40
0.7741935483870968
 40
0.8064516129032258
 40
0.8064516129032258
 40
0.8064516129032258
 40
0.8064516129032258
 40
0.8387096774193549
 40
0.8387096774193549
 40
0.8387096774193549
 40
0.8387096774193549
 40
0.8709677419354839
 40
0.8709677419354839
 40
0.8709677419354839
 40
0.8709677419354839
 40
0.9032258064516129
 40
0.9032258064516129
 40
0.9032258064516129
 40
0.9032258064516129
 40
0.9354838709677419
 40
0.9354838709677419
 40
0.9354838709677419
 40
0.9354838709677419
 40
1.0
 40
1.0
 40
1.0
 40
1.0
 10
6.051
 20
100.895
 30
0.0
 10
6.621
 20
99.9583
 30
0.0
 10
7.6916
 20
98.5574
 30
0.0
 10
9.6983
 20
96.6311
 30
0.0
 10
9.6983
 20
96.6311
 30
0.0
 10
9.6991
 20
96.6315
 30
0.0
 10
12.2599
 20
94.4118
 30
0.0
 10
11.4706
 20
93.0287
 30
0.0
 10
11.4706
 20
93.0287
 30
0.0
 10
11.1911
 20
92.5321
 30
0.0
 10
10.9391
 20
92.1825
 30
0.0
 10
10.739
 20
91.9392
 30
0.0
 10
10.739
 20
91.9392
 30
0.0
 10
9.7228
 20
90.6982
 30
0.0
 10
11.3393
 20
90.6802
 30
0.0
 10
12.3512
 20
91.2166
 30
0.0
 10
12.3512
 20
91.2166
 30
0.0
 10
12.8438
 20
91.4774
 30
0.0
 10
13.2087
 20
91.8301
 30
0.0
 10
13.4778
 20
92.1702
 30
0.0
 10
13.4778
 20
92.1702
 30
0.0
 10
14.2905
 20
93.2104
 30
0.0
 10
13.7692
 20
93.6273
 30
0.0
 10
15.1244
 20
92.6552
 30
0.0
 10
15.1244
 20
92.6552
 30
0.0
 10
16.2005
 20
91.8847
 30
0.0
 10
17.8003
 20
90.3095
 30
0.0
 10
18.4233
 20
87.5157
 30
0.0
 10
18.4233
 20
87.5157
 30
0.0
 10
19.3279
 20
83.4584
 30
0.0
 10
17.3656
 20
80.1796
 30
0.0
 10
13.5864
 20
78.2894
 30
0.0
 10
13.5864
 20
78.2894
 30
0.0
 10
13.5875
 20
78.2905
 30
0.0
 10
13.4493
 20
80.1853
 30
0.0
 10
11.6712
 20
80.6813
 30
0.0
 10
11.6712
 20
80.6813
 30
0.0
 10
11.6712
 20
80.6816
 30
0.0
 10
9.6243
 20
80.9708
 30
0.0
 10
10.7217
 20
79.9098
 30
0.0
 10
10.7217
 20
79.9098
 30
0.0
 10
11.8149
 20
78.85
 30
0.0
 10
11.3734
 20
76.7965
 30
0.0
 10
9.9842
 20
75.7901
 30
0.0
 10
9.9842
 20
75.7901
 30
0.0
 10
9.1741
 20
75.2027
 30
0.0
 10
7.6173
 20
74.0392
 30
0.0
 10
6.5076
 20
72.2578
 30
0.0
 10
6.5076
 20
72.2578
 30
0.0
 10
6.4369
 20
72.1428
 30
0.0
 10
6.3699
 20
72.0285
 30
0.0
 10
6.304
 20
71.9212
 30
0.0
 10
6.304
 20
71.9212
 30
0.0
 10
5.1571
 20
70.0571
 30
0.0
 10
5.0875
 20
70.3426
 30
0.0
 10
4.227
 20
72.0265
 30
0.0
 10
4.227
 20
72.0265
 30
0.0
 10
4.1794
 20
72.1203
 30
0.0
 10
4.1166
 20
72.2083
 30
0.0
 10
4.0568
 20
72.3026
 30
0.0
 10
4.0568
 20
72.3026
 30
0.0
 10
2.9491
 20
74.0591
 30
0.0
 10
1.4131
 20
75.2075
 30
0.0
 10
0.6087
 20
75.7901
 30
0.0
 10
0.6087
 20
75.7901
 30
0.0
 10
-0.7806
 20
76.7974
 30
0.0
 10
-1.2248
 20
78.8491
 30
0.0
 10
-0.1275
 20
79.9098
 30
0.0
 10
-0.1275
 20
79.9098
 30
0.0
 10
0.9708
 20
80.9709
 30
0.0
 10
-1.0771
 20
80.6813
 30
0.0
 10
-1.0771
 20
80.6813
 30
0.0
 10
-1.0771
 20
80.6813
 30
0.0
 10
-2.8555
 20
80.1853
 30
0.0
 10
-2.9938
 20
78.2894
 30
0.0
 10
-2.9938
 20
78.2894
 30
0.0
 10
-2.9938
 20
78.2894
 30
0.0
 10
-6.7738
 20
80.18
 30
0.0
 10
-8.7317
 20
83.4583
 30
0.0
 10
-7.8294
 20
87.5157
 30
0.0
 10
-7.8294
 20
87.5157
 30
0.0
 10
-7.2069
 20
90.3102
 30
0.0
 10
-5.6038
 20
91.8842
 30
0.0
 10
-4.5321
 20
92.6552
 30
0.0
 10
-4.5321
 20
92.6552
 30
0.0
 10
-3.1792
 20
93.6274
 30
0.0
 10
-3.6987
 20
93.2095
 30
0.0
 10
-2.8826
 20
92.1702
 30
0.0
 10
-2.8826
 20
92.1702
 30
0.0
 10
-2.6152
 20
91.8301
 30
0.0
 10
-2.249
 20
91.4765
 30
0.0
 10
-1.7592
 20
91.2166
 30
0.0
 10
-1.7592
 20
91.2166
 30
0.0
 10
-0.7483
 20
90.6811
 30
0.0
 10
0.8736
 20
90.6976
 30
0.0
 10
-0.1481
 20
91.9392
 30
0.0
 10
-0.1481
 20
91.9392
 30
0.0
 10
-0.3476
 20
92.1825
 30
0.0
 10
-0.5958
 20
92.5314
 30
0.0
 10
-0.8788
 20
93.0287
 30
0.0
 10
-0.8788
 20
93.0287
 30
0.0
 10
-1.6658
 20
94.4119
 30
0.0
 10
0.893
 20
96.6311
 30
0.0
 10
0.893
 20
96.6311
 30
0.0
 10
0.893
 20
96.6311
 30
0.0
 10
2.7585
 20
98.4449
 30
0.0
 10
3.8149
 20
99.7957
 30
0.0
 10
4.4147
 20
100.731
 30
0.0
 10
4.4147
 20
100.731
 30
0.0
 10
4.4777
 20
100.8286
 30
0.0
 10
4.5359
 20
100.9187
 30
0.0
 10
4.5865
 20
101.0079
 30
0.0
 10
4.5865
 20
101.0079
 30
0.0
 10
5.3307
 20
102.3236
 30
0.0
 10
5.4814
 20
101.8257
 30
0.0
 10
6.049
 20
100.8942
 30
0.0
 10
6.049
 20
100.8942
 30
0.0
 10
6.049
 20
100.8942
 30
0.0
 10
6.051
 20
100.895
 30
0.0
 10
6.051
 20
100.895
 30
0.0
  0
SPLINE
  5
55
330
1F
100
AcDbEntity
  8
layer 1
 62
     7
100
AcDbSpline
210
0.0
220
0.0
230
1.0
 70
    11
 71
     3
 72
   124
 73
   120
 74
     0
 42
0.0000000001
 43
0.0000000001
 12
1.0
 22
0.0
 32
0.0
 13
1.0
 23
0.0
 33
0.0
 40
0.0
 40
0.0
 40
0.0
 40
0.0
 40
0.032258064516129
 40
0.032258064516129
 40
0.032258064516129
 40
0.032258064516129
 40
0.0645161290322581
 40
0.0645161290322581
 40
0.0645161290322581
 40
0.0645161290322581
 40
0.0967741935483871
 40
0.0967741935483871
 40
0.0967741935483871
 40
0.0967741935483871
 40
0.1290322580645161
 40
0.1290322580645161
 40
0.1290322580645161
 40
0.1290322580645161
 40
0.1612903225806452
 40
0.1612903225806452
 40
0.1612903225806452
 40
0.1612903225806452
 40
0.1935483870967742
 40
0.1935483870967742
 40
0.1935483870967742
 40
0.1935483870967742
 40
0.2258064516129032
 40
0.2258064516129032
 40
0.2258064516129032
 40
0.2258064516129032
 40
0.2580645161290323
 40
0.2580645161290323
 40
0.2580645161290323
 40
0.2580645161290323
 40
0.2903225806451613
 40
0.2903225806451613
 40
0.2903225806451613
 40
0.2903225806451613
 40
0.3225806451612903
 40
0.3225806451612903
 40
0.3225806451612903
 40
0.3225806451612903
 40
0.3548387096774194
 40
0.3548387096774194
 40
0.3548387096774194
 40
0.3548387096774194
 40
0.3870967741935484
 40
0.3870967741935484
 40
0.3870967741935484
 40
0.3870967741935484
 40
0.4193548387096774
 40
0.4193548387096774
 40
0.4193548387096774
 40
0.4193548387096774
 40
0.4516129032258064
 40
0.4516129032258064
 40
0.4516129032258064
 40
0.4516129032258064
 40
0.4838709677419355
 40
0.4838709677419355
 40
0.4838709677419355
 40
0.4838709677419355
 40
0.5161290322580645
 40
0.5161290322580645
 40
0.5161290322580645
 40
0.5161290322580645
 40
0.5483870967741935
 40
0.5483870967741935
 40
0.5483870967741935
 40
0.5483870967741935
 40
0.5806451612903226
 40
0.5806451612903226
 40
0.5806451612903226
 40
0.5806451612903226
 40
0.6129032258064516
 40
0.6129032258064516
 40
0.6129032258064516
 40
0.6129032258064516
 40
0.6451612903225806
 40
0.6451612903225806
 40
0.6451612903225806
 40
0.6451612903225806
 40
0.6774193548387096
 40
0.6774193548387096
 40
0.6774193548387096
 40
0.6774193548387096
 40
0.7096774193548387
 40
0.7096774193548387
 40
0.7096774193548387
 40
0.7096774193548387
 40
0.7419354838709677
 40
0.7419354838709677
 40
0.7419354838709677
 40
0.7419354838709677
 40
0.7741935483870968
 40
0.7741935483870968
 40
0.7741935483870968
 40
0.7741935483870968
 40
0.8064516129032258
 40
0.8064516129032258
 40
0.8064516129032258
 40
0.8064516129032258
 40
0.8387096774193549
 40
0.8387096774193549
 40
0.8387096774193549
 40
0.8387096774193549
 40
0.8709677419354839
 40
0.8709677419354839
 40
0.8709677419354839
 40
0.8709677419354839
 40
0.9032258064516129
 40
0.9032258064516129
 40
0.9032258064516129
 40
0.9032258064516129
 40
0.9354838709677419
 40
0.9354838709677419
 40
0.9354838709677419
 40
0.9354838709677419
 40
1.0
 40
1.0
 40
1.0
 40
1.0
 10
6.051
 20
61.9246
 30
0.0
 10
6.621
 20
60.989
 30
0.0
 10
7.6916
 20
59.5877
 30
0.0
 10
9.6983
 20
57.6613
 30
0.0
 10
9.6983
 20
57.6613
 30
0.0
 10
9.6991
 20
57.6622
 30
0.0
 10
12.2599
 20
55.4416
 30
0.0
 10
11.4706
 20
54.0588
 30
0.0
 10
11.4706
 20
54.0588
 30
0.0
 10
11.1911
 20
53.5616
 30
0.0
 10
10.9391
 20
53.2122
 30
0.0
 10
10.739
 20
52.9688
 30
0.0
 10
10.739
 20
52.9688
 30
0.0
 10
9.7228
 20
51.7279
 30
0.0
 10
11.3393
 20
51.7103
 30
0.0
 10
12.3512
 20
52.2463
 30
0.0
 10
12.3512
 20
52.2463
 30
0.0
 10
12.8438
 20
52.507
 30
0.0
 10
13.2087
 20
52.8597
 30
0.0
 10
13.4778
 20
53.1997
 30
0.0
 10
13.4778
 20
53.1997
 30
0.0
 10
14.2905
 20
54.2402
 30
0.0
 10
13.7692
 20
54.6572
 30
0.0
 10
15.1244
 20
53.6854
 30
0.0
 10
15.1244
 20
53.6854
 30
0.0
 10
16.2005
 20
52.9144
 30
0.0
 10
17.8003
 20
51.3397
 30
0.0
 10
18.4233
 20
48.5456
 30
0.0
 10
18.4233
 20
48.5456
 30
0.0
 10
19.3279
 20
44.4893
 30
0.0
 10
17.3656
 20
41.2095
 30
0.0
 10
13.5864
 20
39.3193
 30
0.0
 10
13.5864
 20
39.3193
 30
0.0
 10
13.5875
 20
39.3201
 30
0.0
 10
13.4493
 20
41.2154
 30
0.0
 10
11.6712
 20
41.7114
 30
0.0
 10
11.6712
 20
41.7114
 30
0.0
 10
11.6712
 20
41.7123
 30
0.0
 10
9.6243
 20
42.0006
 30
0.0
 10
10.7217
 20
40.9398
 30
0.0
 10
10.7217
 20
40.9398
 30
0.0
 10
11.8149
 20
39.8795
 30
0.0
 10
11.3734
 20
37.8266
 30
0.0
 10
9.9842
 20
36.8207
 30
0.0
 10
9.9842
 20
36.8207
 30
0.0
 10
9.1741
 20
36.2323
 30
0.0
 10
7.6173
 20
35.0696
 30
0.0
 10
6.5076
 20
33.2881
 30
0.0
 10
6.5076
 20
33.2881
 30
0.0
 10
6.4369
 20
33.1725
 30
0.0
 10
6.3699
 20
33.0584
 30
0.0
 10
6.304
 20
32.9513
 30
0.0
 10
6.304
 20
32.9513
 30
0.0
 10
5.1571
 20
31.0869
 30
0.0
 10
5.0875
 20
31.3724
 30
0.0
 10
4.227
 20
33.0567
 30
0.0
 10
4.227
 20
33.0567
 30
0.0
 10
4.1794
 20
33.1501
 30
0.0
 10
4.1166
 20
33.2385
 30
0.0
 10
4.0568
 20
33.3325
 30
0.0
 10
4.0568
 20
33.3325
 30
0.0
 10
2.9491
 20
35.0888
 30
0.0
 10
1.4131
 20
36.2376
 30
0.0
 10
0.6087
 20
36.8207
 30
0.0
 10
0.6087
 20
36.8207
 30
0.0
 10
-0.7806
 20
37.8272
 30
0.0
 10
-1.2248
 20
39.8791
 30
0.0
 10
-0.1275
 20
40.9398
 30
0.0
 10
-0.1275
 20
40.9398
 30
0.0
 10
0.9708
 20
42.0006
 30
0.0
 10
-1.0771
 20
41.7114
 30
0.0
 10
-1.0771
 20
41.7114
 30
0.0
 10
-1.0771
 20
41.7114
 30
0.0
 10
-2.8555
 20
41.216
 30
0.0
 10
-2.9938
 20
39.3193
 30
0.0
 10
-2.9938
 20
39.3193
 30
0.0
 10
-2.9938
 20
39.3193
 30
0.0
 10
-6.7738
 20
41.2096
 30
0.0
 10
-8.7317
 20
44.4887
 30
0.0
 10
-7.8294
 20
48.5456
 30
0.0
 10
-7.8294
 20
48.5456
 30
0.0
 10
-7.2069
 20
51.34
 30
0.0
 10
-5.6038
 20
52.9142
 30
0.0
 10
-4.5321
 20
53.6854
 30
0.0
 10
-4.5321
 20
53.6854
 30
0.0
 10
-3.1792
 20
54.6581
 30
0.0
 10
-3.6987
 20
54.2399
 30
0.0
 10
-2.8826
 20
53.1997
 30
0.0
 10
-2.8826
 20
53.1997
 30
0.0
 10
-2.6152
 20
52.8607
 30
0.0
 10
-2.249
 20
52.5065
 30
0.0
 10
-1.7592
 20
52.2463
 30
0.0
 10
-1.7592
 20
52.2463
 30
0.0
 10
-0.7483
 20
51.7107
 30
0.0
 10
0.8736
 20
51.7279
 30
0.0
 10
-0.1481
 20
52.9688
 30
0.0
 10
-0.1481
 20
52.9688
 30
0.0
 10
-0.3476
 20
53.2123
 30
0.0
 10
-0.5958
 20
53.5615
 30
0.0
 10
-0.8788
 20
54.0588
 30
0.0
 10
-0.8788
 20
54.0588
 30
0.0
 10
-1.6658
 20
55.4416
 30
0.0
 10
0.893
 20
57.6613
 30
0.0
 10
0.893
 20
57.6613
 30
0.0
 10
0.893
 20
57.6613
 30
0.0
 10
2.7585
 20
59.4747
 30
0.0
 10
3.8149
 20
60.8255
 30
0.0
 10
4.4147
 20
61.7605
 30
0.0
 10
4.4147
 20
61.7605
 30
0.0
 10
4.4777
 20
61.8581
 30
0.0
 10
4.5359
 20
61.9486
 30
0.0
 10
4.5865
 20
62.0379
 30
0.0
 10
4.5865
 20
62.0379
 30
0.0
 10
5.3307
 20
63.3532
 30
0.0
 10
5.4814
 20
62.8557
 30
0.0
 10
6.049
 20
61.9245
 30
0.0
 10
6.049
 20
61.9245
 30
0.0
 10
6.049
 20
61.9245
 30
0.0
 10
6.051
 20
61.9246
 30
0.0
 10
6.051
 20
61.9246
 30
0.0
  0
SPLINE
  5
56
330
1F
100
AcDbEntity
  8
layer 1
 62
     7
100
AcDbSpline
210
0.0
220
0.0
230
1.0
 70
    11
 71
     3
 72
   120
 73
   116
 74
     0
 42
0.0000000001
 43
0.0000000001
 12
1.0
 22
0.0
 32
0.0
 13
1.0
 23
0.0
 33
0.0
 40
0.0
 40
0.0
 40
0.0
 40
0.0
 40
0.0333333333333333
 40
0.0333333333333333
 40
0.0333333333333333
 40
0.0333333333333333
 40
0.0666666666666667
 40
0.0666666666666667
 40
0.0666666666666667
 40
0.0666666666666667
 40
0.1
 40
0.1
 40
0.1
 40
0.1
 40
0.1333333333333333
 40
0.1333333333333333
 40
0.1333333333333333
 40
0.1333333333333333
 40
0.1666666666666667
 40
0.1666666666666667
 40
0.1666666666666667
 40
0.1666666666666667
 40
0.2
 40
0.2
 40
0.2
 40
0.2
 40
0.2333333333333333
 40
0.2333333333333333
 40
0.2333333333333333
 40
0.2333333333333333
 40
0.2666666666666667
 40
0.2666666666666667
 40
0.2666666666666667
 40
0.2666666666666667
 40
0.3
 40
0.3
 40
0.3
 40
0.3
 40
0.3333333333333333
 40
0.3333333333333333
 40
0.3333333333333333
 40
0.3333333333333333
 40
0.3666666666666666
 40
0.3666666666666666
 40
0.3666666666666666
 40
0.3666666666666666
 40
0.4
 40
0.4
 40
0.4
 40
0.4
 40
0.4333333333333333
 40
0.4333333333333333
 40
0.4333333333333333
 40
0.4333333333333333
 40
0.4666666666666667
 40
0.4666666666666667
 40
0.4666666666666667
 40
0.4666666666666667
 40
0.5
 40
0.5
 40
0.5
 40
0.5
 40
0.5333333333333333
 40
0.5333333333333333
 40
0.5333333333333333
 40
0.5333333333333333
 40
0.5666666666666667
 40
0.5666666666666667
 40
0.5666666666666667
 40
0.5666666666666667
 40
0.6
 40
0.6
 40
0.6
 40
0.6
 40
0.6333333333333333
 40
0.6333333333333333
 40
0.6333333333333333
 40
0.6333333333333333
 40
0.6666666666666666
 40
0.6666666666666666
 40
0.6666666666666666
 40
0.6666666666666666
 40
0.7
 40
0.7
 40
0.7
 40
0.7
 40
0.7333333333333333
 40
0.7333333333333333
 40
0.7333333333333333
 40
0.7333333333333333
 40
0.7666666666666667
 40
0.7666666666666667
 40
0.7666666666666667
 40
0.7666666666666667
 40
0.8
 40
0.8
 40
0.8
 40
0.8
 40
0.8333333333333334
 40
0.8333333333333334
 40
0.8333333333333334
 40
0.8333333333333334
 40
0.8666666666666667
 40
0.8666666666666667
 40
0.8666666666666667
 40
0.8666666666666667
 40
0.9
 40
0.9
 40
0.9
 40
0.9
 40
0.9333333333333333
 40
0.9333333333333333
 40
0.9333333333333333
 40
0.9333333333333333
 40
1.0
 40
1.0
 40
1.0
 40
1.0
 10
-12.7629
 20
48.1248
 30
0.0
 10
-12.7629
 20
48.1248
 30
0.0
 10
-12.1239
 20
48.1248
 30
0.0
 10
-12.1239
 20
48.1248
 30
0.0
 10
-12.1239
 20
48.1248
 30
0.0
 10
-12.1239
 20
48.1248
 30
0.0
 10
-12.1239
 20
48.1364
 30
0.0
 10
-12.1239
 20
48.1364
 30
0.0
 10
-12.1239
 20
48.1364
 30
0.0
 10
-12.1239
 20
48.1364
 30
0.0
 10
-11.599
 20
48.1364
 30
0.0
 10
-11.599
 20
48.1364
 30
0.0
 10
-11.599
 20
48.1364
 30
0.0
 10
-11.599
 20
48.1364
 30
0.0
 10
-11.599
 20
48.1248
 30
0.0
 10
-11.599
 20
48.1248
 30
0.0
 10
-11.599
 20
48.1248
 30
0.0
 10
-11.599
 20
48.1248
 30
0.0
 10
-10.5164
 20
48.1248
 30
0.0
 10
-10.5164
 20
48.1248
 30
0.0
 10
-10.5164
 20
48.1248
 30
0.0
 10
-10.0427
 20
51.1673
 30
0.0
 10
-8.0039
 20
53.968
 30
0.0
 10
-5.3376
 20
56.0711
 30
0.0
 10
-5.3376
 20
56.0711
 30
0.0
 10
-5.3376
 20
56.0718
 30
0.0
 10
-6.3687
 20
56.9573
 30
0.0
 10
-6.5795
 20
58.3695
 30
0.0
 10
-6.5795
 20
58.3695
 30
0.0
 10
-6.7888
 20
59.7822
 30
0.0
 10
-5.9044
 20
60.0206
 30
0.0
 10
-5.2925
 20
58.9778
 30
0.0
 10
-5.2925
 20
58.9778
 30
0.0
 10
-4.8274
 20
58.1884
 30
0.0
 10
-3.3234
 20
57.7219
 30
0.0
 10
-1.7302
 20
58.5257
 30
0.0
 10
-1.7302
 20
58.5257
 30
0.0
 10
-0.1011
 20
59.3482
 30
0.0
 10
1.2978
 20
60.6708
 30
0.0
 10
2.2214
 20
62.1934
 30
0.0
 10
2.2214
 20
62.1934
 30
0.0
 10
4.0123
 20
65.1431
 30
0.0
 10
3.8717
 20
70.2947
 30
0.0
 10
1.1793
 20
72.7201
 30
0.0
 10
1.1793
 20
72.7201
 30
0.0
 10
-0.4548
 20
74.193
 30
0.0
 10
-3.2436
 20
75.5712
 30
0.0
 10
-5.2628
 20
74.0587
 30
0.0
 10
-5.2628
 20
74.0587
 30
0.0
 10
-6.8124
 20
72.8984
 30
0.0
 10
-6.2847
 20
74.6937
 30
0.0
 10
-5.8265
 20
75.2195
 30
0.0
 10
-5.8265
 20
75.2195
 30
0.0
 10
-5.3675
 20
75.7461
 30
0.0
 10
-4.7348
 20
76.3982
 30
0.0
 10
-4.7348
 20
76.3982
 30
0.0
 10
-4.7348
 20
76.3982
 30
0.0
 10
-4.7333
 20
76.3987
 30
0.0
 10
-7.4586
 20
78.1305
 30
0.0
 10
-9.2477
 20
81.0735
 30
0.0
 10
-9.2477
 20
81.0735
 30
0.0
 10
-9.9312
 20
82.198
 30
0.0
 10
-10.3402
 20
83.3279
 30
0.0
 10
-10.5169
 20
84.4448
 30
0.0
 10
-10.5169
 20
84.4448
 30
0.0
 10
-10.5169
 20
84.4448
 30
0.0
 10
-12.765
 20
84.4456
 30
0.0
 10
-12.765
 20
84.4456
 30
0.0
 10
-12.765
 20
84.4456
 30
0.0
 10
-12.9409
 20
83.3288
 30
0.0
 10
-13.3509
 20
82.1972
 30
0.0
 10
-14.0343
 20
81.0735
 30
0.0
 10
-14.0343
 20
81.0735
 30
0.0
 10
-15.8237
 20
78.1308
 30
0.0
 10
-18.5517
 20
76.3982
 30
0.0
 10
-18.5517
 20
76.3982
 30
0.0
 10
-18.5517
 20
76.3982
 30
0.0
 10
-18.5504
 20
76.3987
 30
0.0
 10
-17.9168
 20
75.7457
 30
0.0
 10
-17.4599
 20
75.2195
 30
0.0
 10
-17.4599
 20
75.2195
 30
0.0
 10
-16.9962
 20
74.6947
 30
0.0
 10
-16.4705
 20
72.8984
 30
0.0
 10
-18.0195
 20
74.0587
 30
0.0
 10
-18.0195
 20
74.0587
 30
0.0
 10
-20.0378
 20
75.5714
 30
0.0
 10
-22.8288
 20
74.1925
 30
0.0
 10
-24.4639
 20
72.7201
 30
0.0
 10
-24.4639
 20
72.7201
 30
0.0
 10
-27.148
 20
70.3015
 30
0.0
 10
-27.2962
 20
65.136
 30
0.0
 10
-25.5039
 20
62.1934
 30
0.0
 10
-25.5039
 20
62.1934
 30
0.0
 10
-24.5844
 20
60.6718
 30
0.0
 10
-23.1828
 20
59.3476
 30
0.0
 10
-21.5533
 20
58.5257
 30
0.0
 10
-21.5533
 20
58.5257
 30
0.0
 10
-19.9565
 20
57.7223
 30
0.0
 10
-18.4543
 20
58.1876
 30
0.0
 10
-17.991
 20
58.9778
 30
0.0
 10
-17.991
 20
58.9778
 30
0.0
 10
-17.3778
 20
60.0212
 30
0.0
 10
-16.4931
 20
59.7817
 30
0.0
 10
-16.7052
 20
58.3695
 30
0.0
 10
-16.7052
 20
58.3695
 30
0.0
 10
-16.915
 20
56.9581
 30
0.0
 10
-17.9455
 20
56.0711
 30
0.0
 10
-17.9455
 20
56.0711
 30
0.0
 10
-17.9455
 20
56.0711
 30
0.0
 10
-15.2793
 20
53.9689
 30
0.0
 10
-13.238
 20
51.1664
 30
0.0
 10
-12.7648
 20
48.1245
 30
0.0
 10
-12.7648
 20
48.1245
 30
0.0
 10
-12.7648
 20
48.1245
 30
0.0
 10
-12.7629
 20
48.1248
 30
0.0
 10
-12.7629
 20
48.1248
 30
0.0
  0
SPLINE
  5
57
330
1F
100
AcDbEntity
  8
layer 1
 62
     7
100
AcDbSpline
210
0.0
220
0.0
230
1.0
 70
    11
 71
     3
 72
   104
 73
   100
 74
     0
 42
0.0000000001
 43
0.0000000001
 12
1.0
 22
0.0
 32
0.0
 13
1.0
 23
0.0
 33
0.0
 40
0.0
 40
0.0
 40
0.0
 40
0.0
 40
0.0384615384615385
 40
0.0384615384615385
 40
0.0384615384615385
 40
0.0384615384615385
 40
0.0769230769230769
 40
0.0769230769230769
 40
0.0769230769230769
 40
0.0769230769230769
 40
0.1153846153846154
 40
0.1153846153846154
 40
0.1153846153846154
 40
0.1153846153846154
 40
0.1538461538461539
 40
0.1538461538461539
 40
0.1538461538461539
 40
0.1538461538461539
 40
0.1923076923076923
 40
0.1923076923076923
 40
0.1923076923076923
 40
0.1923076923076923
 40
0.2307692307692308
 40
0.2307692307692308
 40
0.2307692307692308
 40
0.2307692307692308
 40
0.2692307692307692
 40
0.2692307692307692
 40
0.2692307692307692
 40
0.2692307692307692
 40
0.3076923076923077
 40
0.3076923076923077
 40
0.3076923076923077
 40
0.3076923076923077
 40
0.3461538461538461
 40
0.3461538461538461
 40
0.3461538461538461
 40
0.3461538461538461
 40
0.3846153846153846
 40
0.3846153846153846
 40
0.3846153846153846
 40
0.3846153846153846
 40
0.4230769230769231
 40
0.4230769230769231
 40
0.4230769230769231
 40
0.4230769230769231
 40
0.4615384615384616
 40
0.4615384615384616
 40
0.4615384615384616
 40
0.4615384615384616
 40
0.5
 40
0.5
 40
0.5
 40
0.5
 40
0.5384615384615384
 40
0.5384615384615384
 40
0.5384615384615384
 40
0.5384615384615384
 40
0.5769230769230769
 40
0.5769230769230769
 40
0.5769230769230769
 40
0.5769230769230769
 40
0.6153846153846154
 40
0.6153846153846154
 40
0.6153846153846154
 40
0.6153846153846154
 40
0.6538461538461539
 40
0.6538461538461539
 40
0.6538461538461539
 40
0.6538461538461539
 40
0.6923076923076923
 40
0.6923076923076923
 40
0.6923076923076923
 40
0.6923076923076923
 40
0.7307692307692307
 40
0.7307692307692307
 40
0.7307692307692307
 40
0.7307692307692307
 40
0.7692307692307693
 40
0.7692307692307693
 40
0.7692307692307693
 40
0.7692307692307693
 40
0.8076923076923077
 40
0.8076923076923077
 40
0.8076923076923077
 40
0.8076923076923077
 40
0.8461538461538461
 40
0.8461538461538461
 40
0.8461538461538461
 40
0.8461538461538461
 40
0.8846153846153846
 40
0.8846153846153846
 40
0.8846153846153846
 40
0.8846153846153846
 40
0.9230769230769231
 40
0.9230769230769231
 40
0.9230769230769231
 40
0.9230769230769231
 40
1.0
 40
1.0
 40
1.0
 40
1.0
 10
-12.765
 20
9.1553
 30
0.0
 10
-12.765
 20
9.1553
 30
0.0
 10
-10.5164
 20
9.1553
 30
0.0
 10
-10.5164
 20
9.1553
 30
0.0
 10
-10.5164
 20
9.1553
 30
0.0
 10
-10.0427
 20
12.1959
 30
0.0
 10
-8.0033
 20
14.9961
 30
0.0
 10
-5.3376
 20
17.0982
 30
0.0
 10
-5.3376
 20
17.0982
 30
0.0
 10
-5.3376
 20
17.0982
 30
0.0
 10
-6.3687
 20
17.9843
 30
0.0
 10
-6.5795
 20
19.3966
 30
0.0
 10
-6.5795
 20
19.3966
 30
0.0
 10
-6.7888
 20
20.8096
 30
0.0
 10
-5.9044
 20
21.0477
 30
0.0
 10
-5.2925
 20
20.0048
 30
0.0
 10
-5.2925
 20
20.0048
 30
0.0
 10
-4.8274
 20
19.2149
 30
0.0
 10
-3.3234
 20
18.7489
 30
0.0
 10
-1.7302
 20
19.5528
 30
0.0
 10
-1.7302
 20
19.5528
 30
0.0
 10
-0.1011
 20
20.3757
 30
0.0
 10
1.2978
 20
21.6979
 30
0.0
 10
2.2214
 20
23.2204
 30
0.0
 10
2.2214
 20
23.2204
 30
0.0
 10
4.0123
 20
26.1706
 30
0.0
 10
3.8714
 20
31.3247
 30
0.0
 10
1.1793
 20
33.7502
 30
0.0
 10
1.1793
 20
33.7502
 30
0.0
 10
-0.4548
 20
35.2228
 30
0.0
 10
-3.2436
 20
36.6012
 30
0.0
 10
-5.2628
 20
35.0888
 30
0.0
 10
-5.2628
 20
35.0888
 30
0.0
 10
-6.8124
 20
33.9291
 30
0.0
 10
-6.2847
 20
35.7235
 30
0.0
 10
-5.8265
 20
36.2494
 30
0.0
 10
-5.8265
 20
36.2494
 30
0.0
 10
-5.3675
 20
36.7757
 30
0.0
 10
-4.7348
 20
37.4282
 30
0.0
 10
-4.7348
 20
37.4282
 30
0.0
 10
-4.7348
 20
37.4282
 30
0.0
 10
-4.7333
 20
37.4284
 30
0.0
 10
-7.4586
 20
39.1603
 30
0.0
 10
-9.2477
 20
42.1031
 30
0.0
 10
-9.2477
 20
42.1031
 30
0.0
 10
-9.9312
 20
43.2278
 30
0.0
 10
-10.3402
 20
44.3578
 30
0.0
 10
-10.5169
 20
45.4747
 30
0.0
 10
-10.5169
 20
45.4747
 30
0.0
 10
-10.5169
 20
45.4747
 30
0.0
 10
-12.7629
 20
45.4752
 30
0.0
 10
-12.7629
 20
45.4752
 30
0.0
 10
-12.7629
 20
45.4752
 30
0.0
 10
-12.9409
 20
44.3584
 30
0.0
 10
-13.3509
 20
43.2272
 30
0.0
 10
-14.0343
 20
42.1031
 30
0.0
 10
-14.0343
 20
42.1031
 30
0.0
 10
-15.8237
 20
39.1603
 30
0.0
 10
-18.5517
 20
37.4282
 30
0.0
 10
-18.5517
 20
37.4282
 30
0.0
 10
-18.5517
 20
37.4282
 30
0.0
 10
-18.5504
 20
37.4284
 30
0.0
 10
-17.9168
 20
36.7752
 30
0.0
 10
-17.4599
 20
36.2494
 30
0.0
 10
-17.4599
 20
36.2494
 30
0.0
 10
-16.9962
 20
35.7243
 30
0.0
 10
-16.4705
 20
33.9283
 30
0.0
 10
-18.0195
 20
35.0888
 30
0.0
 10
-18.0195
 20
35.0888
 30
0.0
 10
-20.0378
 20
36.6012
 30
0.0
 10
-22.8288
 20
35.2226
 30
0.0
 10
-24.4639
 20
33.7502
 30
0.0
 10
-24.4639
 20
33.7502
 30
0.0
 10
-27.148
 20
31.3313
 30
0.0
 10
-27.2965
 20
26.1633
 30
0.0
 10
-25.5039
 20
23.2204
 30
0.0
 10
-25.5039
 20
23.2204
 30
0.0
 10
-24.5844
 20
21.6981
 30
0.0
 10
-23.1828
 20
20.3752
 30
0.0
 10
-21.5533
 20
19.5528
 30
0.0
 10
-21.5533
 20
19.5528
 30
0.0
 10
-19.9565
 20
18.7497
 30
0.0
 10
-18.4543
 20
19.2147
 30
0.0
 10
-17.991
 20
20.0048
 30
0.0
 10
-17.991
 20
20.0048
 30
0.0
 10
-17.3778
 20
21.0486
 30
0.0
 10
-16.4931
 20
20.8088
 30
0.0
 10
-16.7052
 20
19.3966
 30
0.0
 10
-16.7052
 20
19.3966
 30
0.0
 10
-16.915
 20
17.9846
 30
0.0
 10
-17.9455
 20
17.0982
 30
0.0
 10
-17.9455
 20
17.0982
 30
0.0
 10
-17.9455
 20
17.0982
 30
0.0
 10
-15.2793
 20
14.9965
 30
0.0
 10
-13.239
 20
12.1953
 30
0.0
 10
-12.7653
 20
9.1544
 30
0.0
 10
-12.7653
 20
9.1544
 30
0.0
 10
-12.7653
 20
9.1544
 30
0.0
 10
-12.765
 20
9.1553
 30
0.0
 10
-12.765
 20
9.1553
 30
0.0
  0
SPLINE
  5
58
330
1F
100
AcDbEntity
  8
layer 1
 62
     7
100
AcDbSpline
210
0.0
220
0.0
230
1.0
 70
    11
 71
     3
 72
   104
 73
   100
 74
     0
 42
0.0000000001
 43
0.0000000001
 12
1.0
 22
0.0
 32
0.0
 13
1.0
 23
0.0
 33
0.0
 40
0.0
 40
0.0
 40
0.0
 40
0.0
 40
0.0384615384615385
 40
0.0384615384615385
 40
0.0384615384615385
 40
0.0384615384615385
 40
0.0769230769230769
 40
0.0769230769230769
 40
0.0769230769230769
 40
0.0769230769230769
 40
0.1153846153846154
 40
0.1153846153846154
 40
0.1153846153846154
 40
0.1153846153846154
 40
0.1538461538461539
 40
0.1538461538461539
 40
0.1538461538461539
 40
0.1538461538461539
 40
0.1923076923076923
 40
0.1923076923076923
 40
0.1923076923076923
 40
0.1923076923076923
 40
0.2307692307692308
 40
0.2307692307692308
 40
0.2307692307692308
 40
0.2307692307692308
 40
0.2692307692307692
 40
0.2692307692307692
 40
0.2692307692307692
 40
0.2692307692307692
 40
0.3076923076923077
 40
0.3076923076923077
 40
0.3076923076923077
 40
0.3076923076923077
 40
0.3461538461538461
 40
0.3461538461538461
 40
0.3461538461538461
 40
0.3461538461538461
 40
0.3846153846153846
 40
0.3846153846153846
 40
0.3846153846153846
 40
0.3846153846153846
 40
0.4230769230769231
 40
0.4230769230769231
 40
0.4230769230769231
 40
0.4230769230769231
 40
0.4615384615384616
 40
0.4615384615384616
 40
0.4615384615384616
 40
0.4615384615384616
 40
0.5
 40
0.5
 40
0.5
 40
0.5
 40
0.5384615384615384
 40
0.5384615384615384
 40
0.5384615384615384
 40
0.5384615384615384
 40
0.5769230769230769
 40
0.5769230769230769
 40
0.5769230769230769
 40
0.5769230769230769
 40
0.6153846153846154
 40
0.6153846153846154
 40
0.6153846153846154
 40
0.6153846153846154
 40
0.6538461538461539
 40
0.6538461538461539
 40
0.6538461538461539
 40
0.6538461538461539
 40
0.6923076923076923
 40
0.6923076923076923
 40
0.6923076923076923
 40
0.6923076923076923
 40
0.7307692307692307
 40
0.7307692307692307
 40
0.7307692307692307
 40
0.7307692307692307
 40
0.7692307692307693
 40
0.7692307692307693
 40
0.7692307692307693
 40
0.7692307692307693
 40
0.8076923076923077
 40
0.8076923076923077
 40
0.8076923076923077
 40
0.8076923076923077
 40
0.8461538461538461
 40
0.8461538461538461
 40
0.8461538461538461
 40
0.8461538461538461
 40
0.8846153846153846
 40
0.8846153846153846
 40
0.8846153846153846
 40
0.8846153846153846
 40
0.9230769230769231
 40
0.9230769230769231
 40
0.9230769230769231
 40
0.9230769230769231
 40
1.0
 40
1.0
 40
1.0
 40
1.0
 10
-12.765
 20
-68.7853
 30
0.0
 10
-12.765
 20
-68.7853
 30
0.0
 10
-10.5164
 20
-68.7853
 30
0.0
 10
-10.5164
 20
-68.7853
 30
0.0
 10
-10.5164
 20
-68.7853
 30
0.0
 10
-10.0406
 20
-65.7458
 30
0.0
 10
-8.0022
 20
-62.9462
 30
0.0
 10
-5.3376
 20
-60.8446
 30
0.0
 10
-5.3376
 20
-60.8446
 30
0.0
 10
-5.3376
 20
-60.8446
 30
0.0
 10
-6.3687
 20
-59.9588
 30
0.0
 10
-6.5795
 20
-58.5464
 30
0.0
 10
-6.5795
 20
-58.5464
 30
0.0
 10
-6.7888
 20
-57.1341
 30
0.0
 10
-5.9044
 20
-56.8951
 30
0.0
 10
-5.2925
 20
-57.9384
 30
0.0
 10
-5.2925
 20
-57.9384
 30
0.0
 10
-4.8274
 20
-58.728
 30
0.0
 10
-3.3234
 20
-59.1941
 30
0.0
 10
-1.7302
 20
-58.3904
 30
0.0
 10
-1.7302
 20
-58.3904
 30
0.0
 10
-0.1011
 20
-57.5671
 30
0.0
 10
1.2978
 20
-56.2451
 30
0.0
 10
2.2214
 20
-54.7228
 30
0.0
 10
2.2214
 20
-54.7228
 30
0.0
 10
4.0123
 20
-51.7722
 30
0.0
 10
3.8714
 20
-46.6182
 30
0.0
 10
1.1793
 20
-44.1926
 30
0.0
 10
1.1793
 20
-44.1926
 30
0.0
 10
-0.4548
 20
-42.7201
 30
0.0
 10
-3.2436
 20
-41.3419
 30
0.0
 10
-5.2628
 20
-42.8541
 30
0.0
 10
-5.2628
 20
-42.8541
 30
0.0
 10
-6.8124
 20
-44.0148
 30
0.0
 10
-6.2847
 20
-42.2194
 30
0.0
 10
-5.8265
 20
-41.6934
 30
0.0
 10
-5.8265
 20
-41.6934
 30
0.0
 10
-5.3675
 20
-41.1672
 30
0.0
 10
-4.7348
 20
-40.5147
 30
0.0
 10
-4.7348
 20
-40.5147
 30
0.0
 10
-4.7348
 20
-40.5147
 30
0.0
 10
-4.7333
 20
-40.5144
 30
0.0
 10
-7.4586
 20
-38.7824
 30
0.0
 10
-9.2477
 20
-35.8396
 30
0.0
 10
-9.2477
 20
-35.8396
 30
0.0
 10
-9.9312
 20
-34.714
 30
0.0
 10
-10.3405
 20
-33.5831
 30
0.0
 10
-10.5177
 20
-32.4655
 30
0.0
 10
-10.5177
 20
-32.4655
 30
0.0
 10
-10.5177
 20
-32.4655
 30
0.0
 10
-12.7629
 20
-32.4655
 30
0.0
 10
-12.7629
 20
-32.4655
 30
0.0
 10
-12.7629
 20
-32.4655
 30
0.0
 10
-12.9409
 20
-33.5823
 30
0.0
 10
-13.3502
 20
-34.7148
 30
0.0
 10
-14.0343
 20
-35.8396
 30
0.0
 10
-14.0343
 20
-35.8396
 30
0.0
 10
-15.8237
 20
-38.7814
 30
0.0
 10
-18.5517
 20
-40.5147
 30
0.0
 10
-18.5517
 20
-40.5147
 30
0.0
 10
-18.5517
 20
-40.5147
 30
0.0
 10
-18.5504
 20
-40.5144
 30
0.0
 10
-17.9168
 20
-41.1677
 30
0.0
 10
-17.4599
 20
-41.6934
 30
0.0
 10
-17.4599
 20
-41.6934
 30
0.0
 10
-16.9962
 20
-42.2185
 30
0.0
 10
-16.4705
 20
-44.0148
 30
0.0
 10
-18.0195
 20
-42.8541
 30
0.0
 10
-18.0195
 20
-42.8541
 30
0.0
 10
-20.0378
 20
-41.3418
 30
0.0
 10
-22.8288
 20
-42.7204
 30
0.0
 10
-24.4639
 20
-44.1926
 30
0.0
 10
-24.4639
 20
-44.1926
 30
0.0
 10
-27.148
 20
-46.6117
 30
0.0
 10
-27.2962
 20
-51.7799
 30
0.0
 10
-25.5039
 20
-54.7228
 30
0.0
 10
-25.5039
 20
-54.7228
 30
0.0
 10
-24.5844
 20
-56.2446
 30
0.0
 10
-23.1828
 20
-57.5681
 30
0.0
 10
-21.5533
 20
-58.3904
 30
0.0
 10
-21.5533
 20
-58.3904
 30
0.0
 10
-19.9565
 20
-59.194
 30
0.0
 10
-18.4543
 20
-58.7283
 30
0.0
 10
-17.991
 20
-57.9384
 30
0.0
 10
-17.991
 20
-57.9384
 30
0.0
 10
-17.3778
 20
-56.8951
 30
0.0
 10
-16.4931
 20
-57.1344
 30
0.0
 10
-16.7052
 20
-58.5464
 30
0.0
 10
-16.7052
 20
-58.5464
 30
0.0
 10
-16.915
 20
-59.9584
 30
0.0
 10
-17.9455
 20
-60.8446
 30
0.0
 10
-17.9455
 20
-60.8446
 30
0.0
 10
-17.9455
 20
-60.8446
 30
0.0
 10
-15.2793
 20
-62.9453
 30
0.0
 10
-13.2403
 20
-65.7458
 30
0.0
 10
-12.7658
 20
-68.7861
 30
0.0
 10
-12.7658
 20
-68.7861
 30
0.0
 10
-12.7658
 20
-68.7861
 30
0.0
 10
-12.765
 20
-68.7853
 30
0.0
 10
-12.765
 20
-68.7853
 30
0.0
  0
SPLINE
  5
59
330
1F
100
AcDbEntity
  8
layer 1
 62
     7
100
AcDbSpline
210
0.0
220
0.0
230
1.0
 70
    11
 71
     3
 72
   116
 73
   112
 74
     0
 42
0.0000000001
 43
0.0000000001
 12
1.0
 22
0.0
 32
0.0
 13
1.0
 23
0.0
 33
0.0
 40
0.0
 40
0.0
 40
0.0
 40
0.0
 40
0.0344827586206897
 40
0.0344827586206897
 40
0.0344827586206897
 40
0.0344827586206897
 40
0.0689655172413793
 40
0.0689655172413793
 40
0.0689655172413793
 40
0.0689655172413793
 40
0.103448275862069
 40
0.103448275862069
 40
0.103448275862069
 40
0.103448275862069
 40
0.1379310344827586
 40
0.1379310344827586
 40
0.1379310344827586
 40
0.1379310344827586
 40
0.1724137931034483
 40
0.1724137931034483
 40
0.1724137931034483
 40
0.1724137931034483
 40
0.2068965517241379
 40
0.2068965517241379
 40
0.2068965517241379
 40
0.2068965517241379
 40
0.2413793103448276
 40
0.2413793103448276
 40
0.2413793103448276
 40
0.2413793103448276
 40
0.2758620689655172
 40
0.2758620689655172
 40
0.2758620689655172
 40
0.2758620689655172
 40
0.3103448275862069
 40
0.3103448275862069
 40
0.3103448275862069
 40
0.3103448275862069
 40
0.3448275862068966
 40
0.3448275862068966
 40
0.3448275862068966
 40
0.3448275862068966
 40
0.3793103448275862
 40
0.3793103448275862
 40
0.3793103448275862
 40
0.3793103448275862
 40
0.4137931034482759
 40
0.4137931034482759
 40
0.4137931034482759
 40
0.4137931034482759
 40
0.4482758620689655
 40
0.4482758620689655
 40
0.4482758620689655
 40
0.4482758620689655
 40
0.4827586206896552
 40
0.4827586206896552
 40
0.4827586206896552
 40
0.4827586206896552
 40
0.5172413793103449
 40
0.5172413793103449
 40
0.5172413793103449
 40
0.5172413793103449
 40
0.5517241379310345
 40
0.5517241379310345
 40
0.5517241379310345
 40
0.5517241379310345
 40
0.5862068965517241
 40
0.5862068965517241
 40
0.5862068965517241
 40
0.5862068965517241
 40
0.6206896551724138
 40
0.6206896551724138
 40
0.6206896551724138
 40
0.6206896551724138
 40
0.6551724137931034
 40
0.6551724137931034
 40
0.6551724137931034
 40
0.6551724137931034
 40
0.6896551724137931
 40
0.6896551724137931
 40
0.6896551724137931
 40
0.6896551724137931
 40
0.7241379310344828
 40
0.7241379310344828
 40
0.7241379310344828
 40
0.7241379310344828
 40
0.7586206896551724
 40
0.7586206896551724
 40
0.7586206896551724
 40
0.7586206896551724
 40
0.7931034482758621
 40
0.7931034482758621
 40
0.7931034482758621
 40
0.7931034482758621
 40
0.8275862068965517
 40
0.8275862068965517
 40
0.8275862068965517
 40
0.8275862068965517
 40
0.8620689655172413
 40
0.8620689655172413
 40
0.8620689655172413
 40
0.8620689655172413
 40
0.896551724137931
 40
0.896551724137931
 40
0.896551724137931
 40
0.896551724137931
 40
0.9310344827586207
 40
0.9310344827586207
 40
0.9310344827586207
 40
0.9310344827586207
 40
1.0
 40
1.0
 40
1.0
 40
1.0
 10
-11.599
 20
-29.8097
 30
0.0
 10
-11.599
 20
-29.8097
 30
0.0
 10
-11.599
 20
-29.815
 30
0.0
 10
-11.599
 20
-29.815
 30
0.0
 10
-11.599
 20
-29.815
 30
0.0
 10
-11.599
 20
-29.815
 30
0.0
 10
-10.5164
 20
-29.815
 30
0.0
 10
-10.5164
 20
-29.815
 30
0.0
 10
-10.5164
 20
-29.815
 30
0.0
 10
-10.0427
 20
-26.7744
 30
0.0
 10
-8.0033
 20
-23.974
 30
0.0
 10
-5.3376
 20
-21.8719
 30
0.0
 10
-5.3376
 20
-21.8719
 30
0.0
 10
-5.3376
 20
-21.8711
 30
0.0
 10
-6.3687
 20
-20.9855
 30
0.0
 10
-6.5795
 20
-19.5737
 30
0.0
 10
-6.5795
 20
-19.5737
 30
0.0
 10
-6.7888
 20
-18.1606
 30
0.0
 10
-5.9044
 20
-17.9222
 30
0.0
 10
-5.2925
 20
-18.9653
 30
0.0
 10
-5.2925
 20
-18.9653
 30
0.0
 10
-4.8274
 20
-19.7554
 30
0.0
 10
-3.3234
 20
-20.2214
 30
0.0
 10
-1.7302
 20
-19.4174
 30
0.0
 10
-1.7302
 20
-19.4174
 30
0.0
 10
-0.1011
 20
-18.5948
 30
0.0
 10
1.2978
 20
-17.2721
 30
0.0
 10
2.2214
 20
-15.7497
 30
0.0
 10
2.2214
 20
-15.7497
 30
0.0
 10
4.0123
 20
-12.7997
 30
0.0
 10
3.8717
 20
-7.6484
 30
0.0
 10
1.1793
 20
-5.2227
 30
0.0
 10
1.1793
 20
-5.2227
 30
0.0
 10
-0.4548
 20
-3.7498
 30
0.0
 10
-3.2436
 20
-2.3717
 30
0.0
 10
-5.2628
 20
-3.8843
 30
0.0
 10
-5.2628
 20
-3.8843
 30
0.0
 10
-6.8124
 20
-5.0444
 30
0.0
 10
-6.2847
 20
-3.2495
 30
0.0
 10
-5.8265
 20
-2.7236
 30
0.0
 10
-5.8265
 20
-2.7236
 30
0.0
 10
-5.3675
 20
-2.1978
 30
0.0
 10
-4.7348
 20
-1.5447
 30
0.0
 10
-4.7348
 20
-1.5447
 30
0.0
 10
-4.7348
 20
-1.5447
 30
0.0
 10
-4.7333
 20
-1.544
 30
0.0
 10
-7.4586
 20
0.1877
 30
0.0
 10
-9.2477
 20
3.1303
 30
0.0
 10
-9.2477
 20
3.1303
 30
0.0
 10
-9.9312
 20
4.2553
 30
0.0
 10
-10.3405
 20
5.387
 30
0.0
 10
-10.5177
 20
6.5046
 30
0.0
 10
-10.5177
 20
6.5046
 30
0.0
 10
-10.5177
 20
6.5046
 30
0.0
 10
-12.7629
 20
6.5049
 30
0.0
 10
-12.7629
 20
6.5049
 30
0.0
 10
-12.7629
 20
6.5049
 30
0.0
 10
-12.9409
 20
5.3872
 30
0.0
 10
-13.3502
 20
4.2552
 30
0.0
 10
-14.0343
 20
3.1303
 30
0.0
 10
-14.0343
 20
3.1303
 30
0.0
 10
-15.8237
 20
0.188
 30
0.0
 10
-18.5517
 20
-1.5447
 30
0.0
 10
-18.5517
 20
-1.5447
 30
0.0
 10
-18.5517
 20
-1.5447
 30
0.0
 10
-18.5504
 20
-1.544
 30
0.0
 10
-17.9168
 20
-2.1978
 30
0.0
 10
-17.4599
 20
-2.7236
 30
0.0
 10
-17.4599
 20
-2.7236
 30
0.0
 10
-16.9962
 20
-3.2492
 30
0.0
 10
-16.4705
 20
-5.0447
 30
0.0
 10
-18.0195
 20
-3.8843
 30
0.0
 10
-18.0195
 20
-3.8843
 30
0.0
 10
-20.0378
 20
-2.3714
 30
0.0
 10
-22.8288
 20
-3.7503
 30
0.0
 10
-24.4639
 20
-5.2227
 30
0.0
 10
-24.4639
 20
-5.2227
 30
0.0
 10
-27.148
 20
-7.6412
 30
0.0
 10
-27.2962
 20
-12.8068
 30
0.0
 10
-25.5039
 20
-15.7497
 30
0.0
 10
-25.5039
 20
-15.7497
 30
0.0
 10
-24.5844
 20
-17.2721
 30
0.0
 10
-23.1828
 20
-18.5954
 30
0.0
 10
-21.5533
 20
-19.4174
 30
0.0
 10
-21.5533
 20
-19.4174
 30
0.0
 10
-19.9565
 20
-20.2205
 30
0.0
 10
-18.4543
 20
-19.7556
 30
0.0
 10
-17.991
 20
-18.9653
 30
0.0
 10
-17.991
 20
-18.9653
 30
0.0
 10
-17.3778
 20
-17.9216
 30
0.0
 10
-16.4931
 20
-18.1614
 30
0.0
 10
-16.7052
 20
-19.5737
 30
0.0
 10
-16.7052
 20
-19.5737
 30
0.0
 10
-16.915
 20
-20.9846
 30
0.0
 10
-17.9455
 20
-21.8719
 30
0.0
 10
-17.9455
 20
-21.8719
 30
0.0
 10
-17.9455
 20
-21.8719
 30
0.0
 10
-15.4037
 20
-23.8753
 30
0.0
 10
-13.4315
 20
-26.5138
 30
0.0
 10
-12.8418
 20
-29.3897
 30
0.0
 10
-12.8418
 20
-29.3897
 30
0.0
 10
-12.8121
 20
-29.531
 30
0.0
 10
-12.7872
 20
-29.6732
 30
0.0
 10
-12.7653
 20
-29.8156
 30
0.0
 10
-12.7653
 20
-29.8156
 30
0.0
 10
-12.4413
 20
-29.8118
 30
0.0
 10
-12.0727
 20
-29.8101
 30
0.0
 10
-11.5998
 20
-29.8101
 30
0.0
 10
-11.5998
 20
-29.8101
 30
0.0
 10
-11.5998
 20
-29.8101
 30
0.0
 10
-11.599
 20
-29.8097
 30
0.0
 10
-11.599
 20
-29.8097
 30
0.0
  0
SPLINE
  5
5A
330
1F
100
AcDbEntity
  8
layer 1
 62
     7
100
AcDbSpline
210
0.0
220
0.0
230
1.0
 70
    11
 71
     3
 72
    20
 73
    16
 74
     0
 42
0.0000000001
 43
0.0000000001
 12
1.0
 22
0.0
 32
0.0
 13
1.0
 23
0.0
 33
0.0
 40
0.0
 40
0.0
 40
0.0
 40
0.0
 40
0.2
 40
0.2
 40
0.2
 40
0.2
 40
0.4
 40
0.4
 40
0.4
 40
0.4
 40
0.6
 40
0.6
 40
0.6
 40
0.6
 40
1.0
 40
1.0
 40
1.0
 40
1.0
 10
-69.0881
 20
97.6314
 30
0.0
 10
-67.5686
 20
98.46
 30
0.0
 10
-66.2688
 20
99.7219
 30
0.0
 10
-65.3943
 20
101.1633
 30
0.0
 10
-65.3943
 20
101.1633
 30
0.0
 10
-63.605
 20
104.1134
 30
0.0
 10
-63.7446
 20
109.2682
 30
0.0
 10
-66.437
 20
111.6935
 30
0.0
 10
-66.437
 20
111.6935
 30
0.0
 10
-67.1526
 20
112.3393
 30
0.0
 10
-68.0905
 20
112.9656
 30
0.0
 10
-69.0881
 20
113.3397
 30
0.0
 10
-69.0881
 20
113.3397
 30
0.0
 10
-69.0881
 20
113.3397
 30
0.0
 10
-69.0881
 20
97.6314
 30
0.0
 10
-69.0881
 20
97.6314
 30
0.0
  0
SPLINE
  5
5B
330
1F
100
AcDbEntity
  8
layer 1
 62
     7
100
AcDbSpline
210
0.0
220
0.0
230
1.0
 70
    11
 71
     3
 72
   108
 73
   104
 74
     0
 42
0.0000000001
 43
0.0000000001
 12
1.0
 22
0.0
 32
0.0
 13
1.0
 23
0.0
 33
0.0
 40
0.0
 40
0.0
 40
0.0
 40
0.0
 40
0.037037037037037
 40
0.037037037037037
 40
0.037037037037037
 40
0.037037037037037
 40
0.0740740740740741
 40
0.0740740740740741
 40
0.0740740740740741
 40
0.0740740740740741
 40
0.1111111111111111
 40
0.1111111111111111
 40
0.1111111111111111
 40
0.1111111111111111
 40
0.1481481481481481
 40
0.1481481481481481
 40
0.1481481481481481
 40
0.1481481481481481
 40
0.1851851851851852
 40
0.1851851851851852
 40
0.1851851851851852
 40
0.1851851851851852
 40
0.2222222222222222
 40
0.2222222222222222
 40
0.2222222222222222
 40
0.2222222222222222
 40
0.2592592592592592
 40
0.2592592592592592
 40
0.2592592592592592
 40
0.2592592592592592
 40
0.2962962962962963
 40
0.2962962962962963
 40
0.2962962962962963
 40
0.2962962962962963
 40
0.3333333333333333
 40
0.3333333333333333
 40
0.3333333333333333
 40
0.3333333333333333
 40
0.3703703703703703
 40
0.3703703703703703
 40
0.3703703703703703
 40
0.3703703703703703
 40
0.4074074074074074
 40
0.4074074074074074
 40
0.4074074074074074
 40
0.4074074074074074
 40
0.4444444444444444
 40
0.4444444444444444
 40
0.4444444444444444
 40
0.4444444444444444
 40
0.4814814814814815
 40
0.4814814814814815
 40
0.4814814814814815
 40
0.4814814814814815
 40
0.5185185185185185
 40
0.5185185185185185
 40
0.5185185185185185
 40
0.5185185185185185
 40
0.5555555555555556
 40
0.5555555555555556
 40
0.5555555555555556
 40
0.5555555555555556
 40
0.5925925925925926
 40
0.5925925925925926
 40
0.5925925925925926
 40
0.5925925925925926
 40
0.6296296296296297
 40
0.6296296296296297
 40
0.6296296296296297
 40
0.6296296296296297
 40
0.6666666666666666
 40
0.6666666666666666
 40
0.6666666666666666
 40
0.6666666666666666
 40
0.7037037037037037
 40
0.7037037037037037
 40
0.7037037037037037
 40
0.7037037037037037
 40
0.7407407407407407
 40
0.7407407407407407
 40
0.7407407407407407
 40
0.7407407407407407
 40
0.7777777777777778
 40
0.7777777777777778
 40
0.7777777777777778
 40
0.7777777777777778
 40
0.8148148148148148
 40
0.8148148148148148
 40
0.8148148148148148
 40
0.8148148148148148
 40
0.8518518518518519
 40
0.8518518518518519
 40
0.8518518518518519
 40
0.8518518518518519
 40
0.8888888888888888
 40
0.8888888888888888
 40
0.8888888888888888
 40
0.8888888888888888
 40
0.9259259259259259
 40
0.9259259259259259
 40
0.9259259259259259
 40
0.9259259259259259
 40
1.0
 40
1.0
 40
1.0
 40
1.0
 10
-69.0881
 20
80.5379
 30
0.0
 10
-68.966
 20
80.5937
 30
0.0
 10
-68.8353
 20
80.6419
 30
0.0
 10
-68.6936
 20
80.6813
 30
0.0
 10
-68.6936
 20
80.6813
 30
0.0
 10
-68.6917
 20
80.6816
 30
0.0
 10
-66.6465
 20
80.9708
 30
0.0
 10
-67.7438
 20
79.9098
 30
0.0
 10
-67.7438
 20
79.9098
 30
0.0
 10
-68.8397
 20
78.85
 30
0.0
 10
-68.3974
 20
76.7965
 30
0.0
 10
-67.0079
 20
75.7901
 30
0.0
 10
-67.0079
 20
75.7901
 30
0.0
 10
-66.2029
 20
75.2081
 30
0.0
 10
-64.6668
 20
74.0587
 30
0.0
 10
-63.5588
 20
72.3026
 30
0.0
 10
-63.5588
 20
72.3026
 30
0.0
 10
-63.4977
 20
72.2092
 30
0.0
 10
-63.4367
 20
72.1202
 30
0.0
 10
-63.3889
 20
72.0265
 30
0.0
 10
-63.3889
 20
72.0265
 30
0.0
 10
-62.527
 20
70.3434
 30
0.0
 10
-62.4599
 20
70.0563
 30
0.0
 10
-61.312
 20
71.9212
 30
0.0
 10
-61.312
 20
71.9212
 30
0.0
 10
-61.245
 20
72.0293
 30
0.0
 10
-61.1805
 20
72.142
 30
0.0
 10
-61.1084
 20
72.2578
 30
0.0
 10
-61.1084
 20
72.2578
 30
0.0
 10
-59.9974
 20
74.0398
 30
0.0
 10
-58.4438
 20
75.2024
 30
0.0
 10
-57.6318
 20
75.7901
 30
0.0
 10
-57.6318
 20
75.7901
 30
0.0
 10
-56.2421
 20
76.7974
 30
0.0
 10
-55.8022
 20
78.8491
 30
0.0
 10
-56.8942
 20
79.9098
 30
0.0
 10
-56.8942
 20
79.9098
 30
0.0
 10
-57.9912
 20
80.9709
 30
0.0
 10
-55.9451
 20
80.6813
 30
0.0
 10
-55.9451
 20
80.6813
 30
0.0
 10
-55.9451
 20
80.6813
 30
0.0
 10
-54.1652
 20
80.1853
 30
0.0
 10
-54.0296
 20
78.2894
 30
0.0
 10
-54.0296
 20
78.2894
 30
0.0
 10
-54.0296
 20
78.2894
 30
0.0
 10
-50.2489
 20
80.18
 30
0.0
 10
-48.2894
 20
83.4583
 30
0.0
 10
-49.1925
 20
87.5157
 30
0.0
 10
-49.1925
 20
87.5157
 30
0.0
 10
-49.8135
 20
90.3102
 30
0.0
 10
-51.4169
 20
91.8842
 30
0.0
 10
-52.4916
 20
92.6552
 30
0.0
 10
-52.4916
 20
92.6552
 30
0.0
 10
-53.8457
 20
93.6274
 30
0.0
 10
-53.326
 20
93.2095
 30
0.0
 10
-54.1382
 20
92.1702
 30
0.0
 10
-54.1382
 20
92.1702
 30
0.0
 10
-54.4071
 20
91.8301
 30
0.0
 10
-54.773
 20
91.4765
 30
0.0
 10
-55.2645
 20
91.2166
 30
0.0
 10
-55.2645
 20
91.2166
 30
0.0
 10
-56.2764
 20
90.6811
 30
0.0
 10
-57.8948
 20
90.6976
 30
0.0
 10
-56.8773
 20
91.9392
 30
0.0
 10
-56.8773
 20
91.9392
 30
0.0
 10
-56.675
 20
92.1825
 30
0.0
 10
-56.4255
 20
92.5314
 30
0.0
 10
-56.1457
 20
93.0287
 30
0.0
 10
-56.1457
 20
93.0287
 30
0.0
 10
-55.3546
 20
94.4119
 30
0.0
 10
-57.9177
 20
96.6311
 30
0.0
 10
-57.9177
 20
96.6311
 30
0.0
 10
-57.9177
 20
96.6311
 30
0.0
 10
-59.9226
 20
98.5574
 30
0.0
 10
-60.9956
 20
99.9581
 30
0.0
 10
-61.567
 20
100.8942
 30
0.0
 10
-61.567
 20
100.8942
 30
0.0
 10
-62.1324
 20
101.8263
 30
0.0
 10
-62.2861
 20
102.3229
 30
0.0
 10
-63.0295
 20
101.0079
 30
0.0
 10
-63.0295
 20
101.0079
 30
0.0
 10
-63.0801
 20
100.9197
 30
0.0
 10
-63.1391
 20
100.8277
 30
0.0
 10
-63.2015
 20
100.731
 30
0.0
 10
-63.2015
 20
100.731
 30
0.0
 10
-63.8
 20
99.7964
 30
0.0
 10
-64.8595
 20
98.4448
 30
0.0
 10
-66.723
 20
96.6311
 30
0.0
 10
-66.723
 20
96.6311
 30
0.0
 10
-66.7216
 20
96.6315
 30
0.0
 10
-69.2826
 20
94.4118
 30
0.0
 10
-68.4953
 20
93.0287
 30
0.0
 10
-68.4953
 20
93.0287
 30
0.0
 10
-68.2115
 20
92.5321
 30
0.0
 10
-67.965
 20
92.1825
 30
0.0
 10
-67.7644
 20
91.9392
 30
0.0
 10
-67.7644
 20
91.9392
 30
0.0
 10
-66.8332
 20
90.8107
 30
0.0
 10
-68.093
 20
90.6937
 30
0.0
 10
-69.0881
 20
91.0853
 30
0.0
 10
-69.0881
 20
91.0853
 30
0.0
 10
-69.0881
 20
91.0853
 30
0.0
 10
-69.0881
 20
80.5379
 30
0.0
 10
-69.0881
 20
80.5379
 30
0.0
  0
SPLINE
  5
5C
330
1F
100
AcDbEntity
  8
layer 1
 62
     7
100
AcDbSpline
210
0.0
220
0.0
230
1.0
 70
    11
 71
     3
 72
    20
 73
    16
 74
     0
 42
0.0000000001
 43
0.0000000001
 12
1.0
 22
0.0
 32
0.0
 13
1.0
 23
0.0
 33
0.0
 40
0.0
 40
0.0
 40
0.0
 40
0.0
 40
0.2
 40
0.2
 40
0.2
 40
0.2
 40
0.4
 40
0.4
 40
0.4
 40
0.4
 40
0.6
 40
0.6
 40
0.6
 40
0.6
 40
1.0
 40
1.0
 40
1.0
 40
1.0
 10
-69.0881
 20
58.6611
 30
0.0
 10
-67.5686
 20
59.4896
 30
0.0
 10
-66.2688
 20
60.752
 30
0.0
 10
-65.3943
 20
62.1934
 30
0.0
 10
-65.3943
 20
62.1934
 30
0.0
 10
-63.605
 20
65.1431
 30
0.0
 10
-63.7444
 20
70.2947
 30
0.0
 10
-66.437
 20
72.7201
 30
0.0
 10
-66.437
 20
72.7201
 30
0.0
 10
-67.1526
 20
73.3657
 30
0.0
 10
-68.0905
 20
73.9925
 30
0.0
 10
-69.0881
 20
74.3664
 30
0.0
 10
-69.0881
 20
74.3664
 30
0.0
 10
-69.0881
 20
74.3664
 30
0.0
 10
-69.0881
 20
58.6611
 30
0.0
 10
-69.0881
 20
58.6611
 30
0.0
  0
SPLINE
  5
5D
330
1F
100
AcDbEntity
  8
layer 1
 62
     7
100
AcDbSpline
210
0.0
220
0.0
230
1.0
 70
    11
 71
     3
 72
   108
 73
   104
 74
     0
 42
0.0000000001
 43
0.0000000001
 12
1.0
 22
0.0
 32
0.0
 13
1.0
 23
0.0
 33
0.0
 40
0.0
 40
0.0
 40
0.0
 40
0.0
 40
0.037037037037037
 40
0.037037037037037
 40
0.037037037037037
 40
0.037037037037037
 40
0.0740740740740741
 40
0.0740740740740741
 40
0.0740740740740741
 40
0.0740740740740741
 40
0.1111111111111111
 40
0.1111111111111111
 40
0.1111111111111111
 40
0.1111111111111111
 40
0.1481481481481481
 40
0.1481481481481481
 40
0.1481481481481481
 40
0.1481481481481481
 40
0.1851851851851852
 40
0.1851851851851852
 40
0.1851851851851852
 40
0.1851851851851852
 40
0.2222222222222222
 40
0.2222222222222222
 40
0.2222222222222222
 40
0.2222222222222222
 40
0.2592592592592592
 40
0.2592592592592592
 40
0.2592592592592592
 40
0.2592592592592592
 40
0.2962962962962963
 40
0.2962962962962963
 40
0.2962962962962963
 40
0.2962962962962963
 40
0.3333333333333333
 40
0.3333333333333333
 40
0.3333333333333333
 40
0.3333333333333333
 40
0.3703703703703703
 40
0.3703703703703703
 40
0.3703703703703703
 40
0.3703703703703703
 40
0.4074074074074074
 40
0.4074074074074074
 40
0.4074074074074074
 40
0.4074074074074074
 40
0.4444444444444444
 40
0.4444444444444444
 40
0.4444444444444444
 40
0.4444444444444444
 40
0.4814814814814815
 40
0.4814814814814815
 40
0.4814814814814815
 40
0.4814814814814815
 40
0.5185185185185185
 40
0.5185185185185185
 40
0.5185185185185185
 40
0.5185185185185185
 40
0.5555555555555556
 40
0.5555555555555556
 40
0.5555555555555556
 40
0.5555555555555556
 40
0.5925925925925926
 40
0.5925925925925926
 40
0.5925925925925926
 40
0.5925925925925926
 40
0.6296296296296297
 40
0.6296296296296297
 40
0.6296296296296297
 40
0.6296296296296297
 40
0.6666666666666666
 40
0.6666666666666666
 40
0.6666666666666666
 40
0.6666666666666666
 40
0.7037037037037037
 40
0.7037037037037037
 40
0.7037037037037037
 40
0.7037037037037037
 40
0.7407407407407407
 40
0.7407407407407407
 40
0.7407407407407407
 40
0.7407407407407407
 40
0.7777777777777778
 40
0.7777777777777778
 40
0.7777777777777778
 40
0.7777777777777778
 40
0.8148148148148148
 40
0.8148148148148148
 40
0.8148148148148148
 40
0.8148148148148148
 40
0.8518518518518519
 40
0.8518518518518519
 40
0.8518518518518519
 40
0.8518518518518519
 40
0.8888888888888888
 40
0.8888888888888888
 40
0.8888888888888888
 40
0.8888888888888888
 40
0.9259259259259259
 40
0.9259259259259259
 40
0.9259259259259259
 40
0.9259259259259259
 40
1.0
 40
1.0
 40
1.0
 40
1.0
 10
-69.0881
 20
41.5687
 30
0.0
 10
-68.966
 20
41.6232
 30
0.0
 10
-68.8353
 20
41.672
 30
0.0
 10
-68.6936
 20
41.7114
 30
0.0
 10
-68.6936
 20
41.7114
 30
0.0
 10
-68.6917
 20
41.7123
 30
0.0
 10
-66.6465
 20
42.0006
 30
0.0
 10
-67.7438
 20
40.9398
 30
0.0
 10
-67.7438
 20
40.9398
 30
0.0
 10
-68.8397
 20
39.8795
 30
0.0
 10
-68.3974
 20
37.8266
 30
0.0
 10
-67.0079
 20
36.8207
 30
0.0
 10
-67.0079
 20
36.8207
 30
0.0
 10
-66.2029
 20
36.2376
 30
0.0
 10
-64.6668
 20
35.0888
 30
0.0
 10
-63.5588
 20
33.3325
 30
0.0
 10
-63.5588
 20
33.3325
 30
0.0
 10
-63.4977
 20
33.239
 30
0.0
 10
-63.4367
 20
33.1501
 30
0.0
 10
-63.3889
 20
33.0567
 30
0.0
 10
-63.3889
 20
33.0567
 30
0.0
 10
-62.527
 20
31.3729
 30
0.0
 10
-62.4599
 20
31.0864
 30
0.0
 10
-61.312
 20
32.9513
 30
0.0
 10
-61.312
 20
32.9513
 30
0.0
 10
-61.245
 20
33.0589
 30
0.0
 10
-61.1805
 20
33.1721
 30
0.0
 10
-61.1084
 20
33.2881
 30
0.0
 10
-61.1084
 20
33.2881
 30
0.0
 10
-59.9974
 20
35.0696
 30
0.0
 10
-58.4438
 20
36.2322
 30
0.0
 10
-57.6318
 20
36.8207
 30
0.0
 10
-57.6318
 20
36.8207
 30
0.0
 10
-56.2421
 20
37.8272
 30
0.0
 10
-55.8022
 20
39.8791
 30
0.0
 10
-56.8942
 20
40.9398
 30
0.0
 10
-56.8942
 20
40.9398
 30
0.0
 10
-57.9912
 20
42.0006
 30
0.0
 10
-55.9451
 20
41.7114
 30
0.0
 10
-55.9451
 20
41.7114
 30
0.0
 10
-55.9451
 20
41.7114
 30
0.0
 10
-54.1652
 20
41.216
 30
0.0
 10
-54.0296
 20
39.3193
 30
0.0
 10
-54.0296
 20
39.3193
 30
0.0
 10
-54.0296
 20
39.3193
 30
0.0
 10
-50.2489
 20
41.2096
 30
0.0
 10
-48.2894
 20
44.4887
 30
0.0
 10
-49.1925
 20
48.5456
 30
0.0
 10
-49.1925
 20
48.5456
 30
0.0
 10
-49.8135
 20
51.34
 30
0.0
 10
-51.4169
 20
52.9142
 30
0.0
 10
-52.4916
 20
53.6854
 30
0.0
 10
-52.4916
 20
53.6854
 30
0.0
 10
-53.8457
 20
54.6581
 30
0.0
 10
-53.326
 20
54.2399
 30
0.0
 10
-54.1382
 20
53.1997
 30
0.0
 10
-54.1382
 20
53.1997
 30
0.0
 10
-54.4071
 20
52.8607
 30
0.0
 10
-54.773
 20
52.5065
 30
0.0
 10
-55.2645
 20
52.2463
 30
0.0
 10
-55.2645
 20
52.2463
 30
0.0
 10
-56.2764
 20
51.7107
 30
0.0
 10
-57.8948
 20
51.7279
 30
0.0
 10
-56.8773
 20
52.9688
 30
0.0
 10
-56.8773
 20
52.9688
 30
0.0
 10
-56.675
 20
53.2123
 30
0.0
 10
-56.4255
 20
53.5615
 30
0.0
 10
-56.1457
 20
54.0588
 30
0.0
 10
-56.1457
 20
54.0588
 30
0.0
 10
-55.3546
 20
55.4416
 30
0.0
 10
-57.9177
 20
57.6613
 30
0.0
 10
-57.9177
 20
57.6613
 30
0.0
 10
-57.9177
 20
57.6613
 30
0.0
 10
-59.9226
 20
59.5882
 30
0.0
 10
-60.9956
 20
60.988
 30
0.0
 10
-61.567
 20
61.9245
 30
0.0
 10
-61.567
 20
61.9245
 30
0.0
 10
-62.1324
 20
62.856
 30
0.0
 10
-62.2861
 20
63.353
 30
0.0
 10
-63.0295
 20
62.0379
 30
0.0
 10
-63.0295
 20
62.0379
 30
0.0
 10
-63.0801
 20
61.9492
 30
0.0
 10
-63.1391
 20
61.8573
 30
0.0
 10
-63.2015
 20
61.7605
 30
0.0
 10
-63.2015
 20
61.7605
 30
0.0
 10
-63.8
 20
60.8262
 30
0.0
 10
-64.8595
 20
59.4747
 30
0.0
 10
-66.723
 20
57.6613
 30
0.0
 10
-66.723
 20
57.6613
 30
0.0
 10
-66.7216
 20
57.6622
 30
0.0
 10
-69.2826
 20
55.4416
 30
0.0
 10
-68.4953
 20
54.0588
 30
0.0
 10
-68.4953
 20
54.0588
 30
0.0
 10
-68.2115
 20
53.5616
 30
0.0
 10
-67.965
 20
53.2122
 30
0.0
 10
-67.7644
 20
52.9688
 30
0.0
 10
-67.7644
 20
52.9688
 30
0.0
 10
-66.8332
 20
51.8405
 30
0.0
 10
-68.093
 20
51.7237
 30
0.0
 10
-69.0881
 20
52.1154
 30
0.0
 10
-69.0881
 20
52.1154
 30
0.0
 10
-69.0881
 20
52.1154
 30
0.0
 10
-69.0881
 20
41.5687
 30
0.0
 10
-69.0881
 20
41.5687
 30
0.0
  0
SPLINE
  5
5E
330
1F
100
AcDbEntity
  8
layer 1
 62
     7
100
AcDbSpline
210
0.0
220
0.0
230
1.0
 70
    11
 71
     3
 72
    20
 73
    16
 74
     0
 42
0.0000000001
 43
0.0000000001
 12
1.0
 22
0.0
 32
0.0
 13
1.0
 23
0.0
 33
0.0
 40
0.0
 40
0.0
 40
0.0
 40
0.0
 40
0.2
 40
0.2
 40
0.2
 40
0.2
 40
0.4
 40
0.4
 40
0.4
 40
0.4
 40
0.6
 40
0.6
 40
0.6
 40
0.6
 40
1.0
 40
1.0
 40
1.0
 40
1.0
 10
-69.0881
 20
19.6886
 30
0.0
 10
-67.5686
 20
20.517
 30
0.0
 10
-66.2688
 20
21.7788
 30
0.0
 10
-65.3943
 20
23.2204
 30
0.0
 10
-65.3943
 20
23.2204
 30
0.0
 10
-63.605
 20
26.1706
 30
0.0
 10
-63.7446
 20
31.325
 30
0.0
 10
-66.437
 20
33.7502
 30
0.0
 10
-66.437
 20
33.7502
 30
0.0
 10
-67.1526
 20
34.3964
 30
0.0
 10
-68.0905
 20
35.0224
 30
0.0
 10
-69.0881
 20
35.3964
 30
0.0
 10
-69.0881
 20
35.3964
 30
0.0
 10
-69.0881
 20
35.3964
 30
0.0
 10
-69.0881
 20
19.6886
 30
0.0
 10
-69.0881
 20
19.6886
 30
0.0
  0
SPLINE
  5
5F
330
1F
100
AcDbEntity
  8
layer 1
 62
     7
100
AcDbSpline
210
0.0
220
0.0
230
1.0
 70
    11
 71
     3
 72
   108
 73
   104
 74
     0
 42
0.0000000001
 43
0.0000000001
 12
1.0
 22
0.0
 32
0.0
 13
1.0
 23
0.0
 33
0.0
 40
0.0
 40
0.0
 40
0.0
 40
0.0
 40
0.037037037037037
 40
0.037037037037037
 40
0.037037037037037
 40
0.037037037037037
 40
0.0740740740740741
 40
0.0740740740740741
 40
0.0740740740740741
 40
0.0740740740740741
 40
0.1111111111111111
 40
0.1111111111111111
 40
0.1111111111111111
 40
0.1111111111111111
 40
0.1481481481481481
 40
0.1481481481481481
 40
0.1481481481481481
 40
0.1481481481481481
 40
0.1851851851851852
 40
0.1851851851851852
 40
0.1851851851851852
 40
0.1851851851851852
 40
0.2222222222222222
 40
0.2222222222222222
 40
0.2222222222222222
 40
0.2222222222222222
 40
0.2592592592592592
 40
0.2592592592592592
 40
0.2592592592592592
 40
0.2592592592592592
 40
0.2962962962962963
 40
0.2962962962962963
 40
0.2962962962962963
 40
0.2962962962962963
 40
0.3333333333333333
 40
0.3333333333333333
 40
0.3333333333333333
 40
0.3333333333333333
 40
0.3703703703703703
 40
0.3703703703703703
 40
0.3703703703703703
 40
0.3703703703703703
 40
0.4074074074074074
 40
0.4074074074074074
 40
0.4074074074074074
 40
0.4074074074074074
 40
0.4444444444444444
 40
0.4444444444444444
 40
0.4444444444444444
 40
0.4444444444444444
 40
0.4814814814814815
 40
0.4814814814814815
 40
0.4814814814814815
 40
0.4814814814814815
 40
0.5185185185185185
 40
0.5185185185185185
 40
0.5185185185185185
 40
0.5185185185185185
 40
0.5555555555555556
 40
0.5555555555555556
 40
0.5555555555555556
 40
0.5555555555555556
 40
0.5925925925925926
 40
0.5925925925925926
 40
0.5925925925925926
 40
0.5925925925925926
 40
0.6296296296296297
 40
0.6296296296296297
 40
0.6296296296296297
 40
0.6296296296296297
 40
0.6666666666666666
 40
0.6666666666666666
 40
0.6666666666666666
 40
0.6666666666666666
 40
0.7037037037037037
 40
0.7037037037037037
 40
0.7037037037037037
 40
0.7037037037037037
 40
0.7407407407407407
 40
0.7407407407407407
 40
0.7407407407407407
 40
0.7407407407407407
 40
0.7777777777777778
 40
0.7777777777777778
 40
0.7777777777777778
 40
0.7777777777777778
 40
0.8148148148148148
 40
0.8148148148148148
 40
0.8148148148148148
 40
0.8148148148148148
 40
0.8518518518518519
 40
0.8518518518518519
 40
0.8518518518518519
 40
0.8518518518518519
 40
0.8888888888888888
 40
0.8888888888888888
 40
0.8888888888888888
 40
0.8888888888888888
 40
0.9259259259259259
 40
0.9259259259259259
 40
0.9259259259259259
 40
0.9259259259259259
 40
1.0
 40
1.0
 40
1.0
 40
1.0
 10
-69.0881
 20
2.595
 30
0.0
 10
-68.966
 20
2.6508
 30
0.0
 10
-68.8353
 20
2.699
 30
0.0
 10
-68.6936
 20
2.7384
 30
0.0
 10
-68.6936
 20
2.7384
 30
0.0
 10
-68.6917
 20
2.7387
 30
0.0
 10
-66.6465
 20
3.0278
 30
0.0
 10
-67.7438
 20
1.9667
 30
0.0
 10
-67.7438
 20
1.9667
 30
0.0
 10
-68.8397
 20
0.906
 30
0.0
 10
-68.3974
 20
-1.1463
 30
0.0
 10
-67.0079
 20
-2.1527
 30
0.0
 10
-67.0079
 20
-2.1527
 30
0.0
 10
-66.2029
 20
-2.7347
 30
0.0
 10
-64.6668
 20
-3.8843
 30
0.0
 10
-63.5588
 20
-5.6405
 30
0.0
 10
-63.5588
 20
-5.6405
 30
0.0
 10
-63.4977
 20
-5.7346
 30
0.0
 10
-63.4367
 20
-5.8232
 30
0.0
 10
-63.3889
 20
-5.9163
 30
0.0
 10
-63.3889
 20
-5.9163
 30
0.0
 10
-62.527
 20
-7.5995
 30
0.0
 10
-62.4599
 20
-7.8866
 30
0.0
 10
-61.312
 20
-6.0217
 30
0.0
 10
-61.312
 20
-6.0217
 30
0.0
 10
-61.245
 20
-5.9147
 30
0.0
 10
-61.1805
 20
-5.8009
 30
0.0
 10
-61.1084
 20
-5.6852
 30
0.0
 10
-61.1084
 20
-5.6852
 30
0.0
 10
-59.9974
 20
-3.9029
 30
0.0
 10
-58.4438
 20
-2.7404
 30
0.0
 10
-57.6318
 20
-2.1527
 30
0.0
 10
-57.6318
 20
-2.1527
 30
0.0
 10
-56.2421
 20
-1.1463
 30
0.0
 10
-55.8022
 20
0.9059
 30
0.0
 10
-56.8942
 20
1.9667
 30
0.0
 10
-56.8942
 20
1.9667
 30
0.0
 10
-57.9912
 20
3.0281
 30
0.0
 10
-55.9451
 20
2.7384
 30
0.0
 10
-55.9451
 20
2.7384
 30
0.0
 10
-55.9451
 20
2.7384
 30
0.0
 10
-54.1652
 20
2.2425
 30
0.0
 10
-54.0296
 20
0.3463
 30
0.0
 10
-54.0296
 20
0.3463
 30
0.0
 10
-54.0296
 20
0.3463
 30
0.0
 10
-50.2489
 20
2.237
 30
0.0
 10
-48.2894
 20
5.5155
 30
0.0
 10
-49.1925
 20
9.5726
 30
0.0
 10
-49.1925
 20
9.5726
 30
0.0
 10
-49.8135
 20
12.3674
 30
0.0
 10
-51.4169
 20
13.9415
 30
0.0
 10
-52.4916
 20
14.712
 30
0.0
 10
-52.4916
 20
14.712
 30
0.0
 10
-53.8457
 20
15.6845
 30
0.0
 10
-53.326
 20
15.2669
 30
0.0
 10
-54.1382
 20
14.227
 30
0.0
 10
-54.1382
 20
14.227
 30
0.0
 10
-54.4071
 20
13.8872
 30
0.0
 10
-54.773
 20
13.5334
 30
0.0
 10
-55.2645
 20
13.2736
 30
0.0
 10
-55.2645
 20
13.2736
 30
0.0
 10
-56.2764
 20
12.7372
 30
0.0
 10
-57.8948
 20
12.755
 30
0.0
 10
-56.8773
 20
13.9957
 30
0.0
 10
-56.8773
 20
13.9957
 30
0.0
 10
-56.675
 20
14.2399
 30
0.0
 10
-56.4255
 20
14.589
 30
0.0
 10
-56.1457
 20
15.0855
 30
0.0
 10
-56.1457
 20
15.0855
 30
0.0
 10
-55.3546
 20
16.4691
 30
0.0
 10
-57.9177
 20
18.6882
 30
0.0
 10
-57.9177
 20
18.6882
 30
0.0
 10
-57.9177
 20
18.6882
 30
0.0
 10
-59.9226
 20
20.6147
 30
0.0
 10
-60.9956
 20
22.0151
 30
0.0
 10
-61.567
 20
22.9514
 30
0.0
 10
-61.567
 20
22.9514
 30
0.0
 10
-62.1324
 20
23.8835
 30
0.0
 10
-62.2861
 20
24.38
 30
0.0
 10
-63.0295
 20
23.0649
 30
0.0
 10
-63.0295
 20
23.0649
 30
0.0
 10
-63.0801
 20
22.9757
 30
0.0
 10
-63.1391
 20
22.8845
 30
0.0
 10
-63.2015
 20
22.7877
 30
0.0
 10
-63.2015
 20
22.7877
 30
0.0
 10
-63.8
 20
21.8537
 30
0.0
 10
-64.8595
 20
20.5021
 30
0.0
 10
-66.723
 20
18.6882
 30
0.0
 10
-66.723
 20
18.6882
 30
0.0
 10
-66.7216
 20
18.6887
 30
0.0
 10
-69.2826
 20
16.4689
 30
0.0
 10
-68.4953
 20
15.0855
 30
0.0
 10
-68.4953
 20
15.0855
 30
0.0
 10
-68.2115
 20
14.5892
 30
0.0
 10
-67.965
 20
14.2393
 30
0.0
 10
-67.7644
 20
13.9957
 30
0.0
 10
-67.7644
 20
13.9957
 30
0.0
 10
-66.8332
 20
12.8669
 30
0.0
 10
-68.093
 20
12.7509
 30
0.0
 10
-69.0881
 20
13.1421
 30
0.0
 10
-69.0881
 20
13.1421
 30
0.0
 10
-69.0881
 20
13.1421
 30
0.0
 10
-69.0881
 20
2.595
 30
0.0
 10
-69.0881
 20
2.595
 30
0.0
  0
SPLINE
  5
60
330
1F
100
AcDbEntity
  8
layer 1
 62
     7
100
AcDbSpline
210
0.0
220
0.0
230
1.0
 70
    11
 71
     3
 72
    20
 73
    16
 74
     0
 42
0.0000000001
 43
0.0000000001
 12
1.0
 22
0.0
 32
0.0
 13
1.0
 23
0.0
 33
0.0
 40
0.0
 40
0.0
 40
0.0
 40
0.0
 40
0.2
 40
0.2
 40
0.2
 40
0.2
 40
0.4
 40
0.4
 40
0.4
 40
0.4
 40
0.6
 40
0.6
 40
0.6
 40
0.6
 40
1.0
 40
1.0
 40
1.0
 40
1.0
 10
-69.0881
 20
-19.2817
 30
0.0
 10
-67.5686
 20
-18.4532
 30
0.0
 10
-66.2688
 20
-17.1913
 30
0.0
 10
-65.3943
 20
-15.7497
 30
0.0
 10
-65.3943
 20
-15.7497
 30
0.0
 10
-63.605
 20
-12.7997
 30
0.0
 10
-63.7444
 20
-7.648
 30
0.0
 10
-66.437
 20
-5.2227
 30
0.0
 10
-66.437
 20
-5.2227
 30
0.0
 10
-67.1526
 20
-4.5771
 30
0.0
 10
-68.0905
 20
-3.9505
 30
0.0
 10
-69.0881
 20
-3.5765
 30
0.0
 10
-69.0881
 20
-3.5765
 30
0.0
 10
-69.0881
 20
-3.5765
 30
0.0
 10
-69.0881
 20
-19.2817
 30
0.0
 10
-69.0881
 20
-19.2817
 30
0.0
  0
SPLINE
  5
61
330
1F
100
AcDbEntity
  8
layer 1
 62
     7
100
AcDbSpline
210
0.0
220
0.0
230
1.0
 70
    11
 71
     3
 72
   108
 73
   104
 74
     0
 42
0.0000000001
 43
0.0000000001
 12
1.0
 22
0.0
 32
0.0
 13
1.0
 23
0.0
 33
0.0
 40
0.0
 40
0.0
 40
0.0
 40
0.0
 40
0.037037037037037
 40
0.037037037037037
 40
0.037037037037037
 40
0.037037037037037
 40
0.0740740740740741
 40
0.0740740740740741
 40
0.0740740740740741
 40
0.0740740740740741
 40
0.1111111111111111
 40
0.1111111111111111
 40
0.1111111111111111
 40
0.1111111111111111
 40
0.1481481481481481
 40
0.1481481481481481
 40
0.1481481481481481
 40
0.1481481481481481
 40
0.1851851851851852
 40
0.1851851851851852
 40
0.1851851851851852
 40
0.1851851851851852
 40
0.2222222222222222
 40
0.2222222222222222
 40
0.2222222222222222
 40
0.2222222222222222
 40
0.2592592592592592
 40
0.2592592592592592
 40
0.2592592592592592
 40
0.2592592592592592
 40
0.2962962962962963
 40
0.2962962962962963
 40
0.2962962962962963
 40
0.2962962962962963
 40
0.3333333333333333
 40
0.3333333333333333
 40
0.3333333333333333
 40
0.3333333333333333
 40
0.3703703703703703
 40
0.3703703703703703
 40
0.3703703703703703
 40
0.3703703703703703
 40
0.4074074074074074
 40
0.4074074074074074
 40
0.4074074074074074
 40
0.4074074074074074
 40
0.4444444444444444
 40
0.4444444444444444
 40
0.4444444444444444
 40
0.4444444444444444
 40
0.4814814814814815
 40
0.4814814814814815
 40
0.4814814814814815
 40
0.4814814814814815
 40
0.5185185185185185
 40
0.5185185185185185
 40
0.5185185185185185
 40
0.5185185185185185
 40
0.5555555555555556
 40
0.5555555555555556
 40
0.5555555555555556
 40
0.5555555555555556
 40
0.5925925925925926
 40
0.5925925925925926
 40
0.5925925925925926
 40
0.5925925925925926
 40
0.6296296296296297
 40
0.6296296296296297
 40
0.6296296296296297
 40
0.6296296296296297
 40
0.6666666666666666
 40
0.6666666666666666
 40
0.6666666666666666
 40
0.6666666666666666
 40
0.7037037037037037
 40
0.7037037037037037
 40
0.7037037037037037
 40
0.7037037037037037
 40
0.7407407407407407
 40
0.7407407407407407
 40
0.7407407407407407
 40
0.7407407407407407
 40
0.7777777777777778
 40
0.7777777777777778
 40
0.7777777777777778
 40
0.7777777777777778
 40
0.8148148148148148
 40
0.8148148148148148
 40
0.8148148148148148
 40
0.8148148148148148
 40
0.8518518518518519
 40
0.8518518518518519
 40
0.8518518518518519
 40
0.8518518518518519
 40
0.8888888888888888
 40
0.8888888888888888
 40
0.8888888888888888
 40
0.8888888888888888
 40
0.9259259259259259
 40
0.9259259259259259
 40
0.9259259259259259
 40
0.9259259259259259
 40
1.0
 40
1.0
 40
1.0
 40
1.0
 10
-69.0881
 20
-36.3752
 30
0.0
 10
-68.966
 20
-36.3194
 30
0.0
 10
-68.8353
 20
-36.2711
 30
0.0
 10
-68.6936
 20
-36.2317
 30
0.0
 10
-68.6936
 20
-36.2317
 30
0.0
 10
-68.6917
 20
-36.2316
 30
0.0
 10
-66.6465
 20
-35.9422
 30
0.0
 10
-67.7438
 20
-37.0032
 30
0.0
 10
-67.7438
 20
-37.0032
 30
0.0
 10
-68.8397
 20
-38.0632
 30
0.0
 10
-68.3974
 20
-40.1165
 30
0.0
 10
-67.0079
 20
-41.1227
 30
0.0
 10
-67.0079
 20
-41.1227
 30
0.0
 10
-66.2029
 20
-41.7051
 30
0.0
 10
-64.6668
 20
-42.8541
 30
0.0
 10
-63.5588
 20
-44.6104
 30
0.0
 10
-63.5588
 20
-44.6104
 30
0.0
 10
-63.4977
 20
-44.7038
 30
0.0
 10
-63.4367
 20
-44.7933
 30
0.0
 10
-63.3889
 20
-44.8864
 30
0.0
 10
-63.3889
 20
-44.8864
 30
0.0
 10
-62.527
 20
-46.5697
 30
0.0
 10
-62.4599
 20
-46.8567
 30
0.0
 10
-61.312
 20
-44.9918
 30
0.0
 10
-61.312
 20
-44.9918
 30
0.0
 10
-61.245
 20
-44.884
 30
0.0
 10
-61.1805
 20
-44.771
 30
0.0
 10
-61.1084
 20
-44.6549
 30
0.0
 10
-61.1084
 20
-44.6549
 30
0.0
 10
-59.9974
 20
-42.8734
 30
0.0
 10
-58.4438
 20
-41.7105
 30
0.0
 10
-57.6318
 20
-41.1227
 30
0.0
 10
-57.6318
 20
-41.1227
 30
0.0
 10
-56.2421
 20
-40.1158
 30
0.0
 10
-55.8022
 20
-38.064
 30
0.0
 10
-56.8942
 20
-37.0032
 30
0.0
 10
-56.8942
 20
-37.0032
 30
0.0
 10
-57.9912
 20
-35.9422
 30
0.0
 10
-55.9451
 20
-36.2317
 30
0.0
 10
-55.9451
 20
-36.2317
 30
0.0
 10
-55.9451
 20
-36.2317
 30
0.0
 10
-54.1652
 20
-36.7268
 30
0.0
 10
-54.0296
 20
-38.6236
 30
0.0
 10
-54.0296
 20
-38.6236
 30
0.0
 10
-54.0296
 20
-38.6236
 30
0.0
 10
-50.2489
 20
-36.7332
 30
0.0
 10
-48.2894
 20
-33.4546
 30
0.0
 10
-49.1925
 20
-29.3976
 30
0.0
 10
-49.1925
 20
-29.3976
 30
0.0
 10
-49.8135
 20
-26.603
 30
0.0
 10
-51.4169
 20
-25.0288
 30
0.0
 10
-52.4916
 20
-24.258
 30
0.0
 10
-52.4916
 20
-24.258
 30
0.0
 10
-53.8457
 20
-23.2858
 30
0.0
 10
-53.326
 20
-23.7033
 30
0.0
 10
-54.1382
 20
-24.7428
 30
0.0
 10
-54.1382
 20
-24.7428
 30
0.0
 10
-54.4071
 20
-25.0832
 30
0.0
 10
-54.773
 20
-25.4364
 30
0.0
 10
-55.2645
 20
-25.6968
 30
0.0
 10
-55.2645
 20
-25.6968
 30
0.0
 10
-56.2764
 20
-26.2321
 30
0.0
 10
-57.8948
 20
-26.2153
 30
0.0
 10
-56.8773
 20
-24.9741
 30
0.0
 10
-56.8773
 20
-24.9741
 30
0.0
 10
-56.675
 20
-24.7305
 30
0.0
 10
-56.4255
 20
-24.3813
 30
0.0
 10
-56.1457
 20
-23.8844
 30
0.0
 10
-56.1457
 20
-23.8844
 30
0.0
 10
-55.3546
 20
-22.5012
 30
0.0
 10
-57.9177
 20
-20.2819
 30
0.0
 10
-57.9177
 20
-20.2819
 30
0.0
 10
-57.9177
 20
-20.2819
 30
0.0
 10
-59.9226
 20
-18.3547
 30
0.0
 10
-60.9956
 20
-16.955
 30
0.0
 10
-61.567
 20
-16.0186
 30
0.0
 10
-61.567
 20
-16.0186
 30
0.0
 10
-62.1324
 20
-15.0867
 30
0.0
 10
-62.2861
 20
-14.5901
 30
0.0
 10
-63.0295
 20
-15.9056
 30
0.0
 10
-63.0295
 20
-15.9056
 30
0.0
 10
-63.0801
 20
-15.9936
 30
0.0
 10
-63.1391
 20
-16.0855
 30
0.0
 10
-63.2015
 20
-16.1824
 30
0.0
 10
-63.2015
 20
-16.1824
 30
0.0
 10
-63.8
 20
-17.1168
 30
0.0
 10
-64.8595
 20
-18.4684
 30
0.0
 10
-66.723
 20
-20.2819
 30
0.0
 10
-66.723
 20
-20.2819
 30
0.0
 10
-66.7216
 20
-20.2817
 30
0.0
 10
-69.2826
 20
-22.5012
 30
0.0
 10
-68.4953
 20
-23.8844
 30
0.0
 10
-68.4953
 20
-23.8844
 30
0.0
 10
-68.2115
 20
-24.3811
 30
0.0
 10
-67.965
 20
-24.7305
 30
0.0
 10
-67.7644
 20
-24.9741
 30
0.0
 10
-67.7644
 20
-24.9741
 30
0.0
 10
-66.8332
 20
-26.1024
 30
0.0
 10
-68.093
 20
-26.2194
 30
0.0
 10
-69.0881
 20
-25.8276
 30
0.0
 10
-69.0881
 20
-25.8276
 30
0.0
 10
-69.0881
 20
-25.8276
 30
0.0
 10
-69.0881
 20
-36.3752
 30
0.0
 10
-69.0881
 20
-36.3752
 30
0.0
  0
SPLINE
  5
62
330
1F
100
AcDbEntity
  8
layer 1
 62
     7
100
AcDbSpline
210
0.0
220
0.0
230
1.0
 70
    11
 71
     3
 72
    20
 73
    16
 74
     0
 42
0.0000000001
 43
0.0000000001
 12
1.0
 22
0.0
 32
0.0
 13
1.0
 23
0.0
 33
0.0
 40
0.0
 40
0.0
 40
0.0
 40
0.0
 40
0.2
 40
0.2
 40
0.2
 40
0.2
 40
0.4
 40
0.4
 40
0.4
 40
0.4
 40
0.6
 40
0.6
 40
0.6
 40
0.6
 40
1.0
 40
1.0
 40
1.0
 40
1.0
 10
-69.0881
 20
-58.2542
 30
0.0
 10
-67.5686
 20
-57.4258
 30
0.0
 10
-66.2688
 20
-56.1641
 30
0.0
 10
-65.3943
 20
-54.7228
 30
0.0
 10
-65.3943
 20
-54.7228
 30
0.0
 10
-63.605
 20
-51.7722
 30
0.0
 10
-63.7449
 20
-46.6178
 30
0.0
 10
-66.437
 20
-44.1926
 30
0.0
 10
-66.437
 20
-44.1926
 30
0.0
 10
-67.1526
 20
-43.5475
 30
0.0
 10
-68.0905
 20
-42.9204
 30
0.0
 10
-69.0881
 20
-42.5466
 30
0.0
 10
-69.0881
 20
-42.5466
 30
0.0
 10
-69.0881
 20
-42.5466
 30
0.0
 10
-69.0881
 20
-58.2542
 30
0.0
 10
-69.0881
 20
-58.2542
 30
0.0
  0
SPLINE
  5
63
330
1F
100
AcDbEntity
  8
layer 1
 62
     7
100
AcDbSpline
210
0.0
220
0.0
230
1.0
 70
    11
 71
     3
 72
   108
 73
   104
 74
     0
 42
0.0000000001
 43
0.0000000001
 12
1.0
 22
0.0
 32
0.0
 13
1.0
 23
0.0
 33
0.0
 40
0.0
 40
0.0
 40
0.0
 40
0.0
 40
0.037037037037037
 40
0.037037037037037
 40
0.037037037037037
 40
0.037037037037037
 40
0.0740740740740741
 40
0.0740740740740741
 40
0.0740740740740741
 40
0.0740740740740741
 40
0.1111111111111111
 40
0.1111111111111111
 40
0.1111111111111111
 40
0.1111111111111111
 40
0.1481481481481481
 40
0.1481481481481481
 40
0.1481481481481481
 40
0.1481481481481481
 40
0.1851851851851852
 40
0.1851851851851852
 40
0.1851851851851852
 40
0.1851851851851852
 40
0.2222222222222222
 40
0.2222222222222222
 40
0.2222222222222222
 40
0.2222222222222222
 40
0.2592592592592592
 40
0.2592592592592592
 40
0.2592592592592592
 40
0.2592592592592592
 40
0.2962962962962963
 40
0.2962962962962963
 40
0.2962962962962963
 40
0.2962962962962963
 40
0.3333333333333333
 40
0.3333333333333333
 40
0.3333333333333333
 40
0.3333333333333333
 40
0.3703703703703703
 40
0.3703703703703703
 40
0.3703703703703703
 40
0.3703703703703703
 40
0.4074074074074074
 40
0.4074074074074074
 40
0.4074074074074074
 40
0.4074074074074074
 40
0.4444444444444444
 40
0.4444444444444444
 40
0.4444444444444444
 40
0.4444444444444444
 40
0.4814814814814815
 40
0.4814814814814815
 40
0.4814814814814815
 40
0.4814814814814815
 40
0.5185185185185185
 40
0.5185185185185185
 40
0.5185185185185185
 40
0.5185185185185185
 40
0.5555555555555556
 40
0.5555555555555556
 40
0.5555555555555556
 40
0.5555555555555556
 40
0.5925925925925926
 40
0.5925925925925926
 40
0.5925925925925926
 40
0.5925925925925926
 40
0.6296296296296297
 40
0.6296296296296297
 40
0.6296296296296297
 40
0.6296296296296297
 40
0.6666666666666666
 40
0.6666666666666666
 40
0.6666666666666666
 40
0.6666666666666666
 40
0.7037037037037037
 40
0.7037037037037037
 40
0.7037037037037037
 40
0.7037037037037037
 40
0.7407407407407407
 40
0.7407407407407407
 40
0.7407407407407407
 40
0.7407407407407407
 40
0.7777777777777778
 40
0.7777777777777778
 40
0.7777777777777778
 40
0.7777777777777778
 40
0.8148148148148148
 40
0.8148148148148148
 40
0.8148148148148148
 40
0.8148148148148148
 40
0.8518518518518519
 40
0.8518518518518519
 40
0.8518518518518519
 40
0.8518518518518519
 40
0.8888888888888888
 40
0.8888888888888888
 40
0.8888888888888888
 40
0.8888888888888888
 40
0.9259259259259259
 40
0.9259259259259259
 40
0.9259259259259259
 40
0.9259259259259259
 40
1.0
 40
1.0
 40
1.0
 40
1.0
 10
-69.0881
 20
-75.3477
 30
0.0
 10
-68.966
 20
-75.292
 30
0.0
 10
-68.8353
 20
-75.244
 30
0.0
 10
-68.6936
 20
-75.2047
 30
0.0
 10
-68.6936
 20
-75.2047
 30
0.0
 10
-68.6917
 20
-75.2041
 30
0.0
 10
-66.6465
 20
-74.9154
 30
0.0
 10
-67.7438
 20
-75.9761
 30
0.0
 10
-67.7438
 20
-75.9761
 30
0.0
 10
-68.8397
 20
-77.0368
 30
0.0
 10
-68.3974
 20
-79.0895
 30
0.0
 10
-67.0079
 20
-80.0956
 30
0.0
 10
-67.0079
 20
-80.0956
 30
0.0
 10
-66.2029
 20
-80.6787
 30
0.0
 10
-64.6668
 20
-81.8272
 30
0.0
 10
-63.5588
 20
-83.5833
 30
0.0
 10
-63.5588
 20
-83.5833
 30
0.0
 10
-63.4977
 20
-83.6774
 30
0.0
 10
-63.4367
 20
-83.7662
 30
0.0
 10
-63.3889
 20
-83.8592
 30
0.0
 10
-63.3889
 20
-83.8592
 30
0.0
 10
-62.527
 20
-85.5434
 30
0.0
 10
-62.4599
 20
-85.8297
 30
0.0
 10
-61.312
 20
-83.9648
 30
0.0
 10
-61.312
 20
-83.9648
 30
0.0
 10
-61.245
 20
-83.8575
 30
0.0
 10
-61.1805
 20
-83.7441
 30
0.0
 10
-61.1084
 20
-83.6279
 30
0.0
 10
-61.1084
 20
-83.6279
 30
0.0
 10
-59.9974
 20
-81.8458
 30
0.0
 10
-58.4438
 20
-80.6836
 30
0.0
 10
-57.6318
 20
-80.0956
 30
0.0
 10
-57.6318
 20
-80.0956
 30
0.0
 10
-56.2421
 20
-79.0893
 30
0.0
 10
-55.8022
 20
-77.037
 30
0.0
 10
-56.8942
 20
-75.9761
 30
0.0
 10
-56.8942
 20
-75.9761
 30
0.0
 10
-57.9912
 20
-74.9148
 30
0.0
 10
-55.9451
 20
-75.2047
 30
0.0
 10
-55.9451
 20
-75.2047
 30
0.0
 10
-55.9451
 20
-75.2047
 30
0.0
 10
-54.1652
 20
-75.7004
 30
0.0
 10
-54.0296
 20
-77.5965
 30
0.0
 10
-54.0296
 20
-77.5965
 30
0.0
 10
-54.0296
 20
-77.5965
 30
0.0
 10
-50.2489
 20
-75.7058
 30
0.0
 10
-48.2894
 20
-72.4276
 30
0.0
 10
-49.1925
 20
-68.3704
 30
0.0
 10
-49.1925
 20
-68.3704
 30
0.0
 10
-49.8135
 20
-65.5753
 30
0.0
 10
-51.4169
 20
-64.0017
 30
0.0
 10
-52.4916
 20
-63.2308
 30
0.0
 10
-52.4916
 20
-63.2308
 30
0.0
 10
-53.8457
 20
-62.2583
 30
0.0
 10
-53.326
 20
-62.6763
 30
0.0
 10
-54.1382
 20
-63.7158
 30
0.0
 10
-54.1382
 20
-63.7158
 30
0.0
 10
-54.4071
 20
-64.0557
 30
0.0
 10
-54.773
 20
-64.4093
 30
0.0
 10
-55.2645
 20
-64.6695
 30
0.0
 10
-55.2645
 20
-64.6695
 30
0.0
 10
-56.2764
 20
-65.2057
 30
0.0
 10
-57.8948
 20
-65.1882
 30
0.0
 10
-56.8773
 20
-63.9469
 30
0.0
 10
-56.8773
 20
-63.9469
 30
0.0
 10
-56.675
 20
-63.7029
 30
0.0
 10
-56.4255
 20
-63.3543
 30
0.0
 10
-56.1457
 20
-62.8573
 30
0.0
 10
-56.1457
 20
-62.8573
 30
0.0
 10
-55.3546
 20
-61.4737
 30
0.0
 10
-57.9177
 20
-59.2547
 30
0.0
 10
-57.9177
 20
-59.2547
 30
0.0
 10
-57.9177
 20
-59.2547
 30
0.0
 10
-59.9226
 20
-57.3282
 30
0.0
 10
-60.9956
 20
-55.928
 30
0.0
 10
-61.567
 20
-54.9916
 30
0.0
 10
-61.567
 20
-54.9916
 30
0.0
 10
-62.1324
 20
-54.0593
 30
0.0
 10
-62.2861
 20
-53.5632
 30
0.0
 10
-63.0295
 20
-54.8783
 30
0.0
 10
-63.0295
 20
-54.8783
 30
0.0
 10
-63.0801
 20
-54.9671
 30
0.0
 10
-63.1391
 20
-55.0585
 30
0.0
 10
-63.2015
 20
-55.155
 30
0.0
 10
-63.2015
 20
-55.155
 30
0.0
 10
-63.8
 20
-56.0903
 30
0.0
 10
-64.8595
 20
-57.4412
 30
0.0
 10
-66.723
 20
-59.2547
 30
0.0
 10
-66.723
 20
-59.2547
 30
0.0
 10
-66.7216
 20
-59.2541
 30
0.0
 10
-69.2826
 20
-61.4741
 30
0.0
 10
-68.4953
 20
-62.8573
 30
0.0
 10
-68.4953
 20
-62.8573
 30
0.0
 10
-68.2115
 20
-63.3536
 30
0.0
 10
-67.965
 20
-63.7033
 30
0.0
 10
-67.7644
 20
-63.9469
 30
0.0
 10
-67.7644
 20
-63.9469
 30
0.0
 10
-66.8332
 20
-65.0759
 30
0.0
 10
-68.093
 20
-65.1925
 30
0.0
 10
-69.0881
 20
-64.8007
 30
0.0
 10
-69.0881
 20
-64.8007
 30
0.0
 10
-69.0881
 20
-64.8007
 30
0.0
 10
-69.0881
 20
-75.3477
 30
0.0
 10
-69.0881
 20
-75.3477
 30
0.0
  0
SPLINE
  5
64
330
1F
100
AcDbEntity
  8
layer 1
 62
     7
100
AcDbSpline
210
0.0
220
0.0
230
1.0
 70
    11
 71
     3
 72
    20
 73
    16
 74
     0
 42
0.0000000001
 43
0.0000000001
 12
1.0
 22
0.0
 32
0.0
 13
1.0
 23
0.0
 33
0.0
 40
0.0
 40
0.0
 40
0.0
 40
0.0
 40
0.2
 40
0.2
 40
0.2
 40
0.2
 40
0.4
 40
0.4
 40
0.4
 40
0.4
 40
0.6
 40
0.6
 40
0.6
 40
0.6
 40
1.0
 40
1.0
 40
1.0
 40
1.0
 10
-69.0881
 20
-97.2244
 30
0.0
 10
-67.5686
 20
-96.396
 30
0.0
 10
-66.2688
 20
-95.1342
 30
0.0
 10
-65.3943
 20
-93.6928
 30
0.0
 10
-65.3943
 20
-93.6928
 30
0.0
 10
-63.605
 20
-90.7424
 30
0.0
 10
-63.7444
 20
-85.591
 30
0.0
 10
-66.437
 20
-83.1656
 30
0.0
 10
-66.437
 20
-83.1656
 30
0.0
 10
-67.1526
 20
-82.5199
 30
0.0
 10
-68.0905
 20
-81.8935
 30
0.0
 10
-69.0881
 20
-81.5194
 30
0.0
 10
-69.0881
 20
-81.5194
 30
0.0
 10
-69.0881
 20
-81.5194
 30
0.0
 10
-69.0881
 20
-97.2244
 30
0.0
 10
-69.0881
 20
-97.2244
 30
0.0
  0
SPLINE
  5
65
330
1F
100
AcDbEntity
  8
layer 1
 62
     7
100
AcDbSpline
210
0.0
220
0.0
230
1.0
 70
    11
 71
     3
 72
    24
 73
    20
 74
     0
 42
0.0000000001
 43
0.0000000001
 12
1.0
 22
0.0
 32
0.0
 13
1.0
 23
0.0
 33
0.0
 40
0.0
 40
0.0
 40
0.0
 40
0.0
 40
0.1666666666666667
 40
0.1666666666666667
 40
0.1666666666666667
 40
0.1666666666666667
 40
0.3333333333333333
 40
0.3333333333333333
 40
0.3333333333333333
 40
0.3333333333333333
 40
0.5
 40
0.5
 40
0.5
 40
0.5
 40
0.6666666666666666
 40
0.6666666666666666
 40
0.6666666666666666
 40
0.6666666666666666
 40
1.0
 40
1.0
 40
1.0
 40
1.0
 10
46.8701
 20
-81.2295
 30
0.0
 10
45.4918
 20
-81.4556
 30
0.0
 10
44.1196
 20
-82.2946
 30
0.0
 10
43.152
 20
-83.1656
 30
0.0
 10
43.152
 20
-83.1656
 30
0.0
 10
40.4693
 20
-85.5852
 30
0.0
 10
40.3195
 20
-90.7497
 30
0.0
 10
42.1118
 20
-93.6928
 30
0.0
 10
42.1118
 20
-93.6928
 30
0.0
 10
43.033
 20
-95.215
 30
0.0
 10
44.4329
 20
-96.5382
 30
0.0
 10
46.0625
 20
-97.3605
 30
0.0
 10
46.0625
 20
-97.3605
 30
0.0
 10
46.3362
 20
-97.4977
 30
0.0
 10
46.6057
 20
-97.5982
 30
0.0
 10
46.8687
 20
-97.6663
 30
0.0
 10
46.8687
 20
-97.6663
 30
0.0
 10
46.8687
 20
-97.6663
 30
0.0
 10
46.8701
 20
-81.2295
 30
0.0
 10
46.8701
 20
-81.2295
 30
0.0
  0
SPLINE
  5
66
330
1F
100
AcDbEntity
  8
layer 1
 62
     7
100
AcDbSpline
210
0.0
220
0.0
230
1.0
 70
    11
 71
     3
 72
   112
 73
   108
 74
     0
 42
0.0000000001
 43
0.0000000001
 12
1.0
 22
0.0
 32
0.0
 13
1.0
 23
0.0
 33
0.0
 40
0.0
 40
0.0
 40
0.0
 40
0.0
 40
0.0357142857142857
 40
0.0357142857142857
 40
0.0357142857142857
 40
0.0357142857142857
 40
0.0714285714285714
 40
0.0714285714285714
 40
0.0714285714285714
 40
0.0714285714285714
 40
0.1071428571428571
 40
0.1071428571428571
 40
0.1071428571428571
 40
0.1071428571428571
 40
0.1428571428571428
 40
0.1428571428571428
 40
0.1428571428571428
 40
0.1428571428571428
 40
0.1785714285714286
 40
0.1785714285714286
 40
0.1785714285714286
 40
0.1785714285714286
 40
0.2142857142857143
 40
0.2142857142857143
 40
0.2142857142857143
 40
0.2142857142857143
 40
0.25
 40
0.25
 40
0.25
 40
0.25
 40
0.2857142857142857
 40
0.2857142857142857
 40
0.2857142857142857
 40
0.2857142857142857
 40
0.3214285714285715
 40
0.3214285714285715
 40
0.3214285714285715
 40
0.3214285714285715
 40
0.3571428571428572
 40
0.3571428571428572
 40
0.3571428571428572
 40
0.3571428571428572
 40
0.3928571428571428
 40
0.3928571428571428
 40
0.3928571428571428
 40
0.3928571428571428
 40
0.4285714285714285
 40
0.4285714285714285
 40
0.4285714285714285
 40
0.4285714285714285
 40
0.4642857142857143
 40
0.4642857142857143
 40
0.4642857142857143
 40
0.4642857142857143
 40
0.5
 40
0.5
 40
0.5
 40
0.5
 40
0.5357142857142857
 40
0.5357142857142857
 40
0.5357142857142857
 40
0.5357142857142857
 40
0.5714285714285714
 40
0.5714285714285714
 40
0.5714285714285714
 40
0.5714285714285714
 40
0.6071428571428571
 40
0.6071428571428571
 40
0.6071428571428571
 40
0.6071428571428571
 40
0.6428571428571429
 40
0.6428571428571429
 40
0.6428571428571429
 40
0.6428571428571429
 40
0.6785714285714286
 40
0.6785714285714286
 40
0.6785714285714286
 40
0.6785714285714286
 40
0.7142857142857143
 40
0.7142857142857143
 40
0.7142857142857143
 40
0.7142857142857143
 40
0.75
 40
0.75
 40
0.75
 40
0.75
 40
0.7857142857142857
 40
0.7857142857142857
 40
0.7857142857142857
 40
0.7857142857142857
 40
0.8214285714285714
 40
0.8214285714285714
 40
0.8214285714285714
 40
0.8214285714285714
 40
0.8571428571428571
 40
0.8571428571428571
 40
0.8571428571428571
 40
0.8571428571428571
 40
0.8928571428571429
 40
0.8928571428571429
 40
0.8928571428571429
 40
0.8928571428571429
 40
0.9285714285714286
 40
0.9285714285714286
 40
0.9285714285714286
 40
0.9285714285714286
 40
1.0
 40
1.0
 40
1.0
 40
1.0
 10
46.8701
 20
-64.1018
 30
0.0
 10
46.6535
 20
-64.3096
 30
0.0
 10
46.3964
 20
-64.5082
 30
0.0
 10
46.0913
 20
-64.6695
 30
0.0
 10
46.0913
 20
-64.6695
 30
0.0
 10
45.0802
 20
-65.2057
 30
0.0
 10
43.461
 20
-65.1882
 30
0.0
 10
44.4789
 20
-63.9469
 30
0.0
 10
44.4789
 20
-63.9469
 30
0.0
 10
44.6793
 20
-63.7029
 30
0.0
 10
44.9309
 20
-63.3543
 30
0.0
 10
45.2104
 20
-62.8573
 30
0.0
 10
45.2104
 20
-62.8573
 30
0.0
 10
46.0019
 20
-61.4737
 30
0.0
 10
43.4381
 20
-59.2547
 30
0.0
 10
43.4381
 20
-59.2547
 30
0.0
 10
43.4381
 20
-59.2547
 30
0.0
 10
41.4318
 20
-57.3282
 30
0.0
 10
40.3602
 20
-55.928
 30
0.0
 10
39.7891
 20
-54.9916
 30
0.0
 10
39.7891
 20
-54.9916
 30
0.0
 10
39.222
 20
-54.0593
 30
0.0
 10
39.0701
 20
-53.5632
 30
0.0
 10
38.3263
 20
-54.8783
 30
0.0
 10
38.3263
 20
-54.8783
 30
0.0
 10
38.2766
 20
-54.9671
 30
0.0
 10
38.2166
 20
-55.0585
 30
0.0
 10
38.1548
 20
-55.155
 30
0.0
 10
38.1548
 20
-55.155
 30
0.0
 10
37.5564
 20
-56.0903
 30
0.0
 10
36.497
 20
-57.4412
 30
0.0
 10
34.6328
 20
-59.2547
 30
0.0
 10
34.6328
 20
-59.2547
 30
0.0
 10
34.6347
 20
-59.2541
 30
0.0
 10
32.0739
 20
-61.4741
 30
0.0
 10
32.861
 20
-62.8573
 30
0.0
 10
32.861
 20
-62.8573
 30
0.0
 10
33.1451
 20
-63.3536
 30
0.0
 10
33.3912
 20
-63.7033
 30
0.0
 10
33.5918
 20
-63.9469
 30
0.0
 10
33.5918
 20
-63.9469
 30
0.0
 10
34.6134
 20
-65.1875
 30
0.0
 10
32.9917
 20
-65.2057
 30
0.0
 10
31.9811
 20
-64.6695
 30
0.0
 10
31.9811
 20
-64.6695
 30
0.0
 10
31.4923
 20
-64.4093
 30
0.0
 10
31.1243
 20
-64.0562
 30
0.0
 10
30.8575
 20
-63.7158
 30
0.0
 10
30.8575
 20
-63.7158
 30
0.0
 10
30.0412
 20
-62.6763
 30
0.0
 10
30.5605
 20
-62.2586
 30
0.0
 10
29.2086
 20
-63.2308
 30
0.0
 10
29.2086
 20
-63.2308
 30
0.0
 10
28.1357
 20
-64.001
 30
0.0
 10
26.5318
 20
-65.5762
 30
0.0
 10
25.9108
 20
-68.3704
 30
0.0
 10
25.9108
 20
-68.3704
 30
0.0
 10
25.0082
 20
-72.427
 30
0.0
 10
26.9649
 20
-75.7063
 30
0.0
 10
30.7462
 20
-77.5965
 30
0.0
 10
30.7462
 20
-77.5965
 30
0.0
 10
30.7465
 20
-77.5962
 30
0.0
 10
30.8832
 20
-75.7005
 30
0.0
 10
32.6626
 20
-75.2047
 30
0.0
 10
32.6626
 20
-75.2047
 30
0.0
 10
32.6628
 20
-75.2041
 30
0.0
 10
34.7095
 20
-74.9154
 30
0.0
 10
33.6122
 20
-75.9761
 30
0.0
 10
33.6122
 20
-75.9761
 30
0.0
 10
32.5169
 20
-77.0368
 30
0.0
 10
32.9591
 20
-79.0895
 30
0.0
 10
34.3484
 20
-80.0956
 30
0.0
 10
34.3484
 20
-80.0956
 30
0.0
 10
35.1535
 20
-80.6787
 30
0.0
 10
36.689
 20
-81.8272
 30
0.0
 10
37.7973
 20
-83.5833
 30
0.0
 10
37.7973
 20
-83.5833
 30
0.0
 10
37.8586
 20
-83.6774
 30
0.0
 10
37.9199
 20
-83.7662
 30
0.0
 10
37.9669
 20
-83.8592
 30
0.0
 10
37.9669
 20
-83.8592
 30
0.0
 10
38.8275
 20
-85.5434
 30
0.0
 10
38.8961
 20
-85.8297
 30
0.0
 10
40.0441
 20
-83.9648
 30
0.0
 10
40.0441
 20
-83.9648
 30
0.0
 10
40.1115
 20
-83.8575
 30
0.0
 10
40.1756
 20
-83.7441
 30
0.0
 10
40.2477
 20
-83.6279
 30
0.0
 10
40.2477
 20
-83.6279
 30
0.0
 10
41.3568
 20
-81.8458
 30
0.0
 10
42.9129
 20
-80.6836
 30
0.0
 10
43.7241
 20
-80.0956
 30
0.0
 10
43.7241
 20
-80.0956
 30
0.0
 10
45.1145
 20
-79.0893
 30
0.0
 10
45.5536
 20
-77.037
 30
0.0
 10
44.4621
 20
-75.9761
 30
0.0
 10
44.4621
 20
-75.9761
 30
0.0
 10
43.3654
 20
-74.9148
 30
0.0
 10
45.4107
 20
-75.2047
 30
0.0
 10
45.4107
 20
-75.2047
 30
0.0
 10
45.4107
 20
-75.2047
 30
0.0
 10
46.137
 20
-75.4066
 30
0.0
 10
46.5874
 20
-75.8411
 30
0.0
 10
46.8687
 20
-76.285
 30
0.0
 10
46.8687
 20
-76.285
 30
0.0
 10
46.8687
 20
-76.285
 30
0.0
 10
46.8701
 20
-64.1018
 30
0.0
 10
46.8701
 20
-64.1018
 30
0.0
  0
SPLINE
  5
67
330
1F
100
AcDbEntity
  8
layer 1
 62
     7
100
AcDbSpline
210
0.0
220
0.0
230
1.0
 70
    11
 71
     3
 72
    24
 73
    20
 74
     0
 42
0.0000000001
 43
0.0000000001
 12
1.0
 22
0.0
 32
0.0
 13
1.0
 23
0.0
 33
0.0
 40
0.0
 40
0.0
 40
0.0
 40
0.0
 40
0.1666666666666667
 40
0.1666666666666667
 40
0.1666666666666667
 40
0.1666666666666667
 40
0.3333333333333333
 40
0.3333333333333333
 40
0.3333333333333333
 40
0.3333333333333333
 40
0.5
 40
0.5
 40
0.5
 40
0.5
 40
0.6666666666666666
 40
0.6666666666666666
 40
0.6666666666666666
 40
0.6666666666666666
 40
1.0
 40
1.0
 40
1.0
 40
1.0
 10
46.8701
 20
-42.257
 30
0.0
 10
45.4918
 20
-42.4832
 30
0.0
 10
44.1196
 20
-43.3217
 30
0.0
 10
43.152
 20
-44.1926
 30
0.0
 10
43.152
 20
-44.1926
 30
0.0
 10
40.4693
 20
-46.6117
 30
0.0
 10
40.3195
 20
-51.7799
 30
0.0
 10
42.1118
 20
-54.7228
 30
0.0
 10
42.1118
 20
-54.7228
 30
0.0
 10
43.033
 20
-56.2446
 30
0.0
 10
44.4329
 20
-57.5681
 30
0.0
 10
46.0625
 20
-58.3904
 30
0.0
 10
46.0625
 20
-58.3904
 30
0.0
 10
46.3362
 20
-58.5275
 30
0.0
 10
46.6057
 20
-58.6282
 30
0.0
 10
46.8687
 20
-58.6962
 30
0.0
 10
46.8687
 20
-58.6962
 30
0.0
 10
46.8687
 20
-58.6962
 30
0.0
 10
46.8701
 20
-42.257
 30
0.0
 10
46.8701
 20
-42.257
 30
0.0
  0
SPLINE
  5
68
330
1F
100
AcDbEntity
  8
layer 1
 62
     7
100
AcDbSpline
210
0.0
220
0.0
230
1.0
 70
    11
 71
     3
 72
   112
 73
   108
 74
     0
 42
0.0000000001
 43
0.0000000001
 12
1.0
 22
0.0
 32
0.0
 13
1.0
 23
0.0
 33
0.0
 40
0.0
 40
0.0
 40
0.0
 40
0.0
 40
0.0357142857142857
 40
0.0357142857142857
 40
0.0357142857142857
 40
0.0357142857142857
 40
0.0714285714285714
 40
0.0714285714285714
 40
0.0714285714285714
 40
0.0714285714285714
 40
0.1071428571428571
 40
0.1071428571428571
 40
0.1071428571428571
 40
0.1071428571428571
 40
0.1428571428571428
 40
0.1428571428571428
 40
0.1428571428571428
 40
0.1428571428571428
 40
0.1785714285714286
 40
0.1785714285714286
 40
0.1785714285714286
 40
0.1785714285714286
 40
0.2142857142857143
 40
0.2142857142857143
 40
0.2142857142857143
 40
0.2142857142857143
 40
0.25
 40
0.25
 40
0.25
 40
0.25
 40
0.2857142857142857
 40
0.2857142857142857
 40
0.2857142857142857
 40
0.2857142857142857
 40
0.3214285714285715
 40
0.3214285714285715
 40
0.3214285714285715
 40
0.3214285714285715
 40
0.3571428571428572
 40
0.3571428571428572
 40
0.3571428571428572
 40
0.3571428571428572
 40
0.3928571428571428
 40
0.3928571428571428
 40
0.3928571428571428
 40
0.3928571428571428
 40
0.4285714285714285
 40
0.4285714285714285
 40
0.4285714285714285
 40
0.4285714285714285
 40
0.4642857142857143
 40
0.4642857142857143
 40
0.4642857142857143
 40
0.4642857142857143
 40
0.5
 40
0.5
 40
0.5
 40
0.5
 40
0.5357142857142857
 40
0.5357142857142857
 40
0.5357142857142857
 40
0.5357142857142857
 40
0.5714285714285714
 40
0.5714285714285714
 40
0.5714285714285714
 40
0.5714285714285714
 40
0.6071428571428571
 40
0.6071428571428571
 40
0.6071428571428571
 40
0.6071428571428571
 40
0.6428571428571429
 40
0.6428571428571429
 40
0.6428571428571429
 40
0.6428571428571429
 40
0.6785714285714286
 40
0.6785714285714286
 40
0.6785714285714286
 40
0.6785714285714286
 40
0.7142857142857143
 40
0.7142857142857143
 40
0.7142857142857143
 40
0.7142857142857143
 40
0.75
 40
0.75
 40
0.75
 40
0.75
 40
0.7857142857142857
 40
0.7857142857142857
 40
0.7857142857142857
 40
0.7857142857142857
 40
0.8214285714285714
 40
0.8214285714285714
 40
0.8214285714285714
 40
0.8214285714285714
 40
0.8571428571428571
 40
0.8571428571428571
 40
0.8571428571428571
 40
0.8571428571428571
 40
0.8928571428571429
 40
0.8928571428571429
 40
0.8928571428571429
 40
0.8928571428571429
 40
0.9285714285714286
 40
0.9285714285714286
 40
0.9285714285714286
 40
0.9285714285714286
 40
1.0
 40
1.0
 40
1.0
 40
1.0
 10
46.8701
 20
-25.1293
 30
0.0
 10
46.6535
 20
-25.3372
 30
0.0
 10
46.3964
 20
-25.535
 30
0.0
 10
46.0913
 20
-25.6968
 30
0.0
 10
46.0913
 20
-25.6968
 30
0.0
 10
45.0802
 20
-26.2321
 30
0.0
 10
43.461
 20
-26.2153
 30
0.0
 10
44.4789
 20
-24.9741
 30
0.0
 10
44.4789
 20
-24.9741
 30
0.0
 10
44.6793
 20
-24.7305
 30
0.0
 10
44.9309
 20
-24.3813
 30
0.0
 10
45.2104
 20
-23.8844
 30
0.0
 10
45.2104
 20
-23.8844
 30
0.0
 10
46.0019
 20
-22.5012
 30
0.0
 10
43.4381
 20
-20.2819
 30
0.0
 10
43.4381
 20
-20.2819
 30
0.0
 10
43.4381
 20
-20.2819
 30
0.0
 10
41.4318
 20
-18.3547
 30
0.0
 10
40.3602
 20
-16.955
 30
0.0
 10
39.7891
 20
-16.0186
 30
0.0
 10
39.7891
 20
-16.0186
 30
0.0
 10
39.222
 20
-15.0867
 30
0.0
 10
39.0701
 20
-14.5901
 30
0.0
 10
38.3263
 20
-15.9056
 30
0.0
 10
38.3263
 20
-15.9056
 30
0.0
 10
38.2766
 20
-15.9936
 30
0.0
 10
38.2166
 20
-16.0855
 30
0.0
 10
38.1548
 20
-16.1824
 30
0.0
 10
38.1548
 20
-16.1824
 30
0.0
 10
37.5564
 20
-17.1168
 30
0.0
 10
36.497
 20
-18.4684
 30
0.0
 10
34.6328
 20
-20.2819
 30
0.0
 10
34.6328
 20
-20.2819
 30
0.0
 10
34.6347
 20
-20.2817
 30
0.0
 10
32.0739
 20
-22.5012
 30
0.0
 10
32.861
 20
-23.8844
 30
0.0
 10
32.861
 20
-23.8844
 30
0.0
 10
33.1451
 20
-24.3811
 30
0.0
 10
33.3912
 20
-24.7305
 30
0.0
 10
33.5918
 20
-24.9741
 30
0.0
 10
33.5918
 20
-24.9741
 30
0.0
 10
34.6134
 20
-26.215
 30
0.0
 10
32.9917
 20
-26.2329
 30
0.0
 10
31.9811
 20
-25.6968
 30
0.0
 10
31.9811
 20
-25.6968
 30
0.0
 10
31.4923
 20
-25.4358
 30
0.0
 10
31.1243
 20
-25.0832
 30
0.0
 10
30.8575
 20
-24.7428
 30
0.0
 10
30.8575
 20
-24.7428
 30
0.0
 10
30.0412
 20
-23.7028
 30
0.0
 10
30.5605
 20
-23.2858
 30
0.0
 10
29.2086
 20
-24.258
 30
0.0
 10
29.2086
 20
-24.258
 30
0.0
 10
28.1357
 20
-25.0286
 30
0.0
 10
26.5318
 20
-26.6034
 30
0.0
 10
25.9108
 20
-29.3976
 30
0.0
 10
25.9108
 20
-29.3976
 30
0.0
 10
25.0082
 20
-33.4546
 30
0.0
 10
26.9649
 20
-36.7334
 30
0.0
 10
30.7462
 20
-38.6236
 30
0.0
 10
30.7462
 20
-38.6236
 30
0.0
 10
30.7465
 20
-38.6227
 30
0.0
 10
30.8832
 20
-36.7278
 30
0.0
 10
32.6626
 20
-36.2317
 30
0.0
 10
32.6626
 20
-36.2317
 30
0.0
 10
32.6628
 20
-36.2316
 30
0.0
 10
34.7095
 20
-35.9422
 30
0.0
 10
33.6122
 20
-37.0032
 30
0.0
 10
33.6122
 20
-37.0032
 30
0.0
 10
32.5169
 20
-38.0632
 30
0.0
 10
32.9591
 20
-40.1165
 30
0.0
 10
34.3484
 20
-41.1227
 30
0.0
 10
34.3484
 20
-41.1227
 30
0.0
 10
35.1535
 20
-41.7051
 30
0.0
 10
36.689
 20
-42.8541
 30
0.0
 10
37.7973
 20
-44.6104
 30
0.0
 10
37.7973
 20
-44.6104
 30
0.0
 10
37.8586
 20
-44.7038
 30
0.0
 10
37.9199
 20
-44.7933
 30
0.0
 10
37.9669
 20
-44.8864
 30
0.0
 10
37.9669
 20
-44.8864
 30
0.0
 10
38.8275
 20
-46.5697
 30
0.0
 10
38.8961
 20
-46.8567
 30
0.0
 10
40.0441
 20
-44.9918
 30
0.0
 10
40.0441
 20
-44.9918
 30
0.0
 10
40.1115
 20
-44.884
 30
0.0
 10
40.1756
 20
-44.771
 30
0.0
 10
40.2477
 20
-44.6549
 30
0.0
 10
40.2477
 20
-44.6549
 30
0.0
 10
41.3568
 20
-42.8734
 30
0.0
 10
42.9129
 20
-41.7105
 30
0.0
 10
43.7241
 20
-41.1227
 30
0.0
 10
43.7241
 20
-41.1227
 30
0.0
 10
45.1145
 20
-40.1158
 30
0.0
 10
45.5536
 20
-38.064
 30
0.0
 10
44.4621
 20
-37.0032
 30
0.0
 10
44.4621
 20
-37.0032
 30
0.0
 10
43.3654
 20
-35.9422
 30
0.0
 10
45.4107
 20
-36.2317
 30
0.0
 10
45.4107
 20
-36.2317
 30
0.0
 10
45.4107
 20
-36.2317
 30
0.0
 10
46.137
 20
-36.4331
 30
0.0
 10
46.5874
 20
-36.8681
 30
0.0
 10
46.8687
 20
-37.3119
 30
0.0
 10
46.8687
 20
-37.3119
 30
0.0
 10
46.8687
 20
-37.3119
 30
0.0
 10
46.8701
 20
-25.1293
 30
0.0
 10
46.8701
 20
-25.1293
 30
0.0
  0
SPLINE
  5
69
330
1F
100
AcDbEntity
  8
layer 1
 62
     7
100
AcDbSpline
210
0.0
220
0.0
230
1.0
 70
    11
 71
     3
 72
    24
 73
    20
 74
     0
 42
0.0000000001
 43
0.0000000001
 12
1.0
 22
0.0
 32
0.0
 13
1.0
 23
0.0
 33
0.0
 40
0.0
 40
0.0
 40
0.0
 40
0.0
 40
0.1666666666666667
 40
0.1666666666666667
 40
0.1666666666666667
 40
0.1666666666666667
 40
0.3333333333333333
 40
0.3333333333333333
 40
0.3333333333333333
 40
0.3333333333333333
 40
0.5
 40
0.5
 40
0.5
 40
0.5
 40
0.6666666666666666
 40
0.6666666666666666
 40
0.6666666666666666
 40
0.6666666666666666
 40
1.0
 40
1.0
 40
1.0
 40
1.0
 10
46.8701
 20
-3.2867
 30
0.0
 10
45.4918
 20
-3.5128
 30
0.0
 10
44.1196
 20
-4.3517
 30
0.0
 10
43.152
 20
-5.2227
 30
0.0
 10
43.152
 20
-5.2227
 30
0.0
 10
40.4693
 20
-7.6412
 30
0.0
 10
40.3195
 20
-12.8068
 30
0.0
 10
42.1118
 20
-15.7497
 30
0.0
 10
42.1118
 20
-15.7497
 30
0.0
 10
43.033
 20
-17.2721
 30
0.0
 10
44.4329
 20
-18.5954
 30
0.0
 10
46.0625
 20
-19.4174
 30
0.0
 10
46.0625
 20
-19.4174
 30
0.0
 10
46.3362
 20
-19.5539
 30
0.0
 10
46.6057
 20
-19.6554
 30
0.0
 10
46.8687
 20
-19.7232
 30
0.0
 10
46.8687
 20
-19.7232
 30
0.0
 10
46.8687
 20
-19.7232
 30
0.0
 10
46.8701
 20
-3.2867
 30
0.0
 10
46.8701
 20
-3.2867
 30
0.0
  0
SPLINE
  5
6A
330
1F
100
AcDbEntity
  8
layer 1
 62
     7
100
AcDbSpline
210
0.0
220
0.0
230
1.0
 70
    11
 71
     3
 72
   112
 73
   108
 74
     0
 42
0.0000000001
 43
0.0000000001
 12
1.0
 22
0.0
 32
0.0
 13
1.0
 23
0.0
 33
0.0
 40
0.0
 40
0.0
 40
0.0
 40
0.0
 40
0.0357142857142857
 40
0.0357142857142857
 40
0.0357142857142857
 40
0.0357142857142857
 40
0.0714285714285714
 40
0.0714285714285714
 40
0.0714285714285714
 40
0.0714285714285714
 40
0.1071428571428571
 40
0.1071428571428571
 40
0.1071428571428571
 40
0.1071428571428571
 40
0.1428571428571428
 40
0.1428571428571428
 40
0.1428571428571428
 40
0.1428571428571428
 40
0.1785714285714286
 40
0.1785714285714286
 40
0.1785714285714286
 40
0.1785714285714286
 40
0.2142857142857143
 40
0.2142857142857143
 40
0.2142857142857143
 40
0.2142857142857143
 40
0.25
 40
0.25
 40
0.25
 40
0.25
 40
0.2857142857142857
 40
0.2857142857142857
 40
0.2857142857142857
 40
0.2857142857142857
 40
0.3214285714285715
 40
0.3214285714285715
 40
0.3214285714285715
 40
0.3214285714285715
 40
0.3571428571428572
 40
0.3571428571428572
 40
0.3571428571428572
 40
0.3571428571428572
 40
0.3928571428571428
 40
0.3928571428571428
 40
0.3928571428571428
 40
0.3928571428571428
 40
0.4285714285714285
 40
0.4285714285714285
 40
0.4285714285714285
 40
0.4285714285714285
 40
0.4642857142857143
 40
0.4642857142857143
 40
0.4642857142857143
 40
0.4642857142857143
 40
0.5
 40
0.5
 40
0.5
 40
0.5
 40
0.5357142857142857
 40
0.5357142857142857
 40
0.5357142857142857
 40
0.5357142857142857
 40
0.5714285714285714
 40
0.5714285714285714
 40
0.5714285714285714
 40
0.5714285714285714
 40
0.6071428571428571
 40
0.6071428571428571
 40
0.6071428571428571
 40
0.6071428571428571
 40
0.6428571428571429
 40
0.6428571428571429
 40
0.6428571428571429
 40
0.6428571428571429
 40
0.6785714285714286
 40
0.6785714285714286
 40
0.6785714285714286
 40
0.6785714285714286
 40
0.7142857142857143
 40
0.7142857142857143
 40
0.7142857142857143
 40
0.7142857142857143
 40
0.75
 40
0.75
 40
0.75
 40
0.75
 40
0.7857142857142857
 40
0.7857142857142857
 40
0.7857142857142857
 40
0.7857142857142857
 40
0.8214285714285714
 40
0.8214285714285714
 40
0.8214285714285714
 40
0.8214285714285714
 40
0.8571428571428571
 40
0.8571428571428571
 40
0.8571428571428571
 40
0.8571428571428571
 40
0.8928571428571429
 40
0.8928571428571429
 40
0.8928571428571429
 40
0.8928571428571429
 40
0.9285714285714286
 40
0.9285714285714286
 40
0.9285714285714286
 40
0.9285714285714286
 40
1.0
 40
1.0
 40
1.0
 40
1.0
 10
46.8701
 20
13.8412
 30
0.0
 10
46.6535
 20
13.6332
 30
0.0
 10
46.3964
 20
13.4352
 30
0.0
 10
46.0913
 20
13.2736
 30
0.0
 10
46.0913
 20
13.2736
 30
0.0
 10
45.0802
 20
12.7372
 30
0.0
 10
43.461
 20
12.755
 30
0.0
 10
44.4789
 20
13.9957
 30
0.0
 10
44.4789
 20
13.9957
 30
0.0
 10
44.6793
 20
14.2399
 30
0.0
 10
44.9309
 20
14.589
 30
0.0
 10
45.2104
 20
15.0855
 30
0.0
 10
45.2104
 20
15.0855
 30
0.0
 10
46.0019
 20
16.4691
 30
0.0
 10
43.4381
 20
18.6882
 30
0.0
 10
43.4381
 20
18.6882
 30
0.0
 10
43.4381
 20
18.6882
 30
0.0
 10
41.4318
 20
20.6147
 30
0.0
 10
40.3602
 20
22.0151
 30
0.0
 10
39.7891
 20
22.9514
 30
0.0
 10
39.7891
 20
22.9514
 30
0.0
 10
39.222
 20
23.8835
 30
0.0
 10
39.0701
 20
24.38
 30
0.0
 10
38.3263
 20
23.0649
 30
0.0
 10
38.3263
 20
23.0649
 30
0.0
 10
38.2766
 20
22.9757
 30
0.0
 10
38.2166
 20
22.8845
 30
0.0
 10
38.1548
 20
22.7877
 30
0.0
 10
38.1548
 20
22.7877
 30
0.0
 10
37.5564
 20
21.8537
 30
0.0
 10
36.497
 20
20.5021
 30
0.0
 10
34.6328
 20
18.6882
 30
0.0
 10
34.6328
 20
18.6882
 30
0.0
 10
34.6347
 20
18.6887
 30
0.0
 10
32.0739
 20
16.4689
 30
0.0
 10
32.861
 20
15.0855
 30
0.0
 10
32.861
 20
15.0855
 30
0.0
 10
33.1451
 20
14.5892
 30
0.0
 10
33.3912
 20
14.2393
 30
0.0
 10
33.5918
 20
13.9957
 30
0.0
 10
33.5918
 20
13.9957
 30
0.0
 10
34.6134
 20
12.7554
 30
0.0
 10
32.9917
 20
12.7372
 30
0.0
 10
31.9811
 20
13.2736
 30
0.0
 10
31.9811
 20
13.2736
 30
0.0
 10
31.4923
 20
13.5334
 30
0.0
 10
31.1243
 20
13.8868
 30
0.0
 10
30.8575
 20
14.227
 30
0.0
 10
30.8575
 20
14.227
 30
0.0
 10
30.0412
 20
15.2677
 30
0.0
 10
30.5605
 20
15.6842
 30
0.0
 10
29.2086
 20
14.712
 30
0.0
 10
29.2086
 20
14.712
 30
0.0
 10
28.1357
 20
13.9419
 30
0.0
 10
26.5318
 20
12.3666
 30
0.0
 10
25.9108
 20
9.5726
 30
0.0
 10
25.9108
 20
9.5726
 30
0.0
 10
25.0082
 20
5.5156
 30
0.0
 10
26.9649
 20
2.2364
 30
0.0
 10
30.7462
 20
0.3463
 30
0.0
 10
30.7462
 20
0.3463
 30
0.0
 10
30.7465
 20
0.3466
 30
0.0
 10
30.8832
 20
2.2424
 30
0.0
 10
32.6626
 20
2.7384
 30
0.0
 10
32.6626
 20
2.7384
 30
0.0
 10
32.6628
 20
2.7387
 30
0.0
 10
34.7095
 20
3.0278
 30
0.0
 10
33.6122
 20
1.9667
 30
0.0
 10
33.6122
 20
1.9667
 30
0.0
 10
32.5169
 20
0.906
 30
0.0
 10
32.9591
 20
-1.1463
 30
0.0
 10
34.3484
 20
-2.1527
 30
0.0
 10
34.3484
 20
-2.1527
 30
0.0
 10
35.1535
 20
-2.7347
 30
0.0
 10
36.689
 20
-3.8843
 30
0.0
 10
37.7973
 20
-5.6405
 30
0.0
 10
37.7973
 20
-5.6405
 30
0.0
 10
37.8586
 20
-5.7346
 30
0.0
 10
37.9199
 20
-5.8232
 30
0.0
 10
37.9669
 20
-5.9163
 30
0.0
 10
37.9669
 20
-5.9163
 30
0.0
 10
38.8275
 20
-7.5995
 30
0.0
 10
38.8961
 20
-7.8866
 30
0.0
 10
40.0441
 20
-6.0217
 30
0.0
 10
40.0441
 20
-6.0217
 30
0.0
 10
40.1115
 20
-5.9147
 30
0.0
 10
40.1756
 20
-5.8009
 30
0.0
 10
40.2477
 20
-5.6852
 30
0.0
 10
40.2477
 20
-5.6852
 30
0.0
 10
41.3568
 20
-3.9029
 30
0.0
 10
42.9129
 20
-2.7404
 30
0.0
 10
43.7241
 20
-2.1527
 30
0.0
 10
43.7241
 20
-2.1527
 30
0.0
 10
45.1145
 20
-1.1463
 30
0.0
 10
45.5536
 20
0.9059
 30
0.0
 10
44.4621
 20
1.9667
 30
0.0
 10
44.4621
 20
1.9667
 30
0.0
 10
43.3654
 20
3.0281
 30
0.0
 10
45.4107
 20
2.7384
 30
0.0
 10
45.4107
 20
2.7384
 30
0.0
 10
45.4107
 20
2.7384
 30
0.0
 10
46.137
 20
2.5372
 30
0.0
 10
46.5874
 20
2.102
 30
0.0
 10
46.8687
 20
1.6582
 30
0.0
 10
46.8687
 20
1.6582
 30
0.0
 10
46.8687
 20
1.6582
 30
0.0
 10
46.8701
 20
13.8412
 30
0.0
 10
46.8701
 20
13.8412
 30
0.0
  0
SPLINE
  5
6B
330
1F
100
AcDbEntity
  8
layer 1
 62
     7
100
AcDbSpline
210
0.0
220
0.0
230
1.0
 70
    11
 71
     3
 72
    24
 73
    20
 74
     0
 42
0.0000000001
 43
0.0000000001
 12
1.0
 22
0.0
 32
0.0
 13
1.0
 23
0.0
 33
0.0
 40
0.0
 40
0.0
 40
0.0
 40
0.0
 40
0.1666666666666667
 40
0.1666666666666667
 40
0.1666666666666667
 40
0.1666666666666667
 40
0.3333333333333333
 40
0.3333333333333333
 40
0.3333333333333333
 40
0.3333333333333333
 40
0.5
 40
0.5
 40
0.5
 40
0.5
 40
0.6666666666666666
 40
0.6666666666666666
 40
0.6666666666666666
 40
0.6666666666666666
 40
1.0
 40
1.0
 40
1.0
 40
1.0
 10
46.8701
 20
35.6868
 30
0.0
 10
45.4918
 20
35.4596
 30
0.0
 10
44.1196
 20
34.6213
 30
0.0
 10
43.152
 20
33.7502
 30
0.0
 10
43.152
 20
33.7502
 30
0.0
 10
40.4693
 20
31.3313
 30
0.0
 10
40.3195
 20
26.1633
 30
0.0
 10
42.1118
 20
23.2204
 30
0.0
 10
42.1118
 20
23.2204
 30
0.0
 10
43.033
 20
21.6981
 30
0.0
 10
44.4329
 20
20.3752
 30
0.0
 10
46.0625
 20
19.5528
 30
0.0
 10
46.0625
 20
19.5528
 30
0.0
 10
46.3362
 20
19.4154
 30
0.0
 10
46.6057
 20
19.3147
 30
0.0
 10
46.8687
 20
19.2469
 30
0.0
 10
46.8687
 20
19.2469
 30
0.0
 10
46.8687
 20
19.2469
 30
0.0
 10
46.8701
 20
35.6868
 30
0.0
 10
46.8701
 20
35.6868
 30
0.0
  0
SPLINE
  5
6C
330
1F
100
AcDbEntity
  8
layer 1
 62
     7
100
AcDbSpline
210
0.0
220
0.0
230
1.0
 70
    11
 71
     3
 72
   112
 73
   108
 74
     0
 42
0.0000000001
 43
0.0000000001
 12
1.0
 22
0.0
 32
0.0
 13
1.0
 23
0.0
 33
0.0
 40
0.0
 40
0.0
 40
0.0
 40
0.0
 40
0.0357142857142857
 40
0.0357142857142857
 40
0.0357142857142857
 40
0.0357142857142857
 40
0.0714285714285714
 40
0.0714285714285714
 40
0.0714285714285714
 40
0.0714285714285714
 40
0.1071428571428571
 40
0.1071428571428571
 40
0.1071428571428571
 40
0.1071428571428571
 40
0.1428571428571428
 40
0.1428571428571428
 40
0.1428571428571428
 40
0.1428571428571428
 40
0.1785714285714286
 40
0.1785714285714286
 40
0.1785714285714286
 40
0.1785714285714286
 40
0.2142857142857143
 40
0.2142857142857143
 40
0.2142857142857143
 40
0.2142857142857143
 40
0.25
 40
0.25
 40
0.25
 40
0.25
 40
0.2857142857142857
 40
0.2857142857142857
 40
0.2857142857142857
 40
0.2857142857142857
 40
0.3214285714285715
 40
0.3214285714285715
 40
0.3214285714285715
 40
0.3214285714285715
 40
0.3571428571428572
 40
0.3571428571428572
 40
0.3571428571428572
 40
0.3571428571428572
 40
0.3928571428571428
 40
0.3928571428571428
 40
0.3928571428571428
 40
0.3928571428571428
 40
0.4285714285714285
 40
0.4285714285714285
 40
0.4285714285714285
 40
0.4285714285714285
 40
0.4642857142857143
 40
0.4642857142857143
 40
0.4642857142857143
 40
0.4642857142857143
 40
0.5
 40
0.5
 40
0.5
 40
0.5
 40
0.5357142857142857
 40
0.5357142857142857
 40
0.5357142857142857
 40
0.5357142857142857
 40
0.5714285714285714
 40
0.5714285714285714
 40
0.5714285714285714
 40
0.5714285714285714
 40
0.6071428571428571
 40
0.6071428571428571
 40
0.6071428571428571
 40
0.6071428571428571
 40
0.6428571428571429
 40
0.6428571428571429
 40
0.6428571428571429
 40
0.6428571428571429
 40
0.6785714285714286
 40
0.6785714285714286
 40
0.6785714285714286
 40
0.6785714285714286
 40
0.7142857142857143
 40
0.7142857142857143
 40
0.7142857142857143
 40
0.7142857142857143
 40
0.75
 40
0.75
 40
0.75
 40
0.75
 40
0.7857142857142857
 40
0.7857142857142857
 40
0.7857142857142857
 40
0.7857142857142857
 40
0.8214285714285714
 40
0.8214285714285714
 40
0.8214285714285714
 40
0.8214285714285714
 40
0.8571428571428571
 40
0.8571428571428571
 40
0.8571428571428571
 40
0.8571428571428571
 40
0.8928571428571429
 40
0.8928571428571429
 40
0.8928571428571429
 40
0.8928571428571429
 40
0.9285714285714286
 40
0.9285714285714286
 40
0.9285714285714286
 40
0.9285714285714286
 40
1.0
 40
1.0
 40
1.0
 40
1.0
 10
46.8701
 20
52.8136
 30
0.0
 10
46.6535
 20
52.6057
 30
0.0
 10
46.3964
 20
52.4083
 30
0.0
 10
46.0913
 20
52.2463
 30
0.0
 10
46.0913
 20
52.2463
 30
0.0
 10
45.0802
 20
51.7107
 30
0.0
 10
43.461
 20
51.7279
 30
0.0
 10
44.4789
 20
52.9688
 30
0.0
 10
44.4789
 20
52.9688
 30
0.0
 10
44.6793
 20
53.2123
 30
0.0
 10
44.9309
 20
53.5615
 30
0.0
 10
45.2104
 20
54.0588
 30
0.0
 10
45.2104
 20
54.0588
 30
0.0
 10
46.0019
 20
55.4416
 30
0.0
 10
43.4381
 20
57.6613
 30
0.0
 10
43.4381
 20
57.6613
 30
0.0
 10
43.4381
 20
57.6613
 30
0.0
 10
41.4318
 20
59.5882
 30
0.0
 10
40.3602
 20
60.988
 30
0.0
 10
39.7891
 20
61.9245
 30
0.0
 10
39.7891
 20
61.9245
 30
0.0
 10
39.222
 20
62.856
 30
0.0
 10
39.0701
 20
63.353
 30
0.0
 10
38.3263
 20
62.0379
 30
0.0
 10
38.3263
 20
62.0379
 30
0.0
 10
38.2766
 20
61.9492
 30
0.0
 10
38.2166
 20
61.8573
 30
0.0
 10
38.1548
 20
61.7605
 30
0.0
 10
38.1548
 20
61.7605
 30
0.0
 10
37.5564
 20
60.8262
 30
0.0
 10
36.497
 20
59.4747
 30
0.0
 10
34.6328
 20
57.6613
 30
0.0
 10
34.6328
 20
57.6613
 30
0.0
 10
34.6347
 20
57.6622
 30
0.0
 10
32.0739
 20
55.4416
 30
0.0
 10
32.861
 20
54.0588
 30
0.0
 10
32.861
 20
54.0588
 30
0.0
 10
33.1451
 20
53.5616
 30
0.0
 10
33.3912
 20
53.2122
 30
0.0
 10
33.5918
 20
52.9688
 30
0.0
 10
33.5918
 20
52.9688
 30
0.0
 10
34.6134
 20
51.7279
 30
0.0
 10
32.9917
 20
51.7103
 30
0.0
 10
31.9811
 20
52.2463
 30
0.0
 10
31.9811
 20
52.2463
 30
0.0
 10
31.4923
 20
52.507
 30
0.0
 10
31.1243
 20
52.8597
 30
0.0
 10
30.8575
 20
53.1997
 30
0.0
 10
30.8575
 20
53.1997
 30
0.0
 10
30.0412
 20
54.2402
 30
0.0
 10
30.5605
 20
54.6572
 30
0.0
 10
29.2086
 20
53.6854
 30
0.0
 10
29.2086
 20
53.6854
 30
0.0
 10
28.1357
 20
52.9144
 30
0.0
 10
26.5318
 20
51.3397
 30
0.0
 10
25.9108
 20
48.5456
 30
0.0
 10
25.9108
 20
48.5456
 30
0.0
 10
25.0082
 20
44.4893
 30
0.0
 10
26.9649
 20
41.2095
 30
0.0
 10
30.7462
 20
39.3193
 30
0.0
 10
30.7462
 20
39.3193
 30
0.0
 10
30.7465
 20
39.3201
 30
0.0
 10
30.8832
 20
41.2154
 30
0.0
 10
32.6626
 20
41.7114
 30
0.0
 10
32.6626
 20
41.7114
 30
0.0
 10
32.6628
 20
41.7123
 30
0.0
 10
34.7095
 20
42.0006
 30
0.0
 10
33.6122
 20
40.9398
 30
0.0
 10
33.6122
 20
40.9398
 30
0.0
 10
32.5169
 20
39.8795
 30
0.0
 10
32.9591
 20
37.8266
 30
0.0
 10
34.3484
 20
36.8207
 30
0.0
 10
34.3484
 20
36.8207
 30
0.0
 10
35.1535
 20
36.2376
 30
0.0
 10
36.689
 20
35.0888
 30
0.0
 10
37.7973
 20
33.3325
 30
0.0
 10
37.7973
 20
33.3325
 30
0.0
 10
37.8586
 20
33.239
 30
0.0
 10
37.9199
 20
33.1501
 30
0.0
 10
37.9669
 20
33.0567
 30
0.0
 10
37.9669
 20
33.0567
 30
0.0
 10
38.8275
 20
31.3729
 30
0.0
 10
38.8961
 20
31.0864
 30
0.0
 10
40.0441
 20
32.9513
 30
0.0
 10
40.0441
 20
32.9513
 30
0.0
 10
40.1115
 20
33.0589
 30
0.0
 10
40.1756
 20
33.1721
 30
0.0
 10
40.2477
 20
33.2881
 30
0.0
 10
40.2477
 20
33.2881
 30
0.0
 10
41.3568
 20
35.0696
 30
0.0
 10
42.9129
 20
36.2322
 30
0.0
 10
43.7241
 20
36.8207
 30
0.0
 10
43.7241
 20
36.8207
 30
0.0
 10
45.1145
 20
37.8272
 30
0.0
 10
45.5536
 20
39.8791
 30
0.0
 10
44.4621
 20
40.9398
 30
0.0
 10
44.4621
 20
40.9398
 30
0.0
 10
43.3654
 20
42.0006
 30
0.0
 10
45.4107
 20
41.7114
 30
0.0
 10
45.4107
 20
41.7114
 30
0.0
 10
45.4107
 20
41.7114
 30
0.0
 10
46.137
 20
41.5097
 30
0.0
 10
46.5874
 20
41.0747
 30
0.0
 10
46.8687
 20
40.6309
 30
0.0
 10
46.8687
 20
40.6309
 30
0.0
 10
46.8687
 20
40.6309
 30
0.0
 10
46.8701
 20
52.8136
 30
0.0
 10
46.8701
 20
52.8136
 30
0.0
  0
SPLINE
  5
6D
330
1F
100
AcDbEntity
  8
layer 1
 62
     7
100
AcDbSpline
210
0.0
220
0.0
230
1.0
 70
    11
 71
     3
 72
    24
 73
    20
 74
     0
 42
0.0000000001
 43
0.0000000001
 12
1.0
 22
0.0
 32
0.0
 13
1.0
 23
0.0
 33
0.0
 40
0.0
 40
0.0
 40
0.0
 40
0.0
 40
0.1666666666666667
 40
0.1666666666666667
 40
0.1666666666666667
 40
0.1666666666666667
 40
0.3333333333333333
 40
0.3333333333333333
 40
0.3333333333333333
 40
0.3333333333333333
 40
0.5
 40
0.5
 40
0.5
 40
0.5
 40
0.6666666666666666
 40
0.6666666666666666
 40
0.6666666666666666
 40
0.6666666666666666
 40
1.0
 40
1.0
 40
1.0
 40
1.0
 10
46.8701
 20
74.656
 30
0.0
 10
45.4918
 20
74.43
 30
0.0
 10
44.1196
 20
73.5914
 30
0.0
 10
43.152
 20
72.7201
 30
0.0
 10
43.152
 20
72.7201
 30
0.0
 10
40.4693
 20
70.3015
 30
0.0
 10
40.3195
 20
65.136
 30
0.0
 10
42.1118
 20
62.1934
 30
0.0
 10
42.1118
 20
62.1934
 30
0.0
 10
43.033
 20
60.6718
 30
0.0
 10
44.4329
 20
59.3476
 30
0.0
 10
46.0625
 20
58.5257
 30
0.0
 10
46.0625
 20
58.5257
 30
0.0
 10
46.3362
 20
58.3889
 30
0.0
 10
46.6057
 20
58.2876
 30
0.0
 10
46.8687
 20
58.2198
 30
0.0
 10
46.8687
 20
58.2198
 30
0.0
 10
46.8687
 20
58.2198
 30
0.0
 10
46.8701
 20
74.656
 30
0.0
 10
46.8701
 20
74.656
 30
0.0
  0
SPLINE
  5
6E
330
1F
100
AcDbEntity
  8
layer 1
 62
     7
100
AcDbSpline
210
0.0
220
0.0
230
1.0
 70
    11
 71
     3
 72
   112
 73
   108
 74
     0
 42
0.0000000001
 43
0.0000000001
 12
1.0
 22
0.0
 32
0.0
 13
1.0
 23
0.0
 33
0.0
 40
0.0
 40
0.0
 40
0.0
 40
0.0
 40
0.0357142857142857
 40
0.0357142857142857
 40
0.0357142857142857
 40
0.0357142857142857
 40
0.0714285714285714
 40
0.0714285714285714
 40
0.0714285714285714
 40
0.0714285714285714
 40
0.1071428571428571
 40
0.1071428571428571
 40
0.1071428571428571
 40
0.1071428571428571
 40
0.1428571428571428
 40
0.1428571428571428
 40
0.1428571428571428
 40
0.1428571428571428
 40
0.1785714285714286
 40
0.1785714285714286
 40
0.1785714285714286
 40
0.1785714285714286
 40
0.2142857142857143
 40
0.2142857142857143
 40
0.2142857142857143
 40
0.2142857142857143
 40
0.25
 40
0.25
 40
0.25
 40
0.25
 40
0.2857142857142857
 40
0.2857142857142857
 40
0.2857142857142857
 40
0.2857142857142857
 40
0.3214285714285715
 40
0.3214285714285715
 40
0.3214285714285715
 40
0.3214285714285715
 40
0.3571428571428572
 40
0.3571428571428572
 40
0.3571428571428572
 40
0.3571428571428572
 40
0.3928571428571428
 40
0.3928571428571428
 40
0.3928571428571428
 40
0.3928571428571428
 40
0.4285714285714285
 40
0.4285714285714285
 40
0.4285714285714285
 40
0.4285714285714285
 40
0.4642857142857143
 40
0.4642857142857143
 40
0.4642857142857143
 40
0.4642857142857143
 40
0.5
 40
0.5
 40
0.5
 40
0.5
 40
0.5357142857142857
 40
0.5357142857142857
 40
0.5357142857142857
 40
0.5357142857142857
 40
0.5714285714285714
 40
0.5714285714285714
 40
0.5714285714285714
 40
0.5714285714285714
 40
0.6071428571428571
 40
0.6071428571428571
 40
0.6071428571428571
 40
0.6071428571428571
 40
0.6428571428571429
 40
0.6428571428571429
 40
0.6428571428571429
 40
0.6428571428571429
 40
0.6785714285714286
 40
0.6785714285714286
 40
0.6785714285714286
 40
0.6785714285714286
 40
0.7142857142857143
 40
0.7142857142857143
 40
0.7142857142857143
 40
0.7142857142857143
 40
0.75
 40
0.75
 40
0.75
 40
0.75
 40
0.7857142857142857
 40
0.7857142857142857
 40
0.7857142857142857
 40
0.7857142857142857
 40
0.8214285714285714
 40
0.8214285714285714
 40
0.8214285714285714
 40
0.8214285714285714
 40
0.8571428571428571
 40
0.8571428571428571
 40
0.8571428571428571
 40
0.8571428571428571
 40
0.8928571428571429
 40
0.8928571428571429
 40
0.8928571428571429
 40
0.8928571428571429
 40
0.9285714285714286
 40
0.9285714285714286
 40
0.9285714285714286
 40
0.9285714285714286
 40
1.0
 40
1.0
 40
1.0
 40
1.0
 10
46.8701
 20
91.784
 30
0.0
 10
46.6535
 20
91.576
 30
0.0
 10
46.3964
 20
91.3778
 30
0.0
 10
46.0913
 20
91.2166
 30
0.0
 10
46.0913
 20
91.2166
 30
0.0
 10
45.0802
 20
90.6811
 30
0.0
 10
43.461
 20
90.6976
 30
0.0
 10
44.4789
 20
91.9392
 30
0.0
 10
44.4789
 20
91.9392
 30
0.0
 10
44.6793
 20
92.1825
 30
0.0
 10
44.9309
 20
92.5314
 30
0.0
 10
45.2104
 20
93.0287
 30
0.0
 10
45.2104
 20
93.0287
 30
0.0
 10
46.0019
 20
94.4119
 30
0.0
 10
43.4381
 20
96.6311
 30
0.0
 10
43.4381
 20
96.6311
 30
0.0
 10
43.4381
 20
96.6311
 30
0.0
 10
41.4318
 20
98.5574
 30
0.0
 10
40.3602
 20
99.9581
 30
0.0
 10
39.7891
 20
100.8942
 30
0.0
 10
39.7891
 20
100.8942
 30
0.0
 10
39.222
 20
101.8263
 30
0.0
 10
39.0701
 20
102.3229
 30
0.0
 10
38.3263
 20
101.0079
 30
0.0
 10
38.3263
 20
101.0079
 30
0.0
 10
38.2766
 20
100.9197
 30
0.0
 10
38.2166
 20
100.8277
 30
0.0
 10
38.1548
 20
100.731
 30
0.0
 10
38.1548
 20
100.731
 30
0.0
 10
37.5564
 20
99.7964
 30
0.0
 10
36.497
 20
98.4448
 30
0.0
 10
34.6328
 20
96.6311
 30
0.0
 10
34.6328
 20
96.6311
 30
0.0
 10
34.6347
 20
96.6315
 30
0.0
 10
32.0739
 20
94.4118
 30
0.0
 10
32.861
 20
93.0287
 30
0.0
 10
32.861
 20
93.0287
 30
0.0
 10
33.1451
 20
92.5321
 30
0.0
 10
33.3912
 20
92.1825
 30
0.0
 10
33.5918
 20
91.9392
 30
0.0
 10
33.5918
 20
91.9392
 30
0.0
 10
34.6134
 20
90.6982
 30
0.0
 10
32.9917
 20
90.6802
 30
0.0
 10
31.9811
 20
91.2166
 30
0.0
 10
31.9811
 20
91.2166
 30
0.0
 10
31.4923
 20
91.4774
 30
0.0
 10
31.1243
 20
91.8301
 30
0.0
 10
30.8575
 20
92.1702
 30
0.0
 10
30.8575
 20
92.1702
 30
0.0
 10
30.0412
 20
93.2104
 30
0.0
 10
30.5605
 20
93.6273
 30
0.0
 10
29.2086
 20
92.6552
 30
0.0
 10
29.2086
 20
92.6552
 30
0.0
 10
28.1357
 20
91.8847
 30
0.0
 10
26.5318
 20
90.3095
 30
0.0
 10
25.9108
 20
87.5157
 30
0.0
 10
25.9108
 20
87.5157
 30
0.0
 10
25.0082
 20
83.4584
 30
0.0
 10
26.9649
 20
80.1796
 30
0.0
 10
30.7462
 20
78.2894
 30
0.0
 10
30.7462
 20
78.2894
 30
0.0
 10
30.7465
 20
78.2905
 30
0.0
 10
30.8832
 20
80.1853
 30
0.0
 10
32.6626
 20
80.6813
 30
0.0
 10
32.6626
 20
80.6813
 30
0.0
 10
32.6628
 20
80.6816
 30
0.0
 10
34.7095
 20
80.9708
 30
0.0
 10
33.6122
 20
79.9098
 30
0.0
 10
33.6122
 20
79.9098
 30
0.0
 10
32.5169
 20
78.85
 30
0.0
 10
32.9591
 20
76.7965
 30
0.0
 10
34.3484
 20
75.7901
 30
0.0
 10
34.3484
 20
75.7901
 30
0.0
 10
35.1535
 20
75.2081
 30
0.0
 10
36.689
 20
74.0587
 30
0.0
 10
37.7973
 20
72.3026
 30
0.0
 10
37.7973
 20
72.3026
 30
0.0
 10
37.8586
 20
72.2092
 30
0.0
 10
37.9199
 20
72.1202
 30
0.0
 10
37.9669
 20
72.0265
 30
0.0
 10
37.9669
 20
72.0265
 30
0.0
 10
38.8275
 20
70.3434
 30
0.0
 10
38.8961
 20
70.0563
 30
0.0
 10
40.0441
 20
71.9212
 30
0.0
 10
40.0441
 20
71.9212
 30
0.0
 10
40.1115
 20
72.0293
 30
0.0
 10
40.1756
 20
72.142
 30
0.0
 10
40.2477
 20
72.2578
 30
0.0
 10
40.2477
 20
72.2578
 30
0.0
 10
41.3568
 20
74.0398
 30
0.0
 10
42.9129
 20
75.2024
 30
0.0
 10
43.7241
 20
75.7901
 30
0.0
 10
43.7241
 20
75.7901
 30
0.0
 10
45.1145
 20
76.7974
 30
0.0
 10
45.5536
 20
78.8491
 30
0.0
 10
44.4621
 20
79.9098
 30
0.0
 10
44.4621
 20
79.9098
 30
0.0
 10
43.3654
 20
80.9709
 30
0.0
 10
45.4107
 20
80.6813
 30
0.0
 10
45.4107
 20
80.6813
 30
0.0
 10
45.4107
 20
80.6813
 30
0.0
 10
46.137
 20
80.48
 30
0.0
 10
46.5874
 20
80.0449
 30
0.0
 10
46.8687
 20
79.6011
 30
0.0
 10
46.8687
 20
79.6011
 30
0.0
 10
46.8687
 20
79.6011
 30
0.0
 10
46.8701
 20
91.784
 30
0.0
 10
46.8701
 20
91.784
 30
0.0
  0
SPLINE
  5
6F
330
1F
100
AcDbEntity
  8
layer 1
 62
     7
100
AcDbSpline
210
0.0
220
0.0
230
1.0
 70
    11
 71
     3
 72
    24
 73
    20
 74
     0
 42
0.0000000001
 43
0.0000000001
 12
1.0
 22
0.0
 32
0.0
 13
1.0
 23
0.0
 33
0.0
 40
0.0
 40
0.0
 40
0.0
 40
0.0
 40
0.1666666666666667
 40
0.1666666666666667
 40
0.1666666666666667
 40
0.1666666666666667
 40
0.3333333333333333
 40
0.3333333333333333
 40
0.3333333333333333
 40
0.3333333333333333
 40
0.5
 40
0.5
 40
0.5
 40
0.5
 40
0.6666666666666666
 40
0.6666666666666666
 40
0.6666666666666666
 40
0.6666666666666666
 40
1.0
 40
1.0
 40
1.0
 40
1.0
 10
46.8701
 20
113.6297
 30
0.0
 10
45.4918
 20
113.4036
 30
0.0
 10
44.1196
 20
112.5643
 30
0.0
 10
43.152
 20
111.6935
 30
0.0
 10
43.152
 20
111.6935
 30
0.0
 10
40.4693
 20
109.2741
 30
0.0
 10
40.3195
 20
104.1062
 30
0.0
 10
42.1118
 20
101.1633
 30
0.0
 10
42.1118
 20
101.1633
 30
0.0
 10
43.033
 20
99.6409
 30
0.0
 10
44.4329
 20
98.3177
 30
0.0
 10
46.0625
 20
97.4956
 30
0.0
 10
46.0625
 20
97.4956
 30
0.0
 10
46.3362
 20
97.3581
 30
0.0
 10
46.6057
 20
97.2579
 30
0.0
 10
46.8687
 20
97.1897
 30
0.0
 10
46.8687
 20
97.1897
 30
0.0
 10
46.8687
 20
97.1897
 30
0.0
 10
46.8701
 20
113.6297
 30
0.0
 10
46.8701
 20
113.6297
 30
0.0
  0
SPLINE
  5
70
330
1F
100
AcDbEntity
  8
layer 1
 62
     7
100
AcDbSpline
210
0.0
220
0.0
230
1.0
 70
    11
 71
     3
 72
   104
 73
   100
 74
     0
 42
0.0000000001
 43
0.0000000001
 12
1.0
 22
0.0
 32
0.0
 13
1.0
 23
0.0
 33
0.0
 40
0.0
 40
0.0
 40
0.0
 40
0.0
 40
0.0384615384615385
 40
0.0384615384615385
 40
0.0384615384615385
 40
0.0384615384615385
 40
0.0769230769230769
 40
0.0769230769230769
 40
0.0769230769230769
 40
0.0769230769230769
 40
0.1153846153846154
 40
0.1153846153846154
 40
0.1153846153846154
 40
0.1153846153846154
 40
0.1538461538461539
 40
0.1538461538461539
 40
0.1538461538461539
 40
0.1538461538461539
 40
0.1923076923076923
 40
0.1923076923076923
 40
0.1923076923076923
 40
0.1923076923076923
 40
0.2307692307692308
 40
0.2307692307692308
 40
0.2307692307692308
 40
0.2307692307692308
 40
0.2692307692307692
 40
0.2692307692307692
 40
0.2692307692307692
 40
0.2692307692307692
 40
0.3076923076923077
 40
0.3076923076923077
 40
0.3076923076923077
 40
0.3076923076923077
 40
0.3461538461538461
 40
0.3461538461538461
 40
0.3461538461538461
 40
0.3461538461538461
 40
0.3846153846153846
 40
0.3846153846153846
 40
0.3846153846153846
 40
0.3846153846153846
 40
0.4230769230769231
 40
0.4230769230769231
 40
0.4230769230769231
 40
0.4230769230769231
 40
0.4615384615384616
 40
0.4615384615384616
 40
0.4615384615384616
 40
0.4615384615384616
 40
0.5
 40
0.5
 40
0.5
 40
0.5
 40
0.5384615384615384
 40
0.5384615384615384
 40
0.5384615384615384
 40
0.5384615384615384
 40
0.5769230769230769
 40
0.5769230769230769
 40
0.5769230769230769
 40
0.5769230769230769
 40
0.6153846153846154
 40
0.6153846153846154
 40
0.6153846153846154
 40
0.6153846153846154
 40
0.6538461538461539
 40
0.6538461538461539
 40
0.6538461538461539
 40
0.6538461538461539
 40
0.6923076923076923
 40
0.6923076923076923
 40
0.6923076923076923
 40
0.6923076923076923
 40
0.7307692307692307
 40
0.7307692307692307
 40
0.7307692307692307
 40
0.7307692307692307
 40
0.7692307692307693
 40
0.7692307692307693
 40
0.7692307692307693
 40
0.7692307692307693
 40
0.8076923076923077
 40
0.8076923076923077
 40
0.8076923076923077
 40
0.8076923076923077
 40
0.8461538461538461
 40
0.8461538461538461
 40
0.8461538461538461
 40
0.8461538461538461
 40
0.8846153846153846
 40
0.8846153846153846
 40
0.8846153846153846
 40
0.8846153846153846
 40
0.9230769230769231
 40
0.9230769230769231
 40
0.9230769230769231
 40
0.9230769230769231
 40
1.0
 40
1.0
 40
1.0
 40
1.0
 10
-12.765
 20
-107.7523
 30
0.0
 10
-12.765
 20
-107.7523
 30
0.0
 10
-10.5142
 20
-107.7523
 30
0.0
 10
-10.5142
 20
-107.7523
 30
0.0
 10
-10.5142
 20
-107.7523
 30
0.0
 10
-10.0406
 20
-104.714
 30
0.0
 10
-8.0011
 20
-101.9158
 30
0.0
 10
-5.3376
 20
-99.8145
 30
0.0
 10
-5.3376
 20
-99.8145
 30
0.0
 10
-5.3376
 20
-99.8139
 30
0.0
 10
-6.3687
 20
-98.9287
 30
0.0
 10
-6.5795
 20
-97.5163
 30
0.0
 10
-6.5795
 20
-97.5163
 30
0.0
 10
-6.7888
 20
-96.1034
 30
0.0
 10
-5.9044
 20
-95.8654
 30
0.0
 10
-5.2925
 20
-96.9084
 30
0.0
 10
-5.2925
 20
-96.9084
 30
0.0
 10
-4.8274
 20
-97.6982
 30
0.0
 10
-3.3234
 20
-98.1644
 30
0.0
 10
-1.7302
 20
-97.3605
 30
0.0
 10
-1.7302
 20
-97.3605
 30
0.0
 10
-0.1011
 20
-96.5375
 30
0.0
 10
1.2978
 20
-95.2152
 30
0.0
 10
2.2214
 20
-93.6928
 30
0.0
 10
2.2214
 20
-93.6928
 30
0.0
 10
4.0123
 20
-90.7424
 30
0.0
 10
3.8717
 20
-85.5914
 30
0.0
 10
1.1793
 20
-83.1656
 30
0.0
 10
1.1793
 20
-83.1656
 30
0.0
 10
-0.4548
 20
-81.6926
 30
0.0
 10
-3.2436
 20
-80.3149
 30
0.0
 10
-5.2628
 20
-81.8272
 30
0.0
 10
-5.2628
 20
-81.8272
 30
0.0
 10
-6.8124
 20
-82.9872
 30
0.0
 10
-6.2847
 20
-81.1924
 30
0.0
 10
-5.8265
 20
-80.6664
 30
0.0
 10
-5.8265
 20
-80.6664
 30
0.0
 10
-5.3675
 20
-80.1395
 30
0.0
 10
-4.7348
 20
-79.4879
 30
0.0
 10
-4.7348
 20
-79.4879
 30
0.0
 10
-4.7348
 20
-79.4879
 30
0.0
 10
-4.7333
 20
-79.4879
 30
0.0
 10
-7.4586
 20
-77.7553
 30
0.0
 10
-9.2477
 20
-74.8124
 30
0.0
 10
-9.2477
 20
-74.8124
 30
0.0
 10
-9.9312
 20
-73.6865
 30
0.0
 10
-10.3417
 20
-72.5541
 30
0.0
 10
-10.518
 20
-71.4355
 30
0.0
 10
-10.518
 20
-71.4355
 30
0.0
 10
-10.518
 20
-71.4355
 30
0.0
 10
-12.7629
 20
-71.4347
 30
0.0
 10
-12.7629
 20
-71.4347
 30
0.0
 10
-12.7629
 20
-71.4347
 30
0.0
 10
-12.9387
 20
-72.5536
 30
0.0
 10
-13.3497
 20
-73.6867
 30
0.0
 10
-14.0343
 20
-74.8124
 30
0.0
 10
-14.0343
 20
-74.8124
 30
0.0
 10
-15.8237
 20
-77.7549
 30
0.0
 10
-18.5517
 20
-79.4879
 30
0.0
 10
-18.5517
 20
-79.4879
 30
0.0
 10
-18.5517
 20
-79.4879
 30
0.0
 10
-18.5504
 20
-79.4879
 30
0.0
 10
-17.9168
 20
-80.1406
 30
0.0
 10
-17.4599
 20
-80.6664
 30
0.0
 10
-17.4599
 20
-80.6664
 30
0.0
 10
-16.9962
 20
-81.1921
 30
0.0
 10
-16.4705
 20
-82.9876
 30
0.0
 10
-18.0195
 20
-81.8272
 30
0.0
 10
-18.0195
 20
-81.8272
 30
0.0
 10
-20.0378
 20
-80.3144
 30
0.0
 10
-22.8288
 20
-81.6935
 30
0.0
 10
-24.4639
 20
-83.1656
 30
0.0
 10
-24.4639
 20
-83.1656
 30
0.0
 10
-27.148
 20
-85.5852
 30
0.0
 10
-27.2962
 20
-90.7497
 30
0.0
 10
-25.5039
 20
-93.6928
 30
0.0
 10
-25.5039
 20
-93.6928
 30
0.0
 10
-24.5844
 20
-95.215
 30
0.0
 10
-23.1828
 20
-96.5382
 30
0.0
 10
-21.5533
 20
-97.3605
 30
0.0
 10
-21.5533
 20
-97.3605
 30
0.0
 10
-19.9565
 20
-98.1635
 30
0.0
 10
-18.4543
 20
-97.6984
 30
0.0
 10
-17.991
 20
-96.9084
 30
0.0
 10
-17.991
 20
-96.9084
 30
0.0
 10
-17.3778
 20
-95.8645
 30
0.0
 10
-16.4931
 20
-96.1043
 30
0.0
 10
-16.7052
 20
-97.5163
 30
0.0
 10
-16.7052
 20
-97.5163
 30
0.0
 10
-16.915
 20
-98.9286
 30
0.0
 10
-17.9455
 20
-99.8145
 30
0.0
 10
-17.9455
 20
-99.8145
 30
0.0
 10
-17.9455
 20
-99.8145
 30
0.0
 10
-15.2814
 20
-101.9156
 30
0.0
 10
-13.2418
 20
-104.7141
 30
0.0
 10
-12.7662
 20
-107.7531
 30
0.0
 10
-12.7662
 20
-107.7531
 30
0.0
 10
-12.7662
 20
-107.7531
 30
0.0
 10
-12.765
 20
-107.7523
 30
0.0
 10
-12.765
 20
-107.7523
 30
0.0
  0
SPLINE
  5
71
330
1F
100
AcDbEntity
  8
layer 1
 62
     7
100
AcDbSpline
210
0.0
220
0.0
230
1.0
 70
    11
 71
     3
 72
    68
 73
    64
 74
     0
 42
0.0000000001
 43
0.0000000001
 12
1.0
 22
0.0
 32
0.0
 13
1.0
 23
0.0
 33
0.0
 40
0.0
 40
0.0
 40
0.0
 40
0.0
 40
0.0588235294117647
 40
0.0588235294117647
 40
0.0588235294117647
 40
0.0588235294117647
 40
0.1176470588235294
 40
0.1176470588235294
 40
0.1176470588235294
 40
0.1176470588235294
 40
0.1764705882352941
 40
0.1764705882352941
 40
0.1764705882352941
 40
0.1764705882352941
 40
0.2352941176470588
 40
0.2352941176470588
 40
0.2352941176470588
 40
0.2352941176470588
 40
0.2941176470588235
 40
0.2941176470588235
 40
0.2941176470588235
 40
0.2941176470588235
 40
0.3529411764705883
 40
0.3529411764705883
 40
0.3529411764705883
 40
0.3529411764705883
 40
0.4117647058823529
 40
0.4117647058823529
 40
0.4117647058823529
 40
0.4117647058823529
 40
0.4705882352941176
 40
0.4705882352941176
 40
0.4705882352941176
 40
0.4705882352941176
 40
0.5294117647058824
 40
0.5294117647058824
 40
0.5294117647058824
 40
0.5294117647058824
 40
0.5882352941176471
 40
0.5882352941176471
 40
0.5882352941176471
 40
0.5882352941176471
 40
0.6470588235294118
 40
0.6470588235294118
 40
0.6470588235294118
 40
0.6470588235294118
 40
0.7058823529411765
 40
0.7058823529411765
 40
0.7058823529411765
 40
0.7058823529411765
 40
0.7647058823529411
 40
0.7647058823529411
 40
0.7647058823529411
 40
0.7647058823529411
 40
0.8235294117647058
 40
0.8235294117647058
 40
0.8235294117647058
 40
0.8235294117647058
 40
0.8823529411764706
 40
0.8823529411764706
 40
0.8823529411764706
 40
0.8823529411764706
 40
1.0
 40
1.0
 40
1.0
 40
1.0
 10
-49.1084
 20
-107.7523
 30
0.0
 10
-49.1341
 20
-107.6163
 30
0.0
 10
-49.1619
 20
-107.479
 30
0.0
 10
-49.1925
 20
-107.3406
 30
0.0
 10
-49.1925
 20
-107.3406
 30
0.0
 10
-49.8135
 20
-104.5458
 30
0.0
 10
-51.4169
 20
-102.9717
 30
0.0
 10
-52.4916
 20
-102.2006
 30
0.0
 10
-52.4916
 20
-102.2006
 30
0.0
 10
-53.8457
 20
-101.2286
 30
0.0
 10
-53.326
 20
-101.6464
 30
0.0
 10
-54.1382
 20
-102.6861
 30
0.0
 10
-54.1382
 20
-102.6861
 30
0.0
 10
-54.4071
 20
-103.0259
 30
0.0
 10
-54.773
 20
-103.3798
 30
0.0
 10
-55.2645
 20
-103.6395
 30
0.0
 10
-55.2645
 20
-103.6395
 30
0.0
 10
-56.2764
 20
-104.1749
 30
0.0
 10
-57.8948
 20
-104.158
 30
0.0
 10
-56.8773
 20
-102.9172
 30
0.0
 10
-56.8773
 20
-102.9172
 30
0.0
 10
-56.675
 20
-102.6734
 30
0.0
 10
-56.4255
 20
-102.3244
 30
0.0
 10
-56.1457
 20
-101.8274
 30
0.0
 10
-56.1457
 20
-101.8274
 30
0.0
 10
-55.3546
 20
-100.4442
 30
0.0
 10
-57.9177
 20
-98.2247
 30
0.0
 10
-57.9177
 20
-98.2247
 30
0.0
 10
-57.9177
 20
-98.2247
 30
0.0
 10
-59.9226
 20
-96.2984
 30
0.0
 10
-60.9956
 20
-94.898
 30
0.0
 10
-61.567
 20
-93.9616
 30
0.0
 10
-61.567
 20
-93.9616
 30
0.0
 10
-62.1324
 20
-93.0297
 30
0.0
 10
-62.2861
 20
-92.533
 30
0.0
 10
-63.0295
 20
-93.8482
 30
0.0
 10
-63.0295
 20
-93.8482
 30
0.0
 10
-63.0801
 20
-93.9374
 30
0.0
 10
-63.1391
 20
-94.0284
 30
0.0
 10
-63.2015
 20
-94.1252
 30
0.0
 10
-63.2015
 20
-94.1252
 30
0.0
 10
-63.8
 20
-95.0596
 30
0.0
 10
-64.8595
 20
-96.4112
 30
0.0
 10
-66.723
 20
-98.2247
 30
0.0
 10
-66.723
 20
-98.2247
 30
0.0
 10
-66.7216
 20
-98.2245
 30
0.0
 10
-69.2826
 20
-100.4442
 30
0.0
 10
-68.4953
 20
-101.8274
 30
0.0
 10
-68.4953
 20
-101.8274
 30
0.0
 10
-68.2115
 20
-102.324
 30
0.0
 10
-67.965
 20
-102.6738
 30
0.0
 10
-67.7644
 20
-102.9172
 30
0.0
 10
-67.7644
 20
-102.9172
 30
0.0
 10
-66.8332
 20
-104.0452
 30
0.0
 10
-68.093
 20
-104.1624
 30
0.0
 10
-69.0881
 20
-103.7708
 30
0.0
 10
-69.0881
 20
-103.7708
 30
0.0
 10
-69.0881
 20
-103.7708
 30
0.0
 10
-69.0881
 20
-107.7523
 30
0.0
 10
-69.0881
 20
-107.7523
 30
0.0
 10
-69.0881
 20
-107.7523
 30
0.0
 10
-69.0881
 20
-107.7523
 30
0.0
 10
-49.1084
 20
-107.7523
 30
0.0
 10
-49.1084
 20
-107.7523
 30
0.0
  0
SPLINE
  5
72
330
1F
100
AcDbEntity
  8
layer 1
 62
     7
100
AcDbSpline
210
0.0
220
0.0
230
1.0
 70
    11
 71
     3
 72
    80
 73
    76
 74
     0
 42
0.0000000001
 43
0.0000000001
 12
1.0
 22
0.0
 32
0.0
 13
1.0
 23
0.0
 33
0.0
 40
0.0
 40
0.0
 40
0.0
 40
0.0
 40
0.05
 40
0.05
 40
0.05
 40
0.05
 40
0.1
 40
0.1
 40
0.1
 40
0.1
 40
0.15
 40
0.15
 40
0.15
 40
0.15
 40
0.2
 40
0.2
 40
0.2
 40
0.2
 40
0.25
 40
0.25
 40
0.25
 40
0.25
 40
0.3
 40
0.3
 40
0.3
 40
0.3
 40
0.35
 40
0.35
 40
0.35
 40
0.35
 40
0.4
 40
0.4
 40
0.4
 40
0.4
 40
0.45
 40
0.45
 40
0.45
 40
0.45
 40
0.5
 40
0.5
 40
0.5
 40
0.5
 40
0.55
 40
0.55
 40
0.55
 40
0.55
 40
0.6
 40
0.6
 40
0.6
 40
0.6
 40
0.65
 40
0.65
 40
0.65
 40
0.65
 40
0.7
 40
0.7
 40
0.7
 40
0.7
 40
0.75
 40
0.75
 40
0.75
 40
0.75
 40
0.8
 40
0.8
 40
0.8
 40
0.8
 40
0.85
 40
0.85
 40
0.85
 40
0.85
 40
0.9
 40
0.9
 40
0.9
 40
0.9
 40
1.0
 40
1.0
 40
1.0
 40
1.0
 10
-15.3694
 20
-107.7523
 30
0.0
 10
-15.393
 20
-107.6163
 30
0.0
 10
-15.422
 20
-107.479
 30
0.0
 10
-15.4523
 20
-107.3406
 30
0.0
 10
-15.4523
 20
-107.3406
 30
0.0
 10
-16.0745
 20
-104.5458
 30
0.0
 10
-17.6767
 20
-102.9717
 30
0.0
 10
-18.7521
 20
-102.2006
 30
0.0
 10
-18.7521
 20
-102.2006
 30
0.0
 10
-20.1063
 20
-101.2286
 30
0.0
 10
-19.5863
 20
-101.6464
 30
0.0
 10
-20.3983
 20
-102.6861
 30
0.0
 10
-20.3983
 20
-102.6861
 30
0.0
 10
-20.666
 20
-103.0259
 30
0.0
 10
-21.0332
 20
-103.3798
 30
0.0
 10
-21.5248
 20
-103.6395
 30
0.0
 10
-21.5248
 20
-103.6395
 30
0.0
 10
-22.5352
 20
-104.1749
 30
0.0
 10
-24.155
 20
-104.158
 30
0.0
 10
-23.1371
 20
-102.9172
 30
0.0
 10
-23.1371
 20
-102.9172
 30
0.0
 10
-22.936
 20
-102.6734
 30
0.0
 10
-22.6852
 20
-102.3244
 30
0.0
 10
-22.4055
 20
-101.8274
 30
0.0
 10
-22.4055
 20
-101.8274
 30
0.0
 10
-21.6154
 20
-100.4442
 30
0.0
 10
-24.178
 20
-98.2247
 30
0.0
 10
-24.178
 20
-98.2247
 30
0.0
 10
-24.178
 20
-98.2247
 30
0.0
 10
-26.1834
 20
-96.2984
 30
0.0
 10
-27.2556
 20
-94.898
 30
0.0
 10
-27.8271
 20
-93.9616
 30
0.0
 10
-27.8271
 20
-93.9616
 30
0.0
 10
-28.3934
 20
-93.0297
 30
0.0
 10
-28.5465
 20
-92.533
 30
0.0
 10
-29.2895
 20
-93.8482
 30
0.0
 10
-29.2895
 20
-93.8482
 30
0.0
 10
-29.3386
 20
-93.9374
 30
0.0
 10
-29.3994
 20
-94.0284
 30
0.0
 10
-29.4615
 20
-94.1252
 30
0.0
 10
-29.4615
 20
-94.1252
 30
0.0
 10
-30.061
 20
-95.0596
 30
0.0
 10
-31.119
 20
-96.4112
 30
0.0
 10
-32.9833
 20
-98.2247
 30
0.0
 10
-32.9833
 20
-98.2247
 30
0.0
 10
-32.9826
 20
-98.2245
 30
0.0
 10
-35.5424
 20
-100.4442
 30
0.0
 10
-34.755
 20
-101.8274
 30
0.0
 10
-34.755
 20
-101.8274
 30
0.0
 10
-34.4703
 20
-102.324
 30
0.0
 10
-34.2249
 20
-102.6738
 30
0.0
 10
-34.0245
 20
-102.9172
 30
0.0
 10
-34.0245
 20
-102.9172
 30
0.0
 10
-33.0019
 20
-104.1577
 30
0.0
 10
-34.6243
 20
-104.1755
 30
0.0
 10
-35.6348
 20
-103.6395
 30
0.0
 10
-35.6348
 20
-103.6395
 30
0.0
 10
-36.123
 20
-103.3798
 30
0.0
 10
-36.4917
 20
-103.0263
 30
0.0
 10
-36.7588
 20
-102.6861
 30
0.0
 10
-36.7588
 20
-102.6861
 30
0.0
 10
-37.574
 20
-101.6456
 30
0.0
 10
-37.0553
 20
-101.2288
 30
0.0
 10
-38.4074
 20
-102.2006
 30
0.0
 10
-38.4074
 20
-102.2006
 30
0.0
 10
-39.4798
 20
-102.9714
 30
0.0
 10
-41.0842
 20
-104.5463
 30
0.0
 10
-41.7058
 20
-107.3406
 30
0.0
 10
-41.7058
 20
-107.3406
 30
0.0
 10
-41.7347
 20
-107.478
 30
0.0
 10
-41.7639
 20
-107.6165
 30
0.0
 10
-41.7882
 20
-107.7531
 30
0.0
 10
-41.7882
 20
-107.7531
 30
0.0
 10
-41.7882
 20
-107.7531
 30
0.0
 10
-15.3694
 20
-107.7523
 30
0.0
 10
-15.3694
 20
-107.7523
 30
0.0
  0
SPLINE
  5
73
330
1F
100
AcDbEntity
  8
layer 1
 62
     7
100
AcDbSpline
210
0.0
220
0.0
230
1.0
 70
    11
 71
     3
 72
    80
 73
    76
 74
     0
 42
0.0000000001
 43
0.0000000001
 12
1.0
 22
0.0
 32
0.0
 13
1.0
 23
0.0
 33
0.0
 40
0.0
 40
0.0
 40
0.0
 40
0.0
 40
0.05
 40
0.05
 40
0.05
 40
0.05
 40
0.1
 40
0.1
 40
0.1
 40
0.1
 40
0.15
 40
0.15
 40
0.15
 40
0.15
 40
0.2
 40
0.2
 40
0.2
 40
0.2
 40
0.25
 40
0.25
 40
0.25
 40
0.25
 40
0.3
 40
0.3
 40
0.3
 40
0.3
 40
0.35
 40
0.35
 40
0.35
 40
0.35
 40
0.4
 40
0.4
 40
0.4
 40
0.4
 40
0.45
 40
0.45
 40
0.45
 40
0.45
 40
0.5
 40
0.5
 40
0.5
 40
0.5
 40
0.55
 40
0.55
 40
0.55
 40
0.55
 40
0.6
 40
0.6
 40
0.6
 40
0.6
 40
0.65
 40
0.65
 40
0.65
 40
0.65
 40
0.7
 40
0.7
 40
0.7
 40
0.7
 40
0.75
 40
0.75
 40
0.75
 40
0.75
 40
0.8
 40
0.8
 40
0.8
 40
0.8
 40
0.85
 40
0.85
 40
0.85
 40
0.85
 40
0.9
 40
0.9
 40
0.9
 40
0.9
 40
1.0
 40
1.0
 40
1.0
 40
1.0
 10
18.507
 20
-107.7523
 30
0.0
 10
18.4833
 20
-107.6163
 30
0.0
 10
18.4543
 20
-107.479
 30
0.0
 10
18.4233
 20
-107.3406
 30
0.0
 10
18.4233
 20
-107.3406
 30
0.0
 10
17.8017
 20
-104.5458
 30
0.0
 10
16.1989
 20
-102.9717
 30
0.0
 10
15.1244
 20
-102.2006
 30
0.0
 10
15.1244
 20
-102.2006
 30
0.0
 10
13.7698
 20
-101.2286
 30
0.0
 10
14.2899
 20
-101.6464
 30
0.0
 10
13.4778
 20
-102.6861
 30
0.0
 10
13.4778
 20
-102.6861
 30
0.0
 10
13.2103
 20
-103.0259
 30
0.0
 10
12.8428
 20
-103.3798
 30
0.0
 10
12.3512
 20
-103.6395
 30
0.0
 10
12.3512
 20
-103.6395
 30
0.0
 10
11.3409
 20
-104.1749
 30
0.0
 10
9.7215
 20
-104.158
 30
0.0
 10
10.739
 20
-102.9172
 30
0.0
 10
10.739
 20
-102.9172
 30
0.0
 10
10.9401
 20
-102.6734
 30
0.0
 10
11.1906
 20
-102.3244
 30
0.0
 10
11.4706
 20
-101.8274
 30
0.0
 10
11.4706
 20
-101.8274
 30
0.0
 10
12.2607
 20
-100.4442
 30
0.0
 10
9.6983
 20
-98.2247
 30
0.0
 10
9.6983
 20
-98.2247
 30
0.0
 10
9.6983
 20
-98.2247
 30
0.0
 10
7.6929
 20
-96.2984
 30
0.0
 10
6.6205
 20
-94.898
 30
0.0
 10
6.049
 20
-93.9616
 30
0.0
 10
6.049
 20
-93.9616
 30
0.0
 10
5.4827
 20
-93.0297
 30
0.0
 10
5.3299
 20
-92.533
 30
0.0
 10
4.5865
 20
-93.8482
 30
0.0
 10
4.5865
 20
-93.8482
 30
0.0
 10
4.5376
 20
-93.9374
 30
0.0
 10
4.4769
 20
-94.0284
 30
0.0
 10
4.4147
 20
-94.1252
 30
0.0
 10
4.4147
 20
-94.1252
 30
0.0
 10
3.8152
 20
-95.0596
 30
0.0
 10
2.7568
 20
-96.4112
 30
0.0
 10
0.893
 20
-98.2247
 30
0.0
 10
0.893
 20
-98.2247
 30
0.0
 10
0.8935
 20
-98.2245
 30
0.0
 10
-1.666
 20
-100.4442
 30
0.0
 10
-0.8788
 20
-101.8274
 30
0.0
 10
-0.8788
 20
-101.8274
 30
0.0
 10
-0.5942
 20
-102.324
 30
0.0
 10
-0.3487
 20
-102.6738
 30
0.0
 10
-0.1481
 20
-102.9172
 30
0.0
 10
-0.1481
 20
-102.9172
 30
0.0
 10
0.8744
 20
-104.1577
 30
0.0
 10
-0.7483
 20
-104.1755
 30
0.0
 10
-1.7592
 20
-103.6395
 30
0.0
 10
-1.7592
 20
-103.6395
 30
0.0
 10
-2.2487
 20
-103.3798
 30
0.0
 10
-2.6157
 20
-103.0263
 30
0.0
 10
-2.8826
 20
-102.6861
 30
0.0
 10
-2.8826
 20
-102.6861
 30
0.0
 10
-3.6979
 20
-101.6456
 30
0.0
 10
-3.1797
 20
-101.2288
 30
0.0
 10
-4.5321
 20
-102.2006
 30
0.0
 10
-4.5321
 20
-102.2006
 30
0.0
 10
-5.6033
 20
-102.9714
 30
0.0
 10
-7.2082
 20
-104.5463
 30
0.0
 10
-7.8294
 20
-107.3406
 30
0.0
 10
-7.8294
 20
-107.3406
 30
0.0
 10
-7.8585
 20
-107.478
 30
0.0
 10
-7.8879
 20
-107.6165
 30
0.0
 10
-7.9118
 20
-107.7531
 30
0.0
 10
-7.9118
 20
-107.7531
 30
0.0
 10
-7.9118
 20
-107.7531
 30
0.0
 10
18.507
 20
-107.7523
 30
0.0
 10
18.507
 20
-107.7523
 30
0.0
  0
SPLINE
  5
74
330
1F
100
AcDbEntity
  8
layer 1
 62
     7
100
AcDbSpline
210
0.0
220
0.0
230
1.0
 70
    11
 71
     3
 72
    72
 73
    68
 74
     0
 42
0.0000000001
 43
0.0000000001
 12
1.0
 22
0.0
 32
0.0
 13
1.0
 23
0.0
 33
0.0
 40
0.0
 40
0.0
 40
0.0
 40
0.0
 40
0.0555555555555556
 40
0.0555555555555556
 40
0.0555555555555556
 40
0.0555555555555556
 40
0.1111111111111111
 40
0.1111111111111111
 40
0.1111111111111111
 40
0.1111111111111111
 40
0.1666666666666667
 40
0.1666666666666667
 40
0.1666666666666667
 40
0.1666666666666667
 40
0.2222222222222222
 40
0.2222222222222222
 40
0.2222222222222222
 40
0.2222222222222222
 40
0.2777777777777778
 40
0.2777777777777778
 40
0.2777777777777778
 40
0.2777777777777778
 40
0.3333333333333333
 40
0.3333333333333333
 40
0.3333333333333333
 40
0.3333333333333333
 40
0.3888888888888889
 40
0.3888888888888889
 40
0.3888888888888889
 40
0.3888888888888889
 40
0.4444444444444444
 40
0.4444444444444444
 40
0.4444444444444444
 40
0.4444444444444444
 40
0.5
 40
0.5
 40
0.5
 40
0.5
 40
0.5555555555555556
 40
0.5555555555555556
 40
0.5555555555555556
 40
0.5555555555555556
 40
0.6111111111111112
 40
0.6111111111111112
 40
0.6111111111111112
 40
0.6111111111111112
 40
0.6666666666666666
 40
0.6666666666666666
 40
0.6666666666666666
 40
0.6666666666666666
 40
0.7222222222222222
 40
0.7222222222222222
 40
0.7222222222222222
 40
0.7222222222222222
 40
0.7777777777777778
 40
0.7777777777777778
 40
0.7777777777777778
 40
0.7777777777777778
 40
0.8333333333333334
 40
0.8333333333333334
 40
0.8333333333333334
 40
0.8333333333333334
 40
0.8888888888888888
 40
0.8888888888888888
 40
0.8888888888888888
 40
0.8888888888888888
 40
1.0
 40
1.0
 40
1.0
 40
1.0
 10
46.8701
 20
-107.7523
 30
0.0
 10
46.8701
 20
-107.7523
 30
0.0
 10
46.8701
 20
-103.0721
 30
0.0
 10
46.8701
 20
-103.0721
 30
0.0
 10
46.8701
 20
-103.0721
 30
0.0
 10
46.6535
 20
-103.2801
 30
0.0
 10
46.3964
 20
-103.478
 30
0.0
 10
46.0913
 20
-103.6395
 30
0.0
 10
46.0913
 20
-103.6395
 30
0.0
 10
45.0802
 20
-104.1749
 30
0.0
 10
43.461
 20
-104.158
 30
0.0
 10
44.4789
 20
-102.9172
 30
0.0
 10
44.4789
 20
-102.9172
 30
0.0
 10
44.6793
 20
-102.6734
 30
0.0
 10
44.9309
 20
-102.3244
 30
0.0
 10
45.2104
 20
-101.8274
 30
0.0
 10
45.2104
 20
-101.8274
 30
0.0
 10
46.0019
 20
-100.4442
 30
0.0
 10
43.4381
 20
-98.2247
 30
0.0
 10
43.4381
 20
-98.2247
 30
0.0
 10
43.4381
 20
-98.2247
 30
0.0
 10
41.4318
 20
-96.2984
 30
0.0
 10
40.3602
 20
-94.898
 30
0.0
 10
39.7891
 20
-93.9616
 30
0.0
 10
39.7891
 20
-93.9616
 30
0.0
 10
39.222
 20
-93.0297
 30
0.0
 10
39.0701
 20
-92.533
 30
0.0
 10
38.3263
 20
-93.8482
 30
0.0
 10
38.3263
 20
-93.8482
 30
0.0
 10
38.2766
 20
-93.9374
 30
0.0
 10
38.2166
 20
-94.0284
 30
0.0
 10
38.1548
 20
-94.1252
 30
0.0
 10
38.1548
 20
-94.1252
 30
0.0
 10
37.5564
 20
-95.0596
 30
0.0
 10
36.497
 20
-96.4112
 30
0.0
 10
34.6328
 20
-98.2247
 30
0.0
 10
34.6328
 20
-98.2247
 30
0.0
 10
34.6347
 20
-98.2245
 30
0.0
 10
32.0739
 20
-100.4442
 30
0.0
 10
32.861
 20
-101.8274
 30
0.0
 10
32.861
 20
-101.8274
 30
0.0
 10
33.1451
 20
-102.324
 30
0.0
 10
33.3912
 20
-102.6738
 30
0.0
 10
33.5918
 20
-102.9172
 30
0.0
 10
33.5918
 20
-102.9172
 30
0.0
 10
34.6134
 20
-104.1577
 30
0.0
 10
32.9917
 20
-104.1755
 30
0.0
 10
31.9811
 20
-103.6395
 30
0.0
 10
31.9811
 20
-103.6395
 30
0.0
 10
31.4923
 20
-103.3798
 30
0.0
 10
31.1243
 20
-103.0263
 30
0.0
 10
30.8575
 20
-102.6861
 30
0.0
 10
30.8575
 20
-102.6861
 30
0.0
 10
30.0412
 20
-101.6456
 30
0.0
 10
30.5605
 20
-101.2288
 30
0.0
 10
29.2086
 20
-102.2006
 30
0.0
 10
29.2086
 20
-102.2006
 30
0.0
 10
28.1357
 20
-102.9714
 30
0.0
 10
26.5318
 20
-104.5463
 30
0.0
 10
25.9108
 20
-107.3406
 30
0.0
 10
25.9108
 20
-107.3406
 30
0.0
 10
25.8808
 20
-107.478
 30
0.0
 10
25.8521
 20
-107.6165
 30
0.0
 10
25.8281
 20
-107.7531
 30
0.0
 10
25.8281
 20
-107.7531
 30
0.0
 10
25.8281
 20
-107.7531
 30
0.0
 10
46.8701
 20
-107.7523
 30
0.0
 10
46.8701
 20
-107.7523
 30
0.0
  0
SPLINE
  5
75
330
1F
100
AcDbEntity
  8
layer 1
 62
     7
100
AcDbSpline
210
0.0
220
0.0
230
1.0
 70
    11
 71
     3
 72
   104
 73
   100
 74
     0
 42
0.0000000001
 43
0.0000000001
 12
1.0
 22
0.0
 32
0.0
 13
1.0
 23
0.0
 33
0.0
 40
0.0
 40
0.0
 40
0.0
 40
0.0
 40
0.0384615384615385
 40
0.0384615384615385
 40
0.0384615384615385
 40
0.0384615384615385
 40
0.0769230769230769
 40
0.0769230769230769
 40
0.0769230769230769
 40
0.0769230769230769
 40
0.1153846153846154
 40
0.1153846153846154
 40
0.1153846153846154
 40
0.1153846153846154
 40
0.1538461538461539
 40
0.1538461538461539
 40
0.1538461538461539
 40
0.1538461538461539
 40
0.1923076923076923
 40
0.1923076923076923
 40
0.1923076923076923
 40
0.1923076923076923
 40
0.2307692307692308
 40
0.2307692307692308
 40
0.2307692307692308
 40
0.2307692307692308
 40
0.2692307692307692
 40
0.2692307692307692
 40
0.2692307692307692
 40
0.2692307692307692
 40
0.3076923076923077
 40
0.3076923076923077
 40
0.3076923076923077
 40
0.3076923076923077
 40
0.3461538461538461
 40
0.3461538461538461
 40
0.3461538461538461
 40
0.3461538461538461
 40
0.3846153846153846
 40
0.3846153846153846
 40
0.3846153846153846
 40
0.3846153846153846
 40
0.4230769230769231
 40
0.4230769230769231
 40
0.4230769230769231
 40
0.4230769230769231
 40
0.4615384615384616
 40
0.4615384615384616
 40
0.4615384615384616
 40
0.4615384615384616
 40
0.5
 40
0.5
 40
0.5
 40
0.5
 40
0.5384615384615384
 40
0.5384615384615384
 40
0.5384615384615384
 40
0.5384615384615384
 40
0.5769230769230769
 40
0.5769230769230769
 40
0.5769230769230769
 40
0.5769230769230769
 40
0.6153846153846154
 40
0.6153846153846154
 40
0.6153846153846154
 40
0.6153846153846154
 40
0.6538461538461539
 40
0.6538461538461539
 40
0.6538461538461539
 40
0.6538461538461539
 40
0.6923076923076923
 40
0.6923076923076923
 40
0.6923076923076923
 40
0.6923076923076923
 40
0.7307692307692307
 40
0.7307692307692307
 40
0.7307692307692307
 40
0.7307692307692307
 40
0.7692307692307693
 40
0.7692307692307693
 40
0.7692307692307693
 40
0.7692307692307693
 40
0.8076923076923077
 40
0.8076923076923077
 40
0.8076923076923077
 40
0.8076923076923077
 40
0.8461538461538461
 40
0.8461538461538461
 40
0.8461538461538461
 40
0.8461538461538461
 40
0.8846153846153846
 40
0.8846153846153846
 40
0.8846153846153846
 40
0.8846153846153846
 40
0.9230769230769231
 40
0.9230769230769231
 40
0.9230769230769231
 40
0.9230769230769231
 40
1.0
 40
1.0
 40
1.0
 40
1.0
 10
21.0941
 20
123.3066
 30
0.0
 10
21.0941
 20
123.3066
 30
0.0
 10
23.2421
 20
123.3066
 30
0.0
 10
23.2421
 20
123.3066
 30
0.0
 10
23.2421
 20
123.3066
 30
0.0
 10
23.4285
 20
122.2262
 30
0.0
 10
23.8308
 20
121.1328
 30
0.0
 10
24.4918
 20
120.0466
 30
0.0
 10
24.4918
 20
120.0466
 30
0.0
 10
26.2815
 20
117.1043
 30
0.0
 10
29.0055
 20
115.3712
 30
0.0
 10
29.0055
 20
115.3712
 30
0.0
 10
29.0055
 20
115.3712
 30
0.0
 10
29.006
 20
115.3713
 30
0.0
 10
28.3714
 20
114.7185
 30
0.0
 10
27.9132
 20
114.1926
 30
0.0
 10
27.9132
 20
114.1926
 30
0.0
 10
27.4562
 20
113.6671
 30
0.0
 10
26.927
 20
111.8714
 30
0.0
 10
28.4773
 20
113.0316
 30
0.0
 10
28.4773
 20
113.0316
 30
0.0
 10
30.4978
 20
114.5449
 30
0.0
 10
33.2847
 20
113.1655
 30
0.0
 10
34.9188
 20
111.6935
 30
0.0
 10
34.9188
 20
111.6935
 30
0.0
 10
37.612
 20
109.2687
 30
0.0
 10
37.7503
 20
104.1129
 30
0.0
 10
35.9615
 20
101.1633
 30
0.0
 10
35.9615
 20
101.1633
 30
0.0
 10
35.0401
 20
99.6409
 30
0.0
 10
33.6382
 20
98.3177
 30
0.0
 10
32.0098
 20
97.4956
 30
0.0
 10
32.0098
 20
97.4956
 30
0.0
 10
30.4184
 20
96.6925
 30
0.0
 10
28.9109
 20
97.1575
 30
0.0
 10
28.4478
 20
97.9477
 30
0.0
 10
28.4478
 20
97.9477
 30
0.0
 10
27.8377
 20
98.9914
 30
0.0
 10
26.9494
 20
98.7515
 30
0.0
 10
27.1605
 20
97.3395
 30
0.0
 10
27.1605
 20
97.3395
 30
0.0
 10
27.3725
 20
95.9284
 30
0.0
 10
28.402
 20
95.0411
 30
0.0
 10
28.402
 20
95.0411
 30
0.0
 10
28.402
 20
95.0411
 30
0.0
 10
25.7392
 20
92.9414
 30
0.0
 10
23.6991
 20
90.142
 30
0.0
 10
23.2238
 20
87.103
 30
0.0
 10
23.2238
 20
87.103
 30
0.0
 10
23.2238
 20
87.103
 30
0.0
 10
21.1113
 20
87.1035
 30
0.0
 10
21.1113
 20
87.1035
 30
0.0
 10
21.1113
 20
87.1035
 30
0.0
 10
20.6355
 20
90.142
 30
0.0
 10
18.5937
 20
92.9405
 30
0.0
 10
15.9301
 20
95.0411
 30
0.0
 10
15.9301
 20
95.0411
 30
0.0
 10
15.9305
 20
95.0422
 30
0.0
 10
16.9596
 20
95.9275
 30
0.0
 10
17.1708
 20
97.3395
 30
0.0
 10
17.1708
 20
97.3395
 30
0.0
 10
17.3837
 20
98.7526
 30
0.0
 10
16.497
 20
98.9907
 30
0.0
 10
15.8843
 20
97.9477
 30
0.0
 10
15.8843
 20
97.9477
 30
0.0
 10
15.4225
 20
97.1577
 30
0.0
 10
13.9178
 20
96.6916
 30
0.0
 10
12.3228
 20
97.4956
 30
0.0
 10
12.3228
 20
97.4956
 30
0.0
 10
10.6937
 20
98.3184
 30
0.0
 10
9.2919
 20
99.6407
 30
0.0
 10
8.3718
 20
101.1633
 30
0.0
 10
8.3718
 20
101.1633
 30
0.0
 10
6.5803
 20
104.107
 30
0.0
 10
6.728
 20
109.2738
 30
0.0
 10
9.412
 20
111.6935
 30
0.0
 10
9.412
 20
111.6935
 30
0.0
 10
11.0474
 20
113.1655
 30
0.0
 10
13.8381
 20
114.5441
 30
0.0
 10
15.8561
 20
113.0316
 30
0.0
 10
15.8561
 20
113.0316
 30
0.0
 10
17.4074
 20
111.8719
 30
0.0
 10
16.8799
 20
113.6667
 30
0.0
 10
16.4163
 20
114.1926
 30
0.0
 10
16.4163
 20
114.1926
 30
0.0
 10
15.9604
 20
114.7185
 30
0.0
 10
15.3239
 20
115.3712
 30
0.0
 10
15.3239
 20
115.3712
 30
0.0
 10
15.3239
 20
115.3712
 30
0.0
 10
15.3258
 20
115.3713
 30
0.0
 10
18.0515
 20
117.1037
 30
0.0
 10
19.8416
 20
120.0466
 30
0.0
 10
19.8416
 20
120.0466
 30
0.0
 10
20.5046
 20
121.1331
 30
0.0
 10
20.9069
 20
122.2257
 30
0.0
 10
21.0927
 20
123.3066
 30
0.0
 10
21.0927
 20
123.3066
 30
0.0
 10
21.0927
 20
123.3066
 30
0.0
 10
21.0941
 20
123.3066
 30
0.0
 10
21.0941
 20
123.3066
 30
0.0
  0
SPLINE
  5
76
330
1F
100
AcDbEntity
  8
layer 1
 62
     7
100
AcDbSpline
210
0.0
220
0.0
230
1.0
 70
    11
 71
     3
 72
   120
 73
   116
 74
     0
 42
0.0000000001
 43
0.0000000001
 12
1.0
 22
0.0
 32
0.0
 13
1.0
 23
0.0
 33
0.0
 40
0.0
 40
0.0
 40
0.0
 40
0.0
 40
0.0333333333333333
 40
0.0333333333333333
 40
0.0333333333333333
 40
0.0333333333333333
 40
0.0666666666666667
 40
0.0666666666666667
 40
0.0666666666666667
 40
0.0666666666666667
 40
0.1
 40
0.1
 40
0.1
 40
0.1
 40
0.1333333333333333
 40
0.1333333333333333
 40
0.1333333333333333
 40
0.1333333333333333
 40
0.1666666666666667
 40
0.1666666666666667
 40
0.1666666666666667
 40
0.1666666666666667
 40
0.2
 40
0.2
 40
0.2
 40
0.2
 40
0.2333333333333333
 40
0.2333333333333333
 40
0.2333333333333333
 40
0.2333333333333333
 40
0.2666666666666667
 40
0.2666666666666667
 40
0.2666666666666667
 40
0.2666666666666667
 40
0.3
 40
0.3
 40
0.3
 40
0.3
 40
0.3333333333333333
 40
0.3333333333333333
 40
0.3333333333333333
 40
0.3333333333333333
 40
0.3666666666666666
 40
0.3666666666666666
 40
0.3666666666666666
 40
0.3666666666666666
 40
0.4
 40
0.4
 40
0.4
 40
0.4
 40
0.4333333333333333
 40
0.4333333333333333
 40
0.4333333333333333
 40
0.4333333333333333
 40
0.4666666666666667
 40
0.4666666666666667
 40
0.4666666666666667
 40
0.4666666666666667
 40
0.5
 40
0.5
 40
0.5
 40
0.5
 40
0.5333333333333333
 40
0.5333333333333333
 40
0.5333333333333333
 40
0.5333333333333333
 40
0.5666666666666667
 40
0.5666666666666667
 40
0.5666666666666667
 40
0.5666666666666667
 40
0.6
 40
0.6
 40
0.6
 40
0.6
 40
0.6333333333333333
 40
0.6333333333333333
 40
0.6333333333333333
 40
0.6333333333333333
 40
0.6666666666666666
 40
0.6666666666666666
 40
0.6666666666666666
 40
0.6666666666666666
 40
0.7
 40
0.7
 40
0.7
 40
0.7
 40
0.7333333333333333
 40
0.7333333333333333
 40
0.7333333333333333
 40
0.7333333333333333
 40
0.7666666666666667
 40
0.7666666666666667
 40
0.7666666666666667
 40
0.7666666666666667
 40
0.8
 40
0.8
 40
0.8
 40
0.8
 40
0.8333333333333334
 40
0.8333333333333334
 40
0.8333333333333334
 40
0.8333333333333334
 40
0.8666666666666667
 40
0.8666666666666667
 40
0.8666666666666667
 40
0.8666666666666667
 40
0.9
 40
0.9
 40
0.9
 40
0.9
 40
0.9333333333333333
 40
0.9333333333333333
 40
0.9333333333333333
 40
0.9333333333333333
 40
1.0
 40
1.0
 40
1.0
 40
1.0
 10
-12.7821
 20
123.3066
 30
0.0
 10
-12.7821
 20
123.3066
 30
0.0
 10
-10.4971
 20
123.3066
 30
0.0
 10
-10.4971
 20
123.3066
 30
0.0
 10
-10.4971
 20
123.3066
 30
0.0
 10
-10.3106
 20
122.2262
 30
0.0
 10
-9.9087
 20
121.1328
 30
0.0
 10
-9.2477
 20
120.0466
 30
0.0
 10
-9.2477
 20
120.0466
 30
0.0
 10
-7.4574
 20
117.1043
 30
0.0
 10
-4.7348
 20
115.3712
 30
0.0
 10
-4.7348
 20
115.3712
 30
0.0
 10
-4.7348
 20
115.3712
 30
0.0
 10
-4.7333
 20
115.3713
 30
0.0
 10
-5.3687
 20
114.7185
 30
0.0
 10
-5.8265
 20
114.1926
 30
0.0
 10
-5.8265
 20
114.1926
 30
0.0
 10
-6.283
 20
113.6671
 30
0.0
 10
-6.8129
 20
111.8714
 30
0.0
 10
-5.2628
 20
113.0316
 30
0.0
 10
-5.2628
 20
113.0316
 30
0.0
 10
-3.2433
 20
114.5449
 30
0.0
 10
-0.4554
 20
113.1655
 30
0.0
 10
1.1793
 20
111.6935
 30
0.0
 10
1.1793
 20
111.6935
 30
0.0
 10
3.873
 20
109.2687
 30
0.0
 10
4.0107
 20
104.1132
 30
0.0
 10
2.2214
 20
101.1633
 30
0.0
 10
2.2214
 20
101.1633
 30
0.0
 10
1.2986
 20
99.6409
 30
0.0
 10
-0.1016
 20
98.3177
 30
0.0
 10
-1.7302
 20
97.4956
 30
0.0
 10
-1.7302
 20
97.4956
 30
0.0
 10
-3.3228
 20
96.6925
 30
0.0
 10
-4.8289
 20
97.1575
 30
0.0
 10
-5.2925
 20
97.9477
 30
0.0
 10
-5.2925
 20
97.9477
 30
0.0
 10
-5.9036
 20
98.9914
 30
0.0
 10
-6.7905
 20
98.7515
 30
0.0
 10
-6.5795
 20
97.3395
 30
0.0
 10
-6.5795
 20
97.3395
 30
0.0
 10
-6.3687
 20
95.9284
 30
0.0
 10
-5.3376
 20
95.0411
 30
0.0
 10
-5.3376
 20
95.0411
 30
0.0
 10
-5.3376
 20
95.0411
 30
0.0
 10
-8.0022
 20
92.9393
 30
0.0
 10
-10.0446
 20
90.1366
 30
0.0
 10
-10.5177
 20
87.0943
 30
0.0
 10
-10.5177
 20
87.0943
 30
0.0
 10
-10.5177
 20
87.0943
 30
0.0
 10
-11.599
 20
87.095
 30
0.0
 10
-11.599
 20
87.095
 30
0.0
 10
-11.599
 20
87.095
 30
0.0
 10
-11.599
 20
87.095
 30
0.0
 10
-11.599
 20
87.1089
 30
0.0
 10
-11.599
 20
87.1089
 30
0.0
 10
-11.599
 20
87.1089
 30
0.0
 10
-11.599
 20
87.1089
 30
0.0
 10
-12.72
 20
87.1089
 30
0.0
 10
-12.72
 20
87.1089
 30
0.0
 10
-12.72
 20
87.1089
 30
0.0
 10
-12.72
 20
87.1089
 30
0.0
 10
-12.72
 20
87.095
 30
0.0
 10
-12.72
 20
87.095
 30
0.0
 10
-12.72
 20
87.095
 30
0.0
 10
-12.72
 20
87.095
 30
0.0
 10
-12.765
 20
87.095
 30
0.0
 10
-12.765
 20
87.095
 30
0.0
 10
-12.765
 20
87.095
 30
0.0
 10
-13.2388
 20
90.1366
 30
0.0
 10
-15.2795
 20
92.9384
 30
0.0
 10
-17.9455
 20
95.0411
 30
0.0
 10
-17.9455
 20
95.0411
 30
0.0
 10
-17.9439
 20
95.0422
 30
0.0
 10
-16.9168
 20
95.9275
 30
0.0
 10
-16.7052
 20
97.3395
 30
0.0
 10
-16.7052
 20
97.3395
 30
0.0
 10
-16.4926
 20
98.7526
 30
0.0
 10
-17.3791
 20
98.9907
 30
0.0
 10
-17.991
 20
97.9477
 30
0.0
 10
-17.991
 20
97.9477
 30
0.0
 10
-18.454
 20
97.1577
 30
0.0
 10
-19.9581
 20
96.6916
 30
0.0
 10
-21.5533
 20
97.4956
 30
0.0
 10
-21.5533
 20
97.4956
 30
0.0
 10
-23.1826
 20
98.3184
 30
0.0
 10
-24.5844
 20
99.6407
 30
0.0
 10
-25.5039
 20
101.1633
 30
0.0
 10
-25.5039
 20
101.1633
 30
0.0
 10
-27.296
 20
104.107
 30
0.0
 10
-27.1485
 20
109.2738
 30
0.0
 10
-24.4639
 20
111.6935
 30
0.0
 10
-24.4639
 20
111.6935
 30
0.0
 10
-22.8288
 20
113.1655
 30
0.0
 10
-20.0384
 20
114.5441
 30
0.0
 10
-18.0195
 20
113.0316
 30
0.0
 10
-18.0195
 20
113.0316
 30
0.0
 10
-16.469
 20
111.8719
 30
0.0
 10
-16.9962
 20
113.6667
 30
0.0
 10
-17.4599
 20
114.1926
 30
0.0
 10
-17.4599
 20
114.1926
 30
0.0
 10
-17.9157
 20
114.7185
 30
0.0
 10
-18.5517
 20
115.3712
 30
0.0
 10
-18.5517
 20
115.3712
 30
0.0
 10
-18.5517
 20
115.3712
 30
0.0
 10
-18.5504
 20
115.3713
 30
0.0
 10
-15.8245
 20
117.1037
 30
0.0
 10
-14.0343
 20
120.0466
 30
0.0
 10
-14.0343
 20
120.0466
 30
0.0
 10
-13.3716
 20
121.1331
 30
0.0
 10
-12.9692
 20
122.2257
 30
0.0
 10
-12.7834
 20
123.3066
 30
0.0
 10
-12.7834
 20
123.3066
 30
0.0
 10
-12.7834
 20
123.3066
 30
0.0
 10
-12.7821
 20
123.3066
 30
0.0
 10
-12.7821
 20
123.3066
 30
0.0
  0
SPLINE
  5
77
330
1F
100
AcDbEntity
  8
layer 1
 62
     7
100
AcDbSpline
210
0.0
220
0.0
230
1.0
 70
    11
 71
     3
 72
   100
 73
    96
 74
     0
 42
0.0000000001
 43
0.0000000001
 12
1.0
 22
0.0
 32
0.0
 13
1.0
 23
0.0
 33
0.0
 40
0.0
 40
0.0
 40
0.0
 40
0.0
 40
0.04
 40
0.04
 40
0.04
 40
0.04
 40
0.08
 40
0.08
 40
0.08
 40
0.08
 40
0.12
 40
0.12
 40
0.12
 40
0.12
 40
0.16
 40
0.16
 40
0.16
 40
0.16
 40
0.2
 40
0.2
 40
0.2
 40
0.2
 40
0.24
 40
0.24
 40
0.24
 40
0.24
 40
0.28
 40
0.28
 40
0.28
 40
0.28
 40
0.32
 40
0.32
 40
0.32
 40
0.32
 40
0.36
 40
0.36
 40
0.36
 40
0.36
 40
0.4
 40
0.4
 40
0.4
 40
0.4
 40
0.44
 40
0.44
 40
0.44
 40
0.44
 40
0.48
 40
0.48
 40
0.48
 40
0.48
 40
0.52
 40
0.52
 40
0.52
 40
0.52
 40
0.56
 40
0.56
 40
0.56
 40
0.56
 40
0.6
 40
0.6
 40
0.6
 40
0.6
 40
0.64
 40
0.64
 40
0.64
 40
0.64
 40
0.68
 40
0.68
 40
0.68
 40
0.68
 40
0.72
 40
0.72
 40
0.72
 40
0.72
 40
0.76
 40
0.76
 40
0.76
 40
0.76
 40
0.8
 40
0.8
 40
0.8
 40
0.8
 40
0.84
 40
0.84
 40
0.84
 40
0.84
 40
0.88
 40
0.88
 40
0.88
 40
0.88
 40
0.92
 40
0.92
 40
0.92
 40
0.92
 40
1.0
 40
1.0
 40
1.0
 40
1.0
 10
-46.5233
 20
123.3066
 30
0.0
 10
-46.5233
 20
123.3066
 30
0.0
 10
-44.3734
 20
123.3066
 30
0.0
 10
-44.3734
 20
123.3066
 30
0.0
 10
-44.3734
 20
123.3066
 30
0.0
 10
-44.189
 20
122.2262
 30
0.0
 10
-43.7849
 20
121.1328
 30
0.0
 10
-43.1245
 20
120.0466
 30
0.0
 10
-43.1245
 20
120.0466
 30
0.0
 10
-41.334
 20
117.1043
 30
0.0
 10
-38.6111
 20
115.3712
 30
0.0
 10
-38.6111
 20
115.3712
 30
0.0
 10
-38.6111
 20
115.3712
 30
0.0
 10
-38.6094
 20
115.3713
 30
0.0
 10
-39.2448
 20
114.7185
 30
0.0
 10
-39.7026
 20
114.1926
 30
0.0
 10
-39.7026
 20
114.1926
 30
0.0
 10
-40.1593
 20
113.6671
 30
0.0
 10
-40.6885
 20
111.8714
 30
0.0
 10
-39.1393
 20
113.0316
 30
0.0
 10
-39.1393
 20
113.0316
 30
0.0
 10
-37.1196
 20
114.5449
 30
0.0
 10
-34.3316
 20
113.1655
 30
0.0
 10
-32.6972
 20
111.6935
 30
0.0
 10
-32.6972
 20
111.6935
 30
0.0
 10
-30.0031
 20
109.2687
 30
0.0
 10
-29.8652
 20
104.1129
 30
0.0
 10
-31.6543
 20
101.1633
 30
0.0
 10
-31.6543
 20
101.1633
 30
0.0
 10
-32.5776
 20
99.6409
 30
0.0
 10
-33.9775
 20
98.3177
 30
0.0
 10
-35.6065
 20
97.4956
 30
0.0
 10
-35.6065
 20
97.4956
 30
0.0
 10
-37.1989
 20
96.6925
 30
0.0
 10
-38.7047
 20
97.1575
 30
0.0
 10
-39.1687
 20
97.9477
 30
0.0
 10
-39.1687
 20
97.9477
 30
0.0
 10
-39.7799
 20
98.9914
 30
0.0
 10
-40.6664
 20
98.7515
 30
0.0
 10
-40.4555
 20
97.3395
 30
0.0
 10
-40.4555
 20
97.3395
 30
0.0
 10
-40.2427
 20
95.9284
 30
0.0
 10
-39.2138
 20
95.0411
 30
0.0
 10
-39.2138
 20
95.0411
 30
0.0
 10
-39.2138
 20
95.0411
 30
0.0
 10
-41.8762
 20
92.9414
 30
0.0
 10
-43.917
 20
90.142
 30
0.0
 10
-44.3925
 20
87.103
 30
0.0
 10
-44.3925
 20
87.103
 30
0.0
 10
-44.3925
 20
87.103
 30
0.0
 10
-46.5063
 20
87.1035
 30
0.0
 10
-46.5063
 20
87.1035
 30
0.0
 10
-46.5063
 20
87.1035
 30
0.0
 10
-46.9798
 20
90.142
 30
0.0
 10
-49.0218
 20
92.9405
 30
0.0
 10
-51.6855
 20
95.0411
 30
0.0
 10
-51.6855
 20
95.0411
 30
0.0
 10
-51.685
 20
95.0422
 30
0.0
 10
-50.6566
 20
95.9275
 30
0.0
 10
-50.4452
 20
97.3395
 30
0.0
 10
-50.4452
 20
97.3395
 30
0.0
 10
-50.2316
 20
98.7526
 30
0.0
 10
-51.1189
 20
98.9907
 30
0.0
 10
-51.7315
 20
97.9477
 30
0.0
 10
-51.7315
 20
97.9477
 30
0.0
 10
-52.193
 20
97.1577
 30
0.0
 10
-53.6983
 20
96.6916
 30
0.0
 10
-55.2933
 20
97.4956
 30
0.0
 10
-55.2933
 20
97.4956
 30
0.0
 10
-56.9216
 20
98.3184
 30
0.0
 10
-58.3244
 20
99.6407
 30
0.0
 10
-59.2437
 20
101.1633
 30
0.0
 10
-59.2437
 20
101.1633
 30
0.0
 10
-61.035
 20
104.107
 30
0.0
 10
-60.8883
 20
109.2738
 30
0.0
 10
-58.2038
 20
111.6935
 30
0.0
 10
-58.2038
 20
111.6935
 30
0.0
 10
-56.5678
 20
113.1655
 30
0.0
 10
-53.7779
 20
114.5441
 30
0.0
 10
-51.7598
 20
113.0316
 30
0.0
 10
-51.7598
 20
113.0316
 30
0.0
 10
-50.2102
 20
111.8719
 30
0.0
 10
-50.7361
 20
113.6667
 30
0.0
 10
-51.1997
 20
114.1926
 30
0.0
 10
-51.1997
 20
114.1926
 30
0.0
 10
-51.655
 20
114.7185
 30
0.0
 10
-52.292
 20
115.3712
 30
0.0
 10
-52.292
 20
115.3712
 30
0.0
 10
-52.292
 20
115.3712
 30
0.0
 10
-52.2915
 20
115.3713
 30
0.0
 10
-49.5646
 20
117.1037
 30
0.0
 10
-47.7747
 20
120.0466
 30
0.0
 10
-47.7747
 20
120.0466
 30
0.0
 10
-47.1128
 20
121.1331
 30
0.0
 10
-46.709
 20
122.2257
 30
0.0
 10
-46.5233
 20
123.3066
 30
0.0
  0
SPLINE
  5
78
330
1F
100
AcDbEntity
  8
layer 1
 62
     7
100
AcDbSpline
210
0.0
220
0.0
230
1.0
 70
    11
 71
     3
 72
    60
 73
    56
 74
     0
 42
0.0000000001
 43
0.0000000001
 12
1.0
 22
0.0
 32
0.0
 13
1.0
 23
0.0
 33
0.0
 40
0.0
 40
0.0
 40
0.0
 40
0.0
 40
0.0666666666666667
 40
0.0666666666666667
 40
0.0666666666666667
 40
0.0666666666666667
 40
0.1333333333333333
 40
0.1333333333333333
 40
0.1333333333333333
 40
0.1333333333333333
 40
0.2
 40
0.2
 40
0.2
 40
0.2
 40
0.2666666666666667
 40
0.2666666666666667
 40
0.2666666666666667
 40
0.2666666666666667
 40
0.3333333333333333
 40
0.3333333333333333
 40
0.3333333333333333
 40
0.3333333333333333
 40
0.4
 40
0.4
 40
0.4
 40
0.4
 40
0.4666666666666667
 40
0.4666666666666667
 40
0.4666666666666667
 40
0.4666666666666667
 40
0.5333333333333333
 40
0.5333333333333333
 40
0.5333333333333333
 40
0.5333333333333333
 40
0.6
 40
0.6
 40
0.6
 40
0.6
 40
0.6666666666666666
 40
0.6666666666666666
 40
0.6666666666666666
 40
0.6666666666666666
 40
0.7333333333333333
 40
0.7333333333333333
 40
0.7333333333333333
 40
0.7333333333333333
 40
0.8
 40
0.8
 40
0.8
 40
0.8
 40
0.8666666666666667
 40
0.8666666666666667
 40
0.8666666666666667
 40
0.8666666666666667
 40
1.0
 40
1.0
 40
1.0
 40
1.0
 10
25.7992
 20
123.3066
 30
0.0
 10
26.2343
 20
120.7204
 30
0.0
 10
28.0136
 20
118.6283
 30
0.0
 10
30.7462
 20
117.2621
 30
0.0
 10
30.7462
 20
117.2621
 30
0.0
 10
30.7465
 20
117.2629
 30
0.0
 10
30.8832
 20
119.1583
 30
0.0
 10
32.6626
 20
119.6543
 30
0.0
 10
32.6626
 20
119.6543
 30
0.0
 10
32.6628
 20
119.6551
 30
0.0
 10
34.7095
 20
119.9435
 30
0.0
 10
33.6122
 20
118.8828
 30
0.0
 10
33.6122
 20
118.8828
 30
0.0
 10
32.5169
 20
117.8224
 30
0.0
 10
32.9591
 20
115.7693
 30
0.0
 10
34.3484
 20
114.7633
 30
0.0
 10
34.3484
 20
114.7633
 30
0.0
 10
35.1535
 20
114.1805
 30
0.0
 10
36.689
 20
113.0316
 30
0.0
 10
37.7973
 20
111.2758
 30
0.0
 10
37.7973
 20
111.2758
 30
0.0
 10
37.8586
 20
111.1817
 30
0.0
 10
37.9199
 20
111.0926
 30
0.0
 10
37.9669
 20
110.9998
 30
0.0
 10
37.9669
 20
110.9998
 30
0.0
 10
38.8275
 20
109.3157
 30
0.0
 10
38.8961
 20
109.0293
 30
0.0
 10
40.0441
 20
110.8941
 30
0.0
 10
40.0441
 20
110.8941
 30
0.0
 10
40.1115
 20
111.0017
 30
0.0
 10
40.1756
 20
111.115
 30
0.0
 10
40.2477
 20
111.2309
 30
0.0
 10
40.2477
 20
111.2309
 30
0.0
 10
41.3568
 20
113.0124
 30
0.0
 10
42.9129
 20
114.1753
 30
0.0
 10
43.7241
 20
114.7633
 30
0.0
 10
43.7241
 20
114.7633
 30
0.0
 10
45.1145
 20
115.77
 30
0.0
 10
45.5536
 20
117.822
 30
0.0
 10
44.4621
 20
118.8828
 30
0.0
 10
44.4621
 20
118.8828
 30
0.0
 10
43.3654
 20
119.9444
 30
0.0
 10
45.4107
 20
119.6543
 30
0.0
 10
45.4107
 20
119.6543
 30
0.0
 10
45.4107
 20
119.6543
 30
0.0
 10
46.137
 20
119.4525
 30
0.0
 10
46.5874
 20
119.0179
 30
0.0
 10
46.8687
 20
118.5741
 30
0.0
 10
46.8687
 20
118.5741
 30
0.0
 10
46.8687
 20
118.5741
 30
0.0
 10
46.8701
 20
123.3066
 30
0.0
 10
46.8701
 20
123.3066
 30
0.0
 10
46.8701
 20
123.3066
 30
0.0
 10
46.8701
 20
123.3066
 30
0.0
 10
25.7992
 20
123.3066
 30
0.0
 10
25.7992
 20
123.3066
 30
0.0
  0
SPLINE
  5
79
330
1F
100
AcDbEntity
  8
layer 1
 62
     7
100
AcDbSpline
210
0.0
220
0.0
230
1.0
 70
    11
 71
     3
 72
    60
 73
    56
 74
     0
 42
0.0000000001
 43
0.0000000001
 12
1.0
 22
0.0
 32
0.0
 13
1.0
 23
0.0
 33
0.0
 40
0.0
 40
0.0
 40
0.0
 40
0.0
 40
0.0666666666666667
 40
0.0666666666666667
 40
0.0666666666666667
 40
0.0666666666666667
 40
0.1333333333333333
 40
0.1333333333333333
 40
0.1333333333333333
 40
0.1333333333333333
 40
0.2
 40
0.2
 40
0.2
 40
0.2
 40
0.2666666666666667
 40
0.2666666666666667
 40
0.2666666666666667
 40
0.2666666666666667
 40
0.3333333333333333
 40
0.3333333333333333
 40
0.3333333333333333
 40
0.3333333333333333
 40
0.4
 40
0.4
 40
0.4
 40
0.4
 40
0.4666666666666667
 40
0.4666666666666667
 40
0.4666666666666667
 40
0.4666666666666667
 40
0.5333333333333333
 40
0.5333333333333333
 40
0.5333333333333333
 40
0.5333333333333333
 40
0.6
 40
0.6
 40
0.6
 40
0.6
 40
0.6666666666666666
 40
0.6666666666666666
 40
0.6666666666666666
 40
0.6666666666666666
 40
0.7333333333333333
 40
0.7333333333333333
 40
0.7333333333333333
 40
0.7333333333333333
 40
0.8
 40
0.8
 40
0.8
 40
0.8
 40
0.8666666666666667
 40
0.8666666666666667
 40
0.8666666666666667
 40
0.8666666666666667
 40
1.0
 40
1.0
 40
1.0
 40
1.0
 10
-7.942
 20
123.3066
 30
0.0
 10
-7.5047
 20
120.7204
 30
0.0
 10
-5.7265
 20
118.6283
 30
0.0
 10
-2.9938
 20
117.2621
 30
0.0
 10
-2.9938
 20
117.2621
 30
0.0
 10
-2.9928
 20
117.2629
 30
0.0
 10
-2.8567
 20
119.1583
 30
0.0
 10
-1.0771
 20
119.6543
 30
0.0
 10
-1.0771
 20
119.6543
 30
0.0
 10
-1.0762
 20
119.6551
 30
0.0
 10
0.9695
 20
119.9435
 30
0.0
 10
-0.1275
 20
118.8828
 30
0.0
 10
-0.1275
 20
118.8828
 30
0.0
 10
-1.2242
 20
117.8224
 30
0.0
 10
-0.7808
 20
115.7693
 30
0.0
 10
0.6087
 20
114.7633
 30
0.0
 10
0.6087
 20
114.7633
 30
0.0
 10
1.4145
 20
114.1805
 30
0.0
 10
2.9488
 20
113.0316
 30
0.0
 10
4.0568
 20
111.2758
 30
0.0
 10
4.0568
 20
111.2758
 30
0.0
 10
4.1174
 20
111.1817
 30
0.0
 10
4.1792
 20
111.0926
 30
0.0
 10
4.227
 20
110.9998
 30
0.0
 10
4.227
 20
110.9998
 30
0.0
 10
5.0885
 20
109.3157
 30
0.0
 10
5.1562
 20
109.0293
 30
0.0
 10
6.304
 20
110.8941
 30
0.0
 10
6.304
 20
110.8941
 30
0.0
 10
6.3704
 20
111.0017
 30
0.0
 10
6.4358
 20
111.115
 30
0.0
 10
6.5076
 20
111.2309
 30
0.0
 10
6.5076
 20
111.2309
 30
0.0
 10
7.6178
 20
113.0124
 30
0.0
 10
9.1724
 20
114.1753
 30
0.0
 10
9.9842
 20
114.7633
 30
0.0
 10
9.9842
 20
114.7633
 30
0.0
 10
11.3755
 20
115.77
 30
0.0
 10
11.8139
 20
117.822
 30
0.0
 10
10.7217
 20
118.8828
 30
0.0
 10
10.7217
 20
118.8828
 30
0.0
 10
9.6243
 20
119.9444
 30
0.0
 10
11.6712
 20
119.6543
 30
0.0
 10
11.6712
 20
119.6543
 30
0.0
 10
11.6712
 20
119.6543
 30
0.0
 10
13.4503
 20
119.1588
 30
0.0
 10
13.5864
 20
117.2621
 30
0.0
 10
13.5864
 20
117.2621
 30
0.0
 10
13.5864
 20
117.2621
 30
0.0
 10
16.3182
 20
118.6283
 30
0.0
 10
18.0993
 20
120.7199
 30
0.0
 10
18.5359
 20
123.3066
 30
0.0
 10
18.5359
 20
123.3066
 30
0.0
 10
18.5359
 20
123.3066
 30
0.0
 10
-7.942
 20
123.3066
 30
0.0
 10
-7.942
 20
123.3066
 30
0.0
  0
SPLINE
  5
7A
330
1F
100
AcDbEntity
  8
layer 1
 62
     7
100
AcDbSpline
210
0.0
220
0.0
230
1.0
 70
    11
 71
     3
 72
    60
 73
    56
 74
     0
 42
0.0000000001
 43
0.0000000001
 12
1.0
 22
0.0
 32
0.0
 13
1.0
 23
0.0
 33
0.0
 40
0.0
 40
0.0
 40
0.0
 40
0.0
 40
0.0666666666666667
 40
0.0666666666666667
 40
0.0666666666666667
 40
0.0666666666666667
 40
0.1333333333333333
 40
0.1333333333333333
 40
0.1333333333333333
 40
0.1333333333333333
 40
0.2
 40
0.2
 40
0.2
 40
0.2
 40
0.2666666666666667
 40
0.2666666666666667
 40
0.2666666666666667
 40
0.2666666666666667
 40
0.3333333333333333
 40
0.3333333333333333
 40
0.3333333333333333
 40
0.3333333333333333
 40
0.4
 40
0.4
 40
0.4
 40
0.4
 40
0.4666666666666667
 40
0.4666666666666667
 40
0.4666666666666667
 40
0.4666666666666667
 40
0.5333333333333333
 40
0.5333333333333333
 40
0.5333333333333333
 40
0.5333333333333333
 40
0.6
 40
0.6
 40
0.6
 40
0.6
 40
0.6666666666666666
 40
0.6666666666666666
 40
0.6666666666666666
 40
0.6666666666666666
 40
0.7333333333333333
 40
0.7333333333333333
 40
0.7333333333333333
 40
0.7333333333333333
 40
0.8
 40
0.8
 40
0.8
 40
0.8
 40
0.8666666666666667
 40
0.8666666666666667
 40
0.8666666666666667
 40
0.8666666666666667
 40
1.0
 40
1.0
 40
1.0
 40
1.0
 10
-41.8184
 20
123.3066
 30
0.0
 10
-41.381
 20
120.7204
 30
0.0
 10
-39.6024
 20
118.6283
 30
0.0
 10
-36.8701
 20
117.2621
 30
0.0
 10
-36.8701
 20
117.2621
 30
0.0
 10
-36.8689
 20
117.2629
 30
0.0
 10
-36.7331
 20
119.1583
 30
0.0
 10
-34.954
 20
119.6543
 30
0.0
 10
-34.954
 20
119.6543
 30
0.0
 10
-34.9527
 20
119.6551
 30
0.0
 10
-32.9062
 20
119.9435
 30
0.0
 10
-34.0038
 20
118.8828
 30
0.0
 10
-34.0038
 20
118.8828
 30
0.0
 10
-35.1004
 20
117.8224
 30
0.0
 10
-34.6569
 20
115.7693
 30
0.0
 10
-33.2679
 20
114.7633
 30
0.0
 10
-33.2679
 20
114.7633
 30
0.0
 10
-32.4617
 20
114.1805
 30
0.0
 10
-30.9268
 20
113.0316
 30
0.0
 10
-29.8187
 20
111.2758
 30
0.0
 10
-29.8187
 20
111.2758
 30
0.0
 10
-29.7588
 20
111.1817
 30
0.0
 10
-29.6969
 20
111.0926
 30
0.0
 10
-29.6489
 20
110.9998
 30
0.0
 10
-29.6489
 20
110.9998
 30
0.0
 10
-28.7877
 20
109.3157
 30
0.0
 10
-28.7196
 20
109.0293
 30
0.0
 10
-27.5719
 20
110.8941
 30
0.0
 10
-27.5719
 20
110.8941
 30
0.0
 10
-27.5061
 20
111.0017
 30
0.0
 10
-27.4407
 20
111.115
 30
0.0
 10
-27.3685
 20
111.2309
 30
0.0
 10
-27.3685
 20
111.2309
 30
0.0
 10
-26.2584
 20
113.0124
 30
0.0
 10
-24.7037
 20
114.1753
 30
0.0
 10
-23.8917
 20
114.7633
 30
0.0
 10
-23.8917
 20
114.7633
 30
0.0
 10
-22.5009
 20
115.77
 30
0.0
 10
-22.0621
 20
117.822
 30
0.0
 10
-23.1542
 20
118.8828
 30
0.0
 10
-23.1542
 20
118.8828
 30
0.0
 10
-24.2522
 20
119.9444
 30
0.0
 10
-22.2049
 20
119.6543
 30
0.0
 10
-22.2049
 20
119.6543
 30
0.0
 10
-22.2049
 20
119.6543
 30
0.0
 10
-20.4259
 20
119.1588
 30
0.0
 10
-20.2894
 20
117.2621
 30
0.0
 10
-20.2894
 20
117.2621
 30
0.0
 10
-20.2894
 20
117.2621
 30
0.0
 10
-17.5579
 20
118.6283
 30
0.0
 10
-15.7772
 20
120.7199
 30
0.0
 10
-15.3394
 20
123.3066
 30
0.0
 10
-15.3394
 20
123.3066
 30
0.0
 10
-15.3394
 20
123.3066
 30
0.0
 10
-41.8184
 20
123.3066
 30
0.0
 10
-41.8184
 20
123.3066
 30
0.0
  0
SPLINE
  5
7B
330
1F
100
AcDbEntity
  8
layer 1
 62
     7
100
AcDbSpline
210
0.0
220
0.0
230
1.0
 70
    11
 71
     3
 72
    60
 73
    56
 74
     0
 42
0.0000000001
 43
0.0000000001
 12
1.0
 22
0.0
 32
0.0
 13
1.0
 23
0.0
 33
0.0
 40
0.0
 40
0.0
 40
0.0
 40
0.0
 40
0.0666666666666667
 40
0.0666666666666667
 40
0.0666666666666667
 40
0.0666666666666667
 40
0.1333333333333333
 40
0.1333333333333333
 40
0.1333333333333333
 40
0.1333333333333333
 40
0.2
 40
0.2
 40
0.2
 40
0.2
 40
0.2666666666666667
 40
0.2666666666666667
 40
0.2666666666666667
 40
0.2666666666666667
 40
0.3333333333333333
 40
0.3333333333333333
 40
0.3333333333333333
 40
0.3333333333333333
 40
0.4
 40
0.4
 40
0.4
 40
0.4
 40
0.4666666666666667
 40
0.4666666666666667
 40
0.4666666666666667
 40
0.4666666666666667
 40
0.5333333333333333
 40
0.5333333333333333
 40
0.5333333333333333
 40
0.5333333333333333
 40
0.6
 40
0.6
 40
0.6
 40
0.6
 40
0.6666666666666666
 40
0.6666666666666666
 40
0.6666666666666666
 40
0.6666666666666666
 40
0.7333333333333333
 40
0.7333333333333333
 40
0.7333333333333333
 40
0.7333333333333333
 40
0.8
 40
0.8
 40
0.8
 40
0.8
 40
0.8666666666666667
 40
0.8666666666666667
 40
0.8666666666666667
 40
0.8666666666666667
 40
1.0
 40
1.0
 40
1.0
 40
1.0
 10
-69.0881
 20
123.3066
 30
0.0
 10
-69.0881
 20
123.3066
 30
0.0
 10
-69.0881
 20
119.5114
 30
0.0
 10
-69.0881
 20
119.5114
 30
0.0
 10
-69.0881
 20
119.5114
 30
0.0
 10
-68.966
 20
119.5672
 30
0.0
 10
-68.8353
 20
119.6149
 30
0.0
 10
-68.6936
 20
119.6543
 30
0.0
 10
-68.6936
 20
119.6543
 30
0.0
 10
-68.6917
 20
119.6551
 30
0.0
 10
-66.6465
 20
119.9435
 30
0.0
 10
-67.7438
 20
118.8828
 30
0.0
 10
-67.7438
 20
118.8828
 30
0.0
 10
-68.8397
 20
117.8224
 30
0.0
 10
-68.3974
 20
115.7693
 30
0.0
 10
-67.0079
 20
114.7633
 30
0.0
 10
-67.0079
 20
114.7633
 30
0.0
 10
-66.2029
 20
114.1805
 30
0.0
 10
-64.6668
 20
113.0316
 30
0.0
 10
-63.5588
 20
111.2758
 30
0.0
 10
-63.5588
 20
111.2758
 30
0.0
 10
-63.4977
 20
111.1817
 30
0.0
 10
-63.4367
 20
111.0926
 30
0.0
 10
-63.3889
 20
110.9998
 30
0.0
 10
-63.3889
 20
110.9998
 30
0.0
 10
-62.527
 20
109.3157
 30
0.0
 10
-62.4599
 20
109.0293
 30
0.0
 10
-61.312
 20
110.8941
 30
0.0
 10
-61.312
 20
110.8941
 30
0.0
 10
-61.245
 20
111.0017
 30
0.0
 10
-61.1805
 20
111.115
 30
0.0
 10
-61.1084
 20
111.2309
 30
0.0
 10
-61.1084
 20
111.2309
 30
0.0
 10
-59.9974
 20
113.0124
 30
0.0
 10
-58.4438
 20
114.1753
 30
0.0
 10
-57.6318
 20
114.7633
 30
0.0
 10
-57.6318
 20
114.7633
 30
0.0
 10
-56.2421
 20
115.77
 30
0.0
 10
-55.8022
 20
117.822
 30
0.0
 10
-56.8942
 20
118.8828
 30
0.0
 10
-56.8942
 20
118.8828
 30
0.0
 10
-57.9912
 20
119.9444
 30
0.0
 10
-55.9451
 20
119.6543
 30
0.0
 10
-55.9451
 20
119.6543
 30
0.0
 10
-55.9451
 20
119.6543
 30
0.0
 10
-54.1652
 20
119.1588
 30
0.0
 10
-54.0296
 20
117.2621
 30
0.0
 10
-54.0296
 20
117.2621
 30
0.0
 10
-54.0296
 20
117.2621
 30
0.0
 10
-51.2969
 20
118.6283
 30
0.0
 10
-49.5173
 20
120.7199
 30
0.0
 10
-49.0798
 20
123.3066
 30
0.0
 10
-49.0798
 20
123.3066
 30
0.0
 10
-49.0798
 20
123.3066
 30
0.0
 10
-69.0881
 20
123.3066
 30
0.0
 10
-69.0881
 20
123.3066
 30
0.0
  0
ENDSEC
  0
SECTION
  2
OBJECTS
  0
DICTIONARY
  5
C
330
0
100
AcDbDictionary
281
     1
  3
ACAD_GROUP
350
D
  3
ACAD_LAYOUT
350
1A
  3
ACAD_MATERIAL
350
3B
  3
ACAD_MLEADERSTYLE
350
9E
  3
ACAD_MLINESTYLE
350
17
  3
ACAD_PLOTSETTINGS
350
19
  3
ACAD_PLOTSTYLENAME
350
E
  3
ACAD_TABLESTYLE
350
9D
  3
ACAD_VISUALSTYLE
350
2A
  0
DICTIONARY
  5
D
102
{ACAD_REACTORS
330
C
102
}
330
C
100
AcDbDictionary
281
     1
  0
DICTIONARY
  5
1A
102
{ACAD_REACTORS
330
C
102
}
330
C
100
AcDbDictionary
281
     1
  3
Layout1
350
1E
  3
Layout2
350
26
  3
Model
350
22
  0
DICTIONARY
  5
3B
102
{ACAD_REACTORS
330
C
102
}
330
C
100
AcDbDictionary
281
     1
  3
ByBlock
350
3D
  3
ByLayer
350
3C
  3
Global
350
3E
  0
DICTIONARY
  5
9E
102
{ACAD_REACTORS
330
C
102
}
330
C
100
AcDbDictionary
281
     1
  0
DICTIONARY
  5
17
102
{ACAD_REACTORS
330
C
102
}
330
C
100
AcDbDictionary
281
     1
  3
Standard
350
18
  0
DICTIONARY
  5
19
102
{ACAD_REACTORS
330
C
102
}
330
C
100
AcDbDictionary
281
     1
  0
ACDBDICTIONARYWDFLT
  5
E
102
{ACAD_REACTORS
330
C
102
}
330
C
100
AcDbDictionary
281
     1
  3
Normal
350
F
100
AcDbDictionaryWithDefault
340
F
  0
DICTIONARY
  5
9D
102
{ACAD_REACTORS
330
C
102
}
330
C
100
AcDbDictionary
281
     1
  0
DICTIONARY
  5
2A
102
{ACAD_REACTORS
330
C
102
}
330
C
100
AcDbDictionary
281
     1
  3
2dWireframe
350
2F
  3
3D Hidden
350
31
  3
3dWireframe
350
30
  3
Basic
350
32
  3
Brighten
350
36
  3
ColorChange
350
3A
  3
Conceptual
350
34
  3
Dim
350
35
  3
Facepattern
350
39
  3
Flat
350
2B
  3
FlatWithEdges
350
2C
  3
Gouraud
350
2D
  3
GouraudWithEdges
350
2E
  3
Linepattern
350
38
  3
Realistic
350
33
  3
Thicken
350
37
  0
LAYOUT
  5
1E
102
{ACAD_REACTORS
330
1A
102
}
330
1A
100
AcDbPlotSettings
  1

  2
none_device
  4

  6

 40
0.0
 41
0.0
 42
0.0
 43
0.0
 44
0.0
 45
0.0
 46
0.0
 47
0.0
 48
0.0
 49
0.0
140
0.0
141
0.0
142
1.0
143
1.0
 70
   688
 72
     0
 73
     0
 74
     5
  7

 75
    16
 76
     0
 77
     2
 78
   300
147
1.0
148
0.0
149
0.0
100
AcDbLayout
  1
Layout1
 70
     1
 71
     1
 10
0.0
 20
0.0
 11
12.0
 21
9.0
 12
0.0
 22
0.0
 32
0.0
 14
1.000000000000000E+20
 24
1.000000000000000E+20
 34
1.000000000000000E+20
 15
-1.000000000000000E+20
 25
-1.000000000000000E+20
 35
-1.000000000000000E+20
146
0.0
 13
0.0
 23
0.0
 33
0.0
 16
1.0
 26
0.0
 36
0.0
 17
0.0
 27
1.0
 37
0.0
 76
     0
330
1B
  0
LAYOUT
  5
26
102
{ACAD_REACTORS
330
1A
102
}
330
1A
100
AcDbPlotSettings
  1

  2
none_device
  4

  6

 40
0.0
 41
0.0
 42
0.0
 43
0.0
 44
0.0
 45
0.0
 46
0.0
 47
0.0
 48
0.0
 49
0.0
140
0.0
141
0.0
142
1.0
143
1.0
 70
   688
 72
     0
 73
     0
 74
     5
  7

 75
    16
 76
     0
 77
     2
 78
   300
147
1.0
148
0.0
149
0.0
100
AcDbLayout
  1
Layout2
 70
     1
 71
     2
 10
0.0
 20
0.0
 11
0.0
 21
0.0
 12
0.0
 22
0.0
 32
0.0
 14
0.0
 24
0.0
 34
0.0
 15
0.0
 25
0.0
 35
0.0
146
0.0
 13
0.0
 23
0.0
 33
0.0
 16
1.0
 26
0.0
 36
0.0
 17
0.0
 27
1.0
 37
0.0
 76
     0
330
23
  0
LAYOUT
  5
22
102
{ACAD_REACTORS
330
1A
102
}
330
1A
100
AcDbPlotSettings
  1

  2
none_device
  4

  6

 40
0.0
 41
0.0
 42
0.0
 43
0.0
 44
0.0
 45
0.0
 46
0.0
 47
0.0
 48
0.0
 49
0.0
140
0.0
141
0.0
142
1.0
143
1.0
 70
  1712
 72
     0
 73
     0
 74
     0
  7

 75
     0
 76
     0
 77
     2
 78
   300
147
1.0
148
0.0
149
0.0
100
AcDbLayout
  1
Model
 70
     1
 71
     0
 10
0.0
 20
0.0
 11
12.0
 21
9.0
 12
0.0
 22
0.0
 32
0.0
 14
-73.2895
 24
-112.0791
 34
0.0
 15
51.0713
 25
127.6333
 35
0.0
146
0.0
 13
0.0
 23
0.0
 33
0.0
 16
1.0
 26
0.0
 36
0.0
 17
0.0
 27
1.0
 37
0.0
 76
     0
330
1F
331
29
  0
MATERIAL
  5
3D
102
{ACAD_REACTORS
330
3B
102
}
330
3B
100
AcDbMaterial
  1
ByBlock
 72
     1
 94
      127
  0
MATERIAL
  5
3C
102
{ACAD_REACTORS
330
3B
102
}
330
3B
100
AcDbMaterial
  1
ByLayer
 72
     1
 94
      127
  0
MATERIAL
  5
3E
102
{ACAD_REACTORS
330
3B
102
}
330
3B
100
AcDbMaterial
  1
Global
 72
     1
 94
      127
  0
MLINESTYLE
  5
18
102
{ACAD_REACTORS
330
17
102
}
330
17
100
AcDbMlineStyle
  2
Standard
 70
     0
  3

 62
   256
 51
90.0
 52
90.0
 71
     2
 49
0.5
 62
   256
  6
BYLAYER
 49
-0.5
 62
   256
  6
BYLAYER
  0
ACDBPLACEHOLDER
  5
F
102
{ACAD_REACTORS
330
E
102
}
330
E
  0
VISUALSTYLE
  5
2F
102
{ACAD_REACTORS
330
2A
102
}
102
{ACAD_XDICTIONARY
360
85
102
}
330
2A
100
AcDbVisualStyle
  2
2dWireframe
 70
     4
 71
     0
 72
     2
 73
     0
 90
        0
 40
-0.6
 41
-30.0
 62
     5
 63
     7
421
 16777215
 74
     1
 91
        4
 64
     7
 65
   257
 75
     1
175
     1
 42
1.0
 92
        0
 66
   257
 43
1.0
 76
     1
 77
     6
 78
     2
 67
     7
 79
     5
170
     0
171
     0
290
     0
174
     0
 93
        1
 44
0.0
173
     0
291
     0
 45
0.0
  0
VISUALSTYLE
  5
31
102
{ACAD_REACTORS
330
2A
102
}
102
{ACAD_XDICTIONARY
360
89
102
}
330
2A
100
AcDbVisualStyle
  2
3D Hidden
 70
     6
 71
     1
 72
     2
 73
     2
 90
        0
 40
-0.6
 41
-30.0
 62
     5
 63
     7
421
 16777215
 74
     2
 91
        2
 64
     7
 65
   257
 75
     2
175
     1
 42
40.0
 92
        0
 66
   257
 43
1.0
 76
     1
 77
     6
 78
     2
 67
     7
 79
     3
170
     0
171
     0
290
     0
174
     0
 93
        1
 44
0.0
173
     0
291
     0
 45
0.0
  0
VISUALSTYLE
  5
30
102
{ACAD_REACTORS
330
2A
102
}
102
{ACAD_XDICTIONARY
360
87
102
}
330
2A
100
AcDbVisualStyle
  2
3dWireframe
 70
     5
 71
     0
 72
     2
 73
     0
 90
        0
 40
-0.6
 41
-30.0
 62
     5
 63
     7
421
 16777215
 74
     1
 91
        4
 64
     7
 65
   257
 75
     1
175
     1
 42
1.0
 92
        0
 66
   257
 43
1.0
 76
     1
 77
     6
 78
     2
 67
     7
 79
     5
170
     0
171
     0
290
     0
174
     0
 93
        1
 44
0.0
173
     0
291
     0
 45
0.0
  0
VISUALSTYLE
  5
32
102
{ACAD_REACTORS
330
2A
102
}
102
{ACAD_XDICTIONARY
360
8B
102
}
330
2A
100
AcDbVisualStyle
  2
Basic
 70
     7
 71
     1
 72
     0
 73
     1
 90
        0
 40
-0.6
 41
-30.0
 62
     5
 63
     7
421
 16777215
 74
     0
 91
        4
 64
     7
 65
   257
 75
     1
175
     1
 42
1.0
 92
        8
 66
     7
 43
1.0
 76
     1
 77
     6
 78
     2
 67
     7
 79
     5
170
     0
171
     0
290
     0
174
     0
 93
        1
 44
0.0
173
     0
291
     1
 45
0.0
  0
VISUALSTYLE
  5
36
102
{ACAD_REACTORS
330
2A
102
}
102
{ACAD_XDICTIONARY
360
93
102
}
330
2A
100
AcDbVisualStyle
  2
Brighten
 70
    12
 71
     2
 72
     2
 73
     0
 90
        0
 40
-0.6
 41
-30.0
 62
     5
 63
     7
421
 16777215
 74
     1
 91
        4
 64
     7
 65
   257
 75
     1
175
     1
 42
1.0
 92
        8
 66
     7
 43
1.0
 76
     1
 77
     6
 78
     2
 67
     7
 79
     5
170
     0
171
     0
290
     0
174
     0
 93
        1
 44
50.0
173
     0
291
     1
 45
0.0
  0
VISUALSTYLE
  5
3A
102
{ACAD_REACTORS
330
2A
102
}
102
{ACAD_XDICTIONARY
360
9B
102
}
330
2A
100
AcDbVisualStyle
  2
ColorChange
 70
    16
 71
     2
 72
     2
 73
     3
 90
        0
 40
-0.6
 41
-30.0
 62
     5
 63
     8
421
  8421504
 74
     1
 91
        4
 64
     7
 65
   257
 75
     1
175
     1
 42
1.0
 92
        8
 66
     8
424
  8421504
 43
1.0
 76
     1
 77
     6
 78
     2
 67
     7
 79
     5
170
     0
171
     0
290
     0
174
     0
 93
        1
 44
0.0
173
     0
291
     1
 45
0.0
  0
VISUALSTYLE
  5
34
102
{ACAD_REACTORS
330
2A
102
}
102
{ACAD_XDICTIONARY
360
8F
102
}
330
2A
100
AcDbVisualStyle
  2
Conceptual
 70
     9
 71
     3
 72
     2
 73
     0
 90
        0
 40
-0.6
 41
-30.0
 62
     5
 63
     7
421
 16777215
 74
     2
 91
        2
 64
     7
 65
   257
 75
     1
175
     1
 42
40.0
 92
        8
 66
     7
 43
1.0
 76
     1
 77
     6
 78
     2
 67
     7
 79
     3
170
     0
171
     0
290
     0
174
     0
 93
        1
 44
0.0
173
     0
291
     0
 45
0.0
  0
VISUALSTYLE
  5
35
102
{ACAD_REACTORS
330
2A
102
}
102
{ACAD_XDICTIONARY
360
91
102
}
330
2A
100
AcDbVisualStyle
  2
Dim
 70
    11
 71
     2
 72
     2
 73
     0
 90
        0
 40
-0.6
 41
-30.0
 62
     5
 63
     7
421
 16777215
 74
     1
 91
        4
 64
     7
 65
   257
 75
     1
175
     1
 42
1.0
 92
        8
 66
     7
 43
1.0
 76
     1
 77
     6
 78
     2
 67
     7
 79
     5
170
     0
171
     0
290
     0
174
     0
 93
        1
 44
-50.0
173
     0
291
     1
 45
0.0
  0
VISUALSTYLE
  5
39
102
{ACAD_REACTORS
330
2A
102
}
102
{ACAD_XDICTIONARY
360
99
102
}
330
2A
100
AcDbVisualStyle
  2
Facepattern
 70
    15
 71
     2
 72
     2
 73
     0
 90
        0
 40
-0.6
 41
-30.0
 62
     5
 63
     7
421
 16777215
 74
     1
 91
        4
 64
     7
 65
   257
 75
     1
175
     1
 42
1.0
 92
        8
 66
     7
 43
1.0
 76
     1
 77
     6
 78
     2
 67
     7
 79
     5
170
     0
171
     0
290
     0
174
     0
 93
        1
 44
0.0
173
     0
291
     1
 45
0.0
  0
VISUALSTYLE
  5
2B
102
{ACAD_REACTORS
330
2A
102
}
102
{ACAD_XDICTIONARY
360
7D
102
}
330
2A
100
AcDbVisualStyle
  2
Flat
 70
     0
 71
     2
 72
     1
 73
     1
 90
        2
 40
-0.6
 41
30.0
 62
     5
 63
     7
421
 16777215
 74
     0
 91
        4
 64
     7
 65
   257
 75
     1
175
     1
 42
1.0
 92
        8
 66
     7
 43
1.0
 76
     1
 77
     6
 78
     2
 67
     7
 79
     5
170
     0
171
     0
290
     0
174
     0
 93
       13
 44
0.0
173
     0
291
     1
 45
0.0
  0
VISUALSTYLE
  5
2C
102
{ACAD_REACTORS
330
2A
102
}
102
{ACAD_XDICTIONARY
360
7F
102
}
330
2A
100
AcDbVisualStyle
  2
FlatWithEdges
 70
     1
 71
     2
 72
     1
 73
     1
 90
        2
 40
-0.6
 41
30.0
 62
     5
 63
     7
421
 16777215
 74
     1
 91
        4
 64
     7
 65
   257
 75
     1
175
     1
 42
1.0
 92
        0
 66
   257
 43
1.0
 76
     1
 77
     6
 78
     2
 67
     7
 79
     5
170
     0
171
     0
290
     0
174
     0
 93
       13
 44
0.0
173
     0
291
     1
 45
0.0
  0
VISUALSTYLE
  5
2D
102
{ACAD_REACTORS
330
2A
102
}
102
{ACAD_XDICTIONARY
360
81
102
}
330
2A
100
AcDbVisualStyle
  2
Gouraud
 70
     2
 71
     2
 72
     2
 73
     1
 90
        2
 40
-0.6
 41
30.0
 62
     5
 63
     7
421
 16777215
 74
     0
 91
        4
 64
     7
 65
   257
 75
     1
175
     1
 42
1.0
 92
        0
 66
     7
 43
1.0
 76
     1
 77
     6
 78
     2
 67
     7
 79
     5
170
     0
171
     0
290
     0
174
     0
 93
       13
 44
0.0
173
     0
291
     1
 45
0.0
  0
VISUALSTYLE
  5
2E
102
{ACAD_REACTORS
330
2A
102
}
102
{ACAD_XDICTIONARY
360
83
102
}
330
2A
100
AcDbVisualStyle
  2
GouraudWithEdges
 70
     3
 71
     2
 72
     2
 73
     1
 90
        2
 40
-0.6
 41
30.0
 62
     5
 63
     7
421
 16777215
 74
     1
 91
        4
 64
     7
 65
   257
 75
     1
175
     1
 42
1.0
 92
        0
 66
   257
 43
1.0
 76
     1
 77
     6
 78
     2
 67
     7
 79
     5
170
     0
171
     0
290
     0
174
     0
 93
       13
 44
0.0
173
     0
291
     1
 45
0.0
  0
VISUALSTYLE
  5
38
102
{ACAD_REACTORS
330
2A
102
}
102
{ACAD_XDICTIONARY
360
97
102
}
330
2A
100
AcDbVisualStyle
  2
Linepattern
 70
    14
 71
     2
 72
     2
 73
     0
 90
        0
 40
-0.6
 41
-30.0
 62
     5
 63
     7
421
 16777215
 74
     1
 91
        4
 64
     7
 65
   257
 75
     7
175
     7
 42
1.0
 92
        8
 66
     7
 43
1.0
 76
     1
 77
     6
 78
     2
 67
     7
 79
     5
170
     0
171
     0
290
     0
174
     0
 93
        1
 44
0.0
173
     0
291
     1
 45
0.0
  0
VISUALSTYLE
  5
33
102
{ACAD_REACTORS
330
2A
102
}
102
{ACAD_XDICTIONARY
360
8D
102
}
330
2A
100
AcDbVisualStyle
  2
Realistic
 70
     8
 71
     2
 72
     2
 73
     0
 90
        0
 40
-0.6
 41
-30.0
 62
     5
 63
     7
421
 16777215
 74
     1
 91
        0
 64
     7
 65
   257
 75
     1
175
     1
 42
1.0
 92
        8
 66
     8
424
  7895160
 43
1.0
 76
     1
 77
     6
 78
     2
 67
     7
 79
     5
170
     0
171
     0
290
     0
174
     0
 93
       13
 44
0.0
173
     0
291
     0
 45
0.0
  0
VISUALSTYLE
  5
37
102
{ACAD_REACTORS
330
2A
102
}
102
{ACAD_XDICTIONARY
360
95
102
}
330
2A
100
AcDbVisualStyle
  2
Thicken
 70
    13
 71
     2
 72
     2
 73
     0
 90
        0
 40
-0.6
 41
-30.0
 62
     5
 63
     7
421
 16777215
 74
     1
 91
        4
 64
     7
 65
   257
 75
     1
175
     1
 42
1.0
 92
       12
 66
     7
 43
1.0
 76
     1
 77
     6
 78
     2
 67
     7
 79
     5
170
     0
171
     0
290
     0
174
     0
 93
        1
 44
0.0
173
     0
291
     1
 45
0.0
  0
DICTIONARY
  5
85
330
2F
100
AcDbDictionary
280
     1
281
     1
  3
ACAD_XREC_ROUNDTRIP
360
86
  0
DICTIONARY
  5
89
330
31
100
AcDbDictionary
280
     1
281
     1
  3
ACAD_XREC_ROUNDTRIP
360
8A
  0
DICTIONARY
  5
87
330
30
100
AcDbDictionary
280
     1
281
     1
  3
ACAD_XREC_ROUNDTRIP
360
88
  0
DICTIONARY
  5
8B
330
32
100
AcDbDictionary
280
     1
281
     1
  3
ACAD_XREC_ROUNDTRIP
360
8C
  0
DICTIONARY
  5
93
330
36
100
AcDbDictionary
280
     1
281
     1
  3
ACAD_XREC_ROUNDTRIP
360
94
  0
DICTIONARY
  5
9B
330
3A
100
AcDbDictionary
280
     1
281
     1
  3
ACAD_XREC_ROUNDTRIP
360
9C
  0
DICTIONARY
  5
8F
330
34
100
AcDbDictionary
280
     1
281
     1
  3
ACAD_XREC_ROUNDTRIP
360
90
  0
DICTIONARY
  5
91
330
35
100
AcDbDictionary
280
     1
281
     1
  3
ACAD_XREC_ROUNDTRIP
360
92
  0
DICTIONARY
  5
99
330
39
100
AcDbDictionary
280
     1
281
     1
  3
ACAD_XREC_ROUNDTRIP
360
9A
  0
DICTIONARY
  5
7D
330
2B
100
AcDbDictionary
280
     1
281
     1
  3
ACAD_XREC_ROUNDTRIP
360
7E
  0
DICTIONARY
  5
7F
330
2C
100
AcDbDictionary
280
     1
281
     1
  3
ACAD_XREC_ROUNDTRIP
360
80
  0
DICTIONARY
  5
81
330
2D
100
AcDbDictionary
280
     1
281
     1
  3
ACAD_XREC_ROUNDTRIP
360
82
  0
DICTIONARY
  5
83
330
2E
100
AcDbDictionary
280
     1
281
     1
  3
ACAD_XREC_ROUNDTRIP
360
84
  0
DICTIONARY
  5
97
330
38
100
AcDbDictionary
280
     1
281
     1
  3
ACAD_XREC_ROUNDTRIP
360
98
  0
DICTIONARY
  5
8D
330
33
100
AcDbDictionary
280
     1
281
     1
  3
ACAD_XREC_ROUNDTRIP
360
8E
  0
DICTIONARY
  5
95
330
37
100
AcDbDictionary
280
     1
281
     1
  3
ACAD_XREC_ROUNDTRIP
360
96
  0
XRECORD
  5
86
102
{ACAD_REACTORS
330
85
102
}
330
85
100
AcDbXrecord
280
     1
102
RTVSPropertyOp0
 70
     1
102
RTVSPropertyOp1
 70
     1
102
RTVSPropertyOp2
 70
     1
102
RTVSPropertyOp3
 70
     1
102
RTVSPropertyOp4
 70
     1
102
RTVSPropertyOp5
 70
     1
102
RTVSPropertyOp6
 70
     1
102
RTVSPropertyOp7
 70
     1
102
RTVSPropertyOp8
 70
     1
102
RTVSPropertyOp9
 70
     1
102
RTVSPropertyOp10
 70
     1
102
RTVSPropertyOp11
 70
     1
102
RTVSPropertyOp12
 70
     1
102
RTVSPropertyOp13
 70
     1
102
RTVSPropertyOp14
 70
     1
102
RTVSPropertyOp15
 70
     1
102
RTVSPropertyOp16
 70
     1
102
RTVSPropertyOp17
 70
     1
102
RTVSPropertyOp18
 70
     1
102
RTVSPropertyOp19
 70
     1
102
RTVSPropertyOp20
 70
     1
102
RTVSPropertyOp21
 70
     1
102
RTVSPropertyOp22
 70
     1
102
RTVSPropertyOp23
 70
     1
102
RTVSPropertyOp24
 70
     1
102
RTVSPropertyOp25
 70
     1
102
RTVSPropertyOp26
 70
     1
102
RTVSPropertyOp27
 70
     1
102
RTVSPropertyOp28
 70
     1
102
RTVSPropertyOp29
 70
     1
102
RTVSPropertyOp30
 70
     1
102
RTVSPropertyOp31
 70
     1
102
RTVSPropertyOp32
 70
     1
  0
XRECORD
  5
8A
102
{ACAD_REACTORS
330
89
102
}
330
89
100
AcDbXrecord
280
     1
102
RTVSPropertyOp0
 70
     1
102
RTVSPropertyOp1
 70
     1
102
RTVSPropertyOp2
 70
     1
102
RTVSPropertyOp3
 70
     1
102
RTVSPropertyOp4
 70
     1
102
RTVSPropertyOp5
 70
     1
102
RTVSPropertyOp6
 70
     1
102
RTVSPropertyOp7
 70
     1
102
RTVSPropertyOp8
 70
     1
102
RTVSPropertyOp9
 70
     1
102
RTVSPropertyOp10
 70
     1
102
RTVSPropertyOp11
 70
     1
102
RTVSPropertyOp12
 70
     1
102
RTVSPropertyOp13
 70
     1
102
RTVSPropertyOp14
 70
     1
102
RTVSPropertyOp15
 70
     1
102
RTVSPropertyOp16
 70
     1
102
RTVSPropertyOp17
 70
     1
102
RTVSPropertyOp18
 70
     1
102
RTVSPropertyOp19
 70
     1
102
RTVSPropertyOp20
 70
     1
102
RTVSPropertyOp21
 70
     1
102
RTVSPropertyOp22
 70
     1
102
RTVSPropertyOp23
 70
     1
102
RTVSPropertyOp24
 70
     1
102
RTVSPropertyOp25
 70
     1
102
RTVSPropertyOp26
 70
     1
102
RTVSPropertyOp27
 70
     1
102
RTVSPropertyOp28
 70
     1
102
RTVSPropertyOp29
 70
     1
102
RTVSPropertyOp30
 70
     1
102
RTVSPropertyOp31
 70
     1
102
RTVSPropertyOp32
 70
     1
  0
XRECORD
  5
88
102
{ACAD_REACTORS
330
87
102
}
330
87
100
AcDbXrecord
280
     1
102
RTVSPropertyOp0
 70
     1
102
RTVSPropertyOp1
 70
     1
102
RTVSPropertyOp2
 70
     1
102
RTVSPropertyOp3
 70
     1
102
RTVSPropertyOp4
 70
     1
102
RTVSPropertyOp5
 70
     1
102
RTVSPropertyOp6
 70
     1
102
RTVSPropertyOp7
 70
     1
102
RTVSPropertyOp8
 70
     1
102
RTVSPropertyOp9
 70
     1
102
RTVSPropertyOp10
 70
     1
102
RTVSPropertyOp11
 70
     1
102
RTVSPropertyOp12
 70
     1
102
RTVSPropertyOp13
 70
     1
102
RTVSPropertyOp14
 70
     1
102
RTVSPropertyOp15
 70
     1
102
RTVSPropertyOp16
 70
     1
102
RTVSPropertyOp17
 70
     1
102
RTVSPropertyOp18
 70
     1
102
RTVSPropertyOp19
 70
     1
102
RTVSPropertyOp20
 70
     1
102
RTVSPropertyOp21
 70
     1
102
RTVSPropertyOp22
 70
     1
102
RTVSPropertyOp23
 70
     1
102
RTVSPropertyOp24
 70
     1
102
RTVSPropertyOp25
 70
     1
102
RTVSPropertyOp26
 70
     1
102
RTVSPropertyOp27
 70
     1
102
RTVSPropertyOp28
 70
     1
102
RTVSPropertyOp29
 70
     1
102
RTVSPropertyOp30
 70
     1
102
RTVSPropertyOp31
 70
     1
102
RTVSPropertyOp32
 70
     1
  0
XRECORD
  5
8C
102
{ACAD_REACTORS
330
8B
102
}
330
8B
100
AcDbXrecord
280
     1
102
RTVSPropertyOp0
 70
     1
102
RTVSPropertyOp1
 70
     1
102
RTVSPropertyOp2
 70
     1
102
RTVSPropertyOp3
 70
     1
102
RTVSPropertyOp4
 70
     1
102
RTVSPropertyOp5
 70
     1
102
RTVSPropertyOp6
 70
     1
102
RTVSPropertyOp7
 70
     1
102
RTVSPropertyOp8
 70
     1
102
RTVSPropertyOp9
 70
     1
102
RTVSPropertyOp10
 70
     1
102
RTVSPropertyOp11
 70
     1
102
RTVSPropertyOp12
 70
     1
102
RTVSPropertyOp13
 70
     1
102
RTVSPropertyOp14
 70
     1
102
RTVSPropertyOp15
 70
     1
102
RTVSPropertyOp16
 70
     1
102
RTVSPropertyOp17
 70
     1
102
RTVSPropertyOp18
 70
     1
102
RTVSPropertyOp19
 70
     1
102
RTVSPropertyOp20
 70
     1
102
RTVSPropertyOp21
 70
     1
102
RTVSPropertyOp22
 70
     1
102
RTVSPropertyOp23
 70
     1
102
RTVSPropertyOp24
 70
     1
102
RTVSPropertyOp25
 70
     1
102
RTVSPropertyOp26
 70
     1
102
RTVSPropertyOp27
 70
     1
102
RTVSPropertyOp28
 70
     1
102
RTVSPropertyOp29
 70
     1
102
RTVSPropertyOp30
 70
     1
102
RTVSPropertyOp31
 70
     1
102
RTVSPropertyOp32
 70
     1
  0
XRECORD
  5
94
102
{ACAD_REACTORS
330
93
102
}
330
93
100
AcDbXrecord
280
     1
102
RTVSPropertyOp0
 70
     1
102
RTVSPropertyOp1
 70
     1
102
RTVSPropertyOp2
 70
     1
102
RTVSPropertyOp3
 70
     1
102
RTVSPropertyOp4
 70
     1
102
RTVSPropertyOp5
 70
     1
102
RTVSPropertyOp6
 70
     1
102
RTVSPropertyOp7
 70
     1
102
RTVSPropertyOp8
 70
     1
102
RTVSPropertyOp9
 70
     1
102
RTVSPropertyOp10
 70
     1
102
RTVSPropertyOp11
 70
     1
102
RTVSPropertyOp12
 70
     1
102
RTVSPropertyOp13
 70
     1
102
RTVSPropertyOp14
 70
     1
102
RTVSPropertyOp15
 70
     1
102
RTVSPropertyOp16
 70
     1
102
RTVSPropertyOp17
 70
     1
102
RTVSPropertyOp18
 70
     1
102
RTVSPropertyOp19
 70
     1
102
RTVSPropertyOp20
 70
     1
102
RTVSPropertyOp21
 70
     1
102
RTVSPropertyOp22
 70
     1
102
RTVSPropertyOp23
 70
     1
102
RTVSPropertyOp24
 70
     1
102
RTVSPropertyOp25
 70
     1
102
RTVSPropertyOp26
 70
     1
102
RTVSPropertyOp27
 70
     1
102
RTVSPropertyOp28
 70
     1
102
RTVSPropertyOp29
 70
     1
102
RTVSPropertyOp30
 70
     1
102
RTVSPropertyOp31
 70
     1
102
RTVSPropertyOp32
 70
     1
  0
XRECORD
  5
9C
102
{ACAD_REACTORS
330
9B
102
}
330
9B
100
AcDbXrecord
280
     1
102
RTVSPropertyOp0
 70
     1
102
RTVSPropertyOp1
 70
     1
102
RTVSPropertyOp2
 70
     1
102
RTVSPropertyOp3
 70
     1
102
RTVSPropertyOp4
 70
     1
102
RTVSPropertyOp5
 70
     1
102
RTVSPropertyOp6
 70
     1
102
RTVSPropertyOp7
 70
     1
102
RTVSPropertyOp8
 70
     1
102
RTVSPropertyOp9
 70
     1
102
RTVSPropertyOp10
 70
     1
102
RTVSPropertyOp11
 70
     1
102
RTVSPropertyOp12
 70
     1
102
RTVSPropertyOp13
 70
     1
102
RTVSPropertyOp14
 70
     1
102
RTVSPropertyOp15
 70
     1
102
RTVSPropertyOp16
 70
     1
102
RTVSPropertyOp17
 70
     1
102
RTVSPropertyOp18
 70
     1
102
RTVSPropertyOp19
 70
     1
102
RTVSPropertyOp20
 70
     1
102
RTVSPropertyOp21
 70
     1
102
RTVSPropertyOp22
 70
     1
102
RTVSPropertyOp23
 70
     1
102
RTVSPropertyOp24
 70
     1
102
RTVSPropertyOp25
 70
     1
102
RTVSPropertyOp26
 70
     1
102
RTVSPropertyOp27
 70
     1
102
RTVSPropertyOp28
 70
     1
102
RTVSPropertyOp29
 70
     1
102
RTVSPropertyOp30
 70
     1
102
RTVSPropertyOp31
 70
     1
102
RTVSPropertyOp32
 70
     1
  0
XRECORD
  5
90
102
{ACAD_REACTORS
330
8F
102
}
330
8F
100
AcDbXrecord
280
     1
102
RTVSPropertyOp0
 70
     1
102
RTVSPropertyOp1
 70
     1
102
RTVSPropertyOp2
 70
     1
102
RTVSPropertyOp3
 70
     1
102
RTVSPropertyOp4
 70
     1
102
RTVSPropertyOp5
 70
     1
102
RTVSPropertyOp6
 70
     1
102
RTVSPropertyOp7
 70
     1
102
RTVSPropertyOp8
 70
     1
102
RTVSPropertyOp9
 70
     1
102
RTVSPropertyOp10
 70
     1
102
RTVSPropertyOp11
 70
     1
102
RTVSPropertyOp12
 70
     1
102
RTVSPropertyOp13
 70
     1
102
RTVSPropertyOp14
 70
     1
102
RTVSPropertyOp15
 70
     1
102
RTVSPropertyOp16
 70
     1
102
RTVSPropertyOp17
 70
     1
102
RTVSPropertyOp18
 70
     1
102
RTVSPropertyOp19
 70
     1
102
RTVSPropertyOp20
 70
     1
102
RTVSPropertyOp21
 70
     1
102
RTVSPropertyOp22
 70
     1
102
RTVSPropertyOp23
 70
     1
102
RTVSPropertyOp24
 70
     1
102
RTVSPropertyOp25
 70
     1
102
RTVSPropertyOp26
 70
     1
102
RTVSPropertyOp27
 70
     1
102
RTVSPropertyOp28
 70
     1
102
RTVSPropertyOp29
 70
     1
102
RTVSPropertyOp30
 70
     1
102
RTVSPropertyOp31
 70
     1
102
RTVSPropertyOp32
 70
     1
  0
XRECORD
  5
92
102
{ACAD_REACTORS
330
91
102
}
330
91
100
AcDbXrecord
280
     1
102
RTVSPropertyOp0
 70
     1
102
RTVSPropertyOp1
 70
     1
102
RTVSPropertyOp2
 70
     1
102
RTVSPropertyOp3
 70
     1
102
RTVSPropertyOp4
 70
     1
102
RTVSPropertyOp5
 70
     1
102
RTVSPropertyOp6
 70
     1
102
RTVSPropertyOp7
 70
     1
102
RTVSPropertyOp8
 70
     1
102
RTVSPropertyOp9
 70
     1
102
RTVSPropertyOp10
 70
     1
102
RTVSPropertyOp11
 70
     1
102
RTVSPropertyOp12
 70
     1
102
RTVSPropertyOp13
 70
     1
102
RTVSPropertyOp14
 70
     1
102
RTVSPropertyOp15
 70
     1
102
RTVSPropertyOp16
 70
     1
102
RTVSPropertyOp17
 70
     1
102
RTVSPropertyOp18
 70
     1
102
RTVSPropertyOp19
 70
     1
102
RTVSPropertyOp20
 70
     1
102
RTVSPropertyOp21
 70
     1
102
RTVSPropertyOp22
 70
     1
102
RTVSPropertyOp23
 70
     1
102
RTVSPropertyOp24
 70
     1
102
RTVSPropertyOp25
 70
     1
102
RTVSPropertyOp26
 70
     1
102
RTVSPropertyOp27
 70
     1
102
RTVSPropertyOp28
 70
     1
102
RTVSPropertyOp29
 70
     1
102
RTVSPropertyOp30
 70
     1
102
RTVSPropertyOp31
 70
     1
102
RTVSPropertyOp32
 70
     1
  0
XRECORD
  5
9A
102
{ACAD_REACTORS
330
99
102
}
330
99
100
AcDbXrecord
280
     1
102
RTVSPropertyOp0
 70
     1
102
RTVSPropertyOp1
 70
     1
102
RTVSPropertyOp2
 70
     1
102
RTVSPropertyOp3
 70
     1
102
RTVSPropertyOp4
 70
     1
102
RTVSPropertyOp5
 70
     1
102
RTVSPropertyOp6
 70
     1
102
RTVSPropertyOp7
 70
     1
102
RTVSPropertyOp8
 70
     1
102
RTVSPropertyOp9
 70
     1
102
RTVSPropertyOp10
 70
     1
102
RTVSPropertyOp11
 70
     1
102
RTVSPropertyOp12
 70
     1
102
RTVSPropertyOp13
 70
     1
102
RTVSPropertyOp14
 70
     1
102
RTVSPropertyOp15
 70
     1
102
RTVSPropertyOp16
 70
     1
102
RTVSPropertyOp17
 70
     1
102
RTVSPropertyOp18
 70
     1
102
RTVSPropertyOp19
 70
     1
102
RTVSPropertyOp20
 70
     1
102
RTVSPropertyOp21
 70
     1
102
RTVSPropertyOp22
 70
     1
102
RTVSPropertyOp23
 70
     1
102
RTVSPropertyOp24
 70
     1
102
RTVSPropertyOp25
 70
     1
102
RTVSPropertyOp26
 70
     1
102
RTVSPropertyOp27
 70
     1
102
RTVSPropertyOp28
 70
     1
102
RTVSPropertyOp29
 70
     1
102
RTVSPropertyOp30
 70
     1
102
RTVSPropertyOp31
 70
     1
102
RTVSPropertyOp32
 70
     1
  0
XRECORD
  5
7E
102
{ACAD_REACTORS
330
7D
102
}
330
7D
100
AcDbXrecord
280
     1
102
RTVSPropertyOp0
 70
     1
102
RTVSPropertyOp1
 70
     1
102
RTVSPropertyOp2
 70
     1
102
RTVSPropertyOp3
 70
     1
102
RTVSPropertyOp4
 70
     1
102
RTVSPropertyOp5
 70
     1
102
RTVSPropertyOp6
 70
     1
102
RTVSPropertyOp7
 70
     1
102
RTVSPropertyOp8
 70
     1
102
RTVSPropertyOp9
 70
     1
102
RTVSPropertyOp10
 70
     1
102
RTVSPropertyOp11
 70
     1
102
RTVSPropertyOp12
 70
     1
102
RTVSPropertyOp13
 70
     1
102
RTVSPropertyOp14
 70
     1
102
RTVSPropertyOp15
 70
     1
102
RTVSPropertyOp16
 70
     1
102
RTVSPropertyOp17
 70
     1
102
RTVSPropertyOp18
 70
     1
102
RTVSPropertyOp19
 70
     1
102
RTVSPropertyOp20
 70
     1
102
RTVSPropertyOp21
 70
     1
102
RTVSPropertyOp22
 70
     1
102
RTVSPropertyOp23
 70
     1
102
RTVSPropertyOp24
 70
     1
102
RTVSPropertyOp25
 70
     1
102
RTVSPropertyOp26
 70
     1
102
RTVSPropertyOp27
 70
     1
102
RTVSPropertyOp28
 70
     1
102
RTVSPropertyOp29
 70
     1
102
RTVSPropertyOp30
 70
     1
102
RTVSPropertyOp31
 70
     1
102
RTVSPropertyOp32
 70
     1
  0
XRECORD
  5
80
102
{ACAD_REACTORS
330
7F
102
}
330
7F
100
AcDbXrecord
280
     1
102
RTVSPropertyOp0
 70
     1
102
RTVSPropertyOp1
 70
     1
102
RTVSPropertyOp2
 70
     1
102
RTVSPropertyOp3
 70
     1
102
RTVSPropertyOp4
 70
     1
102
RTVSPropertyOp5
 70
     1
102
RTVSPropertyOp6
 70
     1
102
RTVSPropertyOp7
 70
     1
102
RTVSPropertyOp8
 70
     1
102
RTVSPropertyOp9
 70
     1
102
RTVSPropertyOp10
 70
     1
102
RTVSPropertyOp11
 70
     1
102
RTVSPropertyOp12
 70
     1
102
RTVSPropertyOp13
 70
     1
102
RTVSPropertyOp14
 70
     1
102
RTVSPropertyOp15
 70
     1
102
RTVSPropertyOp16
 70
     1
102
RTVSPropertyOp17
 70
     1
102
RTVSPropertyOp18
 70
     1
102
RTVSPropertyOp19
 70
     1
102
RTVSPropertyOp20
 70
     1
102
RTVSPropertyOp21
 70
     1
102
RTVSPropertyOp22
 70
     1
102
RTVSPropertyOp23
 70
     1
102
RTVSPropertyOp24
 70
     1
102
RTVSPropertyOp25
 70
     1
102
RTVSPropertyOp26
 70
     1
102
RTVSPropertyOp27
 70
     1
102
RTVSPropertyOp28
 70
     1
102
RTVSPropertyOp29
 70
     1
102
RTVSPropertyOp30
 70
     1
102
RTVSPropertyOp31
 70
     1
102
RTVSPropertyOp32
 70
     1
  0
XRECORD
  5
82
102
{ACAD_REACTORS
330
81
102
}
330
81
100
AcDbXrecord
280
     1
102
RTVSPropertyOp0
 70
     1
102
RTVSPropertyOp1
 70
     1
102
RTVSPropertyOp2
 70
     1
102
RTVSPropertyOp3
 70
     1
102
RTVSPropertyOp4
 70
     1
102
RTVSPropertyOp5
 70
     1
102
RTVSPropertyOp6
 70
     1
102
RTVSPropertyOp7
 70
     1
102
RTVSPropertyOp8
 70
     1
102
RTVSPropertyOp9
 70
     1
102
RTVSPropertyOp10
 70
     1
102
RTVSPropertyOp11
 70
     1
102
RTVSPropertyOp12
 70
     1
102
RTVSPropertyOp13
 70
     1
102
RTVSPropertyOp14
 70
     1
102
RTVSPropertyOp15
 70
     1
102
RTVSPropertyOp16
 70
     1
102
RTVSPropertyOp17
 70
     1
102
RTVSPropertyOp18
 70
     1
102
RTVSPropertyOp19
 70
     1
102
RTVSPropertyOp20
 70
     1
102
RTVSPropertyOp21
 70
     1
102
RTVSPropertyOp22
 70
     1
102
RTVSPropertyOp23
 70
     1
102
RTVSPropertyOp24
 70
     1
102
RTVSPropertyOp25
 70
     1
102
RTVSPropertyOp26
 70
     1
102
RTVSPropertyOp27
 70
     1
102
RTVSPropertyOp28
 70
     1
102
RTVSPropertyOp29
 70
     1
102
RTVSPropertyOp30
 70
     1
102
RTVSPropertyOp31
 70
     1
102
RTVSPropertyOp32
 70
     1
  0
XRECORD
  5
84
102
{ACAD_REACTORS
330
83
102
}
330
83
100
AcDbXrecord
280
     1
102
RTVSPropertyOp0
 70
     1
102
RTVSPropertyOp1
 70
     1
102
RTVSPropertyOp2
 70
     1
102
RTVSPropertyOp3
 70
     1
102
RTVSPropertyOp4
 70
     1
102
RTVSPropertyOp5
 70
     1
102
RTVSPropertyOp6
 70
     1
102
RTVSPropertyOp7
 70
     1
102
RTVSPropertyOp8
 70
     1
102
RTVSPropertyOp9
 70
     1
102
RTVSPropertyOp10
 70
     1
102
RTVSPropertyOp11
 70
     1
102
RTVSPropertyOp12
 70
     1
102
RTVSPropertyOp13
 70
     1
102
RTVSPropertyOp14
 70
     1
102
RTVSPropertyOp15
 70
     1
102
RTVSPropertyOp16
 70
     1
102
RTVSPropertyOp17
 70
     1
102
RTVSPropertyOp18
 70
     1
102
RTVSPropertyOp19
 70
     1
102
RTVSPropertyOp20
 70
     1
102
RTVSPropertyOp21
 70
     1
102
RTVSPropertyOp22
 70
     1
102
RTVSPropertyOp23
 70
     1
102
RTVSPropertyOp24
 70
     1
102
RTVSPropertyOp25
 70
     1
102
RTVSPropertyOp26
 70
     1
102
RTVSPropertyOp27
 70
     1
102
RTVSPropertyOp28
 70
     1
102
RTVSPropertyOp29
 70
     1
102
RTVSPropertyOp30
 70
     1
102
RTVSPropertyOp31
 70
     1
102
RTVSPropertyOp32
 70
     1
  0
XRECORD
  5
98
102
{ACAD_REACTORS
330
97
102
}
330
97
100
AcDbXrecord
280
     1
102
RTVSPropertyOp0
 70
     1
102
RTVSPropertyOp1
 70
     1
102
RTVSPropertyOp2
 70
     1
102
RTVSPropertyOp3
 70
     1
102
RTVSPropertyOp4
 70
     1
102
RTVSPropertyOp5
 70
     1
102
RTVSPropertyOp6
 70
     1
102
RTVSPropertyOp7
 70
     1
102
RTVSPropertyOp8
 70
     1
102
RTVSPropertyOp9
 70
     1
102
RTVSPropertyOp10
 70
     1
102
RTVSPropertyOp11
 70
     1
102
RTVSPropertyOp12
 70
     1
102
RTVSPropertyOp13
 70
     1
102
RTVSPropertyOp14
 70
     1
102
RTVSPropertyOp15
 70
     1
102
RTVSPropertyOp16
 70
     1
102
RTVSPropertyOp17
 70
     1
102
RTVSPropertyOp18
 70
     1
102
RTVSPropertyOp19
 70
     1
102
RTVSPropertyOp20
 70
     1
102
RTVSPropertyOp21
 70
     1
102
RTVSPropertyOp22
 70
     1
102
RTVSPropertyOp23
 70
     1
102
RTVSPropertyOp24
 70
     1
102
RTVSPropertyOp25
 70
     1
102
RTVSPropertyOp26
 70
     1
102
RTVSPropertyOp27
 70
     1
102
RTVSPropertyOp28
 70
     1
102
RTVSPropertyOp29
 70
     1
102
RTVSPropertyOp30
 70
     1
102
RTVSPropertyOp31
 70
     1
102
RTVSPropertyOp32
 70
     1
  0
XRECORD
  5
8E
102
{ACAD_REACTORS
330
8D
102
}
330
8D
100
AcDbXrecord
280
     1
102
RTVSPropertyOp0
 70
     1
102
RTVSPropertyOp1
 70
     1
102
RTVSPropertyOp2
 70
     1
102
RTVSPropertyOp3
 70
     1
102
RTVSPropertyOp4
 70
     1
102
RTVSPropertyOp5
 70
     1
102
RTVSPropertyOp6
 70
     1
102
RTVSPropertyOp7
 70
     1
102
RTVSPropertyOp8
 70
     1
102
RTVSPropertyOp9
 70
     1
102
RTVSPropertyOp10
 70
     1
102
RTVSPropertyOp11
 70
     1
102
RTVSPropertyOp12
 70
     1
102
RTVSPropertyOp13
 70
     1
102
RTVSPropertyOp14
 70
     1
102
RTVSPropertyOp15
 70
     1
102
RTVSPropertyOp16
 70
     1
102
RTVSPropertyOp17
 70
     1
102
RTVSPropertyOp18
 70
     1
102
RTVSPropertyOp19
 70
     1
102
RTVSPropertyOp20
 70
     1
102
RTVSPropertyOp21
 70
     1
102
RTVSPropertyOp22
 70
     1
102
RTVSPropertyOp23
 70
     1
102
RTVSPropertyOp24
 70
     1
102
RTVSPropertyOp25
 70
     1
102
RTVSPropertyOp26
 70
     1
102
RTVSPropertyOp27
 70
     1
102
RTVSPropertyOp28
 70
     1
102
RTVSPropertyOp29
 70
     1
102
RTVSPropertyOp30
 70
     1
102
RTVSPropertyOp31
 70
     1
102
RTVSPropertyOp32
 70
     1
  0
XRECORD
  5
96
102
{ACAD_REACTORS
330
95
102
}
330
95
100
AcDbXrecord
280
     1
102
RTVSPropertyOp0
 70
     1
102
RTVSPropertyOp1
 70
     1
102
RTVSPropertyOp2
 70
     1
102
RTVSPropertyOp3
 70
     1
102
RTVSPropertyOp4
 70
     1
102
RTVSPropertyOp5
 70
     1
102
RTVSPropertyOp6
 70
     1
102
RTVSPropertyOp7
 70
     1
102
RTVSPropertyOp8
 70
     1
102
RTVSPropertyOp9
 70
     1
102
RTVSPropertyOp10
 70
     1
102
RTVSPropertyOp11
 70
     1
102
RTVSPropertyOp12
 70
     1
102
RTVSPropertyOp13
 70
     1
102
RTVSPropertyOp14
 70
     1
102
RTVSPropertyOp15
 70
     1
102
RTVSPropertyOp16
 70
     1
102
RTVSPropertyOp17
 70
     1
102
RTVSPropertyOp18
 70
     1
102
RTVSPropertyOp19
 70
     1
102
RTVSPropertyOp20
 70
     1
102
RTVSPropertyOp21
 70
     1
102
RTVSPropertyOp22
 70
     1
102
RTVSPropertyOp23
 70
     1
102
RTVSPropertyOp24
 70
     1
102
RTVSPropertyOp25
 70
     1
102
RTVSPropertyOp26
 70
     1
102
RTVSPropertyOp27
 70
     1
102
RTVSPropertyOp28
 70
     1
102
RTVSPropertyOp29
 70
     1
102
RTVSPropertyOp30
 70
     1
102
RTVSPropertyOp31
 70
     1
102
RTVSPropertyOp32
 70
     1
  0
ENDSEC
  0
EOF
