  0
SECTION
  2
HEADER
  9
$ACADVER
  1
AC1021
  9
$ACADMAINTVER
 70
    25
  9
$DWGCODEPAGE
  3
ANSI_1256
  9
$INSBASE
 10
0.0
 20
0.0
 30
0.0
  9
$EXTMIN
 10
-187.5479
 20
-112.0791
 30
0.0
  9
$EXTMAX
 10
-77.8125
 20
127.6333
 30
0.0
  9
$LIMMIN
 10
0.0
 20
0.0
  9
$LIMMAX
 10
12.0
 20
9.0
  9
$ORTHOMODE
 70
     0
  9
$REGENMODE
 70
     1
  9
$FILLMODE
 70
     1
  9
$QTEXTMODE
 70
     0
  9
$MIRRTEXT
 70
     1
  9
$LTSCALE
 40
1.0
  9
$ATTMODE
 70
     1
  9
$TEXTSIZE
 40
0.2
  9
$TRACEWID
 40
0.05
  9
$TEXTSTYLE
  7
Standard
  9
$CLAYER
  8
0
  9
$CELTYPE
  6
ByLayer
  9
$CECOLOR
 62
   256
  9
$CELTSCALE
 40
1.0
  9
$DISPSILH
 70
     0
  9
$DIMSCALE
 40
1.0
  9
$DIMASZ
 40
0.18
  9
$DIMEXO
 40
0.0625
  9
$DIMDLI
 40
0.38
  9
$DIMRND
 40
0.0
  9
$DIMDLE
 40
0.0
  9
$DIMEXE
 40
0.18
  9
$DIMTP
 40
0.0
  9
$DIMTM
 40
0.0
  9
$DIMTXT
 40
0.18
  9
$DIMCEN
 40
0.09
  9
$DIMTSZ
 40
0.0
  9
$DIMTOL
 70
     0
  9
$DIMLIM
 70
     0
  9
$DIMTIH
 70
     1
  9
$DIMTOH
 70
     1
  9
$DIMSE1
 70
     0
  9
$DIMSE2
 70
     0
  9
$DIMTAD
 70
     0
  9
$DIMZIN
 70
     0
  9
$DIMBLK
  1

  9
$DIMASO
 70
     1
  9
$DIMSHO
 70
     1
  9
$DIMPOST
  1

  9
$DIMAPOST
  1

  9
$DIMALT
 70
     0
  9
$DIMALTD
 70
     2
  9
$DIMALTF
 40
25.4
  9
$DIMLFAC
 40
1.0
  9
$DIMTOFL
 70
     0
  9
$DIMTVP
 40
0.0
  9
$DIMTIX
 70
     0
  9
$DIMSOXD
 70
     0
  9
$DIMSAH
 70
     0
  9
$DIMBLK1
  1

  9
$DIMBLK2
  1

  9
$DIMSTYLE
  2
Standard
  9
$DIMCLRD
 70
     0
  9
$DIMCLRE
 70
     0
  9
$DIMCLRT
 70
     0
  9
$DIMTFAC
 40
1.0
  9
$DIMGAP
 40
0.09
  9
$DIMJUST
 70
     0
  9
$DIMSD1
 70
     0
  9
$DIMSD2
 70
     0
  9
$DIMTOLJ
 70
     1
  9
$DIMTZIN
 70
     0
  9
$DIMALTZ
 70
     0
  9
$DIMALTTZ
 70
     0
  9
$DIMUPT
 70
     0
  9
$DIMDEC
 70
     4
  9
$DIMTDEC
 70
     4
  9
$DIMALTU
 70
     2
  9
$DIMALTTD
 70
     2
  9
$DIMTXSTY
  7
Standard
  9
$DIMAUNIT
 70
     0
  9
$DIMADEC
 70
     0
  9
$DIMALTRND
 40
0.0
  9
$DIMAZIN
 70
     0
  9
$DIMDSEP
 70
    46
  9
$DIMATFIT
 70
     3
  9
$DIMFRAC
 70
     0
  9
$DIMLDRBLK
  1

  9
$DIMLUNIT
 70
     2
  9
$DIMLWD
 70
    -2
  9
$DIMLWE
 70
    -2
  9
$DIMTMOVE
 70
     0
  9
$DIMFXL
 40
1.0
  9
$DIMFXLON
 70
     0
  9
$DIMJOGANG
 40
0.7853981633974483
  9
$DIMTFILL
 70
     0
  9
$DIMTFILLCLR
 70
     0
  9
$DIMARCSYM
 70
     0
  9
$DIMLTYPE
  6

  9
$DIMLTEX1
  6

  9
$DIMLTEX2
  6

  9
$LUNITS
 70
     2
  9
$LUPREC
 70
     4
  9
$SKETCHINC
 40
0.1
  9
$FILLETRAD
 40
0.5
  9
$AUNITS
 70
     0
  9
$AUPREC
 70
     0
  9
$MENU
  1
.
  9
$ELEVATION
 40
0.0
  9
$PELEVATION
 40
0.0
  9
$THICKNESS
 40
0.0
  9
$LIMCHECK
 70
     0
  9
$CHAMFERA
 40
0.5
  9
$CHAMFERB
 40
0.5
  9
$CHAMFERC
 40
1.0
  9
$CHAMFERD
 40
0.0
  9
$SKPOLY
 70
     0
  9
$TDCREATE
 40
2458479.376357292
  9
$TDUCREATE
 40
2458479.209690625
  9
$TDUPDATE
 40
2458479.376357523
  9
$TDUUPDATE
 40
2458479.209690856
  9
$TDINDWG
 40
0.0000000116
  9
$TDUSRTIMER
 40
0.0000000116
  9
$USRTIMER
 70
     1
  9
$ANGBASE
 50
0.0
  9
$ANGDIR
 70
     0
  9
$PDMODE
 70
     0
  9
$PDSIZE
 40
0.0
  9
$PLINEWID
 40
0.0
  9
$SPLFRAME
 70
     0
  9
$SPLINETYPE
 70
     6
  9
$SPLINESEGS
 70
     8
  9
$HANDSEED
  5
F5
  9
$SURFTAB1
 70
     6
  9
$SURFTAB2
 70
     6
  9
$SURFTYPE
 70
     6
  9
$SURFU
 70
     6
  9
$SURFV
 70
     6
  9
$UCSBASE
  2

  9
$UCSNAME
  2

  9
$UCSORG
 10
0.0
 20
0.0
 30
0.0
  9
$UCSXDIR
 10
1.0
 20
0.0
 30
0.0
  9
$UCSYDIR
 10
0.0
 20
1.0
 30
0.0
  9
$UCSORTHOREF
  2

  9
$UCSORTHOVIEW
 70
     0
  9
$UCSORGTOP
 10
0.0
 20
0.0
 30
0.0
  9
$UCSORGBOTTOM
 10
0.0
 20
0.0
 30
0.0
  9
$UCSORGLEFT
 10
0.0
 20
0.0
 30
0.0
  9
$UCSORGRIGHT
 10
0.0
 20
0.0
 30
0.0
  9
$UCSORGFRONT
 10
0.0
 20
0.0
 30
0.0
  9
$UCSORGBACK
 10
0.0
 20
0.0
 30
0.0
  9
$PUCSBASE
  2

  9
$PUCSNAME
  2

  9
$PUCSORG
 10
0.0
 20
0.0
 30
0.0
  9
$PUCSXDIR
 10
1.0
 20
0.0
 30
0.0
  9
$PUCSYDIR
 10
0.0
 20
1.0
 30
0.0
  9
$PUCSORTHOREF
  2

  9
$PUCSORTHOVIEW
 70
     0
  9
$PUCSORGTOP
 10
0.0
 20
0.0
 30
0.0
  9
$PUCSORGBOTTOM
 10
0.0
 20
0.0
 30
0.0
  9
$PUCSORGLEFT
 10
0.0
 20
0.0
 30
0.0
  9
$PUCSORGRIGHT
 10
0.0
 20
0.0
 30
0.0
  9
$PUCSORGFRONT
 10
0.0
 20
0.0
 30
0.0
  9
$PUCSORGBACK
 10
0.0
 20
0.0
 30
0.0
  9
$USERI1
 70
     0
  9
$USERI2
 70
     0
  9
$USERI3
 70
     0
  9
$USERI4
 70
     0
  9
$USERI5
 70
     0
  9
$USERR1
 40
0.0
  9
$USERR2
 40
0.0
  9
$USERR3
 40
0.0
  9
$USERR4
 40
0.0
  9
$USERR5
 40
0.0
  9
$WORLDVIEW
 70
     1
  9
$SHADEDGE
 70
     3
  9
$SHADEDIF
 70
    70
  9
$TILEMODE
 70
     1
  9
$MAXACTVP
 70
    64
  9
$PINSBASE
 10
0.0
 20
0.0
 30
0.0
  9
$PLIMCHECK
 70
     0
  9
$PEXTMIN
 10
1.000000000000000E+20
 20
1.000000000000000E+20
 30
1.000000000000000E+20
  9
$PEXTMAX
 10
-1.000000000000000E+20
 20
-1.000000000000000E+20
 30
-1.000000000000000E+20
  9
$PLIMMIN
 10
0.0
 20
0.0
  9
$PLIMMAX
 10
12.0
 20
9.0
  9
$UNITMODE
 70
     0
  9
$VISRETAIN
 70
     1
  9
$PLINEGEN
 70
     0
  9
$PSLTSCALE
 70
     1
  9
$TREEDEPTH
 70
  3020
  9
$CMLSTYLE
  2
Standard
  9
$CMLJUST
 70
     0
  9
$CMLSCALE
 40
1.0
  9
$PROXYGRAPHICS
 70
     1
  9
$MEASUREMENT
 70
     0
  9
$CELWEIGHT
370
    -1
  9
$ENDCAPS
280
     0
  9
$JOINSTYLE
280
     0
  9
$LWDISPLAY
290
     0
  9
$INSUNITS
 70
     4
  9
$HYPERLINKBASE
  1

  9
$STYLESHEET
  1

  9
$XEDIT
290
     1
  9
$CEPSNTYPE
380
     0
  9
$PSTYLEMODE
290
     1
  9
$FINGERPRINTGUID
  2
{E66BC873-87EF-4DEA-98AC-287861991F8D}
  9
$VERSIONGUID
  2
{FAEB1C32-E019-11D5-929B-00C0DF256EC4}
  9
$EXTNAMES
290
     1
  9
$PSVPSCALE
 40
0.0
  9
$OLESTARTUP
290
     0
  9
$SORTENTS
280
   127
  9
$INDEXCTL
280
     0
  9
$HIDETEXT
280
     1
  9
$XCLIPFRAME
290
     0
  9
$HALOGAP
280
     0
  9
$OBSCOLOR
 70
   257
  9
$OBSLTYPE
280
     0
  9
$INTERSECTIONDISPLAY
280
     0
  9
$INTERSECTIONCOLOR
 70
   257
  9
$DIMASSOC
280
     2
  9
$PROJECTNAME
  1

  9
$CAMERADISPLAY
290
     0
  9
$LENSLENGTH
 40
50.0
  9
$CAMERAHEIGHT
 40
0.0
  9
$STEPSPERSEC
 40
2.0
  9
$STEPSIZE
 40
6.0
  9
$3DDWFPREC
 40
2.0
  9
$PSOLWIDTH
 40
0.25
  9
$PSOLHEIGHT
 40
4.0
  9
$LOFTANG1
 40
1.570796326794897
  9
$LOFTANG2
 40
1.570796326794897
  9
$LOFTMAG1
 40
0.0
  9
$LOFTMAG2
 40
0.0
  9
$LOFTPARAM
 70
     7
  9
$LOFTNORMALS
280
     1
  9
$LATITUDE
 40
37.795
  9
$LONGITUDE
 40
-122.394
  9
$NORTHDIRECTION
 40
0.0
  9
$TIMEZONE
 70
 -8000
  9
$LIGHTGLYPHDISPLAY
280
     1
  9
$TILEMODELIGHTSYNCH
280
     1
  9
$SOLIDHIST
280
     1
  9
$SHOWHIST
280
     1
  9
$DWFFRAME
280
     2
  9
$DGNFRAME
280
     2
  9
$REALWORLDSCALE
290
     1
  9
$INTERFERECOLOR
 62
   256
  9
$CSHADOW
280
     0
  9
$SHADOWPLANELOCATION
 40
0.0
  0
ENDSEC
  0
SECTION
  2
CLASSES
  0
CLASS
  1
ACDBDICTIONARYWDFLT
  2
AcDbDictionaryWithDefault
  3
ObjectDBX Classes
 90
        0
 91
        4
280
     0
281
     0
  0
CLASS
  1
VISUALSTYLE
  2
AcDbVisualStyle
  3
ObjectDBX Classes
 90
     4095
 91
        4
280
     0
281
     0
  0
CLASS
  1
MATERIAL
  2
AcDbMaterial
  3
ObjectDBX Classes
 90
     1153
 91
        4
280
     0
281
     0
  0
ENDSEC
  0
SECTION
  2
TABLES
  0
TABLE
  2
VPORT
  5
8
330
0
100
AcDbSymbolTable
 70
     1
  0
VPORT
  5
29
330
8
100
AcDbSymbolTableRecord
100
AcDbViewportTableRecord
  2
*Active
 70
     0
 10
0.0
 20
0.0
 11
1.0
 21
1.0
 12
10.42990654205607
 22
4.5
 13
0.0
 23
0.0
 14
0.5
 24
0.5
 15
0.5
 25
0.5
 16
0.0
 26
0.0
 36
1.0
 17
0.0
 27
0.0
 37
0.0
 40
9.0
 41
1.972972972850329
 42
50.0
 43
0.0
 44
0.0
 50
0.0
 51
0.0
 71
     0
 72
   100
 73
     1
 74
     3
 75
     0
 76
     0
 77
     0
 78
     0
281
     0
 65
     1
110
0.0
120
0.0
130
0.0
111
1.0
121
0.0
131
0.0
112
0.0
122
1.0
132
0.0
 79
     0
146
0.0
 60
     3
 61
     5
292
     1
282
     1
141
0.0
142
0.0
 63
   250
  0
ENDTAB
  0
TABLE
  2
LTYPE
  5
5
330
0
100
AcDbSymbolTable
 70
     1
  0
LTYPE
  5
14
330
5
100
AcDbSymbolTableRecord
100
AcDbLinetypeTableRecord
  2
ByBlock
 70
     0
  3

 72
    65
 73
     0
 40
0.0
  0
LTYPE
  5
15
330
5
100
AcDbSymbolTableRecord
100
AcDbLinetypeTableRecord
  2
ByLayer
 70
     0
  3

 72
    65
 73
     0
 40
0.0
  0
LTYPE
  5
16
330
5
100
AcDbSymbolTableRecord
100
AcDbLinetypeTableRecord
  2
Continuous
 70
     0
  3
Solid line
 72
    65
 73
     0
 40
0.0
  0
ENDTAB
  0
TABLE
  2
LAYER
  5
2
330
0
100
AcDbSymbolTable
 70
     3
  0
LAYER
  5
10
330
2
100
AcDbSymbolTableRecord
100
AcDbLayerTableRecord
  2
0
 70
     0
 62
     7
  6
Continuous
370
    -3
390
F
347
3E
  0
LAYER
  5
40
330
2
100
AcDbSymbolTableRecord
100
AcDbLayerTableRecord
  2
layer 1
 70
     0
 62
     7
  6
Continuous
370
    -3
390
F
347
3E
  0
LAYER
  5
D2
330
2
100
AcDbSymbolTableRecord
100
AcDbLayerTableRecord
  2
Master Guides
 70
     0
 62
     7
  6
Continuous
370
    -3
390
F
347
3E
  0
ENDTAB
  0
TABLE
  2
STYLE
  5
3
330
0
100
AcDbSymbolTable
 70
     1
  0
STYLE
  5
11
330
3
100
AcDbSymbolTableRecord
100
AcDbTextStyleTableRecord
  2
Standard
 70
     0
 40
0.0
 41
1.0
 50
0.0
 71
     0
 42
0.2
  3
txt
  4

  0
ENDTAB
  0
TABLE
  2
VIEW
  5
6
330
0
100
AcDbSymbolTable
 70
     0
  0
ENDTAB
  0
TABLE
  2
UCS
  5
7
330
0
100
AcDbSymbolTable
 70
     0
  0
ENDTAB
  0
TABLE
  2
APPID
  5
9
330
0
100
AcDbSymbolTable
 70
     2
  0
APPID
  5
12
330
9
100
AcDbSymbolTableRecord
100
AcDbRegAppTableRecord
  2
ACAD
 70
     0
  0
APPID
  5
3F
330
9
100
AcDbSymbolTableRecord
100
AcDbRegAppTableRecord
  2
ODA
 70
     0
  0
ENDTAB
  0
TABLE
  2
DIMSTYLE
  5
A
330
0
100
AcDbSymbolTable
 70
     1
100
AcDbDimStyleTable
  0
DIMSTYLE
105
27
330
A
100
AcDbSymbolTableRecord
100
AcDbDimStyleTableRecord
  2
Standard
 70
     0
178
     0
340
11
  0
ENDTAB
  0
TABLE
  2
BLOCK_RECORD
  5
1
330
0
100
AcDbSymbolTable
 70
     1
  0
BLOCK_RECORD
  5
1F
330
1
100
AcDbSymbolTableRecord
100
AcDbBlockTableRecord
  2
*Model_Space
340
22
 70
     0
280
     1
281
     0
  0
BLOCK_RECORD
  5
1B
330
1
100
AcDbSymbolTableRecord
100
AcDbBlockTableRecord
  2
*Paper_Space
340
1E
 70
     0
280
     1
281
     0
  0
BLOCK_RECORD
  5
23
330
1
100
AcDbSymbolTableRecord
100
AcDbBlockTableRecord
  2
*Paper_Space0
340
26
 70
     0
280
     1
281
     0
  0
ENDTAB
  0
ENDSEC
  0
SECTION
  2
BLOCKS
  0
BLOCK
  5
20
330
1F
100
AcDbEntity
  8
0
100
AcDbBlockBegin
  2
*Model_Space
 70
     0
 10
0.0
 20
0.0
 30
0.0
  3
*Model_Space
  1

  0
ENDBLK
  5
21
330
1F
100
AcDbEntity
  8
0
100
AcDbBlockEnd
  0
BLOCK
  5
1C
330
1B
100
AcDbEntity
 67
     1
  8
0
100
AcDbBlockBegin
  2
*Paper_Space
 70
     0
 10
0.0
 20
0.0
 30
0.0
  3
*Paper_Space
  1

  0
ENDBLK
  5
1D
330
1B
100
AcDbEntity
 67
     1
  8
0
100
AcDbBlockEnd
  0
BLOCK
  5
24
330
23
100
AcDbEntity
  8
0
100
AcDbBlockBegin
  2
*Paper_Space0
 70
     0
 10
0.0
 20
0.0
 30
0.0
  3
*Paper_Space0
  1

  0
ENDBLK
  5
25
330
23
100
AcDbEntity
  8
0
100
AcDbBlockEnd
  0
ENDSEC
  0
SECTION
  2
ENTITIES
  0
SPLINE
  5
41
330
1F
100
AcDbEntity
  8
layer 1
 62
   250
100
AcDbSpline
210
0.0
220
0.0
230
1.0
 70
    11
 71
     3
 72
    20
 73
    16
 74
     0
 42
0.0000000001
 43
0.0000000001
 12
1.0
 22
0.0
 32
0.0
 13
1.0
 23
0.0
 33
0.0
 40
0.0
 40
0.0
 40
0.0
 40
0.0
 40
0.2
 40
0.2
 40
0.2
 40
0.2
 40
0.4
 40
0.4
 40
0.4
 40
0.4
 40
0.6
 40
0.6
 40
0.6
 40
0.6
 40
1.0
 40
1.0
 40
1.0
 40
1.0
 10
-187.5479
 20
127.6333
 30
0.0
 10
-187.5479
 20
127.6333
 30
0.0
 10
-77.8125
 20
127.6333
 30
0.0
 10
-77.8125
 20
127.6333
 30
0.0
 10
-77.8125
 20
127.6333
 30
0.0
 10
-77.8125
 20
127.6333
 30
0.0
 10
-77.8125
 20
-112.0791
 30
0.0
 10
-77.8125
 20
-112.0791
 30
0.0
 10
-77.8125
 20
-112.0791
 30
0.0
 10
-77.8125
 20
-112.0791
 30
0.0
 10
-187.5479
 20
-112.0791
 30
0.0
 10
-187.5479
 20
-112.0791
 30
0.0
 10
-187.5479
 20
-112.0791
 30
0.0
 10
-187.5479
 20
-112.0791
 30
0.0
 10
-187.5479
 20
127.6333
 30
0.0
 10
-187.5479
 20
127.6333
 30
0.0
  0
SPLINE
  5
42
330
1F
100
AcDbEntity
  8
layer 1
 62
     7
100
AcDbSpline
210
0.0
220
0.0
230
1.0
 70
    11
 71
     3
 72
    20
 73
    16
 74
     0
 42
0.0000000001
 43
0.0000000001
 12
1.0
 22
0.0
 32
0.0
 13
1.0
 23
0.0
 33
0.0
 40
0.0
 40
0.0
 40
0.0
 40
0.0
 40
0.2
 40
0.2
 40
0.2
 40
0.2
 40
0.4
 40
0.4
 40
0.4
 40
0.4
 40
0.6
 40
0.6
 40
0.6
 40
0.6
 40
1.0
 40
1.0
 40
1.0
 40
1.0
 10
-171.808
 20
116.4633
 30
0.0
 10
-175.8807
 20
116.4633
 30
0.0
 10
-179.1848
 20
119.7663
 30
0.0
 10
-179.1848
 20
123.8391
 30
0.0
 10
-179.1848
 20
123.8391
 30
0.0
 10
-179.1848
 20
123.8391
 30
0.0
 10
-164.4321
 20
123.8392
 30
0.0
 10
-164.4321
 20
123.8392
 30
0.0
 10
-164.4321
 20
123.8392
 30
0.0
 10
-164.4321
 20
119.7666
 30
0.0
 10
-167.7365
 20
116.4633
 30
0.0
 10
-171.8092
 20
116.4633
 30
0.0
 10
-171.8092
 20
116.4633
 30
0.0
 10
-171.8092
 20
116.4633
 30
0.0
 10
-171.808
 20
116.4633
 30
0.0
 10
-171.808
 20
116.4633
 30
0.0
  0
SPLINE
  5
43
330
1F
100
AcDbEntity
  8
layer 1
 62
     7
100
AcDbSpline
210
0.0
220
0.0
230
1.0
 70
    11
 71
     3
 72
    20
 73
    16
 74
     0
 42
0.0000000001
 43
0.0000000001
 12
1.0
 22
0.0
 32
0.0
 13
1.0
 23
0.0
 33
0.0
 40
0.0
 40
0.0
 40
0.0
 40
0.0
 40
0.2
 40
0.2
 40
0.2
 40
0.2
 40
0.4
 40
0.4
 40
0.4
 40
0.4
 40
0.6
 40
0.6
 40
0.6
 40
0.6
 40
1.0
 40
1.0
 40
1.0
 40
1.0
 10
-171.808
 20
107.7736
 30
0.0
 10
-175.8807
 20
107.7736
 30
0.0
 10
-179.1848
 20
104.4702
 30
0.0
 10
-179.1848
 20
100.3974
 30
0.0
 10
-179.1848
 20
100.3974
 30
0.0
 10
-179.1848
 20
100.3974
 30
0.0
 10
-164.4321
 20
100.3977
 30
0.0
 10
-164.4321
 20
100.3977
 30
0.0
 10
-164.4321
 20
100.3977
 30
0.0
 10
-164.4321
 20
104.4705
 30
0.0
 10
-167.7365
 20
107.7733
 30
0.0
 10
-171.8092
 20
107.7733
 30
0.0
 10
-171.8092
 20
107.7733
 30
0.0
 10
-171.8092
 20
107.7733
 30
0.0
 10
-171.808
 20
107.7736
 30
0.0
 10
-171.808
 20
107.7736
 30
0.0
  0
SPLINE
  5
44
330
1F
100
AcDbEntity
  8
layer 1
 62
     7
100
AcDbSpline
210
0.0
220
0.0
230
1.0
 70
    11
 71
     3
 72
    20
 73
    16
 74
     0
 42
0.0000000001
 43
0.0000000001
 12
1.0
 22
0.0
 32
0.0
 13
1.0
 23
0.0
 33
0.0
 40
0.0
 40
0.0
 40
0.0
 40
0.0
 40
0.2
 40
0.2
 40
0.2
 40
0.2
 40
0.4
 40
0.4
 40
0.4
 40
0.4
 40
0.6
 40
0.6
 40
0.6
 40
0.6
 40
1.0
 40
1.0
 40
1.0
 40
1.0
 10
-167.4632
 20
112.1185
 30
0.0
 10
-167.4632
 20
116.1912
 30
0.0
 10
-164.1613
 20
119.4939
 30
0.0
 10
-160.0882
 20
119.4939
 30
0.0
 10
-160.0882
 20
119.4939
 30
0.0
 10
-160.0882
 20
119.4939
 30
0.0
 10
-160.087
 20
104.7426
 30
0.0
 10
-160.087
 20
104.7426
 30
0.0
 10
-160.087
 20
104.7426
 30
0.0
 10
-164.16
 20
104.7426
 30
0.0
 10
-167.4644
 20
108.0456
 30
0.0
 10
-167.4644
 20
112.1183
 30
0.0
 10
-167.4644
 20
112.1183
 30
0.0
 10
-167.4644
 20
112.1183
 30
0.0
 10
-167.4632
 20
112.1185
 30
0.0
 10
-167.4632
 20
112.1185
 30
0.0
  0
SPLINE
  5
45
330
1F
100
AcDbEntity
  8
layer 1
 62
     7
100
AcDbSpline
210
0.0
220
0.0
230
1.0
 70
    11
 71
     3
 72
    20
 73
    16
 74
     0
 42
0.0000000001
 43
0.0000000001
 12
1.0
 22
0.0
 32
0.0
 13
1.0
 23
0.0
 33
0.0
 40
0.0
 40
0.0
 40
0.0
 40
0.0
 40
0.2
 40
0.2
 40
0.2
 40
0.2
 40
0.4
 40
0.4
 40
0.4
 40
0.4
 40
0.6
 40
0.6
 40
0.6
 40
0.6
 40
1.0
 40
1.0
 40
1.0
 40
1.0
 10
-176.153
 20
112.1185
 30
0.0
 10
-176.153
 20
116.1912
 30
0.0
 10
-179.4572
 20
119.4939
 30
0.0
 10
-183.5299
 20
119.4939
 30
0.0
 10
-183.5299
 20
119.4939
 30
0.0
 10
-183.5299
 20
119.4939
 30
0.0
 10
-183.5288
 20
104.7426
 30
0.0
 10
-183.5288
 20
104.7426
 30
0.0
 10
-183.5288
 20
104.7426
 30
0.0
 10
-179.4562
 20
104.7426
 30
0.0
 10
-176.1543
 20
108.0453
 30
0.0
 10
-176.1543
 20
112.1183
 30
0.0
 10
-176.1543
 20
112.1183
 30
0.0
 10
-176.1543
 20
112.1183
 30
0.0
 10
-176.153
 20
112.1185
 30
0.0
 10
-176.153
 20
112.1185
 30
0.0
  0
SPLINE
  5
46
330
1F
100
AcDbEntity
  8
layer 1
 62
     7
100
AcDbSpline
210
0.0
220
0.0
230
1.0
 70
    11
 71
     3
 72
    16
 73
    12
 74
     0
 42
0.0000000001
 43
0.0000000001
 12
1.0
 22
0.0
 32
0.0
 13
1.0
 23
0.0
 33
0.0
 40
0.0
 40
0.0
 40
0.0
 40
0.0
 40
0.25
 40
0.25
 40
0.25
 40
0.25
 40
0.5
 40
0.5
 40
0.5
 40
0.5
 40
1.0
 40
1.0
 40
1.0
 40
1.0
 10
-145.7233
 20
116.4633
 30
0.0
 10
-149.7963
 20
116.4633
 30
0.0
 10
-153.0995
 20
119.7663
 30
0.0
 10
-153.0995
 20
123.8391
 30
0.0
 10
-153.0995
 20
123.8391
 30
0.0
 10
-153.0995
 20
123.8391
 30
0.0
 10
-138.3475
 20
123.8392
 30
0.0
 10
-138.3475
 20
123.8392
 30
0.0
 10
-138.3475
 20
123.8392
 30
0.0
 10
-138.3475
 20
119.7666
 30
0.0
 10
-141.6511
 20
116.4633
 30
0.0
 10
-145.7233
 20
116.4633
 30
0.0
  0
SPLINE
  5
47
330
1F
100
AcDbEntity
  8
layer 1
 62
     7
100
AcDbSpline
210
0.0
220
0.0
230
1.0
 70
    11
 71
     3
 72
    20
 73
    16
 74
     0
 42
0.0000000001
 43
0.0000000001
 12
1.0
 22
0.0
 32
0.0
 13
1.0
 23
0.0
 33
0.0
 40
0.0
 40
0.0
 40
0.0
 40
0.0
 40
0.2
 40
0.2
 40
0.2
 40
0.2
 40
0.4
 40
0.4
 40
0.4
 40
0.4
 40
0.6
 40
0.6
 40
0.6
 40
0.6
 40
1.0
 40
1.0
 40
1.0
 40
1.0
 10
-145.7233
 20
107.7736
 30
0.0
 10
-149.7963
 20
107.7736
 30
0.0
 10
-153.0995
 20
104.4702
 30
0.0
 10
-153.0995
 20
100.3974
 30
0.0
 10
-153.0995
 20
100.3974
 30
0.0
 10
-153.0995
 20
100.3974
 30
0.0
 10
-138.3475
 20
100.3977
 30
0.0
 10
-138.3475
 20
100.3977
 30
0.0
 10
-138.3475
 20
100.3977
 30
0.0
 10
-138.3475
 20
104.4705
 30
0.0
 10
-141.6511
 20
107.7733
 30
0.0
 10
-145.7236
 20
107.7733
 30
0.0
 10
-145.7236
 20
107.7733
 30
0.0
 10
-145.7236
 20
107.7733
 30
0.0
 10
-145.7233
 20
107.7736
 30
0.0
 10
-145.7233
 20
107.7736
 30
0.0
  0
SPLINE
  5
48
330
1F
100
AcDbEntity
  8
layer 1
 62
     7
100
AcDbSpline
210
0.0
220
0.0
230
1.0
 70
    11
 71
     3
 72
    16
 73
    12
 74
     0
 42
0.0000000001
 43
0.0000000001
 12
1.0
 22
0.0
 32
0.0
 13
1.0
 23
0.0
 33
0.0
 40
0.0
 40
0.0
 40
0.0
 40
0.0
 40
0.25
 40
0.25
 40
0.25
 40
0.25
 40
0.5
 40
0.5
 40
0.5
 40
0.5
 40
1.0
 40
1.0
 40
1.0
 40
1.0
 10
-141.3785
 20
112.1185
 30
0.0
 10
-141.3785
 20
116.1912
 30
0.0
 10
-138.0756
 20
119.4939
 30
0.0
 10
-134.0032
 20
119.4939
 30
0.0
 10
-134.0032
 20
119.4939
 30
0.0
 10
-134.0032
 20
119.4939
 30
0.0
 10
-134.0026
 20
104.7426
 30
0.0
 10
-134.0026
 20
104.7426
 30
0.0
 10
-134.0026
 20
104.7426
 30
0.0
 10
-138.0753
 20
104.7426
 30
0.0
 10
-141.3785
 20
108.0456
 30
0.0
 10
-141.3785
 20
112.1185
 30
0.0
  0
SPLINE
  5
49
330
1F
100
AcDbEntity
  8
layer 1
 62
     7
100
AcDbSpline
210
0.0
220
0.0
230
1.0
 70
    11
 71
     3
 72
    20
 73
    16
 74
     0
 42
0.0000000001
 43
0.0000000001
 12
1.0
 22
0.0
 32
0.0
 13
1.0
 23
0.0
 33
0.0
 40
0.0
 40
0.0
 40
0.0
 40
0.0
 40
0.2
 40
0.2
 40
0.2
 40
0.2
 40
0.4
 40
0.4
 40
0.4
 40
0.4
 40
0.6
 40
0.6
 40
0.6
 40
0.6
 40
1.0
 40
1.0
 40
1.0
 40
1.0
 10
-157.4443
 20
119.4944
 30
0.0
 10
-157.4443
 20
119.4944
 30
0.0
 10
-157.4443
 20
104.7426
 30
0.0
 10
-157.4443
 20
104.7426
 30
0.0
 10
-157.4443
 20
104.7426
 30
0.0
 10
-153.3715
 20
104.7426
 30
0.0
 10
-150.0693
 20
108.0453
 30
0.0
 10
-150.0693
 20
112.1183
 30
0.0
 10
-150.0693
 20
112.1183
 30
0.0
 10
-150.0684
 20
116.1912
 30
0.0
 10
-153.372
 20
119.4939
 30
0.0
 10
-157.4446
 20
119.4939
 30
0.0
 10
-157.4446
 20
119.4939
 30
0.0
 10
-157.4446
 20
119.4939
 30
0.0
 10
-157.4443
 20
119.4944
 30
0.0
 10
-157.4443
 20
119.4944
 30
0.0
  0
SPLINE
  5
4A
330
1F
100
AcDbEntity
  8
layer 1
 62
     7
100
AcDbSpline
210
0.0
220
0.0
230
1.0
 70
    11
 71
     3
 72
    20
 73
    16
 74
     0
 42
0.0000000001
 43
0.0000000001
 12
1.0
 22
0.0
 32
0.0
 13
1.0
 23
0.0
 33
0.0
 40
0.0
 40
0.0
 40
0.0
 40
0.0
 40
0.2
 40
0.2
 40
0.2
 40
0.2
 40
0.4
 40
0.4
 40
0.4
 40
0.4
 40
0.6
 40
0.6
 40
0.6
 40
0.6
 40
1.0
 40
1.0
 40
1.0
 40
1.0
 10
-119.6368
 20
116.4633
 30
0.0
 10
-123.7094
 20
116.4633
 30
0.0
 10
-127.014
 20
119.7663
 30
0.0
 10
-127.014
 20
123.8391
 30
0.0
 10
-127.014
 20
123.8391
 30
0.0
 10
-127.014
 20
123.8391
 30
0.0
 10
-112.261
 20
123.8392
 30
0.0
 10
-112.261
 20
123.8392
 30
0.0
 10
-112.261
 20
123.8392
 30
0.0
 10
-112.261
 20
119.7666
 30
0.0
 10
-115.5657
 20
116.4633
 30
0.0
 10
-119.6387
 20
116.4633
 30
0.0
 10
-119.6387
 20
116.4633
 30
0.0
 10
-119.6387
 20
116.4633
 30
0.0
 10
-119.6368
 20
116.4633
 30
0.0
 10
-119.6368
 20
116.4633
 30
0.0
  0
SPLINE
  5
4B
330
1F
100
AcDbEntity
  8
layer 1
 62
     7
100
AcDbSpline
210
0.0
220
0.0
230
1.0
 70
    11
 71
     3
 72
    20
 73
    16
 74
     0
 42
0.0000000001
 43
0.0000000001
 12
1.0
 22
0.0
 32
0.0
 13
1.0
 23
0.0
 33
0.0
 40
0.0
 40
0.0
 40
0.0
 40
0.0
 40
0.2
 40
0.2
 40
0.2
 40
0.2
 40
0.4
 40
0.4
 40
0.4
 40
0.4
 40
0.6
 40
0.6
 40
0.6
 40
0.6
 40
1.0
 40
1.0
 40
1.0
 40
1.0
 10
-119.6368
 20
107.7736
 30
0.0
 10
-123.7094
 20
107.7736
 30
0.0
 10
-127.014
 20
104.4702
 30
0.0
 10
-127.014
 20
100.3974
 30
0.0
 10
-127.014
 20
100.3974
 30
0.0
 10
-127.014
 20
100.3974
 30
0.0
 10
-112.261
 20
100.3977
 30
0.0
 10
-112.261
 20
100.3977
 30
0.0
 10
-112.261
 20
100.3977
 30
0.0
 10
-112.261
 20
104.4705
 30
0.0
 10
-115.5657
 20
107.7733
 30
0.0
 10
-119.6387
 20
107.7733
 30
0.0
 10
-119.6387
 20
107.7733
 30
0.0
 10
-119.6387
 20
107.7733
 30
0.0
 10
-119.6368
 20
107.7736
 30
0.0
 10
-119.6368
 20
107.7736
 30
0.0
  0
SPLINE
  5
4C
330
1F
100
AcDbEntity
  8
layer 1
 62
     7
100
AcDbSpline
210
0.0
220
0.0
230
1.0
 70
    11
 71
     3
 72
    20
 73
    16
 74
     0
 42
0.0000000001
 43
0.0000000001
 12
1.0
 22
0.0
 32
0.0
 13
1.0
 23
0.0
 33
0.0
 40
0.0
 40
0.0
 40
0.0
 40
0.0
 40
0.2
 40
0.2
 40
0.2
 40
0.2
 40
0.4
 40
0.4
 40
0.4
 40
0.4
 40
0.6
 40
0.6
 40
0.6
 40
0.6
 40
1.0
 40
1.0
 40
1.0
 40
1.0
 10
-115.2919
 20
112.1185
 30
0.0
 10
-115.2919
 20
116.1912
 30
0.0
 10
-111.9906
 20
119.4939
 30
0.0
 10
-107.9177
 20
119.4939
 30
0.0
 10
-107.9177
 20
119.4939
 30
0.0
 10
-107.9177
 20
119.4939
 30
0.0
 10
-107.916
 20
104.7426
 30
0.0
 10
-107.916
 20
104.7426
 30
0.0
 10
-107.916
 20
104.7426
 30
0.0
 10
-111.9887
 20
104.7426
 30
0.0
 10
-115.2936
 20
108.0456
 30
0.0
 10
-115.2936
 20
112.1183
 30
0.0
 10
-115.2936
 20
112.1183
 30
0.0
 10
-115.2936
 20
112.1183
 30
0.0
 10
-115.2919
 20
112.1185
 30
0.0
 10
-115.2919
 20
112.1185
 30
0.0
  0
SPLINE
  5
4D
330
1F
100
AcDbEntity
  8
layer 1
 62
     7
100
AcDbSpline
210
0.0
220
0.0
230
1.0
 70
    11
 71
     3
 72
    20
 73
    16
 74
     0
 42
0.0000000001
 43
0.0000000001
 12
1.0
 22
0.0
 32
0.0
 13
1.0
 23
0.0
 33
0.0
 40
0.0
 40
0.0
 40
0.0
 40
0.0
 40
0.2
 40
0.2
 40
0.2
 40
0.2
 40
0.4
 40
0.4
 40
0.4
 40
0.4
 40
0.6
 40
0.6
 40
0.6
 40
0.6
 40
1.0
 40
1.0
 40
1.0
 40
1.0
 10
-131.3575
 20
119.4944
 30
0.0
 10
-131.3575
 20
119.4944
 30
0.0
 10
-131.3575
 20
104.7426
 30
0.0
 10
-131.3575
 20
104.7426
 30
0.0
 10
-131.3575
 20
104.7426
 30
0.0
 10
-127.2849
 20
104.7426
 30
0.0
 10
-123.9835
 20
108.0453
 30
0.0
 10
-123.9835
 20
112.1183
 30
0.0
 10
-123.9835
 20
112.1183
 30
0.0
 10
-123.9817
 20
116.1912
 30
0.0
 10
-127.2864
 20
119.4939
 30
0.0
 10
-131.3594
 20
119.4939
 30
0.0
 10
-131.3594
 20
119.4939
 30
0.0
 10
-131.3594
 20
119.4939
 30
0.0
 10
-131.3575
 20
119.4944
 30
0.0
 10
-131.3575
 20
119.4944
 30
0.0
  0
SPLINE
  5
4E
330
1F
100
AcDbEntity
  8
layer 1
 62
     7
100
AcDbSpline
210
0.0
220
0.0
230
1.0
 70
    11
 71
     3
 72
    20
 73
    16
 74
     0
 42
0.0000000001
 43
0.0000000001
 12
1.0
 22
0.0
 32
0.0
 13
1.0
 23
0.0
 33
0.0
 40
0.0
 40
0.0
 40
0.0
 40
0.0
 40
0.2
 40
0.2
 40
0.2
 40
0.2
 40
0.4
 40
0.4
 40
0.4
 40
0.4
 40
0.6
 40
0.6
 40
0.6
 40
0.6
 40
1.0
 40
1.0
 40
1.0
 40
1.0
 10
-93.552
 20
116.4633
 30
0.0
 10
-97.625
 20
116.4633
 30
0.0
 10
-100.9288
 20
119.7663
 30
0.0
 10
-100.9288
 20
123.8391
 30
0.0
 10
-100.9288
 20
123.8391
 30
0.0
 10
-100.9288
 20
123.8391
 30
0.0
 10
-86.1764
 20
123.8392
 30
0.0
 10
-86.1764
 20
123.8392
 30
0.0
 10
-86.1764
 20
123.8392
 30
0.0
 10
-86.1764
 20
119.7666
 30
0.0
 10
-89.4806
 20
116.4633
 30
0.0
 10
-93.5532
 20
116.4633
 30
0.0
 10
-93.5532
 20
116.4633
 30
0.0
 10
-93.5532
 20
116.4633
 30
0.0
 10
-93.552
 20
116.4633
 30
0.0
 10
-93.552
 20
116.4633
 30
0.0
  0
SPLINE
  5
4F
330
1F
100
AcDbEntity
  8
layer 1
 62
     7
100
AcDbSpline
210
0.0
220
0.0
230
1.0
 70
    11
 71
     3
 72
    20
 73
    16
 74
     0
 42
0.0000000001
 43
0.0000000001
 12
1.0
 22
0.0
 32
0.0
 13
1.0
 23
0.0
 33
0.0
 40
0.0
 40
0.0
 40
0.0
 40
0.0
 40
0.2
 40
0.2
 40
0.2
 40
0.2
 40
0.4
 40
0.4
 40
0.4
 40
0.4
 40
0.6
 40
0.6
 40
0.6
 40
0.6
 40
1.0
 40
1.0
 40
1.0
 40
1.0
 10
-93.552
 20
107.7736
 30
0.0
 10
-97.625
 20
107.7736
 30
0.0
 10
-100.9288
 20
104.4702
 30
0.0
 10
-100.9288
 20
100.3974
 30
0.0
 10
-100.9288
 20
100.3974
 30
0.0
 10
-100.9288
 20
100.3974
 30
0.0
 10
-86.1764
 20
100.3977
 30
0.0
 10
-86.1764
 20
100.3977
 30
0.0
 10
-86.1764
 20
100.3977
 30
0.0
 10
-86.1764
 20
104.4705
 30
0.0
 10
-89.4806
 20
107.7733
 30
0.0
 10
-93.5532
 20
107.7733
 30
0.0
 10
-93.5532
 20
107.7733
 30
0.0
 10
-93.5532
 20
107.7733
 30
0.0
 10
-93.552
 20
107.7736
 30
0.0
 10
-93.552
 20
107.7736
 30
0.0
  0
SPLINE
  5
50
330
1F
100
AcDbEntity
  8
layer 1
 62
     7
100
AcDbSpline
210
0.0
220
0.0
230
1.0
 70
    11
 71
     3
 72
    20
 73
    16
 74
     0
 42
0.0000000001
 43
0.0000000001
 12
1.0
 22
0.0
 32
0.0
 13
1.0
 23
0.0
 33
0.0
 40
0.0
 40
0.0
 40
0.0
 40
0.0
 40
0.2
 40
0.2
 40
0.2
 40
0.2
 40
0.4
 40
0.4
 40
0.4
 40
0.4
 40
0.6
 40
0.6
 40
0.6
 40
0.6
 40
1.0
 40
1.0
 40
1.0
 40
1.0
 10
-89.2072
 20
112.1185
 30
0.0
 10
-89.2072
 20
116.1912
 30
0.0
 10
-85.9053
 20
119.4939
 30
0.0
 10
-81.8324
 20
119.4939
 30
0.0
 10
-81.8324
 20
119.4939
 30
0.0
 10
-81.8324
 20
119.4939
 30
0.0
 10
-81.8313
 20
104.7426
 30
0.0
 10
-81.8313
 20
104.7426
 30
0.0
 10
-81.8313
 20
104.7426
 30
0.0
 10
-85.9043
 20
104.7426
 30
0.0
 10
-89.2077
 20
108.0456
 30
0.0
 10
-89.2077
 20
112.1183
 30
0.0
 10
-89.2077
 20
112.1183
 30
0.0
 10
-89.2077
 20
112.1183
 30
0.0
 10
-89.2072
 20
112.1185
 30
0.0
 10
-89.2072
 20
112.1185
 30
0.0
  0
SPLINE
  5
51
330
1F
100
AcDbEntity
  8
layer 1
 62
     7
100
AcDbSpline
210
0.0
220
0.0
230
1.0
 70
    11
 71
     3
 72
    20
 73
    16
 74
     0
 42
0.0000000001
 43
0.0000000001
 12
1.0
 22
0.0
 32
0.0
 13
1.0
 23
0.0
 33
0.0
 40
0.0
 40
0.0
 40
0.0
 40
0.0
 40
0.2
 40
0.2
 40
0.2
 40
0.2
 40
0.4
 40
0.4
 40
0.4
 40
0.4
 40
0.6
 40
0.6
 40
0.6
 40
0.6
 40
1.0
 40
1.0
 40
1.0
 40
1.0
 10
-105.273
 20
119.4944
 30
0.0
 10
-105.273
 20
119.4944
 30
0.0
 10
-105.273
 20
104.7426
 30
0.0
 10
-105.273
 20
104.7426
 30
0.0
 10
-105.273
 20
104.7426
 30
0.0
 10
-101.2005
 20
104.7426
 30
0.0
 10
-97.8986
 20
108.0453
 30
0.0
 10
-97.8986
 20
112.1183
 30
0.0
 10
-97.8986
 20
112.1183
 30
0.0
 10
-97.8971
 20
116.1912
 30
0.0
 10
-101.2015
 20
119.4939
 30
0.0
 10
-105.2745
 20
119.4939
 30
0.0
 10
-105.2745
 20
119.4939
 30
0.0
 10
-105.2745
 20
119.4939
 30
0.0
 10
-105.273
 20
119.4944
 30
0.0
 10
-105.273
 20
119.4944
 30
0.0
  0
SPLINE
  5
52
330
1F
100
AcDbEntity
  8
layer 1
 62
     7
100
AcDbSpline
210
0.0
220
0.0
230
1.0
 70
    11
 71
     3
 72
    20
 73
    16
 74
     0
 42
0.0000000001
 43
0.0000000001
 12
1.0
 22
0.0
 32
0.0
 13
1.0
 23
0.0
 33
0.0
 40
0.0
 40
0.0
 40
0.0
 40
0.0
 40
0.2
 40
0.2
 40
0.2
 40
0.2
 40
0.4
 40
0.4
 40
0.4
 40
0.4
 40
0.6
 40
0.6
 40
0.6
 40
0.6
 40
1.0
 40
1.0
 40
1.0
 40
1.0
 10
-171.808
 20
81.6878
 30
0.0
 10
-175.8807
 20
81.6878
 30
0.0
 10
-179.1848
 20
78.3846
 30
0.0
 10
-179.1848
 20
74.3122
 30
0.0
 10
-179.1848
 20
74.3122
 30
0.0
 10
-179.1848
 20
74.3122
 30
0.0
 10
-164.4321
 20
74.3131
 30
0.0
 10
-164.4321
 20
74.3131
 30
0.0
 10
-164.4321
 20
74.3131
 30
0.0
 10
-164.4321
 20
78.3848
 30
0.0
 10
-167.7365
 20
81.6878
 30
0.0
 10
-171.8092
 20
81.6878
 30
0.0
 10
-171.8092
 20
81.6878
 30
0.0
 10
-171.8092
 20
81.6878
 30
0.0
 10
-171.808
 20
81.6878
 30
0.0
 10
-171.808
 20
81.6878
 30
0.0
  0
SPLINE
  5
53
330
1F
100
AcDbEntity
  8
layer 1
 62
     7
100
AcDbSpline
210
0.0
220
0.0
230
1.0
 70
    11
 71
     3
 72
    20
 73
    16
 74
     0
 42
0.0000000001
 43
0.0000000001
 12
1.0
 22
0.0
 32
0.0
 13
1.0
 23
0.0
 33
0.0
 40
0.0
 40
0.0
 40
0.0
 40
0.0
 40
0.2
 40
0.2
 40
0.2
 40
0.2
 40
0.4
 40
0.4
 40
0.4
 40
0.4
 40
0.6
 40
0.6
 40
0.6
 40
0.6
 40
1.0
 40
1.0
 40
1.0
 40
1.0
 10
-167.4632
 20
86.034
 30
0.0
 10
-167.4632
 20
90.1066
 30
0.0
 10
-164.1613
 20
93.4087
 30
0.0
 10
-160.0882
 20
93.4087
 30
0.0
 10
-160.0882
 20
93.4087
 30
0.0
 10
-160.0882
 20
93.4087
 30
0.0
 10
-160.087
 20
78.6581
 30
0.0
 10
-160.087
 20
78.6581
 30
0.0
 10
-160.087
 20
78.6581
 30
0.0
 10
-164.16
 20
78.6581
 30
0.0
 10
-167.4644
 20
81.9603
 30
0.0
 10
-167.4644
 20
86.0332
 30
0.0
 10
-167.4644
 20
86.0332
 30
0.0
 10
-167.4644
 20
86.0332
 30
0.0
 10
-167.4632
 20
86.034
 30
0.0
 10
-167.4632
 20
86.034
 30
0.0
  0
SPLINE
  5
54
330
1F
100
AcDbEntity
  8
layer 1
 62
     7
100
AcDbSpline
210
0.0
220
0.0
230
1.0
 70
    11
 71
     3
 72
    20
 73
    16
 74
     0
 42
0.0000000001
 43
0.0000000001
 12
1.0
 22
0.0
 32
0.0
 13
1.0
 23
0.0
 33
0.0
 40
0.0
 40
0.0
 40
0.0
 40
0.0
 40
0.2
 40
0.2
 40
0.2
 40
0.2
 40
0.4
 40
0.4
 40
0.4
 40
0.4
 40
0.6
 40
0.6
 40
0.6
 40
0.6
 40
1.0
 40
1.0
 40
1.0
 40
1.0
 10
-176.153
 20
86.034
 30
0.0
 10
-176.153
 20
90.1066
 30
0.0
 10
-179.4572
 20
93.4087
 30
0.0
 10
-183.5299
 20
93.4087
 30
0.0
 10
-183.5299
 20
93.4087
 30
0.0
 10
-183.5299
 20
93.4087
 30
0.0
 10
-183.5288
 20
78.6581
 30
0.0
 10
-183.5288
 20
78.6581
 30
0.0
 10
-183.5288
 20
78.6581
 30
0.0
 10
-179.4562
 20
78.6581
 30
0.0
 10
-176.1543
 20
81.9603
 30
0.0
 10
-176.1543
 20
86.0332
 30
0.0
 10
-176.1543
 20
86.0332
 30
0.0
 10
-176.1543
 20
86.0332
 30
0.0
 10
-176.153
 20
86.034
 30
0.0
 10
-176.153
 20
86.034
 30
0.0
  0
SPLINE
  5
55
330
1F
100
AcDbEntity
  8
layer 1
 62
     7
100
AcDbSpline
210
0.0
220
0.0
230
1.0
 70
    11
 71
     3
 72
    16
 73
    12
 74
     0
 42
0.0000000001
 43
0.0000000001
 12
1.0
 22
0.0
 32
0.0
 13
1.0
 23
0.0
 33
0.0
 40
0.0
 40
0.0
 40
0.0
 40
0.0
 40
0.25
 40
0.25
 40
0.25
 40
0.25
 40
0.5
 40
0.5
 40
0.5
 40
0.5
 40
1.0
 40
1.0
 40
1.0
 40
1.0
 10
-145.7233
 20
81.6878
 30
0.0
 10
-149.7963
 20
81.6878
 30
0.0
 10
-153.0995
 20
78.3846
 30
0.0
 10
-153.0995
 20
74.3122
 30
0.0
 10
-153.0995
 20
74.3122
 30
0.0
 10
-153.0995
 20
74.3122
 30
0.0
 10
-138.3475
 20
74.3131
 30
0.0
 10
-138.3475
 20
74.3131
 30
0.0
 10
-138.3475
 20
74.3131
 30
0.0
 10
-138.3475
 20
78.3848
 30
0.0
 10
-141.6511
 20
81.6878
 30
0.0
 10
-145.7233
 20
81.6878
 30
0.0
  0
SPLINE
  5
56
330
1F
100
AcDbEntity
  8
layer 1
 62
     7
100
AcDbSpline
210
0.0
220
0.0
230
1.0
 70
    11
 71
     3
 72
    20
 73
    16
 74
     0
 42
0.0000000001
 43
0.0000000001
 12
1.0
 22
0.0
 32
0.0
 13
1.0
 23
0.0
 33
0.0
 40
0.0
 40
0.0
 40
0.0
 40
0.0
 40
0.2
 40
0.2
 40
0.2
 40
0.2
 40
0.4
 40
0.4
 40
0.4
 40
0.4
 40
0.6
 40
0.6
 40
0.6
 40
0.6
 40
1.0
 40
1.0
 40
1.0
 40
1.0
 10
-141.3785
 20
86.034
 30
0.0
 10
-141.3785
 20
90.1066
 30
0.0
 10
-138.0756
 20
93.4087
 30
0.0
 10
-134.0032
 20
93.4087
 30
0.0
 10
-134.0032
 20
93.4087
 30
0.0
 10
-134.0032
 20
93.4087
 30
0.0
 10
-134.0026
 20
78.6581
 30
0.0
 10
-134.0026
 20
78.6581
 30
0.0
 10
-134.0026
 20
78.6581
 30
0.0
 10
-138.0753
 20
78.6581
 30
0.0
 10
-141.3785
 20
81.9603
 30
0.0
 10
-141.3785
 20
86.0332
 30
0.0
 10
-141.3785
 20
86.0332
 30
0.0
 10
-141.3785
 20
86.0332
 30
0.0
 10
-141.3785
 20
86.034
 30
0.0
 10
-141.3785
 20
86.034
 30
0.0
  0
SPLINE
  5
57
330
1F
100
AcDbEntity
  8
layer 1
 62
     7
100
AcDbSpline
210
0.0
220
0.0
230
1.0
 70
    11
 71
     3
 72
    16
 73
    12
 74
     0
 42
0.0000000001
 43
0.0000000001
 12
1.0
 22
0.0
 32
0.0
 13
1.0
 23
0.0
 33
0.0
 40
0.0
 40
0.0
 40
0.0
 40
0.0
 40
0.25
 40
0.25
 40
0.25
 40
0.25
 40
0.5
 40
0.5
 40
0.5
 40
0.5
 40
1.0
 40
1.0
 40
1.0
 40
1.0
 10
-157.4443
 20
93.4088
 30
0.0
 10
-157.4443
 20
93.4088
 30
0.0
 10
-157.4443
 20
78.6581
 30
0.0
 10
-157.4443
 20
78.6581
 30
0.0
 10
-157.4443
 20
78.6581
 30
0.0
 10
-153.3715
 20
78.6581
 30
0.0
 10
-150.0693
 20
81.9603
 30
0.0
 10
-150.0693
 20
86.0332
 30
0.0
 10
-150.0693
 20
86.0332
 30
0.0
 10
-150.0684
 20
90.1066
 30
0.0
 10
-153.372
 20
93.4087
 30
0.0
 10
-157.4443
 20
93.4088
 30
0.0
  0
SPLINE
  5
58
330
1F
100
AcDbEntity
  8
layer 1
 62
     7
100
AcDbSpline
210
0.0
220
0.0
230
1.0
 70
    11
 71
     3
 72
    20
 73
    16
 74
     0
 42
0.0000000001
 43
0.0000000001
 12
1.0
 22
0.0
 32
0.0
 13
1.0
 23
0.0
 33
0.0
 40
0.0
 40
0.0
 40
0.0
 40
0.0
 40
0.2
 40
0.2
 40
0.2
 40
0.2
 40
0.4
 40
0.4
 40
0.4
 40
0.4
 40
0.6
 40
0.6
 40
0.6
 40
0.6
 40
1.0
 40
1.0
 40
1.0
 40
1.0
 10
-119.6368
 20
81.6878
 30
0.0
 10
-123.7094
 20
81.6878
 30
0.0
 10
-127.014
 20
78.3846
 30
0.0
 10
-127.014
 20
74.3122
 30
0.0
 10
-127.014
 20
74.3122
 30
0.0
 10
-127.014
 20
74.3122
 30
0.0
 10
-112.261
 20
74.3131
 30
0.0
 10
-112.261
 20
74.3131
 30
0.0
 10
-112.261
 20
74.3131
 30
0.0
 10
-112.261
 20
78.3848
 30
0.0
 10
-115.5657
 20
81.6878
 30
0.0
 10
-119.6387
 20
81.6878
 30
0.0
 10
-119.6387
 20
81.6878
 30
0.0
 10
-119.6387
 20
81.6878
 30
0.0
 10
-119.6368
 20
81.6878
 30
0.0
 10
-119.6368
 20
81.6878
 30
0.0
  0
SPLINE
  5
59
330
1F
100
AcDbEntity
  8
layer 1
 62
     7
100
AcDbSpline
210
0.0
220
0.0
230
1.0
 70
    11
 71
     3
 72
    20
 73
    16
 74
     0
 42
0.0000000001
 43
0.0000000001
 12
1.0
 22
0.0
 32
0.0
 13
1.0
 23
0.0
 33
0.0
 40
0.0
 40
0.0
 40
0.0
 40
0.0
 40
0.2
 40
0.2
 40
0.2
 40
0.2
 40
0.4
 40
0.4
 40
0.4
 40
0.4
 40
0.6
 40
0.6
 40
0.6
 40
0.6
 40
1.0
 40
1.0
 40
1.0
 40
1.0
 10
-115.2919
 20
86.034
 30
0.0
 10
-115.2919
 20
90.1066
 30
0.0
 10
-111.9906
 20
93.4087
 30
0.0
 10
-107.9177
 20
93.4087
 30
0.0
 10
-107.9177
 20
93.4087
 30
0.0
 10
-107.9177
 20
93.4087
 30
0.0
 10
-107.916
 20
78.6581
 30
0.0
 10
-107.916
 20
78.6581
 30
0.0
 10
-107.916
 20
78.6581
 30
0.0
 10
-111.9887
 20
78.6581
 30
0.0
 10
-115.2936
 20
81.9603
 30
0.0
 10
-115.2936
 20
86.0332
 30
0.0
 10
-115.2936
 20
86.0332
 30
0.0
 10
-115.2936
 20
86.0332
 30
0.0
 10
-115.2919
 20
86.034
 30
0.0
 10
-115.2919
 20
86.034
 30
0.0
  0
SPLINE
  5
5A
330
1F
100
AcDbEntity
  8
layer 1
 62
     7
100
AcDbSpline
210
0.0
220
0.0
230
1.0
 70
    11
 71
     3
 72
    20
 73
    16
 74
     0
 42
0.0000000001
 43
0.0000000001
 12
1.0
 22
0.0
 32
0.0
 13
1.0
 23
0.0
 33
0.0
 40
0.0
 40
0.0
 40
0.0
 40
0.0
 40
0.2
 40
0.2
 40
0.2
 40
0.2
 40
0.4
 40
0.4
 40
0.4
 40
0.4
 40
0.6
 40
0.6
 40
0.6
 40
0.6
 40
1.0
 40
1.0
 40
1.0
 40
1.0
 10
-131.3575
 20
93.4088
 30
0.0
 10
-131.3575
 20
93.4088
 30
0.0
 10
-131.3575
 20
78.6581
 30
0.0
 10
-131.3575
 20
78.6581
 30
0.0
 10
-131.3575
 20
78.6581
 30
0.0
 10
-127.2849
 20
78.6581
 30
0.0
 10
-123.9835
 20
81.9603
 30
0.0
 10
-123.9835
 20
86.0332
 30
0.0
 10
-123.9835
 20
86.0332
 30
0.0
 10
-123.9817
 20
90.1066
 30
0.0
 10
-127.2864
 20
93.4087
 30
0.0
 10
-131.3594
 20
93.4087
 30
0.0
 10
-131.3594
 20
93.4087
 30
0.0
 10
-131.3594
 20
93.4087
 30
0.0
 10
-131.3575
 20
93.4088
 30
0.0
 10
-131.3575
 20
93.4088
 30
0.0
  0
SPLINE
  5
5B
330
1F
100
AcDbEntity
  8
layer 1
 62
     7
100
AcDbSpline
210
0.0
220
0.0
230
1.0
 70
    11
 71
     3
 72
    20
 73
    16
 74
     0
 42
0.0000000001
 43
0.0000000001
 12
1.0
 22
0.0
 32
0.0
 13
1.0
 23
0.0
 33
0.0
 40
0.0
 40
0.0
 40
0.0
 40
0.0
 40
0.2
 40
0.2
 40
0.2
 40
0.2
 40
0.4
 40
0.4
 40
0.4
 40
0.4
 40
0.6
 40
0.6
 40
0.6
 40
0.6
 40
1.0
 40
1.0
 40
1.0
 40
1.0
 10
-93.552
 20
81.6878
 30
0.0
 10
-97.625
 20
81.6878
 30
0.0
 10
-100.9288
 20
78.3846
 30
0.0
 10
-100.9288
 20
74.3122
 30
0.0
 10
-100.9288
 20
74.3122
 30
0.0
 10
-100.9288
 20
74.3122
 30
0.0
 10
-86.1764
 20
74.3131
 30
0.0
 10
-86.1764
 20
74.3131
 30
0.0
 10
-86.1764
 20
74.3131
 30
0.0
 10
-86.1764
 20
78.3848
 30
0.0
 10
-89.4806
 20
81.6878
 30
0.0
 10
-93.5532
 20
81.6878
 30
0.0
 10
-93.5532
 20
81.6878
 30
0.0
 10
-93.5532
 20
81.6878
 30
0.0
 10
-93.552
 20
81.6878
 30
0.0
 10
-93.552
 20
81.6878
 30
0.0
  0
SPLINE
  5
5C
330
1F
100
AcDbEntity
  8
layer 1
 62
     7
100
AcDbSpline
210
0.0
220
0.0
230
1.0
 70
    11
 71
     3
 72
    20
 73
    16
 74
     0
 42
0.0000000001
 43
0.0000000001
 12
1.0
 22
0.0
 32
0.0
 13
1.0
 23
0.0
 33
0.0
 40
0.0
 40
0.0
 40
0.0
 40
0.0
 40
0.2
 40
0.2
 40
0.2
 40
0.2
 40
0.4
 40
0.4
 40
0.4
 40
0.4
 40
0.6
 40
0.6
 40
0.6
 40
0.6
 40
1.0
 40
1.0
 40
1.0
 40
1.0
 10
-89.2072
 20
86.034
 30
0.0
 10
-89.2072
 20
90.1066
 30
0.0
 10
-85.9053
 20
93.4087
 30
0.0
 10
-81.8324
 20
93.4087
 30
0.0
 10
-81.8324
 20
93.4087
 30
0.0
 10
-81.8324
 20
93.4087
 30
0.0
 10
-81.8313
 20
78.6581
 30
0.0
 10
-81.8313
 20
78.6581
 30
0.0
 10
-81.8313
 20
78.6581
 30
0.0
 10
-85.9043
 20
78.6581
 30
0.0
 10
-89.2077
 20
81.9603
 30
0.0
 10
-89.2077
 20
86.0332
 30
0.0
 10
-89.2077
 20
86.0332
 30
0.0
 10
-89.2077
 20
86.0332
 30
0.0
 10
-89.2072
 20
86.034
 30
0.0
 10
-89.2072
 20
86.034
 30
0.0
  0
SPLINE
  5
5D
330
1F
100
AcDbEntity
  8
layer 1
 62
     7
100
AcDbSpline
210
0.0
220
0.0
230
1.0
 70
    11
 71
     3
 72
    20
 73
    16
 74
     0
 42
0.0000000001
 43
0.0000000001
 12
1.0
 22
0.0
 32
0.0
 13
1.0
 23
0.0
 33
0.0
 40
0.0
 40
0.0
 40
0.0
 40
0.0
 40
0.2
 40
0.2
 40
0.2
 40
0.2
 40
0.4
 40
0.4
 40
0.4
 40
0.4
 40
0.6
 40
0.6
 40
0.6
 40
0.6
 40
1.0
 40
1.0
 40
1.0
 40
1.0
 10
-105.273
 20
93.4088
 30
0.0
 10
-105.273
 20
93.4088
 30
0.0
 10
-105.273
 20
78.6581
 30
0.0
 10
-105.273
 20
78.6581
 30
0.0
 10
-105.273
 20
78.6581
 30
0.0
 10
-101.2005
 20
78.6581
 30
0.0
 10
-97.8986
 20
81.9603
 30
0.0
 10
-97.8986
 20
86.0332
 30
0.0
 10
-97.8986
 20
86.0332
 30
0.0
 10
-97.8971
 20
90.1066
 30
0.0
 10
-101.2015
 20
93.4087
 30
0.0
 10
-105.2745
 20
93.4087
 30
0.0
 10
-105.2745
 20
93.4087
 30
0.0
 10
-105.2745
 20
93.4087
 30
0.0
 10
-105.273
 20
93.4088
 30
0.0
 10
-105.273
 20
93.4088
 30
0.0
  0
SPLINE
  5
5E
330
1F
100
AcDbEntity
  8
layer 1
 62
     7
100
AcDbSpline
210
0.0
220
0.0
230
1.0
 70
    11
 71
     3
 72
    20
 73
    16
 74
     0
 42
0.0000000001
 43
0.0000000001
 12
1.0
 22
0.0
 32
0.0
 13
1.0
 23
0.0
 33
0.0
 40
0.0
 40
0.0
 40
0.0
 40
0.0
 40
0.2
 40
0.2
 40
0.2
 40
0.2
 40
0.4
 40
0.4
 40
0.4
 40
0.4
 40
0.6
 40
0.6
 40
0.6
 40
0.6
 40
1.0
 40
1.0
 40
1.0
 40
1.0
 10
-164.4321
 20
97.7547
 30
0.0
 10
-164.4321
 20
97.7547
 30
0.0
 10
-179.1839
 20
97.7547
 30
0.0
 10
-179.1839
 20
97.7547
 30
0.0
 10
-179.1839
 20
97.7547
 30
0.0
 10
-179.1839
 20
93.682
 30
0.0
 10
-175.8817
 20
90.3783
 30
0.0
 10
-171.8092
 20
90.3783
 30
0.0
 10
-171.8092
 20
90.3783
 30
0.0
 10
-167.7355
 20
90.3788
 30
0.0
 10
-164.4333
 20
93.6812
 30
0.0
 10
-164.4333
 20
97.7538
 30
0.0
 10
-164.4333
 20
97.7538
 30
0.0
 10
-164.4333
 20
97.7538
 30
0.0
 10
-164.4321
 20
97.7547
 30
0.0
 10
-164.4321
 20
97.7547
 30
0.0
  0
SPLINE
  5
5F
330
1F
100
AcDbEntity
  8
layer 1
 62
     7
100
AcDbSpline
210
0.0
220
0.0
230
1.0
 70
    11
 71
     3
 72
    20
 73
    16
 74
     0
 42
0.0000000001
 43
0.0000000001
 12
1.0
 22
0.0
 32
0.0
 13
1.0
 23
0.0
 33
0.0
 40
0.0
 40
0.0
 40
0.0
 40
0.0
 40
0.2
 40
0.2
 40
0.2
 40
0.2
 40
0.4
 40
0.4
 40
0.4
 40
0.4
 40
0.6
 40
0.6
 40
0.6
 40
0.6
 40
1.0
 40
1.0
 40
1.0
 40
1.0
 10
-138.3475
 20
97.7547
 30
0.0
 10
-138.3475
 20
97.7547
 30
0.0
 10
-153.0992
 20
97.7547
 30
0.0
 10
-153.0992
 20
97.7547
 30
0.0
 10
-153.0992
 20
97.7547
 30
0.0
 10
-153.0992
 20
93.682
 30
0.0
 10
-149.7968
 20
90.3783
 30
0.0
 10
-145.7236
 20
90.3783
 30
0.0
 10
-145.7236
 20
90.3783
 30
0.0
 10
-141.6508
 20
90.3788
 30
0.0
 10
-138.348
 20
93.6812
 30
0.0
 10
-138.348
 20
97.7538
 30
0.0
 10
-138.348
 20
97.7538
 30
0.0
 10
-138.348
 20
97.7538
 30
0.0
 10
-138.3475
 20
97.7547
 30
0.0
 10
-138.3475
 20
97.7547
 30
0.0
  0
SPLINE
  5
60
330
1F
100
AcDbEntity
  8
layer 1
 62
     7
100
AcDbSpline
210
0.0
220
0.0
230
1.0
 70
    11
 71
     3
 72
    20
 73
    16
 74
     0
 42
0.0000000001
 43
0.0000000001
 12
1.0
 22
0.0
 32
0.0
 13
1.0
 23
0.0
 33
0.0
 40
0.0
 40
0.0
 40
0.0
 40
0.0
 40
0.2
 40
0.2
 40
0.2
 40
0.2
 40
0.4
 40
0.4
 40
0.4
 40
0.4
 40
0.6
 40
0.6
 40
0.6
 40
0.6
 40
1.0
 40
1.0
 40
1.0
 40
1.0
 10
-112.261
 20
97.7547
 30
0.0
 10
-112.261
 20
97.7547
 30
0.0
 10
-127.0127
 20
97.7547
 30
0.0
 10
-127.0127
 20
97.7547
 30
0.0
 10
-127.0127
 20
97.7547
 30
0.0
 10
-127.0127
 20
93.682
 30
0.0
 10
-123.7113
 20
90.3783
 30
0.0
 10
-119.6387
 20
90.3783
 30
0.0
 10
-119.6387
 20
90.3783
 30
0.0
 10
-115.5642
 20
90.3788
 30
0.0
 10
-112.2628
 20
93.6812
 30
0.0
 10
-112.2628
 20
97.7538
 30
0.0
 10
-112.2628
 20
97.7538
 30
0.0
 10
-112.2628
 20
97.7538
 30
0.0
 10
-112.261
 20
97.7547
 30
0.0
 10
-112.261
 20
97.7547
 30
0.0
  0
SPLINE
  5
61
330
1F
100
AcDbEntity
  8
layer 1
 62
     7
100
AcDbSpline
210
0.0
220
0.0
230
1.0
 70
    11
 71
     3
 72
    20
 73
    16
 74
     0
 42
0.0000000001
 43
0.0000000001
 12
1.0
 22
0.0
 32
0.0
 13
1.0
 23
0.0
 33
0.0
 40
0.0
 40
0.0
 40
0.0
 40
0.0
 40
0.2
 40
0.2
 40
0.2
 40
0.2
 40
0.4
 40
0.4
 40
0.4
 40
0.4
 40
0.6
 40
0.6
 40
0.6
 40
0.6
 40
1.0
 40
1.0
 40
1.0
 40
1.0
 10
-86.1764
 20
97.7547
 30
0.0
 10
-86.1764
 20
97.7547
 30
0.0
 10
-100.9282
 20
97.7547
 30
0.0
 10
-100.9282
 20
97.7547
 30
0.0
 10
-100.9282
 20
97.7547
 30
0.0
 10
-100.9282
 20
93.682
 30
0.0
 10
-97.626
 20
90.3783
 30
0.0
 10
-93.5532
 20
90.3783
 30
0.0
 10
-93.5532
 20
90.3783
 30
0.0
 10
-89.4795
 20
90.3788
 30
0.0
 10
-86.1779
 20
93.6812
 30
0.0
 10
-86.1779
 20
97.7538
 30
0.0
 10
-86.1779
 20
97.7538
 30
0.0
 10
-86.1779
 20
97.7538
 30
0.0
 10
-86.1764
 20
97.7547
 30
0.0
 10
-86.1764
 20
97.7547
 30
0.0
  0
SPLINE
  5
62
330
1F
100
AcDbEntity
  8
layer 1
 62
     7
100
AcDbSpline
210
0.0
220
0.0
230
1.0
 70
    11
 71
     3
 72
    20
 73
    16
 74
     0
 42
0.0000000001
 43
0.0000000001
 12
1.0
 22
0.0
 32
0.0
 13
1.0
 23
0.0
 33
0.0
 40
0.0
 40
0.0
 40
0.0
 40
0.0
 40
0.2
 40
0.2
 40
0.2
 40
0.2
 40
0.4
 40
0.4
 40
0.4
 40
0.4
 40
0.6
 40
0.6
 40
0.6
 40
0.6
 40
1.0
 40
1.0
 40
1.0
 40
1.0
 10
-171.808
 20
55.6033
 30
0.0
 10
-175.8807
 20
55.6033
 30
0.0
 10
-179.1848
 20
52.2998
 30
0.0
 10
-179.1848
 20
48.227
 30
0.0
 10
-179.1848
 20
48.227
 30
0.0
 10
-179.1848
 20
48.227
 30
0.0
 10
-164.4321
 20
48.2276
 30
0.0
 10
-164.4321
 20
48.2276
 30
0.0
 10
-164.4321
 20
48.2276
 30
0.0
 10
-164.4321
 20
52.3002
 30
0.0
 10
-167.7365
 20
55.6024
 30
0.0
 10
-171.8092
 20
55.6024
 30
0.0
 10
-171.8092
 20
55.6024
 30
0.0
 10
-171.8092
 20
55.6024
 30
0.0
 10
-171.808
 20
55.6033
 30
0.0
 10
-171.808
 20
55.6033
 30
0.0
  0
SPLINE
  5
63
330
1F
100
AcDbEntity
  8
layer 1
 62
     7
100
AcDbSpline
210
0.0
220
0.0
230
1.0
 70
    11
 71
     3
 72
    20
 73
    16
 74
     0
 42
0.0000000001
 43
0.0000000001
 12
1.0
 22
0.0
 32
0.0
 13
1.0
 23
0.0
 33
0.0
 40
0.0
 40
0.0
 40
0.0
 40
0.0
 40
0.2
 40
0.2
 40
0.2
 40
0.2
 40
0.4
 40
0.4
 40
0.4
 40
0.4
 40
0.6
 40
0.6
 40
0.6
 40
0.6
 40
1.0
 40
1.0
 40
1.0
 40
1.0
 10
-167.4632
 20
59.9483
 30
0.0
 10
-167.4632
 20
64.0209
 30
0.0
 10
-164.1613
 20
67.3232
 30
0.0
 10
-160.0882
 20
67.3232
 30
0.0
 10
-160.0882
 20
67.3232
 30
0.0
 10
-160.0882
 20
67.3232
 30
0.0
 10
-160.087
 20
52.5724
 30
0.0
 10
-160.087
 20
52.5724
 30
0.0
 10
-160.087
 20
52.5724
 30
0.0
 10
-164.16
 20
52.5724
 30
0.0
 10
-167.4644
 20
55.8752
 30
0.0
 10
-167.4644
 20
59.9479
 30
0.0
 10
-167.4644
 20
59.9479
 30
0.0
 10
-167.4644
 20
59.9479
 30
0.0
 10
-167.4632
 20
59.9483
 30
0.0
 10
-167.4632
 20
59.9483
 30
0.0
  0
SPLINE
  5
64
330
1F
100
AcDbEntity
  8
layer 1
 62
     7
100
AcDbSpline
210
0.0
220
0.0
230
1.0
 70
    11
 71
     3
 72
    20
 73
    16
 74
     0
 42
0.0000000001
 43
0.0000000001
 12
1.0
 22
0.0
 32
0.0
 13
1.0
 23
0.0
 33
0.0
 40
0.0
 40
0.0
 40
0.0
 40
0.0
 40
0.2
 40
0.2
 40
0.2
 40
0.2
 40
0.4
 40
0.4
 40
0.4
 40
0.4
 40
0.6
 40
0.6
 40
0.6
 40
0.6
 40
1.0
 40
1.0
 40
1.0
 40
1.0
 10
-176.153
 20
59.9483
 30
0.0
 10
-176.153
 20
64.0209
 30
0.0
 10
-179.4572
 20
67.3232
 30
0.0
 10
-183.5299
 20
67.3232
 30
0.0
 10
-183.5299
 20
67.3232
 30
0.0
 10
-183.5299
 20
67.3232
 30
0.0
 10
-183.5288
 20
52.5724
 30
0.0
 10
-183.5288
 20
52.5724
 30
0.0
 10
-183.5288
 20
52.5724
 30
0.0
 10
-179.4562
 20
52.5724
 30
0.0
 10
-176.1543
 20
55.8748
 30
0.0
 10
-176.1543
 20
59.9479
 30
0.0
 10
-176.1543
 20
59.9479
 30
0.0
 10
-176.1543
 20
59.9479
 30
0.0
 10
-176.153
 20
59.9483
 30
0.0
 10
-176.153
 20
59.9483
 30
0.0
  0
SPLINE
  5
65
330
1F
100
AcDbEntity
  8
layer 1
 62
     7
100
AcDbSpline
210
0.0
220
0.0
230
1.0
 70
    11
 71
     3
 72
    20
 73
    16
 74
     0
 42
0.0000000001
 43
0.0000000001
 12
1.0
 22
0.0
 32
0.0
 13
1.0
 23
0.0
 33
0.0
 40
0.0
 40
0.0
 40
0.0
 40
0.0
 40
0.2
 40
0.2
 40
0.2
 40
0.2
 40
0.4
 40
0.4
 40
0.4
 40
0.4
 40
0.6
 40
0.6
 40
0.6
 40
0.6
 40
1.0
 40
1.0
 40
1.0
 40
1.0
 10
-145.7233
 20
55.6033
 30
0.0
 10
-149.7963
 20
55.6033
 30
0.0
 10
-153.0995
 20
52.2998
 30
0.0
 10
-153.0995
 20
48.227
 30
0.0
 10
-153.0995
 20
48.227
 30
0.0
 10
-153.0995
 20
48.227
 30
0.0
 10
-138.3475
 20
48.2276
 30
0.0
 10
-138.3475
 20
48.2276
 30
0.0
 10
-138.3475
 20
48.2276
 30
0.0
 10
-138.3475
 20
52.3002
 30
0.0
 10
-141.6511
 20
55.6024
 30
0.0
 10
-145.7236
 20
55.6024
 30
0.0
 10
-145.7236
 20
55.6024
 30
0.0
 10
-145.7236
 20
55.6024
 30
0.0
 10
-145.7233
 20
55.6033
 30
0.0
 10
-145.7233
 20
55.6033
 30
0.0
  0
SPLINE
  5
66
330
1F
100
AcDbEntity
  8
layer 1
 62
     7
100
AcDbSpline
210
0.0
220
0.0
230
1.0
 70
    11
 71
     3
 72
    16
 73
    12
 74
     0
 42
0.0000000001
 43
0.0000000001
 12
1.0
 22
0.0
 32
0.0
 13
1.0
 23
0.0
 33
0.0
 40
0.0
 40
0.0
 40
0.0
 40
0.0
 40
0.25
 40
0.25
 40
0.25
 40
0.25
 40
0.5
 40
0.5
 40
0.5
 40
0.5
 40
1.0
 40
1.0
 40
1.0
 40
1.0
 10
-141.3785
 20
59.9483
 30
0.0
 10
-141.3785
 20
64.0209
 30
0.0
 10
-138.0756
 20
67.3232
 30
0.0
 10
-134.0032
 20
67.3232
 30
0.0
 10
-134.0032
 20
67.3232
 30
0.0
 10
-134.0032
 20
67.3232
 30
0.0
 10
-134.0026
 20
52.5724
 30
0.0
 10
-134.0026
 20
52.5724
 30
0.0
 10
-134.0026
 20
52.5724
 30
0.0
 10
-138.0753
 20
52.5724
 30
0.0
 10
-141.3785
 20
55.8752
 30
0.0
 10
-141.3785
 20
59.9483
 30
0.0
  0
SPLINE
  5
67
330
1F
100
AcDbEntity
  8
layer 1
 62
     7
100
AcDbSpline
210
0.0
220
0.0
230
1.0
 70
    11
 71
     3
 72
    20
 73
    16
 74
     0
 42
0.0000000001
 43
0.0000000001
 12
1.0
 22
0.0
 32
0.0
 13
1.0
 23
0.0
 33
0.0
 40
0.0
 40
0.0
 40
0.0
 40
0.0
 40
0.2
 40
0.2
 40
0.2
 40
0.2
 40
0.4
 40
0.4
 40
0.4
 40
0.4
 40
0.6
 40
0.6
 40
0.6
 40
0.6
 40
1.0
 40
1.0
 40
1.0
 40
1.0
 10
-157.4443
 20
67.3241
 30
0.0
 10
-157.4443
 20
67.3241
 30
0.0
 10
-157.4443
 20
52.5724
 30
0.0
 10
-157.4443
 20
52.5724
 30
0.0
 10
-157.4443
 20
52.5724
 30
0.0
 10
-153.3715
 20
52.5724
 30
0.0
 10
-150.0693
 20
55.8748
 30
0.0
 10
-150.0693
 20
59.9479
 30
0.0
 10
-150.0693
 20
59.9479
 30
0.0
 10
-150.0684
 20
64.0209
 30
0.0
 10
-153.372
 20
67.3232
 30
0.0
 10
-157.4446
 20
67.3232
 30
0.0
 10
-157.4446
 20
67.3232
 30
0.0
 10
-157.4446
 20
67.3232
 30
0.0
 10
-157.4443
 20
67.3241
 30
0.0
 10
-157.4443
 20
67.3241
 30
0.0
  0
SPLINE
  5
68
330
1F
100
AcDbEntity
  8
layer 1
 62
     7
100
AcDbSpline
210
0.0
220
0.0
230
1.0
 70
    11
 71
     3
 72
    20
 73
    16
 74
     0
 42
0.0000000001
 43
0.0000000001
 12
1.0
 22
0.0
 32
0.0
 13
1.0
 23
0.0
 33
0.0
 40
0.0
 40
0.0
 40
0.0
 40
0.0
 40
0.2
 40
0.2
 40
0.2
 40
0.2
 40
0.4
 40
0.4
 40
0.4
 40
0.4
 40
0.6
 40
0.6
 40
0.6
 40
0.6
 40
1.0
 40
1.0
 40
1.0
 40
1.0
 10
-119.6368
 20
55.6033
 30
0.0
 10
-123.7094
 20
55.6033
 30
0.0
 10
-127.014
 20
52.2998
 30
0.0
 10
-127.014
 20
48.227
 30
0.0
 10
-127.014
 20
48.227
 30
0.0
 10
-127.014
 20
48.227
 30
0.0
 10
-112.261
 20
48.2276
 30
0.0
 10
-112.261
 20
48.2276
 30
0.0
 10
-112.261
 20
48.2276
 30
0.0
 10
-112.261
 20
52.3002
 30
0.0
 10
-115.5657
 20
55.6024
 30
0.0
 10
-119.6387
 20
55.6024
 30
0.0
 10
-119.6387
 20
55.6024
 30
0.0
 10
-119.6387
 20
55.6024
 30
0.0
 10
-119.6368
 20
55.6033
 30
0.0
 10
-119.6368
 20
55.6033
 30
0.0
  0
SPLINE
  5
69
330
1F
100
AcDbEntity
  8
layer 1
 62
     7
100
AcDbSpline
210
0.0
220
0.0
230
1.0
 70
    11
 71
     3
 72
    20
 73
    16
 74
     0
 42
0.0000000001
 43
0.0000000001
 12
1.0
 22
0.0
 32
0.0
 13
1.0
 23
0.0
 33
0.0
 40
0.0
 40
0.0
 40
0.0
 40
0.0
 40
0.2
 40
0.2
 40
0.2
 40
0.2
 40
0.4
 40
0.4
 40
0.4
 40
0.4
 40
0.6
 40
0.6
 40
0.6
 40
0.6
 40
1.0
 40
1.0
 40
1.0
 40
1.0
 10
-115.2919
 20
59.9483
 30
0.0
 10
-115.2919
 20
64.0209
 30
0.0
 10
-111.9906
 20
67.3232
 30
0.0
 10
-107.9177
 20
67.3232
 30
0.0
 10
-107.9177
 20
67.3232
 30
0.0
 10
-107.9177
 20
67.3232
 30
0.0
 10
-107.916
 20
52.5724
 30
0.0
 10
-107.916
 20
52.5724
 30
0.0
 10
-107.916
 20
52.5724
 30
0.0
 10
-111.9887
 20
52.5724
 30
0.0
 10
-115.2936
 20
55.8752
 30
0.0
 10
-115.2936
 20
59.9479
 30
0.0
 10
-115.2936
 20
59.9479
 30
0.0
 10
-115.2936
 20
59.9479
 30
0.0
 10
-115.2919
 20
59.9483
 30
0.0
 10
-115.2919
 20
59.9483
 30
0.0
  0
SPLINE
  5
6A
330
1F
100
AcDbEntity
  8
layer 1
 62
     7
100
AcDbSpline
210
0.0
220
0.0
230
1.0
 70
    11
 71
     3
 72
    20
 73
    16
 74
     0
 42
0.0000000001
 43
0.0000000001
 12
1.0
 22
0.0
 32
0.0
 13
1.0
 23
0.0
 33
0.0
 40
0.0
 40
0.0
 40
0.0
 40
0.0
 40
0.2
 40
0.2
 40
0.2
 40
0.2
 40
0.4
 40
0.4
 40
0.4
 40
0.4
 40
0.6
 40
0.6
 40
0.6
 40
0.6
 40
1.0
 40
1.0
 40
1.0
 40
1.0
 10
-131.3575
 20
67.3241
 30
0.0
 10
-131.3575
 20
67.3241
 30
0.0
 10
-131.3575
 20
52.5724
 30
0.0
 10
-131.3575
 20
52.5724
 30
0.0
 10
-131.3575
 20
52.5724
 30
0.0
 10
-127.2849
 20
52.5724
 30
0.0
 10
-123.9835
 20
55.8748
 30
0.0
 10
-123.9835
 20
59.9479
 30
0.0
 10
-123.9835
 20
59.9479
 30
0.0
 10
-123.9817
 20
64.0209
 30
0.0
 10
-127.2864
 20
67.3232
 30
0.0
 10
-131.3594
 20
67.3232
 30
0.0
 10
-131.3594
 20
67.3232
 30
0.0
 10
-131.3594
 20
67.3232
 30
0.0
 10
-131.3575
 20
67.3241
 30
0.0
 10
-131.3575
 20
67.3241
 30
0.0
  0
SPLINE
  5
6B
330
1F
100
AcDbEntity
  8
layer 1
 62
     7
100
AcDbSpline
210
0.0
220
0.0
230
1.0
 70
    11
 71
     3
 72
    20
 73
    16
 74
     0
 42
0.0000000001
 43
0.0000000001
 12
1.0
 22
0.0
 32
0.0
 13
1.0
 23
0.0
 33
0.0
 40
0.0
 40
0.0
 40
0.0
 40
0.0
 40
0.2
 40
0.2
 40
0.2
 40
0.2
 40
0.4
 40
0.4
 40
0.4
 40
0.4
 40
0.6
 40
0.6
 40
0.6
 40
0.6
 40
1.0
 40
1.0
 40
1.0
 40
1.0
 10
-93.552
 20
55.6033
 30
0.0
 10
-97.625
 20
55.6033
 30
0.0
 10
-100.9288
 20
52.2998
 30
0.0
 10
-100.9288
 20
48.227
 30
0.0
 10
-100.9288
 20
48.227
 30
0.0
 10
-100.9288
 20
48.227
 30
0.0
 10
-86.1764
 20
48.2276
 30
0.0
 10
-86.1764
 20
48.2276
 30
0.0
 10
-86.1764
 20
48.2276
 30
0.0
 10
-86.1764
 20
52.3002
 30
0.0
 10
-89.4806
 20
55.6024
 30
0.0
 10
-93.5532
 20
55.6024
 30
0.0
 10
-93.5532
 20
55.6024
 30
0.0
 10
-93.5532
 20
55.6024
 30
0.0
 10
-93.552
 20
55.6033
 30
0.0
 10
-93.552
 20
55.6033
 30
0.0
  0
SPLINE
  5
6C
330
1F
100
AcDbEntity
  8
layer 1
 62
     7
100
AcDbSpline
210
0.0
220
0.0
230
1.0
 70
    11
 71
     3
 72
    20
 73
    16
 74
     0
 42
0.0000000001
 43
0.0000000001
 12
1.0
 22
0.0
 32
0.0
 13
1.0
 23
0.0
 33
0.0
 40
0.0
 40
0.0
 40
0.0
 40
0.0
 40
0.2
 40
0.2
 40
0.2
 40
0.2
 40
0.4
 40
0.4
 40
0.4
 40
0.4
 40
0.6
 40
0.6
 40
0.6
 40
0.6
 40
1.0
 40
1.0
 40
1.0
 40
1.0
 10
-89.2072
 20
59.9483
 30
0.0
 10
-89.2072
 20
64.0209
 30
0.0
 10
-85.9053
 20
67.3232
 30
0.0
 10
-81.8324
 20
67.3232
 30
0.0
 10
-81.8324
 20
67.3232
 30
0.0
 10
-81.8324
 20
67.3232
 30
0.0
 10
-81.8313
 20
52.5724
 30
0.0
 10
-81.8313
 20
52.5724
 30
0.0
 10
-81.8313
 20
52.5724
 30
0.0
 10
-85.9043
 20
52.5724
 30
0.0
 10
-89.2077
 20
55.8752
 30
0.0
 10
-89.2077
 20
59.9479
 30
0.0
 10
-89.2077
 20
59.9479
 30
0.0
 10
-89.2077
 20
59.9479
 30
0.0
 10
-89.2072
 20
59.9483
 30
0.0
 10
-89.2072
 20
59.9483
 30
0.0
  0
SPLINE
  5
6D
330
1F
100
AcDbEntity
  8
layer 1
 62
     7
100
AcDbSpline
210
0.0
220
0.0
230
1.0
 70
    11
 71
     3
 72
    20
 73
    16
 74
     0
 42
0.0000000001
 43
0.0000000001
 12
1.0
 22
0.0
 32
0.0
 13
1.0
 23
0.0
 33
0.0
 40
0.0
 40
0.0
 40
0.0
 40
0.0
 40
0.2
 40
0.2
 40
0.2
 40
0.2
 40
0.4
 40
0.4
 40
0.4
 40
0.4
 40
0.6
 40
0.6
 40
0.6
 40
0.6
 40
1.0
 40
1.0
 40
1.0
 40
1.0
 10
-105.273
 20
67.3241
 30
0.0
 10
-105.273
 20
67.3241
 30
0.0
 10
-105.273
 20
52.5724
 30
0.0
 10
-105.273
 20
52.5724
 30
0.0
 10
-105.273
 20
52.5724
 30
0.0
 10
-101.2005
 20
52.5724
 30
0.0
 10
-97.8986
 20
55.8748
 30
0.0
 10
-97.8986
 20
59.9479
 30
0.0
 10
-97.8986
 20
59.9479
 30
0.0
 10
-97.8971
 20
64.0209
 30
0.0
 10
-101.2015
 20
67.3232
 30
0.0
 10
-105.2745
 20
67.3232
 30
0.0
 10
-105.2745
 20
67.3232
 30
0.0
 10
-105.2745
 20
67.3232
 30
0.0
 10
-105.273
 20
67.3241
 30
0.0
 10
-105.273
 20
67.3241
 30
0.0
  0
SPLINE
  5
6E
330
1F
100
AcDbEntity
  8
layer 1
 62
     7
100
AcDbSpline
210
0.0
220
0.0
230
1.0
 70
    11
 71
     3
 72
    20
 73
    16
 74
     0
 42
0.0000000001
 43
0.0000000001
 12
1.0
 22
0.0
 32
0.0
 13
1.0
 23
0.0
 33
0.0
 40
0.0
 40
0.0
 40
0.0
 40
0.0
 40
0.2
 40
0.2
 40
0.2
 40
0.2
 40
0.4
 40
0.4
 40
0.4
 40
0.4
 40
0.6
 40
0.6
 40
0.6
 40
0.6
 40
1.0
 40
1.0
 40
1.0
 40
1.0
 10
-164.4321
 20
71.669
 30
0.0
 10
-164.4321
 20
71.669
 30
0.0
 10
-179.1839
 20
71.669
 30
0.0
 10
-179.1839
 20
71.669
 30
0.0
 10
-179.1839
 20
71.669
 30
0.0
 10
-179.1839
 20
67.5964
 30
0.0
 10
-175.8817
 20
64.2928
 30
0.0
 10
-171.8092
 20
64.2928
 30
0.0
 10
-171.8092
 20
64.2928
 30
0.0
 10
-167.7355
 20
64.2931
 30
0.0
 10
-164.4333
 20
67.5959
 30
0.0
 10
-164.4333
 20
71.6685
 30
0.0
 10
-164.4333
 20
71.6685
 30
0.0
 10
-164.4333
 20
71.6685
 30
0.0
 10
-164.4321
 20
71.669
 30
0.0
 10
-164.4321
 20
71.669
 30
0.0
  0
SPLINE
  5
6F
330
1F
100
AcDbEntity
  8
layer 1
 62
     7
100
AcDbSpline
210
0.0
220
0.0
230
1.0
 70
    11
 71
     3
 72
    20
 73
    16
 74
     0
 42
0.0000000001
 43
0.0000000001
 12
1.0
 22
0.0
 32
0.0
 13
1.0
 23
0.0
 33
0.0
 40
0.0
 40
0.0
 40
0.0
 40
0.0
 40
0.2
 40
0.2
 40
0.2
 40
0.2
 40
0.4
 40
0.4
 40
0.4
 40
0.4
 40
0.6
 40
0.6
 40
0.6
 40
0.6
 40
1.0
 40
1.0
 40
1.0
 40
1.0
 10
-138.3475
 20
71.669
 30
0.0
 10
-138.3475
 20
71.669
 30
0.0
 10
-153.0992
 20
71.669
 30
0.0
 10
-153.0992
 20
71.669
 30
0.0
 10
-153.0992
 20
71.669
 30
0.0
 10
-153.0992
 20
67.5964
 30
0.0
 10
-149.7968
 20
64.2928
 30
0.0
 10
-145.7236
 20
64.2928
 30
0.0
 10
-145.7236
 20
64.2928
 30
0.0
 10
-141.6508
 20
64.2931
 30
0.0
 10
-138.348
 20
67.5959
 30
0.0
 10
-138.348
 20
71.6685
 30
0.0
 10
-138.348
 20
71.6685
 30
0.0
 10
-138.348
 20
71.6685
 30
0.0
 10
-138.3475
 20
71.669
 30
0.0
 10
-138.3475
 20
71.669
 30
0.0
  0
SPLINE
  5
70
330
1F
100
AcDbEntity
  8
layer 1
 62
     7
100
AcDbSpline
210
0.0
220
0.0
230
1.0
 70
    11
 71
     3
 72
    20
 73
    16
 74
     0
 42
0.0000000001
 43
0.0000000001
 12
1.0
 22
0.0
 32
0.0
 13
1.0
 23
0.0
 33
0.0
 40
0.0
 40
0.0
 40
0.0
 40
0.0
 40
0.2
 40
0.2
 40
0.2
 40
0.2
 40
0.4
 40
0.4
 40
0.4
 40
0.4
 40
0.6
 40
0.6
 40
0.6
 40
0.6
 40
1.0
 40
1.0
 40
1.0
 40
1.0
 10
-112.261
 20
71.669
 30
0.0
 10
-112.261
 20
71.669
 30
0.0
 10
-127.0127
 20
71.669
 30
0.0
 10
-127.0127
 20
71.669
 30
0.0
 10
-127.0127
 20
71.669
 30
0.0
 10
-127.0127
 20
67.5964
 30
0.0
 10
-123.7113
 20
64.2928
 30
0.0
 10
-119.6387
 20
64.2928
 30
0.0
 10
-119.6387
 20
64.2928
 30
0.0
 10
-115.5642
 20
64.2931
 30
0.0
 10
-112.2628
 20
67.5959
 30
0.0
 10
-112.2628
 20
71.6685
 30
0.0
 10
-112.2628
 20
71.6685
 30
0.0
 10
-112.2628
 20
71.6685
 30
0.0
 10
-112.261
 20
71.669
 30
0.0
 10
-112.261
 20
71.669
 30
0.0
  0
SPLINE
  5
71
330
1F
100
AcDbEntity
  8
layer 1
 62
     7
100
AcDbSpline
210
0.0
220
0.0
230
1.0
 70
    11
 71
     3
 72
    20
 73
    16
 74
     0
 42
0.0000000001
 43
0.0000000001
 12
1.0
 22
0.0
 32
0.0
 13
1.0
 23
0.0
 33
0.0
 40
0.0
 40
0.0
 40
0.0
 40
0.0
 40
0.2
 40
0.2
 40
0.2
 40
0.2
 40
0.4
 40
0.4
 40
0.4
 40
0.4
 40
0.6
 40
0.6
 40
0.6
 40
0.6
 40
1.0
 40
1.0
 40
1.0
 40
1.0
 10
-86.1764
 20
71.669
 30
0.0
 10
-86.1764
 20
71.669
 30
0.0
 10
-100.9282
 20
71.669
 30
0.0
 10
-100.9282
 20
71.669
 30
0.0
 10
-100.9282
 20
71.669
 30
0.0
 10
-100.9282
 20
67.5964
 30
0.0
 10
-97.626
 20
64.2928
 30
0.0
 10
-93.5532
 20
64.2928
 30
0.0
 10
-93.5532
 20
64.2928
 30
0.0
 10
-89.4795
 20
64.2931
 30
0.0
 10
-86.1779
 20
67.5959
 30
0.0
 10
-86.1779
 20
71.6685
 30
0.0
 10
-86.1779
 20
71.6685
 30
0.0
 10
-86.1779
 20
71.6685
 30
0.0
 10
-86.1764
 20
71.669
 30
0.0
 10
-86.1764
 20
71.669
 30
0.0
  0
SPLINE
  5
72
330
1F
100
AcDbEntity
  8
layer 1
 62
     7
100
AcDbSpline
210
0.0
220
0.0
230
1.0
 70
    11
 71
     3
 72
    20
 73
    16
 74
     0
 42
0.0000000001
 43
0.0000000001
 12
1.0
 22
0.0
 32
0.0
 13
1.0
 23
0.0
 33
0.0
 40
0.0
 40
0.0
 40
0.0
 40
0.0
 40
0.2
 40
0.2
 40
0.2
 40
0.2
 40
0.4
 40
0.4
 40
0.4
 40
0.4
 40
0.6
 40
0.6
 40
0.6
 40
0.6
 40
1.0
 40
1.0
 40
1.0
 40
1.0
 10
-171.808
 20
29.5177
 30
0.0
 10
-175.8807
 20
29.5177
 30
0.0
 10
-179.1848
 20
26.2141
 30
0.0
 10
-179.1848
 20
22.1413
 30
0.0
 10
-179.1848
 20
22.1413
 30
0.0
 10
-179.1848
 20
22.1413
 30
0.0
 10
-164.4321
 20
22.1419
 30
0.0
 10
-164.4321
 20
22.1419
 30
0.0
 10
-164.4321
 20
22.1419
 30
0.0
 10
-164.4321
 20
26.2146
 30
0.0
 10
-167.7365
 20
29.5172
 30
0.0
 10
-171.8092
 20
29.5172
 30
0.0
 10
-171.8092
 20
29.5172
 30
0.0
 10
-171.8092
 20
29.5172
 30
0.0
 10
-171.808
 20
29.5177
 30
0.0
 10
-171.808
 20
29.5177
 30
0.0
  0
SPLINE
  5
73
330
1F
100
AcDbEntity
  8
layer 1
 62
     7
100
AcDbSpline
210
0.0
220
0.0
230
1.0
 70
    11
 71
     3
 72
    20
 73
    16
 74
     0
 42
0.0000000001
 43
0.0000000001
 12
1.0
 22
0.0
 32
0.0
 13
1.0
 23
0.0
 33
0.0
 40
0.0
 40
0.0
 40
0.0
 40
0.0
 40
0.2
 40
0.2
 40
0.2
 40
0.2
 40
0.4
 40
0.4
 40
0.4
 40
0.4
 40
0.6
 40
0.6
 40
0.6
 40
0.6
 40
1.0
 40
1.0
 40
1.0
 40
1.0
 10
-167.4632
 20
33.8627
 30
0.0
 10
-167.4632
 20
37.9355
 30
0.0
 10
-164.1613
 20
41.2382
 30
0.0
 10
-160.0882
 20
41.2382
 30
0.0
 10
-160.0882
 20
41.2382
 30
0.0
 10
-160.0882
 20
41.2382
 30
0.0
 10
-160.087
 20
26.4868
 30
0.0
 10
-160.087
 20
26.4868
 30
0.0
 10
-160.087
 20
26.4868
 30
0.0
 10
-164.16
 20
26.4868
 30
0.0
 10
-167.4644
 20
29.7894
 30
0.0
 10
-167.4644
 20
33.8623
 30
0.0
 10
-167.4644
 20
33.8623
 30
0.0
 10
-167.4644
 20
33.8623
 30
0.0
 10
-167.4632
 20
33.8627
 30
0.0
 10
-167.4632
 20
33.8627
 30
0.0
  0
SPLINE
  5
74
330
1F
100
AcDbEntity
  8
layer 1
 62
     7
100
AcDbSpline
210
0.0
220
0.0
230
1.0
 70
    11
 71
     3
 72
    20
 73
    16
 74
     0
 42
0.0000000001
 43
0.0000000001
 12
1.0
 22
0.0
 32
0.0
 13
1.0
 23
0.0
 33
0.0
 40
0.0
 40
0.0
 40
0.0
 40
0.0
 40
0.2
 40
0.2
 40
0.2
 40
0.2
 40
0.4
 40
0.4
 40
0.4
 40
0.4
 40
0.6
 40
0.6
 40
0.6
 40
0.6
 40
1.0
 40
1.0
 40
1.0
 40
1.0
 10
-176.153
 20
33.8627
 30
0.0
 10
-176.153
 20
37.9355
 30
0.0
 10
-179.4572
 20
41.2382
 30
0.0
 10
-183.5299
 20
41.2382
 30
0.0
 10
-183.5299
 20
41.2382
 30
0.0
 10
-183.5299
 20
41.2382
 30
0.0
 10
-183.5288
 20
26.4868
 30
0.0
 10
-183.5288
 20
26.4868
 30
0.0
 10
-183.5288
 20
26.4868
 30
0.0
 10
-179.4562
 20
26.4868
 30
0.0
 10
-176.1543
 20
29.7894
 30
0.0
 10
-176.1543
 20
33.8623
 30
0.0
 10
-176.1543
 20
33.8623
 30
0.0
 10
-176.1543
 20
33.8623
 30
0.0
 10
-176.153
 20
33.8627
 30
0.0
 10
-176.153
 20
33.8627
 30
0.0
  0
SPLINE
  5
75
330
1F
100
AcDbEntity
  8
layer 1
 62
     7
100
AcDbSpline
210
0.0
220
0.0
230
1.0
 70
    11
 71
     3
 72
    20
 73
    16
 74
     0
 42
0.0000000001
 43
0.0000000001
 12
1.0
 22
0.0
 32
0.0
 13
1.0
 23
0.0
 33
0.0
 40
0.0
 40
0.0
 40
0.0
 40
0.0
 40
0.2
 40
0.2
 40
0.2
 40
0.2
 40
0.4
 40
0.4
 40
0.4
 40
0.4
 40
0.6
 40
0.6
 40
0.6
 40
0.6
 40
1.0
 40
1.0
 40
1.0
 40
1.0
 10
-145.7233
 20
29.5177
 30
0.0
 10
-149.7963
 20
29.5177
 30
0.0
 10
-153.0995
 20
26.2141
 30
0.0
 10
-153.0995
 20
22.1413
 30
0.0
 10
-153.0995
 20
22.1413
 30
0.0
 10
-153.0995
 20
22.1413
 30
0.0
 10
-138.3475
 20
22.1419
 30
0.0
 10
-138.3475
 20
22.1419
 30
0.0
 10
-138.3475
 20
22.1419
 30
0.0
 10
-138.3475
 20
26.2146
 30
0.0
 10
-141.6511
 20
29.5172
 30
0.0
 10
-145.7236
 20
29.5172
 30
0.0
 10
-145.7236
 20
29.5172
 30
0.0
 10
-145.7236
 20
29.5172
 30
0.0
 10
-145.7233
 20
29.5177
 30
0.0
 10
-145.7233
 20
29.5177
 30
0.0
  0
SPLINE
  5
76
330
1F
100
AcDbEntity
  8
layer 1
 62
     7
100
AcDbSpline
210
0.0
220
0.0
230
1.0
 70
    11
 71
     3
 72
    16
 73
    12
 74
     0
 42
0.0000000001
 43
0.0000000001
 12
1.0
 22
0.0
 32
0.0
 13
1.0
 23
0.0
 33
0.0
 40
0.0
 40
0.0
 40
0.0
 40
0.0
 40
0.25
 40
0.25
 40
0.25
 40
0.25
 40
0.5
 40
0.5
 40
0.5
 40
0.5
 40
1.0
 40
1.0
 40
1.0
 40
1.0
 10
-141.3785
 20
33.8627
 30
0.0
 10
-141.3785
 20
37.9355
 30
0.0
 10
-138.0756
 20
41.2382
 30
0.0
 10
-134.0032
 20
41.2382
 30
0.0
 10
-134.0032
 20
41.2382
 30
0.0
 10
-134.0032
 20
41.2382
 30
0.0
 10
-134.0026
 20
26.4868
 30
0.0
 10
-134.0026
 20
26.4868
 30
0.0
 10
-134.0026
 20
26.4868
 30
0.0
 10
-138.0753
 20
26.4868
 30
0.0
 10
-141.3785
 20
29.7894
 30
0.0
 10
-141.3785
 20
33.8627
 30
0.0
  0
SPLINE
  5
77
330
1F
100
AcDbEntity
  8
layer 1
 62
     7
100
AcDbSpline
210
0.0
220
0.0
230
1.0
 70
    11
 71
     3
 72
    20
 73
    16
 74
     0
 42
0.0000000001
 43
0.0000000001
 12
1.0
 22
0.0
 32
0.0
 13
1.0
 23
0.0
 33
0.0
 40
0.0
 40
0.0
 40
0.0
 40
0.0
 40
0.2
 40
0.2
 40
0.2
 40
0.2
 40
0.4
 40
0.4
 40
0.4
 40
0.4
 40
0.6
 40
0.6
 40
0.6
 40
0.6
 40
1.0
 40
1.0
 40
1.0
 40
1.0
 10
-157.4443
 20
41.2386
 30
0.0
 10
-157.4443
 20
41.2386
 30
0.0
 10
-157.4443
 20
26.4868
 30
0.0
 10
-157.4443
 20
26.4868
 30
0.0
 10
-157.4443
 20
26.4868
 30
0.0
 10
-153.3715
 20
26.4868
 30
0.0
 10
-150.0693
 20
29.7894
 30
0.0
 10
-150.0693
 20
33.8623
 30
0.0
 10
-150.0693
 20
33.8623
 30
0.0
 10
-150.0684
 20
37.9355
 30
0.0
 10
-153.372
 20
41.2382
 30
0.0
 10
-157.4446
 20
41.2382
 30
0.0
 10
-157.4446
 20
41.2382
 30
0.0
 10
-157.4446
 20
41.2382
 30
0.0
 10
-157.4443
 20
41.2386
 30
0.0
 10
-157.4443
 20
41.2386
 30
0.0
  0
SPLINE
  5
78
330
1F
100
AcDbEntity
  8
layer 1
 62
     7
100
AcDbSpline
210
0.0
220
0.0
230
1.0
 70
    11
 71
     3
 72
    20
 73
    16
 74
     0
 42
0.0000000001
 43
0.0000000001
 12
1.0
 22
0.0
 32
0.0
 13
1.0
 23
0.0
 33
0.0
 40
0.0
 40
0.0
 40
0.0
 40
0.0
 40
0.2
 40
0.2
 40
0.2
 40
0.2
 40
0.4
 40
0.4
 40
0.4
 40
0.4
 40
0.6
 40
0.6
 40
0.6
 40
0.6
 40
1.0
 40
1.0
 40
1.0
 40
1.0
 10
-119.6368
 20
29.5177
 30
0.0
 10
-123.7094
 20
29.5177
 30
0.0
 10
-127.014
 20
26.2141
 30
0.0
 10
-127.014
 20
22.1413
 30
0.0
 10
-127.014
 20
22.1413
 30
0.0
 10
-127.014
 20
22.1413
 30
0.0
 10
-112.261
 20
22.1419
 30
0.0
 10
-112.261
 20
22.1419
 30
0.0
 10
-112.261
 20
22.1419
 30
0.0
 10
-112.261
 20
26.2146
 30
0.0
 10
-115.5657
 20
29.5172
 30
0.0
 10
-119.6387
 20
29.5172
 30
0.0
 10
-119.6387
 20
29.5172
 30
0.0
 10
-119.6387
 20
29.5172
 30
0.0
 10
-119.6368
 20
29.5177
 30
0.0
 10
-119.6368
 20
29.5177
 30
0.0
  0
SPLINE
  5
79
330
1F
100
AcDbEntity
  8
layer 1
 62
     7
100
AcDbSpline
210
0.0
220
0.0
230
1.0
 70
    11
 71
     3
 72
    20
 73
    16
 74
     0
 42
0.0000000001
 43
0.0000000001
 12
1.0
 22
0.0
 32
0.0
 13
1.0
 23
0.0
 33
0.0
 40
0.0
 40
0.0
 40
0.0
 40
0.0
 40
0.2
 40
0.2
 40
0.2
 40
0.2
 40
0.4
 40
0.4
 40
0.4
 40
0.4
 40
0.6
 40
0.6
 40
0.6
 40
0.6
 40
1.0
 40
1.0
 40
1.0
 40
1.0
 10
-115.2919
 20
33.8627
 30
0.0
 10
-115.2919
 20
37.9355
 30
0.0
 10
-111.9906
 20
41.2382
 30
0.0
 10
-107.9177
 20
41.2382
 30
0.0
 10
-107.9177
 20
41.2382
 30
0.0
 10
-107.9177
 20
41.2382
 30
0.0
 10
-107.916
 20
26.4868
 30
0.0
 10
-107.916
 20
26.4868
 30
0.0
 10
-107.916
 20
26.4868
 30
0.0
 10
-111.9887
 20
26.4868
 30
0.0
 10
-115.2936
 20
29.7894
 30
0.0
 10
-115.2936
 20
33.8623
 30
0.0
 10
-115.2936
 20
33.8623
 30
0.0
 10
-115.2936
 20
33.8623
 30
0.0
 10
-115.2919
 20
33.8627
 30
0.0
 10
-115.2919
 20
33.8627
 30
0.0
  0
SPLINE
  5
7A
330
1F
100
AcDbEntity
  8
layer 1
 62
     7
100
AcDbSpline
210
0.0
220
0.0
230
1.0
 70
    11
 71
     3
 72
    20
 73
    16
 74
     0
 42
0.0000000001
 43
0.0000000001
 12
1.0
 22
0.0
 32
0.0
 13
1.0
 23
0.0
 33
0.0
 40
0.0
 40
0.0
 40
0.0
 40
0.0
 40
0.2
 40
0.2
 40
0.2
 40
0.2
 40
0.4
 40
0.4
 40
0.4
 40
0.4
 40
0.6
 40
0.6
 40
0.6
 40
0.6
 40
1.0
 40
1.0
 40
1.0
 40
1.0
 10
-131.3575
 20
41.2386
 30
0.0
 10
-131.3575
 20
41.2386
 30
0.0
 10
-131.3575
 20
26.4868
 30
0.0
 10
-131.3575
 20
26.4868
 30
0.0
 10
-131.3575
 20
26.4868
 30
0.0
 10
-127.2849
 20
26.4868
 30
0.0
 10
-123.9835
 20
29.7894
 30
0.0
 10
-123.9835
 20
33.8623
 30
0.0
 10
-123.9835
 20
33.8623
 30
0.0
 10
-123.9817
 20
37.9355
 30
0.0
 10
-127.2864
 20
41.2382
 30
0.0
 10
-131.3594
 20
41.2382
 30
0.0
 10
-131.3594
 20
41.2382
 30
0.0
 10
-131.3594
 20
41.2382
 30
0.0
 10
-131.3575
 20
41.2386
 30
0.0
 10
-131.3575
 20
41.2386
 30
0.0
  0
SPLINE
  5
7B
330
1F
100
AcDbEntity
  8
layer 1
 62
     7
100
AcDbSpline
210
0.0
220
0.0
230
1.0
 70
    11
 71
     3
 72
    20
 73
    16
 74
     0
 42
0.0000000001
 43
0.0000000001
 12
1.0
 22
0.0
 32
0.0
 13
1.0
 23
0.0
 33
0.0
 40
0.0
 40
0.0
 40
0.0
 40
0.0
 40
0.2
 40
0.2
 40
0.2
 40
0.2
 40
0.4
 40
0.4
 40
0.4
 40
0.4
 40
0.6
 40
0.6
 40
0.6
 40
0.6
 40
1.0
 40
1.0
 40
1.0
 40
1.0
 10
-93.552
 20
29.5177
 30
0.0
 10
-97.625
 20
29.5177
 30
0.0
 10
-100.9288
 20
26.2141
 30
0.0
 10
-100.9288
 20
22.1413
 30
0.0
 10
-100.9288
 20
22.1413
 30
0.0
 10
-100.9288
 20
22.1413
 30
0.0
 10
-86.1764
 20
22.1419
 30
0.0
 10
-86.1764
 20
22.1419
 30
0.0
 10
-86.1764
 20
22.1419
 30
0.0
 10
-86.1764
 20
26.2146
 30
0.0
 10
-89.4806
 20
29.5172
 30
0.0
 10
-93.5532
 20
29.5172
 30
0.0
 10
-93.5532
 20
29.5172
 30
0.0
 10
-93.5532
 20
29.5172
 30
0.0
 10
-93.552
 20
29.5177
 30
0.0
 10
-93.552
 20
29.5177
 30
0.0
  0
SPLINE
  5
7C
330
1F
100
AcDbEntity
  8
layer 1
 62
     7
100
AcDbSpline
210
0.0
220
0.0
230
1.0
 70
    11
 71
     3
 72
    20
 73
    16
 74
     0
 42
0.0000000001
 43
0.0000000001
 12
1.0
 22
0.0
 32
0.0
 13
1.0
 23
0.0
 33
0.0
 40
0.0
 40
0.0
 40
0.0
 40
0.0
 40
0.2
 40
0.2
 40
0.2
 40
0.2
 40
0.4
 40
0.4
 40
0.4
 40
0.4
 40
0.6
 40
0.6
 40
0.6
 40
0.6
 40
1.0
 40
1.0
 40
1.0
 40
1.0
 10
-89.2072
 20
33.8627
 30
0.0
 10
-89.2072
 20
37.9355
 30
0.0
 10
-85.9053
 20
41.2382
 30
0.0
 10
-81.8324
 20
41.2382
 30
0.0
 10
-81.8324
 20
41.2382
 30
0.0
 10
-81.8324
 20
41.2382
 30
0.0
 10
-81.8313
 20
26.4868
 30
0.0
 10
-81.8313
 20
26.4868
 30
0.0
 10
-81.8313
 20
26.4868
 30
0.0
 10
-85.9043
 20
26.4868
 30
0.0
 10
-89.2077
 20
29.7894
 30
0.0
 10
-89.2077
 20
33.8623
 30
0.0
 10
-89.2077
 20
33.8623
 30
0.0
 10
-89.2077
 20
33.8623
 30
0.0
 10
-89.2072
 20
33.8627
 30
0.0
 10
-89.2072
 20
33.8627
 30
0.0
  0
SPLINE
  5
7D
330
1F
100
AcDbEntity
  8
layer 1
 62
     7
100
AcDbSpline
210
0.0
220
0.0
230
1.0
 70
    11
 71
     3
 72
    20
 73
    16
 74
     0
 42
0.0000000001
 43
0.0000000001
 12
1.0
 22
0.0
 32
0.0
 13
1.0
 23
0.0
 33
0.0
 40
0.0
 40
0.0
 40
0.0
 40
0.0
 40
0.2
 40
0.2
 40
0.2
 40
0.2
 40
0.4
 40
0.4
 40
0.4
 40
0.4
 40
0.6
 40
0.6
 40
0.6
 40
0.6
 40
1.0
 40
1.0
 40
1.0
 40
1.0
 10
-105.273
 20
41.2386
 30
0.0
 10
-105.273
 20
41.2386
 30
0.0
 10
-105.273
 20
26.4868
 30
0.0
 10
-105.273
 20
26.4868
 30
0.0
 10
-105.273
 20
26.4868
 30
0.0
 10
-101.2005
 20
26.4868
 30
0.0
 10
-97.8986
 20
29.7894
 30
0.0
 10
-97.8986
 20
33.8623
 30
0.0
 10
-97.8986
 20
33.8623
 30
0.0
 10
-97.8971
 20
37.9355
 30
0.0
 10
-101.2015
 20
41.2382
 30
0.0
 10
-105.2745
 20
41.2382
 30
0.0
 10
-105.2745
 20
41.2382
 30
0.0
 10
-105.2745
 20
41.2382
 30
0.0
 10
-105.273
 20
41.2386
 30
0.0
 10
-105.273
 20
41.2386
 30
0.0
  0
SPLINE
  5
7E
330
1F
100
AcDbEntity
  8
layer 1
 62
     7
100
AcDbSpline
210
0.0
220
0.0
230
1.0
 70
    11
 71
     3
 72
    20
 73
    16
 74
     0
 42
0.0000000001
 43
0.0000000001
 12
1.0
 22
0.0
 32
0.0
 13
1.0
 23
0.0
 33
0.0
 40
0.0
 40
0.0
 40
0.0
 40
0.0
 40
0.2
 40
0.2
 40
0.2
 40
0.2
 40
0.4
 40
0.4
 40
0.4
 40
0.4
 40
0.6
 40
0.6
 40
0.6
 40
0.6
 40
1.0
 40
1.0
 40
1.0
 40
1.0
 10
-164.4321
 20
45.5835
 30
0.0
 10
-164.4321
 20
45.5835
 30
0.0
 10
-179.1839
 20
45.5835
 30
0.0
 10
-179.1839
 20
45.5835
 30
0.0
 10
-179.1839
 20
45.5835
 30
0.0
 10
-179.1839
 20
41.5107
 30
0.0
 10
-175.8817
 20
38.2078
 30
0.0
 10
-171.8092
 20
38.2078
 30
0.0
 10
-171.8092
 20
38.2078
 30
0.0
 10
-167.7355
 20
38.2087
 30
0.0
 10
-164.4333
 20
41.5105
 30
0.0
 10
-164.4333
 20
45.5833
 30
0.0
 10
-164.4333
 20
45.5833
 30
0.0
 10
-164.4333
 20
45.5833
 30
0.0
 10
-164.4321
 20
45.5835
 30
0.0
 10
-164.4321
 20
45.5835
 30
0.0
  0
SPLINE
  5
7F
330
1F
100
AcDbEntity
  8
layer 1
 62
     7
100
AcDbSpline
210
0.0
220
0.0
230
1.0
 70
    11
 71
     3
 72
    20
 73
    16
 74
     0
 42
0.0000000001
 43
0.0000000001
 12
1.0
 22
0.0
 32
0.0
 13
1.0
 23
0.0
 33
0.0
 40
0.0
 40
0.0
 40
0.0
 40
0.0
 40
0.2
 40
0.2
 40
0.2
 40
0.2
 40
0.4
 40
0.4
 40
0.4
 40
0.4
 40
0.6
 40
0.6
 40
0.6
 40
0.6
 40
1.0
 40
1.0
 40
1.0
 40
1.0
 10
-138.3475
 20
45.5835
 30
0.0
 10
-138.3475
 20
45.5835
 30
0.0
 10
-153.0992
 20
45.5835
 30
0.0
 10
-153.0992
 20
45.5835
 30
0.0
 10
-153.0992
 20
45.5835
 30
0.0
 10
-153.0992
 20
41.5107
 30
0.0
 10
-149.7968
 20
38.2078
 30
0.0
 10
-145.7236
 20
38.2078
 30
0.0
 10
-145.7236
 20
38.2078
 30
0.0
 10
-141.6508
 20
38.2087
 30
0.0
 10
-138.348
 20
41.5105
 30
0.0
 10
-138.348
 20
45.5833
 30
0.0
 10
-138.348
 20
45.5833
 30
0.0
 10
-138.348
 20
45.5833
 30
0.0
 10
-138.3475
 20
45.5835
 30
0.0
 10
-138.3475
 20
45.5835
 30
0.0
  0
SPLINE
  5
80
330
1F
100
AcDbEntity
  8
layer 1
 62
     7
100
AcDbSpline
210
0.0
220
0.0
230
1.0
 70
    11
 71
     3
 72
    20
 73
    16
 74
     0
 42
0.0000000001
 43
0.0000000001
 12
1.0
 22
0.0
 32
0.0
 13
1.0
 23
0.0
 33
0.0
 40
0.0
 40
0.0
 40
0.0
 40
0.0
 40
0.2
 40
0.2
 40
0.2
 40
0.2
 40
0.4
 40
0.4
 40
0.4
 40
0.4
 40
0.6
 40
0.6
 40
0.6
 40
0.6
 40
1.0
 40
1.0
 40
1.0
 40
1.0
 10
-112.261
 20
45.5835
 30
0.0
 10
-112.261
 20
45.5835
 30
0.0
 10
-127.0127
 20
45.5835
 30
0.0
 10
-127.0127
 20
45.5835
 30
0.0
 10
-127.0127
 20
45.5835
 30
0.0
 10
-127.0127
 20
41.5107
 30
0.0
 10
-123.7113
 20
38.2078
 30
0.0
 10
-119.6387
 20
38.2078
 30
0.0
 10
-119.6387
 20
38.2078
 30
0.0
 10
-115.5642
 20
38.2087
 30
0.0
 10
-112.2628
 20
41.5105
 30
0.0
 10
-112.2628
 20
45.5833
 30
0.0
 10
-112.2628
 20
45.5833
 30
0.0
 10
-112.2628
 20
45.5833
 30
0.0
 10
-112.261
 20
45.5835
 30
0.0
 10
-112.261
 20
45.5835
 30
0.0
  0
SPLINE
  5
81
330
1F
100
AcDbEntity
  8
layer 1
 62
     7
100
AcDbSpline
210
0.0
220
0.0
230
1.0
 70
    11
 71
     3
 72
    20
 73
    16
 74
     0
 42
0.0000000001
 43
0.0000000001
 12
1.0
 22
0.0
 32
0.0
 13
1.0
 23
0.0
 33
0.0
 40
0.0
 40
0.0
 40
0.0
 40
0.0
 40
0.2
 40
0.2
 40
0.2
 40
0.2
 40
0.4
 40
0.4
 40
0.4
 40
0.4
 40
0.6
 40
0.6
 40
0.6
 40
0.6
 40
1.0
 40
1.0
 40
1.0
 40
1.0
 10
-86.1764
 20
45.5835
 30
0.0
 10
-86.1764
 20
45.5835
 30
0.0
 10
-100.9282
 20
45.5835
 30
0.0
 10
-100.9282
 20
45.5835
 30
0.0
 10
-100.9282
 20
45.5835
 30
0.0
 10
-100.9282
 20
41.5107
 30
0.0
 10
-97.626
 20
38.2078
 30
0.0
 10
-93.5532
 20
38.2078
 30
0.0
 10
-93.5532
 20
38.2078
 30
0.0
 10
-89.4795
 20
38.2087
 30
0.0
 10
-86.1779
 20
41.5105
 30
0.0
 10
-86.1779
 20
45.5833
 30
0.0
 10
-86.1779
 20
45.5833
 30
0.0
 10
-86.1779
 20
45.5833
 30
0.0
 10
-86.1764
 20
45.5835
 30
0.0
 10
-86.1764
 20
45.5835
 30
0.0
  0
SPLINE
  5
82
330
1F
100
AcDbEntity
  8
layer 1
 62
     7
100
AcDbSpline
210
0.0
220
0.0
230
1.0
 70
    11
 71
     3
 72
    20
 73
    16
 74
     0
 42
0.0000000001
 43
0.0000000001
 12
1.0
 22
0.0
 32
0.0
 13
1.0
 23
0.0
 33
0.0
 40
0.0
 40
0.0
 40
0.0
 40
0.0
 40
0.2
 40
0.2
 40
0.2
 40
0.2
 40
0.4
 40
0.4
 40
0.4
 40
0.4
 40
0.6
 40
0.6
 40
0.6
 40
0.6
 40
1.0
 40
1.0
 40
1.0
 40
1.0
 10
-171.808
 20
3.4322
 30
0.0
 10
-175.8807
 20
3.4322
 30
0.0
 10
-179.1848
 20
0.1288
 30
0.0
 10
-179.1848
 20
-3.9439
 30
0.0
 10
-179.1848
 20
-3.9439
 30
0.0
 10
-179.1848
 20
-3.9439
 30
0.0
 10
-164.4321
 20
-3.9437
 30
0.0
 10
-164.4321
 20
-3.9437
 30
0.0
 10
-164.4321
 20
-3.9437
 30
0.0
 10
-164.4321
 20
0.1289
 30
0.0
 10
-167.7365
 20
3.4316
 30
0.0
 10
-171.8092
 20
3.4316
 30
0.0
 10
-171.8092
 20
3.4316
 30
0.0
 10
-171.8092
 20
3.4316
 30
0.0
 10
-171.808
 20
3.4322
 30
0.0
 10
-171.808
 20
3.4322
 30
0.0
  0
SPLINE
  5
83
330
1F
100
AcDbEntity
  8
layer 1
 62
     7
100
AcDbSpline
210
0.0
220
0.0
230
1.0
 70
    11
 71
     3
 72
    20
 73
    16
 74
     0
 42
0.0000000001
 43
0.0000000001
 12
1.0
 22
0.0
 32
0.0
 13
1.0
 23
0.0
 33
0.0
 40
0.0
 40
0.0
 40
0.0
 40
0.0
 40
0.2
 40
0.2
 40
0.2
 40
0.2
 40
0.4
 40
0.4
 40
0.4
 40
0.4
 40
0.6
 40
0.6
 40
0.6
 40
0.6
 40
1.0
 40
1.0
 40
1.0
 40
1.0
 10
-167.4632
 20
7.777
 30
0.0
 10
-167.4632
 20
11.8508
 30
0.0
 10
-164.1613
 20
15.1525
 30
0.0
 10
-160.0882
 20
15.1525
 30
0.0
 10
-160.0882
 20
15.1525
 30
0.0
 10
-160.0882
 20
15.1525
 30
0.0
 10
-160.087
 20
0.4011
 30
0.0
 10
-160.087
 20
0.4011
 30
0.0
 10
-160.087
 20
0.4011
 30
0.0
 10
-164.16
 20
0.4011
 30
0.0
 10
-167.4644
 20
3.7042
 30
0.0
 10
-167.4644
 20
7.7768
 30
0.0
 10
-167.4644
 20
7.7768
 30
0.0
 10
-167.4644
 20
7.7768
 30
0.0
 10
-167.4632
 20
7.777
 30
0.0
 10
-167.4632
 20
7.777
 30
0.0
  0
SPLINE
  5
84
330
1F
100
AcDbEntity
  8
layer 1
 62
     7
100
AcDbSpline
210
0.0
220
0.0
230
1.0
 70
    11
 71
     3
 72
    20
 73
    16
 74
     0
 42
0.0000000001
 43
0.0000000001
 12
1.0
 22
0.0
 32
0.0
 13
1.0
 23
0.0
 33
0.0
 40
0.0
 40
0.0
 40
0.0
 40
0.0
 40
0.2
 40
0.2
 40
0.2
 40
0.2
 40
0.4
 40
0.4
 40
0.4
 40
0.4
 40
0.6
 40
0.6
 40
0.6
 40
0.6
 40
1.0
 40
1.0
 40
1.0
 40
1.0
 10
-176.153
 20
7.777
 30
0.0
 10
-176.153
 20
11.8508
 30
0.0
 10
-179.4572
 20
15.1525
 30
0.0
 10
-183.5299
 20
15.1525
 30
0.0
 10
-183.5299
 20
15.1525
 30
0.0
 10
-183.5299
 20
15.1525
 30
0.0
 10
-183.5288
 20
0.4011
 30
0.0
 10
-183.5288
 20
0.4011
 30
0.0
 10
-183.5288
 20
0.4011
 30
0.0
 10
-179.4562
 20
0.4011
 30
0.0
 10
-176.1543
 20
3.7042
 30
0.0
 10
-176.1543
 20
7.7768
 30
0.0
 10
-176.1543
 20
7.7768
 30
0.0
 10
-176.1543
 20
7.7768
 30
0.0
 10
-176.153
 20
7.777
 30
0.0
 10
-176.153
 20
7.777
 30
0.0
  0
SPLINE
  5
85
330
1F
100
AcDbEntity
  8
layer 1
 62
     7
100
AcDbSpline
210
0.0
220
0.0
230
1.0
 70
    11
 71
     3
 72
    20
 73
    16
 74
     0
 42
0.0000000001
 43
0.0000000001
 12
1.0
 22
0.0
 32
0.0
 13
1.0
 23
0.0
 33
0.0
 40
0.0
 40
0.0
 40
0.0
 40
0.0
 40
0.2
 40
0.2
 40
0.2
 40
0.2
 40
0.4
 40
0.4
 40
0.4
 40
0.4
 40
0.6
 40
0.6
 40
0.6
 40
0.6
 40
1.0
 40
1.0
 40
1.0
 40
1.0
 10
-145.7233
 20
3.4322
 30
0.0
 10
-149.7963
 20
3.4322
 30
0.0
 10
-153.0995
 20
0.1288
 30
0.0
 10
-153.0995
 20
-3.9439
 30
0.0
 10
-153.0995
 20
-3.9439
 30
0.0
 10
-153.0995
 20
-3.9439
 30
0.0
 10
-138.3475
 20
-3.9437
 30
0.0
 10
-138.3475
 20
-3.9437
 30
0.0
 10
-138.3475
 20
-3.9437
 30
0.0
 10
-138.3475
 20
0.1289
 30
0.0
 10
-141.6511
 20
3.4316
 30
0.0
 10
-145.7236
 20
3.4316
 30
0.0
 10
-145.7236
 20
3.4316
 30
0.0
 10
-145.7236
 20
3.4316
 30
0.0
 10
-145.7233
 20
3.4322
 30
0.0
 10
-145.7233
 20
3.4322
 30
0.0
  0
SPLINE
  5
86
330
1F
100
AcDbEntity
  8
layer 1
 62
     7
100
AcDbSpline
210
0.0
220
0.0
230
1.0
 70
    11
 71
     3
 72
    16
 73
    12
 74
     0
 42
0.0000000001
 43
0.0000000001
 12
1.0
 22
0.0
 32
0.0
 13
1.0
 23
0.0
 33
0.0
 40
0.0
 40
0.0
 40
0.0
 40
0.0
 40
0.25
 40
0.25
 40
0.25
 40
0.25
 40
0.5
 40
0.5
 40
0.5
 40
0.5
 40
1.0
 40
1.0
 40
1.0
 40
1.0
 10
-141.3785
 20
7.777
 30
0.0
 10
-141.3785
 20
11.8508
 30
0.0
 10
-138.0756
 20
15.1525
 30
0.0
 10
-134.0032
 20
15.1525
 30
0.0
 10
-134.0032
 20
15.1525
 30
0.0
 10
-134.0032
 20
15.1525
 30
0.0
 10
-134.0026
 20
0.4011
 30
0.0
 10
-134.0026
 20
0.4011
 30
0.0
 10
-134.0026
 20
0.4011
 30
0.0
 10
-138.0753
 20
0.4011
 30
0.0
 10
-141.3785
 20
3.7042
 30
0.0
 10
-141.3785
 20
7.777
 30
0.0
  0
SPLINE
  5
87
330
1F
100
AcDbEntity
  8
layer 1
 62
     7
100
AcDbSpline
210
0.0
220
0.0
230
1.0
 70
    11
 71
     3
 72
    20
 73
    16
 74
     0
 42
0.0000000001
 43
0.0000000001
 12
1.0
 22
0.0
 32
0.0
 13
1.0
 23
0.0
 33
0.0
 40
0.0
 40
0.0
 40
0.0
 40
0.0
 40
0.2
 40
0.2
 40
0.2
 40
0.2
 40
0.4
 40
0.4
 40
0.4
 40
0.4
 40
0.6
 40
0.6
 40
0.6
 40
0.6
 40
1.0
 40
1.0
 40
1.0
 40
1.0
 10
-157.4443
 20
15.1529
 30
0.0
 10
-157.4443
 20
15.1529
 30
0.0
 10
-157.4443
 20
0.4011
 30
0.0
 10
-157.4443
 20
0.4011
 30
0.0
 10
-157.4443
 20
0.4011
 30
0.0
 10
-153.3715
 20
0.4011
 30
0.0
 10
-150.0693
 20
3.7042
 30
0.0
 10
-150.0693
 20
7.7768
 30
0.0
 10
-150.0693
 20
7.7768
 30
0.0
 10
-150.0684
 20
11.8508
 30
0.0
 10
-153.372
 20
15.1525
 30
0.0
 10
-157.4446
 20
15.1525
 30
0.0
 10
-157.4446
 20
15.1525
 30
0.0
 10
-157.4446
 20
15.1525
 30
0.0
 10
-157.4443
 20
15.1529
 30
0.0
 10
-157.4443
 20
15.1529
 30
0.0
  0
SPLINE
  5
88
330
1F
100
AcDbEntity
  8
layer 1
 62
     7
100
AcDbSpline
210
0.0
220
0.0
230
1.0
 70
    11
 71
     3
 72
    20
 73
    16
 74
     0
 42
0.0000000001
 43
0.0000000001
 12
1.0
 22
0.0
 32
0.0
 13
1.0
 23
0.0
 33
0.0
 40
0.0
 40
0.0
 40
0.0
 40
0.0
 40
0.2
 40
0.2
 40
0.2
 40
0.2
 40
0.4
 40
0.4
 40
0.4
 40
0.4
 40
0.6
 40
0.6
 40
0.6
 40
0.6
 40
1.0
 40
1.0
 40
1.0
 40
1.0
 10
-119.6368
 20
3.4322
 30
0.0
 10
-123.7094
 20
3.4322
 30
0.0
 10
-127.014
 20
0.1288
 30
0.0
 10
-127.014
 20
-3.9439
 30
0.0
 10
-127.014
 20
-3.9439
 30
0.0
 10
-127.014
 20
-3.9439
 30
0.0
 10
-112.261
 20
-3.9437
 30
0.0
 10
-112.261
 20
-3.9437
 30
0.0
 10
-112.261
 20
-3.9437
 30
0.0
 10
-112.261
 20
0.1289
 30
0.0
 10
-115.5657
 20
3.4316
 30
0.0
 10
-119.6387
 20
3.4316
 30
0.0
 10
-119.6387
 20
3.4316
 30
0.0
 10
-119.6387
 20
3.4316
 30
0.0
 10
-119.6368
 20
3.4322
 30
0.0
 10
-119.6368
 20
3.4322
 30
0.0
  0
SPLINE
  5
89
330
1F
100
AcDbEntity
  8
layer 1
 62
     7
100
AcDbSpline
210
0.0
220
0.0
230
1.0
 70
    11
 71
     3
 72
    20
 73
    16
 74
     0
 42
0.0000000001
 43
0.0000000001
 12
1.0
 22
0.0
 32
0.0
 13
1.0
 23
0.0
 33
0.0
 40
0.0
 40
0.0
 40
0.0
 40
0.0
 40
0.2
 40
0.2
 40
0.2
 40
0.2
 40
0.4
 40
0.4
 40
0.4
 40
0.4
 40
0.6
 40
0.6
 40
0.6
 40
0.6
 40
1.0
 40
1.0
 40
1.0
 40
1.0
 10
-115.2919
 20
7.777
 30
0.0
 10
-115.2919
 20
11.8508
 30
0.0
 10
-111.9906
 20
15.1525
 30
0.0
 10
-107.9177
 20
15.1525
 30
0.0
 10
-107.9177
 20
15.1525
 30
0.0
 10
-107.9177
 20
15.1525
 30
0.0
 10
-107.916
 20
0.4011
 30
0.0
 10
-107.916
 20
0.4011
 30
0.0
 10
-107.916
 20
0.4011
 30
0.0
 10
-111.9887
 20
0.4011
 30
0.0
 10
-115.2936
 20
3.7042
 30
0.0
 10
-115.2936
 20
7.7768
 30
0.0
 10
-115.2936
 20
7.7768
 30
0.0
 10
-115.2936
 20
7.7768
 30
0.0
 10
-115.2919
 20
7.777
 30
0.0
 10
-115.2919
 20
7.777
 30
0.0
  0
SPLINE
  5
8A
330
1F
100
AcDbEntity
  8
layer 1
 62
     7
100
AcDbSpline
210
0.0
220
0.0
230
1.0
 70
    11
 71
     3
 72
    20
 73
    16
 74
     0
 42
0.0000000001
 43
0.0000000001
 12
1.0
 22
0.0
 32
0.0
 13
1.0
 23
0.0
 33
0.0
 40
0.0
 40
0.0
 40
0.0
 40
0.0
 40
0.2
 40
0.2
 40
0.2
 40
0.2
 40
0.4
 40
0.4
 40
0.4
 40
0.4
 40
0.6
 40
0.6
 40
0.6
 40
0.6
 40
1.0
 40
1.0
 40
1.0
 40
1.0
 10
-131.3575
 20
15.1529
 30
0.0
 10
-131.3575
 20
15.1529
 30
0.0
 10
-131.3575
 20
0.4011
 30
0.0
 10
-131.3575
 20
0.4011
 30
0.0
 10
-131.3575
 20
0.4011
 30
0.0
 10
-127.2849
 20
0.4011
 30
0.0
 10
-123.9835
 20
3.7042
 30
0.0
 10
-123.9835
 20
7.7768
 30
0.0
 10
-123.9835
 20
7.7768
 30
0.0
 10
-123.9817
 20
11.8508
 30
0.0
 10
-127.2864
 20
15.1525
 30
0.0
 10
-131.3594
 20
15.1525
 30
0.0
 10
-131.3594
 20
15.1525
 30
0.0
 10
-131.3594
 20
15.1525
 30
0.0
 10
-131.3575
 20
15.1529
 30
0.0
 10
-131.3575
 20
15.1529
 30
0.0
  0
SPLINE
  5
8B
330
1F
100
AcDbEntity
  8
layer 1
 62
     7
100
AcDbSpline
210
0.0
220
0.0
230
1.0
 70
    11
 71
     3
 72
    20
 73
    16
 74
     0
 42
0.0000000001
 43
0.0000000001
 12
1.0
 22
0.0
 32
0.0
 13
1.0
 23
0.0
 33
0.0
 40
0.0
 40
0.0
 40
0.0
 40
0.0
 40
0.2
 40
0.2
 40
0.2
 40
0.2
 40
0.4
 40
0.4
 40
0.4
 40
0.4
 40
0.6
 40
0.6
 40
0.6
 40
0.6
 40
1.0
 40
1.0
 40
1.0
 40
1.0
 10
-93.552
 20
3.4322
 30
0.0
 10
-97.625
 20
3.4322
 30
0.0
 10
-100.9288
 20
0.1288
 30
0.0
 10
-100.9288
 20
-3.9439
 30
0.0
 10
-100.9288
 20
-3.9439
 30
0.0
 10
-100.9288
 20
-3.9439
 30
0.0
 10
-86.1764
 20
-3.9437
 30
0.0
 10
-86.1764
 20
-3.9437
 30
0.0
 10
-86.1764
 20
-3.9437
 30
0.0
 10
-86.1764
 20
0.1289
 30
0.0
 10
-89.4806
 20
3.4316
 30
0.0
 10
-93.5532
 20
3.4316
 30
0.0
 10
-93.5532
 20
3.4316
 30
0.0
 10
-93.5532
 20
3.4316
 30
0.0
 10
-93.552
 20
3.4322
 30
0.0
 10
-93.552
 20
3.4322
 30
0.0
  0
SPLINE
  5
8C
330
1F
100
AcDbEntity
  8
layer 1
 62
     7
100
AcDbSpline
210
0.0
220
0.0
230
1.0
 70
    11
 71
     3
 72
    20
 73
    16
 74
     0
 42
0.0000000001
 43
0.0000000001
 12
1.0
 22
0.0
 32
0.0
 13
1.0
 23
0.0
 33
0.0
 40
0.0
 40
0.0
 40
0.0
 40
0.0
 40
0.2
 40
0.2
 40
0.2
 40
0.2
 40
0.4
 40
0.4
 40
0.4
 40
0.4
 40
0.6
 40
0.6
 40
0.6
 40
0.6
 40
1.0
 40
1.0
 40
1.0
 40
1.0
 10
-89.2072
 20
7.777
 30
0.0
 10
-89.2072
 20
11.8508
 30
0.0
 10
-85.9053
 20
15.1525
 30
0.0
 10
-81.8324
 20
15.1525
 30
0.0
 10
-81.8324
 20
15.1525
 30
0.0
 10
-81.8324
 20
15.1525
 30
0.0
 10
-81.8313
 20
0.4011
 30
0.0
 10
-81.8313
 20
0.4011
 30
0.0
 10
-81.8313
 20
0.4011
 30
0.0
 10
-85.9043
 20
0.4011
 30
0.0
 10
-89.2077
 20
3.7042
 30
0.0
 10
-89.2077
 20
7.7768
 30
0.0
 10
-89.2077
 20
7.7768
 30
0.0
 10
-89.2077
 20
7.7768
 30
0.0
 10
-89.2072
 20
7.777
 30
0.0
 10
-89.2072
 20
7.777
 30
0.0
  0
SPLINE
  5
8D
330
1F
100
AcDbEntity
  8
layer 1
 62
     7
100
AcDbSpline
210
0.0
220
0.0
230
1.0
 70
    11
 71
     3
 72
    20
 73
    16
 74
     0
 42
0.0000000001
 43
0.0000000001
 12
1.0
 22
0.0
 32
0.0
 13
1.0
 23
0.0
 33
0.0
 40
0.0
 40
0.0
 40
0.0
 40
0.0
 40
0.2
 40
0.2
 40
0.2
 40
0.2
 40
0.4
 40
0.4
 40
0.4
 40
0.4
 40
0.6
 40
0.6
 40
0.6
 40
0.6
 40
1.0
 40
1.0
 40
1.0
 40
1.0
 10
-105.273
 20
15.1529
 30
0.0
 10
-105.273
 20
15.1529
 30
0.0
 10
-105.273
 20
0.4011
 30
0.0
 10
-105.273
 20
0.4011
 30
0.0
 10
-105.273
 20
0.4011
 30
0.0
 10
-101.2005
 20
0.4011
 30
0.0
 10
-97.8986
 20
3.7042
 30
0.0
 10
-97.8986
 20
7.7768
 30
0.0
 10
-97.8986
 20
7.7768
 30
0.0
 10
-97.8971
 20
11.8508
 30
0.0
 10
-101.2015
 20
15.1525
 30
0.0
 10
-105.2745
 20
15.1525
 30
0.0
 10
-105.2745
 20
15.1525
 30
0.0
 10
-105.2745
 20
15.1525
 30
0.0
 10
-105.273
 20
15.1529
 30
0.0
 10
-105.273
 20
15.1529
 30
0.0
  0
SPLINE
  5
8E
330
1F
100
AcDbEntity
  8
layer 1
 62
     7
100
AcDbSpline
210
0.0
220
0.0
230
1.0
 70
    11
 71
     3
 72
    20
 73
    16
 74
     0
 42
0.0000000001
 43
0.0000000001
 12
1.0
 22
0.0
 32
0.0
 13
1.0
 23
0.0
 33
0.0
 40
0.0
 40
0.0
 40
0.0
 40
0.0
 40
0.2
 40
0.2
 40
0.2
 40
0.2
 40
0.4
 40
0.4
 40
0.4
 40
0.4
 40
0.6
 40
0.6
 40
0.6
 40
0.6
 40
1.0
 40
1.0
 40
1.0
 40
1.0
 10
-164.4321
 20
19.499
 30
0.0
 10
-164.4321
 20
19.499
 30
0.0
 10
-179.1839
 20
19.499
 30
0.0
 10
-179.1839
 20
19.499
 30
0.0
 10
-179.1839
 20
19.499
 30
0.0
 10
-179.1839
 20
15.4251
 30
0.0
 10
-175.8817
 20
12.1222
 30
0.0
 10
-171.8092
 20
12.1222
 30
0.0
 10
-171.8092
 20
12.1222
 30
0.0
 10
-167.7355
 20
12.1231
 30
0.0
 10
-164.4333
 20
15.4251
 30
0.0
 10
-164.4333
 20
19.4981
 30
0.0
 10
-164.4333
 20
19.4981
 30
0.0
 10
-164.4333
 20
19.4981
 30
0.0
 10
-164.4321
 20
19.499
 30
0.0
 10
-164.4321
 20
19.499
 30
0.0
  0
SPLINE
  5
8F
330
1F
100
AcDbEntity
  8
layer 1
 62
     7
100
AcDbSpline
210
0.0
220
0.0
230
1.0
 70
    11
 71
     3
 72
    20
 73
    16
 74
     0
 42
0.0000000001
 43
0.0000000001
 12
1.0
 22
0.0
 32
0.0
 13
1.0
 23
0.0
 33
0.0
 40
0.0
 40
0.0
 40
0.0
 40
0.0
 40
0.2
 40
0.2
 40
0.2
 40
0.2
 40
0.4
 40
0.4
 40
0.4
 40
0.4
 40
0.6
 40
0.6
 40
0.6
 40
0.6
 40
1.0
 40
1.0
 40
1.0
 40
1.0
 10
-138.3475
 20
19.499
 30
0.0
 10
-138.3475
 20
19.499
 30
0.0
 10
-153.0992
 20
19.499
 30
0.0
 10
-153.0992
 20
19.499
 30
0.0
 10
-153.0992
 20
19.499
 30
0.0
 10
-153.0992
 20
15.4251
 30
0.0
 10
-149.7968
 20
12.1222
 30
0.0
 10
-145.7236
 20
12.1222
 30
0.0
 10
-145.7236
 20
12.1222
 30
0.0
 10
-141.6508
 20
12.1231
 30
0.0
 10
-138.348
 20
15.4251
 30
0.0
 10
-138.348
 20
19.4981
 30
0.0
 10
-138.348
 20
19.4981
 30
0.0
 10
-138.348
 20
19.4981
 30
0.0
 10
-138.3475
 20
19.499
 30
0.0
 10
-138.3475
 20
19.499
 30
0.0
  0
SPLINE
  5
90
330
1F
100
AcDbEntity
  8
layer 1
 62
     7
100
AcDbSpline
210
0.0
220
0.0
230
1.0
 70
    11
 71
     3
 72
    20
 73
    16
 74
     0
 42
0.0000000001
 43
0.0000000001
 12
1.0
 22
0.0
 32
0.0
 13
1.0
 23
0.0
 33
0.0
 40
0.0
 40
0.0
 40
0.0
 40
0.0
 40
0.2
 40
0.2
 40
0.2
 40
0.2
 40
0.4
 40
0.4
 40
0.4
 40
0.4
 40
0.6
 40
0.6
 40
0.6
 40
0.6
 40
1.0
 40
1.0
 40
1.0
 40
1.0
 10
-112.261
 20
19.499
 30
0.0
 10
-112.261
 20
19.499
 30
0.0
 10
-127.0127
 20
19.499
 30
0.0
 10
-127.0127
 20
19.499
 30
0.0
 10
-127.0127
 20
19.499
 30
0.0
 10
-127.0127
 20
15.4251
 30
0.0
 10
-123.7113
 20
12.1222
 30
0.0
 10
-119.6387
 20
12.1222
 30
0.0
 10
-119.6387
 20
12.1222
 30
0.0
 10
-115.5642
 20
12.1231
 30
0.0
 10
-112.2628
 20
15.4251
 30
0.0
 10
-112.2628
 20
19.4981
 30
0.0
 10
-112.2628
 20
19.4981
 30
0.0
 10
-112.2628
 20
19.4981
 30
0.0
 10
-112.261
 20
19.499
 30
0.0
 10
-112.261
 20
19.499
 30
0.0
  0
SPLINE
  5
91
330
1F
100
AcDbEntity
  8
layer 1
 62
     7
100
AcDbSpline
210
0.0
220
0.0
230
1.0
 70
    11
 71
     3
 72
    20
 73
    16
 74
     0
 42
0.0000000001
 43
0.0000000001
 12
1.0
 22
0.0
 32
0.0
 13
1.0
 23
0.0
 33
0.0
 40
0.0
 40
0.0
 40
0.0
 40
0.0
 40
0.2
 40
0.2
 40
0.2
 40
0.2
 40
0.4
 40
0.4
 40
0.4
 40
0.4
 40
0.6
 40
0.6
 40
0.6
 40
0.6
 40
1.0
 40
1.0
 40
1.0
 40
1.0
 10
-86.1764
 20
19.499
 30
0.0
 10
-86.1764
 20
19.499
 30
0.0
 10
-100.9282
 20
19.499
 30
0.0
 10
-100.9282
 20
19.499
 30
0.0
 10
-100.9282
 20
19.499
 30
0.0
 10
-100.9282
 20
15.4251
 30
0.0
 10
-97.626
 20
12.1222
 30
0.0
 10
-93.5532
 20
12.1222
 30
0.0
 10
-93.5532
 20
12.1222
 30
0.0
 10
-89.4795
 20
12.1231
 30
0.0
 10
-86.1779
 20
15.4251
 30
0.0
 10
-86.1779
 20
19.4981
 30
0.0
 10
-86.1779
 20
19.4981
 30
0.0
 10
-86.1779
 20
19.4981
 30
0.0
 10
-86.1764
 20
19.499
 30
0.0
 10
-86.1764
 20
19.499
 30
0.0
  0
SPLINE
  5
92
330
1F
100
AcDbEntity
  8
layer 1
 62
     7
100
AcDbSpline
210
0.0
220
0.0
230
1.0
 70
    11
 71
     3
 72
    20
 73
    16
 74
     0
 42
0.0000000001
 43
0.0000000001
 12
1.0
 22
0.0
 32
0.0
 13
1.0
 23
0.0
 33
0.0
 40
0.0
 40
0.0
 40
0.0
 40
0.0
 40
0.2
 40
0.2
 40
0.2
 40
0.2
 40
0.4
 40
0.4
 40
0.4
 40
0.4
 40
0.6
 40
0.6
 40
0.6
 40
0.6
 40
1.0
 40
1.0
 40
1.0
 40
1.0
 10
-171.808
 20
-22.6534
 30
0.0
 10
-175.8807
 20
-22.6534
 30
0.0
 10
-179.1848
 20
-25.9565
 30
0.0
 10
-179.1848
 20
-30.0292
 30
0.0
 10
-179.1848
 20
-30.0292
 30
0.0
 10
-179.1848
 20
-30.0292
 30
0.0
 10
-164.4321
 20
-30.0283
 30
0.0
 10
-164.4321
 20
-30.0283
 30
0.0
 10
-164.4321
 20
-30.0283
 30
0.0
 10
-164.4321
 20
-25.9555
 30
0.0
 10
-167.7365
 20
-22.6536
 30
0.0
 10
-171.8092
 20
-22.6536
 30
0.0
 10
-171.8092
 20
-22.6536
 30
0.0
 10
-171.8092
 20
-22.6536
 30
0.0
 10
-171.808
 20
-22.6534
 30
0.0
 10
-171.808
 20
-22.6534
 30
0.0
  0
SPLINE
  5
93
330
1F
100
AcDbEntity
  8
layer 1
 62
     7
100
AcDbSpline
210
0.0
220
0.0
230
1.0
 70
    11
 71
     3
 72
    20
 73
    16
 74
     0
 42
0.0000000001
 43
0.0000000001
 12
1.0
 22
0.0
 32
0.0
 13
1.0
 23
0.0
 33
0.0
 40
0.0
 40
0.0
 40
0.0
 40
0.0
 40
0.2
 40
0.2
 40
0.2
 40
0.2
 40
0.4
 40
0.4
 40
0.4
 40
0.4
 40
0.6
 40
0.6
 40
0.6
 40
0.6
 40
1.0
 40
1.0
 40
1.0
 40
1.0
 10
-167.4632
 20
-18.3074
 30
0.0
 10
-167.4632
 20
-14.2348
 30
0.0
 10
-164.1613
 20
-10.9329
 30
0.0
 10
-160.0882
 20
-10.9329
 30
0.0
 10
-160.0882
 20
-10.9329
 30
0.0
 10
-160.0882
 20
-10.9329
 30
0.0
 10
-160.087
 20
-25.6833
 30
0.0
 10
-160.087
 20
-25.6833
 30
0.0
 10
-160.087
 20
-25.6833
 30
0.0
 10
-164.16
 20
-25.6833
 30
0.0
 10
-167.4644
 20
-22.381
 30
0.0
 10
-167.4644
 20
-18.3085
 30
0.0
 10
-167.4644
 20
-18.3085
 30
0.0
 10
-167.4644
 20
-18.3085
 30
0.0
 10
-167.4632
 20
-18.3074
 30
0.0
 10
-167.4632
 20
-18.3074
 30
0.0
  0
SPLINE
  5
94
330
1F
100
AcDbEntity
  8
layer 1
 62
     7
100
AcDbSpline
210
0.0
220
0.0
230
1.0
 70
    11
 71
     3
 72
    20
 73
    16
 74
     0
 42
0.0000000001
 43
0.0000000001
 12
1.0
 22
0.0
 32
0.0
 13
1.0
 23
0.0
 33
0.0
 40
0.0
 40
0.0
 40
0.0
 40
0.0
 40
0.2
 40
0.2
 40
0.2
 40
0.2
 40
0.4
 40
0.4
 40
0.4
 40
0.4
 40
0.6
 40
0.6
 40
0.6
 40
0.6
 40
1.0
 40
1.0
 40
1.0
 40
1.0
 10
-176.153
 20
-18.3074
 30
0.0
 10
-176.153
 20
-14.2348
 30
0.0
 10
-179.4572
 20
-10.9329
 30
0.0
 10
-183.5299
 20
-10.9329
 30
0.0
 10
-183.5299
 20
-10.9329
 30
0.0
 10
-183.5299
 20
-10.9329
 30
0.0
 10
-183.5288
 20
-25.6833
 30
0.0
 10
-183.5288
 20
-25.6833
 30
0.0
 10
-183.5288
 20
-25.6833
 30
0.0
 10
-179.4562
 20
-25.6833
 30
0.0
 10
-176.1543
 20
-22.381
 30
0.0
 10
-176.1543
 20
-18.3085
 30
0.0
 10
-176.1543
 20
-18.3085
 30
0.0
 10
-176.1543
 20
-18.3085
 30
0.0
 10
-176.153
 20
-18.3074
 30
0.0
 10
-176.153
 20
-18.3074
 30
0.0
  0
SPLINE
  5
95
330
1F
100
AcDbEntity
  8
layer 1
 62
     7
100
AcDbSpline
210
0.0
220
0.0
230
1.0
 70
    11
 71
     3
 72
    16
 73
    12
 74
     0
 42
0.0000000001
 43
0.0000000001
 12
1.0
 22
0.0
 32
0.0
 13
1.0
 23
0.0
 33
0.0
 40
0.0
 40
0.0
 40
0.0
 40
0.0
 40
0.25
 40
0.25
 40
0.25
 40
0.25
 40
0.5
 40
0.5
 40
0.5
 40
0.5
 40
1.0
 40
1.0
 40
1.0
 40
1.0
 10
-145.7233
 20
-22.6534
 30
0.0
 10
-149.7963
 20
-22.6534
 30
0.0
 10
-153.0995
 20
-25.9565
 30
0.0
 10
-153.0995
 20
-30.0292
 30
0.0
 10
-153.0995
 20
-30.0292
 30
0.0
 10
-153.0995
 20
-30.0292
 30
0.0
 10
-138.3475
 20
-30.0283
 30
0.0
 10
-138.3475
 20
-30.0283
 30
0.0
 10
-138.3475
 20
-30.0283
 30
0.0
 10
-138.3475
 20
-25.9555
 30
0.0
 10
-141.6511
 20
-22.6536
 30
0.0
 10
-145.7233
 20
-22.6534
 30
0.0
  0
SPLINE
  5
96
330
1F
100
AcDbEntity
  8
layer 1
 62
     7
100
AcDbSpline
210
0.0
220
0.0
230
1.0
 70
    11
 71
     3
 72
    20
 73
    16
 74
     0
 42
0.0000000001
 43
0.0000000001
 12
1.0
 22
0.0
 32
0.0
 13
1.0
 23
0.0
 33
0.0
 40
0.0
 40
0.0
 40
0.0
 40
0.0
 40
0.2
 40
0.2
 40
0.2
 40
0.2
 40
0.4
 40
0.4
 40
0.4
 40
0.4
 40
0.6
 40
0.6
 40
0.6
 40
0.6
 40
1.0
 40
1.0
 40
1.0
 40
1.0
 10
-141.3785
 20
-18.3074
 30
0.0
 10
-141.3785
 20
-14.2348
 30
0.0
 10
-138.0756
 20
-10.9329
 30
0.0
 10
-134.0032
 20
-10.9329
 30
0.0
 10
-134.0032
 20
-10.9329
 30
0.0
 10
-134.0032
 20
-10.9329
 30
0.0
 10
-134.0026
 20
-25.6833
 30
0.0
 10
-134.0026
 20
-25.6833
 30
0.0
 10
-134.0026
 20
-25.6833
 30
0.0
 10
-138.0753
 20
-25.6833
 30
0.0
 10
-141.3785
 20
-22.381
 30
0.0
 10
-141.3785
 20
-18.3085
 30
0.0
 10
-141.3785
 20
-18.3085
 30
0.0
 10
-141.3785
 20
-18.3085
 30
0.0
 10
-141.3785
 20
-18.3074
 30
0.0
 10
-141.3785
 20
-18.3074
 30
0.0
  0
SPLINE
  5
97
330
1F
100
AcDbEntity
  8
layer 1
 62
     7
100
AcDbSpline
210
0.0
220
0.0
230
1.0
 70
    11
 71
     3
 72
    16
 73
    12
 74
     0
 42
0.0000000001
 43
0.0000000001
 12
1.0
 22
0.0
 32
0.0
 13
1.0
 23
0.0
 33
0.0
 40
0.0
 40
0.0
 40
0.0
 40
0.0
 40
0.25
 40
0.25
 40
0.25
 40
0.25
 40
0.5
 40
0.5
 40
0.5
 40
0.5
 40
1.0
 40
1.0
 40
1.0
 40
1.0
 10
-157.4443
 20
-10.9327
 30
0.0
 10
-157.4443
 20
-10.9327
 30
0.0
 10
-157.4443
 20
-25.6833
 30
0.0
 10
-157.4443
 20
-25.6833
 30
0.0
 10
-157.4443
 20
-25.6833
 30
0.0
 10
-153.3715
 20
-25.6833
 30
0.0
 10
-150.0693
 20
-22.381
 30
0.0
 10
-150.0693
 20
-18.3085
 30
0.0
 10
-150.0693
 20
-18.3085
 30
0.0
 10
-150.0684
 20
-14.2348
 30
0.0
 10
-153.372
 20
-10.9329
 30
0.0
 10
-157.4443
 20
-10.9327
 30
0.0
  0
SPLINE
  5
98
330
1F
100
AcDbEntity
  8
layer 1
 62
     7
100
AcDbSpline
210
0.0
220
0.0
230
1.0
 70
    11
 71
     3
 72
    20
 73
    16
 74
     0
 42
0.0000000001
 43
0.0000000001
 12
1.0
 22
0.0
 32
0.0
 13
1.0
 23
0.0
 33
0.0
 40
0.0
 40
0.0
 40
0.0
 40
0.0
 40
0.2
 40
0.2
 40
0.2
 40
0.2
 40
0.4
 40
0.4
 40
0.4
 40
0.4
 40
0.6
 40
0.6
 40
0.6
 40
0.6
 40
1.0
 40
1.0
 40
1.0
 40
1.0
 10
-119.6368
 20
-22.6534
 30
0.0
 10
-123.7094
 20
-22.6534
 30
0.0
 10
-127.014
 20
-25.9565
 30
0.0
 10
-127.014
 20
-30.0292
 30
0.0
 10
-127.014
 20
-30.0292
 30
0.0
 10
-127.014
 20
-30.0292
 30
0.0
 10
-112.261
 20
-30.0283
 30
0.0
 10
-112.261
 20
-30.0283
 30
0.0
 10
-112.261
 20
-30.0283
 30
0.0
 10
-112.261
 20
-25.9555
 30
0.0
 10
-115.5657
 20
-22.6536
 30
0.0
 10
-119.6387
 20
-22.6536
 30
0.0
 10
-119.6387
 20
-22.6536
 30
0.0
 10
-119.6387
 20
-22.6536
 30
0.0
 10
-119.6368
 20
-22.6534
 30
0.0
 10
-119.6368
 20
-22.6534
 30
0.0
  0
SPLINE
  5
99
330
1F
100
AcDbEntity
  8
layer 1
 62
     7
100
AcDbSpline
210
0.0
220
0.0
230
1.0
 70
    11
 71
     3
 72
    20
 73
    16
 74
     0
 42
0.0000000001
 43
0.0000000001
 12
1.0
 22
0.0
 32
0.0
 13
1.0
 23
0.0
 33
0.0
 40
0.0
 40
0.0
 40
0.0
 40
0.0
 40
0.2
 40
0.2
 40
0.2
 40
0.2
 40
0.4
 40
0.4
 40
0.4
 40
0.4
 40
0.6
 40
0.6
 40
0.6
 40
0.6
 40
1.0
 40
1.0
 40
1.0
 40
1.0
 10
-115.2919
 20
-18.3074
 30
0.0
 10
-115.2919
 20
-14.2348
 30
0.0
 10
-111.9906
 20
-10.9329
 30
0.0
 10
-107.9177
 20
-10.9329
 30
0.0
 10
-107.9177
 20
-10.9329
 30
0.0
 10
-107.9177
 20
-10.9329
 30
0.0
 10
-107.916
 20
-25.6833
 30
0.0
 10
-107.916
 20
-25.6833
 30
0.0
 10
-107.916
 20
-25.6833
 30
0.0
 10
-111.9887
 20
-25.6833
 30
0.0
 10
-115.2936
 20
-22.381
 30
0.0
 10
-115.2936
 20
-18.3085
 30
0.0
 10
-115.2936
 20
-18.3085
 30
0.0
 10
-115.2936
 20
-18.3085
 30
0.0
 10
-115.2919
 20
-18.3074
 30
0.0
 10
-115.2919
 20
-18.3074
 30
0.0
  0
SPLINE
  5
9A
330
1F
100
AcDbEntity
  8
layer 1
 62
     7
100
AcDbSpline
210
0.0
220
0.0
230
1.0
 70
    11
 71
     3
 72
    20
 73
    16
 74
     0
 42
0.0000000001
 43
0.0000000001
 12
1.0
 22
0.0
 32
0.0
 13
1.0
 23
0.0
 33
0.0
 40
0.0
 40
0.0
 40
0.0
 40
0.0
 40
0.2
 40
0.2
 40
0.2
 40
0.2
 40
0.4
 40
0.4
 40
0.4
 40
0.4
 40
0.6
 40
0.6
 40
0.6
 40
0.6
 40
1.0
 40
1.0
 40
1.0
 40
1.0
 10
-131.3575
 20
-10.9327
 30
0.0
 10
-131.3575
 20
-10.9327
 30
0.0
 10
-131.3575
 20
-25.6833
 30
0.0
 10
-131.3575
 20
-25.6833
 30
0.0
 10
-131.3575
 20
-25.6833
 30
0.0
 10
-127.2849
 20
-25.6833
 30
0.0
 10
-123.9835
 20
-22.381
 30
0.0
 10
-123.9835
 20
-18.3085
 30
0.0
 10
-123.9835
 20
-18.3085
 30
0.0
 10
-123.9817
 20
-14.2348
 30
0.0
 10
-127.2864
 20
-10.9329
 30
0.0
 10
-131.3594
 20
-10.9329
 30
0.0
 10
-131.3594
 20
-10.9329
 30
0.0
 10
-131.3594
 20
-10.9329
 30
0.0
 10
-131.3575
 20
-10.9327
 30
0.0
 10
-131.3575
 20
-10.9327
 30
0.0
  0
SPLINE
  5
9B
330
1F
100
AcDbEntity
  8
layer 1
 62
     7
100
AcDbSpline
210
0.0
220
0.0
230
1.0
 70
    11
 71
     3
 72
    20
 73
    16
 74
     0
 42
0.0000000001
 43
0.0000000001
 12
1.0
 22
0.0
 32
0.0
 13
1.0
 23
0.0
 33
0.0
 40
0.0
 40
0.0
 40
0.0
 40
0.0
 40
0.2
 40
0.2
 40
0.2
 40
0.2
 40
0.4
 40
0.4
 40
0.4
 40
0.4
 40
0.6
 40
0.6
 40
0.6
 40
0.6
 40
1.0
 40
1.0
 40
1.0
 40
1.0
 10
-93.552
 20
-22.6534
 30
0.0
 10
-97.625
 20
-22.6534
 30
0.0
 10
-100.9288
 20
-25.9565
 30
0.0
 10
-100.9288
 20
-30.0292
 30
0.0
 10
-100.9288
 20
-30.0292
 30
0.0
 10
-100.9288
 20
-30.0292
 30
0.0
 10
-86.1764
 20
-30.0283
 30
0.0
 10
-86.1764
 20
-30.0283
 30
0.0
 10
-86.1764
 20
-30.0283
 30
0.0
 10
-86.1764
 20
-25.9555
 30
0.0
 10
-89.4806
 20
-22.6536
 30
0.0
 10
-93.5532
 20
-22.6536
 30
0.0
 10
-93.5532
 20
-22.6536
 30
0.0
 10
-93.5532
 20
-22.6536
 30
0.0
 10
-93.552
 20
-22.6534
 30
0.0
 10
-93.552
 20
-22.6534
 30
0.0
  0
SPLINE
  5
9C
330
1F
100
AcDbEntity
  8
layer 1
 62
     7
100
AcDbSpline
210
0.0
220
0.0
230
1.0
 70
    11
 71
     3
 72
    20
 73
    16
 74
     0
 42
0.0000000001
 43
0.0000000001
 12
1.0
 22
0.0
 32
0.0
 13
1.0
 23
0.0
 33
0.0
 40
0.0
 40
0.0
 40
0.0
 40
0.0
 40
0.2
 40
0.2
 40
0.2
 40
0.2
 40
0.4
 40
0.4
 40
0.4
 40
0.4
 40
0.6
 40
0.6
 40
0.6
 40
0.6
 40
1.0
 40
1.0
 40
1.0
 40
1.0
 10
-89.2072
 20
-18.3074
 30
0.0
 10
-89.2072
 20
-14.2348
 30
0.0
 10
-85.9053
 20
-10.9329
 30
0.0
 10
-81.8324
 20
-10.9329
 30
0.0
 10
-81.8324
 20
-10.9329
 30
0.0
 10
-81.8324
 20
-10.9329
 30
0.0
 10
-81.8313
 20
-25.6833
 30
0.0
 10
-81.8313
 20
-25.6833
 30
0.0
 10
-81.8313
 20
-25.6833
 30
0.0
 10
-85.9043
 20
-25.6833
 30
0.0
 10
-89.2077
 20
-22.381
 30
0.0
 10
-89.2077
 20
-18.3085
 30
0.0
 10
-89.2077
 20
-18.3085
 30
0.0
 10
-89.2077
 20
-18.3085
 30
0.0
 10
-89.2072
 20
-18.3074
 30
0.0
 10
-89.2072
 20
-18.3074
 30
0.0
  0
SPLINE
  5
9D
330
1F
100
AcDbEntity
  8
layer 1
 62
     7
100
AcDbSpline
210
0.0
220
0.0
230
1.0
 70
    11
 71
     3
 72
    20
 73
    16
 74
     0
 42
0.0000000001
 43
0.0000000001
 12
1.0
 22
0.0
 32
0.0
 13
1.0
 23
0.0
 33
0.0
 40
0.0
 40
0.0
 40
0.0
 40
0.0
 40
0.2
 40
0.2
 40
0.2
 40
0.2
 40
0.4
 40
0.4
 40
0.4
 40
0.4
 40
0.6
 40
0.6
 40
0.6
 40
0.6
 40
1.0
 40
1.0
 40
1.0
 40
1.0
 10
-105.273
 20
-10.9327
 30
0.0
 10
-105.273
 20
-10.9327
 30
0.0
 10
-105.273
 20
-25.6833
 30
0.0
 10
-105.273
 20
-25.6833
 30
0.0
 10
-105.273
 20
-25.6833
 30
0.0
 10
-101.2005
 20
-25.6833
 30
0.0
 10
-97.8986
 20
-22.381
 30
0.0
 10
-97.8986
 20
-18.3085
 30
0.0
 10
-97.8986
 20
-18.3085
 30
0.0
 10
-97.8971
 20
-14.2348
 30
0.0
 10
-101.2015
 20
-10.9329
 30
0.0
 10
-105.2745
 20
-10.9329
 30
0.0
 10
-105.2745
 20
-10.9329
 30
0.0
 10
-105.2745
 20
-10.9329
 30
0.0
 10
-105.273
 20
-10.9327
 30
0.0
 10
-105.273
 20
-10.9327
 30
0.0
  0
SPLINE
  5
9E
330
1F
100
AcDbEntity
  8
layer 1
 62
     7
100
AcDbSpline
210
0.0
220
0.0
230
1.0
 70
    11
 71
     3
 72
    20
 73
    16
 74
     0
 42
0.0000000001
 43
0.0000000001
 12
1.0
 22
0.0
 32
0.0
 13
1.0
 23
0.0
 33
0.0
 40
0.0
 40
0.0
 40
0.0
 40
0.0
 40
0.2
 40
0.2
 40
0.2
 40
0.2
 40
0.4
 40
0.4
 40
0.4
 40
0.4
 40
0.6
 40
0.6
 40
0.6
 40
0.6
 40
1.0
 40
1.0
 40
1.0
 40
1.0
 10
-164.4321
 20
-6.5867
 30
0.0
 10
-164.4321
 20
-6.5867
 30
0.0
 10
-179.1839
 20
-6.5867
 30
0.0
 10
-179.1839
 20
-6.5867
 30
0.0
 10
-179.1839
 20
-6.5867
 30
0.0
 10
-179.1839
 20
-10.6604
 30
0.0
 10
-175.8817
 20
-13.9633
 30
0.0
 10
-171.8092
 20
-13.9633
 30
0.0
 10
-171.8092
 20
-13.9633
 30
0.0
 10
-167.7355
 20
-13.9626
 30
0.0
 10
-164.4333
 20
-10.6604
 30
0.0
 10
-164.4333
 20
-6.5876
 30
0.0
 10
-164.4333
 20
-6.5876
 30
0.0
 10
-164.4333
 20
-6.5876
 30
0.0
 10
-164.4321
 20
-6.5867
 30
0.0
 10
-164.4321
 20
-6.5867
 30
0.0
  0
SPLINE
  5
9F
330
1F
100
AcDbEntity
  8
layer 1
 62
     7
100
AcDbSpline
210
0.0
220
0.0
230
1.0
 70
    11
 71
     3
 72
    20
 73
    16
 74
     0
 42
0.0000000001
 43
0.0000000001
 12
1.0
 22
0.0
 32
0.0
 13
1.0
 23
0.0
 33
0.0
 40
0.0
 40
0.0
 40
0.0
 40
0.0
 40
0.2
 40
0.2
 40
0.2
 40
0.2
 40
0.4
 40
0.4
 40
0.4
 40
0.4
 40
0.6
 40
0.6
 40
0.6
 40
0.6
 40
1.0
 40
1.0
 40
1.0
 40
1.0
 10
-138.3475
 20
-6.5867
 30
0.0
 10
-138.3475
 20
-6.5867
 30
0.0
 10
-153.0992
 20
-6.5867
 30
0.0
 10
-153.0992
 20
-6.5867
 30
0.0
 10
-153.0992
 20
-6.5867
 30
0.0
 10
-153.0992
 20
-10.6604
 30
0.0
 10
-149.7968
 20
-13.9633
 30
0.0
 10
-145.7236
 20
-13.9633
 30
0.0
 10
-145.7236
 20
-13.9633
 30
0.0
 10
-141.6508
 20
-13.9626
 30
0.0
 10
-138.348
 20
-10.6604
 30
0.0
 10
-138.348
 20
-6.5876
 30
0.0
 10
-138.348
 20
-6.5876
 30
0.0
 10
-138.348
 20
-6.5876
 30
0.0
 10
-138.3475
 20
-6.5867
 30
0.0
 10
-138.3475
 20
-6.5867
 30
0.0
  0
SPLINE
  5
A0
330
1F
100
AcDbEntity
  8
layer 1
 62
     7
100
AcDbSpline
210
0.0
220
0.0
230
1.0
 70
    11
 71
     3
 72
    20
 73
    16
 74
     0
 42
0.0000000001
 43
0.0000000001
 12
1.0
 22
0.0
 32
0.0
 13
1.0
 23
0.0
 33
0.0
 40
0.0
 40
0.0
 40
0.0
 40
0.0
 40
0.2
 40
0.2
 40
0.2
 40
0.2
 40
0.4
 40
0.4
 40
0.4
 40
0.4
 40
0.6
 40
0.6
 40
0.6
 40
0.6
 40
1.0
 40
1.0
 40
1.0
 40
1.0
 10
-112.261
 20
-6.5867
 30
0.0
 10
-112.261
 20
-6.5867
 30
0.0
 10
-127.0127
 20
-6.5867
 30
0.0
 10
-127.0127
 20
-6.5867
 30
0.0
 10
-127.0127
 20
-6.5867
 30
0.0
 10
-127.0127
 20
-10.6604
 30
0.0
 10
-123.7113
 20
-13.9633
 30
0.0
 10
-119.6387
 20
-13.9633
 30
0.0
 10
-119.6387
 20
-13.9633
 30
0.0
 10
-115.5642
 20
-13.9626
 30
0.0
 10
-112.2628
 20
-10.6604
 30
0.0
 10
-112.2628
 20
-6.5876
 30
0.0
 10
-112.2628
 20
-6.5876
 30
0.0
 10
-112.2628
 20
-6.5876
 30
0.0
 10
-112.261
 20
-6.5867
 30
0.0
 10
-112.261
 20
-6.5867
 30
0.0
  0
SPLINE
  5
A1
330
1F
100
AcDbEntity
  8
layer 1
 62
     7
100
AcDbSpline
210
0.0
220
0.0
230
1.0
 70
    11
 71
     3
 72
    20
 73
    16
 74
     0
 42
0.0000000001
 43
0.0000000001
 12
1.0
 22
0.0
 32
0.0
 13
1.0
 23
0.0
 33
0.0
 40
0.0
 40
0.0
 40
0.0
 40
0.0
 40
0.2
 40
0.2
 40
0.2
 40
0.2
 40
0.4
 40
0.4
 40
0.4
 40
0.4
 40
0.6
 40
0.6
 40
0.6
 40
0.6
 40
1.0
 40
1.0
 40
1.0
 40
1.0
 10
-86.1764
 20
-6.5867
 30
0.0
 10
-86.1764
 20
-6.5867
 30
0.0
 10
-100.9282
 20
-6.5867
 30
0.0
 10
-100.9282
 20
-6.5867
 30
0.0
 10
-100.9282
 20
-6.5867
 30
0.0
 10
-100.9282
 20
-10.6604
 30
0.0
 10
-97.626
 20
-13.9633
 30
0.0
 10
-93.5532
 20
-13.9633
 30
0.0
 10
-93.5532
 20
-13.9633
 30
0.0
 10
-89.4795
 20
-13.9626
 30
0.0
 10
-86.1779
 20
-10.6604
 30
0.0
 10
-86.1779
 20
-6.5876
 30
0.0
 10
-86.1779
 20
-6.5876
 30
0.0
 10
-86.1779
 20
-6.5876
 30
0.0
 10
-86.1764
 20
-6.5867
 30
0.0
 10
-86.1764
 20
-6.5867
 30
0.0
  0
SPLINE
  5
A2
330
1F
100
AcDbEntity
  8
layer 1
 62
     7
100
AcDbSpline
210
0.0
220
0.0
230
1.0
 70
    11
 71
     3
 72
    20
 73
    16
 74
     0
 42
0.0000000001
 43
0.0000000001
 12
1.0
 22
0.0
 32
0.0
 13
1.0
 23
0.0
 33
0.0
 40
0.0
 40
0.0
 40
0.0
 40
0.0
 40
0.2
 40
0.2
 40
0.2
 40
0.2
 40
0.4
 40
0.4
 40
0.4
 40
0.4
 40
0.6
 40
0.6
 40
0.6
 40
0.6
 40
1.0
 40
1.0
 40
1.0
 40
1.0
 10
-171.808
 20
-48.738
 30
0.0
 10
-175.8807
 20
-48.738
 30
0.0
 10
-179.1848
 20
-52.0418
 30
0.0
 10
-179.1848
 20
-56.1146
 30
0.0
 10
-179.1848
 20
-56.1146
 30
0.0
 10
-179.1848
 20
-56.1146
 30
0.0
 10
-164.4321
 20
-56.1138
 30
0.0
 10
-164.4321
 20
-56.1138
 30
0.0
 10
-164.4321
 20
-56.1138
 30
0.0
 10
-164.4321
 20
-52.0413
 30
0.0
 10
-167.7365
 20
-48.739
 30
0.0
 10
-171.8092
 20
-48.739
 30
0.0
 10
-171.8092
 20
-48.739
 30
0.0
 10
-171.8092
 20
-48.739
 30
0.0
 10
-171.808
 20
-48.738
 30
0.0
 10
-171.808
 20
-48.738
 30
0.0
  0
SPLINE
  5
A3
330
1F
100
AcDbEntity
  8
layer 1
 62
     7
100
AcDbSpline
210
0.0
220
0.0
230
1.0
 70
    11
 71
     3
 72
    20
 73
    16
 74
     0
 42
0.0000000001
 43
0.0000000001
 12
1.0
 22
0.0
 32
0.0
 13
1.0
 23
0.0
 33
0.0
 40
0.0
 40
0.0
 40
0.0
 40
0.0
 40
0.2
 40
0.2
 40
0.2
 40
0.2
 40
0.4
 40
0.4
 40
0.4
 40
0.4
 40
0.6
 40
0.6
 40
0.6
 40
0.6
 40
1.0
 40
1.0
 40
1.0
 40
1.0
 10
-167.4632
 20
-44.3931
 30
0.0
 10
-167.4632
 20
-40.3203
 30
0.0
 10
-164.1613
 20
-37.0178
 30
0.0
 10
-160.0882
 20
-37.0178
 30
0.0
 10
-160.0882
 20
-37.0178
 30
0.0
 10
-160.0882
 20
-37.0178
 30
0.0
 10
-160.087
 20
-51.7689
 30
0.0
 10
-160.087
 20
-51.7689
 30
0.0
 10
-160.087
 20
-51.7689
 30
0.0
 10
-164.16
 20
-51.7689
 30
0.0
 10
-167.4644
 20
-48.4666
 30
0.0
 10
-167.4644
 20
-44.3937
 30
0.0
 10
-167.4644
 20
-44.3937
 30
0.0
 10
-167.4644
 20
-44.3937
 30
0.0
 10
-167.4632
 20
-44.3931
 30
0.0
 10
-167.4632
 20
-44.3931
 30
0.0
  0
SPLINE
  5
A4
330
1F
100
AcDbEntity
  8
layer 1
 62
     7
100
AcDbSpline
210
0.0
220
0.0
230
1.0
 70
    11
 71
     3
 72
    20
 73
    16
 74
     0
 42
0.0000000001
 43
0.0000000001
 12
1.0
 22
0.0
 32
0.0
 13
1.0
 23
0.0
 33
0.0
 40
0.0
 40
0.0
 40
0.0
 40
0.0
 40
0.2
 40
0.2
 40
0.2
 40
0.2
 40
0.4
 40
0.4
 40
0.4
 40
0.4
 40
0.6
 40
0.6
 40
0.6
 40
0.6
 40
1.0
 40
1.0
 40
1.0
 40
1.0
 10
-176.153
 20
-44.3931
 30
0.0
 10
-176.153
 20
-40.3203
 30
0.0
 10
-179.4572
 20
-37.0178
 30
0.0
 10
-183.5299
 20
-37.0178
 30
0.0
 10
-183.5299
 20
-37.0178
 30
0.0
 10
-183.5299
 20
-37.0178
 30
0.0
 10
-183.5288
 20
-51.7689
 30
0.0
 10
-183.5288
 20
-51.7689
 30
0.0
 10
-183.5288
 20
-51.7689
 30
0.0
 10
-179.4562
 20
-51.7689
 30
0.0
 10
-176.1543
 20
-48.4666
 30
0.0
 10
-176.1543
 20
-44.3937
 30
0.0
 10
-176.1543
 20
-44.3937
 30
0.0
 10
-176.1543
 20
-44.3937
 30
0.0
 10
-176.153
 20
-44.3931
 30
0.0
 10
-176.153
 20
-44.3931
 30
0.0
  0
SPLINE
  5
A5
330
1F
100
AcDbEntity
  8
layer 1
 62
     7
100
AcDbSpline
210
0.0
220
0.0
230
1.0
 70
    11
 71
     3
 72
    20
 73
    16
 74
     0
 42
0.0000000001
 43
0.0000000001
 12
1.0
 22
0.0
 32
0.0
 13
1.0
 23
0.0
 33
0.0
 40
0.0
 40
0.0
 40
0.0
 40
0.0
 40
0.2
 40
0.2
 40
0.2
 40
0.2
 40
0.4
 40
0.4
 40
0.4
 40
0.4
 40
0.6
 40
0.6
 40
0.6
 40
0.6
 40
1.0
 40
1.0
 40
1.0
 40
1.0
 10
-145.7233
 20
-48.738
 30
0.0
 10
-149.7963
 20
-48.738
 30
0.0
 10
-153.0995
 20
-52.0418
 30
0.0
 10
-153.0995
 20
-56.1146
 30
0.0
 10
-153.0995
 20
-56.1146
 30
0.0
 10
-153.0995
 20
-56.1146
 30
0.0
 10
-138.3475
 20
-56.1138
 30
0.0
 10
-138.3475
 20
-56.1138
 30
0.0
 10
-138.3475
 20
-56.1138
 30
0.0
 10
-138.3475
 20
-52.0413
 30
0.0
 10
-141.6511
 20
-48.739
 30
0.0
 10
-145.7236
 20
-48.739
 30
0.0
 10
-145.7236
 20
-48.739
 30
0.0
 10
-145.7236
 20
-48.739
 30
0.0
 10
-145.7233
 20
-48.738
 30
0.0
 10
-145.7233
 20
-48.738
 30
0.0
  0
SPLINE
  5
A6
330
1F
100
AcDbEntity
  8
layer 1
 62
     7
100
AcDbSpline
210
0.0
220
0.0
230
1.0
 70
    11
 71
     3
 72
    20
 73
    16
 74
     0
 42
0.0000000001
 43
0.0000000001
 12
1.0
 22
0.0
 32
0.0
 13
1.0
 23
0.0
 33
0.0
 40
0.0
 40
0.0
 40
0.0
 40
0.0
 40
0.2
 40
0.2
 40
0.2
 40
0.2
 40
0.4
 40
0.4
 40
0.4
 40
0.4
 40
0.6
 40
0.6
 40
0.6
 40
0.6
 40
1.0
 40
1.0
 40
1.0
 40
1.0
 10
-141.3785
 20
-44.3931
 30
0.0
 10
-141.3785
 20
-40.3203
 30
0.0
 10
-138.0756
 20
-37.0178
 30
0.0
 10
-134.0032
 20
-37.0178
 30
0.0
 10
-134.0032
 20
-37.0178
 30
0.0
 10
-134.0032
 20
-37.0178
 30
0.0
 10
-134.0026
 20
-51.7689
 30
0.0
 10
-134.0026
 20
-51.7689
 30
0.0
 10
-134.0026
 20
-51.7689
 30
0.0
 10
-138.0753
 20
-51.7689
 30
0.0
 10
-141.3785
 20
-48.4666
 30
0.0
 10
-141.3785
 20
-44.3937
 30
0.0
 10
-141.3785
 20
-44.3937
 30
0.0
 10
-141.3785
 20
-44.3937
 30
0.0
 10
-141.3785
 20
-44.3931
 30
0.0
 10
-141.3785
 20
-44.3931
 30
0.0
  0
SPLINE
  5
A7
330
1F
100
AcDbEntity
  8
layer 1
 62
     7
100
AcDbSpline
210
0.0
220
0.0
230
1.0
 70
    11
 71
     3
 72
    20
 73
    16
 74
     0
 42
0.0000000001
 43
0.0000000001
 12
1.0
 22
0.0
 32
0.0
 13
1.0
 23
0.0
 33
0.0
 40
0.0
 40
0.0
 40
0.0
 40
0.0
 40
0.2
 40
0.2
 40
0.2
 40
0.2
 40
0.4
 40
0.4
 40
0.4
 40
0.4
 40
0.6
 40
0.6
 40
0.6
 40
0.6
 40
1.0
 40
1.0
 40
1.0
 40
1.0
 10
-157.4443
 20
-37.0173
 30
0.0
 10
-157.4443
 20
-37.0173
 30
0.0
 10
-157.4443
 20
-51.7689
 30
0.0
 10
-157.4443
 20
-51.7689
 30
0.0
 10
-157.4443
 20
-51.7689
 30
0.0
 10
-153.3715
 20
-51.7689
 30
0.0
 10
-150.0693
 20
-48.4666
 30
0.0
 10
-150.0693
 20
-44.3937
 30
0.0
 10
-150.0693
 20
-44.3937
 30
0.0
 10
-150.0684
 20
-40.3203
 30
0.0
 10
-153.372
 20
-37.0178
 30
0.0
 10
-157.4446
 20
-37.0178
 30
0.0
 10
-157.4446
 20
-37.0178
 30
0.0
 10
-157.4446
 20
-37.0178
 30
0.0
 10
-157.4443
 20
-37.0173
 30
0.0
 10
-157.4443
 20
-37.0173
 30
0.0
  0
SPLINE
  5
A8
330
1F
100
AcDbEntity
  8
layer 1
 62
     7
100
AcDbSpline
210
0.0
220
0.0
230
1.0
 70
    11
 71
     3
 72
    20
 73
    16
 74
     0
 42
0.0000000001
 43
0.0000000001
 12
1.0
 22
0.0
 32
0.0
 13
1.0
 23
0.0
 33
0.0
 40
0.0
 40
0.0
 40
0.0
 40
0.0
 40
0.2
 40
0.2
 40
0.2
 40
0.2
 40
0.4
 40
0.4
 40
0.4
 40
0.4
 40
0.6
 40
0.6
 40
0.6
 40
0.6
 40
1.0
 40
1.0
 40
1.0
 40
1.0
 10
-119.6368
 20
-48.738
 30
0.0
 10
-123.7094
 20
-48.738
 30
0.0
 10
-127.014
 20
-52.0418
 30
0.0
 10
-127.014
 20
-56.1146
 30
0.0
 10
-127.014
 20
-56.1146
 30
0.0
 10
-127.014
 20
-56.1146
 30
0.0
 10
-112.261
 20
-56.1138
 30
0.0
 10
-112.261
 20
-56.1138
 30
0.0
 10
-112.261
 20
-56.1138
 30
0.0
 10
-112.261
 20
-52.0413
 30
0.0
 10
-115.5657
 20
-48.739
 30
0.0
 10
-119.6387
 20
-48.739
 30
0.0
 10
-119.6387
 20
-48.739
 30
0.0
 10
-119.6387
 20
-48.739
 30
0.0
 10
-119.6368
 20
-48.738
 30
0.0
 10
-119.6368
 20
-48.738
 30
0.0
  0
SPLINE
  5
A9
330
1F
100
AcDbEntity
  8
layer 1
 62
     7
100
AcDbSpline
210
0.0
220
0.0
230
1.0
 70
    11
 71
     3
 72
    20
 73
    16
 74
     0
 42
0.0000000001
 43
0.0000000001
 12
1.0
 22
0.0
 32
0.0
 13
1.0
 23
0.0
 33
0.0
 40
0.0
 40
0.0
 40
0.0
 40
0.0
 40
0.2
 40
0.2
 40
0.2
 40
0.2
 40
0.4
 40
0.4
 40
0.4
 40
0.4
 40
0.6
 40
0.6
 40
0.6
 40
0.6
 40
1.0
 40
1.0
 40
1.0
 40
1.0
 10
-115.2919
 20
-44.3931
 30
0.0
 10
-115.2919
 20
-40.3203
 30
0.0
 10
-111.9906
 20
-37.0178
 30
0.0
 10
-107.9177
 20
-37.0178
 30
0.0
 10
-107.9177
 20
-37.0178
 30
0.0
 10
-107.9177
 20
-37.0178
 30
0.0
 10
-107.916
 20
-51.7689
 30
0.0
 10
-107.916
 20
-51.7689
 30
0.0
 10
-107.916
 20
-51.7689
 30
0.0
 10
-111.9887
 20
-51.7689
 30
0.0
 10
-115.2936
 20
-48.4666
 30
0.0
 10
-115.2936
 20
-44.3937
 30
0.0
 10
-115.2936
 20
-44.3937
 30
0.0
 10
-115.2936
 20
-44.3937
 30
0.0
 10
-115.2919
 20
-44.3931
 30
0.0
 10
-115.2919
 20
-44.3931
 30
0.0
  0
SPLINE
  5
AA
330
1F
100
AcDbEntity
  8
layer 1
 62
     7
100
AcDbSpline
210
0.0
220
0.0
230
1.0
 70
    11
 71
     3
 72
    20
 73
    16
 74
     0
 42
0.0000000001
 43
0.0000000001
 12
1.0
 22
0.0
 32
0.0
 13
1.0
 23
0.0
 33
0.0
 40
0.0
 40
0.0
 40
0.0
 40
0.0
 40
0.2
 40
0.2
 40
0.2
 40
0.2
 40
0.4
 40
0.4
 40
0.4
 40
0.4
 40
0.6
 40
0.6
 40
0.6
 40
0.6
 40
1.0
 40
1.0
 40
1.0
 40
1.0
 10
-131.3575
 20
-37.0173
 30
0.0
 10
-131.3575
 20
-37.0173
 30
0.0
 10
-131.3575
 20
-51.7689
 30
0.0
 10
-131.3575
 20
-51.7689
 30
0.0
 10
-131.3575
 20
-51.7689
 30
0.0
 10
-127.2849
 20
-51.7689
 30
0.0
 10
-123.9835
 20
-48.4666
 30
0.0
 10
-123.9835
 20
-44.3937
 30
0.0
 10
-123.9835
 20
-44.3937
 30
0.0
 10
-123.9817
 20
-40.3203
 30
0.0
 10
-127.2864
 20
-37.0178
 30
0.0
 10
-131.3594
 20
-37.0178
 30
0.0
 10
-131.3594
 20
-37.0178
 30
0.0
 10
-131.3594
 20
-37.0178
 30
0.0
 10
-131.3575
 20
-37.0173
 30
0.0
 10
-131.3575
 20
-37.0173
 30
0.0
  0
SPLINE
  5
AB
330
1F
100
AcDbEntity
  8
layer 1
 62
     7
100
AcDbSpline
210
0.0
220
0.0
230
1.0
 70
    11
 71
     3
 72
    20
 73
    16
 74
     0
 42
0.0000000001
 43
0.0000000001
 12
1.0
 22
0.0
 32
0.0
 13
1.0
 23
0.0
 33
0.0
 40
0.0
 40
0.0
 40
0.0
 40
0.0
 40
0.2
 40
0.2
 40
0.2
 40
0.2
 40
0.4
 40
0.4
 40
0.4
 40
0.4
 40
0.6
 40
0.6
 40
0.6
 40
0.6
 40
1.0
 40
1.0
 40
1.0
 40
1.0
 10
-93.552
 20
-48.738
 30
0.0
 10
-97.625
 20
-48.738
 30
0.0
 10
-100.9288
 20
-52.0418
 30
0.0
 10
-100.9288
 20
-56.1146
 30
0.0
 10
-100.9288
 20
-56.1146
 30
0.0
 10
-100.9288
 20
-56.1146
 30
0.0
 10
-86.1764
 20
-56.1138
 30
0.0
 10
-86.1764
 20
-56.1138
 30
0.0
 10
-86.1764
 20
-56.1138
 30
0.0
 10
-86.1764
 20
-52.0413
 30
0.0
 10
-89.4806
 20
-48.739
 30
0.0
 10
-93.5532
 20
-48.739
 30
0.0
 10
-93.5532
 20
-48.739
 30
0.0
 10
-93.5532
 20
-48.739
 30
0.0
 10
-93.552
 20
-48.738
 30
0.0
 10
-93.552
 20
-48.738
 30
0.0
  0
SPLINE
  5
AC
330
1F
100
AcDbEntity
  8
layer 1
 62
     7
100
AcDbSpline
210
0.0
220
0.0
230
1.0
 70
    11
 71
     3
 72
    20
 73
    16
 74
     0
 42
0.0000000001
 43
0.0000000001
 12
1.0
 22
0.0
 32
0.0
 13
1.0
 23
0.0
 33
0.0
 40
0.0
 40
0.0
 40
0.0
 40
0.0
 40
0.2
 40
0.2
 40
0.2
 40
0.2
 40
0.4
 40
0.4
 40
0.4
 40
0.4
 40
0.6
 40
0.6
 40
0.6
 40
0.6
 40
1.0
 40
1.0
 40
1.0
 40
1.0
 10
-89.2072
 20
-44.3931
 30
0.0
 10
-89.2072
 20
-40.3203
 30
0.0
 10
-85.9053
 20
-37.0178
 30
0.0
 10
-81.8324
 20
-37.0178
 30
0.0
 10
-81.8324
 20
-37.0178
 30
0.0
 10
-81.8324
 20
-37.0178
 30
0.0
 10
-81.8313
 20
-51.7689
 30
0.0
 10
-81.8313
 20
-51.7689
 30
0.0
 10
-81.8313
 20
-51.7689
 30
0.0
 10
-85.9043
 20
-51.7689
 30
0.0
 10
-89.2077
 20
-48.4666
 30
0.0
 10
-89.2077
 20
-44.3937
 30
0.0
 10
-89.2077
 20
-44.3937
 30
0.0
 10
-89.2077
 20
-44.3937
 30
0.0
 10
-89.2072
 20
-44.3931
 30
0.0
 10
-89.2072
 20
-44.3931
 30
0.0
  0
SPLINE
  5
AD
330
1F
100
AcDbEntity
  8
layer 1
 62
     7
100
AcDbSpline
210
0.0
220
0.0
230
1.0
 70
    11
 71
     3
 72
    20
 73
    16
 74
     0
 42
0.0000000001
 43
0.0000000001
 12
1.0
 22
0.0
 32
0.0
 13
1.0
 23
0.0
 33
0.0
 40
0.0
 40
0.0
 40
0.0
 40
0.0
 40
0.2
 40
0.2
 40
0.2
 40
0.2
 40
0.4
 40
0.4
 40
0.4
 40
0.4
 40
0.6
 40
0.6
 40
0.6
 40
0.6
 40
1.0
 40
1.0
 40
1.0
 40
1.0
 10
-105.273
 20
-37.0173
 30
0.0
 10
-105.273
 20
-37.0173
 30
0.0
 10
-105.273
 20
-51.7689
 30
0.0
 10
-105.273
 20
-51.7689
 30
0.0
 10
-105.273
 20
-51.7689
 30
0.0
 10
-101.2005
 20
-51.7689
 30
0.0
 10
-97.8986
 20
-48.4666
 30
0.0
 10
-97.8986
 20
-44.3937
 30
0.0
 10
-97.8986
 20
-44.3937
 30
0.0
 10
-97.8971
 20
-40.3203
 30
0.0
 10
-101.2015
 20
-37.0178
 30
0.0
 10
-105.2745
 20
-37.0178
 30
0.0
 10
-105.2745
 20
-37.0178
 30
0.0
 10
-105.2745
 20
-37.0178
 30
0.0
 10
-105.273
 20
-37.0173
 30
0.0
 10
-105.273
 20
-37.0173
 30
0.0
  0
SPLINE
  5
AE
330
1F
100
AcDbEntity
  8
layer 1
 62
     7
100
AcDbSpline
210
0.0
220
0.0
230
1.0
 70
    11
 71
     3
 72
    20
 73
    16
 74
     0
 42
0.0000000001
 43
0.0000000001
 12
1.0
 22
0.0
 32
0.0
 13
1.0
 23
0.0
 33
0.0
 40
0.0
 40
0.0
 40
0.0
 40
0.0
 40
0.2
 40
0.2
 40
0.2
 40
0.2
 40
0.4
 40
0.4
 40
0.4
 40
0.4
 40
0.6
 40
0.6
 40
0.6
 40
0.6
 40
1.0
 40
1.0
 40
1.0
 40
1.0
 10
-164.4321
 20
-32.6723
 30
0.0
 10
-164.4321
 20
-32.6723
 30
0.0
 10
-179.1839
 20
-32.6723
 30
0.0
 10
-179.1839
 20
-32.6723
 30
0.0
 10
-179.1839
 20
-32.6723
 30
0.0
 10
-179.1839
 20
-36.7451
 30
0.0
 10
-175.8817
 20
-40.0486
 30
0.0
 10
-171.8092
 20
-40.0486
 30
0.0
 10
-171.8092
 20
-40.0486
 30
0.0
 10
-167.7355
 20
-40.0482
 30
0.0
 10
-164.4333
 20
-36.7456
 30
0.0
 10
-164.4333
 20
-32.6727
 30
0.0
 10
-164.4333
 20
-32.6727
 30
0.0
 10
-164.4333
 20
-32.6727
 30
0.0
 10
-164.4321
 20
-32.6723
 30
0.0
 10
-164.4321
 20
-32.6723
 30
0.0
  0
SPLINE
  5
AF
330
1F
100
AcDbEntity
  8
layer 1
 62
     7
100
AcDbSpline
210
0.0
220
0.0
230
1.0
 70
    11
 71
     3
 72
    20
 73
    16
 74
     0
 42
0.0000000001
 43
0.0000000001
 12
1.0
 22
0.0
 32
0.0
 13
1.0
 23
0.0
 33
0.0
 40
0.0
 40
0.0
 40
0.0
 40
0.0
 40
0.2
 40
0.2
 40
0.2
 40
0.2
 40
0.4
 40
0.4
 40
0.4
 40
0.4
 40
0.6
 40
0.6
 40
0.6
 40
0.6
 40
1.0
 40
1.0
 40
1.0
 40
1.0
 10
-138.3475
 20
-32.6723
 30
0.0
 10
-138.3475
 20
-32.6723
 30
0.0
 10
-153.0992
 20
-32.6723
 30
0.0
 10
-153.0992
 20
-32.6723
 30
0.0
 10
-153.0992
 20
-32.6723
 30
0.0
 10
-153.0992
 20
-36.7451
 30
0.0
 10
-149.7968
 20
-40.0486
 30
0.0
 10
-145.7236
 20
-40.0486
 30
0.0
 10
-145.7236
 20
-40.0486
 30
0.0
 10
-141.6508
 20
-40.0482
 30
0.0
 10
-138.348
 20
-36.7456
 30
0.0
 10
-138.348
 20
-32.6727
 30
0.0
 10
-138.348
 20
-32.6727
 30
0.0
 10
-138.348
 20
-32.6727
 30
0.0
 10
-138.3475
 20
-32.6723
 30
0.0
 10
-138.3475
 20
-32.6723
 30
0.0
  0
SPLINE
  5
B0
330
1F
100
AcDbEntity
  8
layer 1
 62
     7
100
AcDbSpline
210
0.0
220
0.0
230
1.0
 70
    11
 71
     3
 72
    20
 73
    16
 74
     0
 42
0.0000000001
 43
0.0000000001
 12
1.0
 22
0.0
 32
0.0
 13
1.0
 23
0.0
 33
0.0
 40
0.0
 40
0.0
 40
0.0
 40
0.0
 40
0.2
 40
0.2
 40
0.2
 40
0.2
 40
0.4
 40
0.4
 40
0.4
 40
0.4
 40
0.6
 40
0.6
 40
0.6
 40
0.6
 40
1.0
 40
1.0
 40
1.0
 40
1.0
 10
-112.261
 20
-32.6723
 30
0.0
 10
-112.261
 20
-32.6723
 30
0.0
 10
-127.0127
 20
-32.6723
 30
0.0
 10
-127.0127
 20
-32.6723
 30
0.0
 10
-127.0127
 20
-32.6723
 30
0.0
 10
-127.0127
 20
-36.7451
 30
0.0
 10
-123.7113
 20
-40.0486
 30
0.0
 10
-119.6387
 20
-40.0486
 30
0.0
 10
-119.6387
 20
-40.0486
 30
0.0
 10
-115.5642
 20
-40.0482
 30
0.0
 10
-112.2628
 20
-36.7456
 30
0.0
 10
-112.2628
 20
-32.6727
 30
0.0
 10
-112.2628
 20
-32.6727
 30
0.0
 10
-112.2628
 20
-32.6727
 30
0.0
 10
-112.261
 20
-32.6723
 30
0.0
 10
-112.261
 20
-32.6723
 30
0.0
  0
SPLINE
  5
B1
330
1F
100
AcDbEntity
  8
layer 1
 62
     7
100
AcDbSpline
210
0.0
220
0.0
230
1.0
 70
    11
 71
     3
 72
    20
 73
    16
 74
     0
 42
0.0000000001
 43
0.0000000001
 12
1.0
 22
0.0
 32
0.0
 13
1.0
 23
0.0
 33
0.0
 40
0.0
 40
0.0
 40
0.0
 40
0.0
 40
0.2
 40
0.2
 40
0.2
 40
0.2
 40
0.4
 40
0.4
 40
0.4
 40
0.4
 40
0.6
 40
0.6
 40
0.6
 40
0.6
 40
1.0
 40
1.0
 40
1.0
 40
1.0
 10
-86.1764
 20
-32.6723
 30
0.0
 10
-86.1764
 20
-32.6723
 30
0.0
 10
-100.9282
 20
-32.6723
 30
0.0
 10
-100.9282
 20
-32.6723
 30
0.0
 10
-100.9282
 20
-32.6723
 30
0.0
 10
-100.9282
 20
-36.7451
 30
0.0
 10
-97.626
 20
-40.0486
 30
0.0
 10
-93.5532
 20
-40.0486
 30
0.0
 10
-93.5532
 20
-40.0486
 30
0.0
 10
-89.4795
 20
-40.0482
 30
0.0
 10
-86.1779
 20
-36.7456
 30
0.0
 10
-86.1779
 20
-32.6727
 30
0.0
 10
-86.1779
 20
-32.6727
 30
0.0
 10
-86.1779
 20
-32.6727
 30
0.0
 10
-86.1764
 20
-32.6723
 30
0.0
 10
-86.1764
 20
-32.6723
 30
0.0
  0
SPLINE
  5
B2
330
1F
100
AcDbEntity
  8
layer 1
 62
     7
100
AcDbSpline
210
0.0
220
0.0
230
1.0
 70
    11
 71
     3
 72
    20
 73
    16
 74
     0
 42
0.0000000001
 43
0.0000000001
 12
1.0
 22
0.0
 32
0.0
 13
1.0
 23
0.0
 33
0.0
 40
0.0
 40
0.0
 40
0.0
 40
0.0
 40
0.2
 40
0.2
 40
0.2
 40
0.2
 40
0.4
 40
0.4
 40
0.4
 40
0.4
 40
0.6
 40
0.6
 40
0.6
 40
0.6
 40
1.0
 40
1.0
 40
1.0
 40
1.0
 10
-171.808
 20
-74.8237
 30
0.0
 10
-175.8807
 20
-74.8237
 30
0.0
 10
-179.1848
 20
-78.1272
 30
0.0
 10
-179.1848
 20
-82.1999
 30
0.0
 10
-179.1848
 20
-82.1999
 30
0.0
 10
-179.1848
 20
-82.1999
 30
0.0
 10
-164.4321
 20
-82.1996
 30
0.0
 10
-164.4321
 20
-82.1996
 30
0.0
 10
-164.4321
 20
-82.1996
 30
0.0
 10
-164.4321
 20
-78.1268
 30
0.0
 10
-167.7365
 20
-74.8243
 30
0.0
 10
-171.8092
 20
-74.8243
 30
0.0
 10
-171.8092
 20
-74.8243
 30
0.0
 10
-171.8092
 20
-74.8243
 30
0.0
 10
-171.808
 20
-74.8237
 30
0.0
 10
-171.808
 20
-74.8237
 30
0.0
  0
SPLINE
  5
B3
330
1F
100
AcDbEntity
  8
layer 1
 62
     7
100
AcDbSpline
210
0.0
220
0.0
230
1.0
 70
    11
 71
     3
 72
    20
 73
    16
 74
     0
 42
0.0000000001
 43
0.0000000001
 12
1.0
 22
0.0
 32
0.0
 13
1.0
 23
0.0
 33
0.0
 40
0.0
 40
0.0
 40
0.0
 40
0.0
 40
0.2
 40
0.2
 40
0.2
 40
0.2
 40
0.4
 40
0.4
 40
0.4
 40
0.4
 40
0.6
 40
0.6
 40
0.6
 40
0.6
 40
1.0
 40
1.0
 40
1.0
 40
1.0
 10
-167.4632
 20
-70.4787
 30
0.0
 10
-167.4632
 20
-66.4061
 30
0.0
 10
-164.1613
 20
-63.1032
 30
0.0
 10
-160.0882
 20
-63.1032
 30
0.0
 10
-160.0882
 20
-63.1032
 30
0.0
 10
-160.0882
 20
-63.1032
 30
0.0
 10
-160.087
 20
-77.8546
 30
0.0
 10
-160.087
 20
-77.8546
 30
0.0
 10
-160.087
 20
-77.8546
 30
0.0
 10
-164.16
 20
-77.8546
 30
0.0
 10
-167.4644
 20
-74.5518
 30
0.0
 10
-167.4644
 20
-70.4791
 30
0.0
 10
-167.4644
 20
-70.4791
 30
0.0
 10
-167.4644
 20
-70.4791
 30
0.0
 10
-167.4632
 20
-70.4787
 30
0.0
 10
-167.4632
 20
-70.4787
 30
0.0
  0
SPLINE
  5
B4
330
1F
100
AcDbEntity
  8
layer 1
 62
     7
100
AcDbSpline
210
0.0
220
0.0
230
1.0
 70
    11
 71
     3
 72
    20
 73
    16
 74
     0
 42
0.0000000001
 43
0.0000000001
 12
1.0
 22
0.0
 32
0.0
 13
1.0
 23
0.0
 33
0.0
 40
0.0
 40
0.0
 40
0.0
 40
0.0
 40
0.2
 40
0.2
 40
0.2
 40
0.2
 40
0.4
 40
0.4
 40
0.4
 40
0.4
 40
0.6
 40
0.6
 40
0.6
 40
0.6
 40
1.0
 40
1.0
 40
1.0
 40
1.0
 10
-176.153
 20
-70.4787
 30
0.0
 10
-176.153
 20
-66.4061
 30
0.0
 10
-179.4572
 20
-63.1032
 30
0.0
 10
-183.5299
 20
-63.1032
 30
0.0
 10
-183.5299
 20
-63.1032
 30
0.0
 10
-183.5299
 20
-63.1032
 30
0.0
 10
-183.5288
 20
-77.8546
 30
0.0
 10
-183.5288
 20
-77.8546
 30
0.0
 10
-183.5288
 20
-77.8546
 30
0.0
 10
-179.4562
 20
-77.8546
 30
0.0
 10
-176.1543
 20
-74.5518
 30
0.0
 10
-176.1543
 20
-70.4791
 30
0.0
 10
-176.1543
 20
-70.4791
 30
0.0
 10
-176.1543
 20
-70.4791
 30
0.0
 10
-176.153
 20
-70.4787
 30
0.0
 10
-176.153
 20
-70.4787
 30
0.0
  0
SPLINE
  5
B5
330
1F
100
AcDbEntity
  8
layer 1
 62
     7
100
AcDbSpline
210
0.0
220
0.0
230
1.0
 70
    11
 71
     3
 72
    20
 73
    16
 74
     0
 42
0.0000000001
 43
0.0000000001
 12
1.0
 22
0.0
 32
0.0
 13
1.0
 23
0.0
 33
0.0
 40
0.0
 40
0.0
 40
0.0
 40
0.0
 40
0.2
 40
0.2
 40
0.2
 40
0.2
 40
0.4
 40
0.4
 40
0.4
 40
0.4
 40
0.6
 40
0.6
 40
0.6
 40
0.6
 40
1.0
 40
1.0
 40
1.0
 40
1.0
 10
-145.7233
 20
-74.8237
 30
0.0
 10
-149.7963
 20
-74.8237
 30
0.0
 10
-153.0995
 20
-78.1272
 30
0.0
 10
-153.0995
 20
-82.1999
 30
0.0
 10
-153.0995
 20
-82.1999
 30
0.0
 10
-153.0995
 20
-82.1999
 30
0.0
 10
-138.3475
 20
-82.1996
 30
0.0
 10
-138.3475
 20
-82.1996
 30
0.0
 10
-138.3475
 20
-82.1996
 30
0.0
 10
-138.3475
 20
-78.1268
 30
0.0
 10
-141.6511
 20
-74.8243
 30
0.0
 10
-145.7236
 20
-74.8243
 30
0.0
 10
-145.7236
 20
-74.8243
 30
0.0
 10
-145.7236
 20
-74.8243
 30
0.0
 10
-145.7233
 20
-74.8237
 30
0.0
 10
-145.7233
 20
-74.8237
 30
0.0
  0
SPLINE
  5
B6
330
1F
100
AcDbEntity
  8
layer 1
 62
     7
100
AcDbSpline
210
0.0
220
0.0
230
1.0
 70
    11
 71
     3
 72
    16
 73
    12
 74
     0
 42
0.0000000001
 43
0.0000000001
 12
1.0
 22
0.0
 32
0.0
 13
1.0
 23
0.0
 33
0.0
 40
0.0
 40
0.0
 40
0.0
 40
0.0
 40
0.25
 40
0.25
 40
0.25
 40
0.25
 40
0.5
 40
0.5
 40
0.5
 40
0.5
 40
1.0
 40
1.0
 40
1.0
 40
1.0
 10
-141.3785
 20
-70.4787
 30
0.0
 10
-141.3785
 20
-66.4061
 30
0.0
 10
-138.0756
 20
-63.1032
 30
0.0
 10
-134.0032
 20
-63.1032
 30
0.0
 10
-134.0032
 20
-63.1032
 30
0.0
 10
-134.0032
 20
-63.1032
 30
0.0
 10
-134.0026
 20
-77.8546
 30
0.0
 10
-134.0026
 20
-77.8546
 30
0.0
 10
-134.0026
 20
-77.8546
 30
0.0
 10
-138.0753
 20
-77.8546
 30
0.0
 10
-141.3785
 20
-74.5518
 30
0.0
 10
-141.3785
 20
-70.4787
 30
0.0
  0
SPLINE
  5
B7
330
1F
100
AcDbEntity
  8
layer 1
 62
     7
100
AcDbSpline
210
0.0
220
0.0
230
1.0
 70
    11
 71
     3
 72
    20
 73
    16
 74
     0
 42
0.0000000001
 43
0.0000000001
 12
1.0
 22
0.0
 32
0.0
 13
1.0
 23
0.0
 33
0.0
 40
0.0
 40
0.0
 40
0.0
 40
0.0
 40
0.2
 40
0.2
 40
0.2
 40
0.2
 40
0.4
 40
0.4
 40
0.4
 40
0.4
 40
0.6
 40
0.6
 40
0.6
 40
0.6
 40
1.0
 40
1.0
 40
1.0
 40
1.0
 10
-157.4443
 20
-63.1028
 30
0.0
 10
-157.4443
 20
-63.1028
 30
0.0
 10
-157.4443
 20
-77.8546
 30
0.0
 10
-157.4443
 20
-77.8546
 30
0.0
 10
-157.4443
 20
-77.8546
 30
0.0
 10
-153.3715
 20
-77.8546
 30
0.0
 10
-150.0693
 20
-74.5518
 30
0.0
 10
-150.0693
 20
-70.4791
 30
0.0
 10
-150.0693
 20
-70.4791
 30
0.0
 10
-150.0684
 20
-66.4061
 30
0.0
 10
-153.372
 20
-63.1032
 30
0.0
 10
-157.4446
 20
-63.1032
 30
0.0
 10
-157.4446
 20
-63.1032
 30
0.0
 10
-157.4446
 20
-63.1032
 30
0.0
 10
-157.4443
 20
-63.1028
 30
0.0
 10
-157.4443
 20
-63.1028
 30
0.0
  0
SPLINE
  5
B8
330
1F
100
AcDbEntity
  8
layer 1
 62
     7
100
AcDbSpline
210
0.0
220
0.0
230
1.0
 70
    11
 71
     3
 72
    20
 73
    16
 74
     0
 42
0.0000000001
 43
0.0000000001
 12
1.0
 22
0.0
 32
0.0
 13
1.0
 23
0.0
 33
0.0
 40
0.0
 40
0.0
 40
0.0
 40
0.0
 40
0.2
 40
0.2
 40
0.2
 40
0.2
 40
0.4
 40
0.4
 40
0.4
 40
0.4
 40
0.6
 40
0.6
 40
0.6
 40
0.6
 40
1.0
 40
1.0
 40
1.0
 40
1.0
 10
-119.6368
 20
-74.8237
 30
0.0
 10
-123.7094
 20
-74.8237
 30
0.0
 10
-127.014
 20
-78.1272
 30
0.0
 10
-127.014
 20
-82.1999
 30
0.0
 10
-127.014
 20
-82.1999
 30
0.0
 10
-127.014
 20
-82.1999
 30
0.0
 10
-112.261
 20
-82.1996
 30
0.0
 10
-112.261
 20
-82.1996
 30
0.0
 10
-112.261
 20
-82.1996
 30
0.0
 10
-112.261
 20
-78.1268
 30
0.0
 10
-115.5657
 20
-74.8243
 30
0.0
 10
-119.6387
 20
-74.8243
 30
0.0
 10
-119.6387
 20
-74.8243
 30
0.0
 10
-119.6387
 20
-74.8243
 30
0.0
 10
-119.6368
 20
-74.8237
 30
0.0
 10
-119.6368
 20
-74.8237
 30
0.0
  0
SPLINE
  5
B9
330
1F
100
AcDbEntity
  8
layer 1
 62
     7
100
AcDbSpline
210
0.0
220
0.0
230
1.0
 70
    11
 71
     3
 72
    20
 73
    16
 74
     0
 42
0.0000000001
 43
0.0000000001
 12
1.0
 22
0.0
 32
0.0
 13
1.0
 23
0.0
 33
0.0
 40
0.0
 40
0.0
 40
0.0
 40
0.0
 40
0.2
 40
0.2
 40
0.2
 40
0.2
 40
0.4
 40
0.4
 40
0.4
 40
0.4
 40
0.6
 40
0.6
 40
0.6
 40
0.6
 40
1.0
 40
1.0
 40
1.0
 40
1.0
 10
-115.2919
 20
-70.4787
 30
0.0
 10
-115.2919
 20
-66.4061
 30
0.0
 10
-111.9906
 20
-63.1032
 30
0.0
 10
-107.9177
 20
-63.1032
 30
0.0
 10
-107.9177
 20
-63.1032
 30
0.0
 10
-107.9177
 20
-63.1032
 30
0.0
 10
-107.916
 20
-77.8546
 30
0.0
 10
-107.916
 20
-77.8546
 30
0.0
 10
-107.916
 20
-77.8546
 30
0.0
 10
-111.9887
 20
-77.8546
 30
0.0
 10
-115.2936
 20
-74.5518
 30
0.0
 10
-115.2936
 20
-70.4791
 30
0.0
 10
-115.2936
 20
-70.4791
 30
0.0
 10
-115.2936
 20
-70.4791
 30
0.0
 10
-115.2919
 20
-70.4787
 30
0.0
 10
-115.2919
 20
-70.4787
 30
0.0
  0
SPLINE
  5
BA
330
1F
100
AcDbEntity
  8
layer 1
 62
     7
100
AcDbSpline
210
0.0
220
0.0
230
1.0
 70
    11
 71
     3
 72
    20
 73
    16
 74
     0
 42
0.0000000001
 43
0.0000000001
 12
1.0
 22
0.0
 32
0.0
 13
1.0
 23
0.0
 33
0.0
 40
0.0
 40
0.0
 40
0.0
 40
0.0
 40
0.2
 40
0.2
 40
0.2
 40
0.2
 40
0.4
 40
0.4
 40
0.4
 40
0.4
 40
0.6
 40
0.6
 40
0.6
 40
0.6
 40
1.0
 40
1.0
 40
1.0
 40
1.0
 10
-131.3575
 20
-63.1028
 30
0.0
 10
-131.3575
 20
-63.1028
 30
0.0
 10
-131.3575
 20
-77.8546
 30
0.0
 10
-131.3575
 20
-77.8546
 30
0.0
 10
-131.3575
 20
-77.8546
 30
0.0
 10
-127.2849
 20
-77.8546
 30
0.0
 10
-123.9835
 20
-74.5518
 30
0.0
 10
-123.9835
 20
-70.4791
 30
0.0
 10
-123.9835
 20
-70.4791
 30
0.0
 10
-123.9817
 20
-66.4061
 30
0.0
 10
-127.2864
 20
-63.1032
 30
0.0
 10
-131.3594
 20
-63.1032
 30
0.0
 10
-131.3594
 20
-63.1032
 30
0.0
 10
-131.3594
 20
-63.1032
 30
0.0
 10
-131.3575
 20
-63.1028
 30
0.0
 10
-131.3575
 20
-63.1028
 30
0.0
  0
SPLINE
  5
BB
330
1F
100
AcDbEntity
  8
layer 1
 62
     7
100
AcDbSpline
210
0.0
220
0.0
230
1.0
 70
    11
 71
     3
 72
    20
 73
    16
 74
     0
 42
0.0000000001
 43
0.0000000001
 12
1.0
 22
0.0
 32
0.0
 13
1.0
 23
0.0
 33
0.0
 40
0.0
 40
0.0
 40
0.0
 40
0.0
 40
0.2
 40
0.2
 40
0.2
 40
0.2
 40
0.4
 40
0.4
 40
0.4
 40
0.4
 40
0.6
 40
0.6
 40
0.6
 40
0.6
 40
1.0
 40
1.0
 40
1.0
 40
1.0
 10
-93.552
 20
-74.8237
 30
0.0
 10
-97.625
 20
-74.8237
 30
0.0
 10
-100.9288
 20
-78.1272
 30
0.0
 10
-100.9288
 20
-82.1999
 30
0.0
 10
-100.9288
 20
-82.1999
 30
0.0
 10
-100.9288
 20
-82.1999
 30
0.0
 10
-86.1764
 20
-82.1996
 30
0.0
 10
-86.1764
 20
-82.1996
 30
0.0
 10
-86.1764
 20
-82.1996
 30
0.0
 10
-86.1764
 20
-78.1268
 30
0.0
 10
-89.4806
 20
-74.8243
 30
0.0
 10
-93.5532
 20
-74.8243
 30
0.0
 10
-93.5532
 20
-74.8243
 30
0.0
 10
-93.5532
 20
-74.8243
 30
0.0
 10
-93.552
 20
-74.8237
 30
0.0
 10
-93.552
 20
-74.8237
 30
0.0
  0
SPLINE
  5
BC
330
1F
100
AcDbEntity
  8
layer 1
 62
     7
100
AcDbSpline
210
0.0
220
0.0
230
1.0
 70
    11
 71
     3
 72
    20
 73
    16
 74
     0
 42
0.0000000001
 43
0.0000000001
 12
1.0
 22
0.0
 32
0.0
 13
1.0
 23
0.0
 33
0.0
 40
0.0
 40
0.0
 40
0.0
 40
0.0
 40
0.2
 40
0.2
 40
0.2
 40
0.2
 40
0.4
 40
0.4
 40
0.4
 40
0.4
 40
0.6
 40
0.6
 40
0.6
 40
0.6
 40
1.0
 40
1.0
 40
1.0
 40
1.0
 10
-89.2072
 20
-70.4787
 30
0.0
 10
-89.2072
 20
-66.4061
 30
0.0
 10
-85.9053
 20
-63.1032
 30
0.0
 10
-81.8324
 20
-63.1032
 30
0.0
 10
-81.8324
 20
-63.1032
 30
0.0
 10
-81.8324
 20
-63.1032
 30
0.0
 10
-81.8313
 20
-77.8546
 30
0.0
 10
-81.8313
 20
-77.8546
 30
0.0
 10
-81.8313
 20
-77.8546
 30
0.0
 10
-85.9043
 20
-77.8546
 30
0.0
 10
-89.2077
 20
-74.5518
 30
0.0
 10
-89.2077
 20
-70.4791
 30
0.0
 10
-89.2077
 20
-70.4791
 30
0.0
 10
-89.2077
 20
-70.4791
 30
0.0
 10
-89.2072
 20
-70.4787
 30
0.0
 10
-89.2072
 20
-70.4787
 30
0.0
  0
SPLINE
  5
BD
330
1F
100
AcDbEntity
  8
layer 1
 62
     7
100
AcDbSpline
210
0.0
220
0.0
230
1.0
 70
    11
 71
     3
 72
    20
 73
    16
 74
     0
 42
0.0000000001
 43
0.0000000001
 12
1.0
 22
0.0
 32
0.0
 13
1.0
 23
0.0
 33
0.0
 40
0.0
 40
0.0
 40
0.0
 40
0.0
 40
0.2
 40
0.2
 40
0.2
 40
0.2
 40
0.4
 40
0.4
 40
0.4
 40
0.4
 40
0.6
 40
0.6
 40
0.6
 40
0.6
 40
1.0
 40
1.0
 40
1.0
 40
1.0
 10
-105.273
 20
-63.1028
 30
0.0
 10
-105.273
 20
-63.1028
 30
0.0
 10
-105.273
 20
-77.8546
 30
0.0
 10
-105.273
 20
-77.8546
 30
0.0
 10
-105.273
 20
-77.8546
 30
0.0
 10
-101.2005
 20
-77.8546
 30
0.0
 10
-97.8986
 20
-74.5518
 30
0.0
 10
-97.8986
 20
-70.4791
 30
0.0
 10
-97.8986
 20
-70.4791
 30
0.0
 10
-97.8971
 20
-66.4061
 30
0.0
 10
-101.2015
 20
-63.1032
 30
0.0
 10
-105.2745
 20
-63.1032
 30
0.0
 10
-105.2745
 20
-63.1032
 30
0.0
 10
-105.2745
 20
-63.1032
 30
0.0
 10
-105.273
 20
-63.1028
 30
0.0
 10
-105.273
 20
-63.1028
 30
0.0
  0
SPLINE
  5
BE
330
1F
100
AcDbEntity
  8
layer 1
 62
     7
100
AcDbSpline
210
0.0
220
0.0
230
1.0
 70
    11
 71
     3
 72
    20
 73
    16
 74
     0
 42
0.0000000001
 43
0.0000000001
 12
1.0
 22
0.0
 32
0.0
 13
1.0
 23
0.0
 33
0.0
 40
0.0
 40
0.0
 40
0.0
 40
0.0
 40
0.2
 40
0.2
 40
0.2
 40
0.2
 40
0.4
 40
0.4
 40
0.4
 40
0.4
 40
0.6
 40
0.6
 40
0.6
 40
0.6
 40
1.0
 40
1.0
 40
1.0
 40
1.0
 10
-164.4321
 20
-58.7579
 30
0.0
 10
-164.4321
 20
-58.7579
 30
0.0
 10
-179.1839
 20
-58.7579
 30
0.0
 10
-179.1839
 20
-58.7579
 30
0.0
 10
-179.1839
 20
-58.7579
 30
0.0
 10
-179.1839
 20
-62.8306
 30
0.0
 10
-175.8817
 20
-66.1338
 30
0.0
 10
-171.8092
 20
-66.1338
 30
0.0
 10
-171.8092
 20
-66.1338
 30
0.0
 10
-167.7355
 20
-66.1338
 30
0.0
 10
-164.4333
 20
-62.8308
 30
0.0
 10
-164.4333
 20
-58.7581
 30
0.0
 10
-164.4333
 20
-58.7581
 30
0.0
 10
-164.4333
 20
-58.7581
 30
0.0
 10
-164.4321
 20
-58.7579
 30
0.0
 10
-164.4321
 20
-58.7579
 30
0.0
  0
SPLINE
  5
BF
330
1F
100
AcDbEntity
  8
layer 1
 62
     7
100
AcDbSpline
210
0.0
220
0.0
230
1.0
 70
    11
 71
     3
 72
    20
 73
    16
 74
     0
 42
0.0000000001
 43
0.0000000001
 12
1.0
 22
0.0
 32
0.0
 13
1.0
 23
0.0
 33
0.0
 40
0.0
 40
0.0
 40
0.0
 40
0.0
 40
0.2
 40
0.2
 40
0.2
 40
0.2
 40
0.4
 40
0.4
 40
0.4
 40
0.4
 40
0.6
 40
0.6
 40
0.6
 40
0.6
 40
1.0
 40
1.0
 40
1.0
 40
1.0
 10
-138.3475
 20
-58.7579
 30
0.0
 10
-138.3475
 20
-58.7579
 30
0.0
 10
-153.0992
 20
-58.7579
 30
0.0
 10
-153.0992
 20
-58.7579
 30
0.0
 10
-153.0992
 20
-58.7579
 30
0.0
 10
-153.0992
 20
-62.8306
 30
0.0
 10
-149.7968
 20
-66.1338
 30
0.0
 10
-145.7236
 20
-66.1338
 30
0.0
 10
-145.7236
 20
-66.1338
 30
0.0
 10
-141.6508
 20
-66.1338
 30
0.0
 10
-138.348
 20
-62.8308
 30
0.0
 10
-138.348
 20
-58.7581
 30
0.0
 10
-138.348
 20
-58.7581
 30
0.0
 10
-138.348
 20
-58.7581
 30
0.0
 10
-138.3475
 20
-58.7579
 30
0.0
 10
-138.3475
 20
-58.7579
 30
0.0
  0
SPLINE
  5
C0
330
1F
100
AcDbEntity
  8
layer 1
 62
     7
100
AcDbSpline
210
0.0
220
0.0
230
1.0
 70
    11
 71
     3
 72
    20
 73
    16
 74
     0
 42
0.0000000001
 43
0.0000000001
 12
1.0
 22
0.0
 32
0.0
 13
1.0
 23
0.0
 33
0.0
 40
0.0
 40
0.0
 40
0.0
 40
0.0
 40
0.2
 40
0.2
 40
0.2
 40
0.2
 40
0.4
 40
0.4
 40
0.4
 40
0.4
 40
0.6
 40
0.6
 40
0.6
 40
0.6
 40
1.0
 40
1.0
 40
1.0
 40
1.0
 10
-112.261
 20
-58.7579
 30
0.0
 10
-112.261
 20
-58.7579
 30
0.0
 10
-127.0127
 20
-58.7579
 30
0.0
 10
-127.0127
 20
-58.7579
 30
0.0
 10
-127.0127
 20
-58.7579
 30
0.0
 10
-127.0127
 20
-62.8306
 30
0.0
 10
-123.7113
 20
-66.1338
 30
0.0
 10
-119.6387
 20
-66.1338
 30
0.0
 10
-119.6387
 20
-66.1338
 30
0.0
 10
-115.5642
 20
-66.1338
 30
0.0
 10
-112.2628
 20
-62.8308
 30
0.0
 10
-112.2628
 20
-58.7581
 30
0.0
 10
-112.2628
 20
-58.7581
 30
0.0
 10
-112.2628
 20
-58.7581
 30
0.0
 10
-112.261
 20
-58.7579
 30
0.0
 10
-112.261
 20
-58.7579
 30
0.0
  0
SPLINE
  5
C1
330
1F
100
AcDbEntity
  8
layer 1
 62
     7
100
AcDbSpline
210
0.0
220
0.0
230
1.0
 70
    11
 71
     3
 72
    20
 73
    16
 74
     0
 42
0.0000000001
 43
0.0000000001
 12
1.0
 22
0.0
 32
0.0
 13
1.0
 23
0.0
 33
0.0
 40
0.0
 40
0.0
 40
0.0
 40
0.0
 40
0.2
 40
0.2
 40
0.2
 40
0.2
 40
0.4
 40
0.4
 40
0.4
 40
0.4
 40
0.6
 40
0.6
 40
0.6
 40
0.6
 40
1.0
 40
1.0
 40
1.0
 40
1.0
 10
-86.1764
 20
-58.7579
 30
0.0
 10
-86.1764
 20
-58.7579
 30
0.0
 10
-100.9282
 20
-58.7579
 30
0.0
 10
-100.9282
 20
-58.7579
 30
0.0
 10
-100.9282
 20
-58.7579
 30
0.0
 10
-100.9282
 20
-62.8306
 30
0.0
 10
-97.626
 20
-66.1338
 30
0.0
 10
-93.5532
 20
-66.1338
 30
0.0
 10
-93.5532
 20
-66.1338
 30
0.0
 10
-89.4795
 20
-66.1338
 30
0.0
 10
-86.1779
 20
-62.8308
 30
0.0
 10
-86.1779
 20
-58.7581
 30
0.0
 10
-86.1779
 20
-58.7581
 30
0.0
 10
-86.1779
 20
-58.7581
 30
0.0
 10
-86.1764
 20
-58.7579
 30
0.0
 10
-86.1764
 20
-58.7579
 30
0.0
  0
SPLINE
  5
C2
330
1F
100
AcDbEntity
  8
layer 1
 62
     7
100
AcDbSpline
210
0.0
220
0.0
230
1.0
 70
    11
 71
     3
 72
    20
 73
    16
 74
     0
 42
0.0000000001
 43
0.0000000001
 12
1.0
 22
0.0
 32
0.0
 13
1.0
 23
0.0
 33
0.0
 40
0.0
 40
0.0
 40
0.0
 40
0.0
 40
0.2
 40
0.2
 40
0.2
 40
0.2
 40
0.4
 40
0.4
 40
0.4
 40
0.4
 40
0.6
 40
0.6
 40
0.6
 40
0.6
 40
1.0
 40
1.0
 40
1.0
 40
1.0
 10
-171.808
 20
-100.9093
 30
0.0
 10
-175.8807
 20
-100.9093
 30
0.0
 10
-179.1848
 20
-104.2125
 30
0.0
 10
-179.1848
 20
-108.2851
 30
0.0
 10
-179.1848
 20
-108.2851
 30
0.0
 10
-179.1848
 20
-108.2851
 30
0.0
 10
-164.4321
 20
-108.2851
 30
0.0
 10
-164.4321
 20
-108.2851
 30
0.0
 10
-164.4321
 20
-108.2851
 30
0.0
 10
-164.4321
 20
-104.2123
 30
0.0
 10
-167.7365
 20
-100.9095
 30
0.0
 10
-171.8092
 20
-100.9095
 30
0.0
 10
-171.8092
 20
-100.9095
 30
0.0
 10
-171.8092
 20
-100.9095
 30
0.0
 10
-171.808
 20
-100.9093
 30
0.0
 10
-171.808
 20
-100.9093
 30
0.0
  0
SPLINE
  5
C3
330
1F
100
AcDbEntity
  8
layer 1
 62
     7
100
AcDbSpline
210
0.0
220
0.0
230
1.0
 70
    11
 71
     3
 72
    20
 73
    16
 74
     0
 42
0.0000000001
 43
0.0000000001
 12
1.0
 22
0.0
 32
0.0
 13
1.0
 23
0.0
 33
0.0
 40
0.0
 40
0.0
 40
0.0
 40
0.0
 40
0.2
 40
0.2
 40
0.2
 40
0.2
 40
0.4
 40
0.4
 40
0.4
 40
0.4
 40
0.6
 40
0.6
 40
0.6
 40
0.6
 40
1.0
 40
1.0
 40
1.0
 40
1.0
 10
-167.4632
 20
-96.5643
 30
0.0
 10
-167.4632
 20
-92.4915
 30
0.0
 10
-164.1613
 20
-89.1887
 30
0.0
 10
-160.0882
 20
-89.1887
 30
0.0
 10
-160.0882
 20
-89.1887
 30
0.0
 10
-160.0882
 20
-89.1887
 30
0.0
 10
-160.087
 20
-103.9391
 30
0.0
 10
-160.087
 20
-103.9391
 30
0.0
 10
-160.087
 20
-103.9391
 30
0.0
 10
-164.16
 20
-103.9391
 30
0.0
 10
-167.4644
 20
-100.6371
 30
0.0
 10
-167.4644
 20
-96.5644
 30
0.0
 10
-167.4644
 20
-96.5644
 30
0.0
 10
-167.4644
 20
-96.5644
 30
0.0
 10
-167.4632
 20
-96.5643
 30
0.0
 10
-167.4632
 20
-96.5643
 30
0.0
  0
SPLINE
  5
C4
330
1F
100
AcDbEntity
  8
layer 1
 62
     7
100
AcDbSpline
210
0.0
220
0.0
230
1.0
 70
    11
 71
     3
 72
    20
 73
    16
 74
     0
 42
0.0000000001
 43
0.0000000001
 12
1.0
 22
0.0
 32
0.0
 13
1.0
 23
0.0
 33
0.0
 40
0.0
 40
0.0
 40
0.0
 40
0.0
 40
0.2
 40
0.2
 40
0.2
 40
0.2
 40
0.4
 40
0.4
 40
0.4
 40
0.4
 40
0.6
 40
0.6
 40
0.6
 40
0.6
 40
1.0
 40
1.0
 40
1.0
 40
1.0
 10
-176.153
 20
-96.5643
 30
0.0
 10
-176.153
 20
-92.4915
 30
0.0
 10
-179.4572
 20
-89.1887
 30
0.0
 10
-183.5299
 20
-89.1887
 30
0.0
 10
-183.5299
 20
-89.1887
 30
0.0
 10
-183.5299
 20
-89.1887
 30
0.0
 10
-183.5288
 20
-103.9391
 30
0.0
 10
-183.5288
 20
-103.9391
 30
0.0
 10
-183.5288
 20
-103.9391
 30
0.0
 10
-179.4562
 20
-103.9391
 30
0.0
 10
-176.1543
 20
-100.6371
 30
0.0
 10
-176.1543
 20
-96.5644
 30
0.0
 10
-176.1543
 20
-96.5644
 30
0.0
 10
-176.1543
 20
-96.5644
 30
0.0
 10
-176.153
 20
-96.5643
 30
0.0
 10
-176.153
 20
-96.5643
 30
0.0
  0
SPLINE
  5
C5
330
1F
100
AcDbEntity
  8
layer 1
 62
     7
100
AcDbSpline
210
0.0
220
0.0
230
1.0
 70
    11
 71
     3
 72
    20
 73
    16
 74
     0
 42
0.0000000001
 43
0.0000000001
 12
1.0
 22
0.0
 32
0.0
 13
1.0
 23
0.0
 33
0.0
 40
0.0
 40
0.0
 40
0.0
 40
0.0
 40
0.2
 40
0.2
 40
0.2
 40
0.2
 40
0.4
 40
0.4
 40
0.4
 40
0.4
 40
0.6
 40
0.6
 40
0.6
 40
0.6
 40
1.0
 40
1.0
 40
1.0
 40
1.0
 10
-145.7233
 20
-100.9093
 30
0.0
 10
-149.7963
 20
-100.9093
 30
0.0
 10
-153.0995
 20
-104.2125
 30
0.0
 10
-153.0995
 20
-108.2851
 30
0.0
 10
-153.0995
 20
-108.2851
 30
0.0
 10
-153.0995
 20
-108.2851
 30
0.0
 10
-138.3475
 20
-108.2851
 30
0.0
 10
-138.3475
 20
-108.2851
 30
0.0
 10
-138.3475
 20
-108.2851
 30
0.0
 10
-138.3475
 20
-104.2123
 30
0.0
 10
-141.6511
 20
-100.9095
 30
0.0
 10
-145.7236
 20
-100.9095
 30
0.0
 10
-145.7236
 20
-100.9095
 30
0.0
 10
-145.7236
 20
-100.9095
 30
0.0
 10
-145.7233
 20
-100.9093
 30
0.0
 10
-145.7233
 20
-100.9093
 30
0.0
  0
SPLINE
  5
C6
330
1F
100
AcDbEntity
  8
layer 1
 62
     7
100
AcDbSpline
210
0.0
220
0.0
230
1.0
 70
    11
 71
     3
 72
    16
 73
    12
 74
     0
 42
0.0000000001
 43
0.0000000001
 12
1.0
 22
0.0
 32
0.0
 13
1.0
 23
0.0
 33
0.0
 40
0.0
 40
0.0
 40
0.0
 40
0.0
 40
0.25
 40
0.25
 40
0.25
 40
0.25
 40
0.5
 40
0.5
 40
0.5
 40
0.5
 40
1.0
 40
1.0
 40
1.0
 40
1.0
 10
-141.3785
 20
-96.5643
 30
0.0
 10
-141.3785
 20
-92.4915
 30
0.0
 10
-138.0756
 20
-89.1887
 30
0.0
 10
-134.0032
 20
-89.1887
 30
0.0
 10
-134.0032
 20
-89.1887
 30
0.0
 10
-134.0032
 20
-89.1887
 30
0.0
 10
-134.0026
 20
-103.9391
 30
0.0
 10
-134.0026
 20
-103.9391
 30
0.0
 10
-134.0026
 20
-103.9391
 30
0.0
 10
-138.0753
 20
-103.9391
 30
0.0
 10
-141.3785
 20
-100.6371
 30
0.0
 10
-141.3785
 20
-96.5643
 30
0.0
  0
SPLINE
  5
C7
330
1F
100
AcDbEntity
  8
layer 1
 62
     7
100
AcDbSpline
210
0.0
220
0.0
230
1.0
 70
    11
 71
     3
 72
    20
 73
    16
 74
     0
 42
0.0000000001
 43
0.0000000001
 12
1.0
 22
0.0
 32
0.0
 13
1.0
 23
0.0
 33
0.0
 40
0.0
 40
0.0
 40
0.0
 40
0.0
 40
0.2
 40
0.2
 40
0.2
 40
0.2
 40
0.4
 40
0.4
 40
0.4
 40
0.4
 40
0.6
 40
0.6
 40
0.6
 40
0.6
 40
1.0
 40
1.0
 40
1.0
 40
1.0
 10
-157.4443
 20
-89.1884
 30
0.0
 10
-157.4443
 20
-89.1884
 30
0.0
 10
-157.4443
 20
-103.9391
 30
0.0
 10
-157.4443
 20
-103.9391
 30
0.0
 10
-157.4443
 20
-103.9391
 30
0.0
 10
-153.3715
 20
-103.9391
 30
0.0
 10
-150.0693
 20
-100.6371
 30
0.0
 10
-150.0693
 20
-96.5644
 30
0.0
 10
-150.0693
 20
-96.5644
 30
0.0
 10
-150.0684
 20
-92.4915
 30
0.0
 10
-153.372
 20
-89.1887
 30
0.0
 10
-157.4446
 20
-89.1887
 30
0.0
 10
-157.4446
 20
-89.1887
 30
0.0
 10
-157.4446
 20
-89.1887
 30
0.0
 10
-157.4443
 20
-89.1884
 30
0.0
 10
-157.4443
 20
-89.1884
 30
0.0
  0
SPLINE
  5
C8
330
1F
100
AcDbEntity
  8
layer 1
 62
     7
100
AcDbSpline
210
0.0
220
0.0
230
1.0
 70
    11
 71
     3
 72
    20
 73
    16
 74
     0
 42
0.0000000001
 43
0.0000000001
 12
1.0
 22
0.0
 32
0.0
 13
1.0
 23
0.0
 33
0.0
 40
0.0
 40
0.0
 40
0.0
 40
0.0
 40
0.2
 40
0.2
 40
0.2
 40
0.2
 40
0.4
 40
0.4
 40
0.4
 40
0.4
 40
0.6
 40
0.6
 40
0.6
 40
0.6
 40
1.0
 40
1.0
 40
1.0
 40
1.0
 10
-119.6368
 20
-100.9093
 30
0.0
 10
-123.7094
 20
-100.9093
 30
0.0
 10
-127.014
 20
-104.2125
 30
0.0
 10
-127.014
 20
-108.2851
 30
0.0
 10
-127.014
 20
-108.2851
 30
0.0
 10
-127.014
 20
-108.2851
 30
0.0
 10
-112.261
 20
-108.2851
 30
0.0
 10
-112.261
 20
-108.2851
 30
0.0
 10
-112.261
 20
-108.2851
 30
0.0
 10
-112.261
 20
-104.2123
 30
0.0
 10
-115.5657
 20
-100.9095
 30
0.0
 10
-119.6387
 20
-100.9095
 30
0.0
 10
-119.6387
 20
-100.9095
 30
0.0
 10
-119.6387
 20
-100.9095
 30
0.0
 10
-119.6368
 20
-100.9093
 30
0.0
 10
-119.6368
 20
-100.9093
 30
0.0
  0
SPLINE
  5
C9
330
1F
100
AcDbEntity
  8
layer 1
 62
     7
100
AcDbSpline
210
0.0
220
0.0
230
1.0
 70
    11
 71
     3
 72
    20
 73
    16
 74
     0
 42
0.0000000001
 43
0.0000000001
 12
1.0
 22
0.0
 32
0.0
 13
1.0
 23
0.0
 33
0.0
 40
0.0
 40
0.0
 40
0.0
 40
0.0
 40
0.2
 40
0.2
 40
0.2
 40
0.2
 40
0.4
 40
0.4
 40
0.4
 40
0.4
 40
0.6
 40
0.6
 40
0.6
 40
0.6
 40
1.0
 40
1.0
 40
1.0
 40
1.0
 10
-115.2919
 20
-96.5643
 30
0.0
 10
-115.2919
 20
-92.4915
 30
0.0
 10
-111.9906
 20
-89.1887
 30
0.0
 10
-107.9177
 20
-89.1887
 30
0.0
 10
-107.9177
 20
-89.1887
 30
0.0
 10
-107.9177
 20
-89.1887
 30
0.0
 10
-107.916
 20
-103.9391
 30
0.0
 10
-107.916
 20
-103.9391
 30
0.0
 10
-107.916
 20
-103.9391
 30
0.0
 10
-111.9887
 20
-103.9391
 30
0.0
 10
-115.2936
 20
-100.6371
 30
0.0
 10
-115.2936
 20
-96.5644
 30
0.0
 10
-115.2936
 20
-96.5644
 30
0.0
 10
-115.2936
 20
-96.5644
 30
0.0
 10
-115.2919
 20
-96.5643
 30
0.0
 10
-115.2919
 20
-96.5643
 30
0.0
  0
SPLINE
  5
CA
330
1F
100
AcDbEntity
  8
layer 1
 62
     7
100
AcDbSpline
210
0.0
220
0.0
230
1.0
 70
    11
 71
     3
 72
    20
 73
    16
 74
     0
 42
0.0000000001
 43
0.0000000001
 12
1.0
 22
0.0
 32
0.0
 13
1.0
 23
0.0
 33
0.0
 40
0.0
 40
0.0
 40
0.0
 40
0.0
 40
0.2
 40
0.2
 40
0.2
 40
0.2
 40
0.4
 40
0.4
 40
0.4
 40
0.4
 40
0.6
 40
0.6
 40
0.6
 40
0.6
 40
1.0
 40
1.0
 40
1.0
 40
1.0
 10
-131.3575
 20
-89.1884
 30
0.0
 10
-131.3575
 20
-89.1884
 30
0.0
 10
-131.3575
 20
-103.9391
 30
0.0
 10
-131.3575
 20
-103.9391
 30
0.0
 10
-131.3575
 20
-103.9391
 30
0.0
 10
-127.2849
 20
-103.9391
 30
0.0
 10
-123.9835
 20
-100.6371
 30
0.0
 10
-123.9835
 20
-96.5644
 30
0.0
 10
-123.9835
 20
-96.5644
 30
0.0
 10
-123.9817
 20
-92.4915
 30
0.0
 10
-127.2864
 20
-89.1887
 30
0.0
 10
-131.3594
 20
-89.1887
 30
0.0
 10
-131.3594
 20
-89.1887
 30
0.0
 10
-131.3594
 20
-89.1887
 30
0.0
 10
-131.3575
 20
-89.1884
 30
0.0
 10
-131.3575
 20
-89.1884
 30
0.0
  0
SPLINE
  5
CB
330
1F
100
AcDbEntity
  8
layer 1
 62
     7
100
AcDbSpline
210
0.0
220
0.0
230
1.0
 70
    11
 71
     3
 72
    20
 73
    16
 74
     0
 42
0.0000000001
 43
0.0000000001
 12
1.0
 22
0.0
 32
0.0
 13
1.0
 23
0.0
 33
0.0
 40
0.0
 40
0.0
 40
0.0
 40
0.0
 40
0.2
 40
0.2
 40
0.2
 40
0.2
 40
0.4
 40
0.4
 40
0.4
 40
0.4
 40
0.6
 40
0.6
 40
0.6
 40
0.6
 40
1.0
 40
1.0
 40
1.0
 40
1.0
 10
-93.552
 20
-100.9093
 30
0.0
 10
-97.625
 20
-100.9093
 30
0.0
 10
-100.9288
 20
-104.2125
 30
0.0
 10
-100.9288
 20
-108.2851
 30
0.0
 10
-100.9288
 20
-108.2851
 30
0.0
 10
-100.9288
 20
-108.2851
 30
0.0
 10
-86.1764
 20
-108.2851
 30
0.0
 10
-86.1764
 20
-108.2851
 30
0.0
 10
-86.1764
 20
-108.2851
 30
0.0
 10
-86.1764
 20
-104.2123
 30
0.0
 10
-89.4806
 20
-100.9095
 30
0.0
 10
-93.5532
 20
-100.9095
 30
0.0
 10
-93.5532
 20
-100.9095
 30
0.0
 10
-93.5532
 20
-100.9095
 30
0.0
 10
-93.552
 20
-100.9093
 30
0.0
 10
-93.552
 20
-100.9093
 30
0.0
  0
SPLINE
  5
CC
330
1F
100
AcDbEntity
  8
layer 1
 62
     7
100
AcDbSpline
210
0.0
220
0.0
230
1.0
 70
    11
 71
     3
 72
    20
 73
    16
 74
     0
 42
0.0000000001
 43
0.0000000001
 12
1.0
 22
0.0
 32
0.0
 13
1.0
 23
0.0
 33
0.0
 40
0.0
 40
0.0
 40
0.0
 40
0.0
 40
0.2
 40
0.2
 40
0.2
 40
0.2
 40
0.4
 40
0.4
 40
0.4
 40
0.4
 40
0.6
 40
0.6
 40
0.6
 40
0.6
 40
1.0
 40
1.0
 40
1.0
 40
1.0
 10
-89.2072
 20
-96.5643
 30
0.0
 10
-89.2072
 20
-92.4915
 30
0.0
 10
-85.9053
 20
-89.1887
 30
0.0
 10
-81.8324
 20
-89.1887
 30
0.0
 10
-81.8324
 20
-89.1887
 30
0.0
 10
-81.8324
 20
-89.1887
 30
0.0
 10
-81.8313
 20
-103.9391
 30
0.0
 10
-81.8313
 20
-103.9391
 30
0.0
 10
-81.8313
 20
-103.9391
 30
0.0
 10
-85.9043
 20
-103.9391
 30
0.0
 10
-89.2077
 20
-100.6371
 30
0.0
 10
-89.2077
 20
-96.5644
 30
0.0
 10
-89.2077
 20
-96.5644
 30
0.0
 10
-89.2077
 20
-96.5644
 30
0.0
 10
-89.2072
 20
-96.5643
 30
0.0
 10
-89.2072
 20
-96.5643
 30
0.0
  0
SPLINE
  5
CD
330
1F
100
AcDbEntity
  8
layer 1
 62
     7
100
AcDbSpline
210
0.0
220
0.0
230
1.0
 70
    11
 71
     3
 72
    20
 73
    16
 74
     0
 42
0.0000000001
 43
0.0000000001
 12
1.0
 22
0.0
 32
0.0
 13
1.0
 23
0.0
 33
0.0
 40
0.0
 40
0.0
 40
0.0
 40
0.0
 40
0.2
 40
0.2
 40
0.2
 40
0.2
 40
0.4
 40
0.4
 40
0.4
 40
0.4
 40
0.6
 40
0.6
 40
0.6
 40
0.6
 40
1.0
 40
1.0
 40
1.0
 40
1.0
 10
-105.273
 20
-89.1884
 30
0.0
 10
-105.273
 20
-89.1884
 30
0.0
 10
-105.273
 20
-103.9391
 30
0.0
 10
-105.273
 20
-103.9391
 30
0.0
 10
-105.273
 20
-103.9391
 30
0.0
 10
-101.2005
 20
-103.9391
 30
0.0
 10
-97.8986
 20
-100.6371
 30
0.0
 10
-97.8986
 20
-96.5644
 30
0.0
 10
-97.8986
 20
-96.5644
 30
0.0
 10
-97.8971
 20
-92.4915
 30
0.0
 10
-101.2015
 20
-89.1887
 30
0.0
 10
-105.2745
 20
-89.1887
 30
0.0
 10
-105.2745
 20
-89.1887
 30
0.0
 10
-105.2745
 20
-89.1887
 30
0.0
 10
-105.273
 20
-89.1884
 30
0.0
 10
-105.273
 20
-89.1884
 30
0.0
  0
SPLINE
  5
CE
330
1F
100
AcDbEntity
  8
layer 1
 62
     7
100
AcDbSpline
210
0.0
220
0.0
230
1.0
 70
    11
 71
     3
 72
    20
 73
    16
 74
     0
 42
0.0000000001
 43
0.0000000001
 12
1.0
 22
0.0
 32
0.0
 13
1.0
 23
0.0
 33
0.0
 40
0.0
 40
0.0
 40
0.0
 40
0.0
 40
0.2
 40
0.2
 40
0.2
 40
0.2
 40
0.4
 40
0.4
 40
0.4
 40
0.4
 40
0.6
 40
0.6
 40
0.6
 40
0.6
 40
1.0
 40
1.0
 40
1.0
 40
1.0
 10
-164.4321
 20
-84.8435
 30
0.0
 10
-164.4321
 20
-84.8435
 30
0.0
 10
-179.1839
 20
-84.8435
 30
0.0
 10
-179.1839
 20
-84.8435
 30
0.0
 10
-179.1839
 20
-84.8435
 30
0.0
 10
-179.1839
 20
-88.9163
 30
0.0
 10
-175.8817
 20
-92.2191
 30
0.0
 10
-171.8092
 20
-92.2191
 30
0.0
 10
-171.8092
 20
-92.2191
 30
0.0
 10
-167.7355
 20
-92.2183
 30
0.0
 10
-164.4333
 20
-88.9163
 30
0.0
 10
-164.4333
 20
-84.8435
 30
0.0
 10
-164.4333
 20
-84.8435
 30
0.0
 10
-164.4333
 20
-84.8435
 30
0.0
 10
-164.4321
 20
-84.8435
 30
0.0
 10
-164.4321
 20
-84.8435
 30
0.0
  0
SPLINE
  5
CF
330
1F
100
AcDbEntity
  8
layer 1
 62
     7
100
AcDbSpline
210
0.0
220
0.0
230
1.0
 70
    11
 71
     3
 72
    20
 73
    16
 74
     0
 42
0.0000000001
 43
0.0000000001
 12
1.0
 22
0.0
 32
0.0
 13
1.0
 23
0.0
 33
0.0
 40
0.0
 40
0.0
 40
0.0
 40
0.0
 40
0.2
 40
0.2
 40
0.2
 40
0.2
 40
0.4
 40
0.4
 40
0.4
 40
0.4
 40
0.6
 40
0.6
 40
0.6
 40
0.6
 40
1.0
 40
1.0
 40
1.0
 40
1.0
 10
-138.3475
 20
-84.8435
 30
0.0
 10
-138.3475
 20
-84.8435
 30
0.0
 10
-153.0992
 20
-84.8435
 30
0.0
 10
-153.0992
 20
-84.8435
 30
0.0
 10
-153.0992
 20
-84.8435
 30
0.0
 10
-153.0992
 20
-88.9163
 30
0.0
 10
-149.7968
 20
-92.2191
 30
0.0
 10
-145.7236
 20
-92.2191
 30
0.0
 10
-145.7236
 20
-92.2191
 30
0.0
 10
-141.6508
 20
-92.2183
 30
0.0
 10
-138.348
 20
-88.9163
 30
0.0
 10
-138.348
 20
-84.8435
 30
0.0
 10
-138.348
 20
-84.8435
 30
0.0
 10
-138.348
 20
-84.8435
 30
0.0
 10
-138.3475
 20
-84.8435
 30
0.0
 10
-138.3475
 20
-84.8435
 30
0.0
  0
SPLINE
  5
D0
330
1F
100
AcDbEntity
  8
layer 1
 62
     7
100
AcDbSpline
210
0.0
220
0.0
230
1.0
 70
    11
 71
     3
 72
    20
 73
    16
 74
     0
 42
0.0000000001
 43
0.0000000001
 12
1.0
 22
0.0
 32
0.0
 13
1.0
 23
0.0
 33
0.0
 40
0.0
 40
0.0
 40
0.0
 40
0.0
 40
0.2
 40
0.2
 40
0.2
 40
0.2
 40
0.4
 40
0.4
 40
0.4
 40
0.4
 40
0.6
 40
0.6
 40
0.6
 40
0.6
 40
1.0
 40
1.0
 40
1.0
 40
1.0
 10
-112.261
 20
-84.8435
 30
0.0
 10
-112.261
 20
-84.8435
 30
0.0
 10
-127.0127
 20
-84.8435
 30
0.0
 10
-127.0127
 20
-84.8435
 30
0.0
 10
-127.0127
 20
-84.8435
 30
0.0
 10
-127.0127
 20
-88.9163
 30
0.0
 10
-123.7113
 20
-92.2191
 30
0.0
 10
-119.6387
 20
-92.2191
 30
0.0
 10
-119.6387
 20
-92.2191
 30
0.0
 10
-115.5642
 20
-92.2183
 30
0.0
 10
-112.2628
 20
-88.9163
 30
0.0
 10
-112.2628
 20
-84.8435
 30
0.0
 10
-112.2628
 20
-84.8435
 30
0.0
 10
-112.2628
 20
-84.8435
 30
0.0
 10
-112.261
 20
-84.8435
 30
0.0
 10
-112.261
 20
-84.8435
 30
0.0
  0
SPLINE
  5
D1
330
1F
100
AcDbEntity
  8
layer 1
 62
     7
100
AcDbSpline
210
0.0
220
0.0
230
1.0
 70
    11
 71
     3
 72
    20
 73
    16
 74
     0
 42
0.0000000001
 43
0.0000000001
 12
1.0
 22
0.0
 32
0.0
 13
1.0
 23
0.0
 33
0.0
 40
0.0
 40
0.0
 40
0.0
 40
0.0
 40
0.2
 40
0.2
 40
0.2
 40
0.2
 40
0.4
 40
0.4
 40
0.4
 40
0.4
 40
0.6
 40
0.6
 40
0.6
 40
0.6
 40
1.0
 40
1.0
 40
1.0
 40
1.0
 10
-86.1764
 20
-84.8435
 30
0.0
 10
-86.1764
 20
-84.8435
 30
0.0
 10
-100.9282
 20
-84.8435
 30
0.0
 10
-100.9282
 20
-84.8435
 30
0.0
 10
-100.9282
 20
-84.8435
 30
0.0
 10
-100.9282
 20
-88.9163
 30
0.0
 10
-97.626
 20
-92.2191
 30
0.0
 10
-93.5532
 20
-92.2191
 30
0.0
 10
-93.5532
 20
-92.2191
 30
0.0
 10
-89.4795
 20
-92.2183
 30
0.0
 10
-86.1779
 20
-88.9163
 30
0.0
 10
-86.1779
 20
-84.8435
 30
0.0
 10
-86.1779
 20
-84.8435
 30
0.0
 10
-86.1779
 20
-84.8435
 30
0.0
 10
-86.1764
 20
-84.8435
 30
0.0
 10
-86.1764
 20
-84.8435
 30
0.0
  0
ENDSEC
  0
SECTION
  2
OBJECTS
  0
DICTIONARY
  5
C
330
0
100
AcDbDictionary
281
     1
  3
ACAD_GROUP
350
D
  3
ACAD_LAYOUT
350
1A
  3
ACAD_MATERIAL
350
3B
  3
ACAD_MLEADERSTYLE
350
F4
  3
ACAD_MLINESTYLE
350
17
  3
ACAD_PLOTSETTINGS
350
19
  3
ACAD_PLOTSTYLENAME
350
E
  3
ACAD_TABLESTYLE
350
F3
  3
ACAD_VISUALSTYLE
350
2A
  0
DICTIONARY
  5
D
102
{ACAD_REACTORS
330
C
102
}
330
C
100
AcDbDictionary
281
     1
  0
DICTIONARY
  5
1A
102
{ACAD_REACTORS
330
C
102
}
330
C
100
AcDbDictionary
281
     1
  3
Layout1
350
1E
  3
Layout2
350
26
  3
Model
350
22
  0
DICTIONARY
  5
3B
102
{ACAD_REACTORS
330
C
102
}
330
C
100
AcDbDictionary
281
     1
  3
ByBlock
350
3D
  3
ByLayer
350
3C
  3
Global
350
3E
  0
DICTIONARY
  5
F4
102
{ACAD_REACTORS
330
C
102
}
330
C
100
AcDbDictionary
281
     1
  0
DICTIONARY
  5
17
102
{ACAD_REACTORS
330
C
102
}
330
C
100
AcDbDictionary
281
     1
  3
Standard
350
18
  0
DICTIONARY
  5
19
102
{ACAD_REACTORS
330
C
102
}
330
C
100
AcDbDictionary
281
     1
  0
ACDBDICTIONARYWDFLT
  5
E
102
{ACAD_REACTORS
330
C
102
}
330
C
100
AcDbDictionary
281
     1
  3
Normal
350
F
100
AcDbDictionaryWithDefault
340
F
  0
DICTIONARY
  5
F3
102
{ACAD_REACTORS
330
C
102
}
330
C
100
AcDbDictionary
281
     1
  0
DICTIONARY
  5
2A
102
{ACAD_REACTORS
330
C
102
}
330
C
100
AcDbDictionary
281
     1
  3
2dWireframe
350
2F
  3
3D Hidden
350
31
  3
3dWireframe
350
30
  3
Basic
350
32
  3
Brighten
350
36
  3
ColorChange
350
3A
  3
Conceptual
350
34
  3
Dim
350
35
  3
Facepattern
350
39
  3
Flat
350
2B
  3
FlatWithEdges
350
2C
  3
Gouraud
350
2D
  3
GouraudWithEdges
350
2E
  3
Linepattern
350
38
  3
Realistic
350
33
  3
Thicken
350
37
  0
LAYOUT
  5
1E
102
{ACAD_REACTORS
330
1A
102
}
330
1A
100
AcDbPlotSettings
  1

  2
none_device
  4

  6

 40
0.0
 41
0.0
 42
0.0
 43
0.0
 44
0.0
 45
0.0
 46
0.0
 47
0.0
 48
0.0
 49
0.0
140
0.0
141
0.0
142
1.0
143
1.0
 70
   688
 72
     0
 73
     0
 74
     5
  7

 75
    16
 76
     0
 77
     2
 78
   300
147
1.0
148
0.0
149
0.0
100
AcDbLayout
  1
Layout1
 70
     1
 71
     1
 10
0.0
 20
0.0
 11
12.0
 21
9.0
 12
0.0
 22
0.0
 32
0.0
 14
1.000000000000000E+20
 24
1.000000000000000E+20
 34
1.000000000000000E+20
 15
-1.000000000000000E+20
 25
-1.000000000000000E+20
 35
-1.000000000000000E+20
146
0.0
 13
0.0
 23
0.0
 33
0.0
 16
1.0
 26
0.0
 36
0.0
 17
0.0
 27
1.0
 37
0.0
 76
     0
330
1B
  0
LAYOUT
  5
26
102
{ACAD_REACTORS
330
1A
102
}
330
1A
100
AcDbPlotSettings
  1

  2
none_device
  4

  6

 40
0.0
 41
0.0
 42
0.0
 43
0.0
 44
0.0
 45
0.0
 46
0.0
 47
0.0
 48
0.0
 49
0.0
140
0.0
141
0.0
142
1.0
143
1.0
 70
   688
 72
     0
 73
     0
 74
     5
  7

 75
    16
 76
     0
 77
     2
 78
   300
147
1.0
148
0.0
149
0.0
100
AcDbLayout
  1
Layout2
 70
     1
 71
     2
 10
0.0
 20
0.0
 11
0.0
 21
0.0
 12
0.0
 22
0.0
 32
0.0
 14
0.0
 24
0.0
 34
0.0
 15
0.0
 25
0.0
 35
0.0
146
0.0
 13
0.0
 23
0.0
 33
0.0
 16
1.0
 26
0.0
 36
0.0
 17
0.0
 27
1.0
 37
0.0
 76
     0
330
23
  0
LAYOUT
  5
22
102
{ACAD_REACTORS
330
1A
102
}
330
1A
100
AcDbPlotSettings
  1

  2
none_device
  4

  6

 40
0.0
 41
0.0
 42
0.0
 43
0.0
 44
0.0
 45
0.0
 46
0.0
 47
0.0
 48
0.0
 49
0.0
140
0.0
141
0.0
142
1.0
143
1.0
 70
  1712
 72
     0
 73
     0
 74
     0
  7

 75
     0
 76
     0
 77
     2
 78
   300
147
1.0
148
0.0
149
0.0
100
AcDbLayout
  1
Model
 70
     1
 71
     0
 10
0.0
 20
0.0
 11
12.0
 21
9.0
 12
0.0
 22
0.0
 32
0.0
 14
-187.5479
 24
-112.0791
 34
0.0
 15
-77.8125
 25
127.6333
 35
0.0
146
0.0
 13
0.0
 23
0.0
 33
0.0
 16
1.0
 26
0.0
 36
0.0
 17
0.0
 27
1.0
 37
0.0
 76
     0
330
1F
331
29
  0
MATERIAL
  5
3D
102
{ACAD_REACTORS
330
3B
102
}
330
3B
100
AcDbMaterial
  1
ByBlock
 72
     1
 94
      127
  0
MATERIAL
  5
3C
102
{ACAD_REACTORS
330
3B
102
}
330
3B
100
AcDbMaterial
  1
ByLayer
 72
     1
 94
      127
  0
MATERIAL
  5
3E
102
{ACAD_REACTORS
330
3B
102
}
330
3B
100
AcDbMaterial
  1
Global
 72
     1
 94
      127
  0
MLINESTYLE
  5
18
102
{ACAD_REACTORS
330
17
102
}
330
17
100
AcDbMlineStyle
  2
Standard
 70
     0
  3

 62
   256
 51
90.0
 52
90.0
 71
     2
 49
0.5
 62
   256
  6
BYLAYER
 49
-0.5
 62
   256
  6
BYLAYER
  0
ACDBPLACEHOLDER
  5
F
102
{ACAD_REACTORS
330
E
102
}
330
E
  0
VISUALSTYLE
  5
2F
102
{ACAD_REACTORS
330
2A
102
}
102
{ACAD_XDICTIONARY
360
DB
102
}
330
2A
100
AcDbVisualStyle
  2
2dWireframe
 70
     4
 71
     0
 72
     2
 73
     0
 90
        0
 40
-0.6
 41
-30.0
 62
     5
 63
     7
421
 16777215
 74
     1
 91
        4
 64
     7
 65
   257
 75
     1
175
     1
 42
1.0
 92
        0
 66
   257
 43
1.0
 76
     1
 77
     6
 78
     2
 67
     7
 79
     5
170
     0
171
     0
290
     0
174
     0
 93
        1
 44
0.0
173
     0
291
     0
 45
0.0
  0
VISUALSTYLE
  5
31
102
{ACAD_REACTORS
330
2A
102
}
102
{ACAD_XDICTIONARY
360
DF
102
}
330
2A
100
AcDbVisualStyle
  2
3D Hidden
 70
     6
 71
     1
 72
     2
 73
     2
 90
        0
 40
-0.6
 41
-30.0
 62
     5
 63
     7
421
 16777215
 74
     2
 91
        2
 64
     7
 65
   257
 75
     2
175
     1
 42
40.0
 92
        0
 66
   257
 43
1.0
 76
     1
 77
     6
 78
     2
 67
     7
 79
     3
170
     0
171
     0
290
     0
174
     0
 93
        1
 44
0.0
173
     0
291
     0
 45
0.0
  0
VISUALSTYLE
  5
30
102
{ACAD_REACTORS
330
2A
102
}
102
{ACAD_XDICTIONARY
360
DD
102
}
330
2A
100
AcDbVisualStyle
  2
3dWireframe
 70
     5
 71
     0
 72
     2
 73
     0
 90
        0
 40
-0.6
 41
-30.0
 62
     5
 63
     7
421
 16777215
 74
     1
 91
        4
 64
     7
 65
   257
 75
     1
175
     1
 42
1.0
 92
        0
 66
   257
 43
1.0
 76
     1
 77
     6
 78
     2
 67
     7
 79
     5
170
     0
171
     0
290
     0
174
     0
 93
        1
 44
0.0
173
     0
291
     0
 45
0.0
  0
VISUALSTYLE
  5
32
102
{ACAD_REACTORS
330
2A
102
}
102
{ACAD_XDICTIONARY
360
E1
102
}
330
2A
100
AcDbVisualStyle
  2
Basic
 70
     7
 71
     1
 72
     0
 73
     1
 90
        0
 40
-0.6
 41
-30.0
 62
     5
 63
     7
421
 16777215
 74
     0
 91
        4
 64
     7
 65
   257
 75
     1
175
     1
 42
1.0
 92
        8
 66
     7
 43
1.0
 76
     1
 77
     6
 78
     2
 67
     7
 79
     5
170
     0
171
     0
290
     0
174
     0
 93
        1
 44
0.0
173
     0
291
     1
 45
0.0
  0
VISUALSTYLE
  5
36
102
{ACAD_REACTORS
330
2A
102
}
102
{ACAD_XDICTIONARY
360
E9
102
}
330
2A
100
AcDbVisualStyle
  2
Brighten
 70
    12
 71
     2
 72
     2
 73
     0
 90
        0
 40
-0.6
 41
-30.0
 62
     5
 63
     7
421
 16777215
 74
     1
 91
        4
 64
     7
 65
   257
 75
     1
175
     1
 42
1.0
 92
        8
 66
     7
 43
1.0
 76
     1
 77
     6
 78
     2
 67
     7
 79
     5
170
     0
171
     0
290
     0
174
     0
 93
        1
 44
50.0
173
     0
291
     1
 45
0.0
  0
VISUALSTYLE
  5
3A
102
{ACAD_REACTORS
330
2A
102
}
102
{ACAD_XDICTIONARY
360
F1
102
}
330
2A
100
AcDbVisualStyle
  2
ColorChange
 70
    16
 71
     2
 72
     2
 73
     3
 90
        0
 40
-0.6
 41
-30.0
 62
     5
 63
     8
421
  8421504
 74
     1
 91
        4
 64
     7
 65
   257
 75
     1
175
     1
 42
1.0
 92
        8
 66
     8
424
  8421504
 43
1.0
 76
     1
 77
     6
 78
     2
 67
     7
 79
     5
170
     0
171
     0
290
     0
174
     0
 93
        1
 44
0.0
173
     0
291
     1
 45
0.0
  0
VISUALSTYLE
  5
34
102
{ACAD_REACTORS
330
2A
102
}
102
{ACAD_XDICTIONARY
360
E5
102
}
330
2A
100
AcDbVisualStyle
  2
Conceptual
 70
     9
 71
     3
 72
     2
 73
     0
 90
        0
 40
-0.6
 41
-30.0
 62
     5
 63
     7
421
 16777215
 74
     2
 91
        2
 64
     7
 65
   257
 75
     1
175
     1
 42
40.0
 92
        8
 66
     7
 43
1.0
 76
     1
 77
     6
 78
     2
 67
     7
 79
     3
170
     0
171
     0
290
     0
174
     0
 93
        1
 44
0.0
173
     0
291
     0
 45
0.0
  0
VISUALSTYLE
  5
35
102
{ACAD_REACTORS
330
2A
102
}
102
{ACAD_XDICTIONARY
360
E7
102
}
330
2A
100
AcDbVisualStyle
  2
Dim
 70
    11
 71
     2
 72
     2
 73
     0
 90
        0
 40
-0.6
 41
-30.0
 62
     5
 63
     7
421
 16777215
 74
     1
 91
        4
 64
     7
 65
   257
 75
     1
175
     1
 42
1.0
 92
        8
 66
     7
 43
1.0
 76
     1
 77
     6
 78
     2
 67
     7
 79
     5
170
     0
171
     0
290
     0
174
     0
 93
        1
 44
-50.0
173
     0
291
     1
 45
0.0
  0
VISUALSTYLE
  5
39
102
{ACAD_REACTORS
330
2A
102
}
102
{ACAD_XDICTIONARY
360
EF
102
}
330
2A
100
AcDbVisualStyle
  2
Facepattern
 70
    15
 71
     2
 72
     2
 73
     0
 90
        0
 40
-0.6
 41
-30.0
 62
     5
 63
     7
421
 16777215
 74
     1
 91
        4
 64
     7
 65
   257
 75
     1
175
     1
 42
1.0
 92
        8
 66
     7
 43
1.0
 76
     1
 77
     6
 78
     2
 67
     7
 79
     5
170
     0
171
     0
290
     0
174
     0
 93
        1
 44
0.0
173
     0
291
     1
 45
0.0
  0
VISUALSTYLE
  5
2B
102
{ACAD_REACTORS
330
2A
102
}
102
{ACAD_XDICTIONARY
360
D3
102
}
330
2A
100
AcDbVisualStyle
  2
Flat
 70
     0
 71
     2
 72
     1
 73
     1
 90
        2
 40
-0.6
 41
30.0
 62
     5
 63
     7
421
 16777215
 74
     0
 91
        4
 64
     7
 65
   257
 75
     1
175
     1
 42
1.0
 92
        8
 66
     7
 43
1.0
 76
     1
 77
     6
 78
     2
 67
     7
 79
     5
170
     0
171
     0
290
     0
174
     0
 93
       13
 44
0.0
173
     0
291
     1
 45
0.0
  0
VISUALSTYLE
  5
2C
102
{ACAD_REACTORS
330
2A
102
}
102
{ACAD_XDICTIONARY
360
D5
102
}
330
2A
100
AcDbVisualStyle
  2
FlatWithEdges
 70
     1
 71
     2
 72
     1
 73
     1
 90
        2
 40
-0.6
 41
30.0
 62
     5
 63
     7
421
 16777215
 74
     1
 91
        4
 64
     7
 65
   257
 75
     1
175
     1
 42
1.0
 92
        0
 66
   257
 43
1.0
 76
     1
 77
     6
 78
     2
 67
     7
 79
     5
170
     0
171
     0
290
     0
174
     0
 93
       13
 44
0.0
173
     0
291
     1
 45
0.0
  0
VISUALSTYLE
  5
2D
102
{ACAD_REACTORS
330
2A
102
}
102
{ACAD_XDICTIONARY
360
D7
102
}
330
2A
100
AcDbVisualStyle
  2
Gouraud
 70
     2
 71
     2
 72
     2
 73
     1
 90
        2
 40
-0.6
 41
30.0
 62
     5
 63
     7
421
 16777215
 74
     0
 91
        4
 64
     7
 65
   257
 75
     1
175
     1
 42
1.0
 92
        0
 66
     7
 43
1.0
 76
     1
 77
     6
 78
     2
 67
     7
 79
     5
170
     0
171
     0
290
     0
174
     0
 93
       13
 44
0.0
173
     0
291
     1
 45
0.0
  0
VISUALSTYLE
  5
2E
102
{ACAD_REACTORS
330
2A
102
}
102
{ACAD_XDICTIONARY
360
D9
102
}
330
2A
100
AcDbVisualStyle
  2
GouraudWithEdges
 70
     3
 71
     2
 72
     2
 73
     1
 90
        2
 40
-0.6
 41
30.0
 62
     5
 63
     7
421
 16777215
 74
     1
 91
        4
 64
     7
 65
   257
 75
     1
175
     1
 42
1.0
 92
        0
 66
   257
 43
1.0
 76
     1
 77
     6
 78
     2
 67
     7
 79
     5
170
     0
171
     0
290
     0
174
     0
 93
       13
 44
0.0
173
     0
291
     1
 45
0.0
  0
VISUALSTYLE
  5
38
102
{ACAD_REACTORS
330
2A
102
}
102
{ACAD_XDICTIONARY
360
ED
102
}
330
2A
100
AcDbVisualStyle
  2
Linepattern
 70
    14
 71
     2
 72
     2
 73
     0
 90
        0
 40
-0.6
 41
-30.0
 62
     5
 63
     7
421
 16777215
 74
     1
 91
        4
 64
     7
 65
   257
 75
     7
175
     7
 42
1.0
 92
        8
 66
     7
 43
1.0
 76
     1
 77
     6
 78
     2
 67
     7
 79
     5
170
     0
171
     0
290
     0
174
     0
 93
        1
 44
0.0
173
     0
291
     1
 45
0.0
  0
VISUALSTYLE
  5
33
102
{ACAD_REACTORS
330
2A
102
}
102
{ACAD_XDICTIONARY
360
E3
102
}
330
2A
100
AcDbVisualStyle
  2
Realistic
 70
     8
 71
     2
 72
     2
 73
     0
 90
        0
 40
-0.6
 41
-30.0
 62
     5
 63
     7
421
 16777215
 74
     1
 91
        0
 64
     7
 65
   257
 75
     1
175
     1
 42
1.0
 92
        8
 66
     8
424
  7895160
 43
1.0
 76
     1
 77
     6
 78
     2
 67
     7
 79
     5
170
     0
171
     0
290
     0
174
     0
 93
       13
 44
0.0
173
     0
291
     0
 45
0.0
  0
VISUALSTYLE
  5
37
102
{ACAD_REACTORS
330
2A
102
}
102
{ACAD_XDICTIONARY
360
EB
102
}
330
2A
100
AcDbVisualStyle
  2
Thicken
 70
    13
 71
     2
 72
     2
 73
     0
 90
        0
 40
-0.6
 41
-30.0
 62
     5
 63
     7
421
 16777215
 74
     1
 91
        4
 64
     7
 65
   257
 75
     1
175
     1
 42
1.0
 92
       12
 66
     7
 43
1.0
 76
     1
 77
     6
 78
     2
 67
     7
 79
     5
170
     0
171
     0
290
     0
174
     0
 93
        1
 44
0.0
173
     0
291
     1
 45
0.0
  0
DICTIONARY
  5
DB
330
2F
100
AcDbDictionary
280
     1
281
     1
  3
ACAD_XREC_ROUNDTRIP
360
DC
  0
DICTIONARY
  5
DF
330
31
100
AcDbDictionary
280
     1
281
     1
  3
ACAD_XREC_ROUNDTRIP
360
E0
  0
DICTIONARY
  5
DD
330
30
100
AcDbDictionary
280
     1
281
     1
  3
ACAD_XREC_ROUNDTRIP
360
DE
  0
DICTIONARY
  5
E1
330
32
100
AcDbDictionary
280
     1
281
     1
  3
ACAD_XREC_ROUNDTRIP
360
E2
  0
DICTIONARY
  5
E9
330
36
100
AcDbDictionary
280
     1
281
     1
  3
ACAD_XREC_ROUNDTRIP
360
EA
  0
DICTIONARY
  5
F1
330
3A
100
AcDbDictionary
280
     1
281
     1
  3
ACAD_XREC_ROUNDTRIP
360
F2
  0
DICTIONARY
  5
E5
330
34
100
AcDbDictionary
280
     1
281
     1
  3
ACAD_XREC_ROUNDTRIP
360
E6
  0
DICTIONARY
  5
E7
330
35
100
AcDbDictionary
280
     1
281
     1
  3
ACAD_XREC_ROUNDTRIP
360
E8
  0
DICTIONARY
  5
EF
330
39
100
AcDbDictionary
280
     1
281
     1
  3
ACAD_XREC_ROUNDTRIP
360
F0
  0
DICTIONARY
  5
D3
330
2B
100
AcDbDictionary
280
     1
281
     1
  3
ACAD_XREC_ROUNDTRIP
360
D4
  0
DICTIONARY
  5
D5
330
2C
100
AcDbDictionary
280
     1
281
     1
  3
ACAD_XREC_ROUNDTRIP
360
D6
  0
DICTIONARY
  5
D7
330
2D
100
AcDbDictionary
280
     1
281
     1
  3
ACAD_XREC_ROUNDTRIP
360
D8
  0
DICTIONARY
  5
D9
330
2E
100
AcDbDictionary
280
     1
281
     1
  3
ACAD_XREC_ROUNDTRIP
360
DA
  0
DICTIONARY
  5
ED
330
38
100
AcDbDictionary
280
     1
281
     1
  3
ACAD_XREC_ROUNDTRIP
360
EE
  0
DICTIONARY
  5
E3
330
33
100
AcDbDictionary
280
     1
281
     1
  3
ACAD_XREC_ROUNDTRIP
360
E4
  0
DICTIONARY
  5
EB
330
37
100
AcDbDictionary
280
     1
281
     1
  3
ACAD_XREC_ROUNDTRIP
360
EC
  0
XRECORD
  5
DC
102
{ACAD_REACTORS
330
DB
102
}
330
DB
100
AcDbXrecord
280
     1
102
RTVSPropertyOp0
 70
     1
102
RTVSPropertyOp1
 70
     1
102
RTVSPropertyOp2
 70
     1
102
RTVSPropertyOp3
 70
     1
102
RTVSPropertyOp4
 70
     1
102
RTVSPropertyOp5
 70
     1
102
RTVSPropertyOp6
 70
     1
102
RTVSPropertyOp7
 70
     1
102
RTVSPropertyOp8
 70
     1
102
RTVSPropertyOp9
 70
     1
102
RTVSPropertyOp10
 70
     1
102
RTVSPropertyOp11
 70
     1
102
RTVSPropertyOp12
 70
     1
102
RTVSPropertyOp13
 70
     1
102
RTVSPropertyOp14
 70
     1
102
RTVSPropertyOp15
 70
     1
102
RTVSPropertyOp16
 70
     1
102
RTVSPropertyOp17
 70
     1
102
RTVSPropertyOp18
 70
     1
102
RTVSPropertyOp19
 70
     1
102
RTVSPropertyOp20
 70
     1
102
RTVSPropertyOp21
 70
     1
102
RTVSPropertyOp22
 70
     1
102
RTVSPropertyOp23
 70
     1
102
RTVSPropertyOp24
 70
     1
102
RTVSPropertyOp25
 70
     1
102
RTVSPropertyOp26
 70
     1
102
RTVSPropertyOp27
 70
     1
102
RTVSPropertyOp28
 70
     1
102
RTVSPropertyOp29
 70
     1
102
RTVSPropertyOp30
 70
     1
102
RTVSPropertyOp31
 70
     1
102
RTVSPropertyOp32
 70
     1
  0
XRECORD
  5
E0
102
{ACAD_REACTORS
330
DF
102
}
330
DF
100
AcDbXrecord
280
     1
102
RTVSPropertyOp0
 70
     1
102
RTVSPropertyOp1
 70
     1
102
RTVSPropertyOp2
 70
     1
102
RTVSPropertyOp3
 70
     1
102
RTVSPropertyOp4
 70
     1
102
RTVSPropertyOp5
 70
     1
102
RTVSPropertyOp6
 70
     1
102
RTVSPropertyOp7
 70
     1
102
RTVSPropertyOp8
 70
     1
102
RTVSPropertyOp9
 70
     1
102
RTVSPropertyOp10
 70
     1
102
RTVSPropertyOp11
 70
     1
102
RTVSPropertyOp12
 70
     1
102
RTVSPropertyOp13
 70
     1
102
RTVSPropertyOp14
 70
     1
102
RTVSPropertyOp15
 70
     1
102
RTVSPropertyOp16
 70
     1
102
RTVSPropertyOp17
 70
     1
102
RTVSPropertyOp18
 70
     1
102
RTVSPropertyOp19
 70
     1
102
RTVSPropertyOp20
 70
     1
102
RTVSPropertyOp21
 70
     1
102
RTVSPropertyOp22
 70
     1
102
RTVSPropertyOp23
 70
     1
102
RTVSPropertyOp24
 70
     1
102
RTVSPropertyOp25
 70
     1
102
RTVSPropertyOp26
 70
     1
102
RTVSPropertyOp27
 70
     1
102
RTVSPropertyOp28
 70
     1
102
RTVSPropertyOp29
 70
     1
102
RTVSPropertyOp30
 70
     1
102
RTVSPropertyOp31
 70
     1
102
RTVSPropertyOp32
 70
     1
  0
XRECORD
  5
DE
102
{ACAD_REACTORS
330
DD
102
}
330
DD
100
AcDbXrecord
280
     1
102
RTVSPropertyOp0
 70
     1
102
RTVSPropertyOp1
 70
     1
102
RTVSPropertyOp2
 70
     1
102
RTVSPropertyOp3
 70
     1
102
RTVSPropertyOp4
 70
     1
102
RTVSPropertyOp5
 70
     1
102
RTVSPropertyOp6
 70
     1
102
RTVSPropertyOp7
 70
     1
102
RTVSPropertyOp8
 70
     1
102
RTVSPropertyOp9
 70
     1
102
RTVSPropertyOp10
 70
     1
102
RTVSPropertyOp11
 70
     1
102
RTVSPropertyOp12
 70
     1
102
RTVSPropertyOp13
 70
     1
102
RTVSPropertyOp14
 70
     1
102
RTVSPropertyOp15
 70
     1
102
RTVSPropertyOp16
 70
     1
102
RTVSPropertyOp17
 70
     1
102
RTVSPropertyOp18
 70
     1
102
RTVSPropertyOp19
 70
     1
102
RTVSPropertyOp20
 70
     1
102
RTVSPropertyOp21
 70
     1
102
RTVSPropertyOp22
 70
     1
102
RTVSPropertyOp23
 70
     1
102
RTVSPropertyOp24
 70
     1
102
RTVSPropertyOp25
 70
     1
102
RTVSPropertyOp26
 70
     1
102
RTVSPropertyOp27
 70
     1
102
RTVSPropertyOp28
 70
     1
102
RTVSPropertyOp29
 70
     1
102
RTVSPropertyOp30
 70
     1
102
RTVSPropertyOp31
 70
     1
102
RTVSPropertyOp32
 70
     1
  0
XRECORD
  5
E2
102
{ACAD_REACTORS
330
E1
102
}
330
E1
100
AcDbXrecord
280
     1
102
RTVSPropertyOp0
 70
     1
102
RTVSPropertyOp1
 70
     1
102
RTVSPropertyOp2
 70
     1
102
RTVSPropertyOp3
 70
     1
102
RTVSPropertyOp4
 70
     1
102
RTVSPropertyOp5
 70
     1
102
RTVSPropertyOp6
 70
     1
102
RTVSPropertyOp7
 70
     1
102
RTVSPropertyOp8
 70
     1
102
RTVSPropertyOp9
 70
     1
102
RTVSPropertyOp10
 70
     1
102
RTVSPropertyOp11
 70
     1
102
RTVSPropertyOp12
 70
     1
102
RTVSPropertyOp13
 70
     1
102
RTVSPropertyOp14
 70
     1
102
RTVSPropertyOp15
 70
     1
102
RTVSPropertyOp16
 70
     1
102
RTVSPropertyOp17
 70
     1
102
RTVSPropertyOp18
 70
     1
102
RTVSPropertyOp19
 70
     1
102
RTVSPropertyOp20
 70
     1
102
RTVSPropertyOp21
 70
     1
102
RTVSPropertyOp22
 70
     1
102
RTVSPropertyOp23
 70
     1
102
RTVSPropertyOp24
 70
     1
102
RTVSPropertyOp25
 70
     1
102
RTVSPropertyOp26
 70
     1
102
RTVSPropertyOp27
 70
     1
102
RTVSPropertyOp28
 70
     1
102
RTVSPropertyOp29
 70
     1
102
RTVSPropertyOp30
 70
     1
102
RTVSPropertyOp31
 70
     1
102
RTVSPropertyOp32
 70
     1
  0
XRECORD
  5
EA
102
{ACAD_REACTORS
330
E9
102
}
330
E9
100
AcDbXrecord
280
     1
102
RTVSPropertyOp0
 70
     1
102
RTVSPropertyOp1
 70
     1
102
RTVSPropertyOp2
 70
     1
102
RTVSPropertyOp3
 70
     1
102
RTVSPropertyOp4
 70
     1
102
RTVSPropertyOp5
 70
     1
102
RTVSPropertyOp6
 70
     1
102
RTVSPropertyOp7
 70
     1
102
RTVSPropertyOp8
 70
     1
102
RTVSPropertyOp9
 70
     1
102
RTVSPropertyOp10
 70
     1
102
RTVSPropertyOp11
 70
     1
102
RTVSPropertyOp12
 70
     1
102
RTVSPropertyOp13
 70
     1
102
RTVSPropertyOp14
 70
     1
102
RTVSPropertyOp15
 70
     1
102
RTVSPropertyOp16
 70
     1
102
RTVSPropertyOp17
 70
     1
102
RTVSPropertyOp18
 70
     1
102
RTVSPropertyOp19
 70
     1
102
RTVSPropertyOp20
 70
     1
102
RTVSPropertyOp21
 70
     1
102
RTVSPropertyOp22
 70
     1
102
RTVSPropertyOp23
 70
     1
102
RTVSPropertyOp24
 70
     1
102
RTVSPropertyOp25
 70
     1
102
RTVSPropertyOp26
 70
     1
102
RTVSPropertyOp27
 70
     1
102
RTVSPropertyOp28
 70
     1
102
RTVSPropertyOp29
 70
     1
102
RTVSPropertyOp30
 70
     1
102
RTVSPropertyOp31
 70
     1
102
RTVSPropertyOp32
 70
     1
  0
XRECORD
  5
F2
102
{ACAD_REACTORS
330
F1
102
}
330
F1
100
AcDbXrecord
280
     1
102
RTVSPropertyOp0
 70
     1
102
RTVSPropertyOp1
 70
     1
102
RTVSPropertyOp2
 70
     1
102
RTVSPropertyOp3
 70
     1
102
RTVSPropertyOp4
 70
     1
102
RTVSPropertyOp5
 70
     1
102
RTVSPropertyOp6
 70
     1
102
RTVSPropertyOp7
 70
     1
102
RTVSPropertyOp8
 70
     1
102
RTVSPropertyOp9
 70
     1
102
RTVSPropertyOp10
 70
     1
102
RTVSPropertyOp11
 70
     1
102
RTVSPropertyOp12
 70
     1
102
RTVSPropertyOp13
 70
     1
102
RTVSPropertyOp14
 70
     1
102
RTVSPropertyOp15
 70
     1
102
RTVSPropertyOp16
 70
     1
102
RTVSPropertyOp17
 70
     1
102
RTVSPropertyOp18
 70
     1
102
RTVSPropertyOp19
 70
     1
102
RTVSPropertyOp20
 70
     1
102
RTVSPropertyOp21
 70
     1
102
RTVSPropertyOp22
 70
     1
102
RTVSPropertyOp23
 70
     1
102
RTVSPropertyOp24
 70
     1
102
RTVSPropertyOp25
 70
     1
102
RTVSPropertyOp26
 70
     1
102
RTVSPropertyOp27
 70
     1
102
RTVSPropertyOp28
 70
     1
102
RTVSPropertyOp29
 70
     1
102
RTVSPropertyOp30
 70
     1
102
RTVSPropertyOp31
 70
     1
102
RTVSPropertyOp32
 70
     1
  0
XRECORD
  5
E6
102
{ACAD_REACTORS
330
E5
102
}
330
E5
100
AcDbXrecord
280
     1
102
RTVSPropertyOp0
 70
     1
102
RTVSPropertyOp1
 70
     1
102
RTVSPropertyOp2
 70
     1
102
RTVSPropertyOp3
 70
     1
102
RTVSPropertyOp4
 70
     1
102
RTVSPropertyOp5
 70
     1
102
RTVSPropertyOp6
 70
     1
102
RTVSPropertyOp7
 70
     1
102
RTVSPropertyOp8
 70
     1
102
RTVSPropertyOp9
 70
     1
102
RTVSPropertyOp10
 70
     1
102
RTVSPropertyOp11
 70
     1
102
RTVSPropertyOp12
 70
     1
102
RTVSPropertyOp13
 70
     1
102
RTVSPropertyOp14
 70
     1
102
RTVSPropertyOp15
 70
     1
102
RTVSPropertyOp16
 70
     1
102
RTVSPropertyOp17
 70
     1
102
RTVSPropertyOp18
 70
     1
102
RTVSPropertyOp19
 70
     1
102
RTVSPropertyOp20
 70
     1
102
RTVSPropertyOp21
 70
     1
102
RTVSPropertyOp22
 70
     1
102
RTVSPropertyOp23
 70
     1
102
RTVSPropertyOp24
 70
     1
102
RTVSPropertyOp25
 70
     1
102
RTVSPropertyOp26
 70
     1
102
RTVSPropertyOp27
 70
     1
102
RTVSPropertyOp28
 70
     1
102
RTVSPropertyOp29
 70
     1
102
RTVSPropertyOp30
 70
     1
102
RTVSPropertyOp31
 70
     1
102
RTVSPropertyOp32
 70
     1
  0
XRECORD
  5
E8
102
{ACAD_REACTORS
330
E7
102
}
330
E7
100
AcDbXrecord
280
     1
102
RTVSPropertyOp0
 70
     1
102
RTVSPropertyOp1
 70
     1
102
RTVSPropertyOp2
 70
     1
102
RTVSPropertyOp3
 70
     1
102
RTVSPropertyOp4
 70
     1
102
RTVSPropertyOp5
 70
     1
102
RTVSPropertyOp6
 70
     1
102
RTVSPropertyOp7
 70
     1
102
RTVSPropertyOp8
 70
     1
102
RTVSPropertyOp9
 70
     1
102
RTVSPropertyOp10
 70
     1
102
RTVSPropertyOp11
 70
     1
102
RTVSPropertyOp12
 70
     1
102
RTVSPropertyOp13
 70
     1
102
RTVSPropertyOp14
 70
     1
102
RTVSPropertyOp15
 70
     1
102
RTVSPropertyOp16
 70
     1
102
RTVSPropertyOp17
 70
     1
102
RTVSPropertyOp18
 70
     1
102
RTVSPropertyOp19
 70
     1
102
RTVSPropertyOp20
 70
     1
102
RTVSPropertyOp21
 70
     1
102
RTVSPropertyOp22
 70
     1
102
RTVSPropertyOp23
 70
     1
102
RTVSPropertyOp24
 70
     1
102
RTVSPropertyOp25
 70
     1
102
RTVSPropertyOp26
 70
     1
102
RTVSPropertyOp27
 70
     1
102
RTVSPropertyOp28
 70
     1
102
RTVSPropertyOp29
 70
     1
102
RTVSPropertyOp30
 70
     1
102
RTVSPropertyOp31
 70
     1
102
RTVSPropertyOp32
 70
     1
  0
XRECORD
  5
F0
102
{ACAD_REACTORS
330
EF
102
}
330
EF
100
AcDbXrecord
280
     1
102
RTVSPropertyOp0
 70
     1
102
RTVSPropertyOp1
 70
     1
102
RTVSPropertyOp2
 70
     1
102
RTVSPropertyOp3
 70
     1
102
RTVSPropertyOp4
 70
     1
102
RTVSPropertyOp5
 70
     1
102
RTVSPropertyOp6
 70
     1
102
RTVSPropertyOp7
 70
     1
102
RTVSPropertyOp8
 70
     1
102
RTVSPropertyOp9
 70
     1
102
RTVSPropertyOp10
 70
     1
102
RTVSPropertyOp11
 70
     1
102
RTVSPropertyOp12
 70
     1
102
RTVSPropertyOp13
 70
     1
102
RTVSPropertyOp14
 70
     1
102
RTVSPropertyOp15
 70
     1
102
RTVSPropertyOp16
 70
     1
102
RTVSPropertyOp17
 70
     1
102
RTVSPropertyOp18
 70
     1
102
RTVSPropertyOp19
 70
     1
102
RTVSPropertyOp20
 70
     1
102
RTVSPropertyOp21
 70
     1
102
RTVSPropertyOp22
 70
     1
102
RTVSPropertyOp23
 70
     1
102
RTVSPropertyOp24
 70
     1
102
RTVSPropertyOp25
 70
     1
102
RTVSPropertyOp26
 70
     1
102
RTVSPropertyOp27
 70
     1
102
RTVSPropertyOp28
 70
     1
102
RTVSPropertyOp29
 70
     1
102
RTVSPropertyOp30
 70
     1
102
RTVSPropertyOp31
 70
     1
102
RTVSPropertyOp32
 70
     1
  0
XRECORD
  5
D4
102
{ACAD_REACTORS
330
D3
102
}
330
D3
100
AcDbXrecord
280
     1
102
RTVSPropertyOp0
 70
     1
102
RTVSPropertyOp1
 70
     1
102
RTVSPropertyOp2
 70
     1
102
RTVSPropertyOp3
 70
     1
102
RTVSPropertyOp4
 70
     1
102
RTVSPropertyOp5
 70
     1
102
RTVSPropertyOp6
 70
     1
102
RTVSPropertyOp7
 70
     1
102
RTVSPropertyOp8
 70
     1
102
RTVSPropertyOp9
 70
     1
102
RTVSPropertyOp10
 70
     1
102
RTVSPropertyOp11
 70
     1
102
RTVSPropertyOp12
 70
     1
102
RTVSPropertyOp13
 70
     1
102
RTVSPropertyOp14
 70
     1
102
RTVSPropertyOp15
 70
     1
102
RTVSPropertyOp16
 70
     1
102
RTVSPropertyOp17
 70
     1
102
RTVSPropertyOp18
 70
     1
102
RTVSPropertyOp19
 70
     1
102
RTVSPropertyOp20
 70
     1
102
RTVSPropertyOp21
 70
     1
102
RTVSPropertyOp22
 70
     1
102
RTVSPropertyOp23
 70
     1
102
RTVSPropertyOp24
 70
     1
102
RTVSPropertyOp25
 70
     1
102
RTVSPropertyOp26
 70
     1
102
RTVSPropertyOp27
 70
     1
102
RTVSPropertyOp28
 70
     1
102
RTVSPropertyOp29
 70
     1
102
RTVSPropertyOp30
 70
     1
102
RTVSPropertyOp31
 70
     1
102
RTVSPropertyOp32
 70
     1
  0
XRECORD
  5
D6
102
{ACAD_REACTORS
330
D5
102
}
330
D5
100
AcDbXrecord
280
     1
102
RTVSPropertyOp0
 70
     1
102
RTVSPropertyOp1
 70
     1
102
RTVSPropertyOp2
 70
     1
102
RTVSPropertyOp3
 70
     1
102
RTVSPropertyOp4
 70
     1
102
RTVSPropertyOp5
 70
     1
102
RTVSPropertyOp6
 70
     1
102
RTVSPropertyOp7
 70
     1
102
RTVSPropertyOp8
 70
     1
102
RTVSPropertyOp9
 70
     1
102
RTVSPropertyOp10
 70
     1
102
RTVSPropertyOp11
 70
     1
102
RTVSPropertyOp12
 70
     1
102
RTVSPropertyOp13
 70
     1
102
RTVSPropertyOp14
 70
     1
102
RTVSPropertyOp15
 70
     1
102
RTVSPropertyOp16
 70
     1
102
RTVSPropertyOp17
 70
     1
102
RTVSPropertyOp18
 70
     1
102
RTVSPropertyOp19
 70
     1
102
RTVSPropertyOp20
 70
     1
102
RTVSPropertyOp21
 70
     1
102
RTVSPropertyOp22
 70
     1
102
RTVSPropertyOp23
 70
     1
102
RTVSPropertyOp24
 70
     1
102
RTVSPropertyOp25
 70
     1
102
RTVSPropertyOp26
 70
     1
102
RTVSPropertyOp27
 70
     1
102
RTVSPropertyOp28
 70
     1
102
RTVSPropertyOp29
 70
     1
102
RTVSPropertyOp30
 70
     1
102
RTVSPropertyOp31
 70
     1
102
RTVSPropertyOp32
 70
     1
  0
XRECORD
  5
D8
102
{ACAD_REACTORS
330
D7
102
}
330
D7
100
AcDbXrecord
280
     1
102
RTVSPropertyOp0
 70
     1
102
RTVSPropertyOp1
 70
     1
102
RTVSPropertyOp2
 70
     1
102
RTVSPropertyOp3
 70
     1
102
RTVSPropertyOp4
 70
     1
102
RTVSPropertyOp5
 70
     1
102
RTVSPropertyOp6
 70
     1
102
RTVSPropertyOp7
 70
     1
102
RTVSPropertyOp8
 70
     1
102
RTVSPropertyOp9
 70
     1
102
RTVSPropertyOp10
 70
     1
102
RTVSPropertyOp11
 70
     1
102
RTVSPropertyOp12
 70
     1
102
RTVSPropertyOp13
 70
     1
102
RTVSPropertyOp14
 70
     1
102
RTVSPropertyOp15
 70
     1
102
RTVSPropertyOp16
 70
     1
102
RTVSPropertyOp17
 70
     1
102
RTVSPropertyOp18
 70
     1
102
RTVSPropertyOp19
 70
     1
102
RTVSPropertyOp20
 70
     1
102
RTVSPropertyOp21
 70
     1
102
RTVSPropertyOp22
 70
     1
102
RTVSPropertyOp23
 70
     1
102
RTVSPropertyOp24
 70
     1
102
RTVSPropertyOp25
 70
     1
102
RTVSPropertyOp26
 70
     1
102
RTVSPropertyOp27
 70
     1
102
RTVSPropertyOp28
 70
     1
102
RTVSPropertyOp29
 70
     1
102
RTVSPropertyOp30
 70
     1
102
RTVSPropertyOp31
 70
     1
102
RTVSPropertyOp32
 70
     1
  0
XRECORD
  5
DA
102
{ACAD_REACTORS
330
D9
102
}
330
D9
100
AcDbXrecord
280
     1
102
RTVSPropertyOp0
 70
     1
102
RTVSPropertyOp1
 70
     1
102
RTVSPropertyOp2
 70
     1
102
RTVSPropertyOp3
 70
     1
102
RTVSPropertyOp4
 70
     1
102
RTVSPropertyOp5
 70
     1
102
RTVSPropertyOp6
 70
     1
102
RTVSPropertyOp7
 70
     1
102
RTVSPropertyOp8
 70
     1
102
RTVSPropertyOp9
 70
     1
102
RTVSPropertyOp10
 70
     1
102
RTVSPropertyOp11
 70
     1
102
RTVSPropertyOp12
 70
     1
102
RTVSPropertyOp13
 70
     1
102
RTVSPropertyOp14
 70
     1
102
RTVSPropertyOp15
 70
     1
102
RTVSPropertyOp16
 70
     1
102
RTVSPropertyOp17
 70
     1
102
RTVSPropertyOp18
 70
     1
102
RTVSPropertyOp19
 70
     1
102
RTVSPropertyOp20
 70
     1
102
RTVSPropertyOp21
 70
     1
102
RTVSPropertyOp22
 70
     1
102
RTVSPropertyOp23
 70
     1
102
RTVSPropertyOp24
 70
     1
102
RTVSPropertyOp25
 70
     1
102
RTVSPropertyOp26
 70
     1
102
RTVSPropertyOp27
 70
     1
102
RTVSPropertyOp28
 70
     1
102
RTVSPropertyOp29
 70
     1
102
RTVSPropertyOp30
 70
     1
102
RTVSPropertyOp31
 70
     1
102
RTVSPropertyOp32
 70
     1
  0
XRECORD
  5
EE
102
{ACAD_REACTORS
330
ED
102
}
330
ED
100
AcDbXrecord
280
     1
102
RTVSPropertyOp0
 70
     1
102
RTVSPropertyOp1
 70
     1
102
RTVSPropertyOp2
 70
     1
102
RTVSPropertyOp3
 70
     1
102
RTVSPropertyOp4
 70
     1
102
RTVSPropertyOp5
 70
     1
102
RTVSPropertyOp6
 70
     1
102
RTVSPropertyOp7
 70
     1
102
RTVSPropertyOp8
 70
     1
102
RTVSPropertyOp9
 70
     1
102
RTVSPropertyOp10
 70
     1
102
RTVSPropertyOp11
 70
     1
102
RTVSPropertyOp12
 70
     1
102
RTVSPropertyOp13
 70
     1
102
RTVSPropertyOp14
 70
     1
102
RTVSPropertyOp15
 70
     1
102
RTVSPropertyOp16
 70
     1
102
RTVSPropertyOp17
 70
     1
102
RTVSPropertyOp18
 70
     1
102
RTVSPropertyOp19
 70
     1
102
RTVSPropertyOp20
 70
     1
102
RTVSPropertyOp21
 70
     1
102
RTVSPropertyOp22
 70
     1
102
RTVSPropertyOp23
 70
     1
102
RTVSPropertyOp24
 70
     1
102
RTVSPropertyOp25
 70
     1
102
RTVSPropertyOp26
 70
     1
102
RTVSPropertyOp27
 70
     1
102
RTVSPropertyOp28
 70
     1
102
RTVSPropertyOp29
 70
     1
102
RTVSPropertyOp30
 70
     1
102
RTVSPropertyOp31
 70
     1
102
RTVSPropertyOp32
 70
     1
  0
XRECORD
  5
E4
102
{ACAD_REACTORS
330
E3
102
}
330
E3
100
AcDbXrecord
280
     1
102
RTVSPropertyOp0
 70
     1
102
RTVSPropertyOp1
 70
     1
102
RTVSPropertyOp2
 70
     1
102
RTVSPropertyOp3
 70
     1
102
RTVSPropertyOp4
 70
     1
102
RTVSPropertyOp5
 70
     1
102
RTVSPropertyOp6
 70
     1
102
RTVSPropertyOp7
 70
     1
102
RTVSPropertyOp8
 70
     1
102
RTVSPropertyOp9
 70
     1
102
RTVSPropertyOp10
 70
     1
102
RTVSPropertyOp11
 70
     1
102
RTVSPropertyOp12
 70
     1
102
RTVSPropertyOp13
 70
     1
102
RTVSPropertyOp14
 70
     1
102
RTVSPropertyOp15
 70
     1
102
RTVSPropertyOp16
 70
     1
102
RTVSPropertyOp17
 70
     1
102
RTVSPropertyOp18
 70
     1
102
RTVSPropertyOp19
 70
     1
102
RTVSPropertyOp20
 70
     1
102
RTVSPropertyOp21
 70
     1
102
RTVSPropertyOp22
 70
     1
102
RTVSPropertyOp23
 70
     1
102
RTVSPropertyOp24
 70
     1
102
RTVSPropertyOp25
 70
     1
102
RTVSPropertyOp26
 70
     1
102
RTVSPropertyOp27
 70
     1
102
RTVSPropertyOp28
 70
     1
102
RTVSPropertyOp29
 70
     1
102
RTVSPropertyOp30
 70
     1
102
RTVSPropertyOp31
 70
     1
102
RTVSPropertyOp32
 70
     1
  0
XRECORD
  5
EC
102
{ACAD_REACTORS
330
EB
102
}
330
EB
100
AcDbXrecord
280
     1
102
RTVSPropertyOp0
 70
     1
102
RTVSPropertyOp1
 70
     1
102
RTVSPropertyOp2
 70
     1
102
RTVSPropertyOp3
 70
     1
102
RTVSPropertyOp4
 70
     1
102
RTVSPropertyOp5
 70
     1
102
RTVSPropertyOp6
 70
     1
102
RTVSPropertyOp7
 70
     1
102
RTVSPropertyOp8
 70
     1
102
RTVSPropertyOp9
 70
     1
102
RTVSPropertyOp10
 70
     1
102
RTVSPropertyOp11
 70
     1
102
RTVSPropertyOp12
 70
     1
102
RTVSPropertyOp13
 70
     1
102
RTVSPropertyOp14
 70
     1
102
RTVSPropertyOp15
 70
     1
102
RTVSPropertyOp16
 70
     1
102
RTVSPropertyOp17
 70
     1
102
RTVSPropertyOp18
 70
     1
102
RTVSPropertyOp19
 70
     1
102
RTVSPropertyOp20
 70
     1
102
RTVSPropertyOp21
 70
     1
102
RTVSPropertyOp22
 70
     1
102
RTVSPropertyOp23
 70
     1
102
RTVSPropertyOp24
 70
     1
102
RTVSPropertyOp25
 70
     1
102
RTVSPropertyOp26
 70
     1
102
RTVSPropertyOp27
 70
     1
102
RTVSPropertyOp28
 70
     1
102
RTVSPropertyOp29
 70
     1
102
RTVSPropertyOp30
 70
     1
102
RTVSPropertyOp31
 70
     1
102
RTVSPropertyOp32
 70
     1
  0
ENDSEC
  0
EOF
