  0
SECTION
  2
HEADER
  9
$ACADVER
  1
AC1021
  9
$ACADMAINTVER
 70
    25
  9
$DWGCODEPAGE
  3
ANSI_1256
  9
$INSBASE
 10
0.0
 20
0.0
 30
0.0
  9
$EXTMIN
 10
71.7424
 20
-114.7596
 30
0.0
  9
$EXTMAX
 10
196.3766
 20
131.8733
 30
0.0
  9
$LIMMIN
 10
0.0
 20
0.0
  9
$LIMMAX
 10
12.0
 20
9.0
  9
$ORTHOMODE
 70
     0
  9
$REGENMODE
 70
     1
  9
$FILLMODE
 70
     1
  9
$QTEXTMODE
 70
     0
  9
$MIRRTEXT
 70
     1
  9
$LTSCALE
 40
1.0
  9
$ATTMODE
 70
     1
  9
$TEXTSIZE
 40
0.2
  9
$TRACEWID
 40
0.05
  9
$TEXTSTYLE
  7
Standard
  9
$CLAYER
  8
0
  9
$CELTYPE
  6
ByLayer
  9
$CECOLOR
 62
   256
  9
$CELTSCALE
 40
1.0
  9
$DISPSILH
 70
     0
  9
$DIMSCALE
 40
1.0
  9
$DIMASZ
 40
0.18
  9
$DIMEXO
 40
0.0625
  9
$DIMDLI
 40
0.38
  9
$DIMRND
 40
0.0
  9
$DIMDLE
 40
0.0
  9
$DIMEXE
 40
0.18
  9
$DIMTP
 40
0.0
  9
$DIMTM
 40
0.0
  9
$DIMTXT
 40
0.18
  9
$DIMCEN
 40
0.09
  9
$DIMTSZ
 40
0.0
  9
$DIMTOL
 70
     0
  9
$DIMLIM
 70
     0
  9
$DIMTIH
 70
     1
  9
$DIMTOH
 70
     1
  9
$DIMSE1
 70
     0
  9
$DIMSE2
 70
     0
  9
$DIMTAD
 70
     0
  9
$DIMZIN
 70
     0
  9
$DIMBLK
  1

  9
$DIMASO
 70
     1
  9
$DIMSHO
 70
     1
  9
$DIMPOST
  1

  9
$DIMAPOST
  1

  9
$DIMALT
 70
     0
  9
$DIMALTD
 70
     2
  9
$DIMALTF
 40
25.4
  9
$DIMLFAC
 40
1.0
  9
$DIMTOFL
 70
     0
  9
$DIMTVP
 40
0.0
  9
$DIMTIX
 70
     0
  9
$DIMSOXD
 70
     0
  9
$DIMSAH
 70
     0
  9
$DIMBLK1
  1

  9
$DIMBLK2
  1

  9
$DIMSTYLE
  2
Standard
  9
$DIMCLRD
 70
     0
  9
$DIMCLRE
 70
     0
  9
$DIMCLRT
 70
     0
  9
$DIMTFAC
 40
1.0
  9
$DIMGAP
 40
0.09
  9
$DIMJUST
 70
     0
  9
$DIMSD1
 70
     0
  9
$DIMSD2
 70
     0
  9
$DIMTOLJ
 70
     1
  9
$DIMTZIN
 70
     0
  9
$DIMALTZ
 70
     0
  9
$DIMALTTZ
 70
     0
  9
$DIMUPT
 70
     0
  9
$DIMDEC
 70
     4
  9
$DIMTDEC
 70
     4
  9
$DIMALTU
 70
     2
  9
$DIMALTTD
 70
     2
  9
$DIMTXSTY
  7
Standard
  9
$DIMAUNIT
 70
     0
  9
$DIMADEC
 70
     0
  9
$DIMALTRND
 40
0.0
  9
$DIMAZIN
 70
     0
  9
$DIMDSEP
 70
    46
  9
$DIMATFIT
 70
     3
  9
$DIMFRAC
 70
     0
  9
$DIMLDRBLK
  1

  9
$DIMLUNIT
 70
     2
  9
$DIMLWD
 70
    -2
  9
$DIMLWE
 70
    -2
  9
$DIMTMOVE
 70
     0
  9
$DIMFXL
 40
1.0
  9
$DIMFXLON
 70
     0
  9
$DIMJOGANG
 40
0.7853981633974483
  9
$DIMTFILL
 70
     0
  9
$DIMTFILLCLR
 70
     0
  9
$DIMARCSYM
 70
     0
  9
$DIMLTYPE
  6

  9
$DIMLTEX1
  6

  9
$DIMLTEX2
  6

  9
$LUNITS
 70
     2
  9
$LUPREC
 70
     4
  9
$SKETCHINC
 40
0.1
  9
$FILLETRAD
 40
0.5
  9
$AUNITS
 70
     0
  9
$AUPREC
 70
     0
  9
$MENU
  1
.
  9
$ELEVATION
 40
0.0
  9
$PELEVATION
 40
0.0
  9
$THICKNESS
 40
0.0
  9
$LIMCHECK
 70
     0
  9
$CHAMFERA
 40
0.5
  9
$CHAMFERB
 40
0.5
  9
$CHAMFERC
 40
1.0
  9
$CHAMFERD
 40
0.0
  9
$SKPOLY
 70
     0
  9
$TDCREATE
 40
2458479.3552775
  9
$TDUCREATE
 40
2458479.188610833
  9
$TDUPDATE
 40
2458479.355277708
  9
$TDUUPDATE
 40
2458479.188611042
  9
$TDINDWG
 40
0.0000000116
  9
$TDUSRTIMER
 40
0.0000000116
  9
$USRTIMER
 70
     1
  9
$ANGBASE
 50
0.0
  9
$ANGDIR
 70
     0
  9
$PDMODE
 70
     0
  9
$PDSIZE
 40
0.0
  9
$PLINEWID
 40
0.0
  9
$SPLFRAME
 70
     0
  9
$SPLINETYPE
 70
     6
  9
$SPLINESEGS
 70
     8
  9
$HANDSEED
  5
E1
  9
$SURFTAB1
 70
     6
  9
$SURFTAB2
 70
     6
  9
$SURFTYPE
 70
     6
  9
$SURFU
 70
     6
  9
$SURFV
 70
     6
  9
$UCSBASE
  2

  9
$UCSNAME
  2

  9
$UCSORG
 10
0.0
 20
0.0
 30
0.0
  9
$UCSXDIR
 10
1.0
 20
0.0
 30
0.0
  9
$UCSYDIR
 10
0.0
 20
1.0
 30
0.0
  9
$UCSORTHOREF
  2

  9
$UCSORTHOVIEW
 70
     0
  9
$UCSORGTOP
 10
0.0
 20
0.0
 30
0.0
  9
$UCSORGBOTTOM
 10
0.0
 20
0.0
 30
0.0
  9
$UCSORGLEFT
 10
0.0
 20
0.0
 30
0.0
  9
$UCSORGRIGHT
 10
0.0
 20
0.0
 30
0.0
  9
$UCSORGFRONT
 10
0.0
 20
0.0
 30
0.0
  9
$UCSORGBACK
 10
0.0
 20
0.0
 30
0.0
  9
$PUCSBASE
  2

  9
$PUCSNAME
  2

  9
$PUCSORG
 10
0.0
 20
0.0
 30
0.0
  9
$PUCSXDIR
 10
1.0
 20
0.0
 30
0.0
  9
$PUCSYDIR
 10
0.0
 20
1.0
 30
0.0
  9
$PUCSORTHOREF
  2

  9
$PUCSORTHOVIEW
 70
     0
  9
$PUCSORGTOP
 10
0.0
 20
0.0
 30
0.0
  9
$PUCSORGBOTTOM
 10
0.0
 20
0.0
 30
0.0
  9
$PUCSORGLEFT
 10
0.0
 20
0.0
 30
0.0
  9
$PUCSORGRIGHT
 10
0.0
 20
0.0
 30
0.0
  9
$PUCSORGFRONT
 10
0.0
 20
0.0
 30
0.0
  9
$PUCSORGBACK
 10
0.0
 20
0.0
 30
0.0
  9
$USERI1
 70
     0
  9
$USERI2
 70
     0
  9
$USERI3
 70
     0
  9
$USERI4
 70
     0
  9
$USERI5
 70
     0
  9
$USERR1
 40
0.0
  9
$USERR2
 40
0.0
  9
$USERR3
 40
0.0
  9
$USERR4
 40
0.0
  9
$USERR5
 40
0.0
  9
$WORLDVIEW
 70
     1
  9
$SHADEDGE
 70
     3
  9
$SHADEDIF
 70
    70
  9
$TILEMODE
 70
     1
  9
$MAXACTVP
 70
    64
  9
$PINSBASE
 10
0.0
 20
0.0
 30
0.0
  9
$PLIMCHECK
 70
     0
  9
$PEXTMIN
 10
1.000000000000000E+20
 20
1.000000000000000E+20
 30
1.000000000000000E+20
  9
$PEXTMAX
 10
-1.000000000000000E+20
 20
-1.000000000000000E+20
 30
-1.000000000000000E+20
  9
$PLIMMIN
 10
0.0
 20
0.0
  9
$PLIMMAX
 10
12.0
 20
9.0
  9
$UNITMODE
 70
     0
  9
$VISRETAIN
 70
     1
  9
$PLINEGEN
 70
     0
  9
$PSLTSCALE
 70
     1
  9
$TREEDEPTH
 70
  3020
  9
$CMLSTYLE
  2
Standard
  9
$CMLJUST
 70
     0
  9
$CMLSCALE
 40
1.0
  9
$PROXYGRAPHICS
 70
     1
  9
$MEASUREMENT
 70
     0
  9
$CELWEIGHT
370
    -1
  9
$ENDCAPS
280
     0
  9
$JOINSTYLE
280
     0
  9
$LWDISPLAY
290
     0
  9
$INSUNITS
 70
     4
  9
$HYPERLINKBASE
  1

  9
$STYLESHEET
  1

  9
$XEDIT
290
     1
  9
$CEPSNTYPE
380
     0
  9
$PSTYLEMODE
290
     1
  9
$FINGERPRINTGUID
  2
{46AD6FB8-C367-46C8-977F-41BC533C0B72}
  9
$VERSIONGUID
  2
{FAEB1C32-E019-11D5-929B-00C0DF256EC4}
  9
$EXTNAMES
290
     1
  9
$PSVPSCALE
 40
0.0
  9
$OLESTARTUP
290
     0
  9
$SORTENTS
280
   127
  9
$INDEXCTL
280
     0
  9
$HIDETEXT
280
     1
  9
$XCLIPFRAME
290
     0
  9
$HALOGAP
280
     0
  9
$OBSCOLOR
 70
   257
  9
$OBSLTYPE
280
     0
  9
$INTERSECTIONDISPLAY
280
     0
  9
$INTERSECTIONCOLOR
 70
   257
  9
$DIMASSOC
280
     2
  9
$PROJECTNAME
  1

  9
$CAMERADISPLAY
290
     0
  9
$LENSLENGTH
 40
50.0
  9
$CAMERAHEIGHT
 40
0.0
  9
$STEPSPERSEC
 40
2.0
  9
$STEPSIZE
 40
6.0
  9
$3DDWFPREC
 40
2.0
  9
$PSOLWIDTH
 40
0.25
  9
$PSOLHEIGHT
 40
4.0
  9
$LOFTANG1
 40
1.570796326794897
  9
$LOFTANG2
 40
1.570796326794897
  9
$LOFTMAG1
 40
0.0
  9
$LOFTMAG2
 40
0.0
  9
$LOFTPARAM
 70
     7
  9
$LOFTNORMALS
280
     1
  9
$LATITUDE
 40
37.795
  9
$LONGITUDE
 40
-122.394
  9
$NORTHDIRECTION
 40
0.0
  9
$TIMEZONE
 70
 -8000
  9
$LIGHTGLYPHDISPLAY
280
     1
  9
$TILEMODELIGHTSYNCH
280
     1
  9
$SOLIDHIST
280
     1
  9
$SHOWHIST
280
     1
  9
$DWFFRAME
280
     2
  9
$DGNFRAME
280
     2
  9
$REALWORLDSCALE
290
     1
  9
$INTERFERECOLOR
 62
   256
  9
$CSHADOW
280
     0
  9
$SHADOWPLANELOCATION
 40
0.0
  0
ENDSEC
  0
SECTION
  2
CLASSES
  0
CLASS
  1
ACDBDICTIONARYWDFLT
  2
AcDbDictionaryWithDefault
  3
ObjectDBX Classes
 90
        0
 91
        4
280
     0
281
     0
  0
CLASS
  1
VISUALSTYLE
  2
AcDbVisualStyle
  3
ObjectDBX Classes
 90
     4095
 91
        4
280
     0
281
     0
  0
CLASS
  1
MATERIAL
  2
AcDbMaterial
  3
ObjectDBX Classes
 90
     1153
 91
        4
280
     0
281
     0
  0
ENDSEC
  0
SECTION
  2
TABLES
  0
TABLE
  2
VPORT
  5
8
330
0
100
AcDbSymbolTable
 70
     1
  0
VPORT
  5
29
330
8
100
AcDbSymbolTableRecord
100
AcDbViewportTableRecord
  2
*Active
 70
     0
 10
0.0
 20
0.0
 11
1.0
 21
1.0
 12
10.42990654205607
 22
4.5
 13
0.0
 23
0.0
 14
0.5
 24
0.5
 15
0.5
 25
0.5
 16
0.0
 26
0.0
 36
1.0
 17
0.0
 27
0.0
 37
0.0
 40
9.0
 41
1.972972972850329
 42
50.0
 43
0.0
 44
0.0
 50
0.0
 51
0.0
 71
     0
 72
   100
 73
     1
 74
     3
 75
     0
 76
     0
 77
     0
 78
     0
281
     0
 65
     1
110
0.0
120
0.0
130
0.0
111
1.0
121
0.0
131
0.0
112
0.0
122
1.0
132
0.0
 79
     0
146
0.0
 60
     3
 61
     5
292
     1
282
     1
141
0.0
142
0.0
 63
   250
  0
ENDTAB
  0
TABLE
  2
LTYPE
  5
5
330
0
100
AcDbSymbolTable
 70
     1
  0
LTYPE
  5
14
330
5
100
AcDbSymbolTableRecord
100
AcDbLinetypeTableRecord
  2
ByBlock
 70
     0
  3

 72
    65
 73
     0
 40
0.0
  0
LTYPE
  5
15
330
5
100
AcDbSymbolTableRecord
100
AcDbLinetypeTableRecord
  2
ByLayer
 70
     0
  3

 72
    65
 73
     0
 40
0.0
  0
LTYPE
  5
16
330
5
100
AcDbSymbolTableRecord
100
AcDbLinetypeTableRecord
  2
Continuous
 70
     0
  3
Solid line
 72
    65
 73
     0
 40
0.0
  0
ENDTAB
  0
TABLE
  2
LAYER
  5
2
330
0
100
AcDbSymbolTable
 70
     3
  0
LAYER
  5
10
330
2
100
AcDbSymbolTableRecord
100
AcDbLayerTableRecord
  2
0
 70
     0
 62
     7
  6
Continuous
370
    -3
390
F
347
3E
  0
LAYER
  5
40
330
2
100
AcDbSymbolTableRecord
100
AcDbLayerTableRecord
  2
layer 1
 70
     0
 62
     7
  6
Continuous
370
    -3
390
F
347
3E
  0
LAYER
  5
BE
330
2
100
AcDbSymbolTableRecord
100
AcDbLayerTableRecord
  2
Master Guides
 70
     0
 62
     7
  6
Continuous
370
    -3
390
F
347
3E
  0
ENDTAB
  0
TABLE
  2
STYLE
  5
3
330
0
100
AcDbSymbolTable
 70
     1
  0
STYLE
  5
11
330
3
100
AcDbSymbolTableRecord
100
AcDbTextStyleTableRecord
  2
Standard
 70
     0
 40
0.0
 41
1.0
 50
0.0
 71
     0
 42
0.2
  3
txt
  4

  0
ENDTAB
  0
TABLE
  2
VIEW
  5
6
330
0
100
AcDbSymbolTable
 70
     0
  0
ENDTAB
  0
TABLE
  2
UCS
  5
7
330
0
100
AcDbSymbolTable
 70
     0
  0
ENDTAB
  0
TABLE
  2
APPID
  5
9
330
0
100
AcDbSymbolTable
 70
     2
  0
APPID
  5
12
330
9
100
AcDbSymbolTableRecord
100
AcDbRegAppTableRecord
  2
ACAD
 70
     0
  0
APPID
  5
3F
330
9
100
AcDbSymbolTableRecord
100
AcDbRegAppTableRecord
  2
ODA
 70
     0
  0
ENDTAB
  0
TABLE
  2
DIMSTYLE
  5
A
330
0
100
AcDbSymbolTable
 70
     1
100
AcDbDimStyleTable
  0
DIMSTYLE
105
27
330
A
100
AcDbSymbolTableRecord
100
AcDbDimStyleTableRecord
  2
Standard
 70
     0
178
     0
340
11
  0
ENDTAB
  0
TABLE
  2
BLOCK_RECORD
  5
1
330
0
100
AcDbSymbolTable
 70
     1
  0
BLOCK_RECORD
  5
1F
330
1
100
AcDbSymbolTableRecord
100
AcDbBlockTableRecord
  2
*Model_Space
340
22
 70
     0
280
     1
281
     0
  0
BLOCK_RECORD
  5
1B
330
1
100
AcDbSymbolTableRecord
100
AcDbBlockTableRecord
  2
*Paper_Space
340
1E
 70
     0
280
     1
281
     0
  0
BLOCK_RECORD
  5
23
330
1
100
AcDbSymbolTableRecord
100
AcDbBlockTableRecord
  2
*Paper_Space0
340
26
 70
     0
280
     1
281
     0
  0
ENDTAB
  0
ENDSEC
  0
SECTION
  2
BLOCKS
  0
BLOCK
  5
20
330
1F
100
AcDbEntity
  8
0
100
AcDbBlockBegin
  2
*Model_Space
 70
     0
 10
0.0
 20
0.0
 30
0.0
  3
*Model_Space
  1

  0
ENDBLK
  5
21
330
1F
100
AcDbEntity
  8
0
100
AcDbBlockEnd
  0
BLOCK
  5
1C
330
1B
100
AcDbEntity
 67
     1
  8
0
100
AcDbBlockBegin
  2
*Paper_Space
 70
     0
 10
0.0
 20
0.0
 30
0.0
  3
*Paper_Space
  1

  0
ENDBLK
  5
1D
330
1B
100
AcDbEntity
 67
     1
  8
0
100
AcDbBlockEnd
  0
BLOCK
  5
24
330
23
100
AcDbEntity
  8
0
100
AcDbBlockBegin
  2
*Paper_Space0
 70
     0
 10
0.0
 20
0.0
 30
0.0
  3
*Paper_Space0
  1

  0
ENDBLK
  5
25
330
23
100
AcDbEntity
  8
0
100
AcDbBlockEnd
  0
ENDSEC
  0
SECTION
  2
ENTITIES
  0
SPLINE
  5
41
330
1F
100
AcDbEntity
  8
layer 1
 62
   250
100
AcDbSpline
210
0.0
220
0.0
230
1.0
 70
    11
 71
     3
 72
    20
 73
    16
 74
     0
 42
0.0000000001
 43
0.0000000001
 12
1.0
 22
0.0
 32
0.0
 13
1.0
 23
0.0
 33
0.0
 40
0.0
 40
0.0
 40
0.0
 40
0.0
 40
0.2
 40
0.2
 40
0.2
 40
0.2
 40
0.4
 40
0.4
 40
0.4
 40
0.4
 40
0.6
 40
0.6
 40
0.6
 40
0.6
 40
1.0
 40
1.0
 40
1.0
 40
1.0
 10
71.7424
 20
131.8733
 30
0.0
 10
71.7424
 20
131.8733
 30
0.0
 10
196.3766
 20
131.8733
 30
0.0
 10
196.3766
 20
131.8733
 30
0.0
 10
196.3766
 20
131.8733
 30
0.0
 10
196.3766
 20
131.8733
 30
0.0
 10
196.3766
 20
-114.7596
 30
0.0
 10
196.3766
 20
-114.7596
 30
0.0
 10
196.3766
 20
-114.7596
 30
0.0
 10
196.3766
 20
-114.7596
 30
0.0
 10
71.7424
 20
-114.7596
 30
0.0
 10
71.7424
 20
-114.7596
 30
0.0
 10
71.7424
 20
-114.7596
 30
0.0
 10
71.7424
 20
-114.7596
 30
0.0
 10
71.7424
 20
131.8733
 30
0.0
 10
71.7424
 20
131.8733
 30
0.0
  0
SPLINE
  5
42
330
1F
100
AcDbEntity
  8
layer 1
 62
     7
100
AcDbSpline
210
0.0
220
0.0
230
1.0
 70
    11
 71
     3
 72
    16
 73
    12
 74
     0
 42
0.0000000001
 43
0.0000000001
 12
1.0
 22
0.0
 32
0.0
 13
1.0
 23
0.0
 33
0.0
 40
0.0
 40
0.0
 40
0.0
 40
0.0
 40
0.25
 40
0.25
 40
0.25
 40
0.25
 40
0.5
 40
0.5
 40
0.5
 40
0.5
 40
1.0
 40
1.0
 40
1.0
 40
1.0
 10
95.7306
 20
91.3752
 30
0.0
 10
86.931
 20
91.7348
 30
0.0
 10
79.8605
 20
98.8057
 30
0.0
 10
79.501
 20
107.6045
 30
0.0
 10
79.501
 20
107.6045
 30
0.0
 10
88.2454
 20
107.1263
 30
0.0
 10
95.2508
 20
100.1182
 30
0.0
 10
95.7301
 20
91.3752
 30
0.0
 10
95.7301
 20
91.3752
 30
0.0
 10
95.7301
 20
91.3752
 30
0.0
 10
95.7306
 20
91.3752
 30
0.0
 10
95.7306
 20
91.3752
 30
0.0
  0
SPLINE
  5
43
330
1F
100
AcDbEntity
  8
layer 1
 62
     7
100
AcDbSpline
210
0.0
220
0.0
230
1.0
 70
    11
 71
     3
 72
    16
 73
    12
 74
     0
 42
0.0000000001
 43
0.0000000001
 12
1.0
 22
0.0
 32
0.0
 13
1.0
 23
0.0
 33
0.0
 40
0.0
 40
0.0
 40
0.0
 40
0.0
 40
0.25
 40
0.25
 40
0.25
 40
0.25
 40
0.5
 40
0.5
 40
0.5
 40
0.5
 40
1.0
 40
1.0
 40
1.0
 40
1.0
 10
113.3672
 20
107.6048
 30
0.0
 10
113.0077
 20
98.8076
 30
0.0
 10
105.9354
 20
91.7348
 30
0.0
 10
97.1363
 20
91.3752
 30
0.0
 10
97.1363
 20
91.3752
 30
0.0
 10
97.6161
 20
100.1196
 30
0.0
 10
104.6226
 20
107.1252
 30
0.0
 10
113.3652
 20
107.6045
 30
0.0
 10
113.3652
 20
107.6045
 30
0.0
 10
113.3652
 20
107.6045
 30
0.0
 10
113.3672
 20
107.6048
 30
0.0
 10
113.3672
 20
107.6048
 30
0.0
  0
SPLINE
  5
44
330
1F
100
AcDbEntity
  8
layer 1
 62
     7
100
AcDbSpline
210
0.0
220
0.0
230
1.0
 70
    11
 71
     3
 72
    16
 73
    12
 74
     0
 42
0.0000000001
 43
0.0000000001
 12
1.0
 22
0.0
 32
0.0
 13
1.0
 23
0.0
 33
0.0
 40
0.0
 40
0.0
 40
0.0
 40
0.0
 40
0.25
 40
0.25
 40
0.25
 40
0.25
 40
0.5
 40
0.5
 40
0.5
 40
0.5
 40
1.0
 40
1.0
 40
1.0
 40
1.0
 10
97.1376
 20
125.2394
 30
0.0
 10
105.9371
 20
124.8821
 30
0.0
 10
113.006
 20
117.8095
 30
0.0
 10
113.3652
 20
109.0107
 30
0.0
 10
113.3652
 20
109.0107
 30
0.0
 10
104.6228
 20
109.4905
 30
0.0
 10
97.615
 20
116.4967
 30
0.0
 10
97.1363
 20
125.2394
 30
0.0
 10
97.1363
 20
125.2394
 30
0.0
 10
97.1363
 20
125.2394
 30
0.0
 10
97.1376
 20
125.2394
 30
0.0
 10
97.1376
 20
125.2394
 30
0.0
  0
SPLINE
  5
45
330
1F
100
AcDbEntity
  8
layer 1
 62
     7
100
AcDbSpline
210
0.0
220
0.0
230
1.0
 70
    11
 71
     3
 72
    16
 73
    12
 74
     0
 42
0.0000000001
 43
0.0000000001
 12
1.0
 22
0.0
 32
0.0
 13
1.0
 23
0.0
 33
0.0
 40
0.0
 40
0.0
 40
0.0
 40
0.0
 40
0.25
 40
0.25
 40
0.25
 40
0.25
 40
0.5
 40
0.5
 40
0.5
 40
0.5
 40
1.0
 40
1.0
 40
1.0
 40
1.0
 10
79.501
 20
109.0118
 30
0.0
 10
79.8605
 20
117.8115
 30
0.0
 10
86.931
 20
124.8805
 30
0.0
 10
95.7301
 20
125.2394
 30
0.0
 10
95.7301
 20
125.2394
 30
0.0
 10
95.2519
 20
116.497
 30
0.0
 10
88.244
 20
109.4899
 30
0.0
 10
79.501
 20
109.0107
 30
0.0
 10
79.501
 20
109.0107
 30
0.0
 10
79.501
 20
109.0107
 30
0.0
 10
79.501
 20
109.0118
 30
0.0
 10
79.501
 20
109.0118
 30
0.0
  0
SPLINE
  5
46
330
1F
100
AcDbEntity
  8
layer 1
 62
     7
100
AcDbSpline
210
0.0
220
0.0
230
1.0
 70
    11
 71
     3
 72
    12
 73
     8
 74
     0
 42
0.0000000001
 43
0.0000000001
 12
1.0
 22
0.0
 32
0.0
 13
1.0
 23
0.0
 33
0.0
 40
0.0
 40
0.0
 40
0.0
 40
0.0
 40
0.3333333333333333
 40
0.3333333333333333
 40
0.3333333333333333
 40
0.3333333333333333
 40
1.0
 40
1.0
 40
1.0
 40
1.0
 10
133.3549
 20
91.3752
 30
0.0
 10
124.5575
 20
91.7348
 30
0.0
 10
117.4849
 20
98.8057
 30
0.0
 10
117.1257
 20
107.6045
 30
0.0
 10
117.1257
 20
107.6045
 30
0.0
 10
125.8697
 20
107.1263
 30
0.0
 10
132.8753
 20
100.1182
 30
0.0
 10
133.3549
 20
91.3752
 30
0.0
  0
SPLINE
  5
47
330
1F
100
AcDbEntity
  8
layer 1
 62
     7
100
AcDbSpline
210
0.0
220
0.0
230
1.0
 70
    11
 71
     3
 72
    16
 73
    12
 74
     0
 42
0.0000000001
 43
0.0000000001
 12
1.0
 22
0.0
 32
0.0
 13
1.0
 23
0.0
 33
0.0
 40
0.0
 40
0.0
 40
0.0
 40
0.0
 40
0.25
 40
0.25
 40
0.25
 40
0.25
 40
0.5
 40
0.5
 40
0.5
 40
0.5
 40
1.0
 40
1.0
 40
1.0
 40
1.0
 10
150.9914
 20
107.6048
 30
0.0
 10
150.6319
 20
98.8076
 30
0.0
 10
143.5599
 20
91.7348
 30
0.0
 10
134.7608
 20
91.3752
 30
0.0
 10
134.7608
 20
91.3752
 30
0.0
 10
135.2403
 20
100.1196
 30
0.0
 10
142.2466
 20
107.1252
 30
0.0
 10
150.9901
 20
107.6045
 30
0.0
 10
150.9901
 20
107.6045
 30
0.0
 10
150.9901
 20
107.6045
 30
0.0
 10
150.9914
 20
107.6048
 30
0.0
 10
150.9914
 20
107.6048
 30
0.0
  0
SPLINE
  5
48
330
1F
100
AcDbEntity
  8
layer 1
 62
     7
100
AcDbSpline
210
0.0
220
0.0
230
1.0
 70
    11
 71
     3
 72
    16
 73
    12
 74
     0
 42
0.0000000001
 43
0.0000000001
 12
1.0
 22
0.0
 32
0.0
 13
1.0
 23
0.0
 33
0.0
 40
0.0
 40
0.0
 40
0.0
 40
0.0
 40
0.25
 40
0.25
 40
0.25
 40
0.25
 40
0.5
 40
0.5
 40
0.5
 40
0.5
 40
1.0
 40
1.0
 40
1.0
 40
1.0
 10
134.7619
 20
125.2394
 30
0.0
 10
143.5613
 20
124.8821
 30
0.0
 10
150.6306
 20
117.8095
 30
0.0
 10
150.9901
 20
109.0107
 30
0.0
 10
150.9901
 20
109.0107
 30
0.0
 10
142.2471
 20
109.4905
 30
0.0
 10
135.2395
 20
116.4967
 30
0.0
 10
134.7608
 20
125.2394
 30
0.0
 10
134.7608
 20
125.2394
 30
0.0
 10
134.7608
 20
125.2394
 30
0.0
 10
134.7619
 20
125.2394
 30
0.0
 10
134.7619
 20
125.2394
 30
0.0
  0
SPLINE
  5
49
330
1F
100
AcDbEntity
  8
layer 1
 62
     7
100
AcDbSpline
210
0.0
220
0.0
230
1.0
 70
    11
 71
     3
 72
    16
 73
    12
 74
     0
 42
0.0000000001
 43
0.0000000001
 12
1.0
 22
0.0
 32
0.0
 13
1.0
 23
0.0
 33
0.0
 40
0.0
 40
0.0
 40
0.0
 40
0.0
 40
0.25
 40
0.25
 40
0.25
 40
0.25
 40
0.5
 40
0.5
 40
0.5
 40
0.5
 40
1.0
 40
1.0
 40
1.0
 40
1.0
 10
117.1273
 20
109.0118
 30
0.0
 10
117.4868
 20
117.8115
 30
0.0
 10
124.5555
 20
124.8805
 30
0.0
 10
133.3543
 20
125.2394
 30
0.0
 10
133.3543
 20
125.2394
 30
0.0
 10
132.8761
 20
116.497
 30
0.0
 10
125.8688
 20
109.4899
 30
0.0
 10
117.1257
 20
109.0107
 30
0.0
 10
117.1257
 20
109.0107
 30
0.0
 10
117.1257
 20
109.0107
 30
0.0
 10
117.1273
 20
109.0118
 30
0.0
 10
117.1273
 20
109.0118
 30
0.0
  0
SPLINE
  5
4A
330
1F
100
AcDbEntity
  8
layer 1
 62
     7
100
AcDbSpline
210
0.0
220
0.0
230
1.0
 70
    11
 71
     3
 72
   164
 73
   160
 74
     0
 42
0.0000000001
 43
0.0000000001
 12
1.0
 22
0.0
 32
0.0
 13
1.0
 23
0.0
 33
0.0
 40
0.0
 40
0.0
 40
0.0
 40
0.0
 40
0.024390243902439
 40
0.024390243902439
 40
0.024390243902439
 40
0.024390243902439
 40
0.0487804878048781
 40
0.0487804878048781
 40
0.0487804878048781
 40
0.0487804878048781
 40
0.0731707317073171
 40
0.0731707317073171
 40
0.0731707317073171
 40
0.0731707317073171
 40
0.0975609756097561
 40
0.0975609756097561
 40
0.0975609756097561
 40
0.0975609756097561
 40
0.1219512195121951
 40
0.1219512195121951
 40
0.1219512195121951
 40
0.1219512195121951
 40
0.1463414634146341
 40
0.1463414634146341
 40
0.1463414634146341
 40
0.1463414634146341
 40
0.1707317073170732
 40
0.1707317073170732
 40
0.1707317073170732
 40
0.1707317073170732
 40
0.1951219512195122
 40
0.1951219512195122
 40
0.1951219512195122
 40
0.1951219512195122
 40
0.2195121951219512
 40
0.2195121951219512
 40
0.2195121951219512
 40
0.2195121951219512
 40
0.2439024390243902
 40
0.2439024390243902
 40
0.2439024390243902
 40
0.2439024390243902
 40
0.2682926829268293
 40
0.2682926829268293
 40
0.2682926829268293
 40
0.2682926829268293
 40
0.2926829268292683
 40
0.2926829268292683
 40
0.2926829268292683
 40
0.2926829268292683
 40
0.3170731707317073
 40
0.3170731707317073
 40
0.3170731707317073
 40
0.3170731707317073
 40
0.3414634146341464
 40
0.3414634146341464
 40
0.3414634146341464
 40
0.3414634146341464
 40
0.3658536585365854
 40
0.3658536585365854
 40
0.3658536585365854
 40
0.3658536585365854
 40
0.3902439024390244
 40
0.3902439024390244
 40
0.3902439024390244
 40
0.3902439024390244
 40
0.4146341463414634
 40
0.4146341463414634
 40
0.4146341463414634
 40
0.4146341463414634
 40
0.4390243902439024
 40
0.4390243902439024
 40
0.4390243902439024
 40
0.4390243902439024
 40
0.4634146341463415
 40
0.4634146341463415
 40
0.4634146341463415
 40
0.4634146341463415
 40
0.4878048780487805
 40
0.4878048780487805
 40
0.4878048780487805
 40
0.4878048780487805
 40
0.5121951219512195
 40
0.5121951219512195
 40
0.5121951219512195
 40
0.5121951219512195
 40
0.5365853658536586
 40
0.5365853658536586
 40
0.5365853658536586
 40
0.5365853658536586
 40
0.5609756097560976
 40
0.5609756097560976
 40
0.5609756097560976
 40
0.5609756097560976
 40
0.5853658536585366
 40
0.5853658536585366
 40
0.5853658536585366
 40
0.5853658536585366
 40
0.6097560975609756
 40
0.6097560975609756
 40
0.6097560975609756
 40
0.6097560975609756
 40
0.6341463414634146
 40
0.6341463414634146
 40
0.6341463414634146
 40
0.6341463414634146
 40
0.6585365853658537
 40
0.6585365853658537
 40
0.6585365853658537
 40
0.6585365853658537
 40
0.6829268292682927
 40
0.6829268292682927
 40
0.6829268292682927
 40
0.6829268292682927
 40
0.7073170731707317
 40
0.7073170731707317
 40
0.7073170731707317
 40
0.7073170731707317
 40
0.7317073170731707
 40
0.7317073170731707
 40
0.7317073170731707
 40
0.7317073170731707
 40
0.7560975609756098
 40
0.7560975609756098
 40
0.7560975609756098
 40
0.7560975609756098
 40
0.7804878048780488
 40
0.7804878048780488
 40
0.7804878048780488
 40
0.7804878048780488
 40
0.8048780487804879
 40
0.8048780487804879
 40
0.8048780487804879
 40
0.8048780487804879
 40
0.8292682926829268
 40
0.8292682926829268
 40
0.8292682926829268
 40
0.8292682926829268
 40
0.8536585365853658
 40
0.8536585365853658
 40
0.8536585365853658
 40
0.8536585365853658
 40
0.8780487804878049
 40
0.8780487804878049
 40
0.8780487804878049
 40
0.8780487804878049
 40
0.9024390243902439
 40
0.9024390243902439
 40
0.9024390243902439
 40
0.9024390243902439
 40
0.926829268292683
 40
0.926829268292683
 40
0.926829268292683
 40
0.926829268292683
 40
0.9512195121951219
 40
0.9512195121951219
 40
0.9512195121951219
 40
0.9512195121951219
 40
1.0
 40
1.0
 40
1.0
 40
1.0
 10
134.0584
 20
102.2523
 30
0.0
 10
134.0584
 20
102.2523
 30
0.0
 10
134.1642
 20
102.4155
 30
0.0
 10
134.1642
 20
102.4155
 30
0.0
 10
134.1642
 20
102.4155
 30
0.0
 10
134.1642
 20
102.4155
 30
0.0
 10
134.7619
 20
103.2557
 30
0.0
 10
134.7619
 20
103.2557
 30
0.0
 10
134.7619
 20
103.2557
 30
0.0
 10
134.7619
 20
103.2557
 30
0.0
 10
135.397
 20
104.0653
 30
0.0
 10
135.397
 20
104.0653
 30
0.0
 10
135.397
 20
104.0653
 30
0.0
 10
135.397
 20
104.0653
 30
0.0
 10
136.0717
 20
104.8438
 30
0.0
 10
136.0717
 20
104.8438
 30
0.0
 10
136.0717
 20
104.8438
 30
0.0
 10
136.0717
 20
104.8438
 30
0.0
 10
136.7796
 20
105.5867
 30
0.0
 10
136.7796
 20
105.5867
 30
0.0
 10
136.7796
 20
105.5867
 30
0.0
 10
136.7796
 20
105.5867
 30
0.0
 10
137.5251
 20
106.2969
 30
0.0
 10
137.5251
 20
106.2969
 30
0.0
 10
137.5251
 20
106.2969
 30
0.0
 10
137.5251
 20
106.2969
 30
0.0
 10
138.3014
 20
106.9696
 30
0.0
 10
138.3014
 20
106.9696
 30
0.0
 10
138.3014
 20
106.9696
 30
0.0
 10
138.3014
 20
106.9696
 30
0.0
 10
139.1108
 20
107.607
 30
0.0
 10
139.1108
 20
107.607
 30
0.0
 10
139.1108
 20
107.607
 30
0.0
 10
139.1108
 20
107.607
 30
0.0
 10
139.9513
 20
108.2047
 30
0.0
 10
139.9513
 20
108.2047
 30
0.0
 10
139.9513
 20
108.2047
 30
0.0
 10
139.9513
 20
108.2047
 30
0.0
 10
140.1144
 20
108.3083
 30
0.0
 10
140.1144
 20
108.3083
 30
0.0
 10
140.1144
 20
108.3083
 30
0.0
 10
140.1144
 20
108.3083
 30
0.0
 10
139.9513
 20
108.412
 30
0.0
 10
139.9513
 20
108.412
 30
0.0
 10
139.9513
 20
108.412
 30
0.0
 10
139.9513
 20
108.412
 30
0.0
 10
139.1108
 20
109.0099
 30
0.0
 10
139.1108
 20
109.0099
 30
0.0
 10
139.1108
 20
109.0099
 30
0.0
 10
139.1108
 20
109.0099
 30
0.0
 10
138.3014
 20
109.6469
 30
0.0
 10
138.3014
 20
109.6469
 30
0.0
 10
138.3014
 20
109.6469
 30
0.0
 10
138.3014
 20
109.6469
 30
0.0
 10
137.5251
 20
110.3196
 30
0.0
 10
137.5251
 20
110.3196
 30
0.0
 10
137.5251
 20
110.3196
 30
0.0
 10
137.5251
 20
110.3196
 30
0.0
 10
136.7796
 20
111.0298
 30
0.0
 10
136.7796
 20
111.0298
 30
0.0
 10
136.7796
 20
111.0298
 30
0.0
 10
136.7796
 20
111.0298
 30
0.0
 10
136.0697
 20
111.7752
 30
0.0
 10
136.0697
 20
111.7752
 30
0.0
 10
136.0697
 20
111.7752
 30
0.0
 10
136.0697
 20
111.7752
 30
0.0
 10
135.397
 20
112.5516
 30
0.0
 10
135.397
 20
112.5516
 30
0.0
 10
135.397
 20
112.5516
 30
0.0
 10
135.397
 20
112.5516
 30
0.0
 10
134.7619
 20
113.361
 30
0.0
 10
134.7619
 20
113.361
 30
0.0
 10
134.7619
 20
113.361
 30
0.0
 10
134.7619
 20
113.361
 30
0.0
 10
134.1642
 20
114.2012
 30
0.0
 10
134.1642
 20
114.2012
 30
0.0
 10
134.1642
 20
114.2012
 30
0.0
 10
134.1642
 20
114.2012
 30
0.0
 10
134.0584
 20
114.3645
 30
0.0
 10
134.0584
 20
114.3645
 30
0.0
 10
134.0584
 20
114.3645
 30
0.0
 10
134.0584
 20
114.3645
 30
0.0
 10
133.9545
 20
114.2012
 30
0.0
 10
133.9545
 20
114.2012
 30
0.0
 10
133.9545
 20
114.2012
 30
0.0
 10
133.9545
 20
114.2012
 30
0.0
 10
133.3571
 20
113.361
 30
0.0
 10
133.3571
 20
113.361
 30
0.0
 10
133.3571
 20
113.361
 30
0.0
 10
133.3571
 20
113.361
 30
0.0
 10
132.7197
 20
112.5516
 30
0.0
 10
132.7197
 20
112.5516
 30
0.0
 10
132.7197
 20
112.5516
 30
0.0
 10
132.7197
 20
112.5516
 30
0.0
 10
132.047
 20
111.7752
 30
0.0
 10
132.047
 20
111.7752
 30
0.0
 10
132.047
 20
111.7752
 30
0.0
 10
132.047
 20
111.7752
 30
0.0
 10
131.3369
 20
111.0298
 30
0.0
 10
131.3369
 20
111.0298
 30
0.0
 10
131.3369
 20
111.0298
 30
0.0
 10
131.3369
 20
111.0298
 30
0.0
 10
130.5937
 20
110.3196
 30
0.0
 10
130.5937
 20
110.3196
 30
0.0
 10
130.5937
 20
110.3196
 30
0.0
 10
130.5937
 20
110.3196
 30
0.0
 10
129.8151
 20
109.6469
 30
0.0
 10
129.8151
 20
109.6469
 30
0.0
 10
129.8151
 20
109.6469
 30
0.0
 10
129.8151
 20
109.6469
 30
0.0
 10
129.0058
 20
109.0099
 30
0.0
 10
129.0058
 20
109.0099
 30
0.0
 10
129.0058
 20
109.0099
 30
0.0
 10
129.0058
 20
109.0099
 30
0.0
 10
128.1656
 20
108.412
 30
0.0
 10
128.1656
 20
108.412
 30
0.0
 10
128.1656
 20
108.412
 30
0.0
 10
128.1656
 20
108.412
 30
0.0
 10
128.0022
 20
108.3083
 30
0.0
 10
128.0022
 20
108.3083
 30
0.0
 10
128.0022
 20
108.3083
 30
0.0
 10
128.0022
 20
108.3083
 30
0.0
 10
128.1656
 20
108.2047
 30
0.0
 10
128.1656
 20
108.2047
 30
0.0
 10
128.1656
 20
108.2047
 30
0.0
 10
128.1656
 20
108.2047
 30
0.0
 10
129.0058
 20
107.607
 30
0.0
 10
129.0058
 20
107.607
 30
0.0
 10
129.0058
 20
107.607
 30
0.0
 10
129.0058
 20
107.607
 30
0.0
 10
129.8151
 20
106.9696
 30
0.0
 10
129.8151
 20
106.9696
 30
0.0
 10
129.8151
 20
106.9696
 30
0.0
 10
129.8151
 20
106.9696
 30
0.0
 10
130.5937
 20
106.2969
 30
0.0
 10
130.5937
 20
106.2969
 30
0.0
 10
130.5937
 20
106.2969
 30
0.0
 10
130.5937
 20
106.2969
 30
0.0
 10
131.3369
 20
105.5867
 30
0.0
 10
131.3369
 20
105.5867
 30
0.0
 10
131.3369
 20
105.5867
 30
0.0
 10
131.3369
 20
105.5867
 30
0.0
 10
132.047
 20
104.8438
 30
0.0
 10
132.047
 20
104.8438
 30
0.0
 10
132.047
 20
104.8438
 30
0.0
 10
132.047
 20
104.8438
 30
0.0
 10
132.7197
 20
104.0653
 30
0.0
 10
132.7197
 20
104.0653
 30
0.0
 10
132.7197
 20
104.0653
 30
0.0
 10
132.7197
 20
104.0653
 30
0.0
 10
133.3571
 20
103.2557
 30
0.0
 10
133.3571
 20
103.2557
 30
0.0
 10
133.3571
 20
103.2557
 30
0.0
 10
133.3571
 20
103.2557
 30
0.0
 10
133.9545
 20
102.4155
 30
0.0
 10
133.9545
 20
102.4155
 30
0.0
 10
133.9545
 20
102.4155
 30
0.0
 10
133.9545
 20
102.4155
 30
0.0
 10
134.0584
 20
102.2523
 30
0.0
 10
134.0584
 20
102.2523
 30
0.0
  0
SPLINE
  5
4B
330
1F
100
AcDbEntity
  8
layer 1
 62
     7
100
AcDbSpline
210
0.0
220
0.0
230
1.0
 70
    11
 71
     3
 72
    12
 73
     8
 74
     0
 42
0.0000000001
 43
0.0000000001
 12
1.0
 22
0.0
 32
0.0
 13
1.0
 23
0.0
 33
0.0
 40
0.0
 40
0.0
 40
0.0
 40
0.0
 40
0.3333333333333333
 40
0.3333333333333333
 40
0.3333333333333333
 40
0.3333333333333333
 40
1.0
 40
1.0
 40
1.0
 40
1.0
 10
170.9789
 20
91.3752
 30
0.0
 10
162.1818
 20
91.7348
 30
0.0
 10
155.1094
 20
98.8057
 30
0.0
 10
154.7499
 20
107.6045
 30
0.0
 10
154.7499
 20
107.6045
 30
0.0
 10
163.4937
 20
107.1263
 30
0.0
 10
170.4999
 20
100.1182
 30
0.0
 10
170.9789
 20
91.3752
 30
0.0
  0
SPLINE
  5
4C
330
1F
100
AcDbEntity
  8
layer 1
 62
     7
100
AcDbSpline
210
0.0
220
0.0
230
1.0
 70
    11
 71
     3
 72
    16
 73
    12
 74
     0
 42
0.0000000001
 43
0.0000000001
 12
1.0
 22
0.0
 32
0.0
 13
1.0
 23
0.0
 33
0.0
 40
0.0
 40
0.0
 40
0.0
 40
0.0
 40
0.25
 40
0.25
 40
0.25
 40
0.25
 40
0.5
 40
0.5
 40
0.5
 40
0.5
 40
1.0
 40
1.0
 40
1.0
 40
1.0
 10
188.6158
 20
107.6048
 30
0.0
 10
188.2562
 20
98.8076
 30
0.0
 10
181.1842
 20
91.7348
 30
0.0
 10
172.3851
 20
91.3752
 30
0.0
 10
172.3851
 20
91.3752
 30
0.0
 10
172.8647
 20
100.1196
 30
0.0
 10
179.8711
 20
107.1252
 30
0.0
 10
188.6146
 20
107.6045
 30
0.0
 10
188.6146
 20
107.6045
 30
0.0
 10
188.6146
 20
107.6045
 30
0.0
 10
188.6158
 20
107.6048
 30
0.0
 10
188.6158
 20
107.6048
 30
0.0
  0
SPLINE
  5
4D
330
1F
100
AcDbEntity
  8
layer 1
 62
     7
100
AcDbSpline
210
0.0
220
0.0
230
1.0
 70
    11
 71
     3
 72
    16
 73
    12
 74
     0
 42
0.0000000001
 43
0.0000000001
 12
1.0
 22
0.0
 32
0.0
 13
1.0
 23
0.0
 33
0.0
 40
0.0
 40
0.0
 40
0.0
 40
0.0
 40
0.25
 40
0.25
 40
0.25
 40
0.25
 40
0.5
 40
0.5
 40
0.5
 40
0.5
 40
1.0
 40
1.0
 40
1.0
 40
1.0
 10
172.386
 20
125.2394
 30
0.0
 10
181.1856
 20
124.8821
 30
0.0
 10
188.2551
 20
117.8095
 30
0.0
 10
188.6146
 20
109.0107
 30
0.0
 10
188.6146
 20
109.0107
 30
0.0
 10
179.8711
 20
109.4905
 30
0.0
 10
172.8647
 20
116.4967
 30
0.0
 10
172.3851
 20
125.2394
 30
0.0
 10
172.3851
 20
125.2394
 30
0.0
 10
172.3851
 20
125.2394
 30
0.0
 10
172.386
 20
125.2394
 30
0.0
 10
172.386
 20
125.2394
 30
0.0
  0
SPLINE
  5
4E
330
1F
100
AcDbEntity
  8
layer 1
 62
     7
100
AcDbSpline
210
0.0
220
0.0
230
1.0
 70
    11
 71
     3
 72
    16
 73
    12
 74
     0
 42
0.0000000001
 43
0.0000000001
 12
1.0
 22
0.0
 32
0.0
 13
1.0
 23
0.0
 33
0.0
 40
0.0
 40
0.0
 40
0.0
 40
0.0
 40
0.25
 40
0.25
 40
0.25
 40
0.25
 40
0.5
 40
0.5
 40
0.5
 40
0.5
 40
1.0
 40
1.0
 40
1.0
 40
1.0
 10
154.7515
 20
109.0118
 30
0.0
 10
155.1111
 20
117.8115
 30
0.0
 10
162.18
 20
124.8805
 30
0.0
 10
170.9789
 20
125.2394
 30
0.0
 10
170.9789
 20
125.2394
 30
0.0
 10
170.5005
 20
116.497
 30
0.0
 10
163.4932
 20
109.4899
 30
0.0
 10
154.7499
 20
109.0107
 30
0.0
 10
154.7499
 20
109.0107
 30
0.0
 10
154.7499
 20
109.0107
 30
0.0
 10
154.7515
 20
109.0118
 30
0.0
 10
154.7515
 20
109.0118
 30
0.0
  0
SPLINE
  5
4F
330
1F
100
AcDbEntity
  8
layer 1
 62
     7
100
AcDbSpline
210
0.0
220
0.0
230
1.0
 70
    11
 71
     3
 72
   164
 73
   160
 74
     0
 42
0.0000000001
 43
0.0000000001
 12
1.0
 22
0.0
 32
0.0
 13
1.0
 23
0.0
 33
0.0
 40
0.0
 40
0.0
 40
0.0
 40
0.0
 40
0.024390243902439
 40
0.024390243902439
 40
0.024390243902439
 40
0.024390243902439
 40
0.0487804878048781
 40
0.0487804878048781
 40
0.0487804878048781
 40
0.0487804878048781
 40
0.0731707317073171
 40
0.0731707317073171
 40
0.0731707317073171
 40
0.0731707317073171
 40
0.0975609756097561
 40
0.0975609756097561
 40
0.0975609756097561
 40
0.0975609756097561
 40
0.1219512195121951
 40
0.1219512195121951
 40
0.1219512195121951
 40
0.1219512195121951
 40
0.1463414634146341
 40
0.1463414634146341
 40
0.1463414634146341
 40
0.1463414634146341
 40
0.1707317073170732
 40
0.1707317073170732
 40
0.1707317073170732
 40
0.1707317073170732
 40
0.1951219512195122
 40
0.1951219512195122
 40
0.1951219512195122
 40
0.1951219512195122
 40
0.2195121951219512
 40
0.2195121951219512
 40
0.2195121951219512
 40
0.2195121951219512
 40
0.2439024390243902
 40
0.2439024390243902
 40
0.2439024390243902
 40
0.2439024390243902
 40
0.2682926829268293
 40
0.2682926829268293
 40
0.2682926829268293
 40
0.2682926829268293
 40
0.2926829268292683
 40
0.2926829268292683
 40
0.2926829268292683
 40
0.2926829268292683
 40
0.3170731707317073
 40
0.3170731707317073
 40
0.3170731707317073
 40
0.3170731707317073
 40
0.3414634146341464
 40
0.3414634146341464
 40
0.3414634146341464
 40
0.3414634146341464
 40
0.3658536585365854
 40
0.3658536585365854
 40
0.3658536585365854
 40
0.3658536585365854
 40
0.3902439024390244
 40
0.3902439024390244
 40
0.3902439024390244
 40
0.3902439024390244
 40
0.4146341463414634
 40
0.4146341463414634
 40
0.4146341463414634
 40
0.4146341463414634
 40
0.4390243902439024
 40
0.4390243902439024
 40
0.4390243902439024
 40
0.4390243902439024
 40
0.4634146341463415
 40
0.4634146341463415
 40
0.4634146341463415
 40
0.4634146341463415
 40
0.4878048780487805
 40
0.4878048780487805
 40
0.4878048780487805
 40
0.4878048780487805
 40
0.5121951219512195
 40
0.5121951219512195
 40
0.5121951219512195
 40
0.5121951219512195
 40
0.5365853658536586
 40
0.5365853658536586
 40
0.5365853658536586
 40
0.5365853658536586
 40
0.5609756097560976
 40
0.5609756097560976
 40
0.5609756097560976
 40
0.5609756097560976
 40
0.5853658536585366
 40
0.5853658536585366
 40
0.5853658536585366
 40
0.5853658536585366
 40
0.6097560975609756
 40
0.6097560975609756
 40
0.6097560975609756
 40
0.6097560975609756
 40
0.6341463414634146
 40
0.6341463414634146
 40
0.6341463414634146
 40
0.6341463414634146
 40
0.6585365853658537
 40
0.6585365853658537
 40
0.6585365853658537
 40
0.6585365853658537
 40
0.6829268292682927
 40
0.6829268292682927
 40
0.6829268292682927
 40
0.6829268292682927
 40
0.7073170731707317
 40
0.7073170731707317
 40
0.7073170731707317
 40
0.7073170731707317
 40
0.7317073170731707
 40
0.7317073170731707
 40
0.7317073170731707
 40
0.7317073170731707
 40
0.7560975609756098
 40
0.7560975609756098
 40
0.7560975609756098
 40
0.7560975609756098
 40
0.7804878048780488
 40
0.7804878048780488
 40
0.7804878048780488
 40
0.7804878048780488
 40
0.8048780487804879
 40
0.8048780487804879
 40
0.8048780487804879
 40
0.8048780487804879
 40
0.8292682926829268
 40
0.8292682926829268
 40
0.8292682926829268
 40
0.8292682926829268
 40
0.8536585365853658
 40
0.8536585365853658
 40
0.8536585365853658
 40
0.8536585365853658
 40
0.8780487804878049
 40
0.8780487804878049
 40
0.8780487804878049
 40
0.8780487804878049
 40
0.9024390243902439
 40
0.9024390243902439
 40
0.9024390243902439
 40
0.9024390243902439
 40
0.926829268292683
 40
0.926829268292683
 40
0.926829268292683
 40
0.926829268292683
 40
0.9512195121951219
 40
0.9512195121951219
 40
0.9512195121951219
 40
0.9512195121951219
 40
1.0
 40
1.0
 40
1.0
 40
1.0
 10
171.6825
 20
102.2523
 30
0.0
 10
171.6825
 20
102.2523
 30
0.0
 10
171.7883
 20
102.4155
 30
0.0
 10
171.7883
 20
102.4155
 30
0.0
 10
171.7883
 20
102.4155
 30
0.0
 10
171.7883
 20
102.4155
 30
0.0
 10
172.386
 20
103.2557
 30
0.0
 10
172.386
 20
103.2557
 30
0.0
 10
172.386
 20
103.2557
 30
0.0
 10
172.386
 20
103.2557
 30
0.0
 10
173.0211
 20
104.0653
 30
0.0
 10
173.0211
 20
104.0653
 30
0.0
 10
173.0211
 20
104.0653
 30
0.0
 10
173.0211
 20
104.0653
 30
0.0
 10
173.696
 20
104.8438
 30
0.0
 10
173.696
 20
104.8438
 30
0.0
 10
173.696
 20
104.8438
 30
0.0
 10
173.696
 20
104.8438
 30
0.0
 10
174.4039
 20
105.5867
 30
0.0
 10
174.4039
 20
105.5867
 30
0.0
 10
174.4039
 20
105.5867
 30
0.0
 10
174.4039
 20
105.5867
 30
0.0
 10
175.1494
 20
106.2969
 30
0.0
 10
175.1494
 20
106.2969
 30
0.0
 10
175.1494
 20
106.2969
 30
0.0
 10
175.1494
 20
106.2969
 30
0.0
 10
175.9257
 20
106.9696
 30
0.0
 10
175.9257
 20
106.9696
 30
0.0
 10
175.9257
 20
106.9696
 30
0.0
 10
175.9257
 20
106.9696
 30
0.0
 10
176.7351
 20
107.607
 30
0.0
 10
176.7351
 20
107.607
 30
0.0
 10
176.7351
 20
107.607
 30
0.0
 10
176.7351
 20
107.607
 30
0.0
 10
177.5775
 20
108.2047
 30
0.0
 10
177.5775
 20
108.2047
 30
0.0
 10
177.5775
 20
108.2047
 30
0.0
 10
177.5775
 20
108.2047
 30
0.0
 10
177.7386
 20
108.3083
 30
0.0
 10
177.7386
 20
108.3083
 30
0.0
 10
177.7386
 20
108.3083
 30
0.0
 10
177.7386
 20
108.3083
 30
0.0
 10
177.5775
 20
108.412
 30
0.0
 10
177.5775
 20
108.412
 30
0.0
 10
177.5775
 20
108.412
 30
0.0
 10
177.5775
 20
108.412
 30
0.0
 10
176.7351
 20
109.0099
 30
0.0
 10
176.7351
 20
109.0099
 30
0.0
 10
176.7351
 20
109.0099
 30
0.0
 10
176.7351
 20
109.0099
 30
0.0
 10
175.9257
 20
109.6469
 30
0.0
 10
175.9257
 20
109.6469
 30
0.0
 10
175.9257
 20
109.6469
 30
0.0
 10
175.9257
 20
109.6469
 30
0.0
 10
175.1494
 20
110.3196
 30
0.0
 10
175.1494
 20
110.3196
 30
0.0
 10
175.1494
 20
110.3196
 30
0.0
 10
175.1494
 20
110.3196
 30
0.0
 10
174.4039
 20
111.0298
 30
0.0
 10
174.4039
 20
111.0298
 30
0.0
 10
174.4039
 20
111.0298
 30
0.0
 10
174.4039
 20
111.0298
 30
0.0
 10
173.696
 20
111.7752
 30
0.0
 10
173.696
 20
111.7752
 30
0.0
 10
173.696
 20
111.7752
 30
0.0
 10
173.696
 20
111.7752
 30
0.0
 10
173.0211
 20
112.5516
 30
0.0
 10
173.0211
 20
112.5516
 30
0.0
 10
173.0211
 20
112.5516
 30
0.0
 10
173.0211
 20
112.5516
 30
0.0
 10
172.386
 20
113.361
 30
0.0
 10
172.386
 20
113.361
 30
0.0
 10
172.386
 20
113.361
 30
0.0
 10
172.386
 20
113.361
 30
0.0
 10
171.7883
 20
114.2012
 30
0.0
 10
171.7883
 20
114.2012
 30
0.0
 10
171.7883
 20
114.2012
 30
0.0
 10
171.7883
 20
114.2012
 30
0.0
 10
171.6825
 20
114.3645
 30
0.0
 10
171.6825
 20
114.3645
 30
0.0
 10
171.6825
 20
114.3645
 30
0.0
 10
171.6825
 20
114.3645
 30
0.0
 10
171.5788
 20
114.2012
 30
0.0
 10
171.5788
 20
114.2012
 30
0.0
 10
171.5788
 20
114.2012
 30
0.0
 10
171.5788
 20
114.2012
 30
0.0
 10
170.9811
 20
113.361
 30
0.0
 10
170.9811
 20
113.361
 30
0.0
 10
170.9811
 20
113.361
 30
0.0
 10
170.9811
 20
113.361
 30
0.0
 10
170.3438
 20
112.5516
 30
0.0
 10
170.3438
 20
112.5516
 30
0.0
 10
170.3438
 20
112.5516
 30
0.0
 10
170.3438
 20
112.5516
 30
0.0
 10
169.6711
 20
111.7752
 30
0.0
 10
169.6711
 20
111.7752
 30
0.0
 10
169.6711
 20
111.7752
 30
0.0
 10
169.6711
 20
111.7752
 30
0.0
 10
168.9609
 20
111.0298
 30
0.0
 10
168.9609
 20
111.0298
 30
0.0
 10
168.9609
 20
111.0298
 30
0.0
 10
168.9609
 20
111.0298
 30
0.0
 10
168.2179
 20
110.3196
 30
0.0
 10
168.2179
 20
110.3196
 30
0.0
 10
168.2179
 20
110.3196
 30
0.0
 10
168.2179
 20
110.3196
 30
0.0
 10
167.4417
 20
109.6469
 30
0.0
 10
167.4417
 20
109.6469
 30
0.0
 10
167.4417
 20
109.6469
 30
0.0
 10
167.4417
 20
109.6469
 30
0.0
 10
166.6298
 20
109.0099
 30
0.0
 10
166.6298
 20
109.0099
 30
0.0
 10
166.6298
 20
109.0099
 30
0.0
 10
166.6298
 20
109.0099
 30
0.0
 10
165.7896
 20
108.412
 30
0.0
 10
165.7896
 20
108.412
 30
0.0
 10
165.7896
 20
108.412
 30
0.0
 10
165.7896
 20
108.412
 30
0.0
 10
165.6264
 20
108.3083
 30
0.0
 10
165.6264
 20
108.3083
 30
0.0
 10
165.6264
 20
108.3083
 30
0.0
 10
165.6264
 20
108.3083
 30
0.0
 10
165.7896
 20
108.2047
 30
0.0
 10
165.7896
 20
108.2047
 30
0.0
 10
165.7896
 20
108.2047
 30
0.0
 10
165.7896
 20
108.2047
 30
0.0
 10
166.6298
 20
107.607
 30
0.0
 10
166.6298
 20
107.607
 30
0.0
 10
166.6298
 20
107.607
 30
0.0
 10
166.6298
 20
107.607
 30
0.0
 10
167.4417
 20
106.9696
 30
0.0
 10
167.4417
 20
106.9696
 30
0.0
 10
167.4417
 20
106.9696
 30
0.0
 10
167.4417
 20
106.9696
 30
0.0
 10
168.2179
 20
106.2969
 30
0.0
 10
168.2179
 20
106.2969
 30
0.0
 10
168.2179
 20
106.2969
 30
0.0
 10
168.2179
 20
106.2969
 30
0.0
 10
168.9609
 20
105.5867
 30
0.0
 10
168.9609
 20
105.5867
 30
0.0
 10
168.9609
 20
105.5867
 30
0.0
 10
168.9609
 20
105.5867
 30
0.0
 10
169.6711
 20
104.8438
 30
0.0
 10
169.6711
 20
104.8438
 30
0.0
 10
169.6711
 20
104.8438
 30
0.0
 10
169.6711
 20
104.8438
 30
0.0
 10
170.3438
 20
104.0653
 30
0.0
 10
170.3438
 20
104.0653
 30
0.0
 10
170.3438
 20
104.0653
 30
0.0
 10
170.3438
 20
104.0653
 30
0.0
 10
170.9811
 20
103.2557
 30
0.0
 10
170.9811
 20
103.2557
 30
0.0
 10
170.9811
 20
103.2557
 30
0.0
 10
170.9811
 20
103.2557
 30
0.0
 10
171.5788
 20
102.4155
 30
0.0
 10
171.5788
 20
102.4155
 30
0.0
 10
171.5788
 20
102.4155
 30
0.0
 10
171.5788
 20
102.4155
 30
0.0
 10
171.6825
 20
102.2523
 30
0.0
 10
171.6825
 20
102.2523
 30
0.0
  0
SPLINE
  5
50
330
1F
100
AcDbEntity
  8
layer 1
 62
     7
100
AcDbSpline
210
0.0
220
0.0
230
1.0
 70
    11
 71
     3
 72
    16
 73
    12
 74
     0
 42
0.0000000001
 43
0.0000000001
 12
1.0
 22
0.0
 32
0.0
 13
1.0
 23
0.0
 33
0.0
 40
0.0
 40
0.0
 40
0.0
 40
0.0
 40
0.25
 40
0.25
 40
0.25
 40
0.25
 40
0.5
 40
0.5
 40
0.5
 40
0.5
 40
1.0
 40
1.0
 40
1.0
 40
1.0
 10
95.7306
 20
53.6343
 30
0.0
 10
86.931
 20
53.9938
 30
0.0
 10
79.8605
 20
61.0625
 30
0.0
 10
79.501
 20
69.8618
 30
0.0
 10
79.501
 20
69.8618
 30
0.0
 10
88.2454
 20
69.3828
 30
0.0
 10
95.2508
 20
62.3761
 30
0.0
 10
95.7301
 20
53.6331
 30
0.0
 10
95.7301
 20
53.6331
 30
0.0
 10
95.7301
 20
53.6331
 30
0.0
 10
95.7306
 20
53.6343
 30
0.0
 10
95.7306
 20
53.6343
 30
0.0
  0
SPLINE
  5
51
330
1F
100
AcDbEntity
  8
layer 1
 62
     7
100
AcDbSpline
210
0.0
220
0.0
230
1.0
 70
    11
 71
     3
 72
    16
 73
    12
 74
     0
 42
0.0000000001
 43
0.0000000001
 12
1.0
 22
0.0
 32
0.0
 13
1.0
 23
0.0
 33
0.0
 40
0.0
 40
0.0
 40
0.0
 40
0.0
 40
0.25
 40
0.25
 40
0.25
 40
0.25
 40
0.5
 40
0.5
 40
0.5
 40
0.5
 40
1.0
 40
1.0
 40
1.0
 40
1.0
 10
113.3672
 20
69.8638
 30
0.0
 10
113.0077
 20
61.0641
 30
0.0
 10
105.9354
 20
53.9924
 30
0.0
 10
97.1363
 20
53.6331
 30
0.0
 10
97.1363
 20
53.6331
 30
0.0
 10
97.6161
 20
62.3763
 30
0.0
 10
104.6226
 20
69.3828
 30
0.0
 10
113.3652
 20
69.8618
 30
0.0
 10
113.3652
 20
69.8618
 30
0.0
 10
113.3652
 20
69.8618
 30
0.0
 10
113.3672
 20
69.8638
 30
0.0
 10
113.3672
 20
69.8638
 30
0.0
  0
SPLINE
  5
52
330
1F
100
AcDbEntity
  8
layer 1
 62
     7
100
AcDbSpline
210
0.0
220
0.0
230
1.0
 70
    11
 71
     3
 72
    16
 73
    12
 74
     0
 42
0.0000000001
 43
0.0000000001
 12
1.0
 22
0.0
 32
0.0
 13
1.0
 23
0.0
 33
0.0
 40
0.0
 40
0.0
 40
0.0
 40
0.0
 40
0.25
 40
0.25
 40
0.25
 40
0.25
 40
0.5
 40
0.5
 40
0.5
 40
0.5
 40
1.0
 40
1.0
 40
1.0
 40
1.0
 10
97.1376
 20
87.4981
 30
0.0
 10
105.9371
 20
87.1386
 30
0.0
 10
113.006
 20
80.0674
 30
0.0
 10
113.3652
 20
71.268
 30
0.0
 10
113.3652
 20
71.268
 30
0.0
 10
104.6228
 20
71.7473
 30
0.0
 10
97.615
 20
78.7541
 30
0.0
 10
97.1363
 20
87.4971
 30
0.0
 10
97.1363
 20
87.4971
 30
0.0
 10
97.1363
 20
87.4971
 30
0.0
 10
97.1376
 20
87.4981
 30
0.0
 10
97.1376
 20
87.4981
 30
0.0
  0
SPLINE
  5
53
330
1F
100
AcDbEntity
  8
layer 1
 62
     7
100
AcDbSpline
210
0.0
220
0.0
230
1.0
 70
    11
 71
     3
 72
    16
 73
    12
 74
     0
 42
0.0000000001
 43
0.0000000001
 12
1.0
 22
0.0
 32
0.0
 13
1.0
 23
0.0
 33
0.0
 40
0.0
 40
0.0
 40
0.0
 40
0.0
 40
0.25
 40
0.25
 40
0.25
 40
0.25
 40
0.5
 40
0.5
 40
0.5
 40
0.5
 40
1.0
 40
1.0
 40
1.0
 40
1.0
 10
79.501
 20
71.2686
 30
0.0
 10
79.8605
 20
80.0683
 30
0.0
 10
86.931
 20
87.1378
 30
0.0
 10
95.7301
 20
87.4971
 30
0.0
 10
95.7301
 20
87.4971
 30
0.0
 10
95.2519
 20
78.756
 30
0.0
 10
88.244
 20
71.7473
 30
0.0
 10
79.501
 20
71.268
 30
0.0
 10
79.501
 20
71.268
 30
0.0
 10
79.501
 20
71.268
 30
0.0
 10
79.501
 20
71.2686
 30
0.0
 10
79.501
 20
71.2686
 30
0.0
  0
SPLINE
  5
54
330
1F
100
AcDbEntity
  8
layer 1
 62
     7
100
AcDbSpline
210
0.0
220
0.0
230
1.0
 70
    11
 71
     3
 72
    16
 73
    12
 74
     0
 42
0.0000000001
 43
0.0000000001
 12
1.0
 22
0.0
 32
0.0
 13
1.0
 23
0.0
 33
0.0
 40
0.0
 40
0.0
 40
0.0
 40
0.0
 40
0.25
 40
0.25
 40
0.25
 40
0.25
 40
0.5
 40
0.5
 40
0.5
 40
0.5
 40
1.0
 40
1.0
 40
1.0
 40
1.0
 10
133.3549
 20
53.6343
 30
0.0
 10
124.5575
 20
53.9938
 30
0.0
 10
117.4849
 20
61.0625
 30
0.0
 10
117.1257
 20
69.8618
 30
0.0
 10
117.1257
 20
69.8618
 30
0.0
 10
125.8697
 20
69.3828
 30
0.0
 10
132.8753
 20
62.3761
 30
0.0
 10
133.3543
 20
53.6331
 30
0.0
 10
133.3543
 20
53.6331
 30
0.0
 10
133.3543
 20
53.6331
 30
0.0
 10
133.3549
 20
53.6343
 30
0.0
 10
133.3549
 20
53.6343
 30
0.0
  0
SPLINE
  5
55
330
1F
100
AcDbEntity
  8
layer 1
 62
     7
100
AcDbSpline
210
0.0
220
0.0
230
1.0
 70
    11
 71
     3
 72
    16
 73
    12
 74
     0
 42
0.0000000001
 43
0.0000000001
 12
1.0
 22
0.0
 32
0.0
 13
1.0
 23
0.0
 33
0.0
 40
0.0
 40
0.0
 40
0.0
 40
0.0
 40
0.25
 40
0.25
 40
0.25
 40
0.25
 40
0.5
 40
0.5
 40
0.5
 40
0.5
 40
1.0
 40
1.0
 40
1.0
 40
1.0
 10
150.9914
 20
69.8638
 30
0.0
 10
150.6319
 20
61.0641
 30
0.0
 10
143.5599
 20
53.9924
 30
0.0
 10
134.7608
 20
53.6331
 30
0.0
 10
134.7608
 20
53.6331
 30
0.0
 10
135.2403
 20
62.3763
 30
0.0
 10
142.2466
 20
69.3828
 30
0.0
 10
150.9901
 20
69.8618
 30
0.0
 10
150.9901
 20
69.8618
 30
0.0
 10
150.9901
 20
69.8618
 30
0.0
 10
150.9914
 20
69.8638
 30
0.0
 10
150.9914
 20
69.8638
 30
0.0
  0
SPLINE
  5
56
330
1F
100
AcDbEntity
  8
layer 1
 62
     7
100
AcDbSpline
210
0.0
220
0.0
230
1.0
 70
    11
 71
     3
 72
    16
 73
    12
 74
     0
 42
0.0000000001
 43
0.0000000001
 12
1.0
 22
0.0
 32
0.0
 13
1.0
 23
0.0
 33
0.0
 40
0.0
 40
0.0
 40
0.0
 40
0.0
 40
0.25
 40
0.25
 40
0.25
 40
0.25
 40
0.5
 40
0.5
 40
0.5
 40
0.5
 40
1.0
 40
1.0
 40
1.0
 40
1.0
 10
134.7619
 20
87.4981
 30
0.0
 10
143.5613
 20
87.1386
 30
0.0
 10
150.6306
 20
80.0674
 30
0.0
 10
150.9901
 20
71.268
 30
0.0
 10
150.9901
 20
71.268
 30
0.0
 10
142.2471
 20
71.7473
 30
0.0
 10
135.2395
 20
78.7541
 30
0.0
 10
134.7608
 20
87.4971
 30
0.0
 10
134.7608
 20
87.4971
 30
0.0
 10
134.7608
 20
87.4971
 30
0.0
 10
134.7619
 20
87.4981
 30
0.0
 10
134.7619
 20
87.4981
 30
0.0
  0
SPLINE
  5
57
330
1F
100
AcDbEntity
  8
layer 1
 62
     7
100
AcDbSpline
210
0.0
220
0.0
230
1.0
 70
    11
 71
     3
 72
    16
 73
    12
 74
     0
 42
0.0000000001
 43
0.0000000001
 12
1.0
 22
0.0
 32
0.0
 13
1.0
 23
0.0
 33
0.0
 40
0.0
 40
0.0
 40
0.0
 40
0.0
 40
0.25
 40
0.25
 40
0.25
 40
0.25
 40
0.5
 40
0.5
 40
0.5
 40
0.5
 40
1.0
 40
1.0
 40
1.0
 40
1.0
 10
117.1273
 20
71.2686
 30
0.0
 10
117.4868
 20
80.0683
 30
0.0
 10
124.5555
 20
87.1378
 30
0.0
 10
133.3543
 20
87.4971
 30
0.0
 10
133.3543
 20
87.4971
 30
0.0
 10
132.8761
 20
78.756
 30
0.0
 10
125.8688
 20
71.7473
 30
0.0
 10
117.1257
 20
71.268
 30
0.0
 10
117.1257
 20
71.268
 30
0.0
 10
117.1257
 20
71.268
 30
0.0
 10
117.1273
 20
71.2686
 30
0.0
 10
117.1273
 20
71.2686
 30
0.0
  0
SPLINE
  5
58
330
1F
100
AcDbEntity
  8
layer 1
 62
     7
100
AcDbSpline
210
0.0
220
0.0
230
1.0
 70
    11
 71
     3
 72
   164
 73
   160
 74
     0
 42
0.0000000001
 43
0.0000000001
 12
1.0
 22
0.0
 32
0.0
 13
1.0
 23
0.0
 33
0.0
 40
0.0
 40
0.0
 40
0.0
 40
0.0
 40
0.024390243902439
 40
0.024390243902439
 40
0.024390243902439
 40
0.024390243902439
 40
0.0487804878048781
 40
0.0487804878048781
 40
0.0487804878048781
 40
0.0487804878048781
 40
0.0731707317073171
 40
0.0731707317073171
 40
0.0731707317073171
 40
0.0731707317073171
 40
0.0975609756097561
 40
0.0975609756097561
 40
0.0975609756097561
 40
0.0975609756097561
 40
0.1219512195121951
 40
0.1219512195121951
 40
0.1219512195121951
 40
0.1219512195121951
 40
0.1463414634146341
 40
0.1463414634146341
 40
0.1463414634146341
 40
0.1463414634146341
 40
0.1707317073170732
 40
0.1707317073170732
 40
0.1707317073170732
 40
0.1707317073170732
 40
0.1951219512195122
 40
0.1951219512195122
 40
0.1951219512195122
 40
0.1951219512195122
 40
0.2195121951219512
 40
0.2195121951219512
 40
0.2195121951219512
 40
0.2195121951219512
 40
0.2439024390243902
 40
0.2439024390243902
 40
0.2439024390243902
 40
0.2439024390243902
 40
0.2682926829268293
 40
0.2682926829268293
 40
0.2682926829268293
 40
0.2682926829268293
 40
0.2926829268292683
 40
0.2926829268292683
 40
0.2926829268292683
 40
0.2926829268292683
 40
0.3170731707317073
 40
0.3170731707317073
 40
0.3170731707317073
 40
0.3170731707317073
 40
0.3414634146341464
 40
0.3414634146341464
 40
0.3414634146341464
 40
0.3414634146341464
 40
0.3658536585365854
 40
0.3658536585365854
 40
0.3658536585365854
 40
0.3658536585365854
 40
0.3902439024390244
 40
0.3902439024390244
 40
0.3902439024390244
 40
0.3902439024390244
 40
0.4146341463414634
 40
0.4146341463414634
 40
0.4146341463414634
 40
0.4146341463414634
 40
0.4390243902439024
 40
0.4390243902439024
 40
0.4390243902439024
 40
0.4390243902439024
 40
0.4634146341463415
 40
0.4634146341463415
 40
0.4634146341463415
 40
0.4634146341463415
 40
0.4878048780487805
 40
0.4878048780487805
 40
0.4878048780487805
 40
0.4878048780487805
 40
0.5121951219512195
 40
0.5121951219512195
 40
0.5121951219512195
 40
0.5121951219512195
 40
0.5365853658536586
 40
0.5365853658536586
 40
0.5365853658536586
 40
0.5365853658536586
 40
0.5609756097560976
 40
0.5609756097560976
 40
0.5609756097560976
 40
0.5609756097560976
 40
0.5853658536585366
 40
0.5853658536585366
 40
0.5853658536585366
 40
0.5853658536585366
 40
0.6097560975609756
 40
0.6097560975609756
 40
0.6097560975609756
 40
0.6097560975609756
 40
0.6341463414634146
 40
0.6341463414634146
 40
0.6341463414634146
 40
0.6341463414634146
 40
0.6585365853658537
 40
0.6585365853658537
 40
0.6585365853658537
 40
0.6585365853658537
 40
0.6829268292682927
 40
0.6829268292682927
 40
0.6829268292682927
 40
0.6829268292682927
 40
0.7073170731707317
 40
0.7073170731707317
 40
0.7073170731707317
 40
0.7073170731707317
 40
0.7317073170731707
 40
0.7317073170731707
 40
0.7317073170731707
 40
0.7317073170731707
 40
0.7560975609756098
 40
0.7560975609756098
 40
0.7560975609756098
 40
0.7560975609756098
 40
0.7804878048780488
 40
0.7804878048780488
 40
0.7804878048780488
 40
0.7804878048780488
 40
0.8048780487804879
 40
0.8048780487804879
 40
0.8048780487804879
 40
0.8048780487804879
 40
0.8292682926829268
 40
0.8292682926829268
 40
0.8292682926829268
 40
0.8292682926829268
 40
0.8536585365853658
 40
0.8536585365853658
 40
0.8536585365853658
 40
0.8536585365853658
 40
0.8780487804878049
 40
0.8780487804878049
 40
0.8780487804878049
 40
0.8780487804878049
 40
0.9024390243902439
 40
0.9024390243902439
 40
0.9024390243902439
 40
0.9024390243902439
 40
0.926829268292683
 40
0.926829268292683
 40
0.926829268292683
 40
0.926829268292683
 40
0.9512195121951219
 40
0.9512195121951219
 40
0.9512195121951219
 40
0.9512195121951219
 40
1.0
 40
1.0
 40
1.0
 40
1.0
 10
134.0584
 20
64.5091
 30
0.0
 10
134.0584
 20
64.5091
 30
0.0
 10
134.1642
 20
64.6723
 30
0.0
 10
134.1642
 20
64.6723
 30
0.0
 10
134.1642
 20
64.6723
 30
0.0
 10
134.1642
 20
64.6723
 30
0.0
 10
134.7619
 20
65.5146
 30
0.0
 10
134.7619
 20
65.5146
 30
0.0
 10
134.7619
 20
65.5146
 30
0.0
 10
134.7619
 20
65.5146
 30
0.0
 10
135.397
 20
66.3218
 30
0.0
 10
135.397
 20
66.3218
 30
0.0
 10
135.397
 20
66.3218
 30
0.0
 10
135.397
 20
66.3218
 30
0.0
 10
136.0717
 20
67.1004
 30
0.0
 10
136.0717
 20
67.1004
 30
0.0
 10
136.0717
 20
67.1004
 30
0.0
 10
136.0717
 20
67.1004
 30
0.0
 10
136.7796
 20
67.8435
 30
0.0
 10
136.7796
 20
67.8435
 30
0.0
 10
136.7796
 20
67.8435
 30
0.0
 10
136.7796
 20
67.8435
 30
0.0
 10
137.5251
 20
68.5537
 30
0.0
 10
137.5251
 20
68.5537
 30
0.0
 10
137.5251
 20
68.5537
 30
0.0
 10
137.5251
 20
68.5537
 30
0.0
 10
138.3014
 20
69.2287
 30
0.0
 10
138.3014
 20
69.2287
 30
0.0
 10
138.3014
 20
69.2287
 30
0.0
 10
138.3014
 20
69.2287
 30
0.0
 10
139.1108
 20
69.8638
 30
0.0
 10
139.1108
 20
69.8638
 30
0.0
 10
139.1108
 20
69.8638
 30
0.0
 10
139.1108
 20
69.8638
 30
0.0
 10
139.9513
 20
70.4615
 30
0.0
 10
139.9513
 20
70.4615
 30
0.0
 10
139.9513
 20
70.4615
 30
0.0
 10
139.9513
 20
70.4615
 30
0.0
 10
140.1144
 20
70.5651
 30
0.0
 10
140.1144
 20
70.5651
 30
0.0
 10
140.1144
 20
70.5651
 30
0.0
 10
140.1144
 20
70.5651
 30
0.0
 10
139.9513
 20
70.6709
 30
0.0
 10
139.9513
 20
70.6709
 30
0.0
 10
139.9513
 20
70.6709
 30
0.0
 10
139.9513
 20
70.6709
 30
0.0
 10
139.1108
 20
71.2686
 30
0.0
 10
139.1108
 20
71.2686
 30
0.0
 10
139.1108
 20
71.2686
 30
0.0
 10
139.1108
 20
71.2686
 30
0.0
 10
138.3014
 20
71.9037
 30
0.0
 10
138.3014
 20
71.9037
 30
0.0
 10
138.3014
 20
71.9037
 30
0.0
 10
138.3014
 20
71.9037
 30
0.0
 10
137.5251
 20
72.5787
 30
0.0
 10
137.5251
 20
72.5787
 30
0.0
 10
137.5251
 20
72.5787
 30
0.0
 10
137.5251
 20
72.5787
 30
0.0
 10
136.7796
 20
73.2866
 30
0.0
 10
136.7796
 20
73.2866
 30
0.0
 10
136.7796
 20
73.2866
 30
0.0
 10
136.7796
 20
73.2866
 30
0.0
 10
136.0697
 20
74.032
 30
0.0
 10
136.0697
 20
74.032
 30
0.0
 10
136.0697
 20
74.032
 30
0.0
 10
136.0697
 20
74.032
 30
0.0
 10
135.397
 20
74.8084
 30
0.0
 10
135.397
 20
74.8084
 30
0.0
 10
135.397
 20
74.8084
 30
0.0
 10
135.397
 20
74.8084
 30
0.0
 10
134.7619
 20
75.6199
 30
0.0
 10
134.7619
 20
75.6199
 30
0.0
 10
134.7619
 20
75.6199
 30
0.0
 10
134.7619
 20
75.6199
 30
0.0
 10
134.1642
 20
76.4601
 30
0.0
 10
134.1642
 20
76.4601
 30
0.0
 10
134.1642
 20
76.4601
 30
0.0
 10
134.1642
 20
76.4601
 30
0.0
 10
134.0584
 20
76.621
 30
0.0
 10
134.0584
 20
76.621
 30
0.0
 10
134.0584
 20
76.621
 30
0.0
 10
134.0584
 20
76.621
 30
0.0
 10
133.9545
 20
76.4601
 30
0.0
 10
133.9545
 20
76.4601
 30
0.0
 10
133.9545
 20
76.4601
 30
0.0
 10
133.9545
 20
76.4601
 30
0.0
 10
133.3571
 20
75.6199
 30
0.0
 10
133.3571
 20
75.6199
 30
0.0
 10
133.3571
 20
75.6199
 30
0.0
 10
133.3571
 20
75.6199
 30
0.0
 10
132.7197
 20
74.8084
 30
0.0
 10
132.7197
 20
74.8084
 30
0.0
 10
132.7197
 20
74.8084
 30
0.0
 10
132.7197
 20
74.8084
 30
0.0
 10
132.047
 20
74.032
 30
0.0
 10
132.047
 20
74.032
 30
0.0
 10
132.047
 20
74.032
 30
0.0
 10
132.047
 20
74.032
 30
0.0
 10
131.3369
 20
73.2866
 30
0.0
 10
131.3369
 20
73.2866
 30
0.0
 10
131.3369
 20
73.2866
 30
0.0
 10
131.3369
 20
73.2866
 30
0.0
 10
130.5937
 20
72.5787
 30
0.0
 10
130.5937
 20
72.5787
 30
0.0
 10
130.5937
 20
72.5787
 30
0.0
 10
130.5937
 20
72.5787
 30
0.0
 10
129.8151
 20
71.9037
 30
0.0
 10
129.8151
 20
71.9037
 30
0.0
 10
129.8151
 20
71.9037
 30
0.0
 10
129.8151
 20
71.9037
 30
0.0
 10
129.0058
 20
71.2686
 30
0.0
 10
129.0058
 20
71.2686
 30
0.0
 10
129.0058
 20
71.2686
 30
0.0
 10
129.0058
 20
71.2686
 30
0.0
 10
128.1656
 20
70.6709
 30
0.0
 10
128.1656
 20
70.6709
 30
0.0
 10
128.1656
 20
70.6709
 30
0.0
 10
128.1656
 20
70.6709
 30
0.0
 10
128.0022
 20
70.5651
 30
0.0
 10
128.0022
 20
70.5651
 30
0.0
 10
128.0022
 20
70.5651
 30
0.0
 10
128.0022
 20
70.5651
 30
0.0
 10
128.1656
 20
70.4615
 30
0.0
 10
128.1656
 20
70.4615
 30
0.0
 10
128.1656
 20
70.4615
 30
0.0
 10
128.1656
 20
70.4615
 30
0.0
 10
129.0058
 20
69.8638
 30
0.0
 10
129.0058
 20
69.8638
 30
0.0
 10
129.0058
 20
69.8638
 30
0.0
 10
129.0058
 20
69.8638
 30
0.0
 10
129.8151
 20
69.2287
 30
0.0
 10
129.8151
 20
69.2287
 30
0.0
 10
129.8151
 20
69.2287
 30
0.0
 10
129.8151
 20
69.2287
 30
0.0
 10
130.5937
 20
68.5537
 30
0.0
 10
130.5937
 20
68.5537
 30
0.0
 10
130.5937
 20
68.5537
 30
0.0
 10
130.5937
 20
68.5537
 30
0.0
 10
131.3369
 20
67.8435
 30
0.0
 10
131.3369
 20
67.8435
 30
0.0
 10
131.3369
 20
67.8435
 30
0.0
 10
131.3369
 20
67.8435
 30
0.0
 10
132.047
 20
67.1004
 30
0.0
 10
132.047
 20
67.1004
 30
0.0
 10
132.047
 20
67.1004
 30
0.0
 10
132.047
 20
67.1004
 30
0.0
 10
132.7197
 20
66.3218
 30
0.0
 10
132.7197
 20
66.3218
 30
0.0
 10
132.7197
 20
66.3218
 30
0.0
 10
132.7197
 20
66.3218
 30
0.0
 10
133.3571
 20
65.5146
 30
0.0
 10
133.3571
 20
65.5146
 30
0.0
 10
133.3571
 20
65.5146
 30
0.0
 10
133.3571
 20
65.5146
 30
0.0
 10
133.9545
 20
64.6723
 30
0.0
 10
133.9545
 20
64.6723
 30
0.0
 10
133.9545
 20
64.6723
 30
0.0
 10
133.9545
 20
64.6723
 30
0.0
 10
134.0584
 20
64.5091
 30
0.0
 10
134.0584
 20
64.5091
 30
0.0
  0
SPLINE
  5
59
330
1F
100
AcDbEntity
  8
layer 1
 62
     7
100
AcDbSpline
210
0.0
220
0.0
230
1.0
 70
    11
 71
     3
 72
    24
 73
    20
 74
     0
 42
0.0000000001
 43
0.0000000001
 12
1.0
 22
0.0
 32
0.0
 13
1.0
 23
0.0
 33
0.0
 40
0.0
 40
0.0
 40
0.0
 40
0.0
 40
0.1666666666666667
 40
0.1666666666666667
 40
0.1666666666666667
 40
0.1666666666666667
 40
0.3333333333333333
 40
0.3333333333333333
 40
0.3333333333333333
 40
0.3333333333333333
 40
0.5
 40
0.5
 40
0.5
 40
0.5
 40
0.6666666666666666
 40
0.6666666666666666
 40
0.6666666666666666
 40
0.6666666666666666
 40
1.0
 40
1.0
 40
1.0
 40
1.0
 10
104.8412
 20
89.4367
 30
0.0
 10
109.446
 20
87.3812
 30
0.0
 10
113.1593
 20
83.69
 30
0.0
 10
115.2452
 20
79.1025
 30
0.0
 10
115.2452
 20
79.1025
 30
0.0
 10
117.3326
 20
83.6917
 30
0.0
 10
121.046
 20
87.3809
 30
0.0
 10
125.6505
 20
89.4364
 30
0.0
 10
125.6505
 20
89.4364
 30
0.0
 10
121.0463
 20
91.4921
 30
0.0
 10
117.3315
 20
95.1823
 30
0.0
 10
115.2452
 20
99.77
 30
0.0
 10
115.2452
 20
99.77
 30
0.0
 10
113.1599
 20
95.1839
 30
0.0
 10
109.4445
 20
91.4913
 30
0.0
 10
104.8401
 20
89.4364
 30
0.0
 10
104.8401
 20
89.4364
 30
0.0
 10
104.8401
 20
89.4364
 30
0.0
 10
104.8412
 20
89.4367
 30
0.0
 10
104.8412
 20
89.4367
 30
0.0
  0
SPLINE
  5
5A
330
1F
100
AcDbEntity
  8
layer 1
 62
     7
100
AcDbSpline
210
0.0
220
0.0
230
1.0
 70
    11
 71
     3
 72
    24
 73
    20
 74
     0
 42
0.0000000001
 43
0.0000000001
 12
1.0
 22
0.0
 32
0.0
 13
1.0
 23
0.0
 33
0.0
 40
0.0
 40
0.0
 40
0.0
 40
0.0
 40
0.1666666666666667
 40
0.1666666666666667
 40
0.1666666666666667
 40
0.1666666666666667
 40
0.3333333333333333
 40
0.3333333333333333
 40
0.3333333333333333
 40
0.3333333333333333
 40
0.5
 40
0.5
 40
0.5
 40
0.5
 40
0.6666666666666666
 40
0.6666666666666666
 40
0.6666666666666666
 40
0.6666666666666666
 40
1.0
 40
1.0
 40
1.0
 40
1.0
 10
152.8702
 20
79.1044
 30
0.0
 10
154.9566
 20
83.6917
 30
0.0
 10
158.6706
 20
87.3812
 30
0.0
 10
163.2751
 20
89.4364
 30
0.0
 10
163.2751
 20
89.4364
 30
0.0
 10
158.6706
 20
91.4921
 30
0.0
 10
154.9555
 20
95.1823
 30
0.0
 10
152.8697
 20
99.7695
 30
0.0
 10
152.8697
 20
99.7695
 30
0.0
 10
150.7842
 20
95.1839
 30
0.0
 10
147.0691
 20
91.4913
 30
0.0
 10
142.4647
 20
89.4364
 30
0.0
 10
142.4647
 20
89.4364
 30
0.0
 10
147.0702
 20
87.3812
 30
0.0
 10
150.784
 20
83.6905
 30
0.0
 10
152.8697
 20
79.1027
 30
0.0
 10
152.8697
 20
79.1027
 30
0.0
 10
152.8697
 20
79.1027
 30
0.0
 10
152.8702
 20
79.1044
 30
0.0
 10
152.8702
 20
79.1044
 30
0.0
  0
SPLINE
  5
5B
330
1F
100
AcDbEntity
  8
layer 1
 62
     7
100
AcDbSpline
210
0.0
220
0.0
230
1.0
 70
    11
 71
     3
 72
    16
 73
    12
 74
     0
 42
0.0000000001
 43
0.0000000001
 12
1.0
 22
0.0
 32
0.0
 13
1.0
 23
0.0
 33
0.0
 40
0.0
 40
0.0
 40
0.0
 40
0.0
 40
0.25
 40
0.25
 40
0.25
 40
0.25
 40
0.5
 40
0.5
 40
0.5
 40
0.5
 40
1.0
 40
1.0
 40
1.0
 40
1.0
 10
170.9789
 20
53.6343
 30
0.0
 10
162.1818
 20
53.9938
 30
0.0
 10
155.1094
 20
61.0625
 30
0.0
 10
154.7499
 20
69.8618
 30
0.0
 10
154.7499
 20
69.8618
 30
0.0
 10
163.4937
 20
69.3828
 30
0.0
 10
170.4999
 20
62.3761
 30
0.0
 10
170.9789
 20
53.6331
 30
0.0
 10
170.9789
 20
53.6331
 30
0.0
 10
170.9789
 20
53.6331
 30
0.0
 10
170.9789
 20
53.6343
 30
0.0
 10
170.9789
 20
53.6343
 30
0.0
  0
SPLINE
  5
5C
330
1F
100
AcDbEntity
  8
layer 1
 62
     7
100
AcDbSpline
210
0.0
220
0.0
230
1.0
 70
    11
 71
     3
 72
    16
 73
    12
 74
     0
 42
0.0000000001
 43
0.0000000001
 12
1.0
 22
0.0
 32
0.0
 13
1.0
 23
0.0
 33
0.0
 40
0.0
 40
0.0
 40
0.0
 40
0.0
 40
0.25
 40
0.25
 40
0.25
 40
0.25
 40
0.5
 40
0.5
 40
0.5
 40
0.5
 40
1.0
 40
1.0
 40
1.0
 40
1.0
 10
188.6158
 20
69.8638
 30
0.0
 10
188.2562
 20
61.0641
 30
0.0
 10
181.1842
 20
53.9924
 30
0.0
 10
172.3851
 20
53.6331
 30
0.0
 10
172.3851
 20
53.6331
 30
0.0
 10
172.8647
 20
62.3763
 30
0.0
 10
179.8711
 20
69.3828
 30
0.0
 10
188.6146
 20
69.8618
 30
0.0
 10
188.6146
 20
69.8618
 30
0.0
 10
188.6146
 20
69.8618
 30
0.0
 10
188.6158
 20
69.8638
 30
0.0
 10
188.6158
 20
69.8638
 30
0.0
  0
SPLINE
  5
5D
330
1F
100
AcDbEntity
  8
layer 1
 62
     7
100
AcDbSpline
210
0.0
220
0.0
230
1.0
 70
    11
 71
     3
 72
    16
 73
    12
 74
     0
 42
0.0000000001
 43
0.0000000001
 12
1.0
 22
0.0
 32
0.0
 13
1.0
 23
0.0
 33
0.0
 40
0.0
 40
0.0
 40
0.0
 40
0.0
 40
0.25
 40
0.25
 40
0.25
 40
0.25
 40
0.5
 40
0.5
 40
0.5
 40
0.5
 40
1.0
 40
1.0
 40
1.0
 40
1.0
 10
172.386
 20
87.4981
 30
0.0
 10
181.1856
 20
87.1386
 30
0.0
 10
188.2551
 20
80.0674
 30
0.0
 10
188.6146
 20
71.268
 30
0.0
 10
188.6146
 20
71.268
 30
0.0
 10
179.8711
 20
71.7473
 30
0.0
 10
172.8647
 20
78.7541
 30
0.0
 10
172.3851
 20
87.4971
 30
0.0
 10
172.3851
 20
87.4971
 30
0.0
 10
172.3851
 20
87.4971
 30
0.0
 10
172.386
 20
87.4981
 30
0.0
 10
172.386
 20
87.4981
 30
0.0
  0
SPLINE
  5
5E
330
1F
100
AcDbEntity
  8
layer 1
 62
     7
100
AcDbSpline
210
0.0
220
0.0
230
1.0
 70
    11
 71
     3
 72
    16
 73
    12
 74
     0
 42
0.0000000001
 43
0.0000000001
 12
1.0
 22
0.0
 32
0.0
 13
1.0
 23
0.0
 33
0.0
 40
0.0
 40
0.0
 40
0.0
 40
0.0
 40
0.25
 40
0.25
 40
0.25
 40
0.25
 40
0.5
 40
0.5
 40
0.5
 40
0.5
 40
1.0
 40
1.0
 40
1.0
 40
1.0
 10
154.7515
 20
71.2686
 30
0.0
 10
155.1111
 20
80.0683
 30
0.0
 10
162.18
 20
87.1378
 30
0.0
 10
170.9789
 20
87.4971
 30
0.0
 10
170.9789
 20
87.4971
 30
0.0
 10
170.5005
 20
78.756
 30
0.0
 10
163.4932
 20
71.7473
 30
0.0
 10
154.7499
 20
71.268
 30
0.0
 10
154.7499
 20
71.268
 30
0.0
 10
154.7499
 20
71.268
 30
0.0
 10
154.7515
 20
71.2686
 30
0.0
 10
154.7515
 20
71.2686
 30
0.0
  0
SPLINE
  5
5F
330
1F
100
AcDbEntity
  8
layer 1
 62
     7
100
AcDbSpline
210
0.0
220
0.0
230
1.0
 70
    11
 71
     3
 72
   164
 73
   160
 74
     0
 42
0.0000000001
 43
0.0000000001
 12
1.0
 22
0.0
 32
0.0
 13
1.0
 23
0.0
 33
0.0
 40
0.0
 40
0.0
 40
0.0
 40
0.0
 40
0.024390243902439
 40
0.024390243902439
 40
0.024390243902439
 40
0.024390243902439
 40
0.0487804878048781
 40
0.0487804878048781
 40
0.0487804878048781
 40
0.0487804878048781
 40
0.0731707317073171
 40
0.0731707317073171
 40
0.0731707317073171
 40
0.0731707317073171
 40
0.0975609756097561
 40
0.0975609756097561
 40
0.0975609756097561
 40
0.0975609756097561
 40
0.1219512195121951
 40
0.1219512195121951
 40
0.1219512195121951
 40
0.1219512195121951
 40
0.1463414634146341
 40
0.1463414634146341
 40
0.1463414634146341
 40
0.1463414634146341
 40
0.1707317073170732
 40
0.1707317073170732
 40
0.1707317073170732
 40
0.1707317073170732
 40
0.1951219512195122
 40
0.1951219512195122
 40
0.1951219512195122
 40
0.1951219512195122
 40
0.2195121951219512
 40
0.2195121951219512
 40
0.2195121951219512
 40
0.2195121951219512
 40
0.2439024390243902
 40
0.2439024390243902
 40
0.2439024390243902
 40
0.2439024390243902
 40
0.2682926829268293
 40
0.2682926829268293
 40
0.2682926829268293
 40
0.2682926829268293
 40
0.2926829268292683
 40
0.2926829268292683
 40
0.2926829268292683
 40
0.2926829268292683
 40
0.3170731707317073
 40
0.3170731707317073
 40
0.3170731707317073
 40
0.3170731707317073
 40
0.3414634146341464
 40
0.3414634146341464
 40
0.3414634146341464
 40
0.3414634146341464
 40
0.3658536585365854
 40
0.3658536585365854
 40
0.3658536585365854
 40
0.3658536585365854
 40
0.3902439024390244
 40
0.3902439024390244
 40
0.3902439024390244
 40
0.3902439024390244
 40
0.4146341463414634
 40
0.4146341463414634
 40
0.4146341463414634
 40
0.4146341463414634
 40
0.4390243902439024
 40
0.4390243902439024
 40
0.4390243902439024
 40
0.4390243902439024
 40
0.4634146341463415
 40
0.4634146341463415
 40
0.4634146341463415
 40
0.4634146341463415
 40
0.4878048780487805
 40
0.4878048780487805
 40
0.4878048780487805
 40
0.4878048780487805
 40
0.5121951219512195
 40
0.5121951219512195
 40
0.5121951219512195
 40
0.5121951219512195
 40
0.5365853658536586
 40
0.5365853658536586
 40
0.5365853658536586
 40
0.5365853658536586
 40
0.5609756097560976
 40
0.5609756097560976
 40
0.5609756097560976
 40
0.5609756097560976
 40
0.5853658536585366
 40
0.5853658536585366
 40
0.5853658536585366
 40
0.5853658536585366
 40
0.6097560975609756
 40
0.6097560975609756
 40
0.6097560975609756
 40
0.6097560975609756
 40
0.6341463414634146
 40
0.6341463414634146
 40
0.6341463414634146
 40
0.6341463414634146
 40
0.6585365853658537
 40
0.6585365853658537
 40
0.6585365853658537
 40
0.6585365853658537
 40
0.6829268292682927
 40
0.6829268292682927
 40
0.6829268292682927
 40
0.6829268292682927
 40
0.7073170731707317
 40
0.7073170731707317
 40
0.7073170731707317
 40
0.7073170731707317
 40
0.7317073170731707
 40
0.7317073170731707
 40
0.7317073170731707
 40
0.7317073170731707
 40
0.7560975609756098
 40
0.7560975609756098
 40
0.7560975609756098
 40
0.7560975609756098
 40
0.7804878048780488
 40
0.7804878048780488
 40
0.7804878048780488
 40
0.7804878048780488
 40
0.8048780487804879
 40
0.8048780487804879
 40
0.8048780487804879
 40
0.8048780487804879
 40
0.8292682926829268
 40
0.8292682926829268
 40
0.8292682926829268
 40
0.8292682926829268
 40
0.8536585365853658
 40
0.8536585365853658
 40
0.8536585365853658
 40
0.8536585365853658
 40
0.8780487804878049
 40
0.8780487804878049
 40
0.8780487804878049
 40
0.8780487804878049
 40
0.9024390243902439
 40
0.9024390243902439
 40
0.9024390243902439
 40
0.9024390243902439
 40
0.926829268292683
 40
0.926829268292683
 40
0.926829268292683
 40
0.926829268292683
 40
0.9512195121951219
 40
0.9512195121951219
 40
0.9512195121951219
 40
0.9512195121951219
 40
1.0
 40
1.0
 40
1.0
 40
1.0
 10
171.6825
 20
64.5091
 30
0.0
 10
171.6825
 20
64.5091
 30
0.0
 10
171.7883
 20
64.6723
 30
0.0
 10
171.7883
 20
64.6723
 30
0.0
 10
171.7883
 20
64.6723
 30
0.0
 10
171.7883
 20
64.6723
 30
0.0
 10
172.386
 20
65.5146
 30
0.0
 10
172.386
 20
65.5146
 30
0.0
 10
172.386
 20
65.5146
 30
0.0
 10
172.386
 20
65.5146
 30
0.0
 10
173.0211
 20
66.3218
 30
0.0
 10
173.0211
 20
66.3218
 30
0.0
 10
173.0211
 20
66.3218
 30
0.0
 10
173.0211
 20
66.3218
 30
0.0
 10
173.696
 20
67.1004
 30
0.0
 10
173.696
 20
67.1004
 30
0.0
 10
173.696
 20
67.1004
 30
0.0
 10
173.696
 20
67.1004
 30
0.0
 10
174.4039
 20
67.8435
 30
0.0
 10
174.4039
 20
67.8435
 30
0.0
 10
174.4039
 20
67.8435
 30
0.0
 10
174.4039
 20
67.8435
 30
0.0
 10
175.1494
 20
68.5537
 30
0.0
 10
175.1494
 20
68.5537
 30
0.0
 10
175.1494
 20
68.5537
 30
0.0
 10
175.1494
 20
68.5537
 30
0.0
 10
175.9257
 20
69.2287
 30
0.0
 10
175.9257
 20
69.2287
 30
0.0
 10
175.9257
 20
69.2287
 30
0.0
 10
175.9257
 20
69.2287
 30
0.0
 10
176.7351
 20
69.8638
 30
0.0
 10
176.7351
 20
69.8638
 30
0.0
 10
176.7351
 20
69.8638
 30
0.0
 10
176.7351
 20
69.8638
 30
0.0
 10
177.5775
 20
70.4615
 30
0.0
 10
177.5775
 20
70.4615
 30
0.0
 10
177.5775
 20
70.4615
 30
0.0
 10
177.5775
 20
70.4615
 30
0.0
 10
177.7386
 20
70.5651
 30
0.0
 10
177.7386
 20
70.5651
 30
0.0
 10
177.7386
 20
70.5651
 30
0.0
 10
177.7386
 20
70.5651
 30
0.0
 10
177.5775
 20
70.6709
 30
0.0
 10
177.5775
 20
70.6709
 30
0.0
 10
177.5775
 20
70.6709
 30
0.0
 10
177.5775
 20
70.6709
 30
0.0
 10
176.7351
 20
71.2686
 30
0.0
 10
176.7351
 20
71.2686
 30
0.0
 10
176.7351
 20
71.2686
 30
0.0
 10
176.7351
 20
71.2686
 30
0.0
 10
175.9257
 20
71.9037
 30
0.0
 10
175.9257
 20
71.9037
 30
0.0
 10
175.9257
 20
71.9037
 30
0.0
 10
175.9257
 20
71.9037
 30
0.0
 10
175.1494
 20
72.5787
 30
0.0
 10
175.1494
 20
72.5787
 30
0.0
 10
175.1494
 20
72.5787
 30
0.0
 10
175.1494
 20
72.5787
 30
0.0
 10
174.4039
 20
73.2866
 30
0.0
 10
174.4039
 20
73.2866
 30
0.0
 10
174.4039
 20
73.2866
 30
0.0
 10
174.4039
 20
73.2866
 30
0.0
 10
173.696
 20
74.032
 30
0.0
 10
173.696
 20
74.032
 30
0.0
 10
173.696
 20
74.032
 30
0.0
 10
173.696
 20
74.032
 30
0.0
 10
173.0211
 20
74.8084
 30
0.0
 10
173.0211
 20
74.8084
 30
0.0
 10
173.0211
 20
74.8084
 30
0.0
 10
173.0211
 20
74.8084
 30
0.0
 10
172.386
 20
75.6199
 30
0.0
 10
172.386
 20
75.6199
 30
0.0
 10
172.386
 20
75.6199
 30
0.0
 10
172.386
 20
75.6199
 30
0.0
 10
171.7883
 20
76.4601
 30
0.0
 10
171.7883
 20
76.4601
 30
0.0
 10
171.7883
 20
76.4601
 30
0.0
 10
171.7883
 20
76.4601
 30
0.0
 10
171.6825
 20
76.621
 30
0.0
 10
171.6825
 20
76.621
 30
0.0
 10
171.6825
 20
76.621
 30
0.0
 10
171.6825
 20
76.621
 30
0.0
 10
171.5788
 20
76.4601
 30
0.0
 10
171.5788
 20
76.4601
 30
0.0
 10
171.5788
 20
76.4601
 30
0.0
 10
171.5788
 20
76.4601
 30
0.0
 10
170.9811
 20
75.6199
 30
0.0
 10
170.9811
 20
75.6199
 30
0.0
 10
170.9811
 20
75.6199
 30
0.0
 10
170.9811
 20
75.6199
 30
0.0
 10
170.3438
 20
74.8084
 30
0.0
 10
170.3438
 20
74.8084
 30
0.0
 10
170.3438
 20
74.8084
 30
0.0
 10
170.3438
 20
74.8084
 30
0.0
 10
169.6711
 20
74.032
 30
0.0
 10
169.6711
 20
74.032
 30
0.0
 10
169.6711
 20
74.032
 30
0.0
 10
169.6711
 20
74.032
 30
0.0
 10
168.9609
 20
73.2866
 30
0.0
 10
168.9609
 20
73.2866
 30
0.0
 10
168.9609
 20
73.2866
 30
0.0
 10
168.9609
 20
73.2866
 30
0.0
 10
168.2179
 20
72.5787
 30
0.0
 10
168.2179
 20
72.5787
 30
0.0
 10
168.2179
 20
72.5787
 30
0.0
 10
168.2179
 20
72.5787
 30
0.0
 10
167.4417
 20
71.9037
 30
0.0
 10
167.4417
 20
71.9037
 30
0.0
 10
167.4417
 20
71.9037
 30
0.0
 10
167.4417
 20
71.9037
 30
0.0
 10
166.6298
 20
71.2686
 30
0.0
 10
166.6298
 20
71.2686
 30
0.0
 10
166.6298
 20
71.2686
 30
0.0
 10
166.6298
 20
71.2686
 30
0.0
 10
165.7896
 20
70.6709
 30
0.0
 10
165.7896
 20
70.6709
 30
0.0
 10
165.7896
 20
70.6709
 30
0.0
 10
165.7896
 20
70.6709
 30
0.0
 10
165.6264
 20
70.5651
 30
0.0
 10
165.6264
 20
70.5651
 30
0.0
 10
165.6264
 20
70.5651
 30
0.0
 10
165.6264
 20
70.5651
 30
0.0
 10
165.7896
 20
70.4615
 30
0.0
 10
165.7896
 20
70.4615
 30
0.0
 10
165.7896
 20
70.4615
 30
0.0
 10
165.7896
 20
70.4615
 30
0.0
 10
166.6298
 20
69.8638
 30
0.0
 10
166.6298
 20
69.8638
 30
0.0
 10
166.6298
 20
69.8638
 30
0.0
 10
166.6298
 20
69.8638
 30
0.0
 10
167.4417
 20
69.2287
 30
0.0
 10
167.4417
 20
69.2287
 30
0.0
 10
167.4417
 20
69.2287
 30
0.0
 10
167.4417
 20
69.2287
 30
0.0
 10
168.2179
 20
68.5537
 30
0.0
 10
168.2179
 20
68.5537
 30
0.0
 10
168.2179
 20
68.5537
 30
0.0
 10
168.2179
 20
68.5537
 30
0.0
 10
168.9609
 20
67.8435
 30
0.0
 10
168.9609
 20
67.8435
 30
0.0
 10
168.9609
 20
67.8435
 30
0.0
 10
168.9609
 20
67.8435
 30
0.0
 10
169.6711
 20
67.1004
 30
0.0
 10
169.6711
 20
67.1004
 30
0.0
 10
169.6711
 20
67.1004
 30
0.0
 10
169.6711
 20
67.1004
 30
0.0
 10
170.3438
 20
66.3218
 30
0.0
 10
170.3438
 20
66.3218
 30
0.0
 10
170.3438
 20
66.3218
 30
0.0
 10
170.3438
 20
66.3218
 30
0.0
 10
170.9811
 20
65.5146
 30
0.0
 10
170.9811
 20
65.5146
 30
0.0
 10
170.9811
 20
65.5146
 30
0.0
 10
170.9811
 20
65.5146
 30
0.0
 10
171.5788
 20
64.6723
 30
0.0
 10
171.5788
 20
64.6723
 30
0.0
 10
171.5788
 20
64.6723
 30
0.0
 10
171.5788
 20
64.6723
 30
0.0
 10
171.6825
 20
64.5091
 30
0.0
 10
171.6825
 20
64.5091
 30
0.0
  0
SPLINE
  5
60
330
1F
100
AcDbEntity
  8
layer 1
 62
     7
100
AcDbSpline
210
0.0
220
0.0
230
1.0
 70
    11
 71
     3
 72
   164
 73
   160
 74
     0
 42
0.0000000001
 43
0.0000000001
 12
1.0
 22
0.0
 32
0.0
 13
1.0
 23
0.0
 33
0.0
 40
0.0
 40
0.0
 40
0.0
 40
0.0
 40
0.024390243902439
 40
0.024390243902439
 40
0.024390243902439
 40
0.024390243902439
 40
0.0487804878048781
 40
0.0487804878048781
 40
0.0487804878048781
 40
0.0487804878048781
 40
0.0731707317073171
 40
0.0731707317073171
 40
0.0731707317073171
 40
0.0731707317073171
 40
0.0975609756097561
 40
0.0975609756097561
 40
0.0975609756097561
 40
0.0975609756097561
 40
0.1219512195121951
 40
0.1219512195121951
 40
0.1219512195121951
 40
0.1219512195121951
 40
0.1463414634146341
 40
0.1463414634146341
 40
0.1463414634146341
 40
0.1463414634146341
 40
0.1707317073170732
 40
0.1707317073170732
 40
0.1707317073170732
 40
0.1707317073170732
 40
0.1951219512195122
 40
0.1951219512195122
 40
0.1951219512195122
 40
0.1951219512195122
 40
0.2195121951219512
 40
0.2195121951219512
 40
0.2195121951219512
 40
0.2195121951219512
 40
0.2439024390243902
 40
0.2439024390243902
 40
0.2439024390243902
 40
0.2439024390243902
 40
0.2682926829268293
 40
0.2682926829268293
 40
0.2682926829268293
 40
0.2682926829268293
 40
0.2926829268292683
 40
0.2926829268292683
 40
0.2926829268292683
 40
0.2926829268292683
 40
0.3170731707317073
 40
0.3170731707317073
 40
0.3170731707317073
 40
0.3170731707317073
 40
0.3414634146341464
 40
0.3414634146341464
 40
0.3414634146341464
 40
0.3414634146341464
 40
0.3658536585365854
 40
0.3658536585365854
 40
0.3658536585365854
 40
0.3658536585365854
 40
0.3902439024390244
 40
0.3902439024390244
 40
0.3902439024390244
 40
0.3902439024390244
 40
0.4146341463414634
 40
0.4146341463414634
 40
0.4146341463414634
 40
0.4146341463414634
 40
0.4390243902439024
 40
0.4390243902439024
 40
0.4390243902439024
 40
0.4390243902439024
 40
0.4634146341463415
 40
0.4634146341463415
 40
0.4634146341463415
 40
0.4634146341463415
 40
0.4878048780487805
 40
0.4878048780487805
 40
0.4878048780487805
 40
0.4878048780487805
 40
0.5121951219512195
 40
0.5121951219512195
 40
0.5121951219512195
 40
0.5121951219512195
 40
0.5365853658536586
 40
0.5365853658536586
 40
0.5365853658536586
 40
0.5365853658536586
 40
0.5609756097560976
 40
0.5609756097560976
 40
0.5609756097560976
 40
0.5609756097560976
 40
0.5853658536585366
 40
0.5853658536585366
 40
0.5853658536585366
 40
0.5853658536585366
 40
0.6097560975609756
 40
0.6097560975609756
 40
0.6097560975609756
 40
0.6097560975609756
 40
0.6341463414634146
 40
0.6341463414634146
 40
0.6341463414634146
 40
0.6341463414634146
 40
0.6585365853658537
 40
0.6585365853658537
 40
0.6585365853658537
 40
0.6585365853658537
 40
0.6829268292682927
 40
0.6829268292682927
 40
0.6829268292682927
 40
0.6829268292682927
 40
0.7073170731707317
 40
0.7073170731707317
 40
0.7073170731707317
 40
0.7073170731707317
 40
0.7317073170731707
 40
0.7317073170731707
 40
0.7317073170731707
 40
0.7317073170731707
 40
0.7560975609756098
 40
0.7560975609756098
 40
0.7560975609756098
 40
0.7560975609756098
 40
0.7804878048780488
 40
0.7804878048780488
 40
0.7804878048780488
 40
0.7804878048780488
 40
0.8048780487804879
 40
0.8048780487804879
 40
0.8048780487804879
 40
0.8048780487804879
 40
0.8292682926829268
 40
0.8292682926829268
 40
0.8292682926829268
 40
0.8292682926829268
 40
0.8536585365853658
 40
0.8536585365853658
 40
0.8536585365853658
 40
0.8536585365853658
 40
0.8780487804878049
 40
0.8780487804878049
 40
0.8780487804878049
 40
0.8780487804878049
 40
0.9024390243902439
 40
0.9024390243902439
 40
0.9024390243902439
 40
0.9024390243902439
 40
0.926829268292683
 40
0.926829268292683
 40
0.926829268292683
 40
0.926829268292683
 40
0.9512195121951219
 40
0.9512195121951219
 40
0.9512195121951219
 40
0.9512195121951219
 40
1.0
 40
1.0
 40
1.0
 40
1.0
 10
96.4341
 20
64.5091
 30
0.0
 10
96.4341
 20
64.5091
 30
0.0
 10
96.5377
 20
64.6723
 30
0.0
 10
96.5377
 20
64.6723
 30
0.0
 10
96.5377
 20
64.6723
 30
0.0
 10
96.5377
 20
64.6723
 30
0.0
 10
97.1354
 20
65.5146
 30
0.0
 10
97.1354
 20
65.5146
 30
0.0
 10
97.1354
 20
65.5146
 30
0.0
 10
97.1354
 20
65.5146
 30
0.0
 10
97.7728
 20
66.3218
 30
0.0
 10
97.7728
 20
66.3218
 30
0.0
 10
97.7728
 20
66.3218
 30
0.0
 10
97.7728
 20
66.3218
 30
0.0
 10
98.4455
 20
67.1004
 30
0.0
 10
98.4455
 20
67.1004
 30
0.0
 10
98.4455
 20
67.1004
 30
0.0
 10
98.4455
 20
67.1004
 30
0.0
 10
99.1556
 20
67.8435
 30
0.0
 10
99.1556
 20
67.8435
 30
0.0
 10
99.1556
 20
67.8435
 30
0.0
 10
99.1556
 20
67.8435
 30
0.0
 10
99.9011
 20
68.5537
 30
0.0
 10
99.9011
 20
68.5537
 30
0.0
 10
99.9011
 20
68.5537
 30
0.0
 10
99.9011
 20
68.5537
 30
0.0
 10
100.6773
 20
69.2287
 30
0.0
 10
100.6773
 20
69.2287
 30
0.0
 10
100.6773
 20
69.2287
 30
0.0
 10
100.6773
 20
69.2287
 30
0.0
 10
101.4867
 20
69.8638
 30
0.0
 10
101.4867
 20
69.8638
 30
0.0
 10
101.4867
 20
69.8638
 30
0.0
 10
101.4867
 20
69.8638
 30
0.0
 10
102.3269
 20
70.4615
 30
0.0
 10
102.3269
 20
70.4615
 30
0.0
 10
102.3269
 20
70.4615
 30
0.0
 10
102.3269
 20
70.4615
 30
0.0
 10
102.49
 20
70.5651
 30
0.0
 10
102.49
 20
70.5651
 30
0.0
 10
102.49
 20
70.5651
 30
0.0
 10
102.49
 20
70.5651
 30
0.0
 10
102.3269
 20
70.6709
 30
0.0
 10
102.3269
 20
70.6709
 30
0.0
 10
102.3269
 20
70.6709
 30
0.0
 10
102.3269
 20
70.6709
 30
0.0
 10
101.4867
 20
71.2686
 30
0.0
 10
101.4867
 20
71.2686
 30
0.0
 10
101.4867
 20
71.2686
 30
0.0
 10
101.4867
 20
71.2686
 30
0.0
 10
100.6773
 20
71.9037
 30
0.0
 10
100.6773
 20
71.9037
 30
0.0
 10
100.6773
 20
71.9037
 30
0.0
 10
100.6773
 20
71.9037
 30
0.0
 10
99.9011
 20
72.5787
 30
0.0
 10
99.9011
 20
72.5787
 30
0.0
 10
99.9011
 20
72.5787
 30
0.0
 10
99.9011
 20
72.5787
 30
0.0
 10
99.1556
 20
73.2866
 30
0.0
 10
99.1556
 20
73.2866
 30
0.0
 10
99.1556
 20
73.2866
 30
0.0
 10
99.1556
 20
73.2866
 30
0.0
 10
98.4455
 20
74.032
 30
0.0
 10
98.4455
 20
74.032
 30
0.0
 10
98.4455
 20
74.032
 30
0.0
 10
98.4455
 20
74.032
 30
0.0
 10
97.7728
 20
74.8084
 30
0.0
 10
97.7728
 20
74.8084
 30
0.0
 10
97.7728
 20
74.8084
 30
0.0
 10
97.7728
 20
74.8084
 30
0.0
 10
97.1354
 20
75.6199
 30
0.0
 10
97.1354
 20
75.6199
 30
0.0
 10
97.1354
 20
75.6199
 30
0.0
 10
97.1354
 20
75.6199
 30
0.0
 10
96.5377
 20
76.4601
 30
0.0
 10
96.5377
 20
76.4601
 30
0.0
 10
96.5377
 20
76.4601
 30
0.0
 10
96.5377
 20
76.4601
 30
0.0
 10
96.4341
 20
76.621
 30
0.0
 10
96.4341
 20
76.621
 30
0.0
 10
96.4341
 20
76.621
 30
0.0
 10
96.4341
 20
76.621
 30
0.0
 10
96.3305
 20
76.4601
 30
0.0
 10
96.3305
 20
76.4601
 30
0.0
 10
96.3305
 20
76.4601
 30
0.0
 10
96.3305
 20
76.4601
 30
0.0
 10
95.7329
 20
75.6199
 30
0.0
 10
95.7329
 20
75.6199
 30
0.0
 10
95.7329
 20
75.6199
 30
0.0
 10
95.7329
 20
75.6199
 30
0.0
 10
95.0954
 20
74.8084
 30
0.0
 10
95.0954
 20
74.8084
 30
0.0
 10
95.0954
 20
74.8084
 30
0.0
 10
95.0954
 20
74.8084
 30
0.0
 10
94.4228
 20
74.032
 30
0.0
 10
94.4228
 20
74.032
 30
0.0
 10
94.4228
 20
74.032
 30
0.0
 10
94.4228
 20
74.032
 30
0.0
 10
93.7126
 20
73.2866
 30
0.0
 10
93.7126
 20
73.2866
 30
0.0
 10
93.7126
 20
73.2866
 30
0.0
 10
93.7126
 20
73.2866
 30
0.0
 10
92.9694
 20
72.5787
 30
0.0
 10
92.9694
 20
72.5787
 30
0.0
 10
92.9694
 20
72.5787
 30
0.0
 10
92.9694
 20
72.5787
 30
0.0
 10
92.1909
 20
71.9037
 30
0.0
 10
92.1909
 20
71.9037
 30
0.0
 10
92.1909
 20
71.9037
 30
0.0
 10
92.1909
 20
71.9037
 30
0.0
 10
91.3815
 20
71.2686
 30
0.0
 10
91.3815
 20
71.2686
 30
0.0
 10
91.3815
 20
71.2686
 30
0.0
 10
91.3815
 20
71.2686
 30
0.0
 10
90.5413
 20
70.6709
 30
0.0
 10
90.5413
 20
70.6709
 30
0.0
 10
90.5413
 20
70.6709
 30
0.0
 10
90.5413
 20
70.6709
 30
0.0
 10
90.3782
 20
70.5651
 30
0.0
 10
90.3782
 20
70.5651
 30
0.0
 10
90.3782
 20
70.5651
 30
0.0
 10
90.3782
 20
70.5651
 30
0.0
 10
90.5413
 20
70.4615
 30
0.0
 10
90.5413
 20
70.4615
 30
0.0
 10
90.5413
 20
70.4615
 30
0.0
 10
90.5413
 20
70.4615
 30
0.0
 10
91.3815
 20
69.8638
 30
0.0
 10
91.3815
 20
69.8638
 30
0.0
 10
91.3815
 20
69.8638
 30
0.0
 10
91.3815
 20
69.8638
 30
0.0
 10
92.1909
 20
69.2287
 30
0.0
 10
92.1909
 20
69.2287
 30
0.0
 10
92.1909
 20
69.2287
 30
0.0
 10
92.1909
 20
69.2287
 30
0.0
 10
92.9694
 20
68.5537
 30
0.0
 10
92.9694
 20
68.5537
 30
0.0
 10
92.9694
 20
68.5537
 30
0.0
 10
92.9694
 20
68.5537
 30
0.0
 10
93.7126
 20
67.8435
 30
0.0
 10
93.7126
 20
67.8435
 30
0.0
 10
93.7126
 20
67.8435
 30
0.0
 10
93.7126
 20
67.8435
 30
0.0
 10
94.4228
 20
67.1004
 30
0.0
 10
94.4228
 20
67.1004
 30
0.0
 10
94.4228
 20
67.1004
 30
0.0
 10
94.4228
 20
67.1004
 30
0.0
 10
95.0954
 20
66.3218
 30
0.0
 10
95.0954
 20
66.3218
 30
0.0
 10
95.0954
 20
66.3218
 30
0.0
 10
95.0954
 20
66.3218
 30
0.0
 10
95.7329
 20
65.5146
 30
0.0
 10
95.7329
 20
65.5146
 30
0.0
 10
95.7329
 20
65.5146
 30
0.0
 10
95.7329
 20
65.5146
 30
0.0
 10
96.3305
 20
64.6723
 30
0.0
 10
96.3305
 20
64.6723
 30
0.0
 10
96.3305
 20
64.6723
 30
0.0
 10
96.3305
 20
64.6723
 30
0.0
 10
96.4341
 20
64.5091
 30
0.0
 10
96.4341
 20
64.5091
 30
0.0
  0
SPLINE
  5
61
330
1F
100
AcDbEntity
  8
layer 1
 62
     7
100
AcDbSpline
210
0.0
220
0.0
230
1.0
 70
    11
 71
     3
 72
    16
 73
    12
 74
     0
 42
0.0000000001
 43
0.0000000001
 12
1.0
 22
0.0
 32
0.0
 13
1.0
 23
0.0
 33
0.0
 40
0.0
 40
0.0
 40
0.0
 40
0.0
 40
0.25
 40
0.25
 40
0.25
 40
0.25
 40
0.5
 40
0.5
 40
0.5
 40
0.5
 40
1.0
 40
1.0
 40
1.0
 40
1.0
 10
95.7306
 20
15.8909
 30
0.0
 10
86.931
 20
16.2503
 30
0.0
 10
79.8605
 20
23.3201
 30
0.0
 10
79.501
 20
32.1193
 30
0.0
 10
79.501
 20
32.1193
 30
0.0
 10
88.2454
 20
31.6418
 30
0.0
 10
95.2508
 20
24.6336
 30
0.0
 10
95.7301
 20
15.8903
 30
0.0
 10
95.7301
 20
15.8903
 30
0.0
 10
95.7301
 20
15.8903
 30
0.0
 10
95.7306
 20
15.8909
 30
0.0
 10
95.7306
 20
15.8909
 30
0.0
  0
SPLINE
  5
62
330
1F
100
AcDbEntity
  8
layer 1
 62
     7
100
AcDbSpline
210
0.0
220
0.0
230
1.0
 70
    11
 71
     3
 72
    16
 73
    12
 74
     0
 42
0.0000000001
 43
0.0000000001
 12
1.0
 22
0.0
 32
0.0
 13
1.0
 23
0.0
 33
0.0
 40
0.0
 40
0.0
 40
0.0
 40
0.0
 40
0.25
 40
0.25
 40
0.25
 40
0.25
 40
0.5
 40
0.5
 40
0.5
 40
0.5
 40
1.0
 40
1.0
 40
1.0
 40
1.0
 10
113.3672
 20
32.1205
 30
0.0
 10
113.0077
 20
23.3209
 30
0.0
 10
105.9354
 20
16.2495
 30
0.0
 10
97.1363
 20
15.8903
 30
0.0
 10
97.1363
 20
15.8903
 30
0.0
 10
97.6161
 20
24.6353
 30
0.0
 10
104.6226
 20
31.6402
 30
0.0
 10
113.3652
 20
32.1193
 30
0.0
 10
113.3652
 20
32.1193
 30
0.0
 10
113.3652
 20
32.1193
 30
0.0
 10
113.3672
 20
32.1205
 30
0.0
 10
113.3672
 20
32.1205
 30
0.0
  0
SPLINE
  5
63
330
1F
100
AcDbEntity
  8
layer 1
 62
     7
100
AcDbSpline
210
0.0
220
0.0
230
1.0
 70
    11
 71
     3
 72
    16
 73
    12
 74
     0
 42
0.0000000001
 43
0.0000000001
 12
1.0
 22
0.0
 32
0.0
 13
1.0
 23
0.0
 33
0.0
 40
0.0
 40
0.0
 40
0.0
 40
0.0
 40
0.25
 40
0.25
 40
0.25
 40
0.25
 40
0.5
 40
0.5
 40
0.5
 40
0.5
 40
1.0
 40
1.0
 40
1.0
 40
1.0
 10
97.1376
 20
49.7549
 30
0.0
 10
105.9371
 20
49.3954
 30
0.0
 10
113.006
 20
42.3245
 30
0.0
 10
113.3652
 20
33.5255
 30
0.0
 10
113.3652
 20
33.5255
 30
0.0
 10
104.6228
 20
34.0061
 30
0.0
 10
97.615
 20
41.0115
 30
0.0
 10
97.1363
 20
49.7547
 30
0.0
 10
97.1363
 20
49.7547
 30
0.0
 10
97.1363
 20
49.7547
 30
0.0
 10
97.1376
 20
49.7549
 30
0.0
 10
97.1376
 20
49.7549
 30
0.0
  0
SPLINE
  5
64
330
1F
100
AcDbEntity
  8
layer 1
 62
     7
100
AcDbSpline
210
0.0
220
0.0
230
1.0
 70
    11
 71
     3
 72
    16
 73
    12
 74
     0
 42
0.0000000001
 43
0.0000000001
 12
1.0
 22
0.0
 32
0.0
 13
1.0
 23
0.0
 33
0.0
 40
0.0
 40
0.0
 40
0.0
 40
0.0
 40
0.25
 40
0.25
 40
0.25
 40
0.25
 40
0.5
 40
0.5
 40
0.5
 40
0.5
 40
1.0
 40
1.0
 40
1.0
 40
1.0
 10
79.501
 20
33.5275
 30
0.0
 10
79.8605
 20
42.3247
 30
0.0
 10
86.931
 20
49.3954
 30
0.0
 10
95.7301
 20
49.7547
 30
0.0
 10
95.7301
 20
49.7547
 30
0.0
 10
95.2519
 20
41.0126
 30
0.0
 10
88.244
 20
34.0046
 30
0.0
 10
79.501
 20
33.5255
 30
0.0
 10
79.501
 20
33.5255
 30
0.0
 10
79.501
 20
33.5255
 30
0.0
 10
79.501
 20
33.5275
 30
0.0
 10
79.501
 20
33.5275
 30
0.0
  0
SPLINE
  5
65
330
1F
100
AcDbEntity
  8
layer 1
 62
     7
100
AcDbSpline
210
0.0
220
0.0
230
1.0
 70
    11
 71
     3
 72
    16
 73
    12
 74
     0
 42
0.0000000001
 43
0.0000000001
 12
1.0
 22
0.0
 32
0.0
 13
1.0
 23
0.0
 33
0.0
 40
0.0
 40
0.0
 40
0.0
 40
0.0
 40
0.25
 40
0.25
 40
0.25
 40
0.25
 40
0.5
 40
0.5
 40
0.5
 40
0.5
 40
1.0
 40
1.0
 40
1.0
 40
1.0
 10
133.3549
 20
15.8909
 30
0.0
 10
124.5575
 20
16.2503
 30
0.0
 10
117.4849
 20
23.3201
 30
0.0
 10
117.1257
 20
32.1193
 30
0.0
 10
117.1257
 20
32.1193
 30
0.0
 10
125.8697
 20
31.6418
 30
0.0
 10
132.8753
 20
24.6336
 30
0.0
 10
133.3543
 20
15.8903
 30
0.0
 10
133.3543
 20
15.8903
 30
0.0
 10
133.3543
 20
15.8903
 30
0.0
 10
133.3549
 20
15.8909
 30
0.0
 10
133.3549
 20
15.8909
 30
0.0
  0
SPLINE
  5
66
330
1F
100
AcDbEntity
  8
layer 1
 62
     7
100
AcDbSpline
210
0.0
220
0.0
230
1.0
 70
    11
 71
     3
 72
    16
 73
    12
 74
     0
 42
0.0000000001
 43
0.0000000001
 12
1.0
 22
0.0
 32
0.0
 13
1.0
 23
0.0
 33
0.0
 40
0.0
 40
0.0
 40
0.0
 40
0.0
 40
0.25
 40
0.25
 40
0.25
 40
0.25
 40
0.5
 40
0.5
 40
0.5
 40
0.5
 40
1.0
 40
1.0
 40
1.0
 40
1.0
 10
150.9914
 20
32.1205
 30
0.0
 10
150.6319
 20
23.3209
 30
0.0
 10
143.5599
 20
16.2495
 30
0.0
 10
134.7608
 20
15.8903
 30
0.0
 10
134.7608
 20
15.8903
 30
0.0
 10
135.2403
 20
24.6353
 30
0.0
 10
142.2466
 20
31.6402
 30
0.0
 10
150.9901
 20
32.1193
 30
0.0
 10
150.9901
 20
32.1193
 30
0.0
 10
150.9901
 20
32.1193
 30
0.0
 10
150.9914
 20
32.1205
 30
0.0
 10
150.9914
 20
32.1205
 30
0.0
  0
SPLINE
  5
67
330
1F
100
AcDbEntity
  8
layer 1
 62
     7
100
AcDbSpline
210
0.0
220
0.0
230
1.0
 70
    11
 71
     3
 72
    16
 73
    12
 74
     0
 42
0.0000000001
 43
0.0000000001
 12
1.0
 22
0.0
 32
0.0
 13
1.0
 23
0.0
 33
0.0
 40
0.0
 40
0.0
 40
0.0
 40
0.0
 40
0.25
 40
0.25
 40
0.25
 40
0.25
 40
0.5
 40
0.5
 40
0.5
 40
0.5
 40
1.0
 40
1.0
 40
1.0
 40
1.0
 10
134.7619
 20
49.7549
 30
0.0
 10
143.5613
 20
49.3954
 30
0.0
 10
150.6306
 20
42.3245
 30
0.0
 10
150.9901
 20
33.5255
 30
0.0
 10
150.9901
 20
33.5255
 30
0.0
 10
142.2471
 20
34.0061
 30
0.0
 10
135.2395
 20
41.0115
 30
0.0
 10
134.7608
 20
49.7547
 30
0.0
 10
134.7608
 20
49.7547
 30
0.0
 10
134.7608
 20
49.7547
 30
0.0
 10
134.7619
 20
49.7549
 30
0.0
 10
134.7619
 20
49.7549
 30
0.0
  0
SPLINE
  5
68
330
1F
100
AcDbEntity
  8
layer 1
 62
     7
100
AcDbSpline
210
0.0
220
0.0
230
1.0
 70
    11
 71
     3
 72
    16
 73
    12
 74
     0
 42
0.0000000001
 43
0.0000000001
 12
1.0
 22
0.0
 32
0.0
 13
1.0
 23
0.0
 33
0.0
 40
0.0
 40
0.0
 40
0.0
 40
0.0
 40
0.25
 40
0.25
 40
0.25
 40
0.25
 40
0.5
 40
0.5
 40
0.5
 40
0.5
 40
1.0
 40
1.0
 40
1.0
 40
1.0
 10
117.1273
 20
33.5275
 30
0.0
 10
117.4868
 20
42.3247
 30
0.0
 10
124.5555
 20
49.3954
 30
0.0
 10
133.3543
 20
49.7547
 30
0.0
 10
133.3543
 20
49.7547
 30
0.0
 10
132.8761
 20
41.0126
 30
0.0
 10
125.8688
 20
34.0046
 30
0.0
 10
117.1257
 20
33.5255
 30
0.0
 10
117.1257
 20
33.5255
 30
0.0
 10
117.1257
 20
33.5255
 30
0.0
 10
117.1273
 20
33.5275
 30
0.0
 10
117.1273
 20
33.5275
 30
0.0
  0
SPLINE
  5
69
330
1F
100
AcDbEntity
  8
layer 1
 62
     7
100
AcDbSpline
210
0.0
220
0.0
230
1.0
 70
    11
 71
     3
 72
   164
 73
   160
 74
     0
 42
0.0000000001
 43
0.0000000001
 12
1.0
 22
0.0
 32
0.0
 13
1.0
 23
0.0
 33
0.0
 40
0.0
 40
0.0
 40
0.0
 40
0.0
 40
0.024390243902439
 40
0.024390243902439
 40
0.024390243902439
 40
0.024390243902439
 40
0.0487804878048781
 40
0.0487804878048781
 40
0.0487804878048781
 40
0.0487804878048781
 40
0.0731707317073171
 40
0.0731707317073171
 40
0.0731707317073171
 40
0.0731707317073171
 40
0.0975609756097561
 40
0.0975609756097561
 40
0.0975609756097561
 40
0.0975609756097561
 40
0.1219512195121951
 40
0.1219512195121951
 40
0.1219512195121951
 40
0.1219512195121951
 40
0.1463414634146341
 40
0.1463414634146341
 40
0.1463414634146341
 40
0.1463414634146341
 40
0.1707317073170732
 40
0.1707317073170732
 40
0.1707317073170732
 40
0.1707317073170732
 40
0.1951219512195122
 40
0.1951219512195122
 40
0.1951219512195122
 40
0.1951219512195122
 40
0.2195121951219512
 40
0.2195121951219512
 40
0.2195121951219512
 40
0.2195121951219512
 40
0.2439024390243902
 40
0.2439024390243902
 40
0.2439024390243902
 40
0.2439024390243902
 40
0.2682926829268293
 40
0.2682926829268293
 40
0.2682926829268293
 40
0.2682926829268293
 40
0.2926829268292683
 40
0.2926829268292683
 40
0.2926829268292683
 40
0.2926829268292683
 40
0.3170731707317073
 40
0.3170731707317073
 40
0.3170731707317073
 40
0.3170731707317073
 40
0.3414634146341464
 40
0.3414634146341464
 40
0.3414634146341464
 40
0.3414634146341464
 40
0.3658536585365854
 40
0.3658536585365854
 40
0.3658536585365854
 40
0.3658536585365854
 40
0.3902439024390244
 40
0.3902439024390244
 40
0.3902439024390244
 40
0.3902439024390244
 40
0.4146341463414634
 40
0.4146341463414634
 40
0.4146341463414634
 40
0.4146341463414634
 40
0.4390243902439024
 40
0.4390243902439024
 40
0.4390243902439024
 40
0.4390243902439024
 40
0.4634146341463415
 40
0.4634146341463415
 40
0.4634146341463415
 40
0.4634146341463415
 40
0.4878048780487805
 40
0.4878048780487805
 40
0.4878048780487805
 40
0.4878048780487805
 40
0.5121951219512195
 40
0.5121951219512195
 40
0.5121951219512195
 40
0.5121951219512195
 40
0.5365853658536586
 40
0.5365853658536586
 40
0.5365853658536586
 40
0.5365853658536586
 40
0.5609756097560976
 40
0.5609756097560976
 40
0.5609756097560976
 40
0.5609756097560976
 40
0.5853658536585366
 40
0.5853658536585366
 40
0.5853658536585366
 40
0.5853658536585366
 40
0.6097560975609756
 40
0.6097560975609756
 40
0.6097560975609756
 40
0.6097560975609756
 40
0.6341463414634146
 40
0.6341463414634146
 40
0.6341463414634146
 40
0.6341463414634146
 40
0.6585365853658537
 40
0.6585365853658537
 40
0.6585365853658537
 40
0.6585365853658537
 40
0.6829268292682927
 40
0.6829268292682927
 40
0.6829268292682927
 40
0.6829268292682927
 40
0.7073170731707317
 40
0.7073170731707317
 40
0.7073170731707317
 40
0.7073170731707317
 40
0.7317073170731707
 40
0.7317073170731707
 40
0.7317073170731707
 40
0.7317073170731707
 40
0.7560975609756098
 40
0.7560975609756098
 40
0.7560975609756098
 40
0.7560975609756098
 40
0.7804878048780488
 40
0.7804878048780488
 40
0.7804878048780488
 40
0.7804878048780488
 40
0.8048780487804879
 40
0.8048780487804879
 40
0.8048780487804879
 40
0.8048780487804879
 40
0.8292682926829268
 40
0.8292682926829268
 40
0.8292682926829268
 40
0.8292682926829268
 40
0.8536585365853658
 40
0.8536585365853658
 40
0.8536585365853658
 40
0.8536585365853658
 40
0.8780487804878049
 40
0.8780487804878049
 40
0.8780487804878049
 40
0.8780487804878049
 40
0.9024390243902439
 40
0.9024390243902439
 40
0.9024390243902439
 40
0.9024390243902439
 40
0.926829268292683
 40
0.926829268292683
 40
0.926829268292683
 40
0.926829268292683
 40
0.9512195121951219
 40
0.9512195121951219
 40
0.9512195121951219
 40
0.9512195121951219
 40
1.0
 40
1.0
 40
1.0
 40
1.0
 10
134.0584
 20
26.7678
 30
0.0
 10
134.0584
 20
26.7678
 30
0.0
 10
134.1642
 20
26.9311
 30
0.0
 10
134.1642
 20
26.9311
 30
0.0
 10
134.1642
 20
26.9311
 30
0.0
 10
134.1642
 20
26.9311
 30
0.0
 10
134.7619
 20
27.7714
 30
0.0
 10
134.7619
 20
27.7714
 30
0.0
 10
134.7619
 20
27.7714
 30
0.0
 10
134.7619
 20
27.7714
 30
0.0
 10
135.397
 20
28.5808
 30
0.0
 10
135.397
 20
28.5808
 30
0.0
 10
135.397
 20
28.5808
 30
0.0
 10
135.397
 20
28.5808
 30
0.0
 10
136.0717
 20
29.3593
 30
0.0
 10
136.0717
 20
29.3593
 30
0.0
 10
136.0717
 20
29.3593
 30
0.0
 10
136.0717
 20
29.3593
 30
0.0
 10
136.7796
 20
30.1025
 30
0.0
 10
136.7796
 20
30.1025
 30
0.0
 10
136.7796
 20
30.1025
 30
0.0
 10
136.7796
 20
30.1025
 30
0.0
 10
137.5251
 20
30.8127
 30
0.0
 10
137.5251
 20
30.8127
 30
0.0
 10
137.5251
 20
30.8127
 30
0.0
 10
137.5251
 20
30.8127
 30
0.0
 10
138.3014
 20
31.4853
 30
0.0
 10
138.3014
 20
31.4853
 30
0.0
 10
138.3014
 20
31.4853
 30
0.0
 10
138.3014
 20
31.4853
 30
0.0
 10
139.1108
 20
32.1226
 30
0.0
 10
139.1108
 20
32.1226
 30
0.0
 10
139.1108
 20
32.1226
 30
0.0
 10
139.1108
 20
32.1226
 30
0.0
 10
139.9513
 20
32.7181
 30
0.0
 10
139.9513
 20
32.7181
 30
0.0
 10
139.9513
 20
32.7181
 30
0.0
 10
139.9513
 20
32.7181
 30
0.0
 10
140.1144
 20
32.824
 30
0.0
 10
140.1144
 20
32.824
 30
0.0
 10
140.1144
 20
32.824
 30
0.0
 10
140.1144
 20
32.824
 30
0.0
 10
139.9513
 20
32.9276
 30
0.0
 10
139.9513
 20
32.9276
 30
0.0
 10
139.9513
 20
32.9276
 30
0.0
 10
139.9513
 20
32.9276
 30
0.0
 10
139.1108
 20
33.5252
 30
0.0
 10
139.1108
 20
33.5252
 30
0.0
 10
139.1108
 20
33.5252
 30
0.0
 10
139.1108
 20
33.5252
 30
0.0
 10
138.3014
 20
34.1627
 30
0.0
 10
138.3014
 20
34.1627
 30
0.0
 10
138.3014
 20
34.1627
 30
0.0
 10
138.3014
 20
34.1627
 30
0.0
 10
137.5251
 20
34.8352
 30
0.0
 10
137.5251
 20
34.8352
 30
0.0
 10
137.5251
 20
34.8352
 30
0.0
 10
137.5251
 20
34.8352
 30
0.0
 10
136.7796
 20
35.5454
 30
0.0
 10
136.7796
 20
35.5454
 30
0.0
 10
136.7796
 20
35.5454
 30
0.0
 10
136.7796
 20
35.5454
 30
0.0
 10
136.0697
 20
36.2887
 30
0.0
 10
136.0697
 20
36.2887
 30
0.0
 10
136.0697
 20
36.2887
 30
0.0
 10
136.0697
 20
36.2887
 30
0.0
 10
135.397
 20
37.0671
 30
0.0
 10
135.397
 20
37.0671
 30
0.0
 10
135.397
 20
37.0671
 30
0.0
 10
135.397
 20
37.0671
 30
0.0
 10
134.7619
 20
37.8766
 30
0.0
 10
134.7619
 20
37.8766
 30
0.0
 10
134.7619
 20
37.8766
 30
0.0
 10
134.7619
 20
37.8766
 30
0.0
 10
134.1642
 20
38.7168
 30
0.0
 10
134.1642
 20
38.7168
 30
0.0
 10
134.1642
 20
38.7168
 30
0.0
 10
134.1642
 20
38.7168
 30
0.0
 10
134.0584
 20
38.8801
 30
0.0
 10
134.0584
 20
38.8801
 30
0.0
 10
134.0584
 20
38.8801
 30
0.0
 10
134.0584
 20
38.8801
 30
0.0
 10
133.9545
 20
38.7168
 30
0.0
 10
133.9545
 20
38.7168
 30
0.0
 10
133.9545
 20
38.7168
 30
0.0
 10
133.9545
 20
38.7168
 30
0.0
 10
133.3571
 20
37.8766
 30
0.0
 10
133.3571
 20
37.8766
 30
0.0
 10
133.3571
 20
37.8766
 30
0.0
 10
133.3571
 20
37.8766
 30
0.0
 10
132.7197
 20
37.0671
 30
0.0
 10
132.7197
 20
37.0671
 30
0.0
 10
132.7197
 20
37.0671
 30
0.0
 10
132.7197
 20
37.0671
 30
0.0
 10
132.047
 20
36.2887
 30
0.0
 10
132.047
 20
36.2887
 30
0.0
 10
132.047
 20
36.2887
 30
0.0
 10
132.047
 20
36.2887
 30
0.0
 10
131.3369
 20
35.5454
 30
0.0
 10
131.3369
 20
35.5454
 30
0.0
 10
131.3369
 20
35.5454
 30
0.0
 10
131.3369
 20
35.5454
 30
0.0
 10
130.5937
 20
34.8352
 30
0.0
 10
130.5937
 20
34.8352
 30
0.0
 10
130.5937
 20
34.8352
 30
0.0
 10
130.5937
 20
34.8352
 30
0.0
 10
129.8151
 20
34.1627
 30
0.0
 10
129.8151
 20
34.1627
 30
0.0
 10
129.8151
 20
34.1627
 30
0.0
 10
129.8151
 20
34.1627
 30
0.0
 10
129.0058
 20
33.5252
 30
0.0
 10
129.0058
 20
33.5252
 30
0.0
 10
129.0058
 20
33.5252
 30
0.0
 10
129.0058
 20
33.5252
 30
0.0
 10
128.1656
 20
32.9276
 30
0.0
 10
128.1656
 20
32.9276
 30
0.0
 10
128.1656
 20
32.9276
 30
0.0
 10
128.1656
 20
32.9276
 30
0.0
 10
128.0022
 20
32.824
 30
0.0
 10
128.0022
 20
32.824
 30
0.0
 10
128.0022
 20
32.824
 30
0.0
 10
128.0022
 20
32.824
 30
0.0
 10
128.1656
 20
32.7181
 30
0.0
 10
128.1656
 20
32.7181
 30
0.0
 10
128.1656
 20
32.7181
 30
0.0
 10
128.1656
 20
32.7181
 30
0.0
 10
129.0058
 20
32.1226
 30
0.0
 10
129.0058
 20
32.1226
 30
0.0
 10
129.0058
 20
32.1226
 30
0.0
 10
129.0058
 20
32.1226
 30
0.0
 10
129.8151
 20
31.4853
 30
0.0
 10
129.8151
 20
31.4853
 30
0.0
 10
129.8151
 20
31.4853
 30
0.0
 10
129.8151
 20
31.4853
 30
0.0
 10
130.5937
 20
30.8104
 30
0.0
 10
130.5937
 20
30.8104
 30
0.0
 10
130.5937
 20
30.8104
 30
0.0
 10
130.5937
 20
30.8104
 30
0.0
 10
131.3369
 20
30.1025
 30
0.0
 10
131.3369
 20
30.1025
 30
0.0
 10
131.3369
 20
30.1025
 30
0.0
 10
131.3369
 20
30.1025
 30
0.0
 10
132.047
 20
29.3593
 30
0.0
 10
132.047
 20
29.3593
 30
0.0
 10
132.047
 20
29.3593
 30
0.0
 10
132.047
 20
29.3593
 30
0.0
 10
132.7197
 20
28.5808
 30
0.0
 10
132.7197
 20
28.5808
 30
0.0
 10
132.7197
 20
28.5808
 30
0.0
 10
132.7197
 20
28.5808
 30
0.0
 10
133.3571
 20
27.7714
 30
0.0
 10
133.3571
 20
27.7714
 30
0.0
 10
133.3571
 20
27.7714
 30
0.0
 10
133.3571
 20
27.7714
 30
0.0
 10
133.9545
 20
26.9311
 30
0.0
 10
133.9545
 20
26.9311
 30
0.0
 10
133.9545
 20
26.9311
 30
0.0
 10
133.9545
 20
26.9311
 30
0.0
 10
134.0584
 20
26.7678
 30
0.0
 10
134.0584
 20
26.7678
 30
0.0
  0
SPLINE
  5
6A
330
1F
100
AcDbEntity
  8
layer 1
 62
     7
100
AcDbSpline
210
0.0
220
0.0
230
1.0
 70
    11
 71
     3
 72
    24
 73
    20
 74
     0
 42
0.0000000001
 43
0.0000000001
 12
1.0
 22
0.0
 32
0.0
 13
1.0
 23
0.0
 33
0.0
 40
0.0
 40
0.0
 40
0.0
 40
0.0
 40
0.1666666666666667
 40
0.1666666666666667
 40
0.1666666666666667
 40
0.1666666666666667
 40
0.3333333333333333
 40
0.3333333333333333
 40
0.3333333333333333
 40
0.3333333333333333
 40
0.5
 40
0.5
 40
0.5
 40
0.5
 40
0.6666666666666666
 40
0.6666666666666666
 40
0.6666666666666666
 40
0.6666666666666666
 40
1.0
 40
1.0
 40
1.0
 40
1.0
 10
104.8412
 20
51.6957
 30
0.0
 10
109.446
 20
49.6402
 30
0.0
 10
113.1593
 20
45.9476
 30
0.0
 10
115.2452
 20
41.3602
 30
0.0
 10
115.2452
 20
41.3602
 30
0.0
 10
117.3326
 20
45.9484
 30
0.0
 10
121.046
 20
49.6385
 30
0.0
 10
125.6505
 20
51.6941
 30
0.0
 10
125.6505
 20
51.6941
 30
0.0
 10
121.0463
 20
53.7512
 30
0.0
 10
117.3315
 20
57.4399
 30
0.0
 10
115.2452
 20
62.0271
 30
0.0
 10
115.2452
 20
62.0271
 30
0.0
 10
113.1599
 20
57.4407
 30
0.0
 10
109.4445
 20
53.7489
 30
0.0
 10
104.8401
 20
51.6941
 30
0.0
 10
104.8401
 20
51.6941
 30
0.0
 10
104.8401
 20
51.6941
 30
0.0
 10
104.8412
 20
51.6957
 30
0.0
 10
104.8412
 20
51.6957
 30
0.0
  0
SPLINE
  5
6B
330
1F
100
AcDbEntity
  8
layer 1
 62
     7
100
AcDbSpline
210
0.0
220
0.0
230
1.0
 70
    11
 71
     3
 72
    24
 73
    20
 74
     0
 42
0.0000000001
 43
0.0000000001
 12
1.0
 22
0.0
 32
0.0
 13
1.0
 23
0.0
 33
0.0
 40
0.0
 40
0.0
 40
0.0
 40
0.0
 40
0.1666666666666667
 40
0.1666666666666667
 40
0.1666666666666667
 40
0.1666666666666667
 40
0.3333333333333333
 40
0.3333333333333333
 40
0.3333333333333333
 40
0.3333333333333333
 40
0.5
 40
0.5
 40
0.5
 40
0.5
 40
0.6666666666666666
 40
0.6666666666666666
 40
0.6666666666666666
 40
0.6666666666666666
 40
1.0
 40
1.0
 40
1.0
 40
1.0
 10
152.8702
 20
41.361
 30
0.0
 10
154.9566
 20
45.9484
 30
0.0
 10
158.6706
 20
49.6385
 30
0.0
 10
163.2751
 20
51.6941
 30
0.0
 10
163.2751
 20
51.6941
 30
0.0
 10
158.6706
 20
53.7512
 30
0.0
 10
154.9555
 20
57.4396
 30
0.0
 10
152.8697
 20
62.0271
 30
0.0
 10
152.8697
 20
62.0271
 30
0.0
 10
150.7842
 20
57.4407
 30
0.0
 10
147.0691
 20
53.7489
 30
0.0
 10
142.4647
 20
51.6941
 30
0.0
 10
142.4647
 20
51.6941
 30
0.0
 10
147.0702
 20
49.6402
 30
0.0
 10
150.784
 20
45.9476
 30
0.0
 10
152.8697
 20
41.3602
 30
0.0
 10
152.8697
 20
41.3602
 30
0.0
 10
152.8697
 20
41.3602
 30
0.0
 10
152.8702
 20
41.361
 30
0.0
 10
152.8702
 20
41.361
 30
0.0
  0
SPLINE
  5
6C
330
1F
100
AcDbEntity
  8
layer 1
 62
     7
100
AcDbSpline
210
0.0
220
0.0
230
1.0
 70
    11
 71
     3
 72
    16
 73
    12
 74
     0
 42
0.0000000001
 43
0.0000000001
 12
1.0
 22
0.0
 32
0.0
 13
1.0
 23
0.0
 33
0.0
 40
0.0
 40
0.0
 40
0.0
 40
0.0
 40
0.25
 40
0.25
 40
0.25
 40
0.25
 40
0.5
 40
0.5
 40
0.5
 40
0.5
 40
1.0
 40
1.0
 40
1.0
 40
1.0
 10
170.9789
 20
15.8909
 30
0.0
 10
162.1818
 20
16.2503
 30
0.0
 10
155.1094
 20
23.3201
 30
0.0
 10
154.7499
 20
32.1193
 30
0.0
 10
154.7499
 20
32.1193
 30
0.0
 10
163.4937
 20
31.6418
 30
0.0
 10
170.4999
 20
24.6336
 30
0.0
 10
170.9789
 20
15.8903
 30
0.0
 10
170.9789
 20
15.8903
 30
0.0
 10
170.9789
 20
15.8903
 30
0.0
 10
170.9789
 20
15.8909
 30
0.0
 10
170.9789
 20
15.8909
 30
0.0
  0
SPLINE
  5
6D
330
1F
100
AcDbEntity
  8
layer 1
 62
     7
100
AcDbSpline
210
0.0
220
0.0
230
1.0
 70
    11
 71
     3
 72
    16
 73
    12
 74
     0
 42
0.0000000001
 43
0.0000000001
 12
1.0
 22
0.0
 32
0.0
 13
1.0
 23
0.0
 33
0.0
 40
0.0
 40
0.0
 40
0.0
 40
0.0
 40
0.25
 40
0.25
 40
0.25
 40
0.25
 40
0.5
 40
0.5
 40
0.5
 40
0.5
 40
1.0
 40
1.0
 40
1.0
 40
1.0
 10
188.6158
 20
32.1205
 30
0.0
 10
188.2562
 20
23.3209
 30
0.0
 10
181.1842
 20
16.2495
 30
0.0
 10
172.3851
 20
15.8903
 30
0.0
 10
172.3851
 20
15.8903
 30
0.0
 10
172.8647
 20
24.6353
 30
0.0
 10
179.8711
 20
31.6402
 30
0.0
 10
188.6146
 20
32.1193
 30
0.0
 10
188.6146
 20
32.1193
 30
0.0
 10
188.6146
 20
32.1193
 30
0.0
 10
188.6158
 20
32.1205
 30
0.0
 10
188.6158
 20
32.1205
 30
0.0
  0
SPLINE
  5
6E
330
1F
100
AcDbEntity
  8
layer 1
 62
     7
100
AcDbSpline
210
0.0
220
0.0
230
1.0
 70
    11
 71
     3
 72
    16
 73
    12
 74
     0
 42
0.0000000001
 43
0.0000000001
 12
1.0
 22
0.0
 32
0.0
 13
1.0
 23
0.0
 33
0.0
 40
0.0
 40
0.0
 40
0.0
 40
0.0
 40
0.25
 40
0.25
 40
0.25
 40
0.25
 40
0.5
 40
0.5
 40
0.5
 40
0.5
 40
1.0
 40
1.0
 40
1.0
 40
1.0
 10
172.386
 20
49.7549
 30
0.0
 10
181.1856
 20
49.3954
 30
0.0
 10
188.2551
 20
42.3245
 30
0.0
 10
188.6146
 20
33.5255
 30
0.0
 10
188.6146
 20
33.5255
 30
0.0
 10
179.8711
 20
34.0061
 30
0.0
 10
172.8647
 20
41.0115
 30
0.0
 10
172.3851
 20
49.7547
 30
0.0
 10
172.3851
 20
49.7547
 30
0.0
 10
172.3851
 20
49.7547
 30
0.0
 10
172.386
 20
49.7549
 30
0.0
 10
172.386
 20
49.7549
 30
0.0
  0
SPLINE
  5
6F
330
1F
100
AcDbEntity
  8
layer 1
 62
     7
100
AcDbSpline
210
0.0
220
0.0
230
1.0
 70
    11
 71
     3
 72
    16
 73
    12
 74
     0
 42
0.0000000001
 43
0.0000000001
 12
1.0
 22
0.0
 32
0.0
 13
1.0
 23
0.0
 33
0.0
 40
0.0
 40
0.0
 40
0.0
 40
0.0
 40
0.25
 40
0.25
 40
0.25
 40
0.25
 40
0.5
 40
0.5
 40
0.5
 40
0.5
 40
1.0
 40
1.0
 40
1.0
 40
1.0
 10
154.7515
 20
33.5275
 30
0.0
 10
155.1111
 20
42.3247
 30
0.0
 10
162.18
 20
49.3954
 30
0.0
 10
170.9789
 20
49.7547
 30
0.0
 10
170.9789
 20
49.7547
 30
0.0
 10
170.5005
 20
41.0126
 30
0.0
 10
163.4932
 20
34.0046
 30
0.0
 10
154.7499
 20
33.5255
 30
0.0
 10
154.7499
 20
33.5255
 30
0.0
 10
154.7499
 20
33.5255
 30
0.0
 10
154.7515
 20
33.5275
 30
0.0
 10
154.7515
 20
33.5275
 30
0.0
  0
SPLINE
  5
70
330
1F
100
AcDbEntity
  8
layer 1
 62
     7
100
AcDbSpline
210
0.0
220
0.0
230
1.0
 70
    11
 71
     3
 72
   164
 73
   160
 74
     0
 42
0.0000000001
 43
0.0000000001
 12
1.0
 22
0.0
 32
0.0
 13
1.0
 23
0.0
 33
0.0
 40
0.0
 40
0.0
 40
0.0
 40
0.0
 40
0.024390243902439
 40
0.024390243902439
 40
0.024390243902439
 40
0.024390243902439
 40
0.0487804878048781
 40
0.0487804878048781
 40
0.0487804878048781
 40
0.0487804878048781
 40
0.0731707317073171
 40
0.0731707317073171
 40
0.0731707317073171
 40
0.0731707317073171
 40
0.0975609756097561
 40
0.0975609756097561
 40
0.0975609756097561
 40
0.0975609756097561
 40
0.1219512195121951
 40
0.1219512195121951
 40
0.1219512195121951
 40
0.1219512195121951
 40
0.1463414634146341
 40
0.1463414634146341
 40
0.1463414634146341
 40
0.1463414634146341
 40
0.1707317073170732
 40
0.1707317073170732
 40
0.1707317073170732
 40
0.1707317073170732
 40
0.1951219512195122
 40
0.1951219512195122
 40
0.1951219512195122
 40
0.1951219512195122
 40
0.2195121951219512
 40
0.2195121951219512
 40
0.2195121951219512
 40
0.2195121951219512
 40
0.2439024390243902
 40
0.2439024390243902
 40
0.2439024390243902
 40
0.2439024390243902
 40
0.2682926829268293
 40
0.2682926829268293
 40
0.2682926829268293
 40
0.2682926829268293
 40
0.2926829268292683
 40
0.2926829268292683
 40
0.2926829268292683
 40
0.2926829268292683
 40
0.3170731707317073
 40
0.3170731707317073
 40
0.3170731707317073
 40
0.3170731707317073
 40
0.3414634146341464
 40
0.3414634146341464
 40
0.3414634146341464
 40
0.3414634146341464
 40
0.3658536585365854
 40
0.3658536585365854
 40
0.3658536585365854
 40
0.3658536585365854
 40
0.3902439024390244
 40
0.3902439024390244
 40
0.3902439024390244
 40
0.3902439024390244
 40
0.4146341463414634
 40
0.4146341463414634
 40
0.4146341463414634
 40
0.4146341463414634
 40
0.4390243902439024
 40
0.4390243902439024
 40
0.4390243902439024
 40
0.4390243902439024
 40
0.4634146341463415
 40
0.4634146341463415
 40
0.4634146341463415
 40
0.4634146341463415
 40
0.4878048780487805
 40
0.4878048780487805
 40
0.4878048780487805
 40
0.4878048780487805
 40
0.5121951219512195
 40
0.5121951219512195
 40
0.5121951219512195
 40
0.5121951219512195
 40
0.5365853658536586
 40
0.5365853658536586
 40
0.5365853658536586
 40
0.5365853658536586
 40
0.5609756097560976
 40
0.5609756097560976
 40
0.5609756097560976
 40
0.5609756097560976
 40
0.5853658536585366
 40
0.5853658536585366
 40
0.5853658536585366
 40
0.5853658536585366
 40
0.6097560975609756
 40
0.6097560975609756
 40
0.6097560975609756
 40
0.6097560975609756
 40
0.6341463414634146
 40
0.6341463414634146
 40
0.6341463414634146
 40
0.6341463414634146
 40
0.6585365853658537
 40
0.6585365853658537
 40
0.6585365853658537
 40
0.6585365853658537
 40
0.6829268292682927
 40
0.6829268292682927
 40
0.6829268292682927
 40
0.6829268292682927
 40
0.7073170731707317
 40
0.7073170731707317
 40
0.7073170731707317
 40
0.7073170731707317
 40
0.7317073170731707
 40
0.7317073170731707
 40
0.7317073170731707
 40
0.7317073170731707
 40
0.7560975609756098
 40
0.7560975609756098
 40
0.7560975609756098
 40
0.7560975609756098
 40
0.7804878048780488
 40
0.7804878048780488
 40
0.7804878048780488
 40
0.7804878048780488
 40
0.8048780487804879
 40
0.8048780487804879
 40
0.8048780487804879
 40
0.8048780487804879
 40
0.8292682926829268
 40
0.8292682926829268
 40
0.8292682926829268
 40
0.8292682926829268
 40
0.8536585365853658
 40
0.8536585365853658
 40
0.8536585365853658
 40
0.8536585365853658
 40
0.8780487804878049
 40
0.8780487804878049
 40
0.8780487804878049
 40
0.8780487804878049
 40
0.9024390243902439
 40
0.9024390243902439
 40
0.9024390243902439
 40
0.9024390243902439
 40
0.926829268292683
 40
0.926829268292683
 40
0.926829268292683
 40
0.926829268292683
 40
0.9512195121951219
 40
0.9512195121951219
 40
0.9512195121951219
 40
0.9512195121951219
 40
1.0
 40
1.0
 40
1.0
 40
1.0
 10
171.6825
 20
26.7678
 30
0.0
 10
171.6825
 20
26.7678
 30
0.0
 10
171.7883
 20
26.9311
 30
0.0
 10
171.7883
 20
26.9311
 30
0.0
 10
171.7883
 20
26.9311
 30
0.0
 10
171.7883
 20
26.9311
 30
0.0
 10
172.386
 20
27.7714
 30
0.0
 10
172.386
 20
27.7714
 30
0.0
 10
172.386
 20
27.7714
 30
0.0
 10
172.386
 20
27.7714
 30
0.0
 10
173.0211
 20
28.5808
 30
0.0
 10
173.0211
 20
28.5808
 30
0.0
 10
173.0211
 20
28.5808
 30
0.0
 10
173.0211
 20
28.5808
 30
0.0
 10
173.696
 20
29.3593
 30
0.0
 10
173.696
 20
29.3593
 30
0.0
 10
173.696
 20
29.3593
 30
0.0
 10
173.696
 20
29.3593
 30
0.0
 10
174.4039
 20
30.1025
 30
0.0
 10
174.4039
 20
30.1025
 30
0.0
 10
174.4039
 20
30.1025
 30
0.0
 10
174.4039
 20
30.1025
 30
0.0
 10
175.1494
 20
30.8127
 30
0.0
 10
175.1494
 20
30.8127
 30
0.0
 10
175.1494
 20
30.8127
 30
0.0
 10
175.1494
 20
30.8127
 30
0.0
 10
175.9257
 20
31.4853
 30
0.0
 10
175.9257
 20
31.4853
 30
0.0
 10
175.9257
 20
31.4853
 30
0.0
 10
175.9257
 20
31.4853
 30
0.0
 10
176.7351
 20
32.1226
 30
0.0
 10
176.7351
 20
32.1226
 30
0.0
 10
176.7351
 20
32.1226
 30
0.0
 10
176.7351
 20
32.1226
 30
0.0
 10
177.5775
 20
32.7181
 30
0.0
 10
177.5775
 20
32.7181
 30
0.0
 10
177.5775
 20
32.7181
 30
0.0
 10
177.5775
 20
32.7181
 30
0.0
 10
177.7386
 20
32.824
 30
0.0
 10
177.7386
 20
32.824
 30
0.0
 10
177.7386
 20
32.824
 30
0.0
 10
177.7386
 20
32.824
 30
0.0
 10
177.5775
 20
32.9276
 30
0.0
 10
177.5775
 20
32.9276
 30
0.0
 10
177.5775
 20
32.9276
 30
0.0
 10
177.5775
 20
32.9276
 30
0.0
 10
176.7351
 20
33.5252
 30
0.0
 10
176.7351
 20
33.5252
 30
0.0
 10
176.7351
 20
33.5252
 30
0.0
 10
176.7351
 20
33.5252
 30
0.0
 10
175.9257
 20
34.1627
 30
0.0
 10
175.9257
 20
34.1627
 30
0.0
 10
175.9257
 20
34.1627
 30
0.0
 10
175.9257
 20
34.1627
 30
0.0
 10
175.1494
 20
34.8352
 30
0.0
 10
175.1494
 20
34.8352
 30
0.0
 10
175.1494
 20
34.8352
 30
0.0
 10
175.1494
 20
34.8352
 30
0.0
 10
174.4039
 20
35.5454
 30
0.0
 10
174.4039
 20
35.5454
 30
0.0
 10
174.4039
 20
35.5454
 30
0.0
 10
174.4039
 20
35.5454
 30
0.0
 10
173.696
 20
36.2887
 30
0.0
 10
173.696
 20
36.2887
 30
0.0
 10
173.696
 20
36.2887
 30
0.0
 10
173.696
 20
36.2887
 30
0.0
 10
173.0211
 20
37.0671
 30
0.0
 10
173.0211
 20
37.0671
 30
0.0
 10
173.0211
 20
37.0671
 30
0.0
 10
173.0211
 20
37.0671
 30
0.0
 10
172.386
 20
37.8766
 30
0.0
 10
172.386
 20
37.8766
 30
0.0
 10
172.386
 20
37.8766
 30
0.0
 10
172.386
 20
37.8766
 30
0.0
 10
171.7883
 20
38.7168
 30
0.0
 10
171.7883
 20
38.7168
 30
0.0
 10
171.7883
 20
38.7168
 30
0.0
 10
171.7883
 20
38.7168
 30
0.0
 10
171.6825
 20
38.8801
 30
0.0
 10
171.6825
 20
38.8801
 30
0.0
 10
171.6825
 20
38.8801
 30
0.0
 10
171.6825
 20
38.8801
 30
0.0
 10
171.5788
 20
38.7168
 30
0.0
 10
171.5788
 20
38.7168
 30
0.0
 10
171.5788
 20
38.7168
 30
0.0
 10
171.5788
 20
38.7168
 30
0.0
 10
170.9811
 20
37.8766
 30
0.0
 10
170.9811
 20
37.8766
 30
0.0
 10
170.9811
 20
37.8766
 30
0.0
 10
170.9811
 20
37.8766
 30
0.0
 10
170.3438
 20
37.0671
 30
0.0
 10
170.3438
 20
37.0671
 30
0.0
 10
170.3438
 20
37.0671
 30
0.0
 10
170.3438
 20
37.0671
 30
0.0
 10
169.6711
 20
36.2887
 30
0.0
 10
169.6711
 20
36.2887
 30
0.0
 10
169.6711
 20
36.2887
 30
0.0
 10
169.6711
 20
36.2887
 30
0.0
 10
168.9609
 20
35.5454
 30
0.0
 10
168.9609
 20
35.5454
 30
0.0
 10
168.9609
 20
35.5454
 30
0.0
 10
168.9609
 20
35.5454
 30
0.0
 10
168.2179
 20
34.8352
 30
0.0
 10
168.2179
 20
34.8352
 30
0.0
 10
168.2179
 20
34.8352
 30
0.0
 10
168.2179
 20
34.8352
 30
0.0
 10
167.4417
 20
34.1627
 30
0.0
 10
167.4417
 20
34.1627
 30
0.0
 10
167.4417
 20
34.1627
 30
0.0
 10
167.4417
 20
34.1627
 30
0.0
 10
166.6298
 20
33.5252
 30
0.0
 10
166.6298
 20
33.5252
 30
0.0
 10
166.6298
 20
33.5252
 30
0.0
 10
166.6298
 20
33.5252
 30
0.0
 10
165.7896
 20
32.9276
 30
0.0
 10
165.7896
 20
32.9276
 30
0.0
 10
165.7896
 20
32.9276
 30
0.0
 10
165.7896
 20
32.9276
 30
0.0
 10
165.6264
 20
32.824
 30
0.0
 10
165.6264
 20
32.824
 30
0.0
 10
165.6264
 20
32.824
 30
0.0
 10
165.6264
 20
32.824
 30
0.0
 10
165.7896
 20
32.7181
 30
0.0
 10
165.7896
 20
32.7181
 30
0.0
 10
165.7896
 20
32.7181
 30
0.0
 10
165.7896
 20
32.7181
 30
0.0
 10
166.6298
 20
32.1226
 30
0.0
 10
166.6298
 20
32.1226
 30
0.0
 10
166.6298
 20
32.1226
 30
0.0
 10
166.6298
 20
32.1226
 30
0.0
 10
167.4417
 20
31.4853
 30
0.0
 10
167.4417
 20
31.4853
 30
0.0
 10
167.4417
 20
31.4853
 30
0.0
 10
167.4417
 20
31.4853
 30
0.0
 10
168.2179
 20
30.8104
 30
0.0
 10
168.2179
 20
30.8104
 30
0.0
 10
168.2179
 20
30.8104
 30
0.0
 10
168.2179
 20
30.8104
 30
0.0
 10
168.9609
 20
30.1025
 30
0.0
 10
168.9609
 20
30.1025
 30
0.0
 10
168.9609
 20
30.1025
 30
0.0
 10
168.9609
 20
30.1025
 30
0.0
 10
169.6711
 20
29.3593
 30
0.0
 10
169.6711
 20
29.3593
 30
0.0
 10
169.6711
 20
29.3593
 30
0.0
 10
169.6711
 20
29.3593
 30
0.0
 10
170.3438
 20
28.5808
 30
0.0
 10
170.3438
 20
28.5808
 30
0.0
 10
170.3438
 20
28.5808
 30
0.0
 10
170.3438
 20
28.5808
 30
0.0
 10
170.9811
 20
27.7714
 30
0.0
 10
170.9811
 20
27.7714
 30
0.0
 10
170.9811
 20
27.7714
 30
0.0
 10
170.9811
 20
27.7714
 30
0.0
 10
171.5788
 20
26.9311
 30
0.0
 10
171.5788
 20
26.9311
 30
0.0
 10
171.5788
 20
26.9311
 30
0.0
 10
171.5788
 20
26.9311
 30
0.0
 10
171.6825
 20
26.7678
 30
0.0
 10
171.6825
 20
26.7678
 30
0.0
  0
SPLINE
  5
71
330
1F
100
AcDbEntity
  8
layer 1
 62
     7
100
AcDbSpline
210
0.0
220
0.0
230
1.0
 70
    11
 71
     3
 72
   164
 73
   160
 74
     0
 42
0.0000000001
 43
0.0000000001
 12
1.0
 22
0.0
 32
0.0
 13
1.0
 23
0.0
 33
0.0
 40
0.0
 40
0.0
 40
0.0
 40
0.0
 40
0.024390243902439
 40
0.024390243902439
 40
0.024390243902439
 40
0.024390243902439
 40
0.0487804878048781
 40
0.0487804878048781
 40
0.0487804878048781
 40
0.0487804878048781
 40
0.0731707317073171
 40
0.0731707317073171
 40
0.0731707317073171
 40
0.0731707317073171
 40
0.0975609756097561
 40
0.0975609756097561
 40
0.0975609756097561
 40
0.0975609756097561
 40
0.1219512195121951
 40
0.1219512195121951
 40
0.1219512195121951
 40
0.1219512195121951
 40
0.1463414634146341
 40
0.1463414634146341
 40
0.1463414634146341
 40
0.1463414634146341
 40
0.1707317073170732
 40
0.1707317073170732
 40
0.1707317073170732
 40
0.1707317073170732
 40
0.1951219512195122
 40
0.1951219512195122
 40
0.1951219512195122
 40
0.1951219512195122
 40
0.2195121951219512
 40
0.2195121951219512
 40
0.2195121951219512
 40
0.2195121951219512
 40
0.2439024390243902
 40
0.2439024390243902
 40
0.2439024390243902
 40
0.2439024390243902
 40
0.2682926829268293
 40
0.2682926829268293
 40
0.2682926829268293
 40
0.2682926829268293
 40
0.2926829268292683
 40
0.2926829268292683
 40
0.2926829268292683
 40
0.2926829268292683
 40
0.3170731707317073
 40
0.3170731707317073
 40
0.3170731707317073
 40
0.3170731707317073
 40
0.3414634146341464
 40
0.3414634146341464
 40
0.3414634146341464
 40
0.3414634146341464
 40
0.3658536585365854
 40
0.3658536585365854
 40
0.3658536585365854
 40
0.3658536585365854
 40
0.3902439024390244
 40
0.3902439024390244
 40
0.3902439024390244
 40
0.3902439024390244
 40
0.4146341463414634
 40
0.4146341463414634
 40
0.4146341463414634
 40
0.4146341463414634
 40
0.4390243902439024
 40
0.4390243902439024
 40
0.4390243902439024
 40
0.4390243902439024
 40
0.4634146341463415
 40
0.4634146341463415
 40
0.4634146341463415
 40
0.4634146341463415
 40
0.4878048780487805
 40
0.4878048780487805
 40
0.4878048780487805
 40
0.4878048780487805
 40
0.5121951219512195
 40
0.5121951219512195
 40
0.5121951219512195
 40
0.5121951219512195
 40
0.5365853658536586
 40
0.5365853658536586
 40
0.5365853658536586
 40
0.5365853658536586
 40
0.5609756097560976
 40
0.5609756097560976
 40
0.5609756097560976
 40
0.5609756097560976
 40
0.5853658536585366
 40
0.5853658536585366
 40
0.5853658536585366
 40
0.5853658536585366
 40
0.6097560975609756
 40
0.6097560975609756
 40
0.6097560975609756
 40
0.6097560975609756
 40
0.6341463414634146
 40
0.6341463414634146
 40
0.6341463414634146
 40
0.6341463414634146
 40
0.6585365853658537
 40
0.6585365853658537
 40
0.6585365853658537
 40
0.6585365853658537
 40
0.6829268292682927
 40
0.6829268292682927
 40
0.6829268292682927
 40
0.6829268292682927
 40
0.7073170731707317
 40
0.7073170731707317
 40
0.7073170731707317
 40
0.7073170731707317
 40
0.7317073170731707
 40
0.7317073170731707
 40
0.7317073170731707
 40
0.7317073170731707
 40
0.7560975609756098
 40
0.7560975609756098
 40
0.7560975609756098
 40
0.7560975609756098
 40
0.7804878048780488
 40
0.7804878048780488
 40
0.7804878048780488
 40
0.7804878048780488
 40
0.8048780487804879
 40
0.8048780487804879
 40
0.8048780487804879
 40
0.8048780487804879
 40
0.8292682926829268
 40
0.8292682926829268
 40
0.8292682926829268
 40
0.8292682926829268
 40
0.8536585365853658
 40
0.8536585365853658
 40
0.8536585365853658
 40
0.8536585365853658
 40
0.8780487804878049
 40
0.8780487804878049
 40
0.8780487804878049
 40
0.8780487804878049
 40
0.9024390243902439
 40
0.9024390243902439
 40
0.9024390243902439
 40
0.9024390243902439
 40
0.926829268292683
 40
0.926829268292683
 40
0.926829268292683
 40
0.926829268292683
 40
0.9512195121951219
 40
0.9512195121951219
 40
0.9512195121951219
 40
0.9512195121951219
 40
1.0
 40
1.0
 40
1.0
 40
1.0
 10
96.4341
 20
26.7678
 30
0.0
 10
96.4341
 20
26.7678
 30
0.0
 10
96.5377
 20
26.9311
 30
0.0
 10
96.5377
 20
26.9311
 30
0.0
 10
96.5377
 20
26.9311
 30
0.0
 10
96.5377
 20
26.9311
 30
0.0
 10
97.1354
 20
27.7714
 30
0.0
 10
97.1354
 20
27.7714
 30
0.0
 10
97.1354
 20
27.7714
 30
0.0
 10
97.1354
 20
27.7714
 30
0.0
 10
97.7728
 20
28.5808
 30
0.0
 10
97.7728
 20
28.5808
 30
0.0
 10
97.7728
 20
28.5808
 30
0.0
 10
97.7728
 20
28.5808
 30
0.0
 10
98.4455
 20
29.3593
 30
0.0
 10
98.4455
 20
29.3593
 30
0.0
 10
98.4455
 20
29.3593
 30
0.0
 10
98.4455
 20
29.3593
 30
0.0
 10
99.1556
 20
30.1025
 30
0.0
 10
99.1556
 20
30.1025
 30
0.0
 10
99.1556
 20
30.1025
 30
0.0
 10
99.1556
 20
30.1025
 30
0.0
 10
99.9011
 20
30.8127
 30
0.0
 10
99.9011
 20
30.8127
 30
0.0
 10
99.9011
 20
30.8127
 30
0.0
 10
99.9011
 20
30.8127
 30
0.0
 10
100.6773
 20
31.4853
 30
0.0
 10
100.6773
 20
31.4853
 30
0.0
 10
100.6773
 20
31.4853
 30
0.0
 10
100.6773
 20
31.4853
 30
0.0
 10
101.4867
 20
32.1226
 30
0.0
 10
101.4867
 20
32.1226
 30
0.0
 10
101.4867
 20
32.1226
 30
0.0
 10
101.4867
 20
32.1226
 30
0.0
 10
102.3269
 20
32.7181
 30
0.0
 10
102.3269
 20
32.7181
 30
0.0
 10
102.3269
 20
32.7181
 30
0.0
 10
102.3269
 20
32.7181
 30
0.0
 10
102.49
 20
32.824
 30
0.0
 10
102.49
 20
32.824
 30
0.0
 10
102.49
 20
32.824
 30
0.0
 10
102.49
 20
32.824
 30
0.0
 10
102.3269
 20
32.9276
 30
0.0
 10
102.3269
 20
32.9276
 30
0.0
 10
102.3269
 20
32.9276
 30
0.0
 10
102.3269
 20
32.9276
 30
0.0
 10
101.4867
 20
33.5252
 30
0.0
 10
101.4867
 20
33.5252
 30
0.0
 10
101.4867
 20
33.5252
 30
0.0
 10
101.4867
 20
33.5252
 30
0.0
 10
100.6773
 20
34.1627
 30
0.0
 10
100.6773
 20
34.1627
 30
0.0
 10
100.6773
 20
34.1627
 30
0.0
 10
100.6773
 20
34.1627
 30
0.0
 10
99.9011
 20
34.8352
 30
0.0
 10
99.9011
 20
34.8352
 30
0.0
 10
99.9011
 20
34.8352
 30
0.0
 10
99.9011
 20
34.8352
 30
0.0
 10
99.1556
 20
35.5454
 30
0.0
 10
99.1556
 20
35.5454
 30
0.0
 10
99.1556
 20
35.5454
 30
0.0
 10
99.1556
 20
35.5454
 30
0.0
 10
98.4455
 20
36.2887
 30
0.0
 10
98.4455
 20
36.2887
 30
0.0
 10
98.4455
 20
36.2887
 30
0.0
 10
98.4455
 20
36.2887
 30
0.0
 10
97.7728
 20
37.0671
 30
0.0
 10
97.7728
 20
37.0671
 30
0.0
 10
97.7728
 20
37.0671
 30
0.0
 10
97.7728
 20
37.0671
 30
0.0
 10
97.1354
 20
37.8766
 30
0.0
 10
97.1354
 20
37.8766
 30
0.0
 10
97.1354
 20
37.8766
 30
0.0
 10
97.1354
 20
37.8766
 30
0.0
 10
96.5377
 20
38.7168
 30
0.0
 10
96.5377
 20
38.7168
 30
0.0
 10
96.5377
 20
38.7168
 30
0.0
 10
96.5377
 20
38.7168
 30
0.0
 10
96.4341
 20
38.8801
 30
0.0
 10
96.4341
 20
38.8801
 30
0.0
 10
96.4341
 20
38.8801
 30
0.0
 10
96.4341
 20
38.8801
 30
0.0
 10
96.3305
 20
38.7168
 30
0.0
 10
96.3305
 20
38.7168
 30
0.0
 10
96.3305
 20
38.7168
 30
0.0
 10
96.3305
 20
38.7168
 30
0.0
 10
95.7329
 20
37.8766
 30
0.0
 10
95.7329
 20
37.8766
 30
0.0
 10
95.7329
 20
37.8766
 30
0.0
 10
95.7329
 20
37.8766
 30
0.0
 10
95.0954
 20
37.0671
 30
0.0
 10
95.0954
 20
37.0671
 30
0.0
 10
95.0954
 20
37.0671
 30
0.0
 10
95.0954
 20
37.0671
 30
0.0
 10
94.4228
 20
36.2887
 30
0.0
 10
94.4228
 20
36.2887
 30
0.0
 10
94.4228
 20
36.2887
 30
0.0
 10
94.4228
 20
36.2887
 30
0.0
 10
93.7126
 20
35.5454
 30
0.0
 10
93.7126
 20
35.5454
 30
0.0
 10
93.7126
 20
35.5454
 30
0.0
 10
93.7126
 20
35.5454
 30
0.0
 10
92.9694
 20
34.8352
 30
0.0
 10
92.9694
 20
34.8352
 30
0.0
 10
92.9694
 20
34.8352
 30
0.0
 10
92.9694
 20
34.8352
 30
0.0
 10
92.1909
 20
34.1627
 30
0.0
 10
92.1909
 20
34.1627
 30
0.0
 10
92.1909
 20
34.1627
 30
0.0
 10
92.1909
 20
34.1627
 30
0.0
 10
91.3815
 20
33.5252
 30
0.0
 10
91.3815
 20
33.5252
 30
0.0
 10
91.3815
 20
33.5252
 30
0.0
 10
91.3815
 20
33.5252
 30
0.0
 10
90.5413
 20
32.9276
 30
0.0
 10
90.5413
 20
32.9276
 30
0.0
 10
90.5413
 20
32.9276
 30
0.0
 10
90.5413
 20
32.9276
 30
0.0
 10
90.3782
 20
32.824
 30
0.0
 10
90.3782
 20
32.824
 30
0.0
 10
90.3782
 20
32.824
 30
0.0
 10
90.3782
 20
32.824
 30
0.0
 10
90.5413
 20
32.7181
 30
0.0
 10
90.5413
 20
32.7181
 30
0.0
 10
90.5413
 20
32.7181
 30
0.0
 10
90.5413
 20
32.7181
 30
0.0
 10
91.3815
 20
32.1226
 30
0.0
 10
91.3815
 20
32.1226
 30
0.0
 10
91.3815
 20
32.1226
 30
0.0
 10
91.3815
 20
32.1226
 30
0.0
 10
92.1909
 20
31.4853
 30
0.0
 10
92.1909
 20
31.4853
 30
0.0
 10
92.1909
 20
31.4853
 30
0.0
 10
92.1909
 20
31.4853
 30
0.0
 10
92.9694
 20
30.8104
 30
0.0
 10
92.9694
 20
30.8104
 30
0.0
 10
92.9694
 20
30.8104
 30
0.0
 10
92.9694
 20
30.8104
 30
0.0
 10
93.7126
 20
30.1025
 30
0.0
 10
93.7126
 20
30.1025
 30
0.0
 10
93.7126
 20
30.1025
 30
0.0
 10
93.7126
 20
30.1025
 30
0.0
 10
94.4228
 20
29.3593
 30
0.0
 10
94.4228
 20
29.3593
 30
0.0
 10
94.4228
 20
29.3593
 30
0.0
 10
94.4228
 20
29.3593
 30
0.0
 10
95.0954
 20
28.5808
 30
0.0
 10
95.0954
 20
28.5808
 30
0.0
 10
95.0954
 20
28.5808
 30
0.0
 10
95.0954
 20
28.5808
 30
0.0
 10
95.7329
 20
27.7714
 30
0.0
 10
95.7329
 20
27.7714
 30
0.0
 10
95.7329
 20
27.7714
 30
0.0
 10
95.7329
 20
27.7714
 30
0.0
 10
96.3305
 20
26.9311
 30
0.0
 10
96.3305
 20
26.9311
 30
0.0
 10
96.3305
 20
26.9311
 30
0.0
 10
96.3305
 20
26.9311
 30
0.0
 10
96.4341
 20
26.7678
 30
0.0
 10
96.4341
 20
26.7678
 30
0.0
  0
SPLINE
  5
72
330
1F
100
AcDbEntity
  8
layer 1
 62
     7
100
AcDbSpline
210
0.0
220
0.0
230
1.0
 70
    11
 71
     3
 72
    16
 73
    12
 74
     0
 42
0.0000000001
 43
0.0000000001
 12
1.0
 22
0.0
 32
0.0
 13
1.0
 23
0.0
 33
0.0
 40
0.0
 40
0.0
 40
0.0
 40
0.0
 40
0.25
 40
0.25
 40
0.25
 40
0.25
 40
0.5
 40
0.5
 40
0.5
 40
0.5
 40
1.0
 40
1.0
 40
1.0
 40
1.0
 10
95.7306
 20
-21.8525
 30
0.0
 10
86.931
 20
-21.4907
 30
0.0
 10
79.8605
 20
-14.4222
 30
0.0
 10
79.501
 20
-5.6229
 30
0.0
 10
79.501
 20
-5.6229
 30
0.0
 10
88.2454
 20
-6.1015
 30
0.0
 10
95.2508
 20
-13.1089
 30
0.0
 10
95.7301
 20
-21.8525
 30
0.0
 10
95.7301
 20
-21.8525
 30
0.0
 10
95.7301
 20
-21.8525
 30
0.0
 10
95.7306
 20
-21.8525
 30
0.0
 10
95.7306
 20
-21.8525
 30
0.0
  0
SPLINE
  5
73
330
1F
100
AcDbEntity
  8
layer 1
 62
     7
100
AcDbSpline
210
0.0
220
0.0
230
1.0
 70
    11
 71
     3
 72
    16
 73
    12
 74
     0
 42
0.0000000001
 43
0.0000000001
 12
1.0
 22
0.0
 32
0.0
 13
1.0
 23
0.0
 33
0.0
 40
0.0
 40
0.0
 40
0.0
 40
0.0
 40
0.25
 40
0.25
 40
0.25
 40
0.25
 40
0.5
 40
0.5
 40
0.5
 40
0.5
 40
1.0
 40
1.0
 40
1.0
 40
1.0
 10
113.3672
 20
-5.6229
 30
0.0
 10
113.0077
 20
-14.4202
 30
0.0
 10
105.9354
 20
-21.4924
 30
0.0
 10
97.1363
 20
-21.8525
 30
0.0
 10
97.1363
 20
-21.8525
 30
0.0
 10
97.6161
 20
-13.1081
 30
0.0
 10
104.6226
 20
-6.1023
 30
0.0
 10
113.3652
 20
-5.6229
 30
0.0
 10
113.3652
 20
-5.6229
 30
0.0
 10
113.3652
 20
-5.6229
 30
0.0
 10
113.3672
 20
-5.6229
 30
0.0
 10
113.3672
 20
-5.6229
 30
0.0
  0
SPLINE
  5
74
330
1F
100
AcDbEntity
  8
layer 1
 62
     7
100
AcDbSpline
210
0.0
220
0.0
230
1.0
 70
    11
 71
     3
 72
    16
 73
    12
 74
     0
 42
0.0000000001
 43
0.0000000001
 12
1.0
 22
0.0
 32
0.0
 13
1.0
 23
0.0
 33
0.0
 40
0.0
 40
0.0
 40
0.0
 40
0.0
 40
0.25
 40
0.25
 40
0.25
 40
0.25
 40
0.5
 40
0.5
 40
0.5
 40
0.5
 40
1.0
 40
1.0
 40
1.0
 40
1.0
 10
97.1376
 20
12.0136
 30
0.0
 10
105.9371
 20
11.6543
 30
0.0
 10
113.006
 20
4.5821
 30
0.0
 10
113.3652
 20
-4.217
 30
0.0
 10
113.3652
 20
-4.217
 30
0.0
 10
104.6228
 20
-3.7372
 30
0.0
 10
97.615
 20
3.269
 30
0.0
 10
97.1363
 20
12.012
 30
0.0
 10
97.1363
 20
12.012
 30
0.0
 10
97.1363
 20
12.012
 30
0.0
 10
97.1376
 20
12.0136
 30
0.0
 10
97.1376
 20
12.0136
 30
0.0
  0
SPLINE
  5
75
330
1F
100
AcDbEntity
  8
layer 1
 62
     7
100
AcDbSpline
210
0.0
220
0.0
230
1.0
 70
    11
 71
     3
 72
    16
 73
    12
 74
     0
 42
0.0000000001
 43
0.0000000001
 12
1.0
 22
0.0
 32
0.0
 13
1.0
 23
0.0
 33
0.0
 40
0.0
 40
0.0
 40
0.0
 40
0.0
 40
0.25
 40
0.25
 40
0.25
 40
0.25
 40
0.5
 40
0.5
 40
0.5
 40
0.5
 40
1.0
 40
1.0
 40
1.0
 40
1.0
 10
79.501
 20
-4.2159
 30
0.0
 10
79.8605
 20
4.5838
 30
0.0
 10
86.931
 20
11.6527
 30
0.0
 10
95.7301
 20
12.012
 30
0.0
 10
95.7301
 20
12.012
 30
0.0
 10
95.2519
 20
3.2693
 30
0.0
 10
88.244
 20
-3.7379
 30
0.0
 10
79.501
 20
-4.217
 30
0.0
 10
79.501
 20
-4.217
 30
0.0
 10
79.501
 20
-4.217
 30
0.0
 10
79.501
 20
-4.2159
 30
0.0
 10
79.501
 20
-4.2159
 30
0.0
  0
SPLINE
  5
76
330
1F
100
AcDbEntity
  8
layer 1
 62
     7
100
AcDbSpline
210
0.0
220
0.0
230
1.0
 70
    11
 71
     3
 72
    12
 73
     8
 74
     0
 42
0.0000000001
 43
0.0000000001
 12
1.0
 22
0.0
 32
0.0
 13
1.0
 23
0.0
 33
0.0
 40
0.0
 40
0.0
 40
0.0
 40
0.0
 40
0.3333333333333333
 40
0.3333333333333333
 40
0.3333333333333333
 40
0.3333333333333333
 40
1.0
 40
1.0
 40
1.0
 40
1.0
 10
133.3549
 20
-21.8525
 30
0.0
 10
124.5575
 20
-21.4907
 30
0.0
 10
117.4849
 20
-14.4222
 30
0.0
 10
117.1257
 20
-5.6229
 30
0.0
 10
117.1257
 20
-5.6229
 30
0.0
 10
125.8697
 20
-6.1015
 30
0.0
 10
132.8753
 20
-13.1089
 30
0.0
 10
133.3549
 20
-21.8525
 30
0.0
  0
SPLINE
  5
77
330
1F
100
AcDbEntity
  8
layer 1
 62
     7
100
AcDbSpline
210
0.0
220
0.0
230
1.0
 70
    11
 71
     3
 72
    16
 73
    12
 74
     0
 42
0.0000000001
 43
0.0000000001
 12
1.0
 22
0.0
 32
0.0
 13
1.0
 23
0.0
 33
0.0
 40
0.0
 40
0.0
 40
0.0
 40
0.0
 40
0.25
 40
0.25
 40
0.25
 40
0.25
 40
0.5
 40
0.5
 40
0.5
 40
0.5
 40
1.0
 40
1.0
 40
1.0
 40
1.0
 10
150.9914
 20
-5.6229
 30
0.0
 10
150.6319
 20
-14.4202
 30
0.0
 10
143.5599
 20
-21.4924
 30
0.0
 10
134.7608
 20
-21.8525
 30
0.0
 10
134.7608
 20
-21.8525
 30
0.0
 10
135.2403
 20
-13.1081
 30
0.0
 10
142.2466
 20
-6.1023
 30
0.0
 10
150.9901
 20
-5.6229
 30
0.0
 10
150.9901
 20
-5.6229
 30
0.0
 10
150.9901
 20
-5.6229
 30
0.0
 10
150.9914
 20
-5.6229
 30
0.0
 10
150.9914
 20
-5.6229
 30
0.0
  0
SPLINE
  5
78
330
1F
100
AcDbEntity
  8
layer 1
 62
     7
100
AcDbSpline
210
0.0
220
0.0
230
1.0
 70
    11
 71
     3
 72
    16
 73
    12
 74
     0
 42
0.0000000001
 43
0.0000000001
 12
1.0
 22
0.0
 32
0.0
 13
1.0
 23
0.0
 33
0.0
 40
0.0
 40
0.0
 40
0.0
 40
0.0
 40
0.25
 40
0.25
 40
0.25
 40
0.25
 40
0.5
 40
0.5
 40
0.5
 40
0.5
 40
1.0
 40
1.0
 40
1.0
 40
1.0
 10
134.7619
 20
12.0136
 30
0.0
 10
143.5613
 20
11.6543
 30
0.0
 10
150.6306
 20
4.5821
 30
0.0
 10
150.9901
 20
-4.217
 30
0.0
 10
150.9901
 20
-4.217
 30
0.0
 10
142.2471
 20
-3.7372
 30
0.0
 10
135.2395
 20
3.269
 30
0.0
 10
134.7608
 20
12.012
 30
0.0
 10
134.7608
 20
12.012
 30
0.0
 10
134.7608
 20
12.012
 30
0.0
 10
134.7619
 20
12.0136
 30
0.0
 10
134.7619
 20
12.0136
 30
0.0
  0
SPLINE
  5
79
330
1F
100
AcDbEntity
  8
layer 1
 62
     7
100
AcDbSpline
210
0.0
220
0.0
230
1.0
 70
    11
 71
     3
 72
    16
 73
    12
 74
     0
 42
0.0000000001
 43
0.0000000001
 12
1.0
 22
0.0
 32
0.0
 13
1.0
 23
0.0
 33
0.0
 40
0.0
 40
0.0
 40
0.0
 40
0.0
 40
0.25
 40
0.25
 40
0.25
 40
0.25
 40
0.5
 40
0.5
 40
0.5
 40
0.5
 40
1.0
 40
1.0
 40
1.0
 40
1.0
 10
117.1273
 20
-4.2159
 30
0.0
 10
117.4868
 20
4.5838
 30
0.0
 10
124.5555
 20
11.6527
 30
0.0
 10
133.3543
 20
12.012
 30
0.0
 10
133.3543
 20
12.012
 30
0.0
 10
132.8761
 20
3.2693
 30
0.0
 10
125.8688
 20
-3.7379
 30
0.0
 10
117.1257
 20
-4.217
 30
0.0
 10
117.1257
 20
-4.217
 30
0.0
 10
117.1257
 20
-4.217
 30
0.0
 10
117.1273
 20
-4.2159
 30
0.0
 10
117.1273
 20
-4.2159
 30
0.0
  0
SPLINE
  5
7A
330
1F
100
AcDbEntity
  8
layer 1
 62
     7
100
AcDbSpline
210
0.0
220
0.0
230
1.0
 70
    11
 71
     3
 72
   164
 73
   160
 74
     0
 42
0.0000000001
 43
0.0000000001
 12
1.0
 22
0.0
 32
0.0
 13
1.0
 23
0.0
 33
0.0
 40
0.0
 40
0.0
 40
0.0
 40
0.0
 40
0.024390243902439
 40
0.024390243902439
 40
0.024390243902439
 40
0.024390243902439
 40
0.0487804878048781
 40
0.0487804878048781
 40
0.0487804878048781
 40
0.0487804878048781
 40
0.0731707317073171
 40
0.0731707317073171
 40
0.0731707317073171
 40
0.0731707317073171
 40
0.0975609756097561
 40
0.0975609756097561
 40
0.0975609756097561
 40
0.0975609756097561
 40
0.1219512195121951
 40
0.1219512195121951
 40
0.1219512195121951
 40
0.1219512195121951
 40
0.1463414634146341
 40
0.1463414634146341
 40
0.1463414634146341
 40
0.1463414634146341
 40
0.1707317073170732
 40
0.1707317073170732
 40
0.1707317073170732
 40
0.1707317073170732
 40
0.1951219512195122
 40
0.1951219512195122
 40
0.1951219512195122
 40
0.1951219512195122
 40
0.2195121951219512
 40
0.2195121951219512
 40
0.2195121951219512
 40
0.2195121951219512
 40
0.2439024390243902
 40
0.2439024390243902
 40
0.2439024390243902
 40
0.2439024390243902
 40
0.2682926829268293
 40
0.2682926829268293
 40
0.2682926829268293
 40
0.2682926829268293
 40
0.2926829268292683
 40
0.2926829268292683
 40
0.2926829268292683
 40
0.2926829268292683
 40
0.3170731707317073
 40
0.3170731707317073
 40
0.3170731707317073
 40
0.3170731707317073
 40
0.3414634146341464
 40
0.3414634146341464
 40
0.3414634146341464
 40
0.3414634146341464
 40
0.3658536585365854
 40
0.3658536585365854
 40
0.3658536585365854
 40
0.3658536585365854
 40
0.3902439024390244
 40
0.3902439024390244
 40
0.3902439024390244
 40
0.3902439024390244
 40
0.4146341463414634
 40
0.4146341463414634
 40
0.4146341463414634
 40
0.4146341463414634
 40
0.4390243902439024
 40
0.4390243902439024
 40
0.4390243902439024
 40
0.4390243902439024
 40
0.4634146341463415
 40
0.4634146341463415
 40
0.4634146341463415
 40
0.4634146341463415
 40
0.4878048780487805
 40
0.4878048780487805
 40
0.4878048780487805
 40
0.4878048780487805
 40
0.5121951219512195
 40
0.5121951219512195
 40
0.5121951219512195
 40
0.5121951219512195
 40
0.5365853658536586
 40
0.5365853658536586
 40
0.5365853658536586
 40
0.5365853658536586
 40
0.5609756097560976
 40
0.5609756097560976
 40
0.5609756097560976
 40
0.5609756097560976
 40
0.5853658536585366
 40
0.5853658536585366
 40
0.5853658536585366
 40
0.5853658536585366
 40
0.6097560975609756
 40
0.6097560975609756
 40
0.6097560975609756
 40
0.6097560975609756
 40
0.6341463414634146
 40
0.6341463414634146
 40
0.6341463414634146
 40
0.6341463414634146
 40
0.6585365853658537
 40
0.6585365853658537
 40
0.6585365853658537
 40
0.6585365853658537
 40
0.6829268292682927
 40
0.6829268292682927
 40
0.6829268292682927
 40
0.6829268292682927
 40
0.7073170731707317
 40
0.7073170731707317
 40
0.7073170731707317
 40
0.7073170731707317
 40
0.7317073170731707
 40
0.7317073170731707
 40
0.7317073170731707
 40
0.7317073170731707
 40
0.7560975609756098
 40
0.7560975609756098
 40
0.7560975609756098
 40
0.7560975609756098
 40
0.7804878048780488
 40
0.7804878048780488
 40
0.7804878048780488
 40
0.7804878048780488
 40
0.8048780487804879
 40
0.8048780487804879
 40
0.8048780487804879
 40
0.8048780487804879
 40
0.8292682926829268
 40
0.8292682926829268
 40
0.8292682926829268
 40
0.8292682926829268
 40
0.8536585365853658
 40
0.8536585365853658
 40
0.8536585365853658
 40
0.8536585365853658
 40
0.8780487804878049
 40
0.8780487804878049
 40
0.8780487804878049
 40
0.8780487804878049
 40
0.9024390243902439
 40
0.9024390243902439
 40
0.9024390243902439
 40
0.9024390243902439
 40
0.926829268292683
 40
0.926829268292683
 40
0.926829268292683
 40
0.926829268292683
 40
0.9512195121951219
 40
0.9512195121951219
 40
0.9512195121951219
 40
0.9512195121951219
 40
1.0
 40
1.0
 40
1.0
 40
1.0
 10
134.0584
 20
-10.9754
 30
0.0
 10
134.0584
 20
-10.9754
 30
0.0
 10
134.1642
 20
-10.8122
 30
0.0
 10
134.1642
 20
-10.8122
 30
0.0
 10
134.1642
 20
-10.8122
 30
0.0
 10
134.1642
 20
-10.8122
 30
0.0
 10
134.7619
 20
-9.9719
 30
0.0
 10
134.7619
 20
-9.9719
 30
0.0
 10
134.7619
 20
-9.9719
 30
0.0
 10
134.7619
 20
-9.9719
 30
0.0
 10
135.397
 20
-9.1625
 30
0.0
 10
135.397
 20
-9.1625
 30
0.0
 10
135.397
 20
-9.1625
 30
0.0
 10
135.397
 20
-9.1625
 30
0.0
 10
136.0717
 20
-8.384
 30
0.0
 10
136.0717
 20
-8.384
 30
0.0
 10
136.0717
 20
-8.384
 30
0.0
 10
136.0717
 20
-8.384
 30
0.0
 10
136.7796
 20
-7.6408
 30
0.0
 10
136.7796
 20
-7.6408
 30
0.0
 10
136.7796
 20
-7.6408
 30
0.0
 10
136.7796
 20
-7.6408
 30
0.0
 10
137.5251
 20
-6.9308
 30
0.0
 10
137.5251
 20
-6.9308
 30
0.0
 10
137.5251
 20
-6.9308
 30
0.0
 10
137.5251
 20
-6.9308
 30
0.0
 10
138.3014
 20
-6.2581
 30
0.0
 10
138.3014
 20
-6.2581
 30
0.0
 10
138.3014
 20
-6.2581
 30
0.0
 10
138.3014
 20
-6.2581
 30
0.0
 10
139.1108
 20
-5.6207
 30
0.0
 10
139.1108
 20
-5.6207
 30
0.0
 10
139.1108
 20
-5.6207
 30
0.0
 10
139.1108
 20
-5.6207
 30
0.0
 10
139.9513
 20
-5.023
 30
0.0
 10
139.9513
 20
-5.023
 30
0.0
 10
139.9513
 20
-5.023
 30
0.0
 10
139.9513
 20
-5.023
 30
0.0
 10
140.1144
 20
-4.9194
 30
0.0
 10
140.1144
 20
-4.9194
 30
0.0
 10
140.1144
 20
-4.9194
 30
0.0
 10
140.1144
 20
-4.9194
 30
0.0
 10
139.9513
 20
-4.8136
 30
0.0
 10
139.9513
 20
-4.8136
 30
0.0
 10
139.9513
 20
-4.8136
 30
0.0
 10
139.9513
 20
-4.8136
 30
0.0
 10
139.1108
 20
-4.2181
 30
0.0
 10
139.1108
 20
-4.2181
 30
0.0
 10
139.1108
 20
-4.2181
 30
0.0
 10
139.1108
 20
-4.2181
 30
0.0
 10
138.3014
 20
-3.5808
 30
0.0
 10
138.3014
 20
-3.5808
 30
0.0
 10
138.3014
 20
-3.5808
 30
0.0
 10
138.3014
 20
-3.5808
 30
0.0
 10
137.5251
 20
-2.9081
 30
0.0
 10
137.5251
 20
-2.9081
 30
0.0
 10
137.5251
 20
-2.9081
 30
0.0
 10
137.5251
 20
-2.9081
 30
0.0
 10
136.7796
 20
-2.1979
 30
0.0
 10
136.7796
 20
-2.1979
 30
0.0
 10
136.7796
 20
-2.1979
 30
0.0
 10
136.7796
 20
-2.1979
 30
0.0
 10
136.0697
 20
-1.4524
 30
0.0
 10
136.0697
 20
-1.4524
 30
0.0
 10
136.0697
 20
-1.4524
 30
0.0
 10
136.0697
 20
-1.4524
 30
0.0
 10
135.397
 20
-0.6761
 30
0.0
 10
135.397
 20
-0.6761
 30
0.0
 10
135.397
 20
-0.6761
 30
0.0
 10
135.397
 20
-0.6761
 30
0.0
 10
134.7619
 20
0.1333
 30
0.0
 10
134.7619
 20
0.1333
 30
0.0
 10
134.7619
 20
0.1333
 30
0.0
 10
134.7619
 20
0.1333
 30
0.0
 10
134.1642
 20
0.9735
 30
0.0
 10
134.1642
 20
0.9735
 30
0.0
 10
134.1642
 20
0.9735
 30
0.0
 10
134.1642
 20
0.9735
 30
0.0
 10
134.0584
 20
1.1367
 30
0.0
 10
134.0584
 20
1.1367
 30
0.0
 10
134.0584
 20
1.1367
 30
0.0
 10
134.0584
 20
1.1367
 30
0.0
 10
133.9545
 20
0.9735
 30
0.0
 10
133.9545
 20
0.9735
 30
0.0
 10
133.9545
 20
0.9735
 30
0.0
 10
133.9545
 20
0.9735
 30
0.0
 10
133.3571
 20
0.1333
 30
0.0
 10
133.3571
 20
0.1333
 30
0.0
 10
133.3571
 20
0.1333
 30
0.0
 10
133.3571
 20
0.1333
 30
0.0
 10
132.7197
 20
-0.6761
 30
0.0
 10
132.7197
 20
-0.6761
 30
0.0
 10
132.7197
 20
-0.6761
 30
0.0
 10
132.7197
 20
-0.6761
 30
0.0
 10
132.047
 20
-1.4524
 30
0.0
 10
132.047
 20
-1.4524
 30
0.0
 10
132.047
 20
-1.4524
 30
0.0
 10
132.047
 20
-1.4524
 30
0.0
 10
131.3369
 20
-2.1979
 30
0.0
 10
131.3369
 20
-2.1979
 30
0.0
 10
131.3369
 20
-2.1979
 30
0.0
 10
131.3369
 20
-2.1979
 30
0.0
 10
130.5937
 20
-2.9058
 30
0.0
 10
130.5937
 20
-2.9058
 30
0.0
 10
130.5937
 20
-2.9058
 30
0.0
 10
130.5937
 20
-2.9058
 30
0.0
 10
129.8151
 20
-3.5808
 30
0.0
 10
129.8151
 20
-3.5808
 30
0.0
 10
129.8151
 20
-3.5808
 30
0.0
 10
129.8151
 20
-3.5808
 30
0.0
 10
129.0058
 20
-4.2181
 30
0.0
 10
129.0058
 20
-4.2181
 30
0.0
 10
129.0058
 20
-4.2181
 30
0.0
 10
129.0058
 20
-4.2181
 30
0.0
 10
128.1656
 20
-4.8136
 30
0.0
 10
128.1656
 20
-4.8136
 30
0.0
 10
128.1656
 20
-4.8136
 30
0.0
 10
128.1656
 20
-4.8136
 30
0.0
 10
128.0022
 20
-4.9194
 30
0.0
 10
128.0022
 20
-4.9194
 30
0.0
 10
128.0022
 20
-4.9194
 30
0.0
 10
128.0022
 20
-4.9194
 30
0.0
 10
128.1656
 20
-5.023
 30
0.0
 10
128.1656
 20
-5.023
 30
0.0
 10
128.1656
 20
-5.023
 30
0.0
 10
128.1656
 20
-5.023
 30
0.0
 10
129.0058
 20
-5.6207
 30
0.0
 10
129.0058
 20
-5.6207
 30
0.0
 10
129.0058
 20
-5.6207
 30
0.0
 10
129.0058
 20
-5.6207
 30
0.0
 10
129.8151
 20
-6.2581
 30
0.0
 10
129.8151
 20
-6.2581
 30
0.0
 10
129.8151
 20
-6.2581
 30
0.0
 10
129.8151
 20
-6.2581
 30
0.0
 10
130.5937
 20
-6.9308
 30
0.0
 10
130.5937
 20
-6.9308
 30
0.0
 10
130.5937
 20
-6.9308
 30
0.0
 10
130.5937
 20
-6.9308
 30
0.0
 10
131.3369
 20
-7.6408
 30
0.0
 10
131.3369
 20
-7.6408
 30
0.0
 10
131.3369
 20
-7.6408
 30
0.0
 10
131.3369
 20
-7.6408
 30
0.0
 10
132.047
 20
-8.384
 30
0.0
 10
132.047
 20
-8.384
 30
0.0
 10
132.047
 20
-8.384
 30
0.0
 10
132.047
 20
-8.384
 30
0.0
 10
132.7197
 20
-9.1625
 30
0.0
 10
132.7197
 20
-9.1625
 30
0.0
 10
132.7197
 20
-9.1625
 30
0.0
 10
132.7197
 20
-9.1625
 30
0.0
 10
133.3571
 20
-9.9719
 30
0.0
 10
133.3571
 20
-9.9719
 30
0.0
 10
133.3571
 20
-9.9719
 30
0.0
 10
133.3571
 20
-9.9719
 30
0.0
 10
133.9545
 20
-10.8122
 30
0.0
 10
133.9545
 20
-10.8122
 30
0.0
 10
133.9545
 20
-10.8122
 30
0.0
 10
133.9545
 20
-10.8122
 30
0.0
 10
134.0584
 20
-10.9754
 30
0.0
 10
134.0584
 20
-10.9754
 30
0.0
  0
SPLINE
  5
7B
330
1F
100
AcDbEntity
  8
layer 1
 62
     7
100
AcDbSpline
210
0.0
220
0.0
230
1.0
 70
    11
 71
     3
 72
    24
 73
    20
 74
     0
 42
0.0000000001
 43
0.0000000001
 12
1.0
 22
0.0
 32
0.0
 13
1.0
 23
0.0
 33
0.0
 40
0.0
 40
0.0
 40
0.0
 40
0.0
 40
0.1666666666666667
 40
0.1666666666666667
 40
0.1666666666666667
 40
0.1666666666666667
 40
0.3333333333333333
 40
0.3333333333333333
 40
0.3333333333333333
 40
0.3333333333333333
 40
0.5
 40
0.5
 40
0.5
 40
0.5
 40
0.6666666666666666
 40
0.6666666666666666
 40
0.6666666666666666
 40
0.6666666666666666
 40
1.0
 40
1.0
 40
1.0
 40
1.0
 10
104.8412
 20
13.9524
 30
0.0
 10
109.446
 20
11.8968
 30
0.0
 10
113.1593
 20
8.2055
 30
0.0
 10
115.2452
 20
3.6177
 30
0.0
 10
115.2452
 20
3.6177
 30
0.0
 10
117.3326
 20
8.2072
 30
0.0
 10
121.046
 20
11.8966
 30
0.0
 10
125.6505
 20
13.9513
 30
0.0
 10
125.6505
 20
13.9513
 30
0.0
 10
121.0463
 20
16.0077
 30
0.0
 10
117.3315
 20
19.6971
 30
0.0
 10
115.2452
 20
24.2846
 30
0.0
 10
115.2452
 20
24.2846
 30
0.0
 10
113.1599
 20
19.6974
 30
0.0
 10
109.4445
 20
16.0067
 30
0.0
 10
104.8401
 20
13.9513
 30
0.0
 10
104.8401
 20
13.9513
 30
0.0
 10
104.8401
 20
13.9513
 30
0.0
 10
104.8412
 20
13.9524
 30
0.0
 10
104.8412
 20
13.9524
 30
0.0
  0
SPLINE
  5
7C
330
1F
100
AcDbEntity
  8
layer 1
 62
     7
100
AcDbSpline
210
0.0
220
0.0
230
1.0
 70
    11
 71
     3
 72
    24
 73
    20
 74
     0
 42
0.0000000001
 43
0.0000000001
 12
1.0
 22
0.0
 32
0.0
 13
1.0
 23
0.0
 33
0.0
 40
0.0
 40
0.0
 40
0.0
 40
0.0
 40
0.1666666666666667
 40
0.1666666666666667
 40
0.1666666666666667
 40
0.1666666666666667
 40
0.3333333333333333
 40
0.3333333333333333
 40
0.3333333333333333
 40
0.3333333333333333
 40
0.5
 40
0.5
 40
0.5
 40
0.5
 40
0.6666666666666666
 40
0.6666666666666666
 40
0.6666666666666666
 40
0.6666666666666666
 40
1.0
 40
1.0
 40
1.0
 40
1.0
 10
152.8702
 20
3.6177
 30
0.0
 10
154.9566
 20
8.2072
 30
0.0
 10
158.6706
 20
11.896
 30
0.0
 10
163.2751
 20
13.9513
 30
0.0
 10
163.2751
 20
13.9513
 30
0.0
 10
158.6706
 20
16.0077
 30
0.0
 10
154.9555
 20
19.6971
 30
0.0
 10
152.8697
 20
24.2846
 30
0.0
 10
152.8697
 20
24.2846
 30
0.0
 10
150.7842
 20
19.6974
 30
0.0
 10
147.0691
 20
16.0067
 30
0.0
 10
142.4647
 20
13.9513
 30
0.0
 10
142.4647
 20
13.9513
 30
0.0
 10
147.0702
 20
11.8968
 30
0.0
 10
150.784
 20
8.2055
 30
0.0
 10
152.8697
 20
3.6177
 30
0.0
 10
152.8697
 20
3.6177
 30
0.0
 10
152.8697
 20
3.6177
 30
0.0
 10
152.8702
 20
3.6177
 30
0.0
 10
152.8702
 20
3.6177
 30
0.0
  0
SPLINE
  5
7D
330
1F
100
AcDbEntity
  8
layer 1
 62
     7
100
AcDbSpline
210
0.0
220
0.0
230
1.0
 70
    11
 71
     3
 72
    12
 73
     8
 74
     0
 42
0.0000000001
 43
0.0000000001
 12
1.0
 22
0.0
 32
0.0
 13
1.0
 23
0.0
 33
0.0
 40
0.0
 40
0.0
 40
0.0
 40
0.0
 40
0.3333333333333333
 40
0.3333333333333333
 40
0.3333333333333333
 40
0.3333333333333333
 40
1.0
 40
1.0
 40
1.0
 40
1.0
 10
170.9789
 20
-21.8525
 30
0.0
 10
162.1818
 20
-21.4907
 30
0.0
 10
155.1094
 20
-14.4222
 30
0.0
 10
154.7499
 20
-5.6229
 30
0.0
 10
154.7499
 20
-5.6229
 30
0.0
 10
163.4937
 20
-6.1015
 30
0.0
 10
170.4999
 20
-13.1089
 30
0.0
 10
170.9789
 20
-21.8525
 30
0.0
  0
SPLINE
  5
7E
330
1F
100
AcDbEntity
  8
layer 1
 62
     7
100
AcDbSpline
210
0.0
220
0.0
230
1.0
 70
    11
 71
     3
 72
    16
 73
    12
 74
     0
 42
0.0000000001
 43
0.0000000001
 12
1.0
 22
0.0
 32
0.0
 13
1.0
 23
0.0
 33
0.0
 40
0.0
 40
0.0
 40
0.0
 40
0.0
 40
0.25
 40
0.25
 40
0.25
 40
0.25
 40
0.5
 40
0.5
 40
0.5
 40
0.5
 40
1.0
 40
1.0
 40
1.0
 40
1.0
 10
188.6158
 20
-5.6229
 30
0.0
 10
188.2562
 20
-14.4202
 30
0.0
 10
181.1842
 20
-21.4924
 30
0.0
 10
172.3851
 20
-21.8525
 30
0.0
 10
172.3851
 20
-21.8525
 30
0.0
 10
172.8647
 20
-13.1081
 30
0.0
 10
179.8711
 20
-6.1023
 30
0.0
 10
188.6146
 20
-5.6229
 30
0.0
 10
188.6146
 20
-5.6229
 30
0.0
 10
188.6146
 20
-5.6229
 30
0.0
 10
188.6158
 20
-5.6229
 30
0.0
 10
188.6158
 20
-5.6229
 30
0.0
  0
SPLINE
  5
7F
330
1F
100
AcDbEntity
  8
layer 1
 62
     7
100
AcDbSpline
210
0.0
220
0.0
230
1.0
 70
    11
 71
     3
 72
    16
 73
    12
 74
     0
 42
0.0000000001
 43
0.0000000001
 12
1.0
 22
0.0
 32
0.0
 13
1.0
 23
0.0
 33
0.0
 40
0.0
 40
0.0
 40
0.0
 40
0.0
 40
0.25
 40
0.25
 40
0.25
 40
0.25
 40
0.5
 40
0.5
 40
0.5
 40
0.5
 40
1.0
 40
1.0
 40
1.0
 40
1.0
 10
172.386
 20
12.0136
 30
0.0
 10
181.1856
 20
11.6543
 30
0.0
 10
188.2551
 20
4.5821
 30
0.0
 10
188.6146
 20
-4.217
 30
0.0
 10
188.6146
 20
-4.217
 30
0.0
 10
179.8711
 20
-3.7372
 30
0.0
 10
172.8647
 20
3.269
 30
0.0
 10
172.3851
 20
12.012
 30
0.0
 10
172.3851
 20
12.012
 30
0.0
 10
172.3851
 20
12.012
 30
0.0
 10
172.386
 20
12.0136
 30
0.0
 10
172.386
 20
12.0136
 30
0.0
  0
SPLINE
  5
80
330
1F
100
AcDbEntity
  8
layer 1
 62
     7
100
AcDbSpline
210
0.0
220
0.0
230
1.0
 70
    11
 71
     3
 72
    16
 73
    12
 74
     0
 42
0.0000000001
 43
0.0000000001
 12
1.0
 22
0.0
 32
0.0
 13
1.0
 23
0.0
 33
0.0
 40
0.0
 40
0.0
 40
0.0
 40
0.0
 40
0.25
 40
0.25
 40
0.25
 40
0.25
 40
0.5
 40
0.5
 40
0.5
 40
0.5
 40
1.0
 40
1.0
 40
1.0
 40
1.0
 10
154.7515
 20
-4.2159
 30
0.0
 10
155.1111
 20
4.5838
 30
0.0
 10
162.18
 20
11.6527
 30
0.0
 10
170.9789
 20
12.012
 30
0.0
 10
170.9789
 20
12.012
 30
0.0
 10
170.5005
 20
3.2693
 30
0.0
 10
163.4932
 20
-3.7379
 30
0.0
 10
154.7499
 20
-4.217
 30
0.0
 10
154.7499
 20
-4.217
 30
0.0
 10
154.7499
 20
-4.217
 30
0.0
 10
154.7515
 20
-4.2159
 30
0.0
 10
154.7515
 20
-4.2159
 30
0.0
  0
SPLINE
  5
81
330
1F
100
AcDbEntity
  8
layer 1
 62
     7
100
AcDbSpline
210
0.0
220
0.0
230
1.0
 70
    11
 71
     3
 72
   164
 73
   160
 74
     0
 42
0.0000000001
 43
0.0000000001
 12
1.0
 22
0.0
 32
0.0
 13
1.0
 23
0.0
 33
0.0
 40
0.0
 40
0.0
 40
0.0
 40
0.0
 40
0.024390243902439
 40
0.024390243902439
 40
0.024390243902439
 40
0.024390243902439
 40
0.0487804878048781
 40
0.0487804878048781
 40
0.0487804878048781
 40
0.0487804878048781
 40
0.0731707317073171
 40
0.0731707317073171
 40
0.0731707317073171
 40
0.0731707317073171
 40
0.0975609756097561
 40
0.0975609756097561
 40
0.0975609756097561
 40
0.0975609756097561
 40
0.1219512195121951
 40
0.1219512195121951
 40
0.1219512195121951
 40
0.1219512195121951
 40
0.1463414634146341
 40
0.1463414634146341
 40
0.1463414634146341
 40
0.1463414634146341
 40
0.1707317073170732
 40
0.1707317073170732
 40
0.1707317073170732
 40
0.1707317073170732
 40
0.1951219512195122
 40
0.1951219512195122
 40
0.1951219512195122
 40
0.1951219512195122
 40
0.2195121951219512
 40
0.2195121951219512
 40
0.2195121951219512
 40
0.2195121951219512
 40
0.2439024390243902
 40
0.2439024390243902
 40
0.2439024390243902
 40
0.2439024390243902
 40
0.2682926829268293
 40
0.2682926829268293
 40
0.2682926829268293
 40
0.2682926829268293
 40
0.2926829268292683
 40
0.2926829268292683
 40
0.2926829268292683
 40
0.2926829268292683
 40
0.3170731707317073
 40
0.3170731707317073
 40
0.3170731707317073
 40
0.3170731707317073
 40
0.3414634146341464
 40
0.3414634146341464
 40
0.3414634146341464
 40
0.3414634146341464
 40
0.3658536585365854
 40
0.3658536585365854
 40
0.3658536585365854
 40
0.3658536585365854
 40
0.3902439024390244
 40
0.3902439024390244
 40
0.3902439024390244
 40
0.3902439024390244
 40
0.4146341463414634
 40
0.4146341463414634
 40
0.4146341463414634
 40
0.4146341463414634
 40
0.4390243902439024
 40
0.4390243902439024
 40
0.4390243902439024
 40
0.4390243902439024
 40
0.4634146341463415
 40
0.4634146341463415
 40
0.4634146341463415
 40
0.4634146341463415
 40
0.4878048780487805
 40
0.4878048780487805
 40
0.4878048780487805
 40
0.4878048780487805
 40
0.5121951219512195
 40
0.5121951219512195
 40
0.5121951219512195
 40
0.5121951219512195
 40
0.5365853658536586
 40
0.5365853658536586
 40
0.5365853658536586
 40
0.5365853658536586
 40
0.5609756097560976
 40
0.5609756097560976
 40
0.5609756097560976
 40
0.5609756097560976
 40
0.5853658536585366
 40
0.5853658536585366
 40
0.5853658536585366
 40
0.5853658536585366
 40
0.6097560975609756
 40
0.6097560975609756
 40
0.6097560975609756
 40
0.6097560975609756
 40
0.6341463414634146
 40
0.6341463414634146
 40
0.6341463414634146
 40
0.6341463414634146
 40
0.6585365853658537
 40
0.6585365853658537
 40
0.6585365853658537
 40
0.6585365853658537
 40
0.6829268292682927
 40
0.6829268292682927
 40
0.6829268292682927
 40
0.6829268292682927
 40
0.7073170731707317
 40
0.7073170731707317
 40
0.7073170731707317
 40
0.7073170731707317
 40
0.7317073170731707
 40
0.7317073170731707
 40
0.7317073170731707
 40
0.7317073170731707
 40
0.7560975609756098
 40
0.7560975609756098
 40
0.7560975609756098
 40
0.7560975609756098
 40
0.7804878048780488
 40
0.7804878048780488
 40
0.7804878048780488
 40
0.7804878048780488
 40
0.8048780487804879
 40
0.8048780487804879
 40
0.8048780487804879
 40
0.8048780487804879
 40
0.8292682926829268
 40
0.8292682926829268
 40
0.8292682926829268
 40
0.8292682926829268
 40
0.8536585365853658
 40
0.8536585365853658
 40
0.8536585365853658
 40
0.8536585365853658
 40
0.8780487804878049
 40
0.8780487804878049
 40
0.8780487804878049
 40
0.8780487804878049
 40
0.9024390243902439
 40
0.9024390243902439
 40
0.9024390243902439
 40
0.9024390243902439
 40
0.926829268292683
 40
0.926829268292683
 40
0.926829268292683
 40
0.926829268292683
 40
0.9512195121951219
 40
0.9512195121951219
 40
0.9512195121951219
 40
0.9512195121951219
 40
1.0
 40
1.0
 40
1.0
 40
1.0
 10
171.6825
 20
-10.9754
 30
0.0
 10
171.6825
 20
-10.9754
 30
0.0
 10
171.7883
 20
-10.8122
 30
0.0
 10
171.7883
 20
-10.8122
 30
0.0
 10
171.7883
 20
-10.8122
 30
0.0
 10
171.7883
 20
-10.8122
 30
0.0
 10
172.386
 20
-9.9719
 30
0.0
 10
172.386
 20
-9.9719
 30
0.0
 10
172.386
 20
-9.9719
 30
0.0
 10
172.386
 20
-9.9719
 30
0.0
 10
173.0211
 20
-9.1625
 30
0.0
 10
173.0211
 20
-9.1625
 30
0.0
 10
173.0211
 20
-9.1625
 30
0.0
 10
173.0211
 20
-9.1625
 30
0.0
 10
173.696
 20
-8.384
 30
0.0
 10
173.696
 20
-8.384
 30
0.0
 10
173.696
 20
-8.384
 30
0.0
 10
173.696
 20
-8.384
 30
0.0
 10
174.4039
 20
-7.6408
 30
0.0
 10
174.4039
 20
-7.6408
 30
0.0
 10
174.4039
 20
-7.6408
 30
0.0
 10
174.4039
 20
-7.6408
 30
0.0
 10
175.1494
 20
-6.9308
 30
0.0
 10
175.1494
 20
-6.9308
 30
0.0
 10
175.1494
 20
-6.9308
 30
0.0
 10
175.1494
 20
-6.9308
 30
0.0
 10
175.9257
 20
-6.2581
 30
0.0
 10
175.9257
 20
-6.2581
 30
0.0
 10
175.9257
 20
-6.2581
 30
0.0
 10
175.9257
 20
-6.2581
 30
0.0
 10
176.7351
 20
-5.6207
 30
0.0
 10
176.7351
 20
-5.6207
 30
0.0
 10
176.7351
 20
-5.6207
 30
0.0
 10
176.7351
 20
-5.6207
 30
0.0
 10
177.5775
 20
-5.023
 30
0.0
 10
177.5775
 20
-5.023
 30
0.0
 10
177.5775
 20
-5.023
 30
0.0
 10
177.5775
 20
-5.023
 30
0.0
 10
177.7386
 20
-4.9194
 30
0.0
 10
177.7386
 20
-4.9194
 30
0.0
 10
177.7386
 20
-4.9194
 30
0.0
 10
177.7386
 20
-4.9194
 30
0.0
 10
177.5775
 20
-4.8136
 30
0.0
 10
177.5775
 20
-4.8136
 30
0.0
 10
177.5775
 20
-4.8136
 30
0.0
 10
177.5775
 20
-4.8136
 30
0.0
 10
176.7351
 20
-4.2181
 30
0.0
 10
176.7351
 20
-4.2181
 30
0.0
 10
176.7351
 20
-4.2181
 30
0.0
 10
176.7351
 20
-4.2181
 30
0.0
 10
175.9257
 20
-3.5808
 30
0.0
 10
175.9257
 20
-3.5808
 30
0.0
 10
175.9257
 20
-3.5808
 30
0.0
 10
175.9257
 20
-3.5808
 30
0.0
 10
175.1494
 20
-2.9081
 30
0.0
 10
175.1494
 20
-2.9081
 30
0.0
 10
175.1494
 20
-2.9081
 30
0.0
 10
175.1494
 20
-2.9081
 30
0.0
 10
174.4039
 20
-2.1979
 30
0.0
 10
174.4039
 20
-2.1979
 30
0.0
 10
174.4039
 20
-2.1979
 30
0.0
 10
174.4039
 20
-2.1979
 30
0.0
 10
173.696
 20
-1.4524
 30
0.0
 10
173.696
 20
-1.4524
 30
0.0
 10
173.696
 20
-1.4524
 30
0.0
 10
173.696
 20
-1.4524
 30
0.0
 10
173.0211
 20
-0.6761
 30
0.0
 10
173.0211
 20
-0.6761
 30
0.0
 10
173.0211
 20
-0.6761
 30
0.0
 10
173.0211
 20
-0.6761
 30
0.0
 10
172.386
 20
0.1333
 30
0.0
 10
172.386
 20
0.1333
 30
0.0
 10
172.386
 20
0.1333
 30
0.0
 10
172.386
 20
0.1333
 30
0.0
 10
171.7883
 20
0.9735
 30
0.0
 10
171.7883
 20
0.9735
 30
0.0
 10
171.7883
 20
0.9735
 30
0.0
 10
171.7883
 20
0.9735
 30
0.0
 10
171.6825
 20
1.1367
 30
0.0
 10
171.6825
 20
1.1367
 30
0.0
 10
171.6825
 20
1.1367
 30
0.0
 10
171.6825
 20
1.1367
 30
0.0
 10
171.5788
 20
0.9735
 30
0.0
 10
171.5788
 20
0.9735
 30
0.0
 10
171.5788
 20
0.9735
 30
0.0
 10
171.5788
 20
0.9735
 30
0.0
 10
170.9811
 20
0.1333
 30
0.0
 10
170.9811
 20
0.1333
 30
0.0
 10
170.9811
 20
0.1333
 30
0.0
 10
170.9811
 20
0.1333
 30
0.0
 10
170.3438
 20
-0.6761
 30
0.0
 10
170.3438
 20
-0.6761
 30
0.0
 10
170.3438
 20
-0.6761
 30
0.0
 10
170.3438
 20
-0.6761
 30
0.0
 10
169.6711
 20
-1.4524
 30
0.0
 10
169.6711
 20
-1.4524
 30
0.0
 10
169.6711
 20
-1.4524
 30
0.0
 10
169.6711
 20
-1.4524
 30
0.0
 10
168.9609
 20
-2.1979
 30
0.0
 10
168.9609
 20
-2.1979
 30
0.0
 10
168.9609
 20
-2.1979
 30
0.0
 10
168.9609
 20
-2.1979
 30
0.0
 10
168.2179
 20
-2.9058
 30
0.0
 10
168.2179
 20
-2.9058
 30
0.0
 10
168.2179
 20
-2.9058
 30
0.0
 10
168.2179
 20
-2.9058
 30
0.0
 10
167.4417
 20
-3.5808
 30
0.0
 10
167.4417
 20
-3.5808
 30
0.0
 10
167.4417
 20
-3.5808
 30
0.0
 10
167.4417
 20
-3.5808
 30
0.0
 10
166.6298
 20
-4.2181
 30
0.0
 10
166.6298
 20
-4.2181
 30
0.0
 10
166.6298
 20
-4.2181
 30
0.0
 10
166.6298
 20
-4.2181
 30
0.0
 10
165.7896
 20
-4.8136
 30
0.0
 10
165.7896
 20
-4.8136
 30
0.0
 10
165.7896
 20
-4.8136
 30
0.0
 10
165.7896
 20
-4.8136
 30
0.0
 10
165.6264
 20
-4.9194
 30
0.0
 10
165.6264
 20
-4.9194
 30
0.0
 10
165.6264
 20
-4.9194
 30
0.0
 10
165.6264
 20
-4.9194
 30
0.0
 10
165.7896
 20
-5.023
 30
0.0
 10
165.7896
 20
-5.023
 30
0.0
 10
165.7896
 20
-5.023
 30
0.0
 10
165.7896
 20
-5.023
 30
0.0
 10
166.6298
 20
-5.6207
 30
0.0
 10
166.6298
 20
-5.6207
 30
0.0
 10
166.6298
 20
-5.6207
 30
0.0
 10
166.6298
 20
-5.6207
 30
0.0
 10
167.4417
 20
-6.2581
 30
0.0
 10
167.4417
 20
-6.2581
 30
0.0
 10
167.4417
 20
-6.2581
 30
0.0
 10
167.4417
 20
-6.2581
 30
0.0
 10
168.2179
 20
-6.9308
 30
0.0
 10
168.2179
 20
-6.9308
 30
0.0
 10
168.2179
 20
-6.9308
 30
0.0
 10
168.2179
 20
-6.9308
 30
0.0
 10
168.9609
 20
-7.6408
 30
0.0
 10
168.9609
 20
-7.6408
 30
0.0
 10
168.9609
 20
-7.6408
 30
0.0
 10
168.9609
 20
-7.6408
 30
0.0
 10
169.6711
 20
-8.384
 30
0.0
 10
169.6711
 20
-8.384
 30
0.0
 10
169.6711
 20
-8.384
 30
0.0
 10
169.6711
 20
-8.384
 30
0.0
 10
170.3438
 20
-9.1625
 30
0.0
 10
170.3438
 20
-9.1625
 30
0.0
 10
170.3438
 20
-9.1625
 30
0.0
 10
170.3438
 20
-9.1625
 30
0.0
 10
170.9811
 20
-9.9719
 30
0.0
 10
170.9811
 20
-9.9719
 30
0.0
 10
170.9811
 20
-9.9719
 30
0.0
 10
170.9811
 20
-9.9719
 30
0.0
 10
171.5788
 20
-10.8122
 30
0.0
 10
171.5788
 20
-10.8122
 30
0.0
 10
171.5788
 20
-10.8122
 30
0.0
 10
171.5788
 20
-10.8122
 30
0.0
 10
171.6825
 20
-10.9754
 30
0.0
 10
171.6825
 20
-10.9754
 30
0.0
  0
SPLINE
  5
82
330
1F
100
AcDbEntity
  8
layer 1
 62
     7
100
AcDbSpline
210
0.0
220
0.0
230
1.0
 70
    11
 71
     3
 72
   164
 73
   160
 74
     0
 42
0.0000000001
 43
0.0000000001
 12
1.0
 22
0.0
 32
0.0
 13
1.0
 23
0.0
 33
0.0
 40
0.0
 40
0.0
 40
0.0
 40
0.0
 40
0.024390243902439
 40
0.024390243902439
 40
0.024390243902439
 40
0.024390243902439
 40
0.0487804878048781
 40
0.0487804878048781
 40
0.0487804878048781
 40
0.0487804878048781
 40
0.0731707317073171
 40
0.0731707317073171
 40
0.0731707317073171
 40
0.0731707317073171
 40
0.0975609756097561
 40
0.0975609756097561
 40
0.0975609756097561
 40
0.0975609756097561
 40
0.1219512195121951
 40
0.1219512195121951
 40
0.1219512195121951
 40
0.1219512195121951
 40
0.1463414634146341
 40
0.1463414634146341
 40
0.1463414634146341
 40
0.1463414634146341
 40
0.1707317073170732
 40
0.1707317073170732
 40
0.1707317073170732
 40
0.1707317073170732
 40
0.1951219512195122
 40
0.1951219512195122
 40
0.1951219512195122
 40
0.1951219512195122
 40
0.2195121951219512
 40
0.2195121951219512
 40
0.2195121951219512
 40
0.2195121951219512
 40
0.2439024390243902
 40
0.2439024390243902
 40
0.2439024390243902
 40
0.2439024390243902
 40
0.2682926829268293
 40
0.2682926829268293
 40
0.2682926829268293
 40
0.2682926829268293
 40
0.2926829268292683
 40
0.2926829268292683
 40
0.2926829268292683
 40
0.2926829268292683
 40
0.3170731707317073
 40
0.3170731707317073
 40
0.3170731707317073
 40
0.3170731707317073
 40
0.3414634146341464
 40
0.3414634146341464
 40
0.3414634146341464
 40
0.3414634146341464
 40
0.3658536585365854
 40
0.3658536585365854
 40
0.3658536585365854
 40
0.3658536585365854
 40
0.3902439024390244
 40
0.3902439024390244
 40
0.3902439024390244
 40
0.3902439024390244
 40
0.4146341463414634
 40
0.4146341463414634
 40
0.4146341463414634
 40
0.4146341463414634
 40
0.4390243902439024
 40
0.4390243902439024
 40
0.4390243902439024
 40
0.4390243902439024
 40
0.4634146341463415
 40
0.4634146341463415
 40
0.4634146341463415
 40
0.4634146341463415
 40
0.4878048780487805
 40
0.4878048780487805
 40
0.4878048780487805
 40
0.4878048780487805
 40
0.5121951219512195
 40
0.5121951219512195
 40
0.5121951219512195
 40
0.5121951219512195
 40
0.5365853658536586
 40
0.5365853658536586
 40
0.5365853658536586
 40
0.5365853658536586
 40
0.5609756097560976
 40
0.5609756097560976
 40
0.5609756097560976
 40
0.5609756097560976
 40
0.5853658536585366
 40
0.5853658536585366
 40
0.5853658536585366
 40
0.5853658536585366
 40
0.6097560975609756
 40
0.6097560975609756
 40
0.6097560975609756
 40
0.6097560975609756
 40
0.6341463414634146
 40
0.6341463414634146
 40
0.6341463414634146
 40
0.6341463414634146
 40
0.6585365853658537
 40
0.6585365853658537
 40
0.6585365853658537
 40
0.6585365853658537
 40
0.6829268292682927
 40
0.6829268292682927
 40
0.6829268292682927
 40
0.6829268292682927
 40
0.7073170731707317
 40
0.7073170731707317
 40
0.7073170731707317
 40
0.7073170731707317
 40
0.7317073170731707
 40
0.7317073170731707
 40
0.7317073170731707
 40
0.7317073170731707
 40
0.7560975609756098
 40
0.7560975609756098
 40
0.7560975609756098
 40
0.7560975609756098
 40
0.7804878048780488
 40
0.7804878048780488
 40
0.7804878048780488
 40
0.7804878048780488
 40
0.8048780487804879
 40
0.8048780487804879
 40
0.8048780487804879
 40
0.8048780487804879
 40
0.8292682926829268
 40
0.8292682926829268
 40
0.8292682926829268
 40
0.8292682926829268
 40
0.8536585365853658
 40
0.8536585365853658
 40
0.8536585365853658
 40
0.8536585365853658
 40
0.8780487804878049
 40
0.8780487804878049
 40
0.8780487804878049
 40
0.8780487804878049
 40
0.9024390243902439
 40
0.9024390243902439
 40
0.9024390243902439
 40
0.9024390243902439
 40
0.926829268292683
 40
0.926829268292683
 40
0.926829268292683
 40
0.926829268292683
 40
0.9512195121951219
 40
0.9512195121951219
 40
0.9512195121951219
 40
0.9512195121951219
 40
1.0
 40
1.0
 40
1.0
 40
1.0
 10
96.4341
 20
-10.9754
 30
0.0
 10
96.4341
 20
-10.9754
 30
0.0
 10
96.5377
 20
-10.8122
 30
0.0
 10
96.5377
 20
-10.8122
 30
0.0
 10
96.5377
 20
-10.8122
 30
0.0
 10
96.5377
 20
-10.8122
 30
0.0
 10
97.1354
 20
-9.9719
 30
0.0
 10
97.1354
 20
-9.9719
 30
0.0
 10
97.1354
 20
-9.9719
 30
0.0
 10
97.1354
 20
-9.9719
 30
0.0
 10
97.7728
 20
-9.1625
 30
0.0
 10
97.7728
 20
-9.1625
 30
0.0
 10
97.7728
 20
-9.1625
 30
0.0
 10
97.7728
 20
-9.1625
 30
0.0
 10
98.4455
 20
-8.384
 30
0.0
 10
98.4455
 20
-8.384
 30
0.0
 10
98.4455
 20
-8.384
 30
0.0
 10
98.4455
 20
-8.384
 30
0.0
 10
99.1556
 20
-7.6408
 30
0.0
 10
99.1556
 20
-7.6408
 30
0.0
 10
99.1556
 20
-7.6408
 30
0.0
 10
99.1556
 20
-7.6408
 30
0.0
 10
99.9011
 20
-6.9308
 30
0.0
 10
99.9011
 20
-6.9308
 30
0.0
 10
99.9011
 20
-6.9308
 30
0.0
 10
99.9011
 20
-6.9308
 30
0.0
 10
100.6773
 20
-6.2581
 30
0.0
 10
100.6773
 20
-6.2581
 30
0.0
 10
100.6773
 20
-6.2581
 30
0.0
 10
100.6773
 20
-6.2581
 30
0.0
 10
101.4867
 20
-5.6207
 30
0.0
 10
101.4867
 20
-5.6207
 30
0.0
 10
101.4867
 20
-5.6207
 30
0.0
 10
101.4867
 20
-5.6207
 30
0.0
 10
102.3269
 20
-5.023
 30
0.0
 10
102.3269
 20
-5.023
 30
0.0
 10
102.3269
 20
-5.023
 30
0.0
 10
102.3269
 20
-5.023
 30
0.0
 10
102.49
 20
-4.9194
 30
0.0
 10
102.49
 20
-4.9194
 30
0.0
 10
102.49
 20
-4.9194
 30
0.0
 10
102.49
 20
-4.9194
 30
0.0
 10
102.3269
 20
-4.8136
 30
0.0
 10
102.3269
 20
-4.8136
 30
0.0
 10
102.3269
 20
-4.8136
 30
0.0
 10
102.3269
 20
-4.8136
 30
0.0
 10
101.4867
 20
-4.2181
 30
0.0
 10
101.4867
 20
-4.2181
 30
0.0
 10
101.4867
 20
-4.2181
 30
0.0
 10
101.4867
 20
-4.2181
 30
0.0
 10
100.6773
 20
-3.5808
 30
0.0
 10
100.6773
 20
-3.5808
 30
0.0
 10
100.6773
 20
-3.5808
 30
0.0
 10
100.6773
 20
-3.5808
 30
0.0
 10
99.9011
 20
-2.9081
 30
0.0
 10
99.9011
 20
-2.9081
 30
0.0
 10
99.9011
 20
-2.9081
 30
0.0
 10
99.9011
 20
-2.9081
 30
0.0
 10
99.1556
 20
-2.1979
 30
0.0
 10
99.1556
 20
-2.1979
 30
0.0
 10
99.1556
 20
-2.1979
 30
0.0
 10
99.1556
 20
-2.1979
 30
0.0
 10
98.4455
 20
-1.4524
 30
0.0
 10
98.4455
 20
-1.4524
 30
0.0
 10
98.4455
 20
-1.4524
 30
0.0
 10
98.4455
 20
-1.4524
 30
0.0
 10
97.7728
 20
-0.6761
 30
0.0
 10
97.7728
 20
-0.6761
 30
0.0
 10
97.7728
 20
-0.6761
 30
0.0
 10
97.7728
 20
-0.6761
 30
0.0
 10
97.1354
 20
0.1333
 30
0.0
 10
97.1354
 20
0.1333
 30
0.0
 10
97.1354
 20
0.1333
 30
0.0
 10
97.1354
 20
0.1333
 30
0.0
 10
96.5377
 20
0.9735
 30
0.0
 10
96.5377
 20
0.9735
 30
0.0
 10
96.5377
 20
0.9735
 30
0.0
 10
96.5377
 20
0.9735
 30
0.0
 10
96.4341
 20
1.1367
 30
0.0
 10
96.4341
 20
1.1367
 30
0.0
 10
96.4341
 20
1.1367
 30
0.0
 10
96.4341
 20
1.1367
 30
0.0
 10
96.3305
 20
0.9735
 30
0.0
 10
96.3305
 20
0.9735
 30
0.0
 10
96.3305
 20
0.9735
 30
0.0
 10
96.3305
 20
0.9735
 30
0.0
 10
95.7329
 20
0.1333
 30
0.0
 10
95.7329
 20
0.1333
 30
0.0
 10
95.7329
 20
0.1333
 30
0.0
 10
95.7329
 20
0.1333
 30
0.0
 10
95.0954
 20
-0.6761
 30
0.0
 10
95.0954
 20
-0.6761
 30
0.0
 10
95.0954
 20
-0.6761
 30
0.0
 10
95.0954
 20
-0.6761
 30
0.0
 10
94.4228
 20
-1.4524
 30
0.0
 10
94.4228
 20
-1.4524
 30
0.0
 10
94.4228
 20
-1.4524
 30
0.0
 10
94.4228
 20
-1.4524
 30
0.0
 10
93.7126
 20
-2.1979
 30
0.0
 10
93.7126
 20
-2.1979
 30
0.0
 10
93.7126
 20
-2.1979
 30
0.0
 10
93.7126
 20
-2.1979
 30
0.0
 10
92.9694
 20
-2.9058
 30
0.0
 10
92.9694
 20
-2.9058
 30
0.0
 10
92.9694
 20
-2.9058
 30
0.0
 10
92.9694
 20
-2.9058
 30
0.0
 10
92.1909
 20
-3.5808
 30
0.0
 10
92.1909
 20
-3.5808
 30
0.0
 10
92.1909
 20
-3.5808
 30
0.0
 10
92.1909
 20
-3.5808
 30
0.0
 10
91.3815
 20
-4.2181
 30
0.0
 10
91.3815
 20
-4.2181
 30
0.0
 10
91.3815
 20
-4.2181
 30
0.0
 10
91.3815
 20
-4.2181
 30
0.0
 10
90.5413
 20
-4.8136
 30
0.0
 10
90.5413
 20
-4.8136
 30
0.0
 10
90.5413
 20
-4.8136
 30
0.0
 10
90.5413
 20
-4.8136
 30
0.0
 10
90.3782
 20
-4.9194
 30
0.0
 10
90.3782
 20
-4.9194
 30
0.0
 10
90.3782
 20
-4.9194
 30
0.0
 10
90.3782
 20
-4.9194
 30
0.0
 10
90.5413
 20
-5.023
 30
0.0
 10
90.5413
 20
-5.023
 30
0.0
 10
90.5413
 20
-5.023
 30
0.0
 10
90.5413
 20
-5.023
 30
0.0
 10
91.3815
 20
-5.6207
 30
0.0
 10
91.3815
 20
-5.6207
 30
0.0
 10
91.3815
 20
-5.6207
 30
0.0
 10
91.3815
 20
-5.6207
 30
0.0
 10
92.1909
 20
-6.2581
 30
0.0
 10
92.1909
 20
-6.2581
 30
0.0
 10
92.1909
 20
-6.2581
 30
0.0
 10
92.1909
 20
-6.2581
 30
0.0
 10
92.9694
 20
-6.9308
 30
0.0
 10
92.9694
 20
-6.9308
 30
0.0
 10
92.9694
 20
-6.9308
 30
0.0
 10
92.9694
 20
-6.9308
 30
0.0
 10
93.7126
 20
-7.6408
 30
0.0
 10
93.7126
 20
-7.6408
 30
0.0
 10
93.7126
 20
-7.6408
 30
0.0
 10
93.7126
 20
-7.6408
 30
0.0
 10
94.4228
 20
-8.384
 30
0.0
 10
94.4228
 20
-8.384
 30
0.0
 10
94.4228
 20
-8.384
 30
0.0
 10
94.4228
 20
-8.384
 30
0.0
 10
95.0954
 20
-9.1625
 30
0.0
 10
95.0954
 20
-9.1625
 30
0.0
 10
95.0954
 20
-9.1625
 30
0.0
 10
95.0954
 20
-9.1625
 30
0.0
 10
95.7329
 20
-9.9719
 30
0.0
 10
95.7329
 20
-9.9719
 30
0.0
 10
95.7329
 20
-9.9719
 30
0.0
 10
95.7329
 20
-9.9719
 30
0.0
 10
96.3305
 20
-10.8122
 30
0.0
 10
96.3305
 20
-10.8122
 30
0.0
 10
96.3305
 20
-10.8122
 30
0.0
 10
96.3305
 20
-10.8122
 30
0.0
 10
96.4341
 20
-10.9754
 30
0.0
 10
96.4341
 20
-10.9754
 30
0.0
  0
SPLINE
  5
83
330
1F
100
AcDbEntity
  8
layer 1
 62
     7
100
AcDbSpline
210
0.0
220
0.0
230
1.0
 70
    11
 71
     3
 72
    16
 73
    12
 74
     0
 42
0.0000000001
 43
0.0000000001
 12
1.0
 22
0.0
 32
0.0
 13
1.0
 23
0.0
 33
0.0
 40
0.0
 40
0.0
 40
0.0
 40
0.0
 40
0.25
 40
0.25
 40
0.25
 40
0.25
 40
0.5
 40
0.5
 40
0.5
 40
0.5
 40
1.0
 40
1.0
 40
1.0
 40
1.0
 10
95.7306
 20
-59.5946
 30
0.0
 10
86.931
 20
-59.2351
 30
0.0
 10
79.8605
 20
-52.1648
 30
0.0
 10
79.501
 20
-43.3657
 30
0.0
 10
79.501
 20
-43.3657
 30
0.0
 10
88.2454
 20
-43.8448
 30
0.0
 10
95.2508
 20
-50.8514
 30
0.0
 10
95.7301
 20
-59.5946
 30
0.0
 10
95.7301
 20
-59.5946
 30
0.0
 10
95.7301
 20
-59.5946
 30
0.0
 10
95.7306
 20
-59.5946
 30
0.0
 10
95.7306
 20
-59.5946
 30
0.0
  0
SPLINE
  5
84
330
1F
100
AcDbEntity
  8
layer 1
 62
     7
100
AcDbSpline
210
0.0
220
0.0
230
1.0
 70
    11
 71
     3
 72
    16
 73
    12
 74
     0
 42
0.0000000001
 43
0.0000000001
 12
1.0
 22
0.0
 32
0.0
 13
1.0
 23
0.0
 33
0.0
 40
0.0
 40
0.0
 40
0.0
 40
0.0
 40
0.25
 40
0.25
 40
0.25
 40
0.25
 40
0.5
 40
0.5
 40
0.5
 40
0.5
 40
1.0
 40
1.0
 40
1.0
 40
1.0
 10
113.3672
 20
-43.3651
 30
0.0
 10
113.0077
 20
-52.1636
 30
0.0
 10
105.9354
 20
-59.2351
 30
0.0
 10
97.1363
 20
-59.5946
 30
0.0
 10
97.1363
 20
-59.5946
 30
0.0
 10
97.6161
 20
-50.8512
 30
0.0
 10
104.6226
 20
-43.8448
 30
0.0
 10
113.3652
 20
-43.3657
 30
0.0
 10
113.3652
 20
-43.3657
 30
0.0
 10
113.3652
 20
-43.3657
 30
0.0
 10
113.3672
 20
-43.3651
 30
0.0
 10
113.3672
 20
-43.3651
 30
0.0
  0
SPLINE
  5
85
330
1F
100
AcDbEntity
  8
layer 1
 62
     7
100
AcDbSpline
210
0.0
220
0.0
230
1.0
 70
    11
 71
     3
 72
    16
 73
    12
 74
     0
 42
0.0000000001
 43
0.0000000001
 12
1.0
 22
0.0
 32
0.0
 13
1.0
 23
0.0
 33
0.0
 40
0.0
 40
0.0
 40
0.0
 40
0.0
 40
0.25
 40
0.25
 40
0.25
 40
0.25
 40
0.5
 40
0.5
 40
0.5
 40
0.5
 40
1.0
 40
1.0
 40
1.0
 40
1.0
 10
97.1376
 20
-25.7295
 30
0.0
 10
105.9371
 20
-26.0891
 30
0.0
 10
113.006
 20
-33.1601
 30
0.0
 10
113.3652
 20
-41.9592
 30
0.0
 10
113.3652
 20
-41.9592
 30
0.0
 10
104.6228
 20
-41.4807
 30
0.0
 10
97.615
 20
-34.4738
 30
0.0
 10
97.1363
 20
-25.7304
 30
0.0
 10
97.1363
 20
-25.7304
 30
0.0
 10
97.1363
 20
-25.7304
 30
0.0
 10
97.1376
 20
-25.7295
 30
0.0
 10
97.1376
 20
-25.7295
 30
0.0
  0
SPLINE
  5
86
330
1F
100
AcDbEntity
  8
layer 1
 62
     7
100
AcDbSpline
210
0.0
220
0.0
230
1.0
 70
    11
 71
     3
 72
    12
 73
     8
 74
     0
 42
0.0000000001
 43
0.0000000001
 12
1.0
 22
0.0
 32
0.0
 13
1.0
 23
0.0
 33
0.0
 40
0.0
 40
0.0
 40
0.0
 40
0.0
 40
0.3333333333333333
 40
0.3333333333333333
 40
0.3333333333333333
 40
0.3333333333333333
 40
1.0
 40
1.0
 40
1.0
 40
1.0
 10
79.501
 20
-41.9591
 30
0.0
 10
79.8605
 20
-33.1595
 30
0.0
 10
86.931
 20
-26.0896
 30
0.0
 10
95.7301
 20
-25.7304
 30
0.0
 10
95.7301
 20
-25.7304
 30
0.0
 10
95.2519
 20
-34.473
 30
0.0
 10
88.244
 20
-41.48
 30
0.0
 10
79.501
 20
-41.9591
 30
0.0
  0
SPLINE
  5
87
330
1F
100
AcDbEntity
  8
layer 1
 62
     7
100
AcDbSpline
210
0.0
220
0.0
230
1.0
 70
    11
 71
     3
 72
    12
 73
     8
 74
     0
 42
0.0000000001
 43
0.0000000001
 12
1.0
 22
0.0
 32
0.0
 13
1.0
 23
0.0
 33
0.0
 40
0.0
 40
0.0
 40
0.0
 40
0.0
 40
0.3333333333333333
 40
0.3333333333333333
 40
0.3333333333333333
 40
0.3333333333333333
 40
1.0
 40
1.0
 40
1.0
 40
1.0
 10
133.3549
 20
-59.5946
 30
0.0
 10
124.5575
 20
-59.2351
 30
0.0
 10
117.4849
 20
-52.1648
 30
0.0
 10
117.1257
 20
-43.3657
 30
0.0
 10
117.1257
 20
-43.3657
 30
0.0
 10
125.8697
 20
-43.8448
 30
0.0
 10
132.8753
 20
-50.8514
 30
0.0
 10
133.3549
 20
-59.5946
 30
0.0
  0
SPLINE
  5
88
330
1F
100
AcDbEntity
  8
layer 1
 62
     7
100
AcDbSpline
210
0.0
220
0.0
230
1.0
 70
    11
 71
     3
 72
    16
 73
    12
 74
     0
 42
0.0000000001
 43
0.0000000001
 12
1.0
 22
0.0
 32
0.0
 13
1.0
 23
0.0
 33
0.0
 40
0.0
 40
0.0
 40
0.0
 40
0.0
 40
0.25
 40
0.25
 40
0.25
 40
0.25
 40
0.5
 40
0.5
 40
0.5
 40
0.5
 40
1.0
 40
1.0
 40
1.0
 40
1.0
 10
150.9914
 20
-43.3651
 30
0.0
 10
150.6319
 20
-52.1636
 30
0.0
 10
143.5599
 20
-59.2351
 30
0.0
 10
134.7608
 20
-59.5946
 30
0.0
 10
134.7608
 20
-59.5946
 30
0.0
 10
135.2403
 20
-50.8512
 30
0.0
 10
142.2466
 20
-43.8448
 30
0.0
 10
150.9901
 20
-43.3657
 30
0.0
 10
150.9901
 20
-43.3657
 30
0.0
 10
150.9901
 20
-43.3657
 30
0.0
 10
150.9914
 20
-43.3651
 30
0.0
 10
150.9914
 20
-43.3651
 30
0.0
  0
SPLINE
  5
89
330
1F
100
AcDbEntity
  8
layer 1
 62
     7
100
AcDbSpline
210
0.0
220
0.0
230
1.0
 70
    11
 71
     3
 72
    16
 73
    12
 74
     0
 42
0.0000000001
 43
0.0000000001
 12
1.0
 22
0.0
 32
0.0
 13
1.0
 23
0.0
 33
0.0
 40
0.0
 40
0.0
 40
0.0
 40
0.0
 40
0.25
 40
0.25
 40
0.25
 40
0.25
 40
0.5
 40
0.5
 40
0.5
 40
0.5
 40
1.0
 40
1.0
 40
1.0
 40
1.0
 10
134.7619
 20
-25.7295
 30
0.0
 10
143.5613
 20
-26.0891
 30
0.0
 10
150.6306
 20
-33.1601
 30
0.0
 10
150.9901
 20
-41.9592
 30
0.0
 10
150.9901
 20
-41.9592
 30
0.0
 10
142.2471
 20
-41.4807
 30
0.0
 10
135.2395
 20
-34.4738
 30
0.0
 10
134.7608
 20
-25.7304
 30
0.0
 10
134.7608
 20
-25.7304
 30
0.0
 10
134.7608
 20
-25.7304
 30
0.0
 10
134.7619
 20
-25.7295
 30
0.0
 10
134.7619
 20
-25.7295
 30
0.0
  0
SPLINE
  5
8A
330
1F
100
AcDbEntity
  8
layer 1
 62
     7
100
AcDbSpline
210
0.0
220
0.0
230
1.0
 70
    11
 71
     3
 72
    16
 73
    12
 74
     0
 42
0.0000000001
 43
0.0000000001
 12
1.0
 22
0.0
 32
0.0
 13
1.0
 23
0.0
 33
0.0
 40
0.0
 40
0.0
 40
0.0
 40
0.0
 40
0.25
 40
0.25
 40
0.25
 40
0.25
 40
0.5
 40
0.5
 40
0.5
 40
0.5
 40
1.0
 40
1.0
 40
1.0
 40
1.0
 10
117.1273
 20
-41.9591
 30
0.0
 10
117.4868
 20
-33.1595
 30
0.0
 10
124.5555
 20
-26.0896
 30
0.0
 10
133.3543
 20
-25.7304
 30
0.0
 10
133.3543
 20
-25.7304
 30
0.0
 10
132.8761
 20
-34.473
 30
0.0
 10
125.8688
 20
-41.48
 30
0.0
 10
117.1257
 20
-41.9592
 30
0.0
 10
117.1257
 20
-41.9592
 30
0.0
 10
117.1257
 20
-41.9592
 30
0.0
 10
117.1273
 20
-41.9591
 30
0.0
 10
117.1273
 20
-41.9591
 30
0.0
  0
SPLINE
  5
8B
330
1F
100
AcDbEntity
  8
layer 1
 62
     7
100
AcDbSpline
210
0.0
220
0.0
230
1.0
 70
    11
 71
     3
 72
   164
 73
   160
 74
     0
 42
0.0000000001
 43
0.0000000001
 12
1.0
 22
0.0
 32
0.0
 13
1.0
 23
0.0
 33
0.0
 40
0.0
 40
0.0
 40
0.0
 40
0.0
 40
0.024390243902439
 40
0.024390243902439
 40
0.024390243902439
 40
0.024390243902439
 40
0.0487804878048781
 40
0.0487804878048781
 40
0.0487804878048781
 40
0.0487804878048781
 40
0.0731707317073171
 40
0.0731707317073171
 40
0.0731707317073171
 40
0.0731707317073171
 40
0.0975609756097561
 40
0.0975609756097561
 40
0.0975609756097561
 40
0.0975609756097561
 40
0.1219512195121951
 40
0.1219512195121951
 40
0.1219512195121951
 40
0.1219512195121951
 40
0.1463414634146341
 40
0.1463414634146341
 40
0.1463414634146341
 40
0.1463414634146341
 40
0.1707317073170732
 40
0.1707317073170732
 40
0.1707317073170732
 40
0.1707317073170732
 40
0.1951219512195122
 40
0.1951219512195122
 40
0.1951219512195122
 40
0.1951219512195122
 40
0.2195121951219512
 40
0.2195121951219512
 40
0.2195121951219512
 40
0.2195121951219512
 40
0.2439024390243902
 40
0.2439024390243902
 40
0.2439024390243902
 40
0.2439024390243902
 40
0.2682926829268293
 40
0.2682926829268293
 40
0.2682926829268293
 40
0.2682926829268293
 40
0.2926829268292683
 40
0.2926829268292683
 40
0.2926829268292683
 40
0.2926829268292683
 40
0.3170731707317073
 40
0.3170731707317073
 40
0.3170731707317073
 40
0.3170731707317073
 40
0.3414634146341464
 40
0.3414634146341464
 40
0.3414634146341464
 40
0.3414634146341464
 40
0.3658536585365854
 40
0.3658536585365854
 40
0.3658536585365854
 40
0.3658536585365854
 40
0.3902439024390244
 40
0.3902439024390244
 40
0.3902439024390244
 40
0.3902439024390244
 40
0.4146341463414634
 40
0.4146341463414634
 40
0.4146341463414634
 40
0.4146341463414634
 40
0.4390243902439024
 40
0.4390243902439024
 40
0.4390243902439024
 40
0.4390243902439024
 40
0.4634146341463415
 40
0.4634146341463415
 40
0.4634146341463415
 40
0.4634146341463415
 40
0.4878048780487805
 40
0.4878048780487805
 40
0.4878048780487805
 40
0.4878048780487805
 40
0.5121951219512195
 40
0.5121951219512195
 40
0.5121951219512195
 40
0.5121951219512195
 40
0.5365853658536586
 40
0.5365853658536586
 40
0.5365853658536586
 40
0.5365853658536586
 40
0.5609756097560976
 40
0.5609756097560976
 40
0.5609756097560976
 40
0.5609756097560976
 40
0.5853658536585366
 40
0.5853658536585366
 40
0.5853658536585366
 40
0.5853658536585366
 40
0.6097560975609756
 40
0.6097560975609756
 40
0.6097560975609756
 40
0.6097560975609756
 40
0.6341463414634146
 40
0.6341463414634146
 40
0.6341463414634146
 40
0.6341463414634146
 40
0.6585365853658537
 40
0.6585365853658537
 40
0.6585365853658537
 40
0.6585365853658537
 40
0.6829268292682927
 40
0.6829268292682927
 40
0.6829268292682927
 40
0.6829268292682927
 40
0.7073170731707317
 40
0.7073170731707317
 40
0.7073170731707317
 40
0.7073170731707317
 40
0.7317073170731707
 40
0.7317073170731707
 40
0.7317073170731707
 40
0.7317073170731707
 40
0.7560975609756098
 40
0.7560975609756098
 40
0.7560975609756098
 40
0.7560975609756098
 40
0.7804878048780488
 40
0.7804878048780488
 40
0.7804878048780488
 40
0.7804878048780488
 40
0.8048780487804879
 40
0.8048780487804879
 40
0.8048780487804879
 40
0.8048780487804879
 40
0.8292682926829268
 40
0.8292682926829268
 40
0.8292682926829268
 40
0.8292682926829268
 40
0.8536585365853658
 40
0.8536585365853658
 40
0.8536585365853658
 40
0.8536585365853658
 40
0.8780487804878049
 40
0.8780487804878049
 40
0.8780487804878049
 40
0.8780487804878049
 40
0.9024390243902439
 40
0.9024390243902439
 40
0.9024390243902439
 40
0.9024390243902439
 40
0.926829268292683
 40
0.926829268292683
 40
0.926829268292683
 40
0.926829268292683
 40
0.9512195121951219
 40
0.9512195121951219
 40
0.9512195121951219
 40
0.9512195121951219
 40
1.0
 40
1.0
 40
1.0
 40
1.0
 10
134.0584
 20
-48.7176
 30
0.0
 10
134.0584
 20
-48.7176
 30
0.0
 10
134.1642
 20
-48.5543
 30
0.0
 10
134.1642
 20
-48.5543
 30
0.0
 10
134.1642
 20
-48.5543
 30
0.0
 10
134.1642
 20
-48.5543
 30
0.0
 10
134.7619
 20
-47.7141
 30
0.0
 10
134.7619
 20
-47.7141
 30
0.0
 10
134.7619
 20
-47.7141
 30
0.0
 10
134.7619
 20
-47.7141
 30
0.0
 10
135.397
 20
-46.9048
 30
0.0
 10
135.397
 20
-46.9048
 30
0.0
 10
135.397
 20
-46.9048
 30
0.0
 10
135.397
 20
-46.9048
 30
0.0
 10
136.0717
 20
-46.1273
 30
0.0
 10
136.0717
 20
-46.1273
 30
0.0
 10
136.0717
 20
-46.1273
 30
0.0
 10
136.0717
 20
-46.1273
 30
0.0
 10
136.7796
 20
-45.383
 30
0.0
 10
136.7796
 20
-45.383
 30
0.0
 10
136.7796
 20
-45.383
 30
0.0
 10
136.7796
 20
-45.383
 30
0.0
 10
137.5251
 20
-44.674
 30
0.0
 10
137.5251
 20
-44.674
 30
0.0
 10
137.5251
 20
-44.674
 30
0.0
 10
137.5251
 20
-44.674
 30
0.0
 10
138.3014
 20
-44.0002
 30
0.0
 10
138.3014
 20
-44.0002
 30
0.0
 10
138.3014
 20
-44.0002
 30
0.0
 10
138.3014
 20
-44.0002
 30
0.0
 10
139.1108
 20
-43.364
 30
0.0
 10
139.1108
 20
-43.364
 30
0.0
 10
139.1108
 20
-43.364
 30
0.0
 10
139.1108
 20
-43.364
 30
0.0
 10
139.9513
 20
-42.7662
 30
0.0
 10
139.9513
 20
-42.7662
 30
0.0
 10
139.9513
 20
-42.7662
 30
0.0
 10
139.9513
 20
-42.7662
 30
0.0
 10
140.1144
 20
-42.6614
 30
0.0
 10
140.1144
 20
-42.6614
 30
0.0
 10
140.1144
 20
-42.6614
 30
0.0
 10
140.1144
 20
-42.6614
 30
0.0
 10
139.9513
 20
-42.5578
 30
0.0
 10
139.9513
 20
-42.5578
 30
0.0
 10
139.9513
 20
-42.5578
 30
0.0
 10
139.9513
 20
-42.5578
 30
0.0
 10
139.1108
 20
-41.9602
 30
0.0
 10
139.1108
 20
-41.9602
 30
0.0
 10
139.1108
 20
-41.9602
 30
0.0
 10
139.1108
 20
-41.9602
 30
0.0
 10
138.3014
 20
-41.3228
 30
0.0
 10
138.3014
 20
-41.3228
 30
0.0
 10
138.3014
 20
-41.3228
 30
0.0
 10
138.3014
 20
-41.3228
 30
0.0
 10
137.5251
 20
-40.6501
 30
0.0
 10
137.5251
 20
-40.6501
 30
0.0
 10
137.5251
 20
-40.6501
 30
0.0
 10
137.5251
 20
-40.6501
 30
0.0
 10
136.7796
 20
-39.9402
 30
0.0
 10
136.7796
 20
-39.9402
 30
0.0
 10
136.7796
 20
-39.9402
 30
0.0
 10
136.7796
 20
-39.9402
 30
0.0
 10
136.0697
 20
-39.1958
 30
0.0
 10
136.0697
 20
-39.1958
 30
0.0
 10
136.0697
 20
-39.1958
 30
0.0
 10
136.0697
 20
-39.1958
 30
0.0
 10
135.397
 20
-38.4194
 30
0.0
 10
135.397
 20
-38.4194
 30
0.0
 10
135.397
 20
-38.4194
 30
0.0
 10
135.397
 20
-38.4194
 30
0.0
 10
134.7619
 20
-37.609
 30
0.0
 10
134.7619
 20
-37.609
 30
0.0
 10
134.7619
 20
-37.609
 30
0.0
 10
134.7619
 20
-37.609
 30
0.0
 10
134.1642
 20
-36.7686
 30
0.0
 10
134.1642
 20
-36.7686
 30
0.0
 10
134.1642
 20
-36.7686
 30
0.0
 10
134.1642
 20
-36.7686
 30
0.0
 10
134.0584
 20
-36.6055
 30
0.0
 10
134.0584
 20
-36.6055
 30
0.0
 10
134.0584
 20
-36.6055
 30
0.0
 10
134.0584
 20
-36.6055
 30
0.0
 10
133.9545
 20
-36.7686
 30
0.0
 10
133.9545
 20
-36.7686
 30
0.0
 10
133.9545
 20
-36.7686
 30
0.0
 10
133.9545
 20
-36.7686
 30
0.0
 10
133.3571
 20
-37.609
 30
0.0
 10
133.3571
 20
-37.609
 30
0.0
 10
133.3571
 20
-37.609
 30
0.0
 10
133.3571
 20
-37.609
 30
0.0
 10
132.7197
 20
-38.4194
 30
0.0
 10
132.7197
 20
-38.4194
 30
0.0
 10
132.7197
 20
-38.4194
 30
0.0
 10
132.7197
 20
-38.4194
 30
0.0
 10
132.047
 20
-39.1958
 30
0.0
 10
132.047
 20
-39.1958
 30
0.0
 10
132.047
 20
-39.1958
 30
0.0
 10
132.047
 20
-39.1958
 30
0.0
 10
131.3369
 20
-39.9402
 30
0.0
 10
131.3369
 20
-39.9402
 30
0.0
 10
131.3369
 20
-39.9402
 30
0.0
 10
131.3369
 20
-39.9402
 30
0.0
 10
130.5937
 20
-40.6501
 30
0.0
 10
130.5937
 20
-40.6501
 30
0.0
 10
130.5937
 20
-40.6501
 30
0.0
 10
130.5937
 20
-40.6501
 30
0.0
 10
129.8151
 20
-41.324
 30
0.0
 10
129.8151
 20
-41.324
 30
0.0
 10
129.8151
 20
-41.324
 30
0.0
 10
129.8151
 20
-41.324
 30
0.0
 10
129.0058
 20
-41.9602
 30
0.0
 10
129.0058
 20
-41.9602
 30
0.0
 10
129.0058
 20
-41.9602
 30
0.0
 10
129.0058
 20
-41.9602
 30
0.0
 10
128.1656
 20
-42.5578
 30
0.0
 10
128.1656
 20
-42.5578
 30
0.0
 10
128.1656
 20
-42.5578
 30
0.0
 10
128.1656
 20
-42.5578
 30
0.0
 10
128.0022
 20
-42.6614
 30
0.0
 10
128.0022
 20
-42.6614
 30
0.0
 10
128.0022
 20
-42.6614
 30
0.0
 10
128.0022
 20
-42.6614
 30
0.0
 10
128.1656
 20
-42.7662
 30
0.0
 10
128.1656
 20
-42.7662
 30
0.0
 10
128.1656
 20
-42.7662
 30
0.0
 10
128.1656
 20
-42.7662
 30
0.0
 10
129.0058
 20
-43.364
 30
0.0
 10
129.0058
 20
-43.364
 30
0.0
 10
129.0058
 20
-43.364
 30
0.0
 10
129.0058
 20
-43.364
 30
0.0
 10
129.8151
 20
-44.0002
 30
0.0
 10
129.8151
 20
-44.0002
 30
0.0
 10
129.8151
 20
-44.0002
 30
0.0
 10
129.8151
 20
-44.0002
 30
0.0
 10
130.5937
 20
-44.674
 30
0.0
 10
130.5937
 20
-44.674
 30
0.0
 10
130.5937
 20
-44.674
 30
0.0
 10
130.5937
 20
-44.674
 30
0.0
 10
131.3369
 20
-45.383
 30
0.0
 10
131.3369
 20
-45.383
 30
0.0
 10
131.3369
 20
-45.383
 30
0.0
 10
131.3369
 20
-45.383
 30
0.0
 10
132.047
 20
-46.1273
 30
0.0
 10
132.047
 20
-46.1273
 30
0.0
 10
132.047
 20
-46.1273
 30
0.0
 10
132.047
 20
-46.1273
 30
0.0
 10
132.7197
 20
-46.9048
 30
0.0
 10
132.7197
 20
-46.9048
 30
0.0
 10
132.7197
 20
-46.9048
 30
0.0
 10
132.7197
 20
-46.9048
 30
0.0
 10
133.3571
 20
-47.7141
 30
0.0
 10
133.3571
 20
-47.7141
 30
0.0
 10
133.3571
 20
-47.7141
 30
0.0
 10
133.3571
 20
-47.7141
 30
0.0
 10
133.9545
 20
-48.5543
 30
0.0
 10
133.9545
 20
-48.5543
 30
0.0
 10
133.9545
 20
-48.5543
 30
0.0
 10
133.9545
 20
-48.5543
 30
0.0
 10
134.0584
 20
-48.7176
 30
0.0
 10
134.0584
 20
-48.7176
 30
0.0
  0
SPLINE
  5
8C
330
1F
100
AcDbEntity
  8
layer 1
 62
     7
100
AcDbSpline
210
0.0
220
0.0
230
1.0
 70
    11
 71
     3
 72
    24
 73
    20
 74
     0
 42
0.0000000001
 43
0.0000000001
 12
1.0
 22
0.0
 32
0.0
 13
1.0
 23
0.0
 33
0.0
 40
0.0
 40
0.0
 40
0.0
 40
0.0
 40
0.1666666666666667
 40
0.1666666666666667
 40
0.1666666666666667
 40
0.1666666666666667
 40
0.3333333333333333
 40
0.3333333333333333
 40
0.3333333333333333
 40
0.3333333333333333
 40
0.5
 40
0.5
 40
0.5
 40
0.5
 40
0.6666666666666666
 40
0.6666666666666666
 40
0.6666666666666666
 40
0.6666666666666666
 40
1.0
 40
1.0
 40
1.0
 40
1.0
 10
104.8412
 20
-23.791
 30
0.0
 10
109.446
 20
-25.8465
 30
0.0
 10
113.1593
 20
-29.5374
 30
0.0
 10
115.2452
 20
-34.1247
 30
0.0
 10
115.2452
 20
-34.1247
 30
0.0
 10
117.3326
 20
-29.5372
 30
0.0
 10
121.046
 20
-25.8465
 30
0.0
 10
125.6505
 20
-23.7912
 30
0.0
 10
125.6505
 20
-23.7912
 30
0.0
 10
121.0463
 20
-21.7355
 30
0.0
 10
117.3315
 20
-18.0451
 30
0.0
 10
115.2452
 20
-13.4577
 30
0.0
 10
115.2452
 20
-13.4577
 30
0.0
 10
113.1599
 20
-18.0437
 30
0.0
 10
109.4445
 20
-21.736
 30
0.0
 10
104.8401
 20
-23.7912
 30
0.0
 10
104.8401
 20
-23.7912
 30
0.0
 10
104.8401
 20
-23.7912
 30
0.0
 10
104.8412
 20
-23.791
 30
0.0
 10
104.8412
 20
-23.791
 30
0.0
  0
SPLINE
  5
8D
330
1F
100
AcDbEntity
  8
layer 1
 62
     7
100
AcDbSpline
210
0.0
220
0.0
230
1.0
 70
    11
 71
     3
 72
    24
 73
    20
 74
     0
 42
0.0000000001
 43
0.0000000001
 12
1.0
 22
0.0
 32
0.0
 13
1.0
 23
0.0
 33
0.0
 40
0.0
 40
0.0
 40
0.0
 40
0.0
 40
0.1666666666666667
 40
0.1666666666666667
 40
0.1666666666666667
 40
0.1666666666666667
 40
0.3333333333333333
 40
0.3333333333333333
 40
0.3333333333333333
 40
0.3333333333333333
 40
0.5
 40
0.5
 40
0.5
 40
0.5
 40
0.6666666666666666
 40
0.6666666666666666
 40
0.6666666666666666
 40
0.6666666666666666
 40
1.0
 40
1.0
 40
1.0
 40
1.0
 10
152.8702
 20
-34.1244
 30
0.0
 10
154.9566
 20
-29.5372
 30
0.0
 10
158.6706
 20
-25.8465
 30
0.0
 10
163.2751
 20
-23.7912
 30
0.0
 10
163.2751
 20
-23.7912
 30
0.0
 10
158.6706
 20
-21.7355
 30
0.0
 10
154.9555
 20
-18.0454
 30
0.0
 10
152.8697
 20
-13.4579
 30
0.0
 10
152.8697
 20
-13.4579
 30
0.0
 10
150.7842
 20
-18.0437
 30
0.0
 10
147.0691
 20
-21.736
 30
0.0
 10
142.4647
 20
-23.7912
 30
0.0
 10
142.4647
 20
-23.7912
 30
0.0
 10
147.0702
 20
-25.8465
 30
0.0
 10
150.784
 20
-29.5374
 30
0.0
 10
152.8697
 20
-34.1247
 30
0.0
 10
152.8697
 20
-34.1247
 30
0.0
 10
152.8697
 20
-34.1247
 30
0.0
 10
152.8702
 20
-34.1244
 30
0.0
 10
152.8702
 20
-34.1244
 30
0.0
  0
SPLINE
  5
8E
330
1F
100
AcDbEntity
  8
layer 1
 62
     7
100
AcDbSpline
210
0.0
220
0.0
230
1.0
 70
    11
 71
     3
 72
    12
 73
     8
 74
     0
 42
0.0000000001
 43
0.0000000001
 12
1.0
 22
0.0
 32
0.0
 13
1.0
 23
0.0
 33
0.0
 40
0.0
 40
0.0
 40
0.0
 40
0.0
 40
0.3333333333333333
 40
0.3333333333333333
 40
0.3333333333333333
 40
0.3333333333333333
 40
1.0
 40
1.0
 40
1.0
 40
1.0
 10
170.9789
 20
-59.5946
 30
0.0
 10
162.1818
 20
-59.2351
 30
0.0
 10
155.1094
 20
-52.1648
 30
0.0
 10
154.7499
 20
-43.3657
 30
0.0
 10
154.7499
 20
-43.3657
 30
0.0
 10
163.4937
 20
-43.8448
 30
0.0
 10
170.4999
 20
-50.8514
 30
0.0
 10
170.9789
 20
-59.5946
 30
0.0
  0
SPLINE
  5
8F
330
1F
100
AcDbEntity
  8
layer 1
 62
     7
100
AcDbSpline
210
0.0
220
0.0
230
1.0
 70
    11
 71
     3
 72
    16
 73
    12
 74
     0
 42
0.0000000001
 43
0.0000000001
 12
1.0
 22
0.0
 32
0.0
 13
1.0
 23
0.0
 33
0.0
 40
0.0
 40
0.0
 40
0.0
 40
0.0
 40
0.25
 40
0.25
 40
0.25
 40
0.25
 40
0.5
 40
0.5
 40
0.5
 40
0.5
 40
1.0
 40
1.0
 40
1.0
 40
1.0
 10
188.6158
 20
-43.3651
 30
0.0
 10
188.2562
 20
-52.1636
 30
0.0
 10
181.1842
 20
-59.2351
 30
0.0
 10
172.3851
 20
-59.5946
 30
0.0
 10
172.3851
 20
-59.5946
 30
0.0
 10
172.8647
 20
-50.8512
 30
0.0
 10
179.8711
 20
-43.8448
 30
0.0
 10
188.6146
 20
-43.3657
 30
0.0
 10
188.6146
 20
-43.3657
 30
0.0
 10
188.6146
 20
-43.3657
 30
0.0
 10
188.6158
 20
-43.3651
 30
0.0
 10
188.6158
 20
-43.3651
 30
0.0
  0
SPLINE
  5
90
330
1F
100
AcDbEntity
  8
layer 1
 62
     7
100
AcDbSpline
210
0.0
220
0.0
230
1.0
 70
    11
 71
     3
 72
    16
 73
    12
 74
     0
 42
0.0000000001
 43
0.0000000001
 12
1.0
 22
0.0
 32
0.0
 13
1.0
 23
0.0
 33
0.0
 40
0.0
 40
0.0
 40
0.0
 40
0.0
 40
0.25
 40
0.25
 40
0.25
 40
0.25
 40
0.5
 40
0.5
 40
0.5
 40
0.5
 40
1.0
 40
1.0
 40
1.0
 40
1.0
 10
172.386
 20
-25.7295
 30
0.0
 10
181.1856
 20
-26.0891
 30
0.0
 10
188.2551
 20
-33.1601
 30
0.0
 10
188.6146
 20
-41.9592
 30
0.0
 10
188.6146
 20
-41.9592
 30
0.0
 10
179.8711
 20
-41.4807
 30
0.0
 10
172.8647
 20
-34.4738
 30
0.0
 10
172.3851
 20
-25.7304
 30
0.0
 10
172.3851
 20
-25.7304
 30
0.0
 10
172.3851
 20
-25.7304
 30
0.0
 10
172.386
 20
-25.7295
 30
0.0
 10
172.386
 20
-25.7295
 30
0.0
  0
SPLINE
  5
91
330
1F
100
AcDbEntity
  8
layer 1
 62
     7
100
AcDbSpline
210
0.0
220
0.0
230
1.0
 70
    11
 71
     3
 72
    16
 73
    12
 74
     0
 42
0.0000000001
 43
0.0000000001
 12
1.0
 22
0.0
 32
0.0
 13
1.0
 23
0.0
 33
0.0
 40
0.0
 40
0.0
 40
0.0
 40
0.0
 40
0.25
 40
0.25
 40
0.25
 40
0.25
 40
0.5
 40
0.5
 40
0.5
 40
0.5
 40
1.0
 40
1.0
 40
1.0
 40
1.0
 10
154.7515
 20
-41.9591
 30
0.0
 10
155.1111
 20
-33.1595
 30
0.0
 10
162.18
 20
-26.0896
 30
0.0
 10
170.9789
 20
-25.7304
 30
0.0
 10
170.9789
 20
-25.7304
 30
0.0
 10
170.5005
 20
-34.473
 30
0.0
 10
163.4932
 20
-41.48
 30
0.0
 10
154.7499
 20
-41.9592
 30
0.0
 10
154.7499
 20
-41.9592
 30
0.0
 10
154.7499
 20
-41.9592
 30
0.0
 10
154.7515
 20
-41.9591
 30
0.0
 10
154.7515
 20
-41.9591
 30
0.0
  0
SPLINE
  5
92
330
1F
100
AcDbEntity
  8
layer 1
 62
     7
100
AcDbSpline
210
0.0
220
0.0
230
1.0
 70
    11
 71
     3
 72
   164
 73
   160
 74
     0
 42
0.0000000001
 43
0.0000000001
 12
1.0
 22
0.0
 32
0.0
 13
1.0
 23
0.0
 33
0.0
 40
0.0
 40
0.0
 40
0.0
 40
0.0
 40
0.024390243902439
 40
0.024390243902439
 40
0.024390243902439
 40
0.024390243902439
 40
0.0487804878048781
 40
0.0487804878048781
 40
0.0487804878048781
 40
0.0487804878048781
 40
0.0731707317073171
 40
0.0731707317073171
 40
0.0731707317073171
 40
0.0731707317073171
 40
0.0975609756097561
 40
0.0975609756097561
 40
0.0975609756097561
 40
0.0975609756097561
 40
0.1219512195121951
 40
0.1219512195121951
 40
0.1219512195121951
 40
0.1219512195121951
 40
0.1463414634146341
 40
0.1463414634146341
 40
0.1463414634146341
 40
0.1463414634146341
 40
0.1707317073170732
 40
0.1707317073170732
 40
0.1707317073170732
 40
0.1707317073170732
 40
0.1951219512195122
 40
0.1951219512195122
 40
0.1951219512195122
 40
0.1951219512195122
 40
0.2195121951219512
 40
0.2195121951219512
 40
0.2195121951219512
 40
0.2195121951219512
 40
0.2439024390243902
 40
0.2439024390243902
 40
0.2439024390243902
 40
0.2439024390243902
 40
0.2682926829268293
 40
0.2682926829268293
 40
0.2682926829268293
 40
0.2682926829268293
 40
0.2926829268292683
 40
0.2926829268292683
 40
0.2926829268292683
 40
0.2926829268292683
 40
0.3170731707317073
 40
0.3170731707317073
 40
0.3170731707317073
 40
0.3170731707317073
 40
0.3414634146341464
 40
0.3414634146341464
 40
0.3414634146341464
 40
0.3414634146341464
 40
0.3658536585365854
 40
0.3658536585365854
 40
0.3658536585365854
 40
0.3658536585365854
 40
0.3902439024390244
 40
0.3902439024390244
 40
0.3902439024390244
 40
0.3902439024390244
 40
0.4146341463414634
 40
0.4146341463414634
 40
0.4146341463414634
 40
0.4146341463414634
 40
0.4390243902439024
 40
0.4390243902439024
 40
0.4390243902439024
 40
0.4390243902439024
 40
0.4634146341463415
 40
0.4634146341463415
 40
0.4634146341463415
 40
0.4634146341463415
 40
0.4878048780487805
 40
0.4878048780487805
 40
0.4878048780487805
 40
0.4878048780487805
 40
0.5121951219512195
 40
0.5121951219512195
 40
0.5121951219512195
 40
0.5121951219512195
 40
0.5365853658536586
 40
0.5365853658536586
 40
0.5365853658536586
 40
0.5365853658536586
 40
0.5609756097560976
 40
0.5609756097560976
 40
0.5609756097560976
 40
0.5609756097560976
 40
0.5853658536585366
 40
0.5853658536585366
 40
0.5853658536585366
 40
0.5853658536585366
 40
0.6097560975609756
 40
0.6097560975609756
 40
0.6097560975609756
 40
0.6097560975609756
 40
0.6341463414634146
 40
0.6341463414634146
 40
0.6341463414634146
 40
0.6341463414634146
 40
0.6585365853658537
 40
0.6585365853658537
 40
0.6585365853658537
 40
0.6585365853658537
 40
0.6829268292682927
 40
0.6829268292682927
 40
0.6829268292682927
 40
0.6829268292682927
 40
0.7073170731707317
 40
0.7073170731707317
 40
0.7073170731707317
 40
0.7073170731707317
 40
0.7317073170731707
 40
0.7317073170731707
 40
0.7317073170731707
 40
0.7317073170731707
 40
0.7560975609756098
 40
0.7560975609756098
 40
0.7560975609756098
 40
0.7560975609756098
 40
0.7804878048780488
 40
0.7804878048780488
 40
0.7804878048780488
 40
0.7804878048780488
 40
0.8048780487804879
 40
0.8048780487804879
 40
0.8048780487804879
 40
0.8048780487804879
 40
0.8292682926829268
 40
0.8292682926829268
 40
0.8292682926829268
 40
0.8292682926829268
 40
0.8536585365853658
 40
0.8536585365853658
 40
0.8536585365853658
 40
0.8536585365853658
 40
0.8780487804878049
 40
0.8780487804878049
 40
0.8780487804878049
 40
0.8780487804878049
 40
0.9024390243902439
 40
0.9024390243902439
 40
0.9024390243902439
 40
0.9024390243902439
 40
0.926829268292683
 40
0.926829268292683
 40
0.926829268292683
 40
0.926829268292683
 40
0.9512195121951219
 40
0.9512195121951219
 40
0.9512195121951219
 40
0.9512195121951219
 40
1.0
 40
1.0
 40
1.0
 40
1.0
 10
171.6825
 20
-48.7176
 30
0.0
 10
171.6825
 20
-48.7176
 30
0.0
 10
171.7883
 20
-48.5543
 30
0.0
 10
171.7883
 20
-48.5543
 30
0.0
 10
171.7883
 20
-48.5543
 30
0.0
 10
171.7883
 20
-48.5543
 30
0.0
 10
172.386
 20
-47.7141
 30
0.0
 10
172.386
 20
-47.7141
 30
0.0
 10
172.386
 20
-47.7141
 30
0.0
 10
172.386
 20
-47.7141
 30
0.0
 10
173.0211
 20
-46.9048
 30
0.0
 10
173.0211
 20
-46.9048
 30
0.0
 10
173.0211
 20
-46.9048
 30
0.0
 10
173.0211
 20
-46.9048
 30
0.0
 10
173.696
 20
-46.1273
 30
0.0
 10
173.696
 20
-46.1273
 30
0.0
 10
173.696
 20
-46.1273
 30
0.0
 10
173.696
 20
-46.1273
 30
0.0
 10
174.4039
 20
-45.383
 30
0.0
 10
174.4039
 20
-45.383
 30
0.0
 10
174.4039
 20
-45.383
 30
0.0
 10
174.4039
 20
-45.383
 30
0.0
 10
175.1494
 20
-44.674
 30
0.0
 10
175.1494
 20
-44.674
 30
0.0
 10
175.1494
 20
-44.674
 30
0.0
 10
175.1494
 20
-44.674
 30
0.0
 10
175.9257
 20
-44.0002
 30
0.0
 10
175.9257
 20
-44.0002
 30
0.0
 10
175.9257
 20
-44.0002
 30
0.0
 10
175.9257
 20
-44.0002
 30
0.0
 10
176.7351
 20
-43.364
 30
0.0
 10
176.7351
 20
-43.364
 30
0.0
 10
176.7351
 20
-43.364
 30
0.0
 10
176.7351
 20
-43.364
 30
0.0
 10
177.5775
 20
-42.7662
 30
0.0
 10
177.5775
 20
-42.7662
 30
0.0
 10
177.5775
 20
-42.7662
 30
0.0
 10
177.5775
 20
-42.7662
 30
0.0
 10
177.7386
 20
-42.6614
 30
0.0
 10
177.7386
 20
-42.6614
 30
0.0
 10
177.7386
 20
-42.6614
 30
0.0
 10
177.7386
 20
-42.6614
 30
0.0
 10
177.5775
 20
-42.5578
 30
0.0
 10
177.5775
 20
-42.5578
 30
0.0
 10
177.5775
 20
-42.5578
 30
0.0
 10
177.5775
 20
-42.5578
 30
0.0
 10
176.7351
 20
-41.9602
 30
0.0
 10
176.7351
 20
-41.9602
 30
0.0
 10
176.7351
 20
-41.9602
 30
0.0
 10
176.7351
 20
-41.9602
 30
0.0
 10
175.9257
 20
-41.3228
 30
0.0
 10
175.9257
 20
-41.3228
 30
0.0
 10
175.9257
 20
-41.3228
 30
0.0
 10
175.9257
 20
-41.3228
 30
0.0
 10
175.1494
 20
-40.6501
 30
0.0
 10
175.1494
 20
-40.6501
 30
0.0
 10
175.1494
 20
-40.6501
 30
0.0
 10
175.1494
 20
-40.6501
 30
0.0
 10
174.4039
 20
-39.9402
 30
0.0
 10
174.4039
 20
-39.9402
 30
0.0
 10
174.4039
 20
-39.9402
 30
0.0
 10
174.4039
 20
-39.9402
 30
0.0
 10
173.696
 20
-39.1958
 30
0.0
 10
173.696
 20
-39.1958
 30
0.0
 10
173.696
 20
-39.1958
 30
0.0
 10
173.696
 20
-39.1958
 30
0.0
 10
173.0211
 20
-38.4194
 30
0.0
 10
173.0211
 20
-38.4194
 30
0.0
 10
173.0211
 20
-38.4194
 30
0.0
 10
173.0211
 20
-38.4194
 30
0.0
 10
172.386
 20
-37.609
 30
0.0
 10
172.386
 20
-37.609
 30
0.0
 10
172.386
 20
-37.609
 30
0.0
 10
172.386
 20
-37.609
 30
0.0
 10
171.7883
 20
-36.7686
 30
0.0
 10
171.7883
 20
-36.7686
 30
0.0
 10
171.7883
 20
-36.7686
 30
0.0
 10
171.7883
 20
-36.7686
 30
0.0
 10
171.6825
 20
-36.6055
 30
0.0
 10
171.6825
 20
-36.6055
 30
0.0
 10
171.6825
 20
-36.6055
 30
0.0
 10
171.6825
 20
-36.6055
 30
0.0
 10
171.5788
 20
-36.7686
 30
0.0
 10
171.5788
 20
-36.7686
 30
0.0
 10
171.5788
 20
-36.7686
 30
0.0
 10
171.5788
 20
-36.7686
 30
0.0
 10
170.9811
 20
-37.609
 30
0.0
 10
170.9811
 20
-37.609
 30
0.0
 10
170.9811
 20
-37.609
 30
0.0
 10
170.9811
 20
-37.609
 30
0.0
 10
170.3438
 20
-38.4194
 30
0.0
 10
170.3438
 20
-38.4194
 30
0.0
 10
170.3438
 20
-38.4194
 30
0.0
 10
170.3438
 20
-38.4194
 30
0.0
 10
169.6711
 20
-39.1958
 30
0.0
 10
169.6711
 20
-39.1958
 30
0.0
 10
169.6711
 20
-39.1958
 30
0.0
 10
169.6711
 20
-39.1958
 30
0.0
 10
168.9609
 20
-39.9402
 30
0.0
 10
168.9609
 20
-39.9402
 30
0.0
 10
168.9609
 20
-39.9402
 30
0.0
 10
168.9609
 20
-39.9402
 30
0.0
 10
168.2179
 20
-40.6501
 30
0.0
 10
168.2179
 20
-40.6501
 30
0.0
 10
168.2179
 20
-40.6501
 30
0.0
 10
168.2179
 20
-40.6501
 30
0.0
 10
167.4417
 20
-41.324
 30
0.0
 10
167.4417
 20
-41.324
 30
0.0
 10
167.4417
 20
-41.324
 30
0.0
 10
167.4417
 20
-41.324
 30
0.0
 10
166.6298
 20
-41.9602
 30
0.0
 10
166.6298
 20
-41.9602
 30
0.0
 10
166.6298
 20
-41.9602
 30
0.0
 10
166.6298
 20
-41.9602
 30
0.0
 10
165.7896
 20
-42.5578
 30
0.0
 10
165.7896
 20
-42.5578
 30
0.0
 10
165.7896
 20
-42.5578
 30
0.0
 10
165.7896
 20
-42.5578
 30
0.0
 10
165.6264
 20
-42.6614
 30
0.0
 10
165.6264
 20
-42.6614
 30
0.0
 10
165.6264
 20
-42.6614
 30
0.0
 10
165.6264
 20
-42.6614
 30
0.0
 10
165.7896
 20
-42.7662
 30
0.0
 10
165.7896
 20
-42.7662
 30
0.0
 10
165.7896
 20
-42.7662
 30
0.0
 10
165.7896
 20
-42.7662
 30
0.0
 10
166.6298
 20
-43.364
 30
0.0
 10
166.6298
 20
-43.364
 30
0.0
 10
166.6298
 20
-43.364
 30
0.0
 10
166.6298
 20
-43.364
 30
0.0
 10
167.4417
 20
-44.0002
 30
0.0
 10
167.4417
 20
-44.0002
 30
0.0
 10
167.4417
 20
-44.0002
 30
0.0
 10
167.4417
 20
-44.0002
 30
0.0
 10
168.2179
 20
-44.674
 30
0.0
 10
168.2179
 20
-44.674
 30
0.0
 10
168.2179
 20
-44.674
 30
0.0
 10
168.2179
 20
-44.674
 30
0.0
 10
168.9609
 20
-45.383
 30
0.0
 10
168.9609
 20
-45.383
 30
0.0
 10
168.9609
 20
-45.383
 30
0.0
 10
168.9609
 20
-45.383
 30
0.0
 10
169.6711
 20
-46.1273
 30
0.0
 10
169.6711
 20
-46.1273
 30
0.0
 10
169.6711
 20
-46.1273
 30
0.0
 10
169.6711
 20
-46.1273
 30
0.0
 10
170.3438
 20
-46.9048
 30
0.0
 10
170.3438
 20
-46.9048
 30
0.0
 10
170.3438
 20
-46.9048
 30
0.0
 10
170.3438
 20
-46.9048
 30
0.0
 10
170.9811
 20
-47.7141
 30
0.0
 10
170.9811
 20
-47.7141
 30
0.0
 10
170.9811
 20
-47.7141
 30
0.0
 10
170.9811
 20
-47.7141
 30
0.0
 10
171.5788
 20
-48.5543
 30
0.0
 10
171.5788
 20
-48.5543
 30
0.0
 10
171.5788
 20
-48.5543
 30
0.0
 10
171.5788
 20
-48.5543
 30
0.0
 10
171.6825
 20
-48.7176
 30
0.0
 10
171.6825
 20
-48.7176
 30
0.0
  0
SPLINE
  5
93
330
1F
100
AcDbEntity
  8
layer 1
 62
     7
100
AcDbSpline
210
0.0
220
0.0
230
1.0
 70
    11
 71
     3
 72
   164
 73
   160
 74
     0
 42
0.0000000001
 43
0.0000000001
 12
1.0
 22
0.0
 32
0.0
 13
1.0
 23
0.0
 33
0.0
 40
0.0
 40
0.0
 40
0.0
 40
0.0
 40
0.024390243902439
 40
0.024390243902439
 40
0.024390243902439
 40
0.024390243902439
 40
0.0487804878048781
 40
0.0487804878048781
 40
0.0487804878048781
 40
0.0487804878048781
 40
0.0731707317073171
 40
0.0731707317073171
 40
0.0731707317073171
 40
0.0731707317073171
 40
0.0975609756097561
 40
0.0975609756097561
 40
0.0975609756097561
 40
0.0975609756097561
 40
0.1219512195121951
 40
0.1219512195121951
 40
0.1219512195121951
 40
0.1219512195121951
 40
0.1463414634146341
 40
0.1463414634146341
 40
0.1463414634146341
 40
0.1463414634146341
 40
0.1707317073170732
 40
0.1707317073170732
 40
0.1707317073170732
 40
0.1707317073170732
 40
0.1951219512195122
 40
0.1951219512195122
 40
0.1951219512195122
 40
0.1951219512195122
 40
0.2195121951219512
 40
0.2195121951219512
 40
0.2195121951219512
 40
0.2195121951219512
 40
0.2439024390243902
 40
0.2439024390243902
 40
0.2439024390243902
 40
0.2439024390243902
 40
0.2682926829268293
 40
0.2682926829268293
 40
0.2682926829268293
 40
0.2682926829268293
 40
0.2926829268292683
 40
0.2926829268292683
 40
0.2926829268292683
 40
0.2926829268292683
 40
0.3170731707317073
 40
0.3170731707317073
 40
0.3170731707317073
 40
0.3170731707317073
 40
0.3414634146341464
 40
0.3414634146341464
 40
0.3414634146341464
 40
0.3414634146341464
 40
0.3658536585365854
 40
0.3658536585365854
 40
0.3658536585365854
 40
0.3658536585365854
 40
0.3902439024390244
 40
0.3902439024390244
 40
0.3902439024390244
 40
0.3902439024390244
 40
0.4146341463414634
 40
0.4146341463414634
 40
0.4146341463414634
 40
0.4146341463414634
 40
0.4390243902439024
 40
0.4390243902439024
 40
0.4390243902439024
 40
0.4390243902439024
 40
0.4634146341463415
 40
0.4634146341463415
 40
0.4634146341463415
 40
0.4634146341463415
 40
0.4878048780487805
 40
0.4878048780487805
 40
0.4878048780487805
 40
0.4878048780487805
 40
0.5121951219512195
 40
0.5121951219512195
 40
0.5121951219512195
 40
0.5121951219512195
 40
0.5365853658536586
 40
0.5365853658536586
 40
0.5365853658536586
 40
0.5365853658536586
 40
0.5609756097560976
 40
0.5609756097560976
 40
0.5609756097560976
 40
0.5609756097560976
 40
0.5853658536585366
 40
0.5853658536585366
 40
0.5853658536585366
 40
0.5853658536585366
 40
0.6097560975609756
 40
0.6097560975609756
 40
0.6097560975609756
 40
0.6097560975609756
 40
0.6341463414634146
 40
0.6341463414634146
 40
0.6341463414634146
 40
0.6341463414634146
 40
0.6585365853658537
 40
0.6585365853658537
 40
0.6585365853658537
 40
0.6585365853658537
 40
0.6829268292682927
 40
0.6829268292682927
 40
0.6829268292682927
 40
0.6829268292682927
 40
0.7073170731707317
 40
0.7073170731707317
 40
0.7073170731707317
 40
0.7073170731707317
 40
0.7317073170731707
 40
0.7317073170731707
 40
0.7317073170731707
 40
0.7317073170731707
 40
0.7560975609756098
 40
0.7560975609756098
 40
0.7560975609756098
 40
0.7560975609756098
 40
0.7804878048780488
 40
0.7804878048780488
 40
0.7804878048780488
 40
0.7804878048780488
 40
0.8048780487804879
 40
0.8048780487804879
 40
0.8048780487804879
 40
0.8048780487804879
 40
0.8292682926829268
 40
0.8292682926829268
 40
0.8292682926829268
 40
0.8292682926829268
 40
0.8536585365853658
 40
0.8536585365853658
 40
0.8536585365853658
 40
0.8536585365853658
 40
0.8780487804878049
 40
0.8780487804878049
 40
0.8780487804878049
 40
0.8780487804878049
 40
0.9024390243902439
 40
0.9024390243902439
 40
0.9024390243902439
 40
0.9024390243902439
 40
0.926829268292683
 40
0.926829268292683
 40
0.926829268292683
 40
0.926829268292683
 40
0.9512195121951219
 40
0.9512195121951219
 40
0.9512195121951219
 40
0.9512195121951219
 40
1.0
 40
1.0
 40
1.0
 40
1.0
 10
96.4341
 20
-48.7176
 30
0.0
 10
96.4341
 20
-48.7176
 30
0.0
 10
96.5377
 20
-48.5543
 30
0.0
 10
96.5377
 20
-48.5543
 30
0.0
 10
96.5377
 20
-48.5543
 30
0.0
 10
96.5377
 20
-48.5543
 30
0.0
 10
97.1354
 20
-47.7141
 30
0.0
 10
97.1354
 20
-47.7141
 30
0.0
 10
97.1354
 20
-47.7141
 30
0.0
 10
97.1354
 20
-47.7141
 30
0.0
 10
97.7728
 20
-46.9048
 30
0.0
 10
97.7728
 20
-46.9048
 30
0.0
 10
97.7728
 20
-46.9048
 30
0.0
 10
97.7728
 20
-46.9048
 30
0.0
 10
98.4455
 20
-46.1273
 30
0.0
 10
98.4455
 20
-46.1273
 30
0.0
 10
98.4455
 20
-46.1273
 30
0.0
 10
98.4455
 20
-46.1273
 30
0.0
 10
99.1556
 20
-45.383
 30
0.0
 10
99.1556
 20
-45.383
 30
0.0
 10
99.1556
 20
-45.383
 30
0.0
 10
99.1556
 20
-45.383
 30
0.0
 10
99.9011
 20
-44.674
 30
0.0
 10
99.9011
 20
-44.674
 30
0.0
 10
99.9011
 20
-44.674
 30
0.0
 10
99.9011
 20
-44.674
 30
0.0
 10
100.6773
 20
-44.0002
 30
0.0
 10
100.6773
 20
-44.0002
 30
0.0
 10
100.6773
 20
-44.0002
 30
0.0
 10
100.6773
 20
-44.0002
 30
0.0
 10
101.4867
 20
-43.364
 30
0.0
 10
101.4867
 20
-43.364
 30
0.0
 10
101.4867
 20
-43.364
 30
0.0
 10
101.4867
 20
-43.364
 30
0.0
 10
102.3269
 20
-42.7662
 30
0.0
 10
102.3269
 20
-42.7662
 30
0.0
 10
102.3269
 20
-42.7662
 30
0.0
 10
102.3269
 20
-42.7662
 30
0.0
 10
102.49
 20
-42.6614
 30
0.0
 10
102.49
 20
-42.6614
 30
0.0
 10
102.49
 20
-42.6614
 30
0.0
 10
102.49
 20
-42.6614
 30
0.0
 10
102.3269
 20
-42.5578
 30
0.0
 10
102.3269
 20
-42.5578
 30
0.0
 10
102.3269
 20
-42.5578
 30
0.0
 10
102.3269
 20
-42.5578
 30
0.0
 10
101.4867
 20
-41.9602
 30
0.0
 10
101.4867
 20
-41.9602
 30
0.0
 10
101.4867
 20
-41.9602
 30
0.0
 10
101.4867
 20
-41.9602
 30
0.0
 10
100.6773
 20
-41.3228
 30
0.0
 10
100.6773
 20
-41.3228
 30
0.0
 10
100.6773
 20
-41.3228
 30
0.0
 10
100.6773
 20
-41.3228
 30
0.0
 10
99.9011
 20
-40.6501
 30
0.0
 10
99.9011
 20
-40.6501
 30
0.0
 10
99.9011
 20
-40.6501
 30
0.0
 10
99.9011
 20
-40.6501
 30
0.0
 10
99.1556
 20
-39.9402
 30
0.0
 10
99.1556
 20
-39.9402
 30
0.0
 10
99.1556
 20
-39.9402
 30
0.0
 10
99.1556
 20
-39.9402
 30
0.0
 10
98.4455
 20
-39.1958
 30
0.0
 10
98.4455
 20
-39.1958
 30
0.0
 10
98.4455
 20
-39.1958
 30
0.0
 10
98.4455
 20
-39.1958
 30
0.0
 10
97.7728
 20
-38.4194
 30
0.0
 10
97.7728
 20
-38.4194
 30
0.0
 10
97.7728
 20
-38.4194
 30
0.0
 10
97.7728
 20
-38.4194
 30
0.0
 10
97.1354
 20
-37.609
 30
0.0
 10
97.1354
 20
-37.609
 30
0.0
 10
97.1354
 20
-37.609
 30
0.0
 10
97.1354
 20
-37.609
 30
0.0
 10
96.5377
 20
-36.7686
 30
0.0
 10
96.5377
 20
-36.7686
 30
0.0
 10
96.5377
 20
-36.7686
 30
0.0
 10
96.5377
 20
-36.7686
 30
0.0
 10
96.4341
 20
-36.6055
 30
0.0
 10
96.4341
 20
-36.6055
 30
0.0
 10
96.4341
 20
-36.6055
 30
0.0
 10
96.4341
 20
-36.6055
 30
0.0
 10
96.3305
 20
-36.7686
 30
0.0
 10
96.3305
 20
-36.7686
 30
0.0
 10
96.3305
 20
-36.7686
 30
0.0
 10
96.3305
 20
-36.7686
 30
0.0
 10
95.7329
 20
-37.609
 30
0.0
 10
95.7329
 20
-37.609
 30
0.0
 10
95.7329
 20
-37.609
 30
0.0
 10
95.7329
 20
-37.609
 30
0.0
 10
95.0954
 20
-38.4194
 30
0.0
 10
95.0954
 20
-38.4194
 30
0.0
 10
95.0954
 20
-38.4194
 30
0.0
 10
95.0954
 20
-38.4194
 30
0.0
 10
94.4228
 20
-39.1958
 30
0.0
 10
94.4228
 20
-39.1958
 30
0.0
 10
94.4228
 20
-39.1958
 30
0.0
 10
94.4228
 20
-39.1958
 30
0.0
 10
93.7126
 20
-39.9402
 30
0.0
 10
93.7126
 20
-39.9402
 30
0.0
 10
93.7126
 20
-39.9402
 30
0.0
 10
93.7126
 20
-39.9402
 30
0.0
 10
92.9694
 20
-40.6501
 30
0.0
 10
92.9694
 20
-40.6501
 30
0.0
 10
92.9694
 20
-40.6501
 30
0.0
 10
92.9694
 20
-40.6501
 30
0.0
 10
92.1909
 20
-41.324
 30
0.0
 10
92.1909
 20
-41.324
 30
0.0
 10
92.1909
 20
-41.324
 30
0.0
 10
92.1909
 20
-41.324
 30
0.0
 10
91.3815
 20
-41.9602
 30
0.0
 10
91.3815
 20
-41.9602
 30
0.0
 10
91.3815
 20
-41.9602
 30
0.0
 10
91.3815
 20
-41.9602
 30
0.0
 10
90.5413
 20
-42.5578
 30
0.0
 10
90.5413
 20
-42.5578
 30
0.0
 10
90.5413
 20
-42.5578
 30
0.0
 10
90.5413
 20
-42.5578
 30
0.0
 10
90.3782
 20
-42.6614
 30
0.0
 10
90.3782
 20
-42.6614
 30
0.0
 10
90.3782
 20
-42.6614
 30
0.0
 10
90.3782
 20
-42.6614
 30
0.0
 10
90.5413
 20
-42.7662
 30
0.0
 10
90.5413
 20
-42.7662
 30
0.0
 10
90.5413
 20
-42.7662
 30
0.0
 10
90.5413
 20
-42.7662
 30
0.0
 10
91.3815
 20
-43.364
 30
0.0
 10
91.3815
 20
-43.364
 30
0.0
 10
91.3815
 20
-43.364
 30
0.0
 10
91.3815
 20
-43.364
 30
0.0
 10
92.1909
 20
-44.0002
 30
0.0
 10
92.1909
 20
-44.0002
 30
0.0
 10
92.1909
 20
-44.0002
 30
0.0
 10
92.1909
 20
-44.0002
 30
0.0
 10
92.9694
 20
-44.674
 30
0.0
 10
92.9694
 20
-44.674
 30
0.0
 10
92.9694
 20
-44.674
 30
0.0
 10
92.9694
 20
-44.674
 30
0.0
 10
93.7126
 20
-45.383
 30
0.0
 10
93.7126
 20
-45.383
 30
0.0
 10
93.7126
 20
-45.383
 30
0.0
 10
93.7126
 20
-45.383
 30
0.0
 10
94.4228
 20
-46.1273
 30
0.0
 10
94.4228
 20
-46.1273
 30
0.0
 10
94.4228
 20
-46.1273
 30
0.0
 10
94.4228
 20
-46.1273
 30
0.0
 10
95.0954
 20
-46.9048
 30
0.0
 10
95.0954
 20
-46.9048
 30
0.0
 10
95.0954
 20
-46.9048
 30
0.0
 10
95.0954
 20
-46.9048
 30
0.0
 10
95.7329
 20
-47.7141
 30
0.0
 10
95.7329
 20
-47.7141
 30
0.0
 10
95.7329
 20
-47.7141
 30
0.0
 10
95.7329
 20
-47.7141
 30
0.0
 10
96.3305
 20
-48.5543
 30
0.0
 10
96.3305
 20
-48.5543
 30
0.0
 10
96.3305
 20
-48.5543
 30
0.0
 10
96.3305
 20
-48.5543
 30
0.0
 10
96.4341
 20
-48.7176
 30
0.0
 10
96.4341
 20
-48.7176
 30
0.0
  0
SPLINE
  5
94
330
1F
100
AcDbEntity
  8
layer 1
 62
     7
100
AcDbSpline
210
0.0
220
0.0
230
1.0
 70
    11
 71
     3
 72
    16
 73
    12
 74
     0
 42
0.0000000001
 43
0.0000000001
 12
1.0
 22
0.0
 32
0.0
 13
1.0
 23
0.0
 33
0.0
 40
0.0
 40
0.0
 40
0.0
 40
0.0
 40
0.25
 40
0.25
 40
0.25
 40
0.25
 40
0.5
 40
0.5
 40
0.5
 40
0.5
 40
1.0
 40
1.0
 40
1.0
 40
1.0
 10
95.7306
 20
-97.3369
 30
0.0
 10
86.931
 20
-96.9774
 30
0.0
 10
79.8605
 20
-89.9072
 30
0.0
 10
79.501
 20
-81.1081
 30
0.0
 10
79.501
 20
-81.1081
 30
0.0
 10
88.2454
 20
-81.587
 30
0.0
 10
95.2508
 20
-88.5939
 30
0.0
 10
95.7301
 20
-97.3369
 30
0.0
 10
95.7301
 20
-97.3369
 30
0.0
 10
95.7301
 20
-97.3369
 30
0.0
 10
95.7306
 20
-97.3369
 30
0.0
 10
95.7306
 20
-97.3369
 30
0.0
  0
SPLINE
  5
95
330
1F
100
AcDbEntity
  8
layer 1
 62
     7
100
AcDbSpline
210
0.0
220
0.0
230
1.0
 70
    11
 71
     3
 72
    16
 73
    12
 74
     0
 42
0.0000000001
 43
0.0000000001
 12
1.0
 22
0.0
 32
0.0
 13
1.0
 23
0.0
 33
0.0
 40
0.0
 40
0.0
 40
0.0
 40
0.0
 40
0.25
 40
0.25
 40
0.25
 40
0.25
 40
0.5
 40
0.5
 40
0.5
 40
0.5
 40
1.0
 40
1.0
 40
1.0
 40
1.0
 10
113.3672
 20
-81.1073
 30
0.0
 10
113.0077
 20
-89.9069
 30
0.0
 10
105.9354
 20
-96.9777
 30
0.0
 10
97.1363
 20
-97.3369
 30
0.0
 10
97.1363
 20
-97.3369
 30
0.0
 10
97.6161
 20
-88.5935
 30
0.0
 10
104.6226
 20
-81.5874
 30
0.0
 10
113.3652
 20
-81.1081
 30
0.0
 10
113.3652
 20
-81.1081
 30
0.0
 10
113.3652
 20
-81.1081
 30
0.0
 10
113.3672
 20
-81.1073
 30
0.0
 10
113.3672
 20
-81.1073
 30
0.0
  0
SPLINE
  5
96
330
1F
100
AcDbEntity
  8
layer 1
 62
     7
100
AcDbSpline
210
0.0
220
0.0
230
1.0
 70
    11
 71
     3
 72
    16
 73
    12
 74
     0
 42
0.0000000001
 43
0.0000000001
 12
1.0
 22
0.0
 32
0.0
 13
1.0
 23
0.0
 33
0.0
 40
0.0
 40
0.0
 40
0.0
 40
0.0
 40
0.25
 40
0.25
 40
0.25
 40
0.25
 40
0.5
 40
0.5
 40
0.5
 40
0.5
 40
1.0
 40
1.0
 40
1.0
 40
1.0
 10
97.1376
 20
-63.4718
 30
0.0
 10
105.9371
 20
-63.8313
 30
0.0
 10
113.006
 20
-70.9027
 30
0.0
 10
113.3652
 20
-79.7022
 30
0.0
 10
113.3652
 20
-79.7022
 30
0.0
 10
104.6228
 20
-79.2227
 30
0.0
 10
97.615
 20
-72.216
 30
0.0
 10
97.1363
 20
-63.4727
 30
0.0
 10
97.1363
 20
-63.4727
 30
0.0
 10
97.1363
 20
-63.4727
 30
0.0
 10
97.1376
 20
-63.4718
 30
0.0
 10
97.1376
 20
-63.4718
 30
0.0
  0
SPLINE
  5
97
330
1F
100
AcDbEntity
  8
layer 1
 62
     7
100
AcDbSpline
210
0.0
220
0.0
230
1.0
 70
    11
 71
     3
 72
    16
 73
    12
 74
     0
 42
0.0000000001
 43
0.0000000001
 12
1.0
 22
0.0
 32
0.0
 13
1.0
 23
0.0
 33
0.0
 40
0.0
 40
0.0
 40
0.0
 40
0.0
 40
0.25
 40
0.25
 40
0.25
 40
0.25
 40
0.5
 40
0.5
 40
0.5
 40
0.5
 40
1.0
 40
1.0
 40
1.0
 40
1.0
 10
79.501
 20
-79.7014
 30
0.0
 10
79.8605
 20
-70.9018
 30
0.0
 10
86.931
 20
-63.8322
 30
0.0
 10
95.7301
 20
-63.4727
 30
0.0
 10
95.7301
 20
-63.4727
 30
0.0
 10
95.2519
 20
-72.2152
 30
0.0
 10
88.244
 20
-79.2225
 30
0.0
 10
79.501
 20
-79.7022
 30
0.0
 10
79.501
 20
-79.7022
 30
0.0
 10
79.501
 20
-79.7022
 30
0.0
 10
79.501
 20
-79.7014
 30
0.0
 10
79.501
 20
-79.7014
 30
0.0
  0
SPLINE
  5
98
330
1F
100
AcDbEntity
  8
layer 1
 62
     7
100
AcDbSpline
210
0.0
220
0.0
230
1.0
 70
    11
 71
     3
 72
    12
 73
     8
 74
     0
 42
0.0000000001
 43
0.0000000001
 12
1.0
 22
0.0
 32
0.0
 13
1.0
 23
0.0
 33
0.0
 40
0.0
 40
0.0
 40
0.0
 40
0.0
 40
0.3333333333333333
 40
0.3333333333333333
 40
0.3333333333333333
 40
0.3333333333333333
 40
1.0
 40
1.0
 40
1.0
 40
1.0
 10
133.3549
 20
-97.3369
 30
0.0
 10
124.5575
 20
-96.9774
 30
0.0
 10
117.4849
 20
-89.9072
 30
0.0
 10
117.1257
 20
-81.1081
 30
0.0
 10
117.1257
 20
-81.1081
 30
0.0
 10
125.8697
 20
-81.587
 30
0.0
 10
132.8753
 20
-88.5939
 30
0.0
 10
133.3549
 20
-97.3369
 30
0.0
  0
SPLINE
  5
99
330
1F
100
AcDbEntity
  8
layer 1
 62
     7
100
AcDbSpline
210
0.0
220
0.0
230
1.0
 70
    11
 71
     3
 72
    16
 73
    12
 74
     0
 42
0.0000000001
 43
0.0000000001
 12
1.0
 22
0.0
 32
0.0
 13
1.0
 23
0.0
 33
0.0
 40
0.0
 40
0.0
 40
0.0
 40
0.0
 40
0.25
 40
0.25
 40
0.25
 40
0.25
 40
0.5
 40
0.5
 40
0.5
 40
0.5
 40
1.0
 40
1.0
 40
1.0
 40
1.0
 10
150.9914
 20
-81.1073
 30
0.0
 10
150.6319
 20
-89.9069
 30
0.0
 10
143.5599
 20
-96.9777
 30
0.0
 10
134.7608
 20
-97.3369
 30
0.0
 10
134.7608
 20
-97.3369
 30
0.0
 10
135.2403
 20
-88.5935
 30
0.0
 10
142.2466
 20
-81.5874
 30
0.0
 10
150.9901
 20
-81.1081
 30
0.0
 10
150.9901
 20
-81.1081
 30
0.0
 10
150.9901
 20
-81.1081
 30
0.0
 10
150.9914
 20
-81.1073
 30
0.0
 10
150.9914
 20
-81.1073
 30
0.0
  0
SPLINE
  5
9A
330
1F
100
AcDbEntity
  8
layer 1
 62
     7
100
AcDbSpline
210
0.0
220
0.0
230
1.0
 70
    11
 71
     3
 72
    16
 73
    12
 74
     0
 42
0.0000000001
 43
0.0000000001
 12
1.0
 22
0.0
 32
0.0
 13
1.0
 23
0.0
 33
0.0
 40
0.0
 40
0.0
 40
0.0
 40
0.0
 40
0.25
 40
0.25
 40
0.25
 40
0.25
 40
0.5
 40
0.5
 40
0.5
 40
0.5
 40
1.0
 40
1.0
 40
1.0
 40
1.0
 10
134.7619
 20
-63.4718
 30
0.0
 10
143.5613
 20
-63.8313
 30
0.0
 10
150.6306
 20
-70.9027
 30
0.0
 10
150.9901
 20
-79.7022
 30
0.0
 10
150.9901
 20
-79.7022
 30
0.0
 10
142.2471
 20
-79.2227
 30
0.0
 10
135.2395
 20
-72.216
 30
0.0
 10
134.7608
 20
-63.4727
 30
0.0
 10
134.7608
 20
-63.4727
 30
0.0
 10
134.7608
 20
-63.4727
 30
0.0
 10
134.7619
 20
-63.4718
 30
0.0
 10
134.7619
 20
-63.4718
 30
0.0
  0
SPLINE
  5
9B
330
1F
100
AcDbEntity
  8
layer 1
 62
     7
100
AcDbSpline
210
0.0
220
0.0
230
1.0
 70
    11
 71
     3
 72
    16
 73
    12
 74
     0
 42
0.0000000001
 43
0.0000000001
 12
1.0
 22
0.0
 32
0.0
 13
1.0
 23
0.0
 33
0.0
 40
0.0
 40
0.0
 40
0.0
 40
0.0
 40
0.25
 40
0.25
 40
0.25
 40
0.25
 40
0.5
 40
0.5
 40
0.5
 40
0.5
 40
1.0
 40
1.0
 40
1.0
 40
1.0
 10
117.1273
 20
-79.7014
 30
0.0
 10
117.4868
 20
-70.9018
 30
0.0
 10
124.5555
 20
-63.8322
 30
0.0
 10
133.3543
 20
-63.4727
 30
0.0
 10
133.3543
 20
-63.4727
 30
0.0
 10
132.8761
 20
-72.2152
 30
0.0
 10
125.8688
 20
-79.2225
 30
0.0
 10
117.1257
 20
-79.7022
 30
0.0
 10
117.1257
 20
-79.7022
 30
0.0
 10
117.1257
 20
-79.7022
 30
0.0
 10
117.1273
 20
-79.7014
 30
0.0
 10
117.1273
 20
-79.7014
 30
0.0
  0
SPLINE
  5
9C
330
1F
100
AcDbEntity
  8
layer 1
 62
     7
100
AcDbSpline
210
0.0
220
0.0
230
1.0
 70
    11
 71
     3
 72
   164
 73
   160
 74
     0
 42
0.0000000001
 43
0.0000000001
 12
1.0
 22
0.0
 32
0.0
 13
1.0
 23
0.0
 33
0.0
 40
0.0
 40
0.0
 40
0.0
 40
0.0
 40
0.024390243902439
 40
0.024390243902439
 40
0.024390243902439
 40
0.024390243902439
 40
0.0487804878048781
 40
0.0487804878048781
 40
0.0487804878048781
 40
0.0487804878048781
 40
0.0731707317073171
 40
0.0731707317073171
 40
0.0731707317073171
 40
0.0731707317073171
 40
0.0975609756097561
 40
0.0975609756097561
 40
0.0975609756097561
 40
0.0975609756097561
 40
0.1219512195121951
 40
0.1219512195121951
 40
0.1219512195121951
 40
0.1219512195121951
 40
0.1463414634146341
 40
0.1463414634146341
 40
0.1463414634146341
 40
0.1463414634146341
 40
0.1707317073170732
 40
0.1707317073170732
 40
0.1707317073170732
 40
0.1707317073170732
 40
0.1951219512195122
 40
0.1951219512195122
 40
0.1951219512195122
 40
0.1951219512195122
 40
0.2195121951219512
 40
0.2195121951219512
 40
0.2195121951219512
 40
0.2195121951219512
 40
0.2439024390243902
 40
0.2439024390243902
 40
0.2439024390243902
 40
0.2439024390243902
 40
0.2682926829268293
 40
0.2682926829268293
 40
0.2682926829268293
 40
0.2682926829268293
 40
0.2926829268292683
 40
0.2926829268292683
 40
0.2926829268292683
 40
0.2926829268292683
 40
0.3170731707317073
 40
0.3170731707317073
 40
0.3170731707317073
 40
0.3170731707317073
 40
0.3414634146341464
 40
0.3414634146341464
 40
0.3414634146341464
 40
0.3414634146341464
 40
0.3658536585365854
 40
0.3658536585365854
 40
0.3658536585365854
 40
0.3658536585365854
 40
0.3902439024390244
 40
0.3902439024390244
 40
0.3902439024390244
 40
0.3902439024390244
 40
0.4146341463414634
 40
0.4146341463414634
 40
0.4146341463414634
 40
0.4146341463414634
 40
0.4390243902439024
 40
0.4390243902439024
 40
0.4390243902439024
 40
0.4390243902439024
 40
0.4634146341463415
 40
0.4634146341463415
 40
0.4634146341463415
 40
0.4634146341463415
 40
0.4878048780487805
 40
0.4878048780487805
 40
0.4878048780487805
 40
0.4878048780487805
 40
0.5121951219512195
 40
0.5121951219512195
 40
0.5121951219512195
 40
0.5121951219512195
 40
0.5365853658536586
 40
0.5365853658536586
 40
0.5365853658536586
 40
0.5365853658536586
 40
0.5609756097560976
 40
0.5609756097560976
 40
0.5609756097560976
 40
0.5609756097560976
 40
0.5853658536585366
 40
0.5853658536585366
 40
0.5853658536585366
 40
0.5853658536585366
 40
0.6097560975609756
 40
0.6097560975609756
 40
0.6097560975609756
 40
0.6097560975609756
 40
0.6341463414634146
 40
0.6341463414634146
 40
0.6341463414634146
 40
0.6341463414634146
 40
0.6585365853658537
 40
0.6585365853658537
 40
0.6585365853658537
 40
0.6585365853658537
 40
0.6829268292682927
 40
0.6829268292682927
 40
0.6829268292682927
 40
0.6829268292682927
 40
0.7073170731707317
 40
0.7073170731707317
 40
0.7073170731707317
 40
0.7073170731707317
 40
0.7317073170731707
 40
0.7317073170731707
 40
0.7317073170731707
 40
0.7317073170731707
 40
0.7560975609756098
 40
0.7560975609756098
 40
0.7560975609756098
 40
0.7560975609756098
 40
0.7804878048780488
 40
0.7804878048780488
 40
0.7804878048780488
 40
0.7804878048780488
 40
0.8048780487804879
 40
0.8048780487804879
 40
0.8048780487804879
 40
0.8048780487804879
 40
0.8292682926829268
 40
0.8292682926829268
 40
0.8292682926829268
 40
0.8292682926829268
 40
0.8536585365853658
 40
0.8536585365853658
 40
0.8536585365853658
 40
0.8536585365853658
 40
0.8780487804878049
 40
0.8780487804878049
 40
0.8780487804878049
 40
0.8780487804878049
 40
0.9024390243902439
 40
0.9024390243902439
 40
0.9024390243902439
 40
0.9024390243902439
 40
0.926829268292683
 40
0.926829268292683
 40
0.926829268292683
 40
0.926829268292683
 40
0.9512195121951219
 40
0.9512195121951219
 40
0.9512195121951219
 40
0.9512195121951219
 40
1.0
 40
1.0
 40
1.0
 40
1.0
 10
134.0584
 20
-86.4597
 30
0.0
 10
134.0584
 20
-86.4597
 30
0.0
 10
134.1642
 20
-86.2977
 30
0.0
 10
134.1642
 20
-86.2977
 30
0.0
 10
134.1642
 20
-86.2977
 30
0.0
 10
134.1642
 20
-86.2977
 30
0.0
 10
134.7619
 20
-85.4564
 30
0.0
 10
134.7619
 20
-85.4564
 30
0.0
 10
134.7619
 20
-85.4564
 30
0.0
 10
134.7619
 20
-85.4564
 30
0.0
 10
135.397
 20
-84.647
 30
0.0
 10
135.397
 20
-84.647
 30
0.0
 10
135.397
 20
-84.647
 30
0.0
 10
135.397
 20
-84.647
 30
0.0
 10
136.0717
 20
-83.8696
 30
0.0
 10
136.0717
 20
-83.8696
 30
0.0
 10
136.0717
 20
-83.8696
 30
0.0
 10
136.0717
 20
-83.8696
 30
0.0
 10
136.7796
 20
-83.1263
 30
0.0
 10
136.7796
 20
-83.1263
 30
0.0
 10
136.7796
 20
-83.1263
 30
0.0
 10
136.7796
 20
-83.1263
 30
0.0
 10
137.5251
 20
-82.4161
 30
0.0
 10
137.5251
 20
-82.4161
 30
0.0
 10
137.5251
 20
-82.4161
 30
0.0
 10
137.5251
 20
-82.4161
 30
0.0
 10
138.3014
 20
-81.7425
 30
0.0
 10
138.3014
 20
-81.7425
 30
0.0
 10
138.3014
 20
-81.7425
 30
0.0
 10
138.3014
 20
-81.7425
 30
0.0
 10
139.1108
 20
-81.1063
 30
0.0
 10
139.1108
 20
-81.1063
 30
0.0
 10
139.1108
 20
-81.1063
 30
0.0
 10
139.1108
 20
-81.1063
 30
0.0
 10
139.9513
 20
-80.5086
 30
0.0
 10
139.9513
 20
-80.5086
 30
0.0
 10
139.9513
 20
-80.5086
 30
0.0
 10
139.9513
 20
-80.5086
 30
0.0
 10
140.1144
 20
-80.4037
 30
0.0
 10
140.1144
 20
-80.4037
 30
0.0
 10
140.1144
 20
-80.4037
 30
0.0
 10
140.1144
 20
-80.4037
 30
0.0
 10
139.9513
 20
-80.3001
 30
0.0
 10
139.9513
 20
-80.3001
 30
0.0
 10
139.9513
 20
-80.3001
 30
0.0
 10
139.9513
 20
-80.3001
 30
0.0
 10
139.1108
 20
-79.7024
 30
0.0
 10
139.1108
 20
-79.7024
 30
0.0
 10
139.1108
 20
-79.7024
 30
0.0
 10
139.1108
 20
-79.7024
 30
0.0
 10
138.3014
 20
-79.0662
 30
0.0
 10
138.3014
 20
-79.0662
 30
0.0
 10
138.3014
 20
-79.0662
 30
0.0
 10
138.3014
 20
-79.0662
 30
0.0
 10
137.5251
 20
-78.3924
 30
0.0
 10
137.5251
 20
-78.3924
 30
0.0
 10
137.5251
 20
-78.3924
 30
0.0
 10
137.5251
 20
-78.3924
 30
0.0
 10
136.7796
 20
-77.6835
 30
0.0
 10
136.7796
 20
-77.6835
 30
0.0
 10
136.7796
 20
-77.6835
 30
0.0
 10
136.7796
 20
-77.6835
 30
0.0
 10
136.0697
 20
-76.9379
 30
0.0
 10
136.0697
 20
-76.9379
 30
0.0
 10
136.0697
 20
-76.9379
 30
0.0
 10
136.0697
 20
-76.9379
 30
0.0
 10
135.397
 20
-76.1617
 30
0.0
 10
135.397
 20
-76.1617
 30
0.0
 10
135.397
 20
-76.1617
 30
0.0
 10
135.397
 20
-76.1617
 30
0.0
 10
134.7619
 20
-75.3512
 30
0.0
 10
134.7619
 20
-75.3512
 30
0.0
 10
134.7619
 20
-75.3512
 30
0.0
 10
134.7619
 20
-75.3512
 30
0.0
 10
134.1642
 20
-74.5109
 30
0.0
 10
134.1642
 20
-74.5109
 30
0.0
 10
134.1642
 20
-74.5109
 30
0.0
 10
134.1642
 20
-74.5109
 30
0.0
 10
134.0584
 20
-74.3487
 30
0.0
 10
134.0584
 20
-74.3487
 30
0.0
 10
134.0584
 20
-74.3487
 30
0.0
 10
134.0584
 20
-74.3487
 30
0.0
 10
133.9545
 20
-74.5109
 30
0.0
 10
133.9545
 20
-74.5109
 30
0.0
 10
133.9545
 20
-74.5109
 30
0.0
 10
133.9545
 20
-74.5109
 30
0.0
 10
133.3571
 20
-75.3512
 30
0.0
 10
133.3571
 20
-75.3512
 30
0.0
 10
133.3571
 20
-75.3512
 30
0.0
 10
133.3571
 20
-75.3512
 30
0.0
 10
132.7197
 20
-76.1617
 30
0.0
 10
132.7197
 20
-76.1617
 30
0.0
 10
132.7197
 20
-76.1617
 30
0.0
 10
132.7197
 20
-76.1617
 30
0.0
 10
132.047
 20
-76.9391
 30
0.0
 10
132.047
 20
-76.9391
 30
0.0
 10
132.047
 20
-76.9391
 30
0.0
 10
132.047
 20
-76.9391
 30
0.0
 10
131.3369
 20
-77.6835
 30
0.0
 10
131.3369
 20
-77.6835
 30
0.0
 10
131.3369
 20
-77.6835
 30
0.0
 10
131.3369
 20
-77.6835
 30
0.0
 10
130.5937
 20
-78.3924
 30
0.0
 10
130.5937
 20
-78.3924
 30
0.0
 10
130.5937
 20
-78.3924
 30
0.0
 10
130.5937
 20
-78.3924
 30
0.0
 10
129.8151
 20
-79.0662
 30
0.0
 10
129.8151
 20
-79.0662
 30
0.0
 10
129.8151
 20
-79.0662
 30
0.0
 10
129.8151
 20
-79.0662
 30
0.0
 10
129.0058
 20
-79.7024
 30
0.0
 10
129.0058
 20
-79.7024
 30
0.0
 10
129.0058
 20
-79.7024
 30
0.0
 10
129.0058
 20
-79.7024
 30
0.0
 10
128.1656
 20
-80.3001
 30
0.0
 10
128.1656
 20
-80.3001
 30
0.0
 10
128.1656
 20
-80.3001
 30
0.0
 10
128.1656
 20
-80.3001
 30
0.0
 10
128.0022
 20
-80.4037
 30
0.0
 10
128.0022
 20
-80.4037
 30
0.0
 10
128.0022
 20
-80.4037
 30
0.0
 10
128.0022
 20
-80.4037
 30
0.0
 10
128.1656
 20
-80.5086
 30
0.0
 10
128.1656
 20
-80.5086
 30
0.0
 10
128.1656
 20
-80.5086
 30
0.0
 10
128.1656
 20
-80.5086
 30
0.0
 10
129.0058
 20
-81.1063
 30
0.0
 10
129.0058
 20
-81.1063
 30
0.0
 10
129.0058
 20
-81.1063
 30
0.0
 10
129.0058
 20
-81.1063
 30
0.0
 10
129.8151
 20
-81.7425
 30
0.0
 10
129.8151
 20
-81.7425
 30
0.0
 10
129.8151
 20
-81.7425
 30
0.0
 10
129.8151
 20
-81.7425
 30
0.0
 10
130.5937
 20
-82.4161
 30
0.0
 10
130.5937
 20
-82.4161
 30
0.0
 10
130.5937
 20
-82.4161
 30
0.0
 10
130.5937
 20
-82.4161
 30
0.0
 10
131.3369
 20
-83.1263
 30
0.0
 10
131.3369
 20
-83.1263
 30
0.0
 10
131.3369
 20
-83.1263
 30
0.0
 10
131.3369
 20
-83.1263
 30
0.0
 10
132.047
 20
-83.8696
 30
0.0
 10
132.047
 20
-83.8696
 30
0.0
 10
132.047
 20
-83.8696
 30
0.0
 10
132.047
 20
-83.8696
 30
0.0
 10
132.7197
 20
-84.647
 30
0.0
 10
132.7197
 20
-84.647
 30
0.0
 10
132.7197
 20
-84.647
 30
0.0
 10
132.7197
 20
-84.647
 30
0.0
 10
133.3571
 20
-85.4564
 30
0.0
 10
133.3571
 20
-85.4564
 30
0.0
 10
133.3571
 20
-85.4564
 30
0.0
 10
133.3571
 20
-85.4564
 30
0.0
 10
133.9545
 20
-86.2977
 30
0.0
 10
133.9545
 20
-86.2977
 30
0.0
 10
133.9545
 20
-86.2977
 30
0.0
 10
133.9545
 20
-86.2977
 30
0.0
 10
134.0584
 20
-86.4597
 30
0.0
 10
134.0584
 20
-86.4597
 30
0.0
  0
SPLINE
  5
9D
330
1F
100
AcDbEntity
  8
layer 1
 62
     7
100
AcDbSpline
210
0.0
220
0.0
230
1.0
 70
    11
 71
     3
 72
    24
 73
    20
 74
     0
 42
0.0000000001
 43
0.0000000001
 12
1.0
 22
0.0
 32
0.0
 13
1.0
 23
0.0
 33
0.0
 40
0.0
 40
0.0
 40
0.0
 40
0.0
 40
0.1666666666666667
 40
0.1666666666666667
 40
0.1666666666666667
 40
0.1666666666666667
 40
0.3333333333333333
 40
0.3333333333333333
 40
0.3333333333333333
 40
0.3333333333333333
 40
0.5
 40
0.5
 40
0.5
 40
0.5
 40
0.6666666666666666
 40
0.6666666666666666
 40
0.6666666666666666
 40
0.6666666666666666
 40
1.0
 40
1.0
 40
1.0
 40
1.0
 10
104.8412
 20
-61.5332
 30
0.0
 10
109.446
 20
-63.5886
 30
0.0
 10
113.1593
 20
-67.2798
 30
0.0
 10
115.2452
 20
-71.8675
 30
0.0
 10
115.2452
 20
-71.8675
 30
0.0
 10
117.3326
 20
-67.2793
 30
0.0
 10
121.046
 20
-63.5889
 30
0.0
 10
125.6505
 20
-61.5336
 30
0.0
 10
125.6505
 20
-61.5336
 30
0.0
 10
121.0463
 20
-59.4778
 30
0.0
 10
117.3315
 20
-55.7878
 30
0.0
 10
115.2452
 20
-51.1999
 30
0.0
 10
115.2452
 20
-51.1999
 30
0.0
 10
113.1599
 20
-55.7869
 30
0.0
 10
109.4445
 20
-59.4786
 30
0.0
 10
104.8401
 20
-61.5336
 30
0.0
 10
104.8401
 20
-61.5336
 30
0.0
 10
104.8401
 20
-61.5336
 30
0.0
 10
104.8412
 20
-61.5332
 30
0.0
 10
104.8412
 20
-61.5332
 30
0.0
  0
SPLINE
  5
9E
330
1F
100
AcDbEntity
  8
layer 1
 62
     7
100
AcDbSpline
210
0.0
220
0.0
230
1.0
 70
    11
 71
     3
 72
    24
 73
    20
 74
     0
 42
0.0000000001
 43
0.0000000001
 12
1.0
 22
0.0
 32
0.0
 13
1.0
 23
0.0
 33
0.0
 40
0.0
 40
0.0
 40
0.0
 40
0.0
 40
0.1666666666666667
 40
0.1666666666666667
 40
0.1666666666666667
 40
0.1666666666666667
 40
0.3333333333333333
 40
0.3333333333333333
 40
0.3333333333333333
 40
0.3333333333333333
 40
0.5
 40
0.5
 40
0.5
 40
0.5
 40
0.6666666666666666
 40
0.6666666666666666
 40
0.6666666666666666
 40
0.6666666666666666
 40
1.0
 40
1.0
 40
1.0
 40
1.0
 10
152.8702
 20
-71.8666
 30
0.0
 10
154.9566
 20
-67.2793
 30
0.0
 10
158.6706
 20
-63.5889
 30
0.0
 10
163.2751
 20
-61.5336
 30
0.0
 10
163.2751
 20
-61.5336
 30
0.0
 10
158.6706
 20
-59.4778
 30
0.0
 10
154.9555
 20
-55.7881
 30
0.0
 10
152.8697
 20
-51.2003
 30
0.0
 10
152.8697
 20
-51.2003
 30
0.0
 10
150.7842
 20
-55.7869
 30
0.0
 10
147.0691
 20
-59.4786
 30
0.0
 10
142.4647
 20
-61.5336
 30
0.0
 10
142.4647
 20
-61.5336
 30
0.0
 10
147.0702
 20
-63.5886
 30
0.0
 10
150.784
 20
-67.2798
 30
0.0
 10
152.8697
 20
-71.8672
 30
0.0
 10
152.8697
 20
-71.8672
 30
0.0
 10
152.8697
 20
-71.8672
 30
0.0
 10
152.8702
 20
-71.8666
 30
0.0
 10
152.8702
 20
-71.8666
 30
0.0
  0
SPLINE
  5
9F
330
1F
100
AcDbEntity
  8
layer 1
 62
     7
100
AcDbSpline
210
0.0
220
0.0
230
1.0
 70
    11
 71
     3
 72
    12
 73
     8
 74
     0
 42
0.0000000001
 43
0.0000000001
 12
1.0
 22
0.0
 32
0.0
 13
1.0
 23
0.0
 33
0.0
 40
0.0
 40
0.0
 40
0.0
 40
0.0
 40
0.3333333333333333
 40
0.3333333333333333
 40
0.3333333333333333
 40
0.3333333333333333
 40
1.0
 40
1.0
 40
1.0
 40
1.0
 10
170.9789
 20
-97.3369
 30
0.0
 10
162.1818
 20
-96.9774
 30
0.0
 10
155.1094
 20
-89.9072
 30
0.0
 10
154.7499
 20
-81.1081
 30
0.0
 10
154.7499
 20
-81.1081
 30
0.0
 10
163.4937
 20
-81.587
 30
0.0
 10
170.4999
 20
-88.5939
 30
0.0
 10
170.9789
 20
-97.3369
 30
0.0
  0
SPLINE
  5
A0
330
1F
100
AcDbEntity
  8
layer 1
 62
     7
100
AcDbSpline
210
0.0
220
0.0
230
1.0
 70
    11
 71
     3
 72
    16
 73
    12
 74
     0
 42
0.0000000001
 43
0.0000000001
 12
1.0
 22
0.0
 32
0.0
 13
1.0
 23
0.0
 33
0.0
 40
0.0
 40
0.0
 40
0.0
 40
0.0
 40
0.25
 40
0.25
 40
0.25
 40
0.25
 40
0.5
 40
0.5
 40
0.5
 40
0.5
 40
1.0
 40
1.0
 40
1.0
 40
1.0
 10
188.6158
 20
-81.1073
 30
0.0
 10
188.2562
 20
-89.9069
 30
0.0
 10
181.1842
 20
-96.9777
 30
0.0
 10
172.3851
 20
-97.3369
 30
0.0
 10
172.3851
 20
-97.3369
 30
0.0
 10
172.8647
 20
-88.5935
 30
0.0
 10
179.8711
 20
-81.5874
 30
0.0
 10
188.6146
 20
-81.1081
 30
0.0
 10
188.6146
 20
-81.1081
 30
0.0
 10
188.6146
 20
-81.1081
 30
0.0
 10
188.6158
 20
-81.1073
 30
0.0
 10
188.6158
 20
-81.1073
 30
0.0
  0
SPLINE
  5
A1
330
1F
100
AcDbEntity
  8
layer 1
 62
     7
100
AcDbSpline
210
0.0
220
0.0
230
1.0
 70
    11
 71
     3
 72
    16
 73
    12
 74
     0
 42
0.0000000001
 43
0.0000000001
 12
1.0
 22
0.0
 32
0.0
 13
1.0
 23
0.0
 33
0.0
 40
0.0
 40
0.0
 40
0.0
 40
0.0
 40
0.25
 40
0.25
 40
0.25
 40
0.25
 40
0.5
 40
0.5
 40
0.5
 40
0.5
 40
1.0
 40
1.0
 40
1.0
 40
1.0
 10
172.386
 20
-63.4718
 30
0.0
 10
181.1856
 20
-63.8313
 30
0.0
 10
188.2551
 20
-70.9027
 30
0.0
 10
188.6146
 20
-79.7022
 30
0.0
 10
188.6146
 20
-79.7022
 30
0.0
 10
179.8711
 20
-79.2227
 30
0.0
 10
172.8647
 20
-72.216
 30
0.0
 10
172.3851
 20
-63.4727
 30
0.0
 10
172.3851
 20
-63.4727
 30
0.0
 10
172.3851
 20
-63.4727
 30
0.0
 10
172.386
 20
-63.4718
 30
0.0
 10
172.386
 20
-63.4718
 30
0.0
  0
SPLINE
  5
A2
330
1F
100
AcDbEntity
  8
layer 1
 62
     7
100
AcDbSpline
210
0.0
220
0.0
230
1.0
 70
    11
 71
     3
 72
    16
 73
    12
 74
     0
 42
0.0000000001
 43
0.0000000001
 12
1.0
 22
0.0
 32
0.0
 13
1.0
 23
0.0
 33
0.0
 40
0.0
 40
0.0
 40
0.0
 40
0.0
 40
0.25
 40
0.25
 40
0.25
 40
0.25
 40
0.5
 40
0.5
 40
0.5
 40
0.5
 40
1.0
 40
1.0
 40
1.0
 40
1.0
 10
154.7515
 20
-79.7014
 30
0.0
 10
155.1111
 20
-70.9018
 30
0.0
 10
162.18
 20
-63.8322
 30
0.0
 10
170.9789
 20
-63.4727
 30
0.0
 10
170.9789
 20
-63.4727
 30
0.0
 10
170.5005
 20
-72.2152
 30
0.0
 10
163.4932
 20
-79.2225
 30
0.0
 10
154.7499
 20
-79.7022
 30
0.0
 10
154.7499
 20
-79.7022
 30
0.0
 10
154.7499
 20
-79.7022
 30
0.0
 10
154.7515
 20
-79.7014
 30
0.0
 10
154.7515
 20
-79.7014
 30
0.0
  0
SPLINE
  5
A3
330
1F
100
AcDbEntity
  8
layer 1
 62
     7
100
AcDbSpline
210
0.0
220
0.0
230
1.0
 70
    11
 71
     3
 72
   164
 73
   160
 74
     0
 42
0.0000000001
 43
0.0000000001
 12
1.0
 22
0.0
 32
0.0
 13
1.0
 23
0.0
 33
0.0
 40
0.0
 40
0.0
 40
0.0
 40
0.0
 40
0.024390243902439
 40
0.024390243902439
 40
0.024390243902439
 40
0.024390243902439
 40
0.0487804878048781
 40
0.0487804878048781
 40
0.0487804878048781
 40
0.0487804878048781
 40
0.0731707317073171
 40
0.0731707317073171
 40
0.0731707317073171
 40
0.0731707317073171
 40
0.0975609756097561
 40
0.0975609756097561
 40
0.0975609756097561
 40
0.0975609756097561
 40
0.1219512195121951
 40
0.1219512195121951
 40
0.1219512195121951
 40
0.1219512195121951
 40
0.1463414634146341
 40
0.1463414634146341
 40
0.1463414634146341
 40
0.1463414634146341
 40
0.1707317073170732
 40
0.1707317073170732
 40
0.1707317073170732
 40
0.1707317073170732
 40
0.1951219512195122
 40
0.1951219512195122
 40
0.1951219512195122
 40
0.1951219512195122
 40
0.2195121951219512
 40
0.2195121951219512
 40
0.2195121951219512
 40
0.2195121951219512
 40
0.2439024390243902
 40
0.2439024390243902
 40
0.2439024390243902
 40
0.2439024390243902
 40
0.2682926829268293
 40
0.2682926829268293
 40
0.2682926829268293
 40
0.2682926829268293
 40
0.2926829268292683
 40
0.2926829268292683
 40
0.2926829268292683
 40
0.2926829268292683
 40
0.3170731707317073
 40
0.3170731707317073
 40
0.3170731707317073
 40
0.3170731707317073
 40
0.3414634146341464
 40
0.3414634146341464
 40
0.3414634146341464
 40
0.3414634146341464
 40
0.3658536585365854
 40
0.3658536585365854
 40
0.3658536585365854
 40
0.3658536585365854
 40
0.3902439024390244
 40
0.3902439024390244
 40
0.3902439024390244
 40
0.3902439024390244
 40
0.4146341463414634
 40
0.4146341463414634
 40
0.4146341463414634
 40
0.4146341463414634
 40
0.4390243902439024
 40
0.4390243902439024
 40
0.4390243902439024
 40
0.4390243902439024
 40
0.4634146341463415
 40
0.4634146341463415
 40
0.4634146341463415
 40
0.4634146341463415
 40
0.4878048780487805
 40
0.4878048780487805
 40
0.4878048780487805
 40
0.4878048780487805
 40
0.5121951219512195
 40
0.5121951219512195
 40
0.5121951219512195
 40
0.5121951219512195
 40
0.5365853658536586
 40
0.5365853658536586
 40
0.5365853658536586
 40
0.5365853658536586
 40
0.5609756097560976
 40
0.5609756097560976
 40
0.5609756097560976
 40
0.5609756097560976
 40
0.5853658536585366
 40
0.5853658536585366
 40
0.5853658536585366
 40
0.5853658536585366
 40
0.6097560975609756
 40
0.6097560975609756
 40
0.6097560975609756
 40
0.6097560975609756
 40
0.6341463414634146
 40
0.6341463414634146
 40
0.6341463414634146
 40
0.6341463414634146
 40
0.6585365853658537
 40
0.6585365853658537
 40
0.6585365853658537
 40
0.6585365853658537
 40
0.6829268292682927
 40
0.6829268292682927
 40
0.6829268292682927
 40
0.6829268292682927
 40
0.7073170731707317
 40
0.7073170731707317
 40
0.7073170731707317
 40
0.7073170731707317
 40
0.7317073170731707
 40
0.7317073170731707
 40
0.7317073170731707
 40
0.7317073170731707
 40
0.7560975609756098
 40
0.7560975609756098
 40
0.7560975609756098
 40
0.7560975609756098
 40
0.7804878048780488
 40
0.7804878048780488
 40
0.7804878048780488
 40
0.7804878048780488
 40
0.8048780487804879
 40
0.8048780487804879
 40
0.8048780487804879
 40
0.8048780487804879
 40
0.8292682926829268
 40
0.8292682926829268
 40
0.8292682926829268
 40
0.8292682926829268
 40
0.8536585365853658
 40
0.8536585365853658
 40
0.8536585365853658
 40
0.8536585365853658
 40
0.8780487804878049
 40
0.8780487804878049
 40
0.8780487804878049
 40
0.8780487804878049
 40
0.9024390243902439
 40
0.9024390243902439
 40
0.9024390243902439
 40
0.9024390243902439
 40
0.926829268292683
 40
0.926829268292683
 40
0.926829268292683
 40
0.926829268292683
 40
0.9512195121951219
 40
0.9512195121951219
 40
0.9512195121951219
 40
0.9512195121951219
 40
1.0
 40
1.0
 40
1.0
 40
1.0
 10
171.6825
 20
-86.4597
 30
0.0
 10
171.6825
 20
-86.4597
 30
0.0
 10
171.7883
 20
-86.2977
 30
0.0
 10
171.7883
 20
-86.2977
 30
0.0
 10
171.7883
 20
-86.2977
 30
0.0
 10
171.7883
 20
-86.2977
 30
0.0
 10
172.386
 20
-85.4564
 30
0.0
 10
172.386
 20
-85.4564
 30
0.0
 10
172.386
 20
-85.4564
 30
0.0
 10
172.386
 20
-85.4564
 30
0.0
 10
173.0211
 20
-84.647
 30
0.0
 10
173.0211
 20
-84.647
 30
0.0
 10
173.0211
 20
-84.647
 30
0.0
 10
173.0211
 20
-84.647
 30
0.0
 10
173.696
 20
-83.8696
 30
0.0
 10
173.696
 20
-83.8696
 30
0.0
 10
173.696
 20
-83.8696
 30
0.0
 10
173.696
 20
-83.8696
 30
0.0
 10
174.4039
 20
-83.1263
 30
0.0
 10
174.4039
 20
-83.1263
 30
0.0
 10
174.4039
 20
-83.1263
 30
0.0
 10
174.4039
 20
-83.1263
 30
0.0
 10
175.1494
 20
-82.4161
 30
0.0
 10
175.1494
 20
-82.4161
 30
0.0
 10
175.1494
 20
-82.4161
 30
0.0
 10
175.1494
 20
-82.4161
 30
0.0
 10
175.9257
 20
-81.7425
 30
0.0
 10
175.9257
 20
-81.7425
 30
0.0
 10
175.9257
 20
-81.7425
 30
0.0
 10
175.9257
 20
-81.7425
 30
0.0
 10
176.7351
 20
-81.1063
 30
0.0
 10
176.7351
 20
-81.1063
 30
0.0
 10
176.7351
 20
-81.1063
 30
0.0
 10
176.7351
 20
-81.1063
 30
0.0
 10
177.5775
 20
-80.5086
 30
0.0
 10
177.5775
 20
-80.5086
 30
0.0
 10
177.5775
 20
-80.5086
 30
0.0
 10
177.5775
 20
-80.5086
 30
0.0
 10
177.7386
 20
-80.4037
 30
0.0
 10
177.7386
 20
-80.4037
 30
0.0
 10
177.7386
 20
-80.4037
 30
0.0
 10
177.7386
 20
-80.4037
 30
0.0
 10
177.5775
 20
-80.3001
 30
0.0
 10
177.5775
 20
-80.3001
 30
0.0
 10
177.5775
 20
-80.3001
 30
0.0
 10
177.5775
 20
-80.3001
 30
0.0
 10
176.7351
 20
-79.7024
 30
0.0
 10
176.7351
 20
-79.7024
 30
0.0
 10
176.7351
 20
-79.7024
 30
0.0
 10
176.7351
 20
-79.7024
 30
0.0
 10
175.9257
 20
-79.0662
 30
0.0
 10
175.9257
 20
-79.0662
 30
0.0
 10
175.9257
 20
-79.0662
 30
0.0
 10
175.9257
 20
-79.0662
 30
0.0
 10
175.1494
 20
-78.3924
 30
0.0
 10
175.1494
 20
-78.3924
 30
0.0
 10
175.1494
 20
-78.3924
 30
0.0
 10
175.1494
 20
-78.3924
 30
0.0
 10
174.4039
 20
-77.6835
 30
0.0
 10
174.4039
 20
-77.6835
 30
0.0
 10
174.4039
 20
-77.6835
 30
0.0
 10
174.4039
 20
-77.6835
 30
0.0
 10
173.696
 20
-76.9379
 30
0.0
 10
173.696
 20
-76.9379
 30
0.0
 10
173.696
 20
-76.9379
 30
0.0
 10
173.696
 20
-76.9379
 30
0.0
 10
173.0211
 20
-76.1617
 30
0.0
 10
173.0211
 20
-76.1617
 30
0.0
 10
173.0211
 20
-76.1617
 30
0.0
 10
173.0211
 20
-76.1617
 30
0.0
 10
172.386
 20
-75.3512
 30
0.0
 10
172.386
 20
-75.3512
 30
0.0
 10
172.386
 20
-75.3512
 30
0.0
 10
172.386
 20
-75.3512
 30
0.0
 10
171.7883
 20
-74.5109
 30
0.0
 10
171.7883
 20
-74.5109
 30
0.0
 10
171.7883
 20
-74.5109
 30
0.0
 10
171.7883
 20
-74.5109
 30
0.0
 10
171.6825
 20
-74.3487
 30
0.0
 10
171.6825
 20
-74.3487
 30
0.0
 10
171.6825
 20
-74.3487
 30
0.0
 10
171.6825
 20
-74.3487
 30
0.0
 10
171.5788
 20
-74.5109
 30
0.0
 10
171.5788
 20
-74.5109
 30
0.0
 10
171.5788
 20
-74.5109
 30
0.0
 10
171.5788
 20
-74.5109
 30
0.0
 10
170.9811
 20
-75.3512
 30
0.0
 10
170.9811
 20
-75.3512
 30
0.0
 10
170.9811
 20
-75.3512
 30
0.0
 10
170.9811
 20
-75.3512
 30
0.0
 10
170.3438
 20
-76.1617
 30
0.0
 10
170.3438
 20
-76.1617
 30
0.0
 10
170.3438
 20
-76.1617
 30
0.0
 10
170.3438
 20
-76.1617
 30
0.0
 10
169.6711
 20
-76.9391
 30
0.0
 10
169.6711
 20
-76.9391
 30
0.0
 10
169.6711
 20
-76.9391
 30
0.0
 10
169.6711
 20
-76.9391
 30
0.0
 10
168.9609
 20
-77.6835
 30
0.0
 10
168.9609
 20
-77.6835
 30
0.0
 10
168.9609
 20
-77.6835
 30
0.0
 10
168.9609
 20
-77.6835
 30
0.0
 10
168.2179
 20
-78.3924
 30
0.0
 10
168.2179
 20
-78.3924
 30
0.0
 10
168.2179
 20
-78.3924
 30
0.0
 10
168.2179
 20
-78.3924
 30
0.0
 10
167.4417
 20
-79.0662
 30
0.0
 10
167.4417
 20
-79.0662
 30
0.0
 10
167.4417
 20
-79.0662
 30
0.0
 10
167.4417
 20
-79.0662
 30
0.0
 10
166.6298
 20
-79.7024
 30
0.0
 10
166.6298
 20
-79.7024
 30
0.0
 10
166.6298
 20
-79.7024
 30
0.0
 10
166.6298
 20
-79.7024
 30
0.0
 10
165.7896
 20
-80.3001
 30
0.0
 10
165.7896
 20
-80.3001
 30
0.0
 10
165.7896
 20
-80.3001
 30
0.0
 10
165.7896
 20
-80.3001
 30
0.0
 10
165.6264
 20
-80.4037
 30
0.0
 10
165.6264
 20
-80.4037
 30
0.0
 10
165.6264
 20
-80.4037
 30
0.0
 10
165.6264
 20
-80.4037
 30
0.0
 10
165.7896
 20
-80.5086
 30
0.0
 10
165.7896
 20
-80.5086
 30
0.0
 10
165.7896
 20
-80.5086
 30
0.0
 10
165.7896
 20
-80.5086
 30
0.0
 10
166.6298
 20
-81.1063
 30
0.0
 10
166.6298
 20
-81.1063
 30
0.0
 10
166.6298
 20
-81.1063
 30
0.0
 10
166.6298
 20
-81.1063
 30
0.0
 10
167.4417
 20
-81.7425
 30
0.0
 10
167.4417
 20
-81.7425
 30
0.0
 10
167.4417
 20
-81.7425
 30
0.0
 10
167.4417
 20
-81.7425
 30
0.0
 10
168.2179
 20
-82.4161
 30
0.0
 10
168.2179
 20
-82.4161
 30
0.0
 10
168.2179
 20
-82.4161
 30
0.0
 10
168.2179
 20
-82.4161
 30
0.0
 10
168.9609
 20
-83.1263
 30
0.0
 10
168.9609
 20
-83.1263
 30
0.0
 10
168.9609
 20
-83.1263
 30
0.0
 10
168.9609
 20
-83.1263
 30
0.0
 10
169.6711
 20
-83.8696
 30
0.0
 10
169.6711
 20
-83.8696
 30
0.0
 10
169.6711
 20
-83.8696
 30
0.0
 10
169.6711
 20
-83.8696
 30
0.0
 10
170.3438
 20
-84.647
 30
0.0
 10
170.3438
 20
-84.647
 30
0.0
 10
170.3438
 20
-84.647
 30
0.0
 10
170.3438
 20
-84.647
 30
0.0
 10
170.9811
 20
-85.4564
 30
0.0
 10
170.9811
 20
-85.4564
 30
0.0
 10
170.9811
 20
-85.4564
 30
0.0
 10
170.9811
 20
-85.4564
 30
0.0
 10
171.5788
 20
-86.2977
 30
0.0
 10
171.5788
 20
-86.2977
 30
0.0
 10
171.5788
 20
-86.2977
 30
0.0
 10
171.5788
 20
-86.2977
 30
0.0
 10
171.6825
 20
-86.4597
 30
0.0
 10
171.6825
 20
-86.4597
 30
0.0
  0
SPLINE
  5
A4
330
1F
100
AcDbEntity
  8
layer 1
 62
     7
100
AcDbSpline
210
0.0
220
0.0
230
1.0
 70
    11
 71
     3
 72
   164
 73
   160
 74
     0
 42
0.0000000001
 43
0.0000000001
 12
1.0
 22
0.0
 32
0.0
 13
1.0
 23
0.0
 33
0.0
 40
0.0
 40
0.0
 40
0.0
 40
0.0
 40
0.024390243902439
 40
0.024390243902439
 40
0.024390243902439
 40
0.024390243902439
 40
0.0487804878048781
 40
0.0487804878048781
 40
0.0487804878048781
 40
0.0487804878048781
 40
0.0731707317073171
 40
0.0731707317073171
 40
0.0731707317073171
 40
0.0731707317073171
 40
0.0975609756097561
 40
0.0975609756097561
 40
0.0975609756097561
 40
0.0975609756097561
 40
0.1219512195121951
 40
0.1219512195121951
 40
0.1219512195121951
 40
0.1219512195121951
 40
0.1463414634146341
 40
0.1463414634146341
 40
0.1463414634146341
 40
0.1463414634146341
 40
0.1707317073170732
 40
0.1707317073170732
 40
0.1707317073170732
 40
0.1707317073170732
 40
0.1951219512195122
 40
0.1951219512195122
 40
0.1951219512195122
 40
0.1951219512195122
 40
0.2195121951219512
 40
0.2195121951219512
 40
0.2195121951219512
 40
0.2195121951219512
 40
0.2439024390243902
 40
0.2439024390243902
 40
0.2439024390243902
 40
0.2439024390243902
 40
0.2682926829268293
 40
0.2682926829268293
 40
0.2682926829268293
 40
0.2682926829268293
 40
0.2926829268292683
 40
0.2926829268292683
 40
0.2926829268292683
 40
0.2926829268292683
 40
0.3170731707317073
 40
0.3170731707317073
 40
0.3170731707317073
 40
0.3170731707317073
 40
0.3414634146341464
 40
0.3414634146341464
 40
0.3414634146341464
 40
0.3414634146341464
 40
0.3658536585365854
 40
0.3658536585365854
 40
0.3658536585365854
 40
0.3658536585365854
 40
0.3902439024390244
 40
0.3902439024390244
 40
0.3902439024390244
 40
0.3902439024390244
 40
0.4146341463414634
 40
0.4146341463414634
 40
0.4146341463414634
 40
0.4146341463414634
 40
0.4390243902439024
 40
0.4390243902439024
 40
0.4390243902439024
 40
0.4390243902439024
 40
0.4634146341463415
 40
0.4634146341463415
 40
0.4634146341463415
 40
0.4634146341463415
 40
0.4878048780487805
 40
0.4878048780487805
 40
0.4878048780487805
 40
0.4878048780487805
 40
0.5121951219512195
 40
0.5121951219512195
 40
0.5121951219512195
 40
0.5121951219512195
 40
0.5365853658536586
 40
0.5365853658536586
 40
0.5365853658536586
 40
0.5365853658536586
 40
0.5609756097560976
 40
0.5609756097560976
 40
0.5609756097560976
 40
0.5609756097560976
 40
0.5853658536585366
 40
0.5853658536585366
 40
0.5853658536585366
 40
0.5853658536585366
 40
0.6097560975609756
 40
0.6097560975609756
 40
0.6097560975609756
 40
0.6097560975609756
 40
0.6341463414634146
 40
0.6341463414634146
 40
0.6341463414634146
 40
0.6341463414634146
 40
0.6585365853658537
 40
0.6585365853658537
 40
0.6585365853658537
 40
0.6585365853658537
 40
0.6829268292682927
 40
0.6829268292682927
 40
0.6829268292682927
 40
0.6829268292682927
 40
0.7073170731707317
 40
0.7073170731707317
 40
0.7073170731707317
 40
0.7073170731707317
 40
0.7317073170731707
 40
0.7317073170731707
 40
0.7317073170731707
 40
0.7317073170731707
 40
0.7560975609756098
 40
0.7560975609756098
 40
0.7560975609756098
 40
0.7560975609756098
 40
0.7804878048780488
 40
0.7804878048780488
 40
0.7804878048780488
 40
0.7804878048780488
 40
0.8048780487804879
 40
0.8048780487804879
 40
0.8048780487804879
 40
0.8048780487804879
 40
0.8292682926829268
 40
0.8292682926829268
 40
0.8292682926829268
 40
0.8292682926829268
 40
0.8536585365853658
 40
0.8536585365853658
 40
0.8536585365853658
 40
0.8536585365853658
 40
0.8780487804878049
 40
0.8780487804878049
 40
0.8780487804878049
 40
0.8780487804878049
 40
0.9024390243902439
 40
0.9024390243902439
 40
0.9024390243902439
 40
0.9024390243902439
 40
0.926829268292683
 40
0.926829268292683
 40
0.926829268292683
 40
0.926829268292683
 40
0.9512195121951219
 40
0.9512195121951219
 40
0.9512195121951219
 40
0.9512195121951219
 40
1.0
 40
1.0
 40
1.0
 40
1.0
 10
96.4341
 20
-86.4597
 30
0.0
 10
96.4341
 20
-86.4597
 30
0.0
 10
96.5377
 20
-86.2977
 30
0.0
 10
96.5377
 20
-86.2977
 30
0.0
 10
96.5377
 20
-86.2977
 30
0.0
 10
96.5377
 20
-86.2977
 30
0.0
 10
97.1354
 20
-85.4564
 30
0.0
 10
97.1354
 20
-85.4564
 30
0.0
 10
97.1354
 20
-85.4564
 30
0.0
 10
97.1354
 20
-85.4564
 30
0.0
 10
97.7728
 20
-84.647
 30
0.0
 10
97.7728
 20
-84.647
 30
0.0
 10
97.7728
 20
-84.647
 30
0.0
 10
97.7728
 20
-84.647
 30
0.0
 10
98.4455
 20
-83.8696
 30
0.0
 10
98.4455
 20
-83.8696
 30
0.0
 10
98.4455
 20
-83.8696
 30
0.0
 10
98.4455
 20
-83.8696
 30
0.0
 10
99.1556
 20
-83.1263
 30
0.0
 10
99.1556
 20
-83.1263
 30
0.0
 10
99.1556
 20
-83.1263
 30
0.0
 10
99.1556
 20
-83.1263
 30
0.0
 10
99.9011
 20
-82.4161
 30
0.0
 10
99.9011
 20
-82.4161
 30
0.0
 10
99.9011
 20
-82.4161
 30
0.0
 10
99.9011
 20
-82.4161
 30
0.0
 10
100.6773
 20
-81.7425
 30
0.0
 10
100.6773
 20
-81.7425
 30
0.0
 10
100.6773
 20
-81.7425
 30
0.0
 10
100.6773
 20
-81.7425
 30
0.0
 10
101.4867
 20
-81.1063
 30
0.0
 10
101.4867
 20
-81.1063
 30
0.0
 10
101.4867
 20
-81.1063
 30
0.0
 10
101.4867
 20
-81.1063
 30
0.0
 10
102.3269
 20
-80.5086
 30
0.0
 10
102.3269
 20
-80.5086
 30
0.0
 10
102.3269
 20
-80.5086
 30
0.0
 10
102.3269
 20
-80.5086
 30
0.0
 10
102.49
 20
-80.4037
 30
0.0
 10
102.49
 20
-80.4037
 30
0.0
 10
102.49
 20
-80.4037
 30
0.0
 10
102.49
 20
-80.4037
 30
0.0
 10
102.3269
 20
-80.3001
 30
0.0
 10
102.3269
 20
-80.3001
 30
0.0
 10
102.3269
 20
-80.3001
 30
0.0
 10
102.3269
 20
-80.3001
 30
0.0
 10
101.4867
 20
-79.7024
 30
0.0
 10
101.4867
 20
-79.7024
 30
0.0
 10
101.4867
 20
-79.7024
 30
0.0
 10
101.4867
 20
-79.7024
 30
0.0
 10
100.6773
 20
-79.0662
 30
0.0
 10
100.6773
 20
-79.0662
 30
0.0
 10
100.6773
 20
-79.0662
 30
0.0
 10
100.6773
 20
-79.0662
 30
0.0
 10
99.9011
 20
-78.3924
 30
0.0
 10
99.9011
 20
-78.3924
 30
0.0
 10
99.9011
 20
-78.3924
 30
0.0
 10
99.9011
 20
-78.3924
 30
0.0
 10
99.1556
 20
-77.6835
 30
0.0
 10
99.1556
 20
-77.6835
 30
0.0
 10
99.1556
 20
-77.6835
 30
0.0
 10
99.1556
 20
-77.6835
 30
0.0
 10
98.4455
 20
-76.9379
 30
0.0
 10
98.4455
 20
-76.9379
 30
0.0
 10
98.4455
 20
-76.9379
 30
0.0
 10
98.4455
 20
-76.9379
 30
0.0
 10
97.7728
 20
-76.1617
 30
0.0
 10
97.7728
 20
-76.1617
 30
0.0
 10
97.7728
 20
-76.1617
 30
0.0
 10
97.7728
 20
-76.1617
 30
0.0
 10
97.1354
 20
-75.3512
 30
0.0
 10
97.1354
 20
-75.3512
 30
0.0
 10
97.1354
 20
-75.3512
 30
0.0
 10
97.1354
 20
-75.3512
 30
0.0
 10
96.5377
 20
-74.5109
 30
0.0
 10
96.5377
 20
-74.5109
 30
0.0
 10
96.5377
 20
-74.5109
 30
0.0
 10
96.5377
 20
-74.5109
 30
0.0
 10
96.4341
 20
-74.3487
 30
0.0
 10
96.4341
 20
-74.3487
 30
0.0
 10
96.4341
 20
-74.3487
 30
0.0
 10
96.4341
 20
-74.3487
 30
0.0
 10
96.3305
 20
-74.5109
 30
0.0
 10
96.3305
 20
-74.5109
 30
0.0
 10
96.3305
 20
-74.5109
 30
0.0
 10
96.3305
 20
-74.5109
 30
0.0
 10
95.7329
 20
-75.3512
 30
0.0
 10
95.7329
 20
-75.3512
 30
0.0
 10
95.7329
 20
-75.3512
 30
0.0
 10
95.7329
 20
-75.3512
 30
0.0
 10
95.0954
 20
-76.1617
 30
0.0
 10
95.0954
 20
-76.1617
 30
0.0
 10
95.0954
 20
-76.1617
 30
0.0
 10
95.0954
 20
-76.1617
 30
0.0
 10
94.4228
 20
-76.9391
 30
0.0
 10
94.4228
 20
-76.9391
 30
0.0
 10
94.4228
 20
-76.9391
 30
0.0
 10
94.4228
 20
-76.9391
 30
0.0
 10
93.7126
 20
-77.6835
 30
0.0
 10
93.7126
 20
-77.6835
 30
0.0
 10
93.7126
 20
-77.6835
 30
0.0
 10
93.7126
 20
-77.6835
 30
0.0
 10
92.9694
 20
-78.3924
 30
0.0
 10
92.9694
 20
-78.3924
 30
0.0
 10
92.9694
 20
-78.3924
 30
0.0
 10
92.9694
 20
-78.3924
 30
0.0
 10
92.1909
 20
-79.0662
 30
0.0
 10
92.1909
 20
-79.0662
 30
0.0
 10
92.1909
 20
-79.0662
 30
0.0
 10
92.1909
 20
-79.0662
 30
0.0
 10
91.3815
 20
-79.7024
 30
0.0
 10
91.3815
 20
-79.7024
 30
0.0
 10
91.3815
 20
-79.7024
 30
0.0
 10
91.3815
 20
-79.7024
 30
0.0
 10
90.5413
 20
-80.3001
 30
0.0
 10
90.5413
 20
-80.3001
 30
0.0
 10
90.5413
 20
-80.3001
 30
0.0
 10
90.5413
 20
-80.3001
 30
0.0
 10
90.3782
 20
-80.4037
 30
0.0
 10
90.3782
 20
-80.4037
 30
0.0
 10
90.3782
 20
-80.4037
 30
0.0
 10
90.3782
 20
-80.4037
 30
0.0
 10
90.5413
 20
-80.5086
 30
0.0
 10
90.5413
 20
-80.5086
 30
0.0
 10
90.5413
 20
-80.5086
 30
0.0
 10
90.5413
 20
-80.5086
 30
0.0
 10
91.3815
 20
-81.1063
 30
0.0
 10
91.3815
 20
-81.1063
 30
0.0
 10
91.3815
 20
-81.1063
 30
0.0
 10
91.3815
 20
-81.1063
 30
0.0
 10
92.1909
 20
-81.7425
 30
0.0
 10
92.1909
 20
-81.7425
 30
0.0
 10
92.1909
 20
-81.7425
 30
0.0
 10
92.1909
 20
-81.7425
 30
0.0
 10
92.9694
 20
-82.4161
 30
0.0
 10
92.9694
 20
-82.4161
 30
0.0
 10
92.9694
 20
-82.4161
 30
0.0
 10
92.9694
 20
-82.4161
 30
0.0
 10
93.7126
 20
-83.1263
 30
0.0
 10
93.7126
 20
-83.1263
 30
0.0
 10
93.7126
 20
-83.1263
 30
0.0
 10
93.7126
 20
-83.1263
 30
0.0
 10
94.4228
 20
-83.8696
 30
0.0
 10
94.4228
 20
-83.8696
 30
0.0
 10
94.4228
 20
-83.8696
 30
0.0
 10
94.4228
 20
-83.8696
 30
0.0
 10
95.0954
 20
-84.647
 30
0.0
 10
95.0954
 20
-84.647
 30
0.0
 10
95.0954
 20
-84.647
 30
0.0
 10
95.0954
 20
-84.647
 30
0.0
 10
95.7329
 20
-85.4564
 30
0.0
 10
95.7329
 20
-85.4564
 30
0.0
 10
95.7329
 20
-85.4564
 30
0.0
 10
95.7329
 20
-85.4564
 30
0.0
 10
96.3305
 20
-86.2977
 30
0.0
 10
96.3305
 20
-86.2977
 30
0.0
 10
96.3305
 20
-86.2977
 30
0.0
 10
96.3305
 20
-86.2977
 30
0.0
 10
96.4341
 20
-86.4597
 30
0.0
 10
96.4341
 20
-86.4597
 30
0.0
  0
SPLINE
  5
A5
330
1F
100
AcDbEntity
  8
layer 1
 62
     7
100
AcDbSpline
210
0.0
220
0.0
230
1.0
 70
    11
 71
     3
 72
    24
 73
    20
 74
     0
 42
0.0000000001
 43
0.0000000001
 12
1.0
 22
0.0
 32
0.0
 13
1.0
 23
0.0
 33
0.0
 40
0.0
 40
0.0
 40
0.0
 40
0.0
 40
0.1666666666666667
 40
0.1666666666666667
 40
0.1666666666666667
 40
0.1666666666666667
 40
0.3333333333333333
 40
0.3333333333333333
 40
0.3333333333333333
 40
0.3333333333333333
 40
0.5
 40
0.5
 40
0.5
 40
0.5
 40
0.6666666666666666
 40
0.6666666666666666
 40
0.6666666666666666
 40
0.6666666666666666
 40
1.0
 40
1.0
 40
1.0
 40
1.0
 10
104.8412
 20
-99.2755
 30
0.0
 10
109.446
 20
-101.3309
 30
0.0
 10
113.1593
 20
-105.022
 30
0.0
 10
115.2452
 20
-109.6098
 30
0.0
 10
115.2452
 20
-109.6098
 30
0.0
 10
117.3326
 20
-105.0216
 30
0.0
 10
121.046
 20
-101.3313
 30
0.0
 10
125.6505
 20
-99.2761
 30
0.0
 10
125.6505
 20
-99.2761
 30
0.0
 10
121.0463
 20
-97.2199
 30
0.0
 10
117.3315
 20
-93.5305
 30
0.0
 10
115.2452
 20
-88.9426
 30
0.0
 10
115.2452
 20
-88.9426
 30
0.0
 10
113.1599
 20
-93.5303
 30
0.0
 10
109.4445
 20
-97.2209
 30
0.0
 10
104.8401
 20
-99.2761
 30
0.0
 10
104.8401
 20
-99.2761
 30
0.0
 10
104.8401
 20
-99.2761
 30
0.0
 10
104.8412
 20
-99.2755
 30
0.0
 10
104.8412
 20
-99.2755
 30
0.0
  0
SPLINE
  5
A6
330
1F
100
AcDbEntity
  8
layer 1
 62
     7
100
AcDbSpline
210
0.0
220
0.0
230
1.0
 70
    11
 71
     3
 72
    24
 73
    20
 74
     0
 42
0.0000000001
 43
0.0000000001
 12
1.0
 22
0.0
 32
0.0
 13
1.0
 23
0.0
 33
0.0
 40
0.0
 40
0.0
 40
0.0
 40
0.0
 40
0.1666666666666667
 40
0.1666666666666667
 40
0.1666666666666667
 40
0.1666666666666667
 40
0.3333333333333333
 40
0.3333333333333333
 40
0.3333333333333333
 40
0.3333333333333333
 40
0.5
 40
0.5
 40
0.5
 40
0.5
 40
0.6666666666666666
 40
0.6666666666666666
 40
0.6666666666666666
 40
0.6666666666666666
 40
1.0
 40
1.0
 40
1.0
 40
1.0
 10
152.8702
 20
-109.6088
 30
0.0
 10
154.9566
 20
-105.0216
 30
0.0
 10
158.6706
 20
-101.3313
 30
0.0
 10
163.2751
 20
-99.2761
 30
0.0
 10
163.2751
 20
-99.2761
 30
0.0
 10
158.6706
 20
-97.2199
 30
0.0
 10
154.9555
 20
-93.5307
 30
0.0
 10
152.8697
 20
-88.9429
 30
0.0
 10
152.8697
 20
-88.9429
 30
0.0
 10
150.7842
 20
-93.5303
 30
0.0
 10
147.0691
 20
-97.2209
 30
0.0
 10
142.4647
 20
-99.2761
 30
0.0
 10
142.4647
 20
-99.2761
 30
0.0
 10
147.0702
 20
-101.3309
 30
0.0
 10
150.784
 20
-105.022
 30
0.0
 10
152.8697
 20
-109.6098
 30
0.0
 10
152.8697
 20
-109.6098
 30
0.0
 10
152.8697
 20
-109.6098
 30
0.0
 10
152.8702
 20
-109.6088
 30
0.0
 10
152.8702
 20
-109.6088
 30
0.0
  0
SPLINE
  5
A7
330
1F
100
AcDbEntity
  8
layer 1
 62
     7
100
AcDbSpline
210
0.0
220
0.0
230
1.0
 70
    11
 71
     3
 72
    20
 73
    16
 74
     0
 42
0.0000000001
 43
0.0000000001
 12
1.0
 22
0.0
 32
0.0
 13
1.0
 23
0.0
 33
0.0
 40
0.0
 40
0.0
 40
0.0
 40
0.0
 40
0.2
 40
0.2
 40
0.2
 40
0.2
 40
0.4
 40
0.4
 40
0.4
 40
0.4
 40
0.6
 40
0.6
 40
0.6
 40
0.6
 40
1.0
 40
1.0
 40
1.0
 40
1.0
 10
75.9657
 20
73.3527
 30
0.0
 10
75.9657
 20
73.3527
 30
0.0
 10
75.9657
 20
105.5229
 30
0.0
 10
75.9657
 20
105.5229
 30
0.0
 10
75.9657
 20
105.5229
 30
0.0
 10
76.9382
 20
98.32
 30
0.0
 10
81.6213
 20
92.2949
 30
0.0
 10
88.0274
 20
89.4364
 30
0.0
 10
88.0274
 20
89.4364
 30
0.0
 10
81.6227
 20
86.5785
 30
0.0
 10
76.9365
 20
80.5528
 30
0.0
 10
75.9652
 20
73.3513
 30
0.0
 10
75.9652
 20
73.3513
 30
0.0
 10
75.9652
 20
73.3513
 30
0.0
 10
75.9657
 20
73.3527
 30
0.0
 10
75.9657
 20
73.3527
 30
0.0
  0
SPLINE
  5
A8
330
1F
100
AcDbEntity
  8
layer 1
 62
     7
100
AcDbSpline
210
0.0
220
0.0
230
1.0
 70
    11
 71
     3
 72
    20
 73
    16
 74
     0
 42
0.0000000001
 43
0.0000000001
 12
1.0
 22
0.0
 32
0.0
 13
1.0
 23
0.0
 33
0.0
 40
0.0
 40
0.0
 40
0.0
 40
0.0
 40
0.2
 40
0.2
 40
0.2
 40
0.2
 40
0.4
 40
0.4
 40
0.4
 40
0.4
 40
0.6
 40
0.6
 40
0.6
 40
0.6
 40
1.0
 40
1.0
 40
1.0
 40
1.0
 10
75.9657
 20
35.6094
 30
0.0
 10
75.9657
 20
35.6094
 30
0.0
 10
75.9657
 20
67.7797
 30
0.0
 10
75.9657
 20
67.7797
 30
0.0
 10
75.9657
 20
67.7797
 30
0.0
 10
76.9382
 20
60.579
 30
0.0
 10
81.6213
 20
54.5528
 30
0.0
 10
88.0274
 20
51.6941
 30
0.0
 10
88.0274
 20
51.6941
 30
0.0
 10
81.6227
 20
48.8353
 30
0.0
 10
76.9365
 20
42.8102
 30
0.0
 10
75.9652
 20
35.6088
 30
0.0
 10
75.9652
 20
35.6088
 30
0.0
 10
75.9652
 20
35.6088
 30
0.0
 10
75.9657
 20
35.6094
 30
0.0
 10
75.9657
 20
35.6094
 30
0.0
  0
SPLINE
  5
A9
330
1F
100
AcDbEntity
  8
layer 1
 62
     7
100
AcDbSpline
210
0.0
220
0.0
230
1.0
 70
    11
 71
     3
 72
    20
 73
    16
 74
     0
 42
0.0000000001
 43
0.0000000001
 12
1.0
 22
0.0
 32
0.0
 13
1.0
 23
0.0
 33
0.0
 40
0.0
 40
0.0
 40
0.0
 40
0.0
 40
0.2
 40
0.2
 40
0.2
 40
0.2
 40
0.4
 40
0.4
 40
0.4
 40
0.4
 40
0.6
 40
0.6
 40
0.6
 40
0.6
 40
1.0
 40
1.0
 40
1.0
 40
1.0
 10
75.9657
 20
-2.1317
 30
0.0
 10
75.9657
 20
-2.1317
 30
0.0
 10
75.9657
 20
30.0363
 30
0.0
 10
75.9657
 20
30.0363
 30
0.0
 10
75.9657
 20
30.0363
 30
0.0
 10
76.9382
 20
22.8357
 30
0.0
 10
81.6213
 20
16.81
 30
0.0
 10
88.0274
 20
13.9513
 30
0.0
 10
88.0274
 20
13.9513
 30
0.0
 10
81.6227
 20
11.0941
 30
0.0
 10
76.9365
 20
5.0678
 30
0.0
 10
75.9652
 20
-2.1334
 30
0.0
 10
75.9652
 20
-2.1334
 30
0.0
 10
75.9652
 20
-2.1334
 30
0.0
 10
75.9657
 20
-2.1317
 30
0.0
 10
75.9657
 20
-2.1317
 30
0.0
  0
SPLINE
  5
AA
330
1F
100
AcDbEntity
  8
layer 1
 62
     7
100
AcDbSpline
210
0.0
220
0.0
230
1.0
 70
    11
 71
     3
 72
    20
 73
    16
 74
     0
 42
0.0000000001
 43
0.0000000001
 12
1.0
 22
0.0
 32
0.0
 13
1.0
 23
0.0
 33
0.0
 40
0.0
 40
0.0
 40
0.0
 40
0.0
 40
0.2
 40
0.2
 40
0.2
 40
0.2
 40
0.4
 40
0.4
 40
0.4
 40
0.4
 40
0.6
 40
0.6
 40
0.6
 40
0.6
 40
1.0
 40
1.0
 40
1.0
 40
1.0
 10
75.9657
 20
-39.8761
 30
0.0
 10
75.9657
 20
-39.8761
 30
0.0
 10
75.9657
 20
-7.7048
 30
0.0
 10
75.9657
 20
-7.7048
 30
0.0
 10
75.9657
 20
-7.7048
 30
0.0
 10
76.9382
 20
-14.9077
 30
0.0
 10
81.6213
 20
-20.9322
 30
0.0
 10
88.0274
 20
-23.7912
 30
0.0
 10
88.0274
 20
-23.7912
 30
0.0
 10
81.6227
 20
-26.6492
 30
0.0
 10
76.9365
 20
-32.6748
 30
0.0
 10
75.9652
 20
-39.8761
 30
0.0
 10
75.9652
 20
-39.8761
 30
0.0
 10
75.9652
 20
-39.8761
 30
0.0
 10
75.9657
 20
-39.8761
 30
0.0
 10
75.9657
 20
-39.8761
 30
0.0
  0
SPLINE
  5
AB
330
1F
100
AcDbEntity
  8
layer 1
 62
     7
100
AcDbSpline
210
0.0
220
0.0
230
1.0
 70
    11
 71
     3
 72
    20
 73
    16
 74
     0
 42
0.0000000001
 43
0.0000000001
 12
1.0
 22
0.0
 32
0.0
 13
1.0
 23
0.0
 33
0.0
 40
0.0
 40
0.0
 40
0.0
 40
0.0
 40
0.2
 40
0.2
 40
0.2
 40
0.2
 40
0.4
 40
0.4
 40
0.4
 40
0.4
 40
0.6
 40
0.6
 40
0.6
 40
0.6
 40
1.0
 40
1.0
 40
1.0
 40
1.0
 10
75.9657
 20
-77.6183
 30
0.0
 10
75.9657
 20
-77.6183
 30
0.0
 10
75.9657
 20
-45.448
 30
0.0
 10
75.9657
 20
-45.448
 30
0.0
 10
75.9657
 20
-45.448
 30
0.0
 10
76.9382
 20
-52.6498
 30
0.0
 10
81.6213
 20
-58.675
 30
0.0
 10
88.0274
 20
-61.5336
 30
0.0
 10
88.0274
 20
-61.5336
 30
0.0
 10
81.6227
 20
-64.3914
 30
0.0
 10
76.9365
 20
-70.4172
 30
0.0
 10
75.9652
 20
-77.6187
 30
0.0
 10
75.9652
 20
-77.6187
 30
0.0
 10
75.9652
 20
-77.6187
 30
0.0
 10
75.9657
 20
-77.6183
 30
0.0
 10
75.9657
 20
-77.6183
 30
0.0
  0
SPLINE
  5
AC
330
1F
100
AcDbEntity
  8
layer 1
 62
     7
100
AcDbSpline
210
0.0
220
0.0
230
1.0
 70
    11
 71
     3
 72
    24
 73
    20
 74
     0
 42
0.0000000001
 43
0.0000000001
 12
1.0
 22
0.0
 32
0.0
 13
1.0
 23
0.0
 33
0.0
 40
0.0
 40
0.0
 40
0.0
 40
0.0
 40
0.1666666666666667
 40
0.1666666666666667
 40
0.1666666666666667
 40
0.1666666666666667
 40
0.3333333333333333
 40
0.3333333333333333
 40
0.3333333333333333
 40
0.3333333333333333
 40
0.5
 40
0.5
 40
0.5
 40
0.5
 40
0.6666666666666666
 40
0.6666666666666666
 40
0.6666666666666666
 40
0.6666666666666666
 40
1.0
 40
1.0
 40
1.0
 40
1.0
 10
77.2494
 20
-110.4832
 30
0.0
 10
77.2494
 20
-110.4832
 30
0.0
 10
75.9657
 20
-110.4832
 30
0.0
 10
75.9657
 20
-110.4832
 30
0.0
 10
75.9657
 20
-110.4832
 30
0.0
 10
75.9657
 20
-110.4832
 30
0.0
 10
75.9657
 20
-83.1904
 30
0.0
 10
75.9657
 20
-83.1904
 30
0.0
 10
75.9657
 20
-83.1904
 30
0.0
 10
76.9382
 20
-90.392
 30
0.0
 10
81.6213
 20
-96.4177
 30
0.0
 10
88.0274
 20
-99.2761
 30
0.0
 10
88.0274
 20
-99.2761
 30
0.0
 10
83.1334
 20
-101.4598
 30
0.0
 10
79.2457
 20
-105.4917
 30
0.0
 10
77.2482
 20
-110.4834
 30
0.0
 10
77.2482
 20
-110.4834
 30
0.0
 10
77.2482
 20
-110.4834
 30
0.0
 10
77.2494
 20
-110.4832
 30
0.0
 10
77.2494
 20
-110.4832
 30
0.0
  0
SPLINE
  5
AD
330
1F
100
AcDbEntity
  8
layer 1
 62
     7
100
AcDbSpline
210
0.0
220
0.0
230
1.0
 70
    11
 71
     3
 72
    20
 73
    16
 74
     0
 42
0.0000000001
 43
0.0000000001
 12
1.0
 22
0.0
 32
0.0
 13
1.0
 23
0.0
 33
0.0
 40
0.0
 40
0.0
 40
0.0
 40
0.0
 40
0.2
 40
0.2
 40
0.2
 40
0.2
 40
0.4
 40
0.4
 40
0.4
 40
0.4
 40
0.6
 40
0.6
 40
0.6
 40
0.6
 40
1.0
 40
1.0
 40
1.0
 40
1.0
 10
92.3914
 20
-110.4832
 30
0.0
 10
92.3914
 20
-110.4832
 30
0.0
 10
81.3182
 20
-110.4832
 30
0.0
 10
81.3182
 20
-110.4832
 30
0.0
 10
81.3182
 20
-110.4832
 30
0.0
 10
84.0155
 20
-105.1716
 30
0.0
 10
89.4288
 20
-101.4726
 30
0.0
 10
95.7301
 20
-101.2154
 30
0.0
 10
95.7301
 20
-101.2154
 30
0.0
 10
95.5409
 20
-104.6754
 30
0.0
 10
94.328
 20
-107.8643
 30
0.0
 10
92.3898
 20
-110.4834
 30
0.0
 10
92.3898
 20
-110.4834
 30
0.0
 10
92.3898
 20
-110.4834
 30
0.0
 10
92.3914
 20
-110.4832
 30
0.0
 10
92.3914
 20
-110.4832
 30
0.0
  0
SPLINE
  5
AE
330
1F
100
AcDbEntity
  8
layer 1
 62
     7
100
AcDbSpline
210
0.0
220
0.0
230
1.0
 70
    11
 71
     3
 72
    20
 73
    16
 74
     0
 42
0.0000000001
 43
0.0000000001
 12
1.0
 22
0.0
 32
0.0
 13
1.0
 23
0.0
 33
0.0
 40
0.0
 40
0.0
 40
0.0
 40
0.0
 40
0.2
 40
0.2
 40
0.2
 40
0.2
 40
0.4
 40
0.4
 40
0.4
 40
0.4
 40
0.6
 40
0.6
 40
0.6
 40
0.6
 40
1.0
 40
1.0
 40
1.0
 40
1.0
 10
111.5501
 20
-110.4832
 30
0.0
 10
111.5501
 20
-110.4832
 30
0.0
 10
100.4765
 20
-110.4832
 30
0.0
 10
100.4765
 20
-110.4832
 30
0.0
 10
100.4765
 20
-110.4832
 30
0.0
 10
98.5402
 20
-107.8632
 30
0.0
 10
97.326
 20
-104.6758
 30
0.0
 10
97.1363
 20
-101.2154
 30
0.0
 10
97.1363
 20
-101.2154
 30
0.0
 10
103.4384
 20
-101.472
 30
0.0
 10
108.8514
 20
-105.1721
 30
0.0
 10
111.5495
 20
-110.4834
 30
0.0
 10
111.5495
 20
-110.4834
 30
0.0
 10
111.5495
 20
-110.4834
 30
0.0
 10
111.5501
 20
-110.4832
 30
0.0
 10
111.5501
 20
-110.4832
 30
0.0
  0
SPLINE
  5
AF
330
1F
100
AcDbEntity
  8
layer 1
 62
     7
100
AcDbSpline
210
0.0
220
0.0
230
1.0
 70
    11
 71
     3
 72
    20
 73
    16
 74
     0
 42
0.0000000001
 43
0.0000000001
 12
1.0
 22
0.0
 32
0.0
 13
1.0
 23
0.0
 33
0.0
 40
0.0
 40
0.0
 40
0.0
 40
0.0
 40
0.2
 40
0.2
 40
0.2
 40
0.2
 40
0.4
 40
0.4
 40
0.4
 40
0.4
 40
0.6
 40
0.6
 40
0.6
 40
0.6
 40
1.0
 40
1.0
 40
1.0
 40
1.0
 10
130.0158
 20
-110.4832
 30
0.0
 10
130.0158
 20
-110.4832
 30
0.0
 10
118.9424
 20
-110.4832
 30
0.0
 10
118.9424
 20
-110.4832
 30
0.0
 10
118.9424
 20
-110.4832
 30
0.0
 10
121.6398
 20
-105.1716
 30
0.0
 10
127.0536
 20
-101.4726
 30
0.0
 10
133.3543
 20
-101.2154
 30
0.0
 10
133.3543
 20
-101.2154
 30
0.0
 10
133.1651
 20
-104.6754
 30
0.0
 10
131.9524
 20
-107.8643
 30
0.0
 10
130.0146
 20
-110.4834
 30
0.0
 10
130.0146
 20
-110.4834
 30
0.0
 10
130.0146
 20
-110.4834
 30
0.0
 10
130.0158
 20
-110.4832
 30
0.0
 10
130.0158
 20
-110.4832
 30
0.0
  0
SPLINE
  5
B0
330
1F
100
AcDbEntity
  8
layer 1
 62
     7
100
AcDbSpline
210
0.0
220
0.0
230
1.0
 70
    11
 71
     3
 72
    16
 73
    12
 74
     0
 42
0.0000000001
 43
0.0000000001
 12
1.0
 22
0.0
 32
0.0
 13
1.0
 23
0.0
 33
0.0
 40
0.0
 40
0.0
 40
0.0
 40
0.0
 40
0.25
 40
0.25
 40
0.25
 40
0.25
 40
0.5
 40
0.5
 40
0.5
 40
0.5
 40
1.0
 40
1.0
 40
1.0
 40
1.0
 10
149.1741
 20
-110.4832
 30
0.0
 10
149.1741
 20
-110.4832
 30
0.0
 10
138.1008
 20
-110.4832
 30
0.0
 10
138.1008
 20
-110.4832
 30
0.0
 10
138.1008
 20
-110.4832
 30
0.0
 10
136.1645
 20
-107.8632
 30
0.0
 10
134.9503
 20
-104.6758
 30
0.0
 10
134.7608
 20
-101.2154
 30
0.0
 10
134.7608
 20
-101.2154
 30
0.0
 10
141.0626
 20
-101.472
 30
0.0
 10
146.4762
 20
-105.1721
 30
0.0
 10
149.1741
 20
-110.4832
 30
0.0
  0
SPLINE
  5
B1
330
1F
100
AcDbEntity
  8
layer 1
 62
     7
100
AcDbSpline
210
0.0
220
0.0
230
1.0
 70
    11
 71
     3
 72
    20
 73
    16
 74
     0
 42
0.0000000001
 43
0.0000000001
 12
1.0
 22
0.0
 32
0.0
 13
1.0
 23
0.0
 33
0.0
 40
0.0
 40
0.0
 40
0.0
 40
0.0
 40
0.2
 40
0.2
 40
0.2
 40
0.2
 40
0.4
 40
0.4
 40
0.4
 40
0.4
 40
0.6
 40
0.6
 40
0.6
 40
0.6
 40
1.0
 40
1.0
 40
1.0
 40
1.0
 10
167.64
 20
-110.4832
 30
0.0
 10
167.64
 20
-110.4832
 30
0.0
 10
156.5668
 20
-110.4832
 30
0.0
 10
156.5668
 20
-110.4832
 30
0.0
 10
156.5668
 20
-110.4832
 30
0.0
 10
159.2637
 20
-105.1716
 30
0.0
 10
164.6779
 20
-101.4726
 30
0.0
 10
170.9789
 20
-101.2154
 30
0.0
 10
170.9789
 20
-101.2154
 30
0.0
 10
170.7917
 20
-104.6754
 30
0.0
 10
169.5769
 20
-107.8643
 30
0.0
 10
167.6389
 20
-110.4834
 30
0.0
 10
167.6389
 20
-110.4834
 30
0.0
 10
167.6389
 20
-110.4834
 30
0.0
 10
167.64
 20
-110.4832
 30
0.0
 10
167.64
 20
-110.4832
 30
0.0
  0
SPLINE
  5
B2
330
1F
100
AcDbEntity
  8
layer 1
 62
     7
100
AcDbSpline
210
0.0
220
0.0
230
1.0
 70
    11
 71
     3
 72
    20
 73
    16
 74
     0
 42
0.0000000001
 43
0.0000000001
 12
1.0
 22
0.0
 32
0.0
 13
1.0
 23
0.0
 33
0.0
 40
0.0
 40
0.0
 40
0.0
 40
0.0
 40
0.2
 40
0.2
 40
0.2
 40
0.2
 40
0.4
 40
0.4
 40
0.4
 40
0.4
 40
0.6
 40
0.6
 40
0.6
 40
0.6
 40
1.0
 40
1.0
 40
1.0
 40
1.0
 10
186.8006
 20
-110.4832
 30
0.0
 10
186.8006
 20
-110.4832
 30
0.0
 10
175.7251
 20
-110.4832
 30
0.0
 10
175.7251
 20
-110.4832
 30
0.0
 10
175.7251
 20
-110.4832
 30
0.0
 10
173.7887
 20
-107.8632
 30
0.0
 10
172.5749
 20
-104.6758
 30
0.0
 10
172.3851
 20
-101.2154
 30
0.0
 10
172.3851
 20
-101.2154
 30
0.0
 10
178.687
 20
-101.472
 30
0.0
 10
184.1003
 20
-105.1721
 30
0.0
 10
186.799
 20
-110.4834
 30
0.0
 10
186.799
 20
-110.4834
 30
0.0
 10
186.799
 20
-110.4834
 30
0.0
 10
186.8006
 20
-110.4832
 30
0.0
 10
186.8006
 20
-110.4832
 30
0.0
  0
SPLINE
  5
B3
330
1F
100
AcDbEntity
  8
layer 1
 62
     7
100
AcDbSpline
210
0.0
220
0.0
230
1.0
 70
    11
 71
     3
 72
    24
 73
    20
 74
     0
 42
0.0000000001
 43
0.0000000001
 12
1.0
 22
0.0
 32
0.0
 13
1.0
 23
0.0
 33
0.0
 40
0.0
 40
0.0
 40
0.0
 40
0.0
 40
0.1666666666666667
 40
0.1666666666666667
 40
0.1666666666666667
 40
0.1666666666666667
 40
0.3333333333333333
 40
0.3333333333333333
 40
0.3333333333333333
 40
0.3333333333333333
 40
0.5
 40
0.5
 40
0.5
 40
0.5
 40
0.6666666666666666
 40
0.6666666666666666
 40
0.6666666666666666
 40
0.6666666666666666
 40
1.0
 40
1.0
 40
1.0
 40
1.0
 10
192.1508
 20
-83.1913
 30
0.0
 10
192.1508
 20
-83.1913
 30
0.0
 10
192.1508
 20
-110.4832
 30
0.0
 10
192.1508
 20
-110.4832
 30
0.0
 10
192.1508
 20
-110.4832
 30
0.0
 10
192.1508
 20
-110.4832
 30
0.0
 10
190.8674
 20
-110.4832
 30
0.0
 10
190.8674
 20
-110.4832
 30
0.0
 10
190.8674
 20
-110.4832
 30
0.0
 10
188.8713
 20
-105.4914
 30
0.0
 10
184.9818
 20
-101.46
 30
0.0
 10
180.0881
 20
-99.2761
 30
0.0
 10
180.0881
 20
-99.2761
 30
0.0
 10
186.4963
 20
-96.4173
 30
0.0
 10
191.1786
 20
-90.3927
 30
0.0
 10
192.1503
 20
-83.1913
 30
0.0
 10
192.1503
 20
-83.1913
 30
0.0
 10
192.1503
 20
-83.1913
 30
0.0
 10
192.1508
 20
-83.1913
 30
0.0
 10
192.1508
 20
-83.1913
 30
0.0
  0
SPLINE
  5
B4
330
1F
100
AcDbEntity
  8
layer 1
 62
     7
100
AcDbSpline
210
0.0
220
0.0
230
1.0
 70
    11
 71
     3
 72
    20
 73
    16
 74
     0
 42
0.0000000001
 43
0.0000000001
 12
1.0
 22
0.0
 32
0.0
 13
1.0
 23
0.0
 33
0.0
 40
0.0
 40
0.0
 40
0.0
 40
0.0
 40
0.2
 40
0.2
 40
0.2
 40
0.2
 40
0.4
 40
0.4
 40
0.4
 40
0.4
 40
0.6
 40
0.6
 40
0.6
 40
0.6
 40
1.0
 40
1.0
 40
1.0
 40
1.0
 10
192.1508
 20
-45.448
 30
0.0
 10
192.1508
 20
-45.448
 30
0.0
 10
192.1508
 20
-77.6172
 30
0.0
 10
192.1508
 20
-77.6172
 30
0.0
 10
192.1508
 20
-77.6172
 30
0.0
 10
191.1806
 20
-70.4167
 30
0.0
 10
186.4947
 20
-64.3921
 30
0.0
 10
180.0881
 20
-61.5336
 30
0.0
 10
180.0881
 20
-61.5336
 30
0.0
 10
186.4963
 20
-58.675
 30
0.0
 10
191.1786
 20
-52.6501
 30
0.0
 10
192.1503
 20
-45.4492
 30
0.0
 10
192.1503
 20
-45.4492
 30
0.0
 10
192.1503
 20
-45.4492
 30
0.0
 10
192.1508
 20
-45.448
 30
0.0
 10
192.1508
 20
-45.448
 30
0.0
  0
SPLINE
  5
B5
330
1F
100
AcDbEntity
  8
layer 1
 62
     7
100
AcDbSpline
210
0.0
220
0.0
230
1.0
 70
    11
 71
     3
 72
    20
 73
    16
 74
     0
 42
0.0000000001
 43
0.0000000001
 12
1.0
 22
0.0
 32
0.0
 13
1.0
 23
0.0
 33
0.0
 40
0.0
 40
0.0
 40
0.0
 40
0.0
 40
0.2
 40
0.2
 40
0.2
 40
0.2
 40
0.4
 40
0.4
 40
0.4
 40
0.4
 40
0.6
 40
0.6
 40
0.6
 40
0.6
 40
1.0
 40
1.0
 40
1.0
 40
1.0
 10
192.1508
 20
-7.7048
 30
0.0
 10
192.1508
 20
-7.7048
 30
0.0
 10
192.1508
 20
-39.8749
 30
0.0
 10
192.1508
 20
-39.8749
 30
0.0
 10
192.1508
 20
-39.8749
 30
0.0
 10
191.1806
 20
-32.6743
 30
0.0
 10
186.4947
 20
-26.6497
 30
0.0
 10
180.0881
 20
-23.7912
 30
0.0
 10
180.0881
 20
-23.7912
 30
0.0
 10
186.4963
 20
-20.9306
 30
0.0
 10
191.1786
 20
-14.9079
 30
0.0
 10
192.1503
 20
-7.7065
 30
0.0
 10
192.1503
 20
-7.7065
 30
0.0
 10
192.1503
 20
-7.7065
 30
0.0
 10
192.1508
 20
-7.7048
 30
0.0
 10
192.1508
 20
-7.7048
 30
0.0
  0
SPLINE
  5
B6
330
1F
100
AcDbEntity
  8
layer 1
 62
     7
100
AcDbSpline
210
0.0
220
0.0
230
1.0
 70
    11
 71
     3
 72
    20
 73
    16
 74
     0
 42
0.0000000001
 43
0.0000000001
 12
1.0
 22
0.0
 32
0.0
 13
1.0
 23
0.0
 33
0.0
 40
0.0
 40
0.0
 40
0.0
 40
0.0
 40
0.2
 40
0.2
 40
0.2
 40
0.2
 40
0.4
 40
0.4
 40
0.4
 40
0.4
 40
0.6
 40
0.6
 40
0.6
 40
0.6
 40
1.0
 40
1.0
 40
1.0
 40
1.0
 10
192.1508
 20
30.0363
 30
0.0
 10
192.1508
 20
30.0363
 30
0.0
 10
192.1508
 20
-2.1317
 30
0.0
 10
192.1508
 20
-2.1317
 30
0.0
 10
192.1508
 20
-2.1317
 30
0.0
 10
191.1806
 20
5.0689
 30
0.0
 10
186.4947
 20
11.0928
 30
0.0
 10
180.0881
 20
13.9513
 30
0.0
 10
180.0881
 20
13.9513
 30
0.0
 10
186.4963
 20
16.8106
 30
0.0
 10
191.1786
 20
22.8348
 30
0.0
 10
192.1503
 20
30.036
 30
0.0
 10
192.1503
 20
30.036
 30
0.0
 10
192.1503
 20
30.036
 30
0.0
 10
192.1508
 20
30.0363
 30
0.0
 10
192.1508
 20
30.0363
 30
0.0
  0
SPLINE
  5
B7
330
1F
100
AcDbEntity
  8
layer 1
 62
     7
100
AcDbSpline
210
0.0
220
0.0
230
1.0
 70
    11
 71
     3
 72
    20
 73
    16
 74
     0
 42
0.0000000001
 43
0.0000000001
 12
1.0
 22
0.0
 32
0.0
 13
1.0
 23
0.0
 33
0.0
 40
0.0
 40
0.0
 40
0.0
 40
0.0
 40
0.2
 40
0.2
 40
0.2
 40
0.2
 40
0.4
 40
0.4
 40
0.4
 40
0.4
 40
0.6
 40
0.6
 40
0.6
 40
0.6
 40
1.0
 40
1.0
 40
1.0
 40
1.0
 10
192.1508
 20
67.7797
 30
0.0
 10
192.1508
 20
67.7797
 30
0.0
 10
192.1508
 20
35.6094
 30
0.0
 10
192.1508
 20
35.6094
 30
0.0
 10
192.1508
 20
35.6094
 30
0.0
 10
191.1806
 20
42.8124
 30
0.0
 10
186.4947
 20
48.8353
 30
0.0
 10
180.0881
 20
51.6941
 30
0.0
 10
180.0881
 20
51.6941
 30
0.0
 10
186.4963
 20
54.5539
 30
0.0
 10
191.1786
 20
60.5776
 30
0.0
 10
192.1503
 20
67.7785
 30
0.0
 10
192.1503
 20
67.7785
 30
0.0
 10
192.1503
 20
67.7785
 30
0.0
 10
192.1508
 20
67.7797
 30
0.0
 10
192.1508
 20
67.7797
 30
0.0
  0
SPLINE
  5
B8
330
1F
100
AcDbEntity
  8
layer 1
 62
     7
100
AcDbSpline
210
0.0
220
0.0
230
1.0
 70
    11
 71
     3
 72
    20
 73
    16
 74
     0
 42
0.0000000001
 43
0.0000000001
 12
1.0
 22
0.0
 32
0.0
 13
1.0
 23
0.0
 33
0.0
 40
0.0
 40
0.0
 40
0.0
 40
0.0
 40
0.2
 40
0.2
 40
0.2
 40
0.2
 40
0.4
 40
0.4
 40
0.4
 40
0.4
 40
0.6
 40
0.6
 40
0.6
 40
0.6
 40
1.0
 40
1.0
 40
1.0
 40
1.0
 10
192.1508
 20
105.5206
 30
0.0
 10
192.1508
 20
105.5206
 30
0.0
 10
192.1508
 20
73.3527
 30
0.0
 10
192.1508
 20
73.3527
 30
0.0
 10
192.1508
 20
73.3527
 30
0.0
 10
191.1806
 20
80.5534
 30
0.0
 10
186.4947
 20
86.5777
 30
0.0
 10
180.0881
 20
89.4364
 30
0.0
 10
180.0881
 20
89.4364
 30
0.0
 10
186.4963
 20
92.2949
 30
0.0
 10
191.1786
 20
98.3197
 30
0.0
 10
192.1503
 20
105.5204
 30
0.0
 10
192.1503
 20
105.5204
 30
0.0
 10
192.1503
 20
105.5204
 30
0.0
 10
192.1508
 20
105.5206
 30
0.0
 10
192.1508
 20
105.5206
 30
0.0
  0
SPLINE
  5
B9
330
1F
100
AcDbEntity
  8
layer 1
 62
     7
100
AcDbSpline
210
0.0
220
0.0
230
1.0
 70
    11
 71
     3
 72
    20
 73
    16
 74
     0
 42
0.0000000001
 43
0.0000000001
 12
1.0
 22
0.0
 32
0.0
 13
1.0
 23
0.0
 33
0.0
 40
0.0
 40
0.0
 40
0.0
 40
0.0
 40
0.2
 40
0.2
 40
0.2
 40
0.2
 40
0.4
 40
0.4
 40
0.4
 40
0.4
 40
0.6
 40
0.6
 40
0.6
 40
0.6
 40
1.0
 40
1.0
 40
1.0
 40
1.0
 10
179.084
 20
127.5969
 30
0.0
 10
179.084
 20
127.5969
 30
0.0
 10
192.1508
 20
127.5969
 30
0.0
 10
192.1508
 20
127.5969
 30
0.0
 10
192.1508
 20
127.5969
 30
0.0
 10
192.1508
 20
127.5969
 30
0.0
 10
192.1508
 20
111.0892
 30
0.0
 10
192.1508
 20
111.0892
 30
0.0
 10
192.1508
 20
111.0892
 30
0.0
 10
191.1319
 20
118.665
 30
0.0
 10
186.0023
 20
124.9379
 30
0.0
 10
179.082
 20
127.5955
 30
0.0
 10
179.082
 20
127.5955
 30
0.0
 10
179.082
 20
127.5955
 30
0.0
 10
179.084
 20
127.5969
 30
0.0
 10
179.084
 20
127.5969
 30
0.0
  0
SPLINE
  5
BA
330
1F
100
AcDbEntity
  8
layer 1
 62
     7
100
AcDbSpline
210
0.0
220
0.0
230
1.0
 70
    11
 71
     3
 72
    20
 73
    16
 74
     0
 42
0.0000000001
 43
0.0000000001
 12
1.0
 22
0.0
 32
0.0
 13
1.0
 23
0.0
 33
0.0
 40
0.0
 40
0.0
 40
0.0
 40
0.0
 40
0.2
 40
0.2
 40
0.2
 40
0.2
 40
0.4
 40
0.4
 40
0.4
 40
0.4
 40
0.6
 40
0.6
 40
0.6
 40
0.6
 40
1.0
 40
1.0
 40
1.0
 40
1.0
 10
141.4619
 20
127.5969
 30
0.0
 10
141.4619
 20
127.5969
 30
0.0
 10
164.2789
 20
127.5969
 30
0.0
 10
164.2789
 20
127.5969
 30
0.0
 10
164.2789
 20
127.5969
 30
0.0
 10
159.2133
 20
125.6495
 30
0.0
 10
155.1056
 20
121.7616
 30
0.0
 10
152.8697
 20
116.8449
 30
0.0
 10
152.8697
 20
116.8449
 30
0.0
 10
150.6363
 20
121.7636
 30
0.0
 10
146.5281
 20
125.6486
 30
0.0
 10
141.4608
 20
127.5955
 30
0.0
 10
141.4608
 20
127.5955
 30
0.0
 10
141.4608
 20
127.5955
 30
0.0
 10
141.4619
 20
127.5969
 30
0.0
 10
141.4619
 20
127.5969
 30
0.0
  0
SPLINE
  5
BB
330
1F
100
AcDbEntity
  8
layer 1
 62
     7
100
AcDbSpline
210
0.0
220
0.0
230
1.0
 70
    11
 71
     3
 72
    20
 73
    16
 74
     0
 42
0.0000000001
 43
0.0000000001
 12
1.0
 22
0.0
 32
0.0
 13
1.0
 23
0.0
 33
0.0
 40
0.0
 40
0.0
 40
0.0
 40
0.0
 40
0.2
 40
0.2
 40
0.2
 40
0.2
 40
0.4
 40
0.4
 40
0.4
 40
0.4
 40
0.6
 40
0.6
 40
0.6
 40
0.6
 40
1.0
 40
1.0
 40
1.0
 40
1.0
 10
103.8376
 20
127.5969
 30
0.0
 10
103.8376
 20
127.5969
 30
0.0
 10
126.6547
 20
127.5969
 30
0.0
 10
126.6547
 20
127.5969
 30
0.0
 10
126.6547
 20
127.5969
 30
0.0
 10
121.5889
 20
125.6495
 30
0.0
 10
117.481
 20
121.7616
 30
0.0
 10
115.2452
 20
116.8449
 30
0.0
 10
115.2452
 20
116.8449
 30
0.0
 10
113.0098
 20
121.7636
 30
0.0
 10
108.9033
 20
125.6486
 30
0.0
 10
103.8359
 20
127.5955
 30
0.0
 10
103.8359
 20
127.5955
 30
0.0
 10
103.8359
 20
127.5955
 30
0.0
 10
103.8376
 20
127.5969
 30
0.0
 10
103.8376
 20
127.5969
 30
0.0
  0
SPLINE
  5
BC
330
1F
100
AcDbEntity
  8
layer 1
 62
     7
100
AcDbSpline
210
0.0
220
0.0
230
1.0
 70
    11
 71
     3
 72
    16
 73
    12
 74
     0
 42
0.0000000001
 43
0.0000000001
 12
1.0
 22
0.0
 32
0.0
 13
1.0
 23
0.0
 33
0.0
 40
0.0
 40
0.0
 40
0.0
 40
0.0
 40
0.25
 40
0.25
 40
0.25
 40
0.25
 40
0.5
 40
0.5
 40
0.5
 40
0.5
 40
1.0
 40
1.0
 40
1.0
 40
1.0
 10
75.9657
 20
127.5969
 30
0.0
 10
75.9657
 20
127.5969
 30
0.0
 10
89.0351
 20
127.5969
 30
0.0
 10
89.0351
 20
127.5969
 30
0.0
 10
89.0351
 20
127.5969
 30
0.0
 10
82.1144
 20
124.9394
 30
0.0
 10
76.9855
 20
118.6633
 30
0.0
 10
75.9652
 20
111.0876
 30
0.0
 10
75.9652
 20
111.0876
 30
0.0
 10
75.9652
 20
111.0876
 30
0.0
 10
75.9657
 20
127.5969
 30
0.0
 10
75.9657
 20
127.5969
 30
0.0
  0
SPLINE
  5
BD
330
1F
100
AcDbEntity
  8
layer 1
 62
     7
100
AcDbSpline
210
0.0
220
0.0
230
1.0
 70
    11
 71
     3
 72
   164
 73
   160
 74
     0
 42
0.0000000001
 43
0.0000000001
 12
1.0
 22
0.0
 32
0.0
 13
1.0
 23
0.0
 33
0.0
 40
0.0
 40
0.0
 40
0.0
 40
0.0
 40
0.024390243902439
 40
0.024390243902439
 40
0.024390243902439
 40
0.024390243902439
 40
0.0487804878048781
 40
0.0487804878048781
 40
0.0487804878048781
 40
0.0487804878048781
 40
0.0731707317073171
 40
0.0731707317073171
 40
0.0731707317073171
 40
0.0731707317073171
 40
0.0975609756097561
 40
0.0975609756097561
 40
0.0975609756097561
 40
0.0975609756097561
 40
0.1219512195121951
 40
0.1219512195121951
 40
0.1219512195121951
 40
0.1219512195121951
 40
0.1463414634146341
 40
0.1463414634146341
 40
0.1463414634146341
 40
0.1463414634146341
 40
0.1707317073170732
 40
0.1707317073170732
 40
0.1707317073170732
 40
0.1707317073170732
 40
0.1951219512195122
 40
0.1951219512195122
 40
0.1951219512195122
 40
0.1951219512195122
 40
0.2195121951219512
 40
0.2195121951219512
 40
0.2195121951219512
 40
0.2195121951219512
 40
0.2439024390243902
 40
0.2439024390243902
 40
0.2439024390243902
 40
0.2439024390243902
 40
0.2682926829268293
 40
0.2682926829268293
 40
0.2682926829268293
 40
0.2682926829268293
 40
0.2926829268292683
 40
0.2926829268292683
 40
0.2926829268292683
 40
0.2926829268292683
 40
0.3170731707317073
 40
0.3170731707317073
 40
0.3170731707317073
 40
0.3170731707317073
 40
0.3414634146341464
 40
0.3414634146341464
 40
0.3414634146341464
 40
0.3414634146341464
 40
0.3658536585365854
 40
0.3658536585365854
 40
0.3658536585365854
 40
0.3658536585365854
 40
0.3902439024390244
 40
0.3902439024390244
 40
0.3902439024390244
 40
0.3902439024390244
 40
0.4146341463414634
 40
0.4146341463414634
 40
0.4146341463414634
 40
0.4146341463414634
 40
0.4390243902439024
 40
0.4390243902439024
 40
0.4390243902439024
 40
0.4390243902439024
 40
0.4634146341463415
 40
0.4634146341463415
 40
0.4634146341463415
 40
0.4634146341463415
 40
0.4878048780487805
 40
0.4878048780487805
 40
0.4878048780487805
 40
0.4878048780487805
 40
0.5121951219512195
 40
0.5121951219512195
 40
0.5121951219512195
 40
0.5121951219512195
 40
0.5365853658536586
 40
0.5365853658536586
 40
0.5365853658536586
 40
0.5365853658536586
 40
0.5609756097560976
 40
0.5609756097560976
 40
0.5609756097560976
 40
0.5609756097560976
 40
0.5853658536585366
 40
0.5853658536585366
 40
0.5853658536585366
 40
0.5853658536585366
 40
0.6097560975609756
 40
0.6097560975609756
 40
0.6097560975609756
 40
0.6097560975609756
 40
0.6341463414634146
 40
0.6341463414634146
 40
0.6341463414634146
 40
0.6341463414634146
 40
0.6585365853658537
 40
0.6585365853658537
 40
0.6585365853658537
 40
0.6585365853658537
 40
0.6829268292682927
 40
0.6829268292682927
 40
0.6829268292682927
 40
0.6829268292682927
 40
0.7073170731707317
 40
0.7073170731707317
 40
0.7073170731707317
 40
0.7073170731707317
 40
0.7317073170731707
 40
0.7317073170731707
 40
0.7317073170731707
 40
0.7317073170731707
 40
0.7560975609756098
 40
0.7560975609756098
 40
0.7560975609756098
 40
0.7560975609756098
 40
0.7804878048780488
 40
0.7804878048780488
 40
0.7804878048780488
 40
0.7804878048780488
 40
0.8048780487804879
 40
0.8048780487804879
 40
0.8048780487804879
 40
0.8048780487804879
 40
0.8292682926829268
 40
0.8292682926829268
 40
0.8292682926829268
 40
0.8292682926829268
 40
0.8536585365853658
 40
0.8536585365853658
 40
0.8536585365853658
 40
0.8536585365853658
 40
0.8780487804878049
 40
0.8780487804878049
 40
0.8780487804878049
 40
0.8780487804878049
 40
0.9024390243902439
 40
0.9024390243902439
 40
0.9024390243902439
 40
0.9024390243902439
 40
0.926829268292683
 40
0.926829268292683
 40
0.926829268292683
 40
0.926829268292683
 40
0.9512195121951219
 40
0.9512195121951219
 40
0.9512195121951219
 40
0.9512195121951219
 40
1.0
 40
1.0
 40
1.0
 40
1.0
 10
96.4341
 20
102.2523
 30
0.0
 10
96.4341
 20
102.2523
 30
0.0
 10
96.5377
 20
102.4155
 30
0.0
 10
96.5377
 20
102.4155
 30
0.0
 10
96.5377
 20
102.4155
 30
0.0
 10
96.5377
 20
102.4155
 30
0.0
 10
97.1354
 20
103.2557
 30
0.0
 10
97.1354
 20
103.2557
 30
0.0
 10
97.1354
 20
103.2557
 30
0.0
 10
97.1354
 20
103.2557
 30
0.0
 10
97.7728
 20
104.0653
 30
0.0
 10
97.7728
 20
104.0653
 30
0.0
 10
97.7728
 20
104.0653
 30
0.0
 10
97.7728
 20
104.0653
 30
0.0
 10
98.4455
 20
104.8438
 30
0.0
 10
98.4455
 20
104.8438
 30
0.0
 10
98.4455
 20
104.8438
 30
0.0
 10
98.4455
 20
104.8438
 30
0.0
 10
99.1556
 20
105.5867
 30
0.0
 10
99.1556
 20
105.5867
 30
0.0
 10
99.1556
 20
105.5867
 30
0.0
 10
99.1556
 20
105.5867
 30
0.0
 10
99.9011
 20
106.2969
 30
0.0
 10
99.9011
 20
106.2969
 30
0.0
 10
99.9011
 20
106.2969
 30
0.0
 10
99.9011
 20
106.2969
 30
0.0
 10
100.6773
 20
106.9696
 30
0.0
 10
100.6773
 20
106.9696
 30
0.0
 10
100.6773
 20
106.9696
 30
0.0
 10
100.6773
 20
106.9696
 30
0.0
 10
101.4867
 20
107.607
 30
0.0
 10
101.4867
 20
107.607
 30
0.0
 10
101.4867
 20
107.607
 30
0.0
 10
101.4867
 20
107.607
 30
0.0
 10
102.3269
 20
108.2047
 30
0.0
 10
102.3269
 20
108.2047
 30
0.0
 10
102.3269
 20
108.2047
 30
0.0
 10
102.3269
 20
108.2047
 30
0.0
 10
102.49
 20
108.3083
 30
0.0
 10
102.49
 20
108.3083
 30
0.0
 10
102.49
 20
108.3083
 30
0.0
 10
102.49
 20
108.3083
 30
0.0
 10
102.3269
 20
108.412
 30
0.0
 10
102.3269
 20
108.412
 30
0.0
 10
102.3269
 20
108.412
 30
0.0
 10
102.3269
 20
108.412
 30
0.0
 10
101.4867
 20
109.0099
 30
0.0
 10
101.4867
 20
109.0099
 30
0.0
 10
101.4867
 20
109.0099
 30
0.0
 10
101.4867
 20
109.0099
 30
0.0
 10
100.6773
 20
109.6469
 30
0.0
 10
100.6773
 20
109.6469
 30
0.0
 10
100.6773
 20
109.6469
 30
0.0
 10
100.6773
 20
109.6469
 30
0.0
 10
99.9011
 20
110.3196
 30
0.0
 10
99.9011
 20
110.3196
 30
0.0
 10
99.9011
 20
110.3196
 30
0.0
 10
99.9011
 20
110.3196
 30
0.0
 10
99.1556
 20
111.0298
 30
0.0
 10
99.1556
 20
111.0298
 30
0.0
 10
99.1556
 20
111.0298
 30
0.0
 10
99.1556
 20
111.0298
 30
0.0
 10
98.4455
 20
111.7752
 30
0.0
 10
98.4455
 20
111.7752
 30
0.0
 10
98.4455
 20
111.7752
 30
0.0
 10
98.4455
 20
111.7752
 30
0.0
 10
97.7728
 20
112.5516
 30
0.0
 10
97.7728
 20
112.5516
 30
0.0
 10
97.7728
 20
112.5516
 30
0.0
 10
97.7728
 20
112.5516
 30
0.0
 10
97.1354
 20
113.361
 30
0.0
 10
97.1354
 20
113.361
 30
0.0
 10
97.1354
 20
113.361
 30
0.0
 10
97.1354
 20
113.361
 30
0.0
 10
96.5377
 20
114.2012
 30
0.0
 10
96.5377
 20
114.2012
 30
0.0
 10
96.5377
 20
114.2012
 30
0.0
 10
96.5377
 20
114.2012
 30
0.0
 10
96.4341
 20
114.3645
 30
0.0
 10
96.4341
 20
114.3645
 30
0.0
 10
96.4341
 20
114.3645
 30
0.0
 10
96.4341
 20
114.3645
 30
0.0
 10
96.3305
 20
114.2012
 30
0.0
 10
96.3305
 20
114.2012
 30
0.0
 10
96.3305
 20
114.2012
 30
0.0
 10
96.3305
 20
114.2012
 30
0.0
 10
95.7329
 20
113.361
 30
0.0
 10
95.7329
 20
113.361
 30
0.0
 10
95.7329
 20
113.361
 30
0.0
 10
95.7329
 20
113.361
 30
0.0
 10
95.0954
 20
112.5516
 30
0.0
 10
95.0954
 20
112.5516
 30
0.0
 10
95.0954
 20
112.5516
 30
0.0
 10
95.0954
 20
112.5516
 30
0.0
 10
94.4228
 20
111.7752
 30
0.0
 10
94.4228
 20
111.7752
 30
0.0
 10
94.4228
 20
111.7752
 30
0.0
 10
94.4228
 20
111.7752
 30
0.0
 10
93.7126
 20
111.0298
 30
0.0
 10
93.7126
 20
111.0298
 30
0.0
 10
93.7126
 20
111.0298
 30
0.0
 10
93.7126
 20
111.0298
 30
0.0
 10
92.9694
 20
110.3196
 30
0.0
 10
92.9694
 20
110.3196
 30
0.0
 10
92.9694
 20
110.3196
 30
0.0
 10
92.9694
 20
110.3196
 30
0.0
 10
92.1909
 20
109.6469
 30
0.0
 10
92.1909
 20
109.6469
 30
0.0
 10
92.1909
 20
109.6469
 30
0.0
 10
92.1909
 20
109.6469
 30
0.0
 10
91.3815
 20
109.0099
 30
0.0
 10
91.3815
 20
109.0099
 30
0.0
 10
91.3815
 20
109.0099
 30
0.0
 10
91.3815
 20
109.0099
 30
0.0
 10
90.5413
 20
108.412
 30
0.0
 10
90.5413
 20
108.412
 30
0.0
 10
90.5413
 20
108.412
 30
0.0
 10
90.5413
 20
108.412
 30
0.0
 10
90.3782
 20
108.3083
 30
0.0
 10
90.3782
 20
108.3083
 30
0.0
 10
90.3782
 20
108.3083
 30
0.0
 10
90.3782
 20
108.3083
 30
0.0
 10
90.5413
 20
108.2047
 30
0.0
 10
90.5413
 20
108.2047
 30
0.0
 10
90.5413
 20
108.2047
 30
0.0
 10
90.5413
 20
108.2047
 30
0.0
 10
91.3815
 20
107.607
 30
0.0
 10
91.3815
 20
107.607
 30
0.0
 10
91.3815
 20
107.607
 30
0.0
 10
91.3815
 20
107.607
 30
0.0
 10
92.1909
 20
106.9696
 30
0.0
 10
92.1909
 20
106.9696
 30
0.0
 10
92.1909
 20
106.9696
 30
0.0
 10
92.1909
 20
106.9696
 30
0.0
 10
92.9694
 20
106.2969
 30
0.0
 10
92.9694
 20
106.2969
 30
0.0
 10
92.9694
 20
106.2969
 30
0.0
 10
92.9694
 20
106.2969
 30
0.0
 10
93.7126
 20
105.5867
 30
0.0
 10
93.7126
 20
105.5867
 30
0.0
 10
93.7126
 20
105.5867
 30
0.0
 10
93.7126
 20
105.5867
 30
0.0
 10
94.4228
 20
104.8438
 30
0.0
 10
94.4228
 20
104.8438
 30
0.0
 10
94.4228
 20
104.8438
 30
0.0
 10
94.4228
 20
104.8438
 30
0.0
 10
95.0954
 20
104.0653
 30
0.0
 10
95.0954
 20
104.0653
 30
0.0
 10
95.0954
 20
104.0653
 30
0.0
 10
95.0954
 20
104.0653
 30
0.0
 10
95.7329
 20
103.2557
 30
0.0
 10
95.7329
 20
103.2557
 30
0.0
 10
95.7329
 20
103.2557
 30
0.0
 10
95.7329
 20
103.2557
 30
0.0
 10
96.3305
 20
102.4155
 30
0.0
 10
96.3305
 20
102.4155
 30
0.0
 10
96.3305
 20
102.4155
 30
0.0
 10
96.3305
 20
102.4155
 30
0.0
 10
96.4341
 20
102.2523
 30
0.0
 10
96.4341
 20
102.2523
 30
0.0
  0
ENDSEC
  0
SECTION
  2
OBJECTS
  0
DICTIONARY
  5
C
330
0
100
AcDbDictionary
281
     1
  3
ACAD_GROUP
350
D
  3
ACAD_LAYOUT
350
1A
  3
ACAD_MATERIAL
350
3B
  3
ACAD_MLEADERSTYLE
350
E0
  3
ACAD_MLINESTYLE
350
17
  3
ACAD_PLOTSETTINGS
350
19
  3
ACAD_PLOTSTYLENAME
350
E
  3
ACAD_TABLESTYLE
350
DF
  3
ACAD_VISUALSTYLE
350
2A
  0
DICTIONARY
  5
D
102
{ACAD_REACTORS
330
C
102
}
330
C
100
AcDbDictionary
281
     1
  0
DICTIONARY
  5
1A
102
{ACAD_REACTORS
330
C
102
}
330
C
100
AcDbDictionary
281
     1
  3
Layout1
350
1E
  3
Layout2
350
26
  3
Model
350
22
  0
DICTIONARY
  5
3B
102
{ACAD_REACTORS
330
C
102
}
330
C
100
AcDbDictionary
281
     1
  3
ByBlock
350
3D
  3
ByLayer
350
3C
  3
Global
350
3E
  0
DICTIONARY
  5
E0
102
{ACAD_REACTORS
330
C
102
}
330
C
100
AcDbDictionary
281
     1
  0
DICTIONARY
  5
17
102
{ACAD_REACTORS
330
C
102
}
330
C
100
AcDbDictionary
281
     1
  3
Standard
350
18
  0
DICTIONARY
  5
19
102
{ACAD_REACTORS
330
C
102
}
330
C
100
AcDbDictionary
281
     1
  0
ACDBDICTIONARYWDFLT
  5
E
102
{ACAD_REACTORS
330
C
102
}
330
C
100
AcDbDictionary
281
     1
  3
Normal
350
F
100
AcDbDictionaryWithDefault
340
F
  0
DICTIONARY
  5
DF
102
{ACAD_REACTORS
330
C
102
}
330
C
100
AcDbDictionary
281
     1
  0
DICTIONARY
  5
2A
102
{ACAD_REACTORS
330
C
102
}
330
C
100
AcDbDictionary
281
     1
  3
2dWireframe
350
2F
  3
3D Hidden
350
31
  3
3dWireframe
350
30
  3
Basic
350
32
  3
Brighten
350
36
  3
ColorChange
350
3A
  3
Conceptual
350
34
  3
Dim
350
35
  3
Facepattern
350
39
  3
Flat
350
2B
  3
FlatWithEdges
350
2C
  3
Gouraud
350
2D
  3
GouraudWithEdges
350
2E
  3
Linepattern
350
38
  3
Realistic
350
33
  3
Thicken
350
37
  0
LAYOUT
  5
1E
102
{ACAD_REACTORS
330
1A
102
}
330
1A
100
AcDbPlotSettings
  1

  2
none_device
  4

  6

 40
0.0
 41
0.0
 42
0.0
 43
0.0
 44
0.0
 45
0.0
 46
0.0
 47
0.0
 48
0.0
 49
0.0
140
0.0
141
0.0
142
1.0
143
1.0
 70
   688
 72
     0
 73
     0
 74
     5
  7

 75
    16
 76
     0
 77
     2
 78
   300
147
1.0
148
0.0
149
0.0
100
AcDbLayout
  1
Layout1
 70
     1
 71
     1
 10
0.0
 20
0.0
 11
12.0
 21
9.0
 12
0.0
 22
0.0
 32
0.0
 14
1.000000000000000E+20
 24
1.000000000000000E+20
 34
1.000000000000000E+20
 15
-1.000000000000000E+20
 25
-1.000000000000000E+20
 35
-1.000000000000000E+20
146
0.0
 13
0.0
 23
0.0
 33
0.0
 16
1.0
 26
0.0
 36
0.0
 17
0.0
 27
1.0
 37
0.0
 76
     0
330
1B
  0
LAYOUT
  5
26
102
{ACAD_REACTORS
330
1A
102
}
330
1A
100
AcDbPlotSettings
  1

  2
none_device
  4

  6

 40
0.0
 41
0.0
 42
0.0
 43
0.0
 44
0.0
 45
0.0
 46
0.0
 47
0.0
 48
0.0
 49
0.0
140
0.0
141
0.0
142
1.0
143
1.0
 70
   688
 72
     0
 73
     0
 74
     5
  7

 75
    16
 76
     0
 77
     2
 78
   300
147
1.0
148
0.0
149
0.0
100
AcDbLayout
  1
Layout2
 70
     1
 71
     2
 10
0.0
 20
0.0
 11
0.0
 21
0.0
 12
0.0
 22
0.0
 32
0.0
 14
0.0
 24
0.0
 34
0.0
 15
0.0
 25
0.0
 35
0.0
146
0.0
 13
0.0
 23
0.0
 33
0.0
 16
1.0
 26
0.0
 36
0.0
 17
0.0
 27
1.0
 37
0.0
 76
     0
330
23
  0
LAYOUT
  5
22
102
{ACAD_REACTORS
330
1A
102
}
330
1A
100
AcDbPlotSettings
  1

  2
none_device
  4

  6

 40
0.0
 41
0.0
 42
0.0
 43
0.0
 44
0.0
 45
0.0
 46
0.0
 47
0.0
 48
0.0
 49
0.0
140
0.0
141
0.0
142
1.0
143
1.0
 70
  1712
 72
     0
 73
     0
 74
     0
  7

 75
     0
 76
     0
 77
     2
 78
   300
147
1.0
148
0.0
149
0.0
100
AcDbLayout
  1
Model
 70
     1
 71
     0
 10
0.0
 20
0.0
 11
12.0
 21
9.0
 12
0.0
 22
0.0
 32
0.0
 14
71.7424
 24
-114.7596
 34
0.0
 15
196.3766
 25
131.8733
 35
0.0
146
0.0
 13
0.0
 23
0.0
 33
0.0
 16
1.0
 26
0.0
 36
0.0
 17
0.0
 27
1.0
 37
0.0
 76
     0
330
1F
331
29
  0
MATERIAL
  5
3D
102
{ACAD_REACTORS
330
3B
102
}
330
3B
100
AcDbMaterial
  1
ByBlock
 72
     1
 94
      127
  0
MATERIAL
  5
3C
102
{ACAD_REACTORS
330
3B
102
}
330
3B
100
AcDbMaterial
  1
ByLayer
 72
     1
 94
      127
  0
MATERIAL
  5
3E
102
{ACAD_REACTORS
330
3B
102
}
330
3B
100
AcDbMaterial
  1
Global
 72
     1
 94
      127
  0
MLINESTYLE
  5
18
102
{ACAD_REACTORS
330
17
102
}
330
17
100
AcDbMlineStyle
  2
Standard
 70
     0
  3

 62
   256
 51
90.0
 52
90.0
 71
     2
 49
0.5
 62
   256
  6
BYLAYER
 49
-0.5
 62
   256
  6
BYLAYER
  0
ACDBPLACEHOLDER
  5
F
102
{ACAD_REACTORS
330
E
102
}
330
E
  0
VISUALSTYLE
  5
2F
102
{ACAD_REACTORS
330
2A
102
}
102
{ACAD_XDICTIONARY
360
C7
102
}
330
2A
100
AcDbVisualStyle
  2
2dWireframe
 70
     4
 71
     0
 72
     2
 73
     0
 90
        0
 40
-0.6
 41
-30.0
 62
     5
 63
     7
421
 16777215
 74
     1
 91
        4
 64
     7
 65
   257
 75
     1
175
     1
 42
1.0
 92
        0
 66
   257
 43
1.0
 76
     1
 77
     6
 78
     2
 67
     7
 79
     5
170
     0
171
     0
290
     0
174
     0
 93
        1
 44
0.0
173
     0
291
     0
 45
0.0
  0
VISUALSTYLE
  5
31
102
{ACAD_REACTORS
330
2A
102
}
102
{ACAD_XDICTIONARY
360
CB
102
}
330
2A
100
AcDbVisualStyle
  2
3D Hidden
 70
     6
 71
     1
 72
     2
 73
     2
 90
        0
 40
-0.6
 41
-30.0
 62
     5
 63
     7
421
 16777215
 74
     2
 91
        2
 64
     7
 65
   257
 75
     2
175
     1
 42
40.0
 92
        0
 66
   257
 43
1.0
 76
     1
 77
     6
 78
     2
 67
     7
 79
     3
170
     0
171
     0
290
     0
174
     0
 93
        1
 44
0.0
173
     0
291
     0
 45
0.0
  0
VISUALSTYLE
  5
30
102
{ACAD_REACTORS
330
2A
102
}
102
{ACAD_XDICTIONARY
360
C9
102
}
330
2A
100
AcDbVisualStyle
  2
3dWireframe
 70
     5
 71
     0
 72
     2
 73
     0
 90
        0
 40
-0.6
 41
-30.0
 62
     5
 63
     7
421
 16777215
 74
     1
 91
        4
 64
     7
 65
   257
 75
     1
175
     1
 42
1.0
 92
        0
 66
   257
 43
1.0
 76
     1
 77
     6
 78
     2
 67
     7
 79
     5
170
     0
171
     0
290
     0
174
     0
 93
        1
 44
0.0
173
     0
291
     0
 45
0.0
  0
VISUALSTYLE
  5
32
102
{ACAD_REACTORS
330
2A
102
}
102
{ACAD_XDICTIONARY
360
CD
102
}
330
2A
100
AcDbVisualStyle
  2
Basic
 70
     7
 71
     1
 72
     0
 73
     1
 90
        0
 40
-0.6
 41
-30.0
 62
     5
 63
     7
421
 16777215
 74
     0
 91
        4
 64
     7
 65
   257
 75
     1
175
     1
 42
1.0
 92
        8
 66
     7
 43
1.0
 76
     1
 77
     6
 78
     2
 67
     7
 79
     5
170
     0
171
     0
290
     0
174
     0
 93
        1
 44
0.0
173
     0
291
     1
 45
0.0
  0
VISUALSTYLE
  5
36
102
{ACAD_REACTORS
330
2A
102
}
102
{ACAD_XDICTIONARY
360
D5
102
}
330
2A
100
AcDbVisualStyle
  2
Brighten
 70
    12
 71
     2
 72
     2
 73
     0
 90
        0
 40
-0.6
 41
-30.0
 62
     5
 63
     7
421
 16777215
 74
     1
 91
        4
 64
     7
 65
   257
 75
     1
175
     1
 42
1.0
 92
        8
 66
     7
 43
1.0
 76
     1
 77
     6
 78
     2
 67
     7
 79
     5
170
     0
171
     0
290
     0
174
     0
 93
        1
 44
50.0
173
     0
291
     1
 45
0.0
  0
VISUALSTYLE
  5
3A
102
{ACAD_REACTORS
330
2A
102
}
102
{ACAD_XDICTIONARY
360
DD
102
}
330
2A
100
AcDbVisualStyle
  2
ColorChange
 70
    16
 71
     2
 72
     2
 73
     3
 90
        0
 40
-0.6
 41
-30.0
 62
     5
 63
     8
421
  8421504
 74
     1
 91
        4
 64
     7
 65
   257
 75
     1
175
     1
 42
1.0
 92
        8
 66
     8
424
  8421504
 43
1.0
 76
     1
 77
     6
 78
     2
 67
     7
 79
     5
170
     0
171
     0
290
     0
174
     0
 93
        1
 44
0.0
173
     0
291
     1
 45
0.0
  0
VISUALSTYLE
  5
34
102
{ACAD_REACTORS
330
2A
102
}
102
{ACAD_XDICTIONARY
360
D1
102
}
330
2A
100
AcDbVisualStyle
  2
Conceptual
 70
     9
 71
     3
 72
     2
 73
     0
 90
        0
 40
-0.6
 41
-30.0
 62
     5
 63
     7
421
 16777215
 74
     2
 91
        2
 64
     7
 65
   257
 75
     1
175
     1
 42
40.0
 92
        8
 66
     7
 43
1.0
 76
     1
 77
     6
 78
     2
 67
     7
 79
     3
170
     0
171
     0
290
     0
174
     0
 93
        1
 44
0.0
173
     0
291
     0
 45
0.0
  0
VISUALSTYLE
  5
35
102
{ACAD_REACTORS
330
2A
102
}
102
{ACAD_XDICTIONARY
360
D3
102
}
330
2A
100
AcDbVisualStyle
  2
Dim
 70
    11
 71
     2
 72
     2
 73
     0
 90
        0
 40
-0.6
 41
-30.0
 62
     5
 63
     7
421
 16777215
 74
     1
 91
        4
 64
     7
 65
   257
 75
     1
175
     1
 42
1.0
 92
        8
 66
     7
 43
1.0
 76
     1
 77
     6
 78
     2
 67
     7
 79
     5
170
     0
171
     0
290
     0
174
     0
 93
        1
 44
-50.0
173
     0
291
     1
 45
0.0
  0
VISUALSTYLE
  5
39
102
{ACAD_REACTORS
330
2A
102
}
102
{ACAD_XDICTIONARY
360
DB
102
}
330
2A
100
AcDbVisualStyle
  2
Facepattern
 70
    15
 71
     2
 72
     2
 73
     0
 90
        0
 40
-0.6
 41
-30.0
 62
     5
 63
     7
421
 16777215
 74
     1
 91
        4
 64
     7
 65
   257
 75
     1
175
     1
 42
1.0
 92
        8
 66
     7
 43
1.0
 76
     1
 77
     6
 78
     2
 67
     7
 79
     5
170
     0
171
     0
290
     0
174
     0
 93
        1
 44
0.0
173
     0
291
     1
 45
0.0
  0
VISUALSTYLE
  5
2B
102
{ACAD_REACTORS
330
2A
102
}
102
{ACAD_XDICTIONARY
360
BF
102
}
330
2A
100
AcDbVisualStyle
  2
Flat
 70
     0
 71
     2
 72
     1
 73
     1
 90
        2
 40
-0.6
 41
30.0
 62
     5
 63
     7
421
 16777215
 74
     0
 91
        4
 64
     7
 65
   257
 75
     1
175
     1
 42
1.0
 92
        8
 66
     7
 43
1.0
 76
     1
 77
     6
 78
     2
 67
     7
 79
     5
170
     0
171
     0
290
     0
174
     0
 93
       13
 44
0.0
173
     0
291
     1
 45
0.0
  0
VISUALSTYLE
  5
2C
102
{ACAD_REACTORS
330
2A
102
}
102
{ACAD_XDICTIONARY
360
C1
102
}
330
2A
100
AcDbVisualStyle
  2
FlatWithEdges
 70
     1
 71
     2
 72
     1
 73
     1
 90
        2
 40
-0.6
 41
30.0
 62
     5
 63
     7
421
 16777215
 74
     1
 91
        4
 64
     7
 65
   257
 75
     1
175
     1
 42
1.0
 92
        0
 66
   257
 43
1.0
 76
     1
 77
     6
 78
     2
 67
     7
 79
     5
170
     0
171
     0
290
     0
174
     0
 93
       13
 44
0.0
173
     0
291
     1
 45
0.0
  0
VISUALSTYLE
  5
2D
102
{ACAD_REACTORS
330
2A
102
}
102
{ACAD_XDICTIONARY
360
C3
102
}
330
2A
100
AcDbVisualStyle
  2
Gouraud
 70
     2
 71
     2
 72
     2
 73
     1
 90
        2
 40
-0.6
 41
30.0
 62
     5
 63
     7
421
 16777215
 74
     0
 91
        4
 64
     7
 65
   257
 75
     1
175
     1
 42
1.0
 92
        0
 66
     7
 43
1.0
 76
     1
 77
     6
 78
     2
 67
     7
 79
     5
170
     0
171
     0
290
     0
174
     0
 93
       13
 44
0.0
173
     0
291
     1
 45
0.0
  0
VISUALSTYLE
  5
2E
102
{ACAD_REACTORS
330
2A
102
}
102
{ACAD_XDICTIONARY
360
C5
102
}
330
2A
100
AcDbVisualStyle
  2
GouraudWithEdges
 70
     3
 71
     2
 72
     2
 73
     1
 90
        2
 40
-0.6
 41
30.0
 62
     5
 63
     7
421
 16777215
 74
     1
 91
        4
 64
     7
 65
   257
 75
     1
175
     1
 42
1.0
 92
        0
 66
   257
 43
1.0
 76
     1
 77
     6
 78
     2
 67
     7
 79
     5
170
     0
171
     0
290
     0
174
     0
 93
       13
 44
0.0
173
     0
291
     1
 45
0.0
  0
VISUALSTYLE
  5
38
102
{ACAD_REACTORS
330
2A
102
}
102
{ACAD_XDICTIONARY
360
D9
102
}
330
2A
100
AcDbVisualStyle
  2
Linepattern
 70
    14
 71
     2
 72
     2
 73
     0
 90
        0
 40
-0.6
 41
-30.0
 62
     5
 63
     7
421
 16777215
 74
     1
 91
        4
 64
     7
 65
   257
 75
     7
175
     7
 42
1.0
 92
        8
 66
     7
 43
1.0
 76
     1
 77
     6
 78
     2
 67
     7
 79
     5
170
     0
171
     0
290
     0
174
     0
 93
        1
 44
0.0
173
     0
291
     1
 45
0.0
  0
VISUALSTYLE
  5
33
102
{ACAD_REACTORS
330
2A
102
}
102
{ACAD_XDICTIONARY
360
CF
102
}
330
2A
100
AcDbVisualStyle
  2
Realistic
 70
     8
 71
     2
 72
     2
 73
     0
 90
        0
 40
-0.6
 41
-30.0
 62
     5
 63
     7
421
 16777215
 74
     1
 91
        0
 64
     7
 65
   257
 75
     1
175
     1
 42
1.0
 92
        8
 66
     8
424
  7895160
 43
1.0
 76
     1
 77
     6
 78
     2
 67
     7
 79
     5
170
     0
171
     0
290
     0
174
     0
 93
       13
 44
0.0
173
     0
291
     0
 45
0.0
  0
VISUALSTYLE
  5
37
102
{ACAD_REACTORS
330
2A
102
}
102
{ACAD_XDICTIONARY
360
D7
102
}
330
2A
100
AcDbVisualStyle
  2
Thicken
 70
    13
 71
     2
 72
     2
 73
     0
 90
        0
 40
-0.6
 41
-30.0
 62
     5
 63
     7
421
 16777215
 74
     1
 91
        4
 64
     7
 65
   257
 75
     1
175
     1
 42
1.0
 92
       12
 66
     7
 43
1.0
 76
     1
 77
     6
 78
     2
 67
     7
 79
     5
170
     0
171
     0
290
     0
174
     0
 93
        1
 44
0.0
173
     0
291
     1
 45
0.0
  0
DICTIONARY
  5
C7
330
2F
100
AcDbDictionary
280
     1
281
     1
  3
ACAD_XREC_ROUNDTRIP
360
C8
  0
DICTIONARY
  5
CB
330
31
100
AcDbDictionary
280
     1
281
     1
  3
ACAD_XREC_ROUNDTRIP
360
CC
  0
DICTIONARY
  5
C9
330
30
100
AcDbDictionary
280
     1
281
     1
  3
ACAD_XREC_ROUNDTRIP
360
CA
  0
DICTIONARY
  5
CD
330
32
100
AcDbDictionary
280
     1
281
     1
  3
ACAD_XREC_ROUNDTRIP
360
CE
  0
DICTIONARY
  5
D5
330
36
100
AcDbDictionary
280
     1
281
     1
  3
ACAD_XREC_ROUNDTRIP
360
D6
  0
DICTIONARY
  5
DD
330
3A
100
AcDbDictionary
280
     1
281
     1
  3
ACAD_XREC_ROUNDTRIP
360
DE
  0
DICTIONARY
  5
D1
330
34
100
AcDbDictionary
280
     1
281
     1
  3
ACAD_XREC_ROUNDTRIP
360
D2
  0
DICTIONARY
  5
D3
330
35
100
AcDbDictionary
280
     1
281
     1
  3
ACAD_XREC_ROUNDTRIP
360
D4
  0
DICTIONARY
  5
DB
330
39
100
AcDbDictionary
280
     1
281
     1
  3
ACAD_XREC_ROUNDTRIP
360
DC
  0
DICTIONARY
  5
BF
330
2B
100
AcDbDictionary
280
     1
281
     1
  3
ACAD_XREC_ROUNDTRIP
360
C0
  0
DICTIONARY
  5
C1
330
2C
100
AcDbDictionary
280
     1
281
     1
  3
ACAD_XREC_ROUNDTRIP
360
C2
  0
DICTIONARY
  5
C3
330
2D
100
AcDbDictionary
280
     1
281
     1
  3
ACAD_XREC_ROUNDTRIP
360
C4
  0
DICTIONARY
  5
C5
330
2E
100
AcDbDictionary
280
     1
281
     1
  3
ACAD_XREC_ROUNDTRIP
360
C6
  0
DICTIONARY
  5
D9
330
38
100
AcDbDictionary
280
     1
281
     1
  3
ACAD_XREC_ROUNDTRIP
360
DA
  0
DICTIONARY
  5
CF
330
33
100
AcDbDictionary
280
     1
281
     1
  3
ACAD_XREC_ROUNDTRIP
360
D0
  0
DICTIONARY
  5
D7
330
37
100
AcDbDictionary
280
     1
281
     1
  3
ACAD_XREC_ROUNDTRIP
360
D8
  0
XRECORD
  5
C8
102
{ACAD_REACTORS
330
C7
102
}
330
C7
100
AcDbXrecord
280
     1
102
RTVSPropertyOp0
 70
     1
102
RTVSPropertyOp1
 70
     1
102
RTVSPropertyOp2
 70
     1
102
RTVSPropertyOp3
 70
     1
102
RTVSPropertyOp4
 70
     1
102
RTVSPropertyOp5
 70
     1
102
RTVSPropertyOp6
 70
     1
102
RTVSPropertyOp7
 70
     1
102
RTVSPropertyOp8
 70
     1
102
RTVSPropertyOp9
 70
     1
102
RTVSPropertyOp10
 70
     1
102
RTVSPropertyOp11
 70
     1
102
RTVSPropertyOp12
 70
     1
102
RTVSPropertyOp13
 70
     1
102
RTVSPropertyOp14
 70
     1
102
RTVSPropertyOp15
 70
     1
102
RTVSPropertyOp16
 70
     1
102
RTVSPropertyOp17
 70
     1
102
RTVSPropertyOp18
 70
     1
102
RTVSPropertyOp19
 70
     1
102
RTVSPropertyOp20
 70
     1
102
RTVSPropertyOp21
 70
     1
102
RTVSPropertyOp22
 70
     1
102
RTVSPropertyOp23
 70
     1
102
RTVSPropertyOp24
 70
     1
102
RTVSPropertyOp25
 70
     1
102
RTVSPropertyOp26
 70
     1
102
RTVSPropertyOp27
 70
     1
102
RTVSPropertyOp28
 70
     1
102
RTVSPropertyOp29
 70
     1
102
RTVSPropertyOp30
 70
     1
102
RTVSPropertyOp31
 70
     1
102
RTVSPropertyOp32
 70
     1
  0
XRECORD
  5
CC
102
{ACAD_REACTORS
330
CB
102
}
330
CB
100
AcDbXrecord
280
     1
102
RTVSPropertyOp0
 70
     1
102
RTVSPropertyOp1
 70
     1
102
RTVSPropertyOp2
 70
     1
102
RTVSPropertyOp3
 70
     1
102
RTVSPropertyOp4
 70
     1
102
RTVSPropertyOp5
 70
     1
102
RTVSPropertyOp6
 70
     1
102
RTVSPropertyOp7
 70
     1
102
RTVSPropertyOp8
 70
     1
102
RTVSPropertyOp9
 70
     1
102
RTVSPropertyOp10
 70
     1
102
RTVSPropertyOp11
 70
     1
102
RTVSPropertyOp12
 70
     1
102
RTVSPropertyOp13
 70
     1
102
RTVSPropertyOp14
 70
     1
102
RTVSPropertyOp15
 70
     1
102
RTVSPropertyOp16
 70
     1
102
RTVSPropertyOp17
 70
     1
102
RTVSPropertyOp18
 70
     1
102
RTVSPropertyOp19
 70
     1
102
RTVSPropertyOp20
 70
     1
102
RTVSPropertyOp21
 70
     1
102
RTVSPropertyOp22
 70
     1
102
RTVSPropertyOp23
 70
     1
102
RTVSPropertyOp24
 70
     1
102
RTVSPropertyOp25
 70
     1
102
RTVSPropertyOp26
 70
     1
102
RTVSPropertyOp27
 70
     1
102
RTVSPropertyOp28
 70
     1
102
RTVSPropertyOp29
 70
     1
102
RTVSPropertyOp30
 70
     1
102
RTVSPropertyOp31
 70
     1
102
RTVSPropertyOp32
 70
     1
  0
XRECORD
  5
CA
102
{ACAD_REACTORS
330
C9
102
}
330
C9
100
AcDbXrecord
280
     1
102
RTVSPropertyOp0
 70
     1
102
RTVSPropertyOp1
 70
     1
102
RTVSPropertyOp2
 70
     1
102
RTVSPropertyOp3
 70
     1
102
RTVSPropertyOp4
 70
     1
102
RTVSPropertyOp5
 70
     1
102
RTVSPropertyOp6
 70
     1
102
RTVSPropertyOp7
 70
     1
102
RTVSPropertyOp8
 70
     1
102
RTVSPropertyOp9
 70
     1
102
RTVSPropertyOp10
 70
     1
102
RTVSPropertyOp11
 70
     1
102
RTVSPropertyOp12
 70
     1
102
RTVSPropertyOp13
 70
     1
102
RTVSPropertyOp14
 70
     1
102
RTVSPropertyOp15
 70
     1
102
RTVSPropertyOp16
 70
     1
102
RTVSPropertyOp17
 70
     1
102
RTVSPropertyOp18
 70
     1
102
RTVSPropertyOp19
 70
     1
102
RTVSPropertyOp20
 70
     1
102
RTVSPropertyOp21
 70
     1
102
RTVSPropertyOp22
 70
     1
102
RTVSPropertyOp23
 70
     1
102
RTVSPropertyOp24
 70
     1
102
RTVSPropertyOp25
 70
     1
102
RTVSPropertyOp26
 70
     1
102
RTVSPropertyOp27
 70
     1
102
RTVSPropertyOp28
 70
     1
102
RTVSPropertyOp29
 70
     1
102
RTVSPropertyOp30
 70
     1
102
RTVSPropertyOp31
 70
     1
102
RTVSPropertyOp32
 70
     1
  0
XRECORD
  5
CE
102
{ACAD_REACTORS
330
CD
102
}
330
CD
100
AcDbXrecord
280
     1
102
RTVSPropertyOp0
 70
     1
102
RTVSPropertyOp1
 70
     1
102
RTVSPropertyOp2
 70
     1
102
RTVSPropertyOp3
 70
     1
102
RTVSPropertyOp4
 70
     1
102
RTVSPropertyOp5
 70
     1
102
RTVSPropertyOp6
 70
     1
102
RTVSPropertyOp7
 70
     1
102
RTVSPropertyOp8
 70
     1
102
RTVSPropertyOp9
 70
     1
102
RTVSPropertyOp10
 70
     1
102
RTVSPropertyOp11
 70
     1
102
RTVSPropertyOp12
 70
     1
102
RTVSPropertyOp13
 70
     1
102
RTVSPropertyOp14
 70
     1
102
RTVSPropertyOp15
 70
     1
102
RTVSPropertyOp16
 70
     1
102
RTVSPropertyOp17
 70
     1
102
RTVSPropertyOp18
 70
     1
102
RTVSPropertyOp19
 70
     1
102
RTVSPropertyOp20
 70
     1
102
RTVSPropertyOp21
 70
     1
102
RTVSPropertyOp22
 70
     1
102
RTVSPropertyOp23
 70
     1
102
RTVSPropertyOp24
 70
     1
102
RTVSPropertyOp25
 70
     1
102
RTVSPropertyOp26
 70
     1
102
RTVSPropertyOp27
 70
     1
102
RTVSPropertyOp28
 70
     1
102
RTVSPropertyOp29
 70
     1
102
RTVSPropertyOp30
 70
     1
102
RTVSPropertyOp31
 70
     1
102
RTVSPropertyOp32
 70
     1
  0
XRECORD
  5
D6
102
{ACAD_REACTORS
330
D5
102
}
330
D5
100
AcDbXrecord
280
     1
102
RTVSPropertyOp0
 70
     1
102
RTVSPropertyOp1
 70
     1
102
RTVSPropertyOp2
 70
     1
102
RTVSPropertyOp3
 70
     1
102
RTVSPropertyOp4
 70
     1
102
RTVSPropertyOp5
 70
     1
102
RTVSPropertyOp6
 70
     1
102
RTVSPropertyOp7
 70
     1
102
RTVSPropertyOp8
 70
     1
102
RTVSPropertyOp9
 70
     1
102
RTVSPropertyOp10
 70
     1
102
RTVSPropertyOp11
 70
     1
102
RTVSPropertyOp12
 70
     1
102
RTVSPropertyOp13
 70
     1
102
RTVSPropertyOp14
 70
     1
102
RTVSPropertyOp15
 70
     1
102
RTVSPropertyOp16
 70
     1
102
RTVSPropertyOp17
 70
     1
102
RTVSPropertyOp18
 70
     1
102
RTVSPropertyOp19
 70
     1
102
RTVSPropertyOp20
 70
     1
102
RTVSPropertyOp21
 70
     1
102
RTVSPropertyOp22
 70
     1
102
RTVSPropertyOp23
 70
     1
102
RTVSPropertyOp24
 70
     1
102
RTVSPropertyOp25
 70
     1
102
RTVSPropertyOp26
 70
     1
102
RTVSPropertyOp27
 70
     1
102
RTVSPropertyOp28
 70
     1
102
RTVSPropertyOp29
 70
     1
102
RTVSPropertyOp30
 70
     1
102
RTVSPropertyOp31
 70
     1
102
RTVSPropertyOp32
 70
     1
  0
XRECORD
  5
DE
102
{ACAD_REACTORS
330
DD
102
}
330
DD
100
AcDbXrecord
280
     1
102
RTVSPropertyOp0
 70
     1
102
RTVSPropertyOp1
 70
     1
102
RTVSPropertyOp2
 70
     1
102
RTVSPropertyOp3
 70
     1
102
RTVSPropertyOp4
 70
     1
102
RTVSPropertyOp5
 70
     1
102
RTVSPropertyOp6
 70
     1
102
RTVSPropertyOp7
 70
     1
102
RTVSPropertyOp8
 70
     1
102
RTVSPropertyOp9
 70
     1
102
RTVSPropertyOp10
 70
     1
102
RTVSPropertyOp11
 70
     1
102
RTVSPropertyOp12
 70
     1
102
RTVSPropertyOp13
 70
     1
102
RTVSPropertyOp14
 70
     1
102
RTVSPropertyOp15
 70
     1
102
RTVSPropertyOp16
 70
     1
102
RTVSPropertyOp17
 70
     1
102
RTVSPropertyOp18
 70
     1
102
RTVSPropertyOp19
 70
     1
102
RTVSPropertyOp20
 70
     1
102
RTVSPropertyOp21
 70
     1
102
RTVSPropertyOp22
 70
     1
102
RTVSPropertyOp23
 70
     1
102
RTVSPropertyOp24
 70
     1
102
RTVSPropertyOp25
 70
     1
102
RTVSPropertyOp26
 70
     1
102
RTVSPropertyOp27
 70
     1
102
RTVSPropertyOp28
 70
     1
102
RTVSPropertyOp29
 70
     1
102
RTVSPropertyOp30
 70
     1
102
RTVSPropertyOp31
 70
     1
102
RTVSPropertyOp32
 70
     1
  0
XRECORD
  5
D2
102
{ACAD_REACTORS
330
D1
102
}
330
D1
100
AcDbXrecord
280
     1
102
RTVSPropertyOp0
 70
     1
102
RTVSPropertyOp1
 70
     1
102
RTVSPropertyOp2
 70
     1
102
RTVSPropertyOp3
 70
     1
102
RTVSPropertyOp4
 70
     1
102
RTVSPropertyOp5
 70
     1
102
RTVSPropertyOp6
 70
     1
102
RTVSPropertyOp7
 70
     1
102
RTVSPropertyOp8
 70
     1
102
RTVSPropertyOp9
 70
     1
102
RTVSPropertyOp10
 70
     1
102
RTVSPropertyOp11
 70
     1
102
RTVSPropertyOp12
 70
     1
102
RTVSPropertyOp13
 70
     1
102
RTVSPropertyOp14
 70
     1
102
RTVSPropertyOp15
 70
     1
102
RTVSPropertyOp16
 70
     1
102
RTVSPropertyOp17
 70
     1
102
RTVSPropertyOp18
 70
     1
102
RTVSPropertyOp19
 70
     1
102
RTVSPropertyOp20
 70
     1
102
RTVSPropertyOp21
 70
     1
102
RTVSPropertyOp22
 70
     1
102
RTVSPropertyOp23
 70
     1
102
RTVSPropertyOp24
 70
     1
102
RTVSPropertyOp25
 70
     1
102
RTVSPropertyOp26
 70
     1
102
RTVSPropertyOp27
 70
     1
102
RTVSPropertyOp28
 70
     1
102
RTVSPropertyOp29
 70
     1
102
RTVSPropertyOp30
 70
     1
102
RTVSPropertyOp31
 70
     1
102
RTVSPropertyOp32
 70
     1
  0
XRECORD
  5
D4
102
{ACAD_REACTORS
330
D3
102
}
330
D3
100
AcDbXrecord
280
     1
102
RTVSPropertyOp0
 70
     1
102
RTVSPropertyOp1
 70
     1
102
RTVSPropertyOp2
 70
     1
102
RTVSPropertyOp3
 70
     1
102
RTVSPropertyOp4
 70
     1
102
RTVSPropertyOp5
 70
     1
102
RTVSPropertyOp6
 70
     1
102
RTVSPropertyOp7
 70
     1
102
RTVSPropertyOp8
 70
     1
102
RTVSPropertyOp9
 70
     1
102
RTVSPropertyOp10
 70
     1
102
RTVSPropertyOp11
 70
     1
102
RTVSPropertyOp12
 70
     1
102
RTVSPropertyOp13
 70
     1
102
RTVSPropertyOp14
 70
     1
102
RTVSPropertyOp15
 70
     1
102
RTVSPropertyOp16
 70
     1
102
RTVSPropertyOp17
 70
     1
102
RTVSPropertyOp18
 70
     1
102
RTVSPropertyOp19
 70
     1
102
RTVSPropertyOp20
 70
     1
102
RTVSPropertyOp21
 70
     1
102
RTVSPropertyOp22
 70
     1
102
RTVSPropertyOp23
 70
     1
102
RTVSPropertyOp24
 70
     1
102
RTVSPropertyOp25
 70
     1
102
RTVSPropertyOp26
 70
     1
102
RTVSPropertyOp27
 70
     1
102
RTVSPropertyOp28
 70
     1
102
RTVSPropertyOp29
 70
     1
102
RTVSPropertyOp30
 70
     1
102
RTVSPropertyOp31
 70
     1
102
RTVSPropertyOp32
 70
     1
  0
XRECORD
  5
DC
102
{ACAD_REACTORS
330
DB
102
}
330
DB
100
AcDbXrecord
280
     1
102
RTVSPropertyOp0
 70
     1
102
RTVSPropertyOp1
 70
     1
102
RTVSPropertyOp2
 70
     1
102
RTVSPropertyOp3
 70
     1
102
RTVSPropertyOp4
 70
     1
102
RTVSPropertyOp5
 70
     1
102
RTVSPropertyOp6
 70
     1
102
RTVSPropertyOp7
 70
     1
102
RTVSPropertyOp8
 70
     1
102
RTVSPropertyOp9
 70
     1
102
RTVSPropertyOp10
 70
     1
102
RTVSPropertyOp11
 70
     1
102
RTVSPropertyOp12
 70
     1
102
RTVSPropertyOp13
 70
     1
102
RTVSPropertyOp14
 70
     1
102
RTVSPropertyOp15
 70
     1
102
RTVSPropertyOp16
 70
     1
102
RTVSPropertyOp17
 70
     1
102
RTVSPropertyOp18
 70
     1
102
RTVSPropertyOp19
 70
     1
102
RTVSPropertyOp20
 70
     1
102
RTVSPropertyOp21
 70
     1
102
RTVSPropertyOp22
 70
     1
102
RTVSPropertyOp23
 70
     1
102
RTVSPropertyOp24
 70
     1
102
RTVSPropertyOp25
 70
     1
102
RTVSPropertyOp26
 70
     1
102
RTVSPropertyOp27
 70
     1
102
RTVSPropertyOp28
 70
     1
102
RTVSPropertyOp29
 70
     1
102
RTVSPropertyOp30
 70
     1
102
RTVSPropertyOp31
 70
     1
102
RTVSPropertyOp32
 70
     1
  0
XRECORD
  5
C0
102
{ACAD_REACTORS
330
BF
102
}
330
BF
100
AcDbXrecord
280
     1
102
RTVSPropertyOp0
 70
     1
102
RTVSPropertyOp1
 70
     1
102
RTVSPropertyOp2
 70
     1
102
RTVSPropertyOp3
 70
     1
102
RTVSPropertyOp4
 70
     1
102
RTVSPropertyOp5
 70
     1
102
RTVSPropertyOp6
 70
     1
102
RTVSPropertyOp7
 70
     1
102
RTVSPropertyOp8
 70
     1
102
RTVSPropertyOp9
 70
     1
102
RTVSPropertyOp10
 70
     1
102
RTVSPropertyOp11
 70
     1
102
RTVSPropertyOp12
 70
     1
102
RTVSPropertyOp13
 70
     1
102
RTVSPropertyOp14
 70
     1
102
RTVSPropertyOp15
 70
     1
102
RTVSPropertyOp16
 70
     1
102
RTVSPropertyOp17
 70
     1
102
RTVSPropertyOp18
 70
     1
102
RTVSPropertyOp19
 70
     1
102
RTVSPropertyOp20
 70
     1
102
RTVSPropertyOp21
 70
     1
102
RTVSPropertyOp22
 70
     1
102
RTVSPropertyOp23
 70
     1
102
RTVSPropertyOp24
 70
     1
102
RTVSPropertyOp25
 70
     1
102
RTVSPropertyOp26
 70
     1
102
RTVSPropertyOp27
 70
     1
102
RTVSPropertyOp28
 70
     1
102
RTVSPropertyOp29
 70
     1
102
RTVSPropertyOp30
 70
     1
102
RTVSPropertyOp31
 70
     1
102
RTVSPropertyOp32
 70
     1
  0
XRECORD
  5
C2
102
{ACAD_REACTORS
330
C1
102
}
330
C1
100
AcDbXrecord
280
     1
102
RTVSPropertyOp0
 70
     1
102
RTVSPropertyOp1
 70
     1
102
RTVSPropertyOp2
 70
     1
102
RTVSPropertyOp3
 70
     1
102
RTVSPropertyOp4
 70
     1
102
RTVSPropertyOp5
 70
     1
102
RTVSPropertyOp6
 70
     1
102
RTVSPropertyOp7
 70
     1
102
RTVSPropertyOp8
 70
     1
102
RTVSPropertyOp9
 70
     1
102
RTVSPropertyOp10
 70
     1
102
RTVSPropertyOp11
 70
     1
102
RTVSPropertyOp12
 70
     1
102
RTVSPropertyOp13
 70
     1
102
RTVSPropertyOp14
 70
     1
102
RTVSPropertyOp15
 70
     1
102
RTVSPropertyOp16
 70
     1
102
RTVSPropertyOp17
 70
     1
102
RTVSPropertyOp18
 70
     1
102
RTVSPropertyOp19
 70
     1
102
RTVSPropertyOp20
 70
     1
102
RTVSPropertyOp21
 70
     1
102
RTVSPropertyOp22
 70
     1
102
RTVSPropertyOp23
 70
     1
102
RTVSPropertyOp24
 70
     1
102
RTVSPropertyOp25
 70
     1
102
RTVSPropertyOp26
 70
     1
102
RTVSPropertyOp27
 70
     1
102
RTVSPropertyOp28
 70
     1
102
RTVSPropertyOp29
 70
     1
102
RTVSPropertyOp30
 70
     1
102
RTVSPropertyOp31
 70
     1
102
RTVSPropertyOp32
 70
     1
  0
XRECORD
  5
C4
102
{ACAD_REACTORS
330
C3
102
}
330
C3
100
AcDbXrecord
280
     1
102
RTVSPropertyOp0
 70
     1
102
RTVSPropertyOp1
 70
     1
102
RTVSPropertyOp2
 70
     1
102
RTVSPropertyOp3
 70
     1
102
RTVSPropertyOp4
 70
     1
102
RTVSPropertyOp5
 70
     1
102
RTVSPropertyOp6
 70
     1
102
RTVSPropertyOp7
 70
     1
102
RTVSPropertyOp8
 70
     1
102
RTVSPropertyOp9
 70
     1
102
RTVSPropertyOp10
 70
     1
102
RTVSPropertyOp11
 70
     1
102
RTVSPropertyOp12
 70
     1
102
RTVSPropertyOp13
 70
     1
102
RTVSPropertyOp14
 70
     1
102
RTVSPropertyOp15
 70
     1
102
RTVSPropertyOp16
 70
     1
102
RTVSPropertyOp17
 70
     1
102
RTVSPropertyOp18
 70
     1
102
RTVSPropertyOp19
 70
     1
102
RTVSPropertyOp20
 70
     1
102
RTVSPropertyOp21
 70
     1
102
RTVSPropertyOp22
 70
     1
102
RTVSPropertyOp23
 70
     1
102
RTVSPropertyOp24
 70
     1
102
RTVSPropertyOp25
 70
     1
102
RTVSPropertyOp26
 70
     1
102
RTVSPropertyOp27
 70
     1
102
RTVSPropertyOp28
 70
     1
102
RTVSPropertyOp29
 70
     1
102
RTVSPropertyOp30
 70
     1
102
RTVSPropertyOp31
 70
     1
102
RTVSPropertyOp32
 70
     1
  0
XRECORD
  5
C6
102
{ACAD_REACTORS
330
C5
102
}
330
C5
100
AcDbXrecord
280
     1
102
RTVSPropertyOp0
 70
     1
102
RTVSPropertyOp1
 70
     1
102
RTVSPropertyOp2
 70
     1
102
RTVSPropertyOp3
 70
     1
102
RTVSPropertyOp4
 70
     1
102
RTVSPropertyOp5
 70
     1
102
RTVSPropertyOp6
 70
     1
102
RTVSPropertyOp7
 70
     1
102
RTVSPropertyOp8
 70
     1
102
RTVSPropertyOp9
 70
     1
102
RTVSPropertyOp10
 70
     1
102
RTVSPropertyOp11
 70
     1
102
RTVSPropertyOp12
 70
     1
102
RTVSPropertyOp13
 70
     1
102
RTVSPropertyOp14
 70
     1
102
RTVSPropertyOp15
 70
     1
102
RTVSPropertyOp16
 70
     1
102
RTVSPropertyOp17
 70
     1
102
RTVSPropertyOp18
 70
     1
102
RTVSPropertyOp19
 70
     1
102
RTVSPropertyOp20
 70
     1
102
RTVSPropertyOp21
 70
     1
102
RTVSPropertyOp22
 70
     1
102
RTVSPropertyOp23
 70
     1
102
RTVSPropertyOp24
 70
     1
102
RTVSPropertyOp25
 70
     1
102
RTVSPropertyOp26
 70
     1
102
RTVSPropertyOp27
 70
     1
102
RTVSPropertyOp28
 70
     1
102
RTVSPropertyOp29
 70
     1
102
RTVSPropertyOp30
 70
     1
102
RTVSPropertyOp31
 70
     1
102
RTVSPropertyOp32
 70
     1
  0
XRECORD
  5
DA
102
{ACAD_REACTORS
330
D9
102
}
330
D9
100
AcDbXrecord
280
     1
102
RTVSPropertyOp0
 70
     1
102
RTVSPropertyOp1
 70
     1
102
RTVSPropertyOp2
 70
     1
102
RTVSPropertyOp3
 70
     1
102
RTVSPropertyOp4
 70
     1
102
RTVSPropertyOp5
 70
     1
102
RTVSPropertyOp6
 70
     1
102
RTVSPropertyOp7
 70
     1
102
RTVSPropertyOp8
 70
     1
102
RTVSPropertyOp9
 70
     1
102
RTVSPropertyOp10
 70
     1
102
RTVSPropertyOp11
 70
     1
102
RTVSPropertyOp12
 70
     1
102
RTVSPropertyOp13
 70
     1
102
RTVSPropertyOp14
 70
     1
102
RTVSPropertyOp15
 70
     1
102
RTVSPropertyOp16
 70
     1
102
RTVSPropertyOp17
 70
     1
102
RTVSPropertyOp18
 70
     1
102
RTVSPropertyOp19
 70
     1
102
RTVSPropertyOp20
 70
     1
102
RTVSPropertyOp21
 70
     1
102
RTVSPropertyOp22
 70
     1
102
RTVSPropertyOp23
 70
     1
102
RTVSPropertyOp24
 70
     1
102
RTVSPropertyOp25
 70
     1
102
RTVSPropertyOp26
 70
     1
102
RTVSPropertyOp27
 70
     1
102
RTVSPropertyOp28
 70
     1
102
RTVSPropertyOp29
 70
     1
102
RTVSPropertyOp30
 70
     1
102
RTVSPropertyOp31
 70
     1
102
RTVSPropertyOp32
 70
     1
  0
XRECORD
  5
D0
102
{ACAD_REACTORS
330
CF
102
}
330
CF
100
AcDbXrecord
280
     1
102
RTVSPropertyOp0
 70
     1
102
RTVSPropertyOp1
 70
     1
102
RTVSPropertyOp2
 70
     1
102
RTVSPropertyOp3
 70
     1
102
RTVSPropertyOp4
 70
     1
102
RTVSPropertyOp5
 70
     1
102
RTVSPropertyOp6
 70
     1
102
RTVSPropertyOp7
 70
     1
102
RTVSPropertyOp8
 70
     1
102
RTVSPropertyOp9
 70
     1
102
RTVSPropertyOp10
 70
     1
102
RTVSPropertyOp11
 70
     1
102
RTVSPropertyOp12
 70
     1
102
RTVSPropertyOp13
 70
     1
102
RTVSPropertyOp14
 70
     1
102
RTVSPropertyOp15
 70
     1
102
RTVSPropertyOp16
 70
     1
102
RTVSPropertyOp17
 70
     1
102
RTVSPropertyOp18
 70
     1
102
RTVSPropertyOp19
 70
     1
102
RTVSPropertyOp20
 70
     1
102
RTVSPropertyOp21
 70
     1
102
RTVSPropertyOp22
 70
     1
102
RTVSPropertyOp23
 70
     1
102
RTVSPropertyOp24
 70
     1
102
RTVSPropertyOp25
 70
     1
102
RTVSPropertyOp26
 70
     1
102
RTVSPropertyOp27
 70
     1
102
RTVSPropertyOp28
 70
     1
102
RTVSPropertyOp29
 70
     1
102
RTVSPropertyOp30
 70
     1
102
RTVSPropertyOp31
 70
     1
102
RTVSPropertyOp32
 70
     1
  0
XRECORD
  5
D8
102
{ACAD_REACTORS
330
D7
102
}
330
D7
100
AcDbXrecord
280
     1
102
RTVSPropertyOp0
 70
     1
102
RTVSPropertyOp1
 70
     1
102
RTVSPropertyOp2
 70
     1
102
RTVSPropertyOp3
 70
     1
102
RTVSPropertyOp4
 70
     1
102
RTVSPropertyOp5
 70
     1
102
RTVSPropertyOp6
 70
     1
102
RTVSPropertyOp7
 70
     1
102
RTVSPropertyOp8
 70
     1
102
RTVSPropertyOp9
 70
     1
102
RTVSPropertyOp10
 70
     1
102
RTVSPropertyOp11
 70
     1
102
RTVSPropertyOp12
 70
     1
102
RTVSPropertyOp13
 70
     1
102
RTVSPropertyOp14
 70
     1
102
RTVSPropertyOp15
 70
     1
102
RTVSPropertyOp16
 70
     1
102
RTVSPropertyOp17
 70
     1
102
RTVSPropertyOp18
 70
     1
102
RTVSPropertyOp19
 70
     1
102
RTVSPropertyOp20
 70
     1
102
RTVSPropertyOp21
 70
     1
102
RTVSPropertyOp22
 70
     1
102
RTVSPropertyOp23
 70
     1
102
RTVSPropertyOp24
 70
     1
102
RTVSPropertyOp25
 70
     1
102
RTVSPropertyOp26
 70
     1
102
RTVSPropertyOp27
 70
     1
102
RTVSPropertyOp28
 70
     1
102
RTVSPropertyOp29
 70
     1
102
RTVSPropertyOp30
 70
     1
102
RTVSPropertyOp31
 70
     1
102
RTVSPropertyOp32
 70
     1
  0
ENDSEC
  0
EOF
