  0
SECTION
  2
HEADER
  9
$ACADVER
  1
AC1021
  9
$ACADMAINTVER
 70
    25
  9
$DWGCODEPAGE
  3
ANSI_1256
  9
$INSBASE
 10
0.0
 20
0.0
 30
0.0
  9
$EXTMIN
 10
72.5119
 20
-105.9368
 30
0.0
  9
$EXTMAX
 10
196.2599
 20
121.5853
 30
0.0
  9
$LIMMIN
 10
0.0
 20
0.0
  9
$LIMMAX
 10
12.0
 20
9.0
  9
$ORTHOMODE
 70
     0
  9
$REGENMODE
 70
     1
  9
$FILLMODE
 70
     1
  9
$QTEXTMODE
 70
     0
  9
$MIRRTEXT
 70
     1
  9
$LTSCALE
 40
1.0
  9
$ATTMODE
 70
     1
  9
$TEXTSIZE
 40
0.2
  9
$TRACEWID
 40
0.05
  9
$TEXTSTYLE
  7
Standard
  9
$CLAYER
  8
0
  9
$CELTYPE
  6
ByLayer
  9
$CECOLOR
 62
   256
  9
$CELTSCALE
 40
1.0
  9
$DISPSILH
 70
     0
  9
$DIMSCALE
 40
1.0
  9
$DIMASZ
 40
0.18
  9
$DIMEXO
 40
0.0625
  9
$DIMDLI
 40
0.38
  9
$DIMRND
 40
0.0
  9
$DIMDLE
 40
0.0
  9
$DIMEXE
 40
0.18
  9
$DIMTP
 40
0.0
  9
$DIMTM
 40
0.0
  9
$DIMTXT
 40
0.18
  9
$DIMCEN
 40
0.09
  9
$DIMTSZ
 40
0.0
  9
$DIMTOL
 70
     0
  9
$DIMLIM
 70
     0
  9
$DIMTIH
 70
     1
  9
$DIMTOH
 70
     1
  9
$DIMSE1
 70
     0
  9
$DIMSE2
 70
     0
  9
$DIMTAD
 70
     0
  9
$DIMZIN
 70
     0
  9
$DIMBLK
  1

  9
$DIMASO
 70
     1
  9
$DIMSHO
 70
     1
  9
$DIMPOST
  1

  9
$DIMAPOST
  1

  9
$DIMALT
 70
     0
  9
$DIMALTD
 70
     2
  9
$DIMALTF
 40
25.4
  9
$DIMLFAC
 40
1.0
  9
$DIMTOFL
 70
     0
  9
$DIMTVP
 40
0.0
  9
$DIMTIX
 70
     0
  9
$DIMSOXD
 70
     0
  9
$DIMSAH
 70
     0
  9
$DIMBLK1
  1

  9
$DIMBLK2
  1

  9
$DIMSTYLE
  2
Standard
  9
$DIMCLRD
 70
     0
  9
$DIMCLRE
 70
     0
  9
$DIMCLRT
 70
     0
  9
$DIMTFAC
 40
1.0
  9
$DIMGAP
 40
0.09
  9
$DIMJUST
 70
     0
  9
$DIMSD1
 70
     0
  9
$DIMSD2
 70
     0
  9
$DIMTOLJ
 70
     1
  9
$DIMTZIN
 70
     0
  9
$DIMALTZ
 70
     0
  9
$DIMALTTZ
 70
     0
  9
$DIMUPT
 70
     0
  9
$DIMDEC
 70
     4
  9
$DIMTDEC
 70
     4
  9
$DIMALTU
 70
     2
  9
$DIMALTTD
 70
     2
  9
$DIMTXSTY
  7
Standard
  9
$DIMAUNIT
 70
     0
  9
$DIMADEC
 70
     0
  9
$DIMALTRND
 40
0.0
  9
$DIMAZIN
 70
     0
  9
$DIMDSEP
 70
    46
  9
$DIMATFIT
 70
     3
  9
$DIMFRAC
 70
     0
  9
$DIMLDRBLK
  1

  9
$DIMLUNIT
 70
     2
  9
$DIMLWD
 70
    -2
  9
$DIMLWE
 70
    -2
  9
$DIMTMOVE
 70
     0
  9
$DIMFXL
 40
1.0
  9
$DIMFXLON
 70
     0
  9
$DIMJOGANG
 40
0.7853981633974483
  9
$DIMTFILL
 70
     0
  9
$DIMTFILLCLR
 70
     0
  9
$DIMARCSYM
 70
     0
  9
$DIMLTYPE
  6

  9
$DIMLTEX1
  6

  9
$DIMLTEX2
  6

  9
$LUNITS
 70
     2
  9
$LUPREC
 70
     4
  9
$SKETCHINC
 40
0.1
  9
$FILLETRAD
 40
0.5
  9
$AUNITS
 70
     0
  9
$AUPREC
 70
     0
  9
$MENU
  1
.
  9
$ELEVATION
 40
0.0
  9
$PELEVATION
 40
0.0
  9
$THICKNESS
 40
0.0
  9
$LIMCHECK
 70
     0
  9
$CHAMFERA
 40
0.5
  9
$CHAMFERB
 40
0.5
  9
$CHAMFERC
 40
1.0
  9
$CHAMFERD
 40
0.0
  9
$SKPOLY
 70
     0
  9
$TDCREATE
 40
2458479.311739699
  9
$TDUCREATE
 40
2458479.145073032
  9
$TDUPDATE
 40
2458479.311739977
  9
$TDUUPDATE
 40
2458479.14507331
  9
$TDINDWG
 40
0.0000000116
  9
$TDUSRTIMER
 40
0.0000000116
  9
$USRTIMER
 70
     1
  9
$ANGBASE
 50
0.0
  9
$ANGDIR
 70
     0
  9
$PDMODE
 70
     0
  9
$PDSIZE
 40
0.0
  9
$PLINEWID
 40
0.0
  9
$SPLFRAME
 70
     0
  9
$SPLINETYPE
 70
     6
  9
$SPLINESEGS
 70
     8
  9
$HANDSEED
  5
10B
  9
$SURFTAB1
 70
     6
  9
$SURFTAB2
 70
     6
  9
$SURFTYPE
 70
     6
  9
$SURFU
 70
     6
  9
$SURFV
 70
     6
  9
$UCSBASE
  2

  9
$UCSNAME
  2

  9
$UCSORG
 10
0.0
 20
0.0
 30
0.0
  9
$UCSXDIR
 10
1.0
 20
0.0
 30
0.0
  9
$UCSYDIR
 10
0.0
 20
1.0
 30
0.0
  9
$UCSORTHOREF
  2

  9
$UCSORTHOVIEW
 70
     0
  9
$UCSORGTOP
 10
0.0
 20
0.0
 30
0.0
  9
$UCSORGBOTTOM
 10
0.0
 20
0.0
 30
0.0
  9
$UCSORGLEFT
 10
0.0
 20
0.0
 30
0.0
  9
$UCSORGRIGHT
 10
0.0
 20
0.0
 30
0.0
  9
$UCSORGFRONT
 10
0.0
 20
0.0
 30
0.0
  9
$UCSORGBACK
 10
0.0
 20
0.0
 30
0.0
  9
$PUCSBASE
  2

  9
$PUCSNAME
  2

  9
$PUCSORG
 10
0.0
 20
0.0
 30
0.0
  9
$PUCSXDIR
 10
1.0
 20
0.0
 30
0.0
  9
$PUCSYDIR
 10
0.0
 20
1.0
 30
0.0
  9
$PUCSORTHOREF
  2

  9
$PUCSORTHOVIEW
 70
     0
  9
$PUCSORGTOP
 10
0.0
 20
0.0
 30
0.0
  9
$PUCSORGBOTTOM
 10
0.0
 20
0.0
 30
0.0
  9
$PUCSORGLEFT
 10
0.0
 20
0.0
 30
0.0
  9
$PUCSORGRIGHT
 10
0.0
 20
0.0
 30
0.0
  9
$PUCSORGFRONT
 10
0.0
 20
0.0
 30
0.0
  9
$PUCSORGBACK
 10
0.0
 20
0.0
 30
0.0
  9
$USERI1
 70
     0
  9
$USERI2
 70
     0
  9
$USERI3
 70
     0
  9
$USERI4
 70
     0
  9
$USERI5
 70
     0
  9
$USERR1
 40
0.0
  9
$USERR2
 40
0.0
  9
$USERR3
 40
0.0
  9
$USERR4
 40
0.0
  9
$USERR5
 40
0.0
  9
$WORLDVIEW
 70
     1
  9
$SHADEDGE
 70
     3
  9
$SHADEDIF
 70
    70
  9
$TILEMODE
 70
     1
  9
$MAXACTVP
 70
    64
  9
$PINSBASE
 10
0.0
 20
0.0
 30
0.0
  9
$PLIMCHECK
 70
     0
  9
$PEXTMIN
 10
1.000000000000000E+20
 20
1.000000000000000E+20
 30
1.000000000000000E+20
  9
$PEXTMAX
 10
-1.000000000000000E+20
 20
-1.000000000000000E+20
 30
-1.000000000000000E+20
  9
$PLIMMIN
 10
0.0
 20
0.0
  9
$PLIMMAX
 10
12.0
 20
9.0
  9
$UNITMODE
 70
     0
  9
$VISRETAIN
 70
     1
  9
$PLINEGEN
 70
     0
  9
$PSLTSCALE
 70
     1
  9
$TREEDEPTH
 70
  3020
  9
$CMLSTYLE
  2
Standard
  9
$CMLJUST
 70
     0
  9
$CMLSCALE
 40
1.0
  9
$PROXYGRAPHICS
 70
     1
  9
$MEASUREMENT
 70
     0
  9
$CELWEIGHT
370
    -1
  9
$ENDCAPS
280
     0
  9
$JOINSTYLE
280
     0
  9
$LWDISPLAY
290
     0
  9
$INSUNITS
 70
     4
  9
$HYPERLINKBASE
  1

  9
$STYLESHEET
  1

  9
$XEDIT
290
     1
  9
$CEPSNTYPE
380
     0
  9
$PSTYLEMODE
290
     1
  9
$FINGERPRINTGUID
  2
{28E43C26-AC26-498D-AF2A-98B00997DE24}
  9
$VERSIONGUID
  2
{FAEB1C32-E019-11D5-929B-00C0DF256EC4}
  9
$EXTNAMES
290
     1
  9
$PSVPSCALE
 40
0.0
  9
$OLESTARTUP
290
     0
  9
$SORTENTS
280
   127
  9
$INDEXCTL
280
     0
  9
$HIDETEXT
280
     1
  9
$XCLIPFRAME
290
     0
  9
$HALOGAP
280
     0
  9
$OBSCOLOR
 70
   257
  9
$OBSLTYPE
280
     0
  9
$INTERSECTIONDISPLAY
280
     0
  9
$INTERSECTIONCOLOR
 70
   257
  9
$DIMASSOC
280
     2
  9
$PROJECTNAME
  1

  9
$CAMERADISPLAY
290
     0
  9
$LENSLENGTH
 40
50.0
  9
$CAMERAHEIGHT
 40
0.0
  9
$STEPSPERSEC
 40
2.0
  9
$STEPSIZE
 40
6.0
  9
$3DDWFPREC
 40
2.0
  9
$PSOLWIDTH
 40
0.25
  9
$PSOLHEIGHT
 40
4.0
  9
$LOFTANG1
 40
1.570796326794897
  9
$LOFTANG2
 40
1.570796326794897
  9
$LOFTMAG1
 40
0.0
  9
$LOFTMAG2
 40
0.0
  9
$LOFTPARAM
 70
     7
  9
$LOFTNORMALS
280
     1
  9
$LATITUDE
 40
37.795
  9
$LONGITUDE
 40
-122.394
  9
$NORTHDIRECTION
 40
0.0
  9
$TIMEZONE
 70
 -8000
  9
$LIGHTGLYPHDISPLAY
280
     1
  9
$TILEMODELIGHTSYNCH
280
     1
  9
$SOLIDHIST
280
     1
  9
$SHOWHIST
280
     1
  9
$DWFFRAME
280
     2
  9
$DGNFRAME
280
     2
  9
$REALWORLDSCALE
290
     1
  9
$INTERFERECOLOR
 62
   256
  9
$CSHADOW
280
     0
  9
$SHADOWPLANELOCATION
 40
0.0
  0
ENDSEC
  0
SECTION
  2
CLASSES
  0
CLASS
  1
ACDBDICTIONARYWDFLT
  2
AcDbDictionaryWithDefault
  3
ObjectDBX Classes
 90
        0
 91
        4
280
     0
281
     0
  0
CLASS
  1
VISUALSTYLE
  2
AcDbVisualStyle
  3
ObjectDBX Classes
 90
     4095
 91
        4
280
     0
281
     0
  0
CLASS
  1
MATERIAL
  2
AcDbMaterial
  3
ObjectDBX Classes
 90
     1153
 91
        4
280
     0
281
     0
  0
ENDSEC
  0
SECTION
  2
TABLES
  0
TABLE
  2
VPORT
  5
8
330
0
100
AcDbSymbolTable
 70
     1
  0
VPORT
  5
29
330
8
100
AcDbSymbolTableRecord
100
AcDbViewportTableRecord
  2
*Active
 70
     0
 10
0.0
 20
0.0
 11
1.0
 21
1.0
 12
10.42990654205607
 22
4.5
 13
0.0
 23
0.0
 14
0.5
 24
0.5
 15
0.5
 25
0.5
 16
0.0
 26
0.0
 36
1.0
 17
0.0
 27
0.0
 37
0.0
 40
9.0
 41
1.972972972850329
 42
50.0
 43
0.0
 44
0.0
 50
0.0
 51
0.0
 71
     0
 72
   100
 73
     1
 74
     3
 75
     0
 76
     0
 77
     0
 78
     0
281
     0
 65
     1
110
0.0
120
0.0
130
0.0
111
1.0
121
0.0
131
0.0
112
0.0
122
1.0
132
0.0
 79
     0
146
0.0
 60
     3
 61
     5
292
     1
282
     1
141
0.0
142
0.0
 63
   250
  0
ENDTAB
  0
TABLE
  2
LTYPE
  5
5
330
0
100
AcDbSymbolTable
 70
     1
  0
LTYPE
  5
14
330
5
100
AcDbSymbolTableRecord
100
AcDbLinetypeTableRecord
  2
ByBlock
 70
     0
  3

 72
    65
 73
     0
 40
0.0
  0
LTYPE
  5
15
330
5
100
AcDbSymbolTableRecord
100
AcDbLinetypeTableRecord
  2
ByLayer
 70
     0
  3

 72
    65
 73
     0
 40
0.0
  0
LTYPE
  5
16
330
5
100
AcDbSymbolTableRecord
100
AcDbLinetypeTableRecord
  2
Continuous
 70
     0
  3
Solid line
 72
    65
 73
     0
 40
0.0
  0
ENDTAB
  0
TABLE
  2
LAYER
  5
2
330
0
100
AcDbSymbolTable
 70
     3
  0
LAYER
  5
10
330
2
100
AcDbSymbolTableRecord
100
AcDbLayerTableRecord
  2
0
 70
     0
 62
     7
  6
Continuous
370
    -3
390
F
347
3E
  0
LAYER
  5
40
330
2
100
AcDbSymbolTableRecord
100
AcDbLayerTableRecord
  2
layer 1
 70
     0
 62
     7
  6
Continuous
370
    -3
390
F
347
3E
  0
LAYER
  5
E8
330
2
100
AcDbSymbolTableRecord
100
AcDbLayerTableRecord
  2
Master Guides
 70
     0
 62
     7
  6
Continuous
370
    -3
390
F
347
3E
  0
ENDTAB
  0
TABLE
  2
STYLE
  5
3
330
0
100
AcDbSymbolTable
 70
     1
  0
STYLE
  5
11
330
3
100
AcDbSymbolTableRecord
100
AcDbTextStyleTableRecord
  2
Standard
 70
     0
 40
0.0
 41
1.0
 50
0.0
 71
     0
 42
0.2
  3
txt
  4

  0
ENDTAB
  0
TABLE
  2
VIEW
  5
6
330
0
100
AcDbSymbolTable
 70
     0
  0
ENDTAB
  0
TABLE
  2
UCS
  5
7
330
0
100
AcDbSymbolTable
 70
     0
  0
ENDTAB
  0
TABLE
  2
APPID
  5
9
330
0
100
AcDbSymbolTable
 70
     2
  0
APPID
  5
12
330
9
100
AcDbSymbolTableRecord
100
AcDbRegAppTableRecord
  2
ACAD
 70
     0
  0
APPID
  5
3F
330
9
100
AcDbSymbolTableRecord
100
AcDbRegAppTableRecord
  2
ODA
 70
     0
  0
ENDTAB
  0
TABLE
  2
DIMSTYLE
  5
A
330
0
100
AcDbSymbolTable
 70
     1
100
AcDbDimStyleTable
  0
DIMSTYLE
105
27
330
A
100
AcDbSymbolTableRecord
100
AcDbDimStyleTableRecord
  2
Standard
 70
     0
178
     0
340
11
  0
ENDTAB
  0
TABLE
  2
BLOCK_RECORD
  5
1
330
0
100
AcDbSymbolTable
 70
     1
  0
BLOCK_RECORD
  5
1F
330
1
100
AcDbSymbolTableRecord
100
AcDbBlockTableRecord
  2
*Model_Space
340
22
 70
     0
280
     1
281
     0
  0
BLOCK_RECORD
  5
1B
330
1
100
AcDbSymbolTableRecord
100
AcDbBlockTableRecord
  2
*Paper_Space
340
1E
 70
     0
280
     1
281
     0
  0
BLOCK_RECORD
  5
23
330
1
100
AcDbSymbolTableRecord
100
AcDbBlockTableRecord
  2
*Paper_Space0
340
26
 70
     0
280
     1
281
     0
  0
ENDTAB
  0
ENDSEC
  0
SECTION
  2
BLOCKS
  0
BLOCK
  5
20
330
1F
100
AcDbEntity
  8
0
100
AcDbBlockBegin
  2
*Model_Space
 70
     0
 10
0.0
 20
0.0
 30
0.0
  3
*Model_Space
  1

  0
ENDBLK
  5
21
330
1F
100
AcDbEntity
  8
0
100
AcDbBlockEnd
  0
BLOCK
  5
1C
330
1B
100
AcDbEntity
 67
     1
  8
0
100
AcDbBlockBegin
  2
*Paper_Space
 70
     0
 10
0.0
 20
0.0
 30
0.0
  3
*Paper_Space
  1

  0
ENDBLK
  5
1D
330
1B
100
AcDbEntity
 67
     1
  8
0
100
AcDbBlockEnd
  0
BLOCK
  5
24
330
23
100
AcDbEntity
  8
0
100
AcDbBlockBegin
  2
*Paper_Space0
 70
     0
 10
0.0
 20
0.0
 30
0.0
  3
*Paper_Space0
  1

  0
ENDBLK
  5
25
330
23
100
AcDbEntity
  8
0
100
AcDbBlockEnd
  0
ENDSEC
  0
SECTION
  2
ENTITIES
  0
SPLINE
  5
41
330
1F
100
AcDbEntity
  8
layer 1
 62
   250
370
     9
100
AcDbSpline
210
0.0
220
0.0
230
1.0
 70
    11
 71
     3
 72
    20
 73
    16
 74
     0
 42
0.0000000001
 43
0.0000000001
 12
1.0
 22
0.0
 32
0.0
 13
1.0
 23
0.0
 33
0.0
 40
0.0
 40
0.0
 40
0.0
 40
0.0
 40
0.2
 40
0.2
 40
0.2
 40
0.2
 40
0.4
 40
0.4
 40
0.4
 40
0.4
 40
0.6
 40
0.6
 40
0.6
 40
0.6
 40
1.0
 40
1.0
 40
1.0
 40
1.0
 10
72.55
 20
121.5472
 30
0.0
 10
72.55
 20
121.5472
 30
0.0
 10
196.2218
 20
121.5472
 30
0.0
 10
196.2218
 20
121.5472
 30
0.0
 10
196.2218
 20
121.5472
 30
0.0
 10
196.2218
 20
121.5472
 30
0.0
 10
196.2218
 20
-105.8987
 30
0.0
 10
196.2218
 20
-105.8987
 30
0.0
 10
196.2218
 20
-105.8987
 30
0.0
 10
196.2218
 20
-105.8987
 30
0.0
 10
72.55
 20
-105.8987
 30
0.0
 10
72.55
 20
-105.8987
 30
0.0
 10
72.55
 20
-105.8987
 30
0.0
 10
72.55
 20
-105.8987
 30
0.0
 10
72.55
 20
121.5472
 30
0.0
 10
72.55
 20
121.5472
 30
0.0
  0
SPLINE
  5
42
330
1F
100
AcDbEntity
  8
layer 1
 62
     7
100
AcDbSpline
210
0.0
220
0.0
230
1.0
 70
    11
 71
     3
 72
    36
 73
    32
 74
     0
 42
0.0000000001
 43
0.0000000001
 12
1.0
 22
0.0
 32
0.0
 13
1.0
 23
0.0
 33
0.0
 40
0.0
 40
0.0
 40
0.0
 40
0.0
 40
0.1111111111111111
 40
0.1111111111111111
 40
0.1111111111111111
 40
0.1111111111111111
 40
0.2222222222222222
 40
0.2222222222222222
 40
0.2222222222222222
 40
0.2222222222222222
 40
0.3333333333333333
 40
0.3333333333333333
 40
0.3333333333333333
 40
0.3333333333333333
 40
0.4444444444444444
 40
0.4444444444444444
 40
0.4444444444444444
 40
0.4444444444444444
 40
0.5555555555555556
 40
0.5555555555555556
 40
0.5555555555555556
 40
0.5555555555555556
 40
0.6666666666666666
 40
0.6666666666666666
 40
0.6666666666666666
 40
0.6666666666666666
 40
0.7777777777777778
 40
0.7777777777777778
 40
0.7777777777777778
 40
0.7777777777777778
 40
1.0
 40
1.0
 40
1.0
 40
1.0
 10
167.4891
 20
-87.4739
 30
0.0
 10
171.7336
 20
-87.1253
 30
0.0
 10
175.3252
 20
-84.4992
 30
0.0
 10
177.0095
 20
-80.8352
 30
0.0
 10
177.0095
 20
-80.8352
 30
0.0
 10
178.6541
 20
-84.4913
 30
0.0
 10
182.191
 20
-87.1318
 30
0.0
 10
186.3883
 20
-87.5417
 30
0.0
 10
186.3883
 20
-87.5417
 30
0.0
 10
186.743
 20
-90.6626
 30
0.0
 10
188.3736
 20
-93.4018
 30
0.0
 10
190.7529
 20
-95.2375
 30
0.0
 10
190.7529
 20
-95.2375
 30
0.0
 10
190.7529
 20
-95.2375
 30
0.0
 10
190.7529
 20
-98.3936
 30
0.0
 10
190.7529
 20
-98.3936
 30
0.0
 10
190.7529
 20
-98.3936
 30
0.0
 10
189.9322
 20
-99.0609
 30
0.0
 10
189.2041
 20
-99.8409
 30
0.0
 10
188.59
 20
-100.7102
 30
0.0
 10
188.59
 20
-100.7102
 30
0.0
 10
188.59
 20
-100.7102
 30
0.0
 10
164.7822
 20
-100.7102
 30
0.0
 10
164.7822
 20
-100.7102
 30
0.0
 10
164.7822
 20
-100.7102
 30
0.0
 10
163.6162
 20
-99.1955
 30
0.0
 10
162.0879
 20
-97.9842
 30
0.0
 10
160.3307
 20
-97.2098
 30
0.0
 10
160.3307
 20
-97.2098
 30
0.0
 10
164.2457
 20
-95.6348
 30
0.0
 10
167.0975
 20
-91.9137
 30
0.0
 10
167.4891
 20
-87.4739
 30
0.0
  0
SPLINE
  5
43
330
1F
100
AcDbEntity
  8
layer 1
 62
     7
100
AcDbSpline
210
0.0
220
0.0
230
1.0
 70
    11
 71
     3
 72
    32
 73
    28
 74
     0
 42
0.0000000001
 43
0.0000000001
 12
1.0
 22
0.0
 32
0.0
 13
1.0
 23
0.0
 33
0.0
 40
0.0
 40
0.0
 40
0.0
 40
0.0
 40
0.125
 40
0.125
 40
0.125
 40
0.125
 40
0.25
 40
0.25
 40
0.25
 40
0.25
 40
0.375
 40
0.375
 40
0.375
 40
0.375
 40
0.5
 40
0.5
 40
0.5
 40
0.5
 40
0.625
 40
0.625
 40
0.625
 40
0.625
 40
0.75
 40
0.75
 40
0.75
 40
0.75
 40
1.0
 40
1.0
 40
1.0
 40
1.0
 10
125.2036
 20
-87.6365
 30
0.0
 10
129.4481
 20
-87.2879
 30
0.0
 10
133.0392
 20
-84.6618
 30
0.0
 10
134.724
 20
-80.9978
 30
0.0
 10
134.724
 20
-80.9978
 30
0.0
 10
136.3682
 20
-84.6539
 30
0.0
 10
139.9055
 20
-87.2944
 30
0.0
 10
144.1028
 20
-87.7043
 30
0.0
 10
144.1028
 20
-87.7043
 30
0.0
 10
144.5772
 20
-91.8843
 30
0.0
 10
147.343
 20
-95.3805
 30
0.0
 10
151.1271
 20
-96.9364
 30
0.0
 10
151.1271
 20
-96.9364
 30
0.0
 10
149.2484
 20
-97.7524
 30
0.0
 10
147.6267
 20
-99.0642
 30
0.0
 10
146.4214
 20
-100.7102
 30
0.0
 10
146.4214
 20
-100.7102
 30
0.0
 10
146.4214
 20
-100.7102
 30
0.0
 10
122.3691
 20
-100.7102
 30
0.0
 10
122.3691
 20
-100.7102
 30
0.0
 10
122.3691
 20
-100.7102
 30
0.0
 10
121.2204
 20
-99.2717
 30
0.0
 10
119.7389
 20
-98.1188
 30
0.0
 10
118.0452
 20
-97.3724
 30
0.0
 10
118.0452
 20
-97.3724
 30
0.0
 10
121.9597
 20
-95.7974
 30
0.0
 10
124.812
 20
-92.0764
 30
0.0
 10
125.2036
 20
-87.6365
 30
0.0
  0
SPLINE
  5
44
330
1F
100
AcDbEntity
  8
layer 1
 62
     7
100
AcDbSpline
210
0.0
220
0.0
230
1.0
 70
    11
 71
     3
 72
    36
 73
    32
 74
     0
 42
0.0000000001
 43
0.0000000001
 12
1.0
 22
0.0
 32
0.0
 13
1.0
 23
0.0
 33
0.0
 40
0.0
 40
0.0
 40
0.0
 40
0.0
 40
0.1111111111111111
 40
0.1111111111111111
 40
0.1111111111111111
 40
0.1111111111111111
 40
0.2222222222222222
 40
0.2222222222222222
 40
0.2222222222222222
 40
0.2222222222222222
 40
0.3333333333333333
 40
0.3333333333333333
 40
0.3333333333333333
 40
0.3333333333333333
 40
0.4444444444444444
 40
0.4444444444444444
 40
0.4444444444444444
 40
0.4444444444444444
 40
0.5555555555555556
 40
0.5555555555555556
 40
0.5555555555555556
 40
0.5555555555555556
 40
0.6666666666666666
 40
0.6666666666666666
 40
0.6666666666666666
 40
0.6666666666666666
 40
0.7777777777777778
 40
0.7777777777777778
 40
0.7777777777777778
 40
0.7777777777777778
 40
1.0
 40
1.0
 40
1.0
 40
1.0
 10
125.2036
 20
-45.3506
 30
0.0
 10
129.4481
 20
-45.0019
 30
0.0
 10
133.0392
 20
-42.3764
 30
0.0
 10
134.724
 20
-38.7118
 30
0.0
 10
134.724
 20
-38.7118
 30
0.0
 10
136.3682
 20
-42.3679
 30
0.0
 10
139.9055
 20
-45.0085
 30
0.0
 10
144.1028
 20
-45.4188
 30
0.0
 10
144.1028
 20
-45.4188
 30
0.0
 10
144.5772
 20
-49.5988
 30
0.0
 10
147.343
 20
-53.0951
 30
0.0
 10
151.1271
 20
-54.6509
 30
0.0
 10
151.1271
 20
-54.6509
 30
0.0
 10
147.2972
 20
-56.3146
 30
0.0
 10
144.5361
 20
-60.038
 30
0.0
 10
144.1902
 20
-64.4526
 30
0.0
 10
144.1902
 20
-64.4526
 30
0.0
 10
139.8462
 20
-64.9069
 30
0.0
 10
136.2214
 20
-67.7512
 30
0.0
 10
134.6885
 20
-71.6316
 30
0.0
 10
134.6885
 20
-71.6316
 30
0.0
 10
133.1103
 20
-67.6577
 30
0.0
 10
129.3373
 20
-64.7732
 30
0.0
 10
124.8456
 20
-64.4381
 30
0.0
 10
124.8456
 20
-64.4381
 30
0.0
 10
124.3881
 20
-60.2324
 30
0.0
 10
121.7167
 20
-56.7049
 30
0.0
 10
118.0452
 20
-55.0869
 30
0.0
 10
118.0452
 20
-55.0869
 30
0.0
 10
121.9597
 20
-53.5115
 30
0.0
 10
124.812
 20
-49.7909
 30
0.0
 10
125.2036
 20
-45.3506
 30
0.0
  0
SPLINE
  5
45
330
1F
100
AcDbEntity
  8
layer 1
 62
     7
100
AcDbSpline
210
0.0
220
0.0
230
1.0
 70
    11
 71
     3
 72
    36
 73
    32
 74
     0
 42
0.0000000001
 43
0.0000000001
 12
1.0
 22
0.0
 32
0.0
 13
1.0
 23
0.0
 33
0.0
 40
0.0
 40
0.0
 40
0.0
 40
0.0
 40
0.1111111111111111
 40
0.1111111111111111
 40
0.1111111111111111
 40
0.1111111111111111
 40
0.2222222222222222
 40
0.2222222222222222
 40
0.2222222222222222
 40
0.2222222222222222
 40
0.3333333333333333
 40
0.3333333333333333
 40
0.3333333333333333
 40
0.3333333333333333
 40
0.4444444444444444
 40
0.4444444444444444
 40
0.4444444444444444
 40
0.4444444444444444
 40
0.5555555555555556
 40
0.5555555555555556
 40
0.5555555555555556
 40
0.5555555555555556
 40
0.6666666666666666
 40
0.6666666666666666
 40
0.6666666666666666
 40
0.6666666666666666
 40
0.7777777777777778
 40
0.7777777777777778
 40
0.7777777777777778
 40
0.7777777777777778
 40
1.0
 40
1.0
 40
1.0
 40
1.0
 10
83.5065
 20
-87.7076
 30
0.0
 10
87.6893
 20
-87.3636
 30
0.0
 10
91.2281
 20
-84.7763
 30
0.0
 10
92.8881
 20
-81.1656
 30
0.0
 10
92.8881
 20
-81.1656
 30
0.0
 10
94.5084
 20
-84.7679
 30
0.0
 10
97.9939
 20
-87.3701
 30
0.0
 10
102.1305
 20
-87.7739
 30
0.0
 10
102.1305
 20
-87.7739
 30
0.0
 10
102.5978
 20
-91.8932
 30
0.0
 10
105.3229
 20
-95.3385
 30
0.0
 10
109.0519
 20
-96.8719
 30
0.0
 10
109.0519
 20
-96.8719
 30
0.0
 10
107.1554
 20
-97.6958
 30
0.0
 10
105.5244
 20
-99.032
 30
0.0
 10
104.3284
 20
-100.7102
 30
0.0
 10
104.3284
 20
-100.7102
 30
0.0
 10
104.3284
 20
-100.7102
 30
0.0
 10
80.8099
 20
-100.7102
 30
0.0
 10
80.8099
 20
-100.7102
 30
0.0
 10
80.8099
 20
-100.7102
 30
0.0
 10
80.15
 20
-99.861
 30
0.0
 10
79.3742
 20
-99.1105
 30
0.0
 10
78.5068
 20
-98.4814
 30
0.0
 10
78.5068
 20
-98.4814
 30
0.0
 10
78.5068
 20
-98.4814
 30
0.0
 10
78.5068
 20
-96.2115
 30
0.0
 10
78.5068
 20
-96.2115
 30
0.0
 10
78.5068
 20
-96.2115
 30
0.0
 10
81.2815
 20
-94.3463
 30
0.0
 10
83.1929
 20
-91.2613
 30
0.0
 10
83.5065
 20
-87.7076
 30
0.0
  0
SPLINE
  5
46
330
1F
100
AcDbEntity
  8
layer 1
 62
     7
100
AcDbSpline
210
0.0
220
0.0
230
1.0
 70
    11
 71
     3
 72
    40
 73
    36
 74
     0
 42
0.0000000001
 43
0.0000000001
 12
1.0
 22
0.0
 32
0.0
 13
1.0
 23
0.0
 33
0.0
 40
0.0
 40
0.0
 40
0.0
 40
0.0
 40
0.1
 40
0.1
 40
0.1
 40
0.1
 40
0.2
 40
0.2
 40
0.2
 40
0.2
 40
0.3
 40
0.3
 40
0.3
 40
0.3
 40
0.4
 40
0.4
 40
0.4
 40
0.4
 40
0.5
 40
0.5
 40
0.5
 40
0.5
 40
0.6
 40
0.6
 40
0.6
 40
0.6
 40
0.7
 40
0.7
 40
0.7
 40
0.7
 40
0.8
 40
0.8
 40
0.8
 40
0.8
 40
1.0
 40
1.0
 40
1.0
 40
1.0
 10
167.4335
 20
-45.445
 30
0.0
 10
171.6308
 20
-45.1001
 30
0.0
 10
175.1822
 20
-42.5035
 30
0.0
 10
176.8483
 20
-38.8796
 30
0.0
 10
176.8483
 20
-38.8796
 30
0.0
 10
178.4747
 20
-42.4955
 30
0.0
 10
181.9728
 20
-45.1066
 30
0.0
 10
186.1233
 20
-45.5123
 30
0.0
 10
186.1233
 20
-45.5123
 30
0.0
 10
186.4734
 20
-48.5931
 30
0.0
 10
188.0815
 20
-51.2981
 30
0.0
 10
190.4276
 20
-53.1133
 30
0.0
 10
190.4276
 20
-53.1133
 30
0.0
 10
190.4276
 20
-53.1133
 30
0.0
 10
190.4276
 20
-56.2539
 30
0.0
 10
190.4276
 20
-56.2539
 30
0.0
 10
190.4276
 20
-56.2539
 30
0.0
 10
188.0568
 20
-58.1878
 30
0.0
 10
186.4659
 20
-61.0709
 30
0.0
 10
186.2103
 20
-64.3358
 30
0.0
 10
186.2103
 20
-64.3358
 30
0.0
 10
181.9134
 20
-64.7849
 30
0.0
 10
178.3288
 20
-67.5979
 30
0.0
 10
176.8132
 20
-71.4353
 30
0.0
 10
176.8132
 20
-71.4353
 30
0.0
 10
175.2527
 20
-67.5054
 30
0.0
 10
171.5209
 20
-64.6527
 30
0.0
 10
167.0792
 20
-64.3213
 30
0.0
 10
167.0792
 20
-64.3213
 30
0.0
 10
166.6268
 20
-60.1623
 30
0.0
 10
163.9844
 20
-56.6736
 30
0.0
 10
160.3536
 20
-55.0734
 30
0.0
 10
160.3536
 20
-55.0734
 30
0.0
 10
164.2251
 20
-53.5157
 30
0.0
 10
167.046
 20
-49.8362
 30
0.0
 10
167.4335
 20
-45.445
 30
0.0
  0
SPLINE
  5
47
330
1F
100
AcDbEntity
  8
layer 1
 62
     7
100
AcDbSpline
210
0.0
220
0.0
230
1.0
 70
    11
 71
     3
 72
    40
 73
    36
 74
     0
 42
0.0000000001
 43
0.0000000001
 12
1.0
 22
0.0
 32
0.0
 13
1.0
 23
0.0
 33
0.0
 40
0.0
 40
0.0
 40
0.0
 40
0.0
 40
0.1
 40
0.1
 40
0.1
 40
0.1
 40
0.2
 40
0.2
 40
0.2
 40
0.2
 40
0.3
 40
0.3
 40
0.3
 40
0.3
 40
0.4
 40
0.4
 40
0.4
 40
0.4
 40
0.5
 40
0.5
 40
0.5
 40
0.5
 40
0.6
 40
0.6
 40
0.6
 40
0.6
 40
0.7
 40
0.7
 40
0.7
 40
0.7
 40
0.8
 40
0.8
 40
0.8
 40
0.8
 40
1.0
 40
1.0
 40
1.0
 40
1.0
 10
83.5065
 20
-45.7469
 30
0.0
 10
87.6893
 20
-45.4034
 30
0.0
 10
91.2281
 20
-42.8161
 30
0.0
 10
92.8881
 20
-39.2049
 30
0.0
 10
92.8881
 20
-39.2049
 30
0.0
 10
94.5084
 20
-42.8077
 30
0.0
 10
97.9939
 20
-45.4099
 30
0.0
 10
102.1305
 20
-45.8137
 30
0.0
 10
102.1305
 20
-45.8137
 30
0.0
 10
102.5978
 20
-49.933
 30
0.0
 10
105.3229
 20
-53.3783
 30
0.0
 10
109.0519
 20
-54.9112
 30
0.0
 10
109.0519
 20
-54.9112
 30
0.0
 10
105.2781
 20
-56.5507
 30
0.0
 10
102.5572
 20
-60.2198
 30
0.0
 10
102.2165
 20
-64.5699
 30
0.0
 10
102.2165
 20
-64.5699
 30
0.0
 10
97.9355
 20
-65.0181
 30
0.0
 10
94.3636
 20
-67.8208
 30
0.0
 10
92.8531
 20
-71.6447
 30
0.0
 10
92.8531
 20
-71.6447
 30
0.0
 10
91.2982
 20
-67.7283
 30
0.0
 10
87.5804
 20
-64.8863
 30
0.0
 10
83.1541
 20
-64.5564
 30
0.0
 10
83.1541
 20
-64.5564
 30
0.0
 10
82.7938
 20
-61.2452
 30
0.0
 10
81.0422
 20
-58.3602
 30
0.0
 10
78.5068
 20
-56.5212
 30
0.0
 10
78.5068
 20
-56.5212
 30
0.0
 10
78.5068
 20
-56.5212
 30
0.0
 10
78.5068
 20
-54.2513
 30
0.0
 10
78.5068
 20
-54.2513
 30
0.0
 10
78.5068
 20
-54.2513
 30
0.0
 10
81.2815
 20
-52.3856
 30
0.0
 10
83.1929
 20
-49.3011
 30
0.0
 10
83.5065
 20
-45.7469
 30
0.0
  0
SPLINE
  5
48
330
1F
100
AcDbEntity
  8
layer 1
 62
     7
100
AcDbSpline
210
0.0
220
0.0
230
1.0
 70
    11
 71
     3
 72
    12
 73
     8
 74
     0
 42
0.0000000001
 43
0.0000000001
 12
1.0
 22
0.0
 32
0.0
 13
1.0
 23
0.0
 33
0.0
 40
0.0
 40
0.0
 40
0.0
 40
0.0
 40
0.3333333333333333
 40
0.3333333333333333
 40
0.3333333333333333
 40
0.3333333333333333
 40
1.0
 40
1.0
 40
1.0
 40
1.0
 10
114.5176
 20
-54.3803
 30
0.0
 10
119.0201
 20
-53.8966
 30
0.0
 10
122.5705
 20
-50.2741
 30
0.0
 10
122.8827
 20
-45.7717
 30
0.0
 10
122.8827
 20
-45.7717
 30
0.0
 10
118.3807
 20
-46.2554
 30
0.0
 10
114.8298
 20
-49.8783
 30
0.0
 10
114.5176
 20
-54.3803
 30
0.0
  0
SPLINE
  5
49
330
1F
100
AcDbEntity
  8
layer 1
 62
     7
100
AcDbSpline
210
0.0
220
0.0
230
1.0
 70
    11
 71
     3
 72
    12
 73
     8
 74
     0
 42
0.0000000001
 43
0.0000000001
 12
1.0
 22
0.0
 32
0.0
 13
1.0
 23
0.0
 33
0.0
 40
0.0
 40
0.0
 40
0.0
 40
0.0
 40
0.3333333333333333
 40
0.3333333333333333
 40
0.3333333333333333
 40
0.3333333333333333
 40
1.0
 40
1.0
 40
1.0
 40
1.0
 10
104.1106
 20
-45.924
 30
0.0
 10
104.4957
 20
-50.4069
 30
0.0
 10
108.0948
 20
-53.9844
 30
0.0
 10
112.6197
 20
-54.3957
 30
0.0
 10
112.6197
 20
-54.3957
 30
0.0
 10
112.2341
 20
-49.9133
 30
0.0
 10
108.6355
 20
-46.3348
 30
0.0
 10
104.1106
 20
-45.924
 30
0.0
  0
SPLINE
  5
4A
330
1F
100
AcDbEntity
  8
layer 1
 62
     7
100
AcDbSpline
210
0.0
220
0.0
230
1.0
 70
    11
 71
     3
 72
    12
 73
     8
 74
     0
 42
0.0000000001
 43
0.0000000001
 12
1.0
 22
0.0
 32
0.0
 13
1.0
 23
0.0
 33
0.0
 40
0.0
 40
0.0
 40
0.0
 40
0.0
 40
0.3333333333333333
 40
0.3333333333333333
 40
0.3333333333333333
 40
0.3333333333333333
 40
1.0
 40
1.0
 40
1.0
 40
1.0
 10
93.635
 20
-35.3315
 30
0.0
 10
94.1341
 20
-39.7615
 30
0.0
 10
97.6023
 20
-43.2737
 30
0.0
 10
101.9627
 20
-43.7546
 30
0.0
 10
101.9627
 20
-43.7546
 30
0.0
 10
101.464
 20
-39.325
 30
0.0
 10
97.9953
 20
-35.8129
 30
0.0
 10
93.635
 20
-35.3315
 30
0.0
  0
SPLINE
  5
4B
330
1F
100
AcDbEntity
  8
layer 1
 62
     7
100
AcDbSpline
210
0.0
220
0.0
230
1.0
 70
    11
 71
     3
 72
    12
 73
     8
 74
     0
 42
0.0000000001
 43
0.0000000001
 12
1.0
 22
0.0
 32
0.0
 13
1.0
 23
0.0
 33
0.0
 40
0.0
 40
0.0
 40
0.0
 40
0.0
 40
0.3333333333333333
 40
0.3333333333333333
 40
0.3333333333333333
 40
0.3333333333333333
 40
1.0
 40
1.0
 40
1.0
 40
1.0
 10
101.8963
 20
-24.7105
 30
0.0
 10
97.5154
 20
-25.226
 30
0.0
 10
94.0481
 20
-28.8035
 30
0.0
 10
93.6177
 20
-33.2854
 30
0.0
 10
93.6177
 20
-33.2854
 30
0.0
 10
97.9995
 20
-32.7699
 30
0.0
 10
101.4654
 20
-29.1928
 30
0.0
 10
101.8963
 20
-24.7105
 30
0.0
  0
SPLINE
  5
4C
330
1F
100
AcDbEntity
  8
layer 1
 62
     7
100
AcDbSpline
210
0.0
220
0.0
230
1.0
 70
    11
 71
     3
 72
    12
 73
     8
 74
     0
 42
0.0000000001
 43
0.0000000001
 12
1.0
 22
0.0
 32
0.0
 13
1.0
 23
0.0
 33
0.0
 40
0.0
 40
0.0
 40
0.0
 40
0.0
 40
0.3333333333333333
 40
0.3333333333333333
 40
0.3333333333333333
 40
0.3333333333333333
 40
1.0
 40
1.0
 40
1.0
 40
1.0
 10
112.3519
 20
-14.1539
 30
0.0
 10
108.0322
 20
-14.6891
 30
0.0
 10
104.621
 20
-18.1189
 30
0.0
 10
104.1691
 20
-22.4172
 30
0.0
 10
104.1691
 20
-22.4172
 30
0.0
 10
108.4892
 20
-21.8821
 30
0.0
 10
111.9
 20
-18.4522
 30
0.0
 10
112.3519
 20
-14.1539
 30
0.0
  0
SPLINE
  5
4D
330
1F
100
AcDbEntity
  8
layer 1
 62
     7
100
AcDbSpline
210
0.0
220
0.0
230
1.0
 70
    11
 71
     3
 72
    12
 73
     8
 74
     0
 42
0.0000000001
 43
0.0000000001
 12
1.0
 22
0.0
 32
0.0
 13
1.0
 23
0.0
 33
0.0
 40
0.0
 40
0.0
 40
0.0
 40
0.0
 40
0.3333333333333333
 40
0.3333333333333333
 40
0.3333333333333333
 40
0.3333333333333333
 40
1.0
 40
1.0
 40
1.0
 40
1.0
 10
122.9122
 20
-22.5864
 30
0.0
 10
122.5322
 20
-18.204
 30
0.0
 10
119.0813
 20
-14.6881
 30
0.0
 10
114.6975
 20
-14.1521
 30
0.0
 10
114.6975
 20
-14.1521
 30
0.0
 10
115.0775
 20
-18.5344
 30
0.0
 10
118.5284
 20
-22.0512
 30
0.0
 10
122.9122
 20
-22.5864
 30
0.0
  0
SPLINE
  5
4E
330
1F
100
AcDbEntity
  8
layer 1
 62
     7
100
AcDbSpline
210
0.0
220
0.0
230
1.0
 70
    11
 71
     3
 72
    12
 73
     8
 74
     0
 42
0.0000000001
 43
0.0000000001
 12
1.0
 22
0.0
 32
0.0
 13
1.0
 23
0.0
 33
0.0
 40
0.0
 40
0.0
 40
0.0
 40
0.0
 40
0.3333333333333333
 40
0.3333333333333333
 40
0.3333333333333333
 40
0.3333333333333333
 40
1.0
 40
1.0
 40
1.0
 40
1.0
 10
133.6047
 20
-33.1008
 30
0.0
 10
133.1238
 20
-28.5848
 30
0.0
 10
129.5575
 20
-25.0091
 30
0.0
 10
125.0961
 20
-24.6016
 30
0.0
 10
125.0961
 20
-24.6016
 30
0.0
 10
125.577
 20
-29.1185
 30
0.0
 10
129.1434
 20
-32.6942
 30
0.0
 10
133.6047
 20
-33.1008
 30
0.0
  0
SPLINE
  5
4F
330
1F
100
AcDbEntity
  8
layer 1
 62
     7
100
AcDbSpline
210
0.0
220
0.0
230
1.0
 70
    11
 71
     3
 72
    12
 73
     8
 74
     0
 42
0.0000000001
 43
0.0000000001
 12
1.0
 22
0.0
 32
0.0
 13
1.0
 23
0.0
 33
0.0
 40
0.0
 40
0.0
 40
0.0
 40
0.0
 40
0.3333333333333333
 40
0.3333333333333333
 40
0.3333333333333333
 40
0.3333333333333333
 40
1.0
 40
1.0
 40
1.0
 40
1.0
 10
125.3597
 20
-43.6606
 30
0.0
 10
129.6607
 20
-43.1437
 30
0.0
 10
133.0752
 20
-39.6751
 30
0.0
 10
133.5921
 20
-35.3002
 30
0.0
 10
133.5921
 20
-35.3002
 30
0.0
 10
129.2906
 20
-35.8166
 30
0.0
 10
125.8766
 20
-39.2858
 30
0.0
 10
125.3597
 20
-43.6606
 30
0.0
  0
SPLINE
  5
50
330
1F
100
AcDbEntity
  8
layer 1
 62
     7
100
AcDbSpline
210
0.0
220
0.0
230
1.0
 70
    11
 71
     3
 72
    36
 73
    32
 74
     0
 42
0.0000000001
 43
0.0000000001
 12
1.0
 22
0.0
 32
0.0
 13
1.0
 23
0.0
 33
0.0
 40
0.0
 40
0.0
 40
0.0
 40
0.0
 40
0.1111111111111111
 40
0.1111111111111111
 40
0.1111111111111111
 40
0.1111111111111111
 40
0.2222222222222222
 40
0.2222222222222222
 40
0.2222222222222222
 40
0.2222222222222222
 40
0.3333333333333333
 40
0.3333333333333333
 40
0.3333333333333333
 40
0.3333333333333333
 40
0.4444444444444444
 40
0.4444444444444444
 40
0.4444444444444444
 40
0.4444444444444444
 40
0.5555555555555556
 40
0.5555555555555556
 40
0.5555555555555556
 40
0.5555555555555556
 40
0.6666666666666666
 40
0.6666666666666666
 40
0.6666666666666666
 40
0.6666666666666666
 40
0.7777777777777778
 40
0.7777777777777778
 40
0.7777777777777778
 40
0.7777777777777778
 40
1.0
 40
1.0
 40
1.0
 40
1.0
 10
104.1186
 20
-24.7731
 30
0.0
 10
108.3635
 20
-24.4244
 30
0.0
 10
111.9547
 20
-21.7984
 30
0.0
 10
113.6395
 20
-18.1344
 30
0.0
 10
113.6395
 20
-18.1344
 30
0.0
 10
115.2836
 20
-21.79
 30
0.0
 10
118.821
 20
-24.431
 30
0.0
 10
123.0183
 20
-24.8409
 30
0.0
 10
123.0183
 20
-24.8409
 30
0.0
 10
123.4926
 20
-29.0208
 30
0.0
 10
126.2579
 20
-32.5171
 30
0.0
 10
130.0426
 20
-34.0729
 30
0.0
 10
130.0426
 20
-34.0729
 30
0.0
 10
126.2126
 20
-35.7367
 30
0.0
 10
123.4515
 20
-39.4601
 30
0.0
 10
123.1057
 20
-43.8747
 30
0.0
 10
123.1057
 20
-43.8747
 30
0.0
 10
118.7616
 20
-44.3294
 30
0.0
 10
115.1369
 20
-47.1737
 30
0.0
 10
113.6035
 20
-51.0537
 30
0.0
 10
113.6035
 20
-51.0537
 30
0.0
 10
112.0257
 20
-47.0798
 30
0.0
 10
108.2528
 20
-44.1953
 30
0.0
 10
103.7611
 20
-43.8607
 30
0.0
 10
103.7611
 20
-43.8607
 30
0.0
 10
103.3035
 20
-39.6545
 30
0.0
 10
100.6317
 20
-36.1269
 30
0.0
 10
96.9602
 20
-34.509
 30
0.0
 10
96.9602
 20
-34.509
 30
0.0
 10
100.8752
 20
-32.934
 30
0.0
 10
103.7274
 20
-29.2129
 30
0.0
 10
104.1186
 20
-24.7731
 30
0.0
  0
SPLINE
  5
51
330
1F
100
AcDbEntity
  8
layer 1
 62
     7
100
AcDbSpline
210
0.0
220
0.0
230
1.0
 70
    11
 71
     3
 72
    40
 73
    36
 74
     0
 42
0.0000000001
 43
0.0000000001
 12
1.0
 22
0.0
 32
0.0
 13
1.0
 23
0.0
 33
0.0
 40
0.0
 40
0.0
 40
0.0
 40
0.0
 40
0.1
 40
0.1
 40
0.1
 40
0.1
 40
0.2
 40
0.2
 40
0.2
 40
0.2
 40
0.3
 40
0.3
 40
0.3
 40
0.3
 40
0.4
 40
0.4
 40
0.4
 40
0.4
 40
0.5
 40
0.5
 40
0.5
 40
0.5
 40
0.6
 40
0.6
 40
0.6
 40
0.6
 40
0.7
 40
0.7
 40
0.7
 40
0.7
 40
0.8
 40
0.8
 40
0.8
 40
0.8
 40
1.0
 40
1.0
 40
1.0
 40
1.0
 10
83.3439
 20
-3.7867
 30
0.0
 10
87.5267
 20
-3.4427
 30
0.0
 10
91.0655
 20
-0.8554
 30
0.0
 10
92.7255
 20
2.7553
 30
0.0
 10
92.7255
 20
2.7553
 30
0.0
 10
94.3458
 20
-0.847
 30
0.0
 10
97.8313
 20
-3.4492
 30
0.0
 10
101.9678
 20
-3.8535
 30
0.0
 10
101.9678
 20
-3.8535
 30
0.0
 10
102.4352
 20
-7.9723
 30
0.0
 10
105.1603
 20
-11.4176
 30
0.0
 10
108.8893
 20
-12.951
 30
0.0
 10
108.8893
 20
-12.951
 30
0.0
 10
105.1154
 20
-14.5904
 30
0.0
 10
102.3945
 20
-18.2596
 30
0.0
 10
102.0538
 20
-22.6097
 30
0.0
 10
102.0538
 20
-22.6097
 30
0.0
 10
97.7729
 20
-23.0574
 30
0.0
 10
94.2009
 20
-25.8606
 30
0.0
 10
92.6904
 20
-29.684
 30
0.0
 10
92.6904
 20
-29.684
 30
0.0
 10
91.1356
 20
-25.7681
 30
0.0
 10
87.4178
 20
-22.9257
 30
0.0
 10
82.9915
 20
-22.5957
 30
0.0
 10
82.9915
 20
-22.5957
 30
0.0
 10
82.6312
 20
-19.285
 30
0.0
 10
80.8795
 20
-16.4
 30
0.0
 10
78.3441
 20
-14.5605
 30
0.0
 10
78.3441
 20
-14.5605
 30
0.0
 10
78.3441
 20
-14.5605
 30
0.0
 10
78.3441
 20
-12.2911
 30
0.0
 10
78.3441
 20
-12.2911
 30
0.0
 10
78.3441
 20
-12.2911
 30
0.0
 10
81.1188
 20
-10.4254
 30
0.0
 10
83.0303
 20
-7.3404
 30
0.0
 10
83.3439
 20
-3.7867
 30
0.0
  0
SPLINE
  5
52
330
1F
100
AcDbEntity
  8
layer 1
 62
     7
100
AcDbSpline
210
0.0
220
0.0
230
1.0
 70
    11
 71
     3
 72
    40
 73
    36
 74
     0
 42
0.0000000001
 43
0.0000000001
 12
1.0
 22
0.0
 32
0.0
 13
1.0
 23
0.0
 33
0.0
 40
0.0
 40
0.0
 40
0.0
 40
0.0
 40
0.1
 40
0.1
 40
0.1
 40
0.1
 40
0.2
 40
0.2
 40
0.2
 40
0.2
 40
0.3
 40
0.3
 40
0.3
 40
0.3
 40
0.4
 40
0.4
 40
0.4
 40
0.4
 40
0.5
 40
0.5
 40
0.5
 40
0.5
 40
0.6
 40
0.6
 40
0.6
 40
0.6
 40
0.7
 40
0.7
 40
0.7
 40
0.7
 40
0.8
 40
0.8
 40
0.8
 40
0.8
 40
1.0
 40
1.0
 40
1.0
 40
1.0
 10
167.2708
 20
-3.3217
 30
0.0
 10
171.4681
 20
-2.9772
 30
0.0
 10
175.0195
 20
-0.3806
 30
0.0
 10
176.6856
 20
3.2432
 30
0.0
 10
176.6856
 20
3.2432
 30
0.0
 10
178.312
 20
-0.3727
 30
0.0
 10
181.8101
 20
-2.9838
 30
0.0
 10
185.9607
 20
-3.3894
 30
0.0
 10
185.9607
 20
-3.3894
 30
0.0
 10
186.3107
 20
-6.4702
 30
0.0
 10
187.9189
 20
-9.1748
 30
0.0
 10
190.265
 20
-10.9904
 30
0.0
 10
190.265
 20
-10.9904
 30
0.0
 10
190.265
 20
-10.9904
 30
0.0
 10
190.265
 20
-14.131
 30
0.0
 10
190.265
 20
-14.131
 30
0.0
 10
190.265
 20
-14.131
 30
0.0
 10
187.8941
 20
-16.0649
 30
0.0
 10
186.3033
 20
-18.9476
 30
0.0
 10
186.0476
 20
-22.2125
 30
0.0
 10
186.0476
 20
-22.2125
 30
0.0
 10
181.7508
 20
-22.6621
 30
0.0
 10
178.1662
 20
-25.4751
 30
0.0
 10
176.6506
 20
-29.3125
 30
0.0
 10
176.6506
 20
-29.3125
 30
0.0
 10
175.0901
 20
-25.3821
 30
0.0
 10
171.3583
 20
-22.5298
 30
0.0
 10
166.9166
 20
-22.1985
 30
0.0
 10
166.9166
 20
-22.1985
 30
0.0
 10
166.4642
 20
-18.0395
 30
0.0
 10
163.8218
 20
-14.5507
 30
0.0
 10
160.1909
 20
-12.9505
 30
0.0
 10
160.1909
 20
-12.9505
 30
0.0
 10
164.0625
 20
-11.3928
 30
0.0
 10
166.8834
 20
-7.7129
 30
0.0
 10
167.2708
 20
-3.3217
 30
0.0
  0
SPLINE
  5
53
330
1F
100
AcDbEntity
  8
layer 1
 62
     7
100
AcDbSpline
210
0.0
220
0.0
230
1.0
 70
    11
 71
     3
 72
    36
 73
    32
 74
     0
 42
0.0000000001
 43
0.0000000001
 12
1.0
 22
0.0
 32
0.0
 13
1.0
 23
0.0
 33
0.0
 40
0.0
 40
0.0
 40
0.0
 40
0.0
 40
0.1111111111111111
 40
0.1111111111111111
 40
0.1111111111111111
 40
0.1111111111111111
 40
0.2222222222222222
 40
0.2222222222222222
 40
0.2222222222222222
 40
0.2222222222222222
 40
0.3333333333333333
 40
0.3333333333333333
 40
0.3333333333333333
 40
0.3333333333333333
 40
0.4444444444444444
 40
0.4444444444444444
 40
0.4444444444444444
 40
0.4444444444444444
 40
0.5555555555555556
 40
0.5555555555555556
 40
0.5555555555555556
 40
0.5555555555555556
 40
0.6666666666666666
 40
0.6666666666666666
 40
0.6666666666666666
 40
0.6666666666666666
 40
0.7777777777777778
 40
0.7777777777777778
 40
0.7777777777777778
 40
0.7777777777777778
 40
1.0
 40
1.0
 40
1.0
 40
1.0
 10
125.0531
 20
-3.5581
 30
0.0
 10
129.2976
 20
-3.2095
 30
0.0
 10
132.8887
 20
-0.5835
 30
0.0
 10
134.5735
 20
3.0806
 30
0.0
 10
134.5735
 20
3.0806
 30
0.0
 10
136.2177
 20
-0.5755
 30
0.0
 10
139.7551
 20
-3.216
 30
0.0
 10
143.9523
 20
-3.6259
 30
0.0
 10
143.9523
 20
-3.6259
 30
0.0
 10
144.4267
 20
-7.8059
 30
0.0
 10
147.1925
 20
-11.3022
 30
0.0
 10
150.9766
 20
-12.858
 30
0.0
 10
150.9766
 20
-12.858
 30
0.0
 10
147.1467
 20
-14.5217
 30
0.0
 10
144.3856
 20
-18.2451
 30
0.0
 10
144.0397
 20
-22.6597
 30
0.0
 10
144.0397
 20
-22.6597
 30
0.0
 10
139.6957
 20
-23.1145
 30
0.0
 10
136.0709
 20
-25.9588
 30
0.0
 10
134.538
 20
-29.8387
 30
0.0
 10
134.538
 20
-29.8387
 30
0.0
 10
132.9598
 20
-25.8648
 30
0.0
 10
129.1868
 20
-22.9803
 30
0.0
 10
124.6951
 20
-22.6457
 30
0.0
 10
124.6951
 20
-22.6457
 30
0.0
 10
124.2376
 20
-18.4395
 30
0.0
 10
121.5662
 20
-14.912
 30
0.0
 10
117.8947
 20
-13.294
 30
0.0
 10
117.8947
 20
-13.294
 30
0.0
 10
121.8092
 20
-11.719
 30
0.0
 10
124.6615
 20
-7.998
 30
0.0
 10
125.0531
 20
-3.5581
 30
0.0
  0
SPLINE
  5
54
330
1F
100
AcDbEntity
  8
layer 1
 62
     7
100
AcDbSpline
210
0.0
220
0.0
230
1.0
 70
    11
 71
     3
 72
    12
 73
     8
 74
     0
 42
0.0000000001
 43
0.0000000001
 12
1.0
 22
0.0
 32
0.0
 13
1.0
 23
0.0
 33
0.0
 40
0.0
 40
0.0
 40
0.0
 40
0.0
 40
0.3333333333333333
 40
0.3333333333333333
 40
0.3333333333333333
 40
0.3333333333333333
 40
1.0
 40
1.0
 40
1.0
 40
1.0
 10
114.5302
 20
69.7483
 30
0.0
 10
114.9153
 20
65.2654
 30
0.0
 10
118.5144
 20
61.6879
 30
0.0
 10
123.0388
 20
61.2766
 30
0.0
 10
123.0388
 20
61.2766
 30
0.0
 10
122.6533
 20
65.759
 30
0.0
 10
119.0551
 20
69.3375
 30
0.0
 10
114.5302
 20
69.7483
 30
0.0
  0
SPLINE
  5
55
330
1F
100
AcDbEntity
  8
layer 1
 62
     7
100
AcDbSpline
210
0.0
220
0.0
230
1.0
 70
    11
 71
     3
 72
    12
 73
     8
 74
     0
 42
0.0000000001
 43
0.0000000001
 12
1.0
 22
0.0
 32
0.0
 13
1.0
 23
0.0
 33
0.0
 40
0.0
 40
0.0
 40
0.0
 40
0.0
 40
0.3333333333333333
 40
0.3333333333333333
 40
0.3333333333333333
 40
0.3333333333333333
 40
1.0
 40
1.0
 40
1.0
 40
1.0
 10
125.1349
 20
59.3717
 30
0.0
 10
125.52
 20
54.8888
 30
0.0
 10
129.1191
 20
51.3113
 30
0.0
 10
133.6435
 20
50.9
 30
0.0
 10
133.6435
 20
50.9
 30
0.0
 10
133.2579
 20
55.3823
 30
0.0
 10
129.6598
 20
58.9609
 30
0.0
 10
125.1349
 20
59.3717
 30
0.0
  0
SPLINE
  5
56
330
1F
100
AcDbEntity
  8
layer 1
 62
     7
100
AcDbSpline
210
0.0
220
0.0
230
1.0
 70
    11
 71
     3
 72
    12
 73
     8
 74
     0
 42
0.0000000001
 43
0.0000000001
 12
1.0
 22
0.0
 32
0.0
 13
1.0
 23
0.0
 33
0.0
 40
0.0
 40
0.0
 40
0.0
 40
0.0
 40
0.3333333333333333
 40
0.3333333333333333
 40
0.3333333333333333
 40
0.3333333333333333
 40
1.0
 40
1.0
 40
1.0
 40
1.0
 10
93.8102
 20
50.9547
 30
0.0
 10
98.3127
 20
51.4384
 30
0.0
 10
101.8631
 20
55.0608
 30
0.0
 10
102.1753
 20
59.5628
 30
0.0
 10
102.1753
 20
59.5628
 30
0.0
 10
97.6733
 20
59.0796
 30
0.0
 10
94.1224
 20
55.4567
 30
0.0
 10
93.8102
 20
50.9547
 30
0.0
  0
SPLINE
  5
57
330
1F
100
AcDbEntity
  8
layer 1
 62
     7
100
AcDbSpline
210
0.0
220
0.0
230
1.0
 70
    11
 71
     3
 72
    12
 73
     8
 74
     0
 42
0.0000000001
 43
0.0000000001
 12
1.0
 22
0.0
 32
0.0
 13
1.0
 23
0.0
 33
0.0
 40
0.0
 40
0.0
 40
0.0
 40
0.0
 40
0.3333333333333333
 40
0.3333333333333333
 40
0.3333333333333333
 40
0.3333333333333333
 40
1.0
 40
1.0
 40
1.0
 40
1.0
 10
103.8162
 20
61.4102
 30
0.0
 10
108.1177
 20
61.9271
 30
0.0
 10
111.5317
 20
65.3958
 30
0.0
 10
112.0486
 20
69.7707
 30
0.0
 10
112.0486
 20
69.7707
 30
0.0
 10
107.7476
 20
69.2543
 30
0.0
 10
104.3331
 20
65.7847
 30
0.0
 10
103.8162
 20
61.4102
 30
0.0
  0
SPLINE
  5
58
330
1F
100
AcDbEntity
  8
layer 1
 62
     7
100
AcDbSpline
210
0.0
220
0.0
230
1.0
 70
    11
 71
     3
 72
    12
 73
     8
 74
     0
 42
0.0000000001
 43
0.0000000001
 12
1.0
 22
0.0
 32
0.0
 13
1.0
 23
0.0
 33
0.0
 40
0.0
 40
0.0
 40
0.0
 40
0.0
 40
0.3333333333333333
 40
0.3333333333333333
 40
0.3333333333333333
 40
0.3333333333333333
 40
1.0
 40
1.0
 40
1.0
 40
1.0
 10
93.6504
 20
48.6754
 30
0.0
 10
94.0355
 20
44.1921
 30
0.0
 10
97.6341
 20
40.6145
 30
0.0
 10
102.159
 20
40.2037
 30
0.0
 10
102.159
 20
40.2037
 30
0.0
 10
101.7734
 20
44.6861
 30
0.0
 10
98.1753
 20
48.2641
 30
0.0
 10
93.6504
 20
48.6754
 30
0.0
  0
SPLINE
  5
59
330
1F
100
AcDbEntity
  8
layer 1
 62
     7
100
AcDbSpline
210
0.0
220
0.0
230
1.0
 70
    11
 71
     3
 72
    40
 73
    36
 74
     0
 42
0.0000000001
 43
0.0000000001
 12
1.0
 22
0.0
 32
0.0
 13
1.0
 23
0.0
 33
0.0
 40
0.0
 40
0.0
 40
0.0
 40
0.0
 40
0.1
 40
0.1
 40
0.1
 40
0.1
 40
0.2
 40
0.2
 40
0.2
 40
0.2
 40
0.3
 40
0.3
 40
0.3
 40
0.3
 40
0.4
 40
0.4
 40
0.4
 40
0.4
 40
0.5
 40
0.5
 40
0.5
 40
0.5
 40
0.6
 40
0.6
 40
0.6
 40
0.6
 40
0.7
 40
0.7
 40
0.7
 40
0.7
 40
0.8
 40
0.8
 40
0.8
 40
0.8
 40
1.0
 40
1.0
 40
1.0
 40
1.0
 10
167.0133
 20
38.8905
 30
0.0
 10
171.2578
 20
39.2391
 30
0.0
 10
174.8494
 20
41.8647
 30
0.0
 10
176.5337
 20
45.5292
 30
0.0
 10
176.5337
 20
45.5292
 30
0.0
 10
178.1784
 20
41.8731
 30
0.0
 10
181.7153
 20
39.2326
 30
0.0
 10
185.9126
 20
38.8222
 30
0.0
 10
185.9126
 20
38.8222
 30
0.0
 10
186.2663
 20
35.7069
 30
0.0
 10
187.8927
 20
32.9719
 30
0.0
 10
190.265
 20
31.1362
 30
0.0
 10
190.265
 20
31.1362
 30
0.0
 10
190.265
 20
31.1362
 30
0.0
 10
190.265
 20
27.9605
 30
0.0
 10
190.265
 20
27.9605
 30
0.0
 10
190.265
 20
27.9605
 30
0.0
 10
187.868
 20
26.0046
 30
0.0
 10
186.2589
 20
23.0898
 30
0.0
 10
186.0004
 20
19.7884
 30
0.0
 10
186.0004
 20
19.7884
 30
0.0
 10
181.6559
 20
19.3341
 30
0.0
 10
178.0316
 20
16.4898
 30
0.0
 10
176.4982
 20
12.6094
 30
0.0
 10
176.4982
 20
12.6094
 30
0.0
 10
174.9204
 20
16.5833
 30
0.0
 10
171.1471
 20
19.4678
 30
0.0
 10
166.6558
 20
19.8029
 30
0.0
 10
166.6558
 20
19.8029
 30
0.0
 10
166.1983
 20
24.0086
 30
0.0
 10
163.5264
 20
27.5361
 30
0.0
 10
159.8549
 20
29.1541
 30
0.0
 10
159.8549
 20
29.1541
 30
0.0
 10
163.7699
 20
30.7296
 30
0.0
 10
166.6217
 20
34.4501
 30
0.0
 10
167.0133
 20
38.8905
 30
0.0
  0
SPLINE
  5
5A
330
1F
100
AcDbEntity
  8
layer 1
 62
     7
100
AcDbSpline
210
0.0
220
0.0
230
1.0
 70
    11
 71
     3
 72
    36
 73
    32
 74
     0
 42
0.0000000001
 43
0.0000000001
 12
1.0
 22
0.0
 32
0.0
 13
1.0
 23
0.0
 33
0.0
 40
0.0
 40
0.0
 40
0.0
 40
0.0
 40
0.1111111111111111
 40
0.1111111111111111
 40
0.1111111111111111
 40
0.1111111111111111
 40
0.2222222222222222
 40
0.2222222222222222
 40
0.2222222222222222
 40
0.2222222222222222
 40
0.3333333333333333
 40
0.3333333333333333
 40
0.3333333333333333
 40
0.3333333333333333
 40
0.4444444444444444
 40
0.4444444444444444
 40
0.4444444444444444
 40
0.4444444444444444
 40
0.5555555555555556
 40
0.5555555555555556
 40
0.5555555555555556
 40
0.5555555555555556
 40
0.6666666666666666
 40
0.6666666666666666
 40
0.6666666666666666
 40
0.6666666666666666
 40
0.7777777777777778
 40
0.7777777777777778
 40
0.7777777777777778
 40
0.7777777777777778
 40
1.0
 40
1.0
 40
1.0
 40
1.0
 10
125.0531
 20
38.4025
 30
0.0
 10
129.2976
 20
38.7512
 30
0.0
 10
132.8887
 20
41.3768
 30
0.0
 10
134.5735
 20
45.0413
 30
0.0
 10
134.5735
 20
45.0413
 30
0.0
 10
136.2177
 20
41.3852
 30
0.0
 10
139.7551
 20
38.7446
 30
0.0
 10
143.9523
 20
38.3343
 30
0.0
 10
143.9523
 20
38.3343
 30
0.0
 10
144.4267
 20
34.1543
 30
0.0
 10
147.1925
 20
30.6581
 30
0.0
 10
150.9766
 20
29.1022
 30
0.0
 10
150.9766
 20
29.1022
 30
0.0
 10
147.1467
 20
27.4385
 30
0.0
 10
144.3856
 20
23.7151
 30
0.0
 10
144.0397
 20
19.3005
 30
0.0
 10
144.0397
 20
19.3005
 30
0.0
 10
139.6957
 20
18.8462
 30
0.0
 10
136.0709
 20
16.0019
 30
0.0
 10
134.538
 20
12.1215
 30
0.0
 10
134.538
 20
12.1215
 30
0.0
 10
132.9598
 20
16.0954
 30
0.0
 10
129.1868
 20
18.9799
 30
0.0
 10
124.6951
 20
19.315
 30
0.0
 10
124.6951
 20
19.315
 30
0.0
 10
124.2376
 20
23.5207
 30
0.0
 10
121.5662
 20
27.0482
 30
0.0
 10
117.8947
 20
28.6662
 30
0.0
 10
117.8947
 20
28.6662
 30
0.0
 10
121.8092
 20
30.2416
 30
0.0
 10
124.6615
 20
33.9622
 30
0.0
 10
125.0531
 20
38.4025
 30
0.0
  0
SPLINE
  5
5B
330
1F
100
AcDbEntity
  8
layer 1
 62
     7
100
AcDbSpline
210
0.0
220
0.0
230
1.0
 70
    11
 71
     3
 72
    40
 73
    36
 74
     0
 42
0.0000000001
 43
0.0000000001
 12
1.0
 22
0.0
 32
0.0
 13
1.0
 23
0.0
 33
0.0
 40
0.0
 40
0.0
 40
0.0
 40
0.0
 40
0.1
 40
0.1
 40
0.1
 40
0.1
 40
0.2
 40
0.2
 40
0.2
 40
0.2
 40
0.3
 40
0.3
 40
0.3
 40
0.3
 40
0.4
 40
0.4
 40
0.4
 40
0.4
 40
0.5
 40
0.5
 40
0.5
 40
0.5
 40
0.6
 40
0.6
 40
0.6
 40
0.6
 40
0.7
 40
0.7
 40
0.7
 40
0.7
 40
0.8
 40
0.8
 40
0.8
 40
0.8
 40
1.0
 40
1.0
 40
1.0
 40
1.0
 10
83.0924
 20
38.4025
 30
0.0
 10
87.3369
 20
38.7512
 30
0.0
 10
90.9285
 20
41.3768
 30
0.0
 10
92.6129
 20
45.0413
 30
0.0
 10
92.6129
 20
45.0413
 30
0.0
 10
94.2575
 20
41.3852
 30
0.0
 10
97.7944
 20
38.7446
 30
0.0
 10
101.9921
 20
38.3343
 30
0.0
 10
101.9921
 20
38.3343
 30
0.0
 10
102.4665
 20
34.1543
 30
0.0
 10
105.2318
 20
30.6581
 30
0.0
 10
109.0164
 20
29.1022
 30
0.0
 10
109.0164
 20
29.1022
 30
0.0
 10
105.1865
 20
27.4385
 30
0.0
 10
102.4254
 20
23.7151
 30
0.0
 10
102.0795
 20
19.3005
 30
0.0
 10
102.0795
 20
19.3005
 30
0.0
 10
97.735
 20
18.8462
 30
0.0
 10
94.1107
 20
16.0019
 30
0.0
 10
92.5773
 20
12.1215
 30
0.0
 10
92.5773
 20
12.1215
 30
0.0
 10
90.9996
 20
16.0954
 30
0.0
 10
87.2266
 20
18.9799
 30
0.0
 10
82.7349
 20
19.315
 30
0.0
 10
82.7349
 20
19.315
 30
0.0
 10
82.3694
 20
22.6748
 30
0.0
 10
80.5916
 20
25.6022
 30
0.0
 10
78.0189
 20
27.4689
 30
0.0
 10
78.0189
 20
27.4689
 30
0.0
 10
78.0189
 20
27.4689
 30
0.0
 10
78.0189
 20
29.7724
 30
0.0
 10
78.0189
 20
29.7724
 30
0.0
 10
78.0189
 20
29.7724
 30
0.0
 10
80.8342
 20
31.6652
 30
0.0
 10
82.7746
 20
34.796
 30
0.0
 10
83.0924
 20
38.4025
 30
0.0
  0
SPLINE
  5
5C
330
1F
100
AcDbEntity
  8
layer 1
 62
     7
100
AcDbSpline
210
0.0
220
0.0
230
1.0
 70
    11
 71
     3
 72
    36
 73
    32
 74
     0
 42
0.0000000001
 43
0.0000000001
 12
1.0
 22
0.0
 32
0.0
 13
1.0
 23
0.0
 33
0.0
 40
0.0
 40
0.0
 40
0.0
 40
0.0
 40
0.1111111111111111
 40
0.1111111111111111
 40
0.1111111111111111
 40
0.1111111111111111
 40
0.2222222222222222
 40
0.2222222222222222
 40
0.2222222222222222
 40
0.2222222222222222
 40
0.3333333333333333
 40
0.3333333333333333
 40
0.3333333333333333
 40
0.3333333333333333
 40
0.4444444444444444
 40
0.4444444444444444
 40
0.4444444444444444
 40
0.4444444444444444
 40
0.5555555555555556
 40
0.5555555555555556
 40
0.5555555555555556
 40
0.5555555555555556
 40
0.6666666666666666
 40
0.6666666666666666
 40
0.6666666666666666
 40
0.6666666666666666
 40
0.7777777777777778
 40
0.7777777777777778
 40
0.7777777777777778
 40
0.7777777777777778
 40
1.0
 40
1.0
 40
1.0
 40
1.0
 10
103.9101
 20
17.4222
 30
0.0
 10
108.1546
 20
17.7708
 30
0.0
 10
111.7462
 20
20.3964
 30
0.0
 10
113.4306
 20
24.0609
 30
0.0
 10
113.4306
 20
24.0609
 30
0.0
 10
115.0752
 20
20.4048
 30
0.0
 10
118.6121
 20
17.7643
 30
0.0
 10
122.8094
 20
17.3544
 30
0.0
 10
122.8094
 20
17.3544
 30
0.0
 10
123.2842
 20
13.1744
 30
0.0
 10
126.0495
 20
9.6777
 30
0.0
 10
129.8337
 20
8.1224
 30
0.0
 10
129.8337
 20
8.1224
 30
0.0
 10
126.0037
 20
6.4586
 30
0.0
 10
123.2431
 20
2.7347
 30
0.0
 10
122.8972
 20
-1.6799
 30
0.0
 10
122.8972
 20
-1.6799
 30
0.0
 10
118.5527
 20
-2.1341
 30
0.0
 10
114.9279
 20
-4.9784
 30
0.0
 10
113.395
 20
-8.8584
 30
0.0
 10
113.395
 20
-8.8584
 30
0.0
 10
111.8168
 20
-4.8845
 30
0.0
 10
108.0439
 20
-2.0
 30
0.0
 10
103.5526
 20
-1.6654
 30
0.0
 10
103.5526
 20
-1.6654
 30
0.0
 10
103.0946
 20
2.5408
 30
0.0
 10
100.4232
 20
6.0684
 30
0.0
 10
96.7517
 20
7.6863
 30
0.0
 10
96.7517
 20
7.6863
 30
0.0
 10
100.6667
 20
9.2613
 30
0.0
 10
103.5185
 20
12.9819
 30
0.0
 10
103.9101
 20
17.4222
 30
0.0
  0
SPLINE
  5
5D
330
1F
100
AcDbEntity
  8
layer 1
 62
     7
100
AcDbSpline
210
0.0
220
0.0
230
1.0
 70
    11
 71
     3
 72
    12
 73
     8
 74
     0
 42
0.0000000001
 43
0.0000000001
 12
1.0
 22
0.0
 32
0.0
 13
1.0
 23
0.0
 33
0.0
 40
0.0
 40
0.0
 40
0.0
 40
0.0
 40
0.3333333333333333
 40
0.3333333333333333
 40
0.3333333333333333
 40
0.3333333333333333
 40
1.0
 40
1.0
 40
1.0
 40
1.0
 10
114.662
 20
29.8425
 30
0.0
 10
119.164
 20
30.3262
 30
0.0
 10
122.715
 20
33.9487
 30
0.0
 10
123.0271
 20
38.4507
 30
0.0
 10
123.0271
 20
38.4507
 30
0.0
 10
118.5247
 20
37.9674
 30
0.0
 10
114.9742
 20
34.3441
 30
0.0
 10
114.662
 20
29.8425
 30
0.0
  0
SPLINE
  5
5E
330
1F
100
AcDbEntity
  8
layer 1
 62
     7
100
AcDbSpline
210
0.0
220
0.0
230
1.0
 70
    11
 71
     3
 72
    12
 73
     8
 74
     0
 42
0.0000000001
 43
0.0000000001
 12
1.0
 22
0.0
 32
0.0
 13
1.0
 23
0.0
 33
0.0
 40
0.0
 40
0.0
 40
0.0
 40
0.0
 40
0.3333333333333333
 40
0.3333333333333333
 40
0.3333333333333333
 40
0.3333333333333333
 40
1.0
 40
1.0
 40
1.0
 40
1.0
 10
104.255
 20
38.2988
 30
0.0
 10
104.6401
 20
33.816
 30
0.0
 10
108.2387
 20
30.2384
 30
0.0
 10
112.7636
 20
29.8271
 30
0.0
 10
112.7636
 20
29.8271
 30
0.0
 10
112.3781
 20
34.3095
 30
0.0
 10
108.7795
 20
37.8875
 30
0.0
 10
104.255
 20
38.2988
 30
0.0
  0
SPLINE
  5
5F
330
1F
100
AcDbEntity
  8
layer 1
 62
     7
100
AcDbSpline
210
0.0
220
0.0
230
1.0
 70
    11
 71
     3
 72
    12
 73
     8
 74
     0
 42
0.0000000001
 43
0.0000000001
 12
1.0
 22
0.0
 32
0.0
 13
1.0
 23
0.0
 33
0.0
 40
0.0
 40
0.0
 40
0.0
 40
0.0
 40
0.3333333333333333
 40
0.3333333333333333
 40
0.3333333333333333
 40
0.3333333333333333
 40
1.0
 40
1.0
 40
1.0
 40
1.0
 10
124.668
 20
40.2981
 30
0.0
 10
128.9691
 20
40.815
 30
0.0
 10
132.3835
 20
44.2832
 30
0.0
 10
132.9004
 20
48.6581
 30
0.0
 10
132.9004
 20
48.6581
 30
0.0
 10
128.5994
 20
48.1417
 30
0.0
 10
125.1849
 20
44.6725
 30
0.0
 10
124.668
 20
40.2981
 30
0.0
  0
SPLINE
  5
60
330
1F
100
AcDbEntity
  8
layer 1
 62
     7
100
AcDbSpline
210
0.0
220
0.0
230
1.0
 70
    11
 71
     3
 72
    40
 73
    36
 74
     0
 42
0.0000000001
 43
0.0000000001
 12
1.0
 22
0.0
 32
0.0
 13
1.0
 23
0.0
 33
0.0
 40
0.0
 40
0.0
 40
0.0
 40
0.0
 40
0.1
 40
0.1
 40
0.1
 40
0.1
 40
0.2
 40
0.2
 40
0.2
 40
0.2
 40
0.3
 40
0.3
 40
0.3
 40
0.3
 40
0.4
 40
0.4
 40
0.4
 40
0.4
 40
0.5
 40
0.5
 40
0.5
 40
0.5
 40
0.6
 40
0.6
 40
0.6
 40
0.6
 40
0.7
 40
0.7
 40
0.7
 40
0.7
 40
0.8
 40
0.8
 40
0.8
 40
0.8
 40
1.0
 40
1.0
 40
1.0
 40
1.0
 10
167.0647
 20
80.9278
 30
0.0
 10
171.3092
 20
81.2764
 30
0.0
 10
174.9008
 20
83.902
 30
0.0
 10
176.5852
 20
87.5665
 30
0.0
 10
176.5852
 20
87.5665
 30
0.0
 10
178.2298
 20
83.9104
 30
0.0
 10
181.7667
 20
81.2699
 30
0.0
 10
185.964
 20
80.8595
 30
0.0
 10
185.964
 20
80.8595
 30
0.0
 10
186.3177
 20
77.7446
 30
0.0
 10
187.9441
 20
75.0092
 30
0.0
 10
190.3159
 20
73.1735
 30
0.0
 10
190.3159
 20
73.1735
 30
0.0
 10
190.3159
 20
73.1735
 30
0.0
 10
190.3159
 20
69.9978
 30
0.0
 10
190.3159
 20
69.9978
 30
0.0
 10
190.3159
 20
69.9978
 30
0.0
 10
187.9194
 20
68.042
 30
0.0
 10
186.3103
 20
65.1271
 30
0.0
 10
186.0518
 20
61.8257
 30
0.0
 10
186.0518
 20
61.8257
 30
0.0
 10
181.7073
 20
61.3715
 30
0.0
 10
178.0825
 20
58.5272
 30
0.0
 10
176.5496
 20
54.6467
 30
0.0
 10
176.5496
 20
54.6467
 30
0.0
 10
174.9714
 20
58.6206
 30
0.0
 10
171.1985
 20
61.5051
 30
0.0
 10
166.7072
 20
61.8397
 30
0.0
 10
166.7072
 20
61.8397
 30
0.0
 10
166.2492
 20
66.0459
 30
0.0
 10
163.5778
 20
69.5735
 30
0.0
 10
159.9063
 20
71.1914
 30
0.0
 10
159.9063
 20
71.1914
 30
0.0
 10
163.8213
 20
72.7664
 30
0.0
 10
166.6731
 20
76.4875
 30
0.0
 10
167.0647
 20
80.9278
 30
0.0
  0
SPLINE
  5
61
330
1F
100
AcDbEntity
  8
layer 1
 62
     7
100
AcDbSpline
210
0.0
220
0.0
230
1.0
 70
    11
 71
     3
 72
    36
 73
    32
 74
     0
 42
0.0000000001
 43
0.0000000001
 12
1.0
 22
0.0
 32
0.0
 13
1.0
 23
0.0
 33
0.0
 40
0.0
 40
0.0
 40
0.0
 40
0.0
 40
0.1111111111111111
 40
0.1111111111111111
 40
0.1111111111111111
 40
0.1111111111111111
 40
0.2222222222222222
 40
0.2222222222222222
 40
0.2222222222222222
 40
0.2222222222222222
 40
0.3333333333333333
 40
0.3333333333333333
 40
0.3333333333333333
 40
0.3333333333333333
 40
0.4444444444444444
 40
0.4444444444444444
 40
0.4444444444444444
 40
0.4444444444444444
 40
0.5555555555555556
 40
0.5555555555555556
 40
0.5555555555555556
 40
0.5555555555555556
 40
0.6666666666666666
 40
0.6666666666666666
 40
0.6666666666666666
 40
0.6666666666666666
 40
0.7777777777777778
 40
0.7777777777777778
 40
0.7777777777777778
 40
0.7777777777777778
 40
1.0
 40
1.0
 40
1.0
 40
1.0
 10
125.1041
 20
80.4399
 30
0.0
 10
129.349
 20
80.7885
 30
0.0
 10
132.9401
 20
83.4141
 30
0.0
 10
134.6249
 20
87.0786
 30
0.0
 10
134.6249
 20
87.0786
 30
0.0
 10
136.2691
 20
83.4225
 30
0.0
 10
139.8065
 20
80.782
 30
0.0
 10
144.0038
 20
80.3716
 30
0.0
 10
144.0038
 20
80.3716
 30
0.0
 10
144.4781
 20
76.1916
 30
0.0
 10
147.2439
 20
72.6954
 30
0.0
 10
151.028
 20
71.1396
 30
0.0
 10
151.028
 20
71.1396
 30
0.0
 10
147.1981
 20
69.4758
 30
0.0
 10
144.437
 20
65.7524
 30
0.0
 10
144.0911
 20
61.3378
 30
0.0
 10
144.0911
 20
61.3378
 30
0.0
 10
139.7471
 20
60.8835
 30
0.0
 10
136.1223
 20
58.0392
 30
0.0
 10
134.589
 20
54.1588
 30
0.0
 10
134.589
 20
54.1588
 30
0.0
 10
133.0112
 20
58.1327
 30
0.0
 10
129.2382
 20
61.0172
 30
0.0
 10
124.7465
 20
61.3518
 30
0.0
 10
124.7465
 20
61.3518
 30
0.0
 10
124.289
 20
65.558
 30
0.0
 10
121.6171
 20
69.0856
 30
0.0
 10
117.9456
 20
70.7035
 30
0.0
 10
117.9456
 20
70.7035
 30
0.0
 10
121.8606
 20
72.2785
 30
0.0
 10
124.7129
 20
75.9996
 30
0.0
 10
125.1041
 20
80.4399
 30
0.0
  0
SPLINE
  5
62
330
1F
100
AcDbEntity
  8
layer 1
 62
     7
100
AcDbSpline
210
0.0
220
0.0
230
1.0
 70
    11
 71
     3
 72
    40
 73
    36
 74
     0
 42
0.0000000001
 43
0.0000000001
 12
1.0
 22
0.0
 32
0.0
 13
1.0
 23
0.0
 33
0.0
 40
0.0
 40
0.0
 40
0.0
 40
0.0
 40
0.1
 40
0.1
 40
0.1
 40
0.1
 40
0.2
 40
0.2
 40
0.2
 40
0.2
 40
0.3
 40
0.3
 40
0.3
 40
0.3
 40
0.4
 40
0.4
 40
0.4
 40
0.4
 40
0.5
 40
0.5
 40
0.5
 40
0.5
 40
0.6
 40
0.6
 40
0.6
 40
0.6
 40
0.7
 40
0.7
 40
0.7
 40
0.7
 40
0.8
 40
0.8
 40
0.8
 40
0.8
 40
1.0
 40
1.0
 40
1.0
 40
1.0
 10
83.1438
 20
80.4399
 30
0.0
 10
87.3883
 20
80.7885
 30
0.0
 10
90.9799
 20
83.4141
 30
0.0
 10
92.6643
 20
87.0786
 30
0.0
 10
92.6643
 20
87.0786
 30
0.0
 10
94.3089
 20
83.4225
 30
0.0
 10
97.8458
 20
80.782
 30
0.0
 10
102.0435
 20
80.3716
 30
0.0
 10
102.0435
 20
80.3716
 30
0.0
 10
102.5179
 20
76.1916
 30
0.0
 10
105.2832
 20
72.6954
 30
0.0
 10
109.0674
 20
71.1396
 30
0.0
 10
109.0674
 20
71.1396
 30
0.0
 10
105.2374
 20
69.4758
 30
0.0
 10
102.4768
 20
65.7524
 30
0.0
 10
102.1309
 20
61.3378
 30
0.0
 10
102.1309
 20
61.3378
 30
0.0
 10
97.7864
 20
60.8835
 30
0.0
 10
94.1621
 20
58.0392
 30
0.0
 10
92.6287
 20
54.1588
 30
0.0
 10
92.6287
 20
54.1588
 30
0.0
 10
91.051
 20
58.1327
 30
0.0
 10
87.2776
 20
61.0172
 30
0.0
 10
82.7863
 20
61.3518
 30
0.0
 10
82.7863
 20
61.3518
 30
0.0
 10
82.4204
 20
64.7121
 30
0.0
 10
80.643
 20
67.6396
 30
0.0
 10
78.0703
 20
69.5062
 30
0.0
 10
78.0703
 20
69.5062
 30
0.0
 10
78.0703
 20
69.5062
 30
0.0
 10
78.0703
 20
71.8098
 30
0.0
 10
78.0703
 20
71.8098
 30
0.0
 10
78.0703
 20
71.8098
 30
0.0
 10
80.8856
 20
73.7025
 30
0.0
 10
82.826
 20
76.8333
 30
0.0
 10
83.1438
 20
80.4399
 30
0.0
  0
SPLINE
  5
63
330
1F
100
AcDbEntity
  8
layer 1
 62
     7
100
AcDbSpline
210
0.0
220
0.0
230
1.0
 70
    11
 71
     3
 72
    36
 73
    32
 74
     0
 42
0.0000000001
 43
0.0000000001
 12
1.0
 22
0.0
 32
0.0
 13
1.0
 23
0.0
 33
0.0
 40
0.0
 40
0.0
 40
0.0
 40
0.0
 40
0.1111111111111111
 40
0.1111111111111111
 40
0.1111111111111111
 40
0.1111111111111111
 40
0.2222222222222222
 40
0.2222222222222222
 40
0.2222222222222222
 40
0.2222222222222222
 40
0.3333333333333333
 40
0.3333333333333333
 40
0.3333333333333333
 40
0.3333333333333333
 40
0.4444444444444444
 40
0.4444444444444444
 40
0.4444444444444444
 40
0.4444444444444444
 40
0.5555555555555556
 40
0.5555555555555556
 40
0.5555555555555556
 40
0.5555555555555556
 40
0.6666666666666666
 40
0.6666666666666666
 40
0.6666666666666666
 40
0.6666666666666666
 40
0.7777777777777778
 40
0.7777777777777778
 40
0.7777777777777778
 40
0.7777777777777778
 40
1.0
 40
1.0
 40
1.0
 40
1.0
 10
103.9615
 20
59.6222
 30
0.0
 10
108.206
 20
59.9708
 30
0.0
 10
111.7976
 20
62.5964
 30
0.0
 10
113.482
 20
66.2609
 30
0.0
 10
113.482
 20
66.2609
 30
0.0
 10
115.1266
 20
62.6048
 30
0.0
 10
118.6635
 20
59.9643
 30
0.0
 10
122.8608
 20
59.5539
 30
0.0
 10
122.8608
 20
59.5539
 30
0.0
 10
123.3356
 20
55.3744
 30
0.0
 10
126.1009
 20
51.8777
 30
0.0
 10
129.8851
 20
50.3219
 30
0.0
 10
129.8851
 20
50.3219
 30
0.0
 10
126.0551
 20
48.6581
 30
0.0
 10
123.294
 20
44.9347
 30
0.0
 10
122.9486
 20
40.5201
 30
0.0
 10
122.9486
 20
40.5201
 30
0.0
 10
118.6041
 20
40.0658
 30
0.0
 10
114.9794
 20
37.2215
 30
0.0
 10
113.4464
 20
33.3411
 30
0.0
 10
113.4464
 20
33.3411
 30
0.0
 10
111.8682
 20
37.3155
 30
0.0
 10
108.0953
 20
40.1995
 30
0.0
 10
103.604
 20
40.5346
 30
0.0
 10
103.604
 20
40.5346
 30
0.0
 10
103.146
 20
44.7403
 30
0.0
 10
100.4746
 20
48.2679
 30
0.0
 10
96.8031
 20
49.8863
 30
0.0
 10
96.8031
 20
49.8863
 30
0.0
 10
100.7177
 20
51.4613
 30
0.0
 10
103.5699
 20
55.1819
 30
0.0
 10
103.9615
 20
59.6222
 30
0.0
  0
SPLINE
  5
64
330
1F
100
AcDbEntity
  8
layer 1
 62
     7
100
AcDbSpline
210
0.0
220
0.0
230
1.0
 70
    11
 71
     3
 72
    32
 73
    28
 74
     0
 42
0.0000000001
 43
0.0000000001
 12
1.0
 22
0.0
 32
0.0
 13
1.0
 23
0.0
 33
0.0
 40
0.0
 40
0.0
 40
0.0
 40
0.0
 40
0.125
 40
0.125
 40
0.125
 40
0.125
 40
0.25
 40
0.25
 40
0.25
 40
0.25
 40
0.375
 40
0.375
 40
0.375
 40
0.375
 40
0.5
 40
0.5
 40
0.5
 40
0.5
 40
0.625
 40
0.625
 40
0.625
 40
0.625
 40
0.75
 40
0.75
 40
0.75
 40
0.75
 40
1.0
 40
1.0
 40
1.0
 40
1.0
 10
146.3377
 20
116.3586
 30
0.0
 10
147.3687
 20
114.8173
 30
0.0
 10
148.767
 20
113.5788
 30
0.0
 10
150.5453
 20
112.8474
 30
0.0
 10
150.5453
 20
112.8474
 30
0.0
 10
146.7153
 20
111.1836
 30
0.0
 10
144.6608
 20
107.8136
 30
0.0
 10
144.315
 20
103.399
 30
0.0
 10
144.315
 20
103.399
 30
0.0
 10
139.9705
 20
102.9442
 30
0.0
 10
136.3462
 20
100.0999
 30
0.0
 10
134.8128
 20
96.22
 30
0.0
 10
134.8128
 20
96.22
 30
0.0
 10
133.235
 20
100.1939
 30
0.0
 10
129.4621
 20
103.0784
 30
0.0
 10
124.9704
 20
103.413
 30
0.0
 10
124.9704
 20
103.413
 30
0.0
 10
124.5129
 20
107.6192
 30
0.0
 10
121.841
 20
111.1467
 30
0.0
 10
118.1695
 20
112.7647
 30
0.0
 10
118.1695
 20
112.7647
 30
0.0
 10
120.0487
 20
113.5204
 30
0.0
 10
121.683
 20
114.7715
 30
0.0
 10
122.9178
 20
116.3586
 30
0.0
 10
122.9178
 20
116.3586
 30
0.0
 10
122.9178
 20
116.3586
 30
0.0
 10
146.3377
 20
116.3586
 30
0.0
 10
146.3377
 20
116.3586
 30
0.0
  0
SPLINE
  5
65
330
1F
100
AcDbEntity
  8
layer 1
 62
     7
100
AcDbSpline
210
0.0
220
0.0
230
1.0
 70
    11
 71
     3
 72
    36
 73
    32
 74
     0
 42
0.0000000001
 43
0.0000000001
 12
1.0
 22
0.0
 32
0.0
 13
1.0
 23
0.0
 33
0.0
 40
0.0
 40
0.0
 40
0.0
 40
0.0
 40
0.1111111111111111
 40
0.1111111111111111
 40
0.1111111111111111
 40
0.1111111111111111
 40
0.2222222222222222
 40
0.2222222222222222
 40
0.2222222222222222
 40
0.2222222222222222
 40
0.3333333333333333
 40
0.3333333333333333
 40
0.3333333333333333
 40
0.3333333333333333
 40
0.4444444444444444
 40
0.4444444444444444
 40
0.4444444444444444
 40
0.4444444444444444
 40
0.5555555555555556
 40
0.5555555555555556
 40
0.5555555555555556
 40
0.5555555555555556
 40
0.6666666666666666
 40
0.6666666666666666
 40
0.6666666666666666
 40
0.6666666666666666
 40
0.7777777777777778
 40
0.7777777777777778
 40
0.7777777777777778
 40
0.7777777777777778
 40
1.0
 40
1.0
 40
1.0
 40
1.0
 10
188.7064
 20
116.3586
 30
0.0
 10
189.1966
 20
115.8371
 30
0.0
 10
189.735
 20
115.3618
 30
0.0
 10
190.3159
 20
114.9388
 30
0.0
 10
190.3159
 20
114.9388
 30
0.0
 10
190.3159
 20
114.9388
 30
0.0
 10
190.3159
 20
112.1758
 30
0.0
 10
190.3159
 20
112.1758
 30
0.0
 10
190.3159
 20
112.1758
 30
0.0
 10
187.7721
 20
110.2218
 30
0.0
 10
186.0528
 20
107.2144
 30
0.0
 10
185.7845
 20
103.7915
 30
0.0
 10
185.7845
 20
103.7915
 30
0.0
 10
181.4405
 20
103.3373
 30
0.0
 10
177.8157
 20
100.493
 30
0.0
 10
176.2823
 20
96.613
 30
0.0
 10
176.2823
 20
96.613
 30
0.0
 10
174.7045
 20
100.5869
 30
0.0
 10
170.9316
 20
103.4714
 30
0.0
 10
166.4399
 20
103.806
 30
0.0
 10
166.4399
 20
103.806
 30
0.0
 10
165.9824
 20
108.0122
 30
0.0
 10
163.3105
 20
111.5398
 30
0.0
 10
159.639
 20
113.1577
 30
0.0
 10
159.639
 20
113.1577
 30
0.0
 10
161.3602
 20
113.8499
 30
0.0
 10
162.8759
 20
114.958
 30
0.0
 10
164.0676
 20
116.3586
 30
0.0
 10
164.0676
 20
116.3586
 30
0.0
 10
164.0676
 20
116.3586
 30
0.0
 10
188.7064
 20
116.3586
 30
0.0
 10
188.7064
 20
116.3586
 30
0.0
  0
SPLINE
  5
66
330
1F
100
AcDbEntity
  8
layer 1
 62
     7
100
AcDbSpline
210
0.0
220
0.0
230
1.0
 70
    11
 71
     3
 72
    36
 73
    32
 74
     0
 42
0.0000000001
 43
0.0000000001
 12
1.0
 22
0.0
 32
0.0
 13
1.0
 23
0.0
 33
0.0
 40
0.0
 40
0.0
 40
0.0
 40
0.0
 40
0.1111111111111111
 40
0.1111111111111111
 40
0.1111111111111111
 40
0.1111111111111111
 40
0.2222222222222222
 40
0.2222222222222222
 40
0.2222222222222222
 40
0.2222222222222222
 40
0.3333333333333333
 40
0.3333333333333333
 40
0.3333333333333333
 40
0.3333333333333333
 40
0.4444444444444444
 40
0.4444444444444444
 40
0.4444444444444444
 40
0.4444444444444444
 40
0.5555555555555556
 40
0.5555555555555556
 40
0.5555555555555556
 40
0.5555555555555556
 40
0.6666666666666666
 40
0.6666666666666666
 40
0.6666666666666666
 40
0.6666666666666666
 40
0.7777777777777778
 40
0.7777777777777778
 40
0.7777777777777778
 40
0.7777777777777778
 40
1.0
 40
1.0
 40
1.0
 40
1.0
 10
104.392
 20
116.3586
 30
0.0
 10
105.601
 20
114.8435
 30
0.0
 10
107.1919
 20
113.6386
 30
0.0
 10
109.0197
 20
112.8871
 30
0.0
 10
109.0197
 20
112.8871
 30
0.0
 10
105.1897
 20
111.2234
 30
0.0
 10
102.4286
 20
107.5
 30
0.0
 10
102.0828
 20
103.0854
 30
0.0
 10
102.0828
 20
103.0854
 30
0.0
 10
97.7383
 20
102.6311
 30
0.0
 10
94.114
 20
99.7868
 30
0.0
 10
92.5806
 20
95.9064
 30
0.0
 10
92.5806
 20
95.9064
 30
0.0
 10
91.0028
 20
99.8803
 30
0.0
 10
87.2299
 20
102.7648
 30
0.0
 10
82.7382
 20
103.0994
 30
0.0
 10
82.7382
 20
103.0994
 30
0.0
 10
82.3751
 20
106.4386
 30
0.0
 10
80.6169
 20
109.3507
 30
0.0
 10
78.0703
 20
111.2187
 30
0.0
 10
78.0703
 20
111.2187
 30
0.0
 10
78.0703
 20
111.2187
 30
0.0
 10
78.0703
 20
113.5896
 30
0.0
 10
78.0703
 20
113.5896
 30
0.0
 10
78.0703
 20
113.5896
 30
0.0
 10
79.1714
 20
114.3383
 30
0.0
 10
80.136
 20
115.2762
 30
0.0
 10
80.9211
 20
116.3586
 30
0.0
 10
80.9211
 20
116.3586
 30
0.0
 10
80.9211
 20
116.3586
 30
0.0
 10
104.392
 20
116.3586
 30
0.0
 10
104.392
 20
116.3586
 30
0.0
  0
SPLINE
  5
67
330
1F
100
AcDbEntity
  8
layer 1
 62
     7
100
AcDbSpline
210
0.0
220
0.0
230
1.0
 70
    11
 71
     3
 72
    16
 73
    12
 74
     0
 42
0.0000000001
 43
0.0000000001
 12
1.0
 22
0.0
 32
0.0
 13
1.0
 23
0.0
 33
0.0
 40
0.0
 40
0.0
 40
0.0
 40
0.0
 40
0.25
 40
0.25
 40
0.25
 40
0.25
 40
0.5
 40
0.5
 40
0.5
 40
0.5
 40
1.0
 40
1.0
 40
1.0
 40
1.0
 10
114.7003
 20
114.2467
 30
0.0
 10
116.5969
 20
114.45
 30
0.0
 10
118.3233
 20
115.2099
 30
0.0
 10
119.7113
 20
116.3586
 30
0.0
 10
119.7113
 20
116.3586
 30
0.0
 10
119.7113
 20
116.3586
 30
0.0
 10
115.0981
 20
116.3586
 30
0.0
 10
115.0981
 20
116.3586
 30
0.0
 10
115.0981
 20
116.3586
 30
0.0
 10
114.8868
 20
115.6838
 30
0.0
 10
114.7508
 20
114.9771
 30
0.0
 10
114.7003
 20
114.2467
 30
0.0
  0
SPLINE
  5
68
330
1F
100
AcDbEntity
  8
layer 1
 62
     7
100
AcDbSpline
210
0.0
220
0.0
230
1.0
 70
    11
 71
     3
 72
    16
 73
    12
 74
     0
 42
0.0000000001
 43
0.0000000001
 12
1.0
 22
0.0
 32
0.0
 13
1.0
 23
0.0
 33
0.0
 40
0.0
 40
0.0
 40
0.0
 40
0.0
 40
0.25
 40
0.25
 40
0.25
 40
0.25
 40
0.5
 40
0.5
 40
0.5
 40
0.5
 40
1.0
 40
1.0
 40
1.0
 40
1.0
 10
106.7759
 20
116.3586
 30
0.0
 10
108.2607
 20
114.9804
 30
0.0
 10
110.1988
 20
114.0728
 30
0.0
 10
112.344
 20
113.8779
 30
0.0
 10
112.344
 20
113.8779
 30
0.0
 10
112.2697
 20
114.7435
 30
0.0
 10
112.0734
 20
115.5767
 30
0.0
 10
111.7757
 20
116.3586
 30
0.0
 10
111.7757
 20
116.3586
 30
0.0
 10
111.7757
 20
116.3586
 30
0.0
 10
106.7759
 20
116.3586
 30
0.0
 10
106.7759
 20
116.3586
 30
0.0
  0
SPLINE
  5
69
330
1F
100
AcDbEntity
  8
layer 1
 62
     7
100
AcDbSpline
210
0.0
220
0.0
230
1.0
 70
    11
 71
     3
 72
    36
 73
    32
 74
     0
 42
0.0000000001
 43
0.0000000001
 12
1.0
 22
0.0
 32
0.0
 13
1.0
 23
0.0
 33
0.0
 40
0.0
 40
0.0
 40
0.0
 40
0.0
 40
0.1111111111111111
 40
0.1111111111111111
 40
0.1111111111111111
 40
0.1111111111111111
 40
0.2222222222222222
 40
0.2222222222222222
 40
0.2222222222222222
 40
0.2222222222222222
 40
0.3333333333333333
 40
0.3333333333333333
 40
0.3333333333333333
 40
0.3333333333333333
 40
0.4444444444444444
 40
0.4444444444444444
 40
0.4444444444444444
 40
0.4444444444444444
 40
0.5555555555555556
 40
0.5555555555555556
 40
0.5555555555555556
 40
0.5555555555555556
 40
0.6666666666666666
 40
0.6666666666666666
 40
0.6666666666666666
 40
0.6666666666666666
 40
0.7777777777777778
 40
0.7777777777777778
 40
0.7777777777777778
 40
0.7777777777777778
 40
1.0
 40
1.0
 40
1.0
 40
1.0
 10
145.8404
 20
101.487
 30
0.0
 10
150.0849
 20
101.8357
 30
0.0
 10
153.6761
 20
104.4613
 30
0.0
 10
155.3609
 20
108.1258
 30
0.0
 10
155.3609
 20
108.1258
 30
0.0
 10
157.005
 20
104.4697
 30
0.0
 10
160.5424
 20
101.8291
 30
0.0
 10
164.7397
 20
101.4188
 30
0.0
 10
164.7397
 20
101.4188
 30
0.0
 10
165.214
 20
97.2393
 30
0.0
 10
167.9798
 20
93.7426
 30
0.0
 10
171.764
 20
92.1867
 30
0.0
 10
171.764
 20
92.1867
 30
0.0
 10
167.934
 20
90.523
 30
0.0
 10
165.1729
 20
86.7996
 30
0.0
 10
164.8271
 20
82.385
 30
0.0
 10
164.8271
 20
82.385
 30
0.0
 10
160.483
 20
81.9307
 30
0.0
 10
156.8583
 20
79.0864
 30
0.0
 10
155.3253
 20
75.206
 30
0.0
 10
155.3253
 20
75.206
 30
0.0
 10
153.7471
 20
79.1799
 30
0.0
 10
149.9742
 20
82.0644
 30
0.0
 10
145.4825
 20
82.3995
 30
0.0
 10
145.4825
 20
82.3995
 30
0.0
 10
145.0249
 20
86.6052
 30
0.0
 10
142.3535
 20
90.1327
 30
0.0
 10
138.682
 20
91.7512
 30
0.0
 10
138.682
 20
91.7512
 30
0.0
 10
142.5966
 20
93.3261
 30
0.0
 10
145.4488
 20
97.0467
 30
0.0
 10
145.8404
 20
101.487
 30
0.0
  0
SPLINE
  5
6A
330
1F
100
AcDbEntity
  8
layer 1
 62
     7
100
AcDbSpline
210
0.0
220
0.0
230
1.0
 70
    11
 71
     3
 72
    12
 73
     8
 74
     0
 42
0.0000000001
 43
0.0000000001
 12
1.0
 22
0.0
 32
0.0
 13
1.0
 23
0.0
 33
0.0
 40
0.0
 40
0.0
 40
0.0
 40
0.0
 40
0.3333333333333333
 40
0.3333333333333333
 40
0.3333333333333333
 40
0.3333333333333333
 40
1.0
 40
1.0
 40
1.0
 40
1.0
 10
114.7134
 20
71.8799
 30
0.0
 10
119.2154
 20
72.3631
 30
0.0
 10
122.7664
 20
75.986
 30
0.0
 10
123.0786
 20
80.488
 30
0.0
 10
123.0786
 20
80.488
 30
0.0
 10
118.5761
 20
80.0048
 30
0.0
 10
115.0256
 20
76.3814
 30
0.0
 10
114.7134
 20
71.8799
 30
0.0
  0
SPLINE
  5
6B
330
1F
100
AcDbEntity
  8
layer 1
 62
     7
100
AcDbSpline
210
0.0
220
0.0
230
1.0
 70
    11
 71
     3
 72
    12
 73
     8
 74
     0
 42
0.0000000001
 43
0.0000000001
 12
1.0
 22
0.0
 32
0.0
 13
1.0
 23
0.0
 33
0.0
 40
0.0
 40
0.0
 40
0.0
 40
0.0
 40
0.3333333333333333
 40
0.3333333333333333
 40
0.3333333333333333
 40
0.3333333333333333
 40
1.0
 40
1.0
 40
1.0
 40
1.0
 10
104.3065
 20
80.3361
 30
0.0
 10
104.6916
 20
75.8533
 30
0.0
 10
108.2902
 20
72.2752
 30
0.0
 10
112.8151
 20
71.8644
 30
0.0
 10
112.8151
 20
71.8644
 30
0.0
 10
112.4295
 20
76.3468
 30
0.0
 10
108.8309
 20
79.9248
 30
0.0
 10
104.3065
 20
80.3361
 30
0.0
  0
SPLINE
  5
6C
330
1F
100
AcDbEntity
  8
layer 1
 62
     7
100
AcDbSpline
210
0.0
220
0.0
230
1.0
 70
    11
 71
     3
 72
    12
 73
     8
 74
     0
 42
0.0000000001
 43
0.0000000001
 12
1.0
 22
0.0
 32
0.0
 13
1.0
 23
0.0
 33
0.0
 40
0.0
 40
0.0
 40
0.0
 40
0.0
 40
0.3333333333333333
 40
0.3333333333333333
 40
0.3333333333333333
 40
0.3333333333333333
 40
1.0
 40
1.0
 40
1.0
 40
1.0
 10
93.8303
 20
90.9282
 30
0.0
 10
94.3294
 20
86.4986
 30
0.0
 10
97.7976
 20
82.986
 30
0.0
 10
102.1585
 20
82.5051
 30
0.0
 10
102.1585
 20
82.5051
 30
0.0
 10
101.6594
 20
86.9346
 30
0.0
 10
98.1912
 20
90.4473
 30
0.0
 10
93.8303
 20
90.9282
 30
0.0
  0
SPLINE
  5
6D
330
1F
100
AcDbEntity
  8
layer 1
 62
     7
100
AcDbSpline
210
0.0
220
0.0
230
1.0
 70
    11
 71
     3
 72
    12
 73
     8
 74
     0
 42
0.0000000001
 43
0.0000000001
 12
1.0
 22
0.0
 32
0.0
 13
1.0
 23
0.0
 33
0.0
 40
0.0
 40
0.0
 40
0.0
 40
0.0
 40
0.3333333333333333
 40
0.3333333333333333
 40
0.3333333333333333
 40
0.3333333333333333
 40
1.0
 40
1.0
 40
1.0
 40
1.0
 10
102.0917
 20
101.5497
 30
0.0
 10
97.7107
 20
101.0342
 30
0.0
 10
94.2434
 20
97.4561
 30
0.0
 10
93.813
 20
92.9747
 30
0.0
 10
93.813
 20
92.9747
 30
0.0
 10
98.1949
 20
93.4897
 30
0.0
 10
101.6612
 20
97.0673
 30
0.0
 10
102.0917
 20
101.5497
 30
0.0
  0
SPLINE
  5
6E
330
1F
100
AcDbEntity
  8
layer 1
 62
     7
100
AcDbSpline
210
0.0
220
0.0
230
1.0
 70
    11
 71
     3
 72
    12
 73
     8
 74
     0
 42
0.0000000001
 43
0.0000000001
 12
1.0
 22
0.0
 32
0.0
 13
1.0
 23
0.0
 33
0.0
 40
0.0
 40
0.0
 40
0.0
 40
0.0
 40
0.3333333333333333
 40
0.3333333333333333
 40
0.3333333333333333
 40
0.3333333333333333
 40
1.0
 40
1.0
 40
1.0
 40
1.0
 10
112.5473
 20
112.1062
 30
0.0
 10
108.2275
 20
111.5711
 30
0.0
 10
104.8168
 20
108.1412
 30
0.0
 10
104.3644
 20
103.843
 30
0.0
 10
104.3644
 20
103.843
 30
0.0
 10
108.6846
 20
104.3781
 30
0.0
 10
112.0953
 20
107.808
 30
0.0
 10
112.5473
 20
112.1062
 30
0.0
  0
SPLINE
  5
6F
330
1F
100
AcDbEntity
  8
layer 1
 62
     7
100
AcDbSpline
210
0.0
220
0.0
230
1.0
 70
    11
 71
     3
 72
    12
 73
     8
 74
     0
 42
0.0000000001
 43
0.0000000001
 12
1.0
 22
0.0
 32
0.0
 13
1.0
 23
0.0
 33
0.0
 40
0.0
 40
0.0
 40
0.0
 40
0.0
 40
0.3333333333333333
 40
0.3333333333333333
 40
0.3333333333333333
 40
0.3333333333333333
 40
1.0
 40
1.0
 40
1.0
 40
1.0
 10
122.7509
 20
103.3751
 30
0.0
 10
122.371
 20
107.7575
 30
0.0
 10
118.9201
 20
111.2738
 30
0.0
 10
114.5363
 20
111.8094
 30
0.0
 10
114.5363
 20
111.8094
 30
0.0
 10
114.9158
 20
107.4275
 30
0.0
 10
118.3672
 20
103.9103
 30
0.0
 10
122.7509
 20
103.3751
 30
0.0
  0
SPLINE
  5
70
330
1F
100
AcDbEntity
  8
layer 1
 62
     7
100
AcDbSpline
210
0.0
220
0.0
230
1.0
 70
    11
 71
     3
 72
    12
 73
     8
 74
     0
 42
0.0000000001
 43
0.0000000001
 12
1.0
 22
0.0
 32
0.0
 13
1.0
 23
0.0
 33
0.0
 40
0.0
 40
0.0
 40
0.0
 40
0.0
 40
0.3333333333333333
 40
0.3333333333333333
 40
0.3333333333333333
 40
0.3333333333333333
 40
1.0
 40
1.0
 40
1.0
 40
1.0
 10
133.4435
 20
92.8607
 30
0.0
 10
132.9621
 20
97.3767
 30
0.0
 10
129.3962
 20
100.9529
 30
0.0
 10
124.9344
 20
101.3604
 30
0.0
 10
124.9344
 20
101.3604
 30
0.0
 10
125.4158
 20
96.843
 30
0.0
 10
128.9817
 20
93.2677
 30
0.0
 10
133.4435
 20
92.8607
 30
0.0
  0
SPLINE
  5
71
330
1F
100
AcDbEntity
  8
layer 1
 62
     7
100
AcDbSpline
210
0.0
220
0.0
230
1.0
 70
    11
 71
     3
 72
    12
 73
     8
 74
     0
 42
0.0000000001
 43
0.0000000001
 12
1.0
 22
0.0
 32
0.0
 13
1.0
 23
0.0
 33
0.0
 40
0.0
 40
0.0
 40
0.0
 40
0.0
 40
0.3333333333333333
 40
0.3333333333333333
 40
0.3333333333333333
 40
0.3333333333333333
 40
1.0
 40
1.0
 40
1.0
 40
1.0
 10
124.7194
 20
82.335
 30
0.0
 10
129.0205
 20
82.8523
 30
0.0
 10
132.4349
 20
86.3205
 30
0.0
 10
132.9518
 20
90.6954
 30
0.0
 10
132.9518
 20
90.6954
 30
0.0
 10
128.6503
 20
90.179
 30
0.0
 10
125.2363
 20
86.7098
 30
0.0
 10
124.7194
 20
82.335
 30
0.0
  0
SPLINE
  5
72
330
1F
100
AcDbEntity
  8
layer 1
 62
     7
100
AcDbSpline
210
0.0
220
0.0
230
1.0
 70
    11
 71
     3
 72
    36
 73
    32
 74
     0
 42
0.0000000001
 43
0.0000000001
 12
1.0
 22
0.0
 32
0.0
 13
1.0
 23
0.0
 33
0.0
 40
0.0
 40
0.0
 40
0.0
 40
0.0
 40
0.1111111111111111
 40
0.1111111111111111
 40
0.1111111111111111
 40
0.1111111111111111
 40
0.2222222222222222
 40
0.2222222222222222
 40
0.2222222222222222
 40
0.2222222222222222
 40
0.3333333333333333
 40
0.3333333333333333
 40
0.3333333333333333
 40
0.3333333333333333
 40
0.4444444444444444
 40
0.4444444444444444
 40
0.4444444444444444
 40
0.4444444444444444
 40
0.5555555555555556
 40
0.5555555555555556
 40
0.5555555555555556
 40
0.5555555555555556
 40
0.6666666666666666
 40
0.6666666666666666
 40
0.6666666666666666
 40
0.6666666666666666
 40
0.7777777777777778
 40
0.7777777777777778
 40
0.7777777777777778
 40
0.7777777777777778
 40
1.0
 40
1.0
 40
1.0
 40
1.0
 10
104.3144
 20
101.487
 30
0.0
 10
108.5589
 20
101.8357
 30
0.0
 10
112.1505
 20
104.4613
 30
0.0
 10
113.8348
 20
108.1258
 30
0.0
 10
113.8348
 20
108.1258
 30
0.0
 10
115.4794
 20
104.4697
 30
0.0
 10
119.0163
 20
101.8291
 30
0.0
 10
123.2136
 20
101.4188
 30
0.0
 10
123.2136
 20
101.4188
 30
0.0
 10
123.6885
 20
97.2393
 30
0.0
 10
126.4538
 20
93.7426
 30
0.0
 10
130.2379
 20
92.1867
 30
0.0
 10
130.2379
 20
92.1867
 30
0.0
 10
126.408
 20
90.523
 30
0.0
 10
123.6469
 20
86.7996
 30
0.0
 10
123.3015
 20
82.385
 30
0.0
 10
123.3015
 20
82.385
 30
0.0
 10
118.957
 20
81.9307
 30
0.0
 10
115.3322
 20
79.0864
 30
0.0
 10
113.7993
 20
75.206
 30
0.0
 10
113.7993
 20
75.206
 30
0.0
 10
112.221
 20
79.1799
 30
0.0
 10
108.4481
 20
82.0644
 30
0.0
 10
103.9569
 20
82.3995
 30
0.0
 10
103.9569
 20
82.3995
 30
0.0
 10
103.4989
 20
86.6052
 30
0.0
 10
100.8275
 20
90.1327
 30
0.0
 10
97.156
 20
91.7512
 30
0.0
 10
97.156
 20
91.7512
 30
0.0
 10
101.071
 20
93.3261
 30
0.0
 10
103.9228
 20
97.0467
 30
0.0
 10
104.3144
 20
101.487
 30
0.0
  0
SPLINE
  5
73
330
1F
100
AcDbEntity
  8
layer 1
 62
     7
100
AcDbSpline
210
0.0
220
0.0
230
1.0
 70
    11
 71
     3
 72
    12
 73
     8
 74
     0
 42
0.0000000001
 43
0.0000000001
 12
1.0
 22
0.0
 32
0.0
 13
1.0
 23
0.0
 33
0.0
 40
0.0
 40
0.0
 40
0.0
 40
0.0
 40
0.3333333333333333
 40
0.3333333333333333
 40
0.3333333333333333
 40
0.3333333333333333
 40
1.0
 40
1.0
 40
1.0
 40
1.0
 10
156.3666
 20
29.943
 30
0.0
 10
160.8691
 20
30.4263
 30
0.0
 10
164.4195
 20
34.0487
 30
0.0
 10
164.7317
 20
38.5512
 30
0.0
 10
164.7317
 20
38.5512
 30
0.0
 10
160.2297
 20
38.0674
 30
0.0
 10
156.6793
 20
34.4445
 30
0.0
 10
156.3666
 20
29.943
 30
0.0
  0
SPLINE
  5
74
330
1F
100
AcDbEntity
  8
layer 1
 62
     7
100
AcDbSpline
210
0.0
220
0.0
230
1.0
 70
    11
 71
     3
 72
    12
 73
     8
 74
     0
 42
0.0000000001
 43
0.0000000001
 12
1.0
 22
0.0
 32
0.0
 13
1.0
 23
0.0
 33
0.0
 40
0.0
 40
0.0
 40
0.0
 40
0.0
 40
0.3333333333333333
 40
0.3333333333333333
 40
0.3333333333333333
 40
0.3333333333333333
 40
1.0
 40
1.0
 40
1.0
 40
1.0
 10
145.9596
 20
38.3993
 30
0.0
 10
146.3452
 20
33.916
 30
0.0
 10
149.9438
 20
30.3384
 30
0.0
 10
154.4687
 20
29.9276
 30
0.0
 10
154.4687
 20
29.9276
 30
0.0
 10
154.0831
 20
34.41
 30
0.0
 10
150.4845
 20
37.988
 30
0.0
 10
145.9596
 20
38.3993
 30
0.0
  0
SPLINE
  5
75
330
1F
100
AcDbEntity
  8
layer 1
 62
     7
100
AcDbSpline
210
0.0
220
0.0
230
1.0
 70
    11
 71
     3
 72
    12
 73
     8
 74
     0
 42
0.0000000001
 43
0.0000000001
 12
1.0
 22
0.0
 32
0.0
 13
1.0
 23
0.0
 33
0.0
 40
0.0
 40
0.0
 40
0.0
 40
0.0
 40
0.3333333333333333
 40
0.3333333333333333
 40
0.3333333333333333
 40
0.3333333333333333
 40
1.0
 40
1.0
 40
1.0
 40
1.0
 10
135.4839
 20
48.9913
 30
0.0
 10
135.9831
 20
44.5613
 30
0.0
 10
139.4513
 20
41.0491
 30
0.0
 10
143.8121
 20
40.5682
 30
0.0
 10
143.8121
 20
40.5682
 30
0.0
 10
143.313
 20
44.9978
 30
0.0
 10
139.8448
 20
48.5104
 30
0.0
 10
135.4839
 20
48.9913
 30
0.0
  0
SPLINE
  5
76
330
1F
100
AcDbEntity
  8
layer 1
 62
     7
100
AcDbSpline
210
0.0
220
0.0
230
1.0
 70
    11
 71
     3
 72
    12
 73
     8
 74
     0
 42
0.0000000001
 43
0.0000000001
 12
1.0
 22
0.0
 32
0.0
 13
1.0
 23
0.0
 33
0.0
 40
0.0
 40
0.0
 40
0.0
 40
0.0
 40
0.3333333333333333
 40
0.3333333333333333
 40
0.3333333333333333
 40
0.3333333333333333
 40
1.0
 40
1.0
 40
1.0
 40
1.0
 10
143.7453
 20
59.6123
 30
0.0
 10
139.3644
 20
59.0969
 30
0.0
 10
135.8971
 20
55.5193
 30
0.0
 10
135.4666
 20
51.0379
 30
0.0
 10
135.4666
 20
51.0379
 30
0.0
 10
139.8485
 20
51.5529
 30
0.0
 10
143.3144
 20
55.1304
 30
0.0
 10
143.7453
 20
59.6123
 30
0.0
  0
SPLINE
  5
77
330
1F
100
AcDbEntity
  8
layer 1
 62
     7
100
AcDbSpline
210
0.0
220
0.0
230
1.0
 70
    11
 71
     3
 72
    12
 73
     8
 74
     0
 42
0.0000000001
 43
0.0000000001
 12
1.0
 22
0.0
 32
0.0
 13
1.0
 23
0.0
 33
0.0
 40
0.0
 40
0.0
 40
0.0
 40
0.0
 40
0.3333333333333333
 40
0.3333333333333333
 40
0.3333333333333333
 40
0.3333333333333333
 40
1.0
 40
1.0
 40
1.0
 40
1.0
 10
154.2009
 20
70.1693
 30
0.0
 10
149.8812
 20
69.6342
 30
0.0
 10
146.4704
 20
66.2043
 30
0.0
 10
146.018
 20
61.9056
 30
0.0
 10
146.018
 20
61.9056
 30
0.0
 10
150.3382
 20
62.4408
 30
0.0
 10
153.749
 20
65.8706
 30
0.0
 10
154.2009
 20
70.1693
 30
0.0
  0
SPLINE
  5
78
330
1F
100
AcDbEntity
  8
layer 1
 62
     7
100
AcDbSpline
210
0.0
220
0.0
230
1.0
 70
    11
 71
     3
 72
    12
 73
     8
 74
     0
 42
0.0000000001
 43
0.0000000001
 12
1.0
 22
0.0
 32
0.0
 13
1.0
 23
0.0
 33
0.0
 40
0.0
 40
0.0
 40
0.0
 40
0.0
 40
0.3333333333333333
 40
0.3333333333333333
 40
0.3333333333333333
 40
0.3333333333333333
 40
1.0
 40
1.0
 40
1.0
 40
1.0
 10
164.7612
 20
61.7365
 30
0.0
 10
164.3817
 20
66.1188
 30
0.0
 10
160.9303
 20
69.6352
 30
0.0
 10
156.5465
 20
70.1708
 30
0.0
 10
156.5465
 20
70.1708
 30
0.0
 10
156.9265
 20
65.7889
 30
0.0
 10
160.3774
 20
62.2716
 30
0.0
 10
164.7612
 20
61.7365
 30
0.0
  0
SPLINE
  5
79
330
1F
100
AcDbEntity
  8
layer 1
 62
     7
100
AcDbSpline
210
0.0
220
0.0
230
1.0
 70
    11
 71
     3
 72
    12
 73
     8
 74
     0
 42
0.0000000001
 43
0.0000000001
 12
1.0
 22
0.0
 32
0.0
 13
1.0
 23
0.0
 33
0.0
 40
0.0
 40
0.0
 40
0.0
 40
0.0
 40
0.3333333333333333
 40
0.3333333333333333
 40
0.3333333333333333
 40
0.3333333333333333
 40
1.0
 40
1.0
 40
1.0
 40
1.0
 10
175.4537
 20
51.222
 30
0.0
 10
174.9728
 20
55.738
 30
0.0
 10
171.4064
 20
59.3142
 30
0.0
 10
166.9451
 20
59.7217
 30
0.0
 10
166.9451
 20
59.7217
 30
0.0
 10
167.426
 20
55.2043
 30
0.0
 10
170.9924
 20
51.6286
 30
0.0
 10
175.4537
 20
51.222
 30
0.0
  0
SPLINE
  5
7A
330
1F
100
AcDbEntity
  8
layer 1
 62
     7
100
AcDbSpline
210
0.0
220
0.0
230
1.0
 70
    11
 71
     3
 72
    12
 73
     8
 74
     0
 42
0.0000000001
 43
0.0000000001
 12
1.0
 22
0.0
 32
0.0
 13
1.0
 23
0.0
 33
0.0
 40
0.0
 40
0.0
 40
0.0
 40
0.0
 40
0.3333333333333333
 40
0.3333333333333333
 40
0.3333333333333333
 40
0.3333333333333333
 40
1.0
 40
1.0
 40
1.0
 40
1.0
 10
167.2087
 20
40.6622
 30
0.0
 10
171.5097
 20
41.1795
 30
0.0
 10
174.9242
 20
44.6478
 30
0.0
 10
175.4411
 20
49.0226
 30
0.0
 10
175.4411
 20
49.0226
 30
0.0
 10
171.1396
 20
48.5062
 30
0.0
 10
167.7256
 20
45.0371
 30
0.0
 10
167.2087
 20
40.6622
 30
0.0
  0
SPLINE
  5
7B
330
1F
100
AcDbEntity
  8
layer 1
 62
     7
100
AcDbSpline
210
0.0
220
0.0
230
1.0
 70
    11
 71
     3
 72
    36
 73
    32
 74
     0
 42
0.0000000001
 43
0.0000000001
 12
1.0
 22
0.0
 32
0.0
 13
1.0
 23
0.0
 33
0.0
 40
0.0
 40
0.0
 40
0.0
 40
0.0
 40
0.1111111111111111
 40
0.1111111111111111
 40
0.1111111111111111
 40
0.1111111111111111
 40
0.2222222222222222
 40
0.2222222222222222
 40
0.2222222222222222
 40
0.2222222222222222
 40
0.3333333333333333
 40
0.3333333333333333
 40
0.3333333333333333
 40
0.3333333333333333
 40
0.4444444444444444
 40
0.4444444444444444
 40
0.4444444444444444
 40
0.4444444444444444
 40
0.5555555555555556
 40
0.5555555555555556
 40
0.5555555555555556
 40
0.5555555555555556
 40
0.6666666666666666
 40
0.6666666666666666
 40
0.6666666666666666
 40
0.6666666666666666
 40
0.7777777777777778
 40
0.7777777777777778
 40
0.7777777777777778
 40
0.7777777777777778
 40
1.0
 40
1.0
 40
1.0
 40
1.0
 10
145.968
 20
59.5502
 30
0.0
 10
150.2125
 20
59.8988
 30
0.0
 10
153.8036
 20
62.5244
 30
0.0
 10
155.4884
 20
66.1889
 30
0.0
 10
155.4884
 20
66.1889
 30
0.0
 10
157.1326
 20
62.5328
 30
0.0
 10
160.67
 20
59.8923
 30
0.0
 10
164.8673
 20
59.482
 30
0.0
 10
164.8673
 20
59.482
 30
0.0
 10
165.3416
 20
55.302
 30
0.0
 10
168.1074
 20
51.8057
 30
0.0
 10
171.8915
 20
50.2499
 30
0.0
 10
171.8915
 20
50.2499
 30
0.0
 10
168.0616
 20
48.5861
 30
0.0
 10
165.3005
 20
44.8627
 30
0.0
 10
164.9546
 20
40.4481
 30
0.0
 10
164.9546
 20
40.4481
 30
0.0
 10
160.6106
 20
39.9939
 30
0.0
 10
156.9858
 20
37.1496
 30
0.0
 10
155.4529
 20
33.2691
 30
0.0
 10
155.4529
 20
33.2691
 30
0.0
 10
153.8747
 20
37.243
 30
0.0
 10
150.1018
 20
40.1275
 30
0.0
 10
145.61
 20
40.4622
 30
0.0
 10
145.61
 20
40.4622
 30
0.0
 10
145.1525
 20
44.6683
 30
0.0
 10
142.4811
 20
48.1959
 30
0.0
 10
138.8096
 20
49.8139
 30
0.0
 10
138.8096
 20
49.8139
 30
0.0
 10
142.7241
 20
51.3888
 30
0.0
 10
145.5764
 20
55.1099
 30
0.0
 10
145.968
 20
59.5502
 30
0.0
  0
SPLINE
  5
7C
330
1F
100
AcDbEntity
  8
layer 1
 62
     7
100
AcDbSpline
210
0.0
220
0.0
230
1.0
 70
    11
 71
     3
 72
    16
 73
    12
 74
     0
 42
0.0000000001
 43
0.0000000001
 12
1.0
 22
0.0
 32
0.0
 13
1.0
 23
0.0
 33
0.0
 40
0.0
 40
0.0
 40
0.0
 40
0.0
 40
0.25
 40
0.25
 40
0.25
 40
0.25
 40
0.5
 40
0.5
 40
0.5
 40
0.5
 40
1.0
 40
1.0
 40
1.0
 40
1.0
 10
78.0703
 20
74.8195
 30
0.0
 10
79.4821
 20
76.3309
 30
0.0
 10
80.3944
 20
78.3064
 30
0.0
 10
80.5458
 20
80.488
 30
0.0
 10
80.5458
 20
80.488
 30
0.0
 10
79.6803
 20
80.395
 30
0.0
 10
78.8494
 20
80.1847
 30
0.0
 10
78.0703
 20
79.8758
 30
0.0
 10
78.0703
 20
79.8758
 30
0.0
 10
78.0703
 20
79.8758
 30
0.0
 10
78.0703
 20
74.8195
 30
0.0
 10
78.0703
 20
74.8195
 30
0.0
  0
SPLINE
  5
7D
330
1F
100
AcDbEntity
  8
layer 1
 62
     7
100
AcDbSpline
210
0.0
220
0.0
230
1.0
 70
    11
 71
     3
 72
    16
 73
    12
 74
     0
 42
0.0000000001
 43
0.0000000001
 12
1.0
 22
0.0
 32
0.0
 13
1.0
 23
0.0
 33
0.0
 40
0.0
 40
0.0
 40
0.0
 40
0.0
 40
0.25
 40
0.25
 40
0.25
 40
0.25
 40
0.5
 40
0.5
 40
0.5
 40
0.5
 40
1.0
 40
1.0
 40
1.0
 40
1.0
 10
80.5753
 20
103.6738
 30
0.0
 10
80.3897
 20
105.8142
 30
0.0
 10
79.4719
 20
107.7467
 30
0.0
 10
78.0703
 20
109.2278
 30
0.0
 10
78.0703
 20
109.2278
 30
0.0
 10
78.0703
 20
109.2278
 30
0.0
 10
78.0703
 20
104.3369
 30
0.0
 10
78.0703
 20
104.3369
 30
0.0
 10
78.0703
 20
104.3369
 30
0.0
 10
78.8568
 20
104.007
 30
0.0
 10
79.6967
 20
103.7808
 30
0.0
 10
80.5753
 20
103.6738
 30
0.0
  0
SPLINE
  5
7E
330
1F
100
AcDbEntity
  8
layer 1
 62
     7
100
AcDbSpline
210
0.0
220
0.0
230
1.0
 70
    11
 71
     3
 72
    12
 73
     8
 74
     0
 42
0.0000000001
 43
0.0000000001
 12
1.0
 22
0.0
 32
0.0
 13
1.0
 23
0.0
 33
0.0
 40
0.0
 40
0.0
 40
0.0
 40
0.0
 40
0.3333333333333333
 40
0.3333333333333333
 40
0.3333333333333333
 40
0.3333333333333333
 40
1.0
 40
1.0
 40
1.0
 40
1.0
 10
91.2678
 20
93.1588
 30
0.0
 10
90.7864
 20
97.6748
 30
0.0
 10
87.2206
 20
101.251
 30
0.0
 10
82.7587
 20
101.6586
 30
0.0
 10
82.7587
 20
101.6586
 30
0.0
 10
83.2401
 20
97.1416
 30
0.0
 10
86.806
 20
93.5659
 30
0.0
 10
91.2678
 20
93.1588
 30
0.0
  0
SPLINE
  5
7F
330
1F
100
AcDbEntity
  8
layer 1
 62
     7
100
AcDbSpline
210
0.0
220
0.0
230
1.0
 70
    11
 71
     3
 72
    12
 73
     8
 74
     0
 42
0.0000000001
 43
0.0000000001
 12
1.0
 22
0.0
 32
0.0
 13
1.0
 23
0.0
 33
0.0
 40
0.0
 40
0.0
 40
0.0
 40
0.0
 40
0.3333333333333333
 40
0.3333333333333333
 40
0.3333333333333333
 40
0.3333333333333333
 40
1.0
 40
1.0
 40
1.0
 40
1.0
 10
83.0223
 20
82.5995
 30
0.0
 10
87.3238
 20
83.1164
 30
0.0
 10
90.7378
 20
86.5846
 30
0.0
 10
91.2547
 20
90.9599
 30
0.0
 10
91.2547
 20
90.9599
 30
0.0
 10
86.9537
 20
90.4435
 30
0.0
 10
83.5397
 20
86.9739
 30
0.0
 10
83.0223
 20
82.5995
 30
0.0
  0
SPLINE
  5
80
330
1F
100
AcDbEntity
  8
layer 1
 62
     7
100
AcDbSpline
210
0.0
220
0.0
230
1.0
 70
    11
 71
     3
 72
    24
 73
    20
 74
     0
 42
0.0000000001
 43
0.0000000001
 12
1.0
 22
0.0
 32
0.0
 13
1.0
 23
0.0
 33
0.0
 40
0.0
 40
0.0
 40
0.0
 40
0.0
 40
0.1666666666666667
 40
0.1666666666666667
 40
0.1666666666666667
 40
0.1666666666666667
 40
0.3333333333333333
 40
0.3333333333333333
 40
0.3333333333333333
 40
0.3333333333333333
 40
0.5
 40
0.5
 40
0.5
 40
0.5
 40
0.6666666666666666
 40
0.6666666666666666
 40
0.6666666666666666
 40
0.6666666666666666
 40
1.0
 40
1.0
 40
1.0
 40
1.0
 10
78.0703
 20
101.9824
 30
0.0
 10
78.9017
 20
101.6987
 30
0.0
 10
79.7761
 20
101.5076
 30
0.0
 10
80.6814
 20
101.4188
 30
0.0
 10
80.6814
 20
101.4188
 30
0.0
 10
81.1557
 20
97.2393
 30
0.0
 10
83.9211
 20
93.7426
 30
0.0
 10
87.7052
 20
92.1867
 30
0.0
 10
87.7052
 20
92.1867
 30
0.0
 10
83.8753
 20
90.523
 30
0.0
 10
81.1146
 20
86.7996
 30
0.0
 10
80.7688
 20
82.385
 30
0.0
 10
80.7688
 20
82.385
 30
0.0
 10
79.8313
 20
82.2873
 30
0.0
 10
78.9269
 20
82.0779
 30
0.0
 10
78.0703
 20
81.7709
 30
0.0
 10
78.0703
 20
81.7709
 30
0.0
 10
78.0703
 20
81.7709
 30
0.0
 10
78.0703
 20
101.9824
 30
0.0
 10
78.0703
 20
101.9824
 30
0.0
  0
SPLINE
  5
81
330
1F
100
AcDbEntity
  8
layer 1
 62
     7
100
AcDbSpline
210
0.0
220
0.0
230
1.0
 70
    11
 71
     3
 72
    12
 73
     8
 74
     0
 42
0.0000000001
 43
0.0000000001
 12
1.0
 22
0.0
 32
0.0
 13
1.0
 23
0.0
 33
0.0
 40
0.0
 40
0.0
 40
0.0
 40
0.0
 40
0.3333333333333333
 40
0.3333333333333333
 40
0.3333333333333333
 40
0.3333333333333333
 40
1.0
 40
1.0
 40
1.0
 40
1.0
 10
156.239
 20
71.8799
 30
0.0
 10
160.7415
 20
72.3631
 30
0.0
 10
164.2919
 20
75.986
 30
0.0
 10
164.6041
 20
80.488
 30
0.0
 10
164.6041
 20
80.488
 30
0.0
 10
160.1021
 20
80.0048
 30
0.0
 10
156.5512
 20
76.3814
 30
0.0
 10
156.239
 20
71.8799
 30
0.0
  0
SPLINE
  5
82
330
1F
100
AcDbEntity
  8
layer 1
 62
     7
100
AcDbSpline
210
0.0
220
0.0
230
1.0
 70
    11
 71
     3
 72
    12
 73
     8
 74
     0
 42
0.0000000001
 43
0.0000000001
 12
1.0
 22
0.0
 32
0.0
 13
1.0
 23
0.0
 33
0.0
 40
0.0
 40
0.0
 40
0.0
 40
0.0
 40
0.3333333333333333
 40
0.3333333333333333
 40
0.3333333333333333
 40
0.3333333333333333
 40
1.0
 40
1.0
 40
1.0
 40
1.0
 10
145.832
 20
80.3361
 30
0.0
 10
146.2176
 20
75.8533
 30
0.0
 10
149.8162
 20
72.2752
 30
0.0
 10
154.3411
 20
71.8644
 30
0.0
 10
154.3411
 20
71.8644
 30
0.0
 10
153.9555
 20
76.3468
 30
0.0
 10
150.3569
 20
79.9248
 30
0.0
 10
145.832
 20
80.3361
 30
0.0
  0
SPLINE
  5
83
330
1F
100
AcDbEntity
  8
layer 1
 62
     7
100
AcDbSpline
210
0.0
220
0.0
230
1.0
 70
    11
 71
     3
 72
    12
 73
     8
 74
     0
 42
0.0000000001
 43
0.0000000001
 12
1.0
 22
0.0
 32
0.0
 13
1.0
 23
0.0
 33
0.0
 40
0.0
 40
0.0
 40
0.0
 40
0.0
 40
0.3333333333333333
 40
0.3333333333333333
 40
0.3333333333333333
 40
0.3333333333333333
 40
1.0
 40
1.0
 40
1.0
 40
1.0
 10
135.3563
 20
90.9282
 30
0.0
 10
135.8555
 20
86.4986
 30
0.0
 10
139.3237
 20
82.986
 30
0.0
 10
143.6845
 20
82.5051
 30
0.0
 10
143.6845
 20
82.5051
 30
0.0
 10
143.1854
 20
86.9346
 30
0.0
 10
139.7172
 20
90.4473
 30
0.0
 10
135.3563
 20
90.9282
 30
0.0
  0
SPLINE
  5
84
330
1F
100
AcDbEntity
  8
layer 1
 62
     7
100
AcDbSpline
210
0.0
220
0.0
230
1.0
 70
    11
 71
     3
 72
    12
 73
     8
 74
     0
 42
0.0000000001
 43
0.0000000001
 12
1.0
 22
0.0
 32
0.0
 13
1.0
 23
0.0
 33
0.0
 40
0.0
 40
0.0
 40
0.0
 40
0.0
 40
0.3333333333333333
 40
0.3333333333333333
 40
0.3333333333333333
 40
0.3333333333333333
 40
1.0
 40
1.0
 40
1.0
 40
1.0
 10
143.6177
 20
101.5497
 30
0.0
 10
139.2368
 20
101.0342
 30
0.0
 10
135.7695
 20
97.4561
 30
0.0
 10
135.3391
 20
92.9747
 30
0.0
 10
135.3391
 20
92.9747
 30
0.0
 10
139.7209
 20
93.4897
 30
0.0
 10
143.1868
 20
97.0673
 30
0.0
 10
143.6177
 20
101.5497
 30
0.0
  0
SPLINE
  5
85
330
1F
100
AcDbEntity
  8
layer 1
 62
     7
100
AcDbSpline
210
0.0
220
0.0
230
1.0
 70
    11
 71
     3
 72
    12
 73
     8
 74
     0
 42
0.0000000001
 43
0.0000000001
 12
1.0
 22
0.0
 32
0.0
 13
1.0
 23
0.0
 33
0.0
 40
0.0
 40
0.0
 40
0.0
 40
0.0
 40
0.3333333333333333
 40
0.3333333333333333
 40
0.3333333333333333
 40
0.3333333333333333
 40
1.0
 40
1.0
 40
1.0
 40
1.0
 10
154.0733
 20
112.1062
 30
0.0
 10
149.7536
 20
111.5711
 30
0.0
 10
146.3428
 20
108.1412
 30
0.0
 10
145.8904
 20
103.843
 30
0.0
 10
145.8904
 20
103.843
 30
0.0
 10
150.2106
 20
104.3781
 30
0.0
 10
153.6214
 20
107.808
 30
0.0
 10
154.0733
 20
112.1062
 30
0.0
  0
SPLINE
  5
86
330
1F
100
AcDbEntity
  8
layer 1
 62
     7
100
AcDbSpline
210
0.0
220
0.0
230
1.0
 70
    11
 71
     3
 72
    12
 73
     8
 74
     0
 42
0.0000000001
 43
0.0000000001
 12
1.0
 22
0.0
 32
0.0
 13
1.0
 23
0.0
 33
0.0
 40
0.0
 40
0.0
 40
0.0
 40
0.0
 40
0.3333333333333333
 40
0.3333333333333333
 40
0.3333333333333333
 40
0.3333333333333333
 40
1.0
 40
1.0
 40
1.0
 40
1.0
 10
164.6336
 20
103.6738
 30
0.0
 10
164.2536
 20
108.0561
 30
0.0
 10
160.8027
 20
111.572
 30
0.0
 10
156.4189
 20
112.1081
 30
0.0
 10
156.4189
 20
112.1081
 30
0.0
 10
156.7989
 20
107.7257
 30
0.0
 10
160.2498
 20
104.2089
 30
0.0
 10
164.6336
 20
103.6738
 30
0.0
  0
SPLINE
  5
87
330
1F
100
AcDbEntity
  8
layer 1
 62
     7
100
AcDbSpline
210
0.0
220
0.0
230
1.0
 70
    11
 71
     3
 72
    12
 73
     8
 74
     0
 42
0.0000000001
 43
0.0000000001
 12
1.0
 22
0.0
 32
0.0
 13
1.0
 23
0.0
 33
0.0
 40
0.0
 40
0.0
 40
0.0
 40
0.0
 40
0.3333333333333333
 40
0.3333333333333333
 40
0.3333333333333333
 40
0.3333333333333333
 40
1.0
 40
1.0
 40
1.0
 40
1.0
 10
175.3261
 20
93.1588
 30
0.0
 10
174.8452
 20
97.6748
 30
0.0
 10
171.2788
 20
101.251
 30
0.0
 10
166.8175
 20
101.6586
 30
0.0
 10
166.8175
 20
101.6586
 30
0.0
 10
167.2984
 20
97.1416
 30
0.0
 10
170.8648
 20
93.5659
 30
0.0
 10
175.3261
 20
93.1588
 30
0.0
  0
SPLINE
  5
88
330
1F
100
AcDbEntity
  8
layer 1
 62
     7
100
AcDbSpline
210
0.0
220
0.0
230
1.0
 70
    11
 71
     3
 72
    12
 73
     8
 74
     0
 42
0.0000000001
 43
0.0000000001
 12
1.0
 22
0.0
 32
0.0
 13
1.0
 23
0.0
 33
0.0
 40
0.0
 40
0.0
 40
0.0
 40
0.0
 40
0.3333333333333333
 40
0.3333333333333333
 40
0.3333333333333333
 40
0.3333333333333333
 40
1.0
 40
1.0
 40
1.0
 40
1.0
 10
167.0811
 20
82.5995
 30
0.0
 10
171.3821
 20
83.1164
 30
0.0
 10
174.7966
 20
86.5846
 30
0.0
 10
175.3135
 20
90.9599
 30
0.0
 10
175.3135
 20
90.9599
 30
0.0
 10
171.012
 20
90.4435
 30
0.0
 10
167.598
 20
86.9739
 30
0.0
 10
167.0811
 20
82.5995
 30
0.0
  0
SPLINE
  5
89
330
1F
100
AcDbEntity
  8
layer 1
 62
     7
100
AcDbSpline
210
0.0
220
0.0
230
1.0
 70
    11
 71
     3
 72
    16
 73
    12
 74
     0
 42
0.0000000001
 43
0.0000000001
 12
1.0
 22
0.0
 32
0.0
 13
1.0
 23
0.0
 33
0.0
 40
0.0
 40
0.0
 40
0.0
 40
0.0
 40
0.25
 40
0.25
 40
0.25
 40
0.25
 40
0.5
 40
0.5
 40
0.5
 40
0.5
 40
1.0
 40
1.0
 40
1.0
 40
1.0
 10
187.8614
 20
80.5875
 30
0.0
 10
188.0432
 20
78.4709
 30
0.0
 10
188.9419
 20
76.5566
 30
0.0
 10
190.3159
 20
75.0817
 30
0.0
 10
190.3159
 20
75.0817
 30
0.0
 10
190.3159
 20
75.0817
 30
0.0
 10
190.3159
 20
80.0291
 30
0.0
 10
190.3159
 20
80.0291
 30
0.0
 10
190.3159
 20
80.0291
 30
0.0
 10
189.5411
 20
80.3184
 30
0.0
 10
188.7181
 20
80.51
 30
0.0
 10
187.8614
 20
80.5875
 30
0.0
  0
SPLINE
  5
8A
330
1F
100
AcDbEntity
  8
layer 1
 62
     7
100
AcDbSpline
210
0.0
220
0.0
230
1.0
 70
    11
 71
     3
 72
    12
 73
     8
 74
     0
 42
0.0000000001
 43
0.0000000001
 12
1.0
 22
0.0
 32
0.0
 13
1.0
 23
0.0
 33
0.0
 40
0.0
 40
0.0
 40
0.0
 40
0.0
 40
0.3333333333333333
 40
0.3333333333333333
 40
0.3333333333333333
 40
0.3333333333333333
 40
1.0
 40
1.0
 40
1.0
 40
1.0
 10
177.3857
 20
91.1801
 30
0.0
 10
177.8849
 20
86.75
 30
0.0
 10
181.3531
 20
83.2379
 30
0.0
 10
185.7135
 20
82.757
 30
0.0
 10
185.7135
 20
82.757
 30
0.0
 10
185.2148
 20
87.1865
 30
0.0
 10
181.7461
 20
90.6987
 30
0.0
 10
177.3857
 20
91.1801
 30
0.0
  0
SPLINE
  5
8B
330
1F
100
AcDbEntity
  8
layer 1
 62
     7
100
AcDbSpline
210
0.0
220
0.0
230
1.0
 70
    11
 71
     3
 72
    12
 73
     8
 74
     0
 42
0.0000000001
 43
0.0000000001
 12
1.0
 22
0.0
 32
0.0
 13
1.0
 23
0.0
 33
0.0
 40
0.0
 40
0.0
 40
0.0
 40
0.0
 40
0.3333333333333333
 40
0.3333333333333333
 40
0.3333333333333333
 40
0.3333333333333333
 40
1.0
 40
1.0
 40
1.0
 40
1.0
 10
185.6466
 20
101.8011
 30
0.0
 10
181.2661
 20
101.2856
 30
0.0
 10
177.7989
 20
97.708
 30
0.0
 10
177.3684
 20
93.2261
 30
0.0
 10
177.3684
 20
93.2261
 30
0.0
 10
181.7503
 20
93.7416
 30
0.0
 10
185.2162
 20
97.3187
 30
0.0
 10
185.6466
 20
101.8011
 30
0.0
  0
SPLINE
  5
8C
330
1F
100
AcDbEntity
  8
layer 1
 62
     7
100
AcDbSpline
210
0.0
220
0.0
230
1.0
 70
    11
 71
     3
 72
    16
 73
    12
 74
     0
 42
0.0000000001
 43
0.0000000001
 12
1.0
 22
0.0
 32
0.0
 13
1.0
 23
0.0
 33
0.0
 40
0.0
 40
0.0
 40
0.0
 40
0.0
 40
0.25
 40
0.25
 40
0.25
 40
0.25
 40
0.5
 40
0.5
 40
0.5
 40
0.5
 40
1.0
 40
1.0
 40
1.0
 40
1.0
 10
190.3159
 20
109.3811
 30
0.0
 10
189.0036
 20
107.9533
 30
0.0
 10
188.1329
 20
106.1199
 30
0.0
 10
187.9198
 20
104.0944
 30
0.0
 10
187.9198
 20
104.0944
 30
0.0
 10
188.7573
 20
104.1981
 30
0.0
 10
189.5616
 20
104.4122
 30
0.0
 10
190.3159
 20
104.7188
 30
0.0
 10
190.3159
 20
104.7188
 30
0.0
 10
190.3159
 20
104.7188
 30
0.0
 10
190.3159
 20
109.3811
 30
0.0
 10
190.3159
 20
109.3811
 30
0.0
  0
SPLINE
  5
8D
330
1F
100
AcDbEntity
  8
layer 1
 62
     7
100
AcDbSpline
210
0.0
220
0.0
230
1.0
 70
    11
 71
     3
 72
    24
 73
    20
 74
     0
 42
0.0000000001
 43
0.0000000001
 12
1.0
 22
0.0
 32
0.0
 13
1.0
 23
0.0
 33
0.0
 40
0.0
 40
0.0
 40
0.0
 40
0.0
 40
0.1666666666666667
 40
0.1666666666666667
 40
0.1666666666666667
 40
0.1666666666666667
 40
0.3333333333333333
 40
0.3333333333333333
 40
0.3333333333333333
 40
0.3333333333333333
 40
0.5
 40
0.5
 40
0.5
 40
0.5
 40
0.6666666666666666
 40
0.6666666666666666
 40
0.6666666666666666
 40
0.6666666666666666
 40
1.0
 40
1.0
 40
1.0
 40
1.0
 10
187.8694
 20
101.7385
 30
0.0
 10
188.7143
 20
101.8081
 30
0.0
 10
189.5331
 20
101.967
 30
0.0
 10
190.3159
 20
102.2072
 30
0.0
 10
190.3159
 20
102.2072
 30
0.0
 10
190.3159
 20
102.2072
 30
0.0
 10
190.3159
 20
82.0891
 30
0.0
 10
190.3159
 20
82.0891
 30
0.0
 10
190.3159
 20
82.0891
 30
0.0
 10
189.4247
 20
82.3864
 30
0.0
 10
188.4858
 20
82.5785
 30
0.0
 10
187.5118
 20
82.6509
 30
0.0
 10
187.5118
 20
82.6509
 30
0.0
 10
187.0543
 20
86.8571
 30
0.0
 10
184.3824
 20
90.3846
 30
0.0
 10
180.7109
 20
92.0026
 30
0.0
 10
180.7109
 20
92.0026
 30
0.0
 10
184.6259
 20
93.5776
 30
0.0
 10
187.4782
 20
97.2986
 30
0.0
 10
187.8694
 20
101.7385
 30
0.0
  0
SPLINE
  5
8E
330
1F
100
AcDbEntity
  8
layer 1
 62
     7
100
AcDbSpline
210
0.0
220
0.0
230
1.0
 70
    11
 71
     3
 72
    16
 73
    12
 74
     0
 42
0.0000000001
 43
0.0000000001
 12
1.0
 22
0.0
 32
0.0
 13
1.0
 23
0.0
 33
0.0
 40
0.0
 40
0.0
 40
0.0
 40
0.0
 40
0.25
 40
0.25
 40
0.25
 40
0.25
 40
0.5
 40
0.5
 40
0.5
 40
0.5
 40
1.0
 40
1.0
 40
1.0
 40
1.0
 10
156.0983
 20
113.9686
 30
0.0
 10
158.1435
 20
114.1882
 30
0.0
 10
159.9918
 20
115.0552
 30
0.0
 10
161.4299
 20
116.3586
 30
0.0
 10
161.4299
 20
116.3586
 30
0.0
 10
161.4299
 20
116.3586
 30
0.0
 10
156.5881
 20
116.3586
 30
0.0
 10
156.5881
 20
116.3586
 30
0.0
 10
156.5881
 20
116.3586
 30
0.0
 10
156.3236
 20
115.601
 30
0.0
 10
156.1558
 20
114.8
 30
0.0
 10
156.0983
 20
113.9686
 30
0.0
  0
SPLINE
  5
8F
330
1F
100
AcDbEntity
  8
layer 1
 62
     7
100
AcDbSpline
210
0.0
220
0.0
230
1.0
 70
    11
 71
     3
 72
    16
 73
    12
 74
     0
 42
0.0000000001
 43
0.0000000001
 12
1.0
 22
0.0
 32
0.0
 13
1.0
 23
0.0
 33
0.0
 40
0.0
 40
0.0
 40
0.0
 40
0.0
 40
0.25
 40
0.25
 40
0.25
 40
0.25
 40
0.5
 40
0.5
 40
0.5
 40
0.5
 40
1.0
 40
1.0
 40
1.0
 40
1.0
 10
148.7133
 20
116.3586
 30
0.0
 10
150.1877
 20
115.0229
 30
0.0
 10
152.0936
 20
114.1443
 30
0.0
 10
154.2
 20
113.9532
 30
0.0
 10
154.2
 20
113.9532
 30
0.0
 10
154.128
 20
114.7911
 30
0.0
 10
153.9429
 20
115.5982
 30
0.0
 10
153.6611
 20
116.3586
 30
0.0
 10
153.6611
 20
116.3586
 30
0.0
 10
153.6611
 20
116.3586
 30
0.0
 10
148.7133
 20
116.3586
 30
0.0
 10
148.7133
 20
116.3586
 30
0.0
  0
SPLINE
  5
90
330
1F
100
AcDbEntity
  8
layer 1
 62
     7
100
AcDbSpline
210
0.0
220
0.0
230
1.0
 70
    11
 71
     3
 72
    16
 73
    12
 74
     0
 42
0.0000000001
 43
0.0000000001
 12
1.0
 22
0.0
 32
0.0
 13
1.0
 23
0.0
 33
0.0
 40
0.0
 40
0.0
 40
0.0
 40
0.0
 40
0.25
 40
0.25
 40
0.25
 40
0.25
 40
0.5
 40
0.5
 40
0.5
 40
0.5
 40
1.0
 40
1.0
 40
1.0
 40
1.0
 10
188.1867
 20
38.3021
 30
0.0
 10
188.3685
 20
36.185
 30
0.0
 10
189.2672
 20
34.2707
 30
0.0
 10
190.6412
 20
32.7957
 30
0.0
 10
190.6412
 20
32.7957
 30
0.0
 10
190.6412
 20
32.7957
 30
0.0
 10
190.6412
 20
37.7431
 30
0.0
 10
190.6412
 20
37.7431
 30
0.0
 10
190.6412
 20
37.7431
 30
0.0
 10
189.8663
 20
38.0329
 30
0.0
 10
189.0433
 20
38.2245
 30
0.0
 10
188.1867
 20
38.3021
 30
0.0
  0
SPLINE
  5
91
330
1F
100
AcDbEntity
  8
layer 1
 62
     7
100
AcDbSpline
210
0.0
220
0.0
230
1.0
 70
    11
 71
     3
 72
    12
 73
     8
 74
     0
 42
0.0000000001
 43
0.0000000001
 12
1.0
 22
0.0
 32
0.0
 13
1.0
 23
0.0
 33
0.0
 40
0.0
 40
0.0
 40
0.0
 40
0.0
 40
0.3333333333333333
 40
0.3333333333333333
 40
0.3333333333333333
 40
0.3333333333333333
 40
1.0
 40
1.0
 40
1.0
 40
1.0
 10
177.711
 20
48.8941
 30
0.0
 10
178.2101
 20
44.4646
 30
0.0
 10
181.6784
 20
40.9519
 30
0.0
 10
186.0387
 20
40.471
 30
0.0
 10
186.0387
 20
40.471
 30
0.0
 10
185.5401
 20
44.9006
 30
0.0
 10
182.0714
 20
48.4132
 30
0.0
 10
177.711
 20
48.8941
 30
0.0
  0
SPLINE
  5
92
330
1F
100
AcDbEntity
  8
layer 1
 62
     7
100
AcDbSpline
210
0.0
220
0.0
230
1.0
 70
    11
 71
     3
 72
    12
 73
     8
 74
     0
 42
0.0000000001
 43
0.0000000001
 12
1.0
 22
0.0
 32
0.0
 13
1.0
 23
0.0
 33
0.0
 40
0.0
 40
0.0
 40
0.0
 40
0.0
 40
0.3333333333333333
 40
0.3333333333333333
 40
0.3333333333333333
 40
0.3333333333333333
 40
1.0
 40
1.0
 40
1.0
 40
1.0
 10
185.9719
 20
59.5156
 30
0.0
 10
181.5914
 20
59.0001
 30
0.0
 10
178.1241
 20
55.4221
 30
0.0
 10
177.6937
 20
50.9406
 30
0.0
 10
177.6937
 20
50.9406
 30
0.0
 10
182.0756
 20
51.4557
 30
0.0
 10
185.5415
 20
55.0332
 30
0.0
 10
185.9719
 20
59.5156
 30
0.0
  0
SPLINE
  5
93
330
1F
100
AcDbEntity
  8
layer 1
 62
     7
100
AcDbSpline
210
0.0
220
0.0
230
1.0
 70
    11
 71
     3
 72
    16
 73
    12
 74
     0
 42
0.0000000001
 43
0.0000000001
 12
1.0
 22
0.0
 32
0.0
 13
1.0
 23
0.0
 33
0.0
 40
0.0
 40
0.0
 40
0.0
 40
0.0
 40
0.25
 40
0.25
 40
0.25
 40
0.25
 40
0.5
 40
0.5
 40
0.5
 40
0.5
 40
1.0
 40
1.0
 40
1.0
 40
1.0
 10
190.6412
 20
67.0951
 30
0.0
 10
189.3289
 20
65.6674
 30
0.0
 10
188.4582
 20
63.8344
 30
0.0
 10
188.2451
 20
61.8089
 30
0.0
 10
188.2451
 20
61.8089
 30
0.0
 10
189.0826
 20
61.9127
 30
0.0
 10
189.8869
 20
62.1262
 30
0.0
 10
190.6412
 20
62.4333
 30
0.0
 10
190.6412
 20
62.4333
 30
0.0
 10
190.6412
 20
62.4333
 30
0.0
 10
190.6412
 20
67.0951
 30
0.0
 10
190.6412
 20
67.0951
 30
0.0
  0
SPLINE
  5
94
330
1F
100
AcDbEntity
  8
layer 1
 62
     7
100
AcDbSpline
210
0.0
220
0.0
230
1.0
 70
    11
 71
     3
 72
    24
 73
    20
 74
     0
 42
0.0000000001
 43
0.0000000001
 12
1.0
 22
0.0
 32
0.0
 13
1.0
 23
0.0
 33
0.0
 40
0.0
 40
0.0
 40
0.0
 40
0.0
 40
0.1666666666666667
 40
0.1666666666666667
 40
0.1666666666666667
 40
0.1666666666666667
 40
0.3333333333333333
 40
0.3333333333333333
 40
0.3333333333333333
 40
0.3333333333333333
 40
0.5
 40
0.5
 40
0.5
 40
0.5
 40
0.6666666666666666
 40
0.6666666666666666
 40
0.6666666666666666
 40
0.6666666666666666
 40
1.0
 40
1.0
 40
1.0
 40
1.0
 10
188.1946
 20
59.453
 30
0.0
 10
189.0396
 20
59.5221
 30
0.0
 10
189.8584
 20
59.6815
 30
0.0
 10
190.6412
 20
59.9217
 30
0.0
 10
190.6412
 20
59.9217
 30
0.0
 10
190.6412
 20
59.9217
 30
0.0
 10
190.6412
 20
39.8037
 30
0.0
 10
190.6412
 20
39.8037
 30
0.0
 10
190.6412
 20
39.8037
 30
0.0
 10
189.75
 20
40.1009
 30
0.0
 10
188.8111
 20
40.2925
 30
0.0
 10
187.8371
 20
40.3654
 30
0.0
 10
187.8371
 20
40.3654
 30
0.0
 10
187.3796
 20
44.5711
 30
0.0
 10
184.7077
 20
48.0987
 30
0.0
 10
181.0362
 20
49.7171
 30
0.0
 10
181.0362
 20
49.7171
 30
0.0
 10
184.9512
 20
51.2921
 30
0.0
 10
187.8035
 20
55.0127
 30
0.0
 10
188.1946
 20
59.453
 30
0.0
  0
SPLINE
  5
95
330
1F
100
AcDbEntity
  8
layer 1
 62
     7
100
AcDbSpline
210
0.0
220
0.0
230
1.0
 70
    11
 71
     3
 72
    16
 73
    12
 74
     0
 42
0.0000000001
 43
0.0000000001
 12
1.0
 22
0.0
 32
0.0
 13
1.0
 23
0.0
 33
0.0
 40
0.0
 40
0.0
 40
0.0
 40
0.0
 40
0.25
 40
0.25
 40
0.25
 40
0.25
 40
0.5
 40
0.5
 40
0.5
 40
0.5
 40
1.0
 40
1.0
 40
1.0
 40
1.0
 10
78.3652
 20
32.4013
 30
0.0
 10
79.777
 20
33.9132
 30
0.0
 10
80.6893
 20
35.8882
 30
0.0
 10
80.8407
 20
38.0698
 30
0.0
 10
80.8407
 20
38.0698
 30
0.0
 10
79.9747
 20
37.9777
 30
0.0
 10
79.1443
 20
37.7665
 30
0.0
 10
78.3652
 20
37.4576
 30
0.0
 10
78.3652
 20
37.4576
 30
0.0
 10
78.3652
 20
37.4576
 30
0.0
 10
78.3652
 20
32.4013
 30
0.0
 10
78.3652
 20
32.4013
 30
0.0
  0
SPLINE
  5
96
330
1F
100
AcDbEntity
  8
layer 1
 62
     7
100
AcDbSpline
210
0.0
220
0.0
230
1.0
 70
    11
 71
     3
 72
    16
 73
    12
 74
     0
 42
0.0000000001
 43
0.0000000001
 12
1.0
 22
0.0
 32
0.0
 13
1.0
 23
0.0
 33
0.0
 40
0.0
 40
0.0
 40
0.0
 40
0.0
 40
0.25
 40
0.25
 40
0.25
 40
0.25
 40
0.5
 40
0.5
 40
0.5
 40
0.5
 40
1.0
 40
1.0
 40
1.0
 40
1.0
 10
80.8697
 20
61.2556
 30
0.0
 10
80.6846
 20
63.396
 30
0.0
 10
79.7663
 20
65.3285
 30
0.0
 10
78.3652
 20
66.8096
 30
0.0
 10
78.3652
 20
66.8096
 30
0.0
 10
78.3652
 20
66.8096
 30
0.0
 10
78.3652
 20
61.9187
 30
0.0
 10
78.3652
 20
61.9187
 30
0.0
 10
78.3652
 20
61.9187
 30
0.0
 10
79.1517
 20
61.5892
 30
0.0
 10
79.9916
 20
61.3626
 30
0.0
 10
80.8697
 20
61.2556
 30
0.0
  0
SPLINE
  5
97
330
1F
100
AcDbEntity
  8
layer 1
 62
     7
100
AcDbSpline
210
0.0
220
0.0
230
1.0
 70
    11
 71
     3
 72
    12
 73
     8
 74
     0
 42
0.0000000001
 43
0.0000000001
 12
1.0
 22
0.0
 32
0.0
 13
1.0
 23
0.0
 33
0.0
 40
0.0
 40
0.0
 40
0.0
 40
0.0
 40
0.3333333333333333
 40
0.3333333333333333
 40
0.3333333333333333
 40
0.3333333333333333
 40
1.0
 40
1.0
 40
1.0
 40
1.0
 10
91.5622
 20
50.7406
 30
0.0
 10
91.0813
 20
55.2571
 30
0.0
 10
87.515
 20
58.8328
 30
0.0
 10
83.0536
 20
59.2403
 30
0.0
 10
83.0536
 20
59.2403
 30
0.0
 10
83.5346
 20
54.7234
 30
0.0
 10
87.1009
 20
51.1477
 30
0.0
 10
91.5622
 20
50.7406
 30
0.0
  0
SPLINE
  5
98
330
1F
100
AcDbEntity
  8
layer 1
 62
     7
100
AcDbSpline
210
0.0
220
0.0
230
1.0
 70
    11
 71
     3
 72
    12
 73
     8
 74
     0
 42
0.0000000001
 43
0.0000000001
 12
1.0
 22
0.0
 32
0.0
 13
1.0
 23
0.0
 33
0.0
 40
0.0
 40
0.0
 40
0.0
 40
0.0
 40
0.3333333333333333
 40
0.3333333333333333
 40
0.3333333333333333
 40
0.3333333333333333
 40
1.0
 40
1.0
 40
1.0
 40
1.0
 10
83.3172
 20
40.1813
 30
0.0
 10
87.6183
 20
40.6982
 30
0.0
 10
91.0327
 20
44.1668
 30
0.0
 10
91.5496
 20
48.5417
 30
0.0
 10
91.5496
 20
48.5417
 30
0.0
 10
87.2486
 20
48.0253
 30
0.0
 10
83.8341
 20
44.5557
 30
0.0
 10
83.3172
 20
40.1813
 30
0.0
  0
SPLINE
  5
99
330
1F
100
AcDbEntity
  8
layer 1
 62
     7
100
AcDbSpline
210
0.0
220
0.0
230
1.0
 70
    11
 71
     3
 72
    24
 73
    20
 74
     0
 42
0.0000000001
 43
0.0000000001
 12
1.0
 22
0.0
 32
0.0
 13
1.0
 23
0.0
 33
0.0
 40
0.0
 40
0.0
 40
0.0
 40
0.0
 40
0.1666666666666667
 40
0.1666666666666667
 40
0.1666666666666667
 40
0.1666666666666667
 40
0.3333333333333333
 40
0.3333333333333333
 40
0.3333333333333333
 40
0.3333333333333333
 40
0.5
 40
0.5
 40
0.5
 40
0.5
 40
0.6666666666666666
 40
0.6666666666666666
 40
0.6666666666666666
 40
0.6666666666666666
 40
1.0
 40
1.0
 40
1.0
 40
1.0
 10
78.3652
 20
59.5647
 30
0.0
 10
79.1961
 20
59.281
 30
0.0
 10
80.071
 20
59.0894
 30
0.0
 10
80.9758
 20
59.0011
 30
0.0
 10
80.9758
 20
59.0011
 30
0.0
 10
81.4506
 20
54.8211
 30
0.0
 10
84.216
 20
51.3248
 30
0.0
 10
88.0001
 20
49.769
 30
0.0
 10
88.0001
 20
49.769
 30
0.0
 10
84.1701
 20
48.1052
 30
0.0
 10
81.409
 20
44.3818
 30
0.0
 10
81.0632
 20
39.9672
 30
0.0
 10
81.0632
 20
39.9672
 30
0.0
 10
80.1262
 20
39.8691
 30
0.0
 10
79.2214
 20
39.6597
 30
0.0
 10
78.3652
 20
39.3531
 30
0.0
 10
78.3652
 20
39.3531
 30
0.0
 10
78.3652
 20
39.3531
 30
0.0
 10
78.3652
 20
59.5647
 30
0.0
 10
78.3652
 20
59.5647
 30
0.0
  0
SPLINE
  5
9A
330
1F
100
AcDbEntity
  8
layer 1
 62
     7
100
AcDbSpline
210
0.0
220
0.0
230
1.0
 70
    11
 71
     3
 72
    12
 73
     8
 74
     0
 42
0.0000000001
 43
0.0000000001
 12
1.0
 22
0.0
 32
0.0
 13
1.0
 23
0.0
 33
0.0
 40
0.0
 40
0.0
 40
0.0
 40
0.0
 40
0.3333333333333333
 40
0.3333333333333333
 40
0.3333333333333333
 40
0.3333333333333333
 40
1.0
 40
1.0
 40
1.0
 40
1.0
 10
156.3157
 20
-12.0943
 30
0.0
 10
160.8177
 20
-11.6111
 30
0.0
 10
164.3686
 20
-7.9886
 30
0.0
 10
164.6808
 20
-3.4862
 30
0.0
 10
164.6808
 20
-3.4862
 30
0.0
 10
160.1783
 20
-3.9699
 30
0.0
 10
156.6278
 20
-7.5928
 30
0.0
 10
156.3157
 20
-12.0943
 30
0.0
  0
SPLINE
  5
9B
330
1F
100
AcDbEntity
  8
layer 1
 62
     7
100
AcDbSpline
210
0.0
220
0.0
230
1.0
 70
    11
 71
     3
 72
    12
 73
     8
 74
     0
 42
0.0000000001
 43
0.0000000001
 12
1.0
 22
0.0
 32
0.0
 13
1.0
 23
0.0
 33
0.0
 40
0.0
 40
0.0
 40
0.0
 40
0.0
 40
0.3333333333333333
 40
0.3333333333333333
 40
0.3333333333333333
 40
0.3333333333333333
 40
1.0
 40
1.0
 40
1.0
 40
1.0
 10
145.9087
 20
-3.6381
 30
0.0
 10
146.2938
 20
-8.1209
 30
0.0
 10
149.8924
 20
-11.6989
 30
0.0
 10
154.4173
 20
-12.1097
 30
0.0
 10
154.4173
 20
-12.1097
 30
0.0
 10
154.0317
 20
-7.6274
 30
0.0
 10
150.4331
 20
-4.0493
 30
0.0
 10
145.9087
 20
-3.6381
 30
0.0
  0
SPLINE
  5
9C
330
1F
100
AcDbEntity
  8
layer 1
 62
     7
100
AcDbSpline
210
0.0
220
0.0
230
1.0
 70
    11
 71
     3
 72
    12
 73
     8
 74
     0
 42
0.0000000001
 43
0.0000000001
 12
1.0
 22
0.0
 32
0.0
 13
1.0
 23
0.0
 33
0.0
 40
0.0
 40
0.0
 40
0.0
 40
0.0
 40
0.3333333333333333
 40
0.3333333333333333
 40
0.3333333333333333
 40
0.3333333333333333
 40
1.0
 40
1.0
 40
1.0
 40
1.0
 10
135.4325
 20
6.954
 30
0.0
 10
135.9317
 20
2.5244
 30
0.0
 10
139.3999
 20
-0.9882
 30
0.0
 10
143.7607
 20
-1.4691
 30
0.0
 10
143.7607
 20
-1.4691
 30
0.0
 10
143.2616
 20
2.9605
 30
0.0
 10
139.7934
 20
6.4731
 30
0.0
 10
135.4325
 20
6.954
 30
0.0
  0
SPLINE
  5
9D
330
1F
100
AcDbEntity
  8
layer 1
 62
     7
100
AcDbSpline
210
0.0
220
0.0
230
1.0
 70
    11
 71
     3
 72
    12
 73
     8
 74
     0
 42
0.0000000001
 43
0.0000000001
 12
1.0
 22
0.0
 32
0.0
 13
1.0
 23
0.0
 33
0.0
 40
0.0
 40
0.0
 40
0.0
 40
0.0
 40
0.3333333333333333
 40
0.3333333333333333
 40
0.3333333333333333
 40
0.3333333333333333
 40
1.0
 40
1.0
 40
1.0
 40
1.0
 10
143.6939
 20
17.5755
 30
0.0
 10
139.3129
 20
17.06
 30
0.0
 10
135.8457
 20
13.482
 30
0.0
 10
135.4152
 20
9.0005
 30
0.0
 10
135.4152
 20
9.0005
 30
0.0
 10
139.7971
 20
9.5155
 30
0.0
 10
143.2635
 20
13.0931
 30
0.0
 10
143.6939
 20
17.5755
 30
0.0
  0
SPLINE
  5
9E
330
1F
100
AcDbEntity
  8
layer 1
 62
     7
100
AcDbSpline
210
0.0
220
0.0
230
1.0
 70
    11
 71
     3
 72
    12
 73
     8
 74
     0
 42
0.0000000001
 43
0.0000000001
 12
1.0
 22
0.0
 32
0.0
 13
1.0
 23
0.0
 33
0.0
 40
0.0
 40
0.0
 40
0.0
 40
0.0
 40
0.3333333333333333
 40
0.3333333333333333
 40
0.3333333333333333
 40
0.3333333333333333
 40
1.0
 40
1.0
 40
1.0
 40
1.0
 10
154.1495
 20
28.132
 30
0.0
 10
149.8298
 20
27.5969
 30
0.0
 10
146.419
 20
24.167
 30
0.0
 10
145.9666
 20
19.8688
 30
0.0
 10
145.9666
 20
19.8688
 30
0.0
 10
150.2868
 20
20.4034
 30
0.0
 10
153.6976
 20
23.8338
 30
0.0
 10
154.1495
 20
28.132
 30
0.0
  0
SPLINE
  5
9F
330
1F
100
AcDbEntity
  8
layer 1
 62
     7
100
AcDbSpline
210
0.0
220
0.0
230
1.0
 70
    11
 71
     3
 72
    12
 73
     8
 74
     0
 42
0.0000000001
 43
0.0000000001
 12
1.0
 22
0.0
 32
0.0
 13
1.0
 23
0.0
 33
0.0
 40
0.0
 40
0.0
 40
0.0
 40
0.0
 40
0.3333333333333333
 40
0.3333333333333333
 40
0.3333333333333333
 40
0.3333333333333333
 40
1.0
 40
1.0
 40
1.0
 40
1.0
 10
164.7102
 20
19.6996
 30
0.0
 10
164.3303
 20
24.0815
 30
0.0
 10
160.8793
 20
27.5978
 30
0.0
 10
156.4951
 20
28.1339
 30
0.0
 10
156.4951
 20
28.1339
 30
0.0
 10
156.8751
 20
23.7515
 30
0.0
 10
160.326
 20
20.2347
 30
0.0
 10
164.7102
 20
19.6996
 30
0.0
  0
SPLINE
  5
A0
330
1F
100
AcDbEntity
  8
layer 1
 62
     7
100
AcDbSpline
210
0.0
220
0.0
230
1.0
 70
    11
 71
     3
 72
    12
 73
     8
 74
     0
 42
0.0000000001
 43
0.0000000001
 12
1.0
 22
0.0
 32
0.0
 13
1.0
 23
0.0
 33
0.0
 40
0.0
 40
0.0
 40
0.0
 40
0.0
 40
0.3333333333333333
 40
0.3333333333333333
 40
0.3333333333333333
 40
0.3333333333333333
 40
1.0
 40
1.0
 40
1.0
 40
1.0
 10
175.4023
 20
9.1847
 30
0.0
 10
174.9214
 20
13.7007
 30
0.0
 10
171.3555
 20
17.2769
 30
0.0
 10
166.8937
 20
17.6844
 30
0.0
 10
166.8937
 20
17.6844
 30
0.0
 10
167.3746
 20
13.167
 30
0.0
 10
170.941
 20
9.5917
 30
0.0
 10
175.4023
 20
9.1847
 30
0.0
  0
SPLINE
  5
A1
330
1F
100
AcDbEntity
  8
layer 1
 62
     7
100
AcDbSpline
210
0.0
220
0.0
230
1.0
 70
    11
 71
     3
 72
    12
 73
     8
 74
     0
 42
0.0000000001
 43
0.0000000001
 12
1.0
 22
0.0
 32
0.0
 13
1.0
 23
0.0
 33
0.0
 40
0.0
 40
0.0
 40
0.0
 40
0.0
 40
0.3333333333333333
 40
0.3333333333333333
 40
0.3333333333333333
 40
0.3333333333333333
 40
1.0
 40
1.0
 40
1.0
 40
1.0
 10
167.1573
 20
-1.3747
 30
0.0
 10
171.4583
 20
-0.8578
 30
0.0
 10
174.8728
 20
2.6104
 30
0.0
 10
175.3897
 20
6.9853
 30
0.0
 10
175.3897
 20
6.9853
 30
0.0
 10
171.0886
 20
6.4689
 30
0.0
 10
167.6742
 20
2.9997
 30
0.0
 10
167.1573
 20
-1.3747
 30
0.0
  0
SPLINE
  5
A2
330
1F
100
AcDbEntity
  8
layer 1
 62
     7
100
AcDbSpline
210
0.0
220
0.0
230
1.0
 70
    11
 71
     3
 72
    36
 73
    32
 74
     0
 42
0.0000000001
 43
0.0000000001
 12
1.0
 22
0.0
 32
0.0
 13
1.0
 23
0.0
 33
0.0
 40
0.0
 40
0.0
 40
0.0
 40
0.0
 40
0.1111111111111111
 40
0.1111111111111111
 40
0.1111111111111111
 40
0.1111111111111111
 40
0.2222222222222222
 40
0.2222222222222222
 40
0.2222222222222222
 40
0.2222222222222222
 40
0.3333333333333333
 40
0.3333333333333333
 40
0.3333333333333333
 40
0.3333333333333333
 40
0.4444444444444444
 40
0.4444444444444444
 40
0.4444444444444444
 40
0.4444444444444444
 40
0.5555555555555556
 40
0.5555555555555556
 40
0.5555555555555556
 40
0.5555555555555556
 40
0.6666666666666666
 40
0.6666666666666666
 40
0.6666666666666666
 40
0.6666666666666666
 40
0.7777777777777778
 40
0.7777777777777778
 40
0.7777777777777778
 40
0.7777777777777778
 40
1.0
 40
1.0
 40
1.0
 40
1.0
 10
145.9166
 20
17.5129
 30
0.0
 10
150.1611
 20
17.8615
 30
0.0
 10
153.7522
 20
20.4871
 30
0.0
 10
155.437
 20
24.1516
 30
0.0
 10
155.437
 20
24.1516
 30
0.0
 10
157.0816
 20
20.4955
 30
0.0
 10
160.6186
 20
17.855
 30
0.0
 10
164.8158
 20
17.4446
 30
0.0
 10
164.8158
 20
17.4446
 30
0.0
 10
165.2907
 20
13.2646
 30
0.0
 10
168.056
 20
9.7684
 30
0.0
 10
171.8401
 20
8.2126
 30
0.0
 10
171.8401
 20
8.2126
 30
0.0
 10
168.0102
 20
6.5488
 30
0.0
 10
165.2491
 20
2.8254
 30
0.0
 10
164.9037
 20
-1.5892
 30
0.0
 10
164.9037
 20
-1.5892
 30
0.0
 10
160.5592
 20
-2.0435
 30
0.0
 10
156.9344
 20
-4.8878
 30
0.0
 10
155.4015
 20
-8.7682
 30
0.0
 10
155.4015
 20
-8.7682
 30
0.0
 10
153.8233
 20
-4.7943
 30
0.0
 10
150.0503
 20
-1.9098
 30
0.0
 10
145.5591
 20
-1.5747
 30
0.0
 10
145.5591
 20
-1.5747
 30
0.0
 10
145.1011
 20
2.631
 30
0.0
 10
142.4297
 20
6.1586
 30
0.0
 10
138.7582
 20
7.7765
 30
0.0
 10
138.7582
 20
7.7765
 30
0.0
 10
142.6727
 20
9.352
 30
0.0
 10
145.525
 20
13.0726
 30
0.0
 10
145.9166
 20
17.5129
 30
0.0
  0
SPLINE
  5
A3
330
1F
100
AcDbEntity
  8
layer 1
 62
     7
100
AcDbSpline
210
0.0
220
0.0
230
1.0
 70
    11
 71
     3
 72
    12
 73
     8
 74
     0
 42
0.0000000001
 43
0.0000000001
 12
1.0
 22
0.0
 32
0.0
 13
1.0
 23
0.0
 33
0.0
 40
0.0
 40
0.0
 40
0.0
 40
0.0
 40
0.3333333333333333
 40
0.3333333333333333
 40
0.3333333333333333
 40
0.3333333333333333
 40
1.0
 40
1.0
 40
1.0
 40
1.0
 10
114.5134
 20
-12.5383
 30
0.0
 10
119.0159
 20
-12.0546
 30
0.0
 10
122.5663
 20
-8.4322
 30
0.0
 10
122.8785
 20
-3.9297
 30
0.0
 10
122.8785
 20
-3.9297
 30
0.0
 10
118.3765
 20
-4.4134
 30
0.0
 10
114.8256
 20
-8.0363
 30
0.0
 10
114.5134
 20
-12.5383
 30
0.0
  0
SPLINE
  5
A4
330
1F
100
AcDbEntity
  8
layer 1
 62
     7
100
AcDbSpline
210
0.0
220
0.0
230
1.0
 70
    11
 71
     3
 72
    12
 73
     8
 74
     0
 42
0.0000000001
 43
0.0000000001
 12
1.0
 22
0.0
 32
0.0
 13
1.0
 23
0.0
 33
0.0
 40
0.0
 40
0.0
 40
0.0
 40
0.0
 40
0.3333333333333333
 40
0.3333333333333333
 40
0.3333333333333333
 40
0.3333333333333333
 40
1.0
 40
1.0
 40
1.0
 40
1.0
 10
104.1064
 20
-4.082
 30
0.0
 10
104.492
 20
-8.5649
 30
0.0
 10
108.0906
 20
-12.1425
 30
0.0
 10
112.6155
 20
-12.5537
 30
0.0
 10
112.6155
 20
-12.5537
 30
0.0
 10
112.2299
 20
-8.0714
 30
0.0
 10
108.6313
 20
-4.4928
 30
0.0
 10
104.1064
 20
-4.082
 30
0.0
  0
SPLINE
  5
A5
330
1F
100
AcDbEntity
  8
layer 1
 62
     7
100
AcDbSpline
210
0.0
220
0.0
230
1.0
 70
    11
 71
     3
 72
    12
 73
     8
 74
     0
 42
0.0000000001
 43
0.0000000001
 12
1.0
 22
0.0
 32
0.0
 13
1.0
 23
0.0
 33
0.0
 40
0.0
 40
0.0
 40
0.0
 40
0.0
 40
0.3333333333333333
 40
0.3333333333333333
 40
0.3333333333333333
 40
0.3333333333333333
 40
1.0
 40
1.0
 40
1.0
 40
1.0
 10
93.6307
 20
6.5105
 30
0.0
 10
94.1299
 20
2.0805
 30
0.0
 10
97.5981
 20
-1.4317
 30
0.0
 10
101.9589
 20
-1.9126
 30
0.0
 10
101.9589
 20
-1.9126
 30
0.0
 10
101.4598
 20
2.517
 30
0.0
 10
97.9911
 20
6.0291
 30
0.0
 10
93.6307
 20
6.5105
 30
0.0
  0
SPLINE
  5
A6
330
1F
100
AcDbEntity
  8
layer 1
 62
     7
100
AcDbSpline
210
0.0
220
0.0
230
1.0
 70
    11
 71
     3
 72
    12
 73
     8
 74
     0
 42
0.0000000001
 43
0.0000000001
 12
1.0
 22
0.0
 32
0.0
 13
1.0
 23
0.0
 33
0.0
 40
0.0
 40
0.0
 40
0.0
 40
0.0
 40
0.3333333333333333
 40
0.3333333333333333
 40
0.3333333333333333
 40
0.3333333333333333
 40
1.0
 40
1.0
 40
1.0
 40
1.0
 10
101.8921
 20
17.1315
 30
0.0
 10
97.5112
 20
16.616
 30
0.0
 10
94.0439
 20
13.0384
 30
0.0
 10
93.6135
 20
8.5565
 30
0.0
 10
93.6135
 20
8.5565
 30
0.0
 10
97.9953
 20
9.072
 30
0.0
 10
101.4612
 20
12.6491
 30
0.0
 10
101.8921
 20
17.1315
 30
0.0
  0
SPLINE
  5
A7
330
1F
100
AcDbEntity
  8
layer 1
 62
     7
100
AcDbSpline
210
0.0
220
0.0
230
1.0
 70
    11
 71
     3
 72
    12
 73
     8
 74
     0
 42
0.0000000001
 43
0.0000000001
 12
1.0
 22
0.0
 32
0.0
 13
1.0
 23
0.0
 33
0.0
 40
0.0
 40
0.0
 40
0.0
 40
0.0
 40
0.3333333333333333
 40
0.3333333333333333
 40
0.3333333333333333
 40
0.3333333333333333
 40
1.0
 40
1.0
 40
1.0
 40
1.0
 10
112.3477
 20
27.688
 30
0.0
 10
108.028
 20
27.1529
 30
0.0
 10
104.6172
 20
23.723
 30
0.0
 10
104.1648
 20
19.4248
 30
0.0
 10
104.1648
 20
19.4248
 30
0.0
 10
108.485
 20
19.9599
 30
0.0
 10
111.8958
 20
23.3898
 30
0.0
 10
112.3477
 20
27.688
 30
0.0
  0
SPLINE
  5
A8
330
1F
100
AcDbEntity
  8
layer 1
 62
     7
100
AcDbSpline
210
0.0
220
0.0
230
1.0
 70
    11
 71
     3
 72
    12
 73
     8
 74
     0
 42
0.0000000001
 43
0.0000000001
 12
1.0
 22
0.0
 32
0.0
 13
1.0
 23
0.0
 33
0.0
 40
0.0
 40
0.0
 40
0.0
 40
0.0
 40
0.3333333333333333
 40
0.3333333333333333
 40
0.3333333333333333
 40
0.3333333333333333
 40
1.0
 40
1.0
 40
1.0
 40
1.0
 10
122.908
 20
19.2556
 30
0.0
 10
122.528
 20
23.638
 30
0.0
 10
119.0771
 20
27.1539
 30
0.0
 10
114.6933
 20
27.6899
 30
0.0
 10
114.6933
 20
27.6899
 30
0.0
 10
115.0733
 20
23.3076
 30
0.0
 10
118.5242
 20
19.7907
 30
0.0
 10
122.908
 20
19.2556
 30
0.0
  0
SPLINE
  5
A9
330
1F
100
AcDbEntity
  8
layer 1
 62
     7
100
AcDbSpline
210
0.0
220
0.0
230
1.0
 70
    11
 71
     3
 72
    12
 73
     8
 74
     0
 42
0.0000000001
 43
0.0000000001
 12
1.0
 22
0.0
 32
0.0
 13
1.0
 23
0.0
 33
0.0
 40
0.0
 40
0.0
 40
0.0
 40
0.0
 40
0.3333333333333333
 40
0.3333333333333333
 40
0.3333333333333333
 40
0.3333333333333333
 40
1.0
 40
1.0
 40
1.0
 40
1.0
 10
133.6005
 20
8.7411
 30
0.0
 10
133.1196
 20
13.2572
 30
0.0
 10
129.5532
 20
16.8329
 30
0.0
 10
125.0919
 20
17.2404
 30
0.0
 10
125.0919
 20
17.2404
 30
0.0
 10
125.5728
 20
12.7234
 30
0.0
 10
129.1392
 20
9.1477
 30
0.0
 10
133.6005
 20
8.7411
 30
0.0
  0
SPLINE
  5
AA
330
1F
100
AcDbEntity
  8
layer 1
 62
     7
100
AcDbSpline
210
0.0
220
0.0
230
1.0
 70
    11
 71
     3
 72
    12
 73
     8
 74
     0
 42
0.0000000001
 43
0.0000000001
 12
1.0
 22
0.0
 32
0.0
 13
1.0
 23
0.0
 33
0.0
 40
0.0
 40
0.0
 40
0.0
 40
0.0
 40
0.3333333333333333
 40
0.3333333333333333
 40
0.3333333333333333
 40
0.3333333333333333
 40
1.0
 40
1.0
 40
1.0
 40
1.0
 10
125.3555
 20
-1.8187
 30
0.0
 10
129.6565
 20
-1.3018
 30
0.0
 10
133.071
 20
2.1669
 30
0.0
 10
133.5879
 20
6.5418
 30
0.0
 10
133.5879
 20
6.5418
 30
0.0
 10
129.2864
 20
6.0254
 30
0.0
 10
125.8724
 20
2.5562
 30
0.0
 10
125.3555
 20
-1.8187
 30
0.0
  0
SPLINE
  5
AB
330
1F
100
AcDbEntity
  8
layer 1
 62
     7
100
AcDbSpline
210
0.0
220
0.0
230
1.0
 70
    11
 71
     3
 72
    16
 73
    12
 74
     0
 42
0.0000000001
 43
0.0000000001
 12
1.0
 22
0.0
 32
0.0
 13
1.0
 23
0.0
 33
0.0
 40
0.0
 40
0.0
 40
0.0
 40
0.0
 40
0.25
 40
0.25
 40
0.25
 40
0.25
 40
0.5
 40
0.5
 40
0.5
 40
0.5
 40
1.0
 40
1.0
 40
1.0
 40
1.0
 10
188.1353
 20
-3.7353
 30
0.0
 10
188.3175
 20
-5.8524
 30
0.0
 10
189.2158
 20
-7.7666
 30
0.0
 10
190.5903
 20
-9.2416
 30
0.0
 10
190.5903
 20
-9.2416
 30
0.0
 10
190.5903
 20
-9.2416
 30
0.0
 10
190.5903
 20
-4.2942
 30
0.0
 10
190.5903
 20
-4.2942
 30
0.0
 10
190.5903
 20
-4.2942
 30
0.0
 10
189.8154
 20
-4.0045
 30
0.0
 10
188.9924
 20
-3.8128
 30
0.0
 10
188.1353
 20
-3.7353
 30
0.0
  0
SPLINE
  5
AC
330
1F
100
AcDbEntity
  8
layer 1
 62
     7
100
AcDbSpline
210
0.0
220
0.0
230
1.0
 70
    11
 71
     3
 72
    12
 73
     8
 74
     0
 42
0.0000000001
 43
0.0000000001
 12
1.0
 22
0.0
 32
0.0
 13
1.0
 23
0.0
 33
0.0
 40
0.0
 40
0.0
 40
0.0
 40
0.0
 40
0.3333333333333333
 40
0.3333333333333333
 40
0.3333333333333333
 40
0.3333333333333333
 40
1.0
 40
1.0
 40
1.0
 40
1.0
 10
177.6596
 20
6.8568
 30
0.0
 10
178.1587
 20
2.4272
 30
0.0
 10
181.6269
 20
-1.0854
 30
0.0
 10
185.9878
 20
-1.5658
 30
0.0
 10
185.9878
 20
-1.5658
 30
0.0
 10
185.4887
 20
2.8633
 30
0.0
 10
182.02
 20
6.3759
 30
0.0
 10
177.6596
 20
6.8568
 30
0.0
  0
SPLINE
  5
AD
330
1F
100
AcDbEntity
  8
layer 1
 62
     7
100
AcDbSpline
210
0.0
220
0.0
230
1.0
 70
    11
 71
     3
 72
    12
 73
     8
 74
     0
 42
0.0000000001
 43
0.0000000001
 12
1.0
 22
0.0
 32
0.0
 13
1.0
 23
0.0
 33
0.0
 40
0.0
 40
0.0
 40
0.0
 40
0.0
 40
0.3333333333333333
 40
0.3333333333333333
 40
0.3333333333333333
 40
0.3333333333333333
 40
1.0
 40
1.0
 40
1.0
 40
1.0
 10
185.921
 20
17.4783
 30
0.0
 10
181.54
 20
16.9628
 30
0.0
 10
178.0727
 20
13.3852
 30
0.0
 10
177.6423
 20
8.9033
 30
0.0
 10
177.6423
 20
8.9033
 30
0.0
 10
182.0242
 20
9.4183
 30
0.0
 10
185.4901
 20
12.9959
 30
0.0
 10
185.921
 20
17.4783
 30
0.0
  0
SPLINE
  5
AE
330
1F
100
AcDbEntity
  8
layer 1
 62
     7
100
AcDbSpline
210
0.0
220
0.0
230
1.0
 70
    11
 71
     3
 72
    16
 73
    12
 74
     0
 42
0.0000000001
 43
0.0000000001
 12
1.0
 22
0.0
 32
0.0
 13
1.0
 23
0.0
 33
0.0
 40
0.0
 40
0.0
 40
0.0
 40
0.0
 40
0.25
 40
0.25
 40
0.25
 40
0.25
 40
0.5
 40
0.5
 40
0.5
 40
0.5
 40
1.0
 40
1.0
 40
1.0
 40
1.0
 10
190.5903
 20
25.0578
 30
0.0
 10
189.2775
 20
23.6305
 30
0.0
 10
188.4068
 20
21.7971
 30
0.0
 10
188.1937
 20
19.7716
 30
0.0
 10
188.1937
 20
19.7716
 30
0.0
 10
189.0312
 20
19.8753
 30
0.0
 10
189.8355
 20
20.0889
 30
0.0
 10
190.5903
 20
20.396
 30
0.0
 10
190.5903
 20
20.396
 30
0.0
 10
190.5903
 20
20.396
 30
0.0
 10
190.5903
 20
25.0578
 30
0.0
 10
190.5903
 20
25.0578
 30
0.0
  0
SPLINE
  5
AF
330
1F
100
AcDbEntity
  8
layer 1
 62
     7
100
AcDbSpline
210
0.0
220
0.0
230
1.0
 70
    11
 71
     3
 72
    24
 73
    20
 74
     0
 42
0.0000000001
 43
0.0000000001
 12
1.0
 22
0.0
 32
0.0
 13
1.0
 23
0.0
 33
0.0
 40
0.0
 40
0.0
 40
0.0
 40
0.0
 40
0.1666666666666667
 40
0.1666666666666667
 40
0.1666666666666667
 40
0.1666666666666667
 40
0.3333333333333333
 40
0.3333333333333333
 40
0.3333333333333333
 40
0.3333333333333333
 40
0.5
 40
0.5
 40
0.5
 40
0.5
 40
0.6666666666666666
 40
0.6666666666666666
 40
0.6666666666666666
 40
0.6666666666666666
 40
1.0
 40
1.0
 40
1.0
 40
1.0
 10
188.1432
 20
17.4157
 30
0.0
 10
188.9882
 20
17.4853
 30
0.0
 10
189.807
 20
17.6442
 30
0.0
 10
190.5903
 20
17.8844
 30
0.0
 10
190.5903
 20
17.8844
 30
0.0
 10
190.5903
 20
17.8844
 30
0.0
 10
190.5903
 20
-2.2337
 30
0.0
 10
190.5903
 20
-2.2337
 30
0.0
 10
190.5903
 20
-2.2337
 30
0.0
 10
189.699
 20
-1.9364
 30
0.0
 10
188.7597
 20
-1.7448
 30
0.0
 10
187.7857
 20
-1.6719
 30
0.0
 10
187.7857
 20
-1.6719
 30
0.0
 10
187.3282
 20
2.5343
 30
0.0
 10
184.6563
 20
6.0618
 30
0.0
 10
180.9848
 20
7.6798
 30
0.0
 10
180.9848
 20
7.6798
 30
0.0
 10
184.8998
 20
9.2548
 30
0.0
 10
187.752
 20
12.9753
 30
0.0
 10
188.1432
 20
17.4157
 30
0.0
  0
SPLINE
  5
B0
330
1F
100
AcDbEntity
  8
layer 1
 62
     7
100
AcDbSpline
210
0.0
220
0.0
230
1.0
 70
    11
 71
     3
 72
    16
 73
    12
 74
     0
 42
0.0000000001
 43
0.0000000001
 12
1.0
 22
0.0
 32
0.0
 13
1.0
 23
0.0
 33
0.0
 40
0.0
 40
0.0
 40
0.0
 40
0.0
 40
0.25
 40
0.25
 40
0.25
 40
0.25
 40
0.5
 40
0.5
 40
0.5
 40
0.5
 40
1.0
 40
1.0
 40
1.0
 40
1.0
 10
78.3138
 20
-9.636
 30
0.0
 10
79.7256
 20
-8.1242
 30
0.0
 10
80.6379
 20
-6.1491
 30
0.0
 10
80.7893
 20
-3.9671
 30
0.0
 10
80.7893
 20
-3.9671
 30
0.0
 10
79.9233
 20
-4.0601
 30
0.0
 10
79.0928
 20
-4.2704
 30
0.0
 10
78.3138
 20
-4.5798
 30
0.0
 10
78.3138
 20
-4.5798
 30
0.0
 10
78.3138
 20
-4.5798
 30
0.0
 10
78.3138
 20
-9.636
 30
0.0
 10
78.3138
 20
-9.636
 30
0.0
  0
SPLINE
  5
B1
330
1F
100
AcDbEntity
  8
layer 1
 62
     7
100
AcDbSpline
210
0.0
220
0.0
230
1.0
 70
    11
 71
     3
 72
    16
 73
    12
 74
     0
 42
0.0000000001
 43
0.0000000001
 12
1.0
 22
0.0
 32
0.0
 13
1.0
 23
0.0
 33
0.0
 40
0.0
 40
0.0
 40
0.0
 40
0.0
 40
0.25
 40
0.25
 40
0.25
 40
0.25
 40
0.5
 40
0.5
 40
0.5
 40
0.5
 40
1.0
 40
1.0
 40
1.0
 40
1.0
 10
80.8188
 20
19.2182
 30
0.0
 10
80.6332
 20
21.3592
 30
0.0
 10
79.7154
 20
23.2912
 30
0.0
 10
78.3138
 20
24.7722
 30
0.0
 10
78.3138
 20
24.7722
 30
0.0
 10
78.3138
 20
24.7722
 30
0.0
 10
78.3138
 20
19.8814
 30
0.0
 10
78.3138
 20
19.8814
 30
0.0
 10
78.3138
 20
19.8814
 30
0.0
 10
79.1003
 20
19.5519
 30
0.0
 10
79.9402
 20
19.3253
 30
0.0
 10
80.8188
 20
19.2182
 30
0.0
  0
SPLINE
  5
B2
330
1F
100
AcDbEntity
  8
layer 1
 62
     7
100
AcDbSpline
210
0.0
220
0.0
230
1.0
 70
    11
 71
     3
 72
    12
 73
     8
 74
     0
 42
0.0000000001
 43
0.0000000001
 12
1.0
 22
0.0
 32
0.0
 13
1.0
 23
0.0
 33
0.0
 40
0.0
 40
0.0
 40
0.0
 40
0.0
 40
0.3333333333333333
 40
0.3333333333333333
 40
0.3333333333333333
 40
0.3333333333333333
 40
1.0
 40
1.0
 40
1.0
 40
1.0
 10
91.5113
 20
8.7038
 30
0.0
 10
91.0299
 20
13.2198
 30
0.0
 10
87.464
 20
16.7955
 30
0.0
 10
83.0022
 20
17.203
 30
0.0
 10
83.0022
 20
17.203
 30
0.0
 10
83.4836
 20
12.6861
 30
0.0
 10
87.0495
 20
9.1104
 30
0.0
 10
91.5113
 20
8.7038
 30
0.0
  0
SPLINE
  5
B3
330
1F
100
AcDbEntity
  8
layer 1
 62
     7
100
AcDbSpline
210
0.0
220
0.0
230
1.0
 70
    11
 71
     3
 72
    12
 73
     8
 74
     0
 42
0.0000000001
 43
0.0000000001
 12
1.0
 22
0.0
 32
0.0
 13
1.0
 23
0.0
 33
0.0
 40
0.0
 40
0.0
 40
0.0
 40
0.0
 40
0.3333333333333333
 40
0.3333333333333333
 40
0.3333333333333333
 40
0.3333333333333333
 40
1.0
 40
1.0
 40
1.0
 40
1.0
 10
83.2658
 20
-1.856
 30
0.0
 10
87.5673
 20
-1.3392
 30
0.0
 10
90.9813
 20
2.1295
 30
0.0
 10
91.4982
 20
6.5044
 30
0.0
 10
91.4982
 20
6.5044
 30
0.0
 10
87.1972
 20
5.988
 30
0.0
 10
83.7827
 20
2.5188
 30
0.0
 10
83.2658
 20
-1.856
 30
0.0
  0
SPLINE
  5
B4
330
1F
100
AcDbEntity
  8
layer 1
 62
     7
100
AcDbSpline
210
0.0
220
0.0
230
1.0
 70
    11
 71
     3
 72
    24
 73
    20
 74
     0
 42
0.0000000001
 43
0.0000000001
 12
1.0
 22
0.0
 32
0.0
 13
1.0
 23
0.0
 33
0.0
 40
0.0
 40
0.0
 40
0.0
 40
0.0
 40
0.1666666666666667
 40
0.1666666666666667
 40
0.1666666666666667
 40
0.1666666666666667
 40
0.3333333333333333
 40
0.3333333333333333
 40
0.3333333333333333
 40
0.3333333333333333
 40
0.5
 40
0.5
 40
0.5
 40
0.5
 40
0.6666666666666666
 40
0.6666666666666666
 40
0.6666666666666666
 40
0.6666666666666666
 40
1.0
 40
1.0
 40
1.0
 40
1.0
 10
78.3138
 20
17.5274
 30
0.0
 10
79.1452
 20
17.2437
 30
0.0
 10
80.0196
 20
17.0521
 30
0.0
 10
80.9244
 20
16.9637
 30
0.0
 10
80.9244
 20
16.9637
 30
0.0
 10
81.3992
 20
12.7837
 30
0.0
 10
84.1645
 20
9.2875
 30
0.0
 10
87.9487
 20
7.7317
 30
0.0
 10
87.9487
 20
7.7317
 30
0.0
 10
84.1187
 20
6.0679
 30
0.0
 10
81.3576
 20
2.3445
 30
0.0
 10
81.0123
 20
-2.0701
 30
0.0
 10
81.0123
 20
-2.0701
 30
0.0
 10
80.0747
 20
-2.1682
 30
0.0
 10
79.1704
 20
-2.3776
 30
0.0
 10
78.3138
 20
-2.6842
 30
0.0
 10
78.3138
 20
-2.6842
 30
0.0
 10
78.3138
 20
-2.6842
 30
0.0
 10
78.3138
 20
17.5274
 30
0.0
 10
78.3138
 20
17.5274
 30
0.0
  0
SPLINE
  5
B5
330
1F
100
AcDbEntity
  8
layer 1
 62
     7
100
AcDbSpline
210
0.0
220
0.0
230
1.0
 70
    11
 71
     3
 72
    16
 73
    12
 74
     0
 42
0.0000000001
 43
0.0000000001
 12
1.0
 22
0.0
 32
0.0
 13
1.0
 23
0.0
 33
0.0
 40
0.0
 40
0.0
 40
0.0
 40
0.0
 40
0.25
 40
0.25
 40
0.25
 40
0.25
 40
0.5
 40
0.5
 40
0.5
 40
0.5
 40
1.0
 40
1.0
 40
1.0
 40
1.0
 10
78.4764
 20
-51.4336
 30
0.0
 10
79.8883
 20
-49.9222
 30
0.0
 10
80.8005
 20
-47.9467
 30
0.0
 10
80.952
 20
-45.7651
 30
0.0
 10
80.952
 20
-45.7651
 30
0.0
 10
80.086
 20
-45.8581
 30
0.0
 10
79.2555
 20
-46.0684
 30
0.0
 10
78.4764
 20
-46.3773
 30
0.0
 10
78.4764
 20
-46.3773
 30
0.0
 10
78.4764
 20
-46.3773
 30
0.0
 10
78.4764
 20
-51.4336
 30
0.0
 10
78.4764
 20
-51.4336
 30
0.0
  0
SPLINE
  5
B6
330
1F
100
AcDbEntity
  8
layer 1
 62
     7
100
AcDbSpline
210
0.0
220
0.0
230
1.0
 70
    11
 71
     3
 72
    16
 73
    12
 74
     0
 42
0.0000000001
 43
0.0000000001
 12
1.0
 22
0.0
 32
0.0
 13
1.0
 23
0.0
 33
0.0
 40
0.0
 40
0.0
 40
0.0
 40
0.0
 40
0.25
 40
0.25
 40
0.25
 40
0.25
 40
0.5
 40
0.5
 40
0.5
 40
0.5
 40
1.0
 40
1.0
 40
1.0
 40
1.0
 10
80.9814
 20
-22.5793
 30
0.0
 10
80.7959
 20
-20.4389
 30
0.0
 10
79.878
 20
-18.5064
 30
0.0
 10
78.4764
 20
-17.0253
 30
0.0
 10
78.4764
 20
-17.0253
 30
0.0
 10
78.4764
 20
-17.0253
 30
0.0
 10
78.4764
 20
-21.9162
 30
0.0
 10
78.4764
 20
-21.9162
 30
0.0
 10
78.4764
 20
-21.9162
 30
0.0
 10
79.263
 20
-22.2457
 30
0.0
 10
80.1028
 20
-22.4723
 30
0.0
 10
80.9814
 20
-22.5793
 30
0.0
  0
SPLINE
  5
B7
330
1F
100
AcDbEntity
  8
layer 1
 62
     7
100
AcDbSpline
210
0.0
220
0.0
230
1.0
 70
    11
 71
     3
 72
    12
 73
     8
 74
     0
 42
0.0000000001
 43
0.0000000001
 12
1.0
 22
0.0
 32
0.0
 13
1.0
 23
0.0
 33
0.0
 40
0.0
 40
0.0
 40
0.0
 40
0.0
 40
0.3333333333333333
 40
0.3333333333333333
 40
0.3333333333333333
 40
0.3333333333333333
 40
1.0
 40
1.0
 40
1.0
 40
1.0
 10
91.6739
 20
-33.0943
 30
0.0
 10
91.1926
 20
-28.5783
 30
0.0
 10
87.6267
 20
-25.0021
 30
0.0
 10
83.1649
 20
-24.5946
 30
0.0
 10
83.1649
 20
-24.5946
 30
0.0
 10
83.6462
 20
-29.1115
 30
0.0
 10
87.2121
 20
-32.6872
 30
0.0
 10
91.6739
 20
-33.0943
 30
0.0
  0
SPLINE
  5
B8
330
1F
100
AcDbEntity
  8
layer 1
 62
     7
100
AcDbSpline
210
0.0
220
0.0
230
1.0
 70
    11
 71
     3
 72
    12
 73
     8
 74
     0
 42
0.0000000001
 43
0.0000000001
 12
1.0
 22
0.0
 32
0.0
 13
1.0
 23
0.0
 33
0.0
 40
0.0
 40
0.0
 40
0.0
 40
0.0
 40
0.3333333333333333
 40
0.3333333333333333
 40
0.3333333333333333
 40
0.3333333333333333
 40
1.0
 40
1.0
 40
1.0
 40
1.0
 10
83.4285
 20
-43.6536
 30
0.0
 10
87.73
 20
-43.1367
 30
0.0
 10
91.144
 20
-39.668
 30
0.0
 10
91.6609
 20
-35.2932
 30
0.0
 10
91.6609
 20
-35.2932
 30
0.0
 10
87.3598
 20
-35.8096
 30
0.0
 10
83.9454
 20
-39.2792
 30
0.0
 10
83.4285
 20
-43.6536
 30
0.0
  0
SPLINE
  5
B9
330
1F
100
AcDbEntity
  8
layer 1
 62
     7
100
AcDbSpline
210
0.0
220
0.0
230
1.0
 70
    11
 71
     3
 72
    24
 73
    20
 74
     0
 42
0.0000000001
 43
0.0000000001
 12
1.0
 22
0.0
 32
0.0
 13
1.0
 23
0.0
 33
0.0
 40
0.0
 40
0.0
 40
0.0
 40
0.0
 40
0.1666666666666667
 40
0.1666666666666667
 40
0.1666666666666667
 40
0.1666666666666667
 40
0.3333333333333333
 40
0.3333333333333333
 40
0.3333333333333333
 40
0.3333333333333333
 40
0.5
 40
0.5
 40
0.5
 40
0.5
 40
0.6666666666666666
 40
0.6666666666666666
 40
0.6666666666666666
 40
0.6666666666666666
 40
1.0
 40
1.0
 40
1.0
 40
1.0
 10
78.4764
 20
-24.2707
 30
0.0
 10
79.3078
 20
-24.5544
 30
0.0
 10
80.1822
 20
-24.7455
 30
0.0
 10
81.087
 20
-24.8343
 30
0.0
 10
81.087
 20
-24.8343
 30
0.0
 10
81.5619
 20
-29.0138
 30
0.0
 10
84.3272
 20
-32.5106
 30
0.0
 10
88.1113
 20
-34.0664
 30
0.0
 10
88.1113
 20
-34.0664
 30
0.0
 10
84.2814
 20
-35.7301
 30
0.0
 10
81.5203
 20
-39.4535
 30
0.0
 10
81.1749
 20
-43.8681
 30
0.0
 10
81.1749
 20
-43.8681
 30
0.0
 10
80.2374
 20
-43.9658
 30
0.0
 10
79.3331
 20
-44.1752
 30
0.0
 10
78.4764
 20
-44.4822
 30
0.0
 10
78.4764
 20
-44.4822
 30
0.0
 10
78.4764
 20
-44.4822
 30
0.0
 10
78.4764
 20
-24.2707
 30
0.0
 10
78.4764
 20
-24.2707
 30
0.0
  0
SPLINE
  5
BA
330
1F
100
AcDbEntity
  8
layer 1
 62
     7
100
AcDbSpline
210
0.0
220
0.0
230
1.0
 70
    11
 71
     3
 72
    12
 73
     8
 74
     0
 42
0.0000000001
 43
0.0000000001
 12
1.0
 22
0.0
 32
0.0
 13
1.0
 23
0.0
 33
0.0
 40
0.0
 40
0.0
 40
0.0
 40
0.0
 40
0.3333333333333333
 40
0.3333333333333333
 40
0.3333333333333333
 40
0.3333333333333333
 40
1.0
 40
1.0
 40
1.0
 40
1.0
 10
156.4783
 20
-54.055
 30
0.0
 10
160.9803
 20
-53.5713
 30
0.0
 10
164.5312
 20
-49.9488
 30
0.0
 10
164.8434
 20
-45.4464
 30
0.0
 10
164.8434
 20
-45.4464
 30
0.0
 10
160.341
 20
-45.9301
 30
0.0
 10
156.7905
 20
-49.553
 30
0.0
 10
156.4783
 20
-54.055
 30
0.0
  0
SPLINE
  5
BB
330
1F
100
AcDbEntity
  8
layer 1
 62
     7
100
AcDbSpline
210
0.0
220
0.0
230
1.0
 70
    11
 71
     3
 72
    12
 73
     8
 74
     0
 42
0.0000000001
 43
0.0000000001
 12
1.0
 22
0.0
 32
0.0
 13
1.0
 23
0.0
 33
0.0
 40
0.0
 40
0.0
 40
0.0
 40
0.0
 40
0.3333333333333333
 40
0.3333333333333333
 40
0.3333333333333333
 40
0.3333333333333333
 40
1.0
 40
1.0
 40
1.0
 40
1.0
 10
146.0713
 20
-45.5987
 30
0.0
 10
146.4564
 20
-50.0816
 30
0.0
 10
150.055
 20
-53.6591
 30
0.0
 10
154.5799
 20
-54.0704
 30
0.0
 10
154.5799
 20
-54.0704
 30
0.0
 10
154.1943
 20
-49.5881
 30
0.0
 10
150.5957
 20
-46.0095
 30
0.0
 10
146.0713
 20
-45.5987
 30
0.0
  0
SPLINE
  5
BC
330
1F
100
AcDbEntity
  8
layer 1
 62
     7
100
AcDbSpline
210
0.0
220
0.0
230
1.0
 70
    11
 71
     3
 72
    12
 73
     8
 74
     0
 42
0.0000000001
 43
0.0000000001
 12
1.0
 22
0.0
 32
0.0
 13
1.0
 23
0.0
 33
0.0
 40
0.0
 40
0.0
 40
0.0
 40
0.0
 40
0.3333333333333333
 40
0.3333333333333333
 40
0.3333333333333333
 40
0.3333333333333333
 40
1.0
 40
1.0
 40
1.0
 40
1.0
 10
135.5952
 20
-35.0062
 30
0.0
 10
136.0943
 20
-39.4362
 30
0.0
 10
139.5625
 20
-42.9484
 30
0.0
 10
143.9234
 20
-43.4293
 30
0.0
 10
143.9234
 20
-43.4293
 30
0.0
 10
143.4242
 20
-38.9997
 30
0.0
 10
139.956
 20
-35.4876
 30
0.0
 10
135.5952
 20
-35.0062
 30
0.0
  0
SPLINE
  5
BD
330
1F
100
AcDbEntity
  8
layer 1
 62
     7
100
AcDbSpline
210
0.0
220
0.0
230
1.0
 70
    11
 71
     3
 72
    12
 73
     8
 74
     0
 42
0.0000000001
 43
0.0000000001
 12
1.0
 22
0.0
 32
0.0
 13
1.0
 23
0.0
 33
0.0
 40
0.0
 40
0.0
 40
0.0
 40
0.0
 40
0.3333333333333333
 40
0.3333333333333333
 40
0.3333333333333333
 40
0.3333333333333333
 40
1.0
 40
1.0
 40
1.0
 40
1.0
 10
143.8565
 20
-24.3852
 30
0.0
 10
139.4756
 20
-24.9007
 30
0.0
 10
136.0083
 20
-28.4783
 30
0.0
 10
135.5779
 20
-32.9602
 30
0.0
 10
135.5779
 20
-32.9602
 30
0.0
 10
139.9598
 20
-32.4447
 30
0.0
 10
143.4261
 20
-28.8676
 30
0.0
 10
143.8565
 20
-24.3852
 30
0.0
  0
SPLINE
  5
BE
330
1F
100
AcDbEntity
  8
layer 1
 62
     7
100
AcDbSpline
210
0.0
220
0.0
230
1.0
 70
    11
 71
     3
 72
    12
 73
     8
 74
     0
 42
0.0000000001
 43
0.0000000001
 12
1.0
 22
0.0
 32
0.0
 13
1.0
 23
0.0
 33
0.0
 40
0.0
 40
0.0
 40
0.0
 40
0.0
 40
0.3333333333333333
 40
0.3333333333333333
 40
0.3333333333333333
 40
0.3333333333333333
 40
1.0
 40
1.0
 40
1.0
 40
1.0
 10
154.3121
 20
-13.8287
 30
0.0
 10
149.9924
 20
-14.3638
 30
0.0
 10
146.5817
 20
-17.7937
 30
0.0
 10
146.1293
 20
-22.0919
 30
0.0
 10
146.1293
 20
-22.0919
 30
0.0
 10
150.4495
 20
-21.5568
 30
0.0
 10
153.8602
 20
-18.1269
 30
0.0
 10
154.3121
 20
-13.8287
 30
0.0
  0
SPLINE
  5
BF
330
1F
100
AcDbEntity
  8
layer 1
 62
     7
100
AcDbSpline
210
0.0
220
0.0
230
1.0
 70
    11
 71
     3
 72
    12
 73
     8
 74
     0
 42
0.0000000001
 43
0.0000000001
 12
1.0
 22
0.0
 32
0.0
 13
1.0
 23
0.0
 33
0.0
 40
0.0
 40
0.0
 40
0.0
 40
0.0
 40
0.3333333333333333
 40
0.3333333333333333
 40
0.3333333333333333
 40
0.3333333333333333
 40
1.0
 40
1.0
 40
1.0
 40
1.0
 10
164.8724
 20
-22.2611
 30
0.0
 10
164.4929
 20
-17.8787
 30
0.0
 10
161.042
 20
-14.3628
 30
0.0
 10
156.6578
 20
-13.8268
 30
0.0
 10
156.6578
 20
-13.8268
 30
0.0
 10
157.0377
 20
-18.2091
 30
0.0
 10
160.4886
 20
-21.726
 30
0.0
 10
164.8724
 20
-22.2611
 30
0.0
  0
SPLINE
  5
C0
330
1F
100
AcDbEntity
  8
layer 1
 62
     7
100
AcDbSpline
210
0.0
220
0.0
230
1.0
 70
    11
 71
     3
 72
    12
 73
     8
 74
     0
 42
0.0000000001
 43
0.0000000001
 12
1.0
 22
0.0
 32
0.0
 13
1.0
 23
0.0
 33
0.0
 40
0.0
 40
0.0
 40
0.0
 40
0.0
 40
0.3333333333333333
 40
0.3333333333333333
 40
0.3333333333333333
 40
0.3333333333333333
 40
1.0
 40
1.0
 40
1.0
 40
1.0
 10
175.5649
 20
-32.7756
 30
0.0
 10
175.084
 20
-28.2595
 30
0.0
 10
171.5181
 20
-24.6838
 30
0.0
 10
167.0563
 20
-24.2763
 30
0.0
 10
167.0563
 20
-24.2763
 30
0.0
 10
167.5372
 20
-28.7932
 30
0.0
 10
171.1036
 20
-32.369
 30
0.0
 10
175.5649
 20
-32.7756
 30
0.0
  0
SPLINE
  5
C1
330
1F
100
AcDbEntity
  8
layer 1
 62
     7
100
AcDbSpline
210
0.0
220
0.0
230
1.0
 70
    11
 71
     3
 72
    12
 73
     8
 74
     0
 42
0.0000000001
 43
0.0000000001
 12
1.0
 22
0.0
 32
0.0
 13
1.0
 23
0.0
 33
0.0
 40
0.0
 40
0.0
 40
0.0
 40
0.0
 40
0.3333333333333333
 40
0.3333333333333333
 40
0.3333333333333333
 40
0.3333333333333333
 40
1.0
 40
1.0
 40
1.0
 40
1.0
 10
167.3199
 20
-43.3354
 30
0.0
 10
171.6209
 20
-42.8185
 30
0.0
 10
175.0354
 20
-39.3498
 30
0.0
 10
175.5523
 20
-34.9749
 30
0.0
 10
175.5523
 20
-34.9749
 30
0.0
 10
171.2513
 20
-35.4913
 30
0.0
 10
167.8368
 20
-38.9605
 30
0.0
 10
167.3199
 20
-43.3354
 30
0.0
  0
SPLINE
  5
C2
330
1F
100
AcDbEntity
  8
layer 1
 62
     7
100
AcDbSpline
210
0.0
220
0.0
230
1.0
 70
    11
 71
     3
 72
    36
 73
    32
 74
     0
 42
0.0000000001
 43
0.0000000001
 12
1.0
 22
0.0
 32
0.0
 13
1.0
 23
0.0
 33
0.0
 40
0.0
 40
0.0
 40
0.0
 40
0.0
 40
0.1111111111111111
 40
0.1111111111111111
 40
0.1111111111111111
 40
0.1111111111111111
 40
0.2222222222222222
 40
0.2222222222222222
 40
0.2222222222222222
 40
0.2222222222222222
 40
0.3333333333333333
 40
0.3333333333333333
 40
0.3333333333333333
 40
0.3333333333333333
 40
0.4444444444444444
 40
0.4444444444444444
 40
0.4444444444444444
 40
0.4444444444444444
 40
0.5555555555555556
 40
0.5555555555555556
 40
0.5555555555555556
 40
0.5555555555555556
 40
0.6666666666666666
 40
0.6666666666666666
 40
0.6666666666666666
 40
0.6666666666666666
 40
0.7777777777777778
 40
0.7777777777777778
 40
0.7777777777777778
 40
0.7777777777777778
 40
1.0
 40
1.0
 40
1.0
 40
1.0
 10
146.0793
 20
-24.4478
 30
0.0
 10
150.3237
 20
-24.0992
 30
0.0
 10
153.9149
 20
-21.4731
 30
0.0
 10
155.5997
 20
-17.8091
 30
0.0
 10
155.5997
 20
-17.8091
 30
0.0
 10
157.2443
 20
-21.4652
 30
0.0
 10
160.7812
 20
-24.1057
 30
0.0
 10
164.9785
 20
-24.5156
 30
0.0
 10
164.9785
 20
-24.5156
 30
0.0
 10
165.4533
 20
-28.6956
 30
0.0
 10
168.2186
 20
-32.1918
 30
0.0
 10
172.0028
 20
-33.7476
 30
0.0
 10
172.0028
 20
-33.7476
 30
0.0
 10
168.1728
 20
-35.4114
 30
0.0
 10
165.4117
 20
-39.1348
 30
0.0
 10
165.0663
 20
-43.5494
 30
0.0
 10
165.0663
 20
-43.5494
 30
0.0
 10
160.7218
 20
-44.0041
 30
0.0
 10
157.0971
 20
-46.8484
 30
0.0
 10
155.5642
 20
-50.7284
 30
0.0
 10
155.5642
 20
-50.7284
 30
0.0
 10
153.9859
 20
-46.7545
 30
0.0
 10
150.213
 20
-43.87
 30
0.0
 10
145.7217
 20
-43.5354
 30
0.0
 10
145.7217
 20
-43.5354
 30
0.0
 10
145.2637
 20
-39.3292
 30
0.0
 10
142.5923
 20
-35.8017
 30
0.0
 10
138.9208
 20
-34.1837
 30
0.0
 10
138.9208
 20
-34.1837
 30
0.0
 10
142.8354
 20
-32.6087
 30
0.0
 10
145.6876
 20
-28.8877
 30
0.0
 10
146.0793
 20
-24.4478
 30
0.0
  0
SPLINE
  5
C3
330
1F
100
AcDbEntity
  8
layer 1
 62
     7
100
AcDbSpline
210
0.0
220
0.0
230
1.0
 70
    11
 71
     3
 72
    16
 73
    12
 74
     0
 42
0.0000000001
 43
0.0000000001
 12
1.0
 22
0.0
 32
0.0
 13
1.0
 23
0.0
 33
0.0
 40
0.0
 40
0.0
 40
0.0
 40
0.0
 40
0.25
 40
0.25
 40
0.25
 40
0.25
 40
0.5
 40
0.5
 40
0.5
 40
0.5
 40
1.0
 40
1.0
 40
1.0
 40
1.0
 10
188.2979
 20
-45.5328
 30
0.0
 10
188.4802
 20
-47.6499
 30
0.0
 10
189.3784
 20
-49.5642
 30
0.0
 10
190.7529
 20
-51.0392
 30
0.0
 10
190.7529
 20
-51.0392
 30
0.0
 10
190.7529
 20
-51.0392
 30
0.0
 10
190.7529
 20
-46.0918
 30
0.0
 10
190.7529
 20
-46.0918
 30
0.0
 10
190.7529
 20
-46.0918
 30
0.0
 10
189.978
 20
-45.802
 30
0.0
 10
189.155
 20
-45.6109
 30
0.0
 10
188.2979
 20
-45.5328
 30
0.0
  0
SPLINE
  5
C4
330
1F
100
AcDbEntity
  8
layer 1
 62
     7
100
AcDbSpline
210
0.0
220
0.0
230
1.0
 70
    11
 71
     3
 72
    12
 73
     8
 74
     0
 42
0.0000000001
 43
0.0000000001
 12
1.0
 22
0.0
 32
0.0
 13
1.0
 23
0.0
 33
0.0
 40
0.0
 40
0.0
 40
0.0
 40
0.0
 40
0.3333333333333333
 40
0.3333333333333333
 40
0.3333333333333333
 40
0.3333333333333333
 40
1.0
 40
1.0
 40
1.0
 40
1.0
 10
177.8222
 20
-34.9408
 30
0.0
 10
178.3214
 20
-39.3703
 30
0.0
 10
181.7896
 20
-42.883
 30
0.0
 10
186.1504
 20
-43.3639
 30
0.0
 10
186.1504
 20
-43.3639
 30
0.0
 10
185.6513
 20
-38.9343
 30
0.0
 10
182.1826
 20
-35.4217
 30
0.0
 10
177.8222
 20
-34.9408
 30
0.0
  0
SPLINE
  5
C5
330
1F
100
AcDbEntity
  8
layer 1
 62
     7
100
AcDbSpline
210
0.0
220
0.0
230
1.0
 70
    11
 71
     3
 72
    12
 73
     8
 74
     0
 42
0.0000000001
 43
0.0000000001
 12
1.0
 22
0.0
 32
0.0
 13
1.0
 23
0.0
 33
0.0
 40
0.0
 40
0.0
 40
0.0
 40
0.0
 40
0.3333333333333333
 40
0.3333333333333333
 40
0.3333333333333333
 40
0.3333333333333333
 40
1.0
 40
1.0
 40
1.0
 40
1.0
 10
186.0836
 20
-24.3193
 30
0.0
 10
181.7027
 20
-24.8348
 30
0.0
 10
178.2354
 20
-28.4128
 30
0.0
 10
177.8049
 20
-32.8943
 30
0.0
 10
177.8049
 20
-32.8943
 30
0.0
 10
182.1868
 20
-32.3792
 30
0.0
 10
185.6527
 20
-28.8017
 30
0.0
 10
186.0836
 20
-24.3193
 30
0.0
  0
SPLINE
  5
C6
330
1F
100
AcDbEntity
  8
layer 1
 62
     7
100
AcDbSpline
210
0.0
220
0.0
230
1.0
 70
    11
 71
     3
 72
    16
 73
    12
 74
     0
 42
0.0000000001
 43
0.0000000001
 12
1.0
 22
0.0
 32
0.0
 13
1.0
 23
0.0
 33
0.0
 40
0.0
 40
0.0
 40
0.0
 40
0.0
 40
0.25
 40
0.25
 40
0.25
 40
0.25
 40
0.5
 40
0.5
 40
0.5
 40
0.5
 40
1.0
 40
1.0
 40
1.0
 40
1.0
 10
190.7529
 20
-16.7398
 30
0.0
 10
189.4401
 20
-18.1675
 30
0.0
 10
188.5694
 20
-20.0005
 30
0.0
 10
188.3563
 20
-22.0265
 30
0.0
 10
188.3563
 20
-22.0265
 30
0.0
 10
189.1938
 20
-21.9222
 30
0.0
 10
189.9981
 20
-21.7087
 30
0.0
 10
190.7529
 20
-21.4016
 30
0.0
 10
190.7529
 20
-21.4016
 30
0.0
 10
190.7529
 20
-21.4016
 30
0.0
 10
190.7529
 20
-16.7398
 30
0.0
 10
190.7529
 20
-16.7398
 30
0.0
  0
SPLINE
  5
C7
330
1F
100
AcDbEntity
  8
layer 1
 62
     7
100
AcDbSpline
210
0.0
220
0.0
230
1.0
 70
    11
 71
     3
 72
    24
 73
    20
 74
     0
 42
0.0000000001
 43
0.0000000001
 12
1.0
 22
0.0
 32
0.0
 13
1.0
 23
0.0
 33
0.0
 40
0.0
 40
0.0
 40
0.0
 40
0.0
 40
0.1666666666666667
 40
0.1666666666666667
 40
0.1666666666666667
 40
0.1666666666666667
 40
0.3333333333333333
 40
0.3333333333333333
 40
0.3333333333333333
 40
0.3333333333333333
 40
0.5
 40
0.5
 40
0.5
 40
0.5
 40
0.6666666666666666
 40
0.6666666666666666
 40
0.6666666666666666
 40
0.6666666666666666
 40
1.0
 40
1.0
 40
1.0
 40
1.0
 10
188.3059
 20
-24.3819
 30
0.0
 10
189.1508
 20
-24.3128
 30
0.0
 10
189.9696
 20
-24.1534
 30
0.0
 10
190.7529
 20
-23.9136
 30
0.0
 10
190.7529
 20
-23.9136
 30
0.0
 10
190.7529
 20
-23.9136
 30
0.0
 10
190.7529
 20
-44.0317
 30
0.0
 10
190.7529
 20
-44.0317
 30
0.0
 10
190.7529
 20
-44.0317
 30
0.0
 10
189.8617
 20
-43.734
 30
0.0
 10
188.9223
 20
-43.5424
 30
0.0
 10
187.9483
 20
-43.47
 30
0.0
 10
187.9483
 20
-43.47
 30
0.0
 10
187.4908
 20
-39.2638
 30
0.0
 10
184.819
 20
-35.7362
 30
0.0
 10
181.1474
 20
-34.1183
 30
0.0
 10
181.1474
 20
-34.1183
 30
0.0
 10
185.0624
 20
-32.5433
 30
0.0
 10
187.9147
 20
-28.8222
 30
0.0
 10
188.3059
 20
-24.3819
 30
0.0
  0
SPLINE
  5
C8
330
1F
100
AcDbEntity
  8
layer 1
 62
     7
100
AcDbSpline
210
0.0
220
0.0
230
1.0
 70
    11
 71
     3
 72
    16
 73
    12
 74
     0
 42
0.0000000001
 43
0.0000000001
 12
1.0
 22
0.0
 32
0.0
 13
1.0
 23
0.0
 33
0.0
 40
0.0
 40
0.0
 40
0.0
 40
0.0
 40
0.25
 40
0.25
 40
0.25
 40
0.25
 40
0.5
 40
0.5
 40
0.5
 40
0.5
 40
1.0
 40
1.0
 40
1.0
 40
1.0
 10
188.2979
 20
-87.6562
 30
0.0
 10
188.4802
 20
-89.7728
 30
0.0
 10
189.3784
 20
-91.6871
 30
0.0
 10
190.7529
 20
-93.162
 30
0.0
 10
190.7529
 20
-93.162
 30
0.0
 10
190.7529
 20
-93.162
 30
0.0
 10
190.7529
 20
-88.2146
 30
0.0
 10
190.7529
 20
-88.2146
 30
0.0
 10
190.7529
 20
-88.2146
 30
0.0
 10
189.978
 20
-87.9254
 30
0.0
 10
189.155
 20
-87.7337
 30
0.0
 10
188.2979
 20
-87.6562
 30
0.0
  0
SPLINE
  5
C9
330
1F
100
AcDbEntity
  8
layer 1
 62
     7
100
AcDbSpline
210
0.0
220
0.0
230
1.0
 70
    11
 71
     3
 72
    12
 73
     8
 74
     0
 42
0.0000000001
 43
0.0000000001
 12
1.0
 22
0.0
 32
0.0
 13
1.0
 23
0.0
 33
0.0
 40
0.0
 40
0.0
 40
0.0
 40
0.0
 40
0.3333333333333333
 40
0.3333333333333333
 40
0.3333333333333333
 40
0.3333333333333333
 40
1.0
 40
1.0
 40
1.0
 40
1.0
 10
177.8222
 20
-77.0636
 30
0.0
 10
178.3214
 20
-81.4937
 30
0.0
 10
181.7896
 20
-85.0058
 30
0.0
 10
186.1504
 20
-85.4867
 30
0.0
 10
186.1504
 20
-85.4867
 30
0.0
 10
185.6513
 20
-81.0572
 30
0.0
 10
182.1826
 20
-77.545
 30
0.0
 10
177.8222
 20
-77.0636
 30
0.0
  0
SPLINE
  5
CA
330
1F
100
AcDbEntity
  8
layer 1
 62
     7
100
AcDbSpline
210
0.0
220
0.0
230
1.0
 70
    11
 71
     3
 72
    12
 73
     8
 74
     0
 42
0.0000000001
 43
0.0000000001
 12
1.0
 22
0.0
 32
0.0
 13
1.0
 23
0.0
 33
0.0
 40
0.0
 40
0.0
 40
0.0
 40
0.0
 40
0.3333333333333333
 40
0.3333333333333333
 40
0.3333333333333333
 40
0.3333333333333333
 40
1.0
 40
1.0
 40
1.0
 40
1.0
 10
186.0836
 20
-66.4426
 30
0.0
 10
181.7027
 20
-66.9581
 30
0.0
 10
178.2354
 20
-70.5357
 30
0.0
 10
177.8049
 20
-75.0176
 30
0.0
 10
177.8049
 20
-75.0176
 30
0.0
 10
182.1868
 20
-74.5021
 30
0.0
 10
185.6527
 20
-70.925
 30
0.0
 10
186.0836
 20
-66.4426
 30
0.0
  0
SPLINE
  5
CB
330
1F
100
AcDbEntity
  8
layer 1
 62
     7
100
AcDbSpline
210
0.0
220
0.0
230
1.0
 70
    11
 71
     3
 72
    16
 73
    12
 74
     0
 42
0.0000000001
 43
0.0000000001
 12
1.0
 22
0.0
 32
0.0
 13
1.0
 23
0.0
 33
0.0
 40
0.0
 40
0.0
 40
0.0
 40
0.0
 40
0.25
 40
0.25
 40
0.25
 40
0.25
 40
0.5
 40
0.5
 40
0.5
 40
0.5
 40
1.0
 40
1.0
 40
1.0
 40
1.0
 10
190.7529
 20
-58.8631
 30
0.0
 10
189.4401
 20
-60.2904
 30
0.0
 10
188.5694
 20
-62.1238
 30
0.0
 10
188.3563
 20
-64.1493
 30
0.0
 10
188.3563
 20
-64.1493
 30
0.0
 10
189.1938
 20
-64.0456
 30
0.0
 10
189.9981
 20
-63.8315
 30
0.0
 10
190.7529
 20
-63.5249
 30
0.0
 10
190.7529
 20
-63.5249
 30
0.0
 10
190.7529
 20
-63.5249
 30
0.0
 10
190.7529
 20
-58.8631
 30
0.0
 10
190.7529
 20
-58.8631
 30
0.0
  0
SPLINE
  5
CC
330
1F
100
AcDbEntity
  8
layer 1
 62
     7
100
AcDbSpline
210
0.0
220
0.0
230
1.0
 70
    11
 71
     3
 72
    24
 73
    20
 74
     0
 42
0.0000000001
 43
0.0000000001
 12
1.0
 22
0.0
 32
0.0
 13
1.0
 23
0.0
 33
0.0
 40
0.0
 40
0.0
 40
0.0
 40
0.0
 40
0.1666666666666667
 40
0.1666666666666667
 40
0.1666666666666667
 40
0.1666666666666667
 40
0.3333333333333333
 40
0.3333333333333333
 40
0.3333333333333333
 40
0.3333333333333333
 40
0.5
 40
0.5
 40
0.5
 40
0.5
 40
0.6666666666666666
 40
0.6666666666666666
 40
0.6666666666666666
 40
0.6666666666666666
 40
1.0
 40
1.0
 40
1.0
 40
1.0
 10
188.3059
 20
-66.5052
 30
0.0
 10
189.1508
 20
-66.4356
 30
0.0
 10
189.9696
 20
-66.2767
 30
0.0
 10
190.7529
 20
-66.0365
 30
0.0
 10
190.7529
 20
-66.0365
 30
0.0
 10
190.7529
 20
-66.0365
 30
0.0
 10
190.7529
 20
-86.1546
 30
0.0
 10
190.7529
 20
-86.1546
 30
0.0
 10
190.7529
 20
-86.1546
 30
0.0
 10
189.8617
 20
-85.8573
 30
0.0
 10
188.9223
 20
-85.6657
 30
0.0
 10
187.9483
 20
-85.5928
 30
0.0
 10
187.9483
 20
-85.5928
 30
0.0
 10
187.4908
 20
-81.3866
 30
0.0
 10
184.819
 20
-77.8591
 30
0.0
 10
181.1474
 20
-76.2411
 30
0.0
 10
181.1474
 20
-76.2411
 30
0.0
 10
185.0624
 20
-74.6661
 30
0.0
 10
187.9147
 20
-70.9455
 30
0.0
 10
188.3059
 20
-66.5052
 30
0.0
  0
SPLINE
  5
CD
330
1F
100
AcDbEntity
  8
layer 1
 62
     7
100
AcDbSpline
210
0.0
220
0.0
230
1.0
 70
    11
 71
     3
 72
    12
 73
     8
 74
     0
 42
0.0000000001
 43
0.0000000001
 12
1.0
 22
0.0
 32
0.0
 13
1.0
 23
0.0
 33
0.0
 40
0.0
 40
0.0
 40
0.0
 40
0.0
 40
0.3333333333333333
 40
0.3333333333333333
 40
0.3333333333333333
 40
0.3333333333333333
 40
1.0
 40
1.0
 40
1.0
 40
1.0
 10
156.9078
 20
-96.2634
 30
0.0
 10
161.4103
 20
-95.7797
 30
0.0
 10
164.9607
 20
-92.1572
 30
0.0
 10
165.2729
 20
-87.6552
 30
0.0
 10
165.2729
 20
-87.6552
 30
0.0
 10
160.7709
 20
-88.1385
 30
0.0
 10
157.22
 20
-91.7618
 30
0.0
 10
156.9078
 20
-96.2634
 30
0.0
  0
SPLINE
  5
CE
330
1F
100
AcDbEntity
  8
layer 1
 62
     7
100
AcDbSpline
210
0.0
220
0.0
230
1.0
 70
    11
 71
     3
 72
    12
 73
     8
 74
     0
 42
0.0000000001
 43
0.0000000001
 12
1.0
 22
0.0
 32
0.0
 13
1.0
 23
0.0
 33
0.0
 40
0.0
 40
0.0
 40
0.0
 40
0.0
 40
0.3333333333333333
 40
0.3333333333333333
 40
0.3333333333333333
 40
0.3333333333333333
 40
1.0
 40
1.0
 40
1.0
 40
1.0
 10
146.5008
 20
-87.8071
 30
0.0
 10
146.8859
 20
-92.29
 30
0.0
 10
150.485
 20
-95.8675
 30
0.0
 10
155.0094
 20
-96.2788
 30
0.0
 10
155.0094
 20
-96.2788
 30
0.0
 10
154.6243
 20
-91.7964
 30
0.0
 10
151.0257
 20
-88.2179
 30
0.0
 10
146.5008
 20
-87.8071
 30
0.0
  0
SPLINE
  5
CF
330
1F
100
AcDbEntity
  8
layer 1
 62
     7
100
AcDbSpline
210
0.0
220
0.0
230
1.0
 70
    11
 71
     3
 72
    12
 73
     8
 74
     0
 42
0.0000000001
 43
0.0000000001
 12
1.0
 22
0.0
 32
0.0
 13
1.0
 23
0.0
 33
0.0
 40
0.0
 40
0.0
 40
0.0
 40
0.0
 40
0.3333333333333333
 40
0.3333333333333333
 40
0.3333333333333333
 40
0.3333333333333333
 40
1.0
 40
1.0
 40
1.0
 40
1.0
 10
136.0251
 20
-77.2151
 30
0.0
 10
136.5243
 20
-81.6446
 30
0.0
 10
139.9925
 20
-85.1572
 30
0.0
 10
144.3529
 20
-85.6377
 30
0.0
 10
144.3529
 20
-85.6377
 30
0.0
 10
143.8542
 20
-81.2086
 30
0.0
 10
140.3855
 20
-77.696
 30
0.0
 10
136.0251
 20
-77.2151
 30
0.0
  0
SPLINE
  5
D0
330
1F
100
AcDbEntity
  8
layer 1
 62
     7
100
AcDbSpline
210
0.0
220
0.0
230
1.0
 70
    11
 71
     3
 72
    12
 73
     8
 74
     0
 42
0.0000000001
 43
0.0000000001
 12
1.0
 22
0.0
 32
0.0
 13
1.0
 23
0.0
 33
0.0
 40
0.0
 40
0.0
 40
0.0
 40
0.0
 40
0.3333333333333333
 40
0.3333333333333333
 40
0.3333333333333333
 40
0.3333333333333333
 40
1.0
 40
1.0
 40
1.0
 40
1.0
 10
144.286
 20
-66.5936
 30
0.0
 10
139.9055
 20
-67.1091
 30
0.0
 10
136.4383
 20
-70.6866
 30
0.0
 10
136.0078
 20
-75.1685
 30
0.0
 10
136.0078
 20
-75.1685
 30
0.0
 10
140.3897
 20
-74.6535
 30
0.0
 10
143.8556
 20
-71.0759
 30
0.0
 10
144.286
 20
-66.5936
 30
0.0
  0
SPLINE
  5
D1
330
1F
100
AcDbEntity
  8
layer 1
 62
     7
100
AcDbSpline
210
0.0
220
0.0
230
1.0
 70
    11
 71
     3
 72
    12
 73
     8
 74
     0
 42
0.0000000001
 43
0.0000000001
 12
1.0
 22
0.0
 32
0.0
 13
1.0
 23
0.0
 33
0.0
 40
0.0
 40
0.0
 40
0.0
 40
0.0
 40
0.3333333333333333
 40
0.3333333333333333
 40
0.3333333333333333
 40
0.3333333333333333
 40
1.0
 40
1.0
 40
1.0
 40
1.0
 10
154.7421
 20
-56.037
 30
0.0
 10
150.4224
 20
-56.5722
 30
0.0
 10
147.0112
 20
-60.002
 30
0.0
 10
146.5592
 20
-64.3003
 30
0.0
 10
146.5592
 20
-64.3003
 30
0.0
 10
150.8794
 20
-63.7652
 30
0.0
 10
154.2902
 20
-60.3353
 30
0.0
 10
154.7421
 20
-56.037
 30
0.0
  0
SPLINE
  5
D2
330
1F
100
AcDbEntity
  8
layer 1
 62
     7
100
AcDbSpline
210
0.0
220
0.0
230
1.0
 70
    11
 71
     3
 72
    12
 73
     8
 74
     0
 42
0.0000000001
 43
0.0000000001
 12
1.0
 22
0.0
 32
0.0
 13
1.0
 23
0.0
 33
0.0
 40
0.0
 40
0.0
 40
0.0
 40
0.0
 40
0.3333333333333333
 40
0.3333333333333333
 40
0.3333333333333333
 40
0.3333333333333333
 40
1.0
 40
1.0
 40
1.0
 40
1.0
 10
165.3024
 20
-64.4695
 30
0.0
 10
164.9224
 20
-60.0871
 30
0.0
 10
161.4715
 20
-56.5712
 30
0.0
 10
157.0877
 20
-56.0352
 30
0.0
 10
157.0877
 20
-56.0352
 30
0.0
 10
157.4677
 20
-60.4175
 30
0.0
 10
160.9186
 20
-63.9343
 30
0.0
 10
165.3024
 20
-64.4695
 30
0.0
  0
SPLINE
  5
D3
330
1F
100
AcDbEntity
  8
layer 1
 62
     7
100
AcDbSpline
210
0.0
220
0.0
230
1.0
 70
    11
 71
     3
 72
    12
 73
     8
 74
     0
 42
0.0000000001
 43
0.0000000001
 12
1.0
 22
0.0
 32
0.0
 13
1.0
 23
0.0
 33
0.0
 40
0.0
 40
0.0
 40
0.0
 40
0.0
 40
0.3333333333333333
 40
0.3333333333333333
 40
0.3333333333333333
 40
0.3333333333333333
 40
1.0
 40
1.0
 40
1.0
 40
1.0
 10
175.9949
 20
-74.9844
 30
0.0
 10
175.514
 20
-70.4679
 30
0.0
 10
171.9476
 20
-66.8922
 30
0.0
 10
167.4863
 20
-66.4847
 30
0.0
 10
167.4863
 20
-66.4847
 30
0.0
 10
167.9672
 20
-71.0016
 30
0.0
 10
171.5336
 20
-74.5773
 30
0.0
 10
175.9949
 20
-74.9844
 30
0.0
  0
SPLINE
  5
D4
330
1F
100
AcDbEntity
  8
layer 1
 62
     7
100
AcDbSpline
210
0.0
220
0.0
230
1.0
 70
    11
 71
     3
 72
    12
 73
     8
 74
     0
 42
0.0000000001
 43
0.0000000001
 12
1.0
 22
0.0
 32
0.0
 13
1.0
 23
0.0
 33
0.0
 40
0.0
 40
0.0
 40
0.0
 40
0.0
 40
0.3333333333333333
 40
0.3333333333333333
 40
0.3333333333333333
 40
0.3333333333333333
 40
1.0
 40
1.0
 40
1.0
 40
1.0
 10
167.7499
 20
-85.5437
 30
0.0
 10
172.0509
 20
-85.0268
 30
0.0
 10
175.4649
 20
-81.5582
 30
0.0
 10
175.9823
 20
-77.1833
 30
0.0
 10
175.9823
 20
-77.1833
 30
0.0
 10
171.6808
 20
-77.6997
 30
0.0
 10
168.2668
 20
-81.1693
 30
0.0
 10
167.7499
 20
-85.5437
 30
0.0
  0
SPLINE
  5
D5
330
1F
100
AcDbEntity
  8
layer 1
 62
     7
100
AcDbSpline
210
0.0
220
0.0
230
1.0
 70
    11
 71
     3
 72
    36
 73
    32
 74
     0
 42
0.0000000001
 43
0.0000000001
 12
1.0
 22
0.0
 32
0.0
 13
1.0
 23
0.0
 33
0.0
 40
0.0
 40
0.0
 40
0.0
 40
0.0
 40
0.1111111111111111
 40
0.1111111111111111
 40
0.1111111111111111
 40
0.1111111111111111
 40
0.2222222222222222
 40
0.2222222222222222
 40
0.2222222222222222
 40
0.2222222222222222
 40
0.3333333333333333
 40
0.3333333333333333
 40
0.3333333333333333
 40
0.3333333333333333
 40
0.4444444444444444
 40
0.4444444444444444
 40
0.4444444444444444
 40
0.4444444444444444
 40
0.5555555555555556
 40
0.5555555555555556
 40
0.5555555555555556
 40
0.5555555555555556
 40
0.6666666666666666
 40
0.6666666666666666
 40
0.6666666666666666
 40
0.6666666666666666
 40
0.7777777777777778
 40
0.7777777777777778
 40
0.7777777777777778
 40
0.7777777777777778
 40
1.0
 40
1.0
 40
1.0
 40
1.0
 10
146.5088
 20
-66.6562
 30
0.0
 10
150.7532
 20
-66.3075
 30
0.0
 10
154.3448
 20
-63.682
 30
0.0
 10
156.0292
 20
-60.0175
 30
0.0
 10
156.0292
 20
-60.0175
 30
0.0
 10
157.6738
 20
-63.6736
 30
0.0
 10
161.2107
 20
-66.3141
 30
0.0
 10
165.4084
 20
-66.724
 30
0.0
 10
165.4084
 20
-66.724
 30
0.0
 10
165.8828
 20
-70.9039
 30
0.0
 10
168.6481
 20
-74.4007
 30
0.0
 10
172.4327
 20
-75.956
 30
0.0
 10
172.4327
 20
-75.956
 30
0.0
 10
168.6028
 20
-77.6198
 30
0.0
 10
165.8417
 20
-81.3436
 30
0.0
 10
165.4958
 20
-85.7582
 30
0.0
 10
165.4958
 20
-85.7582
 30
0.0
 10
161.1513
 20
-86.2125
 30
0.0
 10
157.527
 20
-89.0568
 30
0.0
 10
155.9937
 20
-92.9368
 30
0.0
 10
155.9937
 20
-92.9368
 30
0.0
 10
154.4159
 20
-88.9629
 30
0.0
 10
150.6429
 20
-86.0784
 30
0.0
 10
146.1512
 20
-85.7438
 30
0.0
 10
146.1512
 20
-85.7438
 30
0.0
 10
145.6937
 20
-81.5376
 30
0.0
 10
143.0218
 20
-78.01
 30
0.0
 10
139.3503
 20
-76.3921
 30
0.0
 10
139.3503
 20
-76.3921
 30
0.0
 10
143.2653
 20
-74.8171
 30
0.0
 10
146.1176
 20
-71.0965
 30
0.0
 10
146.5088
 20
-66.6562
 30
0.0
  0
SPLINE
  5
D6
330
1F
100
AcDbEntity
  8
layer 1
 62
     7
100
AcDbSpline
210
0.0
220
0.0
230
1.0
 70
    11
 71
     3
 72
    12
 73
     8
 74
     0
 42
0.0000000001
 43
0.0000000001
 12
1.0
 22
0.0
 32
0.0
 13
1.0
 23
0.0
 33
0.0
 40
0.0
 40
0.0
 40
0.0
 40
0.0
 40
0.3333333333333333
 40
0.3333333333333333
 40
0.3333333333333333
 40
0.3333333333333333
 40
1.0
 40
1.0
 40
1.0
 40
1.0
 10
114.7849
 20
-96.2634
 30
0.0
 10
119.2869
 20
-95.7797
 30
0.0
 10
122.8379
 20
-92.1572
 30
0.0
 10
123.1501
 20
-87.6552
 30
0.0
 10
123.1501
 20
-87.6552
 30
0.0
 10
118.6476
 20
-88.1385
 30
0.0
 10
115.0971
 20
-91.7618
 30
0.0
 10
114.7849
 20
-96.2634
 30
0.0
  0
SPLINE
  5
D7
330
1F
100
AcDbEntity
  8
layer 1
 62
     7
100
AcDbSpline
210
0.0
220
0.0
230
1.0
 70
    11
 71
     3
 72
    12
 73
     8
 74
     0
 42
0.0000000001
 43
0.0000000001
 12
1.0
 22
0.0
 32
0.0
 13
1.0
 23
0.0
 33
0.0
 40
0.0
 40
0.0
 40
0.0
 40
0.0
 40
0.3333333333333333
 40
0.3333333333333333
 40
0.3333333333333333
 40
0.3333333333333333
 40
1.0
 40
1.0
 40
1.0
 40
1.0
 10
104.378
 20
-87.8071
 30
0.0
 10
104.7631
 20
-92.29
 30
0.0
 10
108.3617
 20
-95.8675
 30
0.0
 10
112.8866
 20
-96.2788
 30
0.0
 10
112.8866
 20
-96.2788
 30
0.0
 10
112.501
 20
-91.7964
 30
0.0
 10
108.9024
 20
-88.2179
 30
0.0
 10
104.378
 20
-87.8071
 30
0.0
  0
SPLINE
  5
D8
330
1F
100
AcDbEntity
  8
layer 1
 62
     7
100
AcDbSpline
210
0.0
220
0.0
230
1.0
 70
    11
 71
     3
 72
    12
 73
     8
 74
     0
 42
0.0000000001
 43
0.0000000001
 12
1.0
 22
0.0
 32
0.0
 13
1.0
 23
0.0
 33
0.0
 40
0.0
 40
0.0
 40
0.0
 40
0.0
 40
0.3333333333333333
 40
0.3333333333333333
 40
0.3333333333333333
 40
0.3333333333333333
 40
1.0
 40
1.0
 40
1.0
 40
1.0
 10
93.9018
 20
-77.2151
 30
0.0
 10
94.4009
 20
-81.6446
 30
0.0
 10
97.8692
 20
-85.1572
 30
0.0
 10
102.23
 20
-85.6377
 30
0.0
 10
102.23
 20
-85.6377
 30
0.0
 10
101.7309
 20
-81.2086
 30
0.0
 10
98.2627
 20
-77.696
 30
0.0
 10
93.9018
 20
-77.2151
 30
0.0
  0
SPLINE
  5
D9
330
1F
100
AcDbEntity
  8
layer 1
 62
     7
100
AcDbSpline
210
0.0
220
0.0
230
1.0
 70
    11
 71
     3
 72
    12
 73
     8
 74
     0
 42
0.0000000001
 43
0.0000000001
 12
1.0
 22
0.0
 32
0.0
 13
1.0
 23
0.0
 33
0.0
 40
0.0
 40
0.0
 40
0.0
 40
0.0
 40
0.3333333333333333
 40
0.3333333333333333
 40
0.3333333333333333
 40
0.3333333333333333
 40
1.0
 40
1.0
 40
1.0
 40
1.0
 10
102.1632
 20
-66.5936
 30
0.0
 10
97.7822
 20
-67.1091
 30
0.0
 10
94.3149
 20
-70.6866
 30
0.0
 10
93.8845
 20
-75.1685
 30
0.0
 10
93.8845
 20
-75.1685
 30
0.0
 10
98.2664
 20
-74.6535
 30
0.0
 10
101.7327
 20
-71.0759
 30
0.0
 10
102.1632
 20
-66.5936
 30
0.0
  0
SPLINE
  5
DA
330
1F
100
AcDbEntity
  8
layer 1
 62
     7
100
AcDbSpline
210
0.0
220
0.0
230
1.0
 70
    11
 71
     3
 72
    12
 73
     8
 74
     0
 42
0.0000000001
 43
0.0000000001
 12
1.0
 22
0.0
 32
0.0
 13
1.0
 23
0.0
 33
0.0
 40
0.0
 40
0.0
 40
0.0
 40
0.0
 40
0.3333333333333333
 40
0.3333333333333333
 40
0.3333333333333333
 40
0.3333333333333333
 40
1.0
 40
1.0
 40
1.0
 40
1.0
 10
112.6188
 20
-56.037
 30
0.0
 10
108.299
 20
-56.5722
 30
0.0
 10
104.8883
 20
-60.002
 30
0.0
 10
104.4359
 20
-64.3003
 30
0.0
 10
104.4359
 20
-64.3003
 30
0.0
 10
108.7561
 20
-63.7652
 30
0.0
 10
112.1668
 20
-60.3353
 30
0.0
 10
112.6188
 20
-56.037
 30
0.0
  0
SPLINE
  5
DB
330
1F
100
AcDbEntity
  8
layer 1
 62
     7
100
AcDbSpline
210
0.0
220
0.0
230
1.0
 70
    11
 71
     3
 72
    12
 73
     8
 74
     0
 42
0.0000000001
 43
0.0000000001
 12
1.0
 22
0.0
 32
0.0
 13
1.0
 23
0.0
 33
0.0
 40
0.0
 40
0.0
 40
0.0
 40
0.0
 40
0.3333333333333333
 40
0.3333333333333333
 40
0.3333333333333333
 40
0.3333333333333333
 40
1.0
 40
1.0
 40
1.0
 40
1.0
 10
123.1795
 20
-64.4695
 30
0.0
 10
122.7995
 20
-60.0871
 30
0.0
 10
119.3486
 20
-56.5712
 30
0.0
 10
114.9649
 20
-56.0352
 30
0.0
 10
114.9649
 20
-56.0352
 30
0.0
 10
115.3444
 20
-60.4175
 30
0.0
 10
118.7957
 20
-63.9343
 30
0.0
 10
123.1795
 20
-64.4695
 30
0.0
  0
SPLINE
  5
DC
330
1F
100
AcDbEntity
  8
layer 1
 62
     7
100
AcDbSpline
210
0.0
220
0.0
230
1.0
 70
    11
 71
     3
 72
    12
 73
     8
 74
     0
 42
0.0000000001
 43
0.0000000001
 12
1.0
 22
0.0
 32
0.0
 13
1.0
 23
0.0
 33
0.0
 40
0.0
 40
0.0
 40
0.0
 40
0.0
 40
0.3333333333333333
 40
0.3333333333333333
 40
0.3333333333333333
 40
0.3333333333333333
 40
1.0
 40
1.0
 40
1.0
 40
1.0
 10
133.872
 20
-74.9844
 30
0.0
 10
133.3907
 20
-70.4679
 30
0.0
 10
129.8248
 20
-66.8922
 30
0.0
 10
125.363
 20
-66.4847
 30
0.0
 10
125.363
 20
-66.4847
 30
0.0
 10
125.8443
 20
-71.0016
 30
0.0
 10
129.4102
 20
-74.5773
 30
0.0
 10
133.872
 20
-74.9844
 30
0.0
  0
SPLINE
  5
DD
330
1F
100
AcDbEntity
  8
layer 1
 62
     7
100
AcDbSpline
210
0.0
220
0.0
230
1.0
 70
    11
 71
     3
 72
    12
 73
     8
 74
     0
 42
0.0000000001
 43
0.0000000001
 12
1.0
 22
0.0
 32
0.0
 13
1.0
 23
0.0
 33
0.0
 40
0.0
 40
0.0
 40
0.0
 40
0.0
 40
0.3333333333333333
 40
0.3333333333333333
 40
0.3333333333333333
 40
0.3333333333333333
 40
1.0
 40
1.0
 40
1.0
 40
1.0
 10
125.6266
 20
-85.5437
 30
0.0
 10
129.9281
 20
-85.0268
 30
0.0
 10
133.3421
 20
-81.5582
 30
0.0
 10
133.859
 20
-77.1833
 30
0.0
 10
133.859
 20
-77.1833
 30
0.0
 10
129.5579
 20
-77.6997
 30
0.0
 10
126.1434
 20
-81.1693
 30
0.0
 10
125.6266
 20
-85.5437
 30
0.0
  0
SPLINE
  5
DE
330
1F
100
AcDbEntity
  8
layer 1
 62
     7
100
AcDbSpline
210
0.0
220
0.0
230
1.0
 70
    11
 71
     3
 72
    36
 73
    32
 74
     0
 42
0.0000000001
 43
0.0000000001
 12
1.0
 22
0.0
 32
0.0
 13
1.0
 23
0.0
 33
0.0
 40
0.0
 40
0.0
 40
0.0
 40
0.0
 40
0.1111111111111111
 40
0.1111111111111111
 40
0.1111111111111111
 40
0.1111111111111111
 40
0.2222222222222222
 40
0.2222222222222222
 40
0.2222222222222222
 40
0.2222222222222222
 40
0.3333333333333333
 40
0.3333333333333333
 40
0.3333333333333333
 40
0.3333333333333333
 40
0.4444444444444444
 40
0.4444444444444444
 40
0.4444444444444444
 40
0.4444444444444444
 40
0.5555555555555556
 40
0.5555555555555556
 40
0.5555555555555556
 40
0.5555555555555556
 40
0.6666666666666666
 40
0.6666666666666666
 40
0.6666666666666666
 40
0.6666666666666666
 40
0.7777777777777778
 40
0.7777777777777778
 40
0.7777777777777778
 40
0.7777777777777778
 40
1.0
 40
1.0
 40
1.0
 40
1.0
 10
104.3859
 20
-66.6562
 30
0.0
 10
108.6304
 20
-66.3075
 30
0.0
 10
112.222
 20
-63.682
 30
0.0
 10
113.9063
 20
-60.0175
 30
0.0
 10
113.9063
 20
-60.0175
 30
0.0
 10
115.5509
 20
-63.6736
 30
0.0
 10
119.0878
 20
-66.3141
 30
0.0
 10
123.2851
 20
-66.724
 30
0.0
 10
123.2851
 20
-66.724
 30
0.0
 10
123.76
 20
-70.9039
 30
0.0
 10
126.5253
 20
-74.4007
 30
0.0
 10
130.3094
 20
-75.956
 30
0.0
 10
130.3094
 20
-75.956
 30
0.0
 10
126.4795
 20
-77.6198
 30
0.0
 10
123.7184
 20
-81.3436
 30
0.0
 10
123.373
 20
-85.7582
 30
0.0
 10
123.373
 20
-85.7582
 30
0.0
 10
119.0285
 20
-86.2125
 30
0.0
 10
115.4037
 20
-89.0568
 30
0.0
 10
113.8708
 20
-92.9368
 30
0.0
 10
113.8708
 20
-92.9368
 30
0.0
 10
112.2926
 20
-88.9629
 30
0.0
 10
108.5196
 20
-86.0784
 30
0.0
 10
104.0284
 20
-85.7438
 30
0.0
 10
104.0284
 20
-85.7438
 30
0.0
 10
103.5704
 20
-81.5376
 30
0.0
 10
100.899
 20
-78.01
 30
0.0
 10
97.2275
 20
-76.3921
 30
0.0
 10
97.2275
 20
-76.3921
 30
0.0
 10
101.1425
 20
-74.8171
 30
0.0
 10
103.9943
 20
-71.0965
 30
0.0
 10
104.3859
 20
-66.6562
 30
0.0
  0
SPLINE
  5
DF
330
1F
100
AcDbEntity
  8
layer 1
 62
     7
100
AcDbSpline
210
0.0
220
0.0
230
1.0
 70
    11
 71
     3
 72
    16
 73
    12
 74
     0
 42
0.0000000001
 43
0.0000000001
 12
1.0
 22
0.0
 32
0.0
 13
1.0
 23
0.0
 33
0.0
 40
0.0
 40
0.0
 40
0.0
 40
0.0
 40
0.25
 40
0.25
 40
0.25
 40
0.25
 40
0.5
 40
0.5
 40
0.5
 40
0.5
 40
1.0
 40
1.0
 40
1.0
 40
1.0
 10
78.8017
 20
-93.5565
 30
0.0
 10
80.2136
 20
-92.0451
 30
0.0
 10
81.1258
 20
-90.0696
 30
0.0
 10
81.2772
 20
-87.888
 30
0.0
 10
81.2772
 20
-87.888
 30
0.0
 10
80.4112
 20
-87.981
 30
0.0
 10
79.5808
 20
-88.1913
 30
0.0
 10
78.8017
 20
-88.5002
 30
0.0
 10
78.8017
 20
-88.5002
 30
0.0
 10
78.8017
 20
-88.5002
 30
0.0
 10
78.8017
 20
-93.5565
 30
0.0
 10
78.8017
 20
-93.5565
 30
0.0
  0
SPLINE
  5
E0
330
1F
100
AcDbEntity
  8
layer 1
 62
     7
100
AcDbSpline
210
0.0
220
0.0
230
1.0
 70
    11
 71
     3
 72
    16
 73
    12
 74
     0
 42
0.0000000001
 43
0.0000000001
 12
1.0
 22
0.0
 32
0.0
 13
1.0
 23
0.0
 33
0.0
 40
0.0
 40
0.0
 40
0.0
 40
0.0
 40
0.25
 40
0.25
 40
0.25
 40
0.25
 40
0.5
 40
0.5
 40
0.5
 40
0.5
 40
1.0
 40
1.0
 40
1.0
 40
1.0
 10
81.3067
 20
-64.7027
 30
0.0
 10
81.1211
 20
-62.5622
 30
0.0
 10
80.2033
 20
-60.6292
 30
0.0
 10
78.8017
 20
-59.1487
 30
0.0
 10
78.8017
 20
-59.1487
 30
0.0
 10
78.8017
 20
-59.1487
 30
0.0
 10
78.8017
 20
-64.039
 30
0.0
 10
78.8017
 20
-64.039
 30
0.0
 10
78.8017
 20
-64.039
 30
0.0
 10
79.5882
 20
-64.369
 30
0.0
 10
80.4281
 20
-64.5952
 30
0.0
 10
81.3067
 20
-64.7027
 30
0.0
  0
SPLINE
  5
E1
330
1F
100
AcDbEntity
  8
layer 1
 62
     7
100
AcDbSpline
210
0.0
220
0.0
230
1.0
 70
    11
 71
     3
 72
    12
 73
     8
 74
     0
 42
0.0000000001
 43
0.0000000001
 12
1.0
 22
0.0
 32
0.0
 13
1.0
 23
0.0
 33
0.0
 40
0.0
 40
0.0
 40
0.0
 40
0.0
 40
0.3333333333333333
 40
0.3333333333333333
 40
0.3333333333333333
 40
0.3333333333333333
 40
1.0
 40
1.0
 40
1.0
 40
1.0
 10
91.9992
 20
-75.2171
 30
0.0
 10
91.5178
 20
-70.7011
 30
0.0
 10
87.952
 20
-67.1249
 30
0.0
 10
83.4902
 20
-66.7179
 30
0.0
 10
83.4902
 20
-66.7179
 30
0.0
 10
83.9715
 20
-71.2348
 30
0.0
 10
87.5374
 20
-74.8105
 30
0.0
 10
91.9992
 20
-75.2171
 30
0.0
  0
SPLINE
  5
E2
330
1F
100
AcDbEntity
  8
layer 1
 62
     7
100
AcDbSpline
210
0.0
220
0.0
230
1.0
 70
    11
 71
     3
 72
    12
 73
     8
 74
     0
 42
0.0000000001
 43
0.0000000001
 12
1.0
 22
0.0
 32
0.0
 13
1.0
 23
0.0
 33
0.0
 40
0.0
 40
0.0
 40
0.0
 40
0.0
 40
0.3333333333333333
 40
0.3333333333333333
 40
0.3333333333333333
 40
0.3333333333333333
 40
1.0
 40
1.0
 40
1.0
 40
1.0
 10
83.7537
 20
-85.7769
 30
0.0
 10
88.0552
 20
-85.2596
 30
0.0
 10
91.4692
 20
-81.7914
 30
0.0
 10
91.9861
 20
-77.4165
 30
0.0
 10
91.9861
 20
-77.4165
 30
0.0
 10
87.6851
 20
-77.9329
 30
0.0
 10
84.2706
 20
-81.4021
 30
0.0
 10
83.7537
 20
-85.7769
 30
0.0
  0
SPLINE
  5
E3
330
1F
100
AcDbEntity
  8
layer 1
 62
     7
100
AcDbSpline
210
0.0
220
0.0
230
1.0
 70
    11
 71
     3
 72
    24
 73
    20
 74
     0
 42
0.0000000001
 43
0.0000000001
 12
1.0
 22
0.0
 32
0.0
 13
1.0
 23
0.0
 33
0.0
 40
0.0
 40
0.0
 40
0.0
 40
0.0
 40
0.1666666666666667
 40
0.1666666666666667
 40
0.1666666666666667
 40
0.1666666666666667
 40
0.3333333333333333
 40
0.3333333333333333
 40
0.3333333333333333
 40
0.3333333333333333
 40
0.5
 40
0.5
 40
0.5
 40
0.5
 40
0.6666666666666666
 40
0.6666666666666666
 40
0.6666666666666666
 40
0.6666666666666666
 40
1.0
 40
1.0
 40
1.0
 40
1.0
 10
78.8017
 20
-66.3935
 30
0.0
 10
79.6331
 20
-66.6772
 30
0.0
 10
80.5075
 20
-66.8688
 30
0.0
 10
81.4123
 20
-66.9572
 30
0.0
 10
81.4123
 20
-66.9572
 30
0.0
 10
81.8871
 20
-71.1372
 30
0.0
 10
84.6525
 20
-74.6334
 30
0.0
 10
88.4366
 20
-76.1892
 30
0.0
 10
88.4366
 20
-76.1892
 30
0.0
 10
84.6067
 20
-77.853
 30
0.0
 10
81.8455
 20
-81.5764
 30
0.0
 10
81.5002
 20
-85.991
 30
0.0
 10
81.5002
 20
-85.991
 30
0.0
 10
80.5627
 20
-86.0891
 30
0.0
 10
79.6583
 20
-86.298
 30
0.0
 10
78.8017
 20
-86.6051
 30
0.0
 10
78.8017
 20
-86.6051
 30
0.0
 10
78.8017
 20
-86.6051
 30
0.0
 10
78.8017
 20
-66.3935
 30
0.0
 10
78.8017
 20
-66.3935
 30
0.0
  0
SPLINE
  5
E4
330
1F
100
AcDbEntity
  8
layer 1
 62
     7
100
AcDbSpline
210
0.0
220
0.0
230
1.0
 70
    11
 71
     3
 72
    16
 73
    12
 74
     0
 42
0.0000000001
 43
0.0000000001
 12
1.0
 22
0.0
 32
0.0
 13
1.0
 23
0.0
 33
0.0
 40
0.0
 40
0.0
 40
0.0
 40
0.0
 40
0.25
 40
0.25
 40
0.25
 40
0.25
 40
0.5
 40
0.5
 40
0.5
 40
0.5
 40
1.0
 40
1.0
 40
1.0
 40
1.0
 10
154.8056
 20
-98.1211
 30
0.0
 10
152.711
 20
-98.3805
 30
0.0
 10
150.8308
 20
-99.3203
 30
0.0
 10
149.397
 20
-100.7102
 30
0.0
 10
149.397
 20
-100.7102
 30
0.0
 10
149.397
 20
-100.7102
 30
0.0
 10
154.142
 20
-100.7102
 30
0.0
 10
154.142
 20
-100.7102
 30
0.0
 10
154.142
 20
-100.7102
 30
0.0
 10
154.4822
 20
-99.8984
 30
0.0
 10
154.7098
 20
-99.0296
 30
0.0
 10
154.8056
 20
-98.1211
 30
0.0
  0
SPLINE
  5
E5
330
1F
100
AcDbEntity
  8
layer 1
 62
     7
100
AcDbSpline
210
0.0
220
0.0
230
1.0
 70
    11
 71
     3
 72
    16
 73
    12
 74
     0
 42
0.0000000001
 43
0.0000000001
 12
1.0
 22
0.0
 32
0.0
 13
1.0
 23
0.0
 33
0.0
 40
0.0
 40
0.0
 40
0.0
 40
0.0
 40
0.25
 40
0.25
 40
0.25
 40
0.25
 40
0.5
 40
0.5
 40
0.5
 40
0.5
 40
1.0
 40
1.0
 40
1.0
 40
1.0
 10
162.5744
 20
-100.7102
 30
0.0
 10
161.1378
 20
-99.318
 30
0.0
 10
159.2511
 20
-98.3763
 30
0.0
 10
157.1513
 20
-98.1192
 30
0.0
 10
157.1513
 20
-98.1192
 30
0.0
 10
157.2298
 20
-99.0259
 30
0.0
 10
157.441
 20
-99.8961
 30
0.0
 10
157.7635
 20
-100.7102
 30
0.0
 10
157.7635
 20
-100.7102
 30
0.0
 10
157.7635
 20
-100.7102
 30
0.0
 10
162.5744
 20
-100.7102
 30
0.0
 10
162.5744
 20
-100.7102
 30
0.0
  0
SPLINE
  5
E6
330
1F
100
AcDbEntity
  8
layer 1
 62
     7
100
AcDbSpline
210
0.0
220
0.0
230
1.0
 70
    11
 71
     3
 72
    16
 73
    12
 74
     0
 42
0.0000000001
 43
0.0000000001
 12
1.0
 22
0.0
 32
0.0
 13
1.0
 23
0.0
 33
0.0
 40
0.0
 40
0.0
 40
0.0
 40
0.0
 40
0.25
 40
0.25
 40
0.25
 40
0.25
 40
0.5
 40
0.5
 40
0.5
 40
0.5
 40
1.0
 40
1.0
 40
1.0
 40
1.0
 10
112.6823
 20
-98.2837
 30
0.0
 10
110.6704
 20
-98.5333
 30
0.0
 10
108.8571
 20
-99.4096
 30
0.0
 10
107.4461
 20
-100.7102
 30
0.0
 10
107.4461
 20
-100.7102
 30
0.0
 10
107.4461
 20
-100.7102
 30
0.0
 10
112.0851
 20
-100.7102
 30
0.0
 10
112.0851
 20
-100.7102
 30
0.0
 10
112.0851
 20
-100.7102
 30
0.0
 10
112.3893
 20
-99.9452
 30
0.0
 10
112.5935
 20
-99.132
 30
0.0
 10
112.6823
 20
-98.2837
 30
0.0
  0
SPLINE
  5
E7
330
1F
100
AcDbEntity
  8
layer 1
 62
     7
100
AcDbSpline
210
0.0
220
0.0
230
1.0
 70
    11
 71
     3
 72
    16
 73
    12
 74
     0
 42
0.0000000001
 43
0.0000000001
 12
1.0
 22
0.0
 32
0.0
 13
1.0
 23
0.0
 33
0.0
 40
0.0
 40
0.0
 40
0.0
 40
0.0
 40
0.25
 40
0.25
 40
0.25
 40
0.25
 40
0.5
 40
0.5
 40
0.5
 40
0.5
 40
1.0
 40
1.0
 40
1.0
 40
1.0
 10
120.2791
 20
-100.7102
 30
0.0
 10
118.8654
 20
-99.4072
 30
0.0
 10
117.0455
 20
-98.5286
 30
0.0
 10
115.028
 20
-98.2819
 30
0.0
 10
115.028
 20
-98.2819
 30
0.0
 10
115.1013
 20
-99.1287
 30
0.0
 10
115.2906
 20
-99.9433
 30
0.0
 10
115.578
 20
-100.7102
 30
0.0
 10
115.578
 20
-100.7102
 30
0.0
 10
115.578
 20
-100.7102
 30
0.0
 10
120.2791
 20
-100.7102
 30
0.0
 10
120.2791
 20
-100.7102
 30
0.0
  0
ENDSEC
  0
SECTION
  2
OBJECTS
  0
DICTIONARY
  5
C
330
0
100
AcDbDictionary
281
     1
  3
ACAD_GROUP
350
D
  3
ACAD_LAYOUT
350
1A
  3
ACAD_MATERIAL
350
3B
  3
ACAD_MLEADERSTYLE
350
10A
  3
ACAD_MLINESTYLE
350
17
  3
ACAD_PLOTSETTINGS
350
19
  3
ACAD_PLOTSTYLENAME
350
E
  3
ACAD_TABLESTYLE
350
109
  3
ACAD_VISUALSTYLE
350
2A
  0
DICTIONARY
  5
D
102
{ACAD_REACTORS
330
C
102
}
330
C
100
AcDbDictionary
281
     1
  0
DICTIONARY
  5
1A
102
{ACAD_REACTORS
330
C
102
}
330
C
100
AcDbDictionary
281
     1
  3
Layout1
350
1E
  3
Layout2
350
26
  3
Model
350
22
  0
DICTIONARY
  5
3B
102
{ACAD_REACTORS
330
C
102
}
330
C
100
AcDbDictionary
281
     1
  3
ByBlock
350
3D
  3
ByLayer
350
3C
  3
Global
350
3E
  0
DICTIONARY
  5
10A
102
{ACAD_REACTORS
330
C
102
}
330
C
100
AcDbDictionary
281
     1
  0
DICTIONARY
  5
17
102
{ACAD_REACTORS
330
C
102
}
330
C
100
AcDbDictionary
281
     1
  3
Standard
350
18
  0
DICTIONARY
  5
19
102
{ACAD_REACTORS
330
C
102
}
330
C
100
AcDbDictionary
281
     1
  0
ACDBDICTIONARYWDFLT
  5
E
102
{ACAD_REACTORS
330
C
102
}
330
C
100
AcDbDictionary
281
     1
  3
Normal
350
F
100
AcDbDictionaryWithDefault
340
F
  0
DICTIONARY
  5
109
102
{ACAD_REACTORS
330
C
102
}
330
C
100
AcDbDictionary
281
     1
  0
DICTIONARY
  5
2A
102
{ACAD_REACTORS
330
C
102
}
330
C
100
AcDbDictionary
281
     1
  3
2dWireframe
350
2F
  3
3D Hidden
350
31
  3
3dWireframe
350
30
  3
Basic
350
32
  3
Brighten
350
36
  3
ColorChange
350
3A
  3
Conceptual
350
34
  3
Dim
350
35
  3
Facepattern
350
39
  3
Flat
350
2B
  3
FlatWithEdges
350
2C
  3
Gouraud
350
2D
  3
GouraudWithEdges
350
2E
  3
Linepattern
350
38
  3
Realistic
350
33
  3
Thicken
350
37
  0
LAYOUT
  5
1E
102
{ACAD_REACTORS
330
1A
102
}
330
1A
100
AcDbPlotSettings
  1

  2
none_device
  4

  6

 40
0.0
 41
0.0
 42
0.0
 43
0.0
 44
0.0
 45
0.0
 46
0.0
 47
0.0
 48
0.0
 49
0.0
140
0.0
141
0.0
142
1.0
143
1.0
 70
   688
 72
     0
 73
     0
 74
     5
  7

 75
    16
 76
     0
 77
     2
 78
   300
147
1.0
148
0.0
149
0.0
100
AcDbLayout
  1
Layout1
 70
     1
 71
     1
 10
0.0
 20
0.0
 11
12.0
 21
9.0
 12
0.0
 22
0.0
 32
0.0
 14
1.000000000000000E+20
 24
1.000000000000000E+20
 34
1.000000000000000E+20
 15
-1.000000000000000E+20
 25
-1.000000000000000E+20
 35
-1.000000000000000E+20
146
0.0
 13
0.0
 23
0.0
 33
0.0
 16
1.0
 26
0.0
 36
0.0
 17
0.0
 27
1.0
 37
0.0
 76
     0
330
1B
  0
LAYOUT
  5
26
102
{ACAD_REACTORS
330
1A
102
}
330
1A
100
AcDbPlotSettings
  1

  2
none_device
  4

  6

 40
0.0
 41
0.0
 42
0.0
 43
0.0
 44
0.0
 45
0.0
 46
0.0
 47
0.0
 48
0.0
 49
0.0
140
0.0
141
0.0
142
1.0
143
1.0
 70
   688
 72
     0
 73
     0
 74
     5
  7

 75
    16
 76
     0
 77
     2
 78
   300
147
1.0
148
0.0
149
0.0
100
AcDbLayout
  1
Layout2
 70
     1
 71
     2
 10
0.0
 20
0.0
 11
0.0
 21
0.0
 12
0.0
 22
0.0
 32
0.0
 14
0.0
 24
0.0
 34
0.0
 15
0.0
 25
0.0
 35
0.0
146
0.0
 13
0.0
 23
0.0
 33
0.0
 16
1.0
 26
0.0
 36
0.0
 17
0.0
 27
1.0
 37
0.0
 76
     0
330
23
  0
LAYOUT
  5
22
102
{ACAD_REACTORS
330
1A
102
}
330
1A
100
AcDbPlotSettings
  1

  2
none_device
  4

  6

 40
0.0
 41
0.0
 42
0.0
 43
0.0
 44
0.0
 45
0.0
 46
0.0
 47
0.0
 48
0.0
 49
0.0
140
0.0
141
0.0
142
1.0
143
1.0
 70
  1712
 72
     0
 73
     0
 74
     0
  7

 75
     0
 76
     0
 77
     2
 78
   300
147
1.0
148
0.0
149
0.0
100
AcDbLayout
  1
Model
 70
     1
 71
     0
 10
0.0
 20
0.0
 11
12.0
 21
9.0
 12
0.0
 22
0.0
 32
0.0
 14
72.5119
 24
-105.9368
 34
0.0
 15
196.2599
 25
121.5853
 35
0.0
146
0.0
 13
0.0
 23
0.0
 33
0.0
 16
1.0
 26
0.0
 36
0.0
 17
0.0
 27
1.0
 37
0.0
 76
     0
330
1F
331
29
  0
MATERIAL
  5
3D
102
{ACAD_REACTORS
330
3B
102
}
330
3B
100
AcDbMaterial
  1
ByBlock
 72
     1
 94
      127
  0
MATERIAL
  5
3C
102
{ACAD_REACTORS
330
3B
102
}
330
3B
100
AcDbMaterial
  1
ByLayer
 72
     1
 94
      127
  0
MATERIAL
  5
3E
102
{ACAD_REACTORS
330
3B
102
}
330
3B
100
AcDbMaterial
  1
Global
 72
     1
 94
      127
  0
MLINESTYLE
  5
18
102
{ACAD_REACTORS
330
17
102
}
330
17
100
AcDbMlineStyle
  2
Standard
 70
     0
  3

 62
   256
 51
90.0
 52
90.0
 71
     2
 49
0.5
 62
   256
  6
BYLAYER
 49
-0.5
 62
   256
  6
BYLAYER
  0
ACDBPLACEHOLDER
  5
F
102
{ACAD_REACTORS
330
E
102
}
330
E
  0
VISUALSTYLE
  5
2F
102
{ACAD_REACTORS
330
2A
102
}
102
{ACAD_XDICTIONARY
360
F1
102
}
330
2A
100
AcDbVisualStyle
  2
2dWireframe
 70
     4
 71
     0
 72
     2
 73
     0
 90
        0
 40
-0.6
 41
-30.0
 62
     5
 63
     7
421
 16777215
 74
     1
 91
        4
 64
     7
 65
   257
 75
     1
175
     1
 42
1.0
 92
        0
 66
   257
 43
1.0
 76
     1
 77
     6
 78
     2
 67
     7
 79
     5
170
     0
171
     0
290
     0
174
     0
 93
        1
 44
0.0
173
     0
291
     0
 45
0.0
  0
VISUALSTYLE
  5
31
102
{ACAD_REACTORS
330
2A
102
}
102
{ACAD_XDICTIONARY
360
F5
102
}
330
2A
100
AcDbVisualStyle
  2
3D Hidden
 70
     6
 71
     1
 72
     2
 73
     2
 90
        0
 40
-0.6
 41
-30.0
 62
     5
 63
     7
421
 16777215
 74
     2
 91
        2
 64
     7
 65
   257
 75
     2
175
     1
 42
40.0
 92
        0
 66
   257
 43
1.0
 76
     1
 77
     6
 78
     2
 67
     7
 79
     3
170
     0
171
     0
290
     0
174
     0
 93
        1
 44
0.0
173
     0
291
     0
 45
0.0
  0
VISUALSTYLE
  5
30
102
{ACAD_REACTORS
330
2A
102
}
102
{ACAD_XDICTIONARY
360
F3
102
}
330
2A
100
AcDbVisualStyle
  2
3dWireframe
 70
     5
 71
     0
 72
     2
 73
     0
 90
        0
 40
-0.6
 41
-30.0
 62
     5
 63
     7
421
 16777215
 74
     1
 91
        4
 64
     7
 65
   257
 75
     1
175
     1
 42
1.0
 92
        0
 66
   257
 43
1.0
 76
     1
 77
     6
 78
     2
 67
     7
 79
     5
170
     0
171
     0
290
     0
174
     0
 93
        1
 44
0.0
173
     0
291
     0
 45
0.0
  0
VISUALSTYLE
  5
32
102
{ACAD_REACTORS
330
2A
102
}
102
{ACAD_XDICTIONARY
360
F7
102
}
330
2A
100
AcDbVisualStyle
  2
Basic
 70
     7
 71
     1
 72
     0
 73
     1
 90
        0
 40
-0.6
 41
-30.0
 62
     5
 63
     7
421
 16777215
 74
     0
 91
        4
 64
     7
 65
   257
 75
     1
175
     1
 42
1.0
 92
        8
 66
     7
 43
1.0
 76
     1
 77
     6
 78
     2
 67
     7
 79
     5
170
     0
171
     0
290
     0
174
     0
 93
        1
 44
0.0
173
     0
291
     1
 45
0.0
  0
VISUALSTYLE
  5
36
102
{ACAD_REACTORS
330
2A
102
}
102
{ACAD_XDICTIONARY
360
FF
102
}
330
2A
100
AcDbVisualStyle
  2
Brighten
 70
    12
 71
     2
 72
     2
 73
     0
 90
        0
 40
-0.6
 41
-30.0
 62
     5
 63
     7
421
 16777215
 74
     1
 91
        4
 64
     7
 65
   257
 75
     1
175
     1
 42
1.0
 92
        8
 66
     7
 43
1.0
 76
     1
 77
     6
 78
     2
 67
     7
 79
     5
170
     0
171
     0
290
     0
174
     0
 93
        1
 44
50.0
173
     0
291
     1
 45
0.0
  0
VISUALSTYLE
  5
3A
102
{ACAD_REACTORS
330
2A
102
}
102
{ACAD_XDICTIONARY
360
107
102
}
330
2A
100
AcDbVisualStyle
  2
ColorChange
 70
    16
 71
     2
 72
     2
 73
     3
 90
        0
 40
-0.6
 41
-30.0
 62
     5
 63
     8
421
  8421504
 74
     1
 91
        4
 64
     7
 65
   257
 75
     1
175
     1
 42
1.0
 92
        8
 66
     8
424
  8421504
 43
1.0
 76
     1
 77
     6
 78
     2
 67
     7
 79
     5
170
     0
171
     0
290
     0
174
     0
 93
        1
 44
0.0
173
     0
291
     1
 45
0.0
  0
VISUALSTYLE
  5
34
102
{ACAD_REACTORS
330
2A
102
}
102
{ACAD_XDICTIONARY
360
FB
102
}
330
2A
100
AcDbVisualStyle
  2
Conceptual
 70
     9
 71
     3
 72
     2
 73
     0
 90
        0
 40
-0.6
 41
-30.0
 62
     5
 63
     7
421
 16777215
 74
     2
 91
        2
 64
     7
 65
   257
 75
     1
175
     1
 42
40.0
 92
        8
 66
     7
 43
1.0
 76
     1
 77
     6
 78
     2
 67
     7
 79
     3
170
     0
171
     0
290
     0
174
     0
 93
        1
 44
0.0
173
     0
291
     0
 45
0.0
  0
VISUALSTYLE
  5
35
102
{ACAD_REACTORS
330
2A
102
}
102
{ACAD_XDICTIONARY
360
FD
102
}
330
2A
100
AcDbVisualStyle
  2
Dim
 70
    11
 71
     2
 72
     2
 73
     0
 90
        0
 40
-0.6
 41
-30.0
 62
     5
 63
     7
421
 16777215
 74
     1
 91
        4
 64
     7
 65
   257
 75
     1
175
     1
 42
1.0
 92
        8
 66
     7
 43
1.0
 76
     1
 77
     6
 78
     2
 67
     7
 79
     5
170
     0
171
     0
290
     0
174
     0
 93
        1
 44
-50.0
173
     0
291
     1
 45
0.0
  0
VISUALSTYLE
  5
39
102
{ACAD_REACTORS
330
2A
102
}
102
{ACAD_XDICTIONARY
360
105
102
}
330
2A
100
AcDbVisualStyle
  2
Facepattern
 70
    15
 71
     2
 72
     2
 73
     0
 90
        0
 40
-0.6
 41
-30.0
 62
     5
 63
     7
421
 16777215
 74
     1
 91
        4
 64
     7
 65
   257
 75
     1
175
     1
 42
1.0
 92
        8
 66
     7
 43
1.0
 76
     1
 77
     6
 78
     2
 67
     7
 79
     5
170
     0
171
     0
290
     0
174
     0
 93
        1
 44
0.0
173
     0
291
     1
 45
0.0
  0
VISUALSTYLE
  5
2B
102
{ACAD_REACTORS
330
2A
102
}
102
{ACAD_XDICTIONARY
360
E9
102
}
330
2A
100
AcDbVisualStyle
  2
Flat
 70
     0
 71
     2
 72
     1
 73
     1
 90
        2
 40
-0.6
 41
30.0
 62
     5
 63
     7
421
 16777215
 74
     0
 91
        4
 64
     7
 65
   257
 75
     1
175
     1
 42
1.0
 92
        8
 66
     7
 43
1.0
 76
     1
 77
     6
 78
     2
 67
     7
 79
     5
170
     0
171
     0
290
     0
174
     0
 93
       13
 44
0.0
173
     0
291
     1
 45
0.0
  0
VISUALSTYLE
  5
2C
102
{ACAD_REACTORS
330
2A
102
}
102
{ACAD_XDICTIONARY
360
EB
102
}
330
2A
100
AcDbVisualStyle
  2
FlatWithEdges
 70
     1
 71
     2
 72
     1
 73
     1
 90
        2
 40
-0.6
 41
30.0
 62
     5
 63
     7
421
 16777215
 74
     1
 91
        4
 64
     7
 65
   257
 75
     1
175
     1
 42
1.0
 92
        0
 66
   257
 43
1.0
 76
     1
 77
     6
 78
     2
 67
     7
 79
     5
170
     0
171
     0
290
     0
174
     0
 93
       13
 44
0.0
173
     0
291
     1
 45
0.0
  0
VISUALSTYLE
  5
2D
102
{ACAD_REACTORS
330
2A
102
}
102
{ACAD_XDICTIONARY
360
ED
102
}
330
2A
100
AcDbVisualStyle
  2
Gouraud
 70
     2
 71
     2
 72
     2
 73
     1
 90
        2
 40
-0.6
 41
30.0
 62
     5
 63
     7
421
 16777215
 74
     0
 91
        4
 64
     7
 65
   257
 75
     1
175
     1
 42
1.0
 92
        0
 66
     7
 43
1.0
 76
     1
 77
     6
 78
     2
 67
     7
 79
     5
170
     0
171
     0
290
     0
174
     0
 93
       13
 44
0.0
173
     0
291
     1
 45
0.0
  0
VISUALSTYLE
  5
2E
102
{ACAD_REACTORS
330
2A
102
}
102
{ACAD_XDICTIONARY
360
EF
102
}
330
2A
100
AcDbVisualStyle
  2
GouraudWithEdges
 70
     3
 71
     2
 72
     2
 73
     1
 90
        2
 40
-0.6
 41
30.0
 62
     5
 63
     7
421
 16777215
 74
     1
 91
        4
 64
     7
 65
   257
 75
     1
175
     1
 42
1.0
 92
        0
 66
   257
 43
1.0
 76
     1
 77
     6
 78
     2
 67
     7
 79
     5
170
     0
171
     0
290
     0
174
     0
 93
       13
 44
0.0
173
     0
291
     1
 45
0.0
  0
VISUALSTYLE
  5
38
102
{ACAD_REACTORS
330
2A
102
}
102
{ACAD_XDICTIONARY
360
103
102
}
330
2A
100
AcDbVisualStyle
  2
Linepattern
 70
    14
 71
     2
 72
     2
 73
     0
 90
        0
 40
-0.6
 41
-30.0
 62
     5
 63
     7
421
 16777215
 74
     1
 91
        4
 64
     7
 65
   257
 75
     7
175
     7
 42
1.0
 92
        8
 66
     7
 43
1.0
 76
     1
 77
     6
 78
     2
 67
     7
 79
     5
170
     0
171
     0
290
     0
174
     0
 93
        1
 44
0.0
173
     0
291
     1
 45
0.0
  0
VISUALSTYLE
  5
33
102
{ACAD_REACTORS
330
2A
102
}
102
{ACAD_XDICTIONARY
360
F9
102
}
330
2A
100
AcDbVisualStyle
  2
Realistic
 70
     8
 71
     2
 72
     2
 73
     0
 90
        0
 40
-0.6
 41
-30.0
 62
     5
 63
     7
421
 16777215
 74
     1
 91
        0
 64
     7
 65
   257
 75
     1
175
     1
 42
1.0
 92
        8
 66
     8
424
  7895160
 43
1.0
 76
     1
 77
     6
 78
     2
 67
     7
 79
     5
170
     0
171
     0
290
     0
174
     0
 93
       13
 44
0.0
173
     0
291
     0
 45
0.0
  0
VISUALSTYLE
  5
37
102
{ACAD_REACTORS
330
2A
102
}
102
{ACAD_XDICTIONARY
360
101
102
}
330
2A
100
AcDbVisualStyle
  2
Thicken
 70
    13
 71
     2
 72
     2
 73
     0
 90
        0
 40
-0.6
 41
-30.0
 62
     5
 63
     7
421
 16777215
 74
     1
 91
        4
 64
     7
 65
   257
 75
     1
175
     1
 42
1.0
 92
       12
 66
     7
 43
1.0
 76
     1
 77
     6
 78
     2
 67
     7
 79
     5
170
     0
171
     0
290
     0
174
     0
 93
        1
 44
0.0
173
     0
291
     1
 45
0.0
  0
DICTIONARY
  5
F1
330
2F
100
AcDbDictionary
280
     1
281
     1
  3
ACAD_XREC_ROUNDTRIP
360
F2
  0
DICTIONARY
  5
F5
330
31
100
AcDbDictionary
280
     1
281
     1
  3
ACAD_XREC_ROUNDTRIP
360
F6
  0
DICTIONARY
  5
F3
330
30
100
AcDbDictionary
280
     1
281
     1
  3
ACAD_XREC_ROUNDTRIP
360
F4
  0
DICTIONARY
  5
F7
330
32
100
AcDbDictionary
280
     1
281
     1
  3
ACAD_XREC_ROUNDTRIP
360
F8
  0
DICTIONARY
  5
FF
330
36
100
AcDbDictionary
280
     1
281
     1
  3
ACAD_XREC_ROUNDTRIP
360
100
  0
DICTIONARY
  5
107
330
3A
100
AcDbDictionary
280
     1
281
     1
  3
ACAD_XREC_ROUNDTRIP
360
108
  0
DICTIONARY
  5
FB
330
34
100
AcDbDictionary
280
     1
281
     1
  3
ACAD_XREC_ROUNDTRIP
360
FC
  0
DICTIONARY
  5
FD
330
35
100
AcDbDictionary
280
     1
281
     1
  3
ACAD_XREC_ROUNDTRIP
360
FE
  0
DICTIONARY
  5
105
330
39
100
AcDbDictionary
280
     1
281
     1
  3
ACAD_XREC_ROUNDTRIP
360
106
  0
DICTIONARY
  5
E9
330
2B
100
AcDbDictionary
280
     1
281
     1
  3
ACAD_XREC_ROUNDTRIP
360
EA
  0
DICTIONARY
  5
EB
330
2C
100
AcDbDictionary
280
     1
281
     1
  3
ACAD_XREC_ROUNDTRIP
360
EC
  0
DICTIONARY
  5
ED
330
2D
100
AcDbDictionary
280
     1
281
     1
  3
ACAD_XREC_ROUNDTRIP
360
EE
  0
DICTIONARY
  5
EF
330
2E
100
AcDbDictionary
280
     1
281
     1
  3
ACAD_XREC_ROUNDTRIP
360
F0
  0
DICTIONARY
  5
103
330
38
100
AcDbDictionary
280
     1
281
     1
  3
ACAD_XREC_ROUNDTRIP
360
104
  0
DICTIONARY
  5
F9
330
33
100
AcDbDictionary
280
     1
281
     1
  3
ACAD_XREC_ROUNDTRIP
360
FA
  0
DICTIONARY
  5
101
330
37
100
AcDbDictionary
280
     1
281
     1
  3
ACAD_XREC_ROUNDTRIP
360
102
  0
XRECORD
  5
F2
102
{ACAD_REACTORS
330
F1
102
}
330
F1
100
AcDbXrecord
280
     1
102
RTVSPropertyOp0
 70
     1
102
RTVSPropertyOp1
 70
     1
102
RTVSPropertyOp2
 70
     1
102
RTVSPropertyOp3
 70
     1
102
RTVSPropertyOp4
 70
     1
102
RTVSPropertyOp5
 70
     1
102
RTVSPropertyOp6
 70
     1
102
RTVSPropertyOp7
 70
     1
102
RTVSPropertyOp8
 70
     1
102
RTVSPropertyOp9
 70
     1
102
RTVSPropertyOp10
 70
     1
102
RTVSPropertyOp11
 70
     1
102
RTVSPropertyOp12
 70
     1
102
RTVSPropertyOp13
 70
     1
102
RTVSPropertyOp14
 70
     1
102
RTVSPropertyOp15
 70
     1
102
RTVSPropertyOp16
 70
     1
102
RTVSPropertyOp17
 70
     1
102
RTVSPropertyOp18
 70
     1
102
RTVSPropertyOp19
 70
     1
102
RTVSPropertyOp20
 70
     1
102
RTVSPropertyOp21
 70
     1
102
RTVSPropertyOp22
 70
     1
102
RTVSPropertyOp23
 70
     1
102
RTVSPropertyOp24
 70
     1
102
RTVSPropertyOp25
 70
     1
102
RTVSPropertyOp26
 70
     1
102
RTVSPropertyOp27
 70
     1
102
RTVSPropertyOp28
 70
     1
102
RTVSPropertyOp29
 70
     1
102
RTVSPropertyOp30
 70
     1
102
RTVSPropertyOp31
 70
     1
102
RTVSPropertyOp32
 70
     1
  0
XRECORD
  5
F6
102
{ACAD_REACTORS
330
F5
102
}
330
F5
100
AcDbXrecord
280
     1
102
RTVSPropertyOp0
 70
     1
102
RTVSPropertyOp1
 70
     1
102
RTVSPropertyOp2
 70
     1
102
RTVSPropertyOp3
 70
     1
102
RTVSPropertyOp4
 70
     1
102
RTVSPropertyOp5
 70
     1
102
RTVSPropertyOp6
 70
     1
102
RTVSPropertyOp7
 70
     1
102
RTVSPropertyOp8
 70
     1
102
RTVSPropertyOp9
 70
     1
102
RTVSPropertyOp10
 70
     1
102
RTVSPropertyOp11
 70
     1
102
RTVSPropertyOp12
 70
     1
102
RTVSPropertyOp13
 70
     1
102
RTVSPropertyOp14
 70
     1
102
RTVSPropertyOp15
 70
     1
102
RTVSPropertyOp16
 70
     1
102
RTVSPropertyOp17
 70
     1
102
RTVSPropertyOp18
 70
     1
102
RTVSPropertyOp19
 70
     1
102
RTVSPropertyOp20
 70
     1
102
RTVSPropertyOp21
 70
     1
102
RTVSPropertyOp22
 70
     1
102
RTVSPropertyOp23
 70
     1
102
RTVSPropertyOp24
 70
     1
102
RTVSPropertyOp25
 70
     1
102
RTVSPropertyOp26
 70
     1
102
RTVSPropertyOp27
 70
     1
102
RTVSPropertyOp28
 70
     1
102
RTVSPropertyOp29
 70
     1
102
RTVSPropertyOp30
 70
     1
102
RTVSPropertyOp31
 70
     1
102
RTVSPropertyOp32
 70
     1
  0
XRECORD
  5
F4
102
{ACAD_REACTORS
330
F3
102
}
330
F3
100
AcDbXrecord
280
     1
102
RTVSPropertyOp0
 70
     1
102
RTVSPropertyOp1
 70
     1
102
RTVSPropertyOp2
 70
     1
102
RTVSPropertyOp3
 70
     1
102
RTVSPropertyOp4
 70
     1
102
RTVSPropertyOp5
 70
     1
102
RTVSPropertyOp6
 70
     1
102
RTVSPropertyOp7
 70
     1
102
RTVSPropertyOp8
 70
     1
102
RTVSPropertyOp9
 70
     1
102
RTVSPropertyOp10
 70
     1
102
RTVSPropertyOp11
 70
     1
102
RTVSPropertyOp12
 70
     1
102
RTVSPropertyOp13
 70
     1
102
RTVSPropertyOp14
 70
     1
102
RTVSPropertyOp15
 70
     1
102
RTVSPropertyOp16
 70
     1
102
RTVSPropertyOp17
 70
     1
102
RTVSPropertyOp18
 70
     1
102
RTVSPropertyOp19
 70
     1
102
RTVSPropertyOp20
 70
     1
102
RTVSPropertyOp21
 70
     1
102
RTVSPropertyOp22
 70
     1
102
RTVSPropertyOp23
 70
     1
102
RTVSPropertyOp24
 70
     1
102
RTVSPropertyOp25
 70
     1
102
RTVSPropertyOp26
 70
     1
102
RTVSPropertyOp27
 70
     1
102
RTVSPropertyOp28
 70
     1
102
RTVSPropertyOp29
 70
     1
102
RTVSPropertyOp30
 70
     1
102
RTVSPropertyOp31
 70
     1
102
RTVSPropertyOp32
 70
     1
  0
XRECORD
  5
F8
102
{ACAD_REACTORS
330
F7
102
}
330
F7
100
AcDbXrecord
280
     1
102
RTVSPropertyOp0
 70
     1
102
RTVSPropertyOp1
 70
     1
102
RTVSPropertyOp2
 70
     1
102
RTVSPropertyOp3
 70
     1
102
RTVSPropertyOp4
 70
     1
102
RTVSPropertyOp5
 70
     1
102
RTVSPropertyOp6
 70
     1
102
RTVSPropertyOp7
 70
     1
102
RTVSPropertyOp8
 70
     1
102
RTVSPropertyOp9
 70
     1
102
RTVSPropertyOp10
 70
     1
102
RTVSPropertyOp11
 70
     1
102
RTVSPropertyOp12
 70
     1
102
RTVSPropertyOp13
 70
     1
102
RTVSPropertyOp14
 70
     1
102
RTVSPropertyOp15
 70
     1
102
RTVSPropertyOp16
 70
     1
102
RTVSPropertyOp17
 70
     1
102
RTVSPropertyOp18
 70
     1
102
RTVSPropertyOp19
 70
     1
102
RTVSPropertyOp20
 70
     1
102
RTVSPropertyOp21
 70
     1
102
RTVSPropertyOp22
 70
     1
102
RTVSPropertyOp23
 70
     1
102
RTVSPropertyOp24
 70
     1
102
RTVSPropertyOp25
 70
     1
102
RTVSPropertyOp26
 70
     1
102
RTVSPropertyOp27
 70
     1
102
RTVSPropertyOp28
 70
     1
102
RTVSPropertyOp29
 70
     1
102
RTVSPropertyOp30
 70
     1
102
RTVSPropertyOp31
 70
     1
102
RTVSPropertyOp32
 70
     1
  0
XRECORD
  5
100
102
{ACAD_REACTORS
330
FF
102
}
330
FF
100
AcDbXrecord
280
     1
102
RTVSPropertyOp0
 70
     1
102
RTVSPropertyOp1
 70
     1
102
RTVSPropertyOp2
 70
     1
102
RTVSPropertyOp3
 70
     1
102
RTVSPropertyOp4
 70
     1
102
RTVSPropertyOp5
 70
     1
102
RTVSPropertyOp6
 70
     1
102
RTVSPropertyOp7
 70
     1
102
RTVSPropertyOp8
 70
     1
102
RTVSPropertyOp9
 70
     1
102
RTVSPropertyOp10
 70
     1
102
RTVSPropertyOp11
 70
     1
102
RTVSPropertyOp12
 70
     1
102
RTVSPropertyOp13
 70
     1
102
RTVSPropertyOp14
 70
     1
102
RTVSPropertyOp15
 70
     1
102
RTVSPropertyOp16
 70
     1
102
RTVSPropertyOp17
 70
     1
102
RTVSPropertyOp18
 70
     1
102
RTVSPropertyOp19
 70
     1
102
RTVSPropertyOp20
 70
     1
102
RTVSPropertyOp21
 70
     1
102
RTVSPropertyOp22
 70
     1
102
RTVSPropertyOp23
 70
     1
102
RTVSPropertyOp24
 70
     1
102
RTVSPropertyOp25
 70
     1
102
RTVSPropertyOp26
 70
     1
102
RTVSPropertyOp27
 70
     1
102
RTVSPropertyOp28
 70
     1
102
RTVSPropertyOp29
 70
     1
102
RTVSPropertyOp30
 70
     1
102
RTVSPropertyOp31
 70
     1
102
RTVSPropertyOp32
 70
     1
  0
XRECORD
  5
108
102
{ACAD_REACTORS
330
107
102
}
330
107
100
AcDbXrecord
280
     1
102
RTVSPropertyOp0
 70
     1
102
RTVSPropertyOp1
 70
     1
102
RTVSPropertyOp2
 70
     1
102
RTVSPropertyOp3
 70
     1
102
RTVSPropertyOp4
 70
     1
102
RTVSPropertyOp5
 70
     1
102
RTVSPropertyOp6
 70
     1
102
RTVSPropertyOp7
 70
     1
102
RTVSPropertyOp8
 70
     1
102
RTVSPropertyOp9
 70
     1
102
RTVSPropertyOp10
 70
     1
102
RTVSPropertyOp11
 70
     1
102
RTVSPropertyOp12
 70
     1
102
RTVSPropertyOp13
 70
     1
102
RTVSPropertyOp14
 70
     1
102
RTVSPropertyOp15
 70
     1
102
RTVSPropertyOp16
 70
     1
102
RTVSPropertyOp17
 70
     1
102
RTVSPropertyOp18
 70
     1
102
RTVSPropertyOp19
 70
     1
102
RTVSPropertyOp20
 70
     1
102
RTVSPropertyOp21
 70
     1
102
RTVSPropertyOp22
 70
     1
102
RTVSPropertyOp23
 70
     1
102
RTVSPropertyOp24
 70
     1
102
RTVSPropertyOp25
 70
     1
102
RTVSPropertyOp26
 70
     1
102
RTVSPropertyOp27
 70
     1
102
RTVSPropertyOp28
 70
     1
102
RTVSPropertyOp29
 70
     1
102
RTVSPropertyOp30
 70
     1
102
RTVSPropertyOp31
 70
     1
102
RTVSPropertyOp32
 70
     1
  0
XRECORD
  5
FC
102
{ACAD_REACTORS
330
FB
102
}
330
FB
100
AcDbXrecord
280
     1
102
RTVSPropertyOp0
 70
     1
102
RTVSPropertyOp1
 70
     1
102
RTVSPropertyOp2
 70
     1
102
RTVSPropertyOp3
 70
     1
102
RTVSPropertyOp4
 70
     1
102
RTVSPropertyOp5
 70
     1
102
RTVSPropertyOp6
 70
     1
102
RTVSPropertyOp7
 70
     1
102
RTVSPropertyOp8
 70
     1
102
RTVSPropertyOp9
 70
     1
102
RTVSPropertyOp10
 70
     1
102
RTVSPropertyOp11
 70
     1
102
RTVSPropertyOp12
 70
     1
102
RTVSPropertyOp13
 70
     1
102
RTVSPropertyOp14
 70
     1
102
RTVSPropertyOp15
 70
     1
102
RTVSPropertyOp16
 70
     1
102
RTVSPropertyOp17
 70
     1
102
RTVSPropertyOp18
 70
     1
102
RTVSPropertyOp19
 70
     1
102
RTVSPropertyOp20
 70
     1
102
RTVSPropertyOp21
 70
     1
102
RTVSPropertyOp22
 70
     1
102
RTVSPropertyOp23
 70
     1
102
RTVSPropertyOp24
 70
     1
102
RTVSPropertyOp25
 70
     1
102
RTVSPropertyOp26
 70
     1
102
RTVSPropertyOp27
 70
     1
102
RTVSPropertyOp28
 70
     1
102
RTVSPropertyOp29
 70
     1
102
RTVSPropertyOp30
 70
     1
102
RTVSPropertyOp31
 70
     1
102
RTVSPropertyOp32
 70
     1
  0
XRECORD
  5
FE
102
{ACAD_REACTORS
330
FD
102
}
330
FD
100
AcDbXrecord
280
     1
102
RTVSPropertyOp0
 70
     1
102
RTVSPropertyOp1
 70
     1
102
RTVSPropertyOp2
 70
     1
102
RTVSPropertyOp3
 70
     1
102
RTVSPropertyOp4
 70
     1
102
RTVSPropertyOp5
 70
     1
102
RTVSPropertyOp6
 70
     1
102
RTVSPropertyOp7
 70
     1
102
RTVSPropertyOp8
 70
     1
102
RTVSPropertyOp9
 70
     1
102
RTVSPropertyOp10
 70
     1
102
RTVSPropertyOp11
 70
     1
102
RTVSPropertyOp12
 70
     1
102
RTVSPropertyOp13
 70
     1
102
RTVSPropertyOp14
 70
     1
102
RTVSPropertyOp15
 70
     1
102
RTVSPropertyOp16
 70
     1
102
RTVSPropertyOp17
 70
     1
102
RTVSPropertyOp18
 70
     1
102
RTVSPropertyOp19
 70
     1
102
RTVSPropertyOp20
 70
     1
102
RTVSPropertyOp21
 70
     1
102
RTVSPropertyOp22
 70
     1
102
RTVSPropertyOp23
 70
     1
102
RTVSPropertyOp24
 70
     1
102
RTVSPropertyOp25
 70
     1
102
RTVSPropertyOp26
 70
     1
102
RTVSPropertyOp27
 70
     1
102
RTVSPropertyOp28
 70
     1
102
RTVSPropertyOp29
 70
     1
102
RTVSPropertyOp30
 70
     1
102
RTVSPropertyOp31
 70
     1
102
RTVSPropertyOp32
 70
     1
  0
XRECORD
  5
106
102
{ACAD_REACTORS
330
105
102
}
330
105
100
AcDbXrecord
280
     1
102
RTVSPropertyOp0
 70
     1
102
RTVSPropertyOp1
 70
     1
102
RTVSPropertyOp2
 70
     1
102
RTVSPropertyOp3
 70
     1
102
RTVSPropertyOp4
 70
     1
102
RTVSPropertyOp5
 70
     1
102
RTVSPropertyOp6
 70
     1
102
RTVSPropertyOp7
 70
     1
102
RTVSPropertyOp8
 70
     1
102
RTVSPropertyOp9
 70
     1
102
RTVSPropertyOp10
 70
     1
102
RTVSPropertyOp11
 70
     1
102
RTVSPropertyOp12
 70
     1
102
RTVSPropertyOp13
 70
     1
102
RTVSPropertyOp14
 70
     1
102
RTVSPropertyOp15
 70
     1
102
RTVSPropertyOp16
 70
     1
102
RTVSPropertyOp17
 70
     1
102
RTVSPropertyOp18
 70
     1
102
RTVSPropertyOp19
 70
     1
102
RTVSPropertyOp20
 70
     1
102
RTVSPropertyOp21
 70
     1
102
RTVSPropertyOp22
 70
     1
102
RTVSPropertyOp23
 70
     1
102
RTVSPropertyOp24
 70
     1
102
RTVSPropertyOp25
 70
     1
102
RTVSPropertyOp26
 70
     1
102
RTVSPropertyOp27
 70
     1
102
RTVSPropertyOp28
 70
     1
102
RTVSPropertyOp29
 70
     1
102
RTVSPropertyOp30
 70
     1
102
RTVSPropertyOp31
 70
     1
102
RTVSPropertyOp32
 70
     1
  0
XRECORD
  5
EA
102
{ACAD_REACTORS
330
E9
102
}
330
E9
100
AcDbXrecord
280
     1
102
RTVSPropertyOp0
 70
     1
102
RTVSPropertyOp1
 70
     1
102
RTVSPropertyOp2
 70
     1
102
RTVSPropertyOp3
 70
     1
102
RTVSPropertyOp4
 70
     1
102
RTVSPropertyOp5
 70
     1
102
RTVSPropertyOp6
 70
     1
102
RTVSPropertyOp7
 70
     1
102
RTVSPropertyOp8
 70
     1
102
RTVSPropertyOp9
 70
     1
102
RTVSPropertyOp10
 70
     1
102
RTVSPropertyOp11
 70
     1
102
RTVSPropertyOp12
 70
     1
102
RTVSPropertyOp13
 70
     1
102
RTVSPropertyOp14
 70
     1
102
RTVSPropertyOp15
 70
     1
102
RTVSPropertyOp16
 70
     1
102
RTVSPropertyOp17
 70
     1
102
RTVSPropertyOp18
 70
     1
102
RTVSPropertyOp19
 70
     1
102
RTVSPropertyOp20
 70
     1
102
RTVSPropertyOp21
 70
     1
102
RTVSPropertyOp22
 70
     1
102
RTVSPropertyOp23
 70
     1
102
RTVSPropertyOp24
 70
     1
102
RTVSPropertyOp25
 70
     1
102
RTVSPropertyOp26
 70
     1
102
RTVSPropertyOp27
 70
     1
102
RTVSPropertyOp28
 70
     1
102
RTVSPropertyOp29
 70
     1
102
RTVSPropertyOp30
 70
     1
102
RTVSPropertyOp31
 70
     1
102
RTVSPropertyOp32
 70
     1
  0
XRECORD
  5
EC
102
{ACAD_REACTORS
330
EB
102
}
330
EB
100
AcDbXrecord
280
     1
102
RTVSPropertyOp0
 70
     1
102
RTVSPropertyOp1
 70
     1
102
RTVSPropertyOp2
 70
     1
102
RTVSPropertyOp3
 70
     1
102
RTVSPropertyOp4
 70
     1
102
RTVSPropertyOp5
 70
     1
102
RTVSPropertyOp6
 70
     1
102
RTVSPropertyOp7
 70
     1
102
RTVSPropertyOp8
 70
     1
102
RTVSPropertyOp9
 70
     1
102
RTVSPropertyOp10
 70
     1
102
RTVSPropertyOp11
 70
     1
102
RTVSPropertyOp12
 70
     1
102
RTVSPropertyOp13
 70
     1
102
RTVSPropertyOp14
 70
     1
102
RTVSPropertyOp15
 70
     1
102
RTVSPropertyOp16
 70
     1
102
RTVSPropertyOp17
 70
     1
102
RTVSPropertyOp18
 70
     1
102
RTVSPropertyOp19
 70
     1
102
RTVSPropertyOp20
 70
     1
102
RTVSPropertyOp21
 70
     1
102
RTVSPropertyOp22
 70
     1
102
RTVSPropertyOp23
 70
     1
102
RTVSPropertyOp24
 70
     1
102
RTVSPropertyOp25
 70
     1
102
RTVSPropertyOp26
 70
     1
102
RTVSPropertyOp27
 70
     1
102
RTVSPropertyOp28
 70
     1
102
RTVSPropertyOp29
 70
     1
102
RTVSPropertyOp30
 70
     1
102
RTVSPropertyOp31
 70
     1
102
RTVSPropertyOp32
 70
     1
  0
XRECORD
  5
EE
102
{ACAD_REACTORS
330
ED
102
}
330
ED
100
AcDbXrecord
280
     1
102
RTVSPropertyOp0
 70
     1
102
RTVSPropertyOp1
 70
     1
102
RTVSPropertyOp2
 70
     1
102
RTVSPropertyOp3
 70
     1
102
RTVSPropertyOp4
 70
     1
102
RTVSPropertyOp5
 70
     1
102
RTVSPropertyOp6
 70
     1
102
RTVSPropertyOp7
 70
     1
102
RTVSPropertyOp8
 70
     1
102
RTVSPropertyOp9
 70
     1
102
RTVSPropertyOp10
 70
     1
102
RTVSPropertyOp11
 70
     1
102
RTVSPropertyOp12
 70
     1
102
RTVSPropertyOp13
 70
     1
102
RTVSPropertyOp14
 70
     1
102
RTVSPropertyOp15
 70
     1
102
RTVSPropertyOp16
 70
     1
102
RTVSPropertyOp17
 70
     1
102
RTVSPropertyOp18
 70
     1
102
RTVSPropertyOp19
 70
     1
102
RTVSPropertyOp20
 70
     1
102
RTVSPropertyOp21
 70
     1
102
RTVSPropertyOp22
 70
     1
102
RTVSPropertyOp23
 70
     1
102
RTVSPropertyOp24
 70
     1
102
RTVSPropertyOp25
 70
     1
102
RTVSPropertyOp26
 70
     1
102
RTVSPropertyOp27
 70
     1
102
RTVSPropertyOp28
 70
     1
102
RTVSPropertyOp29
 70
     1
102
RTVSPropertyOp30
 70
     1
102
RTVSPropertyOp31
 70
     1
102
RTVSPropertyOp32
 70
     1
  0
XRECORD
  5
F0
102
{ACAD_REACTORS
330
EF
102
}
330
EF
100
AcDbXrecord
280
     1
102
RTVSPropertyOp0
 70
     1
102
RTVSPropertyOp1
 70
     1
102
RTVSPropertyOp2
 70
     1
102
RTVSPropertyOp3
 70
     1
102
RTVSPropertyOp4
 70
     1
102
RTVSPropertyOp5
 70
     1
102
RTVSPropertyOp6
 70
     1
102
RTVSPropertyOp7
 70
     1
102
RTVSPropertyOp8
 70
     1
102
RTVSPropertyOp9
 70
     1
102
RTVSPropertyOp10
 70
     1
102
RTVSPropertyOp11
 70
     1
102
RTVSPropertyOp12
 70
     1
102
RTVSPropertyOp13
 70
     1
102
RTVSPropertyOp14
 70
     1
102
RTVSPropertyOp15
 70
     1
102
RTVSPropertyOp16
 70
     1
102
RTVSPropertyOp17
 70
     1
102
RTVSPropertyOp18
 70
     1
102
RTVSPropertyOp19
 70
     1
102
RTVSPropertyOp20
 70
     1
102
RTVSPropertyOp21
 70
     1
102
RTVSPropertyOp22
 70
     1
102
RTVSPropertyOp23
 70
     1
102
RTVSPropertyOp24
 70
     1
102
RTVSPropertyOp25
 70
     1
102
RTVSPropertyOp26
 70
     1
102
RTVSPropertyOp27
 70
     1
102
RTVSPropertyOp28
 70
     1
102
RTVSPropertyOp29
 70
     1
102
RTVSPropertyOp30
 70
     1
102
RTVSPropertyOp31
 70
     1
102
RTVSPropertyOp32
 70
     1
  0
XRECORD
  5
104
102
{ACAD_REACTORS
330
103
102
}
330
103
100
AcDbXrecord
280
     1
102
RTVSPropertyOp0
 70
     1
102
RTVSPropertyOp1
 70
     1
102
RTVSPropertyOp2
 70
     1
102
RTVSPropertyOp3
 70
     1
102
RTVSPropertyOp4
 70
     1
102
RTVSPropertyOp5
 70
     1
102
RTVSPropertyOp6
 70
     1
102
RTVSPropertyOp7
 70
     1
102
RTVSPropertyOp8
 70
     1
102
RTVSPropertyOp9
 70
     1
102
RTVSPropertyOp10
 70
     1
102
RTVSPropertyOp11
 70
     1
102
RTVSPropertyOp12
 70
     1
102
RTVSPropertyOp13
 70
     1
102
RTVSPropertyOp14
 70
     1
102
RTVSPropertyOp15
 70
     1
102
RTVSPropertyOp16
 70
     1
102
RTVSPropertyOp17
 70
     1
102
RTVSPropertyOp18
 70
     1
102
RTVSPropertyOp19
 70
     1
102
RTVSPropertyOp20
 70
     1
102
RTVSPropertyOp21
 70
     1
102
RTVSPropertyOp22
 70
     1
102
RTVSPropertyOp23
 70
     1
102
RTVSPropertyOp24
 70
     1
102
RTVSPropertyOp25
 70
     1
102
RTVSPropertyOp26
 70
     1
102
RTVSPropertyOp27
 70
     1
102
RTVSPropertyOp28
 70
     1
102
RTVSPropertyOp29
 70
     1
102
RTVSPropertyOp30
 70
     1
102
RTVSPropertyOp31
 70
     1
102
RTVSPropertyOp32
 70
     1
  0
XRECORD
  5
FA
102
{ACAD_REACTORS
330
F9
102
}
330
F9
100
AcDbXrecord
280
     1
102
RTVSPropertyOp0
 70
     1
102
RTVSPropertyOp1
 70
     1
102
RTVSPropertyOp2
 70
     1
102
RTVSPropertyOp3
 70
     1
102
RTVSPropertyOp4
 70
     1
102
RTVSPropertyOp5
 70
     1
102
RTVSPropertyOp6
 70
     1
102
RTVSPropertyOp7
 70
     1
102
RTVSPropertyOp8
 70
     1
102
RTVSPropertyOp9
 70
     1
102
RTVSPropertyOp10
 70
     1
102
RTVSPropertyOp11
 70
     1
102
RTVSPropertyOp12
 70
     1
102
RTVSPropertyOp13
 70
     1
102
RTVSPropertyOp14
 70
     1
102
RTVSPropertyOp15
 70
     1
102
RTVSPropertyOp16
 70
     1
102
RTVSPropertyOp17
 70
     1
102
RTVSPropertyOp18
 70
     1
102
RTVSPropertyOp19
 70
     1
102
RTVSPropertyOp20
 70
     1
102
RTVSPropertyOp21
 70
     1
102
RTVSPropertyOp22
 70
     1
102
RTVSPropertyOp23
 70
     1
102
RTVSPropertyOp24
 70
     1
102
RTVSPropertyOp25
 70
     1
102
RTVSPropertyOp26
 70
     1
102
RTVSPropertyOp27
 70
     1
102
RTVSPropertyOp28
 70
     1
102
RTVSPropertyOp29
 70
     1
102
RTVSPropertyOp30
 70
     1
102
RTVSPropertyOp31
 70
     1
102
RTVSPropertyOp32
 70
     1
  0
XRECORD
  5
102
102
{ACAD_REACTORS
330
101
102
}
330
101
100
AcDbXrecord
280
     1
102
RTVSPropertyOp0
 70
     1
102
RTVSPropertyOp1
 70
     1
102
RTVSPropertyOp2
 70
     1
102
RTVSPropertyOp3
 70
     1
102
RTVSPropertyOp4
 70
     1
102
RTVSPropertyOp5
 70
     1
102
RTVSPropertyOp6
 70
     1
102
RTVSPropertyOp7
 70
     1
102
RTVSPropertyOp8
 70
     1
102
RTVSPropertyOp9
 70
     1
102
RTVSPropertyOp10
 70
     1
102
RTVSPropertyOp11
 70
     1
102
RTVSPropertyOp12
 70
     1
102
RTVSPropertyOp13
 70
     1
102
RTVSPropertyOp14
 70
     1
102
RTVSPropertyOp15
 70
     1
102
RTVSPropertyOp16
 70
     1
102
RTVSPropertyOp17
 70
     1
102
RTVSPropertyOp18
 70
     1
102
RTVSPropertyOp19
 70
     1
102
RTVSPropertyOp20
 70
     1
102
RTVSPropertyOp21
 70
     1
102
RTVSPropertyOp22
 70
     1
102
RTVSPropertyOp23
 70
     1
102
RTVSPropertyOp24
 70
     1
102
RTVSPropertyOp25
 70
     1
102
RTVSPropertyOp26
 70
     1
102
RTVSPropertyOp27
 70
     1
102
RTVSPropertyOp28
 70
     1
102
RTVSPropertyOp29
 70
     1
102
RTVSPropertyOp30
 70
     1
102
RTVSPropertyOp31
 70
     1
102
RTVSPropertyOp32
 70
     1
  0
ENDSEC
  0
EOF
