  0
SECTION
  2
HEADER
  9
$ACADVER
  1
AC1021
  9
$ACADMAINTVER
 70
    25
  9
$DWGCODEPAGE
  3
ANSI_1256
  9
$INSBASE
 10
0.0
 20
0.0
 30
0.0
  9
$EXTMIN
 10
-187.4307
 20
-106.3129
 30
0.0
  9
$EXTMAX
 10
-60.5602
 20
121.4675
 30
0.0
  9
$LIMMIN
 10
0.0
 20
0.0
  9
$LIMMAX
 10
12.0
 20
9.0
  9
$ORTHOMODE
 70
     0
  9
$REGENMODE
 70
     1
  9
$FILLMODE
 70
     1
  9
$QTEXTMODE
 70
     0
  9
$MIRRTEXT
 70
     1
  9
$LTSCALE
 40
1.0
  9
$ATTMODE
 70
     1
  9
$TEXTSIZE
 40
0.2
  9
$TRACEWID
 40
0.05
  9
$TEXTSTYLE
  7
Standard
  9
$CLAYER
  8
0
  9
$CELTYPE
  6
ByLayer
  9
$CECOLOR
 62
   256
  9
$CELTSCALE
 40
1.0
  9
$DISPSILH
 70
     0
  9
$DIMSCALE
 40
1.0
  9
$DIMASZ
 40
0.18
  9
$DIMEXO
 40
0.0625
  9
$DIMDLI
 40
0.38
  9
$DIMRND
 40
0.0
  9
$DIMDLE
 40
0.0
  9
$DIMEXE
 40
0.18
  9
$DIMTP
 40
0.0
  9
$DIMTM
 40
0.0
  9
$DIMTXT
 40
0.18
  9
$DIMCEN
 40
0.09
  9
$DIMTSZ
 40
0.0
  9
$DIMTOL
 70
     0
  9
$DIMLIM
 70
     0
  9
$DIMTIH
 70
     1
  9
$DIMTOH
 70
     1
  9
$DIMSE1
 70
     0
  9
$DIMSE2
 70
     0
  9
$DIMTAD
 70
     0
  9
$DIMZIN
 70
     0
  9
$DIMBLK
  1

  9
$DIMASO
 70
     1
  9
$DIMSHO
 70
     1
  9
$DIMPOST
  1

  9
$DIMAPOST
  1

  9
$DIMALT
 70
     0
  9
$DIMALTD
 70
     2
  9
$DIMALTF
 40
25.4
  9
$DIMLFAC
 40
1.0
  9
$DIMTOFL
 70
     0
  9
$DIMTVP
 40
0.0
  9
$DIMTIX
 70
     0
  9
$DIMSOXD
 70
     0
  9
$DIMSAH
 70
     0
  9
$DIMBLK1
  1

  9
$DIMBLK2
  1

  9
$DIMSTYLE
  2
Standard
  9
$DIMCLRD
 70
     0
  9
$DIMCLRE
 70
     0
  9
$DIMCLRT
 70
     0
  9
$DIMTFAC
 40
1.0
  9
$DIMGAP
 40
0.09
  9
$DIMJUST
 70
     0
  9
$DIMSD1
 70
     0
  9
$DIMSD2
 70
     0
  9
$DIMTOLJ
 70
     1
  9
$DIMTZIN
 70
     0
  9
$DIMALTZ
 70
     0
  9
$DIMALTTZ
 70
     0
  9
$DIMUPT
 70
     0
  9
$DIMDEC
 70
     4
  9
$DIMTDEC
 70
     4
  9
$DIMALTU
 70
     2
  9
$DIMALTTD
 70
     2
  9
$DIMTXSTY
  7
Standard
  9
$DIMAUNIT
 70
     0
  9
$DIMADEC
 70
     0
  9
$DIMALTRND
 40
0.0
  9
$DIMAZIN
 70
     0
  9
$DIMDSEP
 70
    46
  9
$DIMATFIT
 70
     3
  9
$DIMFRAC
 70
     0
  9
$DIMLDRBLK
  1

  9
$DIMLUNIT
 70
     2
  9
$DIMLWD
 70
    -2
  9
$DIMLWE
 70
    -2
  9
$DIMTMOVE
 70
     0
  9
$DIMFXL
 40
1.0
  9
$DIMFXLON
 70
     0
  9
$DIMJOGANG
 40
0.7853981633974483
  9
$DIMTFILL
 70
     0
  9
$DIMTFILLCLR
 70
     0
  9
$DIMARCSYM
 70
     0
  9
$DIMLTYPE
  6

  9
$DIMLTEX1
  6

  9
$DIMLTEX2
  6

  9
$LUNITS
 70
     2
  9
$LUPREC
 70
     4
  9
$SKETCHINC
 40
0.1
  9
$FILLETRAD
 40
0.5
  9
$AUNITS
 70
     0
  9
$AUPREC
 70
     0
  9
$MENU
  1
.
  9
$ELEVATION
 40
0.0
  9
$PELEVATION
 40
0.0
  9
$THICKNESS
 40
0.0
  9
$LIMCHECK
 70
     0
  9
$CHAMFERA
 40
0.5
  9
$CHAMFERB
 40
0.5
  9
$CHAMFERC
 40
1.0
  9
$CHAMFERD
 40
0.0
  9
$SKPOLY
 70
     0
  9
$TDCREATE
 40
2458479.310901782
  9
$TDUCREATE
 40
2458479.144235116
  9
$TDUPDATE
 40
2458479.310901864
  9
$TDUUPDATE
 40
2458479.144235197
  9
$TDINDWG
 40
0.0000000116
  9
$TDUSRTIMER
 40
0.0000000116
  9
$USRTIMER
 70
     1
  9
$ANGBASE
 50
0.0
  9
$ANGDIR
 70
     0
  9
$PDMODE
 70
     0
  9
$PDSIZE
 40
0.0
  9
$PLINEWID
 40
0.0
  9
$SPLFRAME
 70
     0
  9
$SPLINETYPE
 70
     6
  9
$SPLINESEGS
 70
     8
  9
$HANDSEED
  5
CA
  9
$SURFTAB1
 70
     6
  9
$SURFTAB2
 70
     6
  9
$SURFTYPE
 70
     6
  9
$SURFU
 70
     6
  9
$SURFV
 70
     6
  9
$UCSBASE
  2

  9
$UCSNAME
  2

  9
$UCSORG
 10
0.0
 20
0.0
 30
0.0
  9
$UCSXDIR
 10
1.0
 20
0.0
 30
0.0
  9
$UCSYDIR
 10
0.0
 20
1.0
 30
0.0
  9
$UCSORTHOREF
  2

  9
$UCSORTHOVIEW
 70
     0
  9
$UCSORGTOP
 10
0.0
 20
0.0
 30
0.0
  9
$UCSORGBOTTOM
 10
0.0
 20
0.0
 30
0.0
  9
$UCSORGLEFT
 10
0.0
 20
0.0
 30
0.0
  9
$UCSORGRIGHT
 10
0.0
 20
0.0
 30
0.0
  9
$UCSORGFRONT
 10
0.0
 20
0.0
 30
0.0
  9
$UCSORGBACK
 10
0.0
 20
0.0
 30
0.0
  9
$PUCSBASE
  2

  9
$PUCSNAME
  2

  9
$PUCSORG
 10
0.0
 20
0.0
 30
0.0
  9
$PUCSXDIR
 10
1.0
 20
0.0
 30
0.0
  9
$PUCSYDIR
 10
0.0
 20
1.0
 30
0.0
  9
$PUCSORTHOREF
  2

  9
$PUCSORTHOVIEW
 70
     0
  9
$PUCSORGTOP
 10
0.0
 20
0.0
 30
0.0
  9
$PUCSORGBOTTOM
 10
0.0
 20
0.0
 30
0.0
  9
$PUCSORGLEFT
 10
0.0
 20
0.0
 30
0.0
  9
$PUCSORGRIGHT
 10
0.0
 20
0.0
 30
0.0
  9
$PUCSORGFRONT
 10
0.0
 20
0.0
 30
0.0
  9
$PUCSORGBACK
 10
0.0
 20
0.0
 30
0.0
  9
$USERI1
 70
     0
  9
$USERI2
 70
     0
  9
$USERI3
 70
     0
  9
$USERI4
 70
     0
  9
$USERI5
 70
     0
  9
$USERR1
 40
0.0
  9
$USERR2
 40
0.0
  9
$USERR3
 40
0.0
  9
$USERR4
 40
0.0
  9
$USERR5
 40
0.0
  9
$WORLDVIEW
 70
     1
  9
$SHADEDGE
 70
     3
  9
$SHADEDIF
 70
    70
  9
$TILEMODE
 70
     1
  9
$MAXACTVP
 70
    64
  9
$PINSBASE
 10
0.0
 20
0.0
 30
0.0
  9
$PLIMCHECK
 70
     0
  9
$PEXTMIN
 10
1.000000000000000E+20
 20
1.000000000000000E+20
 30
1.000000000000000E+20
  9
$PEXTMAX
 10
-1.000000000000000E+20
 20
-1.000000000000000E+20
 30
-1.000000000000000E+20
  9
$PLIMMIN
 10
0.0
 20
0.0
  9
$PLIMMAX
 10
12.0
 20
9.0
  9
$UNITMODE
 70
     0
  9
$VISRETAIN
 70
     1
  9
$PLINEGEN
 70
     0
  9
$PSLTSCALE
 70
     1
  9
$TREEDEPTH
 70
  3020
  9
$CMLSTYLE
  2
Standard
  9
$CMLJUST
 70
     0
  9
$CMLSCALE
 40
1.0
  9
$PROXYGRAPHICS
 70
     1
  9
$MEASUREMENT
 70
     0
  9
$CELWEIGHT
370
    -1
  9
$ENDCAPS
280
     0
  9
$JOINSTYLE
280
     0
  9
$LWDISPLAY
290
     0
  9
$INSUNITS
 70
     4
  9
$HYPERLINKBASE
  1

  9
$STYLESHEET
  1

  9
$XEDIT
290
     1
  9
$CEPSNTYPE
380
     0
  9
$PSTYLEMODE
290
     1
  9
$FINGERPRINTGUID
  2
{9314F10D-C5CA-46B8-B007-B6E88A120DCF}
  9
$VERSIONGUID
  2
{FAEB1C32-E019-11D5-929B-00C0DF256EC4}
  9
$EXTNAMES
290
     1
  9
$PSVPSCALE
 40
0.0
  9
$OLESTARTUP
290
     0
  9
$SORTENTS
280
   127
  9
$INDEXCTL
280
     0
  9
$HIDETEXT
280
     1
  9
$XCLIPFRAME
290
     0
  9
$HALOGAP
280
     0
  9
$OBSCOLOR
 70
   257
  9
$OBSLTYPE
280
     0
  9
$INTERSECTIONDISPLAY
280
     0
  9
$INTERSECTIONCOLOR
 70
   257
  9
$DIMASSOC
280
     2
  9
$PROJECTNAME
  1

  9
$CAMERADISPLAY
290
     0
  9
$LENSLENGTH
 40
50.0
  9
$CAMERAHEIGHT
 40
0.0
  9
$STEPSPERSEC
 40
2.0
  9
$STEPSIZE
 40
6.0
  9
$3DDWFPREC
 40
2.0
  9
$PSOLWIDTH
 40
0.25
  9
$PSOLHEIGHT
 40
4.0
  9
$LOFTANG1
 40
1.570796326794897
  9
$LOFTANG2
 40
1.570796326794897
  9
$LOFTMAG1
 40
0.0
  9
$LOFTMAG2
 40
0.0
  9
$LOFTPARAM
 70
     7
  9
$LOFTNORMALS
280
     1
  9
$LATITUDE
 40
37.795
  9
$LONGITUDE
 40
-122.394
  9
$NORTHDIRECTION
 40
0.0
  9
$TIMEZONE
 70
 -8000
  9
$LIGHTGLYPHDISPLAY
280
     1
  9
$TILEMODELIGHTSYNCH
280
     1
  9
$SOLIDHIST
280
     1
  9
$SHOWHIST
280
     1
  9
$DWFFRAME
280
     2
  9
$DGNFRAME
280
     2
  9
$REALWORLDSCALE
290
     1
  9
$INTERFERECOLOR
 62
   256
  9
$CSHADOW
280
     0
  9
$SHADOWPLANELOCATION
 40
0.0
  0
ENDSEC
  0
SECTION
  2
CLASSES
  0
CLASS
  1
ACDBDICTIONARYWDFLT
  2
AcDbDictionaryWithDefault
  3
ObjectDBX Classes
 90
        0
 91
        4
280
     0
281
     0
  0
CLASS
  1
VISUALSTYLE
  2
AcDbVisualStyle
  3
ObjectDBX Classes
 90
     4095
 91
        4
280
     0
281
     0
  0
CLASS
  1
MATERIAL
  2
AcDbMaterial
  3
ObjectDBX Classes
 90
     1153
 91
        4
280
     0
281
     0
  0
ENDSEC
  0
SECTION
  2
TABLES
  0
TABLE
  2
VPORT
  5
8
330
0
100
AcDbSymbolTable
 70
     1
  0
VPORT
  5
29
330
8
100
AcDbSymbolTableRecord
100
AcDbViewportTableRecord
  2
*Active
 70
     0
 10
0.0
 20
0.0
 11
1.0
 21
1.0
 12
10.42990654205607
 22
4.5
 13
0.0
 23
0.0
 14
0.5
 24
0.5
 15
0.5
 25
0.5
 16
0.0
 26
0.0
 36
1.0
 17
0.0
 27
0.0
 37
0.0
 40
9.0
 41
1.972972972850329
 42
50.0
 43
0.0
 44
0.0
 50
0.0
 51
0.0
 71
     0
 72
   100
 73
     1
 74
     3
 75
     0
 76
     0
 77
     0
 78
     0
281
     0
 65
     1
110
0.0
120
0.0
130
0.0
111
1.0
121
0.0
131
0.0
112
0.0
122
1.0
132
0.0
 79
     0
146
0.0
 60
     3
 61
     5
292
     1
282
     1
141
0.0
142
0.0
 63
   250
  0
ENDTAB
  0
TABLE
  2
LTYPE
  5
5
330
0
100
AcDbSymbolTable
 70
     1
  0
LTYPE
  5
14
330
5
100
AcDbSymbolTableRecord
100
AcDbLinetypeTableRecord
  2
ByBlock
 70
     0
  3

 72
    65
 73
     0
 40
0.0
  0
LTYPE
  5
15
330
5
100
AcDbSymbolTableRecord
100
AcDbLinetypeTableRecord
  2
ByLayer
 70
     0
  3

 72
    65
 73
     0
 40
0.0
  0
LTYPE
  5
16
330
5
100
AcDbSymbolTableRecord
100
AcDbLinetypeTableRecord
  2
Continuous
 70
     0
  3
Solid line
 72
    65
 73
     0
 40
0.0
  0
ENDTAB
  0
TABLE
  2
LAYER
  5
2
330
0
100
AcDbSymbolTable
 70
     3
  0
LAYER
  5
10
330
2
100
AcDbSymbolTableRecord
100
AcDbLayerTableRecord
  2
0
 70
     0
 62
     7
  6
Continuous
370
    -3
390
F
347
3E
  0
LAYER
  5
40
330
2
100
AcDbSymbolTableRecord
100
AcDbLayerTableRecord
  2
layer 1
 70
     0
 62
     7
  6
Continuous
370
    -3
390
F
347
3E
  0
LAYER
  5
A7
330
2
100
AcDbSymbolTableRecord
100
AcDbLayerTableRecord
  2
Master Guides
 70
     0
 62
     7
  6
Continuous
370
    -3
390
F
347
3E
  0
ENDTAB
  0
TABLE
  2
STYLE
  5
3
330
0
100
AcDbSymbolTable
 70
     1
  0
STYLE
  5
11
330
3
100
AcDbSymbolTableRecord
100
AcDbTextStyleTableRecord
  2
Standard
 70
     0
 40
0.0
 41
1.0
 50
0.0
 71
     0
 42
0.2
  3
txt
  4

  0
ENDTAB
  0
TABLE
  2
VIEW
  5
6
330
0
100
AcDbSymbolTable
 70
     0
  0
ENDTAB
  0
TABLE
  2
UCS
  5
7
330
0
100
AcDbSymbolTable
 70
     0
  0
ENDTAB
  0
TABLE
  2
APPID
  5
9
330
0
100
AcDbSymbolTable
 70
     2
  0
APPID
  5
12
330
9
100
AcDbSymbolTableRecord
100
AcDbRegAppTableRecord
  2
ACAD
 70
     0
  0
APPID
  5
3F
330
9
100
AcDbSymbolTableRecord
100
AcDbRegAppTableRecord
  2
ODA
 70
     0
  0
ENDTAB
  0
TABLE
  2
DIMSTYLE
  5
A
330
0
100
AcDbSymbolTable
 70
     1
100
AcDbDimStyleTable
  0
DIMSTYLE
105
27
330
A
100
AcDbSymbolTableRecord
100
AcDbDimStyleTableRecord
  2
Standard
 70
     0
178
     0
340
11
  0
ENDTAB
  0
TABLE
  2
BLOCK_RECORD
  5
1
330
0
100
AcDbSymbolTable
 70
     1
  0
BLOCK_RECORD
  5
1F
330
1
100
AcDbSymbolTableRecord
100
AcDbBlockTableRecord
  2
*Model_Space
340
22
 70
     0
280
     1
281
     0
  0
BLOCK_RECORD
  5
1B
330
1
100
AcDbSymbolTableRecord
100
AcDbBlockTableRecord
  2
*Paper_Space
340
1E
 70
     0
280
     1
281
     0
  0
BLOCK_RECORD
  5
23
330
1
100
AcDbSymbolTableRecord
100
AcDbBlockTableRecord
  2
*Paper_Space0
340
26
 70
     0
280
     1
281
     0
  0
ENDTAB
  0
ENDSEC
  0
SECTION
  2
BLOCKS
  0
BLOCK
  5
20
330
1F
100
AcDbEntity
  8
0
100
AcDbBlockBegin
  2
*Model_Space
 70
     0
 10
0.0
 20
0.0
 30
0.0
  3
*Model_Space
  1

  0
ENDBLK
  5
21
330
1F
100
AcDbEntity
  8
0
100
AcDbBlockEnd
  0
BLOCK
  5
1C
330
1B
100
AcDbEntity
 67
     1
  8
0
100
AcDbBlockBegin
  2
*Paper_Space
 70
     0
 10
0.0
 20
0.0
 30
0.0
  3
*Paper_Space
  1

  0
ENDBLK
  5
1D
330
1B
100
AcDbEntity
 67
     1
  8
0
100
AcDbBlockEnd
  0
BLOCK
  5
24
330
23
100
AcDbEntity
  8
0
100
AcDbBlockBegin
  2
*Paper_Space0
 70
     0
 10
0.0
 20
0.0
 30
0.0
  3
*Paper_Space0
  1

  0
ENDBLK
  5
25
330
23
100
AcDbEntity
  8
0
100
AcDbBlockEnd
  0
ENDSEC
  0
SECTION
  2
ENTITIES
  0
SPLINE
  5
41
330
1F
100
AcDbEntity
  8
layer 1
 62
   250
100
AcDbSpline
210
0.0
220
0.0
230
1.0
 70
    11
 71
     3
 72
    84
 73
    80
 74
     0
 42
0.0000000001
 43
0.0000000001
 12
1.0
 22
0.0
 32
0.0
 13
1.0
 23
0.0
 33
0.0
 40
0.0
 40
0.0
 40
0.0
 40
0.0
 40
0.0476190476190476
 40
0.0476190476190476
 40
0.0476190476190476
 40
0.0476190476190476
 40
0.0952380952380952
 40
0.0952380952380952
 40
0.0952380952380952
 40
0.0952380952380952
 40
0.1428571428571428
 40
0.1428571428571428
 40
0.1428571428571428
 40
0.1428571428571428
 40
0.1904761904761905
 40
0.1904761904761905
 40
0.1904761904761905
 40
0.1904761904761905
 40
0.2380952380952381
 40
0.2380952380952381
 40
0.2380952380952381
 40
0.2380952380952381
 40
0.2857142857142857
 40
0.2857142857142857
 40
0.2857142857142857
 40
0.2857142857142857
 40
0.3333333333333333
 40
0.3333333333333333
 40
0.3333333333333333
 40
0.3333333333333333
 40
0.3809523809523809
 40
0.3809523809523809
 40
0.3809523809523809
 40
0.3809523809523809
 40
0.4285714285714285
 40
0.4285714285714285
 40
0.4285714285714285
 40
0.4285714285714285
 40
0.4761904761904762
 40
0.4761904761904762
 40
0.4761904761904762
 40
0.4761904761904762
 40
0.5238095238095238
 40
0.5238095238095238
 40
0.5238095238095238
 40
0.5238095238095238
 40
0.5714285714285714
 40
0.5714285714285714
 40
0.5714285714285714
 40
0.5714285714285714
 40
0.6190476190476191
 40
0.6190476190476191
 40
0.6190476190476191
 40
0.6190476190476191
 40
0.6666666666666666
 40
0.6666666666666666
 40
0.6666666666666666
 40
0.6666666666666666
 40
0.7142857142857143
 40
0.7142857142857143
 40
0.7142857142857143
 40
0.7142857142857143
 40
0.7619047619047619
 40
0.7619047619047619
 40
0.7619047619047619
 40
0.7619047619047619
 40
0.8095238095238095
 40
0.8095238095238095
 40
0.8095238095238095
 40
0.8095238095238095
 40
0.8571428571428571
 40
0.8571428571428571
 40
0.8571428571428571
 40
0.8571428571428571
 40
0.9047619047619048
 40
0.9047619047619048
 40
0.9047619047619048
 40
0.9047619047619048
 40
1.0
 40
1.0
 40
1.0
 40
1.0
 10
-153.6203
 20
92.985
 30
0.0
 10
-152.9167
 20
91.0259
 30
0.0
 10
-155.8262
 20
91.2192
 30
0.0
 10
-154.8855
 20
93.4449
 30
0.0
 10
-154.8855
 20
93.4449
 30
0.0
 10
-153.6682
 20
96.3234
 30
0.0
 10
-145.0702
 20
96.2125
 30
0.0
 10
-145.3418
 20
92.6398
 30
0.0
 10
-145.3418
 20
92.6398
 30
0.0
 10
-145.2553
 20
91.1214
 30
0.0
 10
-147.1985
 20
91.2417
 30
0.0
 10
-146.8796
 20
92.7839
 30
0.0
 10
-146.8796
 20
92.7839
 30
0.0
 10
-149.4611
 20
91.9228
 30
0.0
 10
-147.2533
 20
89.2384
 30
0.0
 10
-144.9825
 20
89.7845
 30
0.0
 10
-144.9825
 20
89.7845
 30
0.0
 10
-145.1873
 20
86.2747
 30
0.0
 10
-141.7681
 20
86.2346
 30
0.0
 10
-142.1221
 20
87.9256
 30
0.0
 10
-142.1221
 20
87.9256
 30
0.0
 10
-143.6874
 20
87.6148
 30
0.0
 10
-143.5352
 20
89.9304
 30
0.0
 10
-141.432
 20
89.5354
 30
0.0
 10
-141.432
 20
89.5354
 30
0.0
 10
-137.8229
 20
88.8575
 30
0.0
 10
-138.5907
 20
79.2495
 30
0.0
 10
-142.1221
 20
80.0007
 30
0.0
 10
-142.1221
 20
80.0007
 30
0.0
 10
-143.8945
 20
80.3779
 30
0.0
 10
-143.0559
 20
81.7785
 30
0.0
 10
-141.8918
 20
81.8311
 30
0.0
 10
-141.8918
 20
81.8311
 30
0.0
 10
-143.7304
 20
84.0437
 30
0.0
 10
-145.4232
 20
81.0498
 30
0.0
 10
-145.0686
 20
79.7614
 30
0.0
 10
-145.0686
 20
79.7614
 30
0.0
 10
-149.1385
 20
79.6314
 30
0.0
 10
-148.0627
 20
76.8196
 30
0.0
 10
-147.1815
 20
76.7717
 30
0.0
 10
-147.1815
 20
76.7717
 30
0.0
 10
-146.2505
 20
79.6239
 30
0.0
 10
-143.8879
 20
76.4023
 30
0.0
 10
-146.6064
 20
74.7016
 30
0.0
 10
-146.6064
 20
74.7016
 30
0.0
 10
-148.7494
 20
73.3618
 30
0.0
 10
-154.7236
 20
73.6171
 30
0.0
 10
-154.9911
 20
76.4888
 30
0.0
 10
-154.9911
 20
76.4888
 30
0.0
 10
-155.1496
 20
78.1998
 30
0.0
 10
-153.3672
 20
78.1751
 30
0.0
 10
-153.3907
 20
76.8866
 30
0.0
 10
-153.3907
 20
76.8866
 30
0.0
 10
-151.4654
 20
76.7569
 30
0.0
 10
-152.1555
 20
80.2933
 30
0.0
 10
-155.3457
 20
79.6461
 30
0.0
 10
-155.3457
 20
79.6461
 30
0.0
 10
-154.8483
 20
82.3709
 30
0.0
 10
-157.4154
 20
83.6176
 30
0.0
 10
-158.5654
 20
81.9028
 30
0.0
 10
-158.5654
 20
81.9028
 30
0.0
 10
-156.1323
 20
81.2948
 30
0.0
 10
-157.3644
 20
78.9933
 30
0.0
 10
-159.5475
 20
80.4177
 30
0.0
 10
-159.5475
 20
80.4177
 30
0.0
 10
-161.8966
 20
81.9508
 30
0.0
 10
-161.9893
 20
88.1596
 30
0.0
 10
-159.1402
 20
89.4201
 30
0.0
 10
-159.1402
 20
89.4201
 30
0.0
 10
-157.1623
 20
90.296
 30
0.0
 10
-156.3344
 20
87.8755
 30
0.0
 10
-158.5222
 20
87.9447
 30
0.0
 10
-158.5222
 20
87.9447
 30
0.0
 10
-157.0226
 20
85.433
 30
0.0
 10
-154.4307
 20
88.1508
 30
0.0
 10
-155.4607
 20
89.9953
 30
0.0
 10
-155.4607
 20
89.9953
 30
0.0
 10
-152.9305
 20
89.1908
 30
0.0
 10
-150.655
 20
91.7921
 30
0.0
 10
-153.6203
 20
92.985
 30
0.0
  0
SPLINE
  5
42
330
1F
100
AcDbEntity
  8
layer 1
 62
   250
100
AcDbSpline
210
0.0
220
0.0
230
1.0
 70
    11
 71
     3
 72
    36
 73
    32
 74
     0
 42
0.0000000001
 43
0.0000000001
 12
1.0
 22
0.0
 32
0.0
 13
1.0
 23
0.0
 33
0.0
 40
0.0
 40
0.0
 40
0.0
 40
0.0
 40
0.1111111111111111
 40
0.1111111111111111
 40
0.1111111111111111
 40
0.1111111111111111
 40
0.2222222222222222
 40
0.2222222222222222
 40
0.2222222222222222
 40
0.2222222222222222
 40
0.3333333333333333
 40
0.3333333333333333
 40
0.3333333333333333
 40
0.3333333333333333
 40
0.4444444444444444
 40
0.4444444444444444
 40
0.4444444444444444
 40
0.4444444444444444
 40
0.5555555555555556
 40
0.5555555555555556
 40
0.5555555555555556
 40
0.5555555555555556
 40
0.6666666666666666
 40
0.6666666666666666
 40
0.6666666666666666
 40
0.6666666666666666
 40
0.7777777777777778
 40
0.7777777777777778
 40
0.7777777777777778
 40
0.7777777777777778
 40
1.0
 40
1.0
 40
1.0
 40
1.0
 10
-137.0623
 20
109.7732
 30
0.0
 10
-136.947
 20
106.209
 30
0.0
 10
-134.4178
 20
102.5288
 30
0.0
 10
-130.7382
 20
103.9087
 30
0.0
 10
-130.7382
 20
103.9087
 30
0.0
 10
-131.4277
 20
101.4947
 30
0.0
 10
-129.8182
 20
97.6993
 30
0.0
 10
-124.9887
 20
97.6993
 30
0.0
 10
-124.9887
 20
97.6993
 30
0.0
 10
-126.3219
 20
97.1705
 30
0.0
 10
-132.1178
 20
96.2047
 30
0.0
 10
-130.393
 20
91.4902
 30
0.0
 10
-130.393
 20
91.4902
 30
0.0
 10
-133.1603
 20
91.6089
 30
0.0
 10
-136.3725
 20
91.2602
 30
0.0
 10
-137.0623
 20
86.0855
 30
0.0
 10
-137.0623
 20
86.0855
 30
0.0
 10
-138.025
 20
90.2966
 30
0.0
 10
-140.0521
 20
92.18
 30
0.0
 10
-143.5017
 20
91.4902
 30
0.0
 10
-143.5017
 20
91.4902
 30
0.0
 10
-143.2717
 20
92.6401
 30
0.0
 10
-141.8918
 20
96.2047
 30
0.0
 10
-149.2512
 20
97.8146
 30
0.0
 10
-149.2512
 20
97.8146
 30
0.0
 10
-144.0765
 20
97.9295
 30
0.0
 10
-142.6969
 20
101.2642
 30
0.0
 10
-143.3867
 20
103.7937
 30
0.0
 10
-143.3867
 20
103.7937
 30
0.0
 10
-140.2817
 20
103.2189
 30
0.0
 10
-137.4075
 20
104.5988
 30
0.0
 10
-137.0623
 20
109.7732
 30
0.0
  0
SPLINE
  5
43
330
1F
100
AcDbEntity
  8
layer 1
 62
   250
100
AcDbSpline
210
0.0
220
0.0
230
1.0
 70
    11
 71
     3
 72
    36
 73
    32
 74
     0
 42
0.0000000001
 43
0.0000000001
 12
1.0
 22
0.0
 32
0.0
 13
1.0
 23
0.0
 33
0.0
 40
0.0
 40
0.0
 40
0.0
 40
0.0
 40
0.1111111111111111
 40
0.1111111111111111
 40
0.1111111111111111
 40
0.1111111111111111
 40
0.2222222222222222
 40
0.2222222222222222
 40
0.2222222222222222
 40
0.2222222222222222
 40
0.3333333333333333
 40
0.3333333333333333
 40
0.3333333333333333
 40
0.3333333333333333
 40
0.4444444444444444
 40
0.4444444444444444
 40
0.4444444444444444
 40
0.4444444444444444
 40
0.5555555555555556
 40
0.5555555555555556
 40
0.5555555555555556
 40
0.5555555555555556
 40
0.6666666666666666
 40
0.6666666666666666
 40
0.6666666666666666
 40
0.6666666666666666
 40
0.7777777777777778
 40
0.7777777777777778
 40
0.7777777777777778
 40
0.7777777777777778
 40
1.0
 40
1.0
 40
1.0
 40
1.0
 10
-163.2649
 20
109.8791
 30
0.0
 10
-163.1499
 20
106.3145
 30
0.0
 10
-160.6207
 20
102.6347
 30
0.0
 10
-156.9408
 20
104.0146
 30
0.0
 10
-156.9408
 20
104.0146
 30
0.0
 10
-157.6306
 20
101.6003
 30
0.0
 10
-156.0211
 20
97.8052
 30
0.0
 10
-151.1916
 20
97.8052
 30
0.0
 10
-151.1916
 20
97.8052
 30
0.0
 10
-152.5245
 20
97.2764
 30
0.0
 10
-158.3207
 20
96.3103
 30
0.0
 10
-156.5959
 20
91.5957
 30
0.0
 10
-156.5959
 20
91.5957
 30
0.0
 10
-159.3629
 20
91.7144
 30
0.0
 10
-162.5754
 20
91.3658
 30
0.0
 10
-163.2652
 20
86.1914
 30
0.0
 10
-163.2652
 20
86.1914
 30
0.0
 10
-164.2279
 20
90.4022
 30
0.0
 10
-166.255
 20
92.2855
 30
0.0
 10
-169.7046
 20
91.5957
 30
0.0
 10
-169.7046
 20
91.5957
 30
0.0
 10
-169.4743
 20
92.7457
 30
0.0
 10
-168.0947
 20
96.3103
 30
0.0
 10
-175.4542
 20
97.9201
 30
0.0
 10
-175.4542
 20
97.9201
 30
0.0
 10
-170.2794
 20
98.0351
 30
0.0
 10
-168.8998
 20
101.3697
 30
0.0
 10
-169.5896
 20
103.8993
 30
0.0
 10
-169.5896
 20
103.8993
 30
0.0
 10
-166.4849
 20
103.3248
 30
0.0
 10
-163.6104
 20
104.7044
 30
0.0
 10
-163.2649
 20
109.8791
 30
0.0
  0
SPLINE
  5
44
330
1F
100
AcDbEntity
  8
layer 1
 62
   250
100
AcDbSpline
210
0.0
220
0.0
230
1.0
 70
    11
 71
     3
 72
    16
 73
    12
 74
     0
 42
0.0000000001
 43
0.0000000001
 12
1.0
 22
0.0
 32
0.0
 13
1.0
 23
0.0
 33
0.0
 40
0.0
 40
0.0
 40
0.0
 40
0.0
 40
0.25
 40
0.25
 40
0.25
 40
0.25
 40
0.5
 40
0.5
 40
0.5
 40
0.5
 40
1.0
 40
1.0
 40
1.0
 40
1.0
 10
-181.2827
 20
98.9088
 30
0.0
 10
-180.367
 20
98.3007
 30
0.0
 10
-179.1509
 20
97.9107
 30
0.0
 10
-177.6056
 20
97.9107
 30
0.0
 10
-177.6056
 20
97.9107
 30
0.0
 10
-178.2447
 20
97.6573
 30
0.0
 10
-179.9122
 20
97.3033
 30
0.0
 10
-181.283
 20
96.4826
 30
0.0
 10
-181.283
 20
96.4826
 30
0.0
 10
-181.283
 20
96.4826
 30
0.0
 10
-181.2827
 20
98.9088
 30
0.0
 10
-181.2827
 20
98.9088
 30
0.0
  0
SPLINE
  5
45
330
1F
100
AcDbEntity
  8
layer 1
 62
   250
100
AcDbSpline
210
0.0
220
0.0
230
1.0
 70
    11
 71
     3
 72
    36
 73
    32
 74
     0
 42
0.0000000001
 43
0.0000000001
 12
1.0
 22
0.0
 32
0.0
 13
1.0
 23
0.0
 33
0.0
 40
0.0
 40
0.0
 40
0.0
 40
0.0
 40
0.1111111111111111
 40
0.1111111111111111
 40
0.1111111111111111
 40
0.1111111111111111
 40
0.2222222222222222
 40
0.2222222222222222
 40
0.2222222222222222
 40
0.2222222222222222
 40
0.3333333333333333
 40
0.3333333333333333
 40
0.3333333333333333
 40
0.3333333333333333
 40
0.4444444444444444
 40
0.4444444444444444
 40
0.4444444444444444
 40
0.4444444444444444
 40
0.5555555555555556
 40
0.5555555555555556
 40
0.5555555555555556
 40
0.5555555555555556
 40
0.6666666666666666
 40
0.6666666666666666
 40
0.6666666666666666
 40
0.6666666666666666
 40
0.7777777777777778
 40
0.7777777777777778
 40
0.7777777777777778
 40
0.7777777777777778
 40
1.0
 40
1.0
 40
1.0
 40
1.0
 10
-110.5734
 20
109.4973
 30
0.0
 10
-110.4584
 20
105.933
 30
0.0
 10
-107.9292
 20
102.2528
 30
0.0
 10
-104.2496
 20
103.6327
 30
0.0
 10
-104.2496
 20
103.6327
 30
0.0
 10
-104.9391
 20
101.2184
 30
0.0
 10
-103.3296
 20
97.4233
 30
0.0
 10
-98.5
 20
97.4233
 30
0.0
 10
-98.5
 20
97.4233
 30
0.0
 10
-99.833
 20
96.8945
 30
0.0
 10
-105.6295
 20
95.9284
 30
0.0
 10
-103.9047
 20
91.2142
 30
0.0
 10
-103.9047
 20
91.2142
 30
0.0
 10
-106.6714
 20
91.3323
 30
0.0
 10
-109.8839
 20
90.9839
 30
0.0
 10
-110.574
 20
85.8095
 30
0.0
 10
-110.574
 20
85.8095
 30
0.0
 10
-111.5363
 20
90.0207
 30
0.0
 10
-113.5638
 20
91.904
 30
0.0
 10
-117.0134
 20
91.2142
 30
0.0
 10
-117.0134
 20
91.2142
 30
0.0
 10
-116.7828
 20
92.3642
 30
0.0
 10
-115.4035
 20
95.9284
 30
0.0
 10
-122.7626
 20
97.5383
 30
0.0
 10
-122.7626
 20
97.5383
 30
0.0
 10
-117.4823
 20
98.0761
 30
0.0
 10
-116.1695
 20
101.6811
 30
0.0
 10
-116.8984
 20
103.5178
 30
0.0
 10
-116.8984
 20
103.5178
 30
0.0
 10
-113.8742
 20
103.0754
 30
0.0
 10
-111.0245
 20
104.534
 30
0.0
 10
-110.5734
 20
109.4973
 30
0.0
  0
SPLINE
  5
46
330
1F
100
AcDbEntity
  8
layer 1
 62
   250
100
AcDbSpline
210
0.0
220
0.0
230
1.0
 70
    11
 71
     3
 72
    36
 73
    32
 74
     0
 42
0.0000000001
 43
0.0000000001
 12
1.0
 22
0.0
 32
0.0
 13
1.0
 23
0.0
 33
0.0
 40
0.0
 40
0.0
 40
0.0
 40
0.0
 40
0.1111111111111111
 40
0.1111111111111111
 40
0.1111111111111111
 40
0.1111111111111111
 40
0.2222222222222222
 40
0.2222222222222222
 40
0.2222222222222222
 40
0.2222222222222222
 40
0.3333333333333333
 40
0.3333333333333333
 40
0.3333333333333333
 40
0.3333333333333333
 40
0.4444444444444444
 40
0.4444444444444444
 40
0.4444444444444444
 40
0.4444444444444444
 40
0.5555555555555556
 40
0.5555555555555556
 40
0.5555555555555556
 40
0.5555555555555556
 40
0.6666666666666666
 40
0.6666666666666666
 40
0.6666666666666666
 40
0.6666666666666666
 40
0.7777777777777778
 40
0.7777777777777778
 40
0.7777777777777778
 40
0.7777777777777778
 40
1.0
 40
1.0
 40
1.0
 40
1.0
 10
-84.1593
 20
109.3917
 30
0.0
 10
-84.0444
 20
105.8274
 30
0.0
 10
-81.5151
 20
102.1472
 30
0.0
 10
-77.8352
 20
103.5272
 30
0.0
 10
-77.8352
 20
103.5272
 30
0.0
 10
-78.525
 20
101.1122
 30
0.0
 10
-76.9155
 20
97.3177
 30
0.0
 10
-72.086
 20
97.3177
 30
0.0
 10
-72.086
 20
97.3177
 30
0.0
 10
-73.4189
 20
96.7889
 30
0.0
 10
-79.2152
 20
95.8229
 30
0.0
 10
-77.4903
 20
91.1083
 30
0.0
 10
-77.4903
 20
91.1083
 30
0.0
 10
-80.2574
 20
91.2273
 30
0.0
 10
-83.4698
 20
90.8784
 30
0.0
 10
-84.1596
 20
85.7039
 30
0.0
 10
-84.1596
 20
85.7039
 30
0.0
 10
-85.1223
 20
89.9151
 30
0.0
 10
-87.1494
 20
91.7984
 30
0.0
 10
-90.599
 20
91.1083
 30
0.0
 10
-90.599
 20
91.1083
 30
0.0
 10
-90.3688
 20
92.2586
 30
0.0
 10
-88.9892
 20
95.8229
 30
0.0
 10
-96.3486
 20
97.4327
 30
0.0
 10
-96.3486
 20
97.4327
 30
0.0
 10
-91.0683
 20
97.9706
 30
0.0
 10
-89.7554
 20
101.5756
 30
0.0
 10
-90.484
 20
103.4122
 30
0.0
 10
-90.484
 20
103.4122
 30
0.0
 10
-87.4601
 20
102.9696
 30
0.0
 10
-84.6104
 20
104.4284
 30
0.0
 10
-84.1593
 20
109.3917
 30
0.0
  0
SPLINE
  5
47
330
1F
100
AcDbEntity
  8
layer 1
 62
   250
100
AcDbSpline
210
0.0
220
0.0
230
1.0
 70
    11
 71
     3
 72
    16
 73
    12
 74
     0
 42
0.0000000001
 43
0.0000000001
 12
1.0
 22
0.0
 32
0.0
 13
1.0
 23
0.0
 33
0.0
 40
0.0
 40
0.0
 40
0.0
 40
0.0
 40
0.25
 40
0.25
 40
0.25
 40
0.25
 40
0.5
 40
0.5
 40
0.5
 40
0.5
 40
1.0
 40
1.0
 40
1.0
 40
1.0
 10
-65.272
 20
95.2772
 30
0.0
 10
-66.1403
 20
96.1076
 30
0.0
 10
-67.6346
 20
96.8832
 30
0.0
 10
-70.1457
 20
97.4327
 30
0.0
 10
-70.1457
 20
97.4327
 30
0.0
 10
-67.7859
 20
97.6736
 30
0.0
 10
-66.219
 20
98.5266
 30
0.0
 10
-65.272
 20
99.5604
 30
0.0
 10
-65.272
 20
99.5604
 30
0.0
 10
-65.272
 20
99.5604
 30
0.0
 10
-65.272
 20
95.2772
 30
0.0
 10
-65.272
 20
95.2772
 30
0.0
  0
SPLINE
  5
48
330
1F
100
AcDbEntity
  8
layer 1
 62
   250
100
AcDbSpline
210
0.0
220
0.0
230
1.0
 70
    11
 71
     3
 72
    68
 73
    64
 74
     0
 42
0.0000000001
 43
0.0000000001
 12
1.0
 22
0.0
 32
0.0
 13
1.0
 23
0.0
 33
0.0
 40
0.0
 40
0.0
 40
0.0
 40
0.0
 40
0.0588235294117647
 40
0.0588235294117647
 40
0.0588235294117647
 40
0.0588235294117647
 40
0.1176470588235294
 40
0.1176470588235294
 40
0.1176470588235294
 40
0.1176470588235294
 40
0.1764705882352941
 40
0.1764705882352941
 40
0.1764705882352941
 40
0.1764705882352941
 40
0.2352941176470588
 40
0.2352941176470588
 40
0.2352941176470588
 40
0.2352941176470588
 40
0.2941176470588235
 40
0.2941176470588235
 40
0.2941176470588235
 40
0.2941176470588235
 40
0.3529411764705883
 40
0.3529411764705883
 40
0.3529411764705883
 40
0.3529411764705883
 40
0.4117647058823529
 40
0.4117647058823529
 40
0.4117647058823529
 40
0.4117647058823529
 40
0.4705882352941176
 40
0.4705882352941176
 40
0.4705882352941176
 40
0.4705882352941176
 40
0.5294117647058824
 40
0.5294117647058824
 40
0.5294117647058824
 40
0.5294117647058824
 40
0.5882352941176471
 40
0.5882352941176471
 40
0.5882352941176471
 40
0.5882352941176471
 40
0.6470588235294118
 40
0.6470588235294118
 40
0.6470588235294118
 40
0.6470588235294118
 40
0.7058823529411765
 40
0.7058823529411765
 40
0.7058823529411765
 40
0.7058823529411765
 40
0.7647058823529411
 40
0.7647058823529411
 40
0.7647058823529411
 40
0.7647058823529411
 40
0.8235294117647058
 40
0.8235294117647058
 40
0.8235294117647058
 40
0.8235294117647058
 40
0.8823529411764706
 40
0.8823529411764706
 40
0.8823529411764706
 40
0.8823529411764706
 40
1.0
 40
1.0
 40
1.0
 40
1.0
 10
-179.8232
 20
93.302
 30
0.0
 10
-179.1193
 20
91.3429
 30
0.0
 10
-182.0292
 20
91.5362
 30
0.0
 10
-181.0884
 20
93.7619
 30
0.0
 10
-181.0884
 20
93.7619
 30
0.0
 10
-179.8717
 20
96.6405
 30
0.0
 10
-171.2731
 20
96.5293
 30
0.0
 10
-171.5444
 20
92.9568
 30
0.0
 10
-171.5444
 20
92.9568
 30
0.0
 10
-171.4585
 20
91.4385
 30
0.0
 10
-173.4014
 20
91.5588
 30
0.0
 10
-173.0825
 20
93.1009
 30
0.0
 10
-173.0825
 20
93.1009
 30
0.0
 10
-175.6637
 20
92.2392
 30
0.0
 10
-173.4562
 20
89.5555
 30
0.0
 10
-171.1854
 20
90.1015
 30
0.0
 10
-171.1854
 20
90.1015
 30
0.0
 10
-171.3902
 20
86.5917
 30
0.0
 10
-167.9707
 20
86.5516
 30
0.0
 10
-168.3247
 20
88.2423
 30
0.0
 10
-168.3247
 20
88.2423
 30
0.0
 10
-169.89
 20
87.9318
 30
0.0
 10
-169.7381
 20
90.2475
 30
0.0
 10
-167.6349
 20
89.8521
 30
0.0
 10
-167.6349
 20
89.8521
 30
0.0
 10
-164.0264
 20
89.1739
 30
0.0
 10
-164.7936
 20
79.5666
 30
0.0
 10
-168.3247
 20
80.3178
 30
0.0
 10
-168.3247
 20
80.3178
 30
0.0
 10
-170.0971
 20
80.6949
 30
0.0
 10
-169.2588
 20
82.0955
 30
0.0
 10
-168.0947
 20
82.1481
 30
0.0
 10
-168.0947
 20
82.1481
 30
0.0
 10
-169.933
 20
84.3607
 30
0.0
 10
-171.6261
 20
81.3669
 30
0.0
 10
-171.2715
 20
80.0781
 30
0.0
 10
-171.2715
 20
80.0781
 30
0.0
 10
-175.3411
 20
79.9484
 30
0.0
 10
-174.2657
 20
77.1366
 30
0.0
 10
-173.3841
 20
77.0887
 30
0.0
 10
-173.3841
 20
77.0887
 30
0.0
 10
-172.4531
 20
79.9409
 30
0.0
 10
-170.0908
 20
76.7193
 30
0.0
 10
-172.8093
 20
75.0187
 30
0.0
 10
-172.8093
 20
75.0187
 30
0.0
 10
-174.952
 20
73.6782
 30
0.0
 10
-180.9265
 20
73.9341
 30
0.0
 10
-181.1937
 20
76.8058
 30
0.0
 10
-181.1937
 20
76.8058
 30
0.0
 10
-181.3528
 20
78.5168
 30
0.0
 10
-179.5698
 20
78.4921
 30
0.0
 10
-179.5936
 20
77.2036
 30
0.0
 10
-179.5936
 20
77.2036
 30
0.0
 10
-177.7228
 20
77.0777
 30
0.0
 10
-178.3211
 20
80.4124
 30
0.0
 10
-181.283
 20
80.0083
 30
0.0
 10
-181.283
 20
80.0083
 30
0.0
 10
-181.283
 20
80.0083
 30
0.0
 10
-181.2827
 20
90.2171
 30
0.0
 10
-181.2827
 20
90.2171
 30
0.0
 10
-181.2827
 20
90.2171
 30
0.0
 10
-178.9169
 20
89.7669
 30
0.0
 10
-177.0073
 20
92.1693
 30
0.0
 10
-179.8232
 20
93.302
 30
0.0
  0
SPLINE
  5
49
330
1F
100
AcDbEntity
  8
layer 1
 62
   250
100
AcDbSpline
210
0.0
220
0.0
230
1.0
 70
    11
 71
     3
 72
    84
 73
    80
 74
     0
 42
0.0000000001
 43
0.0000000001
 12
1.0
 22
0.0
 32
0.0
 13
1.0
 23
0.0
 33
0.0
 40
0.0
 40
0.0
 40
0.0
 40
0.0
 40
0.0476190476190476
 40
0.0476190476190476
 40
0.0476190476190476
 40
0.0476190476190476
 40
0.0952380952380952
 40
0.0952380952380952
 40
0.0952380952380952
 40
0.0952380952380952
 40
0.1428571428571428
 40
0.1428571428571428
 40
0.1428571428571428
 40
0.1428571428571428
 40
0.1904761904761905
 40
0.1904761904761905
 40
0.1904761904761905
 40
0.1904761904761905
 40
0.2380952380952381
 40
0.2380952380952381
 40
0.2380952380952381
 40
0.2380952380952381
 40
0.2857142857142857
 40
0.2857142857142857
 40
0.2857142857142857
 40
0.2857142857142857
 40
0.3333333333333333
 40
0.3333333333333333
 40
0.3333333333333333
 40
0.3333333333333333
 40
0.3809523809523809
 40
0.3809523809523809
 40
0.3809523809523809
 40
0.3809523809523809
 40
0.4285714285714285
 40
0.4285714285714285
 40
0.4285714285714285
 40
0.4285714285714285
 40
0.4761904761904762
 40
0.4761904761904762
 40
0.4761904761904762
 40
0.4761904761904762
 40
0.5238095238095238
 40
0.5238095238095238
 40
0.5238095238095238
 40
0.5238095238095238
 40
0.5714285714285714
 40
0.5714285714285714
 40
0.5714285714285714
 40
0.5714285714285714
 40
0.6190476190476191
 40
0.6190476190476191
 40
0.6190476190476191
 40
0.6190476190476191
 40
0.6666666666666666
 40
0.6666666666666666
 40
0.6666666666666666
 40
0.6666666666666666
 40
0.7142857142857143
 40
0.7142857142857143
 40
0.7142857142857143
 40
0.7142857142857143
 40
0.7619047619047619
 40
0.7619047619047619
 40
0.7619047619047619
 40
0.7619047619047619
 40
0.8095238095238095
 40
0.8095238095238095
 40
0.8095238095238095
 40
0.8095238095238095
 40
0.8571428571428571
 40
0.8571428571428571
 40
0.8571428571428571
 40
0.8571428571428571
 40
0.9047619047619048
 40
0.9047619047619048
 40
0.9047619047619048
 40
0.9047619047619048
 40
1.0
 40
1.0
 40
1.0
 40
1.0
 10
-127.3488
 20
92.8378
 30
0.0
 10
-126.6442
 20
90.8784
 30
0.0
 10
-129.5541
 20
91.072
 30
0.0
 10
-128.6134
 20
93.2977
 30
0.0
 10
-128.6134
 20
93.2977
 30
0.0
 10
-127.3967
 20
96.1759
 30
0.0
 10
-118.798
 20
96.0653
 30
0.0
 10
-119.0696
 20
92.4929
 30
0.0
 10
-119.0696
 20
92.4929
 30
0.0
 10
-118.9835
 20
90.9742
 30
0.0
 10
-120.9266
 20
91.0945
 30
0.0
 10
-120.6074
 20
92.6367
 30
0.0
 10
-120.6074
 20
92.6367
 30
0.0
 10
-123.1887
 20
91.7755
 30
0.0
 10
-120.9811
 20
89.0912
 30
0.0
 10
-118.7103
 20
89.6372
 30
0.0
 10
-118.7103
 20
89.6372
 30
0.0
 10
-118.9152
 20
86.1275
 30
0.0
 10
-115.4959
 20
86.0874
 30
0.0
 10
-115.8499
 20
87.7783
 30
0.0
 10
-115.8499
 20
87.7783
 30
0.0
 10
-117.415
 20
87.4676
 30
0.0
 10
-117.263
 20
89.7832
 30
0.0
 10
-115.1598
 20
89.3882
 30
0.0
 10
-115.1598
 20
89.3882
 30
0.0
 10
-111.5514
 20
88.7103
 30
0.0
 10
-112.3186
 20
79.1023
 30
0.0
 10
-115.8499
 20
79.8538
 30
0.0
 10
-115.8499
 20
79.8538
 30
0.0
 10
-117.622
 20
80.2313
 30
0.0
 10
-116.7838
 20
81.6312
 30
0.0
 10
-115.62
 20
81.6839
 30
0.0
 10
-115.62
 20
81.6839
 30
0.0
 10
-117.4579
 20
83.8971
 30
0.0
 10
-119.1511
 20
80.9026
 30
0.0
 10
-118.7965
 20
79.6142
 30
0.0
 10
-118.7965
 20
79.6142
 30
0.0
 10
-122.8666
 20
79.4848
 30
0.0
 10
-121.7906
 20
76.6727
 30
0.0
 10
-120.9094
 20
76.6244
 30
0.0
 10
-120.9094
 20
76.6244
 30
0.0
 10
-119.9787
 20
79.4773
 30
0.0
 10
-117.6158
 20
76.2551
 30
0.0
 10
-120.3342
 20
74.5547
 30
0.0
 10
-120.3342
 20
74.5547
 30
0.0
 10
-122.4769
 20
73.2143
 30
0.0
 10
-128.4514
 20
73.4699
 30
0.0
 10
-128.719
 20
76.3419
 30
0.0
 10
-128.719
 20
76.3419
 30
0.0
 10
-128.8778
 20
78.0526
 30
0.0
 10
-127.095
 20
78.0281
 30
0.0
 10
-127.1188
 20
76.7394
 30
0.0
 10
-127.1188
 20
76.7394
 30
0.0
 10
-125.1935
 20
76.6097
 30
0.0
 10
-125.8833
 20
80.1461
 30
0.0
 10
-129.0736
 20
79.4992
 30
0.0
 10
-129.0736
 20
79.4992
 30
0.0
 10
-128.5758
 20
82.2236
 30
0.0
 10
-131.1433
 20
83.4704
 30
0.0
 10
-132.2932
 20
81.7559
 30
0.0
 10
-132.2932
 20
81.7559
 30
0.0
 10
-129.8608
 20
81.1476
 30
0.0
 10
-131.0925
 20
78.8461
 30
0.0
 10
-133.2753
 20
80.2704
 30
0.0
 10
-133.2753
 20
80.2704
 30
0.0
 10
-135.6251
 20
81.8032
 30
0.0
 10
-135.7172
 20
88.0123
 30
0.0
 10
-132.8681
 20
89.2732
 30
0.0
 10
-132.8681
 20
89.2732
 30
0.0
 10
-130.8902
 20
90.1488
 30
0.0
 10
-130.0622
 20
87.7282
 30
0.0
 10
-132.25
 20
87.7975
 30
0.0
 10
-132.25
 20
87.7975
 30
0.0
 10
-130.7501
 20
85.2857
 30
0.0
 10
-128.1588
 20
88.0036
 30
0.0
 10
-129.1885
 20
89.848
 30
0.0
 10
-129.1885
 20
89.848
 30
0.0
 10
-126.6586
 20
89.0436
 30
0.0
 10
-124.3828
 20
91.6449
 30
0.0
 10
-127.3488
 20
92.8378
 30
0.0
  0
SPLINE
  5
4A
330
1F
100
AcDbEntity
  8
layer 1
 62
   250
100
AcDbSpline
210
0.0
220
0.0
230
1.0
 70
    11
 71
     3
 72
    84
 73
    80
 74
     0
 42
0.0000000001
 43
0.0000000001
 12
1.0
 22
0.0
 32
0.0
 13
1.0
 23
0.0
 33
0.0
 40
0.0
 40
0.0
 40
0.0
 40
0.0
 40
0.0476190476190476
 40
0.0476190476190476
 40
0.0476190476190476
 40
0.0476190476190476
 40
0.0952380952380952
 40
0.0952380952380952
 40
0.0952380952380952
 40
0.0952380952380952
 40
0.1428571428571428
 40
0.1428571428571428
 40
0.1428571428571428
 40
0.1428571428571428
 40
0.1904761904761905
 40
0.1904761904761905
 40
0.1904761904761905
 40
0.1904761904761905
 40
0.2380952380952381
 40
0.2380952380952381
 40
0.2380952380952381
 40
0.2380952380952381
 40
0.2857142857142857
 40
0.2857142857142857
 40
0.2857142857142857
 40
0.2857142857142857
 40
0.3333333333333333
 40
0.3333333333333333
 40
0.3333333333333333
 40
0.3333333333333333
 40
0.3809523809523809
 40
0.3809523809523809
 40
0.3809523809523809
 40
0.3809523809523809
 40
0.4285714285714285
 40
0.4285714285714285
 40
0.4285714285714285
 40
0.4285714285714285
 40
0.4761904761904762
 40
0.4761904761904762
 40
0.4761904761904762
 40
0.4761904761904762
 40
0.5238095238095238
 40
0.5238095238095238
 40
0.5238095238095238
 40
0.5238095238095238
 40
0.5714285714285714
 40
0.5714285714285714
 40
0.5714285714285714
 40
0.5714285714285714
 40
0.6190476190476191
 40
0.6190476190476191
 40
0.6190476190476191
 40
0.6190476190476191
 40
0.6666666666666666
 40
0.6666666666666666
 40
0.6666666666666666
 40
0.6666666666666666
 40
0.7142857142857143
 40
0.7142857142857143
 40
0.7142857142857143
 40
0.7142857142857143
 40
0.7619047619047619
 40
0.7619047619047619
 40
0.7619047619047619
 40
0.7619047619047619
 40
0.8095238095238095
 40
0.8095238095238095
 40
0.8095238095238095
 40
0.8095238095238095
 40
0.8571428571428571
 40
0.8571428571428571
 40
0.8571428571428571
 40
0.8571428571428571
 40
0.9047619047619048
 40
0.9047619047619048
 40
0.9047619047619048
 40
0.9047619047619048
 40
1.0
 40
1.0
 40
1.0
 40
1.0
 10
-100.9341
 20
92.7322
 30
0.0
 10
-100.2302
 20
90.7728
 30
0.0
 10
-103.14
 20
90.9664
 30
0.0
 10
-102.1993
 20
93.1921
 30
0.0
 10
-102.1993
 20
93.1921
 30
0.0
 10
-100.9823
 20
96.071
 30
0.0
 10
-92.3837
 20
95.9594
 30
0.0
 10
-92.6552
 20
92.387
 30
0.0
 10
-92.6552
 20
92.387
 30
0.0
 10
-92.5688
 20
90.8686
 30
0.0
 10
-94.5122
 20
90.9889
 30
0.0
 10
-94.1934
 20
92.5311
 30
0.0
 10
-94.1934
 20
92.5311
 30
0.0
 10
-96.7746
 20
91.6697
 30
0.0
 10
-94.5671
 20
88.9856
 30
0.0
 10
-92.2963
 20
89.5317
 30
0.0
 10
-92.2963
 20
89.5317
 30
0.0
 10
-92.5011
 20
86.0216
 30
0.0
 10
-89.0816
 20
85.9818
 30
0.0
 10
-89.4356
 20
87.6725
 30
0.0
 10
-89.4356
 20
87.6725
 30
0.0
 10
-91.0009
 20
87.362
 30
0.0
 10
-90.849
 20
89.6776
 30
0.0
 10
-88.7458
 20
89.2823
 30
0.0
 10
-88.7458
 20
89.2823
 30
0.0
 10
-85.1367
 20
88.6047
 30
0.0
 10
-85.9045
 20
78.9967
 30
0.0
 10
-89.4356
 20
79.7479
 30
0.0
 10
-89.4356
 20
79.7479
 30
0.0
 10
-91.208
 20
80.1257
 30
0.0
 10
-90.3697
 20
81.5254
 30
0.0
 10
-89.2056
 20
81.5783
 30
0.0
 10
-89.2056
 20
81.5783
 30
0.0
 10
-91.0438
 20
83.7909
 30
0.0
 10
-92.737
 20
80.797
 30
0.0
 10
-92.3824
 20
79.5083
 30
0.0
 10
-92.3824
 20
79.5083
 30
0.0
 10
-96.452
 20
79.3789
 30
0.0
 10
-95.3765
 20
76.5668
 30
0.0
 10
-94.495
 20
76.5189
 30
0.0
 10
-94.495
 20
76.5189
 30
0.0
 10
-93.564
 20
79.3717
 30
0.0
 10
-91.2017
 20
76.1495
 30
0.0
 10
-93.9202
 20
74.4488
 30
0.0
 10
-93.9202
 20
74.4488
 30
0.0
 10
-96.0629
 20
73.1081
 30
0.0
 10
-102.0374
 20
73.3643
 30
0.0
 10
-102.3046
 20
76.236
 30
0.0
 10
-102.3046
 20
76.236
 30
0.0
 10
-102.4637
 20
77.9467
 30
0.0
 10
-100.6806
 20
77.9223
 30
0.0
 10
-100.7045
 20
76.6338
 30
0.0
 10
-100.7045
 20
76.6338
 30
0.0
 10
-98.7788
 20
76.5041
 30
0.0
 10
-99.4693
 20
80.0402
 30
0.0
 10
-102.6592
 20
79.3933
 30
0.0
 10
-102.6592
 20
79.3933
 30
0.0
 10
-102.1617
 20
82.1187
 30
0.0
 10
-104.7292
 20
83.3648
 30
0.0
 10
-105.8789
 20
81.65
 30
0.0
 10
-105.8789
 20
81.65
 30
0.0
 10
-103.4467
 20
81.042
 30
0.0
 10
-104.6782
 20
78.7405
 30
0.0
 10
-106.8613
 20
80.1649
 30
0.0
 10
-106.8613
 20
80.1649
 30
0.0
 10
-109.211
 20
81.6977
 30
0.0
 10
-109.3031
 20
87.9068
 30
0.0
 10
-106.454
 20
89.1673
 30
0.0
 10
-106.454
 20
89.1673
 30
0.0
 10
-104.4761
 20
90.0429
 30
0.0
 10
-103.6482
 20
87.6227
 30
0.0
 10
-105.836
 20
87.6919
 30
0.0
 10
-105.836
 20
87.6919
 30
0.0
 10
-104.3361
 20
85.1802
 30
0.0
 10
-101.7445
 20
87.898
 30
0.0
 10
-102.7742
 20
89.7425
 30
0.0
 10
-102.7742
 20
89.7425
 30
0.0
 10
-100.2446
 20
88.9377
 30
0.0
 10
-97.9684
 20
91.539
 30
0.0
 10
-100.9341
 20
92.7322
 30
0.0
  0
SPLINE
  5
4B
330
1F
100
AcDbEntity
  8
layer 1
 62
   250
100
AcDbSpline
210
0.0
220
0.0
230
1.0
 70
    11
 71
     3
 72
    76
 73
    72
 74
     0
 42
0.0000000001
 43
0.0000000001
 12
1.0
 22
0.0
 32
0.0
 13
1.0
 23
0.0
 33
0.0
 40
0.0
 40
0.0
 40
0.0
 40
0.0
 40
0.0526315789473684
 40
0.0526315789473684
 40
0.0526315789473684
 40
0.0526315789473684
 40
0.1052631578947368
 40
0.1052631578947368
 40
0.1052631578947368
 40
0.1052631578947368
 40
0.1578947368421053
 40
0.1578947368421053
 40
0.1578947368421053
 40
0.1578947368421053
 40
0.2105263157894737
 40
0.2105263157894737
 40
0.2105263157894737
 40
0.2105263157894737
 40
0.2631578947368421
 40
0.2631578947368421
 40
0.2631578947368421
 40
0.2631578947368421
 40
0.3157894736842105
 40
0.3157894736842105
 40
0.3157894736842105
 40
0.3157894736842105
 40
0.3684210526315789
 40
0.3684210526315789
 40
0.3684210526315789
 40
0.3684210526315789
 40
0.4210526315789473
 40
0.4210526315789473
 40
0.4210526315789473
 40
0.4210526315789473
 40
0.4736842105263158
 40
0.4736842105263158
 40
0.4736842105263158
 40
0.4736842105263158
 40
0.5263157894736842
 40
0.5263157894736842
 40
0.5263157894736842
 40
0.5263157894736842
 40
0.5789473684210527
 40
0.5789473684210527
 40
0.5789473684210527
 40
0.5789473684210527
 40
0.631578947368421
 40
0.631578947368421
 40
0.631578947368421
 40
0.631578947368421
 40
0.6842105263157895
 40
0.6842105263157895
 40
0.6842105263157895
 40
0.6842105263157895
 40
0.7368421052631579
 40
0.7368421052631579
 40
0.7368421052631579
 40
0.7368421052631579
 40
0.7894736842105263
 40
0.7894736842105263
 40
0.7894736842105263
 40
0.7894736842105263
 40
0.8421052631578947
 40
0.8421052631578947
 40
0.8421052631578947
 40
0.8421052631578947
 40
0.8947368421052632
 40
0.8947368421052632
 40
0.8947368421052632
 40
0.8947368421052632
 40
1.0
 40
1.0
 40
1.0
 40
1.0
 10
-74.6256
 20
92.6263
 30
0.0
 10
-73.922
 20
90.6678
 30
0.0
 10
-76.8316
 20
90.8605
 30
0.0
 10
-75.8908
 20
93.0862
 30
0.0
 10
-75.8908
 20
93.0862
 30
0.0
 10
-74.6741
 20
95.9654
 30
0.0
 10
-66.0752
 20
95.8539
 30
0.0
 10
-66.3468
 20
92.2814
 30
0.0
 10
-66.3468
 20
92.2814
 30
0.0
 10
-66.2603
 20
90.7628
 30
0.0
 10
-68.2038
 20
90.8834
 30
0.0
 10
-67.8846
 20
92.4252
 30
0.0
 10
-67.8846
 20
92.4252
 30
0.0
 10
-70.4664
 20
91.5641
 30
0.0
 10
-68.2586
 20
88.8801
 30
0.0
 10
-65.9878
 20
89.4261
 30
0.0
 10
-65.9878
 20
89.4261
 30
0.0
 10
-66.0551
 20
88.267
 30
0.0
 10
-65.7281
 20
87.4867
 30
0.0
 10
-65.272
 20
87.0221
 30
0.0
 10
-65.272
 20
87.0221
 30
0.0
 10
-65.272
 20
87.0221
 30
0.0
 10
-65.272
 20
81.7885
 30
0.0
 10
-65.272
 20
81.7885
 30
0.0
 10
-65.272
 20
81.7885
 30
0.0
 10
-65.9029
 20
81.1614
 30
0.0
 10
-66.2547
 20
80.0599
 30
0.0
 10
-66.0739
 20
79.4027
 30
0.0
 10
-66.0739
 20
79.4027
 30
0.0
 10
-70.1438
 20
79.2733
 30
0.0
 10
-69.068
 20
76.4612
 30
0.0
 10
-68.1865
 20
76.413
 30
0.0
 10
-68.1865
 20
76.413
 30
0.0
 10
-67.2555
 20
79.2658
 30
0.0
 10
-64.8932
 20
76.0436
 30
0.0
 10
-67.6117
 20
74.3433
 30
0.0
 10
-67.6117
 20
74.3433
 30
0.0
 10
-69.7544
 20
73.0031
 30
0.0
 10
-75.7289
 20
73.2588
 30
0.0
 10
-75.9961
 20
76.1304
 30
0.0
 10
-75.9961
 20
76.1304
 30
0.0
 10
-76.1555
 20
77.8411
 30
0.0
 10
-74.3722
 20
77.8167
 30
0.0
 10
-74.396
 20
76.5279
 30
0.0
 10
-74.396
 20
76.5279
 30
0.0
 10
-72.4704
 20
76.3982
 30
0.0
 10
-73.1605
 20
79.9346
 30
0.0
 10
-76.3507
 20
79.2878
 30
0.0
 10
-76.3507
 20
79.2878
 30
0.0
 10
-75.8533
 20
82.0122
 30
0.0
 10
-78.4204
 20
83.2589
 30
0.0
 10
-79.5704
 20
81.5445
 30
0.0
 10
-79.5704
 20
81.5445
 30
0.0
 10
-77.1382
 20
80.9361
 30
0.0
 10
-78.3697
 20
78.6349
 30
0.0
 10
-80.5528
 20
80.0593
 30
0.0
 10
-80.5528
 20
80.0593
 30
0.0
 10
-82.9025
 20
81.5927
 30
0.0
 10
-82.9946
 20
87.8012
 30
0.0
 10
-80.1455
 20
89.0618
 30
0.0
 10
-80.1455
 20
89.0618
 30
0.0
 10
-78.167
 20
89.9367
 30
0.0
 10
-77.3397
 20
87.5171
 30
0.0
 10
-79.5275
 20
87.5863
 30
0.0
 10
-79.5275
 20
87.5863
 30
0.0
 10
-78.027
 20
85.0743
 30
0.0
 10
-75.436
 20
87.7924
 30
0.0
 10
-76.4657
 20
89.6366
 30
0.0
 10
-76.4657
 20
89.6366
 30
0.0
 10
-73.9355
 20
88.8321
 30
0.0
 10
-71.66
 20
91.4335
 30
0.0
 10
-74.6256
 20
92.6263
 30
0.0
  0
SPLINE
  5
4C
330
1F
100
AcDbEntity
  8
layer 1
 62
   250
100
AcDbSpline
210
0.0
220
0.0
230
1.0
 70
    11
 71
     3
 72
    76
 73
    72
 74
     0
 42
0.0000000001
 43
0.0000000001
 12
1.0
 22
0.0
 32
0.0
 13
1.0
 23
0.0
 33
0.0
 40
0.0
 40
0.0
 40
0.0
 40
0.0
 40
0.0526315789473684
 40
0.0526315789473684
 40
0.0526315789473684
 40
0.0526315789473684
 40
0.1052631578947368
 40
0.1052631578947368
 40
0.1052631578947368
 40
0.1052631578947368
 40
0.1578947368421053
 40
0.1578947368421053
 40
0.1578947368421053
 40
0.1578947368421053
 40
0.2105263157894737
 40
0.2105263157894737
 40
0.2105263157894737
 40
0.2105263157894737
 40
0.2631578947368421
 40
0.2631578947368421
 40
0.2631578947368421
 40
0.2631578947368421
 40
0.3157894736842105
 40
0.3157894736842105
 40
0.3157894736842105
 40
0.3157894736842105
 40
0.3684210526315789
 40
0.3684210526315789
 40
0.3684210526315789
 40
0.3684210526315789
 40
0.4210526315789473
 40
0.4210526315789473
 40
0.4210526315789473
 40
0.4210526315789473
 40
0.4736842105263158
 40
0.4736842105263158
 40
0.4736842105263158
 40
0.4736842105263158
 40
0.5263157894736842
 40
0.5263157894736842
 40
0.5263157894736842
 40
0.5263157894736842
 40
0.5789473684210527
 40
0.5789473684210527
 40
0.5789473684210527
 40
0.5789473684210527
 40
0.631578947368421
 40
0.631578947368421
 40
0.631578947368421
 40
0.631578947368421
 40
0.6842105263157895
 40
0.6842105263157895
 40
0.6842105263157895
 40
0.6842105263157895
 40
0.7368421052631579
 40
0.7368421052631579
 40
0.7368421052631579
 40
0.7368421052631579
 40
0.7894736842105263
 40
0.7894736842105263
 40
0.7894736842105263
 40
0.7894736842105263
 40
0.8421052631578947
 40
0.8421052631578947
 40
0.8421052631578947
 40
0.8421052631578947
 40
0.8947368421052632
 40
0.8947368421052632
 40
0.8947368421052632
 40
0.8947368421052632
 40
1.0
 40
1.0
 40
1.0
 40
1.0
 10
-147.3191
 20
115.8436
 30
0.0
 10
-146.7329
 20
115.3793
 30
0.0
 10
-145.8624
 20
115.1049
 30
0.0
 10
-144.9825
 20
115.3164
 30
0.0
 10
-144.9825
 20
115.3164
 30
0.0
 10
-145.1873
 20
111.8066
 30
0.0
 10
-141.7681
 20
111.7665
 30
0.0
 10
-142.1221
 20
113.4575
 30
0.0
 10
-142.1221
 20
113.4575
 30
0.0
 10
-143.6874
 20
113.147
 30
0.0
 10
-143.5352
 20
115.4624
 30
0.0
 10
-141.432
 20
115.067
 30
0.0
 10
-141.432
 20
115.067
 30
0.0
 10
-137.8229
 20
114.3894
 30
0.0
 10
-138.5907
 20
104.7814
 30
0.0
 10
-142.1221
 20
105.5326
 30
0.0
 10
-142.1221
 20
105.5326
 30
0.0
 10
-143.8945
 20
105.9101
 30
0.0
 10
-143.0559
 20
107.3104
 30
0.0
 10
-141.8918
 20
107.363
 30
0.0
 10
-141.8918
 20
107.363
 30
0.0
 10
-143.7304
 20
109.5756
 30
0.0
 10
-145.4232
 20
106.5818
 30
0.0
 10
-145.0686
 20
105.2933
 30
0.0
 10
-145.0686
 20
105.2933
 30
0.0
 10
-149.1385
 20
105.1633
 30
0.0
 10
-148.0627
 20
102.3515
 30
0.0
 10
-147.1815
 20
102.3036
 30
0.0
 10
-147.1815
 20
102.3036
 30
0.0
 10
-146.2505
 20
105.1561
 30
0.0
 10
-143.8879
 20
101.9342
 30
0.0
 10
-146.6064
 20
100.2335
 30
0.0
 10
-146.6064
 20
100.2335
 30
0.0
 10
-148.7494
 20
98.8931
 30
0.0
 10
-154.7236
 20
99.149
 30
0.0
 10
-154.9911
 20
102.0207
 30
0.0
 10
-154.9911
 20
102.0207
 30
0.0
 10
-155.1496
 20
103.7317
 30
0.0
 10
-153.3672
 20
103.707
 30
0.0
 10
-153.3907
 20
102.4185
 30
0.0
 10
-153.3907
 20
102.4185
 30
0.0
 10
-151.4654
 20
102.2892
 30
0.0
 10
-152.1555
 20
105.8249
 30
0.0
 10
-155.3457
 20
105.178
 30
0.0
 10
-155.3457
 20
105.178
 30
0.0
 10
-154.8483
 20
107.9028
 30
0.0
 10
-157.4154
 20
109.1495
 30
0.0
 10
-158.5654
 20
107.4348
 30
0.0
 10
-158.5654
 20
107.4348
 30
0.0
 10
-156.1323
 20
106.827
 30
0.0
 10
-157.3644
 20
104.5252
 30
0.0
 10
-159.5475
 20
105.9496
 30
0.0
 10
-159.5475
 20
105.9496
 30
0.0
 10
-161.8966
 20
107.4827
 30
0.0
 10
-161.9893
 20
113.6915
 30
0.0
 10
-159.1402
 20
114.9521
 30
0.0
 10
-159.1402
 20
114.9521
 30
0.0
 10
-157.1623
 20
115.8273
 30
0.0
 10
-156.3344
 20
113.4074
 30
0.0
 10
-158.5222
 20
113.4766
 30
0.0
 10
-158.5222
 20
113.4766
 30
0.0
 10
-157.0226
 20
110.9649
 30
0.0
 10
-154.4307
 20
113.6827
 30
0.0
 10
-155.4607
 20
115.5272
 30
0.0
 10
-155.4607
 20
115.5272
 30
0.0
 10
-154.4833
 20
115.2164
 30
0.0
 10
-153.5448
 20
115.415
 30
0.0
 10
-152.9308
 20
115.8433
 30
0.0
 10
-152.9308
 20
115.8433
 30
0.0
 10
-152.9308
 20
115.8433
 30
0.0
 10
-147.3191
 20
115.8436
 30
0.0
 10
-147.3191
 20
115.8436
 30
0.0
  0
SPLINE
  5
4D
330
1F
100
AcDbEntity
  8
layer 1
 62
   250
100
AcDbSpline
210
0.0
220
0.0
230
1.0
 70
    11
 71
     3
 72
    60
 73
    56
 74
     0
 42
0.0000000001
 43
0.0000000001
 12
1.0
 22
0.0
 32
0.0
 13
1.0
 23
0.0
 33
0.0
 40
0.0
 40
0.0
 40
0.0
 40
0.0
 40
0.0666666666666667
 40
0.0666666666666667
 40
0.0666666666666667
 40
0.0666666666666667
 40
0.1333333333333333
 40
0.1333333333333333
 40
0.1333333333333333
 40
0.1333333333333333
 40
0.2
 40
0.2
 40
0.2
 40
0.2
 40
0.2666666666666667
 40
0.2666666666666667
 40
0.2666666666666667
 40
0.2666666666666667
 40
0.3333333333333333
 40
0.3333333333333333
 40
0.3333333333333333
 40
0.3333333333333333
 40
0.4
 40
0.4
 40
0.4
 40
0.4
 40
0.4666666666666667
 40
0.4666666666666667
 40
0.4666666666666667
 40
0.4666666666666667
 40
0.5333333333333333
 40
0.5333333333333333
 40
0.5333333333333333
 40
0.5333333333333333
 40
0.6
 40
0.6
 40
0.6
 40
0.6
 40
0.6666666666666666
 40
0.6666666666666666
 40
0.6666666666666666
 40
0.6666666666666666
 40
0.7333333333333333
 40
0.7333333333333333
 40
0.7333333333333333
 40
0.7333333333333333
 40
0.8
 40
0.8
 40
0.8
 40
0.8
 40
0.8666666666666667
 40
0.8666666666666667
 40
0.8666666666666667
 40
0.8666666666666667
 40
1.0
 40
1.0
 40
1.0
 40
1.0
 10
-173.0139
 20
115.8436
 30
0.0
 10
-172.4835
 20
115.5873
 30
0.0
 10
-171.8373
 20
115.4764
 30
0.0
 10
-171.1854
 20
115.6334
 30
0.0
 10
-171.1854
 20
115.6334
 30
0.0
 10
-171.3902
 20
112.1236
 30
0.0
 10
-167.9707
 20
112.0835
 30
0.0
 10
-168.3247
 20
113.7742
 30
0.0
 10
-168.3247
 20
113.7742
 30
0.0
 10
-169.89
 20
113.4641
 30
0.0
 10
-169.7381
 20
115.7794
 30
0.0
 10
-167.6349
 20
115.384
 30
0.0
 10
-167.6349
 20
115.384
 30
0.0
 10
-164.0264
 20
114.7058
 30
0.0
 10
-164.7936
 20
105.0985
 30
0.0
 10
-168.3247
 20
105.8497
 30
0.0
 10
-168.3247
 20
105.8497
 30
0.0
 10
-170.0971
 20
106.2271
 30
0.0
 10
-169.2588
 20
107.6271
 30
0.0
 10
-168.0947
 20
107.68
 30
0.0
 10
-168.0947
 20
107.68
 30
0.0
 10
-169.933
 20
109.8926
 30
0.0
 10
-171.6261
 20
106.8988
 30
0.0
 10
-171.2715
 20
105.61
 30
0.0
 10
-171.2715
 20
105.61
 30
0.0
 10
-175.3411
 20
105.4803
 30
0.0
 10
-174.2657
 20
102.6685
 30
0.0
 10
-173.3841
 20
102.6206
 30
0.0
 10
-173.3841
 20
102.6206
 30
0.0
 10
-172.4531
 20
105.4731
 30
0.0
 10
-170.0908
 20
102.2513
 30
0.0
 10
-172.8093
 20
100.5506
 30
0.0
 10
-172.8093
 20
100.5506
 30
0.0
 10
-174.952
 20
99.2101
 30
0.0
 10
-180.9265
 20
99.4661
 30
0.0
 10
-181.1937
 20
102.3377
 30
0.0
 10
-181.1937
 20
102.3377
 30
0.0
 10
-181.3528
 20
104.0487
 30
0.0
 10
-179.5698
 20
104.024
 30
0.0
 10
-179.5936
 20
102.7356
 30
0.0
 10
-179.5936
 20
102.7356
 30
0.0
 10
-177.7228
 20
102.6099
 30
0.0
 10
-178.3211
 20
105.9443
 30
0.0
 10
-181.283
 20
105.5402
 30
0.0
 10
-181.283
 20
105.5402
 30
0.0
 10
-181.283
 20
105.5402
 30
0.0
 10
-181.2827
 20
115.749
 30
0.0
 10
-181.2827
 20
115.749
 30
0.0
 10
-181.2827
 20
115.749
 30
0.0
 10
-180.737
 20
115.6453
 30
0.0
 10
-180.216
 20
115.6942
 30
0.0
 10
-179.7712
 20
115.8433
 30
0.0
 10
-179.7712
 20
115.8433
 30
0.0
 10
-179.7712
 20
115.8433
 30
0.0
 10
-173.0139
 20
115.8436
 30
0.0
 10
-173.0139
 20
115.8436
 30
0.0
  0
SPLINE
  5
4E
330
1F
100
AcDbEntity
  8
layer 1
 62
   250
100
AcDbSpline
210
0.0
220
0.0
230
1.0
 70
    11
 71
     3
 72
    76
 73
    72
 74
     0
 42
0.0000000001
 43
0.0000000001
 12
1.0
 22
0.0
 32
0.0
 13
1.0
 23
0.0
 33
0.0
 40
0.0
 40
0.0
 40
0.0
 40
0.0
 40
0.0526315789473684
 40
0.0526315789473684
 40
0.0526315789473684
 40
0.0526315789473684
 40
0.1052631578947368
 40
0.1052631578947368
 40
0.1052631578947368
 40
0.1052631578947368
 40
0.1578947368421053
 40
0.1578947368421053
 40
0.1578947368421053
 40
0.1578947368421053
 40
0.2105263157894737
 40
0.2105263157894737
 40
0.2105263157894737
 40
0.2105263157894737
 40
0.2631578947368421
 40
0.2631578947368421
 40
0.2631578947368421
 40
0.2631578947368421
 40
0.3157894736842105
 40
0.3157894736842105
 40
0.3157894736842105
 40
0.3157894736842105
 40
0.3684210526315789
 40
0.3684210526315789
 40
0.3684210526315789
 40
0.3684210526315789
 40
0.4210526315789473
 40
0.4210526315789473
 40
0.4210526315789473
 40
0.4210526315789473
 40
0.4736842105263158
 40
0.4736842105263158
 40
0.4736842105263158
 40
0.4736842105263158
 40
0.5263157894736842
 40
0.5263157894736842
 40
0.5263157894736842
 40
0.5263157894736842
 40
0.5789473684210527
 40
0.5789473684210527
 40
0.5789473684210527
 40
0.5789473684210527
 40
0.631578947368421
 40
0.631578947368421
 40
0.631578947368421
 40
0.631578947368421
 40
0.6842105263157895
 40
0.6842105263157895
 40
0.6842105263157895
 40
0.6842105263157895
 40
0.7368421052631579
 40
0.7368421052631579
 40
0.7368421052631579
 40
0.7368421052631579
 40
0.7894736842105263
 40
0.7894736842105263
 40
0.7894736842105263
 40
0.7894736842105263
 40
0.8421052631578947
 40
0.8421052631578947
 40
0.8421052631578947
 40
0.8421052631578947
 40
0.8947368421052632
 40
0.8947368421052632
 40
0.8947368421052632
 40
0.8947368421052632
 40
1.0
 40
1.0
 40
1.0
 40
1.0
 10
-121.2164
 20
115.8436
 30
0.0
 10
-120.6369
 20
115.2929
 30
0.0
 10
-119.6795
 20
114.9361
 30
0.0
 10
-118.7103
 20
115.1691
 30
0.0
 10
-118.7103
 20
115.1691
 30
0.0
 10
-118.9152
 20
111.6594
 30
0.0
 10
-115.4959
 20
111.6193
 30
0.0
 10
-115.8499
 20
113.3103
 30
0.0
 10
-115.8499
 20
113.3103
 30
0.0
 10
-117.415
 20
112.9995
 30
0.0
 10
-117.263
 20
115.3151
 30
0.0
 10
-115.1598
 20
114.9201
 30
0.0
 10
-115.1598
 20
114.9201
 30
0.0
 10
-111.5514
 20
114.2422
 30
0.0
 10
-112.3186
 20
104.6342
 30
0.0
 10
-115.8499
 20
105.3857
 30
0.0
 10
-115.8499
 20
105.3857
 30
0.0
 10
-117.622
 20
105.7632
 30
0.0
 10
-116.7838
 20
107.1632
 30
0.0
 10
-115.62
 20
107.2158
 30
0.0
 10
-115.62
 20
107.2158
 30
0.0
 10
-117.4579
 20
109.4283
 30
0.0
 10
-119.1511
 20
106.4345
 30
0.0
 10
-118.7965
 20
105.1461
 30
0.0
 10
-118.7965
 20
105.1461
 30
0.0
 10
-122.8666
 20
105.0167
 30
0.0
 10
-121.7906
 20
102.2046
 30
0.0
 10
-120.9094
 20
102.1563
 30
0.0
 10
-120.9094
 20
102.1563
 30
0.0
 10
-119.9787
 20
105.0086
 30
0.0
 10
-117.6158
 20
101.787
 30
0.0
 10
-120.3342
 20
100.0866
 30
0.0
 10
-120.3342
 20
100.0866
 30
0.0
 10
-122.4769
 20
98.7465
 30
0.0
 10
-128.4514
 20
99.0018
 30
0.0
 10
-128.719
 20
101.8738
 30
0.0
 10
-128.719
 20
101.8738
 30
0.0
 10
-128.8778
 20
103.5845
 30
0.0
 10
-127.095
 20
103.5601
 30
0.0
 10
-127.1188
 20
102.2713
 30
0.0
 10
-127.1188
 20
102.2713
 30
0.0
 10
-125.1935
 20
102.1416
 30
0.0
 10
-125.8833
 20
105.678
 30
0.0
 10
-129.0736
 20
105.0311
 30
0.0
 10
-129.0736
 20
105.0311
 30
0.0
 10
-128.5758
 20
107.7555
 30
0.0
 10
-131.1433
 20
109.0023
 30
0.0
 10
-132.2932
 20
107.2878
 30
0.0
 10
-132.2932
 20
107.2878
 30
0.0
 10
-129.8608
 20
106.6795
 30
0.0
 10
-131.0925
 20
104.378
 30
0.0
 10
-133.2753
 20
105.8024
 30
0.0
 10
-133.2753
 20
105.8024
 30
0.0
 10
-135.6251
 20
107.3355
 30
0.0
 10
-135.7172
 20
113.5443
 30
0.0
 10
-132.8681
 20
114.8051
 30
0.0
 10
-132.8681
 20
114.8051
 30
0.0
 10
-130.8902
 20
115.6801
 30
0.0
 10
-130.0622
 20
113.2601
 30
0.0
 10
-132.25
 20
113.3294
 30
0.0
 10
-132.25
 20
113.3294
 30
0.0
 10
-130.7501
 20
110.8176
 30
0.0
 10
-128.1588
 20
113.5355
 30
0.0
 10
-129.1885
 20
115.38
 30
0.0
 10
-129.1885
 20
115.38
 30
0.0
 10
-128.1046
 20
115.0354
 30
0.0
 10
-127.069
 20
115.3164
 30
0.0
 10
-126.4707
 20
115.8433
 30
0.0
 10
-126.4707
 20
115.8433
 30
0.0
 10
-126.4707
 20
115.8433
 30
0.0
 10
-121.2164
 20
115.8436
 30
0.0
 10
-121.2164
 20
115.8436
 30
0.0
  0
SPLINE
  5
4F
330
1F
100
AcDbEntity
  8
layer 1
 62
   250
100
AcDbSpline
210
0.0
220
0.0
230
1.0
 70
    11
 71
     3
 72
    76
 73
    72
 74
     0
 42
0.0000000001
 43
0.0000000001
 12
1.0
 22
0.0
 32
0.0
 13
1.0
 23
0.0
 33
0.0
 40
0.0
 40
0.0
 40
0.0
 40
0.0
 40
0.0526315789473684
 40
0.0526315789473684
 40
0.0526315789473684
 40
0.0526315789473684
 40
0.1052631578947368
 40
0.1052631578947368
 40
0.1052631578947368
 40
0.1052631578947368
 40
0.1578947368421053
 40
0.1578947368421053
 40
0.1578947368421053
 40
0.1578947368421053
 40
0.2105263157894737
 40
0.2105263157894737
 40
0.2105263157894737
 40
0.2105263157894737
 40
0.2631578947368421
 40
0.2631578947368421
 40
0.2631578947368421
 40
0.2631578947368421
 40
0.3157894736842105
 40
0.3157894736842105
 40
0.3157894736842105
 40
0.3157894736842105
 40
0.3684210526315789
 40
0.3684210526315789
 40
0.3684210526315789
 40
0.3684210526315789
 40
0.4210526315789473
 40
0.4210526315789473
 40
0.4210526315789473
 40
0.4210526315789473
 40
0.4736842105263158
 40
0.4736842105263158
 40
0.4736842105263158
 40
0.4736842105263158
 40
0.5263157894736842
 40
0.5263157894736842
 40
0.5263157894736842
 40
0.5263157894736842
 40
0.5789473684210527
 40
0.5789473684210527
 40
0.5789473684210527
 40
0.5789473684210527
 40
0.631578947368421
 40
0.631578947368421
 40
0.631578947368421
 40
0.631578947368421
 40
0.6842105263157895
 40
0.6842105263157895
 40
0.6842105263157895
 40
0.6842105263157895
 40
0.7368421052631579
 40
0.7368421052631579
 40
0.7368421052631579
 40
0.7368421052631579
 40
0.7894736842105263
 40
0.7894736842105263
 40
0.7894736842105263
 40
0.7894736842105263
 40
0.8421052631578947
 40
0.8421052631578947
 40
0.8421052631578947
 40
0.8421052631578947
 40
0.8947368421052632
 40
0.8947368421052632
 40
0.8947368421052632
 40
0.8947368421052632
 40
1.0
 40
1.0
 40
1.0
 40
1.0
 10
-94.9066
 20
115.8436
 30
0.0
 10
-94.3434
 20
115.2337
 30
0.0
 10
-93.3262
 20
114.8158
 30
0.0
 10
-92.2963
 20
115.0636
 30
0.0
 10
-92.2963
 20
115.0636
 30
0.0
 10
-92.5011
 20
111.5538
 30
0.0
 10
-89.0816
 20
111.5137
 30
0.0
 10
-89.4356
 20
113.2044
 30
0.0
 10
-89.4356
 20
113.2044
 30
0.0
 10
-91.0009
 20
112.8939
 30
0.0
 10
-90.849
 20
115.2096
 30
0.0
 10
-88.7458
 20
114.8142
 30
0.0
 10
-88.7458
 20
114.8142
 30
0.0
 10
-85.1367
 20
114.1366
 30
0.0
 10
-85.9045
 20
104.5286
 30
0.0
 10
-89.4356
 20
105.2798
 30
0.0
 10
-89.4356
 20
105.2798
 30
0.0
 10
-91.208
 20
105.6576
 30
0.0
 10
-90.3697
 20
107.0573
 30
0.0
 10
-89.2056
 20
107.1102
 30
0.0
 10
-89.2056
 20
107.1102
 30
0.0
 10
-91.0438
 20
109.3228
 30
0.0
 10
-92.737
 20
106.329
 30
0.0
 10
-92.3824
 20
105.0402
 30
0.0
 10
-92.3824
 20
105.0402
 30
0.0
 10
-96.452
 20
104.9111
 30
0.0
 10
-95.3765
 20
102.0987
 30
0.0
 10
-94.495
 20
102.0508
 30
0.0
 10
-94.495
 20
102.0508
 30
0.0
 10
-93.564
 20
104.9036
 30
0.0
 10
-91.2017
 20
101.6811
 30
0.0
 10
-93.9202
 20
99.9807
 30
0.0
 10
-93.9202
 20
99.9807
 30
0.0
 10
-96.0629
 20
98.64
 30
0.0
 10
-102.0374
 20
98.8962
 30
0.0
 10
-102.3046
 20
101.7679
 30
0.0
 10
-102.3046
 20
101.7679
 30
0.0
 10
-102.4637
 20
103.4789
 30
0.0
 10
-100.6806
 20
103.4542
 30
0.0
 10
-100.7045
 20
102.1657
 30
0.0
 10
-100.7045
 20
102.1657
 30
0.0
 10
-98.7788
 20
102.036
 30
0.0
 10
-99.4693
 20
105.5721
 30
0.0
 10
-102.6592
 20
104.9252
 30
0.0
 10
-102.6592
 20
104.9252
 30
0.0
 10
-102.1617
 20
107.6506
 30
0.0
 10
-104.7292
 20
108.8967
 30
0.0
 10
-105.8789
 20
107.182
 30
0.0
 10
-105.8789
 20
107.182
 30
0.0
 10
-103.4467
 20
106.5739
 30
0.0
 10
-104.6782
 20
104.2724
 30
0.0
 10
-106.8613
 20
105.6968
 30
0.0
 10
-106.8613
 20
105.6968
 30
0.0
 10
-109.211
 20
107.2296
 30
0.0
 10
-109.3031
 20
113.4387
 30
0.0
 10
-106.454
 20
114.6993
 30
0.0
 10
-106.454
 20
114.6993
 30
0.0
 10
-104.4761
 20
115.5751
 30
0.0
 10
-103.6482
 20
113.1546
 30
0.0
 10
-105.836
 20
113.2238
 30
0.0
 10
-105.836
 20
113.2238
 30
0.0
 10
-104.3361
 20
110.7121
 30
0.0
 10
-101.7445
 20
113.4299
 30
0.0
 10
-102.7742
 20
115.2744
 30
0.0
 10
-102.7742
 20
115.2744
 30
0.0
 10
-101.6195
 20
114.9073
 30
0.0
 10
-100.5199
 20
115.2496
 30
0.0
 10
-99.9451
 20
115.8433
 30
0.0
 10
-99.9451
 20
115.8433
 30
0.0
 10
-99.9451
 20
115.8433
 30
0.0
 10
-94.9066
 20
115.8436
 30
0.0
 10
-94.9066
 20
115.8436
 30
0.0
  0
SPLINE
  5
50
330
1F
100
AcDbEntity
  8
layer 1
 62
   250
100
AcDbSpline
210
0.0
220
0.0
230
1.0
 70
    11
 71
     3
 72
    68
 73
    64
 74
     0
 42
0.0000000001
 43
0.0000000001
 12
1.0
 22
0.0
 32
0.0
 13
1.0
 23
0.0
 33
0.0
 40
0.0
 40
0.0
 40
0.0
 40
0.0
 40
0.0588235294117647
 40
0.0588235294117647
 40
0.0588235294117647
 40
0.0588235294117647
 40
0.1176470588235294
 40
0.1176470588235294
 40
0.1176470588235294
 40
0.1176470588235294
 40
0.1764705882352941
 40
0.1764705882352941
 40
0.1764705882352941
 40
0.1764705882352941
 40
0.2352941176470588
 40
0.2352941176470588
 40
0.2352941176470588
 40
0.2352941176470588
 40
0.2941176470588235
 40
0.2941176470588235
 40
0.2941176470588235
 40
0.2941176470588235
 40
0.3529411764705883
 40
0.3529411764705883
 40
0.3529411764705883
 40
0.3529411764705883
 40
0.4117647058823529
 40
0.4117647058823529
 40
0.4117647058823529
 40
0.4117647058823529
 40
0.4705882352941176
 40
0.4705882352941176
 40
0.4705882352941176
 40
0.4705882352941176
 40
0.5294117647058824
 40
0.5294117647058824
 40
0.5294117647058824
 40
0.5294117647058824
 40
0.5882352941176471
 40
0.5882352941176471
 40
0.5882352941176471
 40
0.5882352941176471
 40
0.6470588235294118
 40
0.6470588235294118
 40
0.6470588235294118
 40
0.6470588235294118
 40
0.7058823529411765
 40
0.7058823529411765
 40
0.7058823529411765
 40
0.7058823529411765
 40
0.7647058823529411
 40
0.7647058823529411
 40
0.7647058823529411
 40
0.7647058823529411
 40
0.8235294117647058
 40
0.8235294117647058
 40
0.8235294117647058
 40
0.8235294117647058
 40
0.8823529411764706
 40
0.8823529411764706
 40
0.8823529411764706
 40
0.8823529411764706
 40
1.0
 40
1.0
 40
1.0
 40
1.0
 10
-68.689
 20
115.8436
 30
0.0
 10
-68.1502
 20
115.1773
 30
0.0
 10
-67.076
 20
114.6964
 30
0.0
 10
-65.9878
 20
114.958
 30
0.0
 10
-65.9878
 20
114.958
 30
0.0
 10
-66.0551
 20
113.7989
 30
0.0
 10
-65.7281
 20
113.0186
 30
0.0
 10
-65.272
 20
112.554
 30
0.0
 10
-65.272
 20
112.554
 30
0.0
 10
-65.272
 20
112.554
 30
0.0
 10
-65.272
 20
107.3198
 30
0.0
 10
-65.272
 20
107.3198
 30
0.0
 10
-65.272
 20
107.3198
 30
0.0
 10
-65.9029
 20
106.6933
 30
0.0
 10
-66.2547
 20
105.5919
 30
0.0
 10
-66.0739
 20
104.9346
 30
0.0
 10
-66.0739
 20
104.9346
 30
0.0
 10
-70.1438
 20
104.8053
 30
0.0
 10
-69.068
 20
101.9931
 30
0.0
 10
-68.1865
 20
101.9449
 30
0.0
 10
-68.1865
 20
101.9449
 30
0.0
 10
-67.2555
 20
104.7981
 30
0.0
 10
-64.8932
 20
101.5756
 30
0.0
 10
-67.6117
 20
99.8752
 30
0.0
 10
-67.6117
 20
99.8752
 30
0.0
 10
-69.7544
 20
98.5351
 30
0.0
 10
-75.7289
 20
98.7907
 30
0.0
 10
-75.9961
 20
101.6623
 30
0.0
 10
-75.9961
 20
101.6623
 30
0.0
 10
-76.1555
 20
103.373
 30
0.0
 10
-74.3722
 20
103.3486
 30
0.0
 10
-74.396
 20
102.0598
 30
0.0
 10
-74.396
 20
102.0598
 30
0.0
 10
-72.4704
 20
101.9305
 30
0.0
 10
-73.1605
 20
105.4665
 30
0.0
 10
-76.3507
 20
104.8197
 30
0.0
 10
-76.3507
 20
104.8197
 30
0.0
 10
-75.8533
 20
107.5441
 30
0.0
 10
-78.4204
 20
108.7909
 30
0.0
 10
-79.5704
 20
107.0764
 30
0.0
 10
-79.5704
 20
107.0764
 30
0.0
 10
-77.1382
 20
106.4684
 30
0.0
 10
-78.3697
 20
104.1668
 30
0.0
 10
-80.5528
 20
105.5912
 30
0.0
 10
-80.5528
 20
105.5912
 30
0.0
 10
-82.9025
 20
107.124
 30
0.0
 10
-82.9946
 20
113.3331
 30
0.0
 10
-80.1455
 20
114.5937
 30
0.0
 10
-80.1455
 20
114.5937
 30
0.0
 10
-78.167
 20
115.4686
 30
0.0
 10
-77.3397
 20
113.049
 30
0.0
 10
-79.5275
 20
113.1182
 30
0.0
 10
-79.5275
 20
113.1182
 30
0.0
 10
-78.027
 20
110.6065
 30
0.0
 10
-75.436
 20
113.3244
 30
0.0
 10
-76.4657
 20
115.1685
 30
0.0
 10
-76.4657
 20
115.1685
 30
0.0
 10
-75.2446
 20
114.7807
 30
0.0
 10
-74.0836
 20
115.1857
 30
0.0
 10
-73.5417
 20
115.8433
 30
0.0
 10
-73.5417
 20
115.8433
 30
0.0
 10
-73.5417
 20
115.8433
 30
0.0
 10
-68.689
 20
115.8436
 30
0.0
 10
-68.689
 20
115.8436
 30
0.0
  0
SPLINE
  5
51
330
1F
100
AcDbEntity
  8
layer 1
 62
   250
100
AcDbSpline
210
0.0
220
0.0
230
1.0
 70
    11
 71
     3
 72
    84
 73
    80
 74
     0
 42
0.0000000001
 43
0.0000000001
 12
1.0
 22
0.0
 32
0.0
 13
1.0
 23
0.0
 33
0.0
 40
0.0
 40
0.0
 40
0.0
 40
0.0
 40
0.0476190476190476
 40
0.0476190476190476
 40
0.0476190476190476
 40
0.0476190476190476
 40
0.0952380952380952
 40
0.0952380952380952
 40
0.0952380952380952
 40
0.0952380952380952
 40
0.1428571428571428
 40
0.1428571428571428
 40
0.1428571428571428
 40
0.1428571428571428
 40
0.1904761904761905
 40
0.1904761904761905
 40
0.1904761904761905
 40
0.1904761904761905
 40
0.2380952380952381
 40
0.2380952380952381
 40
0.2380952380952381
 40
0.2380952380952381
 40
0.2857142857142857
 40
0.2857142857142857
 40
0.2857142857142857
 40
0.2857142857142857
 40
0.3333333333333333
 40
0.3333333333333333
 40
0.3333333333333333
 40
0.3333333333333333
 40
0.3809523809523809
 40
0.3809523809523809
 40
0.3809523809523809
 40
0.3809523809523809
 40
0.4285714285714285
 40
0.4285714285714285
 40
0.4285714285714285
 40
0.4285714285714285
 40
0.4761904761904762
 40
0.4761904761904762
 40
0.4761904761904762
 40
0.4761904761904762
 40
0.5238095238095238
 40
0.5238095238095238
 40
0.5238095238095238
 40
0.5238095238095238
 40
0.5714285714285714
 40
0.5714285714285714
 40
0.5714285714285714
 40
0.5714285714285714
 40
0.6190476190476191
 40
0.6190476190476191
 40
0.6190476190476191
 40
0.6190476190476191
 40
0.6666666666666666
 40
0.6666666666666666
 40
0.6666666666666666
 40
0.6666666666666666
 40
0.7142857142857143
 40
0.7142857142857143
 40
0.7142857142857143
 40
0.7142857142857143
 40
0.7619047619047619
 40
0.7619047619047619
 40
0.7619047619047619
 40
0.7619047619047619
 40
0.8095238095238095
 40
0.8095238095238095
 40
0.8095238095238095
 40
0.8095238095238095
 40
0.8571428571428571
 40
0.8571428571428571
 40
0.8571428571428571
 40
0.8571428571428571
 40
0.9047619047619048
 40
0.9047619047619048
 40
0.9047619047619048
 40
0.9047619047619048
 40
1.0
 40
1.0
 40
1.0
 40
1.0
 10
-153.6203
 20
67.3028
 30
0.0
 10
-152.9167
 20
65.3439
 30
0.0
 10
-155.8262
 20
65.5369
 30
0.0
 10
-154.8855
 20
67.7626
 30
0.0
 10
-154.8855
 20
67.7626
 30
0.0
 10
-153.6682
 20
70.6415
 30
0.0
 10
-145.0702
 20
70.5303
 30
0.0
 10
-145.3418
 20
66.9579
 30
0.0
 10
-145.3418
 20
66.9579
 30
0.0
 10
-145.2553
 20
65.4398
 30
0.0
 10
-147.1985
 20
65.5595
 30
0.0
 10
-146.8796
 20
67.1016
 30
0.0
 10
-146.8796
 20
67.1016
 30
0.0
 10
-149.4611
 20
66.2405
 30
0.0
 10
-147.2533
 20
63.5565
 30
0.0
 10
-144.9825
 20
64.1025
 30
0.0
 10
-144.9825
 20
64.1025
 30
0.0
 10
-145.1873
 20
60.5924
 30
0.0
 10
-141.7681
 20
60.5526
 30
0.0
 10
-142.1221
 20
62.2433
 30
0.0
 10
-142.1221
 20
62.2433
 30
0.0
 10
-143.6874
 20
61.9325
 30
0.0
 10
-143.5352
 20
64.2485
 30
0.0
 10
-141.432
 20
63.8531
 30
0.0
 10
-141.432
 20
63.8531
 30
0.0
 10
-137.8229
 20
63.1752
 30
0.0
 10
-138.5907
 20
53.5676
 30
0.0
 10
-142.1221
 20
54.3188
 30
0.0
 10
-142.1221
 20
54.3188
 30
0.0
 10
-143.8945
 20
54.6962
 30
0.0
 10
-143.0559
 20
56.0962
 30
0.0
 10
-141.8918
 20
56.1488
 30
0.0
 10
-141.8918
 20
56.1488
 30
0.0
 10
-143.7304
 20
58.362
 30
0.0
 10
-145.4232
 20
55.3679
 30
0.0
 10
-145.0686
 20
54.0791
 30
0.0
 10
-145.0686
 20
54.0791
 30
0.0
 10
-149.1385
 20
53.9497
 30
0.0
 10
-148.0627
 20
51.1376
 30
0.0
 10
-147.1815
 20
51.0894
 30
0.0
 10
-147.1815
 20
51.0894
 30
0.0
 10
-146.2505
 20
53.9422
 30
0.0
 10
-143.8879
 20
50.72
 30
0.0
 10
-146.6064
 20
49.0197
 30
0.0
 10
-146.6064
 20
49.0197
 30
0.0
 10
-148.7494
 20
47.6792
 30
0.0
 10
-154.7236
 20
47.9352
 30
0.0
 10
-154.9911
 20
50.8068
 30
0.0
 10
-154.9911
 20
50.8068
 30
0.0
 10
-155.1496
 20
52.5181
 30
0.0
 10
-153.3672
 20
52.4931
 30
0.0
 10
-153.3907
 20
51.2043
 30
0.0
 10
-153.3907
 20
51.2043
 30
0.0
 10
-151.4654
 20
51.0753
 30
0.0
 10
-152.1555
 20
54.611
 30
0.0
 10
-155.3457
 20
53.9642
 30
0.0
 10
-155.3457
 20
53.9642
 30
0.0
 10
-154.8483
 20
56.6892
 30
0.0
 10
-157.4154
 20
57.9353
 30
0.0
 10
-158.5654
 20
56.2209
 30
0.0
 10
-158.5654
 20
56.2209
 30
0.0
 10
-156.1323
 20
55.6132
 30
0.0
 10
-157.3644
 20
53.3113
 30
0.0
 10
-159.5475
 20
54.7357
 30
0.0
 10
-159.5475
 20
54.7357
 30
0.0
 10
-161.8966
 20
56.2688
 30
0.0
 10
-161.9893
 20
62.4776
 30
0.0
 10
-159.1402
 20
63.7382
 30
0.0
 10
-159.1402
 20
63.7382
 30
0.0
 10
-157.1623
 20
64.6137
 30
0.0
 10
-156.3344
 20
62.1935
 30
0.0
 10
-158.5222
 20
62.2627
 30
0.0
 10
-158.5222
 20
62.2627
 30
0.0
 10
-157.0226
 20
59.7513
 30
0.0
 10
-154.4307
 20
62.4688
 30
0.0
 10
-155.4607
 20
64.313
 30
0.0
 10
-155.4607
 20
64.313
 30
0.0
 10
-152.9305
 20
63.5082
 30
0.0
 10
-150.655
 20
66.1099
 30
0.0
 10
-153.6203
 20
67.3028
 30
0.0
  0
SPLINE
  5
52
330
1F
100
AcDbEntity
  8
layer 1
 62
   250
100
AcDbSpline
210
0.0
220
0.0
230
1.0
 70
    11
 71
     3
 72
    68
 73
    64
 74
     0
 42
0.0000000001
 43
0.0000000001
 12
1.0
 22
0.0
 32
0.0
 13
1.0
 23
0.0
 33
0.0
 40
0.0
 40
0.0
 40
0.0
 40
0.0
 40
0.0588235294117647
 40
0.0588235294117647
 40
0.0588235294117647
 40
0.0588235294117647
 40
0.1176470588235294
 40
0.1176470588235294
 40
0.1176470588235294
 40
0.1176470588235294
 40
0.1764705882352941
 40
0.1764705882352941
 40
0.1764705882352941
 40
0.1764705882352941
 40
0.2352941176470588
 40
0.2352941176470588
 40
0.2352941176470588
 40
0.2352941176470588
 40
0.2941176470588235
 40
0.2941176470588235
 40
0.2941176470588235
 40
0.2941176470588235
 40
0.3529411764705883
 40
0.3529411764705883
 40
0.3529411764705883
 40
0.3529411764705883
 40
0.4117647058823529
 40
0.4117647058823529
 40
0.4117647058823529
 40
0.4117647058823529
 40
0.4705882352941176
 40
0.4705882352941176
 40
0.4705882352941176
 40
0.4705882352941176
 40
0.5294117647058824
 40
0.5294117647058824
 40
0.5294117647058824
 40
0.5294117647058824
 40
0.5882352941176471
 40
0.5882352941176471
 40
0.5882352941176471
 40
0.5882352941176471
 40
0.6470588235294118
 40
0.6470588235294118
 40
0.6470588235294118
 40
0.6470588235294118
 40
0.7058823529411765
 40
0.7058823529411765
 40
0.7058823529411765
 40
0.7058823529411765
 40
0.7647058823529411
 40
0.7647058823529411
 40
0.7647058823529411
 40
0.7647058823529411
 40
0.8235294117647058
 40
0.8235294117647058
 40
0.8235294117647058
 40
0.8235294117647058
 40
0.8823529411764706
 40
0.8823529411764706
 40
0.8823529411764706
 40
0.8823529411764706
 40
1.0
 40
1.0
 40
1.0
 40
1.0
 10
-179.8232
 20
67.6198
 30
0.0
 10
-179.1193
 20
65.6603
 30
0.0
 10
-182.0292
 20
65.8539
 30
0.0
 10
-181.0884
 20
68.0796
 30
0.0
 10
-181.0884
 20
68.0796
 30
0.0
 10
-179.8717
 20
70.9585
 30
0.0
 10
-171.2731
 20
70.8473
 30
0.0
 10
-171.5444
 20
67.2749
 30
0.0
 10
-171.5444
 20
67.2749
 30
0.0
 10
-171.4585
 20
65.7568
 30
0.0
 10
-173.4014
 20
65.8765
 30
0.0
 10
-173.0825
 20
67.4187
 30
0.0
 10
-173.0825
 20
67.4187
 30
0.0
 10
-175.6637
 20
66.5575
 30
0.0
 10
-173.4562
 20
63.8732
 30
0.0
 10
-171.1854
 20
64.4195
 30
0.0
 10
-171.1854
 20
64.4195
 30
0.0
 10
-171.3902
 20
60.9094
 30
0.0
 10
-167.9707
 20
60.8693
 30
0.0
 10
-168.3247
 20
62.5603
 30
0.0
 10
-168.3247
 20
62.5603
 30
0.0
 10
-169.89
 20
62.2496
 30
0.0
 10
-169.7381
 20
64.5655
 30
0.0
 10
-167.6349
 20
64.1702
 30
0.0
 10
-167.6349
 20
64.1702
 30
0.0
 10
-164.0264
 20
63.4923
 30
0.0
 10
-164.7936
 20
53.8843
 30
0.0
 10
-168.3247
 20
54.6358
 30
0.0
 10
-168.3247
 20
54.6358
 30
0.0
 10
-170.0971
 20
55.0133
 30
0.0
 10
-169.2588
 20
56.4132
 30
0.0
 10
-168.0947
 20
56.4658
 30
0.0
 10
-168.0947
 20
56.4658
 30
0.0
 10
-169.933
 20
58.679
 30
0.0
 10
-171.6261
 20
55.6849
 30
0.0
 10
-171.2715
 20
54.3961
 30
0.0
 10
-171.2715
 20
54.3961
 30
0.0
 10
-175.3411
 20
54.2668
 30
0.0
 10
-174.2657
 20
51.4546
 30
0.0
 10
-173.3841
 20
51.4064
 30
0.0
 10
-173.3841
 20
51.4064
 30
0.0
 10
-172.4531
 20
54.2592
 30
0.0
 10
-170.0908
 20
51.0371
 30
0.0
 10
-172.8093
 20
49.3367
 30
0.0
 10
-172.8093
 20
49.3367
 30
0.0
 10
-174.952
 20
47.9962
 30
0.0
 10
-180.9265
 20
48.2522
 30
0.0
 10
-181.1937
 20
51.1238
 30
0.0
 10
-181.1937
 20
51.1238
 30
0.0
 10
-181.3528
 20
52.8352
 30
0.0
 10
-179.5698
 20
52.8101
 30
0.0
 10
-179.5936
 20
51.5214
 30
0.0
 10
-179.5936
 20
51.5214
 30
0.0
 10
-177.7228
 20
51.3961
 30
0.0
 10
-178.3211
 20
54.7304
 30
0.0
 10
-181.283
 20
54.3263
 30
0.0
 10
-181.283
 20
54.3263
 30
0.0
 10
-181.283
 20
54.3263
 30
0.0
 10
-181.2827
 20
64.5354
 30
0.0
 10
-181.2827
 20
64.5354
 30
0.0
 10
-181.2827
 20
64.5354
 30
0.0
 10
-178.9169
 20
64.0853
 30
0.0
 10
-177.0073
 20
66.487
 30
0.0
 10
-179.8232
 20
67.6198
 30
0.0
  0
SPLINE
  5
53
330
1F
100
AcDbEntity
  8
layer 1
 62
   250
100
AcDbSpline
210
0.0
220
0.0
230
1.0
 70
    11
 71
     3
 72
    84
 73
    80
 74
     0
 42
0.0000000001
 43
0.0000000001
 12
1.0
 22
0.0
 32
0.0
 13
1.0
 23
0.0
 33
0.0
 40
0.0
 40
0.0
 40
0.0
 40
0.0
 40
0.0476190476190476
 40
0.0476190476190476
 40
0.0476190476190476
 40
0.0476190476190476
 40
0.0952380952380952
 40
0.0952380952380952
 40
0.0952380952380952
 40
0.0952380952380952
 40
0.1428571428571428
 40
0.1428571428571428
 40
0.1428571428571428
 40
0.1428571428571428
 40
0.1904761904761905
 40
0.1904761904761905
 40
0.1904761904761905
 40
0.1904761904761905
 40
0.2380952380952381
 40
0.2380952380952381
 40
0.2380952380952381
 40
0.2380952380952381
 40
0.2857142857142857
 40
0.2857142857142857
 40
0.2857142857142857
 40
0.2857142857142857
 40
0.3333333333333333
 40
0.3333333333333333
 40
0.3333333333333333
 40
0.3333333333333333
 40
0.3809523809523809
 40
0.3809523809523809
 40
0.3809523809523809
 40
0.3809523809523809
 40
0.4285714285714285
 40
0.4285714285714285
 40
0.4285714285714285
 40
0.4285714285714285
 40
0.4761904761904762
 40
0.4761904761904762
 40
0.4761904761904762
 40
0.4761904761904762
 40
0.5238095238095238
 40
0.5238095238095238
 40
0.5238095238095238
 40
0.5238095238095238
 40
0.5714285714285714
 40
0.5714285714285714
 40
0.5714285714285714
 40
0.5714285714285714
 40
0.6190476190476191
 40
0.6190476190476191
 40
0.6190476190476191
 40
0.6190476190476191
 40
0.6666666666666666
 40
0.6666666666666666
 40
0.6666666666666666
 40
0.6666666666666666
 40
0.7142857142857143
 40
0.7142857142857143
 40
0.7142857142857143
 40
0.7142857142857143
 40
0.7619047619047619
 40
0.7619047619047619
 40
0.7619047619047619
 40
0.7619047619047619
 40
0.8095238095238095
 40
0.8095238095238095
 40
0.8095238095238095
 40
0.8095238095238095
 40
0.8571428571428571
 40
0.8571428571428571
 40
0.8571428571428571
 40
0.8571428571428571
 40
0.9047619047619048
 40
0.9047619047619048
 40
0.9047619047619048
 40
0.9047619047619048
 40
1.0
 40
1.0
 40
1.0
 40
1.0
 10
-127.3488
 20
67.1561
 30
0.0
 10
-126.6442
 20
65.1967
 30
0.0
 10
-129.5541
 20
65.39
 30
0.0
 10
-128.6134
 20
67.6157
 30
0.0
 10
-128.6134
 20
67.6157
 30
0.0
 10
-127.3967
 20
70.4942
 30
0.0
 10
-118.798
 20
70.383
 30
0.0
 10
-119.0696
 20
66.8106
 30
0.0
 10
-119.0696
 20
66.8106
 30
0.0
 10
-118.9835
 20
65.2926
 30
0.0
 10
-120.9266
 20
65.4125
 30
0.0
 10
-120.6074
 20
66.9544
 30
0.0
 10
-120.6074
 20
66.9544
 30
0.0
 10
-123.1887
 20
66.0929
 30
0.0
 10
-120.9811
 20
63.4092
 30
0.0
 10
-118.7103
 20
63.9553
 30
0.0
 10
-118.7103
 20
63.9553
 30
0.0
 10
-118.9152
 20
60.4455
 30
0.0
 10
-115.4959
 20
60.4054
 30
0.0
 10
-115.8499
 20
62.0961
 30
0.0
 10
-115.8499
 20
62.0961
 30
0.0
 10
-117.415
 20
61.7859
 30
0.0
 10
-117.263
 20
64.1012
 30
0.0
 10
-115.1598
 20
63.7059
 30
0.0
 10
-115.1598
 20
63.7059
 30
0.0
 10
-111.5514
 20
63.0277
 30
0.0
 10
-112.3186
 20
53.4203
 30
0.0
 10
-115.8499
 20
54.1715
 30
0.0
 10
-115.8499
 20
54.1715
 30
0.0
 10
-117.622
 20
54.549
 30
0.0
 10
-116.7838
 20
55.949
 30
0.0
 10
-115.62
 20
56.0016
 30
0.0
 10
-115.62
 20
56.0016
 30
0.0
 10
-117.4579
 20
58.2145
 30
0.0
 10
-119.1511
 20
55.2206
 30
0.0
 10
-118.7965
 20
53.9319
 30
0.0
 10
-118.7965
 20
53.9319
 30
0.0
 10
-122.8666
 20
53.8022
 30
0.0
 10
-121.7906
 20
50.9904
 30
0.0
 10
-120.9094
 20
50.9421
 30
0.0
 10
-120.9094
 20
50.9421
 30
0.0
 10
-119.9787
 20
53.795
 30
0.0
 10
-117.6158
 20
50.5728
 30
0.0
 10
-120.3342
 20
48.8724
 30
0.0
 10
-120.3342
 20
48.8724
 30
0.0
 10
-122.4769
 20
47.532
 30
0.0
 10
-128.4514
 20
47.7879
 30
0.0
 10
-128.719
 20
50.6596
 30
0.0
 10
-128.719
 20
50.6596
 30
0.0
 10
-128.8778
 20
52.3706
 30
0.0
 10
-127.095
 20
52.3459
 30
0.0
 10
-127.1188
 20
51.0571
 30
0.0
 10
-127.1188
 20
51.0571
 30
0.0
 10
-125.1935
 20
50.928
 30
0.0
 10
-125.8833
 20
54.4638
 30
0.0
 10
-129.0736
 20
53.8169
 30
0.0
 10
-129.0736
 20
53.8169
 30
0.0
 10
-128.5758
 20
56.5417
 30
0.0
 10
-131.1433
 20
57.7884
 30
0.0
 10
-132.2932
 20
56.0736
 30
0.0
 10
-132.2932
 20
56.0736
 30
0.0
 10
-129.8608
 20
55.4659
 30
0.0
 10
-131.0925
 20
53.1641
 30
0.0
 10
-133.2753
 20
54.5885
 30
0.0
 10
-133.2753
 20
54.5885
 30
0.0
 10
-135.6251
 20
56.1216
 30
0.0
 10
-135.7172
 20
62.3304
 30
0.0
 10
-132.8681
 20
63.5909
 30
0.0
 10
-132.8681
 20
63.5909
 30
0.0
 10
-130.8902
 20
64.4662
 30
0.0
 10
-130.0622
 20
62.0463
 30
0.0
 10
-132.25
 20
62.1155
 30
0.0
 10
-132.25
 20
62.1155
 30
0.0
 10
-130.7501
 20
59.6038
 30
0.0
 10
-128.1588
 20
62.3216
 30
0.0
 10
-129.1885
 20
64.1658
 30
0.0
 10
-129.1885
 20
64.1658
 30
0.0
 10
-126.6586
 20
63.3616
 30
0.0
 10
-124.3828
 20
65.9626
 30
0.0
 10
-127.3488
 20
67.1561
 30
0.0
  0
SPLINE
  5
54
330
1F
100
AcDbEntity
  8
layer 1
 62
   250
100
AcDbSpline
210
0.0
220
0.0
230
1.0
 70
    11
 71
     3
 72
    84
 73
    80
 74
     0
 42
0.0000000001
 43
0.0000000001
 12
1.0
 22
0.0
 32
0.0
 13
1.0
 23
0.0
 33
0.0
 40
0.0
 40
0.0
 40
0.0
 40
0.0
 40
0.0476190476190476
 40
0.0476190476190476
 40
0.0476190476190476
 40
0.0476190476190476
 40
0.0952380952380952
 40
0.0952380952380952
 40
0.0952380952380952
 40
0.0952380952380952
 40
0.1428571428571428
 40
0.1428571428571428
 40
0.1428571428571428
 40
0.1428571428571428
 40
0.1904761904761905
 40
0.1904761904761905
 40
0.1904761904761905
 40
0.1904761904761905
 40
0.2380952380952381
 40
0.2380952380952381
 40
0.2380952380952381
 40
0.2380952380952381
 40
0.2857142857142857
 40
0.2857142857142857
 40
0.2857142857142857
 40
0.2857142857142857
 40
0.3333333333333333
 40
0.3333333333333333
 40
0.3333333333333333
 40
0.3333333333333333
 40
0.3809523809523809
 40
0.3809523809523809
 40
0.3809523809523809
 40
0.3809523809523809
 40
0.4285714285714285
 40
0.4285714285714285
 40
0.4285714285714285
 40
0.4285714285714285
 40
0.4761904761904762
 40
0.4761904761904762
 40
0.4761904761904762
 40
0.4761904761904762
 40
0.5238095238095238
 40
0.5238095238095238
 40
0.5238095238095238
 40
0.5238095238095238
 40
0.5714285714285714
 40
0.5714285714285714
 40
0.5714285714285714
 40
0.5714285714285714
 40
0.6190476190476191
 40
0.6190476190476191
 40
0.6190476190476191
 40
0.6190476190476191
 40
0.6666666666666666
 40
0.6666666666666666
 40
0.6666666666666666
 40
0.6666666666666666
 40
0.7142857142857143
 40
0.7142857142857143
 40
0.7142857142857143
 40
0.7142857142857143
 40
0.7619047619047619
 40
0.7619047619047619
 40
0.7619047619047619
 40
0.7619047619047619
 40
0.8095238095238095
 40
0.8095238095238095
 40
0.8095238095238095
 40
0.8095238095238095
 40
0.8571428571428571
 40
0.8571428571428571
 40
0.8571428571428571
 40
0.8571428571428571
 40
0.9047619047619048
 40
0.9047619047619048
 40
0.9047619047619048
 40
0.9047619047619048
 40
1.0
 40
1.0
 40
1.0
 40
1.0
 10
-100.9341
 20
67.0503
 30
0.0
 10
-100.2302
 20
65.0911
 30
0.0
 10
-103.14
 20
65.2841
 30
0.0
 10
-102.1993
 20
67.5098
 30
0.0
 10
-102.1993
 20
67.5098
 30
0.0
 10
-100.9823
 20
70.3884
 30
0.0
 10
-92.3837
 20
70.2775
 30
0.0
 10
-92.6552
 20
66.7051
 30
0.0
 10
-92.6552
 20
66.7051
 30
0.0
 10
-92.5688
 20
65.1867
 30
0.0
 10
-94.5122
 20
65.3067
 30
0.0
 10
-94.1934
 20
66.8488
 30
0.0
 10
-94.1934
 20
66.8488
 30
0.0
 10
-96.7746
 20
65.9874
 30
0.0
 10
-94.5671
 20
63.3034
 30
0.0
 10
-92.2963
 20
63.8497
 30
0.0
 10
-92.2963
 20
63.8497
 30
0.0
 10
-92.5011
 20
60.3393
 30
0.0
 10
-89.0816
 20
60.2995
 30
0.0
 10
-89.4356
 20
61.9905
 30
0.0
 10
-89.4356
 20
61.9905
 30
0.0
 10
-91.0009
 20
61.6794
 30
0.0
 10
-90.849
 20
63.9957
 30
0.0
 10
-88.7458
 20
63.6003
 30
0.0
 10
-88.7458
 20
63.6003
 30
0.0
 10
-85.1367
 20
62.9221
 30
0.0
 10
-85.9045
 20
53.3145
 30
0.0
 10
-89.4356
 20
54.066
 30
0.0
 10
-89.4356
 20
54.066
 30
0.0
 10
-91.208
 20
54.4431
 30
0.0
 10
-90.3697
 20
55.8434
 30
0.0
 10
-89.2056
 20
55.896
 30
0.0
 10
-89.2056
 20
55.896
 30
0.0
 10
-91.0438
 20
58.1089
 30
0.0
 10
-92.737
 20
55.1151
 30
0.0
 10
-92.3824
 20
53.8263
 30
0.0
 10
-92.3824
 20
53.8263
 30
0.0
 10
-96.452
 20
53.6966
 30
0.0
 10
-95.3765
 20
50.8848
 30
0.0
 10
-94.495
 20
50.8366
 30
0.0
 10
-94.495
 20
50.8366
 30
0.0
 10
-93.564
 20
53.6891
 30
0.0
 10
-91.2017
 20
50.4672
 30
0.0
 10
-93.9202
 20
48.7669
 30
0.0
 10
-93.9202
 20
48.7669
 30
0.0
 10
-96.0629
 20
47.4264
 30
0.0
 10
-102.0374
 20
47.6824
 30
0.0
 10
-102.3046
 20
50.554
 30
0.0
 10
-102.3046
 20
50.554
 30
0.0
 10
-102.4637
 20
52.265
 30
0.0
 10
-100.6806
 20
52.2403
 30
0.0
 10
-100.7045
 20
50.9515
 30
0.0
 10
-100.7045
 20
50.9515
 30
0.0
 10
-98.7788
 20
50.8222
 30
0.0
 10
-99.4693
 20
54.3582
 30
0.0
 10
-102.6592
 20
53.7114
 30
0.0
 10
-102.6592
 20
53.7114
 30
0.0
 10
-102.1617
 20
56.4361
 30
0.0
 10
-104.7292
 20
57.6825
 30
0.0
 10
-105.8789
 20
55.9681
 30
0.0
 10
-105.8789
 20
55.9681
 30
0.0
 10
-103.4467
 20
55.36
 30
0.0
 10
-104.6782
 20
53.0585
 30
0.0
 10
-106.8613
 20
54.4829
 30
0.0
 10
-106.8613
 20
54.4829
 30
0.0
 10
-109.211
 20
56.016
 30
0.0
 10
-109.3031
 20
62.2245
 30
0.0
 10
-106.454
 20
63.4854
 30
0.0
 10
-106.454
 20
63.4854
 30
0.0
 10
-104.4761
 20
64.3606
 30
0.0
 10
-103.6482
 20
61.9404
 30
0.0
 10
-105.836
 20
62.0096
 30
0.0
 10
-105.836
 20
62.0096
 30
0.0
 10
-104.3361
 20
59.4982
 30
0.0
 10
-101.7445
 20
62.216
 30
0.0
 10
-102.7742
 20
64.0602
 30
0.0
 10
-102.7742
 20
64.0602
 30
0.0
 10
-100.2446
 20
63.2561
 30
0.0
 10
-97.9684
 20
65.8571
 30
0.0
 10
-100.9341
 20
67.0503
 30
0.0
  0
SPLINE
  5
55
330
1F
100
AcDbEntity
  8
layer 1
 62
   250
100
AcDbSpline
210
0.0
220
0.0
230
1.0
 70
    11
 71
     3
 72
    76
 73
    72
 74
     0
 42
0.0000000001
 43
0.0000000001
 12
1.0
 22
0.0
 32
0.0
 13
1.0
 23
0.0
 33
0.0
 40
0.0
 40
0.0
 40
0.0
 40
0.0
 40
0.0526315789473684
 40
0.0526315789473684
 40
0.0526315789473684
 40
0.0526315789473684
 40
0.1052631578947368
 40
0.1052631578947368
 40
0.1052631578947368
 40
0.1052631578947368
 40
0.1578947368421053
 40
0.1578947368421053
 40
0.1578947368421053
 40
0.1578947368421053
 40
0.2105263157894737
 40
0.2105263157894737
 40
0.2105263157894737
 40
0.2105263157894737
 40
0.2631578947368421
 40
0.2631578947368421
 40
0.2631578947368421
 40
0.2631578947368421
 40
0.3157894736842105
 40
0.3157894736842105
 40
0.3157894736842105
 40
0.3157894736842105
 40
0.3684210526315789
 40
0.3684210526315789
 40
0.3684210526315789
 40
0.3684210526315789
 40
0.4210526315789473
 40
0.4210526315789473
 40
0.4210526315789473
 40
0.4210526315789473
 40
0.4736842105263158
 40
0.4736842105263158
 40
0.4736842105263158
 40
0.4736842105263158
 40
0.5263157894736842
 40
0.5263157894736842
 40
0.5263157894736842
 40
0.5263157894736842
 40
0.5789473684210527
 40
0.5789473684210527
 40
0.5789473684210527
 40
0.5789473684210527
 40
0.631578947368421
 40
0.631578947368421
 40
0.631578947368421
 40
0.631578947368421
 40
0.6842105263157895
 40
0.6842105263157895
 40
0.6842105263157895
 40
0.6842105263157895
 40
0.7368421052631579
 40
0.7368421052631579
 40
0.7368421052631579
 40
0.7368421052631579
 40
0.7894736842105263
 40
0.7894736842105263
 40
0.7894736842105263
 40
0.7894736842105263
 40
0.8421052631578947
 40
0.8421052631578947
 40
0.8421052631578947
 40
0.8421052631578947
 40
0.8947368421052632
 40
0.8947368421052632
 40
0.8947368421052632
 40
0.8947368421052632
 40
1.0
 40
1.0
 40
1.0
 40
1.0
 10
-74.6256
 20
66.9447
 30
0.0
 10
-73.922
 20
64.9853
 30
0.0
 10
-76.8316
 20
65.1785
 30
0.0
 10
-75.8908
 20
67.4042
 30
0.0
 10
-75.8908
 20
67.4042
 30
0.0
 10
-74.6741
 20
70.2828
 30
0.0
 10
-66.0752
 20
70.1719
 30
0.0
 10
-66.3468
 20
66.5992
 30
0.0
 10
-66.3468
 20
66.5992
 30
0.0
 10
-66.2603
 20
65.0811
 30
0.0
 10
-68.2038
 20
65.2011
 30
0.0
 10
-67.8846
 20
66.7433
 30
0.0
 10
-67.8846
 20
66.7433
 30
0.0
 10
-70.4664
 20
65.8824
 30
0.0
 10
-68.2586
 20
63.1978
 30
0.0
 10
-65.9878
 20
63.7438
 30
0.0
 10
-65.9878
 20
63.7438
 30
0.0
 10
-66.0551
 20
62.5854
 30
0.0
 10
-65.7281
 20
61.8047
 30
0.0
 10
-65.272
 20
61.3399
 30
0.0
 10
-65.272
 20
61.3399
 30
0.0
 10
-65.272
 20
61.3399
 30
0.0
 10
-65.272
 20
56.1059
 30
0.0
 10
-65.272
 20
56.1059
 30
0.0
 10
-65.272
 20
56.1059
 30
0.0
 10
-65.9029
 20
55.4788
 30
0.0
 10
-66.2547
 20
54.3777
 30
0.0
 10
-66.0739
 20
53.7208
 30
0.0
 10
-66.0739
 20
53.7208
 30
0.0
 10
-70.1438
 20
53.5911
 30
0.0
 10
-69.068
 20
50.7792
 30
0.0
 10
-68.1865
 20
50.731
 30
0.0
 10
-68.1865
 20
50.731
 30
0.0
 10
-67.2555
 20
53.5835
 30
0.0
 10
-64.8932
 20
50.3617
 30
0.0
 10
-67.6117
 20
48.6613
 30
0.0
 10
-67.6117
 20
48.6613
 30
0.0
 10
-69.7544
 20
47.3205
 30
0.0
 10
-75.7289
 20
47.5765
 30
0.0
 10
-75.9961
 20
50.4484
 30
0.0
 10
-75.9961
 20
50.4484
 30
0.0
 10
-76.1555
 20
52.1595
 30
0.0
 10
-74.3722
 20
52.1347
 30
0.0
 10
-74.396
 20
50.846
 30
0.0
 10
-74.396
 20
50.846
 30
0.0
 10
-72.4704
 20
50.7166
 30
0.0
 10
-73.1605
 20
54.2527
 30
0.0
 10
-76.3507
 20
53.6058
 30
0.0
 10
-76.3507
 20
53.6058
 30
0.0
 10
-75.8533
 20
56.3305
 30
0.0
 10
-78.4204
 20
57.577
 30
0.0
 10
-79.5704
 20
55.8625
 30
0.0
 10
-79.5704
 20
55.8625
 30
0.0
 10
-77.1382
 20
55.2545
 30
0.0
 10
-78.3697
 20
52.9526
 30
0.0
 10
-80.5528
 20
54.377
 30
0.0
 10
-80.5528
 20
54.377
 30
0.0
 10
-82.9025
 20
55.9101
 30
0.0
 10
-82.9946
 20
62.1189
 30
0.0
 10
-80.1455
 20
63.3798
 30
0.0
 10
-80.1455
 20
63.3798
 30
0.0
 10
-78.167
 20
64.255
 30
0.0
 10
-77.3397
 20
61.8348
 30
0.0
 10
-79.5275
 20
61.904
 30
0.0
 10
-79.5275
 20
61.904
 30
0.0
 10
-78.027
 20
59.3926
 30
0.0
 10
-75.436
 20
62.1102
 30
0.0
 10
-76.4657
 20
63.9546
 30
0.0
 10
-76.4657
 20
63.9546
 30
0.0
 10
-73.9355
 20
63.1496
 30
0.0
 10
-71.66
 20
65.7515
 30
0.0
 10
-74.6256
 20
66.9447
 30
0.0
  0
SPLINE
  5
56
330
1F
100
AcDbEntity
  8
layer 1
 62
   250
100
AcDbSpline
210
0.0
220
0.0
230
1.0
 70
    11
 71
     3
 72
    36
 73
    32
 74
     0
 42
0.0000000001
 43
0.0000000001
 12
1.0
 22
0.0
 32
0.0
 13
1.0
 23
0.0
 33
0.0
 40
0.0
 40
0.0
 40
0.0
 40
0.0
 40
0.1111111111111111
 40
0.1111111111111111
 40
0.1111111111111111
 40
0.1111111111111111
 40
0.2222222222222222
 40
0.2222222222222222
 40
0.2222222222222222
 40
0.2222222222222222
 40
0.3333333333333333
 40
0.3333333333333333
 40
0.3333333333333333
 40
0.3333333333333333
 40
0.4444444444444444
 40
0.4444444444444444
 40
0.4444444444444444
 40
0.4444444444444444
 40
0.5555555555555556
 40
0.5555555555555556
 40
0.5555555555555556
 40
0.5555555555555556
 40
0.6666666666666666
 40
0.6666666666666666
 40
0.6666666666666666
 40
0.6666666666666666
 40
0.7777777777777778
 40
0.7777777777777778
 40
0.7777777777777778
 40
0.7777777777777778
 40
1.0
 40
1.0
 40
1.0
 40
1.0
 10
-137.1541
 20
84.1085
 30
0.0
 10
-137.0391
 20
80.5439
 30
0.0
 10
-134.5099
 20
76.8641
 30
0.0
 10
-130.8303
 20
78.244
 30
0.0
 10
-130.8303
 20
78.244
 30
0.0
 10
-131.5198
 20
75.8297
 30
0.0
 10
-129.9103
 20
72.0345
 30
0.0
 10
-125.0808
 20
72.0345
 30
0.0
 10
-125.0808
 20
72.0345
 30
0.0
 10
-126.4137
 20
71.5054
 30
0.0
 10
-132.2099
 20
70.5397
 30
0.0
 10
-130.4851
 20
65.8251
 30
0.0
 10
-130.4851
 20
65.8251
 30
0.0
 10
-133.2521
 20
65.9438
 30
0.0
 10
-136.4646
 20
65.5952
 30
0.0
 10
-137.1547
 20
60.4208
 30
0.0
 10
-137.1547
 20
60.4208
 30
0.0
 10
-138.1171
 20
64.6316
 30
0.0
 10
-140.1442
 20
66.5149
 30
0.0
 10
-143.5938
 20
65.8251
 30
0.0
 10
-143.5938
 20
65.8251
 30
0.0
 10
-143.3635
 20
66.9751
 30
0.0
 10
-141.9839
 20
70.5397
 30
0.0
 10
-149.3433
 20
72.1495
 30
0.0
 10
-149.3433
 20
72.1495
 30
0.0
 10
-144.1686
 20
72.2645
 30
0.0
 10
-142.789
 20
75.5991
 30
0.0
 10
-143.4788
 20
78.129
 30
0.0
 10
-143.4788
 20
78.129
 30
0.0
 10
-140.3735
 20
77.5539
 30
0.0
 10
-137.4996
 20
78.9338
 30
0.0
 10
-137.1541
 20
84.1085
 30
0.0
  0
SPLINE
  5
57
330
1F
100
AcDbEntity
  8
layer 1
 62
   250
100
AcDbSpline
210
0.0
220
0.0
230
1.0
 70
    11
 71
     3
 72
    36
 73
    32
 74
     0
 42
0.0000000001
 43
0.0000000001
 12
1.0
 22
0.0
 32
0.0
 13
1.0
 23
0.0
 33
0.0
 40
0.0
 40
0.0
 40
0.0
 40
0.0
 40
0.1111111111111111
 40
0.1111111111111111
 40
0.1111111111111111
 40
0.1111111111111111
 40
0.2222222222222222
 40
0.2222222222222222
 40
0.2222222222222222
 40
0.2222222222222222
 40
0.3333333333333333
 40
0.3333333333333333
 40
0.3333333333333333
 40
0.3333333333333333
 40
0.4444444444444444
 40
0.4444444444444444
 40
0.4444444444444444
 40
0.4444444444444444
 40
0.5555555555555556
 40
0.5555555555555556
 40
0.5555555555555556
 40
0.5555555555555556
 40
0.6666666666666666
 40
0.6666666666666666
 40
0.6666666666666666
 40
0.6666666666666666
 40
0.7777777777777778
 40
0.7777777777777778
 40
0.7777777777777778
 40
0.7777777777777778
 40
1.0
 40
1.0
 40
1.0
 40
1.0
 10
-163.357
 20
84.2141
 30
0.0
 10
-163.242
 20
80.6495
 30
0.0
 10
-160.7128
 20
76.9696
 30
0.0
 10
-157.0332
 20
78.3495
 30
0.0
 10
-157.0332
 20
78.3495
 30
0.0
 10
-157.7224
 20
75.9346
 30
0.0
 10
-156.1132
 20
72.1401
 30
0.0
 10
-151.2837
 20
72.1401
 30
0.0
 10
-151.2837
 20
72.1401
 30
0.0
 10
-152.6166
 20
71.6113
 30
0.0
 10
-158.4128
 20
70.6452
 30
0.0
 10
-156.688
 20
65.9307
 30
0.0
 10
-156.688
 20
65.9307
 30
0.0
 10
-159.455
 20
66.0494
 30
0.0
 10
-162.6675
 20
65.7007
 30
0.0
 10
-163.3573
 20
60.5263
 30
0.0
 10
-163.3573
 20
60.5263
 30
0.0
 10
-164.3197
 20
64.7372
 30
0.0
 10
-166.3471
 20
66.6208
 30
0.0
 10
-169.7967
 20
65.9307
 30
0.0
 10
-169.7967
 20
65.9307
 30
0.0
 10
-169.5664
 20
67.081
 30
0.0
 10
-168.1868
 20
70.6452
 30
0.0
 10
-175.5463
 20
72.2551
 30
0.0
 10
-175.5463
 20
72.2551
 30
0.0
 10
-170.3712
 20
72.3704
 30
0.0
 10
-168.9919
 20
75.7047
 30
0.0
 10
-169.6817
 20
78.2346
 30
0.0
 10
-169.6817
 20
78.2346
 30
0.0
 10
-166.577
 20
77.6597
 30
0.0
 10
-163.7025
 20
79.0393
 30
0.0
 10
-163.357
 20
84.2141
 30
0.0
  0
SPLINE
  5
58
330
1F
100
AcDbEntity
  8
layer 1
 62
   250
100
AcDbSpline
210
0.0
220
0.0
230
1.0
 70
    11
 71
     3
 72
    16
 73
    12
 74
     0
 42
0.0000000001
 43
0.0000000001
 12
1.0
 22
0.0
 32
0.0
 13
1.0
 23
0.0
 33
0.0
 40
0.0
 40
0.0
 40
0.0
 40
0.0
 40
0.25
 40
0.25
 40
0.25
 40
0.25
 40
0.5
 40
0.5
 40
0.5
 40
0.5
 40
1.0
 40
1.0
 40
1.0
 40
1.0
 10
-181.3748
 20
73.2437
 30
0.0
 10
-180.4591
 20
72.6363
 30
0.0
 10
-179.243
 20
72.2457
 30
0.0
 10
-177.6977
 20
72.2457
 30
0.0
 10
-177.6977
 20
72.2457
 30
0.0
 10
-178.3368
 20
71.9922
 30
0.0
 10
-180.0043
 20
71.6383
 30
0.0
 10
-181.3751
 20
70.8178
 30
0.0
 10
-181.3751
 20
70.8178
 30
0.0
 10
-181.3751
 20
70.8178
 30
0.0
 10
-181.3748
 20
73.2437
 30
0.0
 10
-181.3748
 20
73.2437
 30
0.0
  0
SPLINE
  5
59
330
1F
100
AcDbEntity
  8
layer 1
 62
   250
100
AcDbSpline
210
0.0
220
0.0
230
1.0
 70
    11
 71
     3
 72
    36
 73
    32
 74
     0
 42
0.0000000001
 43
0.0000000001
 12
1.0
 22
0.0
 32
0.0
 13
1.0
 23
0.0
 33
0.0
 40
0.0
 40
0.0
 40
0.0
 40
0.0
 40
0.1111111111111111
 40
0.1111111111111111
 40
0.1111111111111111
 40
0.1111111111111111
 40
0.2222222222222222
 40
0.2222222222222222
 40
0.2222222222222222
 40
0.2222222222222222
 40
0.3333333333333333
 40
0.3333333333333333
 40
0.3333333333333333
 40
0.3333333333333333
 40
0.4444444444444444
 40
0.4444444444444444
 40
0.4444444444444444
 40
0.4444444444444444
 40
0.5555555555555556
 40
0.5555555555555556
 40
0.5555555555555556
 40
0.5555555555555556
 40
0.6666666666666666
 40
0.6666666666666666
 40
0.6666666666666666
 40
0.6666666666666666
 40
0.7777777777777778
 40
0.7777777777777778
 40
0.7777777777777778
 40
0.7777777777777778
 40
1.0
 40
1.0
 40
1.0
 40
1.0
 10
-110.6661
 20
83.8322
 30
0.0
 10
-110.5511
 20
80.2679
 30
0.0
 10
-108.0213
 20
76.5881
 30
0.0
 10
-104.3417
 20
77.9677
 30
0.0
 10
-104.3417
 20
77.9677
 30
0.0
 10
-105.0312
 20
75.5537
 30
0.0
 10
-103.4217
 20
71.7586
 30
0.0
 10
-98.5921
 20
71.7586
 30
0.0
 10
-98.5921
 20
71.7586
 30
0.0
 10
-99.9251
 20
71.2295
 30
0.0
 10
-105.7216
 20
70.2637
 30
0.0
 10
-103.9968
 20
65.5491
 30
0.0
 10
-103.9968
 20
65.5491
 30
0.0
 10
-106.7635
 20
65.6679
 30
0.0
 10
-109.976
 20
65.3192
 30
0.0
 10
-110.6661
 20
60.1448
 30
0.0
 10
-110.6661
 20
60.1448
 30
0.0
 10
-111.6291
 20
64.3556
 30
0.0
 10
-113.6559
 20
66.2389
 30
0.0
 10
-117.1055
 20
65.5491
 30
0.0
 10
-117.1055
 20
65.5491
 30
0.0
 10
-116.8755
 20
66.6991
 30
0.0
 10
-115.4956
 20
70.2637
 30
0.0
 10
-122.8547
 20
71.8735
 30
0.0
 10
-122.8547
 20
71.8735
 30
0.0
 10
-117.5741
 20
72.4114
 30
0.0
 10
-116.2616
 20
76.0164
 30
0.0
 10
-116.9905
 20
77.8527
 30
0.0
 10
-116.9905
 20
77.8527
 30
0.0
 10
-113.9663
 20
77.4104
 30
0.0
 10
-111.1166
 20
78.8689
 30
0.0
 10
-110.6661
 20
83.8322
 30
0.0
  0
SPLINE
  5
5A
330
1F
100
AcDbEntity
  8
layer 1
 62
   250
100
AcDbSpline
210
0.0
220
0.0
230
1.0
 70
    11
 71
     3
 72
    36
 73
    32
 74
     0
 42
0.0000000001
 43
0.0000000001
 12
1.0
 22
0.0
 32
0.0
 13
1.0
 23
0.0
 33
0.0
 40
0.0
 40
0.0
 40
0.0
 40
0.0
 40
0.1111111111111111
 40
0.1111111111111111
 40
0.1111111111111111
 40
0.1111111111111111
 40
0.2222222222222222
 40
0.2222222222222222
 40
0.2222222222222222
 40
0.2222222222222222
 40
0.3333333333333333
 40
0.3333333333333333
 40
0.3333333333333333
 40
0.3333333333333333
 40
0.4444444444444444
 40
0.4444444444444444
 40
0.4444444444444444
 40
0.4444444444444444
 40
0.5555555555555556
 40
0.5555555555555556
 40
0.5555555555555556
 40
0.5555555555555556
 40
0.6666666666666666
 40
0.6666666666666666
 40
0.6666666666666666
 40
0.6666666666666666
 40
0.7777777777777778
 40
0.7777777777777778
 40
0.7777777777777778
 40
0.7777777777777778
 40
1.0
 40
1.0
 40
1.0
 40
1.0
 10
-84.2514
 20
83.7266
 30
0.0
 10
-84.1365
 20
80.1624
 30
0.0
 10
-81.6072
 20
76.4822
 30
0.0
 10
-77.9273
 20
77.8621
 30
0.0
 10
-77.9273
 20
77.8621
 30
0.0
 10
-78.6171
 20
75.4478
 30
0.0
 10
-77.0076
 20
71.6527
 30
0.0
 10
-72.1781
 20
71.6527
 30
0.0
 10
-72.1781
 20
71.6527
 30
0.0
 10
-73.511
 20
71.1239
 30
0.0
 10
-79.3073
 20
70.1578
 30
0.0
 10
-77.5824
 20
65.4436
 30
0.0
 10
-77.5824
 20
65.4436
 30
0.0
 10
-80.3495
 20
65.5623
 30
0.0
 10
-83.5619
 20
65.2133
 30
0.0
 10
-84.2517
 20
60.0389
 30
0.0
 10
-84.2517
 20
60.0389
 30
0.0
 10
-85.2144
 20
64.25
 30
0.0
 10
-87.2415
 20
66.1334
 30
0.0
 10
-90.6911
 20
65.4436
 30
0.0
 10
-90.6911
 20
65.4436
 30
0.0
 10
-90.4609
 20
66.5935
 30
0.0
 10
-89.0813
 20
70.1578
 30
0.0
 10
-96.4407
 20
71.7676
 30
0.0
 10
-96.4407
 20
71.7676
 30
0.0
 10
-91.1601
 20
72.3055
 30
0.0
 10
-89.8475
 20
75.9108
 30
0.0
 10
-90.5761
 20
77.7471
 30
0.0
 10
-90.5761
 20
77.7471
 30
0.0
 10
-87.5522
 20
77.3048
 30
0.0
 10
-84.7025
 20
78.7634
 30
0.0
 10
-84.2514
 20
83.7266
 30
0.0
  0
SPLINE
  5
5B
330
1F
100
AcDbEntity
  8
layer 1
 62
   250
100
AcDbSpline
210
0.0
220
0.0
230
1.0
 70
    11
 71
     3
 72
    16
 73
    12
 74
     0
 42
0.0000000001
 43
0.0000000001
 12
1.0
 22
0.0
 32
0.0
 13
1.0
 23
0.0
 33
0.0
 40
0.0
 40
0.0
 40
0.0
 40
0.0
 40
0.25
 40
0.25
 40
0.25
 40
0.25
 40
0.5
 40
0.5
 40
0.5
 40
0.5
 40
1.0
 40
1.0
 40
1.0
 40
1.0
 10
-65.3641
 20
69.6121
 30
0.0
 10
-66.2324
 20
70.4426
 30
0.0
 10
-67.7267
 20
71.2185
 30
0.0
 10
-70.2378
 20
71.7676
 30
0.0
 10
-70.2378
 20
71.7676
 30
0.0
 10
-67.878
 20
72.0085
 30
0.0
 10
-66.3111
 20
72.8615
 30
0.0
 10
-65.3641
 20
73.8953
 30
0.0
 10
-65.3641
 20
73.8953
 30
0.0
 10
-65.3641
 20
73.8953
 30
0.0
 10
-65.3641
 20
69.6121
 30
0.0
 10
-65.3641
 20
69.6121
 30
0.0
  0
SPLINE
  5
5C
330
1F
100
AcDbEntity
  8
layer 1
 62
   250
100
AcDbSpline
210
0.0
220
0.0
230
1.0
 70
    11
 71
     3
 72
    16
 73
    12
 74
     0
 42
0.0000000001
 43
0.0000000001
 12
1.0
 22
0.0
 32
0.0
 13
1.0
 23
0.0
 33
0.0
 40
0.0
 40
0.0
 40
0.0
 40
0.0
 40
0.25
 40
0.25
 40
0.25
 40
0.25
 40
0.5
 40
0.5
 40
0.5
 40
0.5
 40
1.0
 40
1.0
 40
1.0
 40
1.0
 10
-134.8206
 20
115.8436
 30
0.0
 10
-135.8325
 20
115.0604
 30
0.0
 10
-136.6118
 20
113.7216
 30
0.0
 10
-136.9126
 20
111.4674
 30
0.0
 10
-136.9126
 20
111.4674
 30
0.0
 10
-137.3662
 20
113.4509
 30
0.0
 10
-138.0557
 20
114.9182
 30
0.0
 10
-139.0186
 20
115.8433
 30
0.0
 10
-139.0186
 20
115.8433
 30
0.0
 10
-139.0186
 20
115.8433
 30
0.0
 10
-134.8206
 20
115.8436
 30
0.0
 10
-134.8206
 20
115.8436
 30
0.0
  0
SPLINE
  5
5D
330
1F
100
AcDbEntity
  8
layer 1
 62
   250
100
AcDbSpline
210
0.0
220
0.0
230
1.0
 70
    11
 71
     3
 72
    16
 73
    12
 74
     0
 42
0.0000000001
 43
0.0000000001
 12
1.0
 22
0.0
 32
0.0
 13
1.0
 23
0.0
 33
0.0
 40
0.0
 40
0.0
 40
0.0
 40
0.0
 40
0.25
 40
0.25
 40
0.25
 40
0.25
 40
0.5
 40
0.5
 40
0.5
 40
0.5
 40
1.0
 40
1.0
 40
1.0
 40
1.0
 10
-161.1545
 20
115.8436
 30
0.0
 10
-162.1024
 20
115.0479
 30
0.0
 10
-162.8279
 20
113.7291
 30
0.0
 10
-163.1155
 20
111.5729
 30
0.0
 10
-163.1155
 20
111.5729
 30
0.0
 10
-163.5515
 20
113.4819
 30
0.0
 10
-164.2066
 20
114.9138
 30
0.0
 10
-165.1138
 20
115.8433
 30
0.0
 10
-165.1138
 20
115.8433
 30
0.0
 10
-165.1138
 20
115.8433
 30
0.0
 10
-161.1545
 20
115.8436
 30
0.0
 10
-161.1545
 20
115.8436
 30
0.0
  0
SPLINE
  5
5E
330
1F
100
AcDbEntity
  8
layer 1
 62
   250
100
AcDbSpline
210
0.0
220
0.0
230
1.0
 70
    11
 71
     3
 72
    16
 73
    12
 74
     0
 42
0.0000000001
 43
0.0000000001
 12
1.0
 22
0.0
 32
0.0
 13
1.0
 23
0.0
 33
0.0
 40
0.0
 40
0.0
 40
0.0
 40
0.0
 40
0.25
 40
0.25
 40
0.25
 40
0.25
 40
0.5
 40
0.5
 40
0.5
 40
0.5
 40
1.0
 40
1.0
 40
1.0
 40
1.0
 10
-107.9273
 20
115.8436
 30
0.0
 10
-109.1346
 20
115.1143
 30
0.0
 10
-110.0844
 20
113.7372
 30
0.0
 10
-110.424
 20
111.1914
 30
0.0
 10
-110.424
 20
111.1914
 30
0.0
 10
-110.9255
 20
113.3858
 30
0.0
 10
-111.7155
 20
114.9474
 30
0.0
 10
-112.8458
 20
115.8433
 30
0.0
 10
-112.8458
 20
115.8433
 30
0.0
 10
-112.8458
 20
115.8433
 30
0.0
 10
-107.9273
 20
115.8436
 30
0.0
 10
-107.9273
 20
115.8436
 30
0.0
  0
SPLINE
  5
5F
330
1F
100
AcDbEntity
  8
layer 1
 62
   250
100
AcDbSpline
210
0.0
220
0.0
230
1.0
 70
    11
 71
     3
 72
    16
 73
    12
 74
     0
 42
0.0000000001
 43
0.0000000001
 12
1.0
 22
0.0
 32
0.0
 13
1.0
 23
0.0
 33
0.0
 40
0.0
 40
0.0
 40
0.0
 40
0.0
 40
0.25
 40
0.25
 40
0.25
 40
0.25
 40
0.5
 40
0.5
 40
0.5
 40
0.5
 40
1.0
 40
1.0
 40
1.0
 40
1.0
 10
-81.329
 20
115.8436
 30
0.0
 10
-82.624
 20
115.1453
 30
0.0
 10
-83.6534
 20
113.7595
 30
0.0
 10
-84.0099
 20
111.0855
 30
0.0
 10
-84.0099
 20
111.0855
 30
0.0
 10
-84.5318
 20
113.3682
 30
0.0
 10
-85.3657
 20
114.9674
 30
0.0
 10
-86.5699
 20
115.8433
 30
0.0
 10
-86.5699
 20
115.8433
 30
0.0
 10
-86.5699
 20
115.8433
 30
0.0
 10
-81.329
 20
115.8436
 30
0.0
 10
-81.329
 20
115.8436
 30
0.0
  0
SPLINE
  5
60
330
1F
100
AcDbEntity
  8
layer 1
 62
   250
100
AcDbSpline
210
0.0
220
0.0
230
1.0
 70
    11
 71
     3
 72
    84
 73
    80
 74
     0
 42
0.0000000001
 43
0.0000000001
 12
1.0
 22
0.0
 32
0.0
 13
1.0
 23
0.0
 33
0.0
 40
0.0
 40
0.0
 40
0.0
 40
0.0
 40
0.0476190476190476
 40
0.0476190476190476
 40
0.0476190476190476
 40
0.0476190476190476
 40
0.0952380952380952
 40
0.0952380952380952
 40
0.0952380952380952
 40
0.0952380952380952
 40
0.1428571428571428
 40
0.1428571428571428
 40
0.1428571428571428
 40
0.1428571428571428
 40
0.1904761904761905
 40
0.1904761904761905
 40
0.1904761904761905
 40
0.1904761904761905
 40
0.2380952380952381
 40
0.2380952380952381
 40
0.2380952380952381
 40
0.2380952380952381
 40
0.2857142857142857
 40
0.2857142857142857
 40
0.2857142857142857
 40
0.2857142857142857
 40
0.3333333333333333
 40
0.3333333333333333
 40
0.3333333333333333
 40
0.3333333333333333
 40
0.3809523809523809
 40
0.3809523809523809
 40
0.3809523809523809
 40
0.3809523809523809
 40
0.4285714285714285
 40
0.4285714285714285
 40
0.4285714285714285
 40
0.4285714285714285
 40
0.4761904761904762
 40
0.4761904761904762
 40
0.4761904761904762
 40
0.4761904761904762
 40
0.5238095238095238
 40
0.5238095238095238
 40
0.5238095238095238
 40
0.5238095238095238
 40
0.5714285714285714
 40
0.5714285714285714
 40
0.5714285714285714
 40
0.5714285714285714
 40
0.6190476190476191
 40
0.6190476190476191
 40
0.6190476190476191
 40
0.6190476190476191
 40
0.6666666666666666
 40
0.6666666666666666
 40
0.6666666666666666
 40
0.6666666666666666
 40
0.7142857142857143
 40
0.7142857142857143
 40
0.7142857142857143
 40
0.7142857142857143
 40
0.7619047619047619
 40
0.7619047619047619
 40
0.7619047619047619
 40
0.7619047619047619
 40
0.8095238095238095
 40
0.8095238095238095
 40
0.8095238095238095
 40
0.8095238095238095
 40
0.8571428571428571
 40
0.8571428571428571
 40
0.8571428571428571
 40
0.8571428571428571
 40
0.9047619047619048
 40
0.9047619047619048
 40
0.9047619047619048
 40
0.9047619047619048
 40
1.0
 40
1.0
 40
1.0
 40
1.0
 10
-153.6782
 20
41.586
 30
0.0
 10
-152.974
 20
39.6269
 30
0.0
 10
-155.8842
 20
39.8199
 30
0.0
 10
-154.9435
 20
42.0459
 30
0.0
 10
-154.9435
 20
42.0459
 30
0.0
 10
-153.7268
 20
44.9241
 30
0.0
 10
-145.1278
 20
44.8132
 30
0.0
 10
-145.3994
 20
41.2408
 30
0.0
 10
-145.3994
 20
41.2408
 30
0.0
 10
-145.3129
 20
39.7221
 30
0.0
 10
-147.2564
 20
39.8427
 30
0.0
 10
-146.9372
 20
41.3846
 30
0.0
 10
-146.9372
 20
41.3846
 30
0.0
 10
-149.5188
 20
40.5231
 30
0.0
 10
-147.3112
 20
37.8394
 30
0.0
 10
-145.0404
 20
38.3854
 30
0.0
 10
-145.0404
 20
38.3854
 30
0.0
 10
-145.2446
 20
34.8754
 30
0.0
 10
-141.8257
 20
34.8356
 30
0.0
 10
-142.1797
 20
36.5262
 30
0.0
 10
-142.1797
 20
36.5262
 30
0.0
 10
-143.7454
 20
36.2155
 30
0.0
 10
-143.5931
 20
38.5314
 30
0.0
 10
-141.4899
 20
38.1361
 30
0.0
 10
-141.4899
 20
38.1361
 30
0.0
 10
-137.8809
 20
37.4579
 30
0.0
 10
-138.6487
 20
27.8505
 30
0.0
 10
-142.1797
 20
28.6017
 30
0.0
 10
-142.1797
 20
28.6017
 30
0.0
 10
-143.9521
 20
28.9789
 30
0.0
 10
-143.1139
 20
30.3792
 30
0.0
 10
-141.9498
 20
30.4318
 30
0.0
 10
-141.9498
 20
30.4318
 30
0.0
 10
-143.7883
 20
32.6443
 30
0.0
 10
-145.4808
 20
29.6508
 30
0.0
 10
-145.1262
 20
28.3621
 30
0.0
 10
-145.1262
 20
28.3621
 30
0.0
 10
-149.1964
 20
28.2324
 30
0.0
 10
-148.1207
 20
25.4206
 30
0.0
 10
-147.2392
 20
25.3723
 30
0.0
 10
-147.2392
 20
25.3723
 30
0.0
 10
-146.3082
 20
28.2249
 30
0.0
 10
-143.9459
 20
25.003
 30
0.0
 10
-146.6643
 20
23.3026
 30
0.0
 10
-146.6643
 20
23.3026
 30
0.0
 10
-148.807
 20
21.9622
 30
0.0
 10
-154.7815
 20
22.2181
 30
0.0
 10
-155.0487
 20
25.0898
 30
0.0
 10
-155.0487
 20
25.0898
 30
0.0
 10
-155.2072
 20
26.8005
 30
0.0
 10
-153.4248
 20
26.776
 30
0.0
 10
-153.4486
 20
25.4873
 30
0.0
 10
-153.4486
 20
25.4873
 30
0.0
 10
-151.523
 20
25.3576
 30
0.0
 10
-152.2131
 20
28.894
 30
0.0
 10
-155.4033
 20
28.2471
 30
0.0
 10
-155.4033
 20
28.2471
 30
0.0
 10
-154.9059
 20
30.9715
 30
0.0
 10
-157.4731
 20
32.2183
 30
0.0
 10
-158.623
 20
30.5038
 30
0.0
 10
-158.623
 20
30.5038
 30
0.0
 10
-156.1909
 20
29.8955
 30
0.0
 10
-157.4223
 20
27.5943
 30
0.0
 10
-159.6054
 20
29.0187
 30
0.0
 10
-159.6054
 20
29.0187
 30
0.0
 10
-161.9545
 20
30.5518
 30
0.0
 10
-162.047
 20
36.7606
 30
0.0
 10
-159.1979
 20
38.0211
 30
0.0
 10
-159.1979
 20
38.0211
 30
0.0
 10
-157.2196
 20
38.8964
 30
0.0
 10
-156.3923
 20
36.4764
 30
0.0
 10
-158.5801
 20
36.5457
 30
0.0
 10
-158.5801
 20
36.5457
 30
0.0
 10
-157.0796
 20
34.0336
 30
0.0
 10
-154.4886
 20
36.7518
 30
0.0
 10
-155.5183
 20
38.596
 30
0.0
 10
-155.5183
 20
38.596
 30
0.0
 10
-152.9887
 20
37.7915
 30
0.0
 10
-150.7126
 20
40.3928
 30
0.0
 10
-153.6782
 20
41.586
 30
0.0
  0
SPLINE
  5
61
330
1F
100
AcDbEntity
  8
layer 1
 62
   250
100
AcDbSpline
210
0.0
220
0.0
230
1.0
 70
    11
 71
     3
 72
    68
 73
    64
 74
     0
 42
0.0000000001
 43
0.0000000001
 12
1.0
 22
0.0
 32
0.0
 13
1.0
 23
0.0
 33
0.0
 40
0.0
 40
0.0
 40
0.0
 40
0.0
 40
0.0588235294117647
 40
0.0588235294117647
 40
0.0588235294117647
 40
0.0588235294117647
 40
0.1176470588235294
 40
0.1176470588235294
 40
0.1176470588235294
 40
0.1176470588235294
 40
0.1764705882352941
 40
0.1764705882352941
 40
0.1764705882352941
 40
0.1764705882352941
 40
0.2352941176470588
 40
0.2352941176470588
 40
0.2352941176470588
 40
0.2352941176470588
 40
0.2941176470588235
 40
0.2941176470588235
 40
0.2941176470588235
 40
0.2941176470588235
 40
0.3529411764705883
 40
0.3529411764705883
 40
0.3529411764705883
 40
0.3529411764705883
 40
0.4117647058823529
 40
0.4117647058823529
 40
0.4117647058823529
 40
0.4117647058823529
 40
0.4705882352941176
 40
0.4705882352941176
 40
0.4705882352941176
 40
0.4705882352941176
 40
0.5294117647058824
 40
0.5294117647058824
 40
0.5294117647058824
 40
0.5294117647058824
 40
0.5882352941176471
 40
0.5882352941176471
 40
0.5882352941176471
 40
0.5882352941176471
 40
0.6470588235294118
 40
0.6470588235294118
 40
0.6470588235294118
 40
0.6470588235294118
 40
0.7058823529411765
 40
0.7058823529411765
 40
0.7058823529411765
 40
0.7058823529411765
 40
0.7647058823529411
 40
0.7647058823529411
 40
0.7647058823529411
 40
0.7647058823529411
 40
0.8235294117647058
 40
0.8235294117647058
 40
0.8235294117647058
 40
0.8235294117647058
 40
0.8823529411764706
 40
0.8823529411764706
 40
0.8823529411764706
 40
0.8823529411764706
 40
1.0
 40
1.0
 40
1.0
 40
1.0
 10
-179.8808
 20
41.903
 30
0.0
 10
-179.1772
 20
39.9436
 30
0.0
 10
-182.0871
 20
40.1369
 30
0.0
 10
-181.1464
 20
42.3626
 30
0.0
 10
-181.1464
 20
42.3626
 30
0.0
 10
-179.9294
 20
45.2414
 30
0.0
 10
-171.3307
 20
45.1302
 30
0.0
 10
-171.6023
 20
41.5578
 30
0.0
 10
-171.6023
 20
41.5578
 30
0.0
 10
-171.5159
 20
40.0395
 30
0.0
 10
-173.4593
 20
40.1594
 30
0.0
 10
-173.1401
 20
41.7016
 30
0.0
 10
-173.1401
 20
41.7016
 30
0.0
 10
-175.7217
 20
40.8401
 30
0.0
 10
-173.5141
 20
38.1564
 30
0.0
 10
-171.243
 20
38.7025
 30
0.0
 10
-171.243
 20
38.7025
 30
0.0
 10
-171.4479
 20
35.1921
 30
0.0
 10
-168.0287
 20
35.1526
 30
0.0
 10
-168.3826
 20
36.8433
 30
0.0
 10
-168.3826
 20
36.8433
 30
0.0
 10
-169.948
 20
36.5322
 30
0.0
 10
-169.7957
 20
38.8484
 30
0.0
 10
-167.6925
 20
38.4531
 30
0.0
 10
-167.6925
 20
38.4531
 30
0.0
 10
-164.0835
 20
37.7749
 30
0.0
 10
-164.8513
 20
28.1672
 30
0.0
 10
-168.3826
 20
28.9187
 30
0.0
 10
-168.3826
 20
28.9187
 30
0.0
 10
-170.1551
 20
29.2959
 30
0.0
 10
-169.3168
 20
30.6962
 30
0.0
 10
-168.1527
 20
30.7488
 30
0.0
 10
-168.1527
 20
30.7488
 30
0.0
 10
-169.9909
 20
32.9614
 30
0.0
 10
-171.6838
 20
29.9678
 30
0.0
 10
-171.3292
 20
28.6791
 30
0.0
 10
-171.3292
 20
28.6791
 30
0.0
 10
-175.399
 20
28.5494
 30
0.0
 10
-174.3236
 20
25.7376
 30
0.0
 10
-173.4421
 20
25.6893
 30
0.0
 10
-173.4421
 20
25.6893
 30
0.0
 10
-172.5111
 20
28.5419
 30
0.0
 10
-170.1488
 20
25.32
 30
0.0
 10
-172.8673
 20
23.6196
 30
0.0
 10
-172.8673
 20
23.6196
 30
0.0
 10
-175.01
 20
22.2792
 30
0.0
 10
-180.9844
 20
22.5351
 30
0.0
 10
-181.2517
 20
25.4068
 30
0.0
 10
-181.2517
 20
25.4068
 30
0.0
 10
-181.4108
 20
27.1175
 30
0.0
 10
-179.6277
 20
27.0931
 30
0.0
 10
-179.6515
 20
25.8043
 30
0.0
 10
-179.6515
 20
25.8043
 30
0.0
 10
-177.7804
 20
25.6784
 30
0.0
 10
-178.3791
 20
29.0133
 30
0.0
 10
-181.3406
 20
28.6092
 30
0.0
 10
-181.3406
 20
28.6092
 30
0.0
 10
-181.3406
 20
28.6092
 30
0.0
 10
-181.3406
 20
38.8181
 30
0.0
 10
-181.3406
 20
38.8181
 30
0.0
 10
-181.3406
 20
38.8181
 30
0.0
 10
-178.9746
 20
38.3676
 30
0.0
 10
-177.0653
 20
40.77
 30
0.0
 10
-179.8808
 20
41.903
 30
0.0
  0
SPLINE
  5
62
330
1F
100
AcDbEntity
  8
layer 1
 62
   250
100
AcDbSpline
210
0.0
220
0.0
230
1.0
 70
    11
 71
     3
 72
    84
 73
    80
 74
     0
 42
0.0000000001
 43
0.0000000001
 12
1.0
 22
0.0
 32
0.0
 13
1.0
 23
0.0
 33
0.0
 40
0.0
 40
0.0
 40
0.0
 40
0.0
 40
0.0476190476190476
 40
0.0476190476190476
 40
0.0476190476190476
 40
0.0476190476190476
 40
0.0952380952380952
 40
0.0952380952380952
 40
0.0952380952380952
 40
0.0952380952380952
 40
0.1428571428571428
 40
0.1428571428571428
 40
0.1428571428571428
 40
0.1428571428571428
 40
0.1904761904761905
 40
0.1904761904761905
 40
0.1904761904761905
 40
0.1904761904761905
 40
0.2380952380952381
 40
0.2380952380952381
 40
0.2380952380952381
 40
0.2380952380952381
 40
0.2857142857142857
 40
0.2857142857142857
 40
0.2857142857142857
 40
0.2857142857142857
 40
0.3333333333333333
 40
0.3333333333333333
 40
0.3333333333333333
 40
0.3333333333333333
 40
0.3809523809523809
 40
0.3809523809523809
 40
0.3809523809523809
 40
0.3809523809523809
 40
0.4285714285714285
 40
0.4285714285714285
 40
0.4285714285714285
 40
0.4285714285714285
 40
0.4761904761904762
 40
0.4761904761904762
 40
0.4761904761904762
 40
0.4761904761904762
 40
0.5238095238095238
 40
0.5238095238095238
 40
0.5238095238095238
 40
0.5238095238095238
 40
0.5714285714285714
 40
0.5714285714285714
 40
0.5714285714285714
 40
0.5714285714285714
 40
0.6190476190476191
 40
0.6190476190476191
 40
0.6190476190476191
 40
0.6190476190476191
 40
0.6666666666666666
 40
0.6666666666666666
 40
0.6666666666666666
 40
0.6666666666666666
 40
0.7142857142857143
 40
0.7142857142857143
 40
0.7142857142857143
 40
0.7142857142857143
 40
0.7619047619047619
 40
0.7619047619047619
 40
0.7619047619047619
 40
0.7619047619047619
 40
0.8095238095238095
 40
0.8095238095238095
 40
0.8095238095238095
 40
0.8095238095238095
 40
0.8571428571428571
 40
0.8571428571428571
 40
0.8571428571428571
 40
0.8571428571428571
 40
0.9047619047619048
 40
0.9047619047619048
 40
0.9047619047619048
 40
0.9047619047619048
 40
1.0
 40
1.0
 40
1.0
 40
1.0
 10
-127.4058
 20
41.4388
 30
0.0
 10
-126.7022
 20
39.4793
 30
0.0
 10
-129.6121
 20
39.6729
 30
0.0
 10
-128.6713
 20
41.8986
 30
0.0
 10
-128.6713
 20
41.8986
 30
0.0
 10
-127.4543
 20
44.7769
 30
0.0
 10
-118.8557
 20
44.666
 30
0.0
 10
-119.1273
 20
41.0936
 30
0.0
 10
-119.1273
 20
41.0936
 30
0.0
 10
-119.0408
 20
39.5752
 30
0.0
 10
-120.9843
 20
39.6955
 30
0.0
 10
-120.665
 20
41.2374
 30
0.0
 10
-120.665
 20
41.2374
 30
0.0
 10
-123.2466
 20
40.3765
 30
0.0
 10
-121.0391
 20
37.6922
 30
0.0
 10
-118.7683
 20
38.2382
 30
0.0
 10
-118.7683
 20
38.2382
 30
0.0
 10
-118.9728
 20
34.7284
 30
0.0
 10
-115.5536
 20
34.6884
 30
0.0
 10
-115.9076
 20
36.379
 30
0.0
 10
-115.9076
 20
36.379
 30
0.0
 10
-117.4729
 20
36.0683
 30
0.0
 10
-117.321
 20
38.3842
 30
0.0
 10
-115.2178
 20
37.9889
 30
0.0
 10
-115.2178
 20
37.9889
 30
0.0
 10
-111.6084
 20
37.311
 30
0.0
 10
-112.3765
 20
27.7033
 30
0.0
 10
-115.9076
 20
28.4545
 30
0.0
 10
-115.9076
 20
28.4545
 30
0.0
 10
-117.68
 20
28.8316
 30
0.0
 10
-116.8417
 20
30.2319
 30
0.0
 10
-115.6776
 20
30.2849
 30
0.0
 10
-115.6776
 20
30.2849
 30
0.0
 10
-117.5158
 20
32.4974
 30
0.0
 10
-119.209
 20
29.5036
 30
0.0
 10
-118.8544
 20
28.2148
 30
0.0
 10
-118.8544
 20
28.2148
 30
0.0
 10
-122.924
 20
28.0855
 30
0.0
 10
-121.8485
 20
25.2733
 30
0.0
 10
-120.967
 20
25.2251
 30
0.0
 10
-120.967
 20
25.2251
 30
0.0
 10
-120.036
 20
28.0779
 30
0.0
 10
-117.6737
 20
24.8558
 30
0.0
 10
-120.3922
 20
23.1554
 30
0.0
 10
-120.3922
 20
23.1554
 30
0.0
 10
-122.5349
 20
21.8146
 30
0.0
 10
-128.5094
 20
22.0709
 30
0.0
 10
-128.7766
 20
24.9425
 30
0.0
 10
-128.7766
 20
24.9425
 30
0.0
 10
-128.9357
 20
26.6536
 30
0.0
 10
-127.1527
 20
26.6288
 30
0.0
 10
-127.1765
 20
25.3404
 30
0.0
 10
-127.1765
 20
25.3404
 30
0.0
 10
-125.2505
 20
25.2104
 30
0.0
 10
-125.941
 20
28.7468
 30
0.0
 10
-129.1312
 20
28.0999
 30
0.0
 10
-129.1312
 20
28.0999
 30
0.0
 10
-128.6334
 20
30.8246
 30
0.0
 10
-131.2012
 20
32.0714
 30
0.0
 10
-132.3509
 20
30.3566
 30
0.0
 10
-132.3509
 20
30.3566
 30
0.0
 10
-129.9184
 20
29.7486
 30
0.0
 10
-131.1502
 20
27.447
 30
0.0
 10
-133.3333
 20
28.8714
 30
0.0
 10
-133.3333
 20
28.8714
 30
0.0
 10
-135.6827
 20
30.4042
 30
0.0
 10
-135.7751
 20
36.6133
 30
0.0
 10
-132.926
 20
37.8739
 30
0.0
 10
-132.926
 20
37.8739
 30
0.0
 10
-130.9478
 20
38.7494
 30
0.0
 10
-130.1202
 20
36.3292
 30
0.0
 10
-132.308
 20
36.3984
 30
0.0
 10
-132.308
 20
36.3984
 30
0.0
 10
-130.8081
 20
33.8867
 30
0.0
 10
-128.2165
 20
36.6046
 30
0.0
 10
-129.2462
 20
38.449
 30
0.0
 10
-129.2462
 20
38.449
 30
0.0
 10
-126.7166
 20
37.644
 30
0.0
 10
-124.4405
 20
40.2456
 30
0.0
 10
-127.4058
 20
41.4388
 30
0.0
  0
SPLINE
  5
63
330
1F
100
AcDbEntity
  8
layer 1
 62
   250
100
AcDbSpline
210
0.0
220
0.0
230
1.0
 70
    11
 71
     3
 72
    84
 73
    80
 74
     0
 42
0.0000000001
 43
0.0000000001
 12
1.0
 22
0.0
 32
0.0
 13
1.0
 23
0.0
 33
0.0
 40
0.0
 40
0.0
 40
0.0
 40
0.0
 40
0.0476190476190476
 40
0.0476190476190476
 40
0.0476190476190476
 40
0.0476190476190476
 40
0.0952380952380952
 40
0.0952380952380952
 40
0.0952380952380952
 40
0.0952380952380952
 40
0.1428571428571428
 40
0.1428571428571428
 40
0.1428571428571428
 40
0.1428571428571428
 40
0.1904761904761905
 40
0.1904761904761905
 40
0.1904761904761905
 40
0.1904761904761905
 40
0.2380952380952381
 40
0.2380952380952381
 40
0.2380952380952381
 40
0.2380952380952381
 40
0.2857142857142857
 40
0.2857142857142857
 40
0.2857142857142857
 40
0.2857142857142857
 40
0.3333333333333333
 40
0.3333333333333333
 40
0.3333333333333333
 40
0.3333333333333333
 40
0.3809523809523809
 40
0.3809523809523809
 40
0.3809523809523809
 40
0.3809523809523809
 40
0.4285714285714285
 40
0.4285714285714285
 40
0.4285714285714285
 40
0.4285714285714285
 40
0.4761904761904762
 40
0.4761904761904762
 40
0.4761904761904762
 40
0.4761904761904762
 40
0.5238095238095238
 40
0.5238095238095238
 40
0.5238095238095238
 40
0.5238095238095238
 40
0.5714285714285714
 40
0.5714285714285714
 40
0.5714285714285714
 40
0.5714285714285714
 40
0.6190476190476191
 40
0.6190476190476191
 40
0.6190476190476191
 40
0.6190476190476191
 40
0.6666666666666666
 40
0.6666666666666666
 40
0.6666666666666666
 40
0.6666666666666666
 40
0.7142857142857143
 40
0.7142857142857143
 40
0.7142857142857143
 40
0.7142857142857143
 40
0.7619047619047619
 40
0.7619047619047619
 40
0.7619047619047619
 40
0.7619047619047619
 40
0.8095238095238095
 40
0.8095238095238095
 40
0.8095238095238095
 40
0.8095238095238095
 40
0.8571428571428571
 40
0.8571428571428571
 40
0.8571428571428571
 40
0.8571428571428571
 40
0.9047619047619048
 40
0.9047619047619048
 40
0.9047619047619048
 40
0.9047619047619048
 40
1.0
 40
1.0
 40
1.0
 40
1.0
 10
-100.9917
 20
41.3332
 30
0.0
 10
-100.2881
 20
39.3738
 30
0.0
 10
-103.1977
 20
39.5671
 30
0.0
 10
-102.2573
 20
41.7928
 30
0.0
 10
-102.2573
 20
41.7928
 30
0.0
 10
-101.0403
 20
44.6719
 30
0.0
 10
-92.4416
 20
44.5604
 30
0.0
 10
-92.7132
 20
40.988
 30
0.0
 10
-92.7132
 20
40.988
 30
0.0
 10
-92.6267
 20
39.4696
 30
0.0
 10
-94.5702
 20
39.5896
 30
0.0
 10
-94.251
 20
41.1318
 30
0.0
 10
-94.251
 20
41.1318
 30
0.0
 10
-96.8326
 20
40.2706
 30
0.0
 10
-94.625
 20
37.5863
 30
0.0
 10
-92.3539
 20
38.1326
 30
0.0
 10
-92.3539
 20
38.1326
 30
0.0
 10
-92.5588
 20
34.6223
 30
0.0
 10
-89.1395
 20
34.5828
 30
0.0
 10
-89.4935
 20
36.2734
 30
0.0
 10
-89.4935
 20
36.2734
 30
0.0
 10
-91.0589
 20
35.9627
 30
0.0
 10
-90.9066
 20
38.2786
 30
0.0
 10
-88.8034
 20
37.8833
 30
0.0
 10
-88.8034
 20
37.8833
 30
0.0
 10
-85.1943
 20
37.2051
 30
0.0
 10
-85.9621
 20
27.5974
 30
0.0
 10
-89.4935
 20
28.3489
 30
0.0
 10
-89.4935
 20
28.3489
 30
0.0
 10
-91.2659
 20
28.7264
 30
0.0
 10
-90.4273
 20
30.1264
 30
0.0
 10
-89.2636
 20
30.179
 30
0.0
 10
-89.2636
 20
30.179
 30
0.0
 10
-91.1018
 20
32.3915
 30
0.0
 10
-92.7946
 20
29.398
 30
0.0
 10
-92.44
 20
28.1093
 30
0.0
 10
-92.44
 20
28.1093
 30
0.0
 10
-96.5105
 20
27.9796
 30
0.0
 10
-95.4342
 20
25.1678
 30
0.0
 10
-94.553
 20
25.1195
 30
0.0
 10
-94.553
 20
25.1195
 30
0.0
 10
-93.6217
 20
27.9724
 30
0.0
 10
-91.2594
 20
24.7502
 30
0.0
 10
-93.9781
 20
23.0498
 30
0.0
 10
-93.9781
 20
23.0498
 30
0.0
 10
-96.1208
 20
21.7091
 30
0.0
 10
-102.0953
 20
21.9653
 30
0.0
 10
-102.3625
 20
24.837
 30
0.0
 10
-102.3625
 20
24.837
 30
0.0
 10
-102.5217
 20
26.5477
 30
0.0
 10
-100.7386
 20
26.5232
 30
0.0
 10
-100.7624
 20
25.2345
 30
0.0
 10
-100.7624
 20
25.2345
 30
0.0
 10
-98.8365
 20
25.1051
 30
0.0
 10
-99.5269
 20
28.6412
 30
0.0
 10
-102.7171
 20
27.9943
 30
0.0
 10
-102.7171
 20
27.9943
 30
0.0
 10
-102.2194
 20
30.719
 30
0.0
 10
-104.7869
 20
31.9655
 30
0.0
 10
-105.9368
 20
30.251
 30
0.0
 10
-105.9368
 20
30.251
 30
0.0
 10
-103.5044
 20
29.643
 30
0.0
 10
-104.7361
 20
27.3415
 30
0.0
 10
-106.9189
 20
28.7659
 30
0.0
 10
-106.9189
 20
28.7659
 30
0.0
 10
-109.268
 20
30.2986
 30
0.0
 10
-109.3608
 20
36.5078
 30
0.0
 10
-106.5117
 20
37.7683
 30
0.0
 10
-106.5117
 20
37.7683
 30
0.0
 10
-104.5337
 20
38.6433
 30
0.0
 10
-103.7058
 20
36.2233
 30
0.0
 10
-105.8936
 20
36.2926
 30
0.0
 10
-105.8936
 20
36.2926
 30
0.0
 10
-104.394
 20
33.7812
 30
0.0
 10
-101.8024
 20
36.499
 30
0.0
 10
-102.8321
 20
38.3432
 30
0.0
 10
-102.8321
 20
38.3432
 30
0.0
 10
-100.3019
 20
37.5384
 30
0.0
 10
-98.0264
 20
40.14
 30
0.0
 10
-100.9917
 20
41.3332
 30
0.0
  0
SPLINE
  5
64
330
1F
100
AcDbEntity
  8
layer 1
 62
   250
100
AcDbSpline
210
0.0
220
0.0
230
1.0
 70
    11
 71
     3
 72
    76
 73
    72
 74
     0
 42
0.0000000001
 43
0.0000000001
 12
1.0
 22
0.0
 32
0.0
 13
1.0
 23
0.0
 33
0.0
 40
0.0
 40
0.0
 40
0.0
 40
0.0
 40
0.0526315789473684
 40
0.0526315789473684
 40
0.0526315789473684
 40
0.0526315789473684
 40
0.1052631578947368
 40
0.1052631578947368
 40
0.1052631578947368
 40
0.1052631578947368
 40
0.1578947368421053
 40
0.1578947368421053
 40
0.1578947368421053
 40
0.1578947368421053
 40
0.2105263157894737
 40
0.2105263157894737
 40
0.2105263157894737
 40
0.2105263157894737
 40
0.2631578947368421
 40
0.2631578947368421
 40
0.2631578947368421
 40
0.2631578947368421
 40
0.3157894736842105
 40
0.3157894736842105
 40
0.3157894736842105
 40
0.3157894736842105
 40
0.3684210526315789
 40
0.3684210526315789
 40
0.3684210526315789
 40
0.3684210526315789
 40
0.4210526315789473
 40
0.4210526315789473
 40
0.4210526315789473
 40
0.4210526315789473
 40
0.4736842105263158
 40
0.4736842105263158
 40
0.4736842105263158
 40
0.4736842105263158
 40
0.5263157894736842
 40
0.5263157894736842
 40
0.5263157894736842
 40
0.5263157894736842
 40
0.5789473684210527
 40
0.5789473684210527
 40
0.5789473684210527
 40
0.5789473684210527
 40
0.631578947368421
 40
0.631578947368421
 40
0.631578947368421
 40
0.631578947368421
 40
0.6842105263157895
 40
0.6842105263157895
 40
0.6842105263157895
 40
0.6842105263157895
 40
0.7368421052631579
 40
0.7368421052631579
 40
0.7368421052631579
 40
0.7368421052631579
 40
0.7894736842105263
 40
0.7894736842105263
 40
0.7894736842105263
 40
0.7894736842105263
 40
0.8421052631578947
 40
0.8421052631578947
 40
0.8421052631578947
 40
0.8421052631578947
 40
0.8947368421052632
 40
0.8947368421052632
 40
0.8947368421052632
 40
0.8947368421052632
 40
1.0
 40
1.0
 40
1.0
 40
1.0
 10
-74.6835
 20
41.2273
 30
0.0
 10
-73.979
 20
39.2682
 30
0.0
 10
-76.8892
 20
39.4615
 30
0.0
 10
-75.9485
 20
41.6872
 30
0.0
 10
-75.9485
 20
41.6872
 30
0.0
 10
-74.7312
 20
44.5654
 30
0.0
 10
-66.1331
 20
44.4548
 30
0.0
 10
-66.4047
 20
40.8824
 30
0.0
 10
-66.4047
 20
40.8824
 30
0.0
 10
-66.3183
 20
39.3638
 30
0.0
 10
-68.2614
 20
39.484
 30
0.0
 10
-67.9425
 20
41.0262
 30
0.0
 10
-67.9425
 20
41.0262
 30
0.0
 10
-70.5241
 20
40.1651
 30
0.0
 10
-68.3162
 20
37.4807
 30
0.0
 10
-66.0454
 20
38.0268
 30
0.0
 10
-66.0454
 20
38.0268
 30
0.0
 10
-66.1131
 20
36.8677
 30
0.0
 10
-65.786
 20
36.0877
 30
0.0
 10
-65.3296
 20
35.6228
 30
0.0
 10
-65.3296
 20
35.6228
 30
0.0
 10
-65.3296
 20
35.6228
 30
0.0
 10
-65.3293
 20
30.3892
 30
0.0
 10
-65.3293
 20
30.3892
 30
0.0
 10
-65.3293
 20
30.3892
 30
0.0
 10
-65.9608
 20
29.7617
 30
0.0
 10
-66.3126
 20
28.6606
 30
0.0
 10
-66.1316
 20
28.0037
 30
0.0
 10
-66.1316
 20
28.0037
 30
0.0
 10
-70.2014
 20
27.874
 30
0.0
 10
-69.1257
 20
25.0622
 30
0.0
 10
-68.2445
 20
25.014
 30
0.0
 10
-68.2445
 20
25.014
 30
0.0
 10
-67.3135
 20
27.8665
 30
0.0
 10
-64.9509
 20
24.6446
 30
0.0
 10
-67.6693
 20
22.9442
 30
0.0
 10
-67.6693
 20
22.9442
 30
0.0
 10
-69.8117
 20
21.6038
 30
0.0
 10
-75.7865
 20
21.8594
 30
0.0
 10
-76.0541
 20
24.7314
 30
0.0
 10
-76.0541
 20
24.7314
 30
0.0
 10
-76.2132
 20
26.4418
 30
0.0
 10
-74.4301
 20
26.4177
 30
0.0
 10
-74.4539
 20
25.1289
 30
0.0
 10
-74.4539
 20
25.1289
 30
0.0
 10
-72.5283
 20
24.9992
 30
0.0
 10
-73.2184
 20
28.5356
 30
0.0
 10
-76.4087
 20
27.8887
 30
0.0
 10
-76.4087
 20
27.8887
 30
0.0
 10
-75.9112
 20
30.6132
 30
0.0
 10
-78.4784
 20
31.8599
 30
0.0
 10
-79.6283
 20
30.1455
 30
0.0
 10
-79.6283
 20
30.1455
 30
0.0
 10
-77.1953
 20
29.5371
 30
0.0
 10
-78.4276
 20
27.2356
 30
0.0
 10
-80.6104
 20
28.66
 30
0.0
 10
-80.6104
 20
28.66
 30
0.0
 10
-82.9595
 20
30.1931
 30
0.0
 10
-83.0523
 20
36.4019
 30
0.0
 10
-80.2032
 20
37.6628
 30
0.0
 10
-80.2032
 20
37.6628
 30
0.0
 10
-78.2253
 20
38.538
 30
0.0
 10
-77.3973
 20
36.1178
 30
0.0
 10
-79.5851
 20
36.187
 30
0.0
 10
-79.5851
 20
36.187
 30
0.0
 10
-78.0855
 20
33.675
 30
0.0
 10
-75.4936
 20
36.3931
 30
0.0
 10
-76.5236
 20
38.2376
 30
0.0
 10
-76.5236
 20
38.2376
 30
0.0
 10
-73.9934
 20
37.4328
 30
0.0
 10
-71.7179
 20
40.0344
 30
0.0
 10
-74.6835
 20
41.2273
 30
0.0
  0
SPLINE
  5
65
330
1F
100
AcDbEntity
  8
layer 1
 62
   250
100
AcDbSpline
210
0.0
220
0.0
230
1.0
 70
    11
 71
     3
 72
    36
 73
    32
 74
     0
 42
0.0000000001
 43
0.0000000001
 12
1.0
 22
0.0
 32
0.0
 13
1.0
 23
0.0
 33
0.0
 40
0.0
 40
0.0
 40
0.0
 40
0.0
 40
0.1111111111111111
 40
0.1111111111111111
 40
0.1111111111111111
 40
0.1111111111111111
 40
0.2222222222222222
 40
0.2222222222222222
 40
0.2222222222222222
 40
0.2222222222222222
 40
0.3333333333333333
 40
0.3333333333333333
 40
0.3333333333333333
 40
0.3333333333333333
 40
0.4444444444444444
 40
0.4444444444444444
 40
0.4444444444444444
 40
0.4444444444444444
 40
0.5555555555555556
 40
0.5555555555555556
 40
0.5555555555555556
 40
0.5555555555555556
 40
0.6666666666666666
 40
0.6666666666666666
 40
0.6666666666666666
 40
0.6666666666666666
 40
0.7777777777777778
 40
0.7777777777777778
 40
0.7777777777777778
 40
0.7777777777777778
 40
1.0
 40
1.0
 40
1.0
 40
1.0
 10
-137.4078
 20
58.4165
 30
0.0
 10
-137.2929
 20
54.8522
 30
0.0
 10
-134.7633
 20
51.1721
 30
0.0
 10
-131.0837
 20
52.5517
 30
0.0
 10
-131.0837
 20
52.5517
 30
0.0
 10
-131.7735
 20
50.1371
 30
0.0
 10
-130.1637
 20
46.3425
 30
0.0
 10
-125.3342
 20
46.3425
 30
0.0
 10
-125.3342
 20
46.3425
 30
0.0
 10
-126.6674
 20
45.8131
 30
0.0
 10
-132.4637
 20
44.8477
 30
0.0
 10
-130.7388
 20
40.1331
 30
0.0
 10
-130.7388
 20
40.1331
 30
0.0
 10
-133.5052
 20
40.2515
 30
0.0
 10
-136.718
 20
39.9032
 30
0.0
 10
-137.4081
 20
34.7288
 30
0.0
 10
-137.4081
 20
34.7288
 30
0.0
 10
-138.3708
 20
38.9396
 30
0.0
 10
-140.3976
 20
40.8229
 30
0.0
 10
-143.8475
 20
40.1331
 30
0.0
 10
-143.8475
 20
40.1331
 30
0.0
 10
-143.6173
 20
41.2834
 30
0.0
 10
-142.2377
 20
44.8477
 30
0.0
 10
-149.5968
 20
46.4575
 30
0.0
 10
-149.5968
 20
46.4575
 30
0.0
 10
-144.4223
 20
46.5728
 30
0.0
 10
-143.0424
 20
49.9071
 30
0.0
 10
-143.7322
 20
52.4367
 30
0.0
 10
-143.7322
 20
52.4367
 30
0.0
 10
-140.6278
 20
51.8622
 30
0.0
 10
-137.753
 20
53.2418
 30
0.0
 10
-137.4078
 20
58.4165
 30
0.0
  0
SPLINE
  5
66
330
1F
100
AcDbEntity
  8
layer 1
 62
   250
100
AcDbSpline
210
0.0
220
0.0
230
1.0
 70
    11
 71
     3
 72
    36
 73
    32
 74
     0
 42
0.0000000001
 43
0.0000000001
 12
1.0
 22
0.0
 32
0.0
 13
1.0
 23
0.0
 33
0.0
 40
0.0
 40
0.0
 40
0.0
 40
0.0
 40
0.1111111111111111
 40
0.1111111111111111
 40
0.1111111111111111
 40
0.1111111111111111
 40
0.2222222222222222
 40
0.2222222222222222
 40
0.2222222222222222
 40
0.2222222222222222
 40
0.3333333333333333
 40
0.3333333333333333
 40
0.3333333333333333
 40
0.3333333333333333
 40
0.4444444444444444
 40
0.4444444444444444
 40
0.4444444444444444
 40
0.4444444444444444
 40
0.5555555555555556
 40
0.5555555555555556
 40
0.5555555555555556
 40
0.5555555555555556
 40
0.6666666666666666
 40
0.6666666666666666
 40
0.6666666666666666
 40
0.6666666666666666
 40
0.7777777777777778
 40
0.7777777777777778
 40
0.7777777777777778
 40
0.7777777777777778
 40
1.0
 40
1.0
 40
1.0
 40
1.0
 10
-163.6104
 20
58.5224
 30
0.0
 10
-163.4955
 20
54.9572
 30
0.0
 10
-160.9662
 20
51.2776
 30
0.0
 10
-157.2867
 20
52.6576
 30
0.0
 10
-157.2867
 20
52.6576
 30
0.0
 10
-157.9761
 20
50.2429
 30
0.0
 10
-156.3666
 20
46.4481
 30
0.0
 10
-151.5371
 20
46.4481
 30
0.0
 10
-151.5371
 20
46.4481
 30
0.0
 10
-152.87
 20
45.9193
 30
0.0
 10
-158.6663
 20
44.9532
 30
0.0
 10
-156.9415
 20
40.2387
 30
0.0
 10
-156.9415
 20
40.2387
 30
0.0
 10
-159.7085
 20
40.3571
 30
0.0
 10
-162.921
 20
40.0088
 30
0.0
 10
-163.6107
 20
34.8343
 30
0.0
 10
-163.6107
 20
34.8343
 30
0.0
 10
-164.5734
 20
39.0449
 30
0.0
 10
-166.6005
 20
40.9288
 30
0.0
 10
-170.0501
 20
40.2387
 30
0.0
 10
-170.0501
 20
40.2387
 30
0.0
 10
-169.8199
 20
41.389
 30
0.0
 10
-168.4403
 20
44.9532
 30
0.0
 10
-175.7997
 20
46.5631
 30
0.0
 10
-175.7997
 20
46.5631
 30
0.0
 10
-170.6249
 20
46.6784
 30
0.0
 10
-169.2454
 20
50.0127
 30
0.0
 10
-169.9351
 20
52.5426
 30
0.0
 10
-169.9351
 20
52.5426
 30
0.0
 10
-166.8298
 20
51.9678
 30
0.0
 10
-163.956
 20
53.3473
 30
0.0
 10
-163.6104
 20
58.5224
 30
0.0
  0
SPLINE
  5
67
330
1F
100
AcDbEntity
  8
layer 1
 62
   250
100
AcDbSpline
210
0.0
220
0.0
230
1.0
 70
    11
 71
     3
 72
    16
 73
    12
 74
     0
 42
0.0000000001
 43
0.0000000001
 12
1.0
 22
0.0
 32
0.0
 13
1.0
 23
0.0
 33
0.0
 40
0.0
 40
0.0
 40
0.0
 40
0.0
 40
0.25
 40
0.25
 40
0.25
 40
0.25
 40
0.5
 40
0.5
 40
0.5
 40
0.5
 40
1.0
 40
1.0
 40
1.0
 40
1.0
 10
-181.6282
 20
47.5511
 30
0.0
 10
-180.7119
 20
46.944
 30
0.0
 10
-179.4965
 20
46.5537
 30
0.0
 10
-177.9515
 20
46.5537
 30
0.0
 10
-177.9515
 20
46.5537
 30
0.0
 10
-178.5905
 20
46.2999
 30
0.0
 10
-180.2577
 20
45.9463
 30
0.0
 10
-181.6285
 20
45.1258
 30
0.0
 10
-181.6285
 20
45.1258
 30
0.0
 10
-181.6285
 20
45.1258
 30
0.0
 10
-181.6282
 20
47.5511
 30
0.0
 10
-181.6282
 20
47.5511
 30
0.0
  0
SPLINE
  5
68
330
1F
100
AcDbEntity
  8
layer 1
 62
   250
100
AcDbSpline
210
0.0
220
0.0
230
1.0
 70
    11
 71
     3
 72
    36
 73
    32
 74
     0
 42
0.0000000001
 43
0.0000000001
 12
1.0
 22
0.0
 32
0.0
 13
1.0
 23
0.0
 33
0.0
 40
0.0
 40
0.0
 40
0.0
 40
0.0
 40
0.1111111111111111
 40
0.1111111111111111
 40
0.1111111111111111
 40
0.1111111111111111
 40
0.2222222222222222
 40
0.2222222222222222
 40
0.2222222222222222
 40
0.2222222222222222
 40
0.3333333333333333
 40
0.3333333333333333
 40
0.3333333333333333
 40
0.3333333333333333
 40
0.4444444444444444
 40
0.4444444444444444
 40
0.4444444444444444
 40
0.4444444444444444
 40
0.5555555555555556
 40
0.5555555555555556
 40
0.5555555555555556
 40
0.5555555555555556
 40
0.6666666666666666
 40
0.6666666666666666
 40
0.6666666666666666
 40
0.6666666666666666
 40
0.7777777777777778
 40
0.7777777777777778
 40
0.7777777777777778
 40
0.7777777777777778
 40
1.0
 40
1.0
 40
1.0
 40
1.0
 10
-110.9192
 20
58.1405
 30
0.0
 10
-110.8043
 20
54.5763
 30
0.0
 10
-108.2747
 20
50.8958
 30
0.0
 10
-104.5951
 20
52.2757
 30
0.0
 10
-104.5951
 20
52.2757
 30
0.0
 10
-105.2846
 20
49.8611
 30
0.0
 10
-103.6751
 20
46.0663
 30
0.0
 10
-98.8456
 20
46.0663
 30
0.0
 10
-98.8456
 20
46.0663
 30
0.0
 10
-100.1788
 20
45.5372
 30
0.0
 10
-105.975
 20
44.5717
 30
0.0
 10
-104.2502
 20
39.8571
 30
0.0
 10
-104.2502
 20
39.8571
 30
0.0
 10
-107.0173
 20
39.9755
 30
0.0
 10
-110.2294
 20
39.6272
 30
0.0
 10
-110.9195
 20
34.4525
 30
0.0
 10
-110.9195
 20
34.4525
 30
0.0
 10
-111.8822
 20
38.6636
 30
0.0
 10
-113.9093
 20
40.5469
 30
0.0
 10
-117.3589
 20
39.8571
 30
0.0
 10
-117.3589
 20
39.8571
 30
0.0
 10
-117.1287
 20
41.0068
 30
0.0
 10
-115.7491
 20
44.5717
 30
0.0
 10
-123.1082
 20
46.1815
 30
0.0
 10
-123.1082
 20
46.1815
 30
0.0
 10
-117.8279
 20
46.7194
 30
0.0
 10
-116.515
 20
50.3244
 30
0.0
 10
-117.2439
 20
52.1607
 30
0.0
 10
-117.2439
 20
52.1607
 30
0.0
 10
-114.22
 20
51.7187
 30
0.0
 10
-111.37
 20
53.1769
 30
0.0
 10
-110.9192
 20
58.1405
 30
0.0
  0
SPLINE
  5
69
330
1F
100
AcDbEntity
  8
layer 1
 62
   250
100
AcDbSpline
210
0.0
220
0.0
230
1.0
 70
    11
 71
     3
 72
    36
 73
    32
 74
     0
 42
0.0000000001
 43
0.0000000001
 12
1.0
 22
0.0
 32
0.0
 13
1.0
 23
0.0
 33
0.0
 40
0.0
 40
0.0
 40
0.0
 40
0.0
 40
0.1111111111111111
 40
0.1111111111111111
 40
0.1111111111111111
 40
0.1111111111111111
 40
0.2222222222222222
 40
0.2222222222222222
 40
0.2222222222222222
 40
0.2222222222222222
 40
0.3333333333333333
 40
0.3333333333333333
 40
0.3333333333333333
 40
0.3333333333333333
 40
0.4444444444444444
 40
0.4444444444444444
 40
0.4444444444444444
 40
0.4444444444444444
 40
0.5555555555555556
 40
0.5555555555555556
 40
0.5555555555555556
 40
0.5555555555555556
 40
0.6666666666666666
 40
0.6666666666666666
 40
0.6666666666666666
 40
0.6666666666666666
 40
0.7777777777777778
 40
0.7777777777777778
 40
0.7777777777777778
 40
0.7777777777777778
 40
1.0
 40
1.0
 40
1.0
 40
1.0
 10
-84.5052
 20
58.035
 30
0.0
 10
-84.3902
 20
54.4701
 30
0.0
 10
-81.8606
 20
50.7902
 30
0.0
 10
-78.1811
 20
52.1701
 30
0.0
 10
-78.1811
 20
52.1701
 30
0.0
 10
-78.8706
 20
49.7555
 30
0.0
 10
-77.261
 20
45.9607
 30
0.0
 10
-72.4315
 20
45.9607
 30
0.0
 10
-72.4315
 20
45.9607
 30
0.0
 10
-73.7648
 20
45.4322
 30
0.0
 10
-79.5607
 20
44.4658
 30
0.0
 10
-77.8359
 20
39.7513
 30
0.0
 10
-77.8359
 20
39.7513
 30
0.0
 10
-80.6032
 20
39.87
 30
0.0
 10
-83.8154
 20
39.5213
 30
0.0
 10
-84.5052
 20
34.3469
 30
0.0
 10
-84.5052
 20
34.3469
 30
0.0
 10
-85.4678
 20
38.5577
 30
0.0
 10
-87.4949
 20
40.4414
 30
0.0
 10
-90.9445
 20
39.7513
 30
0.0
 10
-90.9445
 20
39.7513
 30
0.0
 10
-90.7146
 20
40.9019
 30
0.0
 10
-89.3347
 20
44.4658
 30
0.0
 10
-96.6941
 20
46.0757
 30
0.0
 10
-96.6941
 20
46.0757
 30
0.0
 10
-91.4132
 20
46.6132
 30
0.0
 10
-90.1009
 20
50.2185
 30
0.0
 10
-90.8296
 20
52.0552
 30
0.0
 10
-90.8296
 20
52.0552
 30
0.0
 10
-87.806
 20
51.6122
 30
0.0
 10
-84.956
 20
53.0714
 30
0.0
 10
-84.5052
 20
58.035
 30
0.0
  0
SPLINE
  5
6A
330
1F
100
AcDbEntity
  8
layer 1
 62
   250
100
AcDbSpline
210
0.0
220
0.0
230
1.0
 70
    11
 71
     3
 72
    16
 73
    12
 74
     0
 42
0.0000000001
 43
0.0000000001
 12
1.0
 22
0.0
 32
0.0
 13
1.0
 23
0.0
 33
0.0
 40
0.0
 40
0.0
 40
0.0
 40
0.0
 40
0.25
 40
0.25
 40
0.25
 40
0.25
 40
0.5
 40
0.5
 40
0.5
 40
0.5
 40
1.0
 40
1.0
 40
1.0
 40
1.0
 10
-65.6169
 20
43.9198
 30
0.0
 10
-66.4862
 20
44.7509
 30
0.0
 10
-67.9801
 20
45.5265
 30
0.0
 10
-70.4912
 20
46.0757
 30
0.0
 10
-70.4912
 20
46.0757
 30
0.0
 10
-68.1314
 20
46.3159
 30
0.0
 10
-66.5645
 20
47.1696
 30
0.0
 10
-65.6175
 20
48.2033
 30
0.0
 10
-65.6175
 20
48.2033
 30
0.0
 10
-65.6175
 20
48.2033
 30
0.0
 10
-65.6169
 20
43.9198
 30
0.0
 10
-65.6169
 20
43.9198
 30
0.0
  0
SPLINE
  5
6B
330
1F
100
AcDbEntity
  8
layer 1
 62
   250
100
AcDbSpline
210
0.0
220
0.0
230
1.0
 70
    11
 71
     3
 72
    36
 73
    32
 74
     0
 42
0.0000000001
 43
0.0000000001
 12
1.0
 22
0.0
 32
0.0
 13
1.0
 23
0.0
 33
0.0
 40
0.0
 40
0.0
 40
0.0
 40
0.0
 40
0.1111111111111111
 40
0.1111111111111111
 40
0.1111111111111111
 40
0.1111111111111111
 40
0.2222222222222222
 40
0.2222222222222222
 40
0.2222222222222222
 40
0.2222222222222222
 40
0.3333333333333333
 40
0.3333333333333333
 40
0.3333333333333333
 40
0.3333333333333333
 40
0.4444444444444444
 40
0.4444444444444444
 40
0.4444444444444444
 40
0.4444444444444444
 40
0.5555555555555556
 40
0.5555555555555556
 40
0.5555555555555556
 40
0.5555555555555556
 40
0.6666666666666666
 40
0.6666666666666666
 40
0.6666666666666666
 40
0.6666666666666666
 40
0.7777777777777778
 40
0.7777777777777778
 40
0.7777777777777778
 40
0.7777777777777778
 40
1.0
 40
1.0
 40
1.0
 40
1.0
 10
-137.4824
 20
32.6998
 30
0.0
 10
-137.3674
 20
29.1349
 30
0.0
 10
-134.8375
 20
25.4553
 30
0.0
 10
-131.158
 20
26.8349
 30
0.0
 10
-131.158
 20
26.8349
 30
0.0
 10
-131.8481
 20
24.4206
 30
0.0
 10
-130.2383
 20
20.6258
 30
0.0
 10
-125.4087
 20
20.6258
 30
0.0
 10
-125.4087
 20
20.6258
 30
0.0
 10
-126.7413
 20
20.0967
 30
0.0
 10
-132.5379
 20
19.1309
 30
0.0
 10
-130.8131
 20
14.4164
 30
0.0
 10
-130.8131
 20
14.4164
 30
0.0
 10
-133.5798
 20
14.5348
 30
0.0
 10
-136.7926
 20
14.1864
 30
0.0
 10
-137.4824
 20
9.012
 30
0.0
 10
-137.4824
 20
9.012
 30
0.0
 10
-138.4453
 20
13.2225
 30
0.0
 10
-140.4721
 20
15.1062
 30
0.0
 10
-143.9218
 20
14.4164
 30
0.0
 10
-143.9218
 20
14.4164
 30
0.0
 10
-143.6918
 20
15.5664
 30
0.0
 10
-142.3119
 20
19.1309
 30
0.0
 10
-149.671
 20
20.7408
 30
0.0
 10
-149.671
 20
20.7408
 30
0.0
 10
-144.4963
 20
20.8557
 30
0.0
 10
-143.1167
 20
24.1904
 30
0.0
 10
-143.8068
 20
26.72
 30
0.0
 10
-143.8068
 20
26.72
 30
0.0
 10
-140.7018
 20
26.1451
 30
0.0
 10
-137.8273
 20
27.525
 30
0.0
 10
-137.4824
 20
32.6998
 30
0.0
  0
SPLINE
  5
6C
330
1F
100
AcDbEntity
  8
layer 1
 62
   250
100
AcDbSpline
210
0.0
220
0.0
230
1.0
 70
    11
 71
     3
 72
    36
 73
    32
 74
     0
 42
0.0000000001
 43
0.0000000001
 12
1.0
 22
0.0
 32
0.0
 13
1.0
 23
0.0
 33
0.0
 40
0.0
 40
0.0
 40
0.0
 40
0.0
 40
0.1111111111111111
 40
0.1111111111111111
 40
0.1111111111111111
 40
0.1111111111111111
 40
0.2222222222222222
 40
0.2222222222222222
 40
0.2222222222222222
 40
0.2222222222222222
 40
0.3333333333333333
 40
0.3333333333333333
 40
0.3333333333333333
 40
0.3333333333333333
 40
0.4444444444444444
 40
0.4444444444444444
 40
0.4444444444444444
 40
0.4444444444444444
 40
0.5555555555555556
 40
0.5555555555555556
 40
0.5555555555555556
 40
0.5555555555555556
 40
0.6666666666666666
 40
0.6666666666666666
 40
0.6666666666666666
 40
0.6666666666666666
 40
0.7777777777777778
 40
0.7777777777777778
 40
0.7777777777777778
 40
0.7777777777777778
 40
1.0
 40
1.0
 40
1.0
 40
1.0
 10
-163.685
 20
32.8053
 30
0.0
 10
-163.57
 20
29.2408
 30
0.0
 10
-161.0405
 20
25.5609
 30
0.0
 10
-157.3609
 20
26.9408
 30
0.0
 10
-157.3609
 20
26.9408
 30
0.0
 10
-158.0507
 20
24.5259
 30
0.0
 10
-156.4409
 20
20.7314
 30
0.0
 10
-151.6113
 20
20.7314
 30
0.0
 10
-151.6113
 20
20.7314
 30
0.0
 10
-152.9439
 20
20.2026
 30
0.0
 10
-158.7408
 20
19.2365
 30
0.0
 10
-157.016
 20
14.5219
 30
0.0
 10
-157.016
 20
14.5219
 30
0.0
 10
-159.7824
 20
14.6407
 30
0.0
 10
-162.9952
 20
14.292
 30
0.0
 10
-163.6853
 20
9.1176
 30
0.0
 10
-163.6853
 20
9.1176
 30
0.0
 10
-164.648
 20
13.3284
 30
0.0
 10
-166.6751
 20
15.2121
 30
0.0
 10
-170.1247
 20
14.5219
 30
0.0
 10
-170.1247
 20
14.5219
 30
0.0
 10
-169.8944
 20
15.6722
 30
0.0
 10
-168.5148
 20
19.2365
 30
0.0
 10
-175.8739
 20
20.8463
 30
0.0
 10
-175.8739
 20
20.8463
 30
0.0
 10
-170.6989
 20
20.9616
 30
0.0
 10
-169.3196
 20
24.296
 30
0.0
 10
-170.0097
 20
26.8258
 30
0.0
 10
-170.0097
 20
26.8258
 30
0.0
 10
-166.9044
 20
26.251
 30
0.0
 10
-164.0302
 20
27.6306
 30
0.0
 10
-163.685
 20
32.8053
 30
0.0
  0
SPLINE
  5
6D
330
1F
100
AcDbEntity
  8
layer 1
 62
   250
100
AcDbSpline
210
0.0
220
0.0
230
1.0
 70
    11
 71
     3
 72
    16
 73
    12
 74
     0
 42
0.0000000001
 43
0.0000000001
 12
1.0
 22
0.0
 32
0.0
 13
1.0
 23
0.0
 33
0.0
 40
0.0
 40
0.0
 40
0.0
 40
0.0
 40
0.25
 40
0.25
 40
0.25
 40
0.25
 40
0.5
 40
0.5
 40
0.5
 40
0.5
 40
1.0
 40
1.0
 40
1.0
 40
1.0
 10
-181.7024
 20
21.8347
 30
0.0
 10
-180.7868
 20
21.227
 30
0.0
 10
-179.5707
 20
20.8369
 30
0.0
 10
-178.0257
 20
20.8369
 30
0.0
 10
-178.0257
 20
20.8369
 30
0.0
 10
-178.6651
 20
20.5832
 30
0.0
 10
-180.3319
 20
20.2295
 30
0.0
 10
-181.7027
 20
19.4091
 30
0.0
 10
-181.7027
 20
19.4091
 30
0.0
 10
-181.7027
 20
19.4091
 30
0.0
 10
-181.7024
 20
21.8347
 30
0.0
 10
-181.7024
 20
21.8347
 30
0.0
  0
SPLINE
  5
6E
330
1F
100
AcDbEntity
  8
layer 1
 62
   250
100
AcDbSpline
210
0.0
220
0.0
230
1.0
 70
    11
 71
     3
 72
    36
 73
    32
 74
     0
 42
0.0000000001
 43
0.0000000001
 12
1.0
 22
0.0
 32
0.0
 13
1.0
 23
0.0
 33
0.0
 40
0.0
 40
0.0
 40
0.0
 40
0.0
 40
0.1111111111111111
 40
0.1111111111111111
 40
0.1111111111111111
 40
0.1111111111111111
 40
0.2222222222222222
 40
0.2222222222222222
 40
0.2222222222222222
 40
0.2222222222222222
 40
0.3333333333333333
 40
0.3333333333333333
 40
0.3333333333333333
 40
0.3333333333333333
 40
0.4444444444444444
 40
0.4444444444444444
 40
0.4444444444444444
 40
0.4444444444444444
 40
0.5555555555555556
 40
0.5555555555555556
 40
0.5555555555555556
 40
0.5555555555555556
 40
0.6666666666666666
 40
0.6666666666666666
 40
0.6666666666666666
 40
0.6666666666666666
 40
0.7777777777777778
 40
0.7777777777777778
 40
0.7777777777777778
 40
0.7777777777777778
 40
1.0
 40
1.0
 40
1.0
 40
1.0
 10
-110.9938
 20
32.4238
 30
0.0
 10
-110.8788
 20
28.8589
 30
0.0
 10
-108.3492
 20
25.179
 30
0.0
 10
-104.6694
 20
26.5589
 30
0.0
 10
-104.6694
 20
26.5589
 30
0.0
 10
-105.3592
 20
24.1447
 30
0.0
 10
-103.7497
 20
20.3495
 30
0.0
 10
-98.9201
 20
20.3495
 30
0.0
 10
-98.9201
 20
20.3495
 30
0.0
 10
-100.2534
 20
19.8204
 30
0.0
 10
-106.0493
 20
18.855
 30
0.0
 10
-104.3245
 20
14.1404
 30
0.0
 10
-104.3245
 20
14.1404
 30
0.0
 10
-107.0918
 20
14.2585
 30
0.0
 10
-110.304
 20
13.9105
 30
0.0
 10
-110.9938
 20
8.7357
 30
0.0
 10
-110.9938
 20
8.7357
 30
0.0
 10
-111.9567
 20
12.9466
 30
0.0
 10
-113.9835
 20
14.8302
 30
0.0
 10
-117.4331
 20
14.1404
 30
0.0
 10
-117.4331
 20
14.1404
 30
0.0
 10
-117.2032
 20
15.2901
 30
0.0
 10
-115.8233
 20
18.855
 30
0.0
 10
-123.1827
 20
20.4648
 30
0.0
 10
-123.1827
 20
20.4648
 30
0.0
 10
-117.9018
 20
21.0027
 30
0.0
 10
-116.5895
 20
24.6077
 30
0.0
 10
-117.3182
 20
26.444
 30
0.0
 10
-117.3182
 20
26.444
 30
0.0
 10
-114.2946
 20
26.0013
 30
0.0
 10
-111.4446
 20
27.4602
 30
0.0
 10
-110.9938
 20
32.4238
 30
0.0
  0
SPLINE
  5
6F
330
1F
100
AcDbEntity
  8
layer 1
 62
   250
100
AcDbSpline
210
0.0
220
0.0
230
1.0
 70
    11
 71
     3
 72
    36
 73
    32
 74
     0
 42
0.0000000001
 43
0.0000000001
 12
1.0
 22
0.0
 32
0.0
 13
1.0
 23
0.0
 33
0.0
 40
0.0
 40
0.0
 40
0.0
 40
0.0
 40
0.1111111111111111
 40
0.1111111111111111
 40
0.1111111111111111
 40
0.1111111111111111
 40
0.2222222222222222
 40
0.2222222222222222
 40
0.2222222222222222
 40
0.2222222222222222
 40
0.3333333333333333
 40
0.3333333333333333
 40
0.3333333333333333
 40
0.3333333333333333
 40
0.4444444444444444
 40
0.4444444444444444
 40
0.4444444444444444
 40
0.4444444444444444
 40
0.5555555555555556
 40
0.5555555555555556
 40
0.5555555555555556
 40
0.5555555555555556
 40
0.6666666666666666
 40
0.6666666666666666
 40
0.6666666666666666
 40
0.6666666666666666
 40
0.7777777777777778
 40
0.7777777777777778
 40
0.7777777777777778
 40
0.7777777777777778
 40
1.0
 40
1.0
 40
1.0
 40
1.0
 10
-84.5797
 20
32.3179
 30
0.0
 10
-84.4648
 20
28.7533
 30
0.0
 10
-81.9349
 20
25.0735
 30
0.0
 10
-78.2553
 20
26.4534
 30
0.0
 10
-78.2553
 20
26.4534
 30
0.0
 10
-78.9445
 20
24.0388
 30
0.0
 10
-77.3353
 20
20.2439
 30
0.0
 10
-72.5058
 20
20.2439
 30
0.0
 10
-72.5058
 20
20.2439
 30
0.0
 10
-73.8387
 20
19.7149
 30
0.0
 10
-79.6352
 20
18.7491
 30
0.0
 10
-77.9104
 20
14.0345
 30
0.0
 10
-77.9104
 20
14.0345
 30
0.0
 10
-80.6771
 20
14.1532
 30
0.0
 10
-83.8896
 20
13.8046
 30
0.0
 10
-84.5797
 20
8.6302
 30
0.0
 10
-84.5797
 20
8.6302
 30
0.0
 10
-85.5427
 20
12.841
 30
0.0
 10
-87.5695
 20
14.7246
 30
0.0
 10
-91.0191
 20
14.0345
 30
0.0
 10
-91.0191
 20
14.0345
 30
0.0
 10
-90.7892
 20
15.1845
 30
0.0
 10
-89.4093
 20
18.7491
 30
0.0
 10
-96.7683
 20
20.3589
 30
0.0
 10
-96.7683
 20
20.3589
 30
0.0
 10
-91.4877
 20
20.8965
 30
0.0
 10
-90.1752
 20
24.5018
 30
0.0
 10
-90.9041
 20
26.3384
 30
0.0
 10
-90.9041
 20
26.3384
 30
0.0
 10
-87.8799
 20
25.8958
 30
0.0
 10
-85.0302
 20
27.3546
 30
0.0
 10
-84.5797
 20
32.3179
 30
0.0
  0
SPLINE
  5
70
330
1F
100
AcDbEntity
  8
layer 1
 62
   250
100
AcDbSpline
210
0.0
220
0.0
230
1.0
 70
    11
 71
     3
 72
    16
 73
    12
 74
     0
 42
0.0000000001
 43
0.0000000001
 12
1.0
 22
0.0
 32
0.0
 13
1.0
 23
0.0
 33
0.0
 40
0.0
 40
0.0
 40
0.0
 40
0.0
 40
0.25
 40
0.25
 40
0.25
 40
0.25
 40
0.5
 40
0.5
 40
0.5
 40
0.5
 40
1.0
 40
1.0
 40
1.0
 40
1.0
 10
-65.6917
 20
18.2027
 30
0.0
 10
-66.5607
 20
19.0335
 30
0.0
 10
-68.0543
 20
19.8098
 30
0.0
 10
-70.5654
 20
20.3589
 30
0.0
 10
-70.5654
 20
20.3589
 30
0.0
 10
-68.206
 20
20.5995
 30
0.0
 10
-66.6387
 20
21.4528
 30
0.0
 10
-65.6917
 20
22.4866
 30
0.0
 10
-65.6917
 20
22.4866
 30
0.0
 10
-65.6917
 20
22.4866
 30
0.0
 10
-65.6917
 20
18.2027
 30
0.0
 10
-65.6917
 20
18.2027
 30
0.0
  0
SPLINE
  5
71
330
1F
100
AcDbEntity
  8
layer 1
 62
   250
100
AcDbSpline
210
0.0
220
0.0
230
1.0
 70
    11
 71
     3
 72
    36
 73
    32
 74
     0
 42
0.0000000001
 43
0.0000000001
 12
1.0
 22
0.0
 32
0.0
 13
1.0
 23
0.0
 33
0.0
 40
0.0
 40
0.0
 40
0.0
 40
0.0
 40
0.1111111111111111
 40
0.1111111111111111
 40
0.1111111111111111
 40
0.1111111111111111
 40
0.2222222222222222
 40
0.2222222222222222
 40
0.2222222222222222
 40
0.2222222222222222
 40
0.3333333333333333
 40
0.3333333333333333
 40
0.3333333333333333
 40
0.3333333333333333
 40
0.4444444444444444
 40
0.4444444444444444
 40
0.4444444444444444
 40
0.4444444444444444
 40
0.5555555555555556
 40
0.5555555555555556
 40
0.5555555555555556
 40
0.5555555555555556
 40
0.6666666666666666
 40
0.6666666666666666
 40
0.6666666666666666
 40
0.6666666666666666
 40
0.7777777777777778
 40
0.7777777777777778
 40
0.7777777777777778
 40
0.7777777777777778
 40
1.0
 40
1.0
 40
1.0
 40
1.0
 10
-137.3643
 20
7.0422
 30
0.0
 10
-137.25
 20
3.4774
 30
0.0
 10
-134.7204
 20
-0.2022
 30
0.0
 10
-131.0405
 20
1.1777
 30
0.0
 10
-131.0405
 20
1.1777
 30
0.0
 10
-131.7306
 20
-1.2369
 30
0.0
 10
-130.1208
 20
-5.0317
 30
0.0
 10
-125.2913
 20
-5.0317
 30
0.0
 10
-125.2913
 20
-5.0317
 30
0.0
 10
-126.6245
 20
-5.5608
 30
0.0
 10
-132.4204
 20
-6.5266
 30
0.0
 10
-130.6956
 20
-11.2412
 30
0.0
 10
-130.6956
 20
-11.2412
 30
0.0
 10
-133.463
 20
-11.1227
 30
0.0
 10
-136.6751
 20
-11.4711
 30
0.0
 10
-137.3649
 20
-16.6455
 30
0.0
 10
-137.3649
 20
-16.6455
 30
0.0
 10
-138.3279
 20
-12.435
 30
0.0
 10
-140.3547
 20
-10.551
 30
0.0
 10
-143.8043
 20
-11.2412
 30
0.0
 10
-143.8043
 20
-11.2412
 30
0.0
 10
-143.5743
 20
-10.0912
 30
0.0
 10
-142.1944
 20
-6.5266
 30
0.0
 10
-149.5538
 20
-4.9168
 30
0.0
 10
-149.5538
 20
-4.9168
 30
0.0
 10
-144.3788
 20
-4.8018
 30
0.0
 10
-142.9995
 20
-1.4671
 30
0.0
 10
-143.6893
 20
1.0627
 30
0.0
 10
-143.6893
 20
1.0627
 30
0.0
 10
-140.5843
 20
0.4876
 30
0.0
 10
-137.7098
 20
1.8675
 30
0.0
 10
-137.3643
 20
7.0422
 30
0.0
  0
SPLINE
  5
72
330
1F
100
AcDbEntity
  8
layer 1
 62
   250
100
AcDbSpline
210
0.0
220
0.0
230
1.0
 70
    11
 71
     3
 72
    36
 73
    32
 74
     0
 42
0.0000000001
 43
0.0000000001
 12
1.0
 22
0.0
 32
0.0
 13
1.0
 23
0.0
 33
0.0
 40
0.0
 40
0.0
 40
0.0
 40
0.0
 40
0.1111111111111111
 40
0.1111111111111111
 40
0.1111111111111111
 40
0.1111111111111111
 40
0.2222222222222222
 40
0.2222222222222222
 40
0.2222222222222222
 40
0.2222222222222222
 40
0.3333333333333333
 40
0.3333333333333333
 40
0.3333333333333333
 40
0.3333333333333333
 40
0.4444444444444444
 40
0.4444444444444444
 40
0.4444444444444444
 40
0.4444444444444444
 40
0.5555555555555556
 40
0.5555555555555556
 40
0.5555555555555556
 40
0.5555555555555556
 40
0.6666666666666666
 40
0.6666666666666666
 40
0.6666666666666666
 40
0.6666666666666666
 40
0.7777777777777778
 40
0.7777777777777778
 40
0.7777777777777778
 40
0.7777777777777778
 40
1.0
 40
1.0
 40
1.0
 40
1.0
 10
-163.5675
 20
7.1478
 30
0.0
 10
-163.4526
 20
3.5832
 30
0.0
 10
-160.923
 20
-0.0966
 30
0.0
 10
-157.2434
 20
1.2833
 30
0.0
 10
-157.2434
 20
1.2833
 30
0.0
 10
-157.9332
 20
-1.131
 30
0.0
 10
-156.3237
 20
-4.9262
 30
0.0
 10
-151.4942
 20
-4.9262
 30
0.0
 10
-151.4942
 20
-4.9262
 30
0.0
 10
-152.8271
 20
-5.4549
 30
0.0
 10
-158.6233
 20
-6.421
 30
0.0
 10
-156.8985
 20
-11.1356
 30
0.0
 10
-156.8985
 20
-11.1356
 30
0.0
 10
-159.6656
 20
-11.0169
 30
0.0
 10
-162.878
 20
-11.3655
 30
0.0
 10
-163.5678
 20
-16.5399
 30
0.0
 10
-163.5678
 20
-16.5399
 30
0.0
 10
-164.5305
 20
-12.3291
 30
0.0
 10
-166.5576
 20
-10.4455
 30
0.0
 10
-170.0072
 20
-11.1356
 30
0.0
 10
-170.0072
 20
-11.1356
 30
0.0
 10
-169.777
 20
-9.9853
 30
0.0
 10
-168.3974
 20
-6.421
 30
0.0
 10
-175.7565
 20
-4.8112
 30
0.0
 10
-175.7565
 20
-4.8112
 30
0.0
 10
-170.582
 20
-4.6959
 30
0.0
 10
-169.2021
 20
-1.3616
 30
0.0
 10
-169.8922
 20
1.1683
 30
0.0
 10
-169.8922
 20
1.1683
 30
0.0
 10
-166.7869
 20
0.5938
 30
0.0
 10
-163.9127
 20
1.9731
 30
0.0
 10
-163.5675
 20
7.1478
 30
0.0
  0
SPLINE
  5
73
330
1F
100
AcDbEntity
  8
layer 1
 62
   250
100
AcDbSpline
210
0.0
220
0.0
230
1.0
 70
    11
 71
     3
 72
    16
 73
    12
 74
     0
 42
0.0000000001
 43
0.0000000001
 12
1.0
 22
0.0
 32
0.0
 13
1.0
 23
0.0
 33
0.0
 40
0.0
 40
0.0
 40
0.0
 40
0.0
 40
0.25
 40
0.25
 40
0.25
 40
0.25
 40
0.5
 40
0.5
 40
0.5
 40
0.5
 40
1.0
 40
1.0
 40
1.0
 40
1.0
 10
-181.5853
 20
-3.8229
 30
0.0
 10
-180.669
 20
-4.4306
 30
0.0
 10
-179.4532
 20
-4.8203
 30
0.0
 10
-177.9082
 20
-4.8203
 30
0.0
 10
-177.9082
 20
-4.8203
 30
0.0
 10
-178.5476
 20
-5.074
 30
0.0
 10
-180.2148
 20
-5.428
 30
0.0
 10
-181.5856
 20
-6.2484
 30
0.0
 10
-181.5856
 20
-6.2484
 30
0.0
 10
-181.5856
 20
-6.2484
 30
0.0
 10
-181.5853
 20
-3.8229
 30
0.0
 10
-181.5853
 20
-3.8229
 30
0.0
  0
SPLINE
  5
74
330
1F
100
AcDbEntity
  8
layer 1
 62
   250
100
AcDbSpline
210
0.0
220
0.0
230
1.0
 70
    11
 71
     3
 72
    36
 73
    32
 74
     0
 42
0.0000000001
 43
0.0000000001
 12
1.0
 22
0.0
 32
0.0
 13
1.0
 23
0.0
 33
0.0
 40
0.0
 40
0.0
 40
0.0
 40
0.0
 40
0.1111111111111111
 40
0.1111111111111111
 40
0.1111111111111111
 40
0.1111111111111111
 40
0.2222222222222222
 40
0.2222222222222222
 40
0.2222222222222222
 40
0.2222222222222222
 40
0.3333333333333333
 40
0.3333333333333333
 40
0.3333333333333333
 40
0.3333333333333333
 40
0.4444444444444444
 40
0.4444444444444444
 40
0.4444444444444444
 40
0.4444444444444444
 40
0.5555555555555556
 40
0.5555555555555556
 40
0.5555555555555556
 40
0.5555555555555556
 40
0.6666666666666666
 40
0.6666666666666666
 40
0.6666666666666666
 40
0.6666666666666666
 40
0.7777777777777778
 40
0.7777777777777778
 40
0.7777777777777778
 40
0.7777777777777778
 40
1.0
 40
1.0
 40
1.0
 40
1.0
 10
-110.8763
 20
6.7663
 30
0.0
 10
-110.7613
 20
3.2014
 30
0.0
 10
-108.2318
 20
-0.4782
 30
0.0
 10
-104.5522
 20
0.9017
 30
0.0
 10
-104.5522
 20
0.9017
 30
0.0
 10
-105.2417
 20
-1.5129
 30
0.0
 10
-103.6322
 20
-5.3077
 30
0.0
 10
-98.8027
 20
-5.3077
 30
0.0
 10
-98.8027
 20
-5.3077
 30
0.0
 10
-100.1359
 20
-5.8368
 30
0.0
 10
-105.9318
 20
-6.8026
 30
0.0
 10
-104.207
 20
-11.5171
 30
0.0
 10
-104.207
 20
-11.5171
 30
0.0
 10
-106.9743
 20
-11.3987
 30
0.0
 10
-110.1865
 20
-11.7471
 30
0.0
 10
-110.8763
 20
-16.9215
 30
0.0
 10
-110.8763
 20
-16.9215
 30
0.0
 10
-111.8393
 20
-12.711
 30
0.0
 10
-113.8661
 20
-10.8273
 30
0.0
 10
-117.3157
 20
-11.5171
 30
0.0
 10
-117.3157
 20
-11.5171
 30
0.0
 10
-117.0857
 20
-10.3672
 30
0.0
 10
-115.7058
 20
-6.8026
 30
0.0
 10
-123.0652
 20
-5.1927
 30
0.0
 10
-123.0652
 20
-5.1927
 30
0.0
 10
-117.7843
 20
-4.6549
 30
0.0
 10
-116.4721
 20
-1.0499
 30
0.0
 10
-117.2007
 20
0.7868
 30
0.0
 10
-117.2007
 20
0.7868
 30
0.0
 10
-114.1771
 20
0.3441
 30
0.0
 10
-111.3271
 20
1.803
 30
0.0
 10
-110.8763
 20
6.7663
 30
0.0
  0
SPLINE
  5
75
330
1F
100
AcDbEntity
  8
layer 1
 62
   250
100
AcDbSpline
210
0.0
220
0.0
230
1.0
 70
    11
 71
     3
 72
    36
 73
    32
 74
     0
 42
0.0000000001
 43
0.0000000001
 12
1.0
 22
0.0
 32
0.0
 13
1.0
 23
0.0
 33
0.0
 40
0.0
 40
0.0
 40
0.0
 40
0.0
 40
0.1111111111111111
 40
0.1111111111111111
 40
0.1111111111111111
 40
0.1111111111111111
 40
0.2222222222222222
 40
0.2222222222222222
 40
0.2222222222222222
 40
0.2222222222222222
 40
0.3333333333333333
 40
0.3333333333333333
 40
0.3333333333333333
 40
0.3333333333333333
 40
0.4444444444444444
 40
0.4444444444444444
 40
0.4444444444444444
 40
0.4444444444444444
 40
0.5555555555555556
 40
0.5555555555555556
 40
0.5555555555555556
 40
0.5555555555555556
 40
0.6666666666666666
 40
0.6666666666666666
 40
0.6666666666666666
 40
0.6666666666666666
 40
0.7777777777777778
 40
0.7777777777777778
 40
0.7777777777777778
 40
0.7777777777777778
 40
1.0
 40
1.0
 40
1.0
 40
1.0
 10
-84.4623
 20
6.6604
 30
0.0
 10
-84.3473
 20
3.0961
 30
0.0
 10
-81.8174
 20
-0.5841
 30
0.0
 10
-78.1379
 20
0.7958
 30
0.0
 10
-78.1379
 20
0.7958
 30
0.0
 10
-78.8277
 20
-1.6188
 30
0.0
 10
-77.2181
 20
-5.4133
 30
0.0
 10
-72.3886
 20
-5.4133
 30
0.0
 10
-72.3886
 20
-5.4133
 30
0.0
 10
-73.7218
 20
-5.9427
 30
0.0
 10
-79.5178
 20
-6.9081
 30
0.0
 10
-77.793
 20
-11.6227
 30
0.0
 10
-77.793
 20
-11.6227
 30
0.0
 10
-80.5603
 20
-11.5043
 30
0.0
 10
-83.7725
 20
-11.8526
 30
0.0
 10
-84.4623
 20
-17.0274
 30
0.0
 10
-84.4623
 20
-17.0274
 30
0.0
 10
-85.4252
 20
-12.8162
 30
0.0
 10
-87.452
 20
-10.9329
 30
0.0
 10
-90.9016
 20
-11.6227
 30
0.0
 10
-90.9016
 20
-11.6227
 30
0.0
 10
-90.6717
 20
-10.4727
 30
0.0
 10
-89.2918
 20
-6.9081
 30
0.0
 10
-96.6509
 20
-5.2983
 30
0.0
 10
-96.6509
 20
-5.2983
 30
0.0
 10
-91.3709
 20
-4.7608
 30
0.0
 10
-90.0577
 20
-1.1554
 30
0.0
 10
-90.7867
 20
0.6809
 30
0.0
 10
-90.7867
 20
0.6809
 30
0.0
 10
-87.7624
 20
0.2386
 30
0.0
 10
-84.913
 20
1.6971
 30
0.0
 10
-84.4623
 20
6.6604
 30
0.0
  0
SPLINE
  5
76
330
1F
100
AcDbEntity
  8
layer 1
 62
   250
100
AcDbSpline
210
0.0
220
0.0
230
1.0
 70
    11
 71
     3
 72
    16
 73
    12
 74
     0
 42
0.0000000001
 43
0.0000000001
 12
1.0
 22
0.0
 32
0.0
 13
1.0
 23
0.0
 33
0.0
 40
0.0
 40
0.0
 40
0.0
 40
0.0
 40
0.25
 40
0.25
 40
0.25
 40
0.25
 40
0.5
 40
0.5
 40
0.5
 40
0.5
 40
1.0
 40
1.0
 40
1.0
 40
1.0
 10
-65.574
 20
-7.4542
 30
0.0
 10
-66.4432
 20
-6.6237
 30
0.0
 10
-67.9372
 20
-5.8478
 30
0.0
 10
-70.4483
 20
-5.2983
 30
0.0
 10
-70.4483
 20
-5.2983
 30
0.0
 10
-68.0885
 20
-5.058
 30
0.0
 10
-66.5212
 20
-4.2044
 30
0.0
 10
-65.5743
 20
-3.171
 30
0.0
 10
-65.5743
 20
-3.171
 30
0.0
 10
-65.5743
 20
-3.171
 30
0.0
 10
-65.574
 20
-7.4542
 30
0.0
 10
-65.574
 20
-7.4542
 30
0.0
  0
SPLINE
  5
77
330
1F
100
AcDbEntity
  8
layer 1
 62
   250
100
AcDbSpline
210
0.0
220
0.0
230
1.0
 70
    11
 71
     3
 72
    36
 73
    32
 74
     0
 42
0.0000000001
 43
0.0000000001
 12
1.0
 22
0.0
 32
0.0
 13
1.0
 23
0.0
 33
0.0
 40
0.0
 40
0.0
 40
0.0
 40
0.0
 40
0.1111111111111111
 40
0.1111111111111111
 40
0.1111111111111111
 40
0.1111111111111111
 40
0.2222222222222222
 40
0.2222222222222222
 40
0.2222222222222222
 40
0.2222222222222222
 40
0.3333333333333333
 40
0.3333333333333333
 40
0.3333333333333333
 40
0.3333333333333333
 40
0.4444444444444444
 40
0.4444444444444444
 40
0.4444444444444444
 40
0.4444444444444444
 40
0.5555555555555556
 40
0.5555555555555556
 40
0.5555555555555556
 40
0.5555555555555556
 40
0.6666666666666666
 40
0.6666666666666666
 40
0.6666666666666666
 40
0.6666666666666666
 40
0.7777777777777778
 40
0.7777777777777778
 40
0.7777777777777778
 40
0.7777777777777778
 40
1.0
 40
1.0
 40
1.0
 40
1.0
 10
-137.3511
 20
-18.5962
 30
0.0
 10
-137.2362
 20
-22.1604
 30
0.0
 10
-134.7069
 20
-25.8403
 30
0.0
 10
-131.0274
 20
-24.4604
 30
0.0
 10
-131.0274
 20
-24.4604
 30
0.0
 10
-131.7168
 20
-26.8753
 30
0.0
 10
-130.1073
 20
-30.6698
 30
0.0
 10
-125.2781
 20
-30.6698
 30
0.0
 10
-125.2781
 20
-30.6698
 30
0.0
 10
-126.6107
 20
-31.1986
 30
0.0
 10
-132.4073
 20
-32.1647
 30
0.0
 10
-130.6825
 20
-36.8793
 30
0.0
 10
-130.6825
 20
-36.8793
 30
0.0
 10
-133.4492
 20
-36.7605
 30
0.0
 10
-136.6616
 20
-37.1092
 30
0.0
 10
-137.3518
 20
-42.2836
 30
0.0
 10
-137.3518
 20
-42.2836
 30
0.0
 10
-138.3141
 20
-38.0728
 30
0.0
 10
-140.3415
 20
-36.1895
 30
0.0
 10
-143.7911
 20
-36.8793
 30
0.0
 10
-143.7911
 20
-36.8793
 30
0.0
 10
-143.5606
 20
-35.729
 30
0.0
 10
-142.1813
 20
-32.1647
 30
0.0
 10
-149.5404
 20
-30.5549
 30
0.0
 10
-149.5404
 20
-30.5549
 30
0.0
 10
-144.3656
 20
-30.4396
 30
0.0
 10
-142.986
 20
-27.1052
 30
0.0
 10
-143.6762
 20
-24.5754
 30
0.0
 10
-143.6762
 20
-24.5754
 30
0.0
 10
-140.5711
 20
-25.1502
 30
0.0
 10
-137.6967
 20
-23.7706
 30
0.0
 10
-137.3511
 20
-18.5962
 30
0.0
  0
SPLINE
  5
78
330
1F
100
AcDbEntity
  8
layer 1
 62
   250
100
AcDbSpline
210
0.0
220
0.0
230
1.0
 70
    11
 71
     3
 72
    36
 73
    32
 74
     0
 42
0.0000000001
 43
0.0000000001
 12
1.0
 22
0.0
 32
0.0
 13
1.0
 23
0.0
 33
0.0
 40
0.0
 40
0.0
 40
0.0
 40
0.0
 40
0.1111111111111111
 40
0.1111111111111111
 40
0.1111111111111111
 40
0.1111111111111111
 40
0.2222222222222222
 40
0.2222222222222222
 40
0.2222222222222222
 40
0.2222222222222222
 40
0.3333333333333333
 40
0.3333333333333333
 40
0.3333333333333333
 40
0.3333333333333333
 40
0.4444444444444444
 40
0.4444444444444444
 40
0.4444444444444444
 40
0.4444444444444444
 40
0.5555555555555556
 40
0.5555555555555556
 40
0.5555555555555556
 40
0.5555555555555556
 40
0.6666666666666666
 40
0.6666666666666666
 40
0.6666666666666666
 40
0.6666666666666666
 40
0.7777777777777778
 40
0.7777777777777778
 40
0.7777777777777778
 40
0.7777777777777778
 40
1.0
 40
1.0
 40
1.0
 40
1.0
 10
-163.5547
 20
-18.4906
 30
0.0
 10
-163.4397
 20
-22.0552
 30
0.0
 10
-160.9098
 20
-25.7347
 30
0.0
 10
-157.2303
 20
-24.3548
 30
0.0
 10
-157.2303
 20
-24.3548
 30
0.0
 10
-157.9194
 20
-26.7694
 30
0.0
 10
-156.3102
 20
-30.5643
 30
0.0
 10
-151.4807
 20
-30.5643
 30
0.0
 10
-151.4807
 20
-30.5643
 30
0.0
 10
-152.8136
 20
-31.0934
 30
0.0
 10
-158.6102
 20
-32.0591
 30
0.0
 10
-156.8854
 20
-36.7737
 30
0.0
 10
-156.8854
 20
-36.7737
 30
0.0
 10
-159.6521
 20
-36.6553
 30
0.0
 10
-162.8646
 20
-37.0036
 30
0.0
 10
-163.5547
 20
-42.178
 30
0.0
 10
-163.5547
 20
-42.178
 30
0.0
 10
-164.5173
 20
-37.9675
 30
0.0
 10
-166.5444
 20
-36.0836
 30
0.0
 10
-169.994
 20
-36.7737
 30
0.0
 10
-169.994
 20
-36.7737
 30
0.0
 10
-169.7641
 20
-35.6237
 30
0.0
 10
-168.3842
 20
-32.0591
 30
0.0
 10
-175.7433
 20
-30.4493
 30
0.0
 10
-175.7433
 20
-30.4493
 30
0.0
 10
-170.5682
 20
-30.3343
 30
0.0
 10
-169.189
 20
-26.9997
 30
0.0
 10
-169.8791
 20
-24.4698
 30
0.0
 10
-169.8791
 20
-24.4698
 30
0.0
 10
-166.774
 20
-25.0449
 30
0.0
 10
-163.8996
 20
-23.665
 30
0.0
 10
-163.5547
 20
-18.4906
 30
0.0
  0
SPLINE
  5
79
330
1F
100
AcDbEntity
  8
layer 1
 62
   250
100
AcDbSpline
210
0.0
220
0.0
230
1.0
 70
    11
 71
     3
 72
    16
 73
    12
 74
     0
 42
0.0000000001
 43
0.0000000001
 12
1.0
 22
0.0
 32
0.0
 13
1.0
 23
0.0
 33
0.0
 40
0.0
 40
0.0
 40
0.0
 40
0.0
 40
0.25
 40
0.25
 40
0.25
 40
0.25
 40
0.5
 40
0.5
 40
0.5
 40
0.5
 40
1.0
 40
1.0
 40
1.0
 40
1.0
 10
-181.5718
 20
-29.4613
 30
0.0
 10
-180.6561
 20
-30.0687
 30
0.0
 10
-179.4401
 20
-30.4587
 30
0.0
 10
-177.8951
 20
-30.4587
 30
0.0
 10
-177.8951
 20
-30.4587
 30
0.0
 10
-178.5344
 20
-30.7121
 30
0.0
 10
-180.2013
 20
-31.0661
 30
0.0
 10
-181.5721
 20
-31.8865
 30
0.0
 10
-181.5721
 20
-31.8865
 30
0.0
 10
-181.5721
 20
-31.8865
 30
0.0
 10
-181.5718
 20
-29.4613
 30
0.0
 10
-181.5718
 20
-29.4613
 30
0.0
  0
SPLINE
  5
7A
330
1F
100
AcDbEntity
  8
layer 1
 62
   250
100
AcDbSpline
210
0.0
220
0.0
230
1.0
 70
    11
 71
     3
 72
    36
 73
    32
 74
     0
 42
0.0000000001
 43
0.0000000001
 12
1.0
 22
0.0
 32
0.0
 13
1.0
 23
0.0
 33
0.0
 40
0.0
 40
0.0
 40
0.0
 40
0.0
 40
0.1111111111111111
 40
0.1111111111111111
 40
0.1111111111111111
 40
0.1111111111111111
 40
0.2222222222222222
 40
0.2222222222222222
 40
0.2222222222222222
 40
0.2222222222222222
 40
0.3333333333333333
 40
0.3333333333333333
 40
0.3333333333333333
 40
0.3333333333333333
 40
0.4444444444444444
 40
0.4444444444444444
 40
0.4444444444444444
 40
0.4444444444444444
 40
0.5555555555555556
 40
0.5555555555555556
 40
0.5555555555555556
 40
0.5555555555555556
 40
0.6666666666666666
 40
0.6666666666666666
 40
0.6666666666666666
 40
0.6666666666666666
 40
0.7777777777777778
 40
0.7777777777777778
 40
0.7777777777777778
 40
0.7777777777777778
 40
1.0
 40
1.0
 40
1.0
 40
1.0
 10
-110.8625
 20
-18.8722
 30
0.0
 10
-110.7482
 20
-22.4364
 30
0.0
 10
-108.2186
 20
-26.1163
 30
0.0
 10
-104.5388
 20
-24.7367
 30
0.0
 10
-104.5388
 20
-24.7367
 30
0.0
 10
-105.2289
 20
-27.1513
 30
0.0
 10
-103.619
 20
-30.9458
 30
0.0
 10
-98.7895
 20
-30.9458
 30
0.0
 10
-98.7895
 20
-30.9458
 30
0.0
 10
-100.1227
 20
-31.4749
 30
0.0
 10
-105.9187
 20
-32.4407
 30
0.0
 10
-104.1939
 20
-37.1552
 30
0.0
 10
-104.1939
 20
-37.1552
 30
0.0
 10
-106.9606
 20
-37.0365
 30
0.0
 10
-110.1734
 20
-37.3852
 30
0.0
 10
-110.8632
 20
-42.5596
 30
0.0
 10
-110.8632
 20
-42.5596
 30
0.0
 10
-111.8261
 20
-38.3488
 30
0.0
 10
-113.8529
 20
-36.4654
 30
0.0
 10
-117.3025
 20
-37.1552
 30
0.0
 10
-117.3025
 20
-37.1552
 30
0.0
 10
-117.0726
 20
-36.005
 30
0.0
 10
-115.6927
 20
-32.4407
 30
0.0
 10
-123.0521
 20
-30.8308
 30
0.0
 10
-123.0521
 20
-30.8308
 30
0.0
 10
-117.7712
 20
-30.2933
 30
0.0
 10
-116.4589
 20
-26.688
 30
0.0
 10
-117.1875
 20
-24.8517
 30
0.0
 10
-117.1875
 20
-24.8517
 30
0.0
 10
-114.1633
 20
-25.2943
 30
0.0
 10
-111.3139
 20
-23.8354
 30
0.0
 10
-110.8625
 20
-18.8722
 30
0.0
  0
SPLINE
  5
7B
330
1F
100
AcDbEntity
  8
layer 1
 62
   250
100
AcDbSpline
210
0.0
220
0.0
230
1.0
 70
    11
 71
     3
 72
    36
 73
    32
 74
     0
 42
0.0000000001
 43
0.0000000001
 12
1.0
 22
0.0
 32
0.0
 13
1.0
 23
0.0
 33
0.0
 40
0.0
 40
0.0
 40
0.0
 40
0.0
 40
0.1111111111111111
 40
0.1111111111111111
 40
0.1111111111111111
 40
0.1111111111111111
 40
0.2222222222222222
 40
0.2222222222222222
 40
0.2222222222222222
 40
0.2222222222222222
 40
0.3333333333333333
 40
0.3333333333333333
 40
0.3333333333333333
 40
0.3333333333333333
 40
0.4444444444444444
 40
0.4444444444444444
 40
0.4444444444444444
 40
0.4444444444444444
 40
0.5555555555555556
 40
0.5555555555555556
 40
0.5555555555555556
 40
0.5555555555555556
 40
0.6666666666666666
 40
0.6666666666666666
 40
0.6666666666666666
 40
0.6666666666666666
 40
0.7777777777777778
 40
0.7777777777777778
 40
0.7777777777777778
 40
0.7777777777777778
 40
1.0
 40
1.0
 40
1.0
 40
1.0
 10
-84.4485
 20
-18.9774
 30
0.0
 10
-84.3335
 20
-22.5423
 30
0.0
 10
-81.8042
 20
-26.2222
 30
0.0
 10
-78.1247
 20
-24.8423
 30
0.0
 10
-78.1247
 20
-24.8423
 30
0.0
 10
-78.8142
 20
-27.2566
 30
0.0
 10
-77.2047
 20
-31.0517
 30
0.0
 10
-72.3751
 20
-31.0517
 30
0.0
 10
-72.3751
 20
-31.0517
 30
0.0
 10
-73.7081
 20
-31.5808
 30
0.0
 10
-79.5046
 20
-32.5466
 30
0.0
 10
-77.7798
 20
-37.2608
 30
0.0
 10
-77.7798
 20
-37.2608
 30
0.0
 10
-80.5465
 20
-37.1427
 30
0.0
 10
-83.759
 20
-37.4911
 30
0.0
 10
-84.4491
 20
-42.6655
 30
0.0
 10
-84.4491
 20
-42.6655
 30
0.0
 10
-85.4121
 20
-38.4546
 30
0.0
 10
-87.4388
 20
-36.571
 30
0.0
 10
-90.8885
 20
-37.2608
 30
0.0
 10
-90.8885
 20
-37.2608
 30
0.0
 10
-90.6585
 20
-36.1111
 30
0.0
 10
-89.2786
 20
-32.5466
 30
0.0
 10
-96.6377
 20
-30.9367
 30
0.0
 10
-96.6377
 20
-30.9367
 30
0.0
 10
-91.3571
 20
-30.3985
 30
0.0
 10
-90.0445
 20
-26.7936
 30
0.0
 10
-90.7735
 20
-24.9572
 30
0.0
 10
-90.7735
 20
-24.9572
 30
0.0
 10
-87.7493
 20
-25.3999
 30
0.0
 10
-84.8996
 20
-23.941
 30
0.0
 10
-84.4485
 20
-18.9774
 30
0.0
  0
SPLINE
  5
7C
330
1F
100
AcDbEntity
  8
layer 1
 62
   250
100
AcDbSpline
210
0.0
220
0.0
230
1.0
 70
    11
 71
     3
 72
    16
 73
    12
 74
     0
 42
0.0000000001
 43
0.0000000001
 12
1.0
 22
0.0
 32
0.0
 13
1.0
 23
0.0
 33
0.0
 40
0.0
 40
0.0
 40
0.0
 40
0.0
 40
0.25
 40
0.25
 40
0.25
 40
0.25
 40
0.5
 40
0.5
 40
0.5
 40
0.5
 40
1.0
 40
1.0
 40
1.0
 40
1.0
 10
-65.5611
 20
-33.0929
 30
0.0
 10
-66.4301
 20
-32.2615
 30
0.0
 10
-67.9237
 20
-31.4859
 30
0.0
 10
-70.4348
 20
-30.9367
 30
0.0
 10
-70.4348
 20
-30.9367
 30
0.0
 10
-68.0756
 20
-30.6965
 30
0.0
 10
-66.5081
 20
-29.8428
 30
0.0
 10
-65.5611
 20
-28.8091
 30
0.0
 10
-65.5611
 20
-28.8091
 30
0.0
 10
-65.5611
 20
-28.8091
 30
0.0
 10
-65.5611
 20
-33.0929
 30
0.0
 10
-65.5611
 20
-33.0929
 30
0.0
  0
SPLINE
  5
7D
330
1F
100
AcDbEntity
  8
layer 1
 62
   250
100
AcDbSpline
210
0.0
220
0.0
230
1.0
 70
    11
 71
     3
 72
    36
 73
    32
 74
     0
 42
0.0000000001
 43
0.0000000001
 12
1.0
 22
0.0
 32
0.0
 13
1.0
 23
0.0
 33
0.0
 40
0.0
 40
0.0
 40
0.0
 40
0.0
 40
0.1111111111111111
 40
0.1111111111111111
 40
0.1111111111111111
 40
0.1111111111111111
 40
0.2222222222222222
 40
0.2222222222222222
 40
0.2222222222222222
 40
0.2222222222222222
 40
0.3333333333333333
 40
0.3333333333333333
 40
0.3333333333333333
 40
0.3333333333333333
 40
0.4444444444444444
 40
0.4444444444444444
 40
0.4444444444444444
 40
0.4444444444444444
 40
0.5555555555555556
 40
0.5555555555555556
 40
0.5555555555555556
 40
0.5555555555555556
 40
0.6666666666666666
 40
0.6666666666666666
 40
0.6666666666666666
 40
0.6666666666666666
 40
0.7777777777777778
 40
0.7777777777777778
 40
0.7777777777777778
 40
0.7777777777777778
 40
1.0
 40
1.0
 40
1.0
 40
1.0
 10
-137.6515
 20
-44.2778
 30
0.0
 10
-137.5366
 20
-47.8427
 30
0.0
 10
-135.0067
 20
-51.5226
 30
0.0
 10
-131.3272
 20
-50.1427
 30
0.0
 10
-131.3272
 20
-50.1427
 30
0.0
 10
-132.0169
 20
-52.557
 30
0.0
 10
-130.4074
 20
-56.3521
 30
0.0
 10
-125.5779
 20
-56.3521
 30
0.0
 10
-125.5779
 20
-56.3521
 30
0.0
 10
-126.9111
 20
-56.8812
 30
0.0
 10
-132.7071
 20
-57.847
 30
0.0
 10
-130.9823
 20
-62.5612
 30
0.0
 10
-130.9823
 20
-62.5612
 30
0.0
 10
-133.7496
 20
-62.4431
 30
0.0
 10
-136.9618
 20
-62.7915
 30
0.0
 10
-137.6515
 20
-67.9659
 30
0.0
 10
-137.6515
 20
-67.9659
 30
0.0
 10
-138.6145
 20
-63.7551
 30
0.0
 10
-140.6413
 20
-61.8714
 30
0.0
 10
-144.0909
 20
-62.5612
 30
0.0
 10
-144.0909
 20
-62.5612
 30
0.0
 10
-143.861
 20
-61.4116
 30
0.0
 10
-142.4811
 20
-57.847
 30
0.0
 10
-149.8402
 20
-56.2371
 30
0.0
 10
-149.8402
 20
-56.2371
 30
0.0
 10
-144.6651
 20
-56.1222
 30
0.0
 10
-143.2858
 20
-52.7872
 30
0.0
 10
-143.9759
 20
-50.2576
 30
0.0
 10
-143.9759
 20
-50.2576
 30
0.0
 10
-140.8709
 20
-50.8325
 30
0.0
 10
-137.9964
 20
-49.4526
 30
0.0
 10
-137.6515
 20
-44.2778
 30
0.0
  0
SPLINE
  5
7E
330
1F
100
AcDbEntity
  8
layer 1
 62
   250
100
AcDbSpline
210
0.0
220
0.0
230
1.0
 70
    11
 71
     3
 72
    36
 73
    32
 74
     0
 42
0.0000000001
 43
0.0000000001
 12
1.0
 22
0.0
 32
0.0
 13
1.0
 23
0.0
 33
0.0
 40
0.0
 40
0.0
 40
0.0
 40
0.0
 40
0.1111111111111111
 40
0.1111111111111111
 40
0.1111111111111111
 40
0.1111111111111111
 40
0.2222222222222222
 40
0.2222222222222222
 40
0.2222222222222222
 40
0.2222222222222222
 40
0.3333333333333333
 40
0.3333333333333333
 40
0.3333333333333333
 40
0.3333333333333333
 40
0.4444444444444444
 40
0.4444444444444444
 40
0.4444444444444444
 40
0.4444444444444444
 40
0.5555555555555556
 40
0.5555555555555556
 40
0.5555555555555556
 40
0.5555555555555556
 40
0.6666666666666666
 40
0.6666666666666666
 40
0.6666666666666666
 40
0.6666666666666666
 40
0.7777777777777778
 40
0.7777777777777778
 40
0.7777777777777778
 40
0.7777777777777778
 40
1.0
 40
1.0
 40
1.0
 40
1.0
 10
-163.8542
 20
-44.1726
 30
0.0
 10
-163.7392
 20
-47.7368
 30
0.0
 10
-161.2096
 20
-51.4167
 30
0.0
 10
-157.5301
 20
-50.0371
 30
0.0
 10
-157.5301
 20
-50.0371
 30
0.0
 10
-158.2199
 20
-52.4517
 30
0.0
 10
-156.61
 20
-56.2462
 30
0.0
 10
-151.7805
 20
-56.2462
 30
0.0
 10
-151.7805
 20
-56.2462
 30
0.0
 10
-153.1131
 20
-56.7753
 30
0.0
 10
-158.91
 20
-57.7411
 30
0.0
 10
-157.1852
 20
-62.4557
 30
0.0
 10
-157.1852
 20
-62.4557
 30
0.0
 10
-159.9516
 20
-62.3372
 30
0.0
 10
-163.1644
 20
-62.6856
 30
0.0
 10
-163.8545
 20
-67.86
 30
0.0
 10
-163.8545
 20
-67.86
 30
0.0
 10
-164.8171
 20
-63.6492
 30
0.0
 10
-166.8442
 20
-61.7659
 30
0.0
 10
-170.2938
 20
-62.4557
 30
0.0
 10
-170.2938
 20
-62.4557
 30
0.0
 10
-170.0636
 20
-61.3054
 30
0.0
 10
-168.684
 20
-57.7411
 30
0.0
 10
-176.0431
 20
-56.1313
 30
0.0
 10
-176.0431
 20
-56.1313
 30
0.0
 10
-170.8687
 20
-56.016
 30
0.0
 10
-169.4888
 20
-52.6816
 30
0.0
 10
-170.1789
 20
-50.1521
 30
0.0
 10
-170.1789
 20
-50.1521
 30
0.0
 10
-167.0735
 20
-50.7266
 30
0.0
 10
-164.1994
 20
-49.347
 30
0.0
 10
-163.8542
 20
-44.1726
 30
0.0
  0
SPLINE
  5
7F
330
1F
100
AcDbEntity
  8
layer 1
 62
   250
100
AcDbSpline
210
0.0
220
0.0
230
1.0
 70
    11
 71
     3
 72
    16
 73
    12
 74
     0
 42
0.0000000001
 43
0.0000000001
 12
1.0
 22
0.0
 32
0.0
 13
1.0
 23
0.0
 33
0.0
 40
0.0
 40
0.0
 40
0.0
 40
0.0
 40
0.25
 40
0.25
 40
0.25
 40
0.25
 40
0.5
 40
0.5
 40
0.5
 40
0.5
 40
1.0
 40
1.0
 40
1.0
 40
1.0
 10
-181.8713
 20
-55.1432
 30
0.0
 10
-180.9556
 20
-55.7506
 30
0.0
 10
-179.7399
 20
-56.1407
 30
0.0
 10
-178.1949
 20
-56.1407
 30
0.0
 10
-178.1949
 20
-56.1407
 30
0.0
 10
-178.8342
 20
-56.3944
 30
0.0
 10
-180.5011
 20
-56.7481
 30
0.0
 10
-181.8719
 20
-57.5688
 30
0.0
 10
-181.8719
 20
-57.5688
 30
0.0
 10
-181.8719
 20
-57.5688
 30
0.0
 10
-181.8713
 20
-55.1432
 30
0.0
 10
-181.8713
 20
-55.1432
 30
0.0
  0
SPLINE
  5
80
330
1F
100
AcDbEntity
  8
layer 1
 62
   250
100
AcDbSpline
210
0.0
220
0.0
230
1.0
 70
    11
 71
     3
 72
    36
 73
    32
 74
     0
 42
0.0000000001
 43
0.0000000001
 12
1.0
 22
0.0
 32
0.0
 13
1.0
 23
0.0
 33
0.0
 40
0.0
 40
0.0
 40
0.0
 40
0.0
 40
0.1111111111111111
 40
0.1111111111111111
 40
0.1111111111111111
 40
0.1111111111111111
 40
0.2222222222222222
 40
0.2222222222222222
 40
0.2222222222222222
 40
0.2222222222222222
 40
0.3333333333333333
 40
0.3333333333333333
 40
0.3333333333333333
 40
0.3333333333333333
 40
0.4444444444444444
 40
0.4444444444444444
 40
0.4444444444444444
 40
0.4444444444444444
 40
0.5555555555555556
 40
0.5555555555555556
 40
0.5555555555555556
 40
0.5555555555555556
 40
0.6666666666666666
 40
0.6666666666666666
 40
0.6666666666666666
 40
0.6666666666666666
 40
0.7777777777777778
 40
0.7777777777777778
 40
0.7777777777777778
 40
0.7777777777777778
 40
1.0
 40
1.0
 40
1.0
 40
1.0
 10
-111.1629
 20
-44.5538
 30
0.0
 10
-111.0477
 20
-48.119
 30
0.0
 10
-108.5184
 20
-51.7986
 30
0.0
 10
-104.8385
 20
-50.4187
 30
0.0
 10
-104.8385
 20
-50.4187
 30
0.0
 10
-105.5283
 20
-52.8329
 30
0.0
 10
-103.9188
 20
-56.6281
 30
0.0
 10
-99.0893
 20
-56.6281
 30
0.0
 10
-99.0893
 20
-56.6281
 30
0.0
 10
-100.4225
 20
-57.1572
 30
0.0
 10
-106.2184
 20
-58.123
 30
0.0
 10
-104.4936
 20
-62.8375
 30
0.0
 10
-104.4936
 20
-62.8375
 30
0.0
 10
-107.261
 20
-62.7191
 30
0.0
 10
-110.4731
 20
-63.0675
 30
0.0
 10
-111.1629
 20
-68.2419
 30
0.0
 10
-111.1629
 20
-68.2419
 30
0.0
 10
-112.1256
 20
-64.0314
 30
0.0
 10
-114.1527
 20
-62.1474
 30
0.0
 10
-117.6023
 20
-62.8375
 30
0.0
 10
-117.6023
 20
-62.8375
 30
0.0
 10
-117.3724
 20
-61.6875
 30
0.0
 10
-115.9925
 20
-58.123
 30
0.0
 10
-123.3519
 20
-56.5131
 30
0.0
 10
-123.3519
 20
-56.5131
 30
0.0
 10
-118.0709
 20
-55.9753
 30
0.0
 10
-116.7587
 20
-52.3703
 30
0.0
 10
-117.4873
 20
-50.5336
 30
0.0
 10
-117.4873
 20
-50.5336
 30
0.0
 10
-114.4638
 20
-50.9763
 30
0.0
 10
-111.6137
 20
-49.5174
 30
0.0
 10
-111.1629
 20
-44.5538
 30
0.0
  0
SPLINE
  5
81
330
1F
100
AcDbEntity
  8
layer 1
 62
   250
100
AcDbSpline
210
0.0
220
0.0
230
1.0
 70
    11
 71
     3
 72
    36
 73
    32
 74
     0
 42
0.0000000001
 43
0.0000000001
 12
1.0
 22
0.0
 32
0.0
 13
1.0
 23
0.0
 33
0.0
 40
0.0
 40
0.0
 40
0.0
 40
0.0
 40
0.1111111111111111
 40
0.1111111111111111
 40
0.1111111111111111
 40
0.1111111111111111
 40
0.2222222222222222
 40
0.2222222222222222
 40
0.2222222222222222
 40
0.2222222222222222
 40
0.3333333333333333
 40
0.3333333333333333
 40
0.3333333333333333
 40
0.3333333333333333
 40
0.4444444444444444
 40
0.4444444444444444
 40
0.4444444444444444
 40
0.4444444444444444
 40
0.5555555555555556
 40
0.5555555555555556
 40
0.5555555555555556
 40
0.5555555555555556
 40
0.6666666666666666
 40
0.6666666666666666
 40
0.6666666666666666
 40
0.6666666666666666
 40
0.7777777777777778
 40
0.7777777777777778
 40
0.7777777777777778
 40
0.7777777777777778
 40
1.0
 40
1.0
 40
1.0
 40
1.0
 10
-84.7489
 20
-44.66
 30
0.0
 10
-84.6336
 20
-48.2243
 30
0.0
 10
-82.104
 20
-51.9041
 30
0.0
 10
-78.4245
 20
-50.5242
 30
0.0
 10
-78.4245
 20
-50.5242
 30
0.0
 10
-79.1137
 20
-52.9391
 30
0.0
 10
-77.5044
 20
-56.7337
 30
0.0
 10
-72.6749
 20
-56.7337
 30
0.0
 10
-72.6749
 20
-56.7337
 30
0.0
 10
-74.0078
 20
-57.2628
 30
0.0
 10
-79.8044
 20
-58.2285
 30
0.0
 10
-78.0796
 20
-62.9431
 30
0.0
 10
-78.0796
 20
-62.9431
 30
0.0
 10
-80.8463
 20
-62.8244
 30
0.0
 10
-84.0588
 20
-63.173
 30
0.0
 10
-84.7489
 20
-68.3474
 30
0.0
 10
-84.7489
 20
-68.3474
 30
0.0
 10
-85.7115
 20
-64.1366
 30
0.0
 10
-87.7386
 20
-62.253
 30
0.0
 10
-91.1883
 20
-62.9431
 30
0.0
 10
-91.1883
 20
-62.9431
 30
0.0
 10
-90.958
 20
-61.7928
 30
0.0
 10
-89.5784
 20
-58.2285
 30
0.0
 10
-96.9375
 20
-56.6187
 30
0.0
 10
-96.9375
 20
-56.6187
 30
0.0
 10
-91.6575
 20
-56.0811
 30
0.0
 10
-90.3443
 20
-52.4758
 30
0.0
 10
-91.0733
 20
-50.6392
 30
0.0
 10
-91.0733
 20
-50.6392
 30
0.0
 10
-88.0491
 20
-51.0818
 30
0.0
 10
-85.1994
 20
-49.623
 30
0.0
 10
-84.7489
 20
-44.66
 30
0.0
  0
SPLINE
  5
82
330
1F
100
AcDbEntity
  8
layer 1
 62
   250
100
AcDbSpline
210
0.0
220
0.0
230
1.0
 70
    11
 71
     3
 72
    16
 73
    12
 74
     0
 42
0.0000000001
 43
0.0000000001
 12
1.0
 22
0.0
 32
0.0
 13
1.0
 23
0.0
 33
0.0
 40
0.0
 40
0.0
 40
0.0
 40
0.0
 40
0.25
 40
0.25
 40
0.25
 40
0.25
 40
0.5
 40
0.5
 40
0.5
 40
0.5
 40
1.0
 40
1.0
 40
1.0
 40
1.0
 10
-65.8606
 20
-58.7749
 30
0.0
 10
-66.7296
 20
-57.9441
 30
0.0
 10
-68.2235
 20
-57.1681
 30
0.0
 10
-70.7346
 20
-56.6187
 30
0.0
 10
-70.7346
 20
-56.6187
 30
0.0
 10
-68.3751
 20
-56.3781
 30
0.0
 10
-66.8079
 20
-55.5248
 30
0.0
 10
-65.8609
 20
-54.491
 30
0.0
 10
-65.8609
 20
-54.491
 30
0.0
 10
-65.8609
 20
-54.491
 30
0.0
 10
-65.8606
 20
-58.7749
 30
0.0
 10
-65.8606
 20
-58.7749
 30
0.0
  0
SPLINE
  5
83
330
1F
100
AcDbEntity
  8
layer 1
 62
   250
100
AcDbSpline
210
0.0
220
0.0
230
1.0
 70
    11
 71
     3
 72
    36
 73
    32
 74
     0
 42
0.0000000001
 43
0.0000000001
 12
1.0
 22
0.0
 32
0.0
 13
1.0
 23
0.0
 33
0.0
 40
0.0
 40
0.0
 40
0.0
 40
0.0
 40
0.1111111111111111
 40
0.1111111111111111
 40
0.1111111111111111
 40
0.1111111111111111
 40
0.2222222222222222
 40
0.2222222222222222
 40
0.2222222222222222
 40
0.2222222222222222
 40
0.3333333333333333
 40
0.3333333333333333
 40
0.3333333333333333
 40
0.3333333333333333
 40
0.4444444444444444
 40
0.4444444444444444
 40
0.4444444444444444
 40
0.4444444444444444
 40
0.5555555555555556
 40
0.5555555555555556
 40
0.5555555555555556
 40
0.5555555555555556
 40
0.6666666666666666
 40
0.6666666666666666
 40
0.6666666666666666
 40
0.6666666666666666
 40
0.7777777777777778
 40
0.7777777777777778
 40
0.7777777777777778
 40
0.7777777777777778
 40
1.0
 40
1.0
 40
1.0
 40
1.0
 10
-137.8013
 20
-69.9604
 30
0.0
 10
-137.6863
 20
-73.5247
 30
0.0
 10
-135.1567
 20
-77.2045
 30
0.0
 10
-131.4772
 20
-75.8246
 30
0.0
 10
-131.4772
 20
-75.8246
 30
0.0
 10
-132.167
 20
-78.2396
 30
0.0
 10
-130.5572
 20
-82.0341
 30
0.0
 10
-125.7276
 20
-82.0341
 30
0.0
 10
-125.7276
 20
-82.0341
 30
0.0
 10
-127.0609
 20
-82.5629
 30
0.0
 10
-132.8571
 20
-83.5289
 30
0.0
 10
-131.132
 20
-88.2435
 30
0.0
 10
-131.132
 20
-88.2435
 30
0.0
 10
-133.8993
 20
-88.1248
 30
0.0
 10
-137.1115
 20
-88.4734
 30
0.0
 10
-137.8016
 20
-93.6479
 30
0.0
 10
-137.8016
 20
-93.6479
 30
0.0
 10
-138.7642
 20
-89.437
 30
0.0
 10
-140.791
 20
-87.5534
 30
0.0
 10
-144.2407
 20
-88.2435
 30
0.0
 10
-144.2407
 20
-88.2435
 30
0.0
 10
-144.0101
 20
-87.0932
 30
0.0
 10
-142.6308
 20
-83.5289
 30
0.0
 10
-149.9902
 20
-81.9191
 30
0.0
 10
-149.9902
 20
-81.9191
 30
0.0
 10
-144.8158
 20
-81.8038
 30
0.0
 10
-143.4359
 20
-78.4695
 30
0.0
 10
-144.1257
 20
-75.9396
 30
0.0
 10
-144.1257
 20
-75.9396
 30
0.0
 10
-141.0207
 20
-76.5144
 30
0.0
 10
-138.1465
 20
-75.1348
 30
0.0
 10
-137.8013
 20
-69.9604
 30
0.0
  0
SPLINE
  5
84
330
1F
100
AcDbEntity
  8
layer 1
 62
   250
100
AcDbSpline
210
0.0
220
0.0
230
1.0
 70
    11
 71
     3
 72
    36
 73
    32
 74
     0
 42
0.0000000001
 43
0.0000000001
 12
1.0
 22
0.0
 32
0.0
 13
1.0
 23
0.0
 33
0.0
 40
0.0
 40
0.0
 40
0.0
 40
0.0
 40
0.1111111111111111
 40
0.1111111111111111
 40
0.1111111111111111
 40
0.1111111111111111
 40
0.2222222222222222
 40
0.2222222222222222
 40
0.2222222222222222
 40
0.2222222222222222
 40
0.3333333333333333
 40
0.3333333333333333
 40
0.3333333333333333
 40
0.3333333333333333
 40
0.4444444444444444
 40
0.4444444444444444
 40
0.4444444444444444
 40
0.4444444444444444
 40
0.5555555555555556
 40
0.5555555555555556
 40
0.5555555555555556
 40
0.5555555555555556
 40
0.6666666666666666
 40
0.6666666666666666
 40
0.6666666666666666
 40
0.6666666666666666
 40
0.7777777777777778
 40
0.7777777777777778
 40
0.7777777777777778
 40
0.7777777777777778
 40
1.0
 40
1.0
 40
1.0
 40
1.0
 10
-164.0039
 20
-69.8542
 30
0.0
 10
-163.8889
 20
-73.4194
 30
0.0
 10
-161.3597
 20
-77.099
 30
0.0
 10
-157.6801
 20
-75.7191
 30
0.0
 10
-157.6801
 20
-75.7191
 30
0.0
 10
-158.3696
 20
-78.1337
 30
0.0
 10
-156.7601
 20
-81.9285
 30
0.0
 10
-151.9306
 20
-81.9285
 30
0.0
 10
-151.9306
 20
-81.9285
 30
0.0
 10
-153.2635
 20
-82.4576
 30
0.0
 10
-159.0597
 20
-83.4234
 30
0.0
 10
-157.3349
 20
-88.1379
 30
0.0
 10
-157.3349
 20
-88.1379
 30
0.0
 10
-160.1019
 20
-88.0195
 30
0.0
 10
-163.3144
 20
-88.3679
 30
0.0
 10
-164.0042
 20
-93.5423
 30
0.0
 10
-164.0042
 20
-93.5423
 30
0.0
 10
-164.9669
 20
-89.3318
 30
0.0
 10
-166.994
 20
-87.4478
 30
0.0
 10
-170.4436
 20
-88.1379
 30
0.0
 10
-170.4436
 20
-88.1379
 30
0.0
 10
-170.2133
 20
-86.988
 30
0.0
 10
-168.8337
 20
-83.4234
 30
0.0
 10
-176.1931
 20
-81.8135
 30
0.0
 10
-176.1931
 20
-81.8135
 30
0.0
 10
-171.0184
 20
-81.6986
 30
0.0
 10
-169.6388
 20
-78.3639
 30
0.0
 10
-170.3286
 20
-75.834
 30
0.0
 10
-170.3286
 20
-75.834
 30
0.0
 10
-167.2233
 20
-76.4089
 30
0.0
 10
-164.3494
 20
-75.0293
 30
0.0
 10
-164.0039
 20
-69.8542
 30
0.0
  0
SPLINE
  5
85
330
1F
100
AcDbEntity
  8
layer 1
 62
   250
100
AcDbSpline
210
0.0
220
0.0
230
1.0
 70
    11
 71
     3
 72
    16
 73
    12
 74
     0
 42
0.0000000001
 43
0.0000000001
 12
1.0
 22
0.0
 32
0.0
 13
1.0
 23
0.0
 33
0.0
 40
0.0
 40
0.0
 40
0.0
 40
0.0
 40
0.25
 40
0.25
 40
0.25
 40
0.25
 40
0.5
 40
0.5
 40
0.5
 40
0.5
 40
1.0
 40
1.0
 40
1.0
 40
1.0
 10
-182.0216
 20
-80.8255
 30
0.0
 10
-181.1057
 20
-81.4326
 30
0.0
 10
-179.8899
 20
-81.8229
 30
0.0
 10
-178.3446
 20
-81.8229
 30
0.0
 10
-178.3446
 20
-81.8229
 30
0.0
 10
-178.984
 20
-82.0764
 30
0.0
 10
-180.6511
 20
-82.4303
 30
0.0
 10
-182.022
 20
-83.2508
 30
0.0
 10
-182.022
 20
-83.2508
 30
0.0
 10
-182.022
 20
-83.2508
 30
0.0
 10
-182.0216
 20
-80.8255
 30
0.0
 10
-182.0216
 20
-80.8255
 30
0.0
  0
SPLINE
  5
86
330
1F
100
AcDbEntity
  8
layer 1
 62
   250
100
AcDbSpline
210
0.0
220
0.0
230
1.0
 70
    11
 71
     3
 72
    36
 73
    32
 74
     0
 42
0.0000000001
 43
0.0000000001
 12
1.0
 22
0.0
 32
0.0
 13
1.0
 23
0.0
 33
0.0
 40
0.0
 40
0.0
 40
0.0
 40
0.0
 40
0.1111111111111111
 40
0.1111111111111111
 40
0.1111111111111111
 40
0.1111111111111111
 40
0.2222222222222222
 40
0.2222222222222222
 40
0.2222222222222222
 40
0.2222222222222222
 40
0.3333333333333333
 40
0.3333333333333333
 40
0.3333333333333333
 40
0.3333333333333333
 40
0.4444444444444444
 40
0.4444444444444444
 40
0.4444444444444444
 40
0.4444444444444444
 40
0.5555555555555556
 40
0.5555555555555556
 40
0.5555555555555556
 40
0.5555555555555556
 40
0.6666666666666666
 40
0.6666666666666666
 40
0.6666666666666666
 40
0.6666666666666666
 40
0.7777777777777778
 40
0.7777777777777778
 40
0.7777777777777778
 40
0.7777777777777778
 40
1.0
 40
1.0
 40
1.0
 40
1.0
 10
-111.3127
 20
-70.2364
 30
0.0
 10
-111.1977
 20
-73.8007
 30
0.0
 10
-108.6681
 20
-77.4805
 30
0.0
 10
-104.9886
 20
-76.1006
 30
0.0
 10
-104.9886
 20
-76.1006
 30
0.0
 10
-105.6781
 20
-78.5155
 30
0.0
 10
-104.0685
 20
-82.3101
 30
0.0
 10
-99.239
 20
-82.3101
 30
0.0
 10
-99.239
 20
-82.3101
 30
0.0
 10
-100.5723
 20
-82.8392
 30
0.0
 10
-106.3685
 20
-83.8049
 30
0.0
 10
-104.6437
 20
-88.5195
 30
0.0
 10
-104.6437
 20
-88.5195
 30
0.0
 10
-107.4107
 20
-88.4008
 30
0.0
 10
-110.6229
 20
-88.7494
 30
0.0
 10
-111.313
 20
-93.9238
 30
0.0
 10
-111.313
 20
-93.9238
 30
0.0
 10
-112.2756
 20
-89.713
 30
0.0
 10
-114.3027
 20
-87.8297
 30
0.0
 10
-117.7524
 20
-88.5195
 30
0.0
 10
-117.7524
 20
-88.5195
 30
0.0
 10
-117.5221
 20
-87.3692
 30
0.0
 10
-116.1425
 20
-83.8049
 30
0.0
 10
-123.5016
 20
-82.1951
 30
0.0
 10
-123.5016
 20
-82.1951
 30
0.0
 10
-118.2213
 20
-81.6575
 30
0.0
 10
-116.9084
 20
-78.0522
 30
0.0
 10
-117.6374
 20
-76.2159
 30
0.0
 10
-117.6374
 20
-76.2159
 30
0.0
 10
-114.6135
 20
-76.6582
 30
0.0
 10
-111.7635
 20
-75.1994
 30
0.0
 10
-111.3127
 20
-70.2364
 30
0.0
  0
SPLINE
  5
87
330
1F
100
AcDbEntity
  8
layer 1
 62
   250
100
AcDbSpline
210
0.0
220
0.0
230
1.0
 70
    11
 71
     3
 72
    36
 73
    32
 74
     0
 42
0.0000000001
 43
0.0000000001
 12
1.0
 22
0.0
 32
0.0
 13
1.0
 23
0.0
 33
0.0
 40
0.0
 40
0.0
 40
0.0
 40
0.0
 40
0.1111111111111111
 40
0.1111111111111111
 40
0.1111111111111111
 40
0.1111111111111111
 40
0.2222222222222222
 40
0.2222222222222222
 40
0.2222222222222222
 40
0.2222222222222222
 40
0.3333333333333333
 40
0.3333333333333333
 40
0.3333333333333333
 40
0.3333333333333333
 40
0.4444444444444444
 40
0.4444444444444444
 40
0.4444444444444444
 40
0.4444444444444444
 40
0.5555555555555556
 40
0.5555555555555556
 40
0.5555555555555556
 40
0.5555555555555556
 40
0.6666666666666666
 40
0.6666666666666666
 40
0.6666666666666666
 40
0.6666666666666666
 40
0.7777777777777778
 40
0.7777777777777778
 40
0.7777777777777778
 40
0.7777777777777778
 40
1.0
 40
1.0
 40
1.0
 40
1.0
 10
-84.8986
 20
-70.3417
 30
0.0
 10
-84.7837
 20
-73.9066
 30
0.0
 10
-82.2541
 20
-77.5864
 30
0.0
 10
-78.5742
 20
-76.2065
 30
0.0
 10
-78.5742
 20
-76.2065
 30
0.0
 10
-79.264
 20
-78.6208
 30
0.0
 10
-77.6545
 20
-82.4159
 30
0.0
 10
-72.825
 20
-82.4159
 30
0.0
 10
-72.825
 20
-82.4159
 30
0.0
 10
-74.1582
 20
-82.9447
 30
0.0
 10
-79.9541
 20
-83.9105
 30
0.0
 10
-78.2293
 20
-88.6251
 30
0.0
 10
-78.2293
 20
-88.6251
 30
0.0
 10
-80.9967
 20
-88.507
 30
0.0
 10
-84.2088
 20
-88.855
 30
0.0
 10
-84.8986
 20
-94.0297
 30
0.0
 10
-84.8986
 20
-94.0297
 30
0.0
 10
-85.8616
 20
-89.8189
 30
0.0
 10
-87.8884
 20
-87.9353
 30
0.0
 10
-91.338
 20
-88.6251
 30
0.0
 10
-91.338
 20
-88.6251
 30
0.0
 10
-91.1081
 20
-87.4754
 30
0.0
 10
-89.7281
 20
-83.9105
 30
0.0
 10
-97.0876
 20
-82.3007
 30
0.0
 10
-97.0876
 20
-82.3007
 30
0.0
 10
-91.8066
 20
-81.7628
 30
0.0
 10
-90.4944
 20
-78.1578
 30
0.0
 10
-91.223
 20
-76.3215
 30
0.0
 10
-91.223
 20
-76.3215
 30
0.0
 10
-88.1994
 20
-76.7641
 30
0.0
 10
-85.3494
 20
-75.3053
 30
0.0
 10
-84.8986
 20
-70.3417
 30
0.0
  0
SPLINE
  5
88
330
1F
100
AcDbEntity
  8
layer 1
 62
   250
100
AcDbSpline
210
0.0
220
0.0
230
1.0
 70
    11
 71
     3
 72
    16
 73
    12
 74
     0
 42
0.0000000001
 43
0.0000000001
 12
1.0
 22
0.0
 32
0.0
 13
1.0
 23
0.0
 33
0.0
 40
0.0
 40
0.0
 40
0.0
 40
0.0
 40
0.25
 40
0.25
 40
0.25
 40
0.25
 40
0.5
 40
0.5
 40
0.5
 40
0.5
 40
1.0
 40
1.0
 40
1.0
 40
1.0
 10
-66.0106
 20
-84.4568
 30
0.0
 10
-66.8796
 20
-83.6257
 30
0.0
 10
-68.3736
 20
-82.8501
 30
0.0
 10
-70.8846
 20
-82.3007
 30
0.0
 10
-70.8846
 20
-82.3007
 30
0.0
 10
-68.5249
 20
-82.0607
 30
0.0
 10
-66.9579
 20
-81.2071
 30
0.0
 10
-66.0109
 20
-80.1733
 30
0.0
 10
-66.0109
 20
-80.1733
 30
0.0
 10
-66.0109
 20
-80.1733
 30
0.0
 10
-66.0106
 20
-84.4568
 30
0.0
 10
-66.0106
 20
-84.4568
 30
0.0
  0
SPLINE
  5
89
330
1F
100
AcDbEntity
  8
layer 1
 62
   250
100
AcDbSpline
210
0.0
220
0.0
230
1.0
 70
    11
 71
     3
 72
    16
 73
    12
 74
     0
 42
0.0000000001
 43
0.0000000001
 12
1.0
 22
0.0
 32
0.0
 13
1.0
 23
0.0
 33
0.0
 40
0.0
 40
0.0
 40
0.0
 40
0.0
 40
0.25
 40
0.25
 40
0.25
 40
0.25
 40
0.5
 40
0.5
 40
0.5
 40
0.5
 40
1.0
 40
1.0
 40
1.0
 40
1.0
 10
-137.8013
 20
-95.6421
 30
0.0
 10
-137.7386
 20
-97.5815
 30
0.0
 10
-136.9621
 20
-99.5537
 30
0.0
 10
-135.6743
 20
-100.7278
 30
0.0
 10
-135.6743
 20
-100.7278
 30
0.0
 10
-135.6743
 20
-100.7278
 30
0.0
 10
-139.8556
 20
-100.7275
 30
0.0
 10
-139.8556
 20
-100.7275
 30
0.0
 10
-139.8556
 20
-100.7275
 30
0.0
 10
-138.7448
 20
-99.7975
 30
0.0
 10
-137.9704
 20
-98.1748
 30
0.0
 10
-137.8013
 20
-95.6421
 30
0.0
  0
SPLINE
  5
8A
330
1F
100
AcDbEntity
  8
layer 1
 62
   250
100
AcDbSpline
210
0.0
220
0.0
230
1.0
 70
    11
 71
     3
 72
    16
 73
    12
 74
     0
 42
0.0000000001
 43
0.0000000001
 12
1.0
 22
0.0
 32
0.0
 13
1.0
 23
0.0
 33
0.0
 40
0.0
 40
0.0
 40
0.0
 40
0.0
 40
0.25
 40
0.25
 40
0.25
 40
0.25
 40
0.5
 40
0.5
 40
0.5
 40
0.5
 40
1.0
 40
1.0
 40
1.0
 40
1.0
 10
-164.0039
 20
-95.5368
 30
0.0
 10
-163.9394
 20
-97.5351
 30
0.0
 10
-163.1171
 20
-99.5688
 30
0.0
 10
-161.7575
 20
-100.7278
 30
0.0
 10
-161.7575
 20
-100.7278
 30
0.0
 10
-161.7575
 20
-100.7278
 30
0.0
 10
-166.1901
 20
-100.7275
 30
0.0
 10
-166.1901
 20
-100.7275
 30
0.0
 10
-166.1901
 20
-100.7275
 30
0.0
 10
-165.0085
 20
-99.8166
 30
0.0
 10
-164.1799
 20
-98.1679
 30
0.0
 10
-164.0039
 20
-95.5368
 30
0.0
  0
SPLINE
  5
8B
330
1F
100
AcDbEntity
  8
layer 1
 62
   250
100
AcDbSpline
210
0.0
220
0.0
230
1.0
 70
    11
 71
     3
 72
    16
 73
    12
 74
     0
 42
0.0000000001
 43
0.0000000001
 12
1.0
 22
0.0
 32
0.0
 13
1.0
 23
0.0
 33
0.0
 40
0.0
 40
0.0
 40
0.0
 40
0.0
 40
0.25
 40
0.25
 40
0.25
 40
0.25
 40
0.5
 40
0.5
 40
0.5
 40
0.5
 40
1.0
 40
1.0
 40
1.0
 40
1.0
 10
-111.3127
 20
-95.9181
 30
0.0
 10
-111.2547
 20
-97.7121
 30
0.0
 10
-110.5853
 20
-99.5353
 30
0.0
 10
-109.4654
 20
-100.7278
 30
0.0
 10
-109.4654
 20
-100.7278
 30
0.0
 10
-109.4654
 20
-100.7278
 30
0.0
 10
-113.2721
 20
-100.7275
 30
0.0
 10
-113.2721
 20
-100.7275
 30
0.0
 10
-113.2721
 20
-100.7275
 30
0.0
 10
-112.2493
 20
-99.7737
 30
0.0
 10
-111.5226
 20
-98.2255
 30
0.0
 10
-111.3127
 20
-95.9181
 30
0.0
  0
SPLINE
  5
8C
330
1F
100
AcDbEntity
  8
layer 1
 62
   250
100
AcDbSpline
210
0.0
220
0.0
230
1.0
 70
    11
 71
     3
 72
    16
 73
    12
 74
     0
 42
0.0000000001
 43
0.0000000001
 12
1.0
 22
0.0
 32
0.0
 13
1.0
 23
0.0
 33
0.0
 40
0.0
 40
0.0
 40
0.0
 40
0.0
 40
0.25
 40
0.25
 40
0.25
 40
0.25
 40
0.5
 40
0.5
 40
0.5
 40
0.5
 40
1.0
 40
1.0
 40
1.0
 40
1.0
 10
-84.8986
 20
-96.0242
 30
0.0
 10
-84.8419
 20
-97.766
 30
0.0
 10
-84.2101
 20
-99.535
 30
0.0
 10
-83.1481
 20
-100.7278
 30
0.0
 10
-83.1481
 20
-100.7278
 30
0.0
 10
-83.1481
 20
-100.7278
 30
0.0
 10
-86.7484
 20
-100.7275
 30
0.0
 10
-86.7484
 20
-100.7275
 30
0.0
 10
-86.7484
 20
-100.7275
 30
0.0
 10
-85.7833
 20
-99.7668
 30
0.0
 10
-85.1007
 20
-98.2481
 30
0.0
 10
-84.8986
 20
-96.0242
 30
0.0
  0
SPLINE
  5
8D
330
1F
100
AcDbEntity
  8
layer 1
 62
   250
100
AcDbSpline
210
0.0
220
0.0
230
1.0
 70
    11
 71
     3
 72
    84
 73
    80
 74
     0
 42
0.0000000001
 43
0.0000000001
 12
1.0
 22
0.0
 32
0.0
 13
1.0
 23
0.0
 33
0.0
 40
0.0
 40
0.0
 40
0.0
 40
0.0
 40
0.0476190476190476
 40
0.0476190476190476
 40
0.0476190476190476
 40
0.0476190476190476
 40
0.0952380952380952
 40
0.0952380952380952
 40
0.0952380952380952
 40
0.0952380952380952
 40
0.1428571428571428
 40
0.1428571428571428
 40
0.1428571428571428
 40
0.1428571428571428
 40
0.1904761904761905
 40
0.1904761904761905
 40
0.1904761904761905
 40
0.1904761904761905
 40
0.2380952380952381
 40
0.2380952380952381
 40
0.2380952380952381
 40
0.2380952380952381
 40
0.2857142857142857
 40
0.2857142857142857
 40
0.2857142857142857
 40
0.2857142857142857
 40
0.3333333333333333
 40
0.3333333333333333
 40
0.3333333333333333
 40
0.3333333333333333
 40
0.3809523809523809
 40
0.3809523809523809
 40
0.3809523809523809
 40
0.3809523809523809
 40
0.4285714285714285
 40
0.4285714285714285
 40
0.4285714285714285
 40
0.4285714285714285
 40
0.4761904761904762
 40
0.4761904761904762
 40
0.4761904761904762
 40
0.4761904761904762
 40
0.5238095238095238
 40
0.5238095238095238
 40
0.5238095238095238
 40
0.5238095238095238
 40
0.5714285714285714
 40
0.5714285714285714
 40
0.5714285714285714
 40
0.5714285714285714
 40
0.6190476190476191
 40
0.6190476190476191
 40
0.6190476190476191
 40
0.6190476190476191
 40
0.6666666666666666
 40
0.6666666666666666
 40
0.6666666666666666
 40
0.6666666666666666
 40
0.7142857142857143
 40
0.7142857142857143
 40
0.7142857142857143
 40
0.7142857142857143
 40
0.7619047619047619
 40
0.7619047619047619
 40
0.7619047619047619
 40
0.7619047619047619
 40
0.8095238095238095
 40
0.8095238095238095
 40
0.8095238095238095
 40
0.8095238095238095
 40
0.8571428571428571
 40
0.8571428571428571
 40
0.8571428571428571
 40
0.8571428571428571
 40
0.9047619047619048
 40
0.9047619047619048
 40
0.9047619047619048
 40
0.9047619047619048
 40
1.0
 40
1.0
 40
1.0
 40
1.0
 10
-154.1898
 20
16.1462
 30
0.0
 10
-153.4856
 20
14.1868
 30
0.0
 10
-156.3951
 20
14.3804
 30
0.0
 10
-155.4544
 20
16.6061
 30
0.0
 10
-155.4544
 20
16.6061
 30
0.0
 10
-154.2377
 20
19.4846
 30
0.0
 10
-145.639
 20
19.3734
 30
0.0
 10
-145.9106
 20
15.801
 30
0.0
 10
-145.9106
 20
15.801
 30
0.0
 10
-145.8239
 20
14.2826
 30
0.0
 10
-147.7676
 20
14.4029
 30
0.0
 10
-147.4484
 20
15.9448
 30
0.0
 10
-147.4484
 20
15.9448
 30
0.0
 10
-150.03
 20
15.0836
 30
0.0
 10
-147.8222
 20
12.3996
 30
0.0
 10
-145.5513
 20
12.9456
 30
0.0
 10
-145.5513
 20
12.9456
 30
0.0
 10
-145.7562
 20
9.4359
 30
0.0
 10
-142.337
 20
9.3958
 30
0.0
 10
-142.691
 20
11.0864
 30
0.0
 10
-142.691
 20
11.0864
 30
0.0
 10
-144.2563
 20
10.776
 30
0.0
 10
-144.1041
 20
13.0916
 30
0.0
 10
-142.0008
 20
12.6963
 30
0.0
 10
-142.0008
 20
12.6963
 30
0.0
 10
-138.3918
 20
12.0184
 30
0.0
 10
-139.1596
 20
2.4107
 30
0.0
 10
-142.691
 20
3.1619
 30
0.0
 10
-142.691
 20
3.1619
 30
0.0
 10
-144.4634
 20
3.5394
 30
0.0
 10
-143.6248
 20
4.9393
 30
0.0
 10
-142.461
 20
4.9923
 30
0.0
 10
-142.461
 20
4.9923
 30
0.0
 10
-144.2992
 20
7.2048
 30
0.0
 10
-145.9921
 20
4.211
 30
0.0
 10
-145.6375
 20
2.9223
 30
0.0
 10
-145.6375
 20
2.9223
 30
0.0
 10
-149.708
 20
2.7926
 30
0.0
 10
-148.6316
 20
-0.0193
 30
0.0
 10
-147.7504
 20
-0.0675
 30
0.0
 10
-147.7504
 20
-0.0675
 30
0.0
 10
-146.8191
 20
2.7854
 30
0.0
 10
-144.4568
 20
-0.4368
 30
0.0
 10
-147.1753
 20
-2.1372
 30
0.0
 10
-147.1753
 20
-2.1372
 30
0.0
 10
-149.3183
 20
-3.478
 30
0.0
 10
-155.2925
 20
-3.2217
 30
0.0
 10
-155.56
 20
-0.3501
 30
0.0
 10
-155.56
 20
-0.3501
 30
0.0
 10
-155.7191
 20
1.3607
 30
0.0
 10
-153.936
 20
1.3362
 30
0.0
 10
-153.9598
 20
0.0475
 30
0.0
 10
-153.9598
 20
0.0475
 30
0.0
 10
-152.0339
 20
-0.0819
 30
0.0
 10
-152.7244
 20
3.4542
 30
0.0
 10
-155.9146
 20
2.8073
 30
0.0
 10
-155.9146
 20
2.8073
 30
0.0
 10
-155.4168
 20
5.532
 30
0.0
 10
-157.9843
 20
6.7788
 30
0.0
 10
-159.1343
 20
5.064
 30
0.0
 10
-159.1343
 20
5.064
 30
0.0
 10
-156.7012
 20
4.456
 30
0.0
 10
-157.9335
 20
2.1545
 30
0.0
 10
-160.1163
 20
3.5788
 30
0.0
 10
-160.1163
 20
3.5788
 30
0.0
 10
-162.4655
 20
5.1116
 30
0.0
 10
-162.5582
 20
11.3207
 30
0.0
 10
-159.7091
 20
12.5813
 30
0.0
 10
-159.7091
 20
12.5813
 30
0.0
 10
-157.7312
 20
13.4566
 30
0.0
 10
-156.9032
 20
11.0366
 30
0.0
 10
-159.091
 20
11.1059
 30
0.0
 10
-159.091
 20
11.1059
 30
0.0
 10
-157.5915
 20
8.5941
 30
0.0
 10
-154.9999
 20
11.312
 30
0.0
 10
-156.0296
 20
13.1561
 30
0.0
 10
-156.0296
 20
13.1561
 30
0.0
 10
-153.499
 20
12.3514
 30
0.0
 10
-151.2238
 20
14.953
 30
0.0
 10
-154.1898
 20
16.1462
 30
0.0
  0
SPLINE
  5
8E
330
1F
100
AcDbEntity
  8
layer 1
 62
   250
100
AcDbSpline
210
0.0
220
0.0
230
1.0
 70
    11
 71
     3
 72
    68
 73
    64
 74
     0
 42
0.0000000001
 43
0.0000000001
 12
1.0
 22
0.0
 32
0.0
 13
1.0
 23
0.0
 33
0.0
 40
0.0
 40
0.0
 40
0.0
 40
0.0
 40
0.0588235294117647
 40
0.0588235294117647
 40
0.0588235294117647
 40
0.0588235294117647
 40
0.1176470588235294
 40
0.1176470588235294
 40
0.1176470588235294
 40
0.1176470588235294
 40
0.1764705882352941
 40
0.1764705882352941
 40
0.1764705882352941
 40
0.1764705882352941
 40
0.2352941176470588
 40
0.2352941176470588
 40
0.2352941176470588
 40
0.2352941176470588
 40
0.2941176470588235
 40
0.2941176470588235
 40
0.2941176470588235
 40
0.2941176470588235
 40
0.3529411764705883
 40
0.3529411764705883
 40
0.3529411764705883
 40
0.3529411764705883
 40
0.4117647058823529
 40
0.4117647058823529
 40
0.4117647058823529
 40
0.4117647058823529
 40
0.4705882352941176
 40
0.4705882352941176
 40
0.4705882352941176
 40
0.4705882352941176
 40
0.5294117647058824
 40
0.5294117647058824
 40
0.5294117647058824
 40
0.5294117647058824
 40
0.5882352941176471
 40
0.5882352941176471
 40
0.5882352941176471
 40
0.5882352941176471
 40
0.6470588235294118
 40
0.6470588235294118
 40
0.6470588235294118
 40
0.6470588235294118
 40
0.7058823529411765
 40
0.7058823529411765
 40
0.7058823529411765
 40
0.7058823529411765
 40
0.7647058823529411
 40
0.7647058823529411
 40
0.7647058823529411
 40
0.7647058823529411
 40
0.8235294117647058
 40
0.8235294117647058
 40
0.8235294117647058
 40
0.8235294117647058
 40
0.8823529411764706
 40
0.8823529411764706
 40
0.8823529411764706
 40
0.8823529411764706
 40
1.0
 40
1.0
 40
1.0
 40
1.0
 10
-180.3924
 20
16.4632
 30
0.0
 10
-179.6882
 20
14.5038
 30
0.0
 10
-182.598
 20
14.6971
 30
0.0
 10
-181.6573
 20
16.9228
 30
0.0
 10
-181.6573
 20
16.9228
 30
0.0
 10
-180.4403
 20
19.8013
 30
0.0
 10
-171.842
 20
19.6904
 30
0.0
 10
-172.1132
 20
16.118
 30
0.0
 10
-172.1132
 20
16.118
 30
0.0
 10
-172.0274
 20
14.5996
 30
0.0
 10
-173.9702
 20
14.7196
 30
0.0
 10
-173.6513
 20
16.2618
 30
0.0
 10
-173.6513
 20
16.2618
 30
0.0
 10
-176.2332
 20
15.4006
 30
0.0
 10
-174.0251
 20
12.7166
 30
0.0
 10
-171.7542
 20
13.2626
 30
0.0
 10
-171.7542
 20
13.2626
 30
0.0
 10
-171.9588
 20
9.7526
 30
0.0
 10
-168.5396
 20
9.7128
 30
0.0
 10
-168.8939
 20
11.4034
 30
0.0
 10
-168.8939
 20
11.4034
 30
0.0
 10
-170.4589
 20
11.0927
 30
0.0
 10
-170.307
 20
13.4086
 30
0.0
 10
-168.2038
 20
13.0133
 30
0.0
 10
-168.2038
 20
13.0133
 30
0.0
 10
-164.5953
 20
12.3354
 30
0.0
 10
-165.3625
 20
2.7277
 30
0.0
 10
-168.8939
 20
3.4789
 30
0.0
 10
-168.8939
 20
3.4789
 30
0.0
 10
-170.666
 20
3.8564
 30
0.0
 10
-169.8277
 20
5.2564
 30
0.0
 10
-168.6636
 20
5.309
 30
0.0
 10
-168.6636
 20
5.309
 30
0.0
 10
-170.5025
 20
7.5218
 30
0.0
 10
-172.195
 20
4.528
 30
0.0
 10
-171.8404
 20
3.2393
 30
0.0
 10
-171.8404
 20
3.2393
 30
0.0
 10
-175.9099
 20
3.1099
 30
0.0
 10
-174.8345
 20
0.2978
 30
0.0
 10
-173.9533
 20
0.2495
 30
0.0
 10
-173.9533
 20
0.2495
 30
0.0
 10
-173.022
 20
3.1024
 30
0.0
 10
-170.6597
 20
-0.1198
 30
0.0
 10
-173.3782
 20
-1.8202
 30
0.0
 10
-173.3782
 20
-1.8202
 30
0.0
 10
-175.5209
 20
-3.1609
 30
0.0
 10
-181.4954
 20
-2.9047
 30
0.0
 10
-181.7629
 20
-0.033
 30
0.0
 10
-181.7629
 20
-0.033
 30
0.0
 10
-181.9217
 20
1.678
 30
0.0
 10
-180.1386
 20
1.6532
 30
0.0
 10
-180.1624
 20
0.3645
 30
0.0
 10
-180.1624
 20
0.3645
 30
0.0
 10
-178.2913
 20
0.2389
 30
0.0
 10
-178.8903
 20
3.5735
 30
0.0
 10
-181.8519
 20
3.1694
 30
0.0
 10
-181.8519
 20
3.1694
 30
0.0
 10
-181.8519
 20
3.1694
 30
0.0
 10
-181.8515
 20
13.3779
 30
0.0
 10
-181.8515
 20
13.3779
 30
0.0
 10
-181.8515
 20
13.3779
 30
0.0
 10
-179.4855
 20
12.9281
 30
0.0
 10
-177.5762
 20
15.3302
 30
0.0
 10
-180.3924
 20
16.4632
 30
0.0
  0
SPLINE
  5
8F
330
1F
100
AcDbEntity
  8
layer 1
 62
   250
100
AcDbSpline
210
0.0
220
0.0
230
1.0
 70
    11
 71
     3
 72
    84
 73
    80
 74
     0
 42
0.0000000001
 43
0.0000000001
 12
1.0
 22
0.0
 32
0.0
 13
1.0
 23
0.0
 33
0.0
 40
0.0
 40
0.0
 40
0.0
 40
0.0
 40
0.0476190476190476
 40
0.0476190476190476
 40
0.0476190476190476
 40
0.0476190476190476
 40
0.0952380952380952
 40
0.0952380952380952
 40
0.0952380952380952
 40
0.0952380952380952
 40
0.1428571428571428
 40
0.1428571428571428
 40
0.1428571428571428
 40
0.1428571428571428
 40
0.1904761904761905
 40
0.1904761904761905
 40
0.1904761904761905
 40
0.1904761904761905
 40
0.2380952380952381
 40
0.2380952380952381
 40
0.2380952380952381
 40
0.2380952380952381
 40
0.2857142857142857
 40
0.2857142857142857
 40
0.2857142857142857
 40
0.2857142857142857
 40
0.3333333333333333
 40
0.3333333333333333
 40
0.3333333333333333
 40
0.3333333333333333
 40
0.3809523809523809
 40
0.3809523809523809
 40
0.3809523809523809
 40
0.3809523809523809
 40
0.4285714285714285
 40
0.4285714285714285
 40
0.4285714285714285
 40
0.4285714285714285
 40
0.4761904761904762
 40
0.4761904761904762
 40
0.4761904761904762
 40
0.4761904761904762
 40
0.5238095238095238
 40
0.5238095238095238
 40
0.5238095238095238
 40
0.5238095238095238
 40
0.5714285714285714
 40
0.5714285714285714
 40
0.5714285714285714
 40
0.5714285714285714
 40
0.6190476190476191
 40
0.6190476190476191
 40
0.6190476190476191
 40
0.6190476190476191
 40
0.6666666666666666
 40
0.6666666666666666
 40
0.6666666666666666
 40
0.6666666666666666
 40
0.7142857142857143
 40
0.7142857142857143
 40
0.7142857142857143
 40
0.7142857142857143
 40
0.7619047619047619
 40
0.7619047619047619
 40
0.7619047619047619
 40
0.7619047619047619
 40
0.8095238095238095
 40
0.8095238095238095
 40
0.8095238095238095
 40
0.8095238095238095
 40
0.8571428571428571
 40
0.8571428571428571
 40
0.8571428571428571
 40
0.8571428571428571
 40
0.9047619047619048
 40
0.9047619047619048
 40
0.9047619047619048
 40
0.9047619047619048
 40
1.0
 40
1.0
 40
1.0
 40
1.0
 10
-127.9173
 20
15.999
 30
0.0
 10
-127.2131
 20
14.0398
 30
0.0
 10
-130.123
 20
14.2331
 30
0.0
 10
-129.1826
 20
16.4588
 30
0.0
 10
-129.1826
 20
16.4588
 30
0.0
 10
-127.9652
 20
19.3374
 30
0.0
 10
-119.3669
 20
19.2262
 30
0.0
 10
-119.6385
 20
15.6538
 30
0.0
 10
-119.6385
 20
15.6538
 30
0.0
 10
-119.5523
 20
14.1351
 30
0.0
 10
-121.4955
 20
14.2557
 30
0.0
 10
-121.1763
 20
15.7979
 30
0.0
 10
-121.1763
 20
15.7979
 30
0.0
 10
-123.7575
 20
14.9361
 30
0.0
 10
-121.5503
 20
12.2524
 30
0.0
 10
-119.2792
 20
12.7984
 30
0.0
 10
-119.2792
 20
12.7984
 30
0.0
 10
-119.4837
 20
9.2883
 30
0.0
 10
-116.0648
 20
9.2485
 30
0.0
 10
-116.4188
 20
10.9392
 30
0.0
 10
-116.4188
 20
10.9392
 30
0.0
 10
-117.9839
 20
10.6288
 30
0.0
 10
-117.8319
 20
12.9444
 30
0.0
 10
-115.7287
 20
12.549
 30
0.0
 10
-115.7287
 20
12.549
 30
0.0
 10
-112.1203
 20
11.8708
 30
0.0
 10
-112.8874
 20
2.2635
 30
0.0
 10
-116.4188
 20
3.0147
 30
0.0
 10
-116.4188
 20
3.0147
 30
0.0
 10
-118.1915
 20
3.3918
 30
0.0
 10
-117.353
 20
4.7921
 30
0.0
 10
-116.1889
 20
4.845
 30
0.0
 10
-116.1889
 20
4.845
 30
0.0
 10
-118.0274
 20
7.0573
 30
0.0
 10
-119.7199
 20
4.0638
 30
0.0
 10
-119.3653
 20
2.775
 30
0.0
 10
-119.3653
 20
2.775
 30
0.0
 10
-123.4355
 20
2.6453
 30
0.0
 10
-122.3595
 20
-0.1665
 30
0.0
 10
-121.4783
 20
-0.2144
 30
0.0
 10
-121.4783
 20
-0.2144
 30
0.0
 10
-120.5476
 20
2.6378
 30
0.0
 10
-118.185
 20
-0.5841
 30
0.0
 10
-120.9034
 20
-2.2844
 30
0.0
 10
-120.9034
 20
-2.2844
 30
0.0
 10
-123.0458
 20
-3.6249
 30
0.0
 10
-129.0206
 20
-3.3689
 30
0.0
 10
-129.2878
 20
-0.4973
 30
0.0
 10
-129.2878
 20
-0.4973
 30
0.0
 10
-129.4467
 20
1.2134
 30
0.0
 10
-127.6639
 20
1.189
 30
0.0
 10
-127.6877
 20
-0.0994
 30
0.0
 10
-127.6877
 20
-0.0994
 30
0.0
 10
-125.7624
 20
-0.2294
 30
0.0
 10
-126.4522
 20
3.3069
 30
0.0
 10
-129.6424
 20
2.6601
 30
0.0
 10
-129.6424
 20
2.6601
 30
0.0
 10
-129.1447
 20
5.3848
 30
0.0
 10
-131.7121
 20
6.6316
 30
0.0
 10
-132.8621
 20
4.9168
 30
0.0
 10
-132.8621
 20
4.9168
 30
0.0
 10
-130.4293
 20
4.3084
 30
0.0
 10
-131.6614
 20
2.0072
 30
0.0
 10
-133.8442
 20
3.4316
 30
0.0
 10
-133.8442
 20
3.4316
 30
0.0
 10
-136.1936
 20
4.9647
 30
0.0
 10
-136.2861
 20
11.1735
 30
0.0
 10
-133.437
 20
12.4341
 30
0.0
 10
-133.437
 20
12.4341
 30
0.0
 10
-131.4587
 20
13.3093
 30
0.0
 10
-130.6311
 20
10.8894
 30
0.0
 10
-132.8189
 20
10.9586
 30
0.0
 10
-132.8189
 20
10.9586
 30
0.0
 10
-131.319
 20
8.4466
 30
0.0
 10
-128.7277
 20
11.1647
 30
0.0
 10
-129.7574
 20
13.0092
 30
0.0
 10
-129.7574
 20
13.0092
 30
0.0
 10
-127.2275
 20
12.2045
 30
0.0
 10
-124.9517
 20
14.8058
 30
0.0
 10
-127.9173
 20
15.999
 30
0.0
  0
SPLINE
  5
90
330
1F
100
AcDbEntity
  8
layer 1
 62
   250
100
AcDbSpline
210
0.0
220
0.0
230
1.0
 70
    11
 71
     3
 72
    84
 73
    80
 74
     0
 42
0.0000000001
 43
0.0000000001
 12
1.0
 22
0.0
 32
0.0
 13
1.0
 23
0.0
 33
0.0
 40
0.0
 40
0.0
 40
0.0
 40
0.0
 40
0.0476190476190476
 40
0.0476190476190476
 40
0.0476190476190476
 40
0.0476190476190476
 40
0.0952380952380952
 40
0.0952380952380952
 40
0.0952380952380952
 40
0.0952380952380952
 40
0.1428571428571428
 40
0.1428571428571428
 40
0.1428571428571428
 40
0.1428571428571428
 40
0.1904761904761905
 40
0.1904761904761905
 40
0.1904761904761905
 40
0.1904761904761905
 40
0.2380952380952381
 40
0.2380952380952381
 40
0.2380952380952381
 40
0.2380952380952381
 40
0.2857142857142857
 40
0.2857142857142857
 40
0.2857142857142857
 40
0.2857142857142857
 40
0.3333333333333333
 40
0.3333333333333333
 40
0.3333333333333333
 40
0.3333333333333333
 40
0.3809523809523809
 40
0.3809523809523809
 40
0.3809523809523809
 40
0.3809523809523809
 40
0.4285714285714285
 40
0.4285714285714285
 40
0.4285714285714285
 40
0.4285714285714285
 40
0.4761904761904762
 40
0.4761904761904762
 40
0.4761904761904762
 40
0.4761904761904762
 40
0.5238095238095238
 40
0.5238095238095238
 40
0.5238095238095238
 40
0.5238095238095238
 40
0.5714285714285714
 40
0.5714285714285714
 40
0.5714285714285714
 40
0.5714285714285714
 40
0.6190476190476191
 40
0.6190476190476191
 40
0.6190476190476191
 40
0.6190476190476191
 40
0.6666666666666666
 40
0.6666666666666666
 40
0.6666666666666666
 40
0.6666666666666666
 40
0.7142857142857143
 40
0.7142857142857143
 40
0.7142857142857143
 40
0.7142857142857143
 40
0.7619047619047619
 40
0.7619047619047619
 40
0.7619047619047619
 40
0.7619047619047619
 40
0.8095238095238095
 40
0.8095238095238095
 40
0.8095238095238095
 40
0.8095238095238095
 40
0.8571428571428571
 40
0.8571428571428571
 40
0.8571428571428571
 40
0.8571428571428571
 40
0.9047619047619048
 40
0.9047619047619048
 40
0.9047619047619048
 40
0.9047619047619048
 40
1.0
 40
1.0
 40
1.0
 40
1.0
 10
-101.5026
 20
15.8931
 30
0.0
 10
-100.7991
 20
13.934
 30
0.0
 10
-103.7089
 20
14.1272
 30
0.0
 10
-102.7682
 20
16.353
 30
0.0
 10
-102.7682
 20
16.353
 30
0.0
 10
-101.5512
 20
19.2315
 30
0.0
 10
-92.9528
 20
19.1206
 30
0.0
 10
-93.2241
 20
15.5482
 30
0.0
 10
-93.2241
 20
15.5482
 30
0.0
 10
-93.1383
 20
14.0298
 30
0.0
 10
-95.0811
 20
14.1498
 30
0.0
 10
-94.7622
 20
15.692
 30
0.0
 10
-94.7622
 20
15.692
 30
0.0
 10
-97.3435
 20
14.8308
 30
0.0
 10
-95.1359
 20
12.1468
 30
0.0
 10
-92.8651
 20
12.6928
 30
0.0
 10
-92.8651
 20
12.6928
 30
0.0
 10
-93.0697
 20
9.1824
 30
0.0
 10
-89.6505
 20
9.143
 30
0.0
 10
-90.0044
 20
10.8336
 30
0.0
 10
-90.0044
 20
10.8336
 30
0.0
 10
-91.5698
 20
10.5226
 30
0.0
 10
-91.4179
 20
12.8388
 30
0.0
 10
-89.3146
 20
12.4435
 30
0.0
 10
-89.3146
 20
12.4435
 30
0.0
 10
-85.7059
 20
11.7656
 30
0.0
 10
-86.4734
 20
2.1579
 30
0.0
 10
-90.0044
 20
2.9091
 30
0.0
 10
-90.0044
 20
2.9091
 30
0.0
 10
-91.7769
 20
3.2863
 30
0.0
 10
-90.9386
 20
4.6865
 30
0.0
 10
-89.7745
 20
4.7392
 30
0.0
 10
-89.7745
 20
4.7392
 30
0.0
 10
-91.6133
 20
6.952
 30
0.0
 10
-93.3059
 20
3.9582
 30
0.0
 10
-92.9513
 20
2.6695
 30
0.0
 10
-92.9513
 20
2.6695
 30
0.0
 10
-97.0215
 20
2.5401
 30
0.0
 10
-95.9454
 20
-0.2721
 30
0.0
 10
-95.0639
 20
-0.3203
 30
0.0
 10
-95.0639
 20
-0.3203
 30
0.0
 10
-94.1329
 20
2.5322
 30
0.0
 10
-91.7706
 20
-0.6896
 30
0.0
 10
-94.4891
 20
-2.39
 30
0.0
 10
-94.4891
 20
-2.39
 30
0.0
 10
-96.6318
 20
-3.7308
 30
0.0
 10
-102.6063
 20
-3.4745
 30
0.0
 10
-102.8738
 20
-0.6029
 30
0.0
 10
-102.8738
 20
-0.6029
 30
0.0
 10
-103.0326
 20
1.1082
 30
0.0
 10
-101.2495
 20
1.0834
 30
0.0
 10
-101.2733
 20
-0.2053
 30
0.0
 10
-101.2733
 20
-0.2053
 30
0.0
 10
-99.3477
 20
-0.335
 30
0.0
 10
-100.0382
 20
3.2014
 30
0.0
 10
-103.2281
 20
2.5545
 30
0.0
 10
-103.2281
 20
2.5545
 30
0.0
 10
-102.7306
 20
5.2789
 30
0.0
 10
-105.2981
 20
6.5257
 30
0.0
 10
-106.4478
 20
4.8112
 30
0.0
 10
-106.4478
 20
4.8112
 30
0.0
 10
-104.0153
 20
4.2029
 30
0.0
 10
-105.247
 20
1.9017
 30
0.0
 10
-107.4301
 20
3.326
 30
0.0
 10
-107.4301
 20
3.326
 30
0.0
 10
-109.7796
 20
4.8591
 30
0.0
 10
-109.872
 20
11.0679
 30
0.0
 10
-107.0229
 20
12.3285
 30
0.0
 10
-107.0229
 20
12.3285
 30
0.0
 10
-105.0447
 20
13.2038
 30
0.0
 10
-104.217
 20
10.7838
 30
0.0
 10
-106.4048
 20
10.8531
 30
0.0
 10
-106.4048
 20
10.8531
 30
0.0
 10
-104.905
 20
8.341
 30
0.0
 10
-102.3134
 20
11.0592
 30
0.0
 10
-103.3434
 20
12.9033
 30
0.0
 10
-103.3434
 20
12.9033
 30
0.0
 10
-100.8135
 20
12.0989
 30
0.0
 10
-98.5376
 20
14.7002
 30
0.0
 10
-101.5026
 20
15.8931
 30
0.0
  0
SPLINE
  5
91
330
1F
100
AcDbEntity
  8
layer 1
 62
   250
100
AcDbSpline
210
0.0
220
0.0
230
1.0
 70
    11
 71
     3
 72
    76
 73
    72
 74
     0
 42
0.0000000001
 43
0.0000000001
 12
1.0
 22
0.0
 32
0.0
 13
1.0
 23
0.0
 33
0.0
 40
0.0
 40
0.0
 40
0.0
 40
0.0
 40
0.0526315789473684
 40
0.0526315789473684
 40
0.0526315789473684
 40
0.0526315789473684
 40
0.1052631578947368
 40
0.1052631578947368
 40
0.1052631578947368
 40
0.1052631578947368
 40
0.1578947368421053
 40
0.1578947368421053
 40
0.1578947368421053
 40
0.1578947368421053
 40
0.2105263157894737
 40
0.2105263157894737
 40
0.2105263157894737
 40
0.2105263157894737
 40
0.2631578947368421
 40
0.2631578947368421
 40
0.2631578947368421
 40
0.2631578947368421
 40
0.3157894736842105
 40
0.3157894736842105
 40
0.3157894736842105
 40
0.3157894736842105
 40
0.3684210526315789
 40
0.3684210526315789
 40
0.3684210526315789
 40
0.3684210526315789
 40
0.4210526315789473
 40
0.4210526315789473
 40
0.4210526315789473
 40
0.4210526315789473
 40
0.4736842105263158
 40
0.4736842105263158
 40
0.4736842105263158
 40
0.4736842105263158
 40
0.5263157894736842
 40
0.5263157894736842
 40
0.5263157894736842
 40
0.5263157894736842
 40
0.5789473684210527
 40
0.5789473684210527
 40
0.5789473684210527
 40
0.5789473684210527
 40
0.631578947368421
 40
0.631578947368421
 40
0.631578947368421
 40
0.631578947368421
 40
0.6842105263157895
 40
0.6842105263157895
 40
0.6842105263157895
 40
0.6842105263157895
 40
0.7368421052631579
 40
0.7368421052631579
 40
0.7368421052631579
 40
0.7368421052631579
 40
0.7894736842105263
 40
0.7894736842105263
 40
0.7894736842105263
 40
0.7894736842105263
 40
0.8421052631578947
 40
0.8421052631578947
 40
0.8421052631578947
 40
0.8421052631578947
 40
0.8947368421052632
 40
0.8947368421052632
 40
0.8947368421052632
 40
0.8947368421052632
 40
1.0
 40
1.0
 40
1.0
 40
1.0
 10
-75.1945
 20
15.7878
 30
0.0
 10
-74.4906
 20
13.8284
 30
0.0
 10
-77.4004
 20
14.0217
 30
0.0
 10
-76.4597
 20
16.2474
 30
0.0
 10
-76.4597
 20
16.2474
 30
0.0
 10
-75.2427
 20
19.1259
 30
0.0
 10
-66.644
 20
19.015
 30
0.0
 10
-66.9156
 20
15.4426
 30
0.0
 10
-66.9156
 20
15.4426
 30
0.0
 10
-66.8292
 20
13.9242
 30
0.0
 10
-68.7726
 20
14.0442
 30
0.0
 10
-68.4537
 20
15.5864
 30
0.0
 10
-68.4537
 20
15.5864
 30
0.0
 10
-71.035
 20
14.7253
 30
0.0
 10
-68.8275
 20
12.0409
 30
0.0
 10
-66.5566
 20
12.5869
 30
0.0
 10
-66.5566
 20
12.5869
 30
0.0
 10
-66.624
 20
11.4279
 30
0.0
 10
-66.2973
 20
10.6479
 30
0.0
 10
-65.8408
 20
10.1833
 30
0.0
 10
-65.8408
 20
10.1833
 30
0.0
 10
-65.8408
 20
10.1833
 30
0.0
 10
-65.8408
 20
4.949
 30
0.0
 10
-65.8408
 20
4.949
 30
0.0
 10
-65.8408
 20
4.949
 30
0.0
 10
-66.4718
 20
4.3219
 30
0.0
 10
-66.8235
 20
3.2208
 30
0.0
 10
-66.6428
 20
2.5639
 30
0.0
 10
-66.6428
 20
2.5639
 30
0.0
 10
-70.7123
 20
2.4342
 30
0.0
 10
-69.6369
 20
-0.3776
 30
0.0
 10
-68.7554
 20
-0.4259
 30
0.0
 10
-68.7554
 20
-0.4259
 30
0.0
 10
-67.8244
 20
2.427
 30
0.0
 10
-65.4621
 20
-0.7952
 30
0.0
 10
-68.1806
 20
-2.4956
 30
0.0
 10
-68.1806
 20
-2.4956
 30
0.0
 10
-70.3233
 20
-3.8363
 30
0.0
 10
-76.2978
 20
-3.5801
 30
0.0
 10
-76.565
 20
-0.7084
 30
0.0
 10
-76.565
 20
-0.7084
 30
0.0
 10
-76.7241
 20
1.0023
 30
0.0
 10
-74.941
 20
0.9779
 30
0.0
 10
-74.9648
 20
-0.3109
 30
0.0
 10
-74.9648
 20
-0.3109
 30
0.0
 10
-73.0392
 20
-0.4403
 30
0.0
 10
-73.7297
 20
3.0958
 30
0.0
 10
-76.9196
 20
2.4489
 30
0.0
 10
-76.9196
 20
2.4489
 30
0.0
 10
-76.4221
 20
5.1737
 30
0.0
 10
-78.9896
 20
6.4201
 30
0.0
 10
-80.1393
 20
4.7056
 30
0.0
 10
-80.1393
 20
4.7056
 30
0.0
 10
-77.7071
 20
4.0976
 30
0.0
 10
-78.9385
 20
1.7958
 30
0.0
 10
-81.1217
 20
3.2205
 30
0.0
 10
-81.1217
 20
3.2205
 30
0.0
 10
-83.4714
 20
4.7533
 30
0.0
 10
-83.5635
 20
10.9621
 30
0.0
 10
-80.7144
 20
12.2229
 30
0.0
 10
-80.7144
 20
12.2229
 30
0.0
 10
-78.7365
 20
13.0979
 30
0.0
 10
-77.9085
 20
10.6779
 30
0.0
 10
-80.0964
 20
10.7472
 30
0.0
 10
-80.0964
 20
10.7472
 30
0.0
 10
-78.5965
 20
8.2355
 30
0.0
 10
-76.0049
 20
10.9533
 30
0.0
 10
-77.0346
 20
12.7978
 30
0.0
 10
-77.0346
 20
12.7978
 30
0.0
 10
-74.505
 20
11.993
 30
0.0
 10
-72.2288
 20
14.5946
 30
0.0
 10
-75.1945
 20
15.7878
 30
0.0
  0
SPLINE
  5
92
330
1F
100
AcDbEntity
  8
layer 1
 62
   250
100
AcDbSpline
210
0.0
220
0.0
230
1.0
 70
    11
 71
     3
 72
    84
 73
    80
 74
     0
 42
0.0000000001
 43
0.0000000001
 12
1.0
 22
0.0
 32
0.0
 13
1.0
 23
0.0
 33
0.0
 40
0.0
 40
0.0
 40
0.0
 40
0.0
 40
0.0476190476190476
 40
0.0476190476190476
 40
0.0476190476190476
 40
0.0476190476190476
 40
0.0952380952380952
 40
0.0952380952380952
 40
0.0952380952380952
 40
0.0952380952380952
 40
0.1428571428571428
 40
0.1428571428571428
 40
0.1428571428571428
 40
0.1428571428571428
 40
0.1904761904761905
 40
0.1904761904761905
 40
0.1904761904761905
 40
0.1904761904761905
 40
0.2380952380952381
 40
0.2380952380952381
 40
0.2380952380952381
 40
0.2380952380952381
 40
0.2857142857142857
 40
0.2857142857142857
 40
0.2857142857142857
 40
0.2857142857142857
 40
0.3333333333333333
 40
0.3333333333333333
 40
0.3333333333333333
 40
0.3333333333333333
 40
0.3809523809523809
 40
0.3809523809523809
 40
0.3809523809523809
 40
0.3809523809523809
 40
0.4285714285714285
 40
0.4285714285714285
 40
0.4285714285714285
 40
0.4285714285714285
 40
0.4761904761904762
 40
0.4761904761904762
 40
0.4761904761904762
 40
0.4761904761904762
 40
0.5238095238095238
 40
0.5238095238095238
 40
0.5238095238095238
 40
0.5238095238095238
 40
0.5714285714285714
 40
0.5714285714285714
 40
0.5714285714285714
 40
0.5714285714285714
 40
0.6190476190476191
 40
0.6190476190476191
 40
0.6190476190476191
 40
0.6190476190476191
 40
0.6666666666666666
 40
0.6666666666666666
 40
0.6666666666666666
 40
0.6666666666666666
 40
0.7142857142857143
 40
0.7142857142857143
 40
0.7142857142857143
 40
0.7142857142857143
 40
0.7619047619047619
 40
0.7619047619047619
 40
0.7619047619047619
 40
0.7619047619047619
 40
0.8095238095238095
 40
0.8095238095238095
 40
0.8095238095238095
 40
0.8095238095238095
 40
0.8571428571428571
 40
0.8571428571428571
 40
0.8571428571428571
 40
0.8571428571428571
 40
0.9047619047619048
 40
0.9047619047619048
 40
0.9047619047619048
 40
0.9047619047619048
 40
1.0
 40
1.0
 40
1.0
 40
1.0
 10
-154.0394
 20
-9.8365
 30
0.0
 10
-153.3358
 20
-11.7959
 30
0.0
 10
-156.2454
 20
-11.6023
 30
0.0
 10
-155.3047
 20
-9.3766
 30
0.0
 10
-155.3047
 20
-9.3766
 30
0.0
 10
-154.088
 20
-6.4981
 30
0.0
 10
-145.489
 20
-6.609
 30
0.0
 10
-145.7606
 20
-10.1814
 30
0.0
 10
-145.7606
 20
-10.1814
 30
0.0
 10
-145.6741
 20
-11.6998
 30
0.0
 10
-147.6176
 20
-11.5798
 30
0.0
 10
-147.2984
 20
-10.0376
 30
0.0
 10
-147.2984
 20
-10.0376
 30
0.0
 10
-149.88
 20
-10.8988
 30
0.0
 10
-147.6724
 20
-13.5831
 30
0.0
 10
-145.4016
 20
-13.0371
 30
0.0
 10
-145.4016
 20
-13.0371
 30
0.0
 10
-145.6065
 20
-16.5468
 30
0.0
 10
-142.1869
 20
-16.5869
 30
0.0
 10
-142.5409
 20
-14.896
 30
0.0
 10
-142.5409
 20
-14.896
 30
0.0
 10
-144.1066
 20
-15.2067
 30
0.0
 10
-143.9543
 20
-12.8911
 30
0.0
 10
-141.8511
 20
-13.2861
 30
0.0
 10
-141.8511
 20
-13.2861
 30
0.0
 10
-138.242
 20
-13.964
 30
0.0
 10
-139.0098
 20
-23.572
 30
0.0
 10
-142.5409
 20
-22.8205
 30
0.0
 10
-142.5409
 20
-22.8205
 30
0.0
 10
-144.3133
 20
-22.443
 30
0.0
 10
-143.475
 20
-21.043
 30
0.0
 10
-142.311
 20
-20.9904
 30
0.0
 10
-142.311
 20
-20.9904
 30
0.0
 10
-144.1492
 20
-18.7776
 30
0.0
 10
-145.8423
 20
-21.7717
 30
0.0
 10
-145.4877
 20
-23.0601
 30
0.0
 10
-145.4877
 20
-23.0601
 30
0.0
 10
-149.5576
 20
-23.1895
 30
0.0
 10
-148.4819
 20
-26.0016
 30
0.0
 10
-147.6004
 20
-26.0499
 30
0.0
 10
-147.6004
 20
-26.0499
 30
0.0
 10
-146.6694
 20
-23.197
 30
0.0
 10
-144.3071
 20
-26.4192
 30
0.0
 10
-147.0255
 20
-28.1196
 30
0.0
 10
-147.0255
 20
-28.1196
 30
0.0
 10
-149.1682
 20
-29.4603
 30
0.0
 10
-155.1427
 20
-29.2041
 30
0.0
 10
-155.4099
 20
-26.3324
 30
0.0
 10
-155.4099
 20
-26.3324
 30
0.0
 10
-155.5691
 20
-24.6214
 30
0.0
 10
-153.786
 20
-24.6462
 30
0.0
 10
-153.8098
 20
-25.9349
 30
0.0
 10
-153.8098
 20
-25.9349
 30
0.0
 10
-151.8842
 20
-26.0643
 30
0.0
 10
-152.5743
 20
-22.5282
 30
0.0
 10
-155.7645
 20
-23.1751
 30
0.0
 10
-155.7645
 20
-23.1751
 30
0.0
 10
-155.2671
 20
-20.4504
 30
0.0
 10
-157.8342
 20
-19.2039
 30
0.0
 10
-158.9842
 20
-20.9184
 30
0.0
 10
-158.9842
 20
-20.9184
 30
0.0
 10
-156.5521
 20
-21.5264
 30
0.0
 10
-157.7835
 20
-23.8282
 30
0.0
 10
-159.9666
 20
-22.4035
 30
0.0
 10
-159.9666
 20
-22.4035
 30
0.0
 10
-162.3164
 20
-20.8708
 30
0.0
 10
-162.4085
 20
-14.6619
 30
0.0
 10
-159.5594
 20
-13.4011
 30
0.0
 10
-159.5594
 20
-13.4011
 30
0.0
 10
-157.5814
 20
-12.5258
 30
0.0
 10
-156.7535
 20
-14.9461
 30
0.0
 10
-158.9413
 20
-14.8768
 30
0.0
 10
-158.9413
 20
-14.8768
 30
0.0
 10
-157.4408
 20
-17.3886
 30
0.0
 10
-154.8498
 20
-14.6707
 30
0.0
 10
-155.8795
 20
-12.8262
 30
0.0
 10
-155.8795
 20
-12.8262
 30
0.0
 10
-153.3493
 20
-13.631
 30
0.0
 10
-151.0738
 20
-11.0294
 30
0.0
 10
-154.0394
 20
-9.8365
 30
0.0
  0
SPLINE
  5
93
330
1F
100
AcDbEntity
  8
layer 1
 62
   250
100
AcDbSpline
210
0.0
220
0.0
230
1.0
 70
    11
 71
     3
 72
    68
 73
    64
 74
     0
 42
0.0000000001
 43
0.0000000001
 12
1.0
 22
0.0
 32
0.0
 13
1.0
 23
0.0
 33
0.0
 40
0.0
 40
0.0
 40
0.0
 40
0.0
 40
0.0588235294117647
 40
0.0588235294117647
 40
0.0588235294117647
 40
0.0588235294117647
 40
0.1176470588235294
 40
0.1176470588235294
 40
0.1176470588235294
 40
0.1176470588235294
 40
0.1764705882352941
 40
0.1764705882352941
 40
0.1764705882352941
 40
0.1764705882352941
 40
0.2352941176470588
 40
0.2352941176470588
 40
0.2352941176470588
 40
0.2352941176470588
 40
0.2941176470588235
 40
0.2941176470588235
 40
0.2941176470588235
 40
0.2941176470588235
 40
0.3529411764705883
 40
0.3529411764705883
 40
0.3529411764705883
 40
0.3529411764705883
 40
0.4117647058823529
 40
0.4117647058823529
 40
0.4117647058823529
 40
0.4117647058823529
 40
0.4705882352941176
 40
0.4705882352941176
 40
0.4705882352941176
 40
0.4705882352941176
 40
0.5294117647058824
 40
0.5294117647058824
 40
0.5294117647058824
 40
0.5294117647058824
 40
0.5882352941176471
 40
0.5882352941176471
 40
0.5882352941176471
 40
0.5882352941176471
 40
0.6470588235294118
 40
0.6470588235294118
 40
0.6470588235294118
 40
0.6470588235294118
 40
0.7058823529411765
 40
0.7058823529411765
 40
0.7058823529411765
 40
0.7058823529411765
 40
0.7647058823529411
 40
0.7647058823529411
 40
0.7647058823529411
 40
0.7647058823529411
 40
0.8235294117647058
 40
0.8235294117647058
 40
0.8235294117647058
 40
0.8235294117647058
 40
0.8823529411764706
 40
0.8823529411764706
 40
0.8823529411764706
 40
0.8823529411764706
 40
1.0
 40
1.0
 40
1.0
 40
1.0
 10
-180.242
 20
-9.5195
 30
0.0
 10
-179.5378
 20
-11.4789
 30
0.0
 10
-182.4483
 20
-11.2853
 30
0.0
 10
-181.5076
 20
-9.0596
 30
0.0
 10
-181.5076
 20
-9.0596
 30
0.0
 10
-180.2906
 20
-6.1814
 30
0.0
 10
-171.6919
 20
-6.292
 30
0.0
 10
-171.9635
 20
-9.8647
 30
0.0
 10
-171.9635
 20
-9.8647
 30
0.0
 10
-171.8767
 20
-11.3827
 30
0.0
 10
-173.8205
 20
-11.2628
 30
0.0
 10
-173.5013
 20
-9.7206
 30
0.0
 10
-173.5013
 20
-9.7206
 30
0.0
 10
-176.0829
 20
-10.5817
 30
0.0
 10
-173.8753
 20
-13.2661
 30
0.0
 10
-171.6045
 20
-12.7201
 30
0.0
 10
-171.6045
 20
-12.7201
 30
0.0
 10
-171.8091
 20
-16.2298
 30
0.0
 10
-168.3898
 20
-16.2699
 30
0.0
 10
-168.7438
 20
-14.5789
 30
0.0
 10
-168.7438
 20
-14.5789
 30
0.0
 10
-170.3092
 20
-14.8897
 30
0.0
 10
-170.1569
 20
-12.5741
 30
0.0
 10
-168.054
 20
-12.9691
 30
0.0
 10
-168.054
 20
-12.9691
 30
0.0
 10
-164.4446
 20
-13.647
 30
0.0
 10
-165.2124
 20
-23.255
 30
0.0
 10
-168.7438
 20
-22.5035
 30
0.0
 10
-168.7438
 20
-22.5035
 30
0.0
 10
-170.5162
 20
-22.126
 30
0.0
 10
-169.678
 20
-20.726
 30
0.0
 10
-168.5139
 20
-20.6734
 30
0.0
 10
-168.5139
 20
-20.6734
 30
0.0
 10
-170.3521
 20
-18.4605
 30
0.0
 10
-172.045
 20
-21.4547
 30
0.0
 10
-171.6903
 20
-22.7431
 30
0.0
 10
-171.6903
 20
-22.7431
 30
0.0
 10
-175.7608
 20
-22.8728
 30
0.0
 10
-174.6848
 20
-25.6846
 30
0.0
 10
-173.8033
 20
-25.7329
 30
0.0
 10
-173.8033
 20
-25.7329
 30
0.0
 10
-172.872
 20
-22.8803
 30
0.0
 10
-170.51
 20
-26.1022
 30
0.0
 10
-173.2284
 20
-27.8026
 30
0.0
 10
-173.2284
 20
-27.8026
 30
0.0
 10
-175.3711
 20
-29.1433
 30
0.0
 10
-181.3456
 20
-28.8874
 30
0.0
 10
-181.6128
 20
-26.0154
 30
0.0
 10
-181.6128
 20
-26.0154
 30
0.0
 10
-181.772
 20
-24.3047
 30
0.0
 10
-179.9889
 20
-24.3291
 30
0.0
 10
-180.0127
 20
-25.6179
 30
0.0
 10
-180.0127
 20
-25.6179
 30
0.0
 10
-178.1416
 20
-25.7438
 30
0.0
 10
-178.7403
 20
-22.4092
 30
0.0
 10
-181.7021
 20
-22.813
 30
0.0
 10
-181.7021
 20
-22.813
 30
0.0
 10
-181.7021
 20
-22.813
 30
0.0
 10
-181.7018
 20
-12.6045
 30
0.0
 10
-181.7018
 20
-12.6045
 30
0.0
 10
-181.7018
 20
-12.6045
 30
0.0
 10
-179.3358
 20
-13.0543
 30
0.0
 10
-177.4264
 20
-10.6522
 30
0.0
 10
-180.242
 20
-9.5195
 30
0.0
  0
SPLINE
  5
94
330
1F
100
AcDbEntity
  8
layer 1
 62
   250
100
AcDbSpline
210
0.0
220
0.0
230
1.0
 70
    11
 71
     3
 72
    84
 73
    80
 74
     0
 42
0.0000000001
 43
0.0000000001
 12
1.0
 22
0.0
 32
0.0
 13
1.0
 23
0.0
 33
0.0
 40
0.0
 40
0.0
 40
0.0
 40
0.0
 40
0.0476190476190476
 40
0.0476190476190476
 40
0.0476190476190476
 40
0.0476190476190476
 40
0.0952380952380952
 40
0.0952380952380952
 40
0.0952380952380952
 40
0.0952380952380952
 40
0.1428571428571428
 40
0.1428571428571428
 40
0.1428571428571428
 40
0.1428571428571428
 40
0.1904761904761905
 40
0.1904761904761905
 40
0.1904761904761905
 40
0.1904761904761905
 40
0.2380952380952381
 40
0.2380952380952381
 40
0.2380952380952381
 40
0.2380952380952381
 40
0.2857142857142857
 40
0.2857142857142857
 40
0.2857142857142857
 40
0.2857142857142857
 40
0.3333333333333333
 40
0.3333333333333333
 40
0.3333333333333333
 40
0.3333333333333333
 40
0.3809523809523809
 40
0.3809523809523809
 40
0.3809523809523809
 40
0.3809523809523809
 40
0.4285714285714285
 40
0.4285714285714285
 40
0.4285714285714285
 40
0.4285714285714285
 40
0.4761904761904762
 40
0.4761904761904762
 40
0.4761904761904762
 40
0.4761904761904762
 40
0.5238095238095238
 40
0.5238095238095238
 40
0.5238095238095238
 40
0.5238095238095238
 40
0.5714285714285714
 40
0.5714285714285714
 40
0.5714285714285714
 40
0.5714285714285714
 40
0.6190476190476191
 40
0.6190476190476191
 40
0.6190476190476191
 40
0.6190476190476191
 40
0.6666666666666666
 40
0.6666666666666666
 40
0.6666666666666666
 40
0.6666666666666666
 40
0.7142857142857143
 40
0.7142857142857143
 40
0.7142857142857143
 40
0.7142857142857143
 40
0.7619047619047619
 40
0.7619047619047619
 40
0.7619047619047619
 40
0.7619047619047619
 40
0.8095238095238095
 40
0.8095238095238095
 40
0.8095238095238095
 40
0.8095238095238095
 40
0.8571428571428571
 40
0.8571428571428571
 40
0.8571428571428571
 40
0.8571428571428571
 40
0.9047619047619048
 40
0.9047619047619048
 40
0.9047619047619048
 40
0.9047619047619048
 40
1.0
 40
1.0
 40
1.0
 40
1.0
 10
-127.767
 20
-9.9834
 30
0.0
 10
-127.0634
 20
-11.9429
 30
0.0
 10
-129.9732
 20
-11.7496
 30
0.0
 10
-129.0325
 20
-9.5239
 30
0.0
 10
-129.0325
 20
-9.5239
 30
0.0
 10
-127.8155
 20
-6.645
 30
0.0
 10
-119.2168
 20
-6.7562
 30
0.0
 10
-119.4884
 20
-10.3286
 30
0.0
 10
-119.4884
 20
-10.3286
 30
0.0
 10
-119.4017
 20
-11.8473
 30
0.0
 10
-121.3454
 20
-11.727
 30
0.0
 10
-121.0265
 20
-10.1848
 30
0.0
 10
-121.0265
 20
-10.1848
 30
0.0
 10
-123.6078
 20
-11.0463
 30
0.0
 10
-121.4003
 20
-13.7303
 30
0.0
 10
-119.1294
 20
-13.1843
 30
0.0
 10
-119.1294
 20
-13.1843
 30
0.0
 10
-119.334
 20
-16.6944
 30
0.0
 10
-115.9148
 20
-16.7342
 30
0.0
 10
-116.2688
 20
-15.0432
 30
0.0
 10
-116.2688
 20
-15.0432
 30
0.0
 10
-117.8341
 20
-15.3539
 30
0.0
 10
-117.6822
 20
-13.038
 30
0.0
 10
-115.579
 20
-13.4333
 30
0.0
 10
-115.579
 20
-13.4333
 30
0.0
 10
-111.9696
 20
-14.1116
 30
0.0
 10
-112.7377
 20
-23.7192
 30
0.0
 10
-116.2688
 20
-22.9677
 30
0.0
 10
-116.2688
 20
-22.9677
 30
0.0
 10
-118.0412
 20
-22.5902
 30
0.0
 10
-117.2029
 20
-21.1903
 30
0.0
 10
-116.0388
 20
-21.1377
 30
0.0
 10
-116.0388
 20
-21.1377
 30
0.0
 10
-117.877
 20
-18.9251
 30
0.0
 10
-119.5702
 20
-21.9186
 30
0.0
 10
-119.2156
 20
-23.2074
 30
0.0
 10
-119.2156
 20
-23.2074
 30
0.0
 10
-123.2858
 20
-23.337
 30
0.0
 10
-122.2097
 20
-26.1489
 30
0.0
 10
-121.3282
 20
-26.1971
 30
0.0
 10
-121.3282
 20
-26.1971
 30
0.0
 10
-120.3969
 20
-23.3446
 30
0.0
 10
-118.0349
 20
-26.5664
 30
0.0
 10
-120.7534
 20
-28.2668
 30
0.0
 10
-120.7534
 20
-28.2668
 30
0.0
 10
-122.8961
 20
-29.6073
 30
0.0
 10
-128.8706
 20
-29.3513
 30
0.0
 10
-129.1378
 20
-26.4797
 30
0.0
 10
-129.1378
 20
-26.4797
 30
0.0
 10
-129.2969
 20
-24.769
 30
0.0
 10
-127.5138
 20
-24.7934
 30
0.0
 10
-127.5376
 20
-26.0821
 30
0.0
 10
-127.5376
 20
-26.0821
 30
0.0
 10
-125.6117
 20
-26.2115
 30
0.0
 10
-126.3025
 20
-22.6754
 30
0.0
 10
-129.4924
 20
-23.3223
 30
0.0
 10
-129.4924
 20
-23.3223
 30
0.0
 10
-128.9946
 20
-20.5979
 30
0.0
 10
-131.5624
 20
-19.3511
 30
0.0
 10
-132.7121
 20
-21.0656
 30
0.0
 10
-132.7121
 20
-21.0656
 30
0.0
 10
-130.2796
 20
-21.674
 30
0.0
 10
-131.5113
 20
-23.9752
 30
0.0
 10
-133.6945
 20
-22.5508
 30
0.0
 10
-133.6945
 20
-22.5508
 30
0.0
 10
-136.0439
 20
-21.018
 30
0.0
 10
-136.1363
 20
-14.8092
 30
0.0
 10
-133.2872
 20
-13.5483
 30
0.0
 10
-133.2872
 20
-13.5483
 30
0.0
 10
-131.309
 20
-12.6734
 30
0.0
 10
-130.4813
 20
-15.0933
 30
0.0
 10
-132.6692
 20
-15.0241
 30
0.0
 10
-132.6692
 20
-15.0241
 30
0.0
 10
-131.1693
 20
-17.5358
 30
0.0
 10
-128.5777
 20
-14.8176
 30
0.0
 10
-129.6074
 20
-12.9735
 30
0.0
 10
-129.6074
 20
-12.9735
 30
0.0
 10
-127.0778
 20
-13.7782
 30
0.0
 10
-124.8016
 20
-11.1766
 30
0.0
 10
-127.767
 20
-9.9834
 30
0.0
  0
SPLINE
  5
95
330
1F
100
AcDbEntity
  8
layer 1
 62
   250
100
AcDbSpline
210
0.0
220
0.0
230
1.0
 70
    11
 71
     3
 72
    84
 73
    80
 74
     0
 42
0.0000000001
 43
0.0000000001
 12
1.0
 22
0.0
 32
0.0
 13
1.0
 23
0.0
 33
0.0
 40
0.0
 40
0.0
 40
0.0
 40
0.0
 40
0.0476190476190476
 40
0.0476190476190476
 40
0.0476190476190476
 40
0.0476190476190476
 40
0.0952380952380952
 40
0.0952380952380952
 40
0.0952380952380952
 40
0.0952380952380952
 40
0.1428571428571428
 40
0.1428571428571428
 40
0.1428571428571428
 40
0.1428571428571428
 40
0.1904761904761905
 40
0.1904761904761905
 40
0.1904761904761905
 40
0.1904761904761905
 40
0.2380952380952381
 40
0.2380952380952381
 40
0.2380952380952381
 40
0.2380952380952381
 40
0.2857142857142857
 40
0.2857142857142857
 40
0.2857142857142857
 40
0.2857142857142857
 40
0.3333333333333333
 40
0.3333333333333333
 40
0.3333333333333333
 40
0.3333333333333333
 40
0.3809523809523809
 40
0.3809523809523809
 40
0.3809523809523809
 40
0.3809523809523809
 40
0.4285714285714285
 40
0.4285714285714285
 40
0.4285714285714285
 40
0.4285714285714285
 40
0.4761904761904762
 40
0.4761904761904762
 40
0.4761904761904762
 40
0.4761904761904762
 40
0.5238095238095238
 40
0.5238095238095238
 40
0.5238095238095238
 40
0.5238095238095238
 40
0.5714285714285714
 40
0.5714285714285714
 40
0.5714285714285714
 40
0.5714285714285714
 40
0.6190476190476191
 40
0.6190476190476191
 40
0.6190476190476191
 40
0.6190476190476191
 40
0.6666666666666666
 40
0.6666666666666666
 40
0.6666666666666666
 40
0.6666666666666666
 40
0.7142857142857143
 40
0.7142857142857143
 40
0.7142857142857143
 40
0.7142857142857143
 40
0.7619047619047619
 40
0.7619047619047619
 40
0.7619047619047619
 40
0.7619047619047619
 40
0.8095238095238095
 40
0.8095238095238095
 40
0.8095238095238095
 40
0.8095238095238095
 40
0.8571428571428571
 40
0.8571428571428571
 40
0.8571428571428571
 40
0.8571428571428571
 40
0.9047619047619048
 40
0.9047619047619048
 40
0.9047619047619048
 40
0.9047619047619048
 40
1.0
 40
1.0
 40
1.0
 40
1.0
 10
-101.3529
 20
-10.0893
 30
0.0
 10
-100.6493
 20
-12.0484
 30
0.0
 10
-103.5592
 20
-11.8551
 30
0.0
 10
-102.6185
 20
-9.6294
 30
0.0
 10
-102.6185
 20
-9.6294
 30
0.0
 10
-101.4015
 20
-6.7512
 30
0.0
 10
-92.8028
 20
-6.8618
 30
0.0
 10
-93.0744
 20
-10.4345
 30
0.0
 10
-93.0744
 20
-10.4345
 30
0.0
 10
-92.9876
 20
-11.9529
 30
0.0
 10
-94.9314
 20
-11.8326
 30
0.0
 10
-94.6122
 20
-10.2904
 30
0.0
 10
-94.6122
 20
-10.2904
 30
0.0
 10
-97.1938
 20
-11.1516
 30
0.0
 10
-94.9862
 20
-13.8359
 30
0.0
 10
-92.7151
 20
-13.2899
 30
0.0
 10
-92.7151
 20
-13.2899
 30
0.0
 10
-92.92
 20
-16.7999
 30
0.0
 10
-89.5007
 20
-16.8397
 30
0.0
 10
-89.8547
 20
-15.1488
 30
0.0
 10
-89.8547
 20
-15.1488
 30
0.0
 10
-91.4201
 20
-15.4598
 30
0.0
 10
-91.2678
 20
-13.1439
 30
0.0
 10
-89.1646
 20
-13.5389
 30
0.0
 10
-89.1646
 20
-13.5389
 30
0.0
 10
-85.5555
 20
-14.2168
 30
0.0
 10
-86.3233
 20
-23.8248
 30
0.0
 10
-89.8547
 20
-23.0733
 30
0.0
 10
-89.8547
 20
-23.0733
 30
0.0
 10
-91.6271
 20
-22.6961
 30
0.0
 10
-90.7888
 20
-21.2958
 30
0.0
 10
-89.6248
 20
-21.2432
 30
0.0
 10
-89.6248
 20
-21.2432
 30
0.0
 10
-91.463
 20
-19.0304
 30
0.0
 10
-93.1558
 20
-22.0245
 30
0.0
 10
-92.8012
 20
-23.3129
 30
0.0
 10
-92.8012
 20
-23.3129
 30
0.0
 10
-96.8717
 20
-23.4426
 30
0.0
 10
-95.7957
 20
-26.2544
 30
0.0
 10
-94.9142
 20
-26.3027
 30
0.0
 10
-94.9142
 20
-26.3027
 30
0.0
 10
-93.9828
 20
-23.4504
 30
0.0
 10
-91.6209
 20
-26.672
 30
0.0
 10
-94.3393
 20
-28.3724
 30
0.0
 10
-94.3393
 20
-28.3724
 30
0.0
 10
-96.482
 20
-29.7128
 30
0.0
 10
-102.4565
 20
-29.4572
 30
0.0
 10
-102.7237
 20
-26.5855
 30
0.0
 10
-102.7237
 20
-26.5855
 30
0.0
 10
-102.8829
 20
-24.8745
 30
0.0
 10
-101.0998
 20
-24.899
 30
0.0
 10
-101.1236
 20
-26.1877
 30
0.0
 10
-101.1236
 20
-26.1877
 30
0.0
 10
-99.1977
 20
-26.3174
 30
0.0
 10
-99.8881
 20
-22.781
 30
0.0
 10
-103.0783
 20
-23.4279
 30
0.0
 10
-103.0783
 20
-23.4279
 30
0.0
 10
-102.5806
 20
-20.7035
 30
0.0
 10
-105.148
 20
-19.4567
 30
0.0
 10
-106.298
 20
-21.1712
 30
0.0
 10
-106.298
 20
-21.1712
 30
0.0
 10
-103.8656
 20
-21.7795
 30
0.0
 10
-105.0973
 20
-24.081
 30
0.0
 10
-107.2801
 20
-22.6566
 30
0.0
 10
-107.2801
 20
-22.6566
 30
0.0
 10
-109.6292
 20
-21.1236
 30
0.0
 10
-109.7219
 20
-14.9147
 30
0.0
 10
-106.8728
 20
-13.6539
 30
0.0
 10
-106.8728
 20
-13.6539
 30
0.0
 10
-104.8949
 20
-12.7789
 30
0.0
 10
-104.0673
 20
-15.1989
 30
0.0
 10
-106.2548
 20
-15.1296
 30
0.0
 10
-106.2548
 20
-15.1296
 30
0.0
 10
-104.7552
 20
-17.6414
 30
0.0
 10
-102.1636
 20
-14.9235
 30
0.0
 10
-103.1933
 20
-13.079
 30
0.0
 10
-103.1933
 20
-13.079
 30
0.0
 10
-100.6631
 20
-13.8838
 30
0.0
 10
-98.3876
 20
-11.2822
 30
0.0
 10
-101.3529
 20
-10.0893
 30
0.0
  0
SPLINE
  5
96
330
1F
100
AcDbEntity
  8
layer 1
 62
   250
100
AcDbSpline
210
0.0
220
0.0
230
1.0
 70
    11
 71
     3
 72
    76
 73
    72
 74
     0
 42
0.0000000001
 43
0.0000000001
 12
1.0
 22
0.0
 32
0.0
 13
1.0
 23
0.0
 33
0.0
 40
0.0
 40
0.0
 40
0.0
 40
0.0
 40
0.0526315789473684
 40
0.0526315789473684
 40
0.0526315789473684
 40
0.0526315789473684
 40
0.1052631578947368
 40
0.1052631578947368
 40
0.1052631578947368
 40
0.1052631578947368
 40
0.1578947368421053
 40
0.1578947368421053
 40
0.1578947368421053
 40
0.1578947368421053
 40
0.2105263157894737
 40
0.2105263157894737
 40
0.2105263157894737
 40
0.2105263157894737
 40
0.2631578947368421
 40
0.2631578947368421
 40
0.2631578947368421
 40
0.2631578947368421
 40
0.3157894736842105
 40
0.3157894736842105
 40
0.3157894736842105
 40
0.3157894736842105
 40
0.3684210526315789
 40
0.3684210526315789
 40
0.3684210526315789
 40
0.3684210526315789
 40
0.4210526315789473
 40
0.4210526315789473
 40
0.4210526315789473
 40
0.4210526315789473
 40
0.4736842105263158
 40
0.4736842105263158
 40
0.4736842105263158
 40
0.4736842105263158
 40
0.5263157894736842
 40
0.5263157894736842
 40
0.5263157894736842
 40
0.5263157894736842
 40
0.5789473684210527
 40
0.5789473684210527
 40
0.5789473684210527
 40
0.5789473684210527
 40
0.631578947368421
 40
0.631578947368421
 40
0.631578947368421
 40
0.631578947368421
 40
0.6842105263157895
 40
0.6842105263157895
 40
0.6842105263157895
 40
0.6842105263157895
 40
0.7368421052631579
 40
0.7368421052631579
 40
0.7368421052631579
 40
0.7368421052631579
 40
0.7894736842105263
 40
0.7894736842105263
 40
0.7894736842105263
 40
0.7894736842105263
 40
0.8421052631578947
 40
0.8421052631578947
 40
0.8421052631578947
 40
0.8421052631578947
 40
0.8947368421052632
 40
0.8947368421052632
 40
0.8947368421052632
 40
0.8947368421052632
 40
1.0
 40
1.0
 40
1.0
 40
1.0
 10
-75.0444
 20
-10.1949
 30
0.0
 10
-74.3402
 20
-12.1543
 30
0.0
 10
-77.2504
 20
-11.9607
 30
0.0
 10
-76.31
 20
-9.735
 30
0.0
 10
-76.31
 20
-9.735
 30
0.0
 10
-75.0923
 20
-6.8565
 30
0.0
 10
-66.4943
 20
-6.9677
 30
0.0
 10
-66.7659
 20
-10.5401
 30
0.0
 10
-66.7659
 20
-10.5401
 30
0.0
 10
-66.6794
 20
-12.0584
 30
0.0
 10
-68.6229
 20
-11.9382
 30
0.0
 10
-68.3037
 20
-10.396
 30
0.0
 10
-68.3037
 20
-10.396
 30
0.0
 10
-70.8853
 20
-11.2574
 30
0.0
 10
-68.6774
 20
-13.9415
 30
0.0
 10
-66.4066
 20
-13.3954
 30
0.0
 10
-66.4066
 20
-13.3954
 30
0.0
 10
-66.4743
 20
-14.5545
 30
0.0
 10
-66.1472
 20
-15.3345
 30
0.0
 10
-65.6908
 20
-15.7994
 30
0.0
 10
-65.6908
 20
-15.7994
 30
0.0
 10
-65.6908
 20
-15.7994
 30
0.0
 10
-65.6905
 20
-21.0333
 30
0.0
 10
-65.6905
 20
-21.0333
 30
0.0
 10
-65.6905
 20
-21.0333
 30
0.0
 10
-66.322
 20
-21.6605
 30
0.0
 10
-66.6738
 20
-22.7616
 30
0.0
 10
-66.4927
 20
-23.4188
 30
0.0
 10
-66.4927
 20
-23.4188
 30
0.0
 10
-70.5626
 20
-23.5482
 30
0.0
 10
-69.4869
 20
-26.3603
 30
0.0
 10
-68.6057
 20
-26.4082
 30
0.0
 10
-68.6057
 20
-26.4082
 30
0.0
 10
-67.6747
 20
-23.5557
 30
0.0
 10
-65.3121
 20
-26.7779
 30
0.0
 10
-68.0305
 20
-28.4783
 30
0.0
 10
-68.0305
 20
-28.4783
 30
0.0
 10
-70.1735
 20
-29.819
 30
0.0
 10
-76.148
 20
-29.5628
 30
0.0
 10
-76.4152
 20
-26.6911
 30
0.0
 10
-76.4152
 20
-26.6911
 30
0.0
 10
-76.5744
 20
-24.9801
 30
0.0
 10
-74.7913
 20
-25.0048
 30
0.0
 10
-74.8151
 20
-26.2933
 30
0.0
 10
-74.8151
 20
-26.2933
 30
0.0
 10
-72.8895
 20
-26.423
 30
0.0
 10
-73.5796
 20
-22.8869
 30
0.0
 10
-76.7699
 20
-23.5338
 30
0.0
 10
-76.7699
 20
-23.5338
 30
0.0
 10
-76.2724
 20
-20.8087
 30
0.0
 10
-78.8396
 20
-19.5623
 30
0.0
 10
-79.9895
 20
-21.2771
 30
0.0
 10
-79.9895
 20
-21.2771
 30
0.0
 10
-77.5571
 20
-21.8851
 30
0.0
 10
-78.7888
 20
-24.1866
 30
0.0
 10
-80.9716
 20
-22.7622
 30
0.0
 10
-80.9716
 20
-22.7622
 30
0.0
 10
-83.3207
 20
-21.2294
 30
0.0
 10
-83.4135
 20
-15.0203
 30
0.0
 10
-80.5644
 20
-13.7598
 30
0.0
 10
-80.5644
 20
-13.7598
 30
0.0
 10
-78.5864
 20
-12.8842
 30
0.0
 10
-77.7585
 20
-15.3044
 30
0.0
 10
-79.9463
 20
-15.2352
 30
0.0
 10
-79.9463
 20
-15.2352
 30
0.0
 10
-78.4461
 20
-17.7469
 30
0.0
 10
-75.8551
 20
-15.0291
 30
0.0
 10
-76.8848
 20
-13.1846
 30
0.0
 10
-76.8848
 20
-13.1846
 30
0.0
 10
-74.3546
 20
-13.9897
 30
0.0
 10
-72.0791
 20
-11.3881
 30
0.0
 10
-75.0444
 20
-10.1949
 30
0.0
  0
SPLINE
  5
97
330
1F
100
AcDbEntity
  8
layer 1
 62
   250
100
AcDbSpline
210
0.0
220
0.0
230
1.0
 70
    11
 71
     3
 72
    84
 73
    80
 74
     0
 42
0.0000000001
 43
0.0000000001
 12
1.0
 22
0.0
 32
0.0
 13
1.0
 23
0.0
 33
0.0
 40
0.0
 40
0.0
 40
0.0
 40
0.0
 40
0.0476190476190476
 40
0.0476190476190476
 40
0.0476190476190476
 40
0.0476190476190476
 40
0.0952380952380952
 40
0.0952380952380952
 40
0.0952380952380952
 40
0.0952380952380952
 40
0.1428571428571428
 40
0.1428571428571428
 40
0.1428571428571428
 40
0.1428571428571428
 40
0.1904761904761905
 40
0.1904761904761905
 40
0.1904761904761905
 40
0.1904761904761905
 40
0.2380952380952381
 40
0.2380952380952381
 40
0.2380952380952381
 40
0.2380952380952381
 40
0.2857142857142857
 40
0.2857142857142857
 40
0.2857142857142857
 40
0.2857142857142857
 40
0.3333333333333333
 40
0.3333333333333333
 40
0.3333333333333333
 40
0.3333333333333333
 40
0.3809523809523809
 40
0.3809523809523809
 40
0.3809523809523809
 40
0.3809523809523809
 40
0.4285714285714285
 40
0.4285714285714285
 40
0.4285714285714285
 40
0.4285714285714285
 40
0.4761904761904762
 40
0.4761904761904762
 40
0.4761904761904762
 40
0.4761904761904762
 40
0.5238095238095238
 40
0.5238095238095238
 40
0.5238095238095238
 40
0.5238095238095238
 40
0.5714285714285714
 40
0.5714285714285714
 40
0.5714285714285714
 40
0.5714285714285714
 40
0.6190476190476191
 40
0.6190476190476191
 40
0.6190476190476191
 40
0.6190476190476191
 40
0.6666666666666666
 40
0.6666666666666666
 40
0.6666666666666666
 40
0.6666666666666666
 40
0.7142857142857143
 40
0.7142857142857143
 40
0.7142857142857143
 40
0.7142857142857143
 40
0.7619047619047619
 40
0.7619047619047619
 40
0.7619047619047619
 40
0.7619047619047619
 40
0.8095238095238095
 40
0.8095238095238095
 40
0.8095238095238095
 40
0.8095238095238095
 40
0.8571428571428571
 40
0.8571428571428571
 40
0.8571428571428571
 40
0.8571428571428571
 40
0.9047619047619048
 40
0.9047619047619048
 40
0.9047619047619048
 40
0.9047619047619048
 40
1.0
 40
1.0
 40
1.0
 40
1.0
 10
-154.0394
 20
-35.5188
 30
0.0
 10
-153.3358
 20
-37.4776
 30
0.0
 10
-156.2454
 20
-37.2843
 30
0.0
 10
-155.3047
 20
-35.0586
 30
0.0
 10
-155.3047
 20
-35.0586
 30
0.0
 10
-154.088
 20
-32.1801
 30
0.0
 10
-145.489
 20
-32.2913
 30
0.0
 10
-145.7606
 20
-35.8637
 30
0.0
 10
-145.7606
 20
-35.8637
 30
0.0
 10
-145.6741
 20
-37.3824
 30
0.0
 10
-147.6176
 20
-37.2618
 30
0.0
 10
-147.2984
 20
-35.7199
 30
0.0
 10
-147.2984
 20
-35.7199
 30
0.0
 10
-149.88
 20
-36.5814
 30
0.0
 10
-147.6724
 20
-39.265
 30
0.0
 10
-145.4016
 20
-38.719
 30
0.0
 10
-145.4016
 20
-38.719
 30
0.0
 10
-145.6065
 20
-42.2288
 30
0.0
 10
-142.1869
 20
-42.2689
 30
0.0
 10
-142.5409
 20
-40.5782
 30
0.0
 10
-142.5409
 20
-40.5782
 30
0.0
 10
-144.1066
 20
-40.889
 30
0.0
 10
-143.9543
 20
-38.5731
 30
0.0
 10
-141.8511
 20
-38.9684
 30
0.0
 10
-141.8511
 20
-38.9684
 30
0.0
 10
-138.242
 20
-39.6466
 30
0.0
 10
-139.0098
 20
-49.254
 30
0.0
 10
-142.5409
 20
-48.5028
 30
0.0
 10
-142.5409
 20
-48.5028
 30
0.0
 10
-144.3133
 20
-48.1256
 30
0.0
 10
-143.475
 20
-46.7253
 30
0.0
 10
-142.311
 20
-46.6724
 30
0.0
 10
-142.311
 20
-46.6724
 30
0.0
 10
-144.1492
 20
-44.4601
 30
0.0
 10
-145.8423
 20
-47.4537
 30
0.0
 10
-145.4877
 20
-48.7424
 30
0.0
 10
-145.4877
 20
-48.7424
 30
0.0
 10
-149.5576
 20
-48.8721
 30
0.0
 10
-148.4819
 20
-51.6839
 30
0.0
 10
-147.6004
 20
-51.7318
 30
0.0
 10
-147.6004
 20
-51.7318
 30
0.0
 10
-146.6694
 20
-48.8796
 30
0.0
 10
-144.3071
 20
-52.1015
 30
0.0
 10
-147.0255
 20
-53.8019
 30
0.0
 10
-147.0255
 20
-53.8019
 30
0.0
 10
-149.1682
 20
-55.1423
 30
0.0
 10
-155.1427
 20
-54.8864
 30
0.0
 10
-155.4099
 20
-52.0147
 30
0.0
 10
-155.4099
 20
-52.0147
 30
0.0
 10
-155.5691
 20
-50.304
 30
0.0
 10
-153.786
 20
-50.3284
 30
0.0
 10
-153.8098
 20
-51.6169
 30
0.0
 10
-153.8098
 20
-51.6169
 30
0.0
 10
-151.8842
 20
-51.7469
 30
0.0
 10
-152.5743
 20
-48.2105
 30
0.0
 10
-155.7645
 20
-48.8574
 30
0.0
 10
-155.7645
 20
-48.8574
 30
0.0
 10
-155.2671
 20
-46.1326
 30
0.0
 10
-157.8342
 20
-44.8859
 30
0.0
 10
-158.9842
 20
-46.6006
 30
0.0
 10
-158.9842
 20
-46.6006
 30
0.0
 10
-156.5521
 20
-47.209
 30
0.0
 10
-157.7835
 20
-49.5102
 30
0.0
 10
-159.9666
 20
-48.0858
 30
0.0
 10
-159.9666
 20
-48.0858
 30
0.0
 10
-162.3164
 20
-46.5527
 30
0.0
 10
-162.4085
 20
-40.3439
 30
0.0
 10
-159.5594
 20
-39.0834
 30
0.0
 10
-159.5594
 20
-39.0834
 30
0.0
 10
-157.5814
 20
-38.2081
 30
0.0
 10
-156.7535
 20
-40.628
 30
0.0
 10
-158.9413
 20
-40.5588
 30
0.0
 10
-158.9413
 20
-40.5588
 30
0.0
 10
-157.4408
 20
-43.0708
 30
0.0
 10
-154.8498
 20
-40.3527
 30
0.0
 10
-155.8795
 20
-38.5082
 30
0.0
 10
-155.8795
 20
-38.5082
 30
0.0
 10
-153.3493
 20
-39.313
 30
0.0
 10
-151.0738
 20
-36.7117
 30
0.0
 10
-154.0394
 20
-35.5188
 30
0.0
  0
SPLINE
  5
98
330
1F
100
AcDbEntity
  8
layer 1
 62
   250
100
AcDbSpline
210
0.0
220
0.0
230
1.0
 70
    11
 71
     3
 72
    68
 73
    64
 74
     0
 42
0.0000000001
 43
0.0000000001
 12
1.0
 22
0.0
 32
0.0
 13
1.0
 23
0.0
 33
0.0
 40
0.0
 40
0.0
 40
0.0
 40
0.0
 40
0.0588235294117647
 40
0.0588235294117647
 40
0.0588235294117647
 40
0.0588235294117647
 40
0.1176470588235294
 40
0.1176470588235294
 40
0.1176470588235294
 40
0.1176470588235294
 40
0.1764705882352941
 40
0.1764705882352941
 40
0.1764705882352941
 40
0.1764705882352941
 40
0.2352941176470588
 40
0.2352941176470588
 40
0.2352941176470588
 40
0.2352941176470588
 40
0.2941176470588235
 40
0.2941176470588235
 40
0.2941176470588235
 40
0.2941176470588235
 40
0.3529411764705883
 40
0.3529411764705883
 40
0.3529411764705883
 40
0.3529411764705883
 40
0.4117647058823529
 40
0.4117647058823529
 40
0.4117647058823529
 40
0.4117647058823529
 40
0.4705882352941176
 40
0.4705882352941176
 40
0.4705882352941176
 40
0.4705882352941176
 40
0.5294117647058824
 40
0.5294117647058824
 40
0.5294117647058824
 40
0.5294117647058824
 40
0.5882352941176471
 40
0.5882352941176471
 40
0.5882352941176471
 40
0.5882352941176471
 40
0.6470588235294118
 40
0.6470588235294118
 40
0.6470588235294118
 40
0.6470588235294118
 40
0.7058823529411765
 40
0.7058823529411765
 40
0.7058823529411765
 40
0.7058823529411765
 40
0.7647058823529411
 40
0.7647058823529411
 40
0.7647058823529411
 40
0.7647058823529411
 40
0.8235294117647058
 40
0.8235294117647058
 40
0.8235294117647058
 40
0.8235294117647058
 40
0.8823529411764706
 40
0.8823529411764706
 40
0.8823529411764706
 40
0.8823529411764706
 40
1.0
 40
1.0
 40
1.0
 40
1.0
 10
-180.242
 20
-35.2018
 30
0.0
 10
-179.5378
 20
-37.1606
 30
0.0
 10
-182.4483
 20
-36.9676
 30
0.0
 10
-181.5076
 20
-34.7416
 30
0.0
 10
-181.5076
 20
-34.7416
 30
0.0
 10
-180.2906
 20
-31.863
 30
0.0
 10
-171.6919
 20
-31.9742
 30
0.0
 10
-171.9635
 20
-35.5467
 30
0.0
 10
-171.9635
 20
-35.5467
 30
0.0
 10
-171.8767
 20
-37.0653
 30
0.0
 10
-173.8205
 20
-36.9447
 30
0.0
 10
-173.5013
 20
-35.4029
 30
0.0
 10
-173.5013
 20
-35.4029
 30
0.0
 10
-176.0829
 20
-36.2643
 30
0.0
 10
-173.8753
 20
-38.948
 30
0.0
 10
-171.6045
 20
-38.402
 30
0.0
 10
-171.6045
 20
-38.402
 30
0.0
 10
-171.8091
 20
-41.9121
 30
0.0
 10
-168.3898
 20
-41.9519
 30
0.0
 10
-168.7438
 20
-40.2612
 30
0.0
 10
-168.7438
 20
-40.2612
 30
0.0
 10
-170.3092
 20
-40.572
 30
0.0
 10
-170.1569
 20
-38.256
 30
0.0
 10
-168.054
 20
-38.6514
 30
0.0
 10
-168.054
 20
-38.6514
 30
0.0
 10
-164.4446
 20
-39.3296
 30
0.0
 10
-165.2124
 20
-48.9369
 30
0.0
 10
-168.7438
 20
-48.1857
 30
0.0
 10
-168.7438
 20
-48.1857
 30
0.0
 10
-170.5162
 20
-47.8086
 30
0.0
 10
-169.678
 20
-46.4083
 30
0.0
 10
-168.5139
 20
-46.3557
 30
0.0
 10
-168.5139
 20
-46.3557
 30
0.0
 10
-170.3521
 20
-44.1431
 30
0.0
 10
-172.045
 20
-47.1366
 30
0.0
 10
-171.6903
 20
-48.4254
 30
0.0
 10
-171.6903
 20
-48.4254
 30
0.0
 10
-175.7608
 20
-48.5551
 30
0.0
 10
-174.6848
 20
-51.3669
 30
0.0
 10
-173.8033
 20
-51.4151
 30
0.0
 10
-173.8033
 20
-51.4151
 30
0.0
 10
-172.872
 20
-48.5626
 30
0.0
 10
-170.51
 20
-51.7845
 30
0.0
 10
-173.2284
 20
-53.4848
 30
0.0
 10
-173.2284
 20
-53.4848
 30
0.0
 10
-175.3711
 20
-54.8253
 30
0.0
 10
-181.3456
 20
-54.5693
 30
0.0
 10
-181.6128
 20
-51.6977
 30
0.0
 10
-181.6128
 20
-51.6977
 30
0.0
 10
-181.772
 20
-49.987
 30
0.0
 10
-179.9889
 20
-50.0114
 30
0.0
 10
-180.0127
 20
-51.3002
 30
0.0
 10
-180.0127
 20
-51.3002
 30
0.0
 10
-178.1416
 20
-51.4261
 30
0.0
 10
-178.7403
 20
-48.0911
 30
0.0
 10
-181.7021
 20
-48.4952
 30
0.0
 10
-181.7021
 20
-48.4952
 30
0.0
 10
-181.7021
 20
-48.4952
 30
0.0
 10
-181.7018
 20
-38.2867
 30
0.0
 10
-181.7018
 20
-38.2867
 30
0.0
 10
-181.7018
 20
-38.2867
 30
0.0
 10
-179.3358
 20
-38.7369
 30
0.0
 10
-177.4264
 20
-36.3345
 30
0.0
 10
-180.242
 20
-35.2018
 30
0.0
  0
SPLINE
  5
99
330
1F
100
AcDbEntity
  8
layer 1
 62
   250
100
AcDbSpline
210
0.0
220
0.0
230
1.0
 70
    11
 71
     3
 72
    84
 73
    80
 74
     0
 42
0.0000000001
 43
0.0000000001
 12
1.0
 22
0.0
 32
0.0
 13
1.0
 23
0.0
 33
0.0
 40
0.0
 40
0.0
 40
0.0
 40
0.0
 40
0.0476190476190476
 40
0.0476190476190476
 40
0.0476190476190476
 40
0.0476190476190476
 40
0.0952380952380952
 40
0.0952380952380952
 40
0.0952380952380952
 40
0.0952380952380952
 40
0.1428571428571428
 40
0.1428571428571428
 40
0.1428571428571428
 40
0.1428571428571428
 40
0.1904761904761905
 40
0.1904761904761905
 40
0.1904761904761905
 40
0.1904761904761905
 40
0.2380952380952381
 40
0.2380952380952381
 40
0.2380952380952381
 40
0.2380952380952381
 40
0.2857142857142857
 40
0.2857142857142857
 40
0.2857142857142857
 40
0.2857142857142857
 40
0.3333333333333333
 40
0.3333333333333333
 40
0.3333333333333333
 40
0.3333333333333333
 40
0.3809523809523809
 40
0.3809523809523809
 40
0.3809523809523809
 40
0.3809523809523809
 40
0.4285714285714285
 40
0.4285714285714285
 40
0.4285714285714285
 40
0.4285714285714285
 40
0.4761904761904762
 40
0.4761904761904762
 40
0.4761904761904762
 40
0.4761904761904762
 40
0.5238095238095238
 40
0.5238095238095238
 40
0.5238095238095238
 40
0.5238095238095238
 40
0.5714285714285714
 40
0.5714285714285714
 40
0.5714285714285714
 40
0.5714285714285714
 40
0.6190476190476191
 40
0.6190476190476191
 40
0.6190476190476191
 40
0.6190476190476191
 40
0.6666666666666666
 40
0.6666666666666666
 40
0.6666666666666666
 40
0.6666666666666666
 40
0.7142857142857143
 40
0.7142857142857143
 40
0.7142857142857143
 40
0.7142857142857143
 40
0.7619047619047619
 40
0.7619047619047619
 40
0.7619047619047619
 40
0.7619047619047619
 40
0.8095238095238095
 40
0.8095238095238095
 40
0.8095238095238095
 40
0.8095238095238095
 40
0.8571428571428571
 40
0.8571428571428571
 40
0.8571428571428571
 40
0.8571428571428571
 40
0.9047619047619048
 40
0.9047619047619048
 40
0.9047619047619048
 40
0.9047619047619048
 40
1.0
 40
1.0
 40
1.0
 40
1.0
 10
-127.767
 20
-35.666
 30
0.0
 10
-127.0634
 20
-37.6251
 30
0.0
 10
-129.9732
 20
-37.4315
 30
0.0
 10
-129.0325
 20
-35.2058
 30
0.0
 10
-129.0325
 20
-35.2058
 30
0.0
 10
-127.8155
 20
-32.3276
 30
0.0
 10
-119.2168
 20
-32.4385
 30
0.0
 10
-119.4884
 20
-36.0109
 30
0.0
 10
-119.4884
 20
-36.0109
 30
0.0
 10
-119.4017
 20
-37.5293
 30
0.0
 10
-121.3454
 20
-37.409
 30
0.0
 10
-121.0265
 20
-35.8668
 30
0.0
 10
-121.0265
 20
-35.8668
 30
0.0
 10
-123.6078
 20
-36.7283
 30
0.0
 10
-121.4003
 20
-39.4123
 30
0.0
 10
-119.1294
 20
-38.8663
 30
0.0
 10
-119.1294
 20
-38.8663
 30
0.0
 10
-119.334
 20
-42.376
 30
0.0
 10
-115.9148
 20
-42.4161
 30
0.0
 10
-116.2688
 20
-40.7255
 30
0.0
 10
-116.2688
 20
-40.7255
 30
0.0
 10
-117.8341
 20
-41.0362
 30
0.0
 10
-117.6822
 20
-38.7203
 30
0.0
 10
-115.579
 20
-39.1156
 30
0.0
 10
-115.579
 20
-39.1156
 30
0.0
 10
-111.9696
 20
-39.7935
 30
0.0
 10
-112.7377
 20
-49.4012
 30
0.0
 10
-116.2688
 20
-48.65
 30
0.0
 10
-116.2688
 20
-48.65
 30
0.0
 10
-118.0412
 20
-48.2725
 30
0.0
 10
-117.2029
 20
-46.8722
 30
0.0
 10
-116.0388
 20
-46.8196
 30
0.0
 10
-116.0388
 20
-46.8196
 30
0.0
 10
-117.877
 20
-44.6071
 30
0.0
 10
-119.5702
 20
-47.6009
 30
0.0
 10
-119.2156
 20
-48.8896
 30
0.0
 10
-119.2156
 20
-48.8896
 30
0.0
 10
-123.2858
 20
-49.019
 30
0.0
 10
-122.2097
 20
-51.8311
 30
0.0
 10
-121.3282
 20
-51.8791
 30
0.0
 10
-121.3282
 20
-51.8791
 30
0.0
 10
-120.3969
 20
-49.0265
 30
0.0
 10
-118.0349
 20
-52.2484
 30
0.0
 10
-120.7534
 20
-53.9491
 30
0.0
 10
-120.7534
 20
-53.9491
 30
0.0
 10
-122.8961
 20
-55.2898
 30
0.0
 10
-128.8706
 20
-55.0336
 30
0.0
 10
-129.1378
 20
-52.1619
 30
0.0
 10
-129.1378
 20
-52.1619
 30
0.0
 10
-129.2969
 20
-50.4509
 30
0.0
 10
-127.5138
 20
-50.4757
 30
0.0
 10
-127.5376
 20
-51.7641
 30
0.0
 10
-127.5376
 20
-51.7641
 30
0.0
 10
-125.6117
 20
-51.8938
 30
0.0
 10
-126.3025
 20
-48.3577
 30
0.0
 10
-129.4924
 20
-49.0046
 30
0.0
 10
-129.4924
 20
-49.0046
 30
0.0
 10
-128.9946
 20
-46.2799
 30
0.0
 10
-131.5624
 20
-45.0331
 30
0.0
 10
-132.7121
 20
-46.7479
 30
0.0
 10
-132.7121
 20
-46.7479
 30
0.0
 10
-130.2796
 20
-47.3559
 30
0.0
 10
-131.5113
 20
-49.6574
 30
0.0
 10
-133.6945
 20
-48.233
 30
0.0
 10
-133.6945
 20
-48.233
 30
0.0
 10
-136.0439
 20
-46.7
 30
0.0
 10
-136.1363
 20
-40.4911
 30
0.0
 10
-133.2872
 20
-39.2306
 30
0.0
 10
-133.2872
 20
-39.2306
 30
0.0
 10
-131.309
 20
-38.355
 30
0.0
 10
-130.4813
 20
-40.7753
 30
0.0
 10
-132.6692
 20
-40.706
 30
0.0
 10
-132.6692
 20
-40.706
 30
0.0
 10
-131.1693
 20
-43.2181
 30
0.0
 10
-128.5777
 20
-40.4999
 30
0.0
 10
-129.6074
 20
-38.6554
 30
0.0
 10
-129.6074
 20
-38.6554
 30
0.0
 10
-127.0778
 20
-39.4602
 30
0.0
 10
-124.8016
 20
-36.8589
 30
0.0
 10
-127.767
 20
-35.666
 30
0.0
  0
SPLINE
  5
9A
330
1F
100
AcDbEntity
  8
layer 1
 62
   250
100
AcDbSpline
210
0.0
220
0.0
230
1.0
 70
    11
 71
     3
 72
    84
 73
    80
 74
     0
 42
0.0000000001
 43
0.0000000001
 12
1.0
 22
0.0
 32
0.0
 13
1.0
 23
0.0
 33
0.0
 40
0.0
 40
0.0
 40
0.0
 40
0.0
 40
0.0476190476190476
 40
0.0476190476190476
 40
0.0476190476190476
 40
0.0476190476190476
 40
0.0952380952380952
 40
0.0952380952380952
 40
0.0952380952380952
 40
0.0952380952380952
 40
0.1428571428571428
 40
0.1428571428571428
 40
0.1428571428571428
 40
0.1428571428571428
 40
0.1904761904761905
 40
0.1904761904761905
 40
0.1904761904761905
 40
0.1904761904761905
 40
0.2380952380952381
 40
0.2380952380952381
 40
0.2380952380952381
 40
0.2380952380952381
 40
0.2857142857142857
 40
0.2857142857142857
 40
0.2857142857142857
 40
0.2857142857142857
 40
0.3333333333333333
 40
0.3333333333333333
 40
0.3333333333333333
 40
0.3333333333333333
 40
0.3809523809523809
 40
0.3809523809523809
 40
0.3809523809523809
 40
0.3809523809523809
 40
0.4285714285714285
 40
0.4285714285714285
 40
0.4285714285714285
 40
0.4285714285714285
 40
0.4761904761904762
 40
0.4761904761904762
 40
0.4761904761904762
 40
0.4761904761904762
 40
0.5238095238095238
 40
0.5238095238095238
 40
0.5238095238095238
 40
0.5238095238095238
 40
0.5714285714285714
 40
0.5714285714285714
 40
0.5714285714285714
 40
0.5714285714285714
 40
0.6190476190476191
 40
0.6190476190476191
 40
0.6190476190476191
 40
0.6190476190476191
 40
0.6666666666666666
 40
0.6666666666666666
 40
0.6666666666666666
 40
0.6666666666666666
 40
0.7142857142857143
 40
0.7142857142857143
 40
0.7142857142857143
 40
0.7142857142857143
 40
0.7619047619047619
 40
0.7619047619047619
 40
0.7619047619047619
 40
0.7619047619047619
 40
0.8095238095238095
 40
0.8095238095238095
 40
0.8095238095238095
 40
0.8095238095238095
 40
0.8571428571428571
 40
0.8571428571428571
 40
0.8571428571428571
 40
0.8571428571428571
 40
0.9047619047619048
 40
0.9047619047619048
 40
0.9047619047619048
 40
0.9047619047619048
 40
1.0
 40
1.0
 40
1.0
 40
1.0
 10
-101.3529
 20
-35.7713
 30
0.0
 10
-100.6493
 20
-37.7307
 30
0.0
 10
-103.5592
 20
-37.5374
 30
0.0
 10
-102.6185
 20
-35.3117
 30
0.0
 10
-102.6185
 20
-35.3117
 30
0.0
 10
-101.4015
 20
-32.4329
 30
0.0
 10
-92.8028
 20
-32.5441
 30
0.0
 10
-93.0744
 20
-36.1165
 30
0.0
 10
-93.0744
 20
-36.1165
 30
0.0
 10
-92.9876
 20
-37.6348
 30
0.0
 10
-94.9314
 20
-37.5146
 30
0.0
 10
-94.6122
 20
-35.9727
 30
0.0
 10
-94.6122
 20
-35.9727
 30
0.0
 10
-97.1938
 20
-36.8338
 30
0.0
 10
-94.9862
 20
-39.5178
 30
0.0
 10
-92.7151
 20
-38.9718
 30
0.0
 10
-92.7151
 20
-38.9718
 30
0.0
 10
-92.92
 20
-42.4819
 30
0.0
 10
-89.5007
 20
-42.5217
 30
0.0
 10
-89.8547
 20
-40.831
 30
0.0
 10
-89.8547
 20
-40.831
 30
0.0
 10
-91.4201
 20
-41.1415
 30
0.0
 10
-91.2678
 20
-38.8259
 30
0.0
 10
-89.1646
 20
-39.2212
 30
0.0
 10
-89.1646
 20
-39.2212
 30
0.0
 10
-85.5555
 20
-39.8991
 30
0.0
 10
-86.3233
 20
-49.5068
 30
0.0
 10
-89.8547
 20
-48.7556
 30
0.0
 10
-89.8547
 20
-48.7556
 30
0.0
 10
-91.6271
 20
-48.3781
 30
0.0
 10
-90.7888
 20
-46.9781
 30
0.0
 10
-89.6248
 20
-46.9255
 30
0.0
 10
-89.6248
 20
-46.9255
 30
0.0
 10
-91.463
 20
-44.7126
 30
0.0
 10
-93.1558
 20
-47.7065
 30
0.0
 10
-92.8012
 20
-48.9952
 30
0.0
 10
-92.8012
 20
-48.9952
 30
0.0
 10
-96.8717
 20
-49.1249
 30
0.0
 10
-95.7957
 20
-51.9367
 30
0.0
 10
-94.9142
 20
-51.985
 30
0.0
 10
-94.9142
 20
-51.985
 30
0.0
 10
-93.9828
 20
-49.1321
 30
0.0
 10
-91.6209
 20
-52.3543
 30
0.0
 10
-94.3393
 20
-54.0547
 30
0.0
 10
-94.3393
 20
-54.0547
 30
0.0
 10
-96.482
 20
-55.3954
 30
0.0
 10
-102.4565
 20
-55.1392
 30
0.0
 10
-102.7237
 20
-52.2675
 30
0.0
 10
-102.7237
 20
-52.2675
 30
0.0
 10
-102.8829
 20
-50.5568
 30
0.0
 10
-101.0998
 20
-50.5812
 30
0.0
 10
-101.1236
 20
-51.87
 30
0.0
 10
-101.1236
 20
-51.87
 30
0.0
 10
-99.1977
 20
-51.9994
 30
0.0
 10
-99.8881
 20
-48.4633
 30
0.0
 10
-103.0783
 20
-49.1102
 30
0.0
 10
-103.0783
 20
-49.1102
 30
0.0
 10
-102.5806
 20
-46.3854
 30
0.0
 10
-105.148
 20
-45.139
 30
0.0
 10
-106.298
 20
-46.8534
 30
0.0
 10
-106.298
 20
-46.8534
 30
0.0
 10
-103.8656
 20
-47.4615
 30
0.0
 10
-105.0973
 20
-49.763
 30
0.0
 10
-107.2801
 20
-48.3386
 30
0.0
 10
-107.2801
 20
-48.3386
 30
0.0
 10
-109.6292
 20
-46.8058
 30
0.0
 10
-109.7219
 20
-40.5967
 30
0.0
 10
-106.8728
 20
-39.3362
 30
0.0
 10
-106.8728
 20
-39.3362
 30
0.0
 10
-104.8949
 20
-38.4612
 30
0.0
 10
-104.0673
 20
-40.8808
 30
0.0
 10
-106.2548
 20
-40.8116
 30
0.0
 10
-106.2548
 20
-40.8116
 30
0.0
 10
-104.7552
 20
-43.3233
 30
0.0
 10
-102.1636
 20
-40.6055
 30
0.0
 10
-103.1933
 20
-38.7613
 30
0.0
 10
-103.1933
 20
-38.7613
 30
0.0
 10
-100.6631
 20
-39.5661
 30
0.0
 10
-98.3876
 20
-36.9645
 30
0.0
 10
-101.3529
 20
-35.7713
 30
0.0
  0
SPLINE
  5
9B
330
1F
100
AcDbEntity
  8
layer 1
 62
   250
100
AcDbSpline
210
0.0
220
0.0
230
1.0
 70
    11
 71
     3
 72
    76
 73
    72
 74
     0
 42
0.0000000001
 43
0.0000000001
 12
1.0
 22
0.0
 32
0.0
 13
1.0
 23
0.0
 33
0.0
 40
0.0
 40
0.0
 40
0.0
 40
0.0
 40
0.0526315789473684
 40
0.0526315789473684
 40
0.0526315789473684
 40
0.0526315789473684
 40
0.1052631578947368
 40
0.1052631578947368
 40
0.1052631578947368
 40
0.1052631578947368
 40
0.1578947368421053
 40
0.1578947368421053
 40
0.1578947368421053
 40
0.1578947368421053
 40
0.2105263157894737
 40
0.2105263157894737
 40
0.2105263157894737
 40
0.2105263157894737
 40
0.2631578947368421
 40
0.2631578947368421
 40
0.2631578947368421
 40
0.2631578947368421
 40
0.3157894736842105
 40
0.3157894736842105
 40
0.3157894736842105
 40
0.3157894736842105
 40
0.3684210526315789
 40
0.3684210526315789
 40
0.3684210526315789
 40
0.3684210526315789
 40
0.4210526315789473
 40
0.4210526315789473
 40
0.4210526315789473
 40
0.4210526315789473
 40
0.4736842105263158
 40
0.4736842105263158
 40
0.4736842105263158
 40
0.4736842105263158
 40
0.5263157894736842
 40
0.5263157894736842
 40
0.5263157894736842
 40
0.5263157894736842
 40
0.5789473684210527
 40
0.5789473684210527
 40
0.5789473684210527
 40
0.5789473684210527
 40
0.631578947368421
 40
0.631578947368421
 40
0.631578947368421
 40
0.631578947368421
 40
0.6842105263157895
 40
0.6842105263157895
 40
0.6842105263157895
 40
0.6842105263157895
 40
0.7368421052631579
 40
0.7368421052631579
 40
0.7368421052631579
 40
0.7368421052631579
 40
0.7894736842105263
 40
0.7894736842105263
 40
0.7894736842105263
 40
0.7894736842105263
 40
0.8421052631578947
 40
0.8421052631578947
 40
0.8421052631578947
 40
0.8421052631578947
 40
0.8947368421052632
 40
0.8947368421052632
 40
0.8947368421052632
 40
0.8947368421052632
 40
1.0
 40
1.0
 40
1.0
 40
1.0
 10
-75.0444
 20
-35.8771
 30
0.0
 10
-74.3402
 20
-37.8363
 30
0.0
 10
-77.2504
 20
-37.643
 30
0.0
 10
-76.31
 20
-35.4173
 30
0.0
 10
-76.31
 20
-35.4173
 30
0.0
 10
-75.0923
 20
-32.5387
 30
0.0
 10
-66.4943
 20
-32.6496
 30
0.0
 10
-66.7659
 20
-36.222
 30
0.0
 10
-66.7659
 20
-36.222
 30
0.0
 10
-66.6794
 20
-37.7407
 30
0.0
 10
-68.6229
 20
-37.6204
 30
0.0
 10
-68.3037
 20
-36.0783
 30
0.0
 10
-68.3037
 20
-36.0783
 30
0.0
 10
-70.8853
 20
-36.9397
 30
0.0
 10
-68.6774
 20
-39.6237
 30
0.0
 10
-66.4066
 20
-39.0777
 30
0.0
 10
-66.4066
 20
-39.0777
 30
0.0
 10
-66.4743
 20
-40.2368
 30
0.0
 10
-66.1472
 20
-41.0168
 30
0.0
 10
-65.6908
 20
-41.4814
 30
0.0
 10
-65.6908
 20
-41.4814
 30
0.0
 10
-65.6908
 20
-41.4814
 30
0.0
 10
-65.6905
 20
-46.7153
 30
0.0
 10
-65.6905
 20
-46.7153
 30
0.0
 10
-65.6905
 20
-46.7153
 30
0.0
 10
-66.322
 20
-47.3424
 30
0.0
 10
-66.6738
 20
-48.4436
 30
0.0
 10
-66.4927
 20
-49.1008
 30
0.0
 10
-66.4927
 20
-49.1008
 30
0.0
 10
-70.5626
 20
-49.2305
 30
0.0
 10
-69.4869
 20
-52.0423
 30
0.0
 10
-68.6057
 20
-52.0905
 30
0.0
 10
-68.6057
 20
-52.0905
 30
0.0
 10
-67.6747
 20
-49.238
 30
0.0
 10
-65.3121
 20
-52.4599
 30
0.0
 10
-68.0305
 20
-54.1602
 30
0.0
 10
-68.0305
 20
-54.1602
 30
0.0
 10
-70.1735
 20
-55.5007
 30
0.0
 10
-76.148
 20
-55.2447
 30
0.0
 10
-76.4152
 20
-52.3731
 30
0.0
 10
-76.4152
 20
-52.3731
 30
0.0
 10
-76.5744
 20
-50.6624
 30
0.0
 10
-74.7913
 20
-50.6868
 30
0.0
 10
-74.8151
 20
-51.9756
 30
0.0
 10
-74.8151
 20
-51.9756
 30
0.0
 10
-72.8895
 20
-52.1052
 30
0.0
 10
-73.5796
 20
-48.5689
 30
0.0
 10
-76.7699
 20
-49.2157
 30
0.0
 10
-76.7699
 20
-49.2157
 30
0.0
 10
-76.2724
 20
-46.4913
 30
0.0
 10
-78.8396
 20
-45.2445
 30
0.0
 10
-79.9895
 20
-46.959
 30
0.0
 10
-79.9895
 20
-46.959
 30
0.0
 10
-77.5571
 20
-47.5674
 30
0.0
 10
-78.7888
 20
-49.8686
 30
0.0
 10
-80.9716
 20
-48.4442
 30
0.0
 10
-80.9716
 20
-48.4442
 30
0.0
 10
-83.3207
 20
-46.9111
 30
0.0
 10
-83.4135
 20
-40.7026
 30
0.0
 10
-80.5644
 20
-39.4417
 30
0.0
 10
-80.5644
 20
-39.4417
 30
0.0
 10
-78.5864
 20
-38.5668
 30
0.0
 10
-77.7585
 20
-40.9867
 30
0.0
 10
-79.9463
 20
-40.9175
 30
0.0
 10
-79.9463
 20
-40.9175
 30
0.0
 10
-78.4461
 20
-43.4295
 30
0.0
 10
-75.8551
 20
-40.7111
 30
0.0
 10
-76.8848
 20
-38.8669
 30
0.0
 10
-76.8848
 20
-38.8669
 30
0.0
 10
-74.3546
 20
-39.6713
 30
0.0
 10
-72.0791
 20
-37.07
 30
0.0
 10
-75.0444
 20
-35.8771
 30
0.0
  0
SPLINE
  5
9C
330
1F
100
AcDbEntity
  8
layer 1
 62
   250
100
AcDbSpline
210
0.0
220
0.0
230
1.0
 70
    11
 71
     3
 72
    84
 73
    80
 74
     0
 42
0.0000000001
 43
0.0000000001
 12
1.0
 22
0.0
 32
0.0
 13
1.0
 23
0.0
 33
0.0
 40
0.0
 40
0.0
 40
0.0
 40
0.0
 40
0.0476190476190476
 40
0.0476190476190476
 40
0.0476190476190476
 40
0.0476190476190476
 40
0.0952380952380952
 40
0.0952380952380952
 40
0.0952380952380952
 40
0.0952380952380952
 40
0.1428571428571428
 40
0.1428571428571428
 40
0.1428571428571428
 40
0.1428571428571428
 40
0.1904761904761905
 40
0.1904761904761905
 40
0.1904761904761905
 40
0.1904761904761905
 40
0.2380952380952381
 40
0.2380952380952381
 40
0.2380952380952381
 40
0.2380952380952381
 40
0.2857142857142857
 40
0.2857142857142857
 40
0.2857142857142857
 40
0.2857142857142857
 40
0.3333333333333333
 40
0.3333333333333333
 40
0.3333333333333333
 40
0.3333333333333333
 40
0.3809523809523809
 40
0.3809523809523809
 40
0.3809523809523809
 40
0.3809523809523809
 40
0.4285714285714285
 40
0.4285714285714285
 40
0.4285714285714285
 40
0.4285714285714285
 40
0.4761904761904762
 40
0.4761904761904762
 40
0.4761904761904762
 40
0.4761904761904762
 40
0.5238095238095238
 40
0.5238095238095238
 40
0.5238095238095238
 40
0.5238095238095238
 40
0.5714285714285714
 40
0.5714285714285714
 40
0.5714285714285714
 40
0.5714285714285714
 40
0.6190476190476191
 40
0.6190476190476191
 40
0.6190476190476191
 40
0.6190476190476191
 40
0.6666666666666666
 40
0.6666666666666666
 40
0.6666666666666666
 40
0.6666666666666666
 40
0.7142857142857143
 40
0.7142857142857143
 40
0.7142857142857143
 40
0.7142857142857143
 40
0.7619047619047619
 40
0.7619047619047619
 40
0.7619047619047619
 40
0.7619047619047619
 40
0.8095238095238095
 40
0.8095238095238095
 40
0.8095238095238095
 40
0.8095238095238095
 40
0.8571428571428571
 40
0.8571428571428571
 40
0.8571428571428571
 40
0.8571428571428571
 40
0.9047619047619048
 40
0.9047619047619048
 40
0.9047619047619048
 40
0.9047619047619048
 40
1.0
 40
1.0
 40
1.0
 40
1.0
 10
-154.0754
 20
-61.2042
 30
0.0
 10
-153.3712
 20
-63.1633
 30
0.0
 10
-156.2811
 20
-62.9697
 30
0.0
 10
-155.3404
 20
-60.744
 30
0.0
 10
-155.3404
 20
-60.744
 30
0.0
 10
-154.1234
 20
-57.8658
 30
0.0
 10
-145.525
 20
-57.9767
 30
0.0
 10
-145.7963
 20
-61.5491
 30
0.0
 10
-145.7963
 20
-61.5491
 30
0.0
 10
-145.7102
 20
-63.0675
 30
0.0
 10
-147.6533
 20
-62.9472
 30
0.0
 10
-147.3344
 20
-61.4053
 30
0.0
 10
-147.3344
 20
-61.4053
 30
0.0
 10
-149.916
 20
-62.2665
 30
0.0
 10
-147.7081
 20
-64.9505
 30
0.0
 10
-145.4373
 20
-64.4044
 30
0.0
 10
-145.4373
 20
-64.4044
 30
0.0
 10
-145.6419
 20
-67.9142
 30
0.0
 10
-142.2226
 20
-67.9543
 30
0.0
 10
-142.5766
 20
-66.2636
 30
0.0
 10
-142.5766
 20
-66.2636
 30
0.0
 10
-144.142
 20
-66.5744
 30
0.0
 10
-143.99
 20
-64.2585
 30
0.0
 10
-141.8868
 20
-64.6538
 30
0.0
 10
-141.8868
 20
-64.6538
 30
0.0
 10
-138.2781
 20
-65.3317
 30
0.0
 10
-139.0456
 20
-74.9394
 30
0.0
 10
-142.5766
 20
-74.1882
 30
0.0
 10
-142.5766
 20
-74.1882
 30
0.0
 10
-144.3487
 20
-73.8107
 30
0.0
 10
-143.5108
 20
-72.4107
 30
0.0
 10
-142.3467
 20
-72.3578
 30
0.0
 10
-142.3467
 20
-72.3578
 30
0.0
 10
-144.1855
 20
-70.1452
 30
0.0
 10
-145.8781
 20
-73.1391
 30
0.0
 10
-145.5235
 20
-74.4278
 30
0.0
 10
-145.5235
 20
-74.4278
 30
0.0
 10
-149.5936
 20
-74.5572
 30
0.0
 10
-148.5176
 20
-77.3693
 30
0.0
 10
-147.6364
 20
-77.4176
 30
0.0
 10
-147.6364
 20
-77.4176
 30
0.0
 10
-146.7048
 20
-74.5647
 30
0.0
 10
-144.3428
 20
-77.7869
 30
0.0
 10
-147.0612
 20
-79.4873
 30
0.0
 10
-147.0612
 20
-79.4873
 30
0.0
 10
-149.2036
 20
-80.828
 30
0.0
 10
-155.1784
 20
-80.5718
 30
0.0
 10
-155.446
 20
-77.7001
 30
0.0
 10
-155.446
 20
-77.7001
 30
0.0
 10
-155.6048
 20
-75.9891
 30
0.0
 10
-153.8217
 20
-76.0138
 30
0.0
 10
-153.8455
 20
-77.3023
 30
0.0
 10
-153.8455
 20
-77.3023
 30
0.0
 10
-151.9196
 20
-77.4323
 30
0.0
 10
-152.6103
 20
-73.8959
 30
0.0
 10
-155.8006
 20
-74.5428
 30
0.0
 10
-155.8006
 20
-74.5428
 30
0.0
 10
-155.3031
 20
-71.8181
 30
0.0
 10
-157.8703
 20
-70.5713
 30
0.0
 10
-159.0202
 20
-72.2861
 30
0.0
 10
-159.0202
 20
-72.2861
 30
0.0
 10
-156.5875
 20
-72.8941
 30
0.0
 10
-157.8192
 20
-75.1956
 30
0.0
 10
-160.0023
 20
-73.7712
 30
0.0
 10
-160.0023
 20
-73.7712
 30
0.0
 10
-162.3518
 20
-72.2384
 30
0.0
 10
-162.4442
 20
-66.0293
 30
0.0
 10
-159.5951
 20
-64.7688
 30
0.0
 10
-159.5951
 20
-64.7688
 30
0.0
 10
-157.6168
 20
-63.8932
 30
0.0
 10
-156.7892
 20
-66.3135
 30
0.0
 10
-158.977
 20
-66.2442
 30
0.0
 10
-158.977
 20
-66.2442
 30
0.0
 10
-157.4768
 20
-68.7559
 30
0.0
 10
-154.8855
 20
-66.0381
 30
0.0
 10
-155.9155
 20
-64.1936
 30
0.0
 10
-155.9155
 20
-64.1936
 30
0.0
 10
-153.3853
 20
-64.9987
 30
0.0
 10
-151.1098
 20
-62.3971
 30
0.0
 10
-154.0754
 20
-61.2042
 30
0.0
  0
SPLINE
  5
9D
330
1F
100
AcDbEntity
  8
layer 1
 62
   250
100
AcDbSpline
210
0.0
220
0.0
230
1.0
 70
    11
 71
     3
 72
    68
 73
    64
 74
     0
 42
0.0000000001
 43
0.0000000001
 12
1.0
 22
0.0
 32
0.0
 13
1.0
 23
0.0
 33
0.0
 40
0.0
 40
0.0
 40
0.0
 40
0.0
 40
0.0588235294117647
 40
0.0588235294117647
 40
0.0588235294117647
 40
0.0588235294117647
 40
0.1176470588235294
 40
0.1176470588235294
 40
0.1176470588235294
 40
0.1176470588235294
 40
0.1764705882352941
 40
0.1764705882352941
 40
0.1764705882352941
 40
0.1764705882352941
 40
0.2352941176470588
 40
0.2352941176470588
 40
0.2352941176470588
 40
0.2352941176470588
 40
0.2941176470588235
 40
0.2941176470588235
 40
0.2941176470588235
 40
0.2941176470588235
 40
0.3529411764705883
 40
0.3529411764705883
 40
0.3529411764705883
 40
0.3529411764705883
 40
0.4117647058823529
 40
0.4117647058823529
 40
0.4117647058823529
 40
0.4117647058823529
 40
0.4705882352941176
 40
0.4705882352941176
 40
0.4705882352941176
 40
0.4705882352941176
 40
0.5294117647058824
 40
0.5294117647058824
 40
0.5294117647058824
 40
0.5294117647058824
 40
0.5882352941176471
 40
0.5882352941176471
 40
0.5882352941176471
 40
0.5882352941176471
 40
0.6470588235294118
 40
0.6470588235294118
 40
0.6470588235294118
 40
0.6470588235294118
 40
0.7058823529411765
 40
0.7058823529411765
 40
0.7058823529411765
 40
0.7058823529411765
 40
0.7647058823529411
 40
0.7647058823529411
 40
0.7647058823529411
 40
0.7647058823529411
 40
0.8235294117647058
 40
0.8235294117647058
 40
0.8235294117647058
 40
0.8235294117647058
 40
0.8823529411764706
 40
0.8823529411764706
 40
0.8823529411764706
 40
0.8823529411764706
 40
1.0
 40
1.0
 40
1.0
 40
1.0
 10
-180.278
 20
-60.8872
 30
0.0
 10
-179.5745
 20
-62.8463
 30
0.0
 10
-182.484
 20
-62.653
 30
0.0
 10
-181.5433
 20
-60.4273
 30
0.0
 10
-181.5433
 20
-60.4273
 30
0.0
 10
-180.326
 20
-57.5488
 30
0.0
 10
-171.7279
 20
-57.6597
 30
0.0
 10
-171.9992
 20
-61.2321
 30
0.0
 10
-171.9992
 20
-61.2321
 30
0.0
 10
-171.9131
 20
-62.7504
 30
0.0
 10
-173.8562
 20
-62.6301
 30
0.0
 10
-173.5373
 20
-61.0883
 30
0.0
 10
-173.5373
 20
-61.0883
 30
0.0
 10
-176.1189
 20
-61.9494
 30
0.0
 10
-173.911
 20
-64.6334
 30
0.0
 10
-171.6402
 20
-64.0874
 30
0.0
 10
-171.6402
 20
-64.0874
 30
0.0
 10
-171.8445
 20
-67.5975
 30
0.0
 10
-168.4256
 20
-67.6373
 30
0.0
 10
-168.7795
 20
-65.9466
 30
0.0
 10
-168.7795
 20
-65.9466
 30
0.0
 10
-170.3452
 20
-66.2577
 30
0.0
 10
-170.193
 20
-63.9414
 30
0.0
 10
-168.0897
 20
-64.3368
 30
0.0
 10
-168.0897
 20
-64.3368
 30
0.0
 10
-164.4807
 20
-65.0147
 30
0.0
 10
-165.2485
 20
-74.6224
 30
0.0
 10
-168.7795
 20
-73.8712
 30
0.0
 10
-168.7795
 20
-73.8712
 30
0.0
 10
-170.5523
 20
-73.494
 30
0.0
 10
-169.7137
 20
-72.0937
 30
0.0
 10
-168.5496
 20
-72.0411
 30
0.0
 10
-168.5496
 20
-72.0411
 30
0.0
 10
-170.3881
 20
-69.8282
 30
0.0
 10
-172.081
 20
-72.822
 30
0.0
 10
-171.7264
 20
-74.1108
 30
0.0
 10
-171.7264
 20
-74.1108
 30
0.0
 10
-175.7962
 20
-74.2402
 30
0.0
 10
-174.7205
 20
-77.0523
 30
0.0
 10
-173.839
 20
-77.1005
 30
0.0
 10
-173.839
 20
-77.1005
 30
0.0
 10
-172.9083
 20
-74.248
 30
0.0
 10
-170.5457
 20
-77.4699
 30
0.0
 10
-173.2642
 20
-79.1703
 30
0.0
 10
-173.2642
 20
-79.1703
 30
0.0
 10
-175.4072
 20
-80.511
 30
0.0
 10
-181.3813
 20
-80.2548
 30
0.0
 10
-181.6486
 20
-77.3831
 30
0.0
 10
-181.6486
 20
-77.3831
 30
0.0
 10
-181.808
 20
-75.6721
 30
0.0
 10
-180.0246
 20
-75.6968
 30
0.0
 10
-180.0484
 20
-76.9856
 30
0.0
 10
-180.0484
 20
-76.9856
 30
0.0
 10
-178.177
 20
-77.1112
 30
0.0
 10
-178.776
 20
-73.7765
 30
0.0
 10
-181.7378
 20
-74.1807
 30
0.0
 10
-181.7378
 20
-74.1807
 30
0.0
 10
-181.7378
 20
-74.1807
 30
0.0
 10
-181.7378
 20
-63.9718
 30
0.0
 10
-181.7378
 20
-63.9718
 30
0.0
 10
-181.7378
 20
-63.9718
 30
0.0
 10
-179.3712
 20
-64.4223
 30
0.0
 10
-177.4622
 20
-62.0199
 30
0.0
 10
-180.278
 20
-60.8872
 30
0.0
  0
SPLINE
  5
9E
330
1F
100
AcDbEntity
  8
layer 1
 62
   250
100
AcDbSpline
210
0.0
220
0.0
230
1.0
 70
    11
 71
     3
 72
    84
 73
    80
 74
     0
 42
0.0000000001
 43
0.0000000001
 12
1.0
 22
0.0
 32
0.0
 13
1.0
 23
0.0
 33
0.0
 40
0.0
 40
0.0
 40
0.0
 40
0.0
 40
0.0476190476190476
 40
0.0476190476190476
 40
0.0476190476190476
 40
0.0476190476190476
 40
0.0952380952380952
 40
0.0952380952380952
 40
0.0952380952380952
 40
0.0952380952380952
 40
0.1428571428571428
 40
0.1428571428571428
 40
0.1428571428571428
 40
0.1428571428571428
 40
0.1904761904761905
 40
0.1904761904761905
 40
0.1904761904761905
 40
0.1904761904761905
 40
0.2380952380952381
 40
0.2380952380952381
 40
0.2380952380952381
 40
0.2380952380952381
 40
0.2857142857142857
 40
0.2857142857142857
 40
0.2857142857142857
 40
0.2857142857142857
 40
0.3333333333333333
 40
0.3333333333333333
 40
0.3333333333333333
 40
0.3333333333333333
 40
0.3809523809523809
 40
0.3809523809523809
 40
0.3809523809523809
 40
0.3809523809523809
 40
0.4285714285714285
 40
0.4285714285714285
 40
0.4285714285714285
 40
0.4285714285714285
 40
0.4761904761904762
 40
0.4761904761904762
 40
0.4761904761904762
 40
0.4761904761904762
 40
0.5238095238095238
 40
0.5238095238095238
 40
0.5238095238095238
 40
0.5238095238095238
 40
0.5714285714285714
 40
0.5714285714285714
 40
0.5714285714285714
 40
0.5714285714285714
 40
0.6190476190476191
 40
0.6190476190476191
 40
0.6190476190476191
 40
0.6190476190476191
 40
0.6666666666666666
 40
0.6666666666666666
 40
0.6666666666666666
 40
0.6666666666666666
 40
0.7142857142857143
 40
0.7142857142857143
 40
0.7142857142857143
 40
0.7142857142857143
 40
0.7619047619047619
 40
0.7619047619047619
 40
0.7619047619047619
 40
0.7619047619047619
 40
0.8095238095238095
 40
0.8095238095238095
 40
0.8095238095238095
 40
0.8095238095238095
 40
0.8571428571428571
 40
0.8571428571428571
 40
0.8571428571428571
 40
0.8571428571428571
 40
0.9047619047619048
 40
0.9047619047619048
 40
0.9047619047619048
 40
0.9047619047619048
 40
1.0
 40
1.0
 40
1.0
 40
1.0
 10
-127.803
 20
-61.3511
 30
0.0
 10
-127.0988
 20
-63.3105
 30
0.0
 10
-130.009
 20
-63.117
 30
0.0
 10
-129.0682
 20
-60.8912
 30
0.0
 10
-129.0682
 20
-60.8912
 30
0.0
 10
-127.8509
 20
-58.0127
 30
0.0
 10
-119.2529
 20
-58.1239
 30
0.0
 10
-119.5245
 20
-61.6963
 30
0.0
 10
-119.5245
 20
-61.6963
 30
0.0
 10
-119.438
 20
-63.2147
 30
0.0
 10
-121.3812
 20
-63.0944
 30
0.0
 10
-121.0623
 20
-61.5522
 30
0.0
 10
-121.0623
 20
-61.5522
 30
0.0
 10
-123.6438
 20
-62.414
 30
0.0
 10
-121.436
 20
-65.0977
 30
0.0
 10
-119.1652
 20
-64.5517
 30
0.0
 10
-119.1652
 20
-64.5517
 30
0.0
 10
-119.37
 20
-68.0618
 30
0.0
 10
-115.9508
 20
-68.1015
 30
0.0
 10
-116.3048
 20
-66.4109
 30
0.0
 10
-116.3048
 20
-66.4109
 30
0.0
 10
-117.8695
 20
-66.7213
 30
0.0
 10
-117.7179
 20
-64.4057
 30
0.0
 10
-115.6147
 20
-64.801
 30
0.0
 10
-115.6147
 20
-64.801
 30
0.0
 10
-112.0056
 20
-65.4789
 30
0.0
 10
-112.7734
 20
-75.0866
 30
0.0
 10
-116.3048
 20
-74.3354
 30
0.0
 10
-116.3048
 20
-74.3354
 30
0.0
 10
-118.0772
 20
-73.9579
 30
0.0
 10
-117.2386
 20
-72.5577
 30
0.0
 10
-116.0745
 20
-72.505
 30
0.0
 10
-116.0745
 20
-72.505
 30
0.0
 10
-117.9131
 20
-70.2925
 30
0.0
 10
-119.6059
 20
-73.2863
 30
0.0
 10
-119.2513
 20
-74.575
 30
0.0
 10
-119.2513
 20
-74.575
 30
0.0
 10
-123.3212
 20
-74.7047
 30
0.0
 10
-122.2454
 20
-77.5166
 30
0.0
 10
-121.3642
 20
-77.5645
 30
0.0
 10
-121.3642
 20
-77.5645
 30
0.0
 10
-120.4332
 20
-74.7119
 30
0.0
 10
-118.0706
 20
-77.9338
 30
0.0
 10
-120.7891
 20
-79.6345
 30
0.0
 10
-120.7891
 20
-79.6345
 30
0.0
 10
-122.9321
 20
-80.9753
 30
0.0
 10
-128.9063
 20
-80.719
 30
0.0
 10
-129.1738
 20
-77.8474
 30
0.0
 10
-129.1738
 20
-77.8474
 30
0.0
 10
-129.3329
 20
-76.1366
 30
0.0
 10
-127.5499
 20
-76.1611
 30
0.0
 10
-127.5734
 20
-77.4495
 30
0.0
 10
-127.5734
 20
-77.4495
 30
0.0
 10
-125.6478
 20
-77.5792
 30
0.0
 10
-126.3382
 20
-74.0431
 30
0.0
 10
-129.5284
 20
-74.69
 30
0.0
 10
-129.5284
 20
-74.69
 30
0.0
 10
-129.0306
 20
-71.965
 30
0.0
 10
-131.5981
 20
-70.7185
 30
0.0
 10
-132.7481
 20
-72.4333
 30
0.0
 10
-132.7481
 20
-72.4333
 30
0.0
 10
-130.315
 20
-73.0413
 30
0.0
 10
-131.5474
 20
-75.3428
 30
0.0
 10
-133.7302
 20
-73.9185
 30
0.0
 10
-133.7302
 20
-73.9185
 30
0.0
 10
-136.0793
 20
-72.3857
 30
0.0
 10
-136.172
 20
-66.1766
 30
0.0
 10
-133.3229
 20
-64.916
 30
0.0
 10
-133.3229
 20
-64.916
 30
0.0
 10
-131.345
 20
-64.0408
 30
0.0
 10
-130.5171
 20
-66.4607
 30
0.0
 10
-132.7049
 20
-66.3915
 30
0.0
 10
-132.7049
 20
-66.3915
 30
0.0
 10
-131.2053
 20
-68.9032
 30
0.0
 10
-128.6134
 20
-66.1853
 30
0.0
 10
-129.6434
 20
-64.3409
 30
0.0
 10
-129.6434
 20
-64.3409
 30
0.0
 10
-127.1132
 20
-65.1459
 30
0.0
 10
-124.8377
 20
-62.5443
 30
0.0
 10
-127.803
 20
-61.3511
 30
0.0
  0
SPLINE
  5
9F
330
1F
100
AcDbEntity
  8
layer 1
 62
   250
100
AcDbSpline
210
0.0
220
0.0
230
1.0
 70
    11
 71
     3
 72
    84
 73
    80
 74
     0
 42
0.0000000001
 43
0.0000000001
 12
1.0
 22
0.0
 32
0.0
 13
1.0
 23
0.0
 33
0.0
 40
0.0
 40
0.0
 40
0.0
 40
0.0
 40
0.0476190476190476
 40
0.0476190476190476
 40
0.0476190476190476
 40
0.0476190476190476
 40
0.0952380952380952
 40
0.0952380952380952
 40
0.0952380952380952
 40
0.0952380952380952
 40
0.1428571428571428
 40
0.1428571428571428
 40
0.1428571428571428
 40
0.1428571428571428
 40
0.1904761904761905
 40
0.1904761904761905
 40
0.1904761904761905
 40
0.1904761904761905
 40
0.2380952380952381
 40
0.2380952380952381
 40
0.2380952380952381
 40
0.2380952380952381
 40
0.2857142857142857
 40
0.2857142857142857
 40
0.2857142857142857
 40
0.2857142857142857
 40
0.3333333333333333
 40
0.3333333333333333
 40
0.3333333333333333
 40
0.3333333333333333
 40
0.3809523809523809
 40
0.3809523809523809
 40
0.3809523809523809
 40
0.3809523809523809
 40
0.4285714285714285
 40
0.4285714285714285
 40
0.4285714285714285
 40
0.4285714285714285
 40
0.4761904761904762
 40
0.4761904761904762
 40
0.4761904761904762
 40
0.4761904761904762
 40
0.5238095238095238
 40
0.5238095238095238
 40
0.5238095238095238
 40
0.5238095238095238
 40
0.5714285714285714
 40
0.5714285714285714
 40
0.5714285714285714
 40
0.5714285714285714
 40
0.6190476190476191
 40
0.6190476190476191
 40
0.6190476190476191
 40
0.6190476190476191
 40
0.6666666666666666
 40
0.6666666666666666
 40
0.6666666666666666
 40
0.6666666666666666
 40
0.7142857142857143
 40
0.7142857142857143
 40
0.7142857142857143
 40
0.7142857142857143
 40
0.7619047619047619
 40
0.7619047619047619
 40
0.7619047619047619
 40
0.7619047619047619
 40
0.8095238095238095
 40
0.8095238095238095
 40
0.8095238095238095
 40
0.8095238095238095
 40
0.8571428571428571
 40
0.8571428571428571
 40
0.8571428571428571
 40
0.8571428571428571
 40
0.9047619047619048
 40
0.9047619047619048
 40
0.9047619047619048
 40
0.9047619047619048
 40
1.0
 40
1.0
 40
1.0
 40
1.0
 10
-101.3889
 20
-61.457
 30
0.0
 10
-100.6853
 20
-63.4158
 30
0.0
 10
-103.5949
 20
-63.2228
 30
0.0
 10
-102.6542
 20
-60.9971
 30
0.0
 10
-102.6542
 20
-60.9971
 30
0.0
 10
-101.4369
 20
-58.1183
 30
0.0
 10
-92.8385
 20
-58.2295
 30
0.0
 10
-93.1101
 20
-61.8019
 30
0.0
 10
-93.1101
 20
-61.8019
 30
0.0
 10
-93.024
 20
-63.3206
 30
0.0
 10
-94.9671
 20
-63.2
 30
0.0
 10
-94.6482
 20
-61.6581
 30
0.0
 10
-94.6482
 20
-61.6581
 30
0.0
 10
-97.2298
 20
-62.5196
 30
0.0
 10
-95.0219
 20
-65.2033
 30
0.0
 10
-92.7511
 20
-64.6572
 30
0.0
 10
-92.7511
 20
-64.6572
 30
0.0
 10
-92.9553
 20
-68.1676
 30
0.0
 10
-89.5364
 20
-68.2071
 30
0.0
 10
-89.8904
 20
-66.5164
 30
0.0
 10
-89.8904
 20
-66.5164
 30
0.0
 10
-91.4561
 20
-66.8275
 30
0.0
 10
-91.3038
 20
-64.5113
 30
0.0
 10
-89.2006
 20
-64.9066
 30
0.0
 10
-89.2006
 20
-64.9066
 30
0.0
 10
-85.5916
 20
-65.5848
 30
0.0
 10
-86.3594
 20
-75.1922
 30
0.0
 10
-89.8904
 20
-74.441
 30
0.0
 10
-89.8904
 20
-74.441
 30
0.0
 10
-91.6632
 20
-74.0638
 30
0.0
 10
-90.8246
 20
-72.6635
 30
0.0
 10
-89.6605
 20
-72.6109
 30
0.0
 10
-89.6605
 20
-72.6109
 30
0.0
 10
-91.499
 20
-70.3984
 30
0.0
 10
-93.1919
 20
-73.3919
 30
0.0
 10
-92.8373
 20
-74.6806
 30
0.0
 10
-92.8373
 20
-74.6806
 30
0.0
 10
-96.9071
 20
-74.8103
 30
0.0
 10
-95.8314
 20
-77.6221
 30
0.0
 10
-94.9499
 20
-77.6704
 30
0.0
 10
-94.9499
 20
-77.6704
 30
0.0
 10
-94.0192
 20
-74.8178
 30
0.0
 10
-91.6566
 20
-78.0397
 30
0.0
 10
-94.375
 20
-79.7401
 30
0.0
 10
-94.375
 20
-79.7401
 30
0.0
 10
-96.5181
 20
-81.0805
 30
0.0
 10
-102.4922
 20
-80.8246
 30
0.0
 10
-102.7594
 20
-77.9529
 30
0.0
 10
-102.7594
 20
-77.9529
 30
0.0
 10
-102.9189
 20
-76.2422
 30
0.0
 10
-101.1355
 20
-76.2667
 30
0.0
 10
-101.1593
 20
-77.5554
 30
0.0
 10
-101.1593
 20
-77.5554
 30
0.0
 10
-99.2337
 20
-77.6851
 30
0.0
 10
-99.9238
 20
-74.1487
 30
0.0
 10
-103.114
 20
-74.7956
 30
0.0
 10
-103.114
 20
-74.7956
 30
0.0
 10
-102.6166
 20
-72.0712
 30
0.0
 10
-105.1841
 20
-70.8244
 30
0.0
 10
-106.3337
 20
-72.5389
 30
0.0
 10
-106.3337
 20
-72.5389
 30
0.0
 10
-103.901
 20
-73.1472
 30
0.0
 10
-105.133
 20
-75.4484
 30
0.0
 10
-107.3161
 20
-74.024
 30
0.0
 10
-107.3161
 20
-74.024
 30
0.0
 10
-109.6652
 20
-72.4909
 30
0.0
 10
-109.758
 20
-66.2821
 30
0.0
 10
-106.9089
 20
-65.0216
 30
0.0
 10
-106.9089
 20
-65.0216
 30
0.0
 10
-104.9303
 20
-64.1466
 30
0.0
 10
-104.103
 20
-66.5663
 30
0.0
 10
-106.2908
 20
-66.497
 30
0.0
 10
-106.2908
 20
-66.497
 30
0.0
 10
-104.7912
 20
-69.0091
 30
0.0
 10
-102.1993
 20
-66.2909
 30
0.0
 10
-103.229
 20
-64.4467
 30
0.0
 10
-103.229
 20
-64.4467
 30
0.0
 10
-100.6991
 20
-65.2512
 30
0.0
 10
-98.4233
 20
-62.6499
 30
0.0
 10
-101.3889
 20
-61.457
 30
0.0
  0
SPLINE
  5
A0
330
1F
100
AcDbEntity
  8
layer 1
 62
   250
100
AcDbSpline
210
0.0
220
0.0
230
1.0
 70
    11
 71
     3
 72
    76
 73
    72
 74
     0
 42
0.0000000001
 43
0.0000000001
 12
1.0
 22
0.0
 32
0.0
 13
1.0
 23
0.0
 33
0.0
 40
0.0
 40
0.0
 40
0.0
 40
0.0
 40
0.0526315789473684
 40
0.0526315789473684
 40
0.0526315789473684
 40
0.0526315789473684
 40
0.1052631578947368
 40
0.1052631578947368
 40
0.1052631578947368
 40
0.1052631578947368
 40
0.1578947368421053
 40
0.1578947368421053
 40
0.1578947368421053
 40
0.1578947368421053
 40
0.2105263157894737
 40
0.2105263157894737
 40
0.2105263157894737
 40
0.2105263157894737
 40
0.2631578947368421
 40
0.2631578947368421
 40
0.2631578947368421
 40
0.2631578947368421
 40
0.3157894736842105
 40
0.3157894736842105
 40
0.3157894736842105
 40
0.3157894736842105
 40
0.3684210526315789
 40
0.3684210526315789
 40
0.3684210526315789
 40
0.3684210526315789
 40
0.4210526315789473
 40
0.4210526315789473
 40
0.4210526315789473
 40
0.4210526315789473
 40
0.4736842105263158
 40
0.4736842105263158
 40
0.4736842105263158
 40
0.4736842105263158
 40
0.5263157894736842
 40
0.5263157894736842
 40
0.5263157894736842
 40
0.5263157894736842
 40
0.5789473684210527
 40
0.5789473684210527
 40
0.5789473684210527
 40
0.5789473684210527
 40
0.631578947368421
 40
0.631578947368421
 40
0.631578947368421
 40
0.631578947368421
 40
0.6842105263157895
 40
0.6842105263157895
 40
0.6842105263157895
 40
0.6842105263157895
 40
0.7368421052631579
 40
0.7368421052631579
 40
0.7368421052631579
 40
0.7368421052631579
 40
0.7894736842105263
 40
0.7894736842105263
 40
0.7894736842105263
 40
0.7894736842105263
 40
0.8421052631578947
 40
0.8421052631578947
 40
0.8421052631578947
 40
0.8421052631578947
 40
0.8947368421052632
 40
0.8947368421052632
 40
0.8947368421052632
 40
0.8947368421052632
 40
1.0
 40
1.0
 40
1.0
 40
1.0
 10
-75.0808
 20
-61.5626
 30
0.0
 10
-74.3762
 20
-63.522
 30
0.0
 10
-77.2864
 20
-63.3284
 30
0.0
 10
-76.3457
 20
-61.1027
 30
0.0
 10
-76.3457
 20
-61.1027
 30
0.0
 10
-75.1284
 20
-58.2245
 30
0.0
 10
-66.53
 20
-58.335
 30
0.0
 10
-66.8016
 20
-61.9075
 30
0.0
 10
-66.8016
 20
-61.9075
 30
0.0
 10
-66.7155
 20
-63.4258
 30
0.0
 10
-68.6586
 20
-63.3058
 30
0.0
 10
-68.3394
 20
-61.7637
 30
0.0
 10
-68.3394
 20
-61.7637
 30
0.0
 10
-70.9213
 20
-62.6248
 30
0.0
 10
-68.7134
 20
-65.3091
 30
0.0
 10
-66.4426
 20
-64.7631
 30
0.0
 10
-66.4426
 20
-64.7631
 30
0.0
 10
-66.5103
 20
-65.9219
 30
0.0
 10
-66.1829
 20
-66.7022
 30
0.0
 10
-65.7268
 20
-67.1668
 30
0.0
 10
-65.7268
 20
-67.1668
 30
0.0
 10
-65.7268
 20
-67.1668
 30
0.0
 10
-65.7265
 20
-72.4007
 30
0.0
 10
-65.7265
 20
-72.4007
 30
0.0
 10
-65.7265
 20
-72.4007
 30
0.0
 10
-66.358
 20
-73.0282
 30
0.0
 10
-66.7095
 20
-74.129
 30
0.0
 10
-66.5288
 20
-74.7862
 30
0.0
 10
-66.5288
 20
-74.7862
 30
0.0
 10
-70.5986
 20
-74.9156
 30
0.0
 10
-69.5229
 20
-77.7277
 30
0.0
 10
-68.6414
 20
-77.7759
 30
0.0
 10
-68.6414
 20
-77.7759
 30
0.0
 10
-67.7107
 20
-74.9231
 30
0.0
 10
-65.3481
 20
-78.1453
 30
0.0
 10
-68.0666
 20
-79.8456
 30
0.0
 10
-68.0666
 20
-79.8456
 30
0.0
 10
-70.2089
 20
-81.1864
 30
0.0
 10
-76.1837
 20
-80.9301
 30
0.0
 10
-76.451
 20
-78.0585
 30
0.0
 10
-76.451
 20
-78.0585
 30
0.0
 10
-76.6104
 20
-76.3475
 30
0.0
 10
-74.827
 20
-76.3722
 30
0.0
 10
-74.8508
 20
-77.661
 30
0.0
 10
-74.8508
 20
-77.661
 30
0.0
 10
-72.9255
 20
-77.7907
 30
0.0
 10
-73.6153
 20
-74.2543
 30
0.0
 10
-76.8056
 20
-74.9012
 30
0.0
 10
-76.8056
 20
-74.9012
 30
0.0
 10
-76.3084
 20
-72.1764
 30
0.0
 10
-78.8753
 20
-70.93
 30
0.0
 10
-80.0252
 20
-72.6444
 30
0.0
 10
-80.0252
 20
-72.6444
 30
0.0
 10
-77.5925
 20
-73.2525
 30
0.0
 10
-78.8245
 20
-75.554
 30
0.0
 10
-81.0076
 20
-74.1296
 30
0.0
 10
-81.0076
 20
-74.1296
 30
0.0
 10
-83.3571
 20
-72.5968
 30
0.0
 10
-83.4495
 20
-66.388
 30
0.0
 10
-80.6001
 20
-65.1271
 30
0.0
 10
-80.6001
 20
-65.1271
 30
0.0
 10
-78.6222
 20
-64.2519
 30
0.0
 10
-77.7945
 20
-66.6721
 30
0.0
 10
-79.9823
 20
-66.6029
 30
0.0
 10
-79.9823
 20
-66.6029
 30
0.0
 10
-78.4821
 20
-69.1146
 30
0.0
 10
-75.8908
 20
-66.3965
 30
0.0
 10
-76.9205
 20
-64.5523
 30
0.0
 10
-76.9205
 20
-64.5523
 30
0.0
 10
-74.3906
 20
-65.3571
 30
0.0
 10
-72.1148
 20
-62.7554
 30
0.0
 10
-75.0808
 20
-61.5626
 30
0.0
  0
SPLINE
  5
A1
330
1F
100
AcDbEntity
  8
layer 1
 62
   250
100
AcDbSpline
210
0.0
220
0.0
230
1.0
 70
    11
 71
     3
 72
    76
 73
    72
 74
     0
 42
0.0000000001
 43
0.0000000001
 12
1.0
 22
0.0
 32
0.0
 13
1.0
 23
0.0
 33
0.0
 40
0.0
 40
0.0
 40
0.0
 40
0.0
 40
0.0526315789473684
 40
0.0526315789473684
 40
0.0526315789473684
 40
0.0526315789473684
 40
0.1052631578947368
 40
0.1052631578947368
 40
0.1052631578947368
 40
0.1052631578947368
 40
0.1578947368421053
 40
0.1578947368421053
 40
0.1578947368421053
 40
0.1578947368421053
 40
0.2105263157894737
 40
0.2105263157894737
 40
0.2105263157894737
 40
0.2105263157894737
 40
0.2631578947368421
 40
0.2631578947368421
 40
0.2631578947368421
 40
0.2631578947368421
 40
0.3157894736842105
 40
0.3157894736842105
 40
0.3157894736842105
 40
0.3157894736842105
 40
0.3684210526315789
 40
0.3684210526315789
 40
0.3684210526315789
 40
0.3684210526315789
 40
0.4210526315789473
 40
0.4210526315789473
 40
0.4210526315789473
 40
0.4210526315789473
 40
0.4736842105263158
 40
0.4736842105263158
 40
0.4736842105263158
 40
0.4736842105263158
 40
0.5263157894736842
 40
0.5263157894736842
 40
0.5263157894736842
 40
0.5263157894736842
 40
0.5789473684210527
 40
0.5789473684210527
 40
0.5789473684210527
 40
0.5789473684210527
 40
0.631578947368421
 40
0.631578947368421
 40
0.631578947368421
 40
0.631578947368421
 40
0.6842105263157895
 40
0.6842105263157895
 40
0.6842105263157895
 40
0.6842105263157895
 40
0.7368421052631579
 40
0.7368421052631579
 40
0.7368421052631579
 40
0.7368421052631579
 40
0.7894736842105263
 40
0.7894736842105263
 40
0.7894736842105263
 40
0.7894736842105263
 40
0.8421052631578947
 40
0.8421052631578947
 40
0.8421052631578947
 40
0.8421052631578947
 40
0.8947368421052632
 40
0.8947368421052632
 40
0.8947368421052632
 40
0.8947368421052632
 40
1.0
 40
1.0
 40
1.0
 40
1.0
 10
-154.2252
 20
-86.8858
 30
0.0
 10
-153.521
 20
-88.8453
 30
0.0
 10
-156.4312
 20
-88.652
 30
0.0
 10
-155.4904
 20
-86.4263
 30
0.0
 10
-155.4904
 20
-86.4263
 30
0.0
 10
-154.2737
 20
-83.5477
 30
0.0
 10
-145.6748
 20
-83.6586
 30
0.0
 10
-145.9464
 20
-87.2311
 30
0.0
 10
-145.9464
 20
-87.2311
 30
0.0
 10
-145.8599
 20
-88.7497
 30
0.0
 10
-147.8034
 20
-88.6294
 30
0.0
 10
-147.4841
 20
-87.0873
 30
0.0
 10
-147.4841
 20
-87.0873
 30
0.0
 10
-150.066
 20
-87.9487
 30
0.0
 10
-147.8582
 20
-90.6327
 30
0.0
 10
-145.5874
 20
-90.0867
 30
0.0
 10
-145.5874
 20
-90.0867
 30
0.0
 10
-145.7916
 20
-93.5968
 30
0.0
 10
-142.3727
 20
-93.6366
 30
0.0
 10
-142.7267
 20
-91.9456
 30
0.0
 10
-142.7267
 20
-91.9456
 30
0.0
 10
-144.2923
 20
-92.2564
 30
0.0
 10
-144.1401
 20
-89.9407
 30
0.0
 10
-142.0369
 20
-90.3358
 30
0.0
 10
-142.0369
 20
-90.3358
 30
0.0
 10
-138.4278
 20
-91.014
 30
0.0
 10
-139.1956
 20
-100.6216
 30
0.0
 10
-142.7267
 20
-99.8701
 30
0.0
 10
-142.7267
 20
-99.8701
 30
0.0
 10
-144.4994
 20
-99.4927
 30
0.0
 10
-143.6608
 20
-98.0927
 30
0.0
 10
-142.4967
 20
-98.0401
 30
0.0
 10
-142.4967
 20
-98.0401
 30
0.0
 10
-144.3353
 20
-95.8275
 30
0.0
 10
-146.0278
 20
-98.821
 30
0.0
 10
-145.6732
 20
-100.1098
 30
0.0
 10
-145.6732
 20
-100.1098
 30
0.0
 10
-146.8113
 20
-100.1455
 30
0.0
 10
-147.5471
 20
-100.3914
 30
0.0
 10
-147.9976
 20
-100.7278
 30
0.0
 10
-147.9976
 20
-100.7278
 30
0.0
 10
-147.9976
 20
-100.7278
 30
0.0
 10
-153.5451
 20
-100.7275
 30
0.0
 10
-153.5451
 20
-100.7275
 30
0.0
 10
-153.5451
 20
-100.7275
 30
0.0
 10
-154.0457
 20
-100.2764
 30
0.0
 10
-154.8483
 20
-100.0014
 30
0.0
 10
-155.9503
 20
-100.2247
 30
0.0
 10
-155.9503
 20
-100.2247
 30
0.0
 10
-155.4528
 20
-97.5003
 30
0.0
 10
-158.02
 20
-96.2536
 30
0.0
 10
-159.17
 20
-97.968
 30
0.0
 10
-159.17
 20
-97.968
 30
0.0
 10
-156.7378
 20
-98.5764
 30
0.0
 10
-157.9693
 20
-100.8776
 30
0.0
 10
-160.1524
 20
-99.4532
 30
0.0
 10
-160.1524
 20
-99.4532
 30
0.0
 10
-162.5015
 20
-97.9201
 30
0.0
 10
-162.5939
 20
-91.7116
 30
0.0
 10
-159.7448
 20
-90.4507
 30
0.0
 10
-159.7448
 20
-90.4507
 30
0.0
 10
-157.7666
 20
-89.5758
 30
0.0
 10
-156.9393
 20
-91.9957
 30
0.0
 10
-159.1271
 20
-91.9265
 30
0.0
 10
-159.1271
 20
-91.9265
 30
0.0
 10
-157.6269
 20
-94.4385
 30
0.0
 10
-155.0356
 20
-91.7201
 30
0.0
 10
-156.0653
 20
-89.8759
 30
0.0
 10
-156.0653
 20
-89.8759
 30
0.0
 10
-153.5354
 20
-90.6807
 30
0.0
 10
-151.2595
 20
-88.079
 30
0.0
 10
-154.2252
 20
-86.8858
 30
0.0
  0
SPLINE
  5
A2
330
1F
100
AcDbEntity
  8
layer 1
 62
   250
100
AcDbSpline
210
0.0
220
0.0
230
1.0
 70
    11
 71
     3
 72
    60
 73
    56
 74
     0
 42
0.0000000001
 43
0.0000000001
 12
1.0
 22
0.0
 32
0.0
 13
1.0
 23
0.0
 33
0.0
 40
0.0
 40
0.0
 40
0.0
 40
0.0
 40
0.0666666666666667
 40
0.0666666666666667
 40
0.0666666666666667
 40
0.0666666666666667
 40
0.1333333333333333
 40
0.1333333333333333
 40
0.1333333333333333
 40
0.1333333333333333
 40
0.2
 40
0.2
 40
0.2
 40
0.2
 40
0.2666666666666667
 40
0.2666666666666667
 40
0.2666666666666667
 40
0.2666666666666667
 40
0.3333333333333333
 40
0.3333333333333333
 40
0.3333333333333333
 40
0.3333333333333333
 40
0.4
 40
0.4
 40
0.4
 40
0.4
 40
0.4666666666666667
 40
0.4666666666666667
 40
0.4666666666666667
 40
0.4666666666666667
 40
0.5333333333333333
 40
0.5333333333333333
 40
0.5333333333333333
 40
0.5333333333333333
 40
0.6
 40
0.6
 40
0.6
 40
0.6
 40
0.6666666666666666
 40
0.6666666666666666
 40
0.6666666666666666
 40
0.6666666666666666
 40
0.7333333333333333
 40
0.7333333333333333
 40
0.7333333333333333
 40
0.7333333333333333
 40
0.8
 40
0.8
 40
0.8
 40
0.8
 40
0.8666666666666667
 40
0.8666666666666667
 40
0.8666666666666667
 40
0.8666666666666667
 40
1.0
 40
1.0
 40
1.0
 40
1.0
 10
-180.4281
 20
-86.5688
 30
0.0
 10
-179.7236
 20
-88.5283
 30
0.0
 10
-182.6341
 20
-88.335
 30
0.0
 10
-181.6933
 20
-86.1093
 30
0.0
 10
-181.6933
 20
-86.1093
 30
0.0
 10
-180.4763
 20
-83.2307
 30
0.0
 10
-171.8777
 20
-83.3416
 30
0.0
 10
-172.1493
 20
-86.914
 30
0.0
 10
-172.1493
 20
-86.914
 30
0.0
 10
-172.0628
 20
-88.4327
 30
0.0
 10
-174.0063
 20
-88.3124
 30
0.0
 10
-173.6871
 20
-86.7702
 30
0.0
 10
-173.6871
 20
-86.7702
 30
0.0
 10
-176.2686
 20
-87.6317
 30
0.0
 10
-174.0611
 20
-90.3157
 30
0.0
 10
-171.79
 20
-89.7697
 30
0.0
 10
-171.79
 20
-89.7697
 30
0.0
 10
-171.9951
 20
-93.2798
 30
0.0
 10
-168.5756
 20
-93.3196
 30
0.0
 10
-168.9296
 20
-91.6286
 30
0.0
 10
-168.9296
 20
-91.6286
 30
0.0
 10
-170.4949
 20
-91.9393
 30
0.0
 10
-170.3427
 20
-89.6237
 30
0.0
 10
-168.2395
 20
-90.0187
 30
0.0
 10
-168.2395
 20
-90.0187
 30
0.0
 10
-164.6307
 20
-90.697
 30
0.0
 10
-165.3982
 20
-100.3046
 30
0.0
 10
-168.9296
 20
-99.5531
 30
0.0
 10
-168.9296
 20
-99.5531
 30
0.0
 10
-170.702
 20
-99.1756
 30
0.0
 10
-169.8637
 20
-97.7757
 30
0.0
 10
-168.6997
 20
-97.7231
 30
0.0
 10
-168.6997
 20
-97.7231
 30
0.0
 10
-170.5379
 20
-95.5105
 30
0.0
 10
-172.2307
 20
-98.5043
 30
0.0
 10
-171.8761
 20
-99.7928
 30
0.0
 10
-171.8761
 20
-99.7928
 30
0.0
 10
-173.3484
 20
-99.8398
 30
0.0
 10
-174.1479
 20
-100.237
 30
0.0
 10
-174.5263
 20
-100.7278
 30
0.0
 10
-174.5263
 20
-100.7278
 30
0.0
 10
-174.5263
 20
-100.7278
 30
0.0
 10
-179.4633
 20
-100.7275
 30
0.0
 10
-179.4633
 20
-100.7275
 30
0.0
 10
-179.4633
 20
-100.7275
 30
0.0
 10
-179.8808
 20
-100.1455
 30
0.0
 10
-180.6915
 20
-99.6994
 30
0.0
 10
-181.8876
 20
-99.8626
 30
0.0
 10
-181.8876
 20
-99.8626
 30
0.0
 10
-181.8876
 20
-99.8626
 30
0.0
 10
-181.8876
 20
-89.6544
 30
0.0
 10
-181.8876
 20
-89.6544
 30
0.0
 10
-181.8876
 20
-89.6544
 30
0.0
 10
-179.5215
 20
-90.104
 30
0.0
 10
-177.6122
 20
-87.7019
 30
0.0
 10
-180.4281
 20
-86.5688
 30
0.0
  0
SPLINE
  5
A3
330
1F
100
AcDbEntity
  8
layer 1
 62
   250
100
AcDbSpline
210
0.0
220
0.0
230
1.0
 70
    11
 71
     3
 72
    76
 73
    72
 74
     0
 42
0.0000000001
 43
0.0000000001
 12
1.0
 22
0.0
 32
0.0
 13
1.0
 23
0.0
 33
0.0
 40
0.0
 40
0.0
 40
0.0
 40
0.0
 40
0.0526315789473684
 40
0.0526315789473684
 40
0.0526315789473684
 40
0.0526315789473684
 40
0.1052631578947368
 40
0.1052631578947368
 40
0.1052631578947368
 40
0.1052631578947368
 40
0.1578947368421053
 40
0.1578947368421053
 40
0.1578947368421053
 40
0.1578947368421053
 40
0.2105263157894737
 40
0.2105263157894737
 40
0.2105263157894737
 40
0.2105263157894737
 40
0.2631578947368421
 40
0.2631578947368421
 40
0.2631578947368421
 40
0.2631578947368421
 40
0.3157894736842105
 40
0.3157894736842105
 40
0.3157894736842105
 40
0.3157894736842105
 40
0.3684210526315789
 40
0.3684210526315789
 40
0.3684210526315789
 40
0.3684210526315789
 40
0.4210526315789473
 40
0.4210526315789473
 40
0.4210526315789473
 40
0.4210526315789473
 40
0.4736842105263158
 40
0.4736842105263158
 40
0.4736842105263158
 40
0.4736842105263158
 40
0.5263157894736842
 40
0.5263157894736842
 40
0.5263157894736842
 40
0.5263157894736842
 40
0.5789473684210527
 40
0.5789473684210527
 40
0.5789473684210527
 40
0.5789473684210527
 40
0.631578947368421
 40
0.631578947368421
 40
0.631578947368421
 40
0.631578947368421
 40
0.6842105263157895
 40
0.6842105263157895
 40
0.6842105263157895
 40
0.6842105263157895
 40
0.7368421052631579
 40
0.7368421052631579
 40
0.7368421052631579
 40
0.7368421052631579
 40
0.7894736842105263
 40
0.7894736842105263
 40
0.7894736842105263
 40
0.7894736842105263
 40
0.8421052631578947
 40
0.8421052631578947
 40
0.8421052631578947
 40
0.8421052631578947
 40
0.8947368421052632
 40
0.8947368421052632
 40
0.8947368421052632
 40
0.8947368421052632
 40
1.0
 40
1.0
 40
1.0
 40
1.0
 10
-127.953
 20
-87.0334
 30
0.0
 10
-127.2491
 20
-88.9925
 30
0.0
 10
-130.159
 20
-88.7992
 30
0.0
 10
-129.2183
 20
-86.5735
 30
0.0
 10
-129.2183
 20
-86.5735
 30
0.0
 10
-128.0013
 20
-83.695
 30
0.0
 10
-119.4026
 20
-83.8059
 30
0.0
 10
-119.6742
 20
-87.3783
 30
0.0
 10
-119.6742
 20
-87.3783
 30
0.0
 10
-119.5877
 20
-88.897
 30
0.0
 10
-121.5312
 20
-88.7767
 30
0.0
 10
-121.212
 20
-87.2345
 30
0.0
 10
-121.212
 20
-87.2345
 30
0.0
 10
-123.7936
 20
-88.0956
 30
0.0
 10
-121.586
 20
-90.78
 30
0.0
 10
-119.3152
 20
-90.2336
 30
0.0
 10
-119.3152
 20
-90.2336
 30
0.0
 10
-119.5201
 20
-93.744
 30
0.0
 10
-116.1005
 20
-93.7838
 30
0.0
 10
-116.4545
 20
-92.0928
 30
0.0
 10
-116.4545
 20
-92.0928
 30
0.0
 10
-118.0199
 20
-92.4039
 30
0.0
 10
-117.8679
 20
-90.0877
 30
0.0
 10
-115.7647
 20
-90.483
 30
0.0
 10
-115.7647
 20
-90.483
 30
0.0
 10
-112.1557
 20
-91.1612
 30
0.0
 10
-112.9235
 20
-100.7689
 30
0.0
 10
-116.4545
 20
-100.0174
 30
0.0
 10
-116.4545
 20
-100.0174
 30
0.0
 10
-118.2269
 20
-99.6402
 30
0.0
 10
-117.3887
 20
-98.2399
 30
0.0
 10
-116.2246
 20
-98.1873
 30
0.0
 10
-116.2246
 20
-98.1873
 30
0.0
 10
-118.0628
 20
-95.9748
 30
0.0
 10
-119.756
 20
-98.9683
 30
0.0
 10
-119.4014
 20
-100.257
 30
0.0
 10
-119.4014
 20
-100.257
 30
0.0
 10
-120.3646
 20
-100.2877
 30
0.0
 10
-121.041
 20
-100.4685
 30
0.0
 10
-121.4983
 20
-100.7278
 30
0.0
 10
-121.4983
 20
-100.7278
 30
0.0
 10
-121.4983
 20
-100.7278
 30
0.0
 10
-127.4562
 20
-100.7275
 30
0.0
 10
-127.4562
 20
-100.7275
 30
0.0
 10
-127.4562
 20
-100.7275
 30
0.0
 10
-127.9602
 20
-100.3676
 30
0.0
 10
-128.702
 20
-100.174
 30
0.0
 10
-129.6782
 20
-100.372
 30
0.0
 10
-129.6782
 20
-100.372
 30
0.0
 10
-129.1807
 20
-97.6476
 30
0.0
 10
-131.7479
 20
-96.4008
 30
0.0
 10
-132.8978
 20
-98.1153
 30
0.0
 10
-132.8978
 20
-98.1153
 30
0.0
 10
-130.4654
 20
-98.7236
 30
0.0
 10
-131.6971
 20
-101.0248
 30
0.0
 10
-133.8802
 20
-99.6004
 30
0.0
 10
-133.8802
 20
-99.6004
 30
0.0
 10
-136.23
 20
-98.0673
 30
0.0
 10
-136.3221
 20
-91.8585
 30
0.0
 10
-133.473
 20
-90.598
 30
0.0
 10
-133.473
 20
-90.598
 30
0.0
 10
-131.4951
 20
-89.7227
 30
0.0
 10
-130.6671
 20
-92.143
 30
0.0
 10
-132.8549
 20
-92.0737
 30
0.0
 10
-132.8549
 20
-92.0737
 30
0.0
 10
-131.355
 20
-94.5854
 30
0.0
 10
-128.7634
 20
-91.8673
 30
0.0
 10
-129.7931
 20
-90.0231
 30
0.0
 10
-129.7931
 20
-90.0231
 30
0.0
 10
-127.2635
 20
-90.8276
 30
0.0
 10
-124.9874
 20
-88.2263
 30
0.0
 10
-127.953
 20
-87.0334
 30
0.0
  0
SPLINE
  5
A4
330
1F
100
AcDbEntity
  8
layer 1
 62
   250
100
AcDbSpline
210
0.0
220
0.0
230
1.0
 70
    11
 71
     3
 72
    76
 73
    72
 74
     0
 42
0.0000000001
 43
0.0000000001
 12
1.0
 22
0.0
 32
0.0
 13
1.0
 23
0.0
 33
0.0
 40
0.0
 40
0.0
 40
0.0
 40
0.0
 40
0.0526315789473684
 40
0.0526315789473684
 40
0.0526315789473684
 40
0.0526315789473684
 40
0.1052631578947368
 40
0.1052631578947368
 40
0.1052631578947368
 40
0.1052631578947368
 40
0.1578947368421053
 40
0.1578947368421053
 40
0.1578947368421053
 40
0.1578947368421053
 40
0.2105263157894737
 40
0.2105263157894737
 40
0.2105263157894737
 40
0.2105263157894737
 40
0.2631578947368421
 40
0.2631578947368421
 40
0.2631578947368421
 40
0.2631578947368421
 40
0.3157894736842105
 40
0.3157894736842105
 40
0.3157894736842105
 40
0.3157894736842105
 40
0.3684210526315789
 40
0.3684210526315789
 40
0.3684210526315789
 40
0.3684210526315789
 40
0.4210526315789473
 40
0.4210526315789473
 40
0.4210526315789473
 40
0.4210526315789473
 40
0.4736842105263158
 40
0.4736842105263158
 40
0.4736842105263158
 40
0.4736842105263158
 40
0.5263157894736842
 40
0.5263157894736842
 40
0.5263157894736842
 40
0.5263157894736842
 40
0.5789473684210527
 40
0.5789473684210527
 40
0.5789473684210527
 40
0.5789473684210527
 40
0.631578947368421
 40
0.631578947368421
 40
0.631578947368421
 40
0.631578947368421
 40
0.6842105263157895
 40
0.6842105263157895
 40
0.6842105263157895
 40
0.6842105263157895
 40
0.7368421052631579
 40
0.7368421052631579
 40
0.7368421052631579
 40
0.7368421052631579
 40
0.7894736842105263
 40
0.7894736842105263
 40
0.7894736842105263
 40
0.7894736842105263
 40
0.8421052631578947
 40
0.8421052631578947
 40
0.8421052631578947
 40
0.8421052631578947
 40
0.8947368421052632
 40
0.8947368421052632
 40
0.8947368421052632
 40
0.8947368421052632
 40
1.0
 40
1.0
 40
1.0
 40
1.0
 10
-101.5387
 20
-87.139
 30
0.0
 10
-100.8345
 20
-89.0984
 30
0.0
 10
-103.7446
 20
-88.9048
 30
0.0
 10
-102.8042
 20
-86.6791
 30
0.0
 10
-102.8042
 20
-86.6791
 30
0.0
 10
-101.5872
 20
-83.8009
 30
0.0
 10
-92.9886
 20
-83.9114
 30
0.0
 10
-93.2602
 20
-87.4839
 30
0.0
 10
-93.2602
 20
-87.4839
 30
0.0
 10
-93.1737
 20
-89.0022
 30
0.0
 10
-95.1172
 20
-88.8822
 30
0.0
 10
-94.7979
 20
-87.3401
 30
0.0
 10
-94.7979
 20
-87.3401
 30
0.0
 10
-97.3795
 20
-88.2012
 30
0.0
 10
-95.1717
 20
-90.8855
 30
0.0
 10
-92.9008
 20
-90.3395
 30
0.0
 10
-92.9008
 20
-90.3395
 30
0.0
 10
-93.1057
 20
-93.8493
 30
0.0
 10
-89.6865
 20
-93.8894
 30
0.0
 10
-90.0405
 20
-92.1984
 30
0.0
 10
-90.0405
 20
-92.1984
 30
0.0
 10
-91.6052
 20
-92.5095
 30
0.0
 10
-91.4536
 20
-90.1935
 30
0.0
 10
-89.3504
 20
-90.5886
 30
0.0
 10
-89.3504
 20
-90.5886
 30
0.0
 10
-85.7416
 20
-91.2665
 30
0.0
 10
-86.5091
 20
-100.8744
 30
0.0
 10
-90.0405
 20
-100.1229
 30
0.0
 10
-90.0405
 20
-100.1229
 30
0.0
 10
-91.8129
 20
-99.7455
 30
0.0
 10
-90.9743
 20
-98.3455
 30
0.0
 10
-89.8105
 20
-98.2929
 30
0.0
 10
-89.8105
 20
-98.2929
 30
0.0
 10
-91.6487
 20
-96.08
 30
0.0
 10
-93.3416
 20
-99.0741
 30
0.0
 10
-92.987
 20
-100.3626
 30
0.0
 10
-92.987
 20
-100.3626
 30
0.0
 10
-93.8146
 20
-100.3892
 30
0.0
 10
-94.4302
 20
-100.5255
 30
0.0
 10
-94.8772
 20
-100.7278
 30
0.0
 10
-94.8772
 20
-100.7278
 30
0.0
 10
-94.8772
 20
-100.7278
 30
0.0
 10
-101.205
 20
-100.7275
 30
0.0
 10
-101.205
 20
-100.7275
 30
0.0
 10
-101.205
 20
-100.7275
 30
0.0
 10
-101.7016
 20
-100.4375
 30
0.0
 10
-102.3885
 20
-100.2999
 30
0.0
 10
-103.2641
 20
-100.4775
 30
0.0
 10
-103.2641
 20
-100.4775
 30
0.0
 10
-102.7666
 20
-97.7528
 30
0.0
 10
-105.3338
 20
-96.5064
 30
0.0
 10
-106.4838
 20
-98.2208
 30
0.0
 10
-106.4838
 20
-98.2208
 30
0.0
 10
-104.0513
 20
-98.8289
 30
0.0
 10
-105.2831
 20
-101.1307
 30
0.0
 10
-107.4658
 20
-99.7063
 30
0.0
 10
-107.4658
 20
-99.7063
 30
0.0
 10
-109.815
 20
-98.1735
 30
0.0
 10
-109.9077
 20
-91.9644
 30
0.0
 10
-107.0586
 20
-90.7035
 30
0.0
 10
-107.0586
 20
-90.7035
 30
0.0
 10
-105.0807
 20
-89.8283
 30
0.0
 10
-104.2527
 20
-92.2485
 30
0.0
 10
-106.4406
 20
-92.1793
 30
0.0
 10
-106.4406
 20
-92.1793
 30
0.0
 10
-104.941
 20
-94.691
 30
0.0
 10
-102.3494
 20
-91.9732
 30
0.0
 10
-103.3791
 20
-90.1287
 30
0.0
 10
-103.3791
 20
-90.1287
 30
0.0
 10
-100.8489
 20
-90.9338
 30
0.0
 10
-98.5733
 20
-88.3318
 30
0.0
 10
-101.5387
 20
-87.139
 30
0.0
  0
SPLINE
  5
A5
330
1F
100
AcDbEntity
  8
layer 1
 62
   250
100
AcDbSpline
210
0.0
220
0.0
230
1.0
 70
    11
 71
     3
 72
    68
 73
    64
 74
     0
 42
0.0000000001
 43
0.0000000001
 12
1.0
 22
0.0
 32
0.0
 13
1.0
 23
0.0
 33
0.0
 40
0.0
 40
0.0
 40
0.0
 40
0.0
 40
0.0588235294117647
 40
0.0588235294117647
 40
0.0588235294117647
 40
0.0588235294117647
 40
0.1176470588235294
 40
0.1176470588235294
 40
0.1176470588235294
 40
0.1176470588235294
 40
0.1764705882352941
 40
0.1764705882352941
 40
0.1764705882352941
 40
0.1764705882352941
 40
0.2352941176470588
 40
0.2352941176470588
 40
0.2352941176470588
 40
0.2352941176470588
 40
0.2941176470588235
 40
0.2941176470588235
 40
0.2941176470588235
 40
0.2941176470588235
 40
0.3529411764705883
 40
0.3529411764705883
 40
0.3529411764705883
 40
0.3529411764705883
 40
0.4117647058823529
 40
0.4117647058823529
 40
0.4117647058823529
 40
0.4117647058823529
 40
0.4705882352941176
 40
0.4705882352941176
 40
0.4705882352941176
 40
0.4705882352941176
 40
0.5294117647058824
 40
0.5294117647058824
 40
0.5294117647058824
 40
0.5294117647058824
 40
0.5882352941176471
 40
0.5882352941176471
 40
0.5882352941176471
 40
0.5882352941176471
 40
0.6470588235294118
 40
0.6470588235294118
 40
0.6470588235294118
 40
0.6470588235294118
 40
0.7058823529411765
 40
0.7058823529411765
 40
0.7058823529411765
 40
0.7058823529411765
 40
0.7647058823529411
 40
0.7647058823529411
 40
0.7647058823529411
 40
0.7647058823529411
 40
0.8235294117647058
 40
0.8235294117647058
 40
0.8235294117647058
 40
0.8235294117647058
 40
0.8823529411764706
 40
0.8823529411764706
 40
0.8823529411764706
 40
0.8823529411764706
 40
1.0
 40
1.0
 40
1.0
 40
1.0
 10
-75.2305
 20
-87.2445
 30
0.0
 10
-74.526
 20
-89.2036
 30
0.0
 10
-77.4362
 20
-89.0104
 30
0.0
 10
-76.4954
 20
-86.7847
 30
0.0
 10
-76.4954
 20
-86.7847
 30
0.0
 10
-75.2784
 20
-83.9061
 30
0.0
 10
-66.6801
 20
-84.0173
 30
0.0
 10
-66.9517
 20
-87.5897
 30
0.0
 10
-66.9517
 20
-87.5897
 30
0.0
 10
-66.8652
 20
-89.1084
 30
0.0
 10
-68.8084
 20
-88.9878
 30
0.0
 10
-68.4895
 20
-87.4456
 30
0.0
 10
-68.4895
 20
-87.4456
 30
0.0
 10
-71.071
 20
-88.3074
 30
0.0
 10
-68.8632
 20
-90.9911
 30
0.0
 10
-66.5924
 20
-90.4451
 30
0.0
 10
-66.5924
 20
-90.4451
 30
0.0
 10
-66.6594
 20
-91.6045
 30
0.0
 10
-66.333
 20
-92.3842
 30
0.0
 10
-65.8766
 20
-92.849
 30
0.0
 10
-65.8766
 20
-92.849
 30
0.0
 10
-65.8766
 20
-92.849
 30
0.0
 10
-65.8762
 20
-98.083
 30
0.0
 10
-65.8762
 20
-98.083
 30
0.0
 10
-65.8762
 20
-98.083
 30
0.0
 10
-66.5078
 20
-98.7101
 30
0.0
 10
-66.8596
 20
-99.8112
 30
0.0
 10
-66.6785
 20
-100.4685
 30
0.0
 10
-66.6785
 20
-100.4685
 30
0.0
 10
-67.3526
 20
-100.4895
 30
0.0
 10
-67.8852
 20
-100.5841
 30
0.0
 10
-68.3012
 20
-100.7278
 30
0.0
 10
-68.3012
 20
-100.7278
 30
0.0
 10
-68.3012
 20
-100.7278
 30
0.0
 10
-75.1011
 20
-100.7275
 30
0.0
 10
-75.1011
 20
-100.7275
 30
0.0
 10
-75.1011
 20
-100.7275
 30
0.0
 10
-75.576
 20
-100.5126
 30
0.0
 10
-76.1944
 20
-100.429
 30
0.0
 10
-76.9556
 20
-100.5834
 30
0.0
 10
-76.9556
 20
-100.5834
 30
0.0
 10
-76.4575
 20
-97.8587
 30
0.0
 10
-79.0253
 20
-96.6119
 30
0.0
 10
-80.1753
 20
-98.3267
 30
0.0
 10
-80.1753
 20
-98.3267
 30
0.0
 10
-77.7425
 20
-98.9351
 30
0.0
 10
-78.9746
 20
-101.2363
 30
0.0
 10
-81.1574
 20
-99.8119
 30
0.0
 10
-81.1574
 20
-99.8119
 30
0.0
 10
-83.5068
 20
-98.2788
 30
0.0
 10
-83.5992
 20
-92.07
 30
0.0
 10
-80.7501
 20
-90.8094
 30
0.0
 10
-80.7501
 20
-90.8094
 30
0.0
 10
-78.7725
 20
-89.9342
 30
0.0
 10
-77.9443
 20
-92.3541
 30
0.0
 10
-80.1321
 20
-92.2849
 30
0.0
 10
-80.1321
 20
-92.2849
 30
0.0
 10
-78.6319
 20
-94.7969
 30
0.0
 10
-76.0406
 20
-92.0787
 30
0.0
 10
-77.0706
 20
-90.2343
 30
0.0
 10
-77.0706
 20
-90.2343
 30
0.0
 10
-74.5404
 20
-91.039
 30
0.0
 10
-72.2649
 20
-88.4377
 30
0.0
 10
-75.2305
 20
-87.2445
 30
0.0
  0
SPLINE
  5
A6
330
1F
100
AcDbEntity
  8
layer 1
 62
   250
100
AcDbSpline
210
0.0
220
0.0
230
1.0
 70
    11
 71
     3
 72
    20
 73
    16
 74
     0
 42
0.0000000001
 43
0.0000000001
 12
1.0
 22
0.0
 32
0.0
 13
1.0
 23
0.0
 33
0.0
 40
0.0
 40
0.0
 40
0.0
 40
0.0
 40
0.2
 40
0.2
 40
0.2
 40
0.2
 40
0.4
 40
0.4
 40
0.4
 40
0.4
 40
0.6
 40
0.6
 40
0.6
 40
0.6
 40
1.0
 40
1.0
 40
1.0
 40
1.0
 10
-187.4307
 20
121.4675
 30
0.0
 10
-187.4307
 20
121.4675
 30
0.0
 10
-60.5602
 20
121.4675
 30
0.0
 10
-60.5602
 20
121.4675
 30
0.0
 10
-60.5602
 20
121.4675
 30
0.0
 10
-60.5602
 20
121.4675
 30
0.0
 10
-60.5602
 20
-106.3129
 30
0.0
 10
-60.5602
 20
-106.3129
 30
0.0
 10
-60.5602
 20
-106.3129
 30
0.0
 10
-60.5602
 20
-106.3129
 30
0.0
 10
-187.4307
 20
-106.3129
 30
0.0
 10
-187.4307
 20
-106.3129
 30
0.0
 10
-187.4307
 20
-106.3129
 30
0.0
 10
-187.4307
 20
-106.3129
 30
0.0
 10
-187.4307
 20
121.4675
 30
0.0
 10
-187.4307
 20
121.4675
 30
0.0
  0
ENDSEC
  0
SECTION
  2
OBJECTS
  0
DICTIONARY
  5
C
330
0
100
AcDbDictionary
281
     1
  3
ACAD_GROUP
350
D
  3
ACAD_LAYOUT
350
1A
  3
ACAD_MATERIAL
350
3B
  3
ACAD_MLEADERSTYLE
350
C9
  3
ACAD_MLINESTYLE
350
17
  3
ACAD_PLOTSETTINGS
350
19
  3
ACAD_PLOTSTYLENAME
350
E
  3
ACAD_TABLESTYLE
350
C8
  3
ACAD_VISUALSTYLE
350
2A
  0
DICTIONARY
  5
D
102
{ACAD_REACTORS
330
C
102
}
330
C
100
AcDbDictionary
281
     1
  0
DICTIONARY
  5
1A
102
{ACAD_REACTORS
330
C
102
}
330
C
100
AcDbDictionary
281
     1
  3
Layout1
350
1E
  3
Layout2
350
26
  3
Model
350
22
  0
DICTIONARY
  5
3B
102
{ACAD_REACTORS
330
C
102
}
330
C
100
AcDbDictionary
281
     1
  3
ByBlock
350
3D
  3
ByLayer
350
3C
  3
Global
350
3E
  0
DICTIONARY
  5
C9
102
{ACAD_REACTORS
330
C
102
}
330
C
100
AcDbDictionary
281
     1
  0
DICTIONARY
  5
17
102
{ACAD_REACTORS
330
C
102
}
330
C
100
AcDbDictionary
281
     1
  3
Standard
350
18
  0
DICTIONARY
  5
19
102
{ACAD_REACTORS
330
C
102
}
330
C
100
AcDbDictionary
281
     1
  0
ACDBDICTIONARYWDFLT
  5
E
102
{ACAD_REACTORS
330
C
102
}
330
C
100
AcDbDictionary
281
     1
  3
Normal
350
F
100
AcDbDictionaryWithDefault
340
F
  0
DICTIONARY
  5
C8
102
{ACAD_REACTORS
330
C
102
}
330
C
100
AcDbDictionary
281
     1
  0
DICTIONARY
  5
2A
102
{ACAD_REACTORS
330
C
102
}
330
C
100
AcDbDictionary
281
     1
  3
2dWireframe
350
2F
  3
3D Hidden
350
31
  3
3dWireframe
350
30
  3
Basic
350
32
  3
Brighten
350
36
  3
ColorChange
350
3A
  3
Conceptual
350
34
  3
Dim
350
35
  3
Facepattern
350
39
  3
Flat
350
2B
  3
FlatWithEdges
350
2C
  3
Gouraud
350
2D
  3
GouraudWithEdges
350
2E
  3
Linepattern
350
38
  3
Realistic
350
33
  3
Thicken
350
37
  0
LAYOUT
  5
1E
102
{ACAD_REACTORS
330
1A
102
}
330
1A
100
AcDbPlotSettings
  1

  2
none_device
  4

  6

 40
0.0
 41
0.0
 42
0.0
 43
0.0
 44
0.0
 45
0.0
 46
0.0
 47
0.0
 48
0.0
 49
0.0
140
0.0
141
0.0
142
1.0
143
1.0
 70
   688
 72
     0
 73
     0
 74
     5
  7

 75
    16
 76
     0
 77
     2
 78
   300
147
1.0
148
0.0
149
0.0
100
AcDbLayout
  1
Layout1
 70
     1
 71
     1
 10
0.0
 20
0.0
 11
12.0
 21
9.0
 12
0.0
 22
0.0
 32
0.0
 14
1.000000000000000E+20
 24
1.000000000000000E+20
 34
1.000000000000000E+20
 15
-1.000000000000000E+20
 25
-1.000000000000000E+20
 35
-1.000000000000000E+20
146
0.0
 13
0.0
 23
0.0
 33
0.0
 16
1.0
 26
0.0
 36
0.0
 17
0.0
 27
1.0
 37
0.0
 76
     0
330
1B
  0
LAYOUT
  5
26
102
{ACAD_REACTORS
330
1A
102
}
330
1A
100
AcDbPlotSettings
  1

  2
none_device
  4

  6

 40
0.0
 41
0.0
 42
0.0
 43
0.0
 44
0.0
 45
0.0
 46
0.0
 47
0.0
 48
0.0
 49
0.0
140
0.0
141
0.0
142
1.0
143
1.0
 70
   688
 72
     0
 73
     0
 74
     5
  7

 75
    16
 76
     0
 77
     2
 78
   300
147
1.0
148
0.0
149
0.0
100
AcDbLayout
  1
Layout2
 70
     1
 71
     2
 10
0.0
 20
0.0
 11
0.0
 21
0.0
 12
0.0
 22
0.0
 32
0.0
 14
0.0
 24
0.0
 34
0.0
 15
0.0
 25
0.0
 35
0.0
146
0.0
 13
0.0
 23
0.0
 33
0.0
 16
1.0
 26
0.0
 36
0.0
 17
0.0
 27
1.0
 37
0.0
 76
     0
330
23
  0
LAYOUT
  5
22
102
{ACAD_REACTORS
330
1A
102
}
330
1A
100
AcDbPlotSettings
  1

  2
none_device
  4

  6

 40
0.0
 41
0.0
 42
0.0
 43
0.0
 44
0.0
 45
0.0
 46
0.0
 47
0.0
 48
0.0
 49
0.0
140
0.0
141
0.0
142
1.0
143
1.0
 70
  1712
 72
     0
 73
     0
 74
     0
  7

 75
     0
 76
     0
 77
     2
 78
   300
147
1.0
148
0.0
149
0.0
100
AcDbLayout
  1
Model
 70
     1
 71
     0
 10
0.0
 20
0.0
 11
12.0
 21
9.0
 12
0.0
 22
0.0
 32
0.0
 14
-187.4307
 24
-106.3129
 34
0.0
 15
-60.5602
 25
121.4675
 35
0.0
146
0.0
 13
0.0
 23
0.0
 33
0.0
 16
1.0
 26
0.0
 36
0.0
 17
0.0
 27
1.0
 37
0.0
 76
     0
330
1F
331
29
  0
MATERIAL
  5
3D
102
{ACAD_REACTORS
330
3B
102
}
330
3B
100
AcDbMaterial
  1
ByBlock
 72
     1
 94
      127
  0
MATERIAL
  5
3C
102
{ACAD_REACTORS
330
3B
102
}
330
3B
100
AcDbMaterial
  1
ByLayer
 72
     1
 94
      127
  0
MATERIAL
  5
3E
102
{ACAD_REACTORS
330
3B
102
}
330
3B
100
AcDbMaterial
  1
Global
 72
     1
 94
      127
  0
MLINESTYLE
  5
18
102
{ACAD_REACTORS
330
17
102
}
330
17
100
AcDbMlineStyle
  2
Standard
 70
     0
  3

 62
   256
 51
90.0
 52
90.0
 71
     2
 49
0.5
 62
   256
  6
BYLAYER
 49
-0.5
 62
   256
  6
BYLAYER
  0
ACDBPLACEHOLDER
  5
F
102
{ACAD_REACTORS
330
E
102
}
330
E
  0
VISUALSTYLE
  5
2F
102
{ACAD_REACTORS
330
2A
102
}
102
{ACAD_XDICTIONARY
360
B0
102
}
330
2A
100
AcDbVisualStyle
  2
2dWireframe
 70
     4
 71
     0
 72
     2
 73
     0
 90
        0
 40
-0.6
 41
-30.0
 62
     5
 63
     7
421
 16777215
 74
     1
 91
        4
 64
     7
 65
   257
 75
     1
175
     1
 42
1.0
 92
        0
 66
   257
 43
1.0
 76
     1
 77
     6
 78
     2
 67
     7
 79
     5
170
     0
171
     0
290
     0
174
     0
 93
        1
 44
0.0
173
     0
291
     0
 45
0.0
  0
VISUALSTYLE
  5
31
102
{ACAD_REACTORS
330
2A
102
}
102
{ACAD_XDICTIONARY
360
B4
102
}
330
2A
100
AcDbVisualStyle
  2
3D Hidden
 70
     6
 71
     1
 72
     2
 73
     2
 90
        0
 40
-0.6
 41
-30.0
 62
     5
 63
     7
421
 16777215
 74
     2
 91
        2
 64
     7
 65
   257
 75
     2
175
     1
 42
40.0
 92
        0
 66
   257
 43
1.0
 76
     1
 77
     6
 78
     2
 67
     7
 79
     3
170
     0
171
     0
290
     0
174
     0
 93
        1
 44
0.0
173
     0
291
     0
 45
0.0
  0
VISUALSTYLE
  5
30
102
{ACAD_REACTORS
330
2A
102
}
102
{ACAD_XDICTIONARY
360
B2
102
}
330
2A
100
AcDbVisualStyle
  2
3dWireframe
 70
     5
 71
     0
 72
     2
 73
     0
 90
        0
 40
-0.6
 41
-30.0
 62
     5
 63
     7
421
 16777215
 74
     1
 91
        4
 64
     7
 65
   257
 75
     1
175
     1
 42
1.0
 92
        0
 66
   257
 43
1.0
 76
     1
 77
     6
 78
     2
 67
     7
 79
     5
170
     0
171
     0
290
     0
174
     0
 93
        1
 44
0.0
173
     0
291
     0
 45
0.0
  0
VISUALSTYLE
  5
32
102
{ACAD_REACTORS
330
2A
102
}
102
{ACAD_XDICTIONARY
360
B6
102
}
330
2A
100
AcDbVisualStyle
  2
Basic
 70
     7
 71
     1
 72
     0
 73
     1
 90
        0
 40
-0.6
 41
-30.0
 62
     5
 63
     7
421
 16777215
 74
     0
 91
        4
 64
     7
 65
   257
 75
     1
175
     1
 42
1.0
 92
        8
 66
     7
 43
1.0
 76
     1
 77
     6
 78
     2
 67
     7
 79
     5
170
     0
171
     0
290
     0
174
     0
 93
        1
 44
0.0
173
     0
291
     1
 45
0.0
  0
VISUALSTYLE
  5
36
102
{ACAD_REACTORS
330
2A
102
}
102
{ACAD_XDICTIONARY
360
BE
102
}
330
2A
100
AcDbVisualStyle
  2
Brighten
 70
    12
 71
     2
 72
     2
 73
     0
 90
        0
 40
-0.6
 41
-30.0
 62
     5
 63
     7
421
 16777215
 74
     1
 91
        4
 64
     7
 65
   257
 75
     1
175
     1
 42
1.0
 92
        8
 66
     7
 43
1.0
 76
     1
 77
     6
 78
     2
 67
     7
 79
     5
170
     0
171
     0
290
     0
174
     0
 93
        1
 44
50.0
173
     0
291
     1
 45
0.0
  0
VISUALSTYLE
  5
3A
102
{ACAD_REACTORS
330
2A
102
}
102
{ACAD_XDICTIONARY
360
C6
102
}
330
2A
100
AcDbVisualStyle
  2
ColorChange
 70
    16
 71
     2
 72
     2
 73
     3
 90
        0
 40
-0.6
 41
-30.0
 62
     5
 63
     8
421
  8421504
 74
     1
 91
        4
 64
     7
 65
   257
 75
     1
175
     1
 42
1.0
 92
        8
 66
     8
424
  8421504
 43
1.0
 76
     1
 77
     6
 78
     2
 67
     7
 79
     5
170
     0
171
     0
290
     0
174
     0
 93
        1
 44
0.0
173
     0
291
     1
 45
0.0
  0
VISUALSTYLE
  5
34
102
{ACAD_REACTORS
330
2A
102
}
102
{ACAD_XDICTIONARY
360
BA
102
}
330
2A
100
AcDbVisualStyle
  2
Conceptual
 70
     9
 71
     3
 72
     2
 73
     0
 90
        0
 40
-0.6
 41
-30.0
 62
     5
 63
     7
421
 16777215
 74
     2
 91
        2
 64
     7
 65
   257
 75
     1
175
     1
 42
40.0
 92
        8
 66
     7
 43
1.0
 76
     1
 77
     6
 78
     2
 67
     7
 79
     3
170
     0
171
     0
290
     0
174
     0
 93
        1
 44
0.0
173
     0
291
     0
 45
0.0
  0
VISUALSTYLE
  5
35
102
{ACAD_REACTORS
330
2A
102
}
102
{ACAD_XDICTIONARY
360
BC
102
}
330
2A
100
AcDbVisualStyle
  2
Dim
 70
    11
 71
     2
 72
     2
 73
     0
 90
        0
 40
-0.6
 41
-30.0
 62
     5
 63
     7
421
 16777215
 74
     1
 91
        4
 64
     7
 65
   257
 75
     1
175
     1
 42
1.0
 92
        8
 66
     7
 43
1.0
 76
     1
 77
     6
 78
     2
 67
     7
 79
     5
170
     0
171
     0
290
     0
174
     0
 93
        1
 44
-50.0
173
     0
291
     1
 45
0.0
  0
VISUALSTYLE
  5
39
102
{ACAD_REACTORS
330
2A
102
}
102
{ACAD_XDICTIONARY
360
C4
102
}
330
2A
100
AcDbVisualStyle
  2
Facepattern
 70
    15
 71
     2
 72
     2
 73
     0
 90
        0
 40
-0.6
 41
-30.0
 62
     5
 63
     7
421
 16777215
 74
     1
 91
        4
 64
     7
 65
   257
 75
     1
175
     1
 42
1.0
 92
        8
 66
     7
 43
1.0
 76
     1
 77
     6
 78
     2
 67
     7
 79
     5
170
     0
171
     0
290
     0
174
     0
 93
        1
 44
0.0
173
     0
291
     1
 45
0.0
  0
VISUALSTYLE
  5
2B
102
{ACAD_REACTORS
330
2A
102
}
102
{ACAD_XDICTIONARY
360
A8
102
}
330
2A
100
AcDbVisualStyle
  2
Flat
 70
     0
 71
     2
 72
     1
 73
     1
 90
        2
 40
-0.6
 41
30.0
 62
     5
 63
     7
421
 16777215
 74
     0
 91
        4
 64
     7
 65
   257
 75
     1
175
     1
 42
1.0
 92
        8
 66
     7
 43
1.0
 76
     1
 77
     6
 78
     2
 67
     7
 79
     5
170
     0
171
     0
290
     0
174
     0
 93
       13
 44
0.0
173
     0
291
     1
 45
0.0
  0
VISUALSTYLE
  5
2C
102
{ACAD_REACTORS
330
2A
102
}
102
{ACAD_XDICTIONARY
360
AA
102
}
330
2A
100
AcDbVisualStyle
  2
FlatWithEdges
 70
     1
 71
     2
 72
     1
 73
     1
 90
        2
 40
-0.6
 41
30.0
 62
     5
 63
     7
421
 16777215
 74
     1
 91
        4
 64
     7
 65
   257
 75
     1
175
     1
 42
1.0
 92
        0
 66
   257
 43
1.0
 76
     1
 77
     6
 78
     2
 67
     7
 79
     5
170
     0
171
     0
290
     0
174
     0
 93
       13
 44
0.0
173
     0
291
     1
 45
0.0
  0
VISUALSTYLE
  5
2D
102
{ACAD_REACTORS
330
2A
102
}
102
{ACAD_XDICTIONARY
360
AC
102
}
330
2A
100
AcDbVisualStyle
  2
Gouraud
 70
     2
 71
     2
 72
     2
 73
     1
 90
        2
 40
-0.6
 41
30.0
 62
     5
 63
     7
421
 16777215
 74
     0
 91
        4
 64
     7
 65
   257
 75
     1
175
     1
 42
1.0
 92
        0
 66
     7
 43
1.0
 76
     1
 77
     6
 78
     2
 67
     7
 79
     5
170
     0
171
     0
290
     0
174
     0
 93
       13
 44
0.0
173
     0
291
     1
 45
0.0
  0
VISUALSTYLE
  5
2E
102
{ACAD_REACTORS
330
2A
102
}
102
{ACAD_XDICTIONARY
360
AE
102
}
330
2A
100
AcDbVisualStyle
  2
GouraudWithEdges
 70
     3
 71
     2
 72
     2
 73
     1
 90
        2
 40
-0.6
 41
30.0
 62
     5
 63
     7
421
 16777215
 74
     1
 91
        4
 64
     7
 65
   257
 75
     1
175
     1
 42
1.0
 92
        0
 66
   257
 43
1.0
 76
     1
 77
     6
 78
     2
 67
     7
 79
     5
170
     0
171
     0
290
     0
174
     0
 93
       13
 44
0.0
173
     0
291
     1
 45
0.0
  0
VISUALSTYLE
  5
38
102
{ACAD_REACTORS
330
2A
102
}
102
{ACAD_XDICTIONARY
360
C2
102
}
330
2A
100
AcDbVisualStyle
  2
Linepattern
 70
    14
 71
     2
 72
     2
 73
     0
 90
        0
 40
-0.6
 41
-30.0
 62
     5
 63
     7
421
 16777215
 74
     1
 91
        4
 64
     7
 65
   257
 75
     7
175
     7
 42
1.0
 92
        8
 66
     7
 43
1.0
 76
     1
 77
     6
 78
     2
 67
     7
 79
     5
170
     0
171
     0
290
     0
174
     0
 93
        1
 44
0.0
173
     0
291
     1
 45
0.0
  0
VISUALSTYLE
  5
33
102
{ACAD_REACTORS
330
2A
102
}
102
{ACAD_XDICTIONARY
360
B8
102
}
330
2A
100
AcDbVisualStyle
  2
Realistic
 70
     8
 71
     2
 72
     2
 73
     0
 90
        0
 40
-0.6
 41
-30.0
 62
     5
 63
     7
421
 16777215
 74
     1
 91
        0
 64
     7
 65
   257
 75
     1
175
     1
 42
1.0
 92
        8
 66
     8
424
  7895160
 43
1.0
 76
     1
 77
     6
 78
     2
 67
     7
 79
     5
170
     0
171
     0
290
     0
174
     0
 93
       13
 44
0.0
173
     0
291
     0
 45
0.0
  0
VISUALSTYLE
  5
37
102
{ACAD_REACTORS
330
2A
102
}
102
{ACAD_XDICTIONARY
360
C0
102
}
330
2A
100
AcDbVisualStyle
  2
Thicken
 70
    13
 71
     2
 72
     2
 73
     0
 90
        0
 40
-0.6
 41
-30.0
 62
     5
 63
     7
421
 16777215
 74
     1
 91
        4
 64
     7
 65
   257
 75
     1
175
     1
 42
1.0
 92
       12
 66
     7
 43
1.0
 76
     1
 77
     6
 78
     2
 67
     7
 79
     5
170
     0
171
     0
290
     0
174
     0
 93
        1
 44
0.0
173
     0
291
     1
 45
0.0
  0
DICTIONARY
  5
B0
330
2F
100
AcDbDictionary
280
     1
281
     1
  3
ACAD_XREC_ROUNDTRIP
360
B1
  0
DICTIONARY
  5
B4
330
31
100
AcDbDictionary
280
     1
281
     1
  3
ACAD_XREC_ROUNDTRIP
360
B5
  0
DICTIONARY
  5
B2
330
30
100
AcDbDictionary
280
     1
281
     1
  3
ACAD_XREC_ROUNDTRIP
360
B3
  0
DICTIONARY
  5
B6
330
32
100
AcDbDictionary
280
     1
281
     1
  3
ACAD_XREC_ROUNDTRIP
360
B7
  0
DICTIONARY
  5
BE
330
36
100
AcDbDictionary
280
     1
281
     1
  3
ACAD_XREC_ROUNDTRIP
360
BF
  0
DICTIONARY
  5
C6
330
3A
100
AcDbDictionary
280
     1
281
     1
  3
ACAD_XREC_ROUNDTRIP
360
C7
  0
DICTIONARY
  5
BA
330
34
100
AcDbDictionary
280
     1
281
     1
  3
ACAD_XREC_ROUNDTRIP
360
BB
  0
DICTIONARY
  5
BC
330
35
100
AcDbDictionary
280
     1
281
     1
  3
ACAD_XREC_ROUNDTRIP
360
BD
  0
DICTIONARY
  5
C4
330
39
100
AcDbDictionary
280
     1
281
     1
  3
ACAD_XREC_ROUNDTRIP
360
C5
  0
DICTIONARY
  5
A8
330
2B
100
AcDbDictionary
280
     1
281
     1
  3
ACAD_XREC_ROUNDTRIP
360
A9
  0
DICTIONARY
  5
AA
330
2C
100
AcDbDictionary
280
     1
281
     1
  3
ACAD_XREC_ROUNDTRIP
360
AB
  0
DICTIONARY
  5
AC
330
2D
100
AcDbDictionary
280
     1
281
     1
  3
ACAD_XREC_ROUNDTRIP
360
AD
  0
DICTIONARY
  5
AE
330
2E
100
AcDbDictionary
280
     1
281
     1
  3
ACAD_XREC_ROUNDTRIP
360
AF
  0
DICTIONARY
  5
C2
330
38
100
AcDbDictionary
280
     1
281
     1
  3
ACAD_XREC_ROUNDTRIP
360
C3
  0
DICTIONARY
  5
B8
330
33
100
AcDbDictionary
280
     1
281
     1
  3
ACAD_XREC_ROUNDTRIP
360
B9
  0
DICTIONARY
  5
C0
330
37
100
AcDbDictionary
280
     1
281
     1
  3
ACAD_XREC_ROUNDTRIP
360
C1
  0
XRECORD
  5
B1
102
{ACAD_REACTORS
330
B0
102
}
330
B0
100
AcDbXrecord
280
     1
102
RTVSPropertyOp0
 70
     1
102
RTVSPropertyOp1
 70
     1
102
RTVSPropertyOp2
 70
     1
102
RTVSPropertyOp3
 70
     1
102
RTVSPropertyOp4
 70
     1
102
RTVSPropertyOp5
 70
     1
102
RTVSPropertyOp6
 70
     1
102
RTVSPropertyOp7
 70
     1
102
RTVSPropertyOp8
 70
     1
102
RTVSPropertyOp9
 70
     1
102
RTVSPropertyOp10
 70
     1
102
RTVSPropertyOp11
 70
     1
102
RTVSPropertyOp12
 70
     1
102
RTVSPropertyOp13
 70
     1
102
RTVSPropertyOp14
 70
     1
102
RTVSPropertyOp15
 70
     1
102
RTVSPropertyOp16
 70
     1
102
RTVSPropertyOp17
 70
     1
102
RTVSPropertyOp18
 70
     1
102
RTVSPropertyOp19
 70
     1
102
RTVSPropertyOp20
 70
     1
102
RTVSPropertyOp21
 70
     1
102
RTVSPropertyOp22
 70
     1
102
RTVSPropertyOp23
 70
     1
102
RTVSPropertyOp24
 70
     1
102
RTVSPropertyOp25
 70
     1
102
RTVSPropertyOp26
 70
     1
102
RTVSPropertyOp27
 70
     1
102
RTVSPropertyOp28
 70
     1
102
RTVSPropertyOp29
 70
     1
102
RTVSPropertyOp30
 70
     1
102
RTVSPropertyOp31
 70
     1
102
RTVSPropertyOp32
 70
     1
  0
XRECORD
  5
B5
102
{ACAD_REACTORS
330
B4
102
}
330
B4
100
AcDbXrecord
280
     1
102
RTVSPropertyOp0
 70
     1
102
RTVSPropertyOp1
 70
     1
102
RTVSPropertyOp2
 70
     1
102
RTVSPropertyOp3
 70
     1
102
RTVSPropertyOp4
 70
     1
102
RTVSPropertyOp5
 70
     1
102
RTVSPropertyOp6
 70
     1
102
RTVSPropertyOp7
 70
     1
102
RTVSPropertyOp8
 70
     1
102
RTVSPropertyOp9
 70
     1
102
RTVSPropertyOp10
 70
     1
102
RTVSPropertyOp11
 70
     1
102
RTVSPropertyOp12
 70
     1
102
RTVSPropertyOp13
 70
     1
102
RTVSPropertyOp14
 70
     1
102
RTVSPropertyOp15
 70
     1
102
RTVSPropertyOp16
 70
     1
102
RTVSPropertyOp17
 70
     1
102
RTVSPropertyOp18
 70
     1
102
RTVSPropertyOp19
 70
     1
102
RTVSPropertyOp20
 70
     1
102
RTVSPropertyOp21
 70
     1
102
RTVSPropertyOp22
 70
     1
102
RTVSPropertyOp23
 70
     1
102
RTVSPropertyOp24
 70
     1
102
RTVSPropertyOp25
 70
     1
102
RTVSPropertyOp26
 70
     1
102
RTVSPropertyOp27
 70
     1
102
RTVSPropertyOp28
 70
     1
102
RTVSPropertyOp29
 70
     1
102
RTVSPropertyOp30
 70
     1
102
RTVSPropertyOp31
 70
     1
102
RTVSPropertyOp32
 70
     1
  0
XRECORD
  5
B3
102
{ACAD_REACTORS
330
B2
102
}
330
B2
100
AcDbXrecord
280
     1
102
RTVSPropertyOp0
 70
     1
102
RTVSPropertyOp1
 70
     1
102
RTVSPropertyOp2
 70
     1
102
RTVSPropertyOp3
 70
     1
102
RTVSPropertyOp4
 70
     1
102
RTVSPropertyOp5
 70
     1
102
RTVSPropertyOp6
 70
     1
102
RTVSPropertyOp7
 70
     1
102
RTVSPropertyOp8
 70
     1
102
RTVSPropertyOp9
 70
     1
102
RTVSPropertyOp10
 70
     1
102
RTVSPropertyOp11
 70
     1
102
RTVSPropertyOp12
 70
     1
102
RTVSPropertyOp13
 70
     1
102
RTVSPropertyOp14
 70
     1
102
RTVSPropertyOp15
 70
     1
102
RTVSPropertyOp16
 70
     1
102
RTVSPropertyOp17
 70
     1
102
RTVSPropertyOp18
 70
     1
102
RTVSPropertyOp19
 70
     1
102
RTVSPropertyOp20
 70
     1
102
RTVSPropertyOp21
 70
     1
102
RTVSPropertyOp22
 70
     1
102
RTVSPropertyOp23
 70
     1
102
RTVSPropertyOp24
 70
     1
102
RTVSPropertyOp25
 70
     1
102
RTVSPropertyOp26
 70
     1
102
RTVSPropertyOp27
 70
     1
102
RTVSPropertyOp28
 70
     1
102
RTVSPropertyOp29
 70
     1
102
RTVSPropertyOp30
 70
     1
102
RTVSPropertyOp31
 70
     1
102
RTVSPropertyOp32
 70
     1
  0
XRECORD
  5
B7
102
{ACAD_REACTORS
330
B6
102
}
330
B6
100
AcDbXrecord
280
     1
102
RTVSPropertyOp0
 70
     1
102
RTVSPropertyOp1
 70
     1
102
RTVSPropertyOp2
 70
     1
102
RTVSPropertyOp3
 70
     1
102
RTVSPropertyOp4
 70
     1
102
RTVSPropertyOp5
 70
     1
102
RTVSPropertyOp6
 70
     1
102
RTVSPropertyOp7
 70
     1
102
RTVSPropertyOp8
 70
     1
102
RTVSPropertyOp9
 70
     1
102
RTVSPropertyOp10
 70
     1
102
RTVSPropertyOp11
 70
     1
102
RTVSPropertyOp12
 70
     1
102
RTVSPropertyOp13
 70
     1
102
RTVSPropertyOp14
 70
     1
102
RTVSPropertyOp15
 70
     1
102
RTVSPropertyOp16
 70
     1
102
RTVSPropertyOp17
 70
     1
102
RTVSPropertyOp18
 70
     1
102
RTVSPropertyOp19
 70
     1
102
RTVSPropertyOp20
 70
     1
102
RTVSPropertyOp21
 70
     1
102
RTVSPropertyOp22
 70
     1
102
RTVSPropertyOp23
 70
     1
102
RTVSPropertyOp24
 70
     1
102
RTVSPropertyOp25
 70
     1
102
RTVSPropertyOp26
 70
     1
102
RTVSPropertyOp27
 70
     1
102
RTVSPropertyOp28
 70
     1
102
RTVSPropertyOp29
 70
     1
102
RTVSPropertyOp30
 70
     1
102
RTVSPropertyOp31
 70
     1
102
RTVSPropertyOp32
 70
     1
  0
XRECORD
  5
BF
102
{ACAD_REACTORS
330
BE
102
}
330
BE
100
AcDbXrecord
280
     1
102
RTVSPropertyOp0
 70
     1
102
RTVSPropertyOp1
 70
     1
102
RTVSPropertyOp2
 70
     1
102
RTVSPropertyOp3
 70
     1
102
RTVSPropertyOp4
 70
     1
102
RTVSPropertyOp5
 70
     1
102
RTVSPropertyOp6
 70
     1
102
RTVSPropertyOp7
 70
     1
102
RTVSPropertyOp8
 70
     1
102
RTVSPropertyOp9
 70
     1
102
RTVSPropertyOp10
 70
     1
102
RTVSPropertyOp11
 70
     1
102
RTVSPropertyOp12
 70
     1
102
RTVSPropertyOp13
 70
     1
102
RTVSPropertyOp14
 70
     1
102
RTVSPropertyOp15
 70
     1
102
RTVSPropertyOp16
 70
     1
102
RTVSPropertyOp17
 70
     1
102
RTVSPropertyOp18
 70
     1
102
RTVSPropertyOp19
 70
     1
102
RTVSPropertyOp20
 70
     1
102
RTVSPropertyOp21
 70
     1
102
RTVSPropertyOp22
 70
     1
102
RTVSPropertyOp23
 70
     1
102
RTVSPropertyOp24
 70
     1
102
RTVSPropertyOp25
 70
     1
102
RTVSPropertyOp26
 70
     1
102
RTVSPropertyOp27
 70
     1
102
RTVSPropertyOp28
 70
     1
102
RTVSPropertyOp29
 70
     1
102
RTVSPropertyOp30
 70
     1
102
RTVSPropertyOp31
 70
     1
102
RTVSPropertyOp32
 70
     1
  0
XRECORD
  5
C7
102
{ACAD_REACTORS
330
C6
102
}
330
C6
100
AcDbXrecord
280
     1
102
RTVSPropertyOp0
 70
     1
102
RTVSPropertyOp1
 70
     1
102
RTVSPropertyOp2
 70
     1
102
RTVSPropertyOp3
 70
     1
102
RTVSPropertyOp4
 70
     1
102
RTVSPropertyOp5
 70
     1
102
RTVSPropertyOp6
 70
     1
102
RTVSPropertyOp7
 70
     1
102
RTVSPropertyOp8
 70
     1
102
RTVSPropertyOp9
 70
     1
102
RTVSPropertyOp10
 70
     1
102
RTVSPropertyOp11
 70
     1
102
RTVSPropertyOp12
 70
     1
102
RTVSPropertyOp13
 70
     1
102
RTVSPropertyOp14
 70
     1
102
RTVSPropertyOp15
 70
     1
102
RTVSPropertyOp16
 70
     1
102
RTVSPropertyOp17
 70
     1
102
RTVSPropertyOp18
 70
     1
102
RTVSPropertyOp19
 70
     1
102
RTVSPropertyOp20
 70
     1
102
RTVSPropertyOp21
 70
     1
102
RTVSPropertyOp22
 70
     1
102
RTVSPropertyOp23
 70
     1
102
RTVSPropertyOp24
 70
     1
102
RTVSPropertyOp25
 70
     1
102
RTVSPropertyOp26
 70
     1
102
RTVSPropertyOp27
 70
     1
102
RTVSPropertyOp28
 70
     1
102
RTVSPropertyOp29
 70
     1
102
RTVSPropertyOp30
 70
     1
102
RTVSPropertyOp31
 70
     1
102
RTVSPropertyOp32
 70
     1
  0
XRECORD
  5
BB
102
{ACAD_REACTORS
330
BA
102
}
330
BA
100
AcDbXrecord
280
     1
102
RTVSPropertyOp0
 70
     1
102
RTVSPropertyOp1
 70
     1
102
RTVSPropertyOp2
 70
     1
102
RTVSPropertyOp3
 70
     1
102
RTVSPropertyOp4
 70
     1
102
RTVSPropertyOp5
 70
     1
102
RTVSPropertyOp6
 70
     1
102
RTVSPropertyOp7
 70
     1
102
RTVSPropertyOp8
 70
     1
102
RTVSPropertyOp9
 70
     1
102
RTVSPropertyOp10
 70
     1
102
RTVSPropertyOp11
 70
     1
102
RTVSPropertyOp12
 70
     1
102
RTVSPropertyOp13
 70
     1
102
RTVSPropertyOp14
 70
     1
102
RTVSPropertyOp15
 70
     1
102
RTVSPropertyOp16
 70
     1
102
RTVSPropertyOp17
 70
     1
102
RTVSPropertyOp18
 70
     1
102
RTVSPropertyOp19
 70
     1
102
RTVSPropertyOp20
 70
     1
102
RTVSPropertyOp21
 70
     1
102
RTVSPropertyOp22
 70
     1
102
RTVSPropertyOp23
 70
     1
102
RTVSPropertyOp24
 70
     1
102
RTVSPropertyOp25
 70
     1
102
RTVSPropertyOp26
 70
     1
102
RTVSPropertyOp27
 70
     1
102
RTVSPropertyOp28
 70
     1
102
RTVSPropertyOp29
 70
     1
102
RTVSPropertyOp30
 70
     1
102
RTVSPropertyOp31
 70
     1
102
RTVSPropertyOp32
 70
     1
  0
XRECORD
  5
BD
102
{ACAD_REACTORS
330
BC
102
}
330
BC
100
AcDbXrecord
280
     1
102
RTVSPropertyOp0
 70
     1
102
RTVSPropertyOp1
 70
     1
102
RTVSPropertyOp2
 70
     1
102
RTVSPropertyOp3
 70
     1
102
RTVSPropertyOp4
 70
     1
102
RTVSPropertyOp5
 70
     1
102
RTVSPropertyOp6
 70
     1
102
RTVSPropertyOp7
 70
     1
102
RTVSPropertyOp8
 70
     1
102
RTVSPropertyOp9
 70
     1
102
RTVSPropertyOp10
 70
     1
102
RTVSPropertyOp11
 70
     1
102
RTVSPropertyOp12
 70
     1
102
RTVSPropertyOp13
 70
     1
102
RTVSPropertyOp14
 70
     1
102
RTVSPropertyOp15
 70
     1
102
RTVSPropertyOp16
 70
     1
102
RTVSPropertyOp17
 70
     1
102
RTVSPropertyOp18
 70
     1
102
RTVSPropertyOp19
 70
     1
102
RTVSPropertyOp20
 70
     1
102
RTVSPropertyOp21
 70
     1
102
RTVSPropertyOp22
 70
     1
102
RTVSPropertyOp23
 70
     1
102
RTVSPropertyOp24
 70
     1
102
RTVSPropertyOp25
 70
     1
102
RTVSPropertyOp26
 70
     1
102
RTVSPropertyOp27
 70
     1
102
RTVSPropertyOp28
 70
     1
102
RTVSPropertyOp29
 70
     1
102
RTVSPropertyOp30
 70
     1
102
RTVSPropertyOp31
 70
     1
102
RTVSPropertyOp32
 70
     1
  0
XRECORD
  5
C5
102
{ACAD_REACTORS
330
C4
102
}
330
C4
100
AcDbXrecord
280
     1
102
RTVSPropertyOp0
 70
     1
102
RTVSPropertyOp1
 70
     1
102
RTVSPropertyOp2
 70
     1
102
RTVSPropertyOp3
 70
     1
102
RTVSPropertyOp4
 70
     1
102
RTVSPropertyOp5
 70
     1
102
RTVSPropertyOp6
 70
     1
102
RTVSPropertyOp7
 70
     1
102
RTVSPropertyOp8
 70
     1
102
RTVSPropertyOp9
 70
     1
102
RTVSPropertyOp10
 70
     1
102
RTVSPropertyOp11
 70
     1
102
RTVSPropertyOp12
 70
     1
102
RTVSPropertyOp13
 70
     1
102
RTVSPropertyOp14
 70
     1
102
RTVSPropertyOp15
 70
     1
102
RTVSPropertyOp16
 70
     1
102
RTVSPropertyOp17
 70
     1
102
RTVSPropertyOp18
 70
     1
102
RTVSPropertyOp19
 70
     1
102
RTVSPropertyOp20
 70
     1
102
RTVSPropertyOp21
 70
     1
102
RTVSPropertyOp22
 70
     1
102
RTVSPropertyOp23
 70
     1
102
RTVSPropertyOp24
 70
     1
102
RTVSPropertyOp25
 70
     1
102
RTVSPropertyOp26
 70
     1
102
RTVSPropertyOp27
 70
     1
102
RTVSPropertyOp28
 70
     1
102
RTVSPropertyOp29
 70
     1
102
RTVSPropertyOp30
 70
     1
102
RTVSPropertyOp31
 70
     1
102
RTVSPropertyOp32
 70
     1
  0
XRECORD
  5
A9
102
{ACAD_REACTORS
330
A8
102
}
330
A8
100
AcDbXrecord
280
     1
102
RTVSPropertyOp0
 70
     1
102
RTVSPropertyOp1
 70
     1
102
RTVSPropertyOp2
 70
     1
102
RTVSPropertyOp3
 70
     1
102
RTVSPropertyOp4
 70
     1
102
RTVSPropertyOp5
 70
     1
102
RTVSPropertyOp6
 70
     1
102
RTVSPropertyOp7
 70
     1
102
RTVSPropertyOp8
 70
     1
102
RTVSPropertyOp9
 70
     1
102
RTVSPropertyOp10
 70
     1
102
RTVSPropertyOp11
 70
     1
102
RTVSPropertyOp12
 70
     1
102
RTVSPropertyOp13
 70
     1
102
RTVSPropertyOp14
 70
     1
102
RTVSPropertyOp15
 70
     1
102
RTVSPropertyOp16
 70
     1
102
RTVSPropertyOp17
 70
     1
102
RTVSPropertyOp18
 70
     1
102
RTVSPropertyOp19
 70
     1
102
RTVSPropertyOp20
 70
     1
102
RTVSPropertyOp21
 70
     1
102
RTVSPropertyOp22
 70
     1
102
RTVSPropertyOp23
 70
     1
102
RTVSPropertyOp24
 70
     1
102
RTVSPropertyOp25
 70
     1
102
RTVSPropertyOp26
 70
     1
102
RTVSPropertyOp27
 70
     1
102
RTVSPropertyOp28
 70
     1
102
RTVSPropertyOp29
 70
     1
102
RTVSPropertyOp30
 70
     1
102
RTVSPropertyOp31
 70
     1
102
RTVSPropertyOp32
 70
     1
  0
XRECORD
  5
AB
102
{ACAD_REACTORS
330
AA
102
}
330
AA
100
AcDbXrecord
280
     1
102
RTVSPropertyOp0
 70
     1
102
RTVSPropertyOp1
 70
     1
102
RTVSPropertyOp2
 70
     1
102
RTVSPropertyOp3
 70
     1
102
RTVSPropertyOp4
 70
     1
102
RTVSPropertyOp5
 70
     1
102
RTVSPropertyOp6
 70
     1
102
RTVSPropertyOp7
 70
     1
102
RTVSPropertyOp8
 70
     1
102
RTVSPropertyOp9
 70
     1
102
RTVSPropertyOp10
 70
     1
102
RTVSPropertyOp11
 70
     1
102
RTVSPropertyOp12
 70
     1
102
RTVSPropertyOp13
 70
     1
102
RTVSPropertyOp14
 70
     1
102
RTVSPropertyOp15
 70
     1
102
RTVSPropertyOp16
 70
     1
102
RTVSPropertyOp17
 70
     1
102
RTVSPropertyOp18
 70
     1
102
RTVSPropertyOp19
 70
     1
102
RTVSPropertyOp20
 70
     1
102
RTVSPropertyOp21
 70
     1
102
RTVSPropertyOp22
 70
     1
102
RTVSPropertyOp23
 70
     1
102
RTVSPropertyOp24
 70
     1
102
RTVSPropertyOp25
 70
     1
102
RTVSPropertyOp26
 70
     1
102
RTVSPropertyOp27
 70
     1
102
RTVSPropertyOp28
 70
     1
102
RTVSPropertyOp29
 70
     1
102
RTVSPropertyOp30
 70
     1
102
RTVSPropertyOp31
 70
     1
102
RTVSPropertyOp32
 70
     1
  0
XRECORD
  5
AD
102
{ACAD_REACTORS
330
AC
102
}
330
AC
100
AcDbXrecord
280
     1
102
RTVSPropertyOp0
 70
     1
102
RTVSPropertyOp1
 70
     1
102
RTVSPropertyOp2
 70
     1
102
RTVSPropertyOp3
 70
     1
102
RTVSPropertyOp4
 70
     1
102
RTVSPropertyOp5
 70
     1
102
RTVSPropertyOp6
 70
     1
102
RTVSPropertyOp7
 70
     1
102
RTVSPropertyOp8
 70
     1
102
RTVSPropertyOp9
 70
     1
102
RTVSPropertyOp10
 70
     1
102
RTVSPropertyOp11
 70
     1
102
RTVSPropertyOp12
 70
     1
102
RTVSPropertyOp13
 70
     1
102
RTVSPropertyOp14
 70
     1
102
RTVSPropertyOp15
 70
     1
102
RTVSPropertyOp16
 70
     1
102
RTVSPropertyOp17
 70
     1
102
RTVSPropertyOp18
 70
     1
102
RTVSPropertyOp19
 70
     1
102
RTVSPropertyOp20
 70
     1
102
RTVSPropertyOp21
 70
     1
102
RTVSPropertyOp22
 70
     1
102
RTVSPropertyOp23
 70
     1
102
RTVSPropertyOp24
 70
     1
102
RTVSPropertyOp25
 70
     1
102
RTVSPropertyOp26
 70
     1
102
RTVSPropertyOp27
 70
     1
102
RTVSPropertyOp28
 70
     1
102
RTVSPropertyOp29
 70
     1
102
RTVSPropertyOp30
 70
     1
102
RTVSPropertyOp31
 70
     1
102
RTVSPropertyOp32
 70
     1
  0
XRECORD
  5
AF
102
{ACAD_REACTORS
330
AE
102
}
330
AE
100
AcDbXrecord
280
     1
102
RTVSPropertyOp0
 70
     1
102
RTVSPropertyOp1
 70
     1
102
RTVSPropertyOp2
 70
     1
102
RTVSPropertyOp3
 70
     1
102
RTVSPropertyOp4
 70
     1
102
RTVSPropertyOp5
 70
     1
102
RTVSPropertyOp6
 70
     1
102
RTVSPropertyOp7
 70
     1
102
RTVSPropertyOp8
 70
     1
102
RTVSPropertyOp9
 70
     1
102
RTVSPropertyOp10
 70
     1
102
RTVSPropertyOp11
 70
     1
102
RTVSPropertyOp12
 70
     1
102
RTVSPropertyOp13
 70
     1
102
RTVSPropertyOp14
 70
     1
102
RTVSPropertyOp15
 70
     1
102
RTVSPropertyOp16
 70
     1
102
RTVSPropertyOp17
 70
     1
102
RTVSPropertyOp18
 70
     1
102
RTVSPropertyOp19
 70
     1
102
RTVSPropertyOp20
 70
     1
102
RTVSPropertyOp21
 70
     1
102
RTVSPropertyOp22
 70
     1
102
RTVSPropertyOp23
 70
     1
102
RTVSPropertyOp24
 70
     1
102
RTVSPropertyOp25
 70
     1
102
RTVSPropertyOp26
 70
     1
102
RTVSPropertyOp27
 70
     1
102
RTVSPropertyOp28
 70
     1
102
RTVSPropertyOp29
 70
     1
102
RTVSPropertyOp30
 70
     1
102
RTVSPropertyOp31
 70
     1
102
RTVSPropertyOp32
 70
     1
  0
XRECORD
  5
C3
102
{ACAD_REACTORS
330
C2
102
}
330
C2
100
AcDbXrecord
280
     1
102
RTVSPropertyOp0
 70
     1
102
RTVSPropertyOp1
 70
     1
102
RTVSPropertyOp2
 70
     1
102
RTVSPropertyOp3
 70
     1
102
RTVSPropertyOp4
 70
     1
102
RTVSPropertyOp5
 70
     1
102
RTVSPropertyOp6
 70
     1
102
RTVSPropertyOp7
 70
     1
102
RTVSPropertyOp8
 70
     1
102
RTVSPropertyOp9
 70
     1
102
RTVSPropertyOp10
 70
     1
102
RTVSPropertyOp11
 70
     1
102
RTVSPropertyOp12
 70
     1
102
RTVSPropertyOp13
 70
     1
102
RTVSPropertyOp14
 70
     1
102
RTVSPropertyOp15
 70
     1
102
RTVSPropertyOp16
 70
     1
102
RTVSPropertyOp17
 70
     1
102
RTVSPropertyOp18
 70
     1
102
RTVSPropertyOp19
 70
     1
102
RTVSPropertyOp20
 70
     1
102
RTVSPropertyOp21
 70
     1
102
RTVSPropertyOp22
 70
     1
102
RTVSPropertyOp23
 70
     1
102
RTVSPropertyOp24
 70
     1
102
RTVSPropertyOp25
 70
     1
102
RTVSPropertyOp26
 70
     1
102
RTVSPropertyOp27
 70
     1
102
RTVSPropertyOp28
 70
     1
102
RTVSPropertyOp29
 70
     1
102
RTVSPropertyOp30
 70
     1
102
RTVSPropertyOp31
 70
     1
102
RTVSPropertyOp32
 70
     1
  0
XRECORD
  5
B9
102
{ACAD_REACTORS
330
B8
102
}
330
B8
100
AcDbXrecord
280
     1
102
RTVSPropertyOp0
 70
     1
102
RTVSPropertyOp1
 70
     1
102
RTVSPropertyOp2
 70
     1
102
RTVSPropertyOp3
 70
     1
102
RTVSPropertyOp4
 70
     1
102
RTVSPropertyOp5
 70
     1
102
RTVSPropertyOp6
 70
     1
102
RTVSPropertyOp7
 70
     1
102
RTVSPropertyOp8
 70
     1
102
RTVSPropertyOp9
 70
     1
102
RTVSPropertyOp10
 70
     1
102
RTVSPropertyOp11
 70
     1
102
RTVSPropertyOp12
 70
     1
102
RTVSPropertyOp13
 70
     1
102
RTVSPropertyOp14
 70
     1
102
RTVSPropertyOp15
 70
     1
102
RTVSPropertyOp16
 70
     1
102
RTVSPropertyOp17
 70
     1
102
RTVSPropertyOp18
 70
     1
102
RTVSPropertyOp19
 70
     1
102
RTVSPropertyOp20
 70
     1
102
RTVSPropertyOp21
 70
     1
102
RTVSPropertyOp22
 70
     1
102
RTVSPropertyOp23
 70
     1
102
RTVSPropertyOp24
 70
     1
102
RTVSPropertyOp25
 70
     1
102
RTVSPropertyOp26
 70
     1
102
RTVSPropertyOp27
 70
     1
102
RTVSPropertyOp28
 70
     1
102
RTVSPropertyOp29
 70
     1
102
RTVSPropertyOp30
 70
     1
102
RTVSPropertyOp31
 70
     1
102
RTVSPropertyOp32
 70
     1
  0
XRECORD
  5
C1
102
{ACAD_REACTORS
330
C0
102
}
330
C0
100
AcDbXrecord
280
     1
102
RTVSPropertyOp0
 70
     1
102
RTVSPropertyOp1
 70
     1
102
RTVSPropertyOp2
 70
     1
102
RTVSPropertyOp3
 70
     1
102
RTVSPropertyOp4
 70
     1
102
RTVSPropertyOp5
 70
     1
102
RTVSPropertyOp6
 70
     1
102
RTVSPropertyOp7
 70
     1
102
RTVSPropertyOp8
 70
     1
102
RTVSPropertyOp9
 70
     1
102
RTVSPropertyOp10
 70
     1
102
RTVSPropertyOp11
 70
     1
102
RTVSPropertyOp12
 70
     1
102
RTVSPropertyOp13
 70
     1
102
RTVSPropertyOp14
 70
     1
102
RTVSPropertyOp15
 70
     1
102
RTVSPropertyOp16
 70
     1
102
RTVSPropertyOp17
 70
     1
102
RTVSPropertyOp18
 70
     1
102
RTVSPropertyOp19
 70
     1
102
RTVSPropertyOp20
 70
     1
102
RTVSPropertyOp21
 70
     1
102
RTVSPropertyOp22
 70
     1
102
RTVSPropertyOp23
 70
     1
102
RTVSPropertyOp24
 70
     1
102
RTVSPropertyOp25
 70
     1
102
RTVSPropertyOp26
 70
     1
102
RTVSPropertyOp27
 70
     1
102
RTVSPropertyOp28
 70
     1
102
RTVSPropertyOp29
 70
     1
102
RTVSPropertyOp30
 70
     1
102
RTVSPropertyOp31
 70
     1
102
RTVSPropertyOp32
 70
     1
  0
ENDSEC
  0
EOF
