  0
SECTION
  2
HEADER
  9
$ACADVER
  1
AC1021
  9
$ACADMAINTVER
 70
    25
  9
$DWGCODEPAGE
  3
ANSI_1256
  9
$INSBASE
 10
0.0
 20
0.0
 30
0.0
  9
$EXTMIN
 10
104.0189
 20
-109.5602
 30
0.0
  9
$EXTMAX
 10
196.403
 20
126.3389
 30
0.0
  9
$LIMMIN
 10
0.0
 20
0.0
  9
$LIMMAX
 10
12.0
 20
9.0
  9
$ORTHOMODE
 70
     0
  9
$REGENMODE
 70
     1
  9
$FILLMODE
 70
     1
  9
$QTEXTMODE
 70
     0
  9
$MIRRTEXT
 70
     1
  9
$LTSCALE
 40
1.0
  9
$ATTMODE
 70
     1
  9
$TEXTSIZE
 40
0.2
  9
$TRACEWID
 40
0.05
  9
$TEXTSTYLE
  7
Standard
  9
$CLAYER
  8
0
  9
$CELTYPE
  6
ByLayer
  9
$CECOLOR
 62
   256
  9
$CELTSCALE
 40
1.0
  9
$DISPSILH
 70
     0
  9
$DIMSCALE
 40
1.0
  9
$DIMASZ
 40
0.18
  9
$DIMEXO
 40
0.0625
  9
$DIMDLI
 40
0.38
  9
$DIMRND
 40
0.0
  9
$DIMDLE
 40
0.0
  9
$DIMEXE
 40
0.18
  9
$DIMTP
 40
0.0
  9
$DIMTM
 40
0.0
  9
$DIMTXT
 40
0.18
  9
$DIMCEN
 40
0.09
  9
$DIMTSZ
 40
0.0
  9
$DIMTOL
 70
     0
  9
$DIMLIM
 70
     0
  9
$DIMTIH
 70
     1
  9
$DIMTOH
 70
     1
  9
$DIMSE1
 70
     0
  9
$DIMSE2
 70
     0
  9
$DIMTAD
 70
     0
  9
$DIMZIN
 70
     0
  9
$DIMBLK
  1

  9
$DIMASO
 70
     1
  9
$DIMSHO
 70
     1
  9
$DIMPOST
  1

  9
$DIMAPOST
  1

  9
$DIMALT
 70
     0
  9
$DIMALTD
 70
     2
  9
$DIMALTF
 40
25.4
  9
$DIMLFAC
 40
1.0
  9
$DIMTOFL
 70
     0
  9
$DIMTVP
 40
0.0
  9
$DIMTIX
 70
     0
  9
$DIMSOXD
 70
     0
  9
$DIMSAH
 70
     0
  9
$DIMBLK1
  1

  9
$DIMBLK2
  1

  9
$DIMSTYLE
  2
Standard
  9
$DIMCLRD
 70
     0
  9
$DIMCLRE
 70
     0
  9
$DIMCLRT
 70
     0
  9
$DIMTFAC
 40
1.0
  9
$DIMGAP
 40
0.09
  9
$DIMJUST
 70
     0
  9
$DIMSD1
 70
     0
  9
$DIMSD2
 70
     0
  9
$DIMTOLJ
 70
     1
  9
$DIMTZIN
 70
     0
  9
$DIMALTZ
 70
     0
  9
$DIMALTTZ
 70
     0
  9
$DIMUPT
 70
     0
  9
$DIMDEC
 70
     4
  9
$DIMTDEC
 70
     4
  9
$DIMALTU
 70
     2
  9
$DIMALTTD
 70
     2
  9
$DIMTXSTY
  7
Standard
  9
$DIMAUNIT
 70
     0
  9
$DIMADEC
 70
     0
  9
$DIMALTRND
 40
0.0
  9
$DIMAZIN
 70
     0
  9
$DIMDSEP
 70
    46
  9
$DIMATFIT
 70
     3
  9
$DIMFRAC
 70
     0
  9
$DIMLDRBLK
  1

  9
$DIMLUNIT
 70
     2
  9
$DIMLWD
 70
    -2
  9
$DIMLWE
 70
    -2
  9
$DIMTMOVE
 70
     0
  9
$DIMFXL
 40
1.0
  9
$DIMFXLON
 70
     0
  9
$DIMJOGANG
 40
0.7853981633974483
  9
$DIMTFILL
 70
     0
  9
$DIMTFILLCLR
 70
     0
  9
$DIMARCSYM
 70
     0
  9
$DIMLTYPE
  6

  9
$DIMLTEX1
  6

  9
$DIMLTEX2
  6

  9
$LUNITS
 70
     2
  9
$LUPREC
 70
     4
  9
$SKETCHINC
 40
0.1
  9
$FILLETRAD
 40
0.5
  9
$AUNITS
 70
     0
  9
$AUPREC
 70
     0
  9
$MENU
  1
.
  9
$ELEVATION
 40
0.0
  9
$PELEVATION
 40
0.0
  9
$THICKNESS
 40
0.0
  9
$LIMCHECK
 70
     0
  9
$CHAMFERA
 40
0.5
  9
$CHAMFERB
 40
0.5
  9
$CHAMFERC
 40
1.0
  9
$CHAMFERD
 40
0.0
  9
$SKPOLY
 70
     0
  9
$TDCREATE
 40
2458479.310242963
  9
$TDUCREATE
 40
2458479.143576297
  9
$TDUPDATE
 40
2458479.310243137
  9
$TDUUPDATE
 40
2458479.14357647
  9
$TDINDWG
 40
0.0000000116
  9
$TDUSRTIMER
 40
0.0000000116
  9
$USRTIMER
 70
     1
  9
$ANGBASE
 50
0.0
  9
$ANGDIR
 70
     0
  9
$PDMODE
 70
     0
  9
$PDSIZE
 40
0.0
  9
$PLINEWID
 40
0.0
  9
$SPLFRAME
 70
     0
  9
$SPLINETYPE
 70
     6
  9
$SPLINESEGS
 70
     8
  9
$HANDSEED
  5
B2
  9
$SURFTAB1
 70
     6
  9
$SURFTAB2
 70
     6
  9
$SURFTYPE
 70
     6
  9
$SURFU
 70
     6
  9
$SURFV
 70
     6
  9
$UCSBASE
  2

  9
$UCSNAME
  2

  9
$UCSORG
 10
0.0
 20
0.0
 30
0.0
  9
$UCSXDIR
 10
1.0
 20
0.0
 30
0.0
  9
$UCSYDIR
 10
0.0
 20
1.0
 30
0.0
  9
$UCSORTHOREF
  2

  9
$UCSORTHOVIEW
 70
     0
  9
$UCSORGTOP
 10
0.0
 20
0.0
 30
0.0
  9
$UCSORGBOTTOM
 10
0.0
 20
0.0
 30
0.0
  9
$UCSORGLEFT
 10
0.0
 20
0.0
 30
0.0
  9
$UCSORGRIGHT
 10
0.0
 20
0.0
 30
0.0
  9
$UCSORGFRONT
 10
0.0
 20
0.0
 30
0.0
  9
$UCSORGBACK
 10
0.0
 20
0.0
 30
0.0
  9
$PUCSBASE
  2

  9
$PUCSNAME
  2

  9
$PUCSORG
 10
0.0
 20
0.0
 30
0.0
  9
$PUCSXDIR
 10
1.0
 20
0.0
 30
0.0
  9
$PUCSYDIR
 10
0.0
 20
1.0
 30
0.0
  9
$PUCSORTHOREF
  2

  9
$PUCSORTHOVIEW
 70
     0
  9
$PUCSORGTOP
 10
0.0
 20
0.0
 30
0.0
  9
$PUCSORGBOTTOM
 10
0.0
 20
0.0
 30
0.0
  9
$PUCSORGLEFT
 10
0.0
 20
0.0
 30
0.0
  9
$PUCSORGRIGHT
 10
0.0
 20
0.0
 30
0.0
  9
$PUCSORGFRONT
 10
0.0
 20
0.0
 30
0.0
  9
$PUCSORGBACK
 10
0.0
 20
0.0
 30
0.0
  9
$USERI1
 70
     0
  9
$USERI2
 70
     0
  9
$USERI3
 70
     0
  9
$USERI4
 70
     0
  9
$USERI5
 70
     0
  9
$USERR1
 40
0.0
  9
$USERR2
 40
0.0
  9
$USERR3
 40
0.0
  9
$USERR4
 40
0.0
  9
$USERR5
 40
0.0
  9
$WORLDVIEW
 70
     1
  9
$SHADEDGE
 70
     3
  9
$SHADEDIF
 70
    70
  9
$TILEMODE
 70
     1
  9
$MAXACTVP
 70
    64
  9
$PINSBASE
 10
0.0
 20
0.0
 30
0.0
  9
$PLIMCHECK
 70
     0
  9
$PEXTMIN
 10
1.000000000000000E+20
 20
1.000000000000000E+20
 30
1.000000000000000E+20
  9
$PEXTMAX
 10
-1.000000000000000E+20
 20
-1.000000000000000E+20
 30
-1.000000000000000E+20
  9
$PLIMMIN
 10
0.0
 20
0.0
  9
$PLIMMAX
 10
12.0
 20
9.0
  9
$UNITMODE
 70
     0
  9
$VISRETAIN
 70
     1
  9
$PLINEGEN
 70
     0
  9
$PSLTSCALE
 70
     1
  9
$TREEDEPTH
 70
  3020
  9
$CMLSTYLE
  2
Standard
  9
$CMLJUST
 70
     0
  9
$CMLSCALE
 40
1.0
  9
$PROXYGRAPHICS
 70
     1
  9
$MEASUREMENT
 70
     0
  9
$CELWEIGHT
370
    -1
  9
$ENDCAPS
280
     0
  9
$JOINSTYLE
280
     0
  9
$LWDISPLAY
290
     0
  9
$INSUNITS
 70
     4
  9
$HYPERLINKBASE
  1

  9
$STYLESHEET
  1

  9
$XEDIT
290
     1
  9
$CEPSNTYPE
380
     0
  9
$PSTYLEMODE
290
     1
  9
$FINGERPRINTGUID
  2
{4B703D65-B745-4E98-9921-25FF5C87F5FD}
  9
$VERSIONGUID
  2
{FAEB1C32-E019-11D5-929B-00C0DF256EC4}
  9
$EXTNAMES
290
     1
  9
$PSVPSCALE
 40
0.0
  9
$OLESTARTUP
290
     0
  9
$SORTENTS
280
   127
  9
$INDEXCTL
280
     0
  9
$HIDETEXT
280
     1
  9
$XCLIPFRAME
290
     0
  9
$HALOGAP
280
     0
  9
$OBSCOLOR
 70
   257
  9
$OBSLTYPE
280
     0
  9
$INTERSECTIONDISPLAY
280
     0
  9
$INTERSECTIONCOLOR
 70
   257
  9
$DIMASSOC
280
     2
  9
$PROJECTNAME
  1

  9
$CAMERADISPLAY
290
     0
  9
$LENSLENGTH
 40
50.0
  9
$CAMERAHEIGHT
 40
0.0
  9
$STEPSPERSEC
 40
2.0
  9
$STEPSIZE
 40
6.0
  9
$3DDWFPREC
 40
2.0
  9
$PSOLWIDTH
 40
0.25
  9
$PSOLHEIGHT
 40
4.0
  9
$LOFTANG1
 40
1.570796326794897
  9
$LOFTANG2
 40
1.570796326794897
  9
$LOFTMAG1
 40
0.0
  9
$LOFTMAG2
 40
0.0
  9
$LOFTPARAM
 70
     7
  9
$LOFTNORMALS
280
     1
  9
$LATITUDE
 40
37.795
  9
$LONGITUDE
 40
-122.394
  9
$NORTHDIRECTION
 40
0.0
  9
$TIMEZONE
 70
 -8000
  9
$LIGHTGLYPHDISPLAY
280
     1
  9
$TILEMODELIGHTSYNCH
280
     1
  9
$SOLIDHIST
280
     1
  9
$SHOWHIST
280
     1
  9
$DWFFRAME
280
     2
  9
$DGNFRAME
280
     2
  9
$REALWORLDSCALE
290
     1
  9
$INTERFERECOLOR
 62
   256
  9
$CSHADOW
280
     0
  9
$SHADOWPLANELOCATION
 40
0.0
  0
ENDSEC
  0
SECTION
  2
CLASSES
  0
CLASS
  1
ACDBDICTIONARYWDFLT
  2
AcDbDictionaryWithDefault
  3
ObjectDBX Classes
 90
        0
 91
        4
280
     0
281
     0
  0
CLASS
  1
VISUALSTYLE
  2
AcDbVisualStyle
  3
ObjectDBX Classes
 90
     4095
 91
        4
280
     0
281
     0
  0
CLASS
  1
MATERIAL
  2
AcDbMaterial
  3
ObjectDBX Classes
 90
     1153
 91
        4
280
     0
281
     0
  0
ENDSEC
  0
SECTION
  2
TABLES
  0
TABLE
  2
VPORT
  5
8
330
0
100
AcDbSymbolTable
 70
     1
  0
VPORT
  5
29
330
8
100
AcDbSymbolTableRecord
100
AcDbViewportTableRecord
  2
*Active
 70
     0
 10
0.0
 20
0.0
 11
1.0
 21
1.0
 12
10.42990654205607
 22
4.5
 13
0.0
 23
0.0
 14
0.5
 24
0.5
 15
0.5
 25
0.5
 16
0.0
 26
0.0
 36
1.0
 17
0.0
 27
0.0
 37
0.0
 40
9.0
 41
1.972972972850329
 42
50.0
 43
0.0
 44
0.0
 50
0.0
 51
0.0
 71
     0
 72
   100
 73
     1
 74
     3
 75
     0
 76
     0
 77
     0
 78
     0
281
     0
 65
     1
110
0.0
120
0.0
130
0.0
111
1.0
121
0.0
131
0.0
112
0.0
122
1.0
132
0.0
 79
     0
146
0.0
 60
     3
 61
     5
292
     1
282
     1
141
0.0
142
0.0
 63
   250
  0
ENDTAB
  0
TABLE
  2
LTYPE
  5
5
330
0
100
AcDbSymbolTable
 70
     1
  0
LTYPE
  5
14
330
5
100
AcDbSymbolTableRecord
100
AcDbLinetypeTableRecord
  2
ByBlock
 70
     0
  3

 72
    65
 73
     0
 40
0.0
  0
LTYPE
  5
15
330
5
100
AcDbSymbolTableRecord
100
AcDbLinetypeTableRecord
  2
ByLayer
 70
     0
  3

 72
    65
 73
     0
 40
0.0
  0
LTYPE
  5
16
330
5
100
AcDbSymbolTableRecord
100
AcDbLinetypeTableRecord
  2
Continuous
 70
     0
  3
Solid line
 72
    65
 73
     0
 40
0.0
  0
ENDTAB
  0
TABLE
  2
LAYER
  5
2
330
0
100
AcDbSymbolTable
 70
     3
  0
LAYER
  5
10
330
2
100
AcDbSymbolTableRecord
100
AcDbLayerTableRecord
  2
0
 70
     0
 62
     7
  6
Continuous
370
    -3
390
F
347
3E
  0
LAYER
  5
40
330
2
100
AcDbSymbolTableRecord
100
AcDbLayerTableRecord
  2
layer 1
 70
     0
 62
     7
  6
Continuous
370
    -3
390
F
347
3E
  0
LAYER
  5
8F
330
2
100
AcDbSymbolTableRecord
100
AcDbLayerTableRecord
  2
Master Guides
 70
     0
 62
     7
  6
Continuous
370
    -3
390
F
347
3E
  0
ENDTAB
  0
TABLE
  2
STYLE
  5
3
330
0
100
AcDbSymbolTable
 70
     1
  0
STYLE
  5
11
330
3
100
AcDbSymbolTableRecord
100
AcDbTextStyleTableRecord
  2
Standard
 70
     0
 40
0.0
 41
1.0
 50
0.0
 71
     0
 42
0.2
  3
txt
  4

  0
ENDTAB
  0
TABLE
  2
VIEW
  5
6
330
0
100
AcDbSymbolTable
 70
     0
  0
ENDTAB
  0
TABLE
  2
UCS
  5
7
330
0
100
AcDbSymbolTable
 70
     0
  0
ENDTAB
  0
TABLE
  2
APPID
  5
9
330
0
100
AcDbSymbolTable
 70
     2
  0
APPID
  5
12
330
9
100
AcDbSymbolTableRecord
100
AcDbRegAppTableRecord
  2
ACAD
 70
     0
  0
APPID
  5
3F
330
9
100
AcDbSymbolTableRecord
100
AcDbRegAppTableRecord
  2
ODA
 70
     0
  0
ENDTAB
  0
TABLE
  2
DIMSTYLE
  5
A
330
0
100
AcDbSymbolTable
 70
     1
100
AcDbDimStyleTable
  0
DIMSTYLE
105
27
330
A
100
AcDbSymbolTableRecord
100
AcDbDimStyleTableRecord
  2
Standard
 70
     0
178
     0
340
11
  0
ENDTAB
  0
TABLE
  2
BLOCK_RECORD
  5
1
330
0
100
AcDbSymbolTable
 70
     1
  0
BLOCK_RECORD
  5
1F
330
1
100
AcDbSymbolTableRecord
100
AcDbBlockTableRecord
  2
*Model_Space
340
22
 70
     0
280
     1
281
     0
  0
BLOCK_RECORD
  5
1B
330
1
100
AcDbSymbolTableRecord
100
AcDbBlockTableRecord
  2
*Paper_Space
340
1E
 70
     0
280
     1
281
     0
  0
BLOCK_RECORD
  5
23
330
1
100
AcDbSymbolTableRecord
100
AcDbBlockTableRecord
  2
*Paper_Space0
340
26
 70
     0
280
     1
281
     0
  0
ENDTAB
  0
ENDSEC
  0
SECTION
  2
BLOCKS
  0
BLOCK
  5
20
330
1F
100
AcDbEntity
  8
0
100
AcDbBlockBegin
  2
*Model_Space
 70
     0
 10
0.0
 20
0.0
 30
0.0
  3
*Model_Space
  1

  0
ENDBLK
  5
21
330
1F
100
AcDbEntity
  8
0
100
AcDbBlockEnd
  0
BLOCK
  5
1C
330
1B
100
AcDbEntity
 67
     1
  8
0
100
AcDbBlockBegin
  2
*Paper_Space
 70
     0
 10
0.0
 20
0.0
 30
0.0
  3
*Paper_Space
  1

  0
ENDBLK
  5
1D
330
1B
100
AcDbEntity
 67
     1
  8
0
100
AcDbBlockEnd
  0
BLOCK
  5
24
330
23
100
AcDbEntity
  8
0
100
AcDbBlockBegin
  2
*Paper_Space0
 70
     0
 10
0.0
 20
0.0
 30
0.0
  3
*Paper_Space0
  1

  0
ENDBLK
  5
25
330
23
100
AcDbEntity
  8
0
100
AcDbBlockEnd
  0
ENDSEC
  0
SECTION
  2
ENTITIES
  0
SPLINE
  5
41
330
1F
100
AcDbEntity
  8
layer 1
 62
   250
100
AcDbSpline
210
0.0
220
0.0
230
1.0
 70
    11
 71
     3
 72
    20
 73
    16
 74
     0
 42
0.0000000001
 43
0.0000000001
 12
1.0
 22
0.0
 32
0.0
 13
1.0
 23
0.0
 33
0.0
 40
0.0
 40
0.0
 40
0.0
 40
0.0
 40
0.2
 40
0.2
 40
0.2
 40
0.2
 40
0.4
 40
0.4
 40
0.4
 40
0.4
 40
0.6
 40
0.6
 40
0.6
 40
0.6
 40
1.0
 40
1.0
 40
1.0
 40
1.0
 10
196.403
 20
126.3389
 30
0.0
 10
165.0449
 20
126.3389
 30
0.0
 10
136.6416
 20
126.3389
 30
0.0
 10
104.0189
 20
126.3389
 30
0.0
 10
104.0189
 20
126.3389
 30
0.0
 10
104.0189
 20
44.8434
 30
0.0
 10
104.0189
 20
-23.9827
 30
0.0
 10
104.0189
 20
-109.5602
 30
0.0
 10
104.0189
 20
-109.5602
 30
0.0
 10
138.1188
 20
-109.5602
 30
0.0
 10
163.2813
 20
-109.5602
 30
0.0
 10
196.403
 20
-109.5602
 30
0.0
 10
196.403
 20
-109.5602
 30
0.0
 10
196.403
 20
-5.9138
 30
0.0
 10
196.403
 20
31.8426
 30
0.0
 10
196.403
 20
126.3389
 30
0.0
  0
SPLINE
  5
42
330
1F
100
AcDbEntity
  8
layer 1
 62
     7
100
AcDbSpline
210
0.0
220
0.0
230
1.0
 70
    11
 71
     3
 72
    20
 73
    16
 74
     0
 42
0.0000000001
 43
0.0000000001
 12
1.0
 22
0.0
 32
0.0
 13
1.0
 23
0.0
 33
0.0
 40
0.0
 40
0.0
 40
0.0
 40
0.0
 40
0.2
 40
0.2
 40
0.2
 40
0.2
 40
0.4
 40
0.4
 40
0.4
 40
0.4
 40
0.6
 40
0.6
 40
0.6
 40
0.6
 40
1.0
 40
1.0
 40
1.0
 40
1.0
 10
125.9071
 20
112.0948
 30
0.0
 10
124.7426
 20
113.3693
 30
0.0
 10
123.0645
 20
114.1857
 30
0.0
 10
121.3691
 20
113.7315
 30
0.0
 10
121.3691
 20
113.7315
 30
0.0
 10
119.3932
 20
113.2011
 30
0.0
 10
119.8288
 20
110.4186
 30
0.0
 10
122.0139
 20
108.8065
 30
0.0
 10
122.0139
 20
108.8065
 30
0.0
 10
123.5084
 20
107.7033
 30
0.0
 10
125.4109
 20
106.998
 30
0.0
 10
126.6588
 20
107.4784
 30
0.0
 10
126.6588
 20
107.4784
 30
0.0
 10
128.531
 20
108.1977
 30
0.0
 10
126.7693
 20
111.151
 30
0.0
 10
125.9071
 20
112.0948
 30
0.0
  0
SPLINE
  5
43
330
1F
100
AcDbEntity
  8
layer 1
 62
     7
100
AcDbSpline
210
0.0
220
0.0
230
1.0
 70
    11
 71
     3
 72
    16
 73
    12
 74
     0
 42
0.0000000001
 43
0.0000000001
 12
1.0
 22
0.0
 32
0.0
 13
1.0
 23
0.0
 33
0.0
 40
0.0
 40
0.0
 40
0.0
 40
0.0
 40
0.25
 40
0.25
 40
0.25
 40
0.25
 40
0.5
 40
0.5
 40
0.5
 40
0.5
 40
1.0
 40
1.0
 40
1.0
 40
1.0
 10
151.0167
 20
109.8251
 30
0.0
 10
153.2749
 20
110.2888
 30
0.0
 10
147.7383
 20
117.8245
 30
0.0
 10
143.8449
 20
118.3681
 30
0.0
 10
143.8449
 20
118.3681
 30
0.0
 10
140.9922
 20
118.7653
 30
0.0
 10
141.8411
 20
115.8654
 30
0.0
 10
142.7628
 20
114.4167
 30
0.0
 10
142.7628
 20
114.4167
 30
0.0
 10
144.2347
 20
112.1026
 30
0.0
 10
147.8875
 20
109.2506
 30
0.0
 10
151.0167
 20
109.8251
 30
0.0
  0
SPLINE
  5
44
330
1F
100
AcDbEntity
  8
layer 1
 62
     7
100
AcDbSpline
210
0.0
220
0.0
230
1.0
 70
    11
 71
     3
 72
    16
 73
    12
 74
     0
 42
0.0000000001
 43
0.0000000001
 12
1.0
 22
0.0
 32
0.0
 13
1.0
 23
0.0
 33
0.0
 40
0.0
 40
0.0
 40
0.0
 40
0.0
 40
0.25
 40
0.25
 40
0.25
 40
0.25
 40
0.5
 40
0.5
 40
0.5
 40
0.5
 40
1.0
 40
1.0
 40
1.0
 40
1.0
 10
137.6662
 20
97.8405
 30
0.0
 10
139.3994
 20
93.4521
 30
0.0
 10
145.7822
 20
92.8744
 30
0.0
 10
146.6752
 20
95.814
 30
0.0
 10
146.6752
 20
95.814
 30
0.0
 10
147.6
 20
98.8585
 30
0.0
 10
140.9342
 20
103.7783
 30
0.0
 10
137.8839
 20
102.3081
 30
0.0
 10
137.8839
 20
102.3081
 30
0.0
 10
135.7947
 20
101.2207
 30
0.0
 10
136.5902
 20
99.7733
 30
0.0
 10
137.6662
 20
97.8405
 30
0.0
  0
SPLINE
  5
45
330
1F
100
AcDbEntity
  8
layer 1
 62
     7
100
AcDbSpline
210
0.0
220
0.0
230
1.0
 70
    11
 71
     3
 72
    20
 73
    16
 74
     0
 42
0.0000000001
 43
0.0000000001
 12
1.0
 22
0.0
 32
0.0
 13
1.0
 23
0.0
 33
0.0
 40
0.0
 40
0.0
 40
0.0
 40
0.0
 40
0.2
 40
0.2
 40
0.2
 40
0.2
 40
0.4
 40
0.4
 40
0.4
 40
0.4
 40
0.6
 40
0.6
 40
0.6
 40
0.6
 40
1.0
 40
1.0
 40
1.0
 40
1.0
 10
126.6854
 20
102.2931
 30
0.0
 10
127.0975
 20
100.4434
 30
0.0
 10
124.8632
 20
99.3987
 30
0.0
 10
123.444
 20
99.0669
 30
0.0
 10
123.444
 20
99.0669
 30
0.0
 10
121.7926
 20
98.6805
 30
0.0
 10
119.9691
 20
98.8047
 30
0.0
 10
119.3059
 20
99.7517
 30
0.0
 10
119.3059
 20
99.7517
 30
0.0
 10
118.4147
 20
101.0273
 30
0.0
 10
119.5723
 20
102.3927
 30
0.0
 10
120.8215
 20
103.2135
 30
0.0
 10
120.8215
 20
103.2135
 30
0.0
 10
122.4069
 20
104.2532
 30
0.0
 10
126.1321
 20
104.7704
 30
0.0
 10
126.6854
 20
102.2931
 30
0.0
  0
SPLINE
  5
46
330
1F
100
AcDbEntity
  8
layer 1
 62
     7
100
AcDbSpline
210
0.0
220
0.0
230
1.0
 70
    11
 71
     3
 72
    16
 73
    12
 74
     0
 42
0.0000000001
 43
0.0000000001
 12
1.0
 22
0.0
 32
0.0
 13
1.0
 23
0.0
 33
0.0
 40
0.0
 40
0.0
 40
0.0
 40
0.0
 40
0.25
 40
0.25
 40
0.25
 40
0.25
 40
0.5
 40
0.5
 40
0.5
 40
0.5
 40
1.0
 40
1.0
 40
1.0
 40
1.0
 10
115.4189
 20
86.6433
 30
0.0
 10
116.9667
 20
84.9974
 30
0.0
 10
123.2698
 20
92.4274
 30
0.0
 10
123.7377
 20
94.2872
 30
0.0
 10
123.7377
 20
94.2872
 30
0.0
 10
123.9293
 20
95.0456
 30
0.0
 10
123.5299
 20
95.1017
 30
0.0
 10
122.9224
 20
94.8584
 30
0.0
 10
122.9224
 20
94.8584
 30
0.0
 10
121.5436
 20
94.3045
 30
0.0
 10
114.5067
 20
88.6624
 30
0.0
 10
115.4189
 20
86.6433
 30
0.0
  0
SPLINE
  5
47
330
1F
100
AcDbEntity
  8
layer 1
 62
     7
100
AcDbSpline
210
0.0
220
0.0
230
1.0
 70
    11
 71
     3
 72
    24
 73
    20
 74
     0
 42
0.0000000001
 43
0.0000000001
 12
1.0
 22
0.0
 32
0.0
 13
1.0
 23
0.0
 33
0.0
 40
0.0
 40
0.0
 40
0.0
 40
0.0
 40
0.1666666666666667
 40
0.1666666666666667
 40
0.1666666666666667
 40
0.1666666666666667
 40
0.3333333333333333
 40
0.3333333333333333
 40
0.3333333333333333
 40
0.3333333333333333
 40
0.5
 40
0.5
 40
0.5
 40
0.5
 40
0.6666666666666666
 40
0.6666666666666666
 40
0.6666666666666666
 40
0.6666666666666666
 40
1.0
 40
1.0
 40
1.0
 40
1.0
 10
128.4908
 20
96.0048
 30
0.0
 10
128.0969
 20
95.1266
 30
0.0
 10
127.8052
 20
93.7778
 30
0.0
 10
127.8448
 20
92.504
 30
0.0
 10
127.8448
 20
92.504
 30
0.0
 10
127.903
 20
90.6417
 30
0.0
 10
128.6694
 20
88.9388
 30
0.0
 10
130.8605
 20
89.0946
 30
0.0
 10
130.8605
 20
89.0946
 30
0.0
 10
132.3111
 20
89.1978
 30
0.0
 10
133.6549
 20
90.6665
 30
0.0
 10
134.0313
 20
92.5014
 30
0.0
 10
134.0313
 20
92.5014
 30
0.0
 10
134.6023
 20
94.5887
 30
0.0
 10
133.7766
 20
97.5061
 30
0.0
 10
132.3569
 20
99.159
 30
0.0
 10
132.3569
 20
99.159
 30
0.0
 10
130.9353
 20
100.811
 30
0.0
 10
129.7361
 20
98.7819
 30
0.0
 10
128.4908
 20
96.0048
 30
0.0
  0
SPLINE
  5
48
330
1F
100
AcDbEntity
  8
layer 1
 62
     7
100
AcDbSpline
210
0.0
220
0.0
230
1.0
 70
    11
 71
     3
 72
    16
 73
    12
 74
     0
 42
0.0000000001
 43
0.0000000001
 12
1.0
 22
0.0
 32
0.0
 13
1.0
 23
0.0
 33
0.0
 40
0.0
 40
0.0
 40
0.0
 40
0.0
 40
0.25
 40
0.25
 40
0.25
 40
0.25
 40
0.5
 40
0.5
 40
0.5
 40
0.5
 40
1.0
 40
1.0
 40
1.0
 40
1.0
 10
132.875
 20
101.2477
 30
0.0
 10
133.5871
 20
100.869
 30
0.0
 10
134.1986
 20
100.2202
 30
0.0
 10
134.6872
 20
99.4033
 30
0.0
 10
134.6872
 20
99.4033
 30
0.0
 10
134.5237
 20
100.2642
 30
0.0
 10
134.5051
 20
101.1282
 30
0.0
 10
134.7065
 20
101.8901
 30
0.0
 10
134.7065
 20
101.8901
 30
0.0
 10
134.1694
 20
101.5409
 30
0.0
 10
133.5458
 20
101.3136
 30
0.0
 10
132.875
 20
101.2477
 30
0.0
  0
SPLINE
  5
49
330
1F
100
AcDbEntity
  8
layer 1
 62
     7
100
AcDbSpline
210
0.0
220
0.0
230
1.0
 70
    11
 71
     3
 72
    16
 73
    12
 74
     0
 42
0.0000000001
 43
0.0000000001
 12
1.0
 22
0.0
 32
0.0
 13
1.0
 23
0.0
 33
0.0
 40
0.0
 40
0.0
 40
0.0
 40
0.0
 40
0.25
 40
0.25
 40
0.25
 40
0.25
 40
0.5
 40
0.5
 40
0.5
 40
0.5
 40
1.0
 40
1.0
 40
1.0
 40
1.0
 10
130.9649
 20
101.5117
 30
0.0
 10
130.9649
 20
101.5117
 30
0.0
 10
130.5823
 20
101.3636
 30
0.0
 10
130.5823
 20
101.3636
 30
0.0
 10
130.5823
 20
101.3636
 30
0.0
 10
130.7053
 20
101.4234
 30
0.0
 10
130.8366
 20
101.472
 30
0.0
 10
130.9727
 20
101.5088
 30
0.0
 10
130.9727
 20
101.5088
 30
0.0
 10
130.9702
 20
101.5097
 30
0.0
 10
130.9674
 20
101.5106
 30
0.0
 10
130.9649
 20
101.5117
 30
0.0
  0
SPLINE
  5
4A
330
1F
100
AcDbEntity
  8
layer 1
 62
     7
100
AcDbSpline
210
0.0
220
0.0
230
1.0
 70
    11
 71
     3
 72
    20
 73
    16
 74
     0
 42
0.0000000001
 43
0.0000000001
 12
1.0
 22
0.0
 32
0.0
 13
1.0
 23
0.0
 33
0.0
 40
0.0
 40
0.0
 40
0.0
 40
0.0
 40
0.2
 40
0.2
 40
0.2
 40
0.2
 40
0.4
 40
0.4
 40
0.4
 40
0.4
 40
0.6
 40
0.6
 40
0.6
 40
0.6
 40
1.0
 40
1.0
 40
1.0
 40
1.0
 10
129.2478
 20
102.785
 30
0.0
 10
129.2656
 20
102.7397
 30
0.0
 10
129.2826
 20
102.6937
 30
0.0
 10
129.2979
 20
102.6474
 30
0.0
 10
129.2979
 20
102.6474
 30
0.0
 10
129.4888
 20
102.0745
 30
0.0
 10
129.4191
 20
101.3873
 30
0.0
 10
129.1852
 20
100.7384
 30
0.0
 10
129.1852
 20
100.7384
 30
0.0
 10
129.6825
 20
101.0992
 30
0.0
 10
130.2481
 20
101.3754
 30
0.0
 10
130.8884
 20
101.5429
 30
0.0
 10
130.8884
 20
101.5429
 30
0.0
 10
130.2411
 20
101.8127
 30
0.0
 10
129.6776
 20
102.2435
 30
0.0
 10
129.2478
 20
102.785
 30
0.0
  0
SPLINE
  5
4B
330
1F
100
AcDbEntity
  8
layer 1
 62
     7
100
AcDbSpline
210
0.0
220
0.0
230
1.0
 70
    11
 71
     3
 72
    20
 73
    16
 74
     0
 42
0.0000000001
 43
0.0000000001
 12
1.0
 22
0.0
 32
0.0
 13
1.0
 23
0.0
 33
0.0
 40
0.0
 40
0.0
 40
0.0
 40
0.0
 40
0.2
 40
0.2
 40
0.2
 40
0.2
 40
0.4
 40
0.4
 40
0.4
 40
0.4
 40
0.6
 40
0.6
 40
0.6
 40
0.6
 40
1.0
 40
1.0
 40
1.0
 40
1.0
 10
128.3983
 20
105.9107
 30
0.0
 10
127.9344
 20
105.4431
 30
0.0
 10
127.3389
 20
105.157
 30
0.0
 10
126.6637
 20
105.0255
 30
0.0
 10
126.6637
 20
105.0255
 30
0.0
 10
127.4816
 20
104.6841
 30
0.0
 10
128.2212
 20
104.2222
 30
0.0
 10
128.7298
 20
103.6291
 30
0.0
 10
128.7298
 20
103.6291
 30
0.0
 10
128.4914
 20
104.1496
 30
0.0
 10
128.3586
 20
104.7283
 30
0.0
 10
128.3586
 20
105.338
 30
0.0
 10
128.3586
 20
105.338
 30
0.0
 10
128.3586
 20
105.5323
 30
0.0
 10
128.3722
 20
105.7235
 30
0.0
 10
128.3983
 20
105.9107
 30
0.0
  0
SPLINE
  5
4C
330
1F
100
AcDbEntity
  8
layer 1
 62
     7
100
AcDbSpline
210
0.0
220
0.0
230
1.0
 70
    11
 71
     3
 72
    24
 73
    20
 74
     0
 42
0.0000000001
 43
0.0000000001
 12
1.0
 22
0.0
 32
0.0
 13
1.0
 23
0.0
 33
0.0
 40
0.0
 40
0.0
 40
0.0
 40
0.0
 40
0.1666666666666667
 40
0.1666666666666667
 40
0.1666666666666667
 40
0.1666666666666667
 40
0.3333333333333333
 40
0.3333333333333333
 40
0.3333333333333333
 40
0.3333333333333333
 40
0.5
 40
0.5
 40
0.5
 40
0.5
 40
0.6666666666666666
 40
0.6666666666666666
 40
0.6666666666666666
 40
0.6666666666666666
 40
1.0
 40
1.0
 40
1.0
 40
1.0
 10
114.6456
 20
73.5528
 30
0.0
 10
114.3546
 20
72.18
 30
0.0
 10
114.3626
 20
70.7387
 30
0.0
 10
114.6456
 20
69.3418
 30
0.0
 10
114.6456
 20
69.3418
 30
0.0
 10
114.9918
 20
67.6378
 30
0.0
 10
115.7458
 20
65.9991
 30
0.0
 10
116.943
 20
64.7469
 30
0.0
 10
116.943
 20
64.7469
 30
0.0
 10
117.325
 20
64.3477
 30
0.0
 10
117.7521
 20
63.9879
 30
0.0
 10
118.2447
 20
63.7519
 30
0.0
 10
118.2447
 20
63.7519
 30
0.0
 10
118.3412
 20
64.1758
 30
0.0
 10
118.3461
 20
64.6166
 30
0.0
 10
118.3213
 20
65.0536
 30
0.0
 10
118.3213
 20
65.0536
 30
0.0
 10
118.2626
 20
69.1039
 30
0.0
 10
116.7502
 20
72.7142
 30
0.0
 10
114.6456
 20
73.5528
 30
0.0
  0
SPLINE
  5
4D
330
1F
100
AcDbEntity
  8
layer 1
 62
     7
100
AcDbSpline
210
0.0
220
0.0
230
1.0
 70
    11
 71
     3
 72
    80
 73
    76
 74
     0
 42
0.0000000001
 43
0.0000000001
 12
1.0
 22
0.0
 32
0.0
 13
1.0
 23
0.0
 33
0.0
 40
0.0
 40
0.0
 40
0.0
 40
0.0
 40
0.05
 40
0.05
 40
0.05
 40
0.05
 40
0.1
 40
0.1
 40
0.1
 40
0.1
 40
0.15
 40
0.15
 40
0.15
 40
0.15
 40
0.2
 40
0.2
 40
0.2
 40
0.2
 40
0.25
 40
0.25
 40
0.25
 40
0.25
 40
0.3
 40
0.3
 40
0.3
 40
0.3
 40
0.35
 40
0.35
 40
0.35
 40
0.35
 40
0.4
 40
0.4
 40
0.4
 40
0.4
 40
0.45
 40
0.45
 40
0.45
 40
0.45
 40
0.5
 40
0.5
 40
0.5
 40
0.5
 40
0.55
 40
0.55
 40
0.55
 40
0.55
 40
0.6
 40
0.6
 40
0.6
 40
0.6
 40
0.65
 40
0.65
 40
0.65
 40
0.65
 40
0.7
 40
0.7
 40
0.7
 40
0.7
 40
0.75
 40
0.75
 40
0.75
 40
0.75
 40
0.8
 40
0.8
 40
0.8
 40
0.8
 40
0.85
 40
0.85
 40
0.85
 40
0.85
 40
0.9
 40
0.9
 40
0.9
 40
0.9
 40
1.0
 40
1.0
 40
1.0
 40
1.0
 10
134.7848
 20
67.7336
 30
0.0
 10
136.7812
 20
67.6236
 30
0.0
 10
138.7776
 20
67.095
 30
0.0
 10
140.604
 20
66.2786
 30
0.0
 10
140.604
 20
66.2786
 30
0.0
 10
143.6963
 20
64.8959
 30
0.0
 10
146.3021
 20
62.687
 30
0.0
 10
148.6441
 20
60.0761
 30
0.0
 10
148.6441
 20
60.0761
 30
0.0
 10
149.6349
 20
58.9722
 30
0.0
 10
150.5781
 20
57.7965
 30
0.0
 10
151.9366
 20
57.3194
 30
0.0
 10
151.9366
 20
57.3194
 30
0.0
 10
152.2314
 20
57.2162
 30
0.0
 10
152.5461
 20
57.1458
 30
0.0
 10
152.8557
 20
57.1667
 30
0.0
 10
152.8557
 20
57.1667
 30
0.0
 10
152.9398
 20
57.5661
 30
0.0
 10
152.915
 20
57.9844
 30
0.0
 10
152.8557
 20
58.3918
 30
0.0
 10
152.8557
 20
58.3918
 30
0.0
 10
152.6129
 20
60.0655
 30
0.0
 10
151.7877
 20
61.5589
 30
0.0
 10
150.6349
 20
62.9094
 30
0.0
 10
150.6349
 20
62.9094
 30
0.0
 10
149.9295
 20
63.7364
 30
0.0
 10
149.102
 20
64.5097
 30
0.0
 10
148.1083
 20
64.671
 30
0.0
 10
148.1083
 20
64.671
 30
0.0
 10
147.2373
 20
64.8118
 30
0.0
 10
146.2397
 20
64.4844
 30
0.0
 10
145.4281
 20
64.9769
 30
0.0
 10
145.4281
 20
64.9769
 30
0.0
 10
145.1185
 20
65.1648
 30
0.0
 10
144.8353
 20
65.4732
 30
0.0
 10
144.739
 20
65.7426
 30
0.0
 10
144.739
 20
65.7426
 30
0.0
 10
144.4292
 20
66.6074
 30
0.0
 10
146.0314
 20
67.0784
 30
0.0
 10
147.1131
 20
68.0395
 30
0.0
 10
147.1131
 20
68.0395
 30
0.0
 10
147.5859
 20
68.4604
 30
0.0
 10
147.9592
 20
68.9747
 30
0.0
 10
147.8782
 20
69.2652
 30
0.0
 10
147.8782
 20
69.2652
 30
0.0
 10
147.7583
 20
69.6984
 30
0.0
 10
146.6272
 20
69.633
 30
0.0
 10
145.7342
 20
69.4945
 30
0.0
 10
145.7342
 20
69.4945
 30
0.0
 10
144.2891
 20
69.2708
 30
0.0
 10
143.4701
 20
68.8554
 30
0.0
 10
142.3655
 20
68.5761
 30
0.0
 10
142.3655
 20
68.5761
 30
0.0
 10
142.1418
 20
68.5192
 30
0.0
 10
141.907
 20
68.4684
 30
0.0
 10
141.6758
 20
68.4227
 30
0.0
 10
141.6758
 20
68.4227
 30
0.0
 10
141.9365
 20
68.8691
 30
0.0
 10
142.0756
 20
69.3876
 30
0.0
 10
142.2122
 20
69.8778
 30
0.0
 10
142.2122
 20
69.8778
 30
0.0
 10
142.7754
 20
71.9069
 30
0.0
 10
141.8141
 20
74.4608
 30
0.0
 10
139.7349
 20
75.0634
 30
0.0
 10
139.7349
 20
75.0634
 30
0.0
 10
139.9148
 20
73.5775
 30
0.0
 10
140.2492
 20
72.3878
 30
0.0
 10
139.3789
 20
71.0261
 30
0.0
 10
139.3789
 20
71.0261
 30
0.0
 10
138.6552
 20
69.8944
 30
0.0
 10
137.6396
 20
68.8103
 30
0.0
 10
136.3924
 20
68.1928
 30
0.0
 10
136.3924
 20
68.1928
 30
0.0
 10
135.8856
 20
67.9425
 30
0.0
 10
135.341
 20
67.7688
 30
0.0
 10
134.7848
 20
67.7336
 30
0.0
  0
SPLINE
  5
4E
330
1F
100
AcDbEntity
  8
layer 1
 62
     7
100
AcDbSpline
210
0.0
220
0.0
230
1.0
 70
    11
 71
     3
 72
    44
 73
    40
 74
     0
 42
0.0000000001
 43
0.0000000001
 12
1.0
 22
0.0
 32
0.0
 13
1.0
 23
0.0
 33
0.0
 40
0.0
 40
0.0
 40
0.0
 40
0.0
 40
0.0909090909090909
 40
0.0909090909090909
 40
0.0909090909090909
 40
0.0909090909090909
 40
0.1818181818181818
 40
0.1818181818181818
 40
0.1818181818181818
 40
0.1818181818181818
 40
0.2727272727272727
 40
0.2727272727272727
 40
0.2727272727272727
 40
0.2727272727272727
 40
0.3636363636363636
 40
0.3636363636363636
 40
0.3636363636363636
 40
0.3636363636363636
 40
0.4545454545454545
 40
0.4545454545454545
 40
0.4545454545454545
 40
0.4545454545454545
 40
0.5454545454545454
 40
0.5454545454545454
 40
0.5454545454545454
 40
0.5454545454545454
 40
0.6363636363636364
 40
0.6363636363636364
 40
0.6363636363636364
 40
0.6363636363636364
 40
0.7272727272727273
 40
0.7272727272727273
 40
0.7272727272727273
 40
0.7272727272727273
 40
0.8181818181818182
 40
0.8181818181818182
 40
0.8181818181818182
 40
0.8181818181818182
 40
1.0
 40
1.0
 40
1.0
 40
1.0
 10
175.8039
 20
93.6036
 30
0.0
 10
176.3738
 20
93.9874
 30
0.0
 10
177.1514
 20
94.2178
 30
0.0
 10
177.7892
 20
94.1593
 30
0.0
 10
177.7892
 20
94.1593
 30
0.0
 10
178.8597
 20
94.0609
 30
0.0
 10
179.5348
 20
93.1475
 30
0.0
 10
180.5683
 20
92.0948
 30
0.0
 10
180.5683
 20
92.0948
 30
0.0
 10
181.1541
 20
91.4984
 30
0.0
 10
181.855
 20
90.8568
 30
0.0
 10
182.2365
 20
91.062
 30
0.0
 10
182.2365
 20
91.062
 30
0.0
 10
182.5813
 20
91.2481
 30
0.0
 10
182.6647
 20
92.1282
 30
0.0
 10
182.5534
 20
92.8092
 30
0.0
 10
182.5534
 20
92.8092
 30
0.0
 10
182.373
 20
93.9181
 30
0.0
 10
181.677
 20
94.5017
 30
0.0
 10
181.5213
 20
95.5091
 30
0.0
 10
181.5213
 20
95.5091
 30
0.0
 10
181.4527
 20
95.9559
 30
0.0
 10
181.4892
 20
96.4857
 30
0.0
 10
181.6801
 20
96.78
 30
0.0
 10
181.6801
 20
96.78
 30
0.0
 10
182.0955
 20
97.4202
 30
0.0
 10
183.2383
 20
96.9475
 30
0.0
 10
184.4597
 20
96.9387
 30
0.0
 10
184.4597
 20
96.9387
 30
0.0
 10
186.0073
 20
96.9276
 30
0.0
 10
187.6812
 20
97.6619
 30
0.0
 10
187.4772
 20
98.7651
 30
0.0
 10
187.4772
 20
98.7651
 30
0.0
 10
187.4302
 20
99.0211
 30
0.0
 10
187.2818
 20
99.2967
 30
0.0
 10
187.0804
 20
99.4797
 30
0.0
 10
187.0804
 20
99.4797
 30
0.0
 10
182.3879
 20
100.2252
 30
0.0
 10
178.3296
 20
97.4419
 30
0.0
 10
175.8039
 20
93.6036
 30
0.0
  0
SPLINE
  5
4F
330
1F
100
AcDbEntity
  8
layer 1
 62
     7
100
AcDbSpline
210
0.0
220
0.0
230
1.0
 70
    11
 71
     3
 72
    32
 73
    28
 74
     0
 42
0.0000000001
 43
0.0000000001
 12
1.0
 22
0.0
 32
0.0
 13
1.0
 23
0.0
 33
0.0
 40
0.0
 40
0.0
 40
0.0
 40
0.0
 40
0.125
 40
0.125
 40
0.125
 40
0.125
 40
0.25
 40
0.25
 40
0.25
 40
0.25
 40
0.375
 40
0.375
 40
0.375
 40
0.375
 40
0.5
 40
0.5
 40
0.5
 40
0.5
 40
0.625
 40
0.625
 40
0.625
 40
0.625
 40
0.75
 40
0.75
 40
0.75
 40
0.75
 40
1.0
 40
1.0
 40
1.0
 40
1.0
 10
167.3807
 20
88.8388
 30
0.0
 10
167.3683
 20
90.6997
 30
0.0
 10
166.9883
 20
92.5731
 30
0.0
 10
166.262
 20
94.3076
 30
0.0
 10
166.262
 20
94.3076
 30
0.0
 10
165.4627
 20
96.2155
 30
0.0
 10
164.2433
 20
97.9554
 30
0.0
 10
162.6572
 20
99.2789
 30
0.0
 10
162.6572
 20
99.2789
 30
0.0
 10
161.8377
 20
99.9637
 30
0.0
 10
160.9193
 20
100.5373
 30
0.0
 10
159.9235
 20
100.8951
 30
0.0
 10
159.9235
 20
100.8951
 30
0.0
 10
159.8493
 20
100.4452
 30
0.0
 10
159.8759
 20
99.9853
 30
0.0
 10
159.9235
 20
99.5279
 30
0.0
 10
159.9235
 20
99.5279
 30
0.0
 10
160.1664
 20
97.1848
 30
0.0
 10
160.9669
 20
94.8916
 30
0.0
 10
162.2846
 20
92.9402
 30
0.0
 10
162.2846
 20
92.9402
 30
0.0
 10
163.145
 20
91.6664
 30
0.0
 10
164.226
 20
90.5379
 30
0.0
 10
165.516
 20
89.709
 30
0.0
 10
165.516
 20
89.709
 30
0.0
 10
166.0969
 20
89.3356
 30
0.0
 10
166.7199
 20
89.0236
 30
0.0
 10
167.3807
 20
88.8388
 30
0.0
  0
SPLINE
  5
50
330
1F
100
AcDbEntity
  8
layer 1
 62
     7
100
AcDbSpline
210
0.0
220
0.0
230
1.0
 70
    11
 71
     3
 72
    16
 73
    12
 74
     0
 42
0.0000000001
 43
0.0000000001
 12
1.0
 22
0.0
 32
0.0
 13
1.0
 23
0.0
 33
0.0
 40
0.0
 40
0.0
 40
0.0
 40
0.0
 40
0.25
 40
0.25
 40
0.25
 40
0.25
 40
0.5
 40
0.5
 40
0.5
 40
0.5
 40
1.0
 40
1.0
 40
1.0
 40
1.0
 10
172.6455
 20
57.328
 30
0.0
 10
174.5431
 20
58.3491
 30
0.0
 10
176.6415
 20
60.536
 30
0.0
 10
175.4449
 20
62.0472
 30
0.0
 10
175.4449
 20
62.0472
 30
0.0
 10
173.6951
 20
64.2574
 30
0.0
 10
165.9931
 20
60.534
 30
0.0
 10
166.0425
 20
57.6013
 30
0.0
 10
166.0425
 20
57.6013
 30
0.0
 10
166.0803
 20
55.3644
 30
0.0
 10
170.2652
 20
56.2533
 30
0.0
 10
172.6455
 20
57.328
 30
0.0
  0
SPLINE
  5
51
330
1F
100
AcDbEntity
  8
layer 1
 62
     7
100
AcDbSpline
210
0.0
220
0.0
230
1.0
 70
    11
 71
     3
 72
    16
 73
    12
 74
     0
 42
0.0000000001
 43
0.0000000001
 12
1.0
 22
0.0
 32
0.0
 13
1.0
 23
0.0
 33
0.0
 40
0.0
 40
0.0
 40
0.0
 40
0.0
 40
0.25
 40
0.25
 40
0.25
 40
0.25
 40
0.5
 40
0.5
 40
0.5
 40
0.5
 40
1.0
 40
1.0
 40
1.0
 40
1.0
 10
173.1715
 20
66.8249
 30
0.0
 10
174.3097
 20
68.3479
 30
0.0
 10
170.5289
 20
70.3664
 30
0.0
 10
169.5847
 20
70.6732
 30
0.0
 10
169.5847
 20
70.6732
 30
0.0
 10
168.3542
 20
71.0724
 30
0.0
 10
165.6977
 20
71.4821
 30
0.0
 10
165.1998
 20
70.2875
 30
0.0
 10
165.1998
 20
70.2875
 30
0.0
 10
164.1951
 20
67.8775
 30
0.0
 10
172.3301
 20
64.957
 30
0.0
 10
173.1715
 20
66.8249
 30
0.0
  0
SPLINE
  5
52
330
1F
100
AcDbEntity
  8
layer 1
 62
     7
100
AcDbSpline
210
0.0
220
0.0
230
1.0
 70
    11
 71
     3
 72
    16
 73
    12
 74
     0
 42
0.0000000001
 43
0.0000000001
 12
1.0
 22
0.0
 32
0.0
 13
1.0
 23
0.0
 33
0.0
 40
0.0
 40
0.0
 40
0.0
 40
0.0
 40
0.25
 40
0.25
 40
0.25
 40
0.25
 40
0.5
 40
0.5
 40
0.5
 40
0.5
 40
1.0
 40
1.0
 40
1.0
 40
1.0
 10
173.4973
 20
75.6297
 30
0.0
 10
174.197
 20
71.2702
 30
0.0
 10
176.4085
 20
69.9712
 30
0.0
 10
177.7489
 20
70.7785
 30
0.0
 10
177.7489
 20
70.7785
 30
0.0
 10
179.0891
 20
71.5858
 30
0.0
 10
179.5579
 20
74.4991
 30
0.0
 10
176.7725
 20
78.5639
 30
0.0
 10
176.7725
 20
78.5639
 30
0.0
 10
174.2716
 20
82.2132
 30
0.0
 10
173.2401
 20
78.0744
 30
0.0
 10
173.4973
 20
75.6297
 30
0.0
  0
SPLINE
  5
53
330
1F
100
AcDbEntity
  8
layer 1
 62
     7
100
AcDbSpline
210
0.0
220
0.0
230
1.0
 70
    11
 71
     3
 72
    24
 73
    20
 74
     0
 42
0.0000000001
 43
0.0000000001
 12
1.0
 22
0.0
 32
0.0
 13
1.0
 23
0.0
 33
0.0
 40
0.0
 40
0.0
 40
0.0
 40
0.0
 40
0.1666666666666667
 40
0.1666666666666667
 40
0.1666666666666667
 40
0.1666666666666667
 40
0.3333333333333333
 40
0.3333333333333333
 40
0.3333333333333333
 40
0.3333333333333333
 40
0.5
 40
0.5
 40
0.5
 40
0.5
 40
0.6666666666666666
 40
0.6666666666666666
 40
0.6666666666666666
 40
0.6666666666666666
 40
1.0
 40
1.0
 40
1.0
 40
1.0
 10
183.2149
 20
69.6948
 30
0.0
 10
184.6067
 20
67.7478
 30
0.0
 10
190.0009
 20
70.9217
 30
0.0
 10
190.845
 20
72.3686
 30
0.0
 10
190.845
 20
72.3686
 30
0.0
 10
191.2302
 20
73.0281
 30
0.0
 10
191.5244
 20
73.8272
 30
0.0
 10
191.3019
 20
74.5208
 30
0.0
 10
191.3019
 20
74.5208
 30
0.0
 10
191.1196
 20
75.0882
 30
0.0
 10
190.5911
 20
75.5845
 30
0.0
 10
189.9978
 20
75.76
 30
0.0
 10
189.9978
 20
75.76
 30
0.0
 10
188.4389
 20
76.2193
 30
0.0
 10
184.7509
 20
74.098
 30
0.0
 10
183.4225
 20
71.9966
 30
0.0
 10
183.4225
 20
71.9966
 30
0.0
 10
182.9028
 20
71.1738
 30
0.0
 10
182.7439
 20
70.3543
 30
0.0
 10
183.2149
 20
69.6948
 30
0.0
  0
SPLINE
  5
54
330
1F
100
AcDbEntity
  8
layer 1
 62
     7
100
AcDbSpline
210
0.0
220
0.0
230
1.0
 70
    11
 71
     3
 72
    16
 73
    12
 74
     0
 42
0.0000000001
 43
0.0000000001
 12
1.0
 22
0.0
 32
0.0
 13
1.0
 23
0.0
 33
0.0
 40
0.0
 40
0.0
 40
0.0
 40
0.0
 40
0.25
 40
0.25
 40
0.25
 40
0.25
 40
0.5
 40
0.5
 40
0.5
 40
0.5
 40
1.0
 40
1.0
 40
1.0
 40
1.0
 10
177.1496
 20
65.9121
 30
0.0
 10
176.89
 20
65.082
 30
0.0
 10
177.9983
 20
63.8953
 30
0.0
 10
179.1713
 20
63.6949
 30
0.0
 10
179.1713
 20
63.6949
 30
0.0
 10
180.4094
 20
63.4837
 30
0.0
 10
181.7197
 20
64.3712
 30
0.0
 10
181.8452
 20
65.3903
 30
0.0
 10
181.8452
 20
65.3903
 30
0.0
 10
182.1557
 20
67.9089
 30
0.0
 10
177.8001
 20
69.273
 30
0.0
 10
177.1496
 20
65.9121
 30
0.0
  0
SPLINE
  5
55
330
1F
100
AcDbEntity
  8
layer 1
 62
     7
100
AcDbSpline
210
0.0
220
0.0
230
1.0
 70
    11
 71
     3
 72
    20
 73
    16
 74
     0
 42
0.0000000001
 43
0.0000000001
 12
1.0
 22
0.0
 32
0.0
 13
1.0
 23
0.0
 33
0.0
 40
0.0
 40
0.0
 40
0.0
 40
0.0
 40
0.2
 40
0.2
 40
0.2
 40
0.2
 40
0.4
 40
0.4
 40
0.4
 40
0.4
 40
0.6
 40
0.6
 40
0.6
 40
0.6
 40
1.0
 40
1.0
 40
1.0
 40
1.0
 10
183.5081
 20
66.0283
 30
0.0
 10
183.5081
 20
66.0283
 30
0.0
 10
183.5083
 20
66.0285
 30
0.0
 10
183.5083
 20
66.0285
 30
0.0
 10
183.5083
 20
66.0285
 30
0.0
 10
183.5083
 20
66.0285
 30
0.0
 10
183.5085
 20
66.0285
 30
0.0
 10
183.5085
 20
66.0285
 30
0.0
 10
183.5085
 20
66.0285
 30
0.0
 10
183.5085
 20
66.0285
 30
0.0
 10
183.5085
 20
66.0285
 30
0.0
 10
183.5085
 20
66.0285
 30
0.0
 10
183.5085
 20
66.0285
 30
0.0
 10
183.5085
 20
66.0285
 30
0.0
 10
183.5081
 20
66.0283
 30
0.0
 10
183.5081
 20
66.0283
 30
0.0
  0
SPLINE
  5
56
330
1F
100
AcDbEntity
  8
layer 1
 62
     7
100
AcDbSpline
210
0.0
220
0.0
230
1.0
 70
    11
 71
     3
 72
    24
 73
    20
 74
     0
 42
0.0000000001
 43
0.0000000001
 12
1.0
 22
0.0
 32
0.0
 13
1.0
 23
0.0
 33
0.0
 40
0.0
 40
0.0
 40
0.0
 40
0.0
 40
0.1666666666666667
 40
0.1666666666666667
 40
0.1666666666666667
 40
0.1666666666666667
 40
0.3333333333333333
 40
0.3333333333333333
 40
0.3333333333333333
 40
0.3333333333333333
 40
0.5
 40
0.5
 40
0.5
 40
0.5
 40
0.6666666666666666
 40
0.6666666666666666
 40
0.6666666666666666
 40
0.6666666666666666
 40
1.0
 40
1.0
 40
1.0
 40
1.0
 10
181.6306
 20
47.7577
 30
0.0
 10
183.6376
 20
47.3039
 30
0.0
 10
185.639
 20
47.563
 30
0.0
 10
186.4023
 20
48.7596
 30
0.0
 10
186.4023
 20
48.7596
 30
0.0
 10
186.4122
 20
49.979
 30
0.0
 10
181.8118
 20
51.319
 30
0.0
 10
180.8865
 20
51.5929
 30
0.0
 10
180.8865
 20
51.5929
 30
0.0
 10
178.5507
 20
52.2841
 30
0.0
 10
176.8538
 20
52.6253
 30
0.0
 10
175.6917
 20
52.7151
 30
0.0
 10
175.6917
 20
52.7151
 30
0.0
 10
175.1099
 20
52.2838
 30
0.0
 10
174.4942
 20
51.8988
 30
0.0
 10
173.8565
 20
51.5651
 30
0.0
 10
173.8565
 20
51.5651
 30
0.0
 10
174.6553
 20
50.391
 30
0.0
 10
177.7447
 20
48.6368
 30
0.0
 10
181.6306
 20
47.7577
 30
0.0
  0
SPLINE
  5
57
330
1F
100
AcDbEntity
  8
layer 1
 62
     7
100
AcDbSpline
210
0.0
220
0.0
230
1.0
 70
    11
 71
     3
 72
    28
 73
    24
 74
     0
 42
0.0000000001
 43
0.0000000001
 12
1.0
 22
0.0
 32
0.0
 13
1.0
 23
0.0
 33
0.0
 40
0.0
 40
0.0
 40
0.0
 40
0.0
 40
0.1428571428571428
 40
0.1428571428571428
 40
0.1428571428571428
 40
0.1428571428571428
 40
0.2857142857142857
 40
0.2857142857142857
 40
0.2857142857142857
 40
0.2857142857142857
 40
0.4285714285714285
 40
0.4285714285714285
 40
0.4285714285714285
 40
0.4285714285714285
 40
0.5714285714285714
 40
0.5714285714285714
 40
0.5714285714285714
 40
0.5714285714285714
 40
0.7142857142857143
 40
0.7142857142857143
 40
0.7142857142857143
 40
0.7142857142857143
 40
1.0
 40
1.0
 40
1.0
 40
1.0
 10
162.1106
 20
47.1481
 30
0.0
 10
162.3695
 20
45.7198
 30
0.0
 10
162.8933
 20
44.3606
 30
0.0
 10
163.5267
 20
43.0288
 30
0.0
 10
163.5267
 20
43.0288
 30
0.0
 10
164.6091
 20
40.7535
 30
0.0
 10
166.0128
 20
38.5562
 30
0.0
 10
168.0329
 20
37.1073
 30
0.0
 10
168.0329
 20
37.1073
 30
0.0
 10
169.4928
 20
36.0599
 30
0.0
 10
171.2745
 20
35.4038
 30
0.0
 10
173.0533
 20
35.1763
 30
0.0
 10
173.0533
 20
35.1763
 30
0.0
 10
173.1762
 20
35.9867
 30
0.0
 10
173.0226
 20
36.8088
 30
0.0
 10
172.7958
 20
37.6223
 30
0.0
 10
172.7958
 20
37.6223
 30
0.0
 10
171.6841
 20
41.6055
 30
0.0
 10
168.8096
 20
45.3657
 30
0.0
 10
164.9426
 20
46.7619
 30
0.0
 10
164.9426
 20
46.7619
 30
0.0
 10
164.0262
 20
47.0932
 30
0.0
 10
163.0527
 20
47.2915
 30
0.0
 10
162.1106
 20
47.1481
 30
0.0
  0
SPLINE
  5
58
330
1F
100
AcDbEntity
  8
layer 1
 62
     7
100
AcDbSpline
210
0.0
220
0.0
230
1.0
 70
    11
 71
     3
 72
    28
 73
    24
 74
     0
 42
0.0000000001
 43
0.0000000001
 12
1.0
 22
0.0
 32
0.0
 13
1.0
 23
0.0
 33
0.0
 40
0.0
 40
0.0
 40
0.0
 40
0.0
 40
0.1428571428571428
 40
0.1428571428571428
 40
0.1428571428571428
 40
0.1428571428571428
 40
0.2857142857142857
 40
0.2857142857142857
 40
0.2857142857142857
 40
0.2857142857142857
 40
0.4285714285714285
 40
0.4285714285714285
 40
0.4285714285714285
 40
0.4285714285714285
 40
0.5714285714285714
 40
0.5714285714285714
 40
0.5714285714285714
 40
0.5714285714285714
 40
0.7142857142857143
 40
0.7142857142857143
 40
0.7142857142857143
 40
0.7142857142857143
 40
1.0
 40
1.0
 40
1.0
 40
1.0
 10
131.635
 20
36.7531
 30
0.0
 10
131.525
 20
35.8619
 30
0.0
 10
131.6658
 20
34.9324
 30
0.0
 10
131.9378
 20
34.0762
 30
0.0
 10
131.9378
 20
34.0762
 30
0.0
 10
132.4229
 20
32.5521
 30
0.0
 10
133.326
 20
31.2628
 30
0.0
 10
134.4535
 20
30.0742
 30
0.0
 10
134.4535
 20
30.0742
 30
0.0
 10
135.4937
 20
28.9783
 30
0.0
 10
137.7571
 20
26.6358
 30
0.0
 10
140.5236
 20
26.7031
 30
0.0
 10
140.5236
 20
26.7031
 30
0.0
 10
140.4823
 20
27.482
 30
0.0
 10
140.2585
 20
28.2422
 30
0.0
 10
139.968
 20
28.9752
 30
0.0
 10
139.968
 20
28.9752
 30
0.0
 10
139.0903
 20
31.1917
 30
0.0
 10
137.6033
 20
33.1615
 30
0.0
 10
135.7254
 20
34.6319
 30
0.0
 10
135.7254
 20
34.6319
 30
0.0
 10
134.5022
 20
35.5899
 30
0.0
 10
133.1134
 20
36.3366
 30
0.0
 10
131.635
 20
36.7531
 30
0.0
  0
SPLINE
  5
59
330
1F
100
AcDbEntity
  8
layer 1
 62
     7
100
AcDbSpline
210
0.0
220
0.0
230
1.0
 70
    11
 71
     3
 72
    24
 73
    20
 74
     0
 42
0.0000000001
 43
0.0000000001
 12
1.0
 22
0.0
 32
0.0
 13
1.0
 23
0.0
 33
0.0
 40
0.0
 40
0.0
 40
0.0
 40
0.0
 40
0.1666666666666667
 40
0.1666666666666667
 40
0.1666666666666667
 40
0.1666666666666667
 40
0.3333333333333333
 40
0.3333333333333333
 40
0.3333333333333333
 40
0.3333333333333333
 40
0.5
 40
0.5
 40
0.5
 40
0.5
 40
0.6666666666666666
 40
0.6666666666666666
 40
0.6666666666666666
 40
0.6666666666666666
 40
1.0
 40
1.0
 40
1.0
 40
1.0
 10
124.8829
 20
15.331
 30
0.0
 10
125.7389
 20
15.1395
 30
0.0
 10
126.6223
 20
15.1951
 30
0.0
 10
127.5153
 20
15.331
 30
0.0
 10
127.5153
 20
15.331
 30
0.0
 10
130.193
 20
15.7395
 30
0.0
 10
132.9582
 20
16.8719
 30
0.0
 10
134.4602
 20
19.0834
 30
0.0
 10
134.4602
 20
19.0834
 30
0.0
 10
134.8619
 20
19.6749
 30
0.0
 10
135.1735
 20
20.3437
 30
0.0
 10
135.2445
 20
21.0434
 30
0.0
 10
135.2445
 20
21.0434
 30
0.0
 10
134.6098
 20
21.2035
 30
0.0
 10
133.9348
 20
21.2214
 30
0.0
 10
133.284
 20
21.1559
 30
0.0
 10
133.284
 20
21.1559
 30
0.0
 10
130.6779
 20
20.8928
 30
0.0
 10
124.7835
 20
18.6903
 30
0.0
 10
124.8829
 20
15.331
 30
0.0
  0
SPLINE
  5
5A
330
1F
100
AcDbEntity
  8
layer 1
 62
     7
100
AcDbSpline
210
0.0
220
0.0
230
1.0
 70
    11
 71
     3
 72
    16
 73
    12
 74
     0
 42
0.0000000001
 43
0.0000000001
 12
1.0
 22
0.0
 32
0.0
 13
1.0
 23
0.0
 33
0.0
 40
0.0
 40
0.0
 40
0.0
 40
0.0
 40
0.25
 40
0.25
 40
0.25
 40
0.25
 40
0.5
 40
0.5
 40
0.5
 40
0.5
 40
1.0
 40
1.0
 40
1.0
 40
1.0
 10
145.0314
 20
24.1505
 30
0.0
 10
146.3231
 20
23.2308
 30
0.0
 10
148.0668
 20
22.6189
 30
0.0
 10
149.8858
 20
22.3233
 30
0.0
 10
149.8858
 20
22.3233
 30
0.0
 10
152.3662
 20
21.9203
 30
0.0
 10
155.4844
 20
21.9674
 30
0.0
 10
157.7076
 20
23.3364
 30
0.0
 10
157.7076
 20
23.3364
 30
0.0
 10
156.6854
 20
26.4466
 30
0.0
 10
146.8089
 20
26.6871
 30
0.0
 10
145.0314
 20
24.1505
 30
0.0
  0
SPLINE
  5
5B
330
1F
100
AcDbEntity
  8
layer 1
 62
     7
100
AcDbSpline
210
0.0
220
0.0
230
1.0
 70
    11
 71
     3
 72
    16
 73
    12
 74
     0
 42
0.0000000001
 43
0.0000000001
 12
1.0
 22
0.0
 32
0.0
 13
1.0
 23
0.0
 33
0.0
 40
0.0
 40
0.0
 40
0.0
 40
0.0
 40
0.25
 40
0.25
 40
0.25
 40
0.25
 40
0.5
 40
0.5
 40
0.5
 40
0.5
 40
1.0
 40
1.0
 40
1.0
 40
1.0
 10
147.2596
 20
11.3141
 30
0.0
 10
147.7233
 20
14.2015
 30
0.0
 10
147.0445
 20
19.9668
 30
0.0
 10
143.0912
 20
21.9902
 30
0.0
 10
143.0912
 20
21.9902
 30
0.0
 10
142.821
 20
22.0595
 30
0.0
 10
142.5331
 20
22.1108
 30
0.0
 10
142.36
 20
21.9902
 30
0.0
 10
142.36
 20
21.9902
 30
0.0
 10
141.0716
 20
21.0922
 30
0.0
 10
143.5997
 20
12.2465
 30
0.0
 10
147.2596
 20
11.3141
 30
0.0
  0
SPLINE
  5
5C
330
1F
100
AcDbEntity
  8
layer 1
 62
     7
100
AcDbSpline
210
0.0
220
0.0
230
1.0
 70
    11
 71
     3
 72
    52
 73
    48
 74
     0
 42
0.0000000001
 43
0.0000000001
 12
1.0
 22
0.0
 32
0.0
 13
1.0
 23
0.0
 33
0.0
 40
0.0
 40
0.0
 40
0.0
 40
0.0
 40
0.0769230769230769
 40
0.0769230769230769
 40
0.0769230769230769
 40
0.0769230769230769
 40
0.1538461538461539
 40
0.1538461538461539
 40
0.1538461538461539
 40
0.1538461538461539
 40
0.2307692307692308
 40
0.2307692307692308
 40
0.2307692307692308
 40
0.2307692307692308
 40
0.3076923076923077
 40
0.3076923076923077
 40
0.3076923076923077
 40
0.3076923076923077
 40
0.3846153846153846
 40
0.3846153846153846
 40
0.3846153846153846
 40
0.3846153846153846
 40
0.4615384615384616
 40
0.4615384615384616
 40
0.4615384615384616
 40
0.4615384615384616
 40
0.5384615384615384
 40
0.5384615384615384
 40
0.5384615384615384
 40
0.5384615384615384
 40
0.6153846153846154
 40
0.6153846153846154
 40
0.6153846153846154
 40
0.6153846153846154
 40
0.6923076923076923
 40
0.6923076923076923
 40
0.6923076923076923
 40
0.6923076923076923
 40
0.7692307692307693
 40
0.7692307692307693
 40
0.7692307692307693
 40
0.7692307692307693
 40
0.8461538461538461
 40
0.8461538461538461
 40
0.8461538461538461
 40
0.8461538461538461
 40
1.0
 40
1.0
 40
1.0
 40
1.0
 10
192.0114
 20
15.2216
 30
0.0
 10
190.9328
 20
16.524
 30
0.0
 10
189.7054
 20
17.7051
 30
0.0
 10
188.3902
 20
18.7731
 30
0.0
 10
188.3902
 20
18.7731
 30
0.0
 10
186.4673
 20
20.3362
 30
0.0
 10
184.357
 20
21.6576
 30
0.0
 10
182.1227
 20
22.7431
 30
0.0
 10
182.1227
 20
22.7431
 30
0.0
 10
180.0201
 20
23.7642
 30
0.0
 10
177.8065
 20
24.5757
 30
0.0
 10
175.5067
 20
24.9713
 30
0.0
 10
175.5067
 20
24.9713
 30
0.0
 10
174.082
 20
25.2166
 30
0.0
 10
172.6245
 20
25.3026
 30
0.0
 10
171.1887
 20
25.1801
 30
0.0
 10
171.1887
 20
25.1801
 30
0.0
 10
171.4252
 20
24.3075
 30
0.0
 10
173.2707
 20
22.1185
 30
0.0
 10
173.0536
 20
21.6618
 30
0.0
 10
173.0536
 20
21.6618
 30
0.0
 10
172.9568
 20
21.4573
 30
0.0
 10
172.5342
 20
21.0247
 30
0.0
 10
172.3031
 20
20.8627
 30
0.0
 10
172.3031
 20
20.8627
 30
0.0
 10
171.521
 20
20.3151
 30
0.0
 10
170.5984
 20
19.7723
 30
0.0
 10
169.7329
 20
19.1681
 30
0.0
 10
169.7329
 20
19.1681
 30
0.0
 10
163.3523
 20
14.7135
 30
0.0
 10
169.8619
 20
9.1301
 30
0.0
 10
169.9352
 20
9.372
 30
0.0
 10
169.9352
 20
9.372
 30
0.0
 10
169.9971
 20
9.5765
 30
0.0
 10
169.8029
 20
10.1985
 30
0.0
 10
169.6564
 20
10.7646
 30
0.0
 10
169.6564
 20
10.7646
 30
0.0
 10
168.7703
 20
14.1942
 30
0.0
 10
169.8478
 20
17.8941
 30
0.0
 10
172.9836
 20
19.9301
 30
0.0
 10
172.9836
 20
19.9301
 30
0.0
 10
176.6309
 20
22.2983
 30
0.0
 10
180.9968
 20
22.0165
 30
0.0
 10
185.1052
 20
20.1286
 30
0.0
 10
185.1052
 20
20.1286
 30
0.0
 10
187.5703
 20
18.996
 30
0.0
 10
189.9427
 20
17.2851
 30
0.0
 10
192.0114
 20
15.2216
 30
0.0
  0
SPLINE
  5
5D
330
1F
100
AcDbEntity
  8
layer 1
 62
     7
100
AcDbSpline
210
0.0
220
0.0
230
1.0
 70
    11
 71
     3
 72
    16
 73
    12
 74
     0
 42
0.0000000001
 43
0.0000000001
 12
1.0
 22
0.0
 32
0.0
 13
1.0
 23
0.0
 33
0.0
 40
0.0
 40
0.0
 40
0.0
 40
0.0
 40
0.25
 40
0.25
 40
0.25
 40
0.25
 40
0.5
 40
0.5
 40
0.5
 40
0.5
 40
1.0
 40
1.0
 40
1.0
 40
1.0
 10
140.7122
 20
-71.879
 30
0.0
 10
140.8963
 20
-73.0596
 30
0.0
 10
141.3588
 20
-74.1777
 30
0.0
 10
141.965
 20
-75.2372
 30
0.0
 10
141.965
 20
-75.2372
 30
0.0
 10
143.5871
 20
-78.0708
 30
0.0
 10
146.3864
 20
-80.5118
 30
0.0
 10
149.835
 20
-80.1999
 30
0.0
 10
149.835
 20
-80.1999
 30
0.0
 10
149.2308
 20
-76.0963
 30
0.0
 10
145.2894
 20
-72.1178
 30
0.0
 10
140.7122
 20
-71.879
 30
0.0
  0
SPLINE
  5
5E
330
1F
100
AcDbEntity
  8
layer 1
 62
     7
100
AcDbSpline
210
0.0
220
0.0
230
1.0
 70
    11
 71
     3
 72
    16
 73
    12
 74
     0
 42
0.0000000001
 43
0.0000000001
 12
1.0
 22
0.0
 32
0.0
 13
1.0
 23
0.0
 33
0.0
 40
0.0
 40
0.0
 40
0.0
 40
0.0
 40
0.25
 40
0.25
 40
0.25
 40
0.25
 40
0.5
 40
0.5
 40
0.5
 40
0.5
 40
1.0
 40
1.0
 40
1.0
 40
1.0
 10
118.5043
 20
-77.9216
 30
0.0
 10
118.6174
 20
-79.5817
 30
0.0
 10
120.2782
 20
-80.7683
 30
0.0
 10
122.2104
 20
-81.3957
 30
0.0
 10
122.2104
 20
-81.3957
 30
0.0
 10
123.4249
 20
-81.7902
 30
0.0
 10
124.7465
 20
-81.9638
 30
0.0
 10
125.3954
 20
-81.164
 30
0.0
 10
125.3954
 20
-81.164
 30
0.0
 10
127.6277
 20
-78.416
 30
0.0
 10
118.1544
 20
-72.7607
 30
0.0
 10
118.5043
 20
-77.9216
 30
0.0
  0
SPLINE
  5
5F
330
1F
100
AcDbEntity
  8
layer 1
 62
     7
100
AcDbSpline
210
0.0
220
0.0
230
1.0
 70
    11
 71
     3
 72
    28
 73
    24
 74
     0
 42
0.0000000001
 43
0.0000000001
 12
1.0
 22
0.0
 32
0.0
 13
1.0
 23
0.0
 33
0.0
 40
0.0
 40
0.0
 40
0.0
 40
0.0
 40
0.1428571428571428
 40
0.1428571428571428
 40
0.1428571428571428
 40
0.1428571428571428
 40
0.2857142857142857
 40
0.2857142857142857
 40
0.2857142857142857
 40
0.2857142857142857
 40
0.4285714285714285
 40
0.4285714285714285
 40
0.4285714285714285
 40
0.4285714285714285
 40
0.5714285714285714
 40
0.5714285714285714
 40
0.5714285714285714
 40
0.5714285714285714
 40
0.7142857142857143
 40
0.7142857142857143
 40
0.7142857142857143
 40
0.7142857142857143
 40
1.0
 40
1.0
 40
1.0
 40
1.0
 10
122.5563
 20
-84.7818
 30
0.0
 10
121.1021
 20
-84.657
 30
0.0
 10
118.6036
 20
-85.2397
 30
0.0
 10
117.5312
 20
-86.3655
 30
0.0
 10
117.5312
 20
-86.3655
 30
0.0
 10
116.737
 20
-87.1991
 30
0.0
 10
116.6082
 20
-87.979
 30
0.0
 10
117.4909
 20
-88.792
 30
0.0
 10
117.4909
 20
-88.792
 30
0.0
 10
118.6244
 20
-89.8363
 30
0.0
 10
120.7323
 20
-89.9147
 30
0.0
 10
121.763
 20
-89.9218
 30
0.0
 10
121.763
 20
-89.9218
 30
0.0
 10
123.4469
 20
-89.9337
 30
0.0
 10
125.1799
 20
-89.3909
 30
0.0
 10
125.7502
 20
-87.9425
 30
0.0
 10
125.7502
 20
-87.9425
 30
0.0
 10
125.9319
 20
-87.45
 30
0.0
 10
125.9881
 20
-86.835
 30
0.0
 10
125.7502
 20
-86.4048
 30
0.0
 10
125.7502
 20
-86.4048
 30
0.0
 10
125.291
 20
-85.5754
 30
0.0
 10
123.8186
 20
-84.8896
 30
0.0
 10
122.5563
 20
-84.7818
 30
0.0
  0
SPLINE
  5
60
330
1F
100
AcDbEntity
  8
layer 1
 62
     7
100
AcDbSpline
210
0.0
220
0.0
230
1.0
 70
    11
 71
     3
 72
    16
 73
    12
 74
     0
 42
0.0000000001
 43
0.0000000001
 12
1.0
 22
0.0
 32
0.0
 13
1.0
 23
0.0
 33
0.0
 40
0.0
 40
0.0
 40
0.0
 40
0.0
 40
0.25
 40
0.25
 40
0.25
 40
0.25
 40
0.5
 40
0.5
 40
0.5
 40
0.5
 40
1.0
 40
1.0
 40
1.0
 40
1.0
 10
112.9589
 20
-99.4949
 30
0.0
 10
113.0206
 20
-99.9295
 30
0.0
 10
115.6037
 20
-99.4254
 30
0.0
 10
117.1043
 20
-98.6101
 30
0.0
 10
117.1043
 20
-98.6101
 30
0.0
 10
118.5251
 20
-97.838
 30
0.0
 10
119.9082
 20
-96.4763
 30
0.0
 10
120.9899
 20
-95.4254
 30
0.0
 10
120.9899
 20
-95.4254
 30
0.0
 10
127.997
 20
-88.6176
 30
0.0
 10
111.9872
 20
-94.7506
 30
0.0
 10
112.9589
 20
-99.4949
 30
0.0
  0
SPLINE
  5
61
330
1F
100
AcDbEntity
  8
layer 1
 62
     7
100
AcDbSpline
210
0.0
220
0.0
230
1.0
 70
    11
 71
     3
 72
    24
 73
    20
 74
     0
 42
0.0000000001
 43
0.0000000001
 12
1.0
 22
0.0
 32
0.0
 13
1.0
 23
0.0
 33
0.0
 40
0.0
 40
0.0
 40
0.0
 40
0.0
 40
0.1666666666666667
 40
0.1666666666666667
 40
0.1666666666666667
 40
0.1666666666666667
 40
0.3333333333333333
 40
0.3333333333333333
 40
0.3333333333333333
 40
0.3333333333333333
 40
0.5
 40
0.5
 40
0.5
 40
0.5
 40
0.6666666666666666
 40
0.6666666666666666
 40
0.6666666666666666
 40
0.6666666666666666
 40
1.0
 40
1.0
 40
1.0
 40
1.0
 10
126.1005
 20
-91.4419
 30
0.0
 10
125.0382
 20
-92.5365
 30
0.0
 10
124.1342
 20
-93.9203
 30
0.0
 10
124.2177
 20
-95.3791
 30
0.0
 10
124.2177
 20
-95.3791
 30
0.0
 10
124.306
 20
-96.9297
 30
0.0
 10
125.51
 20
-98.565
 30
0.0
 10
127.0417
 20
-99.0591
 30
0.0
 10
127.0417
 20
-99.0591
 30
0.0
 10
128.5092
 20
-99.5327
 30
0.0
 10
130.2785
 20
-98.9596
 30
0.0
 10
131.321
 20
-97.861
 30
0.0
 10
131.321
 20
-97.861
 30
0.0
 10
132.5154
 20
-96.604
 30
0.0
 10
132.7581
 20
-94.6581
 30
0.0
 10
132.4342
 20
-92.8972
 30
0.0
 10
132.4342
 20
-92.8972
 30
0.0
 10
131.6944
 20
-88.8761
 30
0.0
 10
128.8219
 20
-88.6402
 30
0.0
 10
126.1005
 20
-91.4419
 30
0.0
  0
SPLINE
  5
62
330
1F
100
AcDbEntity
  8
layer 1
 62
     7
100
AcDbSpline
210
0.0
220
0.0
230
1.0
 70
    11
 71
     3
 72
    20
 73
    16
 74
     0
 42
0.0000000001
 43
0.0000000001
 12
1.0
 22
0.0
 32
0.0
 13
1.0
 23
0.0
 33
0.0
 40
0.0
 40
0.0
 40
0.0
 40
0.0
 40
0.2
 40
0.2
 40
0.2
 40
0.2
 40
0.4
 40
0.4
 40
0.4
 40
0.4
 40
0.6
 40
0.6
 40
0.6
 40
0.6
 40
1.0
 40
1.0
 40
1.0
 40
1.0
 10
124.1386
 20
-90.8309
 30
0.0
 10
124.0466
 20
-90.946
 30
0.0
 10
123.9587
 20
-91.0641
 30
0.0
 10
123.8751
 20
-91.1852
 30
0.0
 10
123.8751
 20
-91.1852
 30
0.0
 10
123.8479
 20
-91.225
 30
0.0
 10
123.8209
 20
-91.2649
 30
0.0
 10
123.7947
 20
-91.3053
 30
0.0
 10
123.7947
 20
-91.3053
 30
0.0
 10
123.5538
 20
-91.2722
 30
0.0
 10
123.3159
 20
-91.2449
 30
0.0
 10
123.0808
 20
-91.2228
 30
0.0
 10
123.0808
 20
-91.2228
 30
0.0
 10
123.4431
 20
-91.1141
 30
0.0
 10
123.7969
 20
-90.9834
 30
0.0
 10
124.1386
 20
-90.8309
 30
0.0
  0
SPLINE
  5
63
330
1F
100
AcDbEntity
  8
layer 1
 62
     7
100
AcDbSpline
210
0.0
220
0.0
230
1.0
 70
    11
 71
     3
 72
    16
 73
    12
 74
     0
 42
0.0000000001
 43
0.0000000001
 12
1.0
 22
0.0
 32
0.0
 13
1.0
 23
0.0
 33
0.0
 40
0.0
 40
0.0
 40
0.0
 40
0.0
 40
0.25
 40
0.25
 40
0.25
 40
0.25
 40
0.5
 40
0.5
 40
0.5
 40
0.5
 40
1.0
 40
1.0
 40
1.0
 40
1.0
 10
135.5215
 20
-88.667
 30
0.0
 10
135.3206
 20
-90.2053
 30
0.0
 10
137.0085
 20
-91.5306
 30
0.0
 10
138.6886
 20
-92.5571
 30
0.0
 10
138.6886
 20
-92.5571
 30
0.0
 10
140.7779
 20
-93.834
 30
0.0
 10
143.8795
 20
-94.7667
 30
0.0
 10
145.5027
 20
-92.2477
 30
0.0
 10
145.5027
 20
-92.2477
 30
0.0
 10
147.9669
 20
-88.4233
 30
0.0
 10
136.345
 20
-82.3783
 30
0.0
 10
135.5215
 20
-88.667
 30
0.0
  0
SPLINE
  5
64
330
1F
100
AcDbEntity
  8
layer 1
 62
     7
100
AcDbSpline
210
0.0
220
0.0
230
1.0
 70
    11
 71
     3
 72
    20
 73
    16
 74
     0
 42
0.0000000001
 43
0.0000000001
 12
1.0
 22
0.0
 32
0.0
 13
1.0
 23
0.0
 33
0.0
 40
0.0
 40
0.0
 40
0.0
 40
0.0
 40
0.2
 40
0.2
 40
0.2
 40
0.2
 40
0.4
 40
0.4
 40
0.4
 40
0.4
 40
0.6
 40
0.6
 40
0.6
 40
0.6
 40
1.0
 40
1.0
 40
1.0
 40
1.0
 10
131.6736
 20
-80.8581
 30
0.0
 10
133.2904
 20
-80.8581
 30
0.0
 10
134.6014
 20
-82.1332
 30
0.0
 10
134.6014
 20
-83.7054
 30
0.0
 10
134.6014
 20
-83.7054
 30
0.0
 10
134.6014
 20
-85.2778
 30
0.0
 10
133.2904
 20
-86.5527
 30
0.0
 10
131.6736
 20
-86.5527
 30
0.0
 10
131.6736
 20
-86.5527
 30
0.0
 10
130.0571
 20
-86.5527
 30
0.0
 10
128.7461
 20
-85.2778
 30
0.0
 10
128.7461
 20
-83.7054
 30
0.0
 10
128.7461
 20
-83.7054
 30
0.0
 10
128.7461
 20
-82.1332
 30
0.0
 10
130.0571
 20
-80.8581
 30
0.0
 10
131.6736
 20
-80.8581
 30
0.0
  0
SPLINE
  5
65
330
1F
100
AcDbEntity
  8
layer 1
 62
     7
100
AcDbSpline
210
0.0
220
0.0
230
1.0
 70
    11
 71
     3
 72
    20
 73
    16
 74
     0
 42
0.0000000001
 43
0.0000000001
 12
1.0
 22
0.0
 32
0.0
 13
1.0
 23
0.0
 33
0.0
 40
0.0
 40
0.0
 40
0.0
 40
0.0
 40
0.2
 40
0.2
 40
0.2
 40
0.2
 40
0.4
 40
0.4
 40
0.4
 40
0.4
 40
0.6
 40
0.6
 40
0.6
 40
0.6
 40
1.0
 40
1.0
 40
1.0
 40
1.0
 10
131.9086
 20
-88.4649
 30
0.0
 10
132.1823
 20
-88.4408
 30
0.0
 10
132.4528
 20
-88.3992
 30
0.0
 10
132.7179
 20
-88.3403
 30
0.0
 10
132.7179
 20
-88.3403
 30
0.0
 10
132.6878
 20
-88.557
 30
0.0
 10
132.6862
 20
-88.7776
 30
0.0
 10
132.7099
 20
-89.0
 30
0.0
 10
132.7099
 20
-89.0
 30
0.0
 10
132.6207
 20
-88.9264
 30
0.0
 10
132.5287
 20
-88.8558
 30
0.0
 10
132.4342
 20
-88.7887
 30
0.0
 10
132.4342
 20
-88.7887
 30
0.0
 10
132.2666
 20
-88.6701
 30
0.0
 10
132.0909
 20
-88.5621
 30
0.0
 10
131.9086
 20
-88.4649
 30
0.0
  0
SPLINE
  5
66
330
1F
100
AcDbEntity
  8
layer 1
 62
     7
100
AcDbSpline
210
0.0
220
0.0
230
1.0
 70
    11
 71
     3
 72
    16
 73
    12
 74
     0
 42
0.0000000001
 43
0.0000000001
 12
1.0
 22
0.0
 32
0.0
 13
1.0
 23
0.0
 33
0.0
 40
0.0
 40
0.0
 40
0.0
 40
0.0
 40
0.25
 40
0.25
 40
0.25
 40
0.25
 40
0.5
 40
0.5
 40
0.5
 40
0.5
 40
1.0
 40
1.0
 40
1.0
 40
1.0
 10
127.6784
 20
-87.2759
 30
0.0
 10
127.9838
 20
-87.5253
 30
0.0
 10
128.3277
 20
-87.7375
 30
0.0
 10
128.6972
 20
-87.9113
 30
0.0
 10
128.6972
 20
-87.9113
 30
0.0
 10
128.1068
 20
-88.1056
 30
0.0
 10
127.5168
 20
-88.3456
 30
0.0
 10
126.9516
 20
-88.6329
 30
0.0
 10
126.9516
 20
-88.6329
 30
0.0
 10
127.2577
 20
-88.2177
 30
0.0
 10
127.5137
 20
-87.7596
 30
0.0
 10
127.6784
 20
-87.2759
 30
0.0
  0
SPLINE
  5
67
330
1F
100
AcDbEntity
  8
layer 1
 62
     7
100
AcDbSpline
210
0.0
220
0.0
230
1.0
 70
    11
 71
     3
 72
    32
 73
    28
 74
     0
 42
0.0000000001
 43
0.0000000001
 12
1.0
 22
0.0
 32
0.0
 13
1.0
 23
0.0
 33
0.0
 40
0.0
 40
0.0
 40
0.0
 40
0.0
 40
0.125
 40
0.125
 40
0.125
 40
0.125
 40
0.25
 40
0.25
 40
0.25
 40
0.25
 40
0.375
 40
0.375
 40
0.375
 40
0.375
 40
0.5
 40
0.5
 40
0.5
 40
0.5
 40
0.625
 40
0.625
 40
0.625
 40
0.625
 40
0.75
 40
0.75
 40
0.75
 40
0.75
 40
1.0
 40
1.0
 40
1.0
 40
1.0
 10
166.7008
 20
-100.6831
 30
0.0
 10
166.1235
 20
-98.2169
 30
0.0
 10
165.2422
 20
-95.663
 30
0.0
 10
163.8242
 20
-93.6518
 30
0.0
 10
163.8242
 20
-93.6518
 30
0.0
 10
163.1487
 20
-92.6931
 30
0.0
 10
162.3501
 20
-91.858
 30
0.0
 10
161.4274
 20
-90.9353
 30
0.0
 10
161.4274
 20
-90.9353
 30
0.0
 10
160.7715
 20
-90.2796
 30
0.0
 10
160.0521
 20
-89.5792
 30
0.0
 10
159.1905
 20
-89.6571
 30
0.0
 10
159.1905
 20
-89.6571
 30
0.0
 10
159.0217
 20
-89.6726
 30
0.0
 10
158.8473
 20
-89.7177
 30
0.0
 10
158.7114
 20
-89.8173
 30
0.0
 10
158.7114
 20
-89.8173
 30
0.0
 10
158.4828
 20
-90.7481
 30
0.0
 10
158.5193
 20
-91.7382
 30
0.0
 10
158.7114
 20
-92.6931
 30
0.0
 10
158.7114
 20
-92.6931
 30
0.0
 10
159.175
 20
-95.006
 30
0.0
 10
160.5471
 20
-97.1174
 30
0.0
 10
162.3866
 20
-98.6057
 30
0.0
 10
162.3866
 20
-98.6057
 30
0.0
 10
163.6511
 20
-99.6294
 30
0.0
 10
165.1376
 20
-100.358
 30
0.0
 10
166.7008
 20
-100.6831
 30
0.0
  0
SPLINE
  5
68
330
1F
100
AcDbEntity
  8
layer 1
 62
     7
100
AcDbSpline
210
0.0
220
0.0
230
1.0
 70
    11
 71
     3
 72
    52
 73
    48
 74
     0
 42
0.0000000001
 43
0.0000000001
 12
1.0
 22
0.0
 32
0.0
 13
1.0
 23
0.0
 33
0.0
 40
0.0
 40
0.0
 40
0.0
 40
0.0
 40
0.0769230769230769
 40
0.0769230769230769
 40
0.0769230769230769
 40
0.0769230769230769
 40
0.1538461538461539
 40
0.1538461538461539
 40
0.1538461538461539
 40
0.1538461538461539
 40
0.2307692307692308
 40
0.2307692307692308
 40
0.2307692307692308
 40
0.2307692307692308
 40
0.3076923076923077
 40
0.3076923076923077
 40
0.3076923076923077
 40
0.3076923076923077
 40
0.3846153846153846
 40
0.3846153846153846
 40
0.3846153846153846
 40
0.3846153846153846
 40
0.4615384615384616
 40
0.4615384615384616
 40
0.4615384615384616
 40
0.4615384615384616
 40
0.5384615384615384
 40
0.5384615384615384
 40
0.5384615384615384
 40
0.5384615384615384
 40
0.6153846153846154
 40
0.6153846153846154
 40
0.6153846153846154
 40
0.6153846153846154
 40
0.6923076923076923
 40
0.6923076923076923
 40
0.6923076923076923
 40
0.6923076923076923
 40
0.7692307692307693
 40
0.7692307692307693
 40
0.7692307692307693
 40
0.7692307692307693
 40
0.8461538461538461
 40
0.8461538461538461
 40
0.8461538461538461
 40
0.8461538461538461
 40
1.0
 40
1.0
 40
1.0
 40
1.0
 10
172.4312
 20
-75.378
 30
0.0
 10
170.7135
 20
-70.0756
 30
0.0
 10
168.2418
 20
-66.6518
 30
0.0
 10
168.3252
 20
-60.9526
 30
0.0
 10
168.3252
 20
-60.9526
 30
0.0
 10
167.7646
 20
-61.389
 30
0.0
 10
167.338
 20
-61.9804
 30
0.0
 10
166.9938
 20
-62.6171
 30
0.0
 10
166.9938
 20
-62.6171
 30
0.0
 10
165.9449
 20
-64.5585
 30
0.0
 10
165.6612
 20
-66.9245
 30
0.0
 10
166.1062
 20
-69.0532
 30
0.0
 10
166.1062
 20
-69.0532
 30
0.0
 10
166.5006
 20
-70.9433
 30
0.0
 10
167.4692
 20
-72.6462
 30
0.0
 10
168.3252
 20
-74.3793
 30
0.0
 10
168.3252
 20
-74.3793
 30
0.0
 10
169.0909
 20
-75.9301
 30
0.0
 10
169.7665
 20
-77.5056
 30
0.0
 10
170.5447
 20
-79.0403
 30
0.0
 10
170.5447
 20
-79.0403
 30
0.0
 10
170.133
 20
-78.9994
 30
0.0
 10
169.717
 20
-78.9489
 30
0.0
 10
169.324
 20
-78.8177
 30
0.0
 10
169.324
 20
-78.8177
 30
0.0
 10
168.4551
 20
-78.5291
 30
0.0
 10
164.3526
 20
-75.9237
 30
0.0
 10
163.8866
 20
-78.3746
 30
0.0
 10
163.8866
 20
-78.3746
 30
0.0
 10
163.8533
 20
-78.5501
 30
0.0
 10
169.7555
 20
-80.524
 30
0.0
 10
171.0992
 20
-86.0308
 30
0.0
 10
171.0992
 20
-86.0308
 30
0.0
 10
171.7308
 20
-88.3634
 30
0.0
 10
171.2982
 20
-90.8358
 30
0.0
 10
171.4323
 20
-93.2433
 30
0.0
 10
171.4323
 20
-93.2433
 30
0.0
 10
171.4712
 20
-93.9502
 30
0.0
 10
171.5596
 20
-94.6519
 30
0.0
 10
171.6541
 20
-95.3521
 30
0.0
 10
171.6541
 20
-95.3521
 30
0.0
 10
171.7682
 20
-93.3369
 30
0.0
 10
173.197
 20
-90.9074
 30
0.0
 10
173.5015
 20
-88.6105
 30
0.0
 10
173.5015
 20
-88.6105
 30
0.0
 10
174.0875
 20
-84.1872
 30
0.0
 10
173.7155
 20
-79.3446
 30
0.0
 10
172.4312
 20
-75.378
 30
0.0
  0
SPLINE
  5
69
330
1F
100
AcDbEntity
  8
layer 1
 62
     7
100
AcDbSpline
210
0.0
220
0.0
230
1.0
 70
    11
 71
     3
 72
    36
 73
    32
 74
     0
 42
0.0000000001
 43
0.0000000001
 12
1.0
 22
0.0
 32
0.0
 13
1.0
 23
0.0
 33
0.0
 40
0.0
 40
0.0
 40
0.0
 40
0.0
 40
0.1111111111111111
 40
0.1111111111111111
 40
0.1111111111111111
 40
0.1111111111111111
 40
0.2222222222222222
 40
0.2222222222222222
 40
0.2222222222222222
 40
0.2222222222222222
 40
0.3333333333333333
 40
0.3333333333333333
 40
0.3333333333333333
 40
0.3333333333333333
 40
0.4444444444444444
 40
0.4444444444444444
 40
0.4444444444444444
 40
0.4444444444444444
 40
0.5555555555555556
 40
0.5555555555555556
 40
0.5555555555555556
 40
0.5555555555555556
 40
0.6666666666666666
 40
0.6666666666666666
 40
0.6666666666666666
 40
0.6666666666666666
 40
0.7777777777777778
 40
0.7777777777777778
 40
0.7777777777777778
 40
0.7777777777777778
 40
1.0
 40
1.0
 40
1.0
 40
1.0
 10
175.1991
 20
-95.3138
 30
0.0
 10
177.0399
 20
-94.8064
 30
0.0
 10
179.3773
 20
-95.7911
 30
0.0
 10
180.5367
 20
-97.1989
 30
0.0
 10
180.5367
 20
-97.1989
 30
0.0
 10
180.8859
 20
-97.6229
 30
0.0
 10
181.2439
 20
-98.1465
 30
0.0
 10
181.3353
 20
-98.1421
 30
0.0
 10
181.3353
 20
-98.1421
 30
0.0
 10
181.452
 20
-98.1372
 30
0.0
 10
181.13
 20
-97.2652
 30
0.0
 10
180.8994
 20
-96.618
 30
0.0
 10
180.8994
 20
-96.618
 30
0.0
 10
180.3534
 20
-95.3824
 30
0.0
 10
180.3262
 20
-94.5855
 30
0.0
 10
180.6181
 20
-94.0362
 30
0.0
 10
180.6181
 20
-94.0362
 30
0.0
 10
181.1753
 20
-92.9873
 30
0.0
 10
182.8947
 20
-92.8403
 30
0.0
 10
184.3836
 20
-92.2629
 30
0.0
 10
184.3836
 20
-92.2629
 30
0.0
 10
185.2484
 20
-91.7555
 30
0.0
 10
186.1867
 20
-90.8097
 30
0.0
 10
185.7627
 20
-90.2307
 30
0.0
 10
185.7627
 20
-90.2307
 30
0.0
 10
185.065
 20
-89.2778
 30
0.0
 10
182.206
 20
-90.2776
 30
0.0
 10
179.7931
 20
-91.4631
 30
0.0
 10
179.7931
 20
-91.4631
 30
0.0
 10
177.261
 20
-92.7069
 30
0.0
 10
176.4877
 20
-92.8366
 30
0.0
 10
175.1991
 20
-95.3138
 30
0.0
  0
SPLINE
  5
6A
330
1F
100
AcDbEntity
  8
layer 1
 62
     7
100
AcDbSpline
210
0.0
220
0.0
230
1.0
 70
    11
 71
     3
 72
    44
 73
    40
 74
     0
 42
0.0000000001
 43
0.0000000001
 12
1.0
 22
0.0
 32
0.0
 13
1.0
 23
0.0
 33
0.0
 40
0.0
 40
0.0
 40
0.0
 40
0.0
 40
0.0909090909090909
 40
0.0909090909090909
 40
0.0909090909090909
 40
0.0909090909090909
 40
0.1818181818181818
 40
0.1818181818181818
 40
0.1818181818181818
 40
0.1818181818181818
 40
0.2727272727272727
 40
0.2727272727272727
 40
0.2727272727272727
 40
0.2727272727272727
 40
0.3636363636363636
 40
0.3636363636363636
 40
0.3636363636363636
 40
0.3636363636363636
 40
0.4545454545454545
 40
0.4545454545454545
 40
0.4545454545454545
 40
0.4545454545454545
 40
0.5454545454545454
 40
0.5454545454545454
 40
0.5454545454545454
 40
0.5454545454545454
 40
0.6363636363636364
 40
0.6363636363636364
 40
0.6363636363636364
 40
0.6363636363636364
 40
0.7272727272727273
 40
0.7272727272727273
 40
0.7272727272727273
 40
0.7272727272727273
 40
0.8181818181818182
 40
0.8181818181818182
 40
0.8181818181818182
 40
0.8181818181818182
 40
1.0
 40
1.0
 40
1.0
 40
1.0
 10
164.907
 20
-29.6509
 30
0.0
 10
164.907
 20
-29.6509
 30
0.0
 10
164.8021
 20
-30.2801
 30
0.0
 10
164.8021
 20
-30.2801
 30
0.0
 10
164.8021
 20
-30.2801
 30
0.0
 10
165.5549
 20
-31.9323
 30
0.0
 10
165.8781
 20
-33.7853
 30
0.0
 10
165.8504
 20
-35.6252
 30
0.0
 10
165.8504
 20
-35.6252
 30
0.0
 10
165.7984
 20
-39.1181
 30
0.0
 10
164.4825
 20
-42.5615
 30
0.0
 10
162.3916
 20
-45.3725
 30
0.0
 10
162.3916
 20
-45.3725
 30
0.0
 10
159.8617
 20
-48.7732
 30
0.0
 10
156.1965
 20
-51.2474
 30
0.0
 10
152.3303
 20
-52.8136
 30
0.0
 10
152.3303
 20
-52.8136
 30
0.0
 10
154.3002
 20
-52.3488
 30
0.0
 10
156.2322
 20
-51.6183
 30
0.0
 10
157.99
 20
-50.6127
 30
0.0
 10
157.99
 20
-50.6127
 30
0.0
 10
159.7188
 20
-49.6231
 30
0.0
 10
161.2796
 20
-48.3671
 30
0.0
 10
162.7061
 20
-46.9442
 30
0.0
 10
162.7061
 20
-46.9442
 30
0.0
 10
164.5042
 20
-45.1507
 30
0.0
 10
166.0901
 20
-43.0924
 30
0.0
 10
167.0031
 20
-40.7603
 30
0.0
 10
167.0031
 20
-40.7603
 30
0.0
 10
167.8091
 20
-38.704
 30
0.0
 10
168.0909
 20
-36.435
 30
0.0
 10
167.7366
 20
-34.1573
 30
0.0
 10
167.7366
 20
-34.1573
 30
0.0
 10
167.5026
 20
-32.6474
 30
0.0
 10
166.9883
 20
-31.1337
 30
0.0
 10
165.8504
 20
-30.175
 30
0.0
 10
165.8504
 20
-30.175
 30
0.0
 10
165.5716
 20
-29.94
 30
0.0
 10
165.2564
 20
-29.7386
 30
0.0
 10
164.907
 20
-29.6509
 30
0.0
  0
SPLINE
  5
6B
330
1F
100
AcDbEntity
  8
layer 1
 62
     7
100
AcDbSpline
210
0.0
220
0.0
230
1.0
 70
    11
 71
     3
 72
    20
 73
    16
 74
     0
 42
0.0000000001
 43
0.0000000001
 12
1.0
 22
0.0
 32
0.0
 13
1.0
 23
0.0
 33
0.0
 40
0.0
 40
0.0
 40
0.0
 40
0.0
 40
0.2
 40
0.2
 40
0.2
 40
0.2
 40
0.4
 40
0.4
 40
0.4
 40
0.4
 40
0.6
 40
0.6
 40
0.6
 40
0.6
 40
1.0
 40
1.0
 40
1.0
 40
1.0
 10
140.1319
 20
-8.5642
 30
0.0
 10
143.9612
 20
-8.5642
 30
0.0
 10
147.0667
 20
-11.6697
 30
0.0
 10
147.0667
 20
-15.4991
 30
0.0
 10
147.0667
 20
-15.4991
 30
0.0
 10
147.0667
 20
-19.3283
 30
0.0
 10
143.9612
 20
-22.4338
 30
0.0
 10
140.1319
 20
-22.4338
 30
0.0
 10
140.1319
 20
-22.4338
 30
0.0
 10
136.3027
 20
-22.4338
 30
0.0
 10
133.1972
 20
-19.3283
 30
0.0
 10
133.1972
 20
-15.4991
 30
0.0
 10
133.1972
 20
-15.4991
 30
0.0
 10
133.1972
 20
-11.6697
 30
0.0
 10
136.3027
 20
-8.5642
 30
0.0
 10
140.1319
 20
-8.5642
 30
0.0
  0
SPLINE
  5
6C
330
1F
100
AcDbEntity
  8
layer 1
 62
     7
100
AcDbSpline
210
0.0
220
0.0
230
1.0
 70
    11
 71
     3
 72
    44
 73
    40
 74
     0
 42
0.0000000001
 43
0.0000000001
 12
1.0
 22
0.0
 32
0.0
 13
1.0
 23
0.0
 33
0.0
 40
0.0
 40
0.0
 40
0.0
 40
0.0
 40
0.0909090909090909
 40
0.0909090909090909
 40
0.0909090909090909
 40
0.0909090909090909
 40
0.1818181818181818
 40
0.1818181818181818
 40
0.1818181818181818
 40
0.1818181818181818
 40
0.2727272727272727
 40
0.2727272727272727
 40
0.2727272727272727
 40
0.2727272727272727
 40
0.3636363636363636
 40
0.3636363636363636
 40
0.3636363636363636
 40
0.3636363636363636
 40
0.4545454545454545
 40
0.4545454545454545
 40
0.4545454545454545
 40
0.4545454545454545
 40
0.5454545454545454
 40
0.5454545454545454
 40
0.5454545454545454
 40
0.5454545454545454
 40
0.6363636363636364
 40
0.6363636363636364
 40
0.6363636363636364
 40
0.6363636363636364
 40
0.7272727272727273
 40
0.7272727272727273
 40
0.7272727272727273
 40
0.7272727272727273
 40
0.8181818181818182
 40
0.8181818181818182
 40
0.8181818181818182
 40
0.8181818181818182
 40
1.0
 40
1.0
 40
1.0
 40
1.0
 10
136.6785
 20
-3.0119
 30
0.0
 10
136.168
 20
-1.968
 30
0.0
 10
135.9146
 20
-0.7843
 30
0.0
 10
135.8807
 20
0.382
 30
0.0
 10
135.8807
 20
0.382
 30
0.0
 10
135.8219
 20
2.3585
 30
0.0
 10
136.3917
 20
4.284
 30
0.0
 10
137.477
 20
6.0715
 30
0.0
 10
137.477
 20
6.0715
 30
0.0
 10
138.2312
 20
7.3125
 30
0.0
 10
139.2343
 20
8.487
 30
0.0
 10
140.5719
 20
8.7663
 30
0.0
 10
140.5719
 20
8.7663
 30
0.0
 10
141.1931
 20
8.896
 30
0.0
 10
141.8871
 20
8.8324
 30
0.0
 10
142.4682
 20
8.5667
 30
0.0
 10
142.4682
 20
8.5667
 30
0.0
 10
143.3526
 20
8.1617
 30
0.0
 10
143.9762
 20
7.2884
 30
0.0
 10
144.3644
 20
6.3705
 30
0.0
 10
144.3644
 20
6.3705
 30
0.0
 10
145.2978
 20
4.166
 30
0.0
 10
144.8744
 20
1.706
 30
0.0
 10
144.0176
 20
-0.5995
 30
0.0
 10
144.0176
 20
-0.5995
 30
0.0
 10
141.4631
 20
-7.4869
 30
0.0
 10
144.1895
 20
-0.6391
 30
0.0
 10
141.5695
 20
1.3801
 30
0.0
 10
141.5695
 20
1.3801
 30
0.0
 10
141.0379
 20
1.7901
 30
0.0
 10
140.376
 20
2.0464
 30
0.0
 10
139.7734
 20
1.9791
 30
0.0
 10
139.7734
 20
1.9791
 30
0.0
 10
138.8696
 20
1.8784
 30
0.0
 10
138.0989
 20
1.0506
 30
0.0
 10
137.5772
 20
0.1822
 30
0.0
 10
137.5772
 20
0.1822
 30
0.0
 10
136.9671
 20
-0.8332
 30
0.0
 10
136.6976
 20
-1.9061
 30
0.0
 10
136.6785
 20
-3.0119
 30
0.0
  0
SPLINE
  5
6D
330
1F
100
AcDbEntity
  8
layer 1
 62
     7
100
AcDbSpline
210
0.0
220
0.0
230
1.0
 70
    11
 71
     3
 72
    48
 73
    44
 74
     0
 42
0.0000000001
 43
0.0000000001
 12
1.0
 22
0.0
 32
0.0
 13
1.0
 23
0.0
 33
0.0
 40
0.0
 40
0.0
 40
0.0
 40
0.0
 40
0.0833333333333333
 40
0.0833333333333333
 40
0.0833333333333333
 40
0.0833333333333333
 40
0.1666666666666667
 40
0.1666666666666667
 40
0.1666666666666667
 40
0.1666666666666667
 40
0.25
 40
0.25
 40
0.25
 40
0.25
 40
0.3333333333333333
 40
0.3333333333333333
 40
0.3333333333333333
 40
0.3333333333333333
 40
0.4166666666666667
 40
0.4166666666666667
 40
0.4166666666666667
 40
0.4166666666666667
 40
0.5
 40
0.5
 40
0.5
 40
0.5
 40
0.5833333333333334
 40
0.5833333333333334
 40
0.5833333333333334
 40
0.5833333333333334
 40
0.6666666666666666
 40
0.6666666666666666
 40
0.6666666666666666
 40
0.6666666666666666
 40
0.75
 40
0.75
 40
0.75
 40
0.75
 40
0.8333333333333334
 40
0.8333333333333334
 40
0.8333333333333334
 40
0.8333333333333334
 40
1.0
 40
1.0
 40
1.0
 40
1.0
 10
148.2571
 20
-5.0083
 30
0.0
 10
148.9876
 20
-4.5292
 30
0.0
 10
149.8117
 20
-4.2357
 30
0.0
 10
150.7529
 20
-4.2098
 30
0.0
 10
150.7529
 20
-4.2098
 30
0.0
 10
153.6382
 20
-4.1288
 30
0.0
 10
154.7558
 20
-5.8935
 30
0.0
 10
153.3477
 20
-8.4017
 30
0.0
 10
153.3477
 20
-8.4017
 30
0.0
 10
152.9484
 20
-9.1137
 30
0.0
 10
152.3959
 20
-9.8523
 30
0.0
 10
152.4496
 20
-9.9988
 30
0.0
 10
152.4496
 20
-9.9988
 30
0.0
 10
152.5176
 20
-10.1848
 30
0.0
 10
153.5628
 20
-9.4135
 30
0.0
 10
154.446
 20
-8.8009
 30
0.0
 10
154.446
 20
-8.8009
 30
0.0
 10
156.5439
 20
-7.3448
 30
0.0
 10
157.72
 20
-6.7847
 30
0.0
 10
158.738
 20
-5.3075
 30
0.0
 10
158.738
 20
-5.3075
 30
0.0
 10
159.5304
 20
-4.1573
 30
0.0
 10
160.2269
 20
-2.4507
 30
0.0
 10
159.7362
 20
-1.1156
 30
0.0
 10
159.7362
 20
-1.1156
 30
0.0
 10
159.4222
 20
-0.262
 30
0.0
 10
158.6231
 20
0.44
 30
0.0
 10
157.7397
 20
0.7812
 30
0.0
 10
157.7397
 20
0.7812
 30
0.0
 10
156.553
 20
1.2393
 30
0.0
 10
155.2137
 20
1.0477
 30
0.0
 10
154.0468
 20
0.5816
 30
0.0
 10
154.0468
 20
0.5816
 30
0.0
 10
152.5342
 20
-0.0223
 30
0.0
 10
151.3112
 20
-1.0854
 30
0.0
 10
150.1534
 20
-2.2134
 30
0.0
 10
150.1534
 20
-2.2134
 30
0.0
 10
149.5891
 20
-2.7642
 30
0.0
 10
149.0396
 20
-3.3297
 30
0.0
 10
148.6565
 20
-4.0102
 30
0.0
 10
148.6565
 20
-4.0102
 30
0.0
 10
148.4803
 20
-4.3229
 30
0.0
 10
148.3394
 20
-4.6591
 30
0.0
 10
148.2571
 20
-5.0083
 30
0.0
  0
SPLINE
  5
6E
330
1F
100
AcDbEntity
  8
layer 1
 62
     7
100
AcDbSpline
210
0.0
220
0.0
230
1.0
 70
    11
 71
     3
 72
    24
 73
    20
 74
     0
 42
0.0000000001
 43
0.0000000001
 12
1.0
 22
0.0
 32
0.0
 13
1.0
 23
0.0
 33
0.0
 40
0.0
 40
0.0
 40
0.0
 40
0.0
 40
0.1666666666666667
 40
0.1666666666666667
 40
0.1666666666666667
 40
0.1666666666666667
 40
0.3333333333333333
 40
0.3333333333333333
 40
0.3333333333333333
 40
0.3333333333333333
 40
0.5
 40
0.5
 40
0.5
 40
0.5
 40
0.6666666666666666
 40
0.6666666666666666
 40
0.6666666666666666
 40
0.6666666666666666
 40
1.0
 40
1.0
 40
1.0
 40
1.0
 10
153.8558
 20
-14.8007
 30
0.0
 10
154.82
 20
-14.6263
 30
0.0
 10
155.8194
 20
-14.6568
 30
0.0
 10
156.7942
 20
-14.8007
 30
0.0
 10
156.7942
 20
-14.8007
 30
0.0
 10
158.458
 20
-15.0448
 30
0.0
 10
160.0478
 20
-15.6191
 30
0.0
 10
161.4458
 20
-16.6773
 30
0.0
 10
161.4458
 20
-16.6773
 30
0.0
 10
162.7017
 20
-17.6285
 30
0.0
 10
163.8033
 20
-18.9716
 30
0.0
 10
163.8126
 20
-20.5131
 30
0.0
 10
163.8126
 20
-20.5131
 30
0.0
 10
163.0097
 20
-25.4608
 30
0.0
 10
152.9219
 20
-22.9656
 30
0.0
 10
151.4075
 20
-20.5131
 30
0.0
 10
151.4075
 20
-20.5131
 30
0.0
 10
156.995
 20
-22.3092
 30
0.0
 10
158.6175
 20
-16.1241
 30
0.0
 10
153.8558
 20
-14.8007
 30
0.0
  0
SPLINE
  5
6F
330
1F
100
AcDbEntity
  8
layer 1
 62
     7
100
AcDbSpline
210
0.0
220
0.0
230
1.0
 70
    11
 71
     3
 72
    36
 73
    32
 74
     0
 42
0.0000000001
 43
0.0000000001
 12
1.0
 22
0.0
 32
0.0
 13
1.0
 23
0.0
 33
0.0
 40
0.0
 40
0.0
 40
0.0
 40
0.0
 40
0.1111111111111111
 40
0.1111111111111111
 40
0.1111111111111111
 40
0.1111111111111111
 40
0.2222222222222222
 40
0.2222222222222222
 40
0.2222222222222222
 40
0.2222222222222222
 40
0.3333333333333333
 40
0.3333333333333333
 40
0.3333333333333333
 40
0.3333333333333333
 40
0.4444444444444444
 40
0.4444444444444444
 40
0.4444444444444444
 40
0.4444444444444444
 40
0.5555555555555556
 40
0.5555555555555556
 40
0.5555555555555556
 40
0.5555555555555556
 40
0.6666666666666666
 40
0.6666666666666666
 40
0.6666666666666666
 40
0.6666666666666666
 40
0.7777777777777778
 40
0.7777777777777778
 40
0.7777777777777778
 40
0.7777777777777778
 40
1.0
 40
1.0
 40
1.0
 40
1.0
 10
128.3201
 20
-9.1785
 30
0.0
 10
127.5153
 20
-8.4573
 30
0.0
 10
126.7416
 20
-7.4999
 30
0.0
 10
126.7305
 20
-6.3527
 30
0.0
 10
126.7305
 20
-6.3527
 30
0.0
 10
126.6902
 20
-2.1065
 30
0.0
 10
131.2327
 20
-4.2063
 30
0.0
 10
133.2654
 20
-5.4695
 30
0.0
 10
133.2654
 20
-5.4695
 30
0.0
 10
133.3922
 20
-5.2703
 30
0.0
 10
132.5256
 20
-4.3198
 30
0.0
 10
131.8524
 20
-3.5267
 30
0.0
 10
131.8524
 20
-3.5267
 30
0.0
 10
130.8049
 20
-2.5416
 30
0.0
 10
128.6526
 20
-0.013
 30
0.0
 10
126.0288
 20
1.12
 30
0.0
 10
126.0288
 20
1.12
 30
0.0
 10
123.7797
 20
2.0904
 30
0.0
 10
120.8525
 20
2.1349
 30
0.0
 10
120.6374
 20
-0.8777
 30
0.0
 10
120.6374
 20
-0.8777
 30
0.0
 10
120.4174
 20
-3.9316
 30
0.0
 10
124.3737
 20
-8.4672
 30
0.0
 10
127.1718
 20
-9.5321
 30
0.0
 10
127.1718
 20
-9.5321
 30
0.0
 10
127.9406
 20
-9.8245
 30
0.0
 10
128.9475
 20
-10.1318
 30
0.0
 10
128.9382
 20
-9.8851
 30
0.0
 10
128.9382
 20
-9.8851
 30
0.0
 10
128.9276
 20
-9.5879
 30
0.0
 10
127.3508
 20
-8.4533
 30
0.0
 10
128.3201
 20
-9.1785
 30
0.0
  0
SPLINE
  5
70
330
1F
100
AcDbEntity
  8
layer 1
 62
     7
100
AcDbSpline
210
0.0
220
0.0
230
1.0
 70
    11
 71
     3
 72
    52
 73
    48
 74
     0
 42
0.0000000001
 43
0.0000000001
 12
1.0
 22
0.0
 32
0.0
 13
1.0
 23
0.0
 33
0.0
 40
0.0
 40
0.0
 40
0.0
 40
0.0
 40
0.0769230769230769
 40
0.0769230769230769
 40
0.0769230769230769
 40
0.0769230769230769
 40
0.1538461538461539
 40
0.1538461538461539
 40
0.1538461538461539
 40
0.1538461538461539
 40
0.2307692307692308
 40
0.2307692307692308
 40
0.2307692307692308
 40
0.2307692307692308
 40
0.3076923076923077
 40
0.3076923076923077
 40
0.3076923076923077
 40
0.3076923076923077
 40
0.3846153846153846
 40
0.3846153846153846
 40
0.3846153846153846
 40
0.3846153846153846
 40
0.4615384615384616
 40
0.4615384615384616
 40
0.4615384615384616
 40
0.4615384615384616
 40
0.5384615384615384
 40
0.5384615384615384
 40
0.5384615384615384
 40
0.5384615384615384
 40
0.6153846153846154
 40
0.6153846153846154
 40
0.6153846153846154
 40
0.6153846153846154
 40
0.6923076923076923
 40
0.6923076923076923
 40
0.6923076923076923
 40
0.6923076923076923
 40
0.7692307692307693
 40
0.7692307692307693
 40
0.7692307692307693
 40
0.7692307692307693
 40
0.8461538461538461
 40
0.8461538461538461
 40
0.8461538461538461
 40
0.8461538461538461
 40
1.0
 40
1.0
 40
1.0
 40
1.0
 10
127.0178
 20
-15.3916
 30
0.0
 10
126.3052
 20
-15.729
 30
0.0
 10
125.6939
 20
-16.2
 30
0.0
 10
125.0592
 20
-16.7161
 30
0.0
 10
125.0592
 20
-16.7161
 30
0.0
 10
122.457
 20
-18.8341
 30
0.0
 10
122.7929
 20
-21.9534
 30
0.0
 10
126.6717
 20
-21.4977
 30
0.0
 10
126.6717
 20
-21.4977
 30
0.0
 10
127.4115
 20
-21.4105
 30
0.0
 10
128.0723
 20
-21.2523
 30
0.0
 10
128.6879
 20
-20.9217
 30
0.0
 10
128.6879
 20
-20.9217
 30
0.0
 10
128.4412
 20
-21.1175
 30
0.0
 10
128.1891
 20
-21.3054
 30
0.0
 10
127.9395
 20
-21.4977
 30
0.0
 10
127.9395
 20
-21.4977
 30
0.0
 10
126.9251
 20
-22.2771
 30
0.0
 10
125.9578
 20
-23.1183
 30
0.0
 10
124.8285
 20
-23.7444
 30
0.0
 10
124.8285
 20
-23.7444
 30
0.0
 10
123.4218
 20
-24.5238
 30
0.0
 10
121.7628
 20
-24.9695
 30
0.0
 10
120.1627
 20
-24.781
 30
0.0
 10
120.1627
 20
-24.781
 30
0.0
 10
119.0761
 20
-24.653
 30
0.0
 10
118.0167
 20
-24.2321
 30
0.0
 10
117.2249
 20
-23.3983
 30
0.0
 10
117.2249
 20
-23.3983
 30
0.0
 10
116.4522
 20
-22.5843
 30
0.0
 10
115.9356
 20
-21.3765
 30
0.0
 10
116.1884
 20
-20.403
 30
0.0
 10
116.1884
 20
-20.403
 30
0.0
 10
116.3973
 20
-19.5996
 30
0.0
 10
117.1315
 20
-18.9556
 30
0.0
 10
117.8583
 20
-18.3869
 30
0.0
 10
117.8583
 20
-18.3869
 30
0.0
 10
119.0
 20
-17.4944
 30
0.0
 10
120.1249
 20
-16.7866
 30
0.0
 10
121.3728
 20
-16.2557
 30
0.0
 10
121.3728
 20
-16.2557
 30
0.0
 10
122.4922
 20
-15.7791
 30
0.0
 10
123.7111
 20
-15.4447
 30
0.0
 10
124.9442
 20
-15.3342
 30
0.0
 10
124.9442
 20
-15.3342
 30
0.0
 10
125.6377
 20
-15.2716
 30
0.0
 10
126.3355
 20
-15.2796
 30
0.0
 10
127.0178
 20
-15.3916
 30
0.0
  0
SPLINE
  5
71
330
1F
100
AcDbEntity
  8
layer 1
 62
     7
100
AcDbSpline
210
0.0
220
0.0
230
1.0
 70
    11
 71
     3
 72
    52
 73
    48
 74
     0
 42
0.0000000001
 43
0.0000000001
 12
1.0
 22
0.0
 32
0.0
 13
1.0
 23
0.0
 33
0.0
 40
0.0
 40
0.0
 40
0.0
 40
0.0
 40
0.0769230769230769
 40
0.0769230769230769
 40
0.0769230769230769
 40
0.0769230769230769
 40
0.1538461538461539
 40
0.1538461538461539
 40
0.1538461538461539
 40
0.1538461538461539
 40
0.2307692307692308
 40
0.2307692307692308
 40
0.2307692307692308
 40
0.2307692307692308
 40
0.3076923076923077
 40
0.3076923076923077
 40
0.3076923076923077
 40
0.3076923076923077
 40
0.3846153846153846
 40
0.3846153846153846
 40
0.3846153846153846
 40
0.3846153846153846
 40
0.4615384615384616
 40
0.4615384615384616
 40
0.4615384615384616
 40
0.4615384615384616
 40
0.5384615384615384
 40
0.5384615384615384
 40
0.5384615384615384
 40
0.5384615384615384
 40
0.6153846153846154
 40
0.6153846153846154
 40
0.6153846153846154
 40
0.6153846153846154
 40
0.6923076923076923
 40
0.6923076923076923
 40
0.6923076923076923
 40
0.6923076923076923
 40
0.7692307692307693
 40
0.7692307692307693
 40
0.7692307692307693
 40
0.7692307692307693
 40
0.8461538461538461
 40
0.8461538461538461
 40
0.8461538461538461
 40
0.8461538461538461
 40
1.0
 40
1.0
 40
1.0
 40
1.0
 10
132.6054
 20
-24.0325
 30
0.0
 10
132.6054
 20
-24.0325
 30
0.0
 10
132.4897
 20
-24.0325
 30
0.0
 10
132.4897
 20
-24.0325
 30
0.0
 10
132.4897
 20
-24.0325
 30
0.0
 10
131.8599
 20
-24.6599
 30
0.0
 10
131.4507
 20
-25.3904
 30
0.0
 10
131.0503
 20
-26.2787
 30
0.0
 10
131.0503
 20
-26.2787
 30
0.0
 10
128.6877
 20
-31.5103
 30
0.0
 10
132.9179
 20
-32.4582
 30
0.0
 10
135.946
 20
-28.5252
 30
0.0
 10
135.946
 20
-28.5252
 30
0.0
 10
136.2508
 20
-28.1297
 30
0.0
 10
136.5635
 20
-27.7132
 30
0.0
 10
136.6953
 20
-27.6612
 30
0.0
 10
136.6953
 20
-27.6612
 30
0.0
 10
136.9474
 20
-27.561
 30
0.0
 10
136.532
 20
-28.8029
 30
0.0
 10
136.1766
 20
-29.7924
 30
0.0
 10
136.1766
 20
-29.7924
 30
0.0
 10
135.4423
 20
-31.8383
 30
0.0
 10
134.9639
 20
-32.8092
 30
0.0
 10
134.103
 20
-33.8247
 30
0.0
 10
134.103
 20
-33.8247
 30
0.0
 10
133.0801
 20
-35.0306
 30
0.0
 10
131.5175
 20
-36.3002
 30
0.0
 10
129.5521
 20
-36.705
 30
0.0
 10
129.5521
 20
-36.705
 30
0.0
 10
128.1383
 20
-36.9962
 30
0.0
 10
126.5159
 20
-36.8391
 30
0.0
 10
125.7502
 20
-35.9559
 30
0.0
 10
125.7502
 20
-35.9559
 30
0.0
 10
124.93
 20
-35.0104
 30
0.0
 10
125.0931
 20
-33.2301
 30
0.0
 10
125.5776
 20
-31.8086
 30
0.0
 10
125.5776
 20
-31.8086
 30
0.0
 10
126.1056
 20
-30.2584
 30
0.0
 10
127.0142
 20
-29.134
 30
0.0
 10
127.9395
 20
-27.9493
 30
0.0
 10
127.9395
 20
-27.9493
 30
0.0
 10
128.7973
 20
-26.8497
 30
0.0
 10
129.6688
 20
-25.6994
 30
0.0
 10
130.8196
 20
-24.8965
 30
0.0
 10
130.8196
 20
-24.8965
 30
0.0
 10
131.3637
 20
-24.5165
 30
0.0
 10
131.9699
 20
-24.2147
 30
0.0
 10
132.6054
 20
-24.0325
 30
0.0
  0
SPLINE
  5
72
330
1F
100
AcDbEntity
  8
layer 1
 62
     7
100
AcDbSpline
210
0.0
220
0.0
230
1.0
 70
    11
 71
     3
 72
    52
 73
    48
 74
     0
 42
0.0000000001
 43
0.0000000001
 12
1.0
 22
0.0
 32
0.0
 13
1.0
 23
0.0
 33
0.0
 40
0.0
 40
0.0
 40
0.0
 40
0.0
 40
0.0769230769230769
 40
0.0769230769230769
 40
0.0769230769230769
 40
0.0769230769230769
 40
0.1538461538461539
 40
0.1538461538461539
 40
0.1538461538461539
 40
0.1538461538461539
 40
0.2307692307692308
 40
0.2307692307692308
 40
0.2307692307692308
 40
0.2307692307692308
 40
0.3076923076923077
 40
0.3076923076923077
 40
0.3076923076923077
 40
0.3076923076923077
 40
0.3846153846153846
 40
0.3846153846153846
 40
0.3846153846153846
 40
0.3846153846153846
 40
0.4615384615384616
 40
0.4615384615384616
 40
0.4615384615384616
 40
0.4615384615384616
 40
0.5384615384615384
 40
0.5384615384615384
 40
0.5384615384615384
 40
0.5384615384615384
 40
0.6153846153846154
 40
0.6153846153846154
 40
0.6153846153846154
 40
0.6153846153846154
 40
0.6923076923076923
 40
0.6923076923076923
 40
0.6923076923076923
 40
0.6923076923076923
 40
0.7692307692307693
 40
0.7692307692307693
 40
0.7692307692307693
 40
0.7692307692307693
 40
0.8461538461538461
 40
0.8461538461538461
 40
0.8461538461538461
 40
0.8461538461538461
 40
1.0
 40
1.0
 40
1.0
 40
1.0
 10
142.9162
 20
-26.5091
 30
0.0
 10
143.2649
 20
-27.385
 30
0.0
 10
143.7852
 20
-28.0989
 30
0.0
 10
144.4713
 20
-28.8708
 30
0.0
 10
144.4713
 20
-28.8708
 30
0.0
 10
147.3685
 20
-32.1278
 30
0.0
 10
150.1102
 20
-29.5863
 30
0.0
 10
149.0223
 20
-26.1635
 30
0.0
 10
149.0223
 20
-26.1635
 30
0.0
 10
148.7924
 20
-25.4416
 30
0.0
 10
148.4636
 20
-24.7679
 30
0.0
 10
147.9851
 20
-24.2049
 30
0.0
 10
147.9851
 20
-24.2049
 30
0.0
 10
148.3628
 20
-24.3224
 30
0.0
 10
148.714
 20
-24.5318
 30
0.0
 10
149.0223
 20
-24.781
 30
0.0
 10
149.0223
 20
-24.781
 30
0.0
 10
149.9908
 20
-25.5635
 30
0.0
 10
150.5422
 20
-26.7379
 30
0.0
 10
151.1535
 20
-27.8343
 30
0.0
 10
151.1535
 20
-27.8343
 30
0.0
 10
151.6065
 20
-28.6458
 30
0.0
 10
152.0924
 20
-29.4148
 30
0.0
 10
152.4786
 20
-30.2535
 30
0.0
 10
152.4786
 20
-30.2535
 30
0.0
 10
153.0257
 20
-31.442
 30
0.0
 10
153.3718
 20
-32.7715
 30
0.0
 10
153.1122
 20
-34.1128
 30
0.0
 10
153.1122
 20
-34.1128
 30
0.0
 10
152.8841
 20
-35.2915
 30
0.0
 10
152.1894
 20
-36.4795
 30
0.0
 10
151.1535
 20
-36.9356
 30
0.0
 10
151.1535
 20
-36.9356
 30
0.0
 10
150.355
 20
-37.2874
 30
0.0
 10
149.3536
 20
-37.2025
 30
0.0
 10
148.5038
 20
-36.8774
 30
0.0
 10
148.5038
 20
-36.8774
 30
0.0
 10
147.0926
 20
-36.338
 30
0.0
 10
146.1007
 20
-35.1333
 30
0.0
 10
145.2779
 20
-33.8822
 30
0.0
 10
145.2779
 20
-33.8822
 30
0.0
 10
144.6717
 20
-32.9601
 30
0.0
 10
144.1568
 20
-32.012
 30
0.0
 10
143.7803
 20
-31.002
 30
0.0
 10
143.7803
 20
-31.002
 30
0.0
 10
143.2499
 20
-29.5786
 30
0.0
 10
142.9941
 20
-28.0321
 30
0.0
 10
142.9162
 20
-26.5091
 30
0.0
  0
SPLINE
  5
73
330
1F
100
AcDbEntity
  8
layer 1
 62
     7
100
AcDbSpline
210
0.0
220
0.0
230
1.0
 70
    11
 71
     3
 72
    16
 73
    12
 74
     0
 42
0.0000000001
 43
0.0000000001
 12
1.0
 22
0.0
 32
0.0
 13
1.0
 23
0.0
 33
0.0
 40
0.0
 40
0.0
 40
0.0
 40
0.0
 40
0.25
 40
0.25
 40
0.25
 40
0.25
 40
0.5
 40
0.5
 40
0.5
 40
0.5
 40
1.0
 40
1.0
 40
1.0
 40
1.0
 10
126.6549
 20
-55.8335
 30
0.0
 10
126.2594
 20
-54.6703
 30
0.0
 10
122.5787
 20
-53.8606
 30
0.0
 10
119.5378
 20
-54.0491
 30
0.0
 10
119.5378
 20
-54.0491
 30
0.0
 10
117.8059
 20
-54.156
 30
0.0
 10
116.7872
 20
-54.7761
 30
0.0
 10
116.0795
 20
-55.5697
 30
0.0
 10
116.0795
 20
-55.5697
 30
0.0
 10
113.6226
 20
-58.3264
 30
0.0
 10
127.8028
 20
-57.4709
 30
0.0
 10
126.6549
 20
-55.8335
 30
0.0
  0
SPLINE
  5
74
330
1F
100
AcDbEntity
  8
layer 1
 62
     7
100
AcDbSpline
210
0.0
220
0.0
230
1.0
 70
    11
 71
     3
 72
    28
 73
    24
 74
     0
 42
0.0000000001
 43
0.0000000001
 12
1.0
 22
0.0
 32
0.0
 13
1.0
 23
0.0
 33
0.0
 40
0.0
 40
0.0
 40
0.0
 40
0.0
 40
0.1428571428571428
 40
0.1428571428571428
 40
0.1428571428571428
 40
0.1428571428571428
 40
0.2857142857142857
 40
0.2857142857142857
 40
0.2857142857142857
 40
0.2857142857142857
 40
0.4285714285714285
 40
0.4285714285714285
 40
0.4285714285714285
 40
0.4285714285714285
 40
0.5714285714285714
 40
0.5714285714285714
 40
0.5714285714285714
 40
0.5714285714285714
 40
0.7142857142857143
 40
0.7142857142857143
 40
0.7142857142857143
 40
0.7142857142857143
 40
1.0
 40
1.0
 40
1.0
 40
1.0
 10
135.1816
 20
-54.3366
 30
0.0
 10
135.1816
 20
-54.3366
 30
0.0
 10
135.0517
 20
-54.1412
 30
0.0
 10
135.0517
 20
-54.1412
 30
0.0
 10
135.0517
 20
-54.1412
 30
0.0
 10
136.3256
 20
-51.6887
 30
0.0
 10
138.4616
 20
-49.6719
 30
0.0
 10
140.9749
 20
-48.5438
 30
0.0
 10
140.9749
 20
-48.5438
 30
0.0
 10
142.4656
 20
-47.8739
 30
0.0
 10
144.5405
 20
-47.1761
 30
0.0
 10
144.6846
 20
-47.8931
 30
0.0
 10
144.6846
 20
-47.8931
 30
0.0
 10
144.7631
 20
-48.2806
 30
0.0
 10
144.2767
 20
-49.0817
 30
0.0
 10
143.7735
 20
-49.7151
 30
0.0
 10
143.7735
 20
-49.7151
 30
0.0
 10
142.4452
 20
-51.389
 30
0.0
 10
138.5687
 20
-54.1055
 30
0.0
 10
136.4183
 20
-54.4014
 30
0.0
 10
136.4183
 20
-54.4014
 30
0.0
 10
136.0067
 20
-54.4583
 30
0.0
 10
135.5784
 20
-54.4508
 30
0.0
 10
135.1816
 20
-54.3366
 30
0.0
  0
SPLINE
  5
75
330
1F
100
AcDbEntity
  8
layer 1
 62
     7
100
AcDbSpline
210
0.0
220
0.0
230
1.0
 70
    11
 71
     3
 72
    20
 73
    16
 74
     0
 42
0.0000000001
 43
0.0000000001
 12
1.0
 22
0.0
 32
0.0
 13
1.0
 23
0.0
 33
0.0
 40
0.0
 40
0.0
 40
0.0
 40
0.0
 40
0.2
 40
0.2
 40
0.2
 40
0.2
 40
0.4
 40
0.4
 40
0.4
 40
0.4
 40
0.6
 40
0.6
 40
0.6
 40
0.6
 40
1.0
 40
1.0
 40
1.0
 40
1.0
 10
131.7962
 20
-59.7456
 30
0.0
 10
129.5792
 20
-61.1184
 30
0.0
 10
127.4942
 20
-63.9935
 30
0.0
 10
126.7463
 20
-66.5319
 30
0.0
 10
126.7463
 20
-66.5319
 30
0.0
 10
126.2833
 20
-68.1007
 30
0.0
 10
125.5691
 20
-70.0502
 30
0.0
 10
126.5894
 20
-70.2838
 30
0.0
 10
126.5894
 20
-70.2838
 30
0.0
 10
127.6441
 20
-70.1551
 30
0.0
 10
130.3772
 20
-67.4693
 30
0.0
 10
131.0623
 20
-66.3241
 30
0.0
 10
131.0623
 20
-66.3241
 30
0.0
 10
132.2668
 20
-64.3109
 30
0.0
 10
133.0596
 20
-61.8319
 30
0.0
 10
131.7962
 20
-59.7456
 30
0.0
  0
SPLINE
  5
76
330
1F
100
AcDbEntity
  8
layer 1
 62
     7
100
AcDbSpline
210
0.0
220
0.0
230
1.0
 70
    11
 71
     3
 72
    32
 73
    28
 74
     0
 42
0.0000000001
 43
0.0000000001
 12
1.0
 22
0.0
 32
0.0
 13
1.0
 23
0.0
 33
0.0
 40
0.0
 40
0.0
 40
0.0
 40
0.0
 40
0.125
 40
0.125
 40
0.125
 40
0.125
 40
0.25
 40
0.25
 40
0.25
 40
0.25
 40
0.375
 40
0.375
 40
0.375
 40
0.375
 40
0.5
 40
0.5
 40
0.5
 40
0.5
 40
0.625
 40
0.625
 40
0.625
 40
0.625
 40
0.75
 40
0.75
 40
0.75
 40
0.75
 40
1.0
 40
1.0
 40
1.0
 40
1.0
 10
180.4223
 20
-13.3921
 30
0.0
 10
179.8586
 20
-14.4132
 30
0.0
 10
179.5187
 20
-15.5702
 30
0.0
 10
179.3994
 20
-16.739
 30
0.0
 10
179.3994
 20
-16.739
 30
0.0
 10
179.2029
 20
-18.6595
 30
0.0
 10
179.599
 20
-20.6138
 30
0.0
 10
180.3289
 20
-22.4111
 30
0.0
 10
180.3289
 20
-22.4111
 30
0.0
 10
180.7951
 20
-23.5583
 30
0.0
 10
181.3971
 20
-24.6413
 30
0.0
 10
182.1889
 20
-25.5726
 30
0.0
 10
182.1889
 20
-25.5726
 30
0.0
 10
182.3471
 20
-25.3446
 30
0.0
 10
182.4583
 20
-25.0875
 30
0.0
 10
182.5609
 20
-24.8292
 30
0.0
 10
182.5609
 20
-24.8292
 30
0.0
 10
183.2582
 20
-23.067
 30
0.0
 10
183.5481
 20
-21.2182
 30
0.0
 10
183.4906
 20
-19.2497
 30
0.0
 10
183.4906
 20
-19.2497
 30
0.0
 10
183.4355
 20
-17.3664
 30
0.0
 10
183.0615
 20
-15.373
 30
0.0
 10
181.724
 20
-14.1356
 30
0.0
 10
181.724
 20
-14.1356
 30
0.0
 10
181.3531
 20
-13.7926
 30
0.0
 10
180.9082
 20
-13.5076
 30
0.0
 10
180.4223
 20
-13.3921
 30
0.0
  0
SPLINE
  5
77
330
1F
100
AcDbEntity
  8
layer 1
 62
     7
100
AcDbSpline
210
0.0
220
0.0
230
1.0
 70
    11
 71
     3
 72
    48
 73
    44
 74
     0
 42
0.0000000001
 43
0.0000000001
 12
1.0
 22
0.0
 32
0.0
 13
1.0
 23
0.0
 33
0.0
 40
0.0
 40
0.0
 40
0.0
 40
0.0
 40
0.0833333333333333
 40
0.0833333333333333
 40
0.0833333333333333
 40
0.0833333333333333
 40
0.1666666666666667
 40
0.1666666666666667
 40
0.1666666666666667
 40
0.1666666666666667
 40
0.25
 40
0.25
 40
0.25
 40
0.25
 40
0.3333333333333333
 40
0.3333333333333333
 40
0.3333333333333333
 40
0.3333333333333333
 40
0.4166666666666667
 40
0.4166666666666667
 40
0.4166666666666667
 40
0.4166666666666667
 40
0.5
 40
0.5
 40
0.5
 40
0.5
 40
0.5833333333333334
 40
0.5833333333333334
 40
0.5833333333333334
 40
0.5833333333333334
 40
0.6666666666666666
 40
0.6666666666666666
 40
0.6666666666666666
 40
0.6666666666666666
 40
0.75
 40
0.75
 40
0.75
 40
0.75
 40
0.8333333333333334
 40
0.8333333333333334
 40
0.8333333333333334
 40
0.8333333333333334
 40
1.0
 40
1.0
 40
1.0
 40
1.0
 10
179.9173
 20
-43.9373
 30
0.0
 10
180.7443
 20
-44.1653
 30
0.0
 10
181.5206
 20
-44.5838
 30
0.0
 10
182.2314
 20
-45.0647
 30
0.0
 10
182.2314
 20
-45.0647
 30
0.0
 10
183.9503
 20
-46.2285
 30
0.0
 10
185.2867
 20
-47.7577
 30
0.0
 10
186.3262
 20
-49.7534
 30
0.0
 10
186.3262
 20
-49.7534
 30
0.0
 10
187.0569
 20
-51.1553
 30
0.0
 10
187.6403
 20
-52.787
 30
0.0
 10
186.9197
 20
-54.0856
 30
0.0
 10
186.9197
 20
-54.0856
 30
0.0
 10
186.8294
 20
-54.2481
 30
0.0
 10
186.7194
 20
-54.4052
 30
0.0
 10
186.5636
 20
-54.501
 30
0.0
 10
186.5636
 20
-54.501
 30
0.0
 10
186.4474
 20
-54.3408
 30
0.0
 10
186.2737
 20
-54.2303
 30
0.0
 10
186.0889
 20
-54.1451
 30
0.0
 10
186.0889
 20
-54.1451
 30
0.0
 10
185.2329
 20
-53.7494
 30
0.0
 10
184.139
 20
-53.9106
 30
0.0
 10
183.3589
 20
-54.501
 30
0.0
 10
183.3589
 20
-54.501
 30
0.0
 10
182.4757
 20
-55.1698
 30
0.0
 10
181.9948
 20
-56.3892
 30
0.0
 10
182.2314
 20
-57.4091
 30
0.0
 10
182.2314
 20
-57.4091
 30
0.0
 10
182.4547
 20
-58.3696
 30
0.0
 10
183.3138
 20
-59.1534
 30
0.0
 10
184.3088
 20
-59.486
 30
0.0
 10
184.3088
 20
-59.486
 30
0.0
 10
185.7125
 20
-59.9556
 30
0.0
 10
187.3869
 20
-59.5266
 30
0.0
 10
188.3436
 20
-58.5364
 30
0.0
 10
188.3436
 20
-58.5364
 30
0.0
 10
191.3296
 20
-55.4486
 30
0.0
 10
188.8229
 20
-48.0724
 30
0.0
 10
185.8335
 20
-45.9359
 30
0.0
 10
185.8335
 20
-45.9359
 30
0.0
 10
184.3938
 20
-44.9069
 30
0.0
 10
182.3932
 20
-44.0305
 30
0.0
 10
179.9173
 20
-43.9373
 30
0.0
  0
SPLINE
  5
78
330
1F
100
AcDbEntity
  8
layer 1
 62
     7
100
AcDbSpline
210
0.0
220
0.0
230
1.0
 70
    11
 71
     3
 72
    28
 73
    24
 74
     0
 42
0.0000000001
 43
0.0000000001
 12
1.0
 22
0.0
 32
0.0
 13
1.0
 23
0.0
 33
0.0
 40
0.0
 40
0.0
 40
0.0
 40
0.0
 40
0.1428571428571428
 40
0.1428571428571428
 40
0.1428571428571428
 40
0.1428571428571428
 40
0.2857142857142857
 40
0.2857142857142857
 40
0.2857142857142857
 40
0.2857142857142857
 40
0.4285714285714285
 40
0.4285714285714285
 40
0.4285714285714285
 40
0.4285714285714285
 40
0.5714285714285714
 40
0.5714285714285714
 40
0.5714285714285714
 40
0.5714285714285714
 40
0.7142857142857143
 40
0.7142857142857143
 40
0.7142857142857143
 40
0.7142857142857143
 40
1.0
 40
1.0
 40
1.0
 40
1.0
 10
136.6962
 20
-23.6817
 30
0.0
 10
136.2388
 20
-23.5091
 30
0.0
 10
135.7997
 20
-23.3035
 30
0.0
 10
135.3819
 20
-23.0679
 30
0.0
 10
135.3819
 20
-23.0679
 30
0.0
 10
135.0738
 20
-23.1657
 30
0.0
 10
134.7771
 20
-23.2973
 30
0.0
 10
134.506
 20
-23.4558
 30
0.0
 10
134.506
 20
-23.4558
 30
0.0
 10
133.7989
 20
-23.8699
 30
0.0
 10
133.2636
 20
-24.4689
 30
0.0
 10
132.836
 20
-25.2995
 30
0.0
 10
132.836
 20
-25.2995
 30
0.0
 10
132.329
 20
-26.2836
 30
0.0
 10
131.9743
 20
-27.5933
 30
0.0
 10
132.6054
 20
-28.2373
 30
0.0
 10
132.6054
 20
-28.2373
 30
0.0
 10
134.5317
 20
-29.2114
 30
0.0
 10
136.9547
 20
-25.8353
 30
0.0
 10
136.7527
 20
-24.0325
 30
0.0
 10
136.7527
 20
-24.0325
 30
0.0
 10
136.7398
 20
-23.9154
 30
0.0
 10
136.721
 20
-23.798
 30
0.0
 10
136.6962
 20
-23.6817
 30
0.0
  0
SPLINE
  5
79
330
1F
100
AcDbEntity
  8
layer 1
 62
     7
100
AcDbSpline
210
0.0
220
0.0
230
1.0
 70
    11
 71
     3
 72
   116
 73
   112
 74
     0
 42
0.0000000001
 43
0.0000000001
 12
1.0
 22
0.0
 32
0.0
 13
1.0
 23
0.0
 33
0.0
 40
0.0
 40
0.0
 40
0.0
 40
0.0
 40
0.0344827586206897
 40
0.0344827586206897
 40
0.0344827586206897
 40
0.0344827586206897
 40
0.0689655172413793
 40
0.0689655172413793
 40
0.0689655172413793
 40
0.0689655172413793
 40
0.103448275862069
 40
0.103448275862069
 40
0.103448275862069
 40
0.103448275862069
 40
0.1379310344827586
 40
0.1379310344827586
 40
0.1379310344827586
 40
0.1379310344827586
 40
0.1724137931034483
 40
0.1724137931034483
 40
0.1724137931034483
 40
0.1724137931034483
 40
0.2068965517241379
 40
0.2068965517241379
 40
0.2068965517241379
 40
0.2068965517241379
 40
0.2413793103448276
 40
0.2413793103448276
 40
0.2413793103448276
 40
0.2413793103448276
 40
0.2758620689655172
 40
0.2758620689655172
 40
0.2758620689655172
 40
0.2758620689655172
 40
0.3103448275862069
 40
0.3103448275862069
 40
0.3103448275862069
 40
0.3103448275862069
 40
0.3448275862068966
 40
0.3448275862068966
 40
0.3448275862068966
 40
0.3448275862068966
 40
0.3793103448275862
 40
0.3793103448275862
 40
0.3793103448275862
 40
0.3793103448275862
 40
0.4137931034482759
 40
0.4137931034482759
 40
0.4137931034482759
 40
0.4137931034482759
 40
0.4482758620689655
 40
0.4482758620689655
 40
0.4482758620689655
 40
0.4482758620689655
 40
0.4827586206896552
 40
0.4827586206896552
 40
0.4827586206896552
 40
0.4827586206896552
 40
0.5172413793103449
 40
0.5172413793103449
 40
0.5172413793103449
 40
0.5172413793103449
 40
0.5517241379310345
 40
0.5517241379310345
 40
0.5517241379310345
 40
0.5517241379310345
 40
0.5862068965517241
 40
0.5862068965517241
 40
0.5862068965517241
 40
0.5862068965517241
 40
0.6206896551724138
 40
0.6206896551724138
 40
0.6206896551724138
 40
0.6206896551724138
 40
0.6551724137931034
 40
0.6551724137931034
 40
0.6551724137931034
 40
0.6551724137931034
 40
0.6896551724137931
 40
0.6896551724137931
 40
0.6896551724137931
 40
0.6896551724137931
 40
0.7241379310344828
 40
0.7241379310344828
 40
0.7241379310344828
 40
0.7241379310344828
 40
0.7586206896551724
 40
0.7586206896551724
 40
0.7586206896551724
 40
0.7586206896551724
 40
0.7931034482758621
 40
0.7931034482758621
 40
0.7931034482758621
 40
0.7931034482758621
 40
0.8275862068965517
 40
0.8275862068965517
 40
0.8275862068965517
 40
0.8275862068965517
 40
0.8620689655172413
 40
0.8620689655172413
 40
0.8620689655172413
 40
0.8620689655172413
 40
0.896551724137931
 40
0.896551724137931
 40
0.896551724137931
 40
0.896551724137931
 40
0.9310344827586207
 40
0.9310344827586207
 40
0.9310344827586207
 40
0.9310344827586207
 40
1.0
 40
1.0
 40
1.0
 40
1.0
 10
140.239
 20
-24.3087
 30
0.0
 10
140.2141
 20
-24.3089
 30
0.0
 10
140.1897
 20
-24.3096
 30
0.0
 10
140.1649
 20
-24.3096
 30
0.0
 10
140.1649
 20
-24.3096
 30
0.0
 10
140.1253
 20
-24.3096
 30
0.0
 10
140.0859
 20
-24.3087
 30
0.0
 10
140.0465
 20
-24.3081
 30
0.0
 10
140.0465
 20
-24.3081
 30
0.0
 10
139.86
 20
-24.3459
 30
0.0
 10
139.6471
 20
-24.4796
 30
0.0
 10
139.4809
 20
-24.6338
 30
0.0
 10
139.4809
 20
-24.6338
 30
0.0
 10
139.0495
 20
-25.0337
 30
0.0
 10
138.9301
 20
-25.5746
 30
0.0
 10
138.8085
 20
-26.113
 30
0.0
 10
138.8085
 20
-26.113
 30
0.0
 10
138.3221
 20
-28.262
 30
0.0
 10
137.7985
 20
-30.364
 30
0.0
 10
136.8584
 20
-32.2993
 30
0.0
 10
136.8584
 20
-32.2993
 30
0.0
 10
135.8022
 20
-34.4747
 30
0.0
 10
134.2205
 20
-36.4387
 30
0.0
 10
132.2545
 20
-37.9524
 30
0.0
 10
132.2545
 20
-37.9524
 30
0.0
 10
134.5974
 20
-39.6372
 30
0.0
 10
136.438
 20
-45.2421
 30
0.0
 10
136.3744
 20
-47.9982
 30
0.0
 10
136.3744
 20
-47.9982
 30
0.0
 10
136.3547
 20
-48.8567
 30
0.0
 10
136.2508
 20
-49.6874
 30
0.0
 10
135.9622
 20
-50.4717
 30
0.0
 10
135.9622
 20
-50.4717
 30
0.0
 10
138.2546
 20
-46.98
 30
0.0
 10
143.6987
 20
-44.4485
 30
0.0
 10
147.7138
 20
-45.0084
 30
0.0
 10
147.7138
 20
-45.0084
 30
0.0
 10
147.7645
 20
-45.2785
 30
0.0
 10
147.7454
 20
-45.556
 30
0.0
 10
147.7138
 20
-45.833
 30
0.0
 10
147.7138
 20
-45.833
 30
0.0
 10
146.8985
 20
-52.3997
 30
0.0
 10
143.3355
 20
-54.2343
 30
0.0
 10
139.4488
 20
-55.3721
 30
0.0
 10
139.4488
 20
-55.3721
 30
0.0
 10
146.4488
 20
-55.0755
 30
0.0
 10
155.2226
 20
-49.8391
 30
0.0
 10
158.7448
 20
-45.9362
 30
0.0
 10
158.7448
 20
-45.9362
 30
0.0
 10
161.313
 20
-43.0893
 30
0.0
 10
163.2481
 20
-39.4425
 30
0.0
 10
163.5895
 20
-35.7303
 30
0.0
 10
163.5895
 20
-35.7303
 30
0.0
 10
163.8235
 20
-33.1856
 30
0.0
 10
163.3089
 20
-30.6101
 30
0.0
 10
162.2493
 20
-28.102
 30
0.0
 10
162.2493
 20
-28.102
 30
0.0
 10
161.928
 20
-27.341
 30
0.0
 10
161.5571
 20
-26.5864
 30
0.0
 10
160.999
 20
-26.113
 30
0.0
 10
160.999
 20
-26.113
 30
0.0
 10
159.9489
 20
-25.2229
 30
0.0
 10
158.2385
 20
-25.3285
 30
0.0
 10
156.6953
 20
-25.1041
 30
0.0
 10
156.6953
 20
-25.1041
 30
0.0
 10
155.003
 20
-24.8587
 30
0.0
 10
153.5121
 20
-24.2166
 30
0.0
 10
152.2575
 20
-23.1542
 30
0.0
 10
152.2575
 20
-23.1542
 30
0.0
 10
151.1758
 20
-22.2387
 30
0.0
 10
150.2691
 20
-21.0106
 30
0.0
 10
148.7608
 20
-20.8679
 30
0.0
 10
148.7608
 20
-20.8679
 30
0.0
 10
148.6392
 20
-20.8568
 30
0.0
 10
148.5136
 20
-20.8524
 30
0.0
 10
148.4241
 20
-20.8679
 30
0.0
 10
148.4241
 20
-20.8679
 30
0.0
 10
147.8282
 20
-20.9748
 30
0.0
 10
148.8183
 20
-21.9879
 30
0.0
 10
149.6349
 20
-22.7512
 30
0.0
 10
149.6349
 20
-22.7512
 30
0.0
 10
151.3562
 20
-24.3607
 30
0.0
 10
152.3062
 20
-24.8613
 30
0.0
 10
153.1987
 20
-25.8441
 30
0.0
 10
153.1987
 20
-25.8441
 30
0.0
 10
154.2791
 20
-27.0345
 30
0.0
 10
155.2755
 20
-28.9308
 30
0.0
 10
155.8887
 20
-30.8876
 30
0.0
 10
155.8887
 20
-30.8876
 30
0.0
 10
156.4437
 20
-32.6604
 30
0.0
 10
156.6842
 20
-34.4824
 30
0.0
 10
156.0228
 20
-36.0654
 30
0.0
 10
156.0228
 20
-36.0654
 30
0.0
 10
155.1798
 20
-38.0834
 30
0.0
 10
152.8694
 20
-39.7127
 30
0.0
 10
150.6429
 20
-39.8981
 30
0.0
 10
150.6429
 20
-39.8981
 30
0.0
 10
148.4525
 20
-40.0811
 30
0.0
 10
146.3435
 20
-38.8658
 30
0.0
 10
144.726
 20
-37.2082
 30
0.0
 10
144.726
 20
-37.2082
 30
0.0
 10
142.9967
 20
-35.4367
 30
0.0
 10
141.8296
 20
-33.1592
 30
0.0
 10
141.431
 20
-31.0892
 30
0.0
 10
141.431
 20
-31.0892
 30
0.0
 10
141.1243
 20
-29.4987
 30
0.0
 10
141.2708
 20
-28.0308
 30
0.0
 10
140.8932
 20
-25.7768
 30
0.0
 10
140.8932
 20
-25.7768
 30
0.0
 10
140.7835
 20
-25.1246
 30
0.0
 10
140.6299
 20
-24.4059
 30
0.0
 10
140.239
 20
-24.3087
 30
0.0
  0
SPLINE
  5
7A
330
1F
100
AcDbEntity
  8
layer 1
 62
     7
100
AcDbSpline
210
0.0
220
0.0
230
1.0
 70
    11
 71
     3
 72
    24
 73
    20
 74
     0
 42
0.0000000001
 43
0.0000000001
 12
1.0
 22
0.0
 32
0.0
 13
1.0
 23
0.0
 33
0.0
 40
0.0
 40
0.0
 40
0.0
 40
0.0
 40
0.1666666666666667
 40
0.1666666666666667
 40
0.1666666666666667
 40
0.1666666666666667
 40
0.3333333333333333
 40
0.3333333333333333
 40
0.3333333333333333
 40
0.3333333333333333
 40
0.5
 40
0.5
 40
0.5
 40
0.5
 40
0.6666666666666666
 40
0.6666666666666666
 40
0.6666666666666666
 40
0.6666666666666666
 40
1.0
 40
1.0
 40
1.0
 40
1.0
 10
145.5926
 20
-22.6686
 30
0.0
 10
144.8893
 20
-23.1442
 30
0.0
 10
144.1118
 20
-23.5299
 30
0.0
 10
143.2795
 20
-23.8075
 30
0.0
 10
143.2795
 20
-23.8075
 30
0.0
 10
143.2683
 20
-23.9214
 30
0.0
 10
143.2625
 20
-24.035
 30
0.0
 10
143.2618
 20
-24.1474
 30
0.0
 10
143.2618
 20
-24.1474
 30
0.0
 10
143.2501
 20
-25.9596
 30
0.0
 10
146.9038
 20
-30.2171
 30
0.0
 10
147.1786
 20
-26.9121
 30
0.0
 10
147.1786
 20
-26.9121
 30
0.0
 10
147.2639
 20
-25.8966
 30
0.0
 10
147.0864
 20
-25.1326
 30
0.0
 10
146.7181
 20
-24.3206
 30
0.0
 10
146.7181
 20
-24.3206
 30
0.0
 10
146.4495
 20
-23.7273
 30
0.0
 10
146.0795
 20
-23.1079
 30
0.0
 10
145.5926
 20
-22.6686
 30
0.0
  0
SPLINE
  5
7B
330
1F
100
AcDbEntity
  8
layer 1
 62
     7
100
AcDbSpline
210
0.0
220
0.0
230
1.0
 70
    11
 71
     3
 72
    32
 73
    28
 74
     0
 42
0.0000000001
 43
0.0000000001
 12
1.0
 22
0.0
 32
0.0
 13
1.0
 23
0.0
 33
0.0
 40
0.0
 40
0.0
 40
0.0
 40
0.0
 40
0.125
 40
0.125
 40
0.125
 40
0.125
 40
0.25
 40
0.25
 40
0.25
 40
0.25
 40
0.375
 40
0.375
 40
0.375
 40
0.375
 40
0.5
 40
0.5
 40
0.5
 40
0.5
 40
0.625
 40
0.625
 40
0.625
 40
0.625
 40
0.75
 40
0.75
 40
0.75
 40
0.75
 40
1.0
 40
1.0
 40
1.0
 40
1.0
 10
149.4395
 20
-15.6682
 30
0.0
 10
149.4353
 20
-16.6642
 30
0.0
 10
149.2514
 20
-17.6207
 30
0.0
 10
148.917
 20
-18.5108
 30
0.0
 10
148.917
 20
-18.5108
 30
0.0
 10
149.8336
 20
-19.3621
 30
0.0
 10
152.9837
 20
-19.8067
 30
0.0
 10
153.8558
 20
-18.7182
 30
0.0
 10
153.8558
 20
-18.7182
 30
0.0
 10
154.2143
 20
-18.27
 30
0.0
 10
154.273
 20
-17.4683
 30
0.0
 10
154.0189
 20
-16.9219
 30
0.0
 10
154.0189
 20
-16.9219
 30
0.0
 10
153.6338
 20
-16.0938
 30
0.0
 10
152.528
 20
-15.8552
 30
0.0
 10
151.5706
 20
-15.6981
 30
0.0
 10
151.5706
 20
-15.6981
 30
0.0
 10
151.028
 20
-15.6091
 30
0.0
 10
150.5329
 20
-15.5462
 30
0.0
 10
150.0206
 20
-15.6166
 30
0.0
 10
150.0206
 20
-15.6166
 30
0.0
 10
150.0206
 20
-15.6166
 30
0.0
 10
149.8573
 20
-15.535
 30
0.0
 10
149.8573
 20
-15.535
 30
0.0
 10
149.8573
 20
-15.535
 30
0.0
 10
149.7121
 20
-15.558
 30
0.0
 10
149.5727
 20
-15.604
 30
0.0
 10
149.4395
 20
-15.6682
 30
0.0
  0
SPLINE
  5
7C
330
1F
100
AcDbEntity
  8
layer 1
 62
     7
100
AcDbSpline
210
0.0
220
0.0
230
1.0
 70
    11
 71
     3
 72
    28
 73
    24
 74
     0
 42
0.0000000001
 43
0.0000000001
 12
1.0
 22
0.0
 32
0.0
 13
1.0
 23
0.0
 33
0.0
 40
0.0
 40
0.0
 40
0.0
 40
0.0
 40
0.1428571428571428
 40
0.1428571428571428
 40
0.1428571428571428
 40
0.1428571428571428
 40
0.2857142857142857
 40
0.2857142857142857
 40
0.2857142857142857
 40
0.2857142857142857
 40
0.4285714285714285
 40
0.4285714285714285
 40
0.4285714285714285
 40
0.4285714285714285
 40
0.5714285714285714
 40
0.5714285714285714
 40
0.5714285714285714
 40
0.5714285714285714
 40
0.7142857142857143
 40
0.7142857142857143
 40
0.7142857142857143
 40
0.7142857142857143
 40
1.0
 40
1.0
 40
1.0
 40
1.0
 10
132.1164
 20
-10.086
 30
0.0
 10
132.5495
 20
-9.4266
 30
0.0
 10
133.0664
 20
-8.8275
 30
0.0
 10
133.6522
 20
-8.3035
 30
0.0
 10
133.6522
 20
-8.3035
 30
0.0
 10
133.6168
 20
-8.18
 30
0.0
 10
133.5757
 20
-8.0587
 30
0.0
 10
133.53
 20
-7.9425
 30
0.0
 10
133.53
 20
-7.9425
 30
0.0
 10
133.0374
 20
-6.6871
 30
0.0
 10
132.0101
 20
-6.0245
 30
0.0
 10
130.8809
 20
-5.6463
 30
0.0
 10
130.8809
 20
-5.6463
 30
0.0
 10
129.0724
 20
-5.0417
 30
0.0
 10
128.3695
 20
-5.0622
 30
0.0
 10
128.8499
 20
-7.0591
 30
0.0
 10
128.8499
 20
-7.0591
 30
0.0
 10
129.1545
 20
-8.3263
 30
0.0
 10
130.0718
 20
-9.3257
 30
0.0
 10
131.4989
 20
-9.8851
 30
0.0
 10
131.4989
 20
-9.8851
 30
0.0
 10
131.6988
 20
-9.9634
 30
0.0
 10
131.9088
 20
-10.0331
 30
0.0
 10
132.1164
 20
-10.086
 30
0.0
  0
SPLINE
  5
7D
330
1F
100
AcDbEntity
  8
layer 1
 62
     7
100
AcDbSpline
210
0.0
220
0.0
230
1.0
 70
    11
 71
     3
 72
    28
 73
    24
 74
     0
 42
0.0000000001
 43
0.0000000001
 12
1.0
 22
0.0
 32
0.0
 13
1.0
 23
0.0
 33
0.0
 40
0.0
 40
0.0
 40
0.0
 40
0.0
 40
0.1428571428571428
 40
0.1428571428571428
 40
0.1428571428571428
 40
0.1428571428571428
 40
0.2857142857142857
 40
0.2857142857142857
 40
0.2857142857142857
 40
0.2857142857142857
 40
0.4285714285714285
 40
0.4285714285714285
 40
0.4285714285714285
 40
0.4285714285714285
 40
0.5714285714285714
 40
0.5714285714285714
 40
0.5714285714285714
 40
0.5714285714285714
 40
0.7142857142857143
 40
0.7142857142857143
 40
0.7142857142857143
 40
0.7142857142857143
 40
1.0
 40
1.0
 40
1.0
 40
1.0
 10
131.186
 20
-18.1317
 30
0.0
 10
130.9287
 20
-17.4282
 30
0.0
 10
130.7571
 20
-16.6837
 30
0.0
 10
130.6825
 20
-15.9107
 30
0.0
 10
130.6825
 20
-15.9107
 30
0.0
 10
129.7427
 20
-15.81
 30
0.0
 10
128.3843
 20
-16.2562
 30
0.0
 10
127.882
 20
-16.5437
 30
0.0
 10
127.882
 20
-16.5437
 30
0.0
 10
127.0952
 20
-16.9936
 30
0.0
 10
126.2532
 20
-17.6884
 30
0.0
 10
126.3262
 20
-18.4444
 30
0.0
 10
126.3262
 20
-18.4444
 30
0.0
 10
126.3806
 20
-19.0099
 30
0.0
 10
126.9474
 20
-19.61
 30
0.0
 10
127.5365
 20
-19.8269
 30
0.0
 10
127.5365
 20
-19.8269
 30
0.0
 10
128.424
 20
-20.1546
 30
0.0
 10
129.3634
 20
-19.6113
 30
0.0
 10
130.1855
 20
-19.0203
 30
0.0
 10
130.1855
 20
-19.0203
 30
0.0
 10
130.5653
 20
-18.7476
 30
0.0
 10
130.9204
 20
-18.4648
 30
0.0
 10
131.186
 20
-18.1317
 30
0.0
  0
SPLINE
  5
7E
330
1F
100
AcDbEntity
  8
layer 1
 62
     7
100
AcDbSpline
210
0.0
220
0.0
230
1.0
 70
    11
 71
     3
 72
    28
 73
    24
 74
     0
 42
0.0000000001
 43
0.0000000001
 12
1.0
 22
0.0
 32
0.0
 13
1.0
 23
0.0
 33
0.0
 40
0.0
 40
0.0
 40
0.0
 40
0.0
 40
0.1428571428571428
 40
0.1428571428571428
 40
0.1428571428571428
 40
0.1428571428571428
 40
0.2857142857142857
 40
0.2857142857142857
 40
0.2857142857142857
 40
0.2857142857142857
 40
0.4285714285714285
 40
0.4285714285714285
 40
0.4285714285714285
 40
0.4285714285714285
 40
0.5714285714285714
 40
0.5714285714285714
 40
0.5714285714285714
 40
0.5714285714285714
 40
0.7142857142857143
 40
0.7142857142857143
 40
0.7142857142857143
 40
0.7142857142857143
 40
1.0
 40
1.0
 40
1.0
 40
1.0
 10
146.1122
 20
-8.7162
 30
0.0
 10
146.432
 20
-9.0428
 30
0.0
 10
146.7274
 20
-9.3932
 30
0.0
 10
146.9952
 20
-9.7651
 30
0.0
 10
146.9952
 20
-9.7651
 30
0.0
 10
147.2501
 20
-10.0245
 30
0.0
 10
147.4882
 20
-10.2985
 30
0.0
 10
147.7082
 20
-10.5853
 30
0.0
 10
147.7082
 20
-10.5853
 30
0.0
 10
148.4273
 20
-10.6411
 30
0.0
 10
149.2507
 20
-10.3764
 30
0.0
 10
149.9544
 20
-9.8993
 30
0.0
 10
149.9544
 20
-9.8993
 30
0.0
 10
150.9791
 20
-9.2046
 30
0.0
 10
151.7505
 20
-8.0598
 30
0.0
 10
151.3518
 20
-7.2045
 30
0.0
 10
151.3518
 20
-7.2045
 30
0.0
 10
151.1652
 20
-6.8039
 30
0.0
 10
150.7226
 20
-6.4671
 30
0.0
 10
150.2536
 20
-6.3057
 30
0.0
 10
150.2536
 20
-6.3057
 30
0.0
 10
148.9623
 20
-5.8616
 30
0.0
 10
146.4493
 20
-7.2374
 30
0.0
 10
146.1122
 20
-8.7162
 30
0.0
  0
SPLINE
  5
7F
330
1F
100
AcDbEntity
  8
layer 1
 62
     7
100
AcDbSpline
210
0.0
220
0.0
230
1.0
 70
    11
 71
     3
 72
    28
 73
    24
 74
     0
 42
0.0000000001
 43
0.0000000001
 12
1.0
 22
0.0
 32
0.0
 13
1.0
 23
0.0
 33
0.0
 40
0.0
 40
0.0
 40
0.0
 40
0.0
 40
0.1428571428571428
 40
0.1428571428571428
 40
0.1428571428571428
 40
0.1428571428571428
 40
0.2857142857142857
 40
0.2857142857142857
 40
0.2857142857142857
 40
0.2857142857142857
 40
0.4285714285714285
 40
0.4285714285714285
 40
0.4285714285714285
 40
0.4285714285714285
 40
0.5714285714285714
 40
0.5714285714285714
 40
0.5714285714285714
 40
0.5714285714285714
 40
0.7142857142857143
 40
0.7142857142857143
 40
0.7142857142857143
 40
0.7142857142857143
 40
1.0
 40
1.0
 40
1.0
 40
1.0
 10
139.6661
 20
-6.007
 30
0.0
 10
139.7396
 20
-6.007
 30
0.0
 10
139.813
 20
-6.0079
 30
0.0
 10
139.8861
 20
-6.0097
 30
0.0
 10
139.8861
 20
-6.0097
 30
0.0
 10
140.1933
 20
-5.488
 30
0.0
 10
140.4675
 20
-4.8735
 30
0.0
 10
140.6837
 20
-4.2569
 30
0.0
 10
140.6837
 20
-4.2569
 30
0.0
 10
141.1103
 20
-3.0378
 30
0.0
 10
141.8358
 20
-0.0891
 30
0.0
 10
139.4377
 20
-0.9562
 30
0.0
 10
139.4377
 20
-0.9562
 30
0.0
 10
137.733
 20
-1.5743
 30
0.0
 10
137.4579
 20
-4.8859
 30
0.0
 10
137.5772
 20
-5.7067
 30
0.0
 10
137.5772
 20
-5.7067
 30
0.0
 10
137.6022
 20
-5.8793
 30
0.0
 10
137.6262
 20
-6.0583
 30
0.0
 10
137.6522
 20
-6.2329
 30
0.0
 10
137.6522
 20
-6.2329
 30
0.0
 10
138.2998
 20
-6.0851
 30
0.0
 10
138.9737
 20
-6.007
 30
0.0
 10
139.6661
 20
-6.007
 30
0.0
  0
SPLINE
  5
80
330
1F
100
AcDbEntity
  8
layer 1
 62
     7
100
AcDbSpline
210
0.0
220
0.0
230
1.0
 70
    11
 71
     3
 72
    28
 73
    24
 74
     0
 42
0.0000000001
 43
0.0000000001
 12
1.0
 22
0.0
 32
0.0
 13
1.0
 23
0.0
 33
0.0
 40
0.0
 40
0.0
 40
0.0
 40
0.0
 40
0.1428571428571428
 40
0.1428571428571428
 40
0.1428571428571428
 40
0.1428571428571428
 40
0.2857142857142857
 40
0.2857142857142857
 40
0.2857142857142857
 40
0.2857142857142857
 40
0.4285714285714285
 40
0.4285714285714285
 40
0.4285714285714285
 40
0.4285714285714285
 40
0.5714285714285714
 40
0.5714285714285714
 40
0.5714285714285714
 40
0.5714285714285714
 40
0.7142857142857143
 40
0.7142857142857143
 40
0.7142857142857143
 40
0.7142857142857143
 40
1.0
 40
1.0
 40
1.0
 40
1.0
 10
132.7466
 20
-51.6878
 30
0.0
 10
132.7097
 20
-51.6469
 30
0.0
 10
132.6734
 20
-51.6059
 30
0.0
 10
132.6364
 20
-51.5652
 30
0.0
 10
132.6364
 20
-51.5652
 30
0.0
 10
131.9225
 20
-50.5304
 30
0.0
 10
129.9385
 20
-43.9276
 30
0.0
 10
132.2704
 20
-40.5514
 30
0.0
 10
132.2704
 20
-40.5514
 30
0.0
 10
132.6986
 20
-40.8128
 30
0.0
 10
133.1665
 20
-42.2351
 30
0.0
 10
133.5276
 20
-43.7377
 30
0.0
 10
133.5276
 20
-43.7377
 30
0.0
 10
134.205
 20
-46.5616
 30
0.0
 10
134.467
 20
-48.8505
 30
0.0
 10
132.9033
 20
-51.4731
 30
0.0
 10
132.9033
 20
-51.4731
 30
0.0
 10
132.8945
 20
-51.5409
 30
0.0
 10
132.8673
 20
-51.6126
 30
0.0
 10
132.8383
 20
-51.6683
 30
0.0
 10
132.8383
 20
-51.6683
 30
0.0
 10
132.8175
 20
-51.7088
 30
0.0
 10
132.7862
 20
-51.7143
 30
0.0
 10
132.7466
 20
-51.6878
 30
0.0
  0
SPLINE
  5
81
330
1F
100
AcDbEntity
  8
layer 1
 62
     7
100
AcDbSpline
210
0.0
220
0.0
230
1.0
 70
    11
 71
     3
 72
    28
 73
    24
 74
     0
 42
0.0000000001
 43
0.0000000001
 12
1.0
 22
0.0
 32
0.0
 13
1.0
 23
0.0
 33
0.0
 40
0.0
 40
0.0
 40
0.0
 40
0.0
 40
0.1428571428571428
 40
0.1428571428571428
 40
0.1428571428571428
 40
0.1428571428571428
 40
0.2857142857142857
 40
0.2857142857142857
 40
0.2857142857142857
 40
0.2857142857142857
 40
0.4285714285714285
 40
0.4285714285714285
 40
0.4285714285714285
 40
0.4285714285714285
 40
0.5714285714285714
 40
0.5714285714285714
 40
0.5714285714285714
 40
0.5714285714285714
 40
0.7142857142857143
 40
0.7142857142857143
 40
0.7142857142857143
 40
0.7142857142857143
 40
1.0
 40
1.0
 40
1.0
 40
1.0
 10
107.0402
 20
34.8742
 30
0.0
 10
107.0402
 20
34.8742
 30
0.0
 10
107.0402
 20
39.0263
 30
0.0
 10
107.0402
 20
39.0263
 30
0.0
 10
107.0402
 20
39.0263
 30
0.0
 10
107.1891
 20
38.7678
 30
0.0
 10
107.3352
 20
38.5071
 30
0.0
 10
107.4808
 20
38.2479
 30
0.0
 10
107.4808
 20
38.2479
 30
0.0
 10
108.6526
 20
36.1593
 30
0.0
 10
109.7912
 20
34.1437
 30
0.0
 10
110.3092
 20
31.9081
 30
0.0
 10
110.3092
 20
31.9081
 30
0.0
 10
110.7536
 20
29.992
 30
0.0
 10
110.7423
 20
27.9134
 30
0.0
 10
110.4068
 20
25.959
 30
0.0
 10
110.4068
 20
25.959
 30
0.0
 10
110.2621
 20
27.1965
 30
0.0
 10
109.856
 20
28.3491
 30
0.0
 10
109.4315
 20
29.5674
 30
0.0
 10
109.4315
 20
29.5674
 30
0.0
 10
108.7988
 20
31.3843
 30
0.0
 10
108.125
 20
33.3483
 30
0.0
 10
107.0402
 20
34.8742
 30
0.0
  0
SPLINE
  5
82
330
1F
100
AcDbEntity
  8
layer 1
 62
     7
100
AcDbSpline
210
0.0
220
0.0
230
1.0
 70
    11
 71
     3
 72
    24
 73
    20
 74
     0
 42
0.0000000001
 43
0.0000000001
 12
1.0
 22
0.0
 32
0.0
 13
1.0
 23
0.0
 33
0.0
 40
0.0
 40
0.0
 40
0.0
 40
0.0
 40
0.1666666666666667
 40
0.1666666666666667
 40
0.1666666666666667
 40
0.1666666666666667
 40
0.3333333333333333
 40
0.3333333333333333
 40
0.3333333333333333
 40
0.3333333333333333
 40
0.5
 40
0.5
 40
0.5
 40
0.5
 40
0.6666666666666666
 40
0.6666666666666666
 40
0.6666666666666666
 40
0.6666666666666666
 40
1.0
 40
1.0
 40
1.0
 40
1.0
 10
107.0402
 20
9.5349
 30
0.0
 10
107.0402
 20
9.5349
 30
0.0
 10
107.0402
 20
30.8549
 30
0.0
 10
107.0402
 20
30.8549
 30
0.0
 10
107.0402
 20
30.8549
 30
0.0
 10
107.3197
 20
30.424
 30
0.0
 10
107.5585
 20
29.9473
 30
0.0
 10
107.7736
 20
29.4704
 30
0.0
 10
107.7736
 20
29.4704
 30
0.0
 10
110.0012
 20
24.5318
 30
0.0
 10
109.6898
 20
19.5722
 30
0.0
 10
109.3183
 20
14.5837
 30
0.0
 10
109.3183
 20
14.5837
 30
0.0
 10
109.0533
 20
11.0273
 30
0.0
 10
108.7577
 20
7.4566
 30
0.0
 10
107.8676
 20
4.0133
 30
0.0
 10
107.8676
 20
4.0133
 30
0.0
 10
107.7974
 20
5.9621
 30
0.0
 10
107.5846
 20
7.4225
 30
0.0
 10
107.0402
 20
9.5349
 30
0.0
  0
SPLINE
  5
83
330
1F
100
AcDbEntity
  8
layer 1
 62
     7
100
AcDbSpline
210
0.0
220
0.0
230
1.0
 70
    11
 71
     3
 72
    36
 73
    32
 74
     0
 42
0.0000000001
 43
0.0000000001
 12
1.0
 22
0.0
 32
0.0
 13
1.0
 23
0.0
 33
0.0
 40
0.0
 40
0.0
 40
0.0
 40
0.0
 40
0.1111111111111111
 40
0.1111111111111111
 40
0.1111111111111111
 40
0.1111111111111111
 40
0.2222222222222222
 40
0.2222222222222222
 40
0.2222222222222222
 40
0.2222222222222222
 40
0.3333333333333333
 40
0.3333333333333333
 40
0.3333333333333333
 40
0.3333333333333333
 40
0.4444444444444444
 40
0.4444444444444444
 40
0.4444444444444444
 40
0.4444444444444444
 40
0.5555555555555556
 40
0.5555555555555556
 40
0.5555555555555556
 40
0.5555555555555556
 40
0.6666666666666666
 40
0.6666666666666666
 40
0.6666666666666666
 40
0.6666666666666666
 40
0.7777777777777778
 40
0.7777777777777778
 40
0.7777777777777778
 40
0.7777777777777778
 40
1.0
 40
1.0
 40
1.0
 40
1.0
 10
107.0402
 20
-12.3396
 30
0.0
 10
107.0402
 20
-12.3396
 30
0.0
 10
107.0402
 20
-11.6912
 30
0.0
 10
107.0402
 20
-11.6912
 30
0.0
 10
107.0402
 20
-11.6912
 30
0.0
 10
107.1437
 20
-11.602
 30
0.0
 10
107.2466
 20
-11.5121
 30
0.0
 10
107.3486
 20
-11.4203
 30
0.0
 10
107.3486
 20
-11.4203
 30
0.0
 10
108.129
 20
-10.7176
 30
0.0
 10
108.8566
 20
-9.9055
 30
0.0
 10
109.7491
 20
-9.4091
 30
0.0
 10
109.7491
 20
-9.4091
 30
0.0
 10
111.0293
 20
-8.6971
 30
0.0
 10
112.6499
 20
-8.6341
 30
0.0
 10
114.1605
 20
-8.5655
 30
0.0
 10
114.1605
 20
-8.5655
 30
0.0
 10
114.4441
 20
-8.5526
 30
0.0
 10
114.7242
 20
-8.5394
 30
0.0
 10
115.004
 20
-8.5655
 30
0.0
 10
115.004
 20
-8.5655
 30
0.0
 10
114.8552
 20
-9.1668
 30
0.0
 10
114.5177
 20
-9.728
 30
0.0
 10
114.0955
 20
-10.1874
 30
0.0
 10
114.0955
 20
-10.1874
 30
0.0
 10
112.9545
 20
-11.4309
 30
0.0
 10
111.1929
 20
-11.9364
 30
0.0
 10
109.4895
 20
-12.1986
 30
0.0
 10
109.4895
 20
-12.1986
 30
0.0
 10
108.6616
 20
-12.3259
 30
0.0
 10
107.8473
 20
-12.3956
 30
0.0
 10
107.0402
 20
-12.3396
 30
0.0
  0
SPLINE
  5
84
330
1F
100
AcDbEntity
  8
layer 1
 62
     7
100
AcDbSpline
210
0.0
220
0.0
230
1.0
 70
    11
 71
     3
 72
   400
 73
   396
 74
     0
 42
0.0000000001
 43
0.0000000001
 12
1.0
 22
0.0
 32
0.0
 13
1.0
 23
0.0
 33
0.0
 40
0.0
 40
0.0
 40
0.0
 40
0.0
 40
0.01
 40
0.01
 40
0.01
 40
0.01
 40
0.02
 40
0.02
 40
0.02
 40
0.02
 40
0.03
 40
0.03
 40
0.03
 40
0.03
 40
0.04
 40
0.04
 40
0.04
 40
0.04
 40
0.05
 40
0.05
 40
0.05
 40
0.05
 40
0.06
 40
0.06
 40
0.06
 40
0.06
 40
0.07
 40
0.07
 40
0.07
 40
0.07
 40
0.08
 40
0.08
 40
0.08
 40
0.08
 40
0.09
 40
0.09
 40
0.09
 40
0.09
 40
0.1
 40
0.1
 40
0.1
 40
0.1
 40
0.11
 40
0.11
 40
0.11
 40
0.11
 40
0.12
 40
0.12
 40
0.12
 40
0.12
 40
0.13
 40
0.13
 40
0.13
 40
0.13
 40
0.14
 40
0.14
 40
0.14
 40
0.14
 40
0.15
 40
0.15
 40
0.15
 40
0.15
 40
0.16
 40
0.16
 40
0.16
 40
0.16
 40
0.17
 40
0.17
 40
0.17
 40
0.17
 40
0.18
 40
0.18
 40
0.18
 40
0.18
 40
0.19
 40
0.19
 40
0.19
 40
0.19
 40
0.2
 40
0.2
 40
0.2
 40
0.2
 40
0.21
 40
0.21
 40
0.21
 40
0.21
 40
0.22
 40
0.22
 40
0.22
 40
0.22
 40
0.23
 40
0.23
 40
0.23
 40
0.23
 40
0.24
 40
0.24
 40
0.24
 40
0.24
 40
0.25
 40
0.25
 40
0.25
 40
0.25
 40
0.26
 40
0.26
 40
0.26
 40
0.26
 40
0.27
 40
0.27
 40
0.27
 40
0.27
 40
0.28
 40
0.28
 40
0.28
 40
0.28
 40
0.29
 40
0.29
 40
0.29
 40
0.29
 40
0.3
 40
0.3
 40
0.3
 40
0.3
 40
0.31
 40
0.31
 40
0.31
 40
0.31
 40
0.32
 40
0.32
 40
0.32
 40
0.32
 40
0.33
 40
0.33
 40
0.33
 40
0.33
 40
0.34
 40
0.34
 40
0.34
 40
0.34
 40
0.35
 40
0.35
 40
0.35
 40
0.35
 40
0.36
 40
0.36
 40
0.36
 40
0.36
 40
0.37
 40
0.37
 40
0.37
 40
0.37
 40
0.38
 40
0.38
 40
0.38
 40
0.38
 40
0.39
 40
0.39
 40
0.39
 40
0.39
 40
0.4
 40
0.4
 40
0.4
 40
0.4
 40
0.41
 40
0.41
 40
0.41
 40
0.41
 40
0.42
 40
0.42
 40
0.42
 40
0.42
 40
0.43
 40
0.43
 40
0.43
 40
0.43
 40
0.44
 40
0.44
 40
0.44
 40
0.44
 40
0.45
 40
0.45
 40
0.45
 40
0.45
 40
0.46
 40
0.46
 40
0.46
 40
0.46
 40
0.47
 40
0.47
 40
0.47
 40
0.47
 40
0.48
 40
0.48
 40
0.48
 40
0.48
 40
0.49
 40
0.49
 40
0.49
 40
0.49
 40
0.5
 40
0.5
 40
0.5
 40
0.5
 40
0.51
 40
0.51
 40
0.51
 40
0.51
 40
0.52
 40
0.52
 40
0.52
 40
0.52
 40
0.53
 40
0.53
 40
0.53
 40
0.53
 40
0.54
 40
0.54
 40
0.54
 40
0.54
 40
0.55
 40
0.55
 40
0.55
 40
0.55
 40
0.56
 40
0.56
 40
0.56
 40
0.56
 40
0.57
 40
0.57
 40
0.57
 40
0.57
 40
0.58
 40
0.58
 40
0.58
 40
0.58
 40
0.59
 40
0.59
 40
0.59
 40
0.59
 40
0.6
 40
0.6
 40
0.6
 40
0.6
 40
0.61
 40
0.61
 40
0.61
 40
0.61
 40
0.62
 40
0.62
 40
0.62
 40
0.62
 40
0.63
 40
0.63
 40
0.63
 40
0.63
 40
0.64
 40
0.64
 40
0.64
 40
0.64
 40
0.65
 40
0.65
 40
0.65
 40
0.65
 40
0.66
 40
0.66
 40
0.66
 40
0.66
 40
0.67
 40
0.67
 40
0.67
 40
0.67
 40
0.68
 40
0.68
 40
0.68
 40
0.68
 40
0.69
 40
0.69
 40
0.69
 40
0.69
 40
0.7
 40
0.7
 40
0.7
 40
0.7
 40
0.71
 40
0.71
 40
0.71
 40
0.71
 40
0.72
 40
0.72
 40
0.72
 40
0.72
 40
0.73
 40
0.73
 40
0.73
 40
0.73
 40
0.74
 40
0.74
 40
0.74
 40
0.74
 40
0.75
 40
0.75
 40
0.75
 40
0.75
 40
0.76
 40
0.76
 40
0.76
 40
0.76
 40
0.77
 40
0.77
 40
0.77
 40
0.77
 40
0.78
 40
0.78
 40
0.78
 40
0.78
 40
0.79
 40
0.79
 40
0.79
 40
0.79
 40
0.8
 40
0.8
 40
0.8
 40
0.8
 40
0.81
 40
0.81
 40
0.81
 40
0.81
 40
0.82
 40
0.82
 40
0.82
 40
0.82
 40
0.83
 40
0.83
 40
0.83
 40
0.83
 40
0.84
 40
0.84
 40
0.84
 40
0.84
 40
0.85
 40
0.85
 40
0.85
 40
0.85
 40
0.86
 40
0.86
 40
0.86
 40
0.86
 40
0.87
 40
0.87
 40
0.87
 40
0.87
 40
0.88
 40
0.88
 40
0.88
 40
0.88
 40
0.89
 40
0.89
 40
0.89
 40
0.89
 40
0.9
 40
0.9
 40
0.9
 40
0.9
 40
0.91
 40
0.91
 40
0.91
 40
0.91
 40
0.92
 40
0.92
 40
0.92
 40
0.92
 40
0.93
 40
0.93
 40
0.93
 40
0.93
 40
0.94
 40
0.94
 40
0.94
 40
0.94
 40
0.95
 40
0.95
 40
0.95
 40
0.95
 40
0.96
 40
0.96
 40
0.96
 40
0.96
 40
0.97
 40
0.97
 40
0.97
 40
0.97
 40
0.98
 40
0.98
 40
0.98
 40
0.98
 40
1.0
 40
1.0
 40
1.0
 40
1.0
 10
193.3817
 20
-39.5797
 30
0.0
 10
193.3817
 20
-39.5797
 30
0.0
 10
193.3817
 20
-106.5389
 30
0.0
 10
193.3817
 20
-106.5389
 30
0.0
 10
193.3817
 20
-106.5389
 30
0.0
 10
193.3817
 20
-106.5389
 30
0.0
 10
166.9348
 20
-106.5389
 30
0.0
 10
166.9348
 20
-106.5389
 30
0.0
 10
166.9348
 20
-106.5389
 30
0.0
 10
168.1933
 20
-104.8672
 30
0.0
 10
169.6802
 20
-103.4475
 30
0.0
 10
171.2105
 20
-101.6771
 30
0.0
 10
171.2105
 20
-101.6771
 30
0.0
 10
172.8873
 20
-99.7368
 30
0.0
 10
174.6166
 20
-97.3752
 30
0.0
 10
176.759
 20
-97.3493
 30
0.0
 10
176.759
 20
-97.3493
 30
0.0
 10
178.3467
 20
-97.3301
 30
0.0
 10
180.5008
 20
-99.8547
 30
0.0
 10
181.6474
 20
-101.162
 30
0.0
 10
181.6474
 20
-101.162
 30
0.0
 10
182.3772
 20
-100.5797
 30
0.0
 10
182.8915
 20
-98.542
 30
0.0
 10
182.8619
 20
-97.5711
 30
0.0
 10
182.8619
 20
-97.5711
 30
0.0
 10
182.8285
 20
-96.498
 30
0.0
 10
181.7165
 20
-95.1883
 30
0.0
 10
182.0849
 20
-94.5753
 30
0.0
 10
182.0849
 20
-94.5753
 30
0.0
 10
182.5671
 20
-93.7736
 30
0.0
 10
186.2622
 20
-93.4027
 30
0.0
 10
187.4116
 20
-92.4668
 30
0.0
 10
187.4116
 20
-92.4668
 30
0.0
 10
188.5013
 20
-91.58
 30
0.0
 10
189.4118
 20
-90.2654
 30
0.0
 10
189.9637
 20
-88.916
 30
0.0
 10
189.9637
 20
-88.916
 30
0.0
 10
188.0143
 20
-87.7804
 30
0.0
 10
185.5784
 20
-87.7534
 30
0.0
 10
183.2467
 20
-88.2423
 30
0.0
 10
183.2467
 20
-88.2423
 30
0.0
 10
181.2039
 20
-88.6705
 30
0.0
 10
177.2827
 20
-89.8625
 30
0.0
 10
175.7357
 20
-91.3507
 30
0.0
 10
175.7357
 20
-91.3507
 30
0.0
 10
174.0527
 20
-92.9695
 30
0.0
 10
173.958
 20
-94.3713
 30
0.0
 10
175.1765
 20
-90.805
 30
0.0
 10
175.1765
 20
-90.805
 30
0.0
 10
175.4494
 20
-90.0061
 30
0.0
 10
175.7371
 20
-89.2045
 30
0.0
 10
176.0106
 20
-88.1567
 30
0.0
 10
176.0106
 20
-88.1567
 30
0.0
 10
176.6207
 20
-85.8204
 30
0.0
 10
176.5504
 20
-83.2738
 30
0.0
 10
176.3145
 20
-80.8154
 30
0.0
 10
176.3145
 20
-80.8154
 30
0.0
 10
175.8054
 20
-75.496
 30
0.0
 10
174.3951
 20
-71.6895
 30
0.0
 10
172.4275
 20
-66.8154
 30
0.0
 10
172.4275
 20
-66.8154
 30
0.0
 10
171.1316
 20
-63.6049
 30
0.0
 10
170.2242
 20
-60.8039
 30
0.0
 10
170.1009
 20
-57.8455
 30
0.0
 10
170.1009
 20
-57.8455
 30
0.0
 10
169.5273
 20
-57.8825
 30
0.0
 10
168.9767
 20
-58.0637
 30
0.0
 10
168.4365
 20
-58.2892
 30
0.0
 10
168.4365
 20
-58.2892
 30
0.0
 10
166.6309
 20
-59.0426
 30
0.0
 10
164.943
 20
-60.2887
 30
0.0
 10
163.9974
 20
-61.9514
 30
0.0
 10
163.9974
 20
-61.9514
 30
0.0
 10
163.056
 20
-63.6067
 30
0.0
 10
162.8508
 20
-65.6748
 30
0.0
 10
163.1096
 20
-67.6107
 30
0.0
 10
163.1096
 20
-67.6107
 30
0.0
 10
163.4898
 20
-70.4476
 30
0.0
 10
164.8682
 20
-73.0003
 30
0.0
 10
166.5499
 20
-75.2669
 30
0.0
 10
166.5499
 20
-75.2669
 30
0.0
 10
166.7861
 20
-75.5858
 30
0.0
 10
167.0284
 20
-75.8985
 30
0.0
 10
167.3269
 20
-76.155
 30
0.0
 10
167.3269
 20
-76.155
 30
0.0
 10
166.7157
 20
-75.8522
 30
0.0
 10
166.0148
 20
-75.7564
 30
0.0
 10
165.3292
 20
-75.7113
 30
0.0
 10
165.3292
 20
-75.7113
 30
0.0
 10
163.4367
 20
-75.5851
 30
0.0
 10
161.6658
 20
-75.8387
 30
0.0
 10
160.0025
 20
-77.5977
 30
0.0
 10
160.0025
 20
-77.5977
 30
0.0
 10
159.2133
 20
-78.432
 30
0.0
 10
158.4481
 20
-79.6064
 30
0.0
 10
158.8931
 20
-80.0384
 30
0.0
 10
158.8931
 20
-80.0384
 30
0.0
 10
159.1533
 20
-80.2918
 30
0.0
 10
159.8283
 20
-80.2907
 30
0.0
 10
160.4464
 20
-80.2604
 30
0.0
 10
160.4464
 20
-80.2604
 30
0.0
 10
163.9724
 20
-80.7244
 30
0.0
 10
166.3809
 20
-82.617
 30
0.0
 10
167.8963
 20
-85.1534
 30
0.0
 10
167.8963
 20
-85.1534
 30
0.0
 10
170.5867
 20
-89.6564
 30
0.0
 10
168.8335
 20
-97.4133
 30
0.0
 10
168.618
 20
-100.363
 30
0.0
 10
168.618
 20
-100.363
 30
0.0
 10
168.4042
 20
-99.0489
 30
0.0
 10
167.9778
 20
-97.7867
 30
0.0
 10
167.4995
 20
-96.5283
 30
0.0
 10
167.4995
 20
-96.5283
 30
0.0
 10
166.5648
 20
-94.0677
 30
0.0
 10
165.4343
 20
-91.6201
 30
0.0
 10
163.5046
 20
-89.8173
 30
0.0
 10
163.5046
 20
-89.8173
 30
0.0
 10
162.1097
 20
-88.5136
 30
0.0
 10
160.2975
 20
-87.547
 30
0.0
 10
158.3912
 20
-87.4202
 30
0.0
 10
158.3912
 20
-87.4202
 30
0.0
 10
157.6286
 20
-87.3695
 30
0.0
 10
156.8509
 20
-87.4531
 30
0.0
 10
156.1543
 20
-87.7399
 30
0.0
 10
156.1543
 20
-87.7399
 30
0.0
 10
155.8696
 20
-89.2034
 30
0.0
 10
155.8836
 20
-90.7331
 30
0.0
 10
156.1543
 20
-92.2142
 30
0.0
 10
156.1543
 20
-92.2142
 30
0.0
 10
156.5358
 20
-94.2976
 30
0.0
 10
157.4265
 20
-96.286
 30
0.0
 10
158.7114
 20
-97.9661
 30
0.0
 10
158.7114
 20
-97.9661
 30
0.0
 10
160.3617
 20
-100.1243
 30
0.0
 10
162.6634
 20
-101.7728
 30
0.0
 10
165.1031
 20
-102.92
 30
0.0
 10
165.1031
 20
-102.92
 30
0.0
 10
163.5037
 20
-104.1019
 30
0.0
 10
162.3574
 20
-105.2208
 30
0.0
 10
160.3667
 20
-106.5389
 30
0.0
 10
160.3667
 20
-106.5389
 30
0.0
 10
160.3667
 20
-106.5389
 30
0.0
 10
107.0402
 20
-106.5389
 30
0.0
 10
107.0402
 20
-106.5389
 30
0.0
 10
107.0402
 20
-106.5389
 30
0.0
 10
107.0402
 20
-106.5389
 30
0.0
 10
107.0402
 20
-40.4591
 30
0.0
 10
107.0402
 20
-40.4591
 30
0.0
 10
107.0402
 20
-40.4591
 30
0.0
 10
108.6233
 20
-40.7606
 30
0.0
 10
110.1807
 20
-41.2273
 30
0.0
 10
111.711
 20
-41.7659
 30
0.0
 10
111.711
 20
-41.7659
 30
0.0
 10
115.3576
 20
-43.0497
 30
0.0
 10
118.9159
 20
-44.6524
 30
0.0
 10
122.036
 20
-46.9351
 30
0.0
 10
122.036
 20
-46.9351
 30
0.0
 10
124.4248
 20
-48.6829
 30
0.0
 10
126.6559
 20
-50.8024
 30
0.0
 10
128.6063
 20
-53.1803
 30
0.0
 10
128.6063
 20
-53.1803
 30
0.0
 10
128.2438
 20
-53.0785
 30
0.0
 10
127.862
 20
-52.9497
 30
0.0
 10
127.5086
 20
-52.8426
 30
0.0
 10
127.5086
 20
-52.8426
 30
0.0
 10
124.5365
 20
-51.9434
 30
0.0
 10
121.1203
 20
-51.7365
 30
0.0
 10
118.1068
 20
-52.4276
 30
0.0
 10
118.1068
 20
-52.4276
 30
0.0
 10
115.2972
 20
-53.0718
 30
0.0
 10
112.6354
 20
-54.5006
 30
0.0
 10
112.9064
 20
-57.2743
 30
0.0
 10
112.9064
 20
-57.2743
 30
0.0
 10
114.1555
 20
-59.7811
 30
0.0
 10
118.3673
 20
-60.0882
 30
0.0
 10
122.0801
 20
-59.6317
 30
0.0
 10
122.0801
 20
-59.6317
 30
0.0
 10
125.6508
 20
-59.193
 30
0.0
 10
129.3631
 20
-57.842
 30
0.0
 10
130.829
 20
-56.1886
 30
0.0
 10
130.829
 20
-56.1886
 30
0.0
 10
130.918
 20
-56.323
 30
0.0
 10
131.0063
 20
-56.458
 30
0.0
 10
131.0937
 20
-56.5936
 30
0.0
 10
131.0937
 20
-56.5936
 30
0.0
 10
131.0265
 20
-56.6596
 30
0.0
 10
130.959
 20
-56.728
 30
0.0
 10
130.8917
 20
-56.7994
 30
0.0
 10
130.8917
 20
-56.7994
 30
0.0
 10
127.722
 20
-60.1546
 30
0.0
 10
123.0406
 20
-65.1043
 30
0.0
 10
123.8941
 20
-70.0086
 30
0.0
 10
123.8941
 20
-70.0086
 30
0.0
 10
124.0618
 20
-70.9717
 30
0.0
 10
124.4485
 20
-71.8122
 30
0.0
 10
125.0942
 20
-72.2745
 30
0.0
 10
125.0942
 20
-72.2745
 30
0.0
 10
126.526
 20
-73.3
 30
0.0
 10
130.118
 20
-70.6713
 30
0.0
 10
130.9674
 20
-69.6633
 30
0.0
 10
130.9674
 20
-69.6633
 30
0.0
 10
131.7598
 20
-68.7226
 30
0.0
 10
132.3744
 20
-67.7012
 30
0.0
 10
132.8737
 20
-66.6301
 30
0.0
 10
132.8737
 20
-66.6301
 30
0.0
 10
133.4513
 20
-65.3906
 30
0.0
 10
135.0137
 20
-63.2562
 30
0.0
 10
135.3799
 20
-61.9325
 30
0.0
 10
135.3799
 20
-61.9325
 30
0.0
 10
138.3987
 20
-67.3111
 30
0.0
 10
137.3331
 20
-75.9082
 30
0.0
 10
133.8306
 20
-79.2329
 30
0.0
 10
133.8306
 20
-79.2329
 30
0.0
 10
132.0226
 20
-78.563
 30
0.0
 10
129.8394
 20
-78.7931
 30
0.0
 10
128.358
 20
-79.9931
 30
0.0
 10
128.358
 20
-79.9931
 30
0.0
 10
127.7758
 20
-78.5001
 30
0.0
 10
126.6434
 20
-77.0521
 30
0.0
 10
125.7502
 20
-76.0738
 30
0.0
 10
125.7502
 20
-76.0738
 30
0.0
 10
124.0778
 20
-74.2425
 30
0.0
 10
121.9083
 20
-72.8556
 30
0.0
 10
119.4229
 20
-72.764
 30
0.0
 10
119.4229
 20
-72.764
 30
0.0
 10
117.8211
 20
-72.7051
 30
0.0
 10
116.3957
 20
-73.2827
 30
0.0
 10
115.7396
 20
-74.7553
 30
0.0
 10
115.7396
 20
-74.7553
 30
0.0
 10
114.8043
 20
-76.8547
 30
0.0
 10
115.5408
 20
-79.3628
 30
0.0
 10
117.1149
 20
-80.9329
 30
0.0
 10
117.1149
 20
-80.9329
 30
0.0
 10
117.978
 20
-81.7933
 30
0.0
 10
119.0321
 20
-82.3919
 30
0.0
 10
120.1173
 20
-82.866
 30
0.0
 10
120.1173
 20
-82.866
 30
0.0
 10
119.434
 20
-83.0287
 30
0.0
 10
118.7442
 20
-83.277
 30
0.0
 10
118.0593
 20
-83.5998
 30
0.0
 10
118.0593
 20
-83.5998
 30
0.0
 10
116.3417
 20
-84.4102
 30
0.0
 10
114.6549
 20
-85.6891
 30
0.0
 10
114.6209
 20
-87.2194
 30
0.0
 10
114.6209
 20
-87.2194
 30
0.0
 10
114.5633
 20
-89.8923
 30
0.0
 10
116.7139
 20
-91.0965
 30
0.0
 10
118.9978
 20
-91.4547
 30
0.0
 10
118.9978
 20
-91.4547
 30
0.0
 10
117.6996
 20
-91.7484
 30
0.0
 10
116.4391
 20
-92.2625
 30
0.0
 10
115.1536
 20
-93.0114
 30
0.0
 10
115.1536
 20
-93.0114
 30
0.0
 10
112.1151
 20
-94.7816
 30
0.0
 10
110.1258
 20
-97.4489
 30
0.0
 10
110.5686
 20
-101.8062
 30
0.0
 10
110.5686
 20
-101.8062
 30
0.0
 10
113.2572
 20
-102.3709
 30
0.0
 10
116.3112
 20
-102.0315
 30
0.0
 10
118.42
 20
-100.3008
 30
0.0
 10
118.42
 20
-100.3008
 30
0.0
 10
120.8078
 20
-98.3412
 30
0.0
 10
122.0502
 20
-96.853
 30
0.0
 10
122.7588
 20
-95.5887
 30
0.0
 10
122.7588
 20
-95.5887
 30
0.0
 10
122.7599
 20
-95.6044
 30
0.0
 10
122.7612
 20
-95.6201
 30
0.0
 10
122.7626
 20
-95.6358
 30
0.0
 10
122.7626
 20
-95.6358
 30
0.0
 10
122.9414
 20
-97.6833
 30
0.0
 10
123.9751
 20
-99.7775
 30
0.0
 10
125.6725
 20
-100.6855
 30
0.0
 10
125.6725
 20
-100.6855
 30
0.0
 10
127.3989
 20
-101.6094
 30
0.0
 10
129.8124
 20
-101.3065
 30
0.0
 10
131.5782
 20
-100.1723
 30
0.0
 10
131.5782
 20
-100.1723
 30
0.0
 10
133.9649
 20
-98.6386
 30
0.0
 10
135.1692
 20
-95.5862
 30
0.0
 10
134.7448
 20
-92.8113
 30
0.0
 10
134.7448
 20
-92.8113
 30
0.0
 10
134.7258
 20
-92.6878
 30
0.0
 10
134.7038
 20
-92.5648
 30
0.0
 10
134.6784
 20
-92.4426
 30
0.0
 10
134.6784
 20
-92.4426
 30
0.0
 10
135.8542
 20
-93.6534
 30
0.0
 10
137.3103
 20
-94.6565
 30
0.0
 10
138.3368
 20
-95.1306
 30
0.0
 10
138.3368
 20
-95.1306
 30
0.0
 10
140.8618
 20
-96.2968
 30
0.0
 10
146.2087
 20
-96.6067
 30
0.0
 10
147.7366
 20
-93.8242
 30
0.0
 10
147.7366
 20
-93.8242
 30
0.0
 10
149.5377
 20
-87.4554
 30
0.0
 10
142.129
 20
-82.226
 30
0.0
 10
136.9923
 20
-83.537
 30
0.0
 10
136.9923
 20
-83.537
 30
0.0
 10
137.0145
 20
-83.0829
 30
0.0
 10
136.9644
 20
-82.6358
 30
0.0
 10
136.8151
 20
-82.245
 30
0.0
 10
136.8151
 20
-82.245
 30
0.0
 10
136.6655
 20
-81.7748
 30
0.0
 10
136.4488
 20
-81.3525
 30
0.0
 10
136.1804
 20
-80.9785
 30
0.0
 10
136.1804
 20
-80.9785
 30
0.0
 10
136.6433
 20
-80.2905
 30
0.0
 10
137.0563
 20
-79.4845
 30
0.0
 10
137.4048
 20
-78.7009
 30
0.0
 10
137.4048
 20
-78.7009
 30
0.0
 10
138.3237
 20
-77.3586
 30
0.0
 10
139.0146
 20
-75.9623
 30
0.0
 10
139.5012
 20
-74.5349
 30
0.0
 10
139.5012
 20
-74.5349
 30
0.0
 10
139.8662
 20
-75.4039
 30
0.0
 10
140.2948
 20
-76.2455
 30
0.0
 10
140.8124
 20
-77.042
 30
0.0
 10
140.8124
 20
-77.042
 30
0.0
 10
142.2746
 20
-79.2931
 30
0.0
 10
144.4473
 20
-81.1819
 30
0.0
 10
146.9777
 20
-82.1047
 30
0.0
 10
146.9777
 20
-82.1047
 30
0.0
 10
148.8765
 20
-82.7976
 30
0.0
 10
150.4148
 20
-83.03
 30
0.0
 10
152.3817
 20
-82.6894
 30
0.0
 10
152.3817
 20
-82.6894
 30
0.0
 10
152.6506
 20
-78.403
 30
0.0
 10
150.2065
 20
-74.5225
 30
0.0
 10
146.7453
 20
-72.1937
 30
0.0
 10
146.7453
 20
-72.1937
 30
0.0
 10
144.9092
 20
-70.9582
 30
0.0
 10
142.6508
 20
-70.1006
 30
0.0
 10
140.3845
 20
-69.9207
 30
0.0
 10
140.3845
 20
-69.9207
 30
0.0
 10
140.5066
 20
-67.6286
 30
0.0
 10
140.1882
 20
-65.3185
 30
0.0
 10
139.5161
 20
-63.0763
 30
0.0
 10
139.5161
 20
-63.0763
 30
0.0
 10
139.0578
 20
-61.5477
 30
0.0
 10
138.4193
 20
-60.0344
 30
0.0
 10
137.6303
 20
-58.5511
 30
0.0
 10
137.6303
 20
-58.5511
 30
0.0
 10
147.4549
 20
-58.6467
 30
0.0
 10
155.094
 20
-55.6677
 30
0.0
 10
163.3588
 20
-50.6242
 30
0.0
 10
163.3588
 20
-50.6242
 30
0.0
 10
166.759
 20
-48.5493
 30
0.0
 10
171.3779
 20
-44.5468
 30
0.0
 10
175.1433
 20
-44.5763
 30
0.0
 10
175.1433
 20
-44.5763
 30
0.0
 10
177.6088
 20
-44.5955
 30
0.0
 10
180.1998
 20
-45.5579
 30
0.0
 10
182.1684
 20
-47.1859
 30
0.0
 10
182.1684
 20
-47.1859
 30
0.0
 10
183.603
 20
-48.3714
 30
0.0
 10
184.7076
 20
-49.911
 30
0.0
 10
185.3806
 20
-51.6022
 30
0.0
 10
185.3806
 20
-51.6022
 30
0.0
 10
183.4738
 20
-51.6659
 30
0.0
 10
181.224
 20
-52.1745
 30
0.0
 10
180.0478
 20
-53.6797
 30
0.0
 10
180.0478
 20
-53.6797
 30
0.0
 10
178.9055
 20
-55.1401
 30
0.0
 10
178.7751
 20
-57.539
 30
0.0
 10
179.6515
 20
-59.2201
 30
0.0
 10
179.6515
 20
-59.2201
 30
0.0
 10
180.4138
 20
-60.6818
 30
0.0
 10
181.9373
 20
-61.6015
 30
0.0
 10
183.6092
 20
-61.9903
 30
0.0
 10
183.6092
 20
-61.9903
 30
0.0
 10
185.6995
 20
-62.4761
 30
0.0
 10
188.0224
 20
-62.1331
 30
0.0
 10
189.5459
 20
-60.8822
 30
0.0
 10
189.5459
 20
-60.8822
 30
0.0
 10
192.8657
 20
-58.1545
 30
0.0
 10
192.5521
 20
-52.2161
 30
0.0
 10
190.9625
 20
-48.708
 30
0.0
 10
190.9625
 20
-48.708
 30
0.0
 10
188.9709
 20
-44.3144
 30
0.0
 10
182.7014
 20
-41.3284
 30
0.0
 10
177.9105
 20
-40.7782
 30
0.0
 10
177.9105
 20
-40.7782
 30
0.0
 10
177.3331
 20
-40.7116
 30
0.0
 10
176.7435
 20
-40.6917
 30
0.0
 10
176.1693
 20
-40.7782
 30
0.0
 10
176.1693
 20
-40.7782
 30
0.0
 10
176.3806
 20
-40.7269
 30
0.0
 10
176.592
 20
-40.6743
 30
0.0
 10
176.8022
 20
-40.6194
 30
0.0
 10
176.8022
 20
-40.6194
 30
0.0
 10
178.3876
 20
-40.2058
 30
0.0
 10
179.9359
 20
-39.6361
 30
0.0
 10
181.5516
 20
-39.3529
 30
0.0
 10
181.5516
 20
-39.3529
 30
0.0
 10
185.373
 20
-38.6838
 30
0.0
 10
189.507
 20
-39.3958
 30
0.0
 10
193.3817
 20
-39.5797
 30
0.0
  0
SPLINE
  5
85
330
1F
100
AcDbEntity
  8
layer 1
 62
     7
100
AcDbSpline
210
0.0
220
0.0
230
1.0
 70
    11
 71
     3
 72
    32
 73
    28
 74
     0
 42
0.0000000001
 43
0.0000000001
 12
1.0
 22
0.0
 32
0.0
 13
1.0
 23
0.0
 33
0.0
 40
0.0
 40
0.0
 40
0.0
 40
0.0
 40
0.125
 40
0.125
 40
0.125
 40
0.125
 40
0.25
 40
0.25
 40
0.25
 40
0.25
 40
0.375
 40
0.375
 40
0.375
 40
0.375
 40
0.5
 40
0.5
 40
0.5
 40
0.5
 40
0.625
 40
0.625
 40
0.625
 40
0.625
 40
0.75
 40
0.75
 40
0.75
 40
0.75
 40
1.0
 40
1.0
 40
1.0
 40
1.0
 10
193.3817
 20
-15.662
 30
0.0
 10
193.3817
 20
-15.662
 30
0.0
 10
193.3817
 20
-36.8862
 30
0.0
 10
193.3817
 20
-36.8862
 30
0.0
 10
193.3817
 20
-36.8862
 30
0.0
 10
192.3961
 20
-36.768
 30
0.0
 10
191.4059
 20
-36.6915
 30
0.0
 10
190.4161
 20
-36.6618
 30
0.0
 10
190.4161
 20
-36.6618
 30
0.0
 10
186.6048
 20
-36.5483
 30
0.0
 10
182.0006
 20
-36.7517
 30
0.0
 10
178.385
 20
-38.0075
 30
0.0
 10
178.385
 20
-38.0075
 30
0.0
 10
176.8943
 20
-38.5254
 30
0.0
 10
177.0976
 20
-38.7137
 30
0.0
 10
175.5764
 20
-39.1612
 30
0.0
 10
175.5764
 20
-39.1612
 30
0.0
 10
175.0946
 20
-39.3039
 30
0.0
 10
175.0971
 20
-39.0766
 30
0.0
 10
175.3801
 20
-38.8757
 30
0.0
 10
175.3801
 20
-38.8757
 30
0.0
 10
180.2696
 20
-35.4039
 30
0.0
 10
184.4449
 20
-30.1708
 30
0.0
 10
188.7382
 20
-24.1505
 30
0.0
 10
188.7382
 20
-24.1505
 30
0.0
 10
190.0306
 20
-22.3382
 30
0.0
 10
192.304
 20
-17.6125
 30
0.0
 10
193.3817
 20
-15.662
 30
0.0
  0
SPLINE
  5
86
330
1F
100
AcDbEntity
  8
layer 1
 62
     7
100
AcDbSpline
210
0.0
220
0.0
230
1.0
 70
    11
 71
     3
 72
   296
 73
   292
 74
     0
 42
0.0000000001
 43
0.0000000001
 12
1.0
 22
0.0
 32
0.0
 13
1.0
 23
0.0
 33
0.0
 40
0.0
 40
0.0
 40
0.0
 40
0.0
 40
0.0135135135135135
 40
0.0135135135135135
 40
0.0135135135135135
 40
0.0135135135135135
 40
0.027027027027027
 40
0.027027027027027
 40
0.027027027027027
 40
0.027027027027027
 40
0.0405405405405405
 40
0.0405405405405405
 40
0.0405405405405405
 40
0.0405405405405405
 40
0.0540540540540541
 40
0.0540540540540541
 40
0.0540540540540541
 40
0.0540540540540541
 40
0.0675675675675676
 40
0.0675675675675676
 40
0.0675675675675676
 40
0.0675675675675676
 40
0.0810810810810811
 40
0.0810810810810811
 40
0.0810810810810811
 40
0.0810810810810811
 40
0.0945945945945946
 40
0.0945945945945946
 40
0.0945945945945946
 40
0.0945945945945946
 40
0.1081081081081081
 40
0.1081081081081081
 40
0.1081081081081081
 40
0.1081081081081081
 40
0.1216216216216216
 40
0.1216216216216216
 40
0.1216216216216216
 40
0.1216216216216216
 40
0.1351351351351351
 40
0.1351351351351351
 40
0.1351351351351351
 40
0.1351351351351351
 40
0.1486486486486487
 40
0.1486486486486487
 40
0.1486486486486487
 40
0.1486486486486487
 40
0.1621621621621622
 40
0.1621621621621622
 40
0.1621621621621622
 40
0.1621621621621622
 40
0.1756756756756757
 40
0.1756756756756757
 40
0.1756756756756757
 40
0.1756756756756757
 40
0.1891891891891892
 40
0.1891891891891892
 40
0.1891891891891892
 40
0.1891891891891892
 40
0.2027027027027027
 40
0.2027027027027027
 40
0.2027027027027027
 40
0.2027027027027027
 40
0.2162162162162162
 40
0.2162162162162162
 40
0.2162162162162162
 40
0.2162162162162162
 40
0.2297297297297297
 40
0.2297297297297297
 40
0.2297297297297297
 40
0.2297297297297297
 40
0.2432432432432433
 40
0.2432432432432433
 40
0.2432432432432433
 40
0.2432432432432433
 40
0.2567567567567567
 40
0.2567567567567567
 40
0.2567567567567567
 40
0.2567567567567567
 40
0.2702702702702703
 40
0.2702702702702703
 40
0.2702702702702703
 40
0.2702702702702703
 40
0.2837837837837838
 40
0.2837837837837838
 40
0.2837837837837838
 40
0.2837837837837838
 40
0.2972972972972973
 40
0.2972972972972973
 40
0.2972972972972973
 40
0.2972972972972973
 40
0.3108108108108108
 40
0.3108108108108108
 40
0.3108108108108108
 40
0.3108108108108108
 40
0.3243243243243243
 40
0.3243243243243243
 40
0.3243243243243243
 40
0.3243243243243243
 40
0.3378378378378378
 40
0.3378378378378378
 40
0.3378378378378378
 40
0.3378378378378378
 40
0.3513513513513514
 40
0.3513513513513514
 40
0.3513513513513514
 40
0.3513513513513514
 40
0.3648648648648649
 40
0.3648648648648649
 40
0.3648648648648649
 40
0.3648648648648649
 40
0.3783783783783784
 40
0.3783783783783784
 40
0.3783783783783784
 40
0.3783783783783784
 40
0.3918918918918919
 40
0.3918918918918919
 40
0.3918918918918919
 40
0.3918918918918919
 40
0.4054054054054054
 40
0.4054054054054054
 40
0.4054054054054054
 40
0.4054054054054054
 40
0.4189189189189189
 40
0.4189189189189189
 40
0.4189189189189189
 40
0.4189189189189189
 40
0.4324324324324325
 40
0.4324324324324325
 40
0.4324324324324325
 40
0.4324324324324325
 40
0.4459459459459459
 40
0.4459459459459459
 40
0.4459459459459459
 40
0.4459459459459459
 40
0.4594594594594595
 40
0.4594594594594595
 40
0.4594594594594595
 40
0.4594594594594595
 40
0.472972972972973
 40
0.472972972972973
 40
0.472972972972973
 40
0.472972972972973
 40
0.4864864864864865
 40
0.4864864864864865
 40
0.4864864864864865
 40
0.4864864864864865
 40
0.5
 40
0.5
 40
0.5
 40
0.5
 40
0.5135135135135135
 40
0.5135135135135135
 40
0.5135135135135135
 40
0.5135135135135135
 40
0.527027027027027
 40
0.527027027027027
 40
0.527027027027027
 40
0.527027027027027
 40
0.5405405405405406
 40
0.5405405405405406
 40
0.5405405405405406
 40
0.5405405405405406
 40
0.5540540540540541
 40
0.5540540540540541
 40
0.5540540540540541
 40
0.5540540540540541
 40
0.5675675675675675
 40
0.5675675675675675
 40
0.5675675675675675
 40
0.5675675675675675
 40
0.581081081081081
 40
0.581081081081081
 40
0.581081081081081
 40
0.581081081081081
 40
0.5945945945945946
 40
0.5945945945945946
 40
0.5945945945945946
 40
0.5945945945945946
 40
0.6081081081081081
 40
0.6081081081081081
 40
0.6081081081081081
 40
0.6081081081081081
 40
0.6216216216216216
 40
0.6216216216216216
 40
0.6216216216216216
 40
0.6216216216216216
 40
0.6351351351351351
 40
0.6351351351351351
 40
0.6351351351351351
 40
0.6351351351351351
 40
0.6486486486486487
 40
0.6486486486486487
 40
0.6486486486486487
 40
0.6486486486486487
 40
0.6621621621621622
 40
0.6621621621621622
 40
0.6621621621621622
 40
0.6621621621621622
 40
0.6756756756756757
 40
0.6756756756756757
 40
0.6756756756756757
 40
0.6756756756756757
 40
0.6891891891891891
 40
0.6891891891891891
 40
0.6891891891891891
 40
0.6891891891891891
 40
0.7027027027027027
 40
0.7027027027027027
 40
0.7027027027027027
 40
0.7027027027027027
 40
0.7162162162162162
 40
0.7162162162162162
 40
0.7162162162162162
 40
0.7162162162162162
 40
0.7297297297297297
 40
0.7297297297297297
 40
0.7297297297297297
 40
0.7297297297297297
 40
0.7432432432432432
 40
0.7432432432432432
 40
0.7432432432432432
 40
0.7432432432432432
 40
0.7567567567567568
 40
0.7567567567567568
 40
0.7567567567567568
 40
0.7567567567567568
 40
0.7702702702702703
 40
0.7702702702702703
 40
0.7702702702702703
 40
0.7702702702702703
 40
0.7837837837837838
 40
0.7837837837837838
 40
0.7837837837837838
 40
0.7837837837837838
 40
0.7972972972972973
 40
0.7972972972972973
 40
0.7972972972972973
 40
0.7972972972972973
 40
0.8108108108108109
 40
0.8108108108108109
 40
0.8108108108108109
 40
0.8108108108108109
 40
0.8243243243243243
 40
0.8243243243243243
 40
0.8243243243243243
 40
0.8243243243243243
 40
0.8378378378378378
 40
0.8378378378378378
 40
0.8378378378378378
 40
0.8378378378378378
 40
0.8513513513513513
 40
0.8513513513513513
 40
0.8513513513513513
 40
0.8513513513513513
 40
0.8648648648648649
 40
0.8648648648648649
 40
0.8648648648648649
 40
0.8648648648648649
 40
0.8783783783783784
 40
0.8783783783783784
 40
0.8783783783783784
 40
0.8783783783783784
 40
0.8918918918918919
 40
0.8918918918918919
 40
0.8918918918918919
 40
0.8918918918918919
 40
0.9054054054054054
 40
0.9054054054054054
 40
0.9054054054054054
 40
0.9054054054054054
 40
0.918918918918919
 40
0.918918918918919
 40
0.918918918918919
 40
0.918918918918919
 40
0.9324324324324325
 40
0.9324324324324325
 40
0.9324324324324325
 40
0.9324324324324325
 40
0.9459459459459459
 40
0.9459459459459459
 40
0.9459459459459459
 40
0.9459459459459459
 40
0.9594594594594594
 40
0.9594594594594594
 40
0.9594594594594594
 40
0.9594594594594594
 40
0.972972972972973
 40
0.972972972972973
 40
0.972972972972973
 40
0.972972972972973
 40
1.0
 40
1.0
 40
1.0
 40
1.0
 10
193.3817
 20
11.5465
 30
0.0
 10
193.3817
 20
11.5465
 30
0.0
 10
193.3817
 20
-9.1504
 30
0.0
 10
193.3817
 20
-9.1504
 30
0.0
 10
193.3817
 20
-9.1504
 30
0.0
 10
192.0776
 20
-12.2964
 30
0.0
 10
190.4389
 20
-15.5082
 30
0.0
 10
188.6998
 20
-18.5679
 30
0.0
 10
188.6998
 20
-18.5679
 30
0.0
 10
187.4449
 20
-20.7752
 30
0.0
 10
186.1383
 20
-22.9032
 30
0.0
 10
184.6846
 20
-24.9558
 30
0.0
 10
184.6846
 20
-24.9558
 30
0.0
 10
184.752
 20
-23.8612
 30
0.0
 10
184.7822
 20
-22.7654
 30
0.0
 10
184.8669
 20
-21.6708
 30
0.0
 10
184.8669
 20
-21.6708
 30
0.0
 10
185.0017
 20
-19.9296
 30
0.0
 10
185.2725
 20
-18.1903
 30
0.0
 10
185.097
 20
-16.4454
 30
0.0
 10
185.097
 20
-16.4454
 30
0.0
 10
184.8529
 20
-14.0206
 30
0.0
 10
183.7458
 20
-11.5849
 30
0.0
 10
181.9466
 20
-9.8962
 30
0.0
 10
181.9466
 20
-9.8962
 30
0.0
 10
181.622
 20
-9.5916
 30
0.0
 10
181.2747
 20
-9.311
 30
0.0
 10
180.8686
 20
-9.1495
 30
0.0
 10
180.8686
 20
-9.1495
 30
0.0
 10
180.3092
 20
-9.576
 30
0.0
 10
179.8042
 20
-10.0823
 30
0.0
 10
179.3766
 20
-10.6422
 30
0.0
 10
179.3766
 20
-10.6422
 30
0.0
 10
178.8566
 20
-11.3209
 30
0.0
 10
178.4505
 20
-12.0793
 30
0.0
 10
178.1329
 20
-12.8804
 30
0.0
 10
178.1329
 20
-12.8804
 30
0.0
 10
177.1643
 20
-15.321
 30
0.0
 10
177.0186
 20
-18.1576
 30
0.0
 10
177.7182
 20
-20.6731
 30
0.0
 10
177.7182
 20
-20.6731
 30
0.0
 10
178.2701
 20
-22.6578
 30
0.0
 10
179.3481
 20
-24.4422
 30
0.0
 10
180.3711
 20
-26.2279
 30
0.0
 10
180.3711
 20
-26.2279
 30
0.0
 10
180.6923
 20
-26.7884
 30
0.0
 10
181.0089
 20
-27.3498
 30
0.0
 10
181.3661
 20
-27.8861
 30
0.0
 10
181.3661
 20
-27.8861
 30
0.0
 10
181.049
 20
-28.3386
 30
0.0
 10
180.7115
 20
-28.7762
 30
0.0
 10
180.3711
 20
-29.2126
 30
0.0
 10
180.3711
 20
-29.2126
 30
0.0
 10
177.8388
 20
-32.4582
 30
0.0
 10
175.1754
 20
-35.6055
 30
0.0
 10
172.3297
 20
-38.5809
 30
0.0
 10
172.3297
 20
-38.5809
 30
0.0
 10
170.7888
 20
-40.1918
 30
0.0
 10
169.1941
 20
-41.7516
 30
0.0
 10
167.521
 20
-43.2234
 30
0.0
 10
167.521
 20
-43.2234
 30
0.0
 10
168.2807
 20
-42.4539
 30
0.0
 10
168.8214
 20
-41.5064
 30
0.0
 10
169.2622
 20
-40.4877
 30
0.0
 10
169.2622
 20
-40.4877
 30
0.0
 10
170.3253
 20
-38.0264
 30
0.0
 10
170.8012
 20
-35.145
 30
0.0
 10
170.0082
 20
-32.6943
 30
0.0
 10
170.0082
 20
-32.6943
 30
0.0
 10
169.4377
 20
-30.9308
 30
0.0
 10
168.2095
 20
-29.3907
 30
0.0
 10
166.9407
 20
-27.969
 30
0.0
 10
166.9407
 20
-27.969
 30
0.0
 10
166.1352
 20
-27.0661
 30
0.0
 10
165.3131
 20
-26.2119
 30
0.0
 10
164.3707
 20
-25.4818
 30
0.0
 10
164.3707
 20
-25.4818
 30
0.0
 10
164.6365
 20
-25.2514
 30
0.0
 10
164.8775
 20
-24.9941
 30
0.0
 10
165.1166
 20
-24.7358
 30
0.0
 10
165.1166
 20
-24.7358
 30
0.0
 10
165.7756
 20
-24.0237
 30
0.0
 10
166.4207
 20
-23.2969
 30
0.0
 10
166.8578
 20
-22.4143
 30
0.0
 10
166.8578
 20
-22.4143
 30
0.0
 10
167.4356
 20
-21.2479
 30
0.0
 10
167.6489
 20
-19.8098
 30
0.0
 10
167.2725
 20
-18.6007
 30
0.0
 10
167.2725
 20
-18.6007
 30
0.0
 10
166.817
 20
-17.1407
 30
0.0
 10
165.5005
 20
-16.0158
 30
0.0
 10
164.1222
 20
-15.2019
 30
0.0
 10
164.1222
 20
-15.2019
 30
0.0
 10
162.5373
 20
-14.266
 30
0.0
 10
160.8704
 20
-13.7413
 30
0.0
 10
159.1478
 20
-13.2951
 30
0.0
 10
159.1478
 20
-13.2951
 30
0.0
 10
157.2324
 20
-12.7981
 30
0.0
 10
155.2476
 20
-12.3982
 30
0.0
 10
153.2618
 20
-12.6319
 30
0.0
 10
153.2618
 20
-12.6319
 30
0.0
 10
149.6604
 20
-13.0537
 30
0.0
 10
149.817
 20
-13.0637
 30
0.0
 10
152.9088
 20
-11.6967
 30
0.0
 10
152.9088
 20
-11.6967
 30
0.0
 10
154.899
 20
-10.8159
 30
0.0
 10
156.7954
 20
-9.817
 30
0.0
 10
158.6286
 20
-8.5192
 30
0.0
 10
158.6286
 20
-8.5192
 30
0.0
 10
161.3548
 20
-6.5879
 30
0.0
 10
164.2581
 20
-3.439
 30
0.0
 10
162.865
 20
0.1656
 30
0.0
 10
162.865
 20
0.1656
 30
0.0
 10
161.471
 20
3.7681
 30
0.0
 10
156.7542
 20
4.4442
 30
0.0
 10
153.528
 20
3.1682
 30
0.0
 10
153.528
 20
3.1682
 30
0.0
 10
149.0124
 20
1.3823
 30
0.0
 10
145.3861
 20
-3.7701
 30
0.0
 10
144.7538
 20
-7.4598
 30
0.0
 10
144.7538
 20
-7.4598
 30
0.0
 10
144.7445
 20
-7.4926
 30
0.0
 10
144.7353
 20
-7.5254
 30
0.0
 10
144.7264
 20
-7.5585
 30
0.0
 10
144.7264
 20
-7.5585
 30
0.0
 10
144.0835
 20
-7.1222
 30
0.0
 10
143.3811
 20
-6.7672
 30
0.0
 10
142.6344
 20
-6.5072
 30
0.0
 10
142.6344
 20
-6.5072
 30
0.0
 10
142.7506
 20
-6.2931
 30
0.0
 10
142.8911
 20
-6.0479
 30
0.0
 10
143.0591
 20
-5.7655
 30
0.0
 10
143.0591
 20
-5.7655
 30
0.0
 10
145.7211
 20
-3.7677
 30
0.0
 10
147.0441
 20
0.8011
 30
0.0
 10
147.0654
 20
4.045
 30
0.0
 10
147.0654
 20
4.045
 30
0.0
 10
147.0762
 20
5.6638
 30
0.0
 10
146.663
 20
7.2227
 30
0.0
 10
145.5494
 20
8.8523
 30
0.0
 10
145.5494
 20
8.8523
 30
0.0
 10
145.1327
 20
9.4616
 30
0.0
 10
144.6704
 20
10.0259
 30
0.0
 10
144.0745
 20
10.4747
 30
0.0
 10
144.0745
 20
10.4747
 30
0.0
 10
143.1166
 20
11.196
 30
0.0
 10
141.8136
 20
11.6175
 30
0.0
 10
140.6812
 20
11.4334
 30
0.0
 10
140.6812
 20
11.4334
 30
0.0
 10
137.6717
 20
10.945
 30
0.0
 10
135.4507
 20
7.4013
 30
0.0
 10
134.3646
 20
3.808
 30
0.0
 10
134.3646
 20
3.808
 30
0.0
 10
134.3611
 20
3.8781
 30
0.0
 10
134.3601
 20
3.9383
 30
0.0
 10
134.3613
 20
3.9879
 30
0.0
 10
134.3613
 20
3.9879
 30
0.0
 10
134.527
 20
10.0622
 30
0.0
 10
136.7106
 20
15.5826
 30
0.0
 10
140.5799
 20
20.6095
 30
0.0
 10
140.5799
 20
20.6095
 30
0.0
 10
140.7332
 20
15.084
 30
0.0
 10
143.6469
 20
8.5135
 30
0.0
 10
149.3072
 20
7.804
 30
0.0
 10
149.3072
 20
7.804
 30
0.0
 10
149.4235
 20
8.283
 30
0.0
 10
149.4778
 20
8.7744
 30
0.0
 10
149.5267
 20
9.2664
 30
0.0
 10
149.5267
 20
9.2664
 30
0.0
 10
149.7473
 20
11.5069
 30
0.0
 10
149.8431
 20
13.7703
 30
0.0
 10
149.3072
 20
15.9942
 30
0.0
 10
149.3072
 20
15.9942
 30
0.0
 10
148.8347
 20
17.9503
 30
0.0
 10
147.9804
 20
19.9102
 30
0.0
 10
146.6593
 20
21.4491
 30
0.0
 10
146.6593
 20
21.4491
 30
0.0
 10
150.7022
 20
19.8916
 30
0.0
 10
155.8185
 20
19.4965
 30
0.0
 10
160.5559
 20
22.6244
 30
0.0
 10
160.5559
 20
22.6244
 30
0.0
 10
160.9459
 20
22.8925
 30
0.0
 10
161.3166
 20
23.1917
 30
0.0
 10
161.5848
 20
23.5738
 30
0.0
 10
161.5848
 20
23.5738
 30
0.0
 10
161.172
 20
24.1733
 30
0.0
 10
160.6033
 20
24.6516
 30
0.0
 10
160.002
 20
25.0776
 30
0.0
 10
160.002
 20
25.0776
 30
0.0
 10
157.4913
 20
26.8546
 30
0.0
 10
154.4033
 20
27.7131
 30
0.0
 10
151.298
 20
27.768
 30
0.0
 10
151.298
 20
27.768
 30
0.0
 10
150.2162
 20
27.7874
 30
0.0
 10
149.1321
 20
27.7087
 30
0.0
 10
148.0816
 20
27.5079
 30
0.0
 10
148.0816
 20
27.5079
 30
0.0
 10
150.6547
 20
29.1037
 30
0.0
 10
153.4723
 20
30.2428
 30
0.0
 10
156.5066
 20
30.9766
 30
0.0
 10
156.5066
 20
30.9766
 30
0.0
 10
166.2255
 20
33.326
 30
0.0
 10
176.6754
 20
31.0286
 30
0.0
 10
186.6632
 20
24.1158
 30
0.0
 10
186.6632
 20
24.1158
 30
0.0
 10
188.9384
 20
22.1584
 30
0.0
 10
190.9613
 20
19.8776
 30
0.0
 10
192.3929
 20
17.2402
 30
0.0
 10
192.3929
 20
17.2402
 30
0.0
 10
192.5572
 20
16.9379
 30
0.0
 10
192.7136
 20
16.6314
 30
0.0
 10
192.8101
 20
16.3032
 30
0.0
 10
192.8101
 20
16.3032
 30
0.0
 10
191.6697
 20
17.9937
 30
0.0
 10
190.2258
 20
19.4839
 30
0.0
 10
188.6428
 20
20.7825
 30
0.0
 10
188.6428
 20
20.7825
 30
0.0
 10
185.7366
 20
23.1664
 30
0.0
 10
182.3631
 20
24.9045
 30
0.0
 10
178.7461
 20
26.0956
 30
0.0
 10
178.7461
 20
26.0956
 30
0.0
 10
176.0746
 20
26.9744
 30
0.0
 10
173.2711
 20
27.5555
 30
0.0
 10
170.5163
 20
27.137
 30
0.0
 10
170.5163
 20
27.137
 30
0.0
 10
169.7936
 20
27.0277
 30
0.0
 10
169.0748
 20
26.8491
 30
0.0
 10
168.4326
 20
26.5121
 30
0.0
 10
168.4326
 20
26.5121
 30
0.0
 10
168.6472
 20
25.9787
 30
0.0
 10
168.8962
 20
25.4596
 30
0.0
 10
169.162
 20
24.9497
 30
0.0
 10
169.162
 20
24.9497
 30
0.0
 10
170.791
 20
21.8169
 30
0.0
 10
171.9785
 20
22.4186
 30
0.0
 10
169.2658
 20
20.6781
 30
0.0
 10
169.2658
 20
20.6781
 30
0.0
 10
167.1025
 20
19.2892
 30
0.0
 10
165.1772
 20
16.9671
 30
0.0
 10
165.0993
 20
14.5318
 30
0.0
 10
165.0993
 20
14.5318
 30
0.0
 10
165.0221
 20
12.1292
 30
0.0
 10
166.7429
 20
9.6161
 30
0.0
 10
168.7455
 20
8.1772
 30
0.0
 10
168.7455
 20
8.1772
 30
0.0
 10
168.9902
 20
8.001
 30
0.0
 10
169.2392
 20
7.841
 30
0.0
 10
169.4742
 20
7.6562
 30
0.0
 10
169.4742
 20
7.6562
 30
0.0
 10
170.91
 20
6.5282
 30
0.0
 10
171.826
 20
4.4688
 30
0.0
 10
173.6413
 20
4.1145
 30
0.0
 10
173.6413
 20
4.1145
 30
0.0
 10
174.6253
 20
3.9224
 30
0.0
 10
175.8738
 20
4.2307
 30
0.0
 10
176.4541
 20
5.0522
 30
0.0
 10
176.4541
 20
5.0522
 30
0.0
 10
177.0266
 20
5.8619
 30
0.0
 10
176.9487
 20
7.1704
 30
0.0
 10
176.2459
 20
7.9691
 30
0.0
 10
176.2459
 20
7.9691
 30
0.0
 10
175.8417
 20
8.4283
 30
0.0
 10
175.2303
 20
8.7187
 30
0.0
 10
174.6834
 20
8.5939
 30
0.0
 10
174.6834
 20
8.5939
 30
0.0
 10
174.0443
 20
8.448
 30
0.0
 10
173.4929
 20
7.7354
 30
0.0
 10
173.0164
 20
7.5524
 30
0.0
 10
173.0164
 20
7.5524
 30
0.0
 10
171.8871
 20
7.1178
 30
0.0
 10
171.1807
 20
9.6588
 30
0.0
 10
170.9328
 20
11.7195
 30
0.0
 10
170.9328
 20
11.7195
 30
0.0
 10
170.6077
 20
14.4236
 30
0.0
 10
171.0738
 20
16.3007
 30
0.0
 10
172.3916
 20
17.6569
 30
0.0
 10
172.3916
 20
17.6569
 30
0.0
 10
173.627
 20
18.9294
 30
0.0
 10
175.6111
 20
19.7429
 30
0.0
 10
177.6002
 20
20.0531
 30
0.0
 10
177.6002
 20
20.0531
 30
0.0
 10
180.2381
 20
20.4648
 30
0.0
 10
182.8847
 20
19.9896
 30
0.0
 10
185.1006
 20
18.8034
 30
0.0
 10
185.1006
 20
18.8034
 30
0.0
 10
187.4061
 20
17.569
 30
0.0
 10
189.2454
 20
15.564
 30
0.0
 10
191.143
 20
13.6986
 30
0.0
 10
191.143
 20
13.6986
 30
0.0
 10
191.8859
 20
12.9683
 30
0.0
 10
192.6375
 20
12.2593
 30
0.0
 10
193.3817
 20
11.5465
 30
0.0
  0
SPLINE
  5
87
330
1F
100
AcDbEntity
  8
layer 1
 62
     7
100
AcDbSpline
210
0.0
220
0.0
230
1.0
 70
    11
 71
     3
 72
    32
 73
    28
 74
     0
 42
0.0000000001
 43
0.0000000001
 12
1.0
 22
0.0
 32
0.0
 13
1.0
 23
0.0
 33
0.0
 40
0.0
 40
0.0
 40
0.0
 40
0.0
 40
0.125
 40
0.125
 40
0.125
 40
0.125
 40
0.25
 40
0.25
 40
0.25
 40
0.25
 40
0.375
 40
0.375
 40
0.375
 40
0.375
 40
0.5
 40
0.5
 40
0.5
 40
0.5
 40
0.625
 40
0.625
 40
0.625
 40
0.625
 40
0.75
 40
0.75
 40
0.75
 40
0.75
 40
1.0
 40
1.0
 40
1.0
 40
1.0
 10
193.3817
 20
40.8669
 30
0.0
 10
193.3817
 20
40.8669
 30
0.0
 10
193.3817
 20
38.8384
 30
0.0
 10
193.3817
 20
38.8384
 30
0.0
 10
193.3817
 20
38.8384
 30
0.0
 10
193.3406
 20
38.8751
 30
0.0
 10
193.2992
 20
38.9112
 30
0.0
 10
193.2574
 20
38.9468
 30
0.0
 10
193.2574
 20
38.9468
 30
0.0
 10
192.4516
 20
39.6348
 30
0.0
 10
191.5139
 20
40.1206
 30
0.0
 10
190.1022
 20
40.0347
 30
0.0
 10
190.1022
 20
40.0347
 30
0.0
 10
189.7344
 20
40.0124
 30
0.0
 10
189.3339
 20
39.9513
 30
0.0
 10
189.2319
 20
40.0347
 30
0.0
 10
189.2319
 20
40.0347
 30
0.0
 10
189.0608
 20
40.1755
 30
0.0
 10
189.7338
 20
40.7268
 30
0.0
 10
190.3198
 20
41.0136
 30
0.0
 10
190.3198
 20
41.0136
 30
0.0
 10
191.3223
 20
41.5044
 30
0.0
 10
192.0727
 20
41.2232
 30
0.0
 10
192.8218
 20
41.0136
 30
0.0
 10
192.8218
 20
41.0136
 30
0.0
 10
193.0082
 20
40.9616
 30
0.0
 10
193.1949
 20
40.914
 30
0.0
 10
193.3817
 20
40.8669
 30
0.0
  0
SPLINE
  5
88
330
1F
100
AcDbEntity
  8
layer 1
 62
     7
100
AcDbSpline
210
0.0
220
0.0
230
1.0
 70
    11
 71
     3
 72
   484
 73
   480
 74
     0
 42
0.0000000001
 43
0.0000000001
 12
1.0
 22
0.0
 32
0.0
 13
1.0
 23
0.0
 33
0.0
 40
0.0
 40
0.0
 40
0.0
 40
0.0
 40
0.0082644628099174
 40
0.0082644628099174
 40
0.0082644628099174
 40
0.0082644628099174
 40
0.0165289256198347
 40
0.0165289256198347
 40
0.0165289256198347
 40
0.0165289256198347
 40
0.0247933884297521
 40
0.0247933884297521
 40
0.0247933884297521
 40
0.0247933884297521
 40
0.0330578512396694
 40
0.0330578512396694
 40
0.0330578512396694
 40
0.0330578512396694
 40
0.0413223140495868
 40
0.0413223140495868
 40
0.0413223140495868
 40
0.0413223140495868
 40
0.0495867768595041
 40
0.0495867768595041
 40
0.0495867768595041
 40
0.0495867768595041
 40
0.0578512396694215
 40
0.0578512396694215
 40
0.0578512396694215
 40
0.0578512396694215
 40
0.0661157024793388
 40
0.0661157024793388
 40
0.0661157024793388
 40
0.0661157024793388
 40
0.0743801652892562
 40
0.0743801652892562
 40
0.0743801652892562
 40
0.0743801652892562
 40
0.0826446280991736
 40
0.0826446280991736
 40
0.0826446280991736
 40
0.0826446280991736
 40
0.0909090909090909
 40
0.0909090909090909
 40
0.0909090909090909
 40
0.0909090909090909
 40
0.0991735537190083
 40
0.0991735537190083
 40
0.0991735537190083
 40
0.0991735537190083
 40
0.1074380165289256
 40
0.1074380165289256
 40
0.1074380165289256
 40
0.1074380165289256
 40
0.115702479338843
 40
0.115702479338843
 40
0.115702479338843
 40
0.115702479338843
 40
0.1239669421487603
 40
0.1239669421487603
 40
0.1239669421487603
 40
0.1239669421487603
 40
0.1322314049586777
 40
0.1322314049586777
 40
0.1322314049586777
 40
0.1322314049586777
 40
0.140495867768595
 40
0.140495867768595
 40
0.140495867768595
 40
0.140495867768595
 40
0.1487603305785124
 40
0.1487603305785124
 40
0.1487603305785124
 40
0.1487603305785124
 40
0.1570247933884298
 40
0.1570247933884298
 40
0.1570247933884298
 40
0.1570247933884298
 40
0.1652892561983471
 40
0.1652892561983471
 40
0.1652892561983471
 40
0.1652892561983471
 40
0.1735537190082645
 40
0.1735537190082645
 40
0.1735537190082645
 40
0.1735537190082645
 40
0.1818181818181818
 40
0.1818181818181818
 40
0.1818181818181818
 40
0.1818181818181818
 40
0.1900826446280992
 40
0.1900826446280992
 40
0.1900826446280992
 40
0.1900826446280992
 40
0.1983471074380165
 40
0.1983471074380165
 40
0.1983471074380165
 40
0.1983471074380165
 40
0.2066115702479339
 40
0.2066115702479339
 40
0.2066115702479339
 40
0.2066115702479339
 40
0.2148760330578512
 40
0.2148760330578512
 40
0.2148760330578512
 40
0.2148760330578512
 40
0.2231404958677686
 40
0.2231404958677686
 40
0.2231404958677686
 40
0.2231404958677686
 40
0.231404958677686
 40
0.231404958677686
 40
0.231404958677686
 40
0.231404958677686
 40
0.2396694214876033
 40
0.2396694214876033
 40
0.2396694214876033
 40
0.2396694214876033
 40
0.2479338842975207
 40
0.2479338842975207
 40
0.2479338842975207
 40
0.2479338842975207
 40
0.256198347107438
 40
0.256198347107438
 40
0.256198347107438
 40
0.256198347107438
 40
0.2644628099173554
 40
0.2644628099173554
 40
0.2644628099173554
 40
0.2644628099173554
 40
0.2727272727272727
 40
0.2727272727272727
 40
0.2727272727272727
 40
0.2727272727272727
 40
0.2809917355371901
 40
0.2809917355371901
 40
0.2809917355371901
 40
0.2809917355371901
 40
0.2892561983471074
 40
0.2892561983471074
 40
0.2892561983471074
 40
0.2892561983471074
 40
0.2975206611570248
 40
0.2975206611570248
 40
0.2975206611570248
 40
0.2975206611570248
 40
0.3057851239669421
 40
0.3057851239669421
 40
0.3057851239669421
 40
0.3057851239669421
 40
0.3140495867768595
 40
0.3140495867768595
 40
0.3140495867768595
 40
0.3140495867768595
 40
0.3223140495867768
 40
0.3223140495867768
 40
0.3223140495867768
 40
0.3223140495867768
 40
0.3305785123966942
 40
0.3305785123966942
 40
0.3305785123966942
 40
0.3305785123966942
 40
0.3388429752066116
 40
0.3388429752066116
 40
0.3388429752066116
 40
0.3388429752066116
 40
0.3471074380165289
 40
0.3471074380165289
 40
0.3471074380165289
 40
0.3471074380165289
 40
0.3553719008264463
 40
0.3553719008264463
 40
0.3553719008264463
 40
0.3553719008264463
 40
0.3636363636363636
 40
0.3636363636363636
 40
0.3636363636363636
 40
0.3636363636363636
 40
0.371900826446281
 40
0.371900826446281
 40
0.371900826446281
 40
0.371900826446281
 40
0.3801652892561984
 40
0.3801652892561984
 40
0.3801652892561984
 40
0.3801652892561984
 40
0.3884297520661157
 40
0.3884297520661157
 40
0.3884297520661157
 40
0.3884297520661157
 40
0.3966942148760331
 40
0.3966942148760331
 40
0.3966942148760331
 40
0.3966942148760331
 40
0.4049586776859504
 40
0.4049586776859504
 40
0.4049586776859504
 40
0.4049586776859504
 40
0.4132231404958678
 40
0.4132231404958678
 40
0.4132231404958678
 40
0.4132231404958678
 40
0.4214876033057851
 40
0.4214876033057851
 40
0.4214876033057851
 40
0.4214876033057851
 40
0.4297520661157025
 40
0.4297520661157025
 40
0.4297520661157025
 40
0.4297520661157025
 40
0.4380165289256198
 40
0.4380165289256198
 40
0.4380165289256198
 40
0.4380165289256198
 40
0.4462809917355372
 40
0.4462809917355372
 40
0.4462809917355372
 40
0.4462809917355372
 40
0.4545454545454545
 40
0.4545454545454545
 40
0.4545454545454545
 40
0.4545454545454545
 40
0.4628099173553719
 40
0.4628099173553719
 40
0.4628099173553719
 40
0.4628099173553719
 40
0.4710743801652892
 40
0.4710743801652892
 40
0.4710743801652892
 40
0.4710743801652892
 40
0.4793388429752066
 40
0.4793388429752066
 40
0.4793388429752066
 40
0.4793388429752066
 40
0.487603305785124
 40
0.487603305785124
 40
0.487603305785124
 40
0.487603305785124
 40
0.4958677685950413
 40
0.4958677685950413
 40
0.4958677685950413
 40
0.4958677685950413
 40
0.5041322314049587
 40
0.5041322314049587
 40
0.5041322314049587
 40
0.5041322314049587
 40
0.512396694214876
 40
0.512396694214876
 40
0.512396694214876
 40
0.512396694214876
 40
0.5206611570247934
 40
0.5206611570247934
 40
0.5206611570247934
 40
0.5206611570247934
 40
0.5289256198347108
 40
0.5289256198347108
 40
0.5289256198347108
 40
0.5289256198347108
 40
0.5371900826446281
 40
0.5371900826446281
 40
0.5371900826446281
 40
0.5371900826446281
 40
0.5454545454545454
 40
0.5454545454545454
 40
0.5454545454545454
 40
0.5454545454545454
 40
0.5537190082644629
 40
0.5537190082644629
 40
0.5537190082644629
 40
0.5537190082644629
 40
0.5619834710743802
 40
0.5619834710743802
 40
0.5619834710743802
 40
0.5619834710743802
 40
0.5702479338842975
 40
0.5702479338842975
 40
0.5702479338842975
 40
0.5702479338842975
 40
0.5785123966942148
 40
0.5785123966942148
 40
0.5785123966942148
 40
0.5785123966942148
 40
0.5867768595041323
 40
0.5867768595041323
 40
0.5867768595041323
 40
0.5867768595041323
 40
0.5950413223140496
 40
0.5950413223140496
 40
0.5950413223140496
 40
0.5950413223140496
 40
0.6033057851239669
 40
0.6033057851239669
 40
0.6033057851239669
 40
0.6033057851239669
 40
0.6115702479338843
 40
0.6115702479338843
 40
0.6115702479338843
 40
0.6115702479338843
 40
0.6198347107438017
 40
0.6198347107438017
 40
0.6198347107438017
 40
0.6198347107438017
 40
0.628099173553719
 40
0.628099173553719
 40
0.628099173553719
 40
0.628099173553719
 40
0.6363636363636364
 40
0.6363636363636364
 40
0.6363636363636364
 40
0.6363636363636364
 40
0.6446280991735537
 40
0.6446280991735537
 40
0.6446280991735537
 40
0.6446280991735537
 40
0.6528925619834711
 40
0.6528925619834711
 40
0.6528925619834711
 40
0.6528925619834711
 40
0.6611570247933884
 40
0.6611570247933884
 40
0.6611570247933884
 40
0.6611570247933884
 40
0.6694214876033058
 40
0.6694214876033058
 40
0.6694214876033058
 40
0.6694214876033058
 40
0.6776859504132231
 40
0.6776859504132231
 40
0.6776859504132231
 40
0.6776859504132231
 40
0.6859504132231405
 40
0.6859504132231405
 40
0.6859504132231405
 40
0.6859504132231405
 40
0.6942148760330579
 40
0.6942148760330579
 40
0.6942148760330579
 40
0.6942148760330579
 40
0.7024793388429752
 40
0.7024793388429752
 40
0.7024793388429752
 40
0.7024793388429752
 40
0.7107438016528925
 40
0.7107438016528925
 40
0.7107438016528925
 40
0.7107438016528925
 40
0.71900826446281
 40
0.71900826446281
 40
0.71900826446281
 40
0.71900826446281
 40
0.7272727272727273
 40
0.7272727272727273
 40
0.7272727272727273
 40
0.7272727272727273
 40
0.7355371900826446
 40
0.7355371900826446
 40
0.7355371900826446
 40
0.7355371900826446
 40
0.743801652892562
 40
0.743801652892562
 40
0.743801652892562
 40
0.743801652892562
 40
0.7520661157024794
 40
0.7520661157024794
 40
0.7520661157024794
 40
0.7520661157024794
 40
0.7603305785123967
 40
0.7603305785123967
 40
0.7603305785123967
 40
0.7603305785123967
 40
0.768595041322314
 40
0.768595041322314
 40
0.768595041322314
 40
0.768595041322314
 40
0.7768595041322314
 40
0.7768595041322314
 40
0.7768595041322314
 40
0.7768595041322314
 40
0.7851239669421488
 40
0.7851239669421488
 40
0.7851239669421488
 40
0.7851239669421488
 40
0.7933884297520661
 40
0.7933884297520661
 40
0.7933884297520661
 40
0.7933884297520661
 40
0.8016528925619835
 40
0.8016528925619835
 40
0.8016528925619835
 40
0.8016528925619835
 40
0.8099173553719008
 40
0.8099173553719008
 40
0.8099173553719008
 40
0.8099173553719008
 40
0.8181818181818182
 40
0.8181818181818182
 40
0.8181818181818182
 40
0.8181818181818182
 40
0.8264462809917356
 40
0.8264462809917356
 40
0.8264462809917356
 40
0.8264462809917356
 40
0.8347107438016529
 40
0.8347107438016529
 40
0.8347107438016529
 40
0.8347107438016529
 40
0.8429752066115702
 40
0.8429752066115702
 40
0.8429752066115702
 40
0.8429752066115702
 40
0.8512396694214877
 40
0.8512396694214877
 40
0.8512396694214877
 40
0.8512396694214877
 40
0.859504132231405
 40
0.859504132231405
 40
0.859504132231405
 40
0.859504132231405
 40
0.8677685950413223
 40
0.8677685950413223
 40
0.8677685950413223
 40
0.8677685950413223
 40
0.8760330578512396
 40
0.8760330578512396
 40
0.8760330578512396
 40
0.8760330578512396
 40
0.8842975206611571
 40
0.8842975206611571
 40
0.8842975206611571
 40
0.8842975206611571
 40
0.8925619834710744
 40
0.8925619834710744
 40
0.8925619834710744
 40
0.8925619834710744
 40
0.9008264462809917
 40
0.9008264462809917
 40
0.9008264462809917
 40
0.9008264462809917
 40
0.9090909090909091
 40
0.9090909090909091
 40
0.9090909090909091
 40
0.9090909090909091
 40
0.9173553719008265
 40
0.9173553719008265
 40
0.9173553719008265
 40
0.9173553719008265
 40
0.9256198347107438
 40
0.9256198347107438
 40
0.9256198347107438
 40
0.9256198347107438
 40
0.9338842975206612
 40
0.9338842975206612
 40
0.9338842975206612
 40
0.9338842975206612
 40
0.9421487603305785
 40
0.9421487603305785
 40
0.9421487603305785
 40
0.9421487603305785
 40
0.9504132231404959
 40
0.9504132231404959
 40
0.9504132231404959
 40
0.9504132231404959
 40
0.9586776859504132
 40
0.9586776859504132
 40
0.9586776859504132
 40
0.9586776859504132
 40
0.9669421487603306
 40
0.9669421487603306
 40
0.9669421487603306
 40
0.9669421487603306
 40
0.9752066115702479
 40
0.9752066115702479
 40
0.9752066115702479
 40
0.9752066115702479
 40
0.9834710743801653
 40
0.9834710743801653
 40
0.9834710743801653
 40
0.9834710743801653
 40
1.0
 40
1.0
 40
1.0
 40
1.0
 10
193.3817
 20
57.2186
 30
0.0
 10
193.3817
 20
57.2186
 30
0.0
 10
193.3817
 20
43.0591
 30
0.0
 10
193.3817
 20
43.0591
 30
0.0
 10
193.3817
 20
43.0591
 30
0.0
 10
192.8185
 20
43.2354
 30
0.0
 10
192.2309
 20
43.3532
 30
0.0
 10
191.6252
 20
43.4069
 30
0.0
 10
191.6252
 20
43.4069
 30
0.0
 10
189.74
 20
43.5743
 30
0.0
 10
187.6812
 20
43.1239
 30
0.0
 10
186.4036
 20
41.9928
 30
0.0
 10
186.4036
 20
41.9928
 30
0.0
 10
185.3806
 20
41.0873
 30
0.0
 10
184.8589
 20
39.746
 30
0.0
 10
184.3367
 20
38.1853
 30
0.0
 10
184.3367
 20
38.1853
 30
0.0
 10
184.2829
 20
38.024
 30
0.0
 10
184.2285
 20
37.8596
 30
0.0
 10
184.2278
 20
37.7502
 30
0.0
 10
184.2278
 20
37.7502
 30
0.0
 10
184.2247
 20
37.2594
 30
0.0
 10
185.2885
 20
37.8521
 30
0.0
 10
186.1859
 20
38.1853
 30
0.0
 10
186.1859
 20
38.1853
 30
0.0
 10
187.8914
 20
38.8176
 30
0.0
 10
188.9995
 20
38.5148
 30
0.0
 10
189.994
 20
38.0765
 30
0.0
 10
189.994
 20
38.0765
 30
0.0
 10
191.1477
 20
37.5675
 30
0.0
 10
192.1475
 20
36.8761
 30
0.0
 10
193.3817
 20
35.7408
 30
0.0
 10
193.3817
 20
35.7408
 30
0.0
 10
193.3817
 20
35.7408
 30
0.0
 10
193.3817
 20
19.5505
 30
0.0
 10
193.3817
 20
19.5505
 30
0.0
 10
193.3817
 20
19.5505
 30
0.0
 10
193.1197
 20
20.0945
 30
0.0
 10
192.8732
 20
20.6569
 30
0.0
 10
192.601
 20
21.1992
 30
0.0
 10
192.601
 20
21.1992
 30
0.0
 10
187.7027
 20
27.5615
 30
0.0
 10
181.1459
 20
31.5161
 30
0.0
 10
174.2973
 20
33.4483
 30
0.0
 10
174.2973
 20
33.4483
 30
0.0
 10
174.3811
 20
33.7582
 30
0.0
 10
174.4309
 20
34.0802
 30
0.0
 10
174.4694
 20
34.4041
 30
0.0
 10
174.4694
 20
34.4041
 30
0.0
 10
174.8153
 20
37.3165
 30
0.0
 10
174.2667
 20
40.3855
 30
0.0
 10
172.7958
 20
42.9
 30
0.0
 10
172.7958
 20
42.9
 30
0.0
 10
171.5582
 20
45.0154
 30
0.0
 10
169.6676
 20
46.7393
 30
0.0
 10
167.5179
 20
47.9206
 30
0.0
 10
167.5179
 20
47.9206
 30
0.0
 10
165.3047
 20
49.1369
 30
0.0
 10
162.8172
 20
49.7791
 30
0.0
 10
160.309
 20
49.9803
 30
0.0
 10
160.309
 20
49.9803
 30
0.0
 10
159.9208
 20
50.0117
 30
0.0
 10
159.5331
 20
50.0321
 30
0.0
 10
159.1505
 20
49.9803
 30
0.0
 10
159.1505
 20
49.9803
 30
0.0
 10
159.2259
 20
48.0455
 30
0.0
 10
159.7446
 20
46.1746
 30
0.0
 10
160.4378
 20
44.3161
 30
0.0
 10
160.4378
 20
44.3161
 30
0.0
 10
161.8357
 20
40.5676
 30
0.0
 10
163.9421
 20
36.871
 30
0.0
 10
167.2605
 20
34.7901
 30
0.0
 10
167.2605
 20
34.7901
 30
0.0
 10
167.2959
 20
34.768
 30
0.0
 10
167.3313
 20
34.7461
 30
0.0
 10
167.3668
 20
34.7242
 30
0.0
 10
167.3668
 20
34.7242
 30
0.0
 10
163.1843
 20
35.101
 30
0.0
 10
159.0628
 20
34.7799
 30
0.0
 10
155.3082
 20
33.8476
 30
0.0
 10
155.3082
 20
33.8476
 30
0.0
 10
150.4863
 20
32.651
 30
0.0
 10
146.1983
 20
30.3016
 30
0.0
 10
142.6375
 20
27.0806
 30
0.0
 10
142.6375
 20
27.0806
 30
0.0
 10
142.3866
 20
28.1599
 30
0.0
 10
142.0429
 20
29.0568
 30
0.0
 10
141.6344
 20
29.9858
 30
0.0
 10
141.6344
 20
29.9858
 30
0.0
 10
139.5928
 20
34.6296
 30
0.0
 10
136.8762
 20
37.0536
 30
0.0
 10
132.0424
 20
38.5648
 30
0.0
 10
132.0424
 20
38.5648
 30
0.0
 10
130.6949
 20
38.9858
 30
0.0
 10
129.4939
 20
39.1414
 30
0.0
 10
128.9402
 20
38.699
 30
0.0
 10
128.9402
 20
38.699
 30
0.0
 10
128.474
 20
38.3276
 30
0.0
 10
129.0445
 20
35.9646
 30
0.0
 10
129.4154
 20
34.7315
 30
0.0
 10
129.4154
 20
34.7315
 30
0.0
 10
130.841
 20
29.9936
 30
0.0
 10
134.3606
 20
24.6146
 30
0.0
 10
140.5551
 20
25.0072
 30
0.0
 10
140.5551
 20
25.0072
 30
0.0
 10
139.9522
 20
24.3473
 30
0.0
 10
139.3758
 20
23.6595
 30
0.0
 10
138.8267
 20
22.9456
 30
0.0
 10
138.8267
 20
22.9456
 30
0.0
 10
131.3569
 20
25.0065
 30
0.0
 10
121.7448
 20
20.0965
 30
0.0
 10
121.4106
 20
13.4829
 30
0.0
 10
121.4106
 20
13.4829
 30
0.0
 10
125.6404
 20
12.1832
 30
0.0
 10
130.6819
 20
13.0591
 30
0.0
 10
134.5799
 20
15.7225
 30
0.0
 10
134.5799
 20
15.7225
 30
0.0
 10
134.2238
 20
14.9072
 30
0.0
 10
133.9071
 20
14.0904
 30
0.0
 10
133.6381
 20
13.282
 30
0.0
 10
133.6381
 20
13.282
 30
0.0
 10
132.1721
 20
8.8745
 30
0.0
 10
132.1239
 20
4.7104
 30
0.0
 10
132.2839
 20
-1.1985
 30
0.0
 10
132.2839
 20
-1.1985
 30
0.0
 10
132.2839
 20
-1.1985
 30
0.0
 10
132.2848
 20
-1.2329
 30
0.0
 10
132.2848
 20
-1.2329
 30
0.0
 10
132.2848
 20
-1.2329
 30
0.0
 10
131.5383
 20
-0.5214
 30
0.0
 10
130.8377
 20
0.2198
 30
0.0
 10
130.1081
 20
0.9282
 30
0.0
 10
130.1081
 20
0.9282
 30
0.0
 10
127.1085
 20
3.841
 30
0.0
 10
121.5498
 20
6.58
 30
0.0
 10
118.6736
 20
1.9148
 30
0.0
 10
118.6736
 20
1.9148
 30
0.0
 10
117.9209
 20
0.6934
 30
0.0
 10
117.7342
 20
-0.8659
 30
0.0
 10
118.0741
 20
-2.2294
 30
0.0
 10
118.0741
 20
-2.2294
 30
0.0
 10
118.9985
 20
-5.9402
 30
0.0
 10
122.6741
 20
-11.553
 30
0.0
 10
129.5792
 20
-11.5533
 30
0.0
 10
129.5792
 20
-11.5533
 30
0.0
 10
130.1941
 20
-11.5199
 30
0.0
 10
130.8868
 20
-11.3847
 30
0.0
 10
131.4148
 20
-11.3705
 30
0.0
 10
131.4148
 20
-11.3705
 30
0.0
 10
131.0408
 20
-12.2114
 30
0.0
 10
130.7917
 20
-13.1197
 30
0.0
 10
130.6907
 20
-14.0724
 30
0.0
 10
130.6907
 20
-14.0724
 30
0.0
 10
130.4508
 20
-14.0066
 30
0.0
 10
130.1891
 20
-13.8748
 30
0.0
 10
129.9272
 20
-13.7568
 30
0.0
 10
129.9272
 20
-13.7568
 30
0.0
 10
126.4517
 20
-12.1929
 30
0.0
 10
122.8945
 20
-13.0966
 30
0.0
 10
119.8456
 20
-14.5677
 30
0.0
 10
119.8456
 20
-14.5677
 30
0.0
 10
118.4116
 20
-15.2594
 30
0.0
 10
117.09
 20
-16.0771
 30
0.0
 10
115.9058
 20
-17.2328
 30
0.0
 10
115.9058
 20
-17.2328
 30
0.0
 10
114.6153
 20
-18.4926
 30
0.0
 10
113.488
 20
-20.1546
 30
0.0
 10
113.588
 20
-21.8678
 30
0.0
 10
113.588
 20
-21.8678
 30
0.0
 10
113.6852
 20
-23.5164
 30
0.0
 10
114.917
 20
-25.2123
 30
0.0
 10
116.4851
 20
-25.9238
 30
0.0
 10
116.4851
 20
-25.9238
 30
0.0
 10
117.7335
 20
-26.4899
 30
0.0
 10
119.1947
 20
-26.4325
 30
0.0
 10
120.4254
 20
-26.3874
 30
0.0
 10
120.4254
 20
-26.3874
 30
0.0
 10
122.8823
 20
-26.2971
 30
0.0
 10
124.4201
 20
-26.2562
 30
0.0
 10
127.8412
 20
-23.6067
 30
0.0
 10
127.8412
 20
-23.6067
 30
0.0
 10
129.1892
 20
-22.5626
 30
0.0
 10
130.8284
 20
-21.1138
 30
0.0
 10
130.5062
 20
-21.9841
 30
0.0
 10
130.5062
 20
-21.9841
 30
0.0
 10
130.4798
 20
-22.0565
 30
0.0
 10
130.4396
 20
-22.1448
 30
0.0
 10
130.3907
 20
-22.2159
 30
0.0
 10
130.3907
 20
-22.2159
 30
0.0
 10
130.047
 20
-22.6441
 30
0.0
 10
129.7046
 20
-23.0732
 30
0.0
 10
129.3474
 20
-23.4905
 30
0.0
 10
129.3474
 20
-23.4905
 30
0.0
 10
127.7614
 20
-25.3422
 30
0.0
 10
125.8854
 20
-26.9511
 30
0.0
 10
124.5969
 20
-29.0526
 30
0.0
 10
124.5969
 20
-29.0526
 30
0.0
 10
123.3835
 20
-31.031
 30
0.0
 10
122.6905
 20
-33.4465
 30
0.0
 10
123.0905
 20
-35.7737
 30
0.0
 10
123.0905
 20
-35.7737
 30
0.0
 10
123.2587
 20
-36.7539
 30
0.0
 10
123.6208
 20
-37.7187
 30
0.0
 10
124.2834
 20
-38.4183
 30
0.0
 10
124.2834
 20
-38.4183
 30
0.0
 10
125.2409
 20
-39.429
 30
0.0
 10
126.825
 20
-39.8869
 30
0.0
 10
128.2509
 20
-39.7634
 30
0.0
 10
128.2509
 20
-39.7634
 30
0.0
 10
129.1939
 20
-39.6819
 30
0.0
 10
130.0678
 20
-39.3462
 30
0.0
 10
130.8819
 20
-38.8806
 30
0.0
 10
130.8819
 20
-38.8806
 30
0.0
 10
129.1945
 20
-41.3614
 30
0.0
 10
128.5019
 20
-44.2996
 30
0.0
 10
129.2102
 20
-48.1821
 30
0.0
 10
129.2102
 20
-48.1821
 30
0.0
 10
122.7964
 20
-42.4829
 30
0.0
 10
114.5441
 20
-38.2536
 30
0.0
 10
107.0402
 20
-37.0062
 30
0.0
 10
107.0402
 20
-37.0062
 30
0.0
 10
107.0402
 20
-37.0062
 30
0.0
 10
107.0402
 20
-14.12
 30
0.0
 10
107.0402
 20
-14.12
 30
0.0
 10
107.0402
 20
-14.12
 30
0.0
 10
107.2074
 20
-14.1314
 30
0.0
 10
107.375
 20
-14.1396
 30
0.0
 10
107.5432
 20
-14.145
 30
0.0
 10
107.5432
 20
-14.145
 30
0.0
 10
109.877
 20
-14.2197
 30
0.0
 10
112.3167
 20
-13.7605
 30
0.0
 10
114.1605
 20
-12.3933
 30
0.0
 10
114.1605
 20
-12.3933
 30
0.0
 10
115.4645
 20
-11.426
 30
0.0
 10
116.4709
 20
-10.0044
 30
0.0
 10
116.9505
 20
-8.4356
 30
0.0
 10
116.9505
 20
-8.4356
 30
0.0
 10
117.0802
 20
-8.0104
 30
0.0
 10
117.1718
 20
-7.5747
 30
0.0
 10
117.1451
 20
-7.1383
 30
0.0
 10
117.1451
 20
-7.1383
 30
0.0
 10
116.8237
 20
-7.0591
 30
0.0
 10
116.4973
 20
-6.9998
 30
0.0
 10
116.1717
 20
-6.9436
 30
0.0
 10
116.1717
 20
-6.9436
 30
0.0
 10
115.1865
 20
-6.7749
 30
0.0
 10
114.2042
 20
-6.639
 30
0.0
 10
113.1875
 20
-6.6191
 30
0.0
 10
113.1875
 20
-6.6191
 30
0.0
 10
111.8123
 20
-6.5924
 30
0.0
 10
110.3747
 20
-6.7791
 30
0.0
 10
109.2299
 20
-7.5276
 30
0.0
 10
109.2299
 20
-7.5276
 30
0.0
 10
108.3782
 20
-8.0844
 30
0.0
 10
107.6884
 20
-8.9525
 30
0.0
 10
107.0402
 20
-9.6443
 30
0.0
 10
107.0402
 20
-9.6443
 30
0.0
 10
107.0402
 20
-9.6443
 30
0.0
 10
107.0402
 20
-4.6882
 30
0.0
 10
107.0402
 20
-4.6882
 30
0.0
 10
107.0402
 20
-4.6882
 30
0.0
 10
110.2893
 20
0.0007
 30
0.0
 10
111.5485
 20
5.7278
 30
0.0
 10
112.2197
 20
11.4748
 30
0.0
 10
112.2197
 20
11.4748
 30
0.0
 10
113.0912
 20
18.9294
 30
0.0
 10
112.9731
 20
26.4182
 30
0.0
 10
113.671
 20
33.4441
 30
0.0
 10
113.671
 20
33.4441
 30
0.0
 10
113.9379
 20
36.1296
 30
0.0
 10
114.3236
 20
38.7485
 30
0.0
 10
115.1215
 20
41.7344
 30
0.0
 10
115.1215
 20
41.7344
 30
0.0
 10
115.836
 20
44.4083
 30
0.0
 10
116.8812
 20
47.3774
 30
0.0
 10
119.0593
 20
48.1599
 30
0.0
 10
119.0593
 20
48.1599
 30
0.0
 10
120.2411
 20
48.5839
 30
0.0
 10
121.7566
 20
48.3639
 30
0.0
 10
123.1461
 20
48.2583
 30
0.0
 10
123.1461
 20
48.2583
 30
0.0
 10
123.7618
 20
48.2114
 30
0.0
 10
124.3533
 20
48.1866
 30
0.0
 10
124.951
 20
48.1014
 30
0.0
 10
124.951
 20
48.1014
 30
0.0
 10
125.1487
 20
48.5859
 30
0.0
 10
125.2
 20
49.1774
 30
0.0
 10
125.0294
 20
49.67
 30
0.0
 10
125.0294
 20
49.67
 30
0.0
 10
124.6518
 20
50.7597
 30
0.0
 10
123.1882
 20
51.3641
 30
0.0
 10
121.9694
 20
51.3178
 30
0.0
 10
121.9694
 20
51.3178
 30
0.0
 10
120.2424
 20
51.2523
 30
0.0
 10
119.0049
 20
49.8809
 30
0.0
 10
117.733
 20
48.8072
 30
0.0
 10
117.733
 20
48.8072
 30
0.0
 10
117.4604
 20
48.5772
 30
0.0
 10
117.186
 20
48.3608
 30
0.0
 10
116.9487
 20
48.1014
 30
0.0
 10
116.9487
 20
48.1014
 30
0.0
 10
116.9041
 20
49.1093
 30
0.0
 10
117.2026
 20
50.2071
 30
0.0
 10
117.8114
 20
51.0038
 30
0.0
 10
117.8114
 20
51.0038
 30
0.0
 10
119.1118
 20
52.7061
 30
0.0
 10
121.8278
 20
53.0341
 30
0.0
 10
124.0875
 20
52.5731
 30
0.0
 10
124.0875
 20
52.5731
 30
0.0
 10
125.8595
 20
52.2115
 30
0.0
 10
127.3517
 20
51.3641
 30
0.0
 10
128.4023
 20
49.9055
 30
0.0
 10
128.4023
 20
49.9055
 30
0.0
 10
129.4494
 20
48.4537
 30
0.0
 10
130.0602
 20
46.3959
 30
0.0
 10
128.9518
 20
44.8842
 30
0.0
 10
128.9518
 20
44.8842
 30
0.0
 10
128.4352
 20
44.1802
 30
0.0
 10
127.5451
 20
43.5942
 30
0.0
 10
126.9122
 20
43.7079
 30
0.0
 10
126.9122
 20
43.7079
 30
0.0
 10
126.1043
 20
43.8526
 30
0.0
 10
125.715
 20
45.1345
 30
0.0
 10
124.951
 20
45.9831
 30
0.0
 10
124.951
 20
45.9831
 30
0.0
 10
124.6908
 20
46.2717
 30
0.0
 10
124.3867
 20
46.5103
 30
0.0
 10
124.0875
 20
46.532
 30
0.0
 10
124.0875
 20
46.532
 30
0.0
 10
123.5196
 20
46.5727
 30
0.0
 10
122.9669
 20
45.8316
 30
0.0
 10
122.7537
 20
45.1196
 30
0.0
 10
122.7537
 20
45.1196
 30
0.0
 10
122.1949
 20
43.2525
 30
0.0
 10
123.9769
 20
41.5941
 30
0.0
 10
125.8137
 20
41.0403
 30
0.0
 10
125.8137
 20
41.0403
 30
0.0
 10
127.7738
 20
40.4493
 30
0.0
 10
129.7962
 20
41.1176
 30
0.0
 10
131.07
 20
42.4525
 30
0.0
 10
131.07
 20
42.4525
 30
0.0
 10
132.8174
 20
44.2846
 30
0.0
 10
133.1561
 20
47.3725
 30
0.0
 10
132.2469
 20
49.8271
 30
0.0
 10
132.2469
 20
49.8271
 30
0.0
 10
131.078
 20
52.9836
 30
0.0
 10
127.8474
 20
55.0913
 30
0.0
 10
124.4799
 20
55.4757
 30
0.0
 10
124.4799
 20
55.4757
 30
0.0
 10
122.1516
 20
55.7421
 30
0.0
 10
119.7578
 20
55.1845
 30
0.0
 10
118.0469
 20
53.8285
 30
0.0
 10
118.0469
 20
53.8285
 30
0.0
 10
116.4263
 20
52.5441
 30
0.0
 10
115.4176
 20
50.5446
 30
0.0
 10
114.5948
 20
48.5717
 30
0.0
 10
114.5948
 20
48.5717
 30
0.0
 10
114.1209
 20
47.4356
 30
0.0
 10
113.7086
 20
46.3089
 30
0.0
 10
113.4966
 20
45.1196
 30
0.0
 10
113.4966
 20
45.1196
 30
0.0
 10
113.174
 20
46.5486
 30
0.0
 10
113.2328
 20
48.0463
 30
0.0
 10
113.4966
 20
49.5136
 30
0.0
 10
113.4966
 20
49.5136
 30
0.0
 10
114.1462
 20
53.1239
 30
0.0
 10
116.0399
 20
56.5474
 30
0.0
 10
118.6743
 20
59.0061
 30
0.0
 10
118.6743
 20
59.0061
 30
0.0
 10
119.6836
 20
59.9482
 30
0.0
 10
120.8018
 20
60.7491
 30
0.0
 10
121.9694
 20
61.5168
 30
0.0
 10
121.9694
 20
61.5168
 30
0.0
 10
124.755
 20
63.3476
 30
0.0
 10
127.8264
 20
64.9924
 30
0.0
 10
131.07
 20
65.3608
 30
0.0
 10
131.07
 20
65.3608
 30
0.0
 10
133.5695
 20
65.645
 30
0.0
 10
136.1711
 20
65.1716
 30
0.0
 10
138.6014
 20
64.2631
 30
0.0
 10
138.6014
 20
64.2631
 30
0.0
 10
141.1515
 20
63.3087
 30
0.0
 10
143.5134
 20
61.876
 30
0.0
 10
145.2706
 20
59.869
 30
0.0
 10
145.2706
 20
59.869
 30
0.0
 10
146.5833
 20
58.3696
 30
0.0
 10
147.5588
 20
56.5494
 30
0.0
 10
148.0946
 20
54.6128
 30
0.0
 10
148.0946
 20
54.6128
 30
0.0
 10
148.5613
 20
52.9254
 30
0.0
 10
148.6948
 20
51.1497
 30
0.0
 10
147.6242
 20
49.4352
 30
0.0
 10
147.6242
 20
49.4352
 30
0.0
 10
147.1871
 20
48.7361
 30
0.0
 10
146.5501
 20
48.0468
 30
0.0
 10
145.9765
 20
48.1014
 30
0.0
 10
145.9765
 20
48.1014
 30
0.0
 10
145.5339
 20
48.1433
 30
0.0
 10
145.1296
 20
48.6261
 30
0.0
 10
144.6427
 20
49.0426
 30
0.0
 10
144.6427
 20
49.0426
 30
0.0
 10
143.8064
 20
49.7577
 30
0.0
 10
142.7291
 20
50.2775
 30
0.0
 10
141.9749
 20
49.9055
 30
0.0
 10
141.9749
 20
49.9055
 30
0.0
 10
141.0187
 20
49.4334
 30
0.0
 10
140.5836
 20
47.5239
 30
0.0
 10
141.1121
 20
46.4536
 30
0.0
 10
141.1121
 20
46.4536
 30
0.0
 10
141.593
 20
45.4806
 30
0.0
 10
142.8694
 20
45.2006
 30
0.0
 10
144.0937
 20
45.198
 30
0.0
 10
144.0937
 20
45.198
 30
0.0
 10
146.8035
 20
45.1931
 30
0.0
 10
149.2547
 20
46.5481
 30
0.0
 10
150.3698
 20
48.6501
 30
0.0
 10
150.3698
 20
48.6501
 30
0.0
 10
151.3241
 20
50.4501
 30
0.0
 10
151.2993
 20
52.7975
 30
0.0
 10
150.7622
 20
54.7699
 30
0.0
 10
150.7622
 20
54.7699
 30
0.0
 10
151.2183
 20
54.3076
 30
0.0
 10
151.7289
 20
53.9051
 30
0.0
 10
152.2524
 20
53.5145
 30
0.0
 10
152.2524
 20
53.5145
 30
0.0
 10
155.4142
 20
51.159
 30
0.0
 10
158.337
 20
50.2167
 30
0.0
 10
162.2345
 20
49.8792
 30
0.0
 10
162.2345
 20
49.8792
 30
0.0
 10
165.1462
 20
49.6271
 30
0.0
 10
168.0893
 20
49.7833
 30
0.0
 10
170.6516
 20
50.3716
 30
0.0
 10
170.6516
 20
50.3716
 30
0.0
 10
171.1643
 20
50.4893
 30
0.0
 10
171.6757
 20
50.6415
 30
0.0
 10
172.1808
 20
50.8254
 30
0.0
 10
172.1808
 20
50.8254
 30
0.0
 10
172.7783
 20
50.0385
 30
0.0
 10
173.4773
 20
49.3219
 30
0.0
 10
174.2446
 20
48.6799
 30
0.0
 10
174.2446
 20
48.6799
 30
0.0
 10
176.0834
 20
47.1414
 30
0.0
 10
178.3172
 20
46.0307
 30
0.0
 10
180.6436
 20
45.6401
 30
0.0
 10
180.6436
 20
45.6401
 30
0.0
 10
182.9582
 20
45.2519
 30
0.0
 10
186.0192
 20
45.5226
 30
0.0
 10
188.6094
 20
46.3757
 30
0.0
 10
188.6094
 20
46.3757
 30
0.0
 10
189.6231
 20
46.7088
 30
0.0
 10
190.5645
 20
47.1321
 30
0.0
 10
191.3612
 20
47.6396
 30
0.0
 10
191.3612
 20
47.6396
 30
0.0
 10
190.2134
 20
49.7207
 30
0.0
 10
187.4809
 20
51.361
 30
0.0
 10
185.4244
 20
52.3277
 30
0.0
 10
185.4244
 20
52.3277
 30
0.0
 10
182.8984
 20
53.5158
 30
0.0
 10
180.0465
 20
54.2008
 30
0.0
 10
177.3473
 20
54.1704
 30
0.0
 10
177.3473
 20
54.1704
 30
0.0
 10
178.7326
 20
55.6151
 30
0.0
 10
179.7572
 20
57.378
 30
0.0
 10
180.1551
 20
59.3545
 30
0.0
 10
180.1551
 20
59.3545
 30
0.0
 10
180.3028
 20
60.0878
 30
0.0
 10
180.3209
 20
60.8261
 30
0.0
 10
180.1684
 20
61.5405
 30
0.0
 10
180.1684
 20
61.5405
 30
0.0
 10
180.939
 20
61.7989
 30
0.0
 10
181.6724
 20
62.1856
 30
0.0
 10
182.2438
 20
62.7463
 30
0.0
 10
182.2438
 20
62.7463
 30
0.0
 10
182.4983
 20
61.5717
 30
0.0
 10
183.3922
 20
60.5187
 30
0.0
 10
184.3885
 20
59.7163
 30
0.0
 10
184.3885
 20
59.7163
 30
0.0
 10
185.1891
 20
58.6284
 30
0.0
 10
189.8039
 20
57.0016
 30
0.0
 10
193.3817
 20
57.2186
 30
0.0
  0
SPLINE
  5
89
330
1F
100
AcDbEntity
  8
layer 1
 62
     7
100
AcDbSpline
210
0.0
220
0.0
230
1.0
 70
    11
 71
     3
 72
    24
 73
    20
 74
     0
 42
0.0000000001
 43
0.0000000001
 12
1.0
 22
0.0
 32
0.0
 13
1.0
 23
0.0
 33
0.0
 40
0.0
 40
0.0
 40
0.0
 40
0.0
 40
0.1666666666666667
 40
0.1666666666666667
 40
0.1666666666666667
 40
0.1666666666666667
 40
0.3333333333333333
 40
0.3333333333333333
 40
0.3333333333333333
 40
0.3333333333333333
 40
0.5
 40
0.5
 40
0.5
 40
0.5
 40
0.6666666666666666
 40
0.6666666666666666
 40
0.6666666666666666
 40
0.6666666666666666
 40
1.0
 40
1.0
 40
1.0
 40
1.0
 10
193.3817
 20
63.0498
 30
0.0
 10
193.3817
 20
63.0498
 30
0.0
 10
193.3817
 20
59.4879
 30
0.0
 10
193.3817
 20
59.4879
 30
0.0
 10
193.3817
 20
59.4879
 30
0.0
 10
190.8558
 20
59.2942
 30
0.0
 10
185.7957
 20
60.3297
 30
0.0
 10
185.0406
 20
62.1949
 30
0.0
 10
185.0406
 20
62.1949
 30
0.0
 10
184.8423
 20
62.685
 30
0.0
 10
184.82
 20
63.3149
 30
0.0
 10
185.0406
 20
63.8254
 30
0.0
 10
185.0406
 20
63.8254
 30
0.0
 10
185.8782
 20
65.7569
 30
0.0
 10
189.7473
 20
65.0165
 30
0.0
 10
192.4917
 20
63.5702
 30
0.0
 10
192.4917
 20
63.5702
 30
0.0
 10
192.8052
 20
63.4049
 30
0.0
 10
193.1038
 20
63.2305
 30
0.0
 10
193.3817
 20
63.0498
 30
0.0
  0
SPLINE
  5
8A
330
1F
100
AcDbEntity
  8
layer 1
 62
     7
100
AcDbSpline
210
0.0
220
0.0
230
1.0
 70
    11
 71
     3
 72
    28
 73
    24
 74
     0
 42
0.0000000001
 43
0.0000000001
 12
1.0
 22
0.0
 32
0.0
 13
1.0
 23
0.0
 33
0.0
 40
0.0
 40
0.0
 40
0.0
 40
0.0
 40
0.1428571428571428
 40
0.1428571428571428
 40
0.1428571428571428
 40
0.1428571428571428
 40
0.2857142857142857
 40
0.2857142857142857
 40
0.2857142857142857
 40
0.2857142857142857
 40
0.4285714285714285
 40
0.4285714285714285
 40
0.4285714285714285
 40
0.4285714285714285
 40
0.5714285714285714
 40
0.5714285714285714
 40
0.5714285714285714
 40
0.5714285714285714
 40
0.7142857142857143
 40
0.7142857142857143
 40
0.7142857142857143
 40
0.7142857142857143
 40
1.0
 40
1.0
 40
1.0
 40
1.0
 10
193.3817
 20
73.1219
 30
0.0
 10
193.3817
 20
73.1219
 30
0.0
 10
193.3817
 20
65.6702
 30
0.0
 10
193.3817
 20
65.6702
 30
0.0
 10
193.3817
 20
65.6702
 30
0.0
 10
191.2377
 20
66.811
 30
0.0
 10
188.7193
 20
67.4346
 30
0.0
 10
186.8672
 20
66.9555
 30
0.0
 10
186.8672
 20
66.9555
 30
0.0
 10
186.5944
 20
66.9365
 30
0.0
 10
186.3184
 20
66.9108
 30
0.0
 10
186.044
 20
66.8752
 30
0.0
 10
186.044
 20
66.8752
 30
0.0
 10
186.1879
 20
66.9407
 30
0.0
 10
186.3321
 20
67.0098
 30
0.0
 10
186.4784
 20
67.0702
 30
0.0
 10
186.4784
 20
67.0702
 30
0.0
 10
189.4831
 20
68.3115
 30
0.0
 10
192.4905
 20
70.569
 30
0.0
 10
193.2031
 20
72.5522
 30
0.0
 10
193.2031
 20
72.5522
 30
0.0
 10
193.2711
 20
72.7413
 30
0.0
 10
193.3306
 20
72.9314
 30
0.0
 10
193.3817
 20
73.1219
 30
0.0
  0
SPLINE
  5
8B
330
1F
100
AcDbEntity
  8
layer 1
 62
     7
100
AcDbSpline
210
0.0
220
0.0
230
1.0
 70
    11
 71
     3
 72
   200
 73
   196
 74
     0
 42
0.0000000001
 43
0.0000000001
 12
1.0
 22
0.0
 32
0.0
 13
1.0
 23
0.0
 33
0.0
 40
0.0
 40
0.0
 40
0.0
 40
0.0
 40
0.02
 40
0.02
 40
0.02
 40
0.02
 40
0.04
 40
0.04
 40
0.04
 40
0.04
 40
0.06
 40
0.06
 40
0.06
 40
0.06
 40
0.08
 40
0.08
 40
0.08
 40
0.08
 40
0.1
 40
0.1
 40
0.1
 40
0.1
 40
0.12
 40
0.12
 40
0.12
 40
0.12
 40
0.14
 40
0.14
 40
0.14
 40
0.14
 40
0.16
 40
0.16
 40
0.16
 40
0.16
 40
0.18
 40
0.18
 40
0.18
 40
0.18
 40
0.2
 40
0.2
 40
0.2
 40
0.2
 40
0.22
 40
0.22
 40
0.22
 40
0.22
 40
0.24
 40
0.24
 40
0.24
 40
0.24
 40
0.26
 40
0.26
 40
0.26
 40
0.26
 40
0.28
 40
0.28
 40
0.28
 40
0.28
 40
0.3
 40
0.3
 40
0.3
 40
0.3
 40
0.32
 40
0.32
 40
0.32
 40
0.32
 40
0.34
 40
0.34
 40
0.34
 40
0.34
 40
0.36
 40
0.36
 40
0.36
 40
0.36
 40
0.38
 40
0.38
 40
0.38
 40
0.38
 40
0.4
 40
0.4
 40
0.4
 40
0.4
 40
0.42
 40
0.42
 40
0.42
 40
0.42
 40
0.44
 40
0.44
 40
0.44
 40
0.44
 40
0.46
 40
0.46
 40
0.46
 40
0.46
 40
0.48
 40
0.48
 40
0.48
 40
0.48
 40
0.5
 40
0.5
 40
0.5
 40
0.5
 40
0.52
 40
0.52
 40
0.52
 40
0.52
 40
0.54
 40
0.54
 40
0.54
 40
0.54
 40
0.56
 40
0.56
 40
0.56
 40
0.56
 40
0.58
 40
0.58
 40
0.58
 40
0.58
 40
0.6
 40
0.6
 40
0.6
 40
0.6
 40
0.62
 40
0.62
 40
0.62
 40
0.62
 40
0.64
 40
0.64
 40
0.64
 40
0.64
 40
0.66
 40
0.66
 40
0.66
 40
0.66
 40
0.68
 40
0.68
 40
0.68
 40
0.68
 40
0.7
 40
0.7
 40
0.7
 40
0.7
 40
0.72
 40
0.72
 40
0.72
 40
0.72
 40
0.74
 40
0.74
 40
0.74
 40
0.74
 40
0.76
 40
0.76
 40
0.76
 40
0.76
 40
0.78
 40
0.78
 40
0.78
 40
0.78
 40
0.8
 40
0.8
 40
0.8
 40
0.8
 40
0.82
 40
0.82
 40
0.82
 40
0.82
 40
0.84
 40
0.84
 40
0.84
 40
0.84
 40
0.86
 40
0.86
 40
0.86
 40
0.86
 40
0.88
 40
0.88
 40
0.88
 40
0.88
 40
0.9
 40
0.9
 40
0.9
 40
0.9
 40
0.92
 40
0.92
 40
0.92
 40
0.92
 40
0.94
 40
0.94
 40
0.94
 40
0.94
 40
0.96
 40
0.96
 40
0.96
 40
0.96
 40
1.0
 40
1.0
 40
1.0
 40
1.0
 10
174.7675
 20
123.3175
 30
0.0
 10
174.7675
 20
123.3175
 30
0.0
 10
193.3817
 20
123.3175
 30
0.0
 10
193.3817
 20
123.3175
 30
0.0
 10
193.3817
 20
123.3175
 30
0.0
 10
193.3817
 20
123.3175
 30
0.0
 10
193.3817
 20
76.0789
 30
0.0
 10
193.3817
 20
76.0789
 30
0.0
 10
193.3817
 20
76.0789
 30
0.0
 10
192.9991
 20
77.2257
 30
0.0
 10
192.09
 20
78.1362
 30
0.0
 10
190.5187
 20
78.4987
 30
0.0
 10
190.5187
 20
78.4987
 30
0.0
 10
187.7788
 20
79.1336
 30
0.0
 10
183.1055
 20
76.0511
 30
0.0
 10
181.4538
 20
74.1295
 30
0.0
 10
181.4538
 20
74.1295
 30
0.0
 10
181.1532
 20
73.7796
 30
0.0
 10
180.8764
 20
73.4021
 30
0.0
 10
180.627
 20
73.0048
 30
0.0
 10
180.627
 20
73.0048
 30
0.0
 10
180.5214
 20
77.1589
 30
0.0
 10
178.1367
 20
82.494
 30
0.0
 10
174.8669
 20
82.6727
 30
0.0
 10
174.8669
 20
82.6727
 30
0.0
 10
174.2112
 20
82.7085
 30
0.0
 10
173.4924
 20
82.4527
 30
0.0
 10
172.9756
 20
82.0205
 30
0.0
 10
172.9756
 20
82.0205
 30
0.0
 10
171.8806
 20
81.1041
 30
0.0
 10
171.3493
 20
79.7163
 30
0.0
 10
171.2196
 20
78.1656
 30
0.0
 10
171.2196
 20
78.1656
 30
0.0
 10
171.0143
 20
75.7103
 30
0.0
 10
171.8162
 20
72.8466
 30
0.0
 10
172.9818
 20
70.7986
 30
0.0
 10
172.9818
 20
70.7986
 30
0.0
 10
172.292
 20
71.3271
 30
0.0
 10
171.6313
 20
71.7387
 30
0.0
 10
171.176
 20
71.9634
 30
0.0
 10
171.176
 20
71.9634
 30
0.0
 10
168.7415
 20
73.165
 30
0.0
 10
165.8499
 20
73.5931
 30
0.0
 10
163.5694
 20
72.7368
 30
0.0
 10
163.5694
 20
72.7368
 30
0.0
 10
162.686
 20
72.4051
 30
0.0
 10
162.1292
 20
71.8676
 30
0.0
 10
161.9107
 20
71.1755
 30
0.0
 10
161.9107
 20
71.1755
 30
0.0
 10
161.4288
 20
69.6494
 30
0.0
 10
162.3739
 20
68.3424
 30
0.0
 10
163.5256
 20
67.2791
 30
0.0
 10
163.5256
 20
67.2791
 30
0.0
 10
164.5974
 20
66.2898
 30
0.0
 10
168.2391
 20
64.7248
 30
0.0
 10
171.3331
 20
64.3036
 30
0.0
 10
171.3331
 20
64.3036
 30
0.0
 10
170.6544
 20
64.1892
 30
0.0
 10
170.0806
 20
64.0416
 30
0.0
 10
169.7146
 20
63.8903
 30
0.0
 10
169.7146
 20
63.8903
 30
0.0
 10
168.246
 20
63.2834
 30
0.0
 10
166.9461
 20
62.4217
 30
0.0
 10
165.8021
 20
61.347
 30
0.0
 10
165.8021
 20
61.347
 30
0.0
 10
163.8657
 20
59.5297
 30
0.0
 10
163.472
 20
57.3769
 30
0.0
 10
164.2397
 20
55.8694
 30
0.0
 10
164.2397
 20
55.8694
 30
0.0
 10
167.1081
 20
53.3804
 30
0.0
 10
173.0146
 20
55.0337
 30
0.0
 10
175.4003
 20
57.1618
 30
0.0
 10
175.4003
 20
57.1618
 30
0.0
 10
176.1323
 20
57.8144
 30
0.0
 10
176.7843
 20
58.5348
 30
0.0
 10
177.2689
 20
59.2874
 30
0.0
 10
177.2689
 20
59.2874
 30
0.0
 10
177.0118
 20
57.5865
 30
0.0
 10
176.0923
 20
56.3054
 30
0.0
 10
174.9386
 20
55.3101
 30
0.0
 10
174.9386
 20
55.3101
 30
0.0
 10
170.5575
 20
51.5308
 30
0.0
 10
162.869
 20
51.5682
 30
0.0
 10
157.5989
 20
53.3093
 30
0.0
 10
157.5989
 20
53.3093
 30
0.0
 10
155.8052
 20
53.902
 30
0.0
 10
154.0689
 20
54.7611
 30
0.0
 10
152.5107
 20
55.8366
 30
0.0
 10
152.5107
 20
55.8366
 30
0.0
 10
153.0713
 20
55.6073
 30
0.0
 10
153.6622
 20
55.4447
 30
0.0
 10
154.2637
 20
55.3546
 30
0.0
 10
154.2637
 20
55.3546
 30
0.0
 10
154.9306
 20
55.255
 30
0.0
 10
155.6105
 20
55.2451
 30
0.0
 10
156.2799
 20
55.3106
 30
0.0
 10
156.2799
 20
55.3106
 30
0.0
 10
156.1618
 20
55.8107
 30
0.0
 10
156.0179
 20
56.302
 30
0.0
 10
155.8856
 20
56.8008
 30
0.0
 10
155.8856
 20
56.8008
 30
0.0
 10
155.4158
 20
58.5679
 30
0.0
 10
155.0949
 20
60.4346
 30
0.0
 10
154.197
 20
61.9922
 30
0.0
 10
154.197
 20
61.9922
 30
0.0
 10
153.4132
 20
63.352
 30
0.0
 10
152.1907
 20
64.4763
 30
0.0
 10
150.8779
 20
65.4108
 30
0.0
 10
150.8779
 20
65.4108
 30
0.0
 10
150.0045
 20
66.032
 30
0.0
 10
149.0916
 20
66.5696
 30
0.0
 10
148.1039
 20
66.9462
 30
0.0
 10
148.1039
 20
66.9462
 30
0.0
 10
148.824
 20
67.1939
 30
0.0
 10
149.353
 20
67.5278
 30
0.0
 10
150.0372
 20
68.1619
 30
0.0
 10
150.0372
 20
68.1619
 30
0.0
 10
150.7969
 20
68.866
 30
0.0
 10
151.7481
 20
69.9402
 30
0.0
 10
151.2239
 20
70.4038
 30
0.0
 10
151.2239
 20
70.4038
 30
0.0
 10
151.0891
 20
70.5223
 30
0.0
 10
150.858
 20
70.6008
 30
0.0
 10
150.6307
 20
70.667
 30
0.0
 10
150.6307
 20
70.667
 30
0.0
 10
149.5037
 20
70.9961
 30
0.0
 10
147.5321
 20
71.0625
 30
0.0
 10
147.5321
 20
71.0625
 30
0.0
 10
147.5321
 20
71.0625
 30
0.0
 10
149.3999
 20
71.4816
 30
0.0
 10
151.2438
 20
71.9915
 30
0.0
 10
153.0695
 20
72.5788
 30
0.0
 10
153.0695
 20
72.5788
 30
0.0
 10
157.3701
 20
73.9626
 30
0.0
 10
161.5695
 20
75.7755
 30
0.0
 10
165.1945
 20
78.5735
 30
0.0
 10
165.1945
 20
78.5735
 30
0.0
 10
167.0036
 20
79.9697
 30
0.0
 10
168.6695
 20
81.6108
 30
0.0
 10
170.0286
 20
83.2834
 30
0.0
 10
170.0286
 20
83.2834
 30
0.0
 10
171.9001
 20
85.5863
 30
0.0
 10
173.1901
 20
87.9487
 30
0.0
 10
175.6056
 20
90.7201
 30
0.0
 10
175.6056
 20
90.7201
 30
0.0
 10
176.3472
 20
91.5706
 30
0.0
 10
177.1952
 20
92.46
 30
0.0
 10
177.9611
 20
92.3309
 30
0.0
 10
177.9611
 20
92.3309
 30
0.0
 10
178.481
 20
92.2438
 30
0.0
 10
178.9625
 20
91.6881
 30
0.0
 10
179.4483
 20
91.0916
 30
0.0
 10
179.4483
 20
91.0916
 30
0.0
 10
180.4439
 20
89.8698
 30
0.0
 10
181.4569
 20
88.4796
 30
0.0
 10
182.5466
 20
88.6131
 30
0.0
 10
182.5466
 20
88.6131
 30
0.0
 10
184.0135
 20
88.7925
 30
0.0
 10
185.6204
 20
91.7301
 30
0.0
 10
184.5301
 20
93.5707
 30
0.0
 10
184.5301
 20
93.5707
 30
0.0
 10
184.0109
 20
94.4472
 30
0.0
 10
182.8805
 20
95.0753
 30
0.0
 10
182.7946
 20
95.43
 30
0.0
 10
182.7946
 20
95.43
 30
0.0
 10
182.6678
 20
95.959
 30
0.0
 10
184.8645
 20
95.8811
 30
0.0
 10
186.5129
 20
96.1736
 30
0.0
 10
186.5129
 20
96.1736
 30
0.0
 10
189.2244
 20
96.6537
 30
0.0
 10
190.4508
 20
98.1341
 30
0.0
 10
191.2227
 20
100.2635
 30
0.0
 10
191.2227
 20
100.2635
 30
0.0
 10
191.3643
 20
100.6533
 30
0.0
 10
191.4911
 20
101.0651
 30
0.0
 10
191.4712
 20
101.3791
 30
0.0
 10
191.4712
 20
101.3791
 30
0.0
 10
191.0454
 20
102.0348
 30
0.0
 10
188.7777
 20
102.292
 30
0.0
 10
186.7608
 20
101.999
 30
0.0
 10
186.7608
 20
101.999
 30
0.0
 10
183.7192
 20
101.557
 30
0.0
 10
179.59
 20
100.7697
 30
0.0
 10
177.5958
 20
98.0779
 30
0.0
 10
177.5958
 20
98.0779
 30
0.0
 10
177.2379
 20
98.0372
 30
0.0
 10
177.2787
 20
98.6358
 30
0.0
 10
177.4042
 20
99.2898
 30
0.0
 10
177.4042
 20
99.2898
 30
0.0
 10
178.6831
 20
105.9565
 30
0.0
 10
178.8709
 20
113.1938
 30
0.0
 10
176.5778
 20
119.5378
 30
0.0
 10
176.5778
 20
119.5378
 30
0.0
 10
176.1024
 20
120.852
 30
0.0
 10
175.4969
 20
122.1324
 30
0.0
 10
174.7675
 20
123.3175
 30
0.0
  0
SPLINE
  5
8C
330
1F
100
AcDbEntity
  8
layer 1
 62
     7
100
AcDbSpline
210
0.0
220
0.0
230
1.0
 70
    11
 71
     3
 72
    68
 73
    64
 74
     0
 42
0.0000000001
 43
0.0000000001
 12
1.0
 22
0.0
 32
0.0
 13
1.0
 23
0.0
 33
0.0
 40
0.0
 40
0.0
 40
0.0
 40
0.0
 40
0.0588235294117647
 40
0.0588235294117647
 40
0.0588235294117647
 40
0.0588235294117647
 40
0.1176470588235294
 40
0.1176470588235294
 40
0.1176470588235294
 40
0.1176470588235294
 40
0.1764705882352941
 40
0.1764705882352941
 40
0.1764705882352941
 40
0.1764705882352941
 40
0.2352941176470588
 40
0.2352941176470588
 40
0.2352941176470588
 40
0.2352941176470588
 40
0.2941176470588235
 40
0.2941176470588235
 40
0.2941176470588235
 40
0.2941176470588235
 40
0.3529411764705883
 40
0.3529411764705883
 40
0.3529411764705883
 40
0.3529411764705883
 40
0.4117647058823529
 40
0.4117647058823529
 40
0.4117647058823529
 40
0.4117647058823529
 40
0.4705882352941176
 40
0.4705882352941176
 40
0.4705882352941176
 40
0.4705882352941176
 40
0.5294117647058824
 40
0.5294117647058824
 40
0.5294117647058824
 40
0.5294117647058824
 40
0.5882352941176471
 40
0.5882352941176471
 40
0.5882352941176471
 40
0.5882352941176471
 40
0.6470588235294118
 40
0.6470588235294118
 40
0.6470588235294118
 40
0.6470588235294118
 40
0.7058823529411765
 40
0.7058823529411765
 40
0.7058823529411765
 40
0.7058823529411765
 40
0.7647058823529411
 40
0.7647058823529411
 40
0.7647058823529411
 40
0.7647058823529411
 40
0.8235294117647058
 40
0.8235294117647058
 40
0.8235294117647058
 40
0.8235294117647058
 40
0.8823529411764706
 40
0.8823529411764706
 40
0.8823529411764706
 40
0.8823529411764706
 40
1.0
 40
1.0
 40
1.0
 40
1.0
 10
167.5201
 20
123.3175
 30
0.0
 10
167.5201
 20
123.3175
 30
0.0
 10
170.7007
 20
123.3175
 30
0.0
 10
170.7007
 20
123.3175
 30
0.0
 10
170.7007
 20
123.3175
 30
0.0
 10
170.7549
 20
123.2591
 30
0.0
 10
170.8082
 20
123.2004
 30
0.0
 10
170.8605
 20
123.1418
 30
0.0
 10
170.8605
 20
123.1418
 30
0.0
 10
172.5818
 20
121.216
 30
0.0
 10
173.2217
 20
119.4376
 30
0.0
 10
173.7192
 20
117.4253
 30
0.0
 10
173.7192
 20
117.4253
 30
0.0
 10
174.8293
 20
112.9348
 30
0.0
 10
175.2303
 20
107.2781
 30
0.0
 10
175.3348
 20
103.2562
 30
0.0
 10
175.3348
 20
103.2562
 30
0.0
 10
175.3868
 20
101.2685
 30
0.0
 10
175.3657
 20
99.6793
 30
0.0
 10
174.2161
 20
96.296
 30
0.0
 10
174.2161
 20
96.296
 30
0.0
 10
173.8354
 20
95.176
 30
0.0
 10
173.3311
 20
93.8582
 30
0.0
 10
173.2222
 20
94.1833
 30
0.0
 10
173.2222
 20
94.1833
 30
0.0
 10
173.1753
 20
94.3218
 30
0.0
 10
173.2012
 20
94.7582
 30
0.0
 10
173.2222
 20
95.1778
 30
0.0
 10
173.2222
 20
95.1778
 30
0.0
 10
173.4088
 20
98.9235
 30
0.0
 10
173.2346
 20
101.3185
 30
0.0
 10
172.2277
 20
104.0022
 30
0.0
 10
172.2277
 20
104.0022
 30
0.0
 10
171.5899
 20
105.7032
 30
0.0
 10
170.6157
 20
107.5209
 30
0.0
 10
169.2814
 20
108.9248
 30
0.0
 10
169.2814
 20
108.9248
 30
0.0
 10
167.8653
 20
110.4136
 30
0.0
 10
165.8905
 20
111.5114
 30
0.0
 10
163.7761
 20
111.3351
 30
0.0
 10
163.7761
 20
111.3351
 30
0.0
 10
164.5702
 20
112.5015
 30
0.0
 10
166.0994
 20
112.7463
 30
0.0
 10
167.4283
 20
112.5584
 30
0.0
 10
167.4283
 20
112.5584
 30
0.0
 10
169.1595
 20
112.3135
 30
0.0
 10
170.264
 20
111.1195
 30
0.0
 10
172.2277
 20
110.3407
 30
0.0
 10
172.2277
 20
110.3407
 30
0.0
 10
171.891
 20
111.0421
 30
0.0
 10
171.5757
 20
111.7524
 30
0.0
 10
171.2333
 20
112.4533
 30
0.0
 10
171.2333
 20
112.4533
 30
0.0
 10
169.9927
 20
114.9917
 30
0.0
 10
168.3863
 20
117.4103
 30
0.0
 10
167.7534
 20
120.159
 30
0.0
 10
167.7534
 20
120.159
 30
0.0
 10
167.5197
 20
121.1728
 30
0.0
 10
167.419
 20
122.2307
 30
0.0
 10
167.5049
 20
123.2668
 30
0.0
 10
167.5049
 20
123.2668
 30
0.0
 10
167.5099
 20
123.2836
 30
0.0
 10
167.5148
 20
123.3005
 30
0.0
 10
167.5201
 20
123.3175
 30
0.0
  0
SPLINE
  5
8D
330
1F
100
AcDbEntity
  8
layer 1
 62
     7
100
AcDbSpline
210
0.0
220
0.0
230
1.0
 70
    11
 71
     3
 72
   276
 73
   272
 74
     0
 42
0.0000000001
 43
0.0000000001
 12
1.0
 22
0.0
 32
0.0
 13
1.0
 23
0.0
 33
0.0
 40
0.0
 40
0.0
 40
0.0
 40
0.0
 40
0.0144927536231884
 40
0.0144927536231884
 40
0.0144927536231884
 40
0.0144927536231884
 40
0.0289855072463768
 40
0.0289855072463768
 40
0.0289855072463768
 40
0.0289855072463768
 40
0.0434782608695652
 40
0.0434782608695652
 40
0.0434782608695652
 40
0.0434782608695652
 40
0.0579710144927536
 40
0.0579710144927536
 40
0.0579710144927536
 40
0.0579710144927536
 40
0.072463768115942
 40
0.072463768115942
 40
0.072463768115942
 40
0.072463768115942
 40
0.0869565217391304
 40
0.0869565217391304
 40
0.0869565217391304
 40
0.0869565217391304
 40
0.1014492753623188
 40
0.1014492753623188
 40
0.1014492753623188
 40
0.1014492753623188
 40
0.1159420289855072
 40
0.1159420289855072
 40
0.1159420289855072
 40
0.1159420289855072
 40
0.1304347826086956
 40
0.1304347826086956
 40
0.1304347826086956
 40
0.1304347826086956
 40
0.1449275362318841
 40
0.1449275362318841
 40
0.1449275362318841
 40
0.1449275362318841
 40
0.1594202898550725
 40
0.1594202898550725
 40
0.1594202898550725
 40
0.1594202898550725
 40
0.1739130434782609
 40
0.1739130434782609
 40
0.1739130434782609
 40
0.1739130434782609
 40
0.1884057971014493
 40
0.1884057971014493
 40
0.1884057971014493
 40
0.1884057971014493
 40
0.2028985507246377
 40
0.2028985507246377
 40
0.2028985507246377
 40
0.2028985507246377
 40
0.2173913043478261
 40
0.2173913043478261
 40
0.2173913043478261
 40
0.2173913043478261
 40
0.2318840579710145
 40
0.2318840579710145
 40
0.2318840579710145
 40
0.2318840579710145
 40
0.2463768115942029
 40
0.2463768115942029
 40
0.2463768115942029
 40
0.2463768115942029
 40
0.2608695652173913
 40
0.2608695652173913
 40
0.2608695652173913
 40
0.2608695652173913
 40
0.2753623188405797
 40
0.2753623188405797
 40
0.2753623188405797
 40
0.2753623188405797
 40
0.2898550724637681
 40
0.2898550724637681
 40
0.2898550724637681
 40
0.2898550724637681
 40
0.3043478260869565
 40
0.3043478260869565
 40
0.3043478260869565
 40
0.3043478260869565
 40
0.3188405797101449
 40
0.3188405797101449
 40
0.3188405797101449
 40
0.3188405797101449
 40
0.3333333333333333
 40
0.3333333333333333
 40
0.3333333333333333
 40
0.3333333333333333
 40
0.3478260869565217
 40
0.3478260869565217
 40
0.3478260869565217
 40
0.3478260869565217
 40
0.3623188405797101
 40
0.3623188405797101
 40
0.3623188405797101
 40
0.3623188405797101
 40
0.3768115942028986
 40
0.3768115942028986
 40
0.3768115942028986
 40
0.3768115942028986
 40
0.391304347826087
 40
0.391304347826087
 40
0.391304347826087
 40
0.391304347826087
 40
0.4057971014492754
 40
0.4057971014492754
 40
0.4057971014492754
 40
0.4057971014492754
 40
0.4202898550724637
 40
0.4202898550724637
 40
0.4202898550724637
 40
0.4202898550724637
 40
0.4347826086956522
 40
0.4347826086956522
 40
0.4347826086956522
 40
0.4347826086956522
 40
0.4492753623188406
 40
0.4492753623188406
 40
0.4492753623188406
 40
0.4492753623188406
 40
0.463768115942029
 40
0.463768115942029
 40
0.463768115942029
 40
0.463768115942029
 40
0.4782608695652174
 40
0.4782608695652174
 40
0.4782608695652174
 40
0.4782608695652174
 40
0.4927536231884058
 40
0.4927536231884058
 40
0.4927536231884058
 40
0.4927536231884058
 40
0.5072463768115942
 40
0.5072463768115942
 40
0.5072463768115942
 40
0.5072463768115942
 40
0.5217391304347826
 40
0.5217391304347826
 40
0.5217391304347826
 40
0.5217391304347826
 40
0.5362318840579711
 40
0.5362318840579711
 40
0.5362318840579711
 40
0.5362318840579711
 40
0.5507246376811594
 40
0.5507246376811594
 40
0.5507246376811594
 40
0.5507246376811594
 40
0.5652173913043478
 40
0.5652173913043478
 40
0.5652173913043478
 40
0.5652173913043478
 40
0.5797101449275363
 40
0.5797101449275363
 40
0.5797101449275363
 40
0.5797101449275363
 40
0.5942028985507246
 40
0.5942028985507246
 40
0.5942028985507246
 40
0.5942028985507246
 40
0.6086956521739131
 40
0.6086956521739131
 40
0.6086956521739131
 40
0.6086956521739131
 40
0.6231884057971014
 40
0.6231884057971014
 40
0.6231884057971014
 40
0.6231884057971014
 40
0.6376811594202898
 40
0.6376811594202898
 40
0.6376811594202898
 40
0.6376811594202898
 40
0.6521739130434783
 40
0.6521739130434783
 40
0.6521739130434783
 40
0.6521739130434783
 40
0.6666666666666666
 40
0.6666666666666666
 40
0.6666666666666666
 40
0.6666666666666666
 40
0.6811594202898551
 40
0.6811594202898551
 40
0.6811594202898551
 40
0.6811594202898551
 40
0.6956521739130435
 40
0.6956521739130435
 40
0.6956521739130435
 40
0.6956521739130435
 40
0.7101449275362319
 40
0.7101449275362319
 40
0.7101449275362319
 40
0.7101449275362319
 40
0.7246376811594203
 40
0.7246376811594203
 40
0.7246376811594203
 40
0.7246376811594203
 40
0.7391304347826086
 40
0.7391304347826086
 40
0.7391304347826086
 40
0.7391304347826086
 40
0.7536231884057971
 40
0.7536231884057971
 40
0.7536231884057971
 40
0.7536231884057971
 40
0.7681159420289855
 40
0.7681159420289855
 40
0.7681159420289855
 40
0.7681159420289855
 40
0.782608695652174
 40
0.782608695652174
 40
0.782608695652174
 40
0.782608695652174
 40
0.7971014492753623
 40
0.7971014492753623
 40
0.7971014492753623
 40
0.7971014492753623
 40
0.8115942028985508
 40
0.8115942028985508
 40
0.8115942028985508
 40
0.8115942028985508
 40
0.8260869565217391
 40
0.8260869565217391
 40
0.8260869565217391
 40
0.8260869565217391
 40
0.8405797101449275
 40
0.8405797101449275
 40
0.8405797101449275
 40
0.8405797101449275
 40
0.855072463768116
 40
0.855072463768116
 40
0.855072463768116
 40
0.855072463768116
 40
0.8695652173913043
 40
0.8695652173913043
 40
0.8695652173913043
 40
0.8695652173913043
 40
0.8840579710144928
 40
0.8840579710144928
 40
0.8840579710144928
 40
0.8840579710144928
 40
0.8985507246376812
 40
0.8985507246376812
 40
0.8985507246376812
 40
0.8985507246376812
 40
0.9130434782608695
 40
0.9130434782608695
 40
0.9130434782608695
 40
0.9130434782608695
 40
0.927536231884058
 40
0.927536231884058
 40
0.927536231884058
 40
0.927536231884058
 40
0.9420289855072463
 40
0.9420289855072463
 40
0.9420289855072463
 40
0.9420289855072463
 40
0.9565217391304348
 40
0.9565217391304348
 40
0.9565217391304348
 40
0.9565217391304348
 40
0.9710144927536232
 40
0.9710144927536232
 40
0.9710144927536232
 40
0.9710144927536232
 40
1.0
 40
1.0
 40
1.0
 40
1.0
 10
107.0402
 20
123.3175
 30
0.0
 10
107.0402
 20
123.3175
 30
0.0
 10
135.5386
 20
123.3175
 30
0.0
 10
135.5386
 20
123.3175
 30
0.0
 10
135.5386
 20
123.3175
 30
0.0
 10
135.9701
 20
121.2585
 30
0.0
 10
136.0221
 20
119.1532
 30
0.0
 10
135.8794
 20
117.0143
 30
0.0
 10
135.8794
 20
117.0143
 30
0.0
 10
135.7168
 20
114.5758
 30
0.0
 10
135.3014
 20
112.0924
 30
0.0
 10
133.9707
 20
110.0756
 30
0.0
 10
133.9707
 20
110.0756
 30
0.0
 10
133.8022
 20
109.8196
 30
0.0
 10
133.6188
 20
109.5715
 30
0.0
 10
133.4198
 20
109.3374
 30
0.0
 10
133.4198
 20
109.3374
 30
0.0
 10
133.1145
 20
109.4099
 30
0.0
 10
132.7962
 20
109.4483
 30
0.0
 10
132.4687
 20
109.4483
 30
0.0
 10
132.4687
 20
109.4483
 30
0.0
 10
131.281
 20
109.4483
 30
0.0
 10
130.2109
 20
108.9441
 30
0.0
 10
129.4605
 20
108.1383
 30
0.0
 10
129.4605
 20
108.1383
 30
0.0
 10
129.715
 20
109.3628
 30
0.0
 10
129.5134
 20
110.541
 30
0.0
 10
129.0124
 20
111.6059
 30
0.0
 10
129.0124
 20
111.6059
 30
0.0
 10
127.5556
 20
114.7019
 30
0.0
 10
123.5708
 20
116.8437
 30
0.0
 10
120.9322
 20
116.4091
 30
0.0
 10
120.9322
 20
116.4091
 30
0.0
 10
115.4078
 20
115.4987
 30
0.0
 10
116.4608
 20
110.0181
 30
0.0
 10
119.7863
 20
107.322
 30
0.0
 10
119.7863
 20
107.322
 30
0.0
 10
120.5633
 20
106.6917
 30
0.0
 10
121.4376
 20
106.1559
 30
0.0
 10
122.3341
 20
105.7527
 30
0.0
 10
122.3341
 20
105.7527
 30
0.0
 10
119.2607
 20
105.4911
 30
0.0
 10
116.3337
 20
103.6957
 30
0.0
 10
116.5871
 20
100.3005
 30
0.0
 10
116.5871
 20
100.3005
 30
0.0
 10
116.689
 20
98.9519
 30
0.0
 10
118.0728
 20
97.7046
 30
0.0
 10
119.4661
 20
97.2002
 30
0.0
 10
119.4661
 20
97.2002
 30
0.0
 10
119.977
 20
97.0155
 30
0.0
 10
120.4891
 20
96.9307
 30
0.0
 10
121.0032
 20
96.9137
 30
0.0
 10
121.0032
 20
96.9137
 30
0.0
 10
120.8156
 20
96.8125
 30
0.0
 10
120.6268
 20
96.7087
 30
0.0
 10
120.4369
 20
96.6018
 30
0.0
 10
120.4369
 20
96.6018
 30
0.0
 10
117.9988
 20
95.2305
 30
0.0
 10
112.9301
 20
91.7323
 30
0.0
 10
112.2461
 20
86.8696
 30
0.0
 10
112.2461
 20
86.8696
 30
0.0
 10
111.6229
 20
82.4383
 30
0.0
 10
115.966
 20
83.2443
 30
0.0
 10
118.8701
 20
84.8292
 30
0.0
 10
118.8701
 20
84.8292
 30
0.0
 10
120.5733
 20
85.7587
 30
0.0
 10
121.6058
 20
87.1795
 30
0.0
 10
122.5973
 20
88.3398
 30
0.0
 10
122.5973
 20
88.3398
 30
0.0
 10
123.7886
 20
90.0389
 30
0.0
 10
125.2288
 20
92.4943
 30
0.0
 10
126.1394
 20
94.1031
 30
0.0
 10
126.1394
 20
94.1031
 30
0.0
 10
126.0777
 20
93.422
 30
0.0
 10
126.0617
 20
92.7441
 30
0.0
 10
126.0852
 20
92.0924
 30
0.0
 10
126.0852
 20
92.0924
 30
0.0
 10
126.3114
 20
85.8187
 30
0.0
 10
132.7382
 20
83.9113
 30
0.0
 10
135.42
 20
90.8148
 30
0.0
 10
135.42
 20
90.8148
 30
0.0
 10
136.0852
 20
92.5272
 30
0.0
 10
136.1613
 20
94.6146
 30
0.0
 10
135.7745
 20
96.4965
 30
0.0
 10
135.7745
 20
96.4965
 30
0.0
 10
135.9507
 20
96.1905
 30
0.0
 10
136.1372
 20
95.9092
 30
0.0
 10
136.328
 20
95.6616
 30
0.0
 10
136.328
 20
95.6616
 30
0.0
 10
138.2392
 20
91.2919
 30
0.0
 10
146.6984
 20
90.7075
 30
0.0
 10
148.4728
 20
94.1958
 30
0.0
 10
148.4728
 20
94.1958
 30
0.0
 10
151.4153
 20
99.9803
 30
0.0
 10
141.9123
 20
106.0178
 30
0.0
 10
137.3099
 20
105.0857
 30
0.0
 10
137.3099
 20
105.0857
 30
0.0
 10
136.9288
 20
105.0405
 30
0.0
 10
136.7038
 20
104.9604
 30
0.0
 10
136.5491
 20
104.8425
 30
0.0
 10
136.5491
 20
104.8425
 30
0.0
 10
136.5688
 20
105.0049
 30
0.0
 10
136.5791
 20
105.1703
 30
0.0
 10
136.5791
 20
105.338
 30
0.0
 10
136.5791
 20
105.338
 30
0.0
 10
136.5791
 20
105.7593
 30
0.0
 10
136.5156
 20
106.1655
 30
0.0
 10
136.3977
 20
106.5481
 30
0.0
 10
136.3977
 20
106.5481
 30
0.0
 10
137.4725
 20
106.9734
 30
0.0
 10
138.3949
 20
109.0681
 30
0.0
 10
139.0018
 20
110.8562
 30
0.0
 10
139.0018
 20
110.8562
 30
0.0
 10
139.6916
 20
112.888
 30
0.0
 10
139.9733
 20
114.524
 30
0.0
 10
140.0726
 20
116.0917
 30
0.0
 10
140.0726
 20
116.0917
 30
0.0
 10
141.0534
 20
111.6363
 30
0.0
 10
146.2286
 20
105.6753
 30
0.0
 10
152.5058
 20
107.7077
 30
0.0
 10
152.5058
 20
107.7077
 30
0.0
 10
154.3898
 20
108.544
 30
0.0
 10
154.2117
 20
110.499
 30
0.0
 10
153.5522
 20
112.2136
 30
0.0
 10
153.5522
 20
112.2136
 30
0.0
 10
152.2148
 20
115.6914
 30
0.0
 10
147.9981
 20
118.9476
 30
0.0
 10
145.071
 20
120.2757
 30
0.0
 10
145.071
 20
120.2757
 30
0.0
 10
143.4544
 20
121.0089
 30
0.0
 10
141.0545
 20
121.3098
 30
0.0
 10
140.0689
 20
120.1009
 30
0.0
 10
140.0689
 20
120.1009
 30
0.0
 10
140.066
 20
120.1954
 30
0.0
 10
140.0633
 20
120.2905
 30
0.0
 10
140.0607
 20
120.3865
 30
0.0
 10
140.0607
 20
120.3865
 30
0.0
 10
140.0333
 20
121.3716
 30
0.0
 10
140.012
 20
122.4318
 30
0.0
 10
139.6203
 20
123.3175
 30
0.0
 10
139.6203
 20
123.3175
 30
0.0
 10
139.6203
 20
123.3175
 30
0.0
 10
164.1997
 20
123.3175
 30
0.0
 10
164.1997
 20
123.3175
 30
0.0
 10
164.1997
 20
123.3175
 30
0.0
 10
164.232
 20
122.7306
 30
0.0
 10
164.3312
 20
122.145
 30
0.0
 10
164.469
 20
121.5707
 30
0.0
 10
164.469
 20
121.5707
 30
0.0
 10
165.0035
 20
119.34
 30
0.0
 10
166.1186
 20
117.2788
 30
0.0
 10
167.4913
 20
115.4374
 30
0.0
 10
167.4913
 20
115.4374
 30
0.0
 10
167.9463
 20
114.8268
 30
0.0
 10
168.4295
 20
114.2401
 30
0.0
 10
169.0026
 20
113.7482
 30
0.0
 10
169.0026
 20
113.7482
 30
0.0
 10
168.2312
 20
114.2804
 30
0.0
 10
167.2911
 20
114.5882
 30
0.0
 10
166.3355
 20
114.6371
 30
0.0
 10
166.3355
 20
114.6371
 30
0.0
 10
164.6407
 20
114.7241
 30
0.0
 10
162.8958
 20
113.9967
 30
0.0
 10
161.7129
 20
112.7704
 30
0.0
 10
161.7129
 20
112.7704
 30
0.0
 10
161.0145
 20
112.0466
 30
0.0
 10
160.5126
 20
111.1485
 30
0.0
 10
160.2906
 20
110.1923
 30
0.0
 10
160.2906
 20
110.1923
 30
0.0
 10
165.2724
 20
108.9543
 30
0.0
 10
167.4444
 20
109.5799
 30
0.0
 10
169.7134
 20
103.8811
 30
0.0
 10
169.7134
 20
103.8811
 30
0.0
 10
171.8444
 20
98.5316
 30
0.0
 10
172.1858
 20
92.8532
 30
0.0
 10
169.8024
 20
88.4135
 30
0.0
 10
169.8024
 20
88.4135
 30
0.0
 10
169.7659
 20
91.0835
 30
0.0
 10
169.1447
 20
93.6981
 30
0.0
 10
168.0019
 20
96.1717
 30
0.0
 10
168.0019
 20
96.1717
 30
0.0
 10
165.9009
 20
100.7209
 30
0.0
 10
162.1938
 20
103.1944
 30
0.0
 10
157.9346
 20
103.3804
 30
0.0
 10
157.9346
 20
103.3804
 30
0.0
 10
157.5679
 20
102.4774
 30
0.0
 10
157.3975
 20
101.5108
 30
0.0
 10
157.3134
 20
100.5218
 30
0.0
 10
157.3134
 20
100.5218
 30
0.0
 10
157.1242
 20
98.3116
 30
0.0
 10
157.3621
 20
95.988
 30
0.0
 10
158.3079
 20
94.0591
 30
0.0
 10
158.3079
 20
94.0591
 30
0.0
 10
159.9449
 20
90.7161
 30
0.0
 10
163.895
 20
85.7488
 30
0.0
 10
167.7759
 20
85.5338
 30
0.0
 10
167.7759
 20
85.5338
 30
0.0
 10
166.5211
 20
83.9347
 30
0.0
 10
165.5713
 20
83.2531
 30
0.0
 10
163.9614
 20
81.9527
 30
0.0
 10
163.9614
 20
81.9527
 30
0.0
 10
159.5059
 20
78.3544
 30
0.0
 10
152.5775
 20
75.5244
 30
0.0
 10
143.9943
 20
72.7536
 30
0.0
 10
143.9943
 20
72.7536
 30
0.0
 10
143.7803
 20
73.9255
 30
0.0
 10
143.145
 20
75.0282
 30
0.0
 10
142.2826
 20
75.8911
 30
0.0
 10
142.2826
 20
75.8911
 30
0.0
 10
139.4784
 20
78.6983
 30
0.0
 10
136.5172
 20
76.1245
 30
0.0
 10
136.8195
 20
75.9384
 30
0.0
 10
136.8195
 20
75.9384
 30
0.0
 10
137.8634
 20
75.2962
 30
0.0
 10
138.179
 20
73.4512
 30
0.0
 10
137.7899
 20
72.2542
 30
0.0
 10
137.7899
 20
72.2542
 30
0.0
 10
136.6907
 20
70.5424
 30
0.0
 10
134.7089
 20
69.5994
 30
0.0
 10
132.4218
 20
68.9198
 30
0.0
 10
132.4218
 20
68.9198
 30
0.0
 10
128.0559
 20
67.6225
 30
0.0
 10
122.5787
 20
67.2861
 30
0.0
 10
120.0125
 20
64.3959
 30
0.0
 10
120.0125
 20
64.3959
 30
0.0
 10
120.0552
 20
67.5719
 30
0.0
 10
119.6088
 20
71.3201
 30
0.0
 10
117.6822
 20
73.8205
 30
0.0
 10
117.6822
 20
73.8205
 30
0.0
 10
116.6104
 20
75.2105
 30
0.0
 10
114.9163
 20
76.2254
 30
0.0
 10
113.2116
 20
76.7355
 30
0.0
 10
113.2116
 20
76.7355
 30
0.0
 10
112.1752
 20
75.0213
 30
0.0
 10
111.9342
 20
72.3336
 30
0.0
 10
112.1038
 20
70.418
 30
0.0
 10
112.1038
 20
70.418
 30
0.0
 10
112.4061
 20
67.0077
 30
0.0
 10
114.0346
 20
63.5307
 30
0.0
 10
116.9529
 20
62.0619
 30
0.0
 10
116.9529
 20
62.0619
 30
0.0
 10
117.089
 20
61.9488
 30
0.0
 10
117.2311
 20
61.8426
 30
0.0
 10
117.3905
 20
61.7702
 30
0.0
 10
117.3905
 20
61.7702
 30
0.0
 10
116.262
 20
61.162
 30
0.0
 10
115.3286
 20
60.2417
 30
0.0
 10
114.5022
 20
59.2318
 30
0.0
 10
114.5022
 20
59.2318
 30
0.0
 10
111.5625
 20
55.6364
 30
0.0
 10
109.981
 20
50.8969
 30
0.0
 10
109.9895
 20
46.3157
 30
0.0
 10
109.9895
 20
46.3157
 30
0.0
 10
109.9957
 20
43.0639
 30
0.0
 10
110.8023
 20
39.8925
 30
0.0
 10
111.0787
 20
36.6674
 30
0.0
 10
111.0787
 20
36.6674
 30
0.0
 10
111.1145
 20
36.2533
 30
0.0
 10
111.1411
 20
35.8378
 30
0.0
 10
111.1564
 20
35.4224
 30
0.0
 10
111.1564
 20
35.4224
 30
0.0
 10
110.6682
 20
36.7873
 30
0.0
 10
109.9437
 20
38.1397
 30
0.0
 10
109.2114
 20
39.3128
 30
0.0
 10
109.2114
 20
39.3128
 30
0.0
 10
108.5463
 20
40.3776
 30
0.0
 10
107.874
 20
41.2951
 30
0.0
 10
107.0402
 20
42.2436
 30
0.0
 10
107.0402
 20
42.2436
 30
0.0
 10
107.0402
 20
42.2436
 30
0.0
 10
107.0402
 20
123.3175
 30
0.0
 10
107.0402
 20
123.3175
 30
0.0
  0
SPLINE
  5
8E
330
1F
100
AcDbEntity
  8
layer 1
 62
     7
100
AcDbSpline
210
0.0
220
0.0
230
1.0
 70
    11
 71
     3
 72
    20
 73
    16
 74
     0
 42
0.0000000001
 43
0.0000000001
 12
1.0
 22
0.0
 32
0.0
 13
1.0
 23
0.0
 33
0.0
 40
0.0
 40
0.0
 40
0.0
 40
0.0
 40
0.2
 40
0.2
 40
0.2
 40
0.2
 40
0.4
 40
0.4
 40
0.4
 40
0.4
 40
0.6
 40
0.6
 40
0.6
 40
0.6
 40
1.0
 40
1.0
 40
1.0
 40
1.0
 10
132.25
 20
107.5457
 30
0.0
 10
133.3548
 20
107.5457
 30
0.0
 10
134.2508
 20
106.6496
 30
0.0
 10
134.2508
 20
105.5447
 30
0.0
 10
134.2508
 20
105.5447
 30
0.0
 10
134.2508
 20
104.4399
 30
0.0
 10
133.3548
 20
103.5439
 30
0.0
 10
132.25
 20
103.5439
 30
0.0
 10
132.25
 20
103.5439
 30
0.0
 10
131.1451
 20
103.5439
 30
0.0
 10
130.249
 20
104.4399
 30
0.0
 10
130.249
 20
105.5447
 30
0.0
 10
130.249
 20
105.5447
 30
0.0
 10
130.249
 20
106.6496
 30
0.0
 10
131.1451
 20
107.5457
 30
0.0
 10
132.25
 20
107.5457
 30
0.0
  0
ENDSEC
  0
SECTION
  2
OBJECTS
  0
DICTIONARY
  5
C
330
0
100
AcDbDictionary
281
     1
  3
ACAD_GROUP
350
D
  3
ACAD_LAYOUT
350
1A
  3
ACAD_MATERIAL
350
3B
  3
ACAD_MLEADERSTYLE
350
B1
  3
ACAD_MLINESTYLE
350
17
  3
ACAD_PLOTSETTINGS
350
19
  3
ACAD_PLOTSTYLENAME
350
E
  3
ACAD_TABLESTYLE
350
B0
  3
ACAD_VISUALSTYLE
350
2A
  0
DICTIONARY
  5
D
102
{ACAD_REACTORS
330
C
102
}
330
C
100
AcDbDictionary
281
     1
  0
DICTIONARY
  5
1A
102
{ACAD_REACTORS
330
C
102
}
330
C
100
AcDbDictionary
281
     1
  3
Layout1
350
1E
  3
Layout2
350
26
  3
Model
350
22
  0
DICTIONARY
  5
3B
102
{ACAD_REACTORS
330
C
102
}
330
C
100
AcDbDictionary
281
     1
  3
ByBlock
350
3D
  3
ByLayer
350
3C
  3
Global
350
3E
  0
DICTIONARY
  5
B1
102
{ACAD_REACTORS
330
C
102
}
330
C
100
AcDbDictionary
281
     1
  0
DICTIONARY
  5
17
102
{ACAD_REACTORS
330
C
102
}
330
C
100
AcDbDictionary
281
     1
  3
Standard
350
18
  0
DICTIONARY
  5
19
102
{ACAD_REACTORS
330
C
102
}
330
C
100
AcDbDictionary
281
     1
  0
ACDBDICTIONARYWDFLT
  5
E
102
{ACAD_REACTORS
330
C
102
}
330
C
100
AcDbDictionary
281
     1
  3
Normal
350
F
100
AcDbDictionaryWithDefault
340
F
  0
DICTIONARY
  5
B0
102
{ACAD_REACTORS
330
C
102
}
330
C
100
AcDbDictionary
281
     1
  0
DICTIONARY
  5
2A
102
{ACAD_REACTORS
330
C
102
}
330
C
100
AcDbDictionary
281
     1
  3
2dWireframe
350
2F
  3
3D Hidden
350
31
  3
3dWireframe
350
30
  3
Basic
350
32
  3
Brighten
350
36
  3
ColorChange
350
3A
  3
Conceptual
350
34
  3
Dim
350
35
  3
Facepattern
350
39
  3
Flat
350
2B
  3
FlatWithEdges
350
2C
  3
Gouraud
350
2D
  3
GouraudWithEdges
350
2E
  3
Linepattern
350
38
  3
Realistic
350
33
  3
Thicken
350
37
  0
LAYOUT
  5
1E
102
{ACAD_REACTORS
330
1A
102
}
330
1A
100
AcDbPlotSettings
  1

  2
none_device
  4

  6

 40
0.0
 41
0.0
 42
0.0
 43
0.0
 44
0.0
 45
0.0
 46
0.0
 47
0.0
 48
0.0
 49
0.0
140
0.0
141
0.0
142
1.0
143
1.0
 70
   688
 72
     0
 73
     0
 74
     5
  7

 75
    16
 76
     0
 77
     2
 78
   300
147
1.0
148
0.0
149
0.0
100
AcDbLayout
  1
Layout1
 70
     1
 71
     1
 10
0.0
 20
0.0
 11
12.0
 21
9.0
 12
0.0
 22
0.0
 32
0.0
 14
1.000000000000000E+20
 24
1.000000000000000E+20
 34
1.000000000000000E+20
 15
-1.000000000000000E+20
 25
-1.000000000000000E+20
 35
-1.000000000000000E+20
146
0.0
 13
0.0
 23
0.0
 33
0.0
 16
1.0
 26
0.0
 36
0.0
 17
0.0
 27
1.0
 37
0.0
 76
     0
330
1B
  0
LAYOUT
  5
26
102
{ACAD_REACTORS
330
1A
102
}
330
1A
100
AcDbPlotSettings
  1

  2
none_device
  4

  6

 40
0.0
 41
0.0
 42
0.0
 43
0.0
 44
0.0
 45
0.0
 46
0.0
 47
0.0
 48
0.0
 49
0.0
140
0.0
141
0.0
142
1.0
143
1.0
 70
   688
 72
     0
 73
     0
 74
     5
  7

 75
    16
 76
     0
 77
     2
 78
   300
147
1.0
148
0.0
149
0.0
100
AcDbLayout
  1
Layout2
 70
     1
 71
     2
 10
0.0
 20
0.0
 11
0.0
 21
0.0
 12
0.0
 22
0.0
 32
0.0
 14
0.0
 24
0.0
 34
0.0
 15
0.0
 25
0.0
 35
0.0
146
0.0
 13
0.0
 23
0.0
 33
0.0
 16
1.0
 26
0.0
 36
0.0
 17
0.0
 27
1.0
 37
0.0
 76
     0
330
23
  0
LAYOUT
  5
22
102
{ACAD_REACTORS
330
1A
102
}
330
1A
100
AcDbPlotSettings
  1

  2
none_device
  4

  6

 40
0.0
 41
0.0
 42
0.0
 43
0.0
 44
0.0
 45
0.0
 46
0.0
 47
0.0
 48
0.0
 49
0.0
140
0.0
141
0.0
142
1.0
143
1.0
 70
  1712
 72
     0
 73
     0
 74
     0
  7

 75
     0
 76
     0
 77
     2
 78
   300
147
1.0
148
0.0
149
0.0
100
AcDbLayout
  1
Model
 70
     1
 71
     0
 10
0.0
 20
0.0
 11
12.0
 21
9.0
 12
0.0
 22
0.0
 32
0.0
 14
104.0189
 24
-109.5602
 34
0.0
 15
196.403
 25
126.3389
 35
0.0
146
0.0
 13
0.0
 23
0.0
 33
0.0
 16
1.0
 26
0.0
 36
0.0
 17
0.0
 27
1.0
 37
0.0
 76
     0
330
1F
331
29
  0
MATERIAL
  5
3D
102
{ACAD_REACTORS
330
3B
102
}
330
3B
100
AcDbMaterial
  1
ByBlock
 72
     1
 94
      127
  0
MATERIAL
  5
3C
102
{ACAD_REACTORS
330
3B
102
}
330
3B
100
AcDbMaterial
  1
ByLayer
 72
     1
 94
      127
  0
MATERIAL
  5
3E
102
{ACAD_REACTORS
330
3B
102
}
330
3B
100
AcDbMaterial
  1
Global
 72
     1
 94
      127
  0
MLINESTYLE
  5
18
102
{ACAD_REACTORS
330
17
102
}
330
17
100
AcDbMlineStyle
  2
Standard
 70
     0
  3

 62
   256
 51
90.0
 52
90.0
 71
     2
 49
0.5
 62
   256
  6
BYLAYER
 49
-0.5
 62
   256
  6
BYLAYER
  0
ACDBPLACEHOLDER
  5
F
102
{ACAD_REACTORS
330
E
102
}
330
E
  0
VISUALSTYLE
  5
2F
102
{ACAD_REACTORS
330
2A
102
}
102
{ACAD_XDICTIONARY
360
98
102
}
330
2A
100
AcDbVisualStyle
  2
2dWireframe
 70
     4
 71
     0
 72
     2
 73
     0
 90
        0
 40
-0.6
 41
-30.0
 62
     5
 63
     7
421
 16777215
 74
     1
 91
        4
 64
     7
 65
   257
 75
     1
175
     1
 42
1.0
 92
        0
 66
   257
 43
1.0
 76
     1
 77
     6
 78
     2
 67
     7
 79
     5
170
     0
171
     0
290
     0
174
     0
 93
        1
 44
0.0
173
     0
291
     0
 45
0.0
  0
VISUALSTYLE
  5
31
102
{ACAD_REACTORS
330
2A
102
}
102
{ACAD_XDICTIONARY
360
9C
102
}
330
2A
100
AcDbVisualStyle
  2
3D Hidden
 70
     6
 71
     1
 72
     2
 73
     2
 90
        0
 40
-0.6
 41
-30.0
 62
     5
 63
     7
421
 16777215
 74
     2
 91
        2
 64
     7
 65
   257
 75
     2
175
     1
 42
40.0
 92
        0
 66
   257
 43
1.0
 76
     1
 77
     6
 78
     2
 67
     7
 79
     3
170
     0
171
     0
290
     0
174
     0
 93
        1
 44
0.0
173
     0
291
     0
 45
0.0
  0
VISUALSTYLE
  5
30
102
{ACAD_REACTORS
330
2A
102
}
102
{ACAD_XDICTIONARY
360
9A
102
}
330
2A
100
AcDbVisualStyle
  2
3dWireframe
 70
     5
 71
     0
 72
     2
 73
     0
 90
        0
 40
-0.6
 41
-30.0
 62
     5
 63
     7
421
 16777215
 74
     1
 91
        4
 64
     7
 65
   257
 75
     1
175
     1
 42
1.0
 92
        0
 66
   257
 43
1.0
 76
     1
 77
     6
 78
     2
 67
     7
 79
     5
170
     0
171
     0
290
     0
174
     0
 93
        1
 44
0.0
173
     0
291
     0
 45
0.0
  0
VISUALSTYLE
  5
32
102
{ACAD_REACTORS
330
2A
102
}
102
{ACAD_XDICTIONARY
360
9E
102
}
330
2A
100
AcDbVisualStyle
  2
Basic
 70
     7
 71
     1
 72
     0
 73
     1
 90
        0
 40
-0.6
 41
-30.0
 62
     5
 63
     7
421
 16777215
 74
     0
 91
        4
 64
     7
 65
   257
 75
     1
175
     1
 42
1.0
 92
        8
 66
     7
 43
1.0
 76
     1
 77
     6
 78
     2
 67
     7
 79
     5
170
     0
171
     0
290
     0
174
     0
 93
        1
 44
0.0
173
     0
291
     1
 45
0.0
  0
VISUALSTYLE
  5
36
102
{ACAD_REACTORS
330
2A
102
}
102
{ACAD_XDICTIONARY
360
A6
102
}
330
2A
100
AcDbVisualStyle
  2
Brighten
 70
    12
 71
     2
 72
     2
 73
     0
 90
        0
 40
-0.6
 41
-30.0
 62
     5
 63
     7
421
 16777215
 74
     1
 91
        4
 64
     7
 65
   257
 75
     1
175
     1
 42
1.0
 92
        8
 66
     7
 43
1.0
 76
     1
 77
     6
 78
     2
 67
     7
 79
     5
170
     0
171
     0
290
     0
174
     0
 93
        1
 44
50.0
173
     0
291
     1
 45
0.0
  0
VISUALSTYLE
  5
3A
102
{ACAD_REACTORS
330
2A
102
}
102
{ACAD_XDICTIONARY
360
AE
102
}
330
2A
100
AcDbVisualStyle
  2
ColorChange
 70
    16
 71
     2
 72
     2
 73
     3
 90
        0
 40
-0.6
 41
-30.0
 62
     5
 63
     8
421
  8421504
 74
     1
 91
        4
 64
     7
 65
   257
 75
     1
175
     1
 42
1.0
 92
        8
 66
     8
424
  8421504
 43
1.0
 76
     1
 77
     6
 78
     2
 67
     7
 79
     5
170
     0
171
     0
290
     0
174
     0
 93
        1
 44
0.0
173
     0
291
     1
 45
0.0
  0
VISUALSTYLE
  5
34
102
{ACAD_REACTORS
330
2A
102
}
102
{ACAD_XDICTIONARY
360
A2
102
}
330
2A
100
AcDbVisualStyle
  2
Conceptual
 70
     9
 71
     3
 72
     2
 73
     0
 90
        0
 40
-0.6
 41
-30.0
 62
     5
 63
     7
421
 16777215
 74
     2
 91
        2
 64
     7
 65
   257
 75
     1
175
     1
 42
40.0
 92
        8
 66
     7
 43
1.0
 76
     1
 77
     6
 78
     2
 67
     7
 79
     3
170
     0
171
     0
290
     0
174
     0
 93
        1
 44
0.0
173
     0
291
     0
 45
0.0
  0
VISUALSTYLE
  5
35
102
{ACAD_REACTORS
330
2A
102
}
102
{ACAD_XDICTIONARY
360
A4
102
}
330
2A
100
AcDbVisualStyle
  2
Dim
 70
    11
 71
     2
 72
     2
 73
     0
 90
        0
 40
-0.6
 41
-30.0
 62
     5
 63
     7
421
 16777215
 74
     1
 91
        4
 64
     7
 65
   257
 75
     1
175
     1
 42
1.0
 92
        8
 66
     7
 43
1.0
 76
     1
 77
     6
 78
     2
 67
     7
 79
     5
170
     0
171
     0
290
     0
174
     0
 93
        1
 44
-50.0
173
     0
291
     1
 45
0.0
  0
VISUALSTYLE
  5
39
102
{ACAD_REACTORS
330
2A
102
}
102
{ACAD_XDICTIONARY
360
AC
102
}
330
2A
100
AcDbVisualStyle
  2
Facepattern
 70
    15
 71
     2
 72
     2
 73
     0
 90
        0
 40
-0.6
 41
-30.0
 62
     5
 63
     7
421
 16777215
 74
     1
 91
        4
 64
     7
 65
   257
 75
     1
175
     1
 42
1.0
 92
        8
 66
     7
 43
1.0
 76
     1
 77
     6
 78
     2
 67
     7
 79
     5
170
     0
171
     0
290
     0
174
     0
 93
        1
 44
0.0
173
     0
291
     1
 45
0.0
  0
VISUALSTYLE
  5
2B
102
{ACAD_REACTORS
330
2A
102
}
102
{ACAD_XDICTIONARY
360
90
102
}
330
2A
100
AcDbVisualStyle
  2
Flat
 70
     0
 71
     2
 72
     1
 73
     1
 90
        2
 40
-0.6
 41
30.0
 62
     5
 63
     7
421
 16777215
 74
     0
 91
        4
 64
     7
 65
   257
 75
     1
175
     1
 42
1.0
 92
        8
 66
     7
 43
1.0
 76
     1
 77
     6
 78
     2
 67
     7
 79
     5
170
     0
171
     0
290
     0
174
     0
 93
       13
 44
0.0
173
     0
291
     1
 45
0.0
  0
VISUALSTYLE
  5
2C
102
{ACAD_REACTORS
330
2A
102
}
102
{ACAD_XDICTIONARY
360
92
102
}
330
2A
100
AcDbVisualStyle
  2
FlatWithEdges
 70
     1
 71
     2
 72
     1
 73
     1
 90
        2
 40
-0.6
 41
30.0
 62
     5
 63
     7
421
 16777215
 74
     1
 91
        4
 64
     7
 65
   257
 75
     1
175
     1
 42
1.0
 92
        0
 66
   257
 43
1.0
 76
     1
 77
     6
 78
     2
 67
     7
 79
     5
170
     0
171
     0
290
     0
174
     0
 93
       13
 44
0.0
173
     0
291
     1
 45
0.0
  0
VISUALSTYLE
  5
2D
102
{ACAD_REACTORS
330
2A
102
}
102
{ACAD_XDICTIONARY
360
94
102
}
330
2A
100
AcDbVisualStyle
  2
Gouraud
 70
     2
 71
     2
 72
     2
 73
     1
 90
        2
 40
-0.6
 41
30.0
 62
     5
 63
     7
421
 16777215
 74
     0
 91
        4
 64
     7
 65
   257
 75
     1
175
     1
 42
1.0
 92
        0
 66
     7
 43
1.0
 76
     1
 77
     6
 78
     2
 67
     7
 79
     5
170
     0
171
     0
290
     0
174
     0
 93
       13
 44
0.0
173
     0
291
     1
 45
0.0
  0
VISUALSTYLE
  5
2E
102
{ACAD_REACTORS
330
2A
102
}
102
{ACAD_XDICTIONARY
360
96
102
}
330
2A
100
AcDbVisualStyle
  2
GouraudWithEdges
 70
     3
 71
     2
 72
     2
 73
     1
 90
        2
 40
-0.6
 41
30.0
 62
     5
 63
     7
421
 16777215
 74
     1
 91
        4
 64
     7
 65
   257
 75
     1
175
     1
 42
1.0
 92
        0
 66
   257
 43
1.0
 76
     1
 77
     6
 78
     2
 67
     7
 79
     5
170
     0
171
     0
290
     0
174
     0
 93
       13
 44
0.0
173
     0
291
     1
 45
0.0
  0
VISUALSTYLE
  5
38
102
{ACAD_REACTORS
330
2A
102
}
102
{ACAD_XDICTIONARY
360
AA
102
}
330
2A
100
AcDbVisualStyle
  2
Linepattern
 70
    14
 71
     2
 72
     2
 73
     0
 90
        0
 40
-0.6
 41
-30.0
 62
     5
 63
     7
421
 16777215
 74
     1
 91
        4
 64
     7
 65
   257
 75
     7
175
     7
 42
1.0
 92
        8
 66
     7
 43
1.0
 76
     1
 77
     6
 78
     2
 67
     7
 79
     5
170
     0
171
     0
290
     0
174
     0
 93
        1
 44
0.0
173
     0
291
     1
 45
0.0
  0
VISUALSTYLE
  5
33
102
{ACAD_REACTORS
330
2A
102
}
102
{ACAD_XDICTIONARY
360
A0
102
}
330
2A
100
AcDbVisualStyle
  2
Realistic
 70
     8
 71
     2
 72
     2
 73
     0
 90
        0
 40
-0.6
 41
-30.0
 62
     5
 63
     7
421
 16777215
 74
     1
 91
        0
 64
     7
 65
   257
 75
     1
175
     1
 42
1.0
 92
        8
 66
     8
424
  7895160
 43
1.0
 76
     1
 77
     6
 78
     2
 67
     7
 79
     5
170
     0
171
     0
290
     0
174
     0
 93
       13
 44
0.0
173
     0
291
     0
 45
0.0
  0
VISUALSTYLE
  5
37
102
{ACAD_REACTORS
330
2A
102
}
102
{ACAD_XDICTIONARY
360
A8
102
}
330
2A
100
AcDbVisualStyle
  2
Thicken
 70
    13
 71
     2
 72
     2
 73
     0
 90
        0
 40
-0.6
 41
-30.0
 62
     5
 63
     7
421
 16777215
 74
     1
 91
        4
 64
     7
 65
   257
 75
     1
175
     1
 42
1.0
 92
       12
 66
     7
 43
1.0
 76
     1
 77
     6
 78
     2
 67
     7
 79
     5
170
     0
171
     0
290
     0
174
     0
 93
        1
 44
0.0
173
     0
291
     1
 45
0.0
  0
DICTIONARY
  5
98
330
2F
100
AcDbDictionary
280
     1
281
     1
  3
ACAD_XREC_ROUNDTRIP
360
99
  0
DICTIONARY
  5
9C
330
31
100
AcDbDictionary
280
     1
281
     1
  3
ACAD_XREC_ROUNDTRIP
360
9D
  0
DICTIONARY
  5
9A
330
30
100
AcDbDictionary
280
     1
281
     1
  3
ACAD_XREC_ROUNDTRIP
360
9B
  0
DICTIONARY
  5
9E
330
32
100
AcDbDictionary
280
     1
281
     1
  3
ACAD_XREC_ROUNDTRIP
360
9F
  0
DICTIONARY
  5
A6
330
36
100
AcDbDictionary
280
     1
281
     1
  3
ACAD_XREC_ROUNDTRIP
360
A7
  0
DICTIONARY
  5
AE
330
3A
100
AcDbDictionary
280
     1
281
     1
  3
ACAD_XREC_ROUNDTRIP
360
AF
  0
DICTIONARY
  5
A2
330
34
100
AcDbDictionary
280
     1
281
     1
  3
ACAD_XREC_ROUNDTRIP
360
A3
  0
DICTIONARY
  5
A4
330
35
100
AcDbDictionary
280
     1
281
     1
  3
ACAD_XREC_ROUNDTRIP
360
A5
  0
DICTIONARY
  5
AC
330
39
100
AcDbDictionary
280
     1
281
     1
  3
ACAD_XREC_ROUNDTRIP
360
AD
  0
DICTIONARY
  5
90
330
2B
100
AcDbDictionary
280
     1
281
     1
  3
ACAD_XREC_ROUNDTRIP
360
91
  0
DICTIONARY
  5
92
330
2C
100
AcDbDictionary
280
     1
281
     1
  3
ACAD_XREC_ROUNDTRIP
360
93
  0
DICTIONARY
  5
94
330
2D
100
AcDbDictionary
280
     1
281
     1
  3
ACAD_XREC_ROUNDTRIP
360
95
  0
DICTIONARY
  5
96
330
2E
100
AcDbDictionary
280
     1
281
     1
  3
ACAD_XREC_ROUNDTRIP
360
97
  0
DICTIONARY
  5
AA
330
38
100
AcDbDictionary
280
     1
281
     1
  3
ACAD_XREC_ROUNDTRIP
360
AB
  0
DICTIONARY
  5
A0
330
33
100
AcDbDictionary
280
     1
281
     1
  3
ACAD_XREC_ROUNDTRIP
360
A1
  0
DICTIONARY
  5
A8
330
37
100
AcDbDictionary
280
     1
281
     1
  3
ACAD_XREC_ROUNDTRIP
360
A9
  0
XRECORD
  5
99
102
{ACAD_REACTORS
330
98
102
}
330
98
100
AcDbXrecord
280
     1
102
RTVSPropertyOp0
 70
     1
102
RTVSPropertyOp1
 70
     1
102
RTVSPropertyOp2
 70
     1
102
RTVSPropertyOp3
 70
     1
102
RTVSPropertyOp4
 70
     1
102
RTVSPropertyOp5
 70
     1
102
RTVSPropertyOp6
 70
     1
102
RTVSPropertyOp7
 70
     1
102
RTVSPropertyOp8
 70
     1
102
RTVSPropertyOp9
 70
     1
102
RTVSPropertyOp10
 70
     1
102
RTVSPropertyOp11
 70
     1
102
RTVSPropertyOp12
 70
     1
102
RTVSPropertyOp13
 70
     1
102
RTVSPropertyOp14
 70
     1
102
RTVSPropertyOp15
 70
     1
102
RTVSPropertyOp16
 70
     1
102
RTVSPropertyOp17
 70
     1
102
RTVSPropertyOp18
 70
     1
102
RTVSPropertyOp19
 70
     1
102
RTVSPropertyOp20
 70
     1
102
RTVSPropertyOp21
 70
     1
102
RTVSPropertyOp22
 70
     1
102
RTVSPropertyOp23
 70
     1
102
RTVSPropertyOp24
 70
     1
102
RTVSPropertyOp25
 70
     1
102
RTVSPropertyOp26
 70
     1
102
RTVSPropertyOp27
 70
     1
102
RTVSPropertyOp28
 70
     1
102
RTVSPropertyOp29
 70
     1
102
RTVSPropertyOp30
 70
     1
102
RTVSPropertyOp31
 70
     1
102
RTVSPropertyOp32
 70
     1
  0
XRECORD
  5
9D
102
{ACAD_REACTORS
330
9C
102
}
330
9C
100
AcDbXrecord
280
     1
102
RTVSPropertyOp0
 70
     1
102
RTVSPropertyOp1
 70
     1
102
RTVSPropertyOp2
 70
     1
102
RTVSPropertyOp3
 70
     1
102
RTVSPropertyOp4
 70
     1
102
RTVSPropertyOp5
 70
     1
102
RTVSPropertyOp6
 70
     1
102
RTVSPropertyOp7
 70
     1
102
RTVSPropertyOp8
 70
     1
102
RTVSPropertyOp9
 70
     1
102
RTVSPropertyOp10
 70
     1
102
RTVSPropertyOp11
 70
     1
102
RTVSPropertyOp12
 70
     1
102
RTVSPropertyOp13
 70
     1
102
RTVSPropertyOp14
 70
     1
102
RTVSPropertyOp15
 70
     1
102
RTVSPropertyOp16
 70
     1
102
RTVSPropertyOp17
 70
     1
102
RTVSPropertyOp18
 70
     1
102
RTVSPropertyOp19
 70
     1
102
RTVSPropertyOp20
 70
     1
102
RTVSPropertyOp21
 70
     1
102
RTVSPropertyOp22
 70
     1
102
RTVSPropertyOp23
 70
     1
102
RTVSPropertyOp24
 70
     1
102
RTVSPropertyOp25
 70
     1
102
RTVSPropertyOp26
 70
     1
102
RTVSPropertyOp27
 70
     1
102
RTVSPropertyOp28
 70
     1
102
RTVSPropertyOp29
 70
     1
102
RTVSPropertyOp30
 70
     1
102
RTVSPropertyOp31
 70
     1
102
RTVSPropertyOp32
 70
     1
  0
XRECORD
  5
9B
102
{ACAD_REACTORS
330
9A
102
}
330
9A
100
AcDbXrecord
280
     1
102
RTVSPropertyOp0
 70
     1
102
RTVSPropertyOp1
 70
     1
102
RTVSPropertyOp2
 70
     1
102
RTVSPropertyOp3
 70
     1
102
RTVSPropertyOp4
 70
     1
102
RTVSPropertyOp5
 70
     1
102
RTVSPropertyOp6
 70
     1
102
RTVSPropertyOp7
 70
     1
102
RTVSPropertyOp8
 70
     1
102
RTVSPropertyOp9
 70
     1
102
RTVSPropertyOp10
 70
     1
102
RTVSPropertyOp11
 70
     1
102
RTVSPropertyOp12
 70
     1
102
RTVSPropertyOp13
 70
     1
102
RTVSPropertyOp14
 70
     1
102
RTVSPropertyOp15
 70
     1
102
RTVSPropertyOp16
 70
     1
102
RTVSPropertyOp17
 70
     1
102
RTVSPropertyOp18
 70
     1
102
RTVSPropertyOp19
 70
     1
102
RTVSPropertyOp20
 70
     1
102
RTVSPropertyOp21
 70
     1
102
RTVSPropertyOp22
 70
     1
102
RTVSPropertyOp23
 70
     1
102
RTVSPropertyOp24
 70
     1
102
RTVSPropertyOp25
 70
     1
102
RTVSPropertyOp26
 70
     1
102
RTVSPropertyOp27
 70
     1
102
RTVSPropertyOp28
 70
     1
102
RTVSPropertyOp29
 70
     1
102
RTVSPropertyOp30
 70
     1
102
RTVSPropertyOp31
 70
     1
102
RTVSPropertyOp32
 70
     1
  0
XRECORD
  5
9F
102
{ACAD_REACTORS
330
9E
102
}
330
9E
100
AcDbXrecord
280
     1
102
RTVSPropertyOp0
 70
     1
102
RTVSPropertyOp1
 70
     1
102
RTVSPropertyOp2
 70
     1
102
RTVSPropertyOp3
 70
     1
102
RTVSPropertyOp4
 70
     1
102
RTVSPropertyOp5
 70
     1
102
RTVSPropertyOp6
 70
     1
102
RTVSPropertyOp7
 70
     1
102
RTVSPropertyOp8
 70
     1
102
RTVSPropertyOp9
 70
     1
102
RTVSPropertyOp10
 70
     1
102
RTVSPropertyOp11
 70
     1
102
RTVSPropertyOp12
 70
     1
102
RTVSPropertyOp13
 70
     1
102
RTVSPropertyOp14
 70
     1
102
RTVSPropertyOp15
 70
     1
102
RTVSPropertyOp16
 70
     1
102
RTVSPropertyOp17
 70
     1
102
RTVSPropertyOp18
 70
     1
102
RTVSPropertyOp19
 70
     1
102
RTVSPropertyOp20
 70
     1
102
RTVSPropertyOp21
 70
     1
102
RTVSPropertyOp22
 70
     1
102
RTVSPropertyOp23
 70
     1
102
RTVSPropertyOp24
 70
     1
102
RTVSPropertyOp25
 70
     1
102
RTVSPropertyOp26
 70
     1
102
RTVSPropertyOp27
 70
     1
102
RTVSPropertyOp28
 70
     1
102
RTVSPropertyOp29
 70
     1
102
RTVSPropertyOp30
 70
     1
102
RTVSPropertyOp31
 70
     1
102
RTVSPropertyOp32
 70
     1
  0
XRECORD
  5
A7
102
{ACAD_REACTORS
330
A6
102
}
330
A6
100
AcDbXrecord
280
     1
102
RTVSPropertyOp0
 70
     1
102
RTVSPropertyOp1
 70
     1
102
RTVSPropertyOp2
 70
     1
102
RTVSPropertyOp3
 70
     1
102
RTVSPropertyOp4
 70
     1
102
RTVSPropertyOp5
 70
     1
102
RTVSPropertyOp6
 70
     1
102
RTVSPropertyOp7
 70
     1
102
RTVSPropertyOp8
 70
     1
102
RTVSPropertyOp9
 70
     1
102
RTVSPropertyOp10
 70
     1
102
RTVSPropertyOp11
 70
     1
102
RTVSPropertyOp12
 70
     1
102
RTVSPropertyOp13
 70
     1
102
RTVSPropertyOp14
 70
     1
102
RTVSPropertyOp15
 70
     1
102
RTVSPropertyOp16
 70
     1
102
RTVSPropertyOp17
 70
     1
102
RTVSPropertyOp18
 70
     1
102
RTVSPropertyOp19
 70
     1
102
RTVSPropertyOp20
 70
     1
102
RTVSPropertyOp21
 70
     1
102
RTVSPropertyOp22
 70
     1
102
RTVSPropertyOp23
 70
     1
102
RTVSPropertyOp24
 70
     1
102
RTVSPropertyOp25
 70
     1
102
RTVSPropertyOp26
 70
     1
102
RTVSPropertyOp27
 70
     1
102
RTVSPropertyOp28
 70
     1
102
RTVSPropertyOp29
 70
     1
102
RTVSPropertyOp30
 70
     1
102
RTVSPropertyOp31
 70
     1
102
RTVSPropertyOp32
 70
     1
  0
XRECORD
  5
AF
102
{ACAD_REACTORS
330
AE
102
}
330
AE
100
AcDbXrecord
280
     1
102
RTVSPropertyOp0
 70
     1
102
RTVSPropertyOp1
 70
     1
102
RTVSPropertyOp2
 70
     1
102
RTVSPropertyOp3
 70
     1
102
RTVSPropertyOp4
 70
     1
102
RTVSPropertyOp5
 70
     1
102
RTVSPropertyOp6
 70
     1
102
RTVSPropertyOp7
 70
     1
102
RTVSPropertyOp8
 70
     1
102
RTVSPropertyOp9
 70
     1
102
RTVSPropertyOp10
 70
     1
102
RTVSPropertyOp11
 70
     1
102
RTVSPropertyOp12
 70
     1
102
RTVSPropertyOp13
 70
     1
102
RTVSPropertyOp14
 70
     1
102
RTVSPropertyOp15
 70
     1
102
RTVSPropertyOp16
 70
     1
102
RTVSPropertyOp17
 70
     1
102
RTVSPropertyOp18
 70
     1
102
RTVSPropertyOp19
 70
     1
102
RTVSPropertyOp20
 70
     1
102
RTVSPropertyOp21
 70
     1
102
RTVSPropertyOp22
 70
     1
102
RTVSPropertyOp23
 70
     1
102
RTVSPropertyOp24
 70
     1
102
RTVSPropertyOp25
 70
     1
102
RTVSPropertyOp26
 70
     1
102
RTVSPropertyOp27
 70
     1
102
RTVSPropertyOp28
 70
     1
102
RTVSPropertyOp29
 70
     1
102
RTVSPropertyOp30
 70
     1
102
RTVSPropertyOp31
 70
     1
102
RTVSPropertyOp32
 70
     1
  0
XRECORD
  5
A3
102
{ACAD_REACTORS
330
A2
102
}
330
A2
100
AcDbXrecord
280
     1
102
RTVSPropertyOp0
 70
     1
102
RTVSPropertyOp1
 70
     1
102
RTVSPropertyOp2
 70
     1
102
RTVSPropertyOp3
 70
     1
102
RTVSPropertyOp4
 70
     1
102
RTVSPropertyOp5
 70
     1
102
RTVSPropertyOp6
 70
     1
102
RTVSPropertyOp7
 70
     1
102
RTVSPropertyOp8
 70
     1
102
RTVSPropertyOp9
 70
     1
102
RTVSPropertyOp10
 70
     1
102
RTVSPropertyOp11
 70
     1
102
RTVSPropertyOp12
 70
     1
102
RTVSPropertyOp13
 70
     1
102
RTVSPropertyOp14
 70
     1
102
RTVSPropertyOp15
 70
     1
102
RTVSPropertyOp16
 70
     1
102
RTVSPropertyOp17
 70
     1
102
RTVSPropertyOp18
 70
     1
102
RTVSPropertyOp19
 70
     1
102
RTVSPropertyOp20
 70
     1
102
RTVSPropertyOp21
 70
     1
102
RTVSPropertyOp22
 70
     1
102
RTVSPropertyOp23
 70
     1
102
RTVSPropertyOp24
 70
     1
102
RTVSPropertyOp25
 70
     1
102
RTVSPropertyOp26
 70
     1
102
RTVSPropertyOp27
 70
     1
102
RTVSPropertyOp28
 70
     1
102
RTVSPropertyOp29
 70
     1
102
RTVSPropertyOp30
 70
     1
102
RTVSPropertyOp31
 70
     1
102
RTVSPropertyOp32
 70
     1
  0
XRECORD
  5
A5
102
{ACAD_REACTORS
330
A4
102
}
330
A4
100
AcDbXrecord
280
     1
102
RTVSPropertyOp0
 70
     1
102
RTVSPropertyOp1
 70
     1
102
RTVSPropertyOp2
 70
     1
102
RTVSPropertyOp3
 70
     1
102
RTVSPropertyOp4
 70
     1
102
RTVSPropertyOp5
 70
     1
102
RTVSPropertyOp6
 70
     1
102
RTVSPropertyOp7
 70
     1
102
RTVSPropertyOp8
 70
     1
102
RTVSPropertyOp9
 70
     1
102
RTVSPropertyOp10
 70
     1
102
RTVSPropertyOp11
 70
     1
102
RTVSPropertyOp12
 70
     1
102
RTVSPropertyOp13
 70
     1
102
RTVSPropertyOp14
 70
     1
102
RTVSPropertyOp15
 70
     1
102
RTVSPropertyOp16
 70
     1
102
RTVSPropertyOp17
 70
     1
102
RTVSPropertyOp18
 70
     1
102
RTVSPropertyOp19
 70
     1
102
RTVSPropertyOp20
 70
     1
102
RTVSPropertyOp21
 70
     1
102
RTVSPropertyOp22
 70
     1
102
RTVSPropertyOp23
 70
     1
102
RTVSPropertyOp24
 70
     1
102
RTVSPropertyOp25
 70
     1
102
RTVSPropertyOp26
 70
     1
102
RTVSPropertyOp27
 70
     1
102
RTVSPropertyOp28
 70
     1
102
RTVSPropertyOp29
 70
     1
102
RTVSPropertyOp30
 70
     1
102
RTVSPropertyOp31
 70
     1
102
RTVSPropertyOp32
 70
     1
  0
XRECORD
  5
AD
102
{ACAD_REACTORS
330
AC
102
}
330
AC
100
AcDbXrecord
280
     1
102
RTVSPropertyOp0
 70
     1
102
RTVSPropertyOp1
 70
     1
102
RTVSPropertyOp2
 70
     1
102
RTVSPropertyOp3
 70
     1
102
RTVSPropertyOp4
 70
     1
102
RTVSPropertyOp5
 70
     1
102
RTVSPropertyOp6
 70
     1
102
RTVSPropertyOp7
 70
     1
102
RTVSPropertyOp8
 70
     1
102
RTVSPropertyOp9
 70
     1
102
RTVSPropertyOp10
 70
     1
102
RTVSPropertyOp11
 70
     1
102
RTVSPropertyOp12
 70
     1
102
RTVSPropertyOp13
 70
     1
102
RTVSPropertyOp14
 70
     1
102
RTVSPropertyOp15
 70
     1
102
RTVSPropertyOp16
 70
     1
102
RTVSPropertyOp17
 70
     1
102
RTVSPropertyOp18
 70
     1
102
RTVSPropertyOp19
 70
     1
102
RTVSPropertyOp20
 70
     1
102
RTVSPropertyOp21
 70
     1
102
RTVSPropertyOp22
 70
     1
102
RTVSPropertyOp23
 70
     1
102
RTVSPropertyOp24
 70
     1
102
RTVSPropertyOp25
 70
     1
102
RTVSPropertyOp26
 70
     1
102
RTVSPropertyOp27
 70
     1
102
RTVSPropertyOp28
 70
     1
102
RTVSPropertyOp29
 70
     1
102
RTVSPropertyOp30
 70
     1
102
RTVSPropertyOp31
 70
     1
102
RTVSPropertyOp32
 70
     1
  0
XRECORD
  5
91
102
{ACAD_REACTORS
330
90
102
}
330
90
100
AcDbXrecord
280
     1
102
RTVSPropertyOp0
 70
     1
102
RTVSPropertyOp1
 70
     1
102
RTVSPropertyOp2
 70
     1
102
RTVSPropertyOp3
 70
     1
102
RTVSPropertyOp4
 70
     1
102
RTVSPropertyOp5
 70
     1
102
RTVSPropertyOp6
 70
     1
102
RTVSPropertyOp7
 70
     1
102
RTVSPropertyOp8
 70
     1
102
RTVSPropertyOp9
 70
     1
102
RTVSPropertyOp10
 70
     1
102
RTVSPropertyOp11
 70
     1
102
RTVSPropertyOp12
 70
     1
102
RTVSPropertyOp13
 70
     1
102
RTVSPropertyOp14
 70
     1
102
RTVSPropertyOp15
 70
     1
102
RTVSPropertyOp16
 70
     1
102
RTVSPropertyOp17
 70
     1
102
RTVSPropertyOp18
 70
     1
102
RTVSPropertyOp19
 70
     1
102
RTVSPropertyOp20
 70
     1
102
RTVSPropertyOp21
 70
     1
102
RTVSPropertyOp22
 70
     1
102
RTVSPropertyOp23
 70
     1
102
RTVSPropertyOp24
 70
     1
102
RTVSPropertyOp25
 70
     1
102
RTVSPropertyOp26
 70
     1
102
RTVSPropertyOp27
 70
     1
102
RTVSPropertyOp28
 70
     1
102
RTVSPropertyOp29
 70
     1
102
RTVSPropertyOp30
 70
     1
102
RTVSPropertyOp31
 70
     1
102
RTVSPropertyOp32
 70
     1
  0
XRECORD
  5
93
102
{ACAD_REACTORS
330
92
102
}
330
92
100
AcDbXrecord
280
     1
102
RTVSPropertyOp0
 70
     1
102
RTVSPropertyOp1
 70
     1
102
RTVSPropertyOp2
 70
     1
102
RTVSPropertyOp3
 70
     1
102
RTVSPropertyOp4
 70
     1
102
RTVSPropertyOp5
 70
     1
102
RTVSPropertyOp6
 70
     1
102
RTVSPropertyOp7
 70
     1
102
RTVSPropertyOp8
 70
     1
102
RTVSPropertyOp9
 70
     1
102
RTVSPropertyOp10
 70
     1
102
RTVSPropertyOp11
 70
     1
102
RTVSPropertyOp12
 70
     1
102
RTVSPropertyOp13
 70
     1
102
RTVSPropertyOp14
 70
     1
102
RTVSPropertyOp15
 70
     1
102
RTVSPropertyOp16
 70
     1
102
RTVSPropertyOp17
 70
     1
102
RTVSPropertyOp18
 70
     1
102
RTVSPropertyOp19
 70
     1
102
RTVSPropertyOp20
 70
     1
102
RTVSPropertyOp21
 70
     1
102
RTVSPropertyOp22
 70
     1
102
RTVSPropertyOp23
 70
     1
102
RTVSPropertyOp24
 70
     1
102
RTVSPropertyOp25
 70
     1
102
RTVSPropertyOp26
 70
     1
102
RTVSPropertyOp27
 70
     1
102
RTVSPropertyOp28
 70
     1
102
RTVSPropertyOp29
 70
     1
102
RTVSPropertyOp30
 70
     1
102
RTVSPropertyOp31
 70
     1
102
RTVSPropertyOp32
 70
     1
  0
XRECORD
  5
95
102
{ACAD_REACTORS
330
94
102
}
330
94
100
AcDbXrecord
280
     1
102
RTVSPropertyOp0
 70
     1
102
RTVSPropertyOp1
 70
     1
102
RTVSPropertyOp2
 70
     1
102
RTVSPropertyOp3
 70
     1
102
RTVSPropertyOp4
 70
     1
102
RTVSPropertyOp5
 70
     1
102
RTVSPropertyOp6
 70
     1
102
RTVSPropertyOp7
 70
     1
102
RTVSPropertyOp8
 70
     1
102
RTVSPropertyOp9
 70
     1
102
RTVSPropertyOp10
 70
     1
102
RTVSPropertyOp11
 70
     1
102
RTVSPropertyOp12
 70
     1
102
RTVSPropertyOp13
 70
     1
102
RTVSPropertyOp14
 70
     1
102
RTVSPropertyOp15
 70
     1
102
RTVSPropertyOp16
 70
     1
102
RTVSPropertyOp17
 70
     1
102
RTVSPropertyOp18
 70
     1
102
RTVSPropertyOp19
 70
     1
102
RTVSPropertyOp20
 70
     1
102
RTVSPropertyOp21
 70
     1
102
RTVSPropertyOp22
 70
     1
102
RTVSPropertyOp23
 70
     1
102
RTVSPropertyOp24
 70
     1
102
RTVSPropertyOp25
 70
     1
102
RTVSPropertyOp26
 70
     1
102
RTVSPropertyOp27
 70
     1
102
RTVSPropertyOp28
 70
     1
102
RTVSPropertyOp29
 70
     1
102
RTVSPropertyOp30
 70
     1
102
RTVSPropertyOp31
 70
     1
102
RTVSPropertyOp32
 70
     1
  0
XRECORD
  5
97
102
{ACAD_REACTORS
330
96
102
}
330
96
100
AcDbXrecord
280
     1
102
RTVSPropertyOp0
 70
     1
102
RTVSPropertyOp1
 70
     1
102
RTVSPropertyOp2
 70
     1
102
RTVSPropertyOp3
 70
     1
102
RTVSPropertyOp4
 70
     1
102
RTVSPropertyOp5
 70
     1
102
RTVSPropertyOp6
 70
     1
102
RTVSPropertyOp7
 70
     1
102
RTVSPropertyOp8
 70
     1
102
RTVSPropertyOp9
 70
     1
102
RTVSPropertyOp10
 70
     1
102
RTVSPropertyOp11
 70
     1
102
RTVSPropertyOp12
 70
     1
102
RTVSPropertyOp13
 70
     1
102
RTVSPropertyOp14
 70
     1
102
RTVSPropertyOp15
 70
     1
102
RTVSPropertyOp16
 70
     1
102
RTVSPropertyOp17
 70
     1
102
RTVSPropertyOp18
 70
     1
102
RTVSPropertyOp19
 70
     1
102
RTVSPropertyOp20
 70
     1
102
RTVSPropertyOp21
 70
     1
102
RTVSPropertyOp22
 70
     1
102
RTVSPropertyOp23
 70
     1
102
RTVSPropertyOp24
 70
     1
102
RTVSPropertyOp25
 70
     1
102
RTVSPropertyOp26
 70
     1
102
RTVSPropertyOp27
 70
     1
102
RTVSPropertyOp28
 70
     1
102
RTVSPropertyOp29
 70
     1
102
RTVSPropertyOp30
 70
     1
102
RTVSPropertyOp31
 70
     1
102
RTVSPropertyOp32
 70
     1
  0
XRECORD
  5
AB
102
{ACAD_REACTORS
330
AA
102
}
330
AA
100
AcDbXrecord
280
     1
102
RTVSPropertyOp0
 70
     1
102
RTVSPropertyOp1
 70
     1
102
RTVSPropertyOp2
 70
     1
102
RTVSPropertyOp3
 70
     1
102
RTVSPropertyOp4
 70
     1
102
RTVSPropertyOp5
 70
     1
102
RTVSPropertyOp6
 70
     1
102
RTVSPropertyOp7
 70
     1
102
RTVSPropertyOp8
 70
     1
102
RTVSPropertyOp9
 70
     1
102
RTVSPropertyOp10
 70
     1
102
RTVSPropertyOp11
 70
     1
102
RTVSPropertyOp12
 70
     1
102
RTVSPropertyOp13
 70
     1
102
RTVSPropertyOp14
 70
     1
102
RTVSPropertyOp15
 70
     1
102
RTVSPropertyOp16
 70
     1
102
RTVSPropertyOp17
 70
     1
102
RTVSPropertyOp18
 70
     1
102
RTVSPropertyOp19
 70
     1
102
RTVSPropertyOp20
 70
     1
102
RTVSPropertyOp21
 70
     1
102
RTVSPropertyOp22
 70
     1
102
RTVSPropertyOp23
 70
     1
102
RTVSPropertyOp24
 70
     1
102
RTVSPropertyOp25
 70
     1
102
RTVSPropertyOp26
 70
     1
102
RTVSPropertyOp27
 70
     1
102
RTVSPropertyOp28
 70
     1
102
RTVSPropertyOp29
 70
     1
102
RTVSPropertyOp30
 70
     1
102
RTVSPropertyOp31
 70
     1
102
RTVSPropertyOp32
 70
     1
  0
XRECORD
  5
A1
102
{ACAD_REACTORS
330
A0
102
}
330
A0
100
AcDbXrecord
280
     1
102
RTVSPropertyOp0
 70
     1
102
RTVSPropertyOp1
 70
     1
102
RTVSPropertyOp2
 70
     1
102
RTVSPropertyOp3
 70
     1
102
RTVSPropertyOp4
 70
     1
102
RTVSPropertyOp5
 70
     1
102
RTVSPropertyOp6
 70
     1
102
RTVSPropertyOp7
 70
     1
102
RTVSPropertyOp8
 70
     1
102
RTVSPropertyOp9
 70
     1
102
RTVSPropertyOp10
 70
     1
102
RTVSPropertyOp11
 70
     1
102
RTVSPropertyOp12
 70
     1
102
RTVSPropertyOp13
 70
     1
102
RTVSPropertyOp14
 70
     1
102
RTVSPropertyOp15
 70
     1
102
RTVSPropertyOp16
 70
     1
102
RTVSPropertyOp17
 70
     1
102
RTVSPropertyOp18
 70
     1
102
RTVSPropertyOp19
 70
     1
102
RTVSPropertyOp20
 70
     1
102
RTVSPropertyOp21
 70
     1
102
RTVSPropertyOp22
 70
     1
102
RTVSPropertyOp23
 70
     1
102
RTVSPropertyOp24
 70
     1
102
RTVSPropertyOp25
 70
     1
102
RTVSPropertyOp26
 70
     1
102
RTVSPropertyOp27
 70
     1
102
RTVSPropertyOp28
 70
     1
102
RTVSPropertyOp29
 70
     1
102
RTVSPropertyOp30
 70
     1
102
RTVSPropertyOp31
 70
     1
102
RTVSPropertyOp32
 70
     1
  0
XRECORD
  5
A9
102
{ACAD_REACTORS
330
A8
102
}
330
A8
100
AcDbXrecord
280
     1
102
RTVSPropertyOp0
 70
     1
102
RTVSPropertyOp1
 70
     1
102
RTVSPropertyOp2
 70
     1
102
RTVSPropertyOp3
 70
     1
102
RTVSPropertyOp4
 70
     1
102
RTVSPropertyOp5
 70
     1
102
RTVSPropertyOp6
 70
     1
102
RTVSPropertyOp7
 70
     1
102
RTVSPropertyOp8
 70
     1
102
RTVSPropertyOp9
 70
     1
102
RTVSPropertyOp10
 70
     1
102
RTVSPropertyOp11
 70
     1
102
RTVSPropertyOp12
 70
     1
102
RTVSPropertyOp13
 70
     1
102
RTVSPropertyOp14
 70
     1
102
RTVSPropertyOp15
 70
     1
102
RTVSPropertyOp16
 70
     1
102
RTVSPropertyOp17
 70
     1
102
RTVSPropertyOp18
 70
     1
102
RTVSPropertyOp19
 70
     1
102
RTVSPropertyOp20
 70
     1
102
RTVSPropertyOp21
 70
     1
102
RTVSPropertyOp22
 70
     1
102
RTVSPropertyOp23
 70
     1
102
RTVSPropertyOp24
 70
     1
102
RTVSPropertyOp25
 70
     1
102
RTVSPropertyOp26
 70
     1
102
RTVSPropertyOp27
 70
     1
102
RTVSPropertyOp28
 70
     1
102
RTVSPropertyOp29
 70
     1
102
RTVSPropertyOp30
 70
     1
102
RTVSPropertyOp31
 70
     1
102
RTVSPropertyOp32
 70
     1
  0
ENDSEC
  0
EOF
