  0
SECTION
  2
HEADER
  9
$ACADVER
  1
AC1021
  9
$ACADMAINTVER
 70
    25
  9
$DWGCODEPAGE
  3
ANSI_1256
  9
$INSBASE
 10
0.0
 20
0.0
 30
0.0
  9
$EXTMIN
 10
-57.2751
 20
-115.0085
 30
0.0
  9
$EXTMAX
 10
66.2067
 20
131.9553
 30
0.0
  9
$LIMMIN
 10
0.0
 20
0.0
  9
$LIMMAX
 10
12.0
 20
9.0
  9
$ORTHOMODE
 70
     0
  9
$REGENMODE
 70
     1
  9
$FILLMODE
 70
     1
  9
$QTEXTMODE
 70
     0
  9
$MIRRTEXT
 70
     1
  9
$LTSCALE
 40
1.0
  9
$ATTMODE
 70
     1
  9
$TEXTSIZE
 40
0.2
  9
$TRACEWID
 40
0.05
  9
$TEXTSTYLE
  7
Standard
  9
$CLAYER
  8
0
  9
$CELTYPE
  6
ByLayer
  9
$CECOLOR
 62
   256
  9
$CELTSCALE
 40
1.0
  9
$DISPSILH
 70
     0
  9
$DIMSCALE
 40
1.0
  9
$DIMASZ
 40
0.18
  9
$DIMEXO
 40
0.0625
  9
$DIMDLI
 40
0.38
  9
$DIMRND
 40
0.0
  9
$DIMDLE
 40
0.0
  9
$DIMEXE
 40
0.18
  9
$DIMTP
 40
0.0
  9
$DIMTM
 40
0.0
  9
$DIMTXT
 40
0.18
  9
$DIMCEN
 40
0.09
  9
$DIMTSZ
 40
0.0
  9
$DIMTOL
 70
     0
  9
$DIMLIM
 70
     0
  9
$DIMTIH
 70
     1
  9
$DIMTOH
 70
     1
  9
$DIMSE1
 70
     0
  9
$DIMSE2
 70
     0
  9
$DIMTAD
 70
     0
  9
$DIMZIN
 70
     0
  9
$DIMBLK
  1

  9
$DIMASO
 70
     1
  9
$DIMSHO
 70
     1
  9
$DIMPOST
  1

  9
$DIMAPOST
  1

  9
$DIMALT
 70
     0
  9
$DIMALTD
 70
     2
  9
$DIMALTF
 40
25.4
  9
$DIMLFAC
 40
1.0
  9
$DIMTOFL
 70
     0
  9
$DIMTVP
 40
0.0
  9
$DIMTIX
 70
     0
  9
$DIMSOXD
 70
     0
  9
$DIMSAH
 70
     0
  9
$DIMBLK1
  1

  9
$DIMBLK2
  1

  9
$DIMSTYLE
  2
Standard
  9
$DIMCLRD
 70
     0
  9
$DIMCLRE
 70
     0
  9
$DIMCLRT
 70
     0
  9
$DIMTFAC
 40
1.0
  9
$DIMGAP
 40
0.09
  9
$DIMJUST
 70
     0
  9
$DIMSD1
 70
     0
  9
$DIMSD2
 70
     0
  9
$DIMTOLJ
 70
     1
  9
$DIMTZIN
 70
     0
  9
$DIMALTZ
 70
     0
  9
$DIMALTTZ
 70
     0
  9
$DIMUPT
 70
     0
  9
$DIMDEC
 70
     4
  9
$DIMTDEC
 70
     4
  9
$DIMALTU
 70
     2
  9
$DIMALTTD
 70
     2
  9
$DIMTXSTY
  7
Standard
  9
$DIMAUNIT
 70
     0
  9
$DIMADEC
 70
     0
  9
$DIMALTRND
 40
0.0
  9
$DIMAZIN
 70
     0
  9
$DIMDSEP
 70
    46
  9
$DIMATFIT
 70
     3
  9
$DIMFRAC
 70
     0
  9
$DIMLDRBLK
  1

  9
$DIMLUNIT
 70
     2
  9
$DIMLWD
 70
    -2
  9
$DIMLWE
 70
    -2
  9
$DIMTMOVE
 70
     0
  9
$DIMFXL
 40
1.0
  9
$DIMFXLON
 70
     0
  9
$DIMJOGANG
 40
0.7853981633974483
  9
$DIMTFILL
 70
     0
  9
$DIMTFILLCLR
 70
     0
  9
$DIMARCSYM
 70
     0
  9
$DIMLTYPE
  6

  9
$DIMLTEX1
  6

  9
$DIMLTEX2
  6

  9
$LUNITS
 70
     2
  9
$LUPREC
 70
     4
  9
$SKETCHINC
 40
0.1
  9
$FILLETRAD
 40
0.5
  9
$AUNITS
 70
     0
  9
$AUPREC
 70
     0
  9
$MENU
  1
.
  9
$ELEVATION
 40
0.0
  9
$PELEVATION
 40
0.0
  9
$THICKNESS
 40
0.0
  9
$LIMCHECK
 70
     0
  9
$CHAMFERA
 40
0.5
  9
$CHAMFERB
 40
0.5
  9
$CHAMFERC
 40
1.0
  9
$CHAMFERD
 40
0.0
  9
$SKPOLY
 70
     0
  9
$TDCREATE
 40
2458479.291367894
  9
$TDUCREATE
 40
2458479.124701227
  9
$TDUPDATE
 40
2458479.291367998
  9
$TDUUPDATE
 40
2458479.124701331
  9
$TDINDWG
 40
0.0000000116
  9
$TDUSRTIMER
 40
0.0000000116
  9
$USRTIMER
 70
     1
  9
$ANGBASE
 50
0.0
  9
$ANGDIR
 70
     0
  9
$PDMODE
 70
     0
  9
$PDSIZE
 40
0.0
  9
$PLINEWID
 40
0.0
  9
$SPLFRAME
 70
     0
  9
$SPLINETYPE
 70
     6
  9
$SPLINESEGS
 70
     8
  9
$HANDSEED
  5
DF
  9
$SURFTAB1
 70
     6
  9
$SURFTAB2
 70
     6
  9
$SURFTYPE
 70
     6
  9
$SURFU
 70
     6
  9
$SURFV
 70
     6
  9
$UCSBASE
  2

  9
$UCSNAME
  2

  9
$UCSORG
 10
0.0
 20
0.0
 30
0.0
  9
$UCSXDIR
 10
1.0
 20
0.0
 30
0.0
  9
$UCSYDIR
 10
0.0
 20
1.0
 30
0.0
  9
$UCSORTHOREF
  2

  9
$UCSORTHOVIEW
 70
     0
  9
$UCSORGTOP
 10
0.0
 20
0.0
 30
0.0
  9
$UCSORGBOTTOM
 10
0.0
 20
0.0
 30
0.0
  9
$UCSORGLEFT
 10
0.0
 20
0.0
 30
0.0
  9
$UCSORGRIGHT
 10
0.0
 20
0.0
 30
0.0
  9
$UCSORGFRONT
 10
0.0
 20
0.0
 30
0.0
  9
$UCSORGBACK
 10
0.0
 20
0.0
 30
0.0
  9
$PUCSBASE
  2

  9
$PUCSNAME
  2

  9
$PUCSORG
 10
0.0
 20
0.0
 30
0.0
  9
$PUCSXDIR
 10
1.0
 20
0.0
 30
0.0
  9
$PUCSYDIR
 10
0.0
 20
1.0
 30
0.0
  9
$PUCSORTHOREF
  2

  9
$PUCSORTHOVIEW
 70
     0
  9
$PUCSORGTOP
 10
0.0
 20
0.0
 30
0.0
  9
$PUCSORGBOTTOM
 10
0.0
 20
0.0
 30
0.0
  9
$PUCSORGLEFT
 10
0.0
 20
0.0
 30
0.0
  9
$PUCSORGRIGHT
 10
0.0
 20
0.0
 30
0.0
  9
$PUCSORGFRONT
 10
0.0
 20
0.0
 30
0.0
  9
$PUCSORGBACK
 10
0.0
 20
0.0
 30
0.0
  9
$USERI1
 70
     0
  9
$USERI2
 70
     0
  9
$USERI3
 70
     0
  9
$USERI4
 70
     0
  9
$USERI5
 70
     0
  9
$USERR1
 40
0.0
  9
$USERR2
 40
0.0
  9
$USERR3
 40
0.0
  9
$USERR4
 40
0.0
  9
$USERR5
 40
0.0
  9
$WORLDVIEW
 70
     1
  9
$SHADEDGE
 70
     3
  9
$SHADEDIF
 70
    70
  9
$TILEMODE
 70
     1
  9
$MAXACTVP
 70
    64
  9
$PINSBASE
 10
0.0
 20
0.0
 30
0.0
  9
$PLIMCHECK
 70
     0
  9
$PEXTMIN
 10
1.000000000000000E+20
 20
1.000000000000000E+20
 30
1.000000000000000E+20
  9
$PEXTMAX
 10
-1.000000000000000E+20
 20
-1.000000000000000E+20
 30
-1.000000000000000E+20
  9
$PLIMMIN
 10
0.0
 20
0.0
  9
$PLIMMAX
 10
12.0
 20
9.0
  9
$UNITMODE
 70
     0
  9
$VISRETAIN
 70
     1
  9
$PLINEGEN
 70
     0
  9
$PSLTSCALE
 70
     1
  9
$TREEDEPTH
 70
  3020
  9
$CMLSTYLE
  2
Standard
  9
$CMLJUST
 70
     0
  9
$CMLSCALE
 40
1.0
  9
$PROXYGRAPHICS
 70
     1
  9
$MEASUREMENT
 70
     0
  9
$CELWEIGHT
370
    -1
  9
$ENDCAPS
280
     0
  9
$JOINSTYLE
280
     0
  9
$LWDISPLAY
290
     0
  9
$INSUNITS
 70
     4
  9
$HYPERLINKBASE
  1

  9
$STYLESHEET
  1

  9
$XEDIT
290
     1
  9
$CEPSNTYPE
380
     0
  9
$PSTYLEMODE
290
     1
  9
$FINGERPRINTGUID
  2
{FA09DF31-D5D4-47A5-BF79-69370DD2B39F}
  9
$VERSIONGUID
  2
{FAEB1C32-E019-11D5-929B-00C0DF256EC4}
  9
$EXTNAMES
290
     1
  9
$PSVPSCALE
 40
0.0
  9
$OLESTARTUP
290
     0
  9
$SORTENTS
280
   127
  9
$INDEXCTL
280
     0
  9
$HIDETEXT
280
     1
  9
$XCLIPFRAME
290
     0
  9
$HALOGAP
280
     0
  9
$OBSCOLOR
 70
   257
  9
$OBSLTYPE
280
     0
  9
$INTERSECTIONDISPLAY
280
     0
  9
$INTERSECTIONCOLOR
 70
   257
  9
$DIMASSOC
280
     2
  9
$PROJECTNAME
  1

  9
$CAMERADISPLAY
290
     0
  9
$LENSLENGTH
 40
50.0
  9
$CAMERAHEIGHT
 40
0.0
  9
$STEPSPERSEC
 40
2.0
  9
$STEPSIZE
 40
6.0
  9
$3DDWFPREC
 40
2.0
  9
$PSOLWIDTH
 40
0.25
  9
$PSOLHEIGHT
 40
4.0
  9
$LOFTANG1
 40
1.570796326794897
  9
$LOFTANG2
 40
1.570796326794897
  9
$LOFTMAG1
 40
0.0
  9
$LOFTMAG2
 40
0.0
  9
$LOFTPARAM
 70
     7
  9
$LOFTNORMALS
280
     1
  9
$LATITUDE
 40
37.795
  9
$LONGITUDE
 40
-122.394
  9
$NORTHDIRECTION
 40
0.0
  9
$TIMEZONE
 70
 -8000
  9
$LIGHTGLYPHDISPLAY
280
     1
  9
$TILEMODELIGHTSYNCH
280
     1
  9
$SOLIDHIST
280
     1
  9
$SHOWHIST
280
     1
  9
$DWFFRAME
280
     2
  9
$DGNFRAME
280
     2
  9
$REALWORLDSCALE
290
     1
  9
$INTERFERECOLOR
 62
   256
  9
$CSHADOW
280
     0
  9
$SHADOWPLANELOCATION
 40
0.0
  0
ENDSEC
  0
SECTION
  2
CLASSES
  0
CLASS
  1
ACDBDICTIONARYWDFLT
  2
AcDbDictionaryWithDefault
  3
ObjectDBX Classes
 90
        0
 91
        4
280
     0
281
     0
  0
CLASS
  1
VISUALSTYLE
  2
AcDbVisualStyle
  3
ObjectDBX Classes
 90
     4095
 91
        4
280
     0
281
     0
  0
CLASS
  1
MATERIAL
  2
AcDbMaterial
  3
ObjectDBX Classes
 90
     1153
 91
        4
280
     0
281
     0
  0
ENDSEC
  0
SECTION
  2
TABLES
  0
TABLE
  2
VPORT
  5
8
330
0
100
AcDbSymbolTable
 70
     1
  0
VPORT
  5
29
330
8
100
AcDbSymbolTableRecord
100
AcDbViewportTableRecord
  2
*Active
 70
     0
 10
0.0
 20
0.0
 11
1.0
 21
1.0
 12
10.42990654205607
 22
4.5
 13
0.0
 23
0.0
 14
0.5
 24
0.5
 15
0.5
 25
0.5
 16
0.0
 26
0.0
 36
1.0
 17
0.0
 27
0.0
 37
0.0
 40
9.0
 41
1.972972972850329
 42
50.0
 43
0.0
 44
0.0
 50
0.0
 51
0.0
 71
     0
 72
   100
 73
     1
 74
     3
 75
     0
 76
     0
 77
     0
 78
     0
281
     0
 65
     1
110
0.0
120
0.0
130
0.0
111
1.0
121
0.0
131
0.0
112
0.0
122
1.0
132
0.0
 79
     0
146
0.0
 60
     3
 61
     5
292
     1
282
     1
141
0.0
142
0.0
 63
   250
  0
ENDTAB
  0
TABLE
  2
LTYPE
  5
5
330
0
100
AcDbSymbolTable
 70
     1
  0
LTYPE
  5
14
330
5
100
AcDbSymbolTableRecord
100
AcDbLinetypeTableRecord
  2
ByBlock
 70
     0
  3

 72
    65
 73
     0
 40
0.0
  0
LTYPE
  5
15
330
5
100
AcDbSymbolTableRecord
100
AcDbLinetypeTableRecord
  2
ByLayer
 70
     0
  3

 72
    65
 73
     0
 40
0.0
  0
LTYPE
  5
16
330
5
100
AcDbSymbolTableRecord
100
AcDbLinetypeTableRecord
  2
Continuous
 70
     0
  3
Solid line
 72
    65
 73
     0
 40
0.0
  0
ENDTAB
  0
TABLE
  2
LAYER
  5
2
330
0
100
AcDbSymbolTable
 70
     3
  0
LAYER
  5
10
330
2
100
AcDbSymbolTableRecord
100
AcDbLayerTableRecord
  2
0
 70
     0
 62
     7
  6
Continuous
370
    -3
390
F
347
3E
  0
LAYER
  5
40
330
2
100
AcDbSymbolTableRecord
100
AcDbLayerTableRecord
  2
layer 1
 70
     0
 62
     7
  6
Continuous
370
    -3
390
F
347
3E
  0
LAYER
  5
BC
330
2
100
AcDbSymbolTableRecord
100
AcDbLayerTableRecord
  2
Master Guides
 70
     0
 62
     7
  6
Continuous
370
    -3
390
F
347
3E
  0
ENDTAB
  0
TABLE
  2
STYLE
  5
3
330
0
100
AcDbSymbolTable
 70
     1
  0
STYLE
  5
11
330
3
100
AcDbSymbolTableRecord
100
AcDbTextStyleTableRecord
  2
Standard
 70
     0
 40
0.0
 41
1.0
 50
0.0
 71
     0
 42
0.2
  3
txt
  4

  0
ENDTAB
  0
TABLE
  2
VIEW
  5
6
330
0
100
AcDbSymbolTable
 70
     0
  0
ENDTAB
  0
TABLE
  2
UCS
  5
7
330
0
100
AcDbSymbolTable
 70
     0
  0
ENDTAB
  0
TABLE
  2
APPID
  5
9
330
0
100
AcDbSymbolTable
 70
     2
  0
APPID
  5
12
330
9
100
AcDbSymbolTableRecord
100
AcDbRegAppTableRecord
  2
ACAD
 70
     0
  0
APPID
  5
3F
330
9
100
AcDbSymbolTableRecord
100
AcDbRegAppTableRecord
  2
ODA
 70
     0
  0
ENDTAB
  0
TABLE
  2
DIMSTYLE
  5
A
330
0
100
AcDbSymbolTable
 70
     1
100
AcDbDimStyleTable
  0
DIMSTYLE
105
27
330
A
100
AcDbSymbolTableRecord
100
AcDbDimStyleTableRecord
  2
Standard
 70
     0
178
     0
340
11
  0
ENDTAB
  0
TABLE
  2
BLOCK_RECORD
  5
1
330
0
100
AcDbSymbolTable
 70
     1
  0
BLOCK_RECORD
  5
1F
330
1
100
AcDbSymbolTableRecord
100
AcDbBlockTableRecord
  2
*Model_Space
340
22
 70
     0
280
     1
281
     0
  0
BLOCK_RECORD
  5
1B
330
1
100
AcDbSymbolTableRecord
100
AcDbBlockTableRecord
  2
*Paper_Space
340
1E
 70
     0
280
     1
281
     0
  0
BLOCK_RECORD
  5
23
330
1
100
AcDbSymbolTableRecord
100
AcDbBlockTableRecord
  2
*Paper_Space0
340
26
 70
     0
280
     1
281
     0
  0
ENDTAB
  0
ENDSEC
  0
SECTION
  2
BLOCKS
  0
BLOCK
  5
20
330
1F
100
AcDbEntity
  8
0
100
AcDbBlockBegin
  2
*Model_Space
 70
     0
 10
0.0
 20
0.0
 30
0.0
  3
*Model_Space
  1

  0
ENDBLK
  5
21
330
1F
100
AcDbEntity
  8
0
100
AcDbBlockEnd
  0
BLOCK
  5
1C
330
1B
100
AcDbEntity
 67
     1
  8
0
100
AcDbBlockBegin
  2
*Paper_Space
 70
     0
 10
0.0
 20
0.0
 30
0.0
  3
*Paper_Space
  1

  0
ENDBLK
  5
1D
330
1B
100
AcDbEntity
 67
     1
  8
0
100
AcDbBlockEnd
  0
BLOCK
  5
24
330
23
100
AcDbEntity
  8
0
100
AcDbBlockBegin
  2
*Paper_Space0
 70
     0
 10
0.0
 20
0.0
 30
0.0
  3
*Paper_Space0
  1

  0
ENDBLK
  5
25
330
23
100
AcDbEntity
  8
0
100
AcDbBlockEnd
  0
ENDSEC
  0
SECTION
  2
ENTITIES
  0
SPLINE
  5
41
330
1F
100
AcDbEntity
  8
layer 1
 62
   250
100
AcDbSpline
210
0.0
220
0.0
230
1.0
 70
    11
 71
     3
 72
    20
 73
    16
 74
     0
 42
0.0000000001
 43
0.0000000001
 12
1.0
 22
0.0
 32
0.0
 13
1.0
 23
0.0
 33
0.0
 40
0.0
 40
0.0
 40
0.0
 40
0.0
 40
0.2
 40
0.2
 40
0.2
 40
0.2
 40
0.4
 40
0.4
 40
0.4
 40
0.4
 40
0.6
 40
0.6
 40
0.6
 40
0.6
 40
1.0
 40
1.0
 40
1.0
 40
1.0
 10
-57.2751
 20
131.9553
 30
0.0
 10
-57.2751
 20
131.9553
 30
0.0
 10
66.2067
 20
131.9553
 30
0.0
 10
66.2067
 20
131.9553
 30
0.0
 10
66.2067
 20
131.9553
 30
0.0
 10
66.2067
 20
131.9553
 30
0.0
 10
66.2067
 20
-115.0085
 30
0.0
 10
66.2067
 20
-115.0085
 30
0.0
 10
66.2067
 20
-115.0085
 30
0.0
 10
66.2067
 20
-115.0085
 30
0.0
 10
-57.2751
 20
-115.0085
 30
0.0
 10
-57.2751
 20
-115.0085
 30
0.0
 10
-57.2751
 20
-115.0085
 30
0.0
 10
-57.2751
 20
-115.0085
 30
0.0
 10
-57.2751
 20
131.9553
 30
0.0
 10
-57.2751
 20
131.9553
 30
0.0
  0
SPLINE
  5
42
330
1F
100
AcDbEntity
  8
layer 1
 62
   250
100
AcDbSpline
210
0.0
220
0.0
230
1.0
 70
    11
 71
     3
 72
    32
 73
    28
 74
     0
 42
0.0000000001
 43
0.0000000001
 12
1.0
 22
0.0
 32
0.0
 13
1.0
 23
0.0
 33
0.0
 40
0.0
 40
0.0
 40
0.0
 40
0.0
 40
0.125
 40
0.125
 40
0.125
 40
0.125
 40
0.25
 40
0.25
 40
0.25
 40
0.25
 40
0.375
 40
0.375
 40
0.375
 40
0.375
 40
0.5
 40
0.5
 40
0.5
 40
0.5
 40
0.625
 40
0.625
 40
0.625
 40
0.625
 40
0.75
 40
0.75
 40
0.75
 40
0.75
 40
1.0
 40
1.0
 40
1.0
 40
1.0
 10
59.3318
 20
122.5314
 30
0.0
 10
59.7973
 20
120.8491
 30
0.0
 10
59.7541
 20
118.9554
 30
0.0
 10
58.9097
 20
117.4067
 30
0.0
 10
58.9097
 20
117.4067
 30
0.0
 10
57.0155
 20
113.8363
 30
0.0
 10
53.5736
 20
111.5302
 30
0.0
 10
50.0827
 20
109.8535
 30
0.0
 10
50.0827
 20
109.8535
 30
0.0
 10
47.7284
 20
108.9178
 30
0.0
 10
44.611
 20
109.6251
 30
0.0
 10
43.2851
 20
111.9703
 30
0.0
 10
43.2851
 20
111.9703
 30
0.0
 10
41.5803
 20
114.7054
 30
0.0
 10
41.6292
 20
118.1698
 30
0.0
 10
42.2784
 20
121.2391
 30
0.0
 10
42.2784
 20
121.2391
 30
0.0
 10
42.8413
 20
123.8127
 30
0.0
 10
45.4173
 20
125.3275
 30
0.0
 10
47.7934
 20
125.6787
 30
0.0
 10
47.7934
 20
125.6787
 30
0.0
 10
50.8836
 20
125.857
 30
0.0
 10
54.0388
 20
125.7568
 30
0.0
 10
57.0481
 20
124.9265
 30
0.0
 10
57.0481
 20
124.9265
 30
0.0
 10
58.1844
 20
124.6538
 30
0.0
 10
59.0722
 20
123.701
 30
0.0
 10
59.3318
 20
122.5314
 30
0.0
  0
SPLINE
  5
43
330
1F
100
AcDbEntity
  8
layer 1
 62
   250
100
AcDbSpline
210
0.0
220
0.0
230
1.0
 70
    11
 71
     3
 72
    20
 73
    16
 74
     0
 42
0.0000000001
 43
0.0000000001
 12
1.0
 22
0.0
 32
0.0
 13
1.0
 23
0.0
 33
0.0
 40
0.0
 40
0.0
 40
0.0
 40
0.0
 40
0.2
 40
0.2
 40
0.2
 40
0.2
 40
0.4
 40
0.4
 40
0.4
 40
0.4
 40
0.6
 40
0.6
 40
0.6
 40
0.6
 40
1.0
 40
1.0
 40
1.0
 40
1.0
 10
59.5755
 20
106.9683
 30
0.0
 10
60.3764
 20
104.7288
 30
0.0
 10
59.4997
 20
101.4869
 30
0.0
 10
56.956
 20
101.008
 30
0.0
 10
56.956
 20
101.008
 30
0.0
 10
54.5639
 20
100.7796
 30
0.0
 10
52.1177
 20
102.9017
 30
0.0
 10
52.1933
 20
105.4529
 30
0.0
 10
52.1933
 20
105.4529
 30
0.0
 10
52.1229
 20
107.1298
 30
0.0
 10
52.3666
 20
109.5416
 30
0.0
 10
54.3095
 20
109.9817
 30
0.0
 10
54.3095
 20
109.9817
 30
0.0
 10
56.5502
 20
110.7559
 30
0.0
 10
58.9692
 20
109.2685
 30
0.0
 10
59.5755
 20
106.9683
 30
0.0
  0
SPLINE
  5
44
330
1F
100
AcDbEntity
  8
layer 1
 62
   250
100
AcDbSpline
210
0.0
220
0.0
230
1.0
 70
    11
 71
     3
 72
    28
 73
    24
 74
     0
 42
0.0000000001
 43
0.0000000001
 12
1.0
 22
0.0
 32
0.0
 13
1.0
 23
0.0
 33
0.0
 40
0.0
 40
0.0
 40
0.0
 40
0.0
 40
0.1428571428571428
 40
0.1428571428571428
 40
0.1428571428571428
 40
0.1428571428571428
 40
0.2857142857142857
 40
0.2857142857142857
 40
0.2857142857142857
 40
0.2857142857142857
 40
0.4285714285714285
 40
0.4285714285714285
 40
0.4285714285714285
 40
0.4285714285714285
 40
0.5714285714285714
 40
0.5714285714285714
 40
0.5714285714285714
 40
0.5714285714285714
 40
0.7142857142857143
 40
0.7142857142857143
 40
0.7142857142857143
 40
0.7142857142857143
 40
1.0
 40
1.0
 40
1.0
 40
1.0
 10
59.3589
 20
91.3379
 30
0.0
 10
59.7595
 20
88.6643
 30
0.0
 10
60.1058
 20
85.9403
 30
0.0
 10
59.9435
 20
83.2276
 30
0.0
 10
59.9435
 20
83.2276
 30
0.0
 10
59.6024
 20
80.7098
 30
0.0
 10
57.0804
 20
79.3174
 30
0.0
 10
54.8563
 20
78.944
 30
0.0
 10
54.8563
 20
78.944
 30
0.0
 10
52.2044
 20
78.5654
 30
0.0
 10
49.168
 20
78.7492
 30
0.0
 10
47.0843
 20
80.6876
 30
0.0
 10
47.0843
 20
80.6876
 30
0.0
 10
44.8059
 20
82.8824
 30
0.0
 10
44.2811
 20
86.3248
 30
0.0
 10
44.5895
 20
89.3884
 30
0.0
 10
44.5895
 20
89.3884
 30
0.0
 10
44.73
 20
92.3463
 30
0.0
 10
45.2768
 20
95.8722
 30
0.0
 10
47.842
 20
97.6602
 30
0.0
 10
47.842
 20
97.6602
 30
0.0
 10
52.4368
 20
99.894
 30
0.0
 10
58.7583
 20
96.6743
 30
0.0
 10
59.3589
 20
91.3379
 30
0.0
  0
SPLINE
  5
45
330
1F
100
AcDbEntity
  8
layer 1
 62
   250
100
AcDbSpline
210
0.0
220
0.0
230
1.0
 70
    11
 71
     3
 72
    32
 73
    28
 74
     0
 42
0.0000000001
 43
0.0000000001
 12
1.0
 22
0.0
 32
0.0
 13
1.0
 23
0.0
 33
0.0
 40
0.0
 40
0.0
 40
0.0
 40
0.0
 40
0.125
 40
0.125
 40
0.125
 40
0.125
 40
0.25
 40
0.25
 40
0.25
 40
0.25
 40
0.375
 40
0.375
 40
0.375
 40
0.375
 40
0.5
 40
0.5
 40
0.5
 40
0.5
 40
0.625
 40
0.625
 40
0.625
 40
0.625
 40
0.75
 40
0.75
 40
0.75
 40
0.75
 40
1.0
 40
1.0
 40
1.0
 40
1.0
 10
59.6513
 20
72.4938
 30
0.0
 10
60.1979
 20
70.5497
 30
0.0
 10
60.1601
 20
68.355
 30
0.0
 10
59.2616
 20
66.5225
 30
0.0
 10
59.2616
 20
66.5225
 30
0.0
 10
58.4713
 20
64.8681
 30
0.0
 10
56.6204
 20
63.9212
 30
0.0
 10
54.8563
 20
64.105
 30
0.0
 10
54.8563
 20
64.105
 30
0.0
 10
50.77
 20
64.2776
 30
0.0
 10
46.3484
 20
65.5144
 30
0.0
 10
43.6261
 20
68.8563
 30
0.0
 10
43.6261
 20
68.8563
 30
0.0
 10
42.2893
 20
70.3492
 30
0.0
 10
42.3597
 20
72.7166
 30
0.0
 10
43.5234
 20
74.2875
 30
0.0
 10
43.5234
 20
74.2875
 30
0.0
 10
45.0439
 20
76.2983
 30
0.0
 10
47.5607
 20
77.3121
 30
0.0
 10
49.996
 20
77.2953
 30
0.0
 10
49.996
 20
77.2953
 30
0.0
 10
52.3936
 20
77.2785
 30
0.0
 10
54.8669
 20
77.117
 30
0.0
 10
57.0913
 20
76.1311
 30
0.0
 10
57.0913
 20
76.1311
 30
0.0
 10
58.5309
 20
75.513
 30
0.0
 10
59.2021
 20
73.9198
 30
0.0
 10
59.6513
 20
72.4938
 30
0.0
  0
SPLINE
  5
46
330
1F
100
AcDbEntity
  8
layer 1
 62
   250
100
AcDbSpline
210
0.0
220
0.0
230
1.0
 70
    11
 71
     3
 72
    20
 73
    16
 74
     0
 42
0.0000000001
 43
0.0000000001
 12
1.0
 22
0.0
 32
0.0
 13
1.0
 23
0.0
 33
0.0
 40
0.0
 40
0.0
 40
0.0
 40
0.0
 40
0.2
 40
0.2
 40
0.2
 40
0.2
 40
0.4
 40
0.4
 40
0.4
 40
0.4
 40
0.6
 40
0.6
 40
0.6
 40
0.6
 40
1.0
 40
1.0
 40
1.0
 40
1.0
 10
59.3157
 20
58.9691
 30
0.0
 10
60.4629
 20
56.886
 30
0.0
 10
58.6988
 20
54.2123
 30
0.0
 10
56.523
 20
54.0061
 30
0.0
 10
56.523
 20
54.0061
 30
0.0
 10
54.1092
 20
53.6162
 30
0.0
 10
52.1501
 20
55.5101
 30
0.0
 10
50.5806
 20
57.1255
 30
0.0
 10
50.5806
 20
57.1255
 30
0.0
 10
48.6647
 20
59.103
 30
0.0
 10
50.8565
 20
62.3281
 30
0.0
 10
53.1189
 20
62.6958
 30
0.0
 10
53.1189
 20
62.6958
 30
0.0
 10
55.6515
 20
62.8351
 30
0.0
 10
58.3417
 20
61.4815
 30
0.0
 10
59.3157
 20
58.9691
 30
0.0
  0
SPLINE
  5
47
330
1F
100
AcDbEntity
  8
layer 1
 62
   250
100
AcDbSpline
210
0.0
220
0.0
230
1.0
 70
    11
 71
     3
 72
    32
 73
    28
 74
     0
 42
0.0000000001
 43
0.0000000001
 12
1.0
 22
0.0
 32
0.0
 13
1.0
 23
0.0
 33
0.0
 40
0.0
 40
0.0
 40
0.0
 40
0.0
 40
0.125
 40
0.125
 40
0.125
 40
0.125
 40
0.25
 40
0.25
 40
0.25
 40
0.25
 40
0.375
 40
0.375
 40
0.375
 40
0.375
 40
0.5
 40
0.5
 40
0.5
 40
0.5
 40
0.625
 40
0.625
 40
0.625
 40
0.625
 40
0.75
 40
0.75
 40
0.75
 40
0.75
 40
1.0
 40
1.0
 40
1.0
 40
1.0
 10
59.3103
 20
43.9574
 30
0.0
 10
59.7867
 20
42.626
 30
0.0
 10
60.1166
 20
41.2001
 30
0.0
 10
60.0139
 20
39.7741
 30
0.0
 10
60.0139
 20
39.7741
 30
0.0
 10
59.8405
 20
37.7189
 30
0.0
 10
57.9626
 20
35.9195
 30
0.0
 10
55.9331
 20
36.0309
 30
0.0
 10
55.9331
 20
36.0309
 30
0.0
 10
52.4857
 20
36.1647
 30
0.0
 10
49.4063
 20
37.9693
 30
0.0
 10
46.278
 20
39.2896
 30
0.0
 10
46.278
 20
39.2896
 30
0.0
 10
43.3932
 20
40.5594
 30
0.0
 10
40.5519
 20
42.2418
 30
0.0
 10
38.4846
 20
44.7149
 30
0.0
 10
38.4846
 20
44.7149
 30
0.0
 10
36.6444
 20
47.3942
 30
0.0
 10
36.152
 20
51.7615
 30
0.0
 10
38.8256
 20
54.0619
 30
0.0
 10
38.8256
 20
54.0619
 30
0.0
 10
40.054
 20
55.3039
 30
0.0
 10
41.8724
 20
55.421
 30
0.0
 10
43.4962
 20
55.4822
 30
0.0
 10
43.4962
 20
55.4822
 30
0.0
 10
50.4453
 20
55.3765
 30
0.0
 10
56.653
 20
50.4133
 30
0.0
 10
59.3103
 20
43.9574
 30
0.0
  0
SPLINE
  5
48
330
1F
100
AcDbEntity
  8
layer 1
 62
   250
100
AcDbSpline
210
0.0
220
0.0
230
1.0
 70
    11
 71
     3
 72
    28
 73
    24
 74
     0
 42
0.0000000001
 43
0.0000000001
 12
1.0
 22
0.0
 32
0.0
 13
1.0
 23
0.0
 33
0.0
 40
0.0
 40
0.0
 40
0.0
 40
0.0
 40
0.1428571428571428
 40
0.1428571428571428
 40
0.1428571428571428
 40
0.1428571428571428
 40
0.2857142857142857
 40
0.2857142857142857
 40
0.2857142857142857
 40
0.2857142857142857
 40
0.4285714285714285
 40
0.4285714285714285
 40
0.4285714285714285
 40
0.4285714285714285
 40
0.5714285714285714
 40
0.5714285714285714
 40
0.5714285714285714
 40
0.5714285714285714
 40
0.7142857142857143
 40
0.7142857142857143
 40
0.7142857142857143
 40
0.7142857142857143
 40
1.0
 40
1.0
 40
1.0
 40
1.0
 10
59.3103
 20
-2.2814
 30
0.0
 10
59.7541
 20
-4.1138
 30
0.0
 10
59.6405
 20
-6.0579
 30
0.0
 10
59.3157
 20
-7.9072
 30
0.0
 10
59.3157
 20
-7.9072
 30
0.0
 10
58.9151
 20
-10.1854
 30
0.0
 10
56.6152
 20
-12.2967
 30
0.0
 10
54.2932
 20
-11.4667
 30
0.0
 10
54.2932
 20
-11.4667
 30
0.0
 10
50.1963
 20
-10.219
 30
0.0
 10
47.0629
 20
-6.5536
 30
0.0
 10
45.5475
 20
-2.5486
 30
0.0
 10
45.5475
 20
-2.5486
 30
0.0
 10
44.6219
 20
-0.3706
 30
0.0
 10
46.5973
 20
1.6123
 30
0.0
 10
48.4483
 20
2.2808
 30
0.0
 10
48.4483
 20
2.2808
 30
0.0
 10
50.7537
 20
3.0439
 30
0.0
 10
53.3246
 20
3.3892
 30
0.0
 10
55.6626
 20
2.5816
 30
0.0
 10
55.6626
 20
2.5816
 30
0.0
 10
57.5025
 20
1.6345
 30
0.0
 10
58.6934
 20
-0.315
 30
0.0
 10
59.3103
 20
-2.2814
 30
0.0
  0
SPLINE
  5
49
330
1F
100
AcDbEntity
  8
layer 1
 62
   250
100
AcDbSpline
210
0.0
220
0.0
230
1.0
 70
    11
 71
     3
 72
    28
 73
    24
 74
     0
 42
0.0000000001
 43
0.0000000001
 12
1.0
 22
0.0
 32
0.0
 13
1.0
 23
0.0
 33
0.0
 40
0.0
 40
0.0
 40
0.0
 40
0.0
 40
0.1428571428571428
 40
0.1428571428571428
 40
0.1428571428571428
 40
0.1428571428571428
 40
0.2857142857142857
 40
0.2857142857142857
 40
0.2857142857142857
 40
0.2857142857142857
 40
0.4285714285714285
 40
0.4285714285714285
 40
0.4285714285714285
 40
0.4285714285714285
 40
0.5714285714285714
 40
0.5714285714285714
 40
0.5714285714285714
 40
0.5714285714285714
 40
0.7142857142857143
 40
0.7142857142857143
 40
0.7142857142857143
 40
0.7142857142857143
 40
1.0
 40
1.0
 40
1.0
 40
1.0
 10
59.6133
 20
-54.4969
 30
0.0
 10
60.1221
 20
-58.4182
 30
0.0
 10
60.4033
 20
-62.7853
 30
0.0
 10
58.2982
 20
-66.3057
 30
0.0
 10
58.2982
 20
-66.3057
 30
0.0
 10
57.6109
 20
-67.665
 30
0.0
 10
56.0847
 20
-68.0604
 30
0.0
 10
54.7857
 20
-68.5059
 30
0.0
 10
54.7857
 20
-68.5059
 30
0.0
 10
49.5577
 20
-66.7401
 30
0.0
 10
46.4294
 20
-61.5265
 30
0.0
 10
44.9898
 20
-56.3462
 30
0.0
 10
44.9898
 20
-56.3462
 30
0.0
 10
44.5515
 20
-54.6248
 30
0.0
 10
44.5949
 20
-52.5639
 30
0.0
 10
45.9046
 20
-51.2382
 30
0.0
 10
45.9046
 20
-51.2382
 30
0.0
 10
47.4363
 20
-49.3611
 30
0.0
 10
50.0123
 20
-49.3944
 30
0.0
 10
52.1881
 20
-49.3331
 30
0.0
 10
52.1881
 20
-49.3331
 30
0.0
 10
55.2838
 20
-49.4112
 30
0.0
 10
58.9801
 20
-51.0323
 30
0.0
 10
59.6133
 20
-54.4969
 30
0.0
  0
SPLINE
  5
4A
330
1F
100
AcDbEntity
  8
layer 1
 62
   250
100
AcDbSpline
210
0.0
220
0.0
230
1.0
 70
    11
 71
     3
 72
    24
 73
    20
 74
     0
 42
0.0000000001
 43
0.0000000001
 12
1.0
 22
0.0
 32
0.0
 13
1.0
 23
0.0
 33
0.0
 40
0.0
 40
0.0
 40
0.0
 40
0.0
 40
0.1666666666666667
 40
0.1666666666666667
 40
0.1666666666666667
 40
0.1666666666666667
 40
0.3333333333333333
 40
0.3333333333333333
 40
0.3333333333333333
 40
0.3333333333333333
 40
0.5
 40
0.5
 40
0.5
 40
0.5
 40
0.6666666666666666
 40
0.6666666666666666
 40
0.6666666666666666
 40
0.6666666666666666
 40
1.0
 40
1.0
 40
1.0
 40
1.0
 10
59.7541
 20
-78.3598
 30
0.0
 10
60.0139
 20
-80.8944
 30
0.0
 10
59.4239
 20
-83.8019
 30
0.0
 10
57.3185
 20
-85.3894
 30
0.0
 10
57.3185
 20
-85.3894
 30
0.0
 10
55.6031
 20
-86.7766
 30
0.0
 10
53.1784
 20
-86.8153
 30
0.0
 10
51.2519
 20
-85.8853
 30
0.0
 10
51.2519
 20
-85.8853
 30
0.0
 10
46.2239
 20
-84.0693
 30
0.0
 10
45.5203
 20
-76.0539
 30
0.0
 10
49.6444
 20
-72.8844
 30
0.0
 10
49.6444
 20
-72.8844
 30
0.0
 10
51.847
 20
-70.9961
 30
0.0
 10
55.3648
 20
-70.6785
 30
0.0
 10
57.5838
 20
-72.7006
 30
0.0
 10
57.5838
 20
-72.7006
 30
0.0
 10
59.2021
 20
-74.0819
 30
0.0
 10
59.6024
 20
-76.31
 30
0.0
 10
59.7541
 20
-78.3598
 30
0.0
  0
SPLINE
  5
4B
330
1F
100
AcDbEntity
  8
layer 1
 62
   250
100
AcDbSpline
210
0.0
220
0.0
230
1.0
 70
    11
 71
     3
 72
    24
 73
    20
 74
     0
 42
0.0000000001
 43
0.0000000001
 12
1.0
 22
0.0
 32
0.0
 13
1.0
 23
0.0
 33
0.0
 40
0.0
 40
0.0
 40
0.0
 40
0.0
 40
0.1666666666666667
 40
0.1666666666666667
 40
0.1666666666666667
 40
0.1666666666666667
 40
0.3333333333333333
 40
0.3333333333333333
 40
0.3333333333333333
 40
0.3333333333333333
 40
0.5
 40
0.5
 40
0.5
 40
0.5
 40
0.6666666666666666
 40
0.6666666666666666
 40
0.6666666666666666
 40
0.6666666666666666
 40
1.0
 40
1.0
 40
1.0
 40
1.0
 10
58.8393
 20
29.0067
 30
0.0
 10
59.5051
 20
25.6201
 30
0.0
 10
60.2683
 20
21.6151
 30
0.0
 10
58.0439
 20
18.6461
 30
0.0
 10
58.0439
 20
18.6461
 30
0.0
 10
55.7545
 20
15.6438
 30
0.0
 10
50.4779
 20
16.4681
 30
0.0
 10
49.1519
 20
20.0333
 30
0.0
 10
49.1519
 20
20.0333
 30
0.0
 10
48.313
 20
22.5844
 30
0.0
 10
48.3399
 20
25.3638
 30
0.0
 10
48.5565
 20
28.0208
 30
0.0
 10
48.5565
 20
28.0208
 30
0.0
 10
48.8704
 20
31.8587
 30
0.0
 10
53.6385
 20
34.009
 30
0.0
 10
56.7989
 20
32.2988
 30
0.0
 10
56.7989
 20
32.2988
 30
0.0
 10
57.8868
 20
31.5413
 30
0.0
 10
58.4985
 20
30.2712
 30
0.0
 10
58.8393
 20
29.0067
 30
0.0
  0
SPLINE
  5
4C
330
1F
100
AcDbEntity
  8
layer 1
 62
   250
100
AcDbSpline
210
0.0
220
0.0
230
1.0
 70
    11
 71
     3
 72
    24
 73
    20
 74
     0
 42
0.0000000001
 43
0.0000000001
 12
1.0
 22
0.0
 32
0.0
 13
1.0
 23
0.0
 33
0.0
 40
0.0
 40
0.0
 40
0.0
 40
0.0
 40
0.1666666666666667
 40
0.1666666666666667
 40
0.1666666666666667
 40
0.1666666666666667
 40
0.3333333333333333
 40
0.3333333333333333
 40
0.3333333333333333
 40
0.3333333333333333
 40
0.5
 40
0.5
 40
0.5
 40
0.5
 40
0.6666666666666666
 40
0.6666666666666666
 40
0.6666666666666666
 40
0.6666666666666666
 40
1.0
 40
1.0
 40
1.0
 40
1.0
 10
58.8611
 20
10.5415
 30
0.0
 10
59.0127
 20
8.6307
 30
0.0
 10
57.2049
 20
7.3608
 30
0.0
 10
55.7869
 20
6.5143
 30
0.0
 10
55.7869
 20
6.5143
 30
0.0
 10
53.0431
 20
5.2219
 30
0.0
 10
49.5957
 20
3.9686
 30
0.0
 10
46.8139
 20
5.8457
 30
0.0
 10
46.8139
 20
5.8457
 30
0.0
 10
44.9249
 20
7.3608
 30
0.0
 10
45.5744
 20
10.5526
 30
0.0
 10
47.2629
 20
11.9618
 30
0.0
 10
47.2629
 20
11.9618
 30
0.0
 10
49.6444
 20
13.9113
 30
0.0
 10
52.9401
 20
13.9059
 30
0.0
 10
55.814
 20
13.594
 30
0.0
 10
55.814
 20
13.594
 30
0.0
 10
57.4376
 20
13.5159
 30
0.0
 10
58.4985
 20
12.0344
 30
0.0
 10
58.8611
 20
10.5415
 30
0.0
  0
SPLINE
  5
4D
330
1F
100
AcDbEntity
  8
layer 1
 62
   250
100
AcDbSpline
210
0.0
220
0.0
230
1.0
 70
    11
 71
     3
 72
    24
 73
    20
 74
     0
 42
0.0000000001
 43
0.0000000001
 12
1.0
 22
0.0
 32
0.0
 13
1.0
 23
0.0
 33
0.0
 40
0.0
 40
0.0
 40
0.0
 40
0.0
 40
0.1666666666666667
 40
0.1666666666666667
 40
0.1666666666666667
 40
0.1666666666666667
 40
0.3333333333333333
 40
0.3333333333333333
 40
0.3333333333333333
 40
0.3333333333333333
 40
0.5
 40
0.5
 40
0.5
 40
0.5
 40
0.6666666666666666
 40
0.6666666666666666
 40
0.6666666666666666
 40
0.6666666666666666
 40
1.0
 40
1.0
 40
1.0
 40
1.0
 10
58.8882
 20
-20.0504
 30
0.0
 10
59.7272
 20
-23.6264
 30
0.0
 10
59.4619
 20
-27.7149
 30
0.0
 10
57.481
 20
-30.8622
 30
0.0
 10
57.481
 20
-30.8622
 30
0.0
 10
55.9548
 20
-33.5361
 30
0.0
 10
51.5601
 20
-33.7865
 30
0.0
 10
50.0449
 20
-30.9736
 30
0.0
 10
50.0449
 20
-30.9736
 30
0.0
 10
48.6214
 20
-28.2832
 30
0.0
 10
47.9015
 20
-25.1416
 30
0.0
 10
48.1668
 20
-22.078
 30
0.0
 10
48.1668
 20
-22.078
 30
0.0
 10
48.3345
 20
-19.2927
 30
0.0
 10
50.4779
 20
-17.2096
 30
0.0
 10
52.5667
 20
-15.7167
 30
0.0
 10
52.5667
 20
-15.7167
 30
0.0
 10
55.4841
 20
-14.2463
 30
0.0
 10
58.1197
 20
-17.4267
 30
0.0
 10
58.8882
 20
-20.0504
 30
0.0
  0
SPLINE
  5
4E
330
1F
100
AcDbEntity
  8
layer 1
 62
   250
100
AcDbSpline
210
0.0
220
0.0
230
1.0
 70
    11
 71
     3
 72
    20
 73
    16
 74
     0
 42
0.0000000001
 43
0.0000000001
 12
1.0
 22
0.0
 32
0.0
 13
1.0
 23
0.0
 33
0.0
 40
0.0
 40
0.0
 40
0.0
 40
0.0
 40
0.2
 40
0.2
 40
0.2
 40
0.2
 40
0.4
 40
0.4
 40
0.4
 40
0.4
 40
0.6
 40
0.6
 40
0.6
 40
0.6
 40
1.0
 40
1.0
 40
1.0
 40
1.0
 10
58.9532
 20
-38.3988
 30
0.0
 10
60.2302
 20
-41.3177
 30
0.0
 10
58.4768
 20
-46.214
 30
0.0
 10
54.8452
 20
-45.7739
 30
0.0
 10
54.8452
 20
-45.7739
 30
0.0
 10
53.0107
 20
-45.707
 30
0.0
 10
51.928
 20
-43.8298
 30
0.0
 10
51.7171
 20
-42.1366
 30
0.0
 10
51.7171
 20
-42.1366
 30
0.0
 10
51.2519
 20
-39.7077
 30
0.0
 10
52.7129
 20
-37.1121
 30
0.0
 10
54.9427
 20
-36.2431
 30
0.0
 10
54.9427
 20
-36.2431
 30
0.0
 10
56.5717
 20
-35.6748
 30
0.0
 10
58.4173
 20
-36.7555
 30
0.0
 10
58.9532
 20
-38.3988
 30
0.0
  0
SPLINE
  5
4F
330
1F
100
AcDbEntity
  8
layer 1
 62
   250
100
AcDbSpline
210
0.0
220
0.0
230
1.0
 70
    11
 71
     3
 72
    28
 73
    24
 74
     0
 42
0.0000000001
 43
0.0000000001
 12
1.0
 22
0.0
 32
0.0
 13
1.0
 23
0.0
 33
0.0
 40
0.0
 40
0.0
 40
0.0
 40
0.0
 40
0.1428571428571428
 40
0.1428571428571428
 40
0.1428571428571428
 40
0.1428571428571428
 40
0.2857142857142857
 40
0.2857142857142857
 40
0.2857142857142857
 40
0.2857142857142857
 40
0.4285714285714285
 40
0.4285714285714285
 40
0.4285714285714285
 40
0.4285714285714285
 40
0.5714285714285714
 40
0.5714285714285714
 40
0.5714285714285714
 40
0.5714285714285714
 40
0.7142857142857143
 40
0.7142857142857143
 40
0.7142857142857143
 40
0.7142857142857143
 40
1.0
 40
1.0
 40
1.0
 40
1.0
 10
58.8341
 20
-96.9199
 30
0.0
 10
59.5266
 20
-99.3542
 30
0.0
 10
59.8027
 20
-102.1449
 30
0.0
 10
58.6608
 20
-104.4844
 30
0.0
 10
58.6608
 20
-104.4844
 30
0.0
 10
57.1671
 20
-106.6789
 30
0.0
 10
54.8074
 20
-108.4503
 30
0.0
 10
52.1555
 20
-108.6731
 30
0.0
 10
52.1555
 20
-108.6731
 30
0.0
 10
49.6172
 20
-108.7902
 30
0.0
 10
48.0423
 20
-106.4951
 30
0.0
 10
46.5756
 20
-104.7293
 30
0.0
 10
46.5756
 20
-104.7293
 30
0.0
 10
43.4962
 20
-100.8525
 30
0.0
 10
43.9183
 20
-95.3768
 30
0.0
 10
44.8871
 20
-90.7927
 30
0.0
 10
44.8871
 20
-90.7927
 30
0.0
 10
45.385
 20
-88.2025
 30
0.0
 10
48.3508
 20
-87.4337
 30
0.0
 10
50.5483
 20
-87.9407
 30
0.0
 10
50.5483
 20
-87.9407
 30
0.0
 10
54.7153
 20
-88.96
 30
0.0
 10
57.73
 20
-92.7923
 30
0.0
 10
58.8341
 20
-96.9199
 30
0.0
  0
SPLINE
  5
50
330
1F
100
AcDbEntity
  8
layer 1
 62
   250
100
AcDbSpline
210
0.0
220
0.0
230
1.0
 70
    11
 71
     3
 72
    24
 73
    20
 74
     0
 42
0.0000000001
 43
0.0000000001
 12
1.0
 22
0.0
 32
0.0
 13
1.0
 23
0.0
 33
0.0
 40
0.0
 40
0.0
 40
0.0
 40
0.0
 40
0.1666666666666667
 40
0.1666666666666667
 40
0.1666666666666667
 40
0.1666666666666667
 40
0.3333333333333333
 40
0.3333333333333333
 40
0.3333333333333333
 40
0.3333333333333333
 40
0.5
 40
0.5
 40
0.5
 40
0.5
 40
0.6666666666666666
 40
0.6666666666666666
 40
0.6666666666666666
 40
0.6666666666666666
 40
1.0
 40
1.0
 40
1.0
 40
1.0
 10
50.1692
 20
-12.3523
 30
0.0
 10
50.8673
 20
-14.43
 30
0.0
 10
49.5522
 20
-16.5801
 30
0.0
 10
48.0097
 20
-17.8445
 30
0.0
 10
48.0097
 20
-17.8445
 30
0.0
 10
46.5215
 20
-18.9811
 30
0.0
 10
44.8654
 20
-20.2176
 30
0.0
 10
42.9388
 20
-20.2732
 30
0.0
 10
42.9388
 20
-20.2732
 30
0.0
 10
40.9525
 20
-20.1561
 30
0.0
 10
38.7607
 20
-18.7301
 30
0.0
 10
38.555
 20
-16.5356
 30
0.0
 10
38.555
 20
-16.5356
 30
0.0
 10
38.1383
 20
-13.4219
 30
0.0
 10
39.8214
 20
-10.1575
 30
0.0
 10
42.5002
 20
-8.6871
 30
0.0
 10
42.5002
 20
-8.6871
 30
0.0
 10
45.4445
 20
-7.6955
 30
0.0
 10
49.1139
 20
-9.2662
 30
0.0
 10
50.1692
 20
-12.3523
 30
0.0
  0
SPLINE
  5
51
330
1F
100
AcDbEntity
  8
layer 1
 62
   250
100
AcDbSpline
210
0.0
220
0.0
230
1.0
 70
    11
 71
     3
 72
    24
 73
    20
 74
     0
 42
0.0000000001
 43
0.0000000001
 12
1.0
 22
0.0
 32
0.0
 13
1.0
 23
0.0
 33
0.0
 40
0.0
 40
0.0
 40
0.0
 40
0.0
 40
0.1666666666666667
 40
0.1666666666666667
 40
0.1666666666666667
 40
0.1666666666666667
 40
0.3333333333333333
 40
0.3333333333333333
 40
0.3333333333333333
 40
0.3333333333333333
 40
0.5
 40
0.5
 40
0.5
 40
0.5
 40
0.6666666666666666
 40
0.6666666666666666
 40
0.6666666666666666
 40
0.6666666666666666
 40
1.0
 40
1.0
 40
1.0
 40
1.0
 10
49.39
 20
-37.2124
 30
0.0
 10
50.0449
 20
-40.354
 30
0.0
 10
49.7362
 20
-43.9355
 30
0.0
 10
47.7771
 20
-46.5538
 30
0.0
 10
47.7771
 20
-46.5538
 30
0.0
 10
46.4889
 20
-48.2581
 30
0.0
 10
44.3351
 20
-48.8654
 30
0.0
 10
42.3379
 20
-49.0659
 30
0.0
 10
42.3379
 20
-49.0659
 30
0.0
 10
39.5184
 20
-49.6952
 30
0.0
 10
36.8719
 20
-47.0828
 30
0.0
 10
36.4496
 20
-44.3534
 30
0.0
 10
36.4496
 20
-44.3534
 30
0.0
 10
36.3577
 20
-39.7579
 30
0.0
 10
39.3018
 20
-35.2407
 30
0.0
 10
43.5775
 20
-33.7979
 30
0.0
 10
43.5775
 20
-33.7979
 30
0.0
 10
46.0073
 20
-32.9399
 30
0.0
 10
48.7242
 20
-34.7724
 30
0.0
 10
49.39
 20
-37.2124
 30
0.0
  0
SPLINE
  5
52
330
1F
100
AcDbEntity
  8
layer 1
 62
   250
100
AcDbSpline
210
0.0
220
0.0
230
1.0
 70
    11
 71
     3
 72
    28
 73
    24
 74
     0
 42
0.0000000001
 43
0.0000000001
 12
1.0
 22
0.0
 32
0.0
 13
1.0
 23
0.0
 33
0.0
 40
0.0
 40
0.0
 40
0.0
 40
0.0
 40
0.1428571428571428
 40
0.1428571428571428
 40
0.1428571428571428
 40
0.1428571428571428
 40
0.2857142857142857
 40
0.2857142857142857
 40
0.2857142857142857
 40
0.2857142857142857
 40
0.4285714285714285
 40
0.4285714285714285
 40
0.4285714285714285
 40
0.4285714285714285
 40
0.5714285714285714
 40
0.5714285714285714
 40
0.5714285714285714
 40
0.5714285714285714
 40
0.7142857142857143
 40
0.7142857142857143
 40
0.7142857142857143
 40
0.7142857142857143
 40
1.0
 40
1.0
 40
1.0
 40
1.0
 10
48.064
 20
34.5382
 30
0.0
 10
48.7459
 20
32.8169
 30
0.0
 10
47.5607
 20
31.1514
 30
0.0
 10
46.4242
 20
29.9929
 30
0.0
 10
46.4242
 20
29.9929
 30
0.0
 10
44.9088
 20
28.6392
 30
0.0
 10
42.6518
 20
27.503
 30
0.0
 10
40.6872
 20
28.5501
 30
0.0
 10
40.6872
 20
28.5501
 30
0.0
 10
38.3275
 20
29.6809
 30
0.0
 10
37.3806
 20
32.4047
 30
0.0
 10
36.8284
 20
34.8333
 30
0.0
 10
36.8284
 20
34.8333
 30
0.0
 10
36.5417
 20
36.3707
 30
0.0
 10
36.6444
 20
38.2869
 30
0.0
 10
37.9595
 20
39.3118
 30
0.0
 10
37.9595
 20
39.3118
 30
0.0
 10
39.2205
 20
40.3033
 30
0.0
 10
40.8443
 20
39.7351
 30
0.0
 10
42.2352
 20
39.4234
 30
0.0
 10
42.2352
 20
39.4234
 30
0.0
 10
44.6814
 20
38.7159
 30
0.0
 10
47.3064
 20
37.223
 30
0.0
 10
48.064
 20
34.5382
 30
0.0
  0
SPLINE
  5
53
330
1F
100
AcDbEntity
  8
layer 1
 62
   250
100
AcDbSpline
210
0.0
220
0.0
230
1.0
 70
    11
 71
     3
 72
    20
 73
    16
 74
     0
 42
0.0000000001
 43
0.0000000001
 12
1.0
 22
0.0
 32
0.0
 13
1.0
 23
0.0
 33
0.0
 40
0.0
 40
0.0
 40
0.0
 40
0.0
 40
0.2
 40
0.2
 40
0.2
 40
0.2
 40
0.4
 40
0.4
 40
0.4
 40
0.4
 40
0.6
 40
0.6
 40
0.6
 40
0.6
 40
1.0
 40
1.0
 40
1.0
 40
1.0
 10
48.2102
 20
-66.2892
 30
0.0
 10
49.2166
 20
-68.4225
 30
0.0
 10
47.6363
 20
-71.1072
 30
0.0
 10
45.8829
 20
-72.3551
 30
0.0
 10
45.8829
 20
-72.3551
 30
0.0
 10
43.7506
 20
-73.9873
 30
0.0
 10
40.4059
 20
-71.6031
 30
0.0
 10
41.0174
 20
-69.0129
 30
0.0
 10
41.0174
 20
-69.0129
 30
0.0
 10
41.2609
 20
-67.3976
 30
0.0
 10
42.4083
 20
-66.1109
 30
0.0
 10
43.5989
 20
-65.1193
 30
0.0
 10
43.5989
 20
-65.1193
 30
0.0
 10
45.1089
 20
-64.0107
 30
0.0
 10
47.2251
 20
-64.8407
 30
0.0
 10
48.2102
 20
-66.2892
 30
0.0
  0
SPLINE
  5
54
330
1F
100
AcDbEntity
  8
layer 1
 62
   250
100
AcDbSpline
210
0.0
220
0.0
230
1.0
 70
    11
 71
     3
 72
    24
 73
    20
 74
     0
 42
0.0000000001
 43
0.0000000001
 12
1.0
 22
0.0
 32
0.0
 13
1.0
 23
0.0
 33
0.0
 40
0.0
 40
0.0
 40
0.0
 40
0.0
 40
0.1666666666666667
 40
0.1666666666666667
 40
0.1666666666666667
 40
0.1666666666666667
 40
0.3333333333333333
 40
0.3333333333333333
 40
0.3333333333333333
 40
0.3333333333333333
 40
0.5
 40
0.5
 40
0.5
 40
0.5
 40
0.6666666666666666
 40
0.6666666666666666
 40
0.6666666666666666
 40
0.6666666666666666
 40
1.0
 40
1.0
 40
1.0
 40
1.0
 10
47.7284
 20
104.8068
 30
0.0
 10
48.3831
 20
103.1023
 30
0.0
 10
47.7879
 20
101.2308
 30
0.0
 10
46.6892
 20
99.8826
 30
0.0
 10
46.6892
 20
99.8826
 30
0.0
 10
45.1956
 20
97.9889
 30
0.0
 10
43.2527
 20
96.1451
 30
0.0
 10
40.8065
 20
95.8556
 30
0.0
 10
40.8065
 20
95.8556
 30
0.0
 10
38.1598
 20
95.538
 30
0.0
 10
35.6919
 20
98.3342
 30
0.0
 10
36.4227
 20
101.0191
 30
0.0
 10
36.4227
 20
101.0191
 30
0.0
 10
37.2507
 20
104.8014
 30
0.0
 10
41.0552
 20
106.7677
 30
0.0
 10
44.3566
 20
107.8148
 30
0.0
 10
44.3566
 20
107.8148
 30
0.0
 10
46.1698
 20
108.4831
 30
0.0
 10
47.355
 20
106.3276
 30
0.0
 10
47.7284
 20
104.8068
 30
0.0
  0
SPLINE
  5
55
330
1F
100
AcDbEntity
  8
layer 1
 62
   250
100
AcDbSpline
210
0.0
220
0.0
230
1.0
 70
    11
 71
     3
 72
    16
 73
    12
 74
     0
 42
0.0000000001
 43
0.0000000001
 12
1.0
 22
0.0
 32
0.0
 13
1.0
 23
0.0
 33
0.0
 40
0.0
 40
0.0
 40
0.0
 40
0.0
 40
0.25
 40
0.25
 40
0.25
 40
0.25
 40
0.5
 40
0.5
 40
0.5
 40
0.5
 40
1.0
 40
1.0
 40
1.0
 40
1.0
 10
46.8245
 20
21.1027
 30
0.0
 10
47.4632
 20
18.3288
 30
0.0
 10
46.8408
 20
14.1341
 30
0.0
 10
43.469
 20
13.7498
 30
0.0
 10
43.469
 20
13.7498
 30
0.0
 10
37.7755
 20
14.0116
 30
0.0
 10
37.5755
 20
24.0215
 30
0.0
 10
42.9225
 20
25.1632
 30
0.0
 10
42.9225
 20
25.1632
 30
0.0
 10
45.1523
 20
25.5087
 30
0.0
 10
46.2508
 20
22.8796
 30
0.0
 10
46.8245
 20
21.1027
 30
0.0
  0
SPLINE
  5
56
330
1F
100
AcDbEntity
  8
layer 1
 62
   250
100
AcDbSpline
210
0.0
220
0.0
230
1.0
 70
    11
 71
     3
 72
    24
 73
    20
 74
     0
 42
0.0000000001
 43
0.0000000001
 12
1.0
 22
0.0
 32
0.0
 13
1.0
 23
0.0
 33
0.0
 40
0.0
 40
0.0
 40
0.0
 40
0.0
 40
0.1666666666666667
 40
0.1666666666666667
 40
0.1666666666666667
 40
0.1666666666666667
 40
0.3333333333333333
 40
0.3333333333333333
 40
0.3333333333333333
 40
0.3333333333333333
 40
0.5
 40
0.5
 40
0.5
 40
0.5
 40
0.6666666666666666
 40
0.6666666666666666
 40
0.6666666666666666
 40
0.6666666666666666
 40
1.0
 40
1.0
 40
1.0
 40
1.0
 10
45.8019
 20
-79.1061
 30
0.0
 10
48.1451
 20
-85.4674
 30
0.0
 10
41.7156
 20
-92.798
 30
0.0
 10
35.3511
 20
-91.8509
 30
0.0
 10
35.3511
 20
-91.8509
 30
0.0
 10
33.1971
 20
-91.3829
 30
0.0
 10
31.6222
 20
-89.545
 30
0.0
 10
30.6966
 20
-87.5841
 30
0.0
 10
30.6966
 20
-87.5841
 30
0.0
 10
29.1325
 20
-84.5929
 30
0.0
 10
30.1122
 20
-80.3762
 30
0.0
 10
32.9805
 20
-78.6161
 30
0.0
 10
32.9805
 20
-78.6161
 30
0.0
 10
35.5892
 20
-77.2793
 30
0.0
 10
38.4088
 20
-76.3211
 30
0.0
 10
41.3153
 20
-76.0149
 30
0.0
 10
41.3153
 20
-76.0149
 30
0.0
 10
43.231
 20
-75.9813
 30
0.0
 10
44.9575
 20
-77.4018
 30
0.0
 10
45.8019
 20
-79.1061
 30
0.0
  0
SPLINE
  5
57
330
1F
100
AcDbEntity
  8
layer 1
 62
   250
100
AcDbSpline
210
0.0
220
0.0
230
1.0
 70
    11
 71
     3
 72
    20
 73
    16
 74
     0
 42
0.0000000001
 43
0.0000000001
 12
1.0
 22
0.0
 32
0.0
 13
1.0
 23
0.0
 33
0.0
 40
0.0
 40
0.0
 40
0.0
 40
0.0
 40
0.2
 40
0.2
 40
0.2
 40
0.2
 40
0.4
 40
0.4
 40
0.4
 40
0.4
 40
0.6
 40
0.6
 40
0.6
 40
0.6
 40
1.0
 40
1.0
 40
1.0
 40
1.0
 10
45.2496
 20
63.4421
 30
0.0
 10
46.8841
 20
60.2948
 30
0.0
 10
44.2215
 20
56.3177
 30
0.0
 10
40.8171
 20
56.7022
 30
0.0
 10
40.8171
 20
56.7022
 30
0.0
 10
36.2278
 20
56.8247
 30
0.0
 10
33.9874
 20
62.757
 30
0.0
 10
35.8327
 20
66.6117
 30
0.0
 10
35.8327
 20
66.6117
 30
0.0
 10
36.9801
 20
68.0097
 30
0.0
 10
39.1124
 20
68.4552
 30
0.0
 10
40.6872
 20
67.5588
 30
0.0
 10
40.6872
 20
67.5588
 30
0.0
 10
42.4464
 20
66.5615
 30
0.0
 10
44.3729
 20
65.3973
 30
0.0
 10
45.2496
 20
63.4421
 30
0.0
  0
SPLINE
  5
58
330
1F
100
AcDbEntity
  8
layer 1
 62
   250
100
AcDbSpline
210
0.0
220
0.0
230
1.0
 70
    11
 71
     3
 72
    28
 73
    24
 74
     0
 42
0.0000000001
 43
0.0000000001
 12
1.0
 22
0.0
 32
0.0
 13
1.0
 23
0.0
 33
0.0
 40
0.0
 40
0.0
 40
0.0
 40
0.0
 40
0.1428571428571428
 40
0.1428571428571428
 40
0.1428571428571428
 40
0.1428571428571428
 40
0.2857142857142857
 40
0.2857142857142857
 40
0.2857142857142857
 40
0.2857142857142857
 40
0.4285714285714285
 40
0.4285714285714285
 40
0.4285714285714285
 40
0.4285714285714285
 40
0.5714285714285714
 40
0.5714285714285714
 40
0.5714285714285714
 40
0.5714285714285714
 40
0.7142857142857143
 40
0.7142857142857143
 40
0.7142857142857143
 40
0.7142857142857143
 40
1.0
 40
1.0
 40
1.0
 40
1.0
 10
44.9955
 20
-25.0136
 30
0.0
 10
45.3363
 20
-26.9296
 30
0.0
 10
44.8871
 20
-29.0184
 30
0.0
 10
43.5503
 20
-30.4444
 30
0.0
 10
43.5503
 20
-30.4444
 30
0.0
 10
41.0769
 20
-33.2017
 30
0.0
 10
37.3317
 20
-34.4217
 30
0.0
 10
33.7653
 20
-34.5664
 30
0.0
 10
33.7653
 20
-34.5664
 30
0.0
 10
29.9497
 20
-34.9285
 30
0.0
 10
26.0586
 20
-31.0684
 30
0.0
 10
26.838
 20
-27.0521
 30
0.0
 10
26.838
 20
-27.0521
 30
0.0
 10
26.9622
 20
-24.7294
 30
0.0
 10
28.9323
 20
-23.0918
 30
0.0
 10
31.0268
 20
-22.6462
 30
0.0
 10
31.0268
 20
-22.6462
 30
0.0
 10
34.6961
 20
-21.5487
 30
0.0
 10
38.674
 20
-21.4821
 30
0.0
 10
42.376
 20
-22.4457
 30
0.0
 10
42.376
 20
-22.4457
 30
0.0
 10
43.6152
 20
-22.7351
 30
0.0
 10
44.8276
 20
-23.6264
 30
0.0
 10
44.9955
 20
-25.0136
 30
0.0
  0
SPLINE
  5
59
330
1F
100
AcDbEntity
  8
layer 1
 62
   250
100
AcDbSpline
210
0.0
220
0.0
230
1.0
 70
    11
 71
     3
 72
    24
 73
    20
 74
     0
 42
0.0000000001
 43
0.0000000001
 12
1.0
 22
0.0
 32
0.0
 13
1.0
 23
0.0
 33
0.0
 40
0.0
 40
0.0
 40
0.0
 40
0.0
 40
0.1666666666666667
 40
0.1666666666666667
 40
0.1666666666666667
 40
0.1666666666666667
 40
0.3333333333333333
 40
0.3333333333333333
 40
0.3333333333333333
 40
0.3333333333333333
 40
0.5
 40
0.5
 40
0.5
 40
0.5
 40
0.6666666666666666
 40
0.6666666666666666
 40
0.6666666666666666
 40
0.6666666666666666
 40
1.0
 40
1.0
 40
1.0
 40
1.0
 10
43.0038
 20
4.9322
 30
0.0
 10
43.6044
 20
1.4174
 30
0.0
 10
43.6207
 20
-2.5765
 30
0.0
 10
41.5101
 20
-5.6013
 30
0.0
 10
41.5101
 20
-5.6013
 30
0.0
 10
39.3667
 20
-8.5868
 30
0.0
 10
34.2306
 20
-8.4196
 30
0.0
 10
32.4446
 20
-5.1222
 30
0.0
 10
32.4446
 20
-5.1222
 30
0.0
 10
31.227
 20
-2.2535
 30
0.0
 10
30.4963
 20
0.983
 30
0.0
 10
30.9349
 20
4.1135
 30
0.0
 10
30.9349
 20
4.1135
 30
0.0
 10
31.8874
 20
6.7481
 30
0.0
 10
34.1116
 20
9.3215
 30
0.0
 10
37.0179
 20
9.4386
 30
0.0
 10
37.0179
 20
9.4386
 30
0.0
 10
39.7456
 20
9.8063
 30
0.0
 10
42.3542
 20
7.5893
 30
0.0
 10
43.0038
 20
4.9322
 30
0.0
  0
SPLINE
  5
5A
330
1F
100
AcDbEntity
  8
layer 1
 62
   250
100
AcDbSpline
210
0.0
220
0.0
230
1.0
 70
    11
 71
     3
 72
    32
 73
    28
 74
     0
 42
0.0000000001
 43
0.0000000001
 12
1.0
 22
0.0
 32
0.0
 13
1.0
 23
0.0
 33
0.0
 40
0.0
 40
0.0
 40
0.0
 40
0.0
 40
0.125
 40
0.125
 40
0.125
 40
0.125
 40
0.25
 40
0.25
 40
0.25
 40
0.25
 40
0.375
 40
0.375
 40
0.375
 40
0.375
 40
0.5
 40
0.5
 40
0.5
 40
0.5
 40
0.625
 40
0.625
 40
0.625
 40
0.625
 40
0.75
 40
0.75
 40
0.75
 40
0.75
 40
1.0
 40
1.0
 40
1.0
 40
1.0
 10
42.5059
 20
89.0542
 30
0.0
 10
43.2255
 20
84.6146
 30
0.0
 10
43.1174
 20
79.7519
 30
0.0
 10
40.9688
 20
75.7135
 30
0.0
 10
40.9688
 20
75.7135
 30
0.0
 10
39.7945
 20
73.4575
 30
0.0
 10
37.8081
 20
71.7586
 30
0.0
 10
35.6
 20
70.6278
 30
0.0
 10
35.6
 20
70.6278
 30
0.0
 10
34.182
 20
70.0096
 30
0.0
 10
32.4122
 20
70.6668
 30
0.0
 10
31.6331
 20
72.0315
 30
0.0
 10
31.6331
 20
72.0315
 30
0.0
 10
29.544
 20
75.0951
 30
0.0
 10
29.5005
 20
79.1112
 30
0.0
 10
30.2204
 20
82.6539
 30
0.0
 10
30.2204
 20
82.6539
 30
0.0
 10
30.767
 20
86.1912
 30
0.0
 10
32.369
 20
89.6225
 30
0.0
 10
34.9722
 20
92.0398
 30
0.0
 10
34.9722
 20
92.0398
 30
0.0
 10
36.4605
 20
93.4546
 30
0.0
 10
38.9121
 20
93.8167
 30
0.0
 10
40.6171
 20
92.5969
 30
0.0
 10
40.6171
 20
92.5969
 30
0.0
 10
41.6724
 20
91.7224
 30
0.0
 10
42.1377
 20
90.3466
 30
0.0
 10
42.5059
 20
89.0542
 30
0.0
  0
SPLINE
  5
5B
330
1F
100
AcDbEntity
  8
layer 1
 62
   250
100
AcDbSpline
210
0.0
220
0.0
230
1.0
 70
    11
 71
     3
 72
    24
 73
    20
 74
     0
 42
0.0000000001
 43
0.0000000001
 12
1.0
 22
0.0
 32
0.0
 13
1.0
 23
0.0
 33
0.0
 40
0.0
 40
0.0
 40
0.0
 40
0.0
 40
0.1666666666666667
 40
0.1666666666666667
 40
0.1666666666666667
 40
0.1666666666666667
 40
0.3333333333333333
 40
0.3333333333333333
 40
0.3333333333333333
 40
0.3333333333333333
 40
0.5
 40
0.5
 40
0.5
 40
0.5
 40
0.6666666666666666
 40
0.6666666666666666
 40
0.6666666666666666
 40
0.6666666666666666
 40
1.0
 40
1.0
 40
1.0
 40
1.0
 10
42.5382
 20
-98.6856
 30
0.0
 10
42.9766
 20
-100.9918
 30
0.0
 10
42.9551
 20
-103.4093
 30
0.0
 10
42.4515
 20
-105.6987
 30
0.0
 10
42.4515
 20
-105.6987
 30
0.0
 10
42.0295
 20
-107.2805
 30
0.0
 10
40.341
 20
-109.1411
 30
0.0
 10
38.6525
 20
-108.1607
 30
0.0
 10
38.6525
 20
-108.1607
 30
0.0
 10
35.9031
 20
-106.9742
 30
0.0
 10
34.7826
 20
-103.8326
 30
0.0
 10
33.7977
 20
-101.1755
 30
0.0
 10
33.7977
 20
-101.1755
 30
0.0
 10
32.6394
 20
-98.4686
 30
0.0
 10
34.2849
 20
-94.8421
 30
0.0
 10
37.0991
 20
-94.1403
 30
0.0
 10
37.0991
 20
-94.1403
 30
0.0
 10
39.7023
 20
-93.9454
 30
0.0
 10
42.1377
 20
-96.0454
 30
0.0
 10
42.5382
 20
-98.6856
 30
0.0
  0
SPLINE
  5
5C
330
1F
100
AcDbEntity
  8
layer 1
 62
   250
100
AcDbSpline
210
0.0
220
0.0
230
1.0
 70
    11
 71
     3
 72
    28
 73
    24
 74
     0
 42
0.0000000001
 43
0.0000000001
 12
1.0
 22
0.0
 32
0.0
 13
1.0
 23
0.0
 33
0.0
 40
0.0
 40
0.0
 40
0.0
 40
0.0
 40
0.1428571428571428
 40
0.1428571428571428
 40
0.1428571428571428
 40
0.1428571428571428
 40
0.2857142857142857
 40
0.2857142857142857
 40
0.2857142857142857
 40
0.2857142857142857
 40
0.4285714285714285
 40
0.4285714285714285
 40
0.4285714285714285
 40
0.4285714285714285
 40
0.5714285714285714
 40
0.5714285714285714
 40
0.5714285714285714
 40
0.5714285714285714
 40
0.7142857142857143
 40
0.7142857142857143
 40
0.7142857142857143
 40
0.7142857142857143
 40
1.0
 40
1.0
 40
1.0
 40
1.0
 10
41.483
 20
-54.0902
 30
0.0
 10
42.7385
 20
-56.2405
 30
0.0
 10
41.8401
 20
-59.3764
 30
0.0
 10
39.4912
 20
-60.2566
 30
0.0
 10
39.4912
 20
-60.2566
 30
0.0
 10
36.9042
 20
-61.6102
 30
0.0
 10
34.0953
 20
-59.978
 30
0.0
 10
32.1255
 20
-58.2401
 30
0.0
 10
32.1255
 20
-58.2401
 30
0.0
 10
30.7346
 20
-56.8253
 30
0.0
 10
29.544
 20
-55.1541
 30
0.0
 10
28.77
 20
-53.2991
 30
0.0
 10
28.77
 20
-53.2991
 30
0.0
 10
28.0014
 20
-51.1938
 30
0.0
 10
29.4141
 20
-48.8987
 30
0.0
 10
31.2866
 20
-48.0354
 30
0.0
 10
31.2866
 20
-48.0354
 30
0.0
 10
33.2349
 20
-46.8823
 30
0.0
 10
35.6432
 20
-47.7345
 30
0.0
 10
37.2399
 20
-49.1383
 30
0.0
 10
37.2399
 20
-49.1383
 30
0.0
 10
38.8582
 20
-50.5754
 30
0.0
 10
40.4492
 20
-52.135
 30
0.0
 10
41.483
 20
-54.0902
 30
0.0
  0
SPLINE
  5
5D
330
1F
100
AcDbEntity
  8
layer 1
 62
   250
100
AcDbSpline
210
0.0
220
0.0
230
1.0
 70
    11
 71
     3
 72
    24
 73
    20
 74
     0
 42
0.0000000001
 43
0.0000000001
 12
1.0
 22
0.0
 32
0.0
 13
1.0
 23
0.0
 33
0.0
 40
0.0
 40
0.0
 40
0.0
 40
0.0
 40
0.1666666666666667
 40
0.1666666666666667
 40
0.1666666666666667
 40
0.1666666666666667
 40
0.3333333333333333
 40
0.3333333333333333
 40
0.3333333333333333
 40
0.3333333333333333
 40
0.5
 40
0.5
 40
0.5
 40
0.5
 40
0.6666666666666666
 40
0.6666666666666666
 40
0.6666666666666666
 40
0.6666666666666666
 40
1.0
 40
1.0
 40
1.0
 40
1.0
 10
39.3991
 20
-65.7987
 30
0.0
 10
39.5561
 20
-68.5561
 30
0.0
 10
38.7767
 20
-71.3749
 30
0.0
 10
37.2399
 20
-73.6418
 30
0.0
 10
37.2399
 20
-73.6418
 30
0.0
 10
36.0547
 20
-75.3854
 30
0.0
 10
33.7167
 20
-76.0203
 30
0.0
 10
31.8116
 20
-75.2517
 30
0.0
 10
31.8116
 20
-75.2517
 30
0.0
 10
28.916
 20
-74.4773
 30
0.0
 10
27.5522
 20
-71.3803
 30
0.0
 10
26.7782
 20
-68.6899
 30
0.0
 10
26.7782
 20
-68.6899
 30
0.0
 10
26.2695
 20
-66.6456
 30
0.0
 10
25.9395
 20
-64.0554
 30
0.0
 10
27.6009
 20
-62.4679
 30
0.0
 10
27.6009
 20
-62.4679
 30
0.0
 10
31.3461
 20
-59.9279
 30
0.0
 10
38.1652
 20
-60.7244
 30
0.0
 10
39.3991
 20
-65.7987
 30
0.0
  0
SPLINE
  5
5E
330
1F
100
AcDbEntity
  8
layer 1
 62
   250
100
AcDbSpline
210
0.0
220
0.0
230
1.0
 70
    11
 71
     3
 72
    24
 73
    20
 74
     0
 42
0.0000000001
 43
0.0000000001
 12
1.0
 22
0.0
 32
0.0
 13
1.0
 23
0.0
 33
0.0
 40
0.0
 40
0.0
 40
0.0
 40
0.0
 40
0.1666666666666667
 40
0.1666666666666667
 40
0.1666666666666667
 40
0.1666666666666667
 40
0.3333333333333333
 40
0.3333333333333333
 40
0.3333333333333333
 40
0.3333333333333333
 40
0.5
 40
0.5
 40
0.5
 40
0.5
 40
0.6666666666666666
 40
0.6666666666666666
 40
0.6666666666666666
 40
0.6666666666666666
 40
1.0
 40
1.0
 40
1.0
 40
1.0
 10
39.0637
 20
122.1249
 30
0.0
 10
39.567
 20
119.6906
 30
0.0
 10
37.4725
 20
117.5628
 30
0.0
 10
35.6919
 20
116.2425
 30
0.0
 10
35.6919
 20
116.2425
 30
0.0
 10
34.182
 20
115.1341
 30
0.0
 10
31.8116
 20
114.3542
 30
0.0
 10
30.2582
 20
115.7802
 30
0.0
 10
30.2582
 20
115.7802
 30
0.0
 10
28.6616
 20
117.7075
 30
0.0
 10
29.2679
 20
121.0052
 30
0.0
 10
31.254
 20
122.4257
 30
0.0
 10
31.254
 20
122.4257
 30
0.0
 10
32.7693
 20
123.5563
 30
0.0
 10
34.5282
 20
124.5089
 30
0.0
 10
36.4281
 20
124.6316
 30
0.0
 10
36.4281
 20
124.6316
 30
0.0
 10
37.6728
 20
124.3251
 30
0.0
 10
38.6362
 20
123.3447
 30
0.0
 10
39.0637
 20
122.1249
 30
0.0
  0
SPLINE
  5
5F
330
1F
100
AcDbEntity
  8
layer 1
 62
   250
100
AcDbSpline
210
0.0
220
0.0
230
1.0
 70
    11
 71
     3
 72
    24
 73
    20
 74
     0
 42
0.0000000001
 43
0.0000000001
 12
1.0
 22
0.0
 32
0.0
 13
1.0
 23
0.0
 33
0.0
 40
0.0
 40
0.0
 40
0.0
 40
0.0
 40
0.1666666666666667
 40
0.1666666666666667
 40
0.1666666666666667
 40
0.1666666666666667
 40
0.3333333333333333
 40
0.3333333333333333
 40
0.3333333333333333
 40
0.3333333333333333
 40
0.5
 40
0.5
 40
0.5
 40
0.5
 40
0.6666666666666666
 40
0.6666666666666666
 40
0.6666666666666666
 40
0.6666666666666666
 40
1.0
 40
1.0
 40
1.0
 40
1.0
 10
38.7552
 20
111.2906
 30
0.0
 10
39.3991
 20
108.656
 30
0.0
 10
37.2399
 20
106.4222
 30
0.0
 10
35.3022
 20
105.0686
 30
0.0
 10
35.3022
 20
105.0686
 30
0.0
 10
32.5421
 20
103.2472
 30
0.0
 10
28.6401
 20
101.7264
 30
0.0
 10
25.6254
 20
103.7876
 30
0.0
 10
25.6254
 20
103.7876
 30
0.0
 10
23.7097
 20
104.9185
 30
0.0
 10
23.5203
 20
107.9596
 30
0.0
 10
25.2034
 20
109.3744
 30
0.0
 10
25.2034
 20
109.3744
 30
0.0
 10
28.0014
 20
111.4744
 30
0.0
 10
31.4165
 20
112.4881
 30
0.0
 10
34.8097
 20
112.984
 30
0.0
 10
34.8097
 20
112.984
 30
0.0
 10
36.2928
 20
113.3515
 30
0.0
 10
38.2791
 20
113.0342
 30
0.0
 10
38.7552
 20
111.2906
 30
0.0
  0
SPLINE
  5
60
330
1F
100
AcDbEntity
  8
layer 1
 62
   250
100
AcDbSpline
210
0.0
220
0.0
230
1.0
 70
    11
 71
     3
 72
    16
 73
    12
 74
     0
 42
0.0000000001
 43
0.0000000001
 12
1.0
 22
0.0
 32
0.0
 13
1.0
 23
0.0
 33
0.0
 40
0.0
 40
0.0
 40
0.0
 40
0.0
 40
0.25
 40
0.25
 40
0.25
 40
0.25
 40
0.5
 40
0.5
 40
0.5
 40
0.5
 40
1.0
 40
1.0
 40
1.0
 40
1.0
 10
36.6175
 20
18.8745
 30
0.0
 10
38.1489
 20
16.0115
 30
0.0
 10
35.562
 20
12.2572
 30
0.0
 10
32.6234
 20
11.9228
 30
0.0
 10
32.6234
 20
11.9228
 30
0.0
 10
29.9497
 20
11.9731
 30
0.0
 10
27.9691
 20
15.1703
 30
0.0
 10
29.295
 20
17.6545
 30
0.0
 10
29.295
 20
17.6545
 30
0.0
 10
30.334
 20
20.5845
 30
0.0
 10
35.0965
 20
22.2333
 30
0.0
 10
36.6175
 20
18.8745
 30
0.0
  0
SPLINE
  5
61
330
1F
100
AcDbEntity
  8
layer 1
 62
   250
100
AcDbSpline
210
0.0
220
0.0
230
1.0
 70
    11
 71
     3
 72
    24
 73
    20
 74
     0
 42
0.0000000001
 43
0.0000000001
 12
1.0
 22
0.0
 32
0.0
 13
1.0
 23
0.0
 33
0.0
 40
0.0
 40
0.0
 40
0.0
 40
0.0
 40
0.1666666666666667
 40
0.1666666666666667
 40
0.1666666666666667
 40
0.1666666666666667
 40
0.3333333333333333
 40
0.3333333333333333
 40
0.3333333333333333
 40
0.3333333333333333
 40
0.5
 40
0.5
 40
0.5
 40
0.5
 40
0.6666666666666666
 40
0.6666666666666666
 40
0.6666666666666666
 40
0.6666666666666666
 40
1.0
 40
1.0
 40
1.0
 40
1.0
 10
35.8058
 20
31.8364
 30
0.0
 10
36.3955
 20
29.3411
 30
0.0
 10
35.8705
 20
26.3664
 30
0.0
 10
33.8303
 20
24.7123
 30
0.0
 10
33.8303
 20
24.7123
 30
0.0
 10
29.9389
 20
21.3032
 30
0.0
 10
24.8082
 20
18.6629
 30
0.0
 10
19.5748
 20
19.6656
 30
0.0
 10
19.5748
 20
19.6656
 30
0.0
 10
17.6156
 20
19.8661
 30
0.0
 10
15.6836
 20
21.3476
 30
0.0
 10
15.8187
 20
23.559
 30
0.0
 10
15.8187
 20
23.559
 30
0.0
 10
16.6522
 20
31.1291
 30
0.0
 10
23.726
 20
37.4013
 30
0.0
 10
31.1512
 20
36.9333
 30
0.0
 10
31.1512
 20
36.9333
 30
0.0
 10
33.6515
 20
36.627
 30
0.0
 10
35.3239
 20
34.2261
 30
0.0
 10
35.8058
 20
31.8364
 30
0.0
  0
SPLINE
  5
62
330
1F
100
AcDbEntity
  8
layer 1
 62
   250
100
AcDbSpline
210
0.0
220
0.0
230
1.0
 70
    11
 71
     3
 72
    16
 73
    12
 74
     0
 42
0.0000000001
 43
0.0000000001
 12
1.0
 22
0.0
 32
0.0
 13
1.0
 23
0.0
 33
0.0
 40
0.0
 40
0.0
 40
0.0
 40
0.0
 40
0.25
 40
0.25
 40
0.25
 40
0.25
 40
0.5
 40
0.5
 40
0.5
 40
0.5
 40
1.0
 40
1.0
 40
1.0
 40
1.0
 10
35.1128
 20
-12.7924
 30
0.0
 10
36.4982
 20
-15.5831
 30
0.0
 10
34.7557
 20
-19.6493
 30
0.0
 10
31.5518
 20
-19.7607
 30
0.0
 10
31.5518
 20
-19.7607
 30
0.0
 10
27.7039
 20
-19.3876
 30
0.0
 10
26.2045
 20
-13.8506
 30
0.0
 10
28.299
 20
-10.9041
 30
0.0
 10
28.299
 20
-10.9041
 30
0.0
 10
30.2745
 20
-8.5478
 30
0.0
 10
34.3012
 20
-10.0128
 30
0.0
 10
35.1128
 20
-12.7924
 30
0.0
  0
SPLINE
  5
63
330
1F
100
AcDbEntity
  8
layer 1
 62
   250
100
AcDbSpline
210
0.0
220
0.0
230
1.0
 70
    11
 71
     3
 72
    28
 73
    24
 74
     0
 42
0.0000000001
 43
0.0000000001
 12
1.0
 22
0.0
 32
0.0
 13
1.0
 23
0.0
 33
0.0
 40
0.0
 40
0.0
 40
0.0
 40
0.0
 40
0.1428571428571428
 40
0.1428571428571428
 40
0.1428571428571428
 40
0.1428571428571428
 40
0.2857142857142857
 40
0.2857142857142857
 40
0.2857142857142857
 40
0.2857142857142857
 40
0.4285714285714285
 40
0.4285714285714285
 40
0.4285714285714285
 40
0.4285714285714285
 40
0.5714285714285714
 40
0.5714285714285714
 40
0.5714285714285714
 40
0.5714285714285714
 40
0.7142857142857143
 40
0.7142857142857143
 40
0.7142857142857143
 40
0.7142857142857143
 40
1.0
 40
1.0
 40
1.0
 40
1.0
 10
34.4526
 20
59.4818
 30
0.0
 10
34.7557
 20
57.1312
 30
0.0
 10
34.7287
 20
54.5243
 30
0.0
 10
33.3593
 20
52.5078
 30
0.0
 10
33.3593
 20
52.5078
 30
0.0
 10
31.9847
 20
50.5304
 30
0.0
 10
29.5546
 20
49.16
 30
0.0
 10
27.1571
 20
49.6559
 30
0.0
 10
27.1571
 20
49.6559
 30
0.0
 10
24.949
 20
50.029
 30
0.0
 10
23.623
 20
52.1178
 30
0.0
 10
22.5732
 20
53.956
 30
0.0
 10
22.5732
 20
53.956
 30
0.0
 10
20.3488
 20
57.961
 30
0.0
 10
20.8793
 20
63.3307
 30
0.0
 10
23.6448
 20
66.9125
 30
0.0
 10
23.6448
 20
66.9125
 30
0.0
 10
25.8798
 20
68.9734
 30
0.0
 10
30.3071
 20
69.4525
 30
0.0
 10
32.001
 20
66.4445
 30
0.0
 10
32.001
 20
66.4445
 30
0.0
 10
33.3324
 20
64.3556
 30
0.0
 10
34.0143
 20
61.9159
 30
0.0
 10
34.4526
 20
59.4818
 30
0.0
  0
SPLINE
  5
64
330
1F
100
AcDbEntity
  8
layer 1
 62
   250
100
AcDbSpline
210
0.0
220
0.0
230
1.0
 70
    11
 71
     3
 72
    16
 73
    12
 74
     0
 42
0.0000000001
 43
0.0000000001
 12
1.0
 22
0.0
 32
0.0
 13
1.0
 23
0.0
 33
0.0
 40
0.0
 40
0.0
 40
0.0
 40
0.0
 40
0.25
 40
0.25
 40
0.25
 40
0.25
 40
0.5
 40
0.5
 40
0.5
 40
0.5
 40
1.0
 40
1.0
 40
1.0
 40
1.0
 10
34.5608
 20
44.4588
 30
0.0
 10
34.826
 20
41.1556
 30
0.0
 10
30.4908
 20
38.7993
 30
0.0
 10
28.0933
 20
41.161
 30
0.0
 10
28.0933
 20
41.161
 30
0.0
 10
25.1656
 20
43.3724
 30
0.0
 10
27.8281
 20
48.1741
 30
0.0
 10
31.0159
 20
48.0071
 30
0.0
 10
31.0159
 20
48.0071
 30
0.0
 10
32.8832
 20
47.9847
 30
0.0
 10
34.2686
 20
46.2413
 30
0.0
 10
34.5608
 20
44.4588
 30
0.0
  0
SPLINE
  5
65
330
1F
100
AcDbEntity
  8
layer 1
 62
   250
100
AcDbSpline
210
0.0
220
0.0
230
1.0
 70
    11
 71
     3
 72
    16
 73
    12
 74
     0
 42
0.0000000001
 43
0.0000000001
 12
1.0
 22
0.0
 32
0.0
 13
1.0
 23
0.0
 33
0.0
 40
0.0
 40
0.0
 40
0.0
 40
0.0
 40
0.25
 40
0.25
 40
0.25
 40
0.25
 40
0.5
 40
0.5
 40
0.5
 40
0.5
 40
1.0
 40
1.0
 40
1.0
 40
1.0
 10
31.4651
 20
99.7325
 30
0.0
 10
34.9288
 20
98.9693
 30
0.0
 10
34.3012
 20
92.8197
 30
0.0
 10
31.0431
 20
92.1178
 30
0.0
 10
31.0431
 20
92.1178
 30
0.0
 10
29.0839
 20
91.4382
 30
0.0
 10
27.1516
 20
92.9032
 30
0.0
 10
26.5456
 20
94.786
 30
0.0
 10
26.5456
 20
94.786
 30
0.0
 10
26.9027
 20
97.2981
 30
0.0
 10
28.7969
 20
99.8604
 30
0.0
 10
31.4651
 20
99.7325
 30
0.0
  0
SPLINE
  5
66
330
1F
100
AcDbEntity
  8
layer 1
 62
   250
100
AcDbSpline
210
0.0
220
0.0
230
1.0
 70
    11
 71
     3
 72
    20
 73
    16
 74
     0
 42
0.0000000001
 43
0.0000000001
 12
1.0
 22
0.0
 32
0.0
 13
1.0
 23
0.0
 33
0.0
 40
0.0
 40
0.0
 40
0.0
 40
0.0
 40
0.2
 40
0.2
 40
0.2
 40
0.2
 40
0.4
 40
0.4
 40
0.4
 40
0.4
 40
0.6
 40
0.6
 40
0.6
 40
0.6
 40
1.0
 40
1.0
 40
1.0
 40
1.0
 10
32.2497
 20
-103.1253
 30
0.0
 10
33.2186
 20
-105.2085
 30
0.0
 10
31.6331
 20
-107.8989
 30
0.0
 10
29.3869
 20
-107.9433
 30
0.0
 10
29.3869
 20
-107.9433
 30
0.0
 10
28.4398
 20
-107.7764
 30
0.0
 10
27.2655
 20
-107.6092
 30
0.0
 10
26.7513
 20
-106.6455
 30
0.0
 10
26.7513
 20
-106.6455
 30
0.0
 10
25.3172
 20
-104.228
 30
0.0
 10
27.5359
 20
-100.4739
 30
0.0
 10
30.3177
 20
-100.9305
 30
0.0
 10
30.3177
 20
-100.9305
 30
0.0
 10
31.3029
 20
-101.2313
 30
0.0
 10
31.8711
 20
-102.2115
 30
0.0
 10
32.2497
 20
-103.1253
 30
0.0
  0
SPLINE
  5
67
330
1F
100
AcDbEntity
  8
layer 1
 62
   250
100
AcDbSpline
210
0.0
220
0.0
230
1.0
 70
    11
 71
     3
 72
    20
 73
    16
 74
     0
 42
0.0000000001
 43
0.0000000001
 12
1.0
 22
0.0
 32
0.0
 13
1.0
 23
0.0
 33
0.0
 40
0.0
 40
0.0
 40
0.0
 40
0.0
 40
0.2
 40
0.2
 40
0.2
 40
0.2
 40
0.4
 40
0.4
 40
0.4
 40
0.4
 40
0.6
 40
0.6
 40
0.6
 40
0.6
 40
1.0
 40
1.0
 40
1.0
 40
1.0
 10
31.7573
 20
-93.0766
 30
0.0
 10
32.6829
 20
-96.3239
 30
0.0
 10
29.6413
 20
-99.8442
 30
0.0
 10
26.4103
 20
-99.0978
 30
0.0
 10
26.4103
 20
-99.0978
 30
0.0
 10
23.8502
 20
-98.6691
 30
0.0
 10
23.1901
 20
-95.5942
 30
0.0
 10
23.0224
 20
-93.3606
 30
0.0
 10
23.0224
 20
-93.3606
 30
0.0
 10
22.6055
 20
-90.8428
 30
0.0
 10
25.1004
 20
-89.1938
 30
0.0
 10
27.1842
 20
-88.7762
 30
0.0
 10
27.1842
 20
-88.7762
 30
0.0
 10
29.5926
 20
-88.5199
 30
0.0
 10
31.4814
 20
-90.7705
 30
0.0
 10
31.7573
 20
-93.0766
 30
0.0
  0
SPLINE
  5
68
330
1F
100
AcDbEntity
  8
layer 1
 62
   250
100
AcDbSpline
210
0.0
220
0.0
230
1.0
 70
    11
 71
     3
 72
    28
 73
    24
 74
     0
 42
0.0000000001
 43
0.0000000001
 12
1.0
 22
0.0
 32
0.0
 13
1.0
 23
0.0
 33
0.0
 40
0.0
 40
0.0
 40
0.0
 40
0.0
 40
0.1428571428571428
 40
0.1428571428571428
 40
0.1428571428571428
 40
0.1428571428571428
 40
0.2857142857142857
 40
0.2857142857142857
 40
0.2857142857142857
 40
0.2857142857142857
 40
0.4285714285714285
 40
0.4285714285714285
 40
0.4285714285714285
 40
0.4285714285714285
 40
0.5714285714285714
 40
0.5714285714285714
 40
0.5714285714285714
 40
0.5714285714285714
 40
0.7142857142857143
 40
0.7142857142857143
 40
0.7142857142857143
 40
0.7142857142857143
 40
1.0
 40
1.0
 40
1.0
 40
1.0
 10
31.2866
 20
-39.0227
 30
0.0
 10
31.9252
 20
-41.9079
 30
0.0
 10
31.2162
 20
-45.2503
 30
0.0
 10
28.8836
 20
-47.1497
 30
0.0
 10
28.8836
 20
-47.1497
 30
0.0
 10
26.1722
 20
-49.3277
 30
0.0
 10
23.3037
 20
-51.7951
 30
0.0
 10
19.6993
 20
-51.9734
 30
0.0
 10
19.6993
 20
-51.9734
 30
0.0
 10
16.9661
 20
-52.4693
 30
0.0
 10
14.1843
 20
-50.6312
 30
0.0
 10
13.3617
 20
-47.9408
 30
0.0
 10
13.3617
 20
-47.9408
 30
0.0
 10
11.6732
 20
-42.5989
 30
0.0
 10
13.3022
 20
-35.8753
 30
0.0
 10
18.2434
 20
-32.9735
 30
0.0
 10
18.2434
 20
-32.9735
 30
0.0
 10
21.2905
 20
-31.4861
 30
0.0
 10
24.8191
 20
-32.734
 30
0.0
 10
27.4764
 20
-34.5163
 30
0.0
 10
27.4764
 20
-34.5163
 30
0.0
 10
29.0298
 20
-35.6916
 30
0.0
 10
30.8104
 20
-36.984
 30
0.0
 10
31.2866
 20
-39.0227
 30
0.0
  0
SPLINE
  5
69
330
1F
100
AcDbEntity
  8
layer 1
 62
   250
100
AcDbSpline
210
0.0
220
0.0
230
1.0
 70
    11
 71
     3
 72
    36
 73
    32
 74
     0
 42
0.0000000001
 43
0.0000000001
 12
1.0
 22
0.0
 32
0.0
 13
1.0
 23
0.0
 33
0.0
 40
0.0
 40
0.0
 40
0.0
 40
0.0
 40
0.1111111111111111
 40
0.1111111111111111
 40
0.1111111111111111
 40
0.1111111111111111
 40
0.2222222222222222
 40
0.2222222222222222
 40
0.2222222222222222
 40
0.2222222222222222
 40
0.3333333333333333
 40
0.3333333333333333
 40
0.3333333333333333
 40
0.3333333333333333
 40
0.4444444444444444
 40
0.4444444444444444
 40
0.4444444444444444
 40
0.4444444444444444
 40
0.5555555555555556
 40
0.5555555555555556
 40
0.5555555555555556
 40
0.5555555555555556
 40
0.6666666666666666
 40
0.6666666666666666
 40
0.6666666666666666
 40
0.6666666666666666
 40
0.7777777777777778
 40
0.7777777777777778
 40
0.7777777777777778
 40
0.7777777777777778
 40
1.0
 40
1.0
 40
1.0
 40
1.0
 10
29.057
 20
3.8572
 30
0.0
 10
29.7984
 20
0.3925
 30
0.0
 10
30.2636
 20
-3.4567
 30
0.0
 10
28.5425
 20
-6.7042
 30
0.0
 10
28.5425
 20
-6.7042
 30
0.0
 10
27.7416
 20
-8.4029
 30
0.0
 10
25.7175
 20
-9.2107
 30
0.0
 10
23.975
 20
-8.8261
 30
0.0
 10
23.975
 20
-8.8261
 30
0.0
 10
21.6584
 20
-8.3083
 30
0.0
 10
19.5911
 20
-7.0381
 30
0.0
 10
17.6156
 20
-5.7514
 30
0.0
 10
17.6156
 20
-5.7514
 30
0.0
 10
14.7257
 20
-3.8854
 30
0.0
 10
13.3022
 20
-0.4375
 30
0.0
 10
12.5825
 20
2.8599
 30
0.0
 10
12.5825
 20
2.8599
 30
0.0
 10
12.0249
 20
5.6452
 30
0.0
 10
11.711
 20
8.5305
 30
0.0
 10
12.052
 20
11.3659
 30
0.0
 10
12.052
 20
11.3659
 30
0.0
 10
12.3605
 20
14.0563
 30
0.0
 10
14.98
 20
15.4489
 30
0.0
 10
17.1501
 20
16.3679
 30
0.0
 10
17.1501
 20
16.3679
 30
0.0
 10
19.9319
 20
17.532
 30
0.0
 10
22.8762
 20
15.9502
 30
0.0
 10
24.9707
 20
14.0896
 30
0.0
 10
24.9707
 20
14.0896
 30
0.0
 10
27.5957
 20
11.3881
 30
0.0
 10
28.2178
 20
7.4221
 30
0.0
 10
29.057
 20
3.8572
 30
0.0
  0
SPLINE
  5
6A
330
1F
100
AcDbEntity
  8
layer 1
 62
   250
100
AcDbSpline
210
0.0
220
0.0
230
1.0
 70
    11
 71
     3
 72
    32
 73
    28
 74
     0
 42
0.0000000001
 43
0.0000000001
 12
1.0
 22
0.0
 32
0.0
 13
1.0
 23
0.0
 33
0.0
 40
0.0
 40
0.0
 40
0.0
 40
0.0
 40
0.125
 40
0.125
 40
0.125
 40
0.125
 40
0.25
 40
0.25
 40
0.25
 40
0.25
 40
0.375
 40
0.375
 40
0.375
 40
0.375
 40
0.5
 40
0.5
 40
0.5
 40
0.5
 40
0.625
 40
0.625
 40
0.625
 40
0.625
 40
0.75
 40
0.75
 40
0.75
 40
0.75
 40
1.0
 40
1.0
 40
1.0
 40
1.0
 10
28.4561
 20
-77.9866
 30
0.0
 10
28.8997
 20
-80.4318
 30
0.0
 10
28.1746
 20
-82.9997
 30
0.0
 10
26.7622
 20
-84.9883
 30
0.0
 10
26.7622
 20
-84.9883
 30
0.0
 10
24.2399
 20
-88.609
 30
0.0
 10
20.5059
 20
-91.0767
 30
0.0
 10
16.7389
 20
-93.1379
 30
0.0
 10
16.7389
 20
-93.1379
 30
0.0
 10
15.007
 20
-94.1069
 30
0.0
 10
12.6961
 20
-94.792
 30
0.0
 10
10.9859
 20
-93.394
 30
0.0
 10
10.9859
 20
-93.394
 30
0.0
 10
8.8319
 20
-91.3498
 30
0.0
 10
8.4044
 20
-88.0353
 30
0.0
 10
9.1512
 20
-85.2278
 30
0.0
 10
9.1512
 20
-85.2278
 30
0.0
 10
9.9469
 20
-81.3234
 30
0.0
 10
12.9288
 20
-78.4489
 30
0.0
 10
15.9704
 20
-76.2376
 30
0.0
 10
15.9704
 20
-76.2376
 30
0.0
 10
18.3301
 20
-74.4605
 30
0.0
 10
21.1497
 20
-72.9342
 30
0.0
 10
24.1698
 20
-73.2632
 30
0.0
 10
24.1698
 20
-73.2632
 30
0.0
 10
26.4048
 20
-73.6808
 30
0.0
 10
27.9256
 20
-75.8366
 30
0.0
 10
28.4561
 20
-77.9866
 30
0.0
  0
SPLINE
  5
6B
330
1F
100
AcDbEntity
  8
layer 1
 62
   250
100
AcDbSpline
210
0.0
220
0.0
230
1.0
 70
    11
 71
     3
 72
    32
 73
    28
 74
     0
 42
0.0000000001
 43
0.0000000001
 12
1.0
 22
0.0
 32
0.0
 13
1.0
 23
0.0
 33
0.0
 40
0.0
 40
0.0
 40
0.0
 40
0.0
 40
0.125
 40
0.125
 40
0.125
 40
0.125
 40
0.25
 40
0.25
 40
0.25
 40
0.25
 40
0.375
 40
0.375
 40
0.375
 40
0.375
 40
0.5
 40
0.5
 40
0.5
 40
0.5
 40
0.625
 40
0.625
 40
0.625
 40
0.625
 40
0.75
 40
0.75
 40
0.75
 40
0.75
 40
1.0
 40
1.0
 40
1.0
 40
1.0
 10
27.693
 20
83.6455
 30
0.0
 10
28.5643
 20
80.2364
 30
0.0
 10
27.4818
 20
76.6493
 30
0.0
 10
25.4686
 20
73.903
 30
0.0
 10
25.4686
 20
73.903
 30
0.0
 10
23.7584
 20
71.4131
 30
0.0
 10
21.4744
 20
68.4498
 30
0.0
 10
18.1461
 20
68.8677
 30
0.0
 10
18.1461
 20
68.8677
 30
0.0
 10
15.8242
 20
68.862
 30
0.0
 10
14.336
 20
70.9841
 30
0.0
 10
13.4429
 20
72.9282
 30
0.0
 10
13.4429
 20
72.9282
 30
0.0
 10
11.7542
 20
76.1533
 30
0.0
 10
11.9925
 20
79.9914
 30
0.0
 10
12.5282
 20
83.4894
 30
0.0
 10
12.5282
 20
83.4894
 30
0.0
 10
12.826
 20
85.5283
 30
0.0
 10
13.8922
 20
87.5836
 30
0.0
 10
15.7864
 20
88.447
 30
0.0
 10
15.7864
 20
88.447
 30
0.0
 10
19.0228
 20
89.8006
 30
0.0
 10
22.8004
 20
89.1602
 30
0.0
 10
25.7121
 20
87.2828
 30
0.0
 10
25.7121
 20
87.2828
 30
0.0
 10
26.8595
 20
86.4362
 30
0.0
 10
27.4223
 20
85.0213
 30
0.0
 10
27.693
 20
83.6455
 30
0.0
  0
SPLINE
  5
6C
330
1F
100
AcDbEntity
  8
layer 1
 62
   250
100
AcDbSpline
210
0.0
220
0.0
230
1.0
 70
    11
 71
     3
 72
    20
 73
    16
 74
     0
 42
0.0000000001
 43
0.0000000001
 12
1.0
 22
0.0
 32
0.0
 13
1.0
 23
0.0
 33
0.0
 40
0.0
 40
0.0
 40
0.0
 40
0.0
 40
0.2
 40
0.2
 40
0.2
 40
0.2
 40
0.4
 40
0.4
 40
0.4
 40
0.4
 40
0.6
 40
0.6
 40
0.6
 40
0.6
 40
1.0
 40
1.0
 40
1.0
 40
1.0
 10
27.4495
 20
-55.1988
 30
0.0
 10
28.0123
 20
-56.3294
 30
0.0
 10
28.0501
 20
-57.8055
 30
0.0
 10
27.103
 20
-58.7358
 30
0.0
 10
27.103
 20
-58.7358
 30
0.0
 10
25.5716
 20
-60.0615
 30
0.0
 10
22.8439
 20
-59.1035
 30
0.0
 10
22.4216
 20
-57.0757
 30
0.0
 10
22.4216
 20
-57.0757
 30
0.0
 10
21.7397
 20
-55.2487
 30
0.0
 10
23.0926
 20
-52.8926
 30
0.0
 10
25.0789
 20
-53.0097
 30
0.0
 10
25.0789
 20
-53.0097
 30
0.0
 10
26.3344
 20
-52.9094
 30
0.0
 10
27.0272
 20
-54.1847
 30
0.0
 10
27.4495
 20
-55.1988
 30
0.0
  0
SPLINE
  5
6D
330
1F
100
AcDbEntity
  8
layer 1
 62
   250
100
AcDbSpline
210
0.0
220
0.0
230
1.0
 70
    11
 71
     3
 72
    24
 73
    20
 74
     0
 42
0.0000000001
 43
0.0000000001
 12
1.0
 22
0.0
 32
0.0
 13
1.0
 23
0.0
 33
0.0
 40
0.0
 40
0.0
 40
0.0
 40
0.0
 40
0.1666666666666667
 40
0.1666666666666667
 40
0.1666666666666667
 40
0.1666666666666667
 40
0.3333333333333333
 40
0.3333333333333333
 40
0.3333333333333333
 40
0.3333333333333333
 40
0.5
 40
0.5
 40
0.5
 40
0.5
 40
0.6666666666666666
 40
0.6666666666666666
 40
0.6666666666666666
 40
0.6666666666666666
 40
1.0
 40
1.0
 40
1.0
 40
1.0
 10
26.3453
 20
121.3895
 30
0.0
 10
26.9299
 20
118.0362
 30
0.0
 10
26.4806
 20
114.087
 30
0.0
 10
23.9369
 20
111.6415
 30
0.0
 10
23.9369
 20
111.6415
 30
0.0
 10
21.6908
 20
109.2297
 30
0.0
 10
17.6752
 20
108.4663
 30
0.0
 10
15.0447
 20
110.6557
 30
0.0
 10
15.0447
 20
110.6557
 30
0.0
 10
12.1711
 20
113.1401
 30
0.0
 10
11.5542
 20
117.5795
 30
0.0
 10
12.5988
 20
121.1277
 30
0.0
 10
12.5988
 20
121.1277
 30
0.0
 10
13.4375
 20
124.2137
 30
0.0
 10
16.7172
 20
125.9795
 30
0.0
 10
19.6938
 20
125.7568
 30
0.0
 10
19.6938
 20
125.7568
 30
0.0
 10
22.5352
 20
125.9961
 30
0.0
 10
25.7067
 20
124.4642
 30
0.0
 10
26.3453
 20
121.3895
 30
0.0
  0
SPLINE
  5
6E
330
1F
100
AcDbEntity
  8
layer 1
 62
   250
100
AcDbSpline
210
0.0
220
0.0
230
1.0
 70
    11
 71
     3
 72
    28
 73
    24
 74
     0
 42
0.0000000001
 43
0.0000000001
 12
1.0
 22
0.0
 32
0.0
 13
1.0
 23
0.0
 33
0.0
 40
0.0
 40
0.0
 40
0.0
 40
0.0
 40
0.1428571428571428
 40
0.1428571428571428
 40
0.1428571428571428
 40
0.1428571428571428
 40
0.2857142857142857
 40
0.2857142857142857
 40
0.2857142857142857
 40
0.2857142857142857
 40
0.4285714285714285
 40
0.4285714285714285
 40
0.4285714285714285
 40
0.4285714285714285
 40
0.5714285714285714
 40
0.5714285714285714
 40
0.5714285714285714
 40
0.5714285714285714
 40
0.7142857142857143
 40
0.7142857142857143
 40
0.7142857142857143
 40
0.7142857142857143
 40
1.0
 40
1.0
 40
1.0
 40
1.0
 10
25.2034
 20
-14.5303
 30
0.0
 10
27.5036
 20
-20.8192
 30
0.0
 10
23.7638
 20
-29.3582
 30
0.0
 10
17.0419
 20
-30.5335
 30
0.0
 10
17.0419
 20
-30.5335
 30
0.0
 10
14.7039
 20
-30.8343
 30
0.0
 10
12.2037
 20
-30.6785
 30
0.0
 10
10.0334
 20
-29.6701
 30
0.0
 10
10.0334
 20
-29.6701
 30
0.0
 10
7.1434
 20
-27.871
 30
0.0
 10
6.2936
 20
-24.2058
 30
0.0
 10
5.877
 20
-20.9918
 30
0.0
 10
5.877
 20
-20.9918
 30
0.0
 10
5.4492
 20
-17.9171
 30
0.0
 10
6.1313
 20
-14.3967
 30
0.0
 10
8.5666
 20
-12.3466
 30
0.0
 10
8.5666
 20
-12.3466
 30
0.0
 10
11.5379
 20
-10.0629
 30
0.0
 10
15.494
 20
-9.6787
 30
0.0
 10
19.0661
 20
-10.2022
 30
0.0
 10
19.0661
 20
-10.2022
 30
0.0
 10
21.5826
 20
-10.5865
 30
0.0
 10
24.2508
 20
-11.9455
 30
0.0
 10
25.2034
 20
-14.5303
 30
0.0
  0
SPLINE
  5
6F
330
1F
100
AcDbEntity
  8
layer 1
 62
   250
100
AcDbSpline
210
0.0
220
0.0
230
1.0
 70
    11
 71
     3
 72
    20
 73
    16
 74
     0
 42
0.0000000001
 43
0.0000000001
 12
1.0
 22
0.0
 32
0.0
 13
1.0
 23
0.0
 33
0.0
 40
0.0
 40
0.0
 40
0.0
 40
0.0
 40
0.2
 40
0.2
 40
0.2
 40
0.2
 40
0.4
 40
0.4
 40
0.4
 40
0.4
 40
0.6
 40
0.6
 40
0.6
 40
0.6
 40
1.0
 40
1.0
 40
1.0
 40
1.0
 10
23.6176
 20
100.7127
 30
0.0
 10
24.1103
 20
98.7466
 30
0.0
 10
23.9369
 20
96.5852
 30
0.0
 10
23.2279
 20
94.6969
 30
0.0
 10
23.2279
 20
94.6969
 30
0.0
 10
22.2376
 20
91.8059
 30
0.0
 10
18.2217
 20
90.9536
 30
0.0
 10
15.9649
 20
92.7083
 30
0.0
 10
15.9649
 20
92.7083
 30
0.0
 10
12.6529
 20
95.9223
 30
0.0
 10
14.6931
 20
102.1164
 30
0.0
 10
18.6168
 20
103.7375
 30
0.0
 10
18.6168
 20
103.7375
 30
0.0
 10
20.7871
 20
104.7179
 30
0.0
 10
23.017
 20
102.8072
 30
0.0
 10
23.6176
 20
100.7127
 30
0.0
  0
SPLINE
  5
70
330
1F
100
AcDbEntity
  8
layer 1
 62
   250
100
AcDbSpline
210
0.0
220
0.0
230
1.0
 70
    11
 71
     3
 72
    24
 73
    20
 74
     0
 42
0.0000000001
 43
0.0000000001
 12
1.0
 22
0.0
 32
0.0
 13
1.0
 23
0.0
 33
0.0
 40
0.0
 40
0.0
 40
0.0
 40
0.0
 40
0.1666666666666667
 40
0.1666666666666667
 40
0.1666666666666667
 40
0.1666666666666667
 40
0.3333333333333333
 40
0.3333333333333333
 40
0.3333333333333333
 40
0.3333333333333333
 40
0.5
 40
0.5
 40
0.5
 40
0.5
 40
0.6666666666666666
 40
0.6666666666666666
 40
0.6666666666666666
 40
0.6666666666666666
 40
1.0
 40
1.0
 40
1.0
 40
1.0
 10
23.6448
 20
46.1798
 30
0.0
 10
24.5432
 20
43.8628
 30
0.0
 10
23.3146
 20
41.3616
 30
0.0
 10
22.3838
 20
39.2505
 30
0.0
 10
22.3838
 20
39.2505
 30
0.0
 10
21.2038
 20
36.5379
 30
0.0
 10
17.9135
 20
35.0561
 30
0.0
 10
15.2396
 20
36.3317
 30
0.0
 10
15.2396
 20
36.3317
 30
0.0
 10
13.3726
 20
37.5292
 30
0.0
 10
14.0058
 20
40.1418
 30
0.0
 10
14.5145
 20
41.9298
 30
0.0
 10
14.5145
 20
41.9298
 30
0.0
 10
15.2507
 20
44.1468
 30
0.0
 10
16.2517
 20
46.8706
 30
0.0
 10
18.7089
 20
47.5058
 30
0.0
 10
18.7089
 20
47.5058
 30
0.0
 10
20.3974
 20
47.9234
 30
0.0
 10
22.8004
 20
48.1573
 30
0.0
 10
23.6448
 20
46.1798
 30
0.0
  0
SPLINE
  5
71
330
1F
100
AcDbEntity
  8
layer 1
 62
   250
100
AcDbSpline
210
0.0
220
0.0
230
1.0
 70
    11
 71
     3
 72
    28
 73
    24
 74
     0
 42
0.0000000001
 43
0.0000000001
 12
1.0
 22
0.0
 32
0.0
 13
1.0
 23
0.0
 33
0.0
 40
0.0
 40
0.0
 40
0.0
 40
0.0
 40
0.1428571428571428
 40
0.1428571428571428
 40
0.1428571428571428
 40
0.1428571428571428
 40
0.2857142857142857
 40
0.2857142857142857
 40
0.2857142857142857
 40
0.2857142857142857
 40
0.4285714285714285
 40
0.4285714285714285
 40
0.4285714285714285
 40
0.4285714285714285
 40
0.5714285714285714
 40
0.5714285714285714
 40
0.5714285714285714
 40
0.5714285714285714
 40
0.7142857142857143
 40
0.7142857142857143
 40
0.7142857142857143
 40
0.7142857142857143
 40
1.0
 40
1.0
 40
1.0
 40
1.0
 10
23.6067
 20
-63.5874
 30
0.0
 10
24.1804
 20
-65.8713
 30
0.0
 10
24.0182
 20
-68.6398
 30
0.0
 10
22.0751
 20
-70.205
 30
0.0
 10
22.0751
 20
-70.205
 30
0.0
 10
20.3053
 20
-71.8204
 30
0.0
 10
17.567
 20
-73.7754
 30
0.0
 10
15.2235
 20
-72.2882
 30
0.0
 10
15.2235
 20
-72.2882
 30
0.0
 10
13.4592
 20
-70.8066
 30
0.0
 10
13.4212
 20
-68.1997
 30
0.0
 10
13.3022
 20
-66.0551
 30
0.0
 10
13.3022
 20
-66.0551
 30
0.0
 10
13.1508
 20
-63.1308
 30
0.0
 10
14.4659
 20
-60.2899
 30
0.0
 10
16.4954
 20
-58.3068
 30
0.0
 10
16.4954
 20
-58.3068
 30
0.0
 10
17.4966
 20
-57.4825
 30
0.0
 10
19.0337
 20
-56.9256
 30
0.0
 10
20.192
 20
-57.7331
 30
0.0
 10
20.192
 20
-57.7331
 30
0.0
 10
22.1509
 20
-59.0144
 30
0.0
 10
23.0602
 20
-61.365
 30
0.0
 10
23.6067
 20
-63.5874
 30
0.0
  0
SPLINE
  5
72
330
1F
100
AcDbEntity
  8
layer 1
 62
   250
100
AcDbSpline
210
0.0
220
0.0
230
1.0
 70
    11
 71
     3
 72
    24
 73
    20
 74
     0
 42
0.0000000001
 43
0.0000000001
 12
1.0
 22
0.0
 32
0.0
 13
1.0
 23
0.0
 33
0.0
 40
0.0
 40
0.0
 40
0.0
 40
0.0
 40
0.1666666666666667
 40
0.1666666666666667
 40
0.1666666666666667
 40
0.1666666666666667
 40
0.3333333333333333
 40
0.3333333333333333
 40
0.3333333333333333
 40
0.3333333333333333
 40
0.5
 40
0.5
 40
0.5
 40
0.5
 40
0.6666666666666666
 40
0.6666666666666666
 40
0.6666666666666666
 40
0.6666666666666666
 40
1.0
 40
1.0
 40
1.0
 40
1.0
 10
22.2484
 20
-98.5409
 30
0.0
 10
23.4768
 20
-102.869
 30
0.0
 10
20.1053
 20
-107.5035
 30
0.0
 10
16.0299
 20
-108.5341
 30
0.0
 10
16.0299
 20
-108.5341
 30
0.0
 10
14.0816
 20
-109.2303
 30
0.0
 10
11.711
 20
-108.2498
 30
0.0
 10
10.8236
 20
-106.3225
 30
0.0
 10
10.8236
 20
-106.3225
 30
0.0
 10
9.9521
 20
-104.7963
 30
0.0
 10
10.1633
 20
-102.9413
 30
0.0
 10
10.4878
 20
-101.2926
 30
0.0
 10
10.4878
 20
-101.2926
 30
0.0
 10
11.1158
 20
-98.5688
 30
0.0
 10
13.4538
 20
-96.6692
 30
0.0
 10
15.8513
 20
-95.6332
 30
0.0
 10
15.8513
 20
-95.6332
 30
0.0
 10
18.2597
 20
-94.4077
 30
0.0
 10
21.4853
 20
-95.9061
 30
0.0
 10
22.2484
 20
-98.5409
 30
0.0
  0
SPLINE
  5
73
330
1F
100
AcDbEntity
  8
layer 1
 62
   250
100
AcDbSpline
210
0.0
220
0.0
230
1.0
 70
    11
 71
     3
 72
    28
 73
    24
 74
     0
 42
0.0000000001
 43
0.0000000001
 12
1.0
 22
0.0
 32
0.0
 13
1.0
 23
0.0
 33
0.0
 40
0.0
 40
0.0
 40
0.0
 40
0.0
 40
0.1428571428571428
 40
0.1428571428571428
 40
0.1428571428571428
 40
0.1428571428571428
 40
0.2857142857142857
 40
0.2857142857142857
 40
0.2857142857142857
 40
0.2857142857142857
 40
0.4285714285714285
 40
0.4285714285714285
 40
0.4285714285714285
 40
0.4285714285714285
 40
0.5714285714285714
 40
0.5714285714285714
 40
0.5714285714285714
 40
0.5714285714285714
 40
0.7142857142857143
 40
0.7142857142857143
 40
0.7142857142857143
 40
0.7142857142857143
 40
1.0
 40
1.0
 40
1.0
 40
1.0
 10
19.3528
 20
61.7934
 30
0.0
 10
19.84
 20
59.3203
 30
0.0
 10
19.5044
 20
56.741
 30
0.0
 10
19.1527
 20
54.2679
 30
0.0
 10
19.1527
 20
54.2679
 30
0.0
 10
18.6549
 20
51.8504
 30
0.0
 10
17.1718
 20
48.7925
 30
0.0
 10
14.39
 20
48.8705
 30
0.0
 10
14.39
 20
48.8705
 30
0.0
 10
11.1158
 20
49.1935
 30
0.0
 10
8.8968
 20
52.207
 30
0.0
 10
7.6087
 20
55.0533
 30
0.0
 10
7.6087
 20
55.0533
 30
0.0
 10
6.299
 20
57.6491
 30
0.0
 10
7.5926
 20
60.6793
 30
0.0
 10
9.4162
 20
62.6123
 30
0.0
 10
9.4162
 20
62.6123
 30
0.0
 10
10.6774
 20
63.9101
 30
0.0
 10
11.814
 20
65.7315
 30
0.0
 10
13.7514
 20
65.9098
 30
0.0
 10
13.7514
 20
65.9098
 30
0.0
 10
16.3329
 20
66.3556
 30
0.0
 10
18.5736
 20
64.1608
 30
0.0
 10
19.3528
 20
61.7934
 30
0.0
  0
SPLINE
  5
74
330
1F
100
AcDbEntity
  8
layer 1
 62
   250
100
AcDbSpline
210
0.0
220
0.0
230
1.0
 70
    11
 71
     3
 72
    24
 73
    20
 74
     0
 42
0.0000000001
 43
0.0000000001
 12
1.0
 22
0.0
 32
0.0
 13
1.0
 23
0.0
 33
0.0
 40
0.0
 40
0.0
 40
0.0
 40
0.0
 40
0.1666666666666667
 40
0.1666666666666667
 40
0.1666666666666667
 40
0.1666666666666667
 40
0.3333333333333333
 40
0.3333333333333333
 40
0.3333333333333333
 40
0.3333333333333333
 40
0.5
 40
0.5
 40
0.5
 40
0.5
 40
0.6666666666666666
 40
0.6666666666666666
 40
0.6666666666666666
 40
0.6666666666666666
 40
1.0
 40
1.0
 40
1.0
 40
1.0
 10
14.1952
 20
28.5558
 30
0.0
 10
14.4496
 20
25.57
 30
0.0
 10
13.9843
 20
22.4728
 30
0.0
 10
13.1127
 20
19.6154
 30
0.0
 10
13.1127
 20
19.6154
 30
0.0
 10
12.4795
 20
17.6323
 30
0.0
 10
11.0723
 20
15.5657
 30
0.0
 10
8.8642
 20
15.4153
 30
0.0
 10
8.8642
 20
15.4153
 30
0.0
 10
5.6226
 20
15.1758
 30
0.0
 10
2.9381
 20
18.245
 30
0.0
 10
2.6674
 20
21.4202
 30
0.0
 10
2.6674
 20
21.4202
 30
0.0
 10
2.4674
 20
24.4727
 30
0.0
 10
3.2033
 20
27.748
 30
0.0
 10
5.1679
 20
30.1153
 30
0.0
 10
5.1679
 20
30.1153
 30
0.0
 10
7.6032
 20
32.8115
 30
0.0
 10
13.3565
 20
32.7445
 30
0.0
 10
14.1952
 20
28.5558
 30
0.0
  0
SPLINE
  5
75
330
1F
100
AcDbEntity
  8
layer 1
 62
   250
100
AcDbSpline
210
0.0
220
0.0
230
1.0
 70
    11
 71
     3
 72
    32
 73
    28
 74
     0
 42
0.0000000001
 43
0.0000000001
 12
1.0
 22
0.0
 32
0.0
 13
1.0
 23
0.0
 33
0.0
 40
0.0
 40
0.0
 40
0.0
 40
0.0
 40
0.125
 40
0.125
 40
0.125
 40
0.125
 40
0.25
 40
0.25
 40
0.25
 40
0.25
 40
0.375
 40
0.375
 40
0.375
 40
0.375
 40
0.5
 40
0.5
 40
0.5
 40
0.5
 40
0.625
 40
0.625
 40
0.625
 40
0.625
 40
0.75
 40
0.75
 40
0.75
 40
0.75
 40
1.0
 40
1.0
 40
1.0
 40
1.0
 10
13.4212
 20
106.3834
 30
0.0
 10
14.4713
 20
102.1053
 30
0.0
 10
12.117
 20
97.9444
 30
0.0
 10
9.2213
 20
95.0644
 30
0.0
 10
9.2213
 20
95.0644
 30
0.0
 10
6.4721
 20
91.9119
 30
0.0
 10
1.8882
 20
91.2043
 30
0.0
 10
-1.9382
 20
92.324
 30
0.0
 10
-1.9382
 20
92.324
 30
0.0
 10
-4.6768
 20
93.1427
 30
0.0
 10
-7.5396
 20
94.3682
 30
0.0
 10
-9.2716
 20
96.8247
 30
0.0
 10
-9.2716
 20
96.8247
 30
0.0
 10
-10.9926
 20
99.2978
 30
0.0
 10
-10.7761
 20
102.6177
 30
0.0
 10
-9.91
 20
105.3808
 30
0.0
 10
-9.91
 20
105.3808
 30
0.0
 10
-8.8764
 20
108.3942
 30
0.0
 10
-7.4477
 20
111.6583
 30
0.0
 10
-4.4493
 20
113.0564
 30
0.0
 10
-4.4493
 20
113.0564
 30
0.0
 10
-0.8721
 20
114.7108
 30
0.0
 10
3.3224
 20
115.8081
 30
0.0
 10
7.1434
 20
114.3821
 30
0.0
 10
7.1434
 20
114.3821
 30
0.0
 10
10.5962
 20
113.335
 30
0.0
 10
12.5176
 20
109.7254
 30
0.0
 10
13.4212
 20
106.3834
 30
0.0
  0
SPLINE
  5
76
330
1F
100
AcDbEntity
  8
layer 1
 62
   250
100
AcDbSpline
210
0.0
220
0.0
230
1.0
 70
    11
 71
     3
 72
    16
 73
    12
 74
     0
 42
0.0000000001
 43
0.0000000001
 12
1.0
 22
0.0
 32
0.0
 13
1.0
 23
0.0
 33
0.0
 40
0.0
 40
0.0
 40
0.0
 40
0.0
 40
0.25
 40
0.25
 40
0.25
 40
0.25
 40
0.5
 40
0.5
 40
0.5
 40
0.5
 40
1.0
 40
1.0
 40
1.0
 40
1.0
 10
12.8529
 20
-3.4008
 30
0.0
 10
13.129
 20
-5.4116
 30
0.0
 10
11.8843
 20
-7.7178
 30
0.0
 10
9.7735
 20
-7.8961
 30
0.0
 10
9.7735
 20
-7.8961
 30
0.0
 10
5.8226
 20
-8.4029
 30
0.0
 10
3.5441
 20
-1.7689
 30
0.0
 10
7.1597
 20
0.2698
 30
0.0
 10
7.1597
 20
0.2698
 30
0.0
 10
9.714
 20
1.8464
 30
0.0
 10
12.7393
 20
-0.6102
 30
0.0
 10
12.8529
 20
-3.4008
 30
0.0
  0
SPLINE
  5
77
330
1F
100
AcDbEntity
  8
layer 1
 62
   250
100
AcDbSpline
210
0.0
220
0.0
230
1.0
 70
    11
 71
     3
 72
    20
 73
    16
 74
     0
 42
0.0000000001
 43
0.0000000001
 12
1.0
 22
0.0
 32
0.0
 13
1.0
 23
0.0
 33
0.0
 40
0.0
 40
0.0
 40
0.0
 40
0.0
 40
0.2
 40
0.2
 40
0.2
 40
0.2
 40
0.4
 40
0.4
 40
0.4
 40
0.4
 40
0.6
 40
0.6
 40
0.6
 40
0.6
 40
1.0
 40
1.0
 40
1.0
 40
1.0
 10
12.9288
 20
-53.9956
 30
0.0
 10
14.2224
 20
-57.9505
 30
0.0
 10
12.4904
 20
-62.9693
 30
0.0
 10
8.6694
 20
-64.6735
 30
0.0
 10
8.6694
 20
-64.6735
 30
0.0
 10
6.5857
 20
-65.5315
 30
0.0
 10
4.3181
 20
-64.2004
 30
0.0
 10
3.3819
 20
-62.2452
 30
0.0
 10
3.3819
 20
-62.2452
 30
0.0
 10
0.9194
 20
-58.2957
 30
0.0
 10
3.2846
 20
-52.6699
 30
0.0
 10
7.4951
 20
-51.2607
 30
0.0
 10
7.4951
 20
-51.2607
 30
0.0
 10
9.6382
 20
-50.2022
 30
0.0
 10
12.2037
 20
-51.8287
 30
0.0
 10
12.9288
 20
-53.9956
 30
0.0
  0
SPLINE
  5
78
330
1F
100
AcDbEntity
  8
layer 1
 62
   250
100
AcDbSpline
210
0.0
220
0.0
230
1.0
 70
    11
 71
     3
 72
    20
 73
    16
 74
     0
 42
0.0000000001
 43
0.0000000001
 12
1.0
 22
0.0
 32
0.0
 13
1.0
 23
0.0
 33
0.0
 40
0.0
 40
0.0
 40
0.0
 40
0.0
 40
0.2
 40
0.2
 40
0.2
 40
0.2
 40
0.4
 40
0.4
 40
0.4
 40
0.4
 40
0.6
 40
0.6
 40
0.6
 40
0.6
 40
1.0
 40
1.0
 40
1.0
 40
1.0
 10
11.7436
 20
41.7627
 30
0.0
 10
12.2469
 20
39.7464
 30
0.0
 10
12.0088
 20
37.5349
 30
0.0
 10
11.1644
 20
35.6523
 30
0.0
 10
11.1644
 20
35.6523
 30
0.0
 10
10.0929
 20
33.8139
 30
0.0
 10
7.0458
 20
34.0423
 30
0.0
 10
6.1582
 20
35.9531
 30
0.0
 10
6.1582
 20
35.9531
 30
0.0
 10
5.0921
 20
38.8996
 30
0.0
 10
6.3748
 20
42.9382
 30
0.0
 10
9.476
 20
43.8962
 30
0.0
 10
9.476
 20
43.8962
 30
0.0
 10
10.7315
 20
44.2861
 30
0.0
 10
11.5161
 20
42.8155
 30
0.0
 10
11.7436
 20
41.7627
 30
0.0
  0
SPLINE
  5
79
330
1F
100
AcDbEntity
  8
layer 1
 62
   250
100
AcDbSpline
210
0.0
220
0.0
230
1.0
 70
    11
 71
     3
 72
    20
 73
    16
 74
     0
 42
0.0000000001
 43
0.0000000001
 12
1.0
 22
0.0
 32
0.0
 13
1.0
 23
0.0
 33
0.0
 40
0.0
 40
0.0
 40
0.0
 40
0.0
 40
0.2
 40
0.2
 40
0.2
 40
0.2
 40
0.4
 40
0.4
 40
0.4
 40
0.4
 40
0.6
 40
0.6
 40
0.6
 40
0.6
 40
1.0
 40
1.0
 40
1.0
 40
1.0
 10
11.224
 20
87.9846
 30
0.0
 10
11.9167
 20
84.8931
 30
0.0
 10
10.1092
 20
80.7377
 30
0.0
 10
6.6833
 20
80.5819
 30
0.0
 10
6.6833
 20
80.5819
 30
0.0
 10
5.0704
 20
80.5819
 30
0.0
 10
3.3332
 20
81.306
 30
0.0
 10
2.3644
 20
82.6707
 30
0.0
 10
2.3644
 20
82.6707
 30
0.0
 10
0.5946
 20
86.6145
 30
0.0
 10
4.2208
 20
91.7726
 30
0.0
 10
8.4476
 20
91.0984
 30
0.0
 10
8.4476
 20
91.0984
 30
0.0
 10
9.7521
 20
90.5415
 30
0.0
 10
10.8775
 20
89.4274
 30
0.0
 10
11.224
 20
87.9846
 30
0.0
  0
SPLINE
  5
7A
330
1F
100
AcDbEntity
  8
layer 1
 62
   250
100
AcDbSpline
210
0.0
220
0.0
230
1.0
 70
    11
 71
     3
 72
    24
 73
    20
 74
     0
 42
0.0000000001
 43
0.0000000001
 12
1.0
 22
0.0
 32
0.0
 13
1.0
 23
0.0
 33
0.0
 40
0.0
 40
0.0
 40
0.0
 40
0.0
 40
0.1666666666666667
 40
0.1666666666666667
 40
0.1666666666666667
 40
0.1666666666666667
 40
0.3333333333333333
 40
0.3333333333333333
 40
0.3333333333333333
 40
0.3333333333333333
 40
0.5
 40
0.5
 40
0.5
 40
0.5
 40
0.6666666666666666
 40
0.6666666666666666
 40
0.6666666666666666
 40
0.6666666666666666
 40
1.0
 40
1.0
 40
1.0
 40
1.0
 10
11.1916
 20
75.7024
 30
0.0
 10
12.0575
 20
72.8892
 30
0.0
 10
11.4729
 20
69.7644
 30
0.0
 10
10.3309
 20
67.1187
 30
0.0
 10
10.3309
 20
67.1187
 30
0.0
 10
8.7941
 20
63.6036
 30
0.0
 10
5.0649
 20
62.0885
 30
0.0
 10
1.7801
 20
60.8631
 30
0.0
 10
1.7801
 20
60.8631
 30
0.0
 10
-0.0168
 20
60.0222
 30
0.0
 10
-2.0464
 20
61.3587
 30
0.0
 10
-2.7554
 20
63.0801
 30
0.0
 10
-2.7554
 20
63.0801
 30
0.0
 10
-5.1801
 20
69.1571
 30
0.0
 10
-1.6352
 20
76.7663
 30
0.0
 10
4.3507
 20
78.8438
 30
0.0
 10
4.3507
 20
78.8438
 30
0.0
 10
6.9268
 20
79.7852
 30
0.0
 10
10.4989
 20
78.699
 30
0.0
 10
11.1916
 20
75.7024
 30
0.0
  0
SPLINE
  5
7B
330
1F
100
AcDbEntity
  8
layer 1
 62
   250
100
AcDbSpline
210
0.0
220
0.0
230
1.0
 70
    11
 71
     3
 72
    24
 73
    20
 74
     0
 42
0.0000000001
 43
0.0000000001
 12
1.0
 22
0.0
 32
0.0
 13
1.0
 23
0.0
 33
0.0
 40
0.0
 40
0.0
 40
0.0
 40
0.0
 40
0.1666666666666667
 40
0.1666666666666667
 40
0.1666666666666667
 40
0.1666666666666667
 40
0.3333333333333333
 40
0.3333333333333333
 40
0.3333333333333333
 40
0.3333333333333333
 40
0.5
 40
0.5
 40
0.5
 40
0.5
 40
0.6666666666666666
 40
0.6666666666666666
 40
0.6666666666666666
 40
0.6666666666666666
 40
1.0
 40
1.0
 40
1.0
 40
1.0
 10
11.2131
 20
-35.1404
 30
0.0
 10
12.4687
 20
-38.8278
 30
0.0
 10
10.7478
 20
-42.6935
 30
0.0
 10
9.4325
 20
-46.1024
 30
0.0
 10
9.4325
 20
-46.1024
 30
0.0
 10
7.9226
 20
-49.8402
 30
0.0
 10
2.6188
 20
-51.0211
 30
0.0
 10
-0.0764
 20
-47.9798
 30
0.0
 10
-0.0764
 20
-47.9798
 30
0.0
 10
-2.1654
 20
-45.3728
 30
0.0
 10
-2.7283
 20
-41.5906
 30
0.0
 10
-1.9059
 20
-38.3709
 30
0.0
 10
-1.9059
 20
-38.3709
 30
0.0
 10
-0.8286
 20
-35.5247
 30
0.0
 10
1.8882
 20
-33.6529
 30
0.0
 10
4.5673
 20
-32.6001
 30
0.0
 10
4.5673
 20
-32.6001
 30
0.0
 10
7.008
 20
-31.6088
 30
0.0
 10
10.0605
 20
-32.7004
 30
0.0
 10
11.2131
 20
-35.1404
 30
0.0
  0
SPLINE
  5
7C
330
1F
100
AcDbEntity
  8
layer 1
 62
   250
100
AcDbSpline
210
0.0
220
0.0
230
1.0
 70
    11
 71
     3
 72
    20
 73
    16
 74
     0
 42
0.0000000001
 43
0.0000000001
 12
1.0
 22
0.0
 32
0.0
 13
1.0
 23
0.0
 33
0.0
 40
0.0
 40
0.0
 40
0.0
 40
0.0
 40
0.2
 40
0.2
 40
0.2
 40
0.2
 40
0.4
 40
0.4
 40
0.4
 40
0.4
 40
0.6
 40
0.6
 40
0.6
 40
0.6
 40
1.0
 40
1.0
 40
1.0
 40
1.0
 10
11.4403
 20
-71.8148
 30
0.0
 10
12.1819
 20
-74.2212
 30
0.0
 10
11.1321
 20
-76.7945
 30
0.0
 10
9.7898
 20
-78.7609
 30
0.0
 10
9.7898
 20
-78.7609
 30
0.0
 10
8.5071
 20
-80.6215
 30
0.0
 10
5.9906
 20
-80.6437
 30
0.0
 10
4.0746
 20
-79.992
 30
0.0
 10
4.0746
 20
-79.992
 30
0.0
 10
-0.3036
 20
-78.3319
 30
0.0
 10
-2.0681
 20
-72.2047
 30
0.0
 10
-0.0331
 20
-68.1049
 30
0.0
 10
-0.0331
 20
-68.1049
 30
0.0
 10
3.5118
 20
-64.6237
 30
0.0
 10
10.185
 20
-67.1637
 30
0.0
 10
11.4403
 20
-71.8148
 30
0.0
  0
SPLINE
  5
7D
330
1F
100
AcDbEntity
  8
layer 1
 62
   250
100
AcDbSpline
210
0.0
220
0.0
230
1.0
 70
    11
 71
     3
 72
    20
 73
    16
 74
     0
 42
0.0000000001
 43
0.0000000001
 12
1.0
 22
0.0
 32
0.0
 13
1.0
 23
0.0
 33
0.0
 40
0.0
 40
0.0
 40
0.0
 40
0.0
 40
0.2
 40
0.2
 40
0.2
 40
0.2
 40
0.4
 40
0.4
 40
0.4
 40
0.4
 40
0.6
 40
0.6
 40
0.6
 40
0.6
 40
1.0
 40
1.0
 40
1.0
 40
1.0
 10
9.3028
 20
122.6653
 30
0.0
 10
9.5029
 20
120.4705
 30
0.0
 10
8.7995
 20
117.7579
 30
0.0
 10
6.6509
 20
116.8441
 30
0.0
 10
6.6509
 20
116.8441
 30
0.0
 10
4.5184
 20
116.1758
 30
0.0
 10
1.2819
 20
117.3064
 30
0.0
 10
1.2928
 20
119.9968
 30
0.0
 10
1.2928
 20
119.9968
 30
0.0
 10
1.3632
 20
122.526
 30
0.0
 10
3.5659
 20
124.6148
 30
0.0
 10
5.8498
 20
125.1942
 30
0.0
 10
5.8498
 20
125.1942
 30
0.0
 10
7.3706
 20
125.456
 30
0.0
 10
9.0645
 20
124.2471
 30
0.0
 10
9.3028
 20
122.6653
 30
0.0
  0
SPLINE
  5
7E
330
1F
100
AcDbEntity
  8
layer 1
 62
   250
100
AcDbSpline
210
0.0
220
0.0
230
1.0
 70
    11
 71
     3
 72
    24
 73
    20
 74
     0
 42
0.0000000001
 43
0.0000000001
 12
1.0
 22
0.0
 32
0.0
 13
1.0
 23
0.0
 33
0.0
 40
0.0
 40
0.0
 40
0.0
 40
0.0
 40
0.1666666666666667
 40
0.1666666666666667
 40
0.1666666666666667
 40
0.1666666666666667
 40
0.3333333333333333
 40
0.3333333333333333
 40
0.3333333333333333
 40
0.3333333333333333
 40
0.5
 40
0.5
 40
0.5
 40
0.5
 40
0.6666666666666666
 40
0.6666666666666666
 40
0.6666666666666666
 40
0.6666666666666666
 40
1.0
 40
1.0
 40
1.0
 40
1.0
 10
8.2256
 20
10.6474
 30
0.0
 10
9.3787
 20
6.9153
 30
0.0
 10
7.6736
 20
2.4033
 30
0.0
 10
4.2534
 20
0.6042
 30
0.0
 10
4.2534
 20
0.6042
 30
0.0
 10
1.1088
 20
-1.2229
 30
0.0
 10
-3.1829
 20
-2.2589
 30
0.0
 10
-6.3112
 20
0.1362
 30
0.0
 10
-6.3112
 20
0.1362
 30
0.0
 10
-8.016
 20
2.125
 30
0.0
 10
-8.9631
 20
5.0772
 30
0.0
 10
-8.032
 20
7.656
 30
0.0
 10
-8.032
 20
7.656
 30
0.0
 10
-6.9118
 20
11.3268
 30
0.0
 10
-4.1572
 20
14.9197
 30
0.0
 10
-0.2658
 20
15.5156
 30
0.0
 10
-0.2658
 20
15.5156
 30
0.0
 10
3.2033
 20
16.2565
 30
0.0
 10
6.97
 20
14.0061
 30
0.0
 10
8.2256
 20
10.6474
 30
0.0
  0
SPLINE
  5
7F
330
1F
100
AcDbEntity
  8
layer 1
 62
   250
100
AcDbSpline
210
0.0
220
0.0
230
1.0
 70
    11
 71
     3
 72
    20
 73
    16
 74
     0
 42
0.0000000001
 43
0.0000000001
 12
1.0
 22
0.0
 32
0.0
 13
1.0
 23
0.0
 33
0.0
 40
0.0
 40
0.0
 40
0.0
 40
0.0
 40
0.2
 40
0.2
 40
0.2
 40
0.2
 40
0.4
 40
0.4
 40
0.4
 40
0.4
 40
0.6
 40
0.6
 40
0.6
 40
0.6
 40
1.0
 40
1.0
 40
1.0
 40
1.0
 10
8.0092
 20
-100.2509
 30
0.0
 10
8.9889
 20
-103.025
 30
0.0
 10
7.2787
 20
-106.1388
 30
0.0
 10
4.6105
 20
-106.9965
 30
0.0
 10
4.6105
 20
-106.9965
 30
0.0
 10
2.0614
 20
-107.3195
 30
0.0
 10
-1.0612
 20
-105.1694
 30
0.0
 10
-0.5041
 20
-102.2619
 30
0.0
 10
-0.5041
 20
-102.2619
 30
0.0
 10
0.0103
 20
-100.4067
 30
0.0
 10
1.2279
 20
-98.8027
 30
0.0
 10
2.6351
 20
-97.5662
 30
0.0
 10
2.6351
 20
-97.5662
 30
0.0
 10
4.6429
 20
-95.8505
 30
0.0
 10
7.6032
 20
-97.9504
 30
0.0
 10
8.0092
 20
-100.2509
 30
0.0
  0
SPLINE
  5
80
330
1F
100
AcDbEntity
  8
layer 1
 62
   250
100
AcDbSpline
210
0.0
220
0.0
230
1.0
 70
    11
 71
     3
 72
    28
 73
    24
 74
     0
 42
0.0000000001
 43
0.0000000001
 12
1.0
 22
0.0
 32
0.0
 13
1.0
 23
0.0
 33
0.0
 40
0.0
 40
0.0
 40
0.0
 40
0.0
 40
0.1428571428571428
 40
0.1428571428571428
 40
0.1428571428571428
 40
0.1428571428571428
 40
0.2857142857142857
 40
0.2857142857142857
 40
0.2857142857142857
 40
0.2857142857142857
 40
0.4285714285714285
 40
0.4285714285714285
 40
0.4285714285714285
 40
0.4285714285714285
 40
0.5714285714285714
 40
0.5714285714285714
 40
0.5714285714285714
 40
0.5714285714285714
 40
0.7142857142857143
 40
0.7142857142857143
 40
0.7142857142857143
 40
0.7142857142857143
 40
1.0
 40
1.0
 40
1.0
 40
1.0
 10
6.3748
 20
51.817
 30
0.0
 10
7.2948
 20
47.734
 30
0.0
 10
5.877
 20
43.4783
 30
0.0
 10
3.6091
 20
40.1362
 30
0.0
 10
3.6091
 20
40.1362
 30
0.0
 10
2.1209
 20
37.9137
 30
0.0
 10
-0.596
 20
37.2674
 30
0.0
 10
-3.0207
 20
36.8441
 30
0.0
 10
-3.0207
 20
36.8441
 30
0.0
 10
-5.6726
 20
36.4598
 30
0.0
 10
-8.1079
 20
38.0696
 30
0.0
 10
-9.9752
 20
39.8353
 30
0.0
 10
-9.9752
 20
39.8353
 30
0.0
 10
-12.2156
 20
41.9355
 30
0.0
 10
-13.4117
 20
45.3389
 30
0.0
 10
-12.405
 20
48.3746
 30
0.0
 10
-12.405
 20
48.3746
 30
0.0
 10
-10.0779
 20
53.6107
 30
0.0
 10
-4.6768
 20
56.7022
 30
0.0
 10
0.7245
 20
57.3204
 30
0.0
 10
0.7245
 20
57.3204
 30
0.0
 10
3.6743
 20
57.3873
 30
0.0
 10
5.9202
 20
54.63
 30
0.0
 10
6.3748
 20
51.817
 30
0.0
  0
SPLINE
  5
81
330
1F
100
AcDbEntity
  8
layer 1
 62
   250
100
AcDbSpline
210
0.0
220
0.0
230
1.0
 70
    11
 71
     3
 72
    20
 73
    16
 74
     0
 42
0.0000000001
 43
0.0000000001
 12
1.0
 22
0.0
 32
0.0
 13
1.0
 23
0.0
 33
0.0
 40
0.0
 40
0.0
 40
0.0
 40
0.0
 40
0.2
 40
0.2
 40
0.2
 40
0.2
 40
0.4
 40
0.4
 40
0.4
 40
0.4
 40
0.6
 40
0.6
 40
0.6
 40
0.6
 40
1.0
 40
1.0
 40
1.0
 40
1.0
 10
5.8066
 20
-84.7043
 30
0.0
 10
7.1108
 20
-88.6982
 30
0.0
 10
5.2761
 20
-93.9731
 30
0.0
 10
1.2009
 20
-95.3825
 30
0.0
 10
1.2009
 20
-95.3825
 30
0.0
 10
-2.9555
 20
-97.2597
 30
0.0
 10
-7.8483
 20
-93.3606
 30
0.0
 10
-8.1027
 20
-88.9545
 30
0.0
 10
-8.1027
 20
-88.9545
 30
0.0
 10
-7.8861
 20
-83.7742
 30
0.0
 10
-2.3929
 20
-79.925
 30
0.0
 10
2.3916
 20
-81.1337
 30
0.0
 10
2.3916
 20
-81.1337
 30
0.0
 10
4.0205
 20
-81.6518
 30
0.0
 10
5.1734
 20
-83.1336
 30
0.0
 10
5.8066
 20
-84.7043
 30
0.0
  0
SPLINE
  5
82
330
1F
100
AcDbEntity
  8
layer 1
 62
   250
100
AcDbSpline
210
0.0
220
0.0
230
1.0
 70
    11
 71
     3
 72
    24
 73
    20
 74
     0
 42
0.0000000001
 43
0.0000000001
 12
1.0
 22
0.0
 32
0.0
 13
1.0
 23
0.0
 33
0.0
 40
0.0
 40
0.0
 40
0.0
 40
0.0
 40
0.1666666666666667
 40
0.1666666666666667
 40
0.1666666666666667
 40
0.1666666666666667
 40
0.3333333333333333
 40
0.3333333333333333
 40
0.3333333333333333
 40
0.3333333333333333
 40
0.5
 40
0.5
 40
0.5
 40
0.5
 40
0.6666666666666666
 40
0.6666666666666666
 40
0.6666666666666666
 40
0.6666666666666666
 40
1.0
 40
1.0
 40
1.0
 40
1.0
 10
5.2598
 20
-9.4781
 30
0.0
 10
6.0066
 20
-12.6978
 30
0.0
 10
4.5888
 20
-15.9785
 30
0.0
 10
2.516
 20
-18.3404
 30
0.0
 10
2.516
 20
-18.3404
 30
0.0
 10
1.4605
 20
-19.5436
 30
0.0
 10
-0.2603
 20
-20.0447
 30
0.0
 10
-1.7648
 20
-19.5323
 30
0.0
 10
-1.7648
 20
-19.5323
 30
0.0
 10
-6.1759
 20
-18.0451
 30
0.0
 10
-9.0389
 20
-12.5919
 30
0.0
 10
-7.4692
 20
-8.0243
 30
0.0
 10
-7.4692
 20
-8.0243
 30
0.0
 10
-6.4789
 20
-5.1945
 30
0.0
 10
-3.3397
 20
-3.3396
 30
0.0
 10
-0.4824
 20
-4.2588
 30
0.0
 10
-0.4824
 20
-4.2588
 30
0.0
 10
1.9529
 20
-5.0721
 30
0.0
 10
4.6268
 20
-6.7373
 30
0.0
 10
5.2598
 20
-9.4781
 30
0.0
  0
SPLINE
  5
83
330
1F
100
AcDbEntity
  8
layer 1
 62
   250
100
AcDbSpline
210
0.0
220
0.0
230
1.0
 70
    11
 71
     3
 72
    24
 73
    20
 74
     0
 42
0.0000000001
 43
0.0000000001
 12
1.0
 22
0.0
 32
0.0
 13
1.0
 23
0.0
 33
0.0
 40
0.0
 40
0.0
 40
0.0
 40
0.0
 40
0.1666666666666667
 40
0.1666666666666667
 40
0.1666666666666667
 40
0.1666666666666667
 40
0.3333333333333333
 40
0.3333333333333333
 40
0.3333333333333333
 40
0.3333333333333333
 40
0.5
 40
0.5
 40
0.5
 40
0.5
 40
0.6666666666666666
 40
0.6666666666666666
 40
0.6666666666666666
 40
0.6666666666666666
 40
1.0
 40
1.0
 40
1.0
 40
1.0
 10
4.6915
 20
-24.5958
 30
0.0
 10
5.1193
 20
-26.4171
 30
0.0
 10
4.9513
 20
-28.5729
 30
0.0
 10
3.6526
 20
-29.9988
 30
0.0
 10
3.6526
 20
-29.9988
 30
0.0
 10
1.2496
 20
-32.8174
 30
0.0
 10
-4.1732
 20
-31.8871
 30
0.0
 10
-5.1312
 20
-28.1051
 30
0.0
 10
-5.1312
 20
-28.1051
 30
0.0
 10
-5.5535
 20
-26.4673
 30
0.0
 10
-4.5143
 20
-25.0023
 30
0.0
 10
-3.3508
 20
-24.0164
 30
0.0
 10
-3.3508
 20
-24.0164
 30
0.0
 10
-1.9491
 20
-22.6907
 30
0.0
 10
-0.1682
 20
-21.5823
 30
0.0
 10
1.7907
 20
-21.6045
 30
0.0
 10
1.7907
 20
-21.6045
 30
0.0
 10
3.3767
 20
-21.5934
 30
0.0
 10
4.3073
 20
-23.2088
 30
0.0
 10
4.6915
 20
-24.5958
 30
0.0
  0
SPLINE
  5
84
330
1F
100
AcDbEntity
  8
layer 1
 62
   250
100
AcDbSpline
210
0.0
220
0.0
230
1.0
 70
    11
 71
     3
 72
    28
 73
    24
 74
     0
 42
0.0000000001
 43
0.0000000001
 12
1.0
 22
0.0
 32
0.0
 13
1.0
 23
0.0
 33
0.0
 40
0.0
 40
0.0
 40
0.0
 40
0.0
 40
0.1428571428571428
 40
0.1428571428571428
 40
0.1428571428571428
 40
0.1428571428571428
 40
0.2857142857142857
 40
0.2857142857142857
 40
0.2857142857142857
 40
0.2857142857142857
 40
0.4285714285714285
 40
0.4285714285714285
 40
0.4285714285714285
 40
0.4285714285714285
 40
0.5714285714285714
 40
0.5714285714285714
 40
0.5714285714285714
 40
0.5714285714285714
 40
0.7142857142857143
 40
0.7142857142857143
 40
0.7142857142857143
 40
0.7142857142857143
 40
1.0
 40
1.0
 40
1.0
 40
1.0
 10
0.2916
 20
-54.6584
 30
0.0
 10
0.849
 20
-57.1315
 30
0.0
 10
1.2333
 20
-59.7997
 30
0.0
 10
0.4215
 20
-62.2617
 30
0.0
 10
0.4215
 20
-62.2617
 30
0.0
 10
-0.2334
 20
-64.1278
 30
0.0
 10
-2.3603
 20
-65.0413
 30
0.0
 10
-4.1732
 20
-64.5567
 30
0.0
 10
-4.1732
 20
-64.5567
 30
0.0
 10
-6.7656
 20
-63.9998
 30
0.0
 10
-9.764
 20
-62.9858
 30
0.0
 10
-11.0737
 20
-60.4181
 30
0.0
 10
-11.0737
 20
-60.4181
 30
0.0
 10
-11.983
 20
-57.2654
 30
0.0
 10
-10.9763
 20
-53.6558
 30
0.0
 10
-8.8169
 20
-51.2716
 30
0.0
 10
-8.8169
 20
-51.2716
 30
0.0
 10
-7.123
 20
-49.5838
 30
0.0
 10
-4.5415
 20
-50.3025
 30
0.0
 10
-2.5119
 20
-50.826
 30
0.0
 10
-2.5119
 20
-50.826
 30
0.0
 10
-0.8071
 20
-51.2607
 30
0.0
 10
-0.0386
 20
-53.0487
 30
0.0
 10
0.2916
 20
-54.6584
 30
0.0
  0
SPLINE
  5
85
330
1F
100
AcDbEntity
  8
layer 1
 62
   250
100
AcDbSpline
210
0.0
220
0.0
230
1.0
 70
    11
 71
     3
 72
    32
 73
    28
 74
     0
 42
0.0000000001
 43
0.0000000001
 12
1.0
 22
0.0
 32
0.0
 13
1.0
 23
0.0
 33
0.0
 40
0.0
 40
0.0
 40
0.0
 40
0.0
 40
0.125
 40
0.125
 40
0.125
 40
0.125
 40
0.25
 40
0.25
 40
0.25
 40
0.25
 40
0.375
 40
0.375
 40
0.375
 40
0.375
 40
0.5
 40
0.5
 40
0.5
 40
0.5
 40
0.625
 40
0.625
 40
0.625
 40
0.625
 40
0.75
 40
0.75
 40
0.75
 40
0.75
 40
1.0
 40
1.0
 40
1.0
 40
1.0
 10
-0.1739
 20
31.1682
 30
0.0
 10
0.7408
 20
28.3496
 30
0.0
 10
0.8599
 20
25.0296
 30
0.0
 10
-0.7585
 20
22.4506
 30
0.0
 10
-0.7585
 20
22.4506
 30
0.0
 10
-1.711
 20
20.7964
 30
0.0
 10
-3.421
 20
19.6322
 30
0.0
 10
-5.2991
 20
19.4761
 30
0.0
 10
-5.2991
 20
19.4761
 30
0.0
 10
-8.2323
 20
19.064
 30
0.0
 10
-11.7555
 20
19.5152
 30
0.0
 10
-13.5959
 20
22.1888
 30
0.0
 10
-13.5959
 20
22.1888
 30
0.0
 10
-14.7702
 20
24.5117
 30
0.0
 10
-15.3004
 20
27.1854
 30
0.0
 10
-15.1705
 20
29.7923
 30
0.0
 10
-15.1705
 20
29.7923
 30
0.0
 10
-15.0787
 20
31.3855
 30
0.0
 10
-14.5482
 20
33.151
 30
0.0
 10
-13.0926
 20
33.9532
 30
0.0
 10
-13.0926
 20
33.9532
 30
0.0
 10
-10.3755
 20
35.4851
 30
0.0
 10
-7.0849
 20
35.7135
 30
0.0
 10
-4.0814
 20
35.1341
 30
0.0
 10
-4.0814
 20
35.1341
 30
0.0
 10
-2.1439
 20
34.7943
 30
0.0
 10
-0.699
 20
33.0508
 30
0.0
 10
-0.1739
 20
31.1682
 30
0.0
  0
SPLINE
  5
86
330
1F
100
AcDbEntity
  8
layer 1
 62
   250
100
AcDbSpline
210
0.0
220
0.0
230
1.0
 70
    11
 71
     3
 72
    24
 73
    20
 74
     0
 42
0.0000000001
 43
0.0000000001
 12
1.0
 22
0.0
 32
0.0
 13
1.0
 23
0.0
 33
0.0
 40
0.0
 40
0.0
 40
0.0
 40
0.0
 40
0.1666666666666667
 40
0.1666666666666667
 40
0.1666666666666667
 40
0.1666666666666667
 40
0.3333333333333333
 40
0.3333333333333333
 40
0.3333333333333333
 40
0.3333333333333333
 40
0.5
 40
0.5
 40
0.5
 40
0.5
 40
0.6666666666666666
 40
0.6666666666666666
 40
0.6666666666666666
 40
0.6666666666666666
 40
1.0
 40
1.0
 40
1.0
 40
1.0
 10
-0.7204
 20
85.7343
 30
0.0
 10
-0.1304
 20
83.7067
 30
0.0
 10
-0.3416
 20
81.4729
 30
0.0
 10
-1.0072
 20
79.4901
 30
0.0
 10
-1.0072
 20
79.4901
 30
0.0
 10
-2.4578
 20
74.8222
 30
0.0
 10
-9.6072
 20
73.4575
 30
0.0
 10
-12.3727
 20
77.5628
 30
0.0
 10
-12.3727
 20
77.5628
 30
0.0
 10
-14.6294
 20
80.9104
 30
0.0
 10
-16.1502
 20
85.2666
 30
0.0
 10
-14.8947
 20
89.3103
 30
0.0
 10
-14.8947
 20
89.3103
 30
0.0
 10
-14.2182
 20
91.4382
 30
0.0
 10
-12.4591
 20
93.8335
 30
0.0
 10
-10.0021
 20
93.3712
 30
0.0
 10
-10.0021
 20
93.3712
 30
0.0
 10
-6.1759
 20
92.1401
 30
0.0
 10
-2.2793
 20
89.7114
 30
0.0
 10
-0.7204
 20
85.7343
 30
0.0
  0
SPLINE
  5
87
330
1F
100
AcDbEntity
  8
layer 1
 62
   250
100
AcDbSpline
210
0.0
220
0.0
230
1.0
 70
    11
 71
     3
 72
    28
 73
    24
 74
     0
 42
0.0000000001
 43
0.0000000001
 12
1.0
 22
0.0
 32
0.0
 13
1.0
 23
0.0
 33
0.0
 40
0.0
 40
0.0
 40
0.0
 40
0.0
 40
0.1428571428571428
 40
0.1428571428571428
 40
0.1428571428571428
 40
0.1428571428571428
 40
0.2857142857142857
 40
0.2857142857142857
 40
0.2857142857142857
 40
0.2857142857142857
 40
0.4285714285714285
 40
0.4285714285714285
 40
0.4285714285714285
 40
0.4285714285714285
 40
0.5714285714285714
 40
0.5714285714285714
 40
0.5714285714285714
 40
0.5714285714285714
 40
0.7142857142857143
 40
0.7142857142857143
 40
0.7142857142857143
 40
0.7142857142857143
 40
1.0
 40
1.0
 40
1.0
 40
1.0
 10
-2.8636
 20
-101.404
 30
0.0
 10
-2.3766
 20
-103.4649
 30
0.0
 10
-3.1775
 20
-105.771
 30
0.0
 10
-4.969
 20
-106.8794
 30
0.0
 10
-4.969
 20
-106.8794
 30
0.0
 10
-7.2961
 20
-108.2165
 30
0.0
 10
-10.1643
 20
-108.9183
 30
0.0
 10
-12.7678
 20
-108.0772
 30
0.0
 10
-12.7678
 20
-108.0772
 30
0.0
 10
-14.6023
 20
-107.4477
 30
0.0
 10
-16.1231
 20
-105.4312
 30
0.0
 10
-15.6469
 20
-103.3814
 30
0.0
 10
-15.6469
 20
-103.3814
 30
0.0
 10
-15.2572
 20
-101.727
 30
0.0
 10
-14.6512
 20
-100.0672
 30
0.0
 10
-13.6065
 20
-98.7247
 30
0.0
 10
-13.6065
 20
-98.7247
 30
0.0
 10
-11.8585
 20
-97.2819
 30
0.0
 10
-9.4229
 20
-97.3266
 30
0.0
 10
-7.3015
 20
-97.332
 30
0.0
 10
-7.3015
 20
-97.332
 30
0.0
 10
-5.0989
 20
-97.3711
 30
0.0
 10
-3.1234
 20
-99.1368
 30
0.0
 10
-2.8636
 20
-101.404
 30
0.0
  0
SPLINE
  5
88
330
1F
100
AcDbEntity
  8
layer 1
 62
   250
100
AcDbSpline
210
0.0
220
0.0
230
1.0
 70
    11
 71
     3
 72
    36
 73
    32
 74
     0
 42
0.0000000001
 43
0.0000000001
 12
1.0
 22
0.0
 32
0.0
 13
1.0
 23
0.0
 33
0.0
 40
0.0
 40
0.0
 40
0.0
 40
0.0
 40
0.1111111111111111
 40
0.1111111111111111
 40
0.1111111111111111
 40
0.1111111111111111
 40
0.2222222222222222
 40
0.2222222222222222
 40
0.2222222222222222
 40
0.2222222222222222
 40
0.3333333333333333
 40
0.3333333333333333
 40
0.3333333333333333
 40
0.3333333333333333
 40
0.4444444444444444
 40
0.4444444444444444
 40
0.4444444444444444
 40
0.4444444444444444
 40
0.5555555555555556
 40
0.5555555555555556
 40
0.5555555555555556
 40
0.5555555555555556
 40
0.6666666666666666
 40
0.6666666666666666
 40
0.6666666666666666
 40
0.6666666666666666
 40
0.7777777777777778
 40
0.7777777777777778
 40
0.7777777777777778
 40
0.7777777777777778
 40
1.0
 40
1.0
 40
1.0
 40
1.0
 10
-3.4536
 20
-70.2216
 30
0.0
 10
-2.3548
 20
-73.0068
 30
0.0
 10
-3.6052
 20
-76.0482
 30
0.0
 10
-5.1529
 20
-78.3709
 30
0.0
 10
-5.1529
 20
-78.3709
 30
0.0
 10
-7.1879
 20
-81.2396
 30
0.0
 10
-9.7425
 20
-83.9412
 30
0.0
 10
-13.0545
 20
-85.178
 30
0.0
 10
-13.0545
 20
-85.178
 30
0.0
 10
-15.0787
 20
-85.9799
 30
0.0
 10
-17.1408
 20
-86.8099
 30
0.0
 10
-19.3163
 20
-87.0159
 30
0.0
 10
-19.3163
 20
-87.0159
 30
0.0
 10
-21.7679
 20
-87.144
 30
0.0
 10
-24.2739
 20
-85.4785
 30
0.0
 10
-24.8095
 20
-82.9385
 30
0.0
 10
-24.8095
 20
-82.9385
 30
0.0
 10
-25.4645
 20
-80.0811
 30
0.0
 10
-25.7838
 20
-77.0788
 30
0.0
 10
-25.3724
 20
-74.1654
 30
0.0
 10
-25.3724
 20
-74.1654
 30
0.0
 10
-24.7174
 20
-71.2969
 30
0.0
 10
-23.3105
 20
-68.6788
 30
0.0
 10
-21.8546
 20
-66.1721
 30
0.0
 10
-21.8546
 20
-66.1721
 30
0.0
 10
-19.6574
 20
-62.2617
 30
0.0
 10
-14.2182
 20
-62.0278
 30
0.0
 10
-10.6951
 20
-64.0389
 30
0.0
 10
-10.6951
 20
-64.0389
 30
0.0
 10
-7.9725
 20
-65.5816
 30
0.0
 10
-4.5847
 20
-66.9631
 30
0.0
 10
-3.4536
 20
-70.2216
 30
0.0
  0
SPLINE
  5
89
330
1F
100
AcDbEntity
  8
layer 1
 62
   250
100
AcDbSpline
210
0.0
220
0.0
230
1.0
 70
    11
 71
     3
 72
    24
 73
    20
 74
     0
 42
0.0000000001
 43
0.0000000001
 12
1.0
 22
0.0
 32
0.0
 13
1.0
 23
0.0
 33
0.0
 40
0.0
 40
0.0
 40
0.0
 40
0.0
 40
0.1666666666666667
 40
0.1666666666666667
 40
0.1666666666666667
 40
0.1666666666666667
 40
0.3333333333333333
 40
0.3333333333333333
 40
0.3333333333333333
 40
0.3333333333333333
 40
0.5
 40
0.5
 40
0.5
 40
0.5
 40
0.6666666666666666
 40
0.6666666666666666
 40
0.6666666666666666
 40
0.6666666666666666
 40
1.0
 40
1.0
 40
1.0
 40
1.0
 10
-3.5941
 20
120.4426
 30
0.0
 10
-2.8959
 20
118.6711
 30
0.0
 10
-4.1844
 20
116.911
 30
0.0
 10
-5.5264
 20
115.9195
 30
0.0
 10
-5.5264
 20
115.9195
 30
0.0
 10
-8.3408
 20
114.2095
 30
0.0
 10
-12.3401
 20
113.7249
 30
0.0
 10
-14.9977
 20
115.9975
 30
0.0
 10
-14.9977
 20
115.9975
 30
0.0
 10
-17.1786
 20
117.8356
 30
0.0
 10
-17.6387
 20
121.4621
 30
0.0
 10
-16.1339
 20
123.8793
 30
0.0
 10
-16.1339
 20
123.8793
 30
0.0
 10
-14.9542
 20
125.6953
 30
0.0
 10
-12.5945
 20
125.9573
 30
0.0
 10
-10.6625
 20
125.6674
 30
0.0
 10
-10.6625
 20
125.6674
 30
0.0
 10
-7.6858
 20
125.2888
 30
0.0
 10
-4.5089
 20
123.5842
 30
0.0
 10
-3.5941
 20
120.4426
 30
0.0
  0
SPLINE
  5
8A
330
1F
100
AcDbEntity
  8
layer 1
 62
   250
100
AcDbSpline
210
0.0
220
0.0
230
1.0
 70
    11
 71
     3
 72
    24
 73
    20
 74
     0
 42
0.0000000001
 43
0.0000000001
 12
1.0
 22
0.0
 32
0.0
 13
1.0
 23
0.0
 33
0.0
 40
0.0
 40
0.0
 40
0.0
 40
0.0
 40
0.1666666666666667
 40
0.1666666666666667
 40
0.1666666666666667
 40
0.1666666666666667
 40
0.3333333333333333
 40
0.3333333333333333
 40
0.3333333333333333
 40
0.3333333333333333
 40
0.5
 40
0.5
 40
0.5
 40
0.5
 40
0.6666666666666666
 40
0.6666666666666666
 40
0.6666666666666666
 40
0.6666666666666666
 40
1.0
 40
1.0
 40
1.0
 40
1.0
 10
-4.5252
 20
-36.271
 30
0.0
 10
-3.4319
 20
-39.886
 30
0.0
 10
-4.0759
 20
-44.1528
 30
0.0
 10
-6.4085
 20
-47.1164
 30
0.0
 10
-6.4085
 20
-47.1164
 30
0.0
 10
-8.5302
 20
-49.7789
 30
0.0
 10
-13.1249
 20
-49.2163
 30
0.0
 10
-14.6186
 20
-46.1636
 30
0.0
 10
-14.6186
 20
-46.1636
 30
0.0
 10
-15.7119
 20
-43.852
 30
0.0
 10
-15.6795
 20
-41.1505
 30
0.0
 10
-15.4684
 20
-38.6438
 30
0.0
 10
-15.4684
 20
-38.6438
 30
0.0
 10
-15.2627
 20
-35.5079
 30
0.0
 10
-13.1141
 20
-32.5557
 30
0.0
 10
-10.2619
 20
-31.4582
 30
0.0
 10
-10.2619
 20
-31.4582
 30
0.0
 10
-7.2529
 20
-30.7899
 30
0.0
 10
-5.1801
 20
-33.6141
 30
0.0
 10
-4.5252
 20
-36.271
 30
0.0
  0
SPLINE
  5
8B
330
1F
100
AcDbEntity
  8
layer 1
 62
   250
100
AcDbSpline
210
0.0
220
0.0
230
1.0
 70
    11
 71
     3
 72
    28
 73
    24
 74
     0
 42
0.0000000001
 43
0.0000000001
 12
1.0
 22
0.0
 32
0.0
 13
1.0
 23
0.0
 33
0.0
 40
0.0
 40
0.0
 40
0.0
 40
0.0
 40
0.1428571428571428
 40
0.1428571428571428
 40
0.1428571428571428
 40
0.1428571428571428
 40
0.2857142857142857
 40
0.2857142857142857
 40
0.2857142857142857
 40
0.2857142857142857
 40
0.4285714285714285
 40
0.4285714285714285
 40
0.4285714285714285
 40
0.4285714285714285
 40
0.5714285714285714
 40
0.5714285714285714
 40
0.5714285714285714
 40
0.5714285714285714
 40
0.7142857142857143
 40
0.7142857142857143
 40
0.7142857142857143
 40
0.7142857142857143
 40
1.0
 40
1.0
 40
1.0
 40
1.0
 10
-5.5641
 20
67.3078
 30
0.0
 10
-5.5209
 20
65.5255
 30
0.0
 10
-6.1813
 20
63.8264
 30
0.0
 10
-6.5599
 20
62.111
 30
0.0
 10
-6.5599
 20
62.111
 30
0.0
 10
-7.2581
 20
59.504
 30
0.0
 10
-7.9184
 20
56.5017
 30
0.0
 10
-10.3053
 20
54.9643
 30
0.0
 10
-10.3053
 20
54.9643
 30
0.0
 10
-11.9398
 20
53.9338
 30
0.0
 10
-14.2343
 20
53.1316
 30
0.0
 10
-15.9826
 20
54.346
 30
0.0
 10
-15.9826
 20
54.346
 30
0.0
 10
-17.5792
 20
55.4153
 30
0.0
 10
-17.8227
 20
57.5266
 30
0.0
 10
-18.0121
 20
59.3089
 30
0.0
 10
-18.0121
 20
59.3089
 30
0.0
 10
-18.5532
 20
63.1692
 30
0.0
 10
-16.3668
 20
66.7062
 30
0.0
 10
-14.0612
 20
69.536
 30
0.0
 10
-14.0612
 20
69.536
 30
0.0
 10
-11.8585
 20
72.6386
 30
0.0
 10
-5.7212
 20
71.4299
 30
0.0
 10
-5.5641
 20
67.3078
 30
0.0
  0
SPLINE
  5
8C
330
1F
100
AcDbEntity
  8
layer 1
 62
   250
100
AcDbSpline
210
0.0
220
0.0
230
1.0
 70
    11
 71
     3
 72
    24
 73
    20
 74
     0
 42
0.0000000001
 43
0.0000000001
 12
1.0
 22
0.0
 32
0.0
 13
1.0
 23
0.0
 33
0.0
 40
0.0
 40
0.0
 40
0.0
 40
0.0
 40
0.1666666666666667
 40
0.1666666666666667
 40
0.1666666666666667
 40
0.1666666666666667
 40
0.3333333333333333
 40
0.3333333333333333
 40
0.3333333333333333
 40
0.3333333333333333
 40
0.5
 40
0.5
 40
0.5
 40
0.5
 40
0.6666666666666666
 40
0.6666666666666666
 40
0.6666666666666666
 40
0.6666666666666666
 40
1.0
 40
1.0
 40
1.0
 40
1.0
 10
-6.0568
 20
-18.9364
 30
0.0
 10
-4.2058
 20
-24.0332
 30
0.0
 10
-8.568
 20
-29.2915
 30
0.0
 10
-13.3252
 20
-30.3276
 30
0.0
 10
-13.3252
 20
-30.3276
 30
0.0
 10
-18.1798
 20
-31.6866
 30
0.0
 10
-23.0887
 20
-27.0022
 30
0.0
 10
-22.9694
 20
-22.0446
 30
0.0
 10
-22.9694
 20
-22.0446
 30
0.0
 10
-23.1482
 20
-19.0255
 30
0.0
 10
-20.7667
 20
-16.647
 30
0.0
 10
-18.3369
 20
-15.3882
 30
0.0
 10
-18.3369
 20
-15.3882
 30
0.0
 10
-15.9067
 20
-14.1793
 30
0.0
 10
-12.876
 20
-13.1376
 30
0.0
 10
-10.3216
 20
-14.5861
 30
0.0
 10
-10.3216
 20
-14.5861
 30
0.0
 10
-8.584
 20
-15.611
 30
0.0
 10
-6.8632
 20
-16.9979
 30
0.0
 10
-6.0568
 20
-18.9364
 30
0.0
  0
SPLINE
  5
8D
330
1F
100
AcDbEntity
  8
layer 1
 62
   250
100
AcDbSpline
210
0.0
220
0.0
230
1.0
 70
    11
 71
     3
 72
    16
 73
    12
 74
     0
 42
0.0000000001
 43
0.0000000001
 12
1.0
 22
0.0
 32
0.0
 13
1.0
 23
0.0
 33
0.0
 40
0.0
 40
0.0
 40
0.0
 40
0.0
 40
0.25
 40
0.25
 40
0.25
 40
0.25
 40
0.5
 40
0.5
 40
0.5
 40
0.5
 40
1.0
 40
1.0
 40
1.0
 40
1.0
 10
-7.6804
 20
16.1451
 30
0.0
 10
-6.8686
 20
13.0371
 30
0.0
 10
-9.7371
 20
9.1434
 30
0.0
 10
-12.995
 20
10.3298
 30
0.0
 10
-12.995
 20
10.3298
 30
0.0
 10
-15.8581
 20
11.377
 30
0.0
 10
-16.1774
 20
15.6327
 30
0.0
 10
-13.5796
 20
17.17
 30
0.0
 10
-13.5796
 20
17.17
 30
0.0
 10
-11.8857
 20
18.9358
 30
0.0
 10
-8.3785
 20
18.8412
 30
0.0
 10
-7.6804
 20
16.1451
 30
0.0
  0
SPLINE
  5
8E
330
1F
100
AcDbEntity
  8
layer 1
 62
   250
100
AcDbSpline
210
0.0
220
0.0
230
1.0
 70
    11
 71
     3
 72
    36
 73
    32
 74
     0
 42
0.0000000001
 43
0.0000000001
 12
1.0
 22
0.0
 32
0.0
 13
1.0
 23
0.0
 33
0.0
 40
0.0
 40
0.0
 40
0.0
 40
0.0
 40
0.1111111111111111
 40
0.1111111111111111
 40
0.1111111111111111
 40
0.1111111111111111
 40
0.2222222222222222
 40
0.2222222222222222
 40
0.2222222222222222
 40
0.2222222222222222
 40
0.3333333333333333
 40
0.3333333333333333
 40
0.3333333333333333
 40
0.3333333333333333
 40
0.4444444444444444
 40
0.4444444444444444
 40
0.4444444444444444
 40
0.4444444444444444
 40
0.5555555555555556
 40
0.5555555555555556
 40
0.5555555555555556
 40
0.5555555555555556
 40
0.6666666666666666
 40
0.6666666666666666
 40
0.6666666666666666
 40
0.6666666666666666
 40
0.7777777777777778
 40
0.7777777777777778
 40
0.7777777777777778
 40
0.7777777777777778
 40
1.0
 40
1.0
 40
1.0
 40
1.0
 10
-8.871
 20
0.515
 30
0.0
 10
-7.8752
 20
-2.7158
 30
0.0
 10
-8.5302
 20
-6.5202
 30
0.0
 10
-10.8247
 20
-9.0101
 30
0.0
 10
-10.8247
 20
-9.0101
 30
0.0
 10
-12.3455
 20
-10.7369
 30
0.0
 10
-14.4454
 20
-11.7339
 30
0.0
 10
-16.4804
 20
-12.6699
 30
0.0
 10
-16.4804
 20
-12.6699
 30
0.0
 10
-18.6994
 20
-13.6501
 30
0.0
 10
-21.2268
 20
-14.4969
 30
0.0
 10
-23.6244
 20
-13.7113
 30
0.0
 10
-23.6244
 20
-13.7113
 30
0.0
 10
-25.0313
 20
-13.2826
 30
0.0
 10
-26.0434
 20
-11.8621
 30
0.0
 10
-25.9895
 20
-10.3415
 30
0.0
 10
-25.9895
 20
-10.3415
 30
0.0
 10
-26.1086
 20
-6.3476
 30
0.0
 10
-24.1007
 20
-2.7938
 30
0.0
 10
-22.3851
 20
0.6432
 30
0.0
 10
-22.3851
 20
0.6432
 30
0.0
 10
-20.9075
 20
3.3669
 30
0.0
 10
-19.3813
 20
6.5365
 30
0.0
 10
-16.3723
 20
7.7175
 30
0.0
 10
-16.3723
 20
7.7175
 30
0.0
 10
-14.9868
 20
8.2297
 30
0.0
 10
-13.585
 20
7.5503
 30
0.0
 10
-12.6434
 20
6.5031
 30
0.0
 10
-12.6434
 20
6.5031
 30
0.0
 10
-10.9383
 20
4.871
 30
0.0
 10
-9.4933
 20
2.8491
 30
0.0
 10
-8.871
 20
0.515
 30
0.0
  0
SPLINE
  5
8F
330
1F
100
AcDbEntity
  8
layer 1
 62
   250
100
AcDbSpline
210
0.0
220
0.0
230
1.0
 70
    11
 71
     3
 72
    20
 73
    16
 74
     0
 42
0.0000000001
 43
0.0000000001
 12
1.0
 22
0.0
 32
0.0
 13
1.0
 23
0.0
 33
0.0
 40
0.0
 40
0.0
 40
0.0
 40
0.0
 40
0.2
 40
0.2
 40
0.2
 40
0.2
 40
0.4
 40
0.4
 40
0.4
 40
0.4
 40
0.6
 40
0.6
 40
0.6
 40
0.6
 40
1.0
 40
1.0
 40
1.0
 40
1.0
 10
-10.4513
 20
-89.7177
 30
0.0
 10
-9.7477
 20
-91.578
 30
0.0
 10
-10.5434
 20
-94.2685
 30
0.0
 10
-12.6757
 20
-94.6251
 30
0.0
 10
-12.6757
 20
-94.6251
 30
0.0
 10
-14.3859
 20
-94.9649
 30
0.0
 10
-16.7617
 20
-94.6584
 30
0.0
 10
-17.4599
 20
-92.7476
 30
0.0
 10
-17.4599
 20
-92.7476
 30
0.0
 10
-18.878
 20
-89.7009
 30
0.0
 10
-14.911
 20
-86.0522
 30
0.0
 10
-12.1237
 20
-87.8294
 30
0.0
 10
-12.1237
 20
-87.8294
 30
0.0
 10
-11.3117
 20
-88.1635
 30
0.0
 10
-10.7489
 20
-88.8876
 30
0.0
 10
-10.4513
 20
-89.7177
 30
0.0
  0
SPLINE
  5
90
330
1F
100
AcDbEntity
  8
layer 1
 62
   250
100
AcDbSpline
210
0.0
220
0.0
230
1.0
 70
    11
 71
     3
 72
    28
 73
    24
 74
     0
 42
0.0000000001
 43
0.0000000001
 12
1.0
 22
0.0
 32
0.0
 13
1.0
 23
0.0
 33
0.0
 40
0.0
 40
0.0
 40
0.0
 40
0.0
 40
0.1428571428571428
 40
0.1428571428571428
 40
0.1428571428571428
 40
0.1428571428571428
 40
0.2857142857142857
 40
0.2857142857142857
 40
0.2857142857142857
 40
0.2857142857142857
 40
0.4285714285714285
 40
0.4285714285714285
 40
0.4285714285714285
 40
0.4285714285714285
 40
0.5714285714285714
 40
0.5714285714285714
 40
0.5714285714285714
 40
0.5714285714285714
 40
0.7142857142857143
 40
0.7142857142857143
 40
0.7142857142857143
 40
0.7142857142857143
 40
1.0
 40
1.0
 40
1.0
 40
1.0
 10
-12.8382
 20
110.9286
 30
0.0
 10
-12.0911
 20
109.0348
 30
0.0
 10
-12.6108
 20
106.9292
 30
0.0
 10
-12.6485
 20
104.9515
 30
0.0
 10
-12.6485
 20
104.9515
 30
0.0
 10
-12.9735
 20
101.2086
 30
0.0
 10
-13.8989
 20
97.1201
 30
0.0
 10
-16.6375
 20
94.4351
 30
0.0
 10
-16.6375
 20
94.4351
 30
0.0
 10
-18.3151
 20
92.7251
 30
0.0
 10
-21.1187
 20
94.034
 30
0.0
 10
-22.0277
 20
95.9668
 30
0.0
 10
-22.0277
 20
95.9668
 30
0.0
 10
-23.1966
 20
98.5626
 30
0.0
 10
-24.2956
 20
101.4869
 30
0.0
 10
-23.554
 20
104.3781
 30
0.0
 10
-23.554
 20
104.3781
 30
0.0
 10
-22.818
 20
107.2799
 30
0.0
 10
-21.6815
 20
110.3714
 30
0.0
 10
-19.2136
 20
112.1597
 30
0.0
 10
-19.2136
 20
112.1597
 30
0.0
 10
-17.2653
 20
113.5577
 30
0.0
 10
-13.9261
 20
113.3461
 30
0.0
 10
-12.8382
 20
110.9286
 30
0.0
  0
SPLINE
  5
91
330
1F
100
AcDbEntity
  8
layer 1
 62
   250
100
AcDbSpline
210
0.0
220
0.0
230
1.0
 70
    11
 71
     3
 72
    16
 73
    12
 74
     0
 42
0.0000000001
 43
0.0000000001
 12
1.0
 22
0.0
 32
0.0
 13
1.0
 23
0.0
 33
0.0
 40
0.0
 40
0.0
 40
0.0
 40
0.0
 40
0.25
 40
0.25
 40
0.25
 40
0.25
 40
0.5
 40
0.5
 40
0.5
 40
0.5
 40
1.0
 40
1.0
 40
1.0
 40
1.0
 10
-13.1086
 20
41.1277
 30
0.0
 10
-11.8368
 20
38.9107
 30
0.0
 10
-13.6119
 20
35.8916
 30
0.0
 10
-16.1016
 20
35.9975
 30
0.0
 10
-16.1016
 20
35.9975
 30
0.0
 10
-19.3813
 20
35.758
 30
0.0
 10
-21.9845
 20
39.9524
 30
0.0
 10
-20.0036
 20
42.7821
 30
0.0
 10
-20.0036
 20
42.7821
 30
0.0
 10
-18.0121
 20
45.1885
 30
0.0
 10
-13.9908
 20
44.0577
 30
0.0
 10
-13.1086
 20
41.1277
 30
0.0
  0
SPLINE
  5
92
330
1F
100
AcDbEntity
  8
layer 1
 62
   250
100
AcDbSpline
210
0.0
220
0.0
230
1.0
 70
    11
 71
     3
 72
    28
 73
    24
 74
     0
 42
0.0000000001
 43
0.0000000001
 12
1.0
 22
0.0
 32
0.0
 13
1.0
 23
0.0
 33
0.0
 40
0.0
 40
0.0
 40
0.0
 40
0.0
 40
0.1428571428571428
 40
0.1428571428571428
 40
0.1428571428571428
 40
0.1428571428571428
 40
0.2857142857142857
 40
0.2857142857142857
 40
0.2857142857142857
 40
0.2857142857142857
 40
0.4285714285714285
 40
0.4285714285714285
 40
0.4285714285714285
 40
0.4285714285714285
 40
0.5714285714285714
 40
0.5714285714285714
 40
0.5714285714285714
 40
0.5714285714285714
 40
0.7142857142857143
 40
0.7142857142857143
 40
0.7142857142857143
 40
0.7142857142857143
 40
1.0
 40
1.0
 40
1.0
 40
1.0
 10
-13.4117
 20
-52.2298
 30
0.0
 10
-12.773
 20
-54.2238
 30
0.0
 10
-13.1304
 20
-56.5578
 30
0.0
 10
-14.5482
 20
-58.112
 30
0.0
 10
-14.5482
 20
-58.112
 30
0.0
 10
-16.1125
 20
-59.8889
 30
0.0
 10
-17.9039
 20
-61.7048
 30
0.0
 10
-20.2202
 20
-62.3511
 30
0.0
 10
-20.2202
 20
-62.3511
 30
0.0
 10
-22.3851
 20
-62.9468
 30
0.0
 10
-24.2793
 20
-61.2368
 30
0.0
 10
-25.3672
 20
-59.4989
 30
0.0
 10
-25.3672
 20
-59.4989
 30
0.0
 10
-27.3478
 20
-55.9728
 30
0.0
 10
-26.8608
 20
-50.7147
 30
0.0
 10
-23.3319
 20
-48.4142
 30
0.0
 10
-23.3319
 20
-48.4142
 30
0.0
 10
-21.1673
 20
-47.1776
 30
0.0
 10
-18.2284
 20
-46.7153
 30
0.0
 10
-16.0636
 20
-48.2025
 30
0.0
 10
-16.0636
 20
-48.2025
 30
0.0
 10
-14.7702
 20
-49.1827
 30
0.0
 10
-13.8772
 20
-50.6591
 30
0.0
 10
-13.4117
 20
-52.2298
 30
0.0
  0
SPLINE
  5
93
330
1F
100
AcDbEntity
  8
layer 1
 62
   250
100
AcDbSpline
210
0.0
220
0.0
230
1.0
 70
    11
 71
     3
 72
    20
 73
    16
 74
     0
 42
0.0000000001
 43
0.0000000001
 12
1.0
 22
0.0
 32
0.0
 13
1.0
 23
0.0
 33
0.0
 40
0.0
 40
0.0
 40
0.0
 40
0.0
 40
0.2
 40
0.2
 40
0.2
 40
0.2
 40
0.4
 40
0.4
 40
0.4
 40
0.4
 40
0.6
 40
0.6
 40
0.6
 40
0.6
 40
1.0
 40
1.0
 40
1.0
 40
1.0
 10
-16.9242
 20
72.9003
 30
0.0
 10
-16.2856
 20
69.7923
 30
0.0
 10
-18.023
 20
66.0656
 30
0.0
 10
-21.0698
 20
65.102
 30
0.0
 10
-21.0698
 20
65.102
 30
0.0
 10
-22.6501
 20
64.5562
 30
0.0
 10
-24.2956
 20
65.9878
 30
0.0
 10
-24.4956
 20
67.581
 30
0.0
 10
-24.4956
 20
67.581
 30
0.0
 10
-24.6905
 20
69.6807
 30
0.0
 10
-24.5065
 20
72.0705
 30
0.0
 10
-23.0129
 20
73.6691
 30
0.0
 10
-23.0129
 20
73.6691
 30
0.0
 10
-21.3782
 20
75.4238
 30
0.0
 10
-17.4112
 20
76.0309
 30
0.0
 10
-16.9242
 20
72.9003
 30
0.0
  0
SPLINE
  5
94
330
1F
100
AcDbEntity
  8
layer 1
 62
   250
100
AcDbSpline
210
0.0
220
0.0
230
1.0
 70
    11
 71
     3
 72
    16
 73
    12
 74
     0
 42
0.0000000001
 43
0.0000000001
 12
1.0
 22
0.0
 32
0.0
 13
1.0
 23
0.0
 33
0.0
 40
0.0
 40
0.0
 40
0.0
 40
0.0
 40
0.25
 40
0.25
 40
0.25
 40
0.25
 40
0.5
 40
0.5
 40
0.5
 40
0.5
 40
1.0
 40
1.0
 40
1.0
 40
1.0
 10
-16.8052
 20
51.7946
 30
0.0
 10
-15.6901
 20
49.8732
 30
0.0
 10
-16.7457
 20
47.2549
 30
0.0
 10
-18.4774
 20
46.1132
 30
0.0
 10
-18.4774
 20
46.1132
 30
0.0
 10
-20.599
 20
44.5089
 30
0.0
 10
-24.4902
 20
45.8067
 30
0.0
 10
-24.6041
 20
48.7256
 30
0.0
 10
-24.6041
 20
48.7256
 30
0.0
 10
-24.6092
 20
52.4688
 30
0.0
 10
-19.1918
 20
54.4294
 30
0.0
 10
-16.8052
 20
51.7946
 30
0.0
  0
SPLINE
  5
95
330
1F
100
AcDbEntity
  8
layer 1
 62
   250
100
AcDbSpline
210
0.0
220
0.0
230
1.0
 70
    11
 71
     3
 72
    28
 73
    24
 74
     0
 42
0.0000000001
 43
0.0000000001
 12
1.0
 22
0.0
 32
0.0
 13
1.0
 23
0.0
 33
0.0
 40
0.0
 40
0.0
 40
0.0
 40
0.0
 40
0.1428571428571428
 40
0.1428571428571428
 40
0.1428571428571428
 40
0.1428571428571428
 40
0.2857142857142857
 40
0.2857142857142857
 40
0.2857142857142857
 40
0.2857142857142857
 40
0.4285714285714285
 40
0.4285714285714285
 40
0.4285714285714285
 40
0.4285714285714285
 40
0.5714285714285714
 40
0.5714285714285714
 40
0.5714285714285714
 40
0.5714285714285714
 40
0.7142857142857143
 40
0.7142857142857143
 40
0.7142857142857143
 40
0.7142857142857143
 40
1.0
 40
1.0
 40
1.0
 40
1.0
 10
-17.4547
 20
21.6875
 30
0.0
 10
-16.9351
 20
19.1865
 30
0.0
 10
-17.0215
 20
15.7608
 30
0.0
 10
-19.5383
 20
14.4127
 30
0.0
 10
-19.5383
 20
14.4127
 30
0.0
 10
-21.7734
 20
13.3433
 30
0.0
 10
-24.2684
 20
14.5966
 30
0.0
 10
-25.9028
 20
16.2175
 30
0.0
 10
-25.9028
 20
16.2175
 30
0.0
 10
-27.6457
 20
17.9388
 30
0.0
 10
-29.7293
 20
19.8661
 30
0.0
 10
-29.8375
 20
22.5286
 30
0.0
 10
-29.8375
 20
22.5286
 30
0.0
 10
-29.832
 20
23.8042
 30
0.0
 10
-29.9348
 20
25.3415
 30
0.0
 10
-28.9605
 20
26.3109
 30
0.0
 10
-28.9605
 20
26.3109
 30
0.0
 10
-26.969
 20
28.2826
 30
0.0
 10
-23.7325
 20
29.3189
 30
0.0
 10
-21.1836
 20
27.865
 30
0.0
 10
-21.1836
 20
27.865
 30
0.0
 10
-18.8997
 20
26.7119
 30
0.0
 10
-18.1311
 20
24.0104
 30
0.0
 10
-17.4547
 20
21.6875
 30
0.0
  0
SPLINE
  5
96
330
1F
100
AcDbEntity
  8
layer 1
 62
   250
100
AcDbSpline
210
0.0
220
0.0
230
1.0
 70
    11
 71
     3
 72
    24
 73
    20
 74
     0
 42
0.0000000001
 43
0.0000000001
 12
1.0
 22
0.0
 32
0.0
 13
1.0
 23
0.0
 33
0.0
 40
0.0
 40
0.0
 40
0.0
 40
0.0
 40
0.1666666666666667
 40
0.1666666666666667
 40
0.1666666666666667
 40
0.1666666666666667
 40
0.3333333333333333
 40
0.3333333333333333
 40
0.3333333333333333
 40
0.3333333333333333
 40
0.5
 40
0.5
 40
0.5
 40
0.5
 40
0.6666666666666666
 40
0.6666666666666666
 40
0.6666666666666666
 40
0.6666666666666666
 40
1.0
 40
1.0
 40
1.0
 40
1.0
 10
-17.5466
 20
-35.1513
 30
0.0
 10
-17.0055
 20
-38.0368
 30
0.0
 10
-17.2327
 20
-41.2564
 30
0.0
 10
-18.7426
 20
-43.8076
 30
0.0
 10
-18.7426
 20
-43.8076
 30
0.0
 10
-20.009
 20
-45.7127
 30
0.0
 10
-22.7422
 20
-45.3116
 30
0.0
 10
-24.2304
 20
-43.9133
 30
0.0
 10
-24.2304
 20
-43.9133
 30
0.0
 10
-26.3736
 20
-41.9193
 30
0.0
 10
-26.9095
 20
-38.7888
 30
0.0
 10
-27.1747
 20
-35.9702
 30
0.0
 10
-27.1747
 20
-35.9702
 30
0.0
 10
-27.3587
 20
-34.1431
 30
0.0
 10
-26.7255
 20
-32.0543
 30
0.0
 10
-25.1829
 20
-31.0183
 30
0.0
 10
-25.1829
 20
-31.0183
 30
0.0
 10
-22.1902
 20
-29.9877
 30
0.0
 10
-18.1094
 20
-31.6923
 30
0.0
 10
-17.5466
 20
-35.1513
 30
0.0
  0
SPLINE
  5
97
330
1F
100
AcDbEntity
  8
layer 1
 62
   250
100
AcDbSpline
210
0.0
220
0.0
230
1.0
 70
    11
 71
     3
 72
    32
 73
    28
 74
     0
 42
0.0000000001
 43
0.0000000001
 12
1.0
 22
0.0
 32
0.0
 13
1.0
 23
0.0
 33
0.0
 40
0.0
 40
0.0
 40
0.0
 40
0.0
 40
0.125
 40
0.125
 40
0.125
 40
0.125
 40
0.25
 40
0.25
 40
0.25
 40
0.25
 40
0.375
 40
0.375
 40
0.375
 40
0.375
 40
0.5
 40
0.5
 40
0.5
 40
0.5
 40
0.625
 40
0.625
 40
0.625
 40
0.625
 40
0.75
 40
0.75
 40
0.75
 40
0.75
 40
1.0
 40
1.0
 40
1.0
 40
1.0
 10
-17.9634
 20
89.1212
 30
0.0
 10
-17.1408
 20
86.4584
 30
0.0
 10
-17.1299
 20
83.3168
 30
0.0
 10
-18.8565
 20
81.022
 30
0.0
 10
-18.8565
 20
81.022
 30
0.0
 10
-20.2202
 20
79.2172
 30
0.0
 10
-21.7084
 20
76.9221
 30
0.0
 10
-24.1603
 20
76.8108
 30
0.0
 10
-24.1603
 20
76.8108
 30
0.0
 10
-26.666
 20
76.6715
 30
0.0
 10
-28.7224
 20
78.4427
 30
0.0
 10
-30.4326
 20
80.1028
 30
0.0
 10
-30.4326
 20
80.1028
 30
0.0
 10
-32.2241
 20
81.7182
 30
0.0
 10
-32.7166
 20
84.2249
 30
0.0
 10
-33.1767
 20
86.5088
 30
0.0
 10
-33.1767
 20
86.5088
 30
0.0
 10
-33.7395
 20
89.4887
 30
0.0
 10
-32.6679
 20
93.1538
 30
0.0
 10
-29.8916
 20
94.5798
 30
0.0
 10
-29.8916
 20
94.5798
 30
0.0
 10
-27.2666
 20
95.822
 30
0.0
 10
-24.2358
 20
94.7413
 30
0.0
 10
-22.0332
 20
93.0872
 30
0.0
 10
-22.0332
 20
93.0872
 30
0.0
 10
-20.5504
 20
91.9452
 30
0.0
 10
-18.5801
 20
91.065
 30
0.0
 10
-17.9634
 20
89.1212
 30
0.0
  0
SPLINE
  5
98
330
1F
100
AcDbEntity
  8
layer 1
 62
   250
100
AcDbSpline
210
0.0
220
0.0
230
1.0
 70
    11
 71
     3
 72
    24
 73
    20
 74
     0
 42
0.0000000001
 43
0.0000000001
 12
1.0
 22
0.0
 32
0.0
 13
1.0
 23
0.0
 33
0.0
 40
0.0
 40
0.0
 40
0.0
 40
0.0
 40
0.1666666666666667
 40
0.1666666666666667
 40
0.1666666666666667
 40
0.1666666666666667
 40
0.3333333333333333
 40
0.3333333333333333
 40
0.3333333333333333
 40
0.3333333333333333
 40
0.5
 40
0.5
 40
0.5
 40
0.5
 40
0.6666666666666666
 40
0.6666666666666666
 40
0.6666666666666666
 40
0.6666666666666666
 40
1.0
 40
1.0
 40
1.0
 40
1.0
 10
-18.0877
 20
-95.3657
 30
0.0
 10
-17.5681
 20
-98.6577
 30
0.0
 10
-17.3085
 20
-102.585
 30
0.0
 10
-19.6302
 20
-105.264
 30
0.0
 10
-19.6302
 20
-105.264
 30
0.0
 10
-22.1794
 20
-108.0271
 30
0.0
 10
-26.2545
 20
-109.2915
 30
0.0
 10
-29.8375
 20
-108.2832
 30
0.0
 10
-29.8375
 20
-108.2832
 30
0.0
 10
-33.1875
 20
-106.6233
 30
0.0
 10
-34.4377
 20
-102.1782
 30
0.0
 10
-33.5286
 20
-98.6523
 30
0.0
 10
-33.5286
 20
-98.6523
 30
0.0
 10
-32.7492
 20
-95.5107
 30
0.0
 10
-31.5097
 20
-92.1796
 30
0.0
 10
-28.9281
 20
-90.1575
 30
0.0
 10
-28.9281
 20
-90.1575
 30
0.0
 10
-24.7932
 20
-87.495
 30
0.0
 10
-19.0619
 20
-90.6702
 30
0.0
 10
-18.0877
 20
-95.3657
 30
0.0
  0
SPLINE
  5
99
330
1F
100
AcDbEntity
  8
layer 1
 62
   250
100
AcDbSpline
210
0.0
220
0.0
230
1.0
 70
    11
 71
     3
 72
    32
 73
    28
 74
     0
 42
0.0000000001
 43
0.0000000001
 12
1.0
 22
0.0
 32
0.0
 13
1.0
 23
0.0
 33
0.0
 40
0.0
 40
0.0
 40
0.0
 40
0.0
 40
0.125
 40
0.125
 40
0.125
 40
0.125
 40
0.25
 40
0.25
 40
0.25
 40
0.25
 40
0.375
 40
0.375
 40
0.375
 40
0.375
 40
0.5
 40
0.5
 40
0.5
 40
0.5
 40
0.625
 40
0.625
 40
0.625
 40
0.625
 40
0.75
 40
0.75
 40
0.75
 40
0.75
 40
1.0
 40
1.0
 40
1.0
 40
1.0
 10
-21.806
 20
122.4591
 30
0.0
 10
-20.967
 20
120.27
 30
0.0
 10
-21.2214
 20
117.83
 30
0.0
 10
-21.2863
 20
115.5241
 30
0.0
 10
-21.2863
 20
115.5241
 30
0.0
 10
-21.3945
 20
112.6832
 30
0.0
 10
-23.37
 20
110.0652
 30
0.0
 10
-25.9787
 20
109.1682
 30
0.0
 10
-25.9787
 20
109.1682
 30
0.0
 10
-28.5493
 20
108.1433
 30
0.0
 10
-31.3906
 20
108.5666
 30
0.0
 10
-33.9615
 20
109.3579
 30
0.0
 10
-33.9615
 20
109.3579
 30
0.0
 10
-37.4521
 20
110.2045
 30
0.0
 10
-39.0055
 20
114.4268
 30
0.0
 10
-38.5348
 20
117.7801
 30
0.0
 10
-38.5348
 20
117.7801
 30
0.0
 10
-38.2152
 20
120.1862
 30
0.0
 10
-37.9394
 20
123.2222
 30
0.0
 10
-35.5418
 20
124.4311
 30
0.0
 10
-35.5418
 20
124.4311
 30
0.0
 10
-32.8736
 20
125.7343
 30
0.0
 10
-29.8049
 20
125.8901
 30
0.0
 10
-26.8986
 20
125.6565
 30
0.0
 10
-26.8986
 20
125.6565
 30
0.0
 10
-24.8476
 20
125.5172
 30
0.0
 10
-22.7153
 20
124.4419
 30
0.0
 10
-21.806
 20
122.4591
 30
0.0
  0
SPLINE
  5
9A
330
1F
100
AcDbEntity
  8
layer 1
 62
   250
100
AcDbSpline
210
0.0
220
0.0
230
1.0
 70
    11
 71
     3
 72
    24
 73
    20
 74
     0
 42
0.0000000001
 43
0.0000000001
 12
1.0
 22
0.0
 32
0.0
 13
1.0
 23
0.0
 33
0.0
 40
0.0
 40
0.0
 40
0.0
 40
0.0
 40
0.1666666666666667
 40
0.1666666666666667
 40
0.1666666666666667
 40
0.1666666666666667
 40
0.3333333333333333
 40
0.3333333333333333
 40
0.3333333333333333
 40
0.3333333333333333
 40
0.5
 40
0.5
 40
0.5
 40
0.5
 40
0.6666666666666666
 40
0.6666666666666666
 40
0.6666666666666666
 40
0.6666666666666666
 40
1.0
 40
1.0
 40
1.0
 40
1.0
 10
-22.2389
 20
8.9706
 30
0.0
 10
-21.1619
 20
6.3639
 30
0.0
 10
-22.7368
 20
3.5173
 30
0.0
 10
-24.8095
 20
1.9965
 30
0.0
 10
-24.8095
 20
1.9965
 30
0.0
 10
-29.2312
 20
-1.7689
 30
0.0
 10
-35.9908
 20
-3.9748
 30
0.0
 10
-41.2351
 20
-0.6882
 30
0.0
 10
-41.2351
 20
-0.6882
 30
0.0
 10
-44.6341
 20
1.1613
 30
0.0
 10
-44.1685
 20
6.7148
 30
0.0
 10
-41.2027
 20
8.7535
 30
0.0
 10
-41.2027
 20
8.7535
 30
0.0
 10
-37.0678
 20
11.7336
 30
0.0
 10
-31.9263
 20
13.6663
 30
0.0
 10
-26.8336
 20
12.8197
 30
0.0
 10
-26.8336
 20
12.8197
 30
0.0
 10
-24.7769
 20
12.4799
 30
0.0
 10
-23.0776
 20
10.887
 30
0.0
 10
-22.2389
 20
8.9706
 30
0.0
  0
SPLINE
  5
9B
330
1F
100
AcDbEntity
  8
layer 1
 62
   250
100
AcDbSpline
210
0.0
220
0.0
230
1.0
 70
    11
 71
     3
 72
    28
 73
    24
 74
     0
 42
0.0000000001
 43
0.0000000001
 12
1.0
 22
0.0
 32
0.0
 13
1.0
 23
0.0
 33
0.0
 40
0.0
 40
0.0
 40
0.0
 40
0.0
 40
0.1428571428571428
 40
0.1428571428571428
 40
0.1428571428571428
 40
0.1428571428571428
 40
0.2857142857142857
 40
0.2857142857142857
 40
0.2857142857142857
 40
0.2857142857142857
 40
0.4285714285714285
 40
0.4285714285714285
 40
0.4285714285714285
 40
0.4285714285714285
 40
0.5714285714285714
 40
0.5714285714285714
 40
0.5714285714285714
 40
0.5714285714285714
 40
0.7142857142857143
 40
0.7142857142857143
 40
0.7142857142857143
 40
0.7142857142857143
 40
1.0
 40
1.0
 40
1.0
 40
1.0
 10
-22.8667
 20
41.2058
 30
0.0
 10
-21.7627
 20
38.9497
 30
0.0
 10
-22.78
 20
36.4265
 30
0.0
 10
-23.7488
 20
34.332
 30
0.0
 10
-23.7488
 20
34.332
 30
0.0
 10
-24.7609
 20
32.2321
 30
0.0
 10
-26.6279
 20
30.3381
 30
0.0
 10
-29.0094
 20
30.1877
 30
0.0
 10
-29.0094
 20
30.1877
 30
0.0
 10
-32.787
 20
30.1991
 30
0.0
 10
-36.0775
 20
33.0732
 30
0.0
 10
-37.7173
 20
36.3986
 30
0.0
 10
-37.7173
 20
36.3986
 30
0.0
 10
-39.2327
 20
39.7573
 30
0.0
 10
-38.3073
 20
44.6815
 30
0.0
 10
-34.7624
 20
46.2357
 30
0.0
 10
-34.7624
 20
46.2357
 30
0.0
 10
-33.3229
 20
46.9486
 30
0.0
 10
-31.6396
 20
47.3386
 30
0.0
 10
-30.0864
 20
46.7982
 30
0.0
 10
-30.0864
 20
46.7982
 30
0.0
 10
-27.1908
 20
45.879
 30
0.0
 10
-23.976
 20
44.3474
 30
0.0
 10
-22.8667
 20
41.2058
 30
0.0
  0
SPLINE
  5
9C
330
1F
100
AcDbEntity
  8
layer 1
 62
   250
100
AcDbSpline
210
0.0
220
0.0
230
1.0
 70
    11
 71
     3
 72
    28
 73
    24
 74
     0
 42
0.0000000001
 43
0.0000000001
 12
1.0
 22
0.0
 32
0.0
 13
1.0
 23
0.0
 33
0.0
 40
0.0
 40
0.0
 40
0.0
 40
0.0
 40
0.1428571428571428
 40
0.1428571428571428
 40
0.1428571428571428
 40
0.1428571428571428
 40
0.2857142857142857
 40
0.2857142857142857
 40
0.2857142857142857
 40
0.2857142857142857
 40
0.4285714285714285
 40
0.4285714285714285
 40
0.4285714285714285
 40
0.4285714285714285
 40
0.5714285714285714
 40
0.5714285714285714
 40
0.5714285714285714
 40
0.5714285714285714
 40
0.7142857142857143
 40
0.7142857142857143
 40
0.7142857142857143
 40
0.7142857142857143
 40
1.0
 40
1.0
 40
1.0
 40
1.0
 10
-23.4295
 20
61.7655
 30
0.0
 10
-22.4174
 20
59.1864
 30
0.0
 10
-23.3428
 20
56.3177
 30
0.0
 10
-24.5389
 20
53.9839
 30
0.0
 10
-24.5389
 20
53.9839
 30
0.0
 10
-25.8107
 20
51.6165
 30
0.0
 10
-28.2571
 20
49.444
 30
0.0
 10
-31.0552
 20
49.9567
 30
0.0
 10
-31.0552
 20
49.9567
 30
0.0
 10
-32.2891
 20
50.4301
 30
0.0
 10
-33.3933
 20
51.3379
 30
0.0
 10
-33.902
 20
52.6081
 30
0.0
 10
-33.902
 20
52.6081
 30
0.0
 10
-35.0926
 20
55.5101
 30
0.0
 10
-35.6446
 20
58.9192
 30
0.0
 10
-34.3618
 20
61.888
 30
0.0
 10
-34.3618
 20
61.888
 30
0.0
 10
-32.7166
 20
63.6874
 30
0.0
 10
-30.3462
 20
64.7234
 30
0.0
 10
-28.0136
 20
65.1689
 30
0.0
 10
-28.0136
 20
65.1689
 30
0.0
 10
-25.8433
 20
65.5924
 30
0.0
 10
-24.1385
 20
63.6594
 30
0.0
 10
-23.4295
 20
61.7655
 30
0.0
  0
SPLINE
  5
9D
330
1F
100
AcDbEntity
  8
layer 1
 62
   250
100
AcDbSpline
210
0.0
220
0.0
230
1.0
 70
    11
 71
     3
 72
    24
 73
    20
 74
     0
 42
0.0000000001
 43
0.0000000001
 12
1.0
 22
0.0
 32
0.0
 13
1.0
 23
0.0
 33
0.0
 40
0.0
 40
0.0
 40
0.0
 40
0.0
 40
0.1666666666666667
 40
0.1666666666666667
 40
0.1666666666666667
 40
0.1666666666666667
 40
0.3333333333333333
 40
0.3333333333333333
 40
0.3333333333333333
 40
0.3333333333333333
 40
0.5
 40
0.5
 40
0.5
 40
0.5
 40
0.6666666666666666
 40
0.6666666666666666
 40
0.6666666666666666
 40
0.6666666666666666
 40
1.0
 40
1.0
 40
1.0
 40
1.0
 10
-25.1128
 20
-64.1166
 30
0.0
 10
-23.6026
 20
-68.0883
 30
0.0
 10
-26.682
 20
-72.3218
 30
0.0
 10
-30.1837
 20
-73.7922
 30
0.0
 10
-30.1837
 20
-73.7922
 30
0.0
 10
-31.8994
 20
-74.416
 30
0.0
 10
-34.351
 20
-75.2572
 30
0.0
 10
-35.6228
 20
-73.3911
 30
0.0
 10
-35.6228
 20
-73.3911
 30
0.0
 10
-37.0192
 20
-70.9403
 30
0.0
 10
-37.9502
 20
-67.8599
 30
0.0
 10
-37.0626
 20
-65.0581
 30
0.0
 10
-37.0626
 20
-65.0581
 30
0.0
 10
-36.1805
 20
-62.5793
 30
0.0
 10
-33.4471
 20
-61.794
 30
0.0
 10
-31.1634
 20
-61.4596
 30
0.0
 10
-31.1634
 20
-61.4596
 30
0.0
 10
-28.9173
 20
-61.0197
 30
0.0
 10
-26.1572
 20
-61.8942
 30
0.0
 10
-25.1128
 20
-64.1166
 30
0.0
  0
SPLINE
  5
9E
330
1F
100
AcDbEntity
  8
layer 1
 62
   250
100
AcDbSpline
210
0.0
220
0.0
230
1.0
 70
    11
 71
     3
 72
    20
 73
    16
 74
     0
 42
0.0000000001
 43
0.0000000001
 12
1.0
 22
0.0
 32
0.0
 13
1.0
 23
0.0
 33
0.0
 40
0.0
 40
0.0
 40
0.0
 40
0.0
 40
0.2
 40
0.2
 40
0.2
 40
0.2
 40
0.4
 40
0.4
 40
0.4
 40
0.4
 40
0.6
 40
0.6
 40
0.6
 40
0.6
 40
1.0
 40
1.0
 40
1.0
 40
1.0
 10
-25.302
 20
-20.507
 30
0.0
 10
-24.9071
 20
-23.1362
 30
0.0
 10
-25.6159
 20
-26.161
 30
0.0
 10
-27.7321
 20
-27.8542
 30
0.0
 10
-27.7321
 20
-27.8542
 30
0.0
 10
-28.5656
 20
-28.5227
 30
0.0
 10
-29.832
 20
-29.0352
 30
0.0
 10
-30.79
 20
-28.3222
 30
0.0
 10
-30.79
 20
-28.3222
 30
0.0
 10
-33.3118
 20
-26.7068
 30
0.0
 10
-34.9842
 20
-23.8885
 30
0.0
 10
-35.6717
 20
-20.9639
 30
0.0
 10
-35.6717
 20
-20.9639
 30
0.0
 10
-34.9573
 20
-15.895
 30
0.0
 10
-26.0273
 20
-14.9368
 30
0.0
 10
-25.302
 20
-20.507
 30
0.0
  0
SPLINE
  5
9F
330
1F
100
AcDbEntity
  8
layer 1
 62
   250
100
AcDbSpline
210
0.0
220
0.0
230
1.0
 70
    11
 71
     3
 72
    16
 73
    12
 74
     0
 42
0.0000000001
 43
0.0000000001
 12
1.0
 22
0.0
 32
0.0
 13
1.0
 23
0.0
 33
0.0
 40
0.0
 40
0.0
 40
0.0
 40
0.0
 40
0.25
 40
0.25
 40
0.25
 40
0.25
 40
0.5
 40
0.5
 40
0.5
 40
0.5
 40
1.0
 40
1.0
 40
1.0
 40
1.0
 10
-26.7255
 20
101.7934
 30
0.0
 10
-26.3358
 20
99.0138
 30
0.0
 10
-29.4749
 20
97.3873
 30
0.0
 10
-31.8021
 20
97.8496
 30
0.0
 10
-31.8021
 20
97.8496
 30
0.0
 10
-34.0969
 20
97.816
 30
0.0
 10
-36.5808
 20
100.1948
 30
0.0
 10
-35.5742
 20
102.6345
 30
0.0
 10
-35.5742
 20
102.6345
 30
0.0
 10
-34.0102
 20
106.4946
 30
0.0
 10
-27.7647
 20
105.5756
 30
0.0
 10
-26.7255
 20
101.7934
 30
0.0
  0
SPLINE
  5
A0
330
1F
100
AcDbEntity
  8
layer 1
 62
   250
100
AcDbSpline
210
0.0
220
0.0
230
1.0
 70
    11
 71
     3
 72
    28
 73
    24
 74
     0
 42
0.0000000001
 43
0.0000000001
 12
1.0
 22
0.0
 32
0.0
 13
1.0
 23
0.0
 33
0.0
 40
0.0
 40
0.0
 40
0.0
 40
0.0
 40
0.1428571428571428
 40
0.1428571428571428
 40
0.1428571428571428
 40
0.1428571428571428
 40
0.2857142857142857
 40
0.2857142857142857
 40
0.2857142857142857
 40
0.2857142857142857
 40
0.4285714285714285
 40
0.4285714285714285
 40
0.4285714285714285
 40
0.4285714285714285
 40
0.5714285714285714
 40
0.5714285714285714
 40
0.5714285714285714
 40
0.5714285714285714
 40
0.7142857142857143
 40
0.7142857142857143
 40
0.7142857142857143
 40
0.7142857142857143
 40
1.0
 40
1.0
 40
1.0
 40
1.0
 10
-27.3209
 20
-43.5236
 30
0.0
 10
-26.3953
 20
-47.7568
 30
0.0
 10
-27.4886
 20
-52.1463
 30
0.0
 10
-28.901
 20
-56.1345
 30
0.0
 10
-28.901
 20
-56.1345
 30
0.0
 10
-29.5288
 20
-57.9672
 30
0.0
 10
-30.7357
 20
-60.0726
 30
0.0
 10
-32.8356
 20
-60.2176
 30
0.0
 10
-32.8356
 20
-60.2176
 30
0.0
 10
-35.1089
 20
-60.368
 30
0.0
 10
-36.6838
 20
-58.1786
 30
0.0
 10
-37.1545
 20
-56.1121
 30
0.0
 10
-37.1545
 20
-56.1121
 30
0.0
 10
-38.4913
 20
-51.177
 30
0.0
 10
-39.4547
 20
-45.4785
 30
0.0
 10
-36.7376
 20
-40.8386
 30
0.0
 10
-36.7376
 20
-40.8386
 30
0.0
 10
-35.6824
 20
-38.5324
 30
0.0
 10
-32.7652
 20
-37.9642
 30
0.0
 10
-30.6003
 20
-38.7386
 30
0.0
 10
-30.6003
 20
-38.7386
 30
0.0
 10
-28.6683
 20
-39.4739
 30
0.0
 10
-27.9052
 20
-41.6741
 30
0.0
 10
-27.3209
 20
-43.5236
 30
0.0
  0
SPLINE
  5
A1
330
1F
100
AcDbEntity
  8
layer 1
 62
   250
100
AcDbSpline
210
0.0
220
0.0
230
1.0
 70
    11
 71
     3
 72
    24
 73
    20
 74
     0
 42
0.0000000001
 43
0.0000000001
 12
1.0
 22
0.0
 32
0.0
 13
1.0
 23
0.0
 33
0.0
 40
0.0
 40
0.0
 40
0.0
 40
0.0
 40
0.1666666666666667
 40
0.1666666666666667
 40
0.1666666666666667
 40
0.1666666666666667
 40
0.3333333333333333
 40
0.3333333333333333
 40
0.3333333333333333
 40
0.3333333333333333
 40
0.5
 40
0.5
 40
0.5
 40
0.5
 40
0.6666666666666666
 40
0.6666666666666666
 40
0.6666666666666666
 40
0.6666666666666666
 40
1.0
 40
1.0
 40
1.0
 40
1.0
 10
-28.7387
 20
75.2176
 30
0.0
 10
-28.0786
 20
73.7694
 30
0.0
 10
-28.165
 20
72.0594
 30
0.0
 10
-28.7659
 20
70.6056
 30
0.0
 10
-28.7659
 20
70.6056
 30
0.0
 10
-30.1622
 20
67.1409
 30
0.0
 10
-33.1389
 20
64.4058
 30
0.0
 10
-36.6025
 20
63.2752
 30
0.0
 10
-36.6025
 20
63.2752
 30
0.0
 10
-38.7133
 20
62.4617
 30
0.0
 10
-41.3272
 20
64.144
 30
0.0
 10
-41.4354
 20
66.4948
 30
0.0
 10
-41.4354
 20
66.4948
 30
0.0
 10
-41.7332
 20
70.65
 30
0.0
 10
-41.1
 20
75.4905
 30
0.0
 10
-37.8309
 20
78.3481
 30
0.0
 10
-37.8309
 20
78.3481
 30
0.0
 10
-34.7192
 20
80.7266
 30
0.0
 10
-30.3245
 20
78.4096
 30
0.0
 10
-28.7387
 20
75.2176
 30
0.0
  0
SPLINE
  5
A2
330
1F
100
AcDbEntity
  8
layer 1
 62
   250
100
AcDbSpline
210
0.0
220
0.0
230
1.0
 70
    11
 71
     3
 72
    16
 73
    12
 74
     0
 42
0.0000000001
 43
0.0000000001
 12
1.0
 22
0.0
 32
0.0
 13
1.0
 23
0.0
 33
0.0
 40
0.0
 40
0.0
 40
0.0
 40
0.0
 40
0.25
 40
0.25
 40
0.25
 40
0.25
 40
0.5
 40
0.5
 40
0.5
 40
0.5
 40
1.0
 40
1.0
 40
1.0
 40
1.0
 10
-28.7605
 20
-7.25
 30
0.0
 10
-27.8889
 20
-9.389
 30
0.0
 10
-28.5276
 20
-12.5862
 30
0.0
 10
-30.9253
 20
-13.3159
 30
0.0
 10
-30.9253
 20
-13.3159
 30
0.0
 10
-34.1346
 20
-14.6137
 30
0.0
 10
-37.9445
 20
-10.5811
 30
0.0
 10
-36.3482
 20
-7.3557
 30
0.0
 10
-36.3482
 20
-7.3557
 30
0.0
 10
-35.1089
 20
-4.2474
 30
0.0
 10
-29.8427
 20
-3.674
 30
0.0
 10
-28.7605
 20
-7.25
 30
0.0
  0
SPLINE
  5
A3
330
1F
100
AcDbEntity
  8
layer 1
 62
   250
100
AcDbSpline
210
0.0
220
0.0
230
1.0
 70
    11
 71
     3
 72
    24
 73
    20
 74
     0
 42
0.0000000001
 43
0.0000000001
 12
1.0
 22
0.0
 32
0.0
 13
1.0
 23
0.0
 33
0.0
 40
0.0
 40
0.0
 40
0.0
 40
0.0
 40
0.1666666666666667
 40
0.1666666666666667
 40
0.1666666666666667
 40
0.1666666666666667
 40
0.3333333333333333
 40
0.3333333333333333
 40
0.3333333333333333
 40
0.3333333333333333
 40
0.5
 40
0.5
 40
0.5
 40
0.5
 40
0.6666666666666666
 40
0.6666666666666666
 40
0.6666666666666666
 40
0.6666666666666666
 40
1.0
 40
1.0
 40
1.0
 40
1.0
 10
-29.1665
 20
-78.5213
 30
0.0
 10
-27.7971
 20
-81.7911
 30
0.0
 10
-29.0743
 20
-86.7766
 30
0.0
 10
-32.8788
 20
-87.5172
 30
0.0
 10
-32.8788
 20
-87.5172
 30
0.0
 10
-34.7083
 20
-87.6175
 30
0.0
 10
-36.5917
 20
-87.0774
 30
0.0
 10
-38.2207
 20
-86.2416
 30
0.0
 10
-38.2207
 20
-86.2416
 30
0.0
 10
-40.6831
 20
-84.7379
 30
0.0
 10
-40.7318
 20
-81.1115
 30
0.0
 10
-39.3194
 20
-78.8389
 30
0.0
 10
-39.3194
 20
-78.8389
 30
0.0
 10
-38.1179
 20
-77.0842
 30
0.0
 10
-35.9204
 20
-76.3656
 30
0.0
 10
-33.9072
 20
-76.3433
 30
0.0
 10
-33.9072
 20
-76.3433
 30
0.0
 10
-32.1429
 20
-76.31
 30
0.0
 10
-29.9293
 20
-76.594
 30
0.0
 10
-29.1665
 20
-78.5213
 30
0.0
  0
SPLINE
  5
A4
330
1F
100
AcDbEntity
  8
layer 1
 62
   250
100
AcDbSpline
210
0.0
220
0.0
230
1.0
 70
    11
 71
     3
 72
    20
 73
    16
 74
     0
 42
0.0000000001
 43
0.0000000001
 12
1.0
 22
0.0
 32
0.0
 13
1.0
 23
0.0
 33
0.0
 40
0.0
 40
0.0
 40
0.0
 40
0.0
 40
0.2
 40
0.2
 40
0.2
 40
0.2
 40
0.4
 40
0.4
 40
0.4
 40
0.4
 40
0.6
 40
0.6
 40
0.6
 40
0.6
 40
1.0
 40
1.0
 40
1.0
 40
1.0
 10
-31.6124
 20
-31.7925
 30
0.0
 10
-31.6072
 20
-33.0738
 30
0.0
 10
-32.0997
 20
-34.3437
 30
0.0
 10
-32.8628
 20
-35.3518
 30
0.0
 10
-32.8628
 20
-35.3518
 30
0.0
 10
-34.8978
 20
-37.7918
 30
0.0
 10
-38.843
 20
-37.6747
 30
0.0
 10
-41.1324
 20
-35.703
 30
0.0
 10
-41.1324
 20
-35.703
 30
0.0
 10
-43.0103
 20
-32.9678
 30
0.0
 10
-40.7426
 20
-29.5086
 30
0.0
 10
-38.1231
 20
-28.3835
 30
0.0
 10
-38.1231
 20
-28.3835
 30
0.0
 10
-35.5905
 20
-26.9908
 30
0.0
 10
-31.6559
 20
-28.5674
 30
0.0
 10
-31.6124
 20
-31.7925
 30
0.0
  0
SPLINE
  5
A5
330
1F
100
AcDbEntity
  8
layer 1
 62
   250
100
AcDbSpline
210
0.0
220
0.0
230
1.0
 70
    11
 71
     3
 72
    28
 73
    24
 74
     0
 42
0.0000000001
 43
0.0000000001
 12
1.0
 22
0.0
 32
0.0
 13
1.0
 23
0.0
 33
0.0
 40
0.0
 40
0.0
 40
0.0
 40
0.0
 40
0.1428571428571428
 40
0.1428571428571428
 40
0.1428571428571428
 40
0.1428571428571428
 40
0.2857142857142857
 40
0.2857142857142857
 40
0.2857142857142857
 40
0.2857142857142857
 40
0.4285714285714285
 40
0.4285714285714285
 40
0.4285714285714285
 40
0.4285714285714285
 40
0.5714285714285714
 40
0.5714285714285714
 40
0.5714285714285714
 40
0.5714285714285714
 40
0.7142857142857143
 40
0.7142857142857143
 40
0.7142857142857143
 40
0.7142857142857143
 40
1.0
 40
1.0
 40
1.0
 40
1.0
 10
-33.1604
 20
23.3698
 30
0.0
 10
-32.0401
 20
19.2089
 30
0.0
 10
-34.8489
 20
14.0284
 30
0.0
 10
-39.314
 20
14.0173
 30
0.0
 10
-39.314
 20
14.0173
 30
0.0
 10
-42.6262
 20
14.3682
 30
0.0
 10
-45.9222
 20
15.8611
 30
0.0
 10
-48.0923
 20
18.5179
 30
0.0
 10
-48.0923
 20
18.5179
 30
0.0
 10
-49.8946
 20
20.6571
 30
0.0
 10
-50.6521
 20
23.8489
 30
0.0
 10
-49.5862
 20
26.5114
 30
0.0
 10
-49.5862
 20
26.5114
 30
0.0
 10
-48.9799
 20
28.188
 30
0.0
 10
-47.2482
 20
28.9346
 30
0.0
 10
-45.7597
 20
29.5639
 30
0.0
 10
-45.7597
 20
29.5639
 30
0.0
 10
-43.4541
 20
30.3606
 30
0.0
 10
-40.8671
 20
30.7392
 30
0.0
 10
-38.5237
 20
29.8758
 30
0.0
 10
-38.5237
 20
29.8758
 30
0.0
 10
-35.7799
 20
28.8842
 30
0.0
 10
-33.7123
 20
26.2941
 30
0.0
 10
-33.1604
 20
23.3698
 30
0.0
  0
SPLINE
  5
A6
330
1F
100
AcDbEntity
  8
layer 1
 62
   250
100
AcDbSpline
210
0.0
220
0.0
230
1.0
 70
    11
 71
     3
 72
    16
 73
    12
 74
     0
 42
0.0000000001
 43
0.0000000001
 12
1.0
 22
0.0
 32
0.0
 13
1.0
 23
0.0
 33
0.0
 40
0.0
 40
0.0
 40
0.0
 40
0.0
 40
0.25
 40
0.25
 40
0.25
 40
0.25
 40
0.5
 40
0.5
 40
0.5
 40
0.5
 40
1.0
 40
1.0
 40
1.0
 40
1.0
 10
-34.286
 20
-90.9263
 30
0.0
 10
-33.09
 20
-93.572
 30
0.0
 10
-35.2657
 20
-97.3098
 30
0.0
 10
-38.2207
 20
-96.9534
 30
0.0
 10
-38.2207
 20
-96.9534
 30
0.0
 10
-41.3922
 20
-96.3684
 30
0.0
 10
-42.3825
 20
-91.8122
 30
0.0
 10
-40.2015
 20
-89.6063
 30
0.0
 10
-40.2015
 20
-89.6063
 30
0.0
 10
-38.4101
 20
-88.1134
 30
0.0
 10
-35.3739
 20
-88.9044
 30
0.0
 10
-34.286
 20
-90.9263
 30
0.0
  0
SPLINE
  5
A7
330
1F
100
AcDbEntity
  8
layer 1
 62
   250
100
AcDbSpline
210
0.0
220
0.0
230
1.0
 70
    11
 71
     3
 72
    20
 73
    16
 74
     0
 42
0.0000000001
 43
0.0000000001
 12
1.0
 22
0.0
 32
0.0
 13
1.0
 23
0.0
 33
0.0
 40
0.0
 40
0.0
 40
0.0
 40
0.0
 40
0.2
 40
0.2
 40
0.2
 40
0.2
 40
0.4
 40
0.4
 40
0.4
 40
0.4
 40
0.6
 40
0.6
 40
0.6
 40
0.6
 40
1.0
 40
1.0
 40
1.0
 40
1.0
 10
-34.8437
 20
-102.5237
 30
0.0
 10
-34.3944
 20
-104.5513
 30
0.0
 10
-34.6053
 20
-107.3363
 30
0.0
 10
-36.624
 20
-108.4056
 30
0.0
 10
-36.624
 20
-108.4056
 30
0.0
 10
-38.4372
 20
-109.5533
 30
0.0
 10
-40.9592
 20
-108.2498
 30
0.0
 10
-41.5275
 20
-106.2334
 30
0.0
 10
-41.5275
 20
-106.2334
 30
0.0
 10
-42.3121
 20
-103.9107
 30
0.0
 10
-42.1066
 20
-100.8636
 30
0.0
 10
-40.142
 20
-99.2203
 30
0.0
 10
-40.142
 20
-99.2203
 30
0.0
 10
-37.8203
 20
-98.0006
 30
0.0
 10
-35.125
 20
-100.017
 30
0.0
 10
-34.8437
 20
-102.5237
 30
0.0
  0
SPLINE
  5
A8
330
1F
100
AcDbEntity
  8
layer 1
 62
   250
100
AcDbSpline
210
0.0
220
0.0
230
1.0
 70
    11
 71
     3
 72
    28
 73
    24
 74
     0
 42
0.0000000001
 43
0.0000000001
 12
1.0
 22
0.0
 32
0.0
 13
1.0
 23
0.0
 33
0.0
 40
0.0
 40
0.0
 40
0.0
 40
0.0
 40
0.1428571428571428
 40
0.1428571428571428
 40
0.1428571428571428
 40
0.1428571428571428
 40
0.2857142857142857
 40
0.2857142857142857
 40
0.2857142857142857
 40
0.2857142857142857
 40
0.4285714285714285
 40
0.4285714285714285
 40
0.4285714285714285
 40
0.4285714285714285
 40
0.5714285714285714
 40
0.5714285714285714
 40
0.5714285714285714
 40
0.5714285714285714
 40
0.7142857142857143
 40
0.7142857142857143
 40
0.7142857142857143
 40
0.7142857142857143
 40
1.0
 40
1.0
 40
1.0
 40
1.0
 10
-35.5851
 20
94.8194
 30
0.0
 10
-34.4754
 20
91.8227
 30
0.0
 10
-35.6769
 20
88.6919
 30
0.0
 10
-36.5104
 20
85.8012
 30
0.0
 10
-36.5104
 20
85.8012
 30
0.0
 10
-37.0409
 20
83.9295
 30
0.0
 10
-38.4155
 20
81.9521
 30
0.0
 10
-40.4774
 20
81.8629
 30
0.0
 10
-40.4774
 20
81.8629
 30
0.0
 10
-42.6154
 20
81.7794
 30
0.0
 10
-44.2009
 20
83.9463
 30
0.0
 10
-44.3957
 20
85.985
 30
0.0
 10
-44.3957
 20
85.985
 30
0.0
 10
-44.6449
 20
88.3077
 30
0.0
 10
-44.5963
 20
90.8588
 30
0.0
 10
-43.3027
 20
92.8753
 30
0.0
 10
-43.3027
 20
92.8753
 30
0.0
 10
-42.3773
 20
94.3012
 30
0.0
 10
-41.4462
 20
96.0171
 30
0.0
 10
-39.7091
 20
96.4738
 30
0.0
 10
-39.7091
 20
96.4738
 30
0.0
 10
-38.1666
 20
97.1201
 30
0.0
 10
-36.2615
 20
96.4014
 30
0.0
 10
-35.5851
 20
94.8194
 30
0.0
  0
SPLINE
  5
A9
330
1F
100
AcDbEntity
  8
layer 1
 62
   250
100
AcDbSpline
210
0.0
220
0.0
230
1.0
 70
    11
 71
     3
 72
    24
 73
    20
 74
     0
 42
0.0000000001
 43
0.0000000001
 12
1.0
 22
0.0
 32
0.0
 13
1.0
 23
0.0
 33
0.0
 40
0.0
 40
0.0
 40
0.0
 40
0.0
 40
0.1666666666666667
 40
0.1666666666666667
 40
0.1666666666666667
 40
0.1666666666666667
 40
0.3333333333333333
 40
0.3333333333333333
 40
0.3333333333333333
 40
0.3333333333333333
 40
0.5
 40
0.5
 40
0.5
 40
0.5
 40
0.6666666666666666
 40
0.6666666666666666
 40
0.6666666666666666
 40
0.6666666666666666
 40
1.0
 40
1.0
 40
1.0
 40
1.0
 10
-37.4575
 20
52.959
 30
0.0
 10
-36.792
 20
50.5526
 30
0.0
 10
-38.1342
 20
47.7898
 30
0.0
 10
-40.5209
 20
47.1158
 30
0.0
 10
-40.5209
 20
47.1158
 30
0.0
 10
-45.2078
 20
45.0769
 30
0.0
 10
-50.9662
 20
49.667
 30
0.0
 10
-50.295
 20
54.8527
 30
0.0
 10
-50.295
 20
54.8527
 30
0.0
 10
-50.3599
 20
56.8025
 30
0.0
 10
-48.785
 20
58.284
 30
0.0
 10
-46.9938
 20
58.5236
 30
0.0
 10
-46.9938
 20
58.5236
 30
0.0
 10
-44.9857
 20
59.2645
 30
0.0
 10
-42.9344
 20
58.4179
 30
0.0
 10
-41.2731
 20
57.248
 30
0.0
 10
-41.2731
 20
57.248
 30
0.0
 10
-39.6439
 20
56.2565
 30
0.0
 10
-37.8959
 20
54.9809
 30
0.0
 10
-37.4575
 20
52.959
 30
0.0
  0
SPLINE
  5
AA
330
1F
100
AcDbEntity
  8
layer 1
 62
   250
100
AcDbSpline
210
0.0
220
0.0
230
1.0
 70
    11
 71
     3
 72
    20
 73
    16
 74
     0
 42
0.0000000001
 43
0.0000000001
 12
1.0
 22
0.0
 32
0.0
 13
1.0
 23
0.0
 33
0.0
 40
0.0
 40
0.0
 40
0.0
 40
0.0
 40
0.2
 40
0.2
 40
0.2
 40
0.2
 40
0.4
 40
0.4
 40
0.4
 40
0.4
 40
0.6
 40
0.6
 40
0.6
 40
0.6
 40
1.0
 40
1.0
 40
1.0
 40
1.0
 10
-37.9934
 20
-23.5151
 30
0.0
 10
-37.6687
 20
-24.3841
 30
0.0
 10
-37.7228
 20
-25.5594
 30
0.0
 10
-38.4427
 20
-26.2109
 30
0.0
 10
-38.4427
 20
-26.2109
 30
0.0
 10
-39.7415
 20
-27.4423
 30
0.0
 10
-42.1281
 20
-26.5285
 30
0.0
 10
-42.5341
 20
-24.8074
 30
0.0
 10
-42.5341
 20
-24.8074
 30
0.0
 10
-43.0103
 20
-23.3368
 30
0.0
 10
-42.1876
 20
-21.081
 30
0.0
 10
-40.4288
 20
-21.2203
 30
0.0
 10
-40.4288
 20
-21.2203
 30
0.0
 10
-39.065
 20
-21.0197
 30
0.0
 10
-38.4101
 20
-22.4343
 30
0.0
 10
-37.9934
 20
-23.5151
 30
0.0
  0
SPLINE
  5
AB
330
1F
100
AcDbEntity
  8
layer 1
 62
   250
100
AcDbSpline
210
0.0
220
0.0
230
1.0
 70
    11
 71
     3
 72
    20
 73
    16
 74
     0
 42
0.0000000001
 43
0.0000000001
 12
1.0
 22
0.0
 32
0.0
 13
1.0
 23
0.0
 33
0.0
 40
0.0
 40
0.0
 40
0.0
 40
0.0
 40
0.2
 40
0.2
 40
0.2
 40
0.2
 40
0.4
 40
0.4
 40
0.4
 40
0.4
 40
0.6
 40
0.6
 40
0.6
 40
0.6
 40
1.0
 40
1.0
 40
1.0
 40
1.0
 10
-38.6212
 20
106.8623
 30
0.0
 10
-37.685
 20
105.3973
 30
0.0
 10
-38.0367
 20
103.1971
 30
0.0
 10
-39.5901
 20
102.3337
 30
0.0
 10
-39.5901
 20
102.3337
 30
0.0
 10
-42.0577
 20
100.6904
 30
0.0
 10
-45.5325
 20
99.7046
 30
0.0
 10
-48.2276
 20
101.3311
 30
0.0
 10
-48.2276
 20
101.3311
 30
0.0
 10
-51.8698
 20
103.4979
 30
0.0
 10
-50.6088
 20
110.3993
 30
0.0
 10
-46.3821
 20
110.9063
 30
0.0
 10
-46.3821
 20
110.9063
 30
0.0
 10
-43.2972
 20
111.4467
 30
0.0
 10
-40.0771
 20
109.6641
 30
0.0
 10
-38.6212
 20
106.8623
 30
0.0
  0
SPLINE
  5
AC
330
1F
100
AcDbEntity
  8
layer 1
 62
   250
100
AcDbSpline
210
0.0
220
0.0
230
1.0
 70
    11
 71
     3
 72
    28
 73
    24
 74
     0
 42
0.0000000001
 43
0.0000000001
 12
1.0
 22
0.0
 32
0.0
 13
1.0
 23
0.0
 33
0.0
 40
0.0
 40
0.0
 40
0.0
 40
0.0
 40
0.1428571428571428
 40
0.1428571428571428
 40
0.1428571428571428
 40
0.1428571428571428
 40
0.2857142857142857
 40
0.2857142857142857
 40
0.2857142857142857
 40
0.2857142857142857
 40
0.4285714285714285
 40
0.4285714285714285
 40
0.4285714285714285
 40
0.4285714285714285
 40
0.5714285714285714
 40
0.5714285714285714
 40
0.5714285714285714
 40
0.5714285714285714
 40
0.7142857142857143
 40
0.7142857142857143
 40
0.7142857142857143
 40
0.7142857142857143
 40
1.0
 40
1.0
 40
1.0
 40
1.0
 10
-38.6158
 20
-8.353
 30
0.0
 10
-38.1826
 20
-11.3052
 30
0.0
 10
-38.2098
 20
-14.5582
 30
0.0
 10
-39.736
 20
-17.1985
 30
0.0
 10
-39.736
 20
-17.1985
 30
0.0
 10
-40.9538
 20
-19.3431
 30
0.0
 10
-43.4921
 20
-20.1951
 30
0.0
 10
-45.776
 20
-20.3068
 30
0.0
 10
-45.776
 20
-20.3068
 30
0.0
 10
-47.443
 20
-20.3455
 30
0.0
 10
-48.6443
 20
-18.8808
 30
0.0
 10
-49.521
 20
-17.5995
 30
0.0
 10
-49.521
 20
-17.5995
 30
0.0
 10
-50.9227
 20
-15.2712
 30
0.0
 10
-50.1001
 20
-12.4582
 30
0.0
 10
-49.4778
 20
-10.0128
 30
0.0
 10
-49.4778
 20
-10.0128
 30
0.0
 10
-48.4279
 20
-7.289
 30
0.0
 10
-46.3712
 20
-4.71
 30
0.0
 10
-43.557
 20
-3.852
 30
0.0
 10
-43.557
 20
-3.852
 30
0.0
 10
-40.997
 20
-3.4231
 30
0.0
 10
-38.9188
 20
-5.9186
 30
0.0
 10
-38.6158
 20
-8.353
 30
0.0
  0
SPLINE
  5
AD
330
1F
100
AcDbEntity
  8
layer 1
 62
   250
100
AcDbSpline
210
0.0
220
0.0
230
1.0
 70
    11
 71
     3
 72
    24
 73
    20
 74
     0
 42
0.0000000001
 43
0.0000000001
 12
1.0
 22
0.0
 32
0.0
 13
1.0
 23
0.0
 33
0.0
 40
0.0
 40
0.0
 40
0.0
 40
0.0
 40
0.1666666666666667
 40
0.1666666666666667
 40
0.1666666666666667
 40
0.1666666666666667
 40
0.3333333333333333
 40
0.3333333333333333
 40
0.3333333333333333
 40
0.3333333333333333
 40
0.5
 40
0.5
 40
0.5
 40
0.5
 40
0.6666666666666666
 40
0.6666666666666666
 40
0.6666666666666666
 40
0.6666666666666666
 40
1.0
 40
1.0
 40
1.0
 40
1.0
 10
-40.2665
 20
120.8046
 30
0.0
 10
-39.1352
 20
117.6907
 30
0.0
 10
-42.4692
 20
115.6799
 30
0.0
 10
-44.6069
 20
114.2818
 30
0.0
 10
-44.6069
 20
114.2818
 30
0.0
 10
-46.2793
 20
112.8225
 30
0.0
 10
-49.2342
 20
113.5298
 30
0.0
 10
-49.8351
 20
115.7747
 30
0.0
 10
-49.8351
 20
115.7747
 30
0.0
 10
-50.5548
 20
117.9527
 30
0.0
 10
-51.0959
 20
120.3979
 30
0.0
 10
-50.5115
 20
122.6653
 30
0.0
 10
-50.5115
 20
122.6653
 30
0.0
 10
-50.0678
 20
124.676
 30
0.0
 10
-47.7243
 20
125.8289
 30
0.0
 10
-45.9114
 20
124.9712
 30
0.0
 10
-45.9114
 20
124.9712
 30
0.0
 10
-43.8169
 20
124.0243
 30
0.0
 10
-41.3218
 20
123.0607
 30
0.0
 10
-40.2665
 20
120.8046
 30
0.0
  0
SPLINE
  5
AE
330
1F
100
AcDbEntity
  8
layer 1
 62
   250
100
AcDbSpline
210
0.0
220
0.0
230
1.0
 70
    11
 71
     3
 72
    24
 73
    20
 74
     0
 42
0.0000000001
 43
0.0000000001
 12
1.0
 22
0.0
 32
0.0
 13
1.0
 23
0.0
 33
0.0
 40
0.0
 40
0.0
 40
0.0
 40
0.0
 40
0.1666666666666667
 40
0.1666666666666667
 40
0.1666666666666667
 40
0.1666666666666667
 40
0.3333333333333333
 40
0.3333333333333333
 40
0.3333333333333333
 40
0.3333333333333333
 40
0.5
 40
0.5
 40
0.5
 40
0.5
 40
0.6666666666666666
 40
0.6666666666666666
 40
0.6666666666666666
 40
0.6666666666666666
 40
1.0
 40
1.0
 40
1.0
 40
1.0
 10
-40.2611
 20
-54.1235
 30
0.0
 10
-39.0218
 20
-57.1315
 30
0.0
 10
-39.5249
 20
-60.7132
 30
0.0
 10
-41.3218
 20
-63.3646
 30
0.0
 10
-41.3218
 20
-63.3646
 30
0.0
 10
-42.242
 20
-64.7405
 30
0.0
 10
-43.8006
 20
-65.5147
 30
0.0
 10
-45.4026
 20
-65.615
 30
0.0
 10
-45.4026
 20
-65.615
 30
0.0
 10
-48.1412
 20
-65.3087
 30
0.0
 10
-50.1977
 20
-62.6628
 30
0.0
 10
-50.3167
 20
-59.9057
 30
0.0
 10
-50.3167
 20
-59.9057
 30
0.0
 10
-50.7659
 20
-56.6638
 30
0.0
 10
-49.743
 20
-52.6753
 30
0.0
 10
-46.6419
 20
-51.216
 30
0.0
 10
-46.6419
 20
-51.216
 30
0.0
 10
-44.1685
 20
-50.0239
 30
0.0
 10
-41.2405
 20
-51.6504
 30
0.0
 10
-40.2611
 20
-54.1235
 30
0.0
  0
SPLINE
  5
AF
330
1F
100
AcDbEntity
  8
layer 1
 62
   250
100
AcDbSpline
210
0.0
220
0.0
230
1.0
 70
    11
 71
     3
 72
    24
 73
    20
 74
     0
 42
0.0000000001
 43
0.0000000001
 12
1.0
 22
0.0
 32
0.0
 13
1.0
 23
0.0
 33
0.0
 40
0.0
 40
0.0
 40
0.0
 40
0.0
 40
0.1666666666666667
 40
0.1666666666666667
 40
0.1666666666666667
 40
0.1666666666666667
 40
0.3333333333333333
 40
0.3333333333333333
 40
0.3333333333333333
 40
0.3333333333333333
 40
0.5
 40
0.5
 40
0.5
 40
0.5
 40
0.6666666666666666
 40
0.6666666666666666
 40
0.6666666666666666
 40
0.6666666666666666
 40
1.0
 40
1.0
 40
1.0
 40
1.0
 10
-40.1366
 20
-69.6313
 30
0.0
 10
-38.6753
 20
-73.4746
 30
0.0
 10
-40.7535
 20
-78.4712
 30
0.0
 10
-44.699
 20
-79.602
 30
0.0
 10
-44.699
 20
-79.602
 30
0.0
 10
-46.6905
 20
-79.9977
 30
0.0
 10
-49.4941
 20
-79.485
 30
0.0
 10
-50.0569
 20
-77.1287
 30
0.0
 10
-50.0569
 20
-77.1287
 30
0.0
 10
-50.5387
 20
-74.6501
 30
0.0
 10
-51.2475
 20
-71.9039
 30
0.0
 10
-50.1977
 20
-69.4864
 30
0.0
 10
-50.1977
 20
-69.4864
 30
0.0
 10
-49.1152
 20
-67.442
 30
0.0
 10
-46.7394
 20
-67.1136
 30
0.0
 10
-44.7153
 20
-66.8794
 30
0.0
 10
-44.7153
 20
-66.8794
 30
0.0
 10
-42.8211
 20
-66.5396
 30
0.0
 10
-40.7049
 20
-67.6927
 30
0.0
 10
-40.1366
 20
-69.6313
 30
0.0
  0
SPLINE
  5
B0
330
1F
100
AcDbEntity
  8
layer 1
 62
   250
100
AcDbSpline
210
0.0
220
0.0
230
1.0
 70
    11
 71
     3
 72
    24
 73
    20
 74
     0
 42
0.0000000001
 43
0.0000000001
 12
1.0
 22
0.0
 32
0.0
 13
1.0
 23
0.0
 33
0.0
 40
0.0
 40
0.0
 40
0.0
 40
0.0
 40
0.1666666666666667
 40
0.1666666666666667
 40
0.1666666666666667
 40
0.1666666666666667
 40
0.3333333333333333
 40
0.3333333333333333
 40
0.3333333333333333
 40
0.3333333333333333
 40
0.5
 40
0.5
 40
0.5
 40
0.5
 40
0.6666666666666666
 40
0.6666666666666666
 40
0.6666666666666666
 40
0.6666666666666666
 40
1.0
 40
1.0
 40
1.0
 40
1.0
 10
-40.7266
 20
-40.1424
 30
0.0
 10
-40.4614
 20
-42.5654
 30
0.0
 10
-40.3206
 20
-45.1609
 30
0.0
 10
-41.2027
 20
-47.4784
 30
0.0
 10
-41.2027
 20
-47.4784
 30
0.0
 10
-41.7061
 20
-48.9378
 30
0.0
 10
-43.4758
 20
-49.8066
 30
0.0
 10
-44.8395
 20
-49.0269
 30
0.0
 10
-44.8395
 20
-49.0269
 30
0.0
 10
-47.5132
 20
-47.7012
 30
0.0
 10
-48.969
 20
-44.7935
 30
0.0
 10
-49.9378
 20
-42.0529
 30
0.0
 10
-49.9378
 20
-42.0529
 30
0.0
 10
-51.123
 20
-39.3012
 30
0.0
 10
-49.1369
 20
-35.9423
 30
0.0
 10
-46.4092
 20
-35.2737
 30
0.0
 10
-46.4092
 20
-35.2737
 30
0.0
 10
-43.6543
 20
-35.0957
 30
0.0
 10
-41.1215
 20
-37.3626
 30
0.0
 10
-40.7266
 20
-40.1424
 30
0.0
  0
SPLINE
  5
B1
330
1F
100
AcDbEntity
  8
layer 1
 62
   250
100
AcDbSpline
210
0.0
220
0.0
230
1.0
 70
    11
 71
     3
 72
    24
 73
    20
 74
     0
 42
0.0000000001
 43
0.0000000001
 12
1.0
 22
0.0
 32
0.0
 13
1.0
 23
0.0
 33
0.0
 40
0.0
 40
0.0
 40
0.0
 40
0.0
 40
0.1666666666666667
 40
0.1666666666666667
 40
0.1666666666666667
 40
0.1666666666666667
 40
0.3333333333333333
 40
0.3333333333333333
 40
0.3333333333333333
 40
0.3333333333333333
 40
0.5
 40
0.5
 40
0.5
 40
0.5
 40
0.6666666666666666
 40
0.6666666666666666
 40
0.6666666666666666
 40
0.6666666666666666
 40
1.0
 40
1.0
 40
1.0
 40
1.0
 10
-41.0514
 20
40.7323
 30
0.0
 10
-40.6345
 20
38.9275
 30
0.0
 10
-40.7807
 20
37.0113
 30
0.0
 10
-41.2351
 20
35.2287
 30
0.0
 10
-41.2351
 20
35.2287
 30
0.0
 10
-41.9335
 20
32.6275
 30
0.0
 10
-45.4135
 20
31.3351
 30
0.0
 10
-47.524
 20
32.973
 30
0.0
 10
-47.524
 20
32.973
 30
0.0
 10
-50.0515
 20
34.9781
 30
0.0
 10
-50.8254
 20
38.766
 30
0.0
 10
-49.8025
 20
41.7962
 30
0.0
 10
-49.8025
 20
41.7962
 30
0.0
 10
-49.4128
 20
43.2388
 30
0.0
 10
-48.3956
 20
44.5257
 30
0.0
 10
-46.9721
 20
44.9601
 30
0.0
 10
-46.9721
 20
44.9601
 30
0.0
 10
-44.2984
 20
45.4224
 30
0.0
 10
-41.5924
 20
43.445
 30
0.0
 10
-41.0514
 20
40.7323
 30
0.0
  0
SPLINE
  5
B2
330
1F
100
AcDbEntity
  8
layer 1
 62
   250
100
AcDbSpline
210
0.0
220
0.0
230
1.0
 70
    11
 71
     3
 72
    16
 73
    12
 74
     0
 42
0.0000000001
 43
0.0000000001
 12
1.0
 22
0.0
 32
0.0
 13
1.0
 23
0.0
 33
0.0
 40
0.0
 40
0.0
 40
0.0
 40
0.0
 40
0.25
 40
0.25
 40
0.25
 40
0.25
 40
0.5
 40
0.5
 40
0.5
 40
0.5
 40
1.0
 40
1.0
 40
1.0
 40
1.0
 10
-45.1591
 20
78.9608
 30
0.0
 10
-41.165
 20
78.3259
 30
0.0
 10
-41.8846
 20
71.1291
 30
0.0
 10
-45.8084
 20
71.0735
 30
0.0
 10
-45.8084
 20
71.0735
 30
0.0
 10
-47.4482
 20
70.7727
 30
0.0
 10
-48.7742
 20
72.0147
 30
0.0
 10
-49.6185
 20
73.3071
 30
0.0
 10
-49.6185
 20
73.3071
 30
0.0
 10
-49.6403
 20
76.0476
 30
0.0
 10
-47.7947
 20
78.4541
 30
0.0
 10
-45.1591
 20
78.9608
 30
0.0
  0
SPLINE
  5
B3
330
1F
100
AcDbEntity
  8
layer 1
 62
   250
100
AcDbSpline
210
0.0
220
0.0
230
1.0
 70
    11
 71
     3
 72
    16
 73
    12
 74
     0
 42
0.0000000001
 43
0.0000000001
 12
1.0
 22
0.0
 32
0.0
 13
1.0
 23
0.0
 33
0.0
 40
0.0
 40
0.0
 40
0.0
 40
0.0
 40
0.25
 40
0.25
 40
0.25
 40
0.25
 40
0.5
 40
0.5
 40
0.5
 40
0.5
 40
1.0
 40
1.0
 40
1.0
 40
1.0
 10
-42.967
 20
66.2106
 30
0.0
 10
-41.2568
 20
63.0578
 30
0.0
 10
-45.1156
 20
58.897
 30
0.0
 10
-48.2222
 20
60.6292
 30
0.0
 10
-48.2222
 20
60.6292
 30
0.0
 10
-50.7659
 20
61.6595
 30
0.0
 10
-51.2584
 20
65.4307
 30
0.0
 10
-49.2179
 20
67.2355
 30
0.0
 10
-49.2179
 20
67.2355
 30
0.0
 10
-47.5349
 20
69.2352
 30
0.0
 10
-43.9142
 20
68.7338
 30
0.0
 10
-42.967
 20
66.2106
 30
0.0
  0
SPLINE
  5
B4
330
1F
100
AcDbEntity
  8
layer 1
 62
   250
100
AcDbSpline
210
0.0
220
0.0
230
1.0
 70
    11
 71
     3
 72
    20
 73
    16
 74
     0
 42
0.0000000001
 43
0.0000000001
 12
1.0
 22
0.0
 32
0.0
 13
1.0
 23
0.0
 33
0.0
 40
0.0
 40
0.0
 40
0.0
 40
0.0
 40
0.2
 40
0.2
 40
0.2
 40
0.2
 40
0.4
 40
0.4
 40
0.4
 40
0.4
 40
0.6
 40
0.6
 40
0.6
 40
0.6
 40
1.0
 40
1.0
 40
1.0
 40
1.0
 10
-42.848
 20
-27.2862
 30
0.0
 10
-42.2583
 20
-29.5588
 30
0.0
 10
-43.2269
 20
-32.7616
 30
0.0
 10
-45.8627
 20
-32.9288
 30
0.0
 10
-45.8627
 20
-32.9288
 30
0.0
 10
-47.9733
 20
-33.1849
 30
0.0
 10
-49.0611
 20
-30.9682
 30
0.0
 10
-49.5318
 20
-29.2135
 30
0.0
 10
-49.5318
 20
-29.2135
 30
0.0
 10
-50.4034
 20
-26.8629
 30
0.0
 10
-48.2708
 20
-23.9774
 30
0.0
 10
-45.8192
 20
-24.3226
 30
0.0
 10
-45.8192
 20
-24.3226
 30
0.0
 10
-44.4338
 20
-24.7183
 30
0.0
 10
-43.1997
 20
-25.8158
 30
0.0
 10
-42.848
 20
-27.2862
 30
0.0
  0
SPLINE
  5
B5
330
1F
100
AcDbEntity
  8
layer 1
 62
   250
100
AcDbSpline
210
0.0
220
0.0
230
1.0
 70
    11
 71
     3
 72
    16
 73
    12
 74
     0
 42
0.0000000001
 43
0.0000000001
 12
1.0
 22
0.0
 32
0.0
 13
1.0
 23
0.0
 33
0.0
 40
0.0
 40
0.0
 40
0.0
 40
0.0
 40
0.25
 40
0.25
 40
0.25
 40
0.25
 40
0.5
 40
0.5
 40
0.5
 40
0.5
 40
1.0
 40
1.0
 40
1.0
 40
1.0
 10
-42.9344
 20
-93.0598
 30
0.0
 10
-41.9713
 20
-96.1345
 30
0.0
 10
-43.9087
 20
-100.3455
 30
0.0
 10
-47.4104
 20
-100.1506
 30
0.0
 10
-47.4104
 20
-100.1506
 30
0.0
 10
-51.4964
 20
-99.9612
 30
0.0
 10
-52.2867
 20
-93.7281
 30
0.0
 10
-49.2938
 20
-91.5168
 30
0.0
 10
-49.2938
 20
-91.5168
 30
0.0
 10
-47.4914
 20
-89.2887
 30
0.0
 10
-43.5731
 20
-90.2469
 30
0.0
 10
-42.9344
 20
-93.0598
 30
0.0
  0
SPLINE
  5
B6
330
1F
100
AcDbEntity
  8
layer 1
 62
   250
100
AcDbSpline
210
0.0
220
0.0
230
1.0
 70
    11
 71
     3
 72
    16
 73
    12
 74
     0
 42
0.0000000001
 43
0.0000000001
 12
1.0
 22
0.0
 32
0.0
 13
1.0
 23
0.0
 33
0.0
 40
0.0
 40
0.0
 40
0.0
 40
0.0
 40
0.25
 40
0.25
 40
0.25
 40
0.25
 40
0.5
 40
0.5
 40
0.5
 40
0.5
 40
1.0
 40
1.0
 40
1.0
 40
1.0
 10
-43.4108
 20
-83.6236
 30
0.0
 10
-42.0417
 20
-86.7151
 30
0.0
 10
-45.9274
 20
-89.6228
 30
0.0
 10
-48.5198
 20
-87.8348
 30
0.0
 10
-48.5198
 20
-87.8348
 30
0.0
 10
-51.3233
 20
-86.3644
 30
0.0
 10
-49.5644
 20
-81.9637
 30
0.0
 10
-46.9234
 20
-81.4792
 30
0.0
 10
-46.9234
 20
-81.4792
 30
0.0
 10
-45.3214
 20
-80.8497
 30
0.0
 10
-43.9142
 20
-82.1532
 30
0.0
 10
-43.4108
 20
-83.6236
 30
0.0
  0
SPLINE
  5
B7
330
1F
100
AcDbEntity
  8
layer 1
 62
   250
100
AcDbSpline
210
0.0
220
0.0
230
1.0
 70
    11
 71
     3
 72
    16
 73
    12
 74
     0
 42
0.0000000001
 43
0.0000000001
 12
1.0
 22
0.0
 32
0.0
 13
1.0
 23
0.0
 33
0.0
 40
0.0
 40
0.0
 40
0.0
 40
0.0
 40
0.25
 40
0.25
 40
0.25
 40
0.25
 40
0.5
 40
0.5
 40
0.5
 40
0.5
 40
1.0
 40
1.0
 40
1.0
 40
1.0
 10
-44.0171
 20
11.6333
 30
0.0
 10
-42.9075
 20
8.7478
 30
0.0
 10
-46.6364
 20
5.5617
 30
0.0
 10
-49.1424
 20
7.3608
 30
0.0
 10
-49.1424
 20
7.3608
 30
0.0
 10
-51.3342
 20
9.2882
 30
0.0
 10
-50.9553
 20
13.6105
 30
0.0
 10
-48.2765
 20
14.9253
 30
0.0
 10
-48.2765
 20
14.9253
 30
0.0
 10
-46.2144
 20
15.527
 30
0.0
 10
-44.7096
 20
13.3211
 30
0.0
 10
-44.0171
 20
11.6333
 30
0.0
  0
SPLINE
  5
B8
330
1F
100
AcDbEntity
  8
layer 1
 62
   250
100
AcDbSpline
210
0.0
220
0.0
230
1.0
 70
    11
 71
     3
 72
    20
 73
    16
 74
     0
 42
0.0000000001
 43
0.0000000001
 12
1.0
 22
0.0
 32
0.0
 13
1.0
 23
0.0
 33
0.0
 40
0.0
 40
0.0
 40
0.0
 40
0.0
 40
0.2
 40
0.2
 40
0.2
 40
0.2
 40
0.4
 40
0.4
 40
0.4
 40
0.4
 40
0.6
 40
0.6
 40
0.6
 40
0.6
 40
1.0
 40
1.0
 40
1.0
 40
1.0
 10
-45.1156
 20
96.3011
 30
0.0
 10
-44.8289
 20
94.4684
 30
0.0
 10
-44.8235
 20
92.3016
 30
0.0
 10
-46.1872
 20
90.8867
 30
0.0
 10
-46.1872
 20
90.8867
 30
0.0
 10
-47.2101
 20
89.4607
 30
0.0
 10
-49.6294
 20
89.9342
 30
0.0
 10
-50.1001
 20
91.6333
 30
0.0
 10
-50.1001
 20
91.6333
 30
0.0
 10
-50.5493
 20
93.3766
 30
0.0
 10
-50.8417
 20
95.3708
 30
0.0
 10
-50.0838
 20
97.0697
 30
0.0
 10
-50.0838
 20
97.0697
 30
0.0
 10
-49.0503
 20
99.1141
 30
0.0
 10
-45.4458
 20
98.6572
 30
0.0
 10
-45.1156
 20
96.3011
 30
0.0
  0
SPLINE
  5
B9
330
1F
100
AcDbEntity
  8
layer 1
 62
   250
100
AcDbSpline
210
0.0
220
0.0
230
1.0
 70
    11
 71
     3
 72
    16
 73
    12
 74
     0
 42
0.0000000001
 43
0.0000000001
 12
1.0
 22
0.0
 32
0.0
 13
1.0
 23
0.0
 33
0.0
 40
0.0
 40
0.0
 40
0.0
 40
0.0
 40
0.25
 40
0.25
 40
0.25
 40
0.25
 40
0.5
 40
0.5
 40
0.5
 40
0.5
 40
1.0
 40
1.0
 40
1.0
 40
1.0
 10
-45.1374
 20
2.1805
 30
0.0
 10
-44.6341
 20
0.6876
 30
0.0
 10
-44.6936
 20
-1.5405
 30
0.0
 10
-46.4416
 20
-2.1085
 30
0.0
 10
-46.4416
 20
-2.1085
 30
0.0
 10
-49.1313
 20
-3.0889
 30
0.0
 10
-52.0323
 20
0.1809
 30
0.0
 10
-50.5925
 20
2.8044
 30
0.0
 10
-50.5925
 20
2.8044
 30
0.0
 10
-49.6077
 20
5.3444
 30
0.0
 10
-45.5975
 20
4.7872
 30
0.0
 10
-45.1374
 20
2.1805
 30
0.0
  0
SPLINE
  5
BA
330
1F
100
AcDbEntity
  8
layer 1
 62
   250
100
AcDbSpline
210
0.0
220
0.0
230
1.0
 70
    11
 71
     3
 72
    20
 73
    16
 74
     0
 42
0.0000000001
 43
0.0000000001
 12
1.0
 22
0.0
 32
0.0
 13
1.0
 23
0.0
 33
0.0
 40
0.0
 40
0.0
 40
0.0
 40
0.0
 40
0.2
 40
0.2
 40
0.2
 40
0.2
 40
0.4
 40
0.4
 40
0.4
 40
0.4
 40
0.6
 40
0.6
 40
0.6
 40
0.6
 40
1.0
 40
1.0
 40
1.0
 40
1.0
 10
-45.1102
 20
-104.1892
 30
0.0
 10
-44.4446
 20
-105.526
 30
0.0
 10
-44.764
 20
-107.3807
 30
0.0
 10
-46.0576
 20
-108.1942
 30
0.0
 10
-46.0576
 20
-108.1942
 30
0.0
 10
-47.3023
 20
-109.1465
 30
0.0
 10
-49.0503
 20
-108.7232
 30
0.0
 10
-50.1705
 20
-107.7707
 30
0.0
 10
-50.1705
 20
-107.7707
 30
0.0
 10
-51.4369
 20
-105.7599
 30
0.0
 10
-49.7376
 20
-102.7297
 30
0.0
 10
-47.4536
 20
-102.6516
 30
0.0
 10
-47.4536
 20
-102.6516
 30
0.0
 10
-46.3875
 20
-102.4289
 30
0.0
 10
-45.5812
 20
-103.3313
 30
0.0
 10
-45.1102
 20
-104.1892
 30
0.0
  0
SPLINE
  5
BB
330
1F
100
AcDbEntity
  8
layer 1
 62
   250
100
AcDbSpline
210
0.0
220
0.0
230
1.0
 70
    11
 71
     3
 72
    16
 73
    12
 74
     0
 42
0.0000000001
 43
0.0000000001
 12
1.0
 22
0.0
 32
0.0
 13
1.0
 23
0.0
 33
0.0
 40
0.0
 40
0.0
 40
0.0
 40
0.0
 40
0.25
 40
0.25
 40
0.25
 40
0.25
 40
0.5
 40
0.5
 40
0.5
 40
0.5
 40
1.0
 40
1.0
 40
1.0
 40
1.0
 10
-48.6606
 20
87.5668
 30
0.0
 10
-46.8313
 20
86.3917
 30
0.0
 10
-45.3268
 20
84.4476
 30
0.0
 10
-45.3322
 20
82.1358
 30
0.0
 10
-45.3322
 20
82.1358
 30
0.0
 10
-45.3754
 20
80.7545
 30
0.0
 10
-46.8639
 20
80.1976
 30
0.0
 10
-48.011
 20
80.476
 30
0.0
 10
-48.011
 20
80.476
 30
0.0
 10
-50.3545
 20
81.8629
 30
0.0
 10
-51.107
 20
85.879
 30
0.0
 10
-48.6606
 20
87.5668
 30
0.0
  0
ENDSEC
  0
SECTION
  2
OBJECTS
  0
DICTIONARY
  5
C
330
0
100
AcDbDictionary
281
     1
  3
ACAD_GROUP
350
D
  3
ACAD_LAYOUT
350
1A
  3
ACAD_MATERIAL
350
3B
  3
ACAD_MLEADERSTYLE
350
DE
  3
ACAD_MLINESTYLE
350
17
  3
ACAD_PLOTSETTINGS
350
19
  3
ACAD_PLOTSTYLENAME
350
E
  3
ACAD_TABLESTYLE
350
DD
  3
ACAD_VISUALSTYLE
350
2A
  0
DICTIONARY
  5
D
102
{ACAD_REACTORS
330
C
102
}
330
C
100
AcDbDictionary
281
     1
  0
DICTIONARY
  5
1A
102
{ACAD_REACTORS
330
C
102
}
330
C
100
AcDbDictionary
281
     1
  3
Layout1
350
1E
  3
Layout2
350
26
  3
Model
350
22
  0
DICTIONARY
  5
3B
102
{ACAD_REACTORS
330
C
102
}
330
C
100
AcDbDictionary
281
     1
  3
ByBlock
350
3D
  3
ByLayer
350
3C
  3
Global
350
3E
  0
DICTIONARY
  5
DE
102
{ACAD_REACTORS
330
C
102
}
330
C
100
AcDbDictionary
281
     1
  0
DICTIONARY
  5
17
102
{ACAD_REACTORS
330
C
102
}
330
C
100
AcDbDictionary
281
     1
  3
Standard
350
18
  0
DICTIONARY
  5
19
102
{ACAD_REACTORS
330
C
102
}
330
C
100
AcDbDictionary
281
     1
  0
ACDBDICTIONARYWDFLT
  5
E
102
{ACAD_REACTORS
330
C
102
}
330
C
100
AcDbDictionary
281
     1
  3
Normal
350
F
100
AcDbDictionaryWithDefault
340
F
  0
DICTIONARY
  5
DD
102
{ACAD_REACTORS
330
C
102
}
330
C
100
AcDbDictionary
281
     1
  0
DICTIONARY
  5
2A
102
{ACAD_REACTORS
330
C
102
}
330
C
100
AcDbDictionary
281
     1
  3
2dWireframe
350
2F
  3
3D Hidden
350
31
  3
3dWireframe
350
30
  3
Basic
350
32
  3
Brighten
350
36
  3
ColorChange
350
3A
  3
Conceptual
350
34
  3
Dim
350
35
  3
Facepattern
350
39
  3
Flat
350
2B
  3
FlatWithEdges
350
2C
  3
Gouraud
350
2D
  3
GouraudWithEdges
350
2E
  3
Linepattern
350
38
  3
Realistic
350
33
  3
Thicken
350
37
  0
LAYOUT
  5
1E
102
{ACAD_REACTORS
330
1A
102
}
330
1A
100
AcDbPlotSettings
  1

  2
none_device
  4

  6

 40
0.0
 41
0.0
 42
0.0
 43
0.0
 44
0.0
 45
0.0
 46
0.0
 47
0.0
 48
0.0
 49
0.0
140
0.0
141
0.0
142
1.0
143
1.0
 70
   688
 72
     0
 73
     0
 74
     5
  7

 75
    16
 76
     0
 77
     2
 78
   300
147
1.0
148
0.0
149
0.0
100
AcDbLayout
  1
Layout1
 70
     1
 71
     1
 10
0.0
 20
0.0
 11
12.0
 21
9.0
 12
0.0
 22
0.0
 32
0.0
 14
1.000000000000000E+20
 24
1.000000000000000E+20
 34
1.000000000000000E+20
 15
-1.000000000000000E+20
 25
-1.000000000000000E+20
 35
-1.000000000000000E+20
146
0.0
 13
0.0
 23
0.0
 33
0.0
 16
1.0
 26
0.0
 36
0.0
 17
0.0
 27
1.0
 37
0.0
 76
     0
330
1B
  0
LAYOUT
  5
26
102
{ACAD_REACTORS
330
1A
102
}
330
1A
100
AcDbPlotSettings
  1

  2
none_device
  4

  6

 40
0.0
 41
0.0
 42
0.0
 43
0.0
 44
0.0
 45
0.0
 46
0.0
 47
0.0
 48
0.0
 49
0.0
140
0.0
141
0.0
142
1.0
143
1.0
 70
   688
 72
     0
 73
     0
 74
     5
  7

 75
    16
 76
     0
 77
     2
 78
   300
147
1.0
148
0.0
149
0.0
100
AcDbLayout
  1
Layout2
 70
     1
 71
     2
 10
0.0
 20
0.0
 11
0.0
 21
0.0
 12
0.0
 22
0.0
 32
0.0
 14
0.0
 24
0.0
 34
0.0
 15
0.0
 25
0.0
 35
0.0
146
0.0
 13
0.0
 23
0.0
 33
0.0
 16
1.0
 26
0.0
 36
0.0
 17
0.0
 27
1.0
 37
0.0
 76
     0
330
23
  0
LAYOUT
  5
22
102
{ACAD_REACTORS
330
1A
102
}
330
1A
100
AcDbPlotSettings
  1

  2
none_device
  4

  6

 40
0.0
 41
0.0
 42
0.0
 43
0.0
 44
0.0
 45
0.0
 46
0.0
 47
0.0
 48
0.0
 49
0.0
140
0.0
141
0.0
142
1.0
143
1.0
 70
  1712
 72
     0
 73
     0
 74
     0
  7

 75
     0
 76
     0
 77
     2
 78
   300
147
1.0
148
0.0
149
0.0
100
AcDbLayout
  1
Model
 70
     1
 71
     0
 10
0.0
 20
0.0
 11
12.0
 21
9.0
 12
0.0
 22
0.0
 32
0.0
 14
-57.2751
 24
-115.0085
 34
0.0
 15
66.2067
 25
131.9553
 35
0.0
146
0.0
 13
0.0
 23
0.0
 33
0.0
 16
1.0
 26
0.0
 36
0.0
 17
0.0
 27
1.0
 37
0.0
 76
     0
330
1F
331
29
  0
MATERIAL
  5
3D
102
{ACAD_REACTORS
330
3B
102
}
330
3B
100
AcDbMaterial
  1
ByBlock
 72
     1
 94
      127
  0
MATERIAL
  5
3C
102
{ACAD_REACTORS
330
3B
102
}
330
3B
100
AcDbMaterial
  1
ByLayer
 72
     1
 94
      127
  0
MATERIAL
  5
3E
102
{ACAD_REACTORS
330
3B
102
}
330
3B
100
AcDbMaterial
  1
Global
 72
     1
 94
      127
  0
MLINESTYLE
  5
18
102
{ACAD_REACTORS
330
17
102
}
330
17
100
AcDbMlineStyle
  2
Standard
 70
     0
  3

 62
   256
 51
90.0
 52
90.0
 71
     2
 49
0.5
 62
   256
  6
BYLAYER
 49
-0.5
 62
   256
  6
BYLAYER
  0
ACDBPLACEHOLDER
  5
F
102
{ACAD_REACTORS
330
E
102
}
330
E
  0
VISUALSTYLE
  5
2F
102
{ACAD_REACTORS
330
2A
102
}
102
{ACAD_XDICTIONARY
360
C5
102
}
330
2A
100
AcDbVisualStyle
  2
2dWireframe
 70
     4
 71
     0
 72
     2
 73
     0
 90
        0
 40
-0.6
 41
-30.0
 62
     5
 63
     7
421
 16777215
 74
     1
 91
        4
 64
     7
 65
   257
 75
     1
175
     1
 42
1.0
 92
        0
 66
   257
 43
1.0
 76
     1
 77
     6
 78
     2
 67
     7
 79
     5
170
     0
171
     0
290
     0
174
     0
 93
        1
 44
0.0
173
     0
291
     0
 45
0.0
  0
VISUALSTYLE
  5
31
102
{ACAD_REACTORS
330
2A
102
}
102
{ACAD_XDICTIONARY
360
C9
102
}
330
2A
100
AcDbVisualStyle
  2
3D Hidden
 70
     6
 71
     1
 72
     2
 73
     2
 90
        0
 40
-0.6
 41
-30.0
 62
     5
 63
     7
421
 16777215
 74
     2
 91
        2
 64
     7
 65
   257
 75
     2
175
     1
 42
40.0
 92
        0
 66
   257
 43
1.0
 76
     1
 77
     6
 78
     2
 67
     7
 79
     3
170
     0
171
     0
290
     0
174
     0
 93
        1
 44
0.0
173
     0
291
     0
 45
0.0
  0
VISUALSTYLE
  5
30
102
{ACAD_REACTORS
330
2A
102
}
102
{ACAD_XDICTIONARY
360
C7
102
}
330
2A
100
AcDbVisualStyle
  2
3dWireframe
 70
     5
 71
     0
 72
     2
 73
     0
 90
        0
 40
-0.6
 41
-30.0
 62
     5
 63
     7
421
 16777215
 74
     1
 91
        4
 64
     7
 65
   257
 75
     1
175
     1
 42
1.0
 92
        0
 66
   257
 43
1.0
 76
     1
 77
     6
 78
     2
 67
     7
 79
     5
170
     0
171
     0
290
     0
174
     0
 93
        1
 44
0.0
173
     0
291
     0
 45
0.0
  0
VISUALSTYLE
  5
32
102
{ACAD_REACTORS
330
2A
102
}
102
{ACAD_XDICTIONARY
360
CB
102
}
330
2A
100
AcDbVisualStyle
  2
Basic
 70
     7
 71
     1
 72
     0
 73
     1
 90
        0
 40
-0.6
 41
-30.0
 62
     5
 63
     7
421
 16777215
 74
     0
 91
        4
 64
     7
 65
   257
 75
     1
175
     1
 42
1.0
 92
        8
 66
     7
 43
1.0
 76
     1
 77
     6
 78
     2
 67
     7
 79
     5
170
     0
171
     0
290
     0
174
     0
 93
        1
 44
0.0
173
     0
291
     1
 45
0.0
  0
VISUALSTYLE
  5
36
102
{ACAD_REACTORS
330
2A
102
}
102
{ACAD_XDICTIONARY
360
D3
102
}
330
2A
100
AcDbVisualStyle
  2
Brighten
 70
    12
 71
     2
 72
     2
 73
     0
 90
        0
 40
-0.6
 41
-30.0
 62
     5
 63
     7
421
 16777215
 74
     1
 91
        4
 64
     7
 65
   257
 75
     1
175
     1
 42
1.0
 92
        8
 66
     7
 43
1.0
 76
     1
 77
     6
 78
     2
 67
     7
 79
     5
170
     0
171
     0
290
     0
174
     0
 93
        1
 44
50.0
173
     0
291
     1
 45
0.0
  0
VISUALSTYLE
  5
3A
102
{ACAD_REACTORS
330
2A
102
}
102
{ACAD_XDICTIONARY
360
DB
102
}
330
2A
100
AcDbVisualStyle
  2
ColorChange
 70
    16
 71
     2
 72
     2
 73
     3
 90
        0
 40
-0.6
 41
-30.0
 62
     5
 63
     8
421
  8421504
 74
     1
 91
        4
 64
     7
 65
   257
 75
     1
175
     1
 42
1.0
 92
        8
 66
     8
424
  8421504
 43
1.0
 76
     1
 77
     6
 78
     2
 67
     7
 79
     5
170
     0
171
     0
290
     0
174
     0
 93
        1
 44
0.0
173
     0
291
     1
 45
0.0
  0
VISUALSTYLE
  5
34
102
{ACAD_REACTORS
330
2A
102
}
102
{ACAD_XDICTIONARY
360
CF
102
}
330
2A
100
AcDbVisualStyle
  2
Conceptual
 70
     9
 71
     3
 72
     2
 73
     0
 90
        0
 40
-0.6
 41
-30.0
 62
     5
 63
     7
421
 16777215
 74
     2
 91
        2
 64
     7
 65
   257
 75
     1
175
     1
 42
40.0
 92
        8
 66
     7
 43
1.0
 76
     1
 77
     6
 78
     2
 67
     7
 79
     3
170
     0
171
     0
290
     0
174
     0
 93
        1
 44
0.0
173
     0
291
     0
 45
0.0
  0
VISUALSTYLE
  5
35
102
{ACAD_REACTORS
330
2A
102
}
102
{ACAD_XDICTIONARY
360
D1
102
}
330
2A
100
AcDbVisualStyle
  2
Dim
 70
    11
 71
     2
 72
     2
 73
     0
 90
        0
 40
-0.6
 41
-30.0
 62
     5
 63
     7
421
 16777215
 74
     1
 91
        4
 64
     7
 65
   257
 75
     1
175
     1
 42
1.0
 92
        8
 66
     7
 43
1.0
 76
     1
 77
     6
 78
     2
 67
     7
 79
     5
170
     0
171
     0
290
     0
174
     0
 93
        1
 44
-50.0
173
     0
291
     1
 45
0.0
  0
VISUALSTYLE
  5
39
102
{ACAD_REACTORS
330
2A
102
}
102
{ACAD_XDICTIONARY
360
D9
102
}
330
2A
100
AcDbVisualStyle
  2
Facepattern
 70
    15
 71
     2
 72
     2
 73
     0
 90
        0
 40
-0.6
 41
-30.0
 62
     5
 63
     7
421
 16777215
 74
     1
 91
        4
 64
     7
 65
   257
 75
     1
175
     1
 42
1.0
 92
        8
 66
     7
 43
1.0
 76
     1
 77
     6
 78
     2
 67
     7
 79
     5
170
     0
171
     0
290
     0
174
     0
 93
        1
 44
0.0
173
     0
291
     1
 45
0.0
  0
VISUALSTYLE
  5
2B
102
{ACAD_REACTORS
330
2A
102
}
102
{ACAD_XDICTIONARY
360
BD
102
}
330
2A
100
AcDbVisualStyle
  2
Flat
 70
     0
 71
     2
 72
     1
 73
     1
 90
        2
 40
-0.6
 41
30.0
 62
     5
 63
     7
421
 16777215
 74
     0
 91
        4
 64
     7
 65
   257
 75
     1
175
     1
 42
1.0
 92
        8
 66
     7
 43
1.0
 76
     1
 77
     6
 78
     2
 67
     7
 79
     5
170
     0
171
     0
290
     0
174
     0
 93
       13
 44
0.0
173
     0
291
     1
 45
0.0
  0
VISUALSTYLE
  5
2C
102
{ACAD_REACTORS
330
2A
102
}
102
{ACAD_XDICTIONARY
360
BF
102
}
330
2A
100
AcDbVisualStyle
  2
FlatWithEdges
 70
     1
 71
     2
 72
     1
 73
     1
 90
        2
 40
-0.6
 41
30.0
 62
     5
 63
     7
421
 16777215
 74
     1
 91
        4
 64
     7
 65
   257
 75
     1
175
     1
 42
1.0
 92
        0
 66
   257
 43
1.0
 76
     1
 77
     6
 78
     2
 67
     7
 79
     5
170
     0
171
     0
290
     0
174
     0
 93
       13
 44
0.0
173
     0
291
     1
 45
0.0
  0
VISUALSTYLE
  5
2D
102
{ACAD_REACTORS
330
2A
102
}
102
{ACAD_XDICTIONARY
360
C1
102
}
330
2A
100
AcDbVisualStyle
  2
Gouraud
 70
     2
 71
     2
 72
     2
 73
     1
 90
        2
 40
-0.6
 41
30.0
 62
     5
 63
     7
421
 16777215
 74
     0
 91
        4
 64
     7
 65
   257
 75
     1
175
     1
 42
1.0
 92
        0
 66
     7
 43
1.0
 76
     1
 77
     6
 78
     2
 67
     7
 79
     5
170
     0
171
     0
290
     0
174
     0
 93
       13
 44
0.0
173
     0
291
     1
 45
0.0
  0
VISUALSTYLE
  5
2E
102
{ACAD_REACTORS
330
2A
102
}
102
{ACAD_XDICTIONARY
360
C3
102
}
330
2A
100
AcDbVisualStyle
  2
GouraudWithEdges
 70
     3
 71
     2
 72
     2
 73
     1
 90
        2
 40
-0.6
 41
30.0
 62
     5
 63
     7
421
 16777215
 74
     1
 91
        4
 64
     7
 65
   257
 75
     1
175
     1
 42
1.0
 92
        0
 66
   257
 43
1.0
 76
     1
 77
     6
 78
     2
 67
     7
 79
     5
170
     0
171
     0
290
     0
174
     0
 93
       13
 44
0.0
173
     0
291
     1
 45
0.0
  0
VISUALSTYLE
  5
38
102
{ACAD_REACTORS
330
2A
102
}
102
{ACAD_XDICTIONARY
360
D7
102
}
330
2A
100
AcDbVisualStyle
  2
Linepattern
 70
    14
 71
     2
 72
     2
 73
     0
 90
        0
 40
-0.6
 41
-30.0
 62
     5
 63
     7
421
 16777215
 74
     1
 91
        4
 64
     7
 65
   257
 75
     7
175
     7
 42
1.0
 92
        8
 66
     7
 43
1.0
 76
     1
 77
     6
 78
     2
 67
     7
 79
     5
170
     0
171
     0
290
     0
174
     0
 93
        1
 44
0.0
173
     0
291
     1
 45
0.0
  0
VISUALSTYLE
  5
33
102
{ACAD_REACTORS
330
2A
102
}
102
{ACAD_XDICTIONARY
360
CD
102
}
330
2A
100
AcDbVisualStyle
  2
Realistic
 70
     8
 71
     2
 72
     2
 73
     0
 90
        0
 40
-0.6
 41
-30.0
 62
     5
 63
     7
421
 16777215
 74
     1
 91
        0
 64
     7
 65
   257
 75
     1
175
     1
 42
1.0
 92
        8
 66
     8
424
  7895160
 43
1.0
 76
     1
 77
     6
 78
     2
 67
     7
 79
     5
170
     0
171
     0
290
     0
174
     0
 93
       13
 44
0.0
173
     0
291
     0
 45
0.0
  0
VISUALSTYLE
  5
37
102
{ACAD_REACTORS
330
2A
102
}
102
{ACAD_XDICTIONARY
360
D5
102
}
330
2A
100
AcDbVisualStyle
  2
Thicken
 70
    13
 71
     2
 72
     2
 73
     0
 90
        0
 40
-0.6
 41
-30.0
 62
     5
 63
     7
421
 16777215
 74
     1
 91
        4
 64
     7
 65
   257
 75
     1
175
     1
 42
1.0
 92
       12
 66
     7
 43
1.0
 76
     1
 77
     6
 78
     2
 67
     7
 79
     5
170
     0
171
     0
290
     0
174
     0
 93
        1
 44
0.0
173
     0
291
     1
 45
0.0
  0
DICTIONARY
  5
C5
330
2F
100
AcDbDictionary
280
     1
281
     1
  3
ACAD_XREC_ROUNDTRIP
360
C6
  0
DICTIONARY
  5
C9
330
31
100
AcDbDictionary
280
     1
281
     1
  3
ACAD_XREC_ROUNDTRIP
360
CA
  0
DICTIONARY
  5
C7
330
30
100
AcDbDictionary
280
     1
281
     1
  3
ACAD_XREC_ROUNDTRIP
360
C8
  0
DICTIONARY
  5
CB
330
32
100
AcDbDictionary
280
     1
281
     1
  3
ACAD_XREC_ROUNDTRIP
360
CC
  0
DICTIONARY
  5
D3
330
36
100
AcDbDictionary
280
     1
281
     1
  3
ACAD_XREC_ROUNDTRIP
360
D4
  0
DICTIONARY
  5
DB
330
3A
100
AcDbDictionary
280
     1
281
     1
  3
ACAD_XREC_ROUNDTRIP
360
DC
  0
DICTIONARY
  5
CF
330
34
100
AcDbDictionary
280
     1
281
     1
  3
ACAD_XREC_ROUNDTRIP
360
D0
  0
DICTIONARY
  5
D1
330
35
100
AcDbDictionary
280
     1
281
     1
  3
ACAD_XREC_ROUNDTRIP
360
D2
  0
DICTIONARY
  5
D9
330
39
100
AcDbDictionary
280
     1
281
     1
  3
ACAD_XREC_ROUNDTRIP
360
DA
  0
DICTIONARY
  5
BD
330
2B
100
AcDbDictionary
280
     1
281
     1
  3
ACAD_XREC_ROUNDTRIP
360
BE
  0
DICTIONARY
  5
BF
330
2C
100
AcDbDictionary
280
     1
281
     1
  3
ACAD_XREC_ROUNDTRIP
360
C0
  0
DICTIONARY
  5
C1
330
2D
100
AcDbDictionary
280
     1
281
     1
  3
ACAD_XREC_ROUNDTRIP
360
C2
  0
DICTIONARY
  5
C3
330
2E
100
AcDbDictionary
280
     1
281
     1
  3
ACAD_XREC_ROUNDTRIP
360
C4
  0
DICTIONARY
  5
D7
330
38
100
AcDbDictionary
280
     1
281
     1
  3
ACAD_XREC_ROUNDTRIP
360
D8
  0
DICTIONARY
  5
CD
330
33
100
AcDbDictionary
280
     1
281
     1
  3
ACAD_XREC_ROUNDTRIP
360
CE
  0
DICTIONARY
  5
D5
330
37
100
AcDbDictionary
280
     1
281
     1
  3
ACAD_XREC_ROUNDTRIP
360
D6
  0
XRECORD
  5
C6
102
{ACAD_REACTORS
330
C5
102
}
330
C5
100
AcDbXrecord
280
     1
102
RTVSPropertyOp0
 70
     1
102
RTVSPropertyOp1
 70
     1
102
RTVSPropertyOp2
 70
     1
102
RTVSPropertyOp3
 70
     1
102
RTVSPropertyOp4
 70
     1
102
RTVSPropertyOp5
 70
     1
102
RTVSPropertyOp6
 70
     1
102
RTVSPropertyOp7
 70
     1
102
RTVSPropertyOp8
 70
     1
102
RTVSPropertyOp9
 70
     1
102
RTVSPropertyOp10
 70
     1
102
RTVSPropertyOp11
 70
     1
102
RTVSPropertyOp12
 70
     1
102
RTVSPropertyOp13
 70
     1
102
RTVSPropertyOp14
 70
     1
102
RTVSPropertyOp15
 70
     1
102
RTVSPropertyOp16
 70
     1
102
RTVSPropertyOp17
 70
     1
102
RTVSPropertyOp18
 70
     1
102
RTVSPropertyOp19
 70
     1
102
RTVSPropertyOp20
 70
     1
102
RTVSPropertyOp21
 70
     1
102
RTVSPropertyOp22
 70
     1
102
RTVSPropertyOp23
 70
     1
102
RTVSPropertyOp24
 70
     1
102
RTVSPropertyOp25
 70
     1
102
RTVSPropertyOp26
 70
     1
102
RTVSPropertyOp27
 70
     1
102
RTVSPropertyOp28
 70
     1
102
RTVSPropertyOp29
 70
     1
102
RTVSPropertyOp30
 70
     1
102
RTVSPropertyOp31
 70
     1
102
RTVSPropertyOp32
 70
     1
  0
XRECORD
  5
CA
102
{ACAD_REACTORS
330
C9
102
}
330
C9
100
AcDbXrecord
280
     1
102
RTVSPropertyOp0
 70
     1
102
RTVSPropertyOp1
 70
     1
102
RTVSPropertyOp2
 70
     1
102
RTVSPropertyOp3
 70
     1
102
RTVSPropertyOp4
 70
     1
102
RTVSPropertyOp5
 70
     1
102
RTVSPropertyOp6
 70
     1
102
RTVSPropertyOp7
 70
     1
102
RTVSPropertyOp8
 70
     1
102
RTVSPropertyOp9
 70
     1
102
RTVSPropertyOp10
 70
     1
102
RTVSPropertyOp11
 70
     1
102
RTVSPropertyOp12
 70
     1
102
RTVSPropertyOp13
 70
     1
102
RTVSPropertyOp14
 70
     1
102
RTVSPropertyOp15
 70
     1
102
RTVSPropertyOp16
 70
     1
102
RTVSPropertyOp17
 70
     1
102
RTVSPropertyOp18
 70
     1
102
RTVSPropertyOp19
 70
     1
102
RTVSPropertyOp20
 70
     1
102
RTVSPropertyOp21
 70
     1
102
RTVSPropertyOp22
 70
     1
102
RTVSPropertyOp23
 70
     1
102
RTVSPropertyOp24
 70
     1
102
RTVSPropertyOp25
 70
     1
102
RTVSPropertyOp26
 70
     1
102
RTVSPropertyOp27
 70
     1
102
RTVSPropertyOp28
 70
     1
102
RTVSPropertyOp29
 70
     1
102
RTVSPropertyOp30
 70
     1
102
RTVSPropertyOp31
 70
     1
102
RTVSPropertyOp32
 70
     1
  0
XRECORD
  5
C8
102
{ACAD_REACTORS
330
C7
102
}
330
C7
100
AcDbXrecord
280
     1
102
RTVSPropertyOp0
 70
     1
102
RTVSPropertyOp1
 70
     1
102
RTVSPropertyOp2
 70
     1
102
RTVSPropertyOp3
 70
     1
102
RTVSPropertyOp4
 70
     1
102
RTVSPropertyOp5
 70
     1
102
RTVSPropertyOp6
 70
     1
102
RTVSPropertyOp7
 70
     1
102
RTVSPropertyOp8
 70
     1
102
RTVSPropertyOp9
 70
     1
102
RTVSPropertyOp10
 70
     1
102
RTVSPropertyOp11
 70
     1
102
RTVSPropertyOp12
 70
     1
102
RTVSPropertyOp13
 70
     1
102
RTVSPropertyOp14
 70
     1
102
RTVSPropertyOp15
 70
     1
102
RTVSPropertyOp16
 70
     1
102
RTVSPropertyOp17
 70
     1
102
RTVSPropertyOp18
 70
     1
102
RTVSPropertyOp19
 70
     1
102
RTVSPropertyOp20
 70
     1
102
RTVSPropertyOp21
 70
     1
102
RTVSPropertyOp22
 70
     1
102
RTVSPropertyOp23
 70
     1
102
RTVSPropertyOp24
 70
     1
102
RTVSPropertyOp25
 70
     1
102
RTVSPropertyOp26
 70
     1
102
RTVSPropertyOp27
 70
     1
102
RTVSPropertyOp28
 70
     1
102
RTVSPropertyOp29
 70
     1
102
RTVSPropertyOp30
 70
     1
102
RTVSPropertyOp31
 70
     1
102
RTVSPropertyOp32
 70
     1
  0
XRECORD
  5
CC
102
{ACAD_REACTORS
330
CB
102
}
330
CB
100
AcDbXrecord
280
     1
102
RTVSPropertyOp0
 70
     1
102
RTVSPropertyOp1
 70
     1
102
RTVSPropertyOp2
 70
     1
102
RTVSPropertyOp3
 70
     1
102
RTVSPropertyOp4
 70
     1
102
RTVSPropertyOp5
 70
     1
102
RTVSPropertyOp6
 70
     1
102
RTVSPropertyOp7
 70
     1
102
RTVSPropertyOp8
 70
     1
102
RTVSPropertyOp9
 70
     1
102
RTVSPropertyOp10
 70
     1
102
RTVSPropertyOp11
 70
     1
102
RTVSPropertyOp12
 70
     1
102
RTVSPropertyOp13
 70
     1
102
RTVSPropertyOp14
 70
     1
102
RTVSPropertyOp15
 70
     1
102
RTVSPropertyOp16
 70
     1
102
RTVSPropertyOp17
 70
     1
102
RTVSPropertyOp18
 70
     1
102
RTVSPropertyOp19
 70
     1
102
RTVSPropertyOp20
 70
     1
102
RTVSPropertyOp21
 70
     1
102
RTVSPropertyOp22
 70
     1
102
RTVSPropertyOp23
 70
     1
102
RTVSPropertyOp24
 70
     1
102
RTVSPropertyOp25
 70
     1
102
RTVSPropertyOp26
 70
     1
102
RTVSPropertyOp27
 70
     1
102
RTVSPropertyOp28
 70
     1
102
RTVSPropertyOp29
 70
     1
102
RTVSPropertyOp30
 70
     1
102
RTVSPropertyOp31
 70
     1
102
RTVSPropertyOp32
 70
     1
  0
XRECORD
  5
D4
102
{ACAD_REACTORS
330
D3
102
}
330
D3
100
AcDbXrecord
280
     1
102
RTVSPropertyOp0
 70
     1
102
RTVSPropertyOp1
 70
     1
102
RTVSPropertyOp2
 70
     1
102
RTVSPropertyOp3
 70
     1
102
RTVSPropertyOp4
 70
     1
102
RTVSPropertyOp5
 70
     1
102
RTVSPropertyOp6
 70
     1
102
RTVSPropertyOp7
 70
     1
102
RTVSPropertyOp8
 70
     1
102
RTVSPropertyOp9
 70
     1
102
RTVSPropertyOp10
 70
     1
102
RTVSPropertyOp11
 70
     1
102
RTVSPropertyOp12
 70
     1
102
RTVSPropertyOp13
 70
     1
102
RTVSPropertyOp14
 70
     1
102
RTVSPropertyOp15
 70
     1
102
RTVSPropertyOp16
 70
     1
102
RTVSPropertyOp17
 70
     1
102
RTVSPropertyOp18
 70
     1
102
RTVSPropertyOp19
 70
     1
102
RTVSPropertyOp20
 70
     1
102
RTVSPropertyOp21
 70
     1
102
RTVSPropertyOp22
 70
     1
102
RTVSPropertyOp23
 70
     1
102
RTVSPropertyOp24
 70
     1
102
RTVSPropertyOp25
 70
     1
102
RTVSPropertyOp26
 70
     1
102
RTVSPropertyOp27
 70
     1
102
RTVSPropertyOp28
 70
     1
102
RTVSPropertyOp29
 70
     1
102
RTVSPropertyOp30
 70
     1
102
RTVSPropertyOp31
 70
     1
102
RTVSPropertyOp32
 70
     1
  0
XRECORD
  5
DC
102
{ACAD_REACTORS
330
DB
102
}
330
DB
100
AcDbXrecord
280
     1
102
RTVSPropertyOp0
 70
     1
102
RTVSPropertyOp1
 70
     1
102
RTVSPropertyOp2
 70
     1
102
RTVSPropertyOp3
 70
     1
102
RTVSPropertyOp4
 70
     1
102
RTVSPropertyOp5
 70
     1
102
RTVSPropertyOp6
 70
     1
102
RTVSPropertyOp7
 70
     1
102
RTVSPropertyOp8
 70
     1
102
RTVSPropertyOp9
 70
     1
102
RTVSPropertyOp10
 70
     1
102
RTVSPropertyOp11
 70
     1
102
RTVSPropertyOp12
 70
     1
102
RTVSPropertyOp13
 70
     1
102
RTVSPropertyOp14
 70
     1
102
RTVSPropertyOp15
 70
     1
102
RTVSPropertyOp16
 70
     1
102
RTVSPropertyOp17
 70
     1
102
RTVSPropertyOp18
 70
     1
102
RTVSPropertyOp19
 70
     1
102
RTVSPropertyOp20
 70
     1
102
RTVSPropertyOp21
 70
     1
102
RTVSPropertyOp22
 70
     1
102
RTVSPropertyOp23
 70
     1
102
RTVSPropertyOp24
 70
     1
102
RTVSPropertyOp25
 70
     1
102
RTVSPropertyOp26
 70
     1
102
RTVSPropertyOp27
 70
     1
102
RTVSPropertyOp28
 70
     1
102
RTVSPropertyOp29
 70
     1
102
RTVSPropertyOp30
 70
     1
102
RTVSPropertyOp31
 70
     1
102
RTVSPropertyOp32
 70
     1
  0
XRECORD
  5
D0
102
{ACAD_REACTORS
330
CF
102
}
330
CF
100
AcDbXrecord
280
     1
102
RTVSPropertyOp0
 70
     1
102
RTVSPropertyOp1
 70
     1
102
RTVSPropertyOp2
 70
     1
102
RTVSPropertyOp3
 70
     1
102
RTVSPropertyOp4
 70
     1
102
RTVSPropertyOp5
 70
     1
102
RTVSPropertyOp6
 70
     1
102
RTVSPropertyOp7
 70
     1
102
RTVSPropertyOp8
 70
     1
102
RTVSPropertyOp9
 70
     1
102
RTVSPropertyOp10
 70
     1
102
RTVSPropertyOp11
 70
     1
102
RTVSPropertyOp12
 70
     1
102
RTVSPropertyOp13
 70
     1
102
RTVSPropertyOp14
 70
     1
102
RTVSPropertyOp15
 70
     1
102
RTVSPropertyOp16
 70
     1
102
RTVSPropertyOp17
 70
     1
102
RTVSPropertyOp18
 70
     1
102
RTVSPropertyOp19
 70
     1
102
RTVSPropertyOp20
 70
     1
102
RTVSPropertyOp21
 70
     1
102
RTVSPropertyOp22
 70
     1
102
RTVSPropertyOp23
 70
     1
102
RTVSPropertyOp24
 70
     1
102
RTVSPropertyOp25
 70
     1
102
RTVSPropertyOp26
 70
     1
102
RTVSPropertyOp27
 70
     1
102
RTVSPropertyOp28
 70
     1
102
RTVSPropertyOp29
 70
     1
102
RTVSPropertyOp30
 70
     1
102
RTVSPropertyOp31
 70
     1
102
RTVSPropertyOp32
 70
     1
  0
XRECORD
  5
D2
102
{ACAD_REACTORS
330
D1
102
}
330
D1
100
AcDbXrecord
280
     1
102
RTVSPropertyOp0
 70
     1
102
RTVSPropertyOp1
 70
     1
102
RTVSPropertyOp2
 70
     1
102
RTVSPropertyOp3
 70
     1
102
RTVSPropertyOp4
 70
     1
102
RTVSPropertyOp5
 70
     1
102
RTVSPropertyOp6
 70
     1
102
RTVSPropertyOp7
 70
     1
102
RTVSPropertyOp8
 70
     1
102
RTVSPropertyOp9
 70
     1
102
RTVSPropertyOp10
 70
     1
102
RTVSPropertyOp11
 70
     1
102
RTVSPropertyOp12
 70
     1
102
RTVSPropertyOp13
 70
     1
102
RTVSPropertyOp14
 70
     1
102
RTVSPropertyOp15
 70
     1
102
RTVSPropertyOp16
 70
     1
102
RTVSPropertyOp17
 70
     1
102
RTVSPropertyOp18
 70
     1
102
RTVSPropertyOp19
 70
     1
102
RTVSPropertyOp20
 70
     1
102
RTVSPropertyOp21
 70
     1
102
RTVSPropertyOp22
 70
     1
102
RTVSPropertyOp23
 70
     1
102
RTVSPropertyOp24
 70
     1
102
RTVSPropertyOp25
 70
     1
102
RTVSPropertyOp26
 70
     1
102
RTVSPropertyOp27
 70
     1
102
RTVSPropertyOp28
 70
     1
102
RTVSPropertyOp29
 70
     1
102
RTVSPropertyOp30
 70
     1
102
RTVSPropertyOp31
 70
     1
102
RTVSPropertyOp32
 70
     1
  0
XRECORD
  5
DA
102
{ACAD_REACTORS
330
D9
102
}
330
D9
100
AcDbXrecord
280
     1
102
RTVSPropertyOp0
 70
     1
102
RTVSPropertyOp1
 70
     1
102
RTVSPropertyOp2
 70
     1
102
RTVSPropertyOp3
 70
     1
102
RTVSPropertyOp4
 70
     1
102
RTVSPropertyOp5
 70
     1
102
RTVSPropertyOp6
 70
     1
102
RTVSPropertyOp7
 70
     1
102
RTVSPropertyOp8
 70
     1
102
RTVSPropertyOp9
 70
     1
102
RTVSPropertyOp10
 70
     1
102
RTVSPropertyOp11
 70
     1
102
RTVSPropertyOp12
 70
     1
102
RTVSPropertyOp13
 70
     1
102
RTVSPropertyOp14
 70
     1
102
RTVSPropertyOp15
 70
     1
102
RTVSPropertyOp16
 70
     1
102
RTVSPropertyOp17
 70
     1
102
RTVSPropertyOp18
 70
     1
102
RTVSPropertyOp19
 70
     1
102
RTVSPropertyOp20
 70
     1
102
RTVSPropertyOp21
 70
     1
102
RTVSPropertyOp22
 70
     1
102
RTVSPropertyOp23
 70
     1
102
RTVSPropertyOp24
 70
     1
102
RTVSPropertyOp25
 70
     1
102
RTVSPropertyOp26
 70
     1
102
RTVSPropertyOp27
 70
     1
102
RTVSPropertyOp28
 70
     1
102
RTVSPropertyOp29
 70
     1
102
RTVSPropertyOp30
 70
     1
102
RTVSPropertyOp31
 70
     1
102
RTVSPropertyOp32
 70
     1
  0
XRECORD
  5
BE
102
{ACAD_REACTORS
330
BD
102
}
330
BD
100
AcDbXrecord
280
     1
102
RTVSPropertyOp0
 70
     1
102
RTVSPropertyOp1
 70
     1
102
RTVSPropertyOp2
 70
     1
102
RTVSPropertyOp3
 70
     1
102
RTVSPropertyOp4
 70
     1
102
RTVSPropertyOp5
 70
     1
102
RTVSPropertyOp6
 70
     1
102
RTVSPropertyOp7
 70
     1
102
RTVSPropertyOp8
 70
     1
102
RTVSPropertyOp9
 70
     1
102
RTVSPropertyOp10
 70
     1
102
RTVSPropertyOp11
 70
     1
102
RTVSPropertyOp12
 70
     1
102
RTVSPropertyOp13
 70
     1
102
RTVSPropertyOp14
 70
     1
102
RTVSPropertyOp15
 70
     1
102
RTVSPropertyOp16
 70
     1
102
RTVSPropertyOp17
 70
     1
102
RTVSPropertyOp18
 70
     1
102
RTVSPropertyOp19
 70
     1
102
RTVSPropertyOp20
 70
     1
102
RTVSPropertyOp21
 70
     1
102
RTVSPropertyOp22
 70
     1
102
RTVSPropertyOp23
 70
     1
102
RTVSPropertyOp24
 70
     1
102
RTVSPropertyOp25
 70
     1
102
RTVSPropertyOp26
 70
     1
102
RTVSPropertyOp27
 70
     1
102
RTVSPropertyOp28
 70
     1
102
RTVSPropertyOp29
 70
     1
102
RTVSPropertyOp30
 70
     1
102
RTVSPropertyOp31
 70
     1
102
RTVSPropertyOp32
 70
     1
  0
XRECORD
  5
C0
102
{ACAD_REACTORS
330
BF
102
}
330
BF
100
AcDbXrecord
280
     1
102
RTVSPropertyOp0
 70
     1
102
RTVSPropertyOp1
 70
     1
102
RTVSPropertyOp2
 70
     1
102
RTVSPropertyOp3
 70
     1
102
RTVSPropertyOp4
 70
     1
102
RTVSPropertyOp5
 70
     1
102
RTVSPropertyOp6
 70
     1
102
RTVSPropertyOp7
 70
     1
102
RTVSPropertyOp8
 70
     1
102
RTVSPropertyOp9
 70
     1
102
RTVSPropertyOp10
 70
     1
102
RTVSPropertyOp11
 70
     1
102
RTVSPropertyOp12
 70
     1
102
RTVSPropertyOp13
 70
     1
102
RTVSPropertyOp14
 70
     1
102
RTVSPropertyOp15
 70
     1
102
RTVSPropertyOp16
 70
     1
102
RTVSPropertyOp17
 70
     1
102
RTVSPropertyOp18
 70
     1
102
RTVSPropertyOp19
 70
     1
102
RTVSPropertyOp20
 70
     1
102
RTVSPropertyOp21
 70
     1
102
RTVSPropertyOp22
 70
     1
102
RTVSPropertyOp23
 70
     1
102
RTVSPropertyOp24
 70
     1
102
RTVSPropertyOp25
 70
     1
102
RTVSPropertyOp26
 70
     1
102
RTVSPropertyOp27
 70
     1
102
RTVSPropertyOp28
 70
     1
102
RTVSPropertyOp29
 70
     1
102
RTVSPropertyOp30
 70
     1
102
RTVSPropertyOp31
 70
     1
102
RTVSPropertyOp32
 70
     1
  0
XRECORD
  5
C2
102
{ACAD_REACTORS
330
C1
102
}
330
C1
100
AcDbXrecord
280
     1
102
RTVSPropertyOp0
 70
     1
102
RTVSPropertyOp1
 70
     1
102
RTVSPropertyOp2
 70
     1
102
RTVSPropertyOp3
 70
     1
102
RTVSPropertyOp4
 70
     1
102
RTVSPropertyOp5
 70
     1
102
RTVSPropertyOp6
 70
     1
102
RTVSPropertyOp7
 70
     1
102
RTVSPropertyOp8
 70
     1
102
RTVSPropertyOp9
 70
     1
102
RTVSPropertyOp10
 70
     1
102
RTVSPropertyOp11
 70
     1
102
RTVSPropertyOp12
 70
     1
102
RTVSPropertyOp13
 70
     1
102
RTVSPropertyOp14
 70
     1
102
RTVSPropertyOp15
 70
     1
102
RTVSPropertyOp16
 70
     1
102
RTVSPropertyOp17
 70
     1
102
RTVSPropertyOp18
 70
     1
102
RTVSPropertyOp19
 70
     1
102
RTVSPropertyOp20
 70
     1
102
RTVSPropertyOp21
 70
     1
102
RTVSPropertyOp22
 70
     1
102
RTVSPropertyOp23
 70
     1
102
RTVSPropertyOp24
 70
     1
102
RTVSPropertyOp25
 70
     1
102
RTVSPropertyOp26
 70
     1
102
RTVSPropertyOp27
 70
     1
102
RTVSPropertyOp28
 70
     1
102
RTVSPropertyOp29
 70
     1
102
RTVSPropertyOp30
 70
     1
102
RTVSPropertyOp31
 70
     1
102
RTVSPropertyOp32
 70
     1
  0
XRECORD
  5
C4
102
{ACAD_REACTORS
330
C3
102
}
330
C3
100
AcDbXrecord
280
     1
102
RTVSPropertyOp0
 70
     1
102
RTVSPropertyOp1
 70
     1
102
RTVSPropertyOp2
 70
     1
102
RTVSPropertyOp3
 70
     1
102
RTVSPropertyOp4
 70
     1
102
RTVSPropertyOp5
 70
     1
102
RTVSPropertyOp6
 70
     1
102
RTVSPropertyOp7
 70
     1
102
RTVSPropertyOp8
 70
     1
102
RTVSPropertyOp9
 70
     1
102
RTVSPropertyOp10
 70
     1
102
RTVSPropertyOp11
 70
     1
102
RTVSPropertyOp12
 70
     1
102
RTVSPropertyOp13
 70
     1
102
RTVSPropertyOp14
 70
     1
102
RTVSPropertyOp15
 70
     1
102
RTVSPropertyOp16
 70
     1
102
RTVSPropertyOp17
 70
     1
102
RTVSPropertyOp18
 70
     1
102
RTVSPropertyOp19
 70
     1
102
RTVSPropertyOp20
 70
     1
102
RTVSPropertyOp21
 70
     1
102
RTVSPropertyOp22
 70
     1
102
RTVSPropertyOp23
 70
     1
102
RTVSPropertyOp24
 70
     1
102
RTVSPropertyOp25
 70
     1
102
RTVSPropertyOp26
 70
     1
102
RTVSPropertyOp27
 70
     1
102
RTVSPropertyOp28
 70
     1
102
RTVSPropertyOp29
 70
     1
102
RTVSPropertyOp30
 70
     1
102
RTVSPropertyOp31
 70
     1
102
RTVSPropertyOp32
 70
     1
  0
XRECORD
  5
D8
102
{ACAD_REACTORS
330
D7
102
}
330
D7
100
AcDbXrecord
280
     1
102
RTVSPropertyOp0
 70
     1
102
RTVSPropertyOp1
 70
     1
102
RTVSPropertyOp2
 70
     1
102
RTVSPropertyOp3
 70
     1
102
RTVSPropertyOp4
 70
     1
102
RTVSPropertyOp5
 70
     1
102
RTVSPropertyOp6
 70
     1
102
RTVSPropertyOp7
 70
     1
102
RTVSPropertyOp8
 70
     1
102
RTVSPropertyOp9
 70
     1
102
RTVSPropertyOp10
 70
     1
102
RTVSPropertyOp11
 70
     1
102
RTVSPropertyOp12
 70
     1
102
RTVSPropertyOp13
 70
     1
102
RTVSPropertyOp14
 70
     1
102
RTVSPropertyOp15
 70
     1
102
RTVSPropertyOp16
 70
     1
102
RTVSPropertyOp17
 70
     1
102
RTVSPropertyOp18
 70
     1
102
RTVSPropertyOp19
 70
     1
102
RTVSPropertyOp20
 70
     1
102
RTVSPropertyOp21
 70
     1
102
RTVSPropertyOp22
 70
     1
102
RTVSPropertyOp23
 70
     1
102
RTVSPropertyOp24
 70
     1
102
RTVSPropertyOp25
 70
     1
102
RTVSPropertyOp26
 70
     1
102
RTVSPropertyOp27
 70
     1
102
RTVSPropertyOp28
 70
     1
102
RTVSPropertyOp29
 70
     1
102
RTVSPropertyOp30
 70
     1
102
RTVSPropertyOp31
 70
     1
102
RTVSPropertyOp32
 70
     1
  0
XRECORD
  5
CE
102
{ACAD_REACTORS
330
CD
102
}
330
CD
100
AcDbXrecord
280
     1
102
RTVSPropertyOp0
 70
     1
102
RTVSPropertyOp1
 70
     1
102
RTVSPropertyOp2
 70
     1
102
RTVSPropertyOp3
 70
     1
102
RTVSPropertyOp4
 70
     1
102
RTVSPropertyOp5
 70
     1
102
RTVSPropertyOp6
 70
     1
102
RTVSPropertyOp7
 70
     1
102
RTVSPropertyOp8
 70
     1
102
RTVSPropertyOp9
 70
     1
102
RTVSPropertyOp10
 70
     1
102
RTVSPropertyOp11
 70
     1
102
RTVSPropertyOp12
 70
     1
102
RTVSPropertyOp13
 70
     1
102
RTVSPropertyOp14
 70
     1
102
RTVSPropertyOp15
 70
     1
102
RTVSPropertyOp16
 70
     1
102
RTVSPropertyOp17
 70
     1
102
RTVSPropertyOp18
 70
     1
102
RTVSPropertyOp19
 70
     1
102
RTVSPropertyOp20
 70
     1
102
RTVSPropertyOp21
 70
     1
102
RTVSPropertyOp22
 70
     1
102
RTVSPropertyOp23
 70
     1
102
RTVSPropertyOp24
 70
     1
102
RTVSPropertyOp25
 70
     1
102
RTVSPropertyOp26
 70
     1
102
RTVSPropertyOp27
 70
     1
102
RTVSPropertyOp28
 70
     1
102
RTVSPropertyOp29
 70
     1
102
RTVSPropertyOp30
 70
     1
102
RTVSPropertyOp31
 70
     1
102
RTVSPropertyOp32
 70
     1
  0
XRECORD
  5
D6
102
{ACAD_REACTORS
330
D5
102
}
330
D5
100
AcDbXrecord
280
     1
102
RTVSPropertyOp0
 70
     1
102
RTVSPropertyOp1
 70
     1
102
RTVSPropertyOp2
 70
     1
102
RTVSPropertyOp3
 70
     1
102
RTVSPropertyOp4
 70
     1
102
RTVSPropertyOp5
 70
     1
102
RTVSPropertyOp6
 70
     1
102
RTVSPropertyOp7
 70
     1
102
RTVSPropertyOp8
 70
     1
102
RTVSPropertyOp9
 70
     1
102
RTVSPropertyOp10
 70
     1
102
RTVSPropertyOp11
 70
     1
102
RTVSPropertyOp12
 70
     1
102
RTVSPropertyOp13
 70
     1
102
RTVSPropertyOp14
 70
     1
102
RTVSPropertyOp15
 70
     1
102
RTVSPropertyOp16
 70
     1
102
RTVSPropertyOp17
 70
     1
102
RTVSPropertyOp18
 70
     1
102
RTVSPropertyOp19
 70
     1
102
RTVSPropertyOp20
 70
     1
102
RTVSPropertyOp21
 70
     1
102
RTVSPropertyOp22
 70
     1
102
RTVSPropertyOp23
 70
     1
102
RTVSPropertyOp24
 70
     1
102
RTVSPropertyOp25
 70
     1
102
RTVSPropertyOp26
 70
     1
102
RTVSPropertyOp27
 70
     1
102
RTVSPropertyOp28
 70
     1
102
RTVSPropertyOp29
 70
     1
102
RTVSPropertyOp30
 70
     1
102
RTVSPropertyOp31
 70
     1
102
RTVSPropertyOp32
 70
     1
  0
ENDSEC
  0
EOF
