  0
SECTION
  2
HEADER
  9
$ACADVER
  1
AC1021
  9
$ACADMAINTVER
 70
    25
  9
$DWGCODEPAGE
  3
ANSI_1252
  9
$INSBASE
 10
0.0
 20
0.0
 30
0.0
  9
$EXTMIN
 10
-187.2664
 20
-114.7697
 30
0.0
  9
$EXTMAX
 10
-21.3757
 20
131.89
 30
0.0
  9
$LIMMIN
 10
0.0
 20
0.0
  9
$LIMMAX
 10
12.0
 20
9.0
  9
$ORTHOMODE
 70
     0
  9
$REGENMODE
 70
     1
  9
$FILLMODE
 70
     1
  9
$QTEXTMODE
 70
     0
  9
$MIRRTEXT
 70
     1
  9
$LTSCALE
 40
1.0
  9
$ATTMODE
 70
     1
  9
$TEXTSIZE
 40
0.2
  9
$TRACEWID
 40
0.05
  9
$TEXTSTYLE
  7
Standard
  9
$CLAYER
  8
0
  9
$CELTYPE
  6
ByLayer
  9
$CECOLOR
 62
   256
  9
$CELTSCALE
 40
1.0
  9
$DISPSILH
 70
     0
  9
$DIMSCALE
 40
1.0
  9
$DIMASZ
 40
0.18
  9
$DIMEXO
 40
0.0625
  9
$DIMDLI
 40
0.38
  9
$DIMRND
 40
0.0
  9
$DIMDLE
 40
0.0
  9
$DIMEXE
 40
0.18
  9
$DIMTP
 40
0.0
  9
$DIMTM
 40
0.0
  9
$DIMTXT
 40
0.18
  9
$DIMCEN
 40
0.09
  9
$DIMTSZ
 40
0.0
  9
$DIMTOL
 70
     0
  9
$DIMLIM
 70
     0
  9
$DIMTIH
 70
     1
  9
$DIMTOH
 70
     1
  9
$DIMSE1
 70
     0
  9
$DIMSE2
 70
     0
  9
$DIMTAD
 70
     0
  9
$DIMZIN
 70
     0
  9
$DIMBLK
  1

  9
$DIMASO
 70
     1
  9
$DIMSHO
 70
     1
  9
$DIMPOST
  1

  9
$DIMAPOST
  1

  9
$DIMALT
 70
     0
  9
$DIMALTD
 70
     2
  9
$DIMALTF
 40
25.4
  9
$DIMLFAC
 40
1.0
  9
$DIMTOFL
 70
     0
  9
$DIMTVP
 40
0.0
  9
$DIMTIX
 70
     0
  9
$DIMSOXD
 70
     0
  9
$DIMSAH
 70
     0
  9
$DIMBLK1
  1

  9
$DIMBLK2
  1

  9
$DIMSTYLE
  2
Standard
  9
$DIMCLRD
 70
     0
  9
$DIMCLRE
 70
     0
  9
$DIMCLRT
 70
     0
  9
$DIMTFAC
 40
1.0
  9
$DIMGAP
 40
0.09
  9
$DIMJUST
 70
     0
  9
$DIMSD1
 70
     0
  9
$DIMSD2
 70
     0
  9
$DIMTOLJ
 70
     1
  9
$DIMTZIN
 70
     0
  9
$DIMALTZ
 70
     0
  9
$DIMALTTZ
 70
     0
  9
$DIMUPT
 70
     0
  9
$DIMDEC
 70
     4
  9
$DIMTDEC
 70
     4
  9
$DIMALTU
 70
     2
  9
$DIMALTTD
 70
     2
  9
$DIMTXSTY
  7
Standard
  9
$DIMAUNIT
 70
     0
  9
$DIMADEC
 70
     0
  9
$DIMALTRND
 40
0.0
  9
$DIMAZIN
 70
     0
  9
$DIMDSEP
 70
    46
  9
$DIMATFIT
 70
     3
  9
$DIMFRAC
 70
     0
  9
$DIMLDRBLK
  1

  9
$DIMLUNIT
 70
     2
  9
$DIMLWD
 70
    -2
  9
$DIMLWE
 70
    -2
  9
$DIMTMOVE
 70
     0
  9
$DIMFXL
 40
1.0
  9
$DIMFXLON
 70
     0
  9
$DIMJOGANG
 40
0.7853981633974483
  9
$DIMTFILL
 70
     0
  9
$DIMTFILLCLR
 70
     0
  9
$DIMARCSYM
 70
     0
  9
$DIMLTYPE
  6

  9
$DIMLTEX1
  6

  9
$DIMLTEX2
  6

  9
$LUNITS
 70
     2
  9
$LUPREC
 70
     4
  9
$SKETCHINC
 40
0.1
  9
$FILLETRAD
 40
0.5
  9
$AUNITS
 70
     0
  9
$AUPREC
 70
     0
  9
$MENU
  1
.
  9
$ELEVATION
 40
0.0
  9
$PELEVATION
 40
0.0
  9
$THICKNESS
 40
0.0
  9
$LIMCHECK
 70
     0
  9
$CHAMFERA
 40
0.5
  9
$CHAMFERB
 40
0.5
  9
$CHAMFERC
 40
1.0
  9
$CHAMFERD
 40
0.0
  9
$SKPOLY
 70
     0
  9
$TDCREATE
 40
2458492.864474583
  9
$TDUCREATE
 40
2458492.864474583
  9
$TDUPDATE
 40
2458492.864474977
  9
$TDUUPDATE
 40
2458492.864474977
  9
$TDINDWG
 40
0.0000000116
  9
$TDUSRTIMER
 40
0.0000000116
  9
$USRTIMER
 70
     1
  9
$ANGBASE
 50
0.0
  9
$ANGDIR
 70
     0
  9
$PDMODE
 70
     0
  9
$PDSIZE
 40
0.0
  9
$PLINEWID
 40
0.0
  9
$SPLFRAME
 70
     0
  9
$SPLINETYPE
 70
     6
  9
$SPLINESEGS
 70
     8
  9
$HANDSEED
  5
87
  9
$SURFTAB1
 70
     6
  9
$SURFTAB2
 70
     6
  9
$SURFTYPE
 70
     6
  9
$SURFU
 70
     6
  9
$SURFV
 70
     6
  9
$UCSBASE
  2

  9
$UCSNAME
  2

  9
$UCSORG
 10
0.0
 20
0.0
 30
0.0
  9
$UCSXDIR
 10
1.0
 20
0.0
 30
0.0
  9
$UCSYDIR
 10
0.0
 20
1.0
 30
0.0
  9
$UCSORTHOREF
  2

  9
$UCSORTHOVIEW
 70
     0
  9
$UCSORGTOP
 10
0.0
 20
0.0
 30
0.0
  9
$UCSORGBOTTOM
 10
0.0
 20
0.0
 30
0.0
  9
$UCSORGLEFT
 10
0.0
 20
0.0
 30
0.0
  9
$UCSORGRIGHT
 10
0.0
 20
0.0
 30
0.0
  9
$UCSORGFRONT
 10
0.0
 20
0.0
 30
0.0
  9
$UCSORGBACK
 10
0.0
 20
0.0
 30
0.0
  9
$PUCSBASE
  2

  9
$PUCSNAME
  2

  9
$PUCSORG
 10
0.0
 20
0.0
 30
0.0
  9
$PUCSXDIR
 10
1.0
 20
0.0
 30
0.0
  9
$PUCSYDIR
 10
0.0
 20
1.0
 30
0.0
  9
$PUCSORTHOREF
  2

  9
$PUCSORTHOVIEW
 70
     0
  9
$PUCSORGTOP
 10
0.0
 20
0.0
 30
0.0
  9
$PUCSORGBOTTOM
 10
0.0
 20
0.0
 30
0.0
  9
$PUCSORGLEFT
 10
0.0
 20
0.0
 30
0.0
  9
$PUCSORGRIGHT
 10
0.0
 20
0.0
 30
0.0
  9
$PUCSORGFRONT
 10
0.0
 20
0.0
 30
0.0
  9
$PUCSORGBACK
 10
0.0
 20
0.0
 30
0.0
  9
$USERI1
 70
     0
  9
$USERI2
 70
     0
  9
$USERI3
 70
     0
  9
$USERI4
 70
     0
  9
$USERI5
 70
     0
  9
$USERR1
 40
0.0
  9
$USERR2
 40
0.0
  9
$USERR3
 40
0.0
  9
$USERR4
 40
0.0
  9
$USERR5
 40
0.0
  9
$WORLDVIEW
 70
     1
  9
$SHADEDGE
 70
     3
  9
$SHADEDIF
 70
    70
  9
$TILEMODE
 70
     1
  9
$MAXACTVP
 70
    64
  9
$PINSBASE
 10
0.0
 20
0.0
 30
0.0
  9
$PLIMCHECK
 70
     0
  9
$PEXTMIN
 10
1.000000000000000E+20
 20
1.000000000000000E+20
 30
1.000000000000000E+20
  9
$PEXTMAX
 10
-1.000000000000000E+20
 20
-1.000000000000000E+20
 30
-1.000000000000000E+20
  9
$PLIMMIN
 10
0.0
 20
0.0
  9
$PLIMMAX
 10
12.0
 20
9.0
  9
$UNITMODE
 70
     0
  9
$VISRETAIN
 70
     1
  9
$PLINEGEN
 70
     0
  9
$PSLTSCALE
 70
     1
  9
$TREEDEPTH
 70
  3020
  9
$CMLSTYLE
  2
Standard
  9
$CMLJUST
 70
     0
  9
$CMLSCALE
 40
1.0
  9
$PROXYGRAPHICS
 70
     1
  9
$MEASUREMENT
 70
     0
  9
$CELWEIGHT
370
    -1
  9
$ENDCAPS
280
     0
  9
$JOINSTYLE
280
     0
  9
$LWDISPLAY
290
     0
  9
$INSUNITS
 70
     4
  9
$HYPERLINKBASE
  1

  9
$STYLESHEET
  1

  9
$XEDIT
290
     1
  9
$CEPSNTYPE
380
     0
  9
$PSTYLEMODE
290
     1
  9
$FINGERPRINTGUID
  2
{2F802DEC-CAAB-45DF-B04E-EAA3F1F02BCF}
  9
$VERSIONGUID
  2
{FAEB1C32-E019-11D5-929B-00C0DF256EC4}
  9
$EXTNAMES
290
     1
  9
$PSVPSCALE
 40
0.0
  9
$OLESTARTUP
290
     0
  9
$SORTENTS
280
   127
  9
$INDEXCTL
280
     0
  9
$HIDETEXT
280
     1
  9
$XCLIPFRAME
290
     0
  9
$HALOGAP
280
     0
  9
$OBSCOLOR
 70
   257
  9
$OBSLTYPE
280
     0
  9
$INTERSECTIONDISPLAY
280
     0
  9
$INTERSECTIONCOLOR
 70
   257
  9
$DIMASSOC
280
     2
  9
$PROJECTNAME
  1

  9
$CAMERADISPLAY
290
     0
  9
$LENSLENGTH
 40
50.0
  9
$CAMERAHEIGHT
 40
0.0
  9
$STEPSPERSEC
 40
2.0
  9
$STEPSIZE
 40
6.0
  9
$3DDWFPREC
 40
2.0
  9
$PSOLWIDTH
 40
0.25
  9
$PSOLHEIGHT
 40
4.0
  9
$LOFTANG1
 40
1.570796326794897
  9
$LOFTANG2
 40
1.570796326794897
  9
$LOFTMAG1
 40
0.0
  9
$LOFTMAG2
 40
0.0
  9
$LOFTPARAM
 70
     7
  9
$LOFTNORMALS
280
     1
  9
$LATITUDE
 40
37.795
  9
$LONGITUDE
 40
-122.394
  9
$NORTHDIRECTION
 40
0.0
  9
$TIMEZONE
 70
 -8000
  9
$LIGHTGLYPHDISPLAY
280
     1
  9
$TILEMODELIGHTSYNCH
280
     1
  9
$SOLIDHIST
280
     1
  9
$SHOWHIST
280
     1
  9
$DWFFRAME
280
     2
  9
$DGNFRAME
280
     2
  9
$REALWORLDSCALE
290
     1
  9
$INTERFERECOLOR
 62
   256
  9
$CSHADOW
280
     0
  9
$SHADOWPLANELOCATION
 40
0.0
  0
ENDSEC
  0
SECTION
  2
CLASSES
  0
CLASS
  1
ACDBDICTIONARYWDFLT
  2
AcDbDictionaryWithDefault
  3
ObjectDBX Classes
 90
        0
 91
        4
280
     0
281
     0
  0
CLASS
  1
VISUALSTYLE
  2
AcDbVisualStyle
  3
ObjectDBX Classes
 90
     4095
 91
        4
280
     0
281
     0
  0
CLASS
  1
MATERIAL
  2
AcDbMaterial
  3
ObjectDBX Classes
 90
     1153
 91
        4
280
     0
281
     0
  0
ENDSEC
  0
SECTION
  2
TABLES
  0
TABLE
  2
VPORT
  5
8
330
0
100
AcDbSymbolTable
 70
     1
  0
VPORT
  5
29
330
8
100
AcDbSymbolTableRecord
100
AcDbViewportTableRecord
  2
*Active
 70
     0
 10
0.0
 20
0.0
 11
1.0
 21
1.0
 12
10.42990654205607
 22
4.5
 13
0.0
 23
0.0
 14
0.5
 24
0.5
 15
0.5
 25
0.5
 16
0.0
 26
0.0
 36
1.0
 17
0.0
 27
0.0
 37
0.0
 40
9.0
 41
1.972972972850329
 42
50.0
 43
0.0
 44
0.0
 50
0.0
 51
0.0
 71
     0
 72
   100
 73
     1
 74
     3
 75
     0
 76
     0
 77
     0
 78
     0
281
     0
 65
     1
110
0.0
120
0.0
130
0.0
111
1.0
121
0.0
131
0.0
112
0.0
122
1.0
132
0.0
 79
     0
146
0.0
 60
     3
 61
     5
292
     1
282
     1
141
0.0
142
0.0
 63
   250
  0
ENDTAB
  0
TABLE
  2
LTYPE
  5
5
330
0
100
AcDbSymbolTable
 70
     1
  0
LTYPE
  5
14
330
5
100
AcDbSymbolTableRecord
100
AcDbLinetypeTableRecord
  2
ByBlock
 70
     0
  3

 72
    65
 73
     0
 40
0.0
  0
LTYPE
  5
15
330
5
100
AcDbSymbolTableRecord
100
AcDbLinetypeTableRecord
  2
ByLayer
 70
     0
  3

 72
    65
 73
     0
 40
0.0
  0
LTYPE
  5
16
330
5
100
AcDbSymbolTableRecord
100
AcDbLinetypeTableRecord
  2
Continuous
 70
     0
  3
Solid line
 72
    65
 73
     0
 40
0.0
  0
ENDTAB
  0
TABLE
  2
LAYER
  5
2
330
0
100
AcDbSymbolTable
 70
     3
  0
LAYER
  5
10
330
2
100
AcDbSymbolTableRecord
100
AcDbLayerTableRecord
  2
0
 70
     0
 62
     7
  6
Continuous
370
    -3
390
F
347
3E
  0
LAYER
  5
40
330
2
100
AcDbSymbolTableRecord
100
AcDbLayerTableRecord
  2
layer 1
 70
     0
 62
     7
  6
Continuous
370
    -3
390
F
347
3E
  0
LAYER
  5
64
330
2
100
AcDbSymbolTableRecord
100
AcDbLayerTableRecord
  2
Master Guides
 70
     0
 62
     7
  6
Continuous
370
    -3
390
F
347
3E
  0
ENDTAB
  0
TABLE
  2
STYLE
  5
3
330
0
100
AcDbSymbolTable
 70
     1
  0
STYLE
  5
11
330
3
100
AcDbSymbolTableRecord
100
AcDbTextStyleTableRecord
  2
Standard
 70
     0
 40
0.0
 41
1.0
 50
0.0
 71
     0
 42
0.2
  3
txt
  4

  0
ENDTAB
  0
TABLE
  2
VIEW
  5
6
330
0
100
AcDbSymbolTable
 70
     0
  0
ENDTAB
  0
TABLE
  2
UCS
  5
7
330
0
100
AcDbSymbolTable
 70
     0
  0
ENDTAB
  0
TABLE
  2
APPID
  5
9
330
0
100
AcDbSymbolTable
 70
     2
  0
APPID
  5
12
330
9
100
AcDbSymbolTableRecord
100
AcDbRegAppTableRecord
  2
ACAD
 70
     0
  0
APPID
  5
3F
330
9
100
AcDbSymbolTableRecord
100
AcDbRegAppTableRecord
  2
ODA
 70
     0
  0
ENDTAB
  0
TABLE
  2
DIMSTYLE
  5
A
330
0
100
AcDbSymbolTable
 70
     1
100
AcDbDimStyleTable
  0
DIMSTYLE
105
27
330
A
100
AcDbSymbolTableRecord
100
AcDbDimStyleTableRecord
  2
Standard
 70
     0
178
     0
340
11
  0
ENDTAB
  0
TABLE
  2
BLOCK_RECORD
  5
1
330
0
100
AcDbSymbolTable
 70
     1
  0
BLOCK_RECORD
  5
1F
330
1
100
AcDbSymbolTableRecord
100
AcDbBlockTableRecord
  2
*Model_Space
340
22
 70
     0
280
     1
281
     0
  0
BLOCK_RECORD
  5
1B
330
1
100
AcDbSymbolTableRecord
100
AcDbBlockTableRecord
  2
*Paper_Space
340
1E
 70
     0
280
     1
281
     0
  0
BLOCK_RECORD
  5
23
330
1
100
AcDbSymbolTableRecord
100
AcDbBlockTableRecord
  2
*Paper_Space0
340
26
 70
     0
280
     1
281
     0
  0
ENDTAB
  0
ENDSEC
  0
SECTION
  2
BLOCKS
  0
BLOCK
  5
20
330
1F
100
AcDbEntity
  8
0
100
AcDbBlockBegin
  2
*Model_Space
 70
     0
 10
0.0
 20
0.0
 30
0.0
  3
*Model_Space
  1

  0
ENDBLK
  5
21
330
1F
100
AcDbEntity
  8
0
100
AcDbBlockEnd
  0
BLOCK
  5
1C
330
1B
100
AcDbEntity
 67
     1
  8
0
100
AcDbBlockBegin
  2
*Paper_Space
 70
     0
 10
0.0
 20
0.0
 30
0.0
  3
*Paper_Space
  1

  0
ENDBLK
  5
1D
330
1B
100
AcDbEntity
 67
     1
  8
0
100
AcDbBlockEnd
  0
BLOCK
  5
24
330
23
100
AcDbEntity
  8
0
100
AcDbBlockBegin
  2
*Paper_Space0
 70
     0
 10
0.0
 20
0.0
 30
0.0
  3
*Paper_Space0
  1

  0
ENDBLK
  5
25
330
23
100
AcDbEntity
  8
0
100
AcDbBlockEnd
  0
ENDSEC
  0
SECTION
  2
ENTITIES
  0
LWPOLYLINE
  5
41
330
1F
100
AcDbEntity
  8
layer 1
 62
   250
100
AcDbPolyline
 90
        5
 70
     1
 43
0.0
 10
-187.2664
 20
-114.7696
 10
-21.3758
 20
-114.7696
 10
-21.3758
 20
131.89
 10
-187.2664
 20
131.89
 10
-187.2664
 20
-114.7696
  0
SPLINE
  5
42
330
1F
100
AcDbEntity
  8
layer 1
 62
     7
100
AcDbSpline
210
0.0
220
0.0
230
1.0
 70
    11
 71
     3
 72
    52
 73
    48
 74
     0
 42
0.0000000001
 43
0.0000000001
 12
1.0
 22
0.0
 32
0.0
 13
1.0
 23
0.0
 33
0.0
 40
0.0
 40
0.0
 40
0.0
 40
0.0
 40
0.0769230769230769
 40
0.0769230769230769
 40
0.0769230769230769
 40
0.0769230769230769
 40
0.1538461538461539
 40
0.1538461538461539
 40
0.1538461538461539
 40
0.1538461538461539
 40
0.2307692307692308
 40
0.2307692307692308
 40
0.2307692307692308
 40
0.2307692307692308
 40
0.3076923076923077
 40
0.3076923076923077
 40
0.3076923076923077
 40
0.3076923076923077
 40
0.3846153846153846
 40
0.3846153846153846
 40
0.3846153846153846
 40
0.3846153846153846
 40
0.4615384615384616
 40
0.4615384615384616
 40
0.4615384615384616
 40
0.4615384615384616
 40
0.5384615384615384
 40
0.5384615384615384
 40
0.5384615384615384
 40
0.5384615384615384
 40
0.6153846153846154
 40
0.6153846153846154
 40
0.6153846153846154
 40
0.6153846153846154
 40
0.6923076923076923
 40
0.6923076923076923
 40
0.6923076923076923
 40
0.6923076923076923
 40
0.7692307692307693
 40
0.7692307692307693
 40
0.7692307692307693
 40
0.7692307692307693
 40
0.8461538461538461
 40
0.8461538461538461
 40
0.8461538461538461
 40
0.8461538461538461
 40
1.0
 40
1.0
 40
1.0
 40
1.0
 10
-73.3291
 20
-74.1999
 30
0.0
 10
-73.3291
 20
-74.1999
 30
0.0
 10
-73.3291
 20
-68.8616
 30
0.0
 10
-73.3291
 20
-68.8616
 30
0.0
 10
-73.3291
 20
-68.8616
 30
0.0
 10
-79.9456
 20
-67.732
 30
0.0
 10
-82.6122
 20
-63.3111
 30
0.0
 10
-82.7486
 20
-55.9653
 30
0.0
 10
-82.7486
 20
-55.9653
 30
0.0
 10
-82.7406
 20
-49.0461
 30
0.0
 10
-80.0255
 20
-44.3979
 30
0.0
 10
-73.4065
 20
-43.5117
 30
0.0
 10
-73.4065
 20
-43.5117
 30
0.0
 10
-73.4065
 20
-43.5117
 30
0.0
 10
-73.4065
 20
-38.4431
 30
0.0
 10
-73.4065
 20
-38.4431
 30
0.0
 10
-73.4065
 20
-38.4431
 30
0.0
 10
-71.0519
 20
-37.4271
 30
0.0
 10
-68.3764
 20
-35.6264
 30
0.0
 10
-66.4294
 20
-33.2783
 30
0.0
 10
-66.4294
 20
-33.2783
 30
0.0
 10
-64.4824
 20
-35.6264
 30
0.0
 10
-61.807
 20
-37.4271
 30
0.0
 10
-59.4523
 20
-38.4431
 30
0.0
 10
-59.4523
 20
-38.4431
 30
0.0
 10
-59.4523
 20
-38.4431
 30
0.0
 10
-59.4523
 20
-43.5117
 30
0.0
 10
-59.4523
 20
-43.5117
 30
0.0
 10
-59.4523
 20
-43.5117
 30
0.0
 10
-52.8333
 20
-44.3979
 30
0.0
 10
-50.1182
 20
-49.046
 30
0.0
 10
-50.1103
 20
-55.9653
 30
0.0
 10
-50.1103
 20
-55.9653
 30
0.0
 10
-50.2467
 20
-63.3111
 30
0.0
 10
-52.9132
 20
-67.732
 30
0.0
 10
-59.5297
 20
-68.8616
 30
0.0
 10
-59.5297
 20
-68.8616
 30
0.0
 10
-59.5297
 20
-68.8616
 30
0.0
 10
-59.5297
 20
-74.1999
 30
0.0
 10
-59.5297
 20
-74.1999
 30
0.0
 10
-59.5297
 20
-74.1999
 30
0.0
 10
-62.6456
 20
-75.0458
 30
0.0
 10
-64.3599
 20
-77.1095
 30
0.0
 10
-66.4294
 20
-79.0637
 30
0.0
 10
-66.4294
 20
-79.0637
 30
0.0
 10
-68.4987
 20
-77.1095
 30
0.0
 10
-70.2132
 20
-75.0458
 30
0.0
 10
-73.3291
 20
-74.1999
 30
0.0
  0
SPLINE
  5
43
330
1F
100
AcDbEntity
  8
layer 1
 62
     7
100
AcDbSpline
210
0.0
220
0.0
230
1.0
 70
    11
 71
     3
 72
    52
 73
    48
 74
     0
 42
0.0000000001
 43
0.0000000001
 12
1.0
 22
0.0
 32
0.0
 13
1.0
 23
0.0
 33
0.0
 40
0.0
 40
0.0
 40
0.0
 40
0.0
 40
0.0769230769230769
 40
0.0769230769230769
 40
0.0769230769230769
 40
0.0769230769230769
 40
0.1538461538461539
 40
0.1538461538461539
 40
0.1538461538461539
 40
0.1538461538461539
 40
0.2307692307692308
 40
0.2307692307692308
 40
0.2307692307692308
 40
0.2307692307692308
 40
0.3076923076923077
 40
0.3076923076923077
 40
0.3076923076923077
 40
0.3076923076923077
 40
0.3846153846153846
 40
0.3846153846153846
 40
0.3846153846153846
 40
0.3846153846153846
 40
0.4615384615384616
 40
0.4615384615384616
 40
0.4615384615384616
 40
0.4615384615384616
 40
0.5384615384615384
 40
0.5384615384615384
 40
0.5384615384615384
 40
0.5384615384615384
 40
0.6153846153846154
 40
0.6153846153846154
 40
0.6153846153846154
 40
0.6153846153846154
 40
0.6923076923076923
 40
0.6923076923076923
 40
0.6923076923076923
 40
0.6923076923076923
 40
0.7692307692307693
 40
0.7692307692307693
 40
0.7692307692307693
 40
0.7692307692307693
 40
0.8461538461538461
 40
0.8461538461538461
 40
0.8461538461538461
 40
0.8461538461538461
 40
1.0
 40
1.0
 40
1.0
 40
1.0
 10
-110.8866
 20
-74.1999
 30
0.0
 10
-110.8866
 20
-74.1999
 30
0.0
 10
-110.8866
 20
-68.8616
 30
0.0
 10
-110.8866
 20
-68.8616
 30
0.0
 10
-110.8866
 20
-68.8616
 30
0.0
 10
-117.5031
 20
-67.732
 30
0.0
 10
-120.1697
 20
-63.3111
 30
0.0
 10
-120.306
 20
-55.9653
 30
0.0
 10
-120.306
 20
-55.9653
 30
0.0
 10
-120.2981
 20
-49.0461
 30
0.0
 10
-117.583
 20
-44.3979
 30
0.0
 10
-110.964
 20
-43.5117
 30
0.0
 10
-110.964
 20
-43.5117
 30
0.0
 10
-110.964
 20
-43.5117
 30
0.0
 10
-110.964
 20
-38.4431
 30
0.0
 10
-110.964
 20
-38.4431
 30
0.0
 10
-110.964
 20
-38.4431
 30
0.0
 10
-108.6094
 20
-37.4271
 30
0.0
 10
-105.9339
 20
-35.6264
 30
0.0
 10
-103.9869
 20
-33.2783
 30
0.0
 10
-103.9869
 20
-33.2783
 30
0.0
 10
-102.0399
 20
-35.6264
 30
0.0
 10
-99.3644
 20
-37.4271
 30
0.0
 10
-97.0098
 20
-38.4431
 30
0.0
 10
-97.0098
 20
-38.4431
 30
0.0
 10
-97.0098
 20
-38.4431
 30
0.0
 10
-97.0098
 20
-43.5117
 30
0.0
 10
-97.0098
 20
-43.5117
 30
0.0
 10
-97.0098
 20
-43.5117
 30
0.0
 10
-90.3908
 20
-44.3979
 30
0.0
 10
-87.6757
 20
-49.046
 30
0.0
 10
-87.6678
 20
-55.9653
 30
0.0
 10
-87.6678
 20
-55.9653
 30
0.0
 10
-87.8041
 20
-63.3111
 30
0.0
 10
-90.4707
 20
-67.732
 30
0.0
 10
-97.0872
 20
-68.8616
 30
0.0
 10
-97.0872
 20
-68.8616
 30
0.0
 10
-97.0872
 20
-68.8616
 30
0.0
 10
-97.0872
 20
-74.1999
 30
0.0
 10
-97.0872
 20
-74.1999
 30
0.0
 10
-97.0872
 20
-74.1999
 30
0.0
 10
-100.2031
 20
-75.0458
 30
0.0
 10
-101.9174
 20
-77.1095
 30
0.0
 10
-103.9869
 20
-79.0637
 30
0.0
 10
-103.9869
 20
-79.0637
 30
0.0
 10
-106.0562
 20
-77.1095
 30
0.0
 10
-107.7707
 20
-75.0458
 30
0.0
 10
-110.8866
 20
-74.1999
 30
0.0
  0
SPLINE
  5
44
330
1F
100
AcDbEntity
  8
layer 1
 62
     7
100
AcDbSpline
210
0.0
220
0.0
230
1.0
 70
    11
 71
     3
 72
    52
 73
    48
 74
     0
 42
0.0000000001
 43
0.0000000001
 12
1.0
 22
0.0
 32
0.0
 13
1.0
 23
0.0
 33
0.0
 40
0.0
 40
0.0
 40
0.0
 40
0.0
 40
0.0769230769230769
 40
0.0769230769230769
 40
0.0769230769230769
 40
0.0769230769230769
 40
0.1538461538461539
 40
0.1538461538461539
 40
0.1538461538461539
 40
0.1538461538461539
 40
0.2307692307692308
 40
0.2307692307692308
 40
0.2307692307692308
 40
0.2307692307692308
 40
0.3076923076923077
 40
0.3076923076923077
 40
0.3076923076923077
 40
0.3076923076923077
 40
0.3846153846153846
 40
0.3846153846153846
 40
0.3846153846153846
 40
0.3846153846153846
 40
0.4615384615384616
 40
0.4615384615384616
 40
0.4615384615384616
 40
0.4615384615384616
 40
0.5384615384615384
 40
0.5384615384615384
 40
0.5384615384615384
 40
0.5384615384615384
 40
0.6153846153846154
 40
0.6153846153846154
 40
0.6153846153846154
 40
0.6153846153846154
 40
0.6923076923076923
 40
0.6923076923076923
 40
0.6923076923076923
 40
0.6923076923076923
 40
0.7692307692307693
 40
0.7692307692307693
 40
0.7692307692307693
 40
0.7692307692307693
 40
0.8461538461538461
 40
0.8461538461538461
 40
0.8461538461538461
 40
0.8461538461538461
 40
1.0
 40
1.0
 40
1.0
 40
1.0
 10
-148.4441
 20
-74.1999
 30
0.0
 10
-148.4441
 20
-74.1999
 30
0.0
 10
-148.4441
 20
-68.8616
 30
0.0
 10
-148.4441
 20
-68.8616
 30
0.0
 10
-148.4441
 20
-68.8616
 30
0.0
 10
-155.0606
 20
-67.732
 30
0.0
 10
-157.7271
 20
-63.3111
 30
0.0
 10
-157.8635
 20
-55.9653
 30
0.0
 10
-157.8635
 20
-55.9653
 30
0.0
 10
-157.8556
 20
-49.0461
 30
0.0
 10
-155.1405
 20
-44.3979
 30
0.0
 10
-148.5215
 20
-43.5117
 30
0.0
 10
-148.5215
 20
-43.5117
 30
0.0
 10
-148.5215
 20
-43.5117
 30
0.0
 10
-148.5215
 20
-38.4431
 30
0.0
 10
-148.5215
 20
-38.4431
 30
0.0
 10
-148.5215
 20
-38.4431
 30
0.0
 10
-146.1669
 20
-37.4271
 30
0.0
 10
-143.4914
 20
-35.6264
 30
0.0
 10
-141.5444
 20
-33.2783
 30
0.0
 10
-141.5444
 20
-33.2783
 30
0.0
 10
-139.5974
 20
-35.6264
 30
0.0
 10
-136.9219
 20
-37.4271
 30
0.0
 10
-134.5673
 20
-38.4431
 30
0.0
 10
-134.5673
 20
-38.4431
 30
0.0
 10
-134.5673
 20
-38.4431
 30
0.0
 10
-134.5673
 20
-43.5117
 30
0.0
 10
-134.5673
 20
-43.5117
 30
0.0
 10
-134.5673
 20
-43.5117
 30
0.0
 10
-127.9483
 20
-44.3979
 30
0.0
 10
-125.2332
 20
-49.046
 30
0.0
 10
-125.2252
 20
-55.9653
 30
0.0
 10
-125.2252
 20
-55.9653
 30
0.0
 10
-125.3616
 20
-63.3111
 30
0.0
 10
-128.0282
 20
-67.732
 30
0.0
 10
-134.6447
 20
-68.8616
 30
0.0
 10
-134.6447
 20
-68.8616
 30
0.0
 10
-134.6447
 20
-68.8616
 30
0.0
 10
-134.6447
 20
-74.1999
 30
0.0
 10
-134.6447
 20
-74.1999
 30
0.0
 10
-134.6447
 20
-74.1999
 30
0.0
 10
-137.7606
 20
-75.0458
 30
0.0
 10
-139.4749
 20
-77.1095
 30
0.0
 10
-141.5444
 20
-79.0637
 30
0.0
 10
-141.5444
 20
-79.0637
 30
0.0
 10
-143.6137
 20
-77.1095
 30
0.0
 10
-145.3282
 20
-75.0458
 30
0.0
 10
-148.4441
 20
-74.1999
 30
0.0
  0
SPLINE
  5
45
330
1F
100
AcDbEntity
  8
layer 1
 62
     7
100
AcDbSpline
210
0.0
220
0.0
230
1.0
 70
    11
 71
     3
 72
    52
 73
    48
 74
     0
 42
0.0000000001
 43
0.0000000001
 12
1.0
 22
0.0
 32
0.0
 13
1.0
 23
0.0
 33
0.0
 40
0.0
 40
0.0
 40
0.0
 40
0.0
 40
0.0769230769230769
 40
0.0769230769230769
 40
0.0769230769230769
 40
0.0769230769230769
 40
0.1538461538461539
 40
0.1538461538461539
 40
0.1538461538461539
 40
0.1538461538461539
 40
0.2307692307692308
 40
0.2307692307692308
 40
0.2307692307692308
 40
0.2307692307692308
 40
0.3076923076923077
 40
0.3076923076923077
 40
0.3076923076923077
 40
0.3076923076923077
 40
0.3846153846153846
 40
0.3846153846153846
 40
0.3846153846153846
 40
0.3846153846153846
 40
0.4615384615384616
 40
0.4615384615384616
 40
0.4615384615384616
 40
0.4615384615384616
 40
0.5384615384615384
 40
0.5384615384615384
 40
0.5384615384615384
 40
0.5384615384615384
 40
0.6153846153846154
 40
0.6153846153846154
 40
0.6153846153846154
 40
0.6153846153846154
 40
0.6923076923076923
 40
0.6923076923076923
 40
0.6923076923076923
 40
0.6923076923076923
 40
0.7692307692307693
 40
0.7692307692307693
 40
0.7692307692307693
 40
0.7692307692307693
 40
0.8461538461538461
 40
0.8461538461538461
 40
0.8461538461538461
 40
0.8461538461538461
 40
1.0
 40
1.0
 40
1.0
 40
1.0
 10
-54.6508
 20
-41.3986
 30
0.0
 10
-54.6508
 20
-41.3986
 30
0.0
 10
-54.6508
 20
-36.0603
 30
0.0
 10
-54.6508
 20
-36.0603
 30
0.0
 10
-54.6508
 20
-36.0603
 30
0.0
 10
-61.2673
 20
-34.9307
 30
0.0
 10
-63.9339
 20
-30.5099
 30
0.0
 10
-64.0703
 20
-23.164
 30
0.0
 10
-64.0703
 20
-23.164
 30
0.0
 10
-64.0624
 20
-16.2449
 30
0.0
 10
-61.3472
 20
-11.5966
 30
0.0
 10
-54.7283
 20
-10.7104
 30
0.0
 10
-54.7283
 20
-10.7104
 30
0.0
 10
-54.7283
 20
-10.7104
 30
0.0
 10
-54.7283
 20
-5.6418
 30
0.0
 10
-54.7283
 20
-5.6418
 30
0.0
 10
-54.7283
 20
-5.6418
 30
0.0
 10
-52.3736
 20
-4.6258
 30
0.0
 10
-49.6981
 20
-2.8251
 30
0.0
 10
-47.7511
 20
-0.4771
 30
0.0
 10
-47.7511
 20
-0.4771
 30
0.0
 10
-45.8042
 20
-2.8251
 30
0.0
 10
-43.1287
 20
-4.6258
 30
0.0
 10
-40.774
 20
-5.6418
 30
0.0
 10
-40.774
 20
-5.6418
 30
0.0
 10
-40.774
 20
-5.6418
 30
0.0
 10
-40.774
 20
-10.7104
 30
0.0
 10
-40.774
 20
-10.7104
 30
0.0
 10
-40.774
 20
-10.7104
 30
0.0
 10
-34.1551
 20
-11.5966
 30
0.0
 10
-31.4399
 20
-16.2447
 30
0.0
 10
-31.432
 20
-23.164
 30
0.0
 10
-31.432
 20
-23.164
 30
0.0
 10
-31.5684
 20
-30.5099
 30
0.0
 10
-34.235
 20
-34.9307
 30
0.0
 10
-40.8515
 20
-36.0603
 30
0.0
 10
-40.8515
 20
-36.0603
 30
0.0
 10
-40.8515
 20
-36.0603
 30
0.0
 10
-40.8515
 20
-41.3986
 30
0.0
 10
-40.8515
 20
-41.3986
 30
0.0
 10
-40.8515
 20
-41.3986
 30
0.0
 10
-43.9673
 20
-42.2445
 30
0.0
 10
-45.6817
 20
-44.3082
 30
0.0
 10
-47.7511
 20
-46.2625
 30
0.0
 10
-47.7511
 20
-46.2625
 30
0.0
 10
-49.8205
 20
-44.3082
 30
0.0
 10
-51.535
 20
-42.2445
 30
0.0
 10
-54.6508
 20
-41.3986
 30
0.0
  0
SPLINE
  5
46
330
1F
100
AcDbEntity
  8
layer 1
 62
     7
100
AcDbSpline
210
0.0
220
0.0
230
1.0
 70
    11
 71
     3
 72
    52
 73
    48
 74
     0
 42
0.0000000001
 43
0.0000000001
 12
1.0
 22
0.0
 32
0.0
 13
1.0
 23
0.0
 33
0.0
 40
0.0
 40
0.0
 40
0.0
 40
0.0
 40
0.0769230769230769
 40
0.0769230769230769
 40
0.0769230769230769
 40
0.0769230769230769
 40
0.1538461538461539
 40
0.1538461538461539
 40
0.1538461538461539
 40
0.1538461538461539
 40
0.2307692307692308
 40
0.2307692307692308
 40
0.2307692307692308
 40
0.2307692307692308
 40
0.3076923076923077
 40
0.3076923076923077
 40
0.3076923076923077
 40
0.3076923076923077
 40
0.3846153846153846
 40
0.3846153846153846
 40
0.3846153846153846
 40
0.3846153846153846
 40
0.4615384615384616
 40
0.4615384615384616
 40
0.4615384615384616
 40
0.4615384615384616
 40
0.5384615384615384
 40
0.5384615384615384
 40
0.5384615384615384
 40
0.5384615384615384
 40
0.6153846153846154
 40
0.6153846153846154
 40
0.6153846153846154
 40
0.6153846153846154
 40
0.6923076923076923
 40
0.6923076923076923
 40
0.6923076923076923
 40
0.6923076923076923
 40
0.7692307692307693
 40
0.7692307692307693
 40
0.7692307692307693
 40
0.7692307692307693
 40
0.8461538461538461
 40
0.8461538461538461
 40
0.8461538461538461
 40
0.8461538461538461
 40
1.0
 40
1.0
 40
1.0
 40
1.0
 10
-92.2083
 20
-41.3986
 30
0.0
 10
-92.2083
 20
-41.3986
 30
0.0
 10
-92.2083
 20
-36.0603
 30
0.0
 10
-92.2083
 20
-36.0603
 30
0.0
 10
-92.2083
 20
-36.0603
 30
0.0
 10
-98.8248
 20
-34.9307
 30
0.0
 10
-101.4914
 20
-30.5099
 30
0.0
 10
-101.6278
 20
-23.164
 30
0.0
 10
-101.6278
 20
-23.164
 30
0.0
 10
-101.6199
 20
-16.2449
 30
0.0
 10
-98.9047
 20
-11.5966
 30
0.0
 10
-92.2858
 20
-10.7104
 30
0.0
 10
-92.2858
 20
-10.7104
 30
0.0
 10
-92.2858
 20
-10.7104
 30
0.0
 10
-92.2858
 20
-5.6418
 30
0.0
 10
-92.2858
 20
-5.6418
 30
0.0
 10
-92.2858
 20
-5.6418
 30
0.0
 10
-89.9311
 20
-4.6258
 30
0.0
 10
-87.2556
 20
-2.8251
 30
0.0
 10
-85.3086
 20
-0.4771
 30
0.0
 10
-85.3086
 20
-0.4771
 30
0.0
 10
-83.3617
 20
-2.8251
 30
0.0
 10
-80.6862
 20
-4.6258
 30
0.0
 10
-78.3315
 20
-5.6418
 30
0.0
 10
-78.3315
 20
-5.6418
 30
0.0
 10
-78.3315
 20
-5.6418
 30
0.0
 10
-78.3315
 20
-10.7104
 30
0.0
 10
-78.3315
 20
-10.7104
 30
0.0
 10
-78.3315
 20
-10.7104
 30
0.0
 10
-71.7125
 20
-11.5966
 30
0.0
 10
-68.9974
 20
-16.2447
 30
0.0
 10
-68.9895
 20
-23.164
 30
0.0
 10
-68.9895
 20
-23.164
 30
0.0
 10
-69.1259
 20
-30.5099
 30
0.0
 10
-71.7925
 20
-34.9307
 30
0.0
 10
-78.409
 20
-36.0603
 30
0.0
 10
-78.409
 20
-36.0603
 30
0.0
 10
-78.409
 20
-36.0603
 30
0.0
 10
-78.409
 20
-41.3986
 30
0.0
 10
-78.409
 20
-41.3986
 30
0.0
 10
-78.409
 20
-41.3986
 30
0.0
 10
-81.5248
 20
-42.2445
 30
0.0
 10
-83.2391
 20
-44.3082
 30
0.0
 10
-85.3086
 20
-46.2625
 30
0.0
 10
-85.3086
 20
-46.2625
 30
0.0
 10
-87.378
 20
-44.3082
 30
0.0
 10
-89.0924
 20
-42.2445
 30
0.0
 10
-92.2083
 20
-41.3986
 30
0.0
  0
SPLINE
  5
47
330
1F
100
AcDbEntity
  8
layer 1
 62
     7
100
AcDbSpline
210
0.0
220
0.0
230
1.0
 70
    11
 71
     3
 72
    52
 73
    48
 74
     0
 42
0.0000000001
 43
0.0000000001
 12
1.0
 22
0.0
 32
0.0
 13
1.0
 23
0.0
 33
0.0
 40
0.0
 40
0.0
 40
0.0
 40
0.0
 40
0.0769230769230769
 40
0.0769230769230769
 40
0.0769230769230769
 40
0.0769230769230769
 40
0.1538461538461539
 40
0.1538461538461539
 40
0.1538461538461539
 40
0.1538461538461539
 40
0.2307692307692308
 40
0.2307692307692308
 40
0.2307692307692308
 40
0.2307692307692308
 40
0.3076923076923077
 40
0.3076923076923077
 40
0.3076923076923077
 40
0.3076923076923077
 40
0.3846153846153846
 40
0.3846153846153846
 40
0.3846153846153846
 40
0.3846153846153846
 40
0.4615384615384616
 40
0.4615384615384616
 40
0.4615384615384616
 40
0.4615384615384616
 40
0.5384615384615384
 40
0.5384615384615384
 40
0.5384615384615384
 40
0.5384615384615384
 40
0.6153846153846154
 40
0.6153846153846154
 40
0.6153846153846154
 40
0.6153846153846154
 40
0.6923076923076923
 40
0.6923076923076923
 40
0.6923076923076923
 40
0.6923076923076923
 40
0.7692307692307693
 40
0.7692307692307693
 40
0.7692307692307693
 40
0.7692307692307693
 40
0.8461538461538461
 40
0.8461538461538461
 40
0.8461538461538461
 40
0.8461538461538461
 40
1.0
 40
1.0
 40
1.0
 40
1.0
 10
-129.7658
 20
-41.3986
 30
0.0
 10
-129.7658
 20
-41.3986
 30
0.0
 10
-129.7658
 20
-36.0603
 30
0.0
 10
-129.7658
 20
-36.0603
 30
0.0
 10
-129.7658
 20
-36.0603
 30
0.0
 10
-136.3823
 20
-34.9307
 30
0.0
 10
-139.0489
 20
-30.5099
 30
0.0
 10
-139.1853
 20
-23.164
 30
0.0
 10
-139.1853
 20
-23.164
 30
0.0
 10
-139.1773
 20
-16.2449
 30
0.0
 10
-136.4622
 20
-11.5966
 30
0.0
 10
-129.8432
 20
-10.7104
 30
0.0
 10
-129.8432
 20
-10.7104
 30
0.0
 10
-129.8432
 20
-10.7104
 30
0.0
 10
-129.8432
 20
-5.6418
 30
0.0
 10
-129.8432
 20
-5.6418
 30
0.0
 10
-129.8432
 20
-5.6418
 30
0.0
 10
-127.4886
 20
-4.6258
 30
0.0
 10
-124.8131
 20
-2.8251
 30
0.0
 10
-122.8661
 20
-0.4771
 30
0.0
 10
-122.8661
 20
-0.4771
 30
0.0
 10
-120.9192
 20
-2.8251
 30
0.0
 10
-118.2437
 20
-4.6258
 30
0.0
 10
-115.889
 20
-5.6418
 30
0.0
 10
-115.889
 20
-5.6418
 30
0.0
 10
-115.889
 20
-5.6418
 30
0.0
 10
-115.889
 20
-10.7104
 30
0.0
 10
-115.889
 20
-10.7104
 30
0.0
 10
-115.889
 20
-10.7104
 30
0.0
 10
-109.27
 20
-11.5966
 30
0.0
 10
-106.5549
 20
-16.2447
 30
0.0
 10
-106.547
 20
-23.164
 30
0.0
 10
-106.547
 20
-23.164
 30
0.0
 10
-106.6834
 20
-30.5099
 30
0.0
 10
-109.3499
 20
-34.9307
 30
0.0
 10
-115.9664
 20
-36.0603
 30
0.0
 10
-115.9664
 20
-36.0603
 30
0.0
 10
-115.9664
 20
-36.0603
 30
0.0
 10
-115.9664
 20
-41.3986
 30
0.0
 10
-115.9664
 20
-41.3986
 30
0.0
 10
-115.9664
 20
-41.3986
 30
0.0
 10
-119.0823
 20
-42.2445
 30
0.0
 10
-120.7966
 20
-44.3082
 30
0.0
 10
-122.8661
 20
-46.2625
 30
0.0
 10
-122.8661
 20
-46.2625
 30
0.0
 10
-124.9354
 20
-44.3082
 30
0.0
 10
-126.6499
 20
-42.2445
 30
0.0
 10
-129.7658
 20
-41.3986
 30
0.0
  0
SPLINE
  5
48
330
1F
100
AcDbEntity
  8
layer 1
 62
     7
100
AcDbSpline
210
0.0
220
0.0
230
1.0
 70
    11
 71
     3
 72
    52
 73
    48
 74
     0
 42
0.0000000001
 43
0.0000000001
 12
1.0
 22
0.0
 32
0.0
 13
1.0
 23
0.0
 33
0.0
 40
0.0
 40
0.0
 40
0.0
 40
0.0
 40
0.0769230769230769
 40
0.0769230769230769
 40
0.0769230769230769
 40
0.0769230769230769
 40
0.1538461538461539
 40
0.1538461538461539
 40
0.1538461538461539
 40
0.1538461538461539
 40
0.2307692307692308
 40
0.2307692307692308
 40
0.2307692307692308
 40
0.2307692307692308
 40
0.3076923076923077
 40
0.3076923076923077
 40
0.3076923076923077
 40
0.3076923076923077
 40
0.3846153846153846
 40
0.3846153846153846
 40
0.3846153846153846
 40
0.3846153846153846
 40
0.4615384615384616
 40
0.4615384615384616
 40
0.4615384615384616
 40
0.4615384615384616
 40
0.5384615384615384
 40
0.5384615384615384
 40
0.5384615384615384
 40
0.5384615384615384
 40
0.6153846153846154
 40
0.6153846153846154
 40
0.6153846153846154
 40
0.6153846153846154
 40
0.6923076923076923
 40
0.6923076923076923
 40
0.6923076923076923
 40
0.6923076923076923
 40
0.7692307692307693
 40
0.7692307692307693
 40
0.7692307692307693
 40
0.7692307692307693
 40
0.8461538461538461
 40
0.8461538461538461
 40
0.8461538461538461
 40
0.8461538461538461
 40
1.0
 40
1.0
 40
1.0
 40
1.0
 10
-167.3233
 20
-41.3986
 30
0.0
 10
-167.3233
 20
-41.3986
 30
0.0
 10
-167.3233
 20
-36.0603
 30
0.0
 10
-167.3233
 20
-36.0603
 30
0.0
 10
-167.3233
 20
-36.0603
 30
0.0
 10
-173.9398
 20
-34.9307
 30
0.0
 10
-176.6064
 20
-30.5099
 30
0.0
 10
-176.7428
 20
-23.164
 30
0.0
 10
-176.7428
 20
-23.164
 30
0.0
 10
-176.7348
 20
-16.2449
 30
0.0
 10
-174.0197
 20
-11.5966
 30
0.0
 10
-167.4007
 20
-10.7104
 30
0.0
 10
-167.4007
 20
-10.7104
 30
0.0
 10
-167.4007
 20
-10.7104
 30
0.0
 10
-167.4007
 20
-5.6418
 30
0.0
 10
-167.4007
 20
-5.6418
 30
0.0
 10
-167.4007
 20
-5.6418
 30
0.0
 10
-165.0461
 20
-4.6258
 30
0.0
 10
-162.3706
 20
-2.8251
 30
0.0
 10
-160.4236
 20
-0.4771
 30
0.0
 10
-160.4236
 20
-0.4771
 30
0.0
 10
-158.4766
 20
-2.8251
 30
0.0
 10
-155.8011
 20
-4.6258
 30
0.0
 10
-153.4465
 20
-5.6418
 30
0.0
 10
-153.4465
 20
-5.6418
 30
0.0
 10
-153.4465
 20
-5.6418
 30
0.0
 10
-153.4465
 20
-10.7104
 30
0.0
 10
-153.4465
 20
-10.7104
 30
0.0
 10
-153.4465
 20
-10.7104
 30
0.0
 10
-146.8275
 20
-11.5966
 30
0.0
 10
-144.1124
 20
-16.2447
 30
0.0
 10
-144.1045
 20
-23.164
 30
0.0
 10
-144.1045
 20
-23.164
 30
0.0
 10
-144.2409
 20
-30.5099
 30
0.0
 10
-146.9074
 20
-34.9307
 30
0.0
 10
-153.5239
 20
-36.0603
 30
0.0
 10
-153.5239
 20
-36.0603
 30
0.0
 10
-153.5239
 20
-36.0603
 30
0.0
 10
-153.5239
 20
-41.3986
 30
0.0
 10
-153.5239
 20
-41.3986
 30
0.0
 10
-153.5239
 20
-41.3986
 30
0.0
 10
-156.6398
 20
-42.2445
 30
0.0
 10
-158.3541
 20
-44.3082
 30
0.0
 10
-160.4236
 20
-46.2625
 30
0.0
 10
-160.4236
 20
-46.2625
 30
0.0
 10
-162.4929
 20
-44.3082
 30
0.0
 10
-164.2074
 20
-42.2445
 30
0.0
 10
-167.3233
 20
-41.3986
 30
0.0
  0
SPLINE
  5
49
330
1F
100
AcDbEntity
  8
layer 1
 62
     7
100
AcDbSpline
210
0.0
220
0.0
230
1.0
 70
    11
 71
     3
 72
    52
 73
    48
 74
     0
 42
0.0000000001
 43
0.0000000001
 12
1.0
 22
0.0
 32
0.0
 13
1.0
 23
0.0
 33
0.0
 40
0.0
 40
0.0
 40
0.0
 40
0.0
 40
0.0769230769230769
 40
0.0769230769230769
 40
0.0769230769230769
 40
0.0769230769230769
 40
0.1538461538461539
 40
0.1538461538461539
 40
0.1538461538461539
 40
0.1538461538461539
 40
0.2307692307692308
 40
0.2307692307692308
 40
0.2307692307692308
 40
0.2307692307692308
 40
0.3076923076923077
 40
0.3076923076923077
 40
0.3076923076923077
 40
0.3076923076923077
 40
0.3846153846153846
 40
0.3846153846153846
 40
0.3846153846153846
 40
0.3846153846153846
 40
0.4615384615384616
 40
0.4615384615384616
 40
0.4615384615384616
 40
0.4615384615384616
 40
0.5384615384615384
 40
0.5384615384615384
 40
0.5384615384615384
 40
0.5384615384615384
 40
0.6153846153846154
 40
0.6153846153846154
 40
0.6153846153846154
 40
0.6153846153846154
 40
0.6923076923076923
 40
0.6923076923076923
 40
0.6923076923076923
 40
0.6923076923076923
 40
0.7692307692307693
 40
0.7692307692307693
 40
0.7692307692307693
 40
0.7692307692307693
 40
0.8461538461538461
 40
0.8461538461538461
 40
0.8461538461538461
 40
0.8461538461538461
 40
1.0
 40
1.0
 40
1.0
 40
1.0
 10
-54.6508
 20
22.4612
 30
0.0
 10
-54.6508
 20
22.4612
 30
0.0
 10
-54.6508
 20
27.7995
 30
0.0
 10
-54.6508
 20
27.7995
 30
0.0
 10
-54.6508
 20
27.7995
 30
0.0
 10
-61.2673
 20
28.9291
 30
0.0
 10
-63.9339
 20
33.35
 30
0.0
 10
-64.0703
 20
40.6958
 30
0.0
 10
-64.0703
 20
40.6958
 30
0.0
 10
-64.0624
 20
47.615
 30
0.0
 10
-61.3472
 20
52.2632
 30
0.0
 10
-54.7283
 20
53.1494
 30
0.0
 10
-54.7283
 20
53.1494
 30
0.0
 10
-54.7283
 20
53.1494
 30
0.0
 10
-54.7283
 20
58.218
 30
0.0
 10
-54.7283
 20
58.218
 30
0.0
 10
-54.7283
 20
58.218
 30
0.0
 10
-52.3736
 20
59.234
 30
0.0
 10
-49.6981
 20
61.0347
 30
0.0
 10
-47.7511
 20
63.3828
 30
0.0
 10
-47.7511
 20
63.3828
 30
0.0
 10
-45.8042
 20
61.0347
 30
0.0
 10
-43.1287
 20
59.234
 30
0.0
 10
-40.774
 20
58.218
 30
0.0
 10
-40.774
 20
58.218
 30
0.0
 10
-40.774
 20
58.218
 30
0.0
 10
-40.774
 20
53.1494
 30
0.0
 10
-40.774
 20
53.1494
 30
0.0
 10
-40.774
 20
53.1494
 30
0.0
 10
-34.1551
 20
52.2632
 30
0.0
 10
-31.4399
 20
47.6151
 30
0.0
 10
-31.432
 20
40.6958
 30
0.0
 10
-31.432
 20
40.6958
 30
0.0
 10
-31.5684
 20
33.35
 30
0.0
 10
-34.235
 20
28.9291
 30
0.0
 10
-40.8515
 20
27.7995
 30
0.0
 10
-40.8515
 20
27.7995
 30
0.0
 10
-40.8515
 20
27.7995
 30
0.0
 10
-40.8515
 20
22.4612
 30
0.0
 10
-40.8515
 20
22.4612
 30
0.0
 10
-40.8515
 20
22.4612
 30
0.0
 10
-43.9673
 20
21.6153
 30
0.0
 10
-45.6817
 20
19.5516
 30
0.0
 10
-47.7511
 20
17.5974
 30
0.0
 10
-47.7511
 20
17.5974
 30
0.0
 10
-49.8205
 20
19.5516
 30
0.0
 10
-51.535
 20
21.6153
 30
0.0
 10
-54.6508
 20
22.4612
 30
0.0
  0
SPLINE
  5
4A
330
1F
100
AcDbEntity
  8
layer 1
 62
     7
100
AcDbSpline
210
0.0
220
0.0
230
1.0
 70
    11
 71
     3
 72
    52
 73
    48
 74
     0
 42
0.0000000001
 43
0.0000000001
 12
1.0
 22
0.0
 32
0.0
 13
1.0
 23
0.0
 33
0.0
 40
0.0
 40
0.0
 40
0.0
 40
0.0
 40
0.0769230769230769
 40
0.0769230769230769
 40
0.0769230769230769
 40
0.0769230769230769
 40
0.1538461538461539
 40
0.1538461538461539
 40
0.1538461538461539
 40
0.1538461538461539
 40
0.2307692307692308
 40
0.2307692307692308
 40
0.2307692307692308
 40
0.2307692307692308
 40
0.3076923076923077
 40
0.3076923076923077
 40
0.3076923076923077
 40
0.3076923076923077
 40
0.3846153846153846
 40
0.3846153846153846
 40
0.3846153846153846
 40
0.3846153846153846
 40
0.4615384615384616
 40
0.4615384615384616
 40
0.4615384615384616
 40
0.4615384615384616
 40
0.5384615384615384
 40
0.5384615384615384
 40
0.5384615384615384
 40
0.5384615384615384
 40
0.6153846153846154
 40
0.6153846153846154
 40
0.6153846153846154
 40
0.6153846153846154
 40
0.6923076923076923
 40
0.6923076923076923
 40
0.6923076923076923
 40
0.6923076923076923
 40
0.7692307692307693
 40
0.7692307692307693
 40
0.7692307692307693
 40
0.7692307692307693
 40
0.8461538461538461
 40
0.8461538461538461
 40
0.8461538461538461
 40
0.8461538461538461
 40
1.0
 40
1.0
 40
1.0
 40
1.0
 10
-92.2083
 20
22.4612
 30
0.0
 10
-92.2083
 20
22.4612
 30
0.0
 10
-92.2083
 20
27.7995
 30
0.0
 10
-92.2083
 20
27.7995
 30
0.0
 10
-92.2083
 20
27.7995
 30
0.0
 10
-98.8248
 20
28.9291
 30
0.0
 10
-101.4914
 20
33.35
 30
0.0
 10
-101.6278
 20
40.6958
 30
0.0
 10
-101.6278
 20
40.6958
 30
0.0
 10
-101.6199
 20
47.615
 30
0.0
 10
-98.9047
 20
52.2632
 30
0.0
 10
-92.2858
 20
53.1494
 30
0.0
 10
-92.2858
 20
53.1494
 30
0.0
 10
-92.2858
 20
53.1494
 30
0.0
 10
-92.2858
 20
58.218
 30
0.0
 10
-92.2858
 20
58.218
 30
0.0
 10
-92.2858
 20
58.218
 30
0.0
 10
-89.9311
 20
59.234
 30
0.0
 10
-87.2556
 20
61.0347
 30
0.0
 10
-85.3086
 20
63.3828
 30
0.0
 10
-85.3086
 20
63.3828
 30
0.0
 10
-83.3617
 20
61.0347
 30
0.0
 10
-80.6862
 20
59.234
 30
0.0
 10
-78.3315
 20
58.218
 30
0.0
 10
-78.3315
 20
58.218
 30
0.0
 10
-78.3315
 20
58.218
 30
0.0
 10
-78.3315
 20
53.1494
 30
0.0
 10
-78.3315
 20
53.1494
 30
0.0
 10
-78.3315
 20
53.1494
 30
0.0
 10
-71.7125
 20
52.2632
 30
0.0
 10
-68.9974
 20
47.6151
 30
0.0
 10
-68.9895
 20
40.6958
 30
0.0
 10
-68.9895
 20
40.6958
 30
0.0
 10
-69.1259
 20
33.35
 30
0.0
 10
-71.7925
 20
28.9291
 30
0.0
 10
-78.409
 20
27.7995
 30
0.0
 10
-78.409
 20
27.7995
 30
0.0
 10
-78.409
 20
27.7995
 30
0.0
 10
-78.409
 20
22.4612
 30
0.0
 10
-78.409
 20
22.4612
 30
0.0
 10
-78.409
 20
22.4612
 30
0.0
 10
-81.5248
 20
21.6153
 30
0.0
 10
-83.2391
 20
19.5516
 30
0.0
 10
-85.3086
 20
17.5974
 30
0.0
 10
-85.3086
 20
17.5974
 30
0.0
 10
-87.378
 20
19.5516
 30
0.0
 10
-89.0924
 20
21.6153
 30
0.0
 10
-92.2083
 20
22.4612
 30
0.0
  0
SPLINE
  5
4B
330
1F
100
AcDbEntity
  8
layer 1
 62
     7
100
AcDbSpline
210
0.0
220
0.0
230
1.0
 70
    11
 71
     3
 72
    52
 73
    48
 74
     0
 42
0.0000000001
 43
0.0000000001
 12
1.0
 22
0.0
 32
0.0
 13
1.0
 23
0.0
 33
0.0
 40
0.0
 40
0.0
 40
0.0
 40
0.0
 40
0.0769230769230769
 40
0.0769230769230769
 40
0.0769230769230769
 40
0.0769230769230769
 40
0.1538461538461539
 40
0.1538461538461539
 40
0.1538461538461539
 40
0.1538461538461539
 40
0.2307692307692308
 40
0.2307692307692308
 40
0.2307692307692308
 40
0.2307692307692308
 40
0.3076923076923077
 40
0.3076923076923077
 40
0.3076923076923077
 40
0.3076923076923077
 40
0.3846153846153846
 40
0.3846153846153846
 40
0.3846153846153846
 40
0.3846153846153846
 40
0.4615384615384616
 40
0.4615384615384616
 40
0.4615384615384616
 40
0.4615384615384616
 40
0.5384615384615384
 40
0.5384615384615384
 40
0.5384615384615384
 40
0.5384615384615384
 40
0.6153846153846154
 40
0.6153846153846154
 40
0.6153846153846154
 40
0.6153846153846154
 40
0.6923076923076923
 40
0.6923076923076923
 40
0.6923076923076923
 40
0.6923076923076923
 40
0.7692307692307693
 40
0.7692307692307693
 40
0.7692307692307693
 40
0.7692307692307693
 40
0.8461538461538461
 40
0.8461538461538461
 40
0.8461538461538461
 40
0.8461538461538461
 40
1.0
 40
1.0
 40
1.0
 40
1.0
 10
-129.7658
 20
22.4612
 30
0.0
 10
-129.7658
 20
22.4612
 30
0.0
 10
-129.7658
 20
27.7995
 30
0.0
 10
-129.7658
 20
27.7995
 30
0.0
 10
-129.7658
 20
27.7995
 30
0.0
 10
-136.3823
 20
28.9291
 30
0.0
 10
-139.0489
 20
33.35
 30
0.0
 10
-139.1853
 20
40.6958
 30
0.0
 10
-139.1853
 20
40.6958
 30
0.0
 10
-139.1773
 20
47.615
 30
0.0
 10
-136.4622
 20
52.2632
 30
0.0
 10
-129.8432
 20
53.1494
 30
0.0
 10
-129.8432
 20
53.1494
 30
0.0
 10
-129.8432
 20
53.1494
 30
0.0
 10
-129.8432
 20
58.218
 30
0.0
 10
-129.8432
 20
58.218
 30
0.0
 10
-129.8432
 20
58.218
 30
0.0
 10
-127.4886
 20
59.234
 30
0.0
 10
-124.8131
 20
61.0347
 30
0.0
 10
-122.8661
 20
63.3828
 30
0.0
 10
-122.8661
 20
63.3828
 30
0.0
 10
-120.9192
 20
61.0347
 30
0.0
 10
-118.2437
 20
59.234
 30
0.0
 10
-115.889
 20
58.218
 30
0.0
 10
-115.889
 20
58.218
 30
0.0
 10
-115.889
 20
58.218
 30
0.0
 10
-115.889
 20
53.1494
 30
0.0
 10
-115.889
 20
53.1494
 30
0.0
 10
-115.889
 20
53.1494
 30
0.0
 10
-109.27
 20
52.2632
 30
0.0
 10
-106.5549
 20
47.6151
 30
0.0
 10
-106.547
 20
40.6958
 30
0.0
 10
-106.547
 20
40.6958
 30
0.0
 10
-106.6834
 20
33.35
 30
0.0
 10
-109.3499
 20
28.9291
 30
0.0
 10
-115.9664
 20
27.7995
 30
0.0
 10
-115.9664
 20
27.7995
 30
0.0
 10
-115.9664
 20
27.7995
 30
0.0
 10
-115.9664
 20
22.4612
 30
0.0
 10
-115.9664
 20
22.4612
 30
0.0
 10
-115.9664
 20
22.4612
 30
0.0
 10
-119.0823
 20
21.6153
 30
0.0
 10
-120.7966
 20
19.5516
 30
0.0
 10
-122.8661
 20
17.5974
 30
0.0
 10
-122.8661
 20
17.5974
 30
0.0
 10
-124.9354
 20
19.5516
 30
0.0
 10
-126.6499
 20
21.6153
 30
0.0
 10
-129.7658
 20
22.4612
 30
0.0
  0
SPLINE
  5
4C
330
1F
100
AcDbEntity
  8
layer 1
 62
     7
100
AcDbSpline
210
0.0
220
0.0
230
1.0
 70
    11
 71
     3
 72
    52
 73
    48
 74
     0
 42
0.0000000001
 43
0.0000000001
 12
1.0
 22
0.0
 32
0.0
 13
1.0
 23
0.0
 33
0.0
 40
0.0
 40
0.0
 40
0.0
 40
0.0
 40
0.0769230769230769
 40
0.0769230769230769
 40
0.0769230769230769
 40
0.0769230769230769
 40
0.1538461538461539
 40
0.1538461538461539
 40
0.1538461538461539
 40
0.1538461538461539
 40
0.2307692307692308
 40
0.2307692307692308
 40
0.2307692307692308
 40
0.2307692307692308
 40
0.3076923076923077
 40
0.3076923076923077
 40
0.3076923076923077
 40
0.3076923076923077
 40
0.3846153846153846
 40
0.3846153846153846
 40
0.3846153846153846
 40
0.3846153846153846
 40
0.4615384615384616
 40
0.4615384615384616
 40
0.4615384615384616
 40
0.4615384615384616
 40
0.5384615384615384
 40
0.5384615384615384
 40
0.5384615384615384
 40
0.5384615384615384
 40
0.6153846153846154
 40
0.6153846153846154
 40
0.6153846153846154
 40
0.6153846153846154
 40
0.6923076923076923
 40
0.6923076923076923
 40
0.6923076923076923
 40
0.6923076923076923
 40
0.7692307692307693
 40
0.7692307692307693
 40
0.7692307692307693
 40
0.7692307692307693
 40
0.8461538461538461
 40
0.8461538461538461
 40
0.8461538461538461
 40
0.8461538461538461
 40
1.0
 40
1.0
 40
1.0
 40
1.0
 10
-167.3233
 20
22.4612
 30
0.0
 10
-167.3233
 20
22.4612
 30
0.0
 10
-167.3233
 20
27.7995
 30
0.0
 10
-167.3233
 20
27.7995
 30
0.0
 10
-167.3233
 20
27.7995
 30
0.0
 10
-173.9398
 20
28.9291
 30
0.0
 10
-176.6064
 20
33.35
 30
0.0
 10
-176.7428
 20
40.6958
 30
0.0
 10
-176.7428
 20
40.6958
 30
0.0
 10
-176.7348
 20
47.615
 30
0.0
 10
-174.0197
 20
52.2632
 30
0.0
 10
-167.4007
 20
53.1494
 30
0.0
 10
-167.4007
 20
53.1494
 30
0.0
 10
-167.4007
 20
53.1494
 30
0.0
 10
-167.4007
 20
58.218
 30
0.0
 10
-167.4007
 20
58.218
 30
0.0
 10
-167.4007
 20
58.218
 30
0.0
 10
-165.0461
 20
59.234
 30
0.0
 10
-162.3706
 20
61.0347
 30
0.0
 10
-160.4236
 20
63.3828
 30
0.0
 10
-160.4236
 20
63.3828
 30
0.0
 10
-158.4766
 20
61.0347
 30
0.0
 10
-155.8011
 20
59.234
 30
0.0
 10
-153.4465
 20
58.218
 30
0.0
 10
-153.4465
 20
58.218
 30
0.0
 10
-153.4465
 20
58.218
 30
0.0
 10
-153.4465
 20
53.1494
 30
0.0
 10
-153.4465
 20
53.1494
 30
0.0
 10
-153.4465
 20
53.1494
 30
0.0
 10
-146.8275
 20
52.2632
 30
0.0
 10
-144.1124
 20
47.6151
 30
0.0
 10
-144.1045
 20
40.6958
 30
0.0
 10
-144.1045
 20
40.6958
 30
0.0
 10
-144.2409
 20
33.35
 30
0.0
 10
-146.9074
 20
28.9291
 30
0.0
 10
-153.5239
 20
27.7995
 30
0.0
 10
-153.5239
 20
27.7995
 30
0.0
 10
-153.5239
 20
27.7995
 30
0.0
 10
-153.5239
 20
22.4612
 30
0.0
 10
-153.5239
 20
22.4612
 30
0.0
 10
-153.5239
 20
22.4612
 30
0.0
 10
-156.6398
 20
21.6153
 30
0.0
 10
-158.3541
 20
19.5516
 30
0.0
 10
-160.4236
 20
17.5974
 30
0.0
 10
-160.4236
 20
17.5974
 30
0.0
 10
-162.4929
 20
19.5516
 30
0.0
 10
-164.2074
 20
21.6153
 30
0.0
 10
-167.3233
 20
22.4612
 30
0.0
  0
SPLINE
  5
4D
330
1F
100
AcDbEntity
  8
layer 1
 62
     7
100
AcDbSpline
210
0.0
220
0.0
230
1.0
 70
    11
 71
     3
 72
    52
 73
    48
 74
     0
 42
0.0000000001
 43
0.0000000001
 12
1.0
 22
0.0
 32
0.0
 13
1.0
 23
0.0
 33
0.0
 40
0.0
 40
0.0
 40
0.0
 40
0.0
 40
0.0769230769230769
 40
0.0769230769230769
 40
0.0769230769230769
 40
0.0769230769230769
 40
0.1538461538461539
 40
0.1538461538461539
 40
0.1538461538461539
 40
0.1538461538461539
 40
0.2307692307692308
 40
0.2307692307692308
 40
0.2307692307692308
 40
0.2307692307692308
 40
0.3076923076923077
 40
0.3076923076923077
 40
0.3076923076923077
 40
0.3076923076923077
 40
0.3846153846153846
 40
0.3846153846153846
 40
0.3846153846153846
 40
0.3846153846153846
 40
0.4615384615384616
 40
0.4615384615384616
 40
0.4615384615384616
 40
0.4615384615384616
 40
0.5384615384615384
 40
0.5384615384615384
 40
0.5384615384615384
 40
0.5384615384615384
 40
0.6153846153846154
 40
0.6153846153846154
 40
0.6153846153846154
 40
0.6153846153846154
 40
0.6923076923076923
 40
0.6923076923076923
 40
0.6923076923076923
 40
0.6923076923076923
 40
0.7692307692307693
 40
0.7692307692307693
 40
0.7692307692307693
 40
0.7692307692307693
 40
0.8461538461538461
 40
0.8461538461538461
 40
0.8461538461538461
 40
0.8461538461538461
 40
1.0
 40
1.0
 40
1.0
 40
1.0
 10
-73.3291
 20
54.2288
 30
0.0
 10
-73.3291
 20
54.2288
 30
0.0
 10
-73.3291
 20
59.5671
 30
0.0
 10
-73.3291
 20
59.5671
 30
0.0
 10
-73.3291
 20
59.5671
 30
0.0
 10
-79.9456
 20
60.6967
 30
0.0
 10
-82.6122
 20
65.1176
 30
0.0
 10
-82.7486
 20
72.4634
 30
0.0
 10
-82.7486
 20
72.4634
 30
0.0
 10
-82.7406
 20
79.3826
 30
0.0
 10
-80.0255
 20
84.0308
 30
0.0
 10
-73.4065
 20
84.917
 30
0.0
 10
-73.4065
 20
84.917
 30
0.0
 10
-73.4065
 20
84.917
 30
0.0
 10
-73.4065
 20
89.9856
 30
0.0
 10
-73.4065
 20
89.9856
 30
0.0
 10
-73.4065
 20
89.9856
 30
0.0
 10
-71.0519
 20
91.0016
 30
0.0
 10
-68.3764
 20
92.8023
 30
0.0
 10
-66.4294
 20
95.1504
 30
0.0
 10
-66.4294
 20
95.1504
 30
0.0
 10
-64.4824
 20
92.8023
 30
0.0
 10
-61.807
 20
91.0016
 30
0.0
 10
-59.4523
 20
89.9856
 30
0.0
 10
-59.4523
 20
89.9856
 30
0.0
 10
-59.4523
 20
89.9856
 30
0.0
 10
-59.4523
 20
84.917
 30
0.0
 10
-59.4523
 20
84.917
 30
0.0
 10
-59.4523
 20
84.917
 30
0.0
 10
-52.8333
 20
84.0308
 30
0.0
 10
-50.1182
 20
79.3827
 30
0.0
 10
-50.1103
 20
72.4634
 30
0.0
 10
-50.1103
 20
72.4634
 30
0.0
 10
-50.2467
 20
65.1176
 30
0.0
 10
-52.9132
 20
60.6967
 30
0.0
 10
-59.5297
 20
59.5671
 30
0.0
 10
-59.5297
 20
59.5671
 30
0.0
 10
-59.5297
 20
59.5671
 30
0.0
 10
-59.5297
 20
54.2288
 30
0.0
 10
-59.5297
 20
54.2288
 30
0.0
 10
-59.5297
 20
54.2288
 30
0.0
 10
-62.6456
 20
53.3829
 30
0.0
 10
-64.3599
 20
51.3192
 30
0.0
 10
-66.4294
 20
49.3649
 30
0.0
 10
-66.4294
 20
49.3649
 30
0.0
 10
-68.4987
 20
51.3192
 30
0.0
 10
-70.2132
 20
53.3829
 30
0.0
 10
-73.3291
 20
54.2288
 30
0.0
  0
SPLINE
  5
4E
330
1F
100
AcDbEntity
  8
layer 1
 62
     7
100
AcDbSpline
210
0.0
220
0.0
230
1.0
 70
    11
 71
     3
 72
    52
 73
    48
 74
     0
 42
0.0000000001
 43
0.0000000001
 12
1.0
 22
0.0
 32
0.0
 13
1.0
 23
0.0
 33
0.0
 40
0.0
 40
0.0
 40
0.0
 40
0.0
 40
0.0769230769230769
 40
0.0769230769230769
 40
0.0769230769230769
 40
0.0769230769230769
 40
0.1538461538461539
 40
0.1538461538461539
 40
0.1538461538461539
 40
0.1538461538461539
 40
0.2307692307692308
 40
0.2307692307692308
 40
0.2307692307692308
 40
0.2307692307692308
 40
0.3076923076923077
 40
0.3076923076923077
 40
0.3076923076923077
 40
0.3076923076923077
 40
0.3846153846153846
 40
0.3846153846153846
 40
0.3846153846153846
 40
0.3846153846153846
 40
0.4615384615384616
 40
0.4615384615384616
 40
0.4615384615384616
 40
0.4615384615384616
 40
0.5384615384615384
 40
0.5384615384615384
 40
0.5384615384615384
 40
0.5384615384615384
 40
0.6153846153846154
 40
0.6153846153846154
 40
0.6153846153846154
 40
0.6153846153846154
 40
0.6923076923076923
 40
0.6923076923076923
 40
0.6923076923076923
 40
0.6923076923076923
 40
0.7692307692307693
 40
0.7692307692307693
 40
0.7692307692307693
 40
0.7692307692307693
 40
0.8461538461538461
 40
0.8461538461538461
 40
0.8461538461538461
 40
0.8461538461538461
 40
1.0
 40
1.0
 40
1.0
 40
1.0
 10
-110.8866
 20
54.2288
 30
0.0
 10
-110.8866
 20
54.2288
 30
0.0
 10
-110.8866
 20
59.5671
 30
0.0
 10
-110.8866
 20
59.5671
 30
0.0
 10
-110.8866
 20
59.5671
 30
0.0
 10
-117.5031
 20
60.6967
 30
0.0
 10
-120.1697
 20
65.1176
 30
0.0
 10
-120.306
 20
72.4634
 30
0.0
 10
-120.306
 20
72.4634
 30
0.0
 10
-120.2981
 20
79.3826
 30
0.0
 10
-117.583
 20
84.0308
 30
0.0
 10
-110.964
 20
84.917
 30
0.0
 10
-110.964
 20
84.917
 30
0.0
 10
-110.964
 20
84.917
 30
0.0
 10
-110.964
 20
89.9856
 30
0.0
 10
-110.964
 20
89.9856
 30
0.0
 10
-110.964
 20
89.9856
 30
0.0
 10
-108.6094
 20
91.0016
 30
0.0
 10
-105.9339
 20
92.8023
 30
0.0
 10
-103.9869
 20
95.1504
 30
0.0
 10
-103.9869
 20
95.1504
 30
0.0
 10
-102.0399
 20
92.8023
 30
0.0
 10
-99.3644
 20
91.0016
 30
0.0
 10
-97.0098
 20
89.9856
 30
0.0
 10
-97.0098
 20
89.9856
 30
0.0
 10
-97.0098
 20
89.9856
 30
0.0
 10
-97.0098
 20
84.917
 30
0.0
 10
-97.0098
 20
84.917
 30
0.0
 10
-97.0098
 20
84.917
 30
0.0
 10
-90.3908
 20
84.0308
 30
0.0
 10
-87.6757
 20
79.3827
 30
0.0
 10
-87.6678
 20
72.4634
 30
0.0
 10
-87.6678
 20
72.4634
 30
0.0
 10
-87.8041
 20
65.1176
 30
0.0
 10
-90.4707
 20
60.6967
 30
0.0
 10
-97.0872
 20
59.5671
 30
0.0
 10
-97.0872
 20
59.5671
 30
0.0
 10
-97.0872
 20
59.5671
 30
0.0
 10
-97.0872
 20
54.2288
 30
0.0
 10
-97.0872
 20
54.2288
 30
0.0
 10
-97.0872
 20
54.2288
 30
0.0
 10
-100.2031
 20
53.3829
 30
0.0
 10
-101.9174
 20
51.3192
 30
0.0
 10
-103.9869
 20
49.3649
 30
0.0
 10
-103.9869
 20
49.3649
 30
0.0
 10
-106.0562
 20
51.3192
 30
0.0
 10
-107.7707
 20
53.3829
 30
0.0
 10
-110.8866
 20
54.2288
 30
0.0
  0
SPLINE
  5
4F
330
1F
100
AcDbEntity
  8
layer 1
 62
     7
100
AcDbSpline
210
0.0
220
0.0
230
1.0
 70
    11
 71
     3
 72
    52
 73
    48
 74
     0
 42
0.0000000001
 43
0.0000000001
 12
1.0
 22
0.0
 32
0.0
 13
1.0
 23
0.0
 33
0.0
 40
0.0
 40
0.0
 40
0.0
 40
0.0
 40
0.0769230769230769
 40
0.0769230769230769
 40
0.0769230769230769
 40
0.0769230769230769
 40
0.1538461538461539
 40
0.1538461538461539
 40
0.1538461538461539
 40
0.1538461538461539
 40
0.2307692307692308
 40
0.2307692307692308
 40
0.2307692307692308
 40
0.2307692307692308
 40
0.3076923076923077
 40
0.3076923076923077
 40
0.3076923076923077
 40
0.3076923076923077
 40
0.3846153846153846
 40
0.3846153846153846
 40
0.3846153846153846
 40
0.3846153846153846
 40
0.4615384615384616
 40
0.4615384615384616
 40
0.4615384615384616
 40
0.4615384615384616
 40
0.5384615384615384
 40
0.5384615384615384
 40
0.5384615384615384
 40
0.5384615384615384
 40
0.6153846153846154
 40
0.6153846153846154
 40
0.6153846153846154
 40
0.6153846153846154
 40
0.6923076923076923
 40
0.6923076923076923
 40
0.6923076923076923
 40
0.6923076923076923
 40
0.7692307692307693
 40
0.7692307692307693
 40
0.7692307692307693
 40
0.7692307692307693
 40
0.8461538461538461
 40
0.8461538461538461
 40
0.8461538461538461
 40
0.8461538461538461
 40
1.0
 40
1.0
 40
1.0
 40
1.0
 10
-148.4441
 20
54.2288
 30
0.0
 10
-148.4441
 20
54.2288
 30
0.0
 10
-148.4441
 20
59.5671
 30
0.0
 10
-148.4441
 20
59.5671
 30
0.0
 10
-148.4441
 20
59.5671
 30
0.0
 10
-155.0606
 20
60.6967
 30
0.0
 10
-157.7271
 20
65.1176
 30
0.0
 10
-157.8635
 20
72.4634
 30
0.0
 10
-157.8635
 20
72.4634
 30
0.0
 10
-157.8556
 20
79.3826
 30
0.0
 10
-155.1405
 20
84.0308
 30
0.0
 10
-148.5215
 20
84.917
 30
0.0
 10
-148.5215
 20
84.917
 30
0.0
 10
-148.5215
 20
84.917
 30
0.0
 10
-148.5215
 20
89.9856
 30
0.0
 10
-148.5215
 20
89.9856
 30
0.0
 10
-148.5215
 20
89.9856
 30
0.0
 10
-146.1669
 20
91.0016
 30
0.0
 10
-143.4914
 20
92.8023
 30
0.0
 10
-141.5444
 20
95.1504
 30
0.0
 10
-141.5444
 20
95.1504
 30
0.0
 10
-139.5974
 20
92.8023
 30
0.0
 10
-136.9219
 20
91.0016
 30
0.0
 10
-134.5673
 20
89.9856
 30
0.0
 10
-134.5673
 20
89.9856
 30
0.0
 10
-134.5673
 20
89.9856
 30
0.0
 10
-134.5673
 20
84.917
 30
0.0
 10
-134.5673
 20
84.917
 30
0.0
 10
-134.5673
 20
84.917
 30
0.0
 10
-127.9483
 20
84.0308
 30
0.0
 10
-125.2332
 20
79.3827
 30
0.0
 10
-125.2252
 20
72.4634
 30
0.0
 10
-125.2252
 20
72.4634
 30
0.0
 10
-125.3616
 20
65.1176
 30
0.0
 10
-128.0282
 20
60.6967
 30
0.0
 10
-134.6447
 20
59.5671
 30
0.0
 10
-134.6447
 20
59.5671
 30
0.0
 10
-134.6447
 20
59.5671
 30
0.0
 10
-134.6447
 20
54.2288
 30
0.0
 10
-134.6447
 20
54.2288
 30
0.0
 10
-134.6447
 20
54.2288
 30
0.0
 10
-137.7606
 20
53.3829
 30
0.0
 10
-139.4749
 20
51.3192
 30
0.0
 10
-141.5444
 20
49.3649
 30
0.0
 10
-141.5444
 20
49.3649
 30
0.0
 10
-143.6137
 20
51.3192
 30
0.0
 10
-145.3282
 20
53.3829
 30
0.0
 10
-148.4441
 20
54.2288
 30
0.0
  0
SPLINE
  5
50
330
1F
100
AcDbEntity
  8
layer 1
 62
     7
100
AcDbSpline
210
0.0
220
0.0
230
1.0
 70
    11
 71
     3
 72
    52
 73
    48
 74
     0
 42
0.0000000001
 43
0.0000000001
 12
1.0
 22
0.0
 32
0.0
 13
1.0
 23
0.0
 33
0.0
 40
0.0
 40
0.0
 40
0.0
 40
0.0
 40
0.0769230769230769
 40
0.0769230769230769
 40
0.0769230769230769
 40
0.0769230769230769
 40
0.1538461538461539
 40
0.1538461538461539
 40
0.1538461538461539
 40
0.1538461538461539
 40
0.2307692307692308
 40
0.2307692307692308
 40
0.2307692307692308
 40
0.2307692307692308
 40
0.3076923076923077
 40
0.3076923076923077
 40
0.3076923076923077
 40
0.3076923076923077
 40
0.3846153846153846
 40
0.3846153846153846
 40
0.3846153846153846
 40
0.3846153846153846
 40
0.4615384615384616
 40
0.4615384615384616
 40
0.4615384615384616
 40
0.4615384615384616
 40
0.5384615384615384
 40
0.5384615384615384
 40
0.5384615384615384
 40
0.5384615384615384
 40
0.6153846153846154
 40
0.6153846153846154
 40
0.6153846153846154
 40
0.6153846153846154
 40
0.6923076923076923
 40
0.6923076923076923
 40
0.6923076923076923
 40
0.6923076923076923
 40
0.7692307692307693
 40
0.7692307692307693
 40
0.7692307692307693
 40
0.7692307692307693
 40
0.8461538461538461
 40
0.8461538461538461
 40
0.8461538461538461
 40
0.8461538461538461
 40
1.0
 40
1.0
 40
1.0
 40
1.0
 10
-92.2083
 20
86.3211
 30
0.0
 10
-92.2083
 20
86.3211
 30
0.0
 10
-92.2083
 20
91.6593
 30
0.0
 10
-92.2083
 20
91.6593
 30
0.0
 10
-92.2083
 20
91.6593
 30
0.0
 10
-98.8248
 20
92.7889
 30
0.0
 10
-101.4914
 20
97.2098
 30
0.0
 10
-101.6278
 20
104.5556
 30
0.0
 10
-101.6278
 20
104.5556
 30
0.0
 10
-101.6199
 20
111.4748
 30
0.0
 10
-98.9047
 20
116.123
 30
0.0
 10
-92.2858
 20
117.0092
 30
0.0
 10
-92.2858
 20
117.0092
 30
0.0
 10
-92.2858
 20
117.0092
 30
0.0
 10
-92.2858
 20
122.0779
 30
0.0
 10
-92.2858
 20
122.0779
 30
0.0
 10
-92.2858
 20
122.0779
 30
0.0
 10
-89.9311
 20
123.0939
 30
0.0
 10
-87.2556
 20
124.8945
 30
0.0
 10
-85.3086
 20
127.2426
 30
0.0
 10
-85.3086
 20
127.2426
 30
0.0
 10
-83.3617
 20
124.8945
 30
0.0
 10
-80.6862
 20
123.0939
 30
0.0
 10
-78.3315
 20
122.0779
 30
0.0
 10
-78.3315
 20
122.0779
 30
0.0
 10
-78.3315
 20
122.0779
 30
0.0
 10
-78.3315
 20
117.0092
 30
0.0
 10
-78.3315
 20
117.0092
 30
0.0
 10
-78.3315
 20
117.0092
 30
0.0
 10
-71.7125
 20
116.123
 30
0.0
 10
-68.9974
 20
111.475
 30
0.0
 10
-68.9895
 20
104.5556
 30
0.0
 10
-68.9895
 20
104.5556
 30
0.0
 10
-69.1259
 20
97.2098
 30
0.0
 10
-71.7925
 20
92.7889
 30
0.0
 10
-78.409
 20
91.6593
 30
0.0
 10
-78.409
 20
91.6593
 30
0.0
 10
-78.409
 20
91.6593
 30
0.0
 10
-78.409
 20
86.3211
 30
0.0
 10
-78.409
 20
86.3211
 30
0.0
 10
-78.409
 20
86.3211
 30
0.0
 10
-81.5248
 20
85.4751
 30
0.0
 10
-83.2391
 20
83.4114
 30
0.0
 10
-85.3086
 20
81.4572
 30
0.0
 10
-85.3086
 20
81.4572
 30
0.0
 10
-87.378
 20
83.4114
 30
0.0
 10
-89.0924
 20
85.4751
 30
0.0
 10
-92.2083
 20
86.3211
 30
0.0
  0
SPLINE
  5
51
330
1F
100
AcDbEntity
  8
layer 1
 62
     7
100
AcDbSpline
210
0.0
220
0.0
230
1.0
 70
    11
 71
     3
 72
    52
 73
    48
 74
     0
 42
0.0000000001
 43
0.0000000001
 12
1.0
 22
0.0
 32
0.0
 13
1.0
 23
0.0
 33
0.0
 40
0.0
 40
0.0
 40
0.0
 40
0.0
 40
0.0769230769230769
 40
0.0769230769230769
 40
0.0769230769230769
 40
0.0769230769230769
 40
0.1538461538461539
 40
0.1538461538461539
 40
0.1538461538461539
 40
0.1538461538461539
 40
0.2307692307692308
 40
0.2307692307692308
 40
0.2307692307692308
 40
0.2307692307692308
 40
0.3076923076923077
 40
0.3076923076923077
 40
0.3076923076923077
 40
0.3076923076923077
 40
0.3846153846153846
 40
0.3846153846153846
 40
0.3846153846153846
 40
0.3846153846153846
 40
0.4615384615384616
 40
0.4615384615384616
 40
0.4615384615384616
 40
0.4615384615384616
 40
0.5384615384615384
 40
0.5384615384615384
 40
0.5384615384615384
 40
0.5384615384615384
 40
0.6153846153846154
 40
0.6153846153846154
 40
0.6153846153846154
 40
0.6153846153846154
 40
0.6923076923076923
 40
0.6923076923076923
 40
0.6923076923076923
 40
0.6923076923076923
 40
0.7692307692307693
 40
0.7692307692307693
 40
0.7692307692307693
 40
0.7692307692307693
 40
0.8461538461538461
 40
0.8461538461538461
 40
0.8461538461538461
 40
0.8461538461538461
 40
1.0
 40
1.0
 40
1.0
 40
1.0
 10
-129.7658
 20
86.3211
 30
0.0
 10
-129.7658
 20
86.3211
 30
0.0
 10
-129.7658
 20
91.6593
 30
0.0
 10
-129.7658
 20
91.6593
 30
0.0
 10
-129.7658
 20
91.6593
 30
0.0
 10
-136.3823
 20
92.7889
 30
0.0
 10
-139.0489
 20
97.2098
 30
0.0
 10
-139.1853
 20
104.5556
 30
0.0
 10
-139.1853
 20
104.5556
 30
0.0
 10
-139.1773
 20
111.4748
 30
0.0
 10
-136.4622
 20
116.123
 30
0.0
 10
-129.8432
 20
117.0092
 30
0.0
 10
-129.8432
 20
117.0092
 30
0.0
 10
-129.8432
 20
117.0092
 30
0.0
 10
-129.8432
 20
122.0779
 30
0.0
 10
-129.8432
 20
122.0779
 30
0.0
 10
-129.8432
 20
122.0779
 30
0.0
 10
-127.4886
 20
123.0939
 30
0.0
 10
-124.8131
 20
124.8945
 30
0.0
 10
-122.8661
 20
127.2426
 30
0.0
 10
-122.8661
 20
127.2426
 30
0.0
 10
-120.9192
 20
124.8945
 30
0.0
 10
-118.2437
 20
123.0939
 30
0.0
 10
-115.889
 20
122.0779
 30
0.0
 10
-115.889
 20
122.0779
 30
0.0
 10
-115.889
 20
122.0779
 30
0.0
 10
-115.889
 20
117.0092
 30
0.0
 10
-115.889
 20
117.0092
 30
0.0
 10
-115.889
 20
117.0092
 30
0.0
 10
-109.27
 20
116.123
 30
0.0
 10
-106.5549
 20
111.475
 30
0.0
 10
-106.547
 20
104.5556
 30
0.0
 10
-106.547
 20
104.5556
 30
0.0
 10
-106.6834
 20
97.2098
 30
0.0
 10
-109.3499
 20
92.7889
 30
0.0
 10
-115.9664
 20
91.6593
 30
0.0
 10
-115.9664
 20
91.6593
 30
0.0
 10
-115.9664
 20
91.6593
 30
0.0
 10
-115.9664
 20
86.3211
 30
0.0
 10
-115.9664
 20
86.3211
 30
0.0
 10
-115.9664
 20
86.3211
 30
0.0
 10
-119.0823
 20
85.4751
 30
0.0
 10
-120.7966
 20
83.4114
 30
0.0
 10
-122.8661
 20
81.4572
 30
0.0
 10
-122.8661
 20
81.4572
 30
0.0
 10
-124.9354
 20
83.4114
 30
0.0
 10
-126.6499
 20
85.4751
 30
0.0
 10
-129.7658
 20
86.3211
 30
0.0
  0
SPLINE
  5
52
330
1F
100
AcDbEntity
  8
layer 1
 62
     7
100
AcDbSpline
210
0.0
220
0.0
230
1.0
 70
    11
 71
     3
 72
    52
 73
    48
 74
     0
 42
0.0000000001
 43
0.0000000001
 12
1.0
 22
0.0
 32
0.0
 13
1.0
 23
0.0
 33
0.0
 40
0.0
 40
0.0
 40
0.0
 40
0.0
 40
0.0769230769230769
 40
0.0769230769230769
 40
0.0769230769230769
 40
0.0769230769230769
 40
0.1538461538461539
 40
0.1538461538461539
 40
0.1538461538461539
 40
0.1538461538461539
 40
0.2307692307692308
 40
0.2307692307692308
 40
0.2307692307692308
 40
0.2307692307692308
 40
0.3076923076923077
 40
0.3076923076923077
 40
0.3076923076923077
 40
0.3076923076923077
 40
0.3846153846153846
 40
0.3846153846153846
 40
0.3846153846153846
 40
0.3846153846153846
 40
0.4615384615384616
 40
0.4615384615384616
 40
0.4615384615384616
 40
0.4615384615384616
 40
0.5384615384615384
 40
0.5384615384615384
 40
0.5384615384615384
 40
0.5384615384615384
 40
0.6153846153846154
 40
0.6153846153846154
 40
0.6153846153846154
 40
0.6153846153846154
 40
0.6923076923076923
 40
0.6923076923076923
 40
0.6923076923076923
 40
0.6923076923076923
 40
0.7692307692307693
 40
0.7692307692307693
 40
0.7692307692307693
 40
0.7692307692307693
 40
0.8461538461538461
 40
0.8461538461538461
 40
0.8461538461538461
 40
0.8461538461538461
 40
1.0
 40
1.0
 40
1.0
 40
1.0
 10
-167.3233
 20
86.3211
 30
0.0
 10
-167.3233
 20
86.3211
 30
0.0
 10
-167.3233
 20
91.6593
 30
0.0
 10
-167.3233
 20
91.6593
 30
0.0
 10
-167.3233
 20
91.6593
 30
0.0
 10
-173.9398
 20
92.7889
 30
0.0
 10
-176.6064
 20
97.2098
 30
0.0
 10
-176.7428
 20
104.5556
 30
0.0
 10
-176.7428
 20
104.5556
 30
0.0
 10
-176.7348
 20
111.4748
 30
0.0
 10
-174.0197
 20
116.123
 30
0.0
 10
-167.4007
 20
117.0092
 30
0.0
 10
-167.4007
 20
117.0092
 30
0.0
 10
-167.4007
 20
117.0092
 30
0.0
 10
-167.4007
 20
122.0779
 30
0.0
 10
-167.4007
 20
122.0779
 30
0.0
 10
-167.4007
 20
122.0779
 30
0.0
 10
-165.0461
 20
123.0939
 30
0.0
 10
-162.3706
 20
124.8945
 30
0.0
 10
-160.4236
 20
127.2426
 30
0.0
 10
-160.4236
 20
127.2426
 30
0.0
 10
-158.4766
 20
124.8945
 30
0.0
 10
-155.8011
 20
123.0939
 30
0.0
 10
-153.4465
 20
122.0779
 30
0.0
 10
-153.4465
 20
122.0779
 30
0.0
 10
-153.4465
 20
122.0779
 30
0.0
 10
-153.4465
 20
117.0092
 30
0.0
 10
-153.4465
 20
117.0092
 30
0.0
 10
-153.4465
 20
117.0092
 30
0.0
 10
-146.8275
 20
116.123
 30
0.0
 10
-144.1124
 20
111.475
 30
0.0
 10
-144.1045
 20
104.5556
 30
0.0
 10
-144.1045
 20
104.5556
 30
0.0
 10
-144.2409
 20
97.2098
 30
0.0
 10
-146.9074
 20
92.7889
 30
0.0
 10
-153.5239
 20
91.6593
 30
0.0
 10
-153.5239
 20
91.6593
 30
0.0
 10
-153.5239
 20
91.6593
 30
0.0
 10
-153.5239
 20
86.3211
 30
0.0
 10
-153.5239
 20
86.3211
 30
0.0
 10
-153.5239
 20
86.3211
 30
0.0
 10
-156.6398
 20
85.4751
 30
0.0
 10
-158.3541
 20
83.4114
 30
0.0
 10
-160.4236
 20
81.4572
 30
0.0
 10
-160.4236
 20
81.4572
 30
0.0
 10
-162.4929
 20
83.4114
 30
0.0
 10
-164.2074
 20
85.4751
 30
0.0
 10
-167.3233
 20
86.3211
 30
0.0
  0
SPLINE
  5
53
330
1F
100
AcDbEntity
  8
layer 1
 62
     7
100
AcDbSpline
210
0.0
220
0.0
230
1.0
 70
    11
 71
     3
 72
   108
 73
   104
 74
     0
 42
0.0000000001
 43
0.0000000001
 12
1.0
 22
0.0
 32
0.0
 13
1.0
 23
0.0
 33
0.0
 40
0.0
 40
0.0
 40
0.0
 40
0.0
 40
0.037037037037037
 40
0.037037037037037
 40
0.037037037037037
 40
0.037037037037037
 40
0.0740740740740741
 40
0.0740740740740741
 40
0.0740740740740741
 40
0.0740740740740741
 40
0.1111111111111111
 40
0.1111111111111111
 40
0.1111111111111111
 40
0.1111111111111111
 40
0.1481481481481481
 40
0.1481481481481481
 40
0.1481481481481481
 40
0.1481481481481481
 40
0.1851851851851852
 40
0.1851851851851852
 40
0.1851851851851852
 40
0.1851851851851852
 40
0.2222222222222222
 40
0.2222222222222222
 40
0.2222222222222222
 40
0.2222222222222222
 40
0.2592592592592592
 40
0.2592592592592592
 40
0.2592592592592592
 40
0.2592592592592592
 40
0.2962962962962963
 40
0.2962962962962963
 40
0.2962962962962963
 40
0.2962962962962963
 40
0.3333333333333333
 40
0.3333333333333333
 40
0.3333333333333333
 40
0.3333333333333333
 40
0.3703703703703703
 40
0.3703703703703703
 40
0.3703703703703703
 40
0.3703703703703703
 40
0.4074074074074074
 40
0.4074074074074074
 40
0.4074074074074074
 40
0.4074074074074074
 40
0.4444444444444444
 40
0.4444444444444444
 40
0.4444444444444444
 40
0.4444444444444444
 40
0.4814814814814815
 40
0.4814814814814815
 40
0.4814814814814815
 40
0.4814814814814815
 40
0.5185185185185185
 40
0.5185185185185185
 40
0.5185185185185185
 40
0.5185185185185185
 40
0.5555555555555556
 40
0.5555555555555556
 40
0.5555555555555556
 40
0.5555555555555556
 40
0.5925925925925926
 40
0.5925925925925926
 40
0.5925925925925926
 40
0.5925925925925926
 40
0.6296296296296297
 40
0.6296296296296297
 40
0.6296296296296297
 40
0.6296296296296297
 40
0.6666666666666666
 40
0.6666666666666666
 40
0.6666666666666666
 40
0.6666666666666666
 40
0.7037037037037037
 40
0.7037037037037037
 40
0.7037037037037037
 40
0.7037037037037037
 40
0.7407407407407407
 40
0.7407407407407407
 40
0.7407407407407407
 40
0.7407407407407407
 40
0.7777777777777778
 40
0.7777777777777778
 40
0.7777777777777778
 40
0.7777777777777778
 40
0.8148148148148148
 40
0.8148148148148148
 40
0.8148148148148148
 40
0.8148148148148148
 40
0.8518518518518519
 40
0.8518518518518519
 40
0.8518518518518519
 40
0.8518518518518519
 40
0.8888888888888888
 40
0.8888888888888888
 40
0.8888888888888888
 40
0.8888888888888888
 40
0.9259259259259259
 40
0.9259259259259259
 40
0.9259259259259259
 40
0.9259259259259259
 40
1.0
 40
1.0
 40
1.0
 40
1.0
 10
-143.3817
 20
-12.9183
 30
0.0
 10
-144.2704
 20
-11.8844
 30
0.0
 10
-145.5199
 20
-11.0101
 30
0.0
 10
-146.5491
 20
-10.7017
 30
0.0
 10
-146.5491
 20
-10.7017
 30
0.0
 10
-146.5491
 20
-10.7017
 30
0.0
 10
-148.2489
 20
-10.1924
 30
0.0
 10
-148.2489
 20
-10.1924
 30
0.0
 10
-148.2489
 20
-10.1924
 30
0.0
 10
-148.2489
 20
-10.1924
 30
0.0
 10
-148.2489
 20
-7.4803
 30
0.0
 10
-148.2489
 20
-7.4803
 30
0.0
 10
-148.2489
 20
-7.4803
 30
0.0
 10
-148.2489
 20
-7.4803
 30
0.0
 10
-148.2489
 20
-4.7681
 30
0.0
 10
-148.2489
 20
-4.7681
 30
0.0
 10
-148.2489
 20
-4.7681
 30
0.0
 10
-148.2489
 20
-4.7681
 30
0.0
 10
-150.8499
 20
-3.8197
 30
0.0
 10
-150.8499
 20
-3.8197
 30
0.0
 10
-150.8499
 20
-3.8197
 30
0.0
 10
-155.4479
 20
-2.1432
 30
0.0
 10
-157.8685
 20
1.9714
 30
0.0
 10
-157.8538
 20
8.0861
 30
0.0
 10
-157.8538
 20
8.0861
 30
0.0
 10
-157.8388
 20
14.3608
 30
0.0
 10
-154.8588
 20
18.9424
 30
0.0
 10
-149.929
 20
20.2699
 30
0.0
 10
-149.929
 20
20.2699
 30
0.0
 10
-149.929
 20
20.2699
 30
0.0
 10
-148.2487
 20
20.7223
 30
0.0
 10
-148.2487
 20
20.7223
 30
0.0
 10
-148.2487
 20
20.7223
 30
0.0
 10
-148.2487
 20
20.7223
 30
0.0
 10
-148.2487
 20
23.4906
 30
0.0
 10
-148.2487
 20
23.4906
 30
0.0
 10
-148.2487
 20
23.4906
 30
0.0
 10
-148.2487
 20
26.2432
 30
0.0
 10
-148.241
 20
26.2606
 30
0.0
 10
-146.8799
 20
26.5327
 30
0.0
 10
-146.8799
 20
26.5327
 30
0.0
 10
-146.0887
 20
26.6909
 30
0.0
 10
-144.6859
 20
27.6316
 30
0.0
 10
-143.5564
 20
28.761
 30
0.0
 10
-143.5564
 20
28.761
 30
0.0
 10
-143.5564
 20
28.761
 30
0.0
 10
-141.6018
 20
30.7156
 30
0.0
 10
-141.6018
 20
30.7156
 30
0.0
 10
-141.6018
 20
30.7156
 30
0.0
 10
-141.6018
 20
30.7156
 30
0.0
 10
-139.7198
 20
28.8842
 30
0.0
 10
-139.7198
 20
28.8842
 30
0.0
 10
-139.7198
 20
28.8842
 30
0.0
 10
-138.6846
 20
27.8769
 30
0.0
 10
-137.1822
 20
26.8329
 30
0.0
 10
-136.3806
 20
26.5639
 30
0.0
 10
-136.3806
 20
26.5639
 30
0.0
 10
-134.9645
 20
26.0888
 30
0.0
 10
-134.92
 20
26.0002
 30
0.0
 10
-134.7943
 20
23.4102
 30
0.0
 10
-134.7943
 20
23.4102
 30
0.0
 10
-134.7943
 20
23.4102
 30
0.0
 10
-134.665
 20
20.7453
 30
0.0
 10
-134.665
 20
20.7453
 30
0.0
 10
-134.665
 20
20.7453
 30
0.0
 10
-134.665
 20
20.7453
 30
0.0
 10
-132.5572
 20
20.0451
 30
0.0
 10
-132.5572
 20
20.0451
 30
0.0
 10
-132.5572
 20
20.0451
 30
0.0
 10
-127.3737
 20
18.3234
 30
0.0
 10
-124.2241
 20
11.8658
 30
0.0
 10
-125.4231
 20
5.4182
 30
0.0
 10
-125.4231
 20
5.4182
 30
0.0
 10
-126.3545
 20
0.4098
 30
0.0
 10
-128.7193
 20
-2.7331
 30
0.0
 10
-132.5016
 20
-3.9894
 30
0.0
 10
-132.5016
 20
-3.9894
 30
0.0
 10
-132.5016
 20
-3.9894
 30
0.0
 10
-134.7053
 20
-4.7214
 30
0.0
 10
-134.7053
 20
-4.7214
 30
0.0
 10
-134.7053
 20
-4.7214
 30
0.0
 10
-134.7053
 20
-4.7214
 30
0.0
 10
-134.7053
 20
-7.526
 30
0.0
 10
-134.7053
 20
-7.526
 30
0.0
 10
-134.7053
 20
-7.526
 30
0.0
 10
-134.7053
 20
-9.76
 30
0.0
 10
-134.8422
 20
-10.3306
 30
0.0
 10
-135.378
 20
-10.3306
 30
0.0
 10
-135.378
 20
-10.3306
 30
0.0
 10
-136.6057
 20
-10.3306
 30
0.0
 10
-139.2782
 20
-11.9713
 30
0.0
 10
-140.2886
 20
-13.3451
 30
0.0
 10
-140.2886
 20
-13.3451
 30
0.0
 10
-140.8365
 20
-14.09
 30
0.0
 10
-141.4263
 20
-14.6828
 30
0.0
 10
-141.5994
 20
-14.6625
 30
0.0
 10
-141.5994
 20
-14.6625
 30
0.0
 10
-141.7724
 20
-14.6422
 30
0.0
 10
-142.5744
 20
-13.8572
 30
0.0
 10
-143.3815
 20
-12.9181
 30
0.0
 10
-143.3815
 20
-12.9181
 30
0.0
 10
-143.3815
 20
-12.9181
 30
0.0
 10
-143.3817
 20
-12.9183
 30
0.0
 10
-143.3817
 20
-12.9183
 30
0.0
  0
SPLINE
  5
54
330
1F
100
AcDbEntity
  8
layer 1
 62
     7
100
AcDbSpline
210
0.0
220
0.0
230
1.0
 70
    11
 71
     3
 72
   116
 73
   112
 74
     0
 42
0.0000000001
 43
0.0000000001
 12
1.0
 22
0.0
 32
0.0
 13
1.0
 23
0.0
 33
0.0
 40
0.0
 40
0.0
 40
0.0
 40
0.0
 40
0.0344827586206897
 40
0.0344827586206897
 40
0.0344827586206897
 40
0.0344827586206897
 40
0.0689655172413793
 40
0.0689655172413793
 40
0.0689655172413793
 40
0.0689655172413793
 40
0.103448275862069
 40
0.103448275862069
 40
0.103448275862069
 40
0.103448275862069
 40
0.1379310344827586
 40
0.1379310344827586
 40
0.1379310344827586
 40
0.1379310344827586
 40
0.1724137931034483
 40
0.1724137931034483
 40
0.1724137931034483
 40
0.1724137931034483
 40
0.2068965517241379
 40
0.2068965517241379
 40
0.2068965517241379
 40
0.2068965517241379
 40
0.2413793103448276
 40
0.2413793103448276
 40
0.2413793103448276
 40
0.2413793103448276
 40
0.2758620689655172
 40
0.2758620689655172
 40
0.2758620689655172
 40
0.2758620689655172
 40
0.3103448275862069
 40
0.3103448275862069
 40
0.3103448275862069
 40
0.3103448275862069
 40
0.3448275862068966
 40
0.3448275862068966
 40
0.3448275862068966
 40
0.3448275862068966
 40
0.3793103448275862
 40
0.3793103448275862
 40
0.3793103448275862
 40
0.3793103448275862
 40
0.4137931034482759
 40
0.4137931034482759
 40
0.4137931034482759
 40
0.4137931034482759
 40
0.4482758620689655
 40
0.4482758620689655
 40
0.4482758620689655
 40
0.4482758620689655
 40
0.4827586206896552
 40
0.4827586206896552
 40
0.4827586206896552
 40
0.4827586206896552
 40
0.5172413793103449
 40
0.5172413793103449
 40
0.5172413793103449
 40
0.5172413793103449
 40
0.5517241379310345
 40
0.5517241379310345
 40
0.5517241379310345
 40
0.5517241379310345
 40
0.5862068965517241
 40
0.5862068965517241
 40
0.5862068965517241
 40
0.5862068965517241
 40
0.6206896551724138
 40
0.6206896551724138
 40
0.6206896551724138
 40
0.6206896551724138
 40
0.6551724137931034
 40
0.6551724137931034
 40
0.6551724137931034
 40
0.6551724137931034
 40
0.6896551724137931
 40
0.6896551724137931
 40
0.6896551724137931
 40
0.6896551724137931
 40
0.7241379310344828
 40
0.7241379310344828
 40
0.7241379310344828
 40
0.7241379310344828
 40
0.7586206896551724
 40
0.7586206896551724
 40
0.7586206896551724
 40
0.7586206896551724
 40
0.7931034482758621
 40
0.7931034482758621
 40
0.7931034482758621
 40
0.7931034482758621
 40
0.8275862068965517
 40
0.8275862068965517
 40
0.8275862068965517
 40
0.8275862068965517
 40
0.8620689655172413
 40
0.8620689655172413
 40
0.8620689655172413
 40
0.8620689655172413
 40
0.896551724137931
 40
0.896551724137931
 40
0.896551724137931
 40
0.896551724137931
 40
0.9310344827586207
 40
0.9310344827586207
 40
0.9310344827586207
 40
0.9310344827586207
 40
1.0
 40
1.0
 40
1.0
 40
1.0
 10
-105.7747
 20
-12.9577
 30
0.0
 10
-106.6809
 20
-11.8664
 30
0.0
 10
-107.8457
 20
-11.0405
 30
0.0
 10
-108.9421
 20
-10.7121
 30
0.0
 10
-108.9421
 20
-10.7121
 30
0.0
 10
-108.9421
 20
-10.7121
 30
0.0
 10
-110.6764
 20
-10.1924
 30
0.0
 10
-110.6764
 20
-10.1924
 30
0.0
 10
-110.6764
 20
-10.1924
 30
0.0
 10
-110.6764
 20
-10.1924
 30
0.0
 10
-110.6764
 20
-7.5123
 30
0.0
 10
-110.6764
 20
-7.5123
 30
0.0
 10
-110.6764
 20
-7.5123
 30
0.0
 10
-110.6764
 20
-7.5123
 30
0.0
 10
-110.6764
 20
-4.8322
 30
0.0
 10
-110.6764
 20
-4.8322
 30
0.0
 10
-110.6764
 20
-4.8322
 30
0.0
 10
-110.6764
 20
-4.8322
 30
0.0
 10
-113.1154
 20
-4.0031
 30
0.0
 10
-113.1154
 20
-4.0031
 30
0.0
 10
-113.1154
 20
-4.0031
 30
0.0
 10
-116.0807
 20
-2.9952
 30
0.0
 10
-118.5861
 20
-0.3747
 30
0.0
 10
-119.6517
 20
2.8332
 30
0.0
 10
-119.6517
 20
2.8332
 30
0.0
 10
-120.7603
 20
6.1708
 30
0.0
 10
-120.4107
 20
11.9523
 30
0.0
 10
-118.9289
 20
14.7903
 30
0.0
 10
-118.9289
 20
14.7903
 30
0.0
 10
-117.6134
 20
17.3095
 30
0.0
 10
-114.8974
 20
19.5853
 30
0.0
 10
-112.4057
 20
20.2563
 30
0.0
 10
-112.4057
 20
20.2563
 30
0.0
 10
-112.4057
 20
20.2563
 30
0.0
 10
-110.6765
 20
20.722
 30
0.0
 10
-110.6765
 20
20.722
 30
0.0
 10
-110.6765
 20
20.722
 30
0.0
 10
-110.6765
 20
20.722
 30
0.0
 10
-110.6765
 20
23.4903
 30
0.0
 10
-110.6765
 20
23.4903
 30
0.0
 10
-110.6765
 20
23.4903
 30
0.0
 10
-110.6765
 20
26.252
 30
0.0
 10
-110.6731
 20
26.2592
 30
0.0
 10
-109.2862
 20
26.5366
 30
0.0
 10
-109.2862
 20
26.5366
 30
0.0
 10
-108.4411
 20
26.7057
 30
0.0
 10
-107.1508
 20
27.5923
 30
0.0
 10
-105.9965
 20
28.797
 30
0.0
 10
-105.9965
 20
28.797
 30
0.0
 10
-105.9965
 20
28.797
 30
0.0
 10
-104.097
 20
30.7793
 30
0.0
 10
-104.097
 20
30.7793
 30
0.0
 10
-104.097
 20
30.7793
 30
0.0
 10
-104.097
 20
30.7793
 30
0.0
 10
-102.1144
 20
28.7967
 30
0.0
 10
-102.1144
 20
28.7967
 30
0.0
 10
-102.1144
 20
28.7967
 30
0.0
 10
-101.0239
 20
27.7062
 30
0.0
 10
-99.5063
 20
26.6479
 30
0.0
 10
-98.7416
 20
26.4448
 30
0.0
 10
-98.7416
 20
26.4448
 30
0.0
 10
-97.7205
 20
26.1735
 30
0.0
 10
-97.3904
 20
25.8611
 30
0.0
 10
-97.4982
 20
25.2675
 30
0.0
 10
-97.4982
 20
25.2675
 30
0.0
 10
-97.579
 20
24.8232
 30
0.0
 10
-97.5185
 20
23.6154
 30
0.0
 10
-97.3636
 20
22.5837
 30
0.0
 10
-97.3636
 20
22.5837
 30
0.0
 10
-97.1044
 20
20.8552
 30
0.0
 10
-96.945
 20
20.6668
 30
0.0
 10
-95.3343
 20
20.1842
 30
0.0
 10
-95.3343
 20
20.1842
 30
0.0
 10
-92.8497
 20
19.4398
 30
0.0
 10
-90.014
 20
16.7726
 30
0.0
 10
-88.8038
 20
14.0419
 30
0.0
 10
-88.8038
 20
14.0419
 30
0.0
 10
-87.3652
 20
10.7958
 30
0.0
 10
-87.3448
 20
5.246
 30
0.0
 10
-88.76
 20
2.1202
 30
0.0
 10
-88.76
 20
2.1202
 30
0.0
 10
-90.0995
 20
-0.8387
 30
0.0
 10
-92.4755
 20
-3.1748
 30
0.0
 10
-94.9969
 20
-4.0123
 30
0.0
 10
-94.9969
 20
-4.0123
 30
0.0
 10
-94.9969
 20
-4.0123
 30
0.0
 10
-97.0687
 20
-4.7004
 30
0.0
 10
-97.0687
 20
-4.7004
 30
0.0
 10
-97.0687
 20
-4.7004
 30
0.0
 10
-97.0687
 20
-4.7004
 30
0.0
 10
-97.3597
 20
-7.418
 30
0.0
 10
-97.3597
 20
-7.418
 30
0.0
 10
-97.3597
 20
-7.418
 30
0.0
 10
-97.6498
 20
-10.1275
 30
0.0
 10
-97.6562
 20
-10.1379
 30
0.0
 10
-99.5487
 20
-10.9206
 30
0.0
 10
-99.5487
 20
-10.9206
 30
0.0
 10
-100.5926
 20
-11.3524
 30
0.0
 10
-101.9607
 20
-12.3795
 30
0.0
 10
-102.5888
 20
-13.203
 30
0.0
 10
-102.5888
 20
-13.203
 30
0.0
 10
-103.2169
 20
-14.0264
 30
0.0
 10
-103.8682
 20
-14.6967
 30
0.0
 10
-104.0363
 20
-14.6924
 30
0.0
 10
-104.0363
 20
-14.6924
 30
0.0
 10
-104.2042
 20
-14.6881
 30
0.0
 10
-104.9866
 20
-13.9077
 30
0.0
 10
-105.7749
 20
-12.9584
 30
0.0
 10
-105.7749
 20
-12.9584
 30
0.0
 10
-105.7749
 20
-12.9584
 30
0.0
 10
-105.7747
 20
-12.9577
 30
0.0
 10
-105.7747
 20
-12.9577
 30
0.0
  0
SPLINE
  5
55
330
1F
100
AcDbEntity
  8
layer 1
 62
     7
100
AcDbSpline
210
0.0
220
0.0
230
1.0
 70
    11
 71
     3
 72
   104
 73
   100
 74
     0
 42
0.0000000001
 43
0.0000000001
 12
1.0
 22
0.0
 32
0.0
 13
1.0
 23
0.0
 33
0.0
 40
0.0
 40
0.0
 40
0.0
 40
0.0
 40
0.0384615384615385
 40
0.0384615384615385
 40
0.0384615384615385
 40
0.0384615384615385
 40
0.0769230769230769
 40
0.0769230769230769
 40
0.0769230769230769
 40
0.0769230769230769
 40
0.1153846153846154
 40
0.1153846153846154
 40
0.1153846153846154
 40
0.1153846153846154
 40
0.1538461538461539
 40
0.1538461538461539
 40
0.1538461538461539
 40
0.1538461538461539
 40
0.1923076923076923
 40
0.1923076923076923
 40
0.1923076923076923
 40
0.1923076923076923
 40
0.2307692307692308
 40
0.2307692307692308
 40
0.2307692307692308
 40
0.2307692307692308
 40
0.2692307692307692
 40
0.2692307692307692
 40
0.2692307692307692
 40
0.2692307692307692
 40
0.3076923076923077
 40
0.3076923076923077
 40
0.3076923076923077
 40
0.3076923076923077
 40
0.3461538461538461
 40
0.3461538461538461
 40
0.3461538461538461
 40
0.3461538461538461
 40
0.3846153846153846
 40
0.3846153846153846
 40
0.3846153846153846
 40
0.3846153846153846
 40
0.4230769230769231
 40
0.4230769230769231
 40
0.4230769230769231
 40
0.4230769230769231
 40
0.4615384615384616
 40
0.4615384615384616
 40
0.4615384615384616
 40
0.4615384615384616
 40
0.5
 40
0.5
 40
0.5
 40
0.5
 40
0.5384615384615384
 40
0.5384615384615384
 40
0.5384615384615384
 40
0.5384615384615384
 40
0.5769230769230769
 40
0.5769230769230769
 40
0.5769230769230769
 40
0.5769230769230769
 40
0.6153846153846154
 40
0.6153846153846154
 40
0.6153846153846154
 40
0.6153846153846154
 40
0.6538461538461539
 40
0.6538461538461539
 40
0.6538461538461539
 40
0.6538461538461539
 40
0.6923076923076923
 40
0.6923076923076923
 40
0.6923076923076923
 40
0.6923076923076923
 40
0.7307692307692307
 40
0.7307692307692307
 40
0.7307692307692307
 40
0.7307692307692307
 40
0.7692307692307693
 40
0.7692307692307693
 40
0.7692307692307693
 40
0.7692307692307693
 40
0.8076923076923077
 40
0.8076923076923077
 40
0.8076923076923077
 40
0.8076923076923077
 40
0.8461538461538461
 40
0.8461538461538461
 40
0.8461538461538461
 40
0.8461538461538461
 40
0.8846153846153846
 40
0.8846153846153846
 40
0.8846153846153846
 40
0.8846153846153846
 40
0.9230769230769231
 40
0.9230769230769231
 40
0.9230769230769231
 40
0.9230769230769231
 40
1.0
 40
1.0
 40
1.0
 40
1.0
 10
-68.1419
 20
-13.0296
 30
0.0
 10
-68.968
 20
-12.034
 30
0.0
 10
-70.2292
 20
-11.1396
 30
0.0
 10
-71.3093
 20
-10.7831
 30
0.0
 10
-71.3093
 20
-10.7831
 30
0.0
 10
-72.9419
 20
-10.2443
 30
0.0
 10
-73.1106
 20
-10.0491
 30
0.0
 10
-73.1787
 20
-8.6224
 30
0.0
 10
-73.1787
 20
-8.6224
 30
0.0
 10
-73.2198
 20
-7.7598
 30
0.0
 10
-73.2972
 20
-6.7592
 30
0.0
 10
-73.3507
 20
-6.3987
 30
0.0
 10
-73.3507
 20
-6.3987
 30
0.0
 10
-73.4042
 20
-6.0382
 30
0.0
 10
-73.469
 20
-5.5244
 30
0.0
 10
-73.4944
 20
-5.2566
 30
0.0
 10
-73.4944
 20
-5.2566
 30
0.0
 10
-73.52
 20
-4.9889
 30
0.0
 10
-74.4747
 20
-4.4232
 30
0.0
 10
-75.6161
 20
-3.9995
 30
0.0
 10
-75.6161
 20
-3.9995
 30
0.0
 10
-80.2798
 20
-2.2682
 30
0.0
 10
-82.7155
 20
1.8551
 30
0.0
 10
-82.7155
 20
8.0187
 30
0.0
 10
-82.7155
 20
8.0187
 30
0.0
 10
-82.7155
 20
14.7576
 30
0.0
 10
-79.7645
 20
19.1081
 30
0.0
 10
-74.3055
 20
20.417
 30
0.0
 10
-74.3055
 20
20.417
 30
0.0
 10
-73.1511
 20
20.6937
 30
0.0
 10
-73.104
 20
20.8138
 30
0.0
 10
-73.104
 20
23.4819
 30
0.0
 10
-73.104
 20
23.4819
 30
0.0
 10
-73.104
 20
26.2531
 30
0.0
 10
-73.1014
 20
26.2592
 30
0.0
 10
-71.7137
 20
26.5368
 30
0.0
 10
-71.7137
 20
26.5368
 30
0.0
 10
-70.8707
 20
26.7054
 30
0.0
 10
-69.5806
 20
27.59
 30
0.0
 10
-68.437
 20
28.7835
 30
0.0
 10
-68.437
 20
28.7835
 30
0.0
 10
-68.437
 20
28.7835
 30
0.0
 10
-66.5506
 20
30.7521
 30
0.0
 10
-66.5506
 20
30.7521
 30
0.0
 10
-66.5506
 20
30.7521
 30
0.0
 10
-66.5506
 20
30.7521
 30
0.0
 10
-64.6642
 20
28.7835
 30
0.0
 10
-64.6642
 20
28.7835
 30
0.0
 10
-64.6642
 20
28.7835
 30
0.0
 10
-63.5206
 20
27.59
 30
0.0
 10
-62.2305
 20
26.7054
 30
0.0
 10
-61.3875
 20
26.5368
 30
0.0
 10
-61.3875
 20
26.5368
 30
0.0
 10
-60.0831
 20
26.2759
 30
0.0
 10
-59.9972
 20
26.1425
 30
0.0
 10
-59.9972
 20
24.3758
 30
0.0
 10
-59.9972
 20
24.3758
 30
0.0
 10
-59.9972
 20
21.6602
 30
0.0
 10
-59.4032
 20
20.4195
 30
0.0
 10
-57.9561
 20
20.1115
 30
0.0
 10
-57.9561
 20
20.1115
 30
0.0
 10
-54.9277
 20
19.467
 30
0.0
 10
-51.7118
 20
16.1249
 30
0.0
 10
-50.7744
 20
12.6479
 30
0.0
 10
-50.7744
 20
12.6479
 30
0.0
 10
-50.0166
 20
9.837
 30
0.0
 10
-50.4793
 20
3.3441
 30
0.0
 10
-51.5896
 20
1.2056
 30
0.0
 10
-51.5896
 20
1.2056
 30
0.0
 10
-52.7788
 20
-1.0847
 30
0.0
 10
-55.0007
 20
-3.0285
 30
0.0
 10
-57.5362
 20
-3.9968
 30
0.0
 10
-57.5362
 20
-3.9968
 30
0.0
 10
-59.3263
 20
-4.6804
 30
0.0
 10
-60.1546
 20
-5.5975
 30
0.0
 10
-59.9604
 20
-6.6811
 30
0.0
 10
-59.9604
 20
-6.6811
 30
0.0
 10
-59.9236
 20
-6.8862
 30
0.0
 10
-59.9168
 20
-7.7598
 30
0.0
 10
-59.9453
 20
-8.6224
 30
0.0
 10
-59.9453
 20
-8.6224
 30
0.0
 10
-59.9926
 20
-10.0564
 30
0.0
 10
-60.1511
 20
-10.2416
 30
0.0
 10
-61.7931
 20
-10.7836
 30
0.0
 10
-61.7931
 20
-10.7836
 30
0.0
 10
-62.903
 20
-11.1498
 30
0.0
 10
-64.0992
 20
-12.0111
 30
0.0
 10
-64.9245
 20
-13.038
 30
0.0
 10
-64.9245
 20
-13.038
 30
0.0
 10
-65.6589
 20
-13.952
 30
0.0
 10
-66.3744
 20
-14.6962
 30
0.0
 10
-66.5143
 20
-14.6917
 30
0.0
 10
-66.5143
 20
-14.6917
 30
0.0
 10
-66.6543
 20
-14.6874
 30
0.0
 10
-67.3866
 20
-13.9394
 30
0.0
 10
-68.1416
 20
-13.0296
 30
0.0
 10
-68.1416
 20
-13.0296
 30
0.0
 10
-68.1416
 20
-13.0296
 30
0.0
 10
-68.1419
 20
-13.0296
 30
0.0
 10
-68.1419
 20
-13.0296
 30
0.0
  0
SPLINE
  5
56
330
1F
100
AcDbEntity
  8
layer 1
 62
     7
100
AcDbSpline
210
0.0
220
0.0
230
1.0
 70
    11
 71
     3
 72
    52
 73
    48
 74
     0
 42
0.0000000001
 43
0.0000000001
 12
1.0
 22
0.0
 32
0.0
 13
1.0
 23
0.0
 33
0.0
 40
0.0
 40
0.0
 40
0.0
 40
0.0
 40
0.0769230769230769
 40
0.0769230769230769
 40
0.0769230769230769
 40
0.0769230769230769
 40
0.1538461538461539
 40
0.1538461538461539
 40
0.1538461538461539
 40
0.1538461538461539
 40
0.2307692307692308
 40
0.2307692307692308
 40
0.2307692307692308
 40
0.2307692307692308
 40
0.3076923076923077
 40
0.3076923076923077
 40
0.3076923076923077
 40
0.3076923076923077
 40
0.3846153846153846
 40
0.3846153846153846
 40
0.3846153846153846
 40
0.3846153846153846
 40
0.4615384615384616
 40
0.4615384615384616
 40
0.4615384615384616
 40
0.4615384615384616
 40
0.5384615384615384
 40
0.5384615384615384
 40
0.5384615384615384
 40
0.5384615384615384
 40
0.6153846153846154
 40
0.6153846153846154
 40
0.6153846153846154
 40
0.6153846153846154
 40
0.6923076923076923
 40
0.6923076923076923
 40
0.6923076923076923
 40
0.6923076923076923
 40
0.7692307692307693
 40
0.7692307692307693
 40
0.7692307692307693
 40
0.7692307692307693
 40
0.8461538461538461
 40
0.8461538461538461
 40
0.8461538461538461
 40
0.8461538461538461
 40
1.0
 40
1.0
 40
1.0
 40
1.0
 10
-73.3291
 20
-9.9855
 30
0.0
 10
-73.3291
 20
-9.9855
 30
0.0
 10
-73.3291
 20
-4.6472
 30
0.0
 10
-73.3291
 20
-4.6472
 30
0.0
 10
-73.3291
 20
-4.6472
 30
0.0
 10
-79.9456
 20
-3.5176
 30
0.0
 10
-82.6122
 20
0.9032
 30
0.0
 10
-82.7486
 20
8.2491
 30
0.0
 10
-82.7486
 20
8.2491
 30
0.0
 10
-82.7406
 20
15.1682
 30
0.0
 10
-80.0255
 20
19.8164
 30
0.0
 10
-73.4065
 20
20.7027
 30
0.0
 10
-73.4065
 20
20.7027
 30
0.0
 10
-73.4065
 20
20.7027
 30
0.0
 10
-73.4065
 20
25.7713
 30
0.0
 10
-73.4065
 20
25.7713
 30
0.0
 10
-73.4065
 20
25.7713
 30
0.0
 10
-71.0519
 20
26.7873
 30
0.0
 10
-68.3764
 20
28.588
 30
0.0
 10
-66.4294
 20
30.936
 30
0.0
 10
-66.4294
 20
30.936
 30
0.0
 10
-64.4824
 20
28.588
 30
0.0
 10
-61.807
 20
26.7873
 30
0.0
 10
-59.4523
 20
25.7713
 30
0.0
 10
-59.4523
 20
25.7713
 30
0.0
 10
-59.4523
 20
25.7713
 30
0.0
 10
-59.4523
 20
20.7027
 30
0.0
 10
-59.4523
 20
20.7027
 30
0.0
 10
-59.4523
 20
20.7027
 30
0.0
 10
-52.8333
 20
19.8164
 30
0.0
 10
-50.1182
 20
15.1684
 30
0.0
 10
-50.1103
 20
8.2491
 30
0.0
 10
-50.1103
 20
8.2491
 30
0.0
 10
-50.2467
 20
0.9032
 30
0.0
 10
-52.9132
 20
-3.5176
 30
0.0
 10
-59.5297
 20
-4.6472
 30
0.0
 10
-59.5297
 20
-4.6472
 30
0.0
 10
-59.5297
 20
-4.6472
 30
0.0
 10
-59.5297
 20
-9.9855
 30
0.0
 10
-59.5297
 20
-9.9855
 30
0.0
 10
-59.5297
 20
-9.9855
 30
0.0
 10
-62.6456
 20
-10.8315
 30
0.0
 10
-64.3599
 20
-12.8952
 30
0.0
 10
-66.4294
 20
-14.8494
 30
0.0
 10
-66.4294
 20
-14.8494
 30
0.0
 10
-68.4987
 20
-12.8952
 30
0.0
 10
-70.2132
 20
-10.8315
 30
0.0
 10
-73.3291
 20
-9.9855
 30
0.0
  0
SPLINE
  5
57
330
1F
100
AcDbEntity
  8
layer 1
 62
     7
100
AcDbSpline
210
0.0
220
0.0
230
1.0
 70
    11
 71
     3
 72
    52
 73
    48
 74
     0
 42
0.0000000001
 43
0.0000000001
 12
1.0
 22
0.0
 32
0.0
 13
1.0
 23
0.0
 33
0.0
 40
0.0
 40
0.0
 40
0.0
 40
0.0
 40
0.0769230769230769
 40
0.0769230769230769
 40
0.0769230769230769
 40
0.0769230769230769
 40
0.1538461538461539
 40
0.1538461538461539
 40
0.1538461538461539
 40
0.1538461538461539
 40
0.2307692307692308
 40
0.2307692307692308
 40
0.2307692307692308
 40
0.2307692307692308
 40
0.3076923076923077
 40
0.3076923076923077
 40
0.3076923076923077
 40
0.3076923076923077
 40
0.3846153846153846
 40
0.3846153846153846
 40
0.3846153846153846
 40
0.3846153846153846
 40
0.4615384615384616
 40
0.4615384615384616
 40
0.4615384615384616
 40
0.4615384615384616
 40
0.5384615384615384
 40
0.5384615384615384
 40
0.5384615384615384
 40
0.5384615384615384
 40
0.6153846153846154
 40
0.6153846153846154
 40
0.6153846153846154
 40
0.6153846153846154
 40
0.6923076923076923
 40
0.6923076923076923
 40
0.6923076923076923
 40
0.6923076923076923
 40
0.7692307692307693
 40
0.7692307692307693
 40
0.7692307692307693
 40
0.7692307692307693
 40
0.8461538461538461
 40
0.8461538461538461
 40
0.8461538461538461
 40
0.8461538461538461
 40
1.0
 40
1.0
 40
1.0
 40
1.0
 10
-110.8866
 20
-9.9855
 30
0.0
 10
-110.8866
 20
-9.9855
 30
0.0
 10
-110.8866
 20
-4.6472
 30
0.0
 10
-110.8866
 20
-4.6472
 30
0.0
 10
-110.8866
 20
-4.6472
 30
0.0
 10
-117.5031
 20
-3.5176
 30
0.0
 10
-120.1697
 20
0.9032
 30
0.0
 10
-120.306
 20
8.2491
 30
0.0
 10
-120.306
 20
8.2491
 30
0.0
 10
-120.2981
 20
15.1682
 30
0.0
 10
-117.583
 20
19.8164
 30
0.0
 10
-110.964
 20
20.7027
 30
0.0
 10
-110.964
 20
20.7027
 30
0.0
 10
-110.964
 20
20.7027
 30
0.0
 10
-110.964
 20
25.7713
 30
0.0
 10
-110.964
 20
25.7713
 30
0.0
 10
-110.964
 20
25.7713
 30
0.0
 10
-108.6094
 20
26.7873
 30
0.0
 10
-105.9339
 20
28.588
 30
0.0
 10
-103.9869
 20
30.936
 30
0.0
 10
-103.9869
 20
30.936
 30
0.0
 10
-102.0399
 20
28.588
 30
0.0
 10
-99.3644
 20
26.7873
 30
0.0
 10
-97.0098
 20
25.7713
 30
0.0
 10
-97.0098
 20
25.7713
 30
0.0
 10
-97.0098
 20
25.7713
 30
0.0
 10
-97.0098
 20
20.7027
 30
0.0
 10
-97.0098
 20
20.7027
 30
0.0
 10
-97.0098
 20
20.7027
 30
0.0
 10
-90.3908
 20
19.8164
 30
0.0
 10
-87.6757
 20
15.1684
 30
0.0
 10
-87.6678
 20
8.2491
 30
0.0
 10
-87.6678
 20
8.2491
 30
0.0
 10
-87.8041
 20
0.9032
 30
0.0
 10
-90.4707
 20
-3.5176
 30
0.0
 10
-97.0872
 20
-4.6472
 30
0.0
 10
-97.0872
 20
-4.6472
 30
0.0
 10
-97.0872
 20
-4.6472
 30
0.0
 10
-97.0872
 20
-9.9855
 30
0.0
 10
-97.0872
 20
-9.9855
 30
0.0
 10
-97.0872
 20
-9.9855
 30
0.0
 10
-100.2031
 20
-10.8315
 30
0.0
 10
-101.9174
 20
-12.8952
 30
0.0
 10
-103.9869
 20
-14.8494
 30
0.0
 10
-103.9869
 20
-14.8494
 30
0.0
 10
-106.0562
 20
-12.8952
 30
0.0
 10
-107.7707
 20
-10.8315
 30
0.0
 10
-110.8866
 20
-9.9855
 30
0.0
  0
SPLINE
  5
58
330
1F
100
AcDbEntity
  8
layer 1
 62
     7
100
AcDbSpline
210
0.0
220
0.0
230
1.0
 70
    11
 71
     3
 72
    52
 73
    48
 74
     0
 42
0.0000000001
 43
0.0000000001
 12
1.0
 22
0.0
 32
0.0
 13
1.0
 23
0.0
 33
0.0
 40
0.0
 40
0.0
 40
0.0
 40
0.0
 40
0.0769230769230769
 40
0.0769230769230769
 40
0.0769230769230769
 40
0.0769230769230769
 40
0.1538461538461539
 40
0.1538461538461539
 40
0.1538461538461539
 40
0.1538461538461539
 40
0.2307692307692308
 40
0.2307692307692308
 40
0.2307692307692308
 40
0.2307692307692308
 40
0.3076923076923077
 40
0.3076923076923077
 40
0.3076923076923077
 40
0.3076923076923077
 40
0.3846153846153846
 40
0.3846153846153846
 40
0.3846153846153846
 40
0.3846153846153846
 40
0.4615384615384616
 40
0.4615384615384616
 40
0.4615384615384616
 40
0.4615384615384616
 40
0.5384615384615384
 40
0.5384615384615384
 40
0.5384615384615384
 40
0.5384615384615384
 40
0.6153846153846154
 40
0.6153846153846154
 40
0.6153846153846154
 40
0.6153846153846154
 40
0.6923076923076923
 40
0.6923076923076923
 40
0.6923076923076923
 40
0.6923076923076923
 40
0.7692307692307693
 40
0.7692307692307693
 40
0.7692307692307693
 40
0.7692307692307693
 40
0.8461538461538461
 40
0.8461538461538461
 40
0.8461538461538461
 40
0.8461538461538461
 40
1.0
 40
1.0
 40
1.0
 40
1.0
 10
-148.4441
 20
-9.9855
 30
0.0
 10
-148.4441
 20
-9.9855
 30
0.0
 10
-148.4441
 20
-4.6472
 30
0.0
 10
-148.4441
 20
-4.6472
 30
0.0
 10
-148.4441
 20
-4.6472
 30
0.0
 10
-155.0606
 20
-3.5176
 30
0.0
 10
-157.7271
 20
0.9032
 30
0.0
 10
-157.8635
 20
8.2491
 30
0.0
 10
-157.8635
 20
8.2491
 30
0.0
 10
-157.8556
 20
15.1682
 30
0.0
 10
-155.1405
 20
19.8164
 30
0.0
 10
-148.5215
 20
20.7027
 30
0.0
 10
-148.5215
 20
20.7027
 30
0.0
 10
-148.5215
 20
20.7027
 30
0.0
 10
-148.5215
 20
25.7713
 30
0.0
 10
-148.5215
 20
25.7713
 30
0.0
 10
-148.5215
 20
25.7713
 30
0.0
 10
-146.1669
 20
26.7873
 30
0.0
 10
-143.4914
 20
28.588
 30
0.0
 10
-141.5444
 20
30.936
 30
0.0
 10
-141.5444
 20
30.936
 30
0.0
 10
-139.5974
 20
28.588
 30
0.0
 10
-136.9219
 20
26.7873
 30
0.0
 10
-134.5673
 20
25.7713
 30
0.0
 10
-134.5673
 20
25.7713
 30
0.0
 10
-134.5673
 20
25.7713
 30
0.0
 10
-134.5673
 20
20.7027
 30
0.0
 10
-134.5673
 20
20.7027
 30
0.0
 10
-134.5673
 20
20.7027
 30
0.0
 10
-127.9483
 20
19.8164
 30
0.0
 10
-125.2332
 20
15.1684
 30
0.0
 10
-125.2252
 20
8.2491
 30
0.0
 10
-125.2252
 20
8.2491
 30
0.0
 10
-125.3616
 20
0.9032
 30
0.0
 10
-128.0282
 20
-3.5176
 30
0.0
 10
-134.6447
 20
-4.6472
 30
0.0
 10
-134.6447
 20
-4.6472
 30
0.0
 10
-134.6447
 20
-4.6472
 30
0.0
 10
-134.6447
 20
-9.9855
 30
0.0
 10
-134.6447
 20
-9.9855
 30
0.0
 10
-134.6447
 20
-9.9855
 30
0.0
 10
-137.7606
 20
-10.8315
 30
0.0
 10
-139.4749
 20
-12.8952
 30
0.0
 10
-141.5444
 20
-14.8494
 30
0.0
 10
-141.5444
 20
-14.8494
 30
0.0
 10
-143.6137
 20
-12.8952
 30
0.0
 10
-145.3282
 20
-10.8315
 30
0.0
 10
-148.4441
 20
-9.9855
 30
0.0
  0
SPLINE
  5
59
330
1F
100
AcDbEntity
  8
layer 1
 62
     7
100
AcDbSpline
210
0.0
220
0.0
230
1.0
 70
    11
 71
     3
 72
    52
 73
    48
 74
     0
 42
0.0000000001
 43
0.0000000001
 12
1.0
 22
0.0
 32
0.0
 13
1.0
 23
0.0
 33
0.0
 40
0.0
 40
0.0
 40
0.0
 40
0.0
 40
0.0769230769230769
 40
0.0769230769230769
 40
0.0769230769230769
 40
0.0769230769230769
 40
0.1538461538461539
 40
0.1538461538461539
 40
0.1538461538461539
 40
0.1538461538461539
 40
0.2307692307692308
 40
0.2307692307692308
 40
0.2307692307692308
 40
0.2307692307692308
 40
0.3076923076923077
 40
0.3076923076923077
 40
0.3076923076923077
 40
0.3076923076923077
 40
0.3846153846153846
 40
0.3846153846153846
 40
0.3846153846153846
 40
0.3846153846153846
 40
0.4615384615384616
 40
0.4615384615384616
 40
0.4615384615384616
 40
0.4615384615384616
 40
0.5384615384615384
 40
0.5384615384615384
 40
0.5384615384615384
 40
0.5384615384615384
 40
0.6153846153846154
 40
0.6153846153846154
 40
0.6153846153846154
 40
0.6153846153846154
 40
0.6923076923076923
 40
0.6923076923076923
 40
0.6923076923076923
 40
0.6923076923076923
 40
0.7692307692307693
 40
0.7692307692307693
 40
0.7692307692307693
 40
0.7692307692307693
 40
0.8461538461538461
 40
0.8461538461538461
 40
0.8461538461538461
 40
0.8461538461538461
 40
1.0
 40
1.0
 40
1.0
 40
1.0
 10
-54.6176
 20
86.3211
 30
0.0
 10
-54.6176
 20
86.3211
 30
0.0
 10
-54.6176
 20
91.6593
 30
0.0
 10
-54.6176
 20
91.6593
 30
0.0
 10
-54.6176
 20
91.6593
 30
0.0
 10
-61.2341
 20
92.7889
 30
0.0
 10
-63.9007
 20
97.2098
 30
0.0
 10
-64.0371
 20
104.5556
 30
0.0
 10
-64.0371
 20
104.5556
 30
0.0
 10
-64.0292
 20
111.4748
 30
0.0
 10
-61.3141
 20
116.123
 30
0.0
 10
-54.6951
 20
117.0092
 30
0.0
 10
-54.6951
 20
117.0092
 30
0.0
 10
-54.6951
 20
117.0092
 30
0.0
 10
-54.6951
 20
122.0779
 30
0.0
 10
-54.6951
 20
122.0779
 30
0.0
 10
-54.6951
 20
122.0779
 30
0.0
 10
-52.3404
 20
123.0939
 30
0.0
 10
-49.6649
 20
124.8945
 30
0.0
 10
-47.718
 20
127.2426
 30
0.0
 10
-47.718
 20
127.2426
 30
0.0
 10
-45.771
 20
124.8945
 30
0.0
 10
-43.0955
 20
123.0939
 30
0.0
 10
-40.7408
 20
122.0779
 30
0.0
 10
-40.7408
 20
122.0779
 30
0.0
 10
-40.7408
 20
122.0779
 30
0.0
 10
-40.7408
 20
117.0092
 30
0.0
 10
-40.7408
 20
117.0092
 30
0.0
 10
-40.7408
 20
117.0092
 30
0.0
 10
-34.1219
 20
116.123
 30
0.0
 10
-31.4067
 20
111.475
 30
0.0
 10
-31.3988
 20
104.5556
 30
0.0
 10
-31.3988
 20
104.5556
 30
0.0
 10
-31.5352
 20
97.2098
 30
0.0
 10
-34.2018
 20
92.7889
 30
0.0
 10
-40.8183
 20
91.6593
 30
0.0
 10
-40.8183
 20
91.6593
 30
0.0
 10
-40.8183
 20
91.6593
 30
0.0
 10
-40.8183
 20
86.3211
 30
0.0
 10
-40.8183
 20
86.3211
 30
0.0
 10
-40.8183
 20
86.3211
 30
0.0
 10
-43.9342
 20
85.4751
 30
0.0
 10
-45.6485
 20
83.4114
 30
0.0
 10
-47.718
 20
81.4572
 30
0.0
 10
-47.718
 20
81.4572
 30
0.0
 10
-49.7873
 20
83.4114
 30
0.0
 10
-51.5018
 20
85.4751
 30
0.0
 10
-54.6176
 20
86.3211
 30
0.0
  0
SPLINE
  5
5A
330
1F
100
AcDbEntity
  8
layer 1
 62
     7
100
AcDbSpline
210
0.0
220
0.0
230
1.0
 70
    11
 71
     3
 72
    32
 73
    28
 74
     0
 42
0.0000000001
 43
0.0000000001
 12
1.0
 22
0.0
 32
0.0
 13
1.0
 23
0.0
 33
0.0
 40
0.0
 40
0.0
 40
0.0
 40
0.0
 40
0.125
 40
0.125
 40
0.125
 40
0.125
 40
0.25
 40
0.25
 40
0.25
 40
0.25
 40
0.375
 40
0.375
 40
0.375
 40
0.375
 40
0.5
 40
0.5
 40
0.5
 40
0.5
 40
0.625
 40
0.625
 40
0.625
 40
0.625
 40
0.75
 40
0.75
 40
0.75
 40
0.75
 40
1.0
 40
1.0
 40
1.0
 40
1.0
 10
-29.0162
 20
94.8494
 30
0.0
 10
-29.0162
 20
94.8494
 30
0.0
 10
-29.0162
 20
49.0639
 30
0.0
 10
-29.0162
 20
49.0639
 30
0.0
 10
-29.0162
 20
49.0639
 30
0.0
 10
-31.0638
 20
51.0043
 30
0.0
 10
-32.8245
 20
53.0886
 30
0.0
 10
-35.9159
 20
53.9278
 30
0.0
 10
-35.9159
 20
53.9278
 30
0.0
 10
-35.9159
 20
53.9278
 30
0.0
 10
-35.9159
 20
59.2661
 30
0.0
 10
-35.9159
 20
59.2661
 30
0.0
 10
-35.9159
 20
59.2661
 30
0.0
 10
-42.5324
 20
60.3957
 30
0.0
 10
-45.199
 20
64.8165
 30
0.0
 10
-45.3354
 20
72.1624
 30
0.0
 10
-45.3354
 20
72.1624
 30
0.0
 10
-45.3275
 20
79.0816
 30
0.0
 10
-42.6123
 20
83.7298
 30
0.0
 10
-35.9934
 20
84.616
 30
0.0
 10
-35.9934
 20
84.616
 30
0.0
 10
-35.9934
 20
84.616
 30
0.0
 10
-35.9934
 20
89.6846
 30
0.0
 10
-35.9934
 20
89.6846
 30
0.0
 10
-35.9934
 20
89.6846
 30
0.0
 10
-33.6387
 20
90.7006
 30
0.0
 10
-30.9632
 20
92.5013
 30
0.0
 10
-29.0162
 20
94.8494
 30
0.0
  0
SPLINE
  5
5B
330
1F
100
AcDbEntity
  8
layer 1
 62
     7
100
AcDbSpline
210
0.0
220
0.0
230
1.0
 70
    11
 71
     3
 72
    32
 73
    28
 74
     0
 42
0.0000000001
 43
0.0000000001
 12
1.0
 22
0.0
 32
0.0
 13
1.0
 23
0.0
 33
0.0
 40
0.0
 40
0.0
 40
0.0
 40
0.0
 40
0.125
 40
0.125
 40
0.125
 40
0.125
 40
0.25
 40
0.25
 40
0.25
 40
0.25
 40
0.375
 40
0.375
 40
0.375
 40
0.375
 40
0.5
 40
0.5
 40
0.5
 40
0.5
 40
0.625
 40
0.625
 40
0.625
 40
0.625
 40
0.75
 40
0.75
 40
0.75
 40
0.75
 40
1.0
 40
1.0
 40
1.0
 40
1.0
 10
-29.0162
 20
31.1056
 30
0.0
 10
-29.0162
 20
31.1056
 30
0.0
 10
-29.0162
 20
-14.6798
 30
0.0
 10
-29.0162
 20
-14.6798
 30
0.0
 10
-29.0162
 20
-14.6798
 30
0.0
 10
-31.0638
 20
-12.7395
 30
0.0
 10
-32.8245
 20
-10.6551
 30
0.0
 10
-35.9159
 20
-9.8159
 30
0.0
 10
-35.9159
 20
-9.8159
 30
0.0
 10
-35.9159
 20
-9.8159
 30
0.0
 10
-35.9159
 20
-4.4777
 30
0.0
 10
-35.9159
 20
-4.4777
 30
0.0
 10
-35.9159
 20
-4.4777
 30
0.0
 10
-42.5324
 20
-3.3481
 30
0.0
 10
-45.199
 20
1.0728
 30
0.0
 10
-45.3354
 20
8.4186
 30
0.0
 10
-45.3354
 20
8.4186
 30
0.0
 10
-45.3275
 20
15.3378
 30
0.0
 10
-42.6123
 20
19.986
 30
0.0
 10
-35.9934
 20
20.8722
 30
0.0
 10
-35.9934
 20
20.8722
 30
0.0
 10
-35.9934
 20
20.8722
 30
0.0
 10
-35.9934
 20
25.9409
 30
0.0
 10
-35.9934
 20
25.9409
 30
0.0
 10
-35.9934
 20
25.9409
 30
0.0
 10
-33.6387
 20
26.9569
 30
0.0
 10
-30.9632
 20
28.7575
 30
0.0
 10
-29.0162
 20
31.1056
 30
0.0
  0
SPLINE
  5
5C
330
1F
100
AcDbEntity
  8
layer 1
 62
     7
100
AcDbSpline
210
0.0
220
0.0
230
1.0
 70
    11
 71
     3
 72
    32
 73
    28
 74
     0
 42
0.0000000001
 43
0.0000000001
 12
1.0
 22
0.0
 32
0.0
 13
1.0
 23
0.0
 33
0.0
 40
0.0
 40
0.0
 40
0.0
 40
0.0
 40
0.125
 40
0.125
 40
0.125
 40
0.125
 40
0.25
 40
0.25
 40
0.25
 40
0.25
 40
0.375
 40
0.375
 40
0.375
 40
0.375
 40
0.5
 40
0.5
 40
0.5
 40
0.5
 40
0.625
 40
0.625
 40
0.625
 40
0.625
 40
0.75
 40
0.75
 40
0.75
 40
0.75
 40
1.0
 40
1.0
 40
1.0
 40
1.0
 10
-29.0162
 20
-31.9887
 30
0.0
 10
-29.0162
 20
-31.9887
 30
0.0
 10
-29.0162
 20
-77.7741
 30
0.0
 10
-29.0162
 20
-77.7741
 30
0.0
 10
-29.0162
 20
-77.7741
 30
0.0
 10
-31.0638
 20
-75.8338
 30
0.0
 10
-32.8245
 20
-73.7494
 30
0.0
 10
-35.9159
 20
-72.9103
 30
0.0
 10
-35.9159
 20
-72.9103
 30
0.0
 10
-35.9159
 20
-72.9103
 30
0.0
 10
-35.9159
 20
-67.572
 30
0.0
 10
-35.9159
 20
-67.572
 30
0.0
 10
-35.9159
 20
-67.572
 30
0.0
 10
-42.5324
 20
-66.4424
 30
0.0
 10
-45.199
 20
-62.0215
 30
0.0
 10
-45.3354
 20
-54.6757
 30
0.0
 10
-45.3354
 20
-54.6757
 30
0.0
 10
-45.3275
 20
-47.7565
 30
0.0
 10
-42.6123
 20
-43.1083
 30
0.0
 10
-35.9934
 20
-42.2221
 30
0.0
 10
-35.9934
 20
-42.2221
 30
0.0
 10
-35.9934
 20
-42.2221
 30
0.0
 10
-35.9934
 20
-37.1534
 30
0.0
 10
-35.9934
 20
-37.1534
 30
0.0
 10
-35.9934
 20
-37.1534
 30
0.0
 10
-33.6387
 20
-36.1374
 30
0.0
 10
-30.9632
 20
-34.3368
 30
0.0
 10
-29.0162
 20
-31.9887
 30
0.0
  0
SPLINE
  5
5D
330
1F
100
AcDbEntity
  8
layer 1
 62
     7
100
AcDbSpline
210
0.0
220
0.0
230
1.0
 70
    11
 71
     3
 72
    32
 73
    28
 74
     0
 42
0.0000000001
 43
0.0000000001
 12
1.0
 22
0.0
 32
0.0
 13
1.0
 23
0.0
 33
0.0
 40
0.0
 40
0.0
 40
0.0
 40
0.0
 40
0.125
 40
0.125
 40
0.125
 40
0.125
 40
0.25
 40
0.25
 40
0.25
 40
0.25
 40
0.375
 40
0.375
 40
0.375
 40
0.375
 40
0.5
 40
0.5
 40
0.5
 40
0.5
 40
0.625
 40
0.625
 40
0.625
 40
0.625
 40
0.75
 40
0.75
 40
0.75
 40
0.75
 40
1.0
 40
1.0
 40
1.0
 40
1.0
 10
-179.6258
 20
94.8494
 30
0.0
 10
-179.6258
 20
94.8494
 30
0.0
 10
-179.6258
 20
49.0639
 30
0.0
 10
-179.6258
 20
49.0639
 30
0.0
 10
-179.6258
 20
49.0639
 30
0.0
 10
-177.5783
 20
51.0043
 30
0.0
 10
-175.8176
 20
53.0886
 30
0.0
 10
-172.7261
 20
53.9278
 30
0.0
 10
-172.7261
 20
53.9278
 30
0.0
 10
-172.7261
 20
53.9278
 30
0.0
 10
-172.7261
 20
59.2661
 30
0.0
 10
-172.7261
 20
59.2661
 30
0.0
 10
-172.7261
 20
59.2661
 30
0.0
 10
-166.1096
 20
60.3957
 30
0.0
 10
-163.4431
 20
64.8165
 30
0.0
 10
-163.3067
 20
72.1624
 30
0.0
 10
-163.3067
 20
72.1624
 30
0.0
 10
-163.3146
 20
79.0816
 30
0.0
 10
-166.0297
 20
83.7298
 30
0.0
 10
-172.6487
 20
84.616
 30
0.0
 10
-172.6487
 20
84.616
 30
0.0
 10
-172.6487
 20
84.616
 30
0.0
 10
-172.6487
 20
89.6846
 30
0.0
 10
-172.6487
 20
89.6846
 30
0.0
 10
-172.6487
 20
89.6846
 30
0.0
 10
-175.0033
 20
90.7006
 30
0.0
 10
-177.6788
 20
92.5013
 30
0.0
 10
-179.6258
 20
94.8494
 30
0.0
  0
SPLINE
  5
5E
330
1F
100
AcDbEntity
  8
layer 1
 62
     7
100
AcDbSpline
210
0.0
220
0.0
230
1.0
 70
    11
 71
     3
 72
    32
 73
    28
 74
     0
 42
0.0000000001
 43
0.0000000001
 12
1.0
 22
0.0
 32
0.0
 13
1.0
 23
0.0
 33
0.0
 40
0.0
 40
0.0
 40
0.0
 40
0.0
 40
0.125
 40
0.125
 40
0.125
 40
0.125
 40
0.25
 40
0.25
 40
0.25
 40
0.25
 40
0.375
 40
0.375
 40
0.375
 40
0.375
 40
0.5
 40
0.5
 40
0.5
 40
0.5
 40
0.625
 40
0.625
 40
0.625
 40
0.625
 40
0.75
 40
0.75
 40
0.75
 40
0.75
 40
1.0
 40
1.0
 40
1.0
 40
1.0
 10
-179.6258
 20
31.1056
 30
0.0
 10
-179.6258
 20
31.1056
 30
0.0
 10
-179.6258
 20
-14.6798
 30
0.0
 10
-179.6258
 20
-14.6798
 30
0.0
 10
-179.6258
 20
-14.6798
 30
0.0
 10
-177.5783
 20
-12.7395
 30
0.0
 10
-175.8176
 20
-10.6551
 30
0.0
 10
-172.7261
 20
-9.8159
 30
0.0
 10
-172.7261
 20
-9.8159
 30
0.0
 10
-172.7261
 20
-9.8159
 30
0.0
 10
-172.7261
 20
-4.4777
 30
0.0
 10
-172.7261
 20
-4.4777
 30
0.0
 10
-172.7261
 20
-4.4777
 30
0.0
 10
-166.1096
 20
-3.3481
 30
0.0
 10
-163.4431
 20
1.0728
 30
0.0
 10
-163.3067
 20
8.4186
 30
0.0
 10
-163.3067
 20
8.4186
 30
0.0
 10
-163.3146
 20
15.3378
 30
0.0
 10
-166.0297
 20
19.986
 30
0.0
 10
-172.6487
 20
20.8722
 30
0.0
 10
-172.6487
 20
20.8722
 30
0.0
 10
-172.6487
 20
20.8722
 30
0.0
 10
-172.6487
 20
25.9409
 30
0.0
 10
-172.6487
 20
25.9409
 30
0.0
 10
-172.6487
 20
25.9409
 30
0.0
 10
-175.0033
 20
26.9569
 30
0.0
 10
-177.6788
 20
28.7575
 30
0.0
 10
-179.6258
 20
31.1056
 30
0.0
  0
SPLINE
  5
5F
330
1F
100
AcDbEntity
  8
layer 1
 62
     7
100
AcDbSpline
210
0.0
220
0.0
230
1.0
 70
    11
 71
     3
 72
    32
 73
    28
 74
     0
 42
0.0000000001
 43
0.0000000001
 12
1.0
 22
0.0
 32
0.0
 13
1.0
 23
0.0
 33
0.0
 40
0.0
 40
0.0
 40
0.0
 40
0.0
 40
0.125
 40
0.125
 40
0.125
 40
0.125
 40
0.25
 40
0.25
 40
0.25
 40
0.25
 40
0.375
 40
0.375
 40
0.375
 40
0.375
 40
0.5
 40
0.5
 40
0.5
 40
0.5
 40
0.625
 40
0.625
 40
0.625
 40
0.625
 40
0.75
 40
0.75
 40
0.75
 40
0.75
 40
1.0
 40
1.0
 40
1.0
 40
1.0
 10
-179.6258
 20
-31.9887
 30
0.0
 10
-179.6258
 20
-31.9887
 30
0.0
 10
-179.6258
 20
-77.7741
 30
0.0
 10
-179.6258
 20
-77.7741
 30
0.0
 10
-179.6258
 20
-77.7741
 30
0.0
 10
-177.5783
 20
-75.8338
 30
0.0
 10
-175.8176
 20
-73.7494
 30
0.0
 10
-172.7261
 20
-72.9103
 30
0.0
 10
-172.7261
 20
-72.9103
 30
0.0
 10
-172.7261
 20
-72.9103
 30
0.0
 10
-172.7261
 20
-67.572
 30
0.0
 10
-172.7261
 20
-67.572
 30
0.0
 10
-172.7261
 20
-67.572
 30
0.0
 10
-166.1096
 20
-66.4424
 30
0.0
 10
-163.4431
 20
-62.0215
 30
0.0
 10
-163.3067
 20
-54.6757
 30
0.0
 10
-163.3067
 20
-54.6757
 30
0.0
 10
-163.3146
 20
-47.7565
 30
0.0
 10
-166.0297
 20
-43.1083
 30
0.0
 10
-172.6487
 20
-42.2221
 30
0.0
 10
-172.6487
 20
-42.2221
 30
0.0
 10
-172.6487
 20
-42.2221
 30
0.0
 10
-172.6487
 20
-37.1534
 30
0.0
 10
-172.6487
 20
-37.1534
 30
0.0
 10
-172.6487
 20
-37.1534
 30
0.0
 10
-175.0033
 20
-36.1374
 30
0.0
 10
-177.6788
 20
-34.3368
 30
0.0
 10
-179.6258
 20
-31.9887
 30
0.0
  0
SPLINE
  5
60
330
1F
100
AcDbEntity
  8
layer 1
 62
     7
100
AcDbSpline
210
0.0
220
0.0
230
1.0
 70
    11
 71
     3
 72
    52
 73
    48
 74
     0
 42
0.0000000001
 43
0.0000000001
 12
1.0
 22
0.0
 32
0.0
 13
1.0
 23
0.0
 33
0.0
 40
0.0
 40
0.0
 40
0.0
 40
0.0
 40
0.0769230769230769
 40
0.0769230769230769
 40
0.0769230769230769
 40
0.0769230769230769
 40
0.1538461538461539
 40
0.1538461538461539
 40
0.1538461538461539
 40
0.1538461538461539
 40
0.2307692307692308
 40
0.2307692307692308
 40
0.2307692307692308
 40
0.2307692307692308
 40
0.3076923076923077
 40
0.3076923076923077
 40
0.3076923076923077
 40
0.3076923076923077
 40
0.3846153846153846
 40
0.3846153846153846
 40
0.3846153846153846
 40
0.3846153846153846
 40
0.4615384615384616
 40
0.4615384615384616
 40
0.4615384615384616
 40
0.4615384615384616
 40
0.5384615384615384
 40
0.5384615384615384
 40
0.5384615384615384
 40
0.5384615384615384
 40
0.6153846153846154
 40
0.6153846153846154
 40
0.6153846153846154
 40
0.6153846153846154
 40
0.6923076923076923
 40
0.6923076923076923
 40
0.6923076923076923
 40
0.6923076923076923
 40
0.7692307692307693
 40
0.7692307692307693
 40
0.7692307692307693
 40
0.7692307692307693
 40
0.8461538461538461
 40
0.8461538461538461
 40
0.8461538461538461
 40
0.8461538461538461
 40
1.0
 40
1.0
 40
1.0
 40
1.0
 10
-54.6508
 20
-105.2584
 30
0.0
 10
-54.6508
 20
-105.2584
 30
0.0
 10
-54.6508
 20
-99.9202
 30
0.0
 10
-54.6508
 20
-99.9202
 30
0.0
 10
-54.6508
 20
-99.9202
 30
0.0
 10
-61.2673
 20
-98.7905
 30
0.0
 10
-63.9339
 20
-94.3697
 30
0.0
 10
-64.0703
 20
-87.0239
 30
0.0
 10
-64.0703
 20
-87.0239
 30
0.0
 10
-64.0624
 20
-80.1047
 30
0.0
 10
-61.3472
 20
-75.4565
 30
0.0
 10
-54.7283
 20
-74.5702
 30
0.0
 10
-54.7283
 20
-74.5702
 30
0.0
 10
-54.7283
 20
-74.5702
 30
0.0
 10
-54.7283
 20
-69.5016
 30
0.0
 10
-54.7283
 20
-69.5016
 30
0.0
 10
-54.7283
 20
-69.5016
 30
0.0
 10
-52.3736
 20
-68.4856
 30
0.0
 10
-49.6981
 20
-66.6849
 30
0.0
 10
-47.7511
 20
-64.3369
 30
0.0
 10
-47.7511
 20
-64.3369
 30
0.0
 10
-45.8042
 20
-66.6849
 30
0.0
 10
-43.1287
 20
-68.4856
 30
0.0
 10
-40.774
 20
-69.5016
 30
0.0
 10
-40.774
 20
-69.5016
 30
0.0
 10
-40.774
 20
-69.5016
 30
0.0
 10
-40.774
 20
-74.5702
 30
0.0
 10
-40.774
 20
-74.5702
 30
0.0
 10
-40.774
 20
-74.5702
 30
0.0
 10
-34.1551
 20
-75.4565
 30
0.0
 10
-31.4399
 20
-80.1045
 30
0.0
 10
-31.432
 20
-87.0239
 30
0.0
 10
-31.432
 20
-87.0239
 30
0.0
 10
-31.5684
 20
-94.3697
 30
0.0
 10
-34.235
 20
-98.7905
 30
0.0
 10
-40.8515
 20
-99.9202
 30
0.0
 10
-40.8515
 20
-99.9202
 30
0.0
 10
-40.8515
 20
-99.9202
 30
0.0
 10
-40.8515
 20
-105.2584
 30
0.0
 10
-40.8515
 20
-105.2584
 30
0.0
 10
-40.8515
 20
-105.2584
 30
0.0
 10
-43.9673
 20
-106.1044
 30
0.0
 10
-45.6817
 20
-108.1681
 30
0.0
 10
-47.7511
 20
-110.1223
 30
0.0
 10
-47.7511
 20
-110.1223
 30
0.0
 10
-49.8205
 20
-108.1681
 30
0.0
 10
-51.535
 20
-106.1044
 30
0.0
 10
-54.6508
 20
-105.2584
 30
0.0
  0
SPLINE
  5
61
330
1F
100
AcDbEntity
  8
layer 1
 62
     7
100
AcDbSpline
210
0.0
220
0.0
230
1.0
 70
    11
 71
     3
 72
    52
 73
    48
 74
     0
 42
0.0000000001
 43
0.0000000001
 12
1.0
 22
0.0
 32
0.0
 13
1.0
 23
0.0
 33
0.0
 40
0.0
 40
0.0
 40
0.0
 40
0.0
 40
0.0769230769230769
 40
0.0769230769230769
 40
0.0769230769230769
 40
0.0769230769230769
 40
0.1538461538461539
 40
0.1538461538461539
 40
0.1538461538461539
 40
0.1538461538461539
 40
0.2307692307692308
 40
0.2307692307692308
 40
0.2307692307692308
 40
0.2307692307692308
 40
0.3076923076923077
 40
0.3076923076923077
 40
0.3076923076923077
 40
0.3076923076923077
 40
0.3846153846153846
 40
0.3846153846153846
 40
0.3846153846153846
 40
0.3846153846153846
 40
0.4615384615384616
 40
0.4615384615384616
 40
0.4615384615384616
 40
0.4615384615384616
 40
0.5384615384615384
 40
0.5384615384615384
 40
0.5384615384615384
 40
0.5384615384615384
 40
0.6153846153846154
 40
0.6153846153846154
 40
0.6153846153846154
 40
0.6153846153846154
 40
0.6923076923076923
 40
0.6923076923076923
 40
0.6923076923076923
 40
0.6923076923076923
 40
0.7692307692307693
 40
0.7692307692307693
 40
0.7692307692307693
 40
0.7692307692307693
 40
0.8461538461538461
 40
0.8461538461538461
 40
0.8461538461538461
 40
0.8461538461538461
 40
1.0
 40
1.0
 40
1.0
 40
1.0
 10
-92.2083
 20
-105.2584
 30
0.0
 10
-92.2083
 20
-105.2584
 30
0.0
 10
-92.2083
 20
-99.9202
 30
0.0
 10
-92.2083
 20
-99.9202
 30
0.0
 10
-92.2083
 20
-99.9202
 30
0.0
 10
-98.8248
 20
-98.7905
 30
0.0
 10
-101.4914
 20
-94.3697
 30
0.0
 10
-101.6278
 20
-87.0239
 30
0.0
 10
-101.6278
 20
-87.0239
 30
0.0
 10
-101.6199
 20
-80.1047
 30
0.0
 10
-98.9047
 20
-75.4565
 30
0.0
 10
-92.2858
 20
-74.5702
 30
0.0
 10
-92.2858
 20
-74.5702
 30
0.0
 10
-92.2858
 20
-74.5702
 30
0.0
 10
-92.2858
 20
-69.5016
 30
0.0
 10
-92.2858
 20
-69.5016
 30
0.0
 10
-92.2858
 20
-69.5016
 30
0.0
 10
-89.9311
 20
-68.4856
 30
0.0
 10
-87.2556
 20
-66.6849
 30
0.0
 10
-85.3086
 20
-64.3369
 30
0.0
 10
-85.3086
 20
-64.3369
 30
0.0
 10
-83.3617
 20
-66.6849
 30
0.0
 10
-80.6862
 20
-68.4856
 30
0.0
 10
-78.3315
 20
-69.5016
 30
0.0
 10
-78.3315
 20
-69.5016
 30
0.0
 10
-78.3315
 20
-69.5016
 30
0.0
 10
-78.3315
 20
-74.5702
 30
0.0
 10
-78.3315
 20
-74.5702
 30
0.0
 10
-78.3315
 20
-74.5702
 30
0.0
 10
-71.7125
 20
-75.4565
 30
0.0
 10
-68.9974
 20
-80.1045
 30
0.0
 10
-68.9895
 20
-87.0239
 30
0.0
 10
-68.9895
 20
-87.0239
 30
0.0
 10
-69.1259
 20
-94.3697
 30
0.0
 10
-71.7925
 20
-98.7905
 30
0.0
 10
-78.409
 20
-99.9202
 30
0.0
 10
-78.409
 20
-99.9202
 30
0.0
 10
-78.409
 20
-99.9202
 30
0.0
 10
-78.409
 20
-105.2584
 30
0.0
 10
-78.409
 20
-105.2584
 30
0.0
 10
-78.409
 20
-105.2584
 30
0.0
 10
-81.5248
 20
-106.1044
 30
0.0
 10
-83.2391
 20
-108.1681
 30
0.0
 10
-85.3086
 20
-110.1223
 30
0.0
 10
-85.3086
 20
-110.1223
 30
0.0
 10
-87.378
 20
-108.1681
 30
0.0
 10
-89.0924
 20
-106.1044
 30
0.0
 10
-92.2083
 20
-105.2584
 30
0.0
  0
SPLINE
  5
62
330
1F
100
AcDbEntity
  8
layer 1
 62
     7
100
AcDbSpline
210
0.0
220
0.0
230
1.0
 70
    11
 71
     3
 72
    52
 73
    48
 74
     0
 42
0.0000000001
 43
0.0000000001
 12
1.0
 22
0.0
 32
0.0
 13
1.0
 23
0.0
 33
0.0
 40
0.0
 40
0.0
 40
0.0
 40
0.0
 40
0.0769230769230769
 40
0.0769230769230769
 40
0.0769230769230769
 40
0.0769230769230769
 40
0.1538461538461539
 40
0.1538461538461539
 40
0.1538461538461539
 40
0.1538461538461539
 40
0.2307692307692308
 40
0.2307692307692308
 40
0.2307692307692308
 40
0.2307692307692308
 40
0.3076923076923077
 40
0.3076923076923077
 40
0.3076923076923077
 40
0.3076923076923077
 40
0.3846153846153846
 40
0.3846153846153846
 40
0.3846153846153846
 40
0.3846153846153846
 40
0.4615384615384616
 40
0.4615384615384616
 40
0.4615384615384616
 40
0.4615384615384616
 40
0.5384615384615384
 40
0.5384615384615384
 40
0.5384615384615384
 40
0.5384615384615384
 40
0.6153846153846154
 40
0.6153846153846154
 40
0.6153846153846154
 40
0.6153846153846154
 40
0.6923076923076923
 40
0.6923076923076923
 40
0.6923076923076923
 40
0.6923076923076923
 40
0.7692307692307693
 40
0.7692307692307693
 40
0.7692307692307693
 40
0.7692307692307693
 40
0.8461538461538461
 40
0.8461538461538461
 40
0.8461538461538461
 40
0.8461538461538461
 40
1.0
 40
1.0
 40
1.0
 40
1.0
 10
-129.7658
 20
-105.2584
 30
0.0
 10
-129.7658
 20
-105.2584
 30
0.0
 10
-129.7658
 20
-99.9202
 30
0.0
 10
-129.7658
 20
-99.9202
 30
0.0
 10
-129.7658
 20
-99.9202
 30
0.0
 10
-136.3823
 20
-98.7905
 30
0.0
 10
-139.0489
 20
-94.3697
 30
0.0
 10
-139.1853
 20
-87.0239
 30
0.0
 10
-139.1853
 20
-87.0239
 30
0.0
 10
-139.1773
 20
-80.1047
 30
0.0
 10
-136.4622
 20
-75.4565
 30
0.0
 10
-129.8432
 20
-74.5702
 30
0.0
 10
-129.8432
 20
-74.5702
 30
0.0
 10
-129.8432
 20
-74.5702
 30
0.0
 10
-129.8432
 20
-69.5016
 30
0.0
 10
-129.8432
 20
-69.5016
 30
0.0
 10
-129.8432
 20
-69.5016
 30
0.0
 10
-127.4886
 20
-68.4856
 30
0.0
 10
-124.8131
 20
-66.6849
 30
0.0
 10
-122.8661
 20
-64.3369
 30
0.0
 10
-122.8661
 20
-64.3369
 30
0.0
 10
-120.9192
 20
-66.6849
 30
0.0
 10
-118.2437
 20
-68.4856
 30
0.0
 10
-115.889
 20
-69.5016
 30
0.0
 10
-115.889
 20
-69.5016
 30
0.0
 10
-115.889
 20
-69.5016
 30
0.0
 10
-115.889
 20
-74.5702
 30
0.0
 10
-115.889
 20
-74.5702
 30
0.0
 10
-115.889
 20
-74.5702
 30
0.0
 10
-109.27
 20
-75.4565
 30
0.0
 10
-106.5549
 20
-80.1045
 30
0.0
 10
-106.547
 20
-87.0239
 30
0.0
 10
-106.547
 20
-87.0239
 30
0.0
 10
-106.6834
 20
-94.3697
 30
0.0
 10
-109.3499
 20
-98.7905
 30
0.0
 10
-115.9664
 20
-99.9202
 30
0.0
 10
-115.9664
 20
-99.9202
 30
0.0
 10
-115.9664
 20
-99.9202
 30
0.0
 10
-115.9664
 20
-105.2584
 30
0.0
 10
-115.9664
 20
-105.2584
 30
0.0
 10
-115.9664
 20
-105.2584
 30
0.0
 10
-119.0823
 20
-106.1044
 30
0.0
 10
-120.7966
 20
-108.1681
 30
0.0
 10
-122.8661
 20
-110.1223
 30
0.0
 10
-122.8661
 20
-110.1223
 30
0.0
 10
-124.9354
 20
-108.1681
 30
0.0
 10
-126.6499
 20
-106.1044
 30
0.0
 10
-129.7658
 20
-105.2584
 30
0.0
  0
SPLINE
  5
63
330
1F
100
AcDbEntity
  8
layer 1
 62
     7
100
AcDbSpline
210
0.0
220
0.0
230
1.0
 70
    11
 71
     3
 72
    52
 73
    48
 74
     0
 42
0.0000000001
 43
0.0000000001
 12
1.0
 22
0.0
 32
0.0
 13
1.0
 23
0.0
 33
0.0
 40
0.0
 40
0.0
 40
0.0
 40
0.0
 40
0.0769230769230769
 40
0.0769230769230769
 40
0.0769230769230769
 40
0.0769230769230769
 40
0.1538461538461539
 40
0.1538461538461539
 40
0.1538461538461539
 40
0.1538461538461539
 40
0.2307692307692308
 40
0.2307692307692308
 40
0.2307692307692308
 40
0.2307692307692308
 40
0.3076923076923077
 40
0.3076923076923077
 40
0.3076923076923077
 40
0.3076923076923077
 40
0.3846153846153846
 40
0.3846153846153846
 40
0.3846153846153846
 40
0.3846153846153846
 40
0.4615384615384616
 40
0.4615384615384616
 40
0.4615384615384616
 40
0.4615384615384616
 40
0.5384615384615384
 40
0.5384615384615384
 40
0.5384615384615384
 40
0.5384615384615384
 40
0.6153846153846154
 40
0.6153846153846154
 40
0.6153846153846154
 40
0.6153846153846154
 40
0.6923076923076923
 40
0.6923076923076923
 40
0.6923076923076923
 40
0.6923076923076923
 40
0.7692307692307693
 40
0.7692307692307693
 40
0.7692307692307693
 40
0.7692307692307693
 40
0.8461538461538461
 40
0.8461538461538461
 40
0.8461538461538461
 40
0.8461538461538461
 40
1.0
 40
1.0
 40
1.0
 40
1.0
 10
-167.3233
 20
-105.2584
 30
0.0
 10
-167.3233
 20
-105.2584
 30
0.0
 10
-167.3233
 20
-99.9202
 30
0.0
 10
-167.3233
 20
-99.9202
 30
0.0
 10
-167.3233
 20
-99.9202
 30
0.0
 10
-173.9398
 20
-98.7905
 30
0.0
 10
-176.6064
 20
-94.3697
 30
0.0
 10
-176.7428
 20
-87.0239
 30
0.0
 10
-176.7428
 20
-87.0239
 30
0.0
 10
-176.7348
 20
-80.1047
 30
0.0
 10
-174.0197
 20
-75.4565
 30
0.0
 10
-167.4007
 20
-74.5702
 30
0.0
 10
-167.4007
 20
-74.5702
 30
0.0
 10
-167.4007
 20
-74.5702
 30
0.0
 10
-167.4007
 20
-69.5016
 30
0.0
 10
-167.4007
 20
-69.5016
 30
0.0
 10
-167.4007
 20
-69.5016
 30
0.0
 10
-165.0461
 20
-68.4856
 30
0.0
 10
-162.3706
 20
-66.6849
 30
0.0
 10
-160.4236
 20
-64.3369
 30
0.0
 10
-160.4236
 20
-64.3369
 30
0.0
 10
-158.4766
 20
-66.6849
 30
0.0
 10
-155.8011
 20
-68.4856
 30
0.0
 10
-153.4465
 20
-69.5016
 30
0.0
 10
-153.4465
 20
-69.5016
 30
0.0
 10
-153.4465
 20
-69.5016
 30
0.0
 10
-153.4465
 20
-74.5702
 30
0.0
 10
-153.4465
 20
-74.5702
 30
0.0
 10
-153.4465
 20
-74.5702
 30
0.0
 10
-146.8275
 20
-75.4565
 30
0.0
 10
-144.1124
 20
-80.1045
 30
0.0
 10
-144.1045
 20
-87.0239
 30
0.0
 10
-144.1045
 20
-87.0239
 30
0.0
 10
-144.2409
 20
-94.3697
 30
0.0
 10
-146.9074
 20
-98.7905
 30
0.0
 10
-153.5239
 20
-99.9202
 30
0.0
 10
-153.5239
 20
-99.9202
 30
0.0
 10
-153.5239
 20
-99.9202
 30
0.0
 10
-153.5239
 20
-105.2584
 30
0.0
 10
-153.5239
 20
-105.2584
 30
0.0
 10
-153.5239
 20
-105.2584
 30
0.0
 10
-156.6398
 20
-106.1044
 30
0.0
 10
-158.3541
 20
-108.1681
 30
0.0
 10
-160.4236
 20
-110.1223
 30
0.0
 10
-160.4236
 20
-110.1223
 30
0.0
 10
-162.4929
 20
-108.1681
 30
0.0
 10
-164.2074
 20
-106.1044
 30
0.0
 10
-167.3233
 20
-105.2584
 30
0.0
  0
ENDSEC
  0
SECTION
  2
OBJECTS
  0
DICTIONARY
  5
C
330
0
100
AcDbDictionary
281
     1
  3
ACAD_GROUP
350
D
  3
ACAD_LAYOUT
350
1A
  3
ACAD_MATERIAL
350
3B
  3
ACAD_MLEADERSTYLE
350
86
  3
ACAD_MLINESTYLE
350
17
  3
ACAD_PLOTSETTINGS
350
19
  3
ACAD_PLOTSTYLENAME
350
E
  3
ACAD_TABLESTYLE
350
85
  3
ACAD_VISUALSTYLE
350
2A
  0
DICTIONARY
  5
D
102
{ACAD_REACTORS
330
C
102
}
330
C
100
AcDbDictionary
281
     1
  0
DICTIONARY
  5
1A
102
{ACAD_REACTORS
330
C
102
}
330
C
100
AcDbDictionary
281
     1
  3
Layout1
350
1E
  3
Layout2
350
26
  3
Model
350
22
  0
DICTIONARY
  5
3B
102
{ACAD_REACTORS
330
C
102
}
330
C
100
AcDbDictionary
281
     1
  3
ByBlock
350
3D
  3
ByLayer
350
3C
  3
Global
350
3E
  0
DICTIONARY
  5
86
102
{ACAD_REACTORS
330
C
102
}
330
C
100
AcDbDictionary
281
     1
  0
DICTIONARY
  5
17
102
{ACAD_REACTORS
330
C
102
}
330
C
100
AcDbDictionary
281
     1
  3
Standard
350
18
  0
DICTIONARY
  5
19
102
{ACAD_REACTORS
330
C
102
}
330
C
100
AcDbDictionary
281
     1
  0
ACDBDICTIONARYWDFLT
  5
E
102
{ACAD_REACTORS
330
C
102
}
330
C
100
AcDbDictionary
281
     1
  3
Normal
350
F
100
AcDbDictionaryWithDefault
340
F
  0
DICTIONARY
  5
85
102
{ACAD_REACTORS
330
C
102
}
330
C
100
AcDbDictionary
281
     1
  0
DICTIONARY
  5
2A
102
{ACAD_REACTORS
330
C
102
}
330
C
100
AcDbDictionary
281
     1
  3
2dWireframe
350
2F
  3
3D Hidden
350
31
  3
3dWireframe
350
30
  3
Basic
350
32
  3
Brighten
350
36
  3
ColorChange
350
3A
  3
Conceptual
350
34
  3
Dim
350
35
  3
Facepattern
350
39
  3
Flat
350
2B
  3
FlatWithEdges
350
2C
  3
Gouraud
350
2D
  3
GouraudWithEdges
350
2E
  3
Linepattern
350
38
  3
Realistic
350
33
  3
Thicken
350
37
  0
LAYOUT
  5
1E
102
{ACAD_REACTORS
330
1A
102
}
330
1A
100
AcDbPlotSettings
  1

  2
none_device
  4

  6

 40
0.0
 41
0.0
 42
0.0
 43
0.0
 44
0.0
 45
0.0
 46
0.0
 47
0.0
 48
0.0
 49
0.0
140
0.0
141
0.0
142
1.0
143
1.0
 70
   688
 72
     0
 73
     0
 74
     5
  7

 75
    16
 76
     0
 77
     2
 78
   300
147
1.0
148
0.0
149
0.0
100
AcDbLayout
  1
Layout1
 70
     1
 71
     1
 10
0.0
 20
0.0
 11
12.0
 21
9.0
 12
0.0
 22
0.0
 32
0.0
 14
1.000000000000000E+20
 24
1.000000000000000E+20
 34
1.000000000000000E+20
 15
-1.000000000000000E+20
 25
-1.000000000000000E+20
 35
-1.000000000000000E+20
146
0.0
 13
0.0
 23
0.0
 33
0.0
 16
1.0
 26
0.0
 36
0.0
 17
0.0
 27
1.0
 37
0.0
 76
     0
330
1B
  0
LAYOUT
  5
26
102
{ACAD_REACTORS
330
1A
102
}
330
1A
100
AcDbPlotSettings
  1

  2
none_device
  4

  6

 40
0.0
 41
0.0
 42
0.0
 43
0.0
 44
0.0
 45
0.0
 46
0.0
 47
0.0
 48
0.0
 49
0.0
140
0.0
141
0.0
142
1.0
143
1.0
 70
   688
 72
     0
 73
     0
 74
     5
  7

 75
    16
 76
     0
 77
     2
 78
   300
147
1.0
148
0.0
149
0.0
100
AcDbLayout
  1
Layout2
 70
     1
 71
     2
 10
0.0
 20
0.0
 11
0.0
 21
0.0
 12
0.0
 22
0.0
 32
0.0
 14
0.0
 24
0.0
 34
0.0
 15
0.0
 25
0.0
 35
0.0
146
0.0
 13
0.0
 23
0.0
 33
0.0
 16
1.0
 26
0.0
 36
0.0
 17
0.0
 27
1.0
 37
0.0
 76
     0
330
23
  0
LAYOUT
  5
22
102
{ACAD_REACTORS
330
1A
102
}
330
1A
100
AcDbPlotSettings
  1

  2
none_device
  4

  6

 40
0.0
 41
0.0
 42
0.0
 43
0.0
 44
0.0
 45
0.0
 46
0.0
 47
0.0
 48
0.0
 49
0.0
140
0.0
141
0.0
142
1.0
143
1.0
 70
  1712
 72
     0
 73
     0
 74
     0
  7

 75
     0
 76
     0
 77
     2
 78
   300
147
1.0
148
0.0
149
0.0
100
AcDbLayout
  1
Model
 70
     1
 71
     0
 10
0.0
 20
0.0
 11
12.0
 21
9.0
 12
0.0
 22
0.0
 32
0.0
 14
-187.2664
 24
-114.7697
 34
0.0
 15
-21.3757
 25
131.89
 35
0.0
146
0.0
 13
0.0
 23
0.0
 33
0.0
 16
1.0
 26
0.0
 36
0.0
 17
0.0
 27
1.0
 37
0.0
 76
     0
330
1F
331
29
  0
MATERIAL
  5
3D
102
{ACAD_REACTORS
330
3B
102
}
330
3B
100
AcDbMaterial
  1
ByBlock
 72
     1
 94
      127
  0
MATERIAL
  5
3C
102
{ACAD_REACTORS
330
3B
102
}
330
3B
100
AcDbMaterial
  1
ByLayer
 72
     1
 94
      127
  0
MATERIAL
  5
3E
102
{ACAD_REACTORS
330
3B
102
}
330
3B
100
AcDbMaterial
  1
Global
 72
     1
 94
      127
  0
MLINESTYLE
  5
18
102
{ACAD_REACTORS
330
17
102
}
330
17
100
AcDbMlineStyle
  2
Standard
 70
     0
  3

 62
   256
 51
90.0
 52
90.0
 71
     2
 49
0.5
 62
   256
  6
BYLAYER
 49
-0.5
 62
   256
  6
BYLAYER
  0
ACDBPLACEHOLDER
  5
F
102
{ACAD_REACTORS
330
E
102
}
330
E
  0
VISUALSTYLE
  5
2F
102
{ACAD_REACTORS
330
2A
102
}
102
{ACAD_XDICTIONARY
360
6D
102
}
330
2A
100
AcDbVisualStyle
  2
2dWireframe
 70
     4
 71
     0
 72
     2
 73
     0
 90
        0
 40
-0.6
 41
-30.0
 62
     5
 63
     7
421
 16777215
 74
     1
 91
        4
 64
     7
 65
   257
 75
     1
175
     1
 42
1.0
 92
        0
 66
   257
 43
1.0
 76
     1
 77
     6
 78
     2
 67
     7
 79
     5
170
     0
171
     0
290
     0
174
     0
 93
        1
 44
0.0
173
     0
291
     0
 45
0.0
  0
VISUALSTYLE
  5
31
102
{ACAD_REACTORS
330
2A
102
}
102
{ACAD_XDICTIONARY
360
71
102
}
330
2A
100
AcDbVisualStyle
  2
3D Hidden
 70
     6
 71
     1
 72
     2
 73
     2
 90
        0
 40
-0.6
 41
-30.0
 62
     5
 63
     7
421
 16777215
 74
     2
 91
        2
 64
     7
 65
   257
 75
     2
175
     1
 42
40.0
 92
        0
 66
   257
 43
1.0
 76
     1
 77
     6
 78
     2
 67
     7
 79
     3
170
     0
171
     0
290
     0
174
     0
 93
        1
 44
0.0
173
     0
291
     0
 45
0.0
  0
VISUALSTYLE
  5
30
102
{ACAD_REACTORS
330
2A
102
}
102
{ACAD_XDICTIONARY
360
6F
102
}
330
2A
100
AcDbVisualStyle
  2
3dWireframe
 70
     5
 71
     0
 72
     2
 73
     0
 90
        0
 40
-0.6
 41
-30.0
 62
     5
 63
     7
421
 16777215
 74
     1
 91
        4
 64
     7
 65
   257
 75
     1
175
     1
 42
1.0
 92
        0
 66
   257
 43
1.0
 76
     1
 77
     6
 78
     2
 67
     7
 79
     5
170
     0
171
     0
290
     0
174
     0
 93
        1
 44
0.0
173
     0
291
     0
 45
0.0
  0
VISUALSTYLE
  5
32
102
{ACAD_REACTORS
330
2A
102
}
102
{ACAD_XDICTIONARY
360
73
102
}
330
2A
100
AcDbVisualStyle
  2
Basic
 70
     7
 71
     1
 72
     0
 73
     1
 90
        0
 40
-0.6
 41
-30.0
 62
     5
 63
     7
421
 16777215
 74
     0
 91
        4
 64
     7
 65
   257
 75
     1
175
     1
 42
1.0
 92
        8
 66
     7
 43
1.0
 76
     1
 77
     6
 78
     2
 67
     7
 79
     5
170
     0
171
     0
290
     0
174
     0
 93
        1
 44
0.0
173
     0
291
     1
 45
0.0
  0
VISUALSTYLE
  5
36
102
{ACAD_REACTORS
330
2A
102
}
102
{ACAD_XDICTIONARY
360
7B
102
}
330
2A
100
AcDbVisualStyle
  2
Brighten
 70
    12
 71
     2
 72
     2
 73
     0
 90
        0
 40
-0.6
 41
-30.0
 62
     5
 63
     7
421
 16777215
 74
     1
 91
        4
 64
     7
 65
   257
 75
     1
175
     1
 42
1.0
 92
        8
 66
     7
 43
1.0
 76
     1
 77
     6
 78
     2
 67
     7
 79
     5
170
     0
171
     0
290
     0
174
     0
 93
        1
 44
50.0
173
     0
291
     1
 45
0.0
  0
VISUALSTYLE
  5
3A
102
{ACAD_REACTORS
330
2A
102
}
102
{ACAD_XDICTIONARY
360
83
102
}
330
2A
100
AcDbVisualStyle
  2
ColorChange
 70
    16
 71
     2
 72
     2
 73
     3
 90
        0
 40
-0.6
 41
-30.0
 62
     5
 63
     8
421
  8421504
 74
     1
 91
        4
 64
     7
 65
   257
 75
     1
175
     1
 42
1.0
 92
        8
 66
     8
424
  8421504
 43
1.0
 76
     1
 77
     6
 78
     2
 67
     7
 79
     5
170
     0
171
     0
290
     0
174
     0
 93
        1
 44
0.0
173
     0
291
     1
 45
0.0
  0
VISUALSTYLE
  5
34
102
{ACAD_REACTORS
330
2A
102
}
102
{ACAD_XDICTIONARY
360
77
102
}
330
2A
100
AcDbVisualStyle
  2
Conceptual
 70
     9
 71
     3
 72
     2
 73
     0
 90
        0
 40
-0.6
 41
-30.0
 62
     5
 63
     7
421
 16777215
 74
     2
 91
        2
 64
     7
 65
   257
 75
     1
175
     1
 42
40.0
 92
        8
 66
     7
 43
1.0
 76
     1
 77
     6
 78
     2
 67
     7
 79
     3
170
     0
171
     0
290
     0
174
     0
 93
        1
 44
0.0
173
     0
291
     0
 45
0.0
  0
VISUALSTYLE
  5
35
102
{ACAD_REACTORS
330
2A
102
}
102
{ACAD_XDICTIONARY
360
79
102
}
330
2A
100
AcDbVisualStyle
  2
Dim
 70
    11
 71
     2
 72
     2
 73
     0
 90
        0
 40
-0.6
 41
-30.0
 62
     5
 63
     7
421
 16777215
 74
     1
 91
        4
 64
     7
 65
   257
 75
     1
175
     1
 42
1.0
 92
        8
 66
     7
 43
1.0
 76
     1
 77
     6
 78
     2
 67
     7
 79
     5
170
     0
171
     0
290
     0
174
     0
 93
        1
 44
-50.0
173
     0
291
     1
 45
0.0
  0
VISUALSTYLE
  5
39
102
{ACAD_REACTORS
330
2A
102
}
102
{ACAD_XDICTIONARY
360
81
102
}
330
2A
100
AcDbVisualStyle
  2
Facepattern
 70
    15
 71
     2
 72
     2
 73
     0
 90
        0
 40
-0.6
 41
-30.0
 62
     5
 63
     7
421
 16777215
 74
     1
 91
        4
 64
     7
 65
   257
 75
     1
175
     1
 42
1.0
 92
        8
 66
     7
 43
1.0
 76
     1
 77
     6
 78
     2
 67
     7
 79
     5
170
     0
171
     0
290
     0
174
     0
 93
        1
 44
0.0
173
     0
291
     1
 45
0.0
  0
VISUALSTYLE
  5
2B
102
{ACAD_REACTORS
330
2A
102
}
102
{ACAD_XDICTIONARY
360
65
102
}
330
2A
100
AcDbVisualStyle
  2
Flat
 70
     0
 71
     2
 72
     1
 73
     1
 90
        2
 40
-0.6
 41
30.0
 62
     5
 63
     7
421
 16777215
 74
     0
 91
        4
 64
     7
 65
   257
 75
     1
175
     1
 42
1.0
 92
        8
 66
     7
 43
1.0
 76
     1
 77
     6
 78
     2
 67
     7
 79
     5
170
     0
171
     0
290
     0
174
     0
 93
       13
 44
0.0
173
     0
291
     1
 45
0.0
  0
VISUALSTYLE
  5
2C
102
{ACAD_REACTORS
330
2A
102
}
102
{ACAD_XDICTIONARY
360
67
102
}
330
2A
100
AcDbVisualStyle
  2
FlatWithEdges
 70
     1
 71
     2
 72
     1
 73
     1
 90
        2
 40
-0.6
 41
30.0
 62
     5
 63
     7
421
 16777215
 74
     1
 91
        4
 64
     7
 65
   257
 75
     1
175
     1
 42
1.0
 92
        0
 66
   257
 43
1.0
 76
     1
 77
     6
 78
     2
 67
     7
 79
     5
170
     0
171
     0
290
     0
174
     0
 93
       13
 44
0.0
173
     0
291
     1
 45
0.0
  0
VISUALSTYLE
  5
2D
102
{ACAD_REACTORS
330
2A
102
}
102
{ACAD_XDICTIONARY
360
69
102
}
330
2A
100
AcDbVisualStyle
  2
Gouraud
 70
     2
 71
     2
 72
     2
 73
     1
 90
        2
 40
-0.6
 41
30.0
 62
     5
 63
     7
421
 16777215
 74
     0
 91
        4
 64
     7
 65
   257
 75
     1
175
     1
 42
1.0
 92
        0
 66
     7
 43
1.0
 76
     1
 77
     6
 78
     2
 67
     7
 79
     5
170
     0
171
     0
290
     0
174
     0
 93
       13
 44
0.0
173
     0
291
     1
 45
0.0
  0
VISUALSTYLE
  5
2E
102
{ACAD_REACTORS
330
2A
102
}
102
{ACAD_XDICTIONARY
360
6B
102
}
330
2A
100
AcDbVisualStyle
  2
GouraudWithEdges
 70
     3
 71
     2
 72
     2
 73
     1
 90
        2
 40
-0.6
 41
30.0
 62
     5
 63
     7
421
 16777215
 74
     1
 91
        4
 64
     7
 65
   257
 75
     1
175
     1
 42
1.0
 92
        0
 66
   257
 43
1.0
 76
     1
 77
     6
 78
     2
 67
     7
 79
     5
170
     0
171
     0
290
     0
174
     0
 93
       13
 44
0.0
173
     0
291
     1
 45
0.0
  0
VISUALSTYLE
  5
38
102
{ACAD_REACTORS
330
2A
102
}
102
{ACAD_XDICTIONARY
360
7F
102
}
330
2A
100
AcDbVisualStyle
  2
Linepattern
 70
    14
 71
     2
 72
     2
 73
     0
 90
        0
 40
-0.6
 41
-30.0
 62
     5
 63
     7
421
 16777215
 74
     1
 91
        4
 64
     7
 65
   257
 75
     7
175
     7
 42
1.0
 92
        8
 66
     7
 43
1.0
 76
     1
 77
     6
 78
     2
 67
     7
 79
     5
170
     0
171
     0
290
     0
174
     0
 93
        1
 44
0.0
173
     0
291
     1
 45
0.0
  0
VISUALSTYLE
  5
33
102
{ACAD_REACTORS
330
2A
102
}
102
{ACAD_XDICTIONARY
360
75
102
}
330
2A
100
AcDbVisualStyle
  2
Realistic
 70
     8
 71
     2
 72
     2
 73
     0
 90
        0
 40
-0.6
 41
-30.0
 62
     5
 63
     7
421
 16777215
 74
     1
 91
        0
 64
     7
 65
   257
 75
     1
175
     1
 42
1.0
 92
        8
 66
     8
424
  7895160
 43
1.0
 76
     1
 77
     6
 78
     2
 67
     7
 79
     5
170
     0
171
     0
290
     0
174
     0
 93
       13
 44
0.0
173
     0
291
     0
 45
0.0
  0
VISUALSTYLE
  5
37
102
{ACAD_REACTORS
330
2A
102
}
102
{ACAD_XDICTIONARY
360
7D
102
}
330
2A
100
AcDbVisualStyle
  2
Thicken
 70
    13
 71
     2
 72
     2
 73
     0
 90
        0
 40
-0.6
 41
-30.0
 62
     5
 63
     7
421
 16777215
 74
     1
 91
        4
 64
     7
 65
   257
 75
     1
175
     1
 42
1.0
 92
       12
 66
     7
 43
1.0
 76
     1
 77
     6
 78
     2
 67
     7
 79
     5
170
     0
171
     0
290
     0
174
     0
 93
        1
 44
0.0
173
     0
291
     1
 45
0.0
  0
DICTIONARY
  5
6D
330
2F
100
AcDbDictionary
280
     1
281
     1
  3
ACAD_XREC_ROUNDTRIP
360
6E
  0
DICTIONARY
  5
71
330
31
100
AcDbDictionary
280
     1
281
     1
  3
ACAD_XREC_ROUNDTRIP
360
72
  0
DICTIONARY
  5
6F
330
30
100
AcDbDictionary
280
     1
281
     1
  3
ACAD_XREC_ROUNDTRIP
360
70
  0
DICTIONARY
  5
73
330
32
100
AcDbDictionary
280
     1
281
     1
  3
ACAD_XREC_ROUNDTRIP
360
74
  0
DICTIONARY
  5
7B
330
36
100
AcDbDictionary
280
     1
281
     1
  3
ACAD_XREC_ROUNDTRIP
360
7C
  0
DICTIONARY
  5
83
330
3A
100
AcDbDictionary
280
     1
281
     1
  3
ACAD_XREC_ROUNDTRIP
360
84
  0
DICTIONARY
  5
77
330
34
100
AcDbDictionary
280
     1
281
     1
  3
ACAD_XREC_ROUNDTRIP
360
78
  0
DICTIONARY
  5
79
330
35
100
AcDbDictionary
280
     1
281
     1
  3
ACAD_XREC_ROUNDTRIP
360
7A
  0
DICTIONARY
  5
81
330
39
100
AcDbDictionary
280
     1
281
     1
  3
ACAD_XREC_ROUNDTRIP
360
82
  0
DICTIONARY
  5
65
330
2B
100
AcDbDictionary
280
     1
281
     1
  3
ACAD_XREC_ROUNDTRIP
360
66
  0
DICTIONARY
  5
67
330
2C
100
AcDbDictionary
280
     1
281
     1
  3
ACAD_XREC_ROUNDTRIP
360
68
  0
DICTIONARY
  5
69
330
2D
100
AcDbDictionary
280
     1
281
     1
  3
ACAD_XREC_ROUNDTRIP
360
6A
  0
DICTIONARY
  5
6B
330
2E
100
AcDbDictionary
280
     1
281
     1
  3
ACAD_XREC_ROUNDTRIP
360
6C
  0
DICTIONARY
  5
7F
330
38
100
AcDbDictionary
280
     1
281
     1
  3
ACAD_XREC_ROUNDTRIP
360
80
  0
DICTIONARY
  5
75
330
33
100
AcDbDictionary
280
     1
281
     1
  3
ACAD_XREC_ROUNDTRIP
360
76
  0
DICTIONARY
  5
7D
330
37
100
AcDbDictionary
280
     1
281
     1
  3
ACAD_XREC_ROUNDTRIP
360
7E
  0
XRECORD
  5
6E
102
{ACAD_REACTORS
330
6D
102
}
330
6D
100
AcDbXrecord
280
     1
102
RTVSPropertyOp0
 70
     1
102
RTVSPropertyOp1
 70
     1
102
RTVSPropertyOp2
 70
     1
102
RTVSPropertyOp3
 70
     1
102
RTVSPropertyOp4
 70
     1
102
RTVSPropertyOp5
 70
     1
102
RTVSPropertyOp6
 70
     1
102
RTVSPropertyOp7
 70
     1
102
RTVSPropertyOp8
 70
     1
102
RTVSPropertyOp9
 70
     1
102
RTVSPropertyOp10
 70
     1
102
RTVSPropertyOp11
 70
     1
102
RTVSPropertyOp12
 70
     1
102
RTVSPropertyOp13
 70
     1
102
RTVSPropertyOp14
 70
     1
102
RTVSPropertyOp15
 70
     1
102
RTVSPropertyOp16
 70
     1
102
RTVSPropertyOp17
 70
     1
102
RTVSPropertyOp18
 70
     1
102
RTVSPropertyOp19
 70
     1
102
RTVSPropertyOp20
 70
     1
102
RTVSPropertyOp21
 70
     1
102
RTVSPropertyOp22
 70
     1
102
RTVSPropertyOp23
 70
     1
102
RTVSPropertyOp24
 70
     1
102
RTVSPropertyOp25
 70
     1
102
RTVSPropertyOp26
 70
     1
102
RTVSPropertyOp27
 70
     1
102
RTVSPropertyOp28
 70
     1
102
RTVSPropertyOp29
 70
     1
102
RTVSPropertyOp30
 70
     1
102
RTVSPropertyOp31
 70
     1
102
RTVSPropertyOp32
 70
     1
  0
XRECORD
  5
72
102
{ACAD_REACTORS
330
71
102
}
330
71
100
AcDbXrecord
280
     1
102
RTVSPropertyOp0
 70
     1
102
RTVSPropertyOp1
 70
     1
102
RTVSPropertyOp2
 70
     1
102
RTVSPropertyOp3
 70
     1
102
RTVSPropertyOp4
 70
     1
102
RTVSPropertyOp5
 70
     1
102
RTVSPropertyOp6
 70
     1
102
RTVSPropertyOp7
 70
     1
102
RTVSPropertyOp8
 70
     1
102
RTVSPropertyOp9
 70
     1
102
RTVSPropertyOp10
 70
     1
102
RTVSPropertyOp11
 70
     1
102
RTVSPropertyOp12
 70
     1
102
RTVSPropertyOp13
 70
     1
102
RTVSPropertyOp14
 70
     1
102
RTVSPropertyOp15
 70
     1
102
RTVSPropertyOp16
 70
     1
102
RTVSPropertyOp17
 70
     1
102
RTVSPropertyOp18
 70
     1
102
RTVSPropertyOp19
 70
     1
102
RTVSPropertyOp20
 70
     1
102
RTVSPropertyOp21
 70
     1
102
RTVSPropertyOp22
 70
     1
102
RTVSPropertyOp23
 70
     1
102
RTVSPropertyOp24
 70
     1
102
RTVSPropertyOp25
 70
     1
102
RTVSPropertyOp26
 70
     1
102
RTVSPropertyOp27
 70
     1
102
RTVSPropertyOp28
 70
     1
102
RTVSPropertyOp29
 70
     1
102
RTVSPropertyOp30
 70
     1
102
RTVSPropertyOp31
 70
     1
102
RTVSPropertyOp32
 70
     1
  0
XRECORD
  5
70
102
{ACAD_REACTORS
330
6F
102
}
330
6F
100
AcDbXrecord
280
     1
102
RTVSPropertyOp0
 70
     1
102
RTVSPropertyOp1
 70
     1
102
RTVSPropertyOp2
 70
     1
102
RTVSPropertyOp3
 70
     1
102
RTVSPropertyOp4
 70
     1
102
RTVSPropertyOp5
 70
     1
102
RTVSPropertyOp6
 70
     1
102
RTVSPropertyOp7
 70
     1
102
RTVSPropertyOp8
 70
     1
102
RTVSPropertyOp9
 70
     1
102
RTVSPropertyOp10
 70
     1
102
RTVSPropertyOp11
 70
     1
102
RTVSPropertyOp12
 70
     1
102
RTVSPropertyOp13
 70
     1
102
RTVSPropertyOp14
 70
     1
102
RTVSPropertyOp15
 70
     1
102
RTVSPropertyOp16
 70
     1
102
RTVSPropertyOp17
 70
     1
102
RTVSPropertyOp18
 70
     1
102
RTVSPropertyOp19
 70
     1
102
RTVSPropertyOp20
 70
     1
102
RTVSPropertyOp21
 70
     1
102
RTVSPropertyOp22
 70
     1
102
RTVSPropertyOp23
 70
     1
102
RTVSPropertyOp24
 70
     1
102
RTVSPropertyOp25
 70
     1
102
RTVSPropertyOp26
 70
     1
102
RTVSPropertyOp27
 70
     1
102
RTVSPropertyOp28
 70
     1
102
RTVSPropertyOp29
 70
     1
102
RTVSPropertyOp30
 70
     1
102
RTVSPropertyOp31
 70
     1
102
RTVSPropertyOp32
 70
     1
  0
XRECORD
  5
74
102
{ACAD_REACTORS
330
73
102
}
330
73
100
AcDbXrecord
280
     1
102
RTVSPropertyOp0
 70
     1
102
RTVSPropertyOp1
 70
     1
102
RTVSPropertyOp2
 70
     1
102
RTVSPropertyOp3
 70
     1
102
RTVSPropertyOp4
 70
     1
102
RTVSPropertyOp5
 70
     1
102
RTVSPropertyOp6
 70
     1
102
RTVSPropertyOp7
 70
     1
102
RTVSPropertyOp8
 70
     1
102
RTVSPropertyOp9
 70
     1
102
RTVSPropertyOp10
 70
     1
102
RTVSPropertyOp11
 70
     1
102
RTVSPropertyOp12
 70
     1
102
RTVSPropertyOp13
 70
     1
102
RTVSPropertyOp14
 70
     1
102
RTVSPropertyOp15
 70
     1
102
RTVSPropertyOp16
 70
     1
102
RTVSPropertyOp17
 70
     1
102
RTVSPropertyOp18
 70
     1
102
RTVSPropertyOp19
 70
     1
102
RTVSPropertyOp20
 70
     1
102
RTVSPropertyOp21
 70
     1
102
RTVSPropertyOp22
 70
     1
102
RTVSPropertyOp23
 70
     1
102
RTVSPropertyOp24
 70
     1
102
RTVSPropertyOp25
 70
     1
102
RTVSPropertyOp26
 70
     1
102
RTVSPropertyOp27
 70
     1
102
RTVSPropertyOp28
 70
     1
102
RTVSPropertyOp29
 70
     1
102
RTVSPropertyOp30
 70
     1
102
RTVSPropertyOp31
 70
     1
102
RTVSPropertyOp32
 70
     1
  0
XRECORD
  5
7C
102
{ACAD_REACTORS
330
7B
102
}
330
7B
100
AcDbXrecord
280
     1
102
RTVSPropertyOp0
 70
     1
102
RTVSPropertyOp1
 70
     1
102
RTVSPropertyOp2
 70
     1
102
RTVSPropertyOp3
 70
     1
102
RTVSPropertyOp4
 70
     1
102
RTVSPropertyOp5
 70
     1
102
RTVSPropertyOp6
 70
     1
102
RTVSPropertyOp7
 70
     1
102
RTVSPropertyOp8
 70
     1
102
RTVSPropertyOp9
 70
     1
102
RTVSPropertyOp10
 70
     1
102
RTVSPropertyOp11
 70
     1
102
RTVSPropertyOp12
 70
     1
102
RTVSPropertyOp13
 70
     1
102
RTVSPropertyOp14
 70
     1
102
RTVSPropertyOp15
 70
     1
102
RTVSPropertyOp16
 70
     1
102
RTVSPropertyOp17
 70
     1
102
RTVSPropertyOp18
 70
     1
102
RTVSPropertyOp19
 70
     1
102
RTVSPropertyOp20
 70
     1
102
RTVSPropertyOp21
 70
     1
102
RTVSPropertyOp22
 70
     1
102
RTVSPropertyOp23
 70
     1
102
RTVSPropertyOp24
 70
     1
102
RTVSPropertyOp25
 70
     1
102
RTVSPropertyOp26
 70
     1
102
RTVSPropertyOp27
 70
     1
102
RTVSPropertyOp28
 70
     1
102
RTVSPropertyOp29
 70
     1
102
RTVSPropertyOp30
 70
     1
102
RTVSPropertyOp31
 70
     1
102
RTVSPropertyOp32
 70
     1
  0
XRECORD
  5
84
102
{ACAD_REACTORS
330
83
102
}
330
83
100
AcDbXrecord
280
     1
102
RTVSPropertyOp0
 70
     1
102
RTVSPropertyOp1
 70
     1
102
RTVSPropertyOp2
 70
     1
102
RTVSPropertyOp3
 70
     1
102
RTVSPropertyOp4
 70
     1
102
RTVSPropertyOp5
 70
     1
102
RTVSPropertyOp6
 70
     1
102
RTVSPropertyOp7
 70
     1
102
RTVSPropertyOp8
 70
     1
102
RTVSPropertyOp9
 70
     1
102
RTVSPropertyOp10
 70
     1
102
RTVSPropertyOp11
 70
     1
102
RTVSPropertyOp12
 70
     1
102
RTVSPropertyOp13
 70
     1
102
RTVSPropertyOp14
 70
     1
102
RTVSPropertyOp15
 70
     1
102
RTVSPropertyOp16
 70
     1
102
RTVSPropertyOp17
 70
     1
102
RTVSPropertyOp18
 70
     1
102
RTVSPropertyOp19
 70
     1
102
RTVSPropertyOp20
 70
     1
102
RTVSPropertyOp21
 70
     1
102
RTVSPropertyOp22
 70
     1
102
RTVSPropertyOp23
 70
     1
102
RTVSPropertyOp24
 70
     1
102
RTVSPropertyOp25
 70
     1
102
RTVSPropertyOp26
 70
     1
102
RTVSPropertyOp27
 70
     1
102
RTVSPropertyOp28
 70
     1
102
RTVSPropertyOp29
 70
     1
102
RTVSPropertyOp30
 70
     1
102
RTVSPropertyOp31
 70
     1
102
RTVSPropertyOp32
 70
     1
  0
XRECORD
  5
78
102
{ACAD_REACTORS
330
77
102
}
330
77
100
AcDbXrecord
280
     1
102
RTVSPropertyOp0
 70
     1
102
RTVSPropertyOp1
 70
     1
102
RTVSPropertyOp2
 70
     1
102
RTVSPropertyOp3
 70
     1
102
RTVSPropertyOp4
 70
     1
102
RTVSPropertyOp5
 70
     1
102
RTVSPropertyOp6
 70
     1
102
RTVSPropertyOp7
 70
     1
102
RTVSPropertyOp8
 70
     1
102
RTVSPropertyOp9
 70
     1
102
RTVSPropertyOp10
 70
     1
102
RTVSPropertyOp11
 70
     1
102
RTVSPropertyOp12
 70
     1
102
RTVSPropertyOp13
 70
     1
102
RTVSPropertyOp14
 70
     1
102
RTVSPropertyOp15
 70
     1
102
RTVSPropertyOp16
 70
     1
102
RTVSPropertyOp17
 70
     1
102
RTVSPropertyOp18
 70
     1
102
RTVSPropertyOp19
 70
     1
102
RTVSPropertyOp20
 70
     1
102
RTVSPropertyOp21
 70
     1
102
RTVSPropertyOp22
 70
     1
102
RTVSPropertyOp23
 70
     1
102
RTVSPropertyOp24
 70
     1
102
RTVSPropertyOp25
 70
     1
102
RTVSPropertyOp26
 70
     1
102
RTVSPropertyOp27
 70
     1
102
RTVSPropertyOp28
 70
     1
102
RTVSPropertyOp29
 70
     1
102
RTVSPropertyOp30
 70
     1
102
RTVSPropertyOp31
 70
     1
102
RTVSPropertyOp32
 70
     1
  0
XRECORD
  5
7A
102
{ACAD_REACTORS
330
79
102
}
330
79
100
AcDbXrecord
280
     1
102
RTVSPropertyOp0
 70
     1
102
RTVSPropertyOp1
 70
     1
102
RTVSPropertyOp2
 70
     1
102
RTVSPropertyOp3
 70
     1
102
RTVSPropertyOp4
 70
     1
102
RTVSPropertyOp5
 70
     1
102
RTVSPropertyOp6
 70
     1
102
RTVSPropertyOp7
 70
     1
102
RTVSPropertyOp8
 70
     1
102
RTVSPropertyOp9
 70
     1
102
RTVSPropertyOp10
 70
     1
102
RTVSPropertyOp11
 70
     1
102
RTVSPropertyOp12
 70
     1
102
RTVSPropertyOp13
 70
     1
102
RTVSPropertyOp14
 70
     1
102
RTVSPropertyOp15
 70
     1
102
RTVSPropertyOp16
 70
     1
102
RTVSPropertyOp17
 70
     1
102
RTVSPropertyOp18
 70
     1
102
RTVSPropertyOp19
 70
     1
102
RTVSPropertyOp20
 70
     1
102
RTVSPropertyOp21
 70
     1
102
RTVSPropertyOp22
 70
     1
102
RTVSPropertyOp23
 70
     1
102
RTVSPropertyOp24
 70
     1
102
RTVSPropertyOp25
 70
     1
102
RTVSPropertyOp26
 70
     1
102
RTVSPropertyOp27
 70
     1
102
RTVSPropertyOp28
 70
     1
102
RTVSPropertyOp29
 70
     1
102
RTVSPropertyOp30
 70
     1
102
RTVSPropertyOp31
 70
     1
102
RTVSPropertyOp32
 70
     1
  0
XRECORD
  5
82
102
{ACAD_REACTORS
330
81
102
}
330
81
100
AcDbXrecord
280
     1
102
RTVSPropertyOp0
 70
     1
102
RTVSPropertyOp1
 70
     1
102
RTVSPropertyOp2
 70
     1
102
RTVSPropertyOp3
 70
     1
102
RTVSPropertyOp4
 70
     1
102
RTVSPropertyOp5
 70
     1
102
RTVSPropertyOp6
 70
     1
102
RTVSPropertyOp7
 70
     1
102
RTVSPropertyOp8
 70
     1
102
RTVSPropertyOp9
 70
     1
102
RTVSPropertyOp10
 70
     1
102
RTVSPropertyOp11
 70
     1
102
RTVSPropertyOp12
 70
     1
102
RTVSPropertyOp13
 70
     1
102
RTVSPropertyOp14
 70
     1
102
RTVSPropertyOp15
 70
     1
102
RTVSPropertyOp16
 70
     1
102
RTVSPropertyOp17
 70
     1
102
RTVSPropertyOp18
 70
     1
102
RTVSPropertyOp19
 70
     1
102
RTVSPropertyOp20
 70
     1
102
RTVSPropertyOp21
 70
     1
102
RTVSPropertyOp22
 70
     1
102
RTVSPropertyOp23
 70
     1
102
RTVSPropertyOp24
 70
     1
102
RTVSPropertyOp25
 70
     1
102
RTVSPropertyOp26
 70
     1
102
RTVSPropertyOp27
 70
     1
102
RTVSPropertyOp28
 70
     1
102
RTVSPropertyOp29
 70
     1
102
RTVSPropertyOp30
 70
     1
102
RTVSPropertyOp31
 70
     1
102
RTVSPropertyOp32
 70
     1
  0
XRECORD
  5
66
102
{ACAD_REACTORS
330
65
102
}
330
65
100
AcDbXrecord
280
     1
102
RTVSPropertyOp0
 70
     1
102
RTVSPropertyOp1
 70
     1
102
RTVSPropertyOp2
 70
     1
102
RTVSPropertyOp3
 70
     1
102
RTVSPropertyOp4
 70
     1
102
RTVSPropertyOp5
 70
     1
102
RTVSPropertyOp6
 70
     1
102
RTVSPropertyOp7
 70
     1
102
RTVSPropertyOp8
 70
     1
102
RTVSPropertyOp9
 70
     1
102
RTVSPropertyOp10
 70
     1
102
RTVSPropertyOp11
 70
     1
102
RTVSPropertyOp12
 70
     1
102
RTVSPropertyOp13
 70
     1
102
RTVSPropertyOp14
 70
     1
102
RTVSPropertyOp15
 70
     1
102
RTVSPropertyOp16
 70
     1
102
RTVSPropertyOp17
 70
     1
102
RTVSPropertyOp18
 70
     1
102
RTVSPropertyOp19
 70
     1
102
RTVSPropertyOp20
 70
     1
102
RTVSPropertyOp21
 70
     1
102
RTVSPropertyOp22
 70
     1
102
RTVSPropertyOp23
 70
     1
102
RTVSPropertyOp24
 70
     1
102
RTVSPropertyOp25
 70
     1
102
RTVSPropertyOp26
 70
     1
102
RTVSPropertyOp27
 70
     1
102
RTVSPropertyOp28
 70
     1
102
RTVSPropertyOp29
 70
     1
102
RTVSPropertyOp30
 70
     1
102
RTVSPropertyOp31
 70
     1
102
RTVSPropertyOp32
 70
     1
  0
XRECORD
  5
68
102
{ACAD_REACTORS
330
67
102
}
330
67
100
AcDbXrecord
280
     1
102
RTVSPropertyOp0
 70
     1
102
RTVSPropertyOp1
 70
     1
102
RTVSPropertyOp2
 70
     1
102
RTVSPropertyOp3
 70
     1
102
RTVSPropertyOp4
 70
     1
102
RTVSPropertyOp5
 70
     1
102
RTVSPropertyOp6
 70
     1
102
RTVSPropertyOp7
 70
     1
102
RTVSPropertyOp8
 70
     1
102
RTVSPropertyOp9
 70
     1
102
RTVSPropertyOp10
 70
     1
102
RTVSPropertyOp11
 70
     1
102
RTVSPropertyOp12
 70
     1
102
RTVSPropertyOp13
 70
     1
102
RTVSPropertyOp14
 70
     1
102
RTVSPropertyOp15
 70
     1
102
RTVSPropertyOp16
 70
     1
102
RTVSPropertyOp17
 70
     1
102
RTVSPropertyOp18
 70
     1
102
RTVSPropertyOp19
 70
     1
102
RTVSPropertyOp20
 70
     1
102
RTVSPropertyOp21
 70
     1
102
RTVSPropertyOp22
 70
     1
102
RTVSPropertyOp23
 70
     1
102
RTVSPropertyOp24
 70
     1
102
RTVSPropertyOp25
 70
     1
102
RTVSPropertyOp26
 70
     1
102
RTVSPropertyOp27
 70
     1
102
RTVSPropertyOp28
 70
     1
102
RTVSPropertyOp29
 70
     1
102
RTVSPropertyOp30
 70
     1
102
RTVSPropertyOp31
 70
     1
102
RTVSPropertyOp32
 70
     1
  0
XRECORD
  5
6A
102
{ACAD_REACTORS
330
69
102
}
330
69
100
AcDbXrecord
280
     1
102
RTVSPropertyOp0
 70
     1
102
RTVSPropertyOp1
 70
     1
102
RTVSPropertyOp2
 70
     1
102
RTVSPropertyOp3
 70
     1
102
RTVSPropertyOp4
 70
     1
102
RTVSPropertyOp5
 70
     1
102
RTVSPropertyOp6
 70
     1
102
RTVSPropertyOp7
 70
     1
102
RTVSPropertyOp8
 70
     1
102
RTVSPropertyOp9
 70
     1
102
RTVSPropertyOp10
 70
     1
102
RTVSPropertyOp11
 70
     1
102
RTVSPropertyOp12
 70
     1
102
RTVSPropertyOp13
 70
     1
102
RTVSPropertyOp14
 70
     1
102
RTVSPropertyOp15
 70
     1
102
RTVSPropertyOp16
 70
     1
102
RTVSPropertyOp17
 70
     1
102
RTVSPropertyOp18
 70
     1
102
RTVSPropertyOp19
 70
     1
102
RTVSPropertyOp20
 70
     1
102
RTVSPropertyOp21
 70
     1
102
RTVSPropertyOp22
 70
     1
102
RTVSPropertyOp23
 70
     1
102
RTVSPropertyOp24
 70
     1
102
RTVSPropertyOp25
 70
     1
102
RTVSPropertyOp26
 70
     1
102
RTVSPropertyOp27
 70
     1
102
RTVSPropertyOp28
 70
     1
102
RTVSPropertyOp29
 70
     1
102
RTVSPropertyOp30
 70
     1
102
RTVSPropertyOp31
 70
     1
102
RTVSPropertyOp32
 70
     1
  0
XRECORD
  5
6C
102
{ACAD_REACTORS
330
6B
102
}
330
6B
100
AcDbXrecord
280
     1
102
RTVSPropertyOp0
 70
     1
102
RTVSPropertyOp1
 70
     1
102
RTVSPropertyOp2
 70
     1
102
RTVSPropertyOp3
 70
     1
102
RTVSPropertyOp4
 70
     1
102
RTVSPropertyOp5
 70
     1
102
RTVSPropertyOp6
 70
     1
102
RTVSPropertyOp7
 70
     1
102
RTVSPropertyOp8
 70
     1
102
RTVSPropertyOp9
 70
     1
102
RTVSPropertyOp10
 70
     1
102
RTVSPropertyOp11
 70
     1
102
RTVSPropertyOp12
 70
     1
102
RTVSPropertyOp13
 70
     1
102
RTVSPropertyOp14
 70
     1
102
RTVSPropertyOp15
 70
     1
102
RTVSPropertyOp16
 70
     1
102
RTVSPropertyOp17
 70
     1
102
RTVSPropertyOp18
 70
     1
102
RTVSPropertyOp19
 70
     1
102
RTVSPropertyOp20
 70
     1
102
RTVSPropertyOp21
 70
     1
102
RTVSPropertyOp22
 70
     1
102
RTVSPropertyOp23
 70
     1
102
RTVSPropertyOp24
 70
     1
102
RTVSPropertyOp25
 70
     1
102
RTVSPropertyOp26
 70
     1
102
RTVSPropertyOp27
 70
     1
102
RTVSPropertyOp28
 70
     1
102
RTVSPropertyOp29
 70
     1
102
RTVSPropertyOp30
 70
     1
102
RTVSPropertyOp31
 70
     1
102
RTVSPropertyOp32
 70
     1
  0
XRECORD
  5
80
102
{ACAD_REACTORS
330
7F
102
}
330
7F
100
AcDbXrecord
280
     1
102
RTVSPropertyOp0
 70
     1
102
RTVSPropertyOp1
 70
     1
102
RTVSPropertyOp2
 70
     1
102
RTVSPropertyOp3
 70
     1
102
RTVSPropertyOp4
 70
     1
102
RTVSPropertyOp5
 70
     1
102
RTVSPropertyOp6
 70
     1
102
RTVSPropertyOp7
 70
     1
102
RTVSPropertyOp8
 70
     1
102
RTVSPropertyOp9
 70
     1
102
RTVSPropertyOp10
 70
     1
102
RTVSPropertyOp11
 70
     1
102
RTVSPropertyOp12
 70
     1
102
RTVSPropertyOp13
 70
     1
102
RTVSPropertyOp14
 70
     1
102
RTVSPropertyOp15
 70
     1
102
RTVSPropertyOp16
 70
     1
102
RTVSPropertyOp17
 70
     1
102
RTVSPropertyOp18
 70
     1
102
RTVSPropertyOp19
 70
     1
102
RTVSPropertyOp20
 70
     1
102
RTVSPropertyOp21
 70
     1
102
RTVSPropertyOp22
 70
     1
102
RTVSPropertyOp23
 70
     1
102
RTVSPropertyOp24
 70
     1
102
RTVSPropertyOp25
 70
     1
102
RTVSPropertyOp26
 70
     1
102
RTVSPropertyOp27
 70
     1
102
RTVSPropertyOp28
 70
     1
102
RTVSPropertyOp29
 70
     1
102
RTVSPropertyOp30
 70
     1
102
RTVSPropertyOp31
 70
     1
102
RTVSPropertyOp32
 70
     1
  0
XRECORD
  5
76
102
{ACAD_REACTORS
330
75
102
}
330
75
100
AcDbXrecord
280
     1
102
RTVSPropertyOp0
 70
     1
102
RTVSPropertyOp1
 70
     1
102
RTVSPropertyOp2
 70
     1
102
RTVSPropertyOp3
 70
     1
102
RTVSPropertyOp4
 70
     1
102
RTVSPropertyOp5
 70
     1
102
RTVSPropertyOp6
 70
     1
102
RTVSPropertyOp7
 70
     1
102
RTVSPropertyOp8
 70
     1
102
RTVSPropertyOp9
 70
     1
102
RTVSPropertyOp10
 70
     1
102
RTVSPropertyOp11
 70
     1
102
RTVSPropertyOp12
 70
     1
102
RTVSPropertyOp13
 70
     1
102
RTVSPropertyOp14
 70
     1
102
RTVSPropertyOp15
 70
     1
102
RTVSPropertyOp16
 70
     1
102
RTVSPropertyOp17
 70
     1
102
RTVSPropertyOp18
 70
     1
102
RTVSPropertyOp19
 70
     1
102
RTVSPropertyOp20
 70
     1
102
RTVSPropertyOp21
 70
     1
102
RTVSPropertyOp22
 70
     1
102
RTVSPropertyOp23
 70
     1
102
RTVSPropertyOp24
 70
     1
102
RTVSPropertyOp25
 70
     1
102
RTVSPropertyOp26
 70
     1
102
RTVSPropertyOp27
 70
     1
102
RTVSPropertyOp28
 70
     1
102
RTVSPropertyOp29
 70
     1
102
RTVSPropertyOp30
 70
     1
102
RTVSPropertyOp31
 70
     1
102
RTVSPropertyOp32
 70
     1
  0
XRECORD
  5
7E
102
{ACAD_REACTORS
330
7D
102
}
330
7D
100
AcDbXrecord
280
     1
102
RTVSPropertyOp0
 70
     1
102
RTVSPropertyOp1
 70
     1
102
RTVSPropertyOp2
 70
     1
102
RTVSPropertyOp3
 70
     1
102
RTVSPropertyOp4
 70
     1
102
RTVSPropertyOp5
 70
     1
102
RTVSPropertyOp6
 70
     1
102
RTVSPropertyOp7
 70
     1
102
RTVSPropertyOp8
 70
     1
102
RTVSPropertyOp9
 70
     1
102
RTVSPropertyOp10
 70
     1
102
RTVSPropertyOp11
 70
     1
102
RTVSPropertyOp12
 70
     1
102
RTVSPropertyOp13
 70
     1
102
RTVSPropertyOp14
 70
     1
102
RTVSPropertyOp15
 70
     1
102
RTVSPropertyOp16
 70
     1
102
RTVSPropertyOp17
 70
     1
102
RTVSPropertyOp18
 70
     1
102
RTVSPropertyOp19
 70
     1
102
RTVSPropertyOp20
 70
     1
102
RTVSPropertyOp21
 70
     1
102
RTVSPropertyOp22
 70
     1
102
RTVSPropertyOp23
 70
     1
102
RTVSPropertyOp24
 70
     1
102
RTVSPropertyOp25
 70
     1
102
RTVSPropertyOp26
 70
     1
102
RTVSPropertyOp27
 70
     1
102
RTVSPropertyOp28
 70
     1
102
RTVSPropertyOp29
 70
     1
102
RTVSPropertyOp30
 70
     1
102
RTVSPropertyOp31
 70
     1
102
RTVSPropertyOp32
 70
     1
  0
ENDSEC
  0
EOF
