  0
SECTION
  2
HEADER
  9
$ACADVER
  1
AC1021
  9
$ACADMAINTVER
 70
    25
  9
$DWGCODEPAGE
  3
ANSI_1252
  9
$INSBASE
 10
0.0
 20
0.0
 30
0.0
  9
$EXTMIN
 10
19.9646
 20
-97.0507
 30
0.0
  9
$EXTMAX
 10
196.4713
 20
123.5829
 30
0.0
  9
$LIMMIN
 10
0.0
 20
0.0
  9
$LIMMAX
 10
12.0
 20
9.0
  9
$ORTHOMODE
 70
     0
  9
$REGENMODE
 70
     1
  9
$FILLMODE
 70
     1
  9
$QTEXTMODE
 70
     0
  9
$MIRRTEXT
 70
     1
  9
$LTSCALE
 40
1.0
  9
$ATTMODE
 70
     1
  9
$TEXTSIZE
 40
0.2
  9
$TRACEWID
 40
0.05
  9
$TEXTSTYLE
  7
Standard
  9
$CLAYER
  8
0
  9
$CELTYPE
  6
ByLayer
  9
$CECOLOR
 62
   256
  9
$CELTSCALE
 40
1.0
  9
$DISPSILH
 70
     0
  9
$DIMSCALE
 40
1.0
  9
$DIMASZ
 40
0.18
  9
$DIMEXO
 40
0.0625
  9
$DIMDLI
 40
0.38
  9
$DIMRND
 40
0.0
  9
$DIMDLE
 40
0.0
  9
$DIMEXE
 40
0.18
  9
$DIMTP
 40
0.0
  9
$DIMTM
 40
0.0
  9
$DIMTXT
 40
0.18
  9
$DIMCEN
 40
0.09
  9
$DIMTSZ
 40
0.0
  9
$DIMTOL
 70
     0
  9
$DIMLIM
 70
     0
  9
$DIMTIH
 70
     1
  9
$DIMTOH
 70
     1
  9
$DIMSE1
 70
     0
  9
$DIMSE2
 70
     0
  9
$DIMTAD
 70
     0
  9
$DIMZIN
 70
     0
  9
$DIMBLK
  1

  9
$DIMASO
 70
     1
  9
$DIMSHO
 70
     1
  9
$DIMPOST
  1

  9
$DIMAPOST
  1

  9
$DIMALT
 70
     0
  9
$DIMALTD
 70
     2
  9
$DIMALTF
 40
25.4
  9
$DIMLFAC
 40
1.0
  9
$DIMTOFL
 70
     0
  9
$DIMTVP
 40
0.0
  9
$DIMTIX
 70
     0
  9
$DIMSOXD
 70
     0
  9
$DIMSAH
 70
     0
  9
$DIMBLK1
  1

  9
$DIMBLK2
  1

  9
$DIMSTYLE
  2
Standard
  9
$DIMCLRD
 70
     0
  9
$DIMCLRE
 70
     0
  9
$DIMCLRT
 70
     0
  9
$DIMTFAC
 40
1.0
  9
$DIMGAP
 40
0.09
  9
$DIMJUST
 70
     0
  9
$DIMSD1
 70
     0
  9
$DIMSD2
 70
     0
  9
$DIMTOLJ
 70
     1
  9
$DIMTZIN
 70
     0
  9
$DIMALTZ
 70
     0
  9
$DIMALTTZ
 70
     0
  9
$DIMUPT
 70
     0
  9
$DIMDEC
 70
     4
  9
$DIMTDEC
 70
     4
  9
$DIMALTU
 70
     2
  9
$DIMALTTD
 70
     2
  9
$DIMTXSTY
  7
Standard
  9
$DIMAUNIT
 70
     0
  9
$DIMADEC
 70
     0
  9
$DIMALTRND
 40
0.0
  9
$DIMAZIN
 70
     0
  9
$DIMDSEP
 70
    46
  9
$DIMATFIT
 70
     3
  9
$DIMFRAC
 70
     0
  9
$DIMLDRBLK
  1

  9
$DIMLUNIT
 70
     2
  9
$DIMLWD
 70
    -2
  9
$DIMLWE
 70
    -2
  9
$DIMTMOVE
 70
     0
  9
$DIMFXL
 40
1.0
  9
$DIMFXLON
 70
     0
  9
$DIMJOGANG
 40
0.7853981633974483
  9
$DIMTFILL
 70
     0
  9
$DIMTFILLCLR
 70
     0
  9
$DIMARCSYM
 70
     0
  9
$DIMLTYPE
  6

  9
$DIMLTEX1
  6

  9
$DIMLTEX2
  6

  9
$LUNITS
 70
     2
  9
$LUPREC
 70
     4
  9
$SKETCHINC
 40
0.1
  9
$FILLETRAD
 40
0.5
  9
$AUNITS
 70
     0
  9
$AUPREC
 70
     0
  9
$MENU
  1
.
  9
$ELEVATION
 40
0.0
  9
$PELEVATION
 40
0.0
  9
$THICKNESS
 40
0.0
  9
$LIMCHECK
 70
     0
  9
$CHAMFERA
 40
0.5
  9
$CHAMFERB
 40
0.5
  9
$CHAMFERC
 40
1.0
  9
$CHAMFERD
 40
0.0
  9
$SKPOLY
 70
     0
  9
$TDCREATE
 40
2458493.702439456
  9
$TDUCREATE
 40
2458493.702439456
  9
$TDUPDATE
 40
2458493.70243985
  9
$TDUUPDATE
 40
2458493.70243985
  9
$TDINDWG
 40
0.0000000116
  9
$TDUSRTIMER
 40
0.0000000116
  9
$USRTIMER
 70
     1
  9
$ANGBASE
 50
0.0
  9
$ANGDIR
 70
     0
  9
$PDMODE
 70
     0
  9
$PDSIZE
 40
0.0
  9
$PLINEWID
 40
0.0
  9
$SPLFRAME
 70
     0
  9
$SPLINETYPE
 70
     6
  9
$SPLINESEGS
 70
     8
  9
$HANDSEED
  5
125
  9
$SURFTAB1
 70
     6
  9
$SURFTAB2
 70
     6
  9
$SURFTYPE
 70
     6
  9
$SURFU
 70
     6
  9
$SURFV
 70
     6
  9
$UCSBASE
  2

  9
$UCSNAME
  2

  9
$UCSORG
 10
0.0
 20
0.0
 30
0.0
  9
$UCSXDIR
 10
1.0
 20
0.0
 30
0.0
  9
$UCSYDIR
 10
0.0
 20
1.0
 30
0.0
  9
$UCSORTHOREF
  2

  9
$UCSORTHOVIEW
 70
     0
  9
$UCSORGTOP
 10
0.0
 20
0.0
 30
0.0
  9
$UCSORGBOTTOM
 10
0.0
 20
0.0
 30
0.0
  9
$UCSORGLEFT
 10
0.0
 20
0.0
 30
0.0
  9
$UCSORGRIGHT
 10
0.0
 20
0.0
 30
0.0
  9
$UCSORGFRONT
 10
0.0
 20
0.0
 30
0.0
  9
$UCSORGBACK
 10
0.0
 20
0.0
 30
0.0
  9
$PUCSBASE
  2

  9
$PUCSNAME
  2

  9
$PUCSORG
 10
0.0
 20
0.0
 30
0.0
  9
$PUCSXDIR
 10
1.0
 20
0.0
 30
0.0
  9
$PUCSYDIR
 10
0.0
 20
1.0
 30
0.0
  9
$PUCSORTHOREF
  2

  9
$PUCSORTHOVIEW
 70
     0
  9
$PUCSORGTOP
 10
0.0
 20
0.0
 30
0.0
  9
$PUCSORGBOTTOM
 10
0.0
 20
0.0
 30
0.0
  9
$PUCSORGLEFT
 10
0.0
 20
0.0
 30
0.0
  9
$PUCSORGRIGHT
 10
0.0
 20
0.0
 30
0.0
  9
$PUCSORGFRONT
 10
0.0
 20
0.0
 30
0.0
  9
$PUCSORGBACK
 10
0.0
 20
0.0
 30
0.0
  9
$USERI1
 70
     0
  9
$USERI2
 70
     0
  9
$USERI3
 70
     0
  9
$USERI4
 70
     0
  9
$USERI5
 70
     0
  9
$USERR1
 40
0.0
  9
$USERR2
 40
0.0
  9
$USERR3
 40
0.0
  9
$USERR4
 40
0.0
  9
$USERR5
 40
0.0
  9
$WORLDVIEW
 70
     1
  9
$SHADEDGE
 70
     3
  9
$SHADEDIF
 70
    70
  9
$TILEMODE
 70
     1
  9
$MAXACTVP
 70
    64
  9
$PINSBASE
 10
0.0
 20
0.0
 30
0.0
  9
$PLIMCHECK
 70
     0
  9
$PEXTMIN
 10
1.000000000000000E+20
 20
1.000000000000000E+20
 30
1.000000000000000E+20
  9
$PEXTMAX
 10
-1.000000000000000E+20
 20
-1.000000000000000E+20
 30
-1.000000000000000E+20
  9
$PLIMMIN
 10
0.0
 20
0.0
  9
$PLIMMAX
 10
12.0
 20
9.0
  9
$UNITMODE
 70
     0
  9
$VISRETAIN
 70
     1
  9
$PLINEGEN
 70
     0
  9
$PSLTSCALE
 70
     1
  9
$TREEDEPTH
 70
  3020
  9
$CMLSTYLE
  2
Standard
  9
$CMLJUST
 70
     0
  9
$CMLSCALE
 40
1.0
  9
$PROXYGRAPHICS
 70
     1
  9
$MEASUREMENT
 70
     0
  9
$CELWEIGHT
370
    -1
  9
$ENDCAPS
280
     0
  9
$JOINSTYLE
280
     0
  9
$LWDISPLAY
290
     0
  9
$INSUNITS
 70
     4
  9
$HYPERLINKBASE
  1

  9
$STYLESHEET
  1

  9
$XEDIT
290
     1
  9
$CEPSNTYPE
380
     0
  9
$PSTYLEMODE
290
     1
  9
$FINGERPRINTGUID
  2
{E7CD4BA7-9E39-4A20-BD11-8271685897D1}
  9
$VERSIONGUID
  2
{FAEB1C32-E019-11D5-929B-00C0DF256EC4}
  9
$EXTNAMES
290
     1
  9
$PSVPSCALE
 40
0.0
  9
$OLESTARTUP
290
     0
  9
$SORTENTS
280
   127
  9
$INDEXCTL
280
     0
  9
$HIDETEXT
280
     1
  9
$XCLIPFRAME
290
     0
  9
$HALOGAP
280
     0
  9
$OBSCOLOR
 70
   257
  9
$OBSLTYPE
280
     0
  9
$INTERSECTIONDISPLAY
280
     0
  9
$INTERSECTIONCOLOR
 70
   257
  9
$DIMASSOC
280
     2
  9
$PROJECTNAME
  1

  9
$CAMERADISPLAY
290
     0
  9
$LENSLENGTH
 40
50.0
  9
$CAMERAHEIGHT
 40
0.0
  9
$STEPSPERSEC
 40
2.0
  9
$STEPSIZE
 40
6.0
  9
$3DDWFPREC
 40
2.0
  9
$PSOLWIDTH
 40
0.25
  9
$PSOLHEIGHT
 40
4.0
  9
$LOFTANG1
 40
1.570796326794897
  9
$LOFTANG2
 40
1.570796326794897
  9
$LOFTMAG1
 40
0.0
  9
$LOFTMAG2
 40
0.0
  9
$LOFTPARAM
 70
     7
  9
$LOFTNORMALS
280
     1
  9
$LATITUDE
 40
37.795
  9
$LONGITUDE
 40
-122.394
  9
$NORTHDIRECTION
 40
0.0
  9
$TIMEZONE
 70
 -8000
  9
$LIGHTGLYPHDISPLAY
280
     1
  9
$TILEMODELIGHTSYNCH
280
     1
  9
$SOLIDHIST
280
     1
  9
$SHOWHIST
280
     1
  9
$DWFFRAME
280
     2
  9
$DGNFRAME
280
     2
  9
$REALWORLDSCALE
290
     1
  9
$INTERFERECOLOR
 62
   256
  9
$CSHADOW
280
     0
  9
$SHADOWPLANELOCATION
 40
0.0
  0
ENDSEC
  0
SECTION
  2
CLASSES
  0
CLASS
  1
ACDBDICTIONARYWDFLT
  2
AcDbDictionaryWithDefault
  3
ObjectDBX Classes
 90
        0
 91
        4
280
     0
281
     0
  0
CLASS
  1
VISUALSTYLE
  2
AcDbVisualStyle
  3
ObjectDBX Classes
 90
     4095
 91
        4
280
     0
281
     0
  0
CLASS
  1
MATERIAL
  2
AcDbMaterial
  3
ObjectDBX Classes
 90
     1153
 91
        4
280
     0
281
     0
  0
ENDSEC
  0
SECTION
  2
TABLES
  0
TABLE
  2
VPORT
  5
8
330
0
100
AcDbSymbolTable
 70
     1
  0
VPORT
  5
29
330
8
100
AcDbSymbolTableRecord
100
AcDbViewportTableRecord
  2
*Active
 70
     0
 10
0.0
 20
0.0
 11
1.0
 21
1.0
 12
10.42990654205607
 22
4.5
 13
0.0
 23
0.0
 14
0.5
 24
0.5
 15
0.5
 25
0.5
 16
0.0
 26
0.0
 36
1.0
 17
0.0
 27
0.0
 37
0.0
 40
9.0
 41
1.972972972850329
 42
50.0
 43
0.0
 44
0.0
 50
0.0
 51
0.0
 71
     0
 72
   100
 73
     1
 74
     3
 75
     0
 76
     0
 77
     0
 78
     0
281
     0
 65
     1
110
0.0
120
0.0
130
0.0
111
1.0
121
0.0
131
0.0
112
0.0
122
1.0
132
0.0
 79
     0
146
0.0
 60
     3
 61
     5
292
     1
282
     1
141
0.0
142
0.0
 63
   250
  0
ENDTAB
  0
TABLE
  2
LTYPE
  5
5
330
0
100
AcDbSymbolTable
 70
     1
  0
LTYPE
  5
14
330
5
100
AcDbSymbolTableRecord
100
AcDbLinetypeTableRecord
  2
ByBlock
 70
     0
  3

 72
    65
 73
     0
 40
0.0
  0
LTYPE
  5
15
330
5
100
AcDbSymbolTableRecord
100
AcDbLinetypeTableRecord
  2
ByLayer
 70
     0
  3

 72
    65
 73
     0
 40
0.0
  0
LTYPE
  5
16
330
5
100
AcDbSymbolTableRecord
100
AcDbLinetypeTableRecord
  2
Continuous
 70
     0
  3
Solid line
 72
    65
 73
     0
 40
0.0
  0
ENDTAB
  0
TABLE
  2
LAYER
  5
2
330
0
100
AcDbSymbolTable
 70
     3
  0
LAYER
  5
10
330
2
100
AcDbSymbolTableRecord
100
AcDbLayerTableRecord
  2
0
 70
     0
 62
     7
  6
Continuous
370
    -3
390
F
347
3E
  0
LAYER
  5
40
330
2
100
AcDbSymbolTableRecord
100
AcDbLayerTableRecord
  2
layer 1
 70
     0
 62
     7
  6
Continuous
370
    -3
390
F
347
3E
  0
LAYER
  5
102
330
2
100
AcDbSymbolTableRecord
100
AcDbLayerTableRecord
  2
Master Guides
 70
     0
 62
     7
  6
Continuous
370
    -3
390
F
347
3E
  0
ENDTAB
  0
TABLE
  2
STYLE
  5
3
330
0
100
AcDbSymbolTable
 70
     1
  0
STYLE
  5
11
330
3
100
AcDbSymbolTableRecord
100
AcDbTextStyleTableRecord
  2
Standard
 70
     0
 40
0.0
 41
1.0
 50
0.0
 71
     0
 42
0.2
  3
txt
  4

  0
ENDTAB
  0
TABLE
  2
VIEW
  5
6
330
0
100
AcDbSymbolTable
 70
     0
  0
ENDTAB
  0
TABLE
  2
UCS
  5
7
330
0
100
AcDbSymbolTable
 70
     0
  0
ENDTAB
  0
TABLE
  2
APPID
  5
9
330
0
100
AcDbSymbolTable
 70
     2
  0
APPID
  5
12
330
9
100
AcDbSymbolTableRecord
100
AcDbRegAppTableRecord
  2
ACAD
 70
     0
  0
APPID
  5
3F
330
9
100
AcDbSymbolTableRecord
100
AcDbRegAppTableRecord
  2
ODA
 70
     0
  0
ENDTAB
  0
TABLE
  2
DIMSTYLE
  5
A
330
0
100
AcDbSymbolTable
 70
     1
100
AcDbDimStyleTable
  0
DIMSTYLE
105
27
330
A
100
AcDbSymbolTableRecord
100
AcDbDimStyleTableRecord
  2
Standard
 70
     0
178
     0
340
11
  0
ENDTAB
  0
TABLE
  2
BLOCK_RECORD
  5
1
330
0
100
AcDbSymbolTable
 70
     1
  0
BLOCK_RECORD
  5
1F
330
1
100
AcDbSymbolTableRecord
100
AcDbBlockTableRecord
  2
*Model_Space
340
22
 70
     0
280
     1
281
     0
  0
BLOCK_RECORD
  5
1B
330
1
100
AcDbSymbolTableRecord
100
AcDbBlockTableRecord
  2
*Paper_Space
340
1E
 70
     0
280
     1
281
     0
  0
BLOCK_RECORD
  5
23
330
1
100
AcDbSymbolTableRecord
100
AcDbBlockTableRecord
  2
*Paper_Space0
340
26
 70
     0
280
     1
281
     0
  0
ENDTAB
  0
ENDSEC
  0
SECTION
  2
BLOCKS
  0
BLOCK
  5
20
330
1F
100
AcDbEntity
  8
0
100
AcDbBlockBegin
  2
*Model_Space
 70
     0
 10
0.0
 20
0.0
 30
0.0
  3
*Model_Space
  1

  0
ENDBLK
  5
21
330
1F
100
AcDbEntity
  8
0
100
AcDbBlockEnd
  0
BLOCK
  5
1C
330
1B
100
AcDbEntity
 67
     1
  8
0
100
AcDbBlockBegin
  2
*Paper_Space
 70
     0
 10
0.0
 20
0.0
 30
0.0
  3
*Paper_Space
  1

  0
ENDBLK
  5
1D
330
1B
100
AcDbEntity
 67
     1
  8
0
100
AcDbBlockEnd
  0
BLOCK
  5
24
330
23
100
AcDbEntity
  8
0
100
AcDbBlockBegin
  2
*Paper_Space0
 70
     0
 10
0.0
 20
0.0
 30
0.0
  3
*Paper_Space0
  1

  0
ENDBLK
  5
25
330
23
100
AcDbEntity
  8
0
100
AcDbBlockEnd
  0
ENDSEC
  0
SECTION
  2
ENTITIES
  0
SPLINE
  5
41
330
1F
100
AcDbEntity
  8
layer 1
 62
   250
100
AcDbSpline
210
0.0
220
0.0
230
1.0
 70
    11
 71
     3
 72
    28
 73
    24
 74
     0
 42
0.0000000001
 43
0.0000000001
 12
1.0
 22
0.0
 32
0.0
 13
1.0
 23
0.0
 33
0.0
 40
0.0
 40
0.0
 40
0.0
 40
0.0
 40
0.1428571428571428
 40
0.1428571428571428
 40
0.1428571428571428
 40
0.1428571428571428
 40
0.2857142857142857
 40
0.2857142857142857
 40
0.2857142857142857
 40
0.2857142857142857
 40
0.4285714285714285
 40
0.4285714285714285
 40
0.4285714285714285
 40
0.4285714285714285
 40
0.5714285714285714
 40
0.5714285714285714
 40
0.5714285714285714
 40
0.5714285714285714
 40
0.7142857142857143
 40
0.7142857142857143
 40
0.7142857142857143
 40
0.7142857142857143
 40
1.0
 40
1.0
 40
1.0
 40
1.0
 10
19.9646
 20
-97.0507
 30
0.0
 10
19.9646
 20
-97.0507
 30
0.0
 10
19.9646
 20
-97.0507
 30
0.0
 10
19.9646
 20
-97.0507
 30
0.0
 10
19.9646
 20
-97.0507
 30
0.0
 10
19.9646
 20
-97.0507
 30
0.0
 10
19.9646
 20
123.5829
 30
0.0
 10
19.9646
 20
123.5829
 30
0.0
 10
19.9646
 20
123.5829
 30
0.0
 10
19.9646
 20
123.5829
 30
0.0
 10
196.4713
 20
123.5829
 30
0.0
 10
196.4713
 20
123.5829
 30
0.0
 10
196.4713
 20
123.5829
 30
0.0
 10
196.4713
 20
123.5829
 30
0.0
 10
196.4713
 20
-97.0507
 30
0.0
 10
196.4713
 20
-97.0507
 30
0.0
 10
196.4713
 20
-97.0507
 30
0.0
 10
196.4713
 20
-97.0507
 30
0.0
 10
19.9646
 20
-97.0507
 30
0.0
 10
19.9646
 20
-97.0507
 30
0.0
 10
19.9646
 20
-97.0507
 30
0.0
 10
19.9646
 20
-97.0507
 30
0.0
 10
19.9646
 20
-97.0507
 30
0.0
 10
19.9646
 20
-97.0507
 30
0.0
  0
SPLINE
  5
42
330
1F
100
AcDbEntity
  8
layer 1
 62
     7
100
AcDbSpline
210
0.0
220
0.0
230
1.0
 70
    11
 71
     3
 72
    24
 73
    20
 74
     0
 42
0.0000000001
 43
0.0000000001
 12
1.0
 22
0.0
 32
0.0
 13
1.0
 23
0.0
 33
0.0
 40
0.0
 40
0.0
 40
0.0
 40
0.0
 40
0.1666666666666667
 40
0.1666666666666667
 40
0.1666666666666667
 40
0.1666666666666667
 40
0.3333333333333333
 40
0.3333333333333333
 40
0.3333333333333333
 40
0.3333333333333333
 40
0.5
 40
0.5
 40
0.5
 40
0.5
 40
0.6666666666666666
 40
0.6666666666666666
 40
0.6666666666666666
 40
0.6666666666666666
 40
1.0
 40
1.0
 40
1.0
 40
1.0
 10
31.4048
 20
75.274
 30
0.0
 10
31.4048
 20
75.274
 30
0.0
 10
36.5635
 20
75.274
 30
0.0
 10
36.5635
 20
75.274
 30
0.0
 10
36.5635
 20
75.274
 30
0.0
 10
36.5635
 20
75.274
 30
0.0
 10
36.5635
 20
65.3193
 30
0.0
 10
36.5635
 20
65.3193
 30
0.0
 10
36.5635
 20
65.3193
 30
0.0
 10
36.5635
 20
65.3193
 30
0.0
 10
31.4048
 20
65.3193
 30
0.0
 10
31.4048
 20
65.3193
 30
0.0
 10
31.4048
 20
65.3193
 30
0.0
 10
31.4048
 20
65.3193
 30
0.0
 10
31.4048
 20
75.274
 30
0.0
 10
31.4048
 20
75.274
 30
0.0
 10
31.4048
 20
75.274
 30
0.0
 10
31.4048
 20
75.274
 30
0.0
 10
31.4048
 20
75.274
 30
0.0
 10
31.4048
 20
75.274
 30
0.0
  0
SPLINE
  5
43
330
1F
100
AcDbEntity
  8
layer 1
 62
     7
100
AcDbSpline
210
0.0
220
0.0
230
1.0
 70
    11
 71
     3
 72
    32
 73
    28
 74
     0
 42
0.0000000001
 43
0.0000000001
 12
1.0
 22
0.0
 32
0.0
 13
1.0
 23
0.0
 33
0.0
 40
0.0
 40
0.0
 40
0.0
 40
0.0
 40
0.125
 40
0.125
 40
0.125
 40
0.125
 40
0.25
 40
0.25
 40
0.25
 40
0.25
 40
0.375
 40
0.375
 40
0.375
 40
0.375
 40
0.5
 40
0.5
 40
0.5
 40
0.5
 40
0.625
 40
0.625
 40
0.625
 40
0.625
 40
0.75
 40
0.75
 40
0.75
 40
0.75
 40
1.0
 40
1.0
 40
1.0
 40
1.0
 10
28.9532
 20
-69.8802
 30
0.0
 10
28.9532
 20
-69.8802
 30
0.0
 10
22.9063
 20
-69.8802
 30
0.0
 10
22.9063
 20
-69.8802
 30
0.0
 10
22.9063
 20
-69.8802
 30
0.0
 10
22.9063
 20
-69.8802
 30
0.0
 10
22.9063
 20
-94.5993
 30
0.0
 10
22.9063
 20
-94.5993
 30
0.0
 10
22.9063
 20
-94.5993
 30
0.0
 10
22.9063
 20
-94.5993
 30
0.0
 10
35.2863
 20
-94.5993
 30
0.0
 10
35.2863
 20
-94.5993
 30
0.0
 10
35.2863
 20
-94.5993
 30
0.0
 10
35.2863
 20
-94.5993
 30
0.0
 10
35.2863
 20
-77.439
 30
0.0
 10
35.2863
 20
-77.439
 30
0.0
 10
35.2863
 20
-77.439
 30
0.0
 10
35.2863
 20
-77.439
 30
0.0
 10
28.9532
 20
-77.439
 30
0.0
 10
28.9532
 20
-77.439
 30
0.0
 10
28.9532
 20
-77.439
 30
0.0
 10
28.9532
 20
-77.439
 30
0.0
 10
28.9532
 20
-69.8802
 30
0.0
 10
28.9532
 20
-69.8802
 30
0.0
 10
28.9532
 20
-69.8802
 30
0.0
 10
28.9532
 20
-69.8802
 30
0.0
 10
28.9532
 20
-69.8802
 30
0.0
 10
28.9532
 20
-69.8802
 30
0.0
  0
SPLINE
  5
44
330
1F
100
AcDbEntity
  8
layer 1
 62
     7
100
AcDbSpline
210
0.0
220
0.0
230
1.0
 70
    11
 71
     3
 72
    32
 73
    28
 74
     0
 42
0.0000000001
 43
0.0000000001
 12
1.0
 22
0.0
 32
0.0
 13
1.0
 23
0.0
 33
0.0
 40
0.0
 40
0.0
 40
0.0
 40
0.0
 40
0.125
 40
0.125
 40
0.125
 40
0.125
 40
0.25
 40
0.25
 40
0.25
 40
0.25
 40
0.375
 40
0.375
 40
0.375
 40
0.375
 40
0.5
 40
0.5
 40
0.5
 40
0.5
 40
0.625
 40
0.625
 40
0.625
 40
0.625
 40
0.75
 40
0.75
 40
0.75
 40
0.75
 40
1.0
 40
1.0
 40
1.0
 40
1.0
 10
124.561
 20
121.1313
 30
0.0
 10
124.561
 20
121.1313
 30
0.0
 10
138.4529
 20
121.1313
 30
0.0
 10
138.4529
 20
121.1313
 30
0.0
 10
138.4529
 20
121.1313
 30
0.0
 10
138.4529
 20
121.1313
 30
0.0
 10
138.4529
 20
103.0924
 30
0.0
 10
138.4529
 20
103.0924
 30
0.0
 10
138.4529
 20
103.0924
 30
0.0
 10
138.4529
 20
103.0924
 30
0.0
 10
133.1413
 20
103.0924
 30
0.0
 10
133.1413
 20
103.0924
 30
0.0
 10
133.1413
 20
103.0924
 30
0.0
 10
133.1413
 20
103.0924
 30
0.0
 10
133.1413
 20
113.0005
 30
0.0
 10
133.1413
 20
113.0005
 30
0.0
 10
133.1413
 20
113.0005
 30
0.0
 10
133.1413
 20
113.0005
 30
0.0
 10
124.5613
 20
113.0005
 30
0.0
 10
124.5613
 20
113.0005
 30
0.0
 10
124.5613
 20
113.0005
 30
0.0
 10
124.5613
 20
113.0005
 30
0.0
 10
124.5613
 20
121.1313
 30
0.0
 10
124.5613
 20
121.1313
 30
0.0
 10
124.5613
 20
121.1313
 30
0.0
 10
124.5613
 20
121.1313
 30
0.0
 10
124.561
 20
121.1313
 30
0.0
 10
124.561
 20
121.1313
 30
0.0
  0
SPLINE
  5
45
330
1F
100
AcDbEntity
  8
layer 1
 62
     7
100
AcDbSpline
210
0.0
220
0.0
230
1.0
 70
    11
 71
     3
 72
    32
 73
    28
 74
     0
 42
0.0000000001
 43
0.0000000001
 12
1.0
 22
0.0
 32
0.0
 13
1.0
 23
0.0
 33
0.0
 40
0.0
 40
0.0
 40
0.0
 40
0.0
 40
0.125
 40
0.125
 40
0.125
 40
0.125
 40
0.25
 40
0.25
 40
0.25
 40
0.25
 40
0.375
 40
0.375
 40
0.375
 40
0.375
 40
0.5
 40
0.5
 40
0.5
 40
0.5
 40
0.625
 40
0.625
 40
0.625
 40
0.625
 40
0.75
 40
0.75
 40
0.75
 40
0.75
 40
1.0
 40
1.0
 40
1.0
 40
1.0
 10
148.6674
 20
-69.8802
 30
0.0
 10
148.6674
 20
-69.8802
 30
0.0
 10
148.6674
 20
-94.5993
 30
0.0
 10
148.6674
 20
-94.5993
 30
0.0
 10
148.6674
 20
-94.5993
 30
0.0
 10
148.6674
 20
-94.5993
 30
0.0
 10
161.1291
 20
-94.5993
 30
0.0
 10
161.1291
 20
-94.5993
 30
0.0
 10
161.1291
 20
-94.5993
 30
0.0
 10
161.1291
 20
-94.5993
 30
0.0
 10
161.1291
 20
-77.439
 30
0.0
 10
161.1291
 20
-77.439
 30
0.0
 10
161.1291
 20
-77.439
 30
0.0
 10
161.1291
 20
-77.439
 30
0.0
 10
154.7961
 20
-77.439
 30
0.0
 10
154.7961
 20
-77.439
 30
0.0
 10
154.7961
 20
-77.439
 30
0.0
 10
154.7961
 20
-77.439
 30
0.0
 10
154.7961
 20
-69.8802
 30
0.0
 10
154.7961
 20
-69.8802
 30
0.0
 10
154.7961
 20
-69.8802
 30
0.0
 10
154.7961
 20
-69.8802
 30
0.0
 10
148.6674
 20
-69.8802
 30
0.0
 10
148.6674
 20
-69.8802
 30
0.0
 10
148.6674
 20
-69.8802
 30
0.0
 10
148.6674
 20
-69.8802
 30
0.0
 10
148.6674
 20
-69.8802
 30
0.0
 10
148.6674
 20
-69.8802
 30
0.0
  0
SPLINE
  5
46
330
1F
100
AcDbEntity
  8
layer 1
 62
     7
100
AcDbSpline
210
0.0
220
0.0
230
1.0
 70
    11
 71
     3
 72
    32
 73
    28
 74
     0
 42
0.0000000001
 43
0.0000000001
 12
1.0
 22
0.0
 32
0.0
 13
1.0
 23
0.0
 33
0.0
 40
0.0
 40
0.0
 40
0.0
 40
0.0
 40
0.125
 40
0.125
 40
0.125
 40
0.125
 40
0.25
 40
0.25
 40
0.25
 40
0.25
 40
0.375
 40
0.375
 40
0.375
 40
0.375
 40
0.5
 40
0.5
 40
0.5
 40
0.5
 40
0.625
 40
0.625
 40
0.625
 40
0.625
 40
0.75
 40
0.75
 40
0.75
 40
0.75
 40
1.0
 40
1.0
 40
1.0
 40
1.0
 10
85.746
 20
-69.8802
 30
0.0
 10
85.746
 20
-69.8802
 30
0.0
 10
85.746
 20
-94.5993
 30
0.0
 10
85.746
 20
-94.5993
 30
0.0
 10
85.746
 20
-94.5993
 30
0.0
 10
85.746
 20
-94.5993
 30
0.0
 10
98.2077
 20
-94.5993
 30
0.0
 10
98.2077
 20
-94.5993
 30
0.0
 10
98.2077
 20
-94.5993
 30
0.0
 10
98.2077
 20
-94.5993
 30
0.0
 10
98.2077
 20
-77.439
 30
0.0
 10
98.2077
 20
-77.439
 30
0.0
 10
98.2077
 20
-77.439
 30
0.0
 10
98.2077
 20
-77.439
 30
0.0
 10
91.8746
 20
-77.439
 30
0.0
 10
91.8746
 20
-77.439
 30
0.0
 10
91.8746
 20
-77.439
 30
0.0
 10
91.8746
 20
-77.439
 30
0.0
 10
91.8746
 20
-69.8802
 30
0.0
 10
91.8746
 20
-69.8802
 30
0.0
 10
91.8746
 20
-69.8802
 30
0.0
 10
91.8746
 20
-69.8802
 30
0.0
 10
85.746
 20
-69.8802
 30
0.0
 10
85.746
 20
-69.8802
 30
0.0
 10
85.746
 20
-69.8802
 30
0.0
 10
85.746
 20
-69.8802
 30
0.0
 10
85.746
 20
-69.8802
 30
0.0
 10
85.746
 20
-69.8802
 30
0.0
  0
SPLINE
  5
47
330
1F
100
AcDbEntity
  8
layer 1
 62
     7
100
AcDbSpline
210
0.0
220
0.0
230
1.0
 70
    11
 71
     3
 72
    24
 73
    20
 74
     0
 42
0.0000000001
 43
0.0000000001
 12
1.0
 22
0.0
 32
0.0
 13
1.0
 23
0.0
 33
0.0
 40
0.0
 40
0.0
 40
0.0
 40
0.0
 40
0.1666666666666667
 40
0.1666666666666667
 40
0.1666666666666667
 40
0.1666666666666667
 40
0.3333333333333333
 40
0.3333333333333333
 40
0.3333333333333333
 40
0.3333333333333333
 40
0.5
 40
0.5
 40
0.5
 40
0.5
 40
0.6666666666666666
 40
0.6666666666666666
 40
0.6666666666666666
 40
0.6666666666666666
 40
1.0
 40
1.0
 40
1.0
 40
1.0
 10
77.983
 20
-79.7881
 30
0.0
 10
77.983
 20
-79.7881
 30
0.0
 10
83.2946
 20
-79.7881
 30
0.0
 10
83.2946
 20
-79.7881
 30
0.0
 10
83.2946
 20
-79.7881
 30
0.0
 10
83.2946
 20
-79.7881
 30
0.0
 10
83.2946
 20
-94.5993
 30
0.0
 10
83.2946
 20
-94.5993
 30
0.0
 10
83.2946
 20
-94.5993
 30
0.0
 10
83.2946
 20
-94.5993
 30
0.0
 10
77.983
 20
-94.5993
 30
0.0
 10
77.983
 20
-94.5993
 30
0.0
 10
77.983
 20
-94.5993
 30
0.0
 10
77.983
 20
-94.5993
 30
0.0
 10
77.983
 20
-79.7881
 30
0.0
 10
77.983
 20
-79.7881
 30
0.0
 10
77.983
 20
-79.7881
 30
0.0
 10
77.983
 20
-79.7881
 30
0.0
 10
77.983
 20
-79.7881
 30
0.0
 10
77.983
 20
-79.7881
 30
0.0
  0
SPLINE
  5
48
330
1F
100
AcDbEntity
  8
layer 1
 62
     7
100
AcDbSpline
210
0.0
220
0.0
230
1.0
 70
    11
 71
     3
 72
    24
 73
    20
 74
     0
 42
0.0000000001
 43
0.0000000001
 12
1.0
 22
0.0
 32
0.0
 13
1.0
 23
0.0
 33
0.0
 40
0.0
 40
0.0
 40
0.0
 40
0.0
 40
0.1666666666666667
 40
0.1666666666666667
 40
0.1666666666666667
 40
0.1666666666666667
 40
0.3333333333333333
 40
0.3333333333333333
 40
0.3333333333333333
 40
0.3333333333333333
 40
0.5
 40
0.5
 40
0.5
 40
0.5
 40
0.6666666666666666
 40
0.6666666666666666
 40
0.6666666666666666
 40
0.6666666666666666
 40
1.0
 40
1.0
 40
1.0
 40
1.0
 10
179.9239
 20
-57.4185
 30
0.0
 10
179.9239
 20
-57.4185
 30
0.0
 10
185.0311
 20
-57.4185
 30
0.0
 10
185.0311
 20
-57.4185
 30
0.0
 10
185.0311
 20
-57.4185
 30
0.0
 10
185.0311
 20
-57.4185
 30
0.0
 10
185.0311
 20
-67.4286
 30
0.0
 10
185.0311
 20
-67.4286
 30
0.0
 10
185.0311
 20
-67.4286
 30
0.0
 10
185.0311
 20
-67.4286
 30
0.0
 10
179.9239
 20
-67.4286
 30
0.0
 10
179.9239
 20
-67.4286
 30
0.0
 10
179.9239
 20
-67.4286
 30
0.0
 10
179.9239
 20
-67.4286
 30
0.0
 10
179.9239
 20
-57.4185
 30
0.0
 10
179.9239
 20
-57.4185
 30
0.0
 10
179.9239
 20
-57.4185
 30
0.0
 10
179.9239
 20
-57.4185
 30
0.0
 10
179.9239
 20
-57.4185
 30
0.0
 10
179.9239
 20
-57.4185
 30
0.0
  0
SPLINE
  5
49
330
1F
100
AcDbEntity
  8
layer 1
 62
     7
100
AcDbSpline
210
0.0
220
0.0
230
1.0
 70
    11
 71
     3
 72
    24
 73
    20
 74
     0
 42
0.0000000001
 43
0.0000000001
 12
1.0
 22
0.0
 32
0.0
 13
1.0
 23
0.0
 33
0.0
 40
0.0
 40
0.0
 40
0.0
 40
0.0
 40
0.1666666666666667
 40
0.1666666666666667
 40
0.1666666666666667
 40
0.1666666666666667
 40
0.3333333333333333
 40
0.3333333333333333
 40
0.3333333333333333
 40
0.3333333333333333
 40
0.5
 40
0.5
 40
0.5
 40
0.5
 40
0.6666666666666666
 40
0.6666666666666666
 40
0.6666666666666666
 40
0.6666666666666666
 40
1.0
 40
1.0
 40
1.0
 40
1.0
 10
157.2477
 20
-57.4185
 30
0.0
 10
157.2477
 20
-57.4185
 30
0.0
 10
162.3548
 20
-57.4185
 30
0.0
 10
162.3548
 20
-57.4185
 30
0.0
 10
162.3548
 20
-57.4185
 30
0.0
 10
162.3548
 20
-57.4185
 30
0.0
 10
162.3548
 20
-67.4286
 30
0.0
 10
162.3548
 20
-67.4286
 30
0.0
 10
162.3548
 20
-67.4286
 30
0.0
 10
162.3548
 20
-67.4286
 30
0.0
 10
157.2477
 20
-67.4286
 30
0.0
 10
157.2477
 20
-67.4286
 30
0.0
 10
157.2477
 20
-67.4286
 30
0.0
 10
157.2477
 20
-67.4286
 30
0.0
 10
157.2477
 20
-57.4185
 30
0.0
 10
157.2477
 20
-57.4185
 30
0.0
 10
157.2477
 20
-57.4185
 30
0.0
 10
157.2477
 20
-57.4185
 30
0.0
 10
157.2477
 20
-57.4185
 30
0.0
 10
157.2477
 20
-57.4185
 30
0.0
  0
SPLINE
  5
4A
330
1F
100
AcDbEntity
  8
layer 1
 62
     7
100
AcDbSpline
210
0.0
220
0.0
230
1.0
 70
    11
 71
     3
 72
    24
 73
    20
 74
     0
 42
0.0000000001
 43
0.0000000001
 12
1.0
 22
0.0
 32
0.0
 13
1.0
 23
0.0
 33
0.0
 40
0.0
 40
0.0
 40
0.0
 40
0.0
 40
0.1666666666666667
 40
0.1666666666666667
 40
0.1666666666666667
 40
0.1666666666666667
 40
0.3333333333333333
 40
0.3333333333333333
 40
0.3333333333333333
 40
0.3333333333333333
 40
0.5
 40
0.5
 40
0.5
 40
0.5
 40
0.6666666666666666
 40
0.6666666666666666
 40
0.6666666666666666
 40
0.6666666666666666
 40
1.0
 40
1.0
 40
1.0
 40
1.0
 10
117.0025
 20
-57.4185
 30
0.0
 10
117.0025
 20
-57.4185
 30
0.0
 10
122.1097
 20
-57.4185
 30
0.0
 10
122.1097
 20
-57.4185
 30
0.0
 10
122.1097
 20
-57.4185
 30
0.0
 10
122.1097
 20
-57.4185
 30
0.0
 10
122.1097
 20
-67.4286
 30
0.0
 10
122.1097
 20
-67.4286
 30
0.0
 10
122.1097
 20
-67.4286
 30
0.0
 10
122.1097
 20
-67.4286
 30
0.0
 10
117.0025
 20
-67.4286
 30
0.0
 10
117.0025
 20
-67.4286
 30
0.0
 10
117.0025
 20
-67.4286
 30
0.0
 10
117.0025
 20
-67.4286
 30
0.0
 10
117.0025
 20
-57.4185
 30
0.0
 10
117.0025
 20
-57.4185
 30
0.0
 10
117.0025
 20
-57.4185
 30
0.0
 10
117.0025
 20
-57.4185
 30
0.0
 10
117.0025
 20
-57.4185
 30
0.0
 10
117.0025
 20
-57.4185
 30
0.0
  0
SPLINE
  5
4B
330
1F
100
AcDbEntity
  8
layer 1
 62
     7
100
AcDbSpline
210
0.0
220
0.0
230
1.0
 70
    11
 71
     3
 72
    24
 73
    20
 74
     0
 42
0.0000000001
 43
0.0000000001
 12
1.0
 22
0.0
 32
0.0
 13
1.0
 23
0.0
 33
0.0
 40
0.0
 40
0.0
 40
0.0
 40
0.0
 40
0.1666666666666667
 40
0.1666666666666667
 40
0.1666666666666667
 40
0.1666666666666667
 40
0.3333333333333333
 40
0.3333333333333333
 40
0.3333333333333333
 40
0.3333333333333333
 40
0.5
 40
0.5
 40
0.5
 40
0.5
 40
0.6666666666666666
 40
0.6666666666666666
 40
0.6666666666666666
 40
0.6666666666666666
 40
1.0
 40
1.0
 40
1.0
 40
1.0
 10
94.3262
 20
-57.4185
 30
0.0
 10
94.3262
 20
-57.4185
 30
0.0
 10
99.4334
 20
-57.4185
 30
0.0
 10
99.4334
 20
-57.4185
 30
0.0
 10
99.4334
 20
-57.4185
 30
0.0
 10
99.4334
 20
-57.4185
 30
0.0
 10
99.4334
 20
-67.4286
 30
0.0
 10
99.4334
 20
-67.4286
 30
0.0
 10
99.4334
 20
-67.4286
 30
0.0
 10
99.4334
 20
-67.4286
 30
0.0
 10
94.3262
 20
-67.4286
 30
0.0
 10
94.3262
 20
-67.4286
 30
0.0
 10
94.3262
 20
-67.4286
 30
0.0
 10
94.3262
 20
-67.4286
 30
0.0
 10
94.3262
 20
-57.4185
 30
0.0
 10
94.3262
 20
-57.4185
 30
0.0
 10
94.3262
 20
-57.4185
 30
0.0
 10
94.3262
 20
-57.4185
 30
0.0
 10
94.3262
 20
-57.4185
 30
0.0
 10
94.3262
 20
-57.4185
 30
0.0
  0
SPLINE
  5
4C
330
1F
100
AcDbEntity
  8
layer 1
 62
     7
100
AcDbSpline
210
0.0
220
0.0
230
1.0
 70
    11
 71
     3
 72
    24
 73
    20
 74
     0
 42
0.0000000001
 43
0.0000000001
 12
1.0
 22
0.0
 32
0.0
 13
1.0
 23
0.0
 33
0.0
 40
0.0
 40
0.0
 40
0.0
 40
0.0
 40
0.1666666666666667
 40
0.1666666666666667
 40
0.1666666666666667
 40
0.1666666666666667
 40
0.3333333333333333
 40
0.3333333333333333
 40
0.3333333333333333
 40
0.3333333333333333
 40
0.5
 40
0.5
 40
0.5
 40
0.5
 40
0.6666666666666666
 40
0.6666666666666666
 40
0.6666666666666666
 40
0.6666666666666666
 40
1.0
 40
1.0
 40
1.0
 40
1.0
 10
54.0811
 20
-57.4185
 30
0.0
 10
54.0811
 20
-57.4185
 30
0.0
 10
59.1882
 20
-57.4185
 30
0.0
 10
59.1882
 20
-57.4185
 30
0.0
 10
59.1882
 20
-57.4185
 30
0.0
 10
59.1882
 20
-57.4185
 30
0.0
 10
59.1882
 20
-67.4286
 30
0.0
 10
59.1882
 20
-67.4286
 30
0.0
 10
59.1882
 20
-67.4286
 30
0.0
 10
59.1882
 20
-67.4286
 30
0.0
 10
54.0811
 20
-67.4286
 30
0.0
 10
54.0811
 20
-67.4286
 30
0.0
 10
54.0811
 20
-67.4286
 30
0.0
 10
54.0811
 20
-67.4286
 30
0.0
 10
54.0811
 20
-57.4185
 30
0.0
 10
54.0811
 20
-57.4185
 30
0.0
 10
54.0811
 20
-57.4185
 30
0.0
 10
54.0811
 20
-57.4185
 30
0.0
 10
54.0811
 20
-57.4185
 30
0.0
 10
54.0811
 20
-57.4185
 30
0.0
  0
SPLINE
  5
4D
330
1F
100
AcDbEntity
  8
layer 1
 62
     7
100
AcDbSpline
210
0.0
220
0.0
230
1.0
 70
    11
 71
     3
 72
    24
 73
    20
 74
     0
 42
0.0000000001
 43
0.0000000001
 12
1.0
 22
0.0
 32
0.0
 13
1.0
 23
0.0
 33
0.0
 40
0.0
 40
0.0
 40
0.0
 40
0.0
 40
0.1666666666666667
 40
0.1666666666666667
 40
0.1666666666666667
 40
0.1666666666666667
 40
0.3333333333333333
 40
0.3333333333333333
 40
0.3333333333333333
 40
0.3333333333333333
 40
0.5
 40
0.5
 40
0.5
 40
0.5
 40
0.6666666666666666
 40
0.6666666666666666
 40
0.6666666666666666
 40
0.6666666666666666
 40
1.0
 40
1.0
 40
1.0
 40
1.0
 10
31.4048
 20
-57.4185
 30
0.0
 10
31.4048
 20
-57.4185
 30
0.0
 10
36.512
 20
-57.4185
 30
0.0
 10
36.512
 20
-57.4185
 30
0.0
 10
36.512
 20
-57.4185
 30
0.0
 10
36.512
 20
-57.4185
 30
0.0
 10
36.512
 20
-67.4286
 30
0.0
 10
36.512
 20
-67.4286
 30
0.0
 10
36.512
 20
-67.4286
 30
0.0
 10
36.512
 20
-67.4286
 30
0.0
 10
31.4048
 20
-67.4286
 30
0.0
 10
31.4048
 20
-67.4286
 30
0.0
 10
31.4048
 20
-67.4286
 30
0.0
 10
31.4048
 20
-67.4286
 30
0.0
 10
31.4048
 20
-57.4185
 30
0.0
 10
31.4048
 20
-57.4185
 30
0.0
 10
31.4048
 20
-57.4185
 30
0.0
 10
31.4048
 20
-57.4185
 30
0.0
 10
31.4048
 20
-57.4185
 30
0.0
 10
31.4048
 20
-57.4185
 30
0.0
  0
SPLINE
  5
4E
330
1F
100
AcDbEntity
  8
layer 1
 62
     7
100
AcDbSpline
210
0.0
220
0.0
230
1.0
 70
    11
 71
     3
 72
    24
 73
    20
 74
     0
 42
0.0000000001
 43
0.0000000001
 12
1.0
 22
0.0
 32
0.0
 13
1.0
 23
0.0
 33
0.0
 40
0.0
 40
0.0
 40
0.0
 40
0.0
 40
0.1666666666666667
 40
0.1666666666666667
 40
0.1666666666666667
 40
0.1666666666666667
 40
0.3333333333333333
 40
0.3333333333333333
 40
0.3333333333333333
 40
0.3333333333333333
 40
0.5
 40
0.5
 40
0.5
 40
0.5
 40
0.6666666666666666
 40
0.6666666666666666
 40
0.6666666666666666
 40
0.6666666666666666
 40
1.0
 40
1.0
 40
1.0
 40
1.0
 10
22.9063
 20
-57.4185
 30
0.0
 10
22.9063
 20
-57.4185
 30
0.0
 10
28.9532
 20
-57.4185
 30
0.0
 10
28.9532
 20
-57.4185
 30
0.0
 10
28.9532
 20
-57.4185
 30
0.0
 10
28.9532
 20
-57.4185
 30
0.0
 10
28.9532
 20
-67.4286
 30
0.0
 10
28.9532
 20
-67.4286
 30
0.0
 10
28.9532
 20
-67.4286
 30
0.0
 10
28.9532
 20
-67.4286
 30
0.0
 10
22.9063
 20
-67.4286
 30
0.0
 10
22.9063
 20
-67.4286
 30
0.0
 10
22.9063
 20
-67.4286
 30
0.0
 10
22.9063
 20
-67.4286
 30
0.0
 10
22.9063
 20
-57.4185
 30
0.0
 10
22.9063
 20
-57.4185
 30
0.0
 10
22.9063
 20
-57.4185
 30
0.0
 10
22.9063
 20
-57.4185
 30
0.0
 10
22.9063
 20
-57.4185
 30
0.0
 10
22.9063
 20
-57.4185
 30
0.0
  0
SPLINE
  5
4F
330
1F
100
AcDbEntity
  8
layer 1
 62
     7
100
AcDbSpline
210
0.0
220
0.0
230
1.0
 70
    11
 71
     3
 72
    24
 73
    20
 74
     0
 42
0.0000000001
 43
0.0000000001
 12
1.0
 22
0.0
 32
0.0
 13
1.0
 23
0.0
 33
0.0
 40
0.0
 40
0.0
 40
0.0
 40
0.0
 40
0.1666666666666667
 40
0.1666666666666667
 40
0.1666666666666667
 40
0.1666666666666667
 40
0.3333333333333333
 40
0.3333333333333333
 40
0.3333333333333333
 40
0.3333333333333333
 40
0.5
 40
0.5
 40
0.5
 40
0.5
 40
0.6666666666666666
 40
0.6666666666666666
 40
0.6666666666666666
 40
0.6666666666666666
 40
1.0
 40
1.0
 40
1.0
 40
1.0
 10
179.9239
 20
-44.9567
 30
0.0
 10
179.9239
 20
-44.9567
 30
0.0
 10
185.0311
 20
-44.9567
 30
0.0
 10
185.0311
 20
-44.9567
 30
0.0
 10
185.0311
 20
-44.9567
 30
0.0
 10
185.0311
 20
-44.9567
 30
0.0
 10
185.0311
 20
-54.9669
 30
0.0
 10
185.0311
 20
-54.9669
 30
0.0
 10
185.0311
 20
-54.9669
 30
0.0
 10
185.0311
 20
-54.9669
 30
0.0
 10
179.9239
 20
-54.9669
 30
0.0
 10
179.9239
 20
-54.9669
 30
0.0
 10
179.9239
 20
-54.9669
 30
0.0
 10
179.9239
 20
-54.9669
 30
0.0
 10
179.9239
 20
-44.9567
 30
0.0
 10
179.9239
 20
-44.9567
 30
0.0
 10
179.9239
 20
-44.9567
 30
0.0
 10
179.9239
 20
-44.9567
 30
0.0
 10
179.9239
 20
-44.9567
 30
0.0
 10
179.9239
 20
-44.9567
 30
0.0
  0
SPLINE
  5
50
330
1F
100
AcDbEntity
  8
layer 1
 62
     7
100
AcDbSpline
210
0.0
220
0.0
230
1.0
 70
    11
 71
     3
 72
    24
 73
    20
 74
     0
 42
0.0000000001
 43
0.0000000001
 12
1.0
 22
0.0
 32
0.0
 13
1.0
 23
0.0
 33
0.0
 40
0.0
 40
0.0
 40
0.0
 40
0.0
 40
0.1666666666666667
 40
0.1666666666666667
 40
0.1666666666666667
 40
0.1666666666666667
 40
0.3333333333333333
 40
0.3333333333333333
 40
0.3333333333333333
 40
0.3333333333333333
 40
0.5
 40
0.5
 40
0.5
 40
0.5
 40
0.6666666666666666
 40
0.6666666666666666
 40
0.6666666666666666
 40
0.6666666666666666
 40
1.0
 40
1.0
 40
1.0
 40
1.0
 10
157.2477
 20
-44.9567
 30
0.0
 10
157.2477
 20
-44.9567
 30
0.0
 10
162.3548
 20
-44.9567
 30
0.0
 10
162.3548
 20
-44.9567
 30
0.0
 10
162.3548
 20
-44.9567
 30
0.0
 10
162.3548
 20
-44.9567
 30
0.0
 10
162.3548
 20
-54.9669
 30
0.0
 10
162.3548
 20
-54.9669
 30
0.0
 10
162.3548
 20
-54.9669
 30
0.0
 10
162.3548
 20
-54.9669
 30
0.0
 10
157.2477
 20
-54.9669
 30
0.0
 10
157.2477
 20
-54.9669
 30
0.0
 10
157.2477
 20
-54.9669
 30
0.0
 10
157.2477
 20
-54.9669
 30
0.0
 10
157.2477
 20
-44.9567
 30
0.0
 10
157.2477
 20
-44.9567
 30
0.0
 10
157.2477
 20
-44.9567
 30
0.0
 10
157.2477
 20
-44.9567
 30
0.0
 10
157.2477
 20
-44.9567
 30
0.0
 10
157.2477
 20
-44.9567
 30
0.0
  0
SPLINE
  5
51
330
1F
100
AcDbEntity
  8
layer 1
 62
     7
100
AcDbSpline
210
0.0
220
0.0
230
1.0
 70
    11
 71
     3
 72
    28
 73
    24
 74
     0
 42
0.0000000001
 43
0.0000000001
 12
1.0
 22
0.0
 32
0.0
 13
1.0
 23
0.0
 33
0.0
 40
0.0
 40
0.0
 40
0.0
 40
0.0
 40
0.1428571428571428
 40
0.1428571428571428
 40
0.1428571428571428
 40
0.1428571428571428
 40
0.2857142857142857
 40
0.2857142857142857
 40
0.2857142857142857
 40
0.2857142857142857
 40
0.4285714285714285
 40
0.4285714285714285
 40
0.4285714285714285
 40
0.4285714285714285
 40
0.5714285714285714
 40
0.5714285714285714
 40
0.5714285714285714
 40
0.5714285714285714
 40
0.7142857142857143
 40
0.7142857142857143
 40
0.7142857142857143
 40
0.7142857142857143
 40
1.0
 40
1.0
 40
1.0
 40
1.0
 10
140.9045
 20
-35.0486
 30
0.0
 10
140.9045
 20
-35.0486
 30
0.0
 10
140.9045
 20
-54.9669
 30
0.0
 10
140.9045
 20
-54.9669
 30
0.0
 10
140.9045
 20
-54.9669
 30
0.0
 10
140.9045
 20
-54.9669
 30
0.0
 10
154.7961
 20
-54.9669
 30
0.0
 10
154.7961
 20
-54.9669
 30
0.0
 10
154.7961
 20
-54.9669
 30
0.0
 10
154.7961
 20
-54.9669
 30
0.0
 10
154.7961
 20
-44.9567
 30
0.0
 10
154.7961
 20
-44.9567
 30
0.0
 10
154.7961
 20
-44.9567
 30
0.0
 10
154.7961
 20
-44.9567
 30
0.0
 10
146.216
 20
-44.9567
 30
0.0
 10
146.216
 20
-44.9567
 30
0.0
 10
146.216
 20
-44.9567
 30
0.0
 10
146.216
 20
-44.9567
 30
0.0
 10
146.216
 20
-35.0486
 30
0.0
 10
146.216
 20
-35.0486
 30
0.0
 10
146.216
 20
-35.0486
 30
0.0
 10
146.216
 20
-35.0486
 30
0.0
 10
140.9045
 20
-35.0486
 30
0.0
 10
140.9045
 20
-35.0486
 30
0.0
  0
SPLINE
  5
52
330
1F
100
AcDbEntity
  8
layer 1
 62
     7
100
AcDbSpline
210
0.0
220
0.0
230
1.0
 70
    11
 71
     3
 72
    24
 73
    20
 74
     0
 42
0.0000000001
 43
0.0000000001
 12
1.0
 22
0.0
 32
0.0
 13
1.0
 23
0.0
 33
0.0
 40
0.0
 40
0.0
 40
0.0
 40
0.0
 40
0.1666666666666667
 40
0.1666666666666667
 40
0.1666666666666667
 40
0.1666666666666667
 40
0.3333333333333333
 40
0.3333333333333333
 40
0.3333333333333333
 40
0.3333333333333333
 40
0.5
 40
0.5
 40
0.5
 40
0.5
 40
0.6666666666666666
 40
0.6666666666666666
 40
0.6666666666666666
 40
0.6666666666666666
 40
1.0
 40
1.0
 40
1.0
 40
1.0
 10
117.0025
 20
-44.9567
 30
0.0
 10
117.0025
 20
-44.9567
 30
0.0
 10
122.1097
 20
-44.9567
 30
0.0
 10
122.1097
 20
-44.9567
 30
0.0
 10
122.1097
 20
-44.9567
 30
0.0
 10
122.1097
 20
-44.9567
 30
0.0
 10
122.1097
 20
-54.9669
 30
0.0
 10
122.1097
 20
-54.9669
 30
0.0
 10
122.1097
 20
-54.9669
 30
0.0
 10
122.1097
 20
-54.9669
 30
0.0
 10
117.0025
 20
-54.9669
 30
0.0
 10
117.0025
 20
-54.9669
 30
0.0
 10
117.0025
 20
-54.9669
 30
0.0
 10
117.0025
 20
-54.9669
 30
0.0
 10
117.0025
 20
-44.9567
 30
0.0
 10
117.0025
 20
-44.9567
 30
0.0
 10
117.0025
 20
-44.9567
 30
0.0
 10
117.0025
 20
-44.9567
 30
0.0
 10
117.0025
 20
-44.9567
 30
0.0
 10
117.0025
 20
-44.9567
 30
0.0
  0
SPLINE
  5
53
330
1F
100
AcDbEntity
  8
layer 1
 62
     7
100
AcDbSpline
210
0.0
220
0.0
230
1.0
 70
    11
 71
     3
 72
    24
 73
    20
 74
     0
 42
0.0000000001
 43
0.0000000001
 12
1.0
 22
0.0
 32
0.0
 13
1.0
 23
0.0
 33
0.0
 40
0.0
 40
0.0
 40
0.0
 40
0.0
 40
0.1666666666666667
 40
0.1666666666666667
 40
0.1666666666666667
 40
0.1666666666666667
 40
0.3333333333333333
 40
0.3333333333333333
 40
0.3333333333333333
 40
0.3333333333333333
 40
0.5
 40
0.5
 40
0.5
 40
0.5
 40
0.6666666666666666
 40
0.6666666666666666
 40
0.6666666666666666
 40
0.6666666666666666
 40
1.0
 40
1.0
 40
1.0
 40
1.0
 10
94.3262
 20
-44.9567
 30
0.0
 10
94.3262
 20
-44.9567
 30
0.0
 10
99.4334
 20
-44.9567
 30
0.0
 10
99.4334
 20
-44.9567
 30
0.0
 10
99.4334
 20
-44.9567
 30
0.0
 10
99.4334
 20
-44.9567
 30
0.0
 10
99.4334
 20
-54.9669
 30
0.0
 10
99.4334
 20
-54.9669
 30
0.0
 10
99.4334
 20
-54.9669
 30
0.0
 10
99.4334
 20
-54.9669
 30
0.0
 10
94.3262
 20
-54.9669
 30
0.0
 10
94.3262
 20
-54.9669
 30
0.0
 10
94.3262
 20
-54.9669
 30
0.0
 10
94.3262
 20
-54.9669
 30
0.0
 10
94.3262
 20
-44.9567
 30
0.0
 10
94.3262
 20
-44.9567
 30
0.0
 10
94.3262
 20
-44.9567
 30
0.0
 10
94.3262
 20
-44.9567
 30
0.0
 10
94.3262
 20
-44.9567
 30
0.0
 10
94.3262
 20
-44.9567
 30
0.0
  0
SPLINE
  5
54
330
1F
100
AcDbEntity
  8
layer 1
 62
     7
100
AcDbSpline
210
0.0
220
0.0
230
1.0
 70
    11
 71
     3
 72
    32
 73
    28
 74
     0
 42
0.0000000001
 43
0.0000000001
 12
1.0
 22
0.0
 32
0.0
 13
1.0
 23
0.0
 33
0.0
 40
0.0
 40
0.0
 40
0.0
 40
0.0
 40
0.125
 40
0.125
 40
0.125
 40
0.125
 40
0.25
 40
0.25
 40
0.25
 40
0.25
 40
0.375
 40
0.375
 40
0.375
 40
0.375
 40
0.5
 40
0.5
 40
0.5
 40
0.5
 40
0.625
 40
0.625
 40
0.625
 40
0.625
 40
0.75
 40
0.75
 40
0.75
 40
0.75
 40
1.0
 40
1.0
 40
1.0
 40
1.0
 10
77.983
 20
-35.0486
 30
0.0
 10
77.983
 20
-35.0486
 30
0.0
 10
77.983
 20
-54.9669
 30
0.0
 10
77.983
 20
-54.9669
 30
0.0
 10
77.983
 20
-54.9669
 30
0.0
 10
77.983
 20
-54.9669
 30
0.0
 10
91.8746
 20
-54.9669
 30
0.0
 10
91.8746
 20
-54.9669
 30
0.0
 10
91.8746
 20
-54.9669
 30
0.0
 10
91.8746
 20
-54.9669
 30
0.0
 10
91.8746
 20
-44.9567
 30
0.0
 10
91.8746
 20
-44.9567
 30
0.0
 10
91.8746
 20
-44.9567
 30
0.0
 10
91.8746
 20
-44.9567
 30
0.0
 10
83.2946
 20
-44.9567
 30
0.0
 10
83.2946
 20
-44.9567
 30
0.0
 10
83.2946
 20
-44.9567
 30
0.0
 10
83.2946
 20
-44.9567
 30
0.0
 10
83.2946
 20
-35.0486
 30
0.0
 10
83.2946
 20
-35.0486
 30
0.0
 10
83.2946
 20
-35.0486
 30
0.0
 10
83.2946
 20
-35.0486
 30
0.0
 10
77.983
 20
-35.0486
 30
0.0
 10
77.983
 20
-35.0486
 30
0.0
 10
77.983
 20
-35.0486
 30
0.0
 10
77.983
 20
-35.0486
 30
0.0
 10
77.983
 20
-35.0486
 30
0.0
 10
77.983
 20
-35.0486
 30
0.0
  0
SPLINE
  5
55
330
1F
100
AcDbEntity
  8
layer 1
 62
     7
100
AcDbSpline
210
0.0
220
0.0
230
1.0
 70
    11
 71
     3
 72
    24
 73
    20
 74
     0
 42
0.0000000001
 43
0.0000000001
 12
1.0
 22
0.0
 32
0.0
 13
1.0
 23
0.0
 33
0.0
 40
0.0
 40
0.0
 40
0.0
 40
0.0
 40
0.1666666666666667
 40
0.1666666666666667
 40
0.1666666666666667
 40
0.1666666666666667
 40
0.3333333333333333
 40
0.3333333333333333
 40
0.3333333333333333
 40
0.3333333333333333
 40
0.5
 40
0.5
 40
0.5
 40
0.5
 40
0.6666666666666666
 40
0.6666666666666666
 40
0.6666666666666666
 40
0.6666666666666666
 40
1.0
 40
1.0
 40
1.0
 40
1.0
 10
54.0811
 20
-44.9567
 30
0.0
 10
54.0811
 20
-44.9567
 30
0.0
 10
59.1882
 20
-44.9567
 30
0.0
 10
59.1882
 20
-44.9567
 30
0.0
 10
59.1882
 20
-44.9567
 30
0.0
 10
59.1882
 20
-44.9567
 30
0.0
 10
59.1882
 20
-54.9669
 30
0.0
 10
59.1882
 20
-54.9669
 30
0.0
 10
59.1882
 20
-54.9669
 30
0.0
 10
59.1882
 20
-54.9669
 30
0.0
 10
54.0811
 20
-54.9669
 30
0.0
 10
54.0811
 20
-54.9669
 30
0.0
 10
54.0811
 20
-54.9669
 30
0.0
 10
54.0811
 20
-54.9669
 30
0.0
 10
54.0811
 20
-44.9567
 30
0.0
 10
54.0811
 20
-44.9567
 30
0.0
 10
54.0811
 20
-44.9567
 30
0.0
 10
54.0811
 20
-44.9567
 30
0.0
 10
54.0811
 20
-44.9567
 30
0.0
 10
54.0811
 20
-44.9567
 30
0.0
  0
SPLINE
  5
56
330
1F
100
AcDbEntity
  8
layer 1
 62
     7
100
AcDbSpline
210
0.0
220
0.0
230
1.0
 70
    11
 71
     3
 72
    24
 73
    20
 74
     0
 42
0.0000000001
 43
0.0000000001
 12
1.0
 22
0.0
 32
0.0
 13
1.0
 23
0.0
 33
0.0
 40
0.0
 40
0.0
 40
0.0
 40
0.0
 40
0.1666666666666667
 40
0.1666666666666667
 40
0.1666666666666667
 40
0.1666666666666667
 40
0.3333333333333333
 40
0.3333333333333333
 40
0.3333333333333333
 40
0.3333333333333333
 40
0.5
 40
0.5
 40
0.5
 40
0.5
 40
0.6666666666666666
 40
0.6666666666666666
 40
0.6666666666666666
 40
0.6666666666666666
 40
1.0
 40
1.0
 40
1.0
 40
1.0
 10
31.4048
 20
-44.9567
 30
0.0
 10
31.4048
 20
-44.9567
 30
0.0
 10
36.512
 20
-44.9567
 30
0.0
 10
36.512
 20
-44.9567
 30
0.0
 10
36.512
 20
-44.9567
 30
0.0
 10
36.512
 20
-44.9567
 30
0.0
 10
36.512
 20
-54.9669
 30
0.0
 10
36.512
 20
-54.9669
 30
0.0
 10
36.512
 20
-54.9669
 30
0.0
 10
36.512
 20
-54.9669
 30
0.0
 10
31.4048
 20
-54.9669
 30
0.0
 10
31.4048
 20
-54.9669
 30
0.0
 10
31.4048
 20
-54.9669
 30
0.0
 10
31.4048
 20
-54.9669
 30
0.0
 10
31.4048
 20
-44.9567
 30
0.0
 10
31.4048
 20
-44.9567
 30
0.0
 10
31.4048
 20
-44.9567
 30
0.0
 10
31.4048
 20
-44.9567
 30
0.0
 10
31.4048
 20
-44.9567
 30
0.0
 10
31.4048
 20
-44.9567
 30
0.0
  0
SPLINE
  5
57
330
1F
100
AcDbEntity
  8
layer 1
 62
     7
100
AcDbSpline
210
0.0
220
0.0
230
1.0
 70
    11
 71
     3
 72
    24
 73
    20
 74
     0
 42
0.0000000001
 43
0.0000000001
 12
1.0
 22
0.0
 32
0.0
 13
1.0
 23
0.0
 33
0.0
 40
0.0
 40
0.0
 40
0.0
 40
0.0
 40
0.1666666666666667
 40
0.1666666666666667
 40
0.1666666666666667
 40
0.1666666666666667
 40
0.3333333333333333
 40
0.3333333333333333
 40
0.3333333333333333
 40
0.3333333333333333
 40
0.5
 40
0.5
 40
0.5
 40
0.5
 40
0.6666666666666666
 40
0.6666666666666666
 40
0.6666666666666666
 40
0.6666666666666666
 40
1.0
 40
1.0
 40
1.0
 40
1.0
 10
22.9063
 20
-44.9567
 30
0.0
 10
22.9063
 20
-44.9567
 30
0.0
 10
28.9532
 20
-44.9567
 30
0.0
 10
28.9532
 20
-44.9567
 30
0.0
 10
28.9532
 20
-44.9567
 30
0.0
 10
28.9532
 20
-44.9567
 30
0.0
 10
28.9532
 20
-54.9669
 30
0.0
 10
28.9532
 20
-54.9669
 30
0.0
 10
28.9532
 20
-54.9669
 30
0.0
 10
28.9532
 20
-54.9669
 30
0.0
 10
22.9063
 20
-54.9669
 30
0.0
 10
22.9063
 20
-54.9669
 30
0.0
 10
22.9063
 20
-54.9669
 30
0.0
 10
22.9063
 20
-54.9669
 30
0.0
 10
22.9063
 20
-44.9567
 30
0.0
 10
22.9063
 20
-44.9567
 30
0.0
 10
22.9063
 20
-44.9567
 30
0.0
 10
22.9063
 20
-44.9567
 30
0.0
 10
22.9063
 20
-44.9567
 30
0.0
 10
22.9063
 20
-44.9567
 30
0.0
  0
SPLINE
  5
58
330
1F
100
AcDbEntity
  8
layer 1
 62
     7
100
AcDbSpline
210
0.0
220
0.0
230
1.0
 70
    11
 71
     3
 72
    40
 73
    36
 74
     0
 42
0.0000000001
 43
0.0000000001
 12
1.0
 22
0.0
 32
0.0
 13
1.0
 23
0.0
 33
0.0
 40
0.0
 40
0.0
 40
0.0
 40
0.0
 40
0.1
 40
0.1
 40
0.1
 40
0.1
 40
0.2
 40
0.2
 40
0.2
 40
0.2
 40
0.3
 40
0.3
 40
0.3
 40
0.3
 40
0.4
 40
0.4
 40
0.4
 40
0.4
 40
0.5
 40
0.5
 40
0.5
 40
0.5
 40
0.6
 40
0.6
 40
0.6
 40
0.6
 40
0.7
 40
0.7
 40
0.7
 40
0.7
 40
0.8
 40
0.8
 40
0.8
 40
0.8
 40
1.0
 40
1.0
 40
1.0
 40
1.0
 10
181.1496
 20
-17.2958
 30
0.0
 10
181.1496
 20
-17.2958
 30
0.0
 10
181.1496
 20
-34.9464
 30
0.0
 10
181.1496
 20
-34.9464
 30
0.0
 10
181.1496
 20
-34.9464
 30
0.0
 10
181.1496
 20
-34.9464
 30
0.0
 10
187.4825
 20
-34.9464
 30
0.0
 10
187.4825
 20
-34.9464
 30
0.0
 10
187.4825
 20
-34.9464
 30
0.0
 10
187.4825
 20
-34.9464
 30
0.0
 10
187.4825
 20
-42.5051
 30
0.0
 10
187.4825
 20
-42.5051
 30
0.0
 10
187.4825
 20
-42.5051
 30
0.0
 10
187.4825
 20
-42.5051
 30
0.0
 10
193.5297
 20
-42.5051
 30
0.0
 10
193.5297
 20
-42.5051
 30
0.0
 10
193.5297
 20
-42.5051
 30
0.0
 10
193.5297
 20
-42.5051
 30
0.0
 10
193.5297
 20
-9.737
 30
0.0
 10
193.5297
 20
-9.737
 30
0.0
 10
193.5297
 20
-9.737
 30
0.0
 10
193.5297
 20
-9.737
 30
0.0
 10
187.4825
 20
-9.737
 30
0.0
 10
187.4825
 20
-9.737
 30
0.0
 10
187.4825
 20
-9.737
 30
0.0
 10
187.4825
 20
-9.737
 30
0.0
 10
187.4825
 20
-17.2958
 30
0.0
 10
187.4825
 20
-17.2958
 30
0.0
 10
187.4825
 20
-17.2958
 30
0.0
 10
187.4825
 20
-17.2958
 30
0.0
 10
181.1496
 20
-17.2958
 30
0.0
 10
181.1496
 20
-17.2958
 30
0.0
 10
181.1496
 20
-17.2958
 30
0.0
 10
181.1496
 20
-17.2958
 30
0.0
 10
181.1496
 20
-17.2958
 30
0.0
 10
181.1496
 20
-17.2958
 30
0.0
  0
SPLINE
  5
59
330
1F
100
AcDbEntity
  8
layer 1
 62
     7
100
AcDbSpline
210
0.0
220
0.0
230
1.0
 70
    11
 71
     3
 72
    24
 73
    20
 74
     0
 42
0.0000000001
 43
0.0000000001
 12
1.0
 22
0.0
 32
0.0
 13
1.0
 23
0.0
 33
0.0
 40
0.0
 40
0.0
 40
0.0
 40
0.0
 40
0.1666666666666667
 40
0.1666666666666667
 40
0.1666666666666667
 40
0.1666666666666667
 40
0.3333333333333333
 40
0.3333333333333333
 40
0.3333333333333333
 40
0.3333333333333333
 40
0.5
 40
0.5
 40
0.5
 40
0.5
 40
0.6666666666666666
 40
0.6666666666666666
 40
0.6666666666666666
 40
0.6666666666666666
 40
1.0
 40
1.0
 40
1.0
 40
1.0
 10
172.3652
 20
-17.2958
 30
0.0
 10
172.3652
 20
-17.2958
 30
0.0
 10
178.698
 20
-17.2958
 30
0.0
 10
178.698
 20
-17.2958
 30
0.0
 10
178.698
 20
-17.2958
 30
0.0
 10
178.698
 20
-17.2958
 30
0.0
 10
178.698
 20
-34.9464
 30
0.0
 10
178.698
 20
-34.9464
 30
0.0
 10
178.698
 20
-34.9464
 30
0.0
 10
178.698
 20
-34.9464
 30
0.0
 10
172.3652
 20
-34.9464
 30
0.0
 10
172.3652
 20
-34.9464
 30
0.0
 10
172.3652
 20
-34.9464
 30
0.0
 10
172.3652
 20
-34.9464
 30
0.0
 10
172.3652
 20
-17.2958
 30
0.0
 10
172.3652
 20
-17.2958
 30
0.0
 10
172.3652
 20
-17.2958
 30
0.0
 10
172.3652
 20
-17.2958
 30
0.0
 10
172.3652
 20
-17.2958
 30
0.0
 10
172.3652
 20
-17.2958
 30
0.0
  0
SPLINE
  5
5A
330
1F
100
AcDbEntity
  8
layer 1
 62
     7
100
AcDbSpline
210
0.0
220
0.0
230
1.0
 70
    11
 71
     3
 72
    20
 73
    16
 74
     0
 42
0.0000000001
 43
0.0000000001
 12
1.0
 22
0.0
 32
0.0
 13
1.0
 23
0.0
 33
0.0
 40
0.0
 40
0.0
 40
0.0
 40
0.0
 40
0.2
 40
0.2
 40
0.2
 40
0.2
 40
0.4
 40
0.4
 40
0.4
 40
0.4
 40
0.6
 40
0.6
 40
0.6
 40
0.6
 40
1.0
 40
1.0
 40
1.0
 40
1.0
 10
169.9136
 20
-17.2958
 30
0.0
 10
169.9136
 20
-17.2958
 30
0.0
 10
163.5805
 20
-17.2958
 30
0.0
 10
163.5805
 20
-17.2958
 30
0.0
 10
163.5805
 20
-17.2958
 30
0.0
 10
163.5805
 20
-17.2958
 30
0.0
 10
163.5805
 20
-34.9464
 30
0.0
 10
163.5805
 20
-34.9464
 30
0.0
 10
163.5805
 20
-34.9464
 30
0.0
 10
163.5805
 20
-34.9464
 30
0.0
 10
169.9136
 20
-34.9464
 30
0.0
 10
169.9136
 20
-34.9464
 30
0.0
 10
169.9136
 20
-34.9464
 30
0.0
 10
169.9136
 20
-34.9464
 30
0.0
 10
169.9136
 20
-17.2958
 30
0.0
 10
169.9136
 20
-17.2958
 30
0.0
  0
SPLINE
  5
5B
330
1F
100
AcDbEntity
  8
layer 1
 62
     7
100
AcDbSpline
210
0.0
220
0.0
230
1.0
 70
    11
 71
     3
 72
    36
 73
    32
 74
     0
 42
0.0000000001
 43
0.0000000001
 12
1.0
 22
0.0
 32
0.0
 13
1.0
 23
0.0
 33
0.0
 40
0.0
 40
0.0
 40
0.0
 40
0.0
 40
0.1111111111111111
 40
0.1111111111111111
 40
0.1111111111111111
 40
0.1111111111111111
 40
0.2222222222222222
 40
0.2222222222222222
 40
0.2222222222222222
 40
0.2222222222222222
 40
0.3333333333333333
 40
0.3333333333333333
 40
0.3333333333333333
 40
0.3333333333333333
 40
0.4444444444444444
 40
0.4444444444444444
 40
0.4444444444444444
 40
0.4444444444444444
 40
0.5555555555555556
 40
0.5555555555555556
 40
0.5555555555555556
 40
0.5555555555555556
 40
0.6666666666666666
 40
0.6666666666666666
 40
0.6666666666666666
 40
0.6666666666666666
 40
0.7777777777777778
 40
0.7777777777777778
 40
0.7777777777777778
 40
0.7777777777777778
 40
1.0
 40
1.0
 40
1.0
 40
1.0
 10
148.6674
 20
-9.737
 30
0.0
 10
148.6674
 20
-9.737
 30
0.0
 10
154.7961
 20
-9.737
 30
0.0
 10
154.7961
 20
-9.737
 30
0.0
 10
154.7961
 20
-9.737
 30
0.0
 10
154.7961
 20
-9.737
 30
0.0
 10
154.7961
 20
-17.2958
 30
0.0
 10
154.7961
 20
-17.2958
 30
0.0
 10
154.7961
 20
-17.2958
 30
0.0
 10
154.7961
 20
-17.2958
 30
0.0
 10
161.1291
 20
-17.2958
 30
0.0
 10
161.1291
 20
-17.2958
 30
0.0
 10
161.1291
 20
-17.2958
 30
0.0
 10
161.1291
 20
-17.2958
 30
0.0
 10
161.1291
 20
-34.9464
 30
0.0
 10
161.1291
 20
-34.9464
 30
0.0
 10
161.1291
 20
-34.9464
 30
0.0
 10
161.1291
 20
-34.9464
 30
0.0
 10
154.7961
 20
-34.9464
 30
0.0
 10
154.7961
 20
-34.9464
 30
0.0
 10
154.7961
 20
-34.9464
 30
0.0
 10
154.7961
 20
-34.9464
 30
0.0
 10
154.7961
 20
-42.5051
 30
0.0
 10
154.7961
 20
-42.5051
 30
0.0
 10
154.7961
 20
-42.5051
 30
0.0
 10
154.7961
 20
-42.5051
 30
0.0
 10
148.6674
 20
-42.5051
 30
0.0
 10
148.6674
 20
-42.5051
 30
0.0
 10
148.6674
 20
-42.5051
 30
0.0
 10
148.6674
 20
-42.5051
 30
0.0
 10
148.6674
 20
-9.737
 30
0.0
 10
148.6674
 20
-9.737
 30
0.0
  0
SPLINE
  5
5C
330
1F
100
AcDbEntity
  8
layer 1
 62
     7
100
AcDbSpline
210
0.0
220
0.0
230
1.0
 70
    11
 71
     3
 72
    20
 73
    16
 74
     0
 42
0.0000000001
 43
0.0000000001
 12
1.0
 22
0.0
 32
0.0
 13
1.0
 23
0.0
 33
0.0
 40
0.0
 40
0.0
 40
0.0
 40
0.0
 40
0.2
 40
0.2
 40
0.2
 40
0.2
 40
0.4
 40
0.4
 40
0.4
 40
0.4
 40
0.6
 40
0.6
 40
0.6
 40
0.6
 40
1.0
 40
1.0
 40
1.0
 40
1.0
 10
140.9045
 20
-19.6452
 30
0.0
 10
140.9045
 20
-19.6452
 30
0.0
 10
146.216
 20
-19.6452
 30
0.0
 10
146.216
 20
-19.6452
 30
0.0
 10
146.216
 20
-19.6452
 30
0.0
 10
146.216
 20
-19.6452
 30
0.0
 10
146.216
 20
-32.5972
 30
0.0
 10
146.216
 20
-32.5972
 30
0.0
 10
146.216
 20
-32.5972
 30
0.0
 10
146.216
 20
-32.5972
 30
0.0
 10
140.9045
 20
-32.5972
 30
0.0
 10
140.9045
 20
-32.5972
 30
0.0
 10
140.9045
 20
-32.5972
 30
0.0
 10
140.9045
 20
-32.5972
 30
0.0
 10
140.9045
 20
-19.6452
 30
0.0
 10
140.9045
 20
-19.6452
 30
0.0
  0
SPLINE
  5
5D
330
1F
100
AcDbEntity
  8
layer 1
 62
     7
100
AcDbSpline
210
0.0
220
0.0
230
1.0
 70
    11
 71
     3
 72
    24
 73
    20
 74
     0
 42
0.0000000001
 43
0.0000000001
 12
1.0
 22
0.0
 32
0.0
 13
1.0
 23
0.0
 33
0.0
 40
0.0
 40
0.0
 40
0.0
 40
0.0
 40
0.1666666666666667
 40
0.1666666666666667
 40
0.1666666666666667
 40
0.1666666666666667
 40
0.3333333333333333
 40
0.3333333333333333
 40
0.3333333333333333
 40
0.3333333333333333
 40
0.5
 40
0.5
 40
0.5
 40
0.5
 40
0.6666666666666666
 40
0.6666666666666666
 40
0.6666666666666666
 40
0.6666666666666666
 40
1.0
 40
1.0
 40
1.0
 40
1.0
 10
133.1413
 20
-19.6452
 30
0.0
 10
133.1413
 20
-19.6452
 30
0.0
 10
138.4529
 20
-19.6452
 30
0.0
 10
138.4529
 20
-19.6452
 30
0.0
 10
138.4529
 20
-19.6452
 30
0.0
 10
138.4529
 20
-19.6452
 30
0.0
 10
138.4529
 20
-32.5972
 30
0.0
 10
138.4529
 20
-32.5972
 30
0.0
 10
138.4529
 20
-32.5972
 30
0.0
 10
138.4529
 20
-32.5972
 30
0.0
 10
133.1413
 20
-32.5972
 30
0.0
 10
133.1413
 20
-32.5972
 30
0.0
 10
133.1413
 20
-32.5972
 30
0.0
 10
133.1413
 20
-32.5972
 30
0.0
 10
133.1413
 20
-19.6452
 30
0.0
 10
133.1413
 20
-19.6452
 30
0.0
 10
133.1413
 20
-19.6452
 30
0.0
 10
133.1413
 20
-19.6452
 30
0.0
 10
133.1413
 20
-19.6452
 30
0.0
 10
133.1413
 20
-19.6452
 30
0.0
  0
SPLINE
  5
5E
330
1F
100
AcDbEntity
  8
layer 1
 62
     7
100
AcDbSpline
210
0.0
220
0.0
230
1.0
 70
    11
 71
     3
 72
    40
 73
    36
 74
     0
 42
0.0000000001
 43
0.0000000001
 12
1.0
 22
0.0
 32
0.0
 13
1.0
 23
0.0
 33
0.0
 40
0.0
 40
0.0
 40
0.0
 40
0.0
 40
0.1
 40
0.1
 40
0.1
 40
0.1
 40
0.2
 40
0.2
 40
0.2
 40
0.2
 40
0.3
 40
0.3
 40
0.3
 40
0.3
 40
0.4
 40
0.4
 40
0.4
 40
0.4
 40
0.5
 40
0.5
 40
0.5
 40
0.5
 40
0.6
 40
0.6
 40
0.6
 40
0.6
 40
0.7
 40
0.7
 40
0.7
 40
0.7
 40
0.8
 40
0.8
 40
0.8
 40
0.8
 40
1.0
 40
1.0
 40
1.0
 40
1.0
 10
118.2282
 20
-17.2958
 30
0.0
 10
118.2282
 20
-17.2958
 30
0.0
 10
124.5613
 20
-17.2958
 30
0.0
 10
124.5613
 20
-17.2958
 30
0.0
 10
124.5613
 20
-17.2958
 30
0.0
 10
124.5613
 20
-17.2958
 30
0.0
 10
124.5613
 20
-9.737
 30
0.0
 10
124.5613
 20
-9.737
 30
0.0
 10
124.5613
 20
-9.737
 30
0.0
 10
124.5613
 20
-9.737
 30
0.0
 10
130.6899
 20
-9.737
 30
0.0
 10
130.6899
 20
-9.737
 30
0.0
 10
130.6899
 20
-9.737
 30
0.0
 10
130.6899
 20
-9.737
 30
0.0
 10
130.6899
 20
-42.5051
 30
0.0
 10
130.6899
 20
-42.5051
 30
0.0
 10
130.6899
 20
-42.5051
 30
0.0
 10
130.6899
 20
-42.5051
 30
0.0
 10
124.5613
 20
-42.5051
 30
0.0
 10
124.5613
 20
-42.5051
 30
0.0
 10
124.5613
 20
-42.5051
 30
0.0
 10
124.5613
 20
-42.5051
 30
0.0
 10
124.5613
 20
-34.9464
 30
0.0
 10
124.5613
 20
-34.9464
 30
0.0
 10
124.5613
 20
-34.9464
 30
0.0
 10
124.5613
 20
-34.9464
 30
0.0
 10
118.2282
 20
-34.9464
 30
0.0
 10
118.2282
 20
-34.9464
 30
0.0
 10
118.2282
 20
-34.9464
 30
0.0
 10
118.2282
 20
-34.9464
 30
0.0
 10
118.2282
 20
-17.2958
 30
0.0
 10
118.2282
 20
-17.2958
 30
0.0
 10
118.2282
 20
-17.2958
 30
0.0
 10
118.2282
 20
-17.2958
 30
0.0
 10
118.2282
 20
-17.2958
 30
0.0
 10
118.2282
 20
-17.2958
 30
0.0
  0
SPLINE
  5
5F
330
1F
100
AcDbEntity
  8
layer 1
 62
     7
100
AcDbSpline
210
0.0
220
0.0
230
1.0
 70
    11
 71
     3
 72
    24
 73
    20
 74
     0
 42
0.0000000001
 43
0.0000000001
 12
1.0
 22
0.0
 32
0.0
 13
1.0
 23
0.0
 33
0.0
 40
0.0
 40
0.0
 40
0.0
 40
0.0
 40
0.1666666666666667
 40
0.1666666666666667
 40
0.1666666666666667
 40
0.1666666666666667
 40
0.3333333333333333
 40
0.3333333333333333
 40
0.3333333333333333
 40
0.3333333333333333
 40
0.5
 40
0.5
 40
0.5
 40
0.5
 40
0.6666666666666666
 40
0.6666666666666666
 40
0.6666666666666666
 40
0.6666666666666666
 40
1.0
 40
1.0
 40
1.0
 40
1.0
 10
109.4438
 20
-17.2958
 30
0.0
 10
109.4438
 20
-17.2958
 30
0.0
 10
115.7766
 20
-17.2958
 30
0.0
 10
115.7766
 20
-17.2958
 30
0.0
 10
115.7766
 20
-17.2958
 30
0.0
 10
115.7766
 20
-17.2958
 30
0.0
 10
115.7766
 20
-34.9464
 30
0.0
 10
115.7766
 20
-34.9464
 30
0.0
 10
115.7766
 20
-34.9464
 30
0.0
 10
115.7766
 20
-34.9464
 30
0.0
 10
109.4438
 20
-34.9464
 30
0.0
 10
109.4438
 20
-34.9464
 30
0.0
 10
109.4438
 20
-34.9464
 30
0.0
 10
109.4438
 20
-34.9464
 30
0.0
 10
109.4438
 20
-17.2958
 30
0.0
 10
109.4438
 20
-17.2958
 30
0.0
 10
109.4438
 20
-17.2958
 30
0.0
 10
109.4438
 20
-17.2958
 30
0.0
 10
109.4438
 20
-17.2958
 30
0.0
 10
109.4438
 20
-17.2958
 30
0.0
  0
SPLINE
  5
60
330
1F
100
AcDbEntity
  8
layer 1
 62
     7
100
AcDbSpline
210
0.0
220
0.0
230
1.0
 70
    11
 71
     3
 72
    24
 73
    20
 74
     0
 42
0.0000000001
 43
0.0000000001
 12
1.0
 22
0.0
 32
0.0
 13
1.0
 23
0.0
 33
0.0
 40
0.0
 40
0.0
 40
0.0
 40
0.0
 40
0.1666666666666667
 40
0.1666666666666667
 40
0.1666666666666667
 40
0.1666666666666667
 40
0.3333333333333333
 40
0.3333333333333333
 40
0.3333333333333333
 40
0.3333333333333333
 40
0.5
 40
0.5
 40
0.5
 40
0.5
 40
0.6666666666666666
 40
0.6666666666666666
 40
0.6666666666666666
 40
0.6666666666666666
 40
1.0
 40
1.0
 40
1.0
 40
1.0
 10
100.6593
 20
-17.2958
 30
0.0
 10
100.6593
 20
-17.2958
 30
0.0
 10
106.9921
 20
-17.2958
 30
0.0
 10
106.9921
 20
-17.2958
 30
0.0
 10
106.9921
 20
-17.2958
 30
0.0
 10
106.9921
 20
-17.2958
 30
0.0
 10
106.9921
 20
-34.9464
 30
0.0
 10
106.9921
 20
-34.9464
 30
0.0
 10
106.9921
 20
-34.9464
 30
0.0
 10
106.9921
 20
-34.9464
 30
0.0
 10
100.6593
 20
-34.9464
 30
0.0
 10
100.6593
 20
-34.9464
 30
0.0
 10
100.6593
 20
-34.9464
 30
0.0
 10
100.6593
 20
-34.9464
 30
0.0
 10
100.6593
 20
-17.2958
 30
0.0
 10
100.6593
 20
-17.2958
 30
0.0
 10
100.6593
 20
-17.2958
 30
0.0
 10
100.6593
 20
-17.2958
 30
0.0
 10
100.6593
 20
-17.2958
 30
0.0
 10
100.6593
 20
-17.2958
 30
0.0
  0
SPLINE
  5
61
330
1F
100
AcDbEntity
  8
layer 1
 62
     7
100
AcDbSpline
210
0.0
220
0.0
230
1.0
 70
    11
 71
     3
 72
    40
 73
    36
 74
     0
 42
0.0000000001
 43
0.0000000001
 12
1.0
 22
0.0
 32
0.0
 13
1.0
 23
0.0
 33
0.0
 40
0.0
 40
0.0
 40
0.0
 40
0.0
 40
0.1
 40
0.1
 40
0.1
 40
0.1
 40
0.2
 40
0.2
 40
0.2
 40
0.2
 40
0.3
 40
0.3
 40
0.3
 40
0.3
 40
0.4
 40
0.4
 40
0.4
 40
0.4
 40
0.5
 40
0.5
 40
0.5
 40
0.5
 40
0.6
 40
0.6
 40
0.6
 40
0.6
 40
0.7
 40
0.7
 40
0.7
 40
0.7
 40
0.8
 40
0.8
 40
0.8
 40
0.8
 40
1.0
 40
1.0
 40
1.0
 40
1.0
 10
85.746
 20
-9.737
 30
0.0
 10
85.746
 20
-9.737
 30
0.0
 10
85.746
 20
-42.5051
 30
0.0
 10
85.746
 20
-42.5051
 30
0.0
 10
85.746
 20
-42.5051
 30
0.0
 10
85.746
 20
-42.5051
 30
0.0
 10
91.8746
 20
-42.5051
 30
0.0
 10
91.8746
 20
-42.5051
 30
0.0
 10
91.8746
 20
-42.5051
 30
0.0
 10
91.8746
 20
-42.5051
 30
0.0
 10
91.8746
 20
-34.9464
 30
0.0
 10
91.8746
 20
-34.9464
 30
0.0
 10
91.8746
 20
-34.9464
 30
0.0
 10
91.8746
 20
-34.9464
 30
0.0
 10
98.2077
 20
-34.9464
 30
0.0
 10
98.2077
 20
-34.9464
 30
0.0
 10
98.2077
 20
-34.9464
 30
0.0
 10
98.2077
 20
-34.9464
 30
0.0
 10
98.2077
 20
-17.2958
 30
0.0
 10
98.2077
 20
-17.2958
 30
0.0
 10
98.2077
 20
-17.2958
 30
0.0
 10
98.2077
 20
-17.2958
 30
0.0
 10
91.8746
 20
-17.2958
 30
0.0
 10
91.8746
 20
-17.2958
 30
0.0
 10
91.8746
 20
-17.2958
 30
0.0
 10
91.8746
 20
-17.2958
 30
0.0
 10
91.8746
 20
-9.737
 30
0.0
 10
91.8746
 20
-9.737
 30
0.0
 10
91.8746
 20
-9.737
 30
0.0
 10
91.8746
 20
-9.737
 30
0.0
 10
85.746
 20
-9.737
 30
0.0
 10
85.746
 20
-9.737
 30
0.0
 10
85.746
 20
-9.737
 30
0.0
 10
85.746
 20
-9.737
 30
0.0
 10
85.746
 20
-9.737
 30
0.0
 10
85.746
 20
-9.737
 30
0.0
  0
SPLINE
  5
62
330
1F
100
AcDbEntity
  8
layer 1
 62
     7
100
AcDbSpline
210
0.0
220
0.0
230
1.0
 70
    11
 71
     3
 72
    36
 73
    32
 74
     0
 42
0.0000000001
 43
0.0000000001
 12
1.0
 22
0.0
 32
0.0
 13
1.0
 23
0.0
 33
0.0
 40
0.0
 40
0.0
 40
0.0
 40
0.0
 40
0.1111111111111111
 40
0.1111111111111111
 40
0.1111111111111111
 40
0.1111111111111111
 40
0.2222222222222222
 40
0.2222222222222222
 40
0.2222222222222222
 40
0.2222222222222222
 40
0.3333333333333333
 40
0.3333333333333333
 40
0.3333333333333333
 40
0.3333333333333333
 40
0.4444444444444444
 40
0.4444444444444444
 40
0.4444444444444444
 40
0.4444444444444444
 40
0.5555555555555556
 40
0.5555555555555556
 40
0.5555555555555556
 40
0.5555555555555556
 40
0.6666666666666666
 40
0.6666666666666666
 40
0.6666666666666666
 40
0.6666666666666666
 40
0.7777777777777778
 40
0.7777777777777778
 40
0.7777777777777778
 40
0.7777777777777778
 40
1.0
 40
1.0
 40
1.0
 40
1.0
 10
61.6398
 20
-17.2958
 30
0.0
 10
61.6398
 20
-17.2958
 30
0.0
 10
55.3068
 20
-17.2958
 30
0.0
 10
55.3068
 20
-17.2958
 30
0.0
 10
55.3068
 20
-17.2958
 30
0.0
 10
55.3068
 20
-17.2958
 30
0.0
 10
55.3068
 20
-34.9464
 30
0.0
 10
55.3068
 20
-34.9464
 30
0.0
 10
55.3068
 20
-34.9464
 30
0.0
 10
55.3068
 20
-34.9464
 30
0.0
 10
61.6398
 20
-34.9464
 30
0.0
 10
61.6398
 20
-34.9464
 30
0.0
 10
61.6398
 20
-34.9464
 30
0.0
 10
61.6398
 20
-34.9464
 30
0.0
 10
61.6398
 20
-42.5051
 30
0.0
 10
61.6398
 20
-42.5051
 30
0.0
 10
61.6398
 20
-42.5051
 30
0.0
 10
61.6398
 20
-42.5051
 30
0.0
 10
67.7685
 20
-42.5051
 30
0.0
 10
67.7685
 20
-42.5051
 30
0.0
 10
67.7685
 20
-42.5051
 30
0.0
 10
67.7685
 20
-42.5051
 30
0.0
 10
67.7685
 20
-9.737
 30
0.0
 10
67.7685
 20
-9.737
 30
0.0
 10
67.7685
 20
-9.737
 30
0.0
 10
67.7685
 20
-9.737
 30
0.0
 10
61.6398
 20
-9.737
 30
0.0
 10
61.6398
 20
-9.737
 30
0.0
 10
61.6398
 20
-9.737
 30
0.0
 10
61.6398
 20
-9.737
 30
0.0
 10
61.6398
 20
-17.2958
 30
0.0
 10
61.6398
 20
-17.2958
 30
0.0
  0
SPLINE
  5
63
330
1F
100
AcDbEntity
  8
layer 1
 62
     7
100
AcDbSpline
210
0.0
220
0.0
230
1.0
 70
    11
 71
     3
 72
    24
 73
    20
 74
     0
 42
0.0000000001
 43
0.0000000001
 12
1.0
 22
0.0
 32
0.0
 13
1.0
 23
0.0
 33
0.0
 40
0.0
 40
0.0
 40
0.0
 40
0.0
 40
0.1666666666666667
 40
0.1666666666666667
 40
0.1666666666666667
 40
0.1666666666666667
 40
0.3333333333333333
 40
0.3333333333333333
 40
0.3333333333333333
 40
0.3333333333333333
 40
0.5
 40
0.5
 40
0.5
 40
0.5
 40
0.6666666666666666
 40
0.6666666666666666
 40
0.6666666666666666
 40
0.6666666666666666
 40
1.0
 40
1.0
 40
1.0
 40
1.0
 10
77.983
 20
-19.6452
 30
0.0
 10
77.983
 20
-19.6452
 30
0.0
 10
83.2946
 20
-19.6452
 30
0.0
 10
83.2946
 20
-19.6452
 30
0.0
 10
83.2946
 20
-19.6452
 30
0.0
 10
83.2946
 20
-19.6452
 30
0.0
 10
83.2946
 20
-32.5972
 30
0.0
 10
83.2946
 20
-32.5972
 30
0.0
 10
83.2946
 20
-32.5972
 30
0.0
 10
83.2946
 20
-32.5972
 30
0.0
 10
77.983
 20
-32.5972
 30
0.0
 10
77.983
 20
-32.5972
 30
0.0
 10
77.983
 20
-32.5972
 30
0.0
 10
77.983
 20
-32.5972
 30
0.0
 10
77.983
 20
-19.6452
 30
0.0
 10
77.983
 20
-19.6452
 30
0.0
 10
77.983
 20
-19.6452
 30
0.0
 10
77.983
 20
-19.6452
 30
0.0
 10
77.983
 20
-19.6452
 30
0.0
 10
77.983
 20
-19.6452
 30
0.0
  0
SPLINE
  5
64
330
1F
100
AcDbEntity
  8
layer 1
 62
     7
100
AcDbSpline
210
0.0
220
0.0
230
1.0
 70
    11
 71
     3
 72
    20
 73
    16
 74
     0
 42
0.0000000001
 43
0.0000000001
 12
1.0
 22
0.0
 32
0.0
 13
1.0
 23
0.0
 33
0.0
 40
0.0
 40
0.0
 40
0.0
 40
0.0
 40
0.2
 40
0.2
 40
0.2
 40
0.2
 40
0.4
 40
0.4
 40
0.4
 40
0.4
 40
0.6
 40
0.6
 40
0.6
 40
0.6
 40
1.0
 40
1.0
 40
1.0
 40
1.0
 10
70.2199
 20
-19.6452
 30
0.0
 10
70.2199
 20
-19.6452
 30
0.0
 10
75.5314
 20
-19.6452
 30
0.0
 10
75.5314
 20
-19.6452
 30
0.0
 10
75.5314
 20
-19.6452
 30
0.0
 10
75.5314
 20
-19.6452
 30
0.0
 10
75.5314
 20
-32.5972
 30
0.0
 10
75.5314
 20
-32.5972
 30
0.0
 10
75.5314
 20
-32.5972
 30
0.0
 10
75.5314
 20
-32.5972
 30
0.0
 10
70.2199
 20
-32.5972
 30
0.0
 10
70.2199
 20
-32.5972
 30
0.0
 10
70.2199
 20
-32.5972
 30
0.0
 10
70.2199
 20
-32.5972
 30
0.0
 10
70.2199
 20
-19.6452
 30
0.0
 10
70.2199
 20
-19.6452
 30
0.0
  0
SPLINE
  5
65
330
1F
100
AcDbEntity
  8
layer 1
 62
     7
100
AcDbSpline
210
0.0
220
0.0
230
1.0
 70
    11
 71
     3
 72
    24
 73
    20
 74
     0
 42
0.0000000001
 43
0.0000000001
 12
1.0
 22
0.0
 32
0.0
 13
1.0
 23
0.0
 33
0.0
 40
0.0
 40
0.0
 40
0.0
 40
0.0
 40
0.1666666666666667
 40
0.1666666666666667
 40
0.1666666666666667
 40
0.1666666666666667
 40
0.3333333333333333
 40
0.3333333333333333
 40
0.3333333333333333
 40
0.3333333333333333
 40
0.5
 40
0.5
 40
0.5
 40
0.5
 40
0.6666666666666666
 40
0.6666666666666666
 40
0.6666666666666666
 40
0.6666666666666666
 40
1.0
 40
1.0
 40
1.0
 40
1.0
 10
46.5223
 20
-17.2958
 30
0.0
 10
46.5223
 20
-17.2958
 30
0.0
 10
52.8552
 20
-17.2958
 30
0.0
 10
52.8552
 20
-17.2958
 30
0.0
 10
52.8552
 20
-17.2958
 30
0.0
 10
52.8552
 20
-17.2958
 30
0.0
 10
52.8552
 20
-34.9464
 30
0.0
 10
52.8552
 20
-34.9464
 30
0.0
 10
52.8552
 20
-34.9464
 30
0.0
 10
52.8552
 20
-34.9464
 30
0.0
 10
46.5223
 20
-34.9464
 30
0.0
 10
46.5223
 20
-34.9464
 30
0.0
 10
46.5223
 20
-34.9464
 30
0.0
 10
46.5223
 20
-34.9464
 30
0.0
 10
46.5223
 20
-17.2958
 30
0.0
 10
46.5223
 20
-17.2958
 30
0.0
 10
46.5223
 20
-17.2958
 30
0.0
 10
46.5223
 20
-17.2958
 30
0.0
 10
46.5223
 20
-17.2958
 30
0.0
 10
46.5223
 20
-17.2958
 30
0.0
  0
SPLINE
  5
66
330
1F
100
AcDbEntity
  8
layer 1
 62
     7
100
AcDbSpline
210
0.0
220
0.0
230
1.0
 70
    11
 71
     3
 72
    20
 73
    16
 74
     0
 42
0.0000000001
 43
0.0000000001
 12
1.0
 22
0.0
 32
0.0
 13
1.0
 23
0.0
 33
0.0
 40
0.0
 40
0.0
 40
0.0
 40
0.0
 40
0.2
 40
0.2
 40
0.2
 40
0.2
 40
0.4
 40
0.4
 40
0.4
 40
0.4
 40
0.6
 40
0.6
 40
0.6
 40
0.6
 40
1.0
 40
1.0
 40
1.0
 40
1.0
 10
37.7379
 20
-17.2958
 30
0.0
 10
37.7379
 20
-17.2958
 30
0.0
 10
44.0707
 20
-17.2958
 30
0.0
 10
44.0707
 20
-17.2958
 30
0.0
 10
44.0707
 20
-17.2958
 30
0.0
 10
44.0707
 20
-17.2958
 30
0.0
 10
44.0707
 20
-34.9464
 30
0.0
 10
44.0707
 20
-34.9464
 30
0.0
 10
44.0707
 20
-34.9464
 30
0.0
 10
44.0707
 20
-34.9464
 30
0.0
 10
37.7379
 20
-34.9464
 30
0.0
 10
37.7379
 20
-34.9464
 30
0.0
 10
37.7379
 20
-34.9464
 30
0.0
 10
37.7379
 20
-34.9464
 30
0.0
 10
37.7379
 20
-17.2958
 30
0.0
 10
37.7379
 20
-17.2958
 30
0.0
  0
SPLINE
  5
67
330
1F
100
AcDbEntity
  8
layer 1
 62
     7
100
AcDbSpline
210
0.0
220
0.0
230
1.0
 70
    11
 71
     3
 72
    20
 73
    16
 74
     0
 42
0.0000000001
 43
0.0000000001
 12
1.0
 22
0.0
 32
0.0
 13
1.0
 23
0.0
 33
0.0
 40
0.0
 40
0.0
 40
0.0
 40
0.0
 40
0.2
 40
0.2
 40
0.2
 40
0.2
 40
0.4
 40
0.4
 40
0.4
 40
0.4
 40
0.6
 40
0.6
 40
0.6
 40
0.6
 40
1.0
 40
1.0
 40
1.0
 40
1.0
 10
179.9239
 20
2.7247
 30
0.0
 10
179.9239
 20
2.7247
 30
0.0
 10
185.0311
 20
2.7247
 30
0.0
 10
185.0311
 20
2.7247
 30
0.0
 10
185.0311
 20
2.7247
 30
0.0
 10
185.0311
 20
2.7247
 30
0.0
 10
185.0311
 20
-7.2856
 30
0.0
 10
185.0311
 20
-7.2856
 30
0.0
 10
185.0311
 20
-7.2856
 30
0.0
 10
185.0311
 20
-7.2856
 30
0.0
 10
179.9239
 20
-7.2856
 30
0.0
 10
179.9239
 20
-7.2856
 30
0.0
 10
179.9239
 20
-7.2856
 30
0.0
 10
179.9239
 20
-7.2856
 30
0.0
 10
179.9239
 20
2.7247
 30
0.0
 10
179.9239
 20
2.7247
 30
0.0
  0
SPLINE
  5
68
330
1F
100
AcDbEntity
  8
layer 1
 62
     7
100
AcDbSpline
210
0.0
220
0.0
230
1.0
 70
    11
 71
     3
 72
    24
 73
    20
 74
     0
 42
0.0000000001
 43
0.0000000001
 12
1.0
 22
0.0
 32
0.0
 13
1.0
 23
0.0
 33
0.0
 40
0.0
 40
0.0
 40
0.0
 40
0.0
 40
0.1666666666666667
 40
0.1666666666666667
 40
0.1666666666666667
 40
0.1666666666666667
 40
0.3333333333333333
 40
0.3333333333333333
 40
0.3333333333333333
 40
0.3333333333333333
 40
0.5
 40
0.5
 40
0.5
 40
0.5
 40
0.6666666666666666
 40
0.6666666666666666
 40
0.6666666666666666
 40
0.6666666666666666
 40
1.0
 40
1.0
 40
1.0
 40
1.0
 10
157.2477
 20
2.7247
 30
0.0
 10
157.2477
 20
2.7247
 30
0.0
 10
162.3548
 20
2.7247
 30
0.0
 10
162.3548
 20
2.7247
 30
0.0
 10
162.3548
 20
2.7247
 30
0.0
 10
162.3548
 20
2.7247
 30
0.0
 10
162.3548
 20
-7.2856
 30
0.0
 10
162.3548
 20
-7.2856
 30
0.0
 10
162.3548
 20
-7.2856
 30
0.0
 10
162.3548
 20
-7.2856
 30
0.0
 10
157.2477
 20
-7.2856
 30
0.0
 10
157.2477
 20
-7.2856
 30
0.0
 10
157.2477
 20
-7.2856
 30
0.0
 10
157.2477
 20
-7.2856
 30
0.0
 10
157.2477
 20
2.7247
 30
0.0
 10
157.2477
 20
2.7247
 30
0.0
 10
157.2477
 20
2.7247
 30
0.0
 10
157.2477
 20
2.7247
 30
0.0
 10
157.2477
 20
2.7247
 30
0.0
 10
157.2477
 20
2.7247
 30
0.0
  0
SPLINE
  5
69
330
1F
100
AcDbEntity
  8
layer 1
 62
     7
100
AcDbSpline
210
0.0
220
0.0
230
1.0
 70
    11
 71
     3
 72
    28
 73
    24
 74
     0
 42
0.0000000001
 43
0.0000000001
 12
1.0
 22
0.0
 32
0.0
 13
1.0
 23
0.0
 33
0.0
 40
0.0
 40
0.0
 40
0.0
 40
0.0
 40
0.1428571428571428
 40
0.1428571428571428
 40
0.1428571428571428
 40
0.1428571428571428
 40
0.2857142857142857
 40
0.2857142857142857
 40
0.2857142857142857
 40
0.2857142857142857
 40
0.4285714285714285
 40
0.4285714285714285
 40
0.4285714285714285
 40
0.4285714285714285
 40
0.5714285714285714
 40
0.5714285714285714
 40
0.5714285714285714
 40
0.5714285714285714
 40
0.7142857142857143
 40
0.7142857142857143
 40
0.7142857142857143
 40
0.7142857142857143
 40
1.0
 40
1.0
 40
1.0
 40
1.0
 10
140.9045
 20
2.7247
 30
0.0
 10
140.9045
 20
2.7247
 30
0.0
 10
154.7961
 20
2.7247
 30
0.0
 10
154.7961
 20
2.7247
 30
0.0
 10
154.7961
 20
2.7247
 30
0.0
 10
154.7961
 20
2.7247
 30
0.0
 10
154.7961
 20
-7.2856
 30
0.0
 10
154.7961
 20
-7.2856
 30
0.0
 10
154.7961
 20
-7.2856
 30
0.0
 10
154.7961
 20
-7.2856
 30
0.0
 10
146.216
 20
-7.2856
 30
0.0
 10
146.216
 20
-7.2856
 30
0.0
 10
146.216
 20
-7.2856
 30
0.0
 10
146.216
 20
-7.2856
 30
0.0
 10
146.216
 20
-17.1936
 30
0.0
 10
146.216
 20
-17.1936
 30
0.0
 10
146.216
 20
-17.1936
 30
0.0
 10
146.216
 20
-17.1936
 30
0.0
 10
140.9045
 20
-17.1936
 30
0.0
 10
140.9045
 20
-17.1936
 30
0.0
 10
140.9045
 20
-17.1936
 30
0.0
 10
140.9045
 20
-17.1936
 30
0.0
 10
140.9045
 20
2.7247
 30
0.0
 10
140.9045
 20
2.7247
 30
0.0
  0
SPLINE
  5
6A
330
1F
100
AcDbEntity
  8
layer 1
 62
     7
100
AcDbSpline
210
0.0
220
0.0
230
1.0
 70
    11
 71
     3
 72
    24
 73
    20
 74
     0
 42
0.0000000001
 43
0.0000000001
 12
1.0
 22
0.0
 32
0.0
 13
1.0
 23
0.0
 33
0.0
 40
0.0
 40
0.0
 40
0.0
 40
0.0
 40
0.1666666666666667
 40
0.1666666666666667
 40
0.1666666666666667
 40
0.1666666666666667
 40
0.3333333333333333
 40
0.3333333333333333
 40
0.3333333333333333
 40
0.3333333333333333
 40
0.5
 40
0.5
 40
0.5
 40
0.5
 40
0.6666666666666666
 40
0.6666666666666666
 40
0.6666666666666666
 40
0.6666666666666666
 40
1.0
 40
1.0
 40
1.0
 40
1.0
 10
117.0025
 20
2.7247
 30
0.0
 10
117.0025
 20
2.7247
 30
0.0
 10
122.1097
 20
2.7247
 30
0.0
 10
122.1097
 20
2.7247
 30
0.0
 10
122.1097
 20
2.7247
 30
0.0
 10
122.1097
 20
2.7247
 30
0.0
 10
122.1097
 20
-7.2856
 30
0.0
 10
122.1097
 20
-7.2856
 30
0.0
 10
122.1097
 20
-7.2856
 30
0.0
 10
122.1097
 20
-7.2856
 30
0.0
 10
117.0025
 20
-7.2856
 30
0.0
 10
117.0025
 20
-7.2856
 30
0.0
 10
117.0025
 20
-7.2856
 30
0.0
 10
117.0025
 20
-7.2856
 30
0.0
 10
117.0025
 20
2.7247
 30
0.0
 10
117.0025
 20
2.7247
 30
0.0
 10
117.0025
 20
2.7247
 30
0.0
 10
117.0025
 20
2.7247
 30
0.0
 10
117.0025
 20
2.7247
 30
0.0
 10
117.0025
 20
2.7247
 30
0.0
  0
SPLINE
  5
6B
330
1F
100
AcDbEntity
  8
layer 1
 62
     7
100
AcDbSpline
210
0.0
220
0.0
230
1.0
 70
    11
 71
     3
 72
    24
 73
    20
 74
     0
 42
0.0000000001
 43
0.0000000001
 12
1.0
 22
0.0
 32
0.0
 13
1.0
 23
0.0
 33
0.0
 40
0.0
 40
0.0
 40
0.0
 40
0.0
 40
0.1666666666666667
 40
0.1666666666666667
 40
0.1666666666666667
 40
0.1666666666666667
 40
0.3333333333333333
 40
0.3333333333333333
 40
0.3333333333333333
 40
0.3333333333333333
 40
0.5
 40
0.5
 40
0.5
 40
0.5
 40
0.6666666666666666
 40
0.6666666666666666
 40
0.6666666666666666
 40
0.6666666666666666
 40
1.0
 40
1.0
 40
1.0
 40
1.0
 10
94.3262
 20
2.7247
 30
0.0
 10
94.3262
 20
2.7247
 30
0.0
 10
99.4334
 20
2.7247
 30
0.0
 10
99.4334
 20
2.7247
 30
0.0
 10
99.4334
 20
2.7247
 30
0.0
 10
99.4334
 20
2.7247
 30
0.0
 10
99.4334
 20
-7.2856
 30
0.0
 10
99.4334
 20
-7.2856
 30
0.0
 10
99.4334
 20
-7.2856
 30
0.0
 10
99.4334
 20
-7.2856
 30
0.0
 10
94.3262
 20
-7.2856
 30
0.0
 10
94.3262
 20
-7.2856
 30
0.0
 10
94.3262
 20
-7.2856
 30
0.0
 10
94.3262
 20
-7.2856
 30
0.0
 10
94.3262
 20
2.7247
 30
0.0
 10
94.3262
 20
2.7247
 30
0.0
 10
94.3262
 20
2.7247
 30
0.0
 10
94.3262
 20
2.7247
 30
0.0
 10
94.3262
 20
2.7247
 30
0.0
 10
94.3262
 20
2.7247
 30
0.0
  0
SPLINE
  5
6C
330
1F
100
AcDbEntity
  8
layer 1
 62
     7
100
AcDbSpline
210
0.0
220
0.0
230
1.0
 70
    11
 71
     3
 72
    32
 73
    28
 74
     0
 42
0.0000000001
 43
0.0000000001
 12
1.0
 22
0.0
 32
0.0
 13
1.0
 23
0.0
 33
0.0
 40
0.0
 40
0.0
 40
0.0
 40
0.0
 40
0.125
 40
0.125
 40
0.125
 40
0.125
 40
0.25
 40
0.25
 40
0.25
 40
0.25
 40
0.375
 40
0.375
 40
0.375
 40
0.375
 40
0.5
 40
0.5
 40
0.5
 40
0.5
 40
0.625
 40
0.625
 40
0.625
 40
0.625
 40
0.75
 40
0.75
 40
0.75
 40
0.75
 40
1.0
 40
1.0
 40
1.0
 40
1.0
 10
77.983
 20
2.7247
 30
0.0
 10
77.983
 20
2.7247
 30
0.0
 10
77.983
 20
-17.1936
 30
0.0
 10
77.983
 20
-17.1936
 30
0.0
 10
77.983
 20
-17.1936
 30
0.0
 10
77.983
 20
-17.1936
 30
0.0
 10
83.2946
 20
-17.1936
 30
0.0
 10
83.2946
 20
-17.1936
 30
0.0
 10
83.2946
 20
-17.1936
 30
0.0
 10
83.2946
 20
-17.1936
 30
0.0
 10
83.2946
 20
-7.2856
 30
0.0
 10
83.2946
 20
-7.2856
 30
0.0
 10
83.2946
 20
-7.2856
 30
0.0
 10
83.2946
 20
-7.2856
 30
0.0
 10
91.8746
 20
-7.2856
 30
0.0
 10
91.8746
 20
-7.2856
 30
0.0
 10
91.8746
 20
-7.2856
 30
0.0
 10
91.8746
 20
-7.2856
 30
0.0
 10
91.8746
 20
2.7247
 30
0.0
 10
91.8746
 20
2.7247
 30
0.0
 10
91.8746
 20
2.7247
 30
0.0
 10
91.8746
 20
2.7247
 30
0.0
 10
77.983
 20
2.7247
 30
0.0
 10
77.983
 20
2.7247
 30
0.0
 10
77.983
 20
2.7247
 30
0.0
 10
77.983
 20
2.7247
 30
0.0
 10
77.983
 20
2.7247
 30
0.0
 10
77.983
 20
2.7247
 30
0.0
  0
SPLINE
  5
6D
330
1F
100
AcDbEntity
  8
layer 1
 62
     7
100
AcDbSpline
210
0.0
220
0.0
230
1.0
 70
    11
 71
     3
 72
    24
 73
    20
 74
     0
 42
0.0000000001
 43
0.0000000001
 12
1.0
 22
0.0
 32
0.0
 13
1.0
 23
0.0
 33
0.0
 40
0.0
 40
0.0
 40
0.0
 40
0.0
 40
0.1666666666666667
 40
0.1666666666666667
 40
0.1666666666666667
 40
0.1666666666666667
 40
0.3333333333333333
 40
0.3333333333333333
 40
0.3333333333333333
 40
0.3333333333333333
 40
0.5
 40
0.5
 40
0.5
 40
0.5
 40
0.6666666666666666
 40
0.6666666666666666
 40
0.6666666666666666
 40
0.6666666666666666
 40
1.0
 40
1.0
 40
1.0
 40
1.0
 10
54.0811
 20
2.7247
 30
0.0
 10
54.0811
 20
2.7247
 30
0.0
 10
59.1882
 20
2.7247
 30
0.0
 10
59.1882
 20
2.7247
 30
0.0
 10
59.1882
 20
2.7247
 30
0.0
 10
59.1882
 20
2.7247
 30
0.0
 10
59.1882
 20
-7.2856
 30
0.0
 10
59.1882
 20
-7.2856
 30
0.0
 10
59.1882
 20
-7.2856
 30
0.0
 10
59.1882
 20
-7.2856
 30
0.0
 10
54.0811
 20
-7.2856
 30
0.0
 10
54.0811
 20
-7.2856
 30
0.0
 10
54.0811
 20
-7.2856
 30
0.0
 10
54.0811
 20
-7.2856
 30
0.0
 10
54.0811
 20
2.7247
 30
0.0
 10
54.0811
 20
2.7247
 30
0.0
 10
54.0811
 20
2.7247
 30
0.0
 10
54.0811
 20
2.7247
 30
0.0
 10
54.0811
 20
2.7247
 30
0.0
 10
54.0811
 20
2.7247
 30
0.0
  0
SPLINE
  5
6E
330
1F
100
AcDbEntity
  8
layer 1
 62
     7
100
AcDbSpline
210
0.0
220
0.0
230
1.0
 70
    11
 71
     3
 72
    24
 73
    20
 74
     0
 42
0.0000000001
 43
0.0000000001
 12
1.0
 22
0.0
 32
0.0
 13
1.0
 23
0.0
 33
0.0
 40
0.0
 40
0.0
 40
0.0
 40
0.0
 40
0.1666666666666667
 40
0.1666666666666667
 40
0.1666666666666667
 40
0.1666666666666667
 40
0.3333333333333333
 40
0.3333333333333333
 40
0.3333333333333333
 40
0.3333333333333333
 40
0.5
 40
0.5
 40
0.5
 40
0.5
 40
0.6666666666666666
 40
0.6666666666666666
 40
0.6666666666666666
 40
0.6666666666666666
 40
1.0
 40
1.0
 40
1.0
 40
1.0
 10
31.4048
 20
2.7247
 30
0.0
 10
31.4048
 20
2.7247
 30
0.0
 10
36.512
 20
2.7247
 30
0.0
 10
36.512
 20
2.7247
 30
0.0
 10
36.512
 20
2.7247
 30
0.0
 10
36.512
 20
2.7247
 30
0.0
 10
36.512
 20
-7.2856
 30
0.0
 10
36.512
 20
-7.2856
 30
0.0
 10
36.512
 20
-7.2856
 30
0.0
 10
36.512
 20
-7.2856
 30
0.0
 10
31.4048
 20
-7.2856
 30
0.0
 10
31.4048
 20
-7.2856
 30
0.0
 10
31.4048
 20
-7.2856
 30
0.0
 10
31.4048
 20
-7.2856
 30
0.0
 10
31.4048
 20
2.7247
 30
0.0
 10
31.4048
 20
2.7247
 30
0.0
 10
31.4048
 20
2.7247
 30
0.0
 10
31.4048
 20
2.7247
 30
0.0
 10
31.4048
 20
2.7247
 30
0.0
 10
31.4048
 20
2.7247
 30
0.0
  0
SPLINE
  5
6F
330
1F
100
AcDbEntity
  8
layer 1
 62
     7
100
AcDbSpline
210
0.0
220
0.0
230
1.0
 70
    11
 71
     3
 72
    20
 73
    16
 74
     0
 42
0.0000000001
 43
0.0000000001
 12
1.0
 22
0.0
 32
0.0
 13
1.0
 23
0.0
 33
0.0
 40
0.0
 40
0.0
 40
0.0
 40
0.0
 40
0.2
 40
0.2
 40
0.2
 40
0.2
 40
0.4
 40
0.4
 40
0.4
 40
0.4
 40
0.6
 40
0.6
 40
0.6
 40
0.6
 40
1.0
 40
1.0
 40
1.0
 40
1.0
 10
22.9063
 20
2.7247
 30
0.0
 10
22.9063
 20
2.7247
 30
0.0
 10
28.9532
 20
2.7247
 30
0.0
 10
28.9532
 20
2.7247
 30
0.0
 10
28.9532
 20
2.7247
 30
0.0
 10
28.9532
 20
2.7247
 30
0.0
 10
28.9532
 20
-7.2856
 30
0.0
 10
28.9532
 20
-7.2856
 30
0.0
 10
28.9532
 20
-7.2856
 30
0.0
 10
28.9532
 20
-7.2856
 30
0.0
 10
22.9063
 20
-7.2856
 30
0.0
 10
22.9063
 20
-7.2856
 30
0.0
 10
22.9063
 20
-7.2856
 30
0.0
 10
22.9063
 20
-7.2856
 30
0.0
 10
22.9063
 20
2.7247
 30
0.0
 10
22.9063
 20
2.7247
 30
0.0
  0
SPLINE
  5
70
330
1F
100
AcDbEntity
  8
layer 1
 62
     7
100
AcDbSpline
210
0.0
220
0.0
230
1.0
 70
    11
 71
     3
 72
    24
 73
    20
 74
     0
 42
0.0000000001
 43
0.0000000001
 12
1.0
 22
0.0
 32
0.0
 13
1.0
 23
0.0
 33
0.0
 40
0.0
 40
0.0
 40
0.0
 40
0.0
 40
0.1666666666666667
 40
0.1666666666666667
 40
0.1666666666666667
 40
0.1666666666666667
 40
0.3333333333333333
 40
0.3333333333333333
 40
0.3333333333333333
 40
0.3333333333333333
 40
0.5
 40
0.5
 40
0.5
 40
0.5
 40
0.6666666666666666
 40
0.6666666666666666
 40
0.6666666666666666
 40
0.6666666666666666
 40
1.0
 40
1.0
 40
1.0
 40
1.0
 10
179.9239
 20
15.1862
 30
0.0
 10
179.9239
 20
15.1862
 30
0.0
 10
185.0311
 20
15.1865
 30
0.0
 10
185.0311
 20
15.1865
 30
0.0
 10
185.0311
 20
15.1865
 30
0.0
 10
185.0311
 20
15.1865
 30
0.0
 10
185.0311
 20
5.1761
 30
0.0
 10
185.0311
 20
5.1761
 30
0.0
 10
185.0311
 20
5.1761
 30
0.0
 10
185.0311
 20
5.1761
 30
0.0
 10
179.9239
 20
5.1761
 30
0.0
 10
179.9239
 20
5.1761
 30
0.0
 10
179.9239
 20
5.1761
 30
0.0
 10
179.9239
 20
5.1761
 30
0.0
 10
179.9239
 20
15.1865
 30
0.0
 10
179.9239
 20
15.1865
 30
0.0
 10
179.9239
 20
15.1865
 30
0.0
 10
179.9239
 20
15.1865
 30
0.0
 10
179.9239
 20
15.1862
 30
0.0
 10
179.9239
 20
15.1862
 30
0.0
  0
SPLINE
  5
71
330
1F
100
AcDbEntity
  8
layer 1
 62
     7
100
AcDbSpline
210
0.0
220
0.0
230
1.0
 70
    11
 71
     3
 72
    24
 73
    20
 74
     0
 42
0.0000000001
 43
0.0000000001
 12
1.0
 22
0.0
 32
0.0
 13
1.0
 23
0.0
 33
0.0
 40
0.0
 40
0.0
 40
0.0
 40
0.0
 40
0.1666666666666667
 40
0.1666666666666667
 40
0.1666666666666667
 40
0.1666666666666667
 40
0.3333333333333333
 40
0.3333333333333333
 40
0.3333333333333333
 40
0.3333333333333333
 40
0.5
 40
0.5
 40
0.5
 40
0.5
 40
0.6666666666666666
 40
0.6666666666666666
 40
0.6666666666666666
 40
0.6666666666666666
 40
1.0
 40
1.0
 40
1.0
 40
1.0
 10
157.2477
 20
15.1862
 30
0.0
 10
157.2477
 20
15.1862
 30
0.0
 10
162.3548
 20
15.1865
 30
0.0
 10
162.3548
 20
15.1865
 30
0.0
 10
162.3548
 20
15.1865
 30
0.0
 10
162.3548
 20
15.1865
 30
0.0
 10
162.3548
 20
5.1761
 30
0.0
 10
162.3548
 20
5.1761
 30
0.0
 10
162.3548
 20
5.1761
 30
0.0
 10
162.3548
 20
5.1761
 30
0.0
 10
157.2477
 20
5.1761
 30
0.0
 10
157.2477
 20
5.1761
 30
0.0
 10
157.2477
 20
5.1761
 30
0.0
 10
157.2477
 20
5.1761
 30
0.0
 10
157.2477
 20
15.1865
 30
0.0
 10
157.2477
 20
15.1865
 30
0.0
 10
157.2477
 20
15.1865
 30
0.0
 10
157.2477
 20
15.1865
 30
0.0
 10
157.2477
 20
15.1862
 30
0.0
 10
157.2477
 20
15.1862
 30
0.0
  0
SPLINE
  5
72
330
1F
100
AcDbEntity
  8
layer 1
 62
     7
100
AcDbSpline
210
0.0
220
0.0
230
1.0
 70
    11
 71
     3
 72
    24
 73
    20
 74
     0
 42
0.0000000001
 43
0.0000000001
 12
1.0
 22
0.0
 32
0.0
 13
1.0
 23
0.0
 33
0.0
 40
0.0
 40
0.0
 40
0.0
 40
0.0
 40
0.1666666666666667
 40
0.1666666666666667
 40
0.1666666666666667
 40
0.1666666666666667
 40
0.3333333333333333
 40
0.3333333333333333
 40
0.3333333333333333
 40
0.3333333333333333
 40
0.5
 40
0.5
 40
0.5
 40
0.5
 40
0.6666666666666666
 40
0.6666666666666666
 40
0.6666666666666666
 40
0.6666666666666666
 40
1.0
 40
1.0
 40
1.0
 40
1.0
 10
117.0025
 20
15.1862
 30
0.0
 10
117.0025
 20
15.1862
 30
0.0
 10
122.1097
 20
15.1865
 30
0.0
 10
122.1097
 20
15.1865
 30
0.0
 10
122.1097
 20
15.1865
 30
0.0
 10
122.1097
 20
15.1865
 30
0.0
 10
122.1097
 20
5.1761
 30
0.0
 10
122.1097
 20
5.1761
 30
0.0
 10
122.1097
 20
5.1761
 30
0.0
 10
122.1097
 20
5.1761
 30
0.0
 10
117.0025
 20
5.1761
 30
0.0
 10
117.0025
 20
5.1761
 30
0.0
 10
117.0025
 20
5.1761
 30
0.0
 10
117.0025
 20
5.1761
 30
0.0
 10
117.0025
 20
15.1865
 30
0.0
 10
117.0025
 20
15.1865
 30
0.0
 10
117.0025
 20
15.1865
 30
0.0
 10
117.0025
 20
15.1865
 30
0.0
 10
117.0025
 20
15.1862
 30
0.0
 10
117.0025
 20
15.1862
 30
0.0
  0
SPLINE
  5
73
330
1F
100
AcDbEntity
  8
layer 1
 62
     7
100
AcDbSpline
210
0.0
220
0.0
230
1.0
 70
    11
 71
     3
 72
    24
 73
    20
 74
     0
 42
0.0000000001
 43
0.0000000001
 12
1.0
 22
0.0
 32
0.0
 13
1.0
 23
0.0
 33
0.0
 40
0.0
 40
0.0
 40
0.0
 40
0.0
 40
0.1666666666666667
 40
0.1666666666666667
 40
0.1666666666666667
 40
0.1666666666666667
 40
0.3333333333333333
 40
0.3333333333333333
 40
0.3333333333333333
 40
0.3333333333333333
 40
0.5
 40
0.5
 40
0.5
 40
0.5
 40
0.6666666666666666
 40
0.6666666666666666
 40
0.6666666666666666
 40
0.6666666666666666
 40
1.0
 40
1.0
 40
1.0
 40
1.0
 10
94.3262
 20
15.1862
 30
0.0
 10
94.3262
 20
15.1862
 30
0.0
 10
99.4334
 20
15.1865
 30
0.0
 10
99.4334
 20
15.1865
 30
0.0
 10
99.4334
 20
15.1865
 30
0.0
 10
99.4334
 20
15.1865
 30
0.0
 10
99.4334
 20
5.1761
 30
0.0
 10
99.4334
 20
5.1761
 30
0.0
 10
99.4334
 20
5.1761
 30
0.0
 10
99.4334
 20
5.1761
 30
0.0
 10
94.3262
 20
5.1761
 30
0.0
 10
94.3262
 20
5.1761
 30
0.0
 10
94.3262
 20
5.1761
 30
0.0
 10
94.3262
 20
5.1761
 30
0.0
 10
94.3262
 20
15.1865
 30
0.0
 10
94.3262
 20
15.1865
 30
0.0
 10
94.3262
 20
15.1865
 30
0.0
 10
94.3262
 20
15.1865
 30
0.0
 10
94.3262
 20
15.1862
 30
0.0
 10
94.3262
 20
15.1862
 30
0.0
  0
SPLINE
  5
74
330
1F
100
AcDbEntity
  8
layer 1
 62
     7
100
AcDbSpline
210
0.0
220
0.0
230
1.0
 70
    11
 71
     3
 72
    24
 73
    20
 74
     0
 42
0.0000000001
 43
0.0000000001
 12
1.0
 22
0.0
 32
0.0
 13
1.0
 23
0.0
 33
0.0
 40
0.0
 40
0.0
 40
0.0
 40
0.0
 40
0.1666666666666667
 40
0.1666666666666667
 40
0.1666666666666667
 40
0.1666666666666667
 40
0.3333333333333333
 40
0.3333333333333333
 40
0.3333333333333333
 40
0.3333333333333333
 40
0.5
 40
0.5
 40
0.5
 40
0.5
 40
0.6666666666666666
 40
0.6666666666666666
 40
0.6666666666666666
 40
0.6666666666666666
 40
1.0
 40
1.0
 40
1.0
 40
1.0
 10
54.0811
 20
15.1862
 30
0.0
 10
54.0811
 20
15.1862
 30
0.0
 10
59.1882
 20
15.1865
 30
0.0
 10
59.1882
 20
15.1865
 30
0.0
 10
59.1882
 20
15.1865
 30
0.0
 10
59.1882
 20
15.1865
 30
0.0
 10
59.1882
 20
5.1761
 30
0.0
 10
59.1882
 20
5.1761
 30
0.0
 10
59.1882
 20
5.1761
 30
0.0
 10
59.1882
 20
5.1761
 30
0.0
 10
54.0811
 20
5.1761
 30
0.0
 10
54.0811
 20
5.1761
 30
0.0
 10
54.0811
 20
5.1761
 30
0.0
 10
54.0811
 20
5.1761
 30
0.0
 10
54.0811
 20
15.1865
 30
0.0
 10
54.0811
 20
15.1865
 30
0.0
 10
54.0811
 20
15.1865
 30
0.0
 10
54.0811
 20
15.1865
 30
0.0
 10
54.0811
 20
15.1862
 30
0.0
 10
54.0811
 20
15.1862
 30
0.0
  0
SPLINE
  5
75
330
1F
100
AcDbEntity
  8
layer 1
 62
     7
100
AcDbSpline
210
0.0
220
0.0
230
1.0
 70
    11
 71
     3
 72
    24
 73
    20
 74
     0
 42
0.0000000001
 43
0.0000000001
 12
1.0
 22
0.0
 32
0.0
 13
1.0
 23
0.0
 33
0.0
 40
0.0
 40
0.0
 40
0.0
 40
0.0
 40
0.1666666666666667
 40
0.1666666666666667
 40
0.1666666666666667
 40
0.1666666666666667
 40
0.3333333333333333
 40
0.3333333333333333
 40
0.3333333333333333
 40
0.3333333333333333
 40
0.5
 40
0.5
 40
0.5
 40
0.5
 40
0.6666666666666666
 40
0.6666666666666666
 40
0.6666666666666666
 40
0.6666666666666666
 40
1.0
 40
1.0
 40
1.0
 40
1.0
 10
31.4048
 20
15.1862
 30
0.0
 10
31.4048
 20
15.1862
 30
0.0
 10
36.512
 20
15.1865
 30
0.0
 10
36.512
 20
15.1865
 30
0.0
 10
36.512
 20
15.1865
 30
0.0
 10
36.512
 20
15.1865
 30
0.0
 10
36.512
 20
5.1761
 30
0.0
 10
36.512
 20
5.1761
 30
0.0
 10
36.512
 20
5.1761
 30
0.0
 10
36.512
 20
5.1761
 30
0.0
 10
31.4048
 20
5.1761
 30
0.0
 10
31.4048
 20
5.1761
 30
0.0
 10
31.4048
 20
5.1761
 30
0.0
 10
31.4048
 20
5.1761
 30
0.0
 10
31.4048
 20
15.1865
 30
0.0
 10
31.4048
 20
15.1865
 30
0.0
 10
31.4048
 20
15.1865
 30
0.0
 10
31.4048
 20
15.1865
 30
0.0
 10
31.4048
 20
15.1862
 30
0.0
 10
31.4048
 20
15.1862
 30
0.0
  0
SPLINE
  5
76
330
1F
100
AcDbEntity
  8
layer 1
 62
     7
100
AcDbSpline
210
0.0
220
0.0
230
1.0
 70
    11
 71
     3
 72
    24
 73
    20
 74
     0
 42
0.0000000001
 43
0.0000000001
 12
1.0
 22
0.0
 32
0.0
 13
1.0
 23
0.0
 33
0.0
 40
0.0
 40
0.0
 40
0.0
 40
0.0
 40
0.1666666666666667
 40
0.1666666666666667
 40
0.1666666666666667
 40
0.1666666666666667
 40
0.3333333333333333
 40
0.3333333333333333
 40
0.3333333333333333
 40
0.3333333333333333
 40
0.5
 40
0.5
 40
0.5
 40
0.5
 40
0.6666666666666666
 40
0.6666666666666666
 40
0.6666666666666666
 40
0.6666666666666666
 40
1.0
 40
1.0
 40
1.0
 40
1.0
 10
22.9063
 20
15.1862
 30
0.0
 10
22.9063
 20
15.1862
 30
0.0
 10
28.9532
 20
15.1865
 30
0.0
 10
28.9532
 20
15.1865
 30
0.0
 10
28.9532
 20
15.1865
 30
0.0
 10
28.9532
 20
15.1865
 30
0.0
 10
28.9532
 20
5.1761
 30
0.0
 10
28.9532
 20
5.1761
 30
0.0
 10
28.9532
 20
5.1761
 30
0.0
 10
28.9532
 20
5.1761
 30
0.0
 10
22.9063
 20
5.1761
 30
0.0
 10
22.9063
 20
5.1761
 30
0.0
 10
22.9063
 20
5.1761
 30
0.0
 10
22.9063
 20
5.1761
 30
0.0
 10
22.9063
 20
15.1865
 30
0.0
 10
22.9063
 20
15.1865
 30
0.0
 10
22.9063
 20
15.1865
 30
0.0
 10
22.9063
 20
15.1865
 30
0.0
 10
22.9063
 20
15.1862
 30
0.0
 10
22.9063
 20
15.1862
 30
0.0
  0
SPLINE
  5
77
330
1F
100
AcDbEntity
  8
layer 1
 62
     7
100
AcDbSpline
210
0.0
220
0.0
230
1.0
 70
    11
 71
     3
 72
    36
 73
    32
 74
     0
 42
0.0000000001
 43
0.0000000001
 12
1.0
 22
0.0
 32
0.0
 13
1.0
 23
0.0
 33
0.0
 40
0.0
 40
0.0
 40
0.0
 40
0.0
 40
0.1111111111111111
 40
0.1111111111111111
 40
0.1111111111111111
 40
0.1111111111111111
 40
0.2222222222222222
 40
0.2222222222222222
 40
0.2222222222222222
 40
0.2222222222222222
 40
0.3333333333333333
 40
0.3333333333333333
 40
0.3333333333333333
 40
0.3333333333333333
 40
0.4444444444444444
 40
0.4444444444444444
 40
0.4444444444444444
 40
0.4444444444444444
 40
0.5555555555555556
 40
0.5555555555555556
 40
0.5555555555555556
 40
0.5555555555555556
 40
0.6666666666666666
 40
0.6666666666666666
 40
0.6666666666666666
 40
0.6666666666666666
 40
0.7777777777777778
 40
0.7777777777777778
 40
0.7777777777777778
 40
0.7777777777777778
 40
1.0
 40
1.0
 40
1.0
 40
1.0
 10
22.9063
 20
50.406
 30
0.0
 10
22.9063
 20
50.406
 30
0.0
 10
22.9063
 20
17.6379
 30
0.0
 10
22.9063
 20
17.6379
 30
0.0
 10
22.9063
 20
17.6379
 30
0.0
 10
22.9063
 20
17.6379
 30
0.0
 10
28.9532
 20
17.6379
 30
0.0
 10
28.9532
 20
17.6379
 30
0.0
 10
28.9532
 20
17.6379
 30
0.0
 10
28.9532
 20
17.6379
 30
0.0
 10
28.9532
 20
25.1966
 30
0.0
 10
28.9532
 20
25.1966
 30
0.0
 10
28.9532
 20
25.1966
 30
0.0
 10
28.9532
 20
25.1966
 30
0.0
 10
35.2863
 20
25.1966
 30
0.0
 10
35.2863
 20
25.1966
 30
0.0
 10
35.2863
 20
25.1966
 30
0.0
 10
35.2863
 20
25.1966
 30
0.0
 10
35.2863
 20
42.8472
 30
0.0
 10
35.2863
 20
42.8472
 30
0.0
 10
35.2863
 20
42.8472
 30
0.0
 10
35.2863
 20
42.8472
 30
0.0
 10
28.9532
 20
42.8472
 30
0.0
 10
28.9532
 20
42.8472
 30
0.0
 10
28.9532
 20
42.8472
 30
0.0
 10
28.9532
 20
42.8472
 30
0.0
 10
28.9532
 20
50.406
 30
0.0
 10
28.9532
 20
50.406
 30
0.0
 10
28.9532
 20
50.406
 30
0.0
 10
28.9532
 20
50.406
 30
0.0
 10
22.9063
 20
50.406
 30
0.0
 10
22.9063
 20
50.406
 30
0.0
  0
SPLINE
  5
78
330
1F
100
AcDbEntity
  8
layer 1
 62
     7
100
AcDbSpline
210
0.0
220
0.0
230
1.0
 70
    11
 71
     3
 72
    24
 73
    20
 74
     0
 42
0.0000000001
 43
0.0000000001
 12
1.0
 22
0.0
 32
0.0
 13
1.0
 23
0.0
 33
0.0
 40
0.0
 40
0.0
 40
0.0
 40
0.0
 40
0.1666666666666667
 40
0.1666666666666667
 40
0.1666666666666667
 40
0.1666666666666667
 40
0.3333333333333333
 40
0.3333333333333333
 40
0.3333333333333333
 40
0.3333333333333333
 40
0.5
 40
0.5
 40
0.5
 40
0.5
 40
0.6666666666666666
 40
0.6666666666666666
 40
0.6666666666666666
 40
0.6666666666666666
 40
1.0
 40
1.0
 40
1.0
 40
1.0
 10
77.983
 20
40.4978
 30
0.0
 10
77.983
 20
40.4978
 30
0.0
 10
83.2946
 20
40.498
 30
0.0
 10
83.2946
 20
40.498
 30
0.0
 10
83.2946
 20
40.498
 30
0.0
 10
83.2946
 20
40.498
 30
0.0
 10
83.2946
 20
27.546
 30
0.0
 10
83.2946
 20
27.546
 30
0.0
 10
83.2946
 20
27.546
 30
0.0
 10
83.2946
 20
27.546
 30
0.0
 10
77.983
 20
27.546
 30
0.0
 10
77.983
 20
27.546
 30
0.0
 10
77.983
 20
27.546
 30
0.0
 10
77.983
 20
27.546
 30
0.0
 10
77.983
 20
40.4978
 30
0.0
 10
77.983
 20
40.4978
 30
0.0
 10
77.983
 20
40.4978
 30
0.0
 10
77.983
 20
40.4978
 30
0.0
 10
77.983
 20
40.4978
 30
0.0
 10
77.983
 20
40.4978
 30
0.0
  0
SPLINE
  5
79
330
1F
100
AcDbEntity
  8
layer 1
 62
     7
100
AcDbSpline
210
0.0
220
0.0
230
1.0
 70
    11
 71
     3
 72
    36
 73
    32
 74
     0
 42
0.0000000001
 43
0.0000000001
 12
1.0
 22
0.0
 32
0.0
 13
1.0
 23
0.0
 33
0.0
 40
0.0
 40
0.0
 40
0.0
 40
0.0
 40
0.1111111111111111
 40
0.1111111111111111
 40
0.1111111111111111
 40
0.1111111111111111
 40
0.2222222222222222
 40
0.2222222222222222
 40
0.2222222222222222
 40
0.2222222222222222
 40
0.3333333333333333
 40
0.3333333333333333
 40
0.3333333333333333
 40
0.3333333333333333
 40
0.4444444444444444
 40
0.4444444444444444
 40
0.4444444444444444
 40
0.4444444444444444
 40
0.5555555555555556
 40
0.5555555555555556
 40
0.5555555555555556
 40
0.5555555555555556
 40
0.6666666666666666
 40
0.6666666666666666
 40
0.6666666666666666
 40
0.6666666666666666
 40
0.7777777777777778
 40
0.7777777777777778
 40
0.7777777777777778
 40
0.7777777777777778
 40
1.0
 40
1.0
 40
1.0
 40
1.0
 10
148.6674
 20
50.406
 30
0.0
 10
148.6674
 20
50.406
 30
0.0
 10
148.6674
 20
17.6379
 30
0.0
 10
148.6674
 20
17.6379
 30
0.0
 10
148.6674
 20
17.6379
 30
0.0
 10
148.6674
 20
17.6379
 30
0.0
 10
154.7961
 20
17.6379
 30
0.0
 10
154.7961
 20
17.6379
 30
0.0
 10
154.7961
 20
17.6379
 30
0.0
 10
154.7961
 20
17.6379
 30
0.0
 10
154.7961
 20
25.1966
 30
0.0
 10
154.7961
 20
25.1966
 30
0.0
 10
154.7961
 20
25.1966
 30
0.0
 10
154.7961
 20
25.1966
 30
0.0
 10
161.1291
 20
25.1966
 30
0.0
 10
161.1291
 20
25.1966
 30
0.0
 10
161.1291
 20
25.1966
 30
0.0
 10
161.1291
 20
25.1966
 30
0.0
 10
161.1291
 20
42.8472
 30
0.0
 10
161.1291
 20
42.8472
 30
0.0
 10
161.1291
 20
42.8472
 30
0.0
 10
161.1291
 20
42.8472
 30
0.0
 10
154.7961
 20
42.8472
 30
0.0
 10
154.7961
 20
42.8472
 30
0.0
 10
154.7961
 20
42.8472
 30
0.0
 10
154.7961
 20
42.8472
 30
0.0
 10
154.7961
 20
50.406
 30
0.0
 10
154.7961
 20
50.406
 30
0.0
 10
154.7961
 20
50.406
 30
0.0
 10
154.7961
 20
50.406
 30
0.0
 10
148.6674
 20
50.406
 30
0.0
 10
148.6674
 20
50.406
 30
0.0
  0
SPLINE
  5
7A
330
1F
100
AcDbEntity
  8
layer 1
 62
     7
100
AcDbSpline
210
0.0
220
0.0
230
1.0
 70
    11
 71
     3
 72
    24
 73
    20
 74
     0
 42
0.0000000001
 43
0.0000000001
 12
1.0
 22
0.0
 32
0.0
 13
1.0
 23
0.0
 33
0.0
 40
0.0
 40
0.0
 40
0.0
 40
0.0
 40
0.1666666666666667
 40
0.1666666666666667
 40
0.1666666666666667
 40
0.1666666666666667
 40
0.3333333333333333
 40
0.3333333333333333
 40
0.3333333333333333
 40
0.3333333333333333
 40
0.5
 40
0.5
 40
0.5
 40
0.5
 40
0.6666666666666666
 40
0.6666666666666666
 40
0.6666666666666666
 40
0.6666666666666666
 40
1.0
 40
1.0
 40
1.0
 40
1.0
 10
179.9239
 20
62.8677
 30
0.0
 10
179.9239
 20
62.8677
 30
0.0
 10
185.0311
 20
62.8677
 30
0.0
 10
185.0311
 20
62.8677
 30
0.0
 10
185.0311
 20
62.8677
 30
0.0
 10
185.0311
 20
62.8677
 30
0.0
 10
185.0311
 20
52.8576
 30
0.0
 10
185.0311
 20
52.8576
 30
0.0
 10
185.0311
 20
52.8576
 30
0.0
 10
185.0311
 20
52.8576
 30
0.0
 10
179.9239
 20
52.8576
 30
0.0
 10
179.9239
 20
52.8576
 30
0.0
 10
179.9239
 20
52.8576
 30
0.0
 10
179.9239
 20
52.8576
 30
0.0
 10
179.9239
 20
62.8677
 30
0.0
 10
179.9239
 20
62.8677
 30
0.0
 10
179.9239
 20
62.8677
 30
0.0
 10
179.9239
 20
62.8677
 30
0.0
 10
179.9239
 20
62.8677
 30
0.0
 10
179.9239
 20
62.8677
 30
0.0
  0
SPLINE
  5
7B
330
1F
100
AcDbEntity
  8
layer 1
 62
     7
100
AcDbSpline
210
0.0
220
0.0
230
1.0
 70
    11
 71
     3
 72
    24
 73
    20
 74
     0
 42
0.0000000001
 43
0.0000000001
 12
1.0
 22
0.0
 32
0.0
 13
1.0
 23
0.0
 33
0.0
 40
0.0
 40
0.0
 40
0.0
 40
0.0
 40
0.1666666666666667
 40
0.1666666666666667
 40
0.1666666666666667
 40
0.1666666666666667
 40
0.3333333333333333
 40
0.3333333333333333
 40
0.3333333333333333
 40
0.3333333333333333
 40
0.5
 40
0.5
 40
0.5
 40
0.5
 40
0.6666666666666666
 40
0.6666666666666666
 40
0.6666666666666666
 40
0.6666666666666666
 40
1.0
 40
1.0
 40
1.0
 40
1.0
 10
157.2477
 20
62.8677
 30
0.0
 10
157.2477
 20
62.8677
 30
0.0
 10
162.3548
 20
62.8677
 30
0.0
 10
162.3548
 20
62.8677
 30
0.0
 10
162.3548
 20
62.8677
 30
0.0
 10
162.3548
 20
62.8677
 30
0.0
 10
162.3548
 20
52.8576
 30
0.0
 10
162.3548
 20
52.8576
 30
0.0
 10
162.3548
 20
52.8576
 30
0.0
 10
162.3548
 20
52.8576
 30
0.0
 10
157.2477
 20
52.8576
 30
0.0
 10
157.2477
 20
52.8576
 30
0.0
 10
157.2477
 20
52.8576
 30
0.0
 10
157.2477
 20
52.8576
 30
0.0
 10
157.2477
 20
62.8677
 30
0.0
 10
157.2477
 20
62.8677
 30
0.0
 10
157.2477
 20
62.8677
 30
0.0
 10
157.2477
 20
62.8677
 30
0.0
 10
157.2477
 20
62.8677
 30
0.0
 10
157.2477
 20
62.8677
 30
0.0
  0
SPLINE
  5
7C
330
1F
100
AcDbEntity
  8
layer 1
 62
     7
100
AcDbSpline
210
0.0
220
0.0
230
1.0
 70
    11
 71
     3
 72
    24
 73
    20
 74
     0
 42
0.0000000001
 43
0.0000000001
 12
1.0
 22
0.0
 32
0.0
 13
1.0
 23
0.0
 33
0.0
 40
0.0
 40
0.0
 40
0.0
 40
0.0
 40
0.1666666666666667
 40
0.1666666666666667
 40
0.1666666666666667
 40
0.1666666666666667
 40
0.3333333333333333
 40
0.3333333333333333
 40
0.3333333333333333
 40
0.3333333333333333
 40
0.5
 40
0.5
 40
0.5
 40
0.5
 40
0.6666666666666666
 40
0.6666666666666666
 40
0.6666666666666666
 40
0.6666666666666666
 40
1.0
 40
1.0
 40
1.0
 40
1.0
 10
94.3262
 20
52.8576
 30
0.0
 10
94.3262
 20
52.8576
 30
0.0
 10
99.4334
 20
52.8576
 30
0.0
 10
99.4334
 20
52.8576
 30
0.0
 10
99.4334
 20
52.8576
 30
0.0
 10
99.4334
 20
52.8576
 30
0.0
 10
99.4334
 20
62.8677
 30
0.0
 10
99.4334
 20
62.8677
 30
0.0
 10
99.4334
 20
62.8677
 30
0.0
 10
99.4334
 20
62.8677
 30
0.0
 10
94.3262
 20
62.8677
 30
0.0
 10
94.3262
 20
62.8677
 30
0.0
 10
94.3262
 20
62.8677
 30
0.0
 10
94.3262
 20
62.8677
 30
0.0
 10
94.3262
 20
52.8576
 30
0.0
 10
94.3262
 20
52.8576
 30
0.0
 10
94.3262
 20
52.8576
 30
0.0
 10
94.3262
 20
52.8576
 30
0.0
 10
94.3262
 20
52.8576
 30
0.0
 10
94.3262
 20
52.8576
 30
0.0
  0
SPLINE
  5
7D
330
1F
100
AcDbEntity
  8
layer 1
 62
     7
100
AcDbSpline
210
0.0
220
0.0
230
1.0
 70
    11
 71
     3
 72
    24
 73
    20
 74
     0
 42
0.0000000001
 43
0.0000000001
 12
1.0
 22
0.0
 32
0.0
 13
1.0
 23
0.0
 33
0.0
 40
0.0
 40
0.0
 40
0.0
 40
0.0
 40
0.1666666666666667
 40
0.1666666666666667
 40
0.1666666666666667
 40
0.1666666666666667
 40
0.3333333333333333
 40
0.3333333333333333
 40
0.3333333333333333
 40
0.3333333333333333
 40
0.5
 40
0.5
 40
0.5
 40
0.5
 40
0.6666666666666666
 40
0.6666666666666666
 40
0.6666666666666666
 40
0.6666666666666666
 40
1.0
 40
1.0
 40
1.0
 40
1.0
 10
54.0811
 20
62.8677
 30
0.0
 10
54.0811
 20
62.8677
 30
0.0
 10
59.1882
 20
62.8677
 30
0.0
 10
59.1882
 20
62.8677
 30
0.0
 10
59.1882
 20
62.8677
 30
0.0
 10
59.1882
 20
62.8677
 30
0.0
 10
59.1882
 20
52.8576
 30
0.0
 10
59.1882
 20
52.8576
 30
0.0
 10
59.1882
 20
52.8576
 30
0.0
 10
59.1882
 20
52.8576
 30
0.0
 10
54.0811
 20
52.8576
 30
0.0
 10
54.0811
 20
52.8576
 30
0.0
 10
54.0811
 20
52.8576
 30
0.0
 10
54.0811
 20
52.8576
 30
0.0
 10
54.0811
 20
62.8677
 30
0.0
 10
54.0811
 20
62.8677
 30
0.0
 10
54.0811
 20
62.8677
 30
0.0
 10
54.0811
 20
62.8677
 30
0.0
 10
54.0811
 20
62.8677
 30
0.0
 10
54.0811
 20
62.8677
 30
0.0
  0
SPLINE
  5
7E
330
1F
100
AcDbEntity
  8
layer 1
 62
     7
100
AcDbSpline
210
0.0
220
0.0
230
1.0
 70
    11
 71
     3
 72
    24
 73
    20
 74
     0
 42
0.0000000001
 43
0.0000000001
 12
1.0
 22
0.0
 32
0.0
 13
1.0
 23
0.0
 33
0.0
 40
0.0
 40
0.0
 40
0.0
 40
0.0
 40
0.1666666666666667
 40
0.1666666666666667
 40
0.1666666666666667
 40
0.1666666666666667
 40
0.3333333333333333
 40
0.3333333333333333
 40
0.3333333333333333
 40
0.3333333333333333
 40
0.5
 40
0.5
 40
0.5
 40
0.5
 40
0.6666666666666666
 40
0.6666666666666666
 40
0.6666666666666666
 40
0.6666666666666666
 40
1.0
 40
1.0
 40
1.0
 40
1.0
 10
31.4048
 20
52.8576
 30
0.0
 10
31.4048
 20
52.8576
 30
0.0
 10
36.512
 20
52.8576
 30
0.0
 10
36.512
 20
52.8576
 30
0.0
 10
36.512
 20
52.8576
 30
0.0
 10
36.512
 20
52.8576
 30
0.0
 10
36.512
 20
62.8677
 30
0.0
 10
36.512
 20
62.8677
 30
0.0
 10
36.512
 20
62.8677
 30
0.0
 10
36.512
 20
62.8677
 30
0.0
 10
31.4048
 20
62.8677
 30
0.0
 10
31.4048
 20
62.8677
 30
0.0
 10
31.4048
 20
62.8677
 30
0.0
 10
31.4048
 20
62.8677
 30
0.0
 10
31.4048
 20
52.8576
 30
0.0
 10
31.4048
 20
52.8576
 30
0.0
 10
31.4048
 20
52.8576
 30
0.0
 10
31.4048
 20
52.8576
 30
0.0
 10
31.4048
 20
52.8576
 30
0.0
 10
31.4048
 20
52.8576
 30
0.0
  0
SPLINE
  5
7F
330
1F
100
AcDbEntity
  8
layer 1
 62
     7
100
AcDbSpline
210
0.0
220
0.0
230
1.0
 70
    11
 71
     3
 72
    24
 73
    20
 74
     0
 42
0.0000000001
 43
0.0000000001
 12
1.0
 22
0.0
 32
0.0
 13
1.0
 23
0.0
 33
0.0
 40
0.0
 40
0.0
 40
0.0
 40
0.0
 40
0.1666666666666667
 40
0.1666666666666667
 40
0.1666666666666667
 40
0.1666666666666667
 40
0.3333333333333333
 40
0.3333333333333333
 40
0.3333333333333333
 40
0.3333333333333333
 40
0.5
 40
0.5
 40
0.5
 40
0.5
 40
0.6666666666666666
 40
0.6666666666666666
 40
0.6666666666666666
 40
0.6666666666666666
 40
1.0
 40
1.0
 40
1.0
 40
1.0
 10
22.9063
 20
62.8677
 30
0.0
 10
22.9063
 20
62.8677
 30
0.0
 10
28.9532
 20
62.8677
 30
0.0
 10
28.9532
 20
62.8677
 30
0.0
 10
28.9532
 20
62.8677
 30
0.0
 10
28.9532
 20
62.8677
 30
0.0
 10
28.9532
 20
52.8576
 30
0.0
 10
28.9532
 20
52.8576
 30
0.0
 10
28.9532
 20
52.8576
 30
0.0
 10
28.9532
 20
52.8576
 30
0.0
 10
22.9063
 20
52.8576
 30
0.0
 10
22.9063
 20
52.8576
 30
0.0
 10
22.9063
 20
52.8576
 30
0.0
 10
22.9063
 20
52.8576
 30
0.0
 10
22.9063
 20
62.8677
 30
0.0
 10
22.9063
 20
62.8677
 30
0.0
 10
22.9063
 20
62.8677
 30
0.0
 10
22.9063
 20
62.8677
 30
0.0
 10
22.9063
 20
62.8677
 30
0.0
 10
22.9063
 20
62.8677
 30
0.0
  0
SPLINE
  5
80
330
1F
100
AcDbEntity
  8
layer 1
 62
     7
100
AcDbSpline
210
0.0
220
0.0
230
1.0
 70
    11
 71
     3
 72
    24
 73
    20
 74
     0
 42
0.0000000001
 43
0.0000000001
 12
1.0
 22
0.0
 32
0.0
 13
1.0
 23
0.0
 33
0.0
 40
0.0
 40
0.0
 40
0.0
 40
0.0
 40
0.1666666666666667
 40
0.1666666666666667
 40
0.1666666666666667
 40
0.1666666666666667
 40
0.3333333333333333
 40
0.3333333333333333
 40
0.3333333333333333
 40
0.3333333333333333
 40
0.5
 40
0.5
 40
0.5
 40
0.5
 40
0.6666666666666666
 40
0.6666666666666666
 40
0.6666666666666666
 40
0.6666666666666666
 40
1.0
 40
1.0
 40
1.0
 40
1.0
 10
117.0025
 20
75.3294
 30
0.0
 10
117.0025
 20
75.3294
 30
0.0
 10
122.1097
 20
75.3294
 30
0.0
 10
122.1097
 20
75.3294
 30
0.0
 10
122.1097
 20
75.3294
 30
0.0
 10
122.1097
 20
75.3294
 30
0.0
 10
122.1097
 20
65.3193
 30
0.0
 10
122.1097
 20
65.3193
 30
0.0
 10
122.1097
 20
65.3193
 30
0.0
 10
122.1097
 20
65.3193
 30
0.0
 10
117.0025
 20
65.3193
 30
0.0
 10
117.0025
 20
65.3193
 30
0.0
 10
117.0025
 20
65.3193
 30
0.0
 10
117.0025
 20
65.3193
 30
0.0
 10
117.0025
 20
75.3294
 30
0.0
 10
117.0025
 20
75.3294
 30
0.0
 10
117.0025
 20
75.3294
 30
0.0
 10
117.0025
 20
75.3294
 30
0.0
 10
117.0025
 20
75.3294
 30
0.0
 10
117.0025
 20
75.3294
 30
0.0
  0
SPLINE
  5
81
330
1F
100
AcDbEntity
  8
layer 1
 62
     7
100
AcDbSpline
210
0.0
220
0.0
230
1.0
 70
    11
 71
     3
 72
    24
 73
    20
 74
     0
 42
0.0000000001
 43
0.0000000001
 12
1.0
 22
0.0
 32
0.0
 13
1.0
 23
0.0
 33
0.0
 40
0.0
 40
0.0
 40
0.0
 40
0.0
 40
0.1666666666666667
 40
0.1666666666666667
 40
0.1666666666666667
 40
0.1666666666666667
 40
0.3333333333333333
 40
0.3333333333333333
 40
0.3333333333333333
 40
0.3333333333333333
 40
0.5
 40
0.5
 40
0.5
 40
0.5
 40
0.6666666666666666
 40
0.6666666666666666
 40
0.6666666666666666
 40
0.6666666666666666
 40
1.0
 40
1.0
 40
1.0
 40
1.0
 10
94.3262
 20
75.3294
 30
0.0
 10
94.3262
 20
75.3294
 30
0.0
 10
99.4334
 20
75.3294
 30
0.0
 10
99.4334
 20
75.3294
 30
0.0
 10
99.4334
 20
75.3294
 30
0.0
 10
99.4334
 20
75.3294
 30
0.0
 10
99.4334
 20
65.3193
 30
0.0
 10
99.4334
 20
65.3193
 30
0.0
 10
99.4334
 20
65.3193
 30
0.0
 10
99.4334
 20
65.3193
 30
0.0
 10
94.3262
 20
65.3193
 30
0.0
 10
94.3262
 20
65.3193
 30
0.0
 10
94.3262
 20
65.3193
 30
0.0
 10
94.3262
 20
65.3193
 30
0.0
 10
94.3262
 20
75.3294
 30
0.0
 10
94.3262
 20
75.3294
 30
0.0
 10
94.3262
 20
75.3294
 30
0.0
 10
94.3262
 20
75.3294
 30
0.0
 10
94.3262
 20
75.3294
 30
0.0
 10
94.3262
 20
75.3294
 30
0.0
  0
SPLINE
  5
82
330
1F
100
AcDbEntity
  8
layer 1
 62
     7
100
AcDbSpline
210
0.0
220
0.0
230
1.0
 70
    11
 71
     3
 72
    24
 73
    20
 74
     0
 42
0.0000000001
 43
0.0000000001
 12
1.0
 22
0.0
 32
0.0
 13
1.0
 23
0.0
 33
0.0
 40
0.0
 40
0.0
 40
0.0
 40
0.0
 40
0.1666666666666667
 40
0.1666666666666667
 40
0.1666666666666667
 40
0.1666666666666667
 40
0.3333333333333333
 40
0.3333333333333333
 40
0.3333333333333333
 40
0.3333333333333333
 40
0.5
 40
0.5
 40
0.5
 40
0.5
 40
0.6666666666666666
 40
0.6666666666666666
 40
0.6666666666666666
 40
0.6666666666666666
 40
1.0
 40
1.0
 40
1.0
 40
1.0
 10
54.0811
 20
65.3193
 30
0.0
 10
54.0811
 20
65.3193
 30
0.0
 10
59.1882
 20
65.3193
 30
0.0
 10
59.1882
 20
65.3193
 30
0.0
 10
59.1882
 20
65.3193
 30
0.0
 10
59.1882
 20
65.3193
 30
0.0
 10
59.1882
 20
75.3294
 30
0.0
 10
59.1882
 20
75.3294
 30
0.0
 10
59.1882
 20
75.3294
 30
0.0
 10
59.1882
 20
75.3294
 30
0.0
 10
54.0811
 20
75.3294
 30
0.0
 10
54.0811
 20
75.3294
 30
0.0
 10
54.0811
 20
75.3294
 30
0.0
 10
54.0811
 20
75.3294
 30
0.0
 10
54.0811
 20
65.3193
 30
0.0
 10
54.0811
 20
65.3193
 30
0.0
 10
54.0811
 20
65.3193
 30
0.0
 10
54.0811
 20
65.3193
 30
0.0
 10
54.0811
 20
65.3193
 30
0.0
 10
54.0811
 20
65.3193
 30
0.0
  0
SPLINE
  5
83
330
1F
100
AcDbEntity
  8
layer 1
 62
     7
100
AcDbSpline
210
0.0
220
0.0
230
1.0
 70
    11
 71
     3
 72
    20
 73
    16
 74
     0
 42
0.0000000001
 43
0.0000000001
 12
1.0
 22
0.0
 32
0.0
 13
1.0
 23
0.0
 33
0.0
 40
0.0
 40
0.0
 40
0.0
 40
0.0
 40
0.2
 40
0.2
 40
0.2
 40
0.2
 40
0.4
 40
0.4
 40
0.4
 40
0.4
 40
0.6
 40
0.6
 40
0.6
 40
0.6
 40
1.0
 40
1.0
 40
1.0
 40
1.0
 10
22.9063
 20
75.3294
 30
0.0
 10
22.9063
 20
75.3294
 30
0.0
 10
28.9532
 20
75.3294
 30
0.0
 10
28.9532
 20
75.3294
 30
0.0
 10
28.9532
 20
75.3294
 30
0.0
 10
28.9532
 20
75.3294
 30
0.0
 10
28.9532
 20
65.3193
 30
0.0
 10
28.9532
 20
65.3193
 30
0.0
 10
28.9532
 20
65.3193
 30
0.0
 10
28.9532
 20
65.3193
 30
0.0
 10
22.9063
 20
65.3193
 30
0.0
 10
22.9063
 20
65.3193
 30
0.0
 10
22.9063
 20
65.3193
 30
0.0
 10
22.9063
 20
65.3193
 30
0.0
 10
22.9063
 20
75.3294
 30
0.0
 10
22.9063
 20
75.3294
 30
0.0
  0
SPLINE
  5
84
330
1F
100
AcDbEntity
  8
layer 1
 62
     7
100
AcDbSpline
210
0.0
220
0.0
230
1.0
 70
    11
 71
     3
 72
    20
 73
    16
 74
     0
 42
0.0000000001
 43
0.0000000001
 12
1.0
 22
0.0
 32
0.0
 13
1.0
 23
0.0
 33
0.0
 40
0.0
 40
0.0
 40
0.0
 40
0.0
 40
0.2
 40
0.2
 40
0.2
 40
0.2
 40
0.4
 40
0.4
 40
0.4
 40
0.4
 40
0.6
 40
0.6
 40
0.6
 40
0.6
 40
1.0
 40
1.0
 40
1.0
 40
1.0
 10
179.9239
 20
75.3294
 30
0.0
 10
179.9239
 20
75.3294
 30
0.0
 10
185.0311
 20
75.3294
 30
0.0
 10
185.0311
 20
75.3294
 30
0.0
 10
185.0311
 20
75.3294
 30
0.0
 10
185.0311
 20
75.3294
 30
0.0
 10
185.0311
 20
65.3193
 30
0.0
 10
185.0311
 20
65.3193
 30
0.0
 10
185.0311
 20
65.3193
 30
0.0
 10
185.0311
 20
65.3193
 30
0.0
 10
179.9239
 20
65.3193
 30
0.0
 10
179.9239
 20
65.3193
 30
0.0
 10
179.9239
 20
65.3193
 30
0.0
 10
179.9239
 20
65.3193
 30
0.0
 10
179.9239
 20
75.3294
 30
0.0
 10
179.9239
 20
75.3294
 30
0.0
  0
SPLINE
  5
85
330
1F
100
AcDbEntity
  8
layer 1
 62
     7
100
AcDbSpline
210
0.0
220
0.0
230
1.0
 70
    11
 71
     3
 72
    24
 73
    20
 74
     0
 42
0.0000000001
 43
0.0000000001
 12
1.0
 22
0.0
 32
0.0
 13
1.0
 23
0.0
 33
0.0
 40
0.0
 40
0.0
 40
0.0
 40
0.0
 40
0.1666666666666667
 40
0.1666666666666667
 40
0.1666666666666667
 40
0.1666666666666667
 40
0.3333333333333333
 40
0.3333333333333333
 40
0.3333333333333333
 40
0.3333333333333333
 40
0.5
 40
0.5
 40
0.5
 40
0.5
 40
0.6666666666666666
 40
0.6666666666666666
 40
0.6666666666666666
 40
0.6666666666666666
 40
1.0
 40
1.0
 40
1.0
 40
1.0
 10
157.2477
 20
75.3294
 30
0.0
 10
157.2477
 20
75.3294
 30
0.0
 10
162.3548
 20
75.3294
 30
0.0
 10
162.3548
 20
75.3294
 30
0.0
 10
162.3548
 20
75.3294
 30
0.0
 10
162.3548
 20
75.3294
 30
0.0
 10
162.3548
 20
65.3193
 30
0.0
 10
162.3548
 20
65.3193
 30
0.0
 10
162.3548
 20
65.3193
 30
0.0
 10
162.3548
 20
65.3193
 30
0.0
 10
157.2477
 20
65.3193
 30
0.0
 10
157.2477
 20
65.3193
 30
0.0
 10
157.2477
 20
65.3193
 30
0.0
 10
157.2477
 20
65.3193
 30
0.0
 10
157.2477
 20
75.3294
 30
0.0
 10
157.2477
 20
75.3294
 30
0.0
 10
157.2477
 20
75.3294
 30
0.0
 10
157.2477
 20
75.3294
 30
0.0
 10
157.2477
 20
75.3294
 30
0.0
 10
157.2477
 20
75.3294
 30
0.0
  0
SPLINE
  5
86
330
1F
100
AcDbEntity
  8
layer 1
 62
     7
100
AcDbSpline
210
0.0
220
0.0
230
1.0
 70
    11
 71
     3
 72
    40
 73
    36
 74
     0
 42
0.0000000001
 43
0.0000000001
 12
1.0
 22
0.0
 32
0.0
 13
1.0
 23
0.0
 33
0.0
 40
0.0
 40
0.0
 40
0.0
 40
0.0
 40
0.1
 40
0.1
 40
0.1
 40
0.1
 40
0.2
 40
0.2
 40
0.2
 40
0.2
 40
0.3
 40
0.3
 40
0.3
 40
0.3
 40
0.4
 40
0.4
 40
0.4
 40
0.4
 40
0.5
 40
0.5
 40
0.5
 40
0.5
 40
0.6
 40
0.6
 40
0.6
 40
0.6
 40
0.7
 40
0.7
 40
0.7
 40
0.7
 40
0.8
 40
0.8
 40
0.8
 40
0.8
 40
1.0
 40
1.0
 40
1.0
 40
1.0
 10
148.6674
 20
110.5492
 30
0.0
 10
148.6674
 20
110.5492
 30
0.0
 10
154.7961
 20
110.5492
 30
0.0
 10
154.7961
 20
110.5492
 30
0.0
 10
154.7961
 20
110.5492
 30
0.0
 10
154.7961
 20
110.5492
 30
0.0
 10
154.7961
 20
102.9904
 30
0.0
 10
154.7961
 20
102.9904
 30
0.0
 10
154.7961
 20
102.9904
 30
0.0
 10
154.7961
 20
102.9904
 30
0.0
 10
161.1291
 20
102.9904
 30
0.0
 10
161.1291
 20
102.9904
 30
0.0
 10
161.1291
 20
102.9904
 30
0.0
 10
161.1291
 20
102.9904
 30
0.0
 10
161.1291
 20
85.3396
 30
0.0
 10
161.1291
 20
85.3396
 30
0.0
 10
161.1291
 20
85.3396
 30
0.0
 10
161.1291
 20
85.3396
 30
0.0
 10
154.7961
 20
85.3396
 30
0.0
 10
154.7961
 20
85.3396
 30
0.0
 10
154.7961
 20
85.3396
 30
0.0
 10
154.7961
 20
85.3396
 30
0.0
 10
154.7961
 20
77.7808
 30
0.0
 10
154.7961
 20
77.7808
 30
0.0
 10
154.7961
 20
77.7808
 30
0.0
 10
154.7961
 20
77.7808
 30
0.0
 10
148.6674
 20
77.7808
 30
0.0
 10
148.6674
 20
77.7808
 30
0.0
 10
148.6674
 20
77.7808
 30
0.0
 10
148.6674
 20
77.7808
 30
0.0
 10
148.6674
 20
110.5492
 30
0.0
 10
148.6674
 20
110.5492
 30
0.0
 10
148.6674
 20
110.5492
 30
0.0
 10
148.6674
 20
110.5492
 30
0.0
 10
148.6674
 20
110.5492
 30
0.0
 10
148.6674
 20
110.5492
 30
0.0
  0
SPLINE
  5
87
330
1F
100
AcDbEntity
  8
layer 1
 62
     7
100
AcDbSpline
210
0.0
220
0.0
230
1.0
 70
    11
 71
     3
 72
    20
 73
    16
 74
     0
 42
0.0000000001
 43
0.0000000001
 12
1.0
 22
0.0
 32
0.0
 13
1.0
 23
0.0
 33
0.0
 40
0.0
 40
0.0
 40
0.0
 40
0.0
 40
0.2
 40
0.2
 40
0.2
 40
0.2
 40
0.4
 40
0.4
 40
0.4
 40
0.4
 40
0.6
 40
0.6
 40
0.6
 40
0.6
 40
1.0
 40
1.0
 40
1.0
 40
1.0
 10
140.9045
 20
100.641
 30
0.0
 10
140.9045
 20
100.641
 30
0.0
 10
140.9045
 20
87.689
 30
0.0
 10
140.9045
 20
87.689
 30
0.0
 10
140.9045
 20
87.689
 30
0.0
 10
140.9045
 20
87.689
 30
0.0
 10
146.216
 20
87.689
 30
0.0
 10
146.216
 20
87.689
 30
0.0
 10
146.216
 20
87.689
 30
0.0
 10
146.216
 20
87.689
 30
0.0
 10
146.216
 20
100.641
 30
0.0
 10
146.216
 20
100.641
 30
0.0
 10
146.216
 20
100.641
 30
0.0
 10
146.216
 20
100.641
 30
0.0
 10
140.9045
 20
100.641
 30
0.0
 10
140.9045
 20
100.641
 30
0.0
  0
SPLINE
  5
88
330
1F
100
AcDbEntity
  8
layer 1
 62
     7
100
AcDbSpline
210
0.0
220
0.0
230
1.0
 70
    11
 71
     3
 72
    24
 73
    20
 74
     0
 42
0.0000000001
 43
0.0000000001
 12
1.0
 22
0.0
 32
0.0
 13
1.0
 23
0.0
 33
0.0
 40
0.0
 40
0.0
 40
0.0
 40
0.0
 40
0.1666666666666667
 40
0.1666666666666667
 40
0.1666666666666667
 40
0.1666666666666667
 40
0.3333333333333333
 40
0.3333333333333333
 40
0.3333333333333333
 40
0.3333333333333333
 40
0.5
 40
0.5
 40
0.5
 40
0.5
 40
0.6666666666666666
 40
0.6666666666666666
 40
0.6666666666666666
 40
0.6666666666666666
 40
1.0
 40
1.0
 40
1.0
 40
1.0
 10
133.1413
 20
100.641
 30
0.0
 10
133.1413
 20
100.641
 30
0.0
 10
138.4529
 20
100.641
 30
0.0
 10
138.4529
 20
100.641
 30
0.0
 10
138.4529
 20
100.641
 30
0.0
 10
138.4529
 20
100.641
 30
0.0
 10
138.4529
 20
87.689
 30
0.0
 10
138.4529
 20
87.689
 30
0.0
 10
138.4529
 20
87.689
 30
0.0
 10
138.4529
 20
87.689
 30
0.0
 10
133.1413
 20
87.689
 30
0.0
 10
133.1413
 20
87.689
 30
0.0
 10
133.1413
 20
87.689
 30
0.0
 10
133.1413
 20
87.689
 30
0.0
 10
133.1413
 20
100.641
 30
0.0
 10
133.1413
 20
100.641
 30
0.0
 10
133.1413
 20
100.641
 30
0.0
 10
133.1413
 20
100.641
 30
0.0
 10
133.1413
 20
100.641
 30
0.0
 10
133.1413
 20
100.641
 30
0.0
  0
SPLINE
  5
89
330
1F
100
AcDbEntity
  8
layer 1
 62
     7
100
AcDbSpline
210
0.0
220
0.0
230
1.0
 70
    11
 71
     3
 72
    40
 73
    36
 74
     0
 42
0.0000000001
 43
0.0000000001
 12
1.0
 22
0.0
 32
0.0
 13
1.0
 23
0.0
 33
0.0
 40
0.0
 40
0.0
 40
0.0
 40
0.0
 40
0.1
 40
0.1
 40
0.1
 40
0.1
 40
0.2
 40
0.2
 40
0.2
 40
0.2
 40
0.3
 40
0.3
 40
0.3
 40
0.3
 40
0.4
 40
0.4
 40
0.4
 40
0.4
 40
0.5
 40
0.5
 40
0.5
 40
0.5
 40
0.6
 40
0.6
 40
0.6
 40
0.6
 40
0.7
 40
0.7
 40
0.7
 40
0.7
 40
0.8
 40
0.8
 40
0.8
 40
0.8
 40
1.0
 40
1.0
 40
1.0
 40
1.0
 10
124.561
 20
110.5492
 30
0.0
 10
124.561
 20
110.5492
 30
0.0
 10
130.6899
 20
110.5492
 30
0.0
 10
130.6899
 20
110.5492
 30
0.0
 10
130.6899
 20
110.5492
 30
0.0
 10
130.6899
 20
110.5492
 30
0.0
 10
130.6899
 20
77.7808
 30
0.0
 10
130.6899
 20
77.7808
 30
0.0
 10
130.6899
 20
77.7808
 30
0.0
 10
130.6899
 20
77.7808
 30
0.0
 10
124.5613
 20
77.7808
 30
0.0
 10
124.5613
 20
77.7808
 30
0.0
 10
124.5613
 20
77.7808
 30
0.0
 10
124.5613
 20
77.7808
 30
0.0
 10
124.5613
 20
85.3396
 30
0.0
 10
124.5613
 20
85.3396
 30
0.0
 10
124.5613
 20
85.3396
 30
0.0
 10
124.5613
 20
85.3396
 30
0.0
 10
118.2282
 20
85.3396
 30
0.0
 10
118.2282
 20
85.3396
 30
0.0
 10
118.2282
 20
85.3396
 30
0.0
 10
118.2282
 20
85.3396
 30
0.0
 10
118.2282
 20
102.9904
 30
0.0
 10
118.2282
 20
102.9904
 30
0.0
 10
118.2282
 20
102.9904
 30
0.0
 10
118.2282
 20
102.9904
 30
0.0
 10
124.5613
 20
102.9904
 30
0.0
 10
124.5613
 20
102.9904
 30
0.0
 10
124.5613
 20
102.9904
 30
0.0
 10
124.5613
 20
102.9904
 30
0.0
 10
124.5613
 20
110.5492
 30
0.0
 10
124.5613
 20
110.5492
 30
0.0
 10
124.5613
 20
110.5492
 30
0.0
 10
124.5613
 20
110.5492
 30
0.0
 10
124.561
 20
110.5492
 30
0.0
 10
124.561
 20
110.5492
 30
0.0
  0
SPLINE
  5
8A
330
1F
100
AcDbEntity
  8
layer 1
 62
     7
100
AcDbSpline
210
0.0
220
0.0
230
1.0
 70
    11
 71
     3
 72
    24
 73
    20
 74
     0
 42
0.0000000001
 43
0.0000000001
 12
1.0
 22
0.0
 32
0.0
 13
1.0
 23
0.0
 33
0.0
 40
0.0
 40
0.0
 40
0.0
 40
0.0
 40
0.1666666666666667
 40
0.1666666666666667
 40
0.1666666666666667
 40
0.1666666666666667
 40
0.3333333333333333
 40
0.3333333333333333
 40
0.3333333333333333
 40
0.3333333333333333
 40
0.5
 40
0.5
 40
0.5
 40
0.5
 40
0.6666666666666666
 40
0.6666666666666666
 40
0.6666666666666666
 40
0.6666666666666666
 40
1.0
 40
1.0
 40
1.0
 40
1.0
 10
117.0025
 20
121.1313
 30
0.0
 10
117.0025
 20
121.1313
 30
0.0
 10
122.1097
 20
121.1313
 30
0.0
 10
122.1097
 20
121.1313
 30
0.0
 10
122.1097
 20
121.1313
 30
0.0
 10
122.1097
 20
121.1313
 30
0.0
 10
122.1097
 20
113.0005
 30
0.0
 10
122.1097
 20
113.0005
 30
0.0
 10
122.1097
 20
113.0005
 30
0.0
 10
122.1097
 20
113.0005
 30
0.0
 10
117.0025
 20
113.0005
 30
0.0
 10
117.0025
 20
113.0005
 30
0.0
 10
117.0025
 20
113.0005
 30
0.0
 10
117.0025
 20
113.0005
 30
0.0
 10
117.0025
 20
121.1313
 30
0.0
 10
117.0025
 20
121.1313
 30
0.0
 10
117.0025
 20
121.1313
 30
0.0
 10
117.0025
 20
121.1313
 30
0.0
 10
117.0025
 20
121.1313
 30
0.0
 10
117.0025
 20
121.1313
 30
0.0
  0
SPLINE
  5
8B
330
1F
100
AcDbEntity
  8
layer 1
 62
     7
100
AcDbSpline
210
0.0
220
0.0
230
1.0
 70
    11
 71
     3
 72
    24
 73
    20
 74
     0
 42
0.0000000001
 43
0.0000000001
 12
1.0
 22
0.0
 32
0.0
 13
1.0
 23
0.0
 33
0.0
 40
0.0
 40
0.0
 40
0.0
 40
0.0
 40
0.1666666666666667
 40
0.1666666666666667
 40
0.1666666666666667
 40
0.1666666666666667
 40
0.3333333333333333
 40
0.3333333333333333
 40
0.3333333333333333
 40
0.3333333333333333
 40
0.5
 40
0.5
 40
0.5
 40
0.5
 40
0.6666666666666666
 40
0.6666666666666666
 40
0.6666666666666666
 40
0.6666666666666666
 40
1.0
 40
1.0
 40
1.0
 40
1.0
 10
115.7766
 20
85.3396
 30
0.0
 10
115.7766
 20
85.3396
 30
0.0
 10
109.4438
 20
85.3396
 30
0.0
 10
109.4438
 20
85.3396
 30
0.0
 10
109.4438
 20
85.3396
 30
0.0
 10
109.4438
 20
85.3396
 30
0.0
 10
109.4438
 20
102.9904
 30
0.0
 10
109.4438
 20
102.9904
 30
0.0
 10
109.4438
 20
102.9904
 30
0.0
 10
109.4438
 20
102.9904
 30
0.0
 10
115.7766
 20
102.9904
 30
0.0
 10
115.7766
 20
102.9904
 30
0.0
 10
115.7766
 20
102.9904
 30
0.0
 10
115.7766
 20
102.9904
 30
0.0
 10
115.7766
 20
85.3396
 30
0.0
 10
115.7766
 20
85.3396
 30
0.0
 10
115.7766
 20
85.3396
 30
0.0
 10
115.7766
 20
85.3396
 30
0.0
 10
115.7766
 20
85.3396
 30
0.0
 10
115.7766
 20
85.3396
 30
0.0
  0
SPLINE
  5
8C
330
1F
100
AcDbEntity
  8
layer 1
 62
     7
100
AcDbSpline
210
0.0
220
0.0
230
1.0
 70
    11
 71
     3
 72
    24
 73
    20
 74
     0
 42
0.0000000001
 43
0.0000000001
 12
1.0
 22
0.0
 32
0.0
 13
1.0
 23
0.0
 33
0.0
 40
0.0
 40
0.0
 40
0.0
 40
0.0
 40
0.1666666666666667
 40
0.1666666666666667
 40
0.1666666666666667
 40
0.1666666666666667
 40
0.3333333333333333
 40
0.3333333333333333
 40
0.3333333333333333
 40
0.3333333333333333
 40
0.5
 40
0.5
 40
0.5
 40
0.5
 40
0.6666666666666666
 40
0.6666666666666666
 40
0.6666666666666666
 40
0.6666666666666666
 40
1.0
 40
1.0
 40
1.0
 40
1.0
 10
100.6593
 20
102.9904
 30
0.0
 10
100.6593
 20
102.9904
 30
0.0
 10
106.9921
 20
102.9904
 30
0.0
 10
106.9921
 20
102.9904
 30
0.0
 10
106.9921
 20
102.9904
 30
0.0
 10
106.9921
 20
102.9904
 30
0.0
 10
106.9921
 20
85.3396
 30
0.0
 10
106.9921
 20
85.3396
 30
0.0
 10
106.9921
 20
85.3396
 30
0.0
 10
106.9921
 20
85.3396
 30
0.0
 10
100.6593
 20
85.3396
 30
0.0
 10
100.6593
 20
85.3396
 30
0.0
 10
100.6593
 20
85.3396
 30
0.0
 10
100.6593
 20
85.3396
 30
0.0
 10
100.6593
 20
102.9904
 30
0.0
 10
100.6593
 20
102.9904
 30
0.0
 10
100.6593
 20
102.9904
 30
0.0
 10
100.6593
 20
102.9904
 30
0.0
 10
100.6593
 20
102.9904
 30
0.0
 10
100.6593
 20
102.9904
 30
0.0
  0
SPLINE
  5
8D
330
1F
100
AcDbEntity
  8
layer 1
 62
     7
100
AcDbSpline
210
0.0
220
0.0
230
1.0
 70
    11
 71
     3
 72
    40
 73
    36
 74
     0
 42
0.0000000001
 43
0.0000000001
 12
1.0
 22
0.0
 32
0.0
 13
1.0
 23
0.0
 33
0.0
 40
0.0
 40
0.0
 40
0.0
 40
0.0
 40
0.1
 40
0.1
 40
0.1
 40
0.1
 40
0.2
 40
0.2
 40
0.2
 40
0.2
 40
0.3
 40
0.3
 40
0.3
 40
0.3
 40
0.4
 40
0.4
 40
0.4
 40
0.4
 40
0.5
 40
0.5
 40
0.5
 40
0.5
 40
0.6
 40
0.6
 40
0.6
 40
0.6
 40
0.7
 40
0.7
 40
0.7
 40
0.7
 40
0.8
 40
0.8
 40
0.8
 40
0.8
 40
1.0
 40
1.0
 40
1.0
 40
1.0
 10
91.8746
 20
102.9856
 30
0.0
 10
91.8746
 20
102.9856
 30
0.0
 10
98.2077
 20
102.9856
 30
0.0
 10
98.2077
 20
102.9856
 30
0.0
 10
98.2077
 20
102.9856
 30
0.0
 10
98.2077
 20
102.9856
 30
0.0
 10
98.2077
 20
85.3396
 30
0.0
 10
98.2077
 20
85.3396
 30
0.0
 10
98.2077
 20
85.3396
 30
0.0
 10
98.2077
 20
85.3396
 30
0.0
 10
91.8746
 20
85.3396
 30
0.0
 10
91.8746
 20
85.3396
 30
0.0
 10
91.8746
 20
85.3396
 30
0.0
 10
91.8746
 20
85.3396
 30
0.0
 10
91.8746
 20
77.7808
 30
0.0
 10
91.8746
 20
77.7808
 30
0.0
 10
91.8746
 20
77.7808
 30
0.0
 10
91.8746
 20
77.7808
 30
0.0
 10
85.746
 20
77.7808
 30
0.0
 10
85.746
 20
77.7808
 30
0.0
 10
85.746
 20
77.7808
 30
0.0
 10
85.746
 20
77.7808
 30
0.0
 10
85.746
 20
110.5492
 30
0.0
 10
85.746
 20
110.5492
 30
0.0
 10
85.746
 20
110.5492
 30
0.0
 10
85.746
 20
110.5492
 30
0.0
 10
91.8746
 20
110.5492
 30
0.0
 10
91.8746
 20
110.5492
 30
0.0
 10
91.8746
 20
110.5492
 30
0.0
 10
91.8746
 20
110.5492
 30
0.0
 10
91.8746
 20
102.9856
 30
0.0
 10
91.8746
 20
102.9856
 30
0.0
 10
91.8746
 20
102.9856
 30
0.0
 10
91.8746
 20
102.9856
 30
0.0
 10
91.8746
 20
102.9856
 30
0.0
 10
91.8746
 20
102.9856
 30
0.0
  0
SPLINE
  5
8E
330
1F
100
AcDbEntity
  8
layer 1
 62
     7
100
AcDbSpline
210
0.0
220
0.0
230
1.0
 70
    11
 71
     3
 72
    24
 73
    20
 74
     0
 42
0.0000000001
 43
0.0000000001
 12
1.0
 22
0.0
 32
0.0
 13
1.0
 23
0.0
 33
0.0
 40
0.0
 40
0.0
 40
0.0
 40
0.0
 40
0.1666666666666667
 40
0.1666666666666667
 40
0.1666666666666667
 40
0.1666666666666667
 40
0.3333333333333333
 40
0.3333333333333333
 40
0.3333333333333333
 40
0.3333333333333333
 40
0.5
 40
0.5
 40
0.5
 40
0.5
 40
0.6666666666666666
 40
0.6666666666666666
 40
0.6666666666666666
 40
0.6666666666666666
 40
1.0
 40
1.0
 40
1.0
 40
1.0
 10
77.983
 20
100.641
 30
0.0
 10
77.983
 20
100.641
 30
0.0
 10
83.2946
 20
100.641
 30
0.0
 10
83.2946
 20
100.641
 30
0.0
 10
83.2946
 20
100.641
 30
0.0
 10
83.2946
 20
100.641
 30
0.0
 10
83.2946
 20
87.689
 30
0.0
 10
83.2946
 20
87.689
 30
0.0
 10
83.2946
 20
87.689
 30
0.0
 10
83.2946
 20
87.689
 30
0.0
 10
77.983
 20
87.689
 30
0.0
 10
77.983
 20
87.689
 30
0.0
 10
77.983
 20
87.689
 30
0.0
 10
77.983
 20
87.689
 30
0.0
 10
77.983
 20
100.641
 30
0.0
 10
77.983
 20
100.641
 30
0.0
 10
77.983
 20
100.641
 30
0.0
 10
77.983
 20
100.641
 30
0.0
 10
77.983
 20
100.641
 30
0.0
 10
77.983
 20
100.641
 30
0.0
  0
SPLINE
  5
8F
330
1F
100
AcDbEntity
  8
layer 1
 62
     7
100
AcDbSpline
210
0.0
220
0.0
230
1.0
 70
    11
 71
     3
 72
    20
 73
    16
 74
     0
 42
0.0000000001
 43
0.0000000001
 12
1.0
 22
0.0
 32
0.0
 13
1.0
 23
0.0
 33
0.0
 40
0.0
 40
0.0
 40
0.0
 40
0.0
 40
0.2
 40
0.2
 40
0.2
 40
0.2
 40
0.4
 40
0.4
 40
0.4
 40
0.4
 40
0.6
 40
0.6
 40
0.6
 40
0.6
 40
1.0
 40
1.0
 40
1.0
 40
1.0
 10
70.2199
 20
100.641
 30
0.0
 10
70.2199
 20
100.641
 30
0.0
 10
75.5314
 20
100.641
 30
0.0
 10
75.5314
 20
100.641
 30
0.0
 10
75.5314
 20
100.641
 30
0.0
 10
75.5314
 20
100.641
 30
0.0
 10
75.5314
 20
87.689
 30
0.0
 10
75.5314
 20
87.689
 30
0.0
 10
75.5314
 20
87.689
 30
0.0
 10
75.5314
 20
87.689
 30
0.0
 10
70.2199
 20
87.689
 30
0.0
 10
70.2199
 20
87.689
 30
0.0
 10
70.2199
 20
87.689
 30
0.0
 10
70.2199
 20
87.689
 30
0.0
 10
70.2199
 20
100.641
 30
0.0
 10
70.2199
 20
100.641
 30
0.0
  0
SPLINE
  5
90
330
1F
100
AcDbEntity
  8
layer 1
 62
     7
100
AcDbSpline
210
0.0
220
0.0
230
1.0
 70
    11
 71
     3
 72
    24
 73
    20
 74
     0
 42
0.0000000001
 43
0.0000000001
 12
1.0
 22
0.0
 32
0.0
 13
1.0
 23
0.0
 33
0.0
 40
0.0
 40
0.0
 40
0.0
 40
0.0
 40
0.1666666666666667
 40
0.1666666666666667
 40
0.1666666666666667
 40
0.1666666666666667
 40
0.3333333333333333
 40
0.3333333333333333
 40
0.3333333333333333
 40
0.3333333333333333
 40
0.5
 40
0.5
 40
0.5
 40
0.5
 40
0.6666666666666666
 40
0.6666666666666666
 40
0.6666666666666666
 40
0.6666666666666666
 40
1.0
 40
1.0
 40
1.0
 40
1.0
 10
46.5223
 20
102.9904
 30
0.0
 10
46.5223
 20
102.9904
 30
0.0
 10
52.8552
 20
102.9904
 30
0.0
 10
52.8552
 20
102.9904
 30
0.0
 10
52.8552
 20
102.9904
 30
0.0
 10
52.8552
 20
102.9904
 30
0.0
 10
52.8552
 20
85.3396
 30
0.0
 10
52.8552
 20
85.3396
 30
0.0
 10
52.8552
 20
85.3396
 30
0.0
 10
52.8552
 20
85.3396
 30
0.0
 10
46.5223
 20
85.3396
 30
0.0
 10
46.5223
 20
85.3396
 30
0.0
 10
46.5223
 20
85.3396
 30
0.0
 10
46.5223
 20
85.3396
 30
0.0
 10
46.5223
 20
102.9904
 30
0.0
 10
46.5223
 20
102.9904
 30
0.0
 10
46.5223
 20
102.9904
 30
0.0
 10
46.5223
 20
102.9904
 30
0.0
 10
46.5223
 20
102.9904
 30
0.0
 10
46.5223
 20
102.9904
 30
0.0
  0
SPLINE
  5
91
330
1F
100
AcDbEntity
  8
layer 1
 62
     7
100
AcDbSpline
210
0.0
220
0.0
230
1.0
 70
    11
 71
     3
 72
    24
 73
    20
 74
     0
 42
0.0000000001
 43
0.0000000001
 12
1.0
 22
0.0
 32
0.0
 13
1.0
 23
0.0
 33
0.0
 40
0.0
 40
0.0
 40
0.0
 40
0.0
 40
0.1666666666666667
 40
0.1666666666666667
 40
0.1666666666666667
 40
0.1666666666666667
 40
0.3333333333333333
 40
0.3333333333333333
 40
0.3333333333333333
 40
0.3333333333333333
 40
0.5
 40
0.5
 40
0.5
 40
0.5
 40
0.6666666666666666
 40
0.6666666666666666
 40
0.6666666666666666
 40
0.6666666666666666
 40
1.0
 40
1.0
 40
1.0
 40
1.0
 10
37.7379
 20
102.9904
 30
0.0
 10
37.7379
 20
102.9904
 30
0.0
 10
44.0707
 20
102.9904
 30
0.0
 10
44.0707
 20
102.9904
 30
0.0
 10
44.0707
 20
102.9904
 30
0.0
 10
44.0707
 20
102.9904
 30
0.0
 10
44.0707
 20
85.3396
 30
0.0
 10
44.0707
 20
85.3396
 30
0.0
 10
44.0707
 20
85.3396
 30
0.0
 10
44.0707
 20
85.3396
 30
0.0
 10
37.7379
 20
85.3396
 30
0.0
 10
37.7379
 20
85.3396
 30
0.0
 10
37.7379
 20
85.3396
 30
0.0
 10
37.7379
 20
85.3396
 30
0.0
 10
37.7379
 20
102.9904
 30
0.0
 10
37.7379
 20
102.9904
 30
0.0
 10
37.7379
 20
102.9904
 30
0.0
 10
37.7379
 20
102.9904
 30
0.0
 10
37.7379
 20
102.9904
 30
0.0
 10
37.7379
 20
102.9904
 30
0.0
  0
SPLINE
  5
92
330
1F
100
AcDbEntity
  8
layer 1
 62
     7
100
AcDbSpline
210
0.0
220
0.0
230
1.0
 70
    11
 71
     3
 72
    32
 73
    28
 74
     0
 42
0.0000000001
 43
0.0000000001
 12
1.0
 22
0.0
 32
0.0
 13
1.0
 23
0.0
 33
0.0
 40
0.0
 40
0.0
 40
0.0
 40
0.0
 40
0.125
 40
0.125
 40
0.125
 40
0.125
 40
0.25
 40
0.25
 40
0.25
 40
0.25
 40
0.375
 40
0.375
 40
0.375
 40
0.375
 40
0.5
 40
0.5
 40
0.5
 40
0.5
 40
0.625
 40
0.625
 40
0.625
 40
0.625
 40
0.75
 40
0.75
 40
0.75
 40
0.75
 40
1.0
 40
1.0
 40
1.0
 40
1.0
 10
77.983
 20
85.2374
 30
0.0
 10
77.983
 20
85.2374
 30
0.0
 10
83.2946
 20
85.2374
 30
0.0
 10
83.2946
 20
85.2374
 30
0.0
 10
83.2946
 20
85.2374
 30
0.0
 10
83.2946
 20
85.2374
 30
0.0
 10
83.2946
 20
75.3294
 30
0.0
 10
83.2946
 20
75.3294
 30
0.0
 10
83.2946
 20
75.3294
 30
0.0
 10
83.2946
 20
75.3294
 30
0.0
 10
91.8746
 20
75.3294
 30
0.0
 10
91.8746
 20
75.3294
 30
0.0
 10
91.8746
 20
75.3294
 30
0.0
 10
91.8746
 20
75.3294
 30
0.0
 10
91.8746
 20
65.3193
 30
0.0
 10
91.8746
 20
65.3193
 30
0.0
 10
91.8746
 20
65.3193
 30
0.0
 10
91.8746
 20
65.3193
 30
0.0
 10
77.983
 20
65.3193
 30
0.0
 10
77.983
 20
65.3193
 30
0.0
 10
77.983
 20
65.3193
 30
0.0
 10
77.983
 20
65.3193
 30
0.0
 10
77.983
 20
85.2374
 30
0.0
 10
77.983
 20
85.2374
 30
0.0
 10
77.983
 20
85.2374
 30
0.0
 10
77.983
 20
85.2374
 30
0.0
 10
77.983
 20
85.2374
 30
0.0
 10
77.983
 20
85.2374
 30
0.0
  0
SPLINE
  5
93
330
1F
100
AcDbEntity
  8
layer 1
 62
     7
100
AcDbSpline
210
0.0
220
0.0
230
1.0
 70
    11
 71
     3
 72
    24
 73
    20
 74
     0
 42
0.0000000001
 43
0.0000000001
 12
1.0
 22
0.0
 32
0.0
 13
1.0
 23
0.0
 33
0.0
 40
0.0
 40
0.0
 40
0.0
 40
0.0
 40
0.1666666666666667
 40
0.1666666666666667
 40
0.1666666666666667
 40
0.1666666666666667
 40
0.3333333333333333
 40
0.3333333333333333
 40
0.3333333333333333
 40
0.3333333333333333
 40
0.5
 40
0.5
 40
0.5
 40
0.5
 40
0.6666666666666666
 40
0.6666666666666666
 40
0.6666666666666666
 40
0.6666666666666666
 40
1.0
 40
1.0
 40
1.0
 40
1.0
 10
22.905
 20
121.1313
 30
0.0
 10
22.905
 20
121.1313
 30
0.0
 10
28.9532
 20
121.1313
 30
0.0
 10
28.9532
 20
121.1313
 30
0.0
 10
28.9532
 20
121.1313
 30
0.0
 10
28.9532
 20
121.1313
 30
0.0
 10
28.9532
 20
113.0005
 30
0.0
 10
28.9532
 20
113.0005
 30
0.0
 10
28.9532
 20
113.0005
 30
0.0
 10
28.9532
 20
113.0005
 30
0.0
 10
22.905
 20
113.0005
 30
0.0
 10
22.905
 20
113.0005
 30
0.0
 10
22.905
 20
113.0005
 30
0.0
 10
22.905
 20
113.0005
 30
0.0
 10
22.905
 20
121.1313
 30
0.0
 10
22.905
 20
121.1313
 30
0.0
 10
22.905
 20
121.1313
 30
0.0
 10
22.905
 20
121.1313
 30
0.0
 10
22.905
 20
121.1313
 30
0.0
 10
22.905
 20
121.1313
 30
0.0
  0
SPLINE
  5
94
330
1F
100
AcDbEntity
  8
layer 1
 62
     7
100
AcDbSpline
210
0.0
220
0.0
230
1.0
 70
    11
 71
     3
 72
    40
 73
    36
 74
     0
 42
0.0000000001
 43
0.0000000001
 12
1.0
 22
0.0
 32
0.0
 13
1.0
 23
0.0
 33
0.0
 40
0.0
 40
0.0
 40
0.0
 40
0.0
 40
0.1
 40
0.1
 40
0.1
 40
0.1
 40
0.2
 40
0.2
 40
0.2
 40
0.2
 40
0.3
 40
0.3
 40
0.3
 40
0.3
 40
0.4
 40
0.4
 40
0.4
 40
0.4
 40
0.5
 40
0.5
 40
0.5
 40
0.5
 40
0.6
 40
0.6
 40
0.6
 40
0.6
 40
0.7
 40
0.7
 40
0.7
 40
0.7
 40
0.8
 40
0.8
 40
0.8
 40
0.8
 40
1.0
 40
1.0
 40
1.0
 40
1.0
 10
77.983
 20
113.001
 30
0.0
 10
77.983
 20
113.001
 30
0.0
 10
77.983
 20
103.0924
 30
0.0
 10
77.983
 20
103.0924
 30
0.0
 10
77.983
 20
103.0924
 30
0.0
 10
77.983
 20
103.0924
 30
0.0
 10
83.2946
 20
103.0924
 30
0.0
 10
83.2946
 20
103.0924
 30
0.0
 10
83.2946
 20
103.0924
 30
0.0
 10
83.2946
 20
103.0924
 30
0.0
 10
83.2946
 20
113.0005
 30
0.0
 10
83.2946
 20
113.0005
 30
0.0
 10
83.2946
 20
113.0005
 30
0.0
 10
83.2946
 20
113.0005
 30
0.0
 10
91.8746
 20
113.0005
 30
0.0
 10
91.8746
 20
113.0005
 30
0.0
 10
91.8746
 20
113.0005
 30
0.0
 10
91.8746
 20
113.0005
 30
0.0
 10
91.8746
 20
121.1313
 30
0.0
 10
91.8746
 20
121.1313
 30
0.0
 10
91.8746
 20
121.1313
 30
0.0
 10
91.8746
 20
121.1313
 30
0.0
 10
77.983
 20
121.1313
 30
0.0
 10
77.983
 20
121.1313
 30
0.0
 10
77.983
 20
121.1313
 30
0.0
 10
77.983
 20
121.1313
 30
0.0
 10
77.983
 20
113.0005
 30
0.0
 10
77.983
 20
113.0005
 30
0.0
 10
77.983
 20
113.0005
 30
0.0
 10
77.983
 20
113.0005
 30
0.0
 10
77.983
 20
113.001
 30
0.0
 10
77.983
 20
113.001
 30
0.0
 10
77.983
 20
113.001
 30
0.0
 10
77.983
 20
113.001
 30
0.0
 10
77.983
 20
113.001
 30
0.0
 10
77.983
 20
113.001
 30
0.0
  0
SPLINE
  5
95
330
1F
100
AcDbEntity
  8
layer 1
 62
     7
100
AcDbSpline
210
0.0
220
0.0
230
1.0
 70
    11
 71
     3
 72
    32
 73
    28
 74
     0
 42
0.0000000001
 43
0.0000000001
 12
1.0
 22
0.0
 32
0.0
 13
1.0
 23
0.0
 33
0.0
 40
0.0
 40
0.0
 40
0.0
 40
0.0
 40
0.125
 40
0.125
 40
0.125
 40
0.125
 40
0.25
 40
0.25
 40
0.25
 40
0.25
 40
0.375
 40
0.375
 40
0.375
 40
0.375
 40
0.5
 40
0.5
 40
0.5
 40
0.5
 40
0.625
 40
0.625
 40
0.625
 40
0.625
 40
0.75
 40
0.75
 40
0.75
 40
0.75
 40
1.0
 40
1.0
 40
1.0
 40
1.0
 10
140.9045
 20
113.0005
 30
0.0
 10
140.9045
 20
113.0005
 30
0.0
 10
140.9045
 20
121.1313
 30
0.0
 10
140.9045
 20
121.1313
 30
0.0
 10
140.9045
 20
121.1313
 30
0.0
 10
140.9045
 20
121.1313
 30
0.0
 10
154.7961
 20
121.1313
 30
0.0
 10
154.7961
 20
121.1313
 30
0.0
 10
154.7961
 20
121.1313
 30
0.0
 10
154.7961
 20
121.1313
 30
0.0
 10
154.7961
 20
112.9984
 30
0.0
 10
154.7961
 20
112.9984
 30
0.0
 10
154.7961
 20
112.9984
 30
0.0
 10
154.7961
 20
112.9984
 30
0.0
 10
146.216
 20
112.9984
 30
0.0
 10
146.216
 20
112.9984
 30
0.0
 10
146.216
 20
112.9984
 30
0.0
 10
146.216
 20
112.9984
 30
0.0
 10
146.216
 20
103.0924
 30
0.0
 10
146.216
 20
103.0924
 30
0.0
 10
146.216
 20
103.0924
 30
0.0
 10
146.216
 20
103.0924
 30
0.0
 10
140.9045
 20
103.0924
 30
0.0
 10
140.9045
 20
103.0924
 30
0.0
 10
140.9045
 20
103.0924
 30
0.0
 10
140.9045
 20
103.0924
 30
0.0
 10
140.9045
 20
113.0005
 30
0.0
 10
140.9045
 20
113.0005
 30
0.0
  0
SPLINE
  5
96
330
1F
100
AcDbEntity
  8
layer 1
 62
     7
100
AcDbSpline
210
0.0
220
0.0
230
1.0
 70
    27
 71
     3
 72
    16
 73
    12
 74
     0
 42
0.0000000001
 43
0.0000000001
 12
1.0
 22
0.0
 32
0.0
 13
1.0
 23
0.0
 33
0.0
 40
0.0
 40
0.0
 40
0.0
 40
0.0
 40
0.25
 40
0.25
 40
0.25
 40
0.25
 40
0.5
 40
0.5
 40
0.5
 40
0.5
 40
1.0
 40
1.0
 40
1.0
 40
1.0
 10
154.7961
 20
121.1313
 30
0.0
 10
154.7961
 20
121.1313
 30
0.0
 10
140.9045
 20
121.1313
 30
0.0
 10
140.9045
 20
121.1313
 30
0.0
 10
140.9045
 20
121.1313
 30
0.0
 10
140.9045
 20
121.1313
 30
0.0
 10
154.7961
 20
121.1313
 30
0.0
 10
154.7961
 20
121.1313
 30
0.0
 10
154.7961
 20
121.1313
 30
0.0
 10
154.7961
 20
121.1313
 30
0.0
 10
154.7961
 20
121.1313
 30
0.0
 10
154.7961
 20
121.1313
 30
0.0
  0
SPLINE
  5
97
330
1F
100
AcDbEntity
  8
layer 1
 62
     7
100
AcDbSpline
210
0.0
220
0.0
230
1.0
 70
    11
 71
     3
 72
    24
 73
    20
 74
     0
 42
0.0000000001
 43
0.0000000001
 12
1.0
 22
0.0
 32
0.0
 13
1.0
 23
0.0
 33
0.0
 40
0.0
 40
0.0
 40
0.0
 40
0.0
 40
0.1666666666666667
 40
0.1666666666666667
 40
0.1666666666666667
 40
0.1666666666666667
 40
0.3333333333333333
 40
0.3333333333333333
 40
0.3333333333333333
 40
0.3333333333333333
 40
0.5
 40
0.5
 40
0.5
 40
0.5
 40
0.6666666666666666
 40
0.6666666666666666
 40
0.6666666666666666
 40
0.6666666666666666
 40
1.0
 40
1.0
 40
1.0
 40
1.0
 10
157.2477
 20
121.1313
 30
0.0
 10
157.2477
 20
121.1313
 30
0.0
 10
162.3548
 20
121.1313
 30
0.0
 10
162.3548
 20
121.1313
 30
0.0
 10
162.3548
 20
121.1313
 30
0.0
 10
162.3548
 20
121.1313
 30
0.0
 10
162.3548
 20
113.0005
 30
0.0
 10
162.3548
 20
113.0005
 30
0.0
 10
162.3548
 20
113.0005
 30
0.0
 10
162.3548
 20
113.0005
 30
0.0
 10
157.2477
 20
113.0005
 30
0.0
 10
157.2477
 20
113.0005
 30
0.0
 10
157.2477
 20
113.0005
 30
0.0
 10
157.2477
 20
113.0005
 30
0.0
 10
157.2477
 20
121.1313
 30
0.0
 10
157.2477
 20
121.1313
 30
0.0
 10
157.2477
 20
121.1313
 30
0.0
 10
157.2477
 20
121.1313
 30
0.0
 10
157.2477
 20
121.1313
 30
0.0
 10
157.2477
 20
121.1313
 30
0.0
  0
SPLINE
  5
98
330
1F
100
AcDbEntity
  8
layer 1
 62
     7
100
AcDbSpline
210
0.0
220
0.0
230
1.0
 70
    11
 71
     3
 72
    32
 73
    28
 74
     0
 42
0.0000000001
 43
0.0000000001
 12
1.0
 22
0.0
 32
0.0
 13
1.0
 23
0.0
 33
0.0
 40
0.0
 40
0.0
 40
0.0
 40
0.0
 40
0.125
 40
0.125
 40
0.125
 40
0.125
 40
0.25
 40
0.25
 40
0.25
 40
0.25
 40
0.375
 40
0.375
 40
0.375
 40
0.375
 40
0.5
 40
0.5
 40
0.5
 40
0.5
 40
0.625
 40
0.625
 40
0.625
 40
0.625
 40
0.75
 40
0.75
 40
0.75
 40
0.75
 40
1.0
 40
1.0
 40
1.0
 40
1.0
 10
172.3652
 20
121.1313
 30
0.0
 10
172.3652
 20
121.1313
 30
0.0
 10
172.3652
 20
105.4418
 30
0.0
 10
172.3652
 20
105.4418
 30
0.0
 10
172.3652
 20
105.4418
 30
0.0
 10
172.3652
 20
105.4418
 30
0.0
 10
185.0311
 20
105.4418
 30
0.0
 10
185.0311
 20
105.4418
 30
0.0
 10
185.0311
 20
105.4418
 30
0.0
 10
185.0311
 20
105.4418
 30
0.0
 10
185.0311
 20
110.5492
 30
0.0
 10
185.0311
 20
110.5492
 30
0.0
 10
185.0311
 20
110.5492
 30
0.0
 10
185.0311
 20
110.5492
 30
0.0
 10
177.4723
 20
110.5492
 30
0.0
 10
177.4723
 20
110.5492
 30
0.0
 10
177.4723
 20
110.5492
 30
0.0
 10
177.4723
 20
110.5492
 30
0.0
 10
177.4723
 20
121.1313
 30
0.0
 10
177.4723
 20
121.1313
 30
0.0
 10
177.4723
 20
121.1313
 30
0.0
 10
177.4723
 20
121.1313
 30
0.0
 10
172.3652
 20
121.1313
 30
0.0
 10
172.3652
 20
121.1313
 30
0.0
 10
172.3652
 20
121.1313
 30
0.0
 10
172.3652
 20
121.1313
 30
0.0
 10
172.3652
 20
121.1313
 30
0.0
 10
172.3652
 20
121.1313
 30
0.0
  0
SPLINE
  5
99
330
1F
100
AcDbEntity
  8
layer 1
 62
     7
100
AcDbSpline
210
0.0
220
0.0
230
1.0
 70
    11
 71
     3
 72
    28
 73
    24
 74
     0
 42
0.0000000001
 43
0.0000000001
 12
1.0
 22
0.0
 32
0.0
 13
1.0
 23
0.0
 33
0.0
 40
0.0
 40
0.0
 40
0.0
 40
0.0
 40
0.1428571428571428
 40
0.1428571428571428
 40
0.1428571428571428
 40
0.1428571428571428
 40
0.2857142857142857
 40
0.2857142857142857
 40
0.2857142857142857
 40
0.2857142857142857
 40
0.4285714285714285
 40
0.4285714285714285
 40
0.4285714285714285
 40
0.4285714285714285
 40
0.5714285714285714
 40
0.5714285714285714
 40
0.5714285714285714
 40
0.5714285714285714
 40
0.7142857142857143
 40
0.7142857142857143
 40
0.7142857142857143
 40
0.7142857142857143
 40
1.0
 40
1.0
 40
1.0
 40
1.0
 10
169.9136
 20
121.1313
 30
0.0
 10
169.9136
 20
121.1313
 30
0.0
 10
164.8064
 20
121.1313
 30
0.0
 10
164.8064
 20
121.1313
 30
0.0
 10
164.8064
 20
121.1313
 30
0.0
 10
164.8064
 20
121.1313
 30
0.0
 10
164.8064
 20
110.5492
 30
0.0
 10
164.8064
 20
110.5492
 30
0.0
 10
164.8064
 20
110.5492
 30
0.0
 10
164.8064
 20
110.5492
 30
0.0
 10
157.2477
 20
110.5492
 30
0.0
 10
157.2477
 20
110.5492
 30
0.0
 10
157.2477
 20
110.5492
 30
0.0
 10
157.2477
 20
110.5492
 30
0.0
 10
157.2477
 20
105.4418
 30
0.0
 10
157.2477
 20
105.4418
 30
0.0
 10
157.2477
 20
105.4418
 30
0.0
 10
157.2477
 20
105.4418
 30
0.0
 10
169.9136
 20
105.4418
 30
0.0
 10
169.9136
 20
105.4418
 30
0.0
 10
169.9136
 20
105.4418
 30
0.0
 10
169.9136
 20
105.4418
 30
0.0
 10
169.9136
 20
121.1313
 30
0.0
 10
169.9136
 20
121.1313
 30
0.0
  0
SPLINE
  5
9A
330
1F
100
AcDbEntity
  8
layer 1
 62
     7
100
AcDbSpline
210
0.0
220
0.0
230
1.0
 70
    11
 71
     3
 72
    32
 73
    28
 74
     0
 42
0.0000000001
 43
0.0000000001
 12
1.0
 22
0.0
 32
0.0
 13
1.0
 23
0.0
 33
0.0
 40
0.0
 40
0.0
 40
0.0
 40
0.0
 40
0.125
 40
0.125
 40
0.125
 40
0.125
 40
0.25
 40
0.25
 40
0.25
 40
0.25
 40
0.375
 40
0.375
 40
0.375
 40
0.375
 40
0.5
 40
0.5
 40
0.5
 40
0.5
 40
0.625
 40
0.625
 40
0.625
 40
0.625
 40
0.75
 40
0.75
 40
0.75
 40
0.75
 40
1.0
 40
1.0
 40
1.0
 40
1.0
 10
59.1882
 20
77.7808
 30
0.0
 10
59.1882
 20
77.7808
 30
0.0
 10
51.6295
 20
77.7808
 30
0.0
 10
51.6295
 20
77.7808
 30
0.0
 10
51.6295
 20
77.7808
 30
0.0
 10
51.6295
 20
77.7808
 30
0.0
 10
51.6295
 20
65.3193
 30
0.0
 10
51.6295
 20
65.3193
 30
0.0
 10
51.6295
 20
65.3193
 30
0.0
 10
51.6295
 20
65.3193
 30
0.0
 10
46.5223
 20
65.3193
 30
0.0
 10
46.5223
 20
65.3193
 30
0.0
 10
46.5223
 20
65.3193
 30
0.0
 10
46.5223
 20
65.3193
 30
0.0
 10
46.5223
 20
82.8882
 30
0.0
 10
46.5223
 20
82.8882
 30
0.0
 10
46.5223
 20
82.8882
 30
0.0
 10
46.5223
 20
82.8882
 30
0.0
 10
59.1882
 20
82.8882
 30
0.0
 10
59.1882
 20
82.8882
 30
0.0
 10
59.1882
 20
82.8882
 30
0.0
 10
59.1882
 20
82.8882
 30
0.0
 10
59.1882
 20
77.7808
 30
0.0
 10
59.1882
 20
77.7808
 30
0.0
 10
59.1882
 20
77.7808
 30
0.0
 10
59.1882
 20
77.7808
 30
0.0
 10
59.1882
 20
77.7808
 30
0.0
 10
59.1882
 20
77.7808
 30
0.0
  0
SPLINE
  5
9B
330
1F
100
AcDbEntity
  8
layer 1
 62
     7
100
AcDbSpline
210
0.0
220
0.0
230
1.0
 70
    11
 71
     3
 72
    32
 73
    28
 74
     0
 42
0.0000000001
 43
0.0000000001
 12
1.0
 22
0.0
 32
0.0
 13
1.0
 23
0.0
 33
0.0
 40
0.0
 40
0.0
 40
0.0
 40
0.0
 40
0.125
 40
0.125
 40
0.125
 40
0.125
 40
0.25
 40
0.25
 40
0.25
 40
0.25
 40
0.375
 40
0.375
 40
0.375
 40
0.375
 40
0.5
 40
0.5
 40
0.5
 40
0.5
 40
0.625
 40
0.625
 40
0.625
 40
0.625
 40
0.75
 40
0.75
 40
0.75
 40
0.75
 40
1.0
 40
1.0
 40
1.0
 40
1.0
 10
38.9636
 20
77.7808
 30
0.0
 10
38.9636
 20
77.7808
 30
0.0
 10
31.4048
 20
77.7808
 30
0.0
 10
31.4048
 20
77.7808
 30
0.0
 10
31.4048
 20
77.7808
 30
0.0
 10
31.4048
 20
77.7808
 30
0.0
 10
31.4048
 20
82.8882
 30
0.0
 10
31.4048
 20
82.8882
 30
0.0
 10
31.4048
 20
82.8882
 30
0.0
 10
31.4048
 20
82.8882
 30
0.0
 10
44.0707
 20
82.8882
 30
0.0
 10
44.0707
 20
82.8882
 30
0.0
 10
44.0707
 20
82.8882
 30
0.0
 10
44.0707
 20
82.8882
 30
0.0
 10
44.0707
 20
65.3193
 30
0.0
 10
44.0707
 20
65.3193
 30
0.0
 10
44.0707
 20
65.3193
 30
0.0
 10
44.0707
 20
65.3193
 30
0.0
 10
38.9636
 20
65.3193
 30
0.0
 10
38.9636
 20
65.3193
 30
0.0
 10
38.9636
 20
65.3193
 30
0.0
 10
38.9636
 20
65.3193
 30
0.0
 10
38.9636
 20
77.7808
 30
0.0
 10
38.9636
 20
77.7808
 30
0.0
 10
38.9636
 20
77.7808
 30
0.0
 10
38.9636
 20
77.7808
 30
0.0
 10
38.9636
 20
77.7808
 30
0.0
 10
38.9636
 20
77.7808
 30
0.0
  0
SPLINE
  5
9C
330
1F
100
AcDbEntity
  8
layer 1
 62
     7
100
AcDbSpline
210
0.0
220
0.0
230
1.0
 70
    11
 71
     3
 72
    48
 73
    44
 74
     0
 42
0.0000000001
 43
0.0000000001
 12
1.0
 22
0.0
 32
0.0
 13
1.0
 23
0.0
 33
0.0
 40
0.0
 40
0.0
 40
0.0
 40
0.0
 40
0.0833333333333333
 40
0.0833333333333333
 40
0.0833333333333333
 40
0.0833333333333333
 40
0.1666666666666667
 40
0.1666666666666667
 40
0.1666666666666667
 40
0.1666666666666667
 40
0.25
 40
0.25
 40
0.25
 40
0.25
 40
0.3333333333333333
 40
0.3333333333333333
 40
0.3333333333333333
 40
0.3333333333333333
 40
0.4166666666666667
 40
0.4166666666666667
 40
0.4166666666666667
 40
0.4166666666666667
 40
0.5
 40
0.5
 40
0.5
 40
0.5
 40
0.5833333333333334
 40
0.5833333333333334
 40
0.5833333333333334
 40
0.5833333333333334
 40
0.6666666666666666
 40
0.6666666666666666
 40
0.6666666666666666
 40
0.6666666666666666
 40
0.75
 40
0.75
 40
0.75
 40
0.75
 40
0.8333333333333334
 40
0.8333333333333334
 40
0.8333333333333334
 40
0.8333333333333334
 40
1.0
 40
1.0
 40
1.0
 40
1.0
 10
67.7685
 20
90.7328
 30
0.0
 10
67.7685
 20
90.7328
 30
0.0
 10
67.7685
 20
77.7808
 30
0.0
 10
67.7685
 20
77.7808
 30
0.0
 10
67.7685
 20
77.7808
 30
0.0
 10
67.7685
 20
77.7808
 30
0.0
 10
61.6398
 20
77.7808
 30
0.0
 10
61.6398
 20
77.7808
 30
0.0
 10
61.6398
 20
77.7808
 30
0.0
 10
61.6398
 20
77.7808
 30
0.0
 10
61.6398
 20
85.3396
 30
0.0
 10
61.6398
 20
85.3396
 30
0.0
 10
61.6398
 20
85.3396
 30
0.0
 10
61.6398
 20
85.3396
 30
0.0
 10
55.3068
 20
85.3396
 30
0.0
 10
55.3068
 20
85.3396
 30
0.0
 10
55.3068
 20
85.3396
 30
0.0
 10
55.3068
 20
85.3396
 30
0.0
 10
55.3068
 20
94.165
 30
0.0
 10
55.3068
 20
94.165
 30
0.0
 10
55.3068
 20
94.165
 30
0.0
 10
55.3068
 20
94.165
 30
0.0
 10
55.3068
 20
102.9904
 30
0.0
 10
55.3068
 20
102.9904
 30
0.0
 10
55.3068
 20
102.9904
 30
0.0
 10
55.3068
 20
102.9904
 30
0.0
 10
61.6398
 20
102.9904
 30
0.0
 10
61.6398
 20
102.9904
 30
0.0
 10
61.6398
 20
102.9904
 30
0.0
 10
61.6398
 20
102.9904
 30
0.0
 10
61.6398
 20
110.5492
 30
0.0
 10
61.6398
 20
110.5492
 30
0.0
 10
61.6398
 20
110.5492
 30
0.0
 10
61.6398
 20
110.5492
 30
0.0
 10
67.7685
 20
110.5492
 30
0.0
 10
67.7685
 20
110.5492
 30
0.0
 10
67.7685
 20
110.5492
 30
0.0
 10
67.7685
 20
110.5492
 30
0.0
 10
67.7685
 20
90.7328
 30
0.0
 10
67.7685
 20
90.7328
 30
0.0
 10
67.7685
 20
90.7328
 30
0.0
 10
67.7685
 20
90.7328
 30
0.0
 10
67.7685
 20
90.7328
 30
0.0
 10
67.7685
 20
90.7328
 30
0.0
  0
SPLINE
  5
9D
330
1F
100
AcDbEntity
  8
layer 1
 62
     7
100
AcDbSpline
210
0.0
220
0.0
230
1.0
 70
    11
 71
     3
 72
    32
 73
    28
 74
     0
 42
0.0000000001
 43
0.0000000001
 12
1.0
 22
0.0
 32
0.0
 13
1.0
 23
0.0
 33
0.0
 40
0.0
 40
0.0
 40
0.0
 40
0.0
 40
0.125
 40
0.125
 40
0.125
 40
0.125
 40
0.25
 40
0.25
 40
0.25
 40
0.25
 40
0.375
 40
0.375
 40
0.375
 40
0.375
 40
0.5
 40
0.5
 40
0.5
 40
0.5
 40
0.625
 40
0.625
 40
0.625
 40
0.625
 40
0.75
 40
0.75
 40
0.75
 40
0.75
 40
1.0
 40
1.0
 40
1.0
 40
1.0
 10
59.1882
 20
50.406
 30
0.0
 10
59.1882
 20
50.406
 30
0.0
 10
51.6295
 20
50.406
 30
0.0
 10
51.6295
 20
50.406
 30
0.0
 10
51.6295
 20
50.406
 30
0.0
 10
51.6295
 20
50.406
 30
0.0
 10
51.6295
 20
62.8677
 30
0.0
 10
51.6295
 20
62.8677
 30
0.0
 10
51.6295
 20
62.8677
 30
0.0
 10
51.6295
 20
62.8677
 30
0.0
 10
46.5223
 20
62.8677
 30
0.0
 10
46.5223
 20
62.8677
 30
0.0
 10
46.5223
 20
62.8677
 30
0.0
 10
46.5223
 20
62.8677
 30
0.0
 10
46.5223
 20
45.2988
 30
0.0
 10
46.5223
 20
45.2988
 30
0.0
 10
46.5223
 20
45.2988
 30
0.0
 10
46.5223
 20
45.2988
 30
0.0
 10
59.1882
 20
45.2988
 30
0.0
 10
59.1882
 20
45.2988
 30
0.0
 10
59.1882
 20
45.2988
 30
0.0
 10
59.1882
 20
45.2988
 30
0.0
 10
59.1882
 20
50.406
 30
0.0
 10
59.1882
 20
50.406
 30
0.0
 10
59.1882
 20
50.406
 30
0.0
 10
59.1882
 20
50.406
 30
0.0
 10
59.1882
 20
50.406
 30
0.0
 10
59.1882
 20
50.406
 30
0.0
  0
SPLINE
  5
9E
330
1F
100
AcDbEntity
  8
layer 1
 62
     7
100
AcDbSpline
210
0.0
220
0.0
230
1.0
 70
    11
 71
     3
 72
    28
 73
    24
 74
     0
 42
0.0000000001
 43
0.0000000001
 12
1.0
 22
0.0
 32
0.0
 13
1.0
 23
0.0
 33
0.0
 40
0.0
 40
0.0
 40
0.0
 40
0.0
 40
0.1428571428571428
 40
0.1428571428571428
 40
0.1428571428571428
 40
0.1428571428571428
 40
0.2857142857142857
 40
0.2857142857142857
 40
0.2857142857142857
 40
0.2857142857142857
 40
0.4285714285714285
 40
0.4285714285714285
 40
0.4285714285714285
 40
0.4285714285714285
 40
0.5714285714285714
 40
0.5714285714285714
 40
0.5714285714285714
 40
0.5714285714285714
 40
0.7142857142857143
 40
0.7142857142857143
 40
0.7142857142857143
 40
0.7142857142857143
 40
1.0
 40
1.0
 40
1.0
 40
1.0
 10
38.9636
 20
50.406
 30
0.0
 10
38.9636
 20
50.406
 30
0.0
 10
31.4048
 20
50.406
 30
0.0
 10
31.4048
 20
50.406
 30
0.0
 10
31.4048
 20
50.406
 30
0.0
 10
31.4048
 20
50.406
 30
0.0
 10
31.4048
 20
45.2988
 30
0.0
 10
31.4048
 20
45.2988
 30
0.0
 10
31.4048
 20
45.2988
 30
0.0
 10
31.4048
 20
45.2988
 30
0.0
 10
44.0707
 20
45.2988
 30
0.0
 10
44.0707
 20
45.2988
 30
0.0
 10
44.0707
 20
45.2988
 30
0.0
 10
44.0707
 20
45.2988
 30
0.0
 10
44.0707
 20
62.8677
 30
0.0
 10
44.0707
 20
62.8677
 30
0.0
 10
44.0707
 20
62.8677
 30
0.0
 10
44.0707
 20
62.8677
 30
0.0
 10
38.9636
 20
62.8677
 30
0.0
 10
38.9636
 20
62.8677
 30
0.0
 10
38.9636
 20
62.8677
 30
0.0
 10
38.9636
 20
62.8677
 30
0.0
 10
38.9636
 20
50.406
 30
0.0
 10
38.9636
 20
50.406
 30
0.0
  0
SPLINE
  5
9F
330
1F
100
AcDbEntity
  8
layer 1
 62
     7
100
AcDbSpline
210
0.0
220
0.0
230
1.0
 70
    11
 71
     3
 72
    32
 73
    28
 74
     0
 42
0.0000000001
 43
0.0000000001
 12
1.0
 22
0.0
 32
0.0
 13
1.0
 23
0.0
 33
0.0
 40
0.0
 40
0.0
 40
0.0
 40
0.0
 40
0.125
 40
0.125
 40
0.125
 40
0.125
 40
0.25
 40
0.25
 40
0.25
 40
0.25
 40
0.375
 40
0.375
 40
0.375
 40
0.375
 40
0.5
 40
0.5
 40
0.5
 40
0.5
 40
0.625
 40
0.625
 40
0.625
 40
0.625
 40
0.75
 40
0.75
 40
0.75
 40
0.75
 40
1.0
 40
1.0
 40
1.0
 40
1.0
 10
75.5314
 20
85.2374
 30
0.0
 10
75.5314
 20
85.2374
 30
0.0
 10
70.2199
 20
85.2376
 30
0.0
 10
70.2199
 20
85.2376
 30
0.0
 10
70.2199
 20
85.2376
 30
0.0
 10
70.2199
 20
85.2376
 30
0.0
 10
70.2199
 20
75.3294
 30
0.0
 10
70.2199
 20
75.3294
 30
0.0
 10
70.2199
 20
75.3294
 30
0.0
 10
70.2199
 20
75.3294
 30
0.0
 10
61.6398
 20
75.3294
 30
0.0
 10
61.6398
 20
75.3294
 30
0.0
 10
61.6398
 20
75.3294
 30
0.0
 10
61.6398
 20
75.3294
 30
0.0
 10
61.6398
 20
65.3193
 30
0.0
 10
61.6398
 20
65.3193
 30
0.0
 10
61.6398
 20
65.3193
 30
0.0
 10
61.6398
 20
65.3193
 30
0.0
 10
75.5314
 20
65.3193
 30
0.0
 10
75.5314
 20
65.3193
 30
0.0
 10
75.5314
 20
65.3193
 30
0.0
 10
75.5314
 20
65.3193
 30
0.0
 10
75.5314
 20
85.2376
 30
0.0
 10
75.5314
 20
85.2376
 30
0.0
 10
75.5314
 20
85.2376
 30
0.0
 10
75.5314
 20
85.2376
 30
0.0
 10
75.5314
 20
85.2374
 30
0.0
 10
75.5314
 20
85.2374
 30
0.0
  0
SPLINE
  5
A0
330
1F
100
AcDbEntity
  8
layer 1
 62
     7
100
AcDbSpline
210
0.0
220
0.0
230
1.0
 70
    11
 71
     3
 72
    28
 73
    24
 74
     0
 42
0.0000000001
 43
0.0000000001
 12
1.0
 22
0.0
 32
0.0
 13
1.0
 23
0.0
 33
0.0
 40
0.0
 40
0.0
 40
0.0
 40
0.0
 40
0.1428571428571428
 40
0.1428571428571428
 40
0.1428571428571428
 40
0.1428571428571428
 40
0.2857142857142857
 40
0.2857142857142857
 40
0.2857142857142857
 40
0.2857142857142857
 40
0.4285714285714285
 40
0.4285714285714285
 40
0.4285714285714285
 40
0.4285714285714285
 40
0.5714285714285714
 40
0.5714285714285714
 40
0.5714285714285714
 40
0.5714285714285714
 40
0.7142857142857143
 40
0.7142857142857143
 40
0.7142857142857143
 40
0.7142857142857143
 40
1.0
 40
1.0
 40
1.0
 40
1.0
 10
70.2199
 20
42.9494
 30
0.0
 10
70.2199
 20
42.9494
 30
0.0
 10
75.5314
 20
42.9494
 30
0.0
 10
75.5314
 20
42.9494
 30
0.0
 10
75.5314
 20
42.9494
 30
0.0
 10
75.5314
 20
42.9494
 30
0.0
 10
75.5314
 20
62.8677
 30
0.0
 10
75.5314
 20
62.8677
 30
0.0
 10
75.5314
 20
62.8677
 30
0.0
 10
75.5314
 20
62.8677
 30
0.0
 10
61.6398
 20
62.8677
 30
0.0
 10
61.6398
 20
62.8677
 30
0.0
 10
61.6398
 20
62.8677
 30
0.0
 10
61.6398
 20
62.8677
 30
0.0
 10
61.6398
 20
52.8576
 30
0.0
 10
61.6398
 20
52.8576
 30
0.0
 10
61.6398
 20
52.8576
 30
0.0
 10
61.6398
 20
52.8576
 30
0.0
 10
70.2199
 20
52.8576
 30
0.0
 10
70.2199
 20
52.8576
 30
0.0
 10
70.2199
 20
52.8576
 30
0.0
 10
70.2199
 20
52.8576
 30
0.0
 10
70.2199
 20
42.9494
 30
0.0
 10
70.2199
 20
42.9494
 30
0.0
  0
SPLINE
  5
A1
330
1F
100
AcDbEntity
  8
layer 1
 62
     7
100
AcDbSpline
210
0.0
220
0.0
230
1.0
 70
    11
 71
     3
 72
    24
 73
    20
 74
     0
 42
0.0000000001
 43
0.0000000001
 12
1.0
 22
0.0
 32
0.0
 13
1.0
 23
0.0
 33
0.0
 40
0.0
 40
0.0
 40
0.0
 40
0.0
 40
0.1666666666666667
 40
0.1666666666666667
 40
0.1666666666666667
 40
0.1666666666666667
 40
0.3333333333333333
 40
0.3333333333333333
 40
0.3333333333333333
 40
0.3333333333333333
 40
0.5
 40
0.5
 40
0.5
 40
0.5
 40
0.6666666666666666
 40
0.6666666666666666
 40
0.6666666666666666
 40
0.6666666666666666
 40
1.0
 40
1.0
 40
1.0
 40
1.0
 10
36.512
 20
113.0005
 30
0.0
 10
36.512
 20
113.0005
 30
0.0
 10
31.4048
 20
113.0005
 30
0.0
 10
31.4048
 20
113.0005
 30
0.0
 10
31.4048
 20
113.0005
 30
0.0
 10
31.4048
 20
113.0005
 30
0.0
 10
31.4048
 20
121.1313
 30
0.0
 10
31.4048
 20
121.1313
 30
0.0
 10
31.4048
 20
121.1313
 30
0.0
 10
31.4048
 20
121.1313
 30
0.0
 10
36.512
 20
121.1313
 30
0.0
 10
36.512
 20
121.1313
 30
0.0
 10
36.512
 20
121.1313
 30
0.0
 10
36.512
 20
121.1313
 30
0.0
 10
36.512
 20
113.0005
 30
0.0
 10
36.512
 20
113.0005
 30
0.0
 10
36.512
 20
113.0005
 30
0.0
 10
36.512
 20
113.0005
 30
0.0
 10
36.512
 20
113.0005
 30
0.0
 10
36.512
 20
113.0005
 30
0.0
  0
SPLINE
  5
A2
330
1F
100
AcDbEntity
  8
layer 1
 62
     7
100
AcDbSpline
210
0.0
220
0.0
230
1.0
 70
    11
 71
     3
 72
    24
 73
    20
 74
     0
 42
0.0000000001
 43
0.0000000001
 12
1.0
 22
0.0
 32
0.0
 13
1.0
 23
0.0
 33
0.0
 40
0.0
 40
0.0
 40
0.0
 40
0.0
 40
0.1666666666666667
 40
0.1666666666666667
 40
0.1666666666666667
 40
0.1666666666666667
 40
0.3333333333333333
 40
0.3333333333333333
 40
0.3333333333333333
 40
0.3333333333333333
 40
0.5
 40
0.5
 40
0.5
 40
0.5
 40
0.6666666666666666
 40
0.6666666666666666
 40
0.6666666666666666
 40
0.6666666666666666
 40
1.0
 40
1.0
 40
1.0
 40
1.0
 10
54.0811
 20
121.1313
 30
0.0
 10
54.0811
 20
121.1313
 30
0.0
 10
54.0811
 20
113.0005
 30
0.0
 10
54.0811
 20
113.0005
 30
0.0
 10
54.0811
 20
113.0005
 30
0.0
 10
54.0811
 20
113.0005
 30
0.0
 10
59.1882
 20
113.0005
 30
0.0
 10
59.1882
 20
113.0005
 30
0.0
 10
59.1882
 20
113.0005
 30
0.0
 10
59.1882
 20
113.0005
 30
0.0
 10
59.1882
 20
121.1313
 30
0.0
 10
59.1882
 20
121.1313
 30
0.0
 10
59.1882
 20
121.1313
 30
0.0
 10
59.1882
 20
121.1313
 30
0.0
 10
54.0811
 20
121.1313
 30
0.0
 10
54.0811
 20
121.1313
 30
0.0
 10
54.0811
 20
121.1313
 30
0.0
 10
54.0811
 20
121.1313
 30
0.0
 10
54.0811
 20
121.1313
 30
0.0
 10
54.0811
 20
121.1313
 30
0.0
  0
SPLINE
  5
A3
330
1F
100
AcDbEntity
  8
layer 1
 62
     7
100
AcDbSpline
210
0.0
220
0.0
230
1.0
 70
    11
 71
     3
 72
    28
 73
    24
 74
     0
 42
0.0000000001
 43
0.0000000001
 12
1.0
 22
0.0
 32
0.0
 13
1.0
 23
0.0
 33
0.0
 40
0.0
 40
0.0
 40
0.0
 40
0.0
 40
0.1428571428571428
 40
0.1428571428571428
 40
0.1428571428571428
 40
0.1428571428571428
 40
0.2857142857142857
 40
0.2857142857142857
 40
0.2857142857142857
 40
0.2857142857142857
 40
0.4285714285714285
 40
0.4285714285714285
 40
0.4285714285714285
 40
0.4285714285714285
 40
0.5714285714285714
 40
0.5714285714285714
 40
0.5714285714285714
 40
0.5714285714285714
 40
0.7142857142857143
 40
0.7142857142857143
 40
0.7142857142857143
 40
0.7142857142857143
 40
1.0
 40
1.0
 40
1.0
 40
1.0
 10
51.6295
 20
121.1313
 30
0.0
 10
51.6295
 20
121.1313
 30
0.0
 10
46.5223
 20
121.1313
 30
0.0
 10
46.5223
 20
121.1313
 30
0.0
 10
46.5223
 20
121.1313
 30
0.0
 10
46.5223
 20
121.1313
 30
0.0
 10
46.5223
 20
105.4418
 30
0.0
 10
46.5223
 20
105.4418
 30
0.0
 10
46.5223
 20
105.4418
 30
0.0
 10
46.5223
 20
105.4418
 30
0.0
 10
59.1882
 20
105.4418
 30
0.0
 10
59.1882
 20
105.4418
 30
0.0
 10
59.1882
 20
105.4418
 30
0.0
 10
59.1882
 20
105.4418
 30
0.0
 10
59.1882
 20
110.5492
 30
0.0
 10
59.1882
 20
110.5492
 30
0.0
 10
59.1882
 20
110.5492
 30
0.0
 10
59.1882
 20
110.5492
 30
0.0
 10
51.6295
 20
110.5492
 30
0.0
 10
51.6295
 20
110.5492
 30
0.0
 10
51.6295
 20
110.5492
 30
0.0
 10
51.6295
 20
110.5492
 30
0.0
 10
51.6295
 20
121.1313
 30
0.0
 10
51.6295
 20
121.1313
 30
0.0
  0
SPLINE
  5
A4
330
1F
100
AcDbEntity
  8
layer 1
 62
     7
100
AcDbSpline
210
0.0
220
0.0
230
1.0
 70
    11
 71
     3
 72
    44
 73
    40
 74
     0
 42
0.0000000001
 43
0.0000000001
 12
1.0
 22
0.0
 32
0.0
 13
1.0
 23
0.0
 33
0.0
 40
0.0
 40
0.0
 40
0.0
 40
0.0
 40
0.0909090909090909
 40
0.0909090909090909
 40
0.0909090909090909
 40
0.0909090909090909
 40
0.1818181818181818
 40
0.1818181818181818
 40
0.1818181818181818
 40
0.1818181818181818
 40
0.2727272727272727
 40
0.2727272727272727
 40
0.2727272727272727
 40
0.2727272727272727
 40
0.3636363636363636
 40
0.3636363636363636
 40
0.3636363636363636
 40
0.3636363636363636
 40
0.4545454545454545
 40
0.4545454545454545
 40
0.4545454545454545
 40
0.4545454545454545
 40
0.5454545454545454
 40
0.5454545454545454
 40
0.5454545454545454
 40
0.5454545454545454
 40
0.6363636363636364
 40
0.6363636363636364
 40
0.6363636363636364
 40
0.6363636363636364
 40
0.7272727272727273
 40
0.7272727272727273
 40
0.7272727272727273
 40
0.7272727272727273
 40
0.8181818181818182
 40
0.8181818181818182
 40
0.8181818181818182
 40
0.8181818181818182
 40
1.0
 40
1.0
 40
1.0
 40
1.0
 10
22.9063
 20
77.7808
 30
0.0
 10
22.9063
 20
77.7808
 30
0.0
 10
22.9063
 20
110.5492
 30
0.0
 10
22.9063
 20
110.5492
 30
0.0
 10
22.9063
 20
110.5492
 30
0.0
 10
22.9063
 20
110.5492
 30
0.0
 10
28.9532
 20
110.5492
 30
0.0
 10
28.9532
 20
110.5492
 30
0.0
 10
28.9532
 20
110.5492
 30
0.0
 10
28.9532
 20
110.5492
 30
0.0
 10
28.9532
 20
102.9904
 30
0.0
 10
28.9532
 20
102.9904
 30
0.0
 10
28.9532
 20
102.9904
 30
0.0
 10
28.9532
 20
102.9904
 30
0.0
 10
35.2863
 20
102.9904
 30
0.0
 10
35.2863
 20
102.9904
 30
0.0
 10
35.2863
 20
102.9904
 30
0.0
 10
35.2863
 20
102.9904
 30
0.0
 10
35.2863
 20
90.7328
 30
0.0
 10
35.2863
 20
90.7328
 30
0.0
 10
35.2863
 20
90.7328
 30
0.0
 10
35.2863
 20
90.7328
 30
0.0
 10
35.2863
 20
85.3396
 30
0.0
 10
35.2863
 20
85.3396
 30
0.0
 10
35.2863
 20
85.3396
 30
0.0
 10
35.2863
 20
85.3396
 30
0.0
 10
28.9532
 20
85.3396
 30
0.0
 10
28.9532
 20
85.3396
 30
0.0
 10
28.9532
 20
85.3396
 30
0.0
 10
28.9532
 20
85.3396
 30
0.0
 10
28.9532
 20
77.7808
 30
0.0
 10
28.9532
 20
77.7808
 30
0.0
 10
28.9532
 20
77.7808
 30
0.0
 10
28.9532
 20
77.7808
 30
0.0
 10
22.9063
 20
77.7808
 30
0.0
 10
22.9063
 20
77.7808
 30
0.0
 10
22.9063
 20
77.7808
 30
0.0
 10
22.9063
 20
77.7808
 30
0.0
 10
22.9063
 20
77.7808
 30
0.0
 10
22.9063
 20
77.7808
 30
0.0
  0
SPLINE
  5
A5
330
1F
100
AcDbEntity
  8
layer 1
 62
     7
100
AcDbSpline
210
0.0
220
0.0
230
1.0
 70
    11
 71
     3
 72
    28
 73
    24
 74
     0
 42
0.0000000001
 43
0.0000000001
 12
1.0
 22
0.0
 32
0.0
 13
1.0
 23
0.0
 33
0.0
 40
0.0
 40
0.0
 40
0.0
 40
0.0
 40
0.1428571428571428
 40
0.1428571428571428
 40
0.1428571428571428
 40
0.1428571428571428
 40
0.2857142857142857
 40
0.2857142857142857
 40
0.2857142857142857
 40
0.2857142857142857
 40
0.4285714285714285
 40
0.4285714285714285
 40
0.4285714285714285
 40
0.4285714285714285
 40
0.5714285714285714
 40
0.5714285714285714
 40
0.5714285714285714
 40
0.5714285714285714
 40
0.7142857142857143
 40
0.7142857142857143
 40
0.7142857142857143
 40
0.7142857142857143
 40
1.0
 40
1.0
 40
1.0
 40
1.0
 10
75.5314
 20
121.1313
 30
0.0
 10
75.5314
 20
121.1313
 30
0.0
 10
61.6398
 20
121.1313
 30
0.0
 10
61.6398
 20
121.1313
 30
0.0
 10
61.6398
 20
121.1313
 30
0.0
 10
61.6398
 20
121.1313
 30
0.0
 10
61.6398
 20
113.0005
 30
0.0
 10
61.6398
 20
113.0005
 30
0.0
 10
61.6398
 20
113.0005
 30
0.0
 10
61.6398
 20
113.0005
 30
0.0
 10
70.2199
 20
113.0005
 30
0.0
 10
70.2199
 20
113.0005
 30
0.0
 10
70.2199
 20
113.0005
 30
0.0
 10
70.2199
 20
113.0005
 30
0.0
 10
70.2199
 20
103.0924
 30
0.0
 10
70.2199
 20
103.0924
 30
0.0
 10
70.2199
 20
103.0924
 30
0.0
 10
70.2199
 20
103.0924
 30
0.0
 10
75.5314
 20
103.0924
 30
0.0
 10
75.5314
 20
103.0924
 30
0.0
 10
75.5314
 20
103.0924
 30
0.0
 10
75.5314
 20
103.0924
 30
0.0
 10
75.5314
 20
121.1313
 30
0.0
 10
75.5314
 20
121.1313
 30
0.0
  0
SPLINE
  5
A6
330
1F
100
AcDbEntity
  8
layer 1
 62
     7
100
AcDbSpline
210
0.0
220
0.0
230
1.0
 70
    11
 71
     3
 72
    32
 73
    28
 74
     0
 42
0.0000000001
 43
0.0000000001
 12
1.0
 22
0.0
 32
0.0
 13
1.0
 23
0.0
 33
0.0
 40
0.0
 40
0.0
 40
0.0
 40
0.0
 40
0.125
 40
0.125
 40
0.125
 40
0.125
 40
0.25
 40
0.25
 40
0.25
 40
0.25
 40
0.375
 40
0.375
 40
0.375
 40
0.375
 40
0.5
 40
0.5
 40
0.5
 40
0.5
 40
0.625
 40
0.625
 40
0.625
 40
0.625
 40
0.75
 40
0.75
 40
0.75
 40
0.75
 40
1.0
 40
1.0
 40
1.0
 40
1.0
 10
122.1097
 20
77.7808
 30
0.0
 10
122.1097
 20
77.7808
 30
0.0
 10
114.5509
 20
77.7808
 30
0.0
 10
114.5509
 20
77.7808
 30
0.0
 10
114.5509
 20
77.7808
 30
0.0
 10
114.5509
 20
77.7808
 30
0.0
 10
114.5509
 20
65.3193
 30
0.0
 10
114.5509
 20
65.3193
 30
0.0
 10
114.5509
 20
65.3193
 30
0.0
 10
114.5509
 20
65.3193
 30
0.0
 10
109.4438
 20
65.3193
 30
0.0
 10
109.4438
 20
65.3193
 30
0.0
 10
109.4438
 20
65.3193
 30
0.0
 10
109.4438
 20
65.3193
 30
0.0
 10
109.4438
 20
82.8882
 30
0.0
 10
109.4438
 20
82.8882
 30
0.0
 10
109.4438
 20
82.8882
 30
0.0
 10
109.4438
 20
82.8882
 30
0.0
 10
122.1097
 20
82.8882
 30
0.0
 10
122.1097
 20
82.8882
 30
0.0
 10
122.1097
 20
82.8882
 30
0.0
 10
122.1097
 20
82.8882
 30
0.0
 10
122.1097
 20
77.7808
 30
0.0
 10
122.1097
 20
77.7808
 30
0.0
 10
122.1097
 20
77.7808
 30
0.0
 10
122.1097
 20
77.7808
 30
0.0
 10
122.1097
 20
77.7808
 30
0.0
 10
122.1097
 20
77.7808
 30
0.0
  0
SPLINE
  5
A7
330
1F
100
AcDbEntity
  8
layer 1
 62
     7
100
AcDbSpline
210
0.0
220
0.0
230
1.0
 70
    11
 71
     3
 72
    32
 73
    28
 74
     0
 42
0.0000000001
 43
0.0000000001
 12
1.0
 22
0.0
 32
0.0
 13
1.0
 23
0.0
 33
0.0
 40
0.0
 40
0.0
 40
0.0
 40
0.0
 40
0.125
 40
0.125
 40
0.125
 40
0.125
 40
0.25
 40
0.25
 40
0.25
 40
0.25
 40
0.375
 40
0.375
 40
0.375
 40
0.375
 40
0.5
 40
0.5
 40
0.5
 40
0.5
 40
0.625
 40
0.625
 40
0.625
 40
0.625
 40
0.75
 40
0.75
 40
0.75
 40
0.75
 40
1.0
 40
1.0
 40
1.0
 40
1.0
 10
101.885
 20
77.7808
 30
0.0
 10
101.885
 20
77.7808
 30
0.0
 10
94.3262
 20
77.7808
 30
0.0
 10
94.3262
 20
77.7808
 30
0.0
 10
94.3262
 20
77.7808
 30
0.0
 10
94.3262
 20
77.7808
 30
0.0
 10
94.3262
 20
82.8882
 30
0.0
 10
94.3262
 20
82.8882
 30
0.0
 10
94.3262
 20
82.8882
 30
0.0
 10
94.3262
 20
82.8882
 30
0.0
 10
106.9921
 20
82.8882
 30
0.0
 10
106.9921
 20
82.8882
 30
0.0
 10
106.9921
 20
82.8882
 30
0.0
 10
106.9921
 20
82.8882
 30
0.0
 10
106.9921
 20
65.3193
 30
0.0
 10
106.9921
 20
65.3193
 30
0.0
 10
106.9921
 20
65.3193
 30
0.0
 10
106.9921
 20
65.3193
 30
0.0
 10
101.885
 20
65.3193
 30
0.0
 10
101.885
 20
65.3193
 30
0.0
 10
101.885
 20
65.3193
 30
0.0
 10
101.885
 20
65.3193
 30
0.0
 10
101.885
 20
77.7808
 30
0.0
 10
101.885
 20
77.7808
 30
0.0
 10
101.885
 20
77.7808
 30
0.0
 10
101.885
 20
77.7808
 30
0.0
 10
101.885
 20
77.7808
 30
0.0
 10
101.885
 20
77.7808
 30
0.0
  0
SPLINE
  5
A8
330
1F
100
AcDbEntity
  8
layer 1
 62
     7
100
AcDbSpline
210
0.0
220
0.0
230
1.0
 70
    11
 71
     3
 72
    24
 73
    20
 74
     0
 42
0.0000000001
 43
0.0000000001
 12
1.0
 22
0.0
 32
0.0
 13
1.0
 23
0.0
 33
0.0
 40
0.0
 40
0.0
 40
0.0
 40
0.0
 40
0.1666666666666667
 40
0.1666666666666667
 40
0.1666666666666667
 40
0.1666666666666667
 40
0.3333333333333333
 40
0.3333333333333333
 40
0.3333333333333333
 40
0.3333333333333333
 40
0.5
 40
0.5
 40
0.5
 40
0.5
 40
0.6666666666666666
 40
0.6666666666666666
 40
0.6666666666666666
 40
0.6666666666666666
 40
1.0
 40
1.0
 40
1.0
 40
1.0
 10
117.0025
 20
52.8576
 30
0.0
 10
117.0025
 20
52.8576
 30
0.0
 10
122.1097
 20
52.8576
 30
0.0
 10
122.1097
 20
52.8576
 30
0.0
 10
122.1097
 20
52.8576
 30
0.0
 10
122.1097
 20
52.8576
 30
0.0
 10
122.1097
 20
62.8677
 30
0.0
 10
122.1097
 20
62.8677
 30
0.0
 10
122.1097
 20
62.8677
 30
0.0
 10
122.1097
 20
62.8677
 30
0.0
 10
117.0025
 20
62.8677
 30
0.0
 10
117.0025
 20
62.8677
 30
0.0
 10
117.0025
 20
62.8677
 30
0.0
 10
117.0025
 20
62.8677
 30
0.0
 10
117.0025
 20
52.8576
 30
0.0
 10
117.0025
 20
52.8576
 30
0.0
 10
117.0025
 20
52.8576
 30
0.0
 10
117.0025
 20
52.8576
 30
0.0
 10
117.0025
 20
52.8576
 30
0.0
 10
117.0025
 20
52.8576
 30
0.0
  0
SPLINE
  5
A9
330
1F
100
AcDbEntity
  8
layer 1
 62
     7
100
AcDbSpline
210
0.0
220
0.0
230
1.0
 70
    11
 71
     3
 72
    28
 73
    24
 74
     0
 42
0.0000000001
 43
0.0000000001
 12
1.0
 22
0.0
 32
0.0
 13
1.0
 23
0.0
 33
0.0
 40
0.0
 40
0.0
 40
0.0
 40
0.0
 40
0.1428571428571428
 40
0.1428571428571428
 40
0.1428571428571428
 40
0.1428571428571428
 40
0.2857142857142857
 40
0.2857142857142857
 40
0.2857142857142857
 40
0.2857142857142857
 40
0.4285714285714285
 40
0.4285714285714285
 40
0.4285714285714285
 40
0.4285714285714285
 40
0.5714285714285714
 40
0.5714285714285714
 40
0.5714285714285714
 40
0.5714285714285714
 40
0.7142857142857143
 40
0.7142857142857143
 40
0.7142857142857143
 40
0.7142857142857143
 40
1.0
 40
1.0
 40
1.0
 40
1.0
 10
122.1097
 20
50.406
 30
0.0
 10
122.1097
 20
50.406
 30
0.0
 10
114.5509
 20
50.406
 30
0.0
 10
114.5509
 20
50.406
 30
0.0
 10
114.5509
 20
50.406
 30
0.0
 10
114.5509
 20
50.406
 30
0.0
 10
114.5509
 20
62.8677
 30
0.0
 10
114.5509
 20
62.8677
 30
0.0
 10
114.5509
 20
62.8677
 30
0.0
 10
114.5509
 20
62.8677
 30
0.0
 10
109.4438
 20
62.8677
 30
0.0
 10
109.4438
 20
62.8677
 30
0.0
 10
109.4438
 20
62.8677
 30
0.0
 10
109.4438
 20
62.8677
 30
0.0
 10
109.4438
 20
45.2988
 30
0.0
 10
109.4438
 20
45.2988
 30
0.0
 10
109.4438
 20
45.2988
 30
0.0
 10
109.4438
 20
45.2988
 30
0.0
 10
122.1097
 20
45.2988
 30
0.0
 10
122.1097
 20
45.2988
 30
0.0
 10
122.1097
 20
45.2988
 30
0.0
 10
122.1097
 20
45.2988
 30
0.0
 10
122.1097
 20
50.406
 30
0.0
 10
122.1097
 20
50.406
 30
0.0
  0
SPLINE
  5
AA
330
1F
100
AcDbEntity
  8
layer 1
 62
     7
100
AcDbSpline
210
0.0
220
0.0
230
1.0
 70
    11
 71
     3
 72
    32
 73
    28
 74
     0
 42
0.0000000001
 43
0.0000000001
 12
1.0
 22
0.0
 32
0.0
 13
1.0
 23
0.0
 33
0.0
 40
0.0
 40
0.0
 40
0.0
 40
0.0
 40
0.125
 40
0.125
 40
0.125
 40
0.125
 40
0.25
 40
0.25
 40
0.25
 40
0.25
 40
0.375
 40
0.375
 40
0.375
 40
0.375
 40
0.5
 40
0.5
 40
0.5
 40
0.5
 40
0.625
 40
0.625
 40
0.625
 40
0.625
 40
0.75
 40
0.75
 40
0.75
 40
0.75
 40
1.0
 40
1.0
 40
1.0
 40
1.0
 10
101.885
 20
50.406
 30
0.0
 10
101.885
 20
50.406
 30
0.0
 10
94.3262
 20
50.406
 30
0.0
 10
94.3262
 20
50.406
 30
0.0
 10
94.3262
 20
50.406
 30
0.0
 10
94.3262
 20
50.406
 30
0.0
 10
94.3262
 20
45.2988
 30
0.0
 10
94.3262
 20
45.2988
 30
0.0
 10
94.3262
 20
45.2988
 30
0.0
 10
94.3262
 20
45.2988
 30
0.0
 10
106.9921
 20
45.2988
 30
0.0
 10
106.9921
 20
45.2988
 30
0.0
 10
106.9921
 20
45.2988
 30
0.0
 10
106.9921
 20
45.2988
 30
0.0
 10
106.9921
 20
62.8677
 30
0.0
 10
106.9921
 20
62.8677
 30
0.0
 10
106.9921
 20
62.8677
 30
0.0
 10
106.9921
 20
62.8677
 30
0.0
 10
101.885
 20
62.8677
 30
0.0
 10
101.885
 20
62.8677
 30
0.0
 10
101.885
 20
62.8677
 30
0.0
 10
101.885
 20
62.8677
 30
0.0
 10
101.885
 20
50.406
 30
0.0
 10
101.885
 20
50.406
 30
0.0
 10
101.885
 20
50.406
 30
0.0
 10
101.885
 20
50.406
 30
0.0
 10
101.885
 20
50.406
 30
0.0
 10
101.885
 20
50.406
 30
0.0
  0
SPLINE
  5
AB
330
1F
100
AcDbEntity
  8
layer 1
 62
     7
100
AcDbSpline
210
0.0
220
0.0
230
1.0
 70
    11
 71
     3
 72
    32
 73
    28
 74
     0
 42
0.0000000001
 43
0.0000000001
 12
1.0
 22
0.0
 32
0.0
 13
1.0
 23
0.0
 33
0.0
 40
0.0
 40
0.0
 40
0.0
 40
0.0
 40
0.125
 40
0.125
 40
0.125
 40
0.125
 40
0.25
 40
0.25
 40
0.25
 40
0.25
 40
0.375
 40
0.375
 40
0.375
 40
0.375
 40
0.5
 40
0.5
 40
0.5
 40
0.5
 40
0.625
 40
0.625
 40
0.625
 40
0.625
 40
0.75
 40
0.75
 40
0.75
 40
0.75
 40
1.0
 40
1.0
 40
1.0
 40
1.0
 10
83.2946
 20
42.9494
 30
0.0
 10
83.2946
 20
42.9494
 30
0.0
 10
77.983
 20
42.9494
 30
0.0
 10
77.983
 20
42.9494
 30
0.0
 10
77.983
 20
42.9494
 30
0.0
 10
77.983
 20
42.9494
 30
0.0
 10
77.983
 20
62.8677
 30
0.0
 10
77.983
 20
62.8677
 30
0.0
 10
77.983
 20
62.8677
 30
0.0
 10
77.983
 20
62.8677
 30
0.0
 10
91.8746
 20
62.8677
 30
0.0
 10
91.8746
 20
62.8677
 30
0.0
 10
91.8746
 20
62.8677
 30
0.0
 10
91.8746
 20
62.8677
 30
0.0
 10
91.8746
 20
52.8576
 30
0.0
 10
91.8746
 20
52.8576
 30
0.0
 10
91.8746
 20
52.8576
 30
0.0
 10
91.8746
 20
52.8576
 30
0.0
 10
83.2946
 20
52.8576
 30
0.0
 10
83.2946
 20
52.8576
 30
0.0
 10
83.2946
 20
52.8576
 30
0.0
 10
83.2946
 20
52.8576
 30
0.0
 10
83.2946
 20
42.9494
 30
0.0
 10
83.2946
 20
42.9494
 30
0.0
 10
83.2946
 20
42.9494
 30
0.0
 10
83.2946
 20
42.9494
 30
0.0
 10
83.2946
 20
42.9494
 30
0.0
 10
83.2946
 20
42.9494
 30
0.0
  0
SPLINE
  5
AC
330
1F
100
AcDbEntity
  8
layer 1
 62
     7
100
AcDbSpline
210
0.0
220
0.0
230
1.0
 70
    11
 71
     3
 72
    32
 73
    28
 74
     0
 42
0.0000000001
 43
0.0000000001
 12
1.0
 22
0.0
 32
0.0
 13
1.0
 23
0.0
 33
0.0
 40
0.0
 40
0.0
 40
0.0
 40
0.0
 40
0.125
 40
0.125
 40
0.125
 40
0.125
 40
0.25
 40
0.25
 40
0.25
 40
0.25
 40
0.375
 40
0.375
 40
0.375
 40
0.375
 40
0.5
 40
0.5
 40
0.5
 40
0.5
 40
0.625
 40
0.625
 40
0.625
 40
0.625
 40
0.75
 40
0.75
 40
0.75
 40
0.75
 40
1.0
 40
1.0
 40
1.0
 40
1.0
 10
138.4529
 20
85.2374
 30
0.0
 10
138.4529
 20
85.2374
 30
0.0
 10
133.1413
 20
85.2376
 30
0.0
 10
133.1413
 20
85.2376
 30
0.0
 10
133.1413
 20
85.2376
 30
0.0
 10
133.1413
 20
85.2376
 30
0.0
 10
133.1413
 20
75.3294
 30
0.0
 10
133.1413
 20
75.3294
 30
0.0
 10
133.1413
 20
75.3294
 30
0.0
 10
133.1413
 20
75.3294
 30
0.0
 10
124.5613
 20
75.3294
 30
0.0
 10
124.5613
 20
75.3294
 30
0.0
 10
124.5613
 20
75.3294
 30
0.0
 10
124.5613
 20
75.3294
 30
0.0
 10
124.5613
 20
65.3193
 30
0.0
 10
124.5613
 20
65.3193
 30
0.0
 10
124.5613
 20
65.3193
 30
0.0
 10
124.5613
 20
65.3193
 30
0.0
 10
138.4529
 20
65.3193
 30
0.0
 10
138.4529
 20
65.3193
 30
0.0
 10
138.4529
 20
65.3193
 30
0.0
 10
138.4529
 20
65.3193
 30
0.0
 10
138.4529
 20
85.2376
 30
0.0
 10
138.4529
 20
85.2376
 30
0.0
 10
138.4529
 20
85.2376
 30
0.0
 10
138.4529
 20
85.2376
 30
0.0
 10
138.4529
 20
85.2374
 30
0.0
 10
138.4529
 20
85.2374
 30
0.0
  0
SPLINE
  5
AD
330
1F
100
AcDbEntity
  8
layer 1
 62
     7
100
AcDbSpline
210
0.0
220
0.0
230
1.0
 70
    11
 71
     3
 72
    32
 73
    28
 74
     0
 42
0.0000000001
 43
0.0000000001
 12
1.0
 22
0.0
 32
0.0
 13
1.0
 23
0.0
 33
0.0
 40
0.0
 40
0.0
 40
0.0
 40
0.0
 40
0.125
 40
0.125
 40
0.125
 40
0.125
 40
0.25
 40
0.25
 40
0.25
 40
0.25
 40
0.375
 40
0.375
 40
0.375
 40
0.375
 40
0.5
 40
0.5
 40
0.5
 40
0.5
 40
0.625
 40
0.625
 40
0.625
 40
0.625
 40
0.75
 40
0.75
 40
0.75
 40
0.75
 40
1.0
 40
1.0
 40
1.0
 40
1.0
 10
133.1413
 20
42.9494
 30
0.0
 10
133.1413
 20
42.9494
 30
0.0
 10
138.4529
 20
42.9494
 30
0.0
 10
138.4529
 20
42.9494
 30
0.0
 10
138.4529
 20
42.9494
 30
0.0
 10
138.4529
 20
42.9494
 30
0.0
 10
138.4529
 20
62.8677
 30
0.0
 10
138.4529
 20
62.8677
 30
0.0
 10
138.4529
 20
62.8677
 30
0.0
 10
138.4529
 20
62.8677
 30
0.0
 10
124.5613
 20
62.8677
 30
0.0
 10
124.5613
 20
62.8677
 30
0.0
 10
124.5613
 20
62.8677
 30
0.0
 10
124.5613
 20
62.8677
 30
0.0
 10
124.5613
 20
52.8576
 30
0.0
 10
124.5613
 20
52.8576
 30
0.0
 10
124.5613
 20
52.8576
 30
0.0
 10
124.5613
 20
52.8576
 30
0.0
 10
133.1413
 20
52.8576
 30
0.0
 10
133.1413
 20
52.8576
 30
0.0
 10
133.1413
 20
52.8576
 30
0.0
 10
133.1413
 20
52.8576
 30
0.0
 10
133.1413
 20
42.9494
 30
0.0
 10
133.1413
 20
42.9494
 30
0.0
 10
133.1413
 20
42.9494
 30
0.0
 10
133.1413
 20
42.9494
 30
0.0
 10
133.1413
 20
42.9494
 30
0.0
 10
133.1413
 20
42.9494
 30
0.0
  0
SPLINE
  5
AE
330
1F
100
AcDbEntity
  8
layer 1
 62
     7
100
AcDbSpline
210
0.0
220
0.0
230
1.0
 70
    11
 71
     3
 72
    32
 73
    28
 74
     0
 42
0.0000000001
 43
0.0000000001
 12
1.0
 22
0.0
 32
0.0
 13
1.0
 23
0.0
 33
0.0
 40
0.0
 40
0.0
 40
0.0
 40
0.0
 40
0.125
 40
0.125
 40
0.125
 40
0.125
 40
0.25
 40
0.25
 40
0.25
 40
0.25
 40
0.375
 40
0.375
 40
0.375
 40
0.375
 40
0.5
 40
0.5
 40
0.5
 40
0.5
 40
0.625
 40
0.625
 40
0.625
 40
0.625
 40
0.75
 40
0.75
 40
0.75
 40
0.75
 40
1.0
 40
1.0
 40
1.0
 40
1.0
 10
114.5509
 20
121.1313
 30
0.0
 10
114.5509
 20
121.1313
 30
0.0
 10
109.4438
 20
121.1313
 30
0.0
 10
109.4438
 20
121.1313
 30
0.0
 10
109.4438
 20
121.1313
 30
0.0
 10
109.4438
 20
121.1313
 30
0.0
 10
109.4438
 20
105.4418
 30
0.0
 10
109.4438
 20
105.4418
 30
0.0
 10
109.4438
 20
105.4418
 30
0.0
 10
109.4438
 20
105.4418
 30
0.0
 10
122.1097
 20
105.4418
 30
0.0
 10
122.1097
 20
105.4418
 30
0.0
 10
122.1097
 20
105.4418
 30
0.0
 10
122.1097
 20
105.4418
 30
0.0
 10
122.1097
 20
110.5492
 30
0.0
 10
122.1097
 20
110.5492
 30
0.0
 10
122.1097
 20
110.5492
 30
0.0
 10
122.1097
 20
110.5492
 30
0.0
 10
114.5509
 20
110.5492
 30
0.0
 10
114.5509
 20
110.5492
 30
0.0
 10
114.5509
 20
110.5492
 30
0.0
 10
114.5509
 20
110.5492
 30
0.0
 10
114.5509
 20
121.1313
 30
0.0
 10
114.5509
 20
121.1313
 30
0.0
 10
114.5509
 20
121.1313
 30
0.0
 10
114.5509
 20
121.1313
 30
0.0
 10
114.5509
 20
121.1313
 30
0.0
 10
114.5509
 20
121.1313
 30
0.0
  0
SPLINE
  5
AF
330
1F
100
AcDbEntity
  8
layer 1
 62
     7
100
AcDbSpline
210
0.0
220
0.0
230
1.0
 70
    11
 71
     3
 72
    32
 73
    28
 74
     0
 42
0.0000000001
 43
0.0000000001
 12
1.0
 22
0.0
 32
0.0
 13
1.0
 23
0.0
 33
0.0
 40
0.0
 40
0.0
 40
0.0
 40
0.0
 40
0.125
 40
0.125
 40
0.125
 40
0.125
 40
0.25
 40
0.25
 40
0.25
 40
0.25
 40
0.375
 40
0.375
 40
0.375
 40
0.375
 40
0.5
 40
0.5
 40
0.5
 40
0.5
 40
0.625
 40
0.625
 40
0.625
 40
0.625
 40
0.75
 40
0.75
 40
0.75
 40
0.75
 40
1.0
 40
1.0
 40
1.0
 40
1.0
 10
106.9921
 20
121.1313
 30
0.0
 10
106.9921
 20
121.1313
 30
0.0
 10
101.885
 20
121.1313
 30
0.0
 10
101.885
 20
121.1313
 30
0.0
 10
101.885
 20
121.1313
 30
0.0
 10
101.885
 20
121.1313
 30
0.0
 10
101.885
 20
110.5492
 30
0.0
 10
101.885
 20
110.5492
 30
0.0
 10
101.885
 20
110.5492
 30
0.0
 10
101.885
 20
110.5492
 30
0.0
 10
94.3262
 20
110.5492
 30
0.0
 10
94.3262
 20
110.5492
 30
0.0
 10
94.3262
 20
110.5492
 30
0.0
 10
94.3262
 20
110.5492
 30
0.0
 10
94.3262
 20
105.4418
 30
0.0
 10
94.3262
 20
105.4418
 30
0.0
 10
94.3262
 20
105.4418
 30
0.0
 10
94.3262
 20
105.4418
 30
0.0
 10
106.9921
 20
105.4418
 30
0.0
 10
106.9921
 20
105.4418
 30
0.0
 10
106.9921
 20
105.4418
 30
0.0
 10
106.9921
 20
105.4418
 30
0.0
 10
106.9921
 20
121.1313
 30
0.0
 10
106.9921
 20
121.1313
 30
0.0
 10
106.9921
 20
121.1313
 30
0.0
 10
106.9921
 20
121.1313
 30
0.0
 10
106.9921
 20
121.1313
 30
0.0
 10
106.9921
 20
121.1313
 30
0.0
  0
SPLINE
  5
B0
330
1F
100
AcDbEntity
  8
layer 1
 62
     7
100
AcDbSpline
210
0.0
220
0.0
230
1.0
 70
    11
 71
     3
 72
    32
 73
    28
 74
     0
 42
0.0000000001
 43
0.0000000001
 12
1.0
 22
0.0
 32
0.0
 13
1.0
 23
0.0
 33
0.0
 40
0.0
 40
0.0
 40
0.0
 40
0.0
 40
0.125
 40
0.125
 40
0.125
 40
0.125
 40
0.25
 40
0.25
 40
0.25
 40
0.25
 40
0.375
 40
0.375
 40
0.375
 40
0.375
 40
0.5
 40
0.5
 40
0.5
 40
0.5
 40
0.625
 40
0.625
 40
0.625
 40
0.625
 40
0.75
 40
0.75
 40
0.75
 40
0.75
 40
1.0
 40
1.0
 40
1.0
 40
1.0
 10
185.0311
 20
77.7808
 30
0.0
 10
185.0311
 20
77.7808
 30
0.0
 10
177.4723
 20
77.7808
 30
0.0
 10
177.4723
 20
77.7808
 30
0.0
 10
177.4723
 20
77.7808
 30
0.0
 10
177.4723
 20
77.7808
 30
0.0
 10
177.4723
 20
65.3193
 30
0.0
 10
177.4723
 20
65.3193
 30
0.0
 10
177.4723
 20
65.3193
 30
0.0
 10
177.4723
 20
65.3193
 30
0.0
 10
172.3652
 20
65.3193
 30
0.0
 10
172.3652
 20
65.3193
 30
0.0
 10
172.3652
 20
65.3193
 30
0.0
 10
172.3652
 20
65.3193
 30
0.0
 10
172.3652
 20
82.8882
 30
0.0
 10
172.3652
 20
82.8882
 30
0.0
 10
172.3652
 20
82.8882
 30
0.0
 10
172.3652
 20
82.8882
 30
0.0
 10
185.0311
 20
82.8882
 30
0.0
 10
185.0311
 20
82.8882
 30
0.0
 10
185.0311
 20
82.8882
 30
0.0
 10
185.0311
 20
82.8882
 30
0.0
 10
185.0311
 20
77.7808
 30
0.0
 10
185.0311
 20
77.7808
 30
0.0
 10
185.0311
 20
77.7808
 30
0.0
 10
185.0311
 20
77.7808
 30
0.0
 10
185.0311
 20
77.7808
 30
0.0
 10
185.0311
 20
77.7808
 30
0.0
  0
SPLINE
  5
B1
330
1F
100
AcDbEntity
  8
layer 1
 62
     7
100
AcDbSpline
210
0.0
220
0.0
230
1.0
 70
    11
 71
     3
 72
    32
 73
    28
 74
     0
 42
0.0000000001
 43
0.0000000001
 12
1.0
 22
0.0
 32
0.0
 13
1.0
 23
0.0
 33
0.0
 40
0.0
 40
0.0
 40
0.0
 40
0.0
 40
0.125
 40
0.125
 40
0.125
 40
0.125
 40
0.25
 40
0.25
 40
0.25
 40
0.25
 40
0.375
 40
0.375
 40
0.375
 40
0.375
 40
0.5
 40
0.5
 40
0.5
 40
0.5
 40
0.625
 40
0.625
 40
0.625
 40
0.625
 40
0.75
 40
0.75
 40
0.75
 40
0.75
 40
1.0
 40
1.0
 40
1.0
 40
1.0
 10
164.8064
 20
77.7808
 30
0.0
 10
164.8064
 20
77.7808
 30
0.0
 10
157.2477
 20
77.7808
 30
0.0
 10
157.2477
 20
77.7808
 30
0.0
 10
157.2477
 20
77.7808
 30
0.0
 10
157.2477
 20
77.7808
 30
0.0
 10
157.2477
 20
82.8882
 30
0.0
 10
157.2477
 20
82.8882
 30
0.0
 10
157.2477
 20
82.8882
 30
0.0
 10
157.2477
 20
82.8882
 30
0.0
 10
169.9136
 20
82.8882
 30
0.0
 10
169.9136
 20
82.8882
 30
0.0
 10
169.9136
 20
82.8882
 30
0.0
 10
169.9136
 20
82.8882
 30
0.0
 10
169.9136
 20
65.3193
 30
0.0
 10
169.9136
 20
65.3193
 30
0.0
 10
169.9136
 20
65.3193
 30
0.0
 10
169.9136
 20
65.3193
 30
0.0
 10
164.8064
 20
65.3193
 30
0.0
 10
164.8064
 20
65.3193
 30
0.0
 10
164.8064
 20
65.3193
 30
0.0
 10
164.8064
 20
65.3193
 30
0.0
 10
164.8064
 20
77.7808
 30
0.0
 10
164.8064
 20
77.7808
 30
0.0
 10
164.8064
 20
77.7808
 30
0.0
 10
164.8064
 20
77.7808
 30
0.0
 10
164.8064
 20
77.7808
 30
0.0
 10
164.8064
 20
77.7808
 30
0.0
  0
SPLINE
  5
B2
330
1F
100
AcDbEntity
  8
layer 1
 62
     7
100
AcDbSpline
210
0.0
220
0.0
230
1.0
 70
    11
 71
     3
 72
    20
 73
    16
 74
     0
 42
0.0000000001
 43
0.0000000001
 12
1.0
 22
0.0
 32
0.0
 13
1.0
 23
0.0
 33
0.0
 40
0.0
 40
0.0
 40
0.0
 40
0.0
 40
0.2
 40
0.2
 40
0.2
 40
0.2
 40
0.4
 40
0.4
 40
0.4
 40
0.4
 40
0.6
 40
0.6
 40
0.6
 40
0.6
 40
1.0
 40
1.0
 40
1.0
 40
1.0
 10
193.5297
 20
75.3294
 30
0.0
 10
193.5297
 20
75.3294
 30
0.0
 10
193.5297
 20
65.3193
 30
0.0
 10
193.5297
 20
65.3193
 30
0.0
 10
193.5297
 20
65.3193
 30
0.0
 10
193.5297
 20
65.3193
 30
0.0
 10
187.4825
 20
65.3193
 30
0.0
 10
187.4825
 20
65.3193
 30
0.0
 10
187.4825
 20
65.3193
 30
0.0
 10
187.4825
 20
65.3193
 30
0.0
 10
187.4825
 20
75.3294
 30
0.0
 10
187.4825
 20
75.3294
 30
0.0
 10
187.4825
 20
75.3294
 30
0.0
 10
187.4825
 20
75.3294
 30
0.0
 10
193.5297
 20
75.3294
 30
0.0
 10
193.5297
 20
75.3294
 30
0.0
  0
SPLINE
  5
B3
330
1F
100
AcDbEntity
  8
layer 1
 62
     7
100
AcDbSpline
210
0.0
220
0.0
230
1.0
 70
    11
 71
     3
 72
    32
 73
    28
 74
     0
 42
0.0000000001
 43
0.0000000001
 12
1.0
 22
0.0
 32
0.0
 13
1.0
 23
0.0
 33
0.0
 40
0.0
 40
0.0
 40
0.0
 40
0.0
 40
0.125
 40
0.125
 40
0.125
 40
0.125
 40
0.25
 40
0.25
 40
0.25
 40
0.25
 40
0.375
 40
0.375
 40
0.375
 40
0.375
 40
0.5
 40
0.5
 40
0.5
 40
0.5
 40
0.625
 40
0.625
 40
0.625
 40
0.625
 40
0.75
 40
0.75
 40
0.75
 40
0.75
 40
1.0
 40
1.0
 40
1.0
 40
1.0
 10
185.0311
 20
50.406
 30
0.0
 10
185.0311
 20
50.406
 30
0.0
 10
177.4723
 20
50.406
 30
0.0
 10
177.4723
 20
50.406
 30
0.0
 10
177.4723
 20
50.406
 30
0.0
 10
177.4723
 20
50.406
 30
0.0
 10
177.4723
 20
62.8677
 30
0.0
 10
177.4723
 20
62.8677
 30
0.0
 10
177.4723
 20
62.8677
 30
0.0
 10
177.4723
 20
62.8677
 30
0.0
 10
172.3652
 20
62.8677
 30
0.0
 10
172.3652
 20
62.8677
 30
0.0
 10
172.3652
 20
62.8677
 30
0.0
 10
172.3652
 20
62.8677
 30
0.0
 10
172.3652
 20
45.2988
 30
0.0
 10
172.3652
 20
45.2988
 30
0.0
 10
172.3652
 20
45.2988
 30
0.0
 10
172.3652
 20
45.2988
 30
0.0
 10
185.0311
 20
45.2988
 30
0.0
 10
185.0311
 20
45.2988
 30
0.0
 10
185.0311
 20
45.2988
 30
0.0
 10
185.0311
 20
45.2988
 30
0.0
 10
185.0311
 20
50.406
 30
0.0
 10
185.0311
 20
50.406
 30
0.0
 10
185.0311
 20
50.406
 30
0.0
 10
185.0311
 20
50.406
 30
0.0
 10
185.0311
 20
50.406
 30
0.0
 10
185.0311
 20
50.406
 30
0.0
  0
SPLINE
  5
B4
330
1F
100
AcDbEntity
  8
layer 1
 62
     7
100
AcDbSpline
210
0.0
220
0.0
230
1.0
 70
    11
 71
     3
 72
    32
 73
    28
 74
     0
 42
0.0000000001
 43
0.0000000001
 12
1.0
 22
0.0
 32
0.0
 13
1.0
 23
0.0
 33
0.0
 40
0.0
 40
0.0
 40
0.0
 40
0.0
 40
0.125
 40
0.125
 40
0.125
 40
0.125
 40
0.25
 40
0.25
 40
0.25
 40
0.25
 40
0.375
 40
0.375
 40
0.375
 40
0.375
 40
0.5
 40
0.5
 40
0.5
 40
0.5
 40
0.625
 40
0.625
 40
0.625
 40
0.625
 40
0.75
 40
0.75
 40
0.75
 40
0.75
 40
1.0
 40
1.0
 40
1.0
 40
1.0
 10
164.8064
 20
50.406
 30
0.0
 10
164.8064
 20
50.406
 30
0.0
 10
157.2477
 20
50.406
 30
0.0
 10
157.2477
 20
50.406
 30
0.0
 10
157.2477
 20
50.406
 30
0.0
 10
157.2477
 20
50.406
 30
0.0
 10
157.2477
 20
45.2988
 30
0.0
 10
157.2477
 20
45.2988
 30
0.0
 10
157.2477
 20
45.2988
 30
0.0
 10
157.2477
 20
45.2988
 30
0.0
 10
169.9136
 20
45.2988
 30
0.0
 10
169.9136
 20
45.2988
 30
0.0
 10
169.9136
 20
45.2988
 30
0.0
 10
169.9136
 20
45.2988
 30
0.0
 10
169.9136
 20
62.8677
 30
0.0
 10
169.9136
 20
62.8677
 30
0.0
 10
169.9136
 20
62.8677
 30
0.0
 10
169.9136
 20
62.8677
 30
0.0
 10
164.8064
 20
62.8677
 30
0.0
 10
164.8064
 20
62.8677
 30
0.0
 10
164.8064
 20
62.8677
 30
0.0
 10
164.8064
 20
62.8677
 30
0.0
 10
164.8064
 20
50.406
 30
0.0
 10
164.8064
 20
50.406
 30
0.0
 10
164.8064
 20
50.406
 30
0.0
 10
164.8064
 20
50.406
 30
0.0
 10
164.8064
 20
50.406
 30
0.0
 10
164.8064
 20
50.406
 30
0.0
  0
SPLINE
  5
B5
330
1F
100
AcDbEntity
  8
layer 1
 62
     7
100
AcDbSpline
210
0.0
220
0.0
230
1.0
 70
    11
 71
     3
 72
    24
 73
    20
 74
     0
 42
0.0000000001
 43
0.0000000001
 12
1.0
 22
0.0
 32
0.0
 13
1.0
 23
0.0
 33
0.0
 40
0.0
 40
0.0
 40
0.0
 40
0.0
 40
0.1666666666666667
 40
0.1666666666666667
 40
0.1666666666666667
 40
0.1666666666666667
 40
0.3333333333333333
 40
0.3333333333333333
 40
0.3333333333333333
 40
0.3333333333333333
 40
0.5
 40
0.5
 40
0.5
 40
0.5
 40
0.6666666666666666
 40
0.6666666666666666
 40
0.6666666666666666
 40
0.6666666666666666
 40
1.0
 40
1.0
 40
1.0
 40
1.0
 10
193.5297
 20
62.8677
 30
0.0
 10
193.5297
 20
62.8677
 30
0.0
 10
193.5297
 20
52.8576
 30
0.0
 10
193.5297
 20
52.8576
 30
0.0
 10
193.5297
 20
52.8576
 30
0.0
 10
193.5297
 20
52.8576
 30
0.0
 10
187.4825
 20
52.8576
 30
0.0
 10
187.4825
 20
52.8576
 30
0.0
 10
187.4825
 20
52.8576
 30
0.0
 10
187.4825
 20
52.8576
 30
0.0
 10
187.4825
 20
62.8677
 30
0.0
 10
187.4825
 20
62.8677
 30
0.0
 10
187.4825
 20
62.8677
 30
0.0
 10
187.4825
 20
62.8677
 30
0.0
 10
193.5297
 20
62.8677
 30
0.0
 10
193.5297
 20
62.8677
 30
0.0
 10
193.5297
 20
62.8677
 30
0.0
 10
193.5297
 20
62.8677
 30
0.0
 10
193.5297
 20
62.8677
 30
0.0
 10
193.5297
 20
62.8677
 30
0.0
  0
SPLINE
  5
B6
330
1F
100
AcDbEntity
  8
layer 1
 62
     7
100
AcDbSpline
210
0.0
220
0.0
230
1.0
 70
    11
 71
     3
 72
    32
 73
    28
 74
     0
 42
0.0000000001
 43
0.0000000001
 12
1.0
 22
0.0
 32
0.0
 13
1.0
 23
0.0
 33
0.0
 40
0.0
 40
0.0
 40
0.0
 40
0.0
 40
0.125
 40
0.125
 40
0.125
 40
0.125
 40
0.25
 40
0.25
 40
0.25
 40
0.25
 40
0.375
 40
0.375
 40
0.375
 40
0.375
 40
0.5
 40
0.5
 40
0.5
 40
0.5
 40
0.625
 40
0.625
 40
0.625
 40
0.625
 40
0.75
 40
0.75
 40
0.75
 40
0.75
 40
1.0
 40
1.0
 40
1.0
 40
1.0
 10
140.9045
 20
85.2374
 30
0.0
 10
140.9045
 20
85.2374
 30
0.0
 10
146.216
 20
85.2376
 30
0.0
 10
146.216
 20
85.2376
 30
0.0
 10
146.216
 20
85.2376
 30
0.0
 10
146.216
 20
85.2376
 30
0.0
 10
146.216
 20
75.3294
 30
0.0
 10
146.216
 20
75.3294
 30
0.0
 10
146.216
 20
75.3294
 30
0.0
 10
146.216
 20
75.3294
 30
0.0
 10
154.7961
 20
75.3294
 30
0.0
 10
154.7961
 20
75.3294
 30
0.0
 10
154.7961
 20
75.3294
 30
0.0
 10
154.7961
 20
75.3294
 30
0.0
 10
154.7961
 20
65.3193
 30
0.0
 10
154.7961
 20
65.3193
 30
0.0
 10
154.7961
 20
65.3193
 30
0.0
 10
154.7961
 20
65.3193
 30
0.0
 10
140.9045
 20
65.3193
 30
0.0
 10
140.9045
 20
65.3193
 30
0.0
 10
140.9045
 20
65.3193
 30
0.0
 10
140.9045
 20
65.3193
 30
0.0
 10
140.9045
 20
85.2376
 30
0.0
 10
140.9045
 20
85.2376
 30
0.0
 10
140.9045
 20
85.2376
 30
0.0
 10
140.9045
 20
85.2376
 30
0.0
 10
140.9045
 20
85.2374
 30
0.0
 10
140.9045
 20
85.2374
 30
0.0
  0
SPLINE
  5
B7
330
1F
100
AcDbEntity
  8
layer 1
 62
     7
100
AcDbSpline
210
0.0
220
0.0
230
1.0
 70
    11
 71
     3
 72
    32
 73
    28
 74
     0
 42
0.0000000001
 43
0.0000000001
 12
1.0
 22
0.0
 32
0.0
 13
1.0
 23
0.0
 33
0.0
 40
0.0
 40
0.0
 40
0.0
 40
0.0
 40
0.125
 40
0.125
 40
0.125
 40
0.125
 40
0.25
 40
0.25
 40
0.25
 40
0.25
 40
0.375
 40
0.375
 40
0.375
 40
0.375
 40
0.5
 40
0.5
 40
0.5
 40
0.5
 40
0.625
 40
0.625
 40
0.625
 40
0.625
 40
0.75
 40
0.75
 40
0.75
 40
0.75
 40
1.0
 40
1.0
 40
1.0
 40
1.0
 10
146.216
 20
42.9494
 30
0.0
 10
146.216
 20
42.9494
 30
0.0
 10
140.9045
 20
42.9494
 30
0.0
 10
140.9045
 20
42.9494
 30
0.0
 10
140.9045
 20
42.9494
 30
0.0
 10
140.9045
 20
42.9494
 30
0.0
 10
140.9045
 20
62.8677
 30
0.0
 10
140.9045
 20
62.8677
 30
0.0
 10
140.9045
 20
62.8677
 30
0.0
 10
140.9045
 20
62.8677
 30
0.0
 10
154.7961
 20
62.8677
 30
0.0
 10
154.7961
 20
62.8677
 30
0.0
 10
154.7961
 20
62.8677
 30
0.0
 10
154.7961
 20
62.8677
 30
0.0
 10
154.7961
 20
52.8576
 30
0.0
 10
154.7961
 20
52.8576
 30
0.0
 10
154.7961
 20
52.8576
 30
0.0
 10
154.7961
 20
52.8576
 30
0.0
 10
146.216
 20
52.8576
 30
0.0
 10
146.216
 20
52.8576
 30
0.0
 10
146.216
 20
52.8576
 30
0.0
 10
146.216
 20
52.8576
 30
0.0
 10
146.216
 20
42.9494
 30
0.0
 10
146.216
 20
42.9494
 30
0.0
 10
146.216
 20
42.9494
 30
0.0
 10
146.216
 20
42.9494
 30
0.0
 10
146.216
 20
42.9494
 30
0.0
 10
146.216
 20
42.9494
 30
0.0
  0
SPLINE
  5
B8
330
1F
100
AcDbEntity
  8
layer 1
 62
     7
100
AcDbSpline
210
0.0
220
0.0
230
1.0
 70
    11
 71
     3
 72
    20
 73
    16
 74
     0
 42
0.0000000001
 43
0.0000000001
 12
1.0
 22
0.0
 32
0.0
 13
1.0
 23
0.0
 33
0.0
 40
0.0
 40
0.0
 40
0.0
 40
0.0
 40
0.2
 40
0.2
 40
0.2
 40
0.2
 40
0.4
 40
0.4
 40
0.4
 40
0.4
 40
0.6
 40
0.6
 40
0.6
 40
0.6
 40
1.0
 40
1.0
 40
1.0
 40
1.0
 10
179.9239
 20
121.1313
 30
0.0
 10
179.9239
 20
121.1313
 30
0.0
 10
179.9239
 20
113.0005
 30
0.0
 10
179.9239
 20
113.0005
 30
0.0
 10
179.9239
 20
113.0005
 30
0.0
 10
179.9239
 20
113.0005
 30
0.0
 10
185.0311
 20
113.0005
 30
0.0
 10
185.0311
 20
113.0005
 30
0.0
 10
185.0311
 20
113.0005
 30
0.0
 10
185.0311
 20
113.0005
 30
0.0
 10
185.0311
 20
121.1313
 30
0.0
 10
185.0311
 20
121.1313
 30
0.0
 10
185.0311
 20
121.1313
 30
0.0
 10
185.0311
 20
121.1313
 30
0.0
 10
179.9239
 20
121.1313
 30
0.0
 10
179.9239
 20
121.1313
 30
0.0
  0
SPLINE
  5
B9
330
1F
100
AcDbEntity
  8
layer 1
 62
     7
100
AcDbSpline
210
0.0
220
0.0
230
1.0
 70
    27
 71
     3
 72
    16
 73
    12
 74
     0
 42
0.0000000001
 43
0.0000000001
 12
1.0
 22
0.0
 32
0.0
 13
1.0
 23
0.0
 33
0.0
 40
0.0
 40
0.0
 40
0.0
 40
0.0
 40
0.25
 40
0.25
 40
0.25
 40
0.25
 40
0.5
 40
0.5
 40
0.5
 40
0.5
 40
1.0
 40
1.0
 40
1.0
 40
1.0
 10
157.2477
 20
113.0005
 30
0.0
 10
157.2477
 20
113.0005
 30
0.0
 10
162.3548
 20
113.0005
 30
0.0
 10
162.3548
 20
113.0005
 30
0.0
 10
162.3548
 20
113.0005
 30
0.0
 10
162.3548
 20
113.0005
 30
0.0
 10
157.2477
 20
113.0005
 30
0.0
 10
157.2477
 20
113.0005
 30
0.0
 10
157.2477
 20
113.0005
 30
0.0
 10
157.2477
 20
113.0005
 30
0.0
 10
157.2477
 20
113.0005
 30
0.0
 10
157.2477
 20
113.0005
 30
0.0
  0
SPLINE
  5
BA
330
1F
100
AcDbEntity
  8
layer 1
 62
     7
100
AcDbSpline
210
0.0
220
0.0
230
1.0
 70
    11
 71
     3
 72
    20
 73
    16
 74
     0
 42
0.0000000001
 43
0.0000000001
 12
1.0
 22
0.0
 32
0.0
 13
1.0
 23
0.0
 33
0.0
 40
0.0
 40
0.0
 40
0.0
 40
0.0
 40
0.2
 40
0.2
 40
0.2
 40
0.2
 40
0.4
 40
0.4
 40
0.4
 40
0.4
 40
0.6
 40
0.6
 40
0.6
 40
0.6
 40
1.0
 40
1.0
 40
1.0
 40
1.0
 10
193.5297
 20
121.1313
 30
0.0
 10
193.5297
 20
121.1313
 30
0.0
 10
193.5297
 20
113.0005
 30
0.0
 10
193.5297
 20
113.0005
 30
0.0
 10
193.5297
 20
113.0005
 30
0.0
 10
193.5297
 20
113.0005
 30
0.0
 10
187.4825
 20
113.0005
 30
0.0
 10
187.4825
 20
113.0005
 30
0.0
 10
187.4825
 20
113.0005
 30
0.0
 10
187.4825
 20
113.0005
 30
0.0
 10
187.4825
 20
121.1313
 30
0.0
 10
187.4825
 20
121.1313
 30
0.0
 10
187.4825
 20
121.1313
 30
0.0
 10
187.4825
 20
121.1313
 30
0.0
 10
193.5297
 20
121.1313
 30
0.0
 10
193.5297
 20
121.1313
 30
0.0
  0
SPLINE
  5
BB
330
1F
100
AcDbEntity
  8
layer 1
 62
     7
100
AcDbSpline
210
0.0
220
0.0
230
1.0
 70
    11
 71
     3
 72
    44
 73
    40
 74
     0
 42
0.0000000001
 43
0.0000000001
 12
1.0
 22
0.0
 32
0.0
 13
1.0
 23
0.0
 33
0.0
 40
0.0
 40
0.0
 40
0.0
 40
0.0
 40
0.0909090909090909
 40
0.0909090909090909
 40
0.0909090909090909
 40
0.0909090909090909
 40
0.1818181818181818
 40
0.1818181818181818
 40
0.1818181818181818
 40
0.1818181818181818
 40
0.2727272727272727
 40
0.2727272727272727
 40
0.2727272727272727
 40
0.2727272727272727
 40
0.3636363636363636
 40
0.3636363636363636
 40
0.3636363636363636
 40
0.3636363636363636
 40
0.4545454545454545
 40
0.4545454545454545
 40
0.4545454545454545
 40
0.4545454545454545
 40
0.5454545454545454
 40
0.5454545454545454
 40
0.5454545454545454
 40
0.5454545454545454
 40
0.6363636363636364
 40
0.6363636363636364
 40
0.6363636363636364
 40
0.6363636363636364
 40
0.7272727272727273
 40
0.7272727272727273
 40
0.7272727272727273
 40
0.7272727272727273
 40
0.8181818181818182
 40
0.8181818181818182
 40
0.8181818181818182
 40
0.8181818181818182
 40
1.0
 40
1.0
 40
1.0
 40
1.0
 10
181.1496
 20
97.5972
 30
0.0
 10
181.1496
 20
97.5972
 30
0.0
 10
181.1496
 20
102.9904
 30
0.0
 10
181.1496
 20
102.9904
 30
0.0
 10
181.1496
 20
102.9904
 30
0.0
 10
181.1496
 20
102.9904
 30
0.0
 10
187.4825
 20
102.9904
 30
0.0
 10
187.4825
 20
102.9904
 30
0.0
 10
187.4825
 20
102.9904
 30
0.0
 10
187.4825
 20
102.9904
 30
0.0
 10
187.4825
 20
110.5492
 30
0.0
 10
187.4825
 20
110.5492
 30
0.0
 10
187.4825
 20
110.5492
 30
0.0
 10
187.4825
 20
110.5492
 30
0.0
 10
193.5297
 20
110.5492
 30
0.0
 10
193.5297
 20
110.5492
 30
0.0
 10
193.5297
 20
110.5492
 30
0.0
 10
193.5297
 20
110.5492
 30
0.0
 10
193.5297
 20
77.7808
 30
0.0
 10
193.5297
 20
77.7808
 30
0.0
 10
193.5297
 20
77.7808
 30
0.0
 10
193.5297
 20
77.7808
 30
0.0
 10
187.4825
 20
77.7808
 30
0.0
 10
187.4825
 20
77.7808
 30
0.0
 10
187.4825
 20
77.7808
 30
0.0
 10
187.4825
 20
77.7808
 30
0.0
 10
187.4825
 20
85.3396
 30
0.0
 10
187.4825
 20
85.3396
 30
0.0
 10
187.4825
 20
85.3396
 30
0.0
 10
187.4825
 20
85.3396
 30
0.0
 10
181.1496
 20
85.3396
 30
0.0
 10
181.1496
 20
85.3396
 30
0.0
 10
181.1496
 20
85.3396
 30
0.0
 10
181.1496
 20
85.3396
 30
0.0
 10
181.1496
 20
97.5972
 30
0.0
 10
181.1496
 20
97.5972
 30
0.0
 10
181.1496
 20
97.5972
 30
0.0
 10
181.1496
 20
97.5972
 30
0.0
 10
181.1496
 20
97.5972
 30
0.0
 10
181.1496
 20
97.5972
 30
0.0
  0
SPLINE
  5
BC
330
1F
100
AcDbEntity
  8
layer 1
 62
     7
100
AcDbSpline
210
0.0
220
0.0
230
1.0
 70
    11
 71
     3
 72
    40
 73
    36
 74
     0
 42
0.0000000001
 43
0.0000000001
 12
1.0
 22
0.0
 32
0.0
 13
1.0
 23
0.0
 33
0.0
 40
0.0
 40
0.0
 40
0.0
 40
0.0
 40
0.1
 40
0.1
 40
0.1
 40
0.1
 40
0.2
 40
0.2
 40
0.2
 40
0.2
 40
0.3
 40
0.3
 40
0.3
 40
0.3
 40
0.4
 40
0.4
 40
0.4
 40
0.4
 40
0.5
 40
0.5
 40
0.5
 40
0.5
 40
0.6
 40
0.6
 40
0.6
 40
0.6
 40
0.7
 40
0.7
 40
0.7
 40
0.7
 40
0.8
 40
0.8
 40
0.8
 40
0.8
 40
1.0
 40
1.0
 40
1.0
 40
1.0
 10
178.698
 20
90.7328
 30
0.0
 10
178.698
 20
90.7328
 30
0.0
 10
178.698
 20
85.3396
 30
0.0
 10
178.698
 20
85.3396
 30
0.0
 10
178.698
 20
85.3396
 30
0.0
 10
178.698
 20
85.3396
 30
0.0
 10
172.3652
 20
85.3396
 30
0.0
 10
172.3652
 20
85.3396
 30
0.0
 10
172.3652
 20
85.3396
 30
0.0
 10
172.3652
 20
85.3396
 30
0.0
 10
172.3652
 20
97.5972
 30
0.0
 10
172.3652
 20
97.5972
 30
0.0
 10
172.3652
 20
97.5972
 30
0.0
 10
172.3652
 20
97.5972
 30
0.0
 10
172.3652
 20
102.9904
 30
0.0
 10
172.3652
 20
102.9904
 30
0.0
 10
172.3652
 20
102.9904
 30
0.0
 10
172.3652
 20
102.9904
 30
0.0
 10
172.3652
 20
85.3396
 30
0.0
 10
172.3652
 20
85.3396
 30
0.0
 10
172.3652
 20
85.3396
 30
0.0
 10
172.3652
 20
85.3396
 30
0.0
 10
172.3652
 20
102.9904
 30
0.0
 10
172.3652
 20
102.9904
 30
0.0
 10
172.3652
 20
102.9904
 30
0.0
 10
172.3652
 20
102.9904
 30
0.0
 10
178.698
 20
102.9904
 30
0.0
 10
178.698
 20
102.9904
 30
0.0
 10
178.698
 20
102.9904
 30
0.0
 10
178.698
 20
102.9904
 30
0.0
 10
178.698
 20
90.7328
 30
0.0
 10
178.698
 20
90.7328
 30
0.0
 10
178.698
 20
90.7328
 30
0.0
 10
178.698
 20
90.7328
 30
0.0
 10
178.698
 20
90.7328
 30
0.0
 10
178.698
 20
90.7328
 30
0.0
  0
SPLINE
  5
BD
330
1F
100
AcDbEntity
  8
layer 1
 62
     7
100
AcDbSpline
210
0.0
220
0.0
230
1.0
 70
    11
 71
     3
 72
    32
 73
    28
 74
     0
 42
0.0000000001
 43
0.0000000001
 12
1.0
 22
0.0
 32
0.0
 13
1.0
 23
0.0
 33
0.0
 40
0.0
 40
0.0
 40
0.0
 40
0.0
 40
0.125
 40
0.125
 40
0.125
 40
0.125
 40
0.25
 40
0.25
 40
0.25
 40
0.25
 40
0.375
 40
0.375
 40
0.375
 40
0.375
 40
0.5
 40
0.5
 40
0.5
 40
0.5
 40
0.625
 40
0.625
 40
0.625
 40
0.625
 40
0.75
 40
0.75
 40
0.75
 40
0.75
 40
1.0
 40
1.0
 40
1.0
 40
1.0
 10
169.9136
 20
102.9904
 30
0.0
 10
169.9136
 20
102.9904
 30
0.0
 10
169.9136
 20
85.3396
 30
0.0
 10
169.9136
 20
85.3396
 30
0.0
 10
169.9136
 20
85.3396
 30
0.0
 10
169.9136
 20
85.3396
 30
0.0
 10
169.9136
 20
102.9904
 30
0.0
 10
169.9136
 20
102.9904
 30
0.0
 10
169.9136
 20
102.9904
 30
0.0
 10
169.9136
 20
102.9904
 30
0.0
 10
163.5805
 20
102.9904
 30
0.0
 10
163.5805
 20
102.9904
 30
0.0
 10
163.5805
 20
102.9904
 30
0.0
 10
163.5805
 20
102.9904
 30
0.0
 10
163.5805
 20
85.3396
 30
0.0
 10
163.5805
 20
85.3396
 30
0.0
 10
163.5805
 20
85.3396
 30
0.0
 10
163.5805
 20
85.3396
 30
0.0
 10
169.9136
 20
85.3396
 30
0.0
 10
169.9136
 20
85.3396
 30
0.0
 10
169.9136
 20
85.3396
 30
0.0
 10
169.9136
 20
85.3396
 30
0.0
 10
169.9136
 20
102.9904
 30
0.0
 10
169.9136
 20
102.9904
 30
0.0
 10
169.9136
 20
102.9904
 30
0.0
 10
169.9136
 20
102.9904
 30
0.0
 10
169.9136
 20
102.9904
 30
0.0
 10
169.9136
 20
102.9904
 30
0.0
  0
SPLINE
  5
BE
330
1F
100
AcDbEntity
  8
layer 1
 62
     7
100
AcDbSpline
210
0.0
220
0.0
230
1.0
 70
    11
 71
     3
 72
    32
 73
    28
 74
     0
 42
0.0000000001
 43
0.0000000001
 12
1.0
 22
0.0
 32
0.0
 13
1.0
 23
0.0
 33
0.0
 40
0.0
 40
0.0
 40
0.0
 40
0.0
 40
0.125
 40
0.125
 40
0.125
 40
0.125
 40
0.25
 40
0.25
 40
0.25
 40
0.25
 40
0.375
 40
0.375
 40
0.375
 40
0.375
 40
0.5
 40
0.5
 40
0.5
 40
0.5
 40
0.625
 40
0.625
 40
0.625
 40
0.625
 40
0.75
 40
0.75
 40
0.75
 40
0.75
 40
1.0
 40
1.0
 40
1.0
 40
1.0
 10
38.9636
 20
110.5492
 30
0.0
 10
38.9636
 20
110.5492
 30
0.0
 10
31.4048
 20
110.5492
 30
0.0
 10
31.4048
 20
110.5492
 30
0.0
 10
31.4048
 20
110.5492
 30
0.0
 10
31.4048
 20
110.5492
 30
0.0
 10
31.4048
 20
105.4418
 30
0.0
 10
31.4048
 20
105.4418
 30
0.0
 10
31.4048
 20
105.4418
 30
0.0
 10
31.4048
 20
105.4418
 30
0.0
 10
44.0707
 20
105.4418
 30
0.0
 10
44.0707
 20
105.4418
 30
0.0
 10
44.0707
 20
105.4418
 30
0.0
 10
44.0707
 20
105.4418
 30
0.0
 10
44.0707
 20
121.1313
 30
0.0
 10
44.0707
 20
121.1313
 30
0.0
 10
44.0707
 20
121.1313
 30
0.0
 10
44.0707
 20
121.1313
 30
0.0
 10
38.9636
 20
121.1313
 30
0.0
 10
38.9636
 20
121.1313
 30
0.0
 10
38.9636
 20
121.1313
 30
0.0
 10
38.9636
 20
121.1313
 30
0.0
 10
38.9636
 20
110.5492
 30
0.0
 10
38.9636
 20
110.5492
 30
0.0
 10
38.9636
 20
110.5492
 30
0.0
 10
38.9636
 20
110.5492
 30
0.0
 10
38.9636
 20
110.5492
 30
0.0
 10
38.9636
 20
110.5492
 30
0.0
  0
SPLINE
  5
BF
330
1F
100
AcDbEntity
  8
layer 1
 62
     7
100
AcDbSpline
210
0.0
220
0.0
230
1.0
 70
    11
 71
     3
 72
    24
 73
    20
 74
     0
 42
0.0000000001
 43
0.0000000001
 12
1.0
 22
0.0
 32
0.0
 13
1.0
 23
0.0
 33
0.0
 40
0.0
 40
0.0
 40
0.0
 40
0.0
 40
0.1666666666666667
 40
0.1666666666666667
 40
0.1666666666666667
 40
0.1666666666666667
 40
0.3333333333333333
 40
0.3333333333333333
 40
0.3333333333333333
 40
0.3333333333333333
 40
0.5
 40
0.5
 40
0.5
 40
0.5
 40
0.6666666666666666
 40
0.6666666666666666
 40
0.6666666666666666
 40
0.6666666666666666
 40
1.0
 40
1.0
 40
1.0
 40
1.0
 10
99.4334
 20
113.0005
 30
0.0
 10
99.4334
 20
113.0005
 30
0.0
 10
94.3262
 20
113.0005
 30
0.0
 10
94.3262
 20
113.0005
 30
0.0
 10
94.3262
 20
113.0005
 30
0.0
 10
94.3262
 20
113.0005
 30
0.0
 10
94.3262
 20
121.1313
 30
0.0
 10
94.3262
 20
121.1313
 30
0.0
 10
94.3262
 20
121.1313
 30
0.0
 10
94.3262
 20
121.1313
 30
0.0
 10
99.4334
 20
121.1313
 30
0.0
 10
99.4334
 20
121.1313
 30
0.0
 10
99.4334
 20
121.1313
 30
0.0
 10
99.4334
 20
121.1313
 30
0.0
 10
99.4334
 20
113.0005
 30
0.0
 10
99.4334
 20
113.0005
 30
0.0
 10
99.4334
 20
113.0005
 30
0.0
 10
99.4334
 20
113.0005
 30
0.0
 10
99.4334
 20
113.0005
 30
0.0
 10
99.4334
 20
113.0005
 30
0.0
  0
SPLINE
  5
C0
330
1F
100
AcDbEntity
  8
layer 1
 62
     7
100
AcDbSpline
210
0.0
220
0.0
230
1.0
 70
    11
 71
     3
 72
    40
 73
    36
 74
     0
 42
0.0000000001
 43
0.0000000001
 12
1.0
 22
0.0
 32
0.0
 13
1.0
 23
0.0
 33
0.0
 40
0.0
 40
0.0
 40
0.0
 40
0.0
 40
0.1
 40
0.1
 40
0.1
 40
0.1
 40
0.2
 40
0.2
 40
0.2
 40
0.2
 40
0.3
 40
0.3
 40
0.3
 40
0.3
 40
0.4
 40
0.4
 40
0.4
 40
0.4
 40
0.5
 40
0.5
 40
0.5
 40
0.5
 40
0.6
 40
0.6
 40
0.6
 40
0.6
 40
0.7
 40
0.7
 40
0.7
 40
0.7
 40
0.8
 40
0.8
 40
0.8
 40
0.8
 40
1.0
 40
1.0
 40
1.0
 40
1.0
 10
91.8746
 20
42.8472
 30
0.0
 10
91.8746
 20
42.8472
 30
0.0
 10
98.2077
 20
42.8472
 30
0.0
 10
98.2077
 20
42.8472
 30
0.0
 10
98.2077
 20
42.8472
 30
0.0
 10
98.2077
 20
42.8472
 30
0.0
 10
98.2077
 20
25.1966
 30
0.0
 10
98.2077
 20
25.1966
 30
0.0
 10
98.2077
 20
25.1966
 30
0.0
 10
98.2077
 20
25.1966
 30
0.0
 10
91.8746
 20
25.1966
 30
0.0
 10
91.8746
 20
25.1966
 30
0.0
 10
91.8746
 20
25.1966
 30
0.0
 10
91.8746
 20
25.1966
 30
0.0
 10
91.8746
 20
17.6379
 30
0.0
 10
91.8746
 20
17.6379
 30
0.0
 10
91.8746
 20
17.6379
 30
0.0
 10
91.8746
 20
17.6379
 30
0.0
 10
85.746
 20
17.6379
 30
0.0
 10
85.746
 20
17.6379
 30
0.0
 10
85.746
 20
17.6379
 30
0.0
 10
85.746
 20
17.6379
 30
0.0
 10
85.746
 20
50.406
 30
0.0
 10
85.746
 20
50.406
 30
0.0
 10
85.746
 20
50.406
 30
0.0
 10
85.746
 20
50.406
 30
0.0
 10
91.8746
 20
50.406
 30
0.0
 10
91.8746
 20
50.406
 30
0.0
 10
91.8746
 20
50.406
 30
0.0
 10
91.8746
 20
50.406
 30
0.0
 10
91.8746
 20
42.8472
 30
0.0
 10
91.8746
 20
42.8472
 30
0.0
 10
91.8746
 20
42.8472
 30
0.0
 10
91.8746
 20
42.8472
 30
0.0
 10
91.8746
 20
42.8472
 30
0.0
 10
91.8746
 20
42.8472
 30
0.0
  0
SPLINE
  5
C1
330
1F
100
AcDbEntity
  8
layer 1
 62
     7
100
AcDbSpline
210
0.0
220
0.0
230
1.0
 70
    11
 71
     3
 72
    32
 73
    28
 74
     0
 42
0.0000000001
 43
0.0000000001
 12
1.0
 22
0.0
 32
0.0
 13
1.0
 23
0.0
 33
0.0
 40
0.0
 40
0.0
 40
0.0
 40
0.0
 40
0.125
 40
0.125
 40
0.125
 40
0.125
 40
0.25
 40
0.25
 40
0.25
 40
0.25
 40
0.375
 40
0.375
 40
0.375
 40
0.375
 40
0.5
 40
0.5
 40
0.5
 40
0.5
 40
0.625
 40
0.625
 40
0.625
 40
0.625
 40
0.75
 40
0.75
 40
0.75
 40
0.75
 40
1.0
 40
1.0
 40
1.0
 40
1.0
 10
124.561
 20
-54.9669
 30
0.0
 10
124.561
 20
-54.9669
 30
0.0
 10
138.4529
 20
-54.9669
 30
0.0
 10
138.4529
 20
-54.9669
 30
0.0
 10
138.4529
 20
-54.9669
 30
0.0
 10
138.4529
 20
-54.9669
 30
0.0
 10
138.4529
 20
-35.0486
 30
0.0
 10
138.4529
 20
-35.0486
 30
0.0
 10
138.4529
 20
-35.0486
 30
0.0
 10
138.4529
 20
-35.0486
 30
0.0
 10
133.1413
 20
-35.0486
 30
0.0
 10
133.1413
 20
-35.0486
 30
0.0
 10
133.1413
 20
-35.0486
 30
0.0
 10
133.1413
 20
-35.0486
 30
0.0
 10
133.1413
 20
-44.9567
 30
0.0
 10
133.1413
 20
-44.9567
 30
0.0
 10
133.1413
 20
-44.9567
 30
0.0
 10
133.1413
 20
-44.9567
 30
0.0
 10
124.5613
 20
-44.9567
 30
0.0
 10
124.5613
 20
-44.9567
 30
0.0
 10
124.5613
 20
-44.9567
 30
0.0
 10
124.5613
 20
-44.9567
 30
0.0
 10
124.5613
 20
-54.9669
 30
0.0
 10
124.5613
 20
-54.9669
 30
0.0
 10
124.5613
 20
-54.9669
 30
0.0
 10
124.5613
 20
-54.9669
 30
0.0
 10
124.561
 20
-54.9669
 30
0.0
 10
124.561
 20
-54.9669
 30
0.0
  0
SPLINE
  5
C2
330
1F
100
AcDbEntity
  8
layer 1
 62
     7
100
AcDbSpline
210
0.0
220
0.0
230
1.0
 70
    11
 71
     3
 72
    28
 73
    24
 74
     0
 42
0.0000000001
 43
0.0000000001
 12
1.0
 22
0.0
 32
0.0
 13
1.0
 23
0.0
 33
0.0
 40
0.0
 40
0.0
 40
0.0
 40
0.0
 40
0.1428571428571428
 40
0.1428571428571428
 40
0.1428571428571428
 40
0.1428571428571428
 40
0.2857142857142857
 40
0.2857142857142857
 40
0.2857142857142857
 40
0.2857142857142857
 40
0.4285714285714285
 40
0.4285714285714285
 40
0.4285714285714285
 40
0.4285714285714285
 40
0.5714285714285714
 40
0.5714285714285714
 40
0.5714285714285714
 40
0.5714285714285714
 40
0.7142857142857143
 40
0.7142857142857143
 40
0.7142857142857143
 40
0.7142857142857143
 40
1.0
 40
1.0
 40
1.0
 40
1.0
 10
61.6398
 20
-54.9669
 30
0.0
 10
61.6398
 20
-54.9669
 30
0.0
 10
75.5314
 20
-54.9669
 30
0.0
 10
75.5314
 20
-54.9669
 30
0.0
 10
75.5314
 20
-54.9669
 30
0.0
 10
75.5314
 20
-54.9669
 30
0.0
 10
75.5314
 20
-35.0486
 30
0.0
 10
75.5314
 20
-35.0486
 30
0.0
 10
75.5314
 20
-35.0486
 30
0.0
 10
75.5314
 20
-35.0486
 30
0.0
 10
70.2199
 20
-35.0486
 30
0.0
 10
70.2199
 20
-35.0486
 30
0.0
 10
70.2199
 20
-35.0486
 30
0.0
 10
70.2199
 20
-35.0486
 30
0.0
 10
70.2199
 20
-44.9567
 30
0.0
 10
70.2199
 20
-44.9567
 30
0.0
 10
70.2199
 20
-44.9567
 30
0.0
 10
70.2199
 20
-44.9567
 30
0.0
 10
61.6398
 20
-44.9567
 30
0.0
 10
61.6398
 20
-44.9567
 30
0.0
 10
61.6398
 20
-44.9567
 30
0.0
 10
61.6398
 20
-44.9567
 30
0.0
 10
61.6398
 20
-54.9669
 30
0.0
 10
61.6398
 20
-54.9669
 30
0.0
  0
SPLINE
  5
C3
330
1F
100
AcDbEntity
  8
layer 1
 62
     7
100
AcDbSpline
210
0.0
220
0.0
230
1.0
 70
    11
 71
     3
 72
    32
 73
    28
 74
     0
 42
0.0000000001
 43
0.0000000001
 12
1.0
 22
0.0
 32
0.0
 13
1.0
 23
0.0
 33
0.0
 40
0.0
 40
0.0
 40
0.0
 40
0.0
 40
0.125
 40
0.125
 40
0.125
 40
0.125
 40
0.25
 40
0.25
 40
0.25
 40
0.25
 40
0.375
 40
0.375
 40
0.375
 40
0.375
 40
0.5
 40
0.5
 40
0.5
 40
0.5
 40
0.625
 40
0.625
 40
0.625
 40
0.625
 40
0.75
 40
0.75
 40
0.75
 40
0.75
 40
1.0
 40
1.0
 40
1.0
 40
1.0
 10
59.1882
 20
-9.737
 30
0.0
 10
59.1882
 20
-9.737
 30
0.0
 10
51.6295
 20
-9.737
 30
0.0
 10
51.6295
 20
-9.737
 30
0.0
 10
51.6295
 20
-9.737
 30
0.0
 10
51.6295
 20
-9.737
 30
0.0
 10
51.6295
 20
2.7247
 30
0.0
 10
51.6295
 20
2.7247
 30
0.0
 10
51.6295
 20
2.7247
 30
0.0
 10
51.6295
 20
2.7247
 30
0.0
 10
46.5223
 20
2.7247
 30
0.0
 10
46.5223
 20
2.7247
 30
0.0
 10
46.5223
 20
2.7247
 30
0.0
 10
46.5223
 20
2.7247
 30
0.0
 10
46.5223
 20
-14.8444
 30
0.0
 10
46.5223
 20
-14.8444
 30
0.0
 10
46.5223
 20
-14.8444
 30
0.0
 10
46.5223
 20
-14.8444
 30
0.0
 10
59.1882
 20
-14.8444
 30
0.0
 10
59.1882
 20
-14.8444
 30
0.0
 10
59.1882
 20
-14.8444
 30
0.0
 10
59.1882
 20
-14.8444
 30
0.0
 10
59.1882
 20
-9.737
 30
0.0
 10
59.1882
 20
-9.737
 30
0.0
 10
59.1882
 20
-9.737
 30
0.0
 10
59.1882
 20
-9.737
 30
0.0
 10
59.1882
 20
-9.737
 30
0.0
 10
59.1882
 20
-9.737
 30
0.0
  0
SPLINE
  5
C4
330
1F
100
AcDbEntity
  8
layer 1
 62
     7
100
AcDbSpline
210
0.0
220
0.0
230
1.0
 70
    11
 71
     3
 72
    28
 73
    24
 74
     0
 42
0.0000000001
 43
0.0000000001
 12
1.0
 22
0.0
 32
0.0
 13
1.0
 23
0.0
 33
0.0
 40
0.0
 40
0.0
 40
0.0
 40
0.0
 40
0.1428571428571428
 40
0.1428571428571428
 40
0.1428571428571428
 40
0.1428571428571428
 40
0.2857142857142857
 40
0.2857142857142857
 40
0.2857142857142857
 40
0.2857142857142857
 40
0.4285714285714285
 40
0.4285714285714285
 40
0.4285714285714285
 40
0.4285714285714285
 40
0.5714285714285714
 40
0.5714285714285714
 40
0.5714285714285714
 40
0.5714285714285714
 40
0.7142857142857143
 40
0.7142857142857143
 40
0.7142857142857143
 40
0.7142857142857143
 40
1.0
 40
1.0
 40
1.0
 40
1.0
 10
38.9636
 20
-9.737
 30
0.0
 10
38.9636
 20
-9.737
 30
0.0
 10
31.4048
 20
-9.737
 30
0.0
 10
31.4048
 20
-9.737
 30
0.0
 10
31.4048
 20
-9.737
 30
0.0
 10
31.4048
 20
-9.737
 30
0.0
 10
31.4048
 20
-14.8444
 30
0.0
 10
31.4048
 20
-14.8444
 30
0.0
 10
31.4048
 20
-14.8444
 30
0.0
 10
31.4048
 20
-14.8444
 30
0.0
 10
44.0707
 20
-14.8444
 30
0.0
 10
44.0707
 20
-14.8444
 30
0.0
 10
44.0707
 20
-14.8444
 30
0.0
 10
44.0707
 20
-14.8444
 30
0.0
 10
44.0707
 20
2.7247
 30
0.0
 10
44.0707
 20
2.7247
 30
0.0
 10
44.0707
 20
2.7247
 30
0.0
 10
44.0707
 20
2.7247
 30
0.0
 10
38.9636
 20
2.7247
 30
0.0
 10
38.9636
 20
2.7247
 30
0.0
 10
38.9636
 20
2.7247
 30
0.0
 10
38.9636
 20
2.7247
 30
0.0
 10
38.9636
 20
-9.737
 30
0.0
 10
38.9636
 20
-9.737
 30
0.0
  0
SPLINE
  5
C5
330
1F
100
AcDbEntity
  8
layer 1
 62
     7
100
AcDbSpline
210
0.0
220
0.0
230
1.0
 70
    11
 71
     3
 72
    20
 73
    16
 74
     0
 42
0.0000000001
 43
0.0000000001
 12
1.0
 22
0.0
 32
0.0
 13
1.0
 23
0.0
 33
0.0
 40
0.0
 40
0.0
 40
0.0
 40
0.0
 40
0.2
 40
0.2
 40
0.2
 40
0.2
 40
0.4
 40
0.4
 40
0.4
 40
0.4
 40
0.6
 40
0.6
 40
0.6
 40
0.6
 40
1.0
 40
1.0
 40
1.0
 40
1.0
 10
37.7379
 20
42.8472
 30
0.0
 10
37.7379
 20
42.8472
 30
0.0
 10
44.0707
 20
42.8472
 30
0.0
 10
44.0707
 20
42.8472
 30
0.0
 10
44.0707
 20
42.8472
 30
0.0
 10
44.0707
 20
42.8472
 30
0.0
 10
44.0707
 20
25.1966
 30
0.0
 10
44.0707
 20
25.1966
 30
0.0
 10
44.0707
 20
25.1966
 30
0.0
 10
44.0707
 20
25.1966
 30
0.0
 10
37.7379
 20
25.1966
 30
0.0
 10
37.7379
 20
25.1966
 30
0.0
 10
37.7379
 20
25.1966
 30
0.0
 10
37.7379
 20
25.1966
 30
0.0
 10
37.7379
 20
42.8472
 30
0.0
 10
37.7379
 20
42.8472
 30
0.0
  0
SPLINE
  5
C6
330
1F
100
AcDbEntity
  8
layer 1
 62
     7
100
AcDbSpline
210
0.0
220
0.0
230
1.0
 70
    11
 71
     3
 72
    40
 73
    36
 74
     0
 42
0.0000000001
 43
0.0000000001
 12
1.0
 22
0.0
 32
0.0
 13
1.0
 23
0.0
 33
0.0
 40
0.0
 40
0.0
 40
0.0
 40
0.0
 40
0.1
 40
0.1
 40
0.1
 40
0.1
 40
0.2
 40
0.2
 40
0.2
 40
0.2
 40
0.3
 40
0.3
 40
0.3
 40
0.3
 40
0.4
 40
0.4
 40
0.4
 40
0.4
 40
0.5
 40
0.5
 40
0.5
 40
0.5
 40
0.6
 40
0.6
 40
0.6
 40
0.6
 40
0.7
 40
0.7
 40
0.7
 40
0.7
 40
0.8
 40
0.8
 40
0.8
 40
0.8
 40
1.0
 40
1.0
 40
1.0
 40
1.0
 10
55.3068
 20
42.8472
 30
0.0
 10
55.3068
 20
42.8472
 30
0.0
 10
61.6398
 20
42.8472
 30
0.0
 10
61.6398
 20
42.8472
 30
0.0
 10
61.6398
 20
42.8472
 30
0.0
 10
61.6398
 20
42.8472
 30
0.0
 10
61.6398
 20
50.406
 30
0.0
 10
61.6398
 20
50.406
 30
0.0
 10
61.6398
 20
50.406
 30
0.0
 10
61.6398
 20
50.406
 30
0.0
 10
67.7685
 20
50.406
 30
0.0
 10
67.7685
 20
50.406
 30
0.0
 10
67.7685
 20
50.406
 30
0.0
 10
67.7685
 20
50.406
 30
0.0
 10
67.7685
 20
17.6379
 30
0.0
 10
67.7685
 20
17.6379
 30
0.0
 10
67.7685
 20
17.6379
 30
0.0
 10
67.7685
 20
17.6379
 30
0.0
 10
61.6398
 20
17.6379
 30
0.0
 10
61.6398
 20
17.6379
 30
0.0
 10
61.6398
 20
17.6379
 30
0.0
 10
61.6398
 20
17.6379
 30
0.0
 10
61.6398
 20
25.1966
 30
0.0
 10
61.6398
 20
25.1966
 30
0.0
 10
61.6398
 20
25.1966
 30
0.0
 10
61.6398
 20
25.1966
 30
0.0
 10
55.3068
 20
25.1966
 30
0.0
 10
55.3068
 20
25.1966
 30
0.0
 10
55.3068
 20
25.1966
 30
0.0
 10
55.3068
 20
25.1966
 30
0.0
 10
55.3068
 20
42.8472
 30
0.0
 10
55.3068
 20
42.8472
 30
0.0
 10
55.3068
 20
42.8472
 30
0.0
 10
55.3068
 20
42.8472
 30
0.0
 10
55.3068
 20
42.8472
 30
0.0
 10
55.3068
 20
42.8472
 30
0.0
  0
SPLINE
  5
C7
330
1F
100
AcDbEntity
  8
layer 1
 62
     7
100
AcDbSpline
210
0.0
220
0.0
230
1.0
 70
    11
 71
     3
 72
    20
 73
    16
 74
     0
 42
0.0000000001
 43
0.0000000001
 12
1.0
 22
0.0
 32
0.0
 13
1.0
 23
0.0
 33
0.0
 40
0.0
 40
0.0
 40
0.0
 40
0.0
 40
0.2
 40
0.2
 40
0.2
 40
0.2
 40
0.4
 40
0.4
 40
0.4
 40
0.4
 40
0.6
 40
0.6
 40
0.6
 40
0.6
 40
1.0
 40
1.0
 40
1.0
 40
1.0
 10
52.8552
 20
42.8472
 30
0.0
 10
52.8552
 20
42.8472
 30
0.0
 10
46.5223
 20
42.8472
 30
0.0
 10
46.5223
 20
42.8472
 30
0.0
 10
46.5223
 20
42.8472
 30
0.0
 10
46.5223
 20
42.8472
 30
0.0
 10
46.5223
 20
25.1966
 30
0.0
 10
46.5223
 20
25.1966
 30
0.0
 10
46.5223
 20
25.1966
 30
0.0
 10
46.5223
 20
25.1966
 30
0.0
 10
52.8552
 20
25.1966
 30
0.0
 10
52.8552
 20
25.1966
 30
0.0
 10
52.8552
 20
25.1966
 30
0.0
 10
52.8552
 20
25.1966
 30
0.0
 10
52.8552
 20
42.8472
 30
0.0
 10
52.8552
 20
42.8472
 30
0.0
  0
SPLINE
  5
C8
330
1F
100
AcDbEntity
  8
layer 1
 62
     7
100
AcDbSpline
210
0.0
220
0.0
230
1.0
 70
    11
 71
     3
 72
    32
 73
    28
 74
     0
 42
0.0000000001
 43
0.0000000001
 12
1.0
 22
0.0
 32
0.0
 13
1.0
 23
0.0
 33
0.0
 40
0.0
 40
0.0
 40
0.0
 40
0.0
 40
0.125
 40
0.125
 40
0.125
 40
0.125
 40
0.25
 40
0.25
 40
0.25
 40
0.25
 40
0.375
 40
0.375
 40
0.375
 40
0.375
 40
0.5
 40
0.5
 40
0.5
 40
0.5
 40
0.625
 40
0.625
 40
0.625
 40
0.625
 40
0.75
 40
0.75
 40
0.75
 40
0.75
 40
1.0
 40
1.0
 40
1.0
 40
1.0
 10
59.1882
 20
17.6379
 30
0.0
 10
59.1882
 20
17.6379
 30
0.0
 10
51.6295
 20
17.6379
 30
0.0
 10
51.6295
 20
17.6379
 30
0.0
 10
51.6295
 20
17.6379
 30
0.0
 10
51.6295
 20
17.6379
 30
0.0
 10
51.6295
 20
5.1761
 30
0.0
 10
51.6295
 20
5.1761
 30
0.0
 10
51.6295
 20
5.1761
 30
0.0
 10
51.6295
 20
5.1761
 30
0.0
 10
46.5223
 20
5.1761
 30
0.0
 10
46.5223
 20
5.1761
 30
0.0
 10
46.5223
 20
5.1761
 30
0.0
 10
46.5223
 20
5.1761
 30
0.0
 10
46.5223
 20
22.745
 30
0.0
 10
46.5223
 20
22.745
 30
0.0
 10
46.5223
 20
22.745
 30
0.0
 10
46.5223
 20
22.745
 30
0.0
 10
59.1882
 20
22.745
 30
0.0
 10
59.1882
 20
22.745
 30
0.0
 10
59.1882
 20
22.745
 30
0.0
 10
59.1882
 20
22.745
 30
0.0
 10
59.1882
 20
17.6379
 30
0.0
 10
59.1882
 20
17.6379
 30
0.0
 10
59.1882
 20
17.6379
 30
0.0
 10
59.1882
 20
17.6379
 30
0.0
 10
59.1882
 20
17.6379
 30
0.0
 10
59.1882
 20
17.6379
 30
0.0
  0
SPLINE
  5
C9
330
1F
100
AcDbEntity
  8
layer 1
 62
     7
100
AcDbSpline
210
0.0
220
0.0
230
1.0
 70
    11
 71
     3
 72
    28
 73
    24
 74
     0
 42
0.0000000001
 43
0.0000000001
 12
1.0
 22
0.0
 32
0.0
 13
1.0
 23
0.0
 33
0.0
 40
0.0
 40
0.0
 40
0.0
 40
0.0
 40
0.1428571428571428
 40
0.1428571428571428
 40
0.1428571428571428
 40
0.1428571428571428
 40
0.2857142857142857
 40
0.2857142857142857
 40
0.2857142857142857
 40
0.2857142857142857
 40
0.4285714285714285
 40
0.4285714285714285
 40
0.4285714285714285
 40
0.4285714285714285
 40
0.5714285714285714
 40
0.5714285714285714
 40
0.5714285714285714
 40
0.5714285714285714
 40
0.7142857142857143
 40
0.7142857142857143
 40
0.7142857142857143
 40
0.7142857142857143
 40
1.0
 40
1.0
 40
1.0
 40
1.0
 10
38.9636
 20
17.6379
 30
0.0
 10
38.9636
 20
17.6379
 30
0.0
 10
31.4048
 20
17.6379
 30
0.0
 10
31.4048
 20
17.6379
 30
0.0
 10
31.4048
 20
17.6379
 30
0.0
 10
31.4048
 20
17.6379
 30
0.0
 10
31.4048
 20
22.745
 30
0.0
 10
31.4048
 20
22.745
 30
0.0
 10
31.4048
 20
22.745
 30
0.0
 10
31.4048
 20
22.745
 30
0.0
 10
44.0707
 20
22.745
 30
0.0
 10
44.0707
 20
22.745
 30
0.0
 10
44.0707
 20
22.745
 30
0.0
 10
44.0707
 20
22.745
 30
0.0
 10
44.0707
 20
5.1761
 30
0.0
 10
44.0707
 20
5.1761
 30
0.0
 10
44.0707
 20
5.1761
 30
0.0
 10
44.0707
 20
5.1761
 30
0.0
 10
38.9636
 20
5.1761
 30
0.0
 10
38.9636
 20
5.1761
 30
0.0
 10
38.9636
 20
5.1761
 30
0.0
 10
38.9636
 20
5.1761
 30
0.0
 10
38.9636
 20
17.6379
 30
0.0
 10
38.9636
 20
17.6379
 30
0.0
  0
SPLINE
  5
CA
330
1F
100
AcDbEntity
  8
layer 1
 62
     7
100
AcDbSpline
210
0.0
220
0.0
230
1.0
 70
    11
 71
     3
 72
    32
 73
    28
 74
     0
 42
0.0000000001
 43
0.0000000001
 12
1.0
 22
0.0
 32
0.0
 13
1.0
 23
0.0
 33
0.0
 40
0.0
 40
0.0
 40
0.0
 40
0.0
 40
0.125
 40
0.125
 40
0.125
 40
0.125
 40
0.25
 40
0.25
 40
0.25
 40
0.25
 40
0.375
 40
0.375
 40
0.375
 40
0.375
 40
0.5
 40
0.5
 40
0.5
 40
0.5
 40
0.625
 40
0.625
 40
0.625
 40
0.625
 40
0.75
 40
0.75
 40
0.75
 40
0.75
 40
1.0
 40
1.0
 40
1.0
 40
1.0
 10
75.5314
 20
-17.1936
 30
0.0
 10
75.5314
 20
-17.1936
 30
0.0
 10
70.2199
 20
-17.1936
 30
0.0
 10
70.2199
 20
-17.1936
 30
0.0
 10
70.2199
 20
-17.1936
 30
0.0
 10
70.2199
 20
-17.1936
 30
0.0
 10
70.2199
 20
-7.2856
 30
0.0
 10
70.2199
 20
-7.2856
 30
0.0
 10
70.2199
 20
-7.2856
 30
0.0
 10
70.2199
 20
-7.2856
 30
0.0
 10
61.6398
 20
-7.2856
 30
0.0
 10
61.6398
 20
-7.2856
 30
0.0
 10
61.6398
 20
-7.2856
 30
0.0
 10
61.6398
 20
-7.2856
 30
0.0
 10
61.6398
 20
2.7247
 30
0.0
 10
61.6398
 20
2.7247
 30
0.0
 10
61.6398
 20
2.7247
 30
0.0
 10
61.6398
 20
2.7247
 30
0.0
 10
75.5314
 20
2.7247
 30
0.0
 10
75.5314
 20
2.7247
 30
0.0
 10
75.5314
 20
2.7247
 30
0.0
 10
75.5314
 20
2.7247
 30
0.0
 10
75.5314
 20
-17.1936
 30
0.0
 10
75.5314
 20
-17.1936
 30
0.0
 10
75.5314
 20
-17.1936
 30
0.0
 10
75.5314
 20
-17.1936
 30
0.0
 10
75.5314
 20
-17.1936
 30
0.0
 10
75.5314
 20
-17.1936
 30
0.0
  0
SPLINE
  5
CB
330
1F
100
AcDbEntity
  8
layer 1
 62
     7
100
AcDbSpline
210
0.0
220
0.0
230
1.0
 70
    11
 71
     3
 72
    32
 73
    28
 74
     0
 42
0.0000000001
 43
0.0000000001
 12
1.0
 22
0.0
 32
0.0
 13
1.0
 23
0.0
 33
0.0
 40
0.0
 40
0.0
 40
0.0
 40
0.0
 40
0.125
 40
0.125
 40
0.125
 40
0.125
 40
0.25
 40
0.25
 40
0.25
 40
0.25
 40
0.375
 40
0.375
 40
0.375
 40
0.375
 40
0.5
 40
0.5
 40
0.5
 40
0.5
 40
0.625
 40
0.625
 40
0.625
 40
0.625
 40
0.75
 40
0.75
 40
0.75
 40
0.75
 40
1.0
 40
1.0
 40
1.0
 40
1.0
 10
70.2199
 20
25.0944
 30
0.0
 10
70.2199
 20
25.0944
 30
0.0
 10
75.5314
 20
25.0944
 30
0.0
 10
75.5314
 20
25.0944
 30
0.0
 10
75.5314
 20
25.0944
 30
0.0
 10
75.5314
 20
25.0944
 30
0.0
 10
75.5314
 20
5.1761
 30
0.0
 10
75.5314
 20
5.1761
 30
0.0
 10
75.5314
 20
5.1761
 30
0.0
 10
75.5314
 20
5.1761
 30
0.0
 10
61.6398
 20
5.1761
 30
0.0
 10
61.6398
 20
5.1761
 30
0.0
 10
61.6398
 20
5.1761
 30
0.0
 10
61.6398
 20
5.1761
 30
0.0
 10
61.6398
 20
15.1865
 30
0.0
 10
61.6398
 20
15.1865
 30
0.0
 10
61.6398
 20
15.1865
 30
0.0
 10
61.6398
 20
15.1865
 30
0.0
 10
70.2199
 20
15.1865
 30
0.0
 10
70.2199
 20
15.1865
 30
0.0
 10
70.2199
 20
15.1865
 30
0.0
 10
70.2199
 20
15.1865
 30
0.0
 10
70.2199
 20
25.0944
 30
0.0
 10
70.2199
 20
25.0944
 30
0.0
 10
70.2199
 20
25.0944
 30
0.0
 10
70.2199
 20
25.0944
 30
0.0
 10
70.2199
 20
25.0944
 30
0.0
 10
70.2199
 20
25.0944
 30
0.0
  0
SPLINE
  5
CC
330
1F
100
AcDbEntity
  8
layer 1
 62
     7
100
AcDbSpline
210
0.0
220
0.0
230
1.0
 70
    11
 71
     3
 72
    20
 73
    16
 74
     0
 42
0.0000000001
 43
0.0000000001
 12
1.0
 22
0.0
 32
0.0
 13
1.0
 23
0.0
 33
0.0
 40
0.0
 40
0.0
 40
0.0
 40
0.0
 40
0.2
 40
0.2
 40
0.2
 40
0.2
 40
0.4
 40
0.4
 40
0.4
 40
0.4
 40
0.6
 40
0.6
 40
0.6
 40
0.6
 40
1.0
 40
1.0
 40
1.0
 40
1.0
 10
75.5314
 20
40.5009
 30
0.0
 10
75.5314
 20
40.5009
 30
0.0
 10
75.5314
 20
27.546
 30
0.0
 10
75.5314
 20
27.546
 30
0.0
 10
75.5314
 20
27.546
 30
0.0
 10
75.5314
 20
27.546
 30
0.0
 10
70.2199
 20
27.546
 30
0.0
 10
70.2199
 20
27.546
 30
0.0
 10
70.2199
 20
27.546
 30
0.0
 10
70.2199
 20
27.546
 30
0.0
 10
70.2199
 20
40.498
 30
0.0
 10
70.2199
 20
40.498
 30
0.0
 10
70.2199
 20
40.498
 30
0.0
 10
70.2199
 20
40.498
 30
0.0
 10
75.5314
 20
40.5009
 30
0.0
 10
75.5314
 20
40.5009
 30
0.0
  0
SPLINE
  5
CD
330
1F
100
AcDbEntity
  8
layer 1
 62
     7
100
AcDbSpline
210
0.0
220
0.0
230
1.0
 70
    11
 71
     3
 72
    32
 73
    28
 74
     0
 42
0.0000000001
 43
0.0000000001
 12
1.0
 22
0.0
 32
0.0
 13
1.0
 23
0.0
 33
0.0
 40
0.0
 40
0.0
 40
0.0
 40
0.0
 40
0.125
 40
0.125
 40
0.125
 40
0.125
 40
0.25
 40
0.25
 40
0.25
 40
0.25
 40
0.375
 40
0.375
 40
0.375
 40
0.375
 40
0.5
 40
0.5
 40
0.5
 40
0.5
 40
0.625
 40
0.625
 40
0.625
 40
0.625
 40
0.75
 40
0.75
 40
0.75
 40
0.75
 40
1.0
 40
1.0
 40
1.0
 40
1.0
 10
59.1882
 20
-42.5051
 30
0.0
 10
59.1882
 20
-42.5051
 30
0.0
 10
51.6295
 20
-42.5051
 30
0.0
 10
51.6295
 20
-42.5051
 30
0.0
 10
51.6295
 20
-42.5051
 30
0.0
 10
51.6295
 20
-42.5051
 30
0.0
 10
51.6295
 20
-54.9669
 30
0.0
 10
51.6295
 20
-54.9669
 30
0.0
 10
51.6295
 20
-54.9669
 30
0.0
 10
51.6295
 20
-54.9669
 30
0.0
 10
46.5223
 20
-54.9669
 30
0.0
 10
46.5223
 20
-54.9669
 30
0.0
 10
46.5223
 20
-54.9669
 30
0.0
 10
46.5223
 20
-54.9669
 30
0.0
 10
46.5223
 20
-37.398
 30
0.0
 10
46.5223
 20
-37.398
 30
0.0
 10
46.5223
 20
-37.398
 30
0.0
 10
46.5223
 20
-37.398
 30
0.0
 10
59.1882
 20
-37.398
 30
0.0
 10
59.1882
 20
-37.398
 30
0.0
 10
59.1882
 20
-37.398
 30
0.0
 10
59.1882
 20
-37.398
 30
0.0
 10
59.1882
 20
-42.5051
 30
0.0
 10
59.1882
 20
-42.5051
 30
0.0
 10
59.1882
 20
-42.5051
 30
0.0
 10
59.1882
 20
-42.5051
 30
0.0
 10
59.1882
 20
-42.5051
 30
0.0
 10
59.1882
 20
-42.5051
 30
0.0
  0
SPLINE
  5
CE
330
1F
100
AcDbEntity
  8
layer 1
 62
     7
100
AcDbSpline
210
0.0
220
0.0
230
1.0
 70
    11
 71
     3
 72
    28
 73
    24
 74
     0
 42
0.0000000001
 43
0.0000000001
 12
1.0
 22
0.0
 32
0.0
 13
1.0
 23
0.0
 33
0.0
 40
0.0
 40
0.0
 40
0.0
 40
0.0
 40
0.1428571428571428
 40
0.1428571428571428
 40
0.1428571428571428
 40
0.1428571428571428
 40
0.2857142857142857
 40
0.2857142857142857
 40
0.2857142857142857
 40
0.2857142857142857
 40
0.4285714285714285
 40
0.4285714285714285
 40
0.4285714285714285
 40
0.4285714285714285
 40
0.5714285714285714
 40
0.5714285714285714
 40
0.5714285714285714
 40
0.5714285714285714
 40
0.7142857142857143
 40
0.7142857142857143
 40
0.7142857142857143
 40
0.7142857142857143
 40
1.0
 40
1.0
 40
1.0
 40
1.0
 10
38.9636
 20
-42.5051
 30
0.0
 10
38.9636
 20
-42.5051
 30
0.0
 10
31.4048
 20
-42.5051
 30
0.0
 10
31.4048
 20
-42.5051
 30
0.0
 10
31.4048
 20
-42.5051
 30
0.0
 10
31.4048
 20
-42.5051
 30
0.0
 10
31.4048
 20
-37.398
 30
0.0
 10
31.4048
 20
-37.398
 30
0.0
 10
31.4048
 20
-37.398
 30
0.0
 10
31.4048
 20
-37.398
 30
0.0
 10
44.0707
 20
-37.398
 30
0.0
 10
44.0707
 20
-37.398
 30
0.0
 10
44.0707
 20
-37.398
 30
0.0
 10
44.0707
 20
-37.398
 30
0.0
 10
44.0707
 20
-54.9669
 30
0.0
 10
44.0707
 20
-54.9669
 30
0.0
 10
44.0707
 20
-54.9669
 30
0.0
 10
44.0707
 20
-54.9669
 30
0.0
 10
38.9636
 20
-54.9669
 30
0.0
 10
38.9636
 20
-54.9669
 30
0.0
 10
38.9636
 20
-54.9669
 30
0.0
 10
38.9636
 20
-54.9669
 30
0.0
 10
38.9636
 20
-42.5051
 30
0.0
 10
38.9636
 20
-42.5051
 30
0.0
  0
SPLINE
  5
CF
330
1F
100
AcDbEntity
  8
layer 1
 62
     7
100
AcDbSpline
210
0.0
220
0.0
230
1.0
 70
    11
 71
     3
 72
    36
 73
    32
 74
     0
 42
0.0000000001
 43
0.0000000001
 12
1.0
 22
0.0
 32
0.0
 13
1.0
 23
0.0
 33
0.0
 40
0.0
 40
0.0
 40
0.0
 40
0.0
 40
0.1111111111111111
 40
0.1111111111111111
 40
0.1111111111111111
 40
0.1111111111111111
 40
0.2222222222222222
 40
0.2222222222222222
 40
0.2222222222222222
 40
0.2222222222222222
 40
0.3333333333333333
 40
0.3333333333333333
 40
0.3333333333333333
 40
0.3333333333333333
 40
0.4444444444444444
 40
0.4444444444444444
 40
0.4444444444444444
 40
0.4444444444444444
 40
0.5555555555555556
 40
0.5555555555555556
 40
0.5555555555555556
 40
0.5555555555555556
 40
0.6666666666666666
 40
0.6666666666666666
 40
0.6666666666666666
 40
0.6666666666666666
 40
0.7777777777777778
 40
0.7777777777777778
 40
0.7777777777777778
 40
0.7777777777777778
 40
1.0
 40
1.0
 40
1.0
 40
1.0
 10
28.9532
 20
-9.737
 30
0.0
 10
28.9532
 20
-9.737
 30
0.0
 10
22.9063
 20
-9.737
 30
0.0
 10
22.9063
 20
-9.737
 30
0.0
 10
22.9063
 20
-9.737
 30
0.0
 10
22.9063
 20
-9.737
 30
0.0
 10
22.9063
 20
-42.5051
 30
0.0
 10
22.9063
 20
-42.5051
 30
0.0
 10
22.9063
 20
-42.5051
 30
0.0
 10
22.9063
 20
-42.5051
 30
0.0
 10
28.9532
 20
-42.5051
 30
0.0
 10
28.9532
 20
-42.5051
 30
0.0
 10
28.9532
 20
-42.5051
 30
0.0
 10
28.9532
 20
-42.5051
 30
0.0
 10
28.9532
 20
-34.9464
 30
0.0
 10
28.9532
 20
-34.9464
 30
0.0
 10
28.9532
 20
-34.9464
 30
0.0
 10
28.9532
 20
-34.9464
 30
0.0
 10
35.2863
 20
-34.9464
 30
0.0
 10
35.2863
 20
-34.9464
 30
0.0
 10
35.2863
 20
-34.9464
 30
0.0
 10
35.2863
 20
-34.9464
 30
0.0
 10
35.2863
 20
-17.2958
 30
0.0
 10
35.2863
 20
-17.2958
 30
0.0
 10
35.2863
 20
-17.2958
 30
0.0
 10
35.2863
 20
-17.2958
 30
0.0
 10
28.9532
 20
-17.2958
 30
0.0
 10
28.9532
 20
-17.2958
 30
0.0
 10
28.9532
 20
-17.2958
 30
0.0
 10
28.9532
 20
-17.2958
 30
0.0
 10
28.9532
 20
-9.737
 30
0.0
 10
28.9532
 20
-9.737
 30
0.0
  0
SPLINE
  5
D0
330
1F
100
AcDbEntity
  8
layer 1
 62
     7
100
AcDbSpline
210
0.0
220
0.0
230
1.0
 70
    11
 71
     3
 72
    24
 73
    20
 74
     0
 42
0.0000000001
 43
0.0000000001
 12
1.0
 22
0.0
 32
0.0
 13
1.0
 23
0.0
 33
0.0
 40
0.0
 40
0.0
 40
0.0
 40
0.0
 40
0.1666666666666667
 40
0.1666666666666667
 40
0.1666666666666667
 40
0.1666666666666667
 40
0.3333333333333333
 40
0.3333333333333333
 40
0.3333333333333333
 40
0.3333333333333333
 40
0.5
 40
0.5
 40
0.5
 40
0.5
 40
0.6666666666666666
 40
0.6666666666666666
 40
0.6666666666666666
 40
0.6666666666666666
 40
1.0
 40
1.0
 40
1.0
 40
1.0
 10
37.7379
 20
-77.439
 30
0.0
 10
37.7379
 20
-77.439
 30
0.0
 10
44.0707
 20
-77.439
 30
0.0
 10
44.0707
 20
-77.439
 30
0.0
 10
44.0707
 20
-77.439
 30
0.0
 10
44.0707
 20
-77.439
 30
0.0
 10
44.0707
 20
-94.5993
 30
0.0
 10
44.0707
 20
-94.5993
 30
0.0
 10
44.0707
 20
-94.5993
 30
0.0
 10
44.0707
 20
-94.5993
 30
0.0
 10
37.7379
 20
-94.5993
 30
0.0
 10
37.7379
 20
-94.5993
 30
0.0
 10
37.7379
 20
-94.5993
 30
0.0
 10
37.7379
 20
-94.5993
 30
0.0
 10
37.7379
 20
-77.439
 30
0.0
 10
37.7379
 20
-77.439
 30
0.0
 10
37.7379
 20
-77.439
 30
0.0
 10
37.7379
 20
-77.439
 30
0.0
 10
37.7379
 20
-77.439
 30
0.0
 10
37.7379
 20
-77.439
 30
0.0
  0
SPLINE
  5
D1
330
1F
100
AcDbEntity
  8
layer 1
 62
     7
100
AcDbSpline
210
0.0
220
0.0
230
1.0
 70
    11
 71
     3
 72
    32
 73
    28
 74
     0
 42
0.0000000001
 43
0.0000000001
 12
1.0
 22
0.0
 32
0.0
 13
1.0
 23
0.0
 33
0.0
 40
0.0
 40
0.0
 40
0.0
 40
0.0
 40
0.125
 40
0.125
 40
0.125
 40
0.125
 40
0.25
 40
0.25
 40
0.25
 40
0.25
 40
0.375
 40
0.375
 40
0.375
 40
0.375
 40
0.5
 40
0.5
 40
0.5
 40
0.5
 40
0.625
 40
0.625
 40
0.625
 40
0.625
 40
0.75
 40
0.75
 40
0.75
 40
0.75
 40
1.0
 40
1.0
 40
1.0
 40
1.0
 10
59.1882
 20
-69.8802
 30
0.0
 10
59.1882
 20
-69.8802
 30
0.0
 10
51.6295
 20
-69.8802
 30
0.0
 10
51.6295
 20
-69.8802
 30
0.0
 10
51.6295
 20
-69.8802
 30
0.0
 10
51.6295
 20
-69.8802
 30
0.0
 10
51.6295
 20
-57.4185
 30
0.0
 10
51.6295
 20
-57.4185
 30
0.0
 10
51.6295
 20
-57.4185
 30
0.0
 10
51.6295
 20
-57.4185
 30
0.0
 10
46.5223
 20
-57.4185
 30
0.0
 10
46.5223
 20
-57.4185
 30
0.0
 10
46.5223
 20
-57.4185
 30
0.0
 10
46.5223
 20
-57.4185
 30
0.0
 10
46.5223
 20
-74.9873
 30
0.0
 10
46.5223
 20
-74.9873
 30
0.0
 10
46.5223
 20
-74.9873
 30
0.0
 10
46.5223
 20
-74.9873
 30
0.0
 10
59.1882
 20
-74.9873
 30
0.0
 10
59.1882
 20
-74.9873
 30
0.0
 10
59.1882
 20
-74.9873
 30
0.0
 10
59.1882
 20
-74.9873
 30
0.0
 10
59.1882
 20
-69.8802
 30
0.0
 10
59.1882
 20
-69.8802
 30
0.0
 10
59.1882
 20
-69.8802
 30
0.0
 10
59.1882
 20
-69.8802
 30
0.0
 10
59.1882
 20
-69.8802
 30
0.0
 10
59.1882
 20
-69.8802
 30
0.0
  0
SPLINE
  5
D2
330
1F
100
AcDbEntity
  8
layer 1
 62
     7
100
AcDbSpline
210
0.0
220
0.0
230
1.0
 70
    11
 71
     3
 72
    32
 73
    28
 74
     0
 42
0.0000000001
 43
0.0000000001
 12
1.0
 22
0.0
 32
0.0
 13
1.0
 23
0.0
 33
0.0
 40
0.0
 40
0.0
 40
0.0
 40
0.0
 40
0.125
 40
0.125
 40
0.125
 40
0.125
 40
0.25
 40
0.25
 40
0.25
 40
0.25
 40
0.375
 40
0.375
 40
0.375
 40
0.375
 40
0.5
 40
0.5
 40
0.5
 40
0.5
 40
0.625
 40
0.625
 40
0.625
 40
0.625
 40
0.75
 40
0.75
 40
0.75
 40
0.75
 40
1.0
 40
1.0
 40
1.0
 40
1.0
 10
38.9636
 20
-69.8802
 30
0.0
 10
38.9636
 20
-69.8802
 30
0.0
 10
31.4048
 20
-69.8802
 30
0.0
 10
31.4048
 20
-69.8802
 30
0.0
 10
31.4048
 20
-69.8802
 30
0.0
 10
31.4048
 20
-69.8802
 30
0.0
 10
31.4048
 20
-74.9873
 30
0.0
 10
31.4048
 20
-74.9873
 30
0.0
 10
31.4048
 20
-74.9873
 30
0.0
 10
31.4048
 20
-74.9873
 30
0.0
 10
44.0707
 20
-74.9873
 30
0.0
 10
44.0707
 20
-74.9873
 30
0.0
 10
44.0707
 20
-74.9873
 30
0.0
 10
44.0707
 20
-74.9873
 30
0.0
 10
44.0707
 20
-57.4185
 30
0.0
 10
44.0707
 20
-57.4185
 30
0.0
 10
44.0707
 20
-57.4185
 30
0.0
 10
44.0707
 20
-57.4185
 30
0.0
 10
38.9636
 20
-57.4185
 30
0.0
 10
38.9636
 20
-57.4185
 30
0.0
 10
38.9636
 20
-57.4185
 30
0.0
 10
38.9636
 20
-57.4185
 30
0.0
 10
38.9636
 20
-69.8802
 30
0.0
 10
38.9636
 20
-69.8802
 30
0.0
 10
38.9636
 20
-69.8802
 30
0.0
 10
38.9636
 20
-69.8802
 30
0.0
 10
38.9636
 20
-69.8802
 30
0.0
 10
38.9636
 20
-69.8802
 30
0.0
  0
SPLINE
  5
D3
330
1F
100
AcDbEntity
  8
layer 1
 62
     7
100
AcDbSpline
210
0.0
220
0.0
230
1.0
 70
    11
 71
     3
 72
    32
 73
    28
 74
     0
 42
0.0000000001
 43
0.0000000001
 12
1.0
 22
0.0
 32
0.0
 13
1.0
 23
0.0
 33
0.0
 40
0.0
 40
0.0
 40
0.0
 40
0.0
 40
0.125
 40
0.125
 40
0.125
 40
0.125
 40
0.25
 40
0.25
 40
0.25
 40
0.25
 40
0.375
 40
0.375
 40
0.375
 40
0.375
 40
0.5
 40
0.5
 40
0.5
 40
0.5
 40
0.625
 40
0.625
 40
0.625
 40
0.625
 40
0.75
 40
0.75
 40
0.75
 40
0.75
 40
1.0
 40
1.0
 40
1.0
 40
1.0
 10
55.3092
 20
-77.439
 30
0.0
 10
55.3092
 20
-77.439
 30
0.0
 10
61.6398
 20
-77.439
 30
0.0
 10
61.6398
 20
-77.439
 30
0.0
 10
61.6398
 20
-77.439
 30
0.0
 10
61.6398
 20
-77.439
 30
0.0
 10
61.6398
 20
-69.8802
 30
0.0
 10
61.6398
 20
-69.8802
 30
0.0
 10
61.6398
 20
-69.8802
 30
0.0
 10
61.6398
 20
-69.8802
 30
0.0
 10
67.7685
 20
-69.8802
 30
0.0
 10
67.7685
 20
-69.8802
 30
0.0
 10
67.7685
 20
-69.8802
 30
0.0
 10
67.7685
 20
-69.8802
 30
0.0
 10
67.7685
 20
-94.5993
 30
0.0
 10
67.7685
 20
-94.5993
 30
0.0
 10
67.7685
 20
-94.5993
 30
0.0
 10
67.7685
 20
-94.5993
 30
0.0
 10
55.3068
 20
-94.5993
 30
0.0
 10
55.3068
 20
-94.5993
 30
0.0
 10
55.3068
 20
-94.5993
 30
0.0
 10
55.3068
 20
-94.5993
 30
0.0
 10
55.3092
 20
-77.439
 30
0.0
 10
55.3092
 20
-77.439
 30
0.0
 10
55.3092
 20
-77.439
 30
0.0
 10
55.3092
 20
-77.439
 30
0.0
 10
55.3092
 20
-77.439
 30
0.0
 10
55.3092
 20
-77.439
 30
0.0
  0
SPLINE
  5
D4
330
1F
100
AcDbEntity
  8
layer 1
 62
     7
100
AcDbSpline
210
0.0
220
0.0
230
1.0
 70
    11
 71
     3
 72
    24
 73
    20
 74
     0
 42
0.0000000001
 43
0.0000000001
 12
1.0
 22
0.0
 32
0.0
 13
1.0
 23
0.0
 33
0.0
 40
0.0
 40
0.0
 40
0.0
 40
0.0
 40
0.1666666666666667
 40
0.1666666666666667
 40
0.1666666666666667
 40
0.1666666666666667
 40
0.3333333333333333
 40
0.3333333333333333
 40
0.3333333333333333
 40
0.3333333333333333
 40
0.5
 40
0.5
 40
0.5
 40
0.5
 40
0.6666666666666666
 40
0.6666666666666666
 40
0.6666666666666666
 40
0.6666666666666666
 40
1.0
 40
1.0
 40
1.0
 40
1.0
 10
52.8552
 20
-77.439
 30
0.0
 10
52.8552
 20
-77.439
 30
0.0
 10
52.8552
 20
-94.5993
 30
0.0
 10
52.8552
 20
-94.5993
 30
0.0
 10
52.8552
 20
-94.5993
 30
0.0
 10
52.8552
 20
-94.5993
 30
0.0
 10
46.5223
 20
-94.5993
 30
0.0
 10
46.5223
 20
-94.5993
 30
0.0
 10
46.5223
 20
-94.5993
 30
0.0
 10
46.5223
 20
-94.5993
 30
0.0
 10
46.5223
 20
-77.439
 30
0.0
 10
46.5223
 20
-77.439
 30
0.0
 10
46.5223
 20
-77.439
 30
0.0
 10
46.5223
 20
-77.439
 30
0.0
 10
52.8552
 20
-77.439
 30
0.0
 10
52.8552
 20
-77.439
 30
0.0
 10
52.8552
 20
-77.439
 30
0.0
 10
52.8552
 20
-77.439
 30
0.0
 10
52.8552
 20
-77.439
 30
0.0
 10
52.8552
 20
-77.439
 30
0.0
  0
SPLINE
  5
D5
330
1F
100
AcDbEntity
  8
layer 1
 62
     7
100
AcDbSpline
210
0.0
220
0.0
230
1.0
 70
    11
 71
     3
 72
    32
 73
    28
 74
     0
 42
0.0000000001
 43
0.0000000001
 12
1.0
 22
0.0
 32
0.0
 13
1.0
 23
0.0
 33
0.0
 40
0.0
 40
0.0
 40
0.0
 40
0.0
 40
0.125
 40
0.125
 40
0.125
 40
0.125
 40
0.25
 40
0.25
 40
0.25
 40
0.25
 40
0.375
 40
0.375
 40
0.375
 40
0.375
 40
0.5
 40
0.5
 40
0.5
 40
0.5
 40
0.625
 40
0.625
 40
0.625
 40
0.625
 40
0.75
 40
0.75
 40
0.75
 40
0.75
 40
1.0
 40
1.0
 40
1.0
 40
1.0
 10
70.2199
 20
-77.3368
 30
0.0
 10
70.2199
 20
-77.3368
 30
0.0
 10
75.5314
 20
-77.3368
 30
0.0
 10
75.5314
 20
-77.3368
 30
0.0
 10
75.5314
 20
-77.3368
 30
0.0
 10
75.5314
 20
-77.3368
 30
0.0
 10
75.5314
 20
-57.4185
 30
0.0
 10
75.5314
 20
-57.4185
 30
0.0
 10
75.5314
 20
-57.4185
 30
0.0
 10
75.5314
 20
-57.4185
 30
0.0
 10
61.6398
 20
-57.4185
 30
0.0
 10
61.6398
 20
-57.4185
 30
0.0
 10
61.6398
 20
-57.4185
 30
0.0
 10
61.6398
 20
-57.4185
 30
0.0
 10
61.6398
 20
-67.4286
 30
0.0
 10
61.6398
 20
-67.4286
 30
0.0
 10
61.6398
 20
-67.4286
 30
0.0
 10
61.6398
 20
-67.4286
 30
0.0
 10
70.2199
 20
-67.4286
 30
0.0
 10
70.2199
 20
-67.4286
 30
0.0
 10
70.2199
 20
-67.4286
 30
0.0
 10
70.2199
 20
-67.4286
 30
0.0
 10
70.2199
 20
-77.3368
 30
0.0
 10
70.2199
 20
-77.3368
 30
0.0
 10
70.2199
 20
-77.3368
 30
0.0
 10
70.2199
 20
-77.3368
 30
0.0
 10
70.2199
 20
-77.3368
 30
0.0
 10
70.2199
 20
-77.3368
 30
0.0
  0
SPLINE
  5
D6
330
1F
100
AcDbEntity
  8
layer 1
 62
     7
100
AcDbSpline
210
0.0
220
0.0
230
1.0
 70
    11
 71
     3
 72
    24
 73
    20
 74
     0
 42
0.0000000001
 43
0.0000000001
 12
1.0
 22
0.0
 32
0.0
 13
1.0
 23
0.0
 33
0.0
 40
0.0
 40
0.0
 40
0.0
 40
0.0
 40
0.1666666666666667
 40
0.1666666666666667
 40
0.1666666666666667
 40
0.1666666666666667
 40
0.3333333333333333
 40
0.3333333333333333
 40
0.3333333333333333
 40
0.3333333333333333
 40
0.5
 40
0.5
 40
0.5
 40
0.5
 40
0.6666666666666666
 40
0.6666666666666666
 40
0.6666666666666666
 40
0.6666666666666666
 40
1.0
 40
1.0
 40
1.0
 40
1.0
 10
70.2199
 20
-94.5993
 30
0.0
 10
70.2199
 20
-94.5993
 30
0.0
 10
75.5314
 20
-94.5993
 30
0.0
 10
75.5314
 20
-94.5993
 30
0.0
 10
75.5314
 20
-94.5993
 30
0.0
 10
75.5314
 20
-94.5993
 30
0.0
 10
75.5314
 20
-79.7881
 30
0.0
 10
75.5314
 20
-79.7881
 30
0.0
 10
75.5314
 20
-79.7881
 30
0.0
 10
75.5314
 20
-79.7881
 30
0.0
 10
70.2199
 20
-79.7881
 30
0.0
 10
70.2199
 20
-79.7881
 30
0.0
 10
70.2199
 20
-79.7881
 30
0.0
 10
70.2199
 20
-79.7881
 30
0.0
 10
70.2199
 20
-94.5993
 30
0.0
 10
70.2199
 20
-94.5993
 30
0.0
 10
70.2199
 20
-94.5993
 30
0.0
 10
70.2199
 20
-94.5993
 30
0.0
 10
70.2199
 20
-94.5993
 30
0.0
 10
70.2199
 20
-94.5993
 30
0.0
  0
SPLINE
  5
D7
330
1F
100
AcDbEntity
  8
layer 1
 62
     7
100
AcDbSpline
210
0.0
220
0.0
230
1.0
 70
    11
 71
     3
 72
    28
 73
    24
 74
     0
 42
0.0000000001
 43
0.0000000001
 12
1.0
 22
0.0
 32
0.0
 13
1.0
 23
0.0
 33
0.0
 40
0.0
 40
0.0
 40
0.0
 40
0.0
 40
0.1428571428571428
 40
0.1428571428571428
 40
0.1428571428571428
 40
0.1428571428571428
 40
0.2857142857142857
 40
0.2857142857142857
 40
0.2857142857142857
 40
0.2857142857142857
 40
0.4285714285714285
 40
0.4285714285714285
 40
0.4285714285714285
 40
0.4285714285714285
 40
0.5714285714285714
 40
0.5714285714285714
 40
0.5714285714285714
 40
0.5714285714285714
 40
0.7142857142857143
 40
0.7142857142857143
 40
0.7142857142857143
 40
0.7142857142857143
 40
1.0
 40
1.0
 40
1.0
 40
1.0
 10
122.1097
 20
-9.737
 30
0.0
 10
122.1097
 20
-9.737
 30
0.0
 10
114.5509
 20
-9.737
 30
0.0
 10
114.5509
 20
-9.737
 30
0.0
 10
114.5509
 20
-9.737
 30
0.0
 10
114.5509
 20
-9.737
 30
0.0
 10
114.5509
 20
2.7247
 30
0.0
 10
114.5509
 20
2.7247
 30
0.0
 10
114.5509
 20
2.7247
 30
0.0
 10
114.5509
 20
2.7247
 30
0.0
 10
109.4438
 20
2.7247
 30
0.0
 10
109.4438
 20
2.7247
 30
0.0
 10
109.4438
 20
2.7247
 30
0.0
 10
109.4438
 20
2.7247
 30
0.0
 10
109.4438
 20
-14.8444
 30
0.0
 10
109.4438
 20
-14.8444
 30
0.0
 10
109.4438
 20
-14.8444
 30
0.0
 10
109.4438
 20
-14.8444
 30
0.0
 10
122.1097
 20
-14.8444
 30
0.0
 10
122.1097
 20
-14.8444
 30
0.0
 10
122.1097
 20
-14.8444
 30
0.0
 10
122.1097
 20
-14.8444
 30
0.0
 10
122.1097
 20
-9.737
 30
0.0
 10
122.1097
 20
-9.737
 30
0.0
  0
SPLINE
  5
D8
330
1F
100
AcDbEntity
  8
layer 1
 62
     7
100
AcDbSpline
210
0.0
220
0.0
230
1.0
 70
    11
 71
     3
 72
    32
 73
    28
 74
     0
 42
0.0000000001
 43
0.0000000001
 12
1.0
 22
0.0
 32
0.0
 13
1.0
 23
0.0
 33
0.0
 40
0.0
 40
0.0
 40
0.0
 40
0.0
 40
0.125
 40
0.125
 40
0.125
 40
0.125
 40
0.25
 40
0.25
 40
0.25
 40
0.25
 40
0.375
 40
0.375
 40
0.375
 40
0.375
 40
0.5
 40
0.5
 40
0.5
 40
0.5
 40
0.625
 40
0.625
 40
0.625
 40
0.625
 40
0.75
 40
0.75
 40
0.75
 40
0.75
 40
1.0
 40
1.0
 40
1.0
 40
1.0
 10
101.885
 20
-9.737
 30
0.0
 10
101.885
 20
-9.737
 30
0.0
 10
94.3262
 20
-9.737
 30
0.0
 10
94.3262
 20
-9.737
 30
0.0
 10
94.3262
 20
-9.737
 30
0.0
 10
94.3262
 20
-9.737
 30
0.0
 10
94.3262
 20
-14.8444
 30
0.0
 10
94.3262
 20
-14.8444
 30
0.0
 10
94.3262
 20
-14.8444
 30
0.0
 10
94.3262
 20
-14.8444
 30
0.0
 10
106.9921
 20
-14.8444
 30
0.0
 10
106.9921
 20
-14.8444
 30
0.0
 10
106.9921
 20
-14.8444
 30
0.0
 10
106.9921
 20
-14.8444
 30
0.0
 10
106.9921
 20
2.7247
 30
0.0
 10
106.9921
 20
2.7247
 30
0.0
 10
106.9921
 20
2.7247
 30
0.0
 10
106.9921
 20
2.7247
 30
0.0
 10
101.885
 20
2.7247
 30
0.0
 10
101.885
 20
2.7247
 30
0.0
 10
101.885
 20
2.7247
 30
0.0
 10
101.885
 20
2.7247
 30
0.0
 10
101.885
 20
-9.737
 30
0.0
 10
101.885
 20
-9.737
 30
0.0
 10
101.885
 20
-9.737
 30
0.0
 10
101.885
 20
-9.737
 30
0.0
 10
101.885
 20
-9.737
 30
0.0
 10
101.885
 20
-9.737
 30
0.0
  0
SPLINE
  5
D9
330
1F
100
AcDbEntity
  8
layer 1
 62
     7
100
AcDbSpline
210
0.0
220
0.0
230
1.0
 70
    11
 71
     3
 72
    24
 73
    20
 74
     0
 42
0.0000000001
 43
0.0000000001
 12
1.0
 22
0.0
 32
0.0
 13
1.0
 23
0.0
 33
0.0
 40
0.0
 40
0.0
 40
0.0
 40
0.0
 40
0.1666666666666667
 40
0.1666666666666667
 40
0.1666666666666667
 40
0.1666666666666667
 40
0.3333333333333333
 40
0.3333333333333333
 40
0.3333333333333333
 40
0.3333333333333333
 40
0.5
 40
0.5
 40
0.5
 40
0.5
 40
0.6666666666666666
 40
0.6666666666666666
 40
0.6666666666666666
 40
0.6666666666666666
 40
1.0
 40
1.0
 40
1.0
 40
1.0
 10
100.6593
 20
42.8472
 30
0.0
 10
100.6593
 20
42.8472
 30
0.0
 10
106.9921
 20
42.8472
 30
0.0
 10
106.9921
 20
42.8472
 30
0.0
 10
106.9921
 20
42.8472
 30
0.0
 10
106.9921
 20
42.8472
 30
0.0
 10
106.9921
 20
25.1966
 30
0.0
 10
106.9921
 20
25.1966
 30
0.0
 10
106.9921
 20
25.1966
 30
0.0
 10
106.9921
 20
25.1966
 30
0.0
 10
100.6593
 20
25.1966
 30
0.0
 10
100.6593
 20
25.1966
 30
0.0
 10
100.6593
 20
25.1966
 30
0.0
 10
100.6593
 20
25.1966
 30
0.0
 10
100.6593
 20
42.8472
 30
0.0
 10
100.6593
 20
42.8472
 30
0.0
 10
100.6593
 20
42.8472
 30
0.0
 10
100.6593
 20
42.8472
 30
0.0
 10
100.6593
 20
42.8472
 30
0.0
 10
100.6593
 20
42.8472
 30
0.0
  0
SPLINE
  5
DA
330
1F
100
AcDbEntity
  8
layer 1
 62
     7
100
AcDbSpline
210
0.0
220
0.0
230
1.0
 70
    11
 71
     3
 72
    40
 73
    36
 74
     0
 42
0.0000000001
 43
0.0000000001
 12
1.0
 22
0.0
 32
0.0
 13
1.0
 23
0.0
 33
0.0
 40
0.0
 40
0.0
 40
0.0
 40
0.0
 40
0.1
 40
0.1
 40
0.1
 40
0.1
 40
0.2
 40
0.2
 40
0.2
 40
0.2
 40
0.3
 40
0.3
 40
0.3
 40
0.3
 40
0.4
 40
0.4
 40
0.4
 40
0.4
 40
0.5
 40
0.5
 40
0.5
 40
0.5
 40
0.6
 40
0.6
 40
0.6
 40
0.6
 40
0.7
 40
0.7
 40
0.7
 40
0.7
 40
0.8
 40
0.8
 40
0.8
 40
0.8
 40
1.0
 40
1.0
 40
1.0
 40
1.0
 10
118.2282
 20
42.8472
 30
0.0
 10
118.2282
 20
42.8472
 30
0.0
 10
124.5613
 20
42.8472
 30
0.0
 10
124.5613
 20
42.8472
 30
0.0
 10
124.5613
 20
42.8472
 30
0.0
 10
124.5613
 20
42.8472
 30
0.0
 10
124.5613
 20
50.406
 30
0.0
 10
124.5613
 20
50.406
 30
0.0
 10
124.5613
 20
50.406
 30
0.0
 10
124.5613
 20
50.406
 30
0.0
 10
130.6899
 20
50.406
 30
0.0
 10
130.6899
 20
50.406
 30
0.0
 10
130.6899
 20
50.406
 30
0.0
 10
130.6899
 20
50.406
 30
0.0
 10
130.6899
 20
17.6379
 30
0.0
 10
130.6899
 20
17.6379
 30
0.0
 10
130.6899
 20
17.6379
 30
0.0
 10
130.6899
 20
17.6379
 30
0.0
 10
124.5613
 20
17.6379
 30
0.0
 10
124.5613
 20
17.6379
 30
0.0
 10
124.5613
 20
17.6379
 30
0.0
 10
124.5613
 20
17.6379
 30
0.0
 10
124.5613
 20
25.1966
 30
0.0
 10
124.5613
 20
25.1966
 30
0.0
 10
124.5613
 20
25.1966
 30
0.0
 10
124.5613
 20
25.1966
 30
0.0
 10
118.2282
 20
25.1966
 30
0.0
 10
118.2282
 20
25.1966
 30
0.0
 10
118.2282
 20
25.1966
 30
0.0
 10
118.2282
 20
25.1966
 30
0.0
 10
118.2282
 20
42.8472
 30
0.0
 10
118.2282
 20
42.8472
 30
0.0
 10
118.2282
 20
42.8472
 30
0.0
 10
118.2282
 20
42.8472
 30
0.0
 10
118.2282
 20
42.8472
 30
0.0
 10
118.2282
 20
42.8472
 30
0.0
  0
SPLINE
  5
DB
330
1F
100
AcDbEntity
  8
layer 1
 62
     7
100
AcDbSpline
210
0.0
220
0.0
230
1.0
 70
    11
 71
     3
 72
    24
 73
    20
 74
     0
 42
0.0000000001
 43
0.0000000001
 12
1.0
 22
0.0
 32
0.0
 13
1.0
 23
0.0
 33
0.0
 40
0.0
 40
0.0
 40
0.0
 40
0.0
 40
0.1666666666666667
 40
0.1666666666666667
 40
0.1666666666666667
 40
0.1666666666666667
 40
0.3333333333333333
 40
0.3333333333333333
 40
0.3333333333333333
 40
0.3333333333333333
 40
0.5
 40
0.5
 40
0.5
 40
0.5
 40
0.6666666666666666
 40
0.6666666666666666
 40
0.6666666666666666
 40
0.6666666666666666
 40
1.0
 40
1.0
 40
1.0
 40
1.0
 10
115.7766
 20
42.8472
 30
0.0
 10
115.7766
 20
42.8472
 30
0.0
 10
109.4438
 20
42.8472
 30
0.0
 10
109.4438
 20
42.8472
 30
0.0
 10
109.4438
 20
42.8472
 30
0.0
 10
109.4438
 20
42.8472
 30
0.0
 10
109.4438
 20
25.1966
 30
0.0
 10
109.4438
 20
25.1966
 30
0.0
 10
109.4438
 20
25.1966
 30
0.0
 10
109.4438
 20
25.1966
 30
0.0
 10
115.7766
 20
25.1966
 30
0.0
 10
115.7766
 20
25.1966
 30
0.0
 10
115.7766
 20
25.1966
 30
0.0
 10
115.7766
 20
25.1966
 30
0.0
 10
115.7766
 20
42.8472
 30
0.0
 10
115.7766
 20
42.8472
 30
0.0
 10
115.7766
 20
42.8472
 30
0.0
 10
115.7766
 20
42.8472
 30
0.0
 10
115.7766
 20
42.8472
 30
0.0
 10
115.7766
 20
42.8472
 30
0.0
  0
SPLINE
  5
DC
330
1F
100
AcDbEntity
  8
layer 1
 62
     7
100
AcDbSpline
210
0.0
220
0.0
230
1.0
 70
    11
 71
     3
 72
    28
 73
    24
 74
     0
 42
0.0000000001
 43
0.0000000001
 12
1.0
 22
0.0
 32
0.0
 13
1.0
 23
0.0
 33
0.0
 40
0.0
 40
0.0
 40
0.0
 40
0.0
 40
0.1428571428571428
 40
0.1428571428571428
 40
0.1428571428571428
 40
0.1428571428571428
 40
0.2857142857142857
 40
0.2857142857142857
 40
0.2857142857142857
 40
0.2857142857142857
 40
0.4285714285714285
 40
0.4285714285714285
 40
0.4285714285714285
 40
0.4285714285714285
 40
0.5714285714285714
 40
0.5714285714285714
 40
0.5714285714285714
 40
0.5714285714285714
 40
0.7142857142857143
 40
0.7142857142857143
 40
0.7142857142857143
 40
0.7142857142857143
 40
1.0
 40
1.0
 40
1.0
 40
1.0
 10
122.1097
 20
17.6379
 30
0.0
 10
122.1097
 20
17.6379
 30
0.0
 10
114.5509
 20
17.6379
 30
0.0
 10
114.5509
 20
17.6379
 30
0.0
 10
114.5509
 20
17.6379
 30
0.0
 10
114.5509
 20
17.6379
 30
0.0
 10
114.5509
 20
5.1761
 30
0.0
 10
114.5509
 20
5.1761
 30
0.0
 10
114.5509
 20
5.1761
 30
0.0
 10
114.5509
 20
5.1761
 30
0.0
 10
109.4438
 20
5.1761
 30
0.0
 10
109.4438
 20
5.1761
 30
0.0
 10
109.4438
 20
5.1761
 30
0.0
 10
109.4438
 20
5.1761
 30
0.0
 10
109.4438
 20
22.745
 30
0.0
 10
109.4438
 20
22.745
 30
0.0
 10
109.4438
 20
22.745
 30
0.0
 10
109.4438
 20
22.745
 30
0.0
 10
122.1097
 20
22.745
 30
0.0
 10
122.1097
 20
22.745
 30
0.0
 10
122.1097
 20
22.745
 30
0.0
 10
122.1097
 20
22.745
 30
0.0
 10
122.1097
 20
17.6379
 30
0.0
 10
122.1097
 20
17.6379
 30
0.0
  0
SPLINE
  5
DD
330
1F
100
AcDbEntity
  8
layer 1
 62
     7
100
AcDbSpline
210
0.0
220
0.0
230
1.0
 70
    11
 71
     3
 72
    32
 73
    28
 74
     0
 42
0.0000000001
 43
0.0000000001
 12
1.0
 22
0.0
 32
0.0
 13
1.0
 23
0.0
 33
0.0
 40
0.0
 40
0.0
 40
0.0
 40
0.0
 40
0.125
 40
0.125
 40
0.125
 40
0.125
 40
0.25
 40
0.25
 40
0.25
 40
0.25
 40
0.375
 40
0.375
 40
0.375
 40
0.375
 40
0.5
 40
0.5
 40
0.5
 40
0.5
 40
0.625
 40
0.625
 40
0.625
 40
0.625
 40
0.75
 40
0.75
 40
0.75
 40
0.75
 40
1.0
 40
1.0
 40
1.0
 40
1.0
 10
101.885
 20
17.6379
 30
0.0
 10
101.885
 20
17.6379
 30
0.0
 10
94.3262
 20
17.6379
 30
0.0
 10
94.3262
 20
17.6379
 30
0.0
 10
94.3262
 20
17.6379
 30
0.0
 10
94.3262
 20
17.6379
 30
0.0
 10
94.3262
 20
22.745
 30
0.0
 10
94.3262
 20
22.745
 30
0.0
 10
94.3262
 20
22.745
 30
0.0
 10
94.3262
 20
22.745
 30
0.0
 10
106.9921
 20
22.745
 30
0.0
 10
106.9921
 20
22.745
 30
0.0
 10
106.9921
 20
22.745
 30
0.0
 10
106.9921
 20
22.745
 30
0.0
 10
106.9921
 20
5.1761
 30
0.0
 10
106.9921
 20
5.1761
 30
0.0
 10
106.9921
 20
5.1761
 30
0.0
 10
106.9921
 20
5.1761
 30
0.0
 10
101.885
 20
5.1761
 30
0.0
 10
101.885
 20
5.1761
 30
0.0
 10
101.885
 20
5.1761
 30
0.0
 10
101.885
 20
5.1761
 30
0.0
 10
101.885
 20
17.6379
 30
0.0
 10
101.885
 20
17.6379
 30
0.0
 10
101.885
 20
17.6379
 30
0.0
 10
101.885
 20
17.6379
 30
0.0
 10
101.885
 20
17.6379
 30
0.0
 10
101.885
 20
17.6379
 30
0.0
  0
SPLINE
  5
DE
330
1F
100
AcDbEntity
  8
layer 1
 62
     7
100
AcDbSpline
210
0.0
220
0.0
230
1.0
 70
    11
 71
     3
 72
    32
 73
    28
 74
     0
 42
0.0000000001
 43
0.0000000001
 12
1.0
 22
0.0
 32
0.0
 13
1.0
 23
0.0
 33
0.0
 40
0.0
 40
0.0
 40
0.0
 40
0.0
 40
0.125
 40
0.125
 40
0.125
 40
0.125
 40
0.25
 40
0.25
 40
0.25
 40
0.25
 40
0.375
 40
0.375
 40
0.375
 40
0.375
 40
0.5
 40
0.5
 40
0.5
 40
0.5
 40
0.625
 40
0.625
 40
0.625
 40
0.625
 40
0.75
 40
0.75
 40
0.75
 40
0.75
 40
1.0
 40
1.0
 40
1.0
 40
1.0
 10
83.2946
 20
25.0944
 30
0.0
 10
83.2946
 20
25.0944
 30
0.0
 10
77.983
 20
25.0944
 30
0.0
 10
77.983
 20
25.0944
 30
0.0
 10
77.983
 20
25.0944
 30
0.0
 10
77.983
 20
25.0944
 30
0.0
 10
77.983
 20
5.1761
 30
0.0
 10
77.983
 20
5.1761
 30
0.0
 10
77.983
 20
5.1761
 30
0.0
 10
77.983
 20
5.1761
 30
0.0
 10
91.8746
 20
5.1761
 30
0.0
 10
91.8746
 20
5.1761
 30
0.0
 10
91.8746
 20
5.1761
 30
0.0
 10
91.8746
 20
5.1761
 30
0.0
 10
91.8746
 20
15.1865
 30
0.0
 10
91.8746
 20
15.1865
 30
0.0
 10
91.8746
 20
15.1865
 30
0.0
 10
91.8746
 20
15.1865
 30
0.0
 10
83.2946
 20
15.1865
 30
0.0
 10
83.2946
 20
15.1865
 30
0.0
 10
83.2946
 20
15.1865
 30
0.0
 10
83.2946
 20
15.1865
 30
0.0
 10
83.2946
 20
25.0944
 30
0.0
 10
83.2946
 20
25.0944
 30
0.0
 10
83.2946
 20
25.0944
 30
0.0
 10
83.2946
 20
25.0944
 30
0.0
 10
83.2946
 20
25.0944
 30
0.0
 10
83.2946
 20
25.0944
 30
0.0
  0
SPLINE
  5
DF
330
1F
100
AcDbEntity
  8
layer 1
 62
     7
100
AcDbSpline
210
0.0
220
0.0
230
1.0
 70
    11
 71
     3
 72
    36
 73
    32
 74
     0
 42
0.0000000001
 43
0.0000000001
 12
1.0
 22
0.0
 32
0.0
 13
1.0
 23
0.0
 33
0.0
 40
0.0
 40
0.0
 40
0.0
 40
0.0
 40
0.1111111111111111
 40
0.1111111111111111
 40
0.1111111111111111
 40
0.1111111111111111
 40
0.2222222222222222
 40
0.2222222222222222
 40
0.2222222222222222
 40
0.2222222222222222
 40
0.3333333333333333
 40
0.3333333333333333
 40
0.3333333333333333
 40
0.3333333333333333
 40
0.4444444444444444
 40
0.4444444444444444
 40
0.4444444444444444
 40
0.4444444444444444
 40
0.5555555555555556
 40
0.5555555555555556
 40
0.5555555555555556
 40
0.5555555555555556
 40
0.6666666666666666
 40
0.6666666666666666
 40
0.6666666666666666
 40
0.6666666666666666
 40
0.7777777777777778
 40
0.7777777777777778
 40
0.7777777777777778
 40
0.7777777777777778
 40
1.0
 40
1.0
 40
1.0
 40
1.0
 10
124.561
 20
2.7247
 30
0.0
 10
124.561
 20
2.7247
 30
0.0
 10
124.5613
 20
2.7247
 30
0.0
 10
124.5613
 20
2.7247
 30
0.0
 10
124.5613
 20
2.7247
 30
0.0
 10
124.5613
 20
2.7247
 30
0.0
 10
138.4529
 20
2.7247
 30
0.0
 10
138.4529
 20
2.7247
 30
0.0
 10
138.4529
 20
2.7247
 30
0.0
 10
138.4529
 20
2.7247
 30
0.0
 10
138.4529
 20
-17.1936
 30
0.0
 10
138.4529
 20
-17.1936
 30
0.0
 10
138.4529
 20
-17.1936
 30
0.0
 10
138.4529
 20
-17.1936
 30
0.0
 10
133.1413
 20
-17.1936
 30
0.0
 10
133.1413
 20
-17.1936
 30
0.0
 10
133.1413
 20
-17.1936
 30
0.0
 10
133.1413
 20
-17.1936
 30
0.0
 10
133.1413
 20
-7.2856
 30
0.0
 10
133.1413
 20
-7.2856
 30
0.0
 10
133.1413
 20
-7.2856
 30
0.0
 10
133.1413
 20
-7.2856
 30
0.0
 10
124.5613
 20
-7.2856
 30
0.0
 10
124.5613
 20
-7.2856
 30
0.0
 10
124.5613
 20
-7.2856
 30
0.0
 10
124.5613
 20
-7.2856
 30
0.0
 10
124.5613
 20
2.7247
 30
0.0
 10
124.5613
 20
2.7247
 30
0.0
 10
124.5613
 20
2.7247
 30
0.0
 10
124.5613
 20
2.7247
 30
0.0
 10
124.561
 20
2.7247
 30
0.0
 10
124.561
 20
2.7247
 30
0.0
  0
SPLINE
  5
E0
330
1F
100
AcDbEntity
  8
layer 1
 62
     7
100
AcDbSpline
210
0.0
220
0.0
230
1.0
 70
    11
 71
     3
 72
    32
 73
    28
 74
     0
 42
0.0000000001
 43
0.0000000001
 12
1.0
 22
0.0
 32
0.0
 13
1.0
 23
0.0
 33
0.0
 40
0.0
 40
0.0
 40
0.0
 40
0.0
 40
0.125
 40
0.125
 40
0.125
 40
0.125
 40
0.25
 40
0.25
 40
0.25
 40
0.25
 40
0.375
 40
0.375
 40
0.375
 40
0.375
 40
0.5
 40
0.5
 40
0.5
 40
0.5
 40
0.625
 40
0.625
 40
0.625
 40
0.625
 40
0.75
 40
0.75
 40
0.75
 40
0.75
 40
1.0
 40
1.0
 40
1.0
 40
1.0
 10
133.1413
 20
25.0944
 30
0.0
 10
133.1413
 20
25.0944
 30
0.0
 10
138.4529
 20
25.0944
 30
0.0
 10
138.4529
 20
25.0944
 30
0.0
 10
138.4529
 20
25.0944
 30
0.0
 10
138.4529
 20
25.0944
 30
0.0
 10
138.4529
 20
5.1761
 30
0.0
 10
138.4529
 20
5.1761
 30
0.0
 10
138.4529
 20
5.1761
 30
0.0
 10
138.4529
 20
5.1761
 30
0.0
 10
124.5613
 20
5.1761
 30
0.0
 10
124.5613
 20
5.1761
 30
0.0
 10
124.5613
 20
5.1761
 30
0.0
 10
124.5613
 20
5.1761
 30
0.0
 10
124.5613
 20
15.1865
 30
0.0
 10
124.5613
 20
15.1865
 30
0.0
 10
124.5613
 20
15.1865
 30
0.0
 10
124.5613
 20
15.1865
 30
0.0
 10
133.1413
 20
15.1865
 30
0.0
 10
133.1413
 20
15.1865
 30
0.0
 10
133.1413
 20
15.1865
 30
0.0
 10
133.1413
 20
15.1865
 30
0.0
 10
133.1413
 20
25.0944
 30
0.0
 10
133.1413
 20
25.0944
 30
0.0
 10
133.1413
 20
25.0944
 30
0.0
 10
133.1413
 20
25.0944
 30
0.0
 10
133.1413
 20
25.0944
 30
0.0
 10
133.1413
 20
25.0944
 30
0.0
  0
SPLINE
  5
E1
330
1F
100
AcDbEntity
  8
layer 1
 62
     7
100
AcDbSpline
210
0.0
220
0.0
230
1.0
 70
    11
 71
     3
 72
    24
 73
    20
 74
     0
 42
0.0000000001
 43
0.0000000001
 12
1.0
 22
0.0
 32
0.0
 13
1.0
 23
0.0
 33
0.0
 40
0.0
 40
0.0
 40
0.0
 40
0.0
 40
0.1666666666666667
 40
0.1666666666666667
 40
0.1666666666666667
 40
0.1666666666666667
 40
0.3333333333333333
 40
0.3333333333333333
 40
0.3333333333333333
 40
0.3333333333333333
 40
0.5
 40
0.5
 40
0.5
 40
0.5
 40
0.6666666666666666
 40
0.6666666666666666
 40
0.6666666666666666
 40
0.6666666666666666
 40
1.0
 40
1.0
 40
1.0
 40
1.0
 10
138.4529
 20
40.4978
 30
0.0
 10
138.4529
 20
40.4978
 30
0.0
 10
138.4529
 20
27.546
 30
0.0
 10
138.4529
 20
27.546
 30
0.0
 10
138.4529
 20
27.546
 30
0.0
 10
138.4529
 20
27.546
 30
0.0
 10
133.1413
 20
27.546
 30
0.0
 10
133.1413
 20
27.546
 30
0.0
 10
133.1413
 20
27.546
 30
0.0
 10
133.1413
 20
27.546
 30
0.0
 10
133.1413
 20
40.498
 30
0.0
 10
133.1413
 20
40.498
 30
0.0
 10
133.1413
 20
40.498
 30
0.0
 10
133.1413
 20
40.498
 30
0.0
 10
138.4529
 20
40.498
 30
0.0
 10
138.4529
 20
40.498
 30
0.0
 10
138.4529
 20
40.498
 30
0.0
 10
138.4529
 20
40.498
 30
0.0
 10
138.4529
 20
40.4978
 30
0.0
 10
138.4529
 20
40.4978
 30
0.0
  0
SPLINE
  5
E2
330
1F
100
AcDbEntity
  8
layer 1
 62
     7
100
AcDbSpline
210
0.0
220
0.0
230
1.0
 70
    11
 71
     3
 72
    28
 73
    24
 74
     0
 42
0.0000000001
 43
0.0000000001
 12
1.0
 22
0.0
 32
0.0
 13
1.0
 23
0.0
 33
0.0
 40
0.0
 40
0.0
 40
0.0
 40
0.0
 40
0.1428571428571428
 40
0.1428571428571428
 40
0.1428571428571428
 40
0.1428571428571428
 40
0.2857142857142857
 40
0.2857142857142857
 40
0.2857142857142857
 40
0.2857142857142857
 40
0.4285714285714285
 40
0.4285714285714285
 40
0.4285714285714285
 40
0.4285714285714285
 40
0.5714285714285714
 40
0.5714285714285714
 40
0.5714285714285714
 40
0.5714285714285714
 40
0.7142857142857143
 40
0.7142857142857143
 40
0.7142857142857143
 40
0.7142857142857143
 40
1.0
 40
1.0
 40
1.0
 40
1.0
 10
122.1097
 20
-42.5051
 30
0.0
 10
122.1097
 20
-42.5051
 30
0.0
 10
114.5509
 20
-42.5051
 30
0.0
 10
114.5509
 20
-42.5051
 30
0.0
 10
114.5509
 20
-42.5051
 30
0.0
 10
114.5509
 20
-42.5051
 30
0.0
 10
114.5509
 20
-54.9669
 30
0.0
 10
114.5509
 20
-54.9669
 30
0.0
 10
114.5509
 20
-54.9669
 30
0.0
 10
114.5509
 20
-54.9669
 30
0.0
 10
109.4438
 20
-54.9669
 30
0.0
 10
109.4438
 20
-54.9669
 30
0.0
 10
109.4438
 20
-54.9669
 30
0.0
 10
109.4438
 20
-54.9669
 30
0.0
 10
109.4438
 20
-37.398
 30
0.0
 10
109.4438
 20
-37.398
 30
0.0
 10
109.4438
 20
-37.398
 30
0.0
 10
109.4438
 20
-37.398
 30
0.0
 10
122.1097
 20
-37.398
 30
0.0
 10
122.1097
 20
-37.398
 30
0.0
 10
122.1097
 20
-37.398
 30
0.0
 10
122.1097
 20
-37.398
 30
0.0
 10
122.1097
 20
-42.5051
 30
0.0
 10
122.1097
 20
-42.5051
 30
0.0
  0
SPLINE
  5
E3
330
1F
100
AcDbEntity
  8
layer 1
 62
     7
100
AcDbSpline
210
0.0
220
0.0
230
1.0
 70
    11
 71
     3
 72
    32
 73
    28
 74
     0
 42
0.0000000001
 43
0.0000000001
 12
1.0
 22
0.0
 32
0.0
 13
1.0
 23
0.0
 33
0.0
 40
0.0
 40
0.0
 40
0.0
 40
0.0
 40
0.125
 40
0.125
 40
0.125
 40
0.125
 40
0.25
 40
0.25
 40
0.25
 40
0.25
 40
0.375
 40
0.375
 40
0.375
 40
0.375
 40
0.5
 40
0.5
 40
0.5
 40
0.5
 40
0.625
 40
0.625
 40
0.625
 40
0.625
 40
0.75
 40
0.75
 40
0.75
 40
0.75
 40
1.0
 40
1.0
 40
1.0
 40
1.0
 10
101.885
 20
-42.5051
 30
0.0
 10
101.885
 20
-42.5051
 30
0.0
 10
94.3262
 20
-42.5051
 30
0.0
 10
94.3262
 20
-42.5051
 30
0.0
 10
94.3262
 20
-42.5051
 30
0.0
 10
94.3262
 20
-42.5051
 30
0.0
 10
94.3262
 20
-37.398
 30
0.0
 10
94.3262
 20
-37.398
 30
0.0
 10
94.3262
 20
-37.398
 30
0.0
 10
94.3262
 20
-37.398
 30
0.0
 10
106.9921
 20
-37.398
 30
0.0
 10
106.9921
 20
-37.398
 30
0.0
 10
106.9921
 20
-37.398
 30
0.0
 10
106.9921
 20
-37.398
 30
0.0
 10
106.9921
 20
-54.9669
 30
0.0
 10
106.9921
 20
-54.9669
 30
0.0
 10
106.9921
 20
-54.9669
 30
0.0
 10
106.9921
 20
-54.9669
 30
0.0
 10
101.885
 20
-54.9669
 30
0.0
 10
101.885
 20
-54.9669
 30
0.0
 10
101.885
 20
-54.9669
 30
0.0
 10
101.885
 20
-54.9669
 30
0.0
 10
101.885
 20
-42.5051
 30
0.0
 10
101.885
 20
-42.5051
 30
0.0
 10
101.885
 20
-42.5051
 30
0.0
 10
101.885
 20
-42.5051
 30
0.0
 10
101.885
 20
-42.5051
 30
0.0
 10
101.885
 20
-42.5051
 30
0.0
  0
SPLINE
  5
E4
330
1F
100
AcDbEntity
  8
layer 1
 62
     7
100
AcDbSpline
210
0.0
220
0.0
230
1.0
 70
    11
 71
     3
 72
    32
 73
    28
 74
     0
 42
0.0000000001
 43
0.0000000001
 12
1.0
 22
0.0
 32
0.0
 13
1.0
 23
0.0
 33
0.0
 40
0.0
 40
0.0
 40
0.0
 40
0.0
 40
0.125
 40
0.125
 40
0.125
 40
0.125
 40
0.25
 40
0.25
 40
0.25
 40
0.25
 40
0.375
 40
0.375
 40
0.375
 40
0.375
 40
0.5
 40
0.5
 40
0.5
 40
0.5
 40
0.625
 40
0.625
 40
0.625
 40
0.625
 40
0.75
 40
0.75
 40
0.75
 40
0.75
 40
1.0
 40
1.0
 40
1.0
 40
1.0
 10
130.6899
 20
-94.5993
 30
0.0
 10
130.6899
 20
-94.5993
 30
0.0
 10
118.2282
 20
-94.5993
 30
0.0
 10
118.2282
 20
-94.5993
 30
0.0
 10
118.2282
 20
-94.5993
 30
0.0
 10
118.2282
 20
-94.5993
 30
0.0
 10
118.2282
 20
-77.439
 30
0.0
 10
118.2282
 20
-77.439
 30
0.0
 10
118.2282
 20
-77.439
 30
0.0
 10
118.2282
 20
-77.439
 30
0.0
 10
124.5613
 20
-77.439
 30
0.0
 10
124.5613
 20
-77.439
 30
0.0
 10
124.5613
 20
-77.439
 30
0.0
 10
124.5613
 20
-77.439
 30
0.0
 10
124.5613
 20
-69.8802
 30
0.0
 10
124.5613
 20
-69.8802
 30
0.0
 10
124.5613
 20
-69.8802
 30
0.0
 10
124.5613
 20
-69.8802
 30
0.0
 10
130.6899
 20
-69.8802
 30
0.0
 10
130.6899
 20
-69.8802
 30
0.0
 10
130.6899
 20
-69.8802
 30
0.0
 10
130.6899
 20
-69.8802
 30
0.0
 10
130.6899
 20
-94.5993
 30
0.0
 10
130.6899
 20
-94.5993
 30
0.0
 10
130.6899
 20
-94.5993
 30
0.0
 10
130.6899
 20
-94.5993
 30
0.0
 10
130.6899
 20
-94.5993
 30
0.0
 10
130.6899
 20
-94.5993
 30
0.0
  0
SPLINE
  5
E5
330
1F
100
AcDbEntity
  8
layer 1
 62
     7
100
AcDbSpline
210
0.0
220
0.0
230
1.0
 70
    11
 71
     3
 72
    24
 73
    20
 74
     0
 42
0.0000000001
 43
0.0000000001
 12
1.0
 22
0.0
 32
0.0
 13
1.0
 23
0.0
 33
0.0
 40
0.0
 40
0.0
 40
0.0
 40
0.0
 40
0.1666666666666667
 40
0.1666666666666667
 40
0.1666666666666667
 40
0.1666666666666667
 40
0.3333333333333333
 40
0.3333333333333333
 40
0.3333333333333333
 40
0.3333333333333333
 40
0.5
 40
0.5
 40
0.5
 40
0.5
 40
0.6666666666666666
 40
0.6666666666666666
 40
0.6666666666666666
 40
0.6666666666666666
 40
1.0
 40
1.0
 40
1.0
 40
1.0
 10
109.4438
 20
-94.5993
 30
0.0
 10
109.4438
 20
-94.5993
 30
0.0
 10
115.7766
 20
-94.5993
 30
0.0
 10
115.7766
 20
-94.5993
 30
0.0
 10
115.7766
 20
-94.5993
 30
0.0
 10
115.7766
 20
-94.5993
 30
0.0
 10
115.7766
 20
-77.439
 30
0.0
 10
115.7766
 20
-77.439
 30
0.0
 10
115.7766
 20
-77.439
 30
0.0
 10
115.7766
 20
-77.439
 30
0.0
 10
109.4438
 20
-77.439
 30
0.0
 10
109.4438
 20
-77.439
 30
0.0
 10
109.4438
 20
-77.439
 30
0.0
 10
109.4438
 20
-77.439
 30
0.0
 10
109.4438
 20
-94.5993
 30
0.0
 10
109.4438
 20
-94.5993
 30
0.0
 10
109.4438
 20
-94.5993
 30
0.0
 10
109.4438
 20
-94.5993
 30
0.0
 10
109.4438
 20
-94.5993
 30
0.0
 10
109.4438
 20
-94.5993
 30
0.0
  0
SPLINE
  5
E6
330
1F
100
AcDbEntity
  8
layer 1
 62
     7
100
AcDbSpline
210
0.0
220
0.0
230
1.0
 70
    11
 71
     3
 72
    24
 73
    20
 74
     0
 42
0.0000000001
 43
0.0000000001
 12
1.0
 22
0.0
 32
0.0
 13
1.0
 23
0.0
 33
0.0
 40
0.0
 40
0.0
 40
0.0
 40
0.0
 40
0.1666666666666667
 40
0.1666666666666667
 40
0.1666666666666667
 40
0.1666666666666667
 40
0.3333333333333333
 40
0.3333333333333333
 40
0.3333333333333333
 40
0.3333333333333333
 40
0.5
 40
0.5
 40
0.5
 40
0.5
 40
0.6666666666666666
 40
0.6666666666666666
 40
0.6666666666666666
 40
0.6666666666666666
 40
1.0
 40
1.0
 40
1.0
 40
1.0
 10
100.6593
 20
-77.439
 30
0.0
 10
100.6593
 20
-77.439
 30
0.0
 10
106.9921
 20
-77.439
 30
0.0
 10
106.9921
 20
-77.439
 30
0.0
 10
106.9921
 20
-77.439
 30
0.0
 10
106.9921
 20
-77.439
 30
0.0
 10
106.9921
 20
-94.5993
 30
0.0
 10
106.9921
 20
-94.5993
 30
0.0
 10
106.9921
 20
-94.5993
 30
0.0
 10
106.9921
 20
-94.5993
 30
0.0
 10
100.6593
 20
-94.5993
 30
0.0
 10
100.6593
 20
-94.5993
 30
0.0
 10
100.6593
 20
-94.5993
 30
0.0
 10
100.6593
 20
-94.5993
 30
0.0
 10
100.6593
 20
-77.439
 30
0.0
 10
100.6593
 20
-77.439
 30
0.0
 10
100.6593
 20
-77.439
 30
0.0
 10
100.6593
 20
-77.439
 30
0.0
 10
100.6593
 20
-77.439
 30
0.0
 10
100.6593
 20
-77.439
 30
0.0
  0
SPLINE
  5
E7
330
1F
100
AcDbEntity
  8
layer 1
 62
     7
100
AcDbSpline
210
0.0
220
0.0
230
1.0
 70
    11
 71
     3
 72
    32
 73
    28
 74
     0
 42
0.0000000001
 43
0.0000000001
 12
1.0
 22
0.0
 32
0.0
 13
1.0
 23
0.0
 33
0.0
 40
0.0
 40
0.0
 40
0.0
 40
0.0
 40
0.125
 40
0.125
 40
0.125
 40
0.125
 40
0.25
 40
0.25
 40
0.25
 40
0.25
 40
0.375
 40
0.375
 40
0.375
 40
0.375
 40
0.5
 40
0.5
 40
0.5
 40
0.5
 40
0.625
 40
0.625
 40
0.625
 40
0.625
 40
0.75
 40
0.75
 40
0.75
 40
0.75
 40
1.0
 40
1.0
 40
1.0
 40
1.0
 10
122.1097
 20
-69.8802
 30
0.0
 10
122.1097
 20
-69.8802
 30
0.0
 10
114.5509
 20
-69.8802
 30
0.0
 10
114.5509
 20
-69.8802
 30
0.0
 10
114.5509
 20
-69.8802
 30
0.0
 10
114.5509
 20
-69.8802
 30
0.0
 10
114.5509
 20
-57.4185
 30
0.0
 10
114.5509
 20
-57.4185
 30
0.0
 10
114.5509
 20
-57.4185
 30
0.0
 10
114.5509
 20
-57.4185
 30
0.0
 10
109.4438
 20
-57.4185
 30
0.0
 10
109.4438
 20
-57.4185
 30
0.0
 10
109.4438
 20
-57.4185
 30
0.0
 10
109.4438
 20
-57.4185
 30
0.0
 10
109.4438
 20
-74.9873
 30
0.0
 10
109.4438
 20
-74.9873
 30
0.0
 10
109.4438
 20
-74.9873
 30
0.0
 10
109.4438
 20
-74.9873
 30
0.0
 10
122.1097
 20
-74.9873
 30
0.0
 10
122.1097
 20
-74.9873
 30
0.0
 10
122.1097
 20
-74.9873
 30
0.0
 10
122.1097
 20
-74.9873
 30
0.0
 10
122.1097
 20
-69.8802
 30
0.0
 10
122.1097
 20
-69.8802
 30
0.0
 10
122.1097
 20
-69.8802
 30
0.0
 10
122.1097
 20
-69.8802
 30
0.0
 10
122.1097
 20
-69.8802
 30
0.0
 10
122.1097
 20
-69.8802
 30
0.0
  0
SPLINE
  5
E8
330
1F
100
AcDbEntity
  8
layer 1
 62
     7
100
AcDbSpline
210
0.0
220
0.0
230
1.0
 70
    11
 71
     3
 72
    32
 73
    28
 74
     0
 42
0.0000000001
 43
0.0000000001
 12
1.0
 22
0.0
 32
0.0
 13
1.0
 23
0.0
 33
0.0
 40
0.0
 40
0.0
 40
0.0
 40
0.0
 40
0.125
 40
0.125
 40
0.125
 40
0.125
 40
0.25
 40
0.25
 40
0.25
 40
0.25
 40
0.375
 40
0.375
 40
0.375
 40
0.375
 40
0.5
 40
0.5
 40
0.5
 40
0.5
 40
0.625
 40
0.625
 40
0.625
 40
0.625
 40
0.75
 40
0.75
 40
0.75
 40
0.75
 40
1.0
 40
1.0
 40
1.0
 40
1.0
 10
101.885
 20
-69.8802
 30
0.0
 10
101.885
 20
-69.8802
 30
0.0
 10
94.3262
 20
-69.8802
 30
0.0
 10
94.3262
 20
-69.8802
 30
0.0
 10
94.3262
 20
-69.8802
 30
0.0
 10
94.3262
 20
-69.8802
 30
0.0
 10
94.3262
 20
-74.9873
 30
0.0
 10
94.3262
 20
-74.9873
 30
0.0
 10
94.3262
 20
-74.9873
 30
0.0
 10
94.3262
 20
-74.9873
 30
0.0
 10
106.9921
 20
-74.9873
 30
0.0
 10
106.9921
 20
-74.9873
 30
0.0
 10
106.9921
 20
-74.9873
 30
0.0
 10
106.9921
 20
-74.9873
 30
0.0
 10
106.9921
 20
-57.4185
 30
0.0
 10
106.9921
 20
-57.4185
 30
0.0
 10
106.9921
 20
-57.4185
 30
0.0
 10
106.9921
 20
-57.4185
 30
0.0
 10
101.885
 20
-57.4185
 30
0.0
 10
101.885
 20
-57.4185
 30
0.0
 10
101.885
 20
-57.4185
 30
0.0
 10
101.885
 20
-57.4185
 30
0.0
 10
101.885
 20
-69.8802
 30
0.0
 10
101.885
 20
-69.8802
 30
0.0
 10
101.885
 20
-69.8802
 30
0.0
 10
101.885
 20
-69.8802
 30
0.0
 10
101.885
 20
-69.8802
 30
0.0
 10
101.885
 20
-69.8802
 30
0.0
  0
SPLINE
  5
E9
330
1F
100
AcDbEntity
  8
layer 1
 62
     7
100
AcDbSpline
210
0.0
220
0.0
230
1.0
 70
    11
 71
     3
 72
    32
 73
    28
 74
     0
 42
0.0000000001
 43
0.0000000001
 12
1.0
 22
0.0
 32
0.0
 13
1.0
 23
0.0
 33
0.0
 40
0.0
 40
0.0
 40
0.0
 40
0.0
 40
0.125
 40
0.125
 40
0.125
 40
0.125
 40
0.25
 40
0.25
 40
0.25
 40
0.25
 40
0.375
 40
0.375
 40
0.375
 40
0.375
 40
0.5
 40
0.5
 40
0.5
 40
0.5
 40
0.625
 40
0.625
 40
0.625
 40
0.625
 40
0.75
 40
0.75
 40
0.75
 40
0.75
 40
1.0
 40
1.0
 40
1.0
 40
1.0
 10
83.2946
 20
-77.3368
 30
0.0
 10
83.2946
 20
-77.3368
 30
0.0
 10
77.983
 20
-77.3368
 30
0.0
 10
77.983
 20
-77.3368
 30
0.0
 10
77.983
 20
-77.3368
 30
0.0
 10
77.983
 20
-77.3368
 30
0.0
 10
77.983
 20
-57.4185
 30
0.0
 10
77.983
 20
-57.4185
 30
0.0
 10
77.983
 20
-57.4185
 30
0.0
 10
77.983
 20
-57.4185
 30
0.0
 10
91.8746
 20
-57.4185
 30
0.0
 10
91.8746
 20
-57.4185
 30
0.0
 10
91.8746
 20
-57.4185
 30
0.0
 10
91.8746
 20
-57.4185
 30
0.0
 10
91.8746
 20
-67.4286
 30
0.0
 10
91.8746
 20
-67.4286
 30
0.0
 10
91.8746
 20
-67.4286
 30
0.0
 10
91.8746
 20
-67.4286
 30
0.0
 10
83.2946
 20
-67.4286
 30
0.0
 10
83.2946
 20
-67.4286
 30
0.0
 10
83.2946
 20
-67.4286
 30
0.0
 10
83.2946
 20
-67.4286
 30
0.0
 10
83.2946
 20
-77.3368
 30
0.0
 10
83.2946
 20
-77.3368
 30
0.0
 10
83.2946
 20
-77.3368
 30
0.0
 10
83.2946
 20
-77.3368
 30
0.0
 10
83.2946
 20
-77.3368
 30
0.0
 10
83.2946
 20
-77.3368
 30
0.0
  0
SPLINE
  5
EA
330
1F
100
AcDbEntity
  8
layer 1
 62
     7
100
AcDbSpline
210
0.0
220
0.0
230
1.0
 70
    11
 71
     3
 72
    32
 73
    28
 74
     0
 42
0.0000000001
 43
0.0000000001
 12
1.0
 22
0.0
 32
0.0
 13
1.0
 23
0.0
 33
0.0
 40
0.0
 40
0.0
 40
0.0
 40
0.0
 40
0.125
 40
0.125
 40
0.125
 40
0.125
 40
0.25
 40
0.25
 40
0.25
 40
0.25
 40
0.375
 40
0.375
 40
0.375
 40
0.375
 40
0.5
 40
0.5
 40
0.5
 40
0.5
 40
0.625
 40
0.625
 40
0.625
 40
0.625
 40
0.75
 40
0.75
 40
0.75
 40
0.75
 40
1.0
 40
1.0
 40
1.0
 40
1.0
 10
133.1413
 20
-77.3368
 30
0.0
 10
133.1413
 20
-77.3368
 30
0.0
 10
138.4529
 20
-77.3368
 30
0.0
 10
138.4529
 20
-77.3368
 30
0.0
 10
138.4529
 20
-77.3368
 30
0.0
 10
138.4529
 20
-77.3368
 30
0.0
 10
138.4529
 20
-57.4185
 30
0.0
 10
138.4529
 20
-57.4185
 30
0.0
 10
138.4529
 20
-57.4185
 30
0.0
 10
138.4529
 20
-57.4185
 30
0.0
 10
124.5613
 20
-57.4185
 30
0.0
 10
124.5613
 20
-57.4185
 30
0.0
 10
124.5613
 20
-57.4185
 30
0.0
 10
124.5613
 20
-57.4185
 30
0.0
 10
124.5613
 20
-67.4286
 30
0.0
 10
124.5613
 20
-67.4286
 30
0.0
 10
124.5613
 20
-67.4286
 30
0.0
 10
124.5613
 20
-67.4286
 30
0.0
 10
133.1413
 20
-67.4286
 30
0.0
 10
133.1413
 20
-67.4286
 30
0.0
 10
133.1413
 20
-67.4286
 30
0.0
 10
133.1413
 20
-67.4286
 30
0.0
 10
133.1413
 20
-77.3368
 30
0.0
 10
133.1413
 20
-77.3368
 30
0.0
 10
133.1413
 20
-77.3368
 30
0.0
 10
133.1413
 20
-77.3368
 30
0.0
 10
133.1413
 20
-77.3368
 30
0.0
 10
133.1413
 20
-77.3368
 30
0.0
  0
SPLINE
  5
EB
330
1F
100
AcDbEntity
  8
layer 1
 62
     7
100
AcDbSpline
210
0.0
220
0.0
230
1.0
 70
    11
 71
     3
 72
    24
 73
    20
 74
     0
 42
0.0000000001
 43
0.0000000001
 12
1.0
 22
0.0
 32
0.0
 13
1.0
 23
0.0
 33
0.0
 40
0.0
 40
0.0
 40
0.0
 40
0.0
 40
0.1666666666666667
 40
0.1666666666666667
 40
0.1666666666666667
 40
0.1666666666666667
 40
0.3333333333333333
 40
0.3333333333333333
 40
0.3333333333333333
 40
0.3333333333333333
 40
0.5
 40
0.5
 40
0.5
 40
0.5
 40
0.6666666666666666
 40
0.6666666666666666
 40
0.6666666666666666
 40
0.6666666666666666
 40
1.0
 40
1.0
 40
1.0
 40
1.0
 10
133.1413
 20
-94.5993
 30
0.0
 10
133.1413
 20
-94.5993
 30
0.0
 10
138.4529
 20
-94.5993
 30
0.0
 10
138.4529
 20
-94.5993
 30
0.0
 10
138.4529
 20
-94.5993
 30
0.0
 10
138.4529
 20
-94.5993
 30
0.0
 10
138.4529
 20
-79.7881
 30
0.0
 10
138.4529
 20
-79.7881
 30
0.0
 10
138.4529
 20
-79.7881
 30
0.0
 10
138.4529
 20
-79.7881
 30
0.0
 10
133.1413
 20
-79.7881
 30
0.0
 10
133.1413
 20
-79.7881
 30
0.0
 10
133.1413
 20
-79.7881
 30
0.0
 10
133.1413
 20
-79.7881
 30
0.0
 10
133.1413
 20
-94.5993
 30
0.0
 10
133.1413
 20
-94.5993
 30
0.0
 10
133.1413
 20
-94.5993
 30
0.0
 10
133.1413
 20
-94.5993
 30
0.0
 10
133.1413
 20
-94.5993
 30
0.0
 10
133.1413
 20
-94.5993
 30
0.0
  0
SPLINE
  5
EC
330
1F
100
AcDbEntity
  8
layer 1
 62
     7
100
AcDbSpline
210
0.0
220
0.0
230
1.0
 70
    11
 71
     3
 72
    32
 73
    28
 74
     0
 42
0.0000000001
 43
0.0000000001
 12
1.0
 22
0.0
 32
0.0
 13
1.0
 23
0.0
 33
0.0
 40
0.0
 40
0.0
 40
0.0
 40
0.0
 40
0.125
 40
0.125
 40
0.125
 40
0.125
 40
0.25
 40
0.25
 40
0.25
 40
0.25
 40
0.375
 40
0.375
 40
0.375
 40
0.375
 40
0.5
 40
0.5
 40
0.5
 40
0.5
 40
0.625
 40
0.625
 40
0.625
 40
0.625
 40
0.75
 40
0.75
 40
0.75
 40
0.75
 40
1.0
 40
1.0
 40
1.0
 40
1.0
 10
185.0311
 20
-9.737
 30
0.0
 10
185.0311
 20
-9.737
 30
0.0
 10
177.4723
 20
-9.737
 30
0.0
 10
177.4723
 20
-9.737
 30
0.0
 10
177.4723
 20
-9.737
 30
0.0
 10
177.4723
 20
-9.737
 30
0.0
 10
177.4723
 20
2.7247
 30
0.0
 10
177.4723
 20
2.7247
 30
0.0
 10
177.4723
 20
2.7247
 30
0.0
 10
177.4723
 20
2.7247
 30
0.0
 10
172.3652
 20
2.7247
 30
0.0
 10
172.3652
 20
2.7247
 30
0.0
 10
172.3652
 20
2.7247
 30
0.0
 10
172.3652
 20
2.7247
 30
0.0
 10
172.3652
 20
-14.8444
 30
0.0
 10
172.3652
 20
-14.8444
 30
0.0
 10
172.3652
 20
-14.8444
 30
0.0
 10
172.3652
 20
-14.8444
 30
0.0
 10
185.0311
 20
-14.8444
 30
0.0
 10
185.0311
 20
-14.8444
 30
0.0
 10
185.0311
 20
-14.8444
 30
0.0
 10
185.0311
 20
-14.8444
 30
0.0
 10
185.0311
 20
-9.737
 30
0.0
 10
185.0311
 20
-9.737
 30
0.0
 10
185.0311
 20
-9.737
 30
0.0
 10
185.0311
 20
-9.737
 30
0.0
 10
185.0311
 20
-9.737
 30
0.0
 10
185.0311
 20
-9.737
 30
0.0
  0
SPLINE
  5
ED
330
1F
100
AcDbEntity
  8
layer 1
 62
     7
100
AcDbSpline
210
0.0
220
0.0
230
1.0
 70
    11
 71
     3
 72
    32
 73
    28
 74
     0
 42
0.0000000001
 43
0.0000000001
 12
1.0
 22
0.0
 32
0.0
 13
1.0
 23
0.0
 33
0.0
 40
0.0
 40
0.0
 40
0.0
 40
0.0
 40
0.125
 40
0.125
 40
0.125
 40
0.125
 40
0.25
 40
0.25
 40
0.25
 40
0.25
 40
0.375
 40
0.375
 40
0.375
 40
0.375
 40
0.5
 40
0.5
 40
0.5
 40
0.5
 40
0.625
 40
0.625
 40
0.625
 40
0.625
 40
0.75
 40
0.75
 40
0.75
 40
0.75
 40
1.0
 40
1.0
 40
1.0
 40
1.0
 10
164.8064
 20
-9.737
 30
0.0
 10
164.8064
 20
-9.737
 30
0.0
 10
157.2477
 20
-9.737
 30
0.0
 10
157.2477
 20
-9.737
 30
0.0
 10
157.2477
 20
-9.737
 30
0.0
 10
157.2477
 20
-9.737
 30
0.0
 10
157.2477
 20
-14.8444
 30
0.0
 10
157.2477
 20
-14.8444
 30
0.0
 10
157.2477
 20
-14.8444
 30
0.0
 10
157.2477
 20
-14.8444
 30
0.0
 10
169.9136
 20
-14.8444
 30
0.0
 10
169.9136
 20
-14.8444
 30
0.0
 10
169.9136
 20
-14.8444
 30
0.0
 10
169.9136
 20
-14.8444
 30
0.0
 10
169.9136
 20
2.7247
 30
0.0
 10
169.9136
 20
2.7247
 30
0.0
 10
169.9136
 20
2.7247
 30
0.0
 10
169.9136
 20
2.7247
 30
0.0
 10
164.8064
 20
2.7247
 30
0.0
 10
164.8064
 20
2.7247
 30
0.0
 10
164.8064
 20
2.7247
 30
0.0
 10
164.8064
 20
2.7247
 30
0.0
 10
164.8064
 20
-9.737
 30
0.0
 10
164.8064
 20
-9.737
 30
0.0
 10
164.8064
 20
-9.737
 30
0.0
 10
164.8064
 20
-9.737
 30
0.0
 10
164.8064
 20
-9.737
 30
0.0
 10
164.8064
 20
-9.737
 30
0.0
  0
SPLINE
  5
EE
330
1F
100
AcDbEntity
  8
layer 1
 62
     7
100
AcDbSpline
210
0.0
220
0.0
230
1.0
 70
    11
 71
     3
 72
    24
 73
    20
 74
     0
 42
0.0000000001
 43
0.0000000001
 12
1.0
 22
0.0
 32
0.0
 13
1.0
 23
0.0
 33
0.0
 40
0.0
 40
0.0
 40
0.0
 40
0.0
 40
0.1666666666666667
 40
0.1666666666666667
 40
0.1666666666666667
 40
0.1666666666666667
 40
0.3333333333333333
 40
0.3333333333333333
 40
0.3333333333333333
 40
0.3333333333333333
 40
0.5
 40
0.5
 40
0.5
 40
0.5
 40
0.6666666666666666
 40
0.6666666666666666
 40
0.6666666666666666
 40
0.6666666666666666
 40
1.0
 40
1.0
 40
1.0
 40
1.0
 10
163.5805
 20
42.8472
 30
0.0
 10
163.5805
 20
42.8472
 30
0.0
 10
169.9136
 20
42.8472
 30
0.0
 10
169.9136
 20
42.8472
 30
0.0
 10
169.9136
 20
42.8472
 30
0.0
 10
169.9136
 20
42.8472
 30
0.0
 10
169.9136
 20
25.1966
 30
0.0
 10
169.9136
 20
25.1966
 30
0.0
 10
169.9136
 20
25.1966
 30
0.0
 10
169.9136
 20
25.1966
 30
0.0
 10
163.5805
 20
25.1966
 30
0.0
 10
163.5805
 20
25.1966
 30
0.0
 10
163.5805
 20
25.1966
 30
0.0
 10
163.5805
 20
25.1966
 30
0.0
 10
163.5805
 20
42.8472
 30
0.0
 10
163.5805
 20
42.8472
 30
0.0
 10
163.5805
 20
42.8472
 30
0.0
 10
163.5805
 20
42.8472
 30
0.0
 10
163.5805
 20
42.8472
 30
0.0
 10
163.5805
 20
42.8472
 30
0.0
  0
SPLINE
  5
EF
330
1F
100
AcDbEntity
  8
layer 1
 62
     7
100
AcDbSpline
210
0.0
220
0.0
230
1.0
 70
    11
 71
     3
 72
    40
 73
    36
 74
     0
 42
0.0000000001
 43
0.0000000001
 12
1.0
 22
0.0
 32
0.0
 13
1.0
 23
0.0
 33
0.0
 40
0.0
 40
0.0
 40
0.0
 40
0.0
 40
0.1
 40
0.1
 40
0.1
 40
0.1
 40
0.2
 40
0.2
 40
0.2
 40
0.2
 40
0.3
 40
0.3
 40
0.3
 40
0.3
 40
0.4
 40
0.4
 40
0.4
 40
0.4
 40
0.5
 40
0.5
 40
0.5
 40
0.5
 40
0.6
 40
0.6
 40
0.6
 40
0.6
 40
0.7
 40
0.7
 40
0.7
 40
0.7
 40
0.8
 40
0.8
 40
0.8
 40
0.8
 40
1.0
 40
1.0
 40
1.0
 40
1.0
 10
181.1496
 20
42.8472
 30
0.0
 10
181.1496
 20
42.8472
 30
0.0
 10
187.4825
 20
42.8472
 30
0.0
 10
187.4825
 20
42.8472
 30
0.0
 10
187.4825
 20
42.8472
 30
0.0
 10
187.4825
 20
42.8472
 30
0.0
 10
187.4825
 20
50.406
 30
0.0
 10
187.4825
 20
50.406
 30
0.0
 10
187.4825
 20
50.406
 30
0.0
 10
187.4825
 20
50.406
 30
0.0
 10
193.5297
 20
50.406
 30
0.0
 10
193.5297
 20
50.406
 30
0.0
 10
193.5297
 20
50.406
 30
0.0
 10
193.5297
 20
50.406
 30
0.0
 10
193.5297
 20
17.6379
 30
0.0
 10
193.5297
 20
17.6379
 30
0.0
 10
193.5297
 20
17.6379
 30
0.0
 10
193.5297
 20
17.6379
 30
0.0
 10
187.4825
 20
17.6379
 30
0.0
 10
187.4825
 20
17.6379
 30
0.0
 10
187.4825
 20
17.6379
 30
0.0
 10
187.4825
 20
17.6379
 30
0.0
 10
187.4825
 20
25.1966
 30
0.0
 10
187.4825
 20
25.1966
 30
0.0
 10
187.4825
 20
25.1966
 30
0.0
 10
187.4825
 20
25.1966
 30
0.0
 10
181.1496
 20
25.1966
 30
0.0
 10
181.1496
 20
25.1966
 30
0.0
 10
181.1496
 20
25.1966
 30
0.0
 10
181.1496
 20
25.1966
 30
0.0
 10
181.1496
 20
42.8472
 30
0.0
 10
181.1496
 20
42.8472
 30
0.0
 10
181.1496
 20
42.8472
 30
0.0
 10
181.1496
 20
42.8472
 30
0.0
 10
181.1496
 20
42.8472
 30
0.0
 10
181.1496
 20
42.8472
 30
0.0
  0
SPLINE
  5
F0
330
1F
100
AcDbEntity
  8
layer 1
 62
     7
100
AcDbSpline
210
0.0
220
0.0
230
1.0
 70
    11
 71
     3
 72
    20
 73
    16
 74
     0
 42
0.0000000001
 43
0.0000000001
 12
1.0
 22
0.0
 32
0.0
 13
1.0
 23
0.0
 33
0.0
 40
0.0
 40
0.0
 40
0.0
 40
0.0
 40
0.2
 40
0.2
 40
0.2
 40
0.2
 40
0.4
 40
0.4
 40
0.4
 40
0.4
 40
0.6
 40
0.6
 40
0.6
 40
0.6
 40
1.0
 40
1.0
 40
1.0
 40
1.0
 10
178.698
 20
42.8472
 30
0.0
 10
178.698
 20
42.8472
 30
0.0
 10
172.3652
 20
42.8472
 30
0.0
 10
172.3652
 20
42.8472
 30
0.0
 10
172.3652
 20
42.8472
 30
0.0
 10
172.3652
 20
42.8472
 30
0.0
 10
172.3652
 20
25.1966
 30
0.0
 10
172.3652
 20
25.1966
 30
0.0
 10
172.3652
 20
25.1966
 30
0.0
 10
172.3652
 20
25.1966
 30
0.0
 10
178.698
 20
25.1966
 30
0.0
 10
178.698
 20
25.1966
 30
0.0
 10
178.698
 20
25.1966
 30
0.0
 10
178.698
 20
25.1966
 30
0.0
 10
178.698
 20
42.8472
 30
0.0
 10
178.698
 20
42.8472
 30
0.0
  0
SPLINE
  5
F1
330
1F
100
AcDbEntity
  8
layer 1
 62
     7
100
AcDbSpline
210
0.0
220
0.0
230
1.0
 70
    11
 71
     3
 72
    20
 73
    16
 74
     0
 42
0.0000000001
 43
0.0000000001
 12
1.0
 22
0.0
 32
0.0
 13
1.0
 23
0.0
 33
0.0
 40
0.0
 40
0.0
 40
0.0
 40
0.0
 40
0.2
 40
0.2
 40
0.2
 40
0.2
 40
0.4
 40
0.4
 40
0.4
 40
0.4
 40
0.6
 40
0.6
 40
0.6
 40
0.6
 40
1.0
 40
1.0
 40
1.0
 40
1.0
 10
193.5297
 20
-7.2856
 30
0.0
 10
193.5297
 20
-7.2856
 30
0.0
 10
193.5297
 20
2.7247
 30
0.0
 10
193.5297
 20
2.7247
 30
0.0
 10
193.5297
 20
2.7247
 30
0.0
 10
193.5297
 20
2.7247
 30
0.0
 10
187.4825
 20
2.7247
 30
0.0
 10
187.4825
 20
2.7247
 30
0.0
 10
187.4825
 20
2.7247
 30
0.0
 10
187.4825
 20
2.7247
 30
0.0
 10
187.4825
 20
-7.2856
 30
0.0
 10
187.4825
 20
-7.2856
 30
0.0
 10
187.4825
 20
-7.2856
 30
0.0
 10
187.4825
 20
-7.2856
 30
0.0
 10
193.5297
 20
-7.2856
 30
0.0
 10
193.5297
 20
-7.2856
 30
0.0
  0
SPLINE
  5
F2
330
1F
100
AcDbEntity
  8
layer 1
 62
     7
100
AcDbSpline
210
0.0
220
0.0
230
1.0
 70
    11
 71
     3
 72
    32
 73
    28
 74
     0
 42
0.0000000001
 43
0.0000000001
 12
1.0
 22
0.0
 32
0.0
 13
1.0
 23
0.0
 33
0.0
 40
0.0
 40
0.0
 40
0.0
 40
0.0
 40
0.125
 40
0.125
 40
0.125
 40
0.125
 40
0.25
 40
0.25
 40
0.25
 40
0.25
 40
0.375
 40
0.375
 40
0.375
 40
0.375
 40
0.5
 40
0.5
 40
0.5
 40
0.5
 40
0.625
 40
0.625
 40
0.625
 40
0.625
 40
0.75
 40
0.75
 40
0.75
 40
0.75
 40
1.0
 40
1.0
 40
1.0
 40
1.0
 10
185.0311
 20
17.6379
 30
0.0
 10
185.0311
 20
17.6379
 30
0.0
 10
177.4723
 20
17.6379
 30
0.0
 10
177.4723
 20
17.6379
 30
0.0
 10
177.4723
 20
17.6379
 30
0.0
 10
177.4723
 20
17.6379
 30
0.0
 10
177.4723
 20
5.1761
 30
0.0
 10
177.4723
 20
5.1761
 30
0.0
 10
177.4723
 20
5.1761
 30
0.0
 10
177.4723
 20
5.1761
 30
0.0
 10
172.3652
 20
5.1761
 30
0.0
 10
172.3652
 20
5.1761
 30
0.0
 10
172.3652
 20
5.1761
 30
0.0
 10
172.3652
 20
5.1761
 30
0.0
 10
172.3652
 20
22.745
 30
0.0
 10
172.3652
 20
22.745
 30
0.0
 10
172.3652
 20
22.745
 30
0.0
 10
172.3652
 20
22.745
 30
0.0
 10
185.0311
 20
22.745
 30
0.0
 10
185.0311
 20
22.745
 30
0.0
 10
185.0311
 20
22.745
 30
0.0
 10
185.0311
 20
22.745
 30
0.0
 10
185.0311
 20
17.6379
 30
0.0
 10
185.0311
 20
17.6379
 30
0.0
 10
185.0311
 20
17.6379
 30
0.0
 10
185.0311
 20
17.6379
 30
0.0
 10
185.0311
 20
17.6379
 30
0.0
 10
185.0311
 20
17.6379
 30
0.0
  0
SPLINE
  5
F3
330
1F
100
AcDbEntity
  8
layer 1
 62
     7
100
AcDbSpline
210
0.0
220
0.0
230
1.0
 70
    11
 71
     3
 72
    32
 73
    28
 74
     0
 42
0.0000000001
 43
0.0000000001
 12
1.0
 22
0.0
 32
0.0
 13
1.0
 23
0.0
 33
0.0
 40
0.0
 40
0.0
 40
0.0
 40
0.0
 40
0.125
 40
0.125
 40
0.125
 40
0.125
 40
0.25
 40
0.25
 40
0.25
 40
0.25
 40
0.375
 40
0.375
 40
0.375
 40
0.375
 40
0.5
 40
0.5
 40
0.5
 40
0.5
 40
0.625
 40
0.625
 40
0.625
 40
0.625
 40
0.75
 40
0.75
 40
0.75
 40
0.75
 40
1.0
 40
1.0
 40
1.0
 40
1.0
 10
164.8064
 20
17.6379
 30
0.0
 10
164.8064
 20
17.6379
 30
0.0
 10
157.2477
 20
17.6379
 30
0.0
 10
157.2477
 20
17.6379
 30
0.0
 10
157.2477
 20
17.6379
 30
0.0
 10
157.2477
 20
17.6379
 30
0.0
 10
157.2477
 20
22.745
 30
0.0
 10
157.2477
 20
22.745
 30
0.0
 10
157.2477
 20
22.745
 30
0.0
 10
157.2477
 20
22.745
 30
0.0
 10
169.9136
 20
22.745
 30
0.0
 10
169.9136
 20
22.745
 30
0.0
 10
169.9136
 20
22.745
 30
0.0
 10
169.9136
 20
22.745
 30
0.0
 10
169.9136
 20
5.1761
 30
0.0
 10
169.9136
 20
5.1761
 30
0.0
 10
169.9136
 20
5.1761
 30
0.0
 10
169.9136
 20
5.1761
 30
0.0
 10
164.8064
 20
5.1761
 30
0.0
 10
164.8064
 20
5.1761
 30
0.0
 10
164.8064
 20
5.1761
 30
0.0
 10
164.8064
 20
5.1761
 30
0.0
 10
164.8064
 20
17.6379
 30
0.0
 10
164.8064
 20
17.6379
 30
0.0
 10
164.8064
 20
17.6379
 30
0.0
 10
164.8064
 20
17.6379
 30
0.0
 10
164.8064
 20
17.6379
 30
0.0
 10
164.8064
 20
17.6379
 30
0.0
  0
SPLINE
  5
F4
330
1F
100
AcDbEntity
  8
layer 1
 62
     7
100
AcDbSpline
210
0.0
220
0.0
230
1.0
 70
    11
 71
     3
 72
    24
 73
    20
 74
     0
 42
0.0000000001
 43
0.0000000001
 12
1.0
 22
0.0
 32
0.0
 13
1.0
 23
0.0
 33
0.0
 40
0.0
 40
0.0
 40
0.0
 40
0.0
 40
0.1666666666666667
 40
0.1666666666666667
 40
0.1666666666666667
 40
0.1666666666666667
 40
0.3333333333333333
 40
0.3333333333333333
 40
0.3333333333333333
 40
0.3333333333333333
 40
0.5
 40
0.5
 40
0.5
 40
0.5
 40
0.6666666666666666
 40
0.6666666666666666
 40
0.6666666666666666
 40
0.6666666666666666
 40
1.0
 40
1.0
 40
1.0
 40
1.0
 10
193.5297
 20
5.1761
 30
0.0
 10
193.5297
 20
5.1761
 30
0.0
 10
193.5297
 20
15.1865
 30
0.0
 10
193.5297
 20
15.1865
 30
0.0
 10
193.5297
 20
15.1865
 30
0.0
 10
193.5297
 20
15.1865
 30
0.0
 10
187.4825
 20
15.1865
 30
0.0
 10
187.4825
 20
15.1865
 30
0.0
 10
187.4825
 20
15.1865
 30
0.0
 10
187.4825
 20
15.1865
 30
0.0
 10
187.4825
 20
5.1761
 30
0.0
 10
187.4825
 20
5.1761
 30
0.0
 10
187.4825
 20
5.1761
 30
0.0
 10
187.4825
 20
5.1761
 30
0.0
 10
193.5297
 20
5.1761
 30
0.0
 10
193.5297
 20
5.1761
 30
0.0
 10
193.5297
 20
5.1761
 30
0.0
 10
193.5297
 20
5.1761
 30
0.0
 10
193.5297
 20
5.1761
 30
0.0
 10
193.5297
 20
5.1761
 30
0.0
  0
SPLINE
  5
F5
330
1F
100
AcDbEntity
  8
layer 1
 62
     7
100
AcDbSpline
210
0.0
220
0.0
230
1.0
 70
    11
 71
     3
 72
    32
 73
    28
 74
     0
 42
0.0000000001
 43
0.0000000001
 12
1.0
 22
0.0
 32
0.0
 13
1.0
 23
0.0
 33
0.0
 40
0.0
 40
0.0
 40
0.0
 40
0.0
 40
0.125
 40
0.125
 40
0.125
 40
0.125
 40
0.25
 40
0.25
 40
0.25
 40
0.25
 40
0.375
 40
0.375
 40
0.375
 40
0.375
 40
0.5
 40
0.5
 40
0.5
 40
0.5
 40
0.625
 40
0.625
 40
0.625
 40
0.625
 40
0.75
 40
0.75
 40
0.75
 40
0.75
 40
1.0
 40
1.0
 40
1.0
 40
1.0
 10
146.216
 20
25.0944
 30
0.0
 10
146.216
 20
25.0944
 30
0.0
 10
140.9045
 20
25.0944
 30
0.0
 10
140.9045
 20
25.0944
 30
0.0
 10
140.9045
 20
25.0944
 30
0.0
 10
140.9045
 20
25.0944
 30
0.0
 10
140.9045
 20
5.1761
 30
0.0
 10
140.9045
 20
5.1761
 30
0.0
 10
140.9045
 20
5.1761
 30
0.0
 10
140.9045
 20
5.1761
 30
0.0
 10
154.7961
 20
5.1761
 30
0.0
 10
154.7961
 20
5.1761
 30
0.0
 10
154.7961
 20
5.1761
 30
0.0
 10
154.7961
 20
5.1761
 30
0.0
 10
154.7961
 20
15.1865
 30
0.0
 10
154.7961
 20
15.1865
 30
0.0
 10
154.7961
 20
15.1865
 30
0.0
 10
154.7961
 20
15.1865
 30
0.0
 10
146.216
 20
15.1865
 30
0.0
 10
146.216
 20
15.1865
 30
0.0
 10
146.216
 20
15.1865
 30
0.0
 10
146.216
 20
15.1865
 30
0.0
 10
146.216
 20
25.0944
 30
0.0
 10
146.216
 20
25.0944
 30
0.0
 10
146.216
 20
25.0944
 30
0.0
 10
146.216
 20
25.0944
 30
0.0
 10
146.216
 20
25.0944
 30
0.0
 10
146.216
 20
25.0944
 30
0.0
  0
SPLINE
  5
F6
330
1F
100
AcDbEntity
  8
layer 1
 62
     7
100
AcDbSpline
210
0.0
220
0.0
230
1.0
 70
    11
 71
     3
 72
    24
 73
    20
 74
     0
 42
0.0000000001
 43
0.0000000001
 12
1.0
 22
0.0
 32
0.0
 13
1.0
 23
0.0
 33
0.0
 40
0.0
 40
0.0
 40
0.0
 40
0.0
 40
0.1666666666666667
 40
0.1666666666666667
 40
0.1666666666666667
 40
0.1666666666666667
 40
0.3333333333333333
 40
0.3333333333333333
 40
0.3333333333333333
 40
0.3333333333333333
 40
0.5
 40
0.5
 40
0.5
 40
0.5
 40
0.6666666666666666
 40
0.6666666666666666
 40
0.6666666666666666
 40
0.6666666666666666
 40
1.0
 40
1.0
 40
1.0
 40
1.0
 10
140.9045
 20
40.4978
 30
0.0
 10
140.9045
 20
40.4978
 30
0.0
 10
140.9045
 20
27.546
 30
0.0
 10
140.9045
 20
27.546
 30
0.0
 10
140.9045
 20
27.546
 30
0.0
 10
140.9045
 20
27.546
 30
0.0
 10
146.216
 20
27.546
 30
0.0
 10
146.216
 20
27.546
 30
0.0
 10
146.216
 20
27.546
 30
0.0
 10
146.216
 20
27.546
 30
0.0
 10
146.216
 20
40.498
 30
0.0
 10
146.216
 20
40.498
 30
0.0
 10
146.216
 20
40.498
 30
0.0
 10
146.216
 20
40.498
 30
0.0
 10
140.9045
 20
40.498
 30
0.0
 10
140.9045
 20
40.498
 30
0.0
 10
140.9045
 20
40.498
 30
0.0
 10
140.9045
 20
40.498
 30
0.0
 10
140.9045
 20
40.4978
 30
0.0
 10
140.9045
 20
40.4978
 30
0.0
  0
SPLINE
  5
F7
330
1F
100
AcDbEntity
  8
layer 1
 62
     7
100
AcDbSpline
210
0.0
220
0.0
230
1.0
 70
    11
 71
     3
 72
    32
 73
    28
 74
     0
 42
0.0000000001
 43
0.0000000001
 12
1.0
 22
0.0
 32
0.0
 13
1.0
 23
0.0
 33
0.0
 40
0.0
 40
0.0
 40
0.0
 40
0.0
 40
0.125
 40
0.125
 40
0.125
 40
0.125
 40
0.25
 40
0.25
 40
0.25
 40
0.25
 40
0.375
 40
0.375
 40
0.375
 40
0.375
 40
0.5
 40
0.5
 40
0.5
 40
0.5
 40
0.625
 40
0.625
 40
0.625
 40
0.625
 40
0.75
 40
0.75
 40
0.75
 40
0.75
 40
1.0
 40
1.0
 40
1.0
 40
1.0
 10
185.0311
 20
-42.5051
 30
0.0
 10
185.0311
 20
-42.5051
 30
0.0
 10
177.4723
 20
-42.5051
 30
0.0
 10
177.4723
 20
-42.5051
 30
0.0
 10
177.4723
 20
-42.5051
 30
0.0
 10
177.4723
 20
-42.5051
 30
0.0
 10
177.4723
 20
-54.9669
 30
0.0
 10
177.4723
 20
-54.9669
 30
0.0
 10
177.4723
 20
-54.9669
 30
0.0
 10
177.4723
 20
-54.9669
 30
0.0
 10
172.3652
 20
-54.9669
 30
0.0
 10
172.3652
 20
-54.9669
 30
0.0
 10
172.3652
 20
-54.9669
 30
0.0
 10
172.3652
 20
-54.9669
 30
0.0
 10
172.3652
 20
-37.398
 30
0.0
 10
172.3652
 20
-37.398
 30
0.0
 10
172.3652
 20
-37.398
 30
0.0
 10
172.3652
 20
-37.398
 30
0.0
 10
185.0311
 20
-37.398
 30
0.0
 10
185.0311
 20
-37.398
 30
0.0
 10
185.0311
 20
-37.398
 30
0.0
 10
185.0311
 20
-37.398
 30
0.0
 10
185.0311
 20
-42.5051
 30
0.0
 10
185.0311
 20
-42.5051
 30
0.0
 10
185.0311
 20
-42.5051
 30
0.0
 10
185.0311
 20
-42.5051
 30
0.0
 10
185.0311
 20
-42.5051
 30
0.0
 10
185.0311
 20
-42.5051
 30
0.0
  0
SPLINE
  5
F8
330
1F
100
AcDbEntity
  8
layer 1
 62
     7
100
AcDbSpline
210
0.0
220
0.0
230
1.0
 70
    11
 71
     3
 72
    32
 73
    28
 74
     0
 42
0.0000000001
 43
0.0000000001
 12
1.0
 22
0.0
 32
0.0
 13
1.0
 23
0.0
 33
0.0
 40
0.0
 40
0.0
 40
0.0
 40
0.0
 40
0.125
 40
0.125
 40
0.125
 40
0.125
 40
0.25
 40
0.25
 40
0.25
 40
0.25
 40
0.375
 40
0.375
 40
0.375
 40
0.375
 40
0.5
 40
0.5
 40
0.5
 40
0.5
 40
0.625
 40
0.625
 40
0.625
 40
0.625
 40
0.75
 40
0.75
 40
0.75
 40
0.75
 40
1.0
 40
1.0
 40
1.0
 40
1.0
 10
164.8064
 20
-42.5051
 30
0.0
 10
164.8064
 20
-42.5051
 30
0.0
 10
157.2477
 20
-42.5051
 30
0.0
 10
157.2477
 20
-42.5051
 30
0.0
 10
157.2477
 20
-42.5051
 30
0.0
 10
157.2477
 20
-42.5051
 30
0.0
 10
157.2477
 20
-37.398
 30
0.0
 10
157.2477
 20
-37.398
 30
0.0
 10
157.2477
 20
-37.398
 30
0.0
 10
157.2477
 20
-37.398
 30
0.0
 10
169.9136
 20
-37.398
 30
0.0
 10
169.9136
 20
-37.398
 30
0.0
 10
169.9136
 20
-37.398
 30
0.0
 10
169.9136
 20
-37.398
 30
0.0
 10
169.9136
 20
-54.9669
 30
0.0
 10
169.9136
 20
-54.9669
 30
0.0
 10
169.9136
 20
-54.9669
 30
0.0
 10
169.9136
 20
-54.9669
 30
0.0
 10
164.8064
 20
-54.9669
 30
0.0
 10
164.8064
 20
-54.9669
 30
0.0
 10
164.8064
 20
-54.9669
 30
0.0
 10
164.8064
 20
-54.9669
 30
0.0
 10
164.8064
 20
-42.5051
 30
0.0
 10
164.8064
 20
-42.5051
 30
0.0
 10
164.8064
 20
-42.5051
 30
0.0
 10
164.8064
 20
-42.5051
 30
0.0
 10
164.8064
 20
-42.5051
 30
0.0
 10
164.8064
 20
-42.5051
 30
0.0
  0
SPLINE
  5
F9
330
1F
100
AcDbEntity
  8
layer 1
 62
     7
100
AcDbSpline
210
0.0
220
0.0
230
1.0
 70
    11
 71
     3
 72
    32
 73
    28
 74
     0
 42
0.0000000001
 43
0.0000000001
 12
1.0
 22
0.0
 32
0.0
 13
1.0
 23
0.0
 33
0.0
 40
0.0
 40
0.0
 40
0.0
 40
0.0
 40
0.125
 40
0.125
 40
0.125
 40
0.125
 40
0.25
 40
0.25
 40
0.25
 40
0.25
 40
0.375
 40
0.375
 40
0.375
 40
0.375
 40
0.5
 40
0.5
 40
0.5
 40
0.5
 40
0.625
 40
0.625
 40
0.625
 40
0.625
 40
0.75
 40
0.75
 40
0.75
 40
0.75
 40
1.0
 40
1.0
 40
1.0
 40
1.0
 10
181.1496
 20
-77.439
 30
0.0
 10
181.1496
 20
-77.439
 30
0.0
 10
187.4825
 20
-77.439
 30
0.0
 10
187.4825
 20
-77.439
 30
0.0
 10
187.4825
 20
-77.439
 30
0.0
 10
187.4825
 20
-77.439
 30
0.0
 10
187.4825
 20
-69.8802
 30
0.0
 10
187.4825
 20
-69.8802
 30
0.0
 10
187.4825
 20
-69.8802
 30
0.0
 10
187.4825
 20
-69.8802
 30
0.0
 10
193.5297
 20
-69.8802
 30
0.0
 10
193.5297
 20
-69.8802
 30
0.0
 10
193.5297
 20
-69.8802
 30
0.0
 10
193.5297
 20
-69.8802
 30
0.0
 10
193.5297
 20
-94.5993
 30
0.0
 10
193.5297
 20
-94.5993
 30
0.0
 10
193.5297
 20
-94.5993
 30
0.0
 10
193.5297
 20
-94.5993
 30
0.0
 10
181.1496
 20
-94.5993
 30
0.0
 10
181.1496
 20
-94.5993
 30
0.0
 10
181.1496
 20
-94.5993
 30
0.0
 10
181.1496
 20
-94.5993
 30
0.0
 10
181.1496
 20
-77.439
 30
0.0
 10
181.1496
 20
-77.439
 30
0.0
 10
181.1496
 20
-77.439
 30
0.0
 10
181.1496
 20
-77.439
 30
0.0
 10
181.1496
 20
-77.439
 30
0.0
 10
181.1496
 20
-77.439
 30
0.0
  0
SPLINE
  5
FA
330
1F
100
AcDbEntity
  8
layer 1
 62
     7
100
AcDbSpline
210
0.0
220
0.0
230
1.0
 70
    11
 71
     3
 72
    24
 73
    20
 74
     0
 42
0.0000000001
 43
0.0000000001
 12
1.0
 22
0.0
 32
0.0
 13
1.0
 23
0.0
 33
0.0
 40
0.0
 40
0.0
 40
0.0
 40
0.0
 40
0.1666666666666667
 40
0.1666666666666667
 40
0.1666666666666667
 40
0.1666666666666667
 40
0.3333333333333333
 40
0.3333333333333333
 40
0.3333333333333333
 40
0.3333333333333333
 40
0.5
 40
0.5
 40
0.5
 40
0.5
 40
0.6666666666666666
 40
0.6666666666666666
 40
0.6666666666666666
 40
0.6666666666666666
 40
1.0
 40
1.0
 40
1.0
 40
1.0
 10
193.5297
 20
-44.9567
 30
0.0
 10
193.5297
 20
-44.9567
 30
0.0
 10
193.5297
 20
-54.9669
 30
0.0
 10
193.5297
 20
-54.9669
 30
0.0
 10
193.5297
 20
-54.9669
 30
0.0
 10
193.5297
 20
-54.9669
 30
0.0
 10
187.4825
 20
-54.9669
 30
0.0
 10
187.4825
 20
-54.9669
 30
0.0
 10
187.4825
 20
-54.9669
 30
0.0
 10
187.4825
 20
-54.9669
 30
0.0
 10
187.4825
 20
-44.9567
 30
0.0
 10
187.4825
 20
-44.9567
 30
0.0
 10
187.4825
 20
-44.9567
 30
0.0
 10
187.4825
 20
-44.9567
 30
0.0
 10
193.5297
 20
-44.9567
 30
0.0
 10
193.5297
 20
-44.9567
 30
0.0
 10
193.5297
 20
-44.9567
 30
0.0
 10
193.5297
 20
-44.9567
 30
0.0
 10
193.5297
 20
-44.9567
 30
0.0
 10
193.5297
 20
-44.9567
 30
0.0
  0
SPLINE
  5
FB
330
1F
100
AcDbEntity
  8
layer 1
 62
     7
100
AcDbSpline
210
0.0
220
0.0
230
1.0
 70
    11
 71
     3
 72
    24
 73
    20
 74
     0
 42
0.0000000001
 43
0.0000000001
 12
1.0
 22
0.0
 32
0.0
 13
1.0
 23
0.0
 33
0.0
 40
0.0
 40
0.0
 40
0.0
 40
0.0
 40
0.1666666666666667
 40
0.1666666666666667
 40
0.1666666666666667
 40
0.1666666666666667
 40
0.3333333333333333
 40
0.3333333333333333
 40
0.3333333333333333
 40
0.3333333333333333
 40
0.5
 40
0.5
 40
0.5
 40
0.5
 40
0.6666666666666666
 40
0.6666666666666666
 40
0.6666666666666666
 40
0.6666666666666666
 40
1.0
 40
1.0
 40
1.0
 40
1.0
 10
172.3652
 20
-94.5993
 30
0.0
 10
172.3652
 20
-94.5993
 30
0.0
 10
178.698
 20
-94.5993
 30
0.0
 10
178.698
 20
-94.5993
 30
0.0
 10
178.698
 20
-94.5993
 30
0.0
 10
178.698
 20
-94.5993
 30
0.0
 10
178.698
 20
-77.439
 30
0.0
 10
178.698
 20
-77.439
 30
0.0
 10
178.698
 20
-77.439
 30
0.0
 10
178.698
 20
-77.439
 30
0.0
 10
172.3652
 20
-77.439
 30
0.0
 10
172.3652
 20
-77.439
 30
0.0
 10
172.3652
 20
-77.439
 30
0.0
 10
172.3652
 20
-77.439
 30
0.0
 10
172.3652
 20
-94.5993
 30
0.0
 10
172.3652
 20
-94.5993
 30
0.0
 10
172.3652
 20
-94.5993
 30
0.0
 10
172.3652
 20
-94.5993
 30
0.0
 10
172.3652
 20
-94.5993
 30
0.0
 10
172.3652
 20
-94.5993
 30
0.0
  0
SPLINE
  5
FC
330
1F
100
AcDbEntity
  8
layer 1
 62
     7
100
AcDbSpline
210
0.0
220
0.0
230
1.0
 70
    11
 71
     3
 72
    24
 73
    20
 74
     0
 42
0.0000000001
 43
0.0000000001
 12
1.0
 22
0.0
 32
0.0
 13
1.0
 23
0.0
 33
0.0
 40
0.0
 40
0.0
 40
0.0
 40
0.0
 40
0.1666666666666667
 40
0.1666666666666667
 40
0.1666666666666667
 40
0.1666666666666667
 40
0.3333333333333333
 40
0.3333333333333333
 40
0.3333333333333333
 40
0.3333333333333333
 40
0.5
 40
0.5
 40
0.5
 40
0.5
 40
0.6666666666666666
 40
0.6666666666666666
 40
0.6666666666666666
 40
0.6666666666666666
 40
1.0
 40
1.0
 40
1.0
 40
1.0
 10
169.9136
 20
-94.5993
 30
0.0
 10
169.9136
 20
-94.5993
 30
0.0
 10
163.5805
 20
-94.5993
 30
0.0
 10
163.5805
 20
-94.5993
 30
0.0
 10
163.5805
 20
-94.5993
 30
0.0
 10
163.5805
 20
-94.5993
 30
0.0
 10
163.5805
 20
-77.439
 30
0.0
 10
163.5805
 20
-77.439
 30
0.0
 10
163.5805
 20
-77.439
 30
0.0
 10
163.5805
 20
-77.439
 30
0.0
 10
169.9136
 20
-77.439
 30
0.0
 10
169.9136
 20
-77.439
 30
0.0
 10
169.9136
 20
-77.439
 30
0.0
 10
169.9136
 20
-77.439
 30
0.0
 10
169.9136
 20
-94.5993
 30
0.0
 10
169.9136
 20
-94.5993
 30
0.0
 10
169.9136
 20
-94.5993
 30
0.0
 10
169.9136
 20
-94.5993
 30
0.0
 10
169.9136
 20
-94.5993
 30
0.0
 10
169.9136
 20
-94.5993
 30
0.0
  0
SPLINE
  5
FD
330
1F
100
AcDbEntity
  8
layer 1
 62
     7
100
AcDbSpline
210
0.0
220
0.0
230
1.0
 70
    11
 71
     3
 72
    32
 73
    28
 74
     0
 42
0.0000000001
 43
0.0000000001
 12
1.0
 22
0.0
 32
0.0
 13
1.0
 23
0.0
 33
0.0
 40
0.0
 40
0.0
 40
0.0
 40
0.0
 40
0.125
 40
0.125
 40
0.125
 40
0.125
 40
0.25
 40
0.25
 40
0.25
 40
0.25
 40
0.375
 40
0.375
 40
0.375
 40
0.375
 40
0.5
 40
0.5
 40
0.5
 40
0.5
 40
0.625
 40
0.625
 40
0.625
 40
0.625
 40
0.75
 40
0.75
 40
0.75
 40
0.75
 40
1.0
 40
1.0
 40
1.0
 40
1.0
 10
185.0311
 20
-69.8802
 30
0.0
 10
185.0311
 20
-69.8802
 30
0.0
 10
177.4723
 20
-69.8802
 30
0.0
 10
177.4723
 20
-69.8802
 30
0.0
 10
177.4723
 20
-69.8802
 30
0.0
 10
177.4723
 20
-69.8802
 30
0.0
 10
177.4723
 20
-57.4185
 30
0.0
 10
177.4723
 20
-57.4185
 30
0.0
 10
177.4723
 20
-57.4185
 30
0.0
 10
177.4723
 20
-57.4185
 30
0.0
 10
172.3652
 20
-57.4185
 30
0.0
 10
172.3652
 20
-57.4185
 30
0.0
 10
172.3652
 20
-57.4185
 30
0.0
 10
172.3652
 20
-57.4185
 30
0.0
 10
172.3652
 20
-74.9873
 30
0.0
 10
172.3652
 20
-74.9873
 30
0.0
 10
172.3652
 20
-74.9873
 30
0.0
 10
172.3652
 20
-74.9873
 30
0.0
 10
185.0311
 20
-74.9873
 30
0.0
 10
185.0311
 20
-74.9873
 30
0.0
 10
185.0311
 20
-74.9873
 30
0.0
 10
185.0311
 20
-74.9873
 30
0.0
 10
185.0311
 20
-69.8802
 30
0.0
 10
185.0311
 20
-69.8802
 30
0.0
 10
185.0311
 20
-69.8802
 30
0.0
 10
185.0311
 20
-69.8802
 30
0.0
 10
185.0311
 20
-69.8802
 30
0.0
 10
185.0311
 20
-69.8802
 30
0.0
  0
SPLINE
  5
FE
330
1F
100
AcDbEntity
  8
layer 1
 62
     7
100
AcDbSpline
210
0.0
220
0.0
230
1.0
 70
    11
 71
     3
 72
    32
 73
    28
 74
     0
 42
0.0000000001
 43
0.0000000001
 12
1.0
 22
0.0
 32
0.0
 13
1.0
 23
0.0
 33
0.0
 40
0.0
 40
0.0
 40
0.0
 40
0.0
 40
0.125
 40
0.125
 40
0.125
 40
0.125
 40
0.25
 40
0.25
 40
0.25
 40
0.25
 40
0.375
 40
0.375
 40
0.375
 40
0.375
 40
0.5
 40
0.5
 40
0.5
 40
0.5
 40
0.625
 40
0.625
 40
0.625
 40
0.625
 40
0.75
 40
0.75
 40
0.75
 40
0.75
 40
1.0
 40
1.0
 40
1.0
 40
1.0
 10
164.8064
 20
-69.8802
 30
0.0
 10
164.8064
 20
-69.8802
 30
0.0
 10
157.2477
 20
-69.8802
 30
0.0
 10
157.2477
 20
-69.8802
 30
0.0
 10
157.2477
 20
-69.8802
 30
0.0
 10
157.2477
 20
-69.8802
 30
0.0
 10
157.2477
 20
-74.9873
 30
0.0
 10
157.2477
 20
-74.9873
 30
0.0
 10
157.2477
 20
-74.9873
 30
0.0
 10
157.2477
 20
-74.9873
 30
0.0
 10
169.9136
 20
-74.9873
 30
0.0
 10
169.9136
 20
-74.9873
 30
0.0
 10
169.9136
 20
-74.9873
 30
0.0
 10
169.9136
 20
-74.9873
 30
0.0
 10
169.9136
 20
-57.4185
 30
0.0
 10
169.9136
 20
-57.4185
 30
0.0
 10
169.9136
 20
-57.4185
 30
0.0
 10
169.9136
 20
-57.4185
 30
0.0
 10
164.8064
 20
-57.4185
 30
0.0
 10
164.8064
 20
-57.4185
 30
0.0
 10
164.8064
 20
-57.4185
 30
0.0
 10
164.8064
 20
-57.4185
 30
0.0
 10
164.8064
 20
-69.8802
 30
0.0
 10
164.8064
 20
-69.8802
 30
0.0
 10
164.8064
 20
-69.8802
 30
0.0
 10
164.8064
 20
-69.8802
 30
0.0
 10
164.8064
 20
-69.8802
 30
0.0
 10
164.8064
 20
-69.8802
 30
0.0
  0
SPLINE
  5
FF
330
1F
100
AcDbEntity
  8
layer 1
 62
     7
100
AcDbSpline
210
0.0
220
0.0
230
1.0
 70
    11
 71
     3
 72
    24
 73
    20
 74
     0
 42
0.0000000001
 43
0.0000000001
 12
1.0
 22
0.0
 32
0.0
 13
1.0
 23
0.0
 33
0.0
 40
0.0
 40
0.0
 40
0.0
 40
0.0
 40
0.1666666666666667
 40
0.1666666666666667
 40
0.1666666666666667
 40
0.1666666666666667
 40
0.3333333333333333
 40
0.3333333333333333
 40
0.3333333333333333
 40
0.3333333333333333
 40
0.5
 40
0.5
 40
0.5
 40
0.5
 40
0.6666666666666666
 40
0.6666666666666666
 40
0.6666666666666666
 40
0.6666666666666666
 40
1.0
 40
1.0
 40
1.0
 40
1.0
 10
193.5297
 20
-57.4185
 30
0.0
 10
193.5297
 20
-57.4185
 30
0.0
 10
193.5297
 20
-67.4286
 30
0.0
 10
193.5297
 20
-67.4286
 30
0.0
 10
193.5297
 20
-67.4286
 30
0.0
 10
193.5297
 20
-67.4286
 30
0.0
 10
187.4825
 20
-67.4286
 30
0.0
 10
187.4825
 20
-67.4286
 30
0.0
 10
187.4825
 20
-67.4286
 30
0.0
 10
187.4825
 20
-67.4286
 30
0.0
 10
187.4825
 20
-57.4185
 30
0.0
 10
187.4825
 20
-57.4185
 30
0.0
 10
187.4825
 20
-57.4185
 30
0.0
 10
187.4825
 20
-57.4185
 30
0.0
 10
193.5297
 20
-57.4185
 30
0.0
 10
193.5297
 20
-57.4185
 30
0.0
 10
193.5297
 20
-57.4185
 30
0.0
 10
193.5297
 20
-57.4185
 30
0.0
 10
193.5297
 20
-57.4185
 30
0.0
 10
193.5297
 20
-57.4185
 30
0.0
  0
SPLINE
  5
100
330
1F
100
AcDbEntity
  8
layer 1
 62
     7
100
AcDbSpline
210
0.0
220
0.0
230
1.0
 70
    11
 71
     3
 72
    32
 73
    28
 74
     0
 42
0.0000000001
 43
0.0000000001
 12
1.0
 22
0.0
 32
0.0
 13
1.0
 23
0.0
 33
0.0
 40
0.0
 40
0.0
 40
0.0
 40
0.0
 40
0.125
 40
0.125
 40
0.125
 40
0.125
 40
0.25
 40
0.25
 40
0.25
 40
0.25
 40
0.375
 40
0.375
 40
0.375
 40
0.375
 40
0.5
 40
0.5
 40
0.5
 40
0.5
 40
0.625
 40
0.625
 40
0.625
 40
0.625
 40
0.75
 40
0.75
 40
0.75
 40
0.75
 40
1.0
 40
1.0
 40
1.0
 40
1.0
 10
146.216
 20
-77.3368
 30
0.0
 10
146.216
 20
-77.3368
 30
0.0
 10
140.9045
 20
-77.3368
 30
0.0
 10
140.9045
 20
-77.3368
 30
0.0
 10
140.9045
 20
-77.3368
 30
0.0
 10
140.9045
 20
-77.3368
 30
0.0
 10
140.9045
 20
-57.4185
 30
0.0
 10
140.9045
 20
-57.4185
 30
0.0
 10
140.9045
 20
-57.4185
 30
0.0
 10
140.9045
 20
-57.4185
 30
0.0
 10
154.7961
 20
-57.4185
 30
0.0
 10
154.7961
 20
-57.4185
 30
0.0
 10
154.7961
 20
-57.4185
 30
0.0
 10
154.7961
 20
-57.4185
 30
0.0
 10
154.7961
 20
-67.4286
 30
0.0
 10
154.7961
 20
-67.4286
 30
0.0
 10
154.7961
 20
-67.4286
 30
0.0
 10
154.7961
 20
-67.4286
 30
0.0
 10
146.216
 20
-67.4286
 30
0.0
 10
146.216
 20
-67.4286
 30
0.0
 10
146.216
 20
-67.4286
 30
0.0
 10
146.216
 20
-67.4286
 30
0.0
 10
146.216
 20
-77.3368
 30
0.0
 10
146.216
 20
-77.3368
 30
0.0
 10
146.216
 20
-77.3368
 30
0.0
 10
146.216
 20
-77.3368
 30
0.0
 10
146.216
 20
-77.3368
 30
0.0
 10
146.216
 20
-77.3368
 30
0.0
  0
SPLINE
  5
101
330
1F
100
AcDbEntity
  8
layer 1
 62
     7
100
AcDbSpline
210
0.0
220
0.0
230
1.0
 70
    11
 71
     3
 72
    24
 73
    20
 74
     0
 42
0.0000000001
 43
0.0000000001
 12
1.0
 22
0.0
 32
0.0
 13
1.0
 23
0.0
 33
0.0
 40
0.0
 40
0.0
 40
0.0
 40
0.0
 40
0.1666666666666667
 40
0.1666666666666667
 40
0.1666666666666667
 40
0.1666666666666667
 40
0.3333333333333333
 40
0.3333333333333333
 40
0.3333333333333333
 40
0.3333333333333333
 40
0.5
 40
0.5
 40
0.5
 40
0.5
 40
0.6666666666666666
 40
0.6666666666666666
 40
0.6666666666666666
 40
0.6666666666666666
 40
1.0
 40
1.0
 40
1.0
 40
1.0
 10
146.216
 20
-94.5993
 30
0.0
 10
146.216
 20
-94.5993
 30
0.0
 10
140.9045
 20
-94.5993
 30
0.0
 10
140.9045
 20
-94.5993
 30
0.0
 10
140.9045
 20
-94.5993
 30
0.0
 10
140.9045
 20
-94.5993
 30
0.0
 10
140.9045
 20
-79.7881
 30
0.0
 10
140.9045
 20
-79.7881
 30
0.0
 10
140.9045
 20
-79.7881
 30
0.0
 10
140.9045
 20
-79.7881
 30
0.0
 10
146.216
 20
-79.7881
 30
0.0
 10
146.216
 20
-79.7881
 30
0.0
 10
146.216
 20
-79.7881
 30
0.0
 10
146.216
 20
-79.7881
 30
0.0
 10
146.216
 20
-94.5993
 30
0.0
 10
146.216
 20
-94.5993
 30
0.0
 10
146.216
 20
-94.5993
 30
0.0
 10
146.216
 20
-94.5993
 30
0.0
 10
146.216
 20
-94.5993
 30
0.0
 10
146.216
 20
-94.5993
 30
0.0
  0
ENDSEC
  0
SECTION
  2
OBJECTS
  0
DICTIONARY
  5
C
330
0
100
AcDbDictionary
281
     1
  3
ACAD_GROUP
350
D
  3
ACAD_LAYOUT
350
1A
  3
ACAD_MATERIAL
350
3B
  3
ACAD_MLEADERSTYLE
350
124
  3
ACAD_MLINESTYLE
350
17
  3
ACAD_PLOTSETTINGS
350
19
  3
ACAD_PLOTSTYLENAME
350
E
  3
ACAD_TABLESTYLE
350
123
  3
ACAD_VISUALSTYLE
350
2A
  0
DICTIONARY
  5
D
102
{ACAD_REACTORS
330
C
102
}
330
C
100
AcDbDictionary
281
     1
  0
DICTIONARY
  5
1A
102
{ACAD_REACTORS
330
C
102
}
330
C
100
AcDbDictionary
281
     1
  3
Layout1
350
1E
  3
Layout2
350
26
  3
Model
350
22
  0
DICTIONARY
  5
3B
102
{ACAD_REACTORS
330
C
102
}
330
C
100
AcDbDictionary
281
     1
  3
ByBlock
350
3D
  3
ByLayer
350
3C
  3
Global
350
3E
  0
DICTIONARY
  5
124
102
{ACAD_REACTORS
330
C
102
}
330
C
100
AcDbDictionary
281
     1
  0
DICTIONARY
  5
17
102
{ACAD_REACTORS
330
C
102
}
330
C
100
AcDbDictionary
281
     1
  3
Standard
350
18
  0
DICTIONARY
  5
19
102
{ACAD_REACTORS
330
C
102
}
330
C
100
AcDbDictionary
281
     1
  0
ACDBDICTIONARYWDFLT
  5
E
102
{ACAD_REACTORS
330
C
102
}
330
C
100
AcDbDictionary
281
     1
  3
Normal
350
F
100
AcDbDictionaryWithDefault
340
F
  0
DICTIONARY
  5
123
102
{ACAD_REACTORS
330
C
102
}
330
C
100
AcDbDictionary
281
     1
  0
DICTIONARY
  5
2A
102
{ACAD_REACTORS
330
C
102
}
330
C
100
AcDbDictionary
281
     1
  3
2dWireframe
350
2F
  3
3D Hidden
350
31
  3
3dWireframe
350
30
  3
Basic
350
32
  3
Brighten
350
36
  3
ColorChange
350
3A
  3
Conceptual
350
34
  3
Dim
350
35
  3
Facepattern
350
39
  3
Flat
350
2B
  3
FlatWithEdges
350
2C
  3
Gouraud
350
2D
  3
GouraudWithEdges
350
2E
  3
Linepattern
350
38
  3
Realistic
350
33
  3
Thicken
350
37
  0
LAYOUT
  5
1E
102
{ACAD_REACTORS
330
1A
102
}
330
1A
100
AcDbPlotSettings
  1

  2
none_device
  4

  6

 40
0.0
 41
0.0
 42
0.0
 43
0.0
 44
0.0
 45
0.0
 46
0.0
 47
0.0
 48
0.0
 49
0.0
140
0.0
141
0.0
142
1.0
143
1.0
 70
   688
 72
     0
 73
     0
 74
     5
  7

 75
    16
 76
     0
 77
     2
 78
   300
147
1.0
148
0.0
149
0.0
100
AcDbLayout
  1
Layout1
 70
     1
 71
     1
 10
0.0
 20
0.0
 11
12.0
 21
9.0
 12
0.0
 22
0.0
 32
0.0
 14
1.000000000000000E+20
 24
1.000000000000000E+20
 34
1.000000000000000E+20
 15
-1.000000000000000E+20
 25
-1.000000000000000E+20
 35
-1.000000000000000E+20
146
0.0
 13
0.0
 23
0.0
 33
0.0
 16
1.0
 26
0.0
 36
0.0
 17
0.0
 27
1.0
 37
0.0
 76
     0
330
1B
  0
LAYOUT
  5
26
102
{ACAD_REACTORS
330
1A
102
}
330
1A
100
AcDbPlotSettings
  1

  2
none_device
  4

  6

 40
0.0
 41
0.0
 42
0.0
 43
0.0
 44
0.0
 45
0.0
 46
0.0
 47
0.0
 48
0.0
 49
0.0
140
0.0
141
0.0
142
1.0
143
1.0
 70
   688
 72
     0
 73
     0
 74
     5
  7

 75
    16
 76
     0
 77
     2
 78
   300
147
1.0
148
0.0
149
0.0
100
AcDbLayout
  1
Layout2
 70
     1
 71
     2
 10
0.0
 20
0.0
 11
0.0
 21
0.0
 12
0.0
 22
0.0
 32
0.0
 14
0.0
 24
0.0
 34
0.0
 15
0.0
 25
0.0
 35
0.0
146
0.0
 13
0.0
 23
0.0
 33
0.0
 16
1.0
 26
0.0
 36
0.0
 17
0.0
 27
1.0
 37
0.0
 76
     0
330
23
  0
LAYOUT
  5
22
102
{ACAD_REACTORS
330
1A
102
}
330
1A
100
AcDbPlotSettings
  1

  2
none_device
  4

  6

 40
0.0
 41
0.0
 42
0.0
 43
0.0
 44
0.0
 45
0.0
 46
0.0
 47
0.0
 48
0.0
 49
0.0
140
0.0
141
0.0
142
1.0
143
1.0
 70
  1712
 72
     0
 73
     0
 74
     0
  7

 75
     0
 76
     0
 77
     2
 78
   300
147
1.0
148
0.0
149
0.0
100
AcDbLayout
  1
Model
 70
     1
 71
     0
 10
0.0
 20
0.0
 11
12.0
 21
9.0
 12
0.0
 22
0.0
 32
0.0
 14
19.9646
 24
-97.0507
 34
0.0
 15
196.4713
 25
123.5829
 35
0.0
146
0.0
 13
0.0
 23
0.0
 33
0.0
 16
1.0
 26
0.0
 36
0.0
 17
0.0
 27
1.0
 37
0.0
 76
     0
330
1F
331
29
  0
MATERIAL
  5
3D
102
{ACAD_REACTORS
330
3B
102
}
330
3B
100
AcDbMaterial
  1
ByBlock
 72
     1
 94
      127
  0
MATERIAL
  5
3C
102
{ACAD_REACTORS
330
3B
102
}
330
3B
100
AcDbMaterial
  1
ByLayer
 72
     1
 94
      127
  0
MATERIAL
  5
3E
102
{ACAD_REACTORS
330
3B
102
}
330
3B
100
AcDbMaterial
  1
Global
 72
     1
 94
      127
  0
MLINESTYLE
  5
18
102
{ACAD_REACTORS
330
17
102
}
330
17
100
AcDbMlineStyle
  2
Standard
 70
     0
  3

 62
   256
 51
90.0
 52
90.0
 71
     2
 49
0.5
 62
   256
  6
BYLAYER
 49
-0.5
 62
   256
  6
BYLAYER
  0
ACDBPLACEHOLDER
  5
F
102
{ACAD_REACTORS
330
E
102
}
330
E
  0
VISUALSTYLE
  5
2F
102
{ACAD_REACTORS
330
2A
102
}
102
{ACAD_XDICTIONARY
360
10B
102
}
330
2A
100
AcDbVisualStyle
  2
2dWireframe
 70
     4
 71
     0
 72
     2
 73
     0
 90
        0
 40
-0.6
 41
-30.0
 62
     5
 63
     7
421
 16777215
 74
     1
 91
        4
 64
     7
 65
   257
 75
     1
175
     1
 42
1.0
 92
        0
 66
   257
 43
1.0
 76
     1
 77
     6
 78
     2
 67
     7
 79
     5
170
     0
171
     0
290
     0
174
     0
 93
        1
 44
0.0
173
     0
291
     0
 45
0.0
  0
VISUALSTYLE
  5
31
102
{ACAD_REACTORS
330
2A
102
}
102
{ACAD_XDICTIONARY
360
10F
102
}
330
2A
100
AcDbVisualStyle
  2
3D Hidden
 70
     6
 71
     1
 72
     2
 73
     2
 90
        0
 40
-0.6
 41
-30.0
 62
     5
 63
     7
421
 16777215
 74
     2
 91
        2
 64
     7
 65
   257
 75
     2
175
     1
 42
40.0
 92
        0
 66
   257
 43
1.0
 76
     1
 77
     6
 78
     2
 67
     7
 79
     3
170
     0
171
     0
290
     0
174
     0
 93
        1
 44
0.0
173
     0
291
     0
 45
0.0
  0
VISUALSTYLE
  5
30
102
{ACAD_REACTORS
330
2A
102
}
102
{ACAD_XDICTIONARY
360
10D
102
}
330
2A
100
AcDbVisualStyle
  2
3dWireframe
 70
     5
 71
     0
 72
     2
 73
     0
 90
        0
 40
-0.6
 41
-30.0
 62
     5
 63
     7
421
 16777215
 74
     1
 91
        4
 64
     7
 65
   257
 75
     1
175
     1
 42
1.0
 92
        0
 66
   257
 43
1.0
 76
     1
 77
     6
 78
     2
 67
     7
 79
     5
170
     0
171
     0
290
     0
174
     0
 93
        1
 44
0.0
173
     0
291
     0
 45
0.0
  0
VISUALSTYLE
  5
32
102
{ACAD_REACTORS
330
2A
102
}
102
{ACAD_XDICTIONARY
360
111
102
}
330
2A
100
AcDbVisualStyle
  2
Basic
 70
     7
 71
     1
 72
     0
 73
     1
 90
        0
 40
-0.6
 41
-30.0
 62
     5
 63
     7
421
 16777215
 74
     0
 91
        4
 64
     7
 65
   257
 75
     1
175
     1
 42
1.0
 92
        8
 66
     7
 43
1.0
 76
     1
 77
     6
 78
     2
 67
     7
 79
     5
170
     0
171
     0
290
     0
174
     0
 93
        1
 44
0.0
173
     0
291
     1
 45
0.0
  0
VISUALSTYLE
  5
36
102
{ACAD_REACTORS
330
2A
102
}
102
{ACAD_XDICTIONARY
360
119
102
}
330
2A
100
AcDbVisualStyle
  2
Brighten
 70
    12
 71
     2
 72
     2
 73
     0
 90
        0
 40
-0.6
 41
-30.0
 62
     5
 63
     7
421
 16777215
 74
     1
 91
        4
 64
     7
 65
   257
 75
     1
175
     1
 42
1.0
 92
        8
 66
     7
 43
1.0
 76
     1
 77
     6
 78
     2
 67
     7
 79
     5
170
     0
171
     0
290
     0
174
     0
 93
        1
 44
50.0
173
     0
291
     1
 45
0.0
  0
VISUALSTYLE
  5
3A
102
{ACAD_REACTORS
330
2A
102
}
102
{ACAD_XDICTIONARY
360
121
102
}
330
2A
100
AcDbVisualStyle
  2
ColorChange
 70
    16
 71
     2
 72
     2
 73
     3
 90
        0
 40
-0.6
 41
-30.0
 62
     5
 63
     8
421
  8421504
 74
     1
 91
        4
 64
     7
 65
   257
 75
     1
175
     1
 42
1.0
 92
        8
 66
     8
424
  8421504
 43
1.0
 76
     1
 77
     6
 78
     2
 67
     7
 79
     5
170
     0
171
     0
290
     0
174
     0
 93
        1
 44
0.0
173
     0
291
     1
 45
0.0
  0
VISUALSTYLE
  5
34
102
{ACAD_REACTORS
330
2A
102
}
102
{ACAD_XDICTIONARY
360
115
102
}
330
2A
100
AcDbVisualStyle
  2
Conceptual
 70
     9
 71
     3
 72
     2
 73
     0
 90
        0
 40
-0.6
 41
-30.0
 62
     5
 63
     7
421
 16777215
 74
     2
 91
        2
 64
     7
 65
   257
 75
     1
175
     1
 42
40.0
 92
        8
 66
     7
 43
1.0
 76
     1
 77
     6
 78
     2
 67
     7
 79
     3
170
     0
171
     0
290
     0
174
     0
 93
        1
 44
0.0
173
     0
291
     0
 45
0.0
  0
VISUALSTYLE
  5
35
102
{ACAD_REACTORS
330
2A
102
}
102
{ACAD_XDICTIONARY
360
117
102
}
330
2A
100
AcDbVisualStyle
  2
Dim
 70
    11
 71
     2
 72
     2
 73
     0
 90
        0
 40
-0.6
 41
-30.0
 62
     5
 63
     7
421
 16777215
 74
     1
 91
        4
 64
     7
 65
   257
 75
     1
175
     1
 42
1.0
 92
        8
 66
     7
 43
1.0
 76
     1
 77
     6
 78
     2
 67
     7
 79
     5
170
     0
171
     0
290
     0
174
     0
 93
        1
 44
-50.0
173
     0
291
     1
 45
0.0
  0
VISUALSTYLE
  5
39
102
{ACAD_REACTORS
330
2A
102
}
102
{ACAD_XDICTIONARY
360
11F
102
}
330
2A
100
AcDbVisualStyle
  2
Facepattern
 70
    15
 71
     2
 72
     2
 73
     0
 90
        0
 40
-0.6
 41
-30.0
 62
     5
 63
     7
421
 16777215
 74
     1
 91
        4
 64
     7
 65
   257
 75
     1
175
     1
 42
1.0
 92
        8
 66
     7
 43
1.0
 76
     1
 77
     6
 78
     2
 67
     7
 79
     5
170
     0
171
     0
290
     0
174
     0
 93
        1
 44
0.0
173
     0
291
     1
 45
0.0
  0
VISUALSTYLE
  5
2B
102
{ACAD_REACTORS
330
2A
102
}
102
{ACAD_XDICTIONARY
360
103
102
}
330
2A
100
AcDbVisualStyle
  2
Flat
 70
     0
 71
     2
 72
     1
 73
     1
 90
        2
 40
-0.6
 41
30.0
 62
     5
 63
     7
421
 16777215
 74
     0
 91
        4
 64
     7
 65
   257
 75
     1
175
     1
 42
1.0
 92
        8
 66
     7
 43
1.0
 76
     1
 77
     6
 78
     2
 67
     7
 79
     5
170
     0
171
     0
290
     0
174
     0
 93
       13
 44
0.0
173
     0
291
     1
 45
0.0
  0
VISUALSTYLE
  5
2C
102
{ACAD_REACTORS
330
2A
102
}
102
{ACAD_XDICTIONARY
360
105
102
}
330
2A
100
AcDbVisualStyle
  2
FlatWithEdges
 70
     1
 71
     2
 72
     1
 73
     1
 90
        2
 40
-0.6
 41
30.0
 62
     5
 63
     7
421
 16777215
 74
     1
 91
        4
 64
     7
 65
   257
 75
     1
175
     1
 42
1.0
 92
        0
 66
   257
 43
1.0
 76
     1
 77
     6
 78
     2
 67
     7
 79
     5
170
     0
171
     0
290
     0
174
     0
 93
       13
 44
0.0
173
     0
291
     1
 45
0.0
  0
VISUALSTYLE
  5
2D
102
{ACAD_REACTORS
330
2A
102
}
102
{ACAD_XDICTIONARY
360
107
102
}
330
2A
100
AcDbVisualStyle
  2
Gouraud
 70
     2
 71
     2
 72
     2
 73
     1
 90
        2
 40
-0.6
 41
30.0
 62
     5
 63
     7
421
 16777215
 74
     0
 91
        4
 64
     7
 65
   257
 75
     1
175
     1
 42
1.0
 92
        0
 66
     7
 43
1.0
 76
     1
 77
     6
 78
     2
 67
     7
 79
     5
170
     0
171
     0
290
     0
174
     0
 93
       13
 44
0.0
173
     0
291
     1
 45
0.0
  0
VISUALSTYLE
  5
2E
102
{ACAD_REACTORS
330
2A
102
}
102
{ACAD_XDICTIONARY
360
109
102
}
330
2A
100
AcDbVisualStyle
  2
GouraudWithEdges
 70
     3
 71
     2
 72
     2
 73
     1
 90
        2
 40
-0.6
 41
30.0
 62
     5
 63
     7
421
 16777215
 74
     1
 91
        4
 64
     7
 65
   257
 75
     1
175
     1
 42
1.0
 92
        0
 66
   257
 43
1.0
 76
     1
 77
     6
 78
     2
 67
     7
 79
     5
170
     0
171
     0
290
     0
174
     0
 93
       13
 44
0.0
173
     0
291
     1
 45
0.0
  0
VISUALSTYLE
  5
38
102
{ACAD_REACTORS
330
2A
102
}
102
{ACAD_XDICTIONARY
360
11D
102
}
330
2A
100
AcDbVisualStyle
  2
Linepattern
 70
    14
 71
     2
 72
     2
 73
     0
 90
        0
 40
-0.6
 41
-30.0
 62
     5
 63
     7
421
 16777215
 74
     1
 91
        4
 64
     7
 65
   257
 75
     7
175
     7
 42
1.0
 92
        8
 66
     7
 43
1.0
 76
     1
 77
     6
 78
     2
 67
     7
 79
     5
170
     0
171
     0
290
     0
174
     0
 93
        1
 44
0.0
173
     0
291
     1
 45
0.0
  0
VISUALSTYLE
  5
33
102
{ACAD_REACTORS
330
2A
102
}
102
{ACAD_XDICTIONARY
360
113
102
}
330
2A
100
AcDbVisualStyle
  2
Realistic
 70
     8
 71
     2
 72
     2
 73
     0
 90
        0
 40
-0.6
 41
-30.0
 62
     5
 63
     7
421
 16777215
 74
     1
 91
        0
 64
     7
 65
   257
 75
     1
175
     1
 42
1.0
 92
        8
 66
     8
424
  7895160
 43
1.0
 76
     1
 77
     6
 78
     2
 67
     7
 79
     5
170
     0
171
     0
290
     0
174
     0
 93
       13
 44
0.0
173
     0
291
     0
 45
0.0
  0
VISUALSTYLE
  5
37
102
{ACAD_REACTORS
330
2A
102
}
102
{ACAD_XDICTIONARY
360
11B
102
}
330
2A
100
AcDbVisualStyle
  2
Thicken
 70
    13
 71
     2
 72
     2
 73
     0
 90
        0
 40
-0.6
 41
-30.0
 62
     5
 63
     7
421
 16777215
 74
     1
 91
        4
 64
     7
 65
   257
 75
     1
175
     1
 42
1.0
 92
       12
 66
     7
 43
1.0
 76
     1
 77
     6
 78
     2
 67
     7
 79
     5
170
     0
171
     0
290
     0
174
     0
 93
        1
 44
0.0
173
     0
291
     1
 45
0.0
  0
DICTIONARY
  5
10B
330
2F
100
AcDbDictionary
280
     1
281
     1
  3
ACAD_XREC_ROUNDTRIP
360
10C
  0
DICTIONARY
  5
10F
330
31
100
AcDbDictionary
280
     1
281
     1
  3
ACAD_XREC_ROUNDTRIP
360
110
  0
DICTIONARY
  5
10D
330
30
100
AcDbDictionary
280
     1
281
     1
  3
ACAD_XREC_ROUNDTRIP
360
10E
  0
DICTIONARY
  5
111
330
32
100
AcDbDictionary
280
     1
281
     1
  3
ACAD_XREC_ROUNDTRIP
360
112
  0
DICTIONARY
  5
119
330
36
100
AcDbDictionary
280
     1
281
     1
  3
ACAD_XREC_ROUNDTRIP
360
11A
  0
DICTIONARY
  5
121
330
3A
100
AcDbDictionary
280
     1
281
     1
  3
ACAD_XREC_ROUNDTRIP
360
122
  0
DICTIONARY
  5
115
330
34
100
AcDbDictionary
280
     1
281
     1
  3
ACAD_XREC_ROUNDTRIP
360
116
  0
DICTIONARY
  5
117
330
35
100
AcDbDictionary
280
     1
281
     1
  3
ACAD_XREC_ROUNDTRIP
360
118
  0
DICTIONARY
  5
11F
330
39
100
AcDbDictionary
280
     1
281
     1
  3
ACAD_XREC_ROUNDTRIP
360
120
  0
DICTIONARY
  5
103
330
2B
100
AcDbDictionary
280
     1
281
     1
  3
ACAD_XREC_ROUNDTRIP
360
104
  0
DICTIONARY
  5
105
330
2C
100
AcDbDictionary
280
     1
281
     1
  3
ACAD_XREC_ROUNDTRIP
360
106
  0
DICTIONARY
  5
107
330
2D
100
AcDbDictionary
280
     1
281
     1
  3
ACAD_XREC_ROUNDTRIP
360
108
  0
DICTIONARY
  5
109
330
2E
100
AcDbDictionary
280
     1
281
     1
  3
ACAD_XREC_ROUNDTRIP
360
10A
  0
DICTIONARY
  5
11D
330
38
100
AcDbDictionary
280
     1
281
     1
  3
ACAD_XREC_ROUNDTRIP
360
11E
  0
DICTIONARY
  5
113
330
33
100
AcDbDictionary
280
     1
281
     1
  3
ACAD_XREC_ROUNDTRIP
360
114
  0
DICTIONARY
  5
11B
330
37
100
AcDbDictionary
280
     1
281
     1
  3
ACAD_XREC_ROUNDTRIP
360
11C
  0
XRECORD
  5
10C
102
{ACAD_REACTORS
330
10B
102
}
330
10B
100
AcDbXrecord
280
     1
102
RTVSPropertyOp0
 70
     1
102
RTVSPropertyOp1
 70
     1
102
RTVSPropertyOp2
 70
     1
102
RTVSPropertyOp3
 70
     1
102
RTVSPropertyOp4
 70
     1
102
RTVSPropertyOp5
 70
     1
102
RTVSPropertyOp6
 70
     1
102
RTVSPropertyOp7
 70
     1
102
RTVSPropertyOp8
 70
     1
102
RTVSPropertyOp9
 70
     1
102
RTVSPropertyOp10
 70
     1
102
RTVSPropertyOp11
 70
     1
102
RTVSPropertyOp12
 70
     1
102
RTVSPropertyOp13
 70
     1
102
RTVSPropertyOp14
 70
     1
102
RTVSPropertyOp15
 70
     1
102
RTVSPropertyOp16
 70
     1
102
RTVSPropertyOp17
 70
     1
102
RTVSPropertyOp18
 70
     1
102
RTVSPropertyOp19
 70
     1
102
RTVSPropertyOp20
 70
     1
102
RTVSPropertyOp21
 70
     1
102
RTVSPropertyOp22
 70
     1
102
RTVSPropertyOp23
 70
     1
102
RTVSPropertyOp24
 70
     1
102
RTVSPropertyOp25
 70
     1
102
RTVSPropertyOp26
 70
     1
102
RTVSPropertyOp27
 70
     1
102
RTVSPropertyOp28
 70
     1
102
RTVSPropertyOp29
 70
     1
102
RTVSPropertyOp30
 70
     1
102
RTVSPropertyOp31
 70
     1
102
RTVSPropertyOp32
 70
     1
  0
XRECORD
  5
110
102
{ACAD_REACTORS
330
10F
102
}
330
10F
100
AcDbXrecord
280
     1
102
RTVSPropertyOp0
 70
     1
102
RTVSPropertyOp1
 70
     1
102
RTVSPropertyOp2
 70
     1
102
RTVSPropertyOp3
 70
     1
102
RTVSPropertyOp4
 70
     1
102
RTVSPropertyOp5
 70
     1
102
RTVSPropertyOp6
 70
     1
102
RTVSPropertyOp7
 70
     1
102
RTVSPropertyOp8
 70
     1
102
RTVSPropertyOp9
 70
     1
102
RTVSPropertyOp10
 70
     1
102
RTVSPropertyOp11
 70
     1
102
RTVSPropertyOp12
 70
     1
102
RTVSPropertyOp13
 70
     1
102
RTVSPropertyOp14
 70
     1
102
RTVSPropertyOp15
 70
     1
102
RTVSPropertyOp16
 70
     1
102
RTVSPropertyOp17
 70
     1
102
RTVSPropertyOp18
 70
     1
102
RTVSPropertyOp19
 70
     1
102
RTVSPropertyOp20
 70
     1
102
RTVSPropertyOp21
 70
     1
102
RTVSPropertyOp22
 70
     1
102
RTVSPropertyOp23
 70
     1
102
RTVSPropertyOp24
 70
     1
102
RTVSPropertyOp25
 70
     1
102
RTVSPropertyOp26
 70
     1
102
RTVSPropertyOp27
 70
     1
102
RTVSPropertyOp28
 70
     1
102
RTVSPropertyOp29
 70
     1
102
RTVSPropertyOp30
 70
     1
102
RTVSPropertyOp31
 70
     1
102
RTVSPropertyOp32
 70
     1
  0
XRECORD
  5
10E
102
{ACAD_REACTORS
330
10D
102
}
330
10D
100
AcDbXrecord
280
     1
102
RTVSPropertyOp0
 70
     1
102
RTVSPropertyOp1
 70
     1
102
RTVSPropertyOp2
 70
     1
102
RTVSPropertyOp3
 70
     1
102
RTVSPropertyOp4
 70
     1
102
RTVSPropertyOp5
 70
     1
102
RTVSPropertyOp6
 70
     1
102
RTVSPropertyOp7
 70
     1
102
RTVSPropertyOp8
 70
     1
102
RTVSPropertyOp9
 70
     1
102
RTVSPropertyOp10
 70
     1
102
RTVSPropertyOp11
 70
     1
102
RTVSPropertyOp12
 70
     1
102
RTVSPropertyOp13
 70
     1
102
RTVSPropertyOp14
 70
     1
102
RTVSPropertyOp15
 70
     1
102
RTVSPropertyOp16
 70
     1
102
RTVSPropertyOp17
 70
     1
102
RTVSPropertyOp18
 70
     1
102
RTVSPropertyOp19
 70
     1
102
RTVSPropertyOp20
 70
     1
102
RTVSPropertyOp21
 70
     1
102
RTVSPropertyOp22
 70
     1
102
RTVSPropertyOp23
 70
     1
102
RTVSPropertyOp24
 70
     1
102
RTVSPropertyOp25
 70
     1
102
RTVSPropertyOp26
 70
     1
102
RTVSPropertyOp27
 70
     1
102
RTVSPropertyOp28
 70
     1
102
RTVSPropertyOp29
 70
     1
102
RTVSPropertyOp30
 70
     1
102
RTVSPropertyOp31
 70
     1
102
RTVSPropertyOp32
 70
     1
  0
XRECORD
  5
112
102
{ACAD_REACTORS
330
111
102
}
330
111
100
AcDbXrecord
280
     1
102
RTVSPropertyOp0
 70
     1
102
RTVSPropertyOp1
 70
     1
102
RTVSPropertyOp2
 70
     1
102
RTVSPropertyOp3
 70
     1
102
RTVSPropertyOp4
 70
     1
102
RTVSPropertyOp5
 70
     1
102
RTVSPropertyOp6
 70
     1
102
RTVSPropertyOp7
 70
     1
102
RTVSPropertyOp8
 70
     1
102
RTVSPropertyOp9
 70
     1
102
RTVSPropertyOp10
 70
     1
102
RTVSPropertyOp11
 70
     1
102
RTVSPropertyOp12
 70
     1
102
RTVSPropertyOp13
 70
     1
102
RTVSPropertyOp14
 70
     1
102
RTVSPropertyOp15
 70
     1
102
RTVSPropertyOp16
 70
     1
102
RTVSPropertyOp17
 70
     1
102
RTVSPropertyOp18
 70
     1
102
RTVSPropertyOp19
 70
     1
102
RTVSPropertyOp20
 70
     1
102
RTVSPropertyOp21
 70
     1
102
RTVSPropertyOp22
 70
     1
102
RTVSPropertyOp23
 70
     1
102
RTVSPropertyOp24
 70
     1
102
RTVSPropertyOp25
 70
     1
102
RTVSPropertyOp26
 70
     1
102
RTVSPropertyOp27
 70
     1
102
RTVSPropertyOp28
 70
     1
102
RTVSPropertyOp29
 70
     1
102
RTVSPropertyOp30
 70
     1
102
RTVSPropertyOp31
 70
     1
102
RTVSPropertyOp32
 70
     1
  0
XRECORD
  5
11A
102
{ACAD_REACTORS
330
119
102
}
330
119
100
AcDbXrecord
280
     1
102
RTVSPropertyOp0
 70
     1
102
RTVSPropertyOp1
 70
     1
102
RTVSPropertyOp2
 70
     1
102
RTVSPropertyOp3
 70
     1
102
RTVSPropertyOp4
 70
     1
102
RTVSPropertyOp5
 70
     1
102
RTVSPropertyOp6
 70
     1
102
RTVSPropertyOp7
 70
     1
102
RTVSPropertyOp8
 70
     1
102
RTVSPropertyOp9
 70
     1
102
RTVSPropertyOp10
 70
     1
102
RTVSPropertyOp11
 70
     1
102
RTVSPropertyOp12
 70
     1
102
RTVSPropertyOp13
 70
     1
102
RTVSPropertyOp14
 70
     1
102
RTVSPropertyOp15
 70
     1
102
RTVSPropertyOp16
 70
     1
102
RTVSPropertyOp17
 70
     1
102
RTVSPropertyOp18
 70
     1
102
RTVSPropertyOp19
 70
     1
102
RTVSPropertyOp20
 70
     1
102
RTVSPropertyOp21
 70
     1
102
RTVSPropertyOp22
 70
     1
102
RTVSPropertyOp23
 70
     1
102
RTVSPropertyOp24
 70
     1
102
RTVSPropertyOp25
 70
     1
102
RTVSPropertyOp26
 70
     1
102
RTVSPropertyOp27
 70
     1
102
RTVSPropertyOp28
 70
     1
102
RTVSPropertyOp29
 70
     1
102
RTVSPropertyOp30
 70
     1
102
RTVSPropertyOp31
 70
     1
102
RTVSPropertyOp32
 70
     1
  0
XRECORD
  5
122
102
{ACAD_REACTORS
330
121
102
}
330
121
100
AcDbXrecord
280
     1
102
RTVSPropertyOp0
 70
     1
102
RTVSPropertyOp1
 70
     1
102
RTVSPropertyOp2
 70
     1
102
RTVSPropertyOp3
 70
     1
102
RTVSPropertyOp4
 70
     1
102
RTVSPropertyOp5
 70
     1
102
RTVSPropertyOp6
 70
     1
102
RTVSPropertyOp7
 70
     1
102
RTVSPropertyOp8
 70
     1
102
RTVSPropertyOp9
 70
     1
102
RTVSPropertyOp10
 70
     1
102
RTVSPropertyOp11
 70
     1
102
RTVSPropertyOp12
 70
     1
102
RTVSPropertyOp13
 70
     1
102
RTVSPropertyOp14
 70
     1
102
RTVSPropertyOp15
 70
     1
102
RTVSPropertyOp16
 70
     1
102
RTVSPropertyOp17
 70
     1
102
RTVSPropertyOp18
 70
     1
102
RTVSPropertyOp19
 70
     1
102
RTVSPropertyOp20
 70
     1
102
RTVSPropertyOp21
 70
     1
102
RTVSPropertyOp22
 70
     1
102
RTVSPropertyOp23
 70
     1
102
RTVSPropertyOp24
 70
     1
102
RTVSPropertyOp25
 70
     1
102
RTVSPropertyOp26
 70
     1
102
RTVSPropertyOp27
 70
     1
102
RTVSPropertyOp28
 70
     1
102
RTVSPropertyOp29
 70
     1
102
RTVSPropertyOp30
 70
     1
102
RTVSPropertyOp31
 70
     1
102
RTVSPropertyOp32
 70
     1
  0
XRECORD
  5
116
102
{ACAD_REACTORS
330
115
102
}
330
115
100
AcDbXrecord
280
     1
102
RTVSPropertyOp0
 70
     1
102
RTVSPropertyOp1
 70
     1
102
RTVSPropertyOp2
 70
     1
102
RTVSPropertyOp3
 70
     1
102
RTVSPropertyOp4
 70
     1
102
RTVSPropertyOp5
 70
     1
102
RTVSPropertyOp6
 70
     1
102
RTVSPropertyOp7
 70
     1
102
RTVSPropertyOp8
 70
     1
102
RTVSPropertyOp9
 70
     1
102
RTVSPropertyOp10
 70
     1
102
RTVSPropertyOp11
 70
     1
102
RTVSPropertyOp12
 70
     1
102
RTVSPropertyOp13
 70
     1
102
RTVSPropertyOp14
 70
     1
102
RTVSPropertyOp15
 70
     1
102
RTVSPropertyOp16
 70
     1
102
RTVSPropertyOp17
 70
     1
102
RTVSPropertyOp18
 70
     1
102
RTVSPropertyOp19
 70
     1
102
RTVSPropertyOp20
 70
     1
102
RTVSPropertyOp21
 70
     1
102
RTVSPropertyOp22
 70
     1
102
RTVSPropertyOp23
 70
     1
102
RTVSPropertyOp24
 70
     1
102
RTVSPropertyOp25
 70
     1
102
RTVSPropertyOp26
 70
     1
102
RTVSPropertyOp27
 70
     1
102
RTVSPropertyOp28
 70
     1
102
RTVSPropertyOp29
 70
     1
102
RTVSPropertyOp30
 70
     1
102
RTVSPropertyOp31
 70
     1
102
RTVSPropertyOp32
 70
     1
  0
XRECORD
  5
118
102
{ACAD_REACTORS
330
117
102
}
330
117
100
AcDbXrecord
280
     1
102
RTVSPropertyOp0
 70
     1
102
RTVSPropertyOp1
 70
     1
102
RTVSPropertyOp2
 70
     1
102
RTVSPropertyOp3
 70
     1
102
RTVSPropertyOp4
 70
     1
102
RTVSPropertyOp5
 70
     1
102
RTVSPropertyOp6
 70
     1
102
RTVSPropertyOp7
 70
     1
102
RTVSPropertyOp8
 70
     1
102
RTVSPropertyOp9
 70
     1
102
RTVSPropertyOp10
 70
     1
102
RTVSPropertyOp11
 70
     1
102
RTVSPropertyOp12
 70
     1
102
RTVSPropertyOp13
 70
     1
102
RTVSPropertyOp14
 70
     1
102
RTVSPropertyOp15
 70
     1
102
RTVSPropertyOp16
 70
     1
102
RTVSPropertyOp17
 70
     1
102
RTVSPropertyOp18
 70
     1
102
RTVSPropertyOp19
 70
     1
102
RTVSPropertyOp20
 70
     1
102
RTVSPropertyOp21
 70
     1
102
RTVSPropertyOp22
 70
     1
102
RTVSPropertyOp23
 70
     1
102
RTVSPropertyOp24
 70
     1
102
RTVSPropertyOp25
 70
     1
102
RTVSPropertyOp26
 70
     1
102
RTVSPropertyOp27
 70
     1
102
RTVSPropertyOp28
 70
     1
102
RTVSPropertyOp29
 70
     1
102
RTVSPropertyOp30
 70
     1
102
RTVSPropertyOp31
 70
     1
102
RTVSPropertyOp32
 70
     1
  0
XRECORD
  5
120
102
{ACAD_REACTORS
330
11F
102
}
330
11F
100
AcDbXrecord
280
     1
102
RTVSPropertyOp0
 70
     1
102
RTVSPropertyOp1
 70
     1
102
RTVSPropertyOp2
 70
     1
102
RTVSPropertyOp3
 70
     1
102
RTVSPropertyOp4
 70
     1
102
RTVSPropertyOp5
 70
     1
102
RTVSPropertyOp6
 70
     1
102
RTVSPropertyOp7
 70
     1
102
RTVSPropertyOp8
 70
     1
102
RTVSPropertyOp9
 70
     1
102
RTVSPropertyOp10
 70
     1
102
RTVSPropertyOp11
 70
     1
102
RTVSPropertyOp12
 70
     1
102
RTVSPropertyOp13
 70
     1
102
RTVSPropertyOp14
 70
     1
102
RTVSPropertyOp15
 70
     1
102
RTVSPropertyOp16
 70
     1
102
RTVSPropertyOp17
 70
     1
102
RTVSPropertyOp18
 70
     1
102
RTVSPropertyOp19
 70
     1
102
RTVSPropertyOp20
 70
     1
102
RTVSPropertyOp21
 70
     1
102
RTVSPropertyOp22
 70
     1
102
RTVSPropertyOp23
 70
     1
102
RTVSPropertyOp24
 70
     1
102
RTVSPropertyOp25
 70
     1
102
RTVSPropertyOp26
 70
     1
102
RTVSPropertyOp27
 70
     1
102
RTVSPropertyOp28
 70
     1
102
RTVSPropertyOp29
 70
     1
102
RTVSPropertyOp30
 70
     1
102
RTVSPropertyOp31
 70
     1
102
RTVSPropertyOp32
 70
     1
  0
XRECORD
  5
104
102
{ACAD_REACTORS
330
103
102
}
330
103
100
AcDbXrecord
280
     1
102
RTVSPropertyOp0
 70
     1
102
RTVSPropertyOp1
 70
     1
102
RTVSPropertyOp2
 70
     1
102
RTVSPropertyOp3
 70
     1
102
RTVSPropertyOp4
 70
     1
102
RTVSPropertyOp5
 70
     1
102
RTVSPropertyOp6
 70
     1
102
RTVSPropertyOp7
 70
     1
102
RTVSPropertyOp8
 70
     1
102
RTVSPropertyOp9
 70
     1
102
RTVSPropertyOp10
 70
     1
102
RTVSPropertyOp11
 70
     1
102
RTVSPropertyOp12
 70
     1
102
RTVSPropertyOp13
 70
     1
102
RTVSPropertyOp14
 70
     1
102
RTVSPropertyOp15
 70
     1
102
RTVSPropertyOp16
 70
     1
102
RTVSPropertyOp17
 70
     1
102
RTVSPropertyOp18
 70
     1
102
RTVSPropertyOp19
 70
     1
102
RTVSPropertyOp20
 70
     1
102
RTVSPropertyOp21
 70
     1
102
RTVSPropertyOp22
 70
     1
102
RTVSPropertyOp23
 70
     1
102
RTVSPropertyOp24
 70
     1
102
RTVSPropertyOp25
 70
     1
102
RTVSPropertyOp26
 70
     1
102
RTVSPropertyOp27
 70
     1
102
RTVSPropertyOp28
 70
     1
102
RTVSPropertyOp29
 70
     1
102
RTVSPropertyOp30
 70
     1
102
RTVSPropertyOp31
 70
     1
102
RTVSPropertyOp32
 70
     1
  0
XRECORD
  5
106
102
{ACAD_REACTORS
330
105
102
}
330
105
100
AcDbXrecord
280
     1
102
RTVSPropertyOp0
 70
     1
102
RTVSPropertyOp1
 70
     1
102
RTVSPropertyOp2
 70
     1
102
RTVSPropertyOp3
 70
     1
102
RTVSPropertyOp4
 70
     1
102
RTVSPropertyOp5
 70
     1
102
RTVSPropertyOp6
 70
     1
102
RTVSPropertyOp7
 70
     1
102
RTVSPropertyOp8
 70
     1
102
RTVSPropertyOp9
 70
     1
102
RTVSPropertyOp10
 70
     1
102
RTVSPropertyOp11
 70
     1
102
RTVSPropertyOp12
 70
     1
102
RTVSPropertyOp13
 70
     1
102
RTVSPropertyOp14
 70
     1
102
RTVSPropertyOp15
 70
     1
102
RTVSPropertyOp16
 70
     1
102
RTVSPropertyOp17
 70
     1
102
RTVSPropertyOp18
 70
     1
102
RTVSPropertyOp19
 70
     1
102
RTVSPropertyOp20
 70
     1
102
RTVSPropertyOp21
 70
     1
102
RTVSPropertyOp22
 70
     1
102
RTVSPropertyOp23
 70
     1
102
RTVSPropertyOp24
 70
     1
102
RTVSPropertyOp25
 70
     1
102
RTVSPropertyOp26
 70
     1
102
RTVSPropertyOp27
 70
     1
102
RTVSPropertyOp28
 70
     1
102
RTVSPropertyOp29
 70
     1
102
RTVSPropertyOp30
 70
     1
102
RTVSPropertyOp31
 70
     1
102
RTVSPropertyOp32
 70
     1
  0
XRECORD
  5
108
102
{ACAD_REACTORS
330
107
102
}
330
107
100
AcDbXrecord
280
     1
102
RTVSPropertyOp0
 70
     1
102
RTVSPropertyOp1
 70
     1
102
RTVSPropertyOp2
 70
     1
102
RTVSPropertyOp3
 70
     1
102
RTVSPropertyOp4
 70
     1
102
RTVSPropertyOp5
 70
     1
102
RTVSPropertyOp6
 70
     1
102
RTVSPropertyOp7
 70
     1
102
RTVSPropertyOp8
 70
     1
102
RTVSPropertyOp9
 70
     1
102
RTVSPropertyOp10
 70
     1
102
RTVSPropertyOp11
 70
     1
102
RTVSPropertyOp12
 70
     1
102
RTVSPropertyOp13
 70
     1
102
RTVSPropertyOp14
 70
     1
102
RTVSPropertyOp15
 70
     1
102
RTVSPropertyOp16
 70
     1
102
RTVSPropertyOp17
 70
     1
102
RTVSPropertyOp18
 70
     1
102
RTVSPropertyOp19
 70
     1
102
RTVSPropertyOp20
 70
     1
102
RTVSPropertyOp21
 70
     1
102
RTVSPropertyOp22
 70
     1
102
RTVSPropertyOp23
 70
     1
102
RTVSPropertyOp24
 70
     1
102
RTVSPropertyOp25
 70
     1
102
RTVSPropertyOp26
 70
     1
102
RTVSPropertyOp27
 70
     1
102
RTVSPropertyOp28
 70
     1
102
RTVSPropertyOp29
 70
     1
102
RTVSPropertyOp30
 70
     1
102
RTVSPropertyOp31
 70
     1
102
RTVSPropertyOp32
 70
     1
  0
XRECORD
  5
10A
102
{ACAD_REACTORS
330
109
102
}
330
109
100
AcDbXrecord
280
     1
102
RTVSPropertyOp0
 70
     1
102
RTVSPropertyOp1
 70
     1
102
RTVSPropertyOp2
 70
     1
102
RTVSPropertyOp3
 70
     1
102
RTVSPropertyOp4
 70
     1
102
RTVSPropertyOp5
 70
     1
102
RTVSPropertyOp6
 70
     1
102
RTVSPropertyOp7
 70
     1
102
RTVSPropertyOp8
 70
     1
102
RTVSPropertyOp9
 70
     1
102
RTVSPropertyOp10
 70
     1
102
RTVSPropertyOp11
 70
     1
102
RTVSPropertyOp12
 70
     1
102
RTVSPropertyOp13
 70
     1
102
RTVSPropertyOp14
 70
     1
102
RTVSPropertyOp15
 70
     1
102
RTVSPropertyOp16
 70
     1
102
RTVSPropertyOp17
 70
     1
102
RTVSPropertyOp18
 70
     1
102
RTVSPropertyOp19
 70
     1
102
RTVSPropertyOp20
 70
     1
102
RTVSPropertyOp21
 70
     1
102
RTVSPropertyOp22
 70
     1
102
RTVSPropertyOp23
 70
     1
102
RTVSPropertyOp24
 70
     1
102
RTVSPropertyOp25
 70
     1
102
RTVSPropertyOp26
 70
     1
102
RTVSPropertyOp27
 70
     1
102
RTVSPropertyOp28
 70
     1
102
RTVSPropertyOp29
 70
     1
102
RTVSPropertyOp30
 70
     1
102
RTVSPropertyOp31
 70
     1
102
RTVSPropertyOp32
 70
     1
  0
XRECORD
  5
11E
102
{ACAD_REACTORS
330
11D
102
}
330
11D
100
AcDbXrecord
280
     1
102
RTVSPropertyOp0
 70
     1
102
RTVSPropertyOp1
 70
     1
102
RTVSPropertyOp2
 70
     1
102
RTVSPropertyOp3
 70
     1
102
RTVSPropertyOp4
 70
     1
102
RTVSPropertyOp5
 70
     1
102
RTVSPropertyOp6
 70
     1
102
RTVSPropertyOp7
 70
     1
102
RTVSPropertyOp8
 70
     1
102
RTVSPropertyOp9
 70
     1
102
RTVSPropertyOp10
 70
     1
102
RTVSPropertyOp11
 70
     1
102
RTVSPropertyOp12
 70
     1
102
RTVSPropertyOp13
 70
     1
102
RTVSPropertyOp14
 70
     1
102
RTVSPropertyOp15
 70
     1
102
RTVSPropertyOp16
 70
     1
102
RTVSPropertyOp17
 70
     1
102
RTVSPropertyOp18
 70
     1
102
RTVSPropertyOp19
 70
     1
102
RTVSPropertyOp20
 70
     1
102
RTVSPropertyOp21
 70
     1
102
RTVSPropertyOp22
 70
     1
102
RTVSPropertyOp23
 70
     1
102
RTVSPropertyOp24
 70
     1
102
RTVSPropertyOp25
 70
     1
102
RTVSPropertyOp26
 70
     1
102
RTVSPropertyOp27
 70
     1
102
RTVSPropertyOp28
 70
     1
102
RTVSPropertyOp29
 70
     1
102
RTVSPropertyOp30
 70
     1
102
RTVSPropertyOp31
 70
     1
102
RTVSPropertyOp32
 70
     1
  0
XRECORD
  5
114
102
{ACAD_REACTORS
330
113
102
}
330
113
100
AcDbXrecord
280
     1
102
RTVSPropertyOp0
 70
     1
102
RTVSPropertyOp1
 70
     1
102
RTVSPropertyOp2
 70
     1
102
RTVSPropertyOp3
 70
     1
102
RTVSPropertyOp4
 70
     1
102
RTVSPropertyOp5
 70
     1
102
RTVSPropertyOp6
 70
     1
102
RTVSPropertyOp7
 70
     1
102
RTVSPropertyOp8
 70
     1
102
RTVSPropertyOp9
 70
     1
102
RTVSPropertyOp10
 70
     1
102
RTVSPropertyOp11
 70
     1
102
RTVSPropertyOp12
 70
     1
102
RTVSPropertyOp13
 70
     1
102
RTVSPropertyOp14
 70
     1
102
RTVSPropertyOp15
 70
     1
102
RTVSPropertyOp16
 70
     1
102
RTVSPropertyOp17
 70
     1
102
RTVSPropertyOp18
 70
     1
102
RTVSPropertyOp19
 70
     1
102
RTVSPropertyOp20
 70
     1
102
RTVSPropertyOp21
 70
     1
102
RTVSPropertyOp22
 70
     1
102
RTVSPropertyOp23
 70
     1
102
RTVSPropertyOp24
 70
     1
102
RTVSPropertyOp25
 70
     1
102
RTVSPropertyOp26
 70
     1
102
RTVSPropertyOp27
 70
     1
102
RTVSPropertyOp28
 70
     1
102
RTVSPropertyOp29
 70
     1
102
RTVSPropertyOp30
 70
     1
102
RTVSPropertyOp31
 70
     1
102
RTVSPropertyOp32
 70
     1
  0
XRECORD
  5
11C
102
{ACAD_REACTORS
330
11B
102
}
330
11B
100
AcDbXrecord
280
     1
102
RTVSPropertyOp0
 70
     1
102
RTVSPropertyOp1
 70
     1
102
RTVSPropertyOp2
 70
     1
102
RTVSPropertyOp3
 70
     1
102
RTVSPropertyOp4
 70
     1
102
RTVSPropertyOp5
 70
     1
102
RTVSPropertyOp6
 70
     1
102
RTVSPropertyOp7
 70
     1
102
RTVSPropertyOp8
 70
     1
102
RTVSPropertyOp9
 70
     1
102
RTVSPropertyOp10
 70
     1
102
RTVSPropertyOp11
 70
     1
102
RTVSPropertyOp12
 70
     1
102
RTVSPropertyOp13
 70
     1
102
RTVSPropertyOp14
 70
     1
102
RTVSPropertyOp15
 70
     1
102
RTVSPropertyOp16
 70
     1
102
RTVSPropertyOp17
 70
     1
102
RTVSPropertyOp18
 70
     1
102
RTVSPropertyOp19
 70
     1
102
RTVSPropertyOp20
 70
     1
102
RTVSPropertyOp21
 70
     1
102
RTVSPropertyOp22
 70
     1
102
RTVSPropertyOp23
 70
     1
102
RTVSPropertyOp24
 70
     1
102
RTVSPropertyOp25
 70
     1
102
RTVSPropertyOp26
 70
     1
102
RTVSPropertyOp27
 70
     1
102
RTVSPropertyOp28
 70
     1
102
RTVSPropertyOp29
 70
     1
102
RTVSPropertyOp30
 70
     1
102
RTVSPropertyOp31
 70
     1
102
RTVSPropertyOp32
 70
     1
  0
ENDSEC
  0
EOF
