  0
SECTION
  2
HEADER
  9
$ACADVER
  1
AC1021
  9
$ACADMAINTVER
 70
    25
  9
$DWGCODEPAGE
  3
ANSI_1252
  9
$INSBASE
 10
0.0
 20
0.0
 30
0.0
  9
$EXTMIN
 10
202.7586
 20
-106.3999
 30
0.0
  9
$EXTMAX
 10
342.3119
 20
131.7874
 30
0.0
  9
$LIMMIN
 10
0.0
 20
0.0
  9
$LIMMAX
 10
12.0
 20
9.0
  9
$ORTHOMODE
 70
     0
  9
$REGENMODE
 70
     1
  9
$FILLMODE
 70
     1
  9
$QTEXTMODE
 70
     0
  9
$MIRRTEXT
 70
     1
  9
$LTSCALE
 40
1.0
  9
$ATTMODE
 70
     1
  9
$TEXTSIZE
 40
0.2
  9
$TRACEWID
 40
0.05
  9
$TEXTSTYLE
  7
Standard
  9
$CLAYER
  8
0
  9
$CELTYPE
  6
ByLayer
  9
$CECOLOR
 62
   256
  9
$CELTSCALE
 40
1.0
  9
$DISPSILH
 70
     0
  9
$DIMSCALE
 40
1.0
  9
$DIMASZ
 40
0.18
  9
$DIMEXO
 40
0.0625
  9
$DIMDLI
 40
0.38
  9
$DIMRND
 40
0.0
  9
$DIMDLE
 40
0.0
  9
$DIMEXE
 40
0.18
  9
$DIMTP
 40
0.0
  9
$DIMTM
 40
0.0
  9
$DIMTXT
 40
0.18
  9
$DIMCEN
 40
0.09
  9
$DIMTSZ
 40
0.0
  9
$DIMTOL
 70
     0
  9
$DIMLIM
 70
     0
  9
$DIMTIH
 70
     1
  9
$DIMTOH
 70
     1
  9
$DIMSE1
 70
     0
  9
$DIMSE2
 70
     0
  9
$DIMTAD
 70
     0
  9
$DIMZIN
 70
     0
  9
$DIMBLK
  1

  9
$DIMASO
 70
     1
  9
$DIMSHO
 70
     1
  9
$DIMPOST
  1

  9
$DIMAPOST
  1

  9
$DIMALT
 70
     0
  9
$DIMALTD
 70
     2
  9
$DIMALTF
 40
25.4
  9
$DIMLFAC
 40
1.0
  9
$DIMTOFL
 70
     0
  9
$DIMTVP
 40
0.0
  9
$DIMTIX
 70
     0
  9
$DIMSOXD
 70
     0
  9
$DIMSAH
 70
     0
  9
$DIMBLK1
  1

  9
$DIMBLK2
  1

  9
$DIMSTYLE
  2
Standard
  9
$DIMCLRD
 70
     0
  9
$DIMCLRE
 70
     0
  9
$DIMCLRT
 70
     0
  9
$DIMTFAC
 40
1.0
  9
$DIMGAP
 40
0.09
  9
$DIMJUST
 70
     0
  9
$DIMSD1
 70
     0
  9
$DIMSD2
 70
     0
  9
$DIMTOLJ
 70
     1
  9
$DIMTZIN
 70
     0
  9
$DIMALTZ
 70
     0
  9
$DIMALTTZ
 70
     0
  9
$DIMUPT
 70
     0
  9
$DIMDEC
 70
     4
  9
$DIMTDEC
 70
     4
  9
$DIMALTU
 70
     2
  9
$DIMALTTD
 70
     2
  9
$DIMTXSTY
  7
Standard
  9
$DIMAUNIT
 70
     0
  9
$DIMADEC
 70
     0
  9
$DIMALTRND
 40
0.0
  9
$DIMAZIN
 70
     0
  9
$DIMDSEP
 70
    46
  9
$DIMATFIT
 70
     3
  9
$DIMFRAC
 70
     0
  9
$DIMLDRBLK
  1

  9
$DIMLUNIT
 70
     2
  9
$DIMLWD
 70
    -2
  9
$DIMLWE
 70
    -2
  9
$DIMTMOVE
 70
     0
  9
$DIMFXL
 40
1.0
  9
$DIMFXLON
 70
     0
  9
$DIMJOGANG
 40
0.7853981633974483
  9
$DIMTFILL
 70
     0
  9
$DIMTFILLCLR
 70
     0
  9
$DIMARCSYM
 70
     0
  9
$DIMLTYPE
  6

  9
$DIMLTEX1
  6

  9
$DIMLTEX2
  6

  9
$LUNITS
 70
     2
  9
$LUPREC
 70
     4
  9
$SKETCHINC
 40
0.1
  9
$FILLETRAD
 40
0.5
  9
$AUNITS
 70
     0
  9
$AUPREC
 70
     0
  9
$MENU
  1
.
  9
$ELEVATION
 40
0.0
  9
$PELEVATION
 40
0.0
  9
$THICKNESS
 40
0.0
  9
$LIMCHECK
 70
     0
  9
$CHAMFERA
 40
0.5
  9
$CHAMFERB
 40
0.5
  9
$CHAMFERC
 40
1.0
  9
$CHAMFERD
 40
0.0
  9
$SKPOLY
 70
     0
  9
$TDCREATE
 40
2458493.690011829
  9
$TDUCREATE
 40
2458493.690011829
  9
$TDUPDATE
 40
2458493.690011956
  9
$TDUUPDATE
 40
2458493.690011956
  9
$TDINDWG
 40
0.0000000116
  9
$TDUSRTIMER
 40
0.0000000116
  9
$USRTIMER
 70
     1
  9
$ANGBASE
 50
0.0
  9
$ANGDIR
 70
     0
  9
$PDMODE
 70
     0
  9
$PDSIZE
 40
0.0
  9
$PLINEWID
 40
0.0
  9
$SPLFRAME
 70
     0
  9
$SPLINETYPE
 70
     6
  9
$SPLINESEGS
 70
     8
  9
$HANDSEED
  5
96
  9
$SURFTAB1
 70
     6
  9
$SURFTAB2
 70
     6
  9
$SURFTYPE
 70
     6
  9
$SURFU
 70
     6
  9
$SURFV
 70
     6
  9
$UCSBASE
  2

  9
$UCSNAME
  2

  9
$UCSORG
 10
0.0
 20
0.0
 30
0.0
  9
$UCSXDIR
 10
1.0
 20
0.0
 30
0.0
  9
$UCSYDIR
 10
0.0
 20
1.0
 30
0.0
  9
$UCSORTHOREF
  2

  9
$UCSORTHOVIEW
 70
     0
  9
$UCSORGTOP
 10
0.0
 20
0.0
 30
0.0
  9
$UCSORGBOTTOM
 10
0.0
 20
0.0
 30
0.0
  9
$UCSORGLEFT
 10
0.0
 20
0.0
 30
0.0
  9
$UCSORGRIGHT
 10
0.0
 20
0.0
 30
0.0
  9
$UCSORGFRONT
 10
0.0
 20
0.0
 30
0.0
  9
$UCSORGBACK
 10
0.0
 20
0.0
 30
0.0
  9
$PUCSBASE
  2

  9
$PUCSNAME
  2

  9
$PUCSORG
 10
0.0
 20
0.0
 30
0.0
  9
$PUCSXDIR
 10
1.0
 20
0.0
 30
0.0
  9
$PUCSYDIR
 10
0.0
 20
1.0
 30
0.0
  9
$PUCSORTHOREF
  2

  9
$PUCSORTHOVIEW
 70
     0
  9
$PUCSORGTOP
 10
0.0
 20
0.0
 30
0.0
  9
$PUCSORGBOTTOM
 10
0.0
 20
0.0
 30
0.0
  9
$PUCSORGLEFT
 10
0.0
 20
0.0
 30
0.0
  9
$PUCSORGRIGHT
 10
0.0
 20
0.0
 30
0.0
  9
$PUCSORGFRONT
 10
0.0
 20
0.0
 30
0.0
  9
$PUCSORGBACK
 10
0.0
 20
0.0
 30
0.0
  9
$USERI1
 70
     0
  9
$USERI2
 70
     0
  9
$USERI3
 70
     0
  9
$USERI4
 70
     0
  9
$USERI5
 70
     0
  9
$USERR1
 40
0.0
  9
$USERR2
 40
0.0
  9
$USERR3
 40
0.0
  9
$USERR4
 40
0.0
  9
$USERR5
 40
0.0
  9
$WORLDVIEW
 70
     1
  9
$SHADEDGE
 70
     3
  9
$SHADEDIF
 70
    70
  9
$TILEMODE
 70
     1
  9
$MAXACTVP
 70
    64
  9
$PINSBASE
 10
0.0
 20
0.0
 30
0.0
  9
$PLIMCHECK
 70
     0
  9
$PEXTMIN
 10
1.000000000000000E+20
 20
1.000000000000000E+20
 30
1.000000000000000E+20
  9
$PEXTMAX
 10
-1.000000000000000E+20
 20
-1.000000000000000E+20
 30
-1.000000000000000E+20
  9
$PLIMMIN
 10
0.0
 20
0.0
  9
$PLIMMAX
 10
12.0
 20
9.0
  9
$UNITMODE
 70
     0
  9
$VISRETAIN
 70
     1
  9
$PLINEGEN
 70
     0
  9
$PSLTSCALE
 70
     1
  9
$TREEDEPTH
 70
  3020
  9
$CMLSTYLE
  2
Standard
  9
$CMLJUST
 70
     0
  9
$CMLSCALE
 40
1.0
  9
$PROXYGRAPHICS
 70
     1
  9
$MEASUREMENT
 70
     0
  9
$CELWEIGHT
370
    -1
  9
$ENDCAPS
280
     0
  9
$JOINSTYLE
280
     0
  9
$LWDISPLAY
290
     0
  9
$INSUNITS
 70
     4
  9
$HYPERLINKBASE
  1

  9
$STYLESHEET
  1

  9
$XEDIT
290
     1
  9
$CEPSNTYPE
380
     0
  9
$PSTYLEMODE
290
     1
  9
$FINGERPRINTGUID
  2
{13B8F45B-BEE1-498B-BC24-AD19D250360A}
  9
$VERSIONGUID
  2
{FAEB1C32-E019-11D5-929B-00C0DF256EC4}
  9
$EXTNAMES
290
     1
  9
$PSVPSCALE
 40
0.0
  9
$OLESTARTUP
290
     0
  9
$SORTENTS
280
   127
  9
$INDEXCTL
280
     0
  9
$HIDETEXT
280
     1
  9
$XCLIPFRAME
290
     0
  9
$HALOGAP
280
     0
  9
$OBSCOLOR
 70
   257
  9
$OBSLTYPE
280
     0
  9
$INTERSECTIONDISPLAY
280
     0
  9
$INTERSECTIONCOLOR
 70
   257
  9
$DIMASSOC
280
     2
  9
$PROJECTNAME
  1

  9
$CAMERADISPLAY
290
     0
  9
$LENSLENGTH
 40
50.0
  9
$CAMERAHEIGHT
 40
0.0
  9
$STEPSPERSEC
 40
2.0
  9
$STEPSIZE
 40
6.0
  9
$3DDWFPREC
 40
2.0
  9
$PSOLWIDTH
 40
0.25
  9
$PSOLHEIGHT
 40
4.0
  9
$LOFTANG1
 40
1.570796326794897
  9
$LOFTANG2
 40
1.570796326794897
  9
$LOFTMAG1
 40
0.0
  9
$LOFTMAG2
 40
0.0
  9
$LOFTPARAM
 70
     7
  9
$LOFTNORMALS
280
     1
  9
$LATITUDE
 40
37.795
  9
$LONGITUDE
 40
-122.394
  9
$NORTHDIRECTION
 40
0.0
  9
$TIMEZONE
 70
 -8000
  9
$LIGHTGLYPHDISPLAY
280
     1
  9
$TILEMODELIGHTSYNCH
280
     1
  9
$SOLIDHIST
280
     1
  9
$SHOWHIST
280
     1
  9
$DWFFRAME
280
     2
  9
$DGNFRAME
280
     2
  9
$REALWORLDSCALE
290
     1
  9
$INTERFERECOLOR
 62
   256
  9
$CSHADOW
280
     0
  9
$SHADOWPLANELOCATION
 40
0.0
  0
ENDSEC
  0
SECTION
  2
CLASSES
  0
CLASS
  1
ACDBDICTIONARYWDFLT
  2
AcDbDictionaryWithDefault
  3
ObjectDBX Classes
 90
        0
 91
        4
280
     0
281
     0
  0
CLASS
  1
VISUALSTYLE
  2
AcDbVisualStyle
  3
ObjectDBX Classes
 90
     4095
 91
        4
280
     0
281
     0
  0
CLASS
  1
MATERIAL
  2
AcDbMaterial
  3
ObjectDBX Classes
 90
     1153
 91
        4
280
     0
281
     0
  0
ENDSEC
  0
SECTION
  2
TABLES
  0
TABLE
  2
VPORT
  5
8
330
0
100
AcDbSymbolTable
 70
     1
  0
VPORT
  5
29
330
8
100
AcDbSymbolTableRecord
100
AcDbViewportTableRecord
  2
*Active
 70
     0
 10
0.0
 20
0.0
 11
1.0
 21
1.0
 12
10.42990654205607
 22
4.5
 13
0.0
 23
0.0
 14
0.5
 24
0.5
 15
0.5
 25
0.5
 16
0.0
 26
0.0
 36
1.0
 17
0.0
 27
0.0
 37
0.0
 40
9.0
 41
1.972972972850329
 42
50.0
 43
0.0
 44
0.0
 50
0.0
 51
0.0
 71
     0
 72
   100
 73
     1
 74
     3
 75
     0
 76
     0
 77
     0
 78
     0
281
     0
 65
     1
110
0.0
120
0.0
130
0.0
111
1.0
121
0.0
131
0.0
112
0.0
122
1.0
132
0.0
 79
     0
146
0.0
 60
     3
 61
     5
292
     1
282
     1
141
0.0
142
0.0
 63
   250
  0
ENDTAB
  0
TABLE
  2
LTYPE
  5
5
330
0
100
AcDbSymbolTable
 70
     1
  0
LTYPE
  5
14
330
5
100
AcDbSymbolTableRecord
100
AcDbLinetypeTableRecord
  2
ByBlock
 70
     0
  3

 72
    65
 73
     0
 40
0.0
  0
LTYPE
  5
15
330
5
100
AcDbSymbolTableRecord
100
AcDbLinetypeTableRecord
  2
ByLayer
 70
     0
  3

 72
    65
 73
     0
 40
0.0
  0
LTYPE
  5
16
330
5
100
AcDbSymbolTableRecord
100
AcDbLinetypeTableRecord
  2
Continuous
 70
     0
  3
Solid line
 72
    65
 73
     0
 40
0.0
  0
ENDTAB
  0
TABLE
  2
LAYER
  5
2
330
0
100
AcDbSymbolTable
 70
     3
  0
LAYER
  5
10
330
2
100
AcDbSymbolTableRecord
100
AcDbLayerTableRecord
  2
0
 70
     0
 62
     7
  6
Continuous
370
    -3
390
F
347
3E
  0
LAYER
  5
40
330
2
100
AcDbSymbolTableRecord
100
AcDbLayerTableRecord
  2
layer 1
 70
     0
 62
     7
  6
Continuous
370
    -3
390
F
347
3E
  0
LAYER
  5
73
330
2
100
AcDbSymbolTableRecord
100
AcDbLayerTableRecord
  2
Master Guides
 70
     0
 62
     7
  6
Continuous
370
    -3
390
F
347
3E
  0
ENDTAB
  0
TABLE
  2
STYLE
  5
3
330
0
100
AcDbSymbolTable
 70
     1
  0
STYLE
  5
11
330
3
100
AcDbSymbolTableRecord
100
AcDbTextStyleTableRecord
  2
Standard
 70
     0
 40
0.0
 41
1.0
 50
0.0
 71
     0
 42
0.2
  3
txt
  4

  0
ENDTAB
  0
TABLE
  2
VIEW
  5
6
330
0
100
AcDbSymbolTable
 70
     0
  0
ENDTAB
  0
TABLE
  2
UCS
  5
7
330
0
100
AcDbSymbolTable
 70
     0
  0
ENDTAB
  0
TABLE
  2
APPID
  5
9
330
0
100
AcDbSymbolTable
 70
     2
  0
APPID
  5
12
330
9
100
AcDbSymbolTableRecord
100
AcDbRegAppTableRecord
  2
ACAD
 70
     0
  0
APPID
  5
3F
330
9
100
AcDbSymbolTableRecord
100
AcDbRegAppTableRecord
  2
ODA
 70
     0
  0
ENDTAB
  0
TABLE
  2
DIMSTYLE
  5
A
330
0
100
AcDbSymbolTable
 70
     1
100
AcDbDimStyleTable
  0
DIMSTYLE
105
27
330
A
100
AcDbSymbolTableRecord
100
AcDbDimStyleTableRecord
  2
Standard
 70
     0
178
     0
340
11
  0
ENDTAB
  0
TABLE
  2
BLOCK_RECORD
  5
1
330
0
100
AcDbSymbolTable
 70
     1
  0
BLOCK_RECORD
  5
1F
330
1
100
AcDbSymbolTableRecord
100
AcDbBlockTableRecord
  2
*Model_Space
340
22
 70
     0
280
     1
281
     0
  0
BLOCK_RECORD
  5
1B
330
1
100
AcDbSymbolTableRecord
100
AcDbBlockTableRecord
  2
*Paper_Space
340
1E
 70
     0
280
     1
281
     0
  0
BLOCK_RECORD
  5
23
330
1
100
AcDbSymbolTableRecord
100
AcDbBlockTableRecord
  2
*Paper_Space0
340
26
 70
     0
280
     1
281
     0
  0
ENDTAB
  0
ENDSEC
  0
SECTION
  2
BLOCKS
  0
BLOCK
  5
20
330
1F
100
AcDbEntity
  8
0
100
AcDbBlockBegin
  2
*Model_Space
 70
     0
 10
0.0
 20
0.0
 30
0.0
  3
*Model_Space
  1

  0
ENDBLK
  5
21
330
1F
100
AcDbEntity
  8
0
100
AcDbBlockEnd
  0
BLOCK
  5
1C
330
1B
100
AcDbEntity
 67
     1
  8
0
100
AcDbBlockBegin
  2
*Paper_Space
 70
     0
 10
0.0
 20
0.0
 30
0.0
  3
*Paper_Space
  1

  0
ENDBLK
  5
1D
330
1B
100
AcDbEntity
 67
     1
  8
0
100
AcDbBlockEnd
  0
BLOCK
  5
24
330
23
100
AcDbEntity
  8
0
100
AcDbBlockBegin
  2
*Paper_Space0
 70
     0
 10
0.0
 20
0.0
 30
0.0
  3
*Paper_Space0
  1

  0
ENDBLK
  5
25
330
23
100
AcDbEntity
  8
0
100
AcDbBlockEnd
  0
ENDSEC
  0
SECTION
  2
ENTITIES
  0
SPLINE
  5
41
330
1F
100
AcDbEntity
  8
layer 1
 62
   250
100
AcDbSpline
210
0.0
220
0.0
230
1.0
 70
    11
 71
     3
 72
    20
 73
    16
 74
     0
 42
0.0000000001
 43
0.0000000001
 12
1.0
 22
0.0
 32
0.0
 13
1.0
 23
0.0
 33
0.0
 40
0.0
 40
0.0
 40
0.0
 40
0.0
 40
0.2
 40
0.2
 40
0.2
 40
0.2
 40
0.4
 40
0.4
 40
0.4
 40
0.4
 40
0.6
 40
0.6
 40
0.6
 40
0.6
 40
1.0
 40
1.0
 40
1.0
 40
1.0
 10
202.7586
 20
131.7874
 30
0.0
 10
202.7586
 20
131.7874
 30
0.0
 10
264.9912
 20
131.7874
 30
0.0
 10
264.9912
 20
131.7874
 30
0.0
 10
264.9912
 20
131.7874
 30
0.0
 10
264.9912
 20
131.7874
 30
0.0
 10
264.9912
 20
-106.3758
 30
0.0
 10
264.9912
 20
-106.3758
 30
0.0
 10
264.9912
 20
-106.3758
 30
0.0
 10
264.9912
 20
-106.3758
 30
0.0
 10
202.7586
 20
-106.3758
 30
0.0
 10
202.7586
 20
-106.3758
 30
0.0
 10
202.7586
 20
-106.3758
 30
0.0
 10
202.7586
 20
-106.3758
 30
0.0
 10
202.7586
 20
131.7874
 30
0.0
 10
202.7586
 20
131.7874
 30
0.0
  0
SPLINE
  5
42
330
1F
100
AcDbEntity
  8
layer 1
 62
     7
100
AcDbSpline
210
0.0
220
0.0
230
1.0
 70
    11
 71
     3
 72
    12
 73
     8
 74
     0
 42
0.0000000001
 43
0.0000000001
 12
1.0
 22
0.0
 32
0.0
 13
1.0
 23
0.0
 33
0.0
 40
0.0
 40
0.0
 40
0.0
 40
0.0
 40
0.3333333333333333
 40
0.3333333333333333
 40
0.3333333333333333
 40
0.3333333333333333
 40
1.0
 40
1.0
 40
1.0
 40
1.0
 10
225.6853
 20
25.5189
 30
0.0
 10
245.6378
 20
14.4201
 30
0.0
 10
267.9983
 20
30.161
 30
0.0
 10
252.1308
 20
44.6359
 30
0.0
 10
252.1308
 20
44.6359
 30
0.0
 10
238.0265
 20
50.1643
 30
0.0
 10
229.4693
 20
34.9297
 30
0.0
 10
225.6853
 20
25.5189
 30
0.0
  0
SPLINE
  5
43
330
1F
100
AcDbEntity
  8
layer 1
 62
     7
100
AcDbSpline
210
0.0
220
0.0
230
1.0
 70
    11
 71
     3
 72
    12
 73
     8
 74
     0
 42
0.0000000001
 43
0.0000000001
 12
1.0
 22
0.0
 32
0.0
 13
1.0
 23
0.0
 33
0.0
 40
0.0
 40
0.0
 40
0.0
 40
0.0
 40
0.3333333333333333
 40
0.3333333333333333
 40
0.3333333333333333
 40
0.3333333333333333
 40
1.0
 40
1.0
 40
1.0
 40
1.0
 10
225.8134
 20
2.9772
 30
0.0
 10
245.7659
 20
14.0762
 30
0.0
 10
268.1262
 20
-1.6647
 30
0.0
 10
252.2589
 20
-16.1396
 30
0.0
 10
252.2589
 20
-16.1396
 30
0.0
 10
238.1546
 20
-21.6679
 30
0.0
 10
229.5975
 20
-6.4335
 30
0.0
 10
225.8134
 20
2.9772
 30
0.0
  0
SPLINE
  5
44
330
1F
100
AcDbEntity
  8
layer 1
 62
     7
100
AcDbSpline
210
0.0
220
0.0
230
1.0
 70
    11
 71
     3
 72
    16
 73
    12
 74
     0
 42
0.0000000001
 43
0.0000000001
 12
1.0
 22
0.0
 32
0.0
 13
1.0
 23
0.0
 33
0.0
 40
0.0
 40
0.0
 40
0.0
 40
0.0
 40
0.25
 40
0.25
 40
0.25
 40
0.25
 40
0.5
 40
0.5
 40
0.5
 40
0.5
 40
1.0
 40
1.0
 40
1.0
 40
1.0
 10
206.351
 20
63.3027
 30
0.0
 10
206.351
 20
63.3027
 30
0.0
 10
206.351
 20
84.3049
 30
0.0
 10
206.351
 20
84.3049
 30
0.0
 10
206.351
 20
84.3049
 30
0.0
 10
207.2326
 20
79.0764
 30
0.0
 10
208.3105
 20
74.6347
 30
0.0
 10
209.1746
 20
72.2573
 30
0.0
 10
209.1746
 20
72.2573
 30
0.0
 10
207.9892
 20
69.6531
 30
0.0
 10
207.0465
 20
66.5827
 30
0.0
 10
206.351
 20
63.3027
 30
0.0
  0
SPLINE
  5
45
330
1F
100
AcDbEntity
  8
layer 1
 62
     7
100
AcDbSpline
210
0.0
220
0.0
230
1.0
 70
    11
 71
     3
 72
    24
 73
    20
 74
     0
 42
0.0000000001
 43
0.0000000001
 12
1.0
 22
0.0
 32
0.0
 13
1.0
 23
0.0
 33
0.0
 40
0.0
 40
0.0
 40
0.0
 40
0.0
 40
0.1666666666666667
 40
0.1666666666666667
 40
0.1666666666666667
 40
0.1666666666666667
 40
0.3333333333333333
 40
0.3333333333333333
 40
0.3333333333333333
 40
0.3333333333333333
 40
0.5
 40
0.5
 40
0.5
 40
0.5
 40
0.6666666666666666
 40
0.6666666666666666
 40
0.6666666666666666
 40
0.6666666666666666
 40
1.0
 40
1.0
 40
1.0
 40
1.0
 10
206.351
 20
24.5387
 30
0.0
 10
206.351
 20
24.5387
 30
0.0
 10
206.351
 20
36.8197
 30
0.0
 10
206.351
 20
36.8197
 30
0.0
 10
206.351
 20
36.8197
 30
0.0
 10
207.8459
 20
31.5644
 30
0.0
 10
210.5088
 20
28.5079
 30
0.0
 10
214.3916
 20
30.0499
 30
0.0
 10
214.3916
 20
30.0499
 30
0.0
 10
215.474
 20
28.1915
 30
0.0
 10
216.7184
 20
26.3562
 30
0.0
 10
219.0994
 20
24.6803
 30
0.0
 10
219.0994
 20
24.6803
 30
0.0
 10
217.6865
 20
22.0646
 30
0.0
 10
215.511
 20
20.4466
 30
0.0
 10
212.9891
 20
19.2822
 30
0.0
 10
212.9891
 20
19.2822
 30
0.0
 10
210.4392
 20
24.6007
 30
0.0
 10
207.9684
 20
25.5451
 30
0.0
 10
206.351
 20
24.5387
 30
0.0
  0
SPLINE
  5
46
330
1F
100
AcDbEntity
  8
layer 1
 62
     7
100
AcDbSpline
210
0.0
220
0.0
230
1.0
 70
    11
 71
     3
 72
    16
 73
    12
 74
     0
 42
0.0000000001
 43
0.0000000001
 12
1.0
 22
0.0
 32
0.0
 13
1.0
 23
0.0
 33
0.0
 40
0.0
 40
0.0
 40
0.0
 40
0.0
 40
0.25
 40
0.25
 40
0.25
 40
0.25
 40
0.5
 40
0.5
 40
0.5
 40
0.5
 40
1.0
 40
1.0
 40
1.0
 40
1.0
 10
206.351
 20
12.6041
 30
0.0
 10
206.351
 20
12.6041
 30
0.0
 10
206.351
 20
15.7771
 30
0.0
 10
206.351
 20
15.7771
 30
0.0
 10
206.351
 20
15.7771
 30
0.0
 10
207.3073
 20
14.915
 30
0.0
 10
208.6605
 20
14.3251
 30
0.0
 10
210.4909
 20
14.2457
 30
0.0
 10
210.4909
 20
14.2457
 30
0.0
 10
208.6434
 20
14.1407
 30
0.0
 10
207.2915
 20
13.5094
 30
0.0
 10
206.351
 20
12.6041
 30
0.0
  0
SPLINE
  5
47
330
1F
100
AcDbEntity
  8
layer 1
 62
     7
100
AcDbSpline
210
0.0
220
0.0
230
1.0
 70
    11
 71
     3
 72
    24
 73
    20
 74
     0
 42
0.0000000001
 43
0.0000000001
 12
1.0
 22
0.0
 32
0.0
 13
1.0
 23
0.0
 33
0.0
 40
0.0
 40
0.0
 40
0.0
 40
0.0
 40
0.1666666666666667
 40
0.1666666666666667
 40
0.1666666666666667
 40
0.1666666666666667
 40
0.3333333333333333
 40
0.3333333333333333
 40
0.3333333333333333
 40
0.3333333333333333
 40
0.5
 40
0.5
 40
0.5
 40
0.5
 40
0.6666666666666666
 40
0.6666666666666666
 40
0.6666666666666666
 40
0.6666666666666666
 40
1.0
 40
1.0
 40
1.0
 40
1.0
 10
206.351
 20
-8.7963
 30
0.0
 10
206.351
 20
-8.7963
 30
0.0
 10
206.351
 20
4.0447
 30
0.0
 10
206.351
 20
4.0447
 30
0.0
 10
206.351
 20
4.0447
 30
0.0
 10
207.9639
 20
2.9055
 30
0.0
 10
210.4989
 20
3.7529
 30
0.0
 10
213.1172
 20
9.214
 30
0.0
 10
213.1172
 20
9.214
 30
0.0
 10
215.6391
 20
8.0497
 30
0.0
 10
217.8146
 20
6.4316
 30
0.0
 10
219.2275
 20
3.8161
 30
0.0
 10
219.2275
 20
3.8161
 30
0.0
 10
216.8465
 20
2.1401
 30
0.0
 10
215.6019
 20
0.3047
 30
0.0
 10
214.5196
 20
-1.5536
 30
0.0
 10
214.5196
 20
-1.5536
 30
0.0
 10
210.5222
 20
0.0341
 30
0.0
 10
207.819
 20
-3.2541
 30
0.0
 10
206.351
 20
-8.7963
 30
0.0
  0
SPLINE
  5
48
330
1F
100
AcDbEntity
  8
layer 1
 62
     7
100
AcDbSpline
210
0.0
220
0.0
230
1.0
 70
    11
 71
     3
 72
    16
 73
    12
 74
     0
 42
0.0000000001
 43
0.0000000001
 12
1.0
 22
0.0
 32
0.0
 13
1.0
 23
0.0
 33
0.0
 40
0.0
 40
0.0
 40
0.0
 40
0.0
 40
0.25
 40
0.25
 40
0.25
 40
0.25
 40
0.5
 40
0.5
 40
0.5
 40
0.5
 40
1.0
 40
1.0
 40
1.0
 40
1.0
 10
206.351
 20
-54.4776
 30
0.0
 10
206.351
 20
-54.4776
 30
0.0
 10
206.351
 20
-34.1757
 30
0.0
 10
206.351
 20
-34.1757
 30
0.0
 10
206.351
 20
-34.1757
 30
0.0
 10
207.0505
 20
-37.6586
 30
0.0
 10
208.0241
 20
-40.9288
 30
0.0
 10
209.2683
 20
-43.6826
 30
0.0
 10
209.2683
 20
-43.6826
 30
0.0
 10
208.3998
 20
-46.1041
 30
0.0
 10
207.3145
 20
-49.9771
 30
0.0
 10
206.351
 20
-54.4776
 30
0.0
  0
SPLINE
  5
49
330
1F
100
AcDbEntity
  8
layer 1
 62
     7
100
AcDbSpline
210
0.0
220
0.0
230
1.0
 70
    11
 71
     3
 72
    24
 73
    20
 74
     0
 42
0.0000000001
 43
0.0000000001
 12
1.0
 22
0.0
 32
0.0
 13
1.0
 23
0.0
 33
0.0
 40
0.0
 40
0.0
 40
0.0
 40
0.0
 40
0.1666666666666667
 40
0.1666666666666667
 40
0.1666666666666667
 40
0.1666666666666667
 40
0.3333333333333333
 40
0.3333333333333333
 40
0.3333333333333333
 40
0.3333333333333333
 40
0.5
 40
0.5
 40
0.5
 40
0.5
 40
0.6666666666666666
 40
0.6666666666666666
 40
0.6666666666666666
 40
0.6666666666666666
 40
1.0
 40
1.0
 40
1.0
 40
1.0
 10
211.4753
 20
-102.1764
 30
0.0
 10
211.4753
 20
-102.1764
 30
0.0
 10
206.351
 20
-102.1764
 30
0.0
 10
206.351
 20
-102.1764
 30
0.0
 10
206.351
 20
-102.1764
 30
0.0
 10
206.351
 20
-102.1764
 30
0.0
 10
206.351
 20
-86.5954
 30
0.0
 10
206.351
 20
-86.5954
 30
0.0
 10
206.351
 20
-86.5954
 30
0.0
 10
207.7763
 20
-88.9591
 30
0.0
 10
209.9245
 20
-90.2772
 30
0.0
 10
213.0229
 20
-89.9993
 30
0.0
 10
213.0229
 20
-89.9993
 30
0.0
 10
213.6591
 20
-91.7477
 30
0.0
 10
214.6346
 20
-93.3293
 30
0.0
 10
215.9493
 20
-94.7445
 30
0.0
 10
215.9493
 20
-94.7445
 30
0.0
 10
214.3527
 20
-96.4982
 30
0.0
 10
212.8437
 20
-99.0552
 30
0.0
 10
211.4753
 20
-102.1764
 30
0.0
  0
SPLINE
  5
4A
330
1F
100
AcDbEntity
  8
layer 1
 62
     7
100
AcDbSpline
210
0.0
220
0.0
230
1.0
 70
    11
 71
     3
 72
    16
 73
    12
 74
     0
 42
0.0000000001
 43
0.0000000001
 12
1.0
 22
0.0
 32
0.0
 13
1.0
 23
0.0
 33
0.0
 40
0.0
 40
0.0
 40
0.0
 40
0.0
 40
0.25
 40
0.25
 40
0.25
 40
0.25
 40
0.5
 40
0.5
 40
0.5
 40
0.5
 40
1.0
 40
1.0
 40
1.0
 40
1.0
 10
222.0887
 20
-102.1764
 30
0.0
 10
222.0887
 20
-102.1764
 30
0.0
 10
216.4742
 20
-102.1764
 30
0.0
 10
216.4742
 20
-102.1764
 30
0.0
 10
216.4742
 20
-102.1764
 30
0.0
 10
217.1091
 20
-100.8444
 30
0.0
 10
217.8045
 20
-99.5126
 30
0.0
 10
218.5658
 20
-98.1805
 30
0.0
 10
218.5658
 20
-98.1805
 30
0.0
 10
219.5851
 20
-99.5458
 30
0.0
 10
220.7735
 20
-100.8944
 30
0.0
 10
222.0887
 20
-102.1764
 30
0.0
  0
SPLINE
  5
4B
330
1F
100
AcDbEntity
  8
layer 1
 62
     7
100
AcDbSpline
210
0.0
220
0.0
230
1.0
 70
    11
 71
     3
 72
    20
 73
    16
 74
     0
 42
0.0000000001
 43
0.0000000001
 12
1.0
 22
0.0
 32
0.0
 13
1.0
 23
0.0
 33
0.0
 40
0.0
 40
0.0
 40
0.0
 40
0.0
 40
0.2
 40
0.2
 40
0.2
 40
0.2
 40
0.4
 40
0.4
 40
0.4
 40
0.4
 40
0.6
 40
0.6
 40
0.6
 40
0.6
 40
1.0
 40
1.0
 40
1.0
 40
1.0
 10
248.4387
 20
-102.1764
 30
0.0
 10
248.4387
 20
-102.1764
 30
0.0
 10
230.23
 20
-102.1764
 30
0.0
 10
230.23
 20
-102.1764
 30
0.0
 10
230.23
 20
-102.1764
 30
0.0
 10
227.0313
 20
-100.3002
 30
0.0
 10
223.9906
 20
-97.7806
 30
0.0
 10
221.6335
 20
-94.8356
 30
0.0
 10
221.6335
 20
-94.8356
 30
0.0
 10
229.6372
 20
-87.07
 30
0.0
 10
250.0679
 20
-86.5334
 30
0.0
 10
249.2409
 20
-99.3512
 30
0.0
 10
249.2409
 20
-99.3512
 30
0.0
 10
249.1186
 20
-100.4424
 30
0.0
 10
248.8425
 20
-101.3799
 30
0.0
 10
248.4387
 20
-102.1764
 30
0.0
  0
SPLINE
  5
4C
330
1F
100
AcDbEntity
  8
layer 1
 62
     7
100
AcDbSpline
210
0.0
220
0.0
230
1.0
 70
    11
 71
     3
 72
    32
 73
    28
 74
     0
 42
0.0000000001
 43
0.0000000001
 12
1.0
 22
0.0
 32
0.0
 13
1.0
 23
0.0
 33
0.0
 40
0.0
 40
0.0
 40
0.0
 40
0.0
 40
0.125
 40
0.125
 40
0.125
 40
0.125
 40
0.25
 40
0.25
 40
0.25
 40
0.25
 40
0.375
 40
0.375
 40
0.375
 40
0.375
 40
0.5
 40
0.5
 40
0.5
 40
0.5
 40
0.625
 40
0.625
 40
0.625
 40
0.625
 40
0.75
 40
0.75
 40
0.75
 40
0.75
 40
1.0
 40
1.0
 40
1.0
 40
1.0
 10
257.1726
 20
-102.1764
 30
0.0
 10
257.1726
 20
-102.1764
 30
0.0
 10
253.9363
 20
-102.1764
 30
0.0
 10
253.9363
 20
-102.1764
 30
0.0
 10
253.9363
 20
-102.1764
 30
0.0
 10
253.9614
 20
-102.1259
 30
0.0
 10
253.9876
 20
-102.0782
 30
0.0
 10
254.0126
 20
-102.0272
 30
0.0
 10
254.0126
 20
-102.0272
 30
0.0
 10
258.7205
 20
-90.6878
 30
0.0
 10
237.0251
 20
-76.3403
 30
0.0
 10
219.9292
 20
-91.8251
 30
0.0
 10
219.9292
 20
-91.8251
 30
0.0
 10
218.5658
 20
-90.5987
 30
0.0
 10
217.657
 20
-89.1495
 30
0.0
 10
217.2025
 20
-87.4769
 30
0.0
 10
217.2025
 20
-87.4769
 30
0.0
 10
228.734
 20
-81.9577
 30
0.0
 10
208.568
 20
-71.7555
 30
0.0
 10
210.3859
 20
-57.8741
 30
0.0
 10
210.3859
 20
-57.8741
 30
0.0
 10
213.9113
 20
-66.4696
 30
0.0
 10
223.2162
 20
-84.3817
 30
0.0
 10
236.6299
 20
-78.2782
 30
0.0
 10
236.6299
 20
-78.2782
 30
0.0
 10
254.9913
 20
-83.4771
 30
0.0
 10
258.9696
 20
-92.1327
 30
0.0
 10
257.1726
 20
-102.1764
 30
0.0
  0
SPLINE
  5
4D
330
1F
100
AcDbEntity
  8
layer 1
 62
     7
100
AcDbSpline
210
0.0
220
0.0
230
1.0
 70
    11
 71
     3
 72
    20
 73
    16
 74
     0
 42
0.0000000001
 43
0.0000000001
 12
1.0
 22
0.0
 32
0.0
 13
1.0
 23
0.0
 33
0.0
 40
0.0
 40
0.0
 40
0.0
 40
0.0
 40
0.2
 40
0.2
 40
0.2
 40
0.2
 40
0.4
 40
0.4
 40
0.4
 40
0.4
 40
0.6
 40
0.6
 40
0.6
 40
0.6
 40
1.0
 40
1.0
 40
1.0
 40
1.0
 10
261.3989
 20
-79.6224
 30
0.0
 10
261.3989
 20
-79.6224
 30
0.0
 10
261.3989
 20
-97.9458
 30
0.0
 10
261.3989
 20
-97.9458
 30
0.0
 10
261.3989
 20
-97.9458
 30
0.0
 10
260.5439
 20
-93.7669
 30
0.0
 10
259.2451
 20
-90.0945
 30
0.0
 10
257.4302
 20
-87.2521
 30
0.0
 10
257.4302
 20
-87.2521
 30
0.0
 10
258.8501
 20
-85.2851
 30
0.0
 10
259.3166
 20
-83.0373
 30
0.0
 10
258.8297
 20
-80.5088
 30
0.0
 10
258.8297
 20
-80.5088
 30
0.0
 10
260.0943
 20
-80.527
 30
0.0
 10
260.9124
 20
-80.2024
 30
0.0
 10
261.3989
 20
-79.6224
 30
0.0
  0
SPLINE
  5
4E
330
1F
100
AcDbEntity
  8
layer 1
 62
     7
100
AcDbSpline
210
0.0
220
0.0
230
1.0
 70
    11
 71
     3
 72
    16
 73
    12
 74
     0
 42
0.0000000001
 43
0.0000000001
 12
1.0
 22
0.0
 32
0.0
 13
1.0
 23
0.0
 33
0.0
 40
0.0
 40
0.0
 40
0.0
 40
0.0
 40
0.25
 40
0.25
 40
0.25
 40
0.25
 40
0.5
 40
0.5
 40
0.5
 40
0.5
 40
1.0
 40
1.0
 40
1.0
 40
1.0
 10
261.3989
 20
-61.1499
 30
0.0
 10
261.3989
 20
-61.1499
 30
0.0
 10
261.3989
 20
-74.3655
 30
0.0
 10
261.3989
 20
-74.3655
 30
0.0
 10
261.3989
 20
-74.3655
 30
0.0
 10
260.0557
 20
-69.7725
 30
0.0
 10
256.928
 20
-63.7697
 30
0.0
 10
257.6845
 20
-60.654
 30
0.0
 10
257.6845
 20
-60.654
 30
0.0
 10
258.9299
 20
-61.249
 30
0.0
 10
260.2823
 20
-61.4751
 30
0.0
 10
261.3989
 20
-61.1499
 30
0.0
  0
SPLINE
  5
4F
330
1F
100
AcDbEntity
  8
layer 1
 62
     7
100
AcDbSpline
210
0.0
220
0.0
230
1.0
 70
    11
 71
     3
 72
    40
 73
    36
 74
     0
 42
0.0000000001
 43
0.0000000001
 12
1.0
 22
0.0
 32
0.0
 13
1.0
 23
0.0
 33
0.0
 40
0.0
 40
0.0
 40
0.0
 40
0.0
 40
0.1
 40
0.1
 40
0.1
 40
0.1
 40
0.2
 40
0.2
 40
0.2
 40
0.2
 40
0.3
 40
0.3
 40
0.3
 40
0.3
 40
0.4
 40
0.4
 40
0.4
 40
0.4
 40
0.5
 40
0.5
 40
0.5
 40
0.5
 40
0.6
 40
0.6
 40
0.6
 40
0.6
 40
0.7
 40
0.7
 40
0.7
 40
0.7
 40
0.8
 40
0.8
 40
0.8
 40
0.8
 40
1.0
 40
1.0
 40
1.0
 40
1.0
 10
261.3989
 20
-45.7306
 30
0.0
 10
261.3989
 20
-45.7306
 30
0.0
 10
261.3989
 20
-54.8808
 30
0.0
 10
261.3989
 20
-54.8808
 30
0.0
 10
261.3989
 20
-54.8808
 30
0.0
 10
259.9891
 20
-54.4798
 30
0.0
 10
258.3142
 20
-54.6336
 30
0.0
 10
257.4302
 20
-55.2844
 30
0.0
 10
257.4302
 20
-55.2844
 30
0.0
 10
253.2734
 20
-59.5302
 30
0.0
 10
247.3357
 20
-79.5098
 30
0.0
 10
256.0304
 20
-80.3839
 30
0.0
 10
256.0304
 20
-80.3839
 30
0.0
 10
257.2605
 20
-81.6745
 30
0.0
 10
257.1332
 20
-83.2978
 30
0.0
 10
255.6486
 20
-85.2541
 30
0.0
 10
255.6486
 20
-85.2541
 30
0.0
 10
251.1342
 20
-80.3581
 30
0.0
 10
245.0215
 20
-77.205
 30
0.0
 10
237.4531
 20
-75.6388
 30
0.0
 10
237.4531
 20
-75.6388
 30
0.0
 10
242.1565
 20
-61.0873
 30
0.0
 10
222.6885
 20
-71.7667
 30
0.0
 10
213.2553
 20
-55.4208
 30
0.0
 10
213.2553
 20
-55.4208
 30
0.0
 10
212.7446
 20
-53.7754
 30
0.0
 10
212.688
 20
-51.705
 30
0.0
 10
212.7453
 20
-49.3894
 30
0.0
 10
212.7453
 20
-49.3894
 30
0.0
 10
227.8218
 20
-69.1497
 30
0.0
 10
251.8396
 20
-67.5132
 30
0.0
 10
256.7638
 20
-48.7559
 30
0.0
 10
256.7638
 20
-48.7559
 30
0.0
 10
258.957
 20
-48.0398
 30
0.0
 10
260.439
 20
-47.0011
 30
0.0
 10
261.3989
 20
-45.7306
 30
0.0
  0
SPLINE
  5
50
330
1F
100
AcDbEntity
  8
layer 1
 62
     7
100
AcDbSpline
210
0.0
220
0.0
230
1.0
 70
    11
 71
     3
 72
    88
 73
    84
 74
     0
 42
0.0000000001
 43
0.0000000001
 12
1.0
 22
0.0
 32
0.0
 13
1.0
 23
0.0
 33
0.0
 40
0.0
 40
0.0
 40
0.0
 40
0.0
 40
0.0454545454545455
 40
0.0454545454545455
 40
0.0454545454545455
 40
0.0454545454545455
 40
0.0909090909090909
 40
0.0909090909090909
 40
0.0909090909090909
 40
0.0909090909090909
 40
0.1363636363636364
 40
0.1363636363636364
 40
0.1363636363636364
 40
0.1363636363636364
 40
0.1818181818181818
 40
0.1818181818181818
 40
0.1818181818181818
 40
0.1818181818181818
 40
0.2272727272727273
 40
0.2272727272727273
 40
0.2272727272727273
 40
0.2272727272727273
 40
0.2727272727272727
 40
0.2727272727272727
 40
0.2727272727272727
 40
0.2727272727272727
 40
0.3181818181818182
 40
0.3181818181818182
 40
0.3181818181818182
 40
0.3181818181818182
 40
0.3636363636363636
 40
0.3636363636363636
 40
0.3636363636363636
 40
0.3636363636363636
 40
0.4090909090909091
 40
0.4090909090909091
 40
0.4090909090909091
 40
0.4090909090909091
 40
0.4545454545454545
 40
0.4545454545454545
 40
0.4545454545454545
 40
0.4545454545454545
 40
0.5
 40
0.5
 40
0.5
 40
0.5
 40
0.5454545454545454
 40
0.5454545454545454
 40
0.5454545454545454
 40
0.5454545454545454
 40
0.5909090909090909
 40
0.5909090909090909
 40
0.5909090909090909
 40
0.5909090909090909
 40
0.6363636363636364
 40
0.6363636363636364
 40
0.6363636363636364
 40
0.6363636363636364
 40
0.6818181818181818
 40
0.6818181818181818
 40
0.6818181818181818
 40
0.6818181818181818
 40
0.7272727272727273
 40
0.7272727272727273
 40
0.7272727272727273
 40
0.7272727272727273
 40
0.7727272727272727
 40
0.7727272727272727
 40
0.7727272727272727
 40
0.7727272727272727
 40
0.8181818181818182
 40
0.8181818181818182
 40
0.8181818181818182
 40
0.8181818181818182
 40
0.8636363636363636
 40
0.8636363636363636
 40
0.8636363636363636
 40
0.8636363636363636
 40
0.9090909090909091
 40
0.9090909090909091
 40
0.9090909090909091
 40
0.9090909090909091
 40
1.0
 40
1.0
 40
1.0
 40
1.0
 10
261.3989
 20
-13.8292
 30
0.0
 10
261.3989
 20
-13.8292
 30
0.0
 10
261.3989
 20
-32.323
 30
0.0
 10
261.3989
 20
-32.323
 30
0.0
 10
261.3989
 20
-32.323
 30
0.0
 10
260.4621
 20
-28.9665
 30
0.0
 10
259.4167
 20
-25.6188
 30
0.0
 10
259.3086
 20
-22.782
 30
0.0
 10
259.3086
 20
-22.782
 30
0.0
 10
257.5227
 20
-26.3893
 30
0.0
 10
256.621
 20
-31.3946
 30
0.0
 10
258.1633
 20
-40.2645
 30
0.0
 10
258.1633
 20
-40.2645
 30
0.0
 10
255.3067
 20
-32.084
 30
0.0
 10
250.6485
 20
-26.9526
 30
0.0
 10
243.149
 20
-24.5303
 30
0.0
 10
243.149
 20
-24.5303
 30
0.0
 10
231.1992
 20
-19.7125
 30
0.0
 10
220.5546
 20
-31.8234
 30
0.0
 10
229.0251
 20
-42.2624
 30
0.0
 10
229.0251
 20
-42.2624
 30
0.0
 10
223.5392
 20
-45.81
 30
0.0
 10
230.9428
 20
-49.0853
 30
0.0
 10
229.4069
 20
-56.3732
 30
0.0
 10
229.4069
 20
-56.3732
 30
0.0
 10
232.6942
 20
-55.3042
 30
0.0
 10
235.0572
 20
-53.2148
 30
0.0
 10
235.3872
 20
-48.8808
 30
0.0
 10
235.3872
 20
-48.8808
 30
0.0
 10
237.7943
 20
-50.4876
 30
0.0
 10
240.5726
 20
-51.7531
 30
0.0
 10
245.9482
 20
-50.6289
 30
0.0
 10
245.9482
 20
-50.6289
 30
0.0
 10
245.4023
 20
-47.9728
 30
0.0
 10
243.7014
 20
-45.43
 30
0.0
 10
239.459
 20
-43.1366
 30
0.0
 10
239.459
 20
-43.1366
 30
0.0
 10
245.5482
 20
-39.2633
 30
0.0
 10
244.2768
 20
-35.1457
 30
0.0
 10
242.6399
 20
-32.5222
 30
0.0
 10
242.6399
 20
-32.5222
 30
0.0
 10
239.8043
 20
-40.1387
 30
0.0
 10
232.88
 20
-34.2892
 30
0.0
 10
230.8065
 20
-38.6411
 30
0.0
 10
230.8065
 20
-38.6411
 30
0.0
 10
227.7644
 20
-30.0308
 30
0.0
 10
235.0351
 20
-26.2224
 30
0.0
 10
243.9124
 20
-29.4005
 30
0.0
 10
243.9124
 20
-29.4005
 30
0.0
 10
256.6602
 20
-35.8643
 30
0.0
 10
255.5486
 20
-52.0308
 30
0.0
 10
245.5665
 20
-57.4972
 30
0.0
 10
245.5665
 20
-57.4972
 30
0.0
 10
229.6825
 20
-63.2388
 30
0.0
 10
222.1954
 20
-53.4579
 30
0.0
 10
214.3924
 20
-44.2604
 30
0.0
 10
214.3924
 20
-44.2604
 30
0.0
 10
215.2677
 20
-43.1066
 30
0.0
 10
216.12
 20
-41.9073
 30
0.0
 10
216.81
 20
-40.3893
 30
0.0
 10
216.81
 20
-40.3893
 30
0.0
 10
224.8787
 20
-44.6439
 30
0.0
 10
227.3571
 20
-35.5691
 30
0.0
 10
222.7903
 20
-33.7711
 30
0.0
 10
222.7903
 20
-33.7711
 30
0.0
 10
218.1473
 20
-32.8837
 30
0.0
 10
214.3303
 20
-34.2807
 30
0.0
 10
211.7203
 20
-39.0158
 30
0.0
 10
211.7203
 20
-39.0158
 30
0.0
 10
205.4828
 20
-20.7751
 30
0.0
 10
229.806
 20
-12.8038
 30
0.0
 10
217.9552
 20
-3.6766
 30
0.0
 10
217.9552
 20
-3.6766
 30
0.0
 10
219.1851
 20
-2.3209
 30
0.0
 10
220.4151
 20
-1.0566
 30
0.0
 10
221.6451
 20
-0.4296
 30
0.0
 10
221.6451
 20
-0.4296
 30
0.0
 10
224.486
 20
-5.3937
 30
0.0
 10
225.4932
 20
-9.3648
 30
0.0
 10
228.0282
 20
-12.6538
 30
0.0
 10
228.0282
 20
-12.6538
 30
0.0
 10
238.046
 20
-25.6507
 30
0.0
 10
254.4504
 20
-26.3057
 30
0.0
 10
261.3989
 20
-13.8292
 30
0.0
  0
SPLINE
  5
51
330
1F
100
AcDbEntity
  8
layer 1
 62
     7
100
AcDbSpline
210
0.0
220
0.0
230
1.0
 70
    11
 71
     3
 72
    32
 73
    28
 74
     0
 42
0.0000000001
 43
0.0000000001
 12
1.0
 22
0.0
 32
0.0
 13
1.0
 23
0.0
 33
0.0
 40
0.0
 40
0.0
 40
0.0
 40
0.0
 40
0.125
 40
0.125
 40
0.125
 40
0.125
 40
0.25
 40
0.25
 40
0.25
 40
0.25
 40
0.375
 40
0.375
 40
0.375
 40
0.375
 40
0.5
 40
0.5
 40
0.5
 40
0.5
 40
0.625
 40
0.625
 40
0.625
 40
0.625
 40
0.75
 40
0.75
 40
0.75
 40
0.75
 40
1.0
 40
1.0
 40
1.0
 40
1.0
 10
261.3989
 20
27.2799
 30
0.0
 10
261.3989
 20
27.2799
 30
0.0
 10
261.3989
 20
1.4625
 30
0.0
 10
261.3989
 20
1.4625
 30
0.0
 10
261.3989
 20
1.4625
 30
0.0
 10
255.9374
 20
11.8588
 30
0.0
 10
239.4201
 20
16.7776
 30
0.0
 10
223.2235
 20
6.5549
 30
0.0
 10
223.2235
 20
6.5549
 30
0.0
 10
220.3256
 20
10.6855
 30
0.0
 10
216.9775
 20
13.4164
 30
0.0
 10
212.9707
 20
14.1014
 30
0.0
 10
212.9707
 20
14.1014
 30
0.0
 10
212.437
 20
14.1862
 30
0.0
 10
211.936
 20
14.2322
 30
0.0
 10
211.4602
 20
14.2502
 30
0.0
 10
211.4602
 20
14.2502
 30
0.0
 10
211.8975
 20
14.2714
 30
0.0
 10
212.3571
 20
14.3178
 30
0.0
 10
212.8427
 20
14.395
 30
0.0
 10
212.8427
 20
14.395
 30
0.0
 10
216.8493
 20
15.0798
 30
0.0
 10
220.1975
 20
17.8108
 30
0.0
 10
223.0954
 20
21.9415
 30
0.0
 10
223.0954
 20
21.9415
 30
0.0
 10
239.4194
 20
11.6384
 30
0.0
 10
256.0704
 20
16.7155
 30
0.0
 10
261.3989
 20
27.2799
 30
0.0
  0
SPLINE
  5
52
330
1F
100
AcDbEntity
  8
layer 1
 62
     7
100
AcDbSpline
210
0.0
220
0.0
230
1.0
 70
    11
 71
     3
 72
    92
 73
    88
 74
     0
 42
0.0000000001
 43
0.0000000001
 12
1.0
 22
0.0
 32
0.0
 13
1.0
 23
0.0
 33
0.0
 40
0.0
 40
0.0
 40
0.0
 40
0.0
 40
0.0434782608695652
 40
0.0434782608695652
 40
0.0434782608695652
 40
0.0434782608695652
 40
0.0869565217391304
 40
0.0869565217391304
 40
0.0869565217391304
 40
0.0869565217391304
 40
0.1304347826086956
 40
0.1304347826086956
 40
0.1304347826086956
 40
0.1304347826086956
 40
0.1739130434782609
 40
0.1739130434782609
 40
0.1739130434782609
 40
0.1739130434782609
 40
0.2173913043478261
 40
0.2173913043478261
 40
0.2173913043478261
 40
0.2173913043478261
 40
0.2608695652173913
 40
0.2608695652173913
 40
0.2608695652173913
 40
0.2608695652173913
 40
0.3043478260869565
 40
0.3043478260869565
 40
0.3043478260869565
 40
0.3043478260869565
 40
0.3478260869565217
 40
0.3478260869565217
 40
0.3478260869565217
 40
0.3478260869565217
 40
0.391304347826087
 40
0.391304347826087
 40
0.391304347826087
 40
0.391304347826087
 40
0.4347826086956522
 40
0.4347826086956522
 40
0.4347826086956522
 40
0.4347826086956522
 40
0.4782608695652174
 40
0.4782608695652174
 40
0.4782608695652174
 40
0.4782608695652174
 40
0.5217391304347826
 40
0.5217391304347826
 40
0.5217391304347826
 40
0.5217391304347826
 40
0.5652173913043478
 40
0.5652173913043478
 40
0.5652173913043478
 40
0.5652173913043478
 40
0.6086956521739131
 40
0.6086956521739131
 40
0.6086956521739131
 40
0.6086956521739131
 40
0.6521739130434783
 40
0.6521739130434783
 40
0.6521739130434783
 40
0.6521739130434783
 40
0.6956521739130435
 40
0.6956521739130435
 40
0.6956521739130435
 40
0.6956521739130435
 40
0.7391304347826086
 40
0.7391304347826086
 40
0.7391304347826086
 40
0.7391304347826086
 40
0.782608695652174
 40
0.782608695652174
 40
0.782608695652174
 40
0.782608695652174
 40
0.8260869565217391
 40
0.8260869565217391
 40
0.8260869565217391
 40
0.8260869565217391
 40
0.8695652173913043
 40
0.8695652173913043
 40
0.8695652173913043
 40
0.8695652173913043
 40
0.9130434782608695
 40
0.9130434782608695
 40
0.9130434782608695
 40
0.9130434782608695
 40
1.0
 40
1.0
 40
1.0
 40
1.0
 10
261.3989
 20
61.2814
 30
0.0
 10
261.3989
 20
61.2814
 30
0.0
 10
261.3989
 20
42.0939
 30
0.0
 10
261.3989
 20
42.0939
 30
0.0
 10
261.3989
 20
42.0939
 30
0.0
 10
254.5256
 20
54.8109
 30
0.0
 10
237.9797
 20
54.2273
 30
0.0
 10
227.9001
 20
41.1499
 30
0.0
 10
227.9001
 20
41.1499
 30
0.0
 10
225.3651
 20
37.8612
 30
0.0
 10
224.3578
 20
33.8901
 30
0.0
 10
221.517
 20
28.9261
 30
0.0
 10
221.517
 20
28.9261
 30
0.0
 10
220.2869
 20
29.5529
 30
0.0
 10
219.0569
 20
30.8174
 30
0.0
 10
217.8269
 20
32.1727
 30
0.0
 10
217.8269
 20
32.1727
 30
0.0
 10
229.6776
 20
41.3001
 30
0.0
 10
205.3546
 20
49.2714
 30
0.0
 10
211.5923
 20
67.512
 30
0.0
 10
211.5923
 20
67.512
 30
0.0
 10
214.2022
 20
62.777
 30
0.0
 10
218.0193
 20
61.3801
 30
0.0
 10
222.6623
 20
62.2672
 30
0.0
 10
222.6623
 20
62.2672
 30
0.0
 10
227.2291
 20
64.0653
 30
0.0
 10
224.7505
 20
73.1404
 30
0.0
 10
216.6818
 20
68.8857
 30
0.0
 10
216.6818
 20
68.8857
 30
0.0
 10
215.9919
 20
70.4035
 30
0.0
 10
215.1396
 20
71.603
 30
0.0
 10
214.2643
 20
72.7567
 30
0.0
 10
214.2643
 20
72.7567
 30
0.0
 10
222.0673
 20
81.9541
 30
0.0
 10
229.5543
 20
91.735
 30
0.0
 10
245.4384
 20
85.9934
 30
0.0
 10
245.4384
 20
85.9934
 30
0.0
 10
255.4205
 20
80.5272
 30
0.0
 10
256.5321
 20
64.3605
 30
0.0
 10
243.7842
 20
57.8967
 30
0.0
 10
243.7842
 20
57.8967
 30
0.0
 10
234.9068
 20
54.7188
 30
0.0
 10
227.6364
 20
58.5271
 30
0.0
 10
230.6784
 20
67.1374
 30
0.0
 10
230.6784
 20
67.1374
 30
0.0
 10
232.7518
 20
62.7855
 30
0.0
 10
239.6761
 20
68.635
 30
0.0
 10
242.5118
 20
61.0187
 30
0.0
 10
242.5118
 20
61.0187
 30
0.0
 10
244.1486
 20
63.6419
 30
0.0
 10
245.4202
 20
67.7598
 30
0.0
 10
239.3308
 20
71.6329
 30
0.0
 10
239.3308
 20
71.6329
 30
0.0
 10
239.3308
 20
71.6329
 30
0.0
 10
239.3481
 20
71.6422
 30
0.0
 10
239.3481
 20
71.6422
 30
0.0
 10
239.3481
 20
71.6422
 30
0.0
 10
243.5778
 20
73.9332
 30
0.0
 10
245.275
 20
76.4728
 30
0.0
 10
245.8201
 20
79.1252
 30
0.0
 10
245.8201
 20
79.1252
 30
0.0
 10
240.4446
 20
80.2493
 30
0.0
 10
237.6663
 20
78.9839
 30
0.0
 10
235.259
 20
77.3772
 30
0.0
 10
235.259
 20
77.3772
 30
0.0
 10
234.9291
 20
81.7113
 30
0.0
 10
232.566
 20
83.8005
 30
0.0
 10
229.2787
 20
84.8696
 30
0.0
 10
229.2787
 20
84.8696
 30
0.0
 10
230.8147
 20
77.5816
 30
0.0
 10
223.411
 20
74.3061
 30
0.0
 10
228.8969
 20
70.7588
 30
0.0
 10
228.8969
 20
70.7588
 30
0.0
 10
220.4267
 20
60.3198
 30
0.0
 10
231.0712
 20
48.2088
 30
0.0
 10
243.0208
 20
53.0266
 30
0.0
 10
243.0208
 20
53.0266
 30
0.0
 10
250.5203
 20
55.449
 30
0.0
 10
255.1786
 20
60.5803
 30
0.0
 10
258.0354
 20
68.7609
 30
0.0
 10
258.0354
 20
68.7609
 30
0.0
 10
256.4927
 20
59.891
 30
0.0
 10
257.3945
 20
54.8856
 30
0.0
 10
259.1805
 20
51.2785
 30
0.0
 10
259.1805
 20
51.2785
 30
0.0
 10
259.2935
 20
54.2453
 30
0.0
 10
260.4314
 20
57.7714
 30
0.0
 10
261.3989
 20
61.2814
 30
0.0
  0
SPLINE
  5
53
330
1F
100
AcDbEntity
  8
layer 1
 62
     7
100
AcDbSpline
210
0.0
220
0.0
230
1.0
 70
    11
 71
     3
 72
    36
 73
    32
 74
     0
 42
0.0000000001
 43
0.0000000001
 12
1.0
 22
0.0
 32
0.0
 13
1.0
 23
0.0
 33
0.0
 40
0.0
 40
0.0
 40
0.0
 40
0.0
 40
0.1111111111111111
 40
0.1111111111111111
 40
0.1111111111111111
 40
0.1111111111111111
 40
0.2222222222222222
 40
0.2222222222222222
 40
0.2222222222222222
 40
0.2222222222222222
 40
0.3333333333333333
 40
0.3333333333333333
 40
0.3333333333333333
 40
0.3333333333333333
 40
0.4444444444444444
 40
0.4444444444444444
 40
0.4444444444444444
 40
0.4444444444444444
 40
0.5555555555555556
 40
0.5555555555555556
 40
0.5555555555555556
 40
0.5555555555555556
 40
0.6666666666666666
 40
0.6666666666666666
 40
0.6666666666666666
 40
0.6666666666666666
 40
0.7777777777777778
 40
0.7777777777777778
 40
0.7777777777777778
 40
0.7777777777777778
 40
1.0
 40
1.0
 40
1.0
 40
1.0
 10
261.3989
 20
84.5184
 30
0.0
 10
261.3989
 20
84.5184
 30
0.0
 10
261.3989
 20
74.0514
 30
0.0
 10
261.3989
 20
74.0514
 30
0.0
 10
261.3989
 20
74.0514
 30
0.0
 10
260.4449
 20
75.4022
 30
0.0
 10
258.9291
 20
76.5033
 30
0.0
 10
256.6356
 20
77.2522
 30
0.0
 10
256.6356
 20
77.2522
 30
0.0
 10
251.7108
 20
96.0125
 30
0.0
 10
227.6862
 20
97.6466
 30
0.0
 10
212.6102
 20
77.8765
 30
0.0
 10
212.6102
 20
77.8765
 30
0.0
 10
210.8712
 20
101.9772
 30
0.0
 10
243.1056
 20
88.6158
 30
0.0
 10
237.9313
 20
104.8494
 30
0.0
 10
237.9313
 20
104.8494
 30
0.0
 10
244.569
 20
105.5356
 30
0.0
 10
250.5069
 20
109.1987
 30
0.0
 10
256.1267
 20
114.2148
 30
0.0
 10
256.1267
 20
114.2148
 30
0.0
 10
256.8503
 20
112.4661
 30
0.0
 10
257.3608
 20
110.7593
 30
0.0
 10
256.3812
 20
109.3449
 30
0.0
 10
256.3812
 20
109.3449
 30
0.0
 10
247.7484
 20
108.6917
 30
0.0
 10
252.2605
 20
89.9125
 30
0.0
 10
255.9995
 20
86.4929
 30
0.0
 10
255.9995
 20
86.4929
 30
0.0
 10
257.4763
 20
84.5799
 30
0.0
 10
259.7298
 20
83.9147
 30
0.0
 10
261.3989
 20
84.5184
 30
0.0
  0
SPLINE
  5
54
330
1F
100
AcDbEntity
  8
layer 1
 62
     7
100
AcDbSpline
210
0.0
220
0.0
230
1.0
 70
    11
 71
     3
 72
    16
 73
    12
 74
     0
 42
0.0000000001
 43
0.0000000001
 12
1.0
 22
0.0
 32
0.0
 13
1.0
 23
0.0
 33
0.0
 40
0.0
 40
0.0
 40
0.0
 40
0.0
 40
0.25
 40
0.25
 40
0.25
 40
0.25
 40
0.5
 40
0.5
 40
0.5
 40
0.5
 40
1.0
 40
1.0
 40
1.0
 40
1.0
 10
261.3989
 20
102.4797
 30
0.0
 10
261.3989
 20
102.4797
 30
0.0
 10
261.3989
 20
89.8412
 30
0.0
 10
261.3989
 20
89.8412
 30
0.0
 10
261.3989
 20
89.8412
 30
0.0
 10
260.0413
 20
90.4638
 30
0.0
 10
258.3262
 20
90.4918
 30
0.0
 10
257.272
 20
89.4898
 30
0.0
 10
257.272
 20
89.4898
 30
0.0
 10
257.1886
 20
93.0266
 30
0.0
 10
259.9262
 20
98.2572
 30
0.0
 10
261.3989
 20
102.4797
 30
0.0
  0
SPLINE
  5
55
330
1F
100
AcDbEntity
  8
layer 1
 62
     7
100
AcDbSpline
210
0.0
220
0.0
230
1.0
 70
    11
 71
     3
 72
    20
 73
    16
 74
     0
 42
0.0000000001
 43
0.0000000001
 12
1.0
 22
0.0
 32
0.0
 13
1.0
 23
0.0
 33
0.0
 40
0.0
 40
0.0
 40
0.0
 40
0.0
 40
0.2
 40
0.2
 40
0.2
 40
0.2
 40
0.4
 40
0.4
 40
0.4
 40
0.4
 40
0.6
 40
0.6
 40
0.6
 40
0.6
 40
1.0
 40
1.0
 40
1.0
 40
1.0
 10
261.3989
 20
123.8832
 30
0.0
 10
261.3989
 20
123.8832
 30
0.0
 10
261.3989
 20
108.8154
 30
0.0
 10
261.3989
 20
108.8154
 30
0.0
 10
261.3989
 20
108.8154
 30
0.0
 10
260.8823
 20
109.2195
 30
0.0
 10
260.1224
 20
109.452
 30
0.0
 10
259.0532
 20
109.4697
 30
0.0
 10
259.0532
 20
109.4697
 30
0.0
 10
259.4845
 20
111.759
 30
0.0
 10
259.2481
 20
114.0484
 30
0.0
 10
258.0354
 20
116.3378
 30
0.0
 10
258.0354
 20
116.3378
 30
0.0
 10
259.463
 20
118.3794
 30
0.0
 10
260.5718
 20
120.9457
 30
0.0
 10
261.3989
 20
123.8832
 30
0.0
  0
SPLINE
  5
56
330
1F
100
AcDbEntity
  8
layer 1
 62
     7
100
AcDbSpline
210
0.0
220
0.0
230
1.0
 70
    11
 71
     3
 72
    28
 73
    24
 74
     0
 42
0.0000000001
 43
0.0000000001
 12
1.0
 22
0.0
 32
0.0
 13
1.0
 23
0.0
 33
0.0
 40
0.0
 40
0.0
 40
0.0
 40
0.0
 40
0.1428571428571428
 40
0.1428571428571428
 40
0.1428571428571428
 40
0.1428571428571428
 40
0.2857142857142857
 40
0.2857142857142857
 40
0.2857142857142857
 40
0.2857142857142857
 40
0.4285714285714285
 40
0.4285714285714285
 40
0.4285714285714285
 40
0.4285714285714285
 40
0.5714285714285714
 40
0.5714285714285714
 40
0.5714285714285714
 40
0.5714285714285714
 40
0.7142857142857143
 40
0.7142857142857143
 40
0.7142857142857143
 40
0.7142857142857143
 40
1.0
 40
1.0
 40
1.0
 40
1.0
 10
254.2751
 20
127.5881
 30
0.0
 10
254.2751
 20
127.5881
 30
0.0
 10
258.3561
 20
127.5881
 30
0.0
 10
258.3561
 20
127.5881
 30
0.0
 10
258.3561
 20
127.5881
 30
0.0
 10
256.5161
 20
114.0087
 30
0.0
 10
247.515
 20
109.3494
 30
0.0
 10
236.4797
 20
107.2238
 30
0.0
 10
236.4797
 20
107.2238
 30
0.0
 10
224.9526
 20
111.4238
 30
0.0
 10
217.1197
 20
100.5177
 30
0.0
 10
210.0537
 20
86.4763
 30
0.0
 10
210.0537
 20
86.4763
 30
0.0
 10
207.8283
 20
98.8066
 30
0.0
 10
228.552
 20
110.8637
 30
0.0
 10
217.147
 20
116.0962
 30
0.0
 10
217.147
 20
116.0962
 30
0.0
 10
217.9351
 20
117.5067
 30
0.0
 10
218.7233
 20
118.9171
 30
0.0
 10
219.5114
 20
120.3276
 30
0.0
 10
219.5114
 20
120.3276
 30
0.0
 10
230.3713
 20
108.3983
 30
0.0
 10
254.6792
 20
111.519
 30
0.0
 10
254.2751
 20
127.5881
 30
0.0
  0
SPLINE
  5
57
330
1F
100
AcDbEntity
  8
layer 1
 62
     7
100
AcDbSpline
210
0.0
220
0.0
230
1.0
 70
    11
 71
     3
 72
    16
 73
    12
 74
     0
 42
0.0000000001
 43
0.0000000001
 12
1.0
 22
0.0
 32
0.0
 13
1.0
 23
0.0
 33
0.0
 40
0.0
 40
0.0
 40
0.0
 40
0.0
 40
0.25
 40
0.25
 40
0.25
 40
0.25
 40
0.5
 40
0.5
 40
0.5
 40
0.5
 40
1.0
 40
1.0
 40
1.0
 40
1.0
 10
225.7008
 20
127.5881
 30
0.0
 10
225.7008
 20
127.5881
 30
0.0
 10
249.9899
 20
127.5881
 30
0.0
 10
249.9899
 20
127.5881
 30
0.0
 10
249.9899
 20
127.5881
 30
0.0
 10
250.1353
 20
116.5409
 30
0.0
 10
232.695
 20
114.639
 30
0.0
 10
222.5714
 20
123.74
 30
0.0
 10
222.5714
 20
123.74
 30
0.0
 10
222.877
 20
124.6867
 30
0.0
 10
224.0279
 20
126.0912
 30
0.0
 10
225.7008
 20
127.5881
 30
0.0
  0
SPLINE
  5
58
330
1F
100
AcDbEntity
  8
layer 1
 62
     7
100
AcDbSpline
210
0.0
220
0.0
230
1.0
 70
    11
 71
     3
 72
    16
 73
    12
 74
     0
 42
0.0000000001
 43
0.0000000001
 12
1.0
 22
0.0
 32
0.0
 13
1.0
 23
0.0
 33
0.0
 40
0.0
 40
0.0
 40
0.0
 40
0.0
 40
0.25
 40
0.25
 40
0.25
 40
0.25
 40
0.5
 40
0.5
 40
0.5
 40
0.5
 40
1.0
 40
1.0
 40
1.0
 40
1.0
 10
218.7829
 20
127.5881
 30
0.0
 10
218.7829
 20
127.5881
 30
0.0
 10
219.5978
 20
127.5881
 30
0.0
 10
219.5978
 20
127.5881
 30
0.0
 10
219.5978
 20
127.5881
 30
0.0
 10
219.4298
 20
127.399
 30
0.0
 10
219.262
 20
127.2099
 30
0.0
 10
219.0941
 20
127.0159
 30
0.0
 10
219.0941
 20
127.0159
 30
0.0
 10
218.9888
 20
127.2066
 30
0.0
 10
218.8853
 20
127.3974
 30
0.0
 10
218.7829
 20
127.5881
 30
0.0
  0
SPLINE
  5
59
330
1F
100
AcDbEntity
  8
layer 1
 62
     7
100
AcDbSpline
210
0.0
220
0.0
230
1.0
 70
    11
 71
     3
 72
    24
 73
    20
 74
     0
 42
0.0000000001
 43
0.0000000001
 12
1.0
 22
0.0
 32
0.0
 13
1.0
 23
0.0
 33
0.0
 40
0.0
 40
0.0
 40
0.0
 40
0.0
 40
0.1666666666666667
 40
0.1666666666666667
 40
0.1666666666666667
 40
0.1666666666666667
 40
0.3333333333333333
 40
0.3333333333333333
 40
0.3333333333333333
 40
0.3333333333333333
 40
0.5
 40
0.5
 40
0.5
 40
0.5
 40
0.6666666666666666
 40
0.6666666666666666
 40
0.6666666666666666
 40
0.6666666666666666
 40
1.0
 40
1.0
 40
1.0
 40
1.0
 10
206.351
 20
127.5881
 30
0.0
 10
206.351
 20
127.5881
 30
0.0
 10
213.6782
 20
127.5881
 30
0.0
 10
213.6782
 20
127.5881
 30
0.0
 10
213.6782
 20
127.5881
 30
0.0
 10
214.5932
 20
126.0074
 30
0.0
 10
215.5563
 20
124.693
 30
0.0
 10
216.5546
 20
123.7054
 30
0.0
 10
216.5546
 20
123.7054
 30
0.0
 10
215.432
 20
122.246
 30
0.0
 10
214.3442
 20
120.718
 30
0.0
 10
213.5009
 20
118.7104
 30
0.0
 10
213.5009
 20
118.7104
 30
0.0
 10
209.9497
 20
119.4946
 30
0.0
 10
207.6907
 20
117.5846
 30
0.0
 10
206.351
 20
114.1321
 30
0.0
 10
206.351
 20
114.1321
 30
0.0
 10
206.351
 20
114.1321
 30
0.0
 10
206.351
 20
127.5881
 30
0.0
 10
206.351
 20
127.5881
 30
0.0
  0
SPLINE
  5
5A
330
1F
100
AcDbEntity
  8
layer 1
 62
   250
100
AcDbSpline
210
0.0
220
0.0
230
1.0
 70
    11
 71
     3
 72
    24
 73
    20
 74
     0
 42
0.0000000001
 43
0.0000000001
 12
1.0
 22
0.0
 32
0.0
 13
1.0
 23
0.0
 33
0.0
 40
0.0
 40
0.0
 40
0.0
 40
0.0
 40
0.1666666666666667
 40
0.1666666666666667
 40
0.1666666666666667
 40
0.1666666666666667
 40
0.3333333333333333
 40
0.3333333333333333
 40
0.3333333333333333
 40
0.3333333333333333
 40
0.5
 40
0.5
 40
0.5
 40
0.5
 40
0.6666666666666666
 40
0.6666666666666666
 40
0.6666666666666666
 40
0.6666666666666666
 40
1.0
 40
1.0
 40
1.0
 40
1.0
 10
273.0215
 20
131.7082
 30
0.0
 10
273.0215
 20
131.7082
 30
0.0
 10
342.3119
 20
131.7082
 30
0.0
 10
342.3119
 20
131.7082
 30
0.0
 10
342.3119
 20
131.7082
 30
0.0
 10
342.3119
 20
131.7082
 30
0.0
 10
342.3119
 20
-106.3999
 30
0.0
 10
342.3119
 20
-106.3999
 30
0.0
 10
342.3119
 20
-106.3999
 30
0.0
 10
342.3119
 20
-106.3999
 30
0.0
 10
273.0213
 20
-106.3999
 30
0.0
 10
273.0213
 20
-106.3999
 30
0.0
 10
273.0213
 20
-106.3999
 30
0.0
 10
273.0213
 20
-106.3999
 30
0.0
 10
273.0213
 20
131.7082
 30
0.0
 10
273.0213
 20
131.7082
 30
0.0
 10
273.0213
 20
131.7082
 30
0.0
 10
273.0213
 20
131.7082
 30
0.0
 10
273.0215
 20
131.7082
 30
0.0
 10
273.0215
 20
131.7082
 30
0.0
  0
SPLINE
  5
5B
330
1F
100
AcDbEntity
  8
layer 1
 62
     7
100
AcDbSpline
210
0.0
220
0.0
230
1.0
 70
    11
 71
     3
 72
   184
 73
   180
 74
     0
 42
0.0000000001
 43
0.0000000001
 12
1.0
 22
0.0
 32
0.0
 13
1.0
 23
0.0
 33
0.0
 40
0.0
 40
0.0
 40
0.0
 40
0.0
 40
0.0217391304347826
 40
0.0217391304347826
 40
0.0217391304347826
 40
0.0217391304347826
 40
0.0434782608695652
 40
0.0434782608695652
 40
0.0434782608695652
 40
0.0434782608695652
 40
0.0652173913043478
 40
0.0652173913043478
 40
0.0652173913043478
 40
0.0652173913043478
 40
0.0869565217391304
 40
0.0869565217391304
 40
0.0869565217391304
 40
0.0869565217391304
 40
0.108695652173913
 40
0.108695652173913
 40
0.108695652173913
 40
0.108695652173913
 40
0.1304347826086956
 40
0.1304347826086956
 40
0.1304347826086956
 40
0.1304347826086956
 40
0.1521739130434783
 40
0.1521739130434783
 40
0.1521739130434783
 40
0.1521739130434783
 40
0.1739130434782609
 40
0.1739130434782609
 40
0.1739130434782609
 40
0.1739130434782609
 40
0.1956521739130435
 40
0.1956521739130435
 40
0.1956521739130435
 40
0.1956521739130435
 40
0.2173913043478261
 40
0.2173913043478261
 40
0.2173913043478261
 40
0.2173913043478261
 40
0.2391304347826087
 40
0.2391304347826087
 40
0.2391304347826087
 40
0.2391304347826087
 40
0.2608695652173913
 40
0.2608695652173913
 40
0.2608695652173913
 40
0.2608695652173913
 40
0.2826086956521739
 40
0.2826086956521739
 40
0.2826086956521739
 40
0.2826086956521739
 40
0.3043478260869565
 40
0.3043478260869565
 40
0.3043478260869565
 40
0.3043478260869565
 40
0.3260869565217391
 40
0.3260869565217391
 40
0.3260869565217391
 40
0.3260869565217391
 40
0.3478260869565217
 40
0.3478260869565217
 40
0.3478260869565217
 40
0.3478260869565217
 40
0.3695652173913043
 40
0.3695652173913043
 40
0.3695652173913043
 40
0.3695652173913043
 40
0.391304347826087
 40
0.391304347826087
 40
0.391304347826087
 40
0.391304347826087
 40
0.4130434782608696
 40
0.4130434782608696
 40
0.4130434782608696
 40
0.4130434782608696
 40
0.4347826086956522
 40
0.4347826086956522
 40
0.4347826086956522
 40
0.4347826086956522
 40
0.4565217391304348
 40
0.4565217391304348
 40
0.4565217391304348
 40
0.4565217391304348
 40
0.4782608695652174
 40
0.4782608695652174
 40
0.4782608695652174
 40
0.4782608695652174
 40
0.5
 40
0.5
 40
0.5
 40
0.5
 40
0.5217391304347826
 40
0.5217391304347826
 40
0.5217391304347826
 40
0.5217391304347826
 40
0.5434782608695652
 40
0.5434782608695652
 40
0.5434782608695652
 40
0.5434782608695652
 40
0.5652173913043478
 40
0.5652173913043478
 40
0.5652173913043478
 40
0.5652173913043478
 40
0.5869565217391305
 40
0.5869565217391305
 40
0.5869565217391305
 40
0.5869565217391305
 40
0.6086956521739131
 40
0.6086956521739131
 40
0.6086956521739131
 40
0.6086956521739131
 40
0.6304347826086957
 40
0.6304347826086957
 40
0.6304347826086957
 40
0.6304347826086957
 40
0.6521739130434783
 40
0.6521739130434783
 40
0.6521739130434783
 40
0.6521739130434783
 40
0.6739130434782609
 40
0.6739130434782609
 40
0.6739130434782609
 40
0.6739130434782609
 40
0.6956521739130435
 40
0.6956521739130435
 40
0.6956521739130435
 40
0.6956521739130435
 40
0.717391304347826
 40
0.717391304347826
 40
0.717391304347826
 40
0.717391304347826
 40
0.7391304347826086
 40
0.7391304347826086
 40
0.7391304347826086
 40
0.7391304347826086
 40
0.7608695652173914
 40
0.7608695652173914
 40
0.7608695652173914
 40
0.7608695652173914
 40
0.782608695652174
 40
0.782608695652174
 40
0.782608695652174
 40
0.782608695652174
 40
0.8043478260869565
 40
0.8043478260869565
 40
0.8043478260869565
 40
0.8043478260869565
 40
0.8260869565217391
 40
0.8260869565217391
 40
0.8260869565217391
 40
0.8260869565217391
 40
0.8478260869565217
 40
0.8478260869565217
 40
0.8478260869565217
 40
0.8478260869565217
 40
0.8695652173913043
 40
0.8695652173913043
 40
0.8695652173913043
 40
0.8695652173913043
 40
0.8913043478260869
 40
0.8913043478260869
 40
0.8913043478260869
 40
0.8913043478260869
 40
0.9130434782608695
 40
0.9130434782608695
 40
0.9130434782608695
 40
0.9130434782608695
 40
0.9347826086956522
 40
0.9347826086956522
 40
0.9347826086956522
 40
0.9347826086956522
 40
0.9565217391304348
 40
0.9565217391304348
 40
0.9565217391304348
 40
0.9565217391304348
 40
1.0
 40
1.0
 40
1.0
 40
1.0
 10
292.8837
 20
100.4786
 30
0.0
 10
293.5733
 20
101.1102
 30
0.0
 10
294.2464
 20
101.7587
 30
0.0
 10
294.9037
 20
102.4236
 30
0.0
 10
294.9037
 20
102.4236
 30
0.0
 10
294.8692
 20
102.9593
 30
0.0
 10
294.7871
 20
103.4905
 30
0.0
 10
294.6582
 20
104.0105
 30
0.0
 10
294.6582
 20
104.0105
 30
0.0
 10
294.4028
 20
105.0415
 30
0.0
 10
293.829
 20
105.9655
 30
0.0
 10
293.0181
 20
106.6513
 30
0.0
 10
293.0181
 20
106.6513
 30
0.0
 10
292.6664
 20
106.9487
 30
0.0
 10
292.3111
 20
107.2422
 30
0.0
 10
291.9519
 20
107.531
 30
0.0
 10
291.9519
 20
107.531
 30
0.0
 10
291.3295
 20
108.0315
 30
0.0
 10
290.7339
 20
108.565
 30
0.0
 10
290.1668
 20
109.1278
 30
0.0
 10
290.1668
 20
109.1278
 30
0.0
 10
289.1621
 20
110.1257
 30
0.0
 10
288.6177
 20
111.498
 30
0.0
 10
288.6647
 20
112.9132
 30
0.0
 10
288.6647
 20
112.9132
 30
0.0
 10
288.686
 20
113.5554
 30
0.0
 10
288.7599
 20
114.1954
 30
0.0
 10
288.8853
 20
114.8259
 30
0.0
 10
288.8853
 20
114.8259
 30
0.0
 10
289.17
 20
116.2609
 30
0.0
 10
289.7033
 20
117.6352
 30
0.0
 10
290.4605
 20
118.8868
 30
0.0
 10
290.4605
 20
118.8868
 30
0.0
 10
291.127
 20
119.9581
 30
0.0
 10
291.968
 20
120.9108
 30
0.0
 10
292.9479
 20
121.706
 30
0.0
 10
292.9479
 20
121.706
 30
0.0
 10
293.2802
 20
120.8767
 30
0.0
 10
293.6368
 20
120.0564
 30
0.0
 10
294.0167
 20
119.2478
 30
0.0
 10
294.0167
 20
119.2478
 30
0.0
 10
294.3971
 20
118.4374
 30
0.0
 10
294.8381
 20
117.6573
 30
0.0
 10
295.3368
 20
116.9138
 30
0.0
 10
295.3368
 20
116.9138
 30
0.0
 10
295.7664
 20
116.2726
 30
0.0
 10
296.1816
 20
115.6216
 30
0.0
 10
296.582
 20
114.9616
 30
0.0
 10
296.582
 20
114.9616
 30
0.0
 10
296.9836
 20
114.2984
 30
0.0
 10
297.295
 20
113.5845
 30
0.0
 10
297.5072
 20
112.8386
 30
0.0
 10
297.5072
 20
112.8386
 30
0.0
 10
297.7479
 20
111.9931
 30
0.0
 10
297.6405
 20
111.0861
 30
0.0
 10
297.2095
 20
110.3197
 30
0.0
 10
297.2095
 20
110.3197
 30
0.0
 10
296.9564
 20
109.8683
 30
0.0
 10
296.7049
 20
109.4155
 30
0.0
 10
296.4553
 20
108.9615
 30
0.0
 10
296.4553
 20
108.9615
 30
0.0
 10
295.9634
 20
108.0638
 30
0.0
 10
295.7967
 20
107.025
 30
0.0
 10
295.9837
 20
106.0187
 30
0.0
 10
295.9837
 20
106.0187
 30
0.0
 10
296.1056
 20
105.3635
 30
0.0
 10
296.2738
 20
104.7171
 30
0.0
 10
296.4867
 20
104.0853
 30
0.0
 10
296.4867
 20
104.0853
 30
0.0
 10
297.6304
 20
105.3281
 30
0.0
 10
298.738
 20
106.6036
 30
0.0
 10
299.8073
 20
107.9111
 30
0.0
 10
299.8073
 20
107.9111
 30
0.0
 10
300.8767
 20
109.2177
 30
0.0
 10
301.9357
 20
110.5332
 30
0.0
 10
302.9853
 20
111.8564
 30
0.0
 10
302.9853
 20
111.8564
 30
0.0
 10
303.7765
 20
112.8548
 30
0.0
 10
304.5075
 20
113.8993
 30
0.0
 10
305.1753
 20
114.9847
 30
0.0
 10
305.1753
 20
114.9847
 30
0.0
 10
305.8534
 20
116.0873
 30
0.0
 10
306.2345
 20
117.3464
 30
0.0
 10
306.2803
 20
118.6402
 30
0.0
 10
306.2803
 20
118.6402
 30
0.0
 10
306.3109
 20
119.4956
 30
0.0
 10
305.8676
 20
120.2971
 30
0.0
 10
305.1266
 20
120.7253
 30
0.0
 10
305.1266
 20
120.7253
 30
0.0
 10
304.6143
 20
121.0218
 30
0.0
 10
304.0877
 20
121.2941
 30
0.0
 10
303.55
 20
121.5419
 30
0.0
 10
303.55
 20
121.5419
 30
0.0
 10
302.8795
 20
121.8497
 30
0.0
 10
302.2188
 20
122.1792
 30
0.0
 10
301.5688
 20
122.5288
 30
0.0
 10
301.5688
 20
122.5288
 30
0.0
 10
300.2815
 20
123.222
 30
0.0
 10
299.1996
 20
124.244
 30
0.0
 10
298.434
 20
125.4898
 30
0.0
 10
298.434
 20
125.4898
 30
0.0
 10
298.0602
 20
126.0979
 30
0.0
 10
297.745
 20
126.7406
 30
0.0
 10
297.4931
 20
127.4089
 30
0.0
 10
297.4931
 20
127.4089
 30
0.0
 10
297.4931
 20
127.4089
 30
0.0
 10
288.3421
 20
127.4089
 30
0.0
 10
288.3421
 20
127.4089
 30
0.0
 10
288.3421
 20
127.4089
 30
0.0
 10
288.4626
 20
127.2082
 30
0.0
 10
288.6013
 20
127.0196
 30
0.0
 10
288.7566
 20
126.8454
 30
0.0
 10
288.7566
 20
126.8454
 30
0.0
 10
288.9123
 20
126.6706
 30
0.0
 10
289.0868
 20
126.5136
 30
0.0
 10
289.2778
 20
126.3783
 30
0.0
 10
289.2778
 20
126.3783
 30
0.0
 10
289.6491
 20
126.1238
 30
0.0
 10
290.0663
 20
125.9444
 30
0.0
 10
290.5069
 20
125.8509
 30
0.0
 10
290.5069
 20
125.8509
 30
0.0
 10
290.1373
 20
125.2041
 30
0.0
 10
289.4688
 20
124.7841
 30
0.0
 10
288.7257
 20
124.7317
 30
0.0
 10
288.7257
 20
124.7317
 30
0.0
 10
287.3449
 20
124.6344
 30
0.0
 10
285.9619
 20
124.8999
 30
0.0
 10
284.7151
 20
125.5004
 30
0.0
 10
284.7151
 20
125.5004
 30
0.0
 10
284.7576
 20
125.1989
 30
0.0
 10
284.7782
 20
124.894
 30
0.0
 10
284.7748
 20
124.589
 30
0.0
 10
284.7748
 20
124.589
 30
0.0
 10
284.7669
 20
123.8766
 30
0.0
 10
284.7748
 20
123.1639
 30
0.0
 10
284.7975
 20
122.4509
 30
0.0
 10
284.7975
 20
122.4509
 30
0.0
 10
284.8199
 20
121.7747
 30
0.0
 10
284.7742
 20
121.0982
 30
0.0
 10
284.6617
 20
120.4307
 30
0.0
 10
284.6617
 20
120.4307
 30
0.0
 10
284.4922
 20
119.4259
 30
0.0
 10
283.7691
 20
118.6029
 30
0.0
 10
282.7954
 20
118.3033
 30
0.0
 10
282.7954
 20
118.3033
 30
0.0
 10
282.4127
 20
118.1856
 30
0.0
 10
282.014
 20
118.1262
 30
0.0
 10
281.6138
 20
118.1274
 30
0.0
 10
281.6138
 20
118.1274
 30
0.0
 10
282.4992
 20
119.3335
 30
0.0
 10
282.8886
 20
120.8311
 30
0.0
 10
282.7016
 20
122.3153
 30
0.0
 10
282.7016
 20
122.3153
 30
0.0
 10
282.6084
 20
123.0574
 30
0.0
 10
282.2685
 20
123.7462
 30
0.0
 10
281.7357
 20
124.2713
 30
0.0
 10
281.7357
 20
124.2713
 30
0.0
 10
281.5089
 20
124.4952
 30
0.0
 10
281.2725
 20
124.7099
 30
0.0
 10
281.0287
 20
124.9157
 30
0.0
 10
281.0287
 20
124.9157
 30
0.0
 10
279.8847
 20
125.8758
 30
0.0
 10
278.642
 20
126.7119
 30
0.0
 10
277.3208
 20
127.4089
 30
0.0
 10
277.3208
 20
127.4089
 30
0.0
 10
277.3208
 20
127.4089
 30
0.0
 10
277.3208
 20
120.0135
 30
0.0
 10
277.3208
 20
120.0135
 30
0.0
 10
277.3208
 20
120.0135
 30
0.0
 10
279.392
 20
116.2438
 30
0.0
 10
281.7962
 20
112.668
 30
0.0
 10
284.5049
 20
109.3267
 30
0.0
 10
284.5049
 20
109.3267
 30
0.0
 10
287.0679
 20
106.1675
 30
0.0
 10
289.8683
 20
103.2091
 30
0.0
 10
292.8837
 20
100.4786
 30
0.0
 10
292.8837
 20
100.4786
 30
0.0
 10
292.8837
 20
100.4786
 30
0.0
 10
292.8837
 20
100.4786
 30
0.0
 10
292.8837
 20
100.4786
 30
0.0
  0
SPLINE
  5
5C
330
1F
100
AcDbEntity
  8
layer 1
 62
     7
100
AcDbSpline
210
0.0
220
0.0
230
1.0
 70
    11
 71
     3
 72
    48
 73
    44
 74
     0
 42
0.0000000001
 43
0.0000000001
 12
1.0
 22
0.0
 32
0.0
 13
1.0
 23
0.0
 33
0.0
 40
0.0
 40
0.0
 40
0.0
 40
0.0
 40
0.0833333333333333
 40
0.0833333333333333
 40
0.0833333333333333
 40
0.0833333333333333
 40
0.1666666666666667
 40
0.1666666666666667
 40
0.1666666666666667
 40
0.1666666666666667
 40
0.25
 40
0.25
 40
0.25
 40
0.25
 40
0.3333333333333333
 40
0.3333333333333333
 40
0.3333333333333333
 40
0.3333333333333333
 40
0.4166666666666667
 40
0.4166666666666667
 40
0.4166666666666667
 40
0.4166666666666667
 40
0.5
 40
0.5
 40
0.5
 40
0.5
 40
0.5833333333333334
 40
0.5833333333333334
 40
0.5833333333333334
 40
0.5833333333333334
 40
0.6666666666666666
 40
0.6666666666666666
 40
0.6666666666666666
 40
0.6666666666666666
 40
0.75
 40
0.75
 40
0.75
 40
0.75
 40
0.8333333333333334
 40
0.8333333333333334
 40
0.8333333333333334
 40
0.8333333333333334
 40
1.0
 40
1.0
 40
1.0
 40
1.0
 10
312.9591
 20
127.4089
 30
0.0
 10
312.9591
 20
127.4089
 30
0.0
 10
316.8766
 20
127.4089
 30
0.0
 10
316.8766
 20
127.4089
 30
0.0
 10
316.8766
 20
127.4089
 30
0.0
 10
316.5288
 20
127.0731
 30
0.0
 10
316.1754
 20
126.7442
 30
0.0
 10
315.8167
 20
126.4213
 30
0.0
 10
315.8167
 20
126.4213
 30
0.0
 10
315.4077
 20
126.0538
 30
0.0
 10
315.0023
 20
125.6815
 30
0.0
 10
314.6013
 20
125.3056
 30
0.0
 10
314.6013
 20
125.3056
 30
0.0
 10
314.0329
 20
124.7638
 30
0.0
 10
313.4665
 20
124.2204
 30
0.0
 10
312.9012
 20
123.6758
 30
0.0
 10
312.9012
 20
123.6758
 30
0.0
 10
312.5929
 20
123.3782
 30
0.0
 10
312.2504
 20
123.1176
 30
0.0
 10
311.8814
 20
122.8992
 30
0.0
 10
311.8814
 20
122.8992
 30
0.0
 10
311.8484
 20
122.88
 30
0.0
 10
311.8085
 20
122.8763
 30
0.0
 10
311.7726
 20
122.8896
 30
0.0
 10
311.7726
 20
122.8896
 30
0.0
 10
311.7368
 20
122.9033
 30
0.0
 10
311.7086
 20
122.9323
 30
0.0
 10
311.6968
 20
122.9689
 30
0.0
 10
311.6968
 20
122.9689
 30
0.0
 10
311.652
 20
123.105
 30
0.0
 10
311.6601
 20
123.2528
 30
0.0
 10
311.7202
 20
123.3829
 30
0.0
 10
311.7202
 20
123.3829
 30
0.0
 10
312.1394
 20
124.2911
 30
0.0
 10
312.4635
 20
125.2405
 30
0.0
 10
312.6877
 20
126.2155
 30
0.0
 10
312.6877
 20
126.2155
 30
0.0
 10
312.7792
 20
126.613
 30
0.0
 10
312.87
 20
127.0107
 30
0.0
 10
312.9591
 20
127.4089
 30
0.0
 10
312.9591
 20
127.4089
 30
0.0
 10
312.9591
 20
127.4089
 30
0.0
 10
312.9591
 20
127.4089
 30
0.0
 10
312.9591
 20
127.4089
 30
0.0
  0
SPLINE
  5
5D
330
1F
100
AcDbEntity
  8
layer 1
 62
     7
100
AcDbSpline
210
0.0
220
0.0
230
1.0
 70
    11
 71
     3
 72
    80
 73
    76
 74
     0
 42
0.0000000001
 43
0.0000000001
 12
1.0
 22
0.0
 32
0.0
 13
1.0
 23
0.0
 33
0.0
 40
0.0
 40
0.0
 40
0.0
 40
0.0
 40
0.05
 40
0.05
 40
0.05
 40
0.05
 40
0.1
 40
0.1
 40
0.1
 40
0.1
 40
0.15
 40
0.15
 40
0.15
 40
0.15
 40
0.2
 40
0.2
 40
0.2
 40
0.2
 40
0.25
 40
0.25
 40
0.25
 40
0.25
 40
0.3
 40
0.3
 40
0.3
 40
0.3
 40
0.35
 40
0.35
 40
0.35
 40
0.35
 40
0.4
 40
0.4
 40
0.4
 40
0.4
 40
0.45
 40
0.45
 40
0.45
 40
0.45
 40
0.5
 40
0.5
 40
0.5
 40
0.5
 40
0.55
 40
0.55
 40
0.55
 40
0.55
 40
0.6
 40
0.6
 40
0.6
 40
0.6
 40
0.65
 40
0.65
 40
0.65
 40
0.65
 40
0.7
 40
0.7
 40
0.7
 40
0.7
 40
0.75
 40
0.75
 40
0.75
 40
0.75
 40
0.8
 40
0.8
 40
0.8
 40
0.8
 40
0.85
 40
0.85
 40
0.85
 40
0.85
 40
0.9
 40
0.9
 40
0.9
 40
0.9
 40
1.0
 40
1.0
 40
1.0
 40
1.0
 10
338.0124
 20
87.0807
 30
0.0
 10
337.75
 20
86.8886
 30
0.0
 10
337.4689
 20
86.7241
 30
0.0
 10
337.1731
 20
86.5897
 30
0.0
 10
337.1731
 20
86.5897
 30
0.0
 10
336.8763
 20
86.4541
 30
0.0
 10
336.5612
 20
86.3628
 30
0.0
 10
336.2388
 20
86.3187
 30
0.0
 10
336.2388
 20
86.3187
 30
0.0
 10
335.7106
 20
86.2532
 30
0.0
 10
335.1741
 20
86.3089
 30
0.0
 10
334.6709
 20
86.4815
 30
0.0
 10
334.6709
 20
86.4815
 30
0.0
 10
334.8012
 20
86.1998
 30
0.0
 10
334.9208
 20
85.9131
 30
0.0
 10
335.0282
 20
85.6225
 30
0.0
 10
335.0282
 20
85.6225
 30
0.0
 10
335.55
 20
84.2135
 30
0.0
 10
336.0403
 20
82.7933
 30
0.0
 10
336.4976
 20
81.3621
 30
0.0
 10
336.4976
 20
81.3621
 30
0.0
 10
337.0479
 20
79.642
 30
0.0
 10
336.8661
 20
77.7701
 30
0.0
 10
335.996
 20
76.1879
 30
0.0
 10
335.996
 20
76.1879
 30
0.0
 10
335.6386
 20
75.5372
 30
0.0
 10
335.2116
 20
74.9259
 30
0.0
 10
334.7247
 20
74.3654
 30
0.0
 10
334.7247
 20
74.3654
 30
0.0
 10
334.8936
 20
75.9462
 30
0.0
 10
334.6709
 20
77.5433
 30
0.0
 10
334.0755
 20
79.0171
 30
0.0
 10
334.0755
 20
79.0171
 30
0.0
 10
333.3546
 20
80.7471
 30
0.0
 10
332.1056
 20
82.2045
 30
0.0
 10
330.5062
 20
83.1819
 30
0.0
 10
330.5062
 20
83.1819
 30
0.0
 10
329.6655
 20
83.6851
 30
0.0
 10
328.747
 20
84.043
 30
0.0
 10
327.7884
 20
84.2429
 30
0.0
 10
327.7884
 20
84.2429
 30
0.0
 10
326.8336
 20
84.4412
 30
0.0
 10
325.8605
 20
84.5385
 30
0.0
 10
324.8855
 20
84.5326
 30
0.0
 10
324.8855
 20
84.5326
 30
0.0
 10
323.9542
 20
84.5274
 30
0.0
 10
323.0237
 20
84.5581
 30
0.0
 10
322.095
 20
84.624
 30
0.0
 10
322.095
 20
84.624
 30
0.0
 10
321.1669
 20
84.6908
 30
0.0
 10
320.239
 20
84.761
 30
0.0
 10
319.3111
 20
84.8352
 30
0.0
 10
319.3111
 20
84.8352
 30
0.0
 10
318.3927
 20
84.9089
 30
0.0
 10
317.4712
 20
84.9292
 30
0.0
 10
316.5501
 20
84.8964
 30
0.0
 10
316.5501
 20
84.8964
 30
0.0
 10
315.6259
 20
84.8639
 30
0.0
 10
314.7106
 20
84.7048
 30
0.0
 10
313.8298
 20
84.4226
 30
0.0
 10
313.8298
 20
84.4226
 30
0.0
 10
316.3544
 20
82.1295
 30
0.0
 10
318.7352
 20
79.6816
 30
0.0
 10
320.9583
 20
77.0947
 30
0.0
 10
320.9583
 20
77.0947
 30
0.0
 10
325.75
 20
71.5185
 30
0.0
 10
329.8864
 20
65.409
 30
0.0
 10
333.2848
 20
58.8892
 30
0.0
 10
333.2848
 20
58.8892
 30
0.0
 10
335.4806
 20
54.6773
 30
0.0
 10
337.072
 20
50.1757
 30
0.0
 10
338.0124
 20
45.5193
 30
0.0
 10
338.0124
 20
45.5193
 30
0.0
 10
338.0124
 20
45.5193
 30
0.0
 10
338.0124
 20
87.0807
 30
0.0
 10
338.0124
 20
87.0807
 30
0.0
  0
SPLINE
  5
5E
330
1F
100
AcDbEntity
  8
layer 1
 62
     7
100
AcDbSpline
210
0.0
220
0.0
230
1.0
 70
    11
 71
     3
 72
   352
 73
   348
 74
     0
 42
0.0000000001
 43
0.0000000001
 12
1.0
 22
0.0
 32
0.0
 13
1.0
 23
0.0
 33
0.0
 40
0.0
 40
0.0
 40
0.0
 40
0.0
 40
0.0113636363636364
 40
0.0113636363636364
 40
0.0113636363636364
 40
0.0113636363636364
 40
0.0227272727272727
 40
0.0227272727272727
 40
0.0227272727272727
 40
0.0227272727272727
 40
0.0340909090909091
 40
0.0340909090909091
 40
0.0340909090909091
 40
0.0340909090909091
 40
0.0454545454545455
 40
0.0454545454545455
 40
0.0454545454545455
 40
0.0454545454545455
 40
0.0568181818181818
 40
0.0568181818181818
 40
0.0568181818181818
 40
0.0568181818181818
 40
0.0681818181818182
 40
0.0681818181818182
 40
0.0681818181818182
 40
0.0681818181818182
 40
0.0795454545454545
 40
0.0795454545454545
 40
0.0795454545454545
 40
0.0795454545454545
 40
0.0909090909090909
 40
0.0909090909090909
 40
0.0909090909090909
 40
0.0909090909090909
 40
0.1022727272727273
 40
0.1022727272727273
 40
0.1022727272727273
 40
0.1022727272727273
 40
0.1136363636363636
 40
0.1136363636363636
 40
0.1136363636363636
 40
0.1136363636363636
 40
0.125
 40
0.125
 40
0.125
 40
0.125
 40
0.1363636363636364
 40
0.1363636363636364
 40
0.1363636363636364
 40
0.1363636363636364
 40
0.1477272727272727
 40
0.1477272727272727
 40
0.1477272727272727
 40
0.1477272727272727
 40
0.1590909090909091
 40
0.1590909090909091
 40
0.1590909090909091
 40
0.1590909090909091
 40
0.1704545454545454
 40
0.1704545454545454
 40
0.1704545454545454
 40
0.1704545454545454
 40
0.1818181818181818
 40
0.1818181818181818
 40
0.1818181818181818
 40
0.1818181818181818
 40
0.1931818181818182
 40
0.1931818181818182
 40
0.1931818181818182
 40
0.1931818181818182
 40
0.2045454545454546
 40
0.2045454545454546
 40
0.2045454545454546
 40
0.2045454545454546
 40
0.2159090909090909
 40
0.2159090909090909
 40
0.2159090909090909
 40
0.2159090909090909
 40
0.2272727272727273
 40
0.2272727272727273
 40
0.2272727272727273
 40
0.2272727272727273
 40
0.2386363636363636
 40
0.2386363636363636
 40
0.2386363636363636
 40
0.2386363636363636
 40
0.25
 40
0.25
 40
0.25
 40
0.25
 40
0.2613636363636364
 40
0.2613636363636364
 40
0.2613636363636364
 40
0.2613636363636364
 40
0.2727272727272727
 40
0.2727272727272727
 40
0.2727272727272727
 40
0.2727272727272727
 40
0.2840909090909091
 40
0.2840909090909091
 40
0.2840909090909091
 40
0.2840909090909091
 40
0.2954545454545455
 40
0.2954545454545455
 40
0.2954545454545455
 40
0.2954545454545455
 40
0.3068181818181818
 40
0.3068181818181818
 40
0.3068181818181818
 40
0.3068181818181818
 40
0.3181818181818182
 40
0.3181818181818182
 40
0.3181818181818182
 40
0.3181818181818182
 40
0.3295454545454545
 40
0.3295454545454545
 40
0.3295454545454545
 40
0.3295454545454545
 40
0.3409090909090909
 40
0.3409090909090909
 40
0.3409090909090909
 40
0.3409090909090909
 40
0.3522727272727273
 40
0.3522727272727273
 40
0.3522727272727273
 40
0.3522727272727273
 40
0.3636363636363636
 40
0.3636363636363636
 40
0.3636363636363636
 40
0.3636363636363636
 40
0.375
 40
0.375
 40
0.375
 40
0.375
 40
0.3863636363636364
 40
0.3863636363636364
 40
0.3863636363636364
 40
0.3863636363636364
 40
0.3977272727272727
 40
0.3977272727272727
 40
0.3977272727272727
 40
0.3977272727272727
 40
0.4090909090909091
 40
0.4090909090909091
 40
0.4090909090909091
 40
0.4090909090909091
 40
0.4204545454545455
 40
0.4204545454545455
 40
0.4204545454545455
 40
0.4204545454545455
 40
0.4318181818181818
 40
0.4318181818181818
 40
0.4318181818181818
 40
0.4318181818181818
 40
0.4431818181818182
 40
0.4431818181818182
 40
0.4431818181818182
 40
0.4431818181818182
 40
0.4545454545454545
 40
0.4545454545454545
 40
0.4545454545454545
 40
0.4545454545454545
 40
0.4659090909090909
 40
0.4659090909090909
 40
0.4659090909090909
 40
0.4659090909090909
 40
0.4772727272727273
 40
0.4772727272727273
 40
0.4772727272727273
 40
0.4772727272727273
 40
0.4886363636363636
 40
0.4886363636363636
 40
0.4886363636363636
 40
0.4886363636363636
 40
0.5
 40
0.5
 40
0.5
 40
0.5
 40
0.5113636363636364
 40
0.5113636363636364
 40
0.5113636363636364
 40
0.5113636363636364
 40
0.5227272727272727
 40
0.5227272727272727
 40
0.5227272727272727
 40
0.5227272727272727
 40
0.5340909090909091
 40
0.5340909090909091
 40
0.5340909090909091
 40
0.5340909090909091
 40
0.5454545454545454
 40
0.5454545454545454
 40
0.5454545454545454
 40
0.5454545454545454
 40
0.5568181818181818
 40
0.5568181818181818
 40
0.5568181818181818
 40
0.5568181818181818
 40
0.5681818181818182
 40
0.5681818181818182
 40
0.5681818181818182
 40
0.5681818181818182
 40
0.5795454545454546
 40
0.5795454545454546
 40
0.5795454545454546
 40
0.5795454545454546
 40
0.5909090909090909
 40
0.5909090909090909
 40
0.5909090909090909
 40
0.5909090909090909
 40
0.6022727272727273
 40
0.6022727272727273
 40
0.6022727272727273
 40
0.6022727272727273
 40
0.6136363636363636
 40
0.6136363636363636
 40
0.6136363636363636
 40
0.6136363636363636
 40
0.625
 40
0.625
 40
0.625
 40
0.625
 40
0.6363636363636364
 40
0.6363636363636364
 40
0.6363636363636364
 40
0.6363636363636364
 40
0.6477272727272727
 40
0.6477272727272727
 40
0.6477272727272727
 40
0.6477272727272727
 40
0.6590909090909091
 40
0.6590909090909091
 40
0.6590909090909091
 40
0.6590909090909091
 40
0.6704545454545454
 40
0.6704545454545454
 40
0.6704545454545454
 40
0.6704545454545454
 40
0.6818181818181818
 40
0.6818181818181818
 40
0.6818181818181818
 40
0.6818181818181818
 40
0.6931818181818182
 40
0.6931818181818182
 40
0.6931818181818182
 40
0.6931818181818182
 40
0.7045454545454546
 40
0.7045454545454546
 40
0.7045454545454546
 40
0.7045454545454546
 40
0.7159090909090909
 40
0.7159090909090909
 40
0.7159090909090909
 40
0.7159090909090909
 40
0.7272727272727273
 40
0.7272727272727273
 40
0.7272727272727273
 40
0.7272727272727273
 40
0.7386363636363636
 40
0.7386363636363636
 40
0.7386363636363636
 40
0.7386363636363636
 40
0.75
 40
0.75
 40
0.75
 40
0.75
 40
0.7613636363636364
 40
0.7613636363636364
 40
0.7613636363636364
 40
0.7613636363636364
 40
0.7727272727272727
 40
0.7727272727272727
 40
0.7727272727272727
 40
0.7727272727272727
 40
0.7840909090909091
 40
0.7840909090909091
 40
0.7840909090909091
 40
0.7840909090909091
 40
0.7954545454545454
 40
0.7954545454545454
 40
0.7954545454545454
 40
0.7954545454545454
 40
0.8068181818181818
 40
0.8068181818181818
 40
0.8068181818181818
 40
0.8068181818181818
 40
0.8181818181818182
 40
0.8181818181818182
 40
0.8181818181818182
 40
0.8181818181818182
 40
0.8295454545454546
 40
0.8295454545454546
 40
0.8295454545454546
 40
0.8295454545454546
 40
0.8409090909090909
 40
0.8409090909090909
 40
0.8409090909090909
 40
0.8409090909090909
 40
0.8522727272727273
 40
0.8522727272727273
 40
0.8522727272727273
 40
0.8522727272727273
 40
0.8636363636363636
 40
0.8636363636363636
 40
0.8636363636363636
 40
0.8636363636363636
 40
0.875
 40
0.875
 40
0.875
 40
0.875
 40
0.8863636363636364
 40
0.8863636363636364
 40
0.8863636363636364
 40
0.8863636363636364
 40
0.8977272727272727
 40
0.8977272727272727
 40
0.8977272727272727
 40
0.8977272727272727
 40
0.9090909090909091
 40
0.9090909090909091
 40
0.9090909090909091
 40
0.9090909090909091
 40
0.9204545454545454
 40
0.9204545454545454
 40
0.9204545454545454
 40
0.9204545454545454
 40
0.9318181818181818
 40
0.9318181818181818
 40
0.9318181818181818
 40
0.9318181818181818
 40
0.9431818181818182
 40
0.9431818181818182
 40
0.9431818181818182
 40
0.9431818181818182
 40
0.9545454545454546
 40
0.9545454545454546
 40
0.9545454545454546
 40
0.9545454545454546
 40
0.9659090909090909
 40
0.9659090909090909
 40
0.9659090909090909
 40
0.9659090909090909
 40
0.9772727272727273
 40
0.9772727272727273
 40
0.9772727272727273
 40
0.9772727272727273
 40
1.0
 40
1.0
 40
1.0
 40
1.0
 10
314.6431
 20
76.967
 30
0.0
 10
312.8616
 20
76.3048
 30
0.0
 10
311.0519
 20
75.7225
 30
0.0
 10
309.218
 20
75.2224
 30
0.0
 10
309.218
 20
75.2224
 30
0.0
 10
307.3357
 20
74.7097
 30
0.0
 10
305.674
 20
73.5954
 30
0.0
 10
304.4851
 20
72.0484
 30
0.0
 10
304.4851
 20
72.0484
 30
0.0
 10
302.7191
 20
69.7515
 30
0.0
 10
301.6986
 20
66.9711
 30
0.0
 10
301.5602
 20
64.0763
 30
0.0
 10
301.5602
 20
64.0763
 30
0.0
 10
301.4452
 20
61.6857
 30
0.0
 10
301.5582
 20
59.2896
 30
0.0
 10
301.898
 20
56.92
 30
0.0
 10
301.898
 20
56.92
 30
0.0
 10
301.9962
 20
56.2351
 30
0.0
 10
302.1389
 20
55.5576
 30
0.0
 10
302.3254
 20
54.8913
 30
0.0
 10
302.3254
 20
54.8913
 30
0.0
 10
303.184
 20
55.5029
 30
0.0
 10
303.847
 20
56.3499
 30
0.0
 10
304.2341
 20
57.3303
 30
0.0
 10
304.2341
 20
57.3303
 30
0.0
 10
304.4618
 20
57.9068
 30
0.0
 10
304.6874
 20
58.4838
 30
0.0
 10
304.911
 20
59.0618
 30
0.0
 10
304.911
 20
59.0618
 30
0.0
 10
305.1127
 20
59.5663
 30
0.0
 10
305.3205
 20
60.0678
 30
0.0
 10
305.5347
 20
60.5668
 30
0.0
 10
305.5347
 20
60.5668
 30
0.0
 10
305.7482
 20
61.0643
 30
0.0
 10
305.957
 20
61.5633
 30
0.0
 10
306.1618
 20
62.0644
 30
0.0
 10
306.1618
 20
62.0644
 30
0.0
 10
306.1988
 20
60.7864
 30
0.0
 10
306.4115
 20
59.5207
 30
0.0
 10
306.7942
 20
58.3011
 30
0.0
 10
306.7942
 20
58.3011
 30
0.0
 10
307.5238
 20
55.9767
 30
0.0
 10
309.1669
 20
54.0508
 30
0.0
 10
311.3479
 20
52.966
 30
0.0
 10
311.3479
 20
52.966
 30
0.0
 10
312.8116
 20
52.2379
 30
0.0
 10
314.4019
 20
51.7995
 30
0.0
 10
316.0321
 20
51.676
 30
0.0
 10
316.0321
 20
51.676
 30
0.0
 10
316.637
 20
51.6298
 30
0.0
 10
317.2459
 20
51.6744
 30
0.0
 10
317.8384
 20
51.8069
 30
0.0
 10
317.8384
 20
51.8069
 30
0.0
 10
316.2657
 20
52.6998
 30
0.0
 10
315.0095
 20
54.0593
 30
0.0
 10
314.2419
 20
55.6966
 30
0.0
 10
314.2419
 20
55.6966
 30
0.0
 10
313.7386
 20
56.7717
 30
0.0
 10
313.5676
 20
57.973
 30
0.0
 10
313.752
 20
59.1461
 30
0.0
 10
313.752
 20
59.1461
 30
0.0
 10
313.9038
 20
58.8174
 30
0.0
 10
314.1352
 20
58.5316
 30
0.0
 10
314.4243
 20
58.3139
 30
0.0
 10
314.4243
 20
58.3139
 30
0.0
 10
315.4257
 20
57.5605
 30
0.0
 10
316.7299
 20
57.3412
 30
0.0
 10
317.9221
 20
57.7274
 30
0.0
 10
317.9221
 20
57.7274
 30
0.0
 10
317.5192
 20
57.9626
 30
0.0
 10
317.1426
 20
58.2397
 30
0.0
 10
316.798
 20
58.5539
 30
0.0
 10
316.798
 20
58.5539
 30
0.0
 10
315.4639
 20
59.7695
 30
0.0
 10
314.2896
 20
61.1512
 30
0.0
 10
313.3033
 20
62.663
 30
0.0
 10
313.3033
 20
62.663
 30
0.0
 10
312.1116
 20
64.4902
 30
0.0
 10
311.7206
 20
66.7274
 30
0.0
 10
312.221
 20
68.8503
 30
0.0
 10
312.221
 20
68.8503
 30
0.0
 10
312.4016
 20
69.6166
 30
0.0
 10
312.6634
 20
70.3615
 30
0.0
 10
313.0017
 20
71.0718
 30
0.0
 10
313.0017
 20
71.0718
 30
0.0
 10
313.7911
 20
72.6892
 30
0.0
 10
314.9314
 20
74.1101
 30
0.0
 10
316.3389
 20
75.2314
 30
0.0
 10
316.3389
 20
75.2314
 30
0.0
 10
319.2303
 20
72.1832
 30
0.0
 10
321.8462
 20
68.8835
 30
0.0
 10
324.153
 20
65.3726
 30
0.0
 10
324.153
 20
65.3726
 30
0.0
 10
327.1155
 20
60.8644
 30
0.0
 10
329.2317
 20
55.8521
 30
0.0
 10
330.396
 20
50.5847
 30
0.0
 10
330.396
 20
50.5847
 30
0.0
 10
331.1216
 20
47.3036
 30
0.0
 10
331.3253
 20
43.9273
 30
0.0
 10
331.0012
 20
40.582
 30
0.0
 10
331.0012
 20
40.582
 30
0.0
 10
330.7139
 20
37.6248
 30
0.0
 10
329.968
 20
34.7298
 30
0.0
 10
328.7913
 20
32.0014
 30
0.0
 10
328.7913
 20
32.0014
 30
0.0
 10
327.0201
 20
27.8946
 30
0.0
 10
323.8776
 20
24.5261
 30
0.0
 10
319.9046
 20
22.4731
 30
0.0
 10
319.9046
 20
22.4731
 30
0.0
 10
315.329
 20
20.1085
 30
0.0
 10
310.2114
 20
18.9819
 30
0.0
 10
305.0656
 20
19.2045
 30
0.0
 10
305.0656
 20
19.2045
 30
0.0
 10
300.2869
 20
19.4113
 30
0.0
 10
295.8094
 20
21.6104
 30
0.0
 10
292.7218
 20
25.2638
 30
0.0
 10
292.7218
 20
25.2638
 30
0.0
 10
290.6783
 20
27.6819
 30
0.0
 10
289.6505
 20
30.7995
 30
0.0
 10
289.8529
 20
33.959
 30
0.0
 10
289.8529
 20
33.959
 30
0.0
 10
290.0115
 20
36.4331
 30
0.0
 10
290.743
 20
38.8379
 30
0.0
 10
291.9888
 20
40.9813
 30
0.0
 10
291.9888
 20
40.9813
 30
0.0
 10
293.5389
 20
43.648
 30
0.0
 10
296.0265
 20
45.6457
 30
0.0
 10
298.9652
 20
46.5839
 30
0.0
 10
298.9652
 20
46.5839
 30
0.0
 10
303.1347
 20
47.9159
 30
0.0
 10
307.6774
 20
47.4021
 30
0.0
 10
311.4456
 20
45.1761
 30
0.0
 10
311.4456
 20
45.1761
 30
0.0
 10
313.0374
 20
44.235
 30
0.0
 10
314.3361
 20
42.868
 30
0.0
 10
315.1941
 20
41.2302
 30
0.0
 10
315.1941
 20
41.2302
 30
0.0
 10
316.4512
 20
38.8293
 30
0.0
 10
316.709
 20
36.027
 30
0.0
 10
315.9128
 20
33.4364
 30
0.0
 10
315.9128
 20
33.4364
 30
0.0
 10
315.0833
 20
30.733
 30
0.0
 10
312.4224
 20
29.02
 30
0.0
 10
309.6167
 20
29.3773
 30
0.0
 10
309.6167
 20
29.3773
 30
0.0
 10
309.1283
 20
29.4451
 30
0.0
 10
308.654
 20
29.5918
 30
0.0
 10
308.2126
 20
29.8121
 30
0.0
 10
308.2126
 20
29.8121
 30
0.0
 10
307.5655
 20
30.1347
 30
0.0
 10
307.2582
 20
30.8887
 30
0.0
 10
307.4941
 20
31.5724
 30
0.0
 10
307.4941
 20
31.5724
 30
0.0
 10
308.5352
 20
32.1514
 30
0.0
 10
309.2077
 20
33.2217
 30
0.0
 10
309.2758
 20
34.4108
 30
0.0
 10
309.2758
 20
34.4108
 30
0.0
 10
309.3233
 20
35.2311
 30
0.0
 10
309.1824
 20
36.0507
 30
0.0
 10
308.864
 20
36.8081
 30
0.0
 10
308.864
 20
36.8081
 30
0.0
 10
308.4246
 20
37.8524
 30
0.0
 10
307.4907
 20
38.6052
 30
0.0
 10
306.3765
 20
38.8122
 30
0.0
 10
306.3765
 20
38.8122
 30
0.0
 10
304.1632
 20
39.2221
 30
0.0
 10
301.9065
 20
38.3764
 30
0.0
 10
300.5102
 20
36.6105
 30
0.0
 10
300.5102
 20
36.6105
 30
0.0
 10
299.6291
 20
35.4966
 30
0.0
 10
299.3443
 20
34.0256
 30
0.0
 10
299.7467
 20
32.6635
 30
0.0
 10
299.7467
 20
32.6635
 30
0.0
 10
300.1311
 20
31.3622
 30
0.0
 10
300.8028
 20
30.1645
 30
0.0
 10
301.7126
 20
29.1576
 30
0.0
 10
301.7126
 20
29.1576
 30
0.0
 10
304.0197
 20
26.6053
 30
0.0
 10
307.4724
 20
25.417
 30
0.0
 10
310.861
 20
26.0112
 30
0.0
 10
310.861
 20
26.0112
 30
0.0
 10
311.7882
 20
26.1856
 30
0.0
 10
312.6836
 20
26.4973
 30
0.0
 10
313.5192
 20
26.9351
 30
0.0
 10
313.5192
 20
26.9351
 30
0.0
 10
315.1905
 20
27.8125
 30
0.0
 10
316.6603
 20
29.0273
 30
0.0
 10
317.8362
 20
30.5036
 30
0.0
 10
317.8362
 20
30.5036
 30
0.0
 10
318.7718
 20
31.679
 30
0.0
 10
319.441
 20
33.0432
 30
0.0
 10
319.7975
 20
34.5028
 30
0.0
 10
319.7975
 20
34.5028
 30
0.0
 10
320.6978
 20
38.1929
 30
0.0
 10
319.9427
 20
42.0893
 30
0.0
 10
317.7271
 20
45.1748
 30
0.0
 10
317.7271
 20
45.1748
 30
0.0
 10
316.4983
 20
46.8879
 30
0.0
 10
314.857
 20
48.2627
 30
0.0
 10
312.9542
 20
49.1719
 30
0.0
 10
312.9542
 20
49.1719
 30
0.0
 10
310.4146
 20
50.3848
 30
0.0
 10
307.639
 20
51.0197
 30
0.0
 10
304.8246
 20
51.0307
 30
0.0
 10
304.8246
 20
51.0307
 30
0.0
 10
299.8336
 20
51.05
 30
0.0
 10
295.0011
 20
49.2946
 30
0.0
 10
291.1876
 20
46.0742
 30
0.0
 10
291.1876
 20
46.0742
 30
0.0
 10
289.5617
 20
44.7012
 30
0.0
 10
288.3896
 20
42.8695
 30
0.0
 10
287.8249
 20
40.8172
 30
0.0
 10
287.8249
 20
40.8172
 30
0.0
 10
287.407
 20
39.302
 30
0.0
 10
287.1943
 20
37.7377
 30
0.0
 10
287.1913
 20
36.1654
 30
0.0
 10
287.1913
 20
36.1654
 30
0.0
 10
287.1892
 20
35.0986
 30
0.0
 10
287.177
 20
34.0314
 30
0.0
 10
287.1557
 20
32.9642
 30
0.0
 10
287.1557
 20
32.9642
 30
0.0
 10
287.1496
 20
32.6488
 30
0.0
 10
287.1203
 20
32.3336
 30
0.0
 10
287.0683
 20
32.0224
 30
0.0
 10
287.0683
 20
32.0224
 30
0.0
 10
287.0569
 20
31.9557
 30
0.0
 10
287.0275
 20
31.8932
 30
0.0
 10
286.9836
 20
31.8425
 30
0.0
 10
286.9836
 20
31.8425
 30
0.0
 10
286.9631
 20
31.8182
 30
0.0
 10
286.9294
 20
31.8094
 30
0.0
 10
286.8998
 20
31.8194
 30
0.0
 10
286.8998
 20
31.8194
 30
0.0
 10
286.8347
 20
31.8413
 30
0.0
 10
286.7804
 20
31.8872
 30
0.0
 10
286.7482
 20
31.9475
 30
0.0
 10
286.7482
 20
31.9475
 30
0.0
 10
286.7023
 20
32.0343
 30
0.0
 10
286.658
 20
32.1232
 30
0.0
 10
286.6173
 20
32.2125
 30
0.0
 10
286.6173
 20
32.2125
 30
0.0
 10
285.6671
 20
34.2967
 30
0.0
 10
285.0546
 20
36.5197
 30
0.0
 10
284.8023
 20
38.7963
 30
0.0
 10
284.8023
 20
38.7963
 30
0.0
 10
284.6237
 20
40.4118
 30
0.0
 10
284.7446
 20
42.0467
 30
0.0
 10
285.1595
 20
43.618
 30
0.0
 10
285.1595
 20
43.618
 30
0.0
 10
286.1255
 20
47.2753
 30
0.0
 10
287.8693
 20
50.6831
 30
0.0
 10
290.2695
 20
53.606
 30
0.0
 10
290.2695
 20
53.606
 30
0.0
 10
291.3446
 20
54.9146
 30
0.0
 10
292.4458
 20
56.2012
 30
0.0
 10
293.5724
 20
57.4663
 30
0.0
 10
293.5724
 20
57.4663
 30
0.0
 10
295.1123
 20
59.1954
 30
0.0
 10
296.4294
 20
61.1106
 30
0.0
 10
297.4919
 20
63.1678
 30
0.0
 10
297.4919
 20
63.1678
 30
0.0
 10
298.7999
 20
65.7004
 30
0.0
 10
299.4527
 20
68.5189
 30
0.0
 10
299.3909
 20
71.3683
 30
0.0
 10
299.3909
 20
71.3683
 30
0.0
 10
299.3291
 20
74.209
 30
0.0
 10
298.6319
 20
76.999
 30
0.0
 10
297.3499
 20
79.5348
 30
0.0
 10
297.3499
 20
79.5348
 30
0.0
 10
296.1687
 20
81.8703
 30
0.0
 10
294.0734
 20
83.6099
 30
0.0
 10
291.5603
 20
84.3401
 30
0.0
 10
291.5603
 20
84.3401
 30
0.0
 10
289.5249
 20
84.9316
 30
0.0
 10
287.4382
 20
85.3262
 30
0.0
 10
285.3277
 20
85.5184
 30
0.0
 10
285.3277
 20
85.5184
 30
0.0
 10
284.4221
 20
85.6005
 30
0.0
 10
283.5119
 20
85.6163
 30
0.0
 10
282.604
 20
85.5642
 30
0.0
 10
282.604
 20
85.5642
 30
0.0
 10
284.0824
 20
87.9327
 30
0.0
 10
284.7802
 20
90.7039
 30
0.0
 10
284.5974
 20
93.4905
 30
0.0
 10
284.5974
 20
93.4905
 30
0.0
 10
284.5016
 20
94.949
 30
0.0
 10
283.8622
 20
96.3172
 30
0.0
 10
282.8041
 20
97.3261
 30
0.0
 10
282.8041
 20
97.3261
 30
0.0
 10
282.484
 20
97.6312
 30
0.0
 10
282.1726
 20
97.9454
 30
0.0
 10
281.8699
 20
98.2679
 30
0.0
 10
281.8699
 20
98.2679
 30
0.0
 10
281.2853
 20
98.8911
 30
0.0
 10
281.0054
 20
99.7413
 30
0.0
 10
281.1053
 20
100.5898
 30
0.0
 10
281.1053
 20
100.5898
 30
0.0
 10
281.1673
 20
101.1225
 30
0.0
 10
281.2164
 20
101.6562
 30
0.0
 10
281.2511
 20
102.1919
 30
0.0
 10
281.2511
 20
102.1919
 30
0.0
 10
281.2859
 20
102.7267
 30
0.0
 10
281.3151
 20
103.2618
 30
0.0
 10
281.3392
 20
103.7976
 30
0.0
 10
281.3392
 20
103.7976
 30
0.0
 10
281.3824
 20
104.7564
 30
0.0
 10
281.5298
 20
105.7075
 30
0.0
 10
281.7777
 20
106.6348
 30
0.0
 10
281.7777
 20
106.6348
 30
0.0
 10
281.8212
 20
106.7975
 30
0.0
 10
281.9025
 20
106.9474
 30
0.0
 10
282.0154
 20
107.0721
 30
0.0
 10
282.0154
 20
107.0721
 30
0.0
 10
282.0722
 20
107.1348
 30
0.0
 10
282.1548
 20
107.1676
 30
0.0
 10
282.2394
 20
107.1609
 30
0.0
 10
282.2394
 20
107.1609
 30
0.0
 10
282.3572
 20
107.1519
 30
0.0
 10
282.4658
 20
107.0904
 30
0.0
 10
282.5336
 20
106.9934
 30
0.0
 10
282.5336
 20
106.9934
 30
0.0
 10
282.9308
 20
106.4259
 30
0.0
 10
283.279
 20
105.8247
 30
0.0
 10
283.5738
 20
105.1974
 30
0.0
 10
283.5738
 20
105.1974
 30
0.0
 10
283.7566
 20
104.8069
 30
0.0
 10
283.9492
 20
104.421
 30
0.0
 10
284.1513
 20
104.0398
 30
0.0
 10
284.1513
 20
104.0398
 30
0.0
 10
285.0558
 20
102.3332
 30
0.0
 10
286.3319
 20
100.8524
 30
0.0
 10
287.8869
 20
99.7066
 30
0.0
 10
287.8869
 20
99.7066
 30
0.0
 10
290.3665
 20
97.8795
 30
0.0
 10
292.7775
 20
95.9601
 30
0.0
 10
295.1135
 20
93.9533
 30
0.0
 10
295.1135
 20
93.9533
 30
0.0
 10
299.1458
 20
90.4894
 30
0.0
 10
303.2032
 20
87.0553
 30
0.0
 10
307.2861
 20
83.652
 30
0.0
 10
307.2861
 20
83.652
 30
0.0
 10
309.5536
 20
81.7622
 30
0.0
 10
311.748
 20
79.7871
 30
0.0
 10
313.8656
 20
77.7308
 30
0.0
 10
313.8656
 20
77.7308
 30
0.0
 10
314.1261
 20
77.4779
 30
0.0
 10
314.3849
 20
77.223
 30
0.0
 10
314.6431
 20
76.967
 30
0.0
  0
SPLINE
  5
5F
330
1F
100
AcDbEntity
  8
layer 1
 62
     7
100
AcDbSpline
210
0.0
220
0.0
230
1.0
 70
    11
 71
     3
 72
   140
 73
   136
 74
     0
 42
0.0000000001
 43
0.0000000001
 12
1.0
 22
0.0
 32
0.0
 13
1.0
 23
0.0
 33
0.0
 40
0.0
 40
0.0
 40
0.0
 40
0.0
 40
0.0285714285714286
 40
0.0285714285714286
 40
0.0285714285714286
 40
0.0285714285714286
 40
0.0571428571428571
 40
0.0571428571428571
 40
0.0571428571428571
 40
0.0571428571428571
 40
0.0857142857142857
 40
0.0857142857142857
 40
0.0857142857142857
 40
0.0857142857142857
 40
0.1142857142857143
 40
0.1142857142857143
 40
0.1142857142857143
 40
0.1142857142857143
 40
0.1428571428571428
 40
0.1428571428571428
 40
0.1428571428571428
 40
0.1428571428571428
 40
0.1714285714285714
 40
0.1714285714285714
 40
0.1714285714285714
 40
0.1714285714285714
 40
0.2
 40
0.2
 40
0.2
 40
0.2
 40
0.2285714285714286
 40
0.2285714285714286
 40
0.2285714285714286
 40
0.2285714285714286
 40
0.2571428571428571
 40
0.2571428571428571
 40
0.2571428571428571
 40
0.2571428571428571
 40
0.2857142857142857
 40
0.2857142857142857
 40
0.2857142857142857
 40
0.2857142857142857
 40
0.3142857142857143
 40
0.3142857142857143
 40
0.3142857142857143
 40
0.3142857142857143
 40
0.3428571428571429
 40
0.3428571428571429
 40
0.3428571428571429
 40
0.3428571428571429
 40
0.3714285714285714
 40
0.3714285714285714
 40
0.3714285714285714
 40
0.3714285714285714
 40
0.4
 40
0.4
 40
0.4
 40
0.4
 40
0.4285714285714285
 40
0.4285714285714285
 40
0.4285714285714285
 40
0.4285714285714285
 40
0.4571428571428571
 40
0.4571428571428571
 40
0.4571428571428571
 40
0.4571428571428571
 40
0.4857142857142857
 40
0.4857142857142857
 40
0.4857142857142857
 40
0.4857142857142857
 40
0.5142857142857142
 40
0.5142857142857142
 40
0.5142857142857142
 40
0.5142857142857142
 40
0.5428571428571428
 40
0.5428571428571428
 40
0.5428571428571428
 40
0.5428571428571428
 40
0.5714285714285714
 40
0.5714285714285714
 40
0.5714285714285714
 40
0.5714285714285714
 40
0.6
 40
0.6
 40
0.6
 40
0.6
 40
0.6285714285714286
 40
0.6285714285714286
 40
0.6285714285714286
 40
0.6285714285714286
 40
0.6571428571428571
 40
0.6571428571428571
 40
0.6571428571428571
 40
0.6571428571428571
 40
0.6857142857142857
 40
0.6857142857142857
 40
0.6857142857142857
 40
0.6857142857142857
 40
0.7142857142857143
 40
0.7142857142857143
 40
0.7142857142857143
 40
0.7142857142857143
 40
0.7428571428571429
 40
0.7428571428571429
 40
0.7428571428571429
 40
0.7428571428571429
 40
0.7714285714285715
 40
0.7714285714285715
 40
0.7714285714285715
 40
0.7714285714285715
 40
0.8
 40
0.8
 40
0.8
 40
0.8
 40
0.8285714285714286
 40
0.8285714285714286
 40
0.8285714285714286
 40
0.8285714285714286
 40
0.8571428571428571
 40
0.8571428571428571
 40
0.8571428571428571
 40
0.8571428571428571
 40
0.8857142857142857
 40
0.8857142857142857
 40
0.8857142857142857
 40
0.8857142857142857
 40
0.9142857142857143
 40
0.9142857142857143
 40
0.9142857142857143
 40
0.9142857142857143
 40
0.9428571428571428
 40
0.9428571428571428
 40
0.9428571428571428
 40
0.9428571428571428
 40
1.0
 40
1.0
 40
1.0
 40
1.0
 10
277.3208
 20
81.282
 30
0.0
 10
278.1638
 20
81.654
 30
0.0
 10
279.0527
 20
81.9115
 30
0.0
 10
279.9638
 20
82.0478
 30
0.0
 10
279.9638
 20
82.0478
 30
0.0
 10
282.4953
 20
82.4263
 30
0.0
 10
285.0767
 20
82.3232
 30
0.0
 10
287.5701
 20
81.7446
 30
0.0
 10
287.5701
 20
81.7446
 30
0.0
 10
288.7553
 20
81.4693
 30
0.0
 10
289.8812
 20
80.9818
 30
0.0
 10
290.8925
 20
80.3056
 30
0.0
 10
290.8925
 20
80.3056
 30
0.0
 10
291.908
 20
79.6263
 30
0.0
 10
292.7599
 20
78.73
 30
0.0
 10
293.3871
 20
77.6814
 30
0.0
 10
293.3871
 20
77.6814
 30
0.0
 10
294.9971
 20
74.9888
 30
0.0
 10
295.361
 20
71.7282
 30
0.0
 10
294.3859
 20
68.7463
 30
0.0
 10
294.3859
 20
68.7463
 30
0.0
 10
293.9267
 20
67.3421
 30
0.0
 10
293.366
 20
65.9729
 30
0.0
 10
292.709
 20
64.6495
 30
0.0
 10
292.709
 20
64.6495
 30
0.0
 10
291.7669
 20
62.7504
 30
0.0
 10
290.7388
 20
60.8949
 30
0.0
 10
289.6271
 20
59.0897
 30
0.0
 10
289.6271
 20
59.0897
 30
0.0
 10
288.516
 20
57.2852
 30
0.0
 10
287.4236
 20
55.4692
 30
0.0
 10
286.3499
 20
53.6424
 30
0.0
 10
286.3499
 20
53.6424
 30
0.0
 10
285.4691
 20
52.1428
 30
0.0
 10
284.6483
 20
50.6088
 30
0.0
 10
283.8904
 20
49.0442
 30
0.0
 10
283.8904
 20
49.0442
 30
0.0
 10
282.4365
 20
46.0428
 30
0.0
 10
281.7441
 20
42.7307
 30
0.0
 10
281.8742
 20
39.3984
 30
0.0
 10
281.8742
 20
39.3984
 30
0.0
 10
281.9427
 20
37.6342
 30
0.0
 10
282.1677
 20
35.8799
 30
0.0
 10
282.5468
 20
34.1556
 30
0.0
 10
282.5468
 20
34.1556
 30
0.0
 10
281.9704
 20
34.2639
 30
0.0
 10
281.4122
 20
34.4531
 30
0.0
 10
280.8884
 20
34.7168
 30
0.0
 10
280.8884
 20
34.7168
 30
0.0
 10
280.3536
 20
34.9859
 30
0.0
 10
279.9212
 20
35.4228
 30
0.0
 10
279.6557
 20
35.9592
 30
0.0
 10
279.6557
 20
35.9592
 30
0.0
 10
279.4286
 20
36.4184
 30
0.0
 10
279.2119
 20
36.8826
 30
0.0
 10
279.0065
 20
37.3515
 30
0.0
 10
279.0065
 20
37.3515
 30
0.0
 10
278.797
 20
37.8277
 30
0.0
 10
278.4709
 20
38.2434
 30
0.0
 10
278.058
 20
38.5596
 30
0.0
 10
278.058
 20
38.5596
 30
0.0
 10
277.8245
 20
38.7384
 30
0.0
 10
277.5783
 20
38.8988
 30
0.0
 10
277.3208
 20
39.0401
 30
0.0
 10
277.3208
 20
39.0401
 30
0.0
 10
277.3208
 20
39.0401
 30
0.0
 10
277.3208
 20
62.7598
 30
0.0
 10
277.3208
 20
62.7598
 30
0.0
 10
277.3208
 20
62.7598
 30
0.0
 10
278.9254
 20
62.4012
 30
0.0
 10
280.5778
 20
62.3098
 30
0.0
 10
282.2119
 20
62.4896
 30
0.0
 10
282.2119
 20
62.4896
 30
0.0
 10
283.6077
 20
62.6431
 30
0.0
 10
284.9421
 20
63.1426
 30
0.0
 10
286.0953
 20
63.9435
 30
0.0
 10
286.0953
 20
63.9435
 30
0.0
 10
287.1009
 20
64.6422
 30
0.0
 10
287.9142
 20
65.582
 30
0.0
 10
288.4606
 20
66.6783
 30
0.0
 10
288.4606
 20
66.6783
 30
0.0
 10
289.2319
 20
68.2726
 30
0.0
 10
289.3386
 20
70.107
 30
0.0
 10
288.7562
 20
71.7798
 30
0.0
 10
288.7562
 20
71.7798
 30
0.0
 10
288.5412
 20
72.3668
 30
0.0
 10
288.2347
 20
72.9163
 30
0.0
 10
287.8476
 20
73.4077
 30
0.0
 10
287.8476
 20
73.4077
 30
0.0
 10
286.9042
 20
74.6062
 30
0.0
 10
285.3419
 20
75.1332
 30
0.0
 10
283.8658
 20
74.7494
 30
0.0
 10
283.8658
 20
74.7494
 30
0.0
 10
283.3273
 20
74.6095
 30
0.0
 10
282.8214
 20
74.3647
 30
0.0
 10
282.3773
 20
74.0293
 30
0.0
 10
282.3773
 20
74.0293
 30
0.0
 10
281.345
 20
73.248
 30
0.0
 10
280.9348
 20
71.8917
 30
0.0
 10
281.3638
 20
70.6703
 30
0.0
 10
281.3638
 20
70.6703
 30
0.0
 10
281.6037
 20
69.9844
 30
0.0
 10
282.1099
 20
69.4253
 30
0.0
 10
282.7681
 20
69.1187
 30
0.0
 10
282.7681
 20
69.1187
 30
0.0
 10
283.1962
 20
68.922
 30
0.0
 10
283.6658
 20
68.8339
 30
0.0
 10
284.1357
 20
68.8631
 30
0.0
 10
284.1357
 20
68.8631
 30
0.0
 10
284.6004
 20
68.8913
 30
0.0
 10
285.0597
 20
68.9771
 30
0.0
 10
285.5035
 20
69.1187
 30
0.0
 10
285.5035
 20
69.1187
 30
0.0
 10
285.2621
 20
68.5537
 30
0.0
 10
284.9577
 20
68.0174
 30
0.0
 10
284.5963
 20
67.5211
 30
0.0
 10
284.5963
 20
67.5211
 30
0.0
 10
284.2335
 20
67.0229
 30
0.0
 10
283.7904
 20
66.5883
 30
0.0
 10
283.2857
 20
66.2344
 30
0.0
 10
283.2857
 20
66.2344
 30
0.0
 10
282.4171
 20
65.6413
 30
0.0
 10
281.3942
 20
65.3127
 30
0.0
 10
280.3423
 20
65.2886
 30
0.0
 10
280.3423
 20
65.2886
 30
0.0
 10
279.298
 20
65.2647
 30
0.0
 10
278.263
 20
65.488
 30
0.0
 10
277.3208
 20
65.9397
 30
0.0
 10
277.3208
 20
65.9397
 30
0.0
 10
277.3208
 20
65.9397
 30
0.0
 10
277.3208
 20
81.282
 30
0.0
 10
277.3208
 20
81.282
 30
0.0
 10
277.3208
 20
81.282
 30
0.0
 10
277.3208
 20
81.282
 30
0.0
 10
277.3208
 20
81.282
 30
0.0
 10
277.3208
 20
81.282
 30
0.0
  0
SPLINE
  5
60
330
1F
100
AcDbEntity
  8
layer 1
 62
     7
100
AcDbSpline
210
0.0
220
0.0
230
1.0
 70
    11
 71
     3
 72
    68
 73
    64
 74
     0
 42
0.0000000001
 43
0.0000000001
 12
1.0
 22
0.0
 32
0.0
 13
1.0
 23
0.0
 33
0.0
 40
0.0
 40
0.0
 40
0.0
 40
0.0
 40
0.0588235294117647
 40
0.0588235294117647
 40
0.0588235294117647
 40
0.0588235294117647
 40
0.1176470588235294
 40
0.1176470588235294
 40
0.1176470588235294
 40
0.1176470588235294
 40
0.1764705882352941
 40
0.1764705882352941
 40
0.1764705882352941
 40
0.1764705882352941
 40
0.2352941176470588
 40
0.2352941176470588
 40
0.2352941176470588
 40
0.2352941176470588
 40
0.2941176470588235
 40
0.2941176470588235
 40
0.2941176470588235
 40
0.2941176470588235
 40
0.3529411764705883
 40
0.3529411764705883
 40
0.3529411764705883
 40
0.3529411764705883
 40
0.4117647058823529
 40
0.4117647058823529
 40
0.4117647058823529
 40
0.4117647058823529
 40
0.4705882352941176
 40
0.4705882352941176
 40
0.4705882352941176
 40
0.4705882352941176
 40
0.5294117647058824
 40
0.5294117647058824
 40
0.5294117647058824
 40
0.5294117647058824
 40
0.5882352941176471
 40
0.5882352941176471
 40
0.5882352941176471
 40
0.5882352941176471
 40
0.6470588235294118
 40
0.6470588235294118
 40
0.6470588235294118
 40
0.6470588235294118
 40
0.7058823529411765
 40
0.7058823529411765
 40
0.7058823529411765
 40
0.7058823529411765
 40
0.7647058823529411
 40
0.7647058823529411
 40
0.7647058823529411
 40
0.7647058823529411
 40
0.8235294117647058
 40
0.8235294117647058
 40
0.8235294117647058
 40
0.8235294117647058
 40
0.8823529411764706
 40
0.8823529411764706
 40
0.8823529411764706
 40
0.8823529411764706
 40
1.0
 40
1.0
 40
1.0
 40
1.0
 10
277.3208
 20
-46.5192
 30
0.0
 10
277.3208
 20
-46.5192
 30
0.0
 10
277.3208
 20
-28.683
 30
0.0
 10
277.3208
 20
-28.683
 30
0.0
 10
277.3208
 20
-28.683
 30
0.0
 10
277.9275
 20
-28.3674
 30
0.0
 10
278.5095
 20
-28.0055
 30
0.0
 10
279.0621
 20
-27.6019
 30
0.0
 10
279.0621
 20
-27.6019
 30
0.0
 10
279.8246
 20
-27.044
 30
0.0
 10
280.3181
 20
-26.1921
 30
0.0
 10
280.4205
 20
-25.2531
 30
0.0
 10
280.4205
 20
-25.2531
 30
0.0
 10
280.4711
 20
-24.7925
 30
0.0
 10
280.5236
 20
-24.333
 30
0.0
 10
280.5773
 20
-23.8734
 30
0.0
 10
280.5773
 20
-23.8734
 30
0.0
 10
280.6344
 20
-23.3868
 30
0.0
 10
280.9238
 20
-22.9575
 30
0.0
 10
281.3531
 20
-22.7215
 30
0.0
 10
281.3531
 20
-22.7215
 30
0.0
 10
281.5564
 20
-22.6097
 30
0.0
 10
281.7749
 20
-22.5293
 30
0.0
 10
282.0017
 20
-22.4817
 30
0.0
 10
282.0017
 20
-22.4817
 30
0.0
 10
283.2069
 20
-22.2316
 30
0.0
 10
284.4185
 20
-22.0169
 30
0.0
 10
285.6364
 20
-21.8378
 30
0.0
 10
285.6364
 20
-21.8378
 30
0.0
 10
285.7942
 20
-21.8145
 30
0.0
 10
285.9557
 20
-21.8394
 30
0.0
 10
286.0991
 20
-21.9092
 30
0.0
 10
286.0991
 20
-21.9092
 30
0.0
 10
286.2561
 20
-21.9854
 30
0.0
 10
286.329
 20
-22.169
 30
0.0
 10
286.2673
 20
-22.3323
 30
0.0
 10
286.2673
 20
-22.3323
 30
0.0
 10
286.0491
 20
-22.9108
 30
0.0
 10
285.7445
 20
-23.4535
 30
0.0
 10
285.3646
 20
-23.9419
 30
0.0
 10
285.3646
 20
-23.9419
 30
0.0
 10
284.8389
 20
-24.6161
 30
0.0
 10
284.3287
 20
-25.3025
 30
0.0
 10
283.8349
 20
-25.9999
 30
0.0
 10
283.8349
 20
-25.9999
 30
0.0
 10
282.6035
 20
-27.7376
 30
0.0
 10
281.7128
 20
-29.6923
 30
0.0
 10
281.2111
 20
-31.7621
 30
0.0
 10
281.2111
 20
-31.7621
 30
0.0
 10
280.7345
 20
-33.7212
 30
0.0
 10
280.2773
 20
-35.685
 30
0.0
 10
279.838
 20
-37.6526
 30
0.0
 10
279.838
 20
-37.6526
 30
0.0
 10
279.44
 20
-39.4319
 30
0.0
 10
278.9879
 20
-41.1991
 30
0.0
 10
278.4818
 20
-42.9511
 30
0.0
 10
278.4818
 20
-42.9511
 30
0.0
 10
278.1344
 20
-44.1527
 30
0.0
 10
277.7468
 20
-45.3429
 30
0.0
 10
277.3208
 20
-46.5192
 30
0.0
 10
277.3208
 20
-46.5192
 30
0.0
 10
277.3208
 20
-46.5192
 30
0.0
 10
277.3208
 20
-46.5192
 30
0.0
 10
277.3208
 20
-46.5192
 30
0.0
  0
SPLINE
  5
61
330
1F
100
AcDbEntity
  8
layer 1
 62
     7
100
AcDbSpline
210
0.0
220
0.0
230
1.0
 70
    11
 71
     3
 72
    20
 73
    16
 74
     0
 42
0.0000000001
 43
0.0000000001
 12
1.0
 22
0.0
 32
0.0
 13
1.0
 23
0.0
 33
0.0
 40
0.0
 40
0.0
 40
0.0
 40
0.0
 40
0.2
 40
0.2
 40
0.2
 40
0.2
 40
0.4
 40
0.4
 40
0.4
 40
0.4
 40
0.6
 40
0.6
 40
0.6
 40
0.6
 40
1.0
 40
1.0
 40
1.0
 40
1.0
 10
277.3208
 20
-86.2654
 30
0.0
 10
277.7468
 20
-86.8671
 30
0.0
 10
278.1131
 20
-87.5093
 30
0.0
 10
278.414
 20
-88.1825
 30
0.0
 10
278.414
 20
-88.1825
 30
0.0
 10
279.3353
 20
-90.2421
 30
0.0
 10
279.4529
 20
-92.5739
 30
0.0
 10
278.7439
 20
-94.7161
 30
0.0
 10
278.7439
 20
-94.7161
 30
0.0
 10
278.3876
 20
-95.7932
 30
0.0
 10
277.9102
 20
-96.8266
 30
0.0
 10
277.3208
 20
-97.7963
 30
0.0
 10
277.3208
 20
-97.7963
 30
0.0
 10
277.3208
 20
-97.7963
 30
0.0
 10
277.3208
 20
-86.2654
 30
0.0
 10
277.3208
 20
-86.2654
 30
0.0
  0
SPLINE
  5
62
330
1F
100
AcDbEntity
  8
layer 1
 62
     7
100
AcDbSpline
210
0.0
220
0.0
230
1.0
 70
    11
 71
     3
 72
    68
 73
    64
 74
     0
 42
0.0000000001
 43
0.0000000001
 12
1.0
 22
0.0
 32
0.0
 13
1.0
 23
0.0
 33
0.0
 40
0.0
 40
0.0
 40
0.0
 40
0.0
 40
0.0588235294117647
 40
0.0588235294117647
 40
0.0588235294117647
 40
0.0588235294117647
 40
0.1176470588235294
 40
0.1176470588235294
 40
0.1176470588235294
 40
0.1176470588235294
 40
0.1764705882352941
 40
0.1764705882352941
 40
0.1764705882352941
 40
0.1764705882352941
 40
0.2352941176470588
 40
0.2352941176470588
 40
0.2352941176470588
 40
0.2352941176470588
 40
0.2941176470588235
 40
0.2941176470588235
 40
0.2941176470588235
 40
0.2941176470588235
 40
0.3529411764705883
 40
0.3529411764705883
 40
0.3529411764705883
 40
0.3529411764705883
 40
0.4117647058823529
 40
0.4117647058823529
 40
0.4117647058823529
 40
0.4117647058823529
 40
0.4705882352941176
 40
0.4705882352941176
 40
0.4705882352941176
 40
0.4705882352941176
 40
0.5294117647058824
 40
0.5294117647058824
 40
0.5294117647058824
 40
0.5294117647058824
 40
0.5882352941176471
 40
0.5882352941176471
 40
0.5882352941176471
 40
0.5882352941176471
 40
0.6470588235294118
 40
0.6470588235294118
 40
0.6470588235294118
 40
0.6470588235294118
 40
0.7058823529411765
 40
0.7058823529411765
 40
0.7058823529411765
 40
0.7058823529411765
 40
0.7647058823529411
 40
0.7647058823529411
 40
0.7647058823529411
 40
0.7647058823529411
 40
0.8235294117647058
 40
0.8235294117647058
 40
0.8235294117647058
 40
0.8235294117647058
 40
0.8823529411764706
 40
0.8823529411764706
 40
0.8823529411764706
 40
0.8823529411764706
 40
1.0
 40
1.0
 40
1.0
 40
1.0
 10
338.0124
 20
-81.1514
 30
0.0
 10
337.5034
 20
-81.4863
 30
0.0
 10
337.0366
 20
-81.881
 30
0.0
 10
336.6216
 20
-82.3266
 30
0.0
 10
336.6216
 20
-82.3266
 30
0.0
 10
336.2075
 20
-82.7711
 30
0.0
 10
335.8168
 20
-83.237
 30
0.0
 10
335.4521
 20
-83.7224
 30
0.0
 10
335.4521
 20
-83.7224
 30
0.0
 10
334.6435
 20
-84.7971
 30
0.0
 10
334.2627
 20
-86.1325
 30
0.0
 10
334.3829
 20
-87.4727
 30
0.0
 10
334.3829
 20
-87.4727
 30
0.0
 10
334.4577
 20
-88.3088
 30
0.0
 10
334.5255
 20
-89.1454
 30
0.0
 10
334.5857
 20
-89.9834
 30
0.0
 10
334.5857
 20
-89.9834
 30
0.0
 10
334.5972
 20
-90.1414
 30
0.0
 10
334.5954
 20
-90.2999
 30
0.0
 10
334.5804
 20
-90.4579
 30
0.0
 10
334.5804
 20
-90.4579
 30
0.0
 10
334.5749
 20
-90.5158
 30
0.0
 10
334.5624
 20
-90.5727
 30
0.0
 10
334.5438
 20
-90.6277
 30
0.0
 10
334.5438
 20
-90.6277
 30
0.0
 10
334.5328
 20
-90.6598
 30
0.0
 10
334.5073
 20
-90.685
 30
0.0
 10
334.4745
 20
-90.6959
 30
0.0
 10
334.4745
 20
-90.6959
 30
0.0
 10
334.4427
 20
-90.7067
 30
0.0
 10
334.4067
 20
-90.7015
 30
0.0
 10
334.3788
 20
-90.6827
 30
0.0
 10
334.3788
 20
-90.6827
 30
0.0
 10
334.2472
 20
-90.5926
 30
0.0
 10
334.1384
 20
-90.4743
 30
0.0
 10
334.059
 20
-90.3362
 30
0.0
 10
334.059
 20
-90.3362
 30
0.0
 10
333.6792
 20
-89.6737
 30
0.0
 10
333.2395
 20
-89.0477
 30
0.0
 10
332.7451
 20
-88.4655
 30
0.0
 10
332.7451
 20
-88.4655
 30
0.0
 10
332.1989
 20
-87.8219
 30
0.0
 10
331.4897
 20
-87.3385
 30
0.0
 10
330.6906
 20
-87.0655
 30
0.0
 10
330.6906
 20
-87.0655
 30
0.0
 10
329.6384
 20
-86.706
 30
0.0
 10
328.537
 20
-86.5125
 30
0.0
 10
327.4251
 20
-86.492
 30
0.0
 10
327.4251
 20
-86.492
 30
0.0
 10
330.4343
 20
-84.2809
 30
0.0
 10
332.9968
 20
-81.5209
 30
0.0
 10
334.9791
 20
-78.3567
 30
0.0
 10
334.9791
 20
-78.3567
 30
0.0
 10
335.7516
 20
-77.1237
 30
0.0
 10
336.3985
 20
-75.8167
 30
0.0
 10
336.9111
 20
-74.4546
 30
0.0
 10
336.9111
 20
-74.4546
 30
0.0
 10
337.4103
 20
-73.1057
 30
0.0
 10
337.7788
 20
-71.7124
 30
0.0
 10
338.0124
 20
-70.2929
 30
0.0
 10
338.0124
 20
-70.2929
 30
0.0
 10
338.0124
 20
-70.2929
 30
0.0
 10
338.0124
 20
-81.1514
 30
0.0
 10
338.0124
 20
-81.1514
 30
0.0
  0
SPLINE
  5
63
330
1F
100
AcDbEntity
  8
layer 1
 62
     7
100
AcDbSpline
210
0.0
220
0.0
230
1.0
 70
    11
 71
     3
 72
    52
 73
    48
 74
     0
 42
0.0000000001
 43
0.0000000001
 12
1.0
 22
0.0
 32
0.0
 13
1.0
 23
0.0
 33
0.0
 40
0.0
 40
0.0
 40
0.0
 40
0.0
 40
0.0769230769230769
 40
0.0769230769230769
 40
0.0769230769230769
 40
0.0769230769230769
 40
0.1538461538461539
 40
0.1538461538461539
 40
0.1538461538461539
 40
0.1538461538461539
 40
0.2307692307692308
 40
0.2307692307692308
 40
0.2307692307692308
 40
0.2307692307692308
 40
0.3076923076923077
 40
0.3076923076923077
 40
0.3076923076923077
 40
0.3076923076923077
 40
0.3846153846153846
 40
0.3846153846153846
 40
0.3846153846153846
 40
0.3846153846153846
 40
0.4615384615384616
 40
0.4615384615384616
 40
0.4615384615384616
 40
0.4615384615384616
 40
0.5384615384615384
 40
0.5384615384615384
 40
0.5384615384615384
 40
0.5384615384615384
 40
0.6153846153846154
 40
0.6153846153846154
 40
0.6153846153846154
 40
0.6153846153846154
 40
0.6923076923076923
 40
0.6923076923076923
 40
0.6923076923076923
 40
0.6923076923076923
 40
0.7692307692307693
 40
0.7692307692307693
 40
0.7692307692307693
 40
0.7692307692307693
 40
0.8461538461538461
 40
0.8461538461538461
 40
0.8461538461538461
 40
0.8461538461538461
 40
1.0
 40
1.0
 40
1.0
 40
1.0
 10
338.0124
 20
-89.3721
 30
0.0
 10
338.0124
 20
-89.3721
 30
0.0
 10
338.0124
 20
-87.7721
 30
0.0
 10
338.0124
 20
-87.7721
 30
0.0
 10
338.0124
 20
-87.7721
 30
0.0
 10
337.8033
 20
-87.8306
 30
0.0
 10
337.5962
 20
-87.8942
 30
0.0
 10
337.3901
 20
-87.9633
 30
0.0
 10
337.3901
 20
-87.9633
 30
0.0
 10
336.8189
 20
-88.156
 30
0.0
 10
336.3524
 20
-88.5739
 30
0.0
 10
336.0991
 20
-89.1204
 30
0.0
 10
336.0991
 20
-89.1204
 30
0.0
 10
335.8542
 20
-89.6478
 30
0.0
 10
335.6882
 20
-90.2076
 30
0.0
 10
335.606
 20
-90.7827
 30
0.0
 10
335.606
 20
-90.7827
 30
0.0
 10
335.5913
 20
-90.8834
 30
0.0
 10
335.5853
 20
-90.9848
 30
0.0
 10
335.5882
 20
-91.0864
 30
0.0
 10
335.5882
 20
-91.0864
 30
0.0
 10
335.5892
 20
-91.1253
 30
0.0
 10
335.5889
 20
-91.1646
 30
0.0
 10
335.5873
 20
-91.2038
 30
0.0
 10
335.5873
 20
-91.2038
 30
0.0
 10
335.5857
 20
-91.2286
 30
0.0
 10
335.598
 20
-91.2511
 30
0.0
 10
335.6194
 20
-91.2638
 30
0.0
 10
335.6194
 20
-91.2638
 30
0.0
 10
335.6403
 20
-91.2768
 30
0.0
 10
335.6664
 20
-91.277
 30
0.0
 10
335.6876
 20
-91.2641
 30
0.0
 10
335.6876
 20
-91.2641
 30
0.0
 10
335.7493
 20
-91.2281
 30
0.0
 10
335.8003
 20
-91.1748
 30
0.0
 10
335.8337
 20
-91.111
 30
0.0
 10
335.8337
 20
-91.111
 30
0.0
 10
335.9946
 20
-90.8023
 30
0.0
 10
336.1897
 20
-90.5121
 30
0.0
 10
336.4151
 20
-90.2461
 30
0.0
 10
336.4151
 20
-90.2461
 30
0.0
 10
336.6157
 20
-90.0089
 30
0.0
 10
336.8671
 20
-89.82
 30
0.0
 10
337.1507
 20
-89.6941
 30
0.0
 10
337.1507
 20
-89.6941
 30
0.0
 10
337.4313
 20
-89.569
 30
0.0
 10
337.7188
 20
-89.4617
 30
0.0
 10
338.0124
 20
-89.3721
 30
0.0
  0
SPLINE
  5
64
330
1F
100
AcDbEntity
  8
layer 1
 62
     7
100
AcDbSpline
210
0.0
220
0.0
230
1.0
 70
    11
 71
     3
 72
    32
 73
    28
 74
     0
 42
0.0000000001
 43
0.0000000001
 12
1.0
 22
0.0
 32
0.0
 13
1.0
 23
0.0
 33
0.0
 40
0.0
 40
0.0
 40
0.0
 40
0.0
 40
0.125
 40
0.125
 40
0.125
 40
0.125
 40
0.25
 40
0.25
 40
0.25
 40
0.25
 40
0.375
 40
0.375
 40
0.375
 40
0.375
 40
0.5
 40
0.5
 40
0.5
 40
0.5
 40
0.625
 40
0.625
 40
0.625
 40
0.625
 40
0.75
 40
0.75
 40
0.75
 40
0.75
 40
1.0
 40
1.0
 40
1.0
 40
1.0
 10
281.8028
 20
-102.1004
 30
0.0
 10
282.0707
 20
-101.7852
 30
0.0
 10
282.3041
 20
-101.4421
 30
0.0
 10
282.4998
 20
-101.078
 30
0.0
 10
282.4998
 20
-101.078
 30
0.0
 10
282.9068
 20
-100.3205
 30
0.0
 10
282.9307
 20
-99.4159
 30
0.0
 10
282.5636
 20
-98.6384
 30
0.0
 10
282.5636
 20
-98.6384
 30
0.0
 10
282.4118
 20
-98.3166
 30
0.0
 10
282.2652
 20
-97.9925
 30
0.0
 10
282.1248
 20
-97.6658
 30
0.0
 10
282.1248
 20
-97.6658
 30
0.0
 10
281.9835
 20
-97.3385
 30
0.0
 10
281.831
 20
-97.017
 30
0.0
 10
281.6662
 20
-96.7014
 30
0.0
 10
281.6662
 20
-96.7014
 30
0.0
 10
281.8398
 20
-97.9573
 30
0.0
 10
281.5175
 20
-99.233
 30
0.0
 10
280.7688
 20
-100.2567
 30
0.0
 10
280.7688
 20
-100.2567
 30
0.0
 10
280.2651
 20
-100.9457
 30
0.0
 10
279.6733
 20
-101.5654
 30
0.0
 10
279.0085
 20
-102.1004
 30
0.0
 10
279.0085
 20
-102.1004
 30
0.0
 10
279.0085
 20
-102.1004
 30
0.0
 10
281.8028
 20
-102.1004
 30
0.0
 10
281.8028
 20
-102.1004
 30
0.0
  0
SPLINE
  5
65
330
1F
100
AcDbEntity
  8
layer 1
 62
     7
100
AcDbSpline
210
0.0
220
0.0
230
1.0
 70
    11
 71
     3
 72
    52
 73
    48
 74
     0
 42
0.0000000001
 43
0.0000000001
 12
1.0
 22
0.0
 32
0.0
 13
1.0
 23
0.0
 33
0.0
 40
0.0
 40
0.0
 40
0.0
 40
0.0
 40
0.0769230769230769
 40
0.0769230769230769
 40
0.0769230769230769
 40
0.0769230769230769
 40
0.1538461538461539
 40
0.1538461538461539
 40
0.1538461538461539
 40
0.1538461538461539
 40
0.2307692307692308
 40
0.2307692307692308
 40
0.2307692307692308
 40
0.2307692307692308
 40
0.3076923076923077
 40
0.3076923076923077
 40
0.3076923076923077
 40
0.3076923076923077
 40
0.3846153846153846
 40
0.3846153846153846
 40
0.3846153846153846
 40
0.3846153846153846
 40
0.4615384615384616
 40
0.4615384615384616
 40
0.4615384615384616
 40
0.4615384615384616
 40
0.5384615384615384
 40
0.5384615384615384
 40
0.5384615384615384
 40
0.5384615384615384
 40
0.6153846153846154
 40
0.6153846153846154
 40
0.6153846153846154
 40
0.6153846153846154
 40
0.6923076923076923
 40
0.6923076923076923
 40
0.6923076923076923
 40
0.6923076923076923
 40
0.7692307692307693
 40
0.7692307692307693
 40
0.7692307692307693
 40
0.7692307692307693
 40
0.8461538461538461
 40
0.8461538461538461
 40
0.8461538461538461
 40
0.8461538461538461
 40
1.0
 40
1.0
 40
1.0
 40
1.0
 10
320.6978
 20
-102.1004
 30
0.0
 10
318.8676
 20
-101.9855
 30
0.0
 10
317.048
 20
-101.7404
 30
0.0
 10
315.2527
 20
-101.3668
 30
0.0
 10
315.2527
 20
-101.3668
 30
0.0
 10
309.5622
 20
-100.1826
 30
0.0
 10
304.0946
 20
-98.0998
 30
0.0
 10
299.0585
 20
-95.1983
 30
0.0
 10
299.0585
 20
-95.1983
 30
0.0
 10
298.8355
 20
-95.6515
 30
0.0
 10
298.5677
 20
-96.0811
 30
0.0
 10
298.2595
 20
-96.4811
 30
0.0
 10
298.2595
 20
-96.4811
 30
0.0
 10
297.157
 20
-97.9131
 30
0.0
 10
295.832
 20
-99.1597
 30
0.0
 10
294.3363
 20
-100.1739
 30
0.0
 10
294.3363
 20
-100.1739
 30
0.0
 10
293.8786
 20
-100.4832
 30
0.0
 10
293.3512
 20
-100.6735
 30
0.0
 10
292.8017
 20
-100.7268
 30
0.0
 10
292.8017
 20
-100.7268
 30
0.0
 10
292.2503
 20
-100.7798
 30
0.0
 10
291.6943
 20
-100.6803
 30
0.0
 10
291.1959
 20
-100.4389
 30
0.0
 10
291.1959
 20
-100.4389
 30
0.0
 10
290.8627
 20
-100.2776
 30
0.0
 10
290.5185
 20
-100.1408
 30
0.0
 10
290.1655
 20
-100.0294
 30
0.0
 10
290.1655
 20
-100.0294
 30
0.0
 10
289.7972
 20
-99.9131
 30
0.0
 10
289.3979
 20
-99.9573
 30
0.0
 10
289.0634
 20
-100.1498
 30
0.0
 10
289.0634
 20
-100.1498
 30
0.0
 10
288.9082
 20
-100.2395
 30
0.0
 10
288.759
 20
-100.3393
 30
0.0
 10
288.6167
 20
-100.4492
 30
0.0
 10
288.6167
 20
-100.4492
 30
0.0
 10
288.3333
 20
-100.6707
 30
0.0
 10
288.0758
 20
-100.9244
 30
0.0
 10
287.8505
 20
-101.2048
 30
0.0
 10
287.8505
 20
-101.2048
 30
0.0
 10
287.6254
 20
-101.4848
 30
0.0
 10
287.4255
 20
-101.7846
 30
0.0
 10
287.2544
 20
-102.1004
 30
0.0
 10
287.2544
 20
-102.1004
 30
0.0
 10
287.2544
 20
-102.1004
 30
0.0
 10
320.6978
 20
-102.1004
 30
0.0
 10
320.6978
 20
-102.1004
 30
0.0
  0
SPLINE
  5
66
330
1F
100
AcDbEntity
  8
layer 1
 62
     7
100
AcDbSpline
210
0.0
220
0.0
230
1.0
 70
    11
 71
     3
 72
   124
 73
   120
 74
     0
 42
0.0000000001
 43
0.0000000001
 12
1.0
 22
0.0
 32
0.0
 13
1.0
 23
0.0
 33
0.0
 40
0.0
 40
0.0
 40
0.0
 40
0.0
 40
0.032258064516129
 40
0.032258064516129
 40
0.032258064516129
 40
0.032258064516129
 40
0.0645161290322581
 40
0.0645161290322581
 40
0.0645161290322581
 40
0.0645161290322581
 40
0.0967741935483871
 40
0.0967741935483871
 40
0.0967741935483871
 40
0.0967741935483871
 40
0.1290322580645161
 40
0.1290322580645161
 40
0.1290322580645161
 40
0.1290322580645161
 40
0.1612903225806452
 40
0.1612903225806452
 40
0.1612903225806452
 40
0.1612903225806452
 40
0.1935483870967742
 40
0.1935483870967742
 40
0.1935483870967742
 40
0.1935483870967742
 40
0.2258064516129032
 40
0.2258064516129032
 40
0.2258064516129032
 40
0.2258064516129032
 40
0.2580645161290323
 40
0.2580645161290323
 40
0.2580645161290323
 40
0.2580645161290323
 40
0.2903225806451613
 40
0.2903225806451613
 40
0.2903225806451613
 40
0.2903225806451613
 40
0.3225806451612903
 40
0.3225806451612903
 40
0.3225806451612903
 40
0.3225806451612903
 40
0.3548387096774194
 40
0.3548387096774194
 40
0.3548387096774194
 40
0.3548387096774194
 40
0.3870967741935484
 40
0.3870967741935484
 40
0.3870967741935484
 40
0.3870967741935484
 40
0.4193548387096774
 40
0.4193548387096774
 40
0.4193548387096774
 40
0.4193548387096774
 40
0.4516129032258064
 40
0.4516129032258064
 40
0.4516129032258064
 40
0.4516129032258064
 40
0.4838709677419355
 40
0.4838709677419355
 40
0.4838709677419355
 40
0.4838709677419355
 40
0.5161290322580645
 40
0.5161290322580645
 40
0.5161290322580645
 40
0.5161290322580645
 40
0.5483870967741935
 40
0.5483870967741935
 40
0.5483870967741935
 40
0.5483870967741935
 40
0.5806451612903226
 40
0.5806451612903226
 40
0.5806451612903226
 40
0.5806451612903226
 40
0.6129032258064516
 40
0.6129032258064516
 40
0.6129032258064516
 40
0.6129032258064516
 40
0.6451612903225806
 40
0.6451612903225806
 40
0.6451612903225806
 40
0.6451612903225806
 40
0.6774193548387096
 40
0.6774193548387096
 40
0.6774193548387096
 40
0.6774193548387096
 40
0.7096774193548387
 40
0.7096774193548387
 40
0.7096774193548387
 40
0.7096774193548387
 40
0.7419354838709677
 40
0.7419354838709677
 40
0.7419354838709677
 40
0.7419354838709677
 40
0.7741935483870968
 40
0.7741935483870968
 40
0.7741935483870968
 40
0.7741935483870968
 40
0.8064516129032258
 40
0.8064516129032258
 40
0.8064516129032258
 40
0.8064516129032258
 40
0.8387096774193549
 40
0.8387096774193549
 40
0.8387096774193549
 40
0.8387096774193549
 40
0.8709677419354839
 40
0.8709677419354839
 40
0.8709677419354839
 40
0.8709677419354839
 40
0.9032258064516129
 40
0.9032258064516129
 40
0.9032258064516129
 40
0.9032258064516129
 40
0.9354838709677419
 40
0.9354838709677419
 40
0.9354838709677419
 40
0.9354838709677419
 40
1.0
 40
1.0
 40
1.0
 40
1.0
 10
332.7577
 20
-95.6575
 30
0.0
 10
333.0594
 20
-95.2737
 30
0.0
 10
333.331
 20
-94.8679
 30
0.0
 10
333.5698
 20
-94.4424
 30
0.0
 10
333.5698
 20
-94.4424
 30
0.0
 10
333.8083
 20
-94.0174
 30
0.0
 10
334.0321
 20
-93.5844
 30
0.0
 10
334.2415
 20
-93.1448
 30
0.0
 10
334.2415
 20
-93.1448
 30
0.0
 10
334.3966
 20
-92.8183
 30
0.0
 10
334.3175
 20
-92.4291
 30
0.0
 10
334.0474
 20
-92.1897
 30
0.0
 10
334.0474
 20
-92.1897
 30
0.0
 10
333.7094
 20
-91.8896
 30
0.0
 10
333.2655
 20
-91.7379
 30
0.0
 10
332.814
 20
-91.7679
 30
0.0
 10
332.814
 20
-91.7679
 30
0.0
 10
332.6069
 20
-91.7819
 30
0.0
 10
332.4005
 20
-91.8079
 30
0.0
 10
332.196
 20
-91.8457
 30
0.0
 10
332.196
 20
-91.8457
 30
0.0
 10
331.5902
 20
-91.9593
 30
0.0
 10
330.9841
 20
-92.0708
 30
0.0
 10
330.3779
 20
-92.1826
 30
0.0
 10
330.3779
 20
-92.1826
 30
0.0
 10
329.2298
 20
-92.3932
 30
0.0
 10
328.0491
 20
-92.0454
 30
0.0
 10
327.1975
 20
-91.2474
 30
0.0
 10
327.1975
 20
-91.2474
 30
0.0
 10
326.7038
 20
-90.7844
 30
0.0
 10
326.3045
 20
-90.2311
 30
0.0
 10
326.0213
 20
-89.617
 30
0.0
 10
326.0213
 20
-89.617
 30
0.0
 10
325.7358
 20
-88.999
 30
0.0
 10
325.6106
 20
-88.3192
 30
0.0
 10
325.6566
 20
-87.6403
 30
0.0
 10
325.6566
 20
-87.6403
 30
0.0
 10
323.7812
 20
-88.7379
 30
0.0
 10
321.7442
 20
-89.5334
 30
0.0
 10
319.622
 20
-89.997
 30
0.0
 10
319.622
 20
-89.997
 30
0.0
 10
317.5058
 20
-90.4588
 30
0.0
 10
315.3438
 20
-90.6819
 30
0.0
 10
313.1779
 20
-90.6616
 30
0.0
 10
313.1779
 20
-90.6616
 30
0.0
 10
309.2198
 20
-90.6241
 30
0.0
 10
305.2814
 20
-90.0851
 30
0.0
 10
301.4589
 20
-89.0571
 30
0.0
 10
301.4589
 20
-89.0571
 30
0.0
 10
300.1474
 20
-88.7045
 30
0.0
 10
298.8848
 20
-88.1904
 30
0.0
 10
297.7004
 20
-87.5258
 30
0.0
 10
297.7004
 20
-87.5258
 30
0.0
 10
297.0326
 20
-87.1512
 30
0.0
 10
296.3798
 20
-86.7508
 30
0.0
 10
295.7422
 20
-86.326
 30
0.0
 10
295.7422
 20
-86.326
 30
0.0
 10
294.757
 20
-85.6678
 30
0.0
 10
293.7782
 20
-84.9987
 30
0.0
 10
292.8077
 20
-84.3188
 30
0.0
 10
292.8077
 20
-84.3188
 30
0.0
 10
292.747
 20
-84.2764
 30
0.0
 10
292.6812
 20
-84.2421
 30
0.0
 10
292.6113
 20
-84.2159
 30
0.0
 10
292.6113
 20
-84.2159
 30
0.0
 10
292.568
 20
-84.2003
 30
0.0
 10
292.5197
 20
-84.2089
 30
0.0
 10
292.4848
 20
-84.2389
 30
0.0
 10
292.4848
 20
-84.2389
 30
0.0
 10
292.4498
 20
-84.2691
 30
0.0
 10
292.4343
 20
-84.3153
 30
0.0
 10
292.4435
 20
-84.3602
 30
0.0
 10
292.4435
 20
-84.3602
 30
0.0
 10
292.4741
 20
-84.5088
 30
0.0
 10
292.5355
 20
-84.6491
 30
0.0
 10
292.6241
 20
-84.7717
 30
0.0
 10
292.6241
 20
-84.7717
 30
0.0
 10
293.6083
 20
-86.1379
 30
0.0
 10
294.7134
 20
-87.4127
 30
0.0
 10
295.9261
 20
-88.5809
 30
0.0
 10
295.9261
 20
-88.5809
 30
0.0
 10
296.8507
 20
-89.472
 30
0.0
 10
297.8648
 20
-90.2646
 30
0.0
 10
298.9527
 20
-90.9467
 30
0.0
 10
298.9527
 20
-90.9467
 30
0.0
 10
300.0417
 20
-91.6294
 30
0.0
 10
301.2099
 20
-92.1762
 30
0.0
 10
302.4322
 20
-92.5756
 30
0.0
 10
302.4322
 20
-92.5756
 30
0.0
 10
303.1277
 20
-92.8028
 30
0.0
 10
303.8242
 20
-93.0276
 30
0.0
 10
304.5216
 20
-93.25
 30
0.0
 10
304.5216
 20
-93.25
 30
0.0
 10
306.3699
 20
-93.8651
 30
0.0
 10
308.216
 20
-94.4858
 30
0.0
 10
310.0602
 20
-95.1117
 30
0.0
 10
310.0602
 20
-95.1117
 30
0.0
 10
312.0016
 20
-95.7707
 30
0.0
 10
313.9561
 20
-96.3908
 30
0.0
 10
315.9218
 20
-96.972
 30
0.0
 10
315.9218
 20
-96.972
 30
0.0
 10
319.4414
 20
-97.9164
 30
0.0
 10
323.0083
 20
-98.6731
 30
0.0
 10
326.6081
 20
-99.2388
 30
0.0
 10
326.6081
 20
-99.2388
 30
0.0
 10
326.4802
 20
-98.7959
 30
0.0
 10
326.4179
 20
-98.3362
 30
0.0
 10
326.4224
 20
-97.8753
 30
0.0
 10
326.4224
 20
-97.8753
 30
0.0
 10
326.4323
 20
-96.9508
 30
0.0
 10
326.9542
 20
-96.1078
 30
0.0
 10
327.7766
 20
-95.6862
 30
0.0
 10
327.7766
 20
-95.6862
 30
0.0
 10
328.5503
 20
-95.2895
 30
0.0
 10
329.3962
 20
-95.0531
 30
0.0
 10
330.2631
 20
-94.9908
 30
0.0
 10
330.2631
 20
-94.9908
 30
0.0
 10
331.1456
 20
-94.9273
 30
0.0
 10
332.0245
 20
-95.1623
 30
0.0
 10
332.7577
 20
-95.6575
 30
0.0
  0
SPLINE
  5
67
330
1F
100
AcDbEntity
  8
layer 1
 62
     7
100
AcDbSpline
210
0.0
220
0.0
230
1.0
 70
    11
 71
     3
 72
    60
 73
    56
 74
     0
 42
0.0000000001
 43
0.0000000001
 12
1.0
 22
0.0
 32
0.0
 13
1.0
 23
0.0
 33
0.0
 40
0.0
 40
0.0
 40
0.0
 40
0.0
 40
0.0666666666666667
 40
0.0666666666666667
 40
0.0666666666666667
 40
0.0666666666666667
 40
0.1333333333333333
 40
0.1333333333333333
 40
0.1333333333333333
 40
0.1333333333333333
 40
0.2
 40
0.2
 40
0.2
 40
0.2
 40
0.2666666666666667
 40
0.2666666666666667
 40
0.2666666666666667
 40
0.2666666666666667
 40
0.3333333333333333
 40
0.3333333333333333
 40
0.3333333333333333
 40
0.3333333333333333
 40
0.4
 40
0.4
 40
0.4
 40
0.4
 40
0.4666666666666667
 40
0.4666666666666667
 40
0.4666666666666667
 40
0.4666666666666667
 40
0.5333333333333333
 40
0.5333333333333333
 40
0.5333333333333333
 40
0.5333333333333333
 40
0.6
 40
0.6
 40
0.6
 40
0.6
 40
0.6666666666666666
 40
0.6666666666666666
 40
0.6666666666666666
 40
0.6666666666666666
 40
0.7333333333333333
 40
0.7333333333333333
 40
0.7333333333333333
 40
0.7333333333333333
 40
0.8
 40
0.8
 40
0.8
 40
0.8
 40
0.8666666666666667
 40
0.8666666666666667
 40
0.8666666666666667
 40
0.8666666666666667
 40
1.0
 40
1.0
 40
1.0
 40
1.0
 10
338.0124
 20
-11.6916
 30
0.0
 10
337.5267
 20
-10.6358
 30
0.0
 10
336.8303
 20
-9.6907
 30
0.0
 10
335.9653
 20
-8.9142
 30
0.0
 10
335.9653
 20
-8.9142
 30
0.0
 10
334.8845
 20
-7.9439
 30
0.0
 10
333.7537
 20
-7.0322
 30
0.0
 10
332.5765
 20
-6.1821
 30
0.0
 10
332.5765
 20
-6.1821
 30
0.0
 10
332.5689
 20
-5.653
 30
0.0
 10
332.5848
 20
-5.124
 30
0.0
 10
332.6224
 20
-4.596
 30
0.0
 10
332.6224
 20
-4.596
 30
0.0
 10
332.6939
 20
-3.6141
 30
0.0
 10
332.9861
 20
-2.6607
 30
0.0
 10
333.477
 20
-1.8076
 30
0.0
 10
333.477
 20
-1.8076
 30
0.0
 10
333.7751
 20
-1.2892
 30
0.0
 10
334.0636
 20
-0.7654
 30
0.0
 10
334.3433
 20
-0.2367
 30
0.0
 10
334.3433
 20
-0.2367
 30
0.0
 10
334.7698
 20
0.5698
 30
0.0
 10
334.9082
 20
1.4967
 30
0.0
 10
334.7353
 20
2.3928
 30
0.0
 10
334.7353
 20
2.3928
 30
0.0
 10
334.6466
 20
2.8524
 30
0.0
 10
334.5081
 20
3.3008
 30
0.0
 10
334.3224
 20
3.7302
 30
0.0
 10
334.3224
 20
3.7302
 30
0.0
 10
334.8721
 20
3.4237
 30
0.0
 10
335.3511
 20
3.0047
 30
0.0
 10
335.7282
 20
2.5003
 30
0.0
 10
335.7282
 20
2.5003
 30
0.0
 10
336.118
 20
1.9784
 30
0.0
 10
336.264
 20
1.3133
 30
0.0
 10
336.1283
 20
0.6756
 30
0.0
 10
336.1283
 20
0.6756
 30
0.0
 10
335.9763
 20
-0.0373
 30
0.0
 10
335.7423
 20
-0.7306
 30
0.0
 10
335.4306
 20
-1.3895
 30
0.0
 10
335.4306
 20
-1.3895
 30
0.0
 10
334.5727
 20
-3.2079
 30
0.0
 10
335.0045
 20
-5.3715
 30
0.0
 10
336.4975
 20
-6.7187
 30
0.0
 10
336.4975
 20
-6.7187
 30
0.0
 10
336.9591
 20
-7.1354
 30
0.0
 10
337.4673
 20
-7.4978
 30
0.0
 10
338.0124
 20
-7.798
 30
0.0
 10
338.0124
 20
-7.798
 30
0.0
 10
338.0124
 20
-7.798
 30
0.0
 10
338.0124
 20
-11.6911
 30
0.0
 10
338.0124
 20
-11.6911
 30
0.0
 10
338.0124
 20
-11.6911
 30
0.0
 10
338.0124
 20
-11.6911
 30
0.0
 10
338.0124
 20
-11.6916
 30
0.0
 10
338.0124
 20
-11.6916
 30
0.0
  0
SPLINE
  5
68
330
1F
100
AcDbEntity
  8
layer 1
 62
     7
100
AcDbSpline
210
0.0
220
0.0
230
1.0
 70
    11
 71
     3
 72
   448
 73
   444
 74
     0
 42
0.0000000001
 43
0.0000000001
 12
1.0
 22
0.0
 32
0.0
 13
1.0
 23
0.0
 33
0.0
 40
0.0
 40
0.0
 40
0.0
 40
0.0
 40
0.0089285714285714
 40
0.0089285714285714
 40
0.0089285714285714
 40
0.0089285714285714
 40
0.0178571428571429
 40
0.0178571428571429
 40
0.0178571428571429
 40
0.0178571428571429
 40
0.0267857142857143
 40
0.0267857142857143
 40
0.0267857142857143
 40
0.0267857142857143
 40
0.0357142857142857
 40
0.0357142857142857
 40
0.0357142857142857
 40
0.0357142857142857
 40
0.0446428571428571
 40
0.0446428571428571
 40
0.0446428571428571
 40
0.0446428571428571
 40
0.0535714285714286
 40
0.0535714285714286
 40
0.0535714285714286
 40
0.0535714285714286
 40
0.0625
 40
0.0625
 40
0.0625
 40
0.0625
 40
0.0714285714285714
 40
0.0714285714285714
 40
0.0714285714285714
 40
0.0714285714285714
 40
0.0803571428571429
 40
0.0803571428571429
 40
0.0803571428571429
 40
0.0803571428571429
 40
0.0892857142857143
 40
0.0892857142857143
 40
0.0892857142857143
 40
0.0892857142857143
 40
0.0982142857142857
 40
0.0982142857142857
 40
0.0982142857142857
 40
0.0982142857142857
 40
0.1071428571428571
 40
0.1071428571428571
 40
0.1071428571428571
 40
0.1071428571428571
 40
0.1160714285714286
 40
0.1160714285714286
 40
0.1160714285714286
 40
0.1160714285714286
 40
0.125
 40
0.125
 40
0.125
 40
0.125
 40
0.1339285714285714
 40
0.1339285714285714
 40
0.1339285714285714
 40
0.1339285714285714
 40
0.1428571428571428
 40
0.1428571428571428
 40
0.1428571428571428
 40
0.1428571428571428
 40
0.1517857142857143
 40
0.1517857142857143
 40
0.1517857142857143
 40
0.1517857142857143
 40
0.1607142857142857
 40
0.1607142857142857
 40
0.1607142857142857
 40
0.1607142857142857
 40
0.1696428571428572
 40
0.1696428571428572
 40
0.1696428571428572
 40
0.1696428571428572
 40
0.1785714285714286
 40
0.1785714285714286
 40
0.1785714285714286
 40
0.1785714285714286
 40
0.1875
 40
0.1875
 40
0.1875
 40
0.1875
 40
0.1964285714285714
 40
0.1964285714285714
 40
0.1964285714285714
 40
0.1964285714285714
 40
0.2053571428571428
 40
0.2053571428571428
 40
0.2053571428571428
 40
0.2053571428571428
 40
0.2142857142857143
 40
0.2142857142857143
 40
0.2142857142857143
 40
0.2142857142857143
 40
0.2232142857142857
 40
0.2232142857142857
 40
0.2232142857142857
 40
0.2232142857142857
 40
0.2321428571428572
 40
0.2321428571428572
 40
0.2321428571428572
 40
0.2321428571428572
 40
0.2410714285714286
 40
0.2410714285714286
 40
0.2410714285714286
 40
0.2410714285714286
 40
0.25
 40
0.25
 40
0.25
 40
0.25
 40
0.2589285714285715
 40
0.2589285714285715
 40
0.2589285714285715
 40
0.2589285714285715
 40
0.2678571428571428
 40
0.2678571428571428
 40
0.2678571428571428
 40
0.2678571428571428
 40
0.2767857142857143
 40
0.2767857142857143
 40
0.2767857142857143
 40
0.2767857142857143
 40
0.2857142857142857
 40
0.2857142857142857
 40
0.2857142857142857
 40
0.2857142857142857
 40
0.2946428571428572
 40
0.2946428571428572
 40
0.2946428571428572
 40
0.2946428571428572
 40
0.3035714285714285
 40
0.3035714285714285
 40
0.3035714285714285
 40
0.3035714285714285
 40
0.3125
 40
0.3125
 40
0.3125
 40
0.3125
 40
0.3214285714285715
 40
0.3214285714285715
 40
0.3214285714285715
 40
0.3214285714285715
 40
0.3303571428571428
 40
0.3303571428571428
 40
0.3303571428571428
 40
0.3303571428571428
 40
0.3392857142857143
 40
0.3392857142857143
 40
0.3392857142857143
 40
0.3392857142857143
 40
0.3482142857142857
 40
0.3482142857142857
 40
0.3482142857142857
 40
0.3482142857142857
 40
0.3571428571428572
 40
0.3571428571428572
 40
0.3571428571428572
 40
0.3571428571428572
 40
0.3660714285714285
 40
0.3660714285714285
 40
0.3660714285714285
 40
0.3660714285714285
 40
0.375
 40
0.375
 40
0.375
 40
0.375
 40
0.3839285714285715
 40
0.3839285714285715
 40
0.3839285714285715
 40
0.3839285714285715
 40
0.3928571428571428
 40
0.3928571428571428
 40
0.3928571428571428
 40
0.3928571428571428
 40
0.4017857142857143
 40
0.4017857142857143
 40
0.4017857142857143
 40
0.4017857142857143
 40
0.4107142857142857
 40
0.4107142857142857
 40
0.4107142857142857
 40
0.4107142857142857
 40
0.4196428571428572
 40
0.4196428571428572
 40
0.4196428571428572
 40
0.4196428571428572
 40
0.4285714285714285
 40
0.4285714285714285
 40
0.4285714285714285
 40
0.4285714285714285
 40
0.4375
 40
0.4375
 40
0.4375
 40
0.4375
 40
0.4464285714285715
 40
0.4464285714285715
 40
0.4464285714285715
 40
0.4464285714285715
 40
0.4553571428571428
 40
0.4553571428571428
 40
0.4553571428571428
 40
0.4553571428571428
 40
0.4642857142857143
 40
0.4642857142857143
 40
0.4642857142857143
 40
0.4642857142857143
 40
0.4732142857142857
 40
0.4732142857142857
 40
0.4732142857142857
 40
0.4732142857142857
 40
0.4821428571428572
 40
0.4821428571428572
 40
0.4821428571428572
 40
0.4821428571428572
 40
0.4910714285714285
 40
0.4910714285714285
 40
0.4910714285714285
 40
0.4910714285714285
 40
0.5
 40
0.5
 40
0.5
 40
0.5
 40
0.5089285714285714
 40
0.5089285714285714
 40
0.5089285714285714
 40
0.5089285714285714
 40
0.5178571428571429
 40
0.5178571428571429
 40
0.5178571428571429
 40
0.5178571428571429
 40
0.5267857142857143
 40
0.5267857142857143
 40
0.5267857142857143
 40
0.5267857142857143
 40
0.5357142857142857
 40
0.5357142857142857
 40
0.5357142857142857
 40
0.5357142857142857
 40
0.5446428571428571
 40
0.5446428571428571
 40
0.5446428571428571
 40
0.5446428571428571
 40
0.5535714285714286
 40
0.5535714285714286
 40
0.5535714285714286
 40
0.5535714285714286
 40
0.5625
 40
0.5625
 40
0.5625
 40
0.5625
 40
0.5714285714285714
 40
0.5714285714285714
 40
0.5714285714285714
 40
0.5714285714285714
 40
0.5803571428571429
 40
0.5803571428571429
 40
0.5803571428571429
 40
0.5803571428571429
 40
0.5892857142857143
 40
0.5892857142857143
 40
0.5892857142857143
 40
0.5892857142857143
 40
0.5982142857142857
 40
0.5982142857142857
 40
0.5982142857142857
 40
0.5982142857142857
 40
0.6071428571428571
 40
0.6071428571428571
 40
0.6071428571428571
 40
0.6071428571428571
 40
0.6160714285714286
 40
0.6160714285714286
 40
0.6160714285714286
 40
0.6160714285714286
 40
0.625
 40
0.625
 40
0.625
 40
0.625
 40
0.6339285714285714
 40
0.6339285714285714
 40
0.6339285714285714
 40
0.6339285714285714
 40
0.6428571428571429
 40
0.6428571428571429
 40
0.6428571428571429
 40
0.6428571428571429
 40
0.6517857142857143
 40
0.6517857142857143
 40
0.6517857142857143
 40
0.6517857142857143
 40
0.6607142857142857
 40
0.6607142857142857
 40
0.6607142857142857
 40
0.6607142857142857
 40
0.6696428571428571
 40
0.6696428571428571
 40
0.6696428571428571
 40
0.6696428571428571
 40
0.6785714285714286
 40
0.6785714285714286
 40
0.6785714285714286
 40
0.6785714285714286
 40
0.6875
 40
0.6875
 40
0.6875
 40
0.6875
 40
0.6964285714285714
 40
0.6964285714285714
 40
0.6964285714285714
 40
0.6964285714285714
 40
0.7053571428571429
 40
0.7053571428571429
 40
0.7053571428571429
 40
0.7053571428571429
 40
0.7142857142857143
 40
0.7142857142857143
 40
0.7142857142857143
 40
0.7142857142857143
 40
0.7232142857142857
 40
0.7232142857142857
 40
0.7232142857142857
 40
0.7232142857142857
 40
0.7321428571428571
 40
0.7321428571428571
 40
0.7321428571428571
 40
0.7321428571428571
 40
0.7410714285714286
 40
0.7410714285714286
 40
0.7410714285714286
 40
0.7410714285714286
 40
0.75
 40
0.75
 40
0.75
 40
0.75
 40
0.7589285714285714
 40
0.7589285714285714
 40
0.7589285714285714
 40
0.7589285714285714
 40
0.7678571428571429
 40
0.7678571428571429
 40
0.7678571428571429
 40
0.7678571428571429
 40
0.7767857142857143
 40
0.7767857142857143
 40
0.7767857142857143
 40
0.7767857142857143
 40
0.7857142857142857
 40
0.7857142857142857
 40
0.7857142857142857
 40
0.7857142857142857
 40
0.7946428571428571
 40
0.7946428571428571
 40
0.7946428571428571
 40
0.7946428571428571
 40
0.8035714285714286
 40
0.8035714285714286
 40
0.8035714285714286
 40
0.8035714285714286
 40
0.8125
 40
0.8125
 40
0.8125
 40
0.8125
 40
0.8214285714285714
 40
0.8214285714285714
 40
0.8214285714285714
 40
0.8214285714285714
 40
0.8303571428571429
 40
0.8303571428571429
 40
0.8303571428571429
 40
0.8303571428571429
 40
0.8392857142857143
 40
0.8392857142857143
 40
0.8392857142857143
 40
0.8392857142857143
 40
0.8482142857142857
 40
0.8482142857142857
 40
0.8482142857142857
 40
0.8482142857142857
 40
0.8571428571428571
 40
0.8571428571428571
 40
0.8571428571428571
 40
0.8571428571428571
 40
0.8660714285714286
 40
0.8660714285714286
 40
0.8660714285714286
 40
0.8660714285714286
 40
0.875
 40
0.875
 40
0.875
 40
0.875
 40
0.8839285714285714
 40
0.8839285714285714
 40
0.8839285714285714
 40
0.8839285714285714
 40
0.8928571428571429
 40
0.8928571428571429
 40
0.8928571428571429
 40
0.8928571428571429
 40
0.9017857142857143
 40
0.9017857142857143
 40
0.9017857142857143
 40
0.9017857142857143
 40
0.9107142857142857
 40
0.9107142857142857
 40
0.9107142857142857
 40
0.9107142857142857
 40
0.9196428571428571
 40
0.9196428571428571
 40
0.9196428571428571
 40
0.9196428571428571
 40
0.9285714285714286
 40
0.9285714285714286
 40
0.9285714285714286
 40
0.9285714285714286
 40
0.9375
 40
0.9375
 40
0.9375
 40
0.9375
 40
0.9464285714285714
 40
0.9464285714285714
 40
0.9464285714285714
 40
0.9464285714285714
 40
0.9553571428571429
 40
0.9553571428571429
 40
0.9553571428571429
 40
0.9553571428571429
 40
0.9642857142857143
 40
0.9642857142857143
 40
0.9642857142857143
 40
0.9642857142857143
 40
0.9732142857142857
 40
0.9732142857142857
 40
0.9732142857142857
 40
0.9732142857142857
 40
0.9821428571428571
 40
0.9821428571428571
 40
0.9821428571428571
 40
0.9821428571428571
 40
1.0
 40
1.0
 40
1.0
 40
1.0
 10
295.5787
 20
-64.4175
 30
0.0
 10
295.345
 20
-63.4572
 30
0.0
 10
295.1941
 20
-62.4784
 30
0.0
 10
295.1271
 20
-61.492
 30
0.0
 10
295.1271
 20
-61.492
 30
0.0
 10
294.92
 20
-58.4383
 30
0.0
 10
295.8519
 20
-55.4138
 30
0.0
 10
297.7412
 20
-53.0054
 30
0.0
 10
297.7412
 20
-53.0054
 30
0.0
 10
300.0255
 20
-50.0933
 30
0.0
 10
303.3016
 20
-48.1191
 30
0.0
 10
306.9438
 20
-47.4585
 30
0.0
 10
306.9438
 20
-47.4585
 30
0.0
 10
309.7691
 20
-46.946
 30
0.0
 10
312.6704
 20
-47.0212
 30
0.0
 10
315.4652
 20
-47.6788
 30
0.0
 10
315.4652
 20
-47.6788
 30
0.0
 10
317.905
 20
-48.2535
 30
0.0
 10
320.2348
 20
-49.224
 30
0.0
 10
322.3615
 20
-50.5506
 30
0.0
 10
322.3615
 20
-50.5506
 30
0.0
 10
327.1053
 20
-53.5102
 30
0.0
 10
330.9705
 20
-57.69
 30
0.0
 10
333.5529
 20
-62.6502
 30
0.0
 10
333.5529
 20
-62.6502
 30
0.0
 10
333.7335
 20
-63.0052
 30
0.0
 10
333.904
 20
-63.365
 30
0.0
 10
334.0636
 20
-63.73
 30
0.0
 10
334.0636
 20
-63.73
 30
0.0
 10
334.2229
 20
-64.0952
 30
0.0
 10
334.3567
 20
-64.4712
 30
0.0
 10
334.4647
 20
-64.8547
 30
0.0
 10
334.4647
 20
-64.8547
 30
0.0
 10
334.5061
 20
-64.3208
 30
0.0
 10
334.513
 20
-63.7843
 30
0.0
 10
334.4848
 20
-63.2495
 30
0.0
 10
334.4848
 20
-63.2495
 30
0.0
 10
334.3788
 20
-61.2281
 30
0.0
 10
333.6169
 20
-59.2975
 30
0.0
 10
332.3135
 20
-57.749
 30
0.0
 10
332.3135
 20
-57.749
 30
0.0
 10
331.711
 20
-57.0325
 30
0.0
 10
331.0852
 20
-56.3358
 30
0.0
 10
330.4374
 20
-55.6592
 30
0.0
 10
330.4374
 20
-55.6592
 30
0.0
 10
328.5044
 20
-53.6411
 30
0.0
 10
326.4971
 20
-51.6946
 30
0.0
 10
324.4196
 20
-49.8253
 30
0.0
 10
324.4196
 20
-49.8253
 30
0.0
 10
322.3372
 20
-47.9515
 30
0.0
 10
320.0738
 20
-46.2907
 30
0.0
 10
317.661
 20
-44.8673
 30
0.0
 10
317.661
 20
-44.8673
 30
0.0
 10
315.4607
 20
-43.5692
 30
0.0
 10
313.0718
 20
-42.622
 30
0.0
 10
310.5795
 20
-42.0597
 30
0.0
 10
310.5795
 20
-42.0597
 30
0.0
 10
308.0943
 20
-41.4991
 30
0.0
 10
305.5527
 20
-41.2277
 30
0.0
 10
303.005
 20
-41.2519
 30
0.0
 10
303.005
 20
-41.2519
 30
0.0
 10
301.1089
 20
-41.27
 30
0.0
 10
299.2471
 20
-41.752
 30
0.0
 10
297.5811
 20
-42.6567
 30
0.0
 10
297.5811
 20
-42.6567
 30
0.0
 10
295.9254
 20
-43.5559
 30
0.0
 10
294.4513
 20
-44.7534
 30
0.0
 10
293.2318
 20
-46.1896
 30
0.0
 10
293.2318
 20
-46.1896
 30
0.0
 10
292.6336
 20
-46.8944
 30
0.0
 10
292.1498
 20
-47.6879
 30
0.0
 10
291.7972
 20
-48.5428
 30
0.0
 10
291.7972
 20
-48.5428
 30
0.0
 10
291.7041
 20
-48.7678
 30
0.0
 10
291.6384
 20
-49.0032
 30
0.0
 10
291.6007
 20
-49.2444
 30
0.0
 10
291.6007
 20
-49.2444
 30
0.0
 10
291.1531
 20
-48.8427
 30
0.0
 10
290.7824
 20
-48.3616
 30
0.0
 10
290.5093
 20
-47.8257
 30
0.0
 10
290.5093
 20
-47.8257
 30
0.0
 10
289.6814
 20
-46.2038
 30
0.0
 10
289.4254
 20
-44.3489
 30
0.0
 10
289.7831
 20
-42.5634
 30
0.0
 10
289.7831
 20
-42.5634
 30
0.0
 10
289.9835
 20
-41.5603
 30
0.0
 10
290.4814
 20
-40.6397
 30
0.0
 10
291.2113
 20
-39.9226
 30
0.0
 10
291.2113
 20
-39.9226
 30
0.0
 10
291.9371
 20
-39.2097
 30
0.0
 10
292.8363
 20
-38.6969
 30
0.0
 10
293.8193
 20
-38.4356
 30
0.0
 10
293.8193
 20
-38.4356
 30
0.0
 10
293.0527
 20
-38.2733
 30
0.0
 10
292.3082
 20
-38.0166
 30
0.0
 10
291.6037
 20
-37.6711
 30
0.0
 10
291.6037
 20
-37.6711
 30
0.0
 10
290.9019
 20
-37.3269
 30
0.0
 10
290.2232
 20
-36.9356
 30
0.0
 10
289.5737
 20
-36.5003
 30
0.0
 10
289.5737
 20
-36.5003
 30
0.0
 10
288.9496
 20
-36.0818
 30
0.0
 10
288.391
 20
-35.572
 30
0.0
 10
287.9173
 20
-34.9883
 30
0.0
 10
287.9173
 20
-34.9883
 30
0.0
 10
287.3881
 20
-34.3376
 30
0.0
 10
286.9906
 20
-33.5899
 30
0.0
 10
286.7464
 20
-32.7878
 30
0.0
 10
286.7464
 20
-32.7878
 30
0.0
 10
287.9517
 20
-32.2039
 30
0.0
 10
289.2589
 20
-31.8587
 30
0.0
 10
290.5949
 20
-31.7718
 30
0.0
 10
290.5949
 20
-31.7718
 30
0.0
 10
291.9232
 20
-31.6855
 30
0.0
 10
293.2569
 20
-31.7489
 30
0.0
 10
294.5709
 20
-31.9609
 30
0.0
 10
294.5709
 20
-31.9609
 30
0.0
 10
294.8371
 20
-32.004
 30
0.0
 10
295.1012
 20
-32.0613
 30
0.0
 10
295.3611
 20
-32.1323
 30
0.0
 10
295.3611
 20
-32.1323
 30
0.0
 10
294.9245
 20
-31.246
 30
0.0
 10
294.671
 20
-30.2798
 30
0.0
 10
294.6165
 20
-29.2928
 30
0.0
 10
294.6165
 20
-29.2928
 30
0.0
 10
294.5617
 20
-28.3096
 30
0.0
 10
294.6664
 20
-27.3239
 30
0.0
 10
294.9269
 20
-26.3741
 30
0.0
 10
294.9269
 20
-26.3741
 30
0.0
 10
295.331
 20
-24.8978
 30
0.0
 10
296.3262
 20
-23.6527
 30
0.0
 10
297.6761
 20
-22.9321
 30
0.0
 10
297.6761
 20
-22.9321
 30
0.0
 10
298.2023
 20
-22.6517
 30
0.0
 10
298.7618
 20
-22.4388
 30
0.0
 10
299.3411
 20
-22.2999
 30
0.0
 10
299.3411
 20
-22.2999
 30
0.0
 10
299.0988
 20
-23.2962
 30
0.0
 10
298.9582
 20
-24.3142
 30
0.0
 10
298.9224
 20
-25.3391
 30
0.0
 10
298.9224
 20
-25.3391
 30
0.0
 10
298.8857
 20
-26.3622
 30
0.0
 10
298.9056
 20
-27.3859
 30
0.0
 10
298.9812
 20
-28.4069
 30
0.0
 10
298.9812
 20
-28.4069
 30
0.0
 10
299.1154
 20
-30.2118
 30
0.0
 10
300.0937
 20
-31.8468
 30
0.0
 10
301.6221
 20
-32.817
 30
0.0
 10
301.6221
 20
-32.817
 30
0.0
 10
302.4967
 20
-33.3723
 30
0.0
 10
303.4154
 20
-33.8559
 30
0.0
 10
304.3687
 20
-34.2624
 30
0.0
 10
304.3687
 20
-34.2624
 30
0.0
 10
305.0352
 20
-34.5477
 30
0.0
 10
305.7008
 20
-34.836
 30
0.0
 10
306.3643
 20
-35.129
 30
0.0
 10
306.3643
 20
-35.129
 30
0.0
 10
309.0578
 20
-36.3698
 30
0.0
 10
311.6693
 20
-37.783
 30
0.0
 10
314.1818
 20
-39.3579
 30
0.0
 10
314.1818
 20
-39.3579
 30
0.0
 10
318.0601
 20
-41.7887
 30
0.0
 10
321.7619
 20
-44.4915
 30
0.0
 10
325.2586
 20
-47.4452
 30
0.0
 10
325.2586
 20
-47.4452
 30
0.0
 10
328.2599
 20
-49.9806
 30
0.0
 10
330.9726
 20
-52.8403
 30
0.0
 10
333.3466
 20
-55.9708
 30
0.0
 10
333.3466
 20
-55.9708
 30
0.0
 10
332.5865
 20
-53.9625
 30
0.0
 10
331.5261
 20
-52.0814
 30
0.0
 10
330.2005
 20
-50.3919
 30
0.0
 10
330.2005
 20
-50.3919
 30
0.0
 10
328.7917
 20
-48.596
 30
0.0
 10
327.2495
 20
-46.9087
 30
0.0
 10
325.5869
 20
-45.3452
 30
0.0
 10
325.5869
 20
-45.3452
 30
0.0
 10
324.6685
 20
-44.4811
 30
0.0
 10
323.7303
 20
-43.6376
 30
0.0
 10
322.7742
 20
-42.8154
 30
0.0
 10
322.7742
 20
-42.8154
 30
0.0
 10
320.5946
 20
-40.9401
 30
0.0
 10
318.4495
 20
-39.0256
 30
0.0
 10
316.3382
 20
-37.0736
 30
0.0
 10
316.3382
 20
-37.0736
 30
0.0
 10
314.3971
 20
-35.279
 30
0.0
 10
312.6987
 20
-33.2374
 30
0.0
 10
311.2861
 20
-31.0028
 30
0.0
 10
311.2861
 20
-31.0028
 30
0.0
 10
310.543
 20
-29.8265
 30
0.0
 10
309.9332
 20
-28.5698
 30
0.0
 10
309.4689
 20
-27.258
 30
0.0
 10
309.4689
 20
-27.258
 30
0.0
 10
308.0988
 20
-23.3875
 30
0.0
 10
308.0616
 20
-19.1679
 30
0.0
 10
309.3616
 20
-15.2735
 30
0.0
 10
309.3616
 20
-15.2735
 30
0.0
 10
309.8386
 20
-13.9124
 30
0.0
 10
310.4991
 20
-12.6228
 30
0.0
 10
311.3247
 20
-11.4407
 30
0.0
 10
311.3247
 20
-11.4407
 30
0.0
 10
314.3759
 20
-7.0701
 30
0.0
 10
319.1273
 20
-4.1813
 30
0.0
 10
324.4114
 20
-3.4796
 30
0.0
 10
324.4114
 20
-3.4796
 30
0.0
 10
325.9082
 20
-3.2813
 30
0.0
 10
327.4319
 20
-3.4529
 30
0.0
 10
328.8471
 20
-3.9792
 30
0.0
 10
328.8471
 20
-3.9792
 30
0.0
 10
328.5074
 20
-2.9804
 30
0.0
 10
328.2759
 20
-1.9477
 30
0.0
 10
328.1567
 20
-0.8994
 30
0.0
 10
328.1567
 20
-0.8994
 30
0.0
 10
327.9821
 20
0.6363
 30
0.0
 10
328.234
 20
2.1912
 30
0.0
 10
328.8845
 20
3.5936
 30
0.0
 10
328.8845
 20
3.5936
 30
0.0
 10
329.3606
 20
4.619
 30
0.0
 10
329.9624
 20
5.581
 30
0.0
 10
330.6769
 20
6.4568
 30
0.0
 10
330.6769
 20
6.4568
 30
0.0
 10
331.5813
 20
7.5668
 30
0.0
 10
332.0414
 20
8.9724
 30
0.0
 10
331.9675
 20
10.4028
 30
0.0
 10
331.9675
 20
10.4028
 30
0.0
 10
331.9265
 20
11.1975
 30
0.0
 10
331.8151
 20
11.9866
 30
0.0
 10
331.6341
 20
12.761
 30
0.0
 10
331.6341
 20
12.761
 30
0.0
 10
331.0563
 20
12.1699
 30
0.0
 10
330.4571
 20
11.5996
 30
0.0
 10
329.8381
 20
11.0522
 30
0.0
 10
329.8381
 20
11.0522
 30
0.0
 10
328.1552
 20
9.5621
 30
0.0
 10
326.4463
 20
8.1026
 30
0.0
 10
324.7127
 20
6.6725
 30
0.0
 10
324.7127
 20
6.6725
 30
0.0
 10
323.5262
 20
5.6937
 30
0.0
 10
322.2947
 20
4.7709
 30
0.0
 10
321.0229
 20
3.9064
 30
0.0
 10
321.0229
 20
3.9064
 30
0.0
 10
319.498
 20
2.9084
 30
0.0
 10
317.9434
 20
1.9571
 30
0.0
 10
316.3605
 20
1.0536
 30
0.0
 10
316.3605
 20
1.0536
 30
0.0
 10
314.7708
 20
0.1458
 30
0.0
 10
313.1844
 20
-0.7679
 30
0.0
 10
311.6012
 20
-1.6871
 30
0.0
 10
311.6012
 20
-1.6871
 30
0.0
 10
305.9279
 20
-5.1126
 30
0.0
 10
300.7762
 20
-9.3328
 30
0.0
 10
296.3013
 20
-14.2215
 30
0.0
 10
296.3013
 20
-14.2215
 30
0.0
 10
292.0127
 20
-18.9704
 30
0.0
 10
288.4827
 20
-24.3505
 30
0.0
 10
285.8343
 20
-30.1755
 30
0.0
 10
285.8343
 20
-30.1755
 30
0.0
 10
283.1748
 20
-36.0252
 30
0.0
 10
281.7199
 20
-42.347
 30
0.0
 10
281.5556
 20
-48.771
 30
0.0
 10
281.5556
 20
-48.771
 30
0.0
 10
281.398
 20
-54.9364
 30
0.0
 10
282.2626
 20
-61.0834
 30
0.0
 10
284.1139
 20
-66.9661
 30
0.0
 10
284.1139
 20
-66.9661
 30
0.0
 10
285.1946
 20
-70.3981
 30
0.0
 10
286.9171
 20
-73.592
 30
0.0
 10
289.1922
 20
-76.3793
 30
0.0
 10
289.1922
 20
-76.3793
 30
0.0
 10
291.0229
 20
-78.6232
 30
0.0
 10
293.2008
 20
-80.5586
 30
0.0
 10
295.6451
 20
-82.1125
 30
0.0
 10
295.6451
 20
-82.1125
 30
0.0
 10
300.1901
 20
-85.002
 30
0.0
 10
305.4315
 20
-86.6026
 30
0.0
 10
310.8155
 20
-86.7425
 30
0.0
 10
310.8155
 20
-86.7425
 30
0.0
 10
316.9056
 20
-86.9012
 30
0.0
 10
322.8347
 20
-84.8024
 30
0.0
 10
327.4667
 20
-80.8457
 30
0.0
 10
327.4667
 20
-80.8457
 30
0.0
 10
327.9757
 20
-80.4112
 30
0.0
 10
328.4586
 20
-79.947
 30
0.0
 10
328.913
 20
-79.4561
 30
0.0
 10
328.913
 20
-79.4561
 30
0.0
 10
332.0741
 20
-76.0404
 30
0.0
 10
333.3661
 20
-71.2997
 30
0.0
 10
332.3713
 20
-66.7539
 30
0.0
 10
332.3713
 20
-66.7539
 30
0.0
 10
332.2339
 20
-66.1255
 30
0.0
 10
332.0672
 20
-65.5039
 30
0.0
 10
331.8721
 20
-64.8913
 30
0.0
 10
331.8721
 20
-64.8913
 30
0.0
 10
330.8655
 20
-61.7337
 30
0.0
 10
328.7184
 20
-59.0675
 30
0.0
 10
325.8478
 20
-57.4116
 30
0.0
 10
325.8478
 20
-57.4116
 30
0.0
 10
323.0673
 20
-55.8084
 30
0.0
 10
320.1743
 20
-54.41
 30
0.0
 10
317.1905
 20
-53.2282
 30
0.0
 10
317.1905
 20
-53.2282
 30
0.0
 10
315.7352
 20
-52.6523
 30
0.0
 10
314.2159
 20
-52.2547
 30
0.0
 10
312.6651
 20
-52.0444
 30
0.0
 10
312.6651
 20
-52.0444
 30
0.0
 10
308.6396
 20
-51.4997
 30
0.0
 10
304.5888
 20
-52.8245
 30
0.0
 10
301.6663
 20
-55.6464
 30
0.0
 10
301.6663
 20
-55.6464
 30
0.0
 10
300.1819
 20
-57.079
 30
0.0
 10
299.3003
 20
-59.0221
 30
0.0
 10
299.2015
 20
-61.083
 30
0.0
 10
299.2015
 20
-61.083
 30
0.0
 10
299.1283
 20
-62.6055
 30
0.0
 10
299.3533
 20
-64.1264
 30
0.0
 10
299.8644
 20
-65.5626
 30
0.0
 10
299.8644
 20
-65.5626
 30
0.0
 10
300.8159
 20
-68.2352
 30
0.0
 10
302.9765
 20
-70.2964
 30
0.0
 10
305.6915
 20
-71.1192
 30
0.0
 10
305.6915
 20
-71.1192
 30
0.0
 10
308.6624
 20
-72.0204
 30
0.0
 10
311.8505
 20
-71.8748
 30
0.0
 10
314.7261
 20
-70.7053
 30
0.0
 10
314.7261
 20
-70.7053
 30
0.0
 10
315.6913
 20
-70.3134
 30
0.0
 10
316.4612
 20
-69.5567
 30
0.0
 10
316.8701
 20
-68.5983
 30
0.0
 10
316.8701
 20
-68.5983
 30
0.0
 10
317.0392
 20
-68.2026
 30
0.0
 10
317.1392
 20
-67.7805
 30
0.0
 10
317.1659
 20
-67.3511
 30
0.0
 10
317.1659
 20
-67.3511
 30
0.0
 10
317.2175
 20
-66.5154
 30
0.0
 10
317.093
 20
-65.6785
 30
0.0
 10
316.8015
 20
-64.8945
 30
0.0
 10
316.8015
 20
-64.8945
 30
0.0
 10
316.5062
 20
-64.1009
 30
0.0
 10
315.9823
 20
-63.4137
 30
0.0
 10
315.2948
 20
-62.9199
 30
0.0
 10
315.2948
 20
-62.9199
 30
0.0
 10
315.006
 20
-62.7122
 30
0.0
 10
314.686
 20
-62.5515
 30
0.0
 10
314.3467
 20
-62.4433
 30
0.0
 10
314.3467
 20
-62.4433
 30
0.0
 10
314.4713
 20
-62.9893
 30
0.0
 10
314.4976
 20
-63.5535
 30
0.0
 10
314.4254
 20
-64.1087
 30
0.0
 10
314.4254
 20
-64.1087
 30
0.0
 10
314.3165
 20
-64.9434
 30
0.0
 10
313.7361
 20
-65.6415
 30
0.0
 10
312.9355
 20
-65.9012
 30
0.0
 10
312.9355
 20
-65.9012
 30
0.0
 10
312.1402
 20
-66.1589
 30
0.0
 10
311.289
 20
-66.195
 30
0.0
 10
310.4746
 20
-66.0056
 30
0.0
 10
310.4746
 20
-66.0056
 30
0.0
 10
309.3336
 20
-65.7409
 30
0.0
 10
308.3283
 20
-65.0684
 30
0.0
 10
307.6482
 20
-64.1149
 30
0.0
 10
307.6482
 20
-64.1149
 30
0.0
 10
306.9484
 20
-63.1342
 30
0.0
 10
306.7868
 20
-61.8674
 30
0.0
 10
307.2156
 20
-60.7421
 30
0.0
 10
307.2156
 20
-60.7421
 30
0.0
 10
307.7751
 20
-59.2739
 30
0.0
 10
309.0704
 20
-58.2097
 30
0.0
 10
310.6187
 20
-57.944
 30
0.0
 10
310.6187
 20
-57.944
 30
0.0
 10
313.4704
 20
-57.4551
 30
0.0
 10
316.3931
 20
-58.2655
 30
0.0
 10
318.587
 20
-60.152
 30
0.0
 10
318.587
 20
-60.152
 30
0.0
 10
320.0266
 20
-61.39
 30
0.0
 10
320.8923
 20
-63.1688
 30
0.0
 10
320.9795
 20
-65.065
 30
0.0
 10
320.9795
 20
-65.065
 30
0.0
 10
321.1622
 20
-69.033
 30
0.0
 10
318.9578
 20
-72.7297
 30
0.0
 10
315.3825
 20
-74.4594
 30
0.0
 10
315.3825
 20
-74.4594
 30
0.0
 10
314.0061
 20
-75.1249
 30
0.0
 10
312.532
 20
-75.5659
 30
0.0
 10
311.0165
 20
-75.7657
 30
0.0
 10
311.0165
 20
-75.7657
 30
0.0
 10
308.7154
 20
-76.0696
 30
0.0
 10
306.3743
 20
-75.8031
 30
0.0
 10
304.2004
 20
-74.9905
 30
0.0
 10
304.2004
 20
-74.9905
 30
0.0
 10
301.6467
 20
-73.9892
 30
0.0
 10
299.4573
 20
-72.2322
 30
0.0
 10
297.9262
 20
-69.9559
 30
0.0
 10
297.9262
 20
-69.9559
 30
0.0
 10
297.6308
 20
-69.5132
 30
0.0
 10
297.3603
 20
-69.054
 30
0.0
 10
297.116
 20
-68.5809
 30
0.0
 10
297.116
 20
-68.5809
 30
0.0
 10
297.0997
 20
-69.3477
 30
0.0
 10
296.9856
 20
-70.1094
 30
0.0
 10
296.7769
 20
-70.8474
 30
0.0
 10
296.7769
 20
-70.8474
 30
0.0
 10
296.5662
 20
-71.5928
 30
0.0
 10
296.1818
 20
-72.2782
 30
0.0
 10
295.6557
 20
-72.8465
 30
0.0
 10
295.6557
 20
-72.8465
 30
0.0
 10
295.0236
 20
-73.5301
 30
0.0
 10
294.3275
 20
-74.1518
 30
0.0
 10
293.5774
 20
-74.7034
 30
0.0
 10
293.5774
 20
-74.7034
 30
0.0
 10
292.618
 20
-75.4096
 30
0.0
 10
292.0077
 20
-76.4933
 30
0.0
 10
291.9016
 20
-77.6798
 30
0.0
 10
291.9016
 20
-77.6798
 30
0.0
 10
291.7541
 20
-77.5126
 30
0.0
 10
291.6332
 20
-77.324
 30
0.0
 10
291.5429
 20
-77.12
 30
0.0
 10
291.5429
 20
-77.12
 30
0.0
 10
291.1635
 20
-76.2637
 30
0.0
 10
290.9839
 20
-75.3314
 30
0.0
 10
291.0171
 20
-74.3948
 30
0.0
 10
291.0171
 20
-74.3948
 30
0.0
 10
291.0689
 20
-72.9331
 30
0.0
 10
291.3427
 20
-71.4872
 30
0.0
 10
291.8285
 20
-70.1075
 30
0.0
 10
291.8285
 20
-70.1075
 30
0.0
 10
292.1304
 20
-69.2502
 30
0.0
 10
292.7118
 20
-68.5179
 30
0.0
 10
293.4791
 20
-68.0302
 30
0.0
 10
293.4791
 20
-68.0302
 30
0.0
 10
293.6747
 20
-67.9057
 30
0.0
 10
293.8693
 20
-67.7796
 30
0.0
 10
294.063
 20
-67.6518
 30
0.0
 10
294.063
 20
-67.6518
 30
0.0
 10
294.6646
 20
-67.2546
 30
0.0
 10
295.1004
 20
-66.6512
 30
0.0
 10
295.2893
 20
-65.9553
 30
0.0
 10
295.2893
 20
-65.9553
 30
0.0
 10
295.4262
 20
-65.4511
 30
0.0
 10
295.5228
 20
-64.9371
 30
0.0
 10
295.5786
 20
-64.4175
 30
0.0
 10
295.5786
 20
-64.4175
 30
0.0
 10
295.5786
 20
-64.4175
 30
0.0
 10
295.5787
 20
-64.4175
 30
0.0
 10
295.5787
 20
-64.4175
 30
0.0
  0
SPLINE
  5
69
330
1F
100
AcDbEntity
  8
layer 1
 62
     7
100
AcDbSpline
210
0.0
220
0.0
230
1.0
 70
    11
 71
     3
 72
    48
 73
    44
 74
     0
 42
0.0000000001
 43
0.0000000001
 12
1.0
 22
0.0
 32
0.0
 13
1.0
 23
0.0
 33
0.0
 40
0.0
 40
0.0
 40
0.0
 40
0.0
 40
0.0833333333333333
 40
0.0833333333333333
 40
0.0833333333333333
 40
0.0833333333333333
 40
0.1666666666666667
 40
0.1666666666666667
 40
0.1666666666666667
 40
0.1666666666666667
 40
0.25
 40
0.25
 40
0.25
 40
0.25
 40
0.3333333333333333
 40
0.3333333333333333
 40
0.3333333333333333
 40
0.3333333333333333
 40
0.4166666666666667
 40
0.4166666666666667
 40
0.4166666666666667
 40
0.4166666666666667
 40
0.5
 40
0.5
 40
0.5
 40
0.5
 40
0.5833333333333334
 40
0.5833333333333334
 40
0.5833333333333334
 40
0.5833333333333334
 40
0.6666666666666666
 40
0.6666666666666666
 40
0.6666666666666666
 40
0.6666666666666666
 40
0.75
 40
0.75
 40
0.75
 40
0.75
 40
0.8333333333333334
 40
0.8333333333333334
 40
0.8333333333333334
 40
0.8333333333333334
 40
1.0
 40
1.0
 40
1.0
 40
1.0
 10
306.1386
 20
127.4089
 30
0.0
 10
306.1386
 20
127.4089
 30
0.0
 10
309.8175
 20
127.4089
 30
0.0
 10
309.8175
 20
127.4089
 30
0.0
 10
309.8175
 20
127.4089
 30
0.0
 10
310.0157
 20
126.8644
 30
0.0
 10
310.1659
 20
126.3037
 30
0.0
 10
310.2657
 20
125.7332
 30
0.0
 10
310.2657
 20
125.7332
 30
0.0
 10
310.3654
 20
125.1636
 30
0.0
 10
310.443
 20
124.5902
 30
0.0
 10
310.4987
 20
124.0144
 30
0.0
 10
310.4987
 20
124.0144
 30
0.0
 10
310.5777
 20
123.196
 30
0.0
 10
310.3968
 20
122.3733
 30
0.0
 10
309.9824
 20
121.6631
 30
0.0
 10
309.9824
 20
121.6631
 30
0.0
 10
309.577
 20
120.9681
 30
0.0
 10
309.1012
 20
120.3168
 30
0.0
 10
308.5623
 20
119.7191
 30
0.0
 10
308.5623
 20
119.7191
 30
0.0
 10
308.4488
 20
119.5937
 30
0.0
 10
308.2833
 20
119.5274
 30
0.0
 10
308.1146
 20
119.541
 30
0.0
 10
308.1146
 20
119.541
 30
0.0
 10
307.9458
 20
119.5545
 30
0.0
 10
307.7923
 20
119.647
 30
0.0
 10
307.7001
 20
119.7896
 30
0.0
 10
307.7001
 20
119.7896
 30
0.0
 10
307.4638
 20
120.1578
 30
0.0
 10
307.2582
 20
120.5448
 30
0.0
 10
307.0856
 20
120.9468
 30
0.0
 10
307.0856
 20
120.9468
 30
0.0
 10
306.9284
 20
121.3139
 30
0.0
 10
306.7795
 20
121.6827
 30
0.0
 10
306.6374
 20
122.055
 30
0.0
 10
306.6374
 20
122.055
 30
0.0
 10
306.2031
 20
123.1967
 30
0.0
 10
305.9852
 20
124.4098
 30
0.0
 10
305.9964
 20
125.631
 30
0.0
 10
305.9964
 20
125.631
 30
0.0
 10
306.0019
 20
126.2258
 30
0.0
 10
306.0492
 20
126.8204
 30
0.0
 10
306.1386
 20
127.4089
 30
0.0
  0
SPLINE
  5
6A
330
1F
100
AcDbEntity
  8
layer 1
 62
     7
100
AcDbSpline
210
0.0
220
0.0
230
1.0
 70
    11
 71
     3
 72
   248
 73
   244
 74
     0
 42
0.0000000001
 43
0.0000000001
 12
1.0
 22
0.0
 32
0.0
 13
1.0
 23
0.0
 33
0.0
 40
0.0
 40
0.0
 40
0.0
 40
0.0
 40
0.0161290322580645
 40
0.0161290322580645
 40
0.0161290322580645
 40
0.0161290322580645
 40
0.032258064516129
 40
0.032258064516129
 40
0.032258064516129
 40
0.032258064516129
 40
0.0483870967741935
 40
0.0483870967741935
 40
0.0483870967741935
 40
0.0483870967741935
 40
0.0645161290322581
 40
0.0645161290322581
 40
0.0645161290322581
 40
0.0645161290322581
 40
0.0806451612903226
 40
0.0806451612903226
 40
0.0806451612903226
 40
0.0806451612903226
 40
0.0967741935483871
 40
0.0967741935483871
 40
0.0967741935483871
 40
0.0967741935483871
 40
0.1129032258064516
 40
0.1129032258064516
 40
0.1129032258064516
 40
0.1129032258064516
 40
0.1290322580645161
 40
0.1290322580645161
 40
0.1290322580645161
 40
0.1290322580645161
 40
0.1451612903225807
 40
0.1451612903225807
 40
0.1451612903225807
 40
0.1451612903225807
 40
0.1612903225806452
 40
0.1612903225806452
 40
0.1612903225806452
 40
0.1612903225806452
 40
0.1774193548387097
 40
0.1774193548387097
 40
0.1774193548387097
 40
0.1774193548387097
 40
0.1935483870967742
 40
0.1935483870967742
 40
0.1935483870967742
 40
0.1935483870967742
 40
0.2096774193548387
 40
0.2096774193548387
 40
0.2096774193548387
 40
0.2096774193548387
 40
0.2258064516129032
 40
0.2258064516129032
 40
0.2258064516129032
 40
0.2258064516129032
 40
0.2419354838709677
 40
0.2419354838709677
 40
0.2419354838709677
 40
0.2419354838709677
 40
0.2580645161290323
 40
0.2580645161290323
 40
0.2580645161290323
 40
0.2580645161290323
 40
0.2741935483870968
 40
0.2741935483870968
 40
0.2741935483870968
 40
0.2741935483870968
 40
0.2903225806451613
 40
0.2903225806451613
 40
0.2903225806451613
 40
0.2903225806451613
 40
0.3064516129032258
 40
0.3064516129032258
 40
0.3064516129032258
 40
0.3064516129032258
 40
0.3225806451612903
 40
0.3225806451612903
 40
0.3225806451612903
 40
0.3225806451612903
 40
0.3387096774193548
 40
0.3387096774193548
 40
0.3387096774193548
 40
0.3387096774193548
 40
0.3548387096774194
 40
0.3548387096774194
 40
0.3548387096774194
 40
0.3548387096774194
 40
0.3709677419354839
 40
0.3709677419354839
 40
0.3709677419354839
 40
0.3709677419354839
 40
0.3870967741935484
 40
0.3870967741935484
 40
0.3870967741935484
 40
0.3870967741935484
 40
0.4032258064516129
 40
0.4032258064516129
 40
0.4032258064516129
 40
0.4032258064516129
 40
0.4193548387096774
 40
0.4193548387096774
 40
0.4193548387096774
 40
0.4193548387096774
 40
0.4354838709677419
 40
0.4354838709677419
 40
0.4354838709677419
 40
0.4354838709677419
 40
0.4516129032258064
 40
0.4516129032258064
 40
0.4516129032258064
 40
0.4516129032258064
 40
0.4677419354838709
 40
0.4677419354838709
 40
0.4677419354838709
 40
0.4677419354838709
 40
0.4838709677419355
 40
0.4838709677419355
 40
0.4838709677419355
 40
0.4838709677419355
 40
0.5
 40
0.5
 40
0.5
 40
0.5
 40
0.5161290322580645
 40
0.5161290322580645
 40
0.5161290322580645
 40
0.5161290322580645
 40
0.532258064516129
 40
0.532258064516129
 40
0.532258064516129
 40
0.532258064516129
 40
0.5483870967741935
 40
0.5483870967741935
 40
0.5483870967741935
 40
0.5483870967741935
 40
0.5645161290322581
 40
0.5645161290322581
 40
0.5645161290322581
 40
0.5645161290322581
 40
0.5806451612903226
 40
0.5806451612903226
 40
0.5806451612903226
 40
0.5806451612903226
 40
0.5967741935483871
 40
0.5967741935483871
 40
0.5967741935483871
 40
0.5967741935483871
 40
0.6129032258064516
 40
0.6129032258064516
 40
0.6129032258064516
 40
0.6129032258064516
 40
0.6290322580645161
 40
0.6290322580645161
 40
0.6290322580645161
 40
0.6290322580645161
 40
0.6451612903225806
 40
0.6451612903225806
 40
0.6451612903225806
 40
0.6451612903225806
 40
0.6612903225806451
 40
0.6612903225806451
 40
0.6612903225806451
 40
0.6612903225806451
 40
0.6774193548387096
 40
0.6774193548387096
 40
0.6774193548387096
 40
0.6774193548387096
 40
0.6935483870967742
 40
0.6935483870967742
 40
0.6935483870967742
 40
0.6935483870967742
 40
0.7096774193548387
 40
0.7096774193548387
 40
0.7096774193548387
 40
0.7096774193548387
 40
0.7258064516129032
 40
0.7258064516129032
 40
0.7258064516129032
 40
0.7258064516129032
 40
0.7419354838709677
 40
0.7419354838709677
 40
0.7419354838709677
 40
0.7419354838709677
 40
0.7580645161290323
 40
0.7580645161290323
 40
0.7580645161290323
 40
0.7580645161290323
 40
0.7741935483870968
 40
0.7741935483870968
 40
0.7741935483870968
 40
0.7741935483870968
 40
0.7903225806451613
 40
0.7903225806451613
 40
0.7903225806451613
 40
0.7903225806451613
 40
0.8064516129032258
 40
0.8064516129032258
 40
0.8064516129032258
 40
0.8064516129032258
 40
0.8225806451612904
 40
0.8225806451612904
 40
0.8225806451612904
 40
0.8225806451612904
 40
0.8387096774193549
 40
0.8387096774193549
 40
0.8387096774193549
 40
0.8387096774193549
 40
0.8548387096774194
 40
0.8548387096774194
 40
0.8548387096774194
 40
0.8548387096774194
 40
0.8709677419354839
 40
0.8709677419354839
 40
0.8709677419354839
 40
0.8709677419354839
 40
0.8870967741935484
 40
0.8870967741935484
 40
0.8870967741935484
 40
0.8870967741935484
 40
0.9032258064516129
 40
0.9032258064516129
 40
0.9032258064516129
 40
0.9032258064516129
 40
0.9193548387096774
 40
0.9193548387096774
 40
0.9193548387096774
 40
0.9193548387096774
 40
0.9354838709677419
 40
0.9354838709677419
 40
0.9354838709677419
 40
0.9354838709677419
 40
0.9516129032258065
 40
0.9516129032258065
 40
0.9516129032258065
 40
0.9516129032258065
 40
0.967741935483871
 40
0.967741935483871
 40
0.967741935483871
 40
0.967741935483871
 40
1.0
 40
1.0
 40
1.0
 40
1.0
 10
326.3753
 20
127.4089
 30
0.0
 10
327.3218
 20
126.4541
 30
0.0
 10
328.3843
 20
125.6216
 30
0.0
 10
329.5378
 20
124.9307
 30
0.0
 10
329.5378
 20
124.9307
 30
0.0
 10
331.3138
 20
123.8673
 30
0.0
 10
333.4152
 20
123.4885
 30
0.0
 10
335.4501
 20
123.8668
 30
0.0
 10
335.4501
 20
123.8668
 30
0.0
 10
336.3369
 20
124.0316
 30
0.0
 10
337.198
 20
124.3111
 30
0.0
 10
338.0124
 20
124.6988
 30
0.0
 10
338.0124
 20
124.6988
 30
0.0
 10
338.0124
 20
124.6988
 30
0.0
 10
338.0124
 20
93.0664
 30
0.0
 10
338.0124
 20
93.0664
 30
0.0
 10
338.0124
 20
93.0664
 30
0.0
 10
337.3677
 20
93.0497
 30
0.0
 10
336.7307
 20
92.9251
 30
0.0
 10
336.1271
 20
92.6979
 30
0.0
 10
336.1271
 20
92.6979
 30
0.0
 10
335.5257
 20
92.472
 30
0.0
 10
334.9528
 20
92.1755
 30
0.0
 10
334.4205
 20
91.8158
 30
0.0
 10
334.4205
 20
91.8158
 30
0.0
 10
335.2813
 20
93.3721
 30
0.0
 10
335.7266
 20
95.1226
 30
0.0
 10
335.7134
 20
96.9012
 30
0.0
 10
335.7134
 20
96.9012
 30
0.0
 10
335.7005
 20
98.6701
 30
0.0
 10
335.312
 20
100.4151
 30
0.0
 10
334.5738
 20
102.0229
 30
0.0
 10
334.5738
 20
102.0229
 30
0.0
 10
334.1337
 20
102.9814
 30
0.0
 10
333.4628
 20
103.8154
 30
0.0
 10
332.6212
 20
104.4511
 30
0.0
 10
332.6212
 20
104.4511
 30
0.0
 10
332.429
 20
104.5958
 30
0.0
 10
332.2144
 20
104.7074
 30
0.0
 10
331.9854
 20
104.7812
 30
0.0
 10
331.9854
 20
104.7812
 30
0.0
 10
331.8804
 20
103.7474
 30
0.0
 10
331.704
 20
102.7221
 30
0.0
 10
331.4566
 20
101.7127
 30
0.0
 10
331.4566
 20
101.7127
 30
0.0
 10
330.5615
 20
98.2585
 30
0.0
 10
329.1422
 20
94.9611
 30
0.0
 10
327.2485
 20
91.9367
 30
0.0
 10
327.2485
 20
91.9367
 30
0.0
 10
326.0239
 20
89.9803
 30
0.0
 10
324.1095
 20
88.5537
 30
0.0
 10
321.8853
 20
87.9386
 30
0.0
 10
321.8853
 20
87.9386
 30
0.0
 10
319.8025
 20
87.3634
 30
0.0
 10
317.6374
 20
87.1384
 30
0.0
 10
315.4807
 20
87.2736
 30
0.0
 10
315.4807
 20
87.2736
 30
0.0
 10
313.3327
 20
87.4081
 30
0.0
 10
311.2045
 20
87.7716
 30
0.0
 10
309.1336
 20
88.359
 30
0.0
 10
309.1336
 20
88.359
 30
0.0
 10
308.9534
 20
88.4982
 30
0.0
 10
308.7729
 20
88.6364
 30
0.0
 10
308.5907
 20
88.7738
 30
0.0
 10
308.5907
 20
88.7738
 30
0.0
 10
306.7433
 20
90.1255
 30
0.0
 10
304.8749
 20
91.4503
 30
0.0
 10
302.988
 20
92.7468
 30
0.0
 10
302.988
 20
92.7468
 30
0.0
 10
301.0991
 20
94.0445
 30
0.0
 10
299.232
 20
95.3742
 30
0.0
 10
297.389
 20
96.7364
 30
0.0
 10
297.389
 20
96.7364
 30
0.0
 10
296.5139
 20
97.4037
 30
0.0
 10
295.6552
 20
98.0921
 30
0.0
 10
294.8123
 20
98.7992
 30
0.0
 10
294.8123
 20
98.7992
 30
0.0
 10
296.227
 20
100.3894
 30
0.0
 10
297.6209
 20
101.9976
 30
0.0
 10
298.9946
 20
103.623
 30
0.0
 10
298.9946
 20
103.623
 30
0.0
 10
299.698
 20
104.4579
 30
0.0
 10
300.3915
 20
105.3007
 30
0.0
 10
301.0767
 20
106.1504
 30
0.0
 10
301.0767
 20
106.1504
 30
0.0
 10
301.5581
 20
105.9127
 30
0.0
 10
302.0404
 20
105.6794
 30
0.0
 10
302.5245
 20
105.449
 30
0.0
 10
302.5245
 20
105.449
 30
0.0
 10
303.0118
 20
105.2173
 30
0.0
 10
303.4959
 20
104.98
 30
0.0
 10
303.9766
 20
104.7373
 30
0.0
 10
303.9766
 20
104.7373
 30
0.0
 10
304.6946
 20
104.3679
 30
0.0
 10
305.413
 20
103.999
 30
0.0
 10
306.1316
 20
103.6314
 30
0.0
 10
306.1316
 20
103.6314
 30
0.0
 10
307.5435
 20
102.9102
 30
0.0
 10
309.1496
 20
102.6646
 30
0.0
 10
310.7122
 20
102.9318
 30
0.0
 10
310.7122
 20
102.9318
 30
0.0
 10
312.3828
 20
103.2171
 30
0.0
 10
314.023
 20
103.6575
 30
0.0
 10
315.6126
 20
104.2471
 30
0.0
 10
315.6126
 20
104.2471
 30
0.0
 10
316.7177
 20
104.6572
 30
0.0
 10
317.8491
 20
104.9951
 30
0.0
 10
318.998
 20
105.2583
 30
0.0
 10
318.998
 20
105.2583
 30
0.0
 10
320.2263
 20
105.5396
 30
0.0
 10
321.4773
 20
105.7109
 30
0.0
 10
322.7356
 20
105.7702
 30
0.0
 10
322.7356
 20
105.7702
 30
0.0
 10
323.9927
 20
105.83
 30
0.0
 10
325.2516
 20
105.8325
 30
0.0
 10
326.5083
 20
105.7792
 30
0.0
 10
326.5083
 20
105.7792
 30
0.0
 10
325.5163
 20
106.7561
 30
0.0
 10
324.4206
 20
107.6214
 30
0.0
 10
323.2396
 20
108.3594
 30
0.0
 10
323.2396
 20
108.3594
 30
0.0
 10
321.1738
 20
109.6503
 30
0.0
 10
318.9919
 20
110.7434
 30
0.0
 10
316.7217
 20
111.6258
 30
0.0
 10
316.7217
 20
111.6258
 30
0.0
 10
314.1808
 20
112.613
 30
0.0
 10
311.352
 20
112.5336
 30
0.0
 10
308.8721
 20
111.4048
 30
0.0
 10
308.8721
 20
111.4048
 30
0.0
 10
308.0439
 20
111.0282
 30
0.0
 10
307.2229
 20
110.636
 30
0.0
 10
306.4093
 20
110.2291
 30
0.0
 10
306.4093
 20
110.2291
 30
0.0
 10
305.8398
 20
109.9439
 30
0.0
 10
305.2569
 20
109.6872
 30
0.0
 10
304.6622
 20
109.4594
 30
0.0
 10
304.6622
 20
109.4594
 30
0.0
 10
304.0679
 20
109.2318
 30
0.0
 10
303.4675
 20
109.021
 30
0.0
 10
302.8609
 20
108.8273
 30
0.0
 10
302.8609
 20
108.8273
 30
0.0
 10
304.6847
 20
110.037
 30
0.0
 10
306.1083
 20
111.7589
 30
0.0
 10
306.9536
 20
113.7777
 30
0.0
 10
306.9536
 20
113.7777
 30
0.0
 10
307.2344
 20
114.4487
 30
0.0
 10
307.5373
 20
115.1107
 30
0.0
 10
307.8609
 20
115.7628
 30
0.0
 10
307.8609
 20
115.7628
 30
0.0
 10
308.0829
 20
116.2111
 30
0.0
 10
308.3464
 20
116.6368
 30
0.0
 10
308.6476
 20
117.036
 30
0.0
 10
308.6476
 20
117.036
 30
0.0
 10
309.3392
 20
117.9515
 30
0.0
 10
310.0476
 20
118.8541
 30
0.0
 10
310.7726
 20
119.7433
 30
0.0
 10
310.7726
 20
119.7433
 30
0.0
 10
311.0147
 20
120.0406
 30
0.0
 10
311.3013
 20
120.2985
 30
0.0
 10
311.6217
 20
120.5091
 30
0.0
 10
311.6217
 20
120.5091
 30
0.0
 10
311.9431
 20
120.72
 30
0.0
 10
312.3008
 20
120.8691
 30
0.0
 10
312.6773
 20
120.9489
 30
0.0
 10
312.6773
 20
120.9489
 30
0.0
 10
313.7204
 20
121.1524
 30
0.0
 10
314.8003
 20
120.8691
 30
0.0
 10
315.6099
 20
120.1803
 30
0.0
 10
315.6099
 20
120.1803
 30
0.0
 10
316.2691
 20
119.6192
 30
0.0
 10
316.9278
 20
119.0577
 30
0.0
 10
317.5855
 20
118.4952
 30
0.0
 10
317.5855
 20
118.4952
 30
0.0
 10
319.1226
 20
117.204
 30
0.0
 10
320.8739
 20
116.1931
 30
0.0
 10
322.7614
 20
115.5081
 30
0.0
 10
322.7614
 20
115.5081
 30
0.0
 10
325.963
 20
114.3463
 30
0.0
 10
329.3865
 20
113.9344
 30
0.0
 10
332.7722
 20
114.304
 30
0.0
 10
332.7722
 20
114.304
 30
0.0
 10
333.4701
 20
114.3806
 30
0.0
 10
334.1608
 20
114.5138
 30
0.0
 10
334.8373
 20
114.7021
 30
0.0
 10
334.8373
 20
114.7021
 30
0.0
 10
334.6648
 20
115.0466
 30
0.0
 10
334.4794
 20
115.384
 30
0.0
 10
334.2829
 20
115.7148
 30
0.0
 10
334.2829
 20
115.7148
 30
0.0
 10
333.054
 20
117.7765
 30
0.0
 10
331.7028
 20
119.7626
 30
0.0
 10
330.2357
 20
121.6618
 30
0.0
 10
330.2357
 20
121.6618
 30
0.0
 10
329.364
 20
122.7902
 30
0.0
 10
328.1082
 20
123.5575
 30
0.0
 10
326.706
 20
123.8176
 30
0.0
 10
326.706
 20
123.8176
 30
0.0
 10
325.3478
 20
124.0702
 30
0.0
 10
323.97
 20
124.1999
 30
0.0
 10
322.5881
 20
124.2062
 30
0.0
 10
322.5881
 20
124.2062
 30
0.0
 10
321.8327
 20
124.2099
 30
0.0
 10
321.0803
 20
124.1205
 30
0.0
 10
320.3468
 20
123.941
 30
0.0
 10
320.3468
 20
123.941
 30
0.0
 10
319.6163
 20
123.7623
 30
0.0
 10
318.8888
 20
123.5689
 30
0.0
 10
318.1655
 20
123.3615
 30
0.0
 10
318.1655
 20
123.3615
 30
0.0
 10
317.5343
 20
123.1806
 30
0.0
 10
316.8911
 20
123.0452
 30
0.0
 10
316.2411
 20
122.9554
 30
0.0
 10
316.2411
 20
122.9554
 30
0.0
 10
316.1251
 20
122.9398
 30
0.0
 10
316.0082
 20
122.9792
 30
0.0
 10
315.9258
 20
123.0619
 30
0.0
 10
315.9258
 20
123.0619
 30
0.0
 10
315.8759
 20
123.1126
 30
0.0
 10
315.859
 20
123.1869
 30
0.0
 10
315.8816
 20
123.2541
 30
0.0
 10
315.8816
 20
123.2541
 30
0.0
 10
315.9434
 20
123.4336
 30
0.0
 10
316.0437
 20
123.5972
 30
0.0
 10
316.1762
 20
123.7335
 30
0.0
 10
316.1762
 20
123.7335
 30
0.0
 10
316.7542
 20
124.3282
 30
0.0
 10
317.4112
 20
124.8406
 30
0.0
 10
318.129
 20
125.2565
 30
0.0
 10
318.129
 20
125.2565
 30
0.0
 10
318.5282
 20
125.4877
 30
0.0
 10
318.9265
 20
125.7201
 30
0.0
 10
319.3245
 20
125.9534
 30
0.0
 10
319.3245
 20
125.9534
 30
0.0
 10
319.7229
 20
126.1877
 30
0.0
 10
320.1016
 20
126.4541
 30
0.0
 10
320.4561
 20
126.7504
 30
0.0
 10
320.4561
 20
126.7504
 30
0.0
 10
320.7146
 20
126.9664
 30
0.0
 10
320.9705
 20
127.186
 30
0.0
 10
321.223
 20
127.4089
 30
0.0
 10
321.223
 20
127.4089
 30
0.0
 10
321.223
 20
127.4089
 30
0.0
 10
326.3753
 20
127.4089
 30
0.0
 10
326.3753
 20
127.4089
 30
0.0
  0
SPLINE
  5
6B
330
1F
100
AcDbEntity
  8
layer 1
 62
     7
100
AcDbSpline
210
0.0
220
0.0
230
1.0
 70
    11
 71
     3
 72
    44
 73
    40
 74
     0
 42
0.0000000001
 43
0.0000000001
 12
1.0
 22
0.0
 32
0.0
 13
1.0
 23
0.0
 33
0.0
 40
0.0
 40
0.0
 40
0.0
 40
0.0
 40
0.0909090909090909
 40
0.0909090909090909
 40
0.0909090909090909
 40
0.0909090909090909
 40
0.1818181818181818
 40
0.1818181818181818
 40
0.1818181818181818
 40
0.1818181818181818
 40
0.2727272727272727
 40
0.2727272727272727
 40
0.2727272727272727
 40
0.2727272727272727
 40
0.3636363636363636
 40
0.3636363636363636
 40
0.3636363636363636
 40
0.3636363636363636
 40
0.4545454545454545
 40
0.4545454545454545
 40
0.4545454545454545
 40
0.4545454545454545
 40
0.5454545454545454
 40
0.5454545454545454
 40
0.5454545454545454
 40
0.5454545454545454
 40
0.6363636363636364
 40
0.6363636363636364
 40
0.6363636363636364
 40
0.6363636363636364
 40
0.7272727272727273
 40
0.7272727272727273
 40
0.7272727272727273
 40
0.7272727272727273
 40
0.8181818181818182
 40
0.8181818181818182
 40
0.8181818181818182
 40
0.8181818181818182
 40
1.0
 40
1.0
 40
1.0
 40
1.0
 10
338.0124
 20
2.0011
 30
0.0
 10
338.0124
 20
2.0011
 30
0.0
 10
338.0124
 20
26.8536
 30
0.0
 10
338.0124
 20
26.8536
 30
0.0
 10
338.0124
 20
26.8536
 30
0.0
 10
337.4595
 20
24.0645
 30
0.0
 10
336.6491
 20
21.3318
 30
0.0
 10
335.5919
 20
18.6918
 30
0.0
 10
335.5919
 20
18.6918
 30
0.0
 10
335.1929
 20
17.6949
 30
0.0
 10
334.7013
 20
16.7367
 30
0.0
 10
334.1241
 20
15.831
 30
0.0
 10
334.1241
 20
15.831
 30
0.0
 10
334.0827
 20
14.8766
 30
0.0
 10
334.0511
 20
13.9219
 30
0.0
 10
334.0292
 20
12.9667
 30
0.0
 10
334.0292
 20
12.9667
 30
0.0
 10
334.0071
 20
11.9999
 30
0.0
 10
333.9611
 20
11.0335
 30
0.0
 10
333.8911
 20
10.0692
 30
0.0
 10
333.8911
 20
10.0692
 30
0.0
 10
333.8499
 20
9.6072
 30
0.0
 10
333.8107
 20
9.1448
 30
0.0
 10
333.7739
 20
8.6826
 30
0.0
 10
333.7739
 20
8.6826
 30
0.0
 10
333.6915
 20
7.6384
 30
0.0
 10
334.0075
 20
6.6019
 30
0.0
 10
334.6597
 20
5.7817
 30
0.0
 10
334.6597
 20
5.7817
 30
0.0
 10
335.5098
 20
4.7125
 30
0.0
 10
336.4011
 20
3.6772
 30
0.0
 10
337.3325
 20
2.6782
 30
0.0
 10
337.3325
 20
2.6782
 30
0.0
 10
337.5508
 20
2.444
 30
0.0
 10
337.7778
 20
2.218
 30
0.0
 10
338.0124
 20
2.0007
 30
0.0
 10
338.0124
 20
2.0007
 30
0.0
 10
338.0124
 20
2.0007
 30
0.0
 10
338.0124
 20
2.0011
 30
0.0
 10
338.0124
 20
2.0011
 30
0.0
  0
SPLINE
  5
6C
330
1F
100
AcDbEntity
  8
layer 1
 62
     7
100
AcDbSpline
210
0.0
220
0.0
230
1.0
 70
    11
 71
     3
 72
   120
 73
   116
 74
     0
 42
0.0000000001
 43
0.0000000001
 12
1.0
 22
0.0
 32
0.0
 13
1.0
 23
0.0
 33
0.0
 40
0.0
 40
0.0
 40
0.0
 40
0.0
 40
0.0333333333333333
 40
0.0333333333333333
 40
0.0333333333333333
 40
0.0333333333333333
 40
0.0666666666666667
 40
0.0666666666666667
 40
0.0666666666666667
 40
0.0666666666666667
 40
0.1
 40
0.1
 40
0.1
 40
0.1
 40
0.1333333333333333
 40
0.1333333333333333
 40
0.1333333333333333
 40
0.1333333333333333
 40
0.1666666666666667
 40
0.1666666666666667
 40
0.1666666666666667
 40
0.1666666666666667
 40
0.2
 40
0.2
 40
0.2
 40
0.2
 40
0.2333333333333333
 40
0.2333333333333333
 40
0.2333333333333333
 40
0.2333333333333333
 40
0.2666666666666667
 40
0.2666666666666667
 40
0.2666666666666667
 40
0.2666666666666667
 40
0.3
 40
0.3
 40
0.3
 40
0.3
 40
0.3333333333333333
 40
0.3333333333333333
 40
0.3333333333333333
 40
0.3333333333333333
 40
0.3666666666666666
 40
0.3666666666666666
 40
0.3666666666666666
 40
0.3666666666666666
 40
0.4
 40
0.4
 40
0.4
 40
0.4
 40
0.4333333333333333
 40
0.4333333333333333
 40
0.4333333333333333
 40
0.4333333333333333
 40
0.4666666666666667
 40
0.4666666666666667
 40
0.4666666666666667
 40
0.4666666666666667
 40
0.5
 40
0.5
 40
0.5
 40
0.5
 40
0.5333333333333333
 40
0.5333333333333333
 40
0.5333333333333333
 40
0.5333333333333333
 40
0.5666666666666667
 40
0.5666666666666667
 40
0.5666666666666667
 40
0.5666666666666667
 40
0.6
 40
0.6
 40
0.6
 40
0.6
 40
0.6333333333333333
 40
0.6333333333333333
 40
0.6333333333333333
 40
0.6333333333333333
 40
0.6666666666666666
 40
0.6666666666666666
 40
0.6666666666666666
 40
0.6666666666666666
 40
0.7
 40
0.7
 40
0.7
 40
0.7
 40
0.7333333333333333
 40
0.7333333333333333
 40
0.7333333333333333
 40
0.7333333333333333
 40
0.7666666666666667
 40
0.7666666666666667
 40
0.7666666666666667
 40
0.7666666666666667
 40
0.8
 40
0.8
 40
0.8
 40
0.8
 40
0.8333333333333334
 40
0.8333333333333334
 40
0.8333333333333334
 40
0.8333333333333334
 40
0.8666666666666667
 40
0.8666666666666667
 40
0.8666666666666667
 40
0.8666666666666667
 40
0.9
 40
0.9
 40
0.9
 40
0.9
 40
0.9333333333333333
 40
0.9333333333333333
 40
0.9333333333333333
 40
0.9333333333333333
 40
1.0
 40
1.0
 40
1.0
 40
1.0
 10
338.0127
 20
-22.1596
 30
0.0
 10
337.8975
 20
-22.5691
 30
0.0
 10
337.7594
 20
-22.9716
 30
0.0
 10
337.5984
 20
-23.3649
 30
0.0
 10
337.5984
 20
-23.3649
 30
0.0
 10
336.991
 20
-24.8491
 30
0.0
 10
335.8976
 20
-26.0843
 30
0.0
 10
334.498
 20
-26.8681
 30
0.0
 10
334.498
 20
-26.8681
 30
0.0
 10
331.9319
 20
-28.3051
 30
0.0
 10
328.9431
 20
-28.8031
 30
0.0
 10
326.0493
 20
-28.2772
 30
0.0
 10
326.0493
 20
-28.2772
 30
0.0
 10
323.7478
 20
-27.8588
 30
0.0
 10
321.7638
 20
-26.4071
 30
0.0
 10
320.6668
 20
-24.3416
 30
0.0
 10
320.6668
 20
-24.3416
 30
0.0
 10
319.9459
 20
-22.9847
 30
0.0
 10
319.9122
 20
-21.3653
 30
0.0
 10
320.5755
 20
-19.9792
 30
0.0
 10
320.5755
 20
-19.9792
 30
0.0
 10
320.9143
 20
-19.2702
 30
0.0
 10
321.4661
 20
-18.6839
 30
0.0
 10
322.1528
 20
-18.3017
 30
0.0
 10
322.1528
 20
-18.3017
 30
0.0
 10
323.3405
 20
-17.6509
 30
0.0
 10
324.7788
 20
-17.6511
 30
0.0
 10
325.9664
 20
-18.3017
 30
0.0
 10
325.9664
 20
-18.3017
 30
0.0
 10
326.7054
 20
-18.706
 30
0.0
 10
327.2763
 20
-19.3607
 30
0.0
 10
327.5762
 20
-20.1478
 30
0.0
 10
327.5762
 20
-20.1478
 30
0.0
 10
327.8737
 20
-20.9275
 30
0.0
 10
327.9351
 20
-21.7776
 30
0.0
 10
327.754
 20
-22.5912
 30
0.0
 10
327.754
 20
-22.5912
 30
0.0
 10
327.6643
 20
-22.9923
 30
0.0
 10
327.4026
 20
-23.3337
 30
0.0
 10
327.0392
 20
-23.5243
 30
0.0
 10
327.0392
 20
-23.5243
 30
0.0
 10
326.6836
 20
-23.7109
 30
0.0
 10
326.2783
 20
-23.7812
 30
0.0
 10
325.8811
 20
-23.7249
 30
0.0
 10
325.8811
 20
-23.7249
 30
0.0
 10
326.1082
 20
-24.2182
 30
0.0
 10
326.4283
 20
-24.6628
 30
0.0
 10
326.8228
 20
-25.0355
 30
0.0
 10
326.8228
 20
-25.0355
 30
0.0
 10
327.5755
 20
-25.7466
 30
0.0
 10
328.6415
 20
-26.0173
 30
0.0
 10
329.6423
 20
-25.7497
 30
0.0
 10
329.6423
 20
-25.7497
 30
0.0
 10
331.1739
 20
-25.34
 30
0.0
 10
332.5915
 20
-24.5883
 30
0.0
 10
333.7893
 20
-23.5495
 30
0.0
 10
333.7893
 20
-23.5495
 30
0.0
 10
334.8373
 20
-22.6412
 30
0.0
 10
335.4226
 20
-21.3118
 30
0.0
 10
335.3841
 20
-19.9252
 30
0.0
 10
335.3841
 20
-19.9252
 30
0.0
 10
335.3642
 20
-19.2073
 30
0.0
 10
335.2753
 20
-18.4935
 30
0.0
 10
335.1179
 20
-17.7928
 30
0.0
 10
335.1179
 20
-17.7928
 30
0.0
 10
334.2418
 20
-13.9616
 30
0.0
 10
331.6319
 20
-10.7603
 30
0.0
 10
328.0541
 20
-9.1342
 30
0.0
 10
328.0541
 20
-9.1342
 30
0.0
 10
326.3765
 20
-8.3714
 30
0.0
 10
324.4807
 20
-8.2416
 30
0.0
 10
322.7148
 20
-8.769
 30
0.0
 10
322.7148
 20
-8.769
 30
0.0
 10
320.5536
 20
-9.4148
 30
0.0
 10
318.6642
 20
-10.7488
 30
0.0
 10
317.3329
 20
-12.5693
 30
0.0
 10
317.3329
 20
-12.5693
 30
0.0
 10
315.1418
 20
-15.5675
 30
0.0
 10
313.9987
 20
-19.2014
 30
0.0
 10
314.0814
 20
-22.9141
 30
0.0
 10
314.0814
 20
-22.9141
 30
0.0
 10
314.1394
 20
-25.5186
 30
0.0
 10
314.9681
 20
-28.0456
 30
0.0
 10
316.464
 20
-30.178
 30
0.0
 10
316.464
 20
-30.178
 30
0.0
 10
317.6941
 20
-31.9319
 30
0.0
 10
319.0922
 20
-33.561
 30
0.0
 10
320.6392
 20
-35.0428
 30
0.0
 10
320.6392
 20
-35.0428
 30
0.0
 10
321.54
 20
-35.9055
 30
0.0
 10
322.446
 20
-36.7625
 30
0.0
 10
323.3579
 20
-37.614
 30
0.0
 10
323.3579
 20
-37.614
 30
0.0
 10
325.1366
 20
-39.273
 30
0.0
 10
326.8737
 20
-40.9764
 30
0.0
 10
328.5668
 20
-42.7231
 30
0.0
 10
328.5668
 20
-42.7231
 30
0.0
 10
330.2646
 20
-44.4732
 30
0.0
 10
331.7835
 20
-46.3886
 30
0.0
 10
333.1019
 20
-48.4399
 30
0.0
 10
333.1019
 20
-48.4399
 30
0.0
 10
334.6411
 20
-50.8587
 30
0.0
 10
335.8653
 20
-53.4653
 30
0.0
 10
336.7436
 20
-56.1948
 30
0.0
 10
336.7436
 20
-56.1948
 30
0.0
 10
337.312
 20
-57.9591
 30
0.0
 10
337.7364
 20
-59.7671
 30
0.0
 10
338.0124
 20
-61.6005
 30
0.0
 10
338.0124
 20
-61.6005
 30
0.0
 10
338.0124
 20
-61.6005
 30
0.0
 10
338.0124
 20
-22.1596
 30
0.0
 10
338.0124
 20
-22.1596
 30
0.0
 10
338.0124
 20
-22.1596
 30
0.0
 10
338.0124
 20
-22.1596
 30
0.0
 10
338.0127
 20
-22.1596
 30
0.0
 10
338.0127
 20
-22.1596
 30
0.0
  0
SPLINE
  5
6D
330
1F
100
AcDbEntity
  8
layer 1
 62
     7
100
AcDbSpline
210
0.0
220
0.0
230
1.0
 70
    11
 71
     3
 72
    28
 73
    24
 74
     0
 42
0.0000000001
 43
0.0000000001
 12
1.0
 22
0.0
 32
0.0
 13
1.0
 23
0.0
 33
0.0
 40
0.0
 40
0.0
 40
0.0
 40
0.0
 40
0.1428571428571428
 40
0.1428571428571428
 40
0.1428571428571428
 40
0.1428571428571428
 40
0.2857142857142857
 40
0.2857142857142857
 40
0.2857142857142857
 40
0.2857142857142857
 40
0.4285714285714285
 40
0.4285714285714285
 40
0.4285714285714285
 40
0.4285714285714285
 40
0.5714285714285714
 40
0.5714285714285714
 40
0.5714285714285714
 40
0.5714285714285714
 40
0.7142857142857143
 40
0.7142857142857143
 40
0.7142857142857143
 40
0.7142857142857143
 40
1.0
 40
1.0
 40
1.0
 40
1.0
 10
334.1122
 20
-97.3004
 30
0.0
 10
334.4029
 20
-96.4918
 30
0.0
 10
334.8108
 20
-95.7301
 30
0.0
 10
335.3224
 20
-95.0399
 30
0.0
 10
335.3224
 20
-95.0399
 30
0.0
 10
335.9402
 20
-94.2052
 30
0.0
 10
337.023
 20
-93.8572
 30
0.0
 10
338.0124
 20
-94.174
 30
0.0
 10
338.0124
 20
-94.174
 30
0.0
 10
338.0124
 20
-94.174
 30
0.0
 10
338.0124
 20
-102.1004
 30
0.0
 10
338.0124
 20
-102.1004
 30
0.0
 10
338.0124
 20
-102.1004
 30
0.0
 10
338.0124
 20
-102.1004
 30
0.0
 10
332.9667
 20
-102.1004
 30
0.0
 10
332.9667
 20
-102.1004
 30
0.0
 10
332.9667
 20
-102.1004
 30
0.0
 10
333.8019
 20
-101.0301
 30
0.0
 10
334.2669
 20
-99.7178
 30
0.0
 10
334.2907
 20
-98.36
 30
0.0
 10
334.2907
 20
-98.36
 30
0.0
 10
334.2974
 20
-97.9987
 30
0.0
 10
334.2368
 20
-97.6396
 30
0.0
 10
334.1122
 20
-97.3004
 30
0.0
  0
SPLINE
  5
6E
330
1F
100
AcDbEntity
  8
layer 1
 62
     7
100
AcDbSpline
210
0.0
220
0.0
230
1.0
 70
    11
 71
     3
 72
   164
 73
   160
 74
     0
 42
0.0000000001
 43
0.0000000001
 12
1.0
 22
0.0
 32
0.0
 13
1.0
 23
0.0
 33
0.0
 40
0.0
 40
0.0
 40
0.0
 40
0.0
 40
0.024390243902439
 40
0.024390243902439
 40
0.024390243902439
 40
0.024390243902439
 40
0.0487804878048781
 40
0.0487804878048781
 40
0.0487804878048781
 40
0.0487804878048781
 40
0.0731707317073171
 40
0.0731707317073171
 40
0.0731707317073171
 40
0.0731707317073171
 40
0.0975609756097561
 40
0.0975609756097561
 40
0.0975609756097561
 40
0.0975609756097561
 40
0.1219512195121951
 40
0.1219512195121951
 40
0.1219512195121951
 40
0.1219512195121951
 40
0.1463414634146341
 40
0.1463414634146341
 40
0.1463414634146341
 40
0.1463414634146341
 40
0.1707317073170732
 40
0.1707317073170732
 40
0.1707317073170732
 40
0.1707317073170732
 40
0.1951219512195122
 40
0.1951219512195122
 40
0.1951219512195122
 40
0.1951219512195122
 40
0.2195121951219512
 40
0.2195121951219512
 40
0.2195121951219512
 40
0.2195121951219512
 40
0.2439024390243902
 40
0.2439024390243902
 40
0.2439024390243902
 40
0.2439024390243902
 40
0.2682926829268293
 40
0.2682926829268293
 40
0.2682926829268293
 40
0.2682926829268293
 40
0.2926829268292683
 40
0.2926829268292683
 40
0.2926829268292683
 40
0.2926829268292683
 40
0.3170731707317073
 40
0.3170731707317073
 40
0.3170731707317073
 40
0.3170731707317073
 40
0.3414634146341464
 40
0.3414634146341464
 40
0.3414634146341464
 40
0.3414634146341464
 40
0.3658536585365854
 40
0.3658536585365854
 40
0.3658536585365854
 40
0.3658536585365854
 40
0.3902439024390244
 40
0.3902439024390244
 40
0.3902439024390244
 40
0.3902439024390244
 40
0.4146341463414634
 40
0.4146341463414634
 40
0.4146341463414634
 40
0.4146341463414634
 40
0.4390243902439024
 40
0.4390243902439024
 40
0.4390243902439024
 40
0.4390243902439024
 40
0.4634146341463415
 40
0.4634146341463415
 40
0.4634146341463415
 40
0.4634146341463415
 40
0.4878048780487805
 40
0.4878048780487805
 40
0.4878048780487805
 40
0.4878048780487805
 40
0.5121951219512195
 40
0.5121951219512195
 40
0.5121951219512195
 40
0.5121951219512195
 40
0.5365853658536586
 40
0.5365853658536586
 40
0.5365853658536586
 40
0.5365853658536586
 40
0.5609756097560976
 40
0.5609756097560976
 40
0.5609756097560976
 40
0.5609756097560976
 40
0.5853658536585366
 40
0.5853658536585366
 40
0.5853658536585366
 40
0.5853658536585366
 40
0.6097560975609756
 40
0.6097560975609756
 40
0.6097560975609756
 40
0.6097560975609756
 40
0.6341463414634146
 40
0.6341463414634146
 40
0.6341463414634146
 40
0.6341463414634146
 40
0.6585365853658537
 40
0.6585365853658537
 40
0.6585365853658537
 40
0.6585365853658537
 40
0.6829268292682927
 40
0.6829268292682927
 40
0.6829268292682927
 40
0.6829268292682927
 40
0.7073170731707317
 40
0.7073170731707317
 40
0.7073170731707317
 40
0.7073170731707317
 40
0.7317073170731707
 40
0.7317073170731707
 40
0.7317073170731707
 40
0.7317073170731707
 40
0.7560975609756098
 40
0.7560975609756098
 40
0.7560975609756098
 40
0.7560975609756098
 40
0.7804878048780488
 40
0.7804878048780488
 40
0.7804878048780488
 40
0.7804878048780488
 40
0.8048780487804879
 40
0.8048780487804879
 40
0.8048780487804879
 40
0.8048780487804879
 40
0.8292682926829268
 40
0.8292682926829268
 40
0.8292682926829268
 40
0.8292682926829268
 40
0.8536585365853658
 40
0.8536585365853658
 40
0.8536585365853658
 40
0.8536585365853658
 40
0.8780487804878049
 40
0.8780487804878049
 40
0.8780487804878049
 40
0.8780487804878049
 40
0.9024390243902439
 40
0.9024390243902439
 40
0.9024390243902439
 40
0.9024390243902439
 40
0.926829268292683
 40
0.926829268292683
 40
0.926829268292683
 40
0.926829268292683
 40
0.9512195121951219
 40
0.9512195121951219
 40
0.9512195121951219
 40
0.9512195121951219
 40
1.0
 40
1.0
 40
1.0
 40
1.0
 10
277.3208
 20
-8.5014
 30
0.0
 10
277.3208
 20
-8.5014
 30
0.0
 10
277.3208
 20
1.4355
 30
0.0
 10
277.3208
 20
1.4355
 30
0.0
 10
277.3208
 20
1.4355
 30
0.0
 10
278.407
 20
1.5371
 30
0.0
 10
279.4864
 20
1.704
 30
0.0
 10
280.5527
 20
1.934
 30
0.0
 10
280.5527
 20
1.934
 30
0.0
 10
280.3244
 20
1.5057
 30
0.0
 10
280.145
 20
1.053
 30
0.0
 10
280.0183
 20
0.584
 30
0.0
 10
280.0183
 20
0.584
 30
0.0
 10
279.545
 20
-1.1685
 30
0.0
 10
279.3179
 20
-2.9781
 30
0.0
 10
279.3445
 20
-4.7935
 30
0.0
 10
279.3445
 20
-4.7935
 30
0.0
 10
279.3607
 20
-5.9284
 30
0.0
 10
279.6839
 20
-7.0367
 30
0.0
 10
280.2793
 20
-8.0025
 30
0.0
 10
280.2793
 20
-8.0025
 30
0.0
 10
280.9328
 20
-9.0495
 30
0.0
 10
281.8851
 20
-9.8753
 30
0.0
 10
283.0148
 20
-10.3731
 30
0.0
 10
283.0148
 20
-10.3731
 30
0.0
 10
283.0479
 20
-10.0726
 30
0.0
 10
283.084
 20
-9.7731
 30
0.0
 10
283.123
 20
-9.4732
 30
0.0
 10
283.123
 20
-9.4732
 30
0.0
 10
283.1619
 20
-9.1728
 30
0.0
 10
283.1991
 20
-8.8722
 30
0.0
 10
283.2339
 20
-8.5714
 30
0.0
 10
283.2339
 20
-8.5714
 30
0.0
 10
283.3364
 20
-7.6112
 30
0.0
 10
283.4183
 20
-6.6497
 30
0.0
 10
283.4795
 20
-5.6859
 30
0.0
 10
283.4795
 20
-5.6859
 30
0.0
 10
283.5984
 20
-3.7973
 30
0.0
 10
284.4733
 20
-2.0349
 30
0.0
 10
285.9057
 20
-0.7976
 30
0.0
 10
285.9057
 20
-0.7976
 30
0.0
 10
287.2357
 20
0.3512
 30
0.0
 10
288.9152
 20
1.0199
 30
0.0
 10
290.6709
 20
1.1007
 30
0.0
 10
290.6709
 20
1.1007
 30
0.0
 10
291.4839
 20
1.1376
 30
0.0
 10
292.2968
 20
1.1772
 30
0.0
 10
293.1095
 20
1.2182
 30
0.0
 10
293.1095
 20
1.2182
 30
0.0
 10
295.6941
 20
1.3932
 30
0.0
 10
298.2537
 20
1.8247
 30
0.0
 10
300.7521
 20
2.506
 30
0.0
 10
300.7521
 20
2.506
 30
0.0
 10
303.854
 20
3.3518
 30
0.0
 10
306.8713
 20
4.4798
 30
0.0
 10
309.7667
 20
5.877
 30
0.0
 10
309.7667
 20
5.877
 30
0.0
 10
315.0982
 20
8.449
 30
0.0
 10
320.1676
 20
11.5299
 30
0.0
 10
324.905
 20
15.0786
 30
0.0
 10
324.905
 20
15.0786
 30
0.0
 10
327.3665
 20
16.9227
 30
0.0
 10
329.6558
 20
18.9855
 30
0.0
 10
331.7447
 20
21.2433
 30
0.0
 10
331.7447
 20
21.2433
 30
0.0
 10
332.3917
 20
21.9426
 30
0.0
 10
332.9872
 20
22.6869
 30
0.0
 10
333.5261
 20
23.4721
 30
0.0
 10
333.5261
 20
23.4721
 30
0.0
 10
333.4111
 20
21.8208
 30
0.0
 10
332.9098
 20
20.2187
 30
0.0
 10
332.0627
 20
18.7967
 30
0.0
 10
332.0627
 20
18.7967
 30
0.0
 10
330.6519
 20
16.4276
 30
0.0
 10
328.881
 20
14.292
 30
0.0
 10
326.8138
 20
12.4674
 30
0.0
 10
326.8138
 20
12.4674
 30
0.0
 10
325.3778
 20
11.1991
 30
0.0
 10
323.8722
 20
10.0127
 30
0.0
 10
322.3034
 20
8.9133
 30
0.0
 10
322.3034
 20
8.9133
 30
0.0
 10
319.9824
 20
7.3183
 30
0.0
 10
317.587
 20
5.8343
 30
0.0
 10
315.1263
 20
4.4655
 30
0.0
 10
315.1263
 20
4.4655
 30
0.0
 10
313.4585
 20
3.538
 30
0.0
 10
311.7845
 20
2.6224
 30
0.0
 10
310.1041
 20
1.7188
 30
0.0
 10
310.1041
 20
1.7188
 30
0.0
 10
307.1497
 20
0.1303
 30
0.0
 10
304.387
 20
-1.7904
 30
0.0
 10
301.8692
 20
-4.0064
 30
0.0
 10
301.8692
 20
-4.0064
 30
0.0
 10
299.6165
 20
-5.9888
 30
0.0
 10
297.3585
 20
-7.965
 30
0.0
 10
295.0958
 20
-9.9359
 30
0.0
 10
295.0958
 20
-9.9359
 30
0.0
 10
293.4363
 20
-11.3805
 30
0.0
 10
291.982
 20
-13.0437
 30
0.0
 10
290.7716
 20
-14.8806
 30
0.0
 10
290.7716
 20
-14.8806
 30
0.0
 10
290.2751
 20
-15.635
 30
0.0
 10
289.7781
 20
-16.388
 30
0.0
 10
289.2802
 20
-17.1412
 30
0.0
 10
289.2802
 20
-17.1412
 30
0.0
 10
288.7635
 20
-17.9226
 30
0.0
 10
287.9613
 20
-18.4722
 30
0.0
 10
287.0457
 20
-18.6714
 30
0.0
 10
287.0457
 20
-18.6714
 30
0.0
 10
286.6177
 20
-18.7645
 30
0.0
 10
286.1869
 20
-18.8456
 30
0.0
 10
285.754
 20
-18.9142
 30
0.0
 10
285.754
 20
-18.9142
 30
0.0
 10
285.32
 20
-18.9831
 30
0.0
 10
284.895
 20
-19.0997
 30
0.0
 10
284.4867
 20
-19.2615
 30
0.0
 10
284.4867
 20
-19.2615
 30
0.0
 10
283.8692
 20
-19.5059
 30
0.0
 10
283.2847
 20
-19.8235
 30
0.0
 10
282.7439
 20
-20.2083
 30
0.0
 10
282.7439
 20
-20.2083
 30
0.0
 10
282.2013
 20
-20.5947
 30
0.0
 10
281.5934
 20
-20.8806
 30
0.0
 10
280.9496
 20
-21.051
 30
0.0
 10
280.9496
 20
-21.051
 30
0.0
 10
280.4289
 20
-21.1904
 30
0.0
 10
279.8736
 20
-21.0296
 30
0.0
 10
279.5074
 20
-20.6343
 30
0.0
 10
279.5074
 20
-20.6343
 30
0.0
 10
279.1623
 20
-20.2617
 30
0.0
 10
278.9134
 20
-19.8097
 30
0.0
 10
278.7834
 20
-19.3186
 30
0.0
 10
278.7834
 20
-19.3186
 30
0.0
 10
278.6767
 20
-18.9163
 30
0.0
 10
278.7749
 20
-18.487
 30
0.0
 10
279.0449
 20
-18.1706
 30
0.0
 10
279.0449
 20
-18.1706
 30
0.0
 10
279.2999
 20
-17.8718
 30
0.0
 10
279.5762
 20
-17.5912
 30
0.0
 10
279.8717
 20
-17.3322
 30
0.0
 10
279.8717
 20
-17.3322
 30
0.0
 10
280.4689
 20
-16.8089
 30
0.0
 10
280.8283
 20
-16.0654
 30
0.0
 10
280.8671
 20
-15.2723
 30
0.0
 10
280.8671
 20
-15.2723
 30
0.0
 10
280.9252
 20
-14.1007
 30
0.0
 10
280.7979
 20
-12.9273
 30
0.0
 10
280.4916
 20
-11.7945
 30
0.0
 10
280.4916
 20
-11.7945
 30
0.0
 10
280.2831
 20
-11.0253
 30
0.0
 10
279.8894
 20
-10.3197
 30
0.0
 10
279.3439
 20
-9.7382
 30
0.0
 10
279.3439
 20
-9.7382
 30
0.0
 10
278.7923
 20
-9.1517
 30
0.0
 10
278.0939
 20
-8.7245
 30
0.0
 10
277.3208
 20
-8.5011
 30
0.0
 10
277.3208
 20
-8.5011
 30
0.0
 10
277.3208
 20
-8.5011
 30
0.0
 10
277.3208
 20
-8.5014
 30
0.0
 10
277.3208
 20
-8.5014
 30
0.0
  0
SPLINE
  5
6F
330
1F
100
AcDbEntity
  8
layer 1
 62
     7
100
AcDbSpline
210
0.0
220
0.0
230
1.0
 70
    11
 71
     3
 72
   140
 73
   136
 74
     0
 42
0.0000000001
 43
0.0000000001
 12
1.0
 22
0.0
 32
0.0
 13
1.0
 23
0.0
 33
0.0
 40
0.0
 40
0.0
 40
0.0
 40
0.0
 40
0.0285714285714286
 40
0.0285714285714286
 40
0.0285714285714286
 40
0.0285714285714286
 40
0.0571428571428571
 40
0.0571428571428571
 40
0.0571428571428571
 40
0.0571428571428571
 40
0.0857142857142857
 40
0.0857142857142857
 40
0.0857142857142857
 40
0.0857142857142857
 40
0.1142857142857143
 40
0.1142857142857143
 40
0.1142857142857143
 40
0.1142857142857143
 40
0.1428571428571428
 40
0.1428571428571428
 40
0.1428571428571428
 40
0.1428571428571428
 40
0.1714285714285714
 40
0.1714285714285714
 40
0.1714285714285714
 40
0.1714285714285714
 40
0.2
 40
0.2
 40
0.2
 40
0.2
 40
0.2285714285714286
 40
0.2285714285714286
 40
0.2285714285714286
 40
0.2285714285714286
 40
0.2571428571428571
 40
0.2571428571428571
 40
0.2571428571428571
 40
0.2571428571428571
 40
0.2857142857142857
 40
0.2857142857142857
 40
0.2857142857142857
 40
0.2857142857142857
 40
0.3142857142857143
 40
0.3142857142857143
 40
0.3142857142857143
 40
0.3142857142857143
 40
0.3428571428571429
 40
0.3428571428571429
 40
0.3428571428571429
 40
0.3428571428571429
 40
0.3714285714285714
 40
0.3714285714285714
 40
0.3714285714285714
 40
0.3714285714285714
 40
0.4
 40
0.4
 40
0.4
 40
0.4
 40
0.4285714285714285
 40
0.4285714285714285
 40
0.4285714285714285
 40
0.4285714285714285
 40
0.4571428571428571
 40
0.4571428571428571
 40
0.4571428571428571
 40
0.4571428571428571
 40
0.4857142857142857
 40
0.4857142857142857
 40
0.4857142857142857
 40
0.4857142857142857
 40
0.5142857142857142
 40
0.5142857142857142
 40
0.5142857142857142
 40
0.5142857142857142
 40
0.5428571428571428
 40
0.5428571428571428
 40
0.5428571428571428
 40
0.5428571428571428
 40
0.5714285714285714
 40
0.5714285714285714
 40
0.5714285714285714
 40
0.5714285714285714
 40
0.6
 40
0.6
 40
0.6
 40
0.6
 40
0.6285714285714286
 40
0.6285714285714286
 40
0.6285714285714286
 40
0.6285714285714286
 40
0.6571428571428571
 40
0.6571428571428571
 40
0.6571428571428571
 40
0.6571428571428571
 40
0.6857142857142857
 40
0.6857142857142857
 40
0.6857142857142857
 40
0.6857142857142857
 40
0.7142857142857143
 40
0.7142857142857143
 40
0.7142857142857143
 40
0.7142857142857143
 40
0.7428571428571429
 40
0.7428571428571429
 40
0.7428571428571429
 40
0.7428571428571429
 40
0.7714285714285715
 40
0.7714285714285715
 40
0.7714285714285715
 40
0.7714285714285715
 40
0.8
 40
0.8
 40
0.8
 40
0.8
 40
0.8285714285714286
 40
0.8285714285714286
 40
0.8285714285714286
 40
0.8285714285714286
 40
0.8571428571428571
 40
0.8571428571428571
 40
0.8571428571428571
 40
0.8571428571428571
 40
0.8857142857142857
 40
0.8857142857142857
 40
0.8857142857142857
 40
0.8857142857142857
 40
0.9142857142857143
 40
0.9142857142857143
 40
0.9142857142857143
 40
0.9142857142857143
 40
0.9428571428571428
 40
0.9428571428571428
 40
0.9428571428571428
 40
0.9428571428571428
 40
1.0
 40
1.0
 40
1.0
 40
1.0
 10
277.3208
 20
7.1959
 30
0.0
 10
277.3208
 20
7.1959
 30
0.0
 10
277.3208
 20
34.7011
 30
0.0
 10
277.3208
 20
34.7011
 30
0.0
 10
277.3208
 20
34.7011
 30
0.0
 10
277.7302
 20
34.3996
 30
0.0
 10
278.1414
 20
34.101
 30
0.0
 10
278.554
 20
33.8037
 30
0.0
 10
278.554
 20
33.8037
 30
0.0
 10
279.6158
 20
33.0393
 30
0.0
 10
280.8156
 20
32.4896
 30
0.0
 10
282.088
 20
32.1842
 30
0.0
 10
282.088
 20
32.1842
 30
0.0
 10
283.0815
 20
31.9454
 30
0.0
 10
283.9048
 20
31.25
 30
0.0
 10
284.3057
 20
30.3098
 30
0.0
 10
284.3057
 20
30.3098
 30
0.0
 10
284.6048
 20
29.6078
 30
0.0
 10
284.8618
 20
28.8877
 30
0.0
 10
285.075
 20
28.1545
 30
0.0
 10
285.075
 20
28.1545
 30
0.0
 10
285.2205
 20
27.6536
 30
0.0
 10
285.3983
 20
27.1623
 30
0.0
 10
285.6078
 20
26.685
 30
0.0
 10
285.6078
 20
26.685
 30
0.0
 10
286.2353
 20
25.2524
 30
0.0
 10
287.2195
 20
24.0055
 30
0.0
 10
288.4662
 20
23.0626
 30
0.0
 10
288.4662
 20
23.0626
 30
0.0
 10
290.7615
 20
21.3269
 30
0.0
 10
293.1503
 20
19.7187
 30
0.0
 10
295.6217
 20
18.2444
 30
0.0
 10
295.6217
 20
18.2444
 30
0.0
 10
299.4651
 20
15.9532
 30
0.0
 10
303.9201
 20
14.9057
 30
0.0
 10
308.3816
 20
15.2459
 30
0.0
 10
308.3816
 20
15.2459
 30
0.0
 10
312.7807
 20
15.5814
 30
0.0
 10
317.0694
 20
16.7768
 30
0.0
 10
321.0075
 20
18.7655
 30
0.0
 10
321.0075
 20
18.7655
 30
0.0
 10
325.2525
 20
20.9104
 30
0.0
 10
328.7011
 20
24.3506
 30
0.0
 10
330.8534
 20
28.5913
 30
0.0
 10
330.8534
 20
28.5913
 30
0.0
 10
332.1192
 20
31.0842
 30
0.0
 10
333.1116
 20
33.7051
 30
0.0
 10
333.8147
 20
36.4106
 30
0.0
 10
333.8147
 20
36.4106
 30
0.0
 10
334.0071
 20
37.1515
 30
0.0
 10
334.1712
 20
37.8999
 30
0.0
 10
334.3067
 20
38.6535
 30
0.0
 10
334.3067
 20
38.6535
 30
0.0
 10
334.4427
 20
39.4082
 30
0.0
 10
334.5111
 20
40.1731
 30
0.0
 10
334.5111
 20
40.94
 30
0.0
 10
334.5111
 20
40.94
 30
0.0
 10
334.7008
 20
39.9057
 30
0.0
 10
334.8448
 20
38.8638
 30
0.0
 10
334.944
 20
37.817
 30
0.0
 10
334.944
 20
37.817
 30
0.0
 10
335.0421
 20
36.7704
 30
0.0
 10
335.1173
 20
35.7213
 30
0.0
 10
335.169
 20
34.6715
 30
0.0
 10
335.169
 20
34.6715
 30
0.0
 10
335.2128
 20
33.7795
 30
0.0
 10
335.187
 20
32.8852
 30
0.0
 10
335.0921
 20
31.9971
 30
0.0
 10
335.0921
 20
31.9971
 30
0.0
 10
335.0253
 20
31.3695
 30
0.0
 10
334.9087
 20
30.7483
 30
0.0
 10
334.7431
 20
30.1391
 30
0.0
 10
334.7431
 20
30.1391
 30
0.0
 10
334.3843
 20
28.8903
 30
0.0
 10
333.7872
 20
27.7223
 30
0.0
 10
332.9845
 20
26.6998
 30
0.0
 10
332.9845
 20
26.6998
 30
0.0
 10
328.5843
 20
21.0932
 30
0.0
 10
323.0495
 20
16.4749
 30
0.0
 10
316.7464
 20
13.1477
 30
0.0
 10
316.7464
 20
13.1477
 30
0.0
 10
312.4722
 20
10.9269
 30
0.0
 10
307.9269
 20
9.2687
 30
0.0
 10
303.2265
 20
8.2155
 30
0.0
 10
303.2265
 20
8.2155
 30
0.0
 10
301.0826
 20
7.7352
 30
0.0
 10
298.8865
 20
7.5239
 30
0.0
 10
296.69
 20
7.5864
 30
0.0
 10
296.69
 20
7.5864
 30
0.0
 10
295.5572
 20
7.6195
 30
0.0
 10
294.4286
 20
7.7412
 30
0.0
 10
293.3148
 20
7.951
 30
0.0
 10
293.3148
 20
7.951
 30
0.0
 10
290.895
 20
8.4057
 30
0.0
 10
288.639
 20
9.499
 30
0.0
 10
286.7812
 20
11.1145
 30
0.0
 10
286.7812
 20
11.1145
 30
0.0
 10
284.95
 20
12.708
 30
0.0
 10
283.3528
 20
14.5531
 30
0.0
 10
282.0377
 20
16.5928
 30
0.0
 10
282.0377
 20
16.5928
 30
0.0
 10
281.4402
 20
17.5194
 30
0.0
 10
281.0591
 20
18.5691
 30
0.0
 10
280.9225
 20
19.6626
 30
0.0
 10
280.9225
 20
19.6626
 30
0.0
 10
280.9013
 20
19.8307
 30
0.0
 10
280.9
 20
20.0002
 30
0.0
 10
280.9173
 20
20.168
 30
0.0
 10
280.9173
 20
20.168
 30
0.0
 10
279.6692
 20
19.2908
 30
0.0
 10
278.8339
 20
17.9421
 30
0.0
 10
278.605
 20
16.4335
 30
0.0
 10
278.605
 20
16.4335
 30
0.0
 10
278.3225
 20
14.5704
 30
0.0
 10
278.4589
 20
12.668
 30
0.0
 10
279.0052
 20
10.8641
 30
0.0
 10
279.0052
 20
10.8641
 30
0.0
 10
279.3782
 20
9.6342
 30
0.0
 10
280.0793
 20
8.529
 30
0.0
 10
281.0337
 20
7.6686
 30
0.0
 10
281.0337
 20
7.6686
 30
0.0
 10
281.1599
 20
7.5547
 30
0.0
 10
281.3061
 20
7.4654
 30
0.0
 10
281.4642
 20
7.4044
 30
0.0
 10
281.4642
 20
7.4044
 30
0.0
 10
280.789
 20
7.2347
 30
0.0
 10
280.0976
 20
7.1393
 30
0.0
 10
279.4015
 20
7.1192
 30
0.0
 10
279.4015
 20
7.1192
 30
0.0
 10
278.7072
 20
7.0999
 30
0.0
 10
278.0119
 20
7.1256
 30
0.0
 10
277.3208
 20
7.1959
 30
0.0
 10
277.3208
 20
7.1959
 30
0.0
 10
277.3208
 20
7.1959
 30
0.0
 10
277.3208
 20
7.1959
 30
0.0
 10
277.3208
 20
7.1959
 30
0.0
  0
SPLINE
  5
70
330
1F
100
AcDbEntity
  8
layer 1
 62
     7
100
AcDbSpline
210
0.0
220
0.0
230
1.0
 70
    11
 71
     3
 72
    24
 73
    20
 74
     0
 42
0.0000000001
 43
0.0000000001
 12
1.0
 22
0.0
 32
0.0
 13
1.0
 23
0.0
 33
0.0
 40
0.0
 40
0.0
 40
0.0
 40
0.0
 40
0.1666666666666667
 40
0.1666666666666667
 40
0.1666666666666667
 40
0.1666666666666667
 40
0.3333333333333333
 40
0.3333333333333333
 40
0.3333333333333333
 40
0.3333333333333333
 40
0.5
 40
0.5
 40
0.5
 40
0.5
 40
0.6666666666666666
 40
0.6666666666666666
 40
0.6666666666666666
 40
0.6666666666666666
 40
1.0
 40
1.0
 40
1.0
 40
1.0
 10
277.3208
 20
91.2184
 30
0.0
 10
277.5561
 20
90.1245
 30
0.0
 10
277.9093
 20
89.0591
 30
0.0
 10
278.3738
 20
88.0405
 30
0.0
 10
278.3738
 20
88.0405
 30
0.0
 10
278.8529
 20
87.0054
 30
0.0
 10
279.4412
 20
86.0248
 30
0.0
 10
280.1291
 20
85.1146
 30
0.0
 10
280.1291
 20
85.1146
 30
0.0
 10
279.5614
 20
85.0628
 30
0.0
 10
279.0012
 20
84.9511
 30
0.0
 10
278.4574
 20
84.7795
 30
0.0
 10
278.4574
 20
84.7795
 30
0.0
 10
278.0627
 20
84.6513
 30
0.0
 10
277.682
 20
84.4832
 30
0.0
 10
277.3208
 20
84.2787
 30
0.0
 10
277.3208
 20
84.2787
 30
0.0
 10
277.3208
 20
84.2787
 30
0.0
 10
277.3208
 20
91.2184
 30
0.0
 10
277.3208
 20
91.2184
 30
0.0
  0
SPLINE
  5
71
330
1F
100
AcDbEntity
  8
layer 1
 62
     7
100
AcDbSpline
210
0.0
220
0.0
230
1.0
 70
    11
 71
     3
 72
    44
 73
    40
 74
     0
 42
0.0000000001
 43
0.0000000001
 12
1.0
 22
0.0
 32
0.0
 13
1.0
 23
0.0
 33
0.0
 40
0.0
 40
0.0
 40
0.0
 40
0.0
 40
0.0909090909090909
 40
0.0909090909090909
 40
0.0909090909090909
 40
0.0909090909090909
 40
0.1818181818181818
 40
0.1818181818181818
 40
0.1818181818181818
 40
0.1818181818181818
 40
0.2727272727272727
 40
0.2727272727272727
 40
0.2727272727272727
 40
0.2727272727272727
 40
0.3636363636363636
 40
0.3636363636363636
 40
0.3636363636363636
 40
0.3636363636363636
 40
0.4545454545454545
 40
0.4545454545454545
 40
0.4545454545454545
 40
0.4545454545454545
 40
0.5454545454545454
 40
0.5454545454545454
 40
0.5454545454545454
 40
0.5454545454545454
 40
0.6363636363636364
 40
0.6363636363636364
 40
0.6363636363636364
 40
0.6363636363636364
 40
0.7272727272727273
 40
0.7272727272727273
 40
0.7272727272727273
 40
0.7272727272727273
 40
0.8181818181818182
 40
0.8181818181818182
 40
0.8181818181818182
 40
0.8181818181818182
 40
1.0
 40
1.0
 40
1.0
 40
1.0
 10
277.3208
 20
97.6187
 30
0.0
 10
277.3208
 20
97.6187
 30
0.0
 10
277.3208
 20
112.9565
 30
0.0
 10
277.3208
 20
112.9565
 30
0.0
 10
277.3208
 20
112.9565
 30
0.0
 10
277.7873
 20
112.64
 30
0.0
 10
278.2162
 20
112.2712
 30
0.0
 10
278.5994
 20
111.8578
 30
0.0
 10
278.5994
 20
111.8578
 30
0.0
 10
279.3143
 20
111.0866
 30
0.0
 10
279.6574
 20
110.0407
 30
0.0
 10
279.5385
 20
108.996
 30
0.0
 10
279.5385
 20
108.996
 30
0.0
 10
279.4841
 20
108.5216
 30
0.0
 10
279.4175
 20
108.0497
 30
0.0
 10
279.3375
 20
107.5792
 30
0.0
 10
279.3375
 20
107.5792
 30
0.0
 10
279.1283
 20
106.3472
 30
0.0
 10
278.9512
 20
105.1103
 30
0.0
 10
278.8057
 20
103.8691
 30
0.0
 10
278.8057
 20
103.8691
 30
0.0
 10
278.6598
 20
102.6232
 30
0.0
 10
278.6763
 20
101.3638
 30
0.0
 10
278.8546
 20
100.1217
 30
0.0
 10
278.8546
 20
100.1217
 30
0.0
 10
278.8763
 20
99.9673
 30
0.0
 10
278.9093
 20
99.8143
 30
0.0
 10
278.9532
 20
99.6642
 30
0.0
 10
278.9532
 20
99.6642
 30
0.0
 10
278.8402
 20
99.4742
 30
0.0
 10
278.7123
 20
99.2938
 30
0.0
 10
278.5697
 20
99.1255
 30
0.0
 10
278.5697
 20
99.1255
 30
0.0
 10
278.4818
 20
99.0262
 30
0.0
 10
278.3876
 20
98.932
 30
0.0
 10
278.2877
 20
98.8441
 30
0.0
 10
278.2877
 20
98.8441
 30
0.0
 10
277.8945
 20
98.4967
 30
0.0
 10
277.567
 20
98.0815
 30
0.0
 10
277.3208
 20
97.6187
 30
0.0
  0
SPLINE
  5
72
330
1F
100
AcDbEntity
  8
layer 1
 62
     7
100
AcDbSpline
210
0.0
220
0.0
230
1.0
 70
    11
 71
     3
 72
    72
 73
    68
 74
     0
 42
0.0000000001
 43
0.0000000001
 12
1.0
 22
0.0
 32
0.0
 13
1.0
 23
0.0
 33
0.0
 40
0.0
 40
0.0
 40
0.0
 40
0.0
 40
0.0555555555555556
 40
0.0555555555555556
 40
0.0555555555555556
 40
0.0555555555555556
 40
0.1111111111111111
 40
0.1111111111111111
 40
0.1111111111111111
 40
0.1111111111111111
 40
0.1666666666666667
 40
0.1666666666666667
 40
0.1666666666666667
 40
0.1666666666666667
 40
0.2222222222222222
 40
0.2222222222222222
 40
0.2222222222222222
 40
0.2222222222222222
 40
0.2777777777777778
 40
0.2777777777777778
 40
0.2777777777777778
 40
0.2777777777777778
 40
0.3333333333333333
 40
0.3333333333333333
 40
0.3333333333333333
 40
0.3333333333333333
 40
0.3888888888888889
 40
0.3888888888888889
 40
0.3888888888888889
 40
0.3888888888888889
 40
0.4444444444444444
 40
0.4444444444444444
 40
0.4444444444444444
 40
0.4444444444444444
 40
0.5
 40
0.5
 40
0.5
 40
0.5
 40
0.5555555555555556
 40
0.5555555555555556
 40
0.5555555555555556
 40
0.5555555555555556
 40
0.6111111111111112
 40
0.6111111111111112
 40
0.6111111111111112
 40
0.6111111111111112
 40
0.6666666666666666
 40
0.6666666666666666
 40
0.6666666666666666
 40
0.6666666666666666
 40
0.7222222222222222
 40
0.7222222222222222
 40
0.7222222222222222
 40
0.7222222222222222
 40
0.7777777777777778
 40
0.7777777777777778
 40
0.7777777777777778
 40
0.7777777777777778
 40
0.8333333333333334
 40
0.8333333333333334
 40
0.8333333333333334
 40
0.8333333333333334
 40
0.8888888888888888
 40
0.8888888888888888
 40
0.8888888888888888
 40
0.8888888888888888
 40
1.0
 40
1.0
 40
1.0
 40
1.0
 10
277.3208
 20
-73.6113
 30
0.0
 10
277.3208
 20
-73.6113
 30
0.0
 10
277.3208
 20
-52.6095
 30
0.0
 10
277.3208
 20
-52.6095
 30
0.0
 10
277.3208
 20
-52.6095
 30
0.0
 10
277.3208
 20
-52.6095
 30
0.0
 10
277.3511
 20
-52.6073
 30
0.0
 10
277.3511
 20
-52.6073
 30
0.0
 10
277.3511
 20
-52.6073
 30
0.0
 10
277.4159
 20
-54.2792
 30
0.0
 10
277.5652
 20
-55.9466
 30
0.0
 10
277.7988
 20
-57.6035
 30
0.0
 10
277.7988
 20
-57.6035
 30
0.0
 10
278.2611
 20
-60.8797
 30
0.0
 10
278.836
 20
-64.1384
 30
0.0
 10
279.5225
 20
-67.3752
 30
0.0
 10
279.5225
 20
-67.3752
 30
0.0
 10
280.1871
 20
-70.5052
 30
0.0
 10
281.0929
 20
-73.5786
 30
0.0
 10
282.2315
 20
-76.5687
 30
0.0
 10
282.2315
 20
-76.5687
 30
0.0
 10
283.718
 20
-80.4692
 30
0.0
 10
285.9441
 20
-84.0436
 30
0.0
 10
288.79
 20
-87.0966
 30
0.0
 10
288.79
 20
-87.0966
 30
0.0
 10
290.0611
 20
-88.4605
 30
0.0
 10
291.4225
 20
-89.7368
 30
0.0
 10
292.8656
 20
-90.917
 30
0.0
 10
292.8656
 20
-90.917
 30
0.0
 10
292.2185
 20
-91.0983
 30
0.0
 10
291.6037
 20
-91.3822
 30
0.0
 10
291.0468
 20
-91.7586
 30
0.0
 10
291.0468
 20
-91.7586
 30
0.0
 10
290.4922
 20
-92.1331
 30
0.0
 10
289.9708
 20
-92.5548
 30
0.0
 10
289.4877
 20
-93.018
 30
0.0
 10
289.4877
 20
-93.018
 30
0.0
 10
288.5967
 20
-93.8732
 30
0.0
 10
288.0867
 20
-95.0495
 30
0.0
 10
288.0728
 20
-96.2844
 30
0.0
 10
288.0728
 20
-96.2844
 30
0.0
 10
288.0663
 20
-96.8264
 30
0.0
 10
288.1283
 20
-97.3671
 30
0.0
 10
288.2562
 20
-97.8936
 30
0.0
 10
288.2562
 20
-97.8936
 30
0.0
 10
287.9032
 20
-98.3158
 30
0.0
 10
287.4763
 20
-98.6701
 30
0.0
 10
286.9968
 20
-98.9397
 30
0.0
 10
286.9968
 20
-98.9397
 30
0.0
 10
286.5101
 20
-99.213
 30
0.0
 10
285.9487
 20
-99.3273
 30
0.0
 10
285.3933
 20
-99.2662
 30
0.0
 10
285.3933
 20
-99.2662
 30
0.0
 10
284.7552
 20
-99.1962
 30
0.0
 10
284.2364
 20
-98.7179
 30
0.0
 10
284.1127
 20
-98.0883
 30
0.0
 10
284.1127
 20
-98.0883
 30
0.0
 10
283.6831
 20
-95.8936
 30
0.0
 10
283.2236
 20
-93.7047
 30
0.0
 10
282.7345
 20
-91.5225
 30
0.0
 10
282.7345
 20
-91.5225
 30
0.0
 10
282.0451
 20
-88.4557
 30
0.0
 10
281.2666
 20
-85.4102
 30
0.0
 10
280.3978
 20
-82.3895
 30
0.0
 10
280.3978
 20
-82.3895
 30
0.0
 10
279.4984
 20
-79.4207
 30
0.0
 10
278.4718
 20
-76.492
 30
0.0
 10
277.3208
 20
-73.6113
 30
0.0
  0
ENDSEC
  0
SECTION
  2
OBJECTS
  0
DICTIONARY
  5
C
330
0
100
AcDbDictionary
281
     1
  3
ACAD_GROUP
350
D
  3
ACAD_LAYOUT
350
1A
  3
ACAD_MATERIAL
350
3B
  3
ACAD_MLEADERSTYLE
350
95
  3
ACAD_MLINESTYLE
350
17
  3
ACAD_PLOTSETTINGS
350
19
  3
ACAD_PLOTSTYLENAME
350
E
  3
ACAD_TABLESTYLE
350
94
  3
ACAD_VISUALSTYLE
350
2A
  0
DICTIONARY
  5
D
102
{ACAD_REACTORS
330
C
102
}
330
C
100
AcDbDictionary
281
     1
  0
DICTIONARY
  5
1A
102
{ACAD_REACTORS
330
C
102
}
330
C
100
AcDbDictionary
281
     1
  3
Layout1
350
1E
  3
Layout2
350
26
  3
Model
350
22
  0
DICTIONARY
  5
3B
102
{ACAD_REACTORS
330
C
102
}
330
C
100
AcDbDictionary
281
     1
  3
ByBlock
350
3D
  3
ByLayer
350
3C
  3
Global
350
3E
  0
DICTIONARY
  5
95
102
{ACAD_REACTORS
330
C
102
}
330
C
100
AcDbDictionary
281
     1
  0
DICTIONARY
  5
17
102
{ACAD_REACTORS
330
C
102
}
330
C
100
AcDbDictionary
281
     1
  3
Standard
350
18
  0
DICTIONARY
  5
19
102
{ACAD_REACTORS
330
C
102
}
330
C
100
AcDbDictionary
281
     1
  0
ACDBDICTIONARYWDFLT
  5
E
102
{ACAD_REACTORS
330
C
102
}
330
C
100
AcDbDictionary
281
     1
  3
Normal
350
F
100
AcDbDictionaryWithDefault
340
F
  0
DICTIONARY
  5
94
102
{ACAD_REACTORS
330
C
102
}
330
C
100
AcDbDictionary
281
     1
  0
DICTIONARY
  5
2A
102
{ACAD_REACTORS
330
C
102
}
330
C
100
AcDbDictionary
281
     1
  3
2dWireframe
350
2F
  3
3D Hidden
350
31
  3
3dWireframe
350
30
  3
Basic
350
32
  3
Brighten
350
36
  3
ColorChange
350
3A
  3
Conceptual
350
34
  3
Dim
350
35
  3
Facepattern
350
39
  3
Flat
350
2B
  3
FlatWithEdges
350
2C
  3
Gouraud
350
2D
  3
GouraudWithEdges
350
2E
  3
Linepattern
350
38
  3
Realistic
350
33
  3
Thicken
350
37
  0
LAYOUT
  5
1E
102
{ACAD_REACTORS
330
1A
102
}
330
1A
100
AcDbPlotSettings
  1

  2
none_device
  4

  6

 40
0.0
 41
0.0
 42
0.0
 43
0.0
 44
0.0
 45
0.0
 46
0.0
 47
0.0
 48
0.0
 49
0.0
140
0.0
141
0.0
142
1.0
143
1.0
 70
   688
 72
     0
 73
     0
 74
     5
  7

 75
    16
 76
     0
 77
     2
 78
   300
147
1.0
148
0.0
149
0.0
100
AcDbLayout
  1
Layout1
 70
     1
 71
     1
 10
0.0
 20
0.0
 11
12.0
 21
9.0
 12
0.0
 22
0.0
 32
0.0
 14
1.000000000000000E+20
 24
1.000000000000000E+20
 34
1.000000000000000E+20
 15
-1.000000000000000E+20
 25
-1.000000000000000E+20
 35
-1.000000000000000E+20
146
0.0
 13
0.0
 23
0.0
 33
0.0
 16
1.0
 26
0.0
 36
0.0
 17
0.0
 27
1.0
 37
0.0
 76
     0
330
1B
  0
LAYOUT
  5
26
102
{ACAD_REACTORS
330
1A
102
}
330
1A
100
AcDbPlotSettings
  1

  2
none_device
  4

  6

 40
0.0
 41
0.0
 42
0.0
 43
0.0
 44
0.0
 45
0.0
 46
0.0
 47
0.0
 48
0.0
 49
0.0
140
0.0
141
0.0
142
1.0
143
1.0
 70
   688
 72
     0
 73
     0
 74
     5
  7

 75
    16
 76
     0
 77
     2
 78
   300
147
1.0
148
0.0
149
0.0
100
AcDbLayout
  1
Layout2
 70
     1
 71
     2
 10
0.0
 20
0.0
 11
0.0
 21
0.0
 12
0.0
 22
0.0
 32
0.0
 14
0.0
 24
0.0
 34
0.0
 15
0.0
 25
0.0
 35
0.0
146
0.0
 13
0.0
 23
0.0
 33
0.0
 16
1.0
 26
0.0
 36
0.0
 17
0.0
 27
1.0
 37
0.0
 76
     0
330
23
  0
LAYOUT
  5
22
102
{ACAD_REACTORS
330
1A
102
}
330
1A
100
AcDbPlotSettings
  1

  2
none_device
  4

  6

 40
0.0
 41
0.0
 42
0.0
 43
0.0
 44
0.0
 45
0.0
 46
0.0
 47
0.0
 48
0.0
 49
0.0
140
0.0
141
0.0
142
1.0
143
1.0
 70
  1712
 72
     0
 73
     0
 74
     0
  7

 75
     0
 76
     0
 77
     2
 78
   300
147
1.0
148
0.0
149
0.0
100
AcDbLayout
  1
Model
 70
     1
 71
     0
 10
0.0
 20
0.0
 11
12.0
 21
9.0
 12
0.0
 22
0.0
 32
0.0
 14
202.7586
 24
-106.3999
 34
0.0
 15
342.3119
 25
131.7874
 35
0.0
146
0.0
 13
0.0
 23
0.0
 33
0.0
 16
1.0
 26
0.0
 36
0.0
 17
0.0
 27
1.0
 37
0.0
 76
     0
330
1F
331
29
  0
MATERIAL
  5
3D
102
{ACAD_REACTORS
330
3B
102
}
330
3B
100
AcDbMaterial
  1
ByBlock
 72
     1
 94
      127
  0
MATERIAL
  5
3C
102
{ACAD_REACTORS
330
3B
102
}
330
3B
100
AcDbMaterial
  1
ByLayer
 72
     1
 94
      127
  0
MATERIAL
  5
3E
102
{ACAD_REACTORS
330
3B
102
}
330
3B
100
AcDbMaterial
  1
Global
 72
     1
 94
      127
  0
MLINESTYLE
  5
18
102
{ACAD_REACTORS
330
17
102
}
330
17
100
AcDbMlineStyle
  2
Standard
 70
     0
  3

 62
   256
 51
90.0
 52
90.0
 71
     2
 49
0.5
 62
   256
  6
BYLAYER
 49
-0.5
 62
   256
  6
BYLAYER
  0
ACDBPLACEHOLDER
  5
F
102
{ACAD_REACTORS
330
E
102
}
330
E
  0
VISUALSTYLE
  5
2F
102
{ACAD_REACTORS
330
2A
102
}
102
{ACAD_XDICTIONARY
360
7C
102
}
330
2A
100
AcDbVisualStyle
  2
2dWireframe
 70
     4
 71
     0
 72
     2
 73
     0
 90
        0
 40
-0.6
 41
-30.0
 62
     5
 63
     7
421
 16777215
 74
     1
 91
        4
 64
     7
 65
   257
 75
     1
175
     1
 42
1.0
 92
        0
 66
   257
 43
1.0
 76
     1
 77
     6
 78
     2
 67
     7
 79
     5
170
     0
171
     0
290
     0
174
     0
 93
        1
 44
0.0
173
     0
291
     0
 45
0.0
  0
VISUALSTYLE
  5
31
102
{ACAD_REACTORS
330
2A
102
}
102
{ACAD_XDICTIONARY
360
80
102
}
330
2A
100
AcDbVisualStyle
  2
3D Hidden
 70
     6
 71
     1
 72
     2
 73
     2
 90
        0
 40
-0.6
 41
-30.0
 62
     5
 63
     7
421
 16777215
 74
     2
 91
        2
 64
     7
 65
   257
 75
     2
175
     1
 42
40.0
 92
        0
 66
   257
 43
1.0
 76
     1
 77
     6
 78
     2
 67
     7
 79
     3
170
     0
171
     0
290
     0
174
     0
 93
        1
 44
0.0
173
     0
291
     0
 45
0.0
  0
VISUALSTYLE
  5
30
102
{ACAD_REACTORS
330
2A
102
}
102
{ACAD_XDICTIONARY
360
7E
102
}
330
2A
100
AcDbVisualStyle
  2
3dWireframe
 70
     5
 71
     0
 72
     2
 73
     0
 90
        0
 40
-0.6
 41
-30.0
 62
     5
 63
     7
421
 16777215
 74
     1
 91
        4
 64
     7
 65
   257
 75
     1
175
     1
 42
1.0
 92
        0
 66
   257
 43
1.0
 76
     1
 77
     6
 78
     2
 67
     7
 79
     5
170
     0
171
     0
290
     0
174
     0
 93
        1
 44
0.0
173
     0
291
     0
 45
0.0
  0
VISUALSTYLE
  5
32
102
{ACAD_REACTORS
330
2A
102
}
102
{ACAD_XDICTIONARY
360
82
102
}
330
2A
100
AcDbVisualStyle
  2
Basic
 70
     7
 71
     1
 72
     0
 73
     1
 90
        0
 40
-0.6
 41
-30.0
 62
     5
 63
     7
421
 16777215
 74
     0
 91
        4
 64
     7
 65
   257
 75
     1
175
     1
 42
1.0
 92
        8
 66
     7
 43
1.0
 76
     1
 77
     6
 78
     2
 67
     7
 79
     5
170
     0
171
     0
290
     0
174
     0
 93
        1
 44
0.0
173
     0
291
     1
 45
0.0
  0
VISUALSTYLE
  5
36
102
{ACAD_REACTORS
330
2A
102
}
102
{ACAD_XDICTIONARY
360
8A
102
}
330
2A
100
AcDbVisualStyle
  2
Brighten
 70
    12
 71
     2
 72
     2
 73
     0
 90
        0
 40
-0.6
 41
-30.0
 62
     5
 63
     7
421
 16777215
 74
     1
 91
        4
 64
     7
 65
   257
 75
     1
175
     1
 42
1.0
 92
        8
 66
     7
 43
1.0
 76
     1
 77
     6
 78
     2
 67
     7
 79
     5
170
     0
171
     0
290
     0
174
     0
 93
        1
 44
50.0
173
     0
291
     1
 45
0.0
  0
VISUALSTYLE
  5
3A
102
{ACAD_REACTORS
330
2A
102
}
102
{ACAD_XDICTIONARY
360
92
102
}
330
2A
100
AcDbVisualStyle
  2
ColorChange
 70
    16
 71
     2
 72
     2
 73
     3
 90
        0
 40
-0.6
 41
-30.0
 62
     5
 63
     8
421
  8421504
 74
     1
 91
        4
 64
     7
 65
   257
 75
     1
175
     1
 42
1.0
 92
        8
 66
     8
424
  8421504
 43
1.0
 76
     1
 77
     6
 78
     2
 67
     7
 79
     5
170
     0
171
     0
290
     0
174
     0
 93
        1
 44
0.0
173
     0
291
     1
 45
0.0
  0
VISUALSTYLE
  5
34
102
{ACAD_REACTORS
330
2A
102
}
102
{ACAD_XDICTIONARY
360
86
102
}
330
2A
100
AcDbVisualStyle
  2
Conceptual
 70
     9
 71
     3
 72
     2
 73
     0
 90
        0
 40
-0.6
 41
-30.0
 62
     5
 63
     7
421
 16777215
 74
     2
 91
        2
 64
     7
 65
   257
 75
     1
175
     1
 42
40.0
 92
        8
 66
     7
 43
1.0
 76
     1
 77
     6
 78
     2
 67
     7
 79
     3
170
     0
171
     0
290
     0
174
     0
 93
        1
 44
0.0
173
     0
291
     0
 45
0.0
  0
VISUALSTYLE
  5
35
102
{ACAD_REACTORS
330
2A
102
}
102
{ACAD_XDICTIONARY
360
88
102
}
330
2A
100
AcDbVisualStyle
  2
Dim
 70
    11
 71
     2
 72
     2
 73
     0
 90
        0
 40
-0.6
 41
-30.0
 62
     5
 63
     7
421
 16777215
 74
     1
 91
        4
 64
     7
 65
   257
 75
     1
175
     1
 42
1.0
 92
        8
 66
     7
 43
1.0
 76
     1
 77
     6
 78
     2
 67
     7
 79
     5
170
     0
171
     0
290
     0
174
     0
 93
        1
 44
-50.0
173
     0
291
     1
 45
0.0
  0
VISUALSTYLE
  5
39
102
{ACAD_REACTORS
330
2A
102
}
102
{ACAD_XDICTIONARY
360
90
102
}
330
2A
100
AcDbVisualStyle
  2
Facepattern
 70
    15
 71
     2
 72
     2
 73
     0
 90
        0
 40
-0.6
 41
-30.0
 62
     5
 63
     7
421
 16777215
 74
     1
 91
        4
 64
     7
 65
   257
 75
     1
175
     1
 42
1.0
 92
        8
 66
     7
 43
1.0
 76
     1
 77
     6
 78
     2
 67
     7
 79
     5
170
     0
171
     0
290
     0
174
     0
 93
        1
 44
0.0
173
     0
291
     1
 45
0.0
  0
VISUALSTYLE
  5
2B
102
{ACAD_REACTORS
330
2A
102
}
102
{ACAD_XDICTIONARY
360
74
102
}
330
2A
100
AcDbVisualStyle
  2
Flat
 70
     0
 71
     2
 72
     1
 73
     1
 90
        2
 40
-0.6
 41
30.0
 62
     5
 63
     7
421
 16777215
 74
     0
 91
        4
 64
     7
 65
   257
 75
     1
175
     1
 42
1.0
 92
        8
 66
     7
 43
1.0
 76
     1
 77
     6
 78
     2
 67
     7
 79
     5
170
     0
171
     0
290
     0
174
     0
 93
       13
 44
0.0
173
     0
291
     1
 45
0.0
  0
VISUALSTYLE
  5
2C
102
{ACAD_REACTORS
330
2A
102
}
102
{ACAD_XDICTIONARY
360
76
102
}
330
2A
100
AcDbVisualStyle
  2
FlatWithEdges
 70
     1
 71
     2
 72
     1
 73
     1
 90
        2
 40
-0.6
 41
30.0
 62
     5
 63
     7
421
 16777215
 74
     1
 91
        4
 64
     7
 65
   257
 75
     1
175
     1
 42
1.0
 92
        0
 66
   257
 43
1.0
 76
     1
 77
     6
 78
     2
 67
     7
 79
     5
170
     0
171
     0
290
     0
174
     0
 93
       13
 44
0.0
173
     0
291
     1
 45
0.0
  0
VISUALSTYLE
  5
2D
102
{ACAD_REACTORS
330
2A
102
}
102
{ACAD_XDICTIONARY
360
78
102
}
330
2A
100
AcDbVisualStyle
  2
Gouraud
 70
     2
 71
     2
 72
     2
 73
     1
 90
        2
 40
-0.6
 41
30.0
 62
     5
 63
     7
421
 16777215
 74
     0
 91
        4
 64
     7
 65
   257
 75
     1
175
     1
 42
1.0
 92
        0
 66
     7
 43
1.0
 76
     1
 77
     6
 78
     2
 67
     7
 79
     5
170
     0
171
     0
290
     0
174
     0
 93
       13
 44
0.0
173
     0
291
     1
 45
0.0
  0
VISUALSTYLE
  5
2E
102
{ACAD_REACTORS
330
2A
102
}
102
{ACAD_XDICTIONARY
360
7A
102
}
330
2A
100
AcDbVisualStyle
  2
GouraudWithEdges
 70
     3
 71
     2
 72
     2
 73
     1
 90
        2
 40
-0.6
 41
30.0
 62
     5
 63
     7
421
 16777215
 74
     1
 91
        4
 64
     7
 65
   257
 75
     1
175
     1
 42
1.0
 92
        0
 66
   257
 43
1.0
 76
     1
 77
     6
 78
     2
 67
     7
 79
     5
170
     0
171
     0
290
     0
174
     0
 93
       13
 44
0.0
173
     0
291
     1
 45
0.0
  0
VISUALSTYLE
  5
38
102
{ACAD_REACTORS
330
2A
102
}
102
{ACAD_XDICTIONARY
360
8E
102
}
330
2A
100
AcDbVisualStyle
  2
Linepattern
 70
    14
 71
     2
 72
     2
 73
     0
 90
        0
 40
-0.6
 41
-30.0
 62
     5
 63
     7
421
 16777215
 74
     1
 91
        4
 64
     7
 65
   257
 75
     7
175
     7
 42
1.0
 92
        8
 66
     7
 43
1.0
 76
     1
 77
     6
 78
     2
 67
     7
 79
     5
170
     0
171
     0
290
     0
174
     0
 93
        1
 44
0.0
173
     0
291
     1
 45
0.0
  0
VISUALSTYLE
  5
33
102
{ACAD_REACTORS
330
2A
102
}
102
{ACAD_XDICTIONARY
360
84
102
}
330
2A
100
AcDbVisualStyle
  2
Realistic
 70
     8
 71
     2
 72
     2
 73
     0
 90
        0
 40
-0.6
 41
-30.0
 62
     5
 63
     7
421
 16777215
 74
     1
 91
        0
 64
     7
 65
   257
 75
     1
175
     1
 42
1.0
 92
        8
 66
     8
424
  7895160
 43
1.0
 76
     1
 77
     6
 78
     2
 67
     7
 79
     5
170
     0
171
     0
290
     0
174
     0
 93
       13
 44
0.0
173
     0
291
     0
 45
0.0
  0
VISUALSTYLE
  5
37
102
{ACAD_REACTORS
330
2A
102
}
102
{ACAD_XDICTIONARY
360
8C
102
}
330
2A
100
AcDbVisualStyle
  2
Thicken
 70
    13
 71
     2
 72
     2
 73
     0
 90
        0
 40
-0.6
 41
-30.0
 62
     5
 63
     7
421
 16777215
 74
     1
 91
        4
 64
     7
 65
   257
 75
     1
175
     1
 42
1.0
 92
       12
 66
     7
 43
1.0
 76
     1
 77
     6
 78
     2
 67
     7
 79
     5
170
     0
171
     0
290
     0
174
     0
 93
        1
 44
0.0
173
     0
291
     1
 45
0.0
  0
DICTIONARY
  5
7C
330
2F
100
AcDbDictionary
280
     1
281
     1
  3
ACAD_XREC_ROUNDTRIP
360
7D
  0
DICTIONARY
  5
80
330
31
100
AcDbDictionary
280
     1
281
     1
  3
ACAD_XREC_ROUNDTRIP
360
81
  0
DICTIONARY
  5
7E
330
30
100
AcDbDictionary
280
     1
281
     1
  3
ACAD_XREC_ROUNDTRIP
360
7F
  0
DICTIONARY
  5
82
330
32
100
AcDbDictionary
280
     1
281
     1
  3
ACAD_XREC_ROUNDTRIP
360
83
  0
DICTIONARY
  5
8A
330
36
100
AcDbDictionary
280
     1
281
     1
  3
ACAD_XREC_ROUNDTRIP
360
8B
  0
DICTIONARY
  5
92
330
3A
100
AcDbDictionary
280
     1
281
     1
  3
ACAD_XREC_ROUNDTRIP
360
93
  0
DICTIONARY
  5
86
330
34
100
AcDbDictionary
280
     1
281
     1
  3
ACAD_XREC_ROUNDTRIP
360
87
  0
DICTIONARY
  5
88
330
35
100
AcDbDictionary
280
     1
281
     1
  3
ACAD_XREC_ROUNDTRIP
360
89
  0
DICTIONARY
  5
90
330
39
100
AcDbDictionary
280
     1
281
     1
  3
ACAD_XREC_ROUNDTRIP
360
91
  0
DICTIONARY
  5
74
330
2B
100
AcDbDictionary
280
     1
281
     1
  3
ACAD_XREC_ROUNDTRIP
360
75
  0
DICTIONARY
  5
76
330
2C
100
AcDbDictionary
280
     1
281
     1
  3
ACAD_XREC_ROUNDTRIP
360
77
  0
DICTIONARY
  5
78
330
2D
100
AcDbDictionary
280
     1
281
     1
  3
ACAD_XREC_ROUNDTRIP
360
79
  0
DICTIONARY
  5
7A
330
2E
100
AcDbDictionary
280
     1
281
     1
  3
ACAD_XREC_ROUNDTRIP
360
7B
  0
DICTIONARY
  5
8E
330
38
100
AcDbDictionary
280
     1
281
     1
  3
ACAD_XREC_ROUNDTRIP
360
8F
  0
DICTIONARY
  5
84
330
33
100
AcDbDictionary
280
     1
281
     1
  3
ACAD_XREC_ROUNDTRIP
360
85
  0
DICTIONARY
  5
8C
330
37
100
AcDbDictionary
280
     1
281
     1
  3
ACAD_XREC_ROUNDTRIP
360
8D
  0
XRECORD
  5
7D
102
{ACAD_REACTORS
330
7C
102
}
330
7C
100
AcDbXrecord
280
     1
102
RTVSPropertyOp0
 70
     1
102
RTVSPropertyOp1
 70
     1
102
RTVSPropertyOp2
 70
     1
102
RTVSPropertyOp3
 70
     1
102
RTVSPropertyOp4
 70
     1
102
RTVSPropertyOp5
 70
     1
102
RTVSPropertyOp6
 70
     1
102
RTVSPropertyOp7
 70
     1
102
RTVSPropertyOp8
 70
     1
102
RTVSPropertyOp9
 70
     1
102
RTVSPropertyOp10
 70
     1
102
RTVSPropertyOp11
 70
     1
102
RTVSPropertyOp12
 70
     1
102
RTVSPropertyOp13
 70
     1
102
RTVSPropertyOp14
 70
     1
102
RTVSPropertyOp15
 70
     1
102
RTVSPropertyOp16
 70
     1
102
RTVSPropertyOp17
 70
     1
102
RTVSPropertyOp18
 70
     1
102
RTVSPropertyOp19
 70
     1
102
RTVSPropertyOp20
 70
     1
102
RTVSPropertyOp21
 70
     1
102
RTVSPropertyOp22
 70
     1
102
RTVSPropertyOp23
 70
     1
102
RTVSPropertyOp24
 70
     1
102
RTVSPropertyOp25
 70
     1
102
RTVSPropertyOp26
 70
     1
102
RTVSPropertyOp27
 70
     1
102
RTVSPropertyOp28
 70
     1
102
RTVSPropertyOp29
 70
     1
102
RTVSPropertyOp30
 70
     1
102
RTVSPropertyOp31
 70
     1
102
RTVSPropertyOp32
 70
     1
  0
XRECORD
  5
81
102
{ACAD_REACTORS
330
80
102
}
330
80
100
AcDbXrecord
280
     1
102
RTVSPropertyOp0
 70
     1
102
RTVSPropertyOp1
 70
     1
102
RTVSPropertyOp2
 70
     1
102
RTVSPropertyOp3
 70
     1
102
RTVSPropertyOp4
 70
     1
102
RTVSPropertyOp5
 70
     1
102
RTVSPropertyOp6
 70
     1
102
RTVSPropertyOp7
 70
     1
102
RTVSPropertyOp8
 70
     1
102
RTVSPropertyOp9
 70
     1
102
RTVSPropertyOp10
 70
     1
102
RTVSPropertyOp11
 70
     1
102
RTVSPropertyOp12
 70
     1
102
RTVSPropertyOp13
 70
     1
102
RTVSPropertyOp14
 70
     1
102
RTVSPropertyOp15
 70
     1
102
RTVSPropertyOp16
 70
     1
102
RTVSPropertyOp17
 70
     1
102
RTVSPropertyOp18
 70
     1
102
RTVSPropertyOp19
 70
     1
102
RTVSPropertyOp20
 70
     1
102
RTVSPropertyOp21
 70
     1
102
RTVSPropertyOp22
 70
     1
102
RTVSPropertyOp23
 70
     1
102
RTVSPropertyOp24
 70
     1
102
RTVSPropertyOp25
 70
     1
102
RTVSPropertyOp26
 70
     1
102
RTVSPropertyOp27
 70
     1
102
RTVSPropertyOp28
 70
     1
102
RTVSPropertyOp29
 70
     1
102
RTVSPropertyOp30
 70
     1
102
RTVSPropertyOp31
 70
     1
102
RTVSPropertyOp32
 70
     1
  0
XRECORD
  5
7F
102
{ACAD_REACTORS
330
7E
102
}
330
7E
100
AcDbXrecord
280
     1
102
RTVSPropertyOp0
 70
     1
102
RTVSPropertyOp1
 70
     1
102
RTVSPropertyOp2
 70
     1
102
RTVSPropertyOp3
 70
     1
102
RTVSPropertyOp4
 70
     1
102
RTVSPropertyOp5
 70
     1
102
RTVSPropertyOp6
 70
     1
102
RTVSPropertyOp7
 70
     1
102
RTVSPropertyOp8
 70
     1
102
RTVSPropertyOp9
 70
     1
102
RTVSPropertyOp10
 70
     1
102
RTVSPropertyOp11
 70
     1
102
RTVSPropertyOp12
 70
     1
102
RTVSPropertyOp13
 70
     1
102
RTVSPropertyOp14
 70
     1
102
RTVSPropertyOp15
 70
     1
102
RTVSPropertyOp16
 70
     1
102
RTVSPropertyOp17
 70
     1
102
RTVSPropertyOp18
 70
     1
102
RTVSPropertyOp19
 70
     1
102
RTVSPropertyOp20
 70
     1
102
RTVSPropertyOp21
 70
     1
102
RTVSPropertyOp22
 70
     1
102
RTVSPropertyOp23
 70
     1
102
RTVSPropertyOp24
 70
     1
102
RTVSPropertyOp25
 70
     1
102
RTVSPropertyOp26
 70
     1
102
RTVSPropertyOp27
 70
     1
102
RTVSPropertyOp28
 70
     1
102
RTVSPropertyOp29
 70
     1
102
RTVSPropertyOp30
 70
     1
102
RTVSPropertyOp31
 70
     1
102
RTVSPropertyOp32
 70
     1
  0
XRECORD
  5
83
102
{ACAD_REACTORS
330
82
102
}
330
82
100
AcDbXrecord
280
     1
102
RTVSPropertyOp0
 70
     1
102
RTVSPropertyOp1
 70
     1
102
RTVSPropertyOp2
 70
     1
102
RTVSPropertyOp3
 70
     1
102
RTVSPropertyOp4
 70
     1
102
RTVSPropertyOp5
 70
     1
102
RTVSPropertyOp6
 70
     1
102
RTVSPropertyOp7
 70
     1
102
RTVSPropertyOp8
 70
     1
102
RTVSPropertyOp9
 70
     1
102
RTVSPropertyOp10
 70
     1
102
RTVSPropertyOp11
 70
     1
102
RTVSPropertyOp12
 70
     1
102
RTVSPropertyOp13
 70
     1
102
RTVSPropertyOp14
 70
     1
102
RTVSPropertyOp15
 70
     1
102
RTVSPropertyOp16
 70
     1
102
RTVSPropertyOp17
 70
     1
102
RTVSPropertyOp18
 70
     1
102
RTVSPropertyOp19
 70
     1
102
RTVSPropertyOp20
 70
     1
102
RTVSPropertyOp21
 70
     1
102
RTVSPropertyOp22
 70
     1
102
RTVSPropertyOp23
 70
     1
102
RTVSPropertyOp24
 70
     1
102
RTVSPropertyOp25
 70
     1
102
RTVSPropertyOp26
 70
     1
102
RTVSPropertyOp27
 70
     1
102
RTVSPropertyOp28
 70
     1
102
RTVSPropertyOp29
 70
     1
102
RTVSPropertyOp30
 70
     1
102
RTVSPropertyOp31
 70
     1
102
RTVSPropertyOp32
 70
     1
  0
XRECORD
  5
8B
102
{ACAD_REACTORS
330
8A
102
}
330
8A
100
AcDbXrecord
280
     1
102
RTVSPropertyOp0
 70
     1
102
RTVSPropertyOp1
 70
     1
102
RTVSPropertyOp2
 70
     1
102
RTVSPropertyOp3
 70
     1
102
RTVSPropertyOp4
 70
     1
102
RTVSPropertyOp5
 70
     1
102
RTVSPropertyOp6
 70
     1
102
RTVSPropertyOp7
 70
     1
102
RTVSPropertyOp8
 70
     1
102
RTVSPropertyOp9
 70
     1
102
RTVSPropertyOp10
 70
     1
102
RTVSPropertyOp11
 70
     1
102
RTVSPropertyOp12
 70
     1
102
RTVSPropertyOp13
 70
     1
102
RTVSPropertyOp14
 70
     1
102
RTVSPropertyOp15
 70
     1
102
RTVSPropertyOp16
 70
     1
102
RTVSPropertyOp17
 70
     1
102
RTVSPropertyOp18
 70
     1
102
RTVSPropertyOp19
 70
     1
102
RTVSPropertyOp20
 70
     1
102
RTVSPropertyOp21
 70
     1
102
RTVSPropertyOp22
 70
     1
102
RTVSPropertyOp23
 70
     1
102
RTVSPropertyOp24
 70
     1
102
RTVSPropertyOp25
 70
     1
102
RTVSPropertyOp26
 70
     1
102
RTVSPropertyOp27
 70
     1
102
RTVSPropertyOp28
 70
     1
102
RTVSPropertyOp29
 70
     1
102
RTVSPropertyOp30
 70
     1
102
RTVSPropertyOp31
 70
     1
102
RTVSPropertyOp32
 70
     1
  0
XRECORD
  5
93
102
{ACAD_REACTORS
330
92
102
}
330
92
100
AcDbXrecord
280
     1
102
RTVSPropertyOp0
 70
     1
102
RTVSPropertyOp1
 70
     1
102
RTVSPropertyOp2
 70
     1
102
RTVSPropertyOp3
 70
     1
102
RTVSPropertyOp4
 70
     1
102
RTVSPropertyOp5
 70
     1
102
RTVSPropertyOp6
 70
     1
102
RTVSPropertyOp7
 70
     1
102
RTVSPropertyOp8
 70
     1
102
RTVSPropertyOp9
 70
     1
102
RTVSPropertyOp10
 70
     1
102
RTVSPropertyOp11
 70
     1
102
RTVSPropertyOp12
 70
     1
102
RTVSPropertyOp13
 70
     1
102
RTVSPropertyOp14
 70
     1
102
RTVSPropertyOp15
 70
     1
102
RTVSPropertyOp16
 70
     1
102
RTVSPropertyOp17
 70
     1
102
RTVSPropertyOp18
 70
     1
102
RTVSPropertyOp19
 70
     1
102
RTVSPropertyOp20
 70
     1
102
RTVSPropertyOp21
 70
     1
102
RTVSPropertyOp22
 70
     1
102
RTVSPropertyOp23
 70
     1
102
RTVSPropertyOp24
 70
     1
102
RTVSPropertyOp25
 70
     1
102
RTVSPropertyOp26
 70
     1
102
RTVSPropertyOp27
 70
     1
102
RTVSPropertyOp28
 70
     1
102
RTVSPropertyOp29
 70
     1
102
RTVSPropertyOp30
 70
     1
102
RTVSPropertyOp31
 70
     1
102
RTVSPropertyOp32
 70
     1
  0
XRECORD
  5
87
102
{ACAD_REACTORS
330
86
102
}
330
86
100
AcDbXrecord
280
     1
102
RTVSPropertyOp0
 70
     1
102
RTVSPropertyOp1
 70
     1
102
RTVSPropertyOp2
 70
     1
102
RTVSPropertyOp3
 70
     1
102
RTVSPropertyOp4
 70
     1
102
RTVSPropertyOp5
 70
     1
102
RTVSPropertyOp6
 70
     1
102
RTVSPropertyOp7
 70
     1
102
RTVSPropertyOp8
 70
     1
102
RTVSPropertyOp9
 70
     1
102
RTVSPropertyOp10
 70
     1
102
RTVSPropertyOp11
 70
     1
102
RTVSPropertyOp12
 70
     1
102
RTVSPropertyOp13
 70
     1
102
RTVSPropertyOp14
 70
     1
102
RTVSPropertyOp15
 70
     1
102
RTVSPropertyOp16
 70
     1
102
RTVSPropertyOp17
 70
     1
102
RTVSPropertyOp18
 70
     1
102
RTVSPropertyOp19
 70
     1
102
RTVSPropertyOp20
 70
     1
102
RTVSPropertyOp21
 70
     1
102
RTVSPropertyOp22
 70
     1
102
RTVSPropertyOp23
 70
     1
102
RTVSPropertyOp24
 70
     1
102
RTVSPropertyOp25
 70
     1
102
RTVSPropertyOp26
 70
     1
102
RTVSPropertyOp27
 70
     1
102
RTVSPropertyOp28
 70
     1
102
RTVSPropertyOp29
 70
     1
102
RTVSPropertyOp30
 70
     1
102
RTVSPropertyOp31
 70
     1
102
RTVSPropertyOp32
 70
     1
  0
XRECORD
  5
89
102
{ACAD_REACTORS
330
88
102
}
330
88
100
AcDbXrecord
280
     1
102
RTVSPropertyOp0
 70
     1
102
RTVSPropertyOp1
 70
     1
102
RTVSPropertyOp2
 70
     1
102
RTVSPropertyOp3
 70
     1
102
RTVSPropertyOp4
 70
     1
102
RTVSPropertyOp5
 70
     1
102
RTVSPropertyOp6
 70
     1
102
RTVSPropertyOp7
 70
     1
102
RTVSPropertyOp8
 70
     1
102
RTVSPropertyOp9
 70
     1
102
RTVSPropertyOp10
 70
     1
102
RTVSPropertyOp11
 70
     1
102
RTVSPropertyOp12
 70
     1
102
RTVSPropertyOp13
 70
     1
102
RTVSPropertyOp14
 70
     1
102
RTVSPropertyOp15
 70
     1
102
RTVSPropertyOp16
 70
     1
102
RTVSPropertyOp17
 70
     1
102
RTVSPropertyOp18
 70
     1
102
RTVSPropertyOp19
 70
     1
102
RTVSPropertyOp20
 70
     1
102
RTVSPropertyOp21
 70
     1
102
RTVSPropertyOp22
 70
     1
102
RTVSPropertyOp23
 70
     1
102
RTVSPropertyOp24
 70
     1
102
RTVSPropertyOp25
 70
     1
102
RTVSPropertyOp26
 70
     1
102
RTVSPropertyOp27
 70
     1
102
RTVSPropertyOp28
 70
     1
102
RTVSPropertyOp29
 70
     1
102
RTVSPropertyOp30
 70
     1
102
RTVSPropertyOp31
 70
     1
102
RTVSPropertyOp32
 70
     1
  0
XRECORD
  5
91
102
{ACAD_REACTORS
330
90
102
}
330
90
100
AcDbXrecord
280
     1
102
RTVSPropertyOp0
 70
     1
102
RTVSPropertyOp1
 70
     1
102
RTVSPropertyOp2
 70
     1
102
RTVSPropertyOp3
 70
     1
102
RTVSPropertyOp4
 70
     1
102
RTVSPropertyOp5
 70
     1
102
RTVSPropertyOp6
 70
     1
102
RTVSPropertyOp7
 70
     1
102
RTVSPropertyOp8
 70
     1
102
RTVSPropertyOp9
 70
     1
102
RTVSPropertyOp10
 70
     1
102
RTVSPropertyOp11
 70
     1
102
RTVSPropertyOp12
 70
     1
102
RTVSPropertyOp13
 70
     1
102
RTVSPropertyOp14
 70
     1
102
RTVSPropertyOp15
 70
     1
102
RTVSPropertyOp16
 70
     1
102
RTVSPropertyOp17
 70
     1
102
RTVSPropertyOp18
 70
     1
102
RTVSPropertyOp19
 70
     1
102
RTVSPropertyOp20
 70
     1
102
RTVSPropertyOp21
 70
     1
102
RTVSPropertyOp22
 70
     1
102
RTVSPropertyOp23
 70
     1
102
RTVSPropertyOp24
 70
     1
102
RTVSPropertyOp25
 70
     1
102
RTVSPropertyOp26
 70
     1
102
RTVSPropertyOp27
 70
     1
102
RTVSPropertyOp28
 70
     1
102
RTVSPropertyOp29
 70
     1
102
RTVSPropertyOp30
 70
     1
102
RTVSPropertyOp31
 70
     1
102
RTVSPropertyOp32
 70
     1
  0
XRECORD
  5
75
102
{ACAD_REACTORS
330
74
102
}
330
74
100
AcDbXrecord
280
     1
102
RTVSPropertyOp0
 70
     1
102
RTVSPropertyOp1
 70
     1
102
RTVSPropertyOp2
 70
     1
102
RTVSPropertyOp3
 70
     1
102
RTVSPropertyOp4
 70
     1
102
RTVSPropertyOp5
 70
     1
102
RTVSPropertyOp6
 70
     1
102
RTVSPropertyOp7
 70
     1
102
RTVSPropertyOp8
 70
     1
102
RTVSPropertyOp9
 70
     1
102
RTVSPropertyOp10
 70
     1
102
RTVSPropertyOp11
 70
     1
102
RTVSPropertyOp12
 70
     1
102
RTVSPropertyOp13
 70
     1
102
RTVSPropertyOp14
 70
     1
102
RTVSPropertyOp15
 70
     1
102
RTVSPropertyOp16
 70
     1
102
RTVSPropertyOp17
 70
     1
102
RTVSPropertyOp18
 70
     1
102
RTVSPropertyOp19
 70
     1
102
RTVSPropertyOp20
 70
     1
102
RTVSPropertyOp21
 70
     1
102
RTVSPropertyOp22
 70
     1
102
RTVSPropertyOp23
 70
     1
102
RTVSPropertyOp24
 70
     1
102
RTVSPropertyOp25
 70
     1
102
RTVSPropertyOp26
 70
     1
102
RTVSPropertyOp27
 70
     1
102
RTVSPropertyOp28
 70
     1
102
RTVSPropertyOp29
 70
     1
102
RTVSPropertyOp30
 70
     1
102
RTVSPropertyOp31
 70
     1
102
RTVSPropertyOp32
 70
     1
  0
XRECORD
  5
77
102
{ACAD_REACTORS
330
76
102
}
330
76
100
AcDbXrecord
280
     1
102
RTVSPropertyOp0
 70
     1
102
RTVSPropertyOp1
 70
     1
102
RTVSPropertyOp2
 70
     1
102
RTVSPropertyOp3
 70
     1
102
RTVSPropertyOp4
 70
     1
102
RTVSPropertyOp5
 70
     1
102
RTVSPropertyOp6
 70
     1
102
RTVSPropertyOp7
 70
     1
102
RTVSPropertyOp8
 70
     1
102
RTVSPropertyOp9
 70
     1
102
RTVSPropertyOp10
 70
     1
102
RTVSPropertyOp11
 70
     1
102
RTVSPropertyOp12
 70
     1
102
RTVSPropertyOp13
 70
     1
102
RTVSPropertyOp14
 70
     1
102
RTVSPropertyOp15
 70
     1
102
RTVSPropertyOp16
 70
     1
102
RTVSPropertyOp17
 70
     1
102
RTVSPropertyOp18
 70
     1
102
RTVSPropertyOp19
 70
     1
102
RTVSPropertyOp20
 70
     1
102
RTVSPropertyOp21
 70
     1
102
RTVSPropertyOp22
 70
     1
102
RTVSPropertyOp23
 70
     1
102
RTVSPropertyOp24
 70
     1
102
RTVSPropertyOp25
 70
     1
102
RTVSPropertyOp26
 70
     1
102
RTVSPropertyOp27
 70
     1
102
RTVSPropertyOp28
 70
     1
102
RTVSPropertyOp29
 70
     1
102
RTVSPropertyOp30
 70
     1
102
RTVSPropertyOp31
 70
     1
102
RTVSPropertyOp32
 70
     1
  0
XRECORD
  5
79
102
{ACAD_REACTORS
330
78
102
}
330
78
100
AcDbXrecord
280
     1
102
RTVSPropertyOp0
 70
     1
102
RTVSPropertyOp1
 70
     1
102
RTVSPropertyOp2
 70
     1
102
RTVSPropertyOp3
 70
     1
102
RTVSPropertyOp4
 70
     1
102
RTVSPropertyOp5
 70
     1
102
RTVSPropertyOp6
 70
     1
102
RTVSPropertyOp7
 70
     1
102
RTVSPropertyOp8
 70
     1
102
RTVSPropertyOp9
 70
     1
102
RTVSPropertyOp10
 70
     1
102
RTVSPropertyOp11
 70
     1
102
RTVSPropertyOp12
 70
     1
102
RTVSPropertyOp13
 70
     1
102
RTVSPropertyOp14
 70
     1
102
RTVSPropertyOp15
 70
     1
102
RTVSPropertyOp16
 70
     1
102
RTVSPropertyOp17
 70
     1
102
RTVSPropertyOp18
 70
     1
102
RTVSPropertyOp19
 70
     1
102
RTVSPropertyOp20
 70
     1
102
RTVSPropertyOp21
 70
     1
102
RTVSPropertyOp22
 70
     1
102
RTVSPropertyOp23
 70
     1
102
RTVSPropertyOp24
 70
     1
102
RTVSPropertyOp25
 70
     1
102
RTVSPropertyOp26
 70
     1
102
RTVSPropertyOp27
 70
     1
102
RTVSPropertyOp28
 70
     1
102
RTVSPropertyOp29
 70
     1
102
RTVSPropertyOp30
 70
     1
102
RTVSPropertyOp31
 70
     1
102
RTVSPropertyOp32
 70
     1
  0
XRECORD
  5
7B
102
{ACAD_REACTORS
330
7A
102
}
330
7A
100
AcDbXrecord
280
     1
102
RTVSPropertyOp0
 70
     1
102
RTVSPropertyOp1
 70
     1
102
RTVSPropertyOp2
 70
     1
102
RTVSPropertyOp3
 70
     1
102
RTVSPropertyOp4
 70
     1
102
RTVSPropertyOp5
 70
     1
102
RTVSPropertyOp6
 70
     1
102
RTVSPropertyOp7
 70
     1
102
RTVSPropertyOp8
 70
     1
102
RTVSPropertyOp9
 70
     1
102
RTVSPropertyOp10
 70
     1
102
RTVSPropertyOp11
 70
     1
102
RTVSPropertyOp12
 70
     1
102
RTVSPropertyOp13
 70
     1
102
RTVSPropertyOp14
 70
     1
102
RTVSPropertyOp15
 70
     1
102
RTVSPropertyOp16
 70
     1
102
RTVSPropertyOp17
 70
     1
102
RTVSPropertyOp18
 70
     1
102
RTVSPropertyOp19
 70
     1
102
RTVSPropertyOp20
 70
     1
102
RTVSPropertyOp21
 70
     1
102
RTVSPropertyOp22
 70
     1
102
RTVSPropertyOp23
 70
     1
102
RTVSPropertyOp24
 70
     1
102
RTVSPropertyOp25
 70
     1
102
RTVSPropertyOp26
 70
     1
102
RTVSPropertyOp27
 70
     1
102
RTVSPropertyOp28
 70
     1
102
RTVSPropertyOp29
 70
     1
102
RTVSPropertyOp30
 70
     1
102
RTVSPropertyOp31
 70
     1
102
RTVSPropertyOp32
 70
     1
  0
XRECORD
  5
8F
102
{ACAD_REACTORS
330
8E
102
}
330
8E
100
AcDbXrecord
280
     1
102
RTVSPropertyOp0
 70
     1
102
RTVSPropertyOp1
 70
     1
102
RTVSPropertyOp2
 70
     1
102
RTVSPropertyOp3
 70
     1
102
RTVSPropertyOp4
 70
     1
102
RTVSPropertyOp5
 70
     1
102
RTVSPropertyOp6
 70
     1
102
RTVSPropertyOp7
 70
     1
102
RTVSPropertyOp8
 70
     1
102
RTVSPropertyOp9
 70
     1
102
RTVSPropertyOp10
 70
     1
102
RTVSPropertyOp11
 70
     1
102
RTVSPropertyOp12
 70
     1
102
RTVSPropertyOp13
 70
     1
102
RTVSPropertyOp14
 70
     1
102
RTVSPropertyOp15
 70
     1
102
RTVSPropertyOp16
 70
     1
102
RTVSPropertyOp17
 70
     1
102
RTVSPropertyOp18
 70
     1
102
RTVSPropertyOp19
 70
     1
102
RTVSPropertyOp20
 70
     1
102
RTVSPropertyOp21
 70
     1
102
RTVSPropertyOp22
 70
     1
102
RTVSPropertyOp23
 70
     1
102
RTVSPropertyOp24
 70
     1
102
RTVSPropertyOp25
 70
     1
102
RTVSPropertyOp26
 70
     1
102
RTVSPropertyOp27
 70
     1
102
RTVSPropertyOp28
 70
     1
102
RTVSPropertyOp29
 70
     1
102
RTVSPropertyOp30
 70
     1
102
RTVSPropertyOp31
 70
     1
102
RTVSPropertyOp32
 70
     1
  0
XRECORD
  5
85
102
{ACAD_REACTORS
330
84
102
}
330
84
100
AcDbXrecord
280
     1
102
RTVSPropertyOp0
 70
     1
102
RTVSPropertyOp1
 70
     1
102
RTVSPropertyOp2
 70
     1
102
RTVSPropertyOp3
 70
     1
102
RTVSPropertyOp4
 70
     1
102
RTVSPropertyOp5
 70
     1
102
RTVSPropertyOp6
 70
     1
102
RTVSPropertyOp7
 70
     1
102
RTVSPropertyOp8
 70
     1
102
RTVSPropertyOp9
 70
     1
102
RTVSPropertyOp10
 70
     1
102
RTVSPropertyOp11
 70
     1
102
RTVSPropertyOp12
 70
     1
102
RTVSPropertyOp13
 70
     1
102
RTVSPropertyOp14
 70
     1
102
RTVSPropertyOp15
 70
     1
102
RTVSPropertyOp16
 70
     1
102
RTVSPropertyOp17
 70
     1
102
RTVSPropertyOp18
 70
     1
102
RTVSPropertyOp19
 70
     1
102
RTVSPropertyOp20
 70
     1
102
RTVSPropertyOp21
 70
     1
102
RTVSPropertyOp22
 70
     1
102
RTVSPropertyOp23
 70
     1
102
RTVSPropertyOp24
 70
     1
102
RTVSPropertyOp25
 70
     1
102
RTVSPropertyOp26
 70
     1
102
RTVSPropertyOp27
 70
     1
102
RTVSPropertyOp28
 70
     1
102
RTVSPropertyOp29
 70
     1
102
RTVSPropertyOp30
 70
     1
102
RTVSPropertyOp31
 70
     1
102
RTVSPropertyOp32
 70
     1
  0
XRECORD
  5
8D
102
{ACAD_REACTORS
330
8C
102
}
330
8C
100
AcDbXrecord
280
     1
102
RTVSPropertyOp0
 70
     1
102
RTVSPropertyOp1
 70
     1
102
RTVSPropertyOp2
 70
     1
102
RTVSPropertyOp3
 70
     1
102
RTVSPropertyOp4
 70
     1
102
RTVSPropertyOp5
 70
     1
102
RTVSPropertyOp6
 70
     1
102
RTVSPropertyOp7
 70
     1
102
RTVSPropertyOp8
 70
     1
102
RTVSPropertyOp9
 70
     1
102
RTVSPropertyOp10
 70
     1
102
RTVSPropertyOp11
 70
     1
102
RTVSPropertyOp12
 70
     1
102
RTVSPropertyOp13
 70
     1
102
RTVSPropertyOp14
 70
     1
102
RTVSPropertyOp15
 70
     1
102
RTVSPropertyOp16
 70
     1
102
RTVSPropertyOp17
 70
     1
102
RTVSPropertyOp18
 70
     1
102
RTVSPropertyOp19
 70
     1
102
RTVSPropertyOp20
 70
     1
102
RTVSPropertyOp21
 70
     1
102
RTVSPropertyOp22
 70
     1
102
RTVSPropertyOp23
 70
     1
102
RTVSPropertyOp24
 70
     1
102
RTVSPropertyOp25
 70
     1
102
RTVSPropertyOp26
 70
     1
102
RTVSPropertyOp27
 70
     1
102
RTVSPropertyOp28
 70
     1
102
RTVSPropertyOp29
 70
     1
102
RTVSPropertyOp30
 70
     1
102
RTVSPropertyOp31
 70
     1
102
RTVSPropertyOp32
 70
     1
  0
ENDSEC
  0
EOF
