  0
SECTION
  2
HEADER
  9
$ACADVER
  1
AC1021
  9
$ACADMAINTVER
 70
    25
  9
$DWGCODEPAGE
  3
ANSI_1252
  9
$INSBASE
 10
0.0
 20
0.0
 30
0.0
  9
$EXTMIN
 10
-67.9444
 20
-110.6103
 30
0.0
  9
$EXTMAX
 10
115.1946
 20
127.4705
 30
0.0
  9
$LIMMIN
 10
0.0
 20
0.0
  9
$LIMMAX
 10
12.0
 20
9.0
  9
$ORTHOMODE
 70
     0
  9
$REGENMODE
 70
     1
  9
$FILLMODE
 70
     1
  9
$QTEXTMODE
 70
     0
  9
$MIRRTEXT
 70
     1
  9
$LTSCALE
 40
1.0
  9
$ATTMODE
 70
     1
  9
$TEXTSIZE
 40
0.2
  9
$TRACEWID
 40
0.05
  9
$TEXTSTYLE
  7
Standard
  9
$CLAYER
  8
0
  9
$CELTYPE
  6
ByLayer
  9
$CECOLOR
 62
   256
  9
$CELTSCALE
 40
1.0
  9
$DISPSILH
 70
     0
  9
$DIMSCALE
 40
1.0
  9
$DIMASZ
 40
0.18
  9
$DIMEXO
 40
0.0625
  9
$DIMDLI
 40
0.38
  9
$DIMRND
 40
0.0
  9
$DIMDLE
 40
0.0
  9
$DIMEXE
 40
0.18
  9
$DIMTP
 40
0.0
  9
$DIMTM
 40
0.0
  9
$DIMTXT
 40
0.18
  9
$DIMCEN
 40
0.09
  9
$DIMTSZ
 40
0.0
  9
$DIMTOL
 70
     0
  9
$DIMLIM
 70
     0
  9
$DIMTIH
 70
     1
  9
$DIMTOH
 70
     1
  9
$DIMSE1
 70
     0
  9
$DIMSE2
 70
     0
  9
$DIMTAD
 70
     0
  9
$DIMZIN
 70
     0
  9
$DIMBLK
  1

  9
$DIMASO
 70
     1
  9
$DIMSHO
 70
     1
  9
$DIMPOST
  1

  9
$DIMAPOST
  1

  9
$DIMALT
 70
     0
  9
$DIMALTD
 70
     2
  9
$DIMALTF
 40
25.4
  9
$DIMLFAC
 40
1.0
  9
$DIMTOFL
 70
     0
  9
$DIMTVP
 40
0.0
  9
$DIMTIX
 70
     0
  9
$DIMSOXD
 70
     0
  9
$DIMSAH
 70
     0
  9
$DIMBLK1
  1

  9
$DIMBLK2
  1

  9
$DIMSTYLE
  2
Standard
  9
$DIMCLRD
 70
     0
  9
$DIMCLRE
 70
     0
  9
$DIMCLRT
 70
     0
  9
$DIMTFAC
 40
1.0
  9
$DIMGAP
 40
0.09
  9
$DIMJUST
 70
     0
  9
$DIMSD1
 70
     0
  9
$DIMSD2
 70
     0
  9
$DIMTOLJ
 70
     1
  9
$DIMTZIN
 70
     0
  9
$DIMALTZ
 70
     0
  9
$DIMALTTZ
 70
     0
  9
$DIMUPT
 70
     0
  9
$DIMDEC
 70
     4
  9
$DIMTDEC
 70
     4
  9
$DIMALTU
 70
     2
  9
$DIMALTTD
 70
     2
  9
$DIMTXSTY
  7
Standard
  9
$DIMAUNIT
 70
     0
  9
$DIMADEC
 70
     0
  9
$DIMALTRND
 40
0.0
  9
$DIMAZIN
 70
     0
  9
$DIMDSEP
 70
    46
  9
$DIMATFIT
 70
     3
  9
$DIMFRAC
 70
     0
  9
$DIMLDRBLK
  1

  9
$DIMLUNIT
 70
     2
  9
$DIMLWD
 70
    -2
  9
$DIMLWE
 70
    -2
  9
$DIMTMOVE
 70
     0
  9
$DIMFXL
 40
1.0
  9
$DIMFXLON
 70
     0
  9
$DIMJOGANG
 40
0.7853981633974483
  9
$DIMTFILL
 70
     0
  9
$DIMTFILLCLR
 70
     0
  9
$DIMARCSYM
 70
     0
  9
$DIMLTYPE
  6

  9
$DIMLTEX1
  6

  9
$DIMLTEX2
  6

  9
$LUNITS
 70
     2
  9
$LUPREC
 70
     4
  9
$SKETCHINC
 40
0.1
  9
$FILLETRAD
 40
0.5
  9
$AUNITS
 70
     0
  9
$AUPREC
 70
     0
  9
$MENU
  1
.
  9
$ELEVATION
 40
0.0
  9
$PELEVATION
 40
0.0
  9
$THICKNESS
 40
0.0
  9
$LIMCHECK
 70
     0
  9
$CHAMFERA
 40
0.5
  9
$CHAMFERB
 40
0.5
  9
$CHAMFERC
 40
1.0
  9
$CHAMFERD
 40
0.0
  9
$SKPOLY
 70
     0
  9
$TDCREATE
 40
2458493.683462257
  9
$TDUCREATE
 40
2458493.683462257
  9
$TDUPDATE
 40
2458493.683462442
  9
$TDUUPDATE
 40
2458493.683462442
  9
$TDINDWG
 40
0.0000000116
  9
$TDUSRTIMER
 40
0.0000000116
  9
$USRTIMER
 70
     1
  9
$ANGBASE
 50
0.0
  9
$ANGDIR
 70
     0
  9
$PDMODE
 70
     0
  9
$PDSIZE
 40
0.0
  9
$PLINEWID
 40
0.0
  9
$SPLFRAME
 70
     0
  9
$SPLINETYPE
 70
     6
  9
$SPLINESEGS
 70
     8
  9
$HANDSEED
  5
E3
  9
$SURFTAB1
 70
     6
  9
$SURFTAB2
 70
     6
  9
$SURFTYPE
 70
     6
  9
$SURFU
 70
     6
  9
$SURFV
 70
     6
  9
$UCSBASE
  2

  9
$UCSNAME
  2

  9
$UCSORG
 10
0.0
 20
0.0
 30
0.0
  9
$UCSXDIR
 10
1.0
 20
0.0
 30
0.0
  9
$UCSYDIR
 10
0.0
 20
1.0
 30
0.0
  9
$UCSORTHOREF
  2

  9
$UCSORTHOVIEW
 70
     0
  9
$UCSORGTOP
 10
0.0
 20
0.0
 30
0.0
  9
$UCSORGBOTTOM
 10
0.0
 20
0.0
 30
0.0
  9
$UCSORGLEFT
 10
0.0
 20
0.0
 30
0.0
  9
$UCSORGRIGHT
 10
0.0
 20
0.0
 30
0.0
  9
$UCSORGFRONT
 10
0.0
 20
0.0
 30
0.0
  9
$UCSORGBACK
 10
0.0
 20
0.0
 30
0.0
  9
$PUCSBASE
  2

  9
$PUCSNAME
  2

  9
$PUCSORG
 10
0.0
 20
0.0
 30
0.0
  9
$PUCSXDIR
 10
1.0
 20
0.0
 30
0.0
  9
$PUCSYDIR
 10
0.0
 20
1.0
 30
0.0
  9
$PUCSORTHOREF
  2

  9
$PUCSORTHOVIEW
 70
     0
  9
$PUCSORGTOP
 10
0.0
 20
0.0
 30
0.0
  9
$PUCSORGBOTTOM
 10
0.0
 20
0.0
 30
0.0
  9
$PUCSORGLEFT
 10
0.0
 20
0.0
 30
0.0
  9
$PUCSORGRIGHT
 10
0.0
 20
0.0
 30
0.0
  9
$PUCSORGFRONT
 10
0.0
 20
0.0
 30
0.0
  9
$PUCSORGBACK
 10
0.0
 20
0.0
 30
0.0
  9
$USERI1
 70
     0
  9
$USERI2
 70
     0
  9
$USERI3
 70
     0
  9
$USERI4
 70
     0
  9
$USERI5
 70
     0
  9
$USERR1
 40
0.0
  9
$USERR2
 40
0.0
  9
$USERR3
 40
0.0
  9
$USERR4
 40
0.0
  9
$USERR5
 40
0.0
  9
$WORLDVIEW
 70
     1
  9
$SHADEDGE
 70
     3
  9
$SHADEDIF
 70
    70
  9
$TILEMODE
 70
     1
  9
$MAXACTVP
 70
    64
  9
$PINSBASE
 10
0.0
 20
0.0
 30
0.0
  9
$PLIMCHECK
 70
     0
  9
$PEXTMIN
 10
1.000000000000000E+20
 20
1.000000000000000E+20
 30
1.000000000000000E+20
  9
$PEXTMAX
 10
-1.000000000000000E+20
 20
-1.000000000000000E+20
 30
-1.000000000000000E+20
  9
$PLIMMIN
 10
0.0
 20
0.0
  9
$PLIMMAX
 10
12.0
 20
9.0
  9
$UNITMODE
 70
     0
  9
$VISRETAIN
 70
     1
  9
$PLINEGEN
 70
     0
  9
$PSLTSCALE
 70
     1
  9
$TREEDEPTH
 70
  3020
  9
$CMLSTYLE
  2
Standard
  9
$CMLJUST
 70
     0
  9
$CMLSCALE
 40
1.0
  9
$PROXYGRAPHICS
 70
     1
  9
$MEASUREMENT
 70
     0
  9
$CELWEIGHT
370
    -1
  9
$ENDCAPS
280
     0
  9
$JOINSTYLE
280
     0
  9
$LWDISPLAY
290
     0
  9
$INSUNITS
 70
     4
  9
$HYPERLINKBASE
  1

  9
$STYLESHEET
  1

  9
$XEDIT
290
     1
  9
$CEPSNTYPE
380
     0
  9
$PSTYLEMODE
290
     1
  9
$FINGERPRINTGUID
  2
{8977ABAF-64B8-426F-8791-ADAB9704B251}
  9
$VERSIONGUID
  2
{FAEB1C32-E019-11D5-929B-00C0DF256EC4}
  9
$EXTNAMES
290
     1
  9
$PSVPSCALE
 40
0.0
  9
$OLESTARTUP
290
     0
  9
$SORTENTS
280
   127
  9
$INDEXCTL
280
     0
  9
$HIDETEXT
280
     1
  9
$XCLIPFRAME
290
     0
  9
$HALOGAP
280
     0
  9
$OBSCOLOR
 70
   257
  9
$OBSLTYPE
280
     0
  9
$INTERSECTIONDISPLAY
280
     0
  9
$INTERSECTIONCOLOR
 70
   257
  9
$DIMASSOC
280
     2
  9
$PROJECTNAME
  1

  9
$CAMERADISPLAY
290
     0
  9
$LENSLENGTH
 40
50.0
  9
$CAMERAHEIGHT
 40
0.0
  9
$STEPSPERSEC
 40
2.0
  9
$STEPSIZE
 40
6.0
  9
$3DDWFPREC
 40
2.0
  9
$PSOLWIDTH
 40
0.25
  9
$PSOLHEIGHT
 40
4.0
  9
$LOFTANG1
 40
1.570796326794897
  9
$LOFTANG2
 40
1.570796326794897
  9
$LOFTMAG1
 40
0.0
  9
$LOFTMAG2
 40
0.0
  9
$LOFTPARAM
 70
     7
  9
$LOFTNORMALS
280
     1
  9
$LATITUDE
 40
37.795
  9
$LONGITUDE
 40
-122.394
  9
$NORTHDIRECTION
 40
0.0
  9
$TIMEZONE
 70
 -8000
  9
$LIGHTGLYPHDISPLAY
280
     1
  9
$TILEMODELIGHTSYNCH
280
     1
  9
$SOLIDHIST
280
     1
  9
$SHOWHIST
280
     1
  9
$DWFFRAME
280
     2
  9
$DGNFRAME
280
     2
  9
$REALWORLDSCALE
290
     1
  9
$INTERFERECOLOR
 62
   256
  9
$CSHADOW
280
     0
  9
$SHADOWPLANELOCATION
 40
0.0
  0
ENDSEC
  0
SECTION
  2
CLASSES
  0
CLASS
  1
ACDBDICTIONARYWDFLT
  2
AcDbDictionaryWithDefault
  3
ObjectDBX Classes
 90
        0
 91
        4
280
     0
281
     0
  0
CLASS
  1
VISUALSTYLE
  2
AcDbVisualStyle
  3
ObjectDBX Classes
 90
     4095
 91
        4
280
     0
281
     0
  0
CLASS
  1
MATERIAL
  2
AcDbMaterial
  3
ObjectDBX Classes
 90
     1153
 91
        4
280
     0
281
     0
  0
ENDSEC
  0
SECTION
  2
TABLES
  0
TABLE
  2
VPORT
  5
8
330
0
100
AcDbSymbolTable
 70
     1
  0
VPORT
  5
29
330
8
100
AcDbSymbolTableRecord
100
AcDbViewportTableRecord
  2
*Active
 70
     0
 10
0.0
 20
0.0
 11
1.0
 21
1.0
 12
10.42990654205607
 22
4.5
 13
0.0
 23
0.0
 14
0.5
 24
0.5
 15
0.5
 25
0.5
 16
0.0
 26
0.0
 36
1.0
 17
0.0
 27
0.0
 37
0.0
 40
9.0
 41
1.972972972850329
 42
50.0
 43
0.0
 44
0.0
 50
0.0
 51
0.0
 71
     0
 72
   100
 73
     1
 74
     3
 75
     0
 76
     0
 77
     0
 78
     0
281
     0
 65
     1
110
0.0
120
0.0
130
0.0
111
1.0
121
0.0
131
0.0
112
0.0
122
1.0
132
0.0
 79
     0
146
0.0
 60
     3
 61
     5
292
     1
282
     1
141
0.0
142
0.0
 63
   250
  0
ENDTAB
  0
TABLE
  2
LTYPE
  5
5
330
0
100
AcDbSymbolTable
 70
     1
  0
LTYPE
  5
14
330
5
100
AcDbSymbolTableRecord
100
AcDbLinetypeTableRecord
  2
ByBlock
 70
     0
  3

 72
    65
 73
     0
 40
0.0
  0
LTYPE
  5
15
330
5
100
AcDbSymbolTableRecord
100
AcDbLinetypeTableRecord
  2
ByLayer
 70
     0
  3

 72
    65
 73
     0
 40
0.0
  0
LTYPE
  5
16
330
5
100
AcDbSymbolTableRecord
100
AcDbLinetypeTableRecord
  2
Continuous
 70
     0
  3
Solid line
 72
    65
 73
     0
 40
0.0
  0
ENDTAB
  0
TABLE
  2
LAYER
  5
2
330
0
100
AcDbSymbolTable
 70
     3
  0
LAYER
  5
10
330
2
100
AcDbSymbolTableRecord
100
AcDbLayerTableRecord
  2
0
 70
     0
 62
     7
  6
Continuous
370
    -3
390
F
347
3E
  0
LAYER
  5
40
330
2
100
AcDbSymbolTableRecord
100
AcDbLayerTableRecord
  2
layer 1
 70
     0
 62
     7
  6
Continuous
370
    -3
390
F
347
3E
  0
LAYER
  5
C0
330
2
100
AcDbSymbolTableRecord
100
AcDbLayerTableRecord
  2
Master Guides
 70
     0
 62
     7
  6
Continuous
370
    -3
390
F
347
3E
  0
ENDTAB
  0
TABLE
  2
STYLE
  5
3
330
0
100
AcDbSymbolTable
 70
     1
  0
STYLE
  5
11
330
3
100
AcDbSymbolTableRecord
100
AcDbTextStyleTableRecord
  2
Standard
 70
     0
 40
0.0
 41
1.0
 50
0.0
 71
     0
 42
0.2
  3
txt
  4

  0
ENDTAB
  0
TABLE
  2
VIEW
  5
6
330
0
100
AcDbSymbolTable
 70
     0
  0
ENDTAB
  0
TABLE
  2
UCS
  5
7
330
0
100
AcDbSymbolTable
 70
     0
  0
ENDTAB
  0
TABLE
  2
APPID
  5
9
330
0
100
AcDbSymbolTable
 70
     2
  0
APPID
  5
12
330
9
100
AcDbSymbolTableRecord
100
AcDbRegAppTableRecord
  2
ACAD
 70
     0
  0
APPID
  5
3F
330
9
100
AcDbSymbolTableRecord
100
AcDbRegAppTableRecord
  2
ODA
 70
     0
  0
ENDTAB
  0
TABLE
  2
DIMSTYLE
  5
A
330
0
100
AcDbSymbolTable
 70
     1
100
AcDbDimStyleTable
  0
DIMSTYLE
105
27
330
A
100
AcDbSymbolTableRecord
100
AcDbDimStyleTableRecord
  2
Standard
 70
     0
178
     0
340
11
  0
ENDTAB
  0
TABLE
  2
BLOCK_RECORD
  5
1
330
0
100
AcDbSymbolTable
 70
     1
  0
BLOCK_RECORD
  5
1F
330
1
100
AcDbSymbolTableRecord
100
AcDbBlockTableRecord
  2
*Model_Space
340
22
 70
     0
280
     1
281
     0
  0
BLOCK_RECORD
  5
1B
330
1
100
AcDbSymbolTableRecord
100
AcDbBlockTableRecord
  2
*Paper_Space
340
1E
 70
     0
280
     1
281
     0
  0
BLOCK_RECORD
  5
23
330
1
100
AcDbSymbolTableRecord
100
AcDbBlockTableRecord
  2
*Paper_Space0
340
26
 70
     0
280
     1
281
     0
  0
ENDTAB
  0
ENDSEC
  0
SECTION
  2
BLOCKS
  0
BLOCK
  5
20
330
1F
100
AcDbEntity
  8
0
100
AcDbBlockBegin
  2
*Model_Space
 70
     0
 10
0.0
 20
0.0
 30
0.0
  3
*Model_Space
  1

  0
ENDBLK
  5
21
330
1F
100
AcDbEntity
  8
0
100
AcDbBlockEnd
  0
BLOCK
  5
1C
330
1B
100
AcDbEntity
 67
     1
  8
0
100
AcDbBlockBegin
  2
*Paper_Space
 70
     0
 10
0.0
 20
0.0
 30
0.0
  3
*Paper_Space
  1

  0
ENDBLK
  5
1D
330
1B
100
AcDbEntity
 67
     1
  8
0
100
AcDbBlockEnd
  0
BLOCK
  5
24
330
23
100
AcDbEntity
  8
0
100
AcDbBlockBegin
  2
*Paper_Space0
 70
     0
 10
0.0
 20
0.0
 30
0.0
  3
*Paper_Space0
  1

  0
ENDBLK
  5
25
330
23
100
AcDbEntity
  8
0
100
AcDbBlockEnd
  0
ENDSEC
  0
SECTION
  2
ENTITIES
  0
SPLINE
  5
41
330
1F
100
AcDbEntity
  8
layer 1
 62
   250
100
AcDbSpline
210
0.0
220
0.0
230
1.0
 70
    11
 71
     3
 72
    20
 73
    16
 74
     0
 42
0.0000000001
 43
0.0000000001
 12
1.0
 22
0.0
 32
0.0
 13
1.0
 23
0.0
 33
0.0
 40
0.0
 40
0.0
 40
0.0
 40
0.0
 40
0.2
 40
0.2
 40
0.2
 40
0.2
 40
0.4
 40
0.4
 40
0.4
 40
0.4
 40
0.6
 40
0.6
 40
0.6
 40
0.6
 40
1.0
 40
1.0
 40
1.0
 40
1.0
 10
-67.9444
 20
-110.6103
 30
0.0
 10
-67.9444
 20
-110.6103
 30
0.0
 10
-67.9444
 20
127.4705
 30
0.0
 10
-67.9444
 20
127.4705
 30
0.0
 10
-67.9444
 20
127.4705
 30
0.0
 10
-67.9444
 20
127.4705
 30
0.0
 10
115.1946
 20
127.4705
 30
0.0
 10
115.1946
 20
127.4705
 30
0.0
 10
115.1946
 20
127.4705
 30
0.0
 10
115.1946
 20
127.4705
 30
0.0
 10
115.1946
 20
-110.6103
 30
0.0
 10
115.1946
 20
-110.6103
 30
0.0
 10
115.1946
 20
-110.6103
 30
0.0
 10
115.1946
 20
-110.6103
 30
0.0
 10
-67.9444
 20
-110.6103
 30
0.0
 10
-67.9444
 20
-110.6103
 30
0.0
  0
SPLINE
  5
42
330
1F
100
AcDbEntity
  8
layer 1
 62
     7
100
AcDbSpline
210
0.0
220
0.0
230
1.0
 70
    11
 71
     3
 72
    20
 73
    16
 74
     0
 42
0.0000000001
 43
0.0000000001
 12
1.0
 22
0.0
 32
0.0
 13
1.0
 23
0.0
 33
0.0
 40
0.0
 40
0.0
 40
0.0
 40
0.0
 40
0.2
 40
0.2
 40
0.2
 40
0.2
 40
0.4
 40
0.4
 40
0.4
 40
0.4
 40
0.6
 40
0.6
 40
0.6
 40
0.6
 40
1.0
 40
1.0
 40
1.0
 40
1.0
 10
-56.9559
 20
-97.272
 30
0.0
 10
-56.9559
 20
-97.272
 30
0.0
 10
-50.6561
 20
-97.272
 30
0.0
 10
-50.6561
 20
-97.272
 30
0.0
 10
-50.6561
 20
-97.272
 30
0.0
 10
-50.6561
 20
-97.272
 30
0.0
 10
-50.6561
 20
-83.4818
 30
0.0
 10
-50.6561
 20
-83.4818
 30
0.0
 10
-50.6561
 20
-83.4818
 30
0.0
 10
-50.6561
 20
-83.4818
 30
0.0
 10
-56.9559
 20
-77.2016
 30
0.0
 10
-56.9559
 20
-77.2016
 30
0.0
 10
-56.9559
 20
-77.2016
 30
0.0
 10
-56.9559
 20
-77.2016
 30
0.0
 10
-56.9559
 20
-97.272
 30
0.0
 10
-56.9559
 20
-97.272
 30
0.0
  0
SPLINE
  5
43
330
1F
100
AcDbEntity
  8
layer 1
 62
     7
100
AcDbSpline
210
0.0
220
0.0
230
1.0
 70
    11
 71
     3
 72
    16
 73
    12
 74
     0
 42
0.0000000001
 43
0.0000000001
 12
1.0
 22
0.0
 32
0.0
 13
1.0
 23
0.0
 33
0.0
 40
0.0
 40
0.0
 40
0.0
 40
0.0
 40
0.25
 40
0.25
 40
0.25
 40
0.25
 40
0.5
 40
0.5
 40
0.5
 40
0.5
 40
1.0
 40
1.0
 40
1.0
 40
1.0
 10
-56.9559
 20
-68.6558
 30
0.0
 10
-56.9559
 20
-68.6558
 30
0.0
 10
-51.3976
 20
-63.1145
 30
0.0
 10
-51.3976
 20
-63.1145
 30
0.0
 10
-51.3976
 20
-63.1145
 30
0.0
 10
-51.3976
 20
-63.1145
 30
0.0
 10
-56.9559
 20
-57.5734
 30
0.0
 10
-56.9559
 20
-57.5734
 30
0.0
 10
-56.9559
 20
-57.5734
 30
0.0
 10
-56.9559
 20
-57.5734
 30
0.0
 10
-56.9559
 20
-68.6558
 30
0.0
 10
-56.9559
 20
-68.6558
 30
0.0
  0
SPLINE
  5
44
330
1F
100
AcDbEntity
  8
layer 1
 62
     7
100
AcDbSpline
210
0.0
220
0.0
230
1.0
 70
    11
 71
     3
 72
    20
 73
    16
 74
     0
 42
0.0000000001
 43
0.0000000001
 12
1.0
 22
0.0
 32
0.0
 13
1.0
 23
0.0
 33
0.0
 40
0.0
 40
0.0
 40
0.0
 40
0.0
 40
0.2
 40
0.2
 40
0.2
 40
0.2
 40
0.4
 40
0.4
 40
0.4
 40
0.4
 40
0.6
 40
0.6
 40
0.6
 40
0.6
 40
1.0
 40
1.0
 40
1.0
 40
1.0
 10
-56.9559
 20
-49.0276
 30
0.0
 10
-56.9559
 20
-49.0276
 30
0.0
 10
-50.6561
 20
-42.7474
 30
0.0
 10
-50.6561
 20
-42.7474
 30
0.0
 10
-50.6561
 20
-42.7474
 30
0.0
 10
-50.6561
 20
-42.7474
 30
0.0
 10
-50.6561
 20
-28.9572
 30
0.0
 10
-50.6561
 20
-28.9572
 30
0.0
 10
-50.6561
 20
-28.9572
 30
0.0
 10
-50.6561
 20
-28.9572
 30
0.0
 10
-56.9559
 20
-28.9572
 30
0.0
 10
-56.9559
 20
-28.9572
 30
0.0
 10
-56.9559
 20
-28.9572
 30
0.0
 10
-56.9559
 20
-28.9572
 30
0.0
 10
-56.9559
 20
-49.0276
 30
0.0
 10
-56.9559
 20
-49.0276
 30
0.0
  0
SPLINE
  5
45
330
1F
100
AcDbEntity
  8
layer 1
 62
     7
100
AcDbSpline
210
0.0
220
0.0
230
1.0
 70
    11
 71
     3
 72
    20
 73
    16
 74
     0
 42
0.0000000001
 43
0.0000000001
 12
1.0
 22
0.0
 32
0.0
 13
1.0
 23
0.0
 33
0.0
 40
0.0
 40
0.0
 40
0.0
 40
0.0
 40
0.2
 40
0.2
 40
0.2
 40
0.2
 40
0.4
 40
0.4
 40
0.4
 40
0.4
 40
0.6
 40
0.6
 40
0.6
 40
0.6
 40
1.0
 40
1.0
 40
1.0
 40
1.0
 10
-56.9559
 20
-23.4308
 30
0.0
 10
-56.9559
 20
-23.4308
 30
0.0
 10
-50.6561
 20
-23.4308
 30
0.0
 10
-50.6561
 20
-23.4308
 30
0.0
 10
-50.6561
 20
-23.4308
 30
0.0
 10
-50.6561
 20
-23.4308
 30
0.0
 10
-50.6561
 20
-9.6406
 30
0.0
 10
-50.6561
 20
-9.6406
 30
0.0
 10
-50.6561
 20
-9.6406
 30
0.0
 10
-50.6561
 20
-9.6406
 30
0.0
 10
-56.9559
 20
-3.3604
 30
0.0
 10
-56.9559
 20
-3.3604
 30
0.0
 10
-56.9559
 20
-3.3604
 30
0.0
 10
-56.9559
 20
-3.3604
 30
0.0
 10
-56.9559
 20
-23.4308
 30
0.0
 10
-56.9559
 20
-23.4308
 30
0.0
  0
SPLINE
  5
46
330
1F
100
AcDbEntity
  8
layer 1
 62
     7
100
AcDbSpline
210
0.0
220
0.0
230
1.0
 70
    11
 71
     3
 72
    20
 73
    16
 74
     0
 42
0.0000000001
 43
0.0000000001
 12
1.0
 22
0.0
 32
0.0
 13
1.0
 23
0.0
 33
0.0
 40
0.0
 40
0.0
 40
0.0
 40
0.0
 40
0.2
 40
0.2
 40
0.2
 40
0.2
 40
0.4
 40
0.4
 40
0.4
 40
0.4
 40
0.6
 40
0.6
 40
0.6
 40
0.6
 40
1.0
 40
1.0
 40
1.0
 40
1.0
 10
-56.9559
 20
5.3931
 30
0.0
 10
-56.9559
 20
5.3931
 30
0.0
 10
-50.6561
 20
11.6736
 30
0.0
 10
-50.6561
 20
11.6736
 30
0.0
 10
-50.6561
 20
11.6736
 30
0.0
 10
-50.6561
 20
11.6736
 30
0.0
 10
-50.6561
 20
25.4638
 30
0.0
 10
-50.6561
 20
25.4638
 30
0.0
 10
-50.6561
 20
25.4638
 30
0.0
 10
-50.6561
 20
25.4638
 30
0.0
 10
-56.9559
 20
25.4638
 30
0.0
 10
-56.9559
 20
25.4638
 30
0.0
 10
-56.9559
 20
25.4638
 30
0.0
 10
-56.9559
 20
25.4638
 30
0.0
 10
-56.9559
 20
5.3931
 30
0.0
 10
-56.9559
 20
5.3931
 30
0.0
  0
SPLINE
  5
47
330
1F
100
AcDbEntity
  8
layer 1
 62
     7
100
AcDbSpline
210
0.0
220
0.0
230
1.0
 70
    11
 71
     3
 72
    20
 73
    16
 74
     0
 42
0.0000000001
 43
0.0000000001
 12
1.0
 22
0.0
 32
0.0
 13
1.0
 23
0.0
 33
0.0
 40
0.0
 40
0.0
 40
0.0
 40
0.0
 40
0.2
 40
0.2
 40
0.2
 40
0.2
 40
0.4
 40
0.4
 40
0.4
 40
0.4
 40
0.6
 40
0.6
 40
0.6
 40
0.6
 40
1.0
 40
1.0
 40
1.0
 40
1.0
 10
-56.9559
 20
30.99
 30
0.0
 10
-56.9559
 20
30.99
 30
0.0
 10
-50.6561
 20
30.99
 30
0.0
 10
-50.6561
 20
30.99
 30
0.0
 10
-50.6561
 20
30.99
 30
0.0
 10
-50.6561
 20
30.99
 30
0.0
 10
-50.6561
 20
44.7802
 30
0.0
 10
-50.6561
 20
44.7802
 30
0.0
 10
-50.6561
 20
44.7802
 30
0.0
 10
-50.6561
 20
44.7802
 30
0.0
 10
-56.9559
 20
51.0604
 30
0.0
 10
-56.9559
 20
51.0604
 30
0.0
 10
-56.9559
 20
51.0604
 30
0.0
 10
-56.9559
 20
51.0604
 30
0.0
 10
-56.9559
 20
30.99
 30
0.0
 10
-56.9559
 20
30.99
 30
0.0
  0
SPLINE
  5
48
330
1F
100
AcDbEntity
  8
layer 1
 62
     7
100
AcDbSpline
210
0.0
220
0.0
230
1.0
 70
    11
 71
     3
 72
    20
 73
    16
 74
     0
 42
0.0000000001
 43
0.0000000001
 12
1.0
 22
0.0
 32
0.0
 13
1.0
 23
0.0
 33
0.0
 40
0.0
 40
0.0
 40
0.0
 40
0.0
 40
0.2
 40
0.2
 40
0.2
 40
0.2
 40
0.4
 40
0.4
 40
0.4
 40
0.4
 40
0.6
 40
0.6
 40
0.6
 40
0.6
 40
1.0
 40
1.0
 40
1.0
 40
1.0
 10
-56.9559
 20
59.8139
 30
0.0
 10
-56.9559
 20
59.8139
 30
0.0
 10
-50.6561
 20
66.0943
 30
0.0
 10
-50.6561
 20
66.0943
 30
0.0
 10
-50.6561
 20
66.0943
 30
0.0
 10
-50.6561
 20
66.0943
 30
0.0
 10
-50.6561
 20
79.8845
 30
0.0
 10
-50.6561
 20
79.8845
 30
0.0
 10
-50.6561
 20
79.8845
 30
0.0
 10
-50.6561
 20
79.8845
 30
0.0
 10
-56.9559
 20
79.8845
 30
0.0
 10
-56.9559
 20
79.8845
 30
0.0
 10
-56.9559
 20
79.8845
 30
0.0
 10
-56.9559
 20
79.8845
 30
0.0
 10
-56.9559
 20
59.8139
 30
0.0
 10
-56.9559
 20
59.8139
 30
0.0
  0
SPLINE
  5
49
330
1F
100
AcDbEntity
  8
layer 1
 62
     7
100
AcDbSpline
210
0.0
220
0.0
230
1.0
 70
    11
 71
     3
 72
    20
 73
    16
 74
     0
 42
0.0000000001
 43
0.0000000001
 12
1.0
 22
0.0
 32
0.0
 13
1.0
 23
0.0
 33
0.0
 40
0.0
 40
0.0
 40
0.0
 40
0.0
 40
0.2
 40
0.2
 40
0.2
 40
0.2
 40
0.4
 40
0.4
 40
0.4
 40
0.4
 40
0.6
 40
0.6
 40
0.6
 40
0.6
 40
1.0
 40
1.0
 40
1.0
 40
1.0
 10
-56.9559
 20
85.4108
 30
0.0
 10
-56.9559
 20
85.4108
 30
0.0
 10
-50.6561
 20
85.4108
 30
0.0
 10
-50.6561
 20
85.4108
 30
0.0
 10
-50.6561
 20
85.4108
 30
0.0
 10
-50.6561
 20
85.4108
 30
0.0
 10
-50.6561
 20
99.201
 30
0.0
 10
-50.6561
 20
99.201
 30
0.0
 10
-50.6561
 20
99.201
 30
0.0
 10
-50.6561
 20
99.201
 30
0.0
 10
-56.9559
 20
105.4814
 30
0.0
 10
-56.9559
 20
105.4814
 30
0.0
 10
-56.9559
 20
105.4814
 30
0.0
 10
-56.9559
 20
105.4814
 30
0.0
 10
-56.9559
 20
85.4108
 30
0.0
 10
-56.9559
 20
85.4108
 30
0.0
  0
SPLINE
  5
4A
330
1F
100
AcDbEntity
  8
layer 1
 62
     7
100
AcDbSpline
210
0.0
220
0.0
230
1.0
 70
    11
 71
     3
 72
    16
 73
    12
 74
     0
 42
0.0000000001
 43
0.0000000001
 12
1.0
 22
0.0
 32
0.0
 13
1.0
 23
0.0
 33
0.0
 40
0.0
 40
0.0
 40
0.0
 40
0.0
 40
0.25
 40
0.25
 40
0.25
 40
0.25
 40
0.5
 40
0.5
 40
0.5
 40
0.5
 40
1.0
 40
1.0
 40
1.0
 40
1.0
 10
-56.9559
 20
114.2349
 30
0.0
 10
-56.9559
 20
114.2349
 30
0.0
 10
-54.7017
 20
116.4822
 30
0.0
 10
-54.7017
 20
116.4822
 30
0.0
 10
-54.7017
 20
116.4822
 30
0.0
 10
-54.7017
 20
116.4822
 30
0.0
 10
-56.9559
 20
116.4822
 30
0.0
 10
-56.9559
 20
116.4822
 30
0.0
 10
-56.9559
 20
116.4822
 30
0.0
 10
-56.9559
 20
116.4822
 30
0.0
 10
-56.9559
 20
114.2349
 30
0.0
 10
-56.9559
 20
114.2349
 30
0.0
  0
SPLINE
  5
4B
330
1F
100
AcDbEntity
  8
layer 1
 62
     7
100
AcDbSpline
210
0.0
220
0.0
230
1.0
 70
    11
 71
     3
 72
    16
 73
    12
 74
     0
 42
0.0000000001
 43
0.0000000001
 12
1.0
 22
0.0
 32
0.0
 13
1.0
 23
0.0
 33
0.0
 40
0.0
 40
0.0
 40
0.0
 40
0.0
 40
0.25
 40
0.25
 40
0.25
 40
0.25
 40
0.5
 40
0.5
 40
0.5
 40
0.5
 40
1.0
 40
1.0
 40
1.0
 40
1.0
 10
-5.9568
 20
116.4822
 30
0.0
 10
-5.9568
 20
116.4822
 30
0.0
 10
-3.3362
 20
113.8696
 30
0.0
 10
-3.3362
 20
113.8696
 30
0.0
 10
-3.3362
 20
113.8696
 30
0.0
 10
-3.3362
 20
113.8696
 30
0.0
 10
-0.7156
 20
116.4822
 30
0.0
 10
-0.7156
 20
116.4822
 30
0.0
 10
-0.7156
 20
116.4822
 30
0.0
 10
-0.7156
 20
116.4822
 30
0.0
 10
-5.9568
 20
116.4822
 30
0.0
 10
-5.9568
 20
116.4822
 30
0.0
  0
SPLINE
  5
4C
330
1F
100
AcDbEntity
  8
layer 1
 62
     7
100
AcDbSpline
210
0.0
220
0.0
230
1.0
 70
    11
 71
     3
 72
    16
 73
    12
 74
     0
 42
0.0000000001
 43
0.0000000001
 12
1.0
 22
0.0
 32
0.0
 13
1.0
 23
0.0
 33
0.0
 40
0.0
 40
0.0
 40
0.0
 40
0.0
 40
0.25
 40
0.25
 40
0.25
 40
0.25
 40
0.5
 40
0.5
 40
0.5
 40
0.5
 40
1.0
 40
1.0
 40
1.0
 40
1.0
 10
48.0293
 20
116.4822
 30
0.0
 10
48.0293
 20
116.4822
 30
0.0
 10
50.6499
 20
113.8696
 30
0.0
 10
50.6499
 20
113.8696
 30
0.0
 10
50.6499
 20
113.8696
 30
0.0
 10
50.6499
 20
113.8696
 30
0.0
 10
53.2707
 20
116.4822
 30
0.0
 10
53.2707
 20
116.4822
 30
0.0
 10
53.2707
 20
116.4822
 30
0.0
 10
53.2707
 20
116.4822
 30
0.0
 10
48.0293
 20
116.4822
 30
0.0
 10
48.0293
 20
116.4822
 30
0.0
  0
SPLINE
  5
4D
330
1F
100
AcDbEntity
  8
layer 1
 62
     7
100
AcDbSpline
210
0.0
220
0.0
230
1.0
 70
    11
 71
     3
 72
    16
 73
    12
 74
     0
 42
0.0000000001
 43
0.0000000001
 12
1.0
 22
0.0
 32
0.0
 13
1.0
 23
0.0
 33
0.0
 40
0.0
 40
0.0
 40
0.0
 40
0.0
 40
0.25
 40
0.25
 40
0.25
 40
0.25
 40
0.5
 40
0.5
 40
0.5
 40
0.5
 40
1.0
 40
1.0
 40
1.0
 40
1.0
 10
102.0156
 20
116.4822
 30
0.0
 10
102.0156
 20
116.4822
 30
0.0
 10
104.2062
 20
114.2982
 30
0.0
 10
104.2062
 20
114.2982
 30
0.0
 10
104.2062
 20
114.2982
 30
0.0
 10
104.2062
 20
114.2982
 30
0.0
 10
104.2062
 20
116.4822
 30
0.0
 10
104.2062
 20
116.4822
 30
0.0
 10
104.2062
 20
116.4822
 30
0.0
 10
104.2062
 20
116.4822
 30
0.0
 10
102.0156
 20
116.4822
 30
0.0
 10
102.0156
 20
116.4822
 30
0.0
  0
SPLINE
  5
4E
330
1F
100
AcDbEntity
  8
layer 1
 62
     7
100
AcDbSpline
210
0.0
220
0.0
230
1.0
 70
    11
 71
     3
 72
    20
 73
    16
 74
     0
 42
0.0000000001
 43
0.0000000001
 12
1.0
 22
0.0
 32
0.0
 13
1.0
 23
0.0
 33
0.0
 40
0.0
 40
0.0
 40
0.0
 40
0.0
 40
0.2
 40
0.2
 40
0.2
 40
0.2
 40
0.4
 40
0.4
 40
0.4
 40
0.4
 40
0.6
 40
0.6
 40
0.6
 40
0.6
 40
1.0
 40
1.0
 40
1.0
 40
1.0
 10
104.2062
 20
105.4181
 30
0.0
 10
104.2062
 20
105.4181
 30
0.0
 10
97.97
 20
99.201
 30
0.0
 10
97.97
 20
99.201
 30
0.0
 10
97.97
 20
99.201
 30
0.0
 10
97.97
 20
99.201
 30
0.0
 10
97.97
 20
85.4108
 30
0.0
 10
97.97
 20
85.4108
 30
0.0
 10
97.97
 20
85.4108
 30
0.0
 10
97.97
 20
85.4108
 30
0.0
 10
104.2062
 20
85.4108
 30
0.0
 10
104.2062
 20
85.4108
 30
0.0
 10
104.2062
 20
85.4108
 30
0.0
 10
104.2062
 20
85.4108
 30
0.0
 10
104.2062
 20
105.4181
 30
0.0
 10
104.2062
 20
105.4181
 30
0.0
  0
SPLINE
  5
4F
330
1F
100
AcDbEntity
  8
layer 1
 62
     7
100
AcDbSpline
210
0.0
220
0.0
230
1.0
 70
    11
 71
     3
 72
    20
 73
    16
 74
     0
 42
0.0000000001
 43
0.0000000001
 12
1.0
 22
0.0
 32
0.0
 13
1.0
 23
0.0
 33
0.0
 40
0.0
 40
0.0
 40
0.0
 40
0.0
 40
0.2
 40
0.2
 40
0.2
 40
0.2
 40
0.4
 40
0.4
 40
0.4
 40
0.4
 40
0.6
 40
0.6
 40
0.6
 40
0.6
 40
1.0
 40
1.0
 40
1.0
 40
1.0
 10
104.2062
 20
79.8845
 30
0.0
 10
104.2062
 20
79.8845
 30
0.0
 10
97.97
 20
79.8845
 30
0.0
 10
97.97
 20
79.8845
 30
0.0
 10
97.97
 20
79.8845
 30
0.0
 10
97.97
 20
79.8845
 30
0.0
 10
97.97
 20
66.0943
 30
0.0
 10
97.97
 20
66.0943
 30
0.0
 10
97.97
 20
66.0943
 30
0.0
 10
97.97
 20
66.0943
 30
0.0
 10
104.2062
 20
59.8774
 30
0.0
 10
104.2062
 20
59.8774
 30
0.0
 10
104.2062
 20
59.8774
 30
0.0
 10
104.2062
 20
59.8774
 30
0.0
 10
104.2062
 20
79.8845
 30
0.0
 10
104.2062
 20
79.8845
 30
0.0
  0
SPLINE
  5
50
330
1F
100
AcDbEntity
  8
layer 1
 62
     7
100
AcDbSpline
210
0.0
220
0.0
230
1.0
 70
    11
 71
     3
 72
    20
 73
    16
 74
     0
 42
0.0000000001
 43
0.0000000001
 12
1.0
 22
0.0
 32
0.0
 13
1.0
 23
0.0
 33
0.0
 40
0.0
 40
0.0
 40
0.0
 40
0.0
 40
0.2
 40
0.2
 40
0.2
 40
0.2
 40
0.4
 40
0.4
 40
0.4
 40
0.4
 40
0.6
 40
0.6
 40
0.6
 40
0.6
 40
1.0
 40
1.0
 40
1.0
 40
1.0
 10
104.2062
 20
50.9971
 30
0.0
 10
104.2062
 20
50.9971
 30
0.0
 10
97.97
 20
44.7802
 30
0.0
 10
97.97
 20
44.7802
 30
0.0
 10
97.97
 20
44.7802
 30
0.0
 10
97.97
 20
44.7802
 30
0.0
 10
97.97
 20
30.99
 30
0.0
 10
97.97
 20
30.99
 30
0.0
 10
97.97
 20
30.99
 30
0.0
 10
97.97
 20
30.99
 30
0.0
 10
104.2062
 20
30.99
 30
0.0
 10
104.2062
 20
30.99
 30
0.0
 10
104.2062
 20
30.99
 30
0.0
 10
104.2062
 20
30.99
 30
0.0
 10
104.2062
 20
50.9971
 30
0.0
 10
104.2062
 20
50.9971
 30
0.0
  0
SPLINE
  5
51
330
1F
100
AcDbEntity
  8
layer 1
 62
     7
100
AcDbSpline
210
0.0
220
0.0
230
1.0
 70
    11
 71
     3
 72
    20
 73
    16
 74
     0
 42
0.0000000001
 43
0.0000000001
 12
1.0
 22
0.0
 32
0.0
 13
1.0
 23
0.0
 33
0.0
 40
0.0
 40
0.0
 40
0.0
 40
0.0
 40
0.2
 40
0.2
 40
0.2
 40
0.2
 40
0.4
 40
0.4
 40
0.4
 40
0.4
 40
0.6
 40
0.6
 40
0.6
 40
0.6
 40
1.0
 40
1.0
 40
1.0
 40
1.0
 10
104.2062
 20
25.4638
 30
0.0
 10
104.2062
 20
25.4638
 30
0.0
 10
97.97
 20
25.4638
 30
0.0
 10
97.97
 20
25.4638
 30
0.0
 10
97.97
 20
25.4638
 30
0.0
 10
97.97
 20
25.4638
 30
0.0
 10
97.97
 20
11.6736
 30
0.0
 10
97.97
 20
11.6736
 30
0.0
 10
97.97
 20
11.6736
 30
0.0
 10
97.97
 20
11.6736
 30
0.0
 10
104.2062
 20
5.4567
 30
0.0
 10
104.2062
 20
5.4567
 30
0.0
 10
104.2062
 20
5.4567
 30
0.0
 10
104.2062
 20
5.4567
 30
0.0
 10
104.2062
 20
25.4638
 30
0.0
 10
104.2062
 20
25.4638
 30
0.0
  0
SPLINE
  5
52
330
1F
100
AcDbEntity
  8
layer 1
 62
     7
100
AcDbSpline
210
0.0
220
0.0
230
1.0
 70
    11
 71
     3
 72
    20
 73
    16
 74
     0
 42
0.0000000001
 43
0.0000000001
 12
1.0
 22
0.0
 32
0.0
 13
1.0
 23
0.0
 33
0.0
 40
0.0
 40
0.0
 40
0.0
 40
0.0
 40
0.2
 40
0.2
 40
0.2
 40
0.2
 40
0.4
 40
0.4
 40
0.4
 40
0.4
 40
0.6
 40
0.6
 40
0.6
 40
0.6
 40
1.0
 40
1.0
 40
1.0
 40
1.0
 10
104.2062
 20
-3.4237
 30
0.0
 10
104.2062
 20
-3.4237
 30
0.0
 10
97.97
 20
-9.6406
 30
0.0
 10
97.97
 20
-9.6406
 30
0.0
 10
97.97
 20
-9.6406
 30
0.0
 10
97.97
 20
-9.6406
 30
0.0
 10
97.97
 20
-23.4308
 30
0.0
 10
97.97
 20
-23.4308
 30
0.0
 10
97.97
 20
-23.4308
 30
0.0
 10
97.97
 20
-23.4308
 30
0.0
 10
104.2062
 20
-23.4308
 30
0.0
 10
104.2062
 20
-23.4308
 30
0.0
 10
104.2062
 20
-23.4308
 30
0.0
 10
104.2062
 20
-23.4308
 30
0.0
 10
104.2062
 20
-3.4237
 30
0.0
 10
104.2062
 20
-3.4237
 30
0.0
  0
SPLINE
  5
53
330
1F
100
AcDbEntity
  8
layer 1
 62
     7
100
AcDbSpline
210
0.0
220
0.0
230
1.0
 70
    11
 71
     3
 72
    20
 73
    16
 74
     0
 42
0.0000000001
 43
0.0000000001
 12
1.0
 22
0.0
 32
0.0
 13
1.0
 23
0.0
 33
0.0
 40
0.0
 40
0.0
 40
0.0
 40
0.0
 40
0.2
 40
0.2
 40
0.2
 40
0.2
 40
0.4
 40
0.4
 40
0.4
 40
0.4
 40
0.6
 40
0.6
 40
0.6
 40
0.6
 40
1.0
 40
1.0
 40
1.0
 40
1.0
 10
104.2062
 20
-28.9572
 30
0.0
 10
104.2062
 20
-28.9572
 30
0.0
 10
97.97
 20
-28.9572
 30
0.0
 10
97.97
 20
-28.9572
 30
0.0
 10
97.97
 20
-28.9572
 30
0.0
 10
97.97
 20
-28.9572
 30
0.0
 10
97.97
 20
-42.7474
 30
0.0
 10
97.97
 20
-42.7474
 30
0.0
 10
97.97
 20
-42.7474
 30
0.0
 10
97.97
 20
-42.7474
 30
0.0
 10
104.2062
 20
-48.9643
 30
0.0
 10
104.2062
 20
-48.9643
 30
0.0
 10
104.2062
 20
-48.9643
 30
0.0
 10
104.2062
 20
-48.9643
 30
0.0
 10
104.2062
 20
-28.9572
 30
0.0
 10
104.2062
 20
-28.9572
 30
0.0
  0
SPLINE
  5
54
330
1F
100
AcDbEntity
  8
layer 1
 62
     7
100
AcDbSpline
210
0.0
220
0.0
230
1.0
 70
    11
 71
     3
 72
    16
 73
    12
 74
     0
 42
0.0000000001
 43
0.0000000001
 12
1.0
 22
0.0
 32
0.0
 13
1.0
 23
0.0
 33
0.0
 40
0.0
 40
0.0
 40
0.0
 40
0.0
 40
0.25
 40
0.25
 40
0.25
 40
0.25
 40
0.5
 40
0.5
 40
0.5
 40
0.5
 40
1.0
 40
1.0
 40
1.0
 40
1.0
 10
104.2062
 20
-57.6367
 30
0.0
 10
104.2062
 20
-57.6367
 30
0.0
 10
98.7114
 20
-63.1145
 30
0.0
 10
98.7114
 20
-63.1145
 30
0.0
 10
98.7114
 20
-63.1145
 30
0.0
 10
98.7114
 20
-63.1145
 30
0.0
 10
104.2062
 20
-68.5923
 30
0.0
 10
104.2062
 20
-68.5923
 30
0.0
 10
104.2062
 20
-68.5923
 30
0.0
 10
104.2062
 20
-68.5923
 30
0.0
 10
104.2062
 20
-57.6367
 30
0.0
 10
104.2062
 20
-57.6367
 30
0.0
  0
SPLINE
  5
55
330
1F
100
AcDbEntity
  8
layer 1
 62
     7
100
AcDbSpline
210
0.0
220
0.0
230
1.0
 70
    11
 71
     3
 72
    20
 73
    16
 74
     0
 42
0.0000000001
 43
0.0000000001
 12
1.0
 22
0.0
 32
0.0
 13
1.0
 23
0.0
 33
0.0
 40
0.0
 40
0.0
 40
0.0
 40
0.0
 40
0.2
 40
0.2
 40
0.2
 40
0.2
 40
0.4
 40
0.4
 40
0.4
 40
0.4
 40
0.6
 40
0.6
 40
0.6
 40
0.6
 40
1.0
 40
1.0
 40
1.0
 40
1.0
 10
104.2062
 20
-77.2649
 30
0.0
 10
104.2062
 20
-77.2649
 30
0.0
 10
97.97
 20
-83.4818
 30
0.0
 10
97.97
 20
-83.4818
 30
0.0
 10
97.97
 20
-83.4818
 30
0.0
 10
97.97
 20
-83.4818
 30
0.0
 10
97.97
 20
-97.272
 30
0.0
 10
97.97
 20
-97.272
 30
0.0
 10
97.97
 20
-97.272
 30
0.0
 10
97.97
 20
-97.272
 30
0.0
 10
104.2062
 20
-97.272
 30
0.0
 10
104.2062
 20
-97.272
 30
0.0
 10
104.2062
 20
-97.272
 30
0.0
 10
104.2062
 20
-97.272
 30
0.0
 10
104.2062
 20
-77.2649
 30
0.0
 10
104.2062
 20
-77.2649
 30
0.0
  0
SPLINE
  5
56
330
1F
100
AcDbEntity
  8
layer 1
 62
     7
100
AcDbSpline
210
0.0
220
0.0
230
1.0
 70
    11
 71
     3
 72
    28
 73
    24
 74
     0
 42
0.0000000001
 43
0.0000000001
 12
1.0
 22
0.0
 32
0.0
 13
1.0
 23
0.0
 33
0.0
 40
0.0
 40
0.0
 40
0.0
 40
0.0
 40
0.1428571428571428
 40
0.1428571428571428
 40
0.1428571428571428
 40
0.1428571428571428
 40
0.2857142857142857
 40
0.2857142857142857
 40
0.2857142857142857
 40
0.2857142857142857
 40
0.4285714285714285
 40
0.4285714285714285
 40
0.4285714285714285
 40
0.4285714285714285
 40
0.5714285714285714
 40
0.5714285714285714
 40
0.5714285714285714
 40
0.5714285714285714
 40
0.7142857142857143
 40
0.7142857142857143
 40
0.7142857142857143
 40
0.7142857142857143
 40
1.0
 40
1.0
 40
1.0
 40
1.0
 10
88.011
 20
-99.6219
 30
0.0
 10
87.9627
 20
-98.6195
 30
0.0
 10
87.7645
 20
-97.6683
 30
0.0
 10
87.4691
 20
-96.9787
 30
0.0
 10
87.4691
 20
-96.9787
 30
0.0
 10
87.1689
 20
-96.327
 30
0.0
 10
86.6126
 20
-95.5761
 30
0.0
 10
85.8354
 20
-95.5046
 30
0.0
 10
85.8354
 20
-95.5046
 30
0.0
 10
85.1697
 20
-95.5149
 30
0.0
 10
84.5165
 20
-96.2437
 30
0.0
 10
85.0857
 20
-96.7981
 30
0.0
 10
85.0857
 20
-96.7981
 30
0.0
 10
85.6632
 20
-97.1904
 30
0.0
 10
86.0423
 20
-97.4515
 30
0.0
 10
86.1616
 20
-98.2193
 30
0.0
 10
86.1616
 20
-98.2193
 30
0.0
 10
86.1829
 20
-98.8705
 30
0.0
 10
85.9852
 20
-99.3365
 30
0.0
 10
85.6483
 20
-99.6219
 30
0.0
 10
85.6483
 20
-99.6219
 30
0.0
 10
85.6483
 20
-99.6219
 30
0.0
 10
88.011
 20
-99.6219
 30
0.0
 10
88.011
 20
-99.6219
 30
0.0
  0
SPLINE
  5
57
330
1F
100
AcDbEntity
  8
layer 1
 62
     7
100
AcDbSpline
210
0.0
220
0.0
230
1.0
 70
    11
 71
     3
 72
    52
 73
    48
 74
     0
 42
0.0000000001
 43
0.0000000001
 12
1.0
 22
0.0
 32
0.0
 13
1.0
 23
0.0
 33
0.0
 40
0.0
 40
0.0
 40
0.0
 40
0.0
 40
0.0769230769230769
 40
0.0769230769230769
 40
0.0769230769230769
 40
0.0769230769230769
 40
0.1538461538461539
 40
0.1538461538461539
 40
0.1538461538461539
 40
0.1538461538461539
 40
0.2307692307692308
 40
0.2307692307692308
 40
0.2307692307692308
 40
0.2307692307692308
 40
0.3076923076923077
 40
0.3076923076923077
 40
0.3076923076923077
 40
0.3076923076923077
 40
0.3846153846153846
 40
0.3846153846153846
 40
0.3846153846153846
 40
0.3846153846153846
 40
0.4615384615384616
 40
0.4615384615384616
 40
0.4615384615384616
 40
0.4615384615384616
 40
0.5384615384615384
 40
0.5384615384615384
 40
0.5384615384615384
 40
0.5384615384615384
 40
0.6153846153846154
 40
0.6153846153846154
 40
0.6153846153846154
 40
0.6153846153846154
 40
0.6923076923076923
 40
0.6923076923076923
 40
0.6923076923076923
 40
0.6923076923076923
 40
0.7692307692307693
 40
0.7692307692307693
 40
0.7692307692307693
 40
0.7692307692307693
 40
0.8461538461538461
 40
0.8461538461538461
 40
0.8461538461538461
 40
0.8461538461538461
 40
1.0
 40
1.0
 40
1.0
 40
1.0
 10
83.5539
 20
-99.6219
 30
0.0
 10
82.3919
 20
-98.7254
 30
0.0
 10
81.5316
 20
-97.5628
 30
0.0
 10
81.7286
 20
-95.9612
 30
0.0
 10
81.7286
 20
-95.9612
 30
0.0
 10
80.1175
 20
-96.1585
 30
0.0
 10
78.1332
 20
-94.9913
 30
0.0
 10
77.7166
 20
-93.3981
 30
0.0
 10
77.7166
 20
-93.3981
 30
0.0
 10
77.4989
 20
-91.6575
 30
0.0
 10
79.4964
 20
-90.8632
 30
0.0
 10
80.6024
 20
-92.1748
 30
0.0
 10
80.6024
 20
-92.1748
 30
0.0
 10
81.0024
 20
-92.7622
 30
0.0
 10
81.4492
 20
-93.2177
 30
0.0
 10
82.0348
 20
-92.4099
 30
0.0
 10
82.0348
 20
-92.4099
 30
0.0
 10
82.5653
 20
-91.3948
 30
0.0
 10
81.4278
 20
-90.545
 30
0.0
 10
80.6177
 20
-90.2001
 30
0.0
 10
80.6177
 20
-90.2001
 30
0.0
 10
78.6367
 20
-89.419
 30
0.0
 10
74.8154
 20
-89.3917
 30
0.0
 10
73.3949
 20
-91.1255
 30
0.0
 10
73.3949
 20
-91.1255
 30
0.0
 10
72.988
 20
-91.7214
 30
0.0
 10
72.9439
 20
-92.4801
 30
0.0
 10
73.7342
 20
-92.7942
 30
0.0
 10
73.7342
 20
-92.7942
 30
0.0
 10
74.3506
 20
-92.9693
 30
0.0
 10
74.4817
 20
-92.4116
 30
0.0
 10
74.7844
 20
-92.0532
 30
0.0
 10
74.7844
 20
-92.0532
 30
0.0
 10
75.7042
 20
-91.1616
 30
0.0
 10
77.1949
 20
-91.4415
 30
0.0
 10
77.5553
 20
-92.7066
 30
0.0
 10
77.5553
 20
-92.7066
 30
0.0
 10
77.8879
 20
-94.6561
 30
0.0
 10
75.234
 20
-96.1679
 30
0.0
 10
73.5557
 20
-95.9615
 30
0.0
 10
73.5557
 20
-95.9615
 30
0.0
 10
73.7254
 20
-97.2907
 30
0.0
 10
72.9393
 20
-98.8815
 30
0.0
 10
71.7582
 20
-99.6219
 30
0.0
 10
71.7582
 20
-99.6219
 30
0.0
 10
71.7582
 20
-99.6219
 30
0.0
 10
83.5539
 20
-99.6219
 30
0.0
 10
83.5539
 20
-99.6219
 30
0.0
  0
SPLINE
  5
58
330
1F
100
AcDbEntity
  8
layer 1
 62
     7
100
AcDbSpline
210
0.0
220
0.0
230
1.0
 70
    11
 71
     3
 72
    24
 73
    20
 74
     0
 42
0.0000000001
 43
0.0000000001
 12
1.0
 22
0.0
 32
0.0
 13
1.0
 23
0.0
 33
0.0
 40
0.0
 40
0.0
 40
0.0
 40
0.0
 40
0.1666666666666667
 40
0.1666666666666667
 40
0.1666666666666667
 40
0.1666666666666667
 40
0.3333333333333333
 40
0.3333333333333333
 40
0.3333333333333333
 40
0.3333333333333333
 40
0.5
 40
0.5
 40
0.5
 40
0.5
 40
0.6666666666666666
 40
0.6666666666666666
 40
0.6666666666666666
 40
0.6666666666666666
 40
1.0
 40
1.0
 40
1.0
 40
1.0
 10
69.6733
 20
-99.6219
 30
0.0
 10
68.948
 20
-99.0335
 30
0.0
 10
68.8481
 20
-97.8464
 30
0.0
 10
69.7573
 20
-97.084
 30
0.0
 10
69.7573
 20
-97.084
 30
0.0
 10
70.3463
 20
-96.6851
 30
0.0
 10
70.8034
 20
-96.2394
 30
0.0
 10
69.993
 20
-95.6562
 30
0.0
 10
69.993
 20
-95.6562
 30
0.0
 10
68.9469
 20
-95.1121
 30
0.0
 10
68.0803
 20
-96.3049
 30
0.0
 10
67.7391
 20
-97.1628
 30
0.0
 10
67.7391
 20
-97.1628
 30
0.0
 10
67.4768
 20
-97.8754
 30
0.0
 10
67.322
 20
-98.7377
 30
0.0
 10
67.2831
 20
-99.6219
 30
0.0
 10
67.2831
 20
-99.6219
 30
0.0
 10
67.2831
 20
-99.6219
 30
0.0
 10
69.6733
 20
-99.6219
 30
0.0
 10
69.6733
 20
-99.6219
 30
0.0
  0
SPLINE
  5
59
330
1F
100
AcDbEntity
  8
layer 1
 62
     7
100
AcDbSpline
210
0.0
220
0.0
230
1.0
 70
    11
 71
     3
 72
    20
 73
    16
 74
     0
 42
0.0000000001
 43
0.0000000001
 12
1.0
 22
0.0
 32
0.0
 13
1.0
 23
0.0
 33
0.0
 40
0.0
 40
0.0
 40
0.0
 40
0.0
 40
0.2
 40
0.2
 40
0.2
 40
0.2
 40
0.4
 40
0.4
 40
0.4
 40
0.4
 40
0.6
 40
0.6
 40
0.6
 40
0.6
 40
1.0
 40
1.0
 40
1.0
 40
1.0
 10
34.0191
 20
-99.6219
 30
0.0
 10
33.959
 20
-98.0899
 30
0.0
 10
33.5355
 20
-96.5692
 30
0.0
 10
32.5934
 20
-95.8011
 30
0.0
 10
32.5934
 20
-95.8011
 30
0.0
 10
31.595
 20
-95.1237
 30
0.0
 10
30.3263
 20
-96.045
 30
0.0
 10
31.0996
 20
-96.7981
 30
0.0
 10
31.0996
 20
-96.7981
 30
0.0
 10
32.1253
 20
-97.4948
 30
0.0
 10
32.6823
 20
-98.7345
 30
0.0
 10
31.6493
 20
-99.6219
 30
0.0
 10
31.6493
 20
-99.6219
 30
0.0
 10
31.6493
 20
-99.6219
 30
0.0
 10
34.0191
 20
-99.6219
 30
0.0
 10
34.0191
 20
-99.6219
 30
0.0
  0
SPLINE
  5
5A
330
1F
100
AcDbEntity
  8
layer 1
 62
     7
100
AcDbSpline
210
0.0
220
0.0
230
1.0
 70
    11
 71
     3
 72
    48
 73
    44
 74
     0
 42
0.0000000001
 43
0.0000000001
 12
1.0
 22
0.0
 32
0.0
 13
1.0
 23
0.0
 33
0.0
 40
0.0
 40
0.0
 40
0.0
 40
0.0
 40
0.0833333333333333
 40
0.0833333333333333
 40
0.0833333333333333
 40
0.0833333333333333
 40
0.1666666666666667
 40
0.1666666666666667
 40
0.1666666666666667
 40
0.1666666666666667
 40
0.25
 40
0.25
 40
0.25
 40
0.25
 40
0.3333333333333333
 40
0.3333333333333333
 40
0.3333333333333333
 40
0.3333333333333333
 40
0.4166666666666667
 40
0.4166666666666667
 40
0.4166666666666667
 40
0.4166666666666667
 40
0.5
 40
0.5
 40
0.5
 40
0.5
 40
0.5833333333333334
 40
0.5833333333333334
 40
0.5833333333333334
 40
0.5833333333333334
 40
0.6666666666666666
 40
0.6666666666666666
 40
0.6666666666666666
 40
0.6666666666666666
 40
0.75
 40
0.75
 40
0.75
 40
0.75
 40
0.8333333333333334
 40
0.8333333333333334
 40
0.8333333333333334
 40
0.8333333333333334
 40
1.0
 40
1.0
 40
1.0
 40
1.0
 10
29.4897
 20
-99.6219
 30
0.0
 10
28.3667
 20
-98.8602
 30
0.0
 10
27.6028
 20
-97.0961
 30
0.0
 10
27.7425
 20
-95.9612
 30
0.0
 10
27.7425
 20
-95.9612
 30
0.0
 10
26.0354
 20
-96.1701
 30
0.0
 10
23.4118
 20
-94.6518
 30
0.0
 10
23.7427
 20
-92.7068
 30
0.0
 10
23.7427
 20
-92.7068
 30
0.0
 10
24.1206
 20
-91.3817
 30
0.0
 10
25.7439
 20
-91.1405
 30
0.0
 10
26.6163
 20
-92.1748
 30
0.0
 10
26.6163
 20
-92.1748
 30
0.0
 10
27.0165
 20
-92.7624
 30
0.0
 10
27.4633
 20
-93.2175
 30
0.0
 10
28.0487
 20
-92.4099
 30
0.0
 10
28.0487
 20
-92.4099
 30
0.0
 10
28.0487
 20
-92.4099
 30
0.0
 10
28.1354
 20
-92.2441
 30
0.0
 10
28.1354
 20
-92.2441
 30
0.0
 10
28.1354
 20
-92.2441
 30
0.0
 10
29.1592
 20
-89.2748
 30
0.0
 10
19.4125
 20
-88.6145
 30
0.0
 10
19.1113
 20
-91.8676
 30
0.0
 10
19.1113
 20
-91.8676
 30
0.0
 10
19.1251
 20
-92.7813
 30
0.0
 10
20.0315
 20
-93.1671
 30
0.0
 10
20.5548
 20
-92.4007
 30
0.0
 10
20.5548
 20
-92.4007
 30
0.0
 10
21.2515
 20
-91.1059
 30
0.0
 10
23.169
 20
-91.3011
 30
0.0
 10
23.5692
 20
-92.7066
 30
0.0
 10
23.5692
 20
-92.7066
 30
0.0
 10
23.9018
 20
-94.6557
 30
0.0
 10
21.2485
 20
-96.1679
 30
0.0
 10
19.5694
 20
-95.9615
 30
0.0
 10
19.5694
 20
-95.9615
 30
0.0
 10
19.7262
 20
-97.1876
 30
0.0
 10
18.9696
 20
-98.8916
 30
0.0
 10
17.8053
 20
-99.6219
 30
0.0
 10
17.8053
 20
-99.6219
 30
0.0
 10
17.8053
 20
-99.6219
 30
0.0
 10
29.4897
 20
-99.6219
 30
0.0
 10
29.4897
 20
-99.6219
 30
0.0
  0
SPLINE
  5
5B
330
1F
100
AcDbEntity
  8
layer 1
 62
     7
100
AcDbSpline
210
0.0
220
0.0
230
1.0
 70
    11
 71
     3
 72
    24
 73
    20
 74
     0
 42
0.0000000001
 43
0.0000000001
 12
1.0
 22
0.0
 32
0.0
 13
1.0
 23
0.0
 33
0.0
 40
0.0
 40
0.0
 40
0.0
 40
0.0
 40
0.1666666666666667
 40
0.1666666666666667
 40
0.1666666666666667
 40
0.1666666666666667
 40
0.3333333333333333
 40
0.3333333333333333
 40
0.3333333333333333
 40
0.3333333333333333
 40
0.5
 40
0.5
 40
0.5
 40
0.5
 40
0.6666666666666666
 40
0.6666666666666666
 40
0.6666666666666666
 40
0.6666666666666666
 40
1.0
 40
1.0
 40
1.0
 40
1.0
 10
15.6764
 20
-99.6219
 30
0.0
 10
14.9298
 20
-98.995
 30
0.0
 10
14.9268
 20
-97.7919
 30
0.0
 10
15.7709
 20
-97.084
 30
0.0
 10
15.7709
 20
-97.084
 30
0.0
 10
16.3604
 20
-96.6851
 30
0.0
 10
16.8173
 20
-96.2396
 30
0.0
 10
16.0069
 20
-95.6562
 30
0.0
 10
16.0069
 20
-95.6562
 30
0.0
 10
14.9599
 20
-95.1113
 30
0.0
 10
14.0966
 20
-96.2993
 30
0.0
 10
13.753
 20
-97.1628
 30
0.0
 10
13.753
 20
-97.1628
 30
0.0
 10
13.4961
 20
-97.8604
 30
0.0
 10
13.3415
 20
-98.7285
 30
0.0
 10
13.3017
 20
-99.6219
 30
0.0
 10
13.3017
 20
-99.6219
 30
0.0
 10
13.3017
 20
-99.6219
 30
0.0
 10
15.6764
 20
-99.6219
 30
0.0
 10
15.6764
 20
-99.6219
 30
0.0
  0
SPLINE
  5
5C
330
1F
100
AcDbEntity
  8
layer 1
 62
     7
100
AcDbSpline
210
0.0
220
0.0
230
1.0
 70
    11
 71
     3
 72
    20
 73
    16
 74
     0
 42
0.0000000001
 43
0.0000000001
 12
1.0
 22
0.0
 32
0.0
 13
1.0
 23
0.0
 33
0.0
 40
0.0
 40
0.0
 40
0.0
 40
0.0
 40
0.2
 40
0.2
 40
0.2
 40
0.2
 40
0.4
 40
0.4
 40
0.4
 40
0.4
 40
0.6
 40
0.6
 40
0.6
 40
0.6
 40
1.0
 40
1.0
 40
1.0
 40
1.0
 10
-19.967
 20
-99.6219
 30
0.0
 10
-20.0271
 20
-98.0899
 30
0.0
 10
-20.4506
 20
-96.5692
 30
0.0
 10
-21.3927
 20
-95.8011
 30
0.0
 10
-21.3927
 20
-95.8011
 30
0.0
 10
-22.3911
 20
-95.1237
 30
0.0
 10
-23.6598
 20
-96.045
 30
0.0
 10
-22.8864
 20
-96.7981
 30
0.0
 10
-22.8864
 20
-96.7981
 30
0.0
 10
-21.8608
 20
-97.4948
 30
0.0
 10
-21.3038
 20
-98.7345
 30
0.0
 10
-22.337
 20
-99.6219
 30
0.0
 10
-22.337
 20
-99.6219
 30
0.0
 10
-22.337
 20
-99.6219
 30
0.0
 10
-19.967
 20
-99.6219
 30
0.0
 10
-19.967
 20
-99.6219
 30
0.0
  0
SPLINE
  5
5D
330
1F
100
AcDbEntity
  8
layer 1
 62
     7
100
AcDbSpline
210
0.0
220
0.0
230
1.0
 70
    11
 71
     3
 72
    48
 73
    44
 74
     0
 42
0.0000000001
 43
0.0000000001
 12
1.0
 22
0.0
 32
0.0
 13
1.0
 23
0.0
 33
0.0
 40
0.0
 40
0.0
 40
0.0
 40
0.0
 40
0.0833333333333333
 40
0.0833333333333333
 40
0.0833333333333333
 40
0.0833333333333333
 40
0.1666666666666667
 40
0.1666666666666667
 40
0.1666666666666667
 40
0.1666666666666667
 40
0.25
 40
0.25
 40
0.25
 40
0.25
 40
0.3333333333333333
 40
0.3333333333333333
 40
0.3333333333333333
 40
0.3333333333333333
 40
0.4166666666666667
 40
0.4166666666666667
 40
0.4166666666666667
 40
0.4166666666666667
 40
0.5
 40
0.5
 40
0.5
 40
0.5
 40
0.5833333333333334
 40
0.5833333333333334
 40
0.5833333333333334
 40
0.5833333333333334
 40
0.6666666666666666
 40
0.6666666666666666
 40
0.6666666666666666
 40
0.6666666666666666
 40
0.75
 40
0.75
 40
0.75
 40
0.75
 40
0.8333333333333334
 40
0.8333333333333334
 40
0.8333333333333334
 40
0.8333333333333334
 40
1.0
 40
1.0
 40
1.0
 40
1.0
 10
-24.4964
 20
-99.6219
 30
0.0
 10
-25.6194
 20
-98.8602
 30
0.0
 10
-26.3833
 20
-97.0961
 30
0.0
 10
-26.2436
 20
-95.9612
 30
0.0
 10
-26.2436
 20
-95.9612
 30
0.0
 10
-27.9507
 20
-96.1701
 30
0.0
 10
-30.5743
 20
-94.6518
 30
0.0
 10
-30.2436
 20
-92.7068
 30
0.0
 10
-30.2436
 20
-92.7068
 30
0.0
 10
-29.8655
 20
-91.3817
 30
0.0
 10
-28.2422
 20
-91.1405
 30
0.0
 10
-27.3698
 20
-92.1748
 30
0.0
 10
-27.3698
 20
-92.1748
 30
0.0
 10
-26.9696
 20
-92.7624
 30
0.0
 10
-26.5228
 20
-93.2175
 30
0.0
 10
-25.9374
 20
-92.4099
 30
0.0
 10
-25.9374
 20
-92.4099
 30
0.0
 10
-25.9374
 20
-92.4099
 30
0.0
 10
-25.8509
 20
-92.2441
 30
0.0
 10
-25.8509
 20
-92.2441
 30
0.0
 10
-25.8509
 20
-92.2441
 30
0.0
 10
-24.8269
 20
-89.2748
 30
0.0
 10
-34.5736
 20
-88.6145
 30
0.0
 10
-34.8748
 20
-91.8676
 30
0.0
 10
-34.8748
 20
-91.8676
 30
0.0
 10
-34.861
 20
-92.7813
 30
0.0
 10
-33.9549
 20
-93.1671
 30
0.0
 10
-33.4313
 20
-92.4007
 30
0.0
 10
-33.4313
 20
-92.4007
 30
0.0
 10
-32.7346
 20
-91.1059
 30
0.0
 10
-30.8173
 20
-91.3011
 30
0.0
 10
-30.4169
 20
-92.7066
 30
0.0
 10
-30.4169
 20
-92.7066
 30
0.0
 10
-30.0843
 20
-94.6557
 30
0.0
 10
-32.7378
 20
-96.1679
 30
0.0
 10
-34.4167
 20
-95.9615
 30
0.0
 10
-34.4167
 20
-95.9615
 30
0.0
 10
-34.2599
 20
-97.1876
 30
0.0
 10
-35.0165
 20
-98.8916
 30
0.0
 10
-36.1808
 20
-99.6219
 30
0.0
 10
-36.1808
 20
-99.6219
 30
0.0
 10
-36.1808
 20
-99.6219
 30
0.0
 10
-24.4964
 20
-99.6219
 30
0.0
 10
-24.4964
 20
-99.6219
 30
0.0
  0
SPLINE
  5
5E
330
1F
100
AcDbEntity
  8
layer 1
 62
     7
100
AcDbSpline
210
0.0
220
0.0
230
1.0
 70
    11
 71
     3
 72
    24
 73
    20
 74
     0
 42
0.0000000001
 43
0.0000000001
 12
1.0
 22
0.0
 32
0.0
 13
1.0
 23
0.0
 33
0.0
 40
0.0
 40
0.0
 40
0.0
 40
0.0
 40
0.1666666666666667
 40
0.1666666666666667
 40
0.1666666666666667
 40
0.1666666666666667
 40
0.3333333333333333
 40
0.3333333333333333
 40
0.3333333333333333
 40
0.3333333333333333
 40
0.5
 40
0.5
 40
0.5
 40
0.5
 40
0.6666666666666666
 40
0.6666666666666666
 40
0.6666666666666666
 40
0.6666666666666666
 40
1.0
 40
1.0
 40
1.0
 40
1.0
 10
-38.3097
 20
-99.6219
 30
0.0
 10
-39.0563
 20
-98.995
 30
0.0
 10
-39.0593
 20
-97.7919
 30
0.0
 10
-38.2151
 20
-97.084
 30
0.0
 10
-38.2151
 20
-97.084
 30
0.0
 10
-37.6257
 20
-96.6851
 30
0.0
 10
-37.1688
 20
-96.2396
 30
0.0
 10
-37.9792
 20
-95.6562
 30
0.0
 10
-37.9792
 20
-95.6562
 30
0.0
 10
-39.0262
 20
-95.1113
 30
0.0
 10
-39.8897
 20
-96.2993
 30
0.0
 10
-40.2331
 20
-97.1628
 30
0.0
 10
-40.2331
 20
-97.1628
 30
0.0
 10
-40.49
 20
-97.8604
 30
0.0
 10
-40.6446
 20
-98.7285
 30
0.0
 10
-40.6844
 20
-99.6219
 30
0.0
 10
-40.6844
 20
-99.6219
 30
0.0
 10
-40.6844
 20
-99.6219
 30
0.0
 10
-38.3097
 20
-99.6219
 30
0.0
 10
-38.3097
 20
-99.6219
 30
0.0
  0
SPLINE
  5
5F
330
1F
100
AcDbEntity
  8
layer 1
 62
     7
100
AcDbSpline
210
0.0
220
0.0
230
1.0
 70
    11
 71
     3
 72
    32
 73
    28
 74
     0
 42
0.0000000001
 43
0.0000000001
 12
1.0
 22
0.0
 32
0.0
 13
1.0
 23
0.0
 33
0.0
 40
0.0
 40
0.0
 40
0.0
 40
0.0
 40
0.125
 40
0.125
 40
0.125
 40
0.125
 40
0.25
 40
0.25
 40
0.25
 40
0.25
 40
0.375
 40
0.375
 40
0.375
 40
0.375
 40
0.5
 40
0.5
 40
0.5
 40
0.5
 40
0.625
 40
0.625
 40
0.625
 40
0.625
 40
0.75
 40
0.75
 40
0.75
 40
0.75
 40
1.0
 40
1.0
 40
1.0
 40
1.0
 10
-43.5267
 20
-97.272
 30
0.0
 10
-43.5267
 20
-97.272
 30
0.0
 10
-45.1124
 20
-97.272
 30
0.0
 10
-45.1124
 20
-97.272
 30
0.0
 10
-45.1124
 20
-97.272
 30
0.0
 10
-45.1124
 20
-97.272
 30
0.0
 10
-45.1124
 20
-85.2982
 30
0.0
 10
-45.1124
 20
-85.2982
 30
0.0
 10
-45.1124
 20
-85.2982
 30
0.0
 10
-45.1124
 20
-85.2982
 30
0.0
 10
-33.101
 20
-85.2982
 30
0.0
 10
-33.101
 20
-85.2982
 30
0.0
 10
-33.101
 20
-85.2982
 30
0.0
 10
-33.101
 20
-85.2982
 30
0.0
 10
-33.101
 20
-86.8684
 30
0.0
 10
-33.101
 20
-86.8684
 30
0.0
 10
-33.101
 20
-86.8684
 30
0.0
 10
-36.0099
 20
-87.5763
 30
0.0
 10
-38.0476
 20
-89.3288
 30
0.0
 10
-37.9359
 20
-92.4532
 30
0.0
 10
-37.9359
 20
-92.4532
 30
0.0
 10
-40.5757
 20
-92.3587
 30
0.0
 10
-42.2556
 20
-93.745
 30
0.0
 10
-43.2034
 20
-96.1464
 30
0.0
 10
-43.2034
 20
-96.1464
 30
0.0
 10
-43.3284
 20
-96.501
 30
0.0
 10
-43.4365
 20
-96.8786
 30
0.0
 10
-43.5267
 20
-97.272
 30
0.0
  0
SPLINE
  5
60
330
1F
100
AcDbEntity
  8
layer 1
 62
     7
100
AcDbSpline
210
0.0
220
0.0
230
1.0
 70
    11
 71
     3
 72
    32
 73
    28
 74
     0
 42
0.0000000001
 43
0.0000000001
 12
1.0
 22
0.0
 32
0.0
 13
1.0
 23
0.0
 33
0.0
 40
0.0
 40
0.0
 40
0.0
 40
0.0
 40
0.125
 40
0.125
 40
0.125
 40
0.125
 40
0.25
 40
0.25
 40
0.25
 40
0.25
 40
0.375
 40
0.375
 40
0.375
 40
0.375
 40
0.5
 40
0.5
 40
0.5
 40
0.5
 40
0.625
 40
0.625
 40
0.625
 40
0.625
 40
0.75
 40
0.75
 40
0.75
 40
0.75
 40
1.0
 40
1.0
 40
1.0
 40
1.0
 10
10.4594
 20
-97.272
 30
0.0
 10
10.4594
 20
-97.272
 30
0.0
 10
8.8737
 20
-97.272
 30
0.0
 10
8.8737
 20
-97.272
 30
0.0
 10
8.8737
 20
-97.272
 30
0.0
 10
8.8737
 20
-97.272
 30
0.0
 10
8.8737
 20
-85.2982
 30
0.0
 10
8.8737
 20
-85.2982
 30
0.0
 10
8.8737
 20
-85.2982
 30
0.0
 10
8.8737
 20
-85.2982
 30
0.0
 10
20.8851
 20
-85.2982
 30
0.0
 10
20.8851
 20
-85.2982
 30
0.0
 10
20.8851
 20
-85.2982
 30
0.0
 10
20.8851
 20
-85.2982
 30
0.0
 10
20.8851
 20
-86.8684
 30
0.0
 10
20.8851
 20
-86.8684
 30
0.0
 10
20.8851
 20
-86.8684
 30
0.0
 10
17.9762
 20
-87.5763
 30
0.0
 10
15.9384
 20
-89.3288
 30
0.0
 10
16.0502
 20
-92.4532
 30
0.0
 10
16.0502
 20
-92.4532
 30
0.0
 10
13.4104
 20
-92.3587
 30
0.0
 10
11.7307
 20
-93.745
 30
0.0
 10
10.7827
 20
-96.1464
 30
0.0
 10
10.7827
 20
-96.1464
 30
0.0
 10
10.6576
 20
-96.501
 30
0.0
 10
10.5496
 20
-96.8786
 30
0.0
 10
10.4594
 20
-97.272
 30
0.0
  0
SPLINE
  5
61
330
1F
100
AcDbEntity
  8
layer 1
 62
     7
100
AcDbSpline
210
0.0
220
0.0
230
1.0
 70
    11
 71
     3
 72
    24
 73
    20
 74
     0
 42
0.0000000001
 43
0.0000000001
 12
1.0
 22
0.0
 32
0.0
 13
1.0
 23
0.0
 33
0.0
 40
0.0
 40
0.0
 40
0.0
 40
0.0
 40
0.1666666666666667
 40
0.1666666666666667
 40
0.1666666666666667
 40
0.1666666666666667
 40
0.3333333333333333
 40
0.3333333333333333
 40
0.3333333333333333
 40
0.3333333333333333
 40
0.5
 40
0.5
 40
0.5
 40
0.5
 40
0.6666666666666666
 40
0.6666666666666666
 40
0.6666666666666666
 40
0.6666666666666666
 40
1.0
 40
1.0
 40
1.0
 40
1.0
 10
3.33
 20
-97.272
 30
0.0
 10
3.33
 20
-97.272
 30
0.0
 10
-10.0024
 20
-97.272
 30
0.0
 10
-10.0024
 20
-97.272
 30
0.0
 10
-10.0024
 20
-97.272
 30
0.0
 10
-10.0024
 20
-97.272
 30
0.0
 10
-10.0024
 20
-83.4818
 30
0.0
 10
-10.0024
 20
-83.4818
 30
0.0
 10
-10.0024
 20
-83.4818
 30
0.0
 10
-10.0024
 20
-83.4818
 30
0.0
 10
-3.3362
 20
-76.8364
 30
0.0
 10
-3.3362
 20
-76.8364
 30
0.0
 10
-3.3362
 20
-76.8364
 30
0.0
 10
-3.3362
 20
-76.8364
 30
0.0
 10
3.33
 20
-83.4818
 30
0.0
 10
3.33
 20
-83.4818
 30
0.0
 10
3.33
 20
-83.4818
 30
0.0
 10
3.33
 20
-83.4818
 30
0.0
 10
3.33
 20
-97.272
 30
0.0
 10
3.33
 20
-97.272
 30
0.0
  0
SPLINE
  5
62
330
1F
100
AcDbEntity
  8
layer 1
 62
     7
100
AcDbSpline
210
0.0
220
0.0
230
1.0
 70
    11
 71
     3
 72
    28
 73
    24
 74
     0
 42
0.0000000001
 43
0.0000000001
 12
1.0
 22
0.0
 32
0.0
 13
1.0
 23
0.0
 33
0.0
 40
0.0
 40
0.0
 40
0.0
 40
0.0
 40
0.1428571428571428
 40
0.1428571428571428
 40
0.1428571428571428
 40
0.1428571428571428
 40
0.2857142857142857
 40
0.2857142857142857
 40
0.2857142857142857
 40
0.2857142857142857
 40
0.4285714285714285
 40
0.4285714285714285
 40
0.4285714285714285
 40
0.4285714285714285
 40
0.5714285714285714
 40
0.5714285714285714
 40
0.5714285714285714
 40
0.5714285714285714
 40
0.7142857142857143
 40
0.7142857142857143
 40
0.7142857142857143
 40
0.7142857142857143
 40
1.0
 40
1.0
 40
1.0
 40
1.0
 10
-15.5461
 20
-97.272
 30
0.0
 10
-15.5461
 20
-97.272
 30
0.0
 10
-17.1169
 20
-97.272
 30
0.0
 10
-17.1169
 20
-97.272
 30
0.0
 10
-17.1169
 20
-97.272
 30
0.0
 10
-17.7604
 20
-94.5508
 30
0.0
 10
-19.4863
 20
-92.3372
 30
0.0
 10
-22.7245
 20
-92.4532
 30
0.0
 10
-22.7245
 20
-92.4532
 30
0.0
 10
-22.6122
 20
-89.3363
 30
0.0
 10
-24.645
 20
-87.5612
 30
0.0
 10
-27.5573
 20
-86.8718
 30
0.0
 10
-27.5573
 20
-86.8718
 30
0.0
 10
-27.5573
 20
-86.8718
 30
0.0
 10
-27.5573
 20
-85.2982
 30
0.0
 10
-27.5573
 20
-85.2982
 30
0.0
 10
-27.5573
 20
-85.2982
 30
0.0
 10
-27.5573
 20
-85.2982
 30
0.0
 10
-15.5461
 20
-85.2982
 30
0.0
 10
-15.5461
 20
-85.2982
 30
0.0
 10
-15.5461
 20
-85.2982
 30
0.0
 10
-15.5461
 20
-85.2982
 30
0.0
 10
-15.5461
 20
-97.272
 30
0.0
 10
-15.5461
 20
-97.272
 30
0.0
  0
SPLINE
  5
63
330
1F
100
AcDbEntity
  8
layer 1
 62
     7
100
AcDbSpline
210
0.0
220
0.0
230
1.0
 70
    11
 71
     3
 72
    28
 73
    24
 74
     0
 42
0.0000000001
 43
0.0000000001
 12
1.0
 22
0.0
 32
0.0
 13
1.0
 23
0.0
 33
0.0
 40
0.0
 40
0.0
 40
0.0
 40
0.0
 40
0.1428571428571428
 40
0.1428571428571428
 40
0.1428571428571428
 40
0.1428571428571428
 40
0.2857142857142857
 40
0.2857142857142857
 40
0.2857142857142857
 40
0.2857142857142857
 40
0.4285714285714285
 40
0.4285714285714285
 40
0.4285714285714285
 40
0.4285714285714285
 40
0.5714285714285714
 40
0.5714285714285714
 40
0.5714285714285714
 40
0.5714285714285714
 40
0.7142857142857143
 40
0.7142857142857143
 40
0.7142857142857143
 40
0.7142857142857143
 40
1.0
 40
1.0
 40
1.0
 40
1.0
 10
64.434
 20
-97.272
 30
0.0
 10
64.434
 20
-97.272
 30
0.0
 10
62.86
 20
-97.272
 30
0.0
 10
62.86
 20
-97.272
 30
0.0
 10
62.86
 20
-97.272
 30
0.0
 10
62.86
 20
-97.272
 30
0.0
 10
62.86
 20
-85.2982
 30
0.0
 10
62.86
 20
-85.2982
 30
0.0
 10
62.86
 20
-85.2982
 30
0.0
 10
62.86
 20
-85.2982
 30
0.0
 10
74.8712
 20
-85.2982
 30
0.0
 10
74.8712
 20
-85.2982
 30
0.0
 10
74.8712
 20
-85.2982
 30
0.0
 10
74.8712
 20
-85.2982
 30
0.0
 10
74.8712
 20
-86.8684
 30
0.0
 10
74.8712
 20
-86.8684
 30
0.0
 10
74.8712
 20
-86.8684
 30
0.0
 10
71.9621
 20
-87.5763
 30
0.0
 10
69.9245
 20
-89.329
 30
0.0
 10
70.0363
 20
-92.4532
 30
0.0
 10
70.0363
 20
-92.4532
 30
0.0
 10
66.9028
 20
-92.3408
 30
0.0
 10
65.1366
 20
-94.3696
 30
0.0
 10
64.434
 20
-97.272
 30
0.0
  0
SPLINE
  5
64
330
1F
100
AcDbEntity
  8
layer 1
 62
     7
100
AcDbSpline
210
0.0
220
0.0
230
1.0
 70
    11
 71
     3
 72
    24
 73
    20
 74
     0
 42
0.0000000001
 43
0.0000000001
 12
1.0
 22
0.0
 32
0.0
 13
1.0
 23
0.0
 33
0.0
 40
0.0
 40
0.0
 40
0.0
 40
0.0
 40
0.1666666666666667
 40
0.1666666666666667
 40
0.1666666666666667
 40
0.1666666666666667
 40
0.3333333333333333
 40
0.3333333333333333
 40
0.3333333333333333
 40
0.3333333333333333
 40
0.5
 40
0.5
 40
0.5
 40
0.5
 40
0.6666666666666666
 40
0.6666666666666666
 40
0.6666666666666666
 40
0.6666666666666666
 40
1.0
 40
1.0
 40
1.0
 40
1.0
 10
57.3163
 20
-97.272
 30
0.0
 10
57.3163
 20
-97.272
 30
0.0
 10
43.9836
 20
-97.272
 30
0.0
 10
43.9836
 20
-97.272
 30
0.0
 10
43.9836
 20
-97.272
 30
0.0
 10
43.9836
 20
-97.272
 30
0.0
 10
43.9836
 20
-83.4818
 30
0.0
 10
43.9836
 20
-83.4818
 30
0.0
 10
43.9836
 20
-83.4818
 30
0.0
 10
43.9836
 20
-83.4818
 30
0.0
 10
50.6499
 20
-76.8364
 30
0.0
 10
50.6499
 20
-76.8364
 30
0.0
 10
50.6499
 20
-76.8364
 30
0.0
 10
50.6499
 20
-76.8364
 30
0.0
 10
57.3163
 20
-83.4818
 30
0.0
 10
57.3163
 20
-83.4818
 30
0.0
 10
57.3163
 20
-83.4818
 30
0.0
 10
57.3163
 20
-83.4818
 30
0.0
 10
57.3163
 20
-97.272
 30
0.0
 10
57.3163
 20
-97.272
 30
0.0
  0
SPLINE
  5
65
330
1F
100
AcDbEntity
  8
layer 1
 62
     7
100
AcDbSpline
210
0.0
220
0.0
230
1.0
 70
    11
 71
     3
 72
    28
 73
    24
 74
     0
 42
0.0000000001
 43
0.0000000001
 12
1.0
 22
0.0
 32
0.0
 13
1.0
 23
0.0
 33
0.0
 40
0.0
 40
0.0
 40
0.0
 40
0.0
 40
0.1428571428571428
 40
0.1428571428571428
 40
0.1428571428571428
 40
0.1428571428571428
 40
0.2857142857142857
 40
0.2857142857142857
 40
0.2857142857142857
 40
0.2857142857142857
 40
0.4285714285714285
 40
0.4285714285714285
 40
0.4285714285714285
 40
0.4285714285714285
 40
0.5714285714285714
 40
0.5714285714285714
 40
0.5714285714285714
 40
0.5714285714285714
 40
0.7142857142857143
 40
0.7142857142857143
 40
0.7142857142857143
 40
0.7142857142857143
 40
1.0
 40
1.0
 40
1.0
 40
1.0
 10
38.44
 20
-97.272
 30
0.0
 10
38.44
 20
-97.272
 30
0.0
 10
36.8692
 20
-97.272
 30
0.0
 10
36.8692
 20
-97.272
 30
0.0
 10
36.8692
 20
-97.272
 30
0.0
 10
36.2256
 20
-94.5508
 30
0.0
 10
34.4998
 20
-92.3372
 30
0.0
 10
31.2618
 20
-92.4532
 30
0.0
 10
31.2618
 20
-92.4532
 30
0.0
 10
31.3739
 20
-89.3363
 30
0.0
 10
29.3411
 20
-87.5612
 30
0.0
 10
26.4288
 20
-86.8718
 30
0.0
 10
26.4288
 20
-86.8718
 30
0.0
 10
26.4288
 20
-86.8718
 30
0.0
 10
26.4288
 20
-85.2982
 30
0.0
 10
26.4288
 20
-85.2982
 30
0.0
 10
26.4288
 20
-85.2982
 30
0.0
 10
26.4288
 20
-85.2982
 30
0.0
 10
38.44
 20
-85.2982
 30
0.0
 10
38.44
 20
-85.2982
 30
0.0
 10
38.44
 20
-85.2982
 30
0.0
 10
38.44
 20
-85.2982
 30
0.0
 10
38.44
 20
-97.272
 30
0.0
 10
38.44
 20
-97.272
 30
0.0
  0
SPLINE
  5
66
330
1F
100
AcDbEntity
  8
layer 1
 62
     7
100
AcDbSpline
210
0.0
220
0.0
230
1.0
 70
    11
 71
     3
 72
    32
 73
    28
 74
     0
 42
0.0000000001
 43
0.0000000001
 12
1.0
 22
0.0
 32
0.0
 13
1.0
 23
0.0
 33
0.0
 40
0.0
 40
0.0
 40
0.0
 40
0.0
 40
0.125
 40
0.125
 40
0.125
 40
0.125
 40
0.25
 40
0.25
 40
0.25
 40
0.25
 40
0.375
 40
0.375
 40
0.375
 40
0.375
 40
0.5
 40
0.5
 40
0.5
 40
0.5
 40
0.625
 40
0.625
 40
0.625
 40
0.625
 40
0.75
 40
0.75
 40
0.75
 40
0.75
 40
1.0
 40
1.0
 40
1.0
 40
1.0
 10
92.4263
 20
-97.272
 30
0.0
 10
92.4263
 20
-97.272
 30
0.0
 10
90.8497
 20
-97.272
 30
0.0
 10
90.8497
 20
-97.272
 30
0.0
 10
90.8497
 20
-97.272
 30
0.0
 10
90.5784
 20
-96.1647
 30
0.0
 10
90.1794
 20
-95.2047
 30
0.0
 10
89.4952
 20
-94.2936
 30
0.0
 10
89.4952
 20
-94.2936
 30
0.0
 10
88.3582
 20
-92.9393
 30
0.0
 10
86.9995
 20
-92.3903
 30
0.0
 10
85.2479
 20
-92.4532
 30
0.0
 10
85.2479
 20
-92.4532
 30
0.0
 10
85.36
 20
-89.3363
 30
0.0
 10
83.327
 20
-87.5612
 30
0.0
 10
80.4149
 20
-86.8718
 30
0.0
 10
80.4149
 20
-86.8718
 30
0.0
 10
80.4149
 20
-86.8718
 30
0.0
 10
80.4149
 20
-85.2982
 30
0.0
 10
80.4149
 20
-85.2982
 30
0.0
 10
80.4149
 20
-85.2982
 30
0.0
 10
80.4149
 20
-85.2982
 30
0.0
 10
92.4263
 20
-85.2982
 30
0.0
 10
92.4263
 20
-85.2982
 30
0.0
 10
92.4263
 20
-85.2982
 30
0.0
 10
92.4263
 20
-85.2982
 30
0.0
 10
92.4263
 20
-97.272
 30
0.0
 10
92.4263
 20
-97.272
 30
0.0
  0
SPLINE
  5
67
330
1F
100
AcDbEntity
  8
layer 1
 62
     7
100
AcDbSpline
210
0.0
220
0.0
230
1.0
 70
    11
 71
     3
 72
    28
 73
    24
 74
     0
 42
0.0000000001
 43
0.0000000001
 12
1.0
 22
0.0
 32
0.0
 13
1.0
 23
0.0
 33
0.0
 40
0.0
 40
0.0
 40
0.0
 40
0.0
 40
0.1428571428571428
 40
0.1428571428571428
 40
0.1428571428571428
 40
0.1428571428571428
 40
0.2857142857142857
 40
0.2857142857142857
 40
0.2857142857142857
 40
0.2857142857142857
 40
0.4285714285714285
 40
0.4285714285714285
 40
0.4285714285714285
 40
0.4285714285714285
 40
0.5714285714285714
 40
0.5714285714285714
 40
0.5714285714285714
 40
0.5714285714285714
 40
0.7142857142857143
 40
0.7142857142857143
 40
0.7142857142857143
 40
0.7142857142857143
 40
1.0
 40
1.0
 40
1.0
 40
1.0
 10
-45.1124
 20
-28.9572
 30
0.0
 10
-45.1124
 20
-28.9572
 30
0.0
 10
-43.5407
 20
-28.9572
 30
0.0
 10
-43.5407
 20
-28.9572
 30
0.0
 10
-43.5407
 20
-28.9572
 30
0.0
 10
-42.8976
 20
-31.6762
 30
0.0
 10
-41.1757
 20
-33.8912
 30
0.0
 10
-37.9359
 20
-33.776
 30
0.0
 10
-37.9359
 20
-33.776
 30
0.0
 10
-38.0474
 20
-36.8941
 30
0.0
 10
-36.0148
 20
-38.668
 30
0.0
 10
-33.101
 20
-39.3578
 30
0.0
 10
-33.101
 20
-39.3578
 30
0.0
 10
-33.101
 20
-39.3578
 30
0.0
 10
-33.101
 20
-40.931
 30
0.0
 10
-33.101
 20
-40.931
 30
0.0
 10
-33.101
 20
-40.931
 30
0.0
 10
-33.101
 20
-40.931
 30
0.0
 10
-45.1124
 20
-40.931
 30
0.0
 10
-45.1124
 20
-40.931
 30
0.0
 10
-45.1124
 20
-40.931
 30
0.0
 10
-45.1124
 20
-40.931
 30
0.0
 10
-45.1124
 20
-28.9572
 30
0.0
 10
-45.1124
 20
-28.9572
 30
0.0
  0
SPLINE
  5
68
330
1F
100
AcDbEntity
  8
layer 1
 62
     7
100
AcDbSpline
210
0.0
220
0.0
230
1.0
 70
    11
 71
     3
 72
    32
 73
    28
 74
     0
 42
0.0000000001
 43
0.0000000001
 12
1.0
 22
0.0
 32
0.0
 13
1.0
 23
0.0
 33
0.0
 40
0.0
 40
0.0
 40
0.0
 40
0.0
 40
0.125
 40
0.125
 40
0.125
 40
0.125
 40
0.25
 40
0.25
 40
0.25
 40
0.25
 40
0.375
 40
0.375
 40
0.375
 40
0.375
 40
0.5
 40
0.5
 40
0.5
 40
0.5
 40
0.625
 40
0.625
 40
0.625
 40
0.625
 40
0.75
 40
0.75
 40
0.75
 40
0.75
 40
1.0
 40
1.0
 40
1.0
 40
1.0
 10
-43.5267
 20
-23.4308
 30
0.0
 10
-43.5267
 20
-23.4308
 30
0.0
 10
-45.1124
 20
-23.4308
 30
0.0
 10
-45.1124
 20
-23.4308
 30
0.0
 10
-45.1124
 20
-23.4308
 30
0.0
 10
-45.1124
 20
-23.4308
 30
0.0
 10
-45.1124
 20
-11.4568
 30
0.0
 10
-45.1124
 20
-11.4568
 30
0.0
 10
-45.1124
 20
-11.4568
 30
0.0
 10
-45.1124
 20
-11.4568
 30
0.0
 10
-33.101
 20
-11.4568
 30
0.0
 10
-33.101
 20
-11.4568
 30
0.0
 10
-33.101
 20
-11.4568
 30
0.0
 10
-33.101
 20
-11.4568
 30
0.0
 10
-33.101
 20
-13.0274
 30
0.0
 10
-33.101
 20
-13.0274
 30
0.0
 10
-33.101
 20
-13.0274
 30
0.0
 10
-36.0099
 20
-13.7353
 30
0.0
 10
-38.0476
 20
-15.4876
 30
0.0
 10
-37.9359
 20
-18.612
 30
0.0
 10
-37.9359
 20
-18.612
 30
0.0
 10
-40.5757
 20
-18.5173
 30
0.0
 10
-42.2556
 20
-19.9038
 30
0.0
 10
-43.2034
 20
-22.305
 30
0.0
 10
-43.2034
 20
-22.305
 30
0.0
 10
-43.3284
 20
-22.6596
 30
0.0
 10
-43.4365
 20
-23.0372
 30
0.0
 10
-43.5267
 20
-23.4308
 30
0.0
  0
SPLINE
  5
69
330
1F
100
AcDbEntity
  8
layer 1
 62
     7
100
AcDbSpline
210
0.0
220
0.0
230
1.0
 70
    11
 71
     3
 72
    32
 73
    28
 74
     0
 42
0.0000000001
 43
0.0000000001
 12
1.0
 22
0.0
 32
0.0
 13
1.0
 23
0.0
 33
0.0
 40
0.0
 40
0.0
 40
0.0
 40
0.0
 40
0.125
 40
0.125
 40
0.125
 40
0.125
 40
0.25
 40
0.25
 40
0.25
 40
0.25
 40
0.375
 40
0.375
 40
0.375
 40
0.375
 40
0.5
 40
0.5
 40
0.5
 40
0.5
 40
0.625
 40
0.625
 40
0.625
 40
0.625
 40
0.75
 40
0.75
 40
0.75
 40
0.75
 40
1.0
 40
1.0
 40
1.0
 40
1.0
 10
-17.1331
 20
-28.9572
 30
0.0
 10
-17.1331
 20
-28.9572
 30
0.0
 10
-15.5461
 20
-28.9572
 30
0.0
 10
-15.5461
 20
-28.9572
 30
0.0
 10
-15.5461
 20
-28.9572
 30
0.0
 10
-15.5461
 20
-28.9572
 30
0.0
 10
-15.5461
 20
-40.931
 30
0.0
 10
-15.5461
 20
-40.931
 30
0.0
 10
-15.5461
 20
-40.931
 30
0.0
 10
-15.5461
 20
-40.931
 30
0.0
 10
-27.5573
 20
-40.931
 30
0.0
 10
-27.5573
 20
-40.931
 30
0.0
 10
-27.5573
 20
-40.931
 30
0.0
 10
-27.5573
 20
-40.931
 30
0.0
 10
-27.5573
 20
-39.3602
 30
0.0
 10
-27.5573
 20
-39.3602
 30
0.0
 10
-27.5573
 20
-39.3602
 30
0.0
 10
-24.6465
 20
-38.6516
 30
0.0
 10
-22.6117
 20
-36.9025
 30
0.0
 10
-22.7245
 20
-33.776
 30
0.0
 10
-22.7245
 20
-33.776
 30
0.0
 10
-20.0887
 20
-33.8697
 30
0.0
 10
-18.4096
 20
-32.489
 30
0.0
 10
-17.4605
 20
-30.0921
 30
0.0
 10
-17.4605
 20
-30.0921
 30
0.0
 10
-17.3337
 20
-29.7345
 30
0.0
 10
-17.2244
 20
-29.3536
 30
0.0
 10
-17.1331
 20
-28.9572
 30
0.0
  0
SPLINE
  5
6A
330
1F
100
AcDbEntity
  8
layer 1
 62
     7
100
AcDbSpline
210
0.0
220
0.0
230
1.0
 70
    11
 71
     3
 72
    24
 73
    20
 74
     0
 42
0.0000000001
 43
0.0000000001
 12
1.0
 22
0.0
 32
0.0
 13
1.0
 23
0.0
 33
0.0
 40
0.0
 40
0.0
 40
0.0
 40
0.0
 40
0.1666666666666667
 40
0.1666666666666667
 40
0.1666666666666667
 40
0.1666666666666667
 40
0.3333333333333333
 40
0.3333333333333333
 40
0.3333333333333333
 40
0.3333333333333333
 40
0.5
 40
0.5
 40
0.5
 40
0.5
 40
0.6666666666666666
 40
0.6666666666666666
 40
0.6666666666666666
 40
0.6666666666666666
 40
1.0
 40
1.0
 40
1.0
 40
1.0
 10
-10.0024
 20
-28.9572
 30
0.0
 10
-10.0024
 20
-28.9572
 30
0.0
 10
3.33
 20
-28.9572
 30
0.0
 10
3.33
 20
-28.9572
 30
0.0
 10
3.33
 20
-28.9572
 30
0.0
 10
3.33
 20
-28.9572
 30
0.0
 10
3.33
 20
-42.7474
 30
0.0
 10
3.33
 20
-42.7474
 30
0.0
 10
3.33
 20
-42.7474
 30
0.0
 10
3.33
 20
-42.7474
 30
0.0
 10
-3.3362
 20
-49.3928
 30
0.0
 10
-3.3362
 20
-49.3928
 30
0.0
 10
-3.3362
 20
-49.3928
 30
0.0
 10
-3.3362
 20
-49.3928
 30
0.0
 10
-10.0024
 20
-42.7474
 30
0.0
 10
-10.0024
 20
-42.7474
 30
0.0
 10
-10.0024
 20
-42.7474
 30
0.0
 10
-10.0024
 20
-42.7474
 30
0.0
 10
-10.0024
 20
-28.9572
 30
0.0
 10
-10.0024
 20
-28.9572
 30
0.0
  0
SPLINE
  5
6B
330
1F
100
AcDbEntity
  8
layer 1
 62
     7
100
AcDbSpline
210
0.0
220
0.0
230
1.0
 70
    11
 71
     3
 72
    28
 73
    24
 74
     0
 42
0.0000000001
 43
0.0000000001
 12
1.0
 22
0.0
 32
0.0
 13
1.0
 23
0.0
 33
0.0
 40
0.0
 40
0.0
 40
0.0
 40
0.0
 40
0.1428571428571428
 40
0.1428571428571428
 40
0.1428571428571428
 40
0.1428571428571428
 40
0.2857142857142857
 40
0.2857142857142857
 40
0.2857142857142857
 40
0.2857142857142857
 40
0.4285714285714285
 40
0.4285714285714285
 40
0.4285714285714285
 40
0.4285714285714285
 40
0.5714285714285714
 40
0.5714285714285714
 40
0.5714285714285714
 40
0.5714285714285714
 40
0.7142857142857143
 40
0.7142857142857143
 40
0.7142857142857143
 40
0.7142857142857143
 40
1.0
 40
1.0
 40
1.0
 40
1.0
 10
8.8737
 20
-28.9572
 30
0.0
 10
8.8737
 20
-28.9572
 30
0.0
 10
10.4456
 20
-28.9572
 30
0.0
 10
10.4456
 20
-28.9572
 30
0.0
 10
10.4456
 20
-28.9572
 30
0.0
 10
11.0885
 20
-31.6762
 30
0.0
 10
12.8104
 20
-33.8912
 30
0.0
 10
16.0502
 20
-33.776
 30
0.0
 10
16.0502
 20
-33.776
 30
0.0
 10
15.9387
 20
-36.8941
 30
0.0
 10
17.9715
 20
-38.668
 30
0.0
 10
20.8851
 20
-39.3578
 30
0.0
 10
20.8851
 20
-39.3578
 30
0.0
 10
20.8851
 20
-39.3578
 30
0.0
 10
20.8851
 20
-40.931
 30
0.0
 10
20.8851
 20
-40.931
 30
0.0
 10
20.8851
 20
-40.931
 30
0.0
 10
20.8851
 20
-40.931
 30
0.0
 10
8.8737
 20
-40.931
 30
0.0
 10
8.8737
 20
-40.931
 30
0.0
 10
8.8737
 20
-40.931
 30
0.0
 10
8.8737
 20
-40.931
 30
0.0
 10
8.8737
 20
-28.9572
 30
0.0
 10
8.8737
 20
-28.9572
 30
0.0
  0
SPLINE
  5
6C
330
1F
100
AcDbEntity
  8
layer 1
 62
     7
100
AcDbSpline
210
0.0
220
0.0
230
1.0
 70
    11
 71
     3
 72
    32
 73
    28
 74
     0
 42
0.0000000001
 43
0.0000000001
 12
1.0
 22
0.0
 32
0.0
 13
1.0
 23
0.0
 33
0.0
 40
0.0
 40
0.0
 40
0.0
 40
0.0
 40
0.125
 40
0.125
 40
0.125
 40
0.125
 40
0.25
 40
0.25
 40
0.25
 40
0.25
 40
0.375
 40
0.375
 40
0.375
 40
0.375
 40
0.5
 40
0.5
 40
0.5
 40
0.5
 40
0.625
 40
0.625
 40
0.625
 40
0.625
 40
0.75
 40
0.75
 40
0.75
 40
0.75
 40
1.0
 40
1.0
 40
1.0
 40
1.0
 10
10.4594
 20
-23.4308
 30
0.0
 10
10.4594
 20
-23.4308
 30
0.0
 10
8.8737
 20
-23.4308
 30
0.0
 10
8.8737
 20
-23.4308
 30
0.0
 10
8.8737
 20
-23.4308
 30
0.0
 10
8.8737
 20
-23.4308
 30
0.0
 10
8.8737
 20
-11.4568
 30
0.0
 10
8.8737
 20
-11.4568
 30
0.0
 10
8.8737
 20
-11.4568
 30
0.0
 10
12.4676
 20
-11.4568
 30
0.0
 10
16.0614
 20
-11.4568
 30
0.0
 10
19.6547
 20
-11.4568
 30
0.0
 10
19.6547
 20
-11.4568
 30
0.0
 10
21.2044
 20
-11.4568
 30
0.0
 10
20.8851
 20
-11.0635
 30
0.0
 10
20.8851
 20
-13.0274
 30
0.0
 10
20.8851
 20
-13.0274
 30
0.0
 10
17.9762
 20
-13.7353
 30
0.0
 10
15.9384
 20
-15.4876
 30
0.0
 10
16.0502
 20
-18.612
 30
0.0
 10
16.0502
 20
-18.612
 30
0.0
 10
13.4104
 20
-18.5173
 30
0.0
 10
11.7307
 20
-19.9038
 30
0.0
 10
10.7827
 20
-22.305
 30
0.0
 10
10.7827
 20
-22.305
 30
0.0
 10
10.6576
 20
-22.6596
 30
0.0
 10
10.5496
 20
-23.0372
 30
0.0
 10
10.4594
 20
-23.4308
 30
0.0
  0
SPLINE
  5
6D
330
1F
100
AcDbEntity
  8
layer 1
 62
     7
100
AcDbSpline
210
0.0
220
0.0
230
1.0
 70
    11
 71
     3
 72
    24
 73
    20
 74
     0
 42
0.0000000001
 43
0.0000000001
 12
1.0
 22
0.0
 32
0.0
 13
1.0
 23
0.0
 33
0.0
 40
0.0
 40
0.0
 40
0.0
 40
0.0
 40
0.1666666666666667
 40
0.1666666666666667
 40
0.1666666666666667
 40
0.1666666666666667
 40
0.3333333333333333
 40
0.3333333333333333
 40
0.3333333333333333
 40
0.3333333333333333
 40
0.5
 40
0.5
 40
0.5
 40
0.5
 40
0.6666666666666666
 40
0.6666666666666666
 40
0.6666666666666666
 40
0.6666666666666666
 40
1.0
 40
1.0
 40
1.0
 40
1.0
 10
3.33
 20
-23.4308
 30
0.0
 10
3.33
 20
-23.4308
 30
0.0
 10
-10.0024
 20
-23.4308
 30
0.0
 10
-10.0024
 20
-23.4308
 30
0.0
 10
-10.0024
 20
-23.4308
 30
0.0
 10
-10.0024
 20
-23.4308
 30
0.0
 10
-10.0024
 20
-9.6406
 30
0.0
 10
-10.0024
 20
-9.6406
 30
0.0
 10
-10.0024
 20
-9.6406
 30
0.0
 10
-10.0024
 20
-9.6406
 30
0.0
 10
-3.3362
 20
-2.9952
 30
0.0
 10
-3.3362
 20
-2.9952
 30
0.0
 10
-3.3362
 20
-2.9952
 30
0.0
 10
-3.3362
 20
-2.9952
 30
0.0
 10
3.33
 20
-9.6406
 30
0.0
 10
3.33
 20
-9.6406
 30
0.0
 10
3.33
 20
-9.6406
 30
0.0
 10
3.33
 20
-9.6406
 30
0.0
 10
3.33
 20
-23.4308
 30
0.0
 10
3.33
 20
-23.4308
 30
0.0
  0
SPLINE
  5
6E
330
1F
100
AcDbEntity
  8
layer 1
 62
     7
100
AcDbSpline
210
0.0
220
0.0
230
1.0
 70
    11
 71
     3
 72
    28
 73
    24
 74
     0
 42
0.0000000001
 43
0.0000000001
 12
1.0
 22
0.0
 32
0.0
 13
1.0
 23
0.0
 33
0.0
 40
0.0
 40
0.0
 40
0.0
 40
0.0
 40
0.1428571428571428
 40
0.1428571428571428
 40
0.1428571428571428
 40
0.1428571428571428
 40
0.2857142857142857
 40
0.2857142857142857
 40
0.2857142857142857
 40
0.2857142857142857
 40
0.4285714285714285
 40
0.4285714285714285
 40
0.4285714285714285
 40
0.4285714285714285
 40
0.5714285714285714
 40
0.5714285714285714
 40
0.5714285714285714
 40
0.5714285714285714
 40
0.7142857142857143
 40
0.7142857142857143
 40
0.7142857142857143
 40
0.7142857142857143
 40
1.0
 40
1.0
 40
1.0
 40
1.0
 10
-15.5461
 20
-23.4308
 30
0.0
 10
-15.5461
 20
-23.4308
 30
0.0
 10
-17.1169
 20
-23.4308
 30
0.0
 10
-17.1169
 20
-23.4308
 30
0.0
 10
-17.1169
 20
-23.4308
 30
0.0
 10
-17.7604
 20
-20.7094
 30
0.0
 10
-19.4863
 20
-18.496
 30
0.0
 10
-22.7245
 20
-18.612
 30
0.0
 10
-22.7245
 20
-18.612
 30
0.0
 10
-22.6122
 20
-15.4949
 30
0.0
 10
-24.645
 20
-13.7203
 30
0.0
 10
-27.5573
 20
-13.0309
 30
0.0
 10
-27.5573
 20
-13.0309
 30
0.0
 10
-27.5573
 20
-13.0309
 30
0.0
 10
-27.5573
 20
-11.4568
 30
0.0
 10
-27.5573
 20
-11.4568
 30
0.0
 10
-27.5573
 20
-11.4568
 30
0.0
 10
-27.5573
 20
-11.4568
 30
0.0
 10
-15.5461
 20
-11.4568
 30
0.0
 10
-15.5461
 20
-11.4568
 30
0.0
 10
-15.5461
 20
-11.4568
 30
0.0
 10
-15.5461
 20
-11.4568
 30
0.0
 10
-15.5461
 20
-23.4308
 30
0.0
 10
-15.5461
 20
-23.4308
 30
0.0
  0
SPLINE
  5
6F
330
1F
100
AcDbEntity
  8
layer 1
 62
     7
100
AcDbSpline
210
0.0
220
0.0
230
1.0
 70
    11
 71
     3
 72
    32
 73
    28
 74
     0
 42
0.0000000001
 43
0.0000000001
 12
1.0
 22
0.0
 32
0.0
 13
1.0
 23
0.0
 33
0.0
 40
0.0
 40
0.0
 40
0.0
 40
0.0
 40
0.125
 40
0.125
 40
0.125
 40
0.125
 40
0.25
 40
0.25
 40
0.25
 40
0.25
 40
0.375
 40
0.375
 40
0.375
 40
0.375
 40
0.5
 40
0.5
 40
0.5
 40
0.5
 40
0.625
 40
0.625
 40
0.625
 40
0.625
 40
0.75
 40
0.75
 40
0.75
 40
0.75
 40
1.0
 40
1.0
 40
1.0
 40
1.0
 10
36.853
 20
-28.9572
 30
0.0
 10
36.853
 20
-28.9572
 30
0.0
 10
38.44
 20
-28.9572
 30
0.0
 10
38.44
 20
-28.9572
 30
0.0
 10
38.44
 20
-28.9572
 30
0.0
 10
38.44
 20
-28.9572
 30
0.0
 10
38.44
 20
-40.931
 30
0.0
 10
38.44
 20
-40.931
 30
0.0
 10
38.44
 20
-40.931
 30
0.0
 10
38.44
 20
-40.931
 30
0.0
 10
26.4288
 20
-40.931
 30
0.0
 10
26.4288
 20
-40.931
 30
0.0
 10
26.4288
 20
-40.931
 30
0.0
 10
26.4288
 20
-40.931
 30
0.0
 10
26.4288
 20
-39.3602
 30
0.0
 10
26.4288
 20
-39.3602
 30
0.0
 10
26.4288
 20
-39.3602
 30
0.0
 10
29.3396
 20
-38.6516
 30
0.0
 10
31.3744
 20
-36.9025
 30
0.0
 10
31.2618
 20
-33.776
 30
0.0
 10
31.2618
 20
-33.776
 30
0.0
 10
33.8974
 20
-33.8697
 30
0.0
 10
35.5765
 20
-32.489
 30
0.0
 10
36.5256
 20
-30.0921
 30
0.0
 10
36.5256
 20
-30.0921
 30
0.0
 10
36.6524
 20
-29.7345
 30
0.0
 10
36.7617
 20
-29.3536
 30
0.0
 10
36.853
 20
-28.9572
 30
0.0
  0
SPLINE
  5
70
330
1F
100
AcDbEntity
  8
layer 1
 62
     7
100
AcDbSpline
210
0.0
220
0.0
230
1.0
 70
    11
 71
     3
 72
    24
 73
    20
 74
     0
 42
0.0000000001
 43
0.0000000001
 12
1.0
 22
0.0
 32
0.0
 13
1.0
 23
0.0
 33
0.0
 40
0.0
 40
0.0
 40
0.0
 40
0.0
 40
0.1666666666666667
 40
0.1666666666666667
 40
0.1666666666666667
 40
0.1666666666666667
 40
0.3333333333333333
 40
0.3333333333333333
 40
0.3333333333333333
 40
0.3333333333333333
 40
0.5
 40
0.5
 40
0.5
 40
0.5
 40
0.6666666666666666
 40
0.6666666666666666
 40
0.6666666666666666
 40
0.6666666666666666
 40
1.0
 40
1.0
 40
1.0
 40
1.0
 10
43.9836
 20
-28.9572
 30
0.0
 10
43.9836
 20
-28.9572
 30
0.0
 10
57.3163
 20
-28.9572
 30
0.0
 10
57.3163
 20
-28.9572
 30
0.0
 10
57.3163
 20
-28.9572
 30
0.0
 10
57.3163
 20
-28.9572
 30
0.0
 10
57.3163
 20
-42.7474
 30
0.0
 10
57.3163
 20
-42.7474
 30
0.0
 10
57.3163
 20
-42.7474
 30
0.0
 10
57.3163
 20
-42.7474
 30
0.0
 10
50.6499
 20
-49.3928
 30
0.0
 10
50.6499
 20
-49.3928
 30
0.0
 10
50.6499
 20
-49.3928
 30
0.0
 10
50.6499
 20
-49.3928
 30
0.0
 10
43.9836
 20
-42.7474
 30
0.0
 10
43.9836
 20
-42.7474
 30
0.0
 10
43.9836
 20
-42.7474
 30
0.0
 10
43.9836
 20
-42.7474
 30
0.0
 10
43.9836
 20
-28.9572
 30
0.0
 10
43.9836
 20
-28.9572
 30
0.0
  0
SPLINE
  5
71
330
1F
100
AcDbEntity
  8
layer 1
 62
     7
100
AcDbSpline
210
0.0
220
0.0
230
1.0
 70
    11
 71
     3
 72
    32
 73
    28
 74
     0
 42
0.0000000001
 43
0.0000000001
 12
1.0
 22
0.0
 32
0.0
 13
1.0
 23
0.0
 33
0.0
 40
0.0
 40
0.0
 40
0.0
 40
0.0
 40
0.125
 40
0.125
 40
0.125
 40
0.125
 40
0.25
 40
0.25
 40
0.25
 40
0.25
 40
0.375
 40
0.375
 40
0.375
 40
0.375
 40
0.5
 40
0.5
 40
0.5
 40
0.5
 40
0.625
 40
0.625
 40
0.625
 40
0.625
 40
0.75
 40
0.75
 40
0.75
 40
0.75
 40
1.0
 40
1.0
 40
1.0
 40
1.0
 10
62.86
 20
-28.9572
 30
0.0
 10
62.86
 20
-28.9572
 30
0.0
 10
64.4345
 20
-28.9572
 30
0.0
 10
64.4345
 20
-28.9572
 30
0.0
 10
64.4345
 20
-28.9572
 30
0.0
 10
64.706
 20
-30.0654
 30
0.0
 10
65.1064
 20
-31.0295
 30
0.0
 10
65.7932
 20
-31.941
 30
0.0
 10
65.7932
 20
-31.941
 30
0.0
 10
66.93
 20
-33.2914
 30
0.0
 10
68.2868
 20
-33.8382
 30
0.0
 10
70.0363
 20
-33.776
 30
0.0
 10
70.0363
 20
-33.776
 30
0.0
 10
69.9248
 20
-36.8939
 30
0.0
 10
71.9572
 20
-38.668
 30
0.0
 10
74.8712
 20
-39.3578
 30
0.0
 10
74.8712
 20
-39.3578
 30
0.0
 10
74.8712
 20
-39.3578
 30
0.0
 10
74.8712
 20
-40.931
 30
0.0
 10
74.8712
 20
-40.931
 30
0.0
 10
74.8712
 20
-40.931
 30
0.0
 10
74.8712
 20
-40.931
 30
0.0
 10
62.86
 20
-40.931
 30
0.0
 10
62.86
 20
-40.931
 30
0.0
 10
62.86
 20
-40.931
 30
0.0
 10
62.86
 20
-40.931
 30
0.0
 10
62.86
 20
-28.9572
 30
0.0
 10
62.86
 20
-28.9572
 30
0.0
  0
SPLINE
  5
72
330
1F
100
AcDbEntity
  8
layer 1
 62
     7
100
AcDbSpline
210
0.0
220
0.0
230
1.0
 70
    11
 71
     3
 72
    28
 73
    24
 74
     0
 42
0.0000000001
 43
0.0000000001
 12
1.0
 22
0.0
 32
0.0
 13
1.0
 23
0.0
 33
0.0
 40
0.0
 40
0.0
 40
0.0
 40
0.0
 40
0.1428571428571428
 40
0.1428571428571428
 40
0.1428571428571428
 40
0.1428571428571428
 40
0.2857142857142857
 40
0.2857142857142857
 40
0.2857142857142857
 40
0.2857142857142857
 40
0.4285714285714285
 40
0.4285714285714285
 40
0.4285714285714285
 40
0.4285714285714285
 40
0.5714285714285714
 40
0.5714285714285714
 40
0.5714285714285714
 40
0.5714285714285714
 40
0.7142857142857143
 40
0.7142857142857143
 40
0.7142857142857143
 40
0.7142857142857143
 40
1.0
 40
1.0
 40
1.0
 40
1.0
 10
64.434
 20
-23.4308
 30
0.0
 10
64.434
 20
-23.4308
 30
0.0
 10
62.86
 20
-23.4308
 30
0.0
 10
62.86
 20
-23.4308
 30
0.0
 10
62.86
 20
-23.4308
 30
0.0
 10
62.86
 20
-23.4308
 30
0.0
 10
62.86
 20
-11.4568
 30
0.0
 10
62.86
 20
-11.4568
 30
0.0
 10
62.86
 20
-11.4568
 30
0.0
 10
62.86
 20
-11.4568
 30
0.0
 10
74.8712
 20
-11.4568
 30
0.0
 10
74.8712
 20
-11.4568
 30
0.0
 10
74.8712
 20
-11.4568
 30
0.0
 10
74.8712
 20
-11.4568
 30
0.0
 10
74.8712
 20
-13.0274
 30
0.0
 10
74.8712
 20
-13.0274
 30
0.0
 10
74.8712
 20
-13.0274
 30
0.0
 10
71.9621
 20
-13.7353
 30
0.0
 10
69.9245
 20
-15.4876
 30
0.0
 10
70.0363
 20
-18.612
 30
0.0
 10
70.0363
 20
-18.612
 30
0.0
 10
66.9028
 20
-18.4996
 30
0.0
 10
65.1366
 20
-20.5282
 30
0.0
 10
64.434
 20
-23.4308
 30
0.0
  0
SPLINE
  5
73
330
1F
100
AcDbEntity
  8
layer 1
 62
     7
100
AcDbSpline
210
0.0
220
0.0
230
1.0
 70
    11
 71
     3
 72
    24
 73
    20
 74
     0
 42
0.0000000001
 43
0.0000000001
 12
1.0
 22
0.0
 32
0.0
 13
1.0
 23
0.0
 33
0.0
 40
0.0
 40
0.0
 40
0.0
 40
0.0
 40
0.1666666666666667
 40
0.1666666666666667
 40
0.1666666666666667
 40
0.1666666666666667
 40
0.3333333333333333
 40
0.3333333333333333
 40
0.3333333333333333
 40
0.3333333333333333
 40
0.5
 40
0.5
 40
0.5
 40
0.5
 40
0.6666666666666666
 40
0.6666666666666666
 40
0.6666666666666666
 40
0.6666666666666666
 40
1.0
 40
1.0
 40
1.0
 40
1.0
 10
57.3163
 20
-23.4308
 30
0.0
 10
57.3163
 20
-23.4308
 30
0.0
 10
43.9836
 20
-23.4308
 30
0.0
 10
43.9836
 20
-23.4308
 30
0.0
 10
43.9836
 20
-23.4308
 30
0.0
 10
43.9836
 20
-23.4308
 30
0.0
 10
43.9836
 20
-9.6406
 30
0.0
 10
43.9836
 20
-9.6406
 30
0.0
 10
43.9836
 20
-9.6406
 30
0.0
 10
43.9836
 20
-9.6406
 30
0.0
 10
50.6499
 20
-2.9952
 30
0.0
 10
50.6499
 20
-2.9952
 30
0.0
 10
50.6499
 20
-2.9952
 30
0.0
 10
50.6499
 20
-2.9952
 30
0.0
 10
57.3163
 20
-9.6406
 30
0.0
 10
57.3163
 20
-9.6406
 30
0.0
 10
57.3163
 20
-9.6406
 30
0.0
 10
57.3163
 20
-9.6406
 30
0.0
 10
57.3163
 20
-23.4308
 30
0.0
 10
57.3163
 20
-23.4308
 30
0.0
  0
SPLINE
  5
74
330
1F
100
AcDbEntity
  8
layer 1
 62
     7
100
AcDbSpline
210
0.0
220
0.0
230
1.0
 70
    11
 71
     3
 72
    28
 73
    24
 74
     0
 42
0.0000000001
 43
0.0000000001
 12
1.0
 22
0.0
 32
0.0
 13
1.0
 23
0.0
 33
0.0
 40
0.0
 40
0.0
 40
0.0
 40
0.0
 40
0.1428571428571428
 40
0.1428571428571428
 40
0.1428571428571428
 40
0.1428571428571428
 40
0.2857142857142857
 40
0.2857142857142857
 40
0.2857142857142857
 40
0.2857142857142857
 40
0.4285714285714285
 40
0.4285714285714285
 40
0.4285714285714285
 40
0.4285714285714285
 40
0.5714285714285714
 40
0.5714285714285714
 40
0.5714285714285714
 40
0.5714285714285714
 40
0.7142857142857143
 40
0.7142857142857143
 40
0.7142857142857143
 40
0.7142857142857143
 40
1.0
 40
1.0
 40
1.0
 40
1.0
 10
38.44
 20
-23.4308
 30
0.0
 10
38.44
 20
-23.4308
 30
0.0
 10
36.8692
 20
-23.4308
 30
0.0
 10
36.8692
 20
-23.4308
 30
0.0
 10
36.8692
 20
-23.4308
 30
0.0
 10
36.2256
 20
-20.7094
 30
0.0
 10
34.4998
 20
-18.496
 30
0.0
 10
31.2618
 20
-18.612
 30
0.0
 10
31.2618
 20
-18.612
 30
0.0
 10
31.3739
 20
-15.4949
 30
0.0
 10
29.3411
 20
-13.7203
 30
0.0
 10
26.4288
 20
-13.0309
 30
0.0
 10
26.4288
 20
-13.0309
 30
0.0
 10
26.4288
 20
-13.0309
 30
0.0
 10
26.4288
 20
-11.4568
 30
0.0
 10
26.4288
 20
-11.4568
 30
0.0
 10
26.4288
 20
-11.4568
 30
0.0
 10
26.4288
 20
-11.4568
 30
0.0
 10
38.44
 20
-11.4568
 30
0.0
 10
38.44
 20
-11.4568
 30
0.0
 10
38.44
 20
-11.4568
 30
0.0
 10
38.44
 20
-11.4568
 30
0.0
 10
38.44
 20
-23.4308
 30
0.0
 10
38.44
 20
-23.4308
 30
0.0
  0
SPLINE
  5
75
330
1F
100
AcDbEntity
  8
layer 1
 62
     7
100
AcDbSpline
210
0.0
220
0.0
230
1.0
 70
    11
 71
     3
 72
    28
 73
    24
 74
     0
 42
0.0000000001
 43
0.0000000001
 12
1.0
 22
0.0
 32
0.0
 13
1.0
 23
0.0
 33
0.0
 40
0.0
 40
0.0
 40
0.0
 40
0.0
 40
0.1428571428571428
 40
0.1428571428571428
 40
0.1428571428571428
 40
0.1428571428571428
 40
0.2857142857142857
 40
0.2857142857142857
 40
0.2857142857142857
 40
0.2857142857142857
 40
0.4285714285714285
 40
0.4285714285714285
 40
0.4285714285714285
 40
0.4285714285714285
 40
0.5714285714285714
 40
0.5714285714285714
 40
0.5714285714285714
 40
0.5714285714285714
 40
0.7142857142857143
 40
0.7142857142857143
 40
0.7142857142857143
 40
0.7142857142857143
 40
1.0
 40
1.0
 40
1.0
 40
1.0
 10
90.8466
 20
-28.9572
 30
0.0
 10
90.8466
 20
-28.9572
 30
0.0
 10
92.4263
 20
-28.9572
 30
0.0
 10
92.4263
 20
-28.9572
 30
0.0
 10
92.4263
 20
-28.9572
 30
0.0
 10
92.4263
 20
-28.9572
 30
0.0
 10
92.4263
 20
-40.931
 30
0.0
 10
92.4263
 20
-40.931
 30
0.0
 10
92.4263
 20
-40.931
 30
0.0
 10
92.4263
 20
-40.931
 30
0.0
 10
80.4149
 20
-40.931
 30
0.0
 10
80.4149
 20
-40.931
 30
0.0
 10
80.4149
 20
-40.931
 30
0.0
 10
80.4149
 20
-40.931
 30
0.0
 10
80.4149
 20
-39.3602
 30
0.0
 10
80.4149
 20
-39.3602
 30
0.0
 10
80.4149
 20
-39.3602
 30
0.0
 10
83.3255
 20
-38.6518
 30
0.0
 10
85.3605
 20
-36.9028
 30
0.0
 10
85.2479
 20
-33.776
 30
0.0
 10
85.2479
 20
-33.776
 30
0.0
 10
88.3753
 20
-33.8871
 30
0.0
 10
90.1547
 20
-31.8616
 30
0.0
 10
90.8466
 20
-28.9572
 30
0.0
  0
SPLINE
  5
76
330
1F
100
AcDbEntity
  8
layer 1
 62
     7
100
AcDbSpline
210
0.0
220
0.0
230
1.0
 70
    11
 71
     3
 72
    32
 73
    28
 74
     0
 42
0.0000000001
 43
0.0000000001
 12
1.0
 22
0.0
 32
0.0
 13
1.0
 23
0.0
 33
0.0
 40
0.0
 40
0.0
 40
0.0
 40
0.0
 40
0.125
 40
0.125
 40
0.125
 40
0.125
 40
0.25
 40
0.25
 40
0.25
 40
0.25
 40
0.375
 40
0.375
 40
0.375
 40
0.375
 40
0.5
 40
0.5
 40
0.5
 40
0.5
 40
0.625
 40
0.625
 40
0.625
 40
0.625
 40
0.75
 40
0.75
 40
0.75
 40
0.75
 40
1.0
 40
1.0
 40
1.0
 40
1.0
 10
92.4263
 20
-23.4308
 30
0.0
 10
92.4263
 20
-23.4308
 30
0.0
 10
90.8497
 20
-23.4308
 30
0.0
 10
90.8497
 20
-23.4308
 30
0.0
 10
90.8497
 20
-23.4308
 30
0.0
 10
90.5784
 20
-22.3235
 30
0.0
 10
90.1794
 20
-21.3635
 30
0.0
 10
89.4952
 20
-20.4524
 30
0.0
 10
89.4952
 20
-20.4524
 30
0.0
 10
88.3582
 20
-19.0981
 30
0.0
 10
86.9995
 20
-18.5491
 30
0.0
 10
85.2479
 20
-18.612
 30
0.0
 10
85.2479
 20
-18.612
 30
0.0
 10
85.3602
 20
-15.4949
 30
0.0
 10
83.327
 20
-13.72
 30
0.0
 10
80.4149
 20
-13.0309
 30
0.0
 10
80.4149
 20
-13.0309
 30
0.0
 10
80.4149
 20
-13.0309
 30
0.0
 10
80.4149
 20
-11.4568
 30
0.0
 10
80.4149
 20
-11.4568
 30
0.0
 10
80.4149
 20
-11.4568
 30
0.0
 10
80.4149
 20
-11.4568
 30
0.0
 10
92.4263
 20
-11.4568
 30
0.0
 10
92.4263
 20
-11.4568
 30
0.0
 10
92.4263
 20
-11.4568
 30
0.0
 10
92.4263
 20
-11.4568
 30
0.0
 10
92.4263
 20
-23.4308
 30
0.0
 10
92.4263
 20
-23.4308
 30
0.0
  0
SPLINE
  5
77
330
1F
100
AcDbEntity
  8
layer 1
 62
     7
100
AcDbSpline
210
0.0
220
0.0
230
1.0
 70
    11
 71
     3
 72
    28
 73
    24
 74
     0
 42
0.0000000001
 43
0.0000000001
 12
1.0
 22
0.0
 32
0.0
 13
1.0
 23
0.0
 33
0.0
 40
0.0
 40
0.0
 40
0.0
 40
0.0
 40
0.1428571428571428
 40
0.1428571428571428
 40
0.1428571428571428
 40
0.1428571428571428
 40
0.2857142857142857
 40
0.2857142857142857
 40
0.2857142857142857
 40
0.2857142857142857
 40
0.4285714285714285
 40
0.4285714285714285
 40
0.4285714285714285
 40
0.4285714285714285
 40
0.5714285714285714
 40
0.5714285714285714
 40
0.5714285714285714
 40
0.5714285714285714
 40
0.7142857142857143
 40
0.7142857142857143
 40
0.7142857142857143
 40
0.7142857142857143
 40
1.0
 40
1.0
 40
1.0
 40
1.0
 10
-45.1124
 20
25.4638
 30
0.0
 10
-45.1124
 20
25.4638
 30
0.0
 10
-43.5407
 20
25.4638
 30
0.0
 10
-43.5407
 20
25.4638
 30
0.0
 10
-43.5407
 20
25.4638
 30
0.0
 10
-42.8976
 20
22.7446
 30
0.0
 10
-41.1757
 20
20.5296
 30
0.0
 10
-37.9359
 20
20.6448
 30
0.0
 10
-37.9359
 20
20.6448
 30
0.0
 10
-38.0474
 20
17.5266
 30
0.0
 10
-36.0148
 20
15.753
 30
0.0
 10
-33.101
 20
15.0632
 30
0.0
 10
-33.101
 20
15.0632
 30
0.0
 10
-33.101
 20
15.0632
 30
0.0
 10
-33.101
 20
13.4898
 30
0.0
 10
-33.101
 20
13.4898
 30
0.0
 10
-33.101
 20
13.4898
 30
0.0
 10
-33.101
 20
13.4898
 30
0.0
 10
-45.1124
 20
13.4898
 30
0.0
 10
-45.1124
 20
13.4898
 30
0.0
 10
-45.1124
 20
13.4898
 30
0.0
 10
-45.1124
 20
13.4898
 30
0.0
 10
-45.1124
 20
25.4638
 30
0.0
 10
-45.1124
 20
25.4638
 30
0.0
  0
SPLINE
  5
78
330
1F
100
AcDbEntity
  8
layer 1
 62
     7
100
AcDbSpline
210
0.0
220
0.0
230
1.0
 70
    11
 71
     3
 72
    32
 73
    28
 74
     0
 42
0.0000000001
 43
0.0000000001
 12
1.0
 22
0.0
 32
0.0
 13
1.0
 23
0.0
 33
0.0
 40
0.0
 40
0.0
 40
0.0
 40
0.0
 40
0.125
 40
0.125
 40
0.125
 40
0.125
 40
0.25
 40
0.25
 40
0.25
 40
0.25
 40
0.375
 40
0.375
 40
0.375
 40
0.375
 40
0.5
 40
0.5
 40
0.5
 40
0.5
 40
0.625
 40
0.625
 40
0.625
 40
0.625
 40
0.75
 40
0.75
 40
0.75
 40
0.75
 40
1.0
 40
1.0
 40
1.0
 40
1.0
 10
-43.5267
 20
30.99
 30
0.0
 10
-43.5267
 20
30.99
 30
0.0
 10
-45.1124
 20
30.99
 30
0.0
 10
-45.1124
 20
30.99
 30
0.0
 10
-45.1124
 20
30.99
 30
0.0
 10
-45.1124
 20
30.99
 30
0.0
 10
-45.1124
 20
42.9639
 30
0.0
 10
-45.1124
 20
42.9639
 30
0.0
 10
-45.1124
 20
42.9639
 30
0.0
 10
-45.1124
 20
42.9639
 30
0.0
 10
-33.101
 20
42.9639
 30
0.0
 10
-33.101
 20
42.9639
 30
0.0
 10
-33.101
 20
42.9639
 30
0.0
 10
-33.101
 20
42.9639
 30
0.0
 10
-33.101
 20
41.3936
 30
0.0
 10
-33.101
 20
41.3936
 30
0.0
 10
-33.101
 20
41.3936
 30
0.0
 10
-36.0099
 20
40.6857
 30
0.0
 10
-38.0476
 20
38.9332
 30
0.0
 10
-37.9359
 20
35.809
 30
0.0
 10
-37.9359
 20
35.809
 30
0.0
 10
-40.5757
 20
35.9035
 30
0.0
 10
-42.2556
 20
34.517
 30
0.0
 10
-43.2034
 20
32.1158
 30
0.0
 10
-43.2034
 20
32.1158
 30
0.0
 10
-43.3284
 20
31.7612
 30
0.0
 10
-43.4365
 20
31.3836
 30
0.0
 10
-43.5267
 20
30.99
 30
0.0
  0
SPLINE
  5
79
330
1F
100
AcDbEntity
  8
layer 1
 62
     7
100
AcDbSpline
210
0.0
220
0.0
230
1.0
 70
    11
 71
     3
 72
    32
 73
    28
 74
     0
 42
0.0000000001
 43
0.0000000001
 12
1.0
 22
0.0
 32
0.0
 13
1.0
 23
0.0
 33
0.0
 40
0.0
 40
0.0
 40
0.0
 40
0.0
 40
0.125
 40
0.125
 40
0.125
 40
0.125
 40
0.25
 40
0.25
 40
0.25
 40
0.25
 40
0.375
 40
0.375
 40
0.375
 40
0.375
 40
0.5
 40
0.5
 40
0.5
 40
0.5
 40
0.625
 40
0.625
 40
0.625
 40
0.625
 40
0.75
 40
0.75
 40
0.75
 40
0.75
 40
1.0
 40
1.0
 40
1.0
 40
1.0
 10
-17.1331
 20
25.4638
 30
0.0
 10
-17.1331
 20
25.4638
 30
0.0
 10
-15.5461
 20
25.4638
 30
0.0
 10
-15.5461
 20
25.4638
 30
0.0
 10
-15.5461
 20
25.4638
 30
0.0
 10
-15.5461
 20
25.4638
 30
0.0
 10
-15.5461
 20
13.4898
 30
0.0
 10
-15.5461
 20
13.4898
 30
0.0
 10
-15.5461
 20
13.4898
 30
0.0
 10
-15.5461
 20
13.4898
 30
0.0
 10
-27.5573
 20
13.4898
 30
0.0
 10
-27.5573
 20
13.4898
 30
0.0
 10
-27.5573
 20
13.4898
 30
0.0
 10
-27.5573
 20
13.4898
 30
0.0
 10
-27.5573
 20
15.0608
 30
0.0
 10
-27.5573
 20
15.0608
 30
0.0
 10
-27.5573
 20
15.0608
 30
0.0
 10
-24.6465
 20
15.7694
 30
0.0
 10
-22.6117
 20
17.518
 30
0.0
 10
-22.7245
 20
20.6448
 30
0.0
 10
-22.7245
 20
20.6448
 30
0.0
 10
-20.0887
 20
20.5511
 30
0.0
 10
-18.4096
 20
21.9318
 30
0.0
 10
-17.4605
 20
24.3287
 30
0.0
 10
-17.4605
 20
24.3287
 30
0.0
 10
-17.3337
 20
24.6863
 30
0.0
 10
-17.2244
 20
25.0672
 30
0.0
 10
-17.1331
 20
25.4638
 30
0.0
  0
SPLINE
  5
7A
330
1F
100
AcDbEntity
  8
layer 1
 62
     7
100
AcDbSpline
210
0.0
220
0.0
230
1.0
 70
    11
 71
     3
 72
    24
 73
    20
 74
     0
 42
0.0000000001
 43
0.0000000001
 12
1.0
 22
0.0
 32
0.0
 13
1.0
 23
0.0
 33
0.0
 40
0.0
 40
0.0
 40
0.0
 40
0.0
 40
0.1666666666666667
 40
0.1666666666666667
 40
0.1666666666666667
 40
0.1666666666666667
 40
0.3333333333333333
 40
0.3333333333333333
 40
0.3333333333333333
 40
0.3333333333333333
 40
0.5
 40
0.5
 40
0.5
 40
0.5
 40
0.6666666666666666
 40
0.6666666666666666
 40
0.6666666666666666
 40
0.6666666666666666
 40
1.0
 40
1.0
 40
1.0
 40
1.0
 10
-10.0024
 20
25.4638
 30
0.0
 10
-10.0024
 20
25.4638
 30
0.0
 10
3.33
 20
25.4638
 30
0.0
 10
3.33
 20
25.4638
 30
0.0
 10
3.33
 20
25.4638
 30
0.0
 10
3.33
 20
25.4638
 30
0.0
 10
3.33
 20
11.6736
 30
0.0
 10
3.33
 20
11.6736
 30
0.0
 10
3.33
 20
11.6736
 30
0.0
 10
3.33
 20
11.6736
 30
0.0
 10
-3.3362
 20
5.028
 30
0.0
 10
-3.3362
 20
5.028
 30
0.0
 10
-3.3362
 20
5.028
 30
0.0
 10
-3.3362
 20
5.028
 30
0.0
 10
-10.0024
 20
11.6736
 30
0.0
 10
-10.0024
 20
11.6736
 30
0.0
 10
-10.0024
 20
11.6736
 30
0.0
 10
-10.0024
 20
11.6736
 30
0.0
 10
-10.0024
 20
25.4638
 30
0.0
 10
-10.0024
 20
25.4638
 30
0.0
  0
SPLINE
  5
7B
330
1F
100
AcDbEntity
  8
layer 1
 62
     7
100
AcDbSpline
210
0.0
220
0.0
230
1.0
 70
    11
 71
     3
 72
    28
 73
    24
 74
     0
 42
0.0000000001
 43
0.0000000001
 12
1.0
 22
0.0
 32
0.0
 13
1.0
 23
0.0
 33
0.0
 40
0.0
 40
0.0
 40
0.0
 40
0.0
 40
0.1428571428571428
 40
0.1428571428571428
 40
0.1428571428571428
 40
0.1428571428571428
 40
0.2857142857142857
 40
0.2857142857142857
 40
0.2857142857142857
 40
0.2857142857142857
 40
0.4285714285714285
 40
0.4285714285714285
 40
0.4285714285714285
 40
0.4285714285714285
 40
0.5714285714285714
 40
0.5714285714285714
 40
0.5714285714285714
 40
0.5714285714285714
 40
0.7142857142857143
 40
0.7142857142857143
 40
0.7142857142857143
 40
0.7142857142857143
 40
1.0
 40
1.0
 40
1.0
 40
1.0
 10
8.8737
 20
25.4638
 30
0.0
 10
8.8737
 20
25.4638
 30
0.0
 10
10.4456
 20
25.4638
 30
0.0
 10
10.4456
 20
25.4638
 30
0.0
 10
10.4456
 20
25.4638
 30
0.0
 10
11.0885
 20
22.7446
 30
0.0
 10
12.8104
 20
20.5296
 30
0.0
 10
16.0502
 20
20.6448
 30
0.0
 10
16.0502
 20
20.6448
 30
0.0
 10
15.9387
 20
17.5266
 30
0.0
 10
17.9713
 20
15.753
 30
0.0
 10
20.8851
 20
15.0632
 30
0.0
 10
20.8851
 20
15.0632
 30
0.0
 10
20.8851
 20
15.0632
 30
0.0
 10
20.8851
 20
13.4898
 30
0.0
 10
20.8851
 20
13.4898
 30
0.0
 10
20.8851
 20
13.4898
 30
0.0
 10
20.8851
 20
13.4898
 30
0.0
 10
8.8737
 20
13.4898
 30
0.0
 10
8.8737
 20
13.4898
 30
0.0
 10
8.8737
 20
13.4898
 30
0.0
 10
8.8737
 20
13.4898
 30
0.0
 10
8.8737
 20
25.4638
 30
0.0
 10
8.8737
 20
25.4638
 30
0.0
  0
SPLINE
  5
7C
330
1F
100
AcDbEntity
  8
layer 1
 62
     7
100
AcDbSpline
210
0.0
220
0.0
230
1.0
 70
    11
 71
     3
 72
    32
 73
    28
 74
     0
 42
0.0000000001
 43
0.0000000001
 12
1.0
 22
0.0
 32
0.0
 13
1.0
 23
0.0
 33
0.0
 40
0.0
 40
0.0
 40
0.0
 40
0.0
 40
0.125
 40
0.125
 40
0.125
 40
0.125
 40
0.25
 40
0.25
 40
0.25
 40
0.25
 40
0.375
 40
0.375
 40
0.375
 40
0.375
 40
0.5
 40
0.5
 40
0.5
 40
0.5
 40
0.625
 40
0.625
 40
0.625
 40
0.625
 40
0.75
 40
0.75
 40
0.75
 40
0.75
 40
1.0
 40
1.0
 40
1.0
 40
1.0
 10
10.4594
 20
30.99
 30
0.0
 10
10.4594
 20
30.99
 30
0.0
 10
8.8737
 20
30.99
 30
0.0
 10
8.8737
 20
30.99
 30
0.0
 10
8.8737
 20
30.99
 30
0.0
 10
8.8737
 20
30.99
 30
0.0
 10
8.8737
 20
42.9639
 30
0.0
 10
8.8737
 20
42.9639
 30
0.0
 10
8.8737
 20
42.9639
 30
0.0
 10
8.8737
 20
42.9639
 30
0.0
 10
20.8851
 20
42.9639
 30
0.0
 10
20.8851
 20
42.9639
 30
0.0
 10
20.8851
 20
42.9639
 30
0.0
 10
20.8851
 20
42.9639
 30
0.0
 10
20.8851
 20
41.3936
 30
0.0
 10
20.8851
 20
41.3936
 30
0.0
 10
20.8851
 20
41.3936
 30
0.0
 10
17.9762
 20
40.6857
 30
0.0
 10
15.9384
 20
38.9332
 30
0.0
 10
16.0502
 20
35.809
 30
0.0
 10
16.0502
 20
35.809
 30
0.0
 10
13.4104
 20
35.9035
 30
0.0
 10
11.7307
 20
34.517
 30
0.0
 10
10.7827
 20
32.1158
 30
0.0
 10
10.7827
 20
32.1158
 30
0.0
 10
10.6576
 20
31.7612
 30
0.0
 10
10.5496
 20
31.3836
 30
0.0
 10
10.4594
 20
30.99
 30
0.0
  0
SPLINE
  5
7D
330
1F
100
AcDbEntity
  8
layer 1
 62
     7
100
AcDbSpline
210
0.0
220
0.0
230
1.0
 70
    11
 71
     3
 72
    24
 73
    20
 74
     0
 42
0.0000000001
 43
0.0000000001
 12
1.0
 22
0.0
 32
0.0
 13
1.0
 23
0.0
 33
0.0
 40
0.0
 40
0.0
 40
0.0
 40
0.0
 40
0.1666666666666667
 40
0.1666666666666667
 40
0.1666666666666667
 40
0.1666666666666667
 40
0.3333333333333333
 40
0.3333333333333333
 40
0.3333333333333333
 40
0.3333333333333333
 40
0.5
 40
0.5
 40
0.5
 40
0.5
 40
0.6666666666666666
 40
0.6666666666666666
 40
0.6666666666666666
 40
0.6666666666666666
 40
1.0
 40
1.0
 40
1.0
 40
1.0
 10
3.33
 20
30.99
 30
0.0
 10
3.33
 20
30.99
 30
0.0
 10
-10.0024
 20
30.99
 30
0.0
 10
-10.0024
 20
30.99
 30
0.0
 10
-10.0024
 20
30.99
 30
0.0
 10
-10.0024
 20
30.99
 30
0.0
 10
-10.0024
 20
44.7802
 30
0.0
 10
-10.0024
 20
44.7802
 30
0.0
 10
-10.0024
 20
44.7802
 30
0.0
 10
-10.0024
 20
44.7802
 30
0.0
 10
-3.3362
 20
51.4257
 30
0.0
 10
-3.3362
 20
51.4257
 30
0.0
 10
-3.3362
 20
51.4257
 30
0.0
 10
-3.3362
 20
51.4257
 30
0.0
 10
3.33
 20
44.7802
 30
0.0
 10
3.33
 20
44.7802
 30
0.0
 10
3.33
 20
44.7802
 30
0.0
 10
3.33
 20
44.7802
 30
0.0
 10
3.33
 20
30.99
 30
0.0
 10
3.33
 20
30.99
 30
0.0
  0
SPLINE
  5
7E
330
1F
100
AcDbEntity
  8
layer 1
 62
     7
100
AcDbSpline
210
0.0
220
0.0
230
1.0
 70
    11
 71
     3
 72
    28
 73
    24
 74
     0
 42
0.0000000001
 43
0.0000000001
 12
1.0
 22
0.0
 32
0.0
 13
1.0
 23
0.0
 33
0.0
 40
0.0
 40
0.0
 40
0.0
 40
0.0
 40
0.1428571428571428
 40
0.1428571428571428
 40
0.1428571428571428
 40
0.1428571428571428
 40
0.2857142857142857
 40
0.2857142857142857
 40
0.2857142857142857
 40
0.2857142857142857
 40
0.4285714285714285
 40
0.4285714285714285
 40
0.4285714285714285
 40
0.4285714285714285
 40
0.5714285714285714
 40
0.5714285714285714
 40
0.5714285714285714
 40
0.5714285714285714
 40
0.7142857142857143
 40
0.7142857142857143
 40
0.7142857142857143
 40
0.7142857142857143
 40
1.0
 40
1.0
 40
1.0
 40
1.0
 10
-15.5461
 20
30.99
 30
0.0
 10
-15.5461
 20
30.99
 30
0.0
 10
-17.1169
 20
30.99
 30
0.0
 10
-17.1169
 20
30.99
 30
0.0
 10
-17.1169
 20
30.99
 30
0.0
 10
-17.7604
 20
33.7113
 30
0.0
 10
-19.4863
 20
35.9248
 30
0.0
 10
-22.7245
 20
35.809
 30
0.0
 10
-22.7245
 20
35.809
 30
0.0
 10
-22.6122
 20
38.9256
 30
0.0
 10
-24.645
 20
40.7007
 30
0.0
 10
-27.5573
 20
41.3901
 30
0.0
 10
-27.5573
 20
41.3901
 30
0.0
 10
-27.5573
 20
41.3901
 30
0.0
 10
-27.5573
 20
42.9639
 30
0.0
 10
-27.5573
 20
42.9639
 30
0.0
 10
-27.5573
 20
42.9639
 30
0.0
 10
-27.5573
 20
42.9639
 30
0.0
 10
-15.5461
 20
42.9639
 30
0.0
 10
-15.5461
 20
42.9639
 30
0.0
 10
-15.5461
 20
42.9639
 30
0.0
 10
-15.5461
 20
42.9639
 30
0.0
 10
-15.5461
 20
30.99
 30
0.0
 10
-15.5461
 20
30.99
 30
0.0
  0
SPLINE
  5
7F
330
1F
100
AcDbEntity
  8
layer 1
 62
     7
100
AcDbSpline
210
0.0
220
0.0
230
1.0
 70
    11
 71
     3
 72
    32
 73
    28
 74
     0
 42
0.0000000001
 43
0.0000000001
 12
1.0
 22
0.0
 32
0.0
 13
1.0
 23
0.0
 33
0.0
 40
0.0
 40
0.0
 40
0.0
 40
0.0
 40
0.125
 40
0.125
 40
0.125
 40
0.125
 40
0.25
 40
0.25
 40
0.25
 40
0.25
 40
0.375
 40
0.375
 40
0.375
 40
0.375
 40
0.5
 40
0.5
 40
0.5
 40
0.5
 40
0.625
 40
0.625
 40
0.625
 40
0.625
 40
0.75
 40
0.75
 40
0.75
 40
0.75
 40
1.0
 40
1.0
 40
1.0
 40
1.0
 10
36.853
 20
25.4638
 30
0.0
 10
36.853
 20
25.4638
 30
0.0
 10
38.44
 20
25.4638
 30
0.0
 10
38.44
 20
25.4638
 30
0.0
 10
38.44
 20
25.4638
 30
0.0
 10
38.44
 20
25.4638
 30
0.0
 10
38.44
 20
13.4898
 30
0.0
 10
38.44
 20
13.4898
 30
0.0
 10
38.44
 20
13.4898
 30
0.0
 10
38.44
 20
13.4898
 30
0.0
 10
26.4288
 20
13.4898
 30
0.0
 10
26.4288
 20
13.4898
 30
0.0
 10
26.4288
 20
13.4898
 30
0.0
 10
26.4288
 20
13.4898
 30
0.0
 10
26.4288
 20
15.0608
 30
0.0
 10
26.4288
 20
15.0608
 30
0.0
 10
26.4288
 20
15.0608
 30
0.0
 10
29.3396
 20
15.7694
 30
0.0
 10
31.3744
 20
17.518
 30
0.0
 10
31.2618
 20
20.6448
 30
0.0
 10
31.2618
 20
20.6448
 30
0.0
 10
33.8974
 20
20.5511
 30
0.0
 10
35.5765
 20
21.9318
 30
0.0
 10
36.5256
 20
24.3287
 30
0.0
 10
36.5256
 20
24.3287
 30
0.0
 10
36.6524
 20
24.6863
 30
0.0
 10
36.7617
 20
25.0672
 30
0.0
 10
36.853
 20
25.4638
 30
0.0
  0
SPLINE
  5
80
330
1F
100
AcDbEntity
  8
layer 1
 62
     7
100
AcDbSpline
210
0.0
220
0.0
230
1.0
 70
    11
 71
     3
 72
    24
 73
    20
 74
     0
 42
0.0000000001
 43
0.0000000001
 12
1.0
 22
0.0
 32
0.0
 13
1.0
 23
0.0
 33
0.0
 40
0.0
 40
0.0
 40
0.0
 40
0.0
 40
0.1666666666666667
 40
0.1666666666666667
 40
0.1666666666666667
 40
0.1666666666666667
 40
0.3333333333333333
 40
0.3333333333333333
 40
0.3333333333333333
 40
0.3333333333333333
 40
0.5
 40
0.5
 40
0.5
 40
0.5
 40
0.6666666666666666
 40
0.6666666666666666
 40
0.6666666666666666
 40
0.6666666666666666
 40
1.0
 40
1.0
 40
1.0
 40
1.0
 10
43.9836
 20
25.4638
 30
0.0
 10
43.9836
 20
25.4638
 30
0.0
 10
57.3163
 20
25.4638
 30
0.0
 10
57.3163
 20
25.4638
 30
0.0
 10
57.3163
 20
25.4638
 30
0.0
 10
57.3163
 20
25.4638
 30
0.0
 10
57.3163
 20
11.6736
 30
0.0
 10
57.3163
 20
11.6736
 30
0.0
 10
57.3163
 20
11.6736
 30
0.0
 10
57.3163
 20
11.6736
 30
0.0
 10
50.6499
 20
5.028
 30
0.0
 10
50.6499
 20
5.028
 30
0.0
 10
50.6499
 20
5.028
 30
0.0
 10
50.6499
 20
5.028
 30
0.0
 10
43.9836
 20
11.6736
 30
0.0
 10
43.9836
 20
11.6736
 30
0.0
 10
43.9836
 20
11.6736
 30
0.0
 10
43.9836
 20
11.6736
 30
0.0
 10
43.9836
 20
25.4638
 30
0.0
 10
43.9836
 20
25.4638
 30
0.0
  0
SPLINE
  5
81
330
1F
100
AcDbEntity
  8
layer 1
 62
     7
100
AcDbSpline
210
0.0
220
0.0
230
1.0
 70
    11
 71
     3
 72
    32
 73
    28
 74
     0
 42
0.0000000001
 43
0.0000000001
 12
1.0
 22
0.0
 32
0.0
 13
1.0
 23
0.0
 33
0.0
 40
0.0
 40
0.0
 40
0.0
 40
0.0
 40
0.125
 40
0.125
 40
0.125
 40
0.125
 40
0.25
 40
0.25
 40
0.25
 40
0.25
 40
0.375
 40
0.375
 40
0.375
 40
0.375
 40
0.5
 40
0.5
 40
0.5
 40
0.5
 40
0.625
 40
0.625
 40
0.625
 40
0.625
 40
0.75
 40
0.75
 40
0.75
 40
0.75
 40
1.0
 40
1.0
 40
1.0
 40
1.0
 10
62.86
 20
25.4638
 30
0.0
 10
62.86
 20
25.4638
 30
0.0
 10
64.4345
 20
25.4638
 30
0.0
 10
64.4345
 20
25.4638
 30
0.0
 10
64.4345
 20
25.4638
 30
0.0
 10
64.706
 20
24.3554
 30
0.0
 10
65.1064
 20
23.3915
 30
0.0
 10
65.7932
 20
22.48
 30
0.0
 10
65.7932
 20
22.48
 30
0.0
 10
66.93
 20
21.1296
 30
0.0
 10
68.2868
 20
20.5825
 30
0.0
 10
70.0363
 20
20.6448
 30
0.0
 10
70.0363
 20
20.6448
 30
0.0
 10
69.9248
 20
17.5266
 30
0.0
 10
71.9572
 20
15.753
 30
0.0
 10
74.8712
 20
15.0632
 30
0.0
 10
74.8712
 20
15.0632
 30
0.0
 10
74.8712
 20
15.0632
 30
0.0
 10
74.8712
 20
13.4898
 30
0.0
 10
74.8712
 20
13.4898
 30
0.0
 10
74.8712
 20
13.4898
 30
0.0
 10
74.8712
 20
13.4898
 30
0.0
 10
62.86
 20
13.4898
 30
0.0
 10
62.86
 20
13.4898
 30
0.0
 10
62.86
 20
13.4898
 30
0.0
 10
62.86
 20
13.4898
 30
0.0
 10
62.86
 20
25.4638
 30
0.0
 10
62.86
 20
25.4638
 30
0.0
  0
SPLINE
  5
82
330
1F
100
AcDbEntity
  8
layer 1
 62
     7
100
AcDbSpline
210
0.0
220
0.0
230
1.0
 70
    11
 71
     3
 72
    28
 73
    24
 74
     0
 42
0.0000000001
 43
0.0000000001
 12
1.0
 22
0.0
 32
0.0
 13
1.0
 23
0.0
 33
0.0
 40
0.0
 40
0.0
 40
0.0
 40
0.0
 40
0.1428571428571428
 40
0.1428571428571428
 40
0.1428571428571428
 40
0.1428571428571428
 40
0.2857142857142857
 40
0.2857142857142857
 40
0.2857142857142857
 40
0.2857142857142857
 40
0.4285714285714285
 40
0.4285714285714285
 40
0.4285714285714285
 40
0.4285714285714285
 40
0.5714285714285714
 40
0.5714285714285714
 40
0.5714285714285714
 40
0.5714285714285714
 40
0.7142857142857143
 40
0.7142857142857143
 40
0.7142857142857143
 40
0.7142857142857143
 40
1.0
 40
1.0
 40
1.0
 40
1.0
 10
64.434
 20
30.99
 30
0.0
 10
64.434
 20
30.99
 30
0.0
 10
62.86
 20
30.99
 30
0.0
 10
62.86
 20
30.99
 30
0.0
 10
62.86
 20
30.99
 30
0.0
 10
62.86
 20
30.99
 30
0.0
 10
62.86
 20
42.9639
 30
0.0
 10
62.86
 20
42.9639
 30
0.0
 10
62.86
 20
42.9639
 30
0.0
 10
62.86
 20
42.9639
 30
0.0
 10
74.8712
 20
42.9639
 30
0.0
 10
74.8712
 20
42.9639
 30
0.0
 10
74.8712
 20
42.9639
 30
0.0
 10
74.8712
 20
42.9639
 30
0.0
 10
74.8712
 20
41.3936
 30
0.0
 10
74.8712
 20
41.3936
 30
0.0
 10
74.8712
 20
41.3936
 30
0.0
 10
71.9621
 20
40.6857
 30
0.0
 10
69.9245
 20
38.9329
 30
0.0
 10
70.0363
 20
35.809
 30
0.0
 10
70.0363
 20
35.809
 30
0.0
 10
66.9028
 20
35.9212
 30
0.0
 10
65.1366
 20
33.8926
 30
0.0
 10
64.434
 20
30.99
 30
0.0
  0
SPLINE
  5
83
330
1F
100
AcDbEntity
  8
layer 1
 62
     7
100
AcDbSpline
210
0.0
220
0.0
230
1.0
 70
    11
 71
     3
 72
    24
 73
    20
 74
     0
 42
0.0000000001
 43
0.0000000001
 12
1.0
 22
0.0
 32
0.0
 13
1.0
 23
0.0
 33
0.0
 40
0.0
 40
0.0
 40
0.0
 40
0.0
 40
0.1666666666666667
 40
0.1666666666666667
 40
0.1666666666666667
 40
0.1666666666666667
 40
0.3333333333333333
 40
0.3333333333333333
 40
0.3333333333333333
 40
0.3333333333333333
 40
0.5
 40
0.5
 40
0.5
 40
0.5
 40
0.6666666666666666
 40
0.6666666666666666
 40
0.6666666666666666
 40
0.6666666666666666
 40
1.0
 40
1.0
 40
1.0
 40
1.0
 10
57.3163
 20
30.99
 30
0.0
 10
57.3163
 20
30.99
 30
0.0
 10
43.9836
 20
30.99
 30
0.0
 10
43.9836
 20
30.99
 30
0.0
 10
43.9836
 20
30.99
 30
0.0
 10
43.9836
 20
30.99
 30
0.0
 10
43.9836
 20
44.7802
 30
0.0
 10
43.9836
 20
44.7802
 30
0.0
 10
43.9836
 20
44.7802
 30
0.0
 10
43.9836
 20
44.7802
 30
0.0
 10
50.6499
 20
51.4257
 30
0.0
 10
50.6499
 20
51.4257
 30
0.0
 10
50.6499
 20
51.4257
 30
0.0
 10
50.6499
 20
51.4257
 30
0.0
 10
57.3163
 20
44.7802
 30
0.0
 10
57.3163
 20
44.7802
 30
0.0
 10
57.3163
 20
44.7802
 30
0.0
 10
57.3163
 20
44.7802
 30
0.0
 10
57.3163
 20
30.99
 30
0.0
 10
57.3163
 20
30.99
 30
0.0
  0
SPLINE
  5
84
330
1F
100
AcDbEntity
  8
layer 1
 62
     7
100
AcDbSpline
210
0.0
220
0.0
230
1.0
 70
    11
 71
     3
 72
    28
 73
    24
 74
     0
 42
0.0000000001
 43
0.0000000001
 12
1.0
 22
0.0
 32
0.0
 13
1.0
 23
0.0
 33
0.0
 40
0.0
 40
0.0
 40
0.0
 40
0.0
 40
0.1428571428571428
 40
0.1428571428571428
 40
0.1428571428571428
 40
0.1428571428571428
 40
0.2857142857142857
 40
0.2857142857142857
 40
0.2857142857142857
 40
0.2857142857142857
 40
0.4285714285714285
 40
0.4285714285714285
 40
0.4285714285714285
 40
0.4285714285714285
 40
0.5714285714285714
 40
0.5714285714285714
 40
0.5714285714285714
 40
0.5714285714285714
 40
0.7142857142857143
 40
0.7142857142857143
 40
0.7142857142857143
 40
0.7142857142857143
 40
1.0
 40
1.0
 40
1.0
 40
1.0
 10
38.44
 20
30.99
 30
0.0
 10
38.44
 20
30.99
 30
0.0
 10
36.8692
 20
30.99
 30
0.0
 10
36.8692
 20
30.99
 30
0.0
 10
36.8692
 20
30.99
 30
0.0
 10
36.2256
 20
33.7113
 30
0.0
 10
34.4998
 20
35.9248
 30
0.0
 10
31.2618
 20
35.809
 30
0.0
 10
31.2618
 20
35.809
 30
0.0
 10
31.3739
 20
38.9256
 30
0.0
 10
29.3411
 20
40.7007
 30
0.0
 10
26.4288
 20
41.3901
 30
0.0
 10
26.4288
 20
41.3901
 30
0.0
 10
26.4288
 20
41.3901
 30
0.0
 10
26.4288
 20
42.9639
 30
0.0
 10
26.4288
 20
42.9639
 30
0.0
 10
26.4288
 20
42.9639
 30
0.0
 10
26.4288
 20
42.9639
 30
0.0
 10
38.44
 20
42.9639
 30
0.0
 10
38.44
 20
42.9639
 30
0.0
 10
38.44
 20
42.9639
 30
0.0
 10
38.44
 20
42.9639
 30
0.0
 10
38.44
 20
30.99
 30
0.0
 10
38.44
 20
30.99
 30
0.0
  0
SPLINE
  5
85
330
1F
100
AcDbEntity
  8
layer 1
 62
     7
100
AcDbSpline
210
0.0
220
0.0
230
1.0
 70
    11
 71
     3
 72
    28
 73
    24
 74
     0
 42
0.0000000001
 43
0.0000000001
 12
1.0
 22
0.0
 32
0.0
 13
1.0
 23
0.0
 33
0.0
 40
0.0
 40
0.0
 40
0.0
 40
0.0
 40
0.1428571428571428
 40
0.1428571428571428
 40
0.1428571428571428
 40
0.1428571428571428
 40
0.2857142857142857
 40
0.2857142857142857
 40
0.2857142857142857
 40
0.2857142857142857
 40
0.4285714285714285
 40
0.4285714285714285
 40
0.4285714285714285
 40
0.4285714285714285
 40
0.5714285714285714
 40
0.5714285714285714
 40
0.5714285714285714
 40
0.5714285714285714
 40
0.7142857142857143
 40
0.7142857142857143
 40
0.7142857142857143
 40
0.7142857142857143
 40
1.0
 40
1.0
 40
1.0
 40
1.0
 10
90.8466
 20
25.4638
 30
0.0
 10
90.8466
 20
25.4638
 30
0.0
 10
92.4263
 20
25.4638
 30
0.0
 10
92.4263
 20
25.4638
 30
0.0
 10
92.4263
 20
25.4638
 30
0.0
 10
92.4263
 20
25.4638
 30
0.0
 10
92.4263
 20
13.4898
 30
0.0
 10
92.4263
 20
13.4898
 30
0.0
 10
92.4263
 20
13.4898
 30
0.0
 10
92.4263
 20
13.4898
 30
0.0
 10
80.4149
 20
13.4898
 30
0.0
 10
80.4149
 20
13.4898
 30
0.0
 10
80.4149
 20
13.4898
 30
0.0
 10
80.4149
 20
13.4898
 30
0.0
 10
80.4149
 20
15.0608
 30
0.0
 10
80.4149
 20
15.0608
 30
0.0
 10
80.4149
 20
15.0608
 30
0.0
 10
83.3255
 20
15.7692
 30
0.0
 10
85.3605
 20
17.518
 30
0.0
 10
85.2479
 20
20.6448
 30
0.0
 10
85.2479
 20
20.6448
 30
0.0
 10
88.3753
 20
20.5337
 30
0.0
 10
90.1547
 20
22.5592
 30
0.0
 10
90.8466
 20
25.4638
 30
0.0
  0
SPLINE
  5
86
330
1F
100
AcDbEntity
  8
layer 1
 62
     7
100
AcDbSpline
210
0.0
220
0.0
230
1.0
 70
    11
 71
     3
 72
    32
 73
    28
 74
     0
 42
0.0000000001
 43
0.0000000001
 12
1.0
 22
0.0
 32
0.0
 13
1.0
 23
0.0
 33
0.0
 40
0.0
 40
0.0
 40
0.0
 40
0.0
 40
0.125
 40
0.125
 40
0.125
 40
0.125
 40
0.25
 40
0.25
 40
0.25
 40
0.25
 40
0.375
 40
0.375
 40
0.375
 40
0.375
 40
0.5
 40
0.5
 40
0.5
 40
0.5
 40
0.625
 40
0.625
 40
0.625
 40
0.625
 40
0.75
 40
0.75
 40
0.75
 40
0.75
 40
1.0
 40
1.0
 40
1.0
 40
1.0
 10
92.4263
 20
30.99
 30
0.0
 10
92.4263
 20
30.99
 30
0.0
 10
90.8497
 20
30.99
 30
0.0
 10
90.8497
 20
30.99
 30
0.0
 10
90.8497
 20
30.99
 30
0.0
 10
90.5784
 20
32.0973
 30
0.0
 10
90.1794
 20
33.0573
 30
0.0
 10
89.4952
 20
33.9684
 30
0.0
 10
89.4952
 20
33.9684
 30
0.0
 10
88.3582
 20
35.3226
 30
0.0
 10
86.9995
 20
35.8716
 30
0.0
 10
85.2479
 20
35.809
 30
0.0
 10
85.2479
 20
35.809
 30
0.0
 10
85.36
 20
38.9256
 30
0.0
 10
83.327
 20
40.701
 30
0.0
 10
80.4149
 20
41.3901
 30
0.0
 10
80.4149
 20
41.3901
 30
0.0
 10
80.4149
 20
41.3901
 30
0.0
 10
80.4149
 20
42.9639
 30
0.0
 10
80.4149
 20
42.9639
 30
0.0
 10
80.4149
 20
42.9639
 30
0.0
 10
80.4149
 20
42.9639
 30
0.0
 10
92.4263
 20
42.9639
 30
0.0
 10
92.4263
 20
42.9639
 30
0.0
 10
92.4263
 20
42.9639
 30
0.0
 10
92.4263
 20
42.9639
 30
0.0
 10
92.4263
 20
30.99
 30
0.0
 10
92.4263
 20
30.99
 30
0.0
  0
SPLINE
  5
87
330
1F
100
AcDbEntity
  8
layer 1
 62
     7
100
AcDbSpline
210
0.0
220
0.0
230
1.0
 70
    11
 71
     3
 72
    28
 73
    24
 74
     0
 42
0.0000000001
 43
0.0000000001
 12
1.0
 22
0.0
 32
0.0
 13
1.0
 23
0.0
 33
0.0
 40
0.0
 40
0.0
 40
0.0
 40
0.0
 40
0.1428571428571428
 40
0.1428571428571428
 40
0.1428571428571428
 40
0.1428571428571428
 40
0.2857142857142857
 40
0.2857142857142857
 40
0.2857142857142857
 40
0.2857142857142857
 40
0.4285714285714285
 40
0.4285714285714285
 40
0.4285714285714285
 40
0.4285714285714285
 40
0.5714285714285714
 40
0.5714285714285714
 40
0.5714285714285714
 40
0.5714285714285714
 40
0.7142857142857143
 40
0.7142857142857143
 40
0.7142857142857143
 40
0.7142857142857143
 40
1.0
 40
1.0
 40
1.0
 40
1.0
 10
-45.1124
 20
79.8845
 30
0.0
 10
-45.1124
 20
79.8845
 30
0.0
 10
-43.5407
 20
79.8845
 30
0.0
 10
-43.5407
 20
79.8845
 30
0.0
 10
-43.5407
 20
79.8845
 30
0.0
 10
-42.8976
 20
77.1653
 30
0.0
 10
-41.1757
 20
74.9504
 30
0.0
 10
-37.9359
 20
75.0655
 30
0.0
 10
-37.9359
 20
75.0655
 30
0.0
 10
-38.0474
 20
71.9474
 30
0.0
 10
-36.0148
 20
70.1738
 30
0.0
 10
-33.101
 20
69.4842
 30
0.0
 10
-33.101
 20
69.4842
 30
0.0
 10
-33.101
 20
69.4842
 30
0.0
 10
-33.101
 20
67.9106
 30
0.0
 10
-33.101
 20
67.9106
 30
0.0
 10
-33.101
 20
67.9106
 30
0.0
 10
-33.101
 20
67.9106
 30
0.0
 10
-45.1124
 20
67.9106
 30
0.0
 10
-45.1124
 20
67.9106
 30
0.0
 10
-45.1124
 20
67.9106
 30
0.0
 10
-45.1124
 20
67.9106
 30
0.0
 10
-45.1124
 20
79.8845
 30
0.0
 10
-45.1124
 20
79.8845
 30
0.0
  0
SPLINE
  5
88
330
1F
100
AcDbEntity
  8
layer 1
 62
     7
100
AcDbSpline
210
0.0
220
0.0
230
1.0
 70
    11
 71
     3
 72
    32
 73
    28
 74
     0
 42
0.0000000001
 43
0.0000000001
 12
1.0
 22
0.0
 32
0.0
 13
1.0
 23
0.0
 33
0.0
 40
0.0
 40
0.0
 40
0.0
 40
0.0
 40
0.125
 40
0.125
 40
0.125
 40
0.125
 40
0.25
 40
0.25
 40
0.25
 40
0.25
 40
0.375
 40
0.375
 40
0.375
 40
0.375
 40
0.5
 40
0.5
 40
0.5
 40
0.5
 40
0.625
 40
0.625
 40
0.625
 40
0.625
 40
0.75
 40
0.75
 40
0.75
 40
0.75
 40
1.0
 40
1.0
 40
1.0
 40
1.0
 10
-43.5267
 20
85.4108
 30
0.0
 10
-43.5267
 20
85.4108
 30
0.0
 10
-45.1124
 20
85.4108
 30
0.0
 10
-45.1124
 20
85.4108
 30
0.0
 10
-45.1124
 20
85.4108
 30
0.0
 10
-45.1124
 20
85.4108
 30
0.0
 10
-45.1124
 20
97.3847
 30
0.0
 10
-45.1124
 20
97.3847
 30
0.0
 10
-45.1124
 20
97.3847
 30
0.0
 10
-45.1124
 20
97.3847
 30
0.0
 10
-33.101
 20
97.3847
 30
0.0
 10
-33.101
 20
97.3847
 30
0.0
 10
-33.101
 20
97.3847
 30
0.0
 10
-33.101
 20
97.3847
 30
0.0
 10
-33.101
 20
95.8143
 30
0.0
 10
-33.101
 20
95.8143
 30
0.0
 10
-33.101
 20
95.8143
 30
0.0
 10
-36.0099
 20
95.1067
 30
0.0
 10
-38.0476
 20
93.3539
 30
0.0
 10
-37.9359
 20
90.2298
 30
0.0
 10
-37.9359
 20
90.2298
 30
0.0
 10
-40.5757
 20
90.3243
 30
0.0
 10
-42.2556
 20
88.9378
 30
0.0
 10
-43.2034
 20
86.5366
 30
0.0
 10
-43.2034
 20
86.5366
 30
0.0
 10
-43.3284
 20
86.182
 30
0.0
 10
-43.4365
 20
85.8043
 30
0.0
 10
-43.5267
 20
85.4108
 30
0.0
  0
SPLINE
  5
89
330
1F
100
AcDbEntity
  8
layer 1
 62
     7
100
AcDbSpline
210
0.0
220
0.0
230
1.0
 70
    11
 71
     3
 72
    32
 73
    28
 74
     0
 42
0.0000000001
 43
0.0000000001
 12
1.0
 22
0.0
 32
0.0
 13
1.0
 23
0.0
 33
0.0
 40
0.0
 40
0.0
 40
0.0
 40
0.0
 40
0.125
 40
0.125
 40
0.125
 40
0.125
 40
0.25
 40
0.25
 40
0.25
 40
0.25
 40
0.375
 40
0.375
 40
0.375
 40
0.375
 40
0.5
 40
0.5
 40
0.5
 40
0.5
 40
0.625
 40
0.625
 40
0.625
 40
0.625
 40
0.75
 40
0.75
 40
0.75
 40
0.75
 40
1.0
 40
1.0
 40
1.0
 40
1.0
 10
-17.1331
 20
79.8845
 30
0.0
 10
-17.1331
 20
79.8845
 30
0.0
 10
-15.5461
 20
79.8845
 30
0.0
 10
-15.5461
 20
79.8845
 30
0.0
 10
-15.5461
 20
79.8845
 30
0.0
 10
-15.5461
 20
79.8845
 30
0.0
 10
-15.5461
 20
67.9106
 30
0.0
 10
-15.5461
 20
67.9106
 30
0.0
 10
-15.5461
 20
67.9106
 30
0.0
 10
-15.5461
 20
67.9106
 30
0.0
 10
-27.5573
 20
67.9106
 30
0.0
 10
-27.5573
 20
67.9106
 30
0.0
 10
-27.5573
 20
67.9106
 30
0.0
 10
-27.5573
 20
67.9106
 30
0.0
 10
-27.5573
 20
69.4816
 30
0.0
 10
-27.5573
 20
69.4816
 30
0.0
 10
-27.5573
 20
69.4816
 30
0.0
 10
-24.6465
 20
70.1902
 30
0.0
 10
-22.6117
 20
71.9388
 30
0.0
 10
-22.7245
 20
75.0655
 30
0.0
 10
-22.7245
 20
75.0655
 30
0.0
 10
-20.0887
 20
74.9721
 30
0.0
 10
-18.4096
 20
76.3526
 30
0.0
 10
-17.4605
 20
78.7495
 30
0.0
 10
-17.4605
 20
78.7495
 30
0.0
 10
-17.3337
 20
79.1073
 30
0.0
 10
-17.2244
 20
79.488
 30
0.0
 10
-17.1331
 20
79.8845
 30
0.0
  0
SPLINE
  5
8A
330
1F
100
AcDbEntity
  8
layer 1
 62
     7
100
AcDbSpline
210
0.0
220
0.0
230
1.0
 70
    11
 71
     3
 72
    24
 73
    20
 74
     0
 42
0.0000000001
 43
0.0000000001
 12
1.0
 22
0.0
 32
0.0
 13
1.0
 23
0.0
 33
0.0
 40
0.0
 40
0.0
 40
0.0
 40
0.0
 40
0.1666666666666667
 40
0.1666666666666667
 40
0.1666666666666667
 40
0.1666666666666667
 40
0.3333333333333333
 40
0.3333333333333333
 40
0.3333333333333333
 40
0.3333333333333333
 40
0.5
 40
0.5
 40
0.5
 40
0.5
 40
0.6666666666666666
 40
0.6666666666666666
 40
0.6666666666666666
 40
0.6666666666666666
 40
1.0
 40
1.0
 40
1.0
 40
1.0
 10
-10.0024
 20
79.8845
 30
0.0
 10
-10.0024
 20
79.8845
 30
0.0
 10
3.33
 20
79.8845
 30
0.0
 10
3.33
 20
79.8845
 30
0.0
 10
3.33
 20
79.8845
 30
0.0
 10
3.33
 20
79.8845
 30
0.0
 10
3.33
 20
66.0943
 30
0.0
 10
3.33
 20
66.0943
 30
0.0
 10
3.33
 20
66.0943
 30
0.0
 10
3.33
 20
66.0943
 30
0.0
 10
-3.3362
 20
59.4488
 30
0.0
 10
-3.3362
 20
59.4488
 30
0.0
 10
-3.3362
 20
59.4488
 30
0.0
 10
-3.3362
 20
59.4488
 30
0.0
 10
-10.0024
 20
66.0943
 30
0.0
 10
-10.0024
 20
66.0943
 30
0.0
 10
-10.0024
 20
66.0943
 30
0.0
 10
-10.0024
 20
66.0943
 30
0.0
 10
-10.0024
 20
79.8845
 30
0.0
 10
-10.0024
 20
79.8845
 30
0.0
  0
SPLINE
  5
8B
330
1F
100
AcDbEntity
  8
layer 1
 62
     7
100
AcDbSpline
210
0.0
220
0.0
230
1.0
 70
    11
 71
     3
 72
    28
 73
    24
 74
     0
 42
0.0000000001
 43
0.0000000001
 12
1.0
 22
0.0
 32
0.0
 13
1.0
 23
0.0
 33
0.0
 40
0.0
 40
0.0
 40
0.0
 40
0.0
 40
0.1428571428571428
 40
0.1428571428571428
 40
0.1428571428571428
 40
0.1428571428571428
 40
0.2857142857142857
 40
0.2857142857142857
 40
0.2857142857142857
 40
0.2857142857142857
 40
0.4285714285714285
 40
0.4285714285714285
 40
0.4285714285714285
 40
0.4285714285714285
 40
0.5714285714285714
 40
0.5714285714285714
 40
0.5714285714285714
 40
0.5714285714285714
 40
0.7142857142857143
 40
0.7142857142857143
 40
0.7142857142857143
 40
0.7142857142857143
 40
1.0
 40
1.0
 40
1.0
 40
1.0
 10
8.8737
 20
79.8845
 30
0.0
 10
8.8737
 20
79.8845
 30
0.0
 10
10.4456
 20
79.8845
 30
0.0
 10
10.4456
 20
79.8845
 30
0.0
 10
10.4456
 20
79.8845
 30
0.0
 10
11.0885
 20
77.1653
 30
0.0
 10
12.8104
 20
74.9504
 30
0.0
 10
16.0502
 20
75.0655
 30
0.0
 10
16.0502
 20
75.0655
 30
0.0
 10
15.9387
 20
71.9474
 30
0.0
 10
17.9713
 20
70.1738
 30
0.0
 10
20.8851
 20
69.4842
 30
0.0
 10
20.8851
 20
69.4842
 30
0.0
 10
20.8851
 20
69.4842
 30
0.0
 10
20.8851
 20
67.9106
 30
0.0
 10
20.8851
 20
67.9106
 30
0.0
 10
20.8851
 20
67.9106
 30
0.0
 10
20.8851
 20
67.9106
 30
0.0
 10
8.8737
 20
67.9106
 30
0.0
 10
8.8737
 20
67.9106
 30
0.0
 10
8.8737
 20
67.9106
 30
0.0
 10
8.8737
 20
67.9106
 30
0.0
 10
8.8737
 20
79.8845
 30
0.0
 10
8.8737
 20
79.8845
 30
0.0
  0
SPLINE
  5
8C
330
1F
100
AcDbEntity
  8
layer 1
 62
     7
100
AcDbSpline
210
0.0
220
0.0
230
1.0
 70
    11
 71
     3
 72
    32
 73
    28
 74
     0
 42
0.0000000001
 43
0.0000000001
 12
1.0
 22
0.0
 32
0.0
 13
1.0
 23
0.0
 33
0.0
 40
0.0
 40
0.0
 40
0.0
 40
0.0
 40
0.125
 40
0.125
 40
0.125
 40
0.125
 40
0.25
 40
0.25
 40
0.25
 40
0.25
 40
0.375
 40
0.375
 40
0.375
 40
0.375
 40
0.5
 40
0.5
 40
0.5
 40
0.5
 40
0.625
 40
0.625
 40
0.625
 40
0.625
 40
0.75
 40
0.75
 40
0.75
 40
0.75
 40
1.0
 40
1.0
 40
1.0
 40
1.0
 10
10.4594
 20
85.4108
 30
0.0
 10
10.4594
 20
85.4108
 30
0.0
 10
8.8737
 20
85.4108
 30
0.0
 10
8.8737
 20
85.4108
 30
0.0
 10
8.8737
 20
85.4108
 30
0.0
 10
8.8737
 20
85.4108
 30
0.0
 10
8.8737
 20
97.3847
 30
0.0
 10
8.8737
 20
97.3847
 30
0.0
 10
8.8737
 20
97.3847
 30
0.0
 10
8.8737
 20
97.3847
 30
0.0
 10
20.8851
 20
97.3847
 30
0.0
 10
20.8851
 20
97.3847
 30
0.0
 10
20.8851
 20
97.3847
 30
0.0
 10
20.8851
 20
97.3847
 30
0.0
 10
20.8851
 20
95.8143
 30
0.0
 10
20.8851
 20
95.8143
 30
0.0
 10
20.8851
 20
95.8143
 30
0.0
 10
17.9762
 20
95.1067
 30
0.0
 10
15.9384
 20
93.3539
 30
0.0
 10
16.0502
 20
90.2298
 30
0.0
 10
16.0502
 20
90.2298
 30
0.0
 10
13.4104
 20
90.3243
 30
0.0
 10
11.7307
 20
88.9378
 30
0.0
 10
10.7827
 20
86.5366
 30
0.0
 10
10.7827
 20
86.5366
 30
0.0
 10
10.6576
 20
86.182
 30
0.0
 10
10.5496
 20
85.8043
 30
0.0
 10
10.4594
 20
85.4108
 30
0.0
  0
SPLINE
  5
8D
330
1F
100
AcDbEntity
  8
layer 1
 62
     7
100
AcDbSpline
210
0.0
220
0.0
230
1.0
 70
    11
 71
     3
 72
    24
 73
    20
 74
     0
 42
0.0000000001
 43
0.0000000001
 12
1.0
 22
0.0
 32
0.0
 13
1.0
 23
0.0
 33
0.0
 40
0.0
 40
0.0
 40
0.0
 40
0.0
 40
0.1666666666666667
 40
0.1666666666666667
 40
0.1666666666666667
 40
0.1666666666666667
 40
0.3333333333333333
 40
0.3333333333333333
 40
0.3333333333333333
 40
0.3333333333333333
 40
0.5
 40
0.5
 40
0.5
 40
0.5
 40
0.6666666666666666
 40
0.6666666666666666
 40
0.6666666666666666
 40
0.6666666666666666
 40
1.0
 40
1.0
 40
1.0
 40
1.0
 10
3.33
 20
85.4108
 30
0.0
 10
3.33
 20
85.4108
 30
0.0
 10
-10.0024
 20
85.4108
 30
0.0
 10
-10.0024
 20
85.4108
 30
0.0
 10
-10.0024
 20
85.4108
 30
0.0
 10
-10.0024
 20
85.4108
 30
0.0
 10
-10.0024
 20
99.201
 30
0.0
 10
-10.0024
 20
99.201
 30
0.0
 10
-10.0024
 20
99.201
 30
0.0
 10
-10.0024
 20
99.201
 30
0.0
 10
-3.3362
 20
105.8465
 30
0.0
 10
-3.3362
 20
105.8465
 30
0.0
 10
-3.3362
 20
105.8465
 30
0.0
 10
-3.3362
 20
105.8465
 30
0.0
 10
3.33
 20
99.201
 30
0.0
 10
3.33
 20
99.201
 30
0.0
 10
3.33
 20
99.201
 30
0.0
 10
3.33
 20
99.201
 30
0.0
 10
3.33
 20
85.4108
 30
0.0
 10
3.33
 20
85.4108
 30
0.0
  0
SPLINE
  5
8E
330
1F
100
AcDbEntity
  8
layer 1
 62
     7
100
AcDbSpline
210
0.0
220
0.0
230
1.0
 70
    11
 71
     3
 72
    28
 73
    24
 74
     0
 42
0.0000000001
 43
0.0000000001
 12
1.0
 22
0.0
 32
0.0
 13
1.0
 23
0.0
 33
0.0
 40
0.0
 40
0.0
 40
0.0
 40
0.0
 40
0.1428571428571428
 40
0.1428571428571428
 40
0.1428571428571428
 40
0.1428571428571428
 40
0.2857142857142857
 40
0.2857142857142857
 40
0.2857142857142857
 40
0.2857142857142857
 40
0.4285714285714285
 40
0.4285714285714285
 40
0.4285714285714285
 40
0.4285714285714285
 40
0.5714285714285714
 40
0.5714285714285714
 40
0.5714285714285714
 40
0.5714285714285714
 40
0.7142857142857143
 40
0.7142857142857143
 40
0.7142857142857143
 40
0.7142857142857143
 40
1.0
 40
1.0
 40
1.0
 40
1.0
 10
-15.5461
 20
85.4108
 30
0.0
 10
-15.5461
 20
85.4108
 30
0.0
 10
-17.1169
 20
85.4108
 30
0.0
 10
-17.1169
 20
85.4108
 30
0.0
 10
-17.1169
 20
85.4108
 30
0.0
 10
-17.7604
 20
88.1321
 30
0.0
 10
-19.4863
 20
90.3456
 30
0.0
 10
-22.7245
 20
90.2298
 30
0.0
 10
-22.7245
 20
90.2298
 30
0.0
 10
-22.6122
 20
93.3464
 30
0.0
 10
-24.645
 20
95.1217
 30
0.0
 10
-27.5573
 20
95.8111
 30
0.0
 10
-27.5573
 20
95.8111
 30
0.0
 10
-27.5573
 20
95.8111
 30
0.0
 10
-27.5573
 20
97.3847
 30
0.0
 10
-27.5573
 20
97.3847
 30
0.0
 10
-27.5573
 20
97.3847
 30
0.0
 10
-27.5573
 20
97.3847
 30
0.0
 10
-15.5461
 20
97.3847
 30
0.0
 10
-15.5461
 20
97.3847
 30
0.0
 10
-15.5461
 20
97.3847
 30
0.0
 10
-15.5461
 20
97.3847
 30
0.0
 10
-15.5461
 20
85.4108
 30
0.0
 10
-15.5461
 20
85.4108
 30
0.0
  0
SPLINE
  5
8F
330
1F
100
AcDbEntity
  8
layer 1
 62
     7
100
AcDbSpline
210
0.0
220
0.0
230
1.0
 70
    11
 71
     3
 72
    28
 73
    24
 74
     0
 42
0.0000000001
 43
0.0000000001
 12
1.0
 22
0.0
 32
0.0
 13
1.0
 23
0.0
 33
0.0
 40
0.0
 40
0.0
 40
0.0
 40
0.0
 40
0.1428571428571428
 40
0.1428571428571428
 40
0.1428571428571428
 40
0.1428571428571428
 40
0.2857142857142857
 40
0.2857142857142857
 40
0.2857142857142857
 40
0.2857142857142857
 40
0.4285714285714285
 40
0.4285714285714285
 40
0.4285714285714285
 40
0.4285714285714285
 40
0.5714285714285714
 40
0.5714285714285714
 40
0.5714285714285714
 40
0.5714285714285714
 40
0.7142857142857143
 40
0.7142857142857143
 40
0.7142857142857143
 40
0.7142857142857143
 40
1.0
 40
1.0
 40
1.0
 40
1.0
 10
36.867
 20
79.8845
 30
0.0
 10
36.867
 20
79.8845
 30
0.0
 10
38.44
 20
79.8845
 30
0.0
 10
38.44
 20
79.8845
 30
0.0
 10
38.44
 20
79.8845
 30
0.0
 10
38.44
 20
79.8845
 30
0.0
 10
38.44
 20
67.9106
 30
0.0
 10
38.44
 20
67.9106
 30
0.0
 10
38.44
 20
67.9106
 30
0.0
 10
38.44
 20
67.9106
 30
0.0
 10
26.4288
 20
67.9106
 30
0.0
 10
26.4288
 20
67.9106
 30
0.0
 10
26.4288
 20
67.9106
 30
0.0
 10
26.4288
 20
67.9106
 30
0.0
 10
26.4288
 20
69.4816
 30
0.0
 10
26.4288
 20
69.4816
 30
0.0
 10
26.4288
 20
69.4816
 30
0.0
 10
29.3396
 20
70.1902
 30
0.0
 10
31.3744
 20
71.9388
 30
0.0
 10
31.2618
 20
75.0655
 30
0.0
 10
31.2618
 20
75.0655
 30
0.0
 10
34.4583
 20
74.9521
 30
0.0
 10
36.2039
 20
77.082
 30
0.0
 10
36.867
 20
79.8845
 30
0.0
  0
SPLINE
  5
90
330
1F
100
AcDbEntity
  8
layer 1
 62
     7
100
AcDbSpline
210
0.0
220
0.0
230
1.0
 70
    11
 71
     3
 72
    24
 73
    20
 74
     0
 42
0.0000000001
 43
0.0000000001
 12
1.0
 22
0.0
 32
0.0
 13
1.0
 23
0.0
 33
0.0
 40
0.0
 40
0.0
 40
0.0
 40
0.0
 40
0.1666666666666667
 40
0.1666666666666667
 40
0.1666666666666667
 40
0.1666666666666667
 40
0.3333333333333333
 40
0.3333333333333333
 40
0.3333333333333333
 40
0.3333333333333333
 40
0.5
 40
0.5
 40
0.5
 40
0.5
 40
0.6666666666666666
 40
0.6666666666666666
 40
0.6666666666666666
 40
0.6666666666666666
 40
1.0
 40
1.0
 40
1.0
 40
1.0
 10
43.9836
 20
79.8845
 30
0.0
 10
43.9836
 20
79.8845
 30
0.0
 10
57.3163
 20
79.8845
 30
0.0
 10
57.3163
 20
79.8845
 30
0.0
 10
57.3163
 20
79.8845
 30
0.0
 10
57.3163
 20
79.8845
 30
0.0
 10
57.3163
 20
66.0943
 30
0.0
 10
57.3163
 20
66.0943
 30
0.0
 10
57.3163
 20
66.0943
 30
0.0
 10
57.3163
 20
66.0943
 30
0.0
 10
50.6499
 20
59.4488
 30
0.0
 10
50.6499
 20
59.4488
 30
0.0
 10
50.6499
 20
59.4488
 30
0.0
 10
50.6499
 20
59.4488
 30
0.0
 10
43.9836
 20
66.0943
 30
0.0
 10
43.9836
 20
66.0943
 30
0.0
 10
43.9836
 20
66.0943
 30
0.0
 10
43.9836
 20
66.0943
 30
0.0
 10
43.9836
 20
79.8845
 30
0.0
 10
43.9836
 20
79.8845
 30
0.0
  0
SPLINE
  5
91
330
1F
100
AcDbEntity
  8
layer 1
 62
     7
100
AcDbSpline
210
0.0
220
0.0
230
1.0
 70
    11
 71
     3
 72
    32
 73
    28
 74
     0
 42
0.0000000001
 43
0.0000000001
 12
1.0
 22
0.0
 32
0.0
 13
1.0
 23
0.0
 33
0.0
 40
0.0
 40
0.0
 40
0.0
 40
0.0
 40
0.125
 40
0.125
 40
0.125
 40
0.125
 40
0.25
 40
0.25
 40
0.25
 40
0.25
 40
0.375
 40
0.375
 40
0.375
 40
0.375
 40
0.5
 40
0.5
 40
0.5
 40
0.5
 40
0.625
 40
0.625
 40
0.625
 40
0.625
 40
0.75
 40
0.75
 40
0.75
 40
0.75
 40
1.0
 40
1.0
 40
1.0
 40
1.0
 10
62.86
 20
79.8845
 30
0.0
 10
62.86
 20
79.8845
 30
0.0
 10
64.4345
 20
79.8845
 30
0.0
 10
64.4345
 20
79.8845
 30
0.0
 10
64.4345
 20
79.8845
 30
0.0
 10
64.706
 20
78.7762
 30
0.0
 10
65.1064
 20
77.8123
 30
0.0
 10
65.7932
 20
76.9007
 30
0.0
 10
65.7932
 20
76.9007
 30
0.0
 10
66.93
 20
75.5504
 30
0.0
 10
68.2868
 20
75.0033
 30
0.0
 10
70.0363
 20
75.0655
 30
0.0
 10
70.0363
 20
75.0655
 30
0.0
 10
69.9248
 20
71.9476
 30
0.0
 10
71.9572
 20
70.1738
 30
0.0
 10
74.8712
 20
69.4842
 30
0.0
 10
74.8712
 20
69.4842
 30
0.0
 10
74.8712
 20
69.4842
 30
0.0
 10
74.8712
 20
67.9106
 30
0.0
 10
74.8712
 20
67.9106
 30
0.0
 10
74.8712
 20
67.9106
 30
0.0
 10
74.8712
 20
67.9106
 30
0.0
 10
62.86
 20
67.9106
 30
0.0
 10
62.86
 20
67.9106
 30
0.0
 10
62.86
 20
67.9106
 30
0.0
 10
62.86
 20
67.9106
 30
0.0
 10
62.86
 20
79.8845
 30
0.0
 10
62.86
 20
79.8845
 30
0.0
  0
SPLINE
  5
92
330
1F
100
AcDbEntity
  8
layer 1
 62
     7
100
AcDbSpline
210
0.0
220
0.0
230
1.0
 70
    11
 71
     3
 72
    28
 73
    24
 74
     0
 42
0.0000000001
 43
0.0000000001
 12
1.0
 22
0.0
 32
0.0
 13
1.0
 23
0.0
 33
0.0
 40
0.0
 40
0.0
 40
0.0
 40
0.0
 40
0.1428571428571428
 40
0.1428571428571428
 40
0.1428571428571428
 40
0.1428571428571428
 40
0.2857142857142857
 40
0.2857142857142857
 40
0.2857142857142857
 40
0.2857142857142857
 40
0.4285714285714285
 40
0.4285714285714285
 40
0.4285714285714285
 40
0.4285714285714285
 40
0.5714285714285714
 40
0.5714285714285714
 40
0.5714285714285714
 40
0.5714285714285714
 40
0.7142857142857143
 40
0.7142857142857143
 40
0.7142857142857143
 40
0.7142857142857143
 40
1.0
 40
1.0
 40
1.0
 40
1.0
 10
64.434
 20
85.4108
 30
0.0
 10
64.434
 20
85.4108
 30
0.0
 10
62.86
 20
85.4108
 30
0.0
 10
62.86
 20
85.4108
 30
0.0
 10
62.86
 20
85.4108
 30
0.0
 10
62.86
 20
85.4108
 30
0.0
 10
62.86
 20
97.3847
 30
0.0
 10
62.86
 20
97.3847
 30
0.0
 10
62.86
 20
97.3847
 30
0.0
 10
62.86
 20
97.3847
 30
0.0
 10
74.8712
 20
97.3847
 30
0.0
 10
74.8712
 20
97.3847
 30
0.0
 10
74.8712
 20
97.3847
 30
0.0
 10
74.8712
 20
97.3847
 30
0.0
 10
74.8712
 20
95.8143
 30
0.0
 10
74.8712
 20
95.8143
 30
0.0
 10
74.8712
 20
95.8143
 30
0.0
 10
71.9621
 20
95.1064
 30
0.0
 10
69.9245
 20
93.3539
 30
0.0
 10
70.0363
 20
90.2298
 30
0.0
 10
70.0363
 20
90.2298
 30
0.0
 10
66.9028
 20
90.3419
 30
0.0
 10
65.1366
 20
88.3134
 30
0.0
 10
64.434
 20
85.4108
 30
0.0
  0
SPLINE
  5
93
330
1F
100
AcDbEntity
  8
layer 1
 62
     7
100
AcDbSpline
210
0.0
220
0.0
230
1.0
 70
    11
 71
     3
 72
    24
 73
    20
 74
     0
 42
0.0000000001
 43
0.0000000001
 12
1.0
 22
0.0
 32
0.0
 13
1.0
 23
0.0
 33
0.0
 40
0.0
 40
0.0
 40
0.0
 40
0.0
 40
0.1666666666666667
 40
0.1666666666666667
 40
0.1666666666666667
 40
0.1666666666666667
 40
0.3333333333333333
 40
0.3333333333333333
 40
0.3333333333333333
 40
0.3333333333333333
 40
0.5
 40
0.5
 40
0.5
 40
0.5
 40
0.6666666666666666
 40
0.6666666666666666
 40
0.6666666666666666
 40
0.6666666666666666
 40
1.0
 40
1.0
 40
1.0
 40
1.0
 10
57.3163
 20
85.4108
 30
0.0
 10
57.3163
 20
85.4108
 30
0.0
 10
43.9836
 20
85.4108
 30
0.0
 10
43.9836
 20
85.4108
 30
0.0
 10
43.9836
 20
85.4108
 30
0.0
 10
43.9836
 20
85.4108
 30
0.0
 10
43.9836
 20
99.201
 30
0.0
 10
43.9836
 20
99.201
 30
0.0
 10
43.9836
 20
99.201
 30
0.0
 10
43.9836
 20
99.201
 30
0.0
 10
50.6499
 20
105.8465
 30
0.0
 10
50.6499
 20
105.8465
 30
0.0
 10
50.6499
 20
105.8465
 30
0.0
 10
50.6499
 20
105.8465
 30
0.0
 10
57.3163
 20
99.201
 30
0.0
 10
57.3163
 20
99.201
 30
0.0
 10
57.3163
 20
99.201
 30
0.0
 10
57.3163
 20
99.201
 30
0.0
 10
57.3163
 20
85.4108
 30
0.0
 10
57.3163
 20
85.4108
 30
0.0
  0
SPLINE
  5
94
330
1F
100
AcDbEntity
  8
layer 1
 62
     7
100
AcDbSpline
210
0.0
220
0.0
230
1.0
 70
    11
 71
     3
 72
    32
 73
    28
 74
     0
 42
0.0000000001
 43
0.0000000001
 12
1.0
 22
0.0
 32
0.0
 13
1.0
 23
0.0
 33
0.0
 40
0.0
 40
0.0
 40
0.0
 40
0.0
 40
0.125
 40
0.125
 40
0.125
 40
0.125
 40
0.25
 40
0.25
 40
0.25
 40
0.25
 40
0.375
 40
0.375
 40
0.375
 40
0.375
 40
0.5
 40
0.5
 40
0.5
 40
0.5
 40
0.625
 40
0.625
 40
0.625
 40
0.625
 40
0.75
 40
0.75
 40
0.75
 40
0.75
 40
1.0
 40
1.0
 40
1.0
 40
1.0
 10
38.44
 20
85.4108
 30
0.0
 10
38.44
 20
85.4108
 30
0.0
 10
36.8569
 20
85.4108
 30
0.0
 10
36.8569
 20
85.4108
 30
0.0
 10
36.8569
 20
85.4108
 30
0.0
 10
36.7421
 20
85.8945
 30
0.0
 10
36.596
 20
86.3669
 30
0.0
 10
36.417
 20
86.8207
 30
0.0
 10
36.417
 20
86.8207
 30
0.0
 10
35.4211
 20
89.0839
 30
0.0
 10
33.7624
 20
90.3193
 30
0.0
 10
31.2618
 20
90.2298
 30
0.0
 10
31.2618
 20
90.2298
 30
0.0
 10
31.3739
 20
93.3464
 30
0.0
 10
29.3411
 20
95.1217
 30
0.0
 10
26.4288
 20
95.8111
 30
0.0
 10
26.4288
 20
95.8111
 30
0.0
 10
26.4288
 20
95.8111
 30
0.0
 10
26.4288
 20
97.3847
 30
0.0
 10
26.4288
 20
97.3847
 30
0.0
 10
26.4288
 20
97.3847
 30
0.0
 10
26.4288
 20
97.3847
 30
0.0
 10
38.44
 20
97.3847
 30
0.0
 10
38.44
 20
97.3847
 30
0.0
 10
38.44
 20
97.3847
 30
0.0
 10
38.44
 20
97.3847
 30
0.0
 10
38.44
 20
85.4108
 30
0.0
 10
38.44
 20
85.4108
 30
0.0
  0
SPLINE
  5
95
330
1F
100
AcDbEntity
  8
layer 1
 62
     7
100
AcDbSpline
210
0.0
220
0.0
230
1.0
 70
    11
 71
     3
 72
    28
 73
    24
 74
     0
 42
0.0000000001
 43
0.0000000001
 12
1.0
 22
0.0
 32
0.0
 13
1.0
 23
0.0
 33
0.0
 40
0.0
 40
0.0
 40
0.0
 40
0.0
 40
0.1428571428571428
 40
0.1428571428571428
 40
0.1428571428571428
 40
0.1428571428571428
 40
0.2857142857142857
 40
0.2857142857142857
 40
0.2857142857142857
 40
0.2857142857142857
 40
0.4285714285714285
 40
0.4285714285714285
 40
0.4285714285714285
 40
0.4285714285714285
 40
0.5714285714285714
 40
0.5714285714285714
 40
0.5714285714285714
 40
0.5714285714285714
 40
0.7142857142857143
 40
0.7142857142857143
 40
0.7142857142857143
 40
0.7142857142857143
 40
1.0
 40
1.0
 40
1.0
 40
1.0
 10
90.8466
 20
79.8845
 30
0.0
 10
90.8466
 20
79.8845
 30
0.0
 10
92.4263
 20
79.8845
 30
0.0
 10
92.4263
 20
79.8845
 30
0.0
 10
92.4263
 20
79.8845
 30
0.0
 10
92.4263
 20
79.8845
 30
0.0
 10
92.4263
 20
67.9106
 30
0.0
 10
92.4263
 20
67.9106
 30
0.0
 10
92.4263
 20
67.9106
 30
0.0
 10
92.4263
 20
67.9106
 30
0.0
 10
80.4149
 20
67.9106
 30
0.0
 10
80.4149
 20
67.9106
 30
0.0
 10
80.4149
 20
67.9106
 30
0.0
 10
80.4149
 20
67.9106
 30
0.0
 10
80.4149
 20
69.4816
 30
0.0
 10
80.4149
 20
69.4816
 30
0.0
 10
80.4149
 20
69.4816
 30
0.0
 10
83.3255
 20
70.1899
 30
0.0
 10
85.3605
 20
71.9388
 30
0.0
 10
85.2479
 20
75.0655
 30
0.0
 10
85.2479
 20
75.0655
 30
0.0
 10
88.3753
 20
74.9545
 30
0.0
 10
90.1547
 20
76.98
 30
0.0
 10
90.8466
 20
79.8845
 30
0.0
  0
SPLINE
  5
96
330
1F
100
AcDbEntity
  8
layer 1
 62
     7
100
AcDbSpline
210
0.0
220
0.0
230
1.0
 70
    11
 71
     3
 72
    32
 73
    28
 74
     0
 42
0.0000000001
 43
0.0000000001
 12
1.0
 22
0.0
 32
0.0
 13
1.0
 23
0.0
 33
0.0
 40
0.0
 40
0.0
 40
0.0
 40
0.0
 40
0.125
 40
0.125
 40
0.125
 40
0.125
 40
0.25
 40
0.25
 40
0.25
 40
0.25
 40
0.375
 40
0.375
 40
0.375
 40
0.375
 40
0.5
 40
0.5
 40
0.5
 40
0.5
 40
0.625
 40
0.625
 40
0.625
 40
0.625
 40
0.75
 40
0.75
 40
0.75
 40
0.75
 40
1.0
 40
1.0
 40
1.0
 40
1.0
 10
92.4263
 20
85.4108
 30
0.0
 10
92.4263
 20
85.4108
 30
0.0
 10
90.8497
 20
85.4108
 30
0.0
 10
90.8497
 20
85.4108
 30
0.0
 10
90.8497
 20
85.4108
 30
0.0
 10
90.5784
 20
86.5183
 30
0.0
 10
90.1794
 20
87.4781
 30
0.0
 10
89.4952
 20
88.3892
 30
0.0
 10
89.4952
 20
88.3892
 30
0.0
 10
88.3582
 20
89.7436
 30
0.0
 10
86.9995
 20
90.2924
 30
0.0
 10
85.2479
 20
90.2298
 30
0.0
 10
85.2479
 20
90.2298
 30
0.0
 10
85.36
 20
93.3466
 30
0.0
 10
83.327
 20
95.1217
 30
0.0
 10
80.4149
 20
95.8111
 30
0.0
 10
80.4149
 20
95.8111
 30
0.0
 10
80.4149
 20
95.8111
 30
0.0
 10
80.4149
 20
97.3847
 30
0.0
 10
80.4149
 20
97.3847
 30
0.0
 10
80.4149
 20
97.3847
 30
0.0
 10
80.4149
 20
97.3847
 30
0.0
 10
92.4263
 20
97.3847
 30
0.0
 10
92.4263
 20
97.3847
 30
0.0
 10
92.4263
 20
97.3847
 30
0.0
 10
92.4263
 20
97.3847
 30
0.0
 10
92.4263
 20
85.4108
 30
0.0
 10
92.4263
 20
85.4108
 30
0.0
  0
SPLINE
  5
97
330
1F
100
AcDbEntity
  8
layer 1
 62
     7
100
AcDbSpline
210
0.0
220
0.0
230
1.0
 70
    11
 71
     3
 72
    24
 73
    20
 74
     0
 42
0.0000000001
 43
0.0000000001
 12
1.0
 22
0.0
 32
0.0
 13
1.0
 23
0.0
 33
0.0
 40
0.0
 40
0.0
 40
0.0
 40
0.0
 40
0.1666666666666667
 40
0.1666666666666667
 40
0.1666666666666667
 40
0.1666666666666667
 40
0.3333333333333333
 40
0.3333333333333333
 40
0.3333333333333333
 40
0.3333333333333333
 40
0.5
 40
0.5
 40
0.5
 40
0.5
 40
0.6666666666666666
 40
0.6666666666666666
 40
0.6666666666666666
 40
0.6666666666666666
 40
1.0
 40
1.0
 40
1.0
 40
1.0
 10
80.4149
 20
116.4822
 30
0.0
 10
80.4149
 20
116.4822
 30
0.0
 10
80.4149
 20
102.9112
 30
0.0
 10
80.4149
 20
102.9112
 30
0.0
 10
80.4149
 20
102.9112
 30
0.0
 10
80.4149
 20
102.9112
 30
0.0
 10
93.6431
 20
102.9112
 30
0.0
 10
93.6431
 20
102.9112
 30
0.0
 10
93.6431
 20
102.9112
 30
0.0
 10
93.6431
 20
102.9112
 30
0.0
 10
100.6119
 20
109.8581
 30
0.0
 10
100.6119
 20
109.8581
 30
0.0
 10
100.6119
 20
109.8581
 30
0.0
 10
100.6119
 20
109.8581
 30
0.0
 10
93.9672
 20
116.4822
 30
0.0
 10
93.9672
 20
116.4822
 30
0.0
 10
93.9672
 20
116.4822
 30
0.0
 10
93.9672
 20
116.4822
 30
0.0
 10
80.4149
 20
116.4822
 30
0.0
 10
80.4149
 20
116.4822
 30
0.0
  0
SPLINE
  5
98
330
1F
100
AcDbEntity
  8
layer 1
 62
     7
100
AcDbSpline
210
0.0
220
0.0
230
1.0
 70
    11
 71
     3
 72
    24
 73
    20
 74
     0
 42
0.0000000001
 43
0.0000000001
 12
1.0
 22
0.0
 32
0.0
 13
1.0
 23
0.0
 33
0.0
 40
0.0
 40
0.0
 40
0.0
 40
0.0
 40
0.1666666666666667
 40
0.1666666666666667
 40
0.1666666666666667
 40
0.1666666666666667
 40
0.3333333333333333
 40
0.3333333333333333
 40
0.3333333333333333
 40
0.3333333333333333
 40
0.5
 40
0.5
 40
0.5
 40
0.5
 40
0.6666666666666666
 40
0.6666666666666666
 40
0.6666666666666666
 40
0.6666666666666666
 40
1.0
 40
1.0
 40
1.0
 40
1.0
 10
80.4149
 20
62.3844
 30
0.0
 10
80.4149
 20
62.3844
 30
0.0
 10
80.4149
 20
48.4902
 30
0.0
 10
80.4149
 20
48.4902
 30
0.0
 10
80.4149
 20
48.4902
 30
0.0
 10
80.4149
 20
48.4902
 30
0.0
 10
93.6431
 20
48.4902
 30
0.0
 10
93.6431
 20
48.4902
 30
0.0
 10
93.6431
 20
48.4902
 30
0.0
 10
93.6431
 20
48.4902
 30
0.0
 10
100.6119
 20
55.4374
 30
0.0
 10
100.6119
 20
55.4374
 30
0.0
 10
100.6119
 20
55.4374
 30
0.0
 10
100.6119
 20
55.4374
 30
0.0
 10
93.6431
 20
62.3844
 30
0.0
 10
93.6431
 20
62.3844
 30
0.0
 10
93.6431
 20
62.3844
 30
0.0
 10
93.6431
 20
62.3844
 30
0.0
 10
80.4149
 20
62.3844
 30
0.0
 10
80.4149
 20
62.3844
 30
0.0
  0
SPLINE
  5
99
330
1F
100
AcDbEntity
  8
layer 1
 62
     7
100
AcDbSpline
210
0.0
220
0.0
230
1.0
 70
    11
 71
     3
 72
    24
 73
    20
 74
     0
 42
0.0000000001
 43
0.0000000001
 12
1.0
 22
0.0
 32
0.0
 13
1.0
 23
0.0
 33
0.0
 40
0.0
 40
0.0
 40
0.0
 40
0.0
 40
0.1666666666666667
 40
0.1666666666666667
 40
0.1666666666666667
 40
0.1666666666666667
 40
0.3333333333333333
 40
0.3333333333333333
 40
0.3333333333333333
 40
0.3333333333333333
 40
0.5
 40
0.5
 40
0.5
 40
0.5
 40
0.6666666666666666
 40
0.6666666666666666
 40
0.6666666666666666
 40
0.6666666666666666
 40
1.0
 40
1.0
 40
1.0
 40
1.0
 10
80.4149
 20
7.9634
 30
0.0
 10
80.4149
 20
7.9634
 30
0.0
 10
80.4149
 20
-5.9306
 30
0.0
 10
80.4149
 20
-5.9306
 30
0.0
 10
80.4149
 20
-5.9306
 30
0.0
 10
80.4149
 20
-5.9306
 30
0.0
 10
93.6431
 20
-5.9306
 30
0.0
 10
93.6431
 20
-5.9306
 30
0.0
 10
93.6431
 20
-5.9306
 30
0.0
 10
93.6431
 20
-5.9306
 30
0.0
 10
100.6119
 20
1.0164
 30
0.0
 10
100.6119
 20
1.0164
 30
0.0
 10
100.6119
 20
1.0164
 30
0.0
 10
100.6119
 20
1.0164
 30
0.0
 10
93.6431
 20
7.9634
 30
0.0
 10
93.6431
 20
7.9634
 30
0.0
 10
93.6431
 20
7.9634
 30
0.0
 10
93.6431
 20
7.9634
 30
0.0
 10
80.4149
 20
7.9634
 30
0.0
 10
80.4149
 20
7.9634
 30
0.0
  0
SPLINE
  5
9A
330
1F
100
AcDbEntity
  8
layer 1
 62
     7
100
AcDbSpline
210
0.0
220
0.0
230
1.0
 70
    11
 71
     3
 72
    24
 73
    20
 74
     0
 42
0.0000000001
 43
0.0000000001
 12
1.0
 22
0.0
 32
0.0
 13
1.0
 23
0.0
 33
0.0
 40
0.0
 40
0.0
 40
0.0
 40
0.0
 40
0.1666666666666667
 40
0.1666666666666667
 40
0.1666666666666667
 40
0.1666666666666667
 40
0.3333333333333333
 40
0.3333333333333333
 40
0.3333333333333333
 40
0.3333333333333333
 40
0.5
 40
0.5
 40
0.5
 40
0.5
 40
0.6666666666666666
 40
0.6666666666666666
 40
0.6666666666666666
 40
0.6666666666666666
 40
1.0
 40
1.0
 40
1.0
 40
1.0
 10
80.4149
 20
-46.4574
 30
0.0
 10
80.4149
 20
-46.4574
 30
0.0
 10
80.4149
 20
-60.3514
 30
0.0
 10
80.4149
 20
-60.3514
 30
0.0
 10
80.4149
 20
-60.3514
 30
0.0
 10
80.4149
 20
-60.3514
 30
0.0
 10
93.6431
 20
-60.3514
 30
0.0
 10
93.6431
 20
-60.3514
 30
0.0
 10
93.6431
 20
-60.3514
 30
0.0
 10
93.6431
 20
-60.3514
 30
0.0
 10
100.7161
 20
-53.3006
 30
0.0
 10
100.7161
 20
-53.3006
 30
0.0
 10
100.7161
 20
-53.3006
 30
0.0
 10
100.7161
 20
-53.3006
 30
0.0
 10
93.8515
 20
-46.4574
 30
0.0
 10
93.8515
 20
-46.4574
 30
0.0
 10
93.8515
 20
-46.4574
 30
0.0
 10
93.8515
 20
-46.4574
 30
0.0
 10
80.4149
 20
-46.4574
 30
0.0
 10
80.4149
 20
-46.4574
 30
0.0
  0
SPLINE
  5
9B
330
1F
100
AcDbEntity
  8
layer 1
 62
     7
100
AcDbSpline
210
0.0
220
0.0
230
1.0
 70
    11
 71
     3
 72
    24
 73
    20
 74
     0
 42
0.0000000001
 43
0.0000000001
 12
1.0
 22
0.0
 32
0.0
 13
1.0
 23
0.0
 33
0.0
 40
0.0
 40
0.0
 40
0.0
 40
0.0
 40
0.1666666666666667
 40
0.1666666666666667
 40
0.1666666666666667
 40
0.1666666666666667
 40
0.3333333333333333
 40
0.3333333333333333
 40
0.3333333333333333
 40
0.3333333333333333
 40
0.5
 40
0.5
 40
0.5
 40
0.5
 40
0.6666666666666666
 40
0.6666666666666666
 40
0.6666666666666666
 40
0.6666666666666666
 40
1.0
 40
1.0
 40
1.0
 40
1.0
 10
80.4149
 20
-65.8778
 30
0.0
 10
80.4149
 20
-65.8778
 30
0.0
 10
80.4149
 20
-79.7718
 30
0.0
 10
80.4149
 20
-79.7718
 30
0.0
 10
80.4149
 20
-79.7718
 30
0.0
 10
80.4149
 20
-79.7718
 30
0.0
 10
93.8515
 20
-79.7718
 30
0.0
 10
93.8515
 20
-79.7718
 30
0.0
 10
93.8515
 20
-79.7718
 30
0.0
 10
93.8515
 20
-79.7718
 30
0.0
 10
100.7161
 20
-72.9286
 30
0.0
 10
100.7161
 20
-72.9286
 30
0.0
 10
100.7161
 20
-72.9286
 30
0.0
 10
100.7161
 20
-72.9286
 30
0.0
 10
93.6431
 20
-65.8778
 30
0.0
 10
93.6431
 20
-65.8778
 30
0.0
 10
93.6431
 20
-65.8778
 30
0.0
 10
93.6431
 20
-65.8778
 30
0.0
 10
80.4149
 20
-65.8778
 30
0.0
 10
80.4149
 20
-65.8778
 30
0.0
  0
SPLINE
  5
9C
330
1F
100
AcDbEntity
  8
layer 1
 62
     7
100
AcDbSpline
210
0.0
220
0.0
230
1.0
 70
    11
 71
     3
 72
    24
 73
    20
 74
     0
 42
0.0000000001
 43
0.0000000001
 12
1.0
 22
0.0
 32
0.0
 13
1.0
 23
0.0
 33
0.0
 40
0.0
 40
0.0
 40
0.0
 40
0.0
 40
0.1666666666666667
 40
0.1666666666666667
 40
0.1666666666666667
 40
0.1666666666666667
 40
0.3333333333333333
 40
0.3333333333333333
 40
0.3333333333333333
 40
0.3333333333333333
 40
0.5
 40
0.5
 40
0.5
 40
0.5
 40
0.6666666666666666
 40
0.6666666666666666
 40
0.6666666666666666
 40
0.6666666666666666
 40
1.0
 40
1.0
 40
1.0
 40
1.0
 10
74.8712
 20
-79.7718
 30
0.0
 10
74.8712
 20
-79.7718
 30
0.0
 10
74.8712
 20
-65.8778
 30
0.0
 10
74.8712
 20
-65.8778
 30
0.0
 10
74.8712
 20
-65.8778
 30
0.0
 10
74.8712
 20
-65.8778
 30
0.0
 10
61.6429
 20
-65.8778
 30
0.0
 10
61.6429
 20
-65.8778
 30
0.0
 10
61.6429
 20
-65.8778
 30
0.0
 10
61.6429
 20
-65.8778
 30
0.0
 10
54.57
 20
-72.9286
 30
0.0
 10
54.57
 20
-72.9286
 30
0.0
 10
54.57
 20
-72.9286
 30
0.0
 10
54.57
 20
-72.9286
 30
0.0
 10
61.4345
 20
-79.7718
 30
0.0
 10
61.4345
 20
-79.7718
 30
0.0
 10
61.4345
 20
-79.7718
 30
0.0
 10
61.4345
 20
-79.7718
 30
0.0
 10
74.8712
 20
-79.7718
 30
0.0
 10
74.8712
 20
-79.7718
 30
0.0
  0
SPLINE
  5
9D
330
1F
100
AcDbEntity
  8
layer 1
 62
     7
100
AcDbSpline
210
0.0
220
0.0
230
1.0
 70
    11
 71
     3
 72
    24
 73
    20
 74
     0
 42
0.0000000001
 43
0.0000000001
 12
1.0
 22
0.0
 32
0.0
 13
1.0
 23
0.0
 33
0.0
 40
0.0
 40
0.0
 40
0.0
 40
0.0
 40
0.1666666666666667
 40
0.1666666666666667
 40
0.1666666666666667
 40
0.1666666666666667
 40
0.3333333333333333
 40
0.3333333333333333
 40
0.3333333333333333
 40
0.3333333333333333
 40
0.5
 40
0.5
 40
0.5
 40
0.5
 40
0.6666666666666666
 40
0.6666666666666666
 40
0.6666666666666666
 40
0.6666666666666666
 40
1.0
 40
1.0
 40
1.0
 40
1.0
 10
74.8712
 20
-60.3514
 30
0.0
 10
74.8712
 20
-60.3514
 30
0.0
 10
74.8712
 20
-46.4574
 30
0.0
 10
74.8712
 20
-46.4574
 30
0.0
 10
74.8712
 20
-46.4574
 30
0.0
 10
74.8712
 20
-46.4574
 30
0.0
 10
61.4345
 20
-46.4574
 30
0.0
 10
61.4345
 20
-46.4574
 30
0.0
 10
61.4345
 20
-46.4574
 30
0.0
 10
61.4345
 20
-46.4574
 30
0.0
 10
54.57
 20
-53.3006
 30
0.0
 10
54.57
 20
-53.3006
 30
0.0
 10
54.57
 20
-53.3006
 30
0.0
 10
54.57
 20
-53.3006
 30
0.0
 10
61.6429
 20
-60.3514
 30
0.0
 10
61.6429
 20
-60.3514
 30
0.0
 10
61.6429
 20
-60.3514
 30
0.0
 10
61.6429
 20
-60.3514
 30
0.0
 10
74.8712
 20
-60.3514
 30
0.0
 10
74.8712
 20
-60.3514
 30
0.0
  0
SPLINE
  5
9E
330
1F
100
AcDbEntity
  8
layer 1
 62
     7
100
AcDbSpline
210
0.0
220
0.0
230
1.0
 70
    11
 71
     3
 72
    24
 73
    20
 74
     0
 42
0.0000000001
 43
0.0000000001
 12
1.0
 22
0.0
 32
0.0
 13
1.0
 23
0.0
 33
0.0
 40
0.0
 40
0.0
 40
0.0
 40
0.0
 40
0.1666666666666667
 40
0.1666666666666667
 40
0.1666666666666667
 40
0.1666666666666667
 40
0.3333333333333333
 40
0.3333333333333333
 40
0.3333333333333333
 40
0.3333333333333333
 40
0.5
 40
0.5
 40
0.5
 40
0.5
 40
0.6666666666666666
 40
0.6666666666666666
 40
0.6666666666666666
 40
0.6666666666666666
 40
1.0
 40
1.0
 40
1.0
 40
1.0
 10
74.8712
 20
-5.9306
 30
0.0
 10
74.8712
 20
-5.9306
 30
0.0
 10
74.8712
 20
7.9634
 30
0.0
 10
74.8712
 20
7.9634
 30
0.0
 10
74.8712
 20
7.9634
 30
0.0
 10
74.8712
 20
7.9634
 30
0.0
 10
61.6429
 20
7.9634
 30
0.0
 10
61.6429
 20
7.9634
 30
0.0
 10
61.6429
 20
7.9634
 30
0.0
 10
61.6429
 20
7.9634
 30
0.0
 10
54.6742
 20
1.0164
 30
0.0
 10
54.6742
 20
1.0164
 30
0.0
 10
54.6742
 20
1.0164
 30
0.0
 10
54.6742
 20
1.0164
 30
0.0
 10
61.6429
 20
-5.9306
 30
0.0
 10
61.6429
 20
-5.9306
 30
0.0
 10
61.6429
 20
-5.9306
 30
0.0
 10
61.6429
 20
-5.9306
 30
0.0
 10
74.8712
 20
-5.9306
 30
0.0
 10
74.8712
 20
-5.9306
 30
0.0
  0
SPLINE
  5
9F
330
1F
100
AcDbEntity
  8
layer 1
 62
     7
100
AcDbSpline
210
0.0
220
0.0
230
1.0
 70
    11
 71
     3
 72
    24
 73
    20
 74
     0
 42
0.0000000001
 43
0.0000000001
 12
1.0
 22
0.0
 32
0.0
 13
1.0
 23
0.0
 33
0.0
 40
0.0
 40
0.0
 40
0.0
 40
0.0
 40
0.1666666666666667
 40
0.1666666666666667
 40
0.1666666666666667
 40
0.1666666666666667
 40
0.3333333333333333
 40
0.3333333333333333
 40
0.3333333333333333
 40
0.3333333333333333
 40
0.5
 40
0.5
 40
0.5
 40
0.5
 40
0.6666666666666666
 40
0.6666666666666666
 40
0.6666666666666666
 40
0.6666666666666666
 40
1.0
 40
1.0
 40
1.0
 40
1.0
 10
74.8712
 20
48.4902
 30
0.0
 10
74.8712
 20
48.4902
 30
0.0
 10
74.8712
 20
62.3844
 30
0.0
 10
74.8712
 20
62.3844
 30
0.0
 10
74.8712
 20
62.3844
 30
0.0
 10
74.8712
 20
62.3844
 30
0.0
 10
61.6429
 20
62.3844
 30
0.0
 10
61.6429
 20
62.3844
 30
0.0
 10
61.6429
 20
62.3844
 30
0.0
 10
61.6429
 20
62.3844
 30
0.0
 10
54.6742
 20
55.4374
 30
0.0
 10
54.6742
 20
55.4374
 30
0.0
 10
54.6742
 20
55.4374
 30
0.0
 10
54.6742
 20
55.4374
 30
0.0
 10
61.6429
 20
48.4902
 30
0.0
 10
61.6429
 20
48.4902
 30
0.0
 10
61.6429
 20
48.4902
 30
0.0
 10
61.6429
 20
48.4902
 30
0.0
 10
74.8712
 20
48.4902
 30
0.0
 10
74.8712
 20
48.4902
 30
0.0
  0
SPLINE
  5
A0
330
1F
100
AcDbEntity
  8
layer 1
 62
     7
100
AcDbSpline
210
0.0
220
0.0
230
1.0
 70
    11
 71
     3
 72
    24
 73
    20
 74
     0
 42
0.0000000001
 43
0.0000000001
 12
1.0
 22
0.0
 32
0.0
 13
1.0
 23
0.0
 33
0.0
 40
0.0
 40
0.0
 40
0.0
 40
0.0
 40
0.1666666666666667
 40
0.1666666666666667
 40
0.1666666666666667
 40
0.1666666666666667
 40
0.3333333333333333
 40
0.3333333333333333
 40
0.3333333333333333
 40
0.3333333333333333
 40
0.5
 40
0.5
 40
0.5
 40
0.5
 40
0.6666666666666666
 40
0.6666666666666666
 40
0.6666666666666666
 40
0.6666666666666666
 40
1.0
 40
1.0
 40
1.0
 40
1.0
 10
74.8712
 20
102.9112
 30
0.0
 10
74.8712
 20
102.9112
 30
0.0
 10
74.8712
 20
116.4822
 30
0.0
 10
74.8712
 20
116.4822
 30
0.0
 10
74.8712
 20
116.4822
 30
0.0
 10
74.8712
 20
116.4822
 30
0.0
 10
61.3189
 20
116.4822
 30
0.0
 10
61.3189
 20
116.4822
 30
0.0
 10
61.3189
 20
116.4822
 30
0.0
 10
61.3189
 20
116.4822
 30
0.0
 10
54.6742
 20
109.8581
 30
0.0
 10
54.6742
 20
109.8581
 30
0.0
 10
54.6742
 20
109.8581
 30
0.0
 10
54.6742
 20
109.8581
 30
0.0
 10
61.6429
 20
102.9112
 30
0.0
 10
61.6429
 20
102.9112
 30
0.0
 10
61.6429
 20
102.9112
 30
0.0
 10
61.6429
 20
102.9112
 30
0.0
 10
74.8712
 20
102.9112
 30
0.0
 10
74.8712
 20
102.9112
 30
0.0
  0
SPLINE
  5
A1
330
1F
100
AcDbEntity
  8
layer 1
 62
     7
100
AcDbSpline
210
0.0
220
0.0
230
1.0
 70
    11
 71
     3
 72
   152
 73
   148
 74
     0
 42
0.0000000001
 43
0.0000000001
 12
1.0
 22
0.0
 32
0.0
 13
1.0
 23
0.0
 33
0.0
 40
0.0
 40
0.0
 40
0.0
 40
0.0
 40
0.0263157894736842
 40
0.0263157894736842
 40
0.0263157894736842
 40
0.0263157894736842
 40
0.0526315789473684
 40
0.0526315789473684
 40
0.0526315789473684
 40
0.0526315789473684
 40
0.0789473684210526
 40
0.0789473684210526
 40
0.0789473684210526
 40
0.0789473684210526
 40
0.1052631578947368
 40
0.1052631578947368
 40
0.1052631578947368
 40
0.1052631578947368
 40
0.131578947368421
 40
0.131578947368421
 40
0.131578947368421
 40
0.131578947368421
 40
0.1578947368421053
 40
0.1578947368421053
 40
0.1578947368421053
 40
0.1578947368421053
 40
0.1842105263157895
 40
0.1842105263157895
 40
0.1842105263157895
 40
0.1842105263157895
 40
0.2105263157894737
 40
0.2105263157894737
 40
0.2105263157894737
 40
0.2105263157894737
 40
0.2368421052631579
 40
0.2368421052631579
 40
0.2368421052631579
 40
0.2368421052631579
 40
0.2631578947368421
 40
0.2631578947368421
 40
0.2631578947368421
 40
0.2631578947368421
 40
0.2894736842105263
 40
0.2894736842105263
 40
0.2894736842105263
 40
0.2894736842105263
 40
0.3157894736842105
 40
0.3157894736842105
 40
0.3157894736842105
 40
0.3157894736842105
 40
0.3421052631578947
 40
0.3421052631578947
 40
0.3421052631578947
 40
0.3421052631578947
 40
0.3684210526315789
 40
0.3684210526315789
 40
0.3684210526315789
 40
0.3684210526315789
 40
0.3947368421052632
 40
0.3947368421052632
 40
0.3947368421052632
 40
0.3947368421052632
 40
0.4210526315789473
 40
0.4210526315789473
 40
0.4210526315789473
 40
0.4210526315789473
 40
0.4473684210526316
 40
0.4473684210526316
 40
0.4473684210526316
 40
0.4473684210526316
 40
0.4736842105263158
 40
0.4736842105263158
 40
0.4736842105263158
 40
0.4736842105263158
 40
0.5
 40
0.5
 40
0.5
 40
0.5
 40
0.5263157894736842
 40
0.5263157894736842
 40
0.5263157894736842
 40
0.5263157894736842
 40
0.5526315789473685
 40
0.5526315789473685
 40
0.5526315789473685
 40
0.5526315789473685
 40
0.5789473684210527
 40
0.5789473684210527
 40
0.5789473684210527
 40
0.5789473684210527
 40
0.6052631578947368
 40
0.6052631578947368
 40
0.6052631578947368
 40
0.6052631578947368
 40
0.631578947368421
 40
0.631578947368421
 40
0.631578947368421
 40
0.631578947368421
 40
0.6578947368421053
 40
0.6578947368421053
 40
0.6578947368421053
 40
0.6578947368421053
 40
0.6842105263157895
 40
0.6842105263157895
 40
0.6842105263157895
 40
0.6842105263157895
 40
0.7105263157894737
 40
0.7105263157894737
 40
0.7105263157894737
 40
0.7105263157894737
 40
0.7368421052631579
 40
0.7368421052631579
 40
0.7368421052631579
 40
0.7368421052631579
 40
0.7631578947368421
 40
0.7631578947368421
 40
0.7631578947368421
 40
0.7631578947368421
 40
0.7894736842105263
 40
0.7894736842105263
 40
0.7894736842105263
 40
0.7894736842105263
 40
0.8157894736842105
 40
0.8157894736842105
 40
0.8157894736842105
 40
0.8157894736842105
 40
0.8421052631578947
 40
0.8421052631578947
 40
0.8421052631578947
 40
0.8421052631578947
 40
0.868421052631579
 40
0.868421052631579
 40
0.868421052631579
 40
0.868421052631579
 40
0.8947368421052632
 40
0.8947368421052632
 40
0.8947368421052632
 40
0.8947368421052632
 40
0.9210526315789473
 40
0.9210526315789473
 40
0.9210526315789473
 40
0.9210526315789473
 40
0.9473684210526315
 40
0.9473684210526315
 40
0.9473684210526315
 40
0.9473684210526315
 40
1.0
 40
1.0
 40
1.0
 40
1.0
 10
67.7391
 20
85.5201
 30
0.0
 10
67.1125
 20
83.8178
 30
0.0
 10
67.0994
 20
81.2618
 30
0.0
 10
67.8151
 20
79.5915
 30
0.0
 10
67.8151
 20
79.5915
 30
0.0
 10
68.1343
 20
78.8985
 30
0.0
 10
68.7895
 20
78.0252
 30
0.0
 10
69.6455
 20
78.1305
 30
0.0
 10
69.6455
 20
78.1305
 30
0.0
 10
70.4333
 20
78.3127
 30
0.0
 10
70.7043
 20
79.1172
 30
0.0
 10
69.9835
 20
79.5564
 30
0.0
 10
69.9835
 20
79.5564
 30
0.0
 10
68.8024
 20
80.2762
 30
0.0
 10
68.8011
 20
81.9738
 30
0.0
 10
70.1267
 20
82.5148
 30
0.0
 10
70.1267
 20
82.5148
 30
0.0
 10
72.1481
 20
83.0873
 30
0.0
 10
73.7687
 20
80.263
 30
0.0
 10
73.5557
 20
78.574
 30
0.0
 10
73.5557
 20
78.574
 30
0.0
 10
75.1446
 20
78.7745
 30
0.0
 10
77.1514
 20
77.5972
 30
0.0
 10
77.5676
 20
76.0107
 30
0.0
 10
77.5676
 20
76.0107
 30
0.0
 10
77.7859
 20
74.2702
 30
0.0
 10
75.789
 20
73.4769
 30
0.0
 10
74.6817
 20
74.7872
 30
0.0
 10
74.6817
 20
74.7872
 30
0.0
 10
74.4914
 20
75.0666
 30
0.0
 10
74.3881
 20
75.3771
 30
0.0
 10
74.0175
 20
75.4419
 30
0.0
 10
74.0175
 20
75.4419
 30
0.0
 10
73.2278
 20
75.4841
 30
0.0
 10
72.9563
 20
74.6315
 30
0.0
 10
73.2225
 20
74.016
 30
0.0
 10
73.2225
 20
74.016
 30
0.0
 10
74.0505
 20
72.6805
 30
0.0
 10
75.468
 20
72.668
 30
0.0
 10
76.8819
 20
72.3455
 30
0.0
 10
76.8819
 20
72.3455
 30
0.0
 10
78.334
 20
72.1941
 30
0.0
 10
82.4266
 20
72.6137
 30
0.0
 10
82.1734
 20
74.6765
 30
0.0
 10
82.1734
 20
74.6765
 30
0.0
 10
81.9906
 20
75.4615
 30
0.0
 10
81.1837
 20
75.7317
 30
0.0
 10
80.743
 20
75.0132
 30
0.0
 10
80.743
 20
75.0132
 30
0.0
 10
80.0181
 20
73.8308
 30
0.0
 10
78.3136
 20
73.8431
 30
0.0
 10
77.7753
 20
75.156
 30
0.0
 10
77.7753
 20
75.156
 30
0.0
 10
77.2011
 20
77.1675
 30
0.0
 10
80.0372
 20
78.7928
 30
0.0
 10
81.7286
 20
78.574
 30
0.0
 10
81.7286
 20
78.574
 30
0.0
 10
81.5286
 20
80.1793
 30
0.0
 10
82.7035
 20
82.1579
 30
0.0
 10
84.2997
 20
82.5736
 30
0.0
 10
84.2997
 20
82.5736
 30
0.0
 10
86.0453
 20
82.791
 30
0.0
 10
86.8423
 20
80.8002
 30
0.0
 10
85.5271
 20
79.6966
 30
0.0
 10
85.5271
 20
79.6966
 30
0.0
 10
85.247
 20
79.5071
 30
0.0
 10
84.9357
 20
79.404
 30
0.0
 10
84.8704
 20
79.0345
 30
0.0
 10
84.8704
 20
79.0345
 30
0.0
 10
84.8285
 20
78.2474
 30
0.0
 10
85.6832
 20
77.9768
 30
0.0
 10
86.3009
 20
78.2418
 30
0.0
 10
86.3009
 20
78.2418
 30
0.0
 10
88.3684
 20
79.5168
 30
0.0
 10
88.3242
 20
83.7073
 30
0.0
 10
87.4691
 20
85.7042
 30
0.0
 10
87.4691
 20
85.7042
 30
0.0
 10
87.1689
 20
86.3559
 30
0.0
 10
86.6126
 20
87.1067
 30
0.0
 10
85.8354
 20
87.1784
 30
0.0
 10
85.8354
 20
87.1784
 30
0.0
 10
85.1697
 20
87.1678
 30
0.0
 10
84.5165
 20
86.4392
 30
0.0
 10
85.0857
 20
85.8849
 30
0.0
 10
85.0857
 20
85.8849
 30
0.0
 10
85.6632
 20
85.4926
 30
0.0
 10
86.0423
 20
85.2314
 30
0.0
 10
86.1616
 20
84.4637
 30
0.0
 10
86.1616
 20
84.4637
 30
0.0
 10
86.21
 20
82.9872
 30
0.0
 10
85.134
 20
82.4631
 30
0.0
 10
83.8585
 20
82.8367
 30
0.0
 10
83.8585
 20
82.8367
 30
0.0
 10
82.5472
 20
83.7618
 30
0.0
 10
81.5146
 20
84.983
 30
0.0
 10
81.7286
 20
86.7215
 30
0.0
 10
81.7286
 20
86.7215
 30
0.0
 10
80.1175
 20
86.5245
 30
0.0
 10
78.1332
 20
87.6916
 30
0.0
 10
77.7166
 20
89.2848
 30
0.0
 10
77.7166
 20
89.2848
 30
0.0
 10
77.4989
 20
91.0253
 30
0.0
 10
79.4964
 20
91.8195
 30
0.0
 10
80.6024
 20
90.5079
 30
0.0
 10
80.6024
 20
90.5079
 30
0.0
 10
81.0024
 20
89.9208
 30
0.0
 10
81.4492
 20
89.465
 30
0.0
 10
82.0348
 20
90.273
 30
0.0
 10
82.0348
 20
90.273
 30
0.0
 10
82.5653
 20
91.2879
 30
0.0
 10
81.4278
 20
92.1379
 30
0.0
 10
80.6177
 20
92.4826
 30
0.0
 10
80.6177
 20
92.4826
 30
0.0
 10
78.6367
 20
93.2639
 30
0.0
 10
74.8154
 20
93.2913
 30
0.0
 10
73.3949
 20
91.5575
 30
0.0
 10
73.3949
 20
91.5575
 30
0.0
 10
72.988
 20
90.9613
 30
0.0
 10
72.9439
 20
90.2028
 30
0.0
 10
73.7342
 20
89.8885
 30
0.0
 10
73.7342
 20
89.8885
 30
0.0
 10
74.3506
 20
89.7135
 30
0.0
 10
74.4817
 20
90.2713
 30
0.0
 10
74.7844
 20
90.6296
 30
0.0
 10
74.7844
 20
90.6296
 30
0.0
 10
75.7042
 20
91.5213
 30
0.0
 10
77.1949
 20
91.2414
 30
0.0
 10
77.5553
 20
89.9761
 30
0.0
 10
77.5553
 20
89.9761
 30
0.0
 10
77.8879
 20
88.0268
 30
0.0
 10
75.234
 20
86.515
 30
0.0
 10
73.5557
 20
86.7215
 30
0.0
 10
73.5557
 20
86.7215
 30
0.0
 10
73.7605
 20
85.1188
 30
0.0
 10
72.5757
 20
83.1359
 30
0.0
 10
70.9842
 20
82.7219
 30
0.0
 10
70.9842
 20
82.7219
 30
0.0
 10
69.238
 20
82.5049
 30
0.0
 10
68.4422
 20
84.496
 30
0.0
 10
69.7573
 20
85.5989
 30
0.0
 10
69.7573
 20
85.5989
 30
0.0
 10
70.3463
 20
85.9979
 30
0.0
 10
70.8034
 20
86.4433
 30
0.0
 10
69.993
 20
87.0268
 30
0.0
 10
69.993
 20
87.0268
 30
0.0
 10
68.9469
 20
87.5708
 30
0.0
 10
68.0803
 20
86.3779
 30
0.0
 10
67.7391
 20
85.5201
 30
0.0
  0
SPLINE
  5
A2
330
1F
100
AcDbEntity
  8
layer 1
 62
     7
100
AcDbSpline
210
0.0
220
0.0
230
1.0
 70
    11
 71
     3
 72
   152
 73
   148
 74
     0
 42
0.0000000001
 43
0.0000000001
 12
1.0
 22
0.0
 32
0.0
 13
1.0
 23
0.0
 33
0.0
 40
0.0
 40
0.0
 40
0.0
 40
0.0
 40
0.0263157894736842
 40
0.0263157894736842
 40
0.0263157894736842
 40
0.0263157894736842
 40
0.0526315789473684
 40
0.0526315789473684
 40
0.0526315789473684
 40
0.0526315789473684
 40
0.0789473684210526
 40
0.0789473684210526
 40
0.0789473684210526
 40
0.0789473684210526
 40
0.1052631578947368
 40
0.1052631578947368
 40
0.1052631578947368
 40
0.1052631578947368
 40
0.131578947368421
 40
0.131578947368421
 40
0.131578947368421
 40
0.131578947368421
 40
0.1578947368421053
 40
0.1578947368421053
 40
0.1578947368421053
 40
0.1578947368421053
 40
0.1842105263157895
 40
0.1842105263157895
 40
0.1842105263157895
 40
0.1842105263157895
 40
0.2105263157894737
 40
0.2105263157894737
 40
0.2105263157894737
 40
0.2105263157894737
 40
0.2368421052631579
 40
0.2368421052631579
 40
0.2368421052631579
 40
0.2368421052631579
 40
0.2631578947368421
 40
0.2631578947368421
 40
0.2631578947368421
 40
0.2631578947368421
 40
0.2894736842105263
 40
0.2894736842105263
 40
0.2894736842105263
 40
0.2894736842105263
 40
0.3157894736842105
 40
0.3157894736842105
 40
0.3157894736842105
 40
0.3157894736842105
 40
0.3421052631578947
 40
0.3421052631578947
 40
0.3421052631578947
 40
0.3421052631578947
 40
0.3684210526315789
 40
0.3684210526315789
 40
0.3684210526315789
 40
0.3684210526315789
 40
0.3947368421052632
 40
0.3947368421052632
 40
0.3947368421052632
 40
0.3947368421052632
 40
0.4210526315789473
 40
0.4210526315789473
 40
0.4210526315789473
 40
0.4210526315789473
 40
0.4473684210526316
 40
0.4473684210526316
 40
0.4473684210526316
 40
0.4473684210526316
 40
0.4736842105263158
 40
0.4736842105263158
 40
0.4736842105263158
 40
0.4736842105263158
 40
0.5
 40
0.5
 40
0.5
 40
0.5
 40
0.5263157894736842
 40
0.5263157894736842
 40
0.5263157894736842
 40
0.5263157894736842
 40
0.5526315789473685
 40
0.5526315789473685
 40
0.5526315789473685
 40
0.5526315789473685
 40
0.5789473684210527
 40
0.5789473684210527
 40
0.5789473684210527
 40
0.5789473684210527
 40
0.6052631578947368
 40
0.6052631578947368
 40
0.6052631578947368
 40
0.6052631578947368
 40
0.631578947368421
 40
0.631578947368421
 40
0.631578947368421
 40
0.631578947368421
 40
0.6578947368421053
 40
0.6578947368421053
 40
0.6578947368421053
 40
0.6578947368421053
 40
0.6842105263157895
 40
0.6842105263157895
 40
0.6842105263157895
 40
0.6842105263157895
 40
0.7105263157894737
 40
0.7105263157894737
 40
0.7105263157894737
 40
0.7105263157894737
 40
0.7368421052631579
 40
0.7368421052631579
 40
0.7368421052631579
 40
0.7368421052631579
 40
0.7631578947368421
 40
0.7631578947368421
 40
0.7631578947368421
 40
0.7631578947368421
 40
0.7894736842105263
 40
0.7894736842105263
 40
0.7894736842105263
 40
0.7894736842105263
 40
0.8157894736842105
 40
0.8157894736842105
 40
0.8157894736842105
 40
0.8157894736842105
 40
0.8421052631578947
 40
0.8421052631578947
 40
0.8421052631578947
 40
0.8421052631578947
 40
0.868421052631579
 40
0.868421052631579
 40
0.868421052631579
 40
0.868421052631579
 40
0.8947368421052632
 40
0.8947368421052632
 40
0.8947368421052632
 40
0.8947368421052632
 40
0.9210526315789473
 40
0.9210526315789473
 40
0.9210526315789473
 40
0.9210526315789473
 40
0.9473684210526315
 40
0.9473684210526315
 40
0.9473684210526315
 40
0.9473684210526315
 40
1.0
 40
1.0
 40
1.0
 40
1.0
 10
67.7391
 20
31.0994
 30
0.0
 10
67.1125
 20
29.3968
 30
0.0
 10
67.0994
 20
26.841
 30
0.0
 10
67.8151
 20
25.1707
 30
0.0
 10
67.8151
 20
25.1707
 30
0.0
 10
68.1343
 20
24.4777
 30
0.0
 10
68.7895
 20
23.6045
 30
0.0
 10
69.6455
 20
23.7097
 30
0.0
 10
69.6455
 20
23.7097
 30
0.0
 10
70.4333
 20
23.8919
 30
0.0
 10
70.7043
 20
24.6964
 30
0.0
 10
69.9835
 20
25.1356
 30
0.0
 10
69.9835
 20
25.1356
 30
0.0
 10
68.8024
 20
25.8554
 30
0.0
 10
68.8011
 20
27.553
 30
0.0
 10
70.1267
 20
28.094
 30
0.0
 10
70.1267
 20
28.094
 30
0.0
 10
72.1481
 20
28.6665
 30
0.0
 10
73.7687
 20
25.8422
 30
0.0
 10
73.5557
 20
24.153
 30
0.0
 10
73.5557
 20
24.153
 30
0.0
 10
75.1446
 20
24.3535
 30
0.0
 10
77.1514
 20
23.1764
 30
0.0
 10
77.5676
 20
21.5899
 30
0.0
 10
77.5676
 20
21.5899
 30
0.0
 10
77.7859
 20
19.8495
 30
0.0
 10
75.789
 20
19.0561
 30
0.0
 10
74.6817
 20
20.3664
 30
0.0
 10
74.6817
 20
20.3664
 30
0.0
 10
74.4914
 20
20.6458
 30
0.0
 10
74.3881
 20
20.9563
 30
0.0
 10
74.0175
 20
21.0209
 30
0.0
 10
74.0175
 20
21.0209
 30
0.0
 10
73.2278
 20
21.0633
 30
0.0
 10
72.9563
 20
20.2105
 30
0.0
 10
73.2225
 20
19.5952
 30
0.0
 10
73.2225
 20
19.5952
 30
0.0
 10
74.0505
 20
18.2595
 30
0.0
 10
75.468
 20
18.2472
 30
0.0
 10
76.8819
 20
17.9247
 30
0.0
 10
76.8819
 20
17.9247
 30
0.0
 10
78.334
 20
17.7734
 30
0.0
 10
82.4266
 20
18.1928
 30
0.0
 10
82.1734
 20
20.2555
 30
0.0
 10
82.1734
 20
20.2555
 30
0.0
 10
81.9906
 20
21.0407
 30
0.0
 10
81.1837
 20
21.3109
 30
0.0
 10
80.743
 20
20.5922
 30
0.0
 10
80.743
 20
20.5922
 30
0.0
 10
80.0181
 20
19.41
 30
0.0
 10
78.3136
 20
19.4223
 30
0.0
 10
77.7753
 20
20.7352
 30
0.0
 10
77.7753
 20
20.7352
 30
0.0
 10
77.2011
 20
22.7467
 30
0.0
 10
80.0372
 20
24.372
 30
0.0
 10
81.7286
 20
24.153
 30
0.0
 10
81.7286
 20
24.153
 30
0.0
 10
81.5286
 20
25.7585
 30
0.0
 10
82.7035
 20
27.7371
 30
0.0
 10
84.2997
 20
28.1526
 30
0.0
 10
84.2997
 20
28.1526
 30
0.0
 10
86.0453
 20
28.37
 30
0.0
 10
86.8423
 20
26.3794
 30
0.0
 10
85.5271
 20
25.2758
 30
0.0
 10
85.5271
 20
25.2758
 30
0.0
 10
85.247
 20
25.0861
 30
0.0
 10
84.9357
 20
24.9832
 30
0.0
 10
84.8704
 20
24.6138
 30
0.0
 10
84.8704
 20
24.6138
 30
0.0
 10
84.8285
 20
23.8266
 30
0.0
 10
85.6832
 20
23.5558
 30
0.0
 10
86.3009
 20
23.821
 30
0.0
 10
86.3009
 20
23.821
 30
0.0
 10
88.3684
 20
25.096
 30
0.0
 10
88.3242
 20
29.2866
 30
0.0
 10
87.4691
 20
31.2834
 30
0.0
 10
87.4691
 20
31.2834
 30
0.0
 10
87.1689
 20
31.9351
 30
0.0
 10
86.6126
 20
32.6859
 30
0.0
 10
85.8354
 20
32.7574
 30
0.0
 10
85.8354
 20
32.7574
 30
0.0
 10
85.1697
 20
32.747
 30
0.0
 10
84.5165
 20
32.0185
 30
0.0
 10
85.0857
 20
31.4641
 30
0.0
 10
85.0857
 20
31.4641
 30
0.0
 10
85.6632
 20
31.0718
 30
0.0
 10
86.0423
 20
30.8104
 30
0.0
 10
86.1616
 20
30.0427
 30
0.0
 10
86.1616
 20
30.0427
 30
0.0
 10
86.21
 20
28.5662
 30
0.0
 10
85.134
 20
28.0424
 30
0.0
 10
83.8585
 20
28.4159
 30
0.0
 10
83.8585
 20
28.4159
 30
0.0
 10
82.5472
 20
29.3408
 30
0.0
 10
81.5146
 20
30.5622
 30
0.0
 10
81.7286
 20
32.3007
 30
0.0
 10
81.7286
 20
32.3007
 30
0.0
 10
80.1175
 20
32.1037
 30
0.0
 10
78.1332
 20
33.2708
 30
0.0
 10
77.7166
 20
34.8638
 30
0.0
 10
77.7166
 20
34.8638
 30
0.0
 10
77.4989
 20
36.6045
 30
0.0
 10
79.4964
 20
37.3987
 30
0.0
 10
80.6024
 20
36.0871
 30
0.0
 10
80.6024
 20
36.0871
 30
0.0
 10
81.0024
 20
35.5
 30
0.0
 10
81.4492
 20
35.0442
 30
0.0
 10
82.0348
 20
35.852
 30
0.0
 10
82.0348
 20
35.852
 30
0.0
 10
82.5653
 20
36.8672
 30
0.0
 10
81.4278
 20
37.7169
 30
0.0
 10
80.6177
 20
38.0618
 30
0.0
 10
80.6177
 20
38.0618
 30
0.0
 10
78.6367
 20
38.8432
 30
0.0
 10
74.8154
 20
38.8705
 30
0.0
 10
73.3949
 20
37.1365
 30
0.0
 10
73.3949
 20
37.1365
 30
0.0
 10
72.988
 20
36.5406
 30
0.0
 10
72.9439
 20
35.7819
 30
0.0
 10
73.7342
 20
35.4677
 30
0.0
 10
73.7342
 20
35.4677
 30
0.0
 10
74.3506
 20
35.2927
 30
0.0
 10
74.4817
 20
35.8503
 30
0.0
 10
74.7844
 20
36.2088
 30
0.0
 10
74.7844
 20
36.2088
 30
0.0
 10
75.7042
 20
37.1003
 30
0.0
 10
77.1949
 20
36.8207
 30
0.0
 10
77.5553
 20
35.5554
 30
0.0
 10
77.5553
 20
35.5554
 30
0.0
 10
77.8879
 20
33.6061
 30
0.0
 10
75.234
 20
32.094
 30
0.0
 10
73.5557
 20
32.3007
 30
0.0
 10
73.5557
 20
32.3007
 30
0.0
 10
73.7605
 20
30.6981
 30
0.0
 10
72.5757
 20
28.7152
 30
0.0
 10
70.9842
 20
28.3012
 30
0.0
 10
70.9842
 20
28.3012
 30
0.0
 10
69.238
 20
28.0841
 30
0.0
 10
68.4422
 20
30.0752
 30
0.0
 10
69.7573
 20
31.1782
 30
0.0
 10
69.7573
 20
31.1782
 30
0.0
 10
70.3463
 20
31.5769
 30
0.0
 10
70.8034
 20
32.0226
 30
0.0
 10
69.993
 20
32.606
 30
0.0
 10
69.993
 20
32.606
 30
0.0
 10
68.9469
 20
33.1501
 30
0.0
 10
68.0803
 20
31.9571
 30
0.0
 10
67.7391
 20
31.0994
 30
0.0
  0
SPLINE
  5
A3
330
1F
100
AcDbEntity
  8
layer 1
 62
     7
100
AcDbSpline
210
0.0
220
0.0
230
1.0
 70
    11
 71
     3
 72
   152
 73
   148
 74
     0
 42
0.0000000001
 43
0.0000000001
 12
1.0
 22
0.0
 32
0.0
 13
1.0
 23
0.0
 33
0.0
 40
0.0
 40
0.0
 40
0.0
 40
0.0
 40
0.0263157894736842
 40
0.0263157894736842
 40
0.0263157894736842
 40
0.0263157894736842
 40
0.0526315789473684
 40
0.0526315789473684
 40
0.0526315789473684
 40
0.0526315789473684
 40
0.0789473684210526
 40
0.0789473684210526
 40
0.0789473684210526
 40
0.0789473684210526
 40
0.1052631578947368
 40
0.1052631578947368
 40
0.1052631578947368
 40
0.1052631578947368
 40
0.131578947368421
 40
0.131578947368421
 40
0.131578947368421
 40
0.131578947368421
 40
0.1578947368421053
 40
0.1578947368421053
 40
0.1578947368421053
 40
0.1578947368421053
 40
0.1842105263157895
 40
0.1842105263157895
 40
0.1842105263157895
 40
0.1842105263157895
 40
0.2105263157894737
 40
0.2105263157894737
 40
0.2105263157894737
 40
0.2105263157894737
 40
0.2368421052631579
 40
0.2368421052631579
 40
0.2368421052631579
 40
0.2368421052631579
 40
0.2631578947368421
 40
0.2631578947368421
 40
0.2631578947368421
 40
0.2631578947368421
 40
0.2894736842105263
 40
0.2894736842105263
 40
0.2894736842105263
 40
0.2894736842105263
 40
0.3157894736842105
 40
0.3157894736842105
 40
0.3157894736842105
 40
0.3157894736842105
 40
0.3421052631578947
 40
0.3421052631578947
 40
0.3421052631578947
 40
0.3421052631578947
 40
0.3684210526315789
 40
0.3684210526315789
 40
0.3684210526315789
 40
0.3684210526315789
 40
0.3947368421052632
 40
0.3947368421052632
 40
0.3947368421052632
 40
0.3947368421052632
 40
0.4210526315789473
 40
0.4210526315789473
 40
0.4210526315789473
 40
0.4210526315789473
 40
0.4473684210526316
 40
0.4473684210526316
 40
0.4473684210526316
 40
0.4473684210526316
 40
0.4736842105263158
 40
0.4736842105263158
 40
0.4736842105263158
 40
0.4736842105263158
 40
0.5
 40
0.5
 40
0.5
 40
0.5
 40
0.5263157894736842
 40
0.5263157894736842
 40
0.5263157894736842
 40
0.5263157894736842
 40
0.5526315789473685
 40
0.5526315789473685
 40
0.5526315789473685
 40
0.5526315789473685
 40
0.5789473684210527
 40
0.5789473684210527
 40
0.5789473684210527
 40
0.5789473684210527
 40
0.6052631578947368
 40
0.6052631578947368
 40
0.6052631578947368
 40
0.6052631578947368
 40
0.631578947368421
 40
0.631578947368421
 40
0.631578947368421
 40
0.631578947368421
 40
0.6578947368421053
 40
0.6578947368421053
 40
0.6578947368421053
 40
0.6578947368421053
 40
0.6842105263157895
 40
0.6842105263157895
 40
0.6842105263157895
 40
0.6842105263157895
 40
0.7105263157894737
 40
0.7105263157894737
 40
0.7105263157894737
 40
0.7105263157894737
 40
0.7368421052631579
 40
0.7368421052631579
 40
0.7368421052631579
 40
0.7368421052631579
 40
0.7631578947368421
 40
0.7631578947368421
 40
0.7631578947368421
 40
0.7631578947368421
 40
0.7894736842105263
 40
0.7894736842105263
 40
0.7894736842105263
 40
0.7894736842105263
 40
0.8157894736842105
 40
0.8157894736842105
 40
0.8157894736842105
 40
0.8157894736842105
 40
0.8421052631578947
 40
0.8421052631578947
 40
0.8421052631578947
 40
0.8421052631578947
 40
0.868421052631579
 40
0.868421052631579
 40
0.868421052631579
 40
0.868421052631579
 40
0.8947368421052632
 40
0.8947368421052632
 40
0.8947368421052632
 40
0.8947368421052632
 40
0.9210526315789473
 40
0.9210526315789473
 40
0.9210526315789473
 40
0.9210526315789473
 40
0.9473684210526315
 40
0.9473684210526315
 40
0.9473684210526315
 40
0.9473684210526315
 40
1.0
 40
1.0
 40
1.0
 40
1.0
 10
67.7391
 20
-23.3216
 30
0.0
 10
67.1125
 20
-25.024
 30
0.0
 10
67.0994
 20
-27.5798
 30
0.0
 10
67.8151
 20
-29.2503
 30
0.0
 10
67.8151
 20
-29.2503
 30
0.0
 10
68.1343
 20
-29.9431
 30
0.0
 10
68.7895
 20
-30.8163
 30
0.0
 10
69.6455
 20
-30.711
 30
0.0
 10
69.6455
 20
-30.711
 30
0.0
 10
70.4333
 20
-30.5291
 30
0.0
 10
70.7043
 20
-29.7246
 30
0.0
 10
69.9835
 20
-29.2853
 30
0.0
 10
69.9835
 20
-29.2853
 30
0.0
 10
68.8024
 20
-28.5656
 30
0.0
 10
68.8011
 20
-26.868
 30
0.0
 10
70.1267
 20
-26.3267
 30
0.0
 10
70.1267
 20
-26.3267
 30
0.0
 10
72.1481
 20
-25.7543
 30
0.0
 10
73.7687
 20
-28.5785
 30
0.0
 10
73.5557
 20
-30.2677
 30
0.0
 10
73.5557
 20
-30.2677
 30
0.0
 10
75.1446
 20
-30.0673
 30
0.0
 10
77.1514
 20
-31.2443
 30
0.0
 10
77.5676
 20
-32.8309
 30
0.0
 10
77.5676
 20
-32.8309
 30
0.0
 10
77.7859
 20
-34.5713
 30
0.0
 10
75.789
 20
-35.3647
 30
0.0
 10
74.6817
 20
-34.0546
 30
0.0
 10
74.6817
 20
-34.0546
 30
0.0
 10
74.4914
 20
-33.7751
 30
0.0
 10
74.3881
 20
-33.4647
 30
0.0
 10
74.0175
 20
-33.3999
 30
0.0
 10
74.0175
 20
-33.3999
 30
0.0
 10
73.2278
 20
-33.3575
 30
0.0
 10
72.9563
 20
-34.2103
 30
0.0
 10
73.2225
 20
-34.8256
 30
0.0
 10
73.2225
 20
-34.8256
 30
0.0
 10
74.0505
 20
-36.1613
 30
0.0
 10
75.468
 20
-36.1736
 30
0.0
 10
76.8819
 20
-36.4961
 30
0.0
 10
76.8819
 20
-36.4961
 30
0.0
 10
78.334
 20
-36.6474
 30
0.0
 10
82.4266
 20
-36.228
 30
0.0
 10
82.1734
 20
-34.1653
 30
0.0
 10
82.1734
 20
-34.1653
 30
0.0
 10
81.9906
 20
-33.3801
 30
0.0
 10
81.1837
 20
-33.1099
 30
0.0
 10
80.743
 20
-33.8285
 30
0.0
 10
80.743
 20
-33.8285
 30
0.0
 10
80.0181
 20
-35.0107
 30
0.0
 10
78.3136
 20
-34.9985
 30
0.0
 10
77.7753
 20
-33.6856
 30
0.0
 10
77.7753
 20
-33.6856
 30
0.0
 10
77.2011
 20
-31.6741
 30
0.0
 10
80.0372
 20
-30.0488
 30
0.0
 10
81.7286
 20
-30.2677
 30
0.0
 10
81.7286
 20
-30.2677
 30
0.0
 10
81.5286
 20
-28.6623
 30
0.0
 10
82.7035
 20
-26.6837
 30
0.0
 10
84.2997
 20
-26.2682
 30
0.0
 10
84.2997
 20
-26.2682
 30
0.0
 10
86.0453
 20
-26.0507
 30
0.0
 10
86.8423
 20
-28.0416
 30
0.0
 10
85.5271
 20
-29.145
 30
0.0
 10
85.5271
 20
-29.145
 30
0.0
 10
85.247
 20
-29.3346
 30
0.0
 10
84.9357
 20
-29.4378
 30
0.0
 10
84.8704
 20
-29.807
 30
0.0
 10
84.8704
 20
-29.807
 30
0.0
 10
84.8285
 20
-30.5941
 30
0.0
 10
85.6832
 20
-30.865
 30
0.0
 10
86.3009
 20
-30.5997
 30
0.0
 10
86.3009
 20
-30.5997
 30
0.0
 10
88.3684
 20
-29.3247
 30
0.0
 10
88.3242
 20
-25.1342
 30
0.0
 10
87.4691
 20
-23.1373
 30
0.0
 10
87.4691
 20
-23.1373
 30
0.0
 10
87.1689
 20
-22.4858
 30
0.0
 10
86.6126
 20
-21.7349
 30
0.0
 10
85.8354
 20
-21.6634
 30
0.0
 10
85.8354
 20
-21.6634
 30
0.0
 10
85.1697
 20
-21.6737
 30
0.0
 10
84.5165
 20
-22.4025
 30
0.0
 10
85.0857
 20
-22.9569
 30
0.0
 10
85.0857
 20
-22.9569
 30
0.0
 10
85.6632
 20
-23.349
 30
0.0
 10
86.0423
 20
-23.6103
 30
0.0
 10
86.1616
 20
-24.3781
 30
0.0
 10
86.1616
 20
-24.3781
 30
0.0
 10
86.21
 20
-25.8546
 30
0.0
 10
85.134
 20
-26.3784
 30
0.0
 10
83.8585
 20
-26.0049
 30
0.0
 10
83.8585
 20
-26.0049
 30
0.0
 10
82.5472
 20
-25.08
 30
0.0
 10
81.5146
 20
-23.8588
 30
0.0
 10
81.7286
 20
-22.1201
 30
0.0
 10
81.7286
 20
-22.1201
 30
0.0
 10
80.1175
 20
-22.3173
 30
0.0
 10
78.1332
 20
-21.1501
 30
0.0
 10
77.7166
 20
-19.5569
 30
0.0
 10
77.7166
 20
-19.5569
 30
0.0
 10
77.4989
 20
-17.8163
 30
0.0
 10
79.4964
 20
-17.022
 30
0.0
 10
80.6024
 20
-18.3336
 30
0.0
 10
80.6024
 20
-18.3336
 30
0.0
 10
81.0024
 20
-18.9207
 30
0.0
 10
81.4492
 20
-19.3765
 30
0.0
 10
82.0348
 20
-18.5687
 30
0.0
 10
82.0348
 20
-18.5687
 30
0.0
 10
82.5653
 20
-17.5536
 30
0.0
 10
81.4278
 20
-16.7038
 30
0.0
 10
80.6177
 20
-16.3589
 30
0.0
 10
80.6177
 20
-16.3589
 30
0.0
 10
78.6367
 20
-15.5778
 30
0.0
 10
74.8154
 20
-15.5505
 30
0.0
 10
73.3949
 20
-17.2843
 30
0.0
 10
73.3949
 20
-17.2843
 30
0.0
 10
72.988
 20
-17.8802
 30
0.0
 10
72.9439
 20
-18.6389
 30
0.0
 10
73.7342
 20
-18.953
 30
0.0
 10
73.7342
 20
-18.953
 30
0.0
 10
74.3506
 20
-19.1281
 30
0.0
 10
74.4817
 20
-18.5705
 30
0.0
 10
74.7844
 20
-18.212
 30
0.0
 10
74.7844
 20
-18.212
 30
0.0
 10
75.7042
 20
-17.3204
 30
0.0
 10
77.1949
 20
-17.6003
 30
0.0
 10
77.5553
 20
-18.8654
 30
0.0
 10
77.5553
 20
-18.8654
 30
0.0
 10
77.8879
 20
-20.8149
 30
0.0
 10
75.234
 20
-22.3267
 30
0.0
 10
73.5557
 20
-22.1203
 30
0.0
 10
73.5557
 20
-22.1203
 30
0.0
 10
73.7605
 20
-23.7229
 30
0.0
 10
72.5757
 20
-25.7056
 30
0.0
 10
70.9842
 20
-26.1198
 30
0.0
 10
70.9842
 20
-26.1198
 30
0.0
 10
69.238
 20
-26.3366
 30
0.0
 10
68.4422
 20
-24.3456
 30
0.0
 10
69.7573
 20
-23.2428
 30
0.0
 10
69.7573
 20
-23.2428
 30
0.0
 10
70.3463
 20
-22.8439
 30
0.0
 10
70.8034
 20
-22.3982
 30
0.0
 10
69.993
 20
-21.815
 30
0.0
 10
69.993
 20
-21.815
 30
0.0
 10
68.9469
 20
-21.2709
 30
0.0
 10
68.0803
 20
-22.4637
 30
0.0
 10
67.7391
 20
-23.3216
 30
0.0
  0
SPLINE
  5
A4
330
1F
100
AcDbEntity
  8
layer 1
 62
     7
100
AcDbSpline
210
0.0
220
0.0
230
1.0
 70
    11
 71
     3
 72
    24
 73
    20
 74
     0
 42
0.0000000001
 43
0.0000000001
 12
1.0
 22
0.0
 32
0.0
 13
1.0
 23
0.0
 33
0.0
 40
0.0
 40
0.0
 40
0.0
 40
0.0
 40
0.1666666666666667
 40
0.1666666666666667
 40
0.1666666666666667
 40
0.1666666666666667
 40
0.3333333333333333
 40
0.3333333333333333
 40
0.3333333333333333
 40
0.3333333333333333
 40
0.5
 40
0.5
 40
0.5
 40
0.5
 40
0.6666666666666666
 40
0.6666666666666666
 40
0.6666666666666666
 40
0.6666666666666666
 40
1.0
 40
1.0
 40
1.0
 40
1.0
 10
26.4288
 20
116.4822
 30
0.0
 10
26.4288
 20
116.4822
 30
0.0
 10
26.4288
 20
102.9112
 30
0.0
 10
26.4288
 20
102.9112
 30
0.0
 10
26.4288
 20
102.9112
 30
0.0
 10
26.4288
 20
102.9112
 30
0.0
 10
39.657
 20
102.9112
 30
0.0
 10
39.657
 20
102.9112
 30
0.0
 10
39.657
 20
102.9112
 30
0.0
 10
39.657
 20
102.9112
 30
0.0
 10
46.6258
 20
109.8581
 30
0.0
 10
46.6258
 20
109.8581
 30
0.0
 10
46.6258
 20
109.8581
 30
0.0
 10
46.6258
 20
109.8581
 30
0.0
 10
39.9811
 20
116.4822
 30
0.0
 10
39.9811
 20
116.4822
 30
0.0
 10
39.9811
 20
116.4822
 30
0.0
 10
39.9811
 20
116.4822
 30
0.0
 10
26.4288
 20
116.4822
 30
0.0
 10
26.4288
 20
116.4822
 30
0.0
  0
SPLINE
  5
A5
330
1F
100
AcDbEntity
  8
layer 1
 62
     7
100
AcDbSpline
210
0.0
220
0.0
230
1.0
 70
    11
 71
     3
 72
    24
 73
    20
 74
     0
 42
0.0000000001
 43
0.0000000001
 12
1.0
 22
0.0
 32
0.0
 13
1.0
 23
0.0
 33
0.0
 40
0.0
 40
0.0
 40
0.0
 40
0.0
 40
0.1666666666666667
 40
0.1666666666666667
 40
0.1666666666666667
 40
0.1666666666666667
 40
0.3333333333333333
 40
0.3333333333333333
 40
0.3333333333333333
 40
0.3333333333333333
 40
0.5
 40
0.5
 40
0.5
 40
0.5
 40
0.6666666666666666
 40
0.6666666666666666
 40
0.6666666666666666
 40
0.6666666666666666
 40
1.0
 40
1.0
 40
1.0
 40
1.0
 10
26.4288
 20
62.3844
 30
0.0
 10
26.4288
 20
62.3844
 30
0.0
 10
26.4288
 20
48.4902
 30
0.0
 10
26.4288
 20
48.4902
 30
0.0
 10
26.4288
 20
48.4902
 30
0.0
 10
26.4288
 20
48.4902
 30
0.0
 10
39.657
 20
48.4902
 30
0.0
 10
39.657
 20
48.4902
 30
0.0
 10
39.657
 20
48.4902
 30
0.0
 10
39.657
 20
48.4902
 30
0.0
 10
46.6258
 20
55.4374
 30
0.0
 10
46.6258
 20
55.4374
 30
0.0
 10
46.6258
 20
55.4374
 30
0.0
 10
46.6258
 20
55.4374
 30
0.0
 10
39.657
 20
62.3844
 30
0.0
 10
39.657
 20
62.3844
 30
0.0
 10
39.657
 20
62.3844
 30
0.0
 10
39.657
 20
62.3844
 30
0.0
 10
26.4288
 20
62.3844
 30
0.0
 10
26.4288
 20
62.3844
 30
0.0
  0
SPLINE
  5
A6
330
1F
100
AcDbEntity
  8
layer 1
 62
     7
100
AcDbSpline
210
0.0
220
0.0
230
1.0
 70
    11
 71
     3
 72
    24
 73
    20
 74
     0
 42
0.0000000001
 43
0.0000000001
 12
1.0
 22
0.0
 32
0.0
 13
1.0
 23
0.0
 33
0.0
 40
0.0
 40
0.0
 40
0.0
 40
0.0
 40
0.1666666666666667
 40
0.1666666666666667
 40
0.1666666666666667
 40
0.1666666666666667
 40
0.3333333333333333
 40
0.3333333333333333
 40
0.3333333333333333
 40
0.3333333333333333
 40
0.5
 40
0.5
 40
0.5
 40
0.5
 40
0.6666666666666666
 40
0.6666666666666666
 40
0.6666666666666666
 40
0.6666666666666666
 40
1.0
 40
1.0
 40
1.0
 40
1.0
 10
26.4288
 20
7.9634
 30
0.0
 10
26.4288
 20
7.9634
 30
0.0
 10
26.4288
 20
-5.9306
 30
0.0
 10
26.4288
 20
-5.9306
 30
0.0
 10
26.4288
 20
-5.9306
 30
0.0
 10
26.4288
 20
-5.9306
 30
0.0
 10
39.657
 20
-5.9306
 30
0.0
 10
39.657
 20
-5.9306
 30
0.0
 10
39.657
 20
-5.9306
 30
0.0
 10
39.657
 20
-5.9306
 30
0.0
 10
46.6258
 20
1.0164
 30
0.0
 10
46.6258
 20
1.0164
 30
0.0
 10
46.6258
 20
1.0164
 30
0.0
 10
46.6258
 20
1.0164
 30
0.0
 10
39.657
 20
7.9634
 30
0.0
 10
39.657
 20
7.9634
 30
0.0
 10
39.657
 20
7.9634
 30
0.0
 10
39.657
 20
7.9634
 30
0.0
 10
26.4288
 20
7.9634
 30
0.0
 10
26.4288
 20
7.9634
 30
0.0
  0
SPLINE
  5
A7
330
1F
100
AcDbEntity
  8
layer 1
 62
     7
100
AcDbSpline
210
0.0
220
0.0
230
1.0
 70
    11
 71
     3
 72
    24
 73
    20
 74
     0
 42
0.0000000001
 43
0.0000000001
 12
1.0
 22
0.0
 32
0.0
 13
1.0
 23
0.0
 33
0.0
 40
0.0
 40
0.0
 40
0.0
 40
0.0
 40
0.1666666666666667
 40
0.1666666666666667
 40
0.1666666666666667
 40
0.1666666666666667
 40
0.3333333333333333
 40
0.3333333333333333
 40
0.3333333333333333
 40
0.3333333333333333
 40
0.5
 40
0.5
 40
0.5
 40
0.5
 40
0.6666666666666666
 40
0.6666666666666666
 40
0.6666666666666666
 40
0.6666666666666666
 40
1.0
 40
1.0
 40
1.0
 40
1.0
 10
26.4288
 20
-46.4574
 30
0.0
 10
26.4288
 20
-46.4574
 30
0.0
 10
26.4288
 20
-60.3514
 30
0.0
 10
26.4288
 20
-60.3514
 30
0.0
 10
26.4288
 20
-60.3514
 30
0.0
 10
26.4288
 20
-60.3514
 30
0.0
 10
39.657
 20
-60.3514
 30
0.0
 10
39.657
 20
-60.3514
 30
0.0
 10
39.657
 20
-60.3514
 30
0.0
 10
39.657
 20
-60.3514
 30
0.0
 10
46.73
 20
-53.3006
 30
0.0
 10
46.73
 20
-53.3006
 30
0.0
 10
46.73
 20
-53.3006
 30
0.0
 10
46.73
 20
-53.3006
 30
0.0
 10
39.8655
 20
-46.4574
 30
0.0
 10
39.8655
 20
-46.4574
 30
0.0
 10
39.8655
 20
-46.4574
 30
0.0
 10
39.8655
 20
-46.4574
 30
0.0
 10
26.4288
 20
-46.4574
 30
0.0
 10
26.4288
 20
-46.4574
 30
0.0
  0
SPLINE
  5
A8
330
1F
100
AcDbEntity
  8
layer 1
 62
     7
100
AcDbSpline
210
0.0
220
0.0
230
1.0
 70
    11
 71
     3
 72
    24
 73
    20
 74
     0
 42
0.0000000001
 43
0.0000000001
 12
1.0
 22
0.0
 32
0.0
 13
1.0
 23
0.0
 33
0.0
 40
0.0
 40
0.0
 40
0.0
 40
0.0
 40
0.1666666666666667
 40
0.1666666666666667
 40
0.1666666666666667
 40
0.1666666666666667
 40
0.3333333333333333
 40
0.3333333333333333
 40
0.3333333333333333
 40
0.3333333333333333
 40
0.5
 40
0.5
 40
0.5
 40
0.5
 40
0.6666666666666666
 40
0.6666666666666666
 40
0.6666666666666666
 40
0.6666666666666666
 40
1.0
 40
1.0
 40
1.0
 40
1.0
 10
26.4288
 20
-65.8778
 30
0.0
 10
26.4288
 20
-65.8778
 30
0.0
 10
26.4288
 20
-79.7718
 30
0.0
 10
26.4288
 20
-79.7718
 30
0.0
 10
26.4288
 20
-79.7718
 30
0.0
 10
26.4288
 20
-79.7718
 30
0.0
 10
39.8655
 20
-79.7718
 30
0.0
 10
39.8655
 20
-79.7718
 30
0.0
 10
39.8655
 20
-79.7718
 30
0.0
 10
39.8655
 20
-79.7718
 30
0.0
 10
46.73
 20
-72.9286
 30
0.0
 10
46.73
 20
-72.9286
 30
0.0
 10
46.73
 20
-72.9286
 30
0.0
 10
46.73
 20
-72.9286
 30
0.0
 10
39.657
 20
-65.8778
 30
0.0
 10
39.657
 20
-65.8778
 30
0.0
 10
39.657
 20
-65.8778
 30
0.0
 10
39.657
 20
-65.8778
 30
0.0
 10
26.4288
 20
-65.8778
 30
0.0
 10
26.4288
 20
-65.8778
 30
0.0
  0
SPLINE
  5
A9
330
1F
100
AcDbEntity
  8
layer 1
 62
     7
100
AcDbSpline
210
0.0
220
0.0
230
1.0
 70
    11
 71
     3
 72
    24
 73
    20
 74
     0
 42
0.0000000001
 43
0.0000000001
 12
1.0
 22
0.0
 32
0.0
 13
1.0
 23
0.0
 33
0.0
 40
0.0
 40
0.0
 40
0.0
 40
0.0
 40
0.1666666666666667
 40
0.1666666666666667
 40
0.1666666666666667
 40
0.1666666666666667
 40
0.3333333333333333
 40
0.3333333333333333
 40
0.3333333333333333
 40
0.3333333333333333
 40
0.5
 40
0.5
 40
0.5
 40
0.5
 40
0.6666666666666666
 40
0.6666666666666666
 40
0.6666666666666666
 40
0.6666666666666666
 40
1.0
 40
1.0
 40
1.0
 40
1.0
 10
20.8851
 20
-79.7718
 30
0.0
 10
20.8851
 20
-79.7718
 30
0.0
 10
20.8851
 20
-65.8778
 30
0.0
 10
20.8851
 20
-65.8778
 30
0.0
 10
20.8851
 20
-65.8778
 30
0.0
 10
20.8851
 20
-65.8778
 30
0.0
 10
7.6568
 20
-65.8778
 30
0.0
 10
7.6568
 20
-65.8778
 30
0.0
 10
7.6568
 20
-65.8778
 30
0.0
 10
7.6568
 20
-65.8778
 30
0.0
 10
0.5839
 20
-72.9286
 30
0.0
 10
0.5839
 20
-72.9286
 30
0.0
 10
0.5839
 20
-72.9286
 30
0.0
 10
0.5839
 20
-72.9286
 30
0.0
 10
7.4484
 20
-79.7718
 30
0.0
 10
7.4484
 20
-79.7718
 30
0.0
 10
7.4484
 20
-79.7718
 30
0.0
 10
7.4484
 20
-79.7718
 30
0.0
 10
20.8851
 20
-79.7718
 30
0.0
 10
20.8851
 20
-79.7718
 30
0.0
  0
SPLINE
  5
AA
330
1F
100
AcDbEntity
  8
layer 1
 62
     7
100
AcDbSpline
210
0.0
220
0.0
230
1.0
 70
    11
 71
     3
 72
    24
 73
    20
 74
     0
 42
0.0000000001
 43
0.0000000001
 12
1.0
 22
0.0
 32
0.0
 13
1.0
 23
0.0
 33
0.0
 40
0.0
 40
0.0
 40
0.0
 40
0.0
 40
0.1666666666666667
 40
0.1666666666666667
 40
0.1666666666666667
 40
0.1666666666666667
 40
0.3333333333333333
 40
0.3333333333333333
 40
0.3333333333333333
 40
0.3333333333333333
 40
0.5
 40
0.5
 40
0.5
 40
0.5
 40
0.6666666666666666
 40
0.6666666666666666
 40
0.6666666666666666
 40
0.6666666666666666
 40
1.0
 40
1.0
 40
1.0
 40
1.0
 10
20.8851
 20
-60.3514
 30
0.0
 10
20.8851
 20
-60.3514
 30
0.0
 10
20.8851
 20
-46.4574
 30
0.0
 10
20.8851
 20
-46.4574
 30
0.0
 10
20.8851
 20
-46.4574
 30
0.0
 10
20.8851
 20
-46.4574
 30
0.0
 10
7.4484
 20
-46.4574
 30
0.0
 10
7.4484
 20
-46.4574
 30
0.0
 10
7.4484
 20
-46.4574
 30
0.0
 10
7.4484
 20
-46.4574
 30
0.0
 10
0.5839
 20
-53.3006
 30
0.0
 10
0.5839
 20
-53.3006
 30
0.0
 10
0.5839
 20
-53.3006
 30
0.0
 10
0.5839
 20
-53.3006
 30
0.0
 10
7.6568
 20
-60.3514
 30
0.0
 10
7.6568
 20
-60.3514
 30
0.0
 10
7.6568
 20
-60.3514
 30
0.0
 10
7.6568
 20
-60.3514
 30
0.0
 10
20.8851
 20
-60.3514
 30
0.0
 10
20.8851
 20
-60.3514
 30
0.0
  0
SPLINE
  5
AB
330
1F
100
AcDbEntity
  8
layer 1
 62
     7
100
AcDbSpline
210
0.0
220
0.0
230
1.0
 70
    11
 71
     3
 72
    24
 73
    20
 74
     0
 42
0.0000000001
 43
0.0000000001
 12
1.0
 22
0.0
 32
0.0
 13
1.0
 23
0.0
 33
0.0
 40
0.0
 40
0.0
 40
0.0
 40
0.0
 40
0.1666666666666667
 40
0.1666666666666667
 40
0.1666666666666667
 40
0.1666666666666667
 40
0.3333333333333333
 40
0.3333333333333333
 40
0.3333333333333333
 40
0.3333333333333333
 40
0.5
 40
0.5
 40
0.5
 40
0.5
 40
0.6666666666666666
 40
0.6666666666666666
 40
0.6666666666666666
 40
0.6666666666666666
 40
1.0
 40
1.0
 40
1.0
 40
1.0
 10
20.8851
 20
-5.9306
 30
0.0
 10
20.8851
 20
-5.9306
 30
0.0
 10
20.8851
 20
7.9634
 30
0.0
 10
20.8851
 20
7.9634
 30
0.0
 10
20.8851
 20
7.9634
 30
0.0
 10
20.8851
 20
7.9634
 30
0.0
 10
7.6568
 20
7.9634
 30
0.0
 10
7.6568
 20
7.9634
 30
0.0
 10
7.6568
 20
7.9634
 30
0.0
 10
7.6568
 20
7.9634
 30
0.0
 10
0.6881
 20
1.0164
 30
0.0
 10
0.6881
 20
1.0164
 30
0.0
 10
0.6881
 20
1.0164
 30
0.0
 10
0.6881
 20
1.0164
 30
0.0
 10
7.6568
 20
-5.9306
 30
0.0
 10
7.6568
 20
-5.9306
 30
0.0
 10
7.6568
 20
-5.9306
 30
0.0
 10
7.6568
 20
-5.9306
 30
0.0
 10
20.8851
 20
-5.9306
 30
0.0
 10
20.8851
 20
-5.9306
 30
0.0
  0
SPLINE
  5
AC
330
1F
100
AcDbEntity
  8
layer 1
 62
     7
100
AcDbSpline
210
0.0
220
0.0
230
1.0
 70
    11
 71
     3
 72
    24
 73
    20
 74
     0
 42
0.0000000001
 43
0.0000000001
 12
1.0
 22
0.0
 32
0.0
 13
1.0
 23
0.0
 33
0.0
 40
0.0
 40
0.0
 40
0.0
 40
0.0
 40
0.1666666666666667
 40
0.1666666666666667
 40
0.1666666666666667
 40
0.1666666666666667
 40
0.3333333333333333
 40
0.3333333333333333
 40
0.3333333333333333
 40
0.3333333333333333
 40
0.5
 40
0.5
 40
0.5
 40
0.5
 40
0.6666666666666666
 40
0.6666666666666666
 40
0.6666666666666666
 40
0.6666666666666666
 40
1.0
 40
1.0
 40
1.0
 40
1.0
 10
20.8851
 20
48.4902
 30
0.0
 10
20.8851
 20
48.4902
 30
0.0
 10
20.8851
 20
62.3844
 30
0.0
 10
20.8851
 20
62.3844
 30
0.0
 10
20.8851
 20
62.3844
 30
0.0
 10
20.8851
 20
62.3844
 30
0.0
 10
7.6568
 20
62.3844
 30
0.0
 10
7.6568
 20
62.3844
 30
0.0
 10
7.6568
 20
62.3844
 30
0.0
 10
7.6568
 20
62.3844
 30
0.0
 10
0.6881
 20
55.4374
 30
0.0
 10
0.6881
 20
55.4374
 30
0.0
 10
0.6881
 20
55.4374
 30
0.0
 10
0.6881
 20
55.4374
 30
0.0
 10
7.6568
 20
48.4902
 30
0.0
 10
7.6568
 20
48.4902
 30
0.0
 10
7.6568
 20
48.4902
 30
0.0
 10
7.6568
 20
48.4902
 30
0.0
 10
20.8851
 20
48.4902
 30
0.0
 10
20.8851
 20
48.4902
 30
0.0
  0
SPLINE
  5
AD
330
1F
100
AcDbEntity
  8
layer 1
 62
     7
100
AcDbSpline
210
0.0
220
0.0
230
1.0
 70
    11
 71
     3
 72
    24
 73
    20
 74
     0
 42
0.0000000001
 43
0.0000000001
 12
1.0
 22
0.0
 32
0.0
 13
1.0
 23
0.0
 33
0.0
 40
0.0
 40
0.0
 40
0.0
 40
0.0
 40
0.1666666666666667
 40
0.1666666666666667
 40
0.1666666666666667
 40
0.1666666666666667
 40
0.3333333333333333
 40
0.3333333333333333
 40
0.3333333333333333
 40
0.3333333333333333
 40
0.5
 40
0.5
 40
0.5
 40
0.5
 40
0.6666666666666666
 40
0.6666666666666666
 40
0.6666666666666666
 40
0.6666666666666666
 40
1.0
 40
1.0
 40
1.0
 40
1.0
 10
20.8851
 20
102.9112
 30
0.0
 10
20.8851
 20
102.9112
 30
0.0
 10
20.8851
 20
116.4822
 30
0.0
 10
20.8851
 20
116.4822
 30
0.0
 10
20.8851
 20
116.4822
 30
0.0
 10
20.8851
 20
116.4822
 30
0.0
 10
7.3328
 20
116.4822
 30
0.0
 10
7.3328
 20
116.4822
 30
0.0
 10
7.3328
 20
116.4822
 30
0.0
 10
7.3328
 20
116.4822
 30
0.0
 10
0.6881
 20
109.8581
 30
0.0
 10
0.6881
 20
109.8581
 30
0.0
 10
0.6881
 20
109.8581
 30
0.0
 10
0.6881
 20
109.8581
 30
0.0
 10
7.6568
 20
102.9112
 30
0.0
 10
7.6568
 20
102.9112
 30
0.0
 10
7.6568
 20
102.9112
 30
0.0
 10
7.6568
 20
102.9112
 30
0.0
 10
20.8851
 20
102.9112
 30
0.0
 10
20.8851
 20
102.9112
 30
0.0
  0
SPLINE
  5
AE
330
1F
100
AcDbEntity
  8
layer 1
 62
     7
100
AcDbSpline
210
0.0
220
0.0
230
1.0
 70
    11
 71
     3
 72
   136
 73
   132
 74
     0
 42
0.0000000001
 43
0.0000000001
 12
1.0
 22
0.0
 32
0.0
 13
1.0
 23
0.0
 33
0.0
 40
0.0
 40
0.0
 40
0.0
 40
0.0
 40
0.0294117647058824
 40
0.0294117647058824
 40
0.0294117647058824
 40
0.0294117647058824
 40
0.0588235294117647
 40
0.0588235294117647
 40
0.0588235294117647
 40
0.0588235294117647
 40
0.0882352941176471
 40
0.0882352941176471
 40
0.0882352941176471
 40
0.0882352941176471
 40
0.1176470588235294
 40
0.1176470588235294
 40
0.1176470588235294
 40
0.1176470588235294
 40
0.1470588235294118
 40
0.1470588235294118
 40
0.1470588235294118
 40
0.1470588235294118
 40
0.1764705882352941
 40
0.1764705882352941
 40
0.1764705882352941
 40
0.1764705882352941
 40
0.2058823529411765
 40
0.2058823529411765
 40
0.2058823529411765
 40
0.2058823529411765
 40
0.2352941176470588
 40
0.2352941176470588
 40
0.2352941176470588
 40
0.2352941176470588
 40
0.2647058823529412
 40
0.2647058823529412
 40
0.2647058823529412
 40
0.2647058823529412
 40
0.2941176470588235
 40
0.2941176470588235
 40
0.2941176470588235
 40
0.2941176470588235
 40
0.3235294117647059
 40
0.3235294117647059
 40
0.3235294117647059
 40
0.3235294117647059
 40
0.3529411764705883
 40
0.3529411764705883
 40
0.3529411764705883
 40
0.3529411764705883
 40
0.3823529411764706
 40
0.3823529411764706
 40
0.3823529411764706
 40
0.3823529411764706
 40
0.4117647058823529
 40
0.4117647058823529
 40
0.4117647058823529
 40
0.4117647058823529
 40
0.4411764705882353
 40
0.4411764705882353
 40
0.4411764705882353
 40
0.4411764705882353
 40
0.4705882352941176
 40
0.4705882352941176
 40
0.4705882352941176
 40
0.4705882352941176
 40
0.5
 40
0.5
 40
0.5
 40
0.5
 40
0.5294117647058824
 40
0.5294117647058824
 40
0.5294117647058824
 40
0.5294117647058824
 40
0.5588235294117647
 40
0.5588235294117647
 40
0.5588235294117647
 40
0.5588235294117647
 40
0.5882352941176471
 40
0.5882352941176471
 40
0.5882352941176471
 40
0.5882352941176471
 40
0.6176470588235294
 40
0.6176470588235294
 40
0.6176470588235294
 40
0.6176470588235294
 40
0.6470588235294118
 40
0.6470588235294118
 40
0.6470588235294118
 40
0.6470588235294118
 40
0.6764705882352942
 40
0.6764705882352942
 40
0.6764705882352942
 40
0.6764705882352942
 40
0.7058823529411765
 40
0.7058823529411765
 40
0.7058823529411765
 40
0.7058823529411765
 40
0.7352941176470589
 40
0.7352941176470589
 40
0.7352941176470589
 40
0.7352941176470589
 40
0.7647058823529411
 40
0.7647058823529411
 40
0.7647058823529411
 40
0.7647058823529411
 40
0.7941176470588235
 40
0.7941176470588235
 40
0.7941176470588235
 40
0.7941176470588235
 40
0.8235294117647058
 40
0.8235294117647058
 40
0.8235294117647058
 40
0.8235294117647058
 40
0.8529411764705882
 40
0.8529411764705882
 40
0.8529411764705882
 40
0.8529411764705882
 40
0.8823529411764706
 40
0.8823529411764706
 40
0.8823529411764706
 40
0.8823529411764706
 40
0.9117647058823529
 40
0.9117647058823529
 40
0.9117647058823529
 40
0.9117647058823529
 40
0.9411764705882353
 40
0.9411764705882353
 40
0.9411764705882353
 40
0.9411764705882353
 40
1.0
 40
1.0
 40
1.0
 40
1.0
 10
13.753
 20
85.5201
 30
0.0
 10
13.1407
 20
83.8568
 30
0.0
 10
13.109
 20
81.2254
 30
0.0
 10
13.8288
 20
79.5915
 30
0.0
 10
13.8288
 20
79.5915
 30
0.0
 10
15.0185
 20
76.8915
 30
0.0
 10
17.3652
 20
78.726
 30
0.0
 10
15.9974
 20
79.5564
 30
0.0
 10
15.9974
 20
79.5564
 30
0.0
 10
14.8262
 20
80.2673
 30
0.0
 10
14.815
 20
81.9738
 30
0.0
 10
16.1406
 20
82.5148
 30
0.0
 10
16.1406
 20
82.5148
 30
0.0
 10
18.1625
 20
83.0875
 30
0.0
 10
19.7826
 20
80.2628
 30
0.0
 10
19.5694
 20
78.574
 30
0.0
 10
19.5694
 20
78.574
 30
0.0
 10
21.238
 20
78.7844
 30
0.0
 10
23.9012
 20
77.2633
 30
0.0
 10
23.5692
 20
75.3192
 30
0.0
 10
23.5692
 20
75.3192
 30
0.0
 10
23.1916
 20
73.9942
 30
0.0
 10
21.5691
 20
73.7535
 30
0.0
 10
20.6956
 20
74.7872
 30
0.0
 10
20.6956
 20
74.7872
 30
0.0
 10
20.2747
 20
75.4053
 30
0.0
 10
19.7449
 20
75.843
 30
0.0
 10
19.2159
 20
74.9418
 30
0.0
 10
19.2159
 20
74.9418
 30
0.0
 10
18.7967
 20
74.0347
 30
0.0
 10
19.803
 20
73.2351
 30
0.0
 10
20.5023
 20
72.8915
 30
0.0
 10
20.5023
 20
72.8915
 30
0.0
 10
20.5023
 20
72.8915
 30
0.0
 10
22.8958
 20
72.3455
 30
0.0
 10
22.8958
 20
72.3455
 30
0.0
 10
22.8958
 20
72.3455
 30
0.0
 10
24.3019
 20
72.1991
 30
0.0
 10
28.4446
 20
72.5789
 30
0.0
 10
28.1873
 20
74.6765
 30
0.0
 10
28.1873
 20
74.6765
 30
0.0
 10
28.0045
 20
75.461
 30
0.0
 10
27.189
 20
75.7222
 30
0.0
 10
26.7569
 20
75.0132
 30
0.0
 10
26.7569
 20
75.0132
 30
0.0
 10
26.0421
 20
73.8401
 30
0.0
 10
24.3277
 20
73.8427
 30
0.0
 10
23.7892
 20
75.156
 30
0.0
 10
23.7892
 20
75.156
 30
0.0
 10
23.215
 20
77.1675
 30
0.0
 10
26.0514
 20
78.7928
 30
0.0
 10
27.7425
 20
78.574
 30
0.0
 10
27.7425
 20
78.574
 30
0.0
 10
27.5307
 20
80.2749
 30
0.0
 10
29.0586
 20
82.8918
 30
0.0
 10
31.0073
 20
82.5613
 30
0.0
 10
31.0073
 20
82.5613
 30
0.0
 10
32.3365
 20
82.185
 30
0.0
 10
32.5781
 20
80.5668
 30
0.0
 10
31.541
 20
79.6966
 30
0.0
 10
31.541
 20
79.6966
 30
0.0
 10
30.9209
 20
79.2768
 30
0.0
 10
30.4824
 20
78.7493
 30
0.0
 10
31.386
 20
78.2216
 30
0.0
 10
31.386
 20
78.2216
 30
0.0
 10
32.2864
 20
77.8084
 30
0.0
 10
33.1217
 20
78.8162
 30
0.0
 10
33.4427
 20
79.5039
 30
0.0
 10
33.4427
 20
79.5039
 30
0.0
 10
34.3033
 20
81.3468
 30
0.0
 10
34.3618
 20
85.4401
 30
0.0
 10
32.5934
 20
86.8817
 30
0.0
 10
32.5934
 20
86.8817
 30
0.0
 10
31.595
 20
87.5592
 30
0.0
 10
30.3263
 20
86.638
 30
0.0
 10
31.0996
 20
85.8849
 30
0.0
 10
31.0996
 20
85.8849
 30
0.0
 10
32.1794
 20
85.1516
 30
0.0
 10
32.7398
 20
83.8165
 30
0.0
 10
31.4732
 20
82.9241
 30
0.0
 10
31.4732
 20
82.9241
 30
0.0
 10
29.4154
 20
81.7987
 30
0.0
 10
27.5296
 20
84.992
 30
0.0
 10
27.7425
 20
86.7215
 30
0.0
 10
27.7425
 20
86.7215
 30
0.0
 10
26.0354
 20
86.5127
 30
0.0
 10
23.4118
 20
88.0311
 30
0.0
 10
23.7427
 20
89.9761
 30
0.0
 10
23.7427
 20
89.9761
 30
0.0
 10
24.1206
 20
91.3013
 30
0.0
 10
25.7439
 20
91.5424
 30
0.0
 10
26.6163
 20
90.5079
 30
0.0
 10
26.6163
 20
90.5079
 30
0.0
 10
27.0165
 20
89.9204
 30
0.0
 10
27.4633
 20
89.4652
 30
0.0
 10
28.0487
 20
90.273
 30
0.0
 10
28.0487
 20
90.273
 30
0.0
 10
28.0487
 20
90.273
 30
0.0
 10
28.1354
 20
90.4386
 30
0.0
 10
28.1354
 20
90.4386
 30
0.0
 10
28.1354
 20
90.4386
 30
0.0
 10
29.1592
 20
93.408
 30
0.0
 10
19.4125
 20
94.0685
 30
0.0
 10
19.1113
 20
90.8154
 30
0.0
 10
19.1113
 20
90.8154
 30
0.0
 10
19.1251
 20
89.9014
 30
0.0
 10
20.0315
 20
89.5158
 30
0.0
 10
20.5548
 20
90.2823
 30
0.0
 10
20.5548
 20
90.2823
 30
0.0
 10
21.2515
 20
91.5771
 30
0.0
 10
23.169
 20
91.3818
 30
0.0
 10
23.5692
 20
89.9761
 30
0.0
 10
23.5692
 20
89.9761
 30
0.0
 10
23.9018
 20
88.0271
 30
0.0
 10
21.2485
 20
86.515
 30
0.0
 10
19.5694
 20
86.7215
 30
0.0
 10
19.5694
 20
86.7215
 30
0.0
 10
19.7867
 20
85.0222
 30
0.0
 10
18.2503
 20
82.405
 30
0.0
 10
16.3047
 20
82.7342
 30
0.0
 10
16.3047
 20
82.7342
 30
0.0
 10
14.9754
 20
83.1112
 30
0.0
 10
14.7334
 20
84.7287
 30
0.0
 10
15.7709
 20
85.5989
 30
0.0
 10
15.7709
 20
85.5989
 30
0.0
 10
16.3604
 20
85.9979
 30
0.0
 10
16.8173
 20
86.4433
 30
0.0
 10
16.0069
 20
87.0268
 30
0.0
 10
16.0069
 20
87.0268
 30
0.0
 10
14.9599
 20
87.5717
 30
0.0
 10
14.0966
 20
86.3835
 30
0.0
 10
13.753
 20
85.5201
 30
0.0
  0
SPLINE
  5
AF
330
1F
100
AcDbEntity
  8
layer 1
 62
     7
100
AcDbSpline
210
0.0
220
0.0
230
1.0
 70
    11
 71
     3
 72
   136
 73
   132
 74
     0
 42
0.0000000001
 43
0.0000000001
 12
1.0
 22
0.0
 32
0.0
 13
1.0
 23
0.0
 33
0.0
 40
0.0
 40
0.0
 40
0.0
 40
0.0
 40
0.0294117647058824
 40
0.0294117647058824
 40
0.0294117647058824
 40
0.0294117647058824
 40
0.0588235294117647
 40
0.0588235294117647
 40
0.0588235294117647
 40
0.0588235294117647
 40
0.0882352941176471
 40
0.0882352941176471
 40
0.0882352941176471
 40
0.0882352941176471
 40
0.1176470588235294
 40
0.1176470588235294
 40
0.1176470588235294
 40
0.1176470588235294
 40
0.1470588235294118
 40
0.1470588235294118
 40
0.1470588235294118
 40
0.1470588235294118
 40
0.1764705882352941
 40
0.1764705882352941
 40
0.1764705882352941
 40
0.1764705882352941
 40
0.2058823529411765
 40
0.2058823529411765
 40
0.2058823529411765
 40
0.2058823529411765
 40
0.2352941176470588
 40
0.2352941176470588
 40
0.2352941176470588
 40
0.2352941176470588
 40
0.2647058823529412
 40
0.2647058823529412
 40
0.2647058823529412
 40
0.2647058823529412
 40
0.2941176470588235
 40
0.2941176470588235
 40
0.2941176470588235
 40
0.2941176470588235
 40
0.3235294117647059
 40
0.3235294117647059
 40
0.3235294117647059
 40
0.3235294117647059
 40
0.3529411764705883
 40
0.3529411764705883
 40
0.3529411764705883
 40
0.3529411764705883
 40
0.3823529411764706
 40
0.3823529411764706
 40
0.3823529411764706
 40
0.3823529411764706
 40
0.4117647058823529
 40
0.4117647058823529
 40
0.4117647058823529
 40
0.4117647058823529
 40
0.4411764705882353
 40
0.4411764705882353
 40
0.4411764705882353
 40
0.4411764705882353
 40
0.4705882352941176
 40
0.4705882352941176
 40
0.4705882352941176
 40
0.4705882352941176
 40
0.5
 40
0.5
 40
0.5
 40
0.5
 40
0.5294117647058824
 40
0.5294117647058824
 40
0.5294117647058824
 40
0.5294117647058824
 40
0.5588235294117647
 40
0.5588235294117647
 40
0.5588235294117647
 40
0.5588235294117647
 40
0.5882352941176471
 40
0.5882352941176471
 40
0.5882352941176471
 40
0.5882352941176471
 40
0.6176470588235294
 40
0.6176470588235294
 40
0.6176470588235294
 40
0.6176470588235294
 40
0.6470588235294118
 40
0.6470588235294118
 40
0.6470588235294118
 40
0.6470588235294118
 40
0.6764705882352942
 40
0.6764705882352942
 40
0.6764705882352942
 40
0.6764705882352942
 40
0.7058823529411765
 40
0.7058823529411765
 40
0.7058823529411765
 40
0.7058823529411765
 40
0.7352941176470589
 40
0.7352941176470589
 40
0.7352941176470589
 40
0.7352941176470589
 40
0.7647058823529411
 40
0.7647058823529411
 40
0.7647058823529411
 40
0.7647058823529411
 40
0.7941176470588235
 40
0.7941176470588235
 40
0.7941176470588235
 40
0.7941176470588235
 40
0.8235294117647058
 40
0.8235294117647058
 40
0.8235294117647058
 40
0.8235294117647058
 40
0.8529411764705882
 40
0.8529411764705882
 40
0.8529411764705882
 40
0.8529411764705882
 40
0.8823529411764706
 40
0.8823529411764706
 40
0.8823529411764706
 40
0.8823529411764706
 40
0.9117647058823529
 40
0.9117647058823529
 40
0.9117647058823529
 40
0.9117647058823529
 40
0.9411764705882353
 40
0.9411764705882353
 40
0.9411764705882353
 40
0.9411764705882353
 40
1.0
 40
1.0
 40
1.0
 40
1.0
 10
13.753
 20
31.0994
 30
0.0
 10
13.1407
 20
29.436
 30
0.0
 10
13.109
 20
26.8046
 30
0.0
 10
13.8288
 20
25.1707
 30
0.0
 10
13.8288
 20
25.1707
 30
0.0
 10
15.0185
 20
22.4705
 30
0.0
 10
17.3652
 20
24.3052
 30
0.0
 10
15.9974
 20
25.1356
 30
0.0
 10
15.9974
 20
25.1356
 30
0.0
 10
14.8262
 20
25.8466
 30
0.0
 10
14.815
 20
27.553
 30
0.0
 10
16.1406
 20
28.094
 30
0.0
 10
16.1406
 20
28.094
 30
0.0
 10
18.1625
 20
28.6667
 30
0.0
 10
19.7826
 20
25.8418
 30
0.0
 10
19.5694
 20
24.153
 30
0.0
 10
19.5694
 20
24.153
 30
0.0
 10
21.238
 20
24.3636
 30
0.0
 10
23.9012
 20
22.8425
 30
0.0
 10
23.5692
 20
20.8984
 30
0.0
 10
23.5692
 20
20.8984
 30
0.0
 10
23.1916
 20
19.5735
 30
0.0
 10
21.5691
 20
19.3328
 30
0.0
 10
20.6956
 20
20.3664
 30
0.0
 10
20.6956
 20
20.3664
 30
0.0
 10
20.2747
 20
20.9843
 30
0.0
 10
19.7449
 20
21.4222
 30
0.0
 10
19.2159
 20
20.521
 30
0.0
 10
19.2159
 20
20.521
 30
0.0
 10
18.7967
 20
19.6139
 30
0.0
 10
19.803
 20
18.8143
 30
0.0
 10
20.5023
 20
18.4707
 30
0.0
 10
20.5023
 20
18.4707
 30
0.0
 10
20.5023
 20
18.4707
 30
0.0
 10
22.8958
 20
17.9247
 30
0.0
 10
22.8958
 20
17.9247
 30
0.0
 10
22.8958
 20
17.9247
 30
0.0
 10
24.3019
 20
17.7781
 30
0.0
 10
28.4446
 20
18.1581
 30
0.0
 10
28.1873
 20
20.2555
 30
0.0
 10
28.1873
 20
20.2555
 30
0.0
 10
28.0045
 20
21.0403
 30
0.0
 10
27.189
 20
21.3012
 30
0.0
 10
26.7569
 20
20.5922
 30
0.0
 10
26.7569
 20
20.5922
 30
0.0
 10
26.0421
 20
19.4191
 30
0.0
 10
24.3277
 20
19.4219
 30
0.0
 10
23.7892
 20
20.7352
 30
0.0
 10
23.7892
 20
20.7352
 30
0.0
 10
23.215
 20
22.7467
 30
0.0
 10
26.0514
 20
24.372
 30
0.0
 10
27.7425
 20
24.153
 30
0.0
 10
27.7425
 20
24.153
 30
0.0
 10
27.5307
 20
25.8539
 30
0.0
 10
29.0586
 20
28.471
 30
0.0
 10
31.0073
 20
28.1405
 30
0.0
 10
31.0073
 20
28.1405
 30
0.0
 10
32.3365
 20
27.7642
 30
0.0
 10
32.5781
 20
26.146
 30
0.0
 10
31.541
 20
25.2758
 30
0.0
 10
31.541
 20
25.2758
 30
0.0
 10
30.9209
 20
24.856
 30
0.0
 10
30.4824
 20
24.3283
 30
0.0
 10
31.386
 20
23.8006
 30
0.0
 10
31.386
 20
23.8006
 30
0.0
 10
32.2864
 20
23.3877
 30
0.0
 10
33.1217
 20
24.3955
 30
0.0
 10
33.4427
 20
25.0831
 30
0.0
 10
33.4427
 20
25.0831
 30
0.0
 10
34.3033
 20
26.9261
 30
0.0
 10
34.3618
 20
31.0193
 30
0.0
 10
32.5934
 20
32.4609
 30
0.0
 10
32.5934
 20
32.4609
 30
0.0
 10
31.595
 20
33.1384
 30
0.0
 10
30.3263
 20
32.2172
 30
0.0
 10
31.0996
 20
31.4641
 30
0.0
 10
31.0996
 20
31.4641
 30
0.0
 10
32.1794
 20
30.7308
 30
0.0
 10
32.7398
 20
29.3955
 30
0.0
 10
31.4732
 20
28.5033
 30
0.0
 10
31.4732
 20
28.5033
 30
0.0
 10
29.4154
 20
27.378
 30
0.0
 10
27.5296
 20
30.5712
 30
0.0
 10
27.7425
 20
32.3007
 30
0.0
 10
27.7425
 20
32.3007
 30
0.0
 10
26.0354
 20
32.0919
 30
0.0
 10
23.4118
 20
33.6104
 30
0.0
 10
23.7427
 20
35.5551
 30
0.0
 10
23.7427
 20
35.5551
 30
0.0
 10
24.1206
 20
36.8805
 30
0.0
 10
25.7439
 20
37.1216
 30
0.0
 10
26.6163
 20
36.0871
 30
0.0
 10
26.6163
 20
36.0871
 30
0.0
 10
27.0165
 20
35.4996
 30
0.0
 10
27.4633
 20
35.0445
 30
0.0
 10
28.0487
 20
35.852
 30
0.0
 10
28.0487
 20
35.852
 30
0.0
 10
28.0487
 20
35.852
 30
0.0
 10
28.1354
 20
36.0178
 30
0.0
 10
28.1354
 20
36.0178
 30
0.0
 10
28.1354
 20
36.0178
 30
0.0
 10
29.1592
 20
38.9872
 30
0.0
 10
19.4125
 20
39.6477
 30
0.0
 10
19.1113
 20
36.3946
 30
0.0
 10
19.1113
 20
36.3946
 30
0.0
 10
19.1251
 20
35.4807
 30
0.0
 10
20.0315
 20
35.0948
 30
0.0
 10
20.5548
 20
35.8613
 30
0.0
 10
20.5548
 20
35.8613
 30
0.0
 10
21.2515
 20
37.1561
 30
0.0
 10
23.169
 20
36.961
 30
0.0
 10
23.5692
 20
35.5554
 30
0.0
 10
23.5692
 20
35.5554
 30
0.0
 10
23.9018
 20
33.6063
 30
0.0
 10
21.2485
 20
32.094
 30
0.0
 10
19.5694
 20
32.3007
 30
0.0
 10
19.5694
 20
32.3007
 30
0.0
 10
19.7867
 20
30.6014
 30
0.0
 10
18.2503
 20
27.984
 30
0.0
 10
16.3047
 20
28.3132
 30
0.0
 10
16.3047
 20
28.3132
 30
0.0
 10
14.9754
 20
28.6904
 30
0.0
 10
14.7334
 20
30.3079
 30
0.0
 10
15.7709
 20
31.1782
 30
0.0
 10
15.7709
 20
31.1782
 30
0.0
 10
16.3604
 20
31.5771
 30
0.0
 10
16.8173
 20
32.0226
 30
0.0
 10
16.0069
 20
32.606
 30
0.0
 10
16.0069
 20
32.606
 30
0.0
 10
14.9599
 20
33.1507
 30
0.0
 10
14.0966
 20
31.9627
 30
0.0
 10
13.753
 20
31.0994
 30
0.0
  0
SPLINE
  5
B0
330
1F
100
AcDbEntity
  8
layer 1
 62
     7
100
AcDbSpline
210
0.0
220
0.0
230
1.0
 70
    11
 71
     3
 72
   136
 73
   132
 74
     0
 42
0.0000000001
 43
0.0000000001
 12
1.0
 22
0.0
 32
0.0
 13
1.0
 23
0.0
 33
0.0
 40
0.0
 40
0.0
 40
0.0
 40
0.0
 40
0.0294117647058824
 40
0.0294117647058824
 40
0.0294117647058824
 40
0.0294117647058824
 40
0.0588235294117647
 40
0.0588235294117647
 40
0.0588235294117647
 40
0.0588235294117647
 40
0.0882352941176471
 40
0.0882352941176471
 40
0.0882352941176471
 40
0.0882352941176471
 40
0.1176470588235294
 40
0.1176470588235294
 40
0.1176470588235294
 40
0.1176470588235294
 40
0.1470588235294118
 40
0.1470588235294118
 40
0.1470588235294118
 40
0.1470588235294118
 40
0.1764705882352941
 40
0.1764705882352941
 40
0.1764705882352941
 40
0.1764705882352941
 40
0.2058823529411765
 40
0.2058823529411765
 40
0.2058823529411765
 40
0.2058823529411765
 40
0.2352941176470588
 40
0.2352941176470588
 40
0.2352941176470588
 40
0.2352941176470588
 40
0.2647058823529412
 40
0.2647058823529412
 40
0.2647058823529412
 40
0.2647058823529412
 40
0.2941176470588235
 40
0.2941176470588235
 40
0.2941176470588235
 40
0.2941176470588235
 40
0.3235294117647059
 40
0.3235294117647059
 40
0.3235294117647059
 40
0.3235294117647059
 40
0.3529411764705883
 40
0.3529411764705883
 40
0.3529411764705883
 40
0.3529411764705883
 40
0.3823529411764706
 40
0.3823529411764706
 40
0.3823529411764706
 40
0.3823529411764706
 40
0.4117647058823529
 40
0.4117647058823529
 40
0.4117647058823529
 40
0.4117647058823529
 40
0.4411764705882353
 40
0.4411764705882353
 40
0.4411764705882353
 40
0.4411764705882353
 40
0.4705882352941176
 40
0.4705882352941176
 40
0.4705882352941176
 40
0.4705882352941176
 40
0.5
 40
0.5
 40
0.5
 40
0.5
 40
0.5294117647058824
 40
0.5294117647058824
 40
0.5294117647058824
 40
0.5294117647058824
 40
0.5588235294117647
 40
0.5588235294117647
 40
0.5588235294117647
 40
0.5588235294117647
 40
0.5882352941176471
 40
0.5882352941176471
 40
0.5882352941176471
 40
0.5882352941176471
 40
0.6176470588235294
 40
0.6176470588235294
 40
0.6176470588235294
 40
0.6176470588235294
 40
0.6470588235294118
 40
0.6470588235294118
 40
0.6470588235294118
 40
0.6470588235294118
 40
0.6764705882352942
 40
0.6764705882352942
 40
0.6764705882352942
 40
0.6764705882352942
 40
0.7058823529411765
 40
0.7058823529411765
 40
0.7058823529411765
 40
0.7058823529411765
 40
0.7352941176470589
 40
0.7352941176470589
 40
0.7352941176470589
 40
0.7352941176470589
 40
0.7647058823529411
 40
0.7647058823529411
 40
0.7647058823529411
 40
0.7647058823529411
 40
0.7941176470588235
 40
0.7941176470588235
 40
0.7941176470588235
 40
0.7941176470588235
 40
0.8235294117647058
 40
0.8235294117647058
 40
0.8235294117647058
 40
0.8235294117647058
 40
0.8529411764705882
 40
0.8529411764705882
 40
0.8529411764705882
 40
0.8529411764705882
 40
0.8823529411764706
 40
0.8823529411764706
 40
0.8823529411764706
 40
0.8823529411764706
 40
0.9117647058823529
 40
0.9117647058823529
 40
0.9117647058823529
 40
0.9117647058823529
 40
0.9411764705882353
 40
0.9411764705882353
 40
0.9411764705882353
 40
0.9411764705882353
 40
1.0
 40
1.0
 40
1.0
 40
1.0
 10
13.753
 20
-23.3216
 30
0.0
 10
13.1407
 20
-24.9848
 30
0.0
 10
13.109
 20
-27.6162
 30
0.0
 10
13.8288
 20
-29.2503
 30
0.0
 10
13.8288
 20
-29.2503
 30
0.0
 10
15.0185
 20
-31.9503
 30
0.0
 10
17.3652
 20
-30.1155
 30
0.0
 10
15.9974
 20
-29.2853
 30
0.0
 10
15.9974
 20
-29.2853
 30
0.0
 10
14.8262
 20
-28.5742
 30
0.0
 10
14.815
 20
-26.8678
 30
0.0
 10
16.1406
 20
-26.3267
 30
0.0
 10
16.1406
 20
-26.3267
 30
0.0
 10
18.1625
 20
-25.7543
 30
0.0
 10
19.7826
 20
-28.579
 30
0.0
 10
19.5694
 20
-30.2677
 30
0.0
 10
19.5694
 20
-30.2677
 30
0.0
 10
21.238
 20
-30.0572
 30
0.0
 10
23.9012
 20
-31.5785
 30
0.0
 10
23.5692
 20
-33.5224
 30
0.0
 10
23.5692
 20
-33.5224
 30
0.0
 10
23.1916
 20
-34.8475
 30
0.0
 10
21.5691
 20
-35.088
 30
0.0
 10
20.6956
 20
-34.0546
 30
0.0
 10
20.6956
 20
-34.0546
 30
0.0
 10
20.2747
 20
-33.4365
 30
0.0
 10
19.7449
 20
-32.9986
 30
0.0
 10
19.2159
 20
-33.8998
 30
0.0
 10
19.2159
 20
-33.8998
 30
0.0
 10
18.7967
 20
-34.8068
 30
0.0
 10
19.803
 20
-35.6067
 30
0.0
 10
20.5023
 20
-35.9503
 30
0.0
 10
20.5023
 20
-35.9503
 30
0.0
 10
20.5023
 20
-35.9503
 30
0.0
 10
22.8958
 20
-36.4961
 30
0.0
 10
22.8958
 20
-36.4961
 30
0.0
 10
22.8958
 20
-36.4961
 30
0.0
 10
24.3019
 20
-36.6427
 30
0.0
 10
28.4446
 20
-36.2627
 30
0.0
 10
28.1873
 20
-34.1653
 30
0.0
 10
28.1873
 20
-34.1653
 30
0.0
 10
28.0045
 20
-33.3805
 30
0.0
 10
27.189
 20
-33.1196
 30
0.0
 10
26.7569
 20
-33.8285
 30
0.0
 10
26.7569
 20
-33.8285
 30
0.0
 10
26.0421
 20
-35.0017
 30
0.0
 10
24.3277
 20
-34.9989
 30
0.0
 10
23.7892
 20
-33.6856
 30
0.0
 10
23.7892
 20
-33.6856
 30
0.0
 10
23.215
 20
-31.6741
 30
0.0
 10
26.0514
 20
-30.0488
 30
0.0
 10
27.7425
 20
-30.2677
 30
0.0
 10
27.7425
 20
-30.2677
 30
0.0
 10
27.5307
 20
-28.5669
 30
0.0
 10
29.0586
 20
-25.95
 30
0.0
 10
31.0073
 20
-26.2804
 30
0.0
 10
31.0073
 20
-26.2804
 30
0.0
 10
32.3365
 20
-26.6566
 30
0.0
 10
32.5781
 20
-28.2747
 30
0.0
 10
31.541
 20
-29.145
 30
0.0
 10
31.541
 20
-29.145
 30
0.0
 10
30.9209
 20
-29.5648
 30
0.0
 10
30.4824
 20
-30.0925
 30
0.0
 10
31.386
 20
-30.6202
 30
0.0
 10
31.386
 20
-30.6202
 30
0.0
 10
32.2864
 20
-31.0333
 30
0.0
 10
33.1217
 20
-30.0253
 30
0.0
 10
33.4427
 20
-29.3377
 30
0.0
 10
33.4427
 20
-29.3377
 30
0.0
 10
34.3033
 20
-27.4949
 30
0.0
 10
34.3618
 20
-23.4015
 30
0.0
 10
32.5934
 20
-21.9599
 30
0.0
 10
32.5934
 20
-21.9599
 30
0.0
 10
31.595
 20
-21.2826
 30
0.0
 10
30.3263
 20
-22.2038
 30
0.0
 10
31.0996
 20
-22.9569
 30
0.0
 10
31.0996
 20
-22.9569
 30
0.0
 10
32.1794
 20
-23.69
 30
0.0
 10
32.7398
 20
-25.0253
 30
0.0
 10
31.4732
 20
-25.9177
 30
0.0
 10
31.4732
 20
-25.9177
 30
0.0
 10
29.4154
 20
-27.0428
 30
0.0
 10
27.5296
 20
-23.8497
 30
0.0
 10
27.7425
 20
-22.1201
 30
0.0
 10
27.7425
 20
-22.1201
 30
0.0
 10
26.0354
 20
-22.3289
 30
0.0
 10
23.4118
 20
-20.8106
 30
0.0
 10
23.7427
 20
-18.8656
 30
0.0
 10
23.7427
 20
-18.8656
 30
0.0
 10
24.1206
 20
-17.5405
 30
0.0
 10
25.7439
 20
-17.2991
 30
0.0
 10
26.6163
 20
-18.3336
 30
0.0
 10
26.6163
 20
-18.3336
 30
0.0
 10
27.0165
 20
-18.9212
 30
0.0
 10
27.4633
 20
-19.3763
 30
0.0
 10
28.0487
 20
-18.5687
 30
0.0
 10
28.0487
 20
-18.5687
 30
0.0
 10
28.0487
 20
-18.5687
 30
0.0
 10
28.1354
 20
-18.403
 30
0.0
 10
28.1354
 20
-18.403
 30
0.0
 10
28.1354
 20
-18.403
 30
0.0
 10
29.1592
 20
-15.4336
 30
0.0
 10
19.4125
 20
-14.7731
 30
0.0
 10
19.1113
 20
-18.0264
 30
0.0
 10
19.1113
 20
-18.0264
 30
0.0
 10
19.1251
 20
-18.9401
 30
0.0
 10
20.0315
 20
-19.3259
 30
0.0
 10
20.5548
 20
-18.5595
 30
0.0
 10
20.5548
 20
-18.5595
 30
0.0
 10
21.2515
 20
-17.2647
 30
0.0
 10
23.169
 20
-17.46
 30
0.0
 10
23.5692
 20
-18.8654
 30
0.0
 10
23.5692
 20
-18.8654
 30
0.0
 10
23.9018
 20
-20.8145
 30
0.0
 10
21.2485
 20
-22.3267
 30
0.0
 10
19.5694
 20
-22.1203
 30
0.0
 10
19.5694
 20
-22.1203
 30
0.0
 10
19.7867
 20
-23.8196
 30
0.0
 10
18.2503
 20
-26.4368
 30
0.0
 10
16.3047
 20
-26.1076
 30
0.0
 10
16.3047
 20
-26.1076
 30
0.0
 10
14.9754
 20
-25.7304
 30
0.0
 10
14.7334
 20
-24.1128
 30
0.0
 10
15.7709
 20
-23.2428
 30
0.0
 10
15.7709
 20
-23.2428
 30
0.0
 10
16.3604
 20
-22.8439
 30
0.0
 10
16.8173
 20
-22.3984
 30
0.0
 10
16.0069
 20
-21.815
 30
0.0
 10
16.0069
 20
-21.815
 30
0.0
 10
14.9599
 20
-21.2701
 30
0.0
 10
14.0966
 20
-22.4581
 30
0.0
 10
13.753
 20
-23.3216
 30
0.0
  0
SPLINE
  5
B1
330
1F
100
AcDbEntity
  8
layer 1
 62
     7
100
AcDbSpline
210
0.0
220
0.0
230
1.0
 70
    11
 71
     3
 72
    24
 73
    20
 74
     0
 42
0.0000000001
 43
0.0000000001
 12
1.0
 22
0.0
 32
0.0
 13
1.0
 23
0.0
 33
0.0
 40
0.0
 40
0.0
 40
0.0
 40
0.0
 40
0.1666666666666667
 40
0.1666666666666667
 40
0.1666666666666667
 40
0.1666666666666667
 40
0.3333333333333333
 40
0.3333333333333333
 40
0.3333333333333333
 40
0.3333333333333333
 40
0.5
 40
0.5
 40
0.5
 40
0.5
 40
0.6666666666666666
 40
0.6666666666666666
 40
0.6666666666666666
 40
0.6666666666666666
 40
1.0
 40
1.0
 40
1.0
 40
1.0
 10
-27.5573
 20
116.4822
 30
0.0
 10
-27.5573
 20
116.4822
 30
0.0
 10
-27.5573
 20
102.9112
 30
0.0
 10
-27.5573
 20
102.9112
 30
0.0
 10
-27.5573
 20
102.9112
 30
0.0
 10
-27.5573
 20
102.9112
 30
0.0
 10
-14.329
 20
102.9112
 30
0.0
 10
-14.329
 20
102.9112
 30
0.0
 10
-14.329
 20
102.9112
 30
0.0
 10
-14.329
 20
102.9112
 30
0.0
 10
-7.3603
 20
109.8581
 30
0.0
 10
-7.3603
 20
109.8581
 30
0.0
 10
-7.3603
 20
109.8581
 30
0.0
 10
-7.3603
 20
109.8581
 30
0.0
 10
-14.005
 20
116.4822
 30
0.0
 10
-14.005
 20
116.4822
 30
0.0
 10
-14.005
 20
116.4822
 30
0.0
 10
-14.005
 20
116.4822
 30
0.0
 10
-27.5573
 20
116.4822
 30
0.0
 10
-27.5573
 20
116.4822
 30
0.0
  0
SPLINE
  5
B2
330
1F
100
AcDbEntity
  8
layer 1
 62
     7
100
AcDbSpline
210
0.0
220
0.0
230
1.0
 70
    11
 71
     3
 72
    24
 73
    20
 74
     0
 42
0.0000000001
 43
0.0000000001
 12
1.0
 22
0.0
 32
0.0
 13
1.0
 23
0.0
 33
0.0
 40
0.0
 40
0.0
 40
0.0
 40
0.0
 40
0.1666666666666667
 40
0.1666666666666667
 40
0.1666666666666667
 40
0.1666666666666667
 40
0.3333333333333333
 40
0.3333333333333333
 40
0.3333333333333333
 40
0.3333333333333333
 40
0.5
 40
0.5
 40
0.5
 40
0.5
 40
0.6666666666666666
 40
0.6666666666666666
 40
0.6666666666666666
 40
0.6666666666666666
 40
1.0
 40
1.0
 40
1.0
 40
1.0
 10
-27.5573
 20
62.3844
 30
0.0
 10
-27.5573
 20
62.3844
 30
0.0
 10
-27.5573
 20
48.4902
 30
0.0
 10
-27.5573
 20
48.4902
 30
0.0
 10
-27.5573
 20
48.4902
 30
0.0
 10
-27.5573
 20
48.4902
 30
0.0
 10
-14.329
 20
48.4902
 30
0.0
 10
-14.329
 20
48.4902
 30
0.0
 10
-14.329
 20
48.4902
 30
0.0
 10
-14.329
 20
48.4902
 30
0.0
 10
-7.3603
 20
55.4374
 30
0.0
 10
-7.3603
 20
55.4374
 30
0.0
 10
-7.3603
 20
55.4374
 30
0.0
 10
-7.3603
 20
55.4374
 30
0.0
 10
-14.329
 20
62.3844
 30
0.0
 10
-14.329
 20
62.3844
 30
0.0
 10
-14.329
 20
62.3844
 30
0.0
 10
-14.329
 20
62.3844
 30
0.0
 10
-27.5573
 20
62.3844
 30
0.0
 10
-27.5573
 20
62.3844
 30
0.0
  0
SPLINE
  5
B3
330
1F
100
AcDbEntity
  8
layer 1
 62
     7
100
AcDbSpline
210
0.0
220
0.0
230
1.0
 70
    11
 71
     3
 72
    24
 73
    20
 74
     0
 42
0.0000000001
 43
0.0000000001
 12
1.0
 22
0.0
 32
0.0
 13
1.0
 23
0.0
 33
0.0
 40
0.0
 40
0.0
 40
0.0
 40
0.0
 40
0.1666666666666667
 40
0.1666666666666667
 40
0.1666666666666667
 40
0.1666666666666667
 40
0.3333333333333333
 40
0.3333333333333333
 40
0.3333333333333333
 40
0.3333333333333333
 40
0.5
 40
0.5
 40
0.5
 40
0.5
 40
0.6666666666666666
 40
0.6666666666666666
 40
0.6666666666666666
 40
0.6666666666666666
 40
1.0
 40
1.0
 40
1.0
 40
1.0
 10
-27.5573
 20
7.9634
 30
0.0
 10
-27.5573
 20
7.9634
 30
0.0
 10
-27.5573
 20
-5.9306
 30
0.0
 10
-27.5573
 20
-5.9306
 30
0.0
 10
-27.5573
 20
-5.9306
 30
0.0
 10
-27.5573
 20
-5.9306
 30
0.0
 10
-14.329
 20
-5.9306
 30
0.0
 10
-14.329
 20
-5.9306
 30
0.0
 10
-14.329
 20
-5.9306
 30
0.0
 10
-14.329
 20
-5.9306
 30
0.0
 10
-7.3603
 20
1.0164
 30
0.0
 10
-7.3603
 20
1.0164
 30
0.0
 10
-7.3603
 20
1.0164
 30
0.0
 10
-7.3603
 20
1.0164
 30
0.0
 10
-14.329
 20
7.9634
 30
0.0
 10
-14.329
 20
7.9634
 30
0.0
 10
-14.329
 20
7.9634
 30
0.0
 10
-14.329
 20
7.9634
 30
0.0
 10
-27.5573
 20
7.9634
 30
0.0
 10
-27.5573
 20
7.9634
 30
0.0
  0
SPLINE
  5
B4
330
1F
100
AcDbEntity
  8
layer 1
 62
     7
100
AcDbSpline
210
0.0
220
0.0
230
1.0
 70
    11
 71
     3
 72
    24
 73
    20
 74
     0
 42
0.0000000001
 43
0.0000000001
 12
1.0
 22
0.0
 32
0.0
 13
1.0
 23
0.0
 33
0.0
 40
0.0
 40
0.0
 40
0.0
 40
0.0
 40
0.1666666666666667
 40
0.1666666666666667
 40
0.1666666666666667
 40
0.1666666666666667
 40
0.3333333333333333
 40
0.3333333333333333
 40
0.3333333333333333
 40
0.3333333333333333
 40
0.5
 40
0.5
 40
0.5
 40
0.5
 40
0.6666666666666666
 40
0.6666666666666666
 40
0.6666666666666666
 40
0.6666666666666666
 40
1.0
 40
1.0
 40
1.0
 40
1.0
 10
-27.5573
 20
-46.4574
 30
0.0
 10
-27.5573
 20
-46.4574
 30
0.0
 10
-27.5573
 20
-60.3514
 30
0.0
 10
-27.5573
 20
-60.3514
 30
0.0
 10
-27.5573
 20
-60.3514
 30
0.0
 10
-27.5573
 20
-60.3514
 30
0.0
 10
-14.329
 20
-60.3514
 30
0.0
 10
-14.329
 20
-60.3514
 30
0.0
 10
-14.329
 20
-60.3514
 30
0.0
 10
-14.329
 20
-60.3514
 30
0.0
 10
-7.2561
 20
-53.3006
 30
0.0
 10
-7.2561
 20
-53.3006
 30
0.0
 10
-7.2561
 20
-53.3006
 30
0.0
 10
-7.2561
 20
-53.3006
 30
0.0
 10
-14.1206
 20
-46.4574
 30
0.0
 10
-14.1206
 20
-46.4574
 30
0.0
 10
-14.1206
 20
-46.4574
 30
0.0
 10
-14.1206
 20
-46.4574
 30
0.0
 10
-27.5573
 20
-46.4574
 30
0.0
 10
-27.5573
 20
-46.4574
 30
0.0
  0
SPLINE
  5
B5
330
1F
100
AcDbEntity
  8
layer 1
 62
     7
100
AcDbSpline
210
0.0
220
0.0
230
1.0
 70
    11
 71
     3
 72
    24
 73
    20
 74
     0
 42
0.0000000001
 43
0.0000000001
 12
1.0
 22
0.0
 32
0.0
 13
1.0
 23
0.0
 33
0.0
 40
0.0
 40
0.0
 40
0.0
 40
0.0
 40
0.1666666666666667
 40
0.1666666666666667
 40
0.1666666666666667
 40
0.1666666666666667
 40
0.3333333333333333
 40
0.3333333333333333
 40
0.3333333333333333
 40
0.3333333333333333
 40
0.5
 40
0.5
 40
0.5
 40
0.5
 40
0.6666666666666666
 40
0.6666666666666666
 40
0.6666666666666666
 40
0.6666666666666666
 40
1.0
 40
1.0
 40
1.0
 40
1.0
 10
-27.5573
 20
-65.8778
 30
0.0
 10
-27.5573
 20
-65.8778
 30
0.0
 10
-27.5573
 20
-79.7718
 30
0.0
 10
-27.5573
 20
-79.7718
 30
0.0
 10
-27.5573
 20
-79.7718
 30
0.0
 10
-27.5573
 20
-79.7718
 30
0.0
 10
-14.1206
 20
-79.7718
 30
0.0
 10
-14.1206
 20
-79.7718
 30
0.0
 10
-14.1206
 20
-79.7718
 30
0.0
 10
-14.1206
 20
-79.7718
 30
0.0
 10
-7.2561
 20
-72.9286
 30
0.0
 10
-7.2561
 20
-72.9286
 30
0.0
 10
-7.2561
 20
-72.9286
 30
0.0
 10
-7.2561
 20
-72.9286
 30
0.0
 10
-14.329
 20
-65.8778
 30
0.0
 10
-14.329
 20
-65.8778
 30
0.0
 10
-14.329
 20
-65.8778
 30
0.0
 10
-14.329
 20
-65.8778
 30
0.0
 10
-27.5573
 20
-65.8778
 30
0.0
 10
-27.5573
 20
-65.8778
 30
0.0
  0
SPLINE
  5
B6
330
1F
100
AcDbEntity
  8
layer 1
 62
     7
100
AcDbSpline
210
0.0
220
0.0
230
1.0
 70
    11
 71
     3
 72
    24
 73
    20
 74
     0
 42
0.0000000001
 43
0.0000000001
 12
1.0
 22
0.0
 32
0.0
 13
1.0
 23
0.0
 33
0.0
 40
0.0
 40
0.0
 40
0.0
 40
0.0
 40
0.1666666666666667
 40
0.1666666666666667
 40
0.1666666666666667
 40
0.1666666666666667
 40
0.3333333333333333
 40
0.3333333333333333
 40
0.3333333333333333
 40
0.3333333333333333
 40
0.5
 40
0.5
 40
0.5
 40
0.5
 40
0.6666666666666666
 40
0.6666666666666666
 40
0.6666666666666666
 40
0.6666666666666666
 40
1.0
 40
1.0
 40
1.0
 40
1.0
 10
-33.101
 20
-79.7718
 30
0.0
 10
-33.101
 20
-79.7718
 30
0.0
 10
-33.101
 20
-65.8778
 30
0.0
 10
-33.101
 20
-65.8778
 30
0.0
 10
-33.101
 20
-65.8778
 30
0.0
 10
-33.101
 20
-65.8778
 30
0.0
 10
-46.3295
 20
-65.8778
 30
0.0
 10
-46.3295
 20
-65.8778
 30
0.0
 10
-46.3295
 20
-65.8778
 30
0.0
 10
-46.3295
 20
-65.8778
 30
0.0
 10
-53.4024
 20
-72.9286
 30
0.0
 10
-53.4024
 20
-72.9286
 30
0.0
 10
-53.4024
 20
-72.9286
 30
0.0
 10
-53.4024
 20
-72.9286
 30
0.0
 10
-46.5377
 20
-79.7718
 30
0.0
 10
-46.5377
 20
-79.7718
 30
0.0
 10
-46.5377
 20
-79.7718
 30
0.0
 10
-46.5377
 20
-79.7718
 30
0.0
 10
-33.101
 20
-79.7718
 30
0.0
 10
-33.101
 20
-79.7718
 30
0.0
  0
SPLINE
  5
B7
330
1F
100
AcDbEntity
  8
layer 1
 62
     7
100
AcDbSpline
210
0.0
220
0.0
230
1.0
 70
    11
 71
     3
 72
    24
 73
    20
 74
     0
 42
0.0000000001
 43
0.0000000001
 12
1.0
 22
0.0
 32
0.0
 13
1.0
 23
0.0
 33
0.0
 40
0.0
 40
0.0
 40
0.0
 40
0.0
 40
0.1666666666666667
 40
0.1666666666666667
 40
0.1666666666666667
 40
0.1666666666666667
 40
0.3333333333333333
 40
0.3333333333333333
 40
0.3333333333333333
 40
0.3333333333333333
 40
0.5
 40
0.5
 40
0.5
 40
0.5
 40
0.6666666666666666
 40
0.6666666666666666
 40
0.6666666666666666
 40
0.6666666666666666
 40
1.0
 40
1.0
 40
1.0
 40
1.0
 10
-33.101
 20
-60.3514
 30
0.0
 10
-33.101
 20
-60.3514
 30
0.0
 10
-33.101
 20
-46.4574
 30
0.0
 10
-33.101
 20
-46.4574
 30
0.0
 10
-33.101
 20
-46.4574
 30
0.0
 10
-33.101
 20
-46.4574
 30
0.0
 10
-46.5377
 20
-46.4574
 30
0.0
 10
-46.5377
 20
-46.4574
 30
0.0
 10
-46.5377
 20
-46.4574
 30
0.0
 10
-46.5377
 20
-46.4574
 30
0.0
 10
-53.4024
 20
-53.3006
 30
0.0
 10
-53.4024
 20
-53.3006
 30
0.0
 10
-53.4024
 20
-53.3006
 30
0.0
 10
-53.4024
 20
-53.3006
 30
0.0
 10
-46.3295
 20
-60.3514
 30
0.0
 10
-46.3295
 20
-60.3514
 30
0.0
 10
-46.3295
 20
-60.3514
 30
0.0
 10
-46.3295
 20
-60.3514
 30
0.0
 10
-33.101
 20
-60.3514
 30
0.0
 10
-33.101
 20
-60.3514
 30
0.0
  0
SPLINE
  5
B8
330
1F
100
AcDbEntity
  8
layer 1
 62
     7
100
AcDbSpline
210
0.0
220
0.0
230
1.0
 70
    11
 71
     3
 72
    24
 73
    20
 74
     0
 42
0.0000000001
 43
0.0000000001
 12
1.0
 22
0.0
 32
0.0
 13
1.0
 23
0.0
 33
0.0
 40
0.0
 40
0.0
 40
0.0
 40
0.0
 40
0.1666666666666667
 40
0.1666666666666667
 40
0.1666666666666667
 40
0.1666666666666667
 40
0.3333333333333333
 40
0.3333333333333333
 40
0.3333333333333333
 40
0.3333333333333333
 40
0.5
 40
0.5
 40
0.5
 40
0.5
 40
0.6666666666666666
 40
0.6666666666666666
 40
0.6666666666666666
 40
0.6666666666666666
 40
1.0
 40
1.0
 40
1.0
 40
1.0
 10
-33.101
 20
-5.9306
 30
0.0
 10
-33.101
 20
-5.9306
 30
0.0
 10
-33.101
 20
7.9634
 30
0.0
 10
-33.101
 20
7.9634
 30
0.0
 10
-33.101
 20
7.9634
 30
0.0
 10
-33.101
 20
7.9634
 30
0.0
 10
-46.3295
 20
7.9634
 30
0.0
 10
-46.3295
 20
7.9634
 30
0.0
 10
-46.3295
 20
7.9634
 30
0.0
 10
-46.3295
 20
7.9634
 30
0.0
 10
-53.2982
 20
1.0164
 30
0.0
 10
-53.2982
 20
1.0164
 30
0.0
 10
-53.2982
 20
1.0164
 30
0.0
 10
-53.2982
 20
1.0164
 30
0.0
 10
-46.3295
 20
-5.9306
 30
0.0
 10
-46.3295
 20
-5.9306
 30
0.0
 10
-46.3295
 20
-5.9306
 30
0.0
 10
-46.3295
 20
-5.9306
 30
0.0
 10
-33.101
 20
-5.9306
 30
0.0
 10
-33.101
 20
-5.9306
 30
0.0
  0
SPLINE
  5
B9
330
1F
100
AcDbEntity
  8
layer 1
 62
     7
100
AcDbSpline
210
0.0
220
0.0
230
1.0
 70
    11
 71
     3
 72
    24
 73
    20
 74
     0
 42
0.0000000001
 43
0.0000000001
 12
1.0
 22
0.0
 32
0.0
 13
1.0
 23
0.0
 33
0.0
 40
0.0
 40
0.0
 40
0.0
 40
0.0
 40
0.1666666666666667
 40
0.1666666666666667
 40
0.1666666666666667
 40
0.1666666666666667
 40
0.3333333333333333
 40
0.3333333333333333
 40
0.3333333333333333
 40
0.3333333333333333
 40
0.5
 40
0.5
 40
0.5
 40
0.5
 40
0.6666666666666666
 40
0.6666666666666666
 40
0.6666666666666666
 40
0.6666666666666666
 40
1.0
 40
1.0
 40
1.0
 40
1.0
 10
-33.101
 20
48.4902
 30
0.0
 10
-33.101
 20
48.4902
 30
0.0
 10
-33.101
 20
62.3844
 30
0.0
 10
-33.101
 20
62.3844
 30
0.0
 10
-33.101
 20
62.3844
 30
0.0
 10
-33.101
 20
62.3844
 30
0.0
 10
-46.3295
 20
62.3844
 30
0.0
 10
-46.3295
 20
62.3844
 30
0.0
 10
-46.3295
 20
62.3844
 30
0.0
 10
-46.3295
 20
62.3844
 30
0.0
 10
-53.2982
 20
55.4374
 30
0.0
 10
-53.2982
 20
55.4374
 30
0.0
 10
-53.2982
 20
55.4374
 30
0.0
 10
-53.2982
 20
55.4374
 30
0.0
 10
-46.3295
 20
48.4902
 30
0.0
 10
-46.3295
 20
48.4902
 30
0.0
 10
-46.3295
 20
48.4902
 30
0.0
 10
-46.3295
 20
48.4902
 30
0.0
 10
-33.101
 20
48.4902
 30
0.0
 10
-33.101
 20
48.4902
 30
0.0
  0
SPLINE
  5
BA
330
1F
100
AcDbEntity
  8
layer 1
 62
     7
100
AcDbSpline
210
0.0
220
0.0
230
1.0
 70
    11
 71
     3
 72
    24
 73
    20
 74
     0
 42
0.0000000001
 43
0.0000000001
 12
1.0
 22
0.0
 32
0.0
 13
1.0
 23
0.0
 33
0.0
 40
0.0
 40
0.0
 40
0.0
 40
0.0
 40
0.1666666666666667
 40
0.1666666666666667
 40
0.1666666666666667
 40
0.1666666666666667
 40
0.3333333333333333
 40
0.3333333333333333
 40
0.3333333333333333
 40
0.3333333333333333
 40
0.5
 40
0.5
 40
0.5
 40
0.5
 40
0.6666666666666666
 40
0.6666666666666666
 40
0.6666666666666666
 40
0.6666666666666666
 40
1.0
 40
1.0
 40
1.0
 40
1.0
 10
-33.101
 20
102.9112
 30
0.0
 10
-33.101
 20
102.9112
 30
0.0
 10
-33.101
 20
116.4822
 30
0.0
 10
-33.101
 20
116.4822
 30
0.0
 10
-33.101
 20
116.4822
 30
0.0
 10
-33.101
 20
116.4822
 30
0.0
 10
-46.6535
 20
116.4822
 30
0.0
 10
-46.6535
 20
116.4822
 30
0.0
 10
-46.6535
 20
116.4822
 30
0.0
 10
-46.6535
 20
116.4822
 30
0.0
 10
-53.2982
 20
109.8581
 30
0.0
 10
-53.2982
 20
109.8581
 30
0.0
 10
-53.2982
 20
109.8581
 30
0.0
 10
-53.2982
 20
109.8581
 30
0.0
 10
-46.3295
 20
102.9112
 30
0.0
 10
-46.3295
 20
102.9112
 30
0.0
 10
-46.3295
 20
102.9112
 30
0.0
 10
-46.3295
 20
102.9112
 30
0.0
 10
-33.101
 20
102.9112
 30
0.0
 10
-33.101
 20
102.9112
 30
0.0
  0
SPLINE
  5
BB
330
1F
100
AcDbEntity
  8
layer 1
 62
     7
100
AcDbSpline
210
0.0
220
0.0
230
1.0
 70
    11
 71
     3
 72
   136
 73
   132
 74
     0
 42
0.0000000001
 43
0.0000000001
 12
1.0
 22
0.0
 32
0.0
 13
1.0
 23
0.0
 33
0.0
 40
0.0
 40
0.0
 40
0.0
 40
0.0
 40
0.0294117647058824
 40
0.0294117647058824
 40
0.0294117647058824
 40
0.0294117647058824
 40
0.0588235294117647
 40
0.0588235294117647
 40
0.0588235294117647
 40
0.0588235294117647
 40
0.0882352941176471
 40
0.0882352941176471
 40
0.0882352941176471
 40
0.0882352941176471
 40
0.1176470588235294
 40
0.1176470588235294
 40
0.1176470588235294
 40
0.1176470588235294
 40
0.1470588235294118
 40
0.1470588235294118
 40
0.1470588235294118
 40
0.1470588235294118
 40
0.1764705882352941
 40
0.1764705882352941
 40
0.1764705882352941
 40
0.1764705882352941
 40
0.2058823529411765
 40
0.2058823529411765
 40
0.2058823529411765
 40
0.2058823529411765
 40
0.2352941176470588
 40
0.2352941176470588
 40
0.2352941176470588
 40
0.2352941176470588
 40
0.2647058823529412
 40
0.2647058823529412
 40
0.2647058823529412
 40
0.2647058823529412
 40
0.2941176470588235
 40
0.2941176470588235
 40
0.2941176470588235
 40
0.2941176470588235
 40
0.3235294117647059
 40
0.3235294117647059
 40
0.3235294117647059
 40
0.3235294117647059
 40
0.3529411764705883
 40
0.3529411764705883
 40
0.3529411764705883
 40
0.3529411764705883
 40
0.3823529411764706
 40
0.3823529411764706
 40
0.3823529411764706
 40
0.3823529411764706
 40
0.4117647058823529
 40
0.4117647058823529
 40
0.4117647058823529
 40
0.4117647058823529
 40
0.4411764705882353
 40
0.4411764705882353
 40
0.4411764705882353
 40
0.4411764705882353
 40
0.4705882352941176
 40
0.4705882352941176
 40
0.4705882352941176
 40
0.4705882352941176
 40
0.5
 40
0.5
 40
0.5
 40
0.5
 40
0.5294117647058824
 40
0.5294117647058824
 40
0.5294117647058824
 40
0.5294117647058824
 40
0.5588235294117647
 40
0.5588235294117647
 40
0.5588235294117647
 40
0.5588235294117647
 40
0.5882352941176471
 40
0.5882352941176471
 40
0.5882352941176471
 40
0.5882352941176471
 40
0.6176470588235294
 40
0.6176470588235294
 40
0.6176470588235294
 40
0.6176470588235294
 40
0.6470588235294118
 40
0.6470588235294118
 40
0.6470588235294118
 40
0.6470588235294118
 40
0.6764705882352942
 40
0.6764705882352942
 40
0.6764705882352942
 40
0.6764705882352942
 40
0.7058823529411765
 40
0.7058823529411765
 40
0.7058823529411765
 40
0.7058823529411765
 40
0.7352941176470589
 40
0.7352941176470589
 40
0.7352941176470589
 40
0.7352941176470589
 40
0.7647058823529411
 40
0.7647058823529411
 40
0.7647058823529411
 40
0.7647058823529411
 40
0.7941176470588235
 40
0.7941176470588235
 40
0.7941176470588235
 40
0.7941176470588235
 40
0.8235294117647058
 40
0.8235294117647058
 40
0.8235294117647058
 40
0.8235294117647058
 40
0.8529411764705882
 40
0.8529411764705882
 40
0.8529411764705882
 40
0.8529411764705882
 40
0.8823529411764706
 40
0.8823529411764706
 40
0.8823529411764706
 40
0.8823529411764706
 40
0.9117647058823529
 40
0.9117647058823529
 40
0.9117647058823529
 40
0.9117647058823529
 40
0.9411764705882353
 40
0.9411764705882353
 40
0.9411764705882353
 40
0.9411764705882353
 40
1.0
 40
1.0
 40
1.0
 40
1.0
 10
-40.2331
 20
85.5201
 30
0.0
 10
-40.8454
 20
83.8568
 30
0.0
 10
-40.8771
 20
81.2254
 30
0.0
 10
-40.1573
 20
79.5915
 30
0.0
 10
-40.1573
 20
79.5915
 30
0.0
 10
-38.9676
 20
76.8915
 30
0.0
 10
-36.6209
 20
78.726
 30
0.0
 10
-37.9887
 20
79.5564
 30
0.0
 10
-37.9887
 20
79.5564
 30
0.0
 10
-39.1599
 20
80.2673
 30
0.0
 10
-39.1711
 20
81.9738
 30
0.0
 10
-37.8455
 20
82.5148
 30
0.0
 10
-37.8455
 20
82.5148
 30
0.0
 10
-35.8236
 20
83.0875
 30
0.0
 10
-34.2035
 20
80.2626
 30
0.0
 10
-34.4167
 20
78.574
 30
0.0
 10
-34.4167
 20
78.574
 30
0.0
 10
-32.7481
 20
78.7844
 30
0.0
 10
-30.0849
 20
77.2633
 30
0.0
 10
-30.4169
 20
75.3192
 30
0.0
 10
-30.4169
 20
75.3192
 30
0.0
 10
-30.7945
 20
73.9942
 30
0.0
 10
-32.417
 20
73.7535
 30
0.0
 10
-33.2904
 20
74.7872
 30
0.0
 10
-33.2904
 20
74.7872
 30
0.0
 10
-33.7114
 20
75.4053
 30
0.0
 10
-34.2412
 20
75.843
 30
0.0
 10
-34.7702
 20
74.9418
 30
0.0
 10
-34.7702
 20
74.9418
 30
0.0
 10
-35.1894
 20
74.0347
 30
0.0
 10
-34.1831
 20
73.2351
 30
0.0
 10
-33.4838
 20
72.8915
 30
0.0
 10
-33.4838
 20
72.8915
 30
0.0
 10
-33.4838
 20
72.8915
 30
0.0
 10
-31.0903
 20
72.3455
 30
0.0
 10
-31.0903
 20
72.3455
 30
0.0
 10
-31.0903
 20
72.3455
 30
0.0
 10
-29.6842
 20
72.1991
 30
0.0
 10
-25.5415
 20
72.5789
 30
0.0
 10
-25.7988
 20
74.6765
 30
0.0
 10
-25.7988
 20
74.6765
 30
0.0
 10
-25.9816
 20
75.461
 30
0.0
 10
-26.7971
 20
75.7222
 30
0.0
 10
-27.2292
 20
75.0132
 30
0.0
 10
-27.2292
 20
75.0132
 30
0.0
 10
-27.944
 20
73.8401
 30
0.0
 10
-29.6584
 20
73.8427
 30
0.0
 10
-30.1969
 20
75.156
 30
0.0
 10
-30.1969
 20
75.156
 30
0.0
 10
-30.771
 20
77.1675
 30
0.0
 10
-27.9347
 20
78.7928
 30
0.0
 10
-26.2436
 20
78.574
 30
0.0
 10
-26.2436
 20
78.574
 30
0.0
 10
-26.4554
 20
80.2749
 30
0.0
 10
-24.9275
 20
82.8918
 30
0.0
 10
-22.9788
 20
82.5613
 30
0.0
 10
-22.9788
 20
82.5613
 30
0.0
 10
-21.6496
 20
82.185
 30
0.0
 10
-21.408
 20
80.5668
 30
0.0
 10
-22.4451
 20
79.6966
 30
0.0
 10
-22.4451
 20
79.6966
 30
0.0
 10
-23.0651
 20
79.2768
 30
0.0
 10
-23.5037
 20
78.7493
 30
0.0
 10
-22.6001
 20
78.2216
 30
0.0
 10
-22.6001
 20
78.2216
 30
0.0
 10
-21.6997
 20
77.8084
 30
0.0
 10
-20.8644
 20
78.8162
 30
0.0
 10
-20.5434
 20
79.5039
 30
0.0
 10
-20.5434
 20
79.5039
 30
0.0
 10
-19.6828
 20
81.3468
 30
0.0
 10
-19.6243
 20
85.4401
 30
0.0
 10
-21.3927
 20
86.8817
 30
0.0
 10
-21.3927
 20
86.8817
 30
0.0
 10
-22.3911
 20
87.5592
 30
0.0
 10
-23.6598
 20
86.638
 30
0.0
 10
-22.8864
 20
85.8849
 30
0.0
 10
-22.8864
 20
85.8849
 30
0.0
 10
-21.807
 20
85.1516
 30
0.0
 10
-21.2463
 20
83.8165
 30
0.0
 10
-22.5129
 20
82.9241
 30
0.0
 10
-22.5129
 20
82.9241
 30
0.0
 10
-24.5707
 20
81.7987
 30
0.0
 10
-26.4565
 20
84.992
 30
0.0
 10
-26.2436
 20
86.7215
 30
0.0
 10
-26.2436
 20
86.7215
 30
0.0
 10
-27.9507
 20
86.5127
 30
0.0
 10
-30.5743
 20
88.0311
 30
0.0
 10
-30.2436
 20
89.9761
 30
0.0
 10
-30.2436
 20
89.9761
 30
0.0
 10
-29.8655
 20
91.3013
 30
0.0
 10
-28.2422
 20
91.5424
 30
0.0
 10
-27.3698
 20
90.5079
 30
0.0
 10
-27.3698
 20
90.5079
 30
0.0
 10
-26.9696
 20
89.9204
 30
0.0
 10
-26.5228
 20
89.4652
 30
0.0
 10
-25.9374
 20
90.273
 30
0.0
 10
-25.9374
 20
90.273
 30
0.0
 10
-25.9374
 20
90.273
 30
0.0
 10
-25.8509
 20
90.4386
 30
0.0
 10
-25.8509
 20
90.4386
 30
0.0
 10
-25.8509
 20
90.4386
 30
0.0
 10
-24.8269
 20
93.408
 30
0.0
 10
-34.5736
 20
94.0685
 30
0.0
 10
-34.8748
 20
90.8154
 30
0.0
 10
-34.8748
 20
90.8154
 30
0.0
 10
-34.861
 20
89.9014
 30
0.0
 10
-33.9549
 20
89.5158
 30
0.0
 10
-33.4313
 20
90.2823
 30
0.0
 10
-33.4313
 20
90.2823
 30
0.0
 10
-32.7346
 20
91.5771
 30
0.0
 10
-30.8173
 20
91.3818
 30
0.0
 10
-30.4169
 20
89.9761
 30
0.0
 10
-30.4169
 20
89.9761
 30
0.0
 10
-30.0843
 20
88.0271
 30
0.0
 10
-32.7378
 20
86.515
 30
0.0
 10
-34.4167
 20
86.7215
 30
0.0
 10
-34.4167
 20
86.7215
 30
0.0
 10
-34.1994
 20
85.0222
 30
0.0
 10
-35.736
 20
82.405
 30
0.0
 10
-37.6814
 20
82.7342
 30
0.0
 10
-37.6814
 20
82.7342
 30
0.0
 10
-39.0107
 20
83.1112
 30
0.0
 10
-39.2527
 20
84.7287
 30
0.0
 10
-38.2151
 20
85.5989
 30
0.0
 10
-38.2151
 20
85.5989
 30
0.0
 10
-37.6257
 20
85.9979
 30
0.0
 10
-37.1688
 20
86.4433
 30
0.0
 10
-37.9792
 20
87.0268
 30
0.0
 10
-37.9792
 20
87.0268
 30
0.0
 10
-39.0262
 20
87.5717
 30
0.0
 10
-39.8897
 20
86.3835
 30
0.0
 10
-40.2331
 20
85.5201
 30
0.0
  0
SPLINE
  5
BC
330
1F
100
AcDbEntity
  8
layer 1
 62
     7
100
AcDbSpline
210
0.0
220
0.0
230
1.0
 70
    11
 71
     3
 72
   136
 73
   132
 74
     0
 42
0.0000000001
 43
0.0000000001
 12
1.0
 22
0.0
 32
0.0
 13
1.0
 23
0.0
 33
0.0
 40
0.0
 40
0.0
 40
0.0
 40
0.0
 40
0.0294117647058824
 40
0.0294117647058824
 40
0.0294117647058824
 40
0.0294117647058824
 40
0.0588235294117647
 40
0.0588235294117647
 40
0.0588235294117647
 40
0.0588235294117647
 40
0.0882352941176471
 40
0.0882352941176471
 40
0.0882352941176471
 40
0.0882352941176471
 40
0.1176470588235294
 40
0.1176470588235294
 40
0.1176470588235294
 40
0.1176470588235294
 40
0.1470588235294118
 40
0.1470588235294118
 40
0.1470588235294118
 40
0.1470588235294118
 40
0.1764705882352941
 40
0.1764705882352941
 40
0.1764705882352941
 40
0.1764705882352941
 40
0.2058823529411765
 40
0.2058823529411765
 40
0.2058823529411765
 40
0.2058823529411765
 40
0.2352941176470588
 40
0.2352941176470588
 40
0.2352941176470588
 40
0.2352941176470588
 40
0.2647058823529412
 40
0.2647058823529412
 40
0.2647058823529412
 40
0.2647058823529412
 40
0.2941176470588235
 40
0.2941176470588235
 40
0.2941176470588235
 40
0.2941176470588235
 40
0.3235294117647059
 40
0.3235294117647059
 40
0.3235294117647059
 40
0.3235294117647059
 40
0.3529411764705883
 40
0.3529411764705883
 40
0.3529411764705883
 40
0.3529411764705883
 40
0.3823529411764706
 40
0.3823529411764706
 40
0.3823529411764706
 40
0.3823529411764706
 40
0.4117647058823529
 40
0.4117647058823529
 40
0.4117647058823529
 40
0.4117647058823529
 40
0.4411764705882353
 40
0.4411764705882353
 40
0.4411764705882353
 40
0.4411764705882353
 40
0.4705882352941176
 40
0.4705882352941176
 40
0.4705882352941176
 40
0.4705882352941176
 40
0.5
 40
0.5
 40
0.5
 40
0.5
 40
0.5294117647058824
 40
0.5294117647058824
 40
0.5294117647058824
 40
0.5294117647058824
 40
0.5588235294117647
 40
0.5588235294117647
 40
0.5588235294117647
 40
0.5588235294117647
 40
0.5882352941176471
 40
0.5882352941176471
 40
0.5882352941176471
 40
0.5882352941176471
 40
0.6176470588235294
 40
0.6176470588235294
 40
0.6176470588235294
 40
0.6176470588235294
 40
0.6470588235294118
 40
0.6470588235294118
 40
0.6470588235294118
 40
0.6470588235294118
 40
0.6764705882352942
 40
0.6764705882352942
 40
0.6764705882352942
 40
0.6764705882352942
 40
0.7058823529411765
 40
0.7058823529411765
 40
0.7058823529411765
 40
0.7058823529411765
 40
0.7352941176470589
 40
0.7352941176470589
 40
0.7352941176470589
 40
0.7352941176470589
 40
0.7647058823529411
 40
0.7647058823529411
 40
0.7647058823529411
 40
0.7647058823529411
 40
0.7941176470588235
 40
0.7941176470588235
 40
0.7941176470588235
 40
0.7941176470588235
 40
0.8235294117647058
 40
0.8235294117647058
 40
0.8235294117647058
 40
0.8235294117647058
 40
0.8529411764705882
 40
0.8529411764705882
 40
0.8529411764705882
 40
0.8529411764705882
 40
0.8823529411764706
 40
0.8823529411764706
 40
0.8823529411764706
 40
0.8823529411764706
 40
0.9117647058823529
 40
0.9117647058823529
 40
0.9117647058823529
 40
0.9117647058823529
 40
0.9411764705882353
 40
0.9411764705882353
 40
0.9411764705882353
 40
0.9411764705882353
 40
1.0
 40
1.0
 40
1.0
 40
1.0
 10
-40.2331
 20
31.0994
 30
0.0
 10
-40.8454
 20
29.436
 30
0.0
 10
-40.8771
 20
26.8046
 30
0.0
 10
-40.1573
 20
25.1707
 30
0.0
 10
-40.1573
 20
25.1707
 30
0.0
 10
-38.9676
 20
22.4705
 30
0.0
 10
-36.6209
 20
24.3052
 30
0.0
 10
-37.9887
 20
25.1356
 30
0.0
 10
-37.9887
 20
25.1356
 30
0.0
 10
-39.1599
 20
25.8466
 30
0.0
 10
-39.1711
 20
27.553
 30
0.0
 10
-37.8455
 20
28.094
 30
0.0
 10
-37.8455
 20
28.094
 30
0.0
 10
-35.8236
 20
28.6667
 30
0.0
 10
-34.2035
 20
25.8418
 30
0.0
 10
-34.4167
 20
24.153
 30
0.0
 10
-34.4167
 20
24.153
 30
0.0
 10
-32.7481
 20
24.3636
 30
0.0
 10
-30.0849
 20
22.8425
 30
0.0
 10
-30.4169
 20
20.8984
 30
0.0
 10
-30.4169
 20
20.8984
 30
0.0
 10
-30.7945
 20
19.5735
 30
0.0
 10
-32.417
 20
19.3328
 30
0.0
 10
-33.2904
 20
20.3664
 30
0.0
 10
-33.2904
 20
20.3664
 30
0.0
 10
-33.7114
 20
20.9843
 30
0.0
 10
-34.2412
 20
21.4222
 30
0.0
 10
-34.7702
 20
20.521
 30
0.0
 10
-34.7702
 20
20.521
 30
0.0
 10
-35.1894
 20
19.6139
 30
0.0
 10
-34.1831
 20
18.8143
 30
0.0
 10
-33.4838
 20
18.4707
 30
0.0
 10
-33.4838
 20
18.4707
 30
0.0
 10
-33.4838
 20
18.4707
 30
0.0
 10
-31.0903
 20
17.9247
 30
0.0
 10
-31.0903
 20
17.9247
 30
0.0
 10
-31.0903
 20
17.9247
 30
0.0
 10
-29.6842
 20
17.7781
 30
0.0
 10
-25.5415
 20
18.1581
 30
0.0
 10
-25.7988
 20
20.2555
 30
0.0
 10
-25.7988
 20
20.2555
 30
0.0
 10
-25.9816
 20
21.0403
 30
0.0
 10
-26.7971
 20
21.3012
 30
0.0
 10
-27.2292
 20
20.5922
 30
0.0
 10
-27.2292
 20
20.5922
 30
0.0
 10
-27.944
 20
19.4191
 30
0.0
 10
-29.6584
 20
19.4219
 30
0.0
 10
-30.1969
 20
20.7352
 30
0.0
 10
-30.1969
 20
20.7352
 30
0.0
 10
-30.771
 20
22.7467
 30
0.0
 10
-27.9347
 20
24.372
 30
0.0
 10
-26.2436
 20
24.153
 30
0.0
 10
-26.2436
 20
24.153
 30
0.0
 10
-26.4554
 20
25.8539
 30
0.0
 10
-24.9275
 20
28.471
 30
0.0
 10
-22.9788
 20
28.1405
 30
0.0
 10
-22.9788
 20
28.1405
 30
0.0
 10
-21.6496
 20
27.7642
 30
0.0
 10
-21.408
 20
26.146
 30
0.0
 10
-22.4451
 20
25.2758
 30
0.0
 10
-22.4451
 20
25.2758
 30
0.0
 10
-23.0651
 20
24.856
 30
0.0
 10
-23.5037
 20
24.3283
 30
0.0
 10
-22.6001
 20
23.8006
 30
0.0
 10
-22.6001
 20
23.8006
 30
0.0
 10
-21.6997
 20
23.3877
 30
0.0
 10
-20.8644
 20
24.3955
 30
0.0
 10
-20.5434
 20
25.0831
 30
0.0
 10
-20.5434
 20
25.0831
 30
0.0
 10
-19.6828
 20
26.9261
 30
0.0
 10
-19.6243
 20
31.0193
 30
0.0
 10
-21.3927
 20
32.4609
 30
0.0
 10
-21.3927
 20
32.4609
 30
0.0
 10
-22.3911
 20
33.1384
 30
0.0
 10
-23.6598
 20
32.2172
 30
0.0
 10
-22.8864
 20
31.4641
 30
0.0
 10
-22.8864
 20
31.4641
 30
0.0
 10
-21.807
 20
30.7308
 30
0.0
 10
-21.2463
 20
29.3955
 30
0.0
 10
-22.5129
 20
28.5033
 30
0.0
 10
-22.5129
 20
28.5033
 30
0.0
 10
-24.5707
 20
27.378
 30
0.0
 10
-26.4565
 20
30.5712
 30
0.0
 10
-26.2436
 20
32.3007
 30
0.0
 10
-26.2436
 20
32.3007
 30
0.0
 10
-27.9507
 20
32.0919
 30
0.0
 10
-30.5743
 20
33.6104
 30
0.0
 10
-30.2436
 20
35.5551
 30
0.0
 10
-30.2436
 20
35.5551
 30
0.0
 10
-29.8655
 20
36.8805
 30
0.0
 10
-28.2422
 20
37.1216
 30
0.0
 10
-27.3698
 20
36.0871
 30
0.0
 10
-27.3698
 20
36.0871
 30
0.0
 10
-26.9696
 20
35.4996
 30
0.0
 10
-26.5228
 20
35.0445
 30
0.0
 10
-25.9374
 20
35.852
 30
0.0
 10
-25.9374
 20
35.852
 30
0.0
 10
-25.9374
 20
35.852
 30
0.0
 10
-25.8509
 20
36.0178
 30
0.0
 10
-25.8509
 20
36.0178
 30
0.0
 10
-25.8509
 20
36.0178
 30
0.0
 10
-24.8269
 20
38.9872
 30
0.0
 10
-34.5736
 20
39.6477
 30
0.0
 10
-34.8748
 20
36.3946
 30
0.0
 10
-34.8748
 20
36.3946
 30
0.0
 10
-34.861
 20
35.4807
 30
0.0
 10
-33.9549
 20
35.0948
 30
0.0
 10
-33.4313
 20
35.8613
 30
0.0
 10
-33.4313
 20
35.8613
 30
0.0
 10
-32.7346
 20
37.1561
 30
0.0
 10
-30.8173
 20
36.961
 30
0.0
 10
-30.4169
 20
35.5554
 30
0.0
 10
-30.4169
 20
35.5554
 30
0.0
 10
-30.0843
 20
33.6063
 30
0.0
 10
-32.7378
 20
32.094
 30
0.0
 10
-34.4167
 20
32.3007
 30
0.0
 10
-34.4167
 20
32.3007
 30
0.0
 10
-34.1994
 20
30.6014
 30
0.0
 10
-35.736
 20
27.984
 30
0.0
 10
-37.6814
 20
28.3132
 30
0.0
 10
-37.6814
 20
28.3132
 30
0.0
 10
-39.0107
 20
28.6904
 30
0.0
 10
-39.2527
 20
30.3079
 30
0.0
 10
-38.2151
 20
31.1782
 30
0.0
 10
-38.2151
 20
31.1782
 30
0.0
 10
-37.6257
 20
31.5771
 30
0.0
 10
-37.1688
 20
32.0226
 30
0.0
 10
-37.9792
 20
32.606
 30
0.0
 10
-37.9792
 20
32.606
 30
0.0
 10
-39.0262
 20
33.1507
 30
0.0
 10
-39.8897
 20
31.9627
 30
0.0
 10
-40.2331
 20
31.0994
 30
0.0
  0
SPLINE
  5
BD
330
1F
100
AcDbEntity
  8
layer 1
 62
     7
100
AcDbSpline
210
0.0
220
0.0
230
1.0
 70
    11
 71
     3
 72
   136
 73
   132
 74
     0
 42
0.0000000001
 43
0.0000000001
 12
1.0
 22
0.0
 32
0.0
 13
1.0
 23
0.0
 33
0.0
 40
0.0
 40
0.0
 40
0.0
 40
0.0
 40
0.0294117647058824
 40
0.0294117647058824
 40
0.0294117647058824
 40
0.0294117647058824
 40
0.0588235294117647
 40
0.0588235294117647
 40
0.0588235294117647
 40
0.0588235294117647
 40
0.0882352941176471
 40
0.0882352941176471
 40
0.0882352941176471
 40
0.0882352941176471
 40
0.1176470588235294
 40
0.1176470588235294
 40
0.1176470588235294
 40
0.1176470588235294
 40
0.1470588235294118
 40
0.1470588235294118
 40
0.1470588235294118
 40
0.1470588235294118
 40
0.1764705882352941
 40
0.1764705882352941
 40
0.1764705882352941
 40
0.1764705882352941
 40
0.2058823529411765
 40
0.2058823529411765
 40
0.2058823529411765
 40
0.2058823529411765
 40
0.2352941176470588
 40
0.2352941176470588
 40
0.2352941176470588
 40
0.2352941176470588
 40
0.2647058823529412
 40
0.2647058823529412
 40
0.2647058823529412
 40
0.2647058823529412
 40
0.2941176470588235
 40
0.2941176470588235
 40
0.2941176470588235
 40
0.2941176470588235
 40
0.3235294117647059
 40
0.3235294117647059
 40
0.3235294117647059
 40
0.3235294117647059
 40
0.3529411764705883
 40
0.3529411764705883
 40
0.3529411764705883
 40
0.3529411764705883
 40
0.3823529411764706
 40
0.3823529411764706
 40
0.3823529411764706
 40
0.3823529411764706
 40
0.4117647058823529
 40
0.4117647058823529
 40
0.4117647058823529
 40
0.4117647058823529
 40
0.4411764705882353
 40
0.4411764705882353
 40
0.4411764705882353
 40
0.4411764705882353
 40
0.4705882352941176
 40
0.4705882352941176
 40
0.4705882352941176
 40
0.4705882352941176
 40
0.5
 40
0.5
 40
0.5
 40
0.5
 40
0.5294117647058824
 40
0.5294117647058824
 40
0.5294117647058824
 40
0.5294117647058824
 40
0.5588235294117647
 40
0.5588235294117647
 40
0.5588235294117647
 40
0.5588235294117647
 40
0.5882352941176471
 40
0.5882352941176471
 40
0.5882352941176471
 40
0.5882352941176471
 40
0.6176470588235294
 40
0.6176470588235294
 40
0.6176470588235294
 40
0.6176470588235294
 40
0.6470588235294118
 40
0.6470588235294118
 40
0.6470588235294118
 40
0.6470588235294118
 40
0.6764705882352942
 40
0.6764705882352942
 40
0.6764705882352942
 40
0.6764705882352942
 40
0.7058823529411765
 40
0.7058823529411765
 40
0.7058823529411765
 40
0.7058823529411765
 40
0.7352941176470589
 40
0.7352941176470589
 40
0.7352941176470589
 40
0.7352941176470589
 40
0.7647058823529411
 40
0.7647058823529411
 40
0.7647058823529411
 40
0.7647058823529411
 40
0.7941176470588235
 40
0.7941176470588235
 40
0.7941176470588235
 40
0.7941176470588235
 40
0.8235294117647058
 40
0.8235294117647058
 40
0.8235294117647058
 40
0.8235294117647058
 40
0.8529411764705882
 40
0.8529411764705882
 40
0.8529411764705882
 40
0.8529411764705882
 40
0.8823529411764706
 40
0.8823529411764706
 40
0.8823529411764706
 40
0.8823529411764706
 40
0.9117647058823529
 40
0.9117647058823529
 40
0.9117647058823529
 40
0.9117647058823529
 40
0.9411764705882353
 40
0.9411764705882353
 40
0.9411764705882353
 40
0.9411764705882353
 40
1.0
 40
1.0
 40
1.0
 40
1.0
 10
-40.2331
 20
-23.3216
 30
0.0
 10
-40.8454
 20
-24.9848
 30
0.0
 10
-40.8771
 20
-27.6162
 30
0.0
 10
-40.1573
 20
-29.2503
 30
0.0
 10
-40.1573
 20
-29.2503
 30
0.0
 10
-38.9676
 20
-31.9503
 30
0.0
 10
-36.6209
 20
-30.1155
 30
0.0
 10
-37.9887
 20
-29.2853
 30
0.0
 10
-37.9887
 20
-29.2853
 30
0.0
 10
-39.1599
 20
-28.5742
 30
0.0
 10
-39.1711
 20
-26.8678
 30
0.0
 10
-37.8455
 20
-26.3267
 30
0.0
 10
-37.8455
 20
-26.3267
 30
0.0
 10
-35.8236
 20
-25.7543
 30
0.0
 10
-34.2035
 20
-28.579
 30
0.0
 10
-34.4167
 20
-30.2677
 30
0.0
 10
-34.4167
 20
-30.2677
 30
0.0
 10
-32.7481
 20
-30.0572
 30
0.0
 10
-30.0849
 20
-31.5785
 30
0.0
 10
-30.4169
 20
-33.5224
 30
0.0
 10
-30.4169
 20
-33.5224
 30
0.0
 10
-30.7945
 20
-34.8475
 30
0.0
 10
-32.417
 20
-35.088
 30
0.0
 10
-33.2904
 20
-34.0546
 30
0.0
 10
-33.2904
 20
-34.0546
 30
0.0
 10
-33.7114
 20
-33.4365
 30
0.0
 10
-34.2412
 20
-32.9986
 30
0.0
 10
-34.7702
 20
-33.8998
 30
0.0
 10
-34.7702
 20
-33.8998
 30
0.0
 10
-35.1894
 20
-34.8068
 30
0.0
 10
-34.1831
 20
-35.6067
 30
0.0
 10
-33.4838
 20
-35.9503
 30
0.0
 10
-33.4838
 20
-35.9503
 30
0.0
 10
-33.4838
 20
-35.9503
 30
0.0
 10
-31.0903
 20
-36.4961
 30
0.0
 10
-31.0903
 20
-36.4961
 30
0.0
 10
-31.0903
 20
-36.4961
 30
0.0
 10
-29.6842
 20
-36.6427
 30
0.0
 10
-25.5415
 20
-36.2627
 30
0.0
 10
-25.7988
 20
-34.1653
 30
0.0
 10
-25.7988
 20
-34.1653
 30
0.0
 10
-25.9816
 20
-33.3805
 30
0.0
 10
-26.7971
 20
-33.1196
 30
0.0
 10
-27.2292
 20
-33.8285
 30
0.0
 10
-27.2292
 20
-33.8285
 30
0.0
 10
-27.944
 20
-35.0017
 30
0.0
 10
-29.6584
 20
-34.9989
 30
0.0
 10
-30.1969
 20
-33.6856
 30
0.0
 10
-30.1969
 20
-33.6856
 30
0.0
 10
-30.771
 20
-31.6741
 30
0.0
 10
-27.9347
 20
-30.0488
 30
0.0
 10
-26.2436
 20
-30.2677
 30
0.0
 10
-26.2436
 20
-30.2677
 30
0.0
 10
-26.4554
 20
-28.5669
 30
0.0
 10
-24.9275
 20
-25.95
 30
0.0
 10
-22.9788
 20
-26.2804
 30
0.0
 10
-22.9788
 20
-26.2804
 30
0.0
 10
-21.6496
 20
-26.6566
 30
0.0
 10
-21.408
 20
-28.2747
 30
0.0
 10
-22.4451
 20
-29.145
 30
0.0
 10
-22.4451
 20
-29.145
 30
0.0
 10
-23.0651
 20
-29.5648
 30
0.0
 10
-23.5037
 20
-30.0925
 30
0.0
 10
-22.6001
 20
-30.6202
 30
0.0
 10
-22.6001
 20
-30.6202
 30
0.0
 10
-21.6997
 20
-31.0333
 30
0.0
 10
-20.8644
 20
-30.0253
 30
0.0
 10
-20.5434
 20
-29.3377
 30
0.0
 10
-20.5434
 20
-29.3377
 30
0.0
 10
-19.6828
 20
-27.4949
 30
0.0
 10
-19.6243
 20
-23.4015
 30
0.0
 10
-21.3927
 20
-21.9599
 30
0.0
 10
-21.3927
 20
-21.9599
 30
0.0
 10
-22.3911
 20
-21.2826
 30
0.0
 10
-23.6598
 20
-22.2038
 30
0.0
 10
-22.8864
 20
-22.9569
 30
0.0
 10
-22.8864
 20
-22.9569
 30
0.0
 10
-21.807
 20
-23.69
 30
0.0
 10
-21.2463
 20
-25.0253
 30
0.0
 10
-22.5129
 20
-25.9177
 30
0.0
 10
-22.5129
 20
-25.9177
 30
0.0
 10
-24.5707
 20
-27.0428
 30
0.0
 10
-26.4565
 20
-23.8497
 30
0.0
 10
-26.2436
 20
-22.1201
 30
0.0
 10
-26.2436
 20
-22.1201
 30
0.0
 10
-27.9507
 20
-22.3289
 30
0.0
 10
-30.5743
 20
-20.8106
 30
0.0
 10
-30.2436
 20
-18.8656
 30
0.0
 10
-30.2436
 20
-18.8656
 30
0.0
 10
-29.8655
 20
-17.5405
 30
0.0
 10
-28.2422
 20
-17.2991
 30
0.0
 10
-27.3698
 20
-18.3336
 30
0.0
 10
-27.3698
 20
-18.3336
 30
0.0
 10
-26.9696
 20
-18.9212
 30
0.0
 10
-26.5228
 20
-19.3763
 30
0.0
 10
-25.9374
 20
-18.5687
 30
0.0
 10
-25.9374
 20
-18.5687
 30
0.0
 10
-25.9374
 20
-18.5687
 30
0.0
 10
-25.8509
 20
-18.403
 30
0.0
 10
-25.8509
 20
-18.403
 30
0.0
 10
-25.8509
 20
-18.403
 30
0.0
 10
-24.8269
 20
-15.4336
 30
0.0
 10
-34.5736
 20
-14.7731
 30
0.0
 10
-34.8748
 20
-18.0264
 30
0.0
 10
-34.8748
 20
-18.0264
 30
0.0
 10
-34.861
 20
-18.9401
 30
0.0
 10
-33.9549
 20
-19.3259
 30
0.0
 10
-33.4313
 20
-18.5595
 30
0.0
 10
-33.4313
 20
-18.5595
 30
0.0
 10
-32.7346
 20
-17.2647
 30
0.0
 10
-30.8173
 20
-17.46
 30
0.0
 10
-30.4169
 20
-18.8654
 30
0.0
 10
-30.4169
 20
-18.8654
 30
0.0
 10
-30.0843
 20
-20.8145
 30
0.0
 10
-32.7378
 20
-22.3267
 30
0.0
 10
-34.4167
 20
-22.1203
 30
0.0
 10
-34.4167
 20
-22.1203
 30
0.0
 10
-34.1994
 20
-23.8196
 30
0.0
 10
-35.736
 20
-26.4368
 30
0.0
 10
-37.6814
 20
-26.1076
 30
0.0
 10
-37.6814
 20
-26.1076
 30
0.0
 10
-39.0107
 20
-25.7304
 30
0.0
 10
-39.2527
 20
-24.1128
 30
0.0
 10
-38.2151
 20
-23.2428
 30
0.0
 10
-38.2151
 20
-23.2428
 30
0.0
 10
-37.6257
 20
-22.8439
 30
0.0
 10
-37.1688
 20
-22.3984
 30
0.0
 10
-37.9792
 20
-21.815
 30
0.0
 10
-37.9792
 20
-21.815
 30
0.0
 10
-39.0262
 20
-21.2701
 30
0.0
 10
-39.8897
 20
-22.4581
 30
0.0
 10
-40.2331
 20
-23.3216
 30
0.0
  0
SPLINE
  5
BE
330
1F
100
AcDbEntity
  8
layer 1
 62
     7
100
AcDbSpline
210
0.0
220
0.0
230
1.0
 70
    11
 71
     3
 72
    20
 73
    16
 74
     0
 42
0.0000000001
 43
0.0000000001
 12
1.0
 22
0.0
 32
0.0
 13
1.0
 23
0.0
 33
0.0
 40
0.0
 40
0.0
 40
0.0
 40
0.0
 40
0.2
 40
0.2
 40
0.2
 40
0.2
 40
0.4
 40
0.4
 40
0.4
 40
0.4
 40
0.6
 40
0.6
 40
0.6
 40
0.6
 40
1.0
 40
1.0
 40
1.0
 40
1.0
 10
56.5748
 20
-63.1145
 30
0.0
 10
56.5748
 20
-63.1145
 30
0.0
 10
50.6499
 20
-69.0209
 30
0.0
 10
50.6499
 20
-69.0209
 30
0.0
 10
50.6499
 20
-69.0209
 30
0.0
 10
50.6499
 20
-69.0209
 30
0.0
 10
44.7251
 20
-63.1145
 30
0.0
 10
44.7251
 20
-63.1145
 30
0.0
 10
44.7251
 20
-63.1145
 30
0.0
 10
44.7251
 20
-63.1145
 30
0.0
 10
50.6499
 20
-57.2083
 30
0.0
 10
50.6499
 20
-57.2083
 30
0.0
 10
50.6499
 20
-57.2083
 30
0.0
 10
50.6499
 20
-57.2083
 30
0.0
 10
56.5748
 20
-63.1145
 30
0.0
 10
56.5748
 20
-63.1145
 30
0.0
  0
SPLINE
  5
BF
330
1F
100
AcDbEntity
  8
layer 1
 62
     7
100
AcDbSpline
210
0.0
220
0.0
230
1.0
 70
    11
 71
     3
 72
    20
 73
    16
 74
     0
 42
0.0000000001
 43
0.0000000001
 12
1.0
 22
0.0
 32
0.0
 13
1.0
 23
0.0
 33
0.0
 40
0.0
 40
0.0
 40
0.0
 40
0.0
 40
0.2
 40
0.2
 40
0.2
 40
0.2
 40
0.4
 40
0.4
 40
0.4
 40
0.4
 40
0.6
 40
0.6
 40
0.6
 40
0.6
 40
1.0
 40
1.0
 40
1.0
 40
1.0
 10
2.5885
 20
-63.1145
 30
0.0
 10
2.5885
 20
-63.1145
 30
0.0
 10
-3.3362
 20
-69.0209
 30
0.0
 10
-3.3362
 20
-69.0209
 30
0.0
 10
-3.3362
 20
-69.0209
 30
0.0
 10
-3.3362
 20
-69.0209
 30
0.0
 10
-9.261
 20
-63.1145
 30
0.0
 10
-9.261
 20
-63.1145
 30
0.0
 10
-9.261
 20
-63.1145
 30
0.0
 10
-9.261
 20
-63.1145
 30
0.0
 10
-3.3362
 20
-57.2083
 30
0.0
 10
-3.3362
 20
-57.2083
 30
0.0
 10
-3.3362
 20
-57.2083
 30
0.0
 10
-3.3362
 20
-57.2083
 30
0.0
 10
2.5885
 20
-63.1145
 30
0.0
 10
2.5885
 20
-63.1145
 30
0.0
  0
ENDSEC
  0
SECTION
  2
OBJECTS
  0
DICTIONARY
  5
C
330
0
100
AcDbDictionary
281
     1
  3
ACAD_GROUP
350
D
  3
ACAD_LAYOUT
350
1A
  3
ACAD_MATERIAL
350
3B
  3
ACAD_MLEADERSTYLE
350
E2
  3
ACAD_MLINESTYLE
350
17
  3
ACAD_PLOTSETTINGS
350
19
  3
ACAD_PLOTSTYLENAME
350
E
  3
ACAD_TABLESTYLE
350
E1
  3
ACAD_VISUALSTYLE
350
2A
  0
DICTIONARY
  5
D
102
{ACAD_REACTORS
330
C
102
}
330
C
100
AcDbDictionary
281
     1
  0
DICTIONARY
  5
1A
102
{ACAD_REACTORS
330
C
102
}
330
C
100
AcDbDictionary
281
     1
  3
Layout1
350
1E
  3
Layout2
350
26
  3
Model
350
22
  0
DICTIONARY
  5
3B
102
{ACAD_REACTORS
330
C
102
}
330
C
100
AcDbDictionary
281
     1
  3
ByBlock
350
3D
  3
ByLayer
350
3C
  3
Global
350
3E
  0
DICTIONARY
  5
E2
102
{ACAD_REACTORS
330
C
102
}
330
C
100
AcDbDictionary
281
     1
  0
DICTIONARY
  5
17
102
{ACAD_REACTORS
330
C
102
}
330
C
100
AcDbDictionary
281
     1
  3
Standard
350
18
  0
DICTIONARY
  5
19
102
{ACAD_REACTORS
330
C
102
}
330
C
100
AcDbDictionary
281
     1
  0
ACDBDICTIONARYWDFLT
  5
E
102
{ACAD_REACTORS
330
C
102
}
330
C
100
AcDbDictionary
281
     1
  3
Normal
350
F
100
AcDbDictionaryWithDefault
340
F
  0
DICTIONARY
  5
E1
102
{ACAD_REACTORS
330
C
102
}
330
C
100
AcDbDictionary
281
     1
  0
DICTIONARY
  5
2A
102
{ACAD_REACTORS
330
C
102
}
330
C
100
AcDbDictionary
281
     1
  3
2dWireframe
350
2F
  3
3D Hidden
350
31
  3
3dWireframe
350
30
  3
Basic
350
32
  3
Brighten
350
36
  3
ColorChange
350
3A
  3
Conceptual
350
34
  3
Dim
350
35
  3
Facepattern
350
39
  3
Flat
350
2B
  3
FlatWithEdges
350
2C
  3
Gouraud
350
2D
  3
GouraudWithEdges
350
2E
  3
Linepattern
350
38
  3
Realistic
350
33
  3
Thicken
350
37
  0
LAYOUT
  5
1E
102
{ACAD_REACTORS
330
1A
102
}
330
1A
100
AcDbPlotSettings
  1

  2
none_device
  4

  6

 40
0.0
 41
0.0
 42
0.0
 43
0.0
 44
0.0
 45
0.0
 46
0.0
 47
0.0
 48
0.0
 49
0.0
140
0.0
141
0.0
142
1.0
143
1.0
 70
   688
 72
     0
 73
     0
 74
     5
  7

 75
    16
 76
     0
 77
     2
 78
   300
147
1.0
148
0.0
149
0.0
100
AcDbLayout
  1
Layout1
 70
     1
 71
     1
 10
0.0
 20
0.0
 11
12.0
 21
9.0
 12
0.0
 22
0.0
 32
0.0
 14
1.000000000000000E+20
 24
1.000000000000000E+20
 34
1.000000000000000E+20
 15
-1.000000000000000E+20
 25
-1.000000000000000E+20
 35
-1.000000000000000E+20
146
0.0
 13
0.0
 23
0.0
 33
0.0
 16
1.0
 26
0.0
 36
0.0
 17
0.0
 27
1.0
 37
0.0
 76
     0
330
1B
  0
LAYOUT
  5
26
102
{ACAD_REACTORS
330
1A
102
}
330
1A
100
AcDbPlotSettings
  1

  2
none_device
  4

  6

 40
0.0
 41
0.0
 42
0.0
 43
0.0
 44
0.0
 45
0.0
 46
0.0
 47
0.0
 48
0.0
 49
0.0
140
0.0
141
0.0
142
1.0
143
1.0
 70
   688
 72
     0
 73
     0
 74
     5
  7

 75
    16
 76
     0
 77
     2
 78
   300
147
1.0
148
0.0
149
0.0
100
AcDbLayout
  1
Layout2
 70
     1
 71
     2
 10
0.0
 20
0.0
 11
0.0
 21
0.0
 12
0.0
 22
0.0
 32
0.0
 14
0.0
 24
0.0
 34
0.0
 15
0.0
 25
0.0
 35
0.0
146
0.0
 13
0.0
 23
0.0
 33
0.0
 16
1.0
 26
0.0
 36
0.0
 17
0.0
 27
1.0
 37
0.0
 76
     0
330
23
  0
LAYOUT
  5
22
102
{ACAD_REACTORS
330
1A
102
}
330
1A
100
AcDbPlotSettings
  1

  2
none_device
  4

  6

 40
0.0
 41
0.0
 42
0.0
 43
0.0
 44
0.0
 45
0.0
 46
0.0
 47
0.0
 48
0.0
 49
0.0
140
0.0
141
0.0
142
1.0
143
1.0
 70
  1712
 72
     0
 73
     0
 74
     0
  7

 75
     0
 76
     0
 77
     2
 78
   300
147
1.0
148
0.0
149
0.0
100
AcDbLayout
  1
Model
 70
     1
 71
     0
 10
0.0
 20
0.0
 11
12.0
 21
9.0
 12
0.0
 22
0.0
 32
0.0
 14
-67.9444
 24
-110.6103
 34
0.0
 15
115.1946
 25
127.4705
 35
0.0
146
0.0
 13
0.0
 23
0.0
 33
0.0
 16
1.0
 26
0.0
 36
0.0
 17
0.0
 27
1.0
 37
0.0
 76
     0
330
1F
331
29
  0
MATERIAL
  5
3D
102
{ACAD_REACTORS
330
3B
102
}
330
3B
100
AcDbMaterial
  1
ByBlock
 72
     1
 94
      127
  0
MATERIAL
  5
3C
102
{ACAD_REACTORS
330
3B
102
}
330
3B
100
AcDbMaterial
  1
ByLayer
 72
     1
 94
      127
  0
MATERIAL
  5
3E
102
{ACAD_REACTORS
330
3B
102
}
330
3B
100
AcDbMaterial
  1
Global
 72
     1
 94
      127
  0
MLINESTYLE
  5
18
102
{ACAD_REACTORS
330
17
102
}
330
17
100
AcDbMlineStyle
  2
Standard
 70
     0
  3

 62
   256
 51
90.0
 52
90.0
 71
     2
 49
0.5
 62
   256
  6
BYLAYER
 49
-0.5
 62
   256
  6
BYLAYER
  0
ACDBPLACEHOLDER
  5
F
102
{ACAD_REACTORS
330
E
102
}
330
E
  0
VISUALSTYLE
  5
2F
102
{ACAD_REACTORS
330
2A
102
}
102
{ACAD_XDICTIONARY
360
C9
102
}
330
2A
100
AcDbVisualStyle
  2
2dWireframe
 70
     4
 71
     0
 72
     2
 73
     0
 90
        0
 40
-0.6
 41
-30.0
 62
     5
 63
     7
421
 16777215
 74
     1
 91
        4
 64
     7
 65
   257
 75
     1
175
     1
 42
1.0
 92
        0
 66
   257
 43
1.0
 76
     1
 77
     6
 78
     2
 67
     7
 79
     5
170
     0
171
     0
290
     0
174
     0
 93
        1
 44
0.0
173
     0
291
     0
 45
0.0
  0
VISUALSTYLE
  5
31
102
{ACAD_REACTORS
330
2A
102
}
102
{ACAD_XDICTIONARY
360
CD
102
}
330
2A
100
AcDbVisualStyle
  2
3D Hidden
 70
     6
 71
     1
 72
     2
 73
     2
 90
        0
 40
-0.6
 41
-30.0
 62
     5
 63
     7
421
 16777215
 74
     2
 91
        2
 64
     7
 65
   257
 75
     2
175
     1
 42
40.0
 92
        0
 66
   257
 43
1.0
 76
     1
 77
     6
 78
     2
 67
     7
 79
     3
170
     0
171
     0
290
     0
174
     0
 93
        1
 44
0.0
173
     0
291
     0
 45
0.0
  0
VISUALSTYLE
  5
30
102
{ACAD_REACTORS
330
2A
102
}
102
{ACAD_XDICTIONARY
360
CB
102
}
330
2A
100
AcDbVisualStyle
  2
3dWireframe
 70
     5
 71
     0
 72
     2
 73
     0
 90
        0
 40
-0.6
 41
-30.0
 62
     5
 63
     7
421
 16777215
 74
     1
 91
        4
 64
     7
 65
   257
 75
     1
175
     1
 42
1.0
 92
        0
 66
   257
 43
1.0
 76
     1
 77
     6
 78
     2
 67
     7
 79
     5
170
     0
171
     0
290
     0
174
     0
 93
        1
 44
0.0
173
     0
291
     0
 45
0.0
  0
VISUALSTYLE
  5
32
102
{ACAD_REACTORS
330
2A
102
}
102
{ACAD_XDICTIONARY
360
CF
102
}
330
2A
100
AcDbVisualStyle
  2
Basic
 70
     7
 71
     1
 72
     0
 73
     1
 90
        0
 40
-0.6
 41
-30.0
 62
     5
 63
     7
421
 16777215
 74
     0
 91
        4
 64
     7
 65
   257
 75
     1
175
     1
 42
1.0
 92
        8
 66
     7
 43
1.0
 76
     1
 77
     6
 78
     2
 67
     7
 79
     5
170
     0
171
     0
290
     0
174
     0
 93
        1
 44
0.0
173
     0
291
     1
 45
0.0
  0
VISUALSTYLE
  5
36
102
{ACAD_REACTORS
330
2A
102
}
102
{ACAD_XDICTIONARY
360
D7
102
}
330
2A
100
AcDbVisualStyle
  2
Brighten
 70
    12
 71
     2
 72
     2
 73
     0
 90
        0
 40
-0.6
 41
-30.0
 62
     5
 63
     7
421
 16777215
 74
     1
 91
        4
 64
     7
 65
   257
 75
     1
175
     1
 42
1.0
 92
        8
 66
     7
 43
1.0
 76
     1
 77
     6
 78
     2
 67
     7
 79
     5
170
     0
171
     0
290
     0
174
     0
 93
        1
 44
50.0
173
     0
291
     1
 45
0.0
  0
VISUALSTYLE
  5
3A
102
{ACAD_REACTORS
330
2A
102
}
102
{ACAD_XDICTIONARY
360
DF
102
}
330
2A
100
AcDbVisualStyle
  2
ColorChange
 70
    16
 71
     2
 72
     2
 73
     3
 90
        0
 40
-0.6
 41
-30.0
 62
     5
 63
     8
421
  8421504
 74
     1
 91
        4
 64
     7
 65
   257
 75
     1
175
     1
 42
1.0
 92
        8
 66
     8
424
  8421504
 43
1.0
 76
     1
 77
     6
 78
     2
 67
     7
 79
     5
170
     0
171
     0
290
     0
174
     0
 93
        1
 44
0.0
173
     0
291
     1
 45
0.0
  0
VISUALSTYLE
  5
34
102
{ACAD_REACTORS
330
2A
102
}
102
{ACAD_XDICTIONARY
360
D3
102
}
330
2A
100
AcDbVisualStyle
  2
Conceptual
 70
     9
 71
     3
 72
     2
 73
     0
 90
        0
 40
-0.6
 41
-30.0
 62
     5
 63
     7
421
 16777215
 74
     2
 91
        2
 64
     7
 65
   257
 75
     1
175
     1
 42
40.0
 92
        8
 66
     7
 43
1.0
 76
     1
 77
     6
 78
     2
 67
     7
 79
     3
170
     0
171
     0
290
     0
174
     0
 93
        1
 44
0.0
173
     0
291
     0
 45
0.0
  0
VISUALSTYLE
  5
35
102
{ACAD_REACTORS
330
2A
102
}
102
{ACAD_XDICTIONARY
360
D5
102
}
330
2A
100
AcDbVisualStyle
  2
Dim
 70
    11
 71
     2
 72
     2
 73
     0
 90
        0
 40
-0.6
 41
-30.0
 62
     5
 63
     7
421
 16777215
 74
     1
 91
        4
 64
     7
 65
   257
 75
     1
175
     1
 42
1.0
 92
        8
 66
     7
 43
1.0
 76
     1
 77
     6
 78
     2
 67
     7
 79
     5
170
     0
171
     0
290
     0
174
     0
 93
        1
 44
-50.0
173
     0
291
     1
 45
0.0
  0
VISUALSTYLE
  5
39
102
{ACAD_REACTORS
330
2A
102
}
102
{ACAD_XDICTIONARY
360
DD
102
}
330
2A
100
AcDbVisualStyle
  2
Facepattern
 70
    15
 71
     2
 72
     2
 73
     0
 90
        0
 40
-0.6
 41
-30.0
 62
     5
 63
     7
421
 16777215
 74
     1
 91
        4
 64
     7
 65
   257
 75
     1
175
     1
 42
1.0
 92
        8
 66
     7
 43
1.0
 76
     1
 77
     6
 78
     2
 67
     7
 79
     5
170
     0
171
     0
290
     0
174
     0
 93
        1
 44
0.0
173
     0
291
     1
 45
0.0
  0
VISUALSTYLE
  5
2B
102
{ACAD_REACTORS
330
2A
102
}
102
{ACAD_XDICTIONARY
360
C1
102
}
330
2A
100
AcDbVisualStyle
  2
Flat
 70
     0
 71
     2
 72
     1
 73
     1
 90
        2
 40
-0.6
 41
30.0
 62
     5
 63
     7
421
 16777215
 74
     0
 91
        4
 64
     7
 65
   257
 75
     1
175
     1
 42
1.0
 92
        8
 66
     7
 43
1.0
 76
     1
 77
     6
 78
     2
 67
     7
 79
     5
170
     0
171
     0
290
     0
174
     0
 93
       13
 44
0.0
173
     0
291
     1
 45
0.0
  0
VISUALSTYLE
  5
2C
102
{ACAD_REACTORS
330
2A
102
}
102
{ACAD_XDICTIONARY
360
C3
102
}
330
2A
100
AcDbVisualStyle
  2
FlatWithEdges
 70
     1
 71
     2
 72
     1
 73
     1
 90
        2
 40
-0.6
 41
30.0
 62
     5
 63
     7
421
 16777215
 74
     1
 91
        4
 64
     7
 65
   257
 75
     1
175
     1
 42
1.0
 92
        0
 66
   257
 43
1.0
 76
     1
 77
     6
 78
     2
 67
     7
 79
     5
170
     0
171
     0
290
     0
174
     0
 93
       13
 44
0.0
173
     0
291
     1
 45
0.0
  0
VISUALSTYLE
  5
2D
102
{ACAD_REACTORS
330
2A
102
}
102
{ACAD_XDICTIONARY
360
C5
102
}
330
2A
100
AcDbVisualStyle
  2
Gouraud
 70
     2
 71
     2
 72
     2
 73
     1
 90
        2
 40
-0.6
 41
30.0
 62
     5
 63
     7
421
 16777215
 74
     0
 91
        4
 64
     7
 65
   257
 75
     1
175
     1
 42
1.0
 92
        0
 66
     7
 43
1.0
 76
     1
 77
     6
 78
     2
 67
     7
 79
     5
170
     0
171
     0
290
     0
174
     0
 93
       13
 44
0.0
173
     0
291
     1
 45
0.0
  0
VISUALSTYLE
  5
2E
102
{ACAD_REACTORS
330
2A
102
}
102
{ACAD_XDICTIONARY
360
C7
102
}
330
2A
100
AcDbVisualStyle
  2
GouraudWithEdges
 70
     3
 71
     2
 72
     2
 73
     1
 90
        2
 40
-0.6
 41
30.0
 62
     5
 63
     7
421
 16777215
 74
     1
 91
        4
 64
     7
 65
   257
 75
     1
175
     1
 42
1.0
 92
        0
 66
   257
 43
1.0
 76
     1
 77
     6
 78
     2
 67
     7
 79
     5
170
     0
171
     0
290
     0
174
     0
 93
       13
 44
0.0
173
     0
291
     1
 45
0.0
  0
VISUALSTYLE
  5
38
102
{ACAD_REACTORS
330
2A
102
}
102
{ACAD_XDICTIONARY
360
DB
102
}
330
2A
100
AcDbVisualStyle
  2
Linepattern
 70
    14
 71
     2
 72
     2
 73
     0
 90
        0
 40
-0.6
 41
-30.0
 62
     5
 63
     7
421
 16777215
 74
     1
 91
        4
 64
     7
 65
   257
 75
     7
175
     7
 42
1.0
 92
        8
 66
     7
 43
1.0
 76
     1
 77
     6
 78
     2
 67
     7
 79
     5
170
     0
171
     0
290
     0
174
     0
 93
        1
 44
0.0
173
     0
291
     1
 45
0.0
  0
VISUALSTYLE
  5
33
102
{ACAD_REACTORS
330
2A
102
}
102
{ACAD_XDICTIONARY
360
D1
102
}
330
2A
100
AcDbVisualStyle
  2
Realistic
 70
     8
 71
     2
 72
     2
 73
     0
 90
        0
 40
-0.6
 41
-30.0
 62
     5
 63
     7
421
 16777215
 74
     1
 91
        0
 64
     7
 65
   257
 75
     1
175
     1
 42
1.0
 92
        8
 66
     8
424
  7895160
 43
1.0
 76
     1
 77
     6
 78
     2
 67
     7
 79
     5
170
     0
171
     0
290
     0
174
     0
 93
       13
 44
0.0
173
     0
291
     0
 45
0.0
  0
VISUALSTYLE
  5
37
102
{ACAD_REACTORS
330
2A
102
}
102
{ACAD_XDICTIONARY
360
D9
102
}
330
2A
100
AcDbVisualStyle
  2
Thicken
 70
    13
 71
     2
 72
     2
 73
     0
 90
        0
 40
-0.6
 41
-30.0
 62
     5
 63
     7
421
 16777215
 74
     1
 91
        4
 64
     7
 65
   257
 75
     1
175
     1
 42
1.0
 92
       12
 66
     7
 43
1.0
 76
     1
 77
     6
 78
     2
 67
     7
 79
     5
170
     0
171
     0
290
     0
174
     0
 93
        1
 44
0.0
173
     0
291
     1
 45
0.0
  0
DICTIONARY
  5
C9
330
2F
100
AcDbDictionary
280
     1
281
     1
  3
ACAD_XREC_ROUNDTRIP
360
CA
  0
DICTIONARY
  5
CD
330
31
100
AcDbDictionary
280
     1
281
     1
  3
ACAD_XREC_ROUNDTRIP
360
CE
  0
DICTIONARY
  5
CB
330
30
100
AcDbDictionary
280
     1
281
     1
  3
ACAD_XREC_ROUNDTRIP
360
CC
  0
DICTIONARY
  5
CF
330
32
100
AcDbDictionary
280
     1
281
     1
  3
ACAD_XREC_ROUNDTRIP
360
D0
  0
DICTIONARY
  5
D7
330
36
100
AcDbDictionary
280
     1
281
     1
  3
ACAD_XREC_ROUNDTRIP
360
D8
  0
DICTIONARY
  5
DF
330
3A
100
AcDbDictionary
280
     1
281
     1
  3
ACAD_XREC_ROUNDTRIP
360
E0
  0
DICTIONARY
  5
D3
330
34
100
AcDbDictionary
280
     1
281
     1
  3
ACAD_XREC_ROUNDTRIP
360
D4
  0
DICTIONARY
  5
D5
330
35
100
AcDbDictionary
280
     1
281
     1
  3
ACAD_XREC_ROUNDTRIP
360
D6
  0
DICTIONARY
  5
DD
330
39
100
AcDbDictionary
280
     1
281
     1
  3
ACAD_XREC_ROUNDTRIP
360
DE
  0
DICTIONARY
  5
C1
330
2B
100
AcDbDictionary
280
     1
281
     1
  3
ACAD_XREC_ROUNDTRIP
360
C2
  0
DICTIONARY
  5
C3
330
2C
100
AcDbDictionary
280
     1
281
     1
  3
ACAD_XREC_ROUNDTRIP
360
C4
  0
DICTIONARY
  5
C5
330
2D
100
AcDbDictionary
280
     1
281
     1
  3
ACAD_XREC_ROUNDTRIP
360
C6
  0
DICTIONARY
  5
C7
330
2E
100
AcDbDictionary
280
     1
281
     1
  3
ACAD_XREC_ROUNDTRIP
360
C8
  0
DICTIONARY
  5
DB
330
38
100
AcDbDictionary
280
     1
281
     1
  3
ACAD_XREC_ROUNDTRIP
360
DC
  0
DICTIONARY
  5
D1
330
33
100
AcDbDictionary
280
     1
281
     1
  3
ACAD_XREC_ROUNDTRIP
360
D2
  0
DICTIONARY
  5
D9
330
37
100
AcDbDictionary
280
     1
281
     1
  3
ACAD_XREC_ROUNDTRIP
360
DA
  0
XRECORD
  5
CA
102
{ACAD_REACTORS
330
C9
102
}
330
C9
100
AcDbXrecord
280
     1
102
RTVSPropertyOp0
 70
     1
102
RTVSPropertyOp1
 70
     1
102
RTVSPropertyOp2
 70
     1
102
RTVSPropertyOp3
 70
     1
102
RTVSPropertyOp4
 70
     1
102
RTVSPropertyOp5
 70
     1
102
RTVSPropertyOp6
 70
     1
102
RTVSPropertyOp7
 70
     1
102
RTVSPropertyOp8
 70
     1
102
RTVSPropertyOp9
 70
     1
102
RTVSPropertyOp10
 70
     1
102
RTVSPropertyOp11
 70
     1
102
RTVSPropertyOp12
 70
     1
102
RTVSPropertyOp13
 70
     1
102
RTVSPropertyOp14
 70
     1
102
RTVSPropertyOp15
 70
     1
102
RTVSPropertyOp16
 70
     1
102
RTVSPropertyOp17
 70
     1
102
RTVSPropertyOp18
 70
     1
102
RTVSPropertyOp19
 70
     1
102
RTVSPropertyOp20
 70
     1
102
RTVSPropertyOp21
 70
     1
102
RTVSPropertyOp22
 70
     1
102
RTVSPropertyOp23
 70
     1
102
RTVSPropertyOp24
 70
     1
102
RTVSPropertyOp25
 70
     1
102
RTVSPropertyOp26
 70
     1
102
RTVSPropertyOp27
 70
     1
102
RTVSPropertyOp28
 70
     1
102
RTVSPropertyOp29
 70
     1
102
RTVSPropertyOp30
 70
     1
102
RTVSPropertyOp31
 70
     1
102
RTVSPropertyOp32
 70
     1
  0
XRECORD
  5
CE
102
{ACAD_REACTORS
330
CD
102
}
330
CD
100
AcDbXrecord
280
     1
102
RTVSPropertyOp0
 70
     1
102
RTVSPropertyOp1
 70
     1
102
RTVSPropertyOp2
 70
     1
102
RTVSPropertyOp3
 70
     1
102
RTVSPropertyOp4
 70
     1
102
RTVSPropertyOp5
 70
     1
102
RTVSPropertyOp6
 70
     1
102
RTVSPropertyOp7
 70
     1
102
RTVSPropertyOp8
 70
     1
102
RTVSPropertyOp9
 70
     1
102
RTVSPropertyOp10
 70
     1
102
RTVSPropertyOp11
 70
     1
102
RTVSPropertyOp12
 70
     1
102
RTVSPropertyOp13
 70
     1
102
RTVSPropertyOp14
 70
     1
102
RTVSPropertyOp15
 70
     1
102
RTVSPropertyOp16
 70
     1
102
RTVSPropertyOp17
 70
     1
102
RTVSPropertyOp18
 70
     1
102
RTVSPropertyOp19
 70
     1
102
RTVSPropertyOp20
 70
     1
102
RTVSPropertyOp21
 70
     1
102
RTVSPropertyOp22
 70
     1
102
RTVSPropertyOp23
 70
     1
102
RTVSPropertyOp24
 70
     1
102
RTVSPropertyOp25
 70
     1
102
RTVSPropertyOp26
 70
     1
102
RTVSPropertyOp27
 70
     1
102
RTVSPropertyOp28
 70
     1
102
RTVSPropertyOp29
 70
     1
102
RTVSPropertyOp30
 70
     1
102
RTVSPropertyOp31
 70
     1
102
RTVSPropertyOp32
 70
     1
  0
XRECORD
  5
CC
102
{ACAD_REACTORS
330
CB
102
}
330
CB
100
AcDbXrecord
280
     1
102
RTVSPropertyOp0
 70
     1
102
RTVSPropertyOp1
 70
     1
102
RTVSPropertyOp2
 70
     1
102
RTVSPropertyOp3
 70
     1
102
RTVSPropertyOp4
 70
     1
102
RTVSPropertyOp5
 70
     1
102
RTVSPropertyOp6
 70
     1
102
RTVSPropertyOp7
 70
     1
102
RTVSPropertyOp8
 70
     1
102
RTVSPropertyOp9
 70
     1
102
RTVSPropertyOp10
 70
     1
102
RTVSPropertyOp11
 70
     1
102
RTVSPropertyOp12
 70
     1
102
RTVSPropertyOp13
 70
     1
102
RTVSPropertyOp14
 70
     1
102
RTVSPropertyOp15
 70
     1
102
RTVSPropertyOp16
 70
     1
102
RTVSPropertyOp17
 70
     1
102
RTVSPropertyOp18
 70
     1
102
RTVSPropertyOp19
 70
     1
102
RTVSPropertyOp20
 70
     1
102
RTVSPropertyOp21
 70
     1
102
RTVSPropertyOp22
 70
     1
102
RTVSPropertyOp23
 70
     1
102
RTVSPropertyOp24
 70
     1
102
RTVSPropertyOp25
 70
     1
102
RTVSPropertyOp26
 70
     1
102
RTVSPropertyOp27
 70
     1
102
RTVSPropertyOp28
 70
     1
102
RTVSPropertyOp29
 70
     1
102
RTVSPropertyOp30
 70
     1
102
RTVSPropertyOp31
 70
     1
102
RTVSPropertyOp32
 70
     1
  0
XRECORD
  5
D0
102
{ACAD_REACTORS
330
CF
102
}
330
CF
100
AcDbXrecord
280
     1
102
RTVSPropertyOp0
 70
     1
102
RTVSPropertyOp1
 70
     1
102
RTVSPropertyOp2
 70
     1
102
RTVSPropertyOp3
 70
     1
102
RTVSPropertyOp4
 70
     1
102
RTVSPropertyOp5
 70
     1
102
RTVSPropertyOp6
 70
     1
102
RTVSPropertyOp7
 70
     1
102
RTVSPropertyOp8
 70
     1
102
RTVSPropertyOp9
 70
     1
102
RTVSPropertyOp10
 70
     1
102
RTVSPropertyOp11
 70
     1
102
RTVSPropertyOp12
 70
     1
102
RTVSPropertyOp13
 70
     1
102
RTVSPropertyOp14
 70
     1
102
RTVSPropertyOp15
 70
     1
102
RTVSPropertyOp16
 70
     1
102
RTVSPropertyOp17
 70
     1
102
RTVSPropertyOp18
 70
     1
102
RTVSPropertyOp19
 70
     1
102
RTVSPropertyOp20
 70
     1
102
RTVSPropertyOp21
 70
     1
102
RTVSPropertyOp22
 70
     1
102
RTVSPropertyOp23
 70
     1
102
RTVSPropertyOp24
 70
     1
102
RTVSPropertyOp25
 70
     1
102
RTVSPropertyOp26
 70
     1
102
RTVSPropertyOp27
 70
     1
102
RTVSPropertyOp28
 70
     1
102
RTVSPropertyOp29
 70
     1
102
RTVSPropertyOp30
 70
     1
102
RTVSPropertyOp31
 70
     1
102
RTVSPropertyOp32
 70
     1
  0
XRECORD
  5
D8
102
{ACAD_REACTORS
330
D7
102
}
330
D7
100
AcDbXrecord
280
     1
102
RTVSPropertyOp0
 70
     1
102
RTVSPropertyOp1
 70
     1
102
RTVSPropertyOp2
 70
     1
102
RTVSPropertyOp3
 70
     1
102
RTVSPropertyOp4
 70
     1
102
RTVSPropertyOp5
 70
     1
102
RTVSPropertyOp6
 70
     1
102
RTVSPropertyOp7
 70
     1
102
RTVSPropertyOp8
 70
     1
102
RTVSPropertyOp9
 70
     1
102
RTVSPropertyOp10
 70
     1
102
RTVSPropertyOp11
 70
     1
102
RTVSPropertyOp12
 70
     1
102
RTVSPropertyOp13
 70
     1
102
RTVSPropertyOp14
 70
     1
102
RTVSPropertyOp15
 70
     1
102
RTVSPropertyOp16
 70
     1
102
RTVSPropertyOp17
 70
     1
102
RTVSPropertyOp18
 70
     1
102
RTVSPropertyOp19
 70
     1
102
RTVSPropertyOp20
 70
     1
102
RTVSPropertyOp21
 70
     1
102
RTVSPropertyOp22
 70
     1
102
RTVSPropertyOp23
 70
     1
102
RTVSPropertyOp24
 70
     1
102
RTVSPropertyOp25
 70
     1
102
RTVSPropertyOp26
 70
     1
102
RTVSPropertyOp27
 70
     1
102
RTVSPropertyOp28
 70
     1
102
RTVSPropertyOp29
 70
     1
102
RTVSPropertyOp30
 70
     1
102
RTVSPropertyOp31
 70
     1
102
RTVSPropertyOp32
 70
     1
  0
XRECORD
  5
E0
102
{ACAD_REACTORS
330
DF
102
}
330
DF
100
AcDbXrecord
280
     1
102
RTVSPropertyOp0
 70
     1
102
RTVSPropertyOp1
 70
     1
102
RTVSPropertyOp2
 70
     1
102
RTVSPropertyOp3
 70
     1
102
RTVSPropertyOp4
 70
     1
102
RTVSPropertyOp5
 70
     1
102
RTVSPropertyOp6
 70
     1
102
RTVSPropertyOp7
 70
     1
102
RTVSPropertyOp8
 70
     1
102
RTVSPropertyOp9
 70
     1
102
RTVSPropertyOp10
 70
     1
102
RTVSPropertyOp11
 70
     1
102
RTVSPropertyOp12
 70
     1
102
RTVSPropertyOp13
 70
     1
102
RTVSPropertyOp14
 70
     1
102
RTVSPropertyOp15
 70
     1
102
RTVSPropertyOp16
 70
     1
102
RTVSPropertyOp17
 70
     1
102
RTVSPropertyOp18
 70
     1
102
RTVSPropertyOp19
 70
     1
102
RTVSPropertyOp20
 70
     1
102
RTVSPropertyOp21
 70
     1
102
RTVSPropertyOp22
 70
     1
102
RTVSPropertyOp23
 70
     1
102
RTVSPropertyOp24
 70
     1
102
RTVSPropertyOp25
 70
     1
102
RTVSPropertyOp26
 70
     1
102
RTVSPropertyOp27
 70
     1
102
RTVSPropertyOp28
 70
     1
102
RTVSPropertyOp29
 70
     1
102
RTVSPropertyOp30
 70
     1
102
RTVSPropertyOp31
 70
     1
102
RTVSPropertyOp32
 70
     1
  0
XRECORD
  5
D4
102
{ACAD_REACTORS
330
D3
102
}
330
D3
100
AcDbXrecord
280
     1
102
RTVSPropertyOp0
 70
     1
102
RTVSPropertyOp1
 70
     1
102
RTVSPropertyOp2
 70
     1
102
RTVSPropertyOp3
 70
     1
102
RTVSPropertyOp4
 70
     1
102
RTVSPropertyOp5
 70
     1
102
RTVSPropertyOp6
 70
     1
102
RTVSPropertyOp7
 70
     1
102
RTVSPropertyOp8
 70
     1
102
RTVSPropertyOp9
 70
     1
102
RTVSPropertyOp10
 70
     1
102
RTVSPropertyOp11
 70
     1
102
RTVSPropertyOp12
 70
     1
102
RTVSPropertyOp13
 70
     1
102
RTVSPropertyOp14
 70
     1
102
RTVSPropertyOp15
 70
     1
102
RTVSPropertyOp16
 70
     1
102
RTVSPropertyOp17
 70
     1
102
RTVSPropertyOp18
 70
     1
102
RTVSPropertyOp19
 70
     1
102
RTVSPropertyOp20
 70
     1
102
RTVSPropertyOp21
 70
     1
102
RTVSPropertyOp22
 70
     1
102
RTVSPropertyOp23
 70
     1
102
RTVSPropertyOp24
 70
     1
102
RTVSPropertyOp25
 70
     1
102
RTVSPropertyOp26
 70
     1
102
RTVSPropertyOp27
 70
     1
102
RTVSPropertyOp28
 70
     1
102
RTVSPropertyOp29
 70
     1
102
RTVSPropertyOp30
 70
     1
102
RTVSPropertyOp31
 70
     1
102
RTVSPropertyOp32
 70
     1
  0
XRECORD
  5
D6
102
{ACAD_REACTORS
330
D5
102
}
330
D5
100
AcDbXrecord
280
     1
102
RTVSPropertyOp0
 70
     1
102
RTVSPropertyOp1
 70
     1
102
RTVSPropertyOp2
 70
     1
102
RTVSPropertyOp3
 70
     1
102
RTVSPropertyOp4
 70
     1
102
RTVSPropertyOp5
 70
     1
102
RTVSPropertyOp6
 70
     1
102
RTVSPropertyOp7
 70
     1
102
RTVSPropertyOp8
 70
     1
102
RTVSPropertyOp9
 70
     1
102
RTVSPropertyOp10
 70
     1
102
RTVSPropertyOp11
 70
     1
102
RTVSPropertyOp12
 70
     1
102
RTVSPropertyOp13
 70
     1
102
RTVSPropertyOp14
 70
     1
102
RTVSPropertyOp15
 70
     1
102
RTVSPropertyOp16
 70
     1
102
RTVSPropertyOp17
 70
     1
102
RTVSPropertyOp18
 70
     1
102
RTVSPropertyOp19
 70
     1
102
RTVSPropertyOp20
 70
     1
102
RTVSPropertyOp21
 70
     1
102
RTVSPropertyOp22
 70
     1
102
RTVSPropertyOp23
 70
     1
102
RTVSPropertyOp24
 70
     1
102
RTVSPropertyOp25
 70
     1
102
RTVSPropertyOp26
 70
     1
102
RTVSPropertyOp27
 70
     1
102
RTVSPropertyOp28
 70
     1
102
RTVSPropertyOp29
 70
     1
102
RTVSPropertyOp30
 70
     1
102
RTVSPropertyOp31
 70
     1
102
RTVSPropertyOp32
 70
     1
  0
XRECORD
  5
DE
102
{ACAD_REACTORS
330
DD
102
}
330
DD
100
AcDbXrecord
280
     1
102
RTVSPropertyOp0
 70
     1
102
RTVSPropertyOp1
 70
     1
102
RTVSPropertyOp2
 70
     1
102
RTVSPropertyOp3
 70
     1
102
RTVSPropertyOp4
 70
     1
102
RTVSPropertyOp5
 70
     1
102
RTVSPropertyOp6
 70
     1
102
RTVSPropertyOp7
 70
     1
102
RTVSPropertyOp8
 70
     1
102
RTVSPropertyOp9
 70
     1
102
RTVSPropertyOp10
 70
     1
102
RTVSPropertyOp11
 70
     1
102
RTVSPropertyOp12
 70
     1
102
RTVSPropertyOp13
 70
     1
102
RTVSPropertyOp14
 70
     1
102
RTVSPropertyOp15
 70
     1
102
RTVSPropertyOp16
 70
     1
102
RTVSPropertyOp17
 70
     1
102
RTVSPropertyOp18
 70
     1
102
RTVSPropertyOp19
 70
     1
102
RTVSPropertyOp20
 70
     1
102
RTVSPropertyOp21
 70
     1
102
RTVSPropertyOp22
 70
     1
102
RTVSPropertyOp23
 70
     1
102
RTVSPropertyOp24
 70
     1
102
RTVSPropertyOp25
 70
     1
102
RTVSPropertyOp26
 70
     1
102
RTVSPropertyOp27
 70
     1
102
RTVSPropertyOp28
 70
     1
102
RTVSPropertyOp29
 70
     1
102
RTVSPropertyOp30
 70
     1
102
RTVSPropertyOp31
 70
     1
102
RTVSPropertyOp32
 70
     1
  0
XRECORD
  5
C2
102
{ACAD_REACTORS
330
C1
102
}
330
C1
100
AcDbXrecord
280
     1
102
RTVSPropertyOp0
 70
     1
102
RTVSPropertyOp1
 70
     1
102
RTVSPropertyOp2
 70
     1
102
RTVSPropertyOp3
 70
     1
102
RTVSPropertyOp4
 70
     1
102
RTVSPropertyOp5
 70
     1
102
RTVSPropertyOp6
 70
     1
102
RTVSPropertyOp7
 70
     1
102
RTVSPropertyOp8
 70
     1
102
RTVSPropertyOp9
 70
     1
102
RTVSPropertyOp10
 70
     1
102
RTVSPropertyOp11
 70
     1
102
RTVSPropertyOp12
 70
     1
102
RTVSPropertyOp13
 70
     1
102
RTVSPropertyOp14
 70
     1
102
RTVSPropertyOp15
 70
     1
102
RTVSPropertyOp16
 70
     1
102
RTVSPropertyOp17
 70
     1
102
RTVSPropertyOp18
 70
     1
102
RTVSPropertyOp19
 70
     1
102
RTVSPropertyOp20
 70
     1
102
RTVSPropertyOp21
 70
     1
102
RTVSPropertyOp22
 70
     1
102
RTVSPropertyOp23
 70
     1
102
RTVSPropertyOp24
 70
     1
102
RTVSPropertyOp25
 70
     1
102
RTVSPropertyOp26
 70
     1
102
RTVSPropertyOp27
 70
     1
102
RTVSPropertyOp28
 70
     1
102
RTVSPropertyOp29
 70
     1
102
RTVSPropertyOp30
 70
     1
102
RTVSPropertyOp31
 70
     1
102
RTVSPropertyOp32
 70
     1
  0
XRECORD
  5
C4
102
{ACAD_REACTORS
330
C3
102
}
330
C3
100
AcDbXrecord
280
     1
102
RTVSPropertyOp0
 70
     1
102
RTVSPropertyOp1
 70
     1
102
RTVSPropertyOp2
 70
     1
102
RTVSPropertyOp3
 70
     1
102
RTVSPropertyOp4
 70
     1
102
RTVSPropertyOp5
 70
     1
102
RTVSPropertyOp6
 70
     1
102
RTVSPropertyOp7
 70
     1
102
RTVSPropertyOp8
 70
     1
102
RTVSPropertyOp9
 70
     1
102
RTVSPropertyOp10
 70
     1
102
RTVSPropertyOp11
 70
     1
102
RTVSPropertyOp12
 70
     1
102
RTVSPropertyOp13
 70
     1
102
RTVSPropertyOp14
 70
     1
102
RTVSPropertyOp15
 70
     1
102
RTVSPropertyOp16
 70
     1
102
RTVSPropertyOp17
 70
     1
102
RTVSPropertyOp18
 70
     1
102
RTVSPropertyOp19
 70
     1
102
RTVSPropertyOp20
 70
     1
102
RTVSPropertyOp21
 70
     1
102
RTVSPropertyOp22
 70
     1
102
RTVSPropertyOp23
 70
     1
102
RTVSPropertyOp24
 70
     1
102
RTVSPropertyOp25
 70
     1
102
RTVSPropertyOp26
 70
     1
102
RTVSPropertyOp27
 70
     1
102
RTVSPropertyOp28
 70
     1
102
RTVSPropertyOp29
 70
     1
102
RTVSPropertyOp30
 70
     1
102
RTVSPropertyOp31
 70
     1
102
RTVSPropertyOp32
 70
     1
  0
XRECORD
  5
C6
102
{ACAD_REACTORS
330
C5
102
}
330
C5
100
AcDbXrecord
280
     1
102
RTVSPropertyOp0
 70
     1
102
RTVSPropertyOp1
 70
     1
102
RTVSPropertyOp2
 70
     1
102
RTVSPropertyOp3
 70
     1
102
RTVSPropertyOp4
 70
     1
102
RTVSPropertyOp5
 70
     1
102
RTVSPropertyOp6
 70
     1
102
RTVSPropertyOp7
 70
     1
102
RTVSPropertyOp8
 70
     1
102
RTVSPropertyOp9
 70
     1
102
RTVSPropertyOp10
 70
     1
102
RTVSPropertyOp11
 70
     1
102
RTVSPropertyOp12
 70
     1
102
RTVSPropertyOp13
 70
     1
102
RTVSPropertyOp14
 70
     1
102
RTVSPropertyOp15
 70
     1
102
RTVSPropertyOp16
 70
     1
102
RTVSPropertyOp17
 70
     1
102
RTVSPropertyOp18
 70
     1
102
RTVSPropertyOp19
 70
     1
102
RTVSPropertyOp20
 70
     1
102
RTVSPropertyOp21
 70
     1
102
RTVSPropertyOp22
 70
     1
102
RTVSPropertyOp23
 70
     1
102
RTVSPropertyOp24
 70
     1
102
RTVSPropertyOp25
 70
     1
102
RTVSPropertyOp26
 70
     1
102
RTVSPropertyOp27
 70
     1
102
RTVSPropertyOp28
 70
     1
102
RTVSPropertyOp29
 70
     1
102
RTVSPropertyOp30
 70
     1
102
RTVSPropertyOp31
 70
     1
102
RTVSPropertyOp32
 70
     1
  0
XRECORD
  5
C8
102
{ACAD_REACTORS
330
C7
102
}
330
C7
100
AcDbXrecord
280
     1
102
RTVSPropertyOp0
 70
     1
102
RTVSPropertyOp1
 70
     1
102
RTVSPropertyOp2
 70
     1
102
RTVSPropertyOp3
 70
     1
102
RTVSPropertyOp4
 70
     1
102
RTVSPropertyOp5
 70
     1
102
RTVSPropertyOp6
 70
     1
102
RTVSPropertyOp7
 70
     1
102
RTVSPropertyOp8
 70
     1
102
RTVSPropertyOp9
 70
     1
102
RTVSPropertyOp10
 70
     1
102
RTVSPropertyOp11
 70
     1
102
RTVSPropertyOp12
 70
     1
102
RTVSPropertyOp13
 70
     1
102
RTVSPropertyOp14
 70
     1
102
RTVSPropertyOp15
 70
     1
102
RTVSPropertyOp16
 70
     1
102
RTVSPropertyOp17
 70
     1
102
RTVSPropertyOp18
 70
     1
102
RTVSPropertyOp19
 70
     1
102
RTVSPropertyOp20
 70
     1
102
RTVSPropertyOp21
 70
     1
102
RTVSPropertyOp22
 70
     1
102
RTVSPropertyOp23
 70
     1
102
RTVSPropertyOp24
 70
     1
102
RTVSPropertyOp25
 70
     1
102
RTVSPropertyOp26
 70
     1
102
RTVSPropertyOp27
 70
     1
102
RTVSPropertyOp28
 70
     1
102
RTVSPropertyOp29
 70
     1
102
RTVSPropertyOp30
 70
     1
102
RTVSPropertyOp31
 70
     1
102
RTVSPropertyOp32
 70
     1
  0
XRECORD
  5
DC
102
{ACAD_REACTORS
330
DB
102
}
330
DB
100
AcDbXrecord
280
     1
102
RTVSPropertyOp0
 70
     1
102
RTVSPropertyOp1
 70
     1
102
RTVSPropertyOp2
 70
     1
102
RTVSPropertyOp3
 70
     1
102
RTVSPropertyOp4
 70
     1
102
RTVSPropertyOp5
 70
     1
102
RTVSPropertyOp6
 70
     1
102
RTVSPropertyOp7
 70
     1
102
RTVSPropertyOp8
 70
     1
102
RTVSPropertyOp9
 70
     1
102
RTVSPropertyOp10
 70
     1
102
RTVSPropertyOp11
 70
     1
102
RTVSPropertyOp12
 70
     1
102
RTVSPropertyOp13
 70
     1
102
RTVSPropertyOp14
 70
     1
102
RTVSPropertyOp15
 70
     1
102
RTVSPropertyOp16
 70
     1
102
RTVSPropertyOp17
 70
     1
102
RTVSPropertyOp18
 70
     1
102
RTVSPropertyOp19
 70
     1
102
RTVSPropertyOp20
 70
     1
102
RTVSPropertyOp21
 70
     1
102
RTVSPropertyOp22
 70
     1
102
RTVSPropertyOp23
 70
     1
102
RTVSPropertyOp24
 70
     1
102
RTVSPropertyOp25
 70
     1
102
RTVSPropertyOp26
 70
     1
102
RTVSPropertyOp27
 70
     1
102
RTVSPropertyOp28
 70
     1
102
RTVSPropertyOp29
 70
     1
102
RTVSPropertyOp30
 70
     1
102
RTVSPropertyOp31
 70
     1
102
RTVSPropertyOp32
 70
     1
  0
XRECORD
  5
D2
102
{ACAD_REACTORS
330
D1
102
}
330
D1
100
AcDbXrecord
280
     1
102
RTVSPropertyOp0
 70
     1
102
RTVSPropertyOp1
 70
     1
102
RTVSPropertyOp2
 70
     1
102
RTVSPropertyOp3
 70
     1
102
RTVSPropertyOp4
 70
     1
102
RTVSPropertyOp5
 70
     1
102
RTVSPropertyOp6
 70
     1
102
RTVSPropertyOp7
 70
     1
102
RTVSPropertyOp8
 70
     1
102
RTVSPropertyOp9
 70
     1
102
RTVSPropertyOp10
 70
     1
102
RTVSPropertyOp11
 70
     1
102
RTVSPropertyOp12
 70
     1
102
RTVSPropertyOp13
 70
     1
102
RTVSPropertyOp14
 70
     1
102
RTVSPropertyOp15
 70
     1
102
RTVSPropertyOp16
 70
     1
102
RTVSPropertyOp17
 70
     1
102
RTVSPropertyOp18
 70
     1
102
RTVSPropertyOp19
 70
     1
102
RTVSPropertyOp20
 70
     1
102
RTVSPropertyOp21
 70
     1
102
RTVSPropertyOp22
 70
     1
102
RTVSPropertyOp23
 70
     1
102
RTVSPropertyOp24
 70
     1
102
RTVSPropertyOp25
 70
     1
102
RTVSPropertyOp26
 70
     1
102
RTVSPropertyOp27
 70
     1
102
RTVSPropertyOp28
 70
     1
102
RTVSPropertyOp29
 70
     1
102
RTVSPropertyOp30
 70
     1
102
RTVSPropertyOp31
 70
     1
102
RTVSPropertyOp32
 70
     1
  0
XRECORD
  5
DA
102
{ACAD_REACTORS
330
D9
102
}
330
D9
100
AcDbXrecord
280
     1
102
RTVSPropertyOp0
 70
     1
102
RTVSPropertyOp1
 70
     1
102
RTVSPropertyOp2
 70
     1
102
RTVSPropertyOp3
 70
     1
102
RTVSPropertyOp4
 70
     1
102
RTVSPropertyOp5
 70
     1
102
RTVSPropertyOp6
 70
     1
102
RTVSPropertyOp7
 70
     1
102
RTVSPropertyOp8
 70
     1
102
RTVSPropertyOp9
 70
     1
102
RTVSPropertyOp10
 70
     1
102
RTVSPropertyOp11
 70
     1
102
RTVSPropertyOp12
 70
     1
102
RTVSPropertyOp13
 70
     1
102
RTVSPropertyOp14
 70
     1
102
RTVSPropertyOp15
 70
     1
102
RTVSPropertyOp16
 70
     1
102
RTVSPropertyOp17
 70
     1
102
RTVSPropertyOp18
 70
     1
102
RTVSPropertyOp19
 70
     1
102
RTVSPropertyOp20
 70
     1
102
RTVSPropertyOp21
 70
     1
102
RTVSPropertyOp22
 70
     1
102
RTVSPropertyOp23
 70
     1
102
RTVSPropertyOp24
 70
     1
102
RTVSPropertyOp25
 70
     1
102
RTVSPropertyOp26
 70
     1
102
RTVSPropertyOp27
 70
     1
102
RTVSPropertyOp28
 70
     1
102
RTVSPropertyOp29
 70
     1
102
RTVSPropertyOp30
 70
     1
102
RTVSPropertyOp31
 70
     1
102
RTVSPropertyOp32
 70
     1
  0
ENDSEC
  0
EOF
