  0
SECTION
  2
HEADER
  9
$ACADVER
  1
AC1021
  9
$ACADMAINTVER
 70
    25
  9
$DWGCODEPAGE
  3
ANSI_1252
  9
$INSBASE
 10
0.0
 20
0.0
 30
0.0
  9
$EXTMIN
 10
-187.3754
 20
-110.6102
 30
0.0
  9
$EXTMAX
 10
-73.2595
 20
127.5234
 30
0.0
  9
$LIMMIN
 10
0.0
 20
0.0
  9
$LIMMAX
 10
12.0
 20
9.0
  9
$ORTHOMODE
 70
     0
  9
$REGENMODE
 70
     1
  9
$FILLMODE
 70
     1
  9
$QTEXTMODE
 70
     0
  9
$MIRRTEXT
 70
     1
  9
$LTSCALE
 40
1.0
  9
$ATTMODE
 70
     1
  9
$TEXTSIZE
 40
0.2
  9
$TRACEWID
 40
0.05
  9
$TEXTSTYLE
  7
Standard
  9
$CLAYER
  8
0
  9
$CELTYPE
  6
ByLayer
  9
$CECOLOR
 62
   256
  9
$CELTSCALE
 40
1.0
  9
$DISPSILH
 70
     0
  9
$DIMSCALE
 40
1.0
  9
$DIMASZ
 40
0.18
  9
$DIMEXO
 40
0.0625
  9
$DIMDLI
 40
0.38
  9
$DIMRND
 40
0.0
  9
$DIMDLE
 40
0.0
  9
$DIMEXE
 40
0.18
  9
$DIMTP
 40
0.0
  9
$DIMTM
 40
0.0
  9
$DIMTXT
 40
0.18
  9
$DIMCEN
 40
0.09
  9
$DIMTSZ
 40
0.0
  9
$DIMTOL
 70
     0
  9
$DIMLIM
 70
     0
  9
$DIMTIH
 70
     1
  9
$DIMTOH
 70
     1
  9
$DIMSE1
 70
     0
  9
$DIMSE2
 70
     0
  9
$DIMTAD
 70
     0
  9
$DIMZIN
 70
     0
  9
$DIMBLK
  1

  9
$DIMASO
 70
     1
  9
$DIMSHO
 70
     1
  9
$DIMPOST
  1

  9
$DIMAPOST
  1

  9
$DIMALT
 70
     0
  9
$DIMALTD
 70
     2
  9
$DIMALTF
 40
25.4
  9
$DIMLFAC
 40
1.0
  9
$DIMTOFL
 70
     0
  9
$DIMTVP
 40
0.0
  9
$DIMTIX
 70
     0
  9
$DIMSOXD
 70
     0
  9
$DIMSAH
 70
     0
  9
$DIMBLK1
  1

  9
$DIMBLK2
  1

  9
$DIMSTYLE
  2
Standard
  9
$DIMCLRD
 70
     0
  9
$DIMCLRE
 70
     0
  9
$DIMCLRT
 70
     0
  9
$DIMTFAC
 40
1.0
  9
$DIMGAP
 40
0.09
  9
$DIMJUST
 70
     0
  9
$DIMSD1
 70
     0
  9
$DIMSD2
 70
     0
  9
$DIMTOLJ
 70
     1
  9
$DIMTZIN
 70
     0
  9
$DIMALTZ
 70
     0
  9
$DIMALTTZ
 70
     0
  9
$DIMUPT
 70
     0
  9
$DIMDEC
 70
     4
  9
$DIMTDEC
 70
     4
  9
$DIMALTU
 70
     2
  9
$DIMALTTD
 70
     2
  9
$DIMTXSTY
  7
Standard
  9
$DIMAUNIT
 70
     0
  9
$DIMADEC
 70
     0
  9
$DIMALTRND
 40
0.0
  9
$DIMAZIN
 70
     0
  9
$DIMDSEP
 70
    46
  9
$DIMATFIT
 70
     3
  9
$DIMFRAC
 70
     0
  9
$DIMLDRBLK
  1

  9
$DIMLUNIT
 70
     2
  9
$DIMLWD
 70
    -2
  9
$DIMLWE
 70
    -2
  9
$DIMTMOVE
 70
     0
  9
$DIMFXL
 40
1.0
  9
$DIMFXLON
 70
     0
  9
$DIMJOGANG
 40
0.7853981633974483
  9
$DIMTFILL
 70
     0
  9
$DIMTFILLCLR
 70
     0
  9
$DIMARCSYM
 70
     0
  9
$DIMLTYPE
  6

  9
$DIMLTEX1
  6

  9
$DIMLTEX2
  6

  9
$LUNITS
 70
     2
  9
$LUPREC
 70
     4
  9
$SKETCHINC
 40
0.1
  9
$FILLETRAD
 40
0.5
  9
$AUNITS
 70
     0
  9
$AUPREC
 70
     0
  9
$MENU
  1
.
  9
$ELEVATION
 40
0.0
  9
$PELEVATION
 40
0.0
  9
$THICKNESS
 40
0.0
  9
$LIMCHECK
 70
     0
  9
$CHAMFERA
 40
0.5
  9
$CHAMFERB
 40
0.5
  9
$CHAMFERC
 40
1.0
  9
$CHAMFERD
 40
0.0
  9
$SKPOLY
 70
     0
  9
$TDCREATE
 40
2458493.682769827
  9
$TDUCREATE
 40
2458493.682769827
  9
$TDUPDATE
 40
2458493.682770127
  9
$TDUUPDATE
 40
2458493.682770127
  9
$TDINDWG
 40
0.0000000116
  9
$TDUSRTIMER
 40
0.0000000116
  9
$USRTIMER
 70
     1
  9
$ANGBASE
 50
0.0
  9
$ANGDIR
 70
     0
  9
$PDMODE
 70
     0
  9
$PDSIZE
 40
0.0
  9
$PLINEWID
 40
0.0
  9
$SPLFRAME
 70
     0
  9
$SPLINETYPE
 70
     6
  9
$SPLINESEGS
 70
     8
  9
$HANDSEED
  5
B1
  9
$SURFTAB1
 70
     6
  9
$SURFTAB2
 70
     6
  9
$SURFTYPE
 70
     6
  9
$SURFU
 70
     6
  9
$SURFV
 70
     6
  9
$UCSBASE
  2

  9
$UCSNAME
  2

  9
$UCSORG
 10
0.0
 20
0.0
 30
0.0
  9
$UCSXDIR
 10
1.0
 20
0.0
 30
0.0
  9
$UCSYDIR
 10
0.0
 20
1.0
 30
0.0
  9
$UCSORTHOREF
  2

  9
$UCSORTHOVIEW
 70
     0
  9
$UCSORGTOP
 10
0.0
 20
0.0
 30
0.0
  9
$UCSORGBOTTOM
 10
0.0
 20
0.0
 30
0.0
  9
$UCSORGLEFT
 10
0.0
 20
0.0
 30
0.0
  9
$UCSORGRIGHT
 10
0.0
 20
0.0
 30
0.0
  9
$UCSORGFRONT
 10
0.0
 20
0.0
 30
0.0
  9
$UCSORGBACK
 10
0.0
 20
0.0
 30
0.0
  9
$PUCSBASE
  2

  9
$PUCSNAME
  2

  9
$PUCSORG
 10
0.0
 20
0.0
 30
0.0
  9
$PUCSXDIR
 10
1.0
 20
0.0
 30
0.0
  9
$PUCSYDIR
 10
0.0
 20
1.0
 30
0.0
  9
$PUCSORTHOREF
  2

  9
$PUCSORTHOVIEW
 70
     0
  9
$PUCSORGTOP
 10
0.0
 20
0.0
 30
0.0
  9
$PUCSORGBOTTOM
 10
0.0
 20
0.0
 30
0.0
  9
$PUCSORGLEFT
 10
0.0
 20
0.0
 30
0.0
  9
$PUCSORGRIGHT
 10
0.0
 20
0.0
 30
0.0
  9
$PUCSORGFRONT
 10
0.0
 20
0.0
 30
0.0
  9
$PUCSORGBACK
 10
0.0
 20
0.0
 30
0.0
  9
$USERI1
 70
     0
  9
$USERI2
 70
     0
  9
$USERI3
 70
     0
  9
$USERI4
 70
     0
  9
$USERI5
 70
     0
  9
$USERR1
 40
0.0
  9
$USERR2
 40
0.0
  9
$USERR3
 40
0.0
  9
$USERR4
 40
0.0
  9
$USERR5
 40
0.0
  9
$WORLDVIEW
 70
     1
  9
$SHADEDGE
 70
     3
  9
$SHADEDIF
 70
    70
  9
$TILEMODE
 70
     1
  9
$MAXACTVP
 70
    64
  9
$PINSBASE
 10
0.0
 20
0.0
 30
0.0
  9
$PLIMCHECK
 70
     0
  9
$PEXTMIN
 10
1.000000000000000E+20
 20
1.000000000000000E+20
 30
1.000000000000000E+20
  9
$PEXTMAX
 10
-1.000000000000000E+20
 20
-1.000000000000000E+20
 30
-1.000000000000000E+20
  9
$PLIMMIN
 10
0.0
 20
0.0
  9
$PLIMMAX
 10
12.0
 20
9.0
  9
$UNITMODE
 70
     0
  9
$VISRETAIN
 70
     1
  9
$PLINEGEN
 70
     0
  9
$PSLTSCALE
 70
     1
  9
$TREEDEPTH
 70
  3020
  9
$CMLSTYLE
  2
Standard
  9
$CMLJUST
 70
     0
  9
$CMLSCALE
 40
1.0
  9
$PROXYGRAPHICS
 70
     1
  9
$MEASUREMENT
 70
     0
  9
$CELWEIGHT
370
    -1
  9
$ENDCAPS
280
     0
  9
$JOINSTYLE
280
     0
  9
$LWDISPLAY
290
     0
  9
$INSUNITS
 70
     4
  9
$HYPERLINKBASE
  1

  9
$STYLESHEET
  1

  9
$XEDIT
290
     1
  9
$CEPSNTYPE
380
     0
  9
$PSTYLEMODE
290
     1
  9
$FINGERPRINTGUID
  2
{02599EB5-728B-49EB-8E1A-AF1264977757}
  9
$VERSIONGUID
  2
{FAEB1C32-E019-11D5-929B-00C0DF256EC4}
  9
$EXTNAMES
290
     1
  9
$PSVPSCALE
 40
0.0
  9
$OLESTARTUP
290
     0
  9
$SORTENTS
280
   127
  9
$INDEXCTL
280
     0
  9
$HIDETEXT
280
     1
  9
$XCLIPFRAME
290
     0
  9
$HALOGAP
280
     0
  9
$OBSCOLOR
 70
   257
  9
$OBSLTYPE
280
     0
  9
$INTERSECTIONDISPLAY
280
     0
  9
$INTERSECTIONCOLOR
 70
   257
  9
$DIMASSOC
280
     2
  9
$PROJECTNAME
  1

  9
$CAMERADISPLAY
290
     0
  9
$LENSLENGTH
 40
50.0
  9
$CAMERAHEIGHT
 40
0.0
  9
$STEPSPERSEC
 40
2.0
  9
$STEPSIZE
 40
6.0
  9
$3DDWFPREC
 40
2.0
  9
$PSOLWIDTH
 40
0.25
  9
$PSOLHEIGHT
 40
4.0
  9
$LOFTANG1
 40
1.570796326794897
  9
$LOFTANG2
 40
1.570796326794897
  9
$LOFTMAG1
 40
0.0
  9
$LOFTMAG2
 40
0.0
  9
$LOFTPARAM
 70
     7
  9
$LOFTNORMALS
280
     1
  9
$LATITUDE
 40
37.795
  9
$LONGITUDE
 40
-122.394
  9
$NORTHDIRECTION
 40
0.0
  9
$TIMEZONE
 70
 -8000
  9
$LIGHTGLYPHDISPLAY
280
     1
  9
$TILEMODELIGHTSYNCH
280
     1
  9
$SOLIDHIST
280
     1
  9
$SHOWHIST
280
     1
  9
$DWFFRAME
280
     2
  9
$DGNFRAME
280
     2
  9
$REALWORLDSCALE
290
     1
  9
$INTERFERECOLOR
 62
   256
  9
$CSHADOW
280
     0
  9
$SHADOWPLANELOCATION
 40
0.0
  0
ENDSEC
  0
SECTION
  2
CLASSES
  0
CLASS
  1
ACDBDICTIONARYWDFLT
  2
AcDbDictionaryWithDefault
  3
ObjectDBX Classes
 90
        0
 91
        4
280
     0
281
     0
  0
CLASS
  1
VISUALSTYLE
  2
AcDbVisualStyle
  3
ObjectDBX Classes
 90
     4095
 91
        4
280
     0
281
     0
  0
CLASS
  1
MATERIAL
  2
AcDbMaterial
  3
ObjectDBX Classes
 90
     1153
 91
        4
280
     0
281
     0
  0
ENDSEC
  0
SECTION
  2
TABLES
  0
TABLE
  2
VPORT
  5
8
330
0
100
AcDbSymbolTable
 70
     1
  0
VPORT
  5
29
330
8
100
AcDbSymbolTableRecord
100
AcDbViewportTableRecord
  2
*Active
 70
     0
 10
0.0
 20
0.0
 11
1.0
 21
1.0
 12
10.42990654205607
 22
4.5
 13
0.0
 23
0.0
 14
0.5
 24
0.5
 15
0.5
 25
0.5
 16
0.0
 26
0.0
 36
1.0
 17
0.0
 27
0.0
 37
0.0
 40
9.0
 41
1.972972972850329
 42
50.0
 43
0.0
 44
0.0
 50
0.0
 51
0.0
 71
     0
 72
   100
 73
     1
 74
     3
 75
     0
 76
     0
 77
     0
 78
     0
281
     0
 65
     1
110
0.0
120
0.0
130
0.0
111
1.0
121
0.0
131
0.0
112
0.0
122
1.0
132
0.0
 79
     0
146
0.0
 60
     3
 61
     5
292
     1
282
     1
141
0.0
142
0.0
 63
   250
  0
ENDTAB
  0
TABLE
  2
LTYPE
  5
5
330
0
100
AcDbSymbolTable
 70
     1
  0
LTYPE
  5
14
330
5
100
AcDbSymbolTableRecord
100
AcDbLinetypeTableRecord
  2
ByBlock
 70
     0
  3

 72
    65
 73
     0
 40
0.0
  0
LTYPE
  5
15
330
5
100
AcDbSymbolTableRecord
100
AcDbLinetypeTableRecord
  2
ByLayer
 70
     0
  3

 72
    65
 73
     0
 40
0.0
  0
LTYPE
  5
16
330
5
100
AcDbSymbolTableRecord
100
AcDbLinetypeTableRecord
  2
Continuous
 70
     0
  3
Solid line
 72
    65
 73
     0
 40
0.0
  0
ENDTAB
  0
TABLE
  2
LAYER
  5
2
330
0
100
AcDbSymbolTable
 70
     3
  0
LAYER
  5
10
330
2
100
AcDbSymbolTableRecord
100
AcDbLayerTableRecord
  2
0
 70
     0
 62
     7
  6
Continuous
370
    -3
390
F
347
3E
  0
LAYER
  5
40
330
2
100
AcDbSymbolTableRecord
100
AcDbLayerTableRecord
  2
layer 1
 70
     0
 62
     7
  6
Continuous
370
    -3
390
F
347
3E
  0
LAYER
  5
8E
330
2
100
AcDbSymbolTableRecord
100
AcDbLayerTableRecord
  2
Master Guides
 70
     0
 62
     7
  6
Continuous
370
    -3
390
F
347
3E
  0
ENDTAB
  0
TABLE
  2
STYLE
  5
3
330
0
100
AcDbSymbolTable
 70
     1
  0
STYLE
  5
11
330
3
100
AcDbSymbolTableRecord
100
AcDbTextStyleTableRecord
  2
Standard
 70
     0
 40
0.0
 41
1.0
 50
0.0
 71
     0
 42
0.2
  3
txt
  4

  0
ENDTAB
  0
TABLE
  2
VIEW
  5
6
330
0
100
AcDbSymbolTable
 70
     0
  0
ENDTAB
  0
TABLE
  2
UCS
  5
7
330
0
100
AcDbSymbolTable
 70
     0
  0
ENDTAB
  0
TABLE
  2
APPID
  5
9
330
0
100
AcDbSymbolTable
 70
     2
  0
APPID
  5
12
330
9
100
AcDbSymbolTableRecord
100
AcDbRegAppTableRecord
  2
ACAD
 70
     0
  0
APPID
  5
3F
330
9
100
AcDbSymbolTableRecord
100
AcDbRegAppTableRecord
  2
ODA
 70
     0
  0
ENDTAB
  0
TABLE
  2
DIMSTYLE
  5
A
330
0
100
AcDbSymbolTable
 70
     1
100
AcDbDimStyleTable
  0
DIMSTYLE
105
27
330
A
100
AcDbSymbolTableRecord
100
AcDbDimStyleTableRecord
  2
Standard
 70
     0
178
     0
340
11
  0
ENDTAB
  0
TABLE
  2
BLOCK_RECORD
  5
1
330
0
100
AcDbSymbolTable
 70
     1
  0
BLOCK_RECORD
  5
1F
330
1
100
AcDbSymbolTableRecord
100
AcDbBlockTableRecord
  2
*Model_Space
340
22
 70
     0
280
     1
281
     0
  0
BLOCK_RECORD
  5
1B
330
1
100
AcDbSymbolTableRecord
100
AcDbBlockTableRecord
  2
*Paper_Space
340
1E
 70
     0
280
     1
281
     0
  0
BLOCK_RECORD
  5
23
330
1
100
AcDbSymbolTableRecord
100
AcDbBlockTableRecord
  2
*Paper_Space0
340
26
 70
     0
280
     1
281
     0
  0
ENDTAB
  0
ENDSEC
  0
SECTION
  2
BLOCKS
  0
BLOCK
  5
20
330
1F
100
AcDbEntity
  8
0
100
AcDbBlockBegin
  2
*Model_Space
 70
     0
 10
0.0
 20
0.0
 30
0.0
  3
*Model_Space
  1

  0
ENDBLK
  5
21
330
1F
100
AcDbEntity
  8
0
100
AcDbBlockEnd
  0
BLOCK
  5
1C
330
1B
100
AcDbEntity
 67
     1
  8
0
100
AcDbBlockBegin
  2
*Paper_Space
 70
     0
 10
0.0
 20
0.0
 30
0.0
  3
*Paper_Space
  1

  0
ENDBLK
  5
1D
330
1B
100
AcDbEntity
 67
     1
  8
0
100
AcDbBlockEnd
  0
BLOCK
  5
24
330
23
100
AcDbEntity
  8
0
100
AcDbBlockBegin
  2
*Paper_Space0
 70
     0
 10
0.0
 20
0.0
 30
0.0
  3
*Paper_Space0
  1

  0
ENDBLK
  5
25
330
23
100
AcDbEntity
  8
0
100
AcDbBlockEnd
  0
ENDSEC
  0
SECTION
  2
ENTITIES
  0
SPLINE
  5
41
330
1F
100
AcDbEntity
  8
layer 1
 62
   250
100
AcDbSpline
210
0.0
220
0.0
230
1.0
 70
    11
 71
     3
 72
    20
 73
    16
 74
     0
 42
0.0000000001
 43
0.0000000001
 12
1.0
 22
0.0
 32
0.0
 13
1.0
 23
0.0
 33
0.0
 40
0.0
 40
0.0
 40
0.0
 40
0.0
 40
0.2
 40
0.2
 40
0.2
 40
0.2
 40
0.4
 40
0.4
 40
0.4
 40
0.4
 40
0.6
 40
0.6
 40
0.6
 40
0.6
 40
1.0
 40
1.0
 40
1.0
 40
1.0
 10
-187.3754
 20
127.5234
 30
0.0
 10
-187.3754
 20
127.5234
 30
0.0
 10
-73.2595
 20
127.5234
 30
0.0
 10
-73.2595
 20
127.5234
 30
0.0
 10
-73.2595
 20
127.5234
 30
0.0
 10
-73.2595
 20
127.5234
 30
0.0
 10
-73.2595
 20
-110.6102
 30
0.0
 10
-73.2595
 20
-110.6102
 30
0.0
 10
-73.2595
 20
-110.6102
 30
0.0
 10
-73.2595
 20
-110.6102
 30
0.0
 10
-187.3754
 20
-110.6102
 30
0.0
 10
-187.3754
 20
-110.6102
 30
0.0
 10
-187.3754
 20
-110.6102
 30
0.0
 10
-187.3754
 20
-110.6102
 30
0.0
 10
-187.3754
 20
127.5234
 30
0.0
 10
-187.3754
 20
127.5234
 30
0.0
  0
SPLINE
  5
42
330
1F
100
AcDbEntity
  8
layer 1
 62
     7
100
AcDbSpline
210
0.0
220
0.0
230
1.0
 70
    11
 71
     3
 72
    20
 73
    16
 74
     0
 42
0.0000000001
 43
0.0000000001
 12
1.0
 22
0.0
 32
0.0
 13
1.0
 23
0.0
 33
0.0
 40
0.0
 40
0.0
 40
0.0
 40
0.0
 40
0.2
 40
0.2
 40
0.2
 40
0.2
 40
0.4
 40
0.4
 40
0.4
 40
0.4
 40
0.6
 40
0.6
 40
0.6
 40
0.6
 40
1.0
 40
1.0
 40
1.0
 40
1.0
 10
-183.99
 20
116.3102
 30
0.0
 10
-183.99
 20
116.3102
 30
0.0
 10
-167.7581
 20
116.3102
 30
0.0
 10
-167.7581
 20
116.3102
 30
0.0
 10
-167.7581
 20
116.3102
 30
0.0
 10
-167.7581
 20
116.3102
 30
0.0
 10
-167.7581
 20
124.6817
 30
0.0
 10
-167.7581
 20
124.6817
 30
0.0
 10
-167.7581
 20
124.6817
 30
0.0
 10
-167.7581
 20
124.6817
 30
0.0
 10
-183.99
 20
124.6817
 30
0.0
 10
-183.99
 20
124.6817
 30
0.0
 10
-183.99
 20
124.6817
 30
0.0
 10
-183.99
 20
124.6817
 30
0.0
 10
-183.99
 20
116.3102
 30
0.0
 10
-183.99
 20
116.3102
 30
0.0
  0
SPLINE
  5
43
330
1F
100
AcDbEntity
  8
layer 1
 62
     7
100
AcDbSpline
210
0.0
220
0.0
230
1.0
 70
    11
 71
     3
 72
    36
 73
    32
 74
     0
 42
0.0000000001
 43
0.0000000001
 12
1.0
 22
0.0
 32
0.0
 13
1.0
 23
0.0
 33
0.0
 40
0.0
 40
0.0
 40
0.0
 40
0.0
 40
0.1111111111111111
 40
0.1111111111111111
 40
0.1111111111111111
 40
0.1111111111111111
 40
0.2222222222222222
 40
0.2222222222222222
 40
0.2222222222222222
 40
0.2222222222222222
 40
0.3333333333333333
 40
0.3333333333333333
 40
0.3333333333333333
 40
0.3333333333333333
 40
0.4444444444444444
 40
0.4444444444444444
 40
0.4444444444444444
 40
0.4444444444444444
 40
0.5555555555555556
 40
0.5555555555555556
 40
0.5555555555555556
 40
0.5555555555555556
 40
0.6666666666666666
 40
0.6666666666666666
 40
0.6666666666666666
 40
0.6666666666666666
 40
0.7777777777777778
 40
0.7777777777777778
 40
0.7777777777777778
 40
0.7777777777777778
 40
1.0
 40
1.0
 40
1.0
 40
1.0
 10
-163.9959
 20
124.6817
 30
0.0
 10
-163.9959
 20
124.6817
 30
0.0
 10
-163.9959
 20
116.3123
 30
0.0
 10
-163.9959
 20
116.3123
 30
0.0
 10
-163.9959
 20
116.3123
 30
0.0
 10
-157.2092
 20
116.3741
 30
0.0
 10
-153.9803
 20
112.9648
 30
0.0
 10
-153.6792
 20
108.862
 30
0.0
 10
-153.6792
 20
108.862
 30
0.0
 10
-149.8201
 20
108.9111
 30
0.0
 10
-146.4057
 20
104.8699
 30
0.0
 10
-146.2202
 20
98.8892
 30
0.0
 10
-146.2202
 20
98.8892
 30
0.0
 10
-146.2202
 20
98.8892
 30
0.0
 10
-132.1987
 20
98.8892
 30
0.0
 10
-132.1987
 20
98.8892
 30
0.0
 10
-132.1987
 20
98.8892
 30
0.0
 10
-132.1987
 20
98.8892
 30
0.0
 10
-132.1987
 20
105.0252
 30
0.0
 10
-132.1987
 20
105.0252
 30
0.0
 10
-132.1987
 20
105.0252
 30
0.0
 10
-137.977
 20
105.1489
 30
0.0
 10
-142.5812
 20
108.5948
 30
0.0
 10
-143.2142
 20
113.3851
 30
0.0
 10
-143.2142
 20
113.3851
 30
0.0
 10
-148.0507
 20
114.9436
 30
0.0
 10
-149.9145
 20
118.9226
 30
0.0
 10
-149.9846
 20
124.6817
 30
0.0
 10
-149.9846
 20
124.6817
 30
0.0
 10
-149.9846
 20
124.6817
 30
0.0
 10
-163.9959
 20
124.6817
 30
0.0
 10
-163.9959
 20
124.6817
 30
0.0
  0
SPLINE
  5
44
330
1F
100
AcDbEntity
  8
layer 1
 62
     7
100
AcDbSpline
210
0.0
220
0.0
230
1.0
 70
    11
 71
     3
 72
    20
 73
    16
 74
     0
 42
0.0000000001
 43
0.0000000001
 12
1.0
 22
0.0
 32
0.0
 13
1.0
 23
0.0
 33
0.0
 40
0.0
 40
0.0
 40
0.0
 40
0.0
 40
0.2
 40
0.2
 40
0.2
 40
0.2
 40
0.4
 40
0.4
 40
0.4
 40
0.4
 40
0.6
 40
0.6
 40
0.6
 40
0.6
 40
1.0
 40
1.0
 40
1.0
 40
1.0
 10
-139.5502
 20
116.4249
 30
0.0
 10
-139.1936
 20
111.8852
 30
0.0
 10
-136.737
 20
109.1859
 30
0.0
 10
-132.1987
 20
108.7234
 30
0.0
 10
-132.1987
 20
108.7234
 30
0.0
 10
-132.1987
 20
108.7234
 30
0.0
 10
-132.1987
 20
124.6817
 30
0.0
 10
-132.1987
 20
124.6817
 30
0.0
 10
-132.1987
 20
124.6817
 30
0.0
 10
-132.1987
 20
124.6817
 30
0.0
 10
-146.2299
 20
124.6817
 30
0.0
 10
-146.2299
 20
124.6817
 30
0.0
 10
-146.2299
 20
124.6817
 30
0.0
 10
-146.0581
 20
120.7797
 30
0.0
 10
-143.9201
 20
116.5454
 30
0.0
 10
-139.5502
 20
116.4249
 30
0.0
  0
SPLINE
  5
45
330
1F
100
AcDbEntity
  8
layer 1
 62
     7
100
AcDbSpline
210
0.0
220
0.0
230
1.0
 70
    11
 71
     3
 72
    20
 73
    16
 74
     0
 42
0.0000000001
 43
0.0000000001
 12
1.0
 22
0.0
 32
0.0
 13
1.0
 23
0.0
 33
0.0
 40
0.0
 40
0.0
 40
0.0
 40
0.0
 40
0.2
 40
0.2
 40
0.2
 40
0.2
 40
0.4
 40
0.4
 40
0.4
 40
0.4
 40
0.6
 40
0.6
 40
0.6
 40
0.6
 40
1.0
 40
1.0
 40
1.0
 40
1.0
 10
-183.99
 20
10.338
 30
0.0
 10
-183.99
 20
10.338
 30
0.0
 10
-167.7581
 20
10.338
 30
0.0
 10
-167.7581
 20
10.338
 30
0.0
 10
-167.7581
 20
10.338
 30
0.0
 10
-167.7581
 20
10.338
 30
0.0
 10
-167.7581
 20
35.2992
 30
0.0
 10
-167.7581
 20
35.2992
 30
0.0
 10
-167.7581
 20
35.2992
 30
0.0
 10
-167.7581
 20
35.2992
 30
0.0
 10
-183.99
 20
35.2992
 30
0.0
 10
-183.99
 20
35.2992
 30
0.0
 10
-183.99
 20
35.2992
 30
0.0
 10
-183.99
 20
35.2992
 30
0.0
 10
-183.99
 20
10.338
 30
0.0
 10
-183.99
 20
10.338
 30
0.0
  0
SPLINE
  5
46
330
1F
100
AcDbEntity
  8
layer 1
 62
     7
100
AcDbSpline
210
0.0
220
0.0
230
1.0
 70
    11
 71
     3
 72
    20
 73
    16
 74
     0
 42
0.0000000001
 43
0.0000000001
 12
1.0
 22
0.0
 32
0.0
 13
1.0
 23
0.0
 33
0.0
 40
0.0
 40
0.0
 40
0.0
 40
0.0
 40
0.2
 40
0.2
 40
0.2
 40
0.2
 40
0.4
 40
0.4
 40
0.4
 40
0.4
 40
0.6
 40
0.6
 40
0.6
 40
0.6
 40
1.0
 40
1.0
 40
1.0
 40
1.0
 10
-183.99
 20
39.0615
 30
0.0
 10
-183.99
 20
39.0615
 30
0.0
 10
-167.7581
 20
39.0615
 30
0.0
 10
-167.7581
 20
39.0615
 30
0.0
 10
-167.7581
 20
39.0615
 30
0.0
 10
-167.7581
 20
39.0615
 30
0.0
 10
-167.7581
 20
56.5942
 30
0.0
 10
-167.7581
 20
56.5942
 30
0.0
 10
-167.7581
 20
56.5942
 30
0.0
 10
-167.7581
 20
56.5942
 30
0.0
 10
-183.99
 20
56.5942
 30
0.0
 10
-183.99
 20
56.5942
 30
0.0
 10
-183.99
 20
56.5942
 30
0.0
 10
-183.99
 20
56.5942
 30
0.0
 10
-183.99
 20
39.0615
 30
0.0
 10
-183.99
 20
39.0615
 30
0.0
  0
SPLINE
  5
47
330
1F
100
AcDbEntity
  8
layer 1
 62
     7
100
AcDbSpline
210
0.0
220
0.0
230
1.0
 70
    11
 71
     3
 72
    36
 73
    32
 74
     0
 42
0.0000000001
 43
0.0000000001
 12
1.0
 22
0.0
 32
0.0
 13
1.0
 23
0.0
 33
0.0
 40
0.0
 40
0.0
 40
0.0
 40
0.0
 40
0.1111111111111111
 40
0.1111111111111111
 40
0.1111111111111111
 40
0.1111111111111111
 40
0.2222222222222222
 40
0.2222222222222222
 40
0.2222222222222222
 40
0.2222222222222222
 40
0.3333333333333333
 40
0.3333333333333333
 40
0.3333333333333333
 40
0.3333333333333333
 40
0.4444444444444444
 40
0.4444444444444444
 40
0.4444444444444444
 40
0.4444444444444444
 40
0.5555555555555556
 40
0.5555555555555556
 40
0.5555555555555556
 40
0.5555555555555556
 40
0.6666666666666666
 40
0.6666666666666666
 40
0.6666666666666666
 40
0.6666666666666666
 40
0.7777777777777778
 40
0.7777777777777778
 40
0.7777777777777778
 40
0.7777777777777778
 40
1.0
 40
1.0
 40
1.0
 40
1.0
 10
-183.99
 20
60.3567
 30
0.0
 10
-183.99
 20
60.3567
 30
0.0
 10
-167.7625
 20
60.3567
 30
0.0
 10
-167.7625
 20
60.3567
 30
0.0
 10
-167.7625
 20
60.3567
 30
0.0
 10
-167.5868
 20
66.0136
 30
0.0
 10
-164.4683
 20
69.9278
 30
0.0
 10
-160.5695
 20
69.9384
 30
0.0
 10
-160.5695
 20
69.9384
 30
0.0
 10
-160.3625
 20
73.4278
 30
0.0
 10
-157.4805
 20
77.6311
 30
0.0
 10
-149.9781
 20
77.7804
 30
0.0
 10
-149.9781
 20
77.7804
 30
0.0
 10
-149.9781
 20
77.7804
 30
0.0
 10
-149.9781
 20
83.9346
 30
0.0
 10
-149.9781
 20
83.9346
 30
0.0
 10
-149.9781
 20
83.9346
 30
0.0
 10
-149.9781
 20
83.9346
 30
0.0
 10
-163.9884
 20
83.9346
 30
0.0
 10
-163.9884
 20
83.9346
 30
0.0
 10
-163.9884
 20
83.9346
 30
0.0
 10
-164.1652
 20
78.0217
 30
0.0
 10
-167.5876
 20
73.6385
 30
0.0
 10
-172.6833
 20
73.0359
 30
0.0
 10
-172.6833
 20
73.0359
 30
0.0
 10
-173.2584
 20
68.3919
 30
0.0
 10
-178.7952
 20
66.4907
 30
0.0
 10
-183.99
 20
66.5195
 30
0.0
 10
-183.99
 20
66.5195
 30
0.0
 10
-183.99
 20
66.5195
 30
0.0
 10
-183.99
 20
60.3567
 30
0.0
 10
-183.99
 20
60.3567
 30
0.0
  0
SPLINE
  5
48
330
1F
100
AcDbEntity
  8
layer 1
 62
     7
100
AcDbSpline
210
0.0
220
0.0
230
1.0
 70
    11
 71
     3
 72
    20
 73
    16
 74
     0
 42
0.0000000001
 43
0.0000000001
 12
1.0
 22
0.0
 32
0.0
 13
1.0
 23
0.0
 33
0.0
 40
0.0
 40
0.0
 40
0.0
 40
0.0
 40
0.2
 40
0.2
 40
0.2
 40
0.2
 40
0.4
 40
0.4
 40
0.4
 40
0.4
 40
0.6
 40
0.6
 40
0.6
 40
0.6
 40
1.0
 40
1.0
 40
1.0
 40
1.0
 10
-175.6587
 20
76.3551
 30
0.0
 10
-171.2225
 20
76.4629
 30
0.0
 10
-168.1046
 20
79.6385
 30
0.0
 10
-167.7389
 20
83.9346
 30
0.0
 10
-167.7389
 20
83.9346
 30
0.0
 10
-167.7389
 20
83.9346
 30
0.0
 10
-183.99
 20
83.9346
 30
0.0
 10
-183.99
 20
83.9346
 30
0.0
 10
-183.99
 20
83.9346
 30
0.0
 10
-183.99
 20
83.9346
 30
0.0
 10
-183.99
 20
70.2215
 30
0.0
 10
-183.99
 20
70.2215
 30
0.0
 10
-183.99
 20
70.2215
 30
0.0
 10
-179.1485
 20
70.2681
 30
0.0
 10
-176.0319
 20
72.1814
 30
0.0
 10
-175.6587
 20
76.3551
 30
0.0
  0
SPLINE
  5
49
330
1F
100
AcDbEntity
  8
layer 1
 62
     7
100
AcDbSpline
210
0.0
220
0.0
230
1.0
 70
    11
 71
     3
 72
    20
 73
    16
 74
     0
 42
0.0000000001
 43
0.0000000001
 12
1.0
 22
0.0
 32
0.0
 13
1.0
 23
0.0
 33
0.0
 40
0.0
 40
0.0
 40
0.0
 40
0.0
 40
0.2
 40
0.2
 40
0.2
 40
0.2
 40
0.4
 40
0.4
 40
0.4
 40
0.4
 40
0.6
 40
0.6
 40
0.6
 40
0.6
 40
1.0
 40
1.0
 40
1.0
 40
1.0
 10
-183.99
 20
87.6973
 30
0.0
 10
-183.99
 20
87.6973
 30
0.0
 10
-167.7581
 20
87.6973
 30
0.0
 10
-167.7581
 20
87.6973
 30
0.0
 10
-167.7581
 20
87.6973
 30
0.0
 10
-167.7581
 20
87.6973
 30
0.0
 10
-167.7581
 20
112.5477
 30
0.0
 10
-167.7581
 20
112.5477
 30
0.0
 10
-167.7581
 20
112.5477
 30
0.0
 10
-167.7581
 20
112.5477
 30
0.0
 10
-183.99
 20
112.5477
 30
0.0
 10
-183.99
 20
112.5477
 30
0.0
 10
-183.99
 20
112.5477
 30
0.0
 10
-183.99
 20
112.5477
 30
0.0
 10
-183.99
 20
87.6973
 30
0.0
 10
-183.99
 20
87.6973
 30
0.0
  0
SPLINE
  5
4A
330
1F
100
AcDbEntity
  8
layer 1
 62
     7
100
AcDbSpline
210
0.0
220
0.0
230
1.0
 70
    11
 71
     3
 72
    20
 73
    16
 74
     0
 42
0.0000000001
 43
0.0000000001
 12
1.0
 22
0.0
 32
0.0
 13
1.0
 23
0.0
 33
0.0
 40
0.0
 40
0.0
 40
0.0
 40
0.0
 40
0.2
 40
0.2
 40
0.2
 40
0.2
 40
0.4
 40
0.4
 40
0.4
 40
0.4
 40
0.6
 40
0.6
 40
0.6
 40
0.6
 40
1.0
 40
1.0
 40
1.0
 40
1.0
 10
-156.8016
 20
28.5408
 30
0.0
 10
-157.1409
 20
33.1376
 30
0.0
 10
-159.6788
 20
35.2323
 30
0.0
 10
-163.9959
 20
35.3812
 30
0.0
 10
-163.9959
 20
35.3812
 30
0.0
 10
-163.9959
 20
35.3812
 30
0.0
 10
-163.9959
 20
21.64
 30
0.0
 10
-163.9959
 20
21.64
 30
0.0
 10
-163.9959
 20
21.64
 30
0.0
 10
-163.9959
 20
21.64
 30
0.0
 10
-149.9636
 20
21.64
 30
0.0
 10
-149.9636
 20
21.64
 30
0.0
 10
-149.9636
 20
21.64
 30
0.0
 10
-149.9728
 20
25.9797
 30
0.0
 10
-152.4011
 20
28.4604
 30
0.0
 10
-156.8016
 20
28.5408
 30
0.0
  0
SPLINE
  5
4B
330
1F
100
AcDbEntity
  8
layer 1
 62
     7
100
AcDbSpline
210
0.0
220
0.0
230
1.0
 70
    11
 71
     3
 72
    36
 73
    32
 74
     0
 42
0.0000000001
 43
0.0000000001
 12
1.0
 22
0.0
 32
0.0
 13
1.0
 23
0.0
 33
0.0
 40
0.0
 40
0.0
 40
0.0
 40
0.0
 40
0.1111111111111111
 40
0.1111111111111111
 40
0.1111111111111111
 40
0.1111111111111111
 40
0.2222222222222222
 40
0.2222222222222222
 40
0.2222222222222222
 40
0.2222222222222222
 40
0.3333333333333333
 40
0.3333333333333333
 40
0.3333333333333333
 40
0.3333333333333333
 40
0.4444444444444444
 40
0.4444444444444444
 40
0.4444444444444444
 40
0.4444444444444444
 40
0.5555555555555556
 40
0.5555555555555556
 40
0.5555555555555556
 40
0.5555555555555556
 40
0.6666666666666666
 40
0.6666666666666666
 40
0.6666666666666666
 40
0.6666666666666666
 40
0.7777777777777778
 40
0.7777777777777778
 40
0.7777777777777778
 40
0.7777777777777778
 40
1.0
 40
1.0
 40
1.0
 40
1.0
 10
-163.9959
 20
39.0634
 30
0.0
 10
-156.3383
 20
38.993
 30
0.0
 10
-153.8086
 20
33.9562
 30
0.0
 10
-153.471
 20
31.2192
 30
0.0
 10
-153.471
 20
31.2192
 30
0.0
 10
-150.8069
 20
31.6558
 30
0.0
 10
-146.2695
 20
28.8339
 30
0.0
 10
-146.2113
 20
21.64
 30
0.0
 10
-146.2113
 20
21.64
 30
0.0
 10
-146.2113
 20
21.64
 30
0.0
 10
-132.1987
 20
21.64
 30
0.0
 10
-132.1987
 20
21.64
 30
0.0
 10
-132.1987
 20
21.64
 30
0.0
 10
-132.1987
 20
21.64
 30
0.0
 10
-132.1987
 20
27.7951
 30
0.0
 10
-132.1987
 20
27.7951
 30
0.0
 10
-132.1987
 20
27.7951
 30
0.0
 10
-138.2152
 20
27.7175
 30
0.0
 10
-142.8082
 20
31.6955
 30
0.0
 10
-142.7241
 20
35.4211
 30
0.0
 10
-142.7241
 20
35.4211
 30
0.0
 10
-146.344
 20
36.1533
 30
0.0
 10
-149.7972
 20
38.5805
 30
0.0
 10
-149.9829
 20
45.2185
 30
0.0
 10
-149.9829
 20
45.2185
 30
0.0
 10
-149.9829
 20
45.2185
 30
0.0
 10
-163.9959
 20
45.2185
 30
0.0
 10
-163.9959
 20
45.2185
 30
0.0
 10
-163.9959
 20
45.2185
 30
0.0
 10
-163.9959
 20
45.2185
 30
0.0
 10
-163.9959
 20
39.0634
 30
0.0
 10
-163.9959
 20
39.0634
 30
0.0
  0
SPLINE
  5
4C
330
1F
100
AcDbEntity
  8
layer 1
 62
     7
100
AcDbSpline
210
0.0
220
0.0
230
1.0
 70
    11
 71
     3
 72
    20
 73
    16
 74
     0
 42
0.0000000001
 43
0.0000000001
 12
1.0
 22
0.0
 32
0.0
 13
1.0
 23
0.0
 33
0.0
 40
0.0
 40
0.0
 40
0.0
 40
0.0
 40
0.2
 40
0.2
 40
0.2
 40
0.2
 40
0.4
 40
0.4
 40
0.4
 40
0.4
 40
0.6
 40
0.6
 40
0.6
 40
0.6
 40
1.0
 40
1.0
 40
1.0
 40
1.0
 10
-139.393
 20
38.3183
 30
0.0
 10
-139.0877
 20
34.2856
 30
0.0
 10
-137.0287
 20
31.4336
 30
0.0
 10
-132.1987
 20
31.4771
 30
0.0
 10
-132.1987
 20
31.4771
 30
0.0
 10
-132.1987
 20
31.4771
 30
0.0
 10
-132.1987
 20
45.2185
 30
0.0
 10
-132.1987
 20
45.2185
 30
0.0
 10
-132.1987
 20
45.2185
 30
0.0
 10
-132.1987
 20
45.2185
 30
0.0
 10
-146.2313
 20
45.2185
 30
0.0
 10
-146.2313
 20
45.2185
 30
0.0
 10
-146.2313
 20
45.2185
 30
0.0
 10
-146.0969
 20
40.6146
 30
0.0
 10
-143.294
 20
38.3914
 30
0.0
 10
-139.393
 20
38.3183
 30
0.0
  0
SPLINE
  5
4D
330
1F
100
AcDbEntity
  8
layer 1
 62
     7
100
AcDbSpline
210
0.0
220
0.0
230
1.0
 70
    11
 71
     3
 72
    20
 73
    16
 74
     0
 42
0.0000000001
 43
0.0000000001
 12
1.0
 22
0.0
 32
0.0
 13
1.0
 23
0.0
 33
0.0
 40
0.0
 40
0.0
 40
0.0
 40
0.0
 40
0.2
 40
0.2
 40
0.2
 40
0.2
 40
0.4
 40
0.4
 40
0.4
 40
0.4
 40
0.6
 40
0.6
 40
0.6
 40
0.6
 40
1.0
 40
1.0
 40
1.0
 40
1.0
 10
-132.1987
 20
17.8779
 30
0.0
 10
-132.1987
 20
17.8779
 30
0.0
 10
-146.2157
 20
17.8779
 30
0.0
 10
-146.2157
 20
17.8779
 30
0.0
 10
-146.2157
 20
17.8779
 30
0.0
 10
-146.2157
 20
17.8779
 30
0.0
 10
-146.2157
 20
10.338
 30
0.0
 10
-146.2157
 20
10.338
 30
0.0
 10
-146.2157
 20
10.338
 30
0.0
 10
-146.2157
 20
10.338
 30
0.0
 10
-132.1987
 20
10.338
 30
0.0
 10
-132.1987
 20
10.338
 30
0.0
 10
-132.1987
 20
10.338
 30
0.0
 10
-132.1987
 20
10.338
 30
0.0
 10
-132.1987
 20
17.8779
 30
0.0
 10
-132.1987
 20
17.8779
 30
0.0
  0
SPLINE
  5
4E
330
1F
100
AcDbEntity
  8
layer 1
 62
     7
100
AcDbSpline
210
0.0
220
0.0
230
1.0
 70
    11
 71
     3
 72
    20
 73
    16
 74
     0
 42
0.0000000001
 43
0.0000000001
 12
1.0
 22
0.0
 32
0.0
 13
1.0
 23
0.0
 33
0.0
 40
0.0
 40
0.0
 40
0.0
 40
0.0
 40
0.2
 40
0.2
 40
0.2
 40
0.2
 40
0.4
 40
0.4
 40
0.4
 40
0.4
 40
0.6
 40
0.6
 40
0.6
 40
0.6
 40
1.0
 40
1.0
 40
1.0
 40
1.0
 10
-149.9781
 20
17.8779
 30
0.0
 10
-149.9781
 20
17.8779
 30
0.0
 10
-163.9959
 20
17.8779
 30
0.0
 10
-163.9959
 20
17.8779
 30
0.0
 10
-163.9959
 20
17.8779
 30
0.0
 10
-163.9959
 20
17.8779
 30
0.0
 10
-163.9959
 20
10.338
 30
0.0
 10
-163.9959
 20
10.338
 30
0.0
 10
-163.9959
 20
10.338
 30
0.0
 10
-163.9959
 20
10.338
 30
0.0
 10
-149.9781
 20
10.338
 30
0.0
 10
-149.9781
 20
10.338
 30
0.0
 10
-149.9781
 20
10.338
 30
0.0
 10
-149.9781
 20
10.338
 30
0.0
 10
-149.9781
 20
17.8779
 30
0.0
 10
-149.9781
 20
17.8779
 30
0.0
  0
SPLINE
  5
4F
330
1F
100
AcDbEntity
  8
layer 1
 62
     7
100
AcDbSpline
210
0.0
220
0.0
230
1.0
 70
    11
 71
     3
 72
    20
 73
    16
 74
     0
 42
0.0000000001
 43
0.0000000001
 12
1.0
 22
0.0
 32
0.0
 13
1.0
 23
0.0
 33
0.0
 40
0.0
 40
0.0
 40
0.0
 40
0.0
 40
0.2
 40
0.2
 40
0.2
 40
0.2
 40
0.4
 40
0.4
 40
0.4
 40
0.4
 40
0.6
 40
0.6
 40
0.6
 40
0.6
 40
1.0
 40
1.0
 40
1.0
 40
1.0
 10
-163.9959
 20
48.9809
 30
0.0
 10
-163.9959
 20
48.9809
 30
0.0
 10
-149.9781
 20
48.9809
 30
0.0
 10
-149.9781
 20
48.9809
 30
0.0
 10
-149.9781
 20
48.9809
 30
0.0
 10
-149.9781
 20
48.9809
 30
0.0
 10
-149.9781
 20
56.5942
 30
0.0
 10
-149.9781
 20
56.5942
 30
0.0
 10
-149.9781
 20
56.5942
 30
0.0
 10
-149.9781
 20
56.5942
 30
0.0
 10
-163.9959
 20
56.5942
 30
0.0
 10
-163.9959
 20
56.5942
 30
0.0
 10
-163.9959
 20
56.5942
 30
0.0
 10
-163.9959
 20
56.5942
 30
0.0
 10
-163.9959
 20
48.9809
 30
0.0
 10
-163.9959
 20
48.9809
 30
0.0
  0
SPLINE
  5
50
330
1F
100
AcDbEntity
  8
layer 1
 62
     7
100
AcDbSpline
210
0.0
220
0.0
230
1.0
 70
    11
 71
     3
 72
    20
 73
    16
 74
     0
 42
0.0000000001
 43
0.0000000001
 12
1.0
 22
0.0
 32
0.0
 13
1.0
 23
0.0
 33
0.0
 40
0.0
 40
0.0
 40
0.0
 40
0.0
 40
0.2
 40
0.2
 40
0.2
 40
0.2
 40
0.4
 40
0.4
 40
0.4
 40
0.4
 40
0.6
 40
0.6
 40
0.6
 40
0.6
 40
1.0
 40
1.0
 40
1.0
 40
1.0
 10
-132.1987
 20
48.9809
 30
0.0
 10
-132.1987
 20
48.9809
 30
0.0
 10
-132.1987
 20
74.0153
 30
0.0
 10
-132.1987
 20
74.0153
 30
0.0
 10
-132.1987
 20
74.0153
 30
0.0
 10
-132.1987
 20
74.0153
 30
0.0
 10
-146.2157
 20
74.0153
 30
0.0
 10
-146.2157
 20
74.0153
 30
0.0
 10
-146.2157
 20
74.0153
 30
0.0
 10
-146.2157
 20
74.0153
 30
0.0
 10
-146.2157
 20
48.9809
 30
0.0
 10
-146.2157
 20
48.9809
 30
0.0
 10
-146.2157
 20
48.9809
 30
0.0
 10
-146.2157
 20
48.9809
 30
0.0
 10
-132.1987
 20
48.9809
 30
0.0
 10
-132.1987
 20
48.9809
 30
0.0
  0
SPLINE
  5
51
330
1F
100
AcDbEntity
  8
layer 1
 62
     7
100
AcDbSpline
210
0.0
220
0.0
230
1.0
 70
    11
 71
     3
 72
    20
 73
    16
 74
     0
 42
0.0000000001
 43
0.0000000001
 12
1.0
 22
0.0
 32
0.0
 13
1.0
 23
0.0
 33
0.0
 40
0.0
 40
0.0
 40
0.0
 40
0.0
 40
0.2
 40
0.2
 40
0.2
 40
0.2
 40
0.4
 40
0.4
 40
0.4
 40
0.4
 40
0.6
 40
0.6
 40
0.6
 40
0.6
 40
1.0
 40
1.0
 40
1.0
 40
1.0
 10
-132.1987
 20
77.7779
 30
0.0
 10
-132.1987
 20
77.7779
 30
0.0
 10
-132.1987
 20
95.1268
 30
0.0
 10
-132.1987
 20
95.1268
 30
0.0
 10
-132.1987
 20
95.1268
 30
0.0
 10
-132.1987
 20
95.1268
 30
0.0
 10
-146.2157
 20
95.1268
 30
0.0
 10
-146.2157
 20
95.1268
 30
0.0
 10
-146.2157
 20
95.1268
 30
0.0
 10
-146.2157
 20
95.1268
 30
0.0
 10
-146.2157
 20
77.7779
 30
0.0
 10
-146.2157
 20
77.7779
 30
0.0
 10
-146.2157
 20
77.7779
 30
0.0
 10
-146.2157
 20
77.7779
 30
0.0
 10
-132.1987
 20
77.7779
 30
0.0
 10
-132.1987
 20
77.7779
 30
0.0
  0
SPLINE
  5
52
330
1F
100
AcDbEntity
  8
layer 1
 62
     7
100
AcDbSpline
210
0.0
220
0.0
230
1.0
 70
    11
 71
     3
 72
    20
 73
    16
 74
     0
 42
0.0000000001
 43
0.0000000001
 12
1.0
 22
0.0
 32
0.0
 13
1.0
 23
0.0
 33
0.0
 40
0.0
 40
0.0
 40
0.0
 40
0.0
 40
0.2
 40
0.2
 40
0.2
 40
0.2
 40
0.4
 40
0.4
 40
0.4
 40
0.4
 40
0.6
 40
0.6
 40
0.6
 40
0.6
 40
1.0
 40
1.0
 40
1.0
 40
1.0
 10
-149.9781
 20
60.3567
 30
0.0
 10
-149.9781
 20
60.3567
 30
0.0
 10
-149.9781
 20
74.0981
 30
0.0
 10
-149.9781
 20
74.0981
 30
0.0
 10
-149.9781
 20
74.0981
 30
0.0
 10
-153.9275
 20
73.7612
 30
0.0
 10
-156.8872
 20
72.1712
 30
0.0
 10
-157.172
 20
67.2569
 30
0.0
 10
-157.172
 20
67.2569
 30
0.0
 10
-161.1135
 20
67.1828
 30
0.0
 10
-163.712
 20
64.6356
 30
0.0
 10
-164.0106
 20
60.3567
 30
0.0
 10
-164.0106
 20
60.3567
 30
0.0
 10
-164.0106
 20
60.3567
 30
0.0
 10
-149.9781
 20
60.3567
 30
0.0
 10
-149.9781
 20
60.3567
 30
0.0
  0
SPLINE
  5
53
330
1F
100
AcDbEntity
  8
layer 1
 62
     7
100
AcDbSpline
210
0.0
220
0.0
230
1.0
 70
    11
 71
     3
 72
    20
 73
    16
 74
     0
 42
0.0000000001
 43
0.0000000001
 12
1.0
 22
0.0
 32
0.0
 13
1.0
 23
0.0
 33
0.0
 40
0.0
 40
0.0
 40
0.0
 40
0.0
 40
0.2
 40
0.2
 40
0.2
 40
0.2
 40
0.4
 40
0.4
 40
0.4
 40
0.4
 40
0.6
 40
0.6
 40
0.6
 40
0.6
 40
1.0
 40
1.0
 40
1.0
 40
1.0
 10
-149.9781
 20
87.6973
 30
0.0
 10
-149.9781
 20
87.6973
 30
0.0
 10
-149.9781
 20
95.1268
 30
0.0
 10
-149.9781
 20
95.1268
 30
0.0
 10
-149.9781
 20
95.1268
 30
0.0
 10
-149.9781
 20
95.1268
 30
0.0
 10
-163.9959
 20
95.1268
 30
0.0
 10
-163.9959
 20
95.1268
 30
0.0
 10
-163.9959
 20
95.1268
 30
0.0
 10
-163.9959
 20
95.1268
 30
0.0
 10
-163.9959
 20
87.6973
 30
0.0
 10
-163.9959
 20
87.6973
 30
0.0
 10
-163.9959
 20
87.6973
 30
0.0
 10
-163.9959
 20
87.6973
 30
0.0
 10
-149.9781
 20
87.6973
 30
0.0
 10
-149.9781
 20
87.6973
 30
0.0
  0
SPLINE
  5
54
330
1F
100
AcDbEntity
  8
layer 1
 62
     7
100
AcDbSpline
210
0.0
220
0.0
230
1.0
 70
    11
 71
     3
 72
    20
 73
    16
 74
     0
 42
0.0000000001
 43
0.0000000001
 12
1.0
 22
0.0
 32
0.0
 13
1.0
 23
0.0
 33
0.0
 40
0.0
 40
0.0
 40
0.0
 40
0.0
 40
0.2
 40
0.2
 40
0.2
 40
0.2
 40
0.4
 40
0.4
 40
0.4
 40
0.4
 40
0.6
 40
0.6
 40
0.6
 40
0.6
 40
1.0
 40
1.0
 40
1.0
 40
1.0
 10
-156.81
 20
105.7895
 30
0.0
 10
-157.1489
 20
110.2726
 30
0.0
 10
-159.6826
 20
112.2584
 30
0.0
 10
-163.9959
 20
112.63
 30
0.0
 10
-163.9959
 20
112.63
 30
0.0
 10
-163.9959
 20
112.63
 30
0.0
 10
-163.9959
 20
98.8892
 30
0.0
 10
-163.9959
 20
98.8892
 30
0.0
 10
-163.9959
 20
98.8892
 30
0.0
 10
-163.9959
 20
98.8892
 30
0.0
 10
-149.9719
 20
98.8892
 30
0.0
 10
-149.9719
 20
98.8892
 30
0.0
 10
-149.9719
 20
98.8892
 30
0.0
 10
-150.2701
 20
103.166
 30
0.0
 10
-152.9093
 20
105.7162
 30
0.0
 10
-156.81
 20
105.7895
 30
0.0
  0
SPLINE
  5
55
330
1F
100
AcDbEntity
  8
layer 1
 62
     7
100
AcDbSpline
210
0.0
220
0.0
230
1.0
 70
    11
 71
     3
 72
    20
 73
    16
 74
     0
 42
0.0000000001
 43
0.0000000001
 12
1.0
 22
0.0
 32
0.0
 13
1.0
 23
0.0
 33
0.0
 40
0.0
 40
0.0
 40
0.0
 40
0.0
 40
0.2
 40
0.2
 40
0.2
 40
0.2
 40
0.4
 40
0.4
 40
0.4
 40
0.4
 40
0.6
 40
0.6
 40
0.6
 40
0.6
 40
1.0
 40
1.0
 40
1.0
 40
1.0
 10
-183.99
 20
-99.3958
 30
0.0
 10
-183.99
 20
-99.3958
 30
0.0
 10
-167.7581
 20
-99.3958
 30
0.0
 10
-167.7581
 20
-99.3958
 30
0.0
 10
-167.7581
 20
-99.3958
 30
0.0
 10
-167.7581
 20
-99.3958
 30
0.0
 10
-167.7581
 20
-107.7673
 30
0.0
 10
-167.7581
 20
-107.7673
 30
0.0
 10
-167.7581
 20
-107.7673
 30
0.0
 10
-167.7581
 20
-107.7673
 30
0.0
 10
-183.99
 20
-107.7673
 30
0.0
 10
-183.99
 20
-107.7673
 30
0.0
 10
-183.99
 20
-107.7673
 30
0.0
 10
-183.99
 20
-107.7673
 30
0.0
 10
-183.99
 20
-99.3958
 30
0.0
 10
-183.99
 20
-99.3958
 30
0.0
  0
SPLINE
  5
56
330
1F
100
AcDbEntity
  8
layer 1
 62
     7
100
AcDbSpline
210
0.0
220
0.0
230
1.0
 70
    11
 71
     3
 72
    36
 73
    32
 74
     0
 42
0.0000000001
 43
0.0000000001
 12
1.0
 22
0.0
 32
0.0
 13
1.0
 23
0.0
 33
0.0
 40
0.0
 40
0.0
 40
0.0
 40
0.0
 40
0.1111111111111111
 40
0.1111111111111111
 40
0.1111111111111111
 40
0.1111111111111111
 40
0.2222222222222222
 40
0.2222222222222222
 40
0.2222222222222222
 40
0.2222222222222222
 40
0.3333333333333333
 40
0.3333333333333333
 40
0.3333333333333333
 40
0.3333333333333333
 40
0.4444444444444444
 40
0.4444444444444444
 40
0.4444444444444444
 40
0.4444444444444444
 40
0.5555555555555556
 40
0.5555555555555556
 40
0.5555555555555556
 40
0.5555555555555556
 40
0.6666666666666666
 40
0.6666666666666666
 40
0.6666666666666666
 40
0.6666666666666666
 40
0.7777777777777778
 40
0.7777777777777778
 40
0.7777777777777778
 40
0.7777777777777778
 40
1.0
 40
1.0
 40
1.0
 40
1.0
 10
-163.9959
 20
-107.7673
 30
0.0
 10
-163.9959
 20
-107.7673
 30
0.0
 10
-163.9959
 20
-99.3979
 30
0.0
 10
-163.9959
 20
-99.3979
 30
0.0
 10
-163.9959
 20
-99.3979
 30
0.0
 10
-157.2092
 20
-99.4597
 30
0.0
 10
-153.9803
 20
-96.0504
 30
0.0
 10
-153.6792
 20
-91.9477
 30
0.0
 10
-153.6792
 20
-91.9477
 30
0.0
 10
-149.8201
 20
-91.9967
 30
0.0
 10
-146.4057
 20
-87.9555
 30
0.0
 10
-146.2202
 20
-81.9749
 30
0.0
 10
-146.2202
 20
-81.9749
 30
0.0
 10
-146.2202
 20
-81.9749
 30
0.0
 10
-132.1987
 20
-81.9749
 30
0.0
 10
-132.1987
 20
-81.9749
 30
0.0
 10
-132.1987
 20
-81.9749
 30
0.0
 10
-132.1987
 20
-81.9749
 30
0.0
 10
-132.1987
 20
-88.1108
 30
0.0
 10
-132.1987
 20
-88.1108
 30
0.0
 10
-132.1987
 20
-88.1108
 30
0.0
 10
-137.977
 20
-88.2345
 30
0.0
 10
-142.5812
 20
-91.6804
 30
0.0
 10
-143.2142
 20
-96.4707
 30
0.0
 10
-143.2142
 20
-96.4707
 30
0.0
 10
-148.0507
 20
-98.0292
 30
0.0
 10
-149.9145
 20
-102.0082
 30
0.0
 10
-149.9846
 20
-107.7673
 30
0.0
 10
-149.9846
 20
-107.7673
 30
0.0
 10
-149.9846
 20
-107.7673
 30
0.0
 10
-163.9959
 20
-107.7673
 30
0.0
 10
-163.9959
 20
-107.7673
 30
0.0
  0
SPLINE
  5
57
330
1F
100
AcDbEntity
  8
layer 1
 62
     7
100
AcDbSpline
210
0.0
220
0.0
230
1.0
 70
    11
 71
     3
 72
    20
 73
    16
 74
     0
 42
0.0000000001
 43
0.0000000001
 12
1.0
 22
0.0
 32
0.0
 13
1.0
 23
0.0
 33
0.0
 40
0.0
 40
0.0
 40
0.0
 40
0.0
 40
0.2
 40
0.2
 40
0.2
 40
0.2
 40
0.4
 40
0.4
 40
0.4
 40
0.4
 40
0.6
 40
0.6
 40
0.6
 40
0.6
 40
1.0
 40
1.0
 40
1.0
 40
1.0
 10
-139.5502
 20
-99.5105
 30
0.0
 10
-139.1936
 20
-94.9708
 30
0.0
 10
-136.737
 20
-92.2715
 30
0.0
 10
-132.1987
 20
-91.809
 30
0.0
 10
-132.1987
 20
-91.809
 30
0.0
 10
-132.1987
 20
-91.809
 30
0.0
 10
-132.1987
 20
-107.7673
 30
0.0
 10
-132.1987
 20
-107.7673
 30
0.0
 10
-132.1987
 20
-107.7673
 30
0.0
 10
-132.1987
 20
-107.7673
 30
0.0
 10
-146.2299
 20
-107.7673
 30
0.0
 10
-146.2299
 20
-107.7673
 30
0.0
 10
-146.2299
 20
-107.7673
 30
0.0
 10
-146.0581
 20
-103.8653
 30
0.0
 10
-143.9201
 20
-99.631
 30
0.0
 10
-139.5502
 20
-99.5105
 30
0.0
  0
SPLINE
  5
58
330
1F
100
AcDbEntity
  8
layer 1
 62
     7
100
AcDbSpline
210
0.0
220
0.0
230
1.0
 70
    11
 71
     3
 72
    20
 73
    16
 74
     0
 42
0.0000000001
 43
0.0000000001
 12
1.0
 22
0.0
 32
0.0
 13
1.0
 23
0.0
 33
0.0
 40
0.0
 40
0.0
 40
0.0
 40
0.0
 40
0.2
 40
0.2
 40
0.2
 40
0.2
 40
0.4
 40
0.4
 40
0.4
 40
0.4
 40
0.6
 40
0.6
 40
0.6
 40
0.6
 40
1.0
 40
1.0
 40
1.0
 40
1.0
 10
-183.99
 20
6.5764
 30
0.0
 10
-183.99
 20
6.5764
 30
0.0
 10
-167.7581
 20
6.5764
 30
0.0
 10
-167.7581
 20
6.5764
 30
0.0
 10
-167.7581
 20
6.5764
 30
0.0
 10
-167.7581
 20
6.5764
 30
0.0
 10
-167.7581
 20
-18.3848
 30
0.0
 10
-167.7581
 20
-18.3848
 30
0.0
 10
-167.7581
 20
-18.3848
 30
0.0
 10
-167.7581
 20
-18.3848
 30
0.0
 10
-183.99
 20
-18.3848
 30
0.0
 10
-183.99
 20
-18.3848
 30
0.0
 10
-183.99
 20
-18.3848
 30
0.0
 10
-183.99
 20
-18.3848
 30
0.0
 10
-183.99
 20
6.5764
 30
0.0
 10
-183.99
 20
6.5764
 30
0.0
  0
SPLINE
  5
59
330
1F
100
AcDbEntity
  8
layer 1
 62
     7
100
AcDbSpline
210
0.0
220
0.0
230
1.0
 70
    11
 71
     3
 72
    20
 73
    16
 74
     0
 42
0.0000000001
 43
0.0000000001
 12
1.0
 22
0.0
 32
0.0
 13
1.0
 23
0.0
 33
0.0
 40
0.0
 40
0.0
 40
0.0
 40
0.0
 40
0.2
 40
0.2
 40
0.2
 40
0.2
 40
0.4
 40
0.4
 40
0.4
 40
0.4
 40
0.6
 40
0.6
 40
0.6
 40
0.6
 40
1.0
 40
1.0
 40
1.0
 40
1.0
 10
-183.99
 20
-22.1471
 30
0.0
 10
-183.99
 20
-22.1471
 30
0.0
 10
-167.7581
 20
-22.1471
 30
0.0
 10
-167.7581
 20
-22.1471
 30
0.0
 10
-167.7581
 20
-22.1471
 30
0.0
 10
-167.7581
 20
-22.1471
 30
0.0
 10
-167.7581
 20
-39.6798
 30
0.0
 10
-167.7581
 20
-39.6798
 30
0.0
 10
-167.7581
 20
-39.6798
 30
0.0
 10
-167.7581
 20
-39.6798
 30
0.0
 10
-183.99
 20
-39.6798
 30
0.0
 10
-183.99
 20
-39.6798
 30
0.0
 10
-183.99
 20
-39.6798
 30
0.0
 10
-183.99
 20
-39.6798
 30
0.0
 10
-183.99
 20
-22.1471
 30
0.0
 10
-183.99
 20
-22.1471
 30
0.0
  0
SPLINE
  5
5A
330
1F
100
AcDbEntity
  8
layer 1
 62
     7
100
AcDbSpline
210
0.0
220
0.0
230
1.0
 70
    11
 71
     3
 72
    36
 73
    32
 74
     0
 42
0.0000000001
 43
0.0000000001
 12
1.0
 22
0.0
 32
0.0
 13
1.0
 23
0.0
 33
0.0
 40
0.0
 40
0.0
 40
0.0
 40
0.0
 40
0.1111111111111111
 40
0.1111111111111111
 40
0.1111111111111111
 40
0.1111111111111111
 40
0.2222222222222222
 40
0.2222222222222222
 40
0.2222222222222222
 40
0.2222222222222222
 40
0.3333333333333333
 40
0.3333333333333333
 40
0.3333333333333333
 40
0.3333333333333333
 40
0.4444444444444444
 40
0.4444444444444444
 40
0.4444444444444444
 40
0.4444444444444444
 40
0.5555555555555556
 40
0.5555555555555556
 40
0.5555555555555556
 40
0.5555555555555556
 40
0.6666666666666666
 40
0.6666666666666666
 40
0.6666666666666666
 40
0.6666666666666666
 40
0.7777777777777778
 40
0.7777777777777778
 40
0.7777777777777778
 40
0.7777777777777778
 40
1.0
 40
1.0
 40
1.0
 40
1.0
 10
-183.99
 20
-43.4423
 30
0.0
 10
-183.99
 20
-43.4423
 30
0.0
 10
-167.7625
 20
-43.4423
 30
0.0
 10
-167.7625
 20
-43.4423
 30
0.0
 10
-167.7625
 20
-43.4423
 30
0.0
 10
-167.5868
 20
-49.0992
 30
0.0
 10
-164.4683
 20
-53.0134
 30
0.0
 10
-160.5695
 20
-53.024
 30
0.0
 10
-160.5695
 20
-53.024
 30
0.0
 10
-160.3625
 20
-56.5134
 30
0.0
 10
-157.4805
 20
-60.7168
 30
0.0
 10
-149.9781
 20
-60.866
 30
0.0
 10
-149.9781
 20
-60.866
 30
0.0
 10
-149.9781
 20
-60.866
 30
0.0
 10
-149.9781
 20
-67.0202
 30
0.0
 10
-149.9781
 20
-67.0202
 30
0.0
 10
-149.9781
 20
-67.0202
 30
0.0
 10
-149.9781
 20
-67.0202
 30
0.0
 10
-163.9884
 20
-67.0202
 30
0.0
 10
-163.9884
 20
-67.0202
 30
0.0
 10
-163.9884
 20
-67.0202
 30
0.0
 10
-164.1652
 20
-61.1073
 30
0.0
 10
-167.5876
 20
-56.7241
 30
0.0
 10
-172.6833
 20
-56.1216
 30
0.0
 10
-172.6833
 20
-56.1216
 30
0.0
 10
-173.2584
 20
-51.4775
 30
0.0
 10
-178.7952
 20
-49.5763
 30
0.0
 10
-183.99
 20
-49.6051
 30
0.0
 10
-183.99
 20
-49.6051
 30
0.0
 10
-183.99
 20
-49.6051
 30
0.0
 10
-183.99
 20
-43.4423
 30
0.0
 10
-183.99
 20
-43.4423
 30
0.0
  0
SPLINE
  5
5B
330
1F
100
AcDbEntity
  8
layer 1
 62
     7
100
AcDbSpline
210
0.0
220
0.0
230
1.0
 70
    11
 71
     3
 72
    20
 73
    16
 74
     0
 42
0.0000000001
 43
0.0000000001
 12
1.0
 22
0.0
 32
0.0
 13
1.0
 23
0.0
 33
0.0
 40
0.0
 40
0.0
 40
0.0
 40
0.0
 40
0.2
 40
0.2
 40
0.2
 40
0.2
 40
0.4
 40
0.4
 40
0.4
 40
0.4
 40
0.6
 40
0.6
 40
0.6
 40
0.6
 40
1.0
 40
1.0
 40
1.0
 40
1.0
 10
-175.6587
 20
-59.4407
 30
0.0
 10
-171.2225
 20
-59.5485
 30
0.0
 10
-168.1046
 20
-62.7241
 30
0.0
 10
-167.7389
 20
-67.0202
 30
0.0
 10
-167.7389
 20
-67.0202
 30
0.0
 10
-167.7389
 20
-67.0202
 30
0.0
 10
-183.99
 20
-67.0202
 30
0.0
 10
-183.99
 20
-67.0202
 30
0.0
 10
-183.99
 20
-67.0202
 30
0.0
 10
-183.99
 20
-67.0202
 30
0.0
 10
-183.99
 20
-53.3071
 30
0.0
 10
-183.99
 20
-53.3071
 30
0.0
 10
-183.99
 20
-53.3071
 30
0.0
 10
-179.1485
 20
-53.3537
 30
0.0
 10
-176.0319
 20
-55.267
 30
0.0
 10
-175.6587
 20
-59.4407
 30
0.0
  0
SPLINE
  5
5C
330
1F
100
AcDbEntity
  8
layer 1
 62
     7
100
AcDbSpline
210
0.0
220
0.0
230
1.0
 70
    11
 71
     3
 72
    20
 73
    16
 74
     0
 42
0.0000000001
 43
0.0000000001
 12
1.0
 22
0.0
 32
0.0
 13
1.0
 23
0.0
 33
0.0
 40
0.0
 40
0.0
 40
0.0
 40
0.0
 40
0.2
 40
0.2
 40
0.2
 40
0.2
 40
0.4
 40
0.4
 40
0.4
 40
0.4
 40
0.6
 40
0.6
 40
0.6
 40
0.6
 40
1.0
 40
1.0
 40
1.0
 40
1.0
 10
-183.99
 20
-70.7829
 30
0.0
 10
-183.99
 20
-70.7829
 30
0.0
 10
-167.7581
 20
-70.7829
 30
0.0
 10
-167.7581
 20
-70.7829
 30
0.0
 10
-167.7581
 20
-70.7829
 30
0.0
 10
-167.7581
 20
-70.7829
 30
0.0
 10
-167.7581
 20
-95.6333
 30
0.0
 10
-167.7581
 20
-95.6333
 30
0.0
 10
-167.7581
 20
-95.6333
 30
0.0
 10
-167.7581
 20
-95.6333
 30
0.0
 10
-183.99
 20
-95.6333
 30
0.0
 10
-183.99
 20
-95.6333
 30
0.0
 10
-183.99
 20
-95.6333
 30
0.0
 10
-183.99
 20
-95.6333
 30
0.0
 10
-183.99
 20
-70.7829
 30
0.0
 10
-183.99
 20
-70.7829
 30
0.0
  0
SPLINE
  5
5D
330
1F
100
AcDbEntity
  8
layer 1
 62
     7
100
AcDbSpline
210
0.0
220
0.0
230
1.0
 70
    11
 71
     3
 72
    20
 73
    16
 74
     0
 42
0.0000000001
 43
0.0000000001
 12
1.0
 22
0.0
 32
0.0
 13
1.0
 23
0.0
 33
0.0
 40
0.0
 40
0.0
 40
0.0
 40
0.0
 40
0.2
 40
0.2
 40
0.2
 40
0.2
 40
0.4
 40
0.4
 40
0.4
 40
0.4
 40
0.6
 40
0.6
 40
0.6
 40
0.6
 40
1.0
 40
1.0
 40
1.0
 40
1.0
 10
-156.8016
 20
-11.6264
 30
0.0
 10
-157.1409
 20
-16.2232
 30
0.0
 10
-159.6788
 20
-18.3179
 30
0.0
 10
-163.9959
 20
-18.4669
 30
0.0
 10
-163.9959
 20
-18.4669
 30
0.0
 10
-163.9959
 20
-18.4669
 30
0.0
 10
-163.9959
 20
-4.7256
 30
0.0
 10
-163.9959
 20
-4.7256
 30
0.0
 10
-163.9959
 20
-4.7256
 30
0.0
 10
-163.9959
 20
-4.7256
 30
0.0
 10
-149.9636
 20
-4.7256
 30
0.0
 10
-149.9636
 20
-4.7256
 30
0.0
 10
-149.9636
 20
-4.7256
 30
0.0
 10
-149.9728
 20
-9.0653
 30
0.0
 10
-152.4011
 20
-11.546
 30
0.0
 10
-156.8016
 20
-11.6264
 30
0.0
  0
SPLINE
  5
5E
330
1F
100
AcDbEntity
  8
layer 1
 62
     7
100
AcDbSpline
210
0.0
220
0.0
230
1.0
 70
    11
 71
     3
 72
    36
 73
    32
 74
     0
 42
0.0000000001
 43
0.0000000001
 12
1.0
 22
0.0
 32
0.0
 13
1.0
 23
0.0
 33
0.0
 40
0.0
 40
0.0
 40
0.0
 40
0.0
 40
0.1111111111111111
 40
0.1111111111111111
 40
0.1111111111111111
 40
0.1111111111111111
 40
0.2222222222222222
 40
0.2222222222222222
 40
0.2222222222222222
 40
0.2222222222222222
 40
0.3333333333333333
 40
0.3333333333333333
 40
0.3333333333333333
 40
0.3333333333333333
 40
0.4444444444444444
 40
0.4444444444444444
 40
0.4444444444444444
 40
0.4444444444444444
 40
0.5555555555555556
 40
0.5555555555555556
 40
0.5555555555555556
 40
0.5555555555555556
 40
0.6666666666666666
 40
0.6666666666666666
 40
0.6666666666666666
 40
0.6666666666666666
 40
0.7777777777777778
 40
0.7777777777777778
 40
0.7777777777777778
 40
0.7777777777777778
 40
1.0
 40
1.0
 40
1.0
 40
1.0
 10
-163.9959
 20
-22.149
 30
0.0
 10
-156.3383
 20
-22.0786
 30
0.0
 10
-153.8086
 20
-17.0418
 30
0.0
 10
-153.471
 20
-14.3048
 30
0.0
 10
-153.471
 20
-14.3048
 30
0.0
 10
-150.8069
 20
-14.7415
 30
0.0
 10
-146.2695
 20
-11.9195
 30
0.0
 10
-146.2113
 20
-4.7256
 30
0.0
 10
-146.2113
 20
-4.7256
 30
0.0
 10
-146.2113
 20
-4.7256
 30
0.0
 10
-132.1987
 20
-4.7256
 30
0.0
 10
-132.1987
 20
-4.7256
 30
0.0
 10
-132.1987
 20
-4.7256
 30
0.0
 10
-132.1987
 20
-4.7256
 30
0.0
 10
-132.1987
 20
-10.8807
 30
0.0
 10
-132.1987
 20
-10.8807
 30
0.0
 10
-132.1987
 20
-10.8807
 30
0.0
 10
-138.2152
 20
-10.8031
 30
0.0
 10
-142.8082
 20
-14.7811
 30
0.0
 10
-142.7241
 20
-18.5068
 30
0.0
 10
-142.7241
 20
-18.5068
 30
0.0
 10
-146.344
 20
-19.2389
 30
0.0
 10
-149.7972
 20
-21.6661
 30
0.0
 10
-149.9829
 20
-28.3042
 30
0.0
 10
-149.9829
 20
-28.3042
 30
0.0
 10
-149.9829
 20
-28.3042
 30
0.0
 10
-163.9959
 20
-28.3042
 30
0.0
 10
-163.9959
 20
-28.3042
 30
0.0
 10
-163.9959
 20
-28.3042
 30
0.0
 10
-163.9959
 20
-28.3042
 30
0.0
 10
-163.9959
 20
-22.149
 30
0.0
 10
-163.9959
 20
-22.149
 30
0.0
  0
SPLINE
  5
5F
330
1F
100
AcDbEntity
  8
layer 1
 62
     7
100
AcDbSpline
210
0.0
220
0.0
230
1.0
 70
    11
 71
     3
 72
    20
 73
    16
 74
     0
 42
0.0000000001
 43
0.0000000001
 12
1.0
 22
0.0
 32
0.0
 13
1.0
 23
0.0
 33
0.0
 40
0.0
 40
0.0
 40
0.0
 40
0.0
 40
0.2
 40
0.2
 40
0.2
 40
0.2
 40
0.4
 40
0.4
 40
0.4
 40
0.4
 40
0.6
 40
0.6
 40
0.6
 40
0.6
 40
1.0
 40
1.0
 40
1.0
 40
1.0
 10
-139.393
 20
-21.4039
 30
0.0
 10
-139.0877
 20
-17.3712
 30
0.0
 10
-137.0287
 20
-14.5192
 30
0.0
 10
-132.1987
 20
-14.5627
 30
0.0
 10
-132.1987
 20
-14.5627
 30
0.0
 10
-132.1987
 20
-14.5627
 30
0.0
 10
-132.1987
 20
-28.3042
 30
0.0
 10
-132.1987
 20
-28.3042
 30
0.0
 10
-132.1987
 20
-28.3042
 30
0.0
 10
-132.1987
 20
-28.3042
 30
0.0
 10
-146.2313
 20
-28.3042
 30
0.0
 10
-146.2313
 20
-28.3042
 30
0.0
 10
-146.2313
 20
-28.3042
 30
0.0
 10
-146.0969
 20
-23.7002
 30
0.0
 10
-143.294
 20
-21.4771
 30
0.0
 10
-139.393
 20
-21.4039
 30
0.0
  0
SPLINE
  5
60
330
1F
100
AcDbEntity
  8
layer 1
 62
     7
100
AcDbSpline
210
0.0
220
0.0
230
1.0
 70
    11
 71
     3
 72
    20
 73
    16
 74
     0
 42
0.0000000001
 43
0.0000000001
 12
1.0
 22
0.0
 32
0.0
 13
1.0
 23
0.0
 33
0.0
 40
0.0
 40
0.0
 40
0.0
 40
0.0
 40
0.2
 40
0.2
 40
0.2
 40
0.2
 40
0.4
 40
0.4
 40
0.4
 40
0.4
 40
0.6
 40
0.6
 40
0.6
 40
0.6
 40
1.0
 40
1.0
 40
1.0
 40
1.0
 10
-132.1987
 20
-0.9635
 30
0.0
 10
-132.1987
 20
-0.9635
 30
0.0
 10
-146.2157
 20
-0.9635
 30
0.0
 10
-146.2157
 20
-0.9635
 30
0.0
 10
-146.2157
 20
-0.9635
 30
0.0
 10
-146.2157
 20
-0.9635
 30
0.0
 10
-146.2157
 20
6.5764
 30
0.0
 10
-146.2157
 20
6.5764
 30
0.0
 10
-146.2157
 20
6.5764
 30
0.0
 10
-146.2157
 20
6.5764
 30
0.0
 10
-132.1987
 20
6.5764
 30
0.0
 10
-132.1987
 20
6.5764
 30
0.0
 10
-132.1987
 20
6.5764
 30
0.0
 10
-132.1987
 20
6.5764
 30
0.0
 10
-132.1987
 20
-0.9635
 30
0.0
 10
-132.1987
 20
-0.9635
 30
0.0
  0
SPLINE
  5
61
330
1F
100
AcDbEntity
  8
layer 1
 62
     7
100
AcDbSpline
210
0.0
220
0.0
230
1.0
 70
    11
 71
     3
 72
    20
 73
    16
 74
     0
 42
0.0000000001
 43
0.0000000001
 12
1.0
 22
0.0
 32
0.0
 13
1.0
 23
0.0
 33
0.0
 40
0.0
 40
0.0
 40
0.0
 40
0.0
 40
0.2
 40
0.2
 40
0.2
 40
0.2
 40
0.4
 40
0.4
 40
0.4
 40
0.4
 40
0.6
 40
0.6
 40
0.6
 40
0.6
 40
1.0
 40
1.0
 40
1.0
 40
1.0
 10
-149.9781
 20
-0.9635
 30
0.0
 10
-149.9781
 20
-0.9635
 30
0.0
 10
-163.9959
 20
-0.9635
 30
0.0
 10
-163.9959
 20
-0.9635
 30
0.0
 10
-163.9959
 20
-0.9635
 30
0.0
 10
-163.9959
 20
-0.9635
 30
0.0
 10
-163.9959
 20
6.5764
 30
0.0
 10
-163.9959
 20
6.5764
 30
0.0
 10
-163.9959
 20
6.5764
 30
0.0
 10
-163.9959
 20
6.5764
 30
0.0
 10
-149.9781
 20
6.5764
 30
0.0
 10
-149.9781
 20
6.5764
 30
0.0
 10
-149.9781
 20
6.5764
 30
0.0
 10
-149.9781
 20
6.5764
 30
0.0
 10
-149.9781
 20
-0.9635
 30
0.0
 10
-149.9781
 20
-0.9635
 30
0.0
  0
SPLINE
  5
62
330
1F
100
AcDbEntity
  8
layer 1
 62
     7
100
AcDbSpline
210
0.0
220
0.0
230
1.0
 70
    11
 71
     3
 72
    20
 73
    16
 74
     0
 42
0.0000000001
 43
0.0000000001
 12
1.0
 22
0.0
 32
0.0
 13
1.0
 23
0.0
 33
0.0
 40
0.0
 40
0.0
 40
0.0
 40
0.0
 40
0.2
 40
0.2
 40
0.2
 40
0.2
 40
0.4
 40
0.4
 40
0.4
 40
0.4
 40
0.6
 40
0.6
 40
0.6
 40
0.6
 40
1.0
 40
1.0
 40
1.0
 40
1.0
 10
-163.9959
 20
-32.0665
 30
0.0
 10
-163.9959
 20
-32.0665
 30
0.0
 10
-149.9781
 20
-32.0665
 30
0.0
 10
-149.9781
 20
-32.0665
 30
0.0
 10
-149.9781
 20
-32.0665
 30
0.0
 10
-149.9781
 20
-32.0665
 30
0.0
 10
-149.9781
 20
-39.6798
 30
0.0
 10
-149.9781
 20
-39.6798
 30
0.0
 10
-149.9781
 20
-39.6798
 30
0.0
 10
-149.9781
 20
-39.6798
 30
0.0
 10
-163.9959
 20
-39.6798
 30
0.0
 10
-163.9959
 20
-39.6798
 30
0.0
 10
-163.9959
 20
-39.6798
 30
0.0
 10
-163.9959
 20
-39.6798
 30
0.0
 10
-163.9959
 20
-32.0665
 30
0.0
 10
-163.9959
 20
-32.0665
 30
0.0
  0
SPLINE
  5
63
330
1F
100
AcDbEntity
  8
layer 1
 62
     7
100
AcDbSpline
210
0.0
220
0.0
230
1.0
 70
    11
 71
     3
 72
    20
 73
    16
 74
     0
 42
0.0000000001
 43
0.0000000001
 12
1.0
 22
0.0
 32
0.0
 13
1.0
 23
0.0
 33
0.0
 40
0.0
 40
0.0
 40
0.0
 40
0.0
 40
0.2
 40
0.2
 40
0.2
 40
0.2
 40
0.4
 40
0.4
 40
0.4
 40
0.4
 40
0.6
 40
0.6
 40
0.6
 40
0.6
 40
1.0
 40
1.0
 40
1.0
 40
1.0
 10
-132.1987
 20
-32.0665
 30
0.0
 10
-132.1987
 20
-32.0665
 30
0.0
 10
-132.1987
 20
-57.1009
 30
0.0
 10
-132.1987
 20
-57.1009
 30
0.0
 10
-132.1987
 20
-57.1009
 30
0.0
 10
-132.1987
 20
-57.1009
 30
0.0
 10
-146.2157
 20
-57.1009
 30
0.0
 10
-146.2157
 20
-57.1009
 30
0.0
 10
-146.2157
 20
-57.1009
 30
0.0
 10
-146.2157
 20
-57.1009
 30
0.0
 10
-146.2157
 20
-32.0665
 30
0.0
 10
-146.2157
 20
-32.0665
 30
0.0
 10
-146.2157
 20
-32.0665
 30
0.0
 10
-146.2157
 20
-32.0665
 30
0.0
 10
-132.1987
 20
-32.0665
 30
0.0
 10
-132.1987
 20
-32.0665
 30
0.0
  0
SPLINE
  5
64
330
1F
100
AcDbEntity
  8
layer 1
 62
     7
100
AcDbSpline
210
0.0
220
0.0
230
1.0
 70
    11
 71
     3
 72
    20
 73
    16
 74
     0
 42
0.0000000001
 43
0.0000000001
 12
1.0
 22
0.0
 32
0.0
 13
1.0
 23
0.0
 33
0.0
 40
0.0
 40
0.0
 40
0.0
 40
0.0
 40
0.2
 40
0.2
 40
0.2
 40
0.2
 40
0.4
 40
0.4
 40
0.4
 40
0.4
 40
0.6
 40
0.6
 40
0.6
 40
0.6
 40
1.0
 40
1.0
 40
1.0
 40
1.0
 10
-132.1987
 20
-60.8635
 30
0.0
 10
-132.1987
 20
-60.8635
 30
0.0
 10
-132.1987
 20
-78.2124
 30
0.0
 10
-132.1987
 20
-78.2124
 30
0.0
 10
-132.1987
 20
-78.2124
 30
0.0
 10
-132.1987
 20
-78.2124
 30
0.0
 10
-146.2157
 20
-78.2124
 30
0.0
 10
-146.2157
 20
-78.2124
 30
0.0
 10
-146.2157
 20
-78.2124
 30
0.0
 10
-146.2157
 20
-78.2124
 30
0.0
 10
-146.2157
 20
-60.8635
 30
0.0
 10
-146.2157
 20
-60.8635
 30
0.0
 10
-146.2157
 20
-60.8635
 30
0.0
 10
-146.2157
 20
-60.8635
 30
0.0
 10
-132.1987
 20
-60.8635
 30
0.0
 10
-132.1987
 20
-60.8635
 30
0.0
  0
SPLINE
  5
65
330
1F
100
AcDbEntity
  8
layer 1
 62
     7
100
AcDbSpline
210
0.0
220
0.0
230
1.0
 70
    11
 71
     3
 72
    20
 73
    16
 74
     0
 42
0.0000000001
 43
0.0000000001
 12
1.0
 22
0.0
 32
0.0
 13
1.0
 23
0.0
 33
0.0
 40
0.0
 40
0.0
 40
0.0
 40
0.0
 40
0.2
 40
0.2
 40
0.2
 40
0.2
 40
0.4
 40
0.4
 40
0.4
 40
0.4
 40
0.6
 40
0.6
 40
0.6
 40
0.6
 40
1.0
 40
1.0
 40
1.0
 40
1.0
 10
-149.9781
 20
-43.4423
 30
0.0
 10
-149.9781
 20
-43.4423
 30
0.0
 10
-149.9781
 20
-57.1837
 30
0.0
 10
-149.9781
 20
-57.1837
 30
0.0
 10
-149.9781
 20
-57.1837
 30
0.0
 10
-153.9275
 20
-56.8468
 30
0.0
 10
-156.8872
 20
-55.2568
 30
0.0
 10
-157.172
 20
-50.3425
 30
0.0
 10
-157.172
 20
-50.3425
 30
0.0
 10
-161.1135
 20
-50.2684
 30
0.0
 10
-163.712
 20
-47.7212
 30
0.0
 10
-164.0106
 20
-43.4423
 30
0.0
 10
-164.0106
 20
-43.4423
 30
0.0
 10
-164.0106
 20
-43.4423
 30
0.0
 10
-149.9781
 20
-43.4423
 30
0.0
 10
-149.9781
 20
-43.4423
 30
0.0
  0
SPLINE
  5
66
330
1F
100
AcDbEntity
  8
layer 1
 62
     7
100
AcDbSpline
210
0.0
220
0.0
230
1.0
 70
    11
 71
     3
 72
    20
 73
    16
 74
     0
 42
0.0000000001
 43
0.0000000001
 12
1.0
 22
0.0
 32
0.0
 13
1.0
 23
0.0
 33
0.0
 40
0.0
 40
0.0
 40
0.0
 40
0.0
 40
0.2
 40
0.2
 40
0.2
 40
0.2
 40
0.4
 40
0.4
 40
0.4
 40
0.4
 40
0.6
 40
0.6
 40
0.6
 40
0.6
 40
1.0
 40
1.0
 40
1.0
 40
1.0
 10
-149.9781
 20
-70.7829
 30
0.0
 10
-149.9781
 20
-70.7829
 30
0.0
 10
-149.9781
 20
-78.2124
 30
0.0
 10
-149.9781
 20
-78.2124
 30
0.0
 10
-149.9781
 20
-78.2124
 30
0.0
 10
-149.9781
 20
-78.2124
 30
0.0
 10
-163.9959
 20
-78.2124
 30
0.0
 10
-163.9959
 20
-78.2124
 30
0.0
 10
-163.9959
 20
-78.2124
 30
0.0
 10
-163.9959
 20
-78.2124
 30
0.0
 10
-163.9959
 20
-70.7829
 30
0.0
 10
-163.9959
 20
-70.7829
 30
0.0
 10
-163.9959
 20
-70.7829
 30
0.0
 10
-163.9959
 20
-70.7829
 30
0.0
 10
-149.9781
 20
-70.7829
 30
0.0
 10
-149.9781
 20
-70.7829
 30
0.0
  0
SPLINE
  5
67
330
1F
100
AcDbEntity
  8
layer 1
 62
     7
100
AcDbSpline
210
0.0
220
0.0
230
1.0
 70
    11
 71
     3
 72
    20
 73
    16
 74
     0
 42
0.0000000001
 43
0.0000000001
 12
1.0
 22
0.0
 32
0.0
 13
1.0
 23
0.0
 33
0.0
 40
0.0
 40
0.0
 40
0.0
 40
0.0
 40
0.2
 40
0.2
 40
0.2
 40
0.2
 40
0.4
 40
0.4
 40
0.4
 40
0.4
 40
0.6
 40
0.6
 40
0.6
 40
0.6
 40
1.0
 40
1.0
 40
1.0
 40
1.0
 10
-156.81
 20
-88.8751
 30
0.0
 10
-157.1489
 20
-93.3582
 30
0.0
 10
-159.6826
 20
-95.344
 30
0.0
 10
-163.9959
 20
-95.7156
 30
0.0
 10
-163.9959
 20
-95.7156
 30
0.0
 10
-163.9959
 20
-95.7156
 30
0.0
 10
-163.9959
 20
-81.9749
 30
0.0
 10
-163.9959
 20
-81.9749
 30
0.0
 10
-163.9959
 20
-81.9749
 30
0.0
 10
-163.9959
 20
-81.9749
 30
0.0
 10
-149.9719
 20
-81.9749
 30
0.0
 10
-149.9719
 20
-81.9749
 30
0.0
 10
-149.9719
 20
-81.9749
 30
0.0
 10
-150.2701
 20
-86.2516
 30
0.0
 10
-152.9093
 20
-88.8018
 30
0.0
 10
-156.81
 20
-88.8751
 30
0.0
  0
SPLINE
  5
68
330
1F
100
AcDbEntity
  8
layer 1
 62
     7
100
AcDbSpline
210
0.0
220
0.0
230
1.0
 70
    11
 71
     3
 72
    20
 73
    16
 74
     0
 42
0.0000000001
 43
0.0000000001
 12
1.0
 22
0.0
 32
0.0
 13
1.0
 23
0.0
 33
0.0
 40
0.0
 40
0.0
 40
0.0
 40
0.0
 40
0.2
 40
0.2
 40
0.2
 40
0.2
 40
0.4
 40
0.4
 40
0.4
 40
0.4
 40
0.6
 40
0.6
 40
0.6
 40
0.6
 40
1.0
 40
1.0
 40
1.0
 40
1.0
 10
-76.6458
 20
116.3102
 30
0.0
 10
-76.6458
 20
116.3102
 30
0.0
 10
-92.8777
 20
116.3102
 30
0.0
 10
-92.8777
 20
116.3102
 30
0.0
 10
-92.8777
 20
116.3102
 30
0.0
 10
-92.8777
 20
116.3102
 30
0.0
 10
-92.8777
 20
124.6817
 30
0.0
 10
-92.8777
 20
124.6817
 30
0.0
 10
-92.8777
 20
124.6817
 30
0.0
 10
-92.8777
 20
124.6817
 30
0.0
 10
-76.6458
 20
124.6817
 30
0.0
 10
-76.6458
 20
124.6817
 30
0.0
 10
-76.6458
 20
124.6817
 30
0.0
 10
-76.6458
 20
124.6817
 30
0.0
 10
-76.6458
 20
116.3102
 30
0.0
 10
-76.6458
 20
116.3102
 30
0.0
  0
SPLINE
  5
69
330
1F
100
AcDbEntity
  8
layer 1
 62
     7
100
AcDbSpline
210
0.0
220
0.0
230
1.0
 70
    11
 71
     3
 72
    36
 73
    32
 74
     0
 42
0.0000000001
 43
0.0000000001
 12
1.0
 22
0.0
 32
0.0
 13
1.0
 23
0.0
 33
0.0
 40
0.0
 40
0.0
 40
0.0
 40
0.0
 40
0.1111111111111111
 40
0.1111111111111111
 40
0.1111111111111111
 40
0.1111111111111111
 40
0.2222222222222222
 40
0.2222222222222222
 40
0.2222222222222222
 40
0.2222222222222222
 40
0.3333333333333333
 40
0.3333333333333333
 40
0.3333333333333333
 40
0.3333333333333333
 40
0.4444444444444444
 40
0.4444444444444444
 40
0.4444444444444444
 40
0.4444444444444444
 40
0.5555555555555556
 40
0.5555555555555556
 40
0.5555555555555556
 40
0.5555555555555556
 40
0.6666666666666666
 40
0.6666666666666666
 40
0.6666666666666666
 40
0.6666666666666666
 40
0.7777777777777778
 40
0.7777777777777778
 40
0.7777777777777778
 40
0.7777777777777778
 40
1.0
 40
1.0
 40
1.0
 40
1.0
 10
-96.6399
 20
124.6817
 30
0.0
 10
-96.6399
 20
124.6817
 30
0.0
 10
-96.6399
 20
116.3123
 30
0.0
 10
-96.6399
 20
116.3123
 30
0.0
 10
-96.6399
 20
116.3123
 30
0.0
 10
-103.4266
 20
116.3741
 30
0.0
 10
-106.6555
 20
112.9648
 30
0.0
 10
-106.9566
 20
108.862
 30
0.0
 10
-106.9566
 20
108.862
 30
0.0
 10
-110.8157
 20
108.9111
 30
0.0
 10
-114.2301
 20
104.8699
 30
0.0
 10
-114.4156
 20
98.8892
 30
0.0
 10
-114.4156
 20
98.8892
 30
0.0
 10
-114.4156
 20
98.8892
 30
0.0
 10
-128.4371
 20
98.8892
 30
0.0
 10
-128.4371
 20
98.8892
 30
0.0
 10
-128.4371
 20
98.8892
 30
0.0
 10
-128.4371
 20
98.8892
 30
0.0
 10
-128.4371
 20
105.0252
 30
0.0
 10
-128.4371
 20
105.0252
 30
0.0
 10
-128.4371
 20
105.0252
 30
0.0
 10
-122.6589
 20
105.1489
 30
0.0
 10
-118.0547
 20
108.5948
 30
0.0
 10
-117.4216
 20
113.3851
 30
0.0
 10
-117.4216
 20
113.3851
 30
0.0
 10
-112.5852
 20
114.9436
 30
0.0
 10
-110.7213
 20
118.9226
 30
0.0
 10
-110.6513
 20
124.6817
 30
0.0
 10
-110.6513
 20
124.6817
 30
0.0
 10
-110.6513
 20
124.6817
 30
0.0
 10
-96.6399
 20
124.6817
 30
0.0
 10
-96.6399
 20
124.6817
 30
0.0
  0
SPLINE
  5
6A
330
1F
100
AcDbEntity
  8
layer 1
 62
     7
100
AcDbSpline
210
0.0
220
0.0
230
1.0
 70
    11
 71
     3
 72
    20
 73
    16
 74
     0
 42
0.0000000001
 43
0.0000000001
 12
1.0
 22
0.0
 32
0.0
 13
1.0
 23
0.0
 33
0.0
 40
0.0
 40
0.0
 40
0.0
 40
0.0
 40
0.2
 40
0.2
 40
0.2
 40
0.2
 40
0.4
 40
0.4
 40
0.4
 40
0.4
 40
0.6
 40
0.6
 40
0.6
 40
0.6
 40
1.0
 40
1.0
 40
1.0
 40
1.0
 10
-121.0858
 20
116.4249
 30
0.0
 10
-121.4423
 20
111.8852
 30
0.0
 10
-123.8989
 20
109.1859
 30
0.0
 10
-128.4371
 20
108.7234
 30
0.0
 10
-128.4371
 20
108.7234
 30
0.0
 10
-128.4371
 20
108.7234
 30
0.0
 10
-128.4371
 20
124.6817
 30
0.0
 10
-128.4371
 20
124.6817
 30
0.0
 10
-128.4371
 20
124.6817
 30
0.0
 10
-128.4371
 20
124.6817
 30
0.0
 10
-114.4059
 20
124.6817
 30
0.0
 10
-114.4059
 20
124.6817
 30
0.0
 10
-114.4059
 20
124.6817
 30
0.0
 10
-114.5776
 20
120.7797
 30
0.0
 10
-116.7158
 20
116.5454
 30
0.0
 10
-121.0858
 20
116.4249
 30
0.0
  0
SPLINE
  5
6B
330
1F
100
AcDbEntity
  8
layer 1
 62
     7
100
AcDbSpline
210
0.0
220
0.0
230
1.0
 70
    11
 71
     3
 72
    20
 73
    16
 74
     0
 42
0.0000000001
 43
0.0000000001
 12
1.0
 22
0.0
 32
0.0
 13
1.0
 23
0.0
 33
0.0
 40
0.0
 40
0.0
 40
0.0
 40
0.0
 40
0.2
 40
0.2
 40
0.2
 40
0.2
 40
0.4
 40
0.4
 40
0.4
 40
0.4
 40
0.6
 40
0.6
 40
0.6
 40
0.6
 40
1.0
 40
1.0
 40
1.0
 40
1.0
 10
-76.6458
 20
10.338
 30
0.0
 10
-76.6458
 20
10.338
 30
0.0
 10
-92.8777
 20
10.338
 30
0.0
 10
-92.8777
 20
10.338
 30
0.0
 10
-92.8777
 20
10.338
 30
0.0
 10
-92.8777
 20
10.338
 30
0.0
 10
-92.8777
 20
35.2992
 30
0.0
 10
-92.8777
 20
35.2992
 30
0.0
 10
-92.8777
 20
35.2992
 30
0.0
 10
-92.8777
 20
35.2992
 30
0.0
 10
-76.6458
 20
35.2992
 30
0.0
 10
-76.6458
 20
35.2992
 30
0.0
 10
-76.6458
 20
35.2992
 30
0.0
 10
-76.6458
 20
35.2992
 30
0.0
 10
-76.6458
 20
10.338
 30
0.0
 10
-76.6458
 20
10.338
 30
0.0
  0
SPLINE
  5
6C
330
1F
100
AcDbEntity
  8
layer 1
 62
     7
100
AcDbSpline
210
0.0
220
0.0
230
1.0
 70
    11
 71
     3
 72
    20
 73
    16
 74
     0
 42
0.0000000001
 43
0.0000000001
 12
1.0
 22
0.0
 32
0.0
 13
1.0
 23
0.0
 33
0.0
 40
0.0
 40
0.0
 40
0.0
 40
0.0
 40
0.2
 40
0.2
 40
0.2
 40
0.2
 40
0.4
 40
0.4
 40
0.4
 40
0.4
 40
0.6
 40
0.6
 40
0.6
 40
0.6
 40
1.0
 40
1.0
 40
1.0
 40
1.0
 10
-76.6458
 20
39.0615
 30
0.0
 10
-76.6458
 20
39.0615
 30
0.0
 10
-92.8777
 20
39.0615
 30
0.0
 10
-92.8777
 20
39.0615
 30
0.0
 10
-92.8777
 20
39.0615
 30
0.0
 10
-92.8777
 20
39.0615
 30
0.0
 10
-92.8777
 20
56.5942
 30
0.0
 10
-92.8777
 20
56.5942
 30
0.0
 10
-92.8777
 20
56.5942
 30
0.0
 10
-92.8777
 20
56.5942
 30
0.0
 10
-76.6458
 20
56.5942
 30
0.0
 10
-76.6458
 20
56.5942
 30
0.0
 10
-76.6458
 20
56.5942
 30
0.0
 10
-76.6458
 20
56.5942
 30
0.0
 10
-76.6458
 20
39.0615
 30
0.0
 10
-76.6458
 20
39.0615
 30
0.0
  0
SPLINE
  5
6D
330
1F
100
AcDbEntity
  8
layer 1
 62
     7
100
AcDbSpline
210
0.0
220
0.0
230
1.0
 70
    11
 71
     3
 72
    36
 73
    32
 74
     0
 42
0.0000000001
 43
0.0000000001
 12
1.0
 22
0.0
 32
0.0
 13
1.0
 23
0.0
 33
0.0
 40
0.0
 40
0.0
 40
0.0
 40
0.0
 40
0.1111111111111111
 40
0.1111111111111111
 40
0.1111111111111111
 40
0.1111111111111111
 40
0.2222222222222222
 40
0.2222222222222222
 40
0.2222222222222222
 40
0.2222222222222222
 40
0.3333333333333333
 40
0.3333333333333333
 40
0.3333333333333333
 40
0.3333333333333333
 40
0.4444444444444444
 40
0.4444444444444444
 40
0.4444444444444444
 40
0.4444444444444444
 40
0.5555555555555556
 40
0.5555555555555556
 40
0.5555555555555556
 40
0.5555555555555556
 40
0.6666666666666666
 40
0.6666666666666666
 40
0.6666666666666666
 40
0.6666666666666666
 40
0.7777777777777778
 40
0.7777777777777778
 40
0.7777777777777778
 40
0.7777777777777778
 40
1.0
 40
1.0
 40
1.0
 40
1.0
 10
-76.6458
 20
60.3567
 30
0.0
 10
-76.6458
 20
60.3567
 30
0.0
 10
-92.8733
 20
60.3567
 30
0.0
 10
-92.8733
 20
60.3567
 30
0.0
 10
-92.8733
 20
60.3567
 30
0.0
 10
-93.049
 20
66.0136
 30
0.0
 10
-96.1675
 20
69.9278
 30
0.0
 10
-100.0663
 20
69.9384
 30
0.0
 10
-100.0663
 20
69.9384
 30
0.0
 10
-100.2733
 20
73.4278
 30
0.0
 10
-103.1553
 20
77.6311
 30
0.0
 10
-110.6577
 20
77.7804
 30
0.0
 10
-110.6577
 20
77.7804
 30
0.0
 10
-110.6577
 20
77.7804
 30
0.0
 10
-110.6577
 20
83.9346
 30
0.0
 10
-110.6577
 20
83.9346
 30
0.0
 10
-110.6577
 20
83.9346
 30
0.0
 10
-110.6577
 20
83.9346
 30
0.0
 10
-96.6474
 20
83.9346
 30
0.0
 10
-96.6474
 20
83.9346
 30
0.0
 10
-96.6474
 20
83.9346
 30
0.0
 10
-96.4705
 20
78.0217
 30
0.0
 10
-93.0482
 20
73.6385
 30
0.0
 10
-87.9526
 20
73.0359
 30
0.0
 10
-87.9526
 20
73.0359
 30
0.0
 10
-87.3774
 20
68.3919
 30
0.0
 10
-81.8405
 20
66.4907
 30
0.0
 10
-76.6458
 20
66.5195
 30
0.0
 10
-76.6458
 20
66.5195
 30
0.0
 10
-76.6458
 20
66.5195
 30
0.0
 10
-76.6458
 20
60.3567
 30
0.0
 10
-76.6458
 20
60.3567
 30
0.0
  0
SPLINE
  5
6E
330
1F
100
AcDbEntity
  8
layer 1
 62
     7
100
AcDbSpline
210
0.0
220
0.0
230
1.0
 70
    11
 71
     3
 72
    20
 73
    16
 74
     0
 42
0.0000000001
 43
0.0000000001
 12
1.0
 22
0.0
 32
0.0
 13
1.0
 23
0.0
 33
0.0
 40
0.0
 40
0.0
 40
0.0
 40
0.0
 40
0.2
 40
0.2
 40
0.2
 40
0.2
 40
0.4
 40
0.4
 40
0.4
 40
0.4
 40
0.6
 40
0.6
 40
0.6
 40
0.6
 40
1.0
 40
1.0
 40
1.0
 40
1.0
 10
-84.9771
 20
76.3551
 30
0.0
 10
-89.4133
 20
76.4629
 30
0.0
 10
-92.5314
 20
79.6385
 30
0.0
 10
-92.8969
 20
83.9346
 30
0.0
 10
-92.8969
 20
83.9346
 30
0.0
 10
-92.8969
 20
83.9346
 30
0.0
 10
-76.6458
 20
83.9346
 30
0.0
 10
-76.6458
 20
83.9346
 30
0.0
 10
-76.6458
 20
83.9346
 30
0.0
 10
-76.6458
 20
83.9346
 30
0.0
 10
-76.6458
 20
70.2215
 30
0.0
 10
-76.6458
 20
70.2215
 30
0.0
 10
-76.6458
 20
70.2215
 30
0.0
 10
-81.4875
 20
70.2681
 30
0.0
 10
-84.6039
 20
72.1814
 30
0.0
 10
-84.9771
 20
76.3551
 30
0.0
  0
SPLINE
  5
6F
330
1F
100
AcDbEntity
  8
layer 1
 62
     7
100
AcDbSpline
210
0.0
220
0.0
230
1.0
 70
    11
 71
     3
 72
    20
 73
    16
 74
     0
 42
0.0000000001
 43
0.0000000001
 12
1.0
 22
0.0
 32
0.0
 13
1.0
 23
0.0
 33
0.0
 40
0.0
 40
0.0
 40
0.0
 40
0.0
 40
0.2
 40
0.2
 40
0.2
 40
0.2
 40
0.4
 40
0.4
 40
0.4
 40
0.4
 40
0.6
 40
0.6
 40
0.6
 40
0.6
 40
1.0
 40
1.0
 40
1.0
 40
1.0
 10
-76.6458
 20
87.6973
 30
0.0
 10
-76.6458
 20
87.6973
 30
0.0
 10
-92.8777
 20
87.6973
 30
0.0
 10
-92.8777
 20
87.6973
 30
0.0
 10
-92.8777
 20
87.6973
 30
0.0
 10
-92.8777
 20
87.6973
 30
0.0
 10
-92.8777
 20
112.5477
 30
0.0
 10
-92.8777
 20
112.5477
 30
0.0
 10
-92.8777
 20
112.5477
 30
0.0
 10
-92.8777
 20
112.5477
 30
0.0
 10
-76.6458
 20
112.5477
 30
0.0
 10
-76.6458
 20
112.5477
 30
0.0
 10
-76.6458
 20
112.5477
 30
0.0
 10
-76.6458
 20
112.5477
 30
0.0
 10
-76.6458
 20
87.6973
 30
0.0
 10
-76.6458
 20
87.6973
 30
0.0
  0
SPLINE
  5
70
330
1F
100
AcDbEntity
  8
layer 1
 62
     7
100
AcDbSpline
210
0.0
220
0.0
230
1.0
 70
    11
 71
     3
 72
    20
 73
    16
 74
     0
 42
0.0000000001
 43
0.0000000001
 12
1.0
 22
0.0
 32
0.0
 13
1.0
 23
0.0
 33
0.0
 40
0.0
 40
0.0
 40
0.0
 40
0.0
 40
0.2
 40
0.2
 40
0.2
 40
0.2
 40
0.4
 40
0.4
 40
0.4
 40
0.4
 40
0.6
 40
0.6
 40
0.6
 40
0.6
 40
1.0
 40
1.0
 40
1.0
 40
1.0
 10
-103.8342
 20
28.5408
 30
0.0
 10
-103.4948
 20
33.1376
 30
0.0
 10
-100.957
 20
35.2323
 30
0.0
 10
-96.6399
 20
35.3812
 30
0.0
 10
-96.6399
 20
35.3812
 30
0.0
 10
-96.6399
 20
35.3812
 30
0.0
 10
-96.6399
 20
21.64
 30
0.0
 10
-96.6399
 20
21.64
 30
0.0
 10
-96.6399
 20
21.64
 30
0.0
 10
-96.6399
 20
21.64
 30
0.0
 10
-110.6723
 20
21.64
 30
0.0
 10
-110.6723
 20
21.64
 30
0.0
 10
-110.6723
 20
21.64
 30
0.0
 10
-110.6629
 20
25.9797
 30
0.0
 10
-108.2346
 20
28.4604
 30
0.0
 10
-103.8342
 20
28.5408
 30
0.0
  0
SPLINE
  5
71
330
1F
100
AcDbEntity
  8
layer 1
 62
     7
100
AcDbSpline
210
0.0
220
0.0
230
1.0
 70
    11
 71
     3
 72
    36
 73
    32
 74
     0
 42
0.0000000001
 43
0.0000000001
 12
1.0
 22
0.0
 32
0.0
 13
1.0
 23
0.0
 33
0.0
 40
0.0
 40
0.0
 40
0.0
 40
0.0
 40
0.1111111111111111
 40
0.1111111111111111
 40
0.1111111111111111
 40
0.1111111111111111
 40
0.2222222222222222
 40
0.2222222222222222
 40
0.2222222222222222
 40
0.2222222222222222
 40
0.3333333333333333
 40
0.3333333333333333
 40
0.3333333333333333
 40
0.3333333333333333
 40
0.4444444444444444
 40
0.4444444444444444
 40
0.4444444444444444
 40
0.4444444444444444
 40
0.5555555555555556
 40
0.5555555555555556
 40
0.5555555555555556
 40
0.5555555555555556
 40
0.6666666666666666
 40
0.6666666666666666
 40
0.6666666666666666
 40
0.6666666666666666
 40
0.7777777777777778
 40
0.7777777777777778
 40
0.7777777777777778
 40
0.7777777777777778
 40
1.0
 40
1.0
 40
1.0
 40
1.0
 10
-96.6399
 20
39.0634
 30
0.0
 10
-104.2974
 20
38.993
 30
0.0
 10
-106.8272
 20
33.9562
 30
0.0
 10
-107.1649
 20
31.2192
 30
0.0
 10
-107.1649
 20
31.2192
 30
0.0
 10
-109.8289
 20
31.6558
 30
0.0
 10
-114.3663
 20
28.8339
 30
0.0
 10
-114.4246
 20
21.64
 30
0.0
 10
-114.4246
 20
21.64
 30
0.0
 10
-114.4246
 20
21.64
 30
0.0
 10
-128.4371
 20
21.64
 30
0.0
 10
-128.4371
 20
21.64
 30
0.0
 10
-128.4371
 20
21.64
 30
0.0
 10
-128.4371
 20
21.64
 30
0.0
 10
-128.4371
 20
27.7951
 30
0.0
 10
-128.4371
 20
27.7951
 30
0.0
 10
-128.4371
 20
27.7951
 30
0.0
 10
-122.4206
 20
27.7175
 30
0.0
 10
-117.8277
 20
31.6955
 30
0.0
 10
-117.9119
 20
35.4211
 30
0.0
 10
-117.9119
 20
35.4211
 30
0.0
 10
-114.2918
 20
36.1533
 30
0.0
 10
-110.8386
 20
38.5805
 30
0.0
 10
-110.6529
 20
45.2185
 30
0.0
 10
-110.6529
 20
45.2185
 30
0.0
 10
-110.6529
 20
45.2185
 30
0.0
 10
-96.6399
 20
45.2185
 30
0.0
 10
-96.6399
 20
45.2185
 30
0.0
 10
-96.6399
 20
45.2185
 30
0.0
 10
-96.6399
 20
45.2185
 30
0.0
 10
-96.6399
 20
39.0634
 30
0.0
 10
-96.6399
 20
39.0634
 30
0.0
  0
SPLINE
  5
72
330
1F
100
AcDbEntity
  8
layer 1
 62
     7
100
AcDbSpline
210
0.0
220
0.0
230
1.0
 70
    11
 71
     3
 72
    20
 73
    16
 74
     0
 42
0.0000000001
 43
0.0000000001
 12
1.0
 22
0.0
 32
0.0
 13
1.0
 23
0.0
 33
0.0
 40
0.0
 40
0.0
 40
0.0
 40
0.0
 40
0.2
 40
0.2
 40
0.2
 40
0.2
 40
0.4
 40
0.4
 40
0.4
 40
0.4
 40
0.6
 40
0.6
 40
0.6
 40
0.6
 40
1.0
 40
1.0
 40
1.0
 40
1.0
 10
-121.2428
 20
38.3183
 30
0.0
 10
-121.5481
 20
34.2856
 30
0.0
 10
-123.6071
 20
31.4336
 30
0.0
 10
-128.4371
 20
31.4771
 30
0.0
 10
-128.4371
 20
31.4771
 30
0.0
 10
-128.4371
 20
31.4771
 30
0.0
 10
-128.4371
 20
45.2185
 30
0.0
 10
-128.4371
 20
45.2185
 30
0.0
 10
-128.4371
 20
45.2185
 30
0.0
 10
-128.4371
 20
45.2185
 30
0.0
 10
-114.4045
 20
45.2185
 30
0.0
 10
-114.4045
 20
45.2185
 30
0.0
 10
-114.4045
 20
45.2185
 30
0.0
 10
-114.539
 20
40.6146
 30
0.0
 10
-117.3418
 20
38.3914
 30
0.0
 10
-121.2428
 20
38.3183
 30
0.0
  0
SPLINE
  5
73
330
1F
100
AcDbEntity
  8
layer 1
 62
     7
100
AcDbSpline
210
0.0
220
0.0
230
1.0
 70
    11
 71
     3
 72
    20
 73
    16
 74
     0
 42
0.0000000001
 43
0.0000000001
 12
1.0
 22
0.0
 32
0.0
 13
1.0
 23
0.0
 33
0.0
 40
0.0
 40
0.0
 40
0.0
 40
0.0
 40
0.2
 40
0.2
 40
0.2
 40
0.2
 40
0.4
 40
0.4
 40
0.4
 40
0.4
 40
0.6
 40
0.6
 40
0.6
 40
0.6
 40
1.0
 40
1.0
 40
1.0
 40
1.0
 10
-128.4371
 20
17.8779
 30
0.0
 10
-128.4371
 20
17.8779
 30
0.0
 10
-114.4201
 20
17.8779
 30
0.0
 10
-114.4201
 20
17.8779
 30
0.0
 10
-114.4201
 20
17.8779
 30
0.0
 10
-114.4201
 20
17.8779
 30
0.0
 10
-114.4201
 20
10.338
 30
0.0
 10
-114.4201
 20
10.338
 30
0.0
 10
-114.4201
 20
10.338
 30
0.0
 10
-114.4201
 20
10.338
 30
0.0
 10
-128.4371
 20
10.338
 30
0.0
 10
-128.4371
 20
10.338
 30
0.0
 10
-128.4371
 20
10.338
 30
0.0
 10
-128.4371
 20
10.338
 30
0.0
 10
-128.4371
 20
17.8779
 30
0.0
 10
-128.4371
 20
17.8779
 30
0.0
  0
SPLINE
  5
74
330
1F
100
AcDbEntity
  8
layer 1
 62
     7
100
AcDbSpline
210
0.0
220
0.0
230
1.0
 70
    11
 71
     3
 72
    20
 73
    16
 74
     0
 42
0.0000000001
 43
0.0000000001
 12
1.0
 22
0.0
 32
0.0
 13
1.0
 23
0.0
 33
0.0
 40
0.0
 40
0.0
 40
0.0
 40
0.0
 40
0.2
 40
0.2
 40
0.2
 40
0.2
 40
0.4
 40
0.4
 40
0.4
 40
0.4
 40
0.6
 40
0.6
 40
0.6
 40
0.6
 40
1.0
 40
1.0
 40
1.0
 40
1.0
 10
-110.6577
 20
17.8779
 30
0.0
 10
-110.6577
 20
17.8779
 30
0.0
 10
-96.6399
 20
17.8779
 30
0.0
 10
-96.6399
 20
17.8779
 30
0.0
 10
-96.6399
 20
17.8779
 30
0.0
 10
-96.6399
 20
17.8779
 30
0.0
 10
-96.6399
 20
10.338
 30
0.0
 10
-96.6399
 20
10.338
 30
0.0
 10
-96.6399
 20
10.338
 30
0.0
 10
-96.6399
 20
10.338
 30
0.0
 10
-110.6577
 20
10.338
 30
0.0
 10
-110.6577
 20
10.338
 30
0.0
 10
-110.6577
 20
10.338
 30
0.0
 10
-110.6577
 20
10.338
 30
0.0
 10
-110.6577
 20
17.8779
 30
0.0
 10
-110.6577
 20
17.8779
 30
0.0
  0
SPLINE
  5
75
330
1F
100
AcDbEntity
  8
layer 1
 62
     7
100
AcDbSpline
210
0.0
220
0.0
230
1.0
 70
    11
 71
     3
 72
    20
 73
    16
 74
     0
 42
0.0000000001
 43
0.0000000001
 12
1.0
 22
0.0
 32
0.0
 13
1.0
 23
0.0
 33
0.0
 40
0.0
 40
0.0
 40
0.0
 40
0.0
 40
0.2
 40
0.2
 40
0.2
 40
0.2
 40
0.4
 40
0.4
 40
0.4
 40
0.4
 40
0.6
 40
0.6
 40
0.6
 40
0.6
 40
1.0
 40
1.0
 40
1.0
 40
1.0
 10
-96.6399
 20
48.9809
 30
0.0
 10
-96.6399
 20
48.9809
 30
0.0
 10
-110.6577
 20
48.9809
 30
0.0
 10
-110.6577
 20
48.9809
 30
0.0
 10
-110.6577
 20
48.9809
 30
0.0
 10
-110.6577
 20
48.9809
 30
0.0
 10
-110.6577
 20
56.5942
 30
0.0
 10
-110.6577
 20
56.5942
 30
0.0
 10
-110.6577
 20
56.5942
 30
0.0
 10
-110.6577
 20
56.5942
 30
0.0
 10
-96.6399
 20
56.5942
 30
0.0
 10
-96.6399
 20
56.5942
 30
0.0
 10
-96.6399
 20
56.5942
 30
0.0
 10
-96.6399
 20
56.5942
 30
0.0
 10
-96.6399
 20
48.9809
 30
0.0
 10
-96.6399
 20
48.9809
 30
0.0
  0
SPLINE
  5
76
330
1F
100
AcDbEntity
  8
layer 1
 62
     7
100
AcDbSpline
210
0.0
220
0.0
230
1.0
 70
    11
 71
     3
 72
    20
 73
    16
 74
     0
 42
0.0000000001
 43
0.0000000001
 12
1.0
 22
0.0
 32
0.0
 13
1.0
 23
0.0
 33
0.0
 40
0.0
 40
0.0
 40
0.0
 40
0.0
 40
0.2
 40
0.2
 40
0.2
 40
0.2
 40
0.4
 40
0.4
 40
0.4
 40
0.4
 40
0.6
 40
0.6
 40
0.6
 40
0.6
 40
1.0
 40
1.0
 40
1.0
 40
1.0
 10
-128.4371
 20
48.9809
 30
0.0
 10
-128.4371
 20
48.9809
 30
0.0
 10
-128.4371
 20
74.0153
 30
0.0
 10
-128.4371
 20
74.0153
 30
0.0
 10
-128.4371
 20
74.0153
 30
0.0
 10
-128.4371
 20
74.0153
 30
0.0
 10
-114.4201
 20
74.0153
 30
0.0
 10
-114.4201
 20
74.0153
 30
0.0
 10
-114.4201
 20
74.0153
 30
0.0
 10
-114.4201
 20
74.0153
 30
0.0
 10
-114.4201
 20
48.9809
 30
0.0
 10
-114.4201
 20
48.9809
 30
0.0
 10
-114.4201
 20
48.9809
 30
0.0
 10
-114.4201
 20
48.9809
 30
0.0
 10
-128.4371
 20
48.9809
 30
0.0
 10
-128.4371
 20
48.9809
 30
0.0
  0
SPLINE
  5
77
330
1F
100
AcDbEntity
  8
layer 1
 62
     7
100
AcDbSpline
210
0.0
220
0.0
230
1.0
 70
    11
 71
     3
 72
    20
 73
    16
 74
     0
 42
0.0000000001
 43
0.0000000001
 12
1.0
 22
0.0
 32
0.0
 13
1.0
 23
0.0
 33
0.0
 40
0.0
 40
0.0
 40
0.0
 40
0.0
 40
0.2
 40
0.2
 40
0.2
 40
0.2
 40
0.4
 40
0.4
 40
0.4
 40
0.4
 40
0.6
 40
0.6
 40
0.6
 40
0.6
 40
1.0
 40
1.0
 40
1.0
 40
1.0
 10
-128.4371
 20
77.7779
 30
0.0
 10
-128.4371
 20
77.7779
 30
0.0
 10
-128.4371
 20
95.1268
 30
0.0
 10
-128.4371
 20
95.1268
 30
0.0
 10
-128.4371
 20
95.1268
 30
0.0
 10
-128.4371
 20
95.1268
 30
0.0
 10
-114.4201
 20
95.1268
 30
0.0
 10
-114.4201
 20
95.1268
 30
0.0
 10
-114.4201
 20
95.1268
 30
0.0
 10
-114.4201
 20
95.1268
 30
0.0
 10
-114.4201
 20
77.7779
 30
0.0
 10
-114.4201
 20
77.7779
 30
0.0
 10
-114.4201
 20
77.7779
 30
0.0
 10
-114.4201
 20
77.7779
 30
0.0
 10
-128.4371
 20
77.7779
 30
0.0
 10
-128.4371
 20
77.7779
 30
0.0
  0
SPLINE
  5
78
330
1F
100
AcDbEntity
  8
layer 1
 62
     7
100
AcDbSpline
210
0.0
220
0.0
230
1.0
 70
    11
 71
     3
 72
    20
 73
    16
 74
     0
 42
0.0000000001
 43
0.0000000001
 12
1.0
 22
0.0
 32
0.0
 13
1.0
 23
0.0
 33
0.0
 40
0.0
 40
0.0
 40
0.0
 40
0.0
 40
0.2
 40
0.2
 40
0.2
 40
0.2
 40
0.4
 40
0.4
 40
0.4
 40
0.4
 40
0.6
 40
0.6
 40
0.6
 40
0.6
 40
1.0
 40
1.0
 40
1.0
 40
1.0
 10
-110.6577
 20
60.3567
 30
0.0
 10
-110.6577
 20
60.3567
 30
0.0
 10
-110.6577
 20
74.0981
 30
0.0
 10
-110.6577
 20
74.0981
 30
0.0
 10
-110.6577
 20
74.0981
 30
0.0
 10
-106.7083
 20
73.7612
 30
0.0
 10
-103.7486
 20
72.1712
 30
0.0
 10
-103.4638
 20
67.2569
 30
0.0
 10
-103.4638
 20
67.2569
 30
0.0
 10
-99.5225
 20
67.1828
 30
0.0
 10
-96.9239
 20
64.6356
 30
0.0
 10
-96.6252
 20
60.3567
 30
0.0
 10
-96.6252
 20
60.3567
 30
0.0
 10
-96.6252
 20
60.3567
 30
0.0
 10
-110.6577
 20
60.3567
 30
0.0
 10
-110.6577
 20
60.3567
 30
0.0
  0
SPLINE
  5
79
330
1F
100
AcDbEntity
  8
layer 1
 62
     7
100
AcDbSpline
210
0.0
220
0.0
230
1.0
 70
    11
 71
     3
 72
    20
 73
    16
 74
     0
 42
0.0000000001
 43
0.0000000001
 12
1.0
 22
0.0
 32
0.0
 13
1.0
 23
0.0
 33
0.0
 40
0.0
 40
0.0
 40
0.0
 40
0.0
 40
0.2
 40
0.2
 40
0.2
 40
0.2
 40
0.4
 40
0.4
 40
0.4
 40
0.4
 40
0.6
 40
0.6
 40
0.6
 40
0.6
 40
1.0
 40
1.0
 40
1.0
 40
1.0
 10
-110.6577
 20
87.6973
 30
0.0
 10
-110.6577
 20
87.6973
 30
0.0
 10
-110.6577
 20
95.1268
 30
0.0
 10
-110.6577
 20
95.1268
 30
0.0
 10
-110.6577
 20
95.1268
 30
0.0
 10
-110.6577
 20
95.1268
 30
0.0
 10
-96.6399
 20
95.1268
 30
0.0
 10
-96.6399
 20
95.1268
 30
0.0
 10
-96.6399
 20
95.1268
 30
0.0
 10
-96.6399
 20
95.1268
 30
0.0
 10
-96.6399
 20
87.6973
 30
0.0
 10
-96.6399
 20
87.6973
 30
0.0
 10
-96.6399
 20
87.6973
 30
0.0
 10
-96.6399
 20
87.6973
 30
0.0
 10
-110.6577
 20
87.6973
 30
0.0
 10
-110.6577
 20
87.6973
 30
0.0
  0
SPLINE
  5
7A
330
1F
100
AcDbEntity
  8
layer 1
 62
     7
100
AcDbSpline
210
0.0
220
0.0
230
1.0
 70
    11
 71
     3
 72
    20
 73
    16
 74
     0
 42
0.0000000001
 43
0.0000000001
 12
1.0
 22
0.0
 32
0.0
 13
1.0
 23
0.0
 33
0.0
 40
0.0
 40
0.0
 40
0.0
 40
0.0
 40
0.2
 40
0.2
 40
0.2
 40
0.2
 40
0.4
 40
0.4
 40
0.4
 40
0.4
 40
0.6
 40
0.6
 40
0.6
 40
0.6
 40
1.0
 40
1.0
 40
1.0
 40
1.0
 10
-103.826
 20
105.7895
 30
0.0
 10
-103.4869
 20
110.2726
 30
0.0
 10
-100.9533
 20
112.2584
 30
0.0
 10
-96.6399
 20
112.63
 30
0.0
 10
-96.6399
 20
112.63
 30
0.0
 10
-96.6399
 20
112.63
 30
0.0
 10
-96.6399
 20
98.8892
 30
0.0
 10
-96.6399
 20
98.8892
 30
0.0
 10
-96.6399
 20
98.8892
 30
0.0
 10
-96.6399
 20
98.8892
 30
0.0
 10
-110.6639
 20
98.8892
 30
0.0
 10
-110.6639
 20
98.8892
 30
0.0
 10
-110.6639
 20
98.8892
 30
0.0
 10
-110.3657
 20
103.166
 30
0.0
 10
-107.7265
 20
105.7162
 30
0.0
 10
-103.826
 20
105.7895
 30
0.0
  0
SPLINE
  5
7B
330
1F
100
AcDbEntity
  8
layer 1
 62
     7
100
AcDbSpline
210
0.0
220
0.0
230
1.0
 70
    11
 71
     3
 72
    20
 73
    16
 74
     0
 42
0.0000000001
 43
0.0000000001
 12
1.0
 22
0.0
 32
0.0
 13
1.0
 23
0.0
 33
0.0
 40
0.0
 40
0.0
 40
0.0
 40
0.0
 40
0.2
 40
0.2
 40
0.2
 40
0.2
 40
0.4
 40
0.4
 40
0.4
 40
0.4
 40
0.6
 40
0.6
 40
0.6
 40
0.6
 40
1.0
 40
1.0
 40
1.0
 40
1.0
 10
-76.6458
 20
-99.3958
 30
0.0
 10
-76.6458
 20
-99.3958
 30
0.0
 10
-92.8777
 20
-99.3958
 30
0.0
 10
-92.8777
 20
-99.3958
 30
0.0
 10
-92.8777
 20
-99.3958
 30
0.0
 10
-92.8777
 20
-99.3958
 30
0.0
 10
-92.8777
 20
-107.7673
 30
0.0
 10
-92.8777
 20
-107.7673
 30
0.0
 10
-92.8777
 20
-107.7673
 30
0.0
 10
-92.8777
 20
-107.7673
 30
0.0
 10
-76.6458
 20
-107.7673
 30
0.0
 10
-76.6458
 20
-107.7673
 30
0.0
 10
-76.6458
 20
-107.7673
 30
0.0
 10
-76.6458
 20
-107.7673
 30
0.0
 10
-76.6458
 20
-99.3958
 30
0.0
 10
-76.6458
 20
-99.3958
 30
0.0
  0
SPLINE
  5
7C
330
1F
100
AcDbEntity
  8
layer 1
 62
     7
100
AcDbSpline
210
0.0
220
0.0
230
1.0
 70
    11
 71
     3
 72
    36
 73
    32
 74
     0
 42
0.0000000001
 43
0.0000000001
 12
1.0
 22
0.0
 32
0.0
 13
1.0
 23
0.0
 33
0.0
 40
0.0
 40
0.0
 40
0.0
 40
0.0
 40
0.1111111111111111
 40
0.1111111111111111
 40
0.1111111111111111
 40
0.1111111111111111
 40
0.2222222222222222
 40
0.2222222222222222
 40
0.2222222222222222
 40
0.2222222222222222
 40
0.3333333333333333
 40
0.3333333333333333
 40
0.3333333333333333
 40
0.3333333333333333
 40
0.4444444444444444
 40
0.4444444444444444
 40
0.4444444444444444
 40
0.4444444444444444
 40
0.5555555555555556
 40
0.5555555555555556
 40
0.5555555555555556
 40
0.5555555555555556
 40
0.6666666666666666
 40
0.6666666666666666
 40
0.6666666666666666
 40
0.6666666666666666
 40
0.7777777777777778
 40
0.7777777777777778
 40
0.7777777777777778
 40
0.7777777777777778
 40
1.0
 40
1.0
 40
1.0
 40
1.0
 10
-96.6399
 20
-107.7673
 30
0.0
 10
-96.6399
 20
-107.7673
 30
0.0
 10
-96.6399
 20
-99.3979
 30
0.0
 10
-96.6399
 20
-99.3979
 30
0.0
 10
-96.6399
 20
-99.3979
 30
0.0
 10
-103.4266
 20
-99.4597
 30
0.0
 10
-106.6555
 20
-96.0504
 30
0.0
 10
-106.9566
 20
-91.9477
 30
0.0
 10
-106.9566
 20
-91.9477
 30
0.0
 10
-110.8157
 20
-91.9967
 30
0.0
 10
-114.2301
 20
-87.9555
 30
0.0
 10
-114.4156
 20
-81.9749
 30
0.0
 10
-114.4156
 20
-81.9749
 30
0.0
 10
-114.4156
 20
-81.9749
 30
0.0
 10
-128.4371
 20
-81.9749
 30
0.0
 10
-128.4371
 20
-81.9749
 30
0.0
 10
-128.4371
 20
-81.9749
 30
0.0
 10
-128.4371
 20
-81.9749
 30
0.0
 10
-128.4371
 20
-88.1108
 30
0.0
 10
-128.4371
 20
-88.1108
 30
0.0
 10
-128.4371
 20
-88.1108
 30
0.0
 10
-122.6589
 20
-88.2345
 30
0.0
 10
-118.0547
 20
-91.6804
 30
0.0
 10
-117.4216
 20
-96.4707
 30
0.0
 10
-117.4216
 20
-96.4707
 30
0.0
 10
-112.5852
 20
-98.0292
 30
0.0
 10
-110.7213
 20
-102.0082
 30
0.0
 10
-110.6513
 20
-107.7673
 30
0.0
 10
-110.6513
 20
-107.7673
 30
0.0
 10
-110.6513
 20
-107.7673
 30
0.0
 10
-96.6399
 20
-107.7673
 30
0.0
 10
-96.6399
 20
-107.7673
 30
0.0
  0
SPLINE
  5
7D
330
1F
100
AcDbEntity
  8
layer 1
 62
     7
100
AcDbSpline
210
0.0
220
0.0
230
1.0
 70
    11
 71
     3
 72
    20
 73
    16
 74
     0
 42
0.0000000001
 43
0.0000000001
 12
1.0
 22
0.0
 32
0.0
 13
1.0
 23
0.0
 33
0.0
 40
0.0
 40
0.0
 40
0.0
 40
0.0
 40
0.2
 40
0.2
 40
0.2
 40
0.2
 40
0.4
 40
0.4
 40
0.4
 40
0.4
 40
0.6
 40
0.6
 40
0.6
 40
0.6
 40
1.0
 40
1.0
 40
1.0
 40
1.0
 10
-121.0858
 20
-99.5105
 30
0.0
 10
-121.4423
 20
-94.9708
 30
0.0
 10
-123.8989
 20
-92.2715
 30
0.0
 10
-128.4371
 20
-91.809
 30
0.0
 10
-128.4371
 20
-91.809
 30
0.0
 10
-128.4371
 20
-91.809
 30
0.0
 10
-128.4371
 20
-107.7673
 30
0.0
 10
-128.4371
 20
-107.7673
 30
0.0
 10
-128.4371
 20
-107.7673
 30
0.0
 10
-128.4371
 20
-107.7673
 30
0.0
 10
-114.4059
 20
-107.7673
 30
0.0
 10
-114.4059
 20
-107.7673
 30
0.0
 10
-114.4059
 20
-107.7673
 30
0.0
 10
-114.5776
 20
-103.8653
 30
0.0
 10
-116.7158
 20
-99.631
 30
0.0
 10
-121.0858
 20
-99.5105
 30
0.0
  0
SPLINE
  5
7E
330
1F
100
AcDbEntity
  8
layer 1
 62
     7
100
AcDbSpline
210
0.0
220
0.0
230
1.0
 70
    11
 71
     3
 72
    20
 73
    16
 74
     0
 42
0.0000000001
 43
0.0000000001
 12
1.0
 22
0.0
 32
0.0
 13
1.0
 23
0.0
 33
0.0
 40
0.0
 40
0.0
 40
0.0
 40
0.0
 40
0.2
 40
0.2
 40
0.2
 40
0.2
 40
0.4
 40
0.4
 40
0.4
 40
0.4
 40
0.6
 40
0.6
 40
0.6
 40
0.6
 40
1.0
 40
1.0
 40
1.0
 40
1.0
 10
-76.6458
 20
6.5764
 30
0.0
 10
-76.6458
 20
6.5764
 30
0.0
 10
-92.8777
 20
6.5764
 30
0.0
 10
-92.8777
 20
6.5764
 30
0.0
 10
-92.8777
 20
6.5764
 30
0.0
 10
-92.8777
 20
6.5764
 30
0.0
 10
-92.8777
 20
-18.3848
 30
0.0
 10
-92.8777
 20
-18.3848
 30
0.0
 10
-92.8777
 20
-18.3848
 30
0.0
 10
-92.8777
 20
-18.3848
 30
0.0
 10
-76.6458
 20
-18.3848
 30
0.0
 10
-76.6458
 20
-18.3848
 30
0.0
 10
-76.6458
 20
-18.3848
 30
0.0
 10
-76.6458
 20
-18.3848
 30
0.0
 10
-76.6458
 20
6.5764
 30
0.0
 10
-76.6458
 20
6.5764
 30
0.0
  0
SPLINE
  5
7F
330
1F
100
AcDbEntity
  8
layer 1
 62
     7
100
AcDbSpline
210
0.0
220
0.0
230
1.0
 70
    11
 71
     3
 72
    20
 73
    16
 74
     0
 42
0.0000000001
 43
0.0000000001
 12
1.0
 22
0.0
 32
0.0
 13
1.0
 23
0.0
 33
0.0
 40
0.0
 40
0.0
 40
0.0
 40
0.0
 40
0.2
 40
0.2
 40
0.2
 40
0.2
 40
0.4
 40
0.4
 40
0.4
 40
0.4
 40
0.6
 40
0.6
 40
0.6
 40
0.6
 40
1.0
 40
1.0
 40
1.0
 40
1.0
 10
-76.6458
 20
-22.1471
 30
0.0
 10
-76.6458
 20
-22.1471
 30
0.0
 10
-92.8777
 20
-22.1471
 30
0.0
 10
-92.8777
 20
-22.1471
 30
0.0
 10
-92.8777
 20
-22.1471
 30
0.0
 10
-92.8777
 20
-22.1471
 30
0.0
 10
-92.8777
 20
-39.6798
 30
0.0
 10
-92.8777
 20
-39.6798
 30
0.0
 10
-92.8777
 20
-39.6798
 30
0.0
 10
-92.8777
 20
-39.6798
 30
0.0
 10
-76.6458
 20
-39.6798
 30
0.0
 10
-76.6458
 20
-39.6798
 30
0.0
 10
-76.6458
 20
-39.6798
 30
0.0
 10
-76.6458
 20
-39.6798
 30
0.0
 10
-76.6458
 20
-22.1471
 30
0.0
 10
-76.6458
 20
-22.1471
 30
0.0
  0
SPLINE
  5
80
330
1F
100
AcDbEntity
  8
layer 1
 62
     7
100
AcDbSpline
210
0.0
220
0.0
230
1.0
 70
    11
 71
     3
 72
    36
 73
    32
 74
     0
 42
0.0000000001
 43
0.0000000001
 12
1.0
 22
0.0
 32
0.0
 13
1.0
 23
0.0
 33
0.0
 40
0.0
 40
0.0
 40
0.0
 40
0.0
 40
0.1111111111111111
 40
0.1111111111111111
 40
0.1111111111111111
 40
0.1111111111111111
 40
0.2222222222222222
 40
0.2222222222222222
 40
0.2222222222222222
 40
0.2222222222222222
 40
0.3333333333333333
 40
0.3333333333333333
 40
0.3333333333333333
 40
0.3333333333333333
 40
0.4444444444444444
 40
0.4444444444444444
 40
0.4444444444444444
 40
0.4444444444444444
 40
0.5555555555555556
 40
0.5555555555555556
 40
0.5555555555555556
 40
0.5555555555555556
 40
0.6666666666666666
 40
0.6666666666666666
 40
0.6666666666666666
 40
0.6666666666666666
 40
0.7777777777777778
 40
0.7777777777777778
 40
0.7777777777777778
 40
0.7777777777777778
 40
1.0
 40
1.0
 40
1.0
 40
1.0
 10
-76.6458
 20
-43.4423
 30
0.0
 10
-76.6458
 20
-43.4423
 30
0.0
 10
-92.8733
 20
-43.4423
 30
0.0
 10
-92.8733
 20
-43.4423
 30
0.0
 10
-92.8733
 20
-43.4423
 30
0.0
 10
-93.049
 20
-49.0992
 30
0.0
 10
-96.1675
 20
-53.0134
 30
0.0
 10
-100.0663
 20
-53.024
 30
0.0
 10
-100.0663
 20
-53.024
 30
0.0
 10
-100.2733
 20
-56.5134
 30
0.0
 10
-103.1553
 20
-60.7168
 30
0.0
 10
-110.6577
 20
-60.866
 30
0.0
 10
-110.6577
 20
-60.866
 30
0.0
 10
-110.6577
 20
-60.866
 30
0.0
 10
-110.6577
 20
-67.0202
 30
0.0
 10
-110.6577
 20
-67.0202
 30
0.0
 10
-110.6577
 20
-67.0202
 30
0.0
 10
-110.6577
 20
-67.0202
 30
0.0
 10
-96.6474
 20
-67.0202
 30
0.0
 10
-96.6474
 20
-67.0202
 30
0.0
 10
-96.6474
 20
-67.0202
 30
0.0
 10
-96.4705
 20
-61.1073
 30
0.0
 10
-93.0482
 20
-56.7241
 30
0.0
 10
-87.9526
 20
-56.1216
 30
0.0
 10
-87.9526
 20
-56.1216
 30
0.0
 10
-87.3774
 20
-51.4775
 30
0.0
 10
-81.8405
 20
-49.5763
 30
0.0
 10
-76.6458
 20
-49.6051
 30
0.0
 10
-76.6458
 20
-49.6051
 30
0.0
 10
-76.6458
 20
-49.6051
 30
0.0
 10
-76.6458
 20
-43.4423
 30
0.0
 10
-76.6458
 20
-43.4423
 30
0.0
  0
SPLINE
  5
81
330
1F
100
AcDbEntity
  8
layer 1
 62
     7
100
AcDbSpline
210
0.0
220
0.0
230
1.0
 70
    11
 71
     3
 72
    20
 73
    16
 74
     0
 42
0.0000000001
 43
0.0000000001
 12
1.0
 22
0.0
 32
0.0
 13
1.0
 23
0.0
 33
0.0
 40
0.0
 40
0.0
 40
0.0
 40
0.0
 40
0.2
 40
0.2
 40
0.2
 40
0.2
 40
0.4
 40
0.4
 40
0.4
 40
0.4
 40
0.6
 40
0.6
 40
0.6
 40
0.6
 40
1.0
 40
1.0
 40
1.0
 40
1.0
 10
-84.9771
 20
-59.4407
 30
0.0
 10
-89.4133
 20
-59.5485
 30
0.0
 10
-92.5314
 20
-62.7241
 30
0.0
 10
-92.8969
 20
-67.0202
 30
0.0
 10
-92.8969
 20
-67.0202
 30
0.0
 10
-92.8969
 20
-67.0202
 30
0.0
 10
-76.6458
 20
-67.0202
 30
0.0
 10
-76.6458
 20
-67.0202
 30
0.0
 10
-76.6458
 20
-67.0202
 30
0.0
 10
-76.6458
 20
-67.0202
 30
0.0
 10
-76.6458
 20
-53.3071
 30
0.0
 10
-76.6458
 20
-53.3071
 30
0.0
 10
-76.6458
 20
-53.3071
 30
0.0
 10
-81.4875
 20
-53.3537
 30
0.0
 10
-84.6039
 20
-55.267
 30
0.0
 10
-84.9771
 20
-59.4407
 30
0.0
  0
SPLINE
  5
82
330
1F
100
AcDbEntity
  8
layer 1
 62
     7
100
AcDbSpline
210
0.0
220
0.0
230
1.0
 70
    11
 71
     3
 72
    20
 73
    16
 74
     0
 42
0.0000000001
 43
0.0000000001
 12
1.0
 22
0.0
 32
0.0
 13
1.0
 23
0.0
 33
0.0
 40
0.0
 40
0.0
 40
0.0
 40
0.0
 40
0.2
 40
0.2
 40
0.2
 40
0.2
 40
0.4
 40
0.4
 40
0.4
 40
0.4
 40
0.6
 40
0.6
 40
0.6
 40
0.6
 40
1.0
 40
1.0
 40
1.0
 40
1.0
 10
-76.6458
 20
-70.7829
 30
0.0
 10
-76.6458
 20
-70.7829
 30
0.0
 10
-92.8777
 20
-70.7829
 30
0.0
 10
-92.8777
 20
-70.7829
 30
0.0
 10
-92.8777
 20
-70.7829
 30
0.0
 10
-92.8777
 20
-70.7829
 30
0.0
 10
-92.8777
 20
-95.6333
 30
0.0
 10
-92.8777
 20
-95.6333
 30
0.0
 10
-92.8777
 20
-95.6333
 30
0.0
 10
-92.8777
 20
-95.6333
 30
0.0
 10
-76.6458
 20
-95.6333
 30
0.0
 10
-76.6458
 20
-95.6333
 30
0.0
 10
-76.6458
 20
-95.6333
 30
0.0
 10
-76.6458
 20
-95.6333
 30
0.0
 10
-76.6458
 20
-70.7829
 30
0.0
 10
-76.6458
 20
-70.7829
 30
0.0
  0
SPLINE
  5
83
330
1F
100
AcDbEntity
  8
layer 1
 62
     7
100
AcDbSpline
210
0.0
220
0.0
230
1.0
 70
    11
 71
     3
 72
    20
 73
    16
 74
     0
 42
0.0000000001
 43
0.0000000001
 12
1.0
 22
0.0
 32
0.0
 13
1.0
 23
0.0
 33
0.0
 40
0.0
 40
0.0
 40
0.0
 40
0.0
 40
0.2
 40
0.2
 40
0.2
 40
0.2
 40
0.4
 40
0.4
 40
0.4
 40
0.4
 40
0.6
 40
0.6
 40
0.6
 40
0.6
 40
1.0
 40
1.0
 40
1.0
 40
1.0
 10
-103.8342
 20
-11.6264
 30
0.0
 10
-103.4948
 20
-16.2232
 30
0.0
 10
-100.957
 20
-18.3179
 30
0.0
 10
-96.6399
 20
-18.4669
 30
0.0
 10
-96.6399
 20
-18.4669
 30
0.0
 10
-96.6399
 20
-18.4669
 30
0.0
 10
-96.6399
 20
-4.7256
 30
0.0
 10
-96.6399
 20
-4.7256
 30
0.0
 10
-96.6399
 20
-4.7256
 30
0.0
 10
-96.6399
 20
-4.7256
 30
0.0
 10
-110.6723
 20
-4.7256
 30
0.0
 10
-110.6723
 20
-4.7256
 30
0.0
 10
-110.6723
 20
-4.7256
 30
0.0
 10
-110.6629
 20
-9.0653
 30
0.0
 10
-108.2346
 20
-11.546
 30
0.0
 10
-103.8342
 20
-11.6264
 30
0.0
  0
SPLINE
  5
84
330
1F
100
AcDbEntity
  8
layer 1
 62
     7
100
AcDbSpline
210
0.0
220
0.0
230
1.0
 70
    11
 71
     3
 72
    36
 73
    32
 74
     0
 42
0.0000000001
 43
0.0000000001
 12
1.0
 22
0.0
 32
0.0
 13
1.0
 23
0.0
 33
0.0
 40
0.0
 40
0.0
 40
0.0
 40
0.0
 40
0.1111111111111111
 40
0.1111111111111111
 40
0.1111111111111111
 40
0.1111111111111111
 40
0.2222222222222222
 40
0.2222222222222222
 40
0.2222222222222222
 40
0.2222222222222222
 40
0.3333333333333333
 40
0.3333333333333333
 40
0.3333333333333333
 40
0.3333333333333333
 40
0.4444444444444444
 40
0.4444444444444444
 40
0.4444444444444444
 40
0.4444444444444444
 40
0.5555555555555556
 40
0.5555555555555556
 40
0.5555555555555556
 40
0.5555555555555556
 40
0.6666666666666666
 40
0.6666666666666666
 40
0.6666666666666666
 40
0.6666666666666666
 40
0.7777777777777778
 40
0.7777777777777778
 40
0.7777777777777778
 40
0.7777777777777778
 40
1.0
 40
1.0
 40
1.0
 40
1.0
 10
-96.6399
 20
-22.149
 30
0.0
 10
-104.2974
 20
-22.0786
 30
0.0
 10
-106.8272
 20
-17.0418
 30
0.0
 10
-107.1649
 20
-14.3048
 30
0.0
 10
-107.1649
 20
-14.3048
 30
0.0
 10
-109.8289
 20
-14.7415
 30
0.0
 10
-114.3663
 20
-11.9195
 30
0.0
 10
-114.4246
 20
-4.7256
 30
0.0
 10
-114.4246
 20
-4.7256
 30
0.0
 10
-114.4246
 20
-4.7256
 30
0.0
 10
-128.4371
 20
-4.7256
 30
0.0
 10
-128.4371
 20
-4.7256
 30
0.0
 10
-128.4371
 20
-4.7256
 30
0.0
 10
-128.4371
 20
-4.7256
 30
0.0
 10
-128.4371
 20
-10.8807
 30
0.0
 10
-128.4371
 20
-10.8807
 30
0.0
 10
-128.4371
 20
-10.8807
 30
0.0
 10
-122.4206
 20
-10.8031
 30
0.0
 10
-117.8277
 20
-14.7811
 30
0.0
 10
-117.9119
 20
-18.5068
 30
0.0
 10
-117.9119
 20
-18.5068
 30
0.0
 10
-114.2918
 20
-19.2389
 30
0.0
 10
-110.8386
 20
-21.6661
 30
0.0
 10
-110.6529
 20
-28.3042
 30
0.0
 10
-110.6529
 20
-28.3042
 30
0.0
 10
-110.6529
 20
-28.3042
 30
0.0
 10
-96.6399
 20
-28.3042
 30
0.0
 10
-96.6399
 20
-28.3042
 30
0.0
 10
-96.6399
 20
-28.3042
 30
0.0
 10
-96.6399
 20
-28.3042
 30
0.0
 10
-96.6399
 20
-22.149
 30
0.0
 10
-96.6399
 20
-22.149
 30
0.0
  0
SPLINE
  5
85
330
1F
100
AcDbEntity
  8
layer 1
 62
     7
100
AcDbSpline
210
0.0
220
0.0
230
1.0
 70
    11
 71
     3
 72
    20
 73
    16
 74
     0
 42
0.0000000001
 43
0.0000000001
 12
1.0
 22
0.0
 32
0.0
 13
1.0
 23
0.0
 33
0.0
 40
0.0
 40
0.0
 40
0.0
 40
0.0
 40
0.2
 40
0.2
 40
0.2
 40
0.2
 40
0.4
 40
0.4
 40
0.4
 40
0.4
 40
0.6
 40
0.6
 40
0.6
 40
0.6
 40
1.0
 40
1.0
 40
1.0
 40
1.0
 10
-121.2428
 20
-21.4039
 30
0.0
 10
-121.5481
 20
-17.3712
 30
0.0
 10
-123.6071
 20
-14.5192
 30
0.0
 10
-128.4371
 20
-14.5627
 30
0.0
 10
-128.4371
 20
-14.5627
 30
0.0
 10
-128.4371
 20
-14.5627
 30
0.0
 10
-128.4371
 20
-28.3042
 30
0.0
 10
-128.4371
 20
-28.3042
 30
0.0
 10
-128.4371
 20
-28.3042
 30
0.0
 10
-128.4371
 20
-28.3042
 30
0.0
 10
-114.4045
 20
-28.3042
 30
0.0
 10
-114.4045
 20
-28.3042
 30
0.0
 10
-114.4045
 20
-28.3042
 30
0.0
 10
-114.539
 20
-23.7002
 30
0.0
 10
-117.3418
 20
-21.4771
 30
0.0
 10
-121.2428
 20
-21.4039
 30
0.0
  0
SPLINE
  5
86
330
1F
100
AcDbEntity
  8
layer 1
 62
     7
100
AcDbSpline
210
0.0
220
0.0
230
1.0
 70
    11
 71
     3
 72
    20
 73
    16
 74
     0
 42
0.0000000001
 43
0.0000000001
 12
1.0
 22
0.0
 32
0.0
 13
1.0
 23
0.0
 33
0.0
 40
0.0
 40
0.0
 40
0.0
 40
0.0
 40
0.2
 40
0.2
 40
0.2
 40
0.2
 40
0.4
 40
0.4
 40
0.4
 40
0.4
 40
0.6
 40
0.6
 40
0.6
 40
0.6
 40
1.0
 40
1.0
 40
1.0
 40
1.0
 10
-128.4371
 20
-0.9635
 30
0.0
 10
-128.4371
 20
-0.9635
 30
0.0
 10
-114.4201
 20
-0.9635
 30
0.0
 10
-114.4201
 20
-0.9635
 30
0.0
 10
-114.4201
 20
-0.9635
 30
0.0
 10
-114.4201
 20
-0.9635
 30
0.0
 10
-114.4201
 20
6.5764
 30
0.0
 10
-114.4201
 20
6.5764
 30
0.0
 10
-114.4201
 20
6.5764
 30
0.0
 10
-114.4201
 20
6.5764
 30
0.0
 10
-128.4371
 20
6.5764
 30
0.0
 10
-128.4371
 20
6.5764
 30
0.0
 10
-128.4371
 20
6.5764
 30
0.0
 10
-128.4371
 20
6.5764
 30
0.0
 10
-128.4371
 20
-0.9635
 30
0.0
 10
-128.4371
 20
-0.9635
 30
0.0
  0
SPLINE
  5
87
330
1F
100
AcDbEntity
  8
layer 1
 62
     7
100
AcDbSpline
210
0.0
220
0.0
230
1.0
 70
    11
 71
     3
 72
    20
 73
    16
 74
     0
 42
0.0000000001
 43
0.0000000001
 12
1.0
 22
0.0
 32
0.0
 13
1.0
 23
0.0
 33
0.0
 40
0.0
 40
0.0
 40
0.0
 40
0.0
 40
0.2
 40
0.2
 40
0.2
 40
0.2
 40
0.4
 40
0.4
 40
0.4
 40
0.4
 40
0.6
 40
0.6
 40
0.6
 40
0.6
 40
1.0
 40
1.0
 40
1.0
 40
1.0
 10
-110.6577
 20
-0.9635
 30
0.0
 10
-110.6577
 20
-0.9635
 30
0.0
 10
-96.6399
 20
-0.9635
 30
0.0
 10
-96.6399
 20
-0.9635
 30
0.0
 10
-96.6399
 20
-0.9635
 30
0.0
 10
-96.6399
 20
-0.9635
 30
0.0
 10
-96.6399
 20
6.5764
 30
0.0
 10
-96.6399
 20
6.5764
 30
0.0
 10
-96.6399
 20
6.5764
 30
0.0
 10
-96.6399
 20
6.5764
 30
0.0
 10
-110.6577
 20
6.5764
 30
0.0
 10
-110.6577
 20
6.5764
 30
0.0
 10
-110.6577
 20
6.5764
 30
0.0
 10
-110.6577
 20
6.5764
 30
0.0
 10
-110.6577
 20
-0.9635
 30
0.0
 10
-110.6577
 20
-0.9635
 30
0.0
  0
SPLINE
  5
88
330
1F
100
AcDbEntity
  8
layer 1
 62
     7
100
AcDbSpline
210
0.0
220
0.0
230
1.0
 70
    11
 71
     3
 72
    20
 73
    16
 74
     0
 42
0.0000000001
 43
0.0000000001
 12
1.0
 22
0.0
 32
0.0
 13
1.0
 23
0.0
 33
0.0
 40
0.0
 40
0.0
 40
0.0
 40
0.0
 40
0.2
 40
0.2
 40
0.2
 40
0.2
 40
0.4
 40
0.4
 40
0.4
 40
0.4
 40
0.6
 40
0.6
 40
0.6
 40
0.6
 40
1.0
 40
1.0
 40
1.0
 40
1.0
 10
-96.6399
 20
-32.0665
 30
0.0
 10
-96.6399
 20
-32.0665
 30
0.0
 10
-110.6577
 20
-32.0665
 30
0.0
 10
-110.6577
 20
-32.0665
 30
0.0
 10
-110.6577
 20
-32.0665
 30
0.0
 10
-110.6577
 20
-32.0665
 30
0.0
 10
-110.6577
 20
-39.6798
 30
0.0
 10
-110.6577
 20
-39.6798
 30
0.0
 10
-110.6577
 20
-39.6798
 30
0.0
 10
-110.6577
 20
-39.6798
 30
0.0
 10
-96.6399
 20
-39.6798
 30
0.0
 10
-96.6399
 20
-39.6798
 30
0.0
 10
-96.6399
 20
-39.6798
 30
0.0
 10
-96.6399
 20
-39.6798
 30
0.0
 10
-96.6399
 20
-32.0665
 30
0.0
 10
-96.6399
 20
-32.0665
 30
0.0
  0
SPLINE
  5
89
330
1F
100
AcDbEntity
  8
layer 1
 62
     7
100
AcDbSpline
210
0.0
220
0.0
230
1.0
 70
    11
 71
     3
 72
    20
 73
    16
 74
     0
 42
0.0000000001
 43
0.0000000001
 12
1.0
 22
0.0
 32
0.0
 13
1.0
 23
0.0
 33
0.0
 40
0.0
 40
0.0
 40
0.0
 40
0.0
 40
0.2
 40
0.2
 40
0.2
 40
0.2
 40
0.4
 40
0.4
 40
0.4
 40
0.4
 40
0.6
 40
0.6
 40
0.6
 40
0.6
 40
1.0
 40
1.0
 40
1.0
 40
1.0
 10
-128.4371
 20
-32.0665
 30
0.0
 10
-128.4371
 20
-32.0665
 30
0.0
 10
-128.4371
 20
-57.1009
 30
0.0
 10
-128.4371
 20
-57.1009
 30
0.0
 10
-128.4371
 20
-57.1009
 30
0.0
 10
-128.4371
 20
-57.1009
 30
0.0
 10
-114.4201
 20
-57.1009
 30
0.0
 10
-114.4201
 20
-57.1009
 30
0.0
 10
-114.4201
 20
-57.1009
 30
0.0
 10
-114.4201
 20
-57.1009
 30
0.0
 10
-114.4201
 20
-32.0665
 30
0.0
 10
-114.4201
 20
-32.0665
 30
0.0
 10
-114.4201
 20
-32.0665
 30
0.0
 10
-114.4201
 20
-32.0665
 30
0.0
 10
-128.4371
 20
-32.0665
 30
0.0
 10
-128.4371
 20
-32.0665
 30
0.0
  0
SPLINE
  5
8A
330
1F
100
AcDbEntity
  8
layer 1
 62
     7
100
AcDbSpline
210
0.0
220
0.0
230
1.0
 70
    11
 71
     3
 72
    20
 73
    16
 74
     0
 42
0.0000000001
 43
0.0000000001
 12
1.0
 22
0.0
 32
0.0
 13
1.0
 23
0.0
 33
0.0
 40
0.0
 40
0.0
 40
0.0
 40
0.0
 40
0.2
 40
0.2
 40
0.2
 40
0.2
 40
0.4
 40
0.4
 40
0.4
 40
0.4
 40
0.6
 40
0.6
 40
0.6
 40
0.6
 40
1.0
 40
1.0
 40
1.0
 40
1.0
 10
-128.4371
 20
-60.8635
 30
0.0
 10
-128.4371
 20
-60.8635
 30
0.0
 10
-128.4371
 20
-78.2124
 30
0.0
 10
-128.4371
 20
-78.2124
 30
0.0
 10
-128.4371
 20
-78.2124
 30
0.0
 10
-128.4371
 20
-78.2124
 30
0.0
 10
-114.4201
 20
-78.2124
 30
0.0
 10
-114.4201
 20
-78.2124
 30
0.0
 10
-114.4201
 20
-78.2124
 30
0.0
 10
-114.4201
 20
-78.2124
 30
0.0
 10
-114.4201
 20
-60.8635
 30
0.0
 10
-114.4201
 20
-60.8635
 30
0.0
 10
-114.4201
 20
-60.8635
 30
0.0
 10
-114.4201
 20
-60.8635
 30
0.0
 10
-128.4371
 20
-60.8635
 30
0.0
 10
-128.4371
 20
-60.8635
 30
0.0
  0
SPLINE
  5
8B
330
1F
100
AcDbEntity
  8
layer 1
 62
     7
100
AcDbSpline
210
0.0
220
0.0
230
1.0
 70
    11
 71
     3
 72
    20
 73
    16
 74
     0
 42
0.0000000001
 43
0.0000000001
 12
1.0
 22
0.0
 32
0.0
 13
1.0
 23
0.0
 33
0.0
 40
0.0
 40
0.0
 40
0.0
 40
0.0
 40
0.2
 40
0.2
 40
0.2
 40
0.2
 40
0.4
 40
0.4
 40
0.4
 40
0.4
 40
0.6
 40
0.6
 40
0.6
 40
0.6
 40
1.0
 40
1.0
 40
1.0
 40
1.0
 10
-110.6577
 20
-43.4423
 30
0.0
 10
-110.6577
 20
-43.4423
 30
0.0
 10
-110.6577
 20
-57.1837
 30
0.0
 10
-110.6577
 20
-57.1837
 30
0.0
 10
-110.6577
 20
-57.1837
 30
0.0
 10
-106.7083
 20
-56.8468
 30
0.0
 10
-103.7486
 20
-55.2568
 30
0.0
 10
-103.4638
 20
-50.3425
 30
0.0
 10
-103.4638
 20
-50.3425
 30
0.0
 10
-99.5225
 20
-50.2684
 30
0.0
 10
-96.9239
 20
-47.7212
 30
0.0
 10
-96.6252
 20
-43.4423
 30
0.0
 10
-96.6252
 20
-43.4423
 30
0.0
 10
-96.6252
 20
-43.4423
 30
0.0
 10
-110.6577
 20
-43.4423
 30
0.0
 10
-110.6577
 20
-43.4423
 30
0.0
  0
SPLINE
  5
8C
330
1F
100
AcDbEntity
  8
layer 1
 62
     7
100
AcDbSpline
210
0.0
220
0.0
230
1.0
 70
    11
 71
     3
 72
    20
 73
    16
 74
     0
 42
0.0000000001
 43
0.0000000001
 12
1.0
 22
0.0
 32
0.0
 13
1.0
 23
0.0
 33
0.0
 40
0.0
 40
0.0
 40
0.0
 40
0.0
 40
0.2
 40
0.2
 40
0.2
 40
0.2
 40
0.4
 40
0.4
 40
0.4
 40
0.4
 40
0.6
 40
0.6
 40
0.6
 40
0.6
 40
1.0
 40
1.0
 40
1.0
 40
1.0
 10
-110.6577
 20
-70.7829
 30
0.0
 10
-110.6577
 20
-70.7829
 30
0.0
 10
-110.6577
 20
-78.2124
 30
0.0
 10
-110.6577
 20
-78.2124
 30
0.0
 10
-110.6577
 20
-78.2124
 30
0.0
 10
-110.6577
 20
-78.2124
 30
0.0
 10
-96.6399
 20
-78.2124
 30
0.0
 10
-96.6399
 20
-78.2124
 30
0.0
 10
-96.6399
 20
-78.2124
 30
0.0
 10
-96.6399
 20
-78.2124
 30
0.0
 10
-96.6399
 20
-70.7829
 30
0.0
 10
-96.6399
 20
-70.7829
 30
0.0
 10
-96.6399
 20
-70.7829
 30
0.0
 10
-96.6399
 20
-70.7829
 30
0.0
 10
-110.6577
 20
-70.7829
 30
0.0
 10
-110.6577
 20
-70.7829
 30
0.0
  0
SPLINE
  5
8D
330
1F
100
AcDbEntity
  8
layer 1
 62
     7
100
AcDbSpline
210
0.0
220
0.0
230
1.0
 70
    11
 71
     3
 72
    20
 73
    16
 74
     0
 42
0.0000000001
 43
0.0000000001
 12
1.0
 22
0.0
 32
0.0
 13
1.0
 23
0.0
 33
0.0
 40
0.0
 40
0.0
 40
0.0
 40
0.0
 40
0.2
 40
0.2
 40
0.2
 40
0.2
 40
0.4
 40
0.4
 40
0.4
 40
0.4
 40
0.6
 40
0.6
 40
0.6
 40
0.6
 40
1.0
 40
1.0
 40
1.0
 40
1.0
 10
-103.826
 20
-88.8751
 30
0.0
 10
-103.4869
 20
-93.3582
 30
0.0
 10
-100.9533
 20
-95.344
 30
0.0
 10
-96.6399
 20
-95.7156
 30
0.0
 10
-96.6399
 20
-95.7156
 30
0.0
 10
-96.6399
 20
-95.7156
 30
0.0
 10
-96.6399
 20
-81.9749
 30
0.0
 10
-96.6399
 20
-81.9749
 30
0.0
 10
-96.6399
 20
-81.9749
 30
0.0
 10
-96.6399
 20
-81.9749
 30
0.0
 10
-110.6639
 20
-81.9749
 30
0.0
 10
-110.6639
 20
-81.9749
 30
0.0
 10
-110.6639
 20
-81.9749
 30
0.0
 10
-110.3657
 20
-86.2516
 30
0.0
 10
-107.7265
 20
-88.8018
 30
0.0
 10
-103.826
 20
-88.8751
 30
0.0
  0
ENDSEC
  0
SECTION
  2
OBJECTS
  0
DICTIONARY
  5
C
330
0
100
AcDbDictionary
281
     1
  3
ACAD_GROUP
350
D
  3
ACAD_LAYOUT
350
1A
  3
ACAD_MATERIAL
350
3B
  3
ACAD_MLEADERSTYLE
350
B0
  3
ACAD_MLINESTYLE
350
17
  3
ACAD_PLOTSETTINGS
350
19
  3
ACAD_PLOTSTYLENAME
350
E
  3
ACAD_TABLESTYLE
350
AF
  3
ACAD_VISUALSTYLE
350
2A
  0
DICTIONARY
  5
D
102
{ACAD_REACTORS
330
C
102
}
330
C
100
AcDbDictionary
281
     1
  0
DICTIONARY
  5
1A
102
{ACAD_REACTORS
330
C
102
}
330
C
100
AcDbDictionary
281
     1
  3
Layout1
350
1E
  3
Layout2
350
26
  3
Model
350
22
  0
DICTIONARY
  5
3B
102
{ACAD_REACTORS
330
C
102
}
330
C
100
AcDbDictionary
281
     1
  3
ByBlock
350
3D
  3
ByLayer
350
3C
  3
Global
350
3E
  0
DICTIONARY
  5
B0
102
{ACAD_REACTORS
330
C
102
}
330
C
100
AcDbDictionary
281
     1
  0
DICTIONARY
  5
17
102
{ACAD_REACTORS
330
C
102
}
330
C
100
AcDbDictionary
281
     1
  3
Standard
350
18
  0
DICTIONARY
  5
19
102
{ACAD_REACTORS
330
C
102
}
330
C
100
AcDbDictionary
281
     1
  0
ACDBDICTIONARYWDFLT
  5
E
102
{ACAD_REACTORS
330
C
102
}
330
C
100
AcDbDictionary
281
     1
  3
Normal
350
F
100
AcDbDictionaryWithDefault
340
F
  0
DICTIONARY
  5
AF
102
{ACAD_REACTORS
330
C
102
}
330
C
100
AcDbDictionary
281
     1
  0
DICTIONARY
  5
2A
102
{ACAD_REACTORS
330
C
102
}
330
C
100
AcDbDictionary
281
     1
  3
2dWireframe
350
2F
  3
3D Hidden
350
31
  3
3dWireframe
350
30
  3
Basic
350
32
  3
Brighten
350
36
  3
ColorChange
350
3A
  3
Conceptual
350
34
  3
Dim
350
35
  3
Facepattern
350
39
  3
Flat
350
2B
  3
FlatWithEdges
350
2C
  3
Gouraud
350
2D
  3
GouraudWithEdges
350
2E
  3
Linepattern
350
38
  3
Realistic
350
33
  3
Thicken
350
37
  0
LAYOUT
  5
1E
102
{ACAD_REACTORS
330
1A
102
}
330
1A
100
AcDbPlotSettings
  1

  2
none_device
  4

  6

 40
0.0
 41
0.0
 42
0.0
 43
0.0
 44
0.0
 45
0.0
 46
0.0
 47
0.0
 48
0.0
 49
0.0
140
0.0
141
0.0
142
1.0
143
1.0
 70
   688
 72
     0
 73
     0
 74
     5
  7

 75
    16
 76
     0
 77
     2
 78
   300
147
1.0
148
0.0
149
0.0
100
AcDbLayout
  1
Layout1
 70
     1
 71
     1
 10
0.0
 20
0.0
 11
12.0
 21
9.0
 12
0.0
 22
0.0
 32
0.0
 14
1.000000000000000E+20
 24
1.000000000000000E+20
 34
1.000000000000000E+20
 15
-1.000000000000000E+20
 25
-1.000000000000000E+20
 35
-1.000000000000000E+20
146
0.0
 13
0.0
 23
0.0
 33
0.0
 16
1.0
 26
0.0
 36
0.0
 17
0.0
 27
1.0
 37
0.0
 76
     0
330
1B
  0
LAYOUT
  5
26
102
{ACAD_REACTORS
330
1A
102
}
330
1A
100
AcDbPlotSettings
  1

  2
none_device
  4

  6

 40
0.0
 41
0.0
 42
0.0
 43
0.0
 44
0.0
 45
0.0
 46
0.0
 47
0.0
 48
0.0
 49
0.0
140
0.0
141
0.0
142
1.0
143
1.0
 70
   688
 72
     0
 73
     0
 74
     5
  7

 75
    16
 76
     0
 77
     2
 78
   300
147
1.0
148
0.0
149
0.0
100
AcDbLayout
  1
Layout2
 70
     1
 71
     2
 10
0.0
 20
0.0
 11
0.0
 21
0.0
 12
0.0
 22
0.0
 32
0.0
 14
0.0
 24
0.0
 34
0.0
 15
0.0
 25
0.0
 35
0.0
146
0.0
 13
0.0
 23
0.0
 33
0.0
 16
1.0
 26
0.0
 36
0.0
 17
0.0
 27
1.0
 37
0.0
 76
     0
330
23
  0
LAYOUT
  5
22
102
{ACAD_REACTORS
330
1A
102
}
330
1A
100
AcDbPlotSettings
  1

  2
none_device
  4

  6

 40
0.0
 41
0.0
 42
0.0
 43
0.0
 44
0.0
 45
0.0
 46
0.0
 47
0.0
 48
0.0
 49
0.0
140
0.0
141
0.0
142
1.0
143
1.0
 70
  1712
 72
     0
 73
     0
 74
     0
  7

 75
     0
 76
     0
 77
     2
 78
   300
147
1.0
148
0.0
149
0.0
100
AcDbLayout
  1
Model
 70
     1
 71
     0
 10
0.0
 20
0.0
 11
12.0
 21
9.0
 12
0.0
 22
0.0
 32
0.0
 14
-187.3754
 24
-110.6102
 34
0.0
 15
-73.2595
 25
127.5234
 35
0.0
146
0.0
 13
0.0
 23
0.0
 33
0.0
 16
1.0
 26
0.0
 36
0.0
 17
0.0
 27
1.0
 37
0.0
 76
     0
330
1F
331
29
  0
MATERIAL
  5
3D
102
{ACAD_REACTORS
330
3B
102
}
330
3B
100
AcDbMaterial
  1
ByBlock
 72
     1
 94
      127
  0
MATERIAL
  5
3C
102
{ACAD_REACTORS
330
3B
102
}
330
3B
100
AcDbMaterial
  1
ByLayer
 72
     1
 94
      127
  0
MATERIAL
  5
3E
102
{ACAD_REACTORS
330
3B
102
}
330
3B
100
AcDbMaterial
  1
Global
 72
     1
 94
      127
  0
MLINESTYLE
  5
18
102
{ACAD_REACTORS
330
17
102
}
330
17
100
AcDbMlineStyle
  2
Standard
 70
     0
  3

 62
   256
 51
90.0
 52
90.0
 71
     2
 49
0.5
 62
   256
  6
BYLAYER
 49
-0.5
 62
   256
  6
BYLAYER
  0
ACDBPLACEHOLDER
  5
F
102
{ACAD_REACTORS
330
E
102
}
330
E
  0
VISUALSTYLE
  5
2F
102
{ACAD_REACTORS
330
2A
102
}
102
{ACAD_XDICTIONARY
360
97
102
}
330
2A
100
AcDbVisualStyle
  2
2dWireframe
 70
     4
 71
     0
 72
     2
 73
     0
 90
        0
 40
-0.6
 41
-30.0
 62
     5
 63
     7
421
 16777215
 74
     1
 91
        4
 64
     7
 65
   257
 75
     1
175
     1
 42
1.0
 92
        0
 66
   257
 43
1.0
 76
     1
 77
     6
 78
     2
 67
     7
 79
     5
170
     0
171
     0
290
     0
174
     0
 93
        1
 44
0.0
173
     0
291
     0
 45
0.0
  0
VISUALSTYLE
  5
31
102
{ACAD_REACTORS
330
2A
102
}
102
{ACAD_XDICTIONARY
360
9B
102
}
330
2A
100
AcDbVisualStyle
  2
3D Hidden
 70
     6
 71
     1
 72
     2
 73
     2
 90
        0
 40
-0.6
 41
-30.0
 62
     5
 63
     7
421
 16777215
 74
     2
 91
        2
 64
     7
 65
   257
 75
     2
175
     1
 42
40.0
 92
        0
 66
   257
 43
1.0
 76
     1
 77
     6
 78
     2
 67
     7
 79
     3
170
     0
171
     0
290
     0
174
     0
 93
        1
 44
0.0
173
     0
291
     0
 45
0.0
  0
VISUALSTYLE
  5
30
102
{ACAD_REACTORS
330
2A
102
}
102
{ACAD_XDICTIONARY
360
99
102
}
330
2A
100
AcDbVisualStyle
  2
3dWireframe
 70
     5
 71
     0
 72
     2
 73
     0
 90
        0
 40
-0.6
 41
-30.0
 62
     5
 63
     7
421
 16777215
 74
     1
 91
        4
 64
     7
 65
   257
 75
     1
175
     1
 42
1.0
 92
        0
 66
   257
 43
1.0
 76
     1
 77
     6
 78
     2
 67
     7
 79
     5
170
     0
171
     0
290
     0
174
     0
 93
        1
 44
0.0
173
     0
291
     0
 45
0.0
  0
VISUALSTYLE
  5
32
102
{ACAD_REACTORS
330
2A
102
}
102
{ACAD_XDICTIONARY
360
9D
102
}
330
2A
100
AcDbVisualStyle
  2
Basic
 70
     7
 71
     1
 72
     0
 73
     1
 90
        0
 40
-0.6
 41
-30.0
 62
     5
 63
     7
421
 16777215
 74
     0
 91
        4
 64
     7
 65
   257
 75
     1
175
     1
 42
1.0
 92
        8
 66
     7
 43
1.0
 76
     1
 77
     6
 78
     2
 67
     7
 79
     5
170
     0
171
     0
290
     0
174
     0
 93
        1
 44
0.0
173
     0
291
     1
 45
0.0
  0
VISUALSTYLE
  5
36
102
{ACAD_REACTORS
330
2A
102
}
102
{ACAD_XDICTIONARY
360
A5
102
}
330
2A
100
AcDbVisualStyle
  2
Brighten
 70
    12
 71
     2
 72
     2
 73
     0
 90
        0
 40
-0.6
 41
-30.0
 62
     5
 63
     7
421
 16777215
 74
     1
 91
        4
 64
     7
 65
   257
 75
     1
175
     1
 42
1.0
 92
        8
 66
     7
 43
1.0
 76
     1
 77
     6
 78
     2
 67
     7
 79
     5
170
     0
171
     0
290
     0
174
     0
 93
        1
 44
50.0
173
     0
291
     1
 45
0.0
  0
VISUALSTYLE
  5
3A
102
{ACAD_REACTORS
330
2A
102
}
102
{ACAD_XDICTIONARY
360
AD
102
}
330
2A
100
AcDbVisualStyle
  2
ColorChange
 70
    16
 71
     2
 72
     2
 73
     3
 90
        0
 40
-0.6
 41
-30.0
 62
     5
 63
     8
421
  8421504
 74
     1
 91
        4
 64
     7
 65
   257
 75
     1
175
     1
 42
1.0
 92
        8
 66
     8
424
  8421504
 43
1.0
 76
     1
 77
     6
 78
     2
 67
     7
 79
     5
170
     0
171
     0
290
     0
174
     0
 93
        1
 44
0.0
173
     0
291
     1
 45
0.0
  0
VISUALSTYLE
  5
34
102
{ACAD_REACTORS
330
2A
102
}
102
{ACAD_XDICTIONARY
360
A1
102
}
330
2A
100
AcDbVisualStyle
  2
Conceptual
 70
     9
 71
     3
 72
     2
 73
     0
 90
        0
 40
-0.6
 41
-30.0
 62
     5
 63
     7
421
 16777215
 74
     2
 91
        2
 64
     7
 65
   257
 75
     1
175
     1
 42
40.0
 92
        8
 66
     7
 43
1.0
 76
     1
 77
     6
 78
     2
 67
     7
 79
     3
170
     0
171
     0
290
     0
174
     0
 93
        1
 44
0.0
173
     0
291
     0
 45
0.0
  0
VISUALSTYLE
  5
35
102
{ACAD_REACTORS
330
2A
102
}
102
{ACAD_XDICTIONARY
360
A3
102
}
330
2A
100
AcDbVisualStyle
  2
Dim
 70
    11
 71
     2
 72
     2
 73
     0
 90
        0
 40
-0.6
 41
-30.0
 62
     5
 63
     7
421
 16777215
 74
     1
 91
        4
 64
     7
 65
   257
 75
     1
175
     1
 42
1.0
 92
        8
 66
     7
 43
1.0
 76
     1
 77
     6
 78
     2
 67
     7
 79
     5
170
     0
171
     0
290
     0
174
     0
 93
        1
 44
-50.0
173
     0
291
     1
 45
0.0
  0
VISUALSTYLE
  5
39
102
{ACAD_REACTORS
330
2A
102
}
102
{ACAD_XDICTIONARY
360
AB
102
}
330
2A
100
AcDbVisualStyle
  2
Facepattern
 70
    15
 71
     2
 72
     2
 73
     0
 90
        0
 40
-0.6
 41
-30.0
 62
     5
 63
     7
421
 16777215
 74
     1
 91
        4
 64
     7
 65
   257
 75
     1
175
     1
 42
1.0
 92
        8
 66
     7
 43
1.0
 76
     1
 77
     6
 78
     2
 67
     7
 79
     5
170
     0
171
     0
290
     0
174
     0
 93
        1
 44
0.0
173
     0
291
     1
 45
0.0
  0
VISUALSTYLE
  5
2B
102
{ACAD_REACTORS
330
2A
102
}
102
{ACAD_XDICTIONARY
360
8F
102
}
330
2A
100
AcDbVisualStyle
  2
Flat
 70
     0
 71
     2
 72
     1
 73
     1
 90
        2
 40
-0.6
 41
30.0
 62
     5
 63
     7
421
 16777215
 74
     0
 91
        4
 64
     7
 65
   257
 75
     1
175
     1
 42
1.0
 92
        8
 66
     7
 43
1.0
 76
     1
 77
     6
 78
     2
 67
     7
 79
     5
170
     0
171
     0
290
     0
174
     0
 93
       13
 44
0.0
173
     0
291
     1
 45
0.0
  0
VISUALSTYLE
  5
2C
102
{ACAD_REACTORS
330
2A
102
}
102
{ACAD_XDICTIONARY
360
91
102
}
330
2A
100
AcDbVisualStyle
  2
FlatWithEdges
 70
     1
 71
     2
 72
     1
 73
     1
 90
        2
 40
-0.6
 41
30.0
 62
     5
 63
     7
421
 16777215
 74
     1
 91
        4
 64
     7
 65
   257
 75
     1
175
     1
 42
1.0
 92
        0
 66
   257
 43
1.0
 76
     1
 77
     6
 78
     2
 67
     7
 79
     5
170
     0
171
     0
290
     0
174
     0
 93
       13
 44
0.0
173
     0
291
     1
 45
0.0
  0
VISUALSTYLE
  5
2D
102
{ACAD_REACTORS
330
2A
102
}
102
{ACAD_XDICTIONARY
360
93
102
}
330
2A
100
AcDbVisualStyle
  2
Gouraud
 70
     2
 71
     2
 72
     2
 73
     1
 90
        2
 40
-0.6
 41
30.0
 62
     5
 63
     7
421
 16777215
 74
     0
 91
        4
 64
     7
 65
   257
 75
     1
175
     1
 42
1.0
 92
        0
 66
     7
 43
1.0
 76
     1
 77
     6
 78
     2
 67
     7
 79
     5
170
     0
171
     0
290
     0
174
     0
 93
       13
 44
0.0
173
     0
291
     1
 45
0.0
  0
VISUALSTYLE
  5
2E
102
{ACAD_REACTORS
330
2A
102
}
102
{ACAD_XDICTIONARY
360
95
102
}
330
2A
100
AcDbVisualStyle
  2
GouraudWithEdges
 70
     3
 71
     2
 72
     2
 73
     1
 90
        2
 40
-0.6
 41
30.0
 62
     5
 63
     7
421
 16777215
 74
     1
 91
        4
 64
     7
 65
   257
 75
     1
175
     1
 42
1.0
 92
        0
 66
   257
 43
1.0
 76
     1
 77
     6
 78
     2
 67
     7
 79
     5
170
     0
171
     0
290
     0
174
     0
 93
       13
 44
0.0
173
     0
291
     1
 45
0.0
  0
VISUALSTYLE
  5
38
102
{ACAD_REACTORS
330
2A
102
}
102
{ACAD_XDICTIONARY
360
A9
102
}
330
2A
100
AcDbVisualStyle
  2
Linepattern
 70
    14
 71
     2
 72
     2
 73
     0
 90
        0
 40
-0.6
 41
-30.0
 62
     5
 63
     7
421
 16777215
 74
     1
 91
        4
 64
     7
 65
   257
 75
     7
175
     7
 42
1.0
 92
        8
 66
     7
 43
1.0
 76
     1
 77
     6
 78
     2
 67
     7
 79
     5
170
     0
171
     0
290
     0
174
     0
 93
        1
 44
0.0
173
     0
291
     1
 45
0.0
  0
VISUALSTYLE
  5
33
102
{ACAD_REACTORS
330
2A
102
}
102
{ACAD_XDICTIONARY
360
9F
102
}
330
2A
100
AcDbVisualStyle
  2
Realistic
 70
     8
 71
     2
 72
     2
 73
     0
 90
        0
 40
-0.6
 41
-30.0
 62
     5
 63
     7
421
 16777215
 74
     1
 91
        0
 64
     7
 65
   257
 75
     1
175
     1
 42
1.0
 92
        8
 66
     8
424
  7895160
 43
1.0
 76
     1
 77
     6
 78
     2
 67
     7
 79
     5
170
     0
171
     0
290
     0
174
     0
 93
       13
 44
0.0
173
     0
291
     0
 45
0.0
  0
VISUALSTYLE
  5
37
102
{ACAD_REACTORS
330
2A
102
}
102
{ACAD_XDICTIONARY
360
A7
102
}
330
2A
100
AcDbVisualStyle
  2
Thicken
 70
    13
 71
     2
 72
     2
 73
     0
 90
        0
 40
-0.6
 41
-30.0
 62
     5
 63
     7
421
 16777215
 74
     1
 91
        4
 64
     7
 65
   257
 75
     1
175
     1
 42
1.0
 92
       12
 66
     7
 43
1.0
 76
     1
 77
     6
 78
     2
 67
     7
 79
     5
170
     0
171
     0
290
     0
174
     0
 93
        1
 44
0.0
173
     0
291
     1
 45
0.0
  0
DICTIONARY
  5
97
330
2F
100
AcDbDictionary
280
     1
281
     1
  3
ACAD_XREC_ROUNDTRIP
360
98
  0
DICTIONARY
  5
9B
330
31
100
AcDbDictionary
280
     1
281
     1
  3
ACAD_XREC_ROUNDTRIP
360
9C
  0
DICTIONARY
  5
99
330
30
100
AcDbDictionary
280
     1
281
     1
  3
ACAD_XREC_ROUNDTRIP
360
9A
  0
DICTIONARY
  5
9D
330
32
100
AcDbDictionary
280
     1
281
     1
  3
ACAD_XREC_ROUNDTRIP
360
9E
  0
DICTIONARY
  5
A5
330
36
100
AcDbDictionary
280
     1
281
     1
  3
ACAD_XREC_ROUNDTRIP
360
A6
  0
DICTIONARY
  5
AD
330
3A
100
AcDbDictionary
280
     1
281
     1
  3
ACAD_XREC_ROUNDTRIP
360
AE
  0
DICTIONARY
  5
A1
330
34
100
AcDbDictionary
280
     1
281
     1
  3
ACAD_XREC_ROUNDTRIP
360
A2
  0
DICTIONARY
  5
A3
330
35
100
AcDbDictionary
280
     1
281
     1
  3
ACAD_XREC_ROUNDTRIP
360
A4
  0
DICTIONARY
  5
AB
330
39
100
AcDbDictionary
280
     1
281
     1
  3
ACAD_XREC_ROUNDTRIP
360
AC
  0
DICTIONARY
  5
8F
330
2B
100
AcDbDictionary
280
     1
281
     1
  3
ACAD_XREC_ROUNDTRIP
360
90
  0
DICTIONARY
  5
91
330
2C
100
AcDbDictionary
280
     1
281
     1
  3
ACAD_XREC_ROUNDTRIP
360
92
  0
DICTIONARY
  5
93
330
2D
100
AcDbDictionary
280
     1
281
     1
  3
ACAD_XREC_ROUNDTRIP
360
94
  0
DICTIONARY
  5
95
330
2E
100
AcDbDictionary
280
     1
281
     1
  3
ACAD_XREC_ROUNDTRIP
360
96
  0
DICTIONARY
  5
A9
330
38
100
AcDbDictionary
280
     1
281
     1
  3
ACAD_XREC_ROUNDTRIP
360
AA
  0
DICTIONARY
  5
9F
330
33
100
AcDbDictionary
280
     1
281
     1
  3
ACAD_XREC_ROUNDTRIP
360
A0
  0
DICTIONARY
  5
A7
330
37
100
AcDbDictionary
280
     1
281
     1
  3
ACAD_XREC_ROUNDTRIP
360
A8
  0
XRECORD
  5
98
102
{ACAD_REACTORS
330
97
102
}
330
97
100
AcDbXrecord
280
     1
102
RTVSPropertyOp0
 70
     1
102
RTVSPropertyOp1
 70
     1
102
RTVSPropertyOp2
 70
     1
102
RTVSPropertyOp3
 70
     1
102
RTVSPropertyOp4
 70
     1
102
RTVSPropertyOp5
 70
     1
102
RTVSPropertyOp6
 70
     1
102
RTVSPropertyOp7
 70
     1
102
RTVSPropertyOp8
 70
     1
102
RTVSPropertyOp9
 70
     1
102
RTVSPropertyOp10
 70
     1
102
RTVSPropertyOp11
 70
     1
102
RTVSPropertyOp12
 70
     1
102
RTVSPropertyOp13
 70
     1
102
RTVSPropertyOp14
 70
     1
102
RTVSPropertyOp15
 70
     1
102
RTVSPropertyOp16
 70
     1
102
RTVSPropertyOp17
 70
     1
102
RTVSPropertyOp18
 70
     1
102
RTVSPropertyOp19
 70
     1
102
RTVSPropertyOp20
 70
     1
102
RTVSPropertyOp21
 70
     1
102
RTVSPropertyOp22
 70
     1
102
RTVSPropertyOp23
 70
     1
102
RTVSPropertyOp24
 70
     1
102
RTVSPropertyOp25
 70
     1
102
RTVSPropertyOp26
 70
     1
102
RTVSPropertyOp27
 70
     1
102
RTVSPropertyOp28
 70
     1
102
RTVSPropertyOp29
 70
     1
102
RTVSPropertyOp30
 70
     1
102
RTVSPropertyOp31
 70
     1
102
RTVSPropertyOp32
 70
     1
  0
XRECORD
  5
9C
102
{ACAD_REACTORS
330
9B
102
}
330
9B
100
AcDbXrecord
280
     1
102
RTVSPropertyOp0
 70
     1
102
RTVSPropertyOp1
 70
     1
102
RTVSPropertyOp2
 70
     1
102
RTVSPropertyOp3
 70
     1
102
RTVSPropertyOp4
 70
     1
102
RTVSPropertyOp5
 70
     1
102
RTVSPropertyOp6
 70
     1
102
RTVSPropertyOp7
 70
     1
102
RTVSPropertyOp8
 70
     1
102
RTVSPropertyOp9
 70
     1
102
RTVSPropertyOp10
 70
     1
102
RTVSPropertyOp11
 70
     1
102
RTVSPropertyOp12
 70
     1
102
RTVSPropertyOp13
 70
     1
102
RTVSPropertyOp14
 70
     1
102
RTVSPropertyOp15
 70
     1
102
RTVSPropertyOp16
 70
     1
102
RTVSPropertyOp17
 70
     1
102
RTVSPropertyOp18
 70
     1
102
RTVSPropertyOp19
 70
     1
102
RTVSPropertyOp20
 70
     1
102
RTVSPropertyOp21
 70
     1
102
RTVSPropertyOp22
 70
     1
102
RTVSPropertyOp23
 70
     1
102
RTVSPropertyOp24
 70
     1
102
RTVSPropertyOp25
 70
     1
102
RTVSPropertyOp26
 70
     1
102
RTVSPropertyOp27
 70
     1
102
RTVSPropertyOp28
 70
     1
102
RTVSPropertyOp29
 70
     1
102
RTVSPropertyOp30
 70
     1
102
RTVSPropertyOp31
 70
     1
102
RTVSPropertyOp32
 70
     1
  0
XRECORD
  5
9A
102
{ACAD_REACTORS
330
99
102
}
330
99
100
AcDbXrecord
280
     1
102
RTVSPropertyOp0
 70
     1
102
RTVSPropertyOp1
 70
     1
102
RTVSPropertyOp2
 70
     1
102
RTVSPropertyOp3
 70
     1
102
RTVSPropertyOp4
 70
     1
102
RTVSPropertyOp5
 70
     1
102
RTVSPropertyOp6
 70
     1
102
RTVSPropertyOp7
 70
     1
102
RTVSPropertyOp8
 70
     1
102
RTVSPropertyOp9
 70
     1
102
RTVSPropertyOp10
 70
     1
102
RTVSPropertyOp11
 70
     1
102
RTVSPropertyOp12
 70
     1
102
RTVSPropertyOp13
 70
     1
102
RTVSPropertyOp14
 70
     1
102
RTVSPropertyOp15
 70
     1
102
RTVSPropertyOp16
 70
     1
102
RTVSPropertyOp17
 70
     1
102
RTVSPropertyOp18
 70
     1
102
RTVSPropertyOp19
 70
     1
102
RTVSPropertyOp20
 70
     1
102
RTVSPropertyOp21
 70
     1
102
RTVSPropertyOp22
 70
     1
102
RTVSPropertyOp23
 70
     1
102
RTVSPropertyOp24
 70
     1
102
RTVSPropertyOp25
 70
     1
102
RTVSPropertyOp26
 70
     1
102
RTVSPropertyOp27
 70
     1
102
RTVSPropertyOp28
 70
     1
102
RTVSPropertyOp29
 70
     1
102
RTVSPropertyOp30
 70
     1
102
RTVSPropertyOp31
 70
     1
102
RTVSPropertyOp32
 70
     1
  0
XRECORD
  5
9E
102
{ACAD_REACTORS
330
9D
102
}
330
9D
100
AcDbXrecord
280
     1
102
RTVSPropertyOp0
 70
     1
102
RTVSPropertyOp1
 70
     1
102
RTVSPropertyOp2
 70
     1
102
RTVSPropertyOp3
 70
     1
102
RTVSPropertyOp4
 70
     1
102
RTVSPropertyOp5
 70
     1
102
RTVSPropertyOp6
 70
     1
102
RTVSPropertyOp7
 70
     1
102
RTVSPropertyOp8
 70
     1
102
RTVSPropertyOp9
 70
     1
102
RTVSPropertyOp10
 70
     1
102
RTVSPropertyOp11
 70
     1
102
RTVSPropertyOp12
 70
     1
102
RTVSPropertyOp13
 70
     1
102
RTVSPropertyOp14
 70
     1
102
RTVSPropertyOp15
 70
     1
102
RTVSPropertyOp16
 70
     1
102
RTVSPropertyOp17
 70
     1
102
RTVSPropertyOp18
 70
     1
102
RTVSPropertyOp19
 70
     1
102
RTVSPropertyOp20
 70
     1
102
RTVSPropertyOp21
 70
     1
102
RTVSPropertyOp22
 70
     1
102
RTVSPropertyOp23
 70
     1
102
RTVSPropertyOp24
 70
     1
102
RTVSPropertyOp25
 70
     1
102
RTVSPropertyOp26
 70
     1
102
RTVSPropertyOp27
 70
     1
102
RTVSPropertyOp28
 70
     1
102
RTVSPropertyOp29
 70
     1
102
RTVSPropertyOp30
 70
     1
102
RTVSPropertyOp31
 70
     1
102
RTVSPropertyOp32
 70
     1
  0
XRECORD
  5
A6
102
{ACAD_REACTORS
330
A5
102
}
330
A5
100
AcDbXrecord
280
     1
102
RTVSPropertyOp0
 70
     1
102
RTVSPropertyOp1
 70
     1
102
RTVSPropertyOp2
 70
     1
102
RTVSPropertyOp3
 70
     1
102
RTVSPropertyOp4
 70
     1
102
RTVSPropertyOp5
 70
     1
102
RTVSPropertyOp6
 70
     1
102
RTVSPropertyOp7
 70
     1
102
RTVSPropertyOp8
 70
     1
102
RTVSPropertyOp9
 70
     1
102
RTVSPropertyOp10
 70
     1
102
RTVSPropertyOp11
 70
     1
102
RTVSPropertyOp12
 70
     1
102
RTVSPropertyOp13
 70
     1
102
RTVSPropertyOp14
 70
     1
102
RTVSPropertyOp15
 70
     1
102
RTVSPropertyOp16
 70
     1
102
RTVSPropertyOp17
 70
     1
102
RTVSPropertyOp18
 70
     1
102
RTVSPropertyOp19
 70
     1
102
RTVSPropertyOp20
 70
     1
102
RTVSPropertyOp21
 70
     1
102
RTVSPropertyOp22
 70
     1
102
RTVSPropertyOp23
 70
     1
102
RTVSPropertyOp24
 70
     1
102
RTVSPropertyOp25
 70
     1
102
RTVSPropertyOp26
 70
     1
102
RTVSPropertyOp27
 70
     1
102
RTVSPropertyOp28
 70
     1
102
RTVSPropertyOp29
 70
     1
102
RTVSPropertyOp30
 70
     1
102
RTVSPropertyOp31
 70
     1
102
RTVSPropertyOp32
 70
     1
  0
XRECORD
  5
AE
102
{ACAD_REACTORS
330
AD
102
}
330
AD
100
AcDbXrecord
280
     1
102
RTVSPropertyOp0
 70
     1
102
RTVSPropertyOp1
 70
     1
102
RTVSPropertyOp2
 70
     1
102
RTVSPropertyOp3
 70
     1
102
RTVSPropertyOp4
 70
     1
102
RTVSPropertyOp5
 70
     1
102
RTVSPropertyOp6
 70
     1
102
RTVSPropertyOp7
 70
     1
102
RTVSPropertyOp8
 70
     1
102
RTVSPropertyOp9
 70
     1
102
RTVSPropertyOp10
 70
     1
102
RTVSPropertyOp11
 70
     1
102
RTVSPropertyOp12
 70
     1
102
RTVSPropertyOp13
 70
     1
102
RTVSPropertyOp14
 70
     1
102
RTVSPropertyOp15
 70
     1
102
RTVSPropertyOp16
 70
     1
102
RTVSPropertyOp17
 70
     1
102
RTVSPropertyOp18
 70
     1
102
RTVSPropertyOp19
 70
     1
102
RTVSPropertyOp20
 70
     1
102
RTVSPropertyOp21
 70
     1
102
RTVSPropertyOp22
 70
     1
102
RTVSPropertyOp23
 70
     1
102
RTVSPropertyOp24
 70
     1
102
RTVSPropertyOp25
 70
     1
102
RTVSPropertyOp26
 70
     1
102
RTVSPropertyOp27
 70
     1
102
RTVSPropertyOp28
 70
     1
102
RTVSPropertyOp29
 70
     1
102
RTVSPropertyOp30
 70
     1
102
RTVSPropertyOp31
 70
     1
102
RTVSPropertyOp32
 70
     1
  0
XRECORD
  5
A2
102
{ACAD_REACTORS
330
A1
102
}
330
A1
100
AcDbXrecord
280
     1
102
RTVSPropertyOp0
 70
     1
102
RTVSPropertyOp1
 70
     1
102
RTVSPropertyOp2
 70
     1
102
RTVSPropertyOp3
 70
     1
102
RTVSPropertyOp4
 70
     1
102
RTVSPropertyOp5
 70
     1
102
RTVSPropertyOp6
 70
     1
102
RTVSPropertyOp7
 70
     1
102
RTVSPropertyOp8
 70
     1
102
RTVSPropertyOp9
 70
     1
102
RTVSPropertyOp10
 70
     1
102
RTVSPropertyOp11
 70
     1
102
RTVSPropertyOp12
 70
     1
102
RTVSPropertyOp13
 70
     1
102
RTVSPropertyOp14
 70
     1
102
RTVSPropertyOp15
 70
     1
102
RTVSPropertyOp16
 70
     1
102
RTVSPropertyOp17
 70
     1
102
RTVSPropertyOp18
 70
     1
102
RTVSPropertyOp19
 70
     1
102
RTVSPropertyOp20
 70
     1
102
RTVSPropertyOp21
 70
     1
102
RTVSPropertyOp22
 70
     1
102
RTVSPropertyOp23
 70
     1
102
RTVSPropertyOp24
 70
     1
102
RTVSPropertyOp25
 70
     1
102
RTVSPropertyOp26
 70
     1
102
RTVSPropertyOp27
 70
     1
102
RTVSPropertyOp28
 70
     1
102
RTVSPropertyOp29
 70
     1
102
RTVSPropertyOp30
 70
     1
102
RTVSPropertyOp31
 70
     1
102
RTVSPropertyOp32
 70
     1
  0
XRECORD
  5
A4
102
{ACAD_REACTORS
330
A3
102
}
330
A3
100
AcDbXrecord
280
     1
102
RTVSPropertyOp0
 70
     1
102
RTVSPropertyOp1
 70
     1
102
RTVSPropertyOp2
 70
     1
102
RTVSPropertyOp3
 70
     1
102
RTVSPropertyOp4
 70
     1
102
RTVSPropertyOp5
 70
     1
102
RTVSPropertyOp6
 70
     1
102
RTVSPropertyOp7
 70
     1
102
RTVSPropertyOp8
 70
     1
102
RTVSPropertyOp9
 70
     1
102
RTVSPropertyOp10
 70
     1
102
RTVSPropertyOp11
 70
     1
102
RTVSPropertyOp12
 70
     1
102
RTVSPropertyOp13
 70
     1
102
RTVSPropertyOp14
 70
     1
102
RTVSPropertyOp15
 70
     1
102
RTVSPropertyOp16
 70
     1
102
RTVSPropertyOp17
 70
     1
102
RTVSPropertyOp18
 70
     1
102
RTVSPropertyOp19
 70
     1
102
RTVSPropertyOp20
 70
     1
102
RTVSPropertyOp21
 70
     1
102
RTVSPropertyOp22
 70
     1
102
RTVSPropertyOp23
 70
     1
102
RTVSPropertyOp24
 70
     1
102
RTVSPropertyOp25
 70
     1
102
RTVSPropertyOp26
 70
     1
102
RTVSPropertyOp27
 70
     1
102
RTVSPropertyOp28
 70
     1
102
RTVSPropertyOp29
 70
     1
102
RTVSPropertyOp30
 70
     1
102
RTVSPropertyOp31
 70
     1
102
RTVSPropertyOp32
 70
     1
  0
XRECORD
  5
AC
102
{ACAD_REACTORS
330
AB
102
}
330
AB
100
AcDbXrecord
280
     1
102
RTVSPropertyOp0
 70
     1
102
RTVSPropertyOp1
 70
     1
102
RTVSPropertyOp2
 70
     1
102
RTVSPropertyOp3
 70
     1
102
RTVSPropertyOp4
 70
     1
102
RTVSPropertyOp5
 70
     1
102
RTVSPropertyOp6
 70
     1
102
RTVSPropertyOp7
 70
     1
102
RTVSPropertyOp8
 70
     1
102
RTVSPropertyOp9
 70
     1
102
RTVSPropertyOp10
 70
     1
102
RTVSPropertyOp11
 70
     1
102
RTVSPropertyOp12
 70
     1
102
RTVSPropertyOp13
 70
     1
102
RTVSPropertyOp14
 70
     1
102
RTVSPropertyOp15
 70
     1
102
RTVSPropertyOp16
 70
     1
102
RTVSPropertyOp17
 70
     1
102
RTVSPropertyOp18
 70
     1
102
RTVSPropertyOp19
 70
     1
102
RTVSPropertyOp20
 70
     1
102
RTVSPropertyOp21
 70
     1
102
RTVSPropertyOp22
 70
     1
102
RTVSPropertyOp23
 70
     1
102
RTVSPropertyOp24
 70
     1
102
RTVSPropertyOp25
 70
     1
102
RTVSPropertyOp26
 70
     1
102
RTVSPropertyOp27
 70
     1
102
RTVSPropertyOp28
 70
     1
102
RTVSPropertyOp29
 70
     1
102
RTVSPropertyOp30
 70
     1
102
RTVSPropertyOp31
 70
     1
102
RTVSPropertyOp32
 70
     1
  0
XRECORD
  5
90
102
{ACAD_REACTORS
330
8F
102
}
330
8F
100
AcDbXrecord
280
     1
102
RTVSPropertyOp0
 70
     1
102
RTVSPropertyOp1
 70
     1
102
RTVSPropertyOp2
 70
     1
102
RTVSPropertyOp3
 70
     1
102
RTVSPropertyOp4
 70
     1
102
RTVSPropertyOp5
 70
     1
102
RTVSPropertyOp6
 70
     1
102
RTVSPropertyOp7
 70
     1
102
RTVSPropertyOp8
 70
     1
102
RTVSPropertyOp9
 70
     1
102
RTVSPropertyOp10
 70
     1
102
RTVSPropertyOp11
 70
     1
102
RTVSPropertyOp12
 70
     1
102
RTVSPropertyOp13
 70
     1
102
RTVSPropertyOp14
 70
     1
102
RTVSPropertyOp15
 70
     1
102
RTVSPropertyOp16
 70
     1
102
RTVSPropertyOp17
 70
     1
102
RTVSPropertyOp18
 70
     1
102
RTVSPropertyOp19
 70
     1
102
RTVSPropertyOp20
 70
     1
102
RTVSPropertyOp21
 70
     1
102
RTVSPropertyOp22
 70
     1
102
RTVSPropertyOp23
 70
     1
102
RTVSPropertyOp24
 70
     1
102
RTVSPropertyOp25
 70
     1
102
RTVSPropertyOp26
 70
     1
102
RTVSPropertyOp27
 70
     1
102
RTVSPropertyOp28
 70
     1
102
RTVSPropertyOp29
 70
     1
102
RTVSPropertyOp30
 70
     1
102
RTVSPropertyOp31
 70
     1
102
RTVSPropertyOp32
 70
     1
  0
XRECORD
  5
92
102
{ACAD_REACTORS
330
91
102
}
330
91
100
AcDbXrecord
280
     1
102
RTVSPropertyOp0
 70
     1
102
RTVSPropertyOp1
 70
     1
102
RTVSPropertyOp2
 70
     1
102
RTVSPropertyOp3
 70
     1
102
RTVSPropertyOp4
 70
     1
102
RTVSPropertyOp5
 70
     1
102
RTVSPropertyOp6
 70
     1
102
RTVSPropertyOp7
 70
     1
102
RTVSPropertyOp8
 70
     1
102
RTVSPropertyOp9
 70
     1
102
RTVSPropertyOp10
 70
     1
102
RTVSPropertyOp11
 70
     1
102
RTVSPropertyOp12
 70
     1
102
RTVSPropertyOp13
 70
     1
102
RTVSPropertyOp14
 70
     1
102
RTVSPropertyOp15
 70
     1
102
RTVSPropertyOp16
 70
     1
102
RTVSPropertyOp17
 70
     1
102
RTVSPropertyOp18
 70
     1
102
RTVSPropertyOp19
 70
     1
102
RTVSPropertyOp20
 70
     1
102
RTVSPropertyOp21
 70
     1
102
RTVSPropertyOp22
 70
     1
102
RTVSPropertyOp23
 70
     1
102
RTVSPropertyOp24
 70
     1
102
RTVSPropertyOp25
 70
     1
102
RTVSPropertyOp26
 70
     1
102
RTVSPropertyOp27
 70
     1
102
RTVSPropertyOp28
 70
     1
102
RTVSPropertyOp29
 70
     1
102
RTVSPropertyOp30
 70
     1
102
RTVSPropertyOp31
 70
     1
102
RTVSPropertyOp32
 70
     1
  0
XRECORD
  5
94
102
{ACAD_REACTORS
330
93
102
}
330
93
100
AcDbXrecord
280
     1
102
RTVSPropertyOp0
 70
     1
102
RTVSPropertyOp1
 70
     1
102
RTVSPropertyOp2
 70
     1
102
RTVSPropertyOp3
 70
     1
102
RTVSPropertyOp4
 70
     1
102
RTVSPropertyOp5
 70
     1
102
RTVSPropertyOp6
 70
     1
102
RTVSPropertyOp7
 70
     1
102
RTVSPropertyOp8
 70
     1
102
RTVSPropertyOp9
 70
     1
102
RTVSPropertyOp10
 70
     1
102
RTVSPropertyOp11
 70
     1
102
RTVSPropertyOp12
 70
     1
102
RTVSPropertyOp13
 70
     1
102
RTVSPropertyOp14
 70
     1
102
RTVSPropertyOp15
 70
     1
102
RTVSPropertyOp16
 70
     1
102
RTVSPropertyOp17
 70
     1
102
RTVSPropertyOp18
 70
     1
102
RTVSPropertyOp19
 70
     1
102
RTVSPropertyOp20
 70
     1
102
RTVSPropertyOp21
 70
     1
102
RTVSPropertyOp22
 70
     1
102
RTVSPropertyOp23
 70
     1
102
RTVSPropertyOp24
 70
     1
102
RTVSPropertyOp25
 70
     1
102
RTVSPropertyOp26
 70
     1
102
RTVSPropertyOp27
 70
     1
102
RTVSPropertyOp28
 70
     1
102
RTVSPropertyOp29
 70
     1
102
RTVSPropertyOp30
 70
     1
102
RTVSPropertyOp31
 70
     1
102
RTVSPropertyOp32
 70
     1
  0
XRECORD
  5
96
102
{ACAD_REACTORS
330
95
102
}
330
95
100
AcDbXrecord
280
     1
102
RTVSPropertyOp0
 70
     1
102
RTVSPropertyOp1
 70
     1
102
RTVSPropertyOp2
 70
     1
102
RTVSPropertyOp3
 70
     1
102
RTVSPropertyOp4
 70
     1
102
RTVSPropertyOp5
 70
     1
102
RTVSPropertyOp6
 70
     1
102
RTVSPropertyOp7
 70
     1
102
RTVSPropertyOp8
 70
     1
102
RTVSPropertyOp9
 70
     1
102
RTVSPropertyOp10
 70
     1
102
RTVSPropertyOp11
 70
     1
102
RTVSPropertyOp12
 70
     1
102
RTVSPropertyOp13
 70
     1
102
RTVSPropertyOp14
 70
     1
102
RTVSPropertyOp15
 70
     1
102
RTVSPropertyOp16
 70
     1
102
RTVSPropertyOp17
 70
     1
102
RTVSPropertyOp18
 70
     1
102
RTVSPropertyOp19
 70
     1
102
RTVSPropertyOp20
 70
     1
102
RTVSPropertyOp21
 70
     1
102
RTVSPropertyOp22
 70
     1
102
RTVSPropertyOp23
 70
     1
102
RTVSPropertyOp24
 70
     1
102
RTVSPropertyOp25
 70
     1
102
RTVSPropertyOp26
 70
     1
102
RTVSPropertyOp27
 70
     1
102
RTVSPropertyOp28
 70
     1
102
RTVSPropertyOp29
 70
     1
102
RTVSPropertyOp30
 70
     1
102
RTVSPropertyOp31
 70
     1
102
RTVSPropertyOp32
 70
     1
  0
XRECORD
  5
AA
102
{ACAD_REACTORS
330
A9
102
}
330
A9
100
AcDbXrecord
280
     1
102
RTVSPropertyOp0
 70
     1
102
RTVSPropertyOp1
 70
     1
102
RTVSPropertyOp2
 70
     1
102
RTVSPropertyOp3
 70
     1
102
RTVSPropertyOp4
 70
     1
102
RTVSPropertyOp5
 70
     1
102
RTVSPropertyOp6
 70
     1
102
RTVSPropertyOp7
 70
     1
102
RTVSPropertyOp8
 70
     1
102
RTVSPropertyOp9
 70
     1
102
RTVSPropertyOp10
 70
     1
102
RTVSPropertyOp11
 70
     1
102
RTVSPropertyOp12
 70
     1
102
RTVSPropertyOp13
 70
     1
102
RTVSPropertyOp14
 70
     1
102
RTVSPropertyOp15
 70
     1
102
RTVSPropertyOp16
 70
     1
102
RTVSPropertyOp17
 70
     1
102
RTVSPropertyOp18
 70
     1
102
RTVSPropertyOp19
 70
     1
102
RTVSPropertyOp20
 70
     1
102
RTVSPropertyOp21
 70
     1
102
RTVSPropertyOp22
 70
     1
102
RTVSPropertyOp23
 70
     1
102
RTVSPropertyOp24
 70
     1
102
RTVSPropertyOp25
 70
     1
102
RTVSPropertyOp26
 70
     1
102
RTVSPropertyOp27
 70
     1
102
RTVSPropertyOp28
 70
     1
102
RTVSPropertyOp29
 70
     1
102
RTVSPropertyOp30
 70
     1
102
RTVSPropertyOp31
 70
     1
102
RTVSPropertyOp32
 70
     1
  0
XRECORD
  5
A0
102
{ACAD_REACTORS
330
9F
102
}
330
9F
100
AcDbXrecord
280
     1
102
RTVSPropertyOp0
 70
     1
102
RTVSPropertyOp1
 70
     1
102
RTVSPropertyOp2
 70
     1
102
RTVSPropertyOp3
 70
     1
102
RTVSPropertyOp4
 70
     1
102
RTVSPropertyOp5
 70
     1
102
RTVSPropertyOp6
 70
     1
102
RTVSPropertyOp7
 70
     1
102
RTVSPropertyOp8
 70
     1
102
RTVSPropertyOp9
 70
     1
102
RTVSPropertyOp10
 70
     1
102
RTVSPropertyOp11
 70
     1
102
RTVSPropertyOp12
 70
     1
102
RTVSPropertyOp13
 70
     1
102
RTVSPropertyOp14
 70
     1
102
RTVSPropertyOp15
 70
     1
102
RTVSPropertyOp16
 70
     1
102
RTVSPropertyOp17
 70
     1
102
RTVSPropertyOp18
 70
     1
102
RTVSPropertyOp19
 70
     1
102
RTVSPropertyOp20
 70
     1
102
RTVSPropertyOp21
 70
     1
102
RTVSPropertyOp22
 70
     1
102
RTVSPropertyOp23
 70
     1
102
RTVSPropertyOp24
 70
     1
102
RTVSPropertyOp25
 70
     1
102
RTVSPropertyOp26
 70
     1
102
RTVSPropertyOp27
 70
     1
102
RTVSPropertyOp28
 70
     1
102
RTVSPropertyOp29
 70
     1
102
RTVSPropertyOp30
 70
     1
102
RTVSPropertyOp31
 70
     1
102
RTVSPropertyOp32
 70
     1
  0
XRECORD
  5
A8
102
{ACAD_REACTORS
330
A7
102
}
330
A7
100
AcDbXrecord
280
     1
102
RTVSPropertyOp0
 70
     1
102
RTVSPropertyOp1
 70
     1
102
RTVSPropertyOp2
 70
     1
102
RTVSPropertyOp3
 70
     1
102
RTVSPropertyOp4
 70
     1
102
RTVSPropertyOp5
 70
     1
102
RTVSPropertyOp6
 70
     1
102
RTVSPropertyOp7
 70
     1
102
RTVSPropertyOp8
 70
     1
102
RTVSPropertyOp9
 70
     1
102
RTVSPropertyOp10
 70
     1
102
RTVSPropertyOp11
 70
     1
102
RTVSPropertyOp12
 70
     1
102
RTVSPropertyOp13
 70
     1
102
RTVSPropertyOp14
 70
     1
102
RTVSPropertyOp15
 70
     1
102
RTVSPropertyOp16
 70
     1
102
RTVSPropertyOp17
 70
     1
102
RTVSPropertyOp18
 70
     1
102
RTVSPropertyOp19
 70
     1
102
RTVSPropertyOp20
 70
     1
102
RTVSPropertyOp21
 70
     1
102
RTVSPropertyOp22
 70
     1
102
RTVSPropertyOp23
 70
     1
102
RTVSPropertyOp24
 70
     1
102
RTVSPropertyOp25
 70
     1
102
RTVSPropertyOp26
 70
     1
102
RTVSPropertyOp27
 70
     1
102
RTVSPropertyOp28
 70
     1
102
RTVSPropertyOp29
 70
     1
102
RTVSPropertyOp30
 70
     1
102
RTVSPropertyOp31
 70
     1
102
RTVSPropertyOp32
 70
     1
  0
ENDSEC
  0
EOF
