  0
SECTION
  2
HEADER
  9
$ACADVER
  1
AC1021
  9
$ACADMAINTVER
 70
    25
  9
$DWGCODEPAGE
  3
ANSI_1252
  9
$INSBASE
 10
0.0
 20
0.0
 30
0.0
  9
$EXTMIN
 10
-58.2203
 20
-106.6867
 30
0.0
  9
$EXTMAX
 10
60.2635
 20
131.5697
 30
0.0
  9
$LIMMIN
 10
0.0
 20
0.0
  9
$LIMMAX
 10
12.0
 20
9.0
  9
$ORTHOMODE
 70
     0
  9
$REGENMODE
 70
     1
  9
$FILLMODE
 70
     1
  9
$QTEXTMODE
 70
     0
  9
$MIRRTEXT
 70
     1
  9
$LTSCALE
 40
1.0
  9
$ATTMODE
 70
     1
  9
$TEXTSIZE
 40
0.2
  9
$TRACEWID
 40
0.05
  9
$TEXTSTYLE
  7
Standard
  9
$CLAYER
  8
0
  9
$CELTYPE
  6
ByLayer
  9
$CECOLOR
 62
   256
  9
$CELTSCALE
 40
1.0
  9
$DISPSILH
 70
     0
  9
$DIMSCALE
 40
1.0
  9
$DIMASZ
 40
0.18
  9
$DIMEXO
 40
0.0625
  9
$DIMDLI
 40
0.38
  9
$DIMRND
 40
0.0
  9
$DIMDLE
 40
0.0
  9
$DIMEXE
 40
0.18
  9
$DIMTP
 40
0.0
  9
$DIMTM
 40
0.0
  9
$DIMTXT
 40
0.18
  9
$DIMCEN
 40
0.09
  9
$DIMTSZ
 40
0.0
  9
$DIMTOL
 70
     0
  9
$DIMLIM
 70
     0
  9
$DIMTIH
 70
     1
  9
$DIMTOH
 70
     1
  9
$DIMSE1
 70
     0
  9
$DIMSE2
 70
     0
  9
$DIMTAD
 70
     0
  9
$DIMZIN
 70
     0
  9
$DIMBLK
  1

  9
$DIMASO
 70
     1
  9
$DIMSHO
 70
     1
  9
$DIMPOST
  1

  9
$DIMAPOST
  1

  9
$DIMALT
 70
     0
  9
$DIMALTD
 70
     2
  9
$DIMALTF
 40
25.4
  9
$DIMLFAC
 40
1.0
  9
$DIMTOFL
 70
     0
  9
$DIMTVP
 40
0.0
  9
$DIMTIX
 70
     0
  9
$DIMSOXD
 70
     0
  9
$DIMSAH
 70
     0
  9
$DIMBLK1
  1

  9
$DIMBLK2
  1

  9
$DIMSTYLE
  2
Standard
  9
$DIMCLRD
 70
     0
  9
$DIMCLRE
 70
     0
  9
$DIMCLRT
 70
     0
  9
$DIMTFAC
 40
1.0
  9
$DIMGAP
 40
0.09
  9
$DIMJUST
 70
     0
  9
$DIMSD1
 70
     0
  9
$DIMSD2
 70
     0
  9
$DIMTOLJ
 70
     1
  9
$DIMTZIN
 70
     0
  9
$DIMALTZ
 70
     0
  9
$DIMALTTZ
 70
     0
  9
$DIMUPT
 70
     0
  9
$DIMDEC
 70
     4
  9
$DIMTDEC
 70
     4
  9
$DIMALTU
 70
     2
  9
$DIMALTTD
 70
     2
  9
$DIMTXSTY
  7
Standard
  9
$DIMAUNIT
 70
     0
  9
$DIMADEC
 70
     0
  9
$DIMALTRND
 40
0.0
  9
$DIMAZIN
 70
     0
  9
$DIMDSEP
 70
    46
  9
$DIMATFIT
 70
     3
  9
$DIMFRAC
 70
     0
  9
$DIMLDRBLK
  1

  9
$DIMLUNIT
 70
     2
  9
$DIMLWD
 70
    -2
  9
$DIMLWE
 70
    -2
  9
$DIMTMOVE
 70
     0
  9
$DIMFXL
 40
1.0
  9
$DIMFXLON
 70
     0
  9
$DIMJOGANG
 40
0.7853981633974483
  9
$DIMTFILL
 70
     0
  9
$DIMTFILLCLR
 70
     0
  9
$DIMARCSYM
 70
     0
  9
$DIMLTYPE
  6

  9
$DIMLTEX1
  6

  9
$DIMLTEX2
  6

  9
$LUNITS
 70
     2
  9
$LUPREC
 70
     4
  9
$SKETCHINC
 40
0.1
  9
$FILLETRAD
 40
0.5
  9
$AUNITS
 70
     0
  9
$AUPREC
 70
     0
  9
$MENU
  1
.
  9
$ELEVATION
 40
0.0
  9
$PELEVATION
 40
0.0
  9
$THICKNESS
 40
0.0
  9
$LIMCHECK
 70
     0
  9
$CHAMFERA
 40
0.5
  9
$CHAMFERB
 40
0.5
  9
$CHAMFERC
 40
1.0
  9
$CHAMFERD
 40
0.0
  9
$SKPOLY
 70
     0
  9
$TDCREATE
 40
2458493.681674815
  9
$TDUCREATE
 40
2458493.681674815
  9
$TDUPDATE
 40
2458493.681674988
  9
$TDUUPDATE
 40
2458493.681674988
  9
$TDINDWG
 40
0.0000000116
  9
$TDUSRTIMER
 40
0.0000000116
  9
$USRTIMER
 70
     1
  9
$ANGBASE
 50
0.0
  9
$ANGDIR
 70
     0
  9
$PDMODE
 70
     0
  9
$PDSIZE
 40
0.0
  9
$PLINEWID
 40
0.0
  9
$SPLFRAME
 70
     0
  9
$SPLINETYPE
 70
     6
  9
$SPLINESEGS
 70
     8
  9
$HANDSEED
  5
D8
  9
$SURFTAB1
 70
     6
  9
$SURFTAB2
 70
     6
  9
$SURFTYPE
 70
     6
  9
$SURFU
 70
     6
  9
$SURFV
 70
     6
  9
$UCSBASE
  2

  9
$UCSNAME
  2

  9
$UCSORG
 10
0.0
 20
0.0
 30
0.0
  9
$UCSXDIR
 10
1.0
 20
0.0
 30
0.0
  9
$UCSYDIR
 10
0.0
 20
1.0
 30
0.0
  9
$UCSORTHOREF
  2

  9
$UCSORTHOVIEW
 70
     0
  9
$UCSORGTOP
 10
0.0
 20
0.0
 30
0.0
  9
$UCSORGBOTTOM
 10
0.0
 20
0.0
 30
0.0
  9
$UCSORGLEFT
 10
0.0
 20
0.0
 30
0.0
  9
$UCSORGRIGHT
 10
0.0
 20
0.0
 30
0.0
  9
$UCSORGFRONT
 10
0.0
 20
0.0
 30
0.0
  9
$UCSORGBACK
 10
0.0
 20
0.0
 30
0.0
  9
$PUCSBASE
  2

  9
$PUCSNAME
  2

  9
$PUCSORG
 10
0.0
 20
0.0
 30
0.0
  9
$PUCSXDIR
 10
1.0
 20
0.0
 30
0.0
  9
$PUCSYDIR
 10
0.0
 20
1.0
 30
0.0
  9
$PUCSORTHOREF
  2

  9
$PUCSORTHOVIEW
 70
     0
  9
$PUCSORGTOP
 10
0.0
 20
0.0
 30
0.0
  9
$PUCSORGBOTTOM
 10
0.0
 20
0.0
 30
0.0
  9
$PUCSORGLEFT
 10
0.0
 20
0.0
 30
0.0
  9
$PUCSORGRIGHT
 10
0.0
 20
0.0
 30
0.0
  9
$PUCSORGFRONT
 10
0.0
 20
0.0
 30
0.0
  9
$PUCSORGBACK
 10
0.0
 20
0.0
 30
0.0
  9
$USERI1
 70
     0
  9
$USERI2
 70
     0
  9
$USERI3
 70
     0
  9
$USERI4
 70
     0
  9
$USERI5
 70
     0
  9
$USERR1
 40
0.0
  9
$USERR2
 40
0.0
  9
$USERR3
 40
0.0
  9
$USERR4
 40
0.0
  9
$USERR5
 40
0.0
  9
$WORLDVIEW
 70
     1
  9
$SHADEDGE
 70
     3
  9
$SHADEDIF
 70
    70
  9
$TILEMODE
 70
     1
  9
$MAXACTVP
 70
    64
  9
$PINSBASE
 10
0.0
 20
0.0
 30
0.0
  9
$PLIMCHECK
 70
     0
  9
$PEXTMIN
 10
1.000000000000000E+20
 20
1.000000000000000E+20
 30
1.000000000000000E+20
  9
$PEXTMAX
 10
-1.000000000000000E+20
 20
-1.000000000000000E+20
 30
-1.000000000000000E+20
  9
$PLIMMIN
 10
0.0
 20
0.0
  9
$PLIMMAX
 10
12.0
 20
9.0
  9
$UNITMODE
 70
     0
  9
$VISRETAIN
 70
     1
  9
$PLINEGEN
 70
     0
  9
$PSLTSCALE
 70
     1
  9
$TREEDEPTH
 70
  3020
  9
$CMLSTYLE
  2
Standard
  9
$CMLJUST
 70
     0
  9
$CMLSCALE
 40
1.0
  9
$PROXYGRAPHICS
 70
     1
  9
$MEASUREMENT
 70
     0
  9
$CELWEIGHT
370
    -1
  9
$ENDCAPS
280
     0
  9
$JOINSTYLE
280
     0
  9
$LWDISPLAY
290
     0
  9
$INSUNITS
 70
     4
  9
$HYPERLINKBASE
  1

  9
$STYLESHEET
  1

  9
$XEDIT
290
     1
  9
$CEPSNTYPE
380
     0
  9
$PSTYLEMODE
290
     1
  9
$FINGERPRINTGUID
  2
{C3EB3CA3-5CDF-49E9-B802-82F4EC885D97}
  9
$VERSIONGUID
  2
{FAEB1C32-E019-11D5-929B-00C0DF256EC4}
  9
$EXTNAMES
290
     1
  9
$PSVPSCALE
 40
0.0
  9
$OLESTARTUP
290
     0
  9
$SORTENTS
280
   127
  9
$INDEXCTL
280
     0
  9
$HIDETEXT
280
     1
  9
$XCLIPFRAME
290
     0
  9
$HALOGAP
280
     0
  9
$OBSCOLOR
 70
   257
  9
$OBSLTYPE
280
     0
  9
$INTERSECTIONDISPLAY
280
     0
  9
$INTERSECTIONCOLOR
 70
   257
  9
$DIMASSOC
280
     2
  9
$PROJECTNAME
  1

  9
$CAMERADISPLAY
290
     0
  9
$LENSLENGTH
 40
50.0
  9
$CAMERAHEIGHT
 40
0.0
  9
$STEPSPERSEC
 40
2.0
  9
$STEPSIZE
 40
6.0
  9
$3DDWFPREC
 40
2.0
  9
$PSOLWIDTH
 40
0.25
  9
$PSOLHEIGHT
 40
4.0
  9
$LOFTANG1
 40
1.570796326794897
  9
$LOFTANG2
 40
1.570796326794897
  9
$LOFTMAG1
 40
0.0
  9
$LOFTMAG2
 40
0.0
  9
$LOFTPARAM
 70
     7
  9
$LOFTNORMALS
280
     1
  9
$LATITUDE
 40
37.795
  9
$LONGITUDE
 40
-122.394
  9
$NORTHDIRECTION
 40
0.0
  9
$TIMEZONE
 70
 -8000
  9
$LIGHTGLYPHDISPLAY
280
     1
  9
$TILEMODELIGHTSYNCH
280
     1
  9
$SOLIDHIST
280
     1
  9
$SHOWHIST
280
     1
  9
$DWFFRAME
280
     2
  9
$DGNFRAME
280
     2
  9
$REALWORLDSCALE
290
     1
  9
$INTERFERECOLOR
 62
   256
  9
$CSHADOW
280
     0
  9
$SHADOWPLANELOCATION
 40
0.0
  0
ENDSEC
  0
SECTION
  2
CLASSES
  0
CLASS
  1
ACDBDICTIONARYWDFLT
  2
AcDbDictionaryWithDefault
  3
ObjectDBX Classes
 90
        0
 91
        4
280
     0
281
     0
  0
CLASS
  1
VISUALSTYLE
  2
AcDbVisualStyle
  3
ObjectDBX Classes
 90
     4095
 91
        4
280
     0
281
     0
  0
CLASS
  1
MATERIAL
  2
AcDbMaterial
  3
ObjectDBX Classes
 90
     1153
 91
        4
280
     0
281
     0
  0
ENDSEC
  0
SECTION
  2
TABLES
  0
TABLE
  2
VPORT
  5
8
330
0
100
AcDbSymbolTable
 70
     1
  0
VPORT
  5
29
330
8
100
AcDbSymbolTableRecord
100
AcDbViewportTableRecord
  2
*Active
 70
     0
 10
0.0
 20
0.0
 11
1.0
 21
1.0
 12
10.42990654205607
 22
4.5
 13
0.0
 23
0.0
 14
0.5
 24
0.5
 15
0.5
 25
0.5
 16
0.0
 26
0.0
 36
1.0
 17
0.0
 27
0.0
 37
0.0
 40
9.0
 41
1.972972972850329
 42
50.0
 43
0.0
 44
0.0
 50
0.0
 51
0.0
 71
     0
 72
   100
 73
     1
 74
     3
 75
     0
 76
     0
 77
     0
 78
     0
281
     0
 65
     1
110
0.0
120
0.0
130
0.0
111
1.0
121
0.0
131
0.0
112
0.0
122
1.0
132
0.0
 79
     0
146
0.0
 60
     3
 61
     5
292
     1
282
     1
141
0.0
142
0.0
 63
   250
  0
ENDTAB
  0
TABLE
  2
LTYPE
  5
5
330
0
100
AcDbSymbolTable
 70
     1
  0
LTYPE
  5
14
330
5
100
AcDbSymbolTableRecord
100
AcDbLinetypeTableRecord
  2
ByBlock
 70
     0
  3

 72
    65
 73
     0
 40
0.0
  0
LTYPE
  5
15
330
5
100
AcDbSymbolTableRecord
100
AcDbLinetypeTableRecord
  2
ByLayer
 70
     0
  3

 72
    65
 73
     0
 40
0.0
  0
LTYPE
  5
16
330
5
100
AcDbSymbolTableRecord
100
AcDbLinetypeTableRecord
  2
Continuous
 70
     0
  3
Solid line
 72
    65
 73
     0
 40
0.0
  0
ENDTAB
  0
TABLE
  2
LAYER
  5
2
330
0
100
AcDbSymbolTable
 70
     3
  0
LAYER
  5
10
330
2
100
AcDbSymbolTableRecord
100
AcDbLayerTableRecord
  2
0
 70
     0
 62
     7
  6
Continuous
370
    -3
390
F
347
3E
  0
LAYER
  5
40
330
2
100
AcDbSymbolTableRecord
100
AcDbLayerTableRecord
  2
layer 1
 70
     0
 62
     7
  6
Continuous
370
    -3
390
F
347
3E
  0
LAYER
  5
B5
330
2
100
AcDbSymbolTableRecord
100
AcDbLayerTableRecord
  2
Master Guides
 70
     0
 62
     7
  6
Continuous
370
    -3
390
F
347
3E
  0
ENDTAB
  0
TABLE
  2
STYLE
  5
3
330
0
100
AcDbSymbolTable
 70
     1
  0
STYLE
  5
11
330
3
100
AcDbSymbolTableRecord
100
AcDbTextStyleTableRecord
  2
Standard
 70
     0
 40
0.0
 41
1.0
 50
0.0
 71
     0
 42
0.2
  3
txt
  4

  0
ENDTAB
  0
TABLE
  2
VIEW
  5
6
330
0
100
AcDbSymbolTable
 70
     0
  0
ENDTAB
  0
TABLE
  2
UCS
  5
7
330
0
100
AcDbSymbolTable
 70
     0
  0
ENDTAB
  0
TABLE
  2
APPID
  5
9
330
0
100
AcDbSymbolTable
 70
     2
  0
APPID
  5
12
330
9
100
AcDbSymbolTableRecord
100
AcDbRegAppTableRecord
  2
ACAD
 70
     0
  0
APPID
  5
3F
330
9
100
AcDbSymbolTableRecord
100
AcDbRegAppTableRecord
  2
ODA
 70
     0
  0
ENDTAB
  0
TABLE
  2
DIMSTYLE
  5
A
330
0
100
AcDbSymbolTable
 70
     1
100
AcDbDimStyleTable
  0
DIMSTYLE
105
27
330
A
100
AcDbSymbolTableRecord
100
AcDbDimStyleTableRecord
  2
Standard
 70
     0
178
     0
340
11
  0
ENDTAB
  0
TABLE
  2
BLOCK_RECORD
  5
1
330
0
100
AcDbSymbolTable
 70
     1
  0
BLOCK_RECORD
  5
1F
330
1
100
AcDbSymbolTableRecord
100
AcDbBlockTableRecord
  2
*Model_Space
340
22
 70
     0
280
     1
281
     0
  0
BLOCK_RECORD
  5
1B
330
1
100
AcDbSymbolTableRecord
100
AcDbBlockTableRecord
  2
*Paper_Space
340
1E
 70
     0
280
     1
281
     0
  0
BLOCK_RECORD
  5
23
330
1
100
AcDbSymbolTableRecord
100
AcDbBlockTableRecord
  2
*Paper_Space0
340
26
 70
     0
280
     1
281
     0
  0
ENDTAB
  0
ENDSEC
  0
SECTION
  2
BLOCKS
  0
BLOCK
  5
20
330
1F
100
AcDbEntity
  8
0
100
AcDbBlockBegin
  2
*Model_Space
 70
     0
 10
0.0
 20
0.0
 30
0.0
  3
*Model_Space
  1

  0
ENDBLK
  5
21
330
1F
100
AcDbEntity
  8
0
100
AcDbBlockEnd
  0
BLOCK
  5
1C
330
1B
100
AcDbEntity
 67
     1
  8
0
100
AcDbBlockBegin
  2
*Paper_Space
 70
     0
 10
0.0
 20
0.0
 30
0.0
  3
*Paper_Space
  1

  0
ENDBLK
  5
1D
330
1B
100
AcDbEntity
 67
     1
  8
0
100
AcDbBlockEnd
  0
BLOCK
  5
24
330
23
100
AcDbEntity
  8
0
100
AcDbBlockBegin
  2
*Paper_Space0
 70
     0
 10
0.0
 20
0.0
 30
0.0
  3
*Paper_Space0
  1

  0
ENDBLK
  5
25
330
23
100
AcDbEntity
  8
0
100
AcDbBlockEnd
  0
ENDSEC
  0
SECTION
  2
ENTITIES
  0
SPLINE
  5
41
330
1F
100
AcDbEntity
  8
layer 1
 62
   250
100
AcDbSpline
210
0.0
220
0.0
230
1.0
 70
    11
 71
     3
 72
    44
 73
    40
 74
     0
 42
0.0000000001
 43
0.0000000001
 12
1.0
 22
0.0
 32
0.0
 13
1.0
 23
0.0
 33
0.0
 40
0.0
 40
0.0
 40
0.0
 40
0.0
 40
0.0909090909090909
 40
0.0909090909090909
 40
0.0909090909090909
 40
0.0909090909090909
 40
0.1818181818181818
 40
0.1818181818181818
 40
0.1818181818181818
 40
0.1818181818181818
 40
0.2727272727272727
 40
0.2727272727272727
 40
0.2727272727272727
 40
0.2727272727272727
 40
0.3636363636363636
 40
0.3636363636363636
 40
0.3636363636363636
 40
0.3636363636363636
 40
0.4545454545454545
 40
0.4545454545454545
 40
0.4545454545454545
 40
0.4545454545454545
 40
0.5454545454545454
 40
0.5454545454545454
 40
0.5454545454545454
 40
0.5454545454545454
 40
0.6363636363636364
 40
0.6363636363636364
 40
0.6363636363636364
 40
0.6363636363636364
 40
0.7272727272727273
 40
0.7272727272727273
 40
0.7272727272727273
 40
0.7272727272727273
 40
0.8181818181818182
 40
0.8181818181818182
 40
0.8181818181818182
 40
0.8181818181818182
 40
1.0
 40
1.0
 40
1.0
 40
1.0
 10
60.2635
 20
-105.5862
 30
0.0
 10
60.2635
 20
-105.5862
 30
0.0
 10
60.2635
 20
-104.3501
 30
0.0
 10
60.2635
 20
-104.3501
 30
0.0
 10
60.2635
 20
-104.3501
 30
0.0
 10
60.2635
 20
-104.3501
 30
0.0
 10
60.2635
 20
129.2331
 30
0.0
 10
60.2635
 20
129.2331
 30
0.0
 10
60.2635
 20
129.2331
 30
0.0
 10
60.2635
 20
129.2331
 30
0.0
 10
60.2635
 20
131.5697
 30
0.0
 10
60.2635
 20
131.5697
 30
0.0
 10
60.2635
 20
131.5697
 30
0.0
 10
60.2635
 20
131.5697
 30
0.0
 10
57.9269
 20
131.5697
 30
0.0
 10
57.9269
 20
131.5697
 30
0.0
 10
57.9269
 20
131.5697
 30
0.0
 10
57.9269
 20
131.5697
 30
0.0
 10
-55.8837
 20
131.5697
 30
0.0
 10
-55.8837
 20
131.5697
 30
0.0
 10
-55.8837
 20
131.5697
 30
0.0
 10
-55.8837
 20
131.5697
 30
0.0
 10
-58.2203
 20
131.5697
 30
0.0
 10
-58.2203
 20
131.5697
 30
0.0
 10
-58.2203
 20
131.5697
 30
0.0
 10
-58.2203
 20
131.5697
 30
0.0
 10
-58.2203
 20
-106.6867
 30
0.0
 10
-58.2203
 20
-106.6867
 30
0.0
 10
-58.2203
 20
-106.6867
 30
0.0
 10
-58.2203
 20
-106.6867
 30
0.0
 10
-55.8837
 20
-106.6867
 30
0.0
 10
-55.8837
 20
-106.6867
 30
0.0
 10
-55.8837
 20
-106.6867
 30
0.0
 10
-55.8837
 20
-106.6867
 30
0.0
 10
60.2635
 20
-106.6867
 30
0.0
 10
60.2635
 20
-106.6867
 30
0.0
 10
60.2635
 20
-106.6867
 30
0.0
 10
60.2635
 20
-106.6867
 30
0.0
 10
60.2635
 20
-105.5862
 30
0.0
 10
60.2635
 20
-105.5862
 30
0.0
  0
SPLINE
  5
42
330
1F
100
AcDbEntity
  8
layer 1
 62
     7
100
AcDbSpline
210
0.0
220
0.0
230
1.0
 70
    11
 71
     3
 72
    16
 73
    12
 74
     0
 42
0.0000000001
 43
0.0000000001
 12
1.0
 22
0.0
 32
0.0
 13
1.0
 23
0.0
 33
0.0
 40
0.0
 40
0.0
 40
0.0
 40
0.0
 40
0.25
 40
0.25
 40
0.25
 40
0.25
 40
0.5
 40
0.5
 40
0.5
 40
0.5
 40
1.0
 40
1.0
 40
1.0
 40
1.0
 10
-17.0849
 20
-104.3501
 30
0.0
 10
-8.112
 20
-103.7716
 30
0.0
 10
-0.7638
 20
-97.218
 30
0.0
 10
1.0214
 20
-88.6278
 30
0.0
 10
1.0214
 20
-88.6278
 30
0.0
 10
2.8068
 20
-97.218
 30
0.0
 10
10.1548
 20
-103.7716
 30
0.0
 10
19.1276
 20
-104.3501
 30
0.0
 10
19.1276
 20
-104.3501
 30
0.0
 10
19.1276
 20
-104.3501
 30
0.0
 10
-17.0849
 20
-104.3501
 30
0.0
 10
-17.0849
 20
-104.3501
 30
0.0
  0
SPLINE
  5
43
330
1F
100
AcDbEntity
  8
layer 1
 62
     7
100
AcDbSpline
210
0.0
220
0.0
230
1.0
 70
    11
 71
     3
 72
    16
 73
    12
 74
     0
 42
0.0000000001
 43
0.0000000001
 12
1.0
 22
0.0
 32
0.0
 13
1.0
 23
0.0
 33
0.0
 40
0.0
 40
0.0
 40
0.0
 40
0.0
 40
0.25
 40
0.25
 40
0.25
 40
0.25
 40
0.5
 40
0.5
 40
0.5
 40
0.5
 40
1.0
 40
1.0
 40
1.0
 40
1.0
 10
21.7142
 20
-104.3501
 30
0.0
 10
30.6869
 20
-103.7716
 30
0.0
 10
38.0352
 20
-97.218
 30
0.0
 10
39.8205
 20
-88.628
 30
0.0
 10
39.8205
 20
-88.628
 30
0.0
 10
41.6059
 20
-97.218
 30
0.0
 10
48.954
 20
-103.7716
 30
0.0
 10
57.9267
 20
-104.3501
 30
0.0
 10
57.9267
 20
-104.3501
 30
0.0
 10
57.9267
 20
-104.3501
 30
0.0
 10
21.7142
 20
-104.3501
 30
0.0
 10
21.7142
 20
-104.3501
 30
0.0
  0
SPLINE
  5
44
330
1F
100
AcDbEntity
  8
layer 1
 62
     7
100
AcDbSpline
210
0.0
220
0.0
230
1.0
 70
    11
 71
     3
 72
    16
 73
    12
 74
     0
 42
0.0000000001
 43
0.0000000001
 12
1.0
 22
0.0
 32
0.0
 13
1.0
 23
0.0
 33
0.0
 40
0.0
 40
0.0
 40
0.0
 40
0.0
 40
0.25
 40
0.25
 40
0.25
 40
0.25
 40
0.5
 40
0.5
 40
0.5
 40
0.5
 40
1.0
 40
1.0
 40
1.0
 40
1.0
 10
-55.8837
 20
-104.3501
 30
0.0
 10
-46.911
 20
-103.7716
 30
0.0
 10
-39.5629
 20
-97.218
 30
0.0
 10
-37.7776
 20
-88.628
 30
0.0
 10
-37.7776
 20
-88.628
 30
0.0
 10
-35.9924
 20
-97.218
 30
0.0
 10
-28.644
 20
-103.7716
 30
0.0
 10
-19.6714
 20
-104.3501
 30
0.0
 10
-19.6714
 20
-104.3501
 30
0.0
 10
-19.6714
 20
-104.3501
 30
0.0
 10
-55.8837
 20
-104.3501
 30
0.0
 10
-55.8837
 20
-104.3501
 30
0.0
  0
SPLINE
  5
45
330
1F
100
AcDbEntity
  8
layer 1
 62
     7
100
AcDbSpline
210
0.0
220
0.0
230
1.0
 70
    11
 71
     3
 72
    48
 73
    44
 74
     0
 42
0.0000000001
 43
0.0000000001
 12
1.0
 22
0.0
 32
0.0
 13
1.0
 23
0.0
 33
0.0
 40
0.0
 40
0.0
 40
0.0
 40
0.0
 40
0.0833333333333333
 40
0.0833333333333333
 40
0.0833333333333333
 40
0.0833333333333333
 40
0.1666666666666667
 40
0.1666666666666667
 40
0.1666666666666667
 40
0.1666666666666667
 40
0.25
 40
0.25
 40
0.25
 40
0.25
 40
0.3333333333333333
 40
0.3333333333333333
 40
0.3333333333333333
 40
0.3333333333333333
 40
0.4166666666666667
 40
0.4166666666666667
 40
0.4166666666666667
 40
0.4166666666666667
 40
0.5
 40
0.5
 40
0.5
 40
0.5
 40
0.5833333333333334
 40
0.5833333333333334
 40
0.5833333333333334
 40
0.5833333333333334
 40
0.6666666666666666
 40
0.6666666666666666
 40
0.6666666666666666
 40
0.6666666666666666
 40
0.75
 40
0.75
 40
0.75
 40
0.75
 40
0.8333333333333334
 40
0.8333333333333334
 40
0.8333333333333334
 40
0.8333333333333334
 40
1.0
 40
1.0
 40
1.0
 40
1.0
 10
57.9269
 20
129.2331
 30
0.0
 10
57.9269
 20
129.2331
 30
0.0
 10
57.9269
 20
129.1912
 30
0.0
 10
57.9269
 20
129.1912
 30
0.0
 10
57.9269
 20
129.1912
 30
0.0
 10
48.9542
 20
128.6129
 30
0.0
 10
41.6059
 20
122.0591
 30
0.0
 10
39.8205
 20
113.4691
 30
0.0
 10
39.8205
 20
113.4691
 30
0.0
 10
37.9502
 20
122.4683
 30
0.0
 10
29.9741
 20
129.2331
 30
0.0
 10
20.421
 20
129.2331
 30
0.0
 10
20.421
 20
129.2331
 30
0.0
 10
20.421
 20
129.2331
 30
0.0
 10
-18.3782
 20
129.2331
 30
0.0
 10
-18.3782
 20
129.2331
 30
0.0
 10
-18.3782
 20
129.2331
 30
0.0
 10
-27.9313
 20
129.2331
 30
0.0
 10
-35.9072
 20
122.4683
 30
0.0
 10
-37.7776
 20
113.4691
 30
0.0
 10
-37.7776
 20
113.4691
 30
0.0
 10
-39.5629
 20
122.0591
 30
0.0
 10
-46.911
 20
128.6127
 30
0.0
 10
-55.8837
 20
129.1912
 30
0.0
 10
-55.8837
 20
129.1912
 30
0.0
 10
-55.8837
 20
129.1912
 30
0.0
 10
-55.8837
 20
129.2331
 30
0.0
 10
-55.8837
 20
129.2331
 30
0.0
 10
-55.8837
 20
129.2331
 30
0.0
 10
-55.8837
 20
129.2331
 30
0.0
 10
-18.3782
 20
129.2331
 30
0.0
 10
-18.3782
 20
129.2331
 30
0.0
 10
-18.3782
 20
129.2331
 30
0.0
 10
-8.8249
 20
129.2331
 30
0.0
 10
-0.849
 20
122.4683
 30
0.0
 10
1.0214
 20
113.4691
 30
0.0
 10
1.0214
 20
113.4691
 30
0.0
 10
2.8918
 20
122.4683
 30
0.0
 10
10.8679
 20
129.2331
 30
0.0
 10
20.421
 20
129.2331
 30
0.0
 10
20.421
 20
129.2331
 30
0.0
 10
20.421
 20
129.2331
 30
0.0
 10
57.9269
 20
129.2331
 30
0.0
 10
57.9269
 20
129.2331
 30
0.0
  0
SPLINE
  5
46
330
1F
100
AcDbEntity
  8
layer 1
 62
     7
100
AcDbSpline
210
0.0
220
0.0
230
1.0
 70
    11
 71
     3
 72
    20
 73
    16
 74
     0
 42
0.0000000001
 43
0.0000000001
 12
1.0
 22
0.0
 32
0.0
 13
1.0
 23
0.0
 33
0.0
 40
0.0
 40
0.0
 40
0.0
 40
0.0
 40
0.2
 40
0.2
 40
0.2
 40
0.2
 40
0.4
 40
0.4
 40
0.4
 40
0.4
 40
0.6
 40
0.6
 40
0.6
 40
0.6
 40
1.0
 40
1.0
 40
1.0
 40
1.0
 10
-55.8837
 20
126.5981
 30
0.0
 10
-47.4016
 20
125.9677
 30
0.0
 10
-40.6274
 20
119.1936
 30
0.0
 10
-39.9975
 20
110.7116
 30
0.0
 10
-39.9975
 20
110.7116
 30
0.0
 10
-39.9975
 20
110.7116
 30
0.0
 10
-45.8307
 20
110.7116
 30
0.0
 10
-45.8307
 20
110.7116
 30
0.0
 10
-45.8307
 20
110.7116
 30
0.0
 10
-51.4854
 20
111.9145
 30
0.0
 10
-54.8364
 20
115.2653
 30
0.0
 10
-55.8837
 20
120.7647
 30
0.0
 10
-55.8837
 20
120.7647
 30
0.0
 10
-55.8837
 20
120.7647
 30
0.0
 10
-55.8837
 20
126.5981
 30
0.0
 10
-55.8837
 20
126.5981
 30
0.0
  0
SPLINE
  5
47
330
1F
100
AcDbEntity
  8
layer 1
 62
     7
100
AcDbSpline
210
0.0
220
0.0
230
1.0
 70
    11
 71
     3
 72
    64
 73
    60
 74
     0
 42
0.0000000001
 43
0.0000000001
 12
1.0
 22
0.0
 32
0.0
 13
1.0
 23
0.0
 33
0.0
 40
0.0
 40
0.0
 40
0.0
 40
0.0
 40
0.0625
 40
0.0625
 40
0.0625
 40
0.0625
 40
0.125
 40
0.125
 40
0.125
 40
0.125
 40
0.1875
 40
0.1875
 40
0.1875
 40
0.1875
 40
0.25
 40
0.25
 40
0.25
 40
0.25
 40
0.3125
 40
0.3125
 40
0.3125
 40
0.3125
 40
0.375
 40
0.375
 40
0.375
 40
0.375
 40
0.4375
 40
0.4375
 40
0.4375
 40
0.4375
 40
0.5
 40
0.5
 40
0.5
 40
0.5
 40
0.5625
 40
0.5625
 40
0.5625
 40
0.5625
 40
0.625
 40
0.625
 40
0.625
 40
0.625
 40
0.6875
 40
0.6875
 40
0.6875
 40
0.6875
 40
0.75
 40
0.75
 40
0.75
 40
0.75
 40
0.8125
 40
0.8125
 40
0.8125
 40
0.8125
 40
0.875
 40
0.875
 40
0.875
 40
0.875
 40
1.0
 40
1.0
 40
1.0
 40
1.0
 10
-55.8837
 20
114.2982
 30
0.0
 10
-55.8837
 20
114.2982
 30
0.0
 10
-55.8835
 20
114.2978
 30
0.0
 10
-55.8835
 20
114.2978
 30
0.0
 10
-55.8835
 20
114.2978
 30
0.0
 10
-55.8835
 20
114.2978
 30
0.0
 10
-55.8835
 20
114.2982
 30
0.0
 10
-55.8835
 20
114.2982
 30
0.0
 10
-55.8835
 20
114.2982
 30
0.0
 10
-55.8835
 20
114.2982
 30
0.0
 10
-55.8761
 20
114.2835
 30
0.0
 10
-55.8761
 20
114.2835
 30
0.0
 10
-55.8761
 20
114.2835
 30
0.0
 10
-55.5363
 20
113.613
 30
0.0
 10
-55.0115
 20
112.9007
 30
0.0
 10
-54.3886
 20
112.2669
 30
0.0
 10
-54.3886
 20
112.2669
 30
0.0
 10
-54.3886
 20
112.2669
 30
0.0
 10
-54.3885
 20
112.2666
 30
0.0
 10
-54.3885
 20
112.2666
 30
0.0
 10
-54.3885
 20
112.2666
 30
0.0
 10
-54.3885
 20
112.2666
 30
0.0
 10
-54.3787
 20
112.2568
 30
0.0
 10
-54.3787
 20
112.2568
 30
0.0
 10
-54.3787
 20
112.2568
 30
0.0
 10
-53.7278
 20
111.6079
 30
0.0
 10
-52.9894
 20
111.0604
 30
0.0
 10
-52.297
 20
110.712
 30
0.0
 10
-52.297
 20
110.712
 30
0.0
 10
-50.5686
 20
110.0076
 30
0.0
 10
-50.573
 20
108.9429
 30
0.0
 10
-52.297
 20
108.1254
 30
0.0
 10
-52.297
 20
108.1254
 30
0.0
 10
-52.297
 20
108.1254
 30
0.0
 10
-52.297
 20
108.1252
 30
0.0
 10
-52.297
 20
108.1252
 30
0.0
 10
-52.297
 20
108.1252
 30
0.0
 10
-52.297
 20
108.1252
 30
0.0
 10
-52.2974
 20
108.125
 30
0.0
 10
-52.2974
 20
108.125
 30
0.0
 10
-52.2974
 20
108.125
 30
0.0
 10
-52.2974
 20
108.125
 30
0.0
 10
-52.2972
 20
108.125
 30
0.0
 10
-52.2972
 20
108.125
 30
0.0
 10
-52.2972
 20
108.125
 30
0.0
 10
-52.9791
 20
107.7802
 30
0.0
 10
-53.7078
 20
107.2437
 30
0.0
 10
-54.3524
 20
106.6069
 30
0.0
 10
-54.3524
 20
106.6069
 30
0.0
 10
-54.9957
 20
105.959
 30
0.0
 10
-55.5372
 20
105.2261
 30
0.0
 10
-55.8833
 20
104.5386
 30
0.0
 10
-55.8833
 20
104.5386
 30
0.0
 10
-55.8833
 20
104.5386
 30
0.0
 10
-55.8837
 20
104.5375
 30
0.0
 10
-55.8837
 20
104.5375
 30
0.0
 10
-55.8837
 20
104.5375
 30
0.0
 10
-55.8837
 20
104.5375
 30
0.0
 10
-55.8837
 20
114.2982
 30
0.0
 10
-55.8837
 20
114.2982
 30
0.0
  0
SPLINE
  5
48
330
1F
100
AcDbEntity
  8
layer 1
 62
     7
100
AcDbSpline
210
0.0
220
0.0
230
1.0
 70
    11
 71
     3
 72
    20
 73
    16
 74
     0
 42
0.0000000001
 43
0.0000000001
 12
1.0
 22
0.0
 32
0.0
 13
1.0
 23
0.0
 33
0.0
 40
0.0
 40
0.0
 40
0.0
 40
0.0
 40
0.2
 40
0.2
 40
0.2
 40
0.2
 40
0.4
 40
0.4
 40
0.4
 40
0.4
 40
0.6
 40
0.6
 40
0.6
 40
0.6
 40
1.0
 40
1.0
 40
1.0
 40
1.0
 10
-55.8837
 20
98.0723
 30
0.0
 10
-54.8364
 20
103.5715
 30
0.0
 10
-51.4858
 20
106.9221
 30
0.0
 10
-45.8318
 20
108.1252
 30
0.0
 10
-45.8318
 20
108.1252
 30
0.0
 10
-45.8318
 20
108.1252
 30
0.0
 10
-39.9973
 20
108.1252
 30
0.0
 10
-39.9973
 20
108.1252
 30
0.0
 10
-39.9973
 20
108.1252
 30
0.0
 10
-40.6271
 20
99.6429
 30
0.0
 10
-47.4014
 20
92.8683
 30
0.0
 10
-55.8837
 20
92.2382
 30
0.0
 10
-55.8837
 20
92.2382
 30
0.0
 10
-55.8837
 20
92.2382
 30
0.0
 10
-55.8837
 20
98.0723
 30
0.0
 10
-55.8837
 20
98.0723
 30
0.0
  0
SPLINE
  5
49
330
1F
100
AcDbEntity
  8
layer 1
 62
     7
100
AcDbSpline
210
0.0
220
0.0
230
1.0
 70
    11
 71
     3
 72
    20
 73
    16
 74
     0
 42
0.0000000001
 43
0.0000000001
 12
1.0
 22
0.0
 32
0.0
 13
1.0
 23
0.0
 33
0.0
 40
0.0
 40
0.0
 40
0.0
 40
0.0
 40
0.2
 40
0.2
 40
0.2
 40
0.2
 40
0.4
 40
0.4
 40
0.4
 40
0.4
 40
0.6
 40
0.6
 40
0.6
 40
0.6
 40
1.0
 40
1.0
 40
1.0
 40
1.0
 10
-55.8837
 20
87.7989
 30
0.0
 10
-47.4016
 20
87.1686
 30
0.0
 10
-40.6274
 20
80.3946
 30
0.0
 10
-39.9975
 20
71.9127
 30
0.0
 10
-39.9975
 20
71.9127
 30
0.0
 10
-39.9975
 20
71.9127
 30
0.0
 10
-45.8307
 20
71.9127
 30
0.0
 10
-45.8307
 20
71.9127
 30
0.0
 10
-45.8307
 20
71.9127
 30
0.0
 10
-51.4854
 20
73.1154
 30
0.0
 10
-54.8364
 20
76.4661
 30
0.0
 10
-55.8837
 20
81.9657
 30
0.0
 10
-55.8837
 20
81.9657
 30
0.0
 10
-55.8837
 20
81.9657
 30
0.0
 10
-55.8837
 20
87.7989
 30
0.0
 10
-55.8837
 20
87.7989
 30
0.0
  0
SPLINE
  5
4A
330
1F
100
AcDbEntity
  8
layer 1
 62
     7
100
AcDbSpline
210
0.0
220
0.0
230
1.0
 70
    11
 71
     3
 72
    64
 73
    60
 74
     0
 42
0.0000000001
 43
0.0000000001
 12
1.0
 22
0.0
 32
0.0
 13
1.0
 23
0.0
 33
0.0
 40
0.0
 40
0.0
 40
0.0
 40
0.0
 40
0.0625
 40
0.0625
 40
0.0625
 40
0.0625
 40
0.125
 40
0.125
 40
0.125
 40
0.125
 40
0.1875
 40
0.1875
 40
0.1875
 40
0.1875
 40
0.25
 40
0.25
 40
0.25
 40
0.25
 40
0.3125
 40
0.3125
 40
0.3125
 40
0.3125
 40
0.375
 40
0.375
 40
0.375
 40
0.375
 40
0.4375
 40
0.4375
 40
0.4375
 40
0.4375
 40
0.5
 40
0.5
 40
0.5
 40
0.5
 40
0.5625
 40
0.5625
 40
0.5625
 40
0.5625
 40
0.625
 40
0.625
 40
0.625
 40
0.625
 40
0.6875
 40
0.6875
 40
0.6875
 40
0.6875
 40
0.75
 40
0.75
 40
0.75
 40
0.75
 40
0.8125
 40
0.8125
 40
0.8125
 40
0.8125
 40
0.875
 40
0.875
 40
0.875
 40
0.875
 40
1.0
 40
1.0
 40
1.0
 40
1.0
 10
-55.8837
 20
75.4992
 30
0.0
 10
-55.8837
 20
75.4992
 30
0.0
 10
-55.8835
 20
75.4987
 30
0.0
 10
-55.8835
 20
75.4987
 30
0.0
 10
-55.8835
 20
75.4987
 30
0.0
 10
-55.8835
 20
75.4987
 30
0.0
 10
-55.8835
 20
75.4992
 30
0.0
 10
-55.8835
 20
75.4992
 30
0.0
 10
-55.8835
 20
75.4992
 30
0.0
 10
-55.8835
 20
75.4992
 30
0.0
 10
-55.8761
 20
75.4844
 30
0.0
 10
-55.8761
 20
75.4844
 30
0.0
 10
-55.8761
 20
75.4844
 30
0.0
 10
-55.5363
 20
74.814
 30
0.0
 10
-55.0115
 20
74.1015
 30
0.0
 10
-54.3886
 20
73.4678
 30
0.0
 10
-54.3886
 20
73.4678
 30
0.0
 10
-54.3886
 20
73.4678
 30
0.0
 10
-54.3885
 20
73.4674
 30
0.0
 10
-54.3885
 20
73.4674
 30
0.0
 10
-54.3885
 20
73.4674
 30
0.0
 10
-54.3885
 20
73.4674
 30
0.0
 10
-54.3787
 20
73.4577
 30
0.0
 10
-54.3787
 20
73.4577
 30
0.0
 10
-54.3787
 20
73.4577
 30
0.0
 10
-53.7278
 20
72.8087
 30
0.0
 10
-52.9894
 20
72.2615
 30
0.0
 10
-52.297
 20
71.9129
 30
0.0
 10
-52.297
 20
71.9129
 30
0.0
 10
-50.5686
 20
71.2084
 30
0.0
 10
-50.573
 20
70.1439
 30
0.0
 10
-52.297
 20
69.3262
 30
0.0
 10
-52.297
 20
69.3262
 30
0.0
 10
-52.297
 20
69.3262
 30
0.0
 10
-52.297
 20
69.326
 30
0.0
 10
-52.297
 20
69.326
 30
0.0
 10
-52.297
 20
69.326
 30
0.0
 10
-52.297
 20
69.326
 30
0.0
 10
-52.2974
 20
69.3258
 30
0.0
 10
-52.2974
 20
69.3258
 30
0.0
 10
-52.2974
 20
69.3258
 30
0.0
 10
-52.2974
 20
69.3258
 30
0.0
 10
-52.2972
 20
69.3258
 30
0.0
 10
-52.2972
 20
69.3258
 30
0.0
 10
-52.2972
 20
69.3258
 30
0.0
 10
-52.9791
 20
68.9812
 30
0.0
 10
-53.7078
 20
68.4447
 30
0.0
 10
-54.3524
 20
67.8077
 30
0.0
 10
-54.3524
 20
67.8077
 30
0.0
 10
-54.9957
 20
67.16
 30
0.0
 10
-55.5372
 20
66.4272
 30
0.0
 10
-55.8833
 20
65.7395
 30
0.0
 10
-55.8833
 20
65.7395
 30
0.0
 10
-55.8833
 20
65.7395
 30
0.0
 10
-55.8837
 20
65.7383
 30
0.0
 10
-55.8837
 20
65.7383
 30
0.0
 10
-55.8837
 20
65.7383
 30
0.0
 10
-55.8837
 20
65.7383
 30
0.0
 10
-55.8837
 20
75.4992
 30
0.0
 10
-55.8837
 20
75.4992
 30
0.0
  0
SPLINE
  5
4B
330
1F
100
AcDbEntity
  8
layer 1
 62
     7
100
AcDbSpline
210
0.0
220
0.0
230
1.0
 70
    11
 71
     3
 72
    20
 73
    16
 74
     0
 42
0.0000000001
 43
0.0000000001
 12
1.0
 22
0.0
 32
0.0
 13
1.0
 23
0.0
 33
0.0
 40
0.0
 40
0.0
 40
0.0
 40
0.0
 40
0.2
 40
0.2
 40
0.2
 40
0.2
 40
0.4
 40
0.4
 40
0.4
 40
0.4
 40
0.6
 40
0.6
 40
0.6
 40
0.6
 40
1.0
 40
1.0
 40
1.0
 40
1.0
 10
-55.8837
 20
59.2732
 30
0.0
 10
-54.8364
 20
64.7726
 30
0.0
 10
-51.4858
 20
68.1232
 30
0.0
 10
-45.8318
 20
69.326
 30
0.0
 10
-45.8318
 20
69.326
 30
0.0
 10
-45.8318
 20
69.326
 30
0.0
 10
-39.9973
 20
69.326
 30
0.0
 10
-39.9973
 20
69.326
 30
0.0
 10
-39.9973
 20
69.326
 30
0.0
 10
-40.6271
 20
60.8437
 30
0.0
 10
-47.4014
 20
54.0692
 30
0.0
 10
-55.8837
 20
53.439
 30
0.0
 10
-55.8837
 20
53.439
 30
0.0
 10
-55.8837
 20
53.439
 30
0.0
 10
-55.8837
 20
59.2732
 30
0.0
 10
-55.8837
 20
59.2732
 30
0.0
  0
SPLINE
  5
4C
330
1F
100
AcDbEntity
  8
layer 1
 62
     7
100
AcDbSpline
210
0.0
220
0.0
230
1.0
 70
    11
 71
     3
 72
    20
 73
    16
 74
     0
 42
0.0000000001
 43
0.0000000001
 12
1.0
 22
0.0
 32
0.0
 13
1.0
 23
0.0
 33
0.0
 40
0.0
 40
0.0
 40
0.0
 40
0.0
 40
0.2
 40
0.2
 40
0.2
 40
0.2
 40
0.4
 40
0.4
 40
0.4
 40
0.4
 40
0.6
 40
0.6
 40
0.6
 40
0.6
 40
1.0
 40
1.0
 40
1.0
 40
1.0
 10
-55.8837
 20
48.9998
 30
0.0
 10
-47.4016
 20
48.3696
 30
0.0
 10
-40.6274
 20
41.5955
 30
0.0
 10
-39.9975
 20
33.1135
 30
0.0
 10
-39.9975
 20
33.1135
 30
0.0
 10
-39.9975
 20
33.1135
 30
0.0
 10
-45.8307
 20
33.1135
 30
0.0
 10
-45.8307
 20
33.1135
 30
0.0
 10
-45.8307
 20
33.1135
 30
0.0
 10
-51.4854
 20
34.3162
 30
0.0
 10
-54.8364
 20
37.667
 30
0.0
 10
-55.8837
 20
43.1666
 30
0.0
 10
-55.8837
 20
43.1666
 30
0.0
 10
-55.8837
 20
43.1666
 30
0.0
 10
-55.8837
 20
48.9998
 30
0.0
 10
-55.8837
 20
48.9998
 30
0.0
  0
SPLINE
  5
4D
330
1F
100
AcDbEntity
  8
layer 1
 62
     7
100
AcDbSpline
210
0.0
220
0.0
230
1.0
 70
    11
 71
     3
 72
    64
 73
    60
 74
     0
 42
0.0000000001
 43
0.0000000001
 12
1.0
 22
0.0
 32
0.0
 13
1.0
 23
0.0
 33
0.0
 40
0.0
 40
0.0
 40
0.0
 40
0.0
 40
0.0625
 40
0.0625
 40
0.0625
 40
0.0625
 40
0.125
 40
0.125
 40
0.125
 40
0.125
 40
0.1875
 40
0.1875
 40
0.1875
 40
0.1875
 40
0.25
 40
0.25
 40
0.25
 40
0.25
 40
0.3125
 40
0.3125
 40
0.3125
 40
0.3125
 40
0.375
 40
0.375
 40
0.375
 40
0.375
 40
0.4375
 40
0.4375
 40
0.4375
 40
0.4375
 40
0.5
 40
0.5
 40
0.5
 40
0.5
 40
0.5625
 40
0.5625
 40
0.5625
 40
0.5625
 40
0.625
 40
0.625
 40
0.625
 40
0.625
 40
0.6875
 40
0.6875
 40
0.6875
 40
0.6875
 40
0.75
 40
0.75
 40
0.75
 40
0.75
 40
0.8125
 40
0.8125
 40
0.8125
 40
0.8125
 40
0.875
 40
0.875
 40
0.875
 40
0.875
 40
1.0
 40
1.0
 40
1.0
 40
1.0
 10
-55.8837
 20
36.7001
 30
0.0
 10
-55.8837
 20
36.7001
 30
0.0
 10
-55.8835
 20
36.6997
 30
0.0
 10
-55.8835
 20
36.6997
 30
0.0
 10
-55.8835
 20
36.6997
 30
0.0
 10
-55.8835
 20
36.6997
 30
0.0
 10
-55.8835
 20
36.7001
 30
0.0
 10
-55.8835
 20
36.7001
 30
0.0
 10
-55.8835
 20
36.7001
 30
0.0
 10
-55.8835
 20
36.7001
 30
0.0
 10
-55.8761
 20
36.6852
 30
0.0
 10
-55.8761
 20
36.6852
 30
0.0
 10
-55.8761
 20
36.6852
 30
0.0
 10
-55.5363
 20
36.0149
 30
0.0
 10
-55.0115
 20
35.3024
 30
0.0
 10
-54.3886
 20
34.6688
 30
0.0
 10
-54.3886
 20
34.6688
 30
0.0
 10
-54.3886
 20
34.6688
 30
0.0
 10
-54.3885
 20
34.6683
 30
0.0
 10
-54.3885
 20
34.6683
 30
0.0
 10
-54.3885
 20
34.6683
 30
0.0
 10
-54.3885
 20
34.6683
 30
0.0
 10
-54.3787
 20
34.6585
 30
0.0
 10
-54.3787
 20
34.6585
 30
0.0
 10
-54.3787
 20
34.6585
 30
0.0
 10
-53.7278
 20
34.0097
 30
0.0
 10
-52.9894
 20
33.4623
 30
0.0
 10
-52.297
 20
33.1137
 30
0.0
 10
-52.297
 20
33.1137
 30
0.0
 10
-50.5686
 20
32.4093
 30
0.0
 10
-50.573
 20
31.3448
 30
0.0
 10
-52.297
 20
30.5271
 30
0.0
 10
-52.297
 20
30.5271
 30
0.0
 10
-52.297
 20
30.5271
 30
0.0
 10
-52.297
 20
30.5269
 30
0.0
 10
-52.297
 20
30.5269
 30
0.0
 10
-52.297
 20
30.5269
 30
0.0
 10
-52.297
 20
30.5269
 30
0.0
 10
-52.2974
 20
30.5267
 30
0.0
 10
-52.2974
 20
30.5267
 30
0.0
 10
-52.2974
 20
30.5267
 30
0.0
 10
-52.2974
 20
30.5267
 30
0.0
 10
-52.2972
 20
30.5267
 30
0.0
 10
-52.2972
 20
30.5267
 30
0.0
 10
-52.2972
 20
30.5267
 30
0.0
 10
-52.9791
 20
30.1821
 30
0.0
 10
-53.7078
 20
29.6455
 30
0.0
 10
-54.3524
 20
29.0086
 30
0.0
 10
-54.3524
 20
29.0086
 30
0.0
 10
-54.9957
 20
28.3609
 30
0.0
 10
-55.5372
 20
27.628
 30
0.0
 10
-55.8833
 20
26.9403
 30
0.0
 10
-55.8833
 20
26.9403
 30
0.0
 10
-55.8833
 20
26.9403
 30
0.0
 10
-55.8837
 20
26.9392
 30
0.0
 10
-55.8837
 20
26.9392
 30
0.0
 10
-55.8837
 20
26.9392
 30
0.0
 10
-55.8837
 20
26.9392
 30
0.0
 10
-55.8837
 20
36.7001
 30
0.0
 10
-55.8837
 20
36.7001
 30
0.0
  0
SPLINE
  5
4E
330
1F
100
AcDbEntity
  8
layer 1
 62
     7
100
AcDbSpline
210
0.0
220
0.0
230
1.0
 70
    11
 71
     3
 72
    20
 73
    16
 74
     0
 42
0.0000000001
 43
0.0000000001
 12
1.0
 22
0.0
 32
0.0
 13
1.0
 23
0.0
 33
0.0
 40
0.0
 40
0.0
 40
0.0
 40
0.0
 40
0.2
 40
0.2
 40
0.2
 40
0.2
 40
0.4
 40
0.4
 40
0.4
 40
0.4
 40
0.6
 40
0.6
 40
0.6
 40
0.6
 40
1.0
 40
1.0
 40
1.0
 40
1.0
 10
-55.8837
 20
20.4742
 30
0.0
 10
-54.8364
 20
25.9734
 30
0.0
 10
-51.4858
 20
29.3238
 30
0.0
 10
-45.8318
 20
30.5269
 30
0.0
 10
-45.8318
 20
30.5269
 30
0.0
 10
-45.8318
 20
30.5269
 30
0.0
 10
-39.9973
 20
30.5269
 30
0.0
 10
-39.9973
 20
30.5269
 30
0.0
 10
-39.9973
 20
30.5269
 30
0.0
 10
-40.6271
 20
22.0446
 30
0.0
 10
-47.4014
 20
15.27
 30
0.0
 10
-55.8837
 20
14.6401
 30
0.0
 10
-55.8837
 20
14.6401
 30
0.0
 10
-55.8837
 20
14.6401
 30
0.0
 10
-55.8837
 20
20.4742
 30
0.0
 10
-55.8837
 20
20.4742
 30
0.0
  0
SPLINE
  5
4F
330
1F
100
AcDbEntity
  8
layer 1
 62
     7
100
AcDbSpline
210
0.0
220
0.0
230
1.0
 70
    11
 71
     3
 72
    20
 73
    16
 74
     0
 42
0.0000000001
 43
0.0000000001
 12
1.0
 22
0.0
 32
0.0
 13
1.0
 23
0.0
 33
0.0
 40
0.0
 40
0.0
 40
0.0
 40
0.0
 40
0.2
 40
0.2
 40
0.2
 40
0.2
 40
0.4
 40
0.4
 40
0.4
 40
0.4
 40
0.6
 40
0.6
 40
0.6
 40
0.6
 40
1.0
 40
1.0
 40
1.0
 40
1.0
 10
-55.8837
 20
10.2008
 30
0.0
 10
-47.4016
 20
9.5705
 30
0.0
 10
-40.6274
 20
2.7963
 30
0.0
 10
-39.9975
 20
-5.6856
 30
0.0
 10
-39.9975
 20
-5.6856
 30
0.0
 10
-39.9975
 20
-5.6856
 30
0.0
 10
-45.8307
 20
-5.6856
 30
0.0
 10
-45.8307
 20
-5.6856
 30
0.0
 10
-45.8307
 20
-5.6856
 30
0.0
 10
-51.4854
 20
-4.4827
 30
0.0
 10
-54.8364
 20
-1.132
 30
0.0
 10
-55.8837
 20
4.3674
 30
0.0
 10
-55.8837
 20
4.3674
 30
0.0
 10
-55.8837
 20
4.3674
 30
0.0
 10
-55.8837
 20
10.2008
 30
0.0
 10
-55.8837
 20
10.2008
 30
0.0
  0
SPLINE
  5
50
330
1F
100
AcDbEntity
  8
layer 1
 62
     7
100
AcDbSpline
210
0.0
220
0.0
230
1.0
 70
    11
 71
     3
 72
    64
 73
    60
 74
     0
 42
0.0000000001
 43
0.0000000001
 12
1.0
 22
0.0
 32
0.0
 13
1.0
 23
0.0
 33
0.0
 40
0.0
 40
0.0
 40
0.0
 40
0.0
 40
0.0625
 40
0.0625
 40
0.0625
 40
0.0625
 40
0.125
 40
0.125
 40
0.125
 40
0.125
 40
0.1875
 40
0.1875
 40
0.1875
 40
0.1875
 40
0.25
 40
0.25
 40
0.25
 40
0.25
 40
0.3125
 40
0.3125
 40
0.3125
 40
0.3125
 40
0.375
 40
0.375
 40
0.375
 40
0.375
 40
0.4375
 40
0.4375
 40
0.4375
 40
0.4375
 40
0.5
 40
0.5
 40
0.5
 40
0.5
 40
0.5625
 40
0.5625
 40
0.5625
 40
0.5625
 40
0.625
 40
0.625
 40
0.625
 40
0.625
 40
0.6875
 40
0.6875
 40
0.6875
 40
0.6875
 40
0.75
 40
0.75
 40
0.75
 40
0.75
 40
0.8125
 40
0.8125
 40
0.8125
 40
0.8125
 40
0.875
 40
0.875
 40
0.875
 40
0.875
 40
1.0
 40
1.0
 40
1.0
 40
1.0
 10
-55.8837
 20
-2.0991
 30
0.0
 10
-55.8837
 20
-2.0991
 30
0.0
 10
-55.8835
 20
-2.0995
 30
0.0
 10
-55.8835
 20
-2.0995
 30
0.0
 10
-55.8835
 20
-2.0995
 30
0.0
 10
-55.8835
 20
-2.0995
 30
0.0
 10
-55.8835
 20
-2.0991
 30
0.0
 10
-55.8835
 20
-2.0991
 30
0.0
 10
-55.8835
 20
-2.0991
 30
0.0
 10
-55.8835
 20
-2.0991
 30
0.0
 10
-55.8761
 20
-2.1139
 30
0.0
 10
-55.8761
 20
-2.1139
 30
0.0
 10
-55.8761
 20
-2.1139
 30
0.0
 10
-55.5363
 20
-2.7841
 30
0.0
 10
-55.0115
 20
-3.4966
 30
0.0
 10
-54.3886
 20
-4.1303
 30
0.0
 10
-54.3886
 20
-4.1303
 30
0.0
 10
-54.3886
 20
-4.1303
 30
0.0
 10
-54.3885
 20
-4.1307
 30
0.0
 10
-54.3885
 20
-4.1307
 30
0.0
 10
-54.3885
 20
-4.1307
 30
0.0
 10
-54.3885
 20
-4.1307
 30
0.0
 10
-54.3787
 20
-4.1406
 30
0.0
 10
-54.3787
 20
-4.1406
 30
0.0
 10
-54.3787
 20
-4.1406
 30
0.0
 10
-53.7278
 20
-4.7896
 30
0.0
 10
-52.9894
 20
-5.3368
 30
0.0
 10
-52.297
 20
-5.6854
 30
0.0
 10
-52.297
 20
-5.6854
 30
0.0
 10
-50.5686
 20
-6.3897
 30
0.0
 10
-50.573
 20
-7.4544
 30
0.0
 10
-52.297
 20
-8.2719
 30
0.0
 10
-52.297
 20
-8.2719
 30
0.0
 10
-52.297
 20
-8.2719
 30
0.0
 10
-52.297
 20
-8.2721
 30
0.0
 10
-52.297
 20
-8.2721
 30
0.0
 10
-52.297
 20
-8.2721
 30
0.0
 10
-52.297
 20
-8.2721
 30
0.0
 10
-52.2974
 20
-8.2723
 30
0.0
 10
-52.2974
 20
-8.2723
 30
0.0
 10
-52.2974
 20
-8.2723
 30
0.0
 10
-52.2974
 20
-8.2723
 30
0.0
 10
-52.2972
 20
-8.2723
 30
0.0
 10
-52.2972
 20
-8.2723
 30
0.0
 10
-52.2972
 20
-8.2723
 30
0.0
 10
-52.9791
 20
-8.6171
 30
0.0
 10
-53.7078
 20
-9.1536
 30
0.0
 10
-54.3524
 20
-9.7906
 30
0.0
 10
-54.3524
 20
-9.7906
 30
0.0
 10
-54.9957
 20
-10.4383
 30
0.0
 10
-55.5372
 20
-11.1711
 30
0.0
 10
-55.8833
 20
-11.8586
 30
0.0
 10
-55.8833
 20
-11.8586
 30
0.0
 10
-55.8833
 20
-11.8586
 30
0.0
 10
-55.8837
 20
-11.8598
 30
0.0
 10
-55.8837
 20
-11.8598
 30
0.0
 10
-55.8837
 20
-11.8598
 30
0.0
 10
-55.8837
 20
-11.8598
 30
0.0
 10
-55.8837
 20
-2.0991
 30
0.0
 10
-55.8837
 20
-2.0991
 30
0.0
  0
SPLINE
  5
51
330
1F
100
AcDbEntity
  8
layer 1
 62
     7
100
AcDbSpline
210
0.0
220
0.0
230
1.0
 70
    11
 71
     3
 72
    20
 73
    16
 74
     0
 42
0.0000000001
 43
0.0000000001
 12
1.0
 22
0.0
 32
0.0
 13
1.0
 23
0.0
 33
0.0
 40
0.0
 40
0.0
 40
0.0
 40
0.0
 40
0.2
 40
0.2
 40
0.2
 40
0.2
 40
0.4
 40
0.4
 40
0.4
 40
0.4
 40
0.6
 40
0.6
 40
0.6
 40
0.6
 40
1.0
 40
1.0
 40
1.0
 40
1.0
 10
-55.8837
 20
-18.325
 30
0.0
 10
-54.8364
 20
-12.8255
 30
0.0
 10
-51.4858
 20
-9.4752
 30
0.0
 10
-45.8318
 20
-8.2721
 30
0.0
 10
-45.8318
 20
-8.2721
 30
0.0
 10
-45.8318
 20
-8.2721
 30
0.0
 10
-39.9973
 20
-8.2721
 30
0.0
 10
-39.9973
 20
-8.2721
 30
0.0
 10
-39.9973
 20
-8.2721
 30
0.0
 10
-40.6271
 20
-16.7544
 30
0.0
 10
-47.4014
 20
-23.5289
 30
0.0
 10
-55.8837
 20
-24.1591
 30
0.0
 10
-55.8837
 20
-24.1591
 30
0.0
 10
-55.8837
 20
-24.1591
 30
0.0
 10
-55.8837
 20
-18.325
 30
0.0
 10
-55.8837
 20
-18.325
 30
0.0
  0
SPLINE
  5
52
330
1F
100
AcDbEntity
  8
layer 1
 62
     7
100
AcDbSpline
210
0.0
220
0.0
230
1.0
 70
    11
 71
     3
 72
    20
 73
    16
 74
     0
 42
0.0000000001
 43
0.0000000001
 12
1.0
 22
0.0
 32
0.0
 13
1.0
 23
0.0
 33
0.0
 40
0.0
 40
0.0
 40
0.0
 40
0.0
 40
0.2
 40
0.2
 40
0.2
 40
0.2
 40
0.4
 40
0.4
 40
0.4
 40
0.4
 40
0.6
 40
0.6
 40
0.6
 40
0.6
 40
1.0
 40
1.0
 40
1.0
 40
1.0
 10
-55.8837
 20
-28.5984
 30
0.0
 10
-47.4016
 20
-29.2287
 30
0.0
 10
-40.6274
 20
-36.0026
 30
0.0
 10
-39.9975
 20
-44.4846
 30
0.0
 10
-39.9975
 20
-44.4846
 30
0.0
 10
-39.9975
 20
-44.4846
 30
0.0
 10
-45.8307
 20
-44.4846
 30
0.0
 10
-45.8307
 20
-44.4846
 30
0.0
 10
-45.8307
 20
-44.4846
 30
0.0
 10
-51.4854
 20
-43.2819
 30
0.0
 10
-54.8364
 20
-39.9311
 30
0.0
 10
-55.8837
 20
-34.4315
 30
0.0
 10
-55.8837
 20
-34.4315
 30
0.0
 10
-55.8837
 20
-34.4315
 30
0.0
 10
-55.8837
 20
-28.5984
 30
0.0
 10
-55.8837
 20
-28.5984
 30
0.0
  0
SPLINE
  5
53
330
1F
100
AcDbEntity
  8
layer 1
 62
     7
100
AcDbSpline
210
0.0
220
0.0
230
1.0
 70
    11
 71
     3
 72
    64
 73
    60
 74
     0
 42
0.0000000001
 43
0.0000000001
 12
1.0
 22
0.0
 32
0.0
 13
1.0
 23
0.0
 33
0.0
 40
0.0
 40
0.0
 40
0.0
 40
0.0
 40
0.0625
 40
0.0625
 40
0.0625
 40
0.0625
 40
0.125
 40
0.125
 40
0.125
 40
0.125
 40
0.1875
 40
0.1875
 40
0.1875
 40
0.1875
 40
0.25
 40
0.25
 40
0.25
 40
0.25
 40
0.3125
 40
0.3125
 40
0.3125
 40
0.3125
 40
0.375
 40
0.375
 40
0.375
 40
0.375
 40
0.4375
 40
0.4375
 40
0.4375
 40
0.4375
 40
0.5
 40
0.5
 40
0.5
 40
0.5
 40
0.5625
 40
0.5625
 40
0.5625
 40
0.5625
 40
0.625
 40
0.625
 40
0.625
 40
0.625
 40
0.6875
 40
0.6875
 40
0.6875
 40
0.6875
 40
0.75
 40
0.75
 40
0.75
 40
0.75
 40
0.8125
 40
0.8125
 40
0.8125
 40
0.8125
 40
0.875
 40
0.875
 40
0.875
 40
0.875
 40
1.0
 40
1.0
 40
1.0
 40
1.0
 10
-55.8837
 20
-40.898
 30
0.0
 10
-55.8837
 20
-40.898
 30
0.0
 10
-55.8835
 20
-40.8984
 30
0.0
 10
-55.8835
 20
-40.8984
 30
0.0
 10
-55.8835
 20
-40.8984
 30
0.0
 10
-55.8835
 20
-40.8984
 30
0.0
 10
-55.8835
 20
-40.898
 30
0.0
 10
-55.8835
 20
-40.898
 30
0.0
 10
-55.8835
 20
-40.898
 30
0.0
 10
-55.8835
 20
-40.898
 30
0.0
 10
-55.8761
 20
-40.9131
 30
0.0
 10
-55.8761
 20
-40.9131
 30
0.0
 10
-55.8761
 20
-40.9131
 30
0.0
 10
-55.5363
 20
-41.5833
 30
0.0
 10
-55.0115
 20
-42.2957
 30
0.0
 10
-54.3886
 20
-42.9295
 30
0.0
 10
-54.3886
 20
-42.9295
 30
0.0
 10
-54.3886
 20
-42.9295
 30
0.0
 10
-54.3885
 20
-42.9298
 30
0.0
 10
-54.3885
 20
-42.9298
 30
0.0
 10
-54.3885
 20
-42.9298
 30
0.0
 10
-54.3885
 20
-42.9298
 30
0.0
 10
-54.3787
 20
-42.9396
 30
0.0
 10
-54.3787
 20
-42.9396
 30
0.0
 10
-54.3787
 20
-42.9396
 30
0.0
 10
-53.7278
 20
-43.5886
 30
0.0
 10
-52.9894
 20
-44.1358
 30
0.0
 10
-52.297
 20
-44.4844
 30
0.0
 10
-52.297
 20
-44.4844
 30
0.0
 10
-50.5686
 20
-45.1889
 30
0.0
 10
-50.573
 20
-46.2536
 30
0.0
 10
-52.297
 20
-47.071
 30
0.0
 10
-52.297
 20
-47.071
 30
0.0
 10
-52.297
 20
-47.071
 30
0.0
 10
-52.297
 20
-47.0712
 30
0.0
 10
-52.297
 20
-47.0712
 30
0.0
 10
-52.297
 20
-47.0712
 30
0.0
 10
-52.297
 20
-47.0712
 30
0.0
 10
-52.2974
 20
-47.0714
 30
0.0
 10
-52.2974
 20
-47.0714
 30
0.0
 10
-52.2974
 20
-47.0714
 30
0.0
 10
-52.2974
 20
-47.0714
 30
0.0
 10
-52.2972
 20
-47.0714
 30
0.0
 10
-52.2972
 20
-47.0714
 30
0.0
 10
-52.2972
 20
-47.0714
 30
0.0
 10
-52.9791
 20
-47.4162
 30
0.0
 10
-53.7078
 20
-47.9526
 30
0.0
 10
-54.3524
 20
-48.5896
 30
0.0
 10
-54.3524
 20
-48.5896
 30
0.0
 10
-54.9957
 20
-49.2372
 30
0.0
 10
-55.5372
 20
-49.9703
 30
0.0
 10
-55.8833
 20
-50.6578
 30
0.0
 10
-55.8833
 20
-50.6578
 30
0.0
 10
-55.8833
 20
-50.6578
 30
0.0
 10
-55.8837
 20
-50.6589
 30
0.0
 10
-55.8837
 20
-50.6589
 30
0.0
 10
-55.8837
 20
-50.6589
 30
0.0
 10
-55.8837
 20
-50.6589
 30
0.0
 10
-55.8837
 20
-40.898
 30
0.0
 10
-55.8837
 20
-40.898
 30
0.0
  0
SPLINE
  5
54
330
1F
100
AcDbEntity
  8
layer 1
 62
     7
100
AcDbSpline
210
0.0
220
0.0
230
1.0
 70
    11
 71
     3
 72
    20
 73
    16
 74
     0
 42
0.0000000001
 43
0.0000000001
 12
1.0
 22
0.0
 32
0.0
 13
1.0
 23
0.0
 33
0.0
 40
0.0
 40
0.0
 40
0.0
 40
0.0
 40
0.2
 40
0.2
 40
0.2
 40
0.2
 40
0.4
 40
0.4
 40
0.4
 40
0.4
 40
0.6
 40
0.6
 40
0.6
 40
0.6
 40
1.0
 40
1.0
 40
1.0
 40
1.0
 10
-55.8837
 20
-57.1241
 30
0.0
 10
-54.8364
 20
-51.6247
 30
0.0
 10
-51.4858
 20
-48.2741
 30
0.0
 10
-45.8318
 20
-47.0712
 30
0.0
 10
-45.8318
 20
-47.0712
 30
0.0
 10
-45.8318
 20
-47.0712
 30
0.0
 10
-39.9973
 20
-47.0712
 30
0.0
 10
-39.9973
 20
-47.0712
 30
0.0
 10
-39.9973
 20
-47.0712
 30
0.0
 10
-40.6271
 20
-55.5536
 30
0.0
 10
-47.4014
 20
-62.3281
 30
0.0
 10
-55.8837
 20
-62.9582
 30
0.0
 10
-55.8837
 20
-62.9582
 30
0.0
 10
-55.8837
 20
-62.9582
 30
0.0
 10
-55.8837
 20
-57.1241
 30
0.0
 10
-55.8837
 20
-57.1241
 30
0.0
  0
SPLINE
  5
55
330
1F
100
AcDbEntity
  8
layer 1
 62
     7
100
AcDbSpline
210
0.0
220
0.0
230
1.0
 70
    11
 71
     3
 72
    20
 73
    16
 74
     0
 42
0.0000000001
 43
0.0000000001
 12
1.0
 22
0.0
 32
0.0
 13
1.0
 23
0.0
 33
0.0
 40
0.0
 40
0.0
 40
0.0
 40
0.0
 40
0.2
 40
0.2
 40
0.2
 40
0.2
 40
0.4
 40
0.4
 40
0.4
 40
0.4
 40
0.6
 40
0.6
 40
0.6
 40
0.6
 40
1.0
 40
1.0
 40
1.0
 40
1.0
 10
-55.8837
 20
-67.3975
 30
0.0
 10
-47.4016
 20
-68.0276
 30
0.0
 10
-40.6274
 20
-74.8018
 30
0.0
 10
-39.9975
 20
-83.2837
 30
0.0
 10
-39.9975
 20
-83.2837
 30
0.0
 10
-39.9975
 20
-83.2837
 30
0.0
 10
-45.8307
 20
-83.2837
 30
0.0
 10
-45.8307
 20
-83.2837
 30
0.0
 10
-45.8307
 20
-83.2837
 30
0.0
 10
-51.4854
 20
-82.081
 30
0.0
 10
-54.8364
 20
-78.7303
 30
0.0
 10
-55.8837
 20
-73.2307
 30
0.0
 10
-55.8837
 20
-73.2307
 30
0.0
 10
-55.8837
 20
-73.2307
 30
0.0
 10
-55.8837
 20
-67.3975
 30
0.0
 10
-55.8837
 20
-67.3975
 30
0.0
  0
SPLINE
  5
56
330
1F
100
AcDbEntity
  8
layer 1
 62
     7
100
AcDbSpline
210
0.0
220
0.0
230
1.0
 70
    11
 71
     3
 72
    64
 73
    60
 74
     0
 42
0.0000000001
 43
0.0000000001
 12
1.0
 22
0.0
 32
0.0
 13
1.0
 23
0.0
 33
0.0
 40
0.0
 40
0.0
 40
0.0
 40
0.0
 40
0.0625
 40
0.0625
 40
0.0625
 40
0.0625
 40
0.125
 40
0.125
 40
0.125
 40
0.125
 40
0.1875
 40
0.1875
 40
0.1875
 40
0.1875
 40
0.25
 40
0.25
 40
0.25
 40
0.25
 40
0.3125
 40
0.3125
 40
0.3125
 40
0.3125
 40
0.375
 40
0.375
 40
0.375
 40
0.375
 40
0.4375
 40
0.4375
 40
0.4375
 40
0.4375
 40
0.5
 40
0.5
 40
0.5
 40
0.5
 40
0.5625
 40
0.5625
 40
0.5625
 40
0.5625
 40
0.625
 40
0.625
 40
0.625
 40
0.625
 40
0.6875
 40
0.6875
 40
0.6875
 40
0.6875
 40
0.75
 40
0.75
 40
0.75
 40
0.75
 40
0.8125
 40
0.8125
 40
0.8125
 40
0.8125
 40
0.875
 40
0.875
 40
0.875
 40
0.875
 40
1.0
 40
1.0
 40
1.0
 40
1.0
 10
-55.8837
 20
-79.6972
 30
0.0
 10
-55.8837
 20
-79.6972
 30
0.0
 10
-55.8835
 20
-79.6976
 30
0.0
 10
-55.8835
 20
-79.6976
 30
0.0
 10
-55.8835
 20
-79.6976
 30
0.0
 10
-55.8835
 20
-79.6976
 30
0.0
 10
-55.8835
 20
-79.6972
 30
0.0
 10
-55.8835
 20
-79.6972
 30
0.0
 10
-55.8835
 20
-79.6972
 30
0.0
 10
-55.8835
 20
-79.6972
 30
0.0
 10
-55.8761
 20
-79.7121
 30
0.0
 10
-55.8761
 20
-79.7121
 30
0.0
 10
-55.8761
 20
-79.7121
 30
0.0
 10
-55.5363
 20
-80.3824
 30
0.0
 10
-55.0115
 20
-81.0949
 30
0.0
 10
-54.3886
 20
-81.7286
 30
0.0
 10
-54.3886
 20
-81.7286
 30
0.0
 10
-54.3886
 20
-81.7286
 30
0.0
 10
-54.3885
 20
-81.729
 30
0.0
 10
-54.3885
 20
-81.729
 30
0.0
 10
-54.3885
 20
-81.729
 30
0.0
 10
-54.3885
 20
-81.729
 30
0.0
 10
-54.3787
 20
-81.7387
 30
0.0
 10
-54.3787
 20
-81.7387
 30
0.0
 10
-54.3787
 20
-81.7387
 30
0.0
 10
-53.7278
 20
-82.3877
 30
0.0
 10
-52.9894
 20
-82.9349
 30
0.0
 10
-52.297
 20
-83.2835
 30
0.0
 10
-52.297
 20
-83.2835
 30
0.0
 10
-50.5686
 20
-83.988
 30
0.0
 10
-50.573
 20
-85.0525
 30
0.0
 10
-52.297
 20
-85.8702
 30
0.0
 10
-52.297
 20
-85.8702
 30
0.0
 10
-52.297
 20
-85.8702
 30
0.0
 10
-52.297
 20
-85.8704
 30
0.0
 10
-52.297
 20
-85.8704
 30
0.0
 10
-52.297
 20
-85.8704
 30
0.0
 10
-52.297
 20
-85.8704
 30
0.0
 10
-52.2974
 20
-85.8706
 30
0.0
 10
-52.2974
 20
-85.8706
 30
0.0
 10
-52.2974
 20
-85.8706
 30
0.0
 10
-52.2974
 20
-85.8706
 30
0.0
 10
-52.2972
 20
-85.8706
 30
0.0
 10
-52.2972
 20
-85.8706
 30
0.0
 10
-52.2972
 20
-85.8706
 30
0.0
 10
-52.9791
 20
-86.2152
 30
0.0
 10
-53.7078
 20
-86.7517
 30
0.0
 10
-54.3524
 20
-87.3887
 30
0.0
 10
-54.3524
 20
-87.3887
 30
0.0
 10
-54.9957
 20
-88.0366
 30
0.0
 10
-55.5372
 20
-88.7692
 30
0.0
 10
-55.8833
 20
-89.4569
 30
0.0
 10
-55.8833
 20
-89.4569
 30
0.0
 10
-55.8833
 20
-89.4569
 30
0.0
 10
-55.8837
 20
-89.4581
 30
0.0
 10
-55.8837
 20
-89.4581
 30
0.0
 10
-55.8837
 20
-89.4581
 30
0.0
 10
-55.8837
 20
-89.4581
 30
0.0
 10
-55.8837
 20
-79.6972
 30
0.0
 10
-55.8837
 20
-79.6972
 30
0.0
  0
SPLINE
  5
57
330
1F
100
AcDbEntity
  8
layer 1
 62
     7
100
AcDbSpline
210
0.0
220
0.0
230
1.0
 70
    11
 71
     3
 72
    20
 73
    16
 74
     0
 42
0.0000000001
 43
0.0000000001
 12
1.0
 22
0.0
 32
0.0
 13
1.0
 23
0.0
 33
0.0
 40
0.0
 40
0.0
 40
0.0
 40
0.0
 40
0.2
 40
0.2
 40
0.2
 40
0.2
 40
0.4
 40
0.4
 40
0.4
 40
0.4
 40
0.6
 40
0.6
 40
0.6
 40
0.6
 40
1.0
 40
1.0
 40
1.0
 40
1.0
 10
-55.8837
 20
-95.9233
 30
0.0
 10
-54.8364
 20
-90.4238
 30
0.0
 10
-51.4858
 20
-87.0733
 30
0.0
 10
-45.8318
 20
-85.8704
 30
0.0
 10
-45.8318
 20
-85.8704
 30
0.0
 10
-45.8318
 20
-85.8704
 30
0.0
 10
-39.9973
 20
-85.8704
 30
0.0
 10
-39.9973
 20
-85.8704
 30
0.0
 10
-39.9973
 20
-85.8704
 30
0.0
 10
-40.6271
 20
-94.3527
 30
0.0
 10
-47.4014
 20
-101.1272
 30
0.0
 10
-55.8837
 20
-101.7572
 30
0.0
 10
-55.8837
 20
-101.7572
 30
0.0
 10
-55.8837
 20
-101.7572
 30
0.0
 10
-55.8837
 20
-95.9233
 30
0.0
 10
-55.8837
 20
-95.9233
 30
0.0
  0
SPLINE
  5
58
330
1F
100
AcDbEntity
  8
layer 1
 62
     7
100
AcDbSpline
210
0.0
220
0.0
230
1.0
 70
    11
 71
     3
 72
    20
 73
    16
 74
     0
 42
0.0000000001
 43
0.0000000001
 12
1.0
 22
0.0
 32
0.0
 13
1.0
 23
0.0
 33
0.0
 40
0.0
 40
0.0
 40
0.0
 40
0.0
 40
0.2
 40
0.2
 40
0.2
 40
0.2
 40
0.4
 40
0.4
 40
0.4
 40
0.4
 40
0.6
 40
0.6
 40
0.6
 40
0.6
 40
1.0
 40
1.0
 40
1.0
 40
1.0
 10
57.9269
 20
-101.7572
 30
0.0
 10
49.4448
 20
-101.1272
 30
0.0
 10
42.6704
 20
-94.3527
 30
0.0
 10
42.0407
 20
-85.8704
 30
0.0
 10
42.0407
 20
-85.8704
 30
0.0
 10
42.0407
 20
-85.8704
 30
0.0
 10
47.875
 20
-85.8704
 30
0.0
 10
47.875
 20
-85.8704
 30
0.0
 10
47.875
 20
-85.8704
 30
0.0
 10
53.5292
 20
-87.0733
 30
0.0
 10
56.8795
 20
-90.4238
 30
0.0
 10
57.9269
 20
-95.9233
 30
0.0
 10
57.9269
 20
-95.9233
 30
0.0
 10
57.9269
 20
-95.9233
 30
0.0
 10
57.9269
 20
-101.7572
 30
0.0
 10
57.9269
 20
-101.7572
 30
0.0
  0
SPLINE
  5
59
330
1F
100
AcDbEntity
  8
layer 1
 62
     7
100
AcDbSpline
210
0.0
220
0.0
230
1.0
 70
    11
 71
     3
 72
    48
 73
    44
 74
     0
 42
0.0000000001
 43
0.0000000001
 12
1.0
 22
0.0
 32
0.0
 13
1.0
 23
0.0
 33
0.0
 40
0.0
 40
0.0
 40
0.0
 40
0.0
 40
0.0833333333333333
 40
0.0833333333333333
 40
0.0833333333333333
 40
0.0833333333333333
 40
0.1666666666666667
 40
0.1666666666666667
 40
0.1666666666666667
 40
0.1666666666666667
 40
0.25
 40
0.25
 40
0.25
 40
0.25
 40
0.3333333333333333
 40
0.3333333333333333
 40
0.3333333333333333
 40
0.3333333333333333
 40
0.4166666666666667
 40
0.4166666666666667
 40
0.4166666666666667
 40
0.4166666666666667
 40
0.5
 40
0.5
 40
0.5
 40
0.5
 40
0.5833333333333334
 40
0.5833333333333334
 40
0.5833333333333334
 40
0.5833333333333334
 40
0.6666666666666666
 40
0.6666666666666666
 40
0.6666666666666666
 40
0.6666666666666666
 40
0.75
 40
0.75
 40
0.75
 40
0.75
 40
0.8333333333333334
 40
0.8333333333333334
 40
0.8333333333333334
 40
0.8333333333333334
 40
1.0
 40
1.0
 40
1.0
 40
1.0
 10
57.9269
 20
-89.4567
 30
0.0
 10
57.5823
 20
-88.7746
 30
0.0
 10
57.0457
 20
-88.0461
 30
0.0
 10
56.4088
 20
-87.4015
 30
0.0
 10
56.4088
 20
-87.4015
 30
0.0
 10
55.7611
 20
-86.7582
 30
0.0
 10
55.0282
 20
-86.2167
 30
0.0
 10
54.3405
 20
-85.8706
 30
0.0
 10
54.3405
 20
-85.8706
 30
0.0
 10
52.6166
 20
-85.0529
 30
0.0
 10
52.6122
 20
-83.9884
 30
0.0
 10
54.3405
 20
-83.2839
 30
0.0
 10
54.3405
 20
-83.2839
 30
0.0
 10
54.3405
 20
-83.2839
 30
0.0
 10
54.3409
 20
-83.2837
 30
0.0
 10
54.3409
 20
-83.2837
 30
0.0
 10
54.3409
 20
-83.2837
 30
0.0
 10
54.3409
 20
-83.2837
 30
0.0
 10
54.3405
 20
-83.2837
 30
0.0
 10
54.3405
 20
-83.2837
 30
0.0
 10
54.3405
 20
-83.2837
 30
0.0
 10
54.3405
 20
-83.2837
 30
0.0
 10
54.3552
 20
-83.2767
 30
0.0
 10
54.3552
 20
-83.2767
 30
0.0
 10
54.3552
 20
-83.2767
 30
0.0
 10
55.0258
 20
-82.9368
 30
0.0
 10
55.738
 20
-82.4117
 30
0.0
 10
56.3722
 20
-81.7887
 30
0.0
 10
56.3722
 20
-81.7887
 30
0.0
 10
56.3722
 20
-81.7887
 30
0.0
 10
56.3733
 20
-81.7879
 30
0.0
 10
56.3733
 20
-81.7879
 30
0.0
 10
56.3733
 20
-81.7879
 30
0.0
 10
56.3733
 20
-81.7879
 30
0.0
 10
56.3825
 20
-81.7784
 30
0.0
 10
56.3825
 20
-81.7784
 30
0.0
 10
56.3825
 20
-81.7784
 30
0.0
 10
57.032
 20
-81.1273
 30
0.0
 10
57.5783
 20
-80.3895
 30
0.0
 10
57.9269
 20
-79.6972
 30
0.0
 10
57.9269
 20
-79.6972
 30
0.0
 10
57.9269
 20
-79.6972
 30
0.0
 10
57.9269
 20
-89.4567
 30
0.0
 10
57.9269
 20
-89.4567
 30
0.0
  0
SPLINE
  5
5A
330
1F
100
AcDbEntity
  8
layer 1
 62
     7
100
AcDbSpline
210
0.0
220
0.0
230
1.0
 70
    11
 71
     3
 72
    20
 73
    16
 74
     0
 42
0.0000000001
 43
0.0000000001
 12
1.0
 22
0.0
 32
0.0
 13
1.0
 23
0.0
 33
0.0
 40
0.0
 40
0.0
 40
0.0
 40
0.0
 40
0.2
 40
0.2
 40
0.2
 40
0.2
 40
0.4
 40
0.4
 40
0.4
 40
0.4
 40
0.6
 40
0.6
 40
0.6
 40
0.6
 40
1.0
 40
1.0
 40
1.0
 40
1.0
 10
57.9269
 20
-73.2307
 30
0.0
 10
56.8795
 20
-78.7303
 30
0.0
 10
53.5286
 20
-82.081
 30
0.0
 10
47.8738
 20
-83.2837
 30
0.0
 10
47.8738
 20
-83.2837
 30
0.0
 10
47.8738
 20
-83.2837
 30
0.0
 10
42.0409
 20
-83.2837
 30
0.0
 10
42.0409
 20
-83.2837
 30
0.0
 10
42.0409
 20
-83.2837
 30
0.0
 10
42.6708
 20
-74.8018
 30
0.0
 10
49.445
 20
-68.0276
 30
0.0
 10
57.9269
 20
-67.3975
 30
0.0
 10
57.9269
 20
-67.3975
 30
0.0
 10
57.9269
 20
-67.3975
 30
0.0
 10
57.9269
 20
-73.2307
 30
0.0
 10
57.9269
 20
-73.2307
 30
0.0
  0
SPLINE
  5
5B
330
1F
100
AcDbEntity
  8
layer 1
 62
     7
100
AcDbSpline
210
0.0
220
0.0
230
1.0
 70
    11
 71
     3
 72
    20
 73
    16
 74
     0
 42
0.0000000001
 43
0.0000000001
 12
1.0
 22
0.0
 32
0.0
 13
1.0
 23
0.0
 33
0.0
 40
0.0
 40
0.0
 40
0.0
 40
0.0
 40
0.2
 40
0.2
 40
0.2
 40
0.2
 40
0.4
 40
0.4
 40
0.4
 40
0.4
 40
0.6
 40
0.6
 40
0.6
 40
0.6
 40
1.0
 40
1.0
 40
1.0
 40
1.0
 10
57.9269
 20
-62.9582
 30
0.0
 10
49.4448
 20
-62.3281
 30
0.0
 10
42.6704
 20
-55.5536
 30
0.0
 10
42.0407
 20
-47.0712
 30
0.0
 10
42.0407
 20
-47.0712
 30
0.0
 10
42.0407
 20
-47.0712
 30
0.0
 10
47.875
 20
-47.0712
 30
0.0
 10
47.875
 20
-47.0712
 30
0.0
 10
47.875
 20
-47.0712
 30
0.0
 10
53.5292
 20
-48.2741
 30
0.0
 10
56.8795
 20
-51.6247
 30
0.0
 10
57.9269
 20
-57.1241
 30
0.0
 10
57.9269
 20
-57.1241
 30
0.0
 10
57.9269
 20
-57.1241
 30
0.0
 10
57.9269
 20
-62.9582
 30
0.0
 10
57.9269
 20
-62.9582
 30
0.0
  0
SPLINE
  5
5C
330
1F
100
AcDbEntity
  8
layer 1
 62
     7
100
AcDbSpline
210
0.0
220
0.0
230
1.0
 70
    11
 71
     3
 72
    48
 73
    44
 74
     0
 42
0.0000000001
 43
0.0000000001
 12
1.0
 22
0.0
 32
0.0
 13
1.0
 23
0.0
 33
0.0
 40
0.0
 40
0.0
 40
0.0
 40
0.0
 40
0.0833333333333333
 40
0.0833333333333333
 40
0.0833333333333333
 40
0.0833333333333333
 40
0.1666666666666667
 40
0.1666666666666667
 40
0.1666666666666667
 40
0.1666666666666667
 40
0.25
 40
0.25
 40
0.25
 40
0.25
 40
0.3333333333333333
 40
0.3333333333333333
 40
0.3333333333333333
 40
0.3333333333333333
 40
0.4166666666666667
 40
0.4166666666666667
 40
0.4166666666666667
 40
0.4166666666666667
 40
0.5
 40
0.5
 40
0.5
 40
0.5
 40
0.5833333333333334
 40
0.5833333333333334
 40
0.5833333333333334
 40
0.5833333333333334
 40
0.6666666666666666
 40
0.6666666666666666
 40
0.6666666666666666
 40
0.6666666666666666
 40
0.75
 40
0.75
 40
0.75
 40
0.75
 40
0.8333333333333334
 40
0.8333333333333334
 40
0.8333333333333334
 40
0.8333333333333334
 40
1.0
 40
1.0
 40
1.0
 40
1.0
 10
57.9269
 20
-50.6576
 30
0.0
 10
57.5823
 20
-49.9756
 30
0.0
 10
57.0457
 20
-49.2469
 30
0.0
 10
56.4088
 20
-48.6023
 30
0.0
 10
56.4088
 20
-48.6023
 30
0.0
 10
55.7611
 20
-47.9591
 30
0.0
 10
55.0282
 20
-47.4176
 30
0.0
 10
54.3405
 20
-47.0714
 30
0.0
 10
54.3405
 20
-47.0714
 30
0.0
 10
52.6166
 20
-46.2539
 30
0.0
 10
52.6122
 20
-45.1892
 30
0.0
 10
54.3405
 20
-44.4848
 30
0.0
 10
54.3405
 20
-44.4848
 30
0.0
 10
54.3405
 20
-44.4848
 30
0.0
 10
54.3409
 20
-44.4846
 30
0.0
 10
54.3409
 20
-44.4846
 30
0.0
 10
54.3409
 20
-44.4846
 30
0.0
 10
54.3409
 20
-44.4846
 30
0.0
 10
54.3405
 20
-44.4846
 30
0.0
 10
54.3405
 20
-44.4846
 30
0.0
 10
54.3405
 20
-44.4846
 30
0.0
 10
54.3405
 20
-44.4846
 30
0.0
 10
54.3552
 20
-44.4775
 30
0.0
 10
54.3552
 20
-44.4775
 30
0.0
 10
54.3552
 20
-44.4775
 30
0.0
 10
55.0258
 20
-44.1379
 30
0.0
 10
55.738
 20
-43.6128
 30
0.0
 10
56.3722
 20
-42.9895
 30
0.0
 10
56.3722
 20
-42.9895
 30
0.0
 10
56.3722
 20
-42.9895
 30
0.0
 10
56.3733
 20
-42.9887
 30
0.0
 10
56.3733
 20
-42.9887
 30
0.0
 10
56.3733
 20
-42.9887
 30
0.0
 10
56.3733
 20
-42.9887
 30
0.0
 10
56.3825
 20
-42.9792
 30
0.0
 10
56.3825
 20
-42.9792
 30
0.0
 10
56.3825
 20
-42.9792
 30
0.0
 10
57.032
 20
-42.3281
 30
0.0
 10
57.5783
 20
-41.5905
 30
0.0
 10
57.9269
 20
-40.898
 30
0.0
 10
57.9269
 20
-40.898
 30
0.0
 10
57.9269
 20
-40.898
 30
0.0
 10
57.9269
 20
-50.6576
 30
0.0
 10
57.9269
 20
-50.6576
 30
0.0
  0
SPLINE
  5
5D
330
1F
100
AcDbEntity
  8
layer 1
 62
     7
100
AcDbSpline
210
0.0
220
0.0
230
1.0
 70
    11
 71
     3
 72
    20
 73
    16
 74
     0
 42
0.0000000001
 43
0.0000000001
 12
1.0
 22
0.0
 32
0.0
 13
1.0
 23
0.0
 33
0.0
 40
0.0
 40
0.0
 40
0.0
 40
0.0
 40
0.2
 40
0.2
 40
0.2
 40
0.2
 40
0.4
 40
0.4
 40
0.4
 40
0.4
 40
0.6
 40
0.6
 40
0.6
 40
0.6
 40
1.0
 40
1.0
 40
1.0
 40
1.0
 10
57.9269
 20
-34.4315
 30
0.0
 10
56.8795
 20
-39.9311
 30
0.0
 10
53.5286
 20
-43.2819
 30
0.0
 10
47.8738
 20
-44.4846
 30
0.0
 10
47.8738
 20
-44.4846
 30
0.0
 10
47.8738
 20
-44.4846
 30
0.0
 10
42.0409
 20
-44.4846
 30
0.0
 10
42.0409
 20
-44.4846
 30
0.0
 10
42.0409
 20
-44.4846
 30
0.0
 10
42.6708
 20
-36.0026
 30
0.0
 10
49.445
 20
-29.2287
 30
0.0
 10
57.9269
 20
-28.5984
 30
0.0
 10
57.9269
 20
-28.5984
 30
0.0
 10
57.9269
 20
-28.5984
 30
0.0
 10
57.9269
 20
-34.4315
 30
0.0
 10
57.9269
 20
-34.4315
 30
0.0
  0
SPLINE
  5
5E
330
1F
100
AcDbEntity
  8
layer 1
 62
     7
100
AcDbSpline
210
0.0
220
0.0
230
1.0
 70
    11
 71
     3
 72
    20
 73
    16
 74
     0
 42
0.0000000001
 43
0.0000000001
 12
1.0
 22
0.0
 32
0.0
 13
1.0
 23
0.0
 33
0.0
 40
0.0
 40
0.0
 40
0.0
 40
0.0
 40
0.2
 40
0.2
 40
0.2
 40
0.2
 40
0.4
 40
0.4
 40
0.4
 40
0.4
 40
0.6
 40
0.6
 40
0.6
 40
0.6
 40
1.0
 40
1.0
 40
1.0
 40
1.0
 10
57.9269
 20
-24.1591
 30
0.0
 10
49.4448
 20
-23.5289
 30
0.0
 10
42.6704
 20
-16.7544
 30
0.0
 10
42.0407
 20
-8.2721
 30
0.0
 10
42.0407
 20
-8.2721
 30
0.0
 10
42.0407
 20
-8.2721
 30
0.0
 10
47.875
 20
-8.2721
 30
0.0
 10
47.875
 20
-8.2721
 30
0.0
 10
47.875
 20
-8.2721
 30
0.0
 10
53.5292
 20
-9.4752
 30
0.0
 10
56.8795
 20
-12.8255
 30
0.0
 10
57.9269
 20
-18.325
 30
0.0
 10
57.9269
 20
-18.325
 30
0.0
 10
57.9269
 20
-18.325
 30
0.0
 10
57.9269
 20
-24.1591
 30
0.0
 10
57.9269
 20
-24.1591
 30
0.0
  0
SPLINE
  5
5F
330
1F
100
AcDbEntity
  8
layer 1
 62
     7
100
AcDbSpline
210
0.0
220
0.0
230
1.0
 70
    11
 71
     3
 72
    48
 73
    44
 74
     0
 42
0.0000000001
 43
0.0000000001
 12
1.0
 22
0.0
 32
0.0
 13
1.0
 23
0.0
 33
0.0
 40
0.0
 40
0.0
 40
0.0
 40
0.0
 40
0.0833333333333333
 40
0.0833333333333333
 40
0.0833333333333333
 40
0.0833333333333333
 40
0.1666666666666667
 40
0.1666666666666667
 40
0.1666666666666667
 40
0.1666666666666667
 40
0.25
 40
0.25
 40
0.25
 40
0.25
 40
0.3333333333333333
 40
0.3333333333333333
 40
0.3333333333333333
 40
0.3333333333333333
 40
0.4166666666666667
 40
0.4166666666666667
 40
0.4166666666666667
 40
0.4166666666666667
 40
0.5
 40
0.5
 40
0.5
 40
0.5
 40
0.5833333333333334
 40
0.5833333333333334
 40
0.5833333333333334
 40
0.5833333333333334
 40
0.6666666666666666
 40
0.6666666666666666
 40
0.6666666666666666
 40
0.6666666666666666
 40
0.75
 40
0.75
 40
0.75
 40
0.75
 40
0.8333333333333334
 40
0.8333333333333334
 40
0.8333333333333334
 40
0.8333333333333334
 40
1.0
 40
1.0
 40
1.0
 40
1.0
 10
57.9269
 20
-11.8584
 30
0.0
 10
57.5823
 20
-11.1765
 30
0.0
 10
57.0457
 20
-10.448
 30
0.0
 10
56.4088
 20
-9.8032
 30
0.0
 10
56.4088
 20
-9.8032
 30
0.0
 10
55.7611
 20
-9.1601
 30
0.0
 10
55.0282
 20
-8.6186
 30
0.0
 10
54.3405
 20
-8.2723
 30
0.0
 10
54.3405
 20
-8.2723
 30
0.0
 10
52.6166
 20
-7.4548
 30
0.0
 10
52.6122
 20
-6.3903
 30
0.0
 10
54.3405
 20
-5.6858
 30
0.0
 10
54.3405
 20
-5.6858
 30
0.0
 10
54.3405
 20
-5.6858
 30
0.0
 10
54.3409
 20
-5.6856
 30
0.0
 10
54.3409
 20
-5.6856
 30
0.0
 10
54.3409
 20
-5.6856
 30
0.0
 10
54.3409
 20
-5.6856
 30
0.0
 10
54.3405
 20
-5.6856
 30
0.0
 10
54.3405
 20
-5.6856
 30
0.0
 10
54.3405
 20
-5.6856
 30
0.0
 10
54.3405
 20
-5.6856
 30
0.0
 10
54.3552
 20
-5.6784
 30
0.0
 10
54.3552
 20
-5.6784
 30
0.0
 10
54.3552
 20
-5.6784
 30
0.0
 10
55.0258
 20
-5.3387
 30
0.0
 10
55.738
 20
-4.8136
 30
0.0
 10
56.3722
 20
-4.1905
 30
0.0
 10
56.3722
 20
-4.1905
 30
0.0
 10
56.3722
 20
-4.1905
 30
0.0
 10
56.3733
 20
-4.1896
 30
0.0
 10
56.3733
 20
-4.1896
 30
0.0
 10
56.3733
 20
-4.1896
 30
0.0
 10
56.3733
 20
-4.1896
 30
0.0
 10
56.3825
 20
-4.1803
 30
0.0
 10
56.3825
 20
-4.1803
 30
0.0
 10
56.3825
 20
-4.1803
 30
0.0
 10
57.032
 20
-3.529
 30
0.0
 10
57.5783
 20
-2.7913
 30
0.0
 10
57.9269
 20
-2.0991
 30
0.0
 10
57.9269
 20
-2.0991
 30
0.0
 10
57.9269
 20
-2.0991
 30
0.0
 10
57.9269
 20
-11.8584
 30
0.0
 10
57.9269
 20
-11.8584
 30
0.0
  0
SPLINE
  5
60
330
1F
100
AcDbEntity
  8
layer 1
 62
     7
100
AcDbSpline
210
0.0
220
0.0
230
1.0
 70
    11
 71
     3
 72
    20
 73
    16
 74
     0
 42
0.0000000001
 43
0.0000000001
 12
1.0
 22
0.0
 32
0.0
 13
1.0
 23
0.0
 33
0.0
 40
0.0
 40
0.0
 40
0.0
 40
0.0
 40
0.2
 40
0.2
 40
0.2
 40
0.2
 40
0.4
 40
0.4
 40
0.4
 40
0.4
 40
0.6
 40
0.6
 40
0.6
 40
0.6
 40
1.0
 40
1.0
 40
1.0
 40
1.0
 10
57.9269
 20
4.3674
 30
0.0
 10
56.8795
 20
-1.132
 30
0.0
 10
53.5286
 20
-4.4827
 30
0.0
 10
47.8738
 20
-5.6856
 30
0.0
 10
47.8738
 20
-5.6856
 30
0.0
 10
47.8738
 20
-5.6856
 30
0.0
 10
42.0409
 20
-5.6856
 30
0.0
 10
42.0409
 20
-5.6856
 30
0.0
 10
42.0409
 20
-5.6856
 30
0.0
 10
42.6708
 20
2.7963
 30
0.0
 10
49.445
 20
9.5705
 30
0.0
 10
57.9269
 20
10.2008
 30
0.0
 10
57.9269
 20
10.2008
 30
0.0
 10
57.9269
 20
10.2008
 30
0.0
 10
57.9269
 20
4.3674
 30
0.0
 10
57.9269
 20
4.3674
 30
0.0
  0
SPLINE
  5
61
330
1F
100
AcDbEntity
  8
layer 1
 62
     7
100
AcDbSpline
210
0.0
220
0.0
230
1.0
 70
    11
 71
     3
 72
    20
 73
    16
 74
     0
 42
0.0000000001
 43
0.0000000001
 12
1.0
 22
0.0
 32
0.0
 13
1.0
 23
0.0
 33
0.0
 40
0.0
 40
0.0
 40
0.0
 40
0.0
 40
0.2
 40
0.2
 40
0.2
 40
0.2
 40
0.4
 40
0.4
 40
0.4
 40
0.4
 40
0.6
 40
0.6
 40
0.6
 40
0.6
 40
1.0
 40
1.0
 40
1.0
 40
1.0
 10
57.9269
 20
14.6401
 30
0.0
 10
49.4448
 20
15.27
 30
0.0
 10
42.6704
 20
22.0446
 30
0.0
 10
42.0407
 20
30.5269
 30
0.0
 10
42.0407
 20
30.5269
 30
0.0
 10
42.0407
 20
30.5269
 30
0.0
 10
47.875
 20
30.5269
 30
0.0
 10
47.875
 20
30.5269
 30
0.0
 10
47.875
 20
30.5269
 30
0.0
 10
53.5292
 20
29.3238
 30
0.0
 10
56.8795
 20
25.9734
 30
0.0
 10
57.9269
 20
20.4742
 30
0.0
 10
57.9269
 20
20.4742
 30
0.0
 10
57.9269
 20
20.4742
 30
0.0
 10
57.9269
 20
14.6401
 30
0.0
 10
57.9269
 20
14.6401
 30
0.0
  0
SPLINE
  5
62
330
1F
100
AcDbEntity
  8
layer 1
 62
     7
100
AcDbSpline
210
0.0
220
0.0
230
1.0
 70
    11
 71
     3
 72
    48
 73
    44
 74
     0
 42
0.0000000001
 43
0.0000000001
 12
1.0
 22
0.0
 32
0.0
 13
1.0
 23
0.0
 33
0.0
 40
0.0
 40
0.0
 40
0.0
 40
0.0
 40
0.0833333333333333
 40
0.0833333333333333
 40
0.0833333333333333
 40
0.0833333333333333
 40
0.1666666666666667
 40
0.1666666666666667
 40
0.1666666666666667
 40
0.1666666666666667
 40
0.25
 40
0.25
 40
0.25
 40
0.25
 40
0.3333333333333333
 40
0.3333333333333333
 40
0.3333333333333333
 40
0.3333333333333333
 40
0.4166666666666667
 40
0.4166666666666667
 40
0.4166666666666667
 40
0.4166666666666667
 40
0.5
 40
0.5
 40
0.5
 40
0.5
 40
0.5833333333333334
 40
0.5833333333333334
 40
0.5833333333333334
 40
0.5833333333333334
 40
0.6666666666666666
 40
0.6666666666666666
 40
0.6666666666666666
 40
0.6666666666666666
 40
0.75
 40
0.75
 40
0.75
 40
0.75
 40
0.8333333333333334
 40
0.8333333333333334
 40
0.8333333333333334
 40
0.8333333333333334
 40
1.0
 40
1.0
 40
1.0
 40
1.0
 10
57.9269
 20
26.9405
 30
0.0
 10
57.5823
 20
27.6227
 30
0.0
 10
57.0457
 20
28.3512
 30
0.0
 10
56.4088
 20
28.996
 30
0.0
 10
56.4088
 20
28.996
 30
0.0
 10
55.7611
 20
29.6391
 30
0.0
 10
55.0282
 20
30.1806
 30
0.0
 10
54.3405
 20
30.5267
 30
0.0
 10
54.3405
 20
30.5267
 30
0.0
 10
52.6166
 20
31.3444
 30
0.0
 10
52.6122
 20
32.4089
 30
0.0
 10
54.3405
 20
33.1133
 30
0.0
 10
54.3405
 20
33.1133
 30
0.0
 10
54.3405
 20
33.1133
 30
0.0
 10
54.3409
 20
33.1135
 30
0.0
 10
54.3409
 20
33.1135
 30
0.0
 10
54.3409
 20
33.1135
 30
0.0
 10
54.3409
 20
33.1135
 30
0.0
 10
54.3405
 20
33.1135
 30
0.0
 10
54.3405
 20
33.1135
 30
0.0
 10
54.3405
 20
33.1135
 30
0.0
 10
54.3405
 20
33.1135
 30
0.0
 10
54.3552
 20
33.1206
 30
0.0
 10
54.3552
 20
33.1206
 30
0.0
 10
54.3552
 20
33.1206
 30
0.0
 10
55.0258
 20
33.4604
 30
0.0
 10
55.738
 20
33.9855
 30
0.0
 10
56.3722
 20
34.6086
 30
0.0
 10
56.3722
 20
34.6086
 30
0.0
 10
56.3722
 20
34.6086
 30
0.0
 10
56.3733
 20
34.6096
 30
0.0
 10
56.3733
 20
34.6096
 30
0.0
 10
56.3733
 20
34.6096
 30
0.0
 10
56.3733
 20
34.6096
 30
0.0
 10
56.3825
 20
34.6191
 30
0.0
 10
56.3825
 20
34.6191
 30
0.0
 10
56.3825
 20
34.6191
 30
0.0
 10
57.032
 20
35.2702
 30
0.0
 10
57.5783
 20
36.0078
 30
0.0
 10
57.9269
 20
36.7001
 30
0.0
 10
57.9269
 20
36.7001
 30
0.0
 10
57.9269
 20
36.7001
 30
0.0
 10
57.9269
 20
26.9405
 30
0.0
 10
57.9269
 20
26.9405
 30
0.0
  0
SPLINE
  5
63
330
1F
100
AcDbEntity
  8
layer 1
 62
     7
100
AcDbSpline
210
0.0
220
0.0
230
1.0
 70
    11
 71
     3
 72
    20
 73
    16
 74
     0
 42
0.0000000001
 43
0.0000000001
 12
1.0
 22
0.0
 32
0.0
 13
1.0
 23
0.0
 33
0.0
 40
0.0
 40
0.0
 40
0.0
 40
0.0
 40
0.2
 40
0.2
 40
0.2
 40
0.2
 40
0.4
 40
0.4
 40
0.4
 40
0.4
 40
0.6
 40
0.6
 40
0.6
 40
0.6
 40
1.0
 40
1.0
 40
1.0
 40
1.0
 10
57.9269
 20
43.1666
 30
0.0
 10
56.8795
 20
37.667
 30
0.0
 10
53.5286
 20
34.3162
 30
0.0
 10
47.8738
 20
33.1135
 30
0.0
 10
47.8738
 20
33.1135
 30
0.0
 10
47.8738
 20
33.1135
 30
0.0
 10
42.0409
 20
33.1135
 30
0.0
 10
42.0409
 20
33.1135
 30
0.0
 10
42.0409
 20
33.1135
 30
0.0
 10
42.6708
 20
41.5955
 30
0.0
 10
49.445
 20
48.3696
 30
0.0
 10
57.9269
 20
48.9998
 30
0.0
 10
57.9269
 20
48.9998
 30
0.0
 10
57.9269
 20
48.9998
 30
0.0
 10
57.9269
 20
43.1666
 30
0.0
 10
57.9269
 20
43.1666
 30
0.0
  0
SPLINE
  5
64
330
1F
100
AcDbEntity
  8
layer 1
 62
     7
100
AcDbSpline
210
0.0
220
0.0
230
1.0
 70
    11
 71
     3
 72
    20
 73
    16
 74
     0
 42
0.0000000001
 43
0.0000000001
 12
1.0
 22
0.0
 32
0.0
 13
1.0
 23
0.0
 33
0.0
 40
0.0
 40
0.0
 40
0.0
 40
0.0
 40
0.2
 40
0.2
 40
0.2
 40
0.2
 40
0.4
 40
0.4
 40
0.4
 40
0.4
 40
0.6
 40
0.6
 40
0.6
 40
0.6
 40
1.0
 40
1.0
 40
1.0
 40
1.0
 10
57.9269
 20
53.439
 30
0.0
 10
49.4448
 20
54.0692
 30
0.0
 10
42.6704
 20
60.8437
 30
0.0
 10
42.0407
 20
69.326
 30
0.0
 10
42.0407
 20
69.326
 30
0.0
 10
42.0407
 20
69.326
 30
0.0
 10
47.875
 20
69.326
 30
0.0
 10
47.875
 20
69.326
 30
0.0
 10
47.875
 20
69.326
 30
0.0
 10
53.5292
 20
68.1232
 30
0.0
 10
56.8795
 20
64.7726
 30
0.0
 10
57.9269
 20
59.2732
 30
0.0
 10
57.9269
 20
59.2732
 30
0.0
 10
57.9269
 20
59.2732
 30
0.0
 10
57.9269
 20
53.439
 30
0.0
 10
57.9269
 20
53.439
 30
0.0
  0
SPLINE
  5
65
330
1F
100
AcDbEntity
  8
layer 1
 62
     7
100
AcDbSpline
210
0.0
220
0.0
230
1.0
 70
    11
 71
     3
 72
    48
 73
    44
 74
     0
 42
0.0000000001
 43
0.0000000001
 12
1.0
 22
0.0
 32
0.0
 13
1.0
 23
0.0
 33
0.0
 40
0.0
 40
0.0
 40
0.0
 40
0.0
 40
0.0833333333333333
 40
0.0833333333333333
 40
0.0833333333333333
 40
0.0833333333333333
 40
0.1666666666666667
 40
0.1666666666666667
 40
0.1666666666666667
 40
0.1666666666666667
 40
0.25
 40
0.25
 40
0.25
 40
0.25
 40
0.3333333333333333
 40
0.3333333333333333
 40
0.3333333333333333
 40
0.3333333333333333
 40
0.4166666666666667
 40
0.4166666666666667
 40
0.4166666666666667
 40
0.4166666666666667
 40
0.5
 40
0.5
 40
0.5
 40
0.5
 40
0.5833333333333334
 40
0.5833333333333334
 40
0.5833333333333334
 40
0.5833333333333334
 40
0.6666666666666666
 40
0.6666666666666666
 40
0.6666666666666666
 40
0.6666666666666666
 40
0.75
 40
0.75
 40
0.75
 40
0.75
 40
0.8333333333333334
 40
0.8333333333333334
 40
0.8333333333333334
 40
0.8333333333333334
 40
1.0
 40
1.0
 40
1.0
 40
1.0
 10
57.9269
 20
65.7397
 30
0.0
 10
57.5823
 20
66.4217
 30
0.0
 10
57.0457
 20
67.1503
 30
0.0
 10
56.4088
 20
67.7949
 30
0.0
 10
56.4088
 20
67.7949
 30
0.0
 10
55.7611
 20
68.4382
 30
0.0
 10
55.0282
 20
68.9797
 30
0.0
 10
54.3405
 20
69.3258
 30
0.0
 10
54.3405
 20
69.3258
 30
0.0
 10
52.6166
 20
70.1433
 30
0.0
 10
52.6122
 20
71.208
 30
0.0
 10
54.3405
 20
71.9125
 30
0.0
 10
54.3405
 20
71.9125
 30
0.0
 10
54.3405
 20
71.9125
 30
0.0
 10
54.3409
 20
71.9127
 30
0.0
 10
54.3409
 20
71.9127
 30
0.0
 10
54.3409
 20
71.9127
 30
0.0
 10
54.3409
 20
71.9127
 30
0.0
 10
54.3405
 20
71.9127
 30
0.0
 10
54.3405
 20
71.9127
 30
0.0
 10
54.3405
 20
71.9127
 30
0.0
 10
54.3405
 20
71.9127
 30
0.0
 10
54.3552
 20
71.9197
 30
0.0
 10
54.3552
 20
71.9197
 30
0.0
 10
54.3552
 20
71.9197
 30
0.0
 10
55.0258
 20
72.2594
 30
0.0
 10
55.738
 20
72.7845
 30
0.0
 10
56.3722
 20
73.4078
 30
0.0
 10
56.3722
 20
73.4078
 30
0.0
 10
56.3722
 20
73.4078
 30
0.0
 10
56.3733
 20
73.4085
 30
0.0
 10
56.3733
 20
73.4085
 30
0.0
 10
56.3733
 20
73.4085
 30
0.0
 10
56.3733
 20
73.4085
 30
0.0
 10
56.3825
 20
73.4181
 30
0.0
 10
56.3825
 20
73.4181
 30
0.0
 10
56.3825
 20
73.4181
 30
0.0
 10
57.032
 20
74.0691
 30
0.0
 10
57.5783
 20
74.8068
 30
0.0
 10
57.9269
 20
75.4992
 30
0.0
 10
57.9269
 20
75.4992
 30
0.0
 10
57.9269
 20
75.4992
 30
0.0
 10
57.9269
 20
65.7397
 30
0.0
 10
57.9269
 20
65.7397
 30
0.0
  0
SPLINE
  5
66
330
1F
100
AcDbEntity
  8
layer 1
 62
     7
100
AcDbSpline
210
0.0
220
0.0
230
1.0
 70
    11
 71
     3
 72
    20
 73
    16
 74
     0
 42
0.0000000001
 43
0.0000000001
 12
1.0
 22
0.0
 32
0.0
 13
1.0
 23
0.0
 33
0.0
 40
0.0
 40
0.0
 40
0.0
 40
0.0
 40
0.2
 40
0.2
 40
0.2
 40
0.2
 40
0.4
 40
0.4
 40
0.4
 40
0.4
 40
0.6
 40
0.6
 40
0.6
 40
0.6
 40
1.0
 40
1.0
 40
1.0
 40
1.0
 10
57.9269
 20
81.9657
 30
0.0
 10
56.8795
 20
76.4661
 30
0.0
 10
53.5286
 20
73.1154
 30
0.0
 10
47.8738
 20
71.9127
 30
0.0
 10
47.8738
 20
71.9127
 30
0.0
 10
47.8738
 20
71.9127
 30
0.0
 10
42.0409
 20
71.9127
 30
0.0
 10
42.0409
 20
71.9127
 30
0.0
 10
42.0409
 20
71.9127
 30
0.0
 10
42.6708
 20
80.3946
 30
0.0
 10
49.445
 20
87.1686
 30
0.0
 10
57.9269
 20
87.7989
 30
0.0
 10
57.9269
 20
87.7989
 30
0.0
 10
57.9269
 20
87.7989
 30
0.0
 10
57.9269
 20
81.9657
 30
0.0
 10
57.9269
 20
81.9657
 30
0.0
  0
SPLINE
  5
67
330
1F
100
AcDbEntity
  8
layer 1
 62
     7
100
AcDbSpline
210
0.0
220
0.0
230
1.0
 70
    11
 71
     3
 72
    20
 73
    16
 74
     0
 42
0.0000000001
 43
0.0000000001
 12
1.0
 22
0.0
 32
0.0
 13
1.0
 23
0.0
 33
0.0
 40
0.0
 40
0.0
 40
0.0
 40
0.0
 40
0.2
 40
0.2
 40
0.2
 40
0.2
 40
0.4
 40
0.4
 40
0.4
 40
0.4
 40
0.6
 40
0.6
 40
0.6
 40
0.6
 40
1.0
 40
1.0
 40
1.0
 40
1.0
 10
57.9269
 20
92.2382
 30
0.0
 10
49.4448
 20
92.8683
 30
0.0
 10
42.6704
 20
99.6429
 30
0.0
 10
42.0407
 20
108.1252
 30
0.0
 10
42.0407
 20
108.1252
 30
0.0
 10
42.0407
 20
108.1252
 30
0.0
 10
47.875
 20
108.1252
 30
0.0
 10
47.875
 20
108.1252
 30
0.0
 10
47.875
 20
108.1252
 30
0.0
 10
53.5292
 20
106.9221
 30
0.0
 10
56.8795
 20
103.5715
 30
0.0
 10
57.9269
 20
98.0723
 30
0.0
 10
57.9269
 20
98.0723
 30
0.0
 10
57.9269
 20
98.0723
 30
0.0
 10
57.9269
 20
92.2382
 30
0.0
 10
57.9269
 20
92.2382
 30
0.0
  0
SPLINE
  5
68
330
1F
100
AcDbEntity
  8
layer 1
 62
     7
100
AcDbSpline
210
0.0
220
0.0
230
1.0
 70
    11
 71
     3
 72
    48
 73
    44
 74
     0
 42
0.0000000001
 43
0.0000000001
 12
1.0
 22
0.0
 32
0.0
 13
1.0
 23
0.0
 33
0.0
 40
0.0
 40
0.0
 40
0.0
 40
0.0
 40
0.0833333333333333
 40
0.0833333333333333
 40
0.0833333333333333
 40
0.0833333333333333
 40
0.1666666666666667
 40
0.1666666666666667
 40
0.1666666666666667
 40
0.1666666666666667
 40
0.25
 40
0.25
 40
0.25
 40
0.25
 40
0.3333333333333333
 40
0.3333333333333333
 40
0.3333333333333333
 40
0.3333333333333333
 40
0.4166666666666667
 40
0.4166666666666667
 40
0.4166666666666667
 40
0.4166666666666667
 40
0.5
 40
0.5
 40
0.5
 40
0.5
 40
0.5833333333333334
 40
0.5833333333333334
 40
0.5833333333333334
 40
0.5833333333333334
 40
0.6666666666666666
 40
0.6666666666666666
 40
0.6666666666666666
 40
0.6666666666666666
 40
0.75
 40
0.75
 40
0.75
 40
0.75
 40
0.8333333333333334
 40
0.8333333333333334
 40
0.8333333333333334
 40
0.8333333333333334
 40
1.0
 40
1.0
 40
1.0
 40
1.0
 10
57.9269
 20
104.5388
 30
0.0
 10
57.5823
 20
105.2208
 30
0.0
 10
57.0457
 20
105.9495
 30
0.0
 10
56.4088
 20
106.5941
 30
0.0
 10
56.4088
 20
106.5941
 30
0.0
 10
55.7611
 20
107.2372
 30
0.0
 10
55.0282
 20
107.7787
 30
0.0
 10
54.3405
 20
108.125
 30
0.0
 10
54.3405
 20
108.125
 30
0.0
 10
52.6166
 20
108.9425
 30
0.0
 10
52.6122
 20
110.0072
 30
0.0
 10
54.3405
 20
110.7115
 30
0.0
 10
54.3405
 20
110.7115
 30
0.0
 10
54.3405
 20
110.7115
 30
0.0
 10
54.3409
 20
110.7116
 30
0.0
 10
54.3409
 20
110.7116
 30
0.0
 10
54.3409
 20
110.7116
 30
0.0
 10
54.3409
 20
110.7116
 30
0.0
 10
54.3405
 20
110.7116
 30
0.0
 10
54.3405
 20
110.7116
 30
0.0
 10
54.3405
 20
110.7116
 30
0.0
 10
54.3405
 20
110.7116
 30
0.0
 10
54.3552
 20
110.7189
 30
0.0
 10
54.3552
 20
110.7189
 30
0.0
 10
54.3552
 20
110.7189
 30
0.0
 10
55.0258
 20
111.0585
 30
0.0
 10
55.738
 20
111.5836
 30
0.0
 10
56.3722
 20
112.2067
 30
0.0
 10
56.3722
 20
112.2067
 30
0.0
 10
56.3722
 20
112.2067
 30
0.0
 10
56.3733
 20
112.2077
 30
0.0
 10
56.3733
 20
112.2077
 30
0.0
 10
56.3733
 20
112.2077
 30
0.0
 10
56.3733
 20
112.2077
 30
0.0
 10
56.3825
 20
112.2172
 30
0.0
 10
56.3825
 20
112.2172
 30
0.0
 10
56.3825
 20
112.2172
 30
0.0
 10
57.032
 20
112.8683
 30
0.0
 10
57.5783
 20
113.6059
 30
0.0
 10
57.9269
 20
114.2982
 30
0.0
 10
57.9269
 20
114.2982
 30
0.0
 10
57.9269
 20
114.2982
 30
0.0
 10
57.9269
 20
104.5388
 30
0.0
 10
57.9269
 20
104.5388
 30
0.0
  0
SPLINE
  5
69
330
1F
100
AcDbEntity
  8
layer 1
 62
     7
100
AcDbSpline
210
0.0
220
0.0
230
1.0
 70
    11
 71
     3
 72
    20
 73
    16
 74
     0
 42
0.0000000001
 43
0.0000000001
 12
1.0
 22
0.0
 32
0.0
 13
1.0
 23
0.0
 33
0.0
 40
0.0
 40
0.0
 40
0.0
 40
0.0
 40
0.2
 40
0.2
 40
0.2
 40
0.2
 40
0.4
 40
0.4
 40
0.4
 40
0.4
 40
0.6
 40
0.6
 40
0.6
 40
0.6
 40
1.0
 40
1.0
 40
1.0
 40
1.0
 10
57.9269
 20
120.7647
 30
0.0
 10
56.8795
 20
115.2653
 30
0.0
 10
53.5286
 20
111.9145
 30
0.0
 10
47.8738
 20
110.7116
 30
0.0
 10
47.8738
 20
110.7116
 30
0.0
 10
47.8738
 20
110.7116
 30
0.0
 10
42.0409
 20
110.7116
 30
0.0
 10
42.0409
 20
110.7116
 30
0.0
 10
42.0409
 20
110.7116
 30
0.0
 10
42.6708
 20
119.1936
 30
0.0
 10
49.445
 20
125.9677
 30
0.0
 10
57.9269
 20
126.5981
 30
0.0
 10
57.9269
 20
126.5981
 30
0.0
 10
57.9269
 20
126.5981
 30
0.0
 10
57.9269
 20
120.7647
 30
0.0
 10
57.9269
 20
120.7647
 30
0.0
  0
SPLINE
  5
6A
330
1F
100
AcDbEntity
  8
layer 1
 62
     7
100
AcDbSpline
210
0.0
220
0.0
230
1.0
 70
    11
 71
     3
 72
    20
 73
    16
 74
     0
 42
0.0000000001
 43
0.0000000001
 12
1.0
 22
0.0
 32
0.0
 13
1.0
 23
0.0
 33
0.0
 40
0.0
 40
0.0
 40
0.0
 40
0.0
 40
0.2
 40
0.2
 40
0.2
 40
0.2
 40
0.4
 40
0.4
 40
0.4
 40
0.4
 40
0.6
 40
0.6
 40
0.6
 40
0.6
 40
1.0
 40
1.0
 40
1.0
 40
1.0
 10
55.1702
 20
90.0185
 30
0.0
 10
47.4781
 20
88.4201
 30
0.0
 10
41.4187
 20
82.3612
 30
0.0
 10
39.8204
 20
74.6692
 30
0.0
 10
39.8204
 20
74.6692
 30
0.0
 10
38.222
 20
82.3609
 30
0.0
 10
32.1635
 20
88.4203
 30
0.0
 10
24.4716
 20
90.0186
 30
0.0
 10
24.4716
 20
90.0186
 30
0.0
 10
32.1635
 20
91.6174
 30
0.0
 10
38.222
 20
97.6766
 30
0.0
 10
39.8204
 20
105.3685
 30
0.0
 10
39.8204
 20
105.3685
 30
0.0
 10
41.4187
 20
97.6762
 30
0.0
 10
47.478
 20
91.6168
 30
0.0
 10
55.1702
 20
90.0185
 30
0.0
  0
SPLINE
  5
6B
330
1F
100
AcDbEntity
  8
layer 1
 62
     7
100
AcDbSpline
210
0.0
220
0.0
230
1.0
 70
    11
 71
     3
 72
    20
 73
    16
 74
     0
 42
0.0000000001
 43
0.0000000001
 12
1.0
 22
0.0
 32
0.0
 13
1.0
 23
0.0
 33
0.0
 40
0.0
 40
0.0
 40
0.0
 40
0.0
 40
0.2
 40
0.2
 40
0.2
 40
0.2
 40
0.4
 40
0.4
 40
0.4
 40
0.4
 40
0.6
 40
0.6
 40
0.6
 40
0.6
 40
1.0
 40
1.0
 40
1.0
 40
1.0
 10
55.1702
 20
51.2195
 30
0.0
 10
47.4781
 20
49.6211
 30
0.0
 10
41.4187
 20
43.5621
 30
0.0
 10
39.8204
 20
35.87
 30
0.0
 10
39.8204
 20
35.87
 30
0.0
 10
38.222
 20
43.5617
 30
0.0
 10
32.1635
 20
49.6211
 30
0.0
 10
24.4716
 20
51.2197
 30
0.0
 10
24.4716
 20
51.2197
 30
0.0
 10
32.1635
 20
52.8183
 30
0.0
 10
38.222
 20
58.8775
 30
0.0
 10
39.8204
 20
66.5694
 30
0.0
 10
39.8204
 20
66.5694
 30
0.0
 10
41.4187
 20
58.8773
 30
0.0
 10
47.478
 20
52.8177
 30
0.0
 10
55.1702
 20
51.2195
 30
0.0
  0
SPLINE
  5
6C
330
1F
100
AcDbEntity
  8
layer 1
 62
     7
100
AcDbSpline
210
0.0
220
0.0
230
1.0
 70
    11
 71
     3
 72
    20
 73
    16
 74
     0
 42
0.0000000001
 43
0.0000000001
 12
1.0
 22
0.0
 32
0.0
 13
1.0
 23
0.0
 33
0.0
 40
0.0
 40
0.0
 40
0.0
 40
0.0
 40
0.2
 40
0.2
 40
0.2
 40
0.2
 40
0.4
 40
0.4
 40
0.4
 40
0.4
 40
0.6
 40
0.6
 40
0.6
 40
0.6
 40
1.0
 40
1.0
 40
1.0
 40
1.0
 10
55.1702
 20
12.4203
 30
0.0
 10
47.4781
 20
10.822
 30
0.0
 10
41.4187
 20
4.7631
 30
0.0
 10
39.8204
 20
-2.929
 30
0.0
 10
39.8204
 20
-2.929
 30
0.0
 10
38.222
 20
4.7628
 30
0.0
 10
32.1635
 20
10.822
 30
0.0
 10
24.4716
 20
12.4205
 30
0.0
 10
24.4716
 20
12.4205
 30
0.0
 10
32.1635
 20
14.0191
 30
0.0
 10
38.222
 20
20.0783
 30
0.0
 10
39.8204
 20
27.7702
 30
0.0
 10
39.8204
 20
27.7702
 30
0.0
 10
41.4187
 20
20.0781
 30
0.0
 10
47.478
 20
14.0187
 30
0.0
 10
55.1702
 20
12.4203
 30
0.0
  0
SPLINE
  5
6D
330
1F
100
AcDbEntity
  8
layer 1
 62
     7
100
AcDbSpline
210
0.0
220
0.0
230
1.0
 70
    11
 71
     3
 72
    20
 73
    16
 74
     0
 42
0.0000000001
 43
0.0000000001
 12
1.0
 22
0.0
 32
0.0
 13
1.0
 23
0.0
 33
0.0
 40
0.0
 40
0.0
 40
0.0
 40
0.0
 40
0.2
 40
0.2
 40
0.2
 40
0.2
 40
0.4
 40
0.4
 40
0.4
 40
0.4
 40
0.6
 40
0.6
 40
0.6
 40
0.6
 40
1.0
 40
1.0
 40
1.0
 40
1.0
 10
55.1702
 20
-26.3788
 30
0.0
 10
47.4781
 20
-27.9772
 30
0.0
 10
41.4187
 20
-34.036
 30
0.0
 10
39.8204
 20
-41.7281
 30
0.0
 10
39.8204
 20
-41.7281
 30
0.0
 10
38.222
 20
-34.0364
 30
0.0
 10
32.1635
 20
-27.9772
 30
0.0
 10
24.4716
 20
-26.3786
 30
0.0
 10
24.4716
 20
-26.3786
 30
0.0
 10
32.1635
 20
-24.7799
 30
0.0
 10
38.222
 20
-18.7206
 30
0.0
 10
39.8204
 20
-11.0289
 30
0.0
 10
39.8204
 20
-11.0289
 30
0.0
 10
41.4187
 20
-18.721
 30
0.0
 10
47.478
 20
-24.7804
 30
0.0
 10
55.1702
 20
-26.3788
 30
0.0
  0
SPLINE
  5
6E
330
1F
100
AcDbEntity
  8
layer 1
 62
     7
100
AcDbSpline
210
0.0
220
0.0
230
1.0
 70
    11
 71
     3
 72
    20
 73
    16
 74
     0
 42
0.0000000001
 43
0.0000000001
 12
1.0
 22
0.0
 32
0.0
 13
1.0
 23
0.0
 33
0.0
 40
0.0
 40
0.0
 40
0.0
 40
0.0
 40
0.2
 40
0.2
 40
0.2
 40
0.2
 40
0.4
 40
0.4
 40
0.4
 40
0.4
 40
0.6
 40
0.6
 40
0.6
 40
0.6
 40
1.0
 40
1.0
 40
1.0
 40
1.0
 10
55.1702
 20
-65.1778
 30
0.0
 10
47.4781
 20
-66.7761
 30
0.0
 10
41.4187
 20
-72.835
 30
0.0
 10
39.8204
 20
-80.5273
 30
0.0
 10
39.8204
 20
-80.5273
 30
0.0
 10
38.222
 20
-72.8356
 30
0.0
 10
32.1635
 20
-66.7761
 30
0.0
 10
24.4716
 20
-65.1776
 30
0.0
 10
24.4716
 20
-65.1776
 30
0.0
 10
32.1635
 20
-63.579
 30
0.0
 10
38.222
 20
-57.5198
 30
0.0
 10
39.8204
 20
-49.8279
 30
0.0
 10
39.8204
 20
-49.8279
 30
0.0
 10
41.4187
 20
-57.5202
 30
0.0
 10
47.478
 20
-63.5794
 30
0.0
 10
55.1702
 20
-65.1778
 30
0.0
  0
SPLINE
  5
6F
330
1F
100
AcDbEntity
  8
layer 1
 62
     7
100
AcDbSpline
210
0.0
220
0.0
230
1.0
 70
    11
 71
     3
 72
    20
 73
    16
 74
     0
 42
0.0000000001
 43
0.0000000001
 12
1.0
 22
0.0
 32
0.0
 13
1.0
 23
0.0
 33
0.0
 40
0.0
 40
0.0
 40
0.0
 40
0.0
 40
0.2
 40
0.2
 40
0.2
 40
0.2
 40
0.4
 40
0.4
 40
0.4
 40
0.4
 40
0.6
 40
0.6
 40
0.6
 40
0.6
 40
1.0
 40
1.0
 40
1.0
 40
1.0
 10
16.3711
 20
90.0185
 30
0.0
 10
8.679
 20
88.4201
 30
0.0
 10
2.6196
 20
82.3612
 30
0.0
 10
1.0212
 20
74.6692
 30
0.0
 10
1.0212
 20
74.6692
 30
0.0
 10
-0.5772
 20
82.3609
 30
0.0
 10
-6.6356
 20
88.4201
 30
0.0
 10
-14.3275
 20
90.0186
 30
0.0
 10
-14.3275
 20
90.0186
 30
0.0
 10
-6.6356
 20
91.6174
 30
0.0
 10
-0.5772
 20
97.6766
 30
0.0
 10
1.0212
 20
105.3685
 30
0.0
 10
1.0212
 20
105.3685
 30
0.0
 10
2.6196
 20
97.6762
 30
0.0
 10
8.6788
 20
91.6168
 30
0.0
 10
16.3711
 20
90.0185
 30
0.0
  0
SPLINE
  5
70
330
1F
100
AcDbEntity
  8
layer 1
 62
     7
100
AcDbSpline
210
0.0
220
0.0
230
1.0
 70
    11
 71
     3
 72
    20
 73
    16
 74
     0
 42
0.0000000001
 43
0.0000000001
 12
1.0
 22
0.0
 32
0.0
 13
1.0
 23
0.0
 33
0.0
 40
0.0
 40
0.0
 40
0.0
 40
0.0
 40
0.2
 40
0.2
 40
0.2
 40
0.2
 40
0.4
 40
0.4
 40
0.4
 40
0.4
 40
0.6
 40
0.6
 40
0.6
 40
0.6
 40
1.0
 40
1.0
 40
1.0
 40
1.0
 10
19.1277
 20
98.0723
 30
0.0
 10
18.0804
 20
103.5715
 30
0.0
 10
14.73
 20
106.9221
 30
0.0
 10
9.0758
 20
108.1252
 30
0.0
 10
9.0758
 20
108.1252
 30
0.0
 10
9.0758
 20
108.1252
 30
0.0
 10
3.2415
 20
108.1252
 30
0.0
 10
3.2415
 20
108.1252
 30
0.0
 10
3.2415
 20
108.1252
 30
0.0
 10
3.8715
 20
99.6429
 30
0.0
 10
10.6456
 20
92.8683
 30
0.0
 10
19.1277
 20
92.2382
 30
0.0
 10
19.1277
 20
92.2382
 30
0.0
 10
19.1277
 20
92.2382
 30
0.0
 10
19.1277
 20
98.0723
 30
0.0
 10
19.1277
 20
98.0723
 30
0.0
  0
SPLINE
  5
71
330
1F
100
AcDbEntity
  8
layer 1
 62
     7
100
AcDbSpline
210
0.0
220
0.0
230
1.0
 70
    11
 71
     3
 72
    20
 73
    16
 74
     0
 42
0.0000000001
 43
0.0000000001
 12
1.0
 22
0.0
 32
0.0
 13
1.0
 23
0.0
 33
0.0
 40
0.0
 40
0.0
 40
0.0
 40
0.0
 40
0.2
 40
0.2
 40
0.2
 40
0.2
 40
0.4
 40
0.4
 40
0.4
 40
0.4
 40
0.6
 40
0.6
 40
0.6
 40
0.6
 40
1.0
 40
1.0
 40
1.0
 40
1.0
 10
3.2417
 20
110.7116
 30
0.0
 10
3.2417
 20
110.7116
 30
0.0
 10
9.0749
 20
110.7116
 30
0.0
 10
9.0749
 20
110.7116
 30
0.0
 10
9.0749
 20
110.7116
 30
0.0
 10
14.7296
 20
111.9145
 30
0.0
 10
18.0804
 20
115.2653
 30
0.0
 10
19.1277
 20
120.7647
 30
0.0
 10
19.1277
 20
120.7647
 30
0.0
 10
19.1277
 20
120.7647
 30
0.0
 10
19.1277
 20
126.5981
 30
0.0
 10
19.1277
 20
126.5981
 30
0.0
 10
19.1277
 20
126.5981
 30
0.0
 10
10.6458
 20
125.9677
 30
0.0
 10
3.8718
 20
119.1936
 30
0.0
 10
3.2417
 20
110.7116
 30
0.0
  0
SPLINE
  5
72
330
1F
100
AcDbEntity
  8
layer 1
 62
     7
100
AcDbSpline
210
0.0
220
0.0
230
1.0
 70
    11
 71
     3
 72
    20
 73
    16
 74
     0
 42
0.0000000001
 43
0.0000000001
 12
1.0
 22
0.0
 32
0.0
 13
1.0
 23
0.0
 33
0.0
 40
0.0
 40
0.0
 40
0.0
 40
0.0
 40
0.2
 40
0.2
 40
0.2
 40
0.2
 40
0.4
 40
0.4
 40
0.4
 40
0.4
 40
0.6
 40
0.6
 40
0.6
 40
0.6
 40
1.0
 40
1.0
 40
1.0
 40
1.0
 10
21.7144
 20
126.5981
 30
0.0
 10
21.7144
 20
126.5981
 30
0.0
 10
21.7144
 20
120.7647
 30
0.0
 10
21.7144
 20
120.7647
 30
0.0
 10
21.7144
 20
120.7647
 30
0.0
 10
22.7617
 20
115.2653
 30
0.0
 10
26.1127
 20
111.9145
 30
0.0
 10
31.7675
 20
110.7116
 30
0.0
 10
31.7675
 20
110.7116
 30
0.0
 10
31.7675
 20
110.7116
 30
0.0
 10
37.6008
 20
110.7116
 30
0.0
 10
37.6008
 20
110.7116
 30
0.0
 10
37.6008
 20
110.7116
 30
0.0
 10
36.9707
 20
119.1936
 30
0.0
 10
30.1965
 20
125.9677
 30
0.0
 10
21.7144
 20
126.5981
 30
0.0
  0
SPLINE
  5
73
330
1F
100
AcDbEntity
  8
layer 1
 62
     7
100
AcDbSpline
210
0.0
220
0.0
230
1.0
 70
    11
 71
     3
 72
    20
 73
    16
 74
     0
 42
0.0000000001
 43
0.0000000001
 12
1.0
 22
0.0
 32
0.0
 13
1.0
 23
0.0
 33
0.0
 40
0.0
 40
0.0
 40
0.0
 40
0.0
 40
0.2
 40
0.2
 40
0.2
 40
0.2
 40
0.4
 40
0.4
 40
0.4
 40
0.4
 40
0.6
 40
0.6
 40
0.6
 40
0.6
 40
1.0
 40
1.0
 40
1.0
 40
1.0
 10
37.601
 20
108.1252
 30
0.0
 10
37.601
 20
108.1252
 30
0.0
 10
31.7665
 20
108.1252
 30
0.0
 10
31.7665
 20
108.1252
 30
0.0
 10
31.7665
 20
108.1252
 30
0.0
 10
26.1123
 20
106.9221
 30
0.0
 10
22.7617
 20
103.5715
 30
0.0
 10
21.7144
 20
98.0723
 30
0.0
 10
21.7144
 20
98.0723
 30
0.0
 10
21.7144
 20
98.0723
 30
0.0
 10
21.7144
 20
92.2382
 30
0.0
 10
21.7144
 20
92.2382
 30
0.0
 10
21.7144
 20
92.2382
 30
0.0
 10
30.1967
 20
92.8683
 30
0.0
 10
36.9711
 20
99.6429
 30
0.0
 10
37.601
 20
108.1252
 30
0.0
  0
SPLINE
  5
74
330
1F
100
AcDbEntity
  8
layer 1
 62
     7
100
AcDbSpline
210
0.0
220
0.0
230
1.0
 70
    11
 71
     3
 72
   116
 73
   112
 74
     0
 42
0.0000000001
 43
0.0000000001
 12
1.0
 22
0.0
 32
0.0
 13
1.0
 23
0.0
 33
0.0
 40
0.0
 40
0.0
 40
0.0
 40
0.0
 40
0.0344827586206897
 40
0.0344827586206897
 40
0.0344827586206897
 40
0.0344827586206897
 40
0.0689655172413793
 40
0.0689655172413793
 40
0.0689655172413793
 40
0.0689655172413793
 40
0.103448275862069
 40
0.103448275862069
 40
0.103448275862069
 40
0.103448275862069
 40
0.1379310344827586
 40
0.1379310344827586
 40
0.1379310344827586
 40
0.1379310344827586
 40
0.1724137931034483
 40
0.1724137931034483
 40
0.1724137931034483
 40
0.1724137931034483
 40
0.2068965517241379
 40
0.2068965517241379
 40
0.2068965517241379
 40
0.2068965517241379
 40
0.2413793103448276
 40
0.2413793103448276
 40
0.2413793103448276
 40
0.2413793103448276
 40
0.2758620689655172
 40
0.2758620689655172
 40
0.2758620689655172
 40
0.2758620689655172
 40
0.3103448275862069
 40
0.3103448275862069
 40
0.3103448275862069
 40
0.3103448275862069
 40
0.3448275862068966
 40
0.3448275862068966
 40
0.3448275862068966
 40
0.3448275862068966
 40
0.3793103448275862
 40
0.3793103448275862
 40
0.3793103448275862
 40
0.3793103448275862
 40
0.4137931034482759
 40
0.4137931034482759
 40
0.4137931034482759
 40
0.4137931034482759
 40
0.4482758620689655
 40
0.4482758620689655
 40
0.4482758620689655
 40
0.4482758620689655
 40
0.4827586206896552
 40
0.4827586206896552
 40
0.4827586206896552
 40
0.4827586206896552
 40
0.5172413793103449
 40
0.5172413793103449
 40
0.5172413793103449
 40
0.5172413793103449
 40
0.5517241379310345
 40
0.5517241379310345
 40
0.5517241379310345
 40
0.5517241379310345
 40
0.5862068965517241
 40
0.5862068965517241
 40
0.5862068965517241
 40
0.5862068965517241
 40
0.6206896551724138
 40
0.6206896551724138
 40
0.6206896551724138
 40
0.6206896551724138
 40
0.6551724137931034
 40
0.6551724137931034
 40
0.6551724137931034
 40
0.6551724137931034
 40
0.6896551724137931
 40
0.6896551724137931
 40
0.6896551724137931
 40
0.6896551724137931
 40
0.7241379310344828
 40
0.7241379310344828
 40
0.7241379310344828
 40
0.7241379310344828
 40
0.7586206896551724
 40
0.7586206896551724
 40
0.7586206896551724
 40
0.7586206896551724
 40
0.7931034482758621
 40
0.7931034482758621
 40
0.7931034482758621
 40
0.7931034482758621
 40
0.8275862068965517
 40
0.8275862068965517
 40
0.8275862068965517
 40
0.8275862068965517
 40
0.8620689655172413
 40
0.8620689655172413
 40
0.8620689655172413
 40
0.8620689655172413
 40
0.896551724137931
 40
0.896551724137931
 40
0.896551724137931
 40
0.896551724137931
 40
0.9310344827586207
 40
0.9310344827586207
 40
0.9310344827586207
 40
0.9310344827586207
 40
1.0
 40
1.0
 40
1.0
 40
1.0
 10
19.1277
 20
114.2982
 30
0.0
 10
19.9454
 20
116.0222
 30
0.0
 10
21.0099
 20
116.0267
 30
0.0
 10
21.7144
 20
114.2982
 30
0.0
 10
21.7144
 20
114.2982
 30
0.0
 10
21.7144
 20
114.2982
 30
0.0
 10
21.7146
 20
114.2978
 30
0.0
 10
21.7146
 20
114.2978
 30
0.0
 10
21.7146
 20
114.2978
 30
0.0
 10
21.7146
 20
114.2978
 30
0.0
 10
21.7146
 20
114.2982
 30
0.0
 10
21.7146
 20
114.2982
 30
0.0
 10
21.7146
 20
114.2982
 30
0.0
 10
21.7146
 20
114.2982
 30
0.0
 10
21.722
 20
114.2835
 30
0.0
 10
21.722
 20
114.2835
 30
0.0
 10
21.722
 20
114.2835
 30
0.0
 10
22.0619
 20
113.613
 30
0.0
 10
22.5866
 20
112.9007
 30
0.0
 10
23.2095
 20
112.2669
 30
0.0
 10
23.2095
 20
112.2669
 30
0.0
 10
23.2095
 20
112.2669
 30
0.0
 10
23.2097
 20
112.2666
 30
0.0
 10
23.2097
 20
112.2666
 30
0.0
 10
23.2097
 20
112.2666
 30
0.0
 10
23.2097
 20
112.2666
 30
0.0
 10
23.2194
 20
112.2568
 30
0.0
 10
23.2194
 20
112.2568
 30
0.0
 10
23.2194
 20
112.2568
 30
0.0
 10
23.8703
 20
111.6079
 30
0.0
 10
24.6089
 20
111.0604
 30
0.0
 10
25.3011
 20
110.712
 30
0.0
 10
25.3011
 20
110.712
 30
0.0
 10
27.0297
 20
110.0076
 30
0.0
 10
27.0251
 20
108.9429
 30
0.0
 10
25.3011
 20
108.1254
 30
0.0
 10
25.3011
 20
108.1254
 30
0.0
 10
25.3011
 20
108.1254
 30
0.0
 10
25.3011
 20
108.1252
 30
0.0
 10
25.3011
 20
108.1252
 30
0.0
 10
25.3011
 20
108.1252
 30
0.0
 10
25.3011
 20
108.1252
 30
0.0
 10
25.3007
 20
108.125
 30
0.0
 10
25.3007
 20
108.125
 30
0.0
 10
25.3007
 20
108.125
 30
0.0
 10
25.3007
 20
108.125
 30
0.0
 10
25.3009
 20
108.125
 30
0.0
 10
25.3009
 20
108.125
 30
0.0
 10
25.3009
 20
108.125
 30
0.0
 10
24.619
 20
107.7802
 30
0.0
 10
23.8905
 20
107.2437
 30
0.0
 10
23.2457
 20
106.6069
 30
0.0
 10
23.2457
 20
106.6069
 30
0.0
 10
22.6024
 20
105.959
 30
0.0
 10
22.0611
 20
105.2261
 30
0.0
 10
21.7148
 20
104.5386
 30
0.0
 10
21.7148
 20
104.5386
 30
0.0
 10
21.0105
 20
102.8101
 30
0.0
 10
19.9458
 20
102.8147
 30
0.0
 10
19.1283
 20
104.5386
 30
0.0
 10
19.1283
 20
104.5386
 30
0.0
 10
19.1283
 20
104.5386
 30
0.0
 10
19.1281
 20
104.5386
 30
0.0
 10
19.1281
 20
104.5386
 30
0.0
 10
19.1281
 20
104.5386
 30
0.0
 10
19.1281
 20
104.5386
 30
0.0
 10
19.1277
 20
104.539
 30
0.0
 10
19.1277
 20
104.539
 30
0.0
 10
19.1277
 20
104.539
 30
0.0
 10
19.1277
 20
104.539
 30
0.0
 10
19.1277
 20
104.5388
 30
0.0
 10
19.1277
 20
104.5388
 30
0.0
 10
19.1277
 20
104.5388
 30
0.0
 10
18.7833
 20
105.2208
 30
0.0
 10
18.2466
 20
105.9495
 30
0.0
 10
17.6096
 20
106.5941
 30
0.0
 10
17.6096
 20
106.5941
 30
0.0
 10
16.9619
 20
107.2372
 30
0.0
 10
16.2291
 20
107.7787
 30
0.0
 10
15.5414
 20
108.125
 30
0.0
 10
15.5414
 20
108.125
 30
0.0
 10
13.8176
 20
108.9425
 30
0.0
 10
13.813
 20
110.0072
 30
0.0
 10
15.5414
 20
110.7115
 30
0.0
 10
15.5414
 20
110.7115
 30
0.0
 10
15.5414
 20
110.7115
 30
0.0
 10
15.542
 20
110.7116
 30
0.0
 10
15.542
 20
110.7116
 30
0.0
 10
15.542
 20
110.7116
 30
0.0
 10
15.542
 20
110.7116
 30
0.0
 10
15.5414
 20
110.7116
 30
0.0
 10
15.5414
 20
110.7116
 30
0.0
 10
15.5414
 20
110.7116
 30
0.0
 10
15.5414
 20
110.7116
 30
0.0
 10
15.5561
 20
110.7189
 30
0.0
 10
15.5561
 20
110.7189
 30
0.0
 10
15.5561
 20
110.7189
 30
0.0
 10
16.2266
 20
111.0585
 30
0.0
 10
16.9389
 20
111.5836
 30
0.0
 10
17.5732
 20
112.2067
 30
0.0
 10
17.5732
 20
112.2067
 30
0.0
 10
17.5732
 20
112.2067
 30
0.0
 10
17.5742
 20
112.2077
 30
0.0
 10
17.5742
 20
112.2077
 30
0.0
 10
17.5742
 20
112.2077
 30
0.0
 10
17.5742
 20
112.2077
 30
0.0
 10
17.5835
 20
112.2172
 30
0.0
 10
17.5835
 20
112.2172
 30
0.0
 10
17.5835
 20
112.2172
 30
0.0
 10
18.2329
 20
112.8683
 30
0.0
 10
18.7793
 20
113.6059
 30
0.0
 10
19.1277
 20
114.2982
 30
0.0
  0
SPLINE
  5
75
330
1F
100
AcDbEntity
  8
layer 1
 62
     7
100
AcDbSpline
210
0.0
220
0.0
230
1.0
 70
    11
 71
     3
 72
    20
 73
    16
 74
     0
 42
0.0000000001
 43
0.0000000001
 12
1.0
 22
0.0
 32
0.0
 13
1.0
 23
0.0
 33
0.0
 40
0.0
 40
0.0
 40
0.0
 40
0.0
 40
0.2
 40
0.2
 40
0.2
 40
0.2
 40
0.4
 40
0.4
 40
0.4
 40
0.4
 40
0.6
 40
0.6
 40
0.6
 40
0.6
 40
1.0
 40
1.0
 40
1.0
 40
1.0
 10
16.3711
 20
51.2195
 30
0.0
 10
8.679
 20
49.6211
 30
0.0
 10
2.6196
 20
43.5621
 30
0.0
 10
1.0212
 20
35.87
 30
0.0
 10
1.0212
 20
35.87
 30
0.0
 10
-0.5772
 20
43.5617
 30
0.0
 10
-6.6356
 20
49.6211
 30
0.0
 10
-14.3275
 20
51.2197
 30
0.0
 10
-14.3275
 20
51.2197
 30
0.0
 10
-6.6356
 20
52.8183
 30
0.0
 10
-0.5772
 20
58.8775
 30
0.0
 10
1.0212
 20
66.5694
 30
0.0
 10
1.0212
 20
66.5694
 30
0.0
 10
2.6196
 20
58.8773
 30
0.0
 10
8.6788
 20
52.8177
 30
0.0
 10
16.3711
 20
51.2195
 30
0.0
  0
SPLINE
  5
76
330
1F
100
AcDbEntity
  8
layer 1
 62
     7
100
AcDbSpline
210
0.0
220
0.0
230
1.0
 70
    11
 71
     3
 72
    20
 73
    16
 74
     0
 42
0.0000000001
 43
0.0000000001
 12
1.0
 22
0.0
 32
0.0
 13
1.0
 23
0.0
 33
0.0
 40
0.0
 40
0.0
 40
0.0
 40
0.0
 40
0.2
 40
0.2
 40
0.2
 40
0.2
 40
0.4
 40
0.4
 40
0.4
 40
0.4
 40
0.6
 40
0.6
 40
0.6
 40
0.6
 40
1.0
 40
1.0
 40
1.0
 40
1.0
 10
19.1277
 20
59.2732
 30
0.0
 10
18.0804
 20
64.7726
 30
0.0
 10
14.73
 20
68.1232
 30
0.0
 10
9.0758
 20
69.326
 30
0.0
 10
9.0758
 20
69.326
 30
0.0
 10
9.0758
 20
69.326
 30
0.0
 10
3.2415
 20
69.326
 30
0.0
 10
3.2415
 20
69.326
 30
0.0
 10
3.2415
 20
69.326
 30
0.0
 10
3.8715
 20
60.8437
 30
0.0
 10
10.6456
 20
54.0692
 30
0.0
 10
19.1277
 20
53.439
 30
0.0
 10
19.1277
 20
53.439
 30
0.0
 10
19.1277
 20
53.439
 30
0.0
 10
19.1277
 20
59.2732
 30
0.0
 10
19.1277
 20
59.2732
 30
0.0
  0
SPLINE
  5
77
330
1F
100
AcDbEntity
  8
layer 1
 62
     7
100
AcDbSpline
210
0.0
220
0.0
230
1.0
 70
    11
 71
     3
 72
    20
 73
    16
 74
     0
 42
0.0000000001
 43
0.0000000001
 12
1.0
 22
0.0
 32
0.0
 13
1.0
 23
0.0
 33
0.0
 40
0.0
 40
0.0
 40
0.0
 40
0.0
 40
0.2
 40
0.2
 40
0.2
 40
0.2
 40
0.4
 40
0.4
 40
0.4
 40
0.4
 40
0.6
 40
0.6
 40
0.6
 40
0.6
 40
1.0
 40
1.0
 40
1.0
 40
1.0
 10
3.2417
 20
71.9127
 30
0.0
 10
3.2417
 20
71.9127
 30
0.0
 10
9.0749
 20
71.9127
 30
0.0
 10
9.0749
 20
71.9127
 30
0.0
 10
9.0749
 20
71.9127
 30
0.0
 10
14.7296
 20
73.1154
 30
0.0
 10
18.0804
 20
76.4661
 30
0.0
 10
19.1277
 20
81.9657
 30
0.0
 10
19.1277
 20
81.9657
 30
0.0
 10
19.1277
 20
81.9657
 30
0.0
 10
19.1277
 20
87.7989
 30
0.0
 10
19.1277
 20
87.7989
 30
0.0
 10
19.1277
 20
87.7989
 30
0.0
 10
10.6458
 20
87.1686
 30
0.0
 10
3.8718
 20
80.3946
 30
0.0
 10
3.2417
 20
71.9127
 30
0.0
  0
SPLINE
  5
78
330
1F
100
AcDbEntity
  8
layer 1
 62
     7
100
AcDbSpline
210
0.0
220
0.0
230
1.0
 70
    11
 71
     3
 72
    20
 73
    16
 74
     0
 42
0.0000000001
 43
0.0000000001
 12
1.0
 22
0.0
 32
0.0
 13
1.0
 23
0.0
 33
0.0
 40
0.0
 40
0.0
 40
0.0
 40
0.0
 40
0.2
 40
0.2
 40
0.2
 40
0.2
 40
0.4
 40
0.4
 40
0.4
 40
0.4
 40
0.6
 40
0.6
 40
0.6
 40
0.6
 40
1.0
 40
1.0
 40
1.0
 40
1.0
 10
21.7144
 20
87.7989
 30
0.0
 10
21.7144
 20
87.7989
 30
0.0
 10
21.7144
 20
81.9657
 30
0.0
 10
21.7144
 20
81.9657
 30
0.0
 10
21.7144
 20
81.9657
 30
0.0
 10
22.7617
 20
76.4661
 30
0.0
 10
26.1127
 20
73.1154
 30
0.0
 10
31.7675
 20
71.9127
 30
0.0
 10
31.7675
 20
71.9127
 30
0.0
 10
31.7675
 20
71.9127
 30
0.0
 10
37.6008
 20
71.9127
 30
0.0
 10
37.6008
 20
71.9127
 30
0.0
 10
37.6008
 20
71.9127
 30
0.0
 10
36.9707
 20
80.3946
 30
0.0
 10
30.1965
 20
87.1686
 30
0.0
 10
21.7144
 20
87.7989
 30
0.0
  0
SPLINE
  5
79
330
1F
100
AcDbEntity
  8
layer 1
 62
     7
100
AcDbSpline
210
0.0
220
0.0
230
1.0
 70
    11
 71
     3
 72
    20
 73
    16
 74
     0
 42
0.0000000001
 43
0.0000000001
 12
1.0
 22
0.0
 32
0.0
 13
1.0
 23
0.0
 33
0.0
 40
0.0
 40
0.0
 40
0.0
 40
0.0
 40
0.2
 40
0.2
 40
0.2
 40
0.2
 40
0.4
 40
0.4
 40
0.4
 40
0.4
 40
0.6
 40
0.6
 40
0.6
 40
0.6
 40
1.0
 40
1.0
 40
1.0
 40
1.0
 10
37.601
 20
69.326
 30
0.0
 10
37.601
 20
69.326
 30
0.0
 10
31.7665
 20
69.326
 30
0.0
 10
31.7665
 20
69.326
 30
0.0
 10
31.7665
 20
69.326
 30
0.0
 10
26.1123
 20
68.1232
 30
0.0
 10
22.7617
 20
64.7726
 30
0.0
 10
21.7144
 20
59.2732
 30
0.0
 10
21.7144
 20
59.2732
 30
0.0
 10
21.7144
 20
59.2732
 30
0.0
 10
21.7144
 20
53.439
 30
0.0
 10
21.7144
 20
53.439
 30
0.0
 10
21.7144
 20
53.439
 30
0.0
 10
30.1967
 20
54.0692
 30
0.0
 10
36.9711
 20
60.8437
 30
0.0
 10
37.601
 20
69.326
 30
0.0
  0
SPLINE
  5
7A
330
1F
100
AcDbEntity
  8
layer 1
 62
     7
100
AcDbSpline
210
0.0
220
0.0
230
1.0
 70
    11
 71
     3
 72
   116
 73
   112
 74
     0
 42
0.0000000001
 43
0.0000000001
 12
1.0
 22
0.0
 32
0.0
 13
1.0
 23
0.0
 33
0.0
 40
0.0
 40
0.0
 40
0.0
 40
0.0
 40
0.0344827586206897
 40
0.0344827586206897
 40
0.0344827586206897
 40
0.0344827586206897
 40
0.0689655172413793
 40
0.0689655172413793
 40
0.0689655172413793
 40
0.0689655172413793
 40
0.103448275862069
 40
0.103448275862069
 40
0.103448275862069
 40
0.103448275862069
 40
0.1379310344827586
 40
0.1379310344827586
 40
0.1379310344827586
 40
0.1379310344827586
 40
0.1724137931034483
 40
0.1724137931034483
 40
0.1724137931034483
 40
0.1724137931034483
 40
0.2068965517241379
 40
0.2068965517241379
 40
0.2068965517241379
 40
0.2068965517241379
 40
0.2413793103448276
 40
0.2413793103448276
 40
0.2413793103448276
 40
0.2413793103448276
 40
0.2758620689655172
 40
0.2758620689655172
 40
0.2758620689655172
 40
0.2758620689655172
 40
0.3103448275862069
 40
0.3103448275862069
 40
0.3103448275862069
 40
0.3103448275862069
 40
0.3448275862068966
 40
0.3448275862068966
 40
0.3448275862068966
 40
0.3448275862068966
 40
0.3793103448275862
 40
0.3793103448275862
 40
0.3793103448275862
 40
0.3793103448275862
 40
0.4137931034482759
 40
0.4137931034482759
 40
0.4137931034482759
 40
0.4137931034482759
 40
0.4482758620689655
 40
0.4482758620689655
 40
0.4482758620689655
 40
0.4482758620689655
 40
0.4827586206896552
 40
0.4827586206896552
 40
0.4827586206896552
 40
0.4827586206896552
 40
0.5172413793103449
 40
0.5172413793103449
 40
0.5172413793103449
 40
0.5172413793103449
 40
0.5517241379310345
 40
0.5517241379310345
 40
0.5517241379310345
 40
0.5517241379310345
 40
0.5862068965517241
 40
0.5862068965517241
 40
0.5862068965517241
 40
0.5862068965517241
 40
0.6206896551724138
 40
0.6206896551724138
 40
0.6206896551724138
 40
0.6206896551724138
 40
0.6551724137931034
 40
0.6551724137931034
 40
0.6551724137931034
 40
0.6551724137931034
 40
0.6896551724137931
 40
0.6896551724137931
 40
0.6896551724137931
 40
0.6896551724137931
 40
0.7241379310344828
 40
0.7241379310344828
 40
0.7241379310344828
 40
0.7241379310344828
 40
0.7586206896551724
 40
0.7586206896551724
 40
0.7586206896551724
 40
0.7586206896551724
 40
0.7931034482758621
 40
0.7931034482758621
 40
0.7931034482758621
 40
0.7931034482758621
 40
0.8275862068965517
 40
0.8275862068965517
 40
0.8275862068965517
 40
0.8275862068965517
 40
0.8620689655172413
 40
0.8620689655172413
 40
0.8620689655172413
 40
0.8620689655172413
 40
0.896551724137931
 40
0.896551724137931
 40
0.896551724137931
 40
0.896551724137931
 40
0.9310344827586207
 40
0.9310344827586207
 40
0.9310344827586207
 40
0.9310344827586207
 40
1.0
 40
1.0
 40
1.0
 40
1.0
 10
19.1277
 20
75.4992
 30
0.0
 10
19.9454
 20
77.2232
 30
0.0
 10
21.0099
 20
77.2276
 30
0.0
 10
21.7144
 20
75.4992
 30
0.0
 10
21.7144
 20
75.4992
 30
0.0
 10
21.7144
 20
75.4992
 30
0.0
 10
21.7146
 20
75.4987
 30
0.0
 10
21.7146
 20
75.4987
 30
0.0
 10
21.7146
 20
75.4987
 30
0.0
 10
21.7146
 20
75.4987
 30
0.0
 10
21.7146
 20
75.4992
 30
0.0
 10
21.7146
 20
75.4992
 30
0.0
 10
21.7146
 20
75.4992
 30
0.0
 10
21.7146
 20
75.4992
 30
0.0
 10
21.722
 20
75.4844
 30
0.0
 10
21.722
 20
75.4844
 30
0.0
 10
21.722
 20
75.4844
 30
0.0
 10
22.0619
 20
74.814
 30
0.0
 10
22.5866
 20
74.1015
 30
0.0
 10
23.2095
 20
73.4678
 30
0.0
 10
23.2095
 20
73.4678
 30
0.0
 10
23.2095
 20
73.4678
 30
0.0
 10
23.2097
 20
73.4674
 30
0.0
 10
23.2097
 20
73.4674
 30
0.0
 10
23.2097
 20
73.4674
 30
0.0
 10
23.2097
 20
73.4674
 30
0.0
 10
23.2194
 20
73.4577
 30
0.0
 10
23.2194
 20
73.4577
 30
0.0
 10
23.2194
 20
73.4577
 30
0.0
 10
23.8703
 20
72.8087
 30
0.0
 10
24.6089
 20
72.2615
 30
0.0
 10
25.3011
 20
71.9129
 30
0.0
 10
25.3011
 20
71.9129
 30
0.0
 10
27.0297
 20
71.2084
 30
0.0
 10
27.0251
 20
70.1439
 30
0.0
 10
25.3011
 20
69.3262
 30
0.0
 10
25.3011
 20
69.3262
 30
0.0
 10
25.3011
 20
69.3262
 30
0.0
 10
25.3011
 20
69.326
 30
0.0
 10
25.3011
 20
69.326
 30
0.0
 10
25.3011
 20
69.326
 30
0.0
 10
25.3011
 20
69.326
 30
0.0
 10
25.3007
 20
69.3258
 30
0.0
 10
25.3007
 20
69.3258
 30
0.0
 10
25.3007
 20
69.3258
 30
0.0
 10
25.3007
 20
69.3258
 30
0.0
 10
25.3009
 20
69.3258
 30
0.0
 10
25.3009
 20
69.3258
 30
0.0
 10
25.3009
 20
69.3258
 30
0.0
 10
24.619
 20
68.9812
 30
0.0
 10
23.8905
 20
68.4447
 30
0.0
 10
23.2457
 20
67.8077
 30
0.0
 10
23.2457
 20
67.8077
 30
0.0
 10
22.6024
 20
67.16
 30
0.0
 10
22.0611
 20
66.4272
 30
0.0
 10
21.7148
 20
65.7395
 30
0.0
 10
21.7148
 20
65.7395
 30
0.0
 10
21.0105
 20
64.0109
 30
0.0
 10
19.9458
 20
64.0155
 30
0.0
 10
19.1283
 20
65.7395
 30
0.0
 10
19.1283
 20
65.7395
 30
0.0
 10
19.1283
 20
65.7395
 30
0.0
 10
19.1281
 20
65.7395
 30
0.0
 10
19.1281
 20
65.7395
 30
0.0
 10
19.1281
 20
65.7395
 30
0.0
 10
19.1281
 20
65.7395
 30
0.0
 10
19.1277
 20
65.7399
 30
0.0
 10
19.1277
 20
65.7399
 30
0.0
 10
19.1277
 20
65.7399
 30
0.0
 10
19.1277
 20
65.7399
 30
0.0
 10
19.1277
 20
65.7397
 30
0.0
 10
19.1277
 20
65.7397
 30
0.0
 10
19.1277
 20
65.7397
 30
0.0
 10
18.7833
 20
66.4217
 30
0.0
 10
18.2466
 20
67.1503
 30
0.0
 10
17.6096
 20
67.7949
 30
0.0
 10
17.6096
 20
67.7949
 30
0.0
 10
16.9619
 20
68.4382
 30
0.0
 10
16.2291
 20
68.9797
 30
0.0
 10
15.5414
 20
69.3258
 30
0.0
 10
15.5414
 20
69.3258
 30
0.0
 10
13.8176
 20
70.1433
 30
0.0
 10
13.813
 20
71.208
 30
0.0
 10
15.5414
 20
71.9125
 30
0.0
 10
15.5414
 20
71.9125
 30
0.0
 10
15.5414
 20
71.9125
 30
0.0
 10
15.542
 20
71.9127
 30
0.0
 10
15.542
 20
71.9127
 30
0.0
 10
15.542
 20
71.9127
 30
0.0
 10
15.542
 20
71.9127
 30
0.0
 10
15.5414
 20
71.9127
 30
0.0
 10
15.5414
 20
71.9127
 30
0.0
 10
15.5414
 20
71.9127
 30
0.0
 10
15.5414
 20
71.9127
 30
0.0
 10
15.5561
 20
71.9197
 30
0.0
 10
15.5561
 20
71.9197
 30
0.0
 10
15.5561
 20
71.9197
 30
0.0
 10
16.2266
 20
72.2594
 30
0.0
 10
16.9389
 20
72.7845
 30
0.0
 10
17.5732
 20
73.4078
 30
0.0
 10
17.5732
 20
73.4078
 30
0.0
 10
17.5732
 20
73.4078
 30
0.0
 10
17.5742
 20
73.4085
 30
0.0
 10
17.5742
 20
73.4085
 30
0.0
 10
17.5742
 20
73.4085
 30
0.0
 10
17.5742
 20
73.4085
 30
0.0
 10
17.5835
 20
73.4181
 30
0.0
 10
17.5835
 20
73.4181
 30
0.0
 10
17.5835
 20
73.4181
 30
0.0
 10
18.2329
 20
74.0691
 30
0.0
 10
18.7793
 20
74.8068
 30
0.0
 10
19.1277
 20
75.4992
 30
0.0
  0
SPLINE
  5
7B
330
1F
100
AcDbEntity
  8
layer 1
 62
     7
100
AcDbSpline
210
0.0
220
0.0
230
1.0
 70
    11
 71
     3
 72
    20
 73
    16
 74
     0
 42
0.0000000001
 43
0.0000000001
 12
1.0
 22
0.0
 32
0.0
 13
1.0
 23
0.0
 33
0.0
 40
0.0
 40
0.0
 40
0.0
 40
0.0
 40
0.2
 40
0.2
 40
0.2
 40
0.2
 40
0.4
 40
0.4
 40
0.4
 40
0.4
 40
0.6
 40
0.6
 40
0.6
 40
0.6
 40
1.0
 40
1.0
 40
1.0
 40
1.0
 10
16.3711
 20
12.4203
 30
0.0
 10
8.679
 20
10.822
 30
0.0
 10
2.6196
 20
4.7631
 30
0.0
 10
1.0212
 20
-2.9291
 30
0.0
 10
1.0212
 20
-2.9291
 30
0.0
 10
-0.5772
 20
4.7626
 30
0.0
 10
-6.6356
 20
10.822
 30
0.0
 10
-14.3275
 20
12.4205
 30
0.0
 10
-14.3275
 20
12.4205
 30
0.0
 10
-6.6356
 20
14.0191
 30
0.0
 10
-0.5772
 20
20.0783
 30
0.0
 10
1.0212
 20
27.7704
 30
0.0
 10
1.0212
 20
27.7704
 30
0.0
 10
2.6196
 20
20.0781
 30
0.0
 10
8.6788
 20
14.0187
 30
0.0
 10
16.3711
 20
12.4203
 30
0.0
  0
SPLINE
  5
7C
330
1F
100
AcDbEntity
  8
layer 1
 62
     7
100
AcDbSpline
210
0.0
220
0.0
230
1.0
 70
    11
 71
     3
 72
    20
 73
    16
 74
     0
 42
0.0000000001
 43
0.0000000001
 12
1.0
 22
0.0
 32
0.0
 13
1.0
 23
0.0
 33
0.0
 40
0.0
 40
0.0
 40
0.0
 40
0.0
 40
0.2
 40
0.2
 40
0.2
 40
0.2
 40
0.4
 40
0.4
 40
0.4
 40
0.4
 40
0.6
 40
0.6
 40
0.6
 40
0.6
 40
1.0
 40
1.0
 40
1.0
 40
1.0
 10
19.1277
 20
20.4742
 30
0.0
 10
18.0804
 20
25.9734
 30
0.0
 10
14.73
 20
29.3238
 30
0.0
 10
9.0758
 20
30.5269
 30
0.0
 10
9.0758
 20
30.5269
 30
0.0
 10
9.0758
 20
30.5269
 30
0.0
 10
3.2415
 20
30.5269
 30
0.0
 10
3.2415
 20
30.5269
 30
0.0
 10
3.2415
 20
30.5269
 30
0.0
 10
3.8715
 20
22.0446
 30
0.0
 10
10.6456
 20
15.27
 30
0.0
 10
19.1277
 20
14.6401
 30
0.0
 10
19.1277
 20
14.6401
 30
0.0
 10
19.1277
 20
14.6401
 30
0.0
 10
19.1277
 20
20.4742
 30
0.0
 10
19.1277
 20
20.4742
 30
0.0
  0
SPLINE
  5
7D
330
1F
100
AcDbEntity
  8
layer 1
 62
     7
100
AcDbSpline
210
0.0
220
0.0
230
1.0
 70
    11
 71
     3
 72
    20
 73
    16
 74
     0
 42
0.0000000001
 43
0.0000000001
 12
1.0
 22
0.0
 32
0.0
 13
1.0
 23
0.0
 33
0.0
 40
0.0
 40
0.0
 40
0.0
 40
0.0
 40
0.2
 40
0.2
 40
0.2
 40
0.2
 40
0.4
 40
0.4
 40
0.4
 40
0.4
 40
0.6
 40
0.6
 40
0.6
 40
0.6
 40
1.0
 40
1.0
 40
1.0
 40
1.0
 10
3.2417
 20
33.1135
 30
0.0
 10
3.2417
 20
33.1135
 30
0.0
 10
9.0749
 20
33.1135
 30
0.0
 10
9.0749
 20
33.1135
 30
0.0
 10
9.0749
 20
33.1135
 30
0.0
 10
14.7296
 20
34.3162
 30
0.0
 10
18.0804
 20
37.667
 30
0.0
 10
19.1277
 20
43.1666
 30
0.0
 10
19.1277
 20
43.1666
 30
0.0
 10
19.1277
 20
43.1666
 30
0.0
 10
19.1277
 20
48.9998
 30
0.0
 10
19.1277
 20
48.9998
 30
0.0
 10
19.1277
 20
48.9998
 30
0.0
 10
10.6458
 20
48.3696
 30
0.0
 10
3.8718
 20
41.5955
 30
0.0
 10
3.2417
 20
33.1135
 30
0.0
  0
SPLINE
  5
7E
330
1F
100
AcDbEntity
  8
layer 1
 62
     7
100
AcDbSpline
210
0.0
220
0.0
230
1.0
 70
    11
 71
     3
 72
    20
 73
    16
 74
     0
 42
0.0000000001
 43
0.0000000001
 12
1.0
 22
0.0
 32
0.0
 13
1.0
 23
0.0
 33
0.0
 40
0.0
 40
0.0
 40
0.0
 40
0.0
 40
0.2
 40
0.2
 40
0.2
 40
0.2
 40
0.4
 40
0.4
 40
0.4
 40
0.4
 40
0.6
 40
0.6
 40
0.6
 40
0.6
 40
1.0
 40
1.0
 40
1.0
 40
1.0
 10
21.7144
 20
48.9998
 30
0.0
 10
21.7144
 20
48.9998
 30
0.0
 10
21.7144
 20
43.1666
 30
0.0
 10
21.7144
 20
43.1666
 30
0.0
 10
21.7144
 20
43.1666
 30
0.0
 10
22.7617
 20
37.667
 30
0.0
 10
26.1127
 20
34.3162
 30
0.0
 10
31.7675
 20
33.1135
 30
0.0
 10
31.7675
 20
33.1135
 30
0.0
 10
31.7675
 20
33.1135
 30
0.0
 10
37.6008
 20
33.1135
 30
0.0
 10
37.6008
 20
33.1135
 30
0.0
 10
37.6008
 20
33.1135
 30
0.0
 10
36.9707
 20
41.5955
 30
0.0
 10
30.1965
 20
48.3696
 30
0.0
 10
21.7144
 20
48.9998
 30
0.0
  0
SPLINE
  5
7F
330
1F
100
AcDbEntity
  8
layer 1
 62
     7
100
AcDbSpline
210
0.0
220
0.0
230
1.0
 70
    11
 71
     3
 72
    20
 73
    16
 74
     0
 42
0.0000000001
 43
0.0000000001
 12
1.0
 22
0.0
 32
0.0
 13
1.0
 23
0.0
 33
0.0
 40
0.0
 40
0.0
 40
0.0
 40
0.0
 40
0.2
 40
0.2
 40
0.2
 40
0.2
 40
0.4
 40
0.4
 40
0.4
 40
0.4
 40
0.6
 40
0.6
 40
0.6
 40
0.6
 40
1.0
 40
1.0
 40
1.0
 40
1.0
 10
37.601
 20
30.5269
 30
0.0
 10
37.601
 20
30.5269
 30
0.0
 10
31.7665
 20
30.5269
 30
0.0
 10
31.7665
 20
30.5269
 30
0.0
 10
31.7665
 20
30.5269
 30
0.0
 10
26.1123
 20
29.3238
 30
0.0
 10
22.7617
 20
25.9734
 30
0.0
 10
21.7144
 20
20.4742
 30
0.0
 10
21.7144
 20
20.4742
 30
0.0
 10
21.7144
 20
20.4742
 30
0.0
 10
21.7144
 20
14.6401
 30
0.0
 10
21.7144
 20
14.6401
 30
0.0
 10
21.7144
 20
14.6401
 30
0.0
 10
30.1967
 20
15.27
 30
0.0
 10
36.9711
 20
22.0446
 30
0.0
 10
37.601
 20
30.5269
 30
0.0
  0
SPLINE
  5
80
330
1F
100
AcDbEntity
  8
layer 1
 62
     7
100
AcDbSpline
210
0.0
220
0.0
230
1.0
 70
    11
 71
     3
 72
   116
 73
   112
 74
     0
 42
0.0000000001
 43
0.0000000001
 12
1.0
 22
0.0
 32
0.0
 13
1.0
 23
0.0
 33
0.0
 40
0.0
 40
0.0
 40
0.0
 40
0.0
 40
0.0344827586206897
 40
0.0344827586206897
 40
0.0344827586206897
 40
0.0344827586206897
 40
0.0689655172413793
 40
0.0689655172413793
 40
0.0689655172413793
 40
0.0689655172413793
 40
0.103448275862069
 40
0.103448275862069
 40
0.103448275862069
 40
0.103448275862069
 40
0.1379310344827586
 40
0.1379310344827586
 40
0.1379310344827586
 40
0.1379310344827586
 40
0.1724137931034483
 40
0.1724137931034483
 40
0.1724137931034483
 40
0.1724137931034483
 40
0.2068965517241379
 40
0.2068965517241379
 40
0.2068965517241379
 40
0.2068965517241379
 40
0.2413793103448276
 40
0.2413793103448276
 40
0.2413793103448276
 40
0.2413793103448276
 40
0.2758620689655172
 40
0.2758620689655172
 40
0.2758620689655172
 40
0.2758620689655172
 40
0.3103448275862069
 40
0.3103448275862069
 40
0.3103448275862069
 40
0.3103448275862069
 40
0.3448275862068966
 40
0.3448275862068966
 40
0.3448275862068966
 40
0.3448275862068966
 40
0.3793103448275862
 40
0.3793103448275862
 40
0.3793103448275862
 40
0.3793103448275862
 40
0.4137931034482759
 40
0.4137931034482759
 40
0.4137931034482759
 40
0.4137931034482759
 40
0.4482758620689655
 40
0.4482758620689655
 40
0.4482758620689655
 40
0.4482758620689655
 40
0.4827586206896552
 40
0.4827586206896552
 40
0.4827586206896552
 40
0.4827586206896552
 40
0.5172413793103449
 40
0.5172413793103449
 40
0.5172413793103449
 40
0.5172413793103449
 40
0.5517241379310345
 40
0.5517241379310345
 40
0.5517241379310345
 40
0.5517241379310345
 40
0.5862068965517241
 40
0.5862068965517241
 40
0.5862068965517241
 40
0.5862068965517241
 40
0.6206896551724138
 40
0.6206896551724138
 40
0.6206896551724138
 40
0.6206896551724138
 40
0.6551724137931034
 40
0.6551724137931034
 40
0.6551724137931034
 40
0.6551724137931034
 40
0.6896551724137931
 40
0.6896551724137931
 40
0.6896551724137931
 40
0.6896551724137931
 40
0.7241379310344828
 40
0.7241379310344828
 40
0.7241379310344828
 40
0.7241379310344828
 40
0.7586206896551724
 40
0.7586206896551724
 40
0.7586206896551724
 40
0.7586206896551724
 40
0.7931034482758621
 40
0.7931034482758621
 40
0.7931034482758621
 40
0.7931034482758621
 40
0.8275862068965517
 40
0.8275862068965517
 40
0.8275862068965517
 40
0.8275862068965517
 40
0.8620689655172413
 40
0.8620689655172413
 40
0.8620689655172413
 40
0.8620689655172413
 40
0.896551724137931
 40
0.896551724137931
 40
0.896551724137931
 40
0.896551724137931
 40
0.9310344827586207
 40
0.9310344827586207
 40
0.9310344827586207
 40
0.9310344827586207
 40
1.0
 40
1.0
 40
1.0
 40
1.0
 10
19.1277
 20
36.7001
 30
0.0
 10
19.9454
 20
38.4241
 30
0.0
 10
21.0099
 20
38.4286
 30
0.0
 10
21.7144
 20
36.7001
 30
0.0
 10
21.7144
 20
36.7001
 30
0.0
 10
21.7144
 20
36.7001
 30
0.0
 10
21.7146
 20
36.6997
 30
0.0
 10
21.7146
 20
36.6997
 30
0.0
 10
21.7146
 20
36.6997
 30
0.0
 10
21.7146
 20
36.6997
 30
0.0
 10
21.7146
 20
36.7001
 30
0.0
 10
21.7146
 20
36.7001
 30
0.0
 10
21.7146
 20
36.7001
 30
0.0
 10
21.7146
 20
36.7001
 30
0.0
 10
21.722
 20
36.6852
 30
0.0
 10
21.722
 20
36.6852
 30
0.0
 10
21.722
 20
36.6852
 30
0.0
 10
22.0619
 20
36.0149
 30
0.0
 10
22.5866
 20
35.3024
 30
0.0
 10
23.2095
 20
34.6688
 30
0.0
 10
23.2095
 20
34.6688
 30
0.0
 10
23.2095
 20
34.6688
 30
0.0
 10
23.2097
 20
34.6683
 30
0.0
 10
23.2097
 20
34.6683
 30
0.0
 10
23.2097
 20
34.6683
 30
0.0
 10
23.2097
 20
34.6683
 30
0.0
 10
23.2194
 20
34.6585
 30
0.0
 10
23.2194
 20
34.6585
 30
0.0
 10
23.2194
 20
34.6585
 30
0.0
 10
23.8703
 20
34.0097
 30
0.0
 10
24.6089
 20
33.4623
 30
0.0
 10
25.3011
 20
33.1137
 30
0.0
 10
25.3011
 20
33.1137
 30
0.0
 10
27.0297
 20
32.4093
 30
0.0
 10
27.0251
 20
31.3448
 30
0.0
 10
25.3011
 20
30.5271
 30
0.0
 10
25.3011
 20
30.5271
 30
0.0
 10
25.3011
 20
30.5271
 30
0.0
 10
25.3011
 20
30.5269
 30
0.0
 10
25.3011
 20
30.5269
 30
0.0
 10
25.3011
 20
30.5269
 30
0.0
 10
25.3011
 20
30.5269
 30
0.0
 10
25.3007
 20
30.5267
 30
0.0
 10
25.3007
 20
30.5267
 30
0.0
 10
25.3007
 20
30.5267
 30
0.0
 10
25.3007
 20
30.5267
 30
0.0
 10
25.3009
 20
30.5267
 30
0.0
 10
25.3009
 20
30.5267
 30
0.0
 10
25.3009
 20
30.5267
 30
0.0
 10
24.619
 20
30.1821
 30
0.0
 10
23.8905
 20
29.6455
 30
0.0
 10
23.2457
 20
29.0086
 30
0.0
 10
23.2457
 20
29.0086
 30
0.0
 10
22.6024
 20
28.3609
 30
0.0
 10
22.0611
 20
27.628
 30
0.0
 10
21.7148
 20
26.9403
 30
0.0
 10
21.7148
 20
26.9403
 30
0.0
 10
21.0105
 20
25.212
 30
0.0
 10
19.9458
 20
25.2164
 30
0.0
 10
19.1283
 20
26.9403
 30
0.0
 10
19.1283
 20
26.9403
 30
0.0
 10
19.1283
 20
26.9403
 30
0.0
 10
19.1281
 20
26.9403
 30
0.0
 10
19.1281
 20
26.9403
 30
0.0
 10
19.1281
 20
26.9403
 30
0.0
 10
19.1281
 20
26.9403
 30
0.0
 10
19.1277
 20
26.9409
 30
0.0
 10
19.1277
 20
26.9409
 30
0.0
 10
19.1277
 20
26.9409
 30
0.0
 10
19.1277
 20
26.9409
 30
0.0
 10
19.1277
 20
26.9405
 30
0.0
 10
19.1277
 20
26.9405
 30
0.0
 10
19.1277
 20
26.9405
 30
0.0
 10
18.7833
 20
27.6227
 30
0.0
 10
18.2466
 20
28.3512
 30
0.0
 10
17.6096
 20
28.996
 30
0.0
 10
17.6096
 20
28.996
 30
0.0
 10
16.9619
 20
29.6391
 30
0.0
 10
16.2291
 20
30.1806
 30
0.0
 10
15.5414
 20
30.5267
 30
0.0
 10
15.5414
 20
30.5267
 30
0.0
 10
13.8176
 20
31.3444
 30
0.0
 10
13.813
 20
32.4089
 30
0.0
 10
15.5414
 20
33.1133
 30
0.0
 10
15.5414
 20
33.1133
 30
0.0
 10
15.5414
 20
33.1133
 30
0.0
 10
15.542
 20
33.1135
 30
0.0
 10
15.542
 20
33.1135
 30
0.0
 10
15.542
 20
33.1135
 30
0.0
 10
15.542
 20
33.1135
 30
0.0
 10
15.5414
 20
33.1135
 30
0.0
 10
15.5414
 20
33.1135
 30
0.0
 10
15.5414
 20
33.1135
 30
0.0
 10
15.5414
 20
33.1135
 30
0.0
 10
15.5561
 20
33.1206
 30
0.0
 10
15.5561
 20
33.1206
 30
0.0
 10
15.5561
 20
33.1206
 30
0.0
 10
16.2266
 20
33.4604
 30
0.0
 10
16.9389
 20
33.9855
 30
0.0
 10
17.5732
 20
34.6086
 30
0.0
 10
17.5732
 20
34.6086
 30
0.0
 10
17.5732
 20
34.6086
 30
0.0
 10
17.5742
 20
34.6096
 30
0.0
 10
17.5742
 20
34.6096
 30
0.0
 10
17.5742
 20
34.6096
 30
0.0
 10
17.5742
 20
34.6096
 30
0.0
 10
17.5835
 20
34.6191
 30
0.0
 10
17.5835
 20
34.6191
 30
0.0
 10
17.5835
 20
34.6191
 30
0.0
 10
18.2329
 20
35.2702
 30
0.0
 10
18.7793
 20
36.0078
 30
0.0
 10
19.1277
 20
36.7001
 30
0.0
  0
SPLINE
  5
81
330
1F
100
AcDbEntity
  8
layer 1
 62
     7
100
AcDbSpline
210
0.0
220
0.0
230
1.0
 70
    11
 71
     3
 72
    20
 73
    16
 74
     0
 42
0.0000000001
 43
0.0000000001
 12
1.0
 22
0.0
 32
0.0
 13
1.0
 23
0.0
 33
0.0
 40
0.0
 40
0.0
 40
0.0
 40
0.0
 40
0.2
 40
0.2
 40
0.2
 40
0.2
 40
0.4
 40
0.4
 40
0.4
 40
0.4
 40
0.6
 40
0.6
 40
0.6
 40
0.6
 40
1.0
 40
1.0
 40
1.0
 40
1.0
 10
16.3711
 20
-26.3788
 30
0.0
 10
8.679
 20
-27.9772
 30
0.0
 10
2.6196
 20
-34.036
 30
0.0
 10
1.0212
 20
-41.7281
 30
0.0
 10
1.0212
 20
-41.7281
 30
0.0
 10
-0.5772
 20
-34.0364
 30
0.0
 10
-6.6356
 20
-27.9772
 30
0.0
 10
-14.3275
 20
-26.3786
 30
0.0
 10
-14.3275
 20
-26.3786
 30
0.0
 10
-6.6356
 20
-24.7799
 30
0.0
 10
-0.5772
 20
-18.7206
 30
0.0
 10
1.0212
 20
-11.0287
 30
0.0
 10
1.0212
 20
-11.0287
 30
0.0
 10
2.6196
 20
-18.721
 30
0.0
 10
8.6788
 20
-24.7804
 30
0.0
 10
16.3711
 20
-26.3788
 30
0.0
  0
SPLINE
  5
82
330
1F
100
AcDbEntity
  8
layer 1
 62
     7
100
AcDbSpline
210
0.0
220
0.0
230
1.0
 70
    11
 71
     3
 72
    20
 73
    16
 74
     0
 42
0.0000000001
 43
0.0000000001
 12
1.0
 22
0.0
 32
0.0
 13
1.0
 23
0.0
 33
0.0
 40
0.0
 40
0.0
 40
0.0
 40
0.0
 40
0.2
 40
0.2
 40
0.2
 40
0.2
 40
0.4
 40
0.4
 40
0.4
 40
0.4
 40
0.6
 40
0.6
 40
0.6
 40
0.6
 40
1.0
 40
1.0
 40
1.0
 40
1.0
 10
19.1277
 20
-18.325
 30
0.0
 10
18.0804
 20
-12.8255
 30
0.0
 10
14.73
 20
-9.4752
 30
0.0
 10
9.0758
 20
-8.2721
 30
0.0
 10
9.0758
 20
-8.2721
 30
0.0
 10
9.0758
 20
-8.2721
 30
0.0
 10
3.2415
 20
-8.2721
 30
0.0
 10
3.2415
 20
-8.2721
 30
0.0
 10
3.2415
 20
-8.2721
 30
0.0
 10
3.8715
 20
-16.7544
 30
0.0
 10
10.6456
 20
-23.5289
 30
0.0
 10
19.1277
 20
-24.1591
 30
0.0
 10
19.1277
 20
-24.1591
 30
0.0
 10
19.1277
 20
-24.1591
 30
0.0
 10
19.1277
 20
-18.325
 30
0.0
 10
19.1277
 20
-18.325
 30
0.0
  0
SPLINE
  5
83
330
1F
100
AcDbEntity
  8
layer 1
 62
     7
100
AcDbSpline
210
0.0
220
0.0
230
1.0
 70
    11
 71
     3
 72
    20
 73
    16
 74
     0
 42
0.0000000001
 43
0.0000000001
 12
1.0
 22
0.0
 32
0.0
 13
1.0
 23
0.0
 33
0.0
 40
0.0
 40
0.0
 40
0.0
 40
0.0
 40
0.2
 40
0.2
 40
0.2
 40
0.2
 40
0.4
 40
0.4
 40
0.4
 40
0.4
 40
0.6
 40
0.6
 40
0.6
 40
0.6
 40
1.0
 40
1.0
 40
1.0
 40
1.0
 10
3.2417
 20
-5.6856
 30
0.0
 10
3.2417
 20
-5.6856
 30
0.0
 10
9.0749
 20
-5.6856
 30
0.0
 10
9.0749
 20
-5.6856
 30
0.0
 10
9.0749
 20
-5.6856
 30
0.0
 10
14.7296
 20
-4.4827
 30
0.0
 10
18.0804
 20
-1.132
 30
0.0
 10
19.1277
 20
4.3674
 30
0.0
 10
19.1277
 20
4.3674
 30
0.0
 10
19.1277
 20
4.3674
 30
0.0
 10
19.1277
 20
10.2008
 30
0.0
 10
19.1277
 20
10.2008
 30
0.0
 10
19.1277
 20
10.2008
 30
0.0
 10
10.6458
 20
9.5705
 30
0.0
 10
3.8718
 20
2.7963
 30
0.0
 10
3.2417
 20
-5.6856
 30
0.0
  0
SPLINE
  5
84
330
1F
100
AcDbEntity
  8
layer 1
 62
     7
100
AcDbSpline
210
0.0
220
0.0
230
1.0
 70
    11
 71
     3
 72
    20
 73
    16
 74
     0
 42
0.0000000001
 43
0.0000000001
 12
1.0
 22
0.0
 32
0.0
 13
1.0
 23
0.0
 33
0.0
 40
0.0
 40
0.0
 40
0.0
 40
0.0
 40
0.2
 40
0.2
 40
0.2
 40
0.2
 40
0.4
 40
0.4
 40
0.4
 40
0.4
 40
0.6
 40
0.6
 40
0.6
 40
0.6
 40
1.0
 40
1.0
 40
1.0
 40
1.0
 10
21.7144
 20
10.2008
 30
0.0
 10
21.7144
 20
10.2008
 30
0.0
 10
21.7144
 20
4.3674
 30
0.0
 10
21.7144
 20
4.3674
 30
0.0
 10
21.7144
 20
4.3674
 30
0.0
 10
22.7617
 20
-1.132
 30
0.0
 10
26.1127
 20
-4.4827
 30
0.0
 10
31.7675
 20
-5.6856
 30
0.0
 10
31.7675
 20
-5.6856
 30
0.0
 10
31.7675
 20
-5.6856
 30
0.0
 10
37.6008
 20
-5.6856
 30
0.0
 10
37.6008
 20
-5.6856
 30
0.0
 10
37.6008
 20
-5.6856
 30
0.0
 10
36.9707
 20
2.7963
 30
0.0
 10
30.1965
 20
9.5705
 30
0.0
 10
21.7144
 20
10.2008
 30
0.0
  0
SPLINE
  5
85
330
1F
100
AcDbEntity
  8
layer 1
 62
     7
100
AcDbSpline
210
0.0
220
0.0
230
1.0
 70
    11
 71
     3
 72
    20
 73
    16
 74
     0
 42
0.0000000001
 43
0.0000000001
 12
1.0
 22
0.0
 32
0.0
 13
1.0
 23
0.0
 33
0.0
 40
0.0
 40
0.0
 40
0.0
 40
0.0
 40
0.2
 40
0.2
 40
0.2
 40
0.2
 40
0.4
 40
0.4
 40
0.4
 40
0.4
 40
0.6
 40
0.6
 40
0.6
 40
0.6
 40
1.0
 40
1.0
 40
1.0
 40
1.0
 10
37.601
 20
-8.2721
 30
0.0
 10
37.601
 20
-8.2721
 30
0.0
 10
31.7665
 20
-8.2721
 30
0.0
 10
31.7665
 20
-8.2721
 30
0.0
 10
31.7665
 20
-8.2721
 30
0.0
 10
26.1123
 20
-9.4752
 30
0.0
 10
22.7617
 20
-12.8255
 30
0.0
 10
21.7144
 20
-18.325
 30
0.0
 10
21.7144
 20
-18.325
 30
0.0
 10
21.7144
 20
-18.325
 30
0.0
 10
21.7144
 20
-24.1591
 30
0.0
 10
21.7144
 20
-24.1591
 30
0.0
 10
21.7144
 20
-24.1591
 30
0.0
 10
30.1967
 20
-23.5289
 30
0.0
 10
36.9711
 20
-16.7544
 30
0.0
 10
37.601
 20
-8.2721
 30
0.0
  0
SPLINE
  5
86
330
1F
100
AcDbEntity
  8
layer 1
 62
     7
100
AcDbSpline
210
0.0
220
0.0
230
1.0
 70
    11
 71
     3
 72
   116
 73
   112
 74
     0
 42
0.0000000001
 43
0.0000000001
 12
1.0
 22
0.0
 32
0.0
 13
1.0
 23
0.0
 33
0.0
 40
0.0
 40
0.0
 40
0.0
 40
0.0
 40
0.0344827586206897
 40
0.0344827586206897
 40
0.0344827586206897
 40
0.0344827586206897
 40
0.0689655172413793
 40
0.0689655172413793
 40
0.0689655172413793
 40
0.0689655172413793
 40
0.103448275862069
 40
0.103448275862069
 40
0.103448275862069
 40
0.103448275862069
 40
0.1379310344827586
 40
0.1379310344827586
 40
0.1379310344827586
 40
0.1379310344827586
 40
0.1724137931034483
 40
0.1724137931034483
 40
0.1724137931034483
 40
0.1724137931034483
 40
0.2068965517241379
 40
0.2068965517241379
 40
0.2068965517241379
 40
0.2068965517241379
 40
0.2413793103448276
 40
0.2413793103448276
 40
0.2413793103448276
 40
0.2413793103448276
 40
0.2758620689655172
 40
0.2758620689655172
 40
0.2758620689655172
 40
0.2758620689655172
 40
0.3103448275862069
 40
0.3103448275862069
 40
0.3103448275862069
 40
0.3103448275862069
 40
0.3448275862068966
 40
0.3448275862068966
 40
0.3448275862068966
 40
0.3448275862068966
 40
0.3793103448275862
 40
0.3793103448275862
 40
0.3793103448275862
 40
0.3793103448275862
 40
0.4137931034482759
 40
0.4137931034482759
 40
0.4137931034482759
 40
0.4137931034482759
 40
0.4482758620689655
 40
0.4482758620689655
 40
0.4482758620689655
 40
0.4482758620689655
 40
0.4827586206896552
 40
0.4827586206896552
 40
0.4827586206896552
 40
0.4827586206896552
 40
0.5172413793103449
 40
0.5172413793103449
 40
0.5172413793103449
 40
0.5172413793103449
 40
0.5517241379310345
 40
0.5517241379310345
 40
0.5517241379310345
 40
0.5517241379310345
 40
0.5862068965517241
 40
0.5862068965517241
 40
0.5862068965517241
 40
0.5862068965517241
 40
0.6206896551724138
 40
0.6206896551724138
 40
0.6206896551724138
 40
0.6206896551724138
 40
0.6551724137931034
 40
0.6551724137931034
 40
0.6551724137931034
 40
0.6551724137931034
 40
0.6896551724137931
 40
0.6896551724137931
 40
0.6896551724137931
 40
0.6896551724137931
 40
0.7241379310344828
 40
0.7241379310344828
 40
0.7241379310344828
 40
0.7241379310344828
 40
0.7586206896551724
 40
0.7586206896551724
 40
0.7586206896551724
 40
0.7586206896551724
 40
0.7931034482758621
 40
0.7931034482758621
 40
0.7931034482758621
 40
0.7931034482758621
 40
0.8275862068965517
 40
0.8275862068965517
 40
0.8275862068965517
 40
0.8275862068965517
 40
0.8620689655172413
 40
0.8620689655172413
 40
0.8620689655172413
 40
0.8620689655172413
 40
0.896551724137931
 40
0.896551724137931
 40
0.896551724137931
 40
0.896551724137931
 40
0.9310344827586207
 40
0.9310344827586207
 40
0.9310344827586207
 40
0.9310344827586207
 40
1.0
 40
1.0
 40
1.0
 40
1.0
 10
19.1277
 20
-2.0991
 30
0.0
 10
19.9454
 20
-0.3751
 30
0.0
 10
21.0099
 20
-0.3705
 30
0.0
 10
21.7144
 20
-2.0991
 30
0.0
 10
21.7144
 20
-2.0991
 30
0.0
 10
21.7144
 20
-2.0991
 30
0.0
 10
21.7146
 20
-2.0995
 30
0.0
 10
21.7146
 20
-2.0995
 30
0.0
 10
21.7146
 20
-2.0995
 30
0.0
 10
21.7146
 20
-2.0995
 30
0.0
 10
21.7146
 20
-2.0991
 30
0.0
 10
21.7146
 20
-2.0991
 30
0.0
 10
21.7146
 20
-2.0991
 30
0.0
 10
21.7146
 20
-2.0991
 30
0.0
 10
21.722
 20
-2.1139
 30
0.0
 10
21.722
 20
-2.1139
 30
0.0
 10
21.722
 20
-2.1139
 30
0.0
 10
22.0619
 20
-2.7841
 30
0.0
 10
22.5866
 20
-3.4966
 30
0.0
 10
23.2095
 20
-4.1303
 30
0.0
 10
23.2095
 20
-4.1303
 30
0.0
 10
23.2095
 20
-4.1303
 30
0.0
 10
23.2097
 20
-4.1307
 30
0.0
 10
23.2097
 20
-4.1307
 30
0.0
 10
23.2097
 20
-4.1307
 30
0.0
 10
23.2097
 20
-4.1307
 30
0.0
 10
23.2194
 20
-4.1406
 30
0.0
 10
23.2194
 20
-4.1406
 30
0.0
 10
23.2194
 20
-4.1406
 30
0.0
 10
23.8703
 20
-4.7896
 30
0.0
 10
24.6089
 20
-5.3368
 30
0.0
 10
25.3011
 20
-5.6854
 30
0.0
 10
25.3011
 20
-5.6854
 30
0.0
 10
27.0297
 20
-6.3897
 30
0.0
 10
27.0251
 20
-7.4544
 30
0.0
 10
25.3011
 20
-8.2719
 30
0.0
 10
25.3011
 20
-8.2719
 30
0.0
 10
25.3011
 20
-8.2719
 30
0.0
 10
25.3011
 20
-8.2721
 30
0.0
 10
25.3011
 20
-8.2721
 30
0.0
 10
25.3011
 20
-8.2721
 30
0.0
 10
25.3011
 20
-8.2721
 30
0.0
 10
25.3007
 20
-8.2723
 30
0.0
 10
25.3007
 20
-8.2723
 30
0.0
 10
25.3007
 20
-8.2723
 30
0.0
 10
25.3007
 20
-8.2723
 30
0.0
 10
25.3009
 20
-8.2723
 30
0.0
 10
25.3009
 20
-8.2723
 30
0.0
 10
25.3009
 20
-8.2723
 30
0.0
 10
24.619
 20
-8.6171
 30
0.0
 10
23.8905
 20
-9.1536
 30
0.0
 10
23.2457
 20
-9.7906
 30
0.0
 10
23.2457
 20
-9.7906
 30
0.0
 10
22.6024
 20
-10.4383
 30
0.0
 10
22.0611
 20
-11.1711
 30
0.0
 10
21.7148
 20
-11.8586
 30
0.0
 10
21.7148
 20
-11.8586
 30
0.0
 10
21.0105
 20
-13.5872
 30
0.0
 10
19.9458
 20
-13.5826
 30
0.0
 10
19.1283
 20
-11.8586
 30
0.0
 10
19.1283
 20
-11.8586
 30
0.0
 10
19.1283
 20
-11.8586
 30
0.0
 10
19.1281
 20
-11.8586
 30
0.0
 10
19.1281
 20
-11.8586
 30
0.0
 10
19.1281
 20
-11.8586
 30
0.0
 10
19.1281
 20
-11.8586
 30
0.0
 10
19.1277
 20
-11.8582
 30
0.0
 10
19.1277
 20
-11.8582
 30
0.0
 10
19.1277
 20
-11.8582
 30
0.0
 10
19.1277
 20
-11.8582
 30
0.0
 10
19.1277
 20
-11.8584
 30
0.0
 10
19.1277
 20
-11.8584
 30
0.0
 10
19.1277
 20
-11.8584
 30
0.0
 10
18.7833
 20
-11.1765
 30
0.0
 10
18.2466
 20
-10.448
 30
0.0
 10
17.6096
 20
-9.8032
 30
0.0
 10
17.6096
 20
-9.8032
 30
0.0
 10
16.9619
 20
-9.1601
 30
0.0
 10
16.2291
 20
-8.6186
 30
0.0
 10
15.5414
 20
-8.2723
 30
0.0
 10
15.5414
 20
-8.2723
 30
0.0
 10
13.8176
 20
-7.4548
 30
0.0
 10
13.813
 20
-6.3903
 30
0.0
 10
15.5414
 20
-5.6858
 30
0.0
 10
15.5414
 20
-5.6858
 30
0.0
 10
15.5414
 20
-5.6858
 30
0.0
 10
15.542
 20
-5.6856
 30
0.0
 10
15.542
 20
-5.6856
 30
0.0
 10
15.542
 20
-5.6856
 30
0.0
 10
15.542
 20
-5.6856
 30
0.0
 10
15.5414
 20
-5.6856
 30
0.0
 10
15.5414
 20
-5.6856
 30
0.0
 10
15.5414
 20
-5.6856
 30
0.0
 10
15.5414
 20
-5.6856
 30
0.0
 10
15.5561
 20
-5.6784
 30
0.0
 10
15.5561
 20
-5.6784
 30
0.0
 10
15.5561
 20
-5.6784
 30
0.0
 10
16.2266
 20
-5.3387
 30
0.0
 10
16.9389
 20
-4.8136
 30
0.0
 10
17.5732
 20
-4.1905
 30
0.0
 10
17.5732
 20
-4.1905
 30
0.0
 10
17.5732
 20
-4.1905
 30
0.0
 10
17.5742
 20
-4.1896
 30
0.0
 10
17.5742
 20
-4.1896
 30
0.0
 10
17.5742
 20
-4.1896
 30
0.0
 10
17.5742
 20
-4.1896
 30
0.0
 10
17.5835
 20
-4.1803
 30
0.0
 10
17.5835
 20
-4.1803
 30
0.0
 10
17.5835
 20
-4.1803
 30
0.0
 10
18.2329
 20
-3.529
 30
0.0
 10
18.7793
 20
-2.7913
 30
0.0
 10
19.1277
 20
-2.0991
 30
0.0
  0
SPLINE
  5
87
330
1F
100
AcDbEntity
  8
layer 1
 62
     7
100
AcDbSpline
210
0.0
220
0.0
230
1.0
 70
    11
 71
     3
 72
    20
 73
    16
 74
     0
 42
0.0000000001
 43
0.0000000001
 12
1.0
 22
0.0
 32
0.0
 13
1.0
 23
0.0
 33
0.0
 40
0.0
 40
0.0
 40
0.0
 40
0.0
 40
0.2
 40
0.2
 40
0.2
 40
0.2
 40
0.4
 40
0.4
 40
0.4
 40
0.4
 40
0.6
 40
0.6
 40
0.6
 40
0.6
 40
1.0
 40
1.0
 40
1.0
 40
1.0
 10
16.3711
 20
-65.1778
 30
0.0
 10
8.679
 20
-66.7761
 30
0.0
 10
2.6196
 20
-72.8352
 30
0.0
 10
1.0212
 20
-80.5273
 30
0.0
 10
1.0212
 20
-80.5273
 30
0.0
 10
-0.5772
 20
-72.8356
 30
0.0
 10
-6.6356
 20
-66.7761
 30
0.0
 10
-14.3275
 20
-65.1776
 30
0.0
 10
-14.3275
 20
-65.1776
 30
0.0
 10
-6.6356
 20
-63.579
 30
0.0
 10
-0.5772
 20
-57.5198
 30
0.0
 10
1.0212
 20
-49.8279
 30
0.0
 10
1.0212
 20
-49.8279
 30
0.0
 10
2.6196
 20
-57.5202
 30
0.0
 10
8.6788
 20
-63.5794
 30
0.0
 10
16.3711
 20
-65.1778
 30
0.0
  0
SPLINE
  5
88
330
1F
100
AcDbEntity
  8
layer 1
 62
     7
100
AcDbSpline
210
0.0
220
0.0
230
1.0
 70
    11
 71
     3
 72
    20
 73
    16
 74
     0
 42
0.0000000001
 43
0.0000000001
 12
1.0
 22
0.0
 32
0.0
 13
1.0
 23
0.0
 33
0.0
 40
0.0
 40
0.0
 40
0.0
 40
0.0
 40
0.2
 40
0.2
 40
0.2
 40
0.2
 40
0.4
 40
0.4
 40
0.4
 40
0.4
 40
0.6
 40
0.6
 40
0.6
 40
0.6
 40
1.0
 40
1.0
 40
1.0
 40
1.0
 10
19.1277
 20
-57.1241
 30
0.0
 10
18.0804
 20
-51.6247
 30
0.0
 10
14.73
 20
-48.2741
 30
0.0
 10
9.0758
 20
-47.0712
 30
0.0
 10
9.0758
 20
-47.0712
 30
0.0
 10
9.0758
 20
-47.0712
 30
0.0
 10
3.2415
 20
-47.0712
 30
0.0
 10
3.2415
 20
-47.0712
 30
0.0
 10
3.2415
 20
-47.0712
 30
0.0
 10
3.8715
 20
-55.5536
 30
0.0
 10
10.6456
 20
-62.3281
 30
0.0
 10
19.1277
 20
-62.9582
 30
0.0
 10
19.1277
 20
-62.9582
 30
0.0
 10
19.1277
 20
-62.9582
 30
0.0
 10
19.1277
 20
-57.1241
 30
0.0
 10
19.1277
 20
-57.1241
 30
0.0
  0
SPLINE
  5
89
330
1F
100
AcDbEntity
  8
layer 1
 62
     7
100
AcDbSpline
210
0.0
220
0.0
230
1.0
 70
    11
 71
     3
 72
    20
 73
    16
 74
     0
 42
0.0000000001
 43
0.0000000001
 12
1.0
 22
0.0
 32
0.0
 13
1.0
 23
0.0
 33
0.0
 40
0.0
 40
0.0
 40
0.0
 40
0.0
 40
0.2
 40
0.2
 40
0.2
 40
0.2
 40
0.4
 40
0.4
 40
0.4
 40
0.4
 40
0.6
 40
0.6
 40
0.6
 40
0.6
 40
1.0
 40
1.0
 40
1.0
 40
1.0
 10
3.2417
 20
-44.4846
 30
0.0
 10
3.2417
 20
-44.4846
 30
0.0
 10
9.0749
 20
-44.4846
 30
0.0
 10
9.0749
 20
-44.4846
 30
0.0
 10
9.0749
 20
-44.4846
 30
0.0
 10
14.7296
 20
-43.2819
 30
0.0
 10
18.0804
 20
-39.9311
 30
0.0
 10
19.1277
 20
-34.4315
 30
0.0
 10
19.1277
 20
-34.4315
 30
0.0
 10
19.1277
 20
-34.4315
 30
0.0
 10
19.1277
 20
-28.5984
 30
0.0
 10
19.1277
 20
-28.5984
 30
0.0
 10
19.1277
 20
-28.5984
 30
0.0
 10
10.6458
 20
-29.2287
 30
0.0
 10
3.8718
 20
-36.0026
 30
0.0
 10
3.2417
 20
-44.4846
 30
0.0
  0
SPLINE
  5
8A
330
1F
100
AcDbEntity
  8
layer 1
 62
     7
100
AcDbSpline
210
0.0
220
0.0
230
1.0
 70
    11
 71
     3
 72
    20
 73
    16
 74
     0
 42
0.0000000001
 43
0.0000000001
 12
1.0
 22
0.0
 32
0.0
 13
1.0
 23
0.0
 33
0.0
 40
0.0
 40
0.0
 40
0.0
 40
0.0
 40
0.2
 40
0.2
 40
0.2
 40
0.2
 40
0.4
 40
0.4
 40
0.4
 40
0.4
 40
0.6
 40
0.6
 40
0.6
 40
0.6
 40
1.0
 40
1.0
 40
1.0
 40
1.0
 10
21.7144
 20
-28.5984
 30
0.0
 10
21.7144
 20
-28.5984
 30
0.0
 10
21.7144
 20
-34.4315
 30
0.0
 10
21.7144
 20
-34.4315
 30
0.0
 10
21.7144
 20
-34.4315
 30
0.0
 10
22.7617
 20
-39.9311
 30
0.0
 10
26.1127
 20
-43.2819
 30
0.0
 10
31.7675
 20
-44.4846
 30
0.0
 10
31.7675
 20
-44.4846
 30
0.0
 10
31.7675
 20
-44.4846
 30
0.0
 10
37.6008
 20
-44.4846
 30
0.0
 10
37.6008
 20
-44.4846
 30
0.0
 10
37.6008
 20
-44.4846
 30
0.0
 10
36.9707
 20
-36.0026
 30
0.0
 10
30.1965
 20
-29.2287
 30
0.0
 10
21.7144
 20
-28.5984
 30
0.0
  0
SPLINE
  5
8B
330
1F
100
AcDbEntity
  8
layer 1
 62
     7
100
AcDbSpline
210
0.0
220
0.0
230
1.0
 70
    11
 71
     3
 72
    20
 73
    16
 74
     0
 42
0.0000000001
 43
0.0000000001
 12
1.0
 22
0.0
 32
0.0
 13
1.0
 23
0.0
 33
0.0
 40
0.0
 40
0.0
 40
0.0
 40
0.0
 40
0.2
 40
0.2
 40
0.2
 40
0.2
 40
0.4
 40
0.4
 40
0.4
 40
0.4
 40
0.6
 40
0.6
 40
0.6
 40
0.6
 40
1.0
 40
1.0
 40
1.0
 40
1.0
 10
37.601
 20
-47.0712
 30
0.0
 10
37.601
 20
-47.0712
 30
0.0
 10
31.7665
 20
-47.0712
 30
0.0
 10
31.7665
 20
-47.0712
 30
0.0
 10
31.7665
 20
-47.0712
 30
0.0
 10
26.1123
 20
-48.2741
 30
0.0
 10
22.7617
 20
-51.6247
 30
0.0
 10
21.7144
 20
-57.1241
 30
0.0
 10
21.7144
 20
-57.1241
 30
0.0
 10
21.7144
 20
-57.1241
 30
0.0
 10
21.7144
 20
-62.9582
 30
0.0
 10
21.7144
 20
-62.9582
 30
0.0
 10
21.7144
 20
-62.9582
 30
0.0
 10
30.1967
 20
-62.3281
 30
0.0
 10
36.9711
 20
-55.5536
 30
0.0
 10
37.601
 20
-47.0712
 30
0.0
  0
SPLINE
  5
8C
330
1F
100
AcDbEntity
  8
layer 1
 62
     7
100
AcDbSpline
210
0.0
220
0.0
230
1.0
 70
    11
 71
     3
 72
   116
 73
   112
 74
     0
 42
0.0000000001
 43
0.0000000001
 12
1.0
 22
0.0
 32
0.0
 13
1.0
 23
0.0
 33
0.0
 40
0.0
 40
0.0
 40
0.0
 40
0.0
 40
0.0344827586206897
 40
0.0344827586206897
 40
0.0344827586206897
 40
0.0344827586206897
 40
0.0689655172413793
 40
0.0689655172413793
 40
0.0689655172413793
 40
0.0689655172413793
 40
0.103448275862069
 40
0.103448275862069
 40
0.103448275862069
 40
0.103448275862069
 40
0.1379310344827586
 40
0.1379310344827586
 40
0.1379310344827586
 40
0.1379310344827586
 40
0.1724137931034483
 40
0.1724137931034483
 40
0.1724137931034483
 40
0.1724137931034483
 40
0.2068965517241379
 40
0.2068965517241379
 40
0.2068965517241379
 40
0.2068965517241379
 40
0.2413793103448276
 40
0.2413793103448276
 40
0.2413793103448276
 40
0.2413793103448276
 40
0.2758620689655172
 40
0.2758620689655172
 40
0.2758620689655172
 40
0.2758620689655172
 40
0.3103448275862069
 40
0.3103448275862069
 40
0.3103448275862069
 40
0.3103448275862069
 40
0.3448275862068966
 40
0.3448275862068966
 40
0.3448275862068966
 40
0.3448275862068966
 40
0.3793103448275862
 40
0.3793103448275862
 40
0.3793103448275862
 40
0.3793103448275862
 40
0.4137931034482759
 40
0.4137931034482759
 40
0.4137931034482759
 40
0.4137931034482759
 40
0.4482758620689655
 40
0.4482758620689655
 40
0.4482758620689655
 40
0.4482758620689655
 40
0.4827586206896552
 40
0.4827586206896552
 40
0.4827586206896552
 40
0.4827586206896552
 40
0.5172413793103449
 40
0.5172413793103449
 40
0.5172413793103449
 40
0.5172413793103449
 40
0.5517241379310345
 40
0.5517241379310345
 40
0.5517241379310345
 40
0.5517241379310345
 40
0.5862068965517241
 40
0.5862068965517241
 40
0.5862068965517241
 40
0.5862068965517241
 40
0.6206896551724138
 40
0.6206896551724138
 40
0.6206896551724138
 40
0.6206896551724138
 40
0.6551724137931034
 40
0.6551724137931034
 40
0.6551724137931034
 40
0.6551724137931034
 40
0.6896551724137931
 40
0.6896551724137931
 40
0.6896551724137931
 40
0.6896551724137931
 40
0.7241379310344828
 40
0.7241379310344828
 40
0.7241379310344828
 40
0.7241379310344828
 40
0.7586206896551724
 40
0.7586206896551724
 40
0.7586206896551724
 40
0.7586206896551724
 40
0.7931034482758621
 40
0.7931034482758621
 40
0.7931034482758621
 40
0.7931034482758621
 40
0.8275862068965517
 40
0.8275862068965517
 40
0.8275862068965517
 40
0.8275862068965517
 40
0.8620689655172413
 40
0.8620689655172413
 40
0.8620689655172413
 40
0.8620689655172413
 40
0.896551724137931
 40
0.896551724137931
 40
0.896551724137931
 40
0.896551724137931
 40
0.9310344827586207
 40
0.9310344827586207
 40
0.9310344827586207
 40
0.9310344827586207
 40
1.0
 40
1.0
 40
1.0
 40
1.0
 10
19.1277
 20
-40.898
 30
0.0
 10
19.9454
 20
-39.1741
 30
0.0
 10
21.0099
 20
-39.1697
 30
0.0
 10
21.7144
 20
-40.898
 30
0.0
 10
21.7144
 20
-40.898
 30
0.0
 10
21.7144
 20
-40.898
 30
0.0
 10
21.7146
 20
-40.8984
 30
0.0
 10
21.7146
 20
-40.8984
 30
0.0
 10
21.7146
 20
-40.8984
 30
0.0
 10
21.7146
 20
-40.8984
 30
0.0
 10
21.7146
 20
-40.898
 30
0.0
 10
21.7146
 20
-40.898
 30
0.0
 10
21.7146
 20
-40.898
 30
0.0
 10
21.7146
 20
-40.898
 30
0.0
 10
21.722
 20
-40.9131
 30
0.0
 10
21.722
 20
-40.9131
 30
0.0
 10
21.722
 20
-40.9131
 30
0.0
 10
22.0619
 20
-41.5833
 30
0.0
 10
22.5866
 20
-42.2957
 30
0.0
 10
23.2095
 20
-42.9295
 30
0.0
 10
23.2095
 20
-42.9295
 30
0.0
 10
23.2095
 20
-42.9295
 30
0.0
 10
23.2097
 20
-42.9298
 30
0.0
 10
23.2097
 20
-42.9298
 30
0.0
 10
23.2097
 20
-42.9298
 30
0.0
 10
23.2097
 20
-42.9298
 30
0.0
 10
23.2194
 20
-42.9396
 30
0.0
 10
23.2194
 20
-42.9396
 30
0.0
 10
23.2194
 20
-42.9396
 30
0.0
 10
23.8703
 20
-43.5886
 30
0.0
 10
24.6089
 20
-44.1358
 30
0.0
 10
25.3011
 20
-44.4844
 30
0.0
 10
25.3011
 20
-44.4844
 30
0.0
 10
27.0297
 20
-45.1889
 30
0.0
 10
27.0251
 20
-46.2536
 30
0.0
 10
25.3011
 20
-47.071
 30
0.0
 10
25.3011
 20
-47.071
 30
0.0
 10
25.3011
 20
-47.071
 30
0.0
 10
25.3011
 20
-47.0712
 30
0.0
 10
25.3011
 20
-47.0712
 30
0.0
 10
25.3011
 20
-47.0712
 30
0.0
 10
25.3011
 20
-47.0712
 30
0.0
 10
25.3007
 20
-47.0714
 30
0.0
 10
25.3007
 20
-47.0714
 30
0.0
 10
25.3007
 20
-47.0714
 30
0.0
 10
25.3007
 20
-47.0714
 30
0.0
 10
25.3009
 20
-47.0714
 30
0.0
 10
25.3009
 20
-47.0714
 30
0.0
 10
25.3009
 20
-47.0714
 30
0.0
 10
24.619
 20
-47.4162
 30
0.0
 10
23.8905
 20
-47.9526
 30
0.0
 10
23.2457
 20
-48.5896
 30
0.0
 10
23.2457
 20
-48.5896
 30
0.0
 10
22.6024
 20
-49.2372
 30
0.0
 10
22.0611
 20
-49.9703
 30
0.0
 10
21.7148
 20
-50.6578
 30
0.0
 10
21.7148
 20
-50.6578
 30
0.0
 10
21.0105
 20
-52.3863
 30
0.0
 10
19.9458
 20
-52.3818
 30
0.0
 10
19.1283
 20
-50.6578
 30
0.0
 10
19.1283
 20
-50.6578
 30
0.0
 10
19.1283
 20
-50.6578
 30
0.0
 10
19.1281
 20
-50.6578
 30
0.0
 10
19.1281
 20
-50.6578
 30
0.0
 10
19.1281
 20
-50.6578
 30
0.0
 10
19.1281
 20
-50.6578
 30
0.0
 10
19.1277
 20
-50.6574
 30
0.0
 10
19.1277
 20
-50.6574
 30
0.0
 10
19.1277
 20
-50.6574
 30
0.0
 10
19.1277
 20
-50.6574
 30
0.0
 10
19.1277
 20
-50.6576
 30
0.0
 10
19.1277
 20
-50.6576
 30
0.0
 10
19.1277
 20
-50.6576
 30
0.0
 10
18.7833
 20
-49.9756
 30
0.0
 10
18.2466
 20
-49.2469
 30
0.0
 10
17.6096
 20
-48.6023
 30
0.0
 10
17.6096
 20
-48.6023
 30
0.0
 10
16.9619
 20
-47.9591
 30
0.0
 10
16.2291
 20
-47.4176
 30
0.0
 10
15.5414
 20
-47.0714
 30
0.0
 10
15.5414
 20
-47.0714
 30
0.0
 10
13.8176
 20
-46.2539
 30
0.0
 10
13.813
 20
-45.1892
 30
0.0
 10
15.5414
 20
-44.4848
 30
0.0
 10
15.5414
 20
-44.4848
 30
0.0
 10
15.5414
 20
-44.4848
 30
0.0
 10
15.542
 20
-44.4846
 30
0.0
 10
15.542
 20
-44.4846
 30
0.0
 10
15.542
 20
-44.4846
 30
0.0
 10
15.542
 20
-44.4846
 30
0.0
 10
15.5414
 20
-44.4846
 30
0.0
 10
15.5414
 20
-44.4846
 30
0.0
 10
15.5414
 20
-44.4846
 30
0.0
 10
15.5414
 20
-44.4846
 30
0.0
 10
15.5561
 20
-44.4775
 30
0.0
 10
15.5561
 20
-44.4775
 30
0.0
 10
15.5561
 20
-44.4775
 30
0.0
 10
16.2266
 20
-44.1379
 30
0.0
 10
16.9389
 20
-43.6128
 30
0.0
 10
17.5732
 20
-42.9895
 30
0.0
 10
17.5732
 20
-42.9895
 30
0.0
 10
17.5732
 20
-42.9895
 30
0.0
 10
17.5742
 20
-42.9887
 30
0.0
 10
17.5742
 20
-42.9887
 30
0.0
 10
17.5742
 20
-42.9887
 30
0.0
 10
17.5742
 20
-42.9887
 30
0.0
 10
17.5835
 20
-42.9792
 30
0.0
 10
17.5835
 20
-42.9792
 30
0.0
 10
17.5835
 20
-42.9792
 30
0.0
 10
18.2329
 20
-42.3281
 30
0.0
 10
18.7793
 20
-41.5905
 30
0.0
 10
19.1277
 20
-40.898
 30
0.0
  0
SPLINE
  5
8D
330
1F
100
AcDbEntity
  8
layer 1
 62
     7
100
AcDbSpline
210
0.0
220
0.0
230
1.0
 70
    11
 71
     3
 72
    20
 73
    16
 74
     0
 42
0.0000000001
 43
0.0000000001
 12
1.0
 22
0.0
 32
0.0
 13
1.0
 23
0.0
 33
0.0
 40
0.0
 40
0.0
 40
0.0
 40
0.0
 40
0.2
 40
0.2
 40
0.2
 40
0.2
 40
0.4
 40
0.4
 40
0.4
 40
0.4
 40
0.6
 40
0.6
 40
0.6
 40
0.6
 40
1.0
 40
1.0
 40
1.0
 40
1.0
 10
19.1277
 20
-95.9233
 30
0.0
 10
18.0804
 20
-90.4238
 30
0.0
 10
14.73
 20
-87.0733
 30
0.0
 10
9.0758
 20
-85.8704
 30
0.0
 10
9.0758
 20
-85.8704
 30
0.0
 10
9.0758
 20
-85.8704
 30
0.0
 10
3.2415
 20
-85.8704
 30
0.0
 10
3.2415
 20
-85.8704
 30
0.0
 10
3.2415
 20
-85.8704
 30
0.0
 10
3.8715
 20
-94.3527
 30
0.0
 10
10.6456
 20
-101.1272
 30
0.0
 10
19.1277
 20
-101.7572
 30
0.0
 10
19.1277
 20
-101.7572
 30
0.0
 10
19.1277
 20
-101.7572
 30
0.0
 10
19.1277
 20
-95.9233
 30
0.0
 10
19.1277
 20
-95.9233
 30
0.0
  0
SPLINE
  5
8E
330
1F
100
AcDbEntity
  8
layer 1
 62
     7
100
AcDbSpline
210
0.0
220
0.0
230
1.0
 70
    11
 71
     3
 72
    20
 73
    16
 74
     0
 42
0.0000000001
 43
0.0000000001
 12
1.0
 22
0.0
 32
0.0
 13
1.0
 23
0.0
 33
0.0
 40
0.0
 40
0.0
 40
0.0
 40
0.0
 40
0.2
 40
0.2
 40
0.2
 40
0.2
 40
0.4
 40
0.4
 40
0.4
 40
0.4
 40
0.6
 40
0.6
 40
0.6
 40
0.6
 40
1.0
 40
1.0
 40
1.0
 40
1.0
 10
3.2417
 20
-83.2837
 30
0.0
 10
3.2417
 20
-83.2837
 30
0.0
 10
9.0749
 20
-83.2837
 30
0.0
 10
9.0749
 20
-83.2837
 30
0.0
 10
9.0749
 20
-83.2837
 30
0.0
 10
14.7296
 20
-82.081
 30
0.0
 10
18.0804
 20
-78.7303
 30
0.0
 10
19.1277
 20
-73.2307
 30
0.0
 10
19.1277
 20
-73.2307
 30
0.0
 10
19.1277
 20
-73.2307
 30
0.0
 10
19.1277
 20
-67.3975
 30
0.0
 10
19.1277
 20
-67.3975
 30
0.0
 10
19.1277
 20
-67.3975
 30
0.0
 10
10.6458
 20
-68.0276
 30
0.0
 10
3.8718
 20
-74.8018
 30
0.0
 10
3.2417
 20
-83.2837
 30
0.0
  0
SPLINE
  5
8F
330
1F
100
AcDbEntity
  8
layer 1
 62
     7
100
AcDbSpline
210
0.0
220
0.0
230
1.0
 70
    11
 71
     3
 72
    20
 73
    16
 74
     0
 42
0.0000000001
 43
0.0000000001
 12
1.0
 22
0.0
 32
0.0
 13
1.0
 23
0.0
 33
0.0
 40
0.0
 40
0.0
 40
0.0
 40
0.0
 40
0.2
 40
0.2
 40
0.2
 40
0.2
 40
0.4
 40
0.4
 40
0.4
 40
0.4
 40
0.6
 40
0.6
 40
0.6
 40
0.6
 40
1.0
 40
1.0
 40
1.0
 40
1.0
 10
21.7144
 20
-67.3975
 30
0.0
 10
21.7144
 20
-67.3975
 30
0.0
 10
21.7144
 20
-73.2307
 30
0.0
 10
21.7144
 20
-73.2307
 30
0.0
 10
21.7144
 20
-73.2307
 30
0.0
 10
22.7617
 20
-78.7303
 30
0.0
 10
26.1127
 20
-82.081
 30
0.0
 10
31.7675
 20
-83.2837
 30
0.0
 10
31.7675
 20
-83.2837
 30
0.0
 10
31.7675
 20
-83.2837
 30
0.0
 10
37.6008
 20
-83.2837
 30
0.0
 10
37.6008
 20
-83.2837
 30
0.0
 10
37.6008
 20
-83.2837
 30
0.0
 10
36.9707
 20
-74.8018
 30
0.0
 10
30.1965
 20
-68.0276
 30
0.0
 10
21.7144
 20
-67.3975
 30
0.0
  0
SPLINE
  5
90
330
1F
100
AcDbEntity
  8
layer 1
 62
     7
100
AcDbSpline
210
0.0
220
0.0
230
1.0
 70
    11
 71
     3
 72
    20
 73
    16
 74
     0
 42
0.0000000001
 43
0.0000000001
 12
1.0
 22
0.0
 32
0.0
 13
1.0
 23
0.0
 33
0.0
 40
0.0
 40
0.0
 40
0.0
 40
0.0
 40
0.2
 40
0.2
 40
0.2
 40
0.2
 40
0.4
 40
0.4
 40
0.4
 40
0.4
 40
0.6
 40
0.6
 40
0.6
 40
0.6
 40
1.0
 40
1.0
 40
1.0
 40
1.0
 10
37.601
 20
-85.8704
 30
0.0
 10
37.601
 20
-85.8704
 30
0.0
 10
31.7665
 20
-85.8704
 30
0.0
 10
31.7665
 20
-85.8704
 30
0.0
 10
31.7665
 20
-85.8704
 30
0.0
 10
26.1123
 20
-87.0733
 30
0.0
 10
22.7617
 20
-90.4238
 30
0.0
 10
21.7144
 20
-95.9233
 30
0.0
 10
21.7144
 20
-95.9233
 30
0.0
 10
21.7144
 20
-95.9233
 30
0.0
 10
21.7144
 20
-101.7572
 30
0.0
 10
21.7144
 20
-101.7572
 30
0.0
 10
21.7144
 20
-101.7572
 30
0.0
 10
30.1967
 20
-101.1272
 30
0.0
 10
36.9711
 20
-94.3527
 30
0.0
 10
37.601
 20
-85.8704
 30
0.0
  0
SPLINE
  5
91
330
1F
100
AcDbEntity
  8
layer 1
 62
     7
100
AcDbSpline
210
0.0
220
0.0
230
1.0
 70
    11
 71
     3
 72
   116
 73
   112
 74
     0
 42
0.0000000001
 43
0.0000000001
 12
1.0
 22
0.0
 32
0.0
 13
1.0
 23
0.0
 33
0.0
 40
0.0
 40
0.0
 40
0.0
 40
0.0
 40
0.0344827586206897
 40
0.0344827586206897
 40
0.0344827586206897
 40
0.0344827586206897
 40
0.0689655172413793
 40
0.0689655172413793
 40
0.0689655172413793
 40
0.0689655172413793
 40
0.103448275862069
 40
0.103448275862069
 40
0.103448275862069
 40
0.103448275862069
 40
0.1379310344827586
 40
0.1379310344827586
 40
0.1379310344827586
 40
0.1379310344827586
 40
0.1724137931034483
 40
0.1724137931034483
 40
0.1724137931034483
 40
0.1724137931034483
 40
0.2068965517241379
 40
0.2068965517241379
 40
0.2068965517241379
 40
0.2068965517241379
 40
0.2413793103448276
 40
0.2413793103448276
 40
0.2413793103448276
 40
0.2413793103448276
 40
0.2758620689655172
 40
0.2758620689655172
 40
0.2758620689655172
 40
0.2758620689655172
 40
0.3103448275862069
 40
0.3103448275862069
 40
0.3103448275862069
 40
0.3103448275862069
 40
0.3448275862068966
 40
0.3448275862068966
 40
0.3448275862068966
 40
0.3448275862068966
 40
0.3793103448275862
 40
0.3793103448275862
 40
0.3793103448275862
 40
0.3793103448275862
 40
0.4137931034482759
 40
0.4137931034482759
 40
0.4137931034482759
 40
0.4137931034482759
 40
0.4482758620689655
 40
0.4482758620689655
 40
0.4482758620689655
 40
0.4482758620689655
 40
0.4827586206896552
 40
0.4827586206896552
 40
0.4827586206896552
 40
0.4827586206896552
 40
0.5172413793103449
 40
0.5172413793103449
 40
0.5172413793103449
 40
0.5172413793103449
 40
0.5517241379310345
 40
0.5517241379310345
 40
0.5517241379310345
 40
0.5517241379310345
 40
0.5862068965517241
 40
0.5862068965517241
 40
0.5862068965517241
 40
0.5862068965517241
 40
0.6206896551724138
 40
0.6206896551724138
 40
0.6206896551724138
 40
0.6206896551724138
 40
0.6551724137931034
 40
0.6551724137931034
 40
0.6551724137931034
 40
0.6551724137931034
 40
0.6896551724137931
 40
0.6896551724137931
 40
0.6896551724137931
 40
0.6896551724137931
 40
0.7241379310344828
 40
0.7241379310344828
 40
0.7241379310344828
 40
0.7241379310344828
 40
0.7586206896551724
 40
0.7586206896551724
 40
0.7586206896551724
 40
0.7586206896551724
 40
0.7931034482758621
 40
0.7931034482758621
 40
0.7931034482758621
 40
0.7931034482758621
 40
0.8275862068965517
 40
0.8275862068965517
 40
0.8275862068965517
 40
0.8275862068965517
 40
0.8620689655172413
 40
0.8620689655172413
 40
0.8620689655172413
 40
0.8620689655172413
 40
0.896551724137931
 40
0.896551724137931
 40
0.896551724137931
 40
0.896551724137931
 40
0.9310344827586207
 40
0.9310344827586207
 40
0.9310344827586207
 40
0.9310344827586207
 40
1.0
 40
1.0
 40
1.0
 40
1.0
 10
19.1277
 20
-79.6972
 30
0.0
 10
19.9454
 20
-77.9732
 30
0.0
 10
21.0099
 20
-77.9686
 30
0.0
 10
21.7144
 20
-79.6972
 30
0.0
 10
21.7144
 20
-79.6972
 30
0.0
 10
21.7144
 20
-79.6972
 30
0.0
 10
21.7146
 20
-79.6976
 30
0.0
 10
21.7146
 20
-79.6976
 30
0.0
 10
21.7146
 20
-79.6976
 30
0.0
 10
21.7146
 20
-79.6976
 30
0.0
 10
21.7146
 20
-79.6972
 30
0.0
 10
21.7146
 20
-79.6972
 30
0.0
 10
21.7146
 20
-79.6972
 30
0.0
 10
21.7146
 20
-79.6972
 30
0.0
 10
21.722
 20
-79.7121
 30
0.0
 10
21.722
 20
-79.7121
 30
0.0
 10
21.722
 20
-79.7121
 30
0.0
 10
22.0619
 20
-80.3824
 30
0.0
 10
22.5866
 20
-81.0949
 30
0.0
 10
23.2095
 20
-81.7286
 30
0.0
 10
23.2095
 20
-81.7286
 30
0.0
 10
23.2095
 20
-81.7286
 30
0.0
 10
23.2097
 20
-81.729
 30
0.0
 10
23.2097
 20
-81.729
 30
0.0
 10
23.2097
 20
-81.729
 30
0.0
 10
23.2097
 20
-81.729
 30
0.0
 10
23.2194
 20
-81.7387
 30
0.0
 10
23.2194
 20
-81.7387
 30
0.0
 10
23.2194
 20
-81.7387
 30
0.0
 10
23.8703
 20
-82.3877
 30
0.0
 10
24.6089
 20
-82.9349
 30
0.0
 10
25.3011
 20
-83.2835
 30
0.0
 10
25.3011
 20
-83.2835
 30
0.0
 10
27.0297
 20
-83.988
 30
0.0
 10
27.0251
 20
-85.0525
 30
0.0
 10
25.3011
 20
-85.8702
 30
0.0
 10
25.3011
 20
-85.8702
 30
0.0
 10
25.3011
 20
-85.8702
 30
0.0
 10
25.3011
 20
-85.8704
 30
0.0
 10
25.3011
 20
-85.8704
 30
0.0
 10
25.3011
 20
-85.8704
 30
0.0
 10
25.3011
 20
-85.8704
 30
0.0
 10
25.3007
 20
-85.8706
 30
0.0
 10
25.3007
 20
-85.8706
 30
0.0
 10
25.3007
 20
-85.8706
 30
0.0
 10
25.3007
 20
-85.8706
 30
0.0
 10
25.3009
 20
-85.8706
 30
0.0
 10
25.3009
 20
-85.8706
 30
0.0
 10
25.3009
 20
-85.8706
 30
0.0
 10
24.619
 20
-86.2152
 30
0.0
 10
23.8905
 20
-86.7517
 30
0.0
 10
23.2457
 20
-87.3887
 30
0.0
 10
23.2457
 20
-87.3887
 30
0.0
 10
22.6024
 20
-88.0366
 30
0.0
 10
22.0611
 20
-88.7692
 30
0.0
 10
21.7148
 20
-89.4569
 30
0.0
 10
21.7148
 20
-89.4569
 30
0.0
 10
21.0105
 20
-91.1853
 30
0.0
 10
19.9458
 20
-91.1809
 30
0.0
 10
19.1283
 20
-89.4569
 30
0.0
 10
19.1283
 20
-89.4569
 30
0.0
 10
19.1283
 20
-89.4569
 30
0.0
 10
19.1281
 20
-89.4569
 30
0.0
 10
19.1281
 20
-89.4569
 30
0.0
 10
19.1281
 20
-89.4569
 30
0.0
 10
19.1281
 20
-89.4569
 30
0.0
 10
19.1277
 20
-89.4565
 30
0.0
 10
19.1277
 20
-89.4565
 30
0.0
 10
19.1277
 20
-89.4565
 30
0.0
 10
19.1277
 20
-89.4565
 30
0.0
 10
19.1277
 20
-89.4567
 30
0.0
 10
19.1277
 20
-89.4567
 30
0.0
 10
19.1277
 20
-89.4567
 30
0.0
 10
18.7833
 20
-88.7746
 30
0.0
 10
18.2466
 20
-88.0461
 30
0.0
 10
17.6096
 20
-87.4015
 30
0.0
 10
17.6096
 20
-87.4015
 30
0.0
 10
16.9619
 20
-86.7582
 30
0.0
 10
16.2291
 20
-86.2167
 30
0.0
 10
15.5414
 20
-85.8706
 30
0.0
 10
15.5414
 20
-85.8706
 30
0.0
 10
13.8176
 20
-85.0529
 30
0.0
 10
13.813
 20
-83.9884
 30
0.0
 10
15.5414
 20
-83.2839
 30
0.0
 10
15.5414
 20
-83.2839
 30
0.0
 10
15.5414
 20
-83.2839
 30
0.0
 10
15.542
 20
-83.2837
 30
0.0
 10
15.542
 20
-83.2837
 30
0.0
 10
15.542
 20
-83.2837
 30
0.0
 10
15.542
 20
-83.2837
 30
0.0
 10
15.5414
 20
-83.2837
 30
0.0
 10
15.5414
 20
-83.2837
 30
0.0
 10
15.5414
 20
-83.2837
 30
0.0
 10
15.5414
 20
-83.2837
 30
0.0
 10
15.5561
 20
-83.2767
 30
0.0
 10
15.5561
 20
-83.2767
 30
0.0
 10
15.5561
 20
-83.2767
 30
0.0
 10
16.2266
 20
-82.9368
 30
0.0
 10
16.9389
 20
-82.4117
 30
0.0
 10
17.5732
 20
-81.7887
 30
0.0
 10
17.5732
 20
-81.7887
 30
0.0
 10
17.5732
 20
-81.7887
 30
0.0
 10
17.5742
 20
-81.7879
 30
0.0
 10
17.5742
 20
-81.7879
 30
0.0
 10
17.5742
 20
-81.7879
 30
0.0
 10
17.5742
 20
-81.7879
 30
0.0
 10
17.5835
 20
-81.7784
 30
0.0
 10
17.5835
 20
-81.7784
 30
0.0
 10
17.5835
 20
-81.7784
 30
0.0
 10
18.2329
 20
-81.1273
 30
0.0
 10
18.7793
 20
-80.3895
 30
0.0
 10
19.1277
 20
-79.6972
 30
0.0
  0
SPLINE
  5
92
330
1F
100
AcDbEntity
  8
layer 1
 62
     7
100
AcDbSpline
210
0.0
220
0.0
230
1.0
 70
    11
 71
     3
 72
    20
 73
    16
 74
     0
 42
0.0000000001
 43
0.0000000001
 12
1.0
 22
0.0
 32
0.0
 13
1.0
 23
0.0
 33
0.0
 40
0.0
 40
0.0
 40
0.0
 40
0.0
 40
0.2
 40
0.2
 40
0.2
 40
0.2
 40
0.4
 40
0.4
 40
0.4
 40
0.4
 40
0.6
 40
0.6
 40
0.6
 40
0.6
 40
1.0
 40
1.0
 40
1.0
 40
1.0
 10
-37.7774
 20
105.3685
 30
0.0
 10
-36.1792
 20
97.6766
 30
0.0
 10
-30.1205
 20
91.6174
 30
0.0
 10
-22.4288
 20
90.0186
 30
0.0
 10
-22.4288
 20
90.0186
 30
0.0
 10
-30.1205
 20
88.4203
 30
0.0
 10
-36.179
 20
82.3609
 30
0.0
 10
-37.7774
 20
74.6692
 30
0.0
 10
-37.7774
 20
74.6692
 30
0.0
 10
-39.3758
 20
82.3612
 30
0.0
 10
-45.4352
 20
88.4201
 30
0.0
 10
-53.1272
 20
90.0185
 30
0.0
 10
-53.1272
 20
90.0185
 30
0.0
 10
-45.4352
 20
91.6168
 30
0.0
 10
-39.3758
 20
97.676
 30
0.0
 10
-37.7774
 20
105.3685
 30
0.0
  0
SPLINE
  5
93
330
1F
100
AcDbEntity
  8
layer 1
 62
     7
100
AcDbSpline
210
0.0
220
0.0
230
1.0
 70
    11
 71
     3
 72
    20
 73
    16
 74
     0
 42
0.0000000001
 43
0.0000000001
 12
1.0
 22
0.0
 32
0.0
 13
1.0
 23
0.0
 33
0.0
 40
0.0
 40
0.0
 40
0.0
 40
0.0
 40
0.2
 40
0.2
 40
0.2
 40
0.2
 40
0.4
 40
0.4
 40
0.4
 40
0.4
 40
0.6
 40
0.6
 40
0.6
 40
0.6
 40
1.0
 40
1.0
 40
1.0
 40
1.0
 10
-37.7774
 20
66.5694
 30
0.0
 10
-36.1792
 20
58.8775
 30
0.0
 10
-30.1205
 20
52.8183
 30
0.0
 10
-22.4288
 20
51.2197
 30
0.0
 10
-22.4288
 20
51.2197
 30
0.0
 10
-30.1205
 20
49.6211
 30
0.0
 10
-36.179
 20
43.5617
 30
0.0
 10
-37.7774
 20
35.87
 30
0.0
 10
-37.7774
 20
35.87
 30
0.0
 10
-39.3758
 20
43.5621
 30
0.0
 10
-45.4352
 20
49.6211
 30
0.0
 10
-53.1272
 20
51.2195
 30
0.0
 10
-53.1272
 20
51.2195
 30
0.0
 10
-45.4352
 20
52.8177
 30
0.0
 10
-39.3758
 20
58.8771
 30
0.0
 10
-37.7774
 20
66.5694
 30
0.0
  0
SPLINE
  5
94
330
1F
100
AcDbEntity
  8
layer 1
 62
     7
100
AcDbSpline
210
0.0
220
0.0
230
1.0
 70
    11
 71
     3
 72
    20
 73
    16
 74
     0
 42
0.0000000001
 43
0.0000000001
 12
1.0
 22
0.0
 32
0.0
 13
1.0
 23
0.0
 33
0.0
 40
0.0
 40
0.0
 40
0.0
 40
0.0
 40
0.2
 40
0.2
 40
0.2
 40
0.2
 40
0.4
 40
0.4
 40
0.4
 40
0.4
 40
0.6
 40
0.6
 40
0.6
 40
0.6
 40
1.0
 40
1.0
 40
1.0
 40
1.0
 10
-37.7774
 20
27.7702
 30
0.0
 10
-36.1792
 20
20.0783
 30
0.0
 10
-30.1205
 20
14.0191
 30
0.0
 10
-22.4288
 20
12.4205
 30
0.0
 10
-22.4288
 20
12.4205
 30
0.0
 10
-30.1205
 20
10.822
 30
0.0
 10
-36.179
 20
4.7628
 30
0.0
 10
-37.7774
 20
-2.929
 30
0.0
 10
-37.7774
 20
-2.929
 30
0.0
 10
-39.3758
 20
4.7631
 30
0.0
 10
-45.4352
 20
10.822
 30
0.0
 10
-53.1272
 20
12.4203
 30
0.0
 10
-53.1272
 20
12.4203
 30
0.0
 10
-45.4352
 20
14.0187
 30
0.0
 10
-39.3758
 20
20.0779
 30
0.0
 10
-37.7774
 20
27.7702
 30
0.0
  0
SPLINE
  5
95
330
1F
100
AcDbEntity
  8
layer 1
 62
     7
100
AcDbSpline
210
0.0
220
0.0
230
1.0
 70
    11
 71
     3
 72
    20
 73
    16
 74
     0
 42
0.0000000001
 43
0.0000000001
 12
1.0
 22
0.0
 32
0.0
 13
1.0
 23
0.0
 33
0.0
 40
0.0
 40
0.0
 40
0.0
 40
0.0
 40
0.2
 40
0.2
 40
0.2
 40
0.2
 40
0.4
 40
0.4
 40
0.4
 40
0.4
 40
0.6
 40
0.6
 40
0.6
 40
0.6
 40
1.0
 40
1.0
 40
1.0
 40
1.0
 10
-37.7774
 20
-11.0289
 30
0.0
 10
-36.1792
 20
-18.7206
 30
0.0
 10
-30.1205
 20
-24.7799
 30
0.0
 10
-22.4288
 20
-26.3786
 30
0.0
 10
-22.4288
 20
-26.3786
 30
0.0
 10
-30.1205
 20
-27.9772
 30
0.0
 10
-36.179
 20
-34.0364
 30
0.0
 10
-37.7774
 20
-41.7281
 30
0.0
 10
-37.7774
 20
-41.7281
 30
0.0
 10
-39.3758
 20
-34.036
 30
0.0
 10
-45.4352
 20
-27.9772
 30
0.0
 10
-53.1272
 20
-26.3788
 30
0.0
 10
-53.1272
 20
-26.3788
 30
0.0
 10
-45.4352
 20
-24.7804
 30
0.0
 10
-39.3758
 20
-18.7212
 30
0.0
 10
-37.7774
 20
-11.0289
 30
0.0
  0
SPLINE
  5
96
330
1F
100
AcDbEntity
  8
layer 1
 62
     7
100
AcDbSpline
210
0.0
220
0.0
230
1.0
 70
    11
 71
     3
 72
    20
 73
    16
 74
     0
 42
0.0000000001
 43
0.0000000001
 12
1.0
 22
0.0
 32
0.0
 13
1.0
 23
0.0
 33
0.0
 40
0.0
 40
0.0
 40
0.0
 40
0.0
 40
0.2
 40
0.2
 40
0.2
 40
0.2
 40
0.4
 40
0.4
 40
0.4
 40
0.4
 40
0.6
 40
0.6
 40
0.6
 40
0.6
 40
1.0
 40
1.0
 40
1.0
 40
1.0
 10
-37.7774
 20
-49.8279
 30
0.0
 10
-36.1792
 20
-57.5198
 30
0.0
 10
-30.1205
 20
-63.579
 30
0.0
 10
-22.4288
 20
-65.1776
 30
0.0
 10
-22.4288
 20
-65.1776
 30
0.0
 10
-30.1205
 20
-66.7761
 30
0.0
 10
-36.179
 20
-72.8356
 30
0.0
 10
-37.7774
 20
-80.5273
 30
0.0
 10
-37.7774
 20
-80.5273
 30
0.0
 10
-39.3758
 20
-72.835
 30
0.0
 10
-45.4352
 20
-66.7761
 30
0.0
 10
-53.1272
 20
-65.1778
 30
0.0
 10
-53.1272
 20
-65.1778
 30
0.0
 10
-45.4352
 20
-63.5794
 30
0.0
 10
-39.3758
 20
-57.5202
 30
0.0
 10
-37.7774
 20
-49.8279
 30
0.0
  0
SPLINE
  5
97
330
1F
100
AcDbEntity
  8
layer 1
 62
     7
100
AcDbSpline
210
0.0
220
0.0
230
1.0
 70
    11
 71
     3
 72
    20
 73
    16
 74
     0
 42
0.0000000001
 43
0.0000000001
 12
1.0
 22
0.0
 32
0.0
 13
1.0
 23
0.0
 33
0.0
 40
0.0
 40
0.0
 40
0.0
 40
0.0
 40
0.2
 40
0.2
 40
0.2
 40
0.2
 40
0.4
 40
0.4
 40
0.4
 40
0.4
 40
0.6
 40
0.6
 40
0.6
 40
0.6
 40
1.0
 40
1.0
 40
1.0
 40
1.0
 10
-19.6712
 20
98.0723
 30
0.0
 10
-20.7186
 20
103.5715
 30
0.0
 10
-24.0691
 20
106.9221
 30
0.0
 10
-29.7233
 20
108.1252
 30
0.0
 10
-29.7233
 20
108.1252
 30
0.0
 10
-29.7233
 20
108.1252
 30
0.0
 10
-35.5576
 20
108.1252
 30
0.0
 10
-35.5576
 20
108.1252
 30
0.0
 10
-35.5576
 20
108.1252
 30
0.0
 10
-34.9277
 20
99.6429
 30
0.0
 10
-28.1533
 20
92.8683
 30
0.0
 10
-19.6712
 20
92.2382
 30
0.0
 10
-19.6712
 20
92.2382
 30
0.0
 10
-19.6712
 20
92.2382
 30
0.0
 10
-19.6712
 20
98.0723
 30
0.0
 10
-19.6712
 20
98.0723
 30
0.0
  0
SPLINE
  5
98
330
1F
100
AcDbEntity
  8
layer 1
 62
     7
100
AcDbSpline
210
0.0
220
0.0
230
1.0
 70
    11
 71
     3
 72
    20
 73
    16
 74
     0
 42
0.0000000001
 43
0.0000000001
 12
1.0
 22
0.0
 32
0.0
 13
1.0
 23
0.0
 33
0.0
 40
0.0
 40
0.0
 40
0.0
 40
0.0
 40
0.2
 40
0.2
 40
0.2
 40
0.2
 40
0.4
 40
0.4
 40
0.4
 40
0.4
 40
0.6
 40
0.6
 40
0.6
 40
0.6
 40
1.0
 40
1.0
 40
1.0
 40
1.0
 10
-35.5573
 20
110.7116
 30
0.0
 10
-35.5573
 20
110.7116
 30
0.0
 10
-29.7243
 20
110.7116
 30
0.0
 10
-29.7243
 20
110.7116
 30
0.0
 10
-29.7243
 20
110.7116
 30
0.0
 10
-24.0695
 20
111.9145
 30
0.0
 10
-20.7186
 20
115.2653
 30
0.0
 10
-19.6712
 20
120.7647
 30
0.0
 10
-19.6712
 20
120.7647
 30
0.0
 10
-19.6712
 20
120.7647
 30
0.0
 10
-19.6712
 20
126.5981
 30
0.0
 10
-19.6712
 20
126.5981
 30
0.0
 10
-19.6712
 20
126.5981
 30
0.0
 10
-28.1533
 20
125.9677
 30
0.0
 10
-34.9273
 20
119.1936
 30
0.0
 10
-35.5573
 20
110.7116
 30
0.0
  0
SPLINE
  5
99
330
1F
100
AcDbEntity
  8
layer 1
 62
     7
100
AcDbSpline
210
0.0
220
0.0
230
1.0
 70
    11
 71
     3
 72
    20
 73
    16
 74
     0
 42
0.0000000001
 43
0.0000000001
 12
1.0
 22
0.0
 32
0.0
 13
1.0
 23
0.0
 33
0.0
 40
0.0
 40
0.0
 40
0.0
 40
0.0
 40
0.2
 40
0.2
 40
0.2
 40
0.2
 40
0.4
 40
0.4
 40
0.4
 40
0.4
 40
0.6
 40
0.6
 40
0.6
 40
0.6
 40
1.0
 40
1.0
 40
1.0
 40
1.0
 10
-17.0848
 20
126.5981
 30
0.0
 10
-17.0848
 20
126.5981
 30
0.0
 10
-17.0848
 20
120.7647
 30
0.0
 10
-17.0848
 20
120.7647
 30
0.0
 10
-17.0848
 20
120.7647
 30
0.0
 10
-16.0374
 20
115.2653
 30
0.0
 10
-12.6864
 20
111.9145
 30
0.0
 10
-7.0317
 20
110.7116
 30
0.0
 10
-7.0317
 20
110.7116
 30
0.0
 10
-7.0317
 20
110.7116
 30
0.0
 10
-1.1983
 20
110.7116
 30
0.0
 10
-1.1983
 20
110.7116
 30
0.0
 10
-1.1983
 20
110.7116
 30
0.0
 10
-1.8285
 20
119.1936
 30
0.0
 10
-8.6026
 20
125.9677
 30
0.0
 10
-17.0848
 20
126.5981
 30
0.0
  0
SPLINE
  5
9A
330
1F
100
AcDbEntity
  8
layer 1
 62
     7
100
AcDbSpline
210
0.0
220
0.0
230
1.0
 70
    11
 71
     3
 72
    20
 73
    16
 74
     0
 42
0.0000000001
 43
0.0000000001
 12
1.0
 22
0.0
 32
0.0
 13
1.0
 23
0.0
 33
0.0
 40
0.0
 40
0.0
 40
0.0
 40
0.0
 40
0.2
 40
0.2
 40
0.2
 40
0.2
 40
0.4
 40
0.4
 40
0.4
 40
0.4
 40
0.6
 40
0.6
 40
0.6
 40
0.6
 40
1.0
 40
1.0
 40
1.0
 40
1.0
 10
-1.1982
 20
108.1252
 30
0.0
 10
-1.1982
 20
108.1252
 30
0.0
 10
-7.0326
 20
108.1252
 30
0.0
 10
-7.0326
 20
108.1252
 30
0.0
 10
-7.0326
 20
108.1252
 30
0.0
 10
-12.6868
 20
106.9221
 30
0.0
 10
-16.0374
 20
103.5715
 30
0.0
 10
-17.0848
 20
98.0723
 30
0.0
 10
-17.0848
 20
98.0723
 30
0.0
 10
-17.0848
 20
98.0723
 30
0.0
 10
-17.0848
 20
92.2382
 30
0.0
 10
-17.0848
 20
92.2382
 30
0.0
 10
-17.0848
 20
92.2382
 30
0.0
 10
-8.6022
 20
92.8683
 30
0.0
 10
-1.8281
 20
99.6429
 30
0.0
 10
-1.1982
 20
108.1252
 30
0.0
  0
SPLINE
  5
9B
330
1F
100
AcDbEntity
  8
layer 1
 62
     7
100
AcDbSpline
210
0.0
220
0.0
230
1.0
 70
    11
 71
     3
 72
   116
 73
   112
 74
     0
 42
0.0000000001
 43
0.0000000001
 12
1.0
 22
0.0
 32
0.0
 13
1.0
 23
0.0
 33
0.0
 40
0.0
 40
0.0
 40
0.0
 40
0.0
 40
0.0344827586206897
 40
0.0344827586206897
 40
0.0344827586206897
 40
0.0344827586206897
 40
0.0689655172413793
 40
0.0689655172413793
 40
0.0689655172413793
 40
0.0689655172413793
 40
0.103448275862069
 40
0.103448275862069
 40
0.103448275862069
 40
0.103448275862069
 40
0.1379310344827586
 40
0.1379310344827586
 40
0.1379310344827586
 40
0.1379310344827586
 40
0.1724137931034483
 40
0.1724137931034483
 40
0.1724137931034483
 40
0.1724137931034483
 40
0.2068965517241379
 40
0.2068965517241379
 40
0.2068965517241379
 40
0.2068965517241379
 40
0.2413793103448276
 40
0.2413793103448276
 40
0.2413793103448276
 40
0.2413793103448276
 40
0.2758620689655172
 40
0.2758620689655172
 40
0.2758620689655172
 40
0.2758620689655172
 40
0.3103448275862069
 40
0.3103448275862069
 40
0.3103448275862069
 40
0.3103448275862069
 40
0.3448275862068966
 40
0.3448275862068966
 40
0.3448275862068966
 40
0.3448275862068966
 40
0.3793103448275862
 40
0.3793103448275862
 40
0.3793103448275862
 40
0.3793103448275862
 40
0.4137931034482759
 40
0.4137931034482759
 40
0.4137931034482759
 40
0.4137931034482759
 40
0.4482758620689655
 40
0.4482758620689655
 40
0.4482758620689655
 40
0.4482758620689655
 40
0.4827586206896552
 40
0.4827586206896552
 40
0.4827586206896552
 40
0.4827586206896552
 40
0.5172413793103449
 40
0.5172413793103449
 40
0.5172413793103449
 40
0.5172413793103449
 40
0.5517241379310345
 40
0.5517241379310345
 40
0.5517241379310345
 40
0.5517241379310345
 40
0.5862068965517241
 40
0.5862068965517241
 40
0.5862068965517241
 40
0.5862068965517241
 40
0.6206896551724138
 40
0.6206896551724138
 40
0.6206896551724138
 40
0.6206896551724138
 40
0.6551724137931034
 40
0.6551724137931034
 40
0.6551724137931034
 40
0.6551724137931034
 40
0.6896551724137931
 40
0.6896551724137931
 40
0.6896551724137931
 40
0.6896551724137931
 40
0.7241379310344828
 40
0.7241379310344828
 40
0.7241379310344828
 40
0.7241379310344828
 40
0.7586206896551724
 40
0.7586206896551724
 40
0.7586206896551724
 40
0.7586206896551724
 40
0.7931034482758621
 40
0.7931034482758621
 40
0.7931034482758621
 40
0.7931034482758621
 40
0.8275862068965517
 40
0.8275862068965517
 40
0.8275862068965517
 40
0.8275862068965517
 40
0.8620689655172413
 40
0.8620689655172413
 40
0.8620689655172413
 40
0.8620689655172413
 40
0.896551724137931
 40
0.896551724137931
 40
0.896551724137931
 40
0.896551724137931
 40
0.9310344827586207
 40
0.9310344827586207
 40
0.9310344827586207
 40
0.9310344827586207
 40
1.0
 40
1.0
 40
1.0
 40
1.0
 10
-19.6712
 20
114.2982
 30
0.0
 10
-18.8537
 20
116.0222
 30
0.0
 10
-17.789
 20
116.0267
 30
0.0
 10
-17.0848
 20
114.2982
 30
0.0
 10
-17.0848
 20
114.2982
 30
0.0
 10
-17.0848
 20
114.2982
 30
0.0
 10
-17.0844
 20
114.2978
 30
0.0
 10
-17.0844
 20
114.2978
 30
0.0
 10
-17.0844
 20
114.2978
 30
0.0
 10
-17.0844
 20
114.2978
 30
0.0
 10
-17.0844
 20
114.2982
 30
0.0
 10
-17.0844
 20
114.2982
 30
0.0
 10
-17.0844
 20
114.2982
 30
0.0
 10
-17.0844
 20
114.2982
 30
0.0
 10
-17.0771
 20
114.2835
 30
0.0
 10
-17.0771
 20
114.2835
 30
0.0
 10
-17.0771
 20
114.2835
 30
0.0
 10
-16.7371
 20
113.613
 30
0.0
 10
-16.2126
 20
112.9007
 30
0.0
 10
-15.5897
 20
112.2669
 30
0.0
 10
-15.5897
 20
112.2669
 30
0.0
 10
-15.5897
 20
112.2669
 30
0.0
 10
-15.5893
 20
112.2666
 30
0.0
 10
-15.5893
 20
112.2666
 30
0.0
 10
-15.5893
 20
112.2666
 30
0.0
 10
-15.5893
 20
112.2666
 30
0.0
 10
-15.5798
 20
112.2568
 30
0.0
 10
-15.5798
 20
112.2568
 30
0.0
 10
-15.5798
 20
112.2568
 30
0.0
 10
-14.9287
 20
111.6079
 30
0.0
 10
-14.1903
 20
111.0604
 30
0.0
 10
-13.4978
 20
110.712
 30
0.0
 10
-13.4978
 20
110.712
 30
0.0
 10
-11.7695
 20
110.0076
 30
0.0
 10
-11.774
 20
108.9429
 30
0.0
 10
-13.4978
 20
108.1254
 30
0.0
 10
-13.4978
 20
108.1254
 30
0.0
 10
-13.4978
 20
108.1254
 30
0.0
 10
-13.4978
 20
108.1252
 30
0.0
 10
-13.4978
 20
108.1252
 30
0.0
 10
-13.4978
 20
108.1252
 30
0.0
 10
-13.4978
 20
108.1252
 30
0.0
 10
-13.4984
 20
108.125
 30
0.0
 10
-13.4984
 20
108.125
 30
0.0
 10
-13.4984
 20
108.125
 30
0.0
 10
-13.4984
 20
108.125
 30
0.0
 10
-13.498
 20
108.125
 30
0.0
 10
-13.498
 20
108.125
 30
0.0
 10
-13.498
 20
108.125
 30
0.0
 10
-14.1802
 20
107.7802
 30
0.0
 10
-14.9087
 20
107.2437
 30
0.0
 10
-15.5535
 20
106.6069
 30
0.0
 10
-15.5535
 20
106.6069
 30
0.0
 10
-16.1966
 20
105.959
 30
0.0
 10
-16.7381
 20
105.2261
 30
0.0
 10
-17.0842
 20
104.5386
 30
0.0
 10
-17.0842
 20
104.5386
 30
0.0
 10
-17.7886
 20
102.8101
 30
0.0
 10
-18.8532
 20
102.8147
 30
0.0
 10
-19.6708
 20
104.5386
 30
0.0
 10
-19.6708
 20
104.5386
 30
0.0
 10
-19.6708
 20
104.5386
 30
0.0
 10
-19.671
 20
104.5386
 30
0.0
 10
-19.671
 20
104.5386
 30
0.0
 10
-19.671
 20
104.5386
 30
0.0
 10
-19.671
 20
104.5386
 30
0.0
 10
-19.6712
 20
104.539
 30
0.0
 10
-19.6712
 20
104.539
 30
0.0
 10
-19.6712
 20
104.539
 30
0.0
 10
-19.6712
 20
104.539
 30
0.0
 10
-19.6712
 20
104.5388
 30
0.0
 10
-19.6712
 20
104.5388
 30
0.0
 10
-19.6712
 20
104.5388
 30
0.0
 10
-20.016
 20
105.2208
 30
0.0
 10
-20.5524
 20
105.9495
 30
0.0
 10
-21.1894
 20
106.5941
 30
0.0
 10
-21.1894
 20
106.5941
 30
0.0
 10
-21.8372
 20
107.2372
 30
0.0
 10
-22.5701
 20
107.7787
 30
0.0
 10
-23.2576
 20
108.125
 30
0.0
 10
-23.2576
 20
108.125
 30
0.0
 10
-24.9816
 20
108.9425
 30
0.0
 10
-24.9861
 20
110.0072
 30
0.0
 10
-23.2576
 20
110.7115
 30
0.0
 10
-23.2576
 20
110.7115
 30
0.0
 10
-23.2576
 20
110.7115
 30
0.0
 10
-23.2572
 20
110.7116
 30
0.0
 10
-23.2572
 20
110.7116
 30
0.0
 10
-23.2572
 20
110.7116
 30
0.0
 10
-23.2572
 20
110.7116
 30
0.0
 10
-23.2576
 20
110.7116
 30
0.0
 10
-23.2576
 20
110.7116
 30
0.0
 10
-23.2576
 20
110.7116
 30
0.0
 10
-23.2576
 20
110.7116
 30
0.0
 10
-23.2429
 20
110.7189
 30
0.0
 10
-23.2429
 20
110.7189
 30
0.0
 10
-23.2429
 20
110.7189
 30
0.0
 10
-22.5724
 20
111.0585
 30
0.0
 10
-21.8603
 20
111.5836
 30
0.0
 10
-21.226
 20
112.2067
 30
0.0
 10
-21.226
 20
112.2067
 30
0.0
 10
-21.226
 20
112.2067
 30
0.0
 10
-21.225
 20
112.2077
 30
0.0
 10
-21.225
 20
112.2077
 30
0.0
 10
-21.225
 20
112.2077
 30
0.0
 10
-21.225
 20
112.2077
 30
0.0
 10
-21.2157
 20
112.2172
 30
0.0
 10
-21.2157
 20
112.2172
 30
0.0
 10
-21.2157
 20
112.2172
 30
0.0
 10
-20.5663
 20
112.8683
 30
0.0
 10
-20.0198
 20
113.6059
 30
0.0
 10
-19.6712
 20
114.2982
 30
0.0
  0
SPLINE
  5
9C
330
1F
100
AcDbEntity
  8
layer 1
 62
     7
100
AcDbSpline
210
0.0
220
0.0
230
1.0
 70
    11
 71
     3
 72
    20
 73
    16
 74
     0
 42
0.0000000001
 43
0.0000000001
 12
1.0
 22
0.0
 32
0.0
 13
1.0
 23
0.0
 33
0.0
 40
0.0
 40
0.0
 40
0.0
 40
0.0
 40
0.2
 40
0.2
 40
0.2
 40
0.2
 40
0.4
 40
0.4
 40
0.4
 40
0.4
 40
0.6
 40
0.6
 40
0.6
 40
0.6
 40
1.0
 40
1.0
 40
1.0
 40
1.0
 10
-19.6712
 20
59.2732
 30
0.0
 10
-20.7186
 20
64.7726
 30
0.0
 10
-24.0691
 20
68.1232
 30
0.0
 10
-29.7233
 20
69.326
 30
0.0
 10
-29.7233
 20
69.326
 30
0.0
 10
-29.7233
 20
69.326
 30
0.0
 10
-35.5576
 20
69.326
 30
0.0
 10
-35.5576
 20
69.326
 30
0.0
 10
-35.5576
 20
69.326
 30
0.0
 10
-34.9277
 20
60.8437
 30
0.0
 10
-28.1533
 20
54.0692
 30
0.0
 10
-19.6712
 20
53.439
 30
0.0
 10
-19.6712
 20
53.439
 30
0.0
 10
-19.6712
 20
53.439
 30
0.0
 10
-19.6712
 20
59.2732
 30
0.0
 10
-19.6712
 20
59.2732
 30
0.0
  0
SPLINE
  5
9D
330
1F
100
AcDbEntity
  8
layer 1
 62
     7
100
AcDbSpline
210
0.0
220
0.0
230
1.0
 70
    11
 71
     3
 72
    20
 73
    16
 74
     0
 42
0.0000000001
 43
0.0000000001
 12
1.0
 22
0.0
 32
0.0
 13
1.0
 23
0.0
 33
0.0
 40
0.0
 40
0.0
 40
0.0
 40
0.0
 40
0.2
 40
0.2
 40
0.2
 40
0.2
 40
0.4
 40
0.4
 40
0.4
 40
0.4
 40
0.6
 40
0.6
 40
0.6
 40
0.6
 40
1.0
 40
1.0
 40
1.0
 40
1.0
 10
-35.5573
 20
71.9127
 30
0.0
 10
-35.5573
 20
71.9127
 30
0.0
 10
-29.7243
 20
71.9127
 30
0.0
 10
-29.7243
 20
71.9127
 30
0.0
 10
-29.7243
 20
71.9127
 30
0.0
 10
-24.0695
 20
73.1154
 30
0.0
 10
-20.7186
 20
76.4661
 30
0.0
 10
-19.6712
 20
81.9657
 30
0.0
 10
-19.6712
 20
81.9657
 30
0.0
 10
-19.6712
 20
81.9657
 30
0.0
 10
-19.6712
 20
87.7989
 30
0.0
 10
-19.6712
 20
87.7989
 30
0.0
 10
-19.6712
 20
87.7989
 30
0.0
 10
-28.1533
 20
87.1686
 30
0.0
 10
-34.9273
 20
80.3946
 30
0.0
 10
-35.5573
 20
71.9127
 30
0.0
  0
SPLINE
  5
9E
330
1F
100
AcDbEntity
  8
layer 1
 62
     7
100
AcDbSpline
210
0.0
220
0.0
230
1.0
 70
    11
 71
     3
 72
    20
 73
    16
 74
     0
 42
0.0000000001
 43
0.0000000001
 12
1.0
 22
0.0
 32
0.0
 13
1.0
 23
0.0
 33
0.0
 40
0.0
 40
0.0
 40
0.0
 40
0.0
 40
0.2
 40
0.2
 40
0.2
 40
0.2
 40
0.4
 40
0.4
 40
0.4
 40
0.4
 40
0.6
 40
0.6
 40
0.6
 40
0.6
 40
1.0
 40
1.0
 40
1.0
 40
1.0
 10
-17.0848
 20
87.7989
 30
0.0
 10
-17.0848
 20
87.7989
 30
0.0
 10
-17.0848
 20
81.9657
 30
0.0
 10
-17.0848
 20
81.9657
 30
0.0
 10
-17.0848
 20
81.9657
 30
0.0
 10
-16.0374
 20
76.4661
 30
0.0
 10
-12.6864
 20
73.1154
 30
0.0
 10
-7.0317
 20
71.9127
 30
0.0
 10
-7.0317
 20
71.9127
 30
0.0
 10
-7.0317
 20
71.9127
 30
0.0
 10
-1.1983
 20
71.9127
 30
0.0
 10
-1.1983
 20
71.9127
 30
0.0
 10
-1.1983
 20
71.9127
 30
0.0
 10
-1.8285
 20
80.3946
 30
0.0
 10
-8.6026
 20
87.1686
 30
0.0
 10
-17.0848
 20
87.7989
 30
0.0
  0
SPLINE
  5
9F
330
1F
100
AcDbEntity
  8
layer 1
 62
     7
100
AcDbSpline
210
0.0
220
0.0
230
1.0
 70
    11
 71
     3
 72
    20
 73
    16
 74
     0
 42
0.0000000001
 43
0.0000000001
 12
1.0
 22
0.0
 32
0.0
 13
1.0
 23
0.0
 33
0.0
 40
0.0
 40
0.0
 40
0.0
 40
0.0
 40
0.2
 40
0.2
 40
0.2
 40
0.2
 40
0.4
 40
0.4
 40
0.4
 40
0.4
 40
0.6
 40
0.6
 40
0.6
 40
0.6
 40
1.0
 40
1.0
 40
1.0
 40
1.0
 10
-1.1982
 20
69.326
 30
0.0
 10
-1.1982
 20
69.326
 30
0.0
 10
-7.0326
 20
69.326
 30
0.0
 10
-7.0326
 20
69.326
 30
0.0
 10
-7.0326
 20
69.326
 30
0.0
 10
-12.6868
 20
68.1232
 30
0.0
 10
-16.0374
 20
64.7726
 30
0.0
 10
-17.0848
 20
59.2732
 30
0.0
 10
-17.0848
 20
59.2732
 30
0.0
 10
-17.0848
 20
59.2732
 30
0.0
 10
-17.0848
 20
53.439
 30
0.0
 10
-17.0848
 20
53.439
 30
0.0
 10
-17.0848
 20
53.439
 30
0.0
 10
-8.6022
 20
54.0692
 30
0.0
 10
-1.8281
 20
60.8437
 30
0.0
 10
-1.1982
 20
69.326
 30
0.0
  0
SPLINE
  5
A0
330
1F
100
AcDbEntity
  8
layer 1
 62
     7
100
AcDbSpline
210
0.0
220
0.0
230
1.0
 70
    11
 71
     3
 72
   116
 73
   112
 74
     0
 42
0.0000000001
 43
0.0000000001
 12
1.0
 22
0.0
 32
0.0
 13
1.0
 23
0.0
 33
0.0
 40
0.0
 40
0.0
 40
0.0
 40
0.0
 40
0.0344827586206897
 40
0.0344827586206897
 40
0.0344827586206897
 40
0.0344827586206897
 40
0.0689655172413793
 40
0.0689655172413793
 40
0.0689655172413793
 40
0.0689655172413793
 40
0.103448275862069
 40
0.103448275862069
 40
0.103448275862069
 40
0.103448275862069
 40
0.1379310344827586
 40
0.1379310344827586
 40
0.1379310344827586
 40
0.1379310344827586
 40
0.1724137931034483
 40
0.1724137931034483
 40
0.1724137931034483
 40
0.1724137931034483
 40
0.2068965517241379
 40
0.2068965517241379
 40
0.2068965517241379
 40
0.2068965517241379
 40
0.2413793103448276
 40
0.2413793103448276
 40
0.2413793103448276
 40
0.2413793103448276
 40
0.2758620689655172
 40
0.2758620689655172
 40
0.2758620689655172
 40
0.2758620689655172
 40
0.3103448275862069
 40
0.3103448275862069
 40
0.3103448275862069
 40
0.3103448275862069
 40
0.3448275862068966
 40
0.3448275862068966
 40
0.3448275862068966
 40
0.3448275862068966
 40
0.3793103448275862
 40
0.3793103448275862
 40
0.3793103448275862
 40
0.3793103448275862
 40
0.4137931034482759
 40
0.4137931034482759
 40
0.4137931034482759
 40
0.4137931034482759
 40
0.4482758620689655
 40
0.4482758620689655
 40
0.4482758620689655
 40
0.4482758620689655
 40
0.4827586206896552
 40
0.4827586206896552
 40
0.4827586206896552
 40
0.4827586206896552
 40
0.5172413793103449
 40
0.5172413793103449
 40
0.5172413793103449
 40
0.5172413793103449
 40
0.5517241379310345
 40
0.5517241379310345
 40
0.5517241379310345
 40
0.5517241379310345
 40
0.5862068965517241
 40
0.5862068965517241
 40
0.5862068965517241
 40
0.5862068965517241
 40
0.6206896551724138
 40
0.6206896551724138
 40
0.6206896551724138
 40
0.6206896551724138
 40
0.6551724137931034
 40
0.6551724137931034
 40
0.6551724137931034
 40
0.6551724137931034
 40
0.6896551724137931
 40
0.6896551724137931
 40
0.6896551724137931
 40
0.6896551724137931
 40
0.7241379310344828
 40
0.7241379310344828
 40
0.7241379310344828
 40
0.7241379310344828
 40
0.7586206896551724
 40
0.7586206896551724
 40
0.7586206896551724
 40
0.7586206896551724
 40
0.7931034482758621
 40
0.7931034482758621
 40
0.7931034482758621
 40
0.7931034482758621
 40
0.8275862068965517
 40
0.8275862068965517
 40
0.8275862068965517
 40
0.8275862068965517
 40
0.8620689655172413
 40
0.8620689655172413
 40
0.8620689655172413
 40
0.8620689655172413
 40
0.896551724137931
 40
0.896551724137931
 40
0.896551724137931
 40
0.896551724137931
 40
0.9310344827586207
 40
0.9310344827586207
 40
0.9310344827586207
 40
0.9310344827586207
 40
1.0
 40
1.0
 40
1.0
 40
1.0
 10
-19.6712
 20
75.4992
 30
0.0
 10
-18.8537
 20
77.2232
 30
0.0
 10
-17.789
 20
77.2276
 30
0.0
 10
-17.0848
 20
75.4992
 30
0.0
 10
-17.0848
 20
75.4992
 30
0.0
 10
-17.0848
 20
75.4992
 30
0.0
 10
-17.0844
 20
75.4987
 30
0.0
 10
-17.0844
 20
75.4987
 30
0.0
 10
-17.0844
 20
75.4987
 30
0.0
 10
-17.0844
 20
75.4987
 30
0.0
 10
-17.0844
 20
75.4992
 30
0.0
 10
-17.0844
 20
75.4992
 30
0.0
 10
-17.0844
 20
75.4992
 30
0.0
 10
-17.0844
 20
75.4992
 30
0.0
 10
-17.0771
 20
75.4844
 30
0.0
 10
-17.0771
 20
75.4844
 30
0.0
 10
-17.0771
 20
75.4844
 30
0.0
 10
-16.7371
 20
74.814
 30
0.0
 10
-16.2126
 20
74.1015
 30
0.0
 10
-15.5897
 20
73.4678
 30
0.0
 10
-15.5897
 20
73.4678
 30
0.0
 10
-15.5897
 20
73.4678
 30
0.0
 10
-15.5893
 20
73.4674
 30
0.0
 10
-15.5893
 20
73.4674
 30
0.0
 10
-15.5893
 20
73.4674
 30
0.0
 10
-15.5893
 20
73.4674
 30
0.0
 10
-15.5798
 20
73.4577
 30
0.0
 10
-15.5798
 20
73.4577
 30
0.0
 10
-15.5798
 20
73.4577
 30
0.0
 10
-14.9287
 20
72.8087
 30
0.0
 10
-14.1903
 20
72.2615
 30
0.0
 10
-13.4978
 20
71.9129
 30
0.0
 10
-13.4978
 20
71.9129
 30
0.0
 10
-11.7695
 20
71.2084
 30
0.0
 10
-11.774
 20
70.1439
 30
0.0
 10
-13.4978
 20
69.3262
 30
0.0
 10
-13.4978
 20
69.3262
 30
0.0
 10
-13.4978
 20
69.3262
 30
0.0
 10
-13.4978
 20
69.326
 30
0.0
 10
-13.4978
 20
69.326
 30
0.0
 10
-13.4978
 20
69.326
 30
0.0
 10
-13.4978
 20
69.326
 30
0.0
 10
-13.4984
 20
69.3258
 30
0.0
 10
-13.4984
 20
69.3258
 30
0.0
 10
-13.4984
 20
69.3258
 30
0.0
 10
-13.4984
 20
69.3258
 30
0.0
 10
-13.498
 20
69.3258
 30
0.0
 10
-13.498
 20
69.3258
 30
0.0
 10
-13.498
 20
69.3258
 30
0.0
 10
-14.1802
 20
68.9812
 30
0.0
 10
-14.9087
 20
68.4447
 30
0.0
 10
-15.5535
 20
67.8077
 30
0.0
 10
-15.5535
 20
67.8077
 30
0.0
 10
-16.1966
 20
67.16
 30
0.0
 10
-16.7381
 20
66.4272
 30
0.0
 10
-17.0842
 20
65.7395
 30
0.0
 10
-17.0842
 20
65.7395
 30
0.0
 10
-17.7886
 20
64.0109
 30
0.0
 10
-18.8532
 20
64.0155
 30
0.0
 10
-19.6708
 20
65.7395
 30
0.0
 10
-19.6708
 20
65.7395
 30
0.0
 10
-19.6708
 20
65.7395
 30
0.0
 10
-19.671
 20
65.7395
 30
0.0
 10
-19.671
 20
65.7395
 30
0.0
 10
-19.671
 20
65.7395
 30
0.0
 10
-19.671
 20
65.7395
 30
0.0
 10
-19.6712
 20
65.7399
 30
0.0
 10
-19.6712
 20
65.7399
 30
0.0
 10
-19.6712
 20
65.7399
 30
0.0
 10
-19.6712
 20
65.7399
 30
0.0
 10
-19.6712
 20
65.7397
 30
0.0
 10
-19.6712
 20
65.7397
 30
0.0
 10
-19.6712
 20
65.7397
 30
0.0
 10
-20.016
 20
66.4217
 30
0.0
 10
-20.5524
 20
67.1503
 30
0.0
 10
-21.1894
 20
67.7949
 30
0.0
 10
-21.1894
 20
67.7949
 30
0.0
 10
-21.8372
 20
68.4382
 30
0.0
 10
-22.5701
 20
68.9797
 30
0.0
 10
-23.2576
 20
69.3258
 30
0.0
 10
-23.2576
 20
69.3258
 30
0.0
 10
-24.9816
 20
70.1433
 30
0.0
 10
-24.9861
 20
71.208
 30
0.0
 10
-23.2576
 20
71.9125
 30
0.0
 10
-23.2576
 20
71.9125
 30
0.0
 10
-23.2576
 20
71.9125
 30
0.0
 10
-23.2572
 20
71.9127
 30
0.0
 10
-23.2572
 20
71.9127
 30
0.0
 10
-23.2572
 20
71.9127
 30
0.0
 10
-23.2572
 20
71.9127
 30
0.0
 10
-23.2576
 20
71.9127
 30
0.0
 10
-23.2576
 20
71.9127
 30
0.0
 10
-23.2576
 20
71.9127
 30
0.0
 10
-23.2576
 20
71.9127
 30
0.0
 10
-23.2429
 20
71.9197
 30
0.0
 10
-23.2429
 20
71.9197
 30
0.0
 10
-23.2429
 20
71.9197
 30
0.0
 10
-22.5724
 20
72.2594
 30
0.0
 10
-21.8603
 20
72.7845
 30
0.0
 10
-21.226
 20
73.4078
 30
0.0
 10
-21.226
 20
73.4078
 30
0.0
 10
-21.226
 20
73.4078
 30
0.0
 10
-21.225
 20
73.4085
 30
0.0
 10
-21.225
 20
73.4085
 30
0.0
 10
-21.225
 20
73.4085
 30
0.0
 10
-21.225
 20
73.4085
 30
0.0
 10
-21.2157
 20
73.4181
 30
0.0
 10
-21.2157
 20
73.4181
 30
0.0
 10
-21.2157
 20
73.4181
 30
0.0
 10
-20.5663
 20
74.0691
 30
0.0
 10
-20.0198
 20
74.8068
 30
0.0
 10
-19.6712
 20
75.4992
 30
0.0
  0
SPLINE
  5
A1
330
1F
100
AcDbEntity
  8
layer 1
 62
     7
100
AcDbSpline
210
0.0
220
0.0
230
1.0
 70
    11
 71
     3
 72
    20
 73
    16
 74
     0
 42
0.0000000001
 43
0.0000000001
 12
1.0
 22
0.0
 32
0.0
 13
1.0
 23
0.0
 33
0.0
 40
0.0
 40
0.0
 40
0.0
 40
0.0
 40
0.2
 40
0.2
 40
0.2
 40
0.2
 40
0.4
 40
0.4
 40
0.4
 40
0.4
 40
0.6
 40
0.6
 40
0.6
 40
0.6
 40
1.0
 40
1.0
 40
1.0
 40
1.0
 10
-19.6712
 20
20.4742
 30
0.0
 10
-20.7186
 20
25.9734
 30
0.0
 10
-24.0691
 20
29.3238
 30
0.0
 10
-29.7233
 20
30.5269
 30
0.0
 10
-29.7233
 20
30.5269
 30
0.0
 10
-29.7233
 20
30.5269
 30
0.0
 10
-35.5576
 20
30.5269
 30
0.0
 10
-35.5576
 20
30.5269
 30
0.0
 10
-35.5576
 20
30.5269
 30
0.0
 10
-34.9277
 20
22.0446
 30
0.0
 10
-28.1533
 20
15.27
 30
0.0
 10
-19.6712
 20
14.6401
 30
0.0
 10
-19.6712
 20
14.6401
 30
0.0
 10
-19.6712
 20
14.6401
 30
0.0
 10
-19.6712
 20
20.4742
 30
0.0
 10
-19.6712
 20
20.4742
 30
0.0
  0
SPLINE
  5
A2
330
1F
100
AcDbEntity
  8
layer 1
 62
     7
100
AcDbSpline
210
0.0
220
0.0
230
1.0
 70
    11
 71
     3
 72
    20
 73
    16
 74
     0
 42
0.0000000001
 43
0.0000000001
 12
1.0
 22
0.0
 32
0.0
 13
1.0
 23
0.0
 33
0.0
 40
0.0
 40
0.0
 40
0.0
 40
0.0
 40
0.2
 40
0.2
 40
0.2
 40
0.2
 40
0.4
 40
0.4
 40
0.4
 40
0.4
 40
0.6
 40
0.6
 40
0.6
 40
0.6
 40
1.0
 40
1.0
 40
1.0
 40
1.0
 10
-35.5573
 20
33.1135
 30
0.0
 10
-35.5573
 20
33.1135
 30
0.0
 10
-29.7243
 20
33.1135
 30
0.0
 10
-29.7243
 20
33.1135
 30
0.0
 10
-29.7243
 20
33.1135
 30
0.0
 10
-24.0695
 20
34.3162
 30
0.0
 10
-20.7186
 20
37.667
 30
0.0
 10
-19.6712
 20
43.1666
 30
0.0
 10
-19.6712
 20
43.1666
 30
0.0
 10
-19.6712
 20
43.1666
 30
0.0
 10
-19.6712
 20
48.9998
 30
0.0
 10
-19.6712
 20
48.9998
 30
0.0
 10
-19.6712
 20
48.9998
 30
0.0
 10
-28.1533
 20
48.3696
 30
0.0
 10
-34.9273
 20
41.5955
 30
0.0
 10
-35.5573
 20
33.1135
 30
0.0
  0
SPLINE
  5
A3
330
1F
100
AcDbEntity
  8
layer 1
 62
     7
100
AcDbSpline
210
0.0
220
0.0
230
1.0
 70
    11
 71
     3
 72
    20
 73
    16
 74
     0
 42
0.0000000001
 43
0.0000000001
 12
1.0
 22
0.0
 32
0.0
 13
1.0
 23
0.0
 33
0.0
 40
0.0
 40
0.0
 40
0.0
 40
0.0
 40
0.2
 40
0.2
 40
0.2
 40
0.2
 40
0.4
 40
0.4
 40
0.4
 40
0.4
 40
0.6
 40
0.6
 40
0.6
 40
0.6
 40
1.0
 40
1.0
 40
1.0
 40
1.0
 10
-17.0848
 20
48.9998
 30
0.0
 10
-17.0848
 20
48.9998
 30
0.0
 10
-17.0848
 20
43.1666
 30
0.0
 10
-17.0848
 20
43.1666
 30
0.0
 10
-17.0848
 20
43.1666
 30
0.0
 10
-16.0374
 20
37.667
 30
0.0
 10
-12.6864
 20
34.3162
 30
0.0
 10
-7.0317
 20
33.1135
 30
0.0
 10
-7.0317
 20
33.1135
 30
0.0
 10
-7.0317
 20
33.1135
 30
0.0
 10
-1.1983
 20
33.1135
 30
0.0
 10
-1.1983
 20
33.1135
 30
0.0
 10
-1.1983
 20
33.1135
 30
0.0
 10
-1.8285
 20
41.5955
 30
0.0
 10
-8.6026
 20
48.3696
 30
0.0
 10
-17.0848
 20
48.9998
 30
0.0
  0
SPLINE
  5
A4
330
1F
100
AcDbEntity
  8
layer 1
 62
     7
100
AcDbSpline
210
0.0
220
0.0
230
1.0
 70
    11
 71
     3
 72
    20
 73
    16
 74
     0
 42
0.0000000001
 43
0.0000000001
 12
1.0
 22
0.0
 32
0.0
 13
1.0
 23
0.0
 33
0.0
 40
0.0
 40
0.0
 40
0.0
 40
0.0
 40
0.2
 40
0.2
 40
0.2
 40
0.2
 40
0.4
 40
0.4
 40
0.4
 40
0.4
 40
0.6
 40
0.6
 40
0.6
 40
0.6
 40
1.0
 40
1.0
 40
1.0
 40
1.0
 10
-1.1982
 20
30.5269
 30
0.0
 10
-1.1982
 20
30.5269
 30
0.0
 10
-7.0326
 20
30.5269
 30
0.0
 10
-7.0326
 20
30.5269
 30
0.0
 10
-7.0326
 20
30.5269
 30
0.0
 10
-12.6868
 20
29.3238
 30
0.0
 10
-16.0374
 20
25.9734
 30
0.0
 10
-17.0848
 20
20.4742
 30
0.0
 10
-17.0848
 20
20.4742
 30
0.0
 10
-17.0848
 20
20.4742
 30
0.0
 10
-17.0848
 20
14.6401
 30
0.0
 10
-17.0848
 20
14.6401
 30
0.0
 10
-17.0848
 20
14.6401
 30
0.0
 10
-8.6022
 20
15.27
 30
0.0
 10
-1.8281
 20
22.0446
 30
0.0
 10
-1.1982
 20
30.5269
 30
0.0
  0
SPLINE
  5
A5
330
1F
100
AcDbEntity
  8
layer 1
 62
     7
100
AcDbSpline
210
0.0
220
0.0
230
1.0
 70
    11
 71
     3
 72
   116
 73
   112
 74
     0
 42
0.0000000001
 43
0.0000000001
 12
1.0
 22
0.0
 32
0.0
 13
1.0
 23
0.0
 33
0.0
 40
0.0
 40
0.0
 40
0.0
 40
0.0
 40
0.0344827586206897
 40
0.0344827586206897
 40
0.0344827586206897
 40
0.0344827586206897
 40
0.0689655172413793
 40
0.0689655172413793
 40
0.0689655172413793
 40
0.0689655172413793
 40
0.103448275862069
 40
0.103448275862069
 40
0.103448275862069
 40
0.103448275862069
 40
0.1379310344827586
 40
0.1379310344827586
 40
0.1379310344827586
 40
0.1379310344827586
 40
0.1724137931034483
 40
0.1724137931034483
 40
0.1724137931034483
 40
0.1724137931034483
 40
0.2068965517241379
 40
0.2068965517241379
 40
0.2068965517241379
 40
0.2068965517241379
 40
0.2413793103448276
 40
0.2413793103448276
 40
0.2413793103448276
 40
0.2413793103448276
 40
0.2758620689655172
 40
0.2758620689655172
 40
0.2758620689655172
 40
0.2758620689655172
 40
0.3103448275862069
 40
0.3103448275862069
 40
0.3103448275862069
 40
0.3103448275862069
 40
0.3448275862068966
 40
0.3448275862068966
 40
0.3448275862068966
 40
0.3448275862068966
 40
0.3793103448275862
 40
0.3793103448275862
 40
0.3793103448275862
 40
0.3793103448275862
 40
0.4137931034482759
 40
0.4137931034482759
 40
0.4137931034482759
 40
0.4137931034482759
 40
0.4482758620689655
 40
0.4482758620689655
 40
0.4482758620689655
 40
0.4482758620689655
 40
0.4827586206896552
 40
0.4827586206896552
 40
0.4827586206896552
 40
0.4827586206896552
 40
0.5172413793103449
 40
0.5172413793103449
 40
0.5172413793103449
 40
0.5172413793103449
 40
0.5517241379310345
 40
0.5517241379310345
 40
0.5517241379310345
 40
0.5517241379310345
 40
0.5862068965517241
 40
0.5862068965517241
 40
0.5862068965517241
 40
0.5862068965517241
 40
0.6206896551724138
 40
0.6206896551724138
 40
0.6206896551724138
 40
0.6206896551724138
 40
0.6551724137931034
 40
0.6551724137931034
 40
0.6551724137931034
 40
0.6551724137931034
 40
0.6896551724137931
 40
0.6896551724137931
 40
0.6896551724137931
 40
0.6896551724137931
 40
0.7241379310344828
 40
0.7241379310344828
 40
0.7241379310344828
 40
0.7241379310344828
 40
0.7586206896551724
 40
0.7586206896551724
 40
0.7586206896551724
 40
0.7586206896551724
 40
0.7931034482758621
 40
0.7931034482758621
 40
0.7931034482758621
 40
0.7931034482758621
 40
0.8275862068965517
 40
0.8275862068965517
 40
0.8275862068965517
 40
0.8275862068965517
 40
0.8620689655172413
 40
0.8620689655172413
 40
0.8620689655172413
 40
0.8620689655172413
 40
0.896551724137931
 40
0.896551724137931
 40
0.896551724137931
 40
0.896551724137931
 40
0.9310344827586207
 40
0.9310344827586207
 40
0.9310344827586207
 40
0.9310344827586207
 40
1.0
 40
1.0
 40
1.0
 40
1.0
 10
-19.6712
 20
36.7001
 30
0.0
 10
-18.8537
 20
38.4241
 30
0.0
 10
-17.789
 20
38.4286
 30
0.0
 10
-17.0848
 20
36.7001
 30
0.0
 10
-17.0848
 20
36.7001
 30
0.0
 10
-17.0848
 20
36.7001
 30
0.0
 10
-17.0844
 20
36.6997
 30
0.0
 10
-17.0844
 20
36.6997
 30
0.0
 10
-17.0844
 20
36.6997
 30
0.0
 10
-17.0844
 20
36.6997
 30
0.0
 10
-17.0844
 20
36.7001
 30
0.0
 10
-17.0844
 20
36.7001
 30
0.0
 10
-17.0844
 20
36.7001
 30
0.0
 10
-17.0844
 20
36.7001
 30
0.0
 10
-17.0771
 20
36.6852
 30
0.0
 10
-17.0771
 20
36.6852
 30
0.0
 10
-17.0771
 20
36.6852
 30
0.0
 10
-16.7371
 20
36.0149
 30
0.0
 10
-16.2126
 20
35.3024
 30
0.0
 10
-15.5897
 20
34.6688
 30
0.0
 10
-15.5897
 20
34.6688
 30
0.0
 10
-15.5897
 20
34.6688
 30
0.0
 10
-15.5893
 20
34.6683
 30
0.0
 10
-15.5893
 20
34.6683
 30
0.0
 10
-15.5893
 20
34.6683
 30
0.0
 10
-15.5893
 20
34.6683
 30
0.0
 10
-15.5798
 20
34.6585
 30
0.0
 10
-15.5798
 20
34.6585
 30
0.0
 10
-15.5798
 20
34.6585
 30
0.0
 10
-14.9287
 20
34.0097
 30
0.0
 10
-14.1903
 20
33.4623
 30
0.0
 10
-13.4978
 20
33.1137
 30
0.0
 10
-13.4978
 20
33.1137
 30
0.0
 10
-11.7695
 20
32.4093
 30
0.0
 10
-11.774
 20
31.3448
 30
0.0
 10
-13.4978
 20
30.5271
 30
0.0
 10
-13.4978
 20
30.5271
 30
0.0
 10
-13.4978
 20
30.5271
 30
0.0
 10
-13.4978
 20
30.5269
 30
0.0
 10
-13.4978
 20
30.5269
 30
0.0
 10
-13.4978
 20
30.5269
 30
0.0
 10
-13.4978
 20
30.5269
 30
0.0
 10
-13.4984
 20
30.5267
 30
0.0
 10
-13.4984
 20
30.5267
 30
0.0
 10
-13.4984
 20
30.5267
 30
0.0
 10
-13.4984
 20
30.5267
 30
0.0
 10
-13.498
 20
30.5267
 30
0.0
 10
-13.498
 20
30.5267
 30
0.0
 10
-13.498
 20
30.5267
 30
0.0
 10
-14.1802
 20
30.1821
 30
0.0
 10
-14.9087
 20
29.6455
 30
0.0
 10
-15.5535
 20
29.0086
 30
0.0
 10
-15.5535
 20
29.0086
 30
0.0
 10
-16.1966
 20
28.3609
 30
0.0
 10
-16.7381
 20
27.628
 30
0.0
 10
-17.0842
 20
26.9403
 30
0.0
 10
-17.0842
 20
26.9403
 30
0.0
 10
-17.7886
 20
25.212
 30
0.0
 10
-18.8532
 20
25.2164
 30
0.0
 10
-19.6708
 20
26.9403
 30
0.0
 10
-19.6708
 20
26.9403
 30
0.0
 10
-19.6708
 20
26.9403
 30
0.0
 10
-19.671
 20
26.9403
 30
0.0
 10
-19.671
 20
26.9403
 30
0.0
 10
-19.671
 20
26.9403
 30
0.0
 10
-19.671
 20
26.9403
 30
0.0
 10
-19.6712
 20
26.9409
 30
0.0
 10
-19.6712
 20
26.9409
 30
0.0
 10
-19.6712
 20
26.9409
 30
0.0
 10
-19.6712
 20
26.9409
 30
0.0
 10
-19.6712
 20
26.9405
 30
0.0
 10
-19.6712
 20
26.9405
 30
0.0
 10
-19.6712
 20
26.9405
 30
0.0
 10
-20.016
 20
27.6227
 30
0.0
 10
-20.5524
 20
28.3512
 30
0.0
 10
-21.1894
 20
28.996
 30
0.0
 10
-21.1894
 20
28.996
 30
0.0
 10
-21.8372
 20
29.6391
 30
0.0
 10
-22.5701
 20
30.1806
 30
0.0
 10
-23.2576
 20
30.5267
 30
0.0
 10
-23.2576
 20
30.5267
 30
0.0
 10
-24.9816
 20
31.3444
 30
0.0
 10
-24.9861
 20
32.4089
 30
0.0
 10
-23.2576
 20
33.1133
 30
0.0
 10
-23.2576
 20
33.1133
 30
0.0
 10
-23.2576
 20
33.1133
 30
0.0
 10
-23.2572
 20
33.1135
 30
0.0
 10
-23.2572
 20
33.1135
 30
0.0
 10
-23.2572
 20
33.1135
 30
0.0
 10
-23.2572
 20
33.1135
 30
0.0
 10
-23.2576
 20
33.1135
 30
0.0
 10
-23.2576
 20
33.1135
 30
0.0
 10
-23.2576
 20
33.1135
 30
0.0
 10
-23.2576
 20
33.1135
 30
0.0
 10
-23.2429
 20
33.1206
 30
0.0
 10
-23.2429
 20
33.1206
 30
0.0
 10
-23.2429
 20
33.1206
 30
0.0
 10
-22.5724
 20
33.4604
 30
0.0
 10
-21.8603
 20
33.9855
 30
0.0
 10
-21.226
 20
34.6086
 30
0.0
 10
-21.226
 20
34.6086
 30
0.0
 10
-21.226
 20
34.6086
 30
0.0
 10
-21.225
 20
34.6096
 30
0.0
 10
-21.225
 20
34.6096
 30
0.0
 10
-21.225
 20
34.6096
 30
0.0
 10
-21.225
 20
34.6096
 30
0.0
 10
-21.2157
 20
34.6191
 30
0.0
 10
-21.2157
 20
34.6191
 30
0.0
 10
-21.2157
 20
34.6191
 30
0.0
 10
-20.5663
 20
35.2702
 30
0.0
 10
-20.0198
 20
36.0078
 30
0.0
 10
-19.6712
 20
36.7001
 30
0.0
  0
SPLINE
  5
A6
330
1F
100
AcDbEntity
  8
layer 1
 62
     7
100
AcDbSpline
210
0.0
220
0.0
230
1.0
 70
    11
 71
     3
 72
    20
 73
    16
 74
     0
 42
0.0000000001
 43
0.0000000001
 12
1.0
 22
0.0
 32
0.0
 13
1.0
 23
0.0
 33
0.0
 40
0.0
 40
0.0
 40
0.0
 40
0.0
 40
0.2
 40
0.2
 40
0.2
 40
0.2
 40
0.4
 40
0.4
 40
0.4
 40
0.4
 40
0.6
 40
0.6
 40
0.6
 40
0.6
 40
1.0
 40
1.0
 40
1.0
 40
1.0
 10
-19.6712
 20
-18.325
 30
0.0
 10
-20.7186
 20
-12.8255
 30
0.0
 10
-24.0691
 20
-9.4752
 30
0.0
 10
-29.7233
 20
-8.2721
 30
0.0
 10
-29.7233
 20
-8.2721
 30
0.0
 10
-29.7233
 20
-8.2721
 30
0.0
 10
-35.5576
 20
-8.2721
 30
0.0
 10
-35.5576
 20
-8.2721
 30
0.0
 10
-35.5576
 20
-8.2721
 30
0.0
 10
-34.9277
 20
-16.7544
 30
0.0
 10
-28.1533
 20
-23.5289
 30
0.0
 10
-19.6712
 20
-24.1591
 30
0.0
 10
-19.6712
 20
-24.1591
 30
0.0
 10
-19.6712
 20
-24.1591
 30
0.0
 10
-19.6712
 20
-18.325
 30
0.0
 10
-19.6712
 20
-18.325
 30
0.0
  0
SPLINE
  5
A7
330
1F
100
AcDbEntity
  8
layer 1
 62
     7
100
AcDbSpline
210
0.0
220
0.0
230
1.0
 70
    11
 71
     3
 72
    20
 73
    16
 74
     0
 42
0.0000000001
 43
0.0000000001
 12
1.0
 22
0.0
 32
0.0
 13
1.0
 23
0.0
 33
0.0
 40
0.0
 40
0.0
 40
0.0
 40
0.0
 40
0.2
 40
0.2
 40
0.2
 40
0.2
 40
0.4
 40
0.4
 40
0.4
 40
0.4
 40
0.6
 40
0.6
 40
0.6
 40
0.6
 40
1.0
 40
1.0
 40
1.0
 40
1.0
 10
-35.5573
 20
-5.6856
 30
0.0
 10
-35.5573
 20
-5.6856
 30
0.0
 10
-29.7243
 20
-5.6856
 30
0.0
 10
-29.7243
 20
-5.6856
 30
0.0
 10
-29.7243
 20
-5.6856
 30
0.0
 10
-24.0695
 20
-4.4827
 30
0.0
 10
-20.7186
 20
-1.132
 30
0.0
 10
-19.6712
 20
4.3674
 30
0.0
 10
-19.6712
 20
4.3674
 30
0.0
 10
-19.6712
 20
4.3674
 30
0.0
 10
-19.6712
 20
10.2008
 30
0.0
 10
-19.6712
 20
10.2008
 30
0.0
 10
-19.6712
 20
10.2008
 30
0.0
 10
-28.1533
 20
9.5705
 30
0.0
 10
-34.9273
 20
2.7963
 30
0.0
 10
-35.5573
 20
-5.6856
 30
0.0
  0
SPLINE
  5
A8
330
1F
100
AcDbEntity
  8
layer 1
 62
     7
100
AcDbSpline
210
0.0
220
0.0
230
1.0
 70
    11
 71
     3
 72
    20
 73
    16
 74
     0
 42
0.0000000001
 43
0.0000000001
 12
1.0
 22
0.0
 32
0.0
 13
1.0
 23
0.0
 33
0.0
 40
0.0
 40
0.0
 40
0.0
 40
0.0
 40
0.2
 40
0.2
 40
0.2
 40
0.2
 40
0.4
 40
0.4
 40
0.4
 40
0.4
 40
0.6
 40
0.6
 40
0.6
 40
0.6
 40
1.0
 40
1.0
 40
1.0
 40
1.0
 10
-17.0848
 20
10.2008
 30
0.0
 10
-17.0848
 20
10.2008
 30
0.0
 10
-17.0848
 20
4.3674
 30
0.0
 10
-17.0848
 20
4.3674
 30
0.0
 10
-17.0848
 20
4.3674
 30
0.0
 10
-16.0374
 20
-1.132
 30
0.0
 10
-12.6864
 20
-4.4827
 30
0.0
 10
-7.0317
 20
-5.6856
 30
0.0
 10
-7.0317
 20
-5.6856
 30
0.0
 10
-7.0317
 20
-5.6856
 30
0.0
 10
-1.1983
 20
-5.6856
 30
0.0
 10
-1.1983
 20
-5.6856
 30
0.0
 10
-1.1983
 20
-5.6856
 30
0.0
 10
-1.8285
 20
2.7963
 30
0.0
 10
-8.6026
 20
9.5705
 30
0.0
 10
-17.0848
 20
10.2008
 30
0.0
  0
SPLINE
  5
A9
330
1F
100
AcDbEntity
  8
layer 1
 62
     7
100
AcDbSpline
210
0.0
220
0.0
230
1.0
 70
    11
 71
     3
 72
    20
 73
    16
 74
     0
 42
0.0000000001
 43
0.0000000001
 12
1.0
 22
0.0
 32
0.0
 13
1.0
 23
0.0
 33
0.0
 40
0.0
 40
0.0
 40
0.0
 40
0.0
 40
0.2
 40
0.2
 40
0.2
 40
0.2
 40
0.4
 40
0.4
 40
0.4
 40
0.4
 40
0.6
 40
0.6
 40
0.6
 40
0.6
 40
1.0
 40
1.0
 40
1.0
 40
1.0
 10
-1.1982
 20
-8.2721
 30
0.0
 10
-1.1982
 20
-8.2721
 30
0.0
 10
-7.0326
 20
-8.2721
 30
0.0
 10
-7.0326
 20
-8.2721
 30
0.0
 10
-7.0326
 20
-8.2721
 30
0.0
 10
-12.6868
 20
-9.4752
 30
0.0
 10
-16.0374
 20
-12.8255
 30
0.0
 10
-17.0848
 20
-18.325
 30
0.0
 10
-17.0848
 20
-18.325
 30
0.0
 10
-17.0848
 20
-18.325
 30
0.0
 10
-17.0848
 20
-24.1591
 30
0.0
 10
-17.0848
 20
-24.1591
 30
0.0
 10
-17.0848
 20
-24.1591
 30
0.0
 10
-8.6022
 20
-23.5289
 30
0.0
 10
-1.8281
 20
-16.7544
 30
0.0
 10
-1.1982
 20
-8.2721
 30
0.0
  0
SPLINE
  5
AA
330
1F
100
AcDbEntity
  8
layer 1
 62
     7
100
AcDbSpline
210
0.0
220
0.0
230
1.0
 70
    11
 71
     3
 72
   116
 73
   112
 74
     0
 42
0.0000000001
 43
0.0000000001
 12
1.0
 22
0.0
 32
0.0
 13
1.0
 23
0.0
 33
0.0
 40
0.0
 40
0.0
 40
0.0
 40
0.0
 40
0.0344827586206897
 40
0.0344827586206897
 40
0.0344827586206897
 40
0.0344827586206897
 40
0.0689655172413793
 40
0.0689655172413793
 40
0.0689655172413793
 40
0.0689655172413793
 40
0.103448275862069
 40
0.103448275862069
 40
0.103448275862069
 40
0.103448275862069
 40
0.1379310344827586
 40
0.1379310344827586
 40
0.1379310344827586
 40
0.1379310344827586
 40
0.1724137931034483
 40
0.1724137931034483
 40
0.1724137931034483
 40
0.1724137931034483
 40
0.2068965517241379
 40
0.2068965517241379
 40
0.2068965517241379
 40
0.2068965517241379
 40
0.2413793103448276
 40
0.2413793103448276
 40
0.2413793103448276
 40
0.2413793103448276
 40
0.2758620689655172
 40
0.2758620689655172
 40
0.2758620689655172
 40
0.2758620689655172
 40
0.3103448275862069
 40
0.3103448275862069
 40
0.3103448275862069
 40
0.3103448275862069
 40
0.3448275862068966
 40
0.3448275862068966
 40
0.3448275862068966
 40
0.3448275862068966
 40
0.3793103448275862
 40
0.3793103448275862
 40
0.3793103448275862
 40
0.3793103448275862
 40
0.4137931034482759
 40
0.4137931034482759
 40
0.4137931034482759
 40
0.4137931034482759
 40
0.4482758620689655
 40
0.4482758620689655
 40
0.4482758620689655
 40
0.4482758620689655
 40
0.4827586206896552
 40
0.4827586206896552
 40
0.4827586206896552
 40
0.4827586206896552
 40
0.5172413793103449
 40
0.5172413793103449
 40
0.5172413793103449
 40
0.5172413793103449
 40
0.5517241379310345
 40
0.5517241379310345
 40
0.5517241379310345
 40
0.5517241379310345
 40
0.5862068965517241
 40
0.5862068965517241
 40
0.5862068965517241
 40
0.5862068965517241
 40
0.6206896551724138
 40
0.6206896551724138
 40
0.6206896551724138
 40
0.6206896551724138
 40
0.6551724137931034
 40
0.6551724137931034
 40
0.6551724137931034
 40
0.6551724137931034
 40
0.6896551724137931
 40
0.6896551724137931
 40
0.6896551724137931
 40
0.6896551724137931
 40
0.7241379310344828
 40
0.7241379310344828
 40
0.7241379310344828
 40
0.7241379310344828
 40
0.7586206896551724
 40
0.7586206896551724
 40
0.7586206896551724
 40
0.7586206896551724
 40
0.7931034482758621
 40
0.7931034482758621
 40
0.7931034482758621
 40
0.7931034482758621
 40
0.8275862068965517
 40
0.8275862068965517
 40
0.8275862068965517
 40
0.8275862068965517
 40
0.8620689655172413
 40
0.8620689655172413
 40
0.8620689655172413
 40
0.8620689655172413
 40
0.896551724137931
 40
0.896551724137931
 40
0.896551724137931
 40
0.896551724137931
 40
0.9310344827586207
 40
0.9310344827586207
 40
0.9310344827586207
 40
0.9310344827586207
 40
1.0
 40
1.0
 40
1.0
 40
1.0
 10
-19.6712
 20
-2.0991
 30
0.0
 10
-18.8537
 20
-0.3751
 30
0.0
 10
-17.789
 20
-0.3705
 30
0.0
 10
-17.0848
 20
-2.0991
 30
0.0
 10
-17.0848
 20
-2.0991
 30
0.0
 10
-17.0848
 20
-2.0991
 30
0.0
 10
-17.0844
 20
-2.0995
 30
0.0
 10
-17.0844
 20
-2.0995
 30
0.0
 10
-17.0844
 20
-2.0995
 30
0.0
 10
-17.0844
 20
-2.0995
 30
0.0
 10
-17.0844
 20
-2.0991
 30
0.0
 10
-17.0844
 20
-2.0991
 30
0.0
 10
-17.0844
 20
-2.0991
 30
0.0
 10
-17.0844
 20
-2.0991
 30
0.0
 10
-17.0771
 20
-2.1139
 30
0.0
 10
-17.0771
 20
-2.1139
 30
0.0
 10
-17.0771
 20
-2.1139
 30
0.0
 10
-16.7371
 20
-2.7841
 30
0.0
 10
-16.2126
 20
-3.4966
 30
0.0
 10
-15.5897
 20
-4.1303
 30
0.0
 10
-15.5897
 20
-4.1303
 30
0.0
 10
-15.5897
 20
-4.1303
 30
0.0
 10
-15.5893
 20
-4.1307
 30
0.0
 10
-15.5893
 20
-4.1307
 30
0.0
 10
-15.5893
 20
-4.1307
 30
0.0
 10
-15.5893
 20
-4.1307
 30
0.0
 10
-15.5798
 20
-4.1406
 30
0.0
 10
-15.5798
 20
-4.1406
 30
0.0
 10
-15.5798
 20
-4.1406
 30
0.0
 10
-14.9287
 20
-4.7896
 30
0.0
 10
-14.1903
 20
-5.3368
 30
0.0
 10
-13.4978
 20
-5.6854
 30
0.0
 10
-13.4978
 20
-5.6854
 30
0.0
 10
-11.7695
 20
-6.3897
 30
0.0
 10
-11.774
 20
-7.4544
 30
0.0
 10
-13.4978
 20
-8.2719
 30
0.0
 10
-13.4978
 20
-8.2719
 30
0.0
 10
-13.4978
 20
-8.2719
 30
0.0
 10
-13.4978
 20
-8.2721
 30
0.0
 10
-13.4978
 20
-8.2721
 30
0.0
 10
-13.4978
 20
-8.2721
 30
0.0
 10
-13.4978
 20
-8.2721
 30
0.0
 10
-13.4984
 20
-8.2723
 30
0.0
 10
-13.4984
 20
-8.2723
 30
0.0
 10
-13.4984
 20
-8.2723
 30
0.0
 10
-13.4984
 20
-8.2723
 30
0.0
 10
-13.498
 20
-8.2723
 30
0.0
 10
-13.498
 20
-8.2723
 30
0.0
 10
-13.498
 20
-8.2723
 30
0.0
 10
-14.1802
 20
-8.6171
 30
0.0
 10
-14.9087
 20
-9.1536
 30
0.0
 10
-15.5535
 20
-9.7906
 30
0.0
 10
-15.5535
 20
-9.7906
 30
0.0
 10
-16.1966
 20
-10.4383
 30
0.0
 10
-16.7381
 20
-11.1711
 30
0.0
 10
-17.0842
 20
-11.8586
 30
0.0
 10
-17.0842
 20
-11.8586
 30
0.0
 10
-17.7886
 20
-13.5872
 30
0.0
 10
-18.8532
 20
-13.5826
 30
0.0
 10
-19.6708
 20
-11.8586
 30
0.0
 10
-19.6708
 20
-11.8586
 30
0.0
 10
-19.6708
 20
-11.8586
 30
0.0
 10
-19.671
 20
-11.8586
 30
0.0
 10
-19.671
 20
-11.8586
 30
0.0
 10
-19.671
 20
-11.8586
 30
0.0
 10
-19.671
 20
-11.8586
 30
0.0
 10
-19.6712
 20
-11.8582
 30
0.0
 10
-19.6712
 20
-11.8582
 30
0.0
 10
-19.6712
 20
-11.8582
 30
0.0
 10
-19.6712
 20
-11.8582
 30
0.0
 10
-19.6712
 20
-11.8584
 30
0.0
 10
-19.6712
 20
-11.8584
 30
0.0
 10
-19.6712
 20
-11.8584
 30
0.0
 10
-20.016
 20
-11.1765
 30
0.0
 10
-20.5524
 20
-10.448
 30
0.0
 10
-21.1894
 20
-9.8032
 30
0.0
 10
-21.1894
 20
-9.8032
 30
0.0
 10
-21.8372
 20
-9.1601
 30
0.0
 10
-22.5701
 20
-8.6186
 30
0.0
 10
-23.2576
 20
-8.2723
 30
0.0
 10
-23.2576
 20
-8.2723
 30
0.0
 10
-24.9816
 20
-7.4548
 30
0.0
 10
-24.9861
 20
-6.3903
 30
0.0
 10
-23.2576
 20
-5.6858
 30
0.0
 10
-23.2576
 20
-5.6858
 30
0.0
 10
-23.2576
 20
-5.6858
 30
0.0
 10
-23.2572
 20
-5.6856
 30
0.0
 10
-23.2572
 20
-5.6856
 30
0.0
 10
-23.2572
 20
-5.6856
 30
0.0
 10
-23.2572
 20
-5.6856
 30
0.0
 10
-23.2576
 20
-5.6856
 30
0.0
 10
-23.2576
 20
-5.6856
 30
0.0
 10
-23.2576
 20
-5.6856
 30
0.0
 10
-23.2576
 20
-5.6856
 30
0.0
 10
-23.2429
 20
-5.6784
 30
0.0
 10
-23.2429
 20
-5.6784
 30
0.0
 10
-23.2429
 20
-5.6784
 30
0.0
 10
-22.5724
 20
-5.3387
 30
0.0
 10
-21.8603
 20
-4.8136
 30
0.0
 10
-21.226
 20
-4.1905
 30
0.0
 10
-21.226
 20
-4.1905
 30
0.0
 10
-21.226
 20
-4.1905
 30
0.0
 10
-21.225
 20
-4.1896
 30
0.0
 10
-21.225
 20
-4.1896
 30
0.0
 10
-21.225
 20
-4.1896
 30
0.0
 10
-21.225
 20
-4.1896
 30
0.0
 10
-21.2157
 20
-4.1803
 30
0.0
 10
-21.2157
 20
-4.1803
 30
0.0
 10
-21.2157
 20
-4.1803
 30
0.0
 10
-20.5663
 20
-3.529
 30
0.0
 10
-20.0198
 20
-2.7913
 30
0.0
 10
-19.6712
 20
-2.0991
 30
0.0
  0
SPLINE
  5
AB
330
1F
100
AcDbEntity
  8
layer 1
 62
     7
100
AcDbSpline
210
0.0
220
0.0
230
1.0
 70
    11
 71
     3
 72
    20
 73
    16
 74
     0
 42
0.0000000001
 43
0.0000000001
 12
1.0
 22
0.0
 32
0.0
 13
1.0
 23
0.0
 33
0.0
 40
0.0
 40
0.0
 40
0.0
 40
0.0
 40
0.2
 40
0.2
 40
0.2
 40
0.2
 40
0.4
 40
0.4
 40
0.4
 40
0.4
 40
0.6
 40
0.6
 40
0.6
 40
0.6
 40
1.0
 40
1.0
 40
1.0
 40
1.0
 10
-19.6712
 20
-57.1241
 30
0.0
 10
-20.7186
 20
-51.6247
 30
0.0
 10
-24.0691
 20
-48.2741
 30
0.0
 10
-29.7233
 20
-47.0712
 30
0.0
 10
-29.7233
 20
-47.0712
 30
0.0
 10
-29.7233
 20
-47.0712
 30
0.0
 10
-35.5576
 20
-47.0712
 30
0.0
 10
-35.5576
 20
-47.0712
 30
0.0
 10
-35.5576
 20
-47.0712
 30
0.0
 10
-34.9277
 20
-55.5536
 30
0.0
 10
-28.1533
 20
-62.3281
 30
0.0
 10
-19.6712
 20
-62.9582
 30
0.0
 10
-19.6712
 20
-62.9582
 30
0.0
 10
-19.6712
 20
-62.9582
 30
0.0
 10
-19.6712
 20
-57.1241
 30
0.0
 10
-19.6712
 20
-57.1241
 30
0.0
  0
SPLINE
  5
AC
330
1F
100
AcDbEntity
  8
layer 1
 62
     7
100
AcDbSpline
210
0.0
220
0.0
230
1.0
 70
    11
 71
     3
 72
    20
 73
    16
 74
     0
 42
0.0000000001
 43
0.0000000001
 12
1.0
 22
0.0
 32
0.0
 13
1.0
 23
0.0
 33
0.0
 40
0.0
 40
0.0
 40
0.0
 40
0.0
 40
0.2
 40
0.2
 40
0.2
 40
0.2
 40
0.4
 40
0.4
 40
0.4
 40
0.4
 40
0.6
 40
0.6
 40
0.6
 40
0.6
 40
1.0
 40
1.0
 40
1.0
 40
1.0
 10
-35.5573
 20
-44.4846
 30
0.0
 10
-35.5573
 20
-44.4846
 30
0.0
 10
-29.7243
 20
-44.4846
 30
0.0
 10
-29.7243
 20
-44.4846
 30
0.0
 10
-29.7243
 20
-44.4846
 30
0.0
 10
-24.0695
 20
-43.2819
 30
0.0
 10
-20.7186
 20
-39.9311
 30
0.0
 10
-19.6712
 20
-34.4315
 30
0.0
 10
-19.6712
 20
-34.4315
 30
0.0
 10
-19.6712
 20
-34.4315
 30
0.0
 10
-19.6712
 20
-28.5984
 30
0.0
 10
-19.6712
 20
-28.5984
 30
0.0
 10
-19.6712
 20
-28.5984
 30
0.0
 10
-28.1533
 20
-29.2287
 30
0.0
 10
-34.9273
 20
-36.0026
 30
0.0
 10
-35.5573
 20
-44.4846
 30
0.0
  0
SPLINE
  5
AD
330
1F
100
AcDbEntity
  8
layer 1
 62
     7
100
AcDbSpline
210
0.0
220
0.0
230
1.0
 70
    11
 71
     3
 72
    20
 73
    16
 74
     0
 42
0.0000000001
 43
0.0000000001
 12
1.0
 22
0.0
 32
0.0
 13
1.0
 23
0.0
 33
0.0
 40
0.0
 40
0.0
 40
0.0
 40
0.0
 40
0.2
 40
0.2
 40
0.2
 40
0.2
 40
0.4
 40
0.4
 40
0.4
 40
0.4
 40
0.6
 40
0.6
 40
0.6
 40
0.6
 40
1.0
 40
1.0
 40
1.0
 40
1.0
 10
-17.0848
 20
-28.5984
 30
0.0
 10
-17.0848
 20
-28.5984
 30
0.0
 10
-17.0848
 20
-34.4315
 30
0.0
 10
-17.0848
 20
-34.4315
 30
0.0
 10
-17.0848
 20
-34.4315
 30
0.0
 10
-16.0374
 20
-39.9311
 30
0.0
 10
-12.6864
 20
-43.2819
 30
0.0
 10
-7.0317
 20
-44.4846
 30
0.0
 10
-7.0317
 20
-44.4846
 30
0.0
 10
-7.0317
 20
-44.4846
 30
0.0
 10
-1.1983
 20
-44.4846
 30
0.0
 10
-1.1983
 20
-44.4846
 30
0.0
 10
-1.1983
 20
-44.4846
 30
0.0
 10
-1.8285
 20
-36.0026
 30
0.0
 10
-8.6026
 20
-29.2287
 30
0.0
 10
-17.0848
 20
-28.5984
 30
0.0
  0
SPLINE
  5
AE
330
1F
100
AcDbEntity
  8
layer 1
 62
     7
100
AcDbSpline
210
0.0
220
0.0
230
1.0
 70
    11
 71
     3
 72
    20
 73
    16
 74
     0
 42
0.0000000001
 43
0.0000000001
 12
1.0
 22
0.0
 32
0.0
 13
1.0
 23
0.0
 33
0.0
 40
0.0
 40
0.0
 40
0.0
 40
0.0
 40
0.2
 40
0.2
 40
0.2
 40
0.2
 40
0.4
 40
0.4
 40
0.4
 40
0.4
 40
0.6
 40
0.6
 40
0.6
 40
0.6
 40
1.0
 40
1.0
 40
1.0
 40
1.0
 10
-1.1982
 20
-47.0712
 30
0.0
 10
-1.1982
 20
-47.0712
 30
0.0
 10
-7.0326
 20
-47.0712
 30
0.0
 10
-7.0326
 20
-47.0712
 30
0.0
 10
-7.0326
 20
-47.0712
 30
0.0
 10
-12.6868
 20
-48.2741
 30
0.0
 10
-16.0374
 20
-51.6247
 30
0.0
 10
-17.0848
 20
-57.1241
 30
0.0
 10
-17.0848
 20
-57.1241
 30
0.0
 10
-17.0848
 20
-57.1241
 30
0.0
 10
-17.0848
 20
-62.9582
 30
0.0
 10
-17.0848
 20
-62.9582
 30
0.0
 10
-17.0848
 20
-62.9582
 30
0.0
 10
-8.6022
 20
-62.3281
 30
0.0
 10
-1.8281
 20
-55.5536
 30
0.0
 10
-1.1982
 20
-47.0712
 30
0.0
  0
SPLINE
  5
AF
330
1F
100
AcDbEntity
  8
layer 1
 62
     7
100
AcDbSpline
210
0.0
220
0.0
230
1.0
 70
    11
 71
     3
 72
   116
 73
   112
 74
     0
 42
0.0000000001
 43
0.0000000001
 12
1.0
 22
0.0
 32
0.0
 13
1.0
 23
0.0
 33
0.0
 40
0.0
 40
0.0
 40
0.0
 40
0.0
 40
0.0344827586206897
 40
0.0344827586206897
 40
0.0344827586206897
 40
0.0344827586206897
 40
0.0689655172413793
 40
0.0689655172413793
 40
0.0689655172413793
 40
0.0689655172413793
 40
0.103448275862069
 40
0.103448275862069
 40
0.103448275862069
 40
0.103448275862069
 40
0.1379310344827586
 40
0.1379310344827586
 40
0.1379310344827586
 40
0.1379310344827586
 40
0.1724137931034483
 40
0.1724137931034483
 40
0.1724137931034483
 40
0.1724137931034483
 40
0.2068965517241379
 40
0.2068965517241379
 40
0.2068965517241379
 40
0.2068965517241379
 40
0.2413793103448276
 40
0.2413793103448276
 40
0.2413793103448276
 40
0.2413793103448276
 40
0.2758620689655172
 40
0.2758620689655172
 40
0.2758620689655172
 40
0.2758620689655172
 40
0.3103448275862069
 40
0.3103448275862069
 40
0.3103448275862069
 40
0.3103448275862069
 40
0.3448275862068966
 40
0.3448275862068966
 40
0.3448275862068966
 40
0.3448275862068966
 40
0.3793103448275862
 40
0.3793103448275862
 40
0.3793103448275862
 40
0.3793103448275862
 40
0.4137931034482759
 40
0.4137931034482759
 40
0.4137931034482759
 40
0.4137931034482759
 40
0.4482758620689655
 40
0.4482758620689655
 40
0.4482758620689655
 40
0.4482758620689655
 40
0.4827586206896552
 40
0.4827586206896552
 40
0.4827586206896552
 40
0.4827586206896552
 40
0.5172413793103449
 40
0.5172413793103449
 40
0.5172413793103449
 40
0.5172413793103449
 40
0.5517241379310345
 40
0.5517241379310345
 40
0.5517241379310345
 40
0.5517241379310345
 40
0.5862068965517241
 40
0.5862068965517241
 40
0.5862068965517241
 40
0.5862068965517241
 40
0.6206896551724138
 40
0.6206896551724138
 40
0.6206896551724138
 40
0.6206896551724138
 40
0.6551724137931034
 40
0.6551724137931034
 40
0.6551724137931034
 40
0.6551724137931034
 40
0.6896551724137931
 40
0.6896551724137931
 40
0.6896551724137931
 40
0.6896551724137931
 40
0.7241379310344828
 40
0.7241379310344828
 40
0.7241379310344828
 40
0.7241379310344828
 40
0.7586206896551724
 40
0.7586206896551724
 40
0.7586206896551724
 40
0.7586206896551724
 40
0.7931034482758621
 40
0.7931034482758621
 40
0.7931034482758621
 40
0.7931034482758621
 40
0.8275862068965517
 40
0.8275862068965517
 40
0.8275862068965517
 40
0.8275862068965517
 40
0.8620689655172413
 40
0.8620689655172413
 40
0.8620689655172413
 40
0.8620689655172413
 40
0.896551724137931
 40
0.896551724137931
 40
0.896551724137931
 40
0.896551724137931
 40
0.9310344827586207
 40
0.9310344827586207
 40
0.9310344827586207
 40
0.9310344827586207
 40
1.0
 40
1.0
 40
1.0
 40
1.0
 10
-19.6712
 20
-40.898
 30
0.0
 10
-18.8537
 20
-39.1741
 30
0.0
 10
-17.789
 20
-39.1697
 30
0.0
 10
-17.0848
 20
-40.898
 30
0.0
 10
-17.0848
 20
-40.898
 30
0.0
 10
-17.0848
 20
-40.898
 30
0.0
 10
-17.0844
 20
-40.8984
 30
0.0
 10
-17.0844
 20
-40.8984
 30
0.0
 10
-17.0844
 20
-40.8984
 30
0.0
 10
-17.0844
 20
-40.8984
 30
0.0
 10
-17.0844
 20
-40.898
 30
0.0
 10
-17.0844
 20
-40.898
 30
0.0
 10
-17.0844
 20
-40.898
 30
0.0
 10
-17.0844
 20
-40.898
 30
0.0
 10
-17.0771
 20
-40.9131
 30
0.0
 10
-17.0771
 20
-40.9131
 30
0.0
 10
-17.0771
 20
-40.9131
 30
0.0
 10
-16.7371
 20
-41.5833
 30
0.0
 10
-16.2126
 20
-42.2957
 30
0.0
 10
-15.5897
 20
-42.9295
 30
0.0
 10
-15.5897
 20
-42.9295
 30
0.0
 10
-15.5897
 20
-42.9295
 30
0.0
 10
-15.5893
 20
-42.9298
 30
0.0
 10
-15.5893
 20
-42.9298
 30
0.0
 10
-15.5893
 20
-42.9298
 30
0.0
 10
-15.5893
 20
-42.9298
 30
0.0
 10
-15.5798
 20
-42.9396
 30
0.0
 10
-15.5798
 20
-42.9396
 30
0.0
 10
-15.5798
 20
-42.9396
 30
0.0
 10
-14.9287
 20
-43.5886
 30
0.0
 10
-14.1903
 20
-44.1358
 30
0.0
 10
-13.4978
 20
-44.4844
 30
0.0
 10
-13.4978
 20
-44.4844
 30
0.0
 10
-11.7695
 20
-45.1889
 30
0.0
 10
-11.774
 20
-46.2536
 30
0.0
 10
-13.4978
 20
-47.071
 30
0.0
 10
-13.4978
 20
-47.071
 30
0.0
 10
-13.4978
 20
-47.071
 30
0.0
 10
-13.4978
 20
-47.0712
 30
0.0
 10
-13.4978
 20
-47.0712
 30
0.0
 10
-13.4978
 20
-47.0712
 30
0.0
 10
-13.4978
 20
-47.0712
 30
0.0
 10
-13.4984
 20
-47.0714
 30
0.0
 10
-13.4984
 20
-47.0714
 30
0.0
 10
-13.4984
 20
-47.0714
 30
0.0
 10
-13.4984
 20
-47.0714
 30
0.0
 10
-13.498
 20
-47.0714
 30
0.0
 10
-13.498
 20
-47.0714
 30
0.0
 10
-13.498
 20
-47.0714
 30
0.0
 10
-14.1802
 20
-47.4162
 30
0.0
 10
-14.9087
 20
-47.9526
 30
0.0
 10
-15.5535
 20
-48.5896
 30
0.0
 10
-15.5535
 20
-48.5896
 30
0.0
 10
-16.1966
 20
-49.2372
 30
0.0
 10
-16.7381
 20
-49.9703
 30
0.0
 10
-17.0842
 20
-50.6578
 30
0.0
 10
-17.0842
 20
-50.6578
 30
0.0
 10
-17.7886
 20
-52.3863
 30
0.0
 10
-18.8532
 20
-52.3818
 30
0.0
 10
-19.6708
 20
-50.6578
 30
0.0
 10
-19.6708
 20
-50.6578
 30
0.0
 10
-19.6708
 20
-50.6578
 30
0.0
 10
-19.671
 20
-50.6578
 30
0.0
 10
-19.671
 20
-50.6578
 30
0.0
 10
-19.671
 20
-50.6578
 30
0.0
 10
-19.671
 20
-50.6578
 30
0.0
 10
-19.6712
 20
-50.6574
 30
0.0
 10
-19.6712
 20
-50.6574
 30
0.0
 10
-19.6712
 20
-50.6574
 30
0.0
 10
-19.6712
 20
-50.6574
 30
0.0
 10
-19.6712
 20
-50.6576
 30
0.0
 10
-19.6712
 20
-50.6576
 30
0.0
 10
-19.6712
 20
-50.6576
 30
0.0
 10
-20.016
 20
-49.9756
 30
0.0
 10
-20.5524
 20
-49.2469
 30
0.0
 10
-21.1894
 20
-48.6023
 30
0.0
 10
-21.1894
 20
-48.6023
 30
0.0
 10
-21.8372
 20
-47.9591
 30
0.0
 10
-22.5701
 20
-47.4176
 30
0.0
 10
-23.2576
 20
-47.0714
 30
0.0
 10
-23.2576
 20
-47.0714
 30
0.0
 10
-24.9816
 20
-46.2539
 30
0.0
 10
-24.9861
 20
-45.1892
 30
0.0
 10
-23.2576
 20
-44.4848
 30
0.0
 10
-23.2576
 20
-44.4848
 30
0.0
 10
-23.2576
 20
-44.4848
 30
0.0
 10
-23.2572
 20
-44.4846
 30
0.0
 10
-23.2572
 20
-44.4846
 30
0.0
 10
-23.2572
 20
-44.4846
 30
0.0
 10
-23.2572
 20
-44.4846
 30
0.0
 10
-23.2576
 20
-44.4846
 30
0.0
 10
-23.2576
 20
-44.4846
 30
0.0
 10
-23.2576
 20
-44.4846
 30
0.0
 10
-23.2576
 20
-44.4846
 30
0.0
 10
-23.2429
 20
-44.4775
 30
0.0
 10
-23.2429
 20
-44.4775
 30
0.0
 10
-23.2429
 20
-44.4775
 30
0.0
 10
-22.5724
 20
-44.1379
 30
0.0
 10
-21.8603
 20
-43.6128
 30
0.0
 10
-21.226
 20
-42.9895
 30
0.0
 10
-21.226
 20
-42.9895
 30
0.0
 10
-21.226
 20
-42.9895
 30
0.0
 10
-21.225
 20
-42.9887
 30
0.0
 10
-21.225
 20
-42.9887
 30
0.0
 10
-21.225
 20
-42.9887
 30
0.0
 10
-21.225
 20
-42.9887
 30
0.0
 10
-21.2157
 20
-42.9792
 30
0.0
 10
-21.2157
 20
-42.9792
 30
0.0
 10
-21.2157
 20
-42.9792
 30
0.0
 10
-20.5663
 20
-42.3281
 30
0.0
 10
-20.0198
 20
-41.5905
 30
0.0
 10
-19.6712
 20
-40.898
 30
0.0
  0
SPLINE
  5
B0
330
1F
100
AcDbEntity
  8
layer 1
 62
     7
100
AcDbSpline
210
0.0
220
0.0
230
1.0
 70
    11
 71
     3
 72
    20
 73
    16
 74
     0
 42
0.0000000001
 43
0.0000000001
 12
1.0
 22
0.0
 32
0.0
 13
1.0
 23
0.0
 33
0.0
 40
0.0
 40
0.0
 40
0.0
 40
0.0
 40
0.2
 40
0.2
 40
0.2
 40
0.2
 40
0.4
 40
0.4
 40
0.4
 40
0.4
 40
0.6
 40
0.6
 40
0.6
 40
0.6
 40
1.0
 40
1.0
 40
1.0
 40
1.0
 10
-19.6712
 20
-95.9233
 30
0.0
 10
-20.7186
 20
-90.4238
 30
0.0
 10
-24.0691
 20
-87.0733
 30
0.0
 10
-29.7233
 20
-85.8704
 30
0.0
 10
-29.7233
 20
-85.8704
 30
0.0
 10
-29.7233
 20
-85.8704
 30
0.0
 10
-35.5576
 20
-85.8704
 30
0.0
 10
-35.5576
 20
-85.8704
 30
0.0
 10
-35.5576
 20
-85.8704
 30
0.0
 10
-34.9277
 20
-94.3527
 30
0.0
 10
-28.1533
 20
-101.1272
 30
0.0
 10
-19.6712
 20
-101.7572
 30
0.0
 10
-19.6712
 20
-101.7572
 30
0.0
 10
-19.6712
 20
-101.7572
 30
0.0
 10
-19.6712
 20
-95.9233
 30
0.0
 10
-19.6712
 20
-95.9233
 30
0.0
  0
SPLINE
  5
B1
330
1F
100
AcDbEntity
  8
layer 1
 62
     7
100
AcDbSpline
210
0.0
220
0.0
230
1.0
 70
    11
 71
     3
 72
    20
 73
    16
 74
     0
 42
0.0000000001
 43
0.0000000001
 12
1.0
 22
0.0
 32
0.0
 13
1.0
 23
0.0
 33
0.0
 40
0.0
 40
0.0
 40
0.0
 40
0.0
 40
0.2
 40
0.2
 40
0.2
 40
0.2
 40
0.4
 40
0.4
 40
0.4
 40
0.4
 40
0.6
 40
0.6
 40
0.6
 40
0.6
 40
1.0
 40
1.0
 40
1.0
 40
1.0
 10
-35.5573
 20
-83.2837
 30
0.0
 10
-35.5573
 20
-83.2837
 30
0.0
 10
-29.7243
 20
-83.2837
 30
0.0
 10
-29.7243
 20
-83.2837
 30
0.0
 10
-29.7243
 20
-83.2837
 30
0.0
 10
-24.0695
 20
-82.081
 30
0.0
 10
-20.7186
 20
-78.7303
 30
0.0
 10
-19.6712
 20
-73.2307
 30
0.0
 10
-19.6712
 20
-73.2307
 30
0.0
 10
-19.6712
 20
-73.2307
 30
0.0
 10
-19.6712
 20
-67.3975
 30
0.0
 10
-19.6712
 20
-67.3975
 30
0.0
 10
-19.6712
 20
-67.3975
 30
0.0
 10
-28.1533
 20
-68.0276
 30
0.0
 10
-34.9273
 20
-74.8018
 30
0.0
 10
-35.5573
 20
-83.2837
 30
0.0
  0
SPLINE
  5
B2
330
1F
100
AcDbEntity
  8
layer 1
 62
     7
100
AcDbSpline
210
0.0
220
0.0
230
1.0
 70
    11
 71
     3
 72
    20
 73
    16
 74
     0
 42
0.0000000001
 43
0.0000000001
 12
1.0
 22
0.0
 32
0.0
 13
1.0
 23
0.0
 33
0.0
 40
0.0
 40
0.0
 40
0.0
 40
0.0
 40
0.2
 40
0.2
 40
0.2
 40
0.2
 40
0.4
 40
0.4
 40
0.4
 40
0.4
 40
0.6
 40
0.6
 40
0.6
 40
0.6
 40
1.0
 40
1.0
 40
1.0
 40
1.0
 10
-17.0848
 20
-67.3975
 30
0.0
 10
-17.0848
 20
-67.3975
 30
0.0
 10
-17.0848
 20
-73.2307
 30
0.0
 10
-17.0848
 20
-73.2307
 30
0.0
 10
-17.0848
 20
-73.2307
 30
0.0
 10
-16.0374
 20
-78.7303
 30
0.0
 10
-12.6864
 20
-82.081
 30
0.0
 10
-7.0317
 20
-83.2837
 30
0.0
 10
-7.0317
 20
-83.2837
 30
0.0
 10
-7.0317
 20
-83.2837
 30
0.0
 10
-1.1983
 20
-83.2837
 30
0.0
 10
-1.1983
 20
-83.2837
 30
0.0
 10
-1.1983
 20
-83.2837
 30
0.0
 10
-1.8285
 20
-74.8018
 30
0.0
 10
-8.6026
 20
-68.0276
 30
0.0
 10
-17.0848
 20
-67.3975
 30
0.0
  0
SPLINE
  5
B3
330
1F
100
AcDbEntity
  8
layer 1
 62
     7
100
AcDbSpline
210
0.0
220
0.0
230
1.0
 70
    11
 71
     3
 72
    20
 73
    16
 74
     0
 42
0.0000000001
 43
0.0000000001
 12
1.0
 22
0.0
 32
0.0
 13
1.0
 23
0.0
 33
0.0
 40
0.0
 40
0.0
 40
0.0
 40
0.0
 40
0.2
 40
0.2
 40
0.2
 40
0.2
 40
0.4
 40
0.4
 40
0.4
 40
0.4
 40
0.6
 40
0.6
 40
0.6
 40
0.6
 40
1.0
 40
1.0
 40
1.0
 40
1.0
 10
-1.1982
 20
-85.8704
 30
0.0
 10
-1.1982
 20
-85.8704
 30
0.0
 10
-7.0326
 20
-85.8704
 30
0.0
 10
-7.0326
 20
-85.8704
 30
0.0
 10
-7.0326
 20
-85.8704
 30
0.0
 10
-12.6868
 20
-87.0733
 30
0.0
 10
-16.0374
 20
-90.4238
 30
0.0
 10
-17.0848
 20
-95.9233
 30
0.0
 10
-17.0848
 20
-95.9233
 30
0.0
 10
-17.0848
 20
-95.9233
 30
0.0
 10
-17.0848
 20
-101.7572
 30
0.0
 10
-17.0848
 20
-101.7572
 30
0.0
 10
-17.0848
 20
-101.7572
 30
0.0
 10
-8.6022
 20
-101.1272
 30
0.0
 10
-1.8281
 20
-94.3527
 30
0.0
 10
-1.1982
 20
-85.8704
 30
0.0
  0
SPLINE
  5
B4
330
1F
100
AcDbEntity
  8
layer 1
 62
     7
100
AcDbSpline
210
0.0
220
0.0
230
1.0
 70
    11
 71
     3
 72
   116
 73
   112
 74
     0
 42
0.0000000001
 43
0.0000000001
 12
1.0
 22
0.0
 32
0.0
 13
1.0
 23
0.0
 33
0.0
 40
0.0
 40
0.0
 40
0.0
 40
0.0
 40
0.0344827586206897
 40
0.0344827586206897
 40
0.0344827586206897
 40
0.0344827586206897
 40
0.0689655172413793
 40
0.0689655172413793
 40
0.0689655172413793
 40
0.0689655172413793
 40
0.103448275862069
 40
0.103448275862069
 40
0.103448275862069
 40
0.103448275862069
 40
0.1379310344827586
 40
0.1379310344827586
 40
0.1379310344827586
 40
0.1379310344827586
 40
0.1724137931034483
 40
0.1724137931034483
 40
0.1724137931034483
 40
0.1724137931034483
 40
0.2068965517241379
 40
0.2068965517241379
 40
0.2068965517241379
 40
0.2068965517241379
 40
0.2413793103448276
 40
0.2413793103448276
 40
0.2413793103448276
 40
0.2413793103448276
 40
0.2758620689655172
 40
0.2758620689655172
 40
0.2758620689655172
 40
0.2758620689655172
 40
0.3103448275862069
 40
0.3103448275862069
 40
0.3103448275862069
 40
0.3103448275862069
 40
0.3448275862068966
 40
0.3448275862068966
 40
0.3448275862068966
 40
0.3448275862068966
 40
0.3793103448275862
 40
0.3793103448275862
 40
0.3793103448275862
 40
0.3793103448275862
 40
0.4137931034482759
 40
0.4137931034482759
 40
0.4137931034482759
 40
0.4137931034482759
 40
0.4482758620689655
 40
0.4482758620689655
 40
0.4482758620689655
 40
0.4482758620689655
 40
0.4827586206896552
 40
0.4827586206896552
 40
0.4827586206896552
 40
0.4827586206896552
 40
0.5172413793103449
 40
0.5172413793103449
 40
0.5172413793103449
 40
0.5172413793103449
 40
0.5517241379310345
 40
0.5517241379310345
 40
0.5517241379310345
 40
0.5517241379310345
 40
0.5862068965517241
 40
0.5862068965517241
 40
0.5862068965517241
 40
0.5862068965517241
 40
0.6206896551724138
 40
0.6206896551724138
 40
0.6206896551724138
 40
0.6206896551724138
 40
0.6551724137931034
 40
0.6551724137931034
 40
0.6551724137931034
 40
0.6551724137931034
 40
0.6896551724137931
 40
0.6896551724137931
 40
0.6896551724137931
 40
0.6896551724137931
 40
0.7241379310344828
 40
0.7241379310344828
 40
0.7241379310344828
 40
0.7241379310344828
 40
0.7586206896551724
 40
0.7586206896551724
 40
0.7586206896551724
 40
0.7586206896551724
 40
0.7931034482758621
 40
0.7931034482758621
 40
0.7931034482758621
 40
0.7931034482758621
 40
0.8275862068965517
 40
0.8275862068965517
 40
0.8275862068965517
 40
0.8275862068965517
 40
0.8620689655172413
 40
0.8620689655172413
 40
0.8620689655172413
 40
0.8620689655172413
 40
0.896551724137931
 40
0.896551724137931
 40
0.896551724137931
 40
0.896551724137931
 40
0.9310344827586207
 40
0.9310344827586207
 40
0.9310344827586207
 40
0.9310344827586207
 40
1.0
 40
1.0
 40
1.0
 40
1.0
 10
-19.6712
 20
-79.6972
 30
0.0
 10
-18.8537
 20
-77.9732
 30
0.0
 10
-17.789
 20
-77.9686
 30
0.0
 10
-17.0848
 20
-79.6972
 30
0.0
 10
-17.0848
 20
-79.6972
 30
0.0
 10
-17.0848
 20
-79.6972
 30
0.0
 10
-17.0844
 20
-79.6976
 30
0.0
 10
-17.0844
 20
-79.6976
 30
0.0
 10
-17.0844
 20
-79.6976
 30
0.0
 10
-17.0844
 20
-79.6976
 30
0.0
 10
-17.0844
 20
-79.6972
 30
0.0
 10
-17.0844
 20
-79.6972
 30
0.0
 10
-17.0844
 20
-79.6972
 30
0.0
 10
-17.0844
 20
-79.6972
 30
0.0
 10
-17.0771
 20
-79.7121
 30
0.0
 10
-17.0771
 20
-79.7121
 30
0.0
 10
-17.0771
 20
-79.7121
 30
0.0
 10
-16.7371
 20
-80.3824
 30
0.0
 10
-16.2126
 20
-81.0949
 30
0.0
 10
-15.5897
 20
-81.7286
 30
0.0
 10
-15.5897
 20
-81.7286
 30
0.0
 10
-15.5897
 20
-81.7286
 30
0.0
 10
-15.5893
 20
-81.729
 30
0.0
 10
-15.5893
 20
-81.729
 30
0.0
 10
-15.5893
 20
-81.729
 30
0.0
 10
-15.5893
 20
-81.729
 30
0.0
 10
-15.5798
 20
-81.7387
 30
0.0
 10
-15.5798
 20
-81.7387
 30
0.0
 10
-15.5798
 20
-81.7387
 30
0.0
 10
-14.9287
 20
-82.3877
 30
0.0
 10
-14.1903
 20
-82.9349
 30
0.0
 10
-13.4978
 20
-83.2835
 30
0.0
 10
-13.4978
 20
-83.2835
 30
0.0
 10
-11.7695
 20
-83.988
 30
0.0
 10
-11.774
 20
-85.0525
 30
0.0
 10
-13.4978
 20
-85.8702
 30
0.0
 10
-13.4978
 20
-85.8702
 30
0.0
 10
-13.4978
 20
-85.8702
 30
0.0
 10
-13.4978
 20
-85.8704
 30
0.0
 10
-13.4978
 20
-85.8704
 30
0.0
 10
-13.4978
 20
-85.8704
 30
0.0
 10
-13.4978
 20
-85.8704
 30
0.0
 10
-13.4984
 20
-85.8706
 30
0.0
 10
-13.4984
 20
-85.8706
 30
0.0
 10
-13.4984
 20
-85.8706
 30
0.0
 10
-13.4984
 20
-85.8706
 30
0.0
 10
-13.498
 20
-85.8706
 30
0.0
 10
-13.498
 20
-85.8706
 30
0.0
 10
-13.498
 20
-85.8706
 30
0.0
 10
-14.1802
 20
-86.2152
 30
0.0
 10
-14.9087
 20
-86.7517
 30
0.0
 10
-15.5535
 20
-87.3887
 30
0.0
 10
-15.5535
 20
-87.3887
 30
0.0
 10
-16.1966
 20
-88.0366
 30
0.0
 10
-16.7381
 20
-88.7692
 30
0.0
 10
-17.0842
 20
-89.4569
 30
0.0
 10
-17.0842
 20
-89.4569
 30
0.0
 10
-17.7886
 20
-91.1853
 30
0.0
 10
-18.8532
 20
-91.1809
 30
0.0
 10
-19.6708
 20
-89.4569
 30
0.0
 10
-19.6708
 20
-89.4569
 30
0.0
 10
-19.6708
 20
-89.4569
 30
0.0
 10
-19.671
 20
-89.4569
 30
0.0
 10
-19.671
 20
-89.4569
 30
0.0
 10
-19.671
 20
-89.4569
 30
0.0
 10
-19.671
 20
-89.4569
 30
0.0
 10
-19.6712
 20
-89.4565
 30
0.0
 10
-19.6712
 20
-89.4565
 30
0.0
 10
-19.6712
 20
-89.4565
 30
0.0
 10
-19.6712
 20
-89.4565
 30
0.0
 10
-19.6712
 20
-89.4567
 30
0.0
 10
-19.6712
 20
-89.4567
 30
0.0
 10
-19.6712
 20
-89.4567
 30
0.0
 10
-20.016
 20
-88.7746
 30
0.0
 10
-20.5524
 20
-88.0461
 30
0.0
 10
-21.1894
 20
-87.4015
 30
0.0
 10
-21.1894
 20
-87.4015
 30
0.0
 10
-21.8372
 20
-86.7582
 30
0.0
 10
-22.5701
 20
-86.2167
 30
0.0
 10
-23.2576
 20
-85.8706
 30
0.0
 10
-23.2576
 20
-85.8706
 30
0.0
 10
-24.9816
 20
-85.0529
 30
0.0
 10
-24.9861
 20
-83.9884
 30
0.0
 10
-23.2576
 20
-83.2839
 30
0.0
 10
-23.2576
 20
-83.2839
 30
0.0
 10
-23.2576
 20
-83.2839
 30
0.0
 10
-23.2572
 20
-83.2837
 30
0.0
 10
-23.2572
 20
-83.2837
 30
0.0
 10
-23.2572
 20
-83.2837
 30
0.0
 10
-23.2572
 20
-83.2837
 30
0.0
 10
-23.2576
 20
-83.2837
 30
0.0
 10
-23.2576
 20
-83.2837
 30
0.0
 10
-23.2576
 20
-83.2837
 30
0.0
 10
-23.2576
 20
-83.2837
 30
0.0
 10
-23.2429
 20
-83.2767
 30
0.0
 10
-23.2429
 20
-83.2767
 30
0.0
 10
-23.2429
 20
-83.2767
 30
0.0
 10
-22.5724
 20
-82.9368
 30
0.0
 10
-21.8603
 20
-82.4117
 30
0.0
 10
-21.226
 20
-81.7887
 30
0.0
 10
-21.226
 20
-81.7887
 30
0.0
 10
-21.226
 20
-81.7887
 30
0.0
 10
-21.225
 20
-81.7879
 30
0.0
 10
-21.225
 20
-81.7879
 30
0.0
 10
-21.225
 20
-81.7879
 30
0.0
 10
-21.225
 20
-81.7879
 30
0.0
 10
-21.2157
 20
-81.7784
 30
0.0
 10
-21.2157
 20
-81.7784
 30
0.0
 10
-21.2157
 20
-81.7784
 30
0.0
 10
-20.5663
 20
-81.1273
 30
0.0
 10
-20.0198
 20
-80.3895
 30
0.0
 10
-19.6712
 20
-79.6972
 30
0.0
  0
ENDSEC
  0
SECTION
  2
OBJECTS
  0
DICTIONARY
  5
C
330
0
100
AcDbDictionary
281
     1
  3
ACAD_GROUP
350
D
  3
ACAD_LAYOUT
350
1A
  3
ACAD_MATERIAL
350
3B
  3
ACAD_MLEADERSTYLE
350
D7
  3
ACAD_MLINESTYLE
350
17
  3
ACAD_PLOTSETTINGS
350
19
  3
ACAD_PLOTSTYLENAME
350
E
  3
ACAD_TABLESTYLE
350
D6
  3
ACAD_VISUALSTYLE
350
2A
  0
DICTIONARY
  5
D
102
{ACAD_REACTORS
330
C
102
}
330
C
100
AcDbDictionary
281
     1
  0
DICTIONARY
  5
1A
102
{ACAD_REACTORS
330
C
102
}
330
C
100
AcDbDictionary
281
     1
  3
Layout1
350
1E
  3
Layout2
350
26
  3
Model
350
22
  0
DICTIONARY
  5
3B
102
{ACAD_REACTORS
330
C
102
}
330
C
100
AcDbDictionary
281
     1
  3
ByBlock
350
3D
  3
ByLayer
350
3C
  3
Global
350
3E
  0
DICTIONARY
  5
D7
102
{ACAD_REACTORS
330
C
102
}
330
C
100
AcDbDictionary
281
     1
  0
DICTIONARY
  5
17
102
{ACAD_REACTORS
330
C
102
}
330
C
100
AcDbDictionary
281
     1
  3
Standard
350
18
  0
DICTIONARY
  5
19
102
{ACAD_REACTORS
330
C
102
}
330
C
100
AcDbDictionary
281
     1
  0
ACDBDICTIONARYWDFLT
  5
E
102
{ACAD_REACTORS
330
C
102
}
330
C
100
AcDbDictionary
281
     1
  3
Normal
350
F
100
AcDbDictionaryWithDefault
340
F
  0
DICTIONARY
  5
D6
102
{ACAD_REACTORS
330
C
102
}
330
C
100
AcDbDictionary
281
     1
  0
DICTIONARY
  5
2A
102
{ACAD_REACTORS
330
C
102
}
330
C
100
AcDbDictionary
281
     1
  3
2dWireframe
350
2F
  3
3D Hidden
350
31
  3
3dWireframe
350
30
  3
Basic
350
32
  3
Brighten
350
36
  3
ColorChange
350
3A
  3
Conceptual
350
34
  3
Dim
350
35
  3
Facepattern
350
39
  3
Flat
350
2B
  3
FlatWithEdges
350
2C
  3
Gouraud
350
2D
  3
GouraudWithEdges
350
2E
  3
Linepattern
350
38
  3
Realistic
350
33
  3
Thicken
350
37
  0
LAYOUT
  5
1E
102
{ACAD_REACTORS
330
1A
102
}
330
1A
100
AcDbPlotSettings
  1

  2
none_device
  4

  6

 40
0.0
 41
0.0
 42
0.0
 43
0.0
 44
0.0
 45
0.0
 46
0.0
 47
0.0
 48
0.0
 49
0.0
140
0.0
141
0.0
142
1.0
143
1.0
 70
   688
 72
     0
 73
     0
 74
     5
  7

 75
    16
 76
     0
 77
     2
 78
   300
147
1.0
148
0.0
149
0.0
100
AcDbLayout
  1
Layout1
 70
     1
 71
     1
 10
0.0
 20
0.0
 11
12.0
 21
9.0
 12
0.0
 22
0.0
 32
0.0
 14
1.000000000000000E+20
 24
1.000000000000000E+20
 34
1.000000000000000E+20
 15
-1.000000000000000E+20
 25
-1.000000000000000E+20
 35
-1.000000000000000E+20
146
0.0
 13
0.0
 23
0.0
 33
0.0
 16
1.0
 26
0.0
 36
0.0
 17
0.0
 27
1.0
 37
0.0
 76
     0
330
1B
  0
LAYOUT
  5
26
102
{ACAD_REACTORS
330
1A
102
}
330
1A
100
AcDbPlotSettings
  1

  2
none_device
  4

  6

 40
0.0
 41
0.0
 42
0.0
 43
0.0
 44
0.0
 45
0.0
 46
0.0
 47
0.0
 48
0.0
 49
0.0
140
0.0
141
0.0
142
1.0
143
1.0
 70
   688
 72
     0
 73
     0
 74
     5
  7

 75
    16
 76
     0
 77
     2
 78
   300
147
1.0
148
0.0
149
0.0
100
AcDbLayout
  1
Layout2
 70
     1
 71
     2
 10
0.0
 20
0.0
 11
0.0
 21
0.0
 12
0.0
 22
0.0
 32
0.0
 14
0.0
 24
0.0
 34
0.0
 15
0.0
 25
0.0
 35
0.0
146
0.0
 13
0.0
 23
0.0
 33
0.0
 16
1.0
 26
0.0
 36
0.0
 17
0.0
 27
1.0
 37
0.0
 76
     0
330
23
  0
LAYOUT
  5
22
102
{ACAD_REACTORS
330
1A
102
}
330
1A
100
AcDbPlotSettings
  1

  2
none_device
  4

  6

 40
0.0
 41
0.0
 42
0.0
 43
0.0
 44
0.0
 45
0.0
 46
0.0
 47
0.0
 48
0.0
 49
0.0
140
0.0
141
0.0
142
1.0
143
1.0
 70
  1712
 72
     0
 73
     0
 74
     0
  7

 75
     0
 76
     0
 77
     2
 78
   300
147
1.0
148
0.0
149
0.0
100
AcDbLayout
  1
Model
 70
     1
 71
     0
 10
0.0
 20
0.0
 11
12.0
 21
9.0
 12
0.0
 22
0.0
 32
0.0
 14
-58.2203
 24
-106.6867
 34
0.0
 15
60.2635
 25
131.5697
 35
0.0
146
0.0
 13
0.0
 23
0.0
 33
0.0
 16
1.0
 26
0.0
 36
0.0
 17
0.0
 27
1.0
 37
0.0
 76
     0
330
1F
331
29
  0
MATERIAL
  5
3D
102
{ACAD_REACTORS
330
3B
102
}
330
3B
100
AcDbMaterial
  1
ByBlock
 72
     1
 94
      127
  0
MATERIAL
  5
3C
102
{ACAD_REACTORS
330
3B
102
}
330
3B
100
AcDbMaterial
  1
ByLayer
 72
     1
 94
      127
  0
MATERIAL
  5
3E
102
{ACAD_REACTORS
330
3B
102
}
330
3B
100
AcDbMaterial
  1
Global
 72
     1
 94
      127
  0
MLINESTYLE
  5
18
102
{ACAD_REACTORS
330
17
102
}
330
17
100
AcDbMlineStyle
  2
Standard
 70
     0
  3

 62
   256
 51
90.0
 52
90.0
 71
     2
 49
0.5
 62
   256
  6
BYLAYER
 49
-0.5
 62
   256
  6
BYLAYER
  0
ACDBPLACEHOLDER
  5
F
102
{ACAD_REACTORS
330
E
102
}
330
E
  0
VISUALSTYLE
  5
2F
102
{ACAD_REACTORS
330
2A
102
}
102
{ACAD_XDICTIONARY
360
BE
102
}
330
2A
100
AcDbVisualStyle
  2
2dWireframe
 70
     4
 71
     0
 72
     2
 73
     0
 90
        0
 40
-0.6
 41
-30.0
 62
     5
 63
     7
421
 16777215
 74
     1
 91
        4
 64
     7
 65
   257
 75
     1
175
     1
 42
1.0
 92
        0
 66
   257
 43
1.0
 76
     1
 77
     6
 78
     2
 67
     7
 79
     5
170
     0
171
     0
290
     0
174
     0
 93
        1
 44
0.0
173
     0
291
     0
 45
0.0
  0
VISUALSTYLE
  5
31
102
{ACAD_REACTORS
330
2A
102
}
102
{ACAD_XDICTIONARY
360
C2
102
}
330
2A
100
AcDbVisualStyle
  2
3D Hidden
 70
     6
 71
     1
 72
     2
 73
     2
 90
        0
 40
-0.6
 41
-30.0
 62
     5
 63
     7
421
 16777215
 74
     2
 91
        2
 64
     7
 65
   257
 75
     2
175
     1
 42
40.0
 92
        0
 66
   257
 43
1.0
 76
     1
 77
     6
 78
     2
 67
     7
 79
     3
170
     0
171
     0
290
     0
174
     0
 93
        1
 44
0.0
173
     0
291
     0
 45
0.0
  0
VISUALSTYLE
  5
30
102
{ACAD_REACTORS
330
2A
102
}
102
{ACAD_XDICTIONARY
360
C0
102
}
330
2A
100
AcDbVisualStyle
  2
3dWireframe
 70
     5
 71
     0
 72
     2
 73
     0
 90
        0
 40
-0.6
 41
-30.0
 62
     5
 63
     7
421
 16777215
 74
     1
 91
        4
 64
     7
 65
   257
 75
     1
175
     1
 42
1.0
 92
        0
 66
   257
 43
1.0
 76
     1
 77
     6
 78
     2
 67
     7
 79
     5
170
     0
171
     0
290
     0
174
     0
 93
        1
 44
0.0
173
     0
291
     0
 45
0.0
  0
VISUALSTYLE
  5
32
102
{ACAD_REACTORS
330
2A
102
}
102
{ACAD_XDICTIONARY
360
C4
102
}
330
2A
100
AcDbVisualStyle
  2
Basic
 70
     7
 71
     1
 72
     0
 73
     1
 90
        0
 40
-0.6
 41
-30.0
 62
     5
 63
     7
421
 16777215
 74
     0
 91
        4
 64
     7
 65
   257
 75
     1
175
     1
 42
1.0
 92
        8
 66
     7
 43
1.0
 76
     1
 77
     6
 78
     2
 67
     7
 79
     5
170
     0
171
     0
290
     0
174
     0
 93
        1
 44
0.0
173
     0
291
     1
 45
0.0
  0
VISUALSTYLE
  5
36
102
{ACAD_REACTORS
330
2A
102
}
102
{ACAD_XDICTIONARY
360
CC
102
}
330
2A
100
AcDbVisualStyle
  2
Brighten
 70
    12
 71
     2
 72
     2
 73
     0
 90
        0
 40
-0.6
 41
-30.0
 62
     5
 63
     7
421
 16777215
 74
     1
 91
        4
 64
     7
 65
   257
 75
     1
175
     1
 42
1.0
 92
        8
 66
     7
 43
1.0
 76
     1
 77
     6
 78
     2
 67
     7
 79
     5
170
     0
171
     0
290
     0
174
     0
 93
        1
 44
50.0
173
     0
291
     1
 45
0.0
  0
VISUALSTYLE
  5
3A
102
{ACAD_REACTORS
330
2A
102
}
102
{ACAD_XDICTIONARY
360
D4
102
}
330
2A
100
AcDbVisualStyle
  2
ColorChange
 70
    16
 71
     2
 72
     2
 73
     3
 90
        0
 40
-0.6
 41
-30.0
 62
     5
 63
     8
421
  8421504
 74
     1
 91
        4
 64
     7
 65
   257
 75
     1
175
     1
 42
1.0
 92
        8
 66
     8
424
  8421504
 43
1.0
 76
     1
 77
     6
 78
     2
 67
     7
 79
     5
170
     0
171
     0
290
     0
174
     0
 93
        1
 44
0.0
173
     0
291
     1
 45
0.0
  0
VISUALSTYLE
  5
34
102
{ACAD_REACTORS
330
2A
102
}
102
{ACAD_XDICTIONARY
360
C8
102
}
330
2A
100
AcDbVisualStyle
  2
Conceptual
 70
     9
 71
     3
 72
     2
 73
     0
 90
        0
 40
-0.6
 41
-30.0
 62
     5
 63
     7
421
 16777215
 74
     2
 91
        2
 64
     7
 65
   257
 75
     1
175
     1
 42
40.0
 92
        8
 66
     7
 43
1.0
 76
     1
 77
     6
 78
     2
 67
     7
 79
     3
170
     0
171
     0
290
     0
174
     0
 93
        1
 44
0.0
173
     0
291
     0
 45
0.0
  0
VISUALSTYLE
  5
35
102
{ACAD_REACTORS
330
2A
102
}
102
{ACAD_XDICTIONARY
360
CA
102
}
330
2A
100
AcDbVisualStyle
  2
Dim
 70
    11
 71
     2
 72
     2
 73
     0
 90
        0
 40
-0.6
 41
-30.0
 62
     5
 63
     7
421
 16777215
 74
     1
 91
        4
 64
     7
 65
   257
 75
     1
175
     1
 42
1.0
 92
        8
 66
     7
 43
1.0
 76
     1
 77
     6
 78
     2
 67
     7
 79
     5
170
     0
171
     0
290
     0
174
     0
 93
        1
 44
-50.0
173
     0
291
     1
 45
0.0
  0
VISUALSTYLE
  5
39
102
{ACAD_REACTORS
330
2A
102
}
102
{ACAD_XDICTIONARY
360
D2
102
}
330
2A
100
AcDbVisualStyle
  2
Facepattern
 70
    15
 71
     2
 72
     2
 73
     0
 90
        0
 40
-0.6
 41
-30.0
 62
     5
 63
     7
421
 16777215
 74
     1
 91
        4
 64
     7
 65
   257
 75
     1
175
     1
 42
1.0
 92
        8
 66
     7
 43
1.0
 76
     1
 77
     6
 78
     2
 67
     7
 79
     5
170
     0
171
     0
290
     0
174
     0
 93
        1
 44
0.0
173
     0
291
     1
 45
0.0
  0
VISUALSTYLE
  5
2B
102
{ACAD_REACTORS
330
2A
102
}
102
{ACAD_XDICTIONARY
360
B6
102
}
330
2A
100
AcDbVisualStyle
  2
Flat
 70
     0
 71
     2
 72
     1
 73
     1
 90
        2
 40
-0.6
 41
30.0
 62
     5
 63
     7
421
 16777215
 74
     0
 91
        4
 64
     7
 65
   257
 75
     1
175
     1
 42
1.0
 92
        8
 66
     7
 43
1.0
 76
     1
 77
     6
 78
     2
 67
     7
 79
     5
170
     0
171
     0
290
     0
174
     0
 93
       13
 44
0.0
173
     0
291
     1
 45
0.0
  0
VISUALSTYLE
  5
2C
102
{ACAD_REACTORS
330
2A
102
}
102
{ACAD_XDICTIONARY
360
B8
102
}
330
2A
100
AcDbVisualStyle
  2
FlatWithEdges
 70
     1
 71
     2
 72
     1
 73
     1
 90
        2
 40
-0.6
 41
30.0
 62
     5
 63
     7
421
 16777215
 74
     1
 91
        4
 64
     7
 65
   257
 75
     1
175
     1
 42
1.0
 92
        0
 66
   257
 43
1.0
 76
     1
 77
     6
 78
     2
 67
     7
 79
     5
170
     0
171
     0
290
     0
174
     0
 93
       13
 44
0.0
173
     0
291
     1
 45
0.0
  0
VISUALSTYLE
  5
2D
102
{ACAD_REACTORS
330
2A
102
}
102
{ACAD_XDICTIONARY
360
BA
102
}
330
2A
100
AcDbVisualStyle
  2
Gouraud
 70
     2
 71
     2
 72
     2
 73
     1
 90
        2
 40
-0.6
 41
30.0
 62
     5
 63
     7
421
 16777215
 74
     0
 91
        4
 64
     7
 65
   257
 75
     1
175
     1
 42
1.0
 92
        0
 66
     7
 43
1.0
 76
     1
 77
     6
 78
     2
 67
     7
 79
     5
170
     0
171
     0
290
     0
174
     0
 93
       13
 44
0.0
173
     0
291
     1
 45
0.0
  0
VISUALSTYLE
  5
2E
102
{ACAD_REACTORS
330
2A
102
}
102
{ACAD_XDICTIONARY
360
BC
102
}
330
2A
100
AcDbVisualStyle
  2
GouraudWithEdges
 70
     3
 71
     2
 72
     2
 73
     1
 90
        2
 40
-0.6
 41
30.0
 62
     5
 63
     7
421
 16777215
 74
     1
 91
        4
 64
     7
 65
   257
 75
     1
175
     1
 42
1.0
 92
        0
 66
   257
 43
1.0
 76
     1
 77
     6
 78
     2
 67
     7
 79
     5
170
     0
171
     0
290
     0
174
     0
 93
       13
 44
0.0
173
     0
291
     1
 45
0.0
  0
VISUALSTYLE
  5
38
102
{ACAD_REACTORS
330
2A
102
}
102
{ACAD_XDICTIONARY
360
D0
102
}
330
2A
100
AcDbVisualStyle
  2
Linepattern
 70
    14
 71
     2
 72
     2
 73
     0
 90
        0
 40
-0.6
 41
-30.0
 62
     5
 63
     7
421
 16777215
 74
     1
 91
        4
 64
     7
 65
   257
 75
     7
175
     7
 42
1.0
 92
        8
 66
     7
 43
1.0
 76
     1
 77
     6
 78
     2
 67
     7
 79
     5
170
     0
171
     0
290
     0
174
     0
 93
        1
 44
0.0
173
     0
291
     1
 45
0.0
  0
VISUALSTYLE
  5
33
102
{ACAD_REACTORS
330
2A
102
}
102
{ACAD_XDICTIONARY
360
C6
102
}
330
2A
100
AcDbVisualStyle
  2
Realistic
 70
     8
 71
     2
 72
     2
 73
     0
 90
        0
 40
-0.6
 41
-30.0
 62
     5
 63
     7
421
 16777215
 74
     1
 91
        0
 64
     7
 65
   257
 75
     1
175
     1
 42
1.0
 92
        8
 66
     8
424
  7895160
 43
1.0
 76
     1
 77
     6
 78
     2
 67
     7
 79
     5
170
     0
171
     0
290
     0
174
     0
 93
       13
 44
0.0
173
     0
291
     0
 45
0.0
  0
VISUALSTYLE
  5
37
102
{ACAD_REACTORS
330
2A
102
}
102
{ACAD_XDICTIONARY
360
CE
102
}
330
2A
100
AcDbVisualStyle
  2
Thicken
 70
    13
 71
     2
 72
     2
 73
     0
 90
        0
 40
-0.6
 41
-30.0
 62
     5
 63
     7
421
 16777215
 74
     1
 91
        4
 64
     7
 65
   257
 75
     1
175
     1
 42
1.0
 92
       12
 66
     7
 43
1.0
 76
     1
 77
     6
 78
     2
 67
     7
 79
     5
170
     0
171
     0
290
     0
174
     0
 93
        1
 44
0.0
173
     0
291
     1
 45
0.0
  0
DICTIONARY
  5
BE
330
2F
100
AcDbDictionary
280
     1
281
     1
  3
ACAD_XREC_ROUNDTRIP
360
BF
  0
DICTIONARY
  5
C2
330
31
100
AcDbDictionary
280
     1
281
     1
  3
ACAD_XREC_ROUNDTRIP
360
C3
  0
DICTIONARY
  5
C0
330
30
100
AcDbDictionary
280
     1
281
     1
  3
ACAD_XREC_ROUNDTRIP
360
C1
  0
DICTIONARY
  5
C4
330
32
100
AcDbDictionary
280
     1
281
     1
  3
ACAD_XREC_ROUNDTRIP
360
C5
  0
DICTIONARY
  5
CC
330
36
100
AcDbDictionary
280
     1
281
     1
  3
ACAD_XREC_ROUNDTRIP
360
CD
  0
DICTIONARY
  5
D4
330
3A
100
AcDbDictionary
280
     1
281
     1
  3
ACAD_XREC_ROUNDTRIP
360
D5
  0
DICTIONARY
  5
C8
330
34
100
AcDbDictionary
280
     1
281
     1
  3
ACAD_XREC_ROUNDTRIP
360
C9
  0
DICTIONARY
  5
CA
330
35
100
AcDbDictionary
280
     1
281
     1
  3
ACAD_XREC_ROUNDTRIP
360
CB
  0
DICTIONARY
  5
D2
330
39
100
AcDbDictionary
280
     1
281
     1
  3
ACAD_XREC_ROUNDTRIP
360
D3
  0
DICTIONARY
  5
B6
330
2B
100
AcDbDictionary
280
     1
281
     1
  3
ACAD_XREC_ROUNDTRIP
360
B7
  0
DICTIONARY
  5
B8
330
2C
100
AcDbDictionary
280
     1
281
     1
  3
ACAD_XREC_ROUNDTRIP
360
B9
  0
DICTIONARY
  5
BA
330
2D
100
AcDbDictionary
280
     1
281
     1
  3
ACAD_XREC_ROUNDTRIP
360
BB
  0
DICTIONARY
  5
BC
330
2E
100
AcDbDictionary
280
     1
281
     1
  3
ACAD_XREC_ROUNDTRIP
360
BD
  0
DICTIONARY
  5
D0
330
38
100
AcDbDictionary
280
     1
281
     1
  3
ACAD_XREC_ROUNDTRIP
360
D1
  0
DICTIONARY
  5
C6
330
33
100
AcDbDictionary
280
     1
281
     1
  3
ACAD_XREC_ROUNDTRIP
360
C7
  0
DICTIONARY
  5
CE
330
37
100
AcDbDictionary
280
     1
281
     1
  3
ACAD_XREC_ROUNDTRIP
360
CF
  0
XRECORD
  5
BF
102
{ACAD_REACTORS
330
BE
102
}
330
BE
100
AcDbXrecord
280
     1
102
RTVSPropertyOp0
 70
     1
102
RTVSPropertyOp1
 70
     1
102
RTVSPropertyOp2
 70
     1
102
RTVSPropertyOp3
 70
     1
102
RTVSPropertyOp4
 70
     1
102
RTVSPropertyOp5
 70
     1
102
RTVSPropertyOp6
 70
     1
102
RTVSPropertyOp7
 70
     1
102
RTVSPropertyOp8
 70
     1
102
RTVSPropertyOp9
 70
     1
102
RTVSPropertyOp10
 70
     1
102
RTVSPropertyOp11
 70
     1
102
RTVSPropertyOp12
 70
     1
102
RTVSPropertyOp13
 70
     1
102
RTVSPropertyOp14
 70
     1
102
RTVSPropertyOp15
 70
     1
102
RTVSPropertyOp16
 70
     1
102
RTVSPropertyOp17
 70
     1
102
RTVSPropertyOp18
 70
     1
102
RTVSPropertyOp19
 70
     1
102
RTVSPropertyOp20
 70
     1
102
RTVSPropertyOp21
 70
     1
102
RTVSPropertyOp22
 70
     1
102
RTVSPropertyOp23
 70
     1
102
RTVSPropertyOp24
 70
     1
102
RTVSPropertyOp25
 70
     1
102
RTVSPropertyOp26
 70
     1
102
RTVSPropertyOp27
 70
     1
102
RTVSPropertyOp28
 70
     1
102
RTVSPropertyOp29
 70
     1
102
RTVSPropertyOp30
 70
     1
102
RTVSPropertyOp31
 70
     1
102
RTVSPropertyOp32
 70
     1
  0
XRECORD
  5
C3
102
{ACAD_REACTORS
330
C2
102
}
330
C2
100
AcDbXrecord
280
     1
102
RTVSPropertyOp0
 70
     1
102
RTVSPropertyOp1
 70
     1
102
RTVSPropertyOp2
 70
     1
102
RTVSPropertyOp3
 70
     1
102
RTVSPropertyOp4
 70
     1
102
RTVSPropertyOp5
 70
     1
102
RTVSPropertyOp6
 70
     1
102
RTVSPropertyOp7
 70
     1
102
RTVSPropertyOp8
 70
     1
102
RTVSPropertyOp9
 70
     1
102
RTVSPropertyOp10
 70
     1
102
RTVSPropertyOp11
 70
     1
102
RTVSPropertyOp12
 70
     1
102
RTVSPropertyOp13
 70
     1
102
RTVSPropertyOp14
 70
     1
102
RTVSPropertyOp15
 70
     1
102
RTVSPropertyOp16
 70
     1
102
RTVSPropertyOp17
 70
     1
102
RTVSPropertyOp18
 70
     1
102
RTVSPropertyOp19
 70
     1
102
RTVSPropertyOp20
 70
     1
102
RTVSPropertyOp21
 70
     1
102
RTVSPropertyOp22
 70
     1
102
RTVSPropertyOp23
 70
     1
102
RTVSPropertyOp24
 70
     1
102
RTVSPropertyOp25
 70
     1
102
RTVSPropertyOp26
 70
     1
102
RTVSPropertyOp27
 70
     1
102
RTVSPropertyOp28
 70
     1
102
RTVSPropertyOp29
 70
     1
102
RTVSPropertyOp30
 70
     1
102
RTVSPropertyOp31
 70
     1
102
RTVSPropertyOp32
 70
     1
  0
XRECORD
  5
C1
102
{ACAD_REACTORS
330
C0
102
}
330
C0
100
AcDbXrecord
280
     1
102
RTVSPropertyOp0
 70
     1
102
RTVSPropertyOp1
 70
     1
102
RTVSPropertyOp2
 70
     1
102
RTVSPropertyOp3
 70
     1
102
RTVSPropertyOp4
 70
     1
102
RTVSPropertyOp5
 70
     1
102
RTVSPropertyOp6
 70
     1
102
RTVSPropertyOp7
 70
     1
102
RTVSPropertyOp8
 70
     1
102
RTVSPropertyOp9
 70
     1
102
RTVSPropertyOp10
 70
     1
102
RTVSPropertyOp11
 70
     1
102
RTVSPropertyOp12
 70
     1
102
RTVSPropertyOp13
 70
     1
102
RTVSPropertyOp14
 70
     1
102
RTVSPropertyOp15
 70
     1
102
RTVSPropertyOp16
 70
     1
102
RTVSPropertyOp17
 70
     1
102
RTVSPropertyOp18
 70
     1
102
RTVSPropertyOp19
 70
     1
102
RTVSPropertyOp20
 70
     1
102
RTVSPropertyOp21
 70
     1
102
RTVSPropertyOp22
 70
     1
102
RTVSPropertyOp23
 70
     1
102
RTVSPropertyOp24
 70
     1
102
RTVSPropertyOp25
 70
     1
102
RTVSPropertyOp26
 70
     1
102
RTVSPropertyOp27
 70
     1
102
RTVSPropertyOp28
 70
     1
102
RTVSPropertyOp29
 70
     1
102
RTVSPropertyOp30
 70
     1
102
RTVSPropertyOp31
 70
     1
102
RTVSPropertyOp32
 70
     1
  0
XRECORD
  5
C5
102
{ACAD_REACTORS
330
C4
102
}
330
C4
100
AcDbXrecord
280
     1
102
RTVSPropertyOp0
 70
     1
102
RTVSPropertyOp1
 70
     1
102
RTVSPropertyOp2
 70
     1
102
RTVSPropertyOp3
 70
     1
102
RTVSPropertyOp4
 70
     1
102
RTVSPropertyOp5
 70
     1
102
RTVSPropertyOp6
 70
     1
102
RTVSPropertyOp7
 70
     1
102
RTVSPropertyOp8
 70
     1
102
RTVSPropertyOp9
 70
     1
102
RTVSPropertyOp10
 70
     1
102
RTVSPropertyOp11
 70
     1
102
RTVSPropertyOp12
 70
     1
102
RTVSPropertyOp13
 70
     1
102
RTVSPropertyOp14
 70
     1
102
RTVSPropertyOp15
 70
     1
102
RTVSPropertyOp16
 70
     1
102
RTVSPropertyOp17
 70
     1
102
RTVSPropertyOp18
 70
     1
102
RTVSPropertyOp19
 70
     1
102
RTVSPropertyOp20
 70
     1
102
RTVSPropertyOp21
 70
     1
102
RTVSPropertyOp22
 70
     1
102
RTVSPropertyOp23
 70
     1
102
RTVSPropertyOp24
 70
     1
102
RTVSPropertyOp25
 70
     1
102
RTVSPropertyOp26
 70
     1
102
RTVSPropertyOp27
 70
     1
102
RTVSPropertyOp28
 70
     1
102
RTVSPropertyOp29
 70
     1
102
RTVSPropertyOp30
 70
     1
102
RTVSPropertyOp31
 70
     1
102
RTVSPropertyOp32
 70
     1
  0
XRECORD
  5
CD
102
{ACAD_REACTORS
330
CC
102
}
330
CC
100
AcDbXrecord
280
     1
102
RTVSPropertyOp0
 70
     1
102
RTVSPropertyOp1
 70
     1
102
RTVSPropertyOp2
 70
     1
102
RTVSPropertyOp3
 70
     1
102
RTVSPropertyOp4
 70
     1
102
RTVSPropertyOp5
 70
     1
102
RTVSPropertyOp6
 70
     1
102
RTVSPropertyOp7
 70
     1
102
RTVSPropertyOp8
 70
     1
102
RTVSPropertyOp9
 70
     1
102
RTVSPropertyOp10
 70
     1
102
RTVSPropertyOp11
 70
     1
102
RTVSPropertyOp12
 70
     1
102
RTVSPropertyOp13
 70
     1
102
RTVSPropertyOp14
 70
     1
102
RTVSPropertyOp15
 70
     1
102
RTVSPropertyOp16
 70
     1
102
RTVSPropertyOp17
 70
     1
102
RTVSPropertyOp18
 70
     1
102
RTVSPropertyOp19
 70
     1
102
RTVSPropertyOp20
 70
     1
102
RTVSPropertyOp21
 70
     1
102
RTVSPropertyOp22
 70
     1
102
RTVSPropertyOp23
 70
     1
102
RTVSPropertyOp24
 70
     1
102
RTVSPropertyOp25
 70
     1
102
RTVSPropertyOp26
 70
     1
102
RTVSPropertyOp27
 70
     1
102
RTVSPropertyOp28
 70
     1
102
RTVSPropertyOp29
 70
     1
102
RTVSPropertyOp30
 70
     1
102
RTVSPropertyOp31
 70
     1
102
RTVSPropertyOp32
 70
     1
  0
XRECORD
  5
D5
102
{ACAD_REACTORS
330
D4
102
}
330
D4
100
AcDbXrecord
280
     1
102
RTVSPropertyOp0
 70
     1
102
RTVSPropertyOp1
 70
     1
102
RTVSPropertyOp2
 70
     1
102
RTVSPropertyOp3
 70
     1
102
RTVSPropertyOp4
 70
     1
102
RTVSPropertyOp5
 70
     1
102
RTVSPropertyOp6
 70
     1
102
RTVSPropertyOp7
 70
     1
102
RTVSPropertyOp8
 70
     1
102
RTVSPropertyOp9
 70
     1
102
RTVSPropertyOp10
 70
     1
102
RTVSPropertyOp11
 70
     1
102
RTVSPropertyOp12
 70
     1
102
RTVSPropertyOp13
 70
     1
102
RTVSPropertyOp14
 70
     1
102
RTVSPropertyOp15
 70
     1
102
RTVSPropertyOp16
 70
     1
102
RTVSPropertyOp17
 70
     1
102
RTVSPropertyOp18
 70
     1
102
RTVSPropertyOp19
 70
     1
102
RTVSPropertyOp20
 70
     1
102
RTVSPropertyOp21
 70
     1
102
RTVSPropertyOp22
 70
     1
102
RTVSPropertyOp23
 70
     1
102
RTVSPropertyOp24
 70
     1
102
RTVSPropertyOp25
 70
     1
102
RTVSPropertyOp26
 70
     1
102
RTVSPropertyOp27
 70
     1
102
RTVSPropertyOp28
 70
     1
102
RTVSPropertyOp29
 70
     1
102
RTVSPropertyOp30
 70
     1
102
RTVSPropertyOp31
 70
     1
102
RTVSPropertyOp32
 70
     1
  0
XRECORD
  5
C9
102
{ACAD_REACTORS
330
C8
102
}
330
C8
100
AcDbXrecord
280
     1
102
RTVSPropertyOp0
 70
     1
102
RTVSPropertyOp1
 70
     1
102
RTVSPropertyOp2
 70
     1
102
RTVSPropertyOp3
 70
     1
102
RTVSPropertyOp4
 70
     1
102
RTVSPropertyOp5
 70
     1
102
RTVSPropertyOp6
 70
     1
102
RTVSPropertyOp7
 70
     1
102
RTVSPropertyOp8
 70
     1
102
RTVSPropertyOp9
 70
     1
102
RTVSPropertyOp10
 70
     1
102
RTVSPropertyOp11
 70
     1
102
RTVSPropertyOp12
 70
     1
102
RTVSPropertyOp13
 70
     1
102
RTVSPropertyOp14
 70
     1
102
RTVSPropertyOp15
 70
     1
102
RTVSPropertyOp16
 70
     1
102
RTVSPropertyOp17
 70
     1
102
RTVSPropertyOp18
 70
     1
102
RTVSPropertyOp19
 70
     1
102
RTVSPropertyOp20
 70
     1
102
RTVSPropertyOp21
 70
     1
102
RTVSPropertyOp22
 70
     1
102
RTVSPropertyOp23
 70
     1
102
RTVSPropertyOp24
 70
     1
102
RTVSPropertyOp25
 70
     1
102
RTVSPropertyOp26
 70
     1
102
RTVSPropertyOp27
 70
     1
102
RTVSPropertyOp28
 70
     1
102
RTVSPropertyOp29
 70
     1
102
RTVSPropertyOp30
 70
     1
102
RTVSPropertyOp31
 70
     1
102
RTVSPropertyOp32
 70
     1
  0
XRECORD
  5
CB
102
{ACAD_REACTORS
330
CA
102
}
330
CA
100
AcDbXrecord
280
     1
102
RTVSPropertyOp0
 70
     1
102
RTVSPropertyOp1
 70
     1
102
RTVSPropertyOp2
 70
     1
102
RTVSPropertyOp3
 70
     1
102
RTVSPropertyOp4
 70
     1
102
RTVSPropertyOp5
 70
     1
102
RTVSPropertyOp6
 70
     1
102
RTVSPropertyOp7
 70
     1
102
RTVSPropertyOp8
 70
     1
102
RTVSPropertyOp9
 70
     1
102
RTVSPropertyOp10
 70
     1
102
RTVSPropertyOp11
 70
     1
102
RTVSPropertyOp12
 70
     1
102
RTVSPropertyOp13
 70
     1
102
RTVSPropertyOp14
 70
     1
102
RTVSPropertyOp15
 70
     1
102
RTVSPropertyOp16
 70
     1
102
RTVSPropertyOp17
 70
     1
102
RTVSPropertyOp18
 70
     1
102
RTVSPropertyOp19
 70
     1
102
RTVSPropertyOp20
 70
     1
102
RTVSPropertyOp21
 70
     1
102
RTVSPropertyOp22
 70
     1
102
RTVSPropertyOp23
 70
     1
102
RTVSPropertyOp24
 70
     1
102
RTVSPropertyOp25
 70
     1
102
RTVSPropertyOp26
 70
     1
102
RTVSPropertyOp27
 70
     1
102
RTVSPropertyOp28
 70
     1
102
RTVSPropertyOp29
 70
     1
102
RTVSPropertyOp30
 70
     1
102
RTVSPropertyOp31
 70
     1
102
RTVSPropertyOp32
 70
     1
  0
XRECORD
  5
D3
102
{ACAD_REACTORS
330
D2
102
}
330
D2
100
AcDbXrecord
280
     1
102
RTVSPropertyOp0
 70
     1
102
RTVSPropertyOp1
 70
     1
102
RTVSPropertyOp2
 70
     1
102
RTVSPropertyOp3
 70
     1
102
RTVSPropertyOp4
 70
     1
102
RTVSPropertyOp5
 70
     1
102
RTVSPropertyOp6
 70
     1
102
RTVSPropertyOp7
 70
     1
102
RTVSPropertyOp8
 70
     1
102
RTVSPropertyOp9
 70
     1
102
RTVSPropertyOp10
 70
     1
102
RTVSPropertyOp11
 70
     1
102
RTVSPropertyOp12
 70
     1
102
RTVSPropertyOp13
 70
     1
102
RTVSPropertyOp14
 70
     1
102
RTVSPropertyOp15
 70
     1
102
RTVSPropertyOp16
 70
     1
102
RTVSPropertyOp17
 70
     1
102
RTVSPropertyOp18
 70
     1
102
RTVSPropertyOp19
 70
     1
102
RTVSPropertyOp20
 70
     1
102
RTVSPropertyOp21
 70
     1
102
RTVSPropertyOp22
 70
     1
102
RTVSPropertyOp23
 70
     1
102
RTVSPropertyOp24
 70
     1
102
RTVSPropertyOp25
 70
     1
102
RTVSPropertyOp26
 70
     1
102
RTVSPropertyOp27
 70
     1
102
RTVSPropertyOp28
 70
     1
102
RTVSPropertyOp29
 70
     1
102
RTVSPropertyOp30
 70
     1
102
RTVSPropertyOp31
 70
     1
102
RTVSPropertyOp32
 70
     1
  0
XRECORD
  5
B7
102
{ACAD_REACTORS
330
B6
102
}
330
B6
100
AcDbXrecord
280
     1
102
RTVSPropertyOp0
 70
     1
102
RTVSPropertyOp1
 70
     1
102
RTVSPropertyOp2
 70
     1
102
RTVSPropertyOp3
 70
     1
102
RTVSPropertyOp4
 70
     1
102
RTVSPropertyOp5
 70
     1
102
RTVSPropertyOp6
 70
     1
102
RTVSPropertyOp7
 70
     1
102
RTVSPropertyOp8
 70
     1
102
RTVSPropertyOp9
 70
     1
102
RTVSPropertyOp10
 70
     1
102
RTVSPropertyOp11
 70
     1
102
RTVSPropertyOp12
 70
     1
102
RTVSPropertyOp13
 70
     1
102
RTVSPropertyOp14
 70
     1
102
RTVSPropertyOp15
 70
     1
102
RTVSPropertyOp16
 70
     1
102
RTVSPropertyOp17
 70
     1
102
RTVSPropertyOp18
 70
     1
102
RTVSPropertyOp19
 70
     1
102
RTVSPropertyOp20
 70
     1
102
RTVSPropertyOp21
 70
     1
102
RTVSPropertyOp22
 70
     1
102
RTVSPropertyOp23
 70
     1
102
RTVSPropertyOp24
 70
     1
102
RTVSPropertyOp25
 70
     1
102
RTVSPropertyOp26
 70
     1
102
RTVSPropertyOp27
 70
     1
102
RTVSPropertyOp28
 70
     1
102
RTVSPropertyOp29
 70
     1
102
RTVSPropertyOp30
 70
     1
102
RTVSPropertyOp31
 70
     1
102
RTVSPropertyOp32
 70
     1
  0
XRECORD
  5
B9
102
{ACAD_REACTORS
330
B8
102
}
330
B8
100
AcDbXrecord
280
     1
102
RTVSPropertyOp0
 70
     1
102
RTVSPropertyOp1
 70
     1
102
RTVSPropertyOp2
 70
     1
102
RTVSPropertyOp3
 70
     1
102
RTVSPropertyOp4
 70
     1
102
RTVSPropertyOp5
 70
     1
102
RTVSPropertyOp6
 70
     1
102
RTVSPropertyOp7
 70
     1
102
RTVSPropertyOp8
 70
     1
102
RTVSPropertyOp9
 70
     1
102
RTVSPropertyOp10
 70
     1
102
RTVSPropertyOp11
 70
     1
102
RTVSPropertyOp12
 70
     1
102
RTVSPropertyOp13
 70
     1
102
RTVSPropertyOp14
 70
     1
102
RTVSPropertyOp15
 70
     1
102
RTVSPropertyOp16
 70
     1
102
RTVSPropertyOp17
 70
     1
102
RTVSPropertyOp18
 70
     1
102
RTVSPropertyOp19
 70
     1
102
RTVSPropertyOp20
 70
     1
102
RTVSPropertyOp21
 70
     1
102
RTVSPropertyOp22
 70
     1
102
RTVSPropertyOp23
 70
     1
102
RTVSPropertyOp24
 70
     1
102
RTVSPropertyOp25
 70
     1
102
RTVSPropertyOp26
 70
     1
102
RTVSPropertyOp27
 70
     1
102
RTVSPropertyOp28
 70
     1
102
RTVSPropertyOp29
 70
     1
102
RTVSPropertyOp30
 70
     1
102
RTVSPropertyOp31
 70
     1
102
RTVSPropertyOp32
 70
     1
  0
XRECORD
  5
BB
102
{ACAD_REACTORS
330
BA
102
}
330
BA
100
AcDbXrecord
280
     1
102
RTVSPropertyOp0
 70
     1
102
RTVSPropertyOp1
 70
     1
102
RTVSPropertyOp2
 70
     1
102
RTVSPropertyOp3
 70
     1
102
RTVSPropertyOp4
 70
     1
102
RTVSPropertyOp5
 70
     1
102
RTVSPropertyOp6
 70
     1
102
RTVSPropertyOp7
 70
     1
102
RTVSPropertyOp8
 70
     1
102
RTVSPropertyOp9
 70
     1
102
RTVSPropertyOp10
 70
     1
102
RTVSPropertyOp11
 70
     1
102
RTVSPropertyOp12
 70
     1
102
RTVSPropertyOp13
 70
     1
102
RTVSPropertyOp14
 70
     1
102
RTVSPropertyOp15
 70
     1
102
RTVSPropertyOp16
 70
     1
102
RTVSPropertyOp17
 70
     1
102
RTVSPropertyOp18
 70
     1
102
RTVSPropertyOp19
 70
     1
102
RTVSPropertyOp20
 70
     1
102
RTVSPropertyOp21
 70
     1
102
RTVSPropertyOp22
 70
     1
102
RTVSPropertyOp23
 70
     1
102
RTVSPropertyOp24
 70
     1
102
RTVSPropertyOp25
 70
     1
102
RTVSPropertyOp26
 70
     1
102
RTVSPropertyOp27
 70
     1
102
RTVSPropertyOp28
 70
     1
102
RTVSPropertyOp29
 70
     1
102
RTVSPropertyOp30
 70
     1
102
RTVSPropertyOp31
 70
     1
102
RTVSPropertyOp32
 70
     1
  0
XRECORD
  5
BD
102
{ACAD_REACTORS
330
BC
102
}
330
BC
100
AcDbXrecord
280
     1
102
RTVSPropertyOp0
 70
     1
102
RTVSPropertyOp1
 70
     1
102
RTVSPropertyOp2
 70
     1
102
RTVSPropertyOp3
 70
     1
102
RTVSPropertyOp4
 70
     1
102
RTVSPropertyOp5
 70
     1
102
RTVSPropertyOp6
 70
     1
102
RTVSPropertyOp7
 70
     1
102
RTVSPropertyOp8
 70
     1
102
RTVSPropertyOp9
 70
     1
102
RTVSPropertyOp10
 70
     1
102
RTVSPropertyOp11
 70
     1
102
RTVSPropertyOp12
 70
     1
102
RTVSPropertyOp13
 70
     1
102
RTVSPropertyOp14
 70
     1
102
RTVSPropertyOp15
 70
     1
102
RTVSPropertyOp16
 70
     1
102
RTVSPropertyOp17
 70
     1
102
RTVSPropertyOp18
 70
     1
102
RTVSPropertyOp19
 70
     1
102
RTVSPropertyOp20
 70
     1
102
RTVSPropertyOp21
 70
     1
102
RTVSPropertyOp22
 70
     1
102
RTVSPropertyOp23
 70
     1
102
RTVSPropertyOp24
 70
     1
102
RTVSPropertyOp25
 70
     1
102
RTVSPropertyOp26
 70
     1
102
RTVSPropertyOp27
 70
     1
102
RTVSPropertyOp28
 70
     1
102
RTVSPropertyOp29
 70
     1
102
RTVSPropertyOp30
 70
     1
102
RTVSPropertyOp31
 70
     1
102
RTVSPropertyOp32
 70
     1
  0
XRECORD
  5
D1
102
{ACAD_REACTORS
330
D0
102
}
330
D0
100
AcDbXrecord
280
     1
102
RTVSPropertyOp0
 70
     1
102
RTVSPropertyOp1
 70
     1
102
RTVSPropertyOp2
 70
     1
102
RTVSPropertyOp3
 70
     1
102
RTVSPropertyOp4
 70
     1
102
RTVSPropertyOp5
 70
     1
102
RTVSPropertyOp6
 70
     1
102
RTVSPropertyOp7
 70
     1
102
RTVSPropertyOp8
 70
     1
102
RTVSPropertyOp9
 70
     1
102
RTVSPropertyOp10
 70
     1
102
RTVSPropertyOp11
 70
     1
102
RTVSPropertyOp12
 70
     1
102
RTVSPropertyOp13
 70
     1
102
RTVSPropertyOp14
 70
     1
102
RTVSPropertyOp15
 70
     1
102
RTVSPropertyOp16
 70
     1
102
RTVSPropertyOp17
 70
     1
102
RTVSPropertyOp18
 70
     1
102
RTVSPropertyOp19
 70
     1
102
RTVSPropertyOp20
 70
     1
102
RTVSPropertyOp21
 70
     1
102
RTVSPropertyOp22
 70
     1
102
RTVSPropertyOp23
 70
     1
102
RTVSPropertyOp24
 70
     1
102
RTVSPropertyOp25
 70
     1
102
RTVSPropertyOp26
 70
     1
102
RTVSPropertyOp27
 70
     1
102
RTVSPropertyOp28
 70
     1
102
RTVSPropertyOp29
 70
     1
102
RTVSPropertyOp30
 70
     1
102
RTVSPropertyOp31
 70
     1
102
RTVSPropertyOp32
 70
     1
  0
XRECORD
  5
C7
102
{ACAD_REACTORS
330
C6
102
}
330
C6
100
AcDbXrecord
280
     1
102
RTVSPropertyOp0
 70
     1
102
RTVSPropertyOp1
 70
     1
102
RTVSPropertyOp2
 70
     1
102
RTVSPropertyOp3
 70
     1
102
RTVSPropertyOp4
 70
     1
102
RTVSPropertyOp5
 70
     1
102
RTVSPropertyOp6
 70
     1
102
RTVSPropertyOp7
 70
     1
102
RTVSPropertyOp8
 70
     1
102
RTVSPropertyOp9
 70
     1
102
RTVSPropertyOp10
 70
     1
102
RTVSPropertyOp11
 70
     1
102
RTVSPropertyOp12
 70
     1
102
RTVSPropertyOp13
 70
     1
102
RTVSPropertyOp14
 70
     1
102
RTVSPropertyOp15
 70
     1
102
RTVSPropertyOp16
 70
     1
102
RTVSPropertyOp17
 70
     1
102
RTVSPropertyOp18
 70
     1
102
RTVSPropertyOp19
 70
     1
102
RTVSPropertyOp20
 70
     1
102
RTVSPropertyOp21
 70
     1
102
RTVSPropertyOp22
 70
     1
102
RTVSPropertyOp23
 70
     1
102
RTVSPropertyOp24
 70
     1
102
RTVSPropertyOp25
 70
     1
102
RTVSPropertyOp26
 70
     1
102
RTVSPropertyOp27
 70
     1
102
RTVSPropertyOp28
 70
     1
102
RTVSPropertyOp29
 70
     1
102
RTVSPropertyOp30
 70
     1
102
RTVSPropertyOp31
 70
     1
102
RTVSPropertyOp32
 70
     1
  0
XRECORD
  5
CF
102
{ACAD_REACTORS
330
CE
102
}
330
CE
100
AcDbXrecord
280
     1
102
RTVSPropertyOp0
 70
     1
102
RTVSPropertyOp1
 70
     1
102
RTVSPropertyOp2
 70
     1
102
RTVSPropertyOp3
 70
     1
102
RTVSPropertyOp4
 70
     1
102
RTVSPropertyOp5
 70
     1
102
RTVSPropertyOp6
 70
     1
102
RTVSPropertyOp7
 70
     1
102
RTVSPropertyOp8
 70
     1
102
RTVSPropertyOp9
 70
     1
102
RTVSPropertyOp10
 70
     1
102
RTVSPropertyOp11
 70
     1
102
RTVSPropertyOp12
 70
     1
102
RTVSPropertyOp13
 70
     1
102
RTVSPropertyOp14
 70
     1
102
RTVSPropertyOp15
 70
     1
102
RTVSPropertyOp16
 70
     1
102
RTVSPropertyOp17
 70
     1
102
RTVSPropertyOp18
 70
     1
102
RTVSPropertyOp19
 70
     1
102
RTVSPropertyOp20
 70
     1
102
RTVSPropertyOp21
 70
     1
102
RTVSPropertyOp22
 70
     1
102
RTVSPropertyOp23
 70
     1
102
RTVSPropertyOp24
 70
     1
102
RTVSPropertyOp25
 70
     1
102
RTVSPropertyOp26
 70
     1
102
RTVSPropertyOp27
 70
     1
102
RTVSPropertyOp28
 70
     1
102
RTVSPropertyOp29
 70
     1
102
RTVSPropertyOp30
 70
     1
102
RTVSPropertyOp31
 70
     1
102
RTVSPropertyOp32
 70
     1
  0
ENDSEC
  0
EOF
