  0
SECTION
  2
HEADER
  9
$ACADVER
  1
AC1021
  9
$ACADMAINTVER
 70
    25
  9
$DWGCODEPAGE
  3
ANSI_1252
  9
$INSBASE
 10
0.0
 20
0.0
 30
0.0
  9
$EXTMIN
 10
-187.3071
 20
-106.5502
 30
0.0
  9
$EXTMAX
 10
80.5137
 20
131.7344
 30
0.0
  9
$LIMMIN
 10
0.0
 20
0.0
  9
$LIMMAX
 10
12.0
 20
9.0
  9
$ORTHOMODE
 70
     0
  9
$REGENMODE
 70
     1
  9
$FILLMODE
 70
     1
  9
$QTEXTMODE
 70
     0
  9
$MIRRTEXT
 70
     1
  9
$LTSCALE
 40
1.0
  9
$ATTMODE
 70
     1
  9
$TEXTSIZE
 40
0.2
  9
$TRACEWID
 40
0.05
  9
$TEXTSTYLE
  7
Standard
  9
$CLAYER
  8
0
  9
$CELTYPE
  6
ByLayer
  9
$CECOLOR
 62
   256
  9
$CELTSCALE
 40
1.0
  9
$DISPSILH
 70
     0
  9
$DIMSCALE
 40
1.0
  9
$DIMASZ
 40
0.18
  9
$DIMEXO
 40
0.0625
  9
$DIMDLI
 40
0.38
  9
$DIMRND
 40
0.0
  9
$DIMDLE
 40
0.0
  9
$DIMEXE
 40
0.18
  9
$DIMTP
 40
0.0
  9
$DIMTM
 40
0.0
  9
$DIMTXT
 40
0.18
  9
$DIMCEN
 40
0.09
  9
$DIMTSZ
 40
0.0
  9
$DIMTOL
 70
     0
  9
$DIMLIM
 70
     0
  9
$DIMTIH
 70
     1
  9
$DIMTOH
 70
     1
  9
$DIMSE1
 70
     0
  9
$DIMSE2
 70
     0
  9
$DIMTAD
 70
     0
  9
$DIMZIN
 70
     0
  9
$DIMBLK
  1

  9
$DIMASO
 70
     1
  9
$DIMSHO
 70
     1
  9
$DIMPOST
  1

  9
$DIMAPOST
  1

  9
$DIMALT
 70
     0
  9
$DIMALTD
 70
     2
  9
$DIMALTF
 40
25.4
  9
$DIMLFAC
 40
1.0
  9
$DIMTOFL
 70
     0
  9
$DIMTVP
 40
0.0
  9
$DIMTIX
 70
     0
  9
$DIMSOXD
 70
     0
  9
$DIMSAH
 70
     0
  9
$DIMBLK1
  1

  9
$DIMBLK2
  1

  9
$DIMSTYLE
  2
Standard
  9
$DIMCLRD
 70
     0
  9
$DIMCLRE
 70
     0
  9
$DIMCLRT
 70
     0
  9
$DIMTFAC
 40
1.0
  9
$DIMGAP
 40
0.09
  9
$DIMJUST
 70
     0
  9
$DIMSD1
 70
     0
  9
$DIMSD2
 70
     0
  9
$DIMTOLJ
 70
     1
  9
$DIMTZIN
 70
     0
  9
$DIMALTZ
 70
     0
  9
$DIMALTTZ
 70
     0
  9
$DIMUPT
 70
     0
  9
$DIMDEC
 70
     4
  9
$DIMTDEC
 70
     4
  9
$DIMALTU
 70
     2
  9
$DIMALTTD
 70
     2
  9
$DIMTXSTY
  7
Standard
  9
$DIMAUNIT
 70
     0
  9
$DIMADEC
 70
     0
  9
$DIMALTRND
 40
0.0
  9
$DIMAZIN
 70
     0
  9
$DIMDSEP
 70
    46
  9
$DIMATFIT
 70
     3
  9
$DIMFRAC
 70
     0
  9
$DIMLDRBLK
  1

  9
$DIMLUNIT
 70
     2
  9
$DIMLWD
 70
    -2
  9
$DIMLWE
 70
    -2
  9
$DIMTMOVE
 70
     0
  9
$DIMFXL
 40
1.0
  9
$DIMFXLON
 70
     0
  9
$DIMJOGANG
 40
0.7853981633974483
  9
$DIMTFILL
 70
     0
  9
$DIMTFILLCLR
 70
     0
  9
$DIMARCSYM
 70
     0
  9
$DIMLTYPE
  6

  9
$DIMLTEX1
  6

  9
$DIMLTEX2
  6

  9
$LUNITS
 70
     2
  9
$LUPREC
 70
     4
  9
$SKETCHINC
 40
0.1
  9
$FILLETRAD
 40
0.5
  9
$AUNITS
 70
     0
  9
$AUPREC
 70
     0
  9
$MENU
  1
.
  9
$ELEVATION
 40
0.0
  9
$PELEVATION
 40
0.0
  9
$THICKNESS
 40
0.0
  9
$LIMCHECK
 70
     0
  9
$CHAMFERA
 40
0.5
  9
$CHAMFERB
 40
0.5
  9
$CHAMFERC
 40
1.0
  9
$CHAMFERD
 40
0.0
  9
$SKPOLY
 70
     0
  9
$TDCREATE
 40
2458493.676878021
  9
$TDUCREATE
 40
2458493.676878021
  9
$TDUPDATE
 40
2458493.676878264
  9
$TDUUPDATE
 40
2458493.676878264
  9
$TDINDWG
 40
0.0000000116
  9
$TDUSRTIMER
 40
0.0000000116
  9
$USRTIMER
 70
     1
  9
$ANGBASE
 50
0.0
  9
$ANGDIR
 70
     0
  9
$PDMODE
 70
     0
  9
$PDSIZE
 40
0.0
  9
$PLINEWID
 40
0.0
  9
$SPLFRAME
 70
     0
  9
$SPLINETYPE
 70
     6
  9
$SPLINESEGS
 70
     8
  9
$HANDSEED
  5
AF
  9
$SURFTAB1
 70
     6
  9
$SURFTAB2
 70
     6
  9
$SURFTYPE
 70
     6
  9
$SURFU
 70
     6
  9
$SURFV
 70
     6
  9
$UCSBASE
  2

  9
$UCSNAME
  2

  9
$UCSORG
 10
0.0
 20
0.0
 30
0.0
  9
$UCSXDIR
 10
1.0
 20
0.0
 30
0.0
  9
$UCSYDIR
 10
0.0
 20
1.0
 30
0.0
  9
$UCSORTHOREF
  2

  9
$UCSORTHOVIEW
 70
     0
  9
$UCSORGTOP
 10
0.0
 20
0.0
 30
0.0
  9
$UCSORGBOTTOM
 10
0.0
 20
0.0
 30
0.0
  9
$UCSORGLEFT
 10
0.0
 20
0.0
 30
0.0
  9
$UCSORGRIGHT
 10
0.0
 20
0.0
 30
0.0
  9
$UCSORGFRONT
 10
0.0
 20
0.0
 30
0.0
  9
$UCSORGBACK
 10
0.0
 20
0.0
 30
0.0
  9
$PUCSBASE
  2

  9
$PUCSNAME
  2

  9
$PUCSORG
 10
0.0
 20
0.0
 30
0.0
  9
$PUCSXDIR
 10
1.0
 20
0.0
 30
0.0
  9
$PUCSYDIR
 10
0.0
 20
1.0
 30
0.0
  9
$PUCSORTHOREF
  2

  9
$PUCSORTHOVIEW
 70
     0
  9
$PUCSORGTOP
 10
0.0
 20
0.0
 30
0.0
  9
$PUCSORGBOTTOM
 10
0.0
 20
0.0
 30
0.0
  9
$PUCSORGLEFT
 10
0.0
 20
0.0
 30
0.0
  9
$PUCSORGRIGHT
 10
0.0
 20
0.0
 30
0.0
  9
$PUCSORGFRONT
 10
0.0
 20
0.0
 30
0.0
  9
$PUCSORGBACK
 10
0.0
 20
0.0
 30
0.0
  9
$USERI1
 70
     0
  9
$USERI2
 70
     0
  9
$USERI3
 70
     0
  9
$USERI4
 70
     0
  9
$USERI5
 70
     0
  9
$USERR1
 40
0.0
  9
$USERR2
 40
0.0
  9
$USERR3
 40
0.0
  9
$USERR4
 40
0.0
  9
$USERR5
 40
0.0
  9
$WORLDVIEW
 70
     1
  9
$SHADEDGE
 70
     3
  9
$SHADEDIF
 70
    70
  9
$TILEMODE
 70
     1
  9
$MAXACTVP
 70
    64
  9
$PINSBASE
 10
0.0
 20
0.0
 30
0.0
  9
$PLIMCHECK
 70
     0
  9
$PEXTMIN
 10
1.000000000000000E+20
 20
1.000000000000000E+20
 30
1.000000000000000E+20
  9
$PEXTMAX
 10
-1.000000000000000E+20
 20
-1.000000000000000E+20
 30
-1.000000000000000E+20
  9
$PLIMMIN
 10
0.0
 20
0.0
  9
$PLIMMAX
 10
12.0
 20
9.0
  9
$UNITMODE
 70
     0
  9
$VISRETAIN
 70
     1
  9
$PLINEGEN
 70
     0
  9
$PSLTSCALE
 70
     1
  9
$TREEDEPTH
 70
  3020
  9
$CMLSTYLE
  2
Standard
  9
$CMLJUST
 70
     0
  9
$CMLSCALE
 40
1.0
  9
$PROXYGRAPHICS
 70
     1
  9
$MEASUREMENT
 70
     0
  9
$CELWEIGHT
370
    -1
  9
$ENDCAPS
280
     0
  9
$JOINSTYLE
280
     0
  9
$LWDISPLAY
290
     0
  9
$INSUNITS
 70
     4
  9
$HYPERLINKBASE
  1

  9
$STYLESHEET
  1

  9
$XEDIT
290
     1
  9
$CEPSNTYPE
380
     0
  9
$PSTYLEMODE
290
     1
  9
$FINGERPRINTGUID
  2
{12D95098-709A-43D2-9A38-DD9843C33635}
  9
$VERSIONGUID
  2
{FAEB1C32-E019-11D5-929B-00C0DF256EC4}
  9
$EXTNAMES
290
     1
  9
$PSVPSCALE
 40
0.0
  9
$OLESTARTUP
290
     0
  9
$SORTENTS
280
   127
  9
$INDEXCTL
280
     0
  9
$HIDETEXT
280
     1
  9
$XCLIPFRAME
290
     0
  9
$HALOGAP
280
     0
  9
$OBSCOLOR
 70
   257
  9
$OBSLTYPE
280
     0
  9
$INTERSECTIONDISPLAY
280
     0
  9
$INTERSECTIONCOLOR
 70
   257
  9
$DIMASSOC
280
     2
  9
$PROJECTNAME
  1

  9
$CAMERADISPLAY
290
     0
  9
$LENSLENGTH
 40
50.0
  9
$CAMERAHEIGHT
 40
0.0
  9
$STEPSPERSEC
 40
2.0
  9
$STEPSIZE
 40
6.0
  9
$3DDWFPREC
 40
2.0
  9
$PSOLWIDTH
 40
0.25
  9
$PSOLHEIGHT
 40
4.0
  9
$LOFTANG1
 40
1.570796326794897
  9
$LOFTANG2
 40
1.570796326794897
  9
$LOFTMAG1
 40
0.0
  9
$LOFTMAG2
 40
0.0
  9
$LOFTPARAM
 70
     7
  9
$LOFTNORMALS
280
     1
  9
$LATITUDE
 40
37.795
  9
$LONGITUDE
 40
-122.394
  9
$NORTHDIRECTION
 40
0.0
  9
$TIMEZONE
 70
 -8000
  9
$LIGHTGLYPHDISPLAY
280
     1
  9
$TILEMODELIGHTSYNCH
280
     1
  9
$SOLIDHIST
280
     1
  9
$SHOWHIST
280
     1
  9
$DWFFRAME
280
     2
  9
$DGNFRAME
280
     2
  9
$REALWORLDSCALE
290
     1
  9
$INTERFERECOLOR
 62
   256
  9
$CSHADOW
280
     0
  9
$SHADOWPLANELOCATION
 40
0.0
  0
ENDSEC
  0
SECTION
  2
CLASSES
  0
CLASS
  1
ACDBDICTIONARYWDFLT
  2
AcDbDictionaryWithDefault
  3
ObjectDBX Classes
 90
        0
 91
        4
280
     0
281
     0
  0
CLASS
  1
VISUALSTYLE
  2
AcDbVisualStyle
  3
ObjectDBX Classes
 90
     4095
 91
        4
280
     0
281
     0
  0
CLASS
  1
MATERIAL
  2
AcDbMaterial
  3
ObjectDBX Classes
 90
     1153
 91
        4
280
     0
281
     0
  0
ENDSEC
  0
SECTION
  2
TABLES
  0
TABLE
  2
VPORT
  5
8
330
0
100
AcDbSymbolTable
 70
     1
  0
VPORT
  5
29
330
8
100
AcDbSymbolTableRecord
100
AcDbViewportTableRecord
  2
*Active
 70
     0
 10
0.0
 20
0.0
 11
1.0
 21
1.0
 12
10.42990654205607
 22
4.5
 13
0.0
 23
0.0
 14
0.5
 24
0.5
 15
0.5
 25
0.5
 16
0.0
 26
0.0
 36
1.0
 17
0.0
 27
0.0
 37
0.0
 40
9.0
 41
1.972972972850329
 42
50.0
 43
0.0
 44
0.0
 50
0.0
 51
0.0
 71
     0
 72
   100
 73
     1
 74
     3
 75
     0
 76
     0
 77
     0
 78
     0
281
     0
 65
     1
110
0.0
120
0.0
130
0.0
111
1.0
121
0.0
131
0.0
112
0.0
122
1.0
132
0.0
 79
     0
146
0.0
 60
     3
 61
     5
292
     1
282
     1
141
0.0
142
0.0
 63
   250
  0
ENDTAB
  0
TABLE
  2
LTYPE
  5
5
330
0
100
AcDbSymbolTable
 70
     1
  0
LTYPE
  5
14
330
5
100
AcDbSymbolTableRecord
100
AcDbLinetypeTableRecord
  2
ByBlock
 70
     0
  3

 72
    65
 73
     0
 40
0.0
  0
LTYPE
  5
15
330
5
100
AcDbSymbolTableRecord
100
AcDbLinetypeTableRecord
  2
ByLayer
 70
     0
  3

 72
    65
 73
     0
 40
0.0
  0
LTYPE
  5
16
330
5
100
AcDbSymbolTableRecord
100
AcDbLinetypeTableRecord
  2
Continuous
 70
     0
  3
Solid line
 72
    65
 73
     0
 40
0.0
  0
ENDTAB
  0
TABLE
  2
LAYER
  5
2
330
0
100
AcDbSymbolTable
 70
     3
  0
LAYER
  5
10
330
2
100
AcDbSymbolTableRecord
100
AcDbLayerTableRecord
  2
0
 70
     0
 62
     7
  6
Continuous
370
    -3
390
F
347
3E
  0
LAYER
  5
40
330
2
100
AcDbSymbolTableRecord
100
AcDbLayerTableRecord
  2
layer 1
 70
     0
 62
     7
  6
Continuous
370
    -3
390
F
347
3E
  0
LAYER
  5
8C
330
2
100
AcDbSymbolTableRecord
100
AcDbLayerTableRecord
  2
Master Guides
 70
     0
 62
     7
  6
Continuous
370
    -3
390
F
347
3E
  0
ENDTAB
  0
TABLE
  2
STYLE
  5
3
330
0
100
AcDbSymbolTable
 70
     1
  0
STYLE
  5
11
330
3
100
AcDbSymbolTableRecord
100
AcDbTextStyleTableRecord
  2
Standard
 70
     0
 40
0.0
 41
1.0
 50
0.0
 71
     0
 42
0.2
  3
txt
  4

  0
ENDTAB
  0
TABLE
  2
VIEW
  5
6
330
0
100
AcDbSymbolTable
 70
     0
  0
ENDTAB
  0
TABLE
  2
UCS
  5
7
330
0
100
AcDbSymbolTable
 70
     0
  0
ENDTAB
  0
TABLE
  2
APPID
  5
9
330
0
100
AcDbSymbolTable
 70
     2
  0
APPID
  5
12
330
9
100
AcDbSymbolTableRecord
100
AcDbRegAppTableRecord
  2
ACAD
 70
     0
  0
APPID
  5
3F
330
9
100
AcDbSymbolTableRecord
100
AcDbRegAppTableRecord
  2
ODA
 70
     0
  0
ENDTAB
  0
TABLE
  2
DIMSTYLE
  5
A
330
0
100
AcDbSymbolTable
 70
     1
100
AcDbDimStyleTable
  0
DIMSTYLE
105
27
330
A
100
AcDbSymbolTableRecord
100
AcDbDimStyleTableRecord
  2
Standard
 70
     0
178
     0
340
11
  0
ENDTAB
  0
TABLE
  2
BLOCK_RECORD
  5
1
330
0
100
AcDbSymbolTable
 70
     1
  0
BLOCK_RECORD
  5
1F
330
1
100
AcDbSymbolTableRecord
100
AcDbBlockTableRecord
  2
*Model_Space
340
22
 70
     0
280
     1
281
     0
  0
BLOCK_RECORD
  5
1B
330
1
100
AcDbSymbolTableRecord
100
AcDbBlockTableRecord
  2
*Paper_Space
340
1E
 70
     0
280
     1
281
     0
  0
BLOCK_RECORD
  5
23
330
1
100
AcDbSymbolTableRecord
100
AcDbBlockTableRecord
  2
*Paper_Space0
340
26
 70
     0
280
     1
281
     0
  0
ENDTAB
  0
ENDSEC
  0
SECTION
  2
BLOCKS
  0
BLOCK
  5
20
330
1F
100
AcDbEntity
  8
0
100
AcDbBlockBegin
  2
*Model_Space
 70
     0
 10
0.0
 20
0.0
 30
0.0
  3
*Model_Space
  1

  0
ENDBLK
  5
21
330
1F
100
AcDbEntity
  8
0
100
AcDbBlockEnd
  0
BLOCK
  5
1C
330
1B
100
AcDbEntity
 67
     1
  8
0
100
AcDbBlockBegin
  2
*Paper_Space
 70
     0
 10
0.0
 20
0.0
 30
0.0
  3
*Paper_Space
  1

  0
ENDBLK
  5
1D
330
1B
100
AcDbEntity
 67
     1
  8
0
100
AcDbBlockEnd
  0
BLOCK
  5
24
330
23
100
AcDbEntity
  8
0
100
AcDbBlockBegin
  2
*Paper_Space0
 70
     0
 10
0.0
 20
0.0
 30
0.0
  3
*Paper_Space0
  1

  0
ENDBLK
  5
25
330
23
100
AcDbEntity
  8
0
100
AcDbBlockEnd
  0
ENDSEC
  0
SECTION
  2
ENTITIES
  0
SPLINE
  5
41
330
1F
100
AcDbEntity
  8
layer 1
 62
   250
100
AcDbSpline
210
0.0
220
0.0
230
1.0
 70
    11
 71
     3
 72
    20
 73
    16
 74
     0
 42
0.0000000001
 43
0.0000000001
 12
1.0
 22
0.0
 32
0.0
 13
1.0
 23
0.0
 33
0.0
 40
0.0
 40
0.0
 40
0.0
 40
0.0
 40
0.2
 40
0.2
 40
0.2
 40
0.2
 40
0.4
 40
0.4
 40
0.4
 40
0.4
 40
0.6
 40
0.6
 40
0.6
 40
0.6
 40
1.0
 40
1.0
 40
1.0
 40
1.0
 10
-187.3071
 20
131.7344
 30
0.0
 10
-187.3071
 20
131.7344
 30
0.0
 10
-98.943
 20
131.7344
 30
0.0
 10
-98.943
 20
131.7344
 30
0.0
 10
-98.943
 20
131.7344
 30
0.0
 10
-98.943
 20
131.7344
 30
0.0
 10
-98.943
 20
-106.5502
 30
0.0
 10
-98.943
 20
-106.5502
 30
0.0
 10
-98.943
 20
-106.5502
 30
0.0
 10
-98.943
 20
-106.5502
 30
0.0
 10
-187.3071
 20
-106.5502
 30
0.0
 10
-187.3071
 20
-106.5502
 30
0.0
 10
-187.3071
 20
-106.5502
 30
0.0
 10
-187.3071
 20
-106.5502
 30
0.0
 10
-187.3071
 20
131.7344
 30
0.0
 10
-187.3071
 20
131.7344
 30
0.0
  0
SPLINE
  5
42
330
1F
100
AcDbEntity
  8
layer 1
 62
     7
100
AcDbSpline
210
0.0
220
0.0
230
1.0
 70
    11
 71
     3
 72
    20
 73
    16
 74
     0
 42
0.0000000001
 43
0.0000000001
 12
1.0
 22
0.0
 32
0.0
 13
1.0
 23
0.0
 33
0.0
 40
0.0
 40
0.0
 40
0.0
 40
0.0
 40
0.2
 40
0.2
 40
0.2
 40
0.2
 40
0.4
 40
0.4
 40
0.4
 40
0.4
 40
0.6
 40
0.6
 40
0.6
 40
0.6
 40
1.0
 40
1.0
 40
1.0
 40
1.0
 10
-100.9481
 20
-58.3247
 30
0.0
 10
-100.9481
 20
-58.3247
 30
0.0
 10
-116.7501
 20
-73.6559
 30
0.0
 10
-116.2425
 20
-93.5171
 30
0.0
 10
-116.2425
 20
-93.5171
 30
0.0
 10
-116.2425
 20
-93.5171
 30
0.0
 10
-115.2657
 20
-104.5646
 30
0.0
 10
-115.2657
 20
-104.5646
 30
0.0
 10
-115.2657
 20
-104.5646
 30
0.0
 10
-115.2657
 20
-104.5646
 30
0.0
 10
-100.9292
 20
-104.5518
 30
0.0
 10
-100.9292
 20
-104.5518
 30
0.0
 10
-100.9292
 20
-104.5518
 30
0.0
 10
-100.9292
 20
-104.5518
 30
0.0
 10
-100.9481
 20
-58.3247
 30
0.0
 10
-100.9481
 20
-58.3247
 30
0.0
  0
SPLINE
  5
43
330
1F
100
AcDbEntity
  8
layer 1
 62
     7
100
AcDbSpline
210
0.0
220
0.0
230
1.0
 70
    11
 71
     3
 72
    24
 73
    20
 74
     0
 42
0.0000000001
 43
0.0000000001
 12
1.0
 22
0.0
 32
0.0
 13
1.0
 23
0.0
 33
0.0
 40
0.0
 40
0.0
 40
0.0
 40
0.0
 40
0.1666666666666667
 40
0.1666666666666667
 40
0.1666666666666667
 40
0.1666666666666667
 40
0.3333333333333333
 40
0.3333333333333333
 40
0.3333333333333333
 40
0.3333333333333333
 40
0.5
 40
0.5
 40
0.5
 40
0.5
 40
0.6666666666666666
 40
0.6666666666666666
 40
0.6666666666666666
 40
0.6666666666666666
 40
1.0
 40
1.0
 40
1.0
 40
1.0
 10
-114.7239
 20
86.3792
 30
0.0
 10
-114.7239
 20
86.3792
 30
0.0
 10
-103.9266
 20
94.2672
 30
0.0
 10
-103.9266
 20
94.2672
 30
0.0
 10
-103.9266
 20
94.2672
 30
0.0
 10
-103.9266
 20
94.2672
 30
0.0
 10
-100.9463
 20
96.5169
 30
0.0
 10
-100.9463
 20
96.5169
 30
0.0
 10
-100.9463
 20
96.5169
 30
0.0
 10
-100.9463
 20
96.5169
 30
0.0
 10
-100.9513
 20
90.6028
 30
0.0
 10
-100.9513
 20
90.6028
 30
0.0
 10
-100.9513
 20
90.6028
 30
0.0
 10
-100.9513
 20
90.6028
 30
0.0
 10
-103.9752
 20
87.1196
 30
0.0
 10
-109.3321
 20
85.4171
 30
0.0
 10
-109.3321
 20
85.4171
 30
0.0
 10
-111.2544
 20
84.8061
 30
0.0
 10
-119.5499
 20
82.8536
 30
0.0
 10
-114.7239
 20
86.3792
 30
0.0
  0
SPLINE
  5
44
330
1F
100
AcDbEntity
  8
layer 1
 62
     7
100
AcDbSpline
210
0.0
220
0.0
230
1.0
 70
    11
 71
     3
 72
    20
 73
    16
 74
     0
 42
0.0000000001
 43
0.0000000001
 12
1.0
 22
0.0
 32
0.0
 13
1.0
 23
0.0
 33
0.0
 40
0.0
 40
0.0
 40
0.0
 40
0.0
 40
0.2
 40
0.2
 40
0.2
 40
0.2
 40
0.4
 40
0.4
 40
0.4
 40
0.4
 40
0.6
 40
0.6
 40
0.6
 40
0.6
 40
1.0
 40
1.0
 40
1.0
 40
1.0
 10
-100.9481
 20
116.844
 30
0.0
 10
-100.9481
 20
116.844
 30
0.0
 10
-100.9393
 20
103.9804
 30
0.0
 10
-100.9393
 20
103.9804
 30
0.0
 10
-100.9393
 20
103.9804
 30
0.0
 10
-100.9393
 20
103.9804
 30
0.0
 10
-104.4951
 20
109.3234
 30
0.0
 10
-105.9114
 20
110.0794
 30
0.0
 10
-105.9114
 20
110.0794
 30
0.0
 10
-107.3277
 20
110.8359
 30
0.0
 10
-108.5868
 20
113.1037
 30
0.0
 10
-105.282
 20
114.9401
 30
0.0
 10
-105.282
 20
114.9401
 30
0.0
 10
-108.5868
 20
113.1037
 30
0.0
 10
-100.9481
 20
116.844
 30
0.0
 10
-100.9481
 20
116.844
 30
0.0
  0
SPLINE
  5
45
330
1F
100
AcDbEntity
  8
layer 1
 62
     7
100
AcDbSpline
210
0.0
220
0.0
230
1.0
 70
    11
 71
     3
 72
    32
 73
    28
 74
     0
 42
0.0000000001
 43
0.0000000001
 12
1.0
 22
0.0
 32
0.0
 13
1.0
 23
0.0
 33
0.0
 40
0.0
 40
0.0
 40
0.0
 40
0.0
 40
0.125
 40
0.125
 40
0.125
 40
0.125
 40
0.25
 40
0.25
 40
0.25
 40
0.25
 40
0.375
 40
0.375
 40
0.375
 40
0.375
 40
0.5
 40
0.5
 40
0.5
 40
0.5
 40
0.625
 40
0.625
 40
0.625
 40
0.625
 40
0.75
 40
0.75
 40
0.75
 40
0.75
 40
1.0
 40
1.0
 40
1.0
 40
1.0
 10
-118.1197
 20
113.8867
 30
0.0
 10
-116.6196
 20
114.1895
 30
0.0
 10
-110.8154
 20
110.7509
 30
0.0
 10
-108.5171
 20
108.2115
 30
0.0
 10
-108.5171
 20
108.2115
 30
0.0
 10
-103.9191
 20
103.1281
 30
0.0
 10
-103.4328
 20
101.7513
 30
0.0
 10
-109.5371
 20
95.7669
 30
0.0
 10
-109.5371
 20
95.7669
 30
0.0
 10
-109.5371
 20
95.7669
 30
0.0
 10
-117.1576
 20
90.1958
 30
0.0
 10
-117.1576
 20
90.1958
 30
0.0
 10
-117.1576
 20
90.1958
 30
0.0
 10
-118.7526
 20
87.9322
 30
0.0
 10
-119.7956
 20
88.0374
 30
0.0
 10
-120.2864
 20
90.5114
 30
0.0
 10
-120.2864
 20
90.5114
 30
0.0
 10
-120.2864
 20
90.5114
 30
0.0
 10
-122.3567
 20
96.1396
 30
0.0
 10
-122.3567
 20
96.1396
 30
0.0
 10
-122.3567
 20
96.1396
 30
0.0
 10
-122.3567
 20
96.1396
 30
0.0
 10
-119.9665
 20
112.3953
 30
0.0
 10
-119.9665
 20
112.3953
 30
0.0
 10
-119.9665
 20
112.3953
 30
0.0
 10
-119.9665
 20
112.3953
 30
0.0
 10
-119.9665
 20
113.5136
 30
0.0
 10
-118.1197
 20
113.8867
 30
0.0
  0
SPLINE
  5
46
330
1F
100
AcDbEntity
  8
layer 1
 62
     7
100
AcDbSpline
210
0.0
220
0.0
230
1.0
 70
    11
 71
     3
 72
    36
 73
    32
 74
     0
 42
0.0000000001
 43
0.0000000001
 12
1.0
 22
0.0
 32
0.0
 13
1.0
 23
0.0
 33
0.0
 40
0.0
 40
0.0
 40
0.0
 40
0.0
 40
0.1111111111111111
 40
0.1111111111111111
 40
0.1111111111111111
 40
0.1111111111111111
 40
0.2222222222222222
 40
0.2222222222222222
 40
0.2222222222222222
 40
0.2222222222222222
 40
0.3333333333333333
 40
0.3333333333333333
 40
0.3333333333333333
 40
0.3333333333333333
 40
0.4444444444444444
 40
0.4444444444444444
 40
0.4444444444444444
 40
0.4444444444444444
 40
0.5555555555555556
 40
0.5555555555555556
 40
0.5555555555555556
 40
0.5555555555555556
 40
0.6666666666666666
 40
0.6666666666666666
 40
0.6666666666666666
 40
0.6666666666666666
 40
0.7777777777777778
 40
0.7777777777777778
 40
0.7777777777777778
 40
0.7777777777777778
 40
1.0
 40
1.0
 40
1.0
 40
1.0
 10
-103.1786
 20
-10.3261
 30
0.0
 10
-101.9249
 20
-9.658
 30
0.0
 10
-101.1847
 20
-10.0327
 30
0.0
 10
-100.9465
 20
-11.4538
 30
0.0
 10
-100.9465
 20
-11.4538
 30
0.0
 10
-100.9465
 20
-11.4538
 30
0.0
 10
-100.9356
 20
-40.1157
 30
0.0
 10
-100.9356
 20
-40.1157
 30
0.0
 10
-100.9356
 20
-40.1157
 30
0.0
 10
-100.9356
 20
-40.1157
 30
0.0
 10
-110.413
 20
-47.0069
 30
0.0
 10
-110.413
 20
-47.0069
 30
0.0
 10
-110.413
 20
-47.0069
 30
0.0
 10
-110.413
 20
-47.0069
 30
0.0
 10
-118.7435
 20
-53.8311
 30
0.0
 10
-119.281
 20
-43.5027
 30
0.0
 10
-119.281
 20
-43.5027
 30
0.0
 10
-119.281
 20
-43.5027
 30
0.0
 10
-119.8183
 20
-35.2029
 30
0.0
 10
-119.8183
 20
-35.2029
 30
0.0
 10
-119.8183
 20
-35.2029
 30
0.0
 10
-119.8183
 20
-35.2029
 30
0.0
 10
-114.956
 20
-25.1532
 30
0.0
 10
-111.2237
 20
-20.9104
 30
0.0
 10
-111.2237
 20
-20.9104
 30
0.0
 10
-109.0017
 20
-18.3848
 30
0.0
 10
-109.6466
 20
-18.3223
 30
0.0
 10
-107.151
 20
-15.8219
 30
0.0
 10
-107.151
 20
-15.8219
 30
0.0
 10
-107.151
 20
-15.8219
 30
0.0
 10
-103.1786
 20
-10.3261
 30
0.0
 10
-103.1786
 20
-10.3261
 30
0.0
  0
SPLINE
  5
47
330
1F
100
AcDbEntity
  8
layer 1
 62
     7
100
AcDbSpline
210
0.0
220
0.0
230
1.0
 70
    11
 71
     3
 72
    36
 73
    32
 74
     0
 42
0.0000000001
 43
0.0000000001
 12
1.0
 22
0.0
 32
0.0
 13
1.0
 23
0.0
 33
0.0
 40
0.0
 40
0.0
 40
0.0
 40
0.0
 40
0.1111111111111111
 40
0.1111111111111111
 40
0.1111111111111111
 40
0.1111111111111111
 40
0.2222222222222222
 40
0.2222222222222222
 40
0.2222222222222222
 40
0.2222222222222222
 40
0.3333333333333333
 40
0.3333333333333333
 40
0.3333333333333333
 40
0.3333333333333333
 40
0.4444444444444444
 40
0.4444444444444444
 40
0.4444444444444444
 40
0.4444444444444444
 40
0.5555555555555556
 40
0.5555555555555556
 40
0.5555555555555556
 40
0.5555555555555556
 40
0.6666666666666666
 40
0.6666666666666666
 40
0.6666666666666666
 40
0.6666666666666666
 40
0.7777777777777778
 40
0.7777777777777778
 40
0.7777777777777778
 40
0.7777777777777778
 40
1.0
 40
1.0
 40
1.0
 40
1.0
 10
-185.1191
 20
-33.2512
 30
0.0
 10
-185.1191
 20
-33.2512
 30
0.0
 10
-185.2846
 20
-104.543
 30
0.0
 10
-185.2846
 20
-104.543
 30
0.0
 10
-185.2846
 20
-104.543
 30
0.0
 10
-185.2846
 20
-104.543
 30
0.0
 10
-150.2559
 20
-81.3218
 30
0.0
 10
-139.0874
 20
-46.4779
 30
0.0
 10
-139.0874
 20
-46.4779
 30
0.0
 10
-139.0874
 20
-46.4779
 30
0.0
 10
-136.6759
 20
-26.5298
 30
0.0
 10
-136.6759
 20
-22.3483
 30
0.0
 10
-136.6759
 20
-22.3483
 30
0.0
 10
-136.6759
 20
-22.3483
 30
0.0
 10
-141.9035
 20
-8.9533
 30
0.0
 10
-150.0247
 20
-19.0078
 30
0.0
 10
-150.0247
 20
-19.0078
 30
0.0
 10
-151.1572
 20
-20.4108
 30
0.0
 10
-151.5054
 20
-20.8006
 30
0.0
 10
-153.2248
 20
-21.9756
 30
0.0
 10
-153.2248
 20
-21.9756
 30
0.0
 10
-155.149
 20
-23.291
 30
0.0
 10
-158.1501
 20
-25.2624
 30
0.0
 10
-161.0987
 20
-26.8806
 30
0.0
 10
-161.0987
 20
-26.8806
 30
0.0
 10
-164.569
 20
-28.7854
 30
0.0
 10
-168.9731
 20
-30.0679
 30
0.0
 10
-172.8023
 20
-30.9267
 30
0.0
 10
-172.8023
 20
-30.9267
 30
0.0
 10
-178.0358
 20
-32.1005
 30
0.0
 10
-185.1185
 20
-32.9847
 30
0.0
 10
-185.1191
 20
-33.2512
 30
0.0
  0
SPLINE
  5
48
330
1F
100
AcDbEntity
  8
layer 1
 62
     7
100
AcDbSpline
210
0.0
220
0.0
230
1.0
 70
    11
 71
     3
 72
    24
 73
    20
 74
     0
 42
0.0000000001
 43
0.0000000001
 12
1.0
 22
0.0
 32
0.0
 13
1.0
 23
0.0
 33
0.0
 40
0.0
 40
0.0
 40
0.0
 40
0.0
 40
0.1666666666666667
 40
0.1666666666666667
 40
0.1666666666666667
 40
0.1666666666666667
 40
0.3333333333333333
 40
0.3333333333333333
 40
0.3333333333333333
 40
0.3333333333333333
 40
0.5
 40
0.5
 40
0.5
 40
0.5
 40
0.6666666666666666
 40
0.6666666666666666
 40
0.6666666666666666
 40
0.6666666666666666
 40
1.0
 40
1.0
 40
1.0
 40
1.0
 10
-185.302
 20
-14.5773
 30
0.0
 10
-185.302
 20
-14.5773
 30
0.0
 10
-185.3215
 20
-29.5806
 30
0.0
 10
-185.3215
 20
-29.5806
 30
0.0
 10
-185.3215
 20
-29.5806
 30
0.0
 10
-185.3215
 20
-29.5806
 30
0.0
 10
-173.6808
 20
-27.0545
 30
0.0
 10
-173.6808
 20
-27.0545
 30
0.0
 10
-173.6808
 20
-27.0545
 30
0.0
 10
-173.6808
 20
-27.0545
 30
0.0
 10
-169.5181
 20
-26.7752
 30
0.0
 10
-173.4469
 20
-23.2824
 30
0.0
 10
-173.4469
 20
-23.2824
 30
0.0
 10
-177.0147
 20
-20.1106
 30
0.0
 10
-173.6774
 20
-23.0562
 30
0.0
 10
-181.8925
 20
-16.8582
 30
0.0
 10
-181.8925
 20
-16.8582
 30
0.0
 10
-181.8925
 20
-16.8582
 30
0.0
 10
-185.302
 20
-14.5773
 30
0.0
 10
-185.302
 20
-14.5773
 30
0.0
  0
SPLINE
  5
49
330
1F
100
AcDbEntity
  8
layer 1
 62
     7
100
AcDbSpline
210
0.0
220
0.0
230
1.0
 70
    11
 71
     3
 72
    36
 73
    32
 74
     0
 42
0.0000000001
 43
0.0000000001
 12
1.0
 22
0.0
 32
0.0
 13
1.0
 23
0.0
 33
0.0
 40
0.0
 40
0.0
 40
0.0
 40
0.0
 40
0.1111111111111111
 40
0.1111111111111111
 40
0.1111111111111111
 40
0.1111111111111111
 40
0.2222222222222222
 40
0.2222222222222222
 40
0.2222222222222222
 40
0.2222222222222222
 40
0.3333333333333333
 40
0.3333333333333333
 40
0.3333333333333333
 40
0.3333333333333333
 40
0.4444444444444444
 40
0.4444444444444444
 40
0.4444444444444444
 40
0.4444444444444444
 40
0.5555555555555556
 40
0.5555555555555556
 40
0.5555555555555556
 40
0.5555555555555556
 40
0.6666666666666666
 40
0.6666666666666666
 40
0.6666666666666666
 40
0.6666666666666666
 40
0.7777777777777778
 40
0.7777777777777778
 40
0.7777777777777778
 40
0.7777777777777778
 40
1.0
 40
1.0
 40
1.0
 40
1.0
 10
-185.2662
 20
0.444
 30
0.0
 10
-185.2662
 20
0.444
 30
0.0
 10
-185.2814
 20
-11.2693
 30
0.0
 10
-185.2814
 20
-11.2693
 30
0.0
 10
-185.2814
 20
-11.2693
 30
0.0
 10
-185.2814
 20
-11.2693
 30
0.0
 10
-170.4103
 20
-23.1847
 30
0.0
 10
-170.4103
 20
-23.1847
 30
0.0
 10
-170.4103
 20
-23.1847
 30
0.0
 10
-170.4103
 20
-23.1847
 30
0.0
 10
-167.2118
 20
-27.7319
 30
0.0
 10
-161.9577
 20
-22.5574
 30
0.0
 10
-161.9577
 20
-22.5574
 30
0.0
 10
-161.9577
 20
-22.5574
 30
0.0
 10
-154.4187
 20
-15.9719
 30
0.0
 10
-154.4187
 20
-15.9719
 30
0.0
 10
-154.4187
 20
-15.9719
 30
0.0
 10
-149.1518
 20
-11.371
 30
0.0
 10
-160.9518
 20
-5.5597
 30
0.0
 10
-164.7685
 20
-4.044
 30
0.0
 10
-164.7685
 20
-4.044
 30
0.0
 10
-165.5418
 20
-3.7369
 30
0.0
 10
-166.0943
 20
-3.6464
 30
0.0
 10
-166.827
 20
-3.2872
 30
0.0
 10
-166.827
 20
-3.2872
 30
0.0
 10
-168.7312
 20
-2.3524
 30
0.0
 10
-173.2734
 20
-0.0813
 30
0.0
 10
-177.3554
 20
0.3628
 30
0.0
 10
-177.3554
 20
0.3628
 30
0.0
 10
-184.3262
 20
1.1212
 30
0.0
 10
-184.719
 20
0.4603
 30
0.0
 10
-185.2662
 20
0.444
 30
0.0
  0
SPLINE
  5
4A
330
1F
100
AcDbEntity
  8
layer 1
 62
     7
100
AcDbSpline
210
0.0
220
0.0
230
1.0
 70
    11
 71
     3
 72
    24
 73
    20
 74
     0
 42
0.0000000001
 43
0.0000000001
 12
1.0
 22
0.0
 32
0.0
 13
1.0
 23
0.0
 33
0.0
 40
0.0
 40
0.0
 40
0.0
 40
0.0
 40
0.1666666666666667
 40
0.1666666666666667
 40
0.1666666666666667
 40
0.1666666666666667
 40
0.3333333333333333
 40
0.3333333333333333
 40
0.3333333333333333
 40
0.3333333333333333
 40
0.5
 40
0.5
 40
0.5
 40
0.5
 40
0.6666666666666666
 40
0.6666666666666666
 40
0.6666666666666666
 40
0.6666666666666666
 40
1.0
 40
1.0
 40
1.0
 40
1.0
 10
-185.2918
 20
35.812
 30
0.0
 10
-185.2918
 20
35.812
 30
0.0
 10
-185.2819
 20
5.5092
 30
0.0
 10
-185.2819
 20
5.5092
 30
0.0
 10
-185.2819
 20
5.5092
 30
0.0
 10
-185.2819
 20
5.5092
 30
0.0
 10
-175.8016
 20
5.133
 30
0.0
 10
-175.8016
 20
5.133
 30
0.0
 10
-175.8016
 20
5.133
 30
0.0
 10
-175.8016
 20
5.133
 30
0.0
 10
-171.7809
 20
6.011
 30
0.0
 10
-173.2432
 20
11.7812
 30
0.0
 10
-173.2432
 20
11.7812
 30
0.0
 10
-173.2432
 20
11.7812
 30
0.0
 10
-173.6085
 20
22.9452
 30
0.0
 10
-181.1016
 20
30.9732
 30
0.0
 10
-181.1016
 20
30.9732
 30
0.0
 10
-183.1943
 20
33.9831
 30
0.0
 10
-184.7984
 20
36.2735
 30
0.0
 10
-185.2918
 20
35.812
 30
0.0
  0
SPLINE
  5
4B
330
1F
100
AcDbEntity
  8
layer 1
 62
     7
100
AcDbSpline
210
0.0
220
0.0
230
1.0
 70
    11
 71
     3
 72
    36
 73
    32
 74
     0
 42
0.0000000001
 43
0.0000000001
 12
1.0
 22
0.0
 32
0.0
 13
1.0
 23
0.0
 33
0.0
 40
0.0
 40
0.0
 40
0.0
 40
0.0
 40
0.1111111111111111
 40
0.1111111111111111
 40
0.1111111111111111
 40
0.1111111111111111
 40
0.2222222222222222
 40
0.2222222222222222
 40
0.2222222222222222
 40
0.2222222222222222
 40
0.3333333333333333
 40
0.3333333333333333
 40
0.3333333333333333
 40
0.3333333333333333
 40
0.4444444444444444
 40
0.4444444444444444
 40
0.4444444444444444
 40
0.4444444444444444
 40
0.5555555555555556
 40
0.5555555555555556
 40
0.5555555555555556
 40
0.5555555555555556
 40
0.6666666666666666
 40
0.6666666666666666
 40
0.6666666666666666
 40
0.6666666666666666
 40
0.7777777777777778
 40
0.7777777777777778
 40
0.7777777777777778
 40
0.7777777777777778
 40
1.0
 40
1.0
 40
1.0
 40
1.0
 10
-165.8911
 20
36.682
 30
0.0
 10
-167.7418
 20
31.2186
 30
0.0
 10
-169.7916
 20
26.8289
 30
0.0
 10
-167.7547
 20
16.0751
 30
0.0
 10
-167.7547
 20
16.0751
 30
0.0
 10
-167.7547
 20
16.0751
 30
0.0
 10
-164.3831
 20
2.3265
 30
0.0
 10
-148.3186
 20
-2.9823
 30
0.0
 10
-148.3186
 20
-2.9823
 30
0.0
 10
-148.3186
 20
-2.9823
 30
0.0
 10
-132.056
 20
-8.1552
 30
0.0
 10
-127.2959
 20
-16.3226
 30
0.0
 10
-127.2959
 20
-16.3226
 30
0.0
 10
-127.2959
 20
-16.3226
 30
0.0
 10
-123.5276
 20
-21.2231
 30
0.0
 10
-120.3545
 20
-15.5057
 30
0.0
 10
-120.3545
 20
-15.5057
 30
0.0
 10
-120.3545
 20
-15.5057
 30
0.0
 10
-109.0642
 20
-1.9056
 30
0.0
 10
-118.187
 20
0.6808
 30
0.0
 10
-118.187
 20
0.6808
 30
0.0
 10
-118.187
 20
0.6808
 30
0.0
 10
-141.774
 20
10.2215
 30
0.0
 10
-144.9471
 20
18.253
 30
0.0
 10
-144.9471
 20
18.253
 30
0.0
 10
-144.9471
 20
18.253
 30
0.0
 10
-154.5751
 20
32.4945
 30
0.0
 10
-156.6484
 20
36.6297
 30
0.0
 10
-156.6484
 20
36.6297
 30
0.0
 10
-158.6999
 20
37.8318
 30
0.0
 10
-164.04
 20
42.1457
 30
0.0
 10
-165.8911
 20
36.682
 30
0.0
  0
SPLINE
  5
4C
330
1F
100
AcDbEntity
  8
layer 1
 62
     7
100
AcDbSpline
210
0.0
220
0.0
230
1.0
 70
    11
 71
     3
 72
    32
 73
    28
 74
     0
 42
0.0000000001
 43
0.0000000001
 12
1.0
 22
0.0
 32
0.0
 13
1.0
 23
0.0
 33
0.0
 40
0.0
 40
0.0
 40
0.0
 40
0.0
 40
0.125
 40
0.125
 40
0.125
 40
0.125
 40
0.25
 40
0.25
 40
0.25
 40
0.25
 40
0.375
 40
0.375
 40
0.375
 40
0.375
 40
0.5
 40
0.5
 40
0.5
 40
0.5
 40
0.625
 40
0.625
 40
0.625
 40
0.625
 40
0.75
 40
0.75
 40
0.75
 40
0.75
 40
1.0
 40
1.0
 40
1.0
 40
1.0
 10
-133.2592
 20
51.9882
 30
0.0
 10
-136.6502
 20
41.0204
 30
0.0
 10
-144.0563
 20
24.0561
 30
0.0
 10
-126.615
 20
15.5055
 30
0.0
 10
-126.615
 20
15.5055
 30
0.0
 10
-126.615
 20
15.5055
 30
0.0
 10
-115.4027
 20
10.0899
 30
0.0
 10
-115.4027
 20
10.0899
 30
0.0
 10
-115.4027
 20
10.0899
 30
0.0
 10
-115.4027
 20
10.0899
 30
0.0
 10
-106.6821
 20
4.9594
 30
0.0
 10
-103.3602
 20
17.2156
 30
0.0
 10
-103.3602
 20
17.2156
 30
0.0
 10
-103.3602
 20
17.2156
 30
0.0
 10
-99.982
 20
28.2815
 30
0.0
 10
-101.287
 20
29.625
 30
0.0
 10
-101.287
 20
29.625
 30
0.0
 10
-102.2248
 20
30.5908
 30
0.0
 10
-106.83
 20
36.5058
 30
0.0
 10
-111.2127
 20
41.1841
 30
0.0
 10
-111.2127
 20
41.1841
 30
0.0
 10
-114.8756
 20
45.0942
 30
0.0
 10
-115.1955
 20
46.0702
 30
0.0
 10
-118.6893
 20
49.2471
 30
0.0
 10
-118.6893
 20
49.2471
 30
0.0
 10
-123.3329
 20
53.4696
 30
0.0
 10
-131.193
 20
58.6719
 30
0.0
 10
-133.2592
 20
51.9882
 30
0.0
  0
SPLINE
  5
4D
330
1F
100
AcDbEntity
  8
layer 1
 62
     7
100
AcDbSpline
210
0.0
220
0.0
230
1.0
 70
    11
 71
     3
 72
    20
 73
    16
 74
     0
 42
0.0000000001
 43
0.0000000001
 12
1.0
 22
0.0
 32
0.0
 13
1.0
 23
0.0
 33
0.0
 40
0.0
 40
0.0
 40
0.0
 40
0.0
 40
0.2
 40
0.2
 40
0.2
 40
0.2
 40
0.4
 40
0.4
 40
0.4
 40
0.4
 40
0.6
 40
0.6
 40
0.6
 40
0.6
 40
1.0
 40
1.0
 40
1.0
 40
1.0
 10
-101.0023
 20
64.9257
 30
0.0
 10
-101.0023
 20
64.9257
 30
0.0
 10
-108.7619
 20
56.2702
 30
0.0
 10
-108.7619
 20
56.2702
 30
0.0
 10
-108.7619
 20
56.2702
 30
0.0
 10
-108.7619
 20
56.2702
 30
0.0
 10
-112.4216
 20
53.6451
 30
0.0
 10
-107.8599
 20
48.2001
 30
0.0
 10
-107.8599
 20
48.2001
 30
0.0
 10
-107.8599
 20
48.2001
 30
0.0
 10
-100.9463
 20
39.6952
 30
0.0
 10
-100.9463
 20
39.6952
 30
0.0
 10
-100.9463
 20
39.6952
 30
0.0
 10
-100.9463
 20
39.6952
 30
0.0
 10
-101.0023
 20
64.9257
 30
0.0
 10
-101.0023
 20
64.9257
 30
0.0
  0
SPLINE
  5
4E
330
1F
100
AcDbEntity
  8
layer 1
 62
     7
100
AcDbSpline
210
0.0
220
0.0
230
1.0
 70
    11
 71
     3
 72
    20
 73
    16
 74
     0
 42
0.0000000001
 43
0.0000000001
 12
1.0
 22
0.0
 32
0.0
 13
1.0
 23
0.0
 33
0.0
 40
0.0
 40
0.0
 40
0.0
 40
0.0
 40
0.2
 40
0.2
 40
0.2
 40
0.2
 40
0.4
 40
0.4
 40
0.4
 40
0.4
 40
0.6
 40
0.6
 40
0.6
 40
0.6
 40
1.0
 40
1.0
 40
1.0
 40
1.0
 10
-123.9591
 20
64.4798
 30
0.0
 10
-123.6996
 20
66.7063
 30
0.0
 10
-114.9461
 20
68.1226
 30
0.0
 10
-113.298
 20
66.4513
 30
0.0
 10
-113.298
 20
66.4513
 30
0.0
 10
-111.6496
 20
64.7802
 30
0.0
 10
-111.577
 20
65.1391
 30
0.0
 10
-112.3842
 20
62.061
 30
0.0
 10
-112.3842
 20
62.061
 30
0.0
 10
-112.3842
 20
62.061
 30
0.0
 10
-117.9096
 20
57.0275
 30
0.0
 10
-121.1089
 20
59.9112
 30
0.0
 10
-121.1089
 20
59.9112
 30
0.0
 10
-124.4013
 20
62.3273
 30
0.0
 10
-124.2182
 20
62.2536
 30
0.0
 10
-123.9591
 20
64.4798
 30
0.0
  0
SPLINE
  5
4F
330
1F
100
AcDbEntity
  8
layer 1
 62
     7
100
AcDbSpline
210
0.0
220
0.0
230
1.0
 70
    11
 71
     3
 72
    32
 73
    28
 74
     0
 42
0.0000000001
 43
0.0000000001
 12
1.0
 22
0.0
 32
0.0
 13
1.0
 23
0.0
 33
0.0
 40
0.0
 40
0.0
 40
0.0
 40
0.0
 40
0.125
 40
0.125
 40
0.125
 40
0.125
 40
0.25
 40
0.25
 40
0.25
 40
0.25
 40
0.375
 40
0.375
 40
0.375
 40
0.375
 40
0.5
 40
0.5
 40
0.5
 40
0.5
 40
0.625
 40
0.625
 40
0.625
 40
0.625
 40
0.75
 40
0.75
 40
0.75
 40
0.75
 40
1.0
 40
1.0
 40
1.0
 40
1.0
 10
-150.0023
 20
63.1062
 30
0.0
 10
-150.0023
 20
63.1062
 30
0.0
 10
-150.2511
 20
61.852
 30
0.0
 10
-150.2511
 20
61.852
 30
0.0
 10
-150.2511
 20
61.852
 30
0.0
 10
-150.2511
 20
61.852
 30
0.0
 10
-148.2708
 20
44.5188
 30
0.0
 10
-148.2708
 20
44.5188
 30
0.0
 10
-148.2708
 20
44.5188
 30
0.0
 10
-148.2708
 20
44.5188
 30
0.0
 10
-143.5225
 20
30.7964
 30
0.0
 10
-141.2381
 20
47.2081
 30
0.0
 10
-141.2381
 20
47.2081
 30
0.0
 10
-141.2381
 20
47.2081
 30
0.0
 10
-138.732
 20
57.5661
 30
0.0
 10
-138.732
 20
57.5661
 30
0.0
 10
-138.732
 20
57.5661
 30
0.0
 10
-138.732
 20
57.5661
 30
0.0
 10
-136.2951
 20
58.8204
 30
0.0
 10
-141.4733
 20
60.7021
 30
0.0
 10
-141.4733
 20
60.7021
 30
0.0
 10
-141.4733
 20
60.7021
 30
0.0
 10
-145.2809
 20
62.7927
 30
0.0
 10
-145.2809
 20
62.7927
 30
0.0
 10
-145.2809
 20
62.7927
 30
0.0
 10
-145.2809
 20
62.7927
 30
0.0
 10
-149.5051
 20
65.6112
 30
0.0
 10
-150.0023
 20
63.1062
 30
0.0
  0
SPLINE
  5
50
330
1F
100
AcDbEntity
  8
layer 1
 62
     7
100
AcDbSpline
210
0.0
220
0.0
230
1.0
 70
    11
 71
     3
 72
    32
 73
    28
 74
     0
 42
0.0000000001
 43
0.0000000001
 12
1.0
 22
0.0
 32
0.0
 13
1.0
 23
0.0
 33
0.0
 40
0.0
 40
0.0
 40
0.0
 40
0.0
 40
0.125
 40
0.125
 40
0.125
 40
0.125
 40
0.25
 40
0.25
 40
0.25
 40
0.25
 40
0.375
 40
0.375
 40
0.375
 40
0.375
 40
0.5
 40
0.5
 40
0.5
 40
0.5
 40
0.625
 40
0.625
 40
0.625
 40
0.625
 40
0.75
 40
0.75
 40
0.75
 40
0.75
 40
1.0
 40
1.0
 40
1.0
 40
1.0
 10
-185.2897
 20
58.18
 30
0.0
 10
-185.2897
 20
58.18
 30
0.0
 10
-185.2811
 20
38.4583
 30
0.0
 10
-185.2811
 20
38.4583
 30
0.0
 10
-185.2811
 20
38.4583
 30
0.0
 10
-185.2811
 20
38.4583
 30
0.0
 10
-179.0668
 20
32.9078
 30
0.0
 10
-179.0668
 20
32.9078
 30
0.0
 10
-179.0668
 20
32.9078
 30
0.0
 10
-179.0668
 20
32.9078
 30
0.0
 10
-176.0251
 20
26.7934
 30
0.0
 10
-172.1139
 20
34.2502
 30
0.0
 10
-172.1139
 20
34.2502
 30
0.0
 10
-172.1139
 20
34.2502
 30
0.0
 10
-168.203
 20
40.3644
 30
0.0
 10
-168.203
 20
40.3644
 30
0.0
 10
-168.203
 20
40.3644
 30
0.0
 10
-168.203
 20
40.3644
 30
0.0
 10
-166.8991
 20
44.3912
 30
0.0
 10
-169.9411
 20
45.2857
 30
0.0
 10
-169.9411
 20
45.2857
 30
0.0
 10
-169.9411
 20
45.2857
 30
0.0
 10
-179.027
 20
49.3867
 30
0.0
 10
-181.8915
 20
55.2777
 30
0.0
 10
-181.8915
 20
55.2777
 30
0.0
 10
-182.6437
 20
57.5493
 30
0.0
 10
-185.2902
 20
59.2431
 30
0.0
 10
-185.2897
 20
58.18
 30
0.0
  0
SPLINE
  5
51
330
1F
100
AcDbEntity
  8
layer 1
 62
     7
100
AcDbSpline
210
0.0
220
0.0
230
1.0
 70
    11
 71
     3
 72
    20
 73
    16
 74
     0
 42
0.0000000001
 43
0.0000000001
 12
1.0
 22
0.0
 32
0.0
 13
1.0
 23
0.0
 33
0.0
 40
0.0
 40
0.0
 40
0.0
 40
0.0
 40
0.2
 40
0.2
 40
0.2
 40
0.2
 40
0.4
 40
0.4
 40
0.4
 40
0.4
 40
0.6
 40
0.6
 40
0.6
 40
0.6
 40
1.0
 40
1.0
 40
1.0
 40
1.0
 10
-185.2932
 20
75.659
 30
0.0
 10
-185.2932
 20
75.659
 30
0.0
 10
-185.2835
 20
63.0648
 30
0.0
 10
-185.2835
 20
63.0648
 30
0.0
 10
-185.2835
 20
63.0648
 30
0.0
 10
-185.2835
 20
63.0648
 30
0.0
 10
-180.1374
 20
58.5082
 30
0.0
 10
-177.6478
 20
61.7833
 30
0.0
 10
-177.6478
 20
61.7833
 30
0.0
 10
-177.6478
 20
61.7833
 30
0.0
 10
-177.4404
 20
67.4791
 30
0.0
 10
-177.4404
 20
67.4791
 30
0.0
 10
-177.4404
 20
67.4791
 30
0.0
 10
-177.3779
 20
69.1987
 30
0.0
 10
-183.8605
 20
74.463
 30
0.0
 10
-185.2932
 20
75.659
 30
0.0
  0
SPLINE
  5
52
330
1F
100
AcDbEntity
  8
layer 1
 62
     7
100
AcDbSpline
210
0.0
220
0.0
230
1.0
 70
    11
 71
     3
 72
    32
 73
    28
 74
     0
 42
0.0000000001
 43
0.0000000001
 12
1.0
 22
0.0
 32
0.0
 13
1.0
 23
0.0
 33
0.0
 40
0.0
 40
0.0
 40
0.0
 40
0.0
 40
0.125
 40
0.125
 40
0.125
 40
0.125
 40
0.25
 40
0.25
 40
0.25
 40
0.25
 40
0.375
 40
0.375
 40
0.375
 40
0.375
 40
0.5
 40
0.5
 40
0.5
 40
0.5
 40
0.625
 40
0.625
 40
0.625
 40
0.625
 40
0.75
 40
0.75
 40
0.75
 40
0.75
 40
1.0
 40
1.0
 40
1.0
 40
1.0
 10
-172.9225
 20
79.1555
 30
0.0
 10
-172.9225
 20
79.1555
 30
0.0
 10
-173.4987
 20
60.0743
 30
0.0
 10
-173.4987
 20
60.0743
 30
0.0
 10
-173.4987
 20
60.0743
 30
0.0
 10
-173.4987
 20
60.0743
 30
0.0
 10
-173.4987
 20
52.8122
 30
0.0
 10
-164.785
 20
50.8188
 30
0.0
 10
-164.785
 20
50.8188
 30
0.0
 10
-164.785
 20
50.8188
 30
0.0
 10
-160.2207
 20
49.1101
 30
0.0
 10
-160.2207
 20
49.1101
 30
0.0
 10
-160.2207
 20
49.1101
 30
0.0
 10
-160.2207
 20
49.1101
 30
0.0
 10
-153.5818
 20
45.4077
 30
0.0
 10
-155.4489
 20
53.5244
 30
0.0
 10
-155.4489
 20
53.5244
 30
0.0
 10
-155.4489
 20
53.5244
 30
0.0
 10
-156.4863
 20
68.0486
 30
0.0
 10
-156.4863
 20
68.0486
 30
0.0
 10
-156.4863
 20
68.0486
 30
0.0
 10
-156.4863
 20
68.0486
 30
0.0
 10
-169.7641
 20
78.7282
 30
0.0
 10
-169.7641
 20
78.7282
 30
0.0
 10
-169.7641
 20
78.7282
 30
0.0
 10
-169.7641
 20
78.7282
 30
0.0
 10
-172.8274
 20
82.3163
 30
0.0
 10
-172.9225
 20
79.1555
 30
0.0
  0
SPLINE
  5
53
330
1F
100
AcDbEntity
  8
layer 1
 62
     7
100
AcDbSpline
210
0.0
220
0.0
230
1.0
 70
    11
 71
     3
 72
    36
 73
    32
 74
     0
 42
0.0000000001
 43
0.0000000001
 12
1.0
 22
0.0
 32
0.0
 13
1.0
 23
0.0
 33
0.0
 40
0.0
 40
0.0
 40
0.0
 40
0.0
 40
0.1111111111111111
 40
0.1111111111111111
 40
0.1111111111111111
 40
0.1111111111111111
 40
0.2222222222222222
 40
0.2222222222222222
 40
0.2222222222222222
 40
0.2222222222222222
 40
0.3333333333333333
 40
0.3333333333333333
 40
0.3333333333333333
 40
0.3333333333333333
 40
0.4444444444444444
 40
0.4444444444444444
 40
0.4444444444444444
 40
0.4444444444444444
 40
0.5555555555555556
 40
0.5555555555555556
 40
0.5555555555555556
 40
0.5555555555555556
 40
0.6666666666666666
 40
0.6666666666666666
 40
0.6666666666666666
 40
0.6666666666666666
 40
0.7777777777777778
 40
0.7777777777777778
 40
0.7777777777777778
 40
0.7777777777777778
 40
1.0
 40
1.0
 40
1.0
 40
1.0
 10
-129.676
 20
74.6082
 30
0.0
 10
-126.2959
 20
77.1837
 30
0.0
 10
-124.3348
 20
80.5934
 30
0.0
 10
-117.7106
 20
81.2615
 30
0.0
 10
-117.7106
 20
81.2615
 30
0.0
 10
-110.6771
 20
80.61
 30
0.0
 10
-104.4492
 20
82.3
 30
0.0
 10
-100.9489
 20
86.2294
 30
0.0
 10
-100.9489
 20
86.2294
 30
0.0
 10
-100.9489
 20
86.2294
 30
0.0
 10
-100.9289
 20
74.3946
 30
0.0
 10
-100.9289
 20
74.3946
 30
0.0
 10
-100.9289
 20
74.3946
 30
0.0
 10
-102.2683
 20
73.1826
 30
0.0
 10
-103.6684
 20
71.7473
 30
0.0
 10
-104.9803
 20
70.7496
 30
0.0
 10
-104.9803
 20
70.7496
 30
0.0
 10
-107.2329
 20
69.0369
 30
0.0
 10
-112.2702
 20
69.0586
 30
0.0
 10
-115.4556
 20
69.3013
 30
0.0
 10
-115.4556
 20
69.3013
 30
0.0
 10
-118.7715
 20
69.5544
 30
0.0
 10
-122.3668
 20
69.9459
 30
0.0
 10
-123.2211
 20
68.4326
 30
0.0
 10
-123.2211
 20
68.4326
 30
0.0
 10
-127.0423
 20
61.6658
 30
0.0
 10
-133.5815
 20
61.6148
 30
0.0
 10
-133.1786
 20
66.647
 30
0.0
 10
-133.1786
 20
66.647
 30
0.0
 10
-132.9692
 20
69.2564
 30
0.0
 10
-132.2264
 20
72.6645
 30
0.0
 10
-129.676
 20
74.6082
 30
0.0
  0
SPLINE
  5
54
330
1F
100
AcDbEntity
  8
layer 1
 62
     7
100
AcDbSpline
210
0.0
220
0.0
230
1.0
 70
    11
 71
     3
 72
    32
 73
    28
 74
     0
 42
0.0000000001
 43
0.0000000001
 12
1.0
 22
0.0
 32
0.0
 13
1.0
 23
0.0
 33
0.0
 40
0.0
 40
0.0
 40
0.0
 40
0.0
 40
0.125
 40
0.125
 40
0.125
 40
0.125
 40
0.25
 40
0.25
 40
0.25
 40
0.25
 40
0.375
 40
0.375
 40
0.375
 40
0.375
 40
0.5
 40
0.5
 40
0.5
 40
0.5
 40
0.625
 40
0.625
 40
0.625
 40
0.625
 40
0.75
 40
0.75
 40
0.75
 40
0.75
 40
1.0
 40
1.0
 40
1.0
 40
1.0
 10
-156.8468
 20
86.9955
 30
0.0
 10
-156.8468
 20
86.9955
 30
0.0
 10
-142.3687
 20
86.7231
 30
0.0
 10
-142.3687
 20
86.7231
 30
0.0
 10
-142.3687
 20
86.7231
 30
0.0
 10
-142.3687
 20
86.7231
 30
0.0
 10
-139.7905
 20
87.9482
 30
0.0
 10
-137.0139
 20
80.5974
 30
0.0
 10
-137.0139
 20
80.5974
 30
0.0
 10
-137.0139
 20
80.5974
 30
0.0
 10
-136.419
 20
69.4353
 30
0.0
 10
-136.419
 20
69.4353
 30
0.0
 10
-136.419
 20
69.4353
 30
0.0
 10
-136.419
 20
69.4353
 30
0.0
 10
-135.0307
 20
63.9903
 30
0.0
 10
-144.9471
 20
68.6188
 30
0.0
 10
-144.9471
 20
68.6188
 30
0.0
 10
-144.9471
 20
68.6188
 30
0.0
 10
-151.0952
 20
70.7966
 30
0.0
 10
-152.88
 20
76.2414
 30
0.0
 10
-152.88
 20
76.2414
 30
0.0
 10
-152.88
 20
76.2414
 30
0.0
 10
-153.6737
 20
85.2256
 30
0.0
 10
-155.6569
 20
85.498
 30
0.0
 10
-155.6569
 20
85.498
 30
0.0
 10
-156.4793
 20
86.1244
 30
0.0
 10
-157.7819
 20
87.2948
 30
0.0
 10
-156.8468
 20
86.9955
 30
0.0
  0
SPLINE
  5
55
330
1F
100
AcDbEntity
  8
layer 1
 62
     7
100
AcDbSpline
210
0.0
220
0.0
230
1.0
 70
    11
 71
     3
 72
    28
 73
    24
 74
     0
 42
0.0000000001
 43
0.0000000001
 12
1.0
 22
0.0
 32
0.0
 13
1.0
 23
0.0
 33
0.0
 40
0.0
 40
0.0
 40
0.0
 40
0.0
 40
0.1428571428571428
 40
0.1428571428571428
 40
0.1428571428571428
 40
0.1428571428571428
 40
0.2857142857142857
 40
0.2857142857142857
 40
0.2857142857142857
 40
0.2857142857142857
 40
0.4285714285714285
 40
0.4285714285714285
 40
0.4285714285714285
 40
0.4285714285714285
 40
0.5714285714285714
 40
0.5714285714285714
 40
0.5714285714285714
 40
0.5714285714285714
 40
0.7142857142857143
 40
0.7142857142857143
 40
0.7142857142857143
 40
0.7142857142857143
 40
1.0
 40
1.0
 40
1.0
 40
1.0
 10
-170.9985
 20
84.0795
 30
0.0
 10
-170.9985
 20
84.0795
 30
0.0
 10
-170.6941
 20
86.471
 30
0.0
 10
-170.6941
 20
86.471
 30
0.0
 10
-170.6941
 20
86.471
 30
0.0
 10
-170.6941
 20
86.471
 30
0.0
 10
-168.3499
 20
87.812
 30
0.0
 10
-168.3499
 20
87.812
 30
0.0
 10
-168.3499
 20
87.812
 30
0.0
 10
-168.3499
 20
87.812
 30
0.0
 10
-161.8805
 20
83.9003
 30
0.0
 10
-161.8805
 20
83.9003
 30
0.0
 10
-161.8805
 20
83.9003
 30
0.0
 10
-160.817
 20
83.3999
 30
0.0
 10
-159.6233
 20
82.6589
 30
0.0
 10
-159.5288
 20
80.8319
 30
0.0
 10
-159.5288
 20
80.8319
 30
0.0
 10
-159.5288
 20
80.8319
 30
0.0
 10
-159.0647
 20
75.8331
 30
0.0
 10
-159.0647
 20
75.8331
 30
0.0
 10
-159.0647
 20
75.8331
 30
0.0
 10
-159.0647
 20
75.8331
 30
0.0
 10
-170.9985
 20
84.0795
 30
0.0
 10
-170.9985
 20
84.0795
 30
0.0
  0
SPLINE
  5
56
330
1F
100
AcDbEntity
  8
layer 1
 62
     7
100
AcDbSpline
210
0.0
220
0.0
230
1.0
 70
    11
 71
     3
 72
    28
 73
    24
 74
     0
 42
0.0000000001
 43
0.0000000001
 12
1.0
 22
0.0
 32
0.0
 13
1.0
 23
0.0
 33
0.0
 40
0.0
 40
0.0
 40
0.0
 40
0.0
 40
0.1428571428571428
 40
0.1428571428571428
 40
0.1428571428571428
 40
0.1428571428571428
 40
0.2857142857142857
 40
0.2857142857142857
 40
0.2857142857142857
 40
0.2857142857142857
 40
0.4285714285714285
 40
0.4285714285714285
 40
0.4285714285714285
 40
0.4285714285714285
 40
0.5714285714285714
 40
0.5714285714285714
 40
0.5714285714285714
 40
0.5714285714285714
 40
0.7142857142857143
 40
0.7142857142857143
 40
0.7142857142857143
 40
0.7142857142857143
 40
1.0
 40
1.0
 40
1.0
 40
1.0
 10
-185.2827
 20
96.8774
 30
0.0
 10
-185.2827
 20
96.8774
 30
0.0
 10
-185.2932
 20
79.3632
 30
0.0
 10
-185.2932
 20
79.3632
 30
0.0
 10
-185.2932
 20
79.3632
 30
0.0
 10
-185.2932
 20
79.3632
 30
0.0
 10
-179.9192
 20
74.4328
 30
0.0
 10
-179.9192
 20
74.4328
 30
0.0
 10
-179.9192
 20
74.4328
 30
0.0
 10
-179.9192
 20
74.4328
 30
0.0
 10
-176.1231
 20
71.7318
 30
0.0
 10
-176.6499
 20
76.1925
 30
0.0
 10
-176.6499
 20
76.1925
 30
0.0
 10
-176.6499
 20
76.1925
 30
0.0
 10
-176.2828
 20
86.8376
 30
0.0
 10
-176.2828
 20
86.8376
 30
0.0
 10
-176.2828
 20
86.8376
 30
0.0
 10
-176.2828
 20
86.8376
 30
0.0
 10
-177.0622
 20
90.7873
 30
0.0
 10
-178.7408
 20
93.4883
 30
0.0
 10
-178.7408
 20
93.4883
 30
0.0
 10
-180.4338
 20
95.1137
 30
0.0
 10
-182.3761
 20
95.4491
 30
0.0
 10
-185.2827
 20
96.8774
 30
0.0
  0
SPLINE
  5
57
330
1F
100
AcDbEntity
  8
layer 1
 62
     7
100
AcDbSpline
210
0.0
220
0.0
230
1.0
 70
    11
 71
     3
 72
    20
 73
    16
 74
     0
 42
0.0000000001
 43
0.0000000001
 12
1.0
 22
0.0
 32
0.0
 13
1.0
 23
0.0
 33
0.0
 40
0.0
 40
0.0
 40
0.0
 40
0.0
 40
0.2
 40
0.2
 40
0.2
 40
0.2
 40
0.4
 40
0.4
 40
0.4
 40
0.4
 40
0.6
 40
0.6
 40
0.6
 40
0.6
 40
1.0
 40
1.0
 40
1.0
 40
1.0
 10
-185.2814
 20
108.4596
 30
0.0
 10
-185.2814
 20
108.4596
 30
0.0
 10
-185.2873
 20
100.7178
 30
0.0
 10
-185.2873
 20
100.7178
 30
0.0
 10
-185.2873
 20
100.7178
 30
0.0
 10
-185.2873
 20
100.7178
 30
0.0
 10
-177.5202
 20
98.0777
 30
0.0
 10
-177.5202
 20
98.0777
 30
0.0
 10
-177.5202
 20
98.0777
 30
0.0
 10
-177.5202
 20
98.0777
 30
0.0
 10
-178.4401
 20
101.1197
 30
0.0
 10
-181.3465
 20
104.7166
 30
0.0
 10
-181.3465
 20
104.7166
 30
0.0
 10
-182.2832
 20
105.8758
 30
0.0
 10
-185.2814
 20
108.6195
 30
0.0
 10
-185.2814
 20
108.4596
 30
0.0
  0
SPLINE
  5
58
330
1F
100
AcDbEntity
  8
layer 1
 62
     7
100
AcDbSpline
210
0.0
220
0.0
230
1.0
 70
    11
 71
     3
 72
    40
 73
    36
 74
     0
 42
0.0000000001
 43
0.0000000001
 12
1.0
 22
0.0
 32
0.0
 13
1.0
 23
0.0
 33
0.0
 40
0.0
 40
0.0
 40
0.0
 40
0.0
 40
0.1
 40
0.1
 40
0.1
 40
0.1
 40
0.2
 40
0.2
 40
0.2
 40
0.2
 40
0.3
 40
0.3
 40
0.3
 40
0.3
 40
0.4
 40
0.4
 40
0.4
 40
0.4
 40
0.5
 40
0.5
 40
0.5
 40
0.5
 40
0.6
 40
0.6
 40
0.6
 40
0.6
 40
0.7
 40
0.7
 40
0.7
 40
0.7
 40
0.8
 40
0.8
 40
0.8
 40
0.8
 40
1.0
 40
1.0
 40
1.0
 40
1.0
 10
-124.8339
 20
116.8245
 30
0.0
 10
-124.8339
 20
116.8245
 30
0.0
 10
-139.48
 20
102.2031
 30
0.0
 10
-139.48
 20
102.2031
 30
0.0
 10
-139.48
 20
102.2031
 30
0.0
 10
-139.48
 20
102.2031
 30
0.0
 10
-143.7474
 20
100.2078
 30
0.0
 10
-141.8453
 20
95.3778
 30
0.0
 10
-141.8453
 20
95.3778
 30
0.0
 10
-141.8453
 20
95.3778
 30
0.0
 10
-140.6212
 20
92.5427
 30
0.0
 10
-138.5288
 20
91.4981
 30
0.0
 10
-138.5288
 20
91.4981
 30
0.0
 10
-138.5288
 20
91.4981
 30
0.0
 10
-134.3442
 20
88.6259
 30
0.0
 10
-134.1541
 20
85.6235
 30
0.0
 10
-134.1541
 20
85.6235
 30
0.0
 10
-134.1541
 20
85.6235
 30
0.0
 10
-131.111
 20
80.2709
 30
0.0
 10
-124.4537
 20
83.6651
 30
0.0
 10
-124.4537
 20
83.6651
 30
0.0
 10
-124.4537
 20
83.6651
 30
0.0
 10
-120.4656
 20
88.7808
 30
0.0
 10
-124.0096
 20
93.1841
 30
0.0
 10
-124.0096
 20
93.1841
 30
0.0
 10
-125.4136
 20
94.9286
 30
0.0
 10
-125.3143
 20
96.2077
 30
0.0
 10
-125.1188
 20
97.3154
 30
0.0
 10
-125.1188
 20
97.3154
 30
0.0
 10
-124.287
 20
102.0292
 30
0.0
 10
-122.5967
 20
110.3507
 30
0.0
 10
-121.4808
 20
114.9524
 30
0.0
 10
-121.4808
 20
114.9524
 30
0.0
 10
-120.9879
 20
117.5028
 30
0.0
 10
-121.6643
 20
119.9894
 30
0.0
 10
-124.8339
 20
116.8245
 30
0.0
  0
SPLINE
  5
59
330
1F
100
AcDbEntity
  8
layer 1
 62
     7
100
AcDbSpline
210
0.0
220
0.0
230
1.0
 70
    11
 71
     3
 72
    28
 73
    24
 74
     0
 42
0.0000000001
 43
0.0000000001
 12
1.0
 22
0.0
 32
0.0
 13
1.0
 23
0.0
 33
0.0
 40
0.0
 40
0.0
 40
0.0
 40
0.0
 40
0.1428571428571428
 40
0.1428571428571428
 40
0.1428571428571428
 40
0.1428571428571428
 40
0.2857142857142857
 40
0.2857142857142857
 40
0.2857142857142857
 40
0.2857142857142857
 40
0.4285714285714285
 40
0.4285714285714285
 40
0.4285714285714285
 40
0.4285714285714285
 40
0.5714285714285714
 40
0.5714285714285714
 40
0.5714285714285714
 40
0.5714285714285714
 40
0.7142857142857143
 40
0.7142857142857143
 40
0.7142857142857143
 40
0.7142857142857143
 40
1.0
 40
1.0
 40
1.0
 40
1.0
 10
-110.3524
 20
129.7237
 30
0.0
 10
-110.3524
 20
129.7237
 30
0.0
 10
-100.9567
 20
129.7237
 30
0.0
 10
-100.9567
 20
129.7237
 30
0.0
 10
-100.9567
 20
129.7237
 30
0.0
 10
-100.9567
 20
129.7237
 30
0.0
 10
-100.9484
 20
119.2919
 30
0.0
 10
-100.9484
 20
119.2919
 30
0.0
 10
-100.9484
 20
119.2919
 30
0.0
 10
-100.9484
 20
119.2919
 30
0.0
 10
-110.3868
 20
115.1414
 30
0.0
 10
-110.3868
 20
115.1414
 30
0.0
 10
-110.3868
 20
115.1414
 30
0.0
 10
-113.4283
 20
113.8039
 30
0.0
 10
-117.8466
 20
117.0491
 30
0.0
 10
-117.1517
 20
119.0067
 30
0.0
 10
-117.1517
 20
119.0067
 30
0.0
 10
-115.7378
 20
122.9908
 30
0.0
 10
-116.5467
 20
120.7672
 30
0.0
 10
-114.8048
 20
123.7326
 30
0.0
 10
-114.8048
 20
123.7326
 30
0.0
 10
-113.3965
 20
126.1303
 30
0.0
 10
-110.3524
 20
129.7237
 30
0.0
 10
-110.3524
 20
129.7237
 30
0.0
  0
SPLINE
  5
5A
330
1F
100
AcDbEntity
  8
layer 1
 62
     7
100
AcDbSpline
210
0.0
220
0.0
230
1.0
 70
    11
 71
     3
 72
    24
 73
    20
 74
     0
 42
0.0000000001
 43
0.0000000001
 12
1.0
 22
0.0
 32
0.0
 13
1.0
 23
0.0
 33
0.0
 40
0.0
 40
0.0
 40
0.0
 40
0.0
 40
0.1666666666666667
 40
0.1666666666666667
 40
0.1666666666666667
 40
0.1666666666666667
 40
0.3333333333333333
 40
0.3333333333333333
 40
0.3333333333333333
 40
0.3333333333333333
 40
0.5
 40
0.5
 40
0.5
 40
0.5
 40
0.6666666666666666
 40
0.6666666666666666
 40
0.6666666666666666
 40
0.6666666666666666
 40
1.0
 40
1.0
 40
1.0
 40
1.0
 10
-132.8226
 20
129.7488
 30
0.0
 10
-132.8226
 20
129.7488
 30
0.0
 10
-113.4219
 20
129.7488
 30
0.0
 10
-113.4219
 20
129.7488
 30
0.0
 10
-113.4219
 20
129.7488
 30
0.0
 10
-113.4219
 20
129.7488
 30
0.0
 10
-117.9053
 20
122.0121
 30
0.0
 10
-117.9053
 20
122.0121
 30
0.0
 10
-117.9053
 20
122.0121
 30
0.0
 10
-117.9053
 20
122.0121
 30
0.0
 10
-119.0071
 20
120.7592
 30
0.0
 10
-120.6512
 20
120.9672
 30
0.0
 10
-120.6512
 20
120.9672
 30
0.0
 10
-122.628
 20
121.2174
 30
0.0
 10
-124.9544
 20
123.1008
 30
0.0
 10
-126.3966
 20
124.2658
 30
0.0
 10
-126.3966
 20
124.2658
 30
0.0
 10
-129.1254
 20
126.4691
 30
0.0
 10
-132.8226
 20
129.7488
 30
0.0
 10
-132.8226
 20
129.7488
 30
0.0
  0
SPLINE
  5
5B
330
1F
100
AcDbEntity
  8
layer 1
 62
     7
100
AcDbSpline
210
0.0
220
0.0
230
1.0
 70
    11
 71
     3
 72
    32
 73
    28
 74
     0
 42
0.0000000001
 43
0.0000000001
 12
1.0
 22
0.0
 32
0.0
 13
1.0
 23
0.0
 33
0.0
 40
0.0
 40
0.0
 40
0.0
 40
0.0
 40
0.125
 40
0.125
 40
0.125
 40
0.125
 40
0.25
 40
0.25
 40
0.25
 40
0.25
 40
0.375
 40
0.375
 40
0.375
 40
0.375
 40
0.5
 40
0.5
 40
0.5
 40
0.5
 40
0.625
 40
0.625
 40
0.625
 40
0.625
 40
0.75
 40
0.75
 40
0.75
 40
0.75
 40
1.0
 40
1.0
 40
1.0
 40
1.0
 10
-164.9436
 20
129.7199
 30
0.0
 10
-164.9436
 20
129.7199
 30
0.0
 10
-161.409
 20
114.8659
 30
0.0
 10
-159.6711
 20
112.4797
 30
0.0
 10
-159.6711
 20
112.4797
 30
0.0
 10
-159.6711
 20
112.4797
 30
0.0
 10
-155.8179
 20
103.5962
 30
0.0
 10
-149.2994
 20
101.6575
 30
0.0
 10
-149.2994
 20
101.6575
 30
0.0
 10
-149.2994
 20
101.6575
 30
0.0
 10
-146.4748
 20
99.4206
 30
0.0
 10
-139.0874
 20
105.9826
 30
0.0
 10
-139.0874
 20
105.9826
 30
0.0
 10
-139.0874
 20
105.9826
 30
0.0
 10
-127.1365
 20
117.7639
 30
0.0
 10
-127.1365
 20
117.7639
 30
0.0
 10
-127.1365
 20
117.7639
 30
0.0
 10
-127.1365
 20
117.7639
 30
0.0
 10
-123.0085
 20
121.1939
 30
0.0
 10
-132.1342
 20
125.0712
 30
0.0
 10
-132.1342
 20
125.0712
 30
0.0
 10
-132.1342
 20
125.0712
 30
0.0
 10
-136.2615
 20
129.7237
 30
0.0
 10
-136.2615
 20
129.7237
 30
0.0
 10
-136.2615
 20
129.7237
 30
0.0
 10
-136.2615
 20
129.7237
 30
0.0
 10
-164.9436
 20
129.7199
 30
0.0
 10
-164.9436
 20
129.7199
 30
0.0
  0
SPLINE
  5
5C
330
1F
100
AcDbEntity
  8
layer 1
 62
     7
100
AcDbSpline
210
0.0
220
0.0
230
1.0
 70
    11
 71
     3
 72
    28
 73
    24
 74
     0
 42
0.0000000001
 43
0.0000000001
 12
1.0
 22
0.0
 32
0.0
 13
1.0
 23
0.0
 33
0.0
 40
0.0
 40
0.0
 40
0.0
 40
0.0
 40
0.1428571428571428
 40
0.1428571428571428
 40
0.1428571428571428
 40
0.1428571428571428
 40
0.2857142857142857
 40
0.2857142857142857
 40
0.2857142857142857
 40
0.2857142857142857
 40
0.4285714285714285
 40
0.4285714285714285
 40
0.4285714285714285
 40
0.4285714285714285
 40
0.5714285714285714
 40
0.5714285714285714
 40
0.5714285714285714
 40
0.5714285714285714
 40
0.7142857142857143
 40
0.7142857142857143
 40
0.7142857142857143
 40
0.7142857142857143
 40
1.0
 40
1.0
 40
1.0
 40
1.0
 10
-185.2803
 20
129.7245
 30
0.0
 10
-185.2803
 20
129.7245
 30
0.0
 10
-185.2761
 20
111.7136
 30
0.0
 10
-185.2761
 20
111.7136
 30
0.0
 10
-185.2761
 20
111.7136
 30
0.0
 10
-185.2761
 20
111.3451
 30
0.0
 10
-176.949
 20
104.3361
 30
0.0
 10
-174.7895
 20
99.7488
 30
0.0
 10
-174.7895
 20
99.7488
 30
0.0
 10
-174.0592
 20
92.5208
 30
0.0
 10
-164.4376
 20
91.7948
 30
0.0
 10
-147.1461
 20
92.0172
 30
0.0
 10
-147.1461
 20
92.0172
 30
0.0
 10
-152.4896
 20
98.1084
 30
0.0
 10
-157.835
 20
103.4589
 30
0.0
 10
-163.1791
 20
112.045
 30
0.0
 10
-163.1791
 20
112.045
 30
0.0
 10
-163.1791
 20
112.045
 30
0.0
 10
-168.6164
 20
129.7373
 30
0.0
 10
-168.6164
 20
129.7373
 30
0.0
 10
-168.6164
 20
129.7373
 30
0.0
 10
-168.6164
 20
129.7373
 30
0.0
 10
-185.2803
 20
129.7245
 30
0.0
 10
-185.2803
 20
129.7245
 30
0.0
  0
SPLINE
  5
5D
330
1F
100
AcDbEntity
  8
layer 1
 62
   250
100
AcDbSpline
210
0.0
220
0.0
230
1.0
 70
    11
 71
     3
 72
    20
 73
    16
 74
     0
 42
0.0000000001
 43
0.0000000001
 12
1.0
 22
0.0
 32
0.0
 13
1.0
 23
0.0
 33
0.0
 40
0.0
 40
0.0
 40
0.0
 40
0.0
 40
0.2
 40
0.2
 40
0.2
 40
0.2
 40
0.4
 40
0.4
 40
0.4
 40
0.4
 40
0.6
 40
0.6
 40
0.6
 40
0.6
 40
1.0
 40
1.0
 40
1.0
 40
1.0
 10
-96.7299
 20
131.4804
 30
0.0
 10
-96.7299
 20
131.4804
 30
0.0
 10
-9.0216
 20
131.4804
 30
0.0
 10
-9.0216
 20
131.4804
 30
0.0
 10
-9.0216
 20
131.4804
 30
0.0
 10
-9.0216
 20
131.4804
 30
0.0
 10
-9.2695
 20
-106.3726
 30
0.0
 10
-9.2695
 20
-106.3726
 30
0.0
 10
-9.2695
 20
-106.3726
 30
0.0
 10
-9.2695
 20
-106.3726
 30
0.0
 10
-96.4823
 20
-106.3726
 30
0.0
 10
-96.4823
 20
-106.3726
 30
0.0
 10
-96.4823
 20
-106.3726
 30
0.0
 10
-96.4823
 20
-106.3726
 30
0.0
 10
-96.7299
 20
131.4804
 30
0.0
 10
-96.7299
 20
131.4804
 30
0.0
  0
SPLINE
  5
5E
330
1F
100
AcDbEntity
  8
layer 1
 62
     7
100
AcDbSpline
210
0.0
220
0.0
230
1.0
 70
    11
 71
     3
 72
    16
 73
    12
 74
     0
 42
0.0000000001
 43
0.0000000001
 12
1.0
 22
0.0
 32
0.0
 13
1.0
 23
0.0
 33
0.0
 40
0.0
 40
0.0
 40
0.0
 40
0.0
 40
0.25
 40
0.25
 40
0.25
 40
0.25
 40
0.5
 40
0.5
 40
0.5
 40
0.5
 40
1.0
 40
1.0
 40
1.0
 40
1.0
 10
-94.4733
 20
-82.6318
 30
0.0
 10
-94.4733
 20
-82.6318
 30
0.0
 10
-94.4725
 20
-104.3902
 30
0.0
 10
-94.4725
 20
-104.3902
 30
0.0
 10
-94.4725
 20
-104.3902
 30
0.0
 10
-94.4725
 20
-104.3902
 30
0.0
 10
-81.6411
 20
-104.0366
 30
0.0
 10
-81.6411
 20
-104.0366
 30
0.0
 10
-81.6411
 20
-104.0366
 30
0.0
 10
-81.6411
 20
-104.0366
 30
0.0
 10
-94.4735
 20
-76.1878
 30
0.0
 10
-94.4733
 20
-82.6318
 30
0.0
  0
SPLINE
  5
5F
330
1F
100
AcDbEntity
  8
layer 1
 62
     7
100
AcDbSpline
210
0.0
220
0.0
230
1.0
 70
    11
 71
     3
 72
    24
 73
    20
 74
     0
 42
0.0000000001
 43
0.0000000001
 12
1.0
 22
0.0
 32
0.0
 13
1.0
 23
0.0
 33
0.0
 40
0.0
 40
0.0
 40
0.0
 40
0.0
 40
0.1666666666666667
 40
0.1666666666666667
 40
0.1666666666666667
 40
0.1666666666666667
 40
0.3333333333333333
 40
0.3333333333333333
 40
0.3333333333333333
 40
0.3333333333333333
 40
0.5
 40
0.5
 40
0.5
 40
0.5
 40
0.6666666666666666
 40
0.6666666666666666
 40
0.6666666666666666
 40
0.6666666666666666
 40
1.0
 40
1.0
 40
1.0
 40
1.0
 10
-80.5251
 20
129.4659
 30
0.0
 10
-80.5251
 20
129.4659
 30
0.0
 10
-72.2098
 20
116.5843
 30
0.0
 10
-63.6138
 20
106.7211
 30
0.0
 10
-63.6138
 20
106.7211
 30
0.0
 10
-58.8267
 20
101.2281
 30
0.0
 10
-56.7865
 20
103.864
 30
0.0
 10
-50.7442
 20
108.3111
 30
0.0
 10
-50.7442
 20
108.3111
 30
0.0
 10
-49.2232
 20
109.4299
 30
0.0
 10
-48.7408
 20
110.8712
 30
0.0
 10
-47.9169
 20
112.3119
 30
0.0
 10
-47.9169
 20
112.3119
 30
0.0
 10
-47.0283
 20
119.5858
 30
0.0
 10
-41.3523
 20
123.7082
 30
0.0
 10
-38.059
 20
129.4658
 30
0.0
 10
-38.059
 20
129.4658
 30
0.0
 10
-38.059
 20
129.4658
 30
0.0
 10
-80.5251
 20
129.4659
 30
0.0
 10
-80.5251
 20
129.4659
 30
0.0
  0
SPLINE
  5
60
330
1F
100
AcDbEntity
  8
layer 1
 62
     7
100
AcDbSpline
210
0.0
220
0.0
230
1.0
 70
    11
 71
     3
 72
    44
 73
    40
 74
     0
 42
0.0000000001
 43
0.0000000001
 12
1.0
 22
0.0
 32
0.0
 13
1.0
 23
0.0
 33
0.0
 40
0.0
 40
0.0
 40
0.0
 40
0.0
 40
0.0909090909090909
 40
0.0909090909090909
 40
0.0909090909090909
 40
0.0909090909090909
 40
0.1818181818181818
 40
0.1818181818181818
 40
0.1818181818181818
 40
0.1818181818181818
 40
0.2727272727272727
 40
0.2727272727272727
 40
0.2727272727272727
 40
0.2727272727272727
 40
0.3636363636363636
 40
0.3636363636363636
 40
0.3636363636363636
 40
0.3636363636363636
 40
0.4545454545454545
 40
0.4545454545454545
 40
0.4545454545454545
 40
0.4545454545454545
 40
0.5454545454545454
 40
0.5454545454545454
 40
0.5454545454545454
 40
0.5454545454545454
 40
0.6363636363636364
 40
0.6363636363636364
 40
0.6363636363636364
 40
0.6363636363636364
 40
0.7272727272727273
 40
0.7272727272727273
 40
0.7272727272727273
 40
0.7272727272727273
 40
0.8181818181818182
 40
0.8181818181818182
 40
0.8181818181818182
 40
0.8181818181818182
 40
1.0
 40
1.0
 40
1.0
 40
1.0
 10
-33.8693
 20
129.4189
 30
0.0
 10
-34.2681
 20
129.2804
 30
0.0
 10
-41.0184
 20
122.832
 30
0.0
 10
-43.6868
 20
110.3443
 30
0.0
 10
-43.6868
 20
110.3443
 30
0.0
 10
-43.9087
 20
109.3062
 30
0.0
 10
-43.7846
 20
109.104
 30
0.0
 10
-44.5199
 20
108.3778
 30
0.0
 10
-44.5199
 20
108.3778
 30
0.0
 10
-46.4147
 20
106.5064
 30
0.0
 10
-52.6386
 20
100.4835
 30
0.0
 10
-54.6959
 20
100.0426
 30
0.0
 10
-54.6959
 20
100.0426
 30
0.0
 10
-57.1343
 20
99.52
 30
0.0
 10
-55.1317
 20
90.6341
 30
0.0
 10
-55.1317
 20
90.6341
 30
0.0
 10
-55.1317
 20
90.6341
 30
0.0
 10
-55.1317
 20
90.6341
 30
0.0
 10
-55.9151
 20
84.8842
 30
0.0
 10
-39.8212
 20
90.2856
 30
0.0
 10
-39.8212
 20
90.2856
 30
0.0
 10
-39.9949
 20
90.162
 30
0.0
 10
-34.4557
 20
93.0694
 30
0.0
 10
-29.6967
 20
96.4673
 30
0.0
 10
-29.6967
 20
96.4673
 30
0.0
 10
-24.9379
 20
99.8654
 30
0.0
 10
-18.2233
 20
111.724
 30
0.0
 10
-15.8755
 20
113.807
 30
0.0
 10
-15.8755
 20
113.807
 30
0.0
 10
-15.8755
 20
113.807
 30
0.0
 10
-11.2773
 20
117.887
 30
0.0
 10
-11.2773
 20
117.887
 30
0.0
 10
-11.2773
 20
117.887
 30
0.0
 10
-11.2773
 20
117.887
 30
0.0
 10
-11.279
 20
129.4673
 30
0.0
 10
-11.279
 20
129.4673
 30
0.0
 10
-11.279
 20
129.4673
 30
0.0
 10
-11.279
 20
129.4673
 30
0.0
 10
-33.4556
 20
129.5626
 30
0.0
 10
-33.8693
 20
129.4189
 30
0.0
  0
SPLINE
  5
61
330
1F
100
AcDbEntity
  8
layer 1
 62
     7
100
AcDbSpline
210
0.0
220
0.0
230
1.0
 70
    11
 71
     3
 72
    28
 73
    24
 74
     0
 42
0.0000000001
 43
0.0000000001
 12
1.0
 22
0.0
 32
0.0
 13
1.0
 23
0.0
 33
0.0
 40
0.0
 40
0.0
 40
0.0
 40
0.0
 40
0.1428571428571428
 40
0.1428571428571428
 40
0.1428571428571428
 40
0.1428571428571428
 40
0.2857142857142857
 40
0.2857142857142857
 40
0.2857142857142857
 40
0.2857142857142857
 40
0.4285714285714285
 40
0.4285714285714285
 40
0.4285714285714285
 40
0.4285714285714285
 40
0.5714285714285714
 40
0.5714285714285714
 40
0.5714285714285714
 40
0.5714285714285714
 40
0.7142857142857143
 40
0.7142857142857143
 40
0.7142857142857143
 40
0.7142857142857143
 40
1.0
 40
1.0
 40
1.0
 40
1.0
 10
-11.4901
 20
109.8845
 30
0.0
 10
-11.8188
 20
109.9152
 30
0.0
 10
-19.387
 20
96.6276
 30
0.0
 10
-31.9694
 20
89.3098
 30
0.0
 10
-31.9694
 20
89.3098
 30
0.0
 10
-31.9694
 20
89.3098
 30
0.0
 10
-31.0916
 20
71.3289
 30
0.0
 10
-28.7506
 20
64.8475
 30
0.0
 10
-28.7506
 20
64.8475
 30
0.0
 10
-28.7506
 20
64.8475
 30
0.0
 10
-26.9949
 20
57.3205
 30
0.0
 10
-20.2647
 20
69.6564
 30
0.0
 10
-20.2647
 20
69.6564
 30
0.0
 10
-20.2647
 20
69.6564
 30
0.0
 10
-15.3927
 20
78.6667
 30
0.0
 10
-11.296
 20
80.1302
 30
0.0
 10
-11.296
 20
80.1302
 30
0.0
 10
-11.2524
 20
81.6335
 30
0.0
 10
-11.297
 20
108.0793
 30
0.0
 10
-11.2782
 20
109.942
 30
0.0
 10
-11.2782
 20
109.942
 30
0.0
 10
-11.2775
 20
110.0112
 30
0.0
 10
-11.4785
 20
109.8835
 30
0.0
 10
-11.4901
 20
109.8845
 30
0.0
  0
SPLINE
  5
62
330
1F
100
AcDbEntity
  8
layer 1
 62
     7
100
AcDbSpline
210
0.0
220
0.0
230
1.0
 70
    11
 71
     3
 72
    36
 73
    32
 74
     0
 42
0.0000000001
 43
0.0000000001
 12
1.0
 22
0.0
 32
0.0
 13
1.0
 23
0.0
 33
0.0
 40
0.0
 40
0.0
 40
0.0
 40
0.0
 40
0.1111111111111111
 40
0.1111111111111111
 40
0.1111111111111111
 40
0.1111111111111111
 40
0.2222222222222222
 40
0.2222222222222222
 40
0.2222222222222222
 40
0.2222222222222222
 40
0.3333333333333333
 40
0.3333333333333333
 40
0.3333333333333333
 40
0.3333333333333333
 40
0.4444444444444444
 40
0.4444444444444444
 40
0.4444444444444444
 40
0.4444444444444444
 40
0.5555555555555556
 40
0.5555555555555556
 40
0.5555555555555556
 40
0.5555555555555556
 40
0.6666666666666666
 40
0.6666666666666666
 40
0.6666666666666666
 40
0.6666666666666666
 40
0.7777777777777778
 40
0.7777777777777778
 40
0.7777777777777778
 40
0.7777777777777778
 40
1.0
 40
1.0
 40
1.0
 40
1.0
 10
-94.4717
 20
129.4667
 30
0.0
 10
-94.4717
 20
129.4667
 30
0.0
 10
-83.9492
 20
129.465
 30
0.0
 10
-83.9492
 20
129.465
 30
0.0
 10
-83.9492
 20
129.465
 30
0.0
 10
-83.4534
 20
129.465
 30
0.0
 10
-81.0568
 20
121.9434
 30
0.0
 10
-70.2772
 20
108.6373
 30
0.0
 10
-70.2772
 20
108.6373
 30
0.0
 10
-68.8138
 20
106.8311
 30
0.0
 10
-69.6317
 20
106.1204
 30
0.0
 10
-70.8425
 20
102.5258
 30
0.0
 10
-70.8425
 20
102.5258
 30
0.0
 10
-71.6869
 20
100.0179
 30
0.0
 10
-73.079
 20
96.7799
 30
0.0
 10
-73.9014
 20
94.2615
 30
0.0
 10
-73.9014
 20
94.2615
 30
0.0
 10
-75.1126
 20
90.5516
 30
0.0
 10
-73.9399
 20
91.2065
 30
0.0
 10
-77.2574
 20
93.2436
 30
0.0
 10
-77.2574
 20
93.2436
 30
0.0
 10
-79.2077
 20
94.4412
 30
0.0
 10
-81.9068
 20
95.6871
 30
0.0
 10
-84.055
 20
95.1641
 30
0.0
 10
-84.055
 20
95.1641
 30
0.0
 10
-84.055
 20
95.1641
 30
0.0
 10
-83.0557
 20
103.3287
 30
0.0
 10
-94.4676
 20
105.4196
 30
0.0
 10
-94.4676
 20
105.4196
 30
0.0
 10
-94.4737
 20
116.1739
 30
0.0
 10
-94.4761
 20
121.2546
 30
0.0
 10
-94.4717
 20
129.4667
 30
0.0
  0
SPLINE
  5
63
330
1F
100
AcDbEntity
  8
layer 1
 62
     7
100
AcDbSpline
210
0.0
220
0.0
230
1.0
 70
    11
 71
     3
 72
    16
 73
    12
 74
     0
 42
0.0000000001
 43
0.0000000001
 12
1.0
 22
0.0
 32
0.0
 13
1.0
 23
0.0
 33
0.0
 40
0.0
 40
0.0
 40
0.0
 40
0.0
 40
0.25
 40
0.25
 40
0.25
 40
0.25
 40
0.5
 40
0.5
 40
0.5
 40
0.5
 40
1.0
 40
1.0
 40
1.0
 40
1.0
 10
-93.7577
 20
102.3935
 30
0.0
 10
-93.0493
 20
102.6741
 30
0.0
 10
-87.1767
 20
101.6612
 30
0.0
 10
-87.0227
 20
89.4645
 30
0.0
 10
-87.0227
 20
89.4645
 30
0.0
 10
-87.0227
 20
89.4645
 30
0.0
 10
-90.0815
 20
93.8453
 30
0.0
 10
-94.4707
 20
94.7165
 30
0.0
 10
-94.4707
 20
94.7165
 30
0.0
 10
-94.4383
 20
97.5932
 30
0.0
 10
-94.7786
 20
101.9888
 30
0.0
 10
-93.7577
 20
102.3935
 30
0.0
  0
SPLINE
  5
64
330
1F
100
AcDbEntity
  8
layer 1
 62
     7
100
AcDbSpline
210
0.0
220
0.0
230
1.0
 70
    11
 71
     3
 72
    32
 73
    28
 74
     0
 42
0.0000000001
 43
0.0000000001
 12
1.0
 22
0.0
 32
0.0
 13
1.0
 23
0.0
 33
0.0
 40
0.0
 40
0.0
 40
0.0
 40
0.0
 40
0.125
 40
0.125
 40
0.125
 40
0.125
 40
0.25
 40
0.25
 40
0.25
 40
0.25
 40
0.375
 40
0.375
 40
0.375
 40
0.375
 40
0.5
 40
0.5
 40
0.5
 40
0.5
 40
0.625
 40
0.625
 40
0.625
 40
0.625
 40
0.75
 40
0.75
 40
0.75
 40
0.75
 40
1.0
 40
1.0
 40
1.0
 40
1.0
 10
-67.4176
 20
103.2637
 30
0.0
 10
-67.696
 20
103.535
 30
0.0
 10
-69.0182
 20
94.6539
 30
0.0
 10
-73.5544
 20
87.6038
 30
0.0
 10
-73.5544
 20
87.6038
 30
0.0
 10
-73.5544
 20
87.6038
 30
0.0
 10
-75.6833
 20
84.5614
 30
0.0
 10
-76.1007
 20
80.8329
 30
0.0
 10
-76.1007
 20
80.8329
 30
0.0
 10
-76.1007
 20
80.8329
 30
0.0
 10
-75.7252
 20
75.9708
 30
0.0
 10
-75.7252
 20
75.9708
 30
0.0
 10
-75.7252
 20
75.9708
 30
0.0
 10
-75.7252
 20
75.9708
 30
0.0
 10
-68.5448
 20
85.6062
 30
0.0
 10
-62.7839
 20
88.4991
 30
0.0
 10
-62.7839
 20
88.4991
 30
0.0
 10
-62.7839
 20
88.4991
 30
0.0
 10
-62.6293
 20
95.9409
 30
0.0
 10
-62.6293
 20
95.9409
 30
0.0
 10
-62.6293
 20
95.9409
 30
0.0
 10
-62.4028
 20
97.5997
 30
0.0
 10
-62.4215
 20
99.1665
 30
0.0
 10
-64.156
 20
100.0897
 30
0.0
 10
-64.156
 20
100.0897
 30
0.0
 10
-64.156
 20
100.0897
 30
0.0
 10
-67.4176
 20
103.2637
 30
0.0
 10
-67.4176
 20
103.2637
 30
0.0
  0
SPLINE
  5
65
330
1F
100
AcDbEntity
  8
layer 1
 62
     7
100
AcDbSpline
210
0.0
220
0.0
230
1.0
 70
    11
 71
     3
 72
    28
 73
    24
 74
     0
 42
0.0000000001
 43
0.0000000001
 12
1.0
 22
0.0
 32
0.0
 13
1.0
 23
0.0
 33
0.0
 40
0.0
 40
0.0
 40
0.0
 40
0.0
 40
0.1428571428571428
 40
0.1428571428571428
 40
0.1428571428571428
 40
0.1428571428571428
 40
0.2857142857142857
 40
0.2857142857142857
 40
0.2857142857142857
 40
0.2857142857142857
 40
0.4285714285714285
 40
0.4285714285714285
 40
0.4285714285714285
 40
0.4285714285714285
 40
0.5714285714285714
 40
0.5714285714285714
 40
0.5714285714285714
 40
0.5714285714285714
 40
0.7142857142857143
 40
0.7142857142857143
 40
0.7142857142857143
 40
0.7142857142857143
 40
1.0
 40
1.0
 40
1.0
 40
1.0
 10
-63.2013
 20
83.9351
 30
0.0
 10
-63.2013
 20
83.9351
 30
0.0
 10
-71.3418
 20
75.8813
 30
0.0
 10
-71.3418
 20
75.8813
 30
0.0
 10
-71.3418
 20
75.8813
 30
0.0
 10
-71.3418
 20
75.8813
 30
0.0
 10
-75.3078
 20
69.7665
 30
0.0
 10
-73.4291
 20
64.099
 30
0.0
 10
-73.4291
 20
64.099
 30
0.0
 10
-73.4291
 20
64.099
 30
0.0
 10
-70.0896
 20
55.1504
 30
0.0
 10
-66.1235
 20
61.7128
 30
0.0
 10
-66.1235
 20
61.7128
 30
0.0
 10
-66.1235
 20
61.7128
 30
0.0
 10
-64.122
 20
63.1676
 30
0.0
 10
-63.6935
 20
67.4433
 30
0.0
 10
-63.6935
 20
67.4433
 30
0.0
 10
-63.0286
 20
74.0756
 30
0.0
 10
-63.5294
 20
68.2515
 30
0.0
 10
-63.2741
 20
75.8275
 30
0.0
 10
-63.2741
 20
75.8275
 30
0.0
 10
-63.147
 20
79.6081
 30
0.0
 10
-63.2013
 20
83.9351
 30
0.0
 10
-63.2013
 20
83.9351
 30
0.0
  0
SPLINE
  5
66
330
1F
100
AcDbEntity
  8
layer 1
 62
     7
100
AcDbSpline
210
0.0
220
0.0
230
1.0
 70
    11
 71
     3
 72
    24
 73
    20
 74
     0
 42
0.0000000001
 43
0.0000000001
 12
1.0
 22
0.0
 32
0.0
 13
1.0
 23
0.0
 33
0.0
 40
0.0
 40
0.0
 40
0.0
 40
0.0
 40
0.1666666666666667
 40
0.1666666666666667
 40
0.1666666666666667
 40
0.1666666666666667
 40
0.3333333333333333
 40
0.3333333333333333
 40
0.3333333333333333
 40
0.3333333333333333
 40
0.5
 40
0.5
 40
0.5
 40
0.5
 40
0.6666666666666666
 40
0.6666666666666666
 40
0.6666666666666666
 40
0.6666666666666666
 40
1.0
 40
1.0
 40
1.0
 40
1.0
 10
-52.556
 20
77.5219
 30
0.0
 10
-52.556
 20
77.5219
 30
0.0
 10
-53.3908
 20
66.9329
 30
0.0
 10
-53.3908
 20
66.9329
 30
0.0
 10
-53.3908
 20
66.9329
 30
0.0
 10
-53.3908
 20
66.9329
 30
0.0
 10
-46.0852
 20
59.1773
 30
0.0
 10
-46.5027
 20
64.3973
 30
0.0
 10
-46.5027
 20
64.3973
 30
0.0
 10
-46.5027
 20
64.3973
 30
0.0
 10
-46.9201
 20
72.6002
 30
0.0
 10
-46.9201
 20
72.6002
 30
0.0
 10
-46.9201
 20
72.6002
 30
0.0
 10
-46.9201
 20
72.6002
 30
0.0
 10
-48.59
 20
75.8813
 30
0.0
 10
-50.6773
 20
76.7763
 30
0.0
 10
-50.6773
 20
76.7763
 30
0.0
 10
-48.59
 20
75.8813
 30
0.0
 10
-52.556
 20
77.5219
 30
0.0
 10
-52.556
 20
77.5219
 30
0.0
  0
SPLINE
  5
67
330
1F
100
AcDbEntity
  8
layer 1
 62
     7
100
AcDbSpline
210
0.0
220
0.0
230
1.0
 70
    11
 71
     3
 72
    48
 73
    44
 74
     0
 42
0.0000000001
 43
0.0000000001
 12
1.0
 22
0.0
 32
0.0
 13
1.0
 23
0.0
 33
0.0
 40
0.0
 40
0.0
 40
0.0
 40
0.0
 40
0.0833333333333333
 40
0.0833333333333333
 40
0.0833333333333333
 40
0.0833333333333333
 40
0.1666666666666667
 40
0.1666666666666667
 40
0.1666666666666667
 40
0.1666666666666667
 40
0.25
 40
0.25
 40
0.25
 40
0.25
 40
0.3333333333333333
 40
0.3333333333333333
 40
0.3333333333333333
 40
0.3333333333333333
 40
0.4166666666666667
 40
0.4166666666666667
 40
0.4166666666666667
 40
0.4166666666666667
 40
0.5
 40
0.5
 40
0.5
 40
0.5
 40
0.5833333333333334
 40
0.5833333333333334
 40
0.5833333333333334
 40
0.5833333333333334
 40
0.6666666666666666
 40
0.6666666666666666
 40
0.6666666666666666
 40
0.6666666666666666
 40
0.75
 40
0.75
 40
0.75
 40
0.75
 40
0.8333333333333334
 40
0.8333333333333334
 40
0.8333333333333334
 40
0.8333333333333334
 40
1.0
 40
1.0
 40
1.0
 40
1.0
 10
-50.4686
 20
81.3997
 30
0.0
 10
-50.4686
 20
81.3997
 30
0.0
 10
-39.6145
 20
87.3654
 30
0.0
 10
-39.6145
 20
87.3654
 30
0.0
 10
-39.6145
 20
87.3654
 30
0.0
 10
-39.6145
 20
87.3654
 30
0.0
 10
-35.8572
 20
90.6466
 30
0.0
 10
-35.8572
 20
85.1283
 30
0.0
 10
-35.8572
 20
85.1283
 30
0.0
 10
-35.8572
 20
85.1283
 30
0.0
 10
-36.3715
 20
71.4094
 30
0.0
 10
-33.2056
 20
63.842
 30
0.0
 10
-33.2056
 20
63.842
 30
0.0
 10
-31.9653
 20
60.8767
 30
0.0
 10
-28.2988
 20
60.4849
 30
0.0
 10
-31.4739
 20
56.9401
 30
0.0
 10
-31.4739
 20
56.9401
 30
0.0
 10
-32.1365
 20
55.3093
 30
0.0
 10
-38.8506
 20
46.3567
 30
0.0
 10
-39.8232
 20
50.5269
 30
0.0
 10
-39.8232
 20
50.5269
 30
0.0
 10
-40.032
 20
51.4217
 30
0.0
 10
-39.6145
 20
57.9841
 30
0.0
 10
-42.7455
 20
58.8791
 30
0.0
 10
-42.7455
 20
58.8791
 30
0.0
 10
-42.7455
 20
58.8791
 30
0.0
 10
-45.0416
 20
59.6247
 30
0.0
 10
-43.3717
 20
64.8446
 30
0.0
 10
-43.3717
 20
64.8446
 30
0.0
 10
-43.0608
 20
67.9535
 30
0.0
 10
-43.1305
 20
70.9862
 30
0.0
 10
-43.5804
 20
73.9424
 30
0.0
 10
-43.5804
 20
73.9424
 30
0.0
 10
-43.5804
 20
73.9424
 30
0.0
 10
-43.7485
 20
74.8139
 30
0.0
 10
-45.1602
 20
76.1418
 30
0.0
 10
-45.1602
 20
76.1418
 30
0.0
 10
-48.3666
 20
79.1574
 30
0.0
 10
-48.4112
 20
78.9314
 30
0.0
 10
-49.6839
 20
79.8987
 30
0.0
 10
-49.6839
 20
79.8987
 30
0.0
 10
-50.4481
 20
80.4794
 30
0.0
 10
-50.7947
 20
81.1668
 30
0.0
 10
-50.4686
 20
81.3997
 30
0.0
  0
SPLINE
  5
68
330
1F
100
AcDbEntity
  8
layer 1
 62
     7
100
AcDbSpline
210
0.0
220
0.0
230
1.0
 70
    11
 71
     3
 72
    32
 73
    28
 74
     0
 42
0.0000000001
 43
0.0000000001
 12
1.0
 22
0.0
 32
0.0
 13
1.0
 23
0.0
 33
0.0
 40
0.0
 40
0.0
 40
0.0
 40
0.0
 40
0.125
 40
0.125
 40
0.125
 40
0.125
 40
0.25
 40
0.25
 40
0.25
 40
0.25
 40
0.375
 40
0.375
 40
0.375
 40
0.375
 40
0.5
 40
0.5
 40
0.5
 40
0.5
 40
0.625
 40
0.625
 40
0.625
 40
0.625
 40
0.75
 40
0.75
 40
0.75
 40
0.75
 40
1.0
 40
1.0
 40
1.0
 40
1.0
 10
-94.472
 20
92.2981
 30
0.0
 10
-94.472
 20
92.2981
 30
0.0
 10
-94.4778
 20
51.3205
 30
0.0
 10
-94.4778
 20
51.3205
 30
0.0
 10
-94.4778
 20
51.3205
 30
0.0
 10
-94.4778
 20
51.3205
 30
0.0
 10
-87.3227
 20
45.9844
 30
0.0
 10
-87.3227
 20
45.9844
 30
0.0
 10
-87.3227
 20
45.9844
 30
0.0
 10
-87.3227
 20
45.9844
 30
0.0
 10
-79.7428
 20
37.148
 30
0.0
 10
-74.1578
 20
47.4096
 30
0.0
 10
-74.1578
 20
47.4096
 30
0.0
 10
-74.1578
 20
47.4096
 30
0.0
 10
-69.7695
 20
50.83
 30
0.0
 10
-79.7428
 20
57.3862
 30
0.0
 10
-79.7428
 20
57.3862
 30
0.0
 10
-79.7428
 20
57.3862
 30
0.0
 10
-87.7216
 20
68.503
 30
0.0
 10
-85.7269
 20
79.6196
 30
0.0
 10
-85.7269
 20
79.6196
 30
0.0
 10
-85.7269
 20
79.6196
 30
0.0
 10
-85.8795
 20
80.9805
 30
0.0
 10
-87.0178
 20
83.9758
 30
0.0
 10
-87.0178
 20
83.9758
 30
0.0
 10
-89.2403
 20
89.8224
 30
0.0
 10
-90.5085
 20
89.1277
 30
0.0
 10
-94.472
 20
92.2981
 30
0.0
  0
SPLINE
  5
69
330
1F
100
AcDbEntity
  8
layer 1
 62
     7
100
AcDbSpline
210
0.0
220
0.0
230
1.0
 70
    11
 71
     3
 72
    20
 73
    16
 74
     0
 42
0.0000000001
 43
0.0000000001
 12
1.0
 22
0.0
 32
0.0
 13
1.0
 23
0.0
 33
0.0
 40
0.0
 40
0.0
 40
0.0
 40
0.0
 40
0.2
 40
0.2
 40
0.2
 40
0.2
 40
0.4
 40
0.4
 40
0.4
 40
0.4
 40
0.6
 40
0.6
 40
0.6
 40
0.6
 40
1.0
 40
1.0
 40
1.0
 40
1.0
 10
-90.5688
 20
39.6674
 30
0.0
 10
-90.5688
 20
39.6674
 30
0.0
 10
-94.4476
 20
42.4785
 30
0.0
 10
-94.4476
 20
42.4785
 30
0.0
 10
-94.4476
 20
42.4785
 30
0.0
 10
-94.4476
 20
42.4785
 30
0.0
 10
-94.4865
 20
23.383
 30
0.0
 10
-94.4865
 20
23.383
 30
0.0
 10
-94.4865
 20
23.383
 30
0.0
 10
-94.4865
 20
23.4305
 30
0.0
 10
-90.2986
 20
25.1502
 30
0.0
 10
-89.0942
 20
28.3819
 30
0.0
 10
-89.0942
 20
28.3819
 30
0.0
 10
-87.4437
 20
32.8106
 30
0.0
 10
-86.3695
 20
36.6237
 30
0.0
 10
-90.5688
 20
39.6674
 30
0.0
  0
SPLINE
  5
6A
330
1F
100
AcDbEntity
  8
layer 1
 62
     7
100
AcDbSpline
210
0.0
220
0.0
230
1.0
 70
    11
 71
     3
 72
    36
 73
    32
 74
     0
 42
0.0000000001
 43
0.0000000001
 12
1.0
 22
0.0
 32
0.0
 13
1.0
 23
0.0
 33
0.0
 40
0.0
 40
0.0
 40
0.0
 40
0.0
 40
0.1111111111111111
 40
0.1111111111111111
 40
0.1111111111111111
 40
0.1111111111111111
 40
0.2222222222222222
 40
0.2222222222222222
 40
0.2222222222222222
 40
0.2222222222222222
 40
0.3333333333333333
 40
0.3333333333333333
 40
0.3333333333333333
 40
0.3333333333333333
 40
0.4444444444444444
 40
0.4444444444444444
 40
0.4444444444444444
 40
0.4444444444444444
 40
0.5555555555555556
 40
0.5555555555555556
 40
0.5555555555555556
 40
0.5555555555555556
 40
0.6666666666666666
 40
0.6666666666666666
 40
0.6666666666666666
 40
0.6666666666666666
 40
0.7777777777777778
 40
0.7777777777777778
 40
0.7777777777777778
 40
0.7777777777777778
 40
1.0
 40
1.0
 40
1.0
 40
1.0
 10
-53.8487
 20
62.846
 30
0.0
 10
-53.8487
 20
62.846
 30
0.0
 10
-51.7717
 20
57.5279
 30
0.0
 10
-56.6908
 20
52.9041
 30
0.0
 10
-56.6908
 20
52.9041
 30
0.0
 10
-57.5994
 20
52.0491
 30
0.0
 10
-57.4768
 20
52.0224
 30
0.0
 10
-57.5193
 20
50.9208
 30
0.0
 10
-57.5193
 20
50.9208
 30
0.0
 10
-57.5193
 20
50.9208
 30
0.0
 10
-57.6006
 20
48.8328
 30
0.0
 10
-57.6006
 20
48.8328
 30
0.0
 10
-57.6006
 20
48.8328
 30
0.0
 10
-57.6442
 20
47.7133
 30
0.0
 10
-57.8061
 20
47.4557
 30
0.0
 10
-58.0403
 20
46.4885
 30
0.0
 10
-58.0403
 20
46.4885
 30
0.0
 10
-58.4332
 20
44.8678
 30
0.0
 10
-57.7544
 20
41.0646
 30
0.0
 10
-46.0371
 20
36.572
 30
0.0
 10
-46.0371
 20
36.572
 30
0.0
 10
-46.6236
 20
41.0774
 30
0.0
 10
-42.91
 20
47.5904
 30
0.0
 10
-44.3224
 20
50.1853
 30
0.0
 10
-44.3224
 20
50.1853
 30
0.0
 10
-44.3224
 20
50.1853
 30
0.0
 10
-44.8159
 20
56.0313
 30
0.0
 10
-44.8159
 20
56.0313
 30
0.0
 10
-44.8159
 20
56.0313
 30
0.0
 10
-44.8159
 20
56.0313
 30
0.0
 10
-53.8487
 20
62.846
 30
0.0
 10
-53.8487
 20
62.846
 30
0.0
  0
SPLINE
  5
6B
330
1F
100
AcDbEntity
  8
layer 1
 62
     7
100
AcDbSpline
210
0.0
220
0.0
230
1.0
 70
    11
 71
     3
 72
    44
 73
    40
 74
     0
 42
0.0000000001
 43
0.0000000001
 12
1.0
 22
0.0
 32
0.0
 13
1.0
 23
0.0
 33
0.0
 40
0.0
 40
0.0
 40
0.0
 40
0.0
 40
0.0909090909090909
 40
0.0909090909090909
 40
0.0909090909090909
 40
0.0909090909090909
 40
0.1818181818181818
 40
0.1818181818181818
 40
0.1818181818181818
 40
0.1818181818181818
 40
0.2727272727272727
 40
0.2727272727272727
 40
0.2727272727272727
 40
0.2727272727272727
 40
0.3636363636363636
 40
0.3636363636363636
 40
0.3636363636363636
 40
0.3636363636363636
 40
0.4545454545454545
 40
0.4545454545454545
 40
0.4545454545454545
 40
0.4545454545454545
 40
0.5454545454545454
 40
0.5454545454545454
 40
0.5454545454545454
 40
0.5454545454545454
 40
0.6363636363636364
 40
0.6363636363636364
 40
0.6363636363636364
 40
0.6363636363636364
 40
0.7272727272727273
 40
0.7272727272727273
 40
0.7272727272727273
 40
0.7272727272727273
 40
0.8181818181818182
 40
0.8181818181818182
 40
0.8181818181818182
 40
0.8181818181818182
 40
1.0
 40
1.0
 40
1.0
 40
1.0
 10
-31.7157
 20
48.3265
 30
0.0
 10
-31.7157
 20
48.3265
 30
0.0
 10
-37.2457
 20
43.142
 30
0.0
 10
-37.2457
 20
43.142
 30
0.0
 10
-37.2457
 20
43.142
 30
0.0
 10
-39.1196
 20
41.8292
 30
0.0
 10
-39.8309
 20
40.4849
 30
0.0
 10
-39.99
 20
38.1693
 30
0.0
 10
-39.99
 20
38.1693
 30
0.0
 10
-40.1067
 20
36.4706
 30
0.0
 10
-40.1912
 20
34.1762
 30
0.0
 10
-39.9103
 20
32.5183
 30
0.0
 10
-39.9103
 20
32.5183
 30
0.0
 10
-39.6378
 20
30.9107
 30
0.0
 10
-38.9385
 20
29.3881
 30
0.0
 10
-37.5918
 20
27.9951
 30
0.0
 10
-37.5918
 20
27.9951
 30
0.0
 10
-37.5918
 20
27.9951
 30
0.0
 10
-35.5354
 20
26.1585
 30
0.0
 10
-35.5354
 20
26.1585
 30
0.0
 10
-35.5354
 20
26.1585
 30
0.0
 10
-33.1062
 20
23.9889
 30
0.0
 10
-33.6682
 20
23.2827
 30
0.0
 10
-31.1312
 20
25.5049
 30
0.0
 10
-31.1312
 20
25.5049
 30
0.0
 10
-28.7059
 20
27.6293
 30
0.0
 10
-25.0178
 20
31.6271
 30
0.0
 10
-26.2471
 20
35.4603
 30
0.0
 10
-26.2471
 20
35.4603
 30
0.0
 10
-26.2471
 20
35.4603
 30
0.0
 10
-27.0599
 20
42.3134
 30
0.0
 10
-27.0599
 20
42.3134
 30
0.0
 10
-27.0599
 20
42.3134
 30
0.0
 10
-27.0599
 20
42.3134
 30
0.0
 10
-27.8858
 20
45.5929
 30
0.0
 10
-28.539
 20
48.021
 30
0.0
 10
-28.539
 20
48.021
 30
0.0
 10
-29.5108
 20
51.6322
 30
0.0
 10
-30.7314
 20
50.6794
 30
0.0
 10
-31.7157
 20
48.3265
 30
0.0
  0
SPLINE
  5
6C
330
1F
100
AcDbEntity
  8
layer 1
 62
     7
100
AcDbSpline
210
0.0
220
0.0
230
1.0
 70
    11
 71
     3
 72
    24
 73
    20
 74
     0
 42
0.0000000001
 43
0.0000000001
 12
1.0
 22
0.0
 32
0.0
 13
1.0
 23
0.0
 33
0.0
 40
0.0
 40
0.0
 40
0.0
 40
0.0
 40
0.1666666666666667
 40
0.1666666666666667
 40
0.1666666666666667
 40
0.1666666666666667
 40
0.3333333333333333
 40
0.3333333333333333
 40
0.3333333333333333
 40
0.3333333333333333
 40
0.5
 40
0.5
 40
0.5
 40
0.5
 40
0.6666666666666666
 40
0.6666666666666666
 40
0.6666666666666666
 40
0.6666666666666666
 40
1.0
 40
1.0
 40
1.0
 40
1.0
 10
-25.5968
 20
58.4589
 30
0.0
 10
-25.5968
 20
58.4589
 30
0.0
 10
-27.2226
 20
52.7674
 30
0.0
 10
-23.4835
 20
49.1666
 30
0.0
 10
-23.4835
 20
49.1666
 30
0.0
 10
-23.4835
 20
49.1666
 30
0.0
 10
-20.3296
 20
57.3431
 30
0.0
 10
-13.8872
 20
58.9462
 30
0.0
 10
-13.8872
 20
58.9462
 30
0.0
 10
-13.8872
 20
58.9462
 30
0.0
 10
-11.2775
 20
59.5956
 30
0.0
 10
-11.2775
 20
59.5956
 30
0.0
 10
-11.2775
 20
59.5956
 30
0.0
 10
-11.2775
 20
59.5956
 30
0.0
 10
-11.272
 20
73.2334
 30
0.0
 10
-11.272
 20
73.2334
 30
0.0
 10
-11.272
 20
73.2334
 30
0.0
 10
-11.2695
 20
79.1119
 30
0.0
 10
-21.1252
 20
61.1827
 30
0.0
 10
-25.5968
 20
58.4589
 30
0.0
  0
SPLINE
  5
6D
330
1F
100
AcDbEntity
  8
layer 1
 62
     7
100
AcDbSpline
210
0.0
220
0.0
230
1.0
 70
    11
 71
     3
 72
    16
 73
    12
 74
     0
 42
0.0000000001
 43
0.0000000001
 12
1.0
 22
0.0
 32
0.0
 13
1.0
 23
0.0
 33
0.0
 40
0.0
 40
0.0
 40
0.0
 40
0.0
 40
0.25
 40
0.25
 40
0.25
 40
0.25
 40
0.5
 40
0.5
 40
0.5
 40
0.5
 40
1.0
 40
1.0
 40
1.0
 40
1.0
 10
-11.557
 20
56.7711
 30
0.0
 10
-11.557
 20
56.7711
 30
0.0
 10
-20.8824
 20
52.6511
 30
0.0
 10
-19.907
 20
42.6618
 30
0.0
 10
-19.907
 20
42.6618
 30
0.0
 10
-19.907
 20
42.6618
 30
0.0
 10
-16.6163
 20
47.9261
 30
0.0
 10
-11.2516
 20
50.133
 30
0.0
 10
-11.2516
 20
50.133
 30
0.0
 10
-11.3737
 20
51.9554
 30
0.0
 10
-11.084
 20
56.775
 30
0.0
 10
-11.557
 20
56.7711
 30
0.0
  0
SPLINE
  5
6E
330
1F
100
AcDbEntity
  8
layer 1
 62
     7
100
AcDbSpline
210
0.0
220
0.0
230
1.0
 70
    11
 71
     3
 72
    24
 73
    20
 74
     0
 42
0.0000000001
 43
0.0000000001
 12
1.0
 22
0.0
 32
0.0
 13
1.0
 23
0.0
 33
0.0
 40
0.0
 40
0.0
 40
0.0
 40
0.0
 40
0.1666666666666667
 40
0.1666666666666667
 40
0.1666666666666667
 40
0.1666666666666667
 40
0.3333333333333333
 40
0.3333333333333333
 40
0.3333333333333333
 40
0.3333333333333333
 40
0.5
 40
0.5
 40
0.5
 40
0.5
 40
0.6666666666666666
 40
0.6666666666666666
 40
0.6666666666666666
 40
0.6666666666666666
 40
1.0
 40
1.0
 40
1.0
 40
1.0
 10
-14.7441
 20
43.2379
 30
0.0
 10
-17.5141
 20
45.0522
 30
0.0
 10
-17.0524
 20
28.2283
 30
0.0
 10
-30.2104
 20
18.6619
 30
0.0
 10
-30.2104
 20
18.6619
 30
0.0
 10
-30.2104
 20
18.6619
 30
0.0
 10
-31.8263
 20
12.3941
 30
0.0
 10
-31.8263
 20
12.3941
 30
0.0
 10
-31.8263
 20
12.3941
 30
0.0
 10
-31.8263
 20
12.3941
 30
0.0
 10
-27.4404
 20
2.9925
 30
0.0
 10
-19.8226
 20
12.8889
 30
0.0
 10
-19.8226
 20
12.8889
 30
0.0
 10
-19.8226
 20
12.8889
 30
0.0
 10
-14.9353
 20
21.6823
 30
0.0
 10
-14.9353
 20
21.6823
 30
0.0
 10
-14.9353
 20
21.6823
 30
0.0
 10
-14.9353
 20
21.6823
 30
0.0
 10
-11.974
 20
41.4237
 30
0.0
 10
-14.7441
 20
43.2379
 30
0.0
  0
SPLINE
  5
6F
330
1F
100
AcDbEntity
  8
layer 1
 62
     7
100
AcDbSpline
210
0.0
220
0.0
230
1.0
 70
    11
 71
     3
 72
    48
 73
    44
 74
     0
 42
0.0000000001
 43
0.0000000001
 12
1.0
 22
0.0
 32
0.0
 13
1.0
 23
0.0
 33
0.0
 40
0.0
 40
0.0
 40
0.0
 40
0.0
 40
0.0833333333333333
 40
0.0833333333333333
 40
0.0833333333333333
 40
0.0833333333333333
 40
0.1666666666666667
 40
0.1666666666666667
 40
0.1666666666666667
 40
0.1666666666666667
 40
0.25
 40
0.25
 40
0.25
 40
0.25
 40
0.3333333333333333
 40
0.3333333333333333
 40
0.3333333333333333
 40
0.3333333333333333
 40
0.4166666666666667
 40
0.4166666666666667
 40
0.4166666666666667
 40
0.4166666666666667
 40
0.5
 40
0.5
 40
0.5
 40
0.5
 40
0.5833333333333334
 40
0.5833333333333334
 40
0.5833333333333334
 40
0.5833333333333334
 40
0.6666666666666666
 40
0.6666666666666666
 40
0.6666666666666666
 40
0.6666666666666666
 40
0.75
 40
0.75
 40
0.75
 40
0.75
 40
0.8333333333333334
 40
0.8333333333333334
 40
0.8333333333333334
 40
0.8333333333333334
 40
1.0
 40
1.0
 40
1.0
 40
1.0
 10
-67.0101
 20
37.3186
 30
0.0
 10
-75.6787
 20
26.4695
 30
0.0
 10
-84.6081
 20
16.2724
 30
0.0
 10
-94.4692
 20
8.4029
 30
0.0
 10
-94.4692
 20
8.4029
 30
0.0
 10
-94.4692
 20
8.4029
 30
0.0
 10
-94.4354
 20
-15.2998
 30
0.0
 10
-94.4354
 20
-15.2998
 30
0.0
 10
-94.4354
 20
-15.2998
 30
0.0
 10
-94.4354
 20
-15.2998
 30
0.0
 10
-95.6066
 20
-26.6799
 30
0.0
 10
-85.6413
 20
-13.7953
 30
0.0
 10
-85.6413
 20
-13.7953
 30
0.0
 10
-83.5152
 20
-11.0464
 30
0.0
 10
-82.7252
 20
-10.4914
 30
0.0
 10
-79.5493
 20
-8.5588
 30
0.0
 10
-79.5493
 20
-8.5588
 30
0.0
 10
-73.4886
 20
-4.8709
 30
0.0
 10
-61.8894
 20
1.3288
 30
0.0
 10
-51.0382
 20
2.2978
 30
0.0
 10
-51.0382
 20
2.2978
 30
0.0
 10
-51.0382
 20
2.2978
 30
0.0
 10
-40.5527
 20
3.3433
 30
0.0
 10
-42.5036
 20
11.8807
 30
0.0
 10
-42.5036
 20
11.8807
 30
0.0
 10
-42.5036
 20
11.8807
 30
0.0
 10
-42.5036
 20
18.6758
 30
0.0
 10
-42.5036
 20
18.6758
 30
0.0
 10
-42.5036
 20
18.6758
 30
0.0
 10
-42.5036
 20
18.6758
 30
0.0
 10
-43.3163
 20
21.9492
 30
0.0
 10
-46.4876
 20
26.0257
 30
0.0
 10
-46.4876
 20
26.0257
 30
0.0
 10
-47.2769
 20
27.0403
 30
0.0
 10
-48.2039
 20
28.1139
 30
0.0
 10
-49.3181
 20
29.1809
 30
0.0
 10
-49.3181
 20
29.1809
 30
0.0
 10
-55.6177
 20
35.2131
 30
0.0
 10
-56.8213
 20
35.984
 30
0.0
 10
-62.3142
 20
37.543
 30
0.0
 10
-62.3142
 20
37.543
 30
0.0
 10
-64.3979
 20
38.1344
 30
0.0
 10
-66.2878
 20
38.2227
 30
0.0
 10
-67.0101
 20
37.3186
 30
0.0
  0
SPLINE
  5
70
330
1F
100
AcDbEntity
  8
layer 1
 62
     7
100
AcDbSpline
210
0.0
220
0.0
230
1.0
 70
    11
 71
     3
 72
    20
 73
    16
 74
     0
 42
0.0000000001
 43
0.0000000001
 12
1.0
 22
0.0
 32
0.0
 13
1.0
 23
0.0
 33
0.0
 40
0.0
 40
0.0
 40
0.0
 40
0.0
 40
0.2
 40
0.2
 40
0.2
 40
0.2
 40
0.4
 40
0.4
 40
0.4
 40
0.4
 40
0.6
 40
0.6
 40
0.6
 40
0.6
 40
1.0
 40
1.0
 40
1.0
 40
1.0
 10
-11.2774
 20
2.4148
 30
0.0
 10
-11.2774
 20
2.4148
 30
0.0
 10
-37.4303
 20
-5.6477
 30
0.0
 10
-37.4303
 20
-5.6477
 30
0.0
 10
-37.4303
 20
-5.6477
 30
0.0
 10
-37.4303
 20
-5.6477
 30
0.0
 10
-45.1748
 20
-7.3077
 30
0.0
 10
-30.2019
 20
-10.9969
 30
0.0
 10
-30.2019
 20
-10.9969
 30
0.0
 10
-30.2019
 20
-10.9969
 30
0.0
 10
-11.2777
 20
-9.8901
 30
0.0
 10
-11.2777
 20
-9.8901
 30
0.0
 10
-11.2777
 20
-9.8901
 30
0.0
 10
-11.2777
 20
-9.8901
 30
0.0
 10
-11.2774
 20
2.4148
 30
0.0
 10
-11.2774
 20
2.4148
 30
0.0
  0
SPLINE
  5
71
330
1F
100
AcDbEntity
  8
layer 1
 62
     7
100
AcDbSpline
210
0.0
220
0.0
230
1.0
 70
    11
 71
     3
 72
    16
 73
    12
 74
     0
 42
0.0000000001
 43
0.0000000001
 12
1.0
 22
0.0
 32
0.0
 13
1.0
 23
0.0
 33
0.0
 40
0.0
 40
0.0
 40
0.0
 40
0.0
 40
0.25
 40
0.25
 40
0.25
 40
0.25
 40
0.5
 40
0.5
 40
0.5
 40
0.5
 40
1.0
 40
1.0
 40
1.0
 40
1.0
 10
-24.0707
 20
-15.6468
 30
0.0
 10
-24.0707
 20
-15.6468
 30
0.0
 10
-11.2783
 20
-14.0685
 30
0.0
 10
-11.2783
 20
-14.0685
 30
0.0
 10
-11.2783
 20
-14.0685
 30
0.0
 10
-11.2783
 20
-14.0685
 30
0.0
 10
-11.2664
 20
-23.0818
 30
0.0
 10
-11.2664
 20
-23.0818
 30
0.0
 10
-11.2664
 20
-23.0818
 30
0.0
 10
-11.2664
 20
-23.0818
 30
0.0
 10
-30.4814
 20
-16.4377
 30
0.0
 10
-24.0707
 20
-15.6468
 30
0.0
  0
SPLINE
  5
72
330
1F
100
AcDbEntity
  8
layer 1
 62
     7
100
AcDbSpline
210
0.0
220
0.0
230
1.0
 70
    11
 71
     3
 72
    32
 73
    28
 74
     0
 42
0.0000000001
 43
0.0000000001
 12
1.0
 22
0.0
 32
0.0
 13
1.0
 23
0.0
 33
0.0
 40
0.0
 40
0.0
 40
0.0
 40
0.0
 40
0.125
 40
0.125
 40
0.125
 40
0.125
 40
0.25
 40
0.25
 40
0.25
 40
0.25
 40
0.375
 40
0.375
 40
0.375
 40
0.375
 40
0.5
 40
0.5
 40
0.5
 40
0.5
 40
0.625
 40
0.625
 40
0.625
 40
0.625
 40
0.75
 40
0.75
 40
0.75
 40
0.75
 40
1.0
 40
1.0
 40
1.0
 40
1.0
 10
-29.7716
 20
-20.7773
 30
0.0
 10
-39.6768
 20
-11.9305
 30
0.0
 10
-54.3561
 20
-9.1436
 30
0.0
 10
-64.6467
 20
-18.1086
 30
0.0
 10
-64.6467
 20
-18.1086
 30
0.0
 10
-69.3934
 20
-22.2436
 30
0.0
 10
-78.3351
 20
-33.7636
 30
0.0
 10
-75.1496
 20
-51.3289
 30
0.0
 10
-75.1496
 20
-51.3289
 30
0.0
 10
-74.6947
 20
-53.8382
 30
0.0
 10
-74.6391
 20
-54.8891
 30
0.0
 10
-73.6414
 20
-57.6413
 30
0.0
 10
-73.6414
 20
-57.6413
 30
0.0
 10
-71.2899
 20
-65.6762
 30
0.0
 10
-65.7376
 20
-64.9665
 30
0.0
 10
-60.2649
 20
-63.2611
 30
0.0
 10
-60.2649
 20
-63.2611
 30
0.0
 10
-41.6561
 20
-57.4617
 30
0.0
 10
-10.6823
 20
-46.9414
 30
0.0
 10
-11.3008
 20
-42.3775
 30
0.0
 10
-11.3008
 20
-42.3775
 30
0.0
 10
-11.3008
 20
-42.3775
 30
0.0
 10
-11.3036
 20
-29.4662
 30
0.0
 10
-11.3036
 20
-29.4662
 30
0.0
 10
-11.3036
 20
-29.4662
 30
0.0
 10
-11.3036
 20
-29.4662
 30
0.0
 10
-24.372
 20
-25.6
 30
0.0
 10
-29.7716
 20
-20.7773
 30
0.0
  0
SPLINE
  5
73
330
1F
100
AcDbEntity
  8
layer 1
 62
     7
100
AcDbSpline
210
0.0
220
0.0
230
1.0
 70
    11
 71
     3
 72
    24
 73
    20
 74
     0
 42
0.0000000001
 43
0.0000000001
 12
1.0
 22
0.0
 32
0.0
 13
1.0
 23
0.0
 33
0.0
 40
0.0
 40
0.0
 40
0.0
 40
0.0
 40
0.1666666666666667
 40
0.1666666666666667
 40
0.1666666666666667
 40
0.1666666666666667
 40
0.3333333333333333
 40
0.3333333333333333
 40
0.3333333333333333
 40
0.3333333333333333
 40
0.5
 40
0.5
 40
0.5
 40
0.5
 40
0.6666666666666666
 40
0.6666666666666666
 40
0.6666666666666666
 40
0.6666666666666666
 40
1.0
 40
1.0
 40
1.0
 40
1.0
 10
-38.4695
 20
-92.0986
 30
0.0
 10
-30.0689
 20
-95.1977
 30
0.0
 10
-21.7827
 20
-101.4393
 30
0.0
 10
-11.2774
 20
-104.3905
 30
0.0
 10
-11.2774
 20
-104.3905
 30
0.0
 10
-11.2774
 20
-104.3905
 30
0.0
 10
-11.2922
 20
-57.7227
 30
0.0
 10
-11.2922
 20
-57.7227
 30
0.0
 10
-11.2922
 20
-57.7227
 30
0.0
 10
-18.0808
 20
-66.2429
 30
0.0
 10
-27.6712
 20
-70.7932
 30
0.0
 10
-38.8827
 20
-76.1961
 30
0.0
 10
-38.8827
 20
-76.1961
 30
0.0
 10
-43.2344
 20
-78.2931
 30
0.0
 10
-48.0583
 20
-80.8641
 30
0.0
 10
-46.5638
 20
-86.222
 30
0.0
 10
-46.5638
 20
-86.222
 30
0.0
 10
-45.2965
 20
-90.7655
 30
0.0
 10
-42.1008
 20
-90.7589
 30
0.0
 10
-38.4695
 20
-92.0986
 30
0.0
  0
SPLINE
  5
74
330
1F
100
AcDbEntity
  8
layer 1
 62
     7
100
AcDbSpline
210
0.0
220
0.0
230
1.0
 70
    11
 71
     3
 72
    32
 73
    28
 74
     0
 42
0.0000000001
 43
0.0000000001
 12
1.0
 22
0.0
 32
0.0
 13
1.0
 23
0.0
 33
0.0
 40
0.0
 40
0.0
 40
0.0
 40
0.0
 40
0.125
 40
0.125
 40
0.125
 40
0.125
 40
0.25
 40
0.25
 40
0.25
 40
0.25
 40
0.375
 40
0.375
 40
0.375
 40
0.375
 40
0.5
 40
0.5
 40
0.5
 40
0.5
 40
0.625
 40
0.625
 40
0.625
 40
0.625
 40
0.75
 40
0.75
 40
0.75
 40
0.75
 40
1.0
 40
1.0
 40
1.0
 40
1.0
 10
-81.4067
 20
92.5318
 30
0.0
 10
-79.7801
 20
91.5041
 30
0.0
 10
-75.1453
 20
90.1289
 30
0.0
 10
-78.3217
 20
85.1534
 30
0.0
 10
-78.3217
 20
85.1534
 30
0.0
 10
-79.2448
 20
83.7074
 30
0.0
 10
-79.3023
 20
83.8387
 30
0.0
 10
-79.3935
 20
81.9543
 30
0.0
 10
-79.3935
 20
81.9543
 30
0.0
 10
-79.5166
 20
79.4111
 30
0.0
 10
-79.2827
 20
74.8536
 30
0.0
 10
-76.713
 20
70.6952
 30
0.0
 10
-76.713
 20
70.6952
 30
0.0
 10
-76.713
 20
70.6952
 30
0.0
 10
-77.838
 20
64.5864
 30
0.0
 10
-80.0878
 20
73.4281
 30
0.0
 10
-80.0878
 20
73.4281
 30
0.0
 10
-80.0878
 20
73.4281
 30
0.0
 10
-82.9002
 20
86.7013
 30
0.0
 10
-83.5752
 20
89.0323
 30
0.0
 10
-83.5752
 20
89.0323
 30
0.0
 10
-83.766
 20
89.4838
 30
0.0
 10
-83.3949
 20
92.1152
 30
0.0
 10
-82.6516
 20
92.8677
 30
0.0
 10
-82.6516
 20
92.8677
 30
0.0
 10
-82.2526
 20
93.2717
 30
0.0
 10
-81.8687
 20
92.8239
 30
0.0
 10
-81.4067
 20
92.5318
 30
0.0
  0
SPLINE
  5
75
330
1F
100
AcDbEntity
  8
layer 1
 62
   250
370
     9
100
AcDbSpline
210
0.0
220
0.0
230
1.0
 70
    11
 71
     3
 72
    20
 73
    16
 74
     0
 42
0.0000000001
 43
0.0000000001
 12
1.0
 22
0.0
 32
0.0
 13
1.0
 23
0.0
 33
0.0
 40
0.0
 40
0.0
 40
0.0
 40
0.0
 40
0.2
 40
0.2
 40
0.2
 40
0.2
 40
0.4
 40
0.4
 40
0.4
 40
0.4
 40
0.6
 40
0.6
 40
0.6
 40
0.6
 40
1.0
 40
1.0
 40
1.0
 40
1.0
 10
80.4756
 20
131.5556
 30
0.0
 10
80.4756
 20
131.5556
 30
0.0
 10
-6.8084
 20
131.5556
 30
0.0
 10
-6.8084
 20
131.5556
 30
0.0
 10
-6.8084
 20
131.5556
 30
0.0
 10
-6.8084
 20
131.5556
 30
0.0
 10
-6.8084
 20
-106.4917
 30
0.0
 10
-6.8084
 20
-106.4917
 30
0.0
 10
-6.8084
 20
-106.4917
 30
0.0
 10
-6.8084
 20
-106.4917
 30
0.0
 10
80.4756
 20
-106.4917
 30
0.0
 10
80.4756
 20
-106.4917
 30
0.0
 10
80.4756
 20
-106.4917
 30
0.0
 10
80.4756
 20
-106.4917
 30
0.0
 10
80.4756
 20
131.5556
 30
0.0
 10
80.4756
 20
131.5556
 30
0.0
  0
SPLINE
  5
76
330
1F
100
AcDbEntity
  8
layer 1
 62
     7
370
     9
100
AcDbSpline
210
0.0
220
0.0
230
1.0
 70
    11
 71
     3
 72
    16
 73
    12
 74
     0
 42
0.0000000001
 43
0.0000000001
 12
1.0
 22
0.0
 32
0.0
 13
1.0
 23
0.0
 33
0.0
 40
0.0
 40
0.0
 40
0.0
 40
0.0
 40
0.25
 40
0.25
 40
0.25
 40
0.25
 40
0.5
 40
0.5
 40
0.5
 40
0.5
 40
1.0
 40
1.0
 40
1.0
 40
1.0
 10
38.276
 20
105.0051
 30
0.0
 10
38.276
 20
105.0051
 30
0.0
 10
31.3881
 20
103.6942
 30
0.0
 10
32.8773
 20
98.8443
 30
0.0
 10
32.8773
 20
98.8443
 30
0.0
 10
32.8773
 20
98.8443
 30
0.0
 10
37.3453
 20
98.8443
 30
0.0
 10
37.3453
 20
98.8443
 30
0.0
 10
37.3453
 20
98.8443
 30
0.0
 10
37.3453
 20
98.8443
 30
0.0
 10
38.276
 20
105.0051
 30
0.0
 10
38.276
 20
105.0051
 30
0.0
  0
SPLINE
  5
77
330
1F
100
AcDbEntity
  8
layer 1
 62
     7
370
     9
100
AcDbSpline
210
0.0
220
0.0
230
1.0
 70
    11
 71
     3
 72
    24
 73
    20
 74
     0
 42
0.0000000001
 43
0.0000000001
 12
1.0
 22
0.0
 32
0.0
 13
1.0
 23
0.0
 33
0.0
 40
0.0
 40
0.0
 40
0.0
 40
0.0
 40
0.1666666666666667
 40
0.1666666666666667
 40
0.1666666666666667
 40
0.1666666666666667
 40
0.3333333333333333
 40
0.3333333333333333
 40
0.3333333333333333
 40
0.3333333333333333
 40
0.5
 40
0.5
 40
0.5
 40
0.5
 40
0.6666666666666666
 40
0.6666666666666666
 40
0.6666666666666666
 40
0.6666666666666666
 40
1.0
 40
1.0
 40
1.0
 40
1.0
 10
20.1198
 20
-104.4346
 30
0.0
 10
20.1198
 20
-104.4346
 30
0.0
 10
41.4479
 20
-81.0897
 30
0.0
 10
26.8158
 20
-52.4709
 30
0.0
 10
26.8158
 20
-52.4709
 30
0.0
 10
26.8158
 20
-52.4709
 30
0.0
 10
20.7189
 20
-40.1649
 30
0.0
 10
10.1513
 20
-39.0202
 30
0.0
 10
10.1513
 20
-39.0202
 30
0.0
 10
10.1513
 20
-39.0202
 30
0.0
 10
-4.2421
 20
-57.9136
 30
0.0
 10
-4.2421
 20
-57.9136
 30
0.0
 10
-4.2421
 20
-57.9136
 30
0.0
 10
-4.2421
 20
-57.9136
 30
0.0
 10
-4.2381
 20
-104.4402
 30
0.0
 10
-4.2381
 20
-104.4402
 30
0.0
 10
-4.2381
 20
-104.4402
 30
0.0
 10
-4.2381
 20
-104.4402
 30
0.0
 10
20.1198
 20
-104.4346
 30
0.0
 10
20.1198
 20
-104.4346
 30
0.0
  0
SPLINE
  5
78
330
1F
100
AcDbEntity
  8
layer 1
 62
     7
370
     9
100
AcDbSpline
210
0.0
220
0.0
230
1.0
 70
    11
 71
     3
 72
    20
 73
    16
 74
     0
 42
0.0000000001
 43
0.0000000001
 12
1.0
 22
0.0
 32
0.0
 13
1.0
 23
0.0
 33
0.0
 40
0.0
 40
0.0
 40
0.0
 40
0.0
 40
0.2
 40
0.2
 40
0.2
 40
0.2
 40
0.4
 40
0.4
 40
0.4
 40
0.4
 40
0.6
 40
0.6
 40
0.6
 40
0.6
 40
1.0
 40
1.0
 40
1.0
 40
1.0
 10
-4.2347
 20
-4.822
 30
0.0
 10
-4.2347
 20
-4.822
 30
0.0
 10
-0.2031
 20
-5.6218
 30
0.0
 10
-0.2031
 20
-5.6218
 30
0.0
 10
-0.2031
 20
-5.6218
 30
0.0
 10
1.8617
 20
-6.1257
 30
0.0
 10
1.9056
 20
-7.1859
 30
0.0
 10
0.171
 20
-9.7968
 30
0.0
 10
0.171
 20
-9.7968
 30
0.0
 10
0.171
 20
-9.7968
 30
0.0
 10
-4.2373
 20
-17.8232
 30
0.0
 10
-4.2373
 20
-17.8232
 30
0.0
 10
-4.2373
 20
-17.8232
 30
0.0
 10
-4.2373
 20
-17.8232
 30
0.0
 10
-4.2347
 20
-4.822
 30
0.0
 10
-4.2347
 20
-4.822
 30
0.0
  0
SPLINE
  5
79
330
1F
100
AcDbEntity
  8
layer 1
 62
     7
370
     9
100
AcDbSpline
210
0.0
220
0.0
230
1.0
 70
    11
 71
     3
 72
    36
 73
    32
 74
     0
 42
0.0000000001
 43
0.0000000001
 12
1.0
 22
0.0
 32
0.0
 13
1.0
 23
0.0
 33
0.0
 40
0.0
 40
0.0
 40
0.0
 40
0.0
 40
0.1111111111111111
 40
0.1111111111111111
 40
0.1111111111111111
 40
0.1111111111111111
 40
0.2222222222222222
 40
0.2222222222222222
 40
0.2222222222222222
 40
0.2222222222222222
 40
0.3333333333333333
 40
0.3333333333333333
 40
0.3333333333333333
 40
0.3333333333333333
 40
0.4444444444444444
 40
0.4444444444444444
 40
0.4444444444444444
 40
0.4444444444444444
 40
0.5555555555555556
 40
0.5555555555555556
 40
0.5555555555555556
 40
0.5555555555555556
 40
0.6666666666666666
 40
0.6666666666666666
 40
0.6666666666666666
 40
0.6666666666666666
 40
0.7777777777777778
 40
0.7777777777777778
 40
0.7777777777777778
 40
0.7777777777777778
 40
1.0
 40
1.0
 40
1.0
 40
1.0
 10
15.1048
 20
63.6032
 30
0.0
 10
8.7547
 20
60.8792
 30
0.0
 10
0.7588
 20
60.7432
 30
0.0
 10
-4.2385
 20
53.3354
 30
0.0
 10
-4.2385
 20
53.3354
 30
0.0
 10
-4.2385
 20
53.3354
 30
0.0
 10
-4.2773
 20
12.2224
 30
0.0
 10
-4.2773
 20
12.2224
 30
0.0
 10
-4.2773
 20
12.2224
 30
0.0
 10
-4.2773
 20
12.2224
 30
0.0
 10
3.7951
 20
-3.8074
 30
0.0
 10
4.8471
 20
9.5266
 30
0.0
 10
4.8471
 20
9.5266
 30
0.0
 10
4.8471
 20
9.5266
 30
0.0
 10
8.5294
 20
23.6013
 30
0.0
 10
14.8418
 20
25.8236
 30
0.0
 10
14.8418
 20
25.8236
 30
0.0
 10
14.8418
 20
25.8236
 30
0.0
 10
11.6482
 20
45.7626
 30
0.0
 10
11.6482
 20
45.7626
 30
0.0
 10
11.6482
 20
45.7626
 30
0.0
 10
10.9742
 20
49.9718
 30
0.0
 10
11.4686
 20
49.8349
 30
0.0
 10
13.4136
 20
53.3734
 30
0.0
 10
13.4136
 20
53.3734
 30
0.0
 10
15.0757
 20
56.3981
 30
0.0
 10
19.2339
 20
60.0267
 30
0.0
 10
20.3844
 20
61.0684
 30
0.0
 10
20.3844
 20
61.0684
 30
0.0
 10
21.4574
 20
63.2132
 30
0.0
 10
21.455
 20
66.3272
 30
0.0
 10
15.1048
 20
63.6032
 30
0.0
  0
SPLINE
  5
7A
330
1F
100
AcDbEntity
  8
layer 1
 62
     7
370
     9
100
AcDbSpline
210
0.0
220
0.0
230
1.0
 70
    11
 71
     3
 72
    20
 73
    16
 74
     0
 42
0.0000000001
 43
0.0000000001
 12
1.0
 22
0.0
 32
0.0
 13
1.0
 23
0.0
 33
0.0
 40
0.0
 40
0.0
 40
0.0
 40
0.0
 40
0.2
 40
0.2
 40
0.2
 40
0.2
 40
0.4
 40
0.4
 40
0.4
 40
0.4
 40
0.6
 40
0.6
 40
0.6
 40
0.6
 40
1.0
 40
1.0
 40
1.0
 40
1.0
 10
-4.2219
 20
109.5146
 30
0.0
 10
-3.8944
 20
109.7412
 30
0.0
 10
19.7105
 20
103.9305
 30
0.0
 10
11.6764
 20
76.4549
 30
0.0
 10
11.6764
 20
76.4549
 30
0.0
 10
10.7452
 20
73.2707
 30
0.0
 10
9.5557
 20
72.3963
 30
0.0
 10
6.7312
 20
69.6244
 30
0.0
 10
6.7312
 20
69.6244
 30
0.0
 10
3.16
 20
66.1197
 30
0.0
 10
-3.6587
 20
61.6512
 30
0.0
 10
-4.8246
 20
61.7424
 30
0.0
 10
-4.8246
 20
61.7424
 30
0.0
 10
-3.7326
 20
61.3776
 30
0.0
 10
-4.3585
 20
109.4199
 30
0.0
 10
-4.2219
 20
109.5146
 30
0.0
  0
SPLINE
  5
7B
330
1F
100
AcDbEntity
  8
layer 1
 62
     7
370
     9
100
AcDbSpline
210
0.0
220
0.0
230
1.0
 70
    11
 71
     3
 72
    20
 73
    16
 74
     0
 42
0.0000000001
 43
0.0000000001
 12
1.0
 22
0.0
 32
0.0
 13
1.0
 23
0.0
 33
0.0
 40
0.0
 40
0.0
 40
0.0
 40
0.0
 40
0.2
 40
0.2
 40
0.2
 40
0.2
 40
0.4
 40
0.4
 40
0.4
 40
0.4
 40
0.6
 40
0.6
 40
0.6
 40
0.6
 40
1.0
 40
1.0
 40
1.0
 40
1.0
 10
20.4622
 20
83.5546
 30
0.0
 10
21.2258
 20
82.4419
 30
0.0
 10
29.7659
 20
71.6412
 30
0.0
 10
20.6652
 20
69.9719
 30
0.0
 10
20.6652
 20
69.9719
 30
0.0
 10
20.6652
 20
69.9719
 30
0.0
 10
10.1061
 20
66.5404
 30
0.0
 10
10.1061
 20
66.5404
 30
0.0
 10
10.1061
 20
66.5404
 30
0.0
 10
10.1061
 20
66.5404
 30
0.0
 10
18.4055
 20
72.1165
 30
0.0
 10
17.7962
 20
79.9804
 30
0.0
 10
17.7962
 20
79.9804
 30
0.0
 10
17.0607
 20
83.3025
 30
0.0
 10
19.6987
 20
84.6675
 30
0.0
 10
20.4622
 20
83.5546
 30
0.0
  0
SPLINE
  5
7C
330
1F
100
AcDbEntity
  8
layer 1
 62
     7
370
     9
100
AcDbSpline
210
0.0
220
0.0
230
1.0
 70
    11
 71
     3
 72
    24
 73
    20
 74
     0
 42
0.0000000001
 43
0.0000000001
 12
1.0
 22
0.0
 32
0.0
 13
1.0
 23
0.0
 33
0.0
 40
0.0
 40
0.0
 40
0.0
 40
0.0
 40
0.1666666666666667
 40
0.1666666666666667
 40
0.1666666666666667
 40
0.1666666666666667
 40
0.3333333333333333
 40
0.3333333333333333
 40
0.3333333333333333
 40
0.3333333333333333
 40
0.5
 40
0.5
 40
0.5
 40
0.5
 40
0.6666666666666666
 40
0.6666666666666666
 40
0.6666666666666666
 40
0.6666666666666666
 40
1.0
 40
1.0
 40
1.0
 40
1.0
 10
36.174
 20
95.0546
 30
0.0
 10
35.9109
 20
91.3814
 30
0.0
 10
35.2481
 20
82.8315
 30
0.0
 10
34.6717
 20
81.7153
 30
0.0
 10
34.6717
 20
81.7153
 30
0.0
 10
34.0953
 20
80.5993
 30
0.0
 10
32.7224
 20
74.2635
 30
0.0
 10
26.8426
 20
83.8683
 30
0.0
 10
26.8426
 20
83.8683
 30
0.0
 10
26.7156
 20
83.9992
 30
0.0
 10
22.0081
 20
93.3912
 30
0.0
 10
28.8121
 20
95.6641
 30
0.0
 10
28.8121
 20
95.6641
 30
0.0
 10
30.2317
 20
96.1381
 30
0.0
 10
31.5746
 20
96.1928
 30
0.0
 10
33.0368
 20
96.7387
 30
0.0
 10
33.0368
 20
96.7387
 30
0.0
 10
34.7757
 20
97.3878
 30
0.0
 10
36.3713
 20
97.8094
 30
0.0
 10
36.174
 20
95.0546
 30
0.0
  0
SPLINE
  5
7D
330
1F
100
AcDbEntity
  8
layer 1
 62
     7
370
     9
100
AcDbSpline
210
0.0
220
0.0
230
1.0
 70
    11
 71
     3
 72
    48
 73
    44
 74
     0
 42
0.0000000001
 43
0.0000000001
 12
1.0
 22
0.0
 32
0.0
 13
1.0
 23
0.0
 33
0.0
 40
0.0
 40
0.0
 40
0.0
 40
0.0
 40
0.0833333333333333
 40
0.0833333333333333
 40
0.0833333333333333
 40
0.0833333333333333
 40
0.1666666666666667
 40
0.1666666666666667
 40
0.1666666666666667
 40
0.1666666666666667
 40
0.25
 40
0.25
 40
0.25
 40
0.25
 40
0.3333333333333333
 40
0.3333333333333333
 40
0.3333333333333333
 40
0.3333333333333333
 40
0.4166666666666667
 40
0.4166666666666667
 40
0.4166666666666667
 40
0.4166666666666667
 40
0.5
 40
0.5
 40
0.5
 40
0.5
 40
0.5833333333333334
 40
0.5833333333333334
 40
0.5833333333333334
 40
0.5833333333333334
 40
0.6666666666666666
 40
0.6666666666666666
 40
0.6666666666666666
 40
0.6666666666666666
 40
0.75
 40
0.75
 40
0.75
 40
0.75
 40
0.8333333333333334
 40
0.8333333333333334
 40
0.8333333333333334
 40
0.8333333333333334
 40
1.0
 40
1.0
 40
1.0
 40
1.0
 10
37.8965
 20
113.8422
 30
0.0
 10
37.8965
 20
113.8422
 30
0.0
 10
38.1317
 20
108.3774
 30
0.0
 10
38.1317
 20
108.3774
 30
0.0
 10
38.1317
 20
108.3774
 30
0.0
 10
38.1317
 20
108.3774
 30
0.0
 10
31.3189
 20
106.7732
 30
0.0
 10
28.3998
 20
100.803
 30
0.0
 10
28.3998
 20
100.803
 30
0.0
 10
27.5015
 20
98.9653
 30
0.0
 10
27.8749
 20
98.8093
 30
0.0
 10
26.0991
 20
97.6121
 30
0.0
 10
26.0991
 20
97.6121
 30
0.0
 10
26.0991
 20
97.6121
 30
0.0
 10
24.3117
 20
96.4071
 30
0.0
 10
24.3117
 20
96.4071
 30
0.0
 10
24.3117
 20
96.4071
 30
0.0
 10
22.2074
 20
93.6663
 30
0.0
 10
20.4751
 20
92.9706
 30
0.0
 10
19.5256
 20
96.5816
 30
0.0
 10
19.5256
 20
96.5816
 30
0.0
 10
19.2137
 20
97.7686
 30
0.0
 10
18.8446
 20
98.2639
 30
0.0
 10
18.1383
 20
99.3
 30
0.0
 10
18.1383
 20
99.3
 30
0.0
 10
18.1383
 20
99.3
 30
0.0
 10
15.7885
 20
102.7468
 30
0.0
 10
15.7885
 20
102.7468
 30
0.0
 10
15.7885
 20
102.7468
 30
0.0
 10
15.7885
 20
102.7468
 30
0.0
 10
14.2952
 20
106.3224
 30
0.0
 10
15.3546
 20
109.7859
 30
0.0
 10
15.3546
 20
109.7859
 30
0.0
 10
15.7386
 20
111.0416
 30
0.0
 10
16.9031
 20
113.6737
 30
0.0
 10
17.4847
 20
114.9099
 30
0.0
 10
17.4847
 20
114.9099
 30
0.0
 10
18.3766
 20
116.8061
 30
0.0
 10
20.2955
 20
119.0954
 30
0.0
 10
24.3795
 20
119.2937
 30
0.0
 10
24.3795
 20
119.2937
 30
0.0
 10
33.9854
 20
119.7601
 30
0.0
 10
35.8593
 20
115.5248
 30
0.0
 10
37.8965
 20
113.8422
 30
0.0
  0
SPLINE
  5
7E
330
1F
100
AcDbEntity
  8
layer 1
 62
     7
370
     9
100
AcDbSpline
210
0.0
220
0.0
230
1.0
 70
    11
 71
     3
 72
    20
 73
    16
 74
     0
 42
0.0000000001
 43
0.0000000001
 12
1.0
 22
0.0
 32
0.0
 13
1.0
 23
0.0
 33
0.0
 40
0.0
 40
0.0
 40
0.0
 40
0.0
 40
0.2
 40
0.2
 40
0.2
 40
0.2
 40
0.4
 40
0.4
 40
0.4
 40
0.4
 40
0.6
 40
0.6
 40
0.6
 40
0.6
 40
1.0
 40
1.0
 40
1.0
 40
1.0
 10
8.1694
 20
129.5714
 30
0.0
 10
14.8168
 20
129.5726
 30
0.0
 10
19.973
 20
120.8246
 30
0.0
 10
8.6472
 20
111.1509
 30
0.0
 10
8.6472
 20
111.1509
 30
0.0
 10
4.6451
 20
110.0576
 30
0.0
 10
-0.2347
 20
110.3176
 30
0.0
 10
-4.2373
 20
112.1499
 30
0.0
 10
-4.2373
 20
112.1499
 30
0.0
 10
-4.2373
 20
112.1499
 30
0.0
 10
-4.2377
 20
129.569
 30
0.0
 10
-4.2377
 20
129.569
 30
0.0
 10
-4.2377
 20
129.569
 30
0.0
 10
-4.2377
 20
129.569
 30
0.0
 10
8.1694
 20
129.5714
 30
0.0
 10
8.1694
 20
129.5714
 30
0.0
  0
SPLINE
  5
7F
330
1F
100
AcDbEntity
  8
layer 1
 62
     7
370
     9
100
AcDbSpline
210
0.0
220
0.0
230
1.0
 70
    11
 71
     3
 72
    16
 73
    12
 74
     0
 42
0.0000000001
 43
0.0000000001
 12
1.0
 22
0.0
 32
0.0
 13
1.0
 23
0.0
 33
0.0
 40
0.0
 40
0.0
 40
0.0
 40
0.0
 40
0.25
 40
0.25
 40
0.25
 40
0.25
 40
0.5
 40
0.5
 40
0.5
 40
0.5
 40
1.0
 40
1.0
 40
1.0
 40
1.0
 10
30.8971
 20
128.9364
 30
0.0
 10
30.8971
 20
128.9364
 30
0.0
 10
32.9094
 20
122.0091
 30
0.0
 10
32.9094
 20
122.0091
 30
0.0
 10
32.9094
 20
122.0091
 30
0.0
 10
32.9094
 20
122.0091
 30
0.0
 10
25.7544
 20
122.4815
 30
0.0
 10
23.5183
 20
125.3154
 30
0.0
 10
23.5183
 20
125.3154
 30
0.0
 10
24.976
 20
126.8722
 30
0.0
 10
30.232
 20
130.9528
 30
0.0
 10
30.8971
 20
128.9364
 30
0.0
  0
SPLINE
  5
80
330
1F
100
AcDbEntity
  8
layer 1
 62
     7
370
     9
100
AcDbSpline
210
0.0
220
0.0
230
1.0
 70
    11
 71
     3
 72
    20
 73
    16
 74
     0
 42
0.0000000001
 43
0.0000000001
 12
1.0
 22
0.0
 32
0.0
 13
1.0
 23
0.0
 33
0.0
 40
0.0
 40
0.0
 40
0.0
 40
0.0
 40
0.2
 40
0.2
 40
0.2
 40
0.2
 40
0.4
 40
0.4
 40
0.4
 40
0.4
 40
0.6
 40
0.6
 40
0.6
 40
0.6
 40
1.0
 40
1.0
 40
1.0
 40
1.0
 10
51.5778
 20
129.5689
 30
0.0
 10
51.5778
 20
129.5689
 30
0.0
 10
45.6546
 20
122.1666
 30
0.0
 10
45.6546
 20
122.1666
 30
0.0
 10
45.6546
 20
122.1666
 30
0.0
 10
45.6546
 20
122.1666
 30
0.0
 10
42.077
 20
115.869
 30
0.0
 10
38.0523
 20
122.9538
 30
0.0
 10
38.0523
 20
122.9538
 30
0.0
 10
38.0523
 20
122.9538
 30
0.0
 10
35.7535
 20
129.5689
 30
0.0
 10
35.7535
 20
129.5689
 30
0.0
 10
35.7535
 20
129.5689
 30
0.0
 10
35.7535
 20
129.5689
 30
0.0
 10
51.5778
 20
129.5689
 30
0.0
 10
51.5778
 20
129.5689
 30
0.0
  0
SPLINE
  5
81
330
1F
100
AcDbEntity
  8
layer 1
 62
     7
370
     9
100
AcDbSpline
210
0.0
220
0.0
230
1.0
 70
    11
 71
     3
 72
    28
 73
    24
 74
     0
 42
0.0000000001
 43
0.0000000001
 12
1.0
 22
0.0
 32
0.0
 13
1.0
 23
0.0
 33
0.0
 40
0.0
 40
0.0
 40
0.0
 40
0.0
 40
0.1428571428571428
 40
0.1428571428571428
 40
0.1428571428571428
 40
0.1428571428571428
 40
0.2857142857142857
 40
0.2857142857142857
 40
0.2857142857142857
 40
0.2857142857142857
 40
0.4285714285714285
 40
0.4285714285714285
 40
0.4285714285714285
 40
0.4285714285714285
 40
0.5714285714285714
 40
0.5714285714285714
 40
0.5714285714285714
 40
0.5714285714285714
 40
0.7142857142857143
 40
0.7142857142857143
 40
0.7142857142857143
 40
0.7142857142857143
 40
1.0
 40
1.0
 40
1.0
 40
1.0
 10
34.568
 20
68.048
 30
0.0
 10
34.568
 20
68.048
 30
0.0
 10
22.2063
 20
53.0471
 30
0.0
 10
22.2063
 20
53.0471
 30
0.0
 10
22.2063
 20
53.0471
 30
0.0
 10
22.2063
 20
53.0471
 30
0.0
 10
22.9953
 20
38.7873
 30
0.0
 10
22.9953
 20
38.7873
 30
0.0
 10
22.9953
 20
38.7873
 30
0.0
 10
22.9953
 20
38.7873
 30
0.0
 10
24.5735
 20
38.4168
 30
0.0
 10
27.9926
 20
42.4911
 30
0.0
 10
27.9926
 20
42.4911
 30
0.0
 10
27.9926
 20
42.4911
 30
0.0
 10
41.6695
 20
56.1955
 30
0.0
 10
41.6695
 20
56.1955
 30
0.0
 10
41.6695
 20
56.1955
 30
0.0
 10
42.6427
 20
57.1711
 30
0.0
 10
43.616
 20
59.409
 30
0.0
 10
42.3131
 20
61.9366
 30
0.0
 10
42.3131
 20
61.9366
 30
0.0
 10
40.9338
 20
67.5182
 30
0.0
 10
40.5595
 20
74.7002
 30
0.0
 10
34.568
 20
68.048
 30
0.0
  0
SPLINE
  5
82
330
1F
100
AcDbEntity
  8
layer 1
 62
     7
370
     9
100
AcDbSpline
210
0.0
220
0.0
230
1.0
 70
    11
 71
     3
 72
    24
 73
    20
 74
     0
 42
0.0000000001
 43
0.0000000001
 12
1.0
 22
0.0
 32
0.0
 13
1.0
 23
0.0
 33
0.0
 40
0.0
 40
0.0
 40
0.0
 40
0.0
 40
0.1666666666666667
 40
0.1666666666666667
 40
0.1666666666666667
 40
0.1666666666666667
 40
0.3333333333333333
 40
0.3333333333333333
 40
0.3333333333333333
 40
0.3333333333333333
 40
0.5
 40
0.5
 40
0.5
 40
0.5
 40
0.6666666666666666
 40
0.6666666666666666
 40
0.6666666666666666
 40
0.6666666666666666
 40
1.0
 40
1.0
 40
1.0
 40
1.0
 10
46.1344
 20
105.9084
 30
0.0
 10
48.0806
 20
98.1777
 30
0.0
 10
52.1779
 20
98.9607
 30
0.0
 10
55.4945
 20
90.7149
 30
0.0
 10
55.4945
 20
90.7149
 30
0.0
 10
55.4945
 20
90.7149
 30
0.0
 10
57.1822
 20
70.4546
 30
0.0
 10
57.1822
 20
70.4546
 30
0.0
 10
57.1822
 20
70.4546
 30
0.0
 10
57.1822
 20
70.4546
 30
0.0
 10
48.2449
 20
57.2063
 30
0.0
 10
46.3634
 20
66.3145
 30
0.0
 10
46.3634
 20
66.3145
 30
0.0
 10
45.725
 20
70.8745
 30
0.0
 10
37.6494
 20
86.991
 30
0.0
 10
41.5447
 20
99.3618
 30
0.0
 10
41.5447
 20
99.3618
 30
0.0
 10
42.5805
 20
102.6513
 30
0.0
 10
43.2759
 20
117.2639
 30
0.0
 10
46.1344
 20
105.9084
 30
0.0
  0
SPLINE
  5
83
330
1F
100
AcDbEntity
  8
layer 1
 62
     7
370
     9
100
AcDbSpline
210
0.0
220
0.0
230
1.0
 70
    11
 71
     3
 72
    28
 73
    24
 74
     0
 42
0.0000000001
 43
0.0000000001
 12
1.0
 22
0.0
 32
0.0
 13
1.0
 23
0.0
 33
0.0
 40
0.0
 40
0.0
 40
0.0
 40
0.0
 40
0.1428571428571428
 40
0.1428571428571428
 40
0.1428571428571428
 40
0.1428571428571428
 40
0.2857142857142857
 40
0.2857142857142857
 40
0.2857142857142857
 40
0.2857142857142857
 40
0.4285714285714285
 40
0.4285714285714285
 40
0.4285714285714285
 40
0.4285714285714285
 40
0.5714285714285714
 40
0.5714285714285714
 40
0.5714285714285714
 40
0.5714285714285714
 40
0.7142857142857143
 40
0.7142857142857143
 40
0.7142857142857143
 40
0.7142857142857143
 40
1.0
 40
1.0
 40
1.0
 40
1.0
 10
56.1543
 20
113.9298
 30
0.0
 10
56.1543
 20
113.9298
 30
0.0
 10
52.7599
 20
123.0412
 30
0.0
 10
52.7599
 20
123.0412
 30
0.0
 10
52.7599
 20
123.0412
 30
0.0
 10
52.7599
 20
123.0412
 30
0.0
 10
48.5365
 20
120.5921
 30
0.0
 10
48.0396
 20
116.0439
 30
0.0
 10
48.0396
 20
116.0439
 30
0.0
 10
48.0396
 20
116.0439
 30
0.0
 10
46.5489
 20
107.4723
 30
0.0
 10
51.2693
 20
103.6238
 30
0.0
 10
51.2693
 20
103.6238
 30
0.0
 10
51.2693
 20
103.6238
 30
0.0
 10
57.2318
 20
95.2271
 30
0.0
 10
57.2318
 20
105.5481
 30
0.0
 10
57.2318
 20
105.5481
 30
0.0
 10
57.2318
 20
96.9205
 30
0.0
 10
56.8845
 20
107.7289
 30
0.0
 10
56.7703
 20
111.3034
 30
0.0
 10
56.7703
 20
111.3034
 30
0.0
 10
56.738
 20
112.3331
 30
0.0
 10
56.5296
 20
112.9215
 30
0.0
 10
56.1543
 20
113.9298
 30
0.0
  0
SPLINE
  5
84
330
1F
100
AcDbEntity
  8
layer 1
 62
     7
370
     9
100
AcDbSpline
210
0.0
220
0.0
230
1.0
 70
    11
 71
     3
 72
    24
 73
    20
 74
     0
 42
0.0000000001
 43
0.0000000001
 12
1.0
 22
0.0
 32
0.0
 13
1.0
 23
0.0
 33
0.0
 40
0.0
 40
0.0
 40
0.0
 40
0.0
 40
0.1666666666666667
 40
0.1666666666666667
 40
0.1666666666666667
 40
0.1666666666666667
 40
0.3333333333333333
 40
0.3333333333333333
 40
0.3333333333333333
 40
0.3333333333333333
 40
0.5
 40
0.5
 40
0.5
 40
0.5
 40
0.6666666666666666
 40
0.6666666666666666
 40
0.6666666666666666
 40
0.6666666666666666
 40
1.0
 40
1.0
 40
1.0
 40
1.0
 10
63.5041
 20
129.5542
 30
0.0
 10
63.5041
 20
129.5542
 30
0.0
 10
55.7412
 20
129.572
 30
0.0
 10
55.7412
 20
129.572
 30
0.0
 10
55.7412
 20
129.572
 30
0.0
 10
55.7412
 20
129.572
 30
0.0
 10
57.7287
 20
119.7175
 30
0.0
 10
57.7287
 20
119.7175
 30
0.0
 10
57.7287
 20
119.7175
 30
0.0
 10
57.7287
 20
119.7175
 30
0.0
 10
60.309
 20
115.6302
 30
0.0
 10
61.1014
 20
118.1009
 30
0.0
 10
61.1014
 20
118.1009
 30
0.0
 10
61.6488
 20
119.808
 30
0.0
 10
61.3242
 20
119.663
 30
0.0
 10
62.0225
 20
121.7524
 30
0.0
 10
62.0225
 20
121.7524
 30
0.0
 10
63.0099
 20
124.707
 30
0.0
 10
63.5041
 20
129.5542
 30
0.0
 10
63.5041
 20
129.5542
 30
0.0
  0
SPLINE
  5
85
330
1F
100
AcDbEntity
  8
layer 1
 62
     7
370
     9
100
AcDbSpline
210
0.0
220
0.0
230
1.0
 70
    11
 71
     3
 72
    28
 73
    24
 74
     0
 42
0.0000000001
 43
0.0000000001
 12
1.0
 22
0.0
 32
0.0
 13
1.0
 23
0.0
 33
0.0
 40
0.0
 40
0.0
 40
0.0
 40
0.0
 40
0.1428571428571428
 40
0.1428571428571428
 40
0.1428571428571428
 40
0.1428571428571428
 40
0.2857142857142857
 40
0.2857142857142857
 40
0.2857142857142857
 40
0.2857142857142857
 40
0.4285714285714285
 40
0.4285714285714285
 40
0.4285714285714285
 40
0.4285714285714285
 40
0.5714285714285714
 40
0.5714285714285714
 40
0.5714285714285714
 40
0.5714285714285714
 40
0.7142857142857143
 40
0.7142857142857143
 40
0.7142857142857143
 40
0.7142857142857143
 40
1.0
 40
1.0
 40
1.0
 40
1.0
 10
78.4725
 20
105.077
 30
0.0
 10
78.4725
 20
105.077
 30
0.0
 10
78.4761
 20
83.9839
 30
0.0
 10
78.4761
 20
83.9839
 30
0.0
 10
78.4761
 20
83.9839
 30
0.0
 10
78.4761
 20
83.9839
 30
0.0
 10
72.9685
 20
81.1966
 30
0.0
 10
71.6534
 20
79.7151
 30
0.0
 10
71.6534
 20
79.7151
 30
0.0
 10
70.3384
 20
78.2336
 30
0.0
 10
66.1301
 20
75.0852
 30
0.0
 10
63.7629
 20
82.6783
 30
0.0
 10
63.7629
 20
82.6783
 30
0.0
 10
63.7629
 20
82.6783
 30
0.0
 10
63.7629
 20
90.0859
 30
0.0
 10
63.7629
 20
90.0859
 30
0.0
 10
63.7629
 20
90.0859
 30
0.0
 10
63.7629
 20
90.0859
 30
0.0
 10
63.1514
 20
92.26
 30
0.0
 10
69.3303
 20
98.8812
 30
0.0
 10
69.3303
 20
98.8812
 30
0.0
 10
74.966
 20
104.92
 30
0.0
 10
76.7395
 20
104.652
 30
0.0
 10
78.4725
 20
105.077
 30
0.0
  0
SPLINE
  5
86
330
1F
100
AcDbEntity
  8
layer 1
 62
     7
370
     9
100
AcDbSpline
210
0.0
220
0.0
230
1.0
 70
    11
 71
     3
 72
    20
 73
    16
 74
     0
 42
0.0000000001
 43
0.0000000001
 12
1.0
 22
0.0
 32
0.0
 13
1.0
 23
0.0
 33
0.0
 40
0.0
 40
0.0
 40
0.0
 40
0.0
 40
0.2
 40
0.2
 40
0.2
 40
0.2
 40
0.4
 40
0.4
 40
0.4
 40
0.4
 40
0.6
 40
0.6
 40
0.6
 40
0.6
 40
1.0
 40
1.0
 40
1.0
 40
1.0
 10
78.4737
 20
123.9742
 30
0.0
 10
78.4737
 20
123.9742
 30
0.0
 10
78.4745
 20
110.0145
 30
0.0
 10
78.4745
 20
110.0145
 30
0.0
 10
78.4745
 20
110.0145
 30
0.0
 10
78.4745
 20
110.0145
 30
0.0
 10
72.1794
 20
110.087
 30
0.0
 10
66.3931
 20
103.6051
 30
0.0
 10
66.3931
 20
103.6051
 30
0.0
 10
66.3931
 20
103.6051
 30
0.0
 10
66.9191
 20
114.1612
 30
0.0
 10
66.9191
 20
114.1612
 30
0.0
 10
66.9191
 20
114.1612
 30
0.0
 10
66.9191
 20
114.1612
 30
0.0
 10
78.4737
 20
123.9742
 30
0.0
 10
78.4737
 20
123.9742
 30
0.0
  0
SPLINE
  5
87
330
1F
100
AcDbEntity
  8
layer 1
 62
     7
370
     9
100
AcDbSpline
210
0.0
220
0.0
230
1.0
 70
    11
 71
     3
 72
    20
 73
    16
 74
     0
 42
0.0000000001
 43
0.0000000001
 12
1.0
 22
0.0
 32
0.0
 13
1.0
 23
0.0
 33
0.0
 40
0.0
 40
0.0
 40
0.0
 40
0.0
 40
0.2
 40
0.2
 40
0.2
 40
0.2
 40
0.4
 40
0.4
 40
0.4
 40
0.4
 40
0.6
 40
0.6
 40
0.6
 40
0.6
 40
1.0
 40
1.0
 40
1.0
 40
1.0
 10
78.0179
 20
129.5692
 30
0.0
 10
78.0179
 20
129.5692
 30
0.0
 10
68.8402
 20
129.566
 30
0.0
 10
68.8402
 20
129.566
 30
0.0
 10
68.8402
 20
129.566
 30
0.0
 10
68.8402
 20
129.566
 30
0.0
 10
67.7082
 20
123.7915
 30
0.0
 10
67.7082
 20
123.7915
 30
0.0
 10
67.7082
 20
123.7915
 30
0.0
 10
67.7082
 20
123.7915
 30
0.0
 10
67.7082
 20
121.1986
 30
0.0
 10
73.4945
 20
125.0877
 30
0.0
 10
73.4945
 20
125.0877
 30
0.0
 10
74.5966
 20
125.8412
 30
0.0
 10
80.0054
 20
128.9998
 30
0.0
 10
78.0179
 20
129.5692
 30
0.0
  0
SPLINE
  5
88
330
1F
100
AcDbEntity
  8
layer 1
 62
     7
370
     9
100
AcDbSpline
210
0.0
220
0.0
230
1.0
 70
    11
 71
     3
 72
    24
 73
    20
 74
     0
 42
0.0000000001
 43
0.0000000001
 12
1.0
 22
0.0
 32
0.0
 13
1.0
 23
0.0
 33
0.0
 40
0.0
 40
0.0
 40
0.0
 40
0.0
 40
0.1666666666666667
 40
0.1666666666666667
 40
0.1666666666666667
 40
0.1666666666666667
 40
0.3333333333333333
 40
0.3333333333333333
 40
0.3333333333333333
 40
0.3333333333333333
 40
0.5
 40
0.5
 40
0.5
 40
0.5
 40
0.6666666666666666
 40
0.6666666666666666
 40
0.6666666666666666
 40
0.6666666666666666
 40
1.0
 40
1.0
 40
1.0
 40
1.0
 10
21.614
 20
5.8375
 30
0.0
 10
24.1378
 20
-0.0761
 30
0.0
 10
22.2527
 20
-0.4581
 30
0.0
 10
37.2612
 20
-8.5525
 30
0.0
 10
37.2612
 20
-8.5525
 30
0.0
 10
37.2612
 20
-8.5525
 30
0.0
 10
47.1253
 20
-13.5741
 30
0.0
 10
28.9236
 20
-24.1419
 30
0.0
 10
28.9236
 20
-24.1419
 30
0.0
 10
28.9236
 20
-24.1419
 30
0.0
 10
14.4111
 20
-32.0367
 30
0.0
 10
13.4532
 20
-18.9956
 30
0.0
 10
13.4532
 20
-18.9956
 30
0.0
 10
13.4532
 20
-18.9956
 30
0.0
 10
17.4628
 20
1.5657
 30
0.0
 10
17.4628
 20
1.5657
 30
0.0
 10
17.4628
 20
1.5657
 30
0.0
 10
16.7148
 20
1.7411
 30
0.0
 10
19.0901
 20
11.7512
 30
0.0
 10
21.614
 20
5.8375
 30
0.0
  0
SPLINE
  5
89
330
1F
100
AcDbEntity
  8
layer 1
 62
     7
370
     9
100
AcDbSpline
210
0.0
220
0.0
230
1.0
 70
    11
 71
     3
 72
    36
 73
    32
 74
     0
 42
0.0000000001
 43
0.0000000001
 12
1.0
 22
0.0
 32
0.0
 13
1.0
 23
0.0
 33
0.0
 40
0.0
 40
0.0
 40
0.0
 40
0.0
 40
0.1111111111111111
 40
0.1111111111111111
 40
0.1111111111111111
 40
0.1111111111111111
 40
0.2222222222222222
 40
0.2222222222222222
 40
0.2222222222222222
 40
0.2222222222222222
 40
0.3333333333333333
 40
0.3333333333333333
 40
0.3333333333333333
 40
0.3333333333333333
 40
0.4444444444444444
 40
0.4444444444444444
 40
0.4444444444444444
 40
0.4444444444444444
 40
0.5555555555555556
 40
0.5555555555555556
 40
0.5555555555555556
 40
0.5555555555555556
 40
0.6666666666666666
 40
0.6666666666666666
 40
0.6666666666666666
 40
0.6666666666666666
 40
0.7777777777777778
 40
0.7777777777777778
 40
0.7777777777777778
 40
0.7777777777777778
 40
1.0
 40
1.0
 40
1.0
 40
1.0
 10
44.6169
 20
31.9774
 30
0.0
 10
44.6169
 20
31.9774
 30
0.0
 10
48.7431
 20
17.2091
 30
0.0
 10
48.7431
 20
17.2091
 30
0.0
 10
48.7431
 20
17.2091
 30
0.0
 10
48.7431
 20
17.2091
 30
0.0
 10
50.5531
 20
15.0242
 30
0.0
 10
46.7735
 20
6.7075
 30
0.0
 10
46.7735
 20
6.7075
 30
0.0
 10
45.9218
 20
4.833
 30
0.0
 10
45.1686
 20
2.7192
 30
0.0
 10
44.3253
 20
0.9585
 30
0.0
 10
44.3253
 20
0.9585
 30
0.0
 10
43.5359
 20
-0.6897
 30
0.0
 10
40.6843
 20
-2.4166
 30
0.0
 10
30.5195
 20
3.4091
 30
0.0
 10
30.5195
 20
3.4091
 30
0.0
 10
30.5195
 20
3.4091
 30
0.0
 10
18.8289
 20
13.8196
 30
0.0
 10
27.0809
 20
19.3881
 30
0.0
 10
27.0809
 20
19.3881
 30
0.0
 10
27.0809
 20
19.3881
 30
0.0
 10
37.7052
 20
30.4012
 30
0.0
 10
37.7052
 20
30.4012
 30
0.0
 10
37.7052
 20
30.4012
 30
0.0
 10
39.0152
 20
31.7592
 30
0.0
 10
39.2367
 20
32.3681
 30
0.0
 10
40.1847
 20
33.8028
 30
0.0
 10
40.1847
 20
33.8028
 30
0.0
 10
40.9905
 20
35.0227
 30
0.0
 10
42.468
 20
35.9117
 30
0.0
 10
44.6169
 20
31.9774
 30
0.0
  0
SPLINE
  5
8A
330
1F
100
AcDbEntity
  8
layer 1
 62
     7
370
     9
100
AcDbSpline
210
0.0
220
0.0
230
1.0
 70
    11
 71
     3
 72
    40
 73
    36
 74
     0
 42
0.0000000001
 43
0.0000000001
 12
1.0
 22
0.0
 32
0.0
 13
1.0
 23
0.0
 33
0.0
 40
0.0
 40
0.0
 40
0.0
 40
0.0
 40
0.1
 40
0.1
 40
0.1
 40
0.1
 40
0.2
 40
0.2
 40
0.2
 40
0.2
 40
0.3
 40
0.3
 40
0.3
 40
0.3
 40
0.4
 40
0.4
 40
0.4
 40
0.4
 40
0.5
 40
0.5
 40
0.5
 40
0.5
 40
0.6
 40
0.6
 40
0.6
 40
0.6
 40
0.7
 40
0.7
 40
0.7
 40
0.7
 40
0.8
 40
0.8
 40
0.8
 40
0.8
 40
1.0
 40
1.0
 40
1.0
 40
1.0
 10
78.4917
 20
74.146
 30
0.0
 10
78.4917
 20
74.146
 30
0.0
 10
78.4729
 20
46.6247
 30
0.0
 10
78.4729
 20
46.6247
 30
0.0
 10
78.4729
 20
46.6247
 30
0.0
 10
78.4729
 20
46.6247
 30
0.0
 10
72.4995
 20
42.8567
 30
0.0
 10
67.4268
 20
39.0148
 30
0.0
 10
67.4268
 20
39.0148
 30
0.0
 10
64.8122
 20
37.0346
 30
0.0
 10
63.6569
 20
35.4766
 30
0.0
 10
61.5096
 20
33.2631
 30
0.0
 10
61.5096
 20
33.2631
 30
0.0
 10
59.2069
 20
30.8891
 30
0.0
 10
55.4696
 20
28.8832
 30
0.0
 10
53.2132
 20
37.3037
 30
0.0
 10
53.2132
 20
37.3037
 30
0.0
 10
53.2132
 20
37.3037
 30
0.0
 10
51.2167
 20
41.0524
 30
0.0
 10
51.2167
 20
41.0524
 30
0.0
 10
51.2167
 20
41.0524
 30
0.0
 10
50.9158
 20
41.6174
 30
0.0
 10
48.9078
 20
44.2209
 30
0.0
 10
48.8886
 20
44.3454
 30
0.0
 10
48.8886
 20
44.3454
 30
0.0
 10
48.6611
 20
45.8086
 30
0.0
 10
49.8822
 20
49.0006
 30
0.0
 10
56.6516
 20
55.9459
 30
0.0
 10
56.6516
 20
55.9459
 30
0.0
 10
56.6516
 20
55.9459
 30
0.0
 10
73.156
 20
70.2302
 30
0.0
 10
73.156
 20
70.2302
 30
0.0
 10
73.156
 20
70.2302
 30
0.0
 10
73.156
 20
70.2302
 30
0.0
 10
78.4917
 20
74.146
 30
0.0
 10
78.4917
 20
74.146
 30
0.0
  0
SPLINE
  5
8B
330
1F
100
AcDbEntity
  8
layer 1
 62
     7
370
     9
100
AcDbSpline
210
0.0
220
0.0
230
1.0
 70
    11
 71
     3
 72
    20
 73
    16
 74
     0
 42
0.0000000001
 43
0.0000000001
 12
1.0
 22
0.0
 32
0.0
 13
1.0
 23
0.0
 33
0.0
 40
0.0
 40
0.0
 40
0.0
 40
0.0
 40
0.2
 40
0.2
 40
0.2
 40
0.2
 40
0.4
 40
0.4
 40
0.4
 40
0.4
 40
0.6
 40
0.6
 40
0.6
 40
0.6
 40
1.0
 40
1.0
 40
1.0
 40
1.0
 10
78.492
 20
29.446
 30
0.0
 10
78.492
 20
29.446
 30
0.0
 10
78.4698
 20
-104.4473
 30
0.0
 10
78.4698
 20
-104.4473
 30
0.0
 10
78.4698
 20
-104.4473
 30
0.0
 10
78.4697
 20
-106.6813
 30
0.0
 10
49.6535
 20
-57.4085
 30
0.0
 10
50.5261
 20
-26.9129
 30
0.0
 10
50.5261
 20
-26.9129
 30
0.0
 10
50.5261
 20
-26.9129
 30
0.0
 10
62.0067
 20
-5.3001
 30
0.0
 10
63.805
 20
12.6461
 30
0.0
 10
63.805
 20
12.6461
 30
0.0
 10
65.1232
 20
25.8014
 30
0.0
 10
70.8661
 20
19.2571
 30
0.0
 10
78.492
 20
29.446
 30
0.0
  0
ENDSEC
  0
SECTION
  2
OBJECTS
  0
DICTIONARY
  5
C
330
0
100
AcDbDictionary
281
     1
  3
ACAD_GROUP
350
D
  3
ACAD_LAYOUT
350
1A
  3
ACAD_MATERIAL
350
3B
  3
ACAD_MLEADERSTYLE
350
AE
  3
ACAD_MLINESTYLE
350
17
  3
ACAD_PLOTSETTINGS
350
19
  3
ACAD_PLOTSTYLENAME
350
E
  3
ACAD_TABLESTYLE
350
AD
  3
ACAD_VISUALSTYLE
350
2A
  0
DICTIONARY
  5
D
102
{ACAD_REACTORS
330
C
102
}
330
C
100
AcDbDictionary
281
     1
  0
DICTIONARY
  5
1A
102
{ACAD_REACTORS
330
C
102
}
330
C
100
AcDbDictionary
281
     1
  3
Layout1
350
1E
  3
Layout2
350
26
  3
Model
350
22
  0
DICTIONARY
  5
3B
102
{ACAD_REACTORS
330
C
102
}
330
C
100
AcDbDictionary
281
     1
  3
ByBlock
350
3D
  3
ByLayer
350
3C
  3
Global
350
3E
  0
DICTIONARY
  5
AE
102
{ACAD_REACTORS
330
C
102
}
330
C
100
AcDbDictionary
281
     1
  0
DICTIONARY
  5
17
102
{ACAD_REACTORS
330
C
102
}
330
C
100
AcDbDictionary
281
     1
  3
Standard
350
18
  0
DICTIONARY
  5
19
102
{ACAD_REACTORS
330
C
102
}
330
C
100
AcDbDictionary
281
     1
  0
ACDBDICTIONARYWDFLT
  5
E
102
{ACAD_REACTORS
330
C
102
}
330
C
100
AcDbDictionary
281
     1
  3
Normal
350
F
100
AcDbDictionaryWithDefault
340
F
  0
DICTIONARY
  5
AD
102
{ACAD_REACTORS
330
C
102
}
330
C
100
AcDbDictionary
281
     1
  0
DICTIONARY
  5
2A
102
{ACAD_REACTORS
330
C
102
}
330
C
100
AcDbDictionary
281
     1
  3
2dWireframe
350
2F
  3
3D Hidden
350
31
  3
3dWireframe
350
30
  3
Basic
350
32
  3
Brighten
350
36
  3
ColorChange
350
3A
  3
Conceptual
350
34
  3
Dim
350
35
  3
Facepattern
350
39
  3
Flat
350
2B
  3
FlatWithEdges
350
2C
  3
Gouraud
350
2D
  3
GouraudWithEdges
350
2E
  3
Linepattern
350
38
  3
Realistic
350
33
  3
Thicken
350
37
  0
LAYOUT
  5
1E
102
{ACAD_REACTORS
330
1A
102
}
330
1A
100
AcDbPlotSettings
  1

  2
none_device
  4

  6

 40
0.0
 41
0.0
 42
0.0
 43
0.0
 44
0.0
 45
0.0
 46
0.0
 47
0.0
 48
0.0
 49
0.0
140
0.0
141
0.0
142
1.0
143
1.0
 70
   688
 72
     0
 73
     0
 74
     5
  7

 75
    16
 76
     0
 77
     2
 78
   300
147
1.0
148
0.0
149
0.0
100
AcDbLayout
  1
Layout1
 70
     1
 71
     1
 10
0.0
 20
0.0
 11
12.0
 21
9.0
 12
0.0
 22
0.0
 32
0.0
 14
1.000000000000000E+20
 24
1.000000000000000E+20
 34
1.000000000000000E+20
 15
-1.000000000000000E+20
 25
-1.000000000000000E+20
 35
-1.000000000000000E+20
146
0.0
 13
0.0
 23
0.0
 33
0.0
 16
1.0
 26
0.0
 36
0.0
 17
0.0
 27
1.0
 37
0.0
 76
     0
330
1B
  0
LAYOUT
  5
26
102
{ACAD_REACTORS
330
1A
102
}
330
1A
100
AcDbPlotSettings
  1

  2
none_device
  4

  6

 40
0.0
 41
0.0
 42
0.0
 43
0.0
 44
0.0
 45
0.0
 46
0.0
 47
0.0
 48
0.0
 49
0.0
140
0.0
141
0.0
142
1.0
143
1.0
 70
   688
 72
     0
 73
     0
 74
     5
  7

 75
    16
 76
     0
 77
     2
 78
   300
147
1.0
148
0.0
149
0.0
100
AcDbLayout
  1
Layout2
 70
     1
 71
     2
 10
0.0
 20
0.0
 11
0.0
 21
0.0
 12
0.0
 22
0.0
 32
0.0
 14
0.0
 24
0.0
 34
0.0
 15
0.0
 25
0.0
 35
0.0
146
0.0
 13
0.0
 23
0.0
 33
0.0
 16
1.0
 26
0.0
 36
0.0
 17
0.0
 27
1.0
 37
0.0
 76
     0
330
23
  0
LAYOUT
  5
22
102
{ACAD_REACTORS
330
1A
102
}
330
1A
100
AcDbPlotSettings
  1

  2
none_device
  4

  6

 40
0.0
 41
0.0
 42
0.0
 43
0.0
 44
0.0
 45
0.0
 46
0.0
 47
0.0
 48
0.0
 49
0.0
140
0.0
141
0.0
142
1.0
143
1.0
 70
  1712
 72
     0
 73
     0
 74
     0
  7

 75
     0
 76
     0
 77
     2
 78
   300
147
1.0
148
0.0
149
0.0
100
AcDbLayout
  1
Model
 70
     1
 71
     0
 10
0.0
 20
0.0
 11
12.0
 21
9.0
 12
0.0
 22
0.0
 32
0.0
 14
-187.3071
 24
-106.5502
 34
0.0
 15
80.5137
 25
131.7344
 35
0.0
146
0.0
 13
0.0
 23
0.0
 33
0.0
 16
1.0
 26
0.0
 36
0.0
 17
0.0
 27
1.0
 37
0.0
 76
     0
330
1F
331
29
  0
MATERIAL
  5
3D
102
{ACAD_REACTORS
330
3B
102
}
330
3B
100
AcDbMaterial
  1
ByBlock
 72
     1
 94
      127
  0
MATERIAL
  5
3C
102
{ACAD_REACTORS
330
3B
102
}
330
3B
100
AcDbMaterial
  1
ByLayer
 72
     1
 94
      127
  0
MATERIAL
  5
3E
102
{ACAD_REACTORS
330
3B
102
}
330
3B
100
AcDbMaterial
  1
Global
 72
     1
 94
      127
  0
MLINESTYLE
  5
18
102
{ACAD_REACTORS
330
17
102
}
330
17
100
AcDbMlineStyle
  2
Standard
 70
     0
  3

 62
   256
 51
90.0
 52
90.0
 71
     2
 49
0.5
 62
   256
  6
BYLAYER
 49
-0.5
 62
   256
  6
BYLAYER
  0
ACDBPLACEHOLDER
  5
F
102
{ACAD_REACTORS
330
E
102
}
330
E
  0
VISUALSTYLE
  5
2F
102
{ACAD_REACTORS
330
2A
102
}
102
{ACAD_XDICTIONARY
360
95
102
}
330
2A
100
AcDbVisualStyle
  2
2dWireframe
 70
     4
 71
     0
 72
     2
 73
     0
 90
        0
 40
-0.6
 41
-30.0
 62
     5
 63
     7
421
 16777215
 74
     1
 91
        4
 64
     7
 65
   257
 75
     1
175
     1
 42
1.0
 92
        0
 66
   257
 43
1.0
 76
     1
 77
     6
 78
     2
 67
     7
 79
     5
170
     0
171
     0
290
     0
174
     0
 93
        1
 44
0.0
173
     0
291
     0
 45
0.0
  0
VISUALSTYLE
  5
31
102
{ACAD_REACTORS
330
2A
102
}
102
{ACAD_XDICTIONARY
360
99
102
}
330
2A
100
AcDbVisualStyle
  2
3D Hidden
 70
     6
 71
     1
 72
     2
 73
     2
 90
        0
 40
-0.6
 41
-30.0
 62
     5
 63
     7
421
 16777215
 74
     2
 91
        2
 64
     7
 65
   257
 75
     2
175
     1
 42
40.0
 92
        0
 66
   257
 43
1.0
 76
     1
 77
     6
 78
     2
 67
     7
 79
     3
170
     0
171
     0
290
     0
174
     0
 93
        1
 44
0.0
173
     0
291
     0
 45
0.0
  0
VISUALSTYLE
  5
30
102
{ACAD_REACTORS
330
2A
102
}
102
{ACAD_XDICTIONARY
360
97
102
}
330
2A
100
AcDbVisualStyle
  2
3dWireframe
 70
     5
 71
     0
 72
     2
 73
     0
 90
        0
 40
-0.6
 41
-30.0
 62
     5
 63
     7
421
 16777215
 74
     1
 91
        4
 64
     7
 65
   257
 75
     1
175
     1
 42
1.0
 92
        0
 66
   257
 43
1.0
 76
     1
 77
     6
 78
     2
 67
     7
 79
     5
170
     0
171
     0
290
     0
174
     0
 93
        1
 44
0.0
173
     0
291
     0
 45
0.0
  0
VISUALSTYLE
  5
32
102
{ACAD_REACTORS
330
2A
102
}
102
{ACAD_XDICTIONARY
360
9B
102
}
330
2A
100
AcDbVisualStyle
  2
Basic
 70
     7
 71
     1
 72
     0
 73
     1
 90
        0
 40
-0.6
 41
-30.0
 62
     5
 63
     7
421
 16777215
 74
     0
 91
        4
 64
     7
 65
   257
 75
     1
175
     1
 42
1.0
 92
        8
 66
     7
 43
1.0
 76
     1
 77
     6
 78
     2
 67
     7
 79
     5
170
     0
171
     0
290
     0
174
     0
 93
        1
 44
0.0
173
     0
291
     1
 45
0.0
  0
VISUALSTYLE
  5
36
102
{ACAD_REACTORS
330
2A
102
}
102
{ACAD_XDICTIONARY
360
A3
102
}
330
2A
100
AcDbVisualStyle
  2
Brighten
 70
    12
 71
     2
 72
     2
 73
     0
 90
        0
 40
-0.6
 41
-30.0
 62
     5
 63
     7
421
 16777215
 74
     1
 91
        4
 64
     7
 65
   257
 75
     1
175
     1
 42
1.0
 92
        8
 66
     7
 43
1.0
 76
     1
 77
     6
 78
     2
 67
     7
 79
     5
170
     0
171
     0
290
     0
174
     0
 93
        1
 44
50.0
173
     0
291
     1
 45
0.0
  0
VISUALSTYLE
  5
3A
102
{ACAD_REACTORS
330
2A
102
}
102
{ACAD_XDICTIONARY
360
AB
102
}
330
2A
100
AcDbVisualStyle
  2
ColorChange
 70
    16
 71
     2
 72
     2
 73
     3
 90
        0
 40
-0.6
 41
-30.0
 62
     5
 63
     8
421
  8421504
 74
     1
 91
        4
 64
     7
 65
   257
 75
     1
175
     1
 42
1.0
 92
        8
 66
     8
424
  8421504
 43
1.0
 76
     1
 77
     6
 78
     2
 67
     7
 79
     5
170
     0
171
     0
290
     0
174
     0
 93
        1
 44
0.0
173
     0
291
     1
 45
0.0
  0
VISUALSTYLE
  5
34
102
{ACAD_REACTORS
330
2A
102
}
102
{ACAD_XDICTIONARY
360
9F
102
}
330
2A
100
AcDbVisualStyle
  2
Conceptual
 70
     9
 71
     3
 72
     2
 73
     0
 90
        0
 40
-0.6
 41
-30.0
 62
     5
 63
     7
421
 16777215
 74
     2
 91
        2
 64
     7
 65
   257
 75
     1
175
     1
 42
40.0
 92
        8
 66
     7
 43
1.0
 76
     1
 77
     6
 78
     2
 67
     7
 79
     3
170
     0
171
     0
290
     0
174
     0
 93
        1
 44
0.0
173
     0
291
     0
 45
0.0
  0
VISUALSTYLE
  5
35
102
{ACAD_REACTORS
330
2A
102
}
102
{ACAD_XDICTIONARY
360
A1
102
}
330
2A
100
AcDbVisualStyle
  2
Dim
 70
    11
 71
     2
 72
     2
 73
     0
 90
        0
 40
-0.6
 41
-30.0
 62
     5
 63
     7
421
 16777215
 74
     1
 91
        4
 64
     7
 65
   257
 75
     1
175
     1
 42
1.0
 92
        8
 66
     7
 43
1.0
 76
     1
 77
     6
 78
     2
 67
     7
 79
     5
170
     0
171
     0
290
     0
174
     0
 93
        1
 44
-50.0
173
     0
291
     1
 45
0.0
  0
VISUALSTYLE
  5
39
102
{ACAD_REACTORS
330
2A
102
}
102
{ACAD_XDICTIONARY
360
A9
102
}
330
2A
100
AcDbVisualStyle
  2
Facepattern
 70
    15
 71
     2
 72
     2
 73
     0
 90
        0
 40
-0.6
 41
-30.0
 62
     5
 63
     7
421
 16777215
 74
     1
 91
        4
 64
     7
 65
   257
 75
     1
175
     1
 42
1.0
 92
        8
 66
     7
 43
1.0
 76
     1
 77
     6
 78
     2
 67
     7
 79
     5
170
     0
171
     0
290
     0
174
     0
 93
        1
 44
0.0
173
     0
291
     1
 45
0.0
  0
VISUALSTYLE
  5
2B
102
{ACAD_REACTORS
330
2A
102
}
102
{ACAD_XDICTIONARY
360
8D
102
}
330
2A
100
AcDbVisualStyle
  2
Flat
 70
     0
 71
     2
 72
     1
 73
     1
 90
        2
 40
-0.6
 41
30.0
 62
     5
 63
     7
421
 16777215
 74
     0
 91
        4
 64
     7
 65
   257
 75
     1
175
     1
 42
1.0
 92
        8
 66
     7
 43
1.0
 76
     1
 77
     6
 78
     2
 67
     7
 79
     5
170
     0
171
     0
290
     0
174
     0
 93
       13
 44
0.0
173
     0
291
     1
 45
0.0
  0
VISUALSTYLE
  5
2C
102
{ACAD_REACTORS
330
2A
102
}
102
{ACAD_XDICTIONARY
360
8F
102
}
330
2A
100
AcDbVisualStyle
  2
FlatWithEdges
 70
     1
 71
     2
 72
     1
 73
     1
 90
        2
 40
-0.6
 41
30.0
 62
     5
 63
     7
421
 16777215
 74
     1
 91
        4
 64
     7
 65
   257
 75
     1
175
     1
 42
1.0
 92
        0
 66
   257
 43
1.0
 76
     1
 77
     6
 78
     2
 67
     7
 79
     5
170
     0
171
     0
290
     0
174
     0
 93
       13
 44
0.0
173
     0
291
     1
 45
0.0
  0
VISUALSTYLE
  5
2D
102
{ACAD_REACTORS
330
2A
102
}
102
{ACAD_XDICTIONARY
360
91
102
}
330
2A
100
AcDbVisualStyle
  2
Gouraud
 70
     2
 71
     2
 72
     2
 73
     1
 90
        2
 40
-0.6
 41
30.0
 62
     5
 63
     7
421
 16777215
 74
     0
 91
        4
 64
     7
 65
   257
 75
     1
175
     1
 42
1.0
 92
        0
 66
     7
 43
1.0
 76
     1
 77
     6
 78
     2
 67
     7
 79
     5
170
     0
171
     0
290
     0
174
     0
 93
       13
 44
0.0
173
     0
291
     1
 45
0.0
  0
VISUALSTYLE
  5
2E
102
{ACAD_REACTORS
330
2A
102
}
102
{ACAD_XDICTIONARY
360
93
102
}
330
2A
100
AcDbVisualStyle
  2
GouraudWithEdges
 70
     3
 71
     2
 72
     2
 73
     1
 90
        2
 40
-0.6
 41
30.0
 62
     5
 63
     7
421
 16777215
 74
     1
 91
        4
 64
     7
 65
   257
 75
     1
175
     1
 42
1.0
 92
        0
 66
   257
 43
1.0
 76
     1
 77
     6
 78
     2
 67
     7
 79
     5
170
     0
171
     0
290
     0
174
     0
 93
       13
 44
0.0
173
     0
291
     1
 45
0.0
  0
VISUALSTYLE
  5
38
102
{ACAD_REACTORS
330
2A
102
}
102
{ACAD_XDICTIONARY
360
A7
102
}
330
2A
100
AcDbVisualStyle
  2
Linepattern
 70
    14
 71
     2
 72
     2
 73
     0
 90
        0
 40
-0.6
 41
-30.0
 62
     5
 63
     7
421
 16777215
 74
     1
 91
        4
 64
     7
 65
   257
 75
     7
175
     7
 42
1.0
 92
        8
 66
     7
 43
1.0
 76
     1
 77
     6
 78
     2
 67
     7
 79
     5
170
     0
171
     0
290
     0
174
     0
 93
        1
 44
0.0
173
     0
291
     1
 45
0.0
  0
VISUALSTYLE
  5
33
102
{ACAD_REACTORS
330
2A
102
}
102
{ACAD_XDICTIONARY
360
9D
102
}
330
2A
100
AcDbVisualStyle
  2
Realistic
 70
     8
 71
     2
 72
     2
 73
     0
 90
        0
 40
-0.6
 41
-30.0
 62
     5
 63
     7
421
 16777215
 74
     1
 91
        0
 64
     7
 65
   257
 75
     1
175
     1
 42
1.0
 92
        8
 66
     8
424
  7895160
 43
1.0
 76
     1
 77
     6
 78
     2
 67
     7
 79
     5
170
     0
171
     0
290
     0
174
     0
 93
       13
 44
0.0
173
     0
291
     0
 45
0.0
  0
VISUALSTYLE
  5
37
102
{ACAD_REACTORS
330
2A
102
}
102
{ACAD_XDICTIONARY
360
A5
102
}
330
2A
100
AcDbVisualStyle
  2
Thicken
 70
    13
 71
     2
 72
     2
 73
     0
 90
        0
 40
-0.6
 41
-30.0
 62
     5
 63
     7
421
 16777215
 74
     1
 91
        4
 64
     7
 65
   257
 75
     1
175
     1
 42
1.0
 92
       12
 66
     7
 43
1.0
 76
     1
 77
     6
 78
     2
 67
     7
 79
     5
170
     0
171
     0
290
     0
174
     0
 93
        1
 44
0.0
173
     0
291
     1
 45
0.0
  0
DICTIONARY
  5
95
330
2F
100
AcDbDictionary
280
     1
281
     1
  3
ACAD_XREC_ROUNDTRIP
360
96
  0
DICTIONARY
  5
99
330
31
100
AcDbDictionary
280
     1
281
     1
  3
ACAD_XREC_ROUNDTRIP
360
9A
  0
DICTIONARY
  5
97
330
30
100
AcDbDictionary
280
     1
281
     1
  3
ACAD_XREC_ROUNDTRIP
360
98
  0
DICTIONARY
  5
9B
330
32
100
AcDbDictionary
280
     1
281
     1
  3
ACAD_XREC_ROUNDTRIP
360
9C
  0
DICTIONARY
  5
A3
330
36
100
AcDbDictionary
280
     1
281
     1
  3
ACAD_XREC_ROUNDTRIP
360
A4
  0
DICTIONARY
  5
AB
330
3A
100
AcDbDictionary
280
     1
281
     1
  3
ACAD_XREC_ROUNDTRIP
360
AC
  0
DICTIONARY
  5
9F
330
34
100
AcDbDictionary
280
     1
281
     1
  3
ACAD_XREC_ROUNDTRIP
360
A0
  0
DICTIONARY
  5
A1
330
35
100
AcDbDictionary
280
     1
281
     1
  3
ACAD_XREC_ROUNDTRIP
360
A2
  0
DICTIONARY
  5
A9
330
39
100
AcDbDictionary
280
     1
281
     1
  3
ACAD_XREC_ROUNDTRIP
360
AA
  0
DICTIONARY
  5
8D
330
2B
100
AcDbDictionary
280
     1
281
     1
  3
ACAD_XREC_ROUNDTRIP
360
8E
  0
DICTIONARY
  5
8F
330
2C
100
AcDbDictionary
280
     1
281
     1
  3
ACAD_XREC_ROUNDTRIP
360
90
  0
DICTIONARY
  5
91
330
2D
100
AcDbDictionary
280
     1
281
     1
  3
ACAD_XREC_ROUNDTRIP
360
92
  0
DICTIONARY
  5
93
330
2E
100
AcDbDictionary
280
     1
281
     1
  3
ACAD_XREC_ROUNDTRIP
360
94
  0
DICTIONARY
  5
A7
330
38
100
AcDbDictionary
280
     1
281
     1
  3
ACAD_XREC_ROUNDTRIP
360
A8
  0
DICTIONARY
  5
9D
330
33
100
AcDbDictionary
280
     1
281
     1
  3
ACAD_XREC_ROUNDTRIP
360
9E
  0
DICTIONARY
  5
A5
330
37
100
AcDbDictionary
280
     1
281
     1
  3
ACAD_XREC_ROUNDTRIP
360
A6
  0
XRECORD
  5
96
102
{ACAD_REACTORS
330
95
102
}
330
95
100
AcDbXrecord
280
     1
102
RTVSPropertyOp0
 70
     1
102
RTVSPropertyOp1
 70
     1
102
RTVSPropertyOp2
 70
     1
102
RTVSPropertyOp3
 70
     1
102
RTVSPropertyOp4
 70
     1
102
RTVSPropertyOp5
 70
     1
102
RTVSPropertyOp6
 70
     1
102
RTVSPropertyOp7
 70
     1
102
RTVSPropertyOp8
 70
     1
102
RTVSPropertyOp9
 70
     1
102
RTVSPropertyOp10
 70
     1
102
RTVSPropertyOp11
 70
     1
102
RTVSPropertyOp12
 70
     1
102
RTVSPropertyOp13
 70
     1
102
RTVSPropertyOp14
 70
     1
102
RTVSPropertyOp15
 70
     1
102
RTVSPropertyOp16
 70
     1
102
RTVSPropertyOp17
 70
     1
102
RTVSPropertyOp18
 70
     1
102
RTVSPropertyOp19
 70
     1
102
RTVSPropertyOp20
 70
     1
102
RTVSPropertyOp21
 70
     1
102
RTVSPropertyOp22
 70
     1
102
RTVSPropertyOp23
 70
     1
102
RTVSPropertyOp24
 70
     1
102
RTVSPropertyOp25
 70
     1
102
RTVSPropertyOp26
 70
     1
102
RTVSPropertyOp27
 70
     1
102
RTVSPropertyOp28
 70
     1
102
RTVSPropertyOp29
 70
     1
102
RTVSPropertyOp30
 70
     1
102
RTVSPropertyOp31
 70
     1
102
RTVSPropertyOp32
 70
     1
  0
XRECORD
  5
9A
102
{ACAD_REACTORS
330
99
102
}
330
99
100
AcDbXrecord
280
     1
102
RTVSPropertyOp0
 70
     1
102
RTVSPropertyOp1
 70
     1
102
RTVSPropertyOp2
 70
     1
102
RTVSPropertyOp3
 70
     1
102
RTVSPropertyOp4
 70
     1
102
RTVSPropertyOp5
 70
     1
102
RTVSPropertyOp6
 70
     1
102
RTVSPropertyOp7
 70
     1
102
RTVSPropertyOp8
 70
     1
102
RTVSPropertyOp9
 70
     1
102
RTVSPropertyOp10
 70
     1
102
RTVSPropertyOp11
 70
     1
102
RTVSPropertyOp12
 70
     1
102
RTVSPropertyOp13
 70
     1
102
RTVSPropertyOp14
 70
     1
102
RTVSPropertyOp15
 70
     1
102
RTVSPropertyOp16
 70
     1
102
RTVSPropertyOp17
 70
     1
102
RTVSPropertyOp18
 70
     1
102
RTVSPropertyOp19
 70
     1
102
RTVSPropertyOp20
 70
     1
102
RTVSPropertyOp21
 70
     1
102
RTVSPropertyOp22
 70
     1
102
RTVSPropertyOp23
 70
     1
102
RTVSPropertyOp24
 70
     1
102
RTVSPropertyOp25
 70
     1
102
RTVSPropertyOp26
 70
     1
102
RTVSPropertyOp27
 70
     1
102
RTVSPropertyOp28
 70
     1
102
RTVSPropertyOp29
 70
     1
102
RTVSPropertyOp30
 70
     1
102
RTVSPropertyOp31
 70
     1
102
RTVSPropertyOp32
 70
     1
  0
XRECORD
  5
98
102
{ACAD_REACTORS
330
97
102
}
330
97
100
AcDbXrecord
280
     1
102
RTVSPropertyOp0
 70
     1
102
RTVSPropertyOp1
 70
     1
102
RTVSPropertyOp2
 70
     1
102
RTVSPropertyOp3
 70
     1
102
RTVSPropertyOp4
 70
     1
102
RTVSPropertyOp5
 70
     1
102
RTVSPropertyOp6
 70
     1
102
RTVSPropertyOp7
 70
     1
102
RTVSPropertyOp8
 70
     1
102
RTVSPropertyOp9
 70
     1
102
RTVSPropertyOp10
 70
     1
102
RTVSPropertyOp11
 70
     1
102
RTVSPropertyOp12
 70
     1
102
RTVSPropertyOp13
 70
     1
102
RTVSPropertyOp14
 70
     1
102
RTVSPropertyOp15
 70
     1
102
RTVSPropertyOp16
 70
     1
102
RTVSPropertyOp17
 70
     1
102
RTVSPropertyOp18
 70
     1
102
RTVSPropertyOp19
 70
     1
102
RTVSPropertyOp20
 70
     1
102
RTVSPropertyOp21
 70
     1
102
RTVSPropertyOp22
 70
     1
102
RTVSPropertyOp23
 70
     1
102
RTVSPropertyOp24
 70
     1
102
RTVSPropertyOp25
 70
     1
102
RTVSPropertyOp26
 70
     1
102
RTVSPropertyOp27
 70
     1
102
RTVSPropertyOp28
 70
     1
102
RTVSPropertyOp29
 70
     1
102
RTVSPropertyOp30
 70
     1
102
RTVSPropertyOp31
 70
     1
102
RTVSPropertyOp32
 70
     1
  0
XRECORD
  5
9C
102
{ACAD_REACTORS
330
9B
102
}
330
9B
100
AcDbXrecord
280
     1
102
RTVSPropertyOp0
 70
     1
102
RTVSPropertyOp1
 70
     1
102
RTVSPropertyOp2
 70
     1
102
RTVSPropertyOp3
 70
     1
102
RTVSPropertyOp4
 70
     1
102
RTVSPropertyOp5
 70
     1
102
RTVSPropertyOp6
 70
     1
102
RTVSPropertyOp7
 70
     1
102
RTVSPropertyOp8
 70
     1
102
RTVSPropertyOp9
 70
     1
102
RTVSPropertyOp10
 70
     1
102
RTVSPropertyOp11
 70
     1
102
RTVSPropertyOp12
 70
     1
102
RTVSPropertyOp13
 70
     1
102
RTVSPropertyOp14
 70
     1
102
RTVSPropertyOp15
 70
     1
102
RTVSPropertyOp16
 70
     1
102
RTVSPropertyOp17
 70
     1
102
RTVSPropertyOp18
 70
     1
102
RTVSPropertyOp19
 70
     1
102
RTVSPropertyOp20
 70
     1
102
RTVSPropertyOp21
 70
     1
102
RTVSPropertyOp22
 70
     1
102
RTVSPropertyOp23
 70
     1
102
RTVSPropertyOp24
 70
     1
102
RTVSPropertyOp25
 70
     1
102
RTVSPropertyOp26
 70
     1
102
RTVSPropertyOp27
 70
     1
102
RTVSPropertyOp28
 70
     1
102
RTVSPropertyOp29
 70
     1
102
RTVSPropertyOp30
 70
     1
102
RTVSPropertyOp31
 70
     1
102
RTVSPropertyOp32
 70
     1
  0
XRECORD
  5
A4
102
{ACAD_REACTORS
330
A3
102
}
330
A3
100
AcDbXrecord
280
     1
102
RTVSPropertyOp0
 70
     1
102
RTVSPropertyOp1
 70
     1
102
RTVSPropertyOp2
 70
     1
102
RTVSPropertyOp3
 70
     1
102
RTVSPropertyOp4
 70
     1
102
RTVSPropertyOp5
 70
     1
102
RTVSPropertyOp6
 70
     1
102
RTVSPropertyOp7
 70
     1
102
RTVSPropertyOp8
 70
     1
102
RTVSPropertyOp9
 70
     1
102
RTVSPropertyOp10
 70
     1
102
RTVSPropertyOp11
 70
     1
102
RTVSPropertyOp12
 70
     1
102
RTVSPropertyOp13
 70
     1
102
RTVSPropertyOp14
 70
     1
102
RTVSPropertyOp15
 70
     1
102
RTVSPropertyOp16
 70
     1
102
RTVSPropertyOp17
 70
     1
102
RTVSPropertyOp18
 70
     1
102
RTVSPropertyOp19
 70
     1
102
RTVSPropertyOp20
 70
     1
102
RTVSPropertyOp21
 70
     1
102
RTVSPropertyOp22
 70
     1
102
RTVSPropertyOp23
 70
     1
102
RTVSPropertyOp24
 70
     1
102
RTVSPropertyOp25
 70
     1
102
RTVSPropertyOp26
 70
     1
102
RTVSPropertyOp27
 70
     1
102
RTVSPropertyOp28
 70
     1
102
RTVSPropertyOp29
 70
     1
102
RTVSPropertyOp30
 70
     1
102
RTVSPropertyOp31
 70
     1
102
RTVSPropertyOp32
 70
     1
  0
XRECORD
  5
AC
102
{ACAD_REACTORS
330
AB
102
}
330
AB
100
AcDbXrecord
280
     1
102
RTVSPropertyOp0
 70
     1
102
RTVSPropertyOp1
 70
     1
102
RTVSPropertyOp2
 70
     1
102
RTVSPropertyOp3
 70
     1
102
RTVSPropertyOp4
 70
     1
102
RTVSPropertyOp5
 70
     1
102
RTVSPropertyOp6
 70
     1
102
RTVSPropertyOp7
 70
     1
102
RTVSPropertyOp8
 70
     1
102
RTVSPropertyOp9
 70
     1
102
RTVSPropertyOp10
 70
     1
102
RTVSPropertyOp11
 70
     1
102
RTVSPropertyOp12
 70
     1
102
RTVSPropertyOp13
 70
     1
102
RTVSPropertyOp14
 70
     1
102
RTVSPropertyOp15
 70
     1
102
RTVSPropertyOp16
 70
     1
102
RTVSPropertyOp17
 70
     1
102
RTVSPropertyOp18
 70
     1
102
RTVSPropertyOp19
 70
     1
102
RTVSPropertyOp20
 70
     1
102
RTVSPropertyOp21
 70
     1
102
RTVSPropertyOp22
 70
     1
102
RTVSPropertyOp23
 70
     1
102
RTVSPropertyOp24
 70
     1
102
RTVSPropertyOp25
 70
     1
102
RTVSPropertyOp26
 70
     1
102
RTVSPropertyOp27
 70
     1
102
RTVSPropertyOp28
 70
     1
102
RTVSPropertyOp29
 70
     1
102
RTVSPropertyOp30
 70
     1
102
RTVSPropertyOp31
 70
     1
102
RTVSPropertyOp32
 70
     1
  0
XRECORD
  5
A0
102
{ACAD_REACTORS
330
9F
102
}
330
9F
100
AcDbXrecord
280
     1
102
RTVSPropertyOp0
 70
     1
102
RTVSPropertyOp1
 70
     1
102
RTVSPropertyOp2
 70
     1
102
RTVSPropertyOp3
 70
     1
102
RTVSPropertyOp4
 70
     1
102
RTVSPropertyOp5
 70
     1
102
RTVSPropertyOp6
 70
     1
102
RTVSPropertyOp7
 70
     1
102
RTVSPropertyOp8
 70
     1
102
RTVSPropertyOp9
 70
     1
102
RTVSPropertyOp10
 70
     1
102
RTVSPropertyOp11
 70
     1
102
RTVSPropertyOp12
 70
     1
102
RTVSPropertyOp13
 70
     1
102
RTVSPropertyOp14
 70
     1
102
RTVSPropertyOp15
 70
     1
102
RTVSPropertyOp16
 70
     1
102
RTVSPropertyOp17
 70
     1
102
RTVSPropertyOp18
 70
     1
102
RTVSPropertyOp19
 70
     1
102
RTVSPropertyOp20
 70
     1
102
RTVSPropertyOp21
 70
     1
102
RTVSPropertyOp22
 70
     1
102
RTVSPropertyOp23
 70
     1
102
RTVSPropertyOp24
 70
     1
102
RTVSPropertyOp25
 70
     1
102
RTVSPropertyOp26
 70
     1
102
RTVSPropertyOp27
 70
     1
102
RTVSPropertyOp28
 70
     1
102
RTVSPropertyOp29
 70
     1
102
RTVSPropertyOp30
 70
     1
102
RTVSPropertyOp31
 70
     1
102
RTVSPropertyOp32
 70
     1
  0
XRECORD
  5
A2
102
{ACAD_REACTORS
330
A1
102
}
330
A1
100
AcDbXrecord
280
     1
102
RTVSPropertyOp0
 70
     1
102
RTVSPropertyOp1
 70
     1
102
RTVSPropertyOp2
 70
     1
102
RTVSPropertyOp3
 70
     1
102
RTVSPropertyOp4
 70
     1
102
RTVSPropertyOp5
 70
     1
102
RTVSPropertyOp6
 70
     1
102
RTVSPropertyOp7
 70
     1
102
RTVSPropertyOp8
 70
     1
102
RTVSPropertyOp9
 70
     1
102
RTVSPropertyOp10
 70
     1
102
RTVSPropertyOp11
 70
     1
102
RTVSPropertyOp12
 70
     1
102
RTVSPropertyOp13
 70
     1
102
RTVSPropertyOp14
 70
     1
102
RTVSPropertyOp15
 70
     1
102
RTVSPropertyOp16
 70
     1
102
RTVSPropertyOp17
 70
     1
102
RTVSPropertyOp18
 70
     1
102
RTVSPropertyOp19
 70
     1
102
RTVSPropertyOp20
 70
     1
102
RTVSPropertyOp21
 70
     1
102
RTVSPropertyOp22
 70
     1
102
RTVSPropertyOp23
 70
     1
102
RTVSPropertyOp24
 70
     1
102
RTVSPropertyOp25
 70
     1
102
RTVSPropertyOp26
 70
     1
102
RTVSPropertyOp27
 70
     1
102
RTVSPropertyOp28
 70
     1
102
RTVSPropertyOp29
 70
     1
102
RTVSPropertyOp30
 70
     1
102
RTVSPropertyOp31
 70
     1
102
RTVSPropertyOp32
 70
     1
  0
XRECORD
  5
AA
102
{ACAD_REACTORS
330
A9
102
}
330
A9
100
AcDbXrecord
280
     1
102
RTVSPropertyOp0
 70
     1
102
RTVSPropertyOp1
 70
     1
102
RTVSPropertyOp2
 70
     1
102
RTVSPropertyOp3
 70
     1
102
RTVSPropertyOp4
 70
     1
102
RTVSPropertyOp5
 70
     1
102
RTVSPropertyOp6
 70
     1
102
RTVSPropertyOp7
 70
     1
102
RTVSPropertyOp8
 70
     1
102
RTVSPropertyOp9
 70
     1
102
RTVSPropertyOp10
 70
     1
102
RTVSPropertyOp11
 70
     1
102
RTVSPropertyOp12
 70
     1
102
RTVSPropertyOp13
 70
     1
102
RTVSPropertyOp14
 70
     1
102
RTVSPropertyOp15
 70
     1
102
RTVSPropertyOp16
 70
     1
102
RTVSPropertyOp17
 70
     1
102
RTVSPropertyOp18
 70
     1
102
RTVSPropertyOp19
 70
     1
102
RTVSPropertyOp20
 70
     1
102
RTVSPropertyOp21
 70
     1
102
RTVSPropertyOp22
 70
     1
102
RTVSPropertyOp23
 70
     1
102
RTVSPropertyOp24
 70
     1
102
RTVSPropertyOp25
 70
     1
102
RTVSPropertyOp26
 70
     1
102
RTVSPropertyOp27
 70
     1
102
RTVSPropertyOp28
 70
     1
102
RTVSPropertyOp29
 70
     1
102
RTVSPropertyOp30
 70
     1
102
RTVSPropertyOp31
 70
     1
102
RTVSPropertyOp32
 70
     1
  0
XRECORD
  5
8E
102
{ACAD_REACTORS
330
8D
102
}
330
8D
100
AcDbXrecord
280
     1
102
RTVSPropertyOp0
 70
     1
102
RTVSPropertyOp1
 70
     1
102
RTVSPropertyOp2
 70
     1
102
RTVSPropertyOp3
 70
     1
102
RTVSPropertyOp4
 70
     1
102
RTVSPropertyOp5
 70
     1
102
RTVSPropertyOp6
 70
     1
102
RTVSPropertyOp7
 70
     1
102
RTVSPropertyOp8
 70
     1
102
RTVSPropertyOp9
 70
     1
102
RTVSPropertyOp10
 70
     1
102
RTVSPropertyOp11
 70
     1
102
RTVSPropertyOp12
 70
     1
102
RTVSPropertyOp13
 70
     1
102
RTVSPropertyOp14
 70
     1
102
RTVSPropertyOp15
 70
     1
102
RTVSPropertyOp16
 70
     1
102
RTVSPropertyOp17
 70
     1
102
RTVSPropertyOp18
 70
     1
102
RTVSPropertyOp19
 70
     1
102
RTVSPropertyOp20
 70
     1
102
RTVSPropertyOp21
 70
     1
102
RTVSPropertyOp22
 70
     1
102
RTVSPropertyOp23
 70
     1
102
RTVSPropertyOp24
 70
     1
102
RTVSPropertyOp25
 70
     1
102
RTVSPropertyOp26
 70
     1
102
RTVSPropertyOp27
 70
     1
102
RTVSPropertyOp28
 70
     1
102
RTVSPropertyOp29
 70
     1
102
RTVSPropertyOp30
 70
     1
102
RTVSPropertyOp31
 70
     1
102
RTVSPropertyOp32
 70
     1
  0
XRECORD
  5
90
102
{ACAD_REACTORS
330
8F
102
}
330
8F
100
AcDbXrecord
280
     1
102
RTVSPropertyOp0
 70
     1
102
RTVSPropertyOp1
 70
     1
102
RTVSPropertyOp2
 70
     1
102
RTVSPropertyOp3
 70
     1
102
RTVSPropertyOp4
 70
     1
102
RTVSPropertyOp5
 70
     1
102
RTVSPropertyOp6
 70
     1
102
RTVSPropertyOp7
 70
     1
102
RTVSPropertyOp8
 70
     1
102
RTVSPropertyOp9
 70
     1
102
RTVSPropertyOp10
 70
     1
102
RTVSPropertyOp11
 70
     1
102
RTVSPropertyOp12
 70
     1
102
RTVSPropertyOp13
 70
     1
102
RTVSPropertyOp14
 70
     1
102
RTVSPropertyOp15
 70
     1
102
RTVSPropertyOp16
 70
     1
102
RTVSPropertyOp17
 70
     1
102
RTVSPropertyOp18
 70
     1
102
RTVSPropertyOp19
 70
     1
102
RTVSPropertyOp20
 70
     1
102
RTVSPropertyOp21
 70
     1
102
RTVSPropertyOp22
 70
     1
102
RTVSPropertyOp23
 70
     1
102
RTVSPropertyOp24
 70
     1
102
RTVSPropertyOp25
 70
     1
102
RTVSPropertyOp26
 70
     1
102
RTVSPropertyOp27
 70
     1
102
RTVSPropertyOp28
 70
     1
102
RTVSPropertyOp29
 70
     1
102
RTVSPropertyOp30
 70
     1
102
RTVSPropertyOp31
 70
     1
102
RTVSPropertyOp32
 70
     1
  0
XRECORD
  5
92
102
{ACAD_REACTORS
330
91
102
}
330
91
100
AcDbXrecord
280
     1
102
RTVSPropertyOp0
 70
     1
102
RTVSPropertyOp1
 70
     1
102
RTVSPropertyOp2
 70
     1
102
RTVSPropertyOp3
 70
     1
102
RTVSPropertyOp4
 70
     1
102
RTVSPropertyOp5
 70
     1
102
RTVSPropertyOp6
 70
     1
102
RTVSPropertyOp7
 70
     1
102
RTVSPropertyOp8
 70
     1
102
RTVSPropertyOp9
 70
     1
102
RTVSPropertyOp10
 70
     1
102
RTVSPropertyOp11
 70
     1
102
RTVSPropertyOp12
 70
     1
102
RTVSPropertyOp13
 70
     1
102
RTVSPropertyOp14
 70
     1
102
RTVSPropertyOp15
 70
     1
102
RTVSPropertyOp16
 70
     1
102
RTVSPropertyOp17
 70
     1
102
RTVSPropertyOp18
 70
     1
102
RTVSPropertyOp19
 70
     1
102
RTVSPropertyOp20
 70
     1
102
RTVSPropertyOp21
 70
     1
102
RTVSPropertyOp22
 70
     1
102
RTVSPropertyOp23
 70
     1
102
RTVSPropertyOp24
 70
     1
102
RTVSPropertyOp25
 70
     1
102
RTVSPropertyOp26
 70
     1
102
RTVSPropertyOp27
 70
     1
102
RTVSPropertyOp28
 70
     1
102
RTVSPropertyOp29
 70
     1
102
RTVSPropertyOp30
 70
     1
102
RTVSPropertyOp31
 70
     1
102
RTVSPropertyOp32
 70
     1
  0
XRECORD
  5
94
102
{ACAD_REACTORS
330
93
102
}
330
93
100
AcDbXrecord
280
     1
102
RTVSPropertyOp0
 70
     1
102
RTVSPropertyOp1
 70
     1
102
RTVSPropertyOp2
 70
     1
102
RTVSPropertyOp3
 70
     1
102
RTVSPropertyOp4
 70
     1
102
RTVSPropertyOp5
 70
     1
102
RTVSPropertyOp6
 70
     1
102
RTVSPropertyOp7
 70
     1
102
RTVSPropertyOp8
 70
     1
102
RTVSPropertyOp9
 70
     1
102
RTVSPropertyOp10
 70
     1
102
RTVSPropertyOp11
 70
     1
102
RTVSPropertyOp12
 70
     1
102
RTVSPropertyOp13
 70
     1
102
RTVSPropertyOp14
 70
     1
102
RTVSPropertyOp15
 70
     1
102
RTVSPropertyOp16
 70
     1
102
RTVSPropertyOp17
 70
     1
102
RTVSPropertyOp18
 70
     1
102
RTVSPropertyOp19
 70
     1
102
RTVSPropertyOp20
 70
     1
102
RTVSPropertyOp21
 70
     1
102
RTVSPropertyOp22
 70
     1
102
RTVSPropertyOp23
 70
     1
102
RTVSPropertyOp24
 70
     1
102
RTVSPropertyOp25
 70
     1
102
RTVSPropertyOp26
 70
     1
102
RTVSPropertyOp27
 70
     1
102
RTVSPropertyOp28
 70
     1
102
RTVSPropertyOp29
 70
     1
102
RTVSPropertyOp30
 70
     1
102
RTVSPropertyOp31
 70
     1
102
RTVSPropertyOp32
 70
     1
  0
XRECORD
  5
A8
102
{ACAD_REACTORS
330
A7
102
}
330
A7
100
AcDbXrecord
280
     1
102
RTVSPropertyOp0
 70
     1
102
RTVSPropertyOp1
 70
     1
102
RTVSPropertyOp2
 70
     1
102
RTVSPropertyOp3
 70
     1
102
RTVSPropertyOp4
 70
     1
102
RTVSPropertyOp5
 70
     1
102
RTVSPropertyOp6
 70
     1
102
RTVSPropertyOp7
 70
     1
102
RTVSPropertyOp8
 70
     1
102
RTVSPropertyOp9
 70
     1
102
RTVSPropertyOp10
 70
     1
102
RTVSPropertyOp11
 70
     1
102
RTVSPropertyOp12
 70
     1
102
RTVSPropertyOp13
 70
     1
102
RTVSPropertyOp14
 70
     1
102
RTVSPropertyOp15
 70
     1
102
RTVSPropertyOp16
 70
     1
102
RTVSPropertyOp17
 70
     1
102
RTVSPropertyOp18
 70
     1
102
RTVSPropertyOp19
 70
     1
102
RTVSPropertyOp20
 70
     1
102
RTVSPropertyOp21
 70
     1
102
RTVSPropertyOp22
 70
     1
102
RTVSPropertyOp23
 70
     1
102
RTVSPropertyOp24
 70
     1
102
RTVSPropertyOp25
 70
     1
102
RTVSPropertyOp26
 70
     1
102
RTVSPropertyOp27
 70
     1
102
RTVSPropertyOp28
 70
     1
102
RTVSPropertyOp29
 70
     1
102
RTVSPropertyOp30
 70
     1
102
RTVSPropertyOp31
 70
     1
102
RTVSPropertyOp32
 70
     1
  0
XRECORD
  5
9E
102
{ACAD_REACTORS
330
9D
102
}
330
9D
100
AcDbXrecord
280
     1
102
RTVSPropertyOp0
 70
     1
102
RTVSPropertyOp1
 70
     1
102
RTVSPropertyOp2
 70
     1
102
RTVSPropertyOp3
 70
     1
102
RTVSPropertyOp4
 70
     1
102
RTVSPropertyOp5
 70
     1
102
RTVSPropertyOp6
 70
     1
102
RTVSPropertyOp7
 70
     1
102
RTVSPropertyOp8
 70
     1
102
RTVSPropertyOp9
 70
     1
102
RTVSPropertyOp10
 70
     1
102
RTVSPropertyOp11
 70
     1
102
RTVSPropertyOp12
 70
     1
102
RTVSPropertyOp13
 70
     1
102
RTVSPropertyOp14
 70
     1
102
RTVSPropertyOp15
 70
     1
102
RTVSPropertyOp16
 70
     1
102
RTVSPropertyOp17
 70
     1
102
RTVSPropertyOp18
 70
     1
102
RTVSPropertyOp19
 70
     1
102
RTVSPropertyOp20
 70
     1
102
RTVSPropertyOp21
 70
     1
102
RTVSPropertyOp22
 70
     1
102
RTVSPropertyOp23
 70
     1
102
RTVSPropertyOp24
 70
     1
102
RTVSPropertyOp25
 70
     1
102
RTVSPropertyOp26
 70
     1
102
RTVSPropertyOp27
 70
     1
102
RTVSPropertyOp28
 70
     1
102
RTVSPropertyOp29
 70
     1
102
RTVSPropertyOp30
 70
     1
102
RTVSPropertyOp31
 70
     1
102
RTVSPropertyOp32
 70
     1
  0
XRECORD
  5
A6
102
{ACAD_REACTORS
330
A5
102
}
330
A5
100
AcDbXrecord
280
     1
102
RTVSPropertyOp0
 70
     1
102
RTVSPropertyOp1
 70
     1
102
RTVSPropertyOp2
 70
     1
102
RTVSPropertyOp3
 70
     1
102
RTVSPropertyOp4
 70
     1
102
RTVSPropertyOp5
 70
     1
102
RTVSPropertyOp6
 70
     1
102
RTVSPropertyOp7
 70
     1
102
RTVSPropertyOp8
 70
     1
102
RTVSPropertyOp9
 70
     1
102
RTVSPropertyOp10
 70
     1
102
RTVSPropertyOp11
 70
     1
102
RTVSPropertyOp12
 70
     1
102
RTVSPropertyOp13
 70
     1
102
RTVSPropertyOp14
 70
     1
102
RTVSPropertyOp15
 70
     1
102
RTVSPropertyOp16
 70
     1
102
RTVSPropertyOp17
 70
     1
102
RTVSPropertyOp18
 70
     1
102
RTVSPropertyOp19
 70
     1
102
RTVSPropertyOp20
 70
     1
102
RTVSPropertyOp21
 70
     1
102
RTVSPropertyOp22
 70
     1
102
RTVSPropertyOp23
 70
     1
102
RTVSPropertyOp24
 70
     1
102
RTVSPropertyOp25
 70
     1
102
RTVSPropertyOp26
 70
     1
102
RTVSPropertyOp27
 70
     1
102
RTVSPropertyOp28
 70
     1
102
RTVSPropertyOp29
 70
     1
102
RTVSPropertyOp30
 70
     1
102
RTVSPropertyOp31
 70
     1
102
RTVSPropertyOp32
 70
     1
  0
ENDSEC
  0
EOF
