  0
SECTION
  2
HEADER
  9
$ACADVER
  1
AC1021
  9
$ACADMAINTVER
 70
    25
  9
$DWGCODEPAGE
  3
ANSI_1252
  9
$INSBASE
 10
0.0
 20
0.0
 30
0.0
  9
$EXTMIN
 10
-187.0426
 20
-115.1453
 30
0.0
  9
$EXTMAX
 10
-65.7988
 20
131.6707
 30
0.0
  9
$LIMMIN
 10
0.0
 20
0.0
  9
$LIMMAX
 10
12.0
 20
9.0
  9
$ORTHOMODE
 70
     0
  9
$REGENMODE
 70
     1
  9
$FILLMODE
 70
     1
  9
$QTEXTMODE
 70
     0
  9
$MIRRTEXT
 70
     1
  9
$LTSCALE
 40
1.0
  9
$ATTMODE
 70
     1
  9
$TEXTSIZE
 40
0.2
  9
$TRACEWID
 40
0.05
  9
$TEXTSTYLE
  7
Standard
  9
$CLAYER
  8
0
  9
$CELTYPE
  6
ByLayer
  9
$CECOLOR
 62
   256
  9
$CELTSCALE
 40
1.0
  9
$DISPSILH
 70
     0
  9
$DIMSCALE
 40
1.0
  9
$DIMASZ
 40
0.18
  9
$DIMEXO
 40
0.0625
  9
$DIMDLI
 40
0.38
  9
$DIMRND
 40
0.0
  9
$DIMDLE
 40
0.0
  9
$DIMEXE
 40
0.18
  9
$DIMTP
 40
0.0
  9
$DIMTM
 40
0.0
  9
$DIMTXT
 40
0.18
  9
$DIMCEN
 40
0.09
  9
$DIMTSZ
 40
0.0
  9
$DIMTOL
 70
     0
  9
$DIMLIM
 70
     0
  9
$DIMTIH
 70
     1
  9
$DIMTOH
 70
     1
  9
$DIMSE1
 70
     0
  9
$DIMSE2
 70
     0
  9
$DIMTAD
 70
     0
  9
$DIMZIN
 70
     0
  9
$DIMBLK
  1

  9
$DIMASO
 70
     1
  9
$DIMSHO
 70
     1
  9
$DIMPOST
  1

  9
$DIMAPOST
  1

  9
$DIMALT
 70
     0
  9
$DIMALTD
 70
     2
  9
$DIMALTF
 40
25.4
  9
$DIMLFAC
 40
1.0
  9
$DIMTOFL
 70
     0
  9
$DIMTVP
 40
0.0
  9
$DIMTIX
 70
     0
  9
$DIMSOXD
 70
     0
  9
$DIMSAH
 70
     0
  9
$DIMBLK1
  1

  9
$DIMBLK2
  1

  9
$DIMSTYLE
  2
Standard
  9
$DIMCLRD
 70
     0
  9
$DIMCLRE
 70
     0
  9
$DIMCLRT
 70
     0
  9
$DIMTFAC
 40
1.0
  9
$DIMGAP
 40
0.09
  9
$DIMJUST
 70
     0
  9
$DIMSD1
 70
     0
  9
$DIMSD2
 70
     0
  9
$DIMTOLJ
 70
     1
  9
$DIMTZIN
 70
     0
  9
$DIMALTZ
 70
     0
  9
$DIMALTTZ
 70
     0
  9
$DIMUPT
 70
     0
  9
$DIMDEC
 70
     4
  9
$DIMTDEC
 70
     4
  9
$DIMALTU
 70
     2
  9
$DIMALTTD
 70
     2
  9
$DIMTXSTY
  7
Standard
  9
$DIMAUNIT
 70
     0
  9
$DIMADEC
 70
     0
  9
$DIMALTRND
 40
0.0
  9
$DIMAZIN
 70
     0
  9
$DIMDSEP
 70
    46
  9
$DIMATFIT
 70
     3
  9
$DIMFRAC
 70
     0
  9
$DIMLDRBLK
  1

  9
$DIMLUNIT
 70
     2
  9
$DIMLWD
 70
    -2
  9
$DIMLWE
 70
    -2
  9
$DIMTMOVE
 70
     0
  9
$DIMFXL
 40
1.0
  9
$DIMFXLON
 70
     0
  9
$DIMJOGANG
 40
0.7853981633974483
  9
$DIMTFILL
 70
     0
  9
$DIMTFILLCLR
 70
     0
  9
$DIMARCSYM
 70
     0
  9
$DIMLTYPE
  6

  9
$DIMLTEX1
  6

  9
$DIMLTEX2
  6

  9
$LUNITS
 70
     2
  9
$LUPREC
 70
     4
  9
$SKETCHINC
 40
0.1
  9
$FILLETRAD
 40
0.5
  9
$AUNITS
 70
     0
  9
$AUPREC
 70
     0
  9
$MENU
  1
.
  9
$ELEVATION
 40
0.0
  9
$PELEVATION
 40
0.0
  9
$THICKNESS
 40
0.0
  9
$LIMCHECK
 70
     0
  9
$CHAMFERA
 40
0.5
  9
$CHAMFERB
 40
0.5
  9
$CHAMFERC
 40
1.0
  9
$CHAMFERD
 40
0.0
  9
$SKPOLY
 70
     0
  9
$TDCREATE
 40
2458493.675080602
  9
$TDUCREATE
 40
2458493.675080602
  9
$TDUPDATE
 40
2458493.67508066
  9
$TDUUPDATE
 40
2458493.67508066
  9
$TDINDWG
 40
0.0000000116
  9
$TDUSRTIMER
 40
0.0000000116
  9
$USRTIMER
 70
     1
  9
$ANGBASE
 50
0.0
  9
$ANGDIR
 70
     0
  9
$PDMODE
 70
     0
  9
$PDSIZE
 40
0.0
  9
$PLINEWID
 40
0.0
  9
$SPLFRAME
 70
     0
  9
$SPLINETYPE
 70
     6
  9
$SPLINESEGS
 70
     8
  9
$HANDSEED
  5
72
  9
$SURFTAB1
 70
     6
  9
$SURFTAB2
 70
     6
  9
$SURFTYPE
 70
     6
  9
$SURFU
 70
     6
  9
$SURFV
 70
     6
  9
$UCSBASE
  2

  9
$UCSNAME
  2

  9
$UCSORG
 10
0.0
 20
0.0
 30
0.0
  9
$UCSXDIR
 10
1.0
 20
0.0
 30
0.0
  9
$UCSYDIR
 10
0.0
 20
1.0
 30
0.0
  9
$UCSORTHOREF
  2

  9
$UCSORTHOVIEW
 70
     0
  9
$UCSORGTOP
 10
0.0
 20
0.0
 30
0.0
  9
$UCSORGBOTTOM
 10
0.0
 20
0.0
 30
0.0
  9
$UCSORGLEFT
 10
0.0
 20
0.0
 30
0.0
  9
$UCSORGRIGHT
 10
0.0
 20
0.0
 30
0.0
  9
$UCSORGFRONT
 10
0.0
 20
0.0
 30
0.0
  9
$UCSORGBACK
 10
0.0
 20
0.0
 30
0.0
  9
$PUCSBASE
  2

  9
$PUCSNAME
  2

  9
$PUCSORG
 10
0.0
 20
0.0
 30
0.0
  9
$PUCSXDIR
 10
1.0
 20
0.0
 30
0.0
  9
$PUCSYDIR
 10
0.0
 20
1.0
 30
0.0
  9
$PUCSORTHOREF
  2

  9
$PUCSORTHOVIEW
 70
     0
  9
$PUCSORGTOP
 10
0.0
 20
0.0
 30
0.0
  9
$PUCSORGBOTTOM
 10
0.0
 20
0.0
 30
0.0
  9
$PUCSORGLEFT
 10
0.0
 20
0.0
 30
0.0
  9
$PUCSORGRIGHT
 10
0.0
 20
0.0
 30
0.0
  9
$PUCSORGFRONT
 10
0.0
 20
0.0
 30
0.0
  9
$PUCSORGBACK
 10
0.0
 20
0.0
 30
0.0
  9
$USERI1
 70
     0
  9
$USERI2
 70
     0
  9
$USERI3
 70
     0
  9
$USERI4
 70
     0
  9
$USERI5
 70
     0
  9
$USERR1
 40
0.0
  9
$USERR2
 40
0.0
  9
$USERR3
 40
0.0
  9
$USERR4
 40
0.0
  9
$USERR5
 40
0.0
  9
$WORLDVIEW
 70
     1
  9
$SHADEDGE
 70
     3
  9
$SHADEDIF
 70
    70
  9
$TILEMODE
 70
     1
  9
$MAXACTVP
 70
    64
  9
$PINSBASE
 10
0.0
 20
0.0
 30
0.0
  9
$PLIMCHECK
 70
     0
  9
$PEXTMIN
 10
1.000000000000000E+20
 20
1.000000000000000E+20
 30
1.000000000000000E+20
  9
$PEXTMAX
 10
-1.000000000000000E+20
 20
-1.000000000000000E+20
 30
-1.000000000000000E+20
  9
$PLIMMIN
 10
0.0
 20
0.0
  9
$PLIMMAX
 10
12.0
 20
9.0
  9
$UNITMODE
 70
     0
  9
$VISRETAIN
 70
     1
  9
$PLINEGEN
 70
     0
  9
$PSLTSCALE
 70
     1
  9
$TREEDEPTH
 70
  3020
  9
$CMLSTYLE
  2
Standard
  9
$CMLJUST
 70
     0
  9
$CMLSCALE
 40
1.0
  9
$PROXYGRAPHICS
 70
     1
  9
$MEASUREMENT
 70
     0
  9
$CELWEIGHT
370
    -1
  9
$ENDCAPS
280
     0
  9
$JOINSTYLE
280
     0
  9
$LWDISPLAY
290
     0
  9
$INSUNITS
 70
     4
  9
$HYPERLINKBASE
  1

  9
$STYLESHEET
  1

  9
$XEDIT
290
     1
  9
$CEPSNTYPE
380
     0
  9
$PSTYLEMODE
290
     1
  9
$FINGERPRINTGUID
  2
{6E98B3DE-4385-4208-94AC-75ECB11B8A19}
  9
$VERSIONGUID
  2
{FAEB1C32-E019-11D5-929B-00C0DF256EC4}
  9
$EXTNAMES
290
     1
  9
$PSVPSCALE
 40
0.0
  9
$OLESTARTUP
290
     0
  9
$SORTENTS
280
   127
  9
$INDEXCTL
280
     0
  9
$HIDETEXT
280
     1
  9
$XCLIPFRAME
290
     0
  9
$HALOGAP
280
     0
  9
$OBSCOLOR
 70
   257
  9
$OBSLTYPE
280
     0
  9
$INTERSECTIONDISPLAY
280
     0
  9
$INTERSECTIONCOLOR
 70
   257
  9
$DIMASSOC
280
     2
  9
$PROJECTNAME
  1

  9
$CAMERADISPLAY
290
     0
  9
$LENSLENGTH
 40
50.0
  9
$CAMERAHEIGHT
 40
0.0
  9
$STEPSPERSEC
 40
2.0
  9
$STEPSIZE
 40
6.0
  9
$3DDWFPREC
 40
2.0
  9
$PSOLWIDTH
 40
0.25
  9
$PSOLHEIGHT
 40
4.0
  9
$LOFTANG1
 40
1.570796326794897
  9
$LOFTANG2
 40
1.570796326794897
  9
$LOFTMAG1
 40
0.0
  9
$LOFTMAG2
 40
0.0
  9
$LOFTPARAM
 70
     7
  9
$LOFTNORMALS
280
     1
  9
$LATITUDE
 40
37.795
  9
$LONGITUDE
 40
-122.394
  9
$NORTHDIRECTION
 40
0.0
  9
$TIMEZONE
 70
 -8000
  9
$LIGHTGLYPHDISPLAY
280
     1
  9
$TILEMODELIGHTSYNCH
280
     1
  9
$SOLIDHIST
280
     1
  9
$SHOWHIST
280
     1
  9
$DWFFRAME
280
     2
  9
$DGNFRAME
280
     2
  9
$REALWORLDSCALE
290
     1
  9
$INTERFERECOLOR
 62
   256
  9
$CSHADOW
280
     0
  9
$SHADOWPLANELOCATION
 40
0.0
  0
ENDSEC
  0
SECTION
  2
CLASSES
  0
CLASS
  1
ACDBDICTIONARYWDFLT
  2
AcDbDictionaryWithDefault
  3
ObjectDBX Classes
 90
        0
 91
        4
280
     0
281
     0
  0
CLASS
  1
VISUALSTYLE
  2
AcDbVisualStyle
  3
ObjectDBX Classes
 90
     4095
 91
        4
280
     0
281
     0
  0
CLASS
  1
MATERIAL
  2
AcDbMaterial
  3
ObjectDBX Classes
 90
     1153
 91
        4
280
     0
281
     0
  0
ENDSEC
  0
SECTION
  2
TABLES
  0
TABLE
  2
VPORT
  5
8
330
0
100
AcDbSymbolTable
 70
     1
  0
VPORT
  5
29
330
8
100
AcDbSymbolTableRecord
100
AcDbViewportTableRecord
  2
*Active
 70
     0
 10
0.0
 20
0.0
 11
1.0
 21
1.0
 12
10.42990654205607
 22
4.5
 13
0.0
 23
0.0
 14
0.5
 24
0.5
 15
0.5
 25
0.5
 16
0.0
 26
0.0
 36
1.0
 17
0.0
 27
0.0
 37
0.0
 40
9.0
 41
1.972972972850329
 42
50.0
 43
0.0
 44
0.0
 50
0.0
 51
0.0
 71
     0
 72
   100
 73
     1
 74
     3
 75
     0
 76
     0
 77
     0
 78
     0
281
     0
 65
     1
110
0.0
120
0.0
130
0.0
111
1.0
121
0.0
131
0.0
112
0.0
122
1.0
132
0.0
 79
     0
146
0.0
 60
     3
 61
     5
292
     1
282
     1
141
0.0
142
0.0
 63
   250
  0
ENDTAB
  0
TABLE
  2
LTYPE
  5
5
330
0
100
AcDbSymbolTable
 70
     1
  0
LTYPE
  5
14
330
5
100
AcDbSymbolTableRecord
100
AcDbLinetypeTableRecord
  2
ByBlock
 70
     0
  3

 72
    65
 73
     0
 40
0.0
  0
LTYPE
  5
15
330
5
100
AcDbSymbolTableRecord
100
AcDbLinetypeTableRecord
  2
ByLayer
 70
     0
  3

 72
    65
 73
     0
 40
0.0
  0
LTYPE
  5
16
330
5
100
AcDbSymbolTableRecord
100
AcDbLinetypeTableRecord
  2
Continuous
 70
     0
  3
Solid line
 72
    65
 73
     0
 40
0.0
  0
ENDTAB
  0
TABLE
  2
LAYER
  5
2
330
0
100
AcDbSymbolTable
 70
     3
  0
LAYER
  5
10
330
2
100
AcDbSymbolTableRecord
100
AcDbLayerTableRecord
  2
0
 70
     0
 62
     7
  6
Continuous
370
    -3
390
F
347
3E
  0
LAYER
  5
40
330
2
100
AcDbSymbolTableRecord
100
AcDbLayerTableRecord
  2
layer 1
 70
     0
 62
     7
  6
Continuous
370
    -3
390
F
347
3E
  0
LAYER
  5
4F
330
2
100
AcDbSymbolTableRecord
100
AcDbLayerTableRecord
  2
Master Guides
 70
     0
 62
     7
  6
Continuous
370
    -3
390
F
347
3E
  0
ENDTAB
  0
TABLE
  2
STYLE
  5
3
330
0
100
AcDbSymbolTable
 70
     1
  0
STYLE
  5
11
330
3
100
AcDbSymbolTableRecord
100
AcDbTextStyleTableRecord
  2
Standard
 70
     0
 40
0.0
 41
1.0
 50
0.0
 71
     0
 42
0.2
  3
txt
  4

  0
ENDTAB
  0
TABLE
  2
VIEW
  5
6
330
0
100
AcDbSymbolTable
 70
     0
  0
ENDTAB
  0
TABLE
  2
UCS
  5
7
330
0
100
AcDbSymbolTable
 70
     0
  0
ENDTAB
  0
TABLE
  2
APPID
  5
9
330
0
100
AcDbSymbolTable
 70
     2
  0
APPID
  5
12
330
9
100
AcDbSymbolTableRecord
100
AcDbRegAppTableRecord
  2
ACAD
 70
     0
  0
APPID
  5
3F
330
9
100
AcDbSymbolTableRecord
100
AcDbRegAppTableRecord
  2
ODA
 70
     0
  0
ENDTAB
  0
TABLE
  2
DIMSTYLE
  5
A
330
0
100
AcDbSymbolTable
 70
     1
100
AcDbDimStyleTable
  0
DIMSTYLE
105
27
330
A
100
AcDbSymbolTableRecord
100
AcDbDimStyleTableRecord
  2
Standard
 70
     0
178
     0
340
11
  0
ENDTAB
  0
TABLE
  2
BLOCK_RECORD
  5
1
330
0
100
AcDbSymbolTable
 70
     1
  0
BLOCK_RECORD
  5
1F
330
1
100
AcDbSymbolTableRecord
100
AcDbBlockTableRecord
  2
*Model_Space
340
22
 70
     0
280
     1
281
     0
  0
BLOCK_RECORD
  5
1B
330
1
100
AcDbSymbolTableRecord
100
AcDbBlockTableRecord
  2
*Paper_Space
340
1E
 70
     0
280
     1
281
     0
  0
BLOCK_RECORD
  5
23
330
1
100
AcDbSymbolTableRecord
100
AcDbBlockTableRecord
  2
*Paper_Space0
340
26
 70
     0
280
     1
281
     0
  0
ENDTAB
  0
ENDSEC
  0
SECTION
  2
BLOCKS
  0
BLOCK
  5
20
330
1F
100
AcDbEntity
  8
0
100
AcDbBlockBegin
  2
*Model_Space
 70
     0
 10
0.0
 20
0.0
 30
0.0
  3
*Model_Space
  1

  0
ENDBLK
  5
21
330
1F
100
AcDbEntity
  8
0
100
AcDbBlockEnd
  0
BLOCK
  5
1C
330
1B
100
AcDbEntity
 67
     1
  8
0
100
AcDbBlockBegin
  2
*Paper_Space
 70
     0
 10
0.0
 20
0.0
 30
0.0
  3
*Paper_Space
  1

  0
ENDBLK
  5
1D
330
1B
100
AcDbEntity
 67
     1
  8
0
100
AcDbBlockEnd
  0
BLOCK
  5
24
330
23
100
AcDbEntity
  8
0
100
AcDbBlockBegin
  2
*Paper_Space0
 70
     0
 10
0.0
 20
0.0
 30
0.0
  3
*Paper_Space0
  1

  0
ENDBLK
  5
25
330
23
100
AcDbEntity
  8
0
100
AcDbBlockEnd
  0
ENDSEC
  0
SECTION
  2
ENTITIES
  0
SPLINE
  5
41
330
1F
100
AcDbEntity
  8
layer 1
 62
   250
100
AcDbSpline
210
0.0
220
0.0
230
1.0
 70
    11
 71
     3
 72
    20
 73
    16
 74
     0
 42
0.0000000001
 43
0.0000000001
 12
1.0
 22
0.0
 32
0.0
 13
1.0
 23
0.0
 33
0.0
 40
0.0
 40
0.0
 40
0.0
 40
0.0
 40
0.2
 40
0.2
 40
0.2
 40
0.2
 40
0.4
 40
0.4
 40
0.4
 40
0.4
 40
0.6
 40
0.6
 40
0.6
 40
0.6
 40
1.0
 40
1.0
 40
1.0
 40
1.0
 10
-187.0426
 20
131.6707
 30
0.0
 10
-187.0426
 20
131.6707
 30
0.0
 10
-65.7988
 20
131.6707
 30
0.0
 10
-65.7988
 20
131.6707
 30
0.0
 10
-65.7988
 20
131.6707
 30
0.0
 10
-65.7988
 20
131.6707
 30
0.0
 10
-65.7988
 20
-115.1453
 30
0.0
 10
-65.7988
 20
-115.1453
 30
0.0
 10
-65.7988
 20
-115.1453
 30
0.0
 10
-65.7988
 20
-115.1453
 30
0.0
 10
-187.0426
 20
-115.1453
 30
0.0
 10
-187.0426
 20
-115.1453
 30
0.0
 10
-187.0426
 20
-115.1453
 30
0.0
 10
-187.0426
 20
-115.1453
 30
0.0
 10
-187.0426
 20
131.6707
 30
0.0
 10
-187.0426
 20
131.6707
 30
0.0
  0
SPLINE
  5
42
330
1F
100
AcDbEntity
  8
layer 1
 62
     7
100
AcDbSpline
210
0.0
220
0.0
230
1.0
 70
    11
 71
     3
 72
    20
 73
    16
 74
     0
 42
0.0000000001
 43
0.0000000001
 12
1.0
 22
0.0
 32
0.0
 13
1.0
 23
0.0
 33
0.0
 40
0.0
 40
0.0
 40
0.0
 40
0.0
 40
0.2
 40
0.2
 40
0.2
 40
0.2
 40
0.4
 40
0.4
 40
0.4
 40
0.4
 40
0.6
 40
0.6
 40
0.6
 40
0.6
 40
1.0
 40
1.0
 40
1.0
 40
1.0
 10
-180.7005
 20
102.8183
 30
0.0
 10
-180.7005
 20
102.8183
 30
0.0
 10
-180.7005
 20
125.3292
 30
0.0
 10
-180.7005
 20
125.3292
 30
0.0
 10
-180.7005
 20
125.3292
 30
0.0
 10
-174.4884
 20
125.2076
 30
0.0
 10
-169.5508
 20
120.0589
 30
0.0
 10
-169.6724
 20
113.8462
 30
0.0
 10
-169.6724
 20
113.8462
 30
0.0
 10
-169.798
 20
107.8135
 30
0.0
 10
-174.6678
 20
102.9505
 30
0.0
 10
-180.7005
 20
102.8177
 30
0.0
 10
-180.7005
 20
102.8177
 30
0.0
 10
-180.7005
 20
102.8177
 30
0.0
 10
-180.7005
 20
102.8183
 30
0.0
 10
-180.7005
 20
102.8183
 30
0.0
  0
SPLINE
  5
43
330
1F
100
AcDbEntity
  8
layer 1
 62
     7
100
AcDbSpline
210
0.0
220
0.0
230
1.0
 70
    11
 71
     3
 72
   372
 73
   368
 74
     0
 42
0.0000000001
 43
0.0000000001
 12
1.0
 22
0.0
 32
0.0
 13
1.0
 23
0.0
 33
0.0
 40
0.0
 40
0.0
 40
0.0
 40
0.0
 40
0.010752688172043
 40
0.010752688172043
 40
0.010752688172043
 40
0.010752688172043
 40
0.021505376344086
 40
0.021505376344086
 40
0.021505376344086
 40
0.021505376344086
 40
0.032258064516129
 40
0.032258064516129
 40
0.032258064516129
 40
0.032258064516129
 40
0.043010752688172
 40
0.043010752688172
 40
0.043010752688172
 40
0.043010752688172
 40
0.0537634408602151
 40
0.0537634408602151
 40
0.0537634408602151
 40
0.0537634408602151
 40
0.0645161290322581
 40
0.0645161290322581
 40
0.0645161290322581
 40
0.0645161290322581
 40
0.0752688172043011
 40
0.0752688172043011
 40
0.0752688172043011
 40
0.0752688172043011
 40
0.0860215053763441
 40
0.0860215053763441
 40
0.0860215053763441
 40
0.0860215053763441
 40
0.0967741935483871
 40
0.0967741935483871
 40
0.0967741935483871
 40
0.0967741935483871
 40
0.1075268817204301
 40
0.1075268817204301
 40
0.1075268817204301
 40
0.1075268817204301
 40
0.1182795698924731
 40
0.1182795698924731
 40
0.1182795698924731
 40
0.1182795698924731
 40
0.1290322580645161
 40
0.1290322580645161
 40
0.1290322580645161
 40
0.1290322580645161
 40
0.1397849462365591
 40
0.1397849462365591
 40
0.1397849462365591
 40
0.1397849462365591
 40
0.1505376344086022
 40
0.1505376344086022
 40
0.1505376344086022
 40
0.1505376344086022
 40
0.1612903225806452
 40
0.1612903225806452
 40
0.1612903225806452
 40
0.1612903225806452
 40
0.1720430107526882
 40
0.1720430107526882
 40
0.1720430107526882
 40
0.1720430107526882
 40
0.1827956989247312
 40
0.1827956989247312
 40
0.1827956989247312
 40
0.1827956989247312
 40
0.1935483870967742
 40
0.1935483870967742
 40
0.1935483870967742
 40
0.1935483870967742
 40
0.2043010752688172
 40
0.2043010752688172
 40
0.2043010752688172
 40
0.2043010752688172
 40
0.2150537634408602
 40
0.2150537634408602
 40
0.2150537634408602
 40
0.2150537634408602
 40
0.2258064516129032
 40
0.2258064516129032
 40
0.2258064516129032
 40
0.2258064516129032
 40
0.2365591397849462
 40
0.2365591397849462
 40
0.2365591397849462
 40
0.2365591397849462
 40
0.2473118279569892
 40
0.2473118279569892
 40
0.2473118279569892
 40
0.2473118279569892
 40
0.2580645161290323
 40
0.2580645161290323
 40
0.2580645161290323
 40
0.2580645161290323
 40
0.2688172043010753
 40
0.2688172043010753
 40
0.2688172043010753
 40
0.2688172043010753
 40
0.2795698924731183
 40
0.2795698924731183
 40
0.2795698924731183
 40
0.2795698924731183
 40
0.2903225806451613
 40
0.2903225806451613
 40
0.2903225806451613
 40
0.2903225806451613
 40
0.3010752688172043
 40
0.3010752688172043
 40
0.3010752688172043
 40
0.3010752688172043
 40
0.3118279569892473
 40
0.3118279569892473
 40
0.3118279569892473
 40
0.3118279569892473
 40
0.3225806451612903
 40
0.3225806451612903
 40
0.3225806451612903
 40
0.3225806451612903
 40
0.3333333333333333
 40
0.3333333333333333
 40
0.3333333333333333
 40
0.3333333333333333
 40
0.3440860215053764
 40
0.3440860215053764
 40
0.3440860215053764
 40
0.3440860215053764
 40
0.3548387096774194
 40
0.3548387096774194
 40
0.3548387096774194
 40
0.3548387096774194
 40
0.3655913978494624
 40
0.3655913978494624
 40
0.3655913978494624
 40
0.3655913978494624
 40
0.3763440860215054
 40
0.3763440860215054
 40
0.3763440860215054
 40
0.3763440860215054
 40
0.3870967741935484
 40
0.3870967741935484
 40
0.3870967741935484
 40
0.3870967741935484
 40
0.3978494623655914
 40
0.3978494623655914
 40
0.3978494623655914
 40
0.3978494623655914
 40
0.4086021505376344
 40
0.4086021505376344
 40
0.4086021505376344
 40
0.4086021505376344
 40
0.4193548387096774
 40
0.4193548387096774
 40
0.4193548387096774
 40
0.4193548387096774
 40
0.4301075268817204
 40
0.4301075268817204
 40
0.4301075268817204
 40
0.4301075268817204
 40
0.4408602150537634
 40
0.4408602150537634
 40
0.4408602150537634
 40
0.4408602150537634
 40
0.4516129032258064
 40
0.4516129032258064
 40
0.4516129032258064
 40
0.4516129032258064
 40
0.4623655913978494
 40
0.4623655913978494
 40
0.4623655913978494
 40
0.4623655913978494
 40
0.4731182795698925
 40
0.4731182795698925
 40
0.4731182795698925
 40
0.4731182795698925
 40
0.4838709677419355
 40
0.4838709677419355
 40
0.4838709677419355
 40
0.4838709677419355
 40
0.4946236559139785
 40
0.4946236559139785
 40
0.4946236559139785
 40
0.4946236559139785
 40
0.5053763440860215
 40
0.5053763440860215
 40
0.5053763440860215
 40
0.5053763440860215
 40
0.5161290322580645
 40
0.5161290322580645
 40
0.5161290322580645
 40
0.5161290322580645
 40
0.5268817204301075
 40
0.5268817204301075
 40
0.5268817204301075
 40
0.5268817204301075
 40
0.5376344086021505
 40
0.5376344086021505
 40
0.5376344086021505
 40
0.5376344086021505
 40
0.5483870967741935
 40
0.5483870967741935
 40
0.5483870967741935
 40
0.5483870967741935
 40
0.5591397849462365
 40
0.5591397849462365
 40
0.5591397849462365
 40
0.5591397849462365
 40
0.5698924731182796
 40
0.5698924731182796
 40
0.5698924731182796
 40
0.5698924731182796
 40
0.5806451612903226
 40
0.5806451612903226
 40
0.5806451612903226
 40
0.5806451612903226
 40
0.5913978494623656
 40
0.5913978494623656
 40
0.5913978494623656
 40
0.5913978494623656
 40
0.6021505376344086
 40
0.6021505376344086
 40
0.6021505376344086
 40
0.6021505376344086
 40
0.6129032258064516
 40
0.6129032258064516
 40
0.6129032258064516
 40
0.6129032258064516
 40
0.6236559139784946
 40
0.6236559139784946
 40
0.6236559139784946
 40
0.6236559139784946
 40
0.6344086021505376
 40
0.6344086021505376
 40
0.6344086021505376
 40
0.6344086021505376
 40
0.6451612903225806
 40
0.6451612903225806
 40
0.6451612903225806
 40
0.6451612903225806
 40
0.6559139784946236
 40
0.6559139784946236
 40
0.6559139784946236
 40
0.6559139784946236
 40
0.6666666666666666
 40
0.6666666666666666
 40
0.6666666666666666
 40
0.6666666666666666
 40
0.6774193548387096
 40
0.6774193548387096
 40
0.6774193548387096
 40
0.6774193548387096
 40
0.6881720430107527
 40
0.6881720430107527
 40
0.6881720430107527
 40
0.6881720430107527
 40
0.6989247311827957
 40
0.6989247311827957
 40
0.6989247311827957
 40
0.6989247311827957
 40
0.7096774193548387
 40
0.7096774193548387
 40
0.7096774193548387
 40
0.7096774193548387
 40
0.7204301075268817
 40
0.7204301075268817
 40
0.7204301075268817
 40
0.7204301075268817
 40
0.7311827956989247
 40
0.7311827956989247
 40
0.7311827956989247
 40
0.7311827956989247
 40
0.7419354838709677
 40
0.7419354838709677
 40
0.7419354838709677
 40
0.7419354838709677
 40
0.7526881720430108
 40
0.7526881720430108
 40
0.7526881720430108
 40
0.7526881720430108
 40
0.7634408602150538
 40
0.7634408602150538
 40
0.7634408602150538
 40
0.7634408602150538
 40
0.7741935483870968
 40
0.7741935483870968
 40
0.7741935483870968
 40
0.7741935483870968
 40
0.7849462365591398
 40
0.7849462365591398
 40
0.7849462365591398
 40
0.7849462365591398
 40
0.7956989247311828
 40
0.7956989247311828
 40
0.7956989247311828
 40
0.7956989247311828
 40
0.8064516129032258
 40
0.8064516129032258
 40
0.8064516129032258
 40
0.8064516129032258
 40
0.8172043010752689
 40
0.8172043010752689
 40
0.8172043010752689
 40
0.8172043010752689
 40
0.8279569892473119
 40
0.8279569892473119
 40
0.8279569892473119
 40
0.8279569892473119
 40
0.8387096774193549
 40
0.8387096774193549
 40
0.8387096774193549
 40
0.8387096774193549
 40
0.8494623655913979
 40
0.8494623655913979
 40
0.8494623655913979
 40
0.8494623655913979
 40
0.8602150537634409
 40
0.8602150537634409
 40
0.8602150537634409
 40
0.8602150537634409
 40
0.8709677419354839
 40
0.8709677419354839
 40
0.8709677419354839
 40
0.8709677419354839
 40
0.8817204301075269
 40
0.8817204301075269
 40
0.8817204301075269
 40
0.8817204301075269
 40
0.8924731182795699
 40
0.8924731182795699
 40
0.8924731182795699
 40
0.8924731182795699
 40
0.9032258064516129
 40
0.9032258064516129
 40
0.9032258064516129
 40
0.9032258064516129
 40
0.9139784946236559
 40
0.9139784946236559
 40
0.9139784946236559
 40
0.9139784946236559
 40
0.9247311827956989
 40
0.9247311827956989
 40
0.9247311827956989
 40
0.9247311827956989
 40
0.9354838709677419
 40
0.9354838709677419
 40
0.9354838709677419
 40
0.9354838709677419
 40
0.946236559139785
 40
0.946236559139785
 40
0.946236559139785
 40
0.946236559139785
 40
0.956989247311828
 40
0.956989247311828
 40
0.956989247311828
 40
0.956989247311828
 40
0.967741935483871
 40
0.967741935483871
 40
0.967741935483871
 40
0.967741935483871
 40
0.978494623655914
 40
0.978494623655914
 40
0.978494623655914
 40
0.978494623655914
 40
1.0
 40
1.0
 40
1.0
 40
1.0
 10
-149.1768
 20
94.8011
 30
0.0
 10
-149.3238
 20
95.1628
 30
0.0
 10
-149.4539
 20
95.5305
 30
0.0
 10
-149.5662
 20
95.9045
 30
0.0
 10
-149.5662
 20
95.9045
 30
0.0
 10
-149.6783
 20
96.2784
 30
0.0
 10
-149.7645
 20
96.6594
 30
0.0
 10
-149.824
 20
97.045
 30
0.0
 10
-149.824
 20
97.045
 30
0.0
 10
-150.3179
 20
100.6692
 30
0.0
 10
-148.7228
 20
104.2651
 30
0.0
 10
-145.7069
 20
106.3346
 30
0.0
 10
-145.7069
 20
106.3346
 30
0.0
 10
-142.7818
 20
108.3414
 30
0.0
 10
-139.1243
 20
108.9737
 30
0.0
 10
-135.6946
 20
108.0675
 30
0.0
 10
-135.6946
 20
108.0675
 30
0.0
 10
-132.4194
 20
106.7057
 30
0.0
 10
-129.8986
 20
103.9817
 30
0.0
 10
-128.7924
 20
100.611
 30
0.0
 10
-128.7924
 20
100.611
 30
0.0
 10
-127.6513
 20
97.1357
 30
0.0
 10
-128.5708
 20
93.3109
 30
0.0
 10
-131.1627
 20
90.7309
 30
0.0
 10
-131.1627
 20
90.7309
 30
0.0
 10
-132.3467
 20
89.5917
 30
0.0
 10
-133.7774
 20
88.7407
 30
0.0
 10
-135.3435
 20
88.244
 30
0.0
 10
-135.3435
 20
88.244
 30
0.0
 10
-136.9053
 20
87.7483
 30
0.0
 10
-138.3482
 20
86.9377
 30
0.0
 10
-139.5832
 20
85.861
 30
0.0
 10
-139.5832
 20
85.861
 30
0.0
 10
-139.9927
 20
85.5044
 30
0.0
 10
-140.3556
 20
85.0983
 30
0.0
 10
-140.6639
 20
84.6516
 30
0.0
 10
-140.6639
 20
84.6516
 30
0.0
 10
-140.9739
 20
84.2031
 30
0.0
 10
-141.2
 20
83.7019
 30
0.0
 10
-141.3312
 20
83.173
 30
0.0
 10
-141.3312
 20
83.173
 30
0.0
 10
-141.4433
 20
82.6974
 30
0.0
 10
-141.4833
 20
82.2079
 30
0.0
 10
-141.4499
 20
81.7202
 30
0.0
 10
-141.4499
 20
81.7202
 30
0.0
 10
-141.4162
 20
81.2307
 30
0.0
 10
-141.2856
 20
80.7529
 30
0.0
 10
-141.0655
 20
80.314
 30
0.0
 10
-141.0655
 20
80.314
 30
0.0
 10
-140.6604
 20
80.0367
 30
0.0
 10
-140.2049
 20
79.8422
 30
0.0
 10
-139.7249
 20
79.7418
 30
0.0
 10
-139.7249
 20
79.7418
 30
0.0
 10
-139.2466
 20
79.6423
 30
0.0
 10
-138.7559
 20
79.615
 30
0.0
 10
-138.2692
 20
79.6612
 30
0.0
 10
-138.2692
 20
79.6612
 30
0.0
 10
-136.5803
 20
79.8416
 30
0.0
 10
-135.069
 20
80.7869
 30
0.0
 10
-134.1678
 20
82.2264
 30
0.0
 10
-134.1678
 20
82.2264
 30
0.0
 10
-133.3122
 20
83.5936
 30
0.0
 10
-132.4472
 20
84.9542
 30
0.0
 10
-131.5733
 20
86.3099
 30
0.0
 10
-131.5733
 20
86.3099
 30
0.0
 10
-130.9849
 20
87.2222
 30
0.0
 10
-130.2493
 20
88.0316
 30
0.0
 10
-129.3965
 20
88.7046
 30
0.0
 10
-129.3965
 20
88.7046
 30
0.0
 10
-126.4878
 20
90.9224
 30
0.0
 10
-122.5733
 20
91.3086
 30
0.0
 10
-119.2853
 20
89.7063
 30
0.0
 10
-119.2853
 20
89.7063
 30
0.0
 10
-116.0967
 20
88.1518
 30
0.0
 10
-113.7427
 20
85.2821
 30
0.0
 10
-112.8387
 20
81.8518
 30
0.0
 10
-112.8387
 20
81.8518
 30
0.0
 10
-112.4081
 20
78.3311
 30
0.0
 10
-113.5343
 20
74.7948
 30
0.0
 10
-115.9199
 20
72.1695
 30
0.0
 10
-115.9199
 20
72.1695
 30
0.0
 10
-118.3802
 20
69.4626
 30
0.0
 10
-122.1604
 20
68.3753
 30
0.0
 10
-125.6841
 20
69.3571
 30
0.0
 10
-125.6841
 20
69.3571
 30
0.0
 10
-127.2584
 20
69.8249
 30
0.0
 10
-128.7048
 20
70.65
 30
0.0
 10
-129.9093
 20
71.7668
 30
0.0
 10
-129.9093
 20
71.7668
 30
0.0
 10
-131.1111
 20
72.8812
 30
0.0
 10
-132.5283
 20
73.7362
 30
0.0
 10
-134.074
 20
74.2798
 30
0.0
 10
-134.074
 20
74.2798
 30
0.0
 10
-134.5862
 20
74.4596
 30
0.0
 10
-135.1185
 20
74.5747
 30
0.0
 10
-135.659
 20
74.623
 30
0.0
 10
-135.659
 20
74.623
 30
0.0
 10
-136.202
 20
74.6714
 30
0.0
 10
-136.7491
 20
74.6208
 30
0.0
 10
-137.2736
 20
74.4741
 30
0.0
 10
-137.2736
 20
74.4741
 30
0.0
 10
-137.7681
 20
74.3296
 30
0.0
 10
-138.2393
 20
74.1142
 30
0.0
 10
-138.6721
 20
73.8353
 30
0.0
 10
-138.6721
 20
73.8353
 30
0.0
 10
-139.11
 20
73.5524
 30
0.0
 10
-139.4671
 20
73.1617
 30
0.0
 10
-139.7088
 20
72.7008
 30
0.0
 10
-139.7088
 20
72.7008
 30
0.0
 10
-139.8288
 20
72.1934
 30
0.0
 10
-139.8155
 20
71.6645
 30
0.0
 10
-139.6704
 20
71.164
 30
0.0
 10
-139.6704
 20
71.164
 30
0.0
 10
-139.5271
 20
70.6694
 30
0.0
 10
-139.3133
 20
70.1976
 30
0.0
 10
-139.0348
 20
69.7644
 30
0.0
 10
-139.0348
 20
69.7644
 30
0.0
 10
-138.1005
 20
68.3466
 30
0.0
 10
-136.5681
 20
67.4359
 30
0.0
 10
-134.8751
 20
67.2948
 30
0.0
 10
-134.8751
 20
67.2948
 30
0.0
 10
-133.2684
 20
67.1604
 30
0.0
 10
-131.6621
 20
67.0153
 30
0.0
 10
-130.0576
 20
66.8592
 30
0.0
 10
-130.0576
 20
66.8592
 30
0.0
 10
-128.9765
 20
66.7541
 30
0.0
 10
-127.9197
 20
66.4714
 30
0.0
 10
-126.9313
 20
66.0213
 30
0.0
 10
-126.9313
 20
66.0213
 30
0.0
 10
-123.6266
 20
64.4529
 30
0.0
 10
-121.4898
 20
61.1498
 30
0.0
 10
-121.4076
 20
57.4929
 30
0.0
 10
-121.4076
 20
57.4929
 30
0.0
 10
-121.3287
 20
53.9467
 30
0.0
 10
-122.801
 20
50.5391
 30
0.0
 10
-125.4357
 20
48.164
 30
0.0
 10
-125.4357
 20
48.164
 30
0.0
 10
-128.368
 20
46.1678
 30
0.0
 10
-132.0272
 20
45.5483
 30
0.0
 10
-135.4541
 20
46.4662
 30
0.0
 10
-135.4541
 20
46.4662
 30
0.0
 10
-138.9876
 20
47.4123
 30
0.0
 10
-141.6863
 20
50.2747
 30
0.0
 10
-142.4273
 20
53.8573
 30
0.0
 10
-142.4273
 20
53.8573
 30
0.0
 10
-142.733
 20
55.4712
 30
0.0
 10
-142.6624
 20
57.134
 30
0.0
 10
-142.2212
 20
58.7164
 30
0.0
 10
-142.2212
 20
58.7164
 30
0.0
 10
-141.7811
 20
60.2954
 30
0.0
 10
-141.6706
 20
61.9466
 30
0.0
 10
-141.8962
 20
63.57
 30
0.0
 10
-141.8962
 20
63.57
 30
0.0
 10
-141.9706
 20
64.1073
 30
0.0
 10
-142.1119
 20
64.6336
 30
0.0
 10
-142.3174
 20
65.1363
 30
0.0
 10
-142.3174
 20
65.1363
 30
0.0
 10
-142.523
 20
65.6407
 30
0.0
 10
-142.8186
 20
66.104
 30
0.0
 10
-143.1897
 20
66.5031
 30
0.0
 10
-143.1897
 20
66.5031
 30
0.0
 10
-143.8018
 20
67.1475
 30
0.0
 10
-144.5903
 20
67.597
 30
0.0
 10
-145.4569
 20
67.7964
 30
0.0
 10
-145.4569
 20
67.7964
 30
0.0
 10
-145.5441
 20
67.8165
 30
0.0
 10
-145.6325
 20
67.8325
 30
0.0
 10
-145.7214
 20
67.8448
 30
0.0
 10
-145.7214
 20
67.8448
 30
0.0
 10
-145.8038
 20
67.8086
 30
0.0
 10
-145.8837
 20
67.7687
 30
0.0
 10
-145.9625
 20
67.7252
 30
0.0
 10
-145.9625
 20
67.7252
 30
0.0
 10
-146.7415
 20
67.2964
 30
0.0
 10
-147.3759
 20
66.648
 30
0.0
 10
-147.7883
 20
65.8603
 30
0.0
 10
-147.7883
 20
65.8603
 30
0.0
 10
-148.5583
 20
64.3462
 30
0.0
 10
-148.5916
 20
62.5639
 30
0.0
 10
-147.8767
 20
61.0232
 30
0.0
 10
-147.8767
 20
61.0232
 30
0.0
 10
-147.1983
 20
59.5604
 30
0.0
 10
-146.5298
 20
58.0931
 30
0.0
 10
-145.8709
 20
56.6212
 30
0.0
 10
-145.8709
 20
56.6212
 30
0.0
 10
-145.427
 20
55.6296
 30
0.0
 10
-145.1503
 20
54.5716
 30
0.0
 10
-145.052
 20
53.4899
 30
0.0
 10
-145.052
 20
53.4899
 30
0.0
 10
-144.7808
 20
49.8418
 30
0.0
 10
-146.5937
 20
46.3511
 30
0.0
 10
-149.7306
 20
44.4699
 30
0.0
 10
-149.7306
 20
44.4699
 30
0.0
 10
-152.7736
 20
42.6465
 30
0.0
 10
-156.4627
 20
42.2398
 30
0.0
 10
-159.8301
 20
43.3548
 30
0.0
 10
-159.8301
 20
43.3548
 30
0.0
 10
-163.016
 20
44.915
 30
0.0
 10
-165.365
 20
47.7884
 30
0.0
 10
-166.2622
 20
51.2203
 30
0.0
 10
-166.2622
 20
51.2203
 30
0.0
 10
-167.1884
 20
54.7589
 30
0.0
 10
-166.0362
 20
58.5203
 30
0.0
 10
-163.2905
 20
60.9366
 30
0.0
 10
-163.2905
 20
60.9366
 30
0.0
 10
-162.0392
 20
62.001
 30
0.0
 10
-160.5585
 20
62.7628
 30
0.0
 10
-158.9656
 20
63.1623
 30
0.0
 10
-158.9656
 20
63.1623
 30
0.0
 10
-157.3762
 20
63.5611
 30
0.0
 10
-155.886
 20
64.2817
 30
0.0
 10
-154.5871
 20
65.2812
 30
0.0
 10
-154.5871
 20
65.2812
 30
0.0
 10
-154.1571
 20
65.6119
 30
0.0
 10
-153.7697
 20
65.9951
 30
0.0
 10
-153.4347
 20
66.4219
 30
0.0
 10
-153.4347
 20
66.4219
 30
0.0
 10
-153.0975
 20
66.8507
 30
0.0
 10
-152.8413
 20
67.337
 30
0.0
 10
-152.678
 20
67.8571
 30
0.0
 10
-152.678
 20
67.8571
 30
0.0
 10
-152.4214
 20
68.7077
 30
0.0
 10
-152.4208
 20
69.6155
 30
0.0
 10
-152.6764
 20
70.4667
 30
0.0
 10
-152.6764
 20
70.4667
 30
0.0
 10
-152.6764
 20
70.4667
 30
0.0
 10
-152.7081
 20
70.5678
 30
0.0
 10
-152.7081
 20
70.5678
 30
0.0
 10
-152.7081
 20
70.5678
 30
0.0
 10
-152.7081
 20
70.5678
 30
0.0
 10
-152.8003
 20
70.621
 30
0.0
 10
-152.8003
 20
70.621
 30
0.0
 10
-152.8003
 20
70.621
 30
0.0
 10
-153.577
 20
71.0538
 30
0.0
 10
-154.4631
 20
71.249
 30
0.0
 10
-155.3499
 20
71.1806
 30
0.0
 10
-155.3499
 20
71.1806
 30
0.0
 10
-157.0416
 20
71.0321
 30
0.0
 10
-158.5706
 20
70.1161
 30
0.0
 10
-159.4985
 20
68.6932
 30
0.0
 10
-159.4985
 20
68.6932
 30
0.0
 10
-160.3797
 20
67.3425
 30
0.0
 10
-161.2696
 20
65.998
 30
0.0
 10
-162.1692
 20
64.6591
 30
0.0
 10
-162.1692
 20
64.6591
 30
0.0
 10
-162.7749
 20
63.7579
 30
0.0
 10
-163.5254
 20
62.9623
 30
0.0
 10
-164.3905
 20
62.3054
 30
0.0
 10
-164.3905
 20
62.3054
 30
0.0
 10
-167.2685
 20
60.1948
 30
0.0
 10
-171.081
 20
59.8503
 30
0.0
 10
-174.2923
 20
61.406
 30
0.0
 10
-174.2923
 20
61.406
 30
0.0
 10
-177.4091
 20
62.9161
 30
0.0
 10
-179.7388
 20
65.6813
 30
0.0
 10
-180.7005
 20
69.0077
 30
0.0
 10
-180.7005
 20
69.0077
 30
0.0
 10
-180.7005
 20
69.0077
 30
0.0
 10
-180.7005
 20
72.7335
 30
0.0
 10
-180.7005
 20
72.7335
 30
0.0
 10
-180.7005
 20
72.7335
 30
0.0
 10
-180.1559
 20
75.6558
 30
0.0
 10
-178.5631
 20
78.2811
 30
0.0
 10
-176.2229
 20
80.1151
 30
0.0
 10
-176.2229
 20
80.1151
 30
0.0
 10
-173.8245
 20
81.9951
 30
0.0
 10
-170.6592
 20
82.5925
 30
0.0
 10
-167.7395
 20
81.719
 30
0.0
 10
-167.7395
 20
81.719
 30
0.0
 10
-166.174
 20
81.2219
 30
0.0
 10
-164.7433
 20
80.3701
 30
0.0
 10
-163.5604
 20
79.2306
 30
0.0
 10
-163.5604
 20
79.2306
 30
0.0
 10
-162.3798
 20
78.0938
 30
0.0
 10
-160.9791
 20
77.2121
 30
0.0
 10
-159.4435
 20
76.6398
 30
0.0
 10
-159.4435
 20
76.6398
 30
0.0
 10
-158.9351
 20
76.4503
 30
0.0
 10
-158.4046
 20
76.3253
 30
0.0
 10
-157.8651
 20
76.2671
 30
0.0
 10
-157.8651
 20
76.2671
 30
0.0
 10
-157.3233
 20
76.2086
 30
0.0
 10
-156.7756
 20
76.2486
 30
0.0
 10
-156.2477
 20
76.3858
 30
0.0
 10
-156.2477
 20
76.3858
 30
0.0
 10
-155.3899
 20
76.6187
 30
0.0
 10
-154.6199
 20
77.0994
 30
0.0
 10
-154.0331
 20
77.7677
 30
0.0
 10
-154.0331
 20
77.7677
 30
0.0
 10
-154.0331
 20
77.7677
 30
0.0
 10
-153.973
 20
77.837
 30
0.0
 10
-153.973
 20
77.837
 30
0.0
 10
-153.973
 20
77.837
 30
0.0
 10
-153.973
 20
77.837
 30
0.0
 10
-153.9771
 20
77.9289
 30
0.0
 10
-153.9771
 20
77.9289
 30
0.0
 10
-153.9771
 20
77.9289
 30
0.0
 10
-154.0249
 20
78.8166
 30
0.0
 10
-154.3321
 20
79.6706
 30
0.0
 10
-154.862
 20
80.384
 30
0.0
 10
-154.862
 20
80.384
 30
0.0
 10
-155.8894
 20
81.7369
 30
0.0
 10
-157.4801
 20
82.5425
 30
0.0
 10
-159.1778
 20
82.5692
 30
0.0
 10
-159.1778
 20
82.5692
 30
0.0
 10
-160.7902
 20
82.5951
 30
0.0
 10
-162.4025
 20
82.6319
 30
0.0
 10
-164.0143
 20
82.6791
 30
0.0
 10
-164.0143
 20
82.6791
 30
0.0
 10
-165.1
 20
82.7113
 30
0.0
 10
-166.1734
 20
82.9231
 30
0.0
 10
-167.1902
 20
83.3053
 30
0.0
 10
-167.1902
 20
83.3053
 30
0.0
 10
-170.5919
 20
84.6481
 30
0.0
 10
-172.9465
 20
87.7999
 30
0.0
 10
-173.2745
 20
91.443
 30
0.0
 10
-173.2745
 20
91.443
 30
0.0
 10
-173.5916
 20
94.9761
 30
0.0
 10
-172.3522
 20
98.4745
 30
0.0
 10
-169.883
 20
101.0209
 30
0.0
 10
-169.883
 20
101.0209
 30
0.0
 10
-167.2563
 20
103.0811
 30
0.0
 10
-163.8977
 20
103.9761
 30
0.0
 10
-160.5941
 20
103.4977
 30
0.0
 10
-160.5941
 20
103.4977
 30
0.0
 10
-157.21
 20
103.0078
 30
0.0
 10
-154.3187
 20
100.7986
 30
0.0
 10
-152.9531
 20
97.6639
 30
0.0
 10
-152.9531
 20
97.6639
 30
0.0
 10
-153.3075
 20
98.9879
 30
0.0
 10
-153.933
 20
100.2225
 30
0.0
 10
-154.7915
 20
101.2909
 30
0.0
 10
-154.7915
 20
101.2909
 30
0.0
 10
-157.6961
 20
104.9079
 30
0.0
 10
-159.5369
 20
109.2647
 30
0.0
 10
-160.1068
 20
113.8691
 30
0.0
 10
-160.1068
 20
113.8691
 30
0.0
 10
-160.3541
 20
115.8691
 30
0.0
 10
-160.2018
 20
117.8998
 30
0.0
 10
-159.6591
 20
119.8411
 30
0.0
 10
-159.6591
 20
119.8411
 30
0.0
 10
-159.0868
 20
121.8873
 30
0.0
 10
-158.0357
 20
123.7685
 30
0.0
 10
-156.5939
 20
125.3292
 30
0.0
 10
-156.5939
 20
125.3292
 30
0.0
 10
-156.5939
 20
125.3292
 30
0.0
 10
-152.5074
 20
125.3292
 30
0.0
 10
-152.5074
 20
125.3292
 30
0.0
 10
-152.5074
 20
125.3292
 30
0.0
 10
-154.1854
 20
123.8597
 30
0.0
 10
-155.4632
 20
121.9901
 30
0.0
 10
-156.2228
 20
119.8933
 30
0.0
 10
-156.2228
 20
119.8933
 30
0.0
 10
-156.9755
 20
117.8132
 30
0.0
 10
-157.3539
 20
115.6169
 30
0.0
 10
-157.34
 20
113.4045
 30
0.0
 10
-157.34
 20
113.4045
 30
0.0
 10
-157.3255
 20
111.16
 30
0.0
 10
-156.8395
 20
108.9442
 30
0.0
 10
-155.9127
 20
106.9002
 30
0.0
 10
-155.9127
 20
106.9002
 30
0.0
 10
-154.4077
 20
105.1305
 30
0.0
 10
-153.1196
 20
103.1866
 30
0.0
 10
-152.0769
 20
101.1109
 30
0.0
 10
-152.0769
 20
101.1109
 30
0.0
 10
-151.0373
 20
99.0418
 30
0.0
 10
-150.0701
 20
96.9373
 30
0.0
 10
-149.1768
 20
94.8011
 30
0.0
  0
SPLINE
  5
44
330
1F
100
AcDbEntity
  8
layer 1
 62
     7
100
AcDbSpline
210
0.0
220
0.0
230
1.0
 70
    11
 71
     3
 72
    40
 73
    36
 74
     0
 42
0.0000000001
 43
0.0000000001
 12
1.0
 22
0.0
 32
0.0
 13
1.0
 23
0.0
 33
0.0
 40
0.0
 40
0.0
 40
0.0
 40
0.0
 40
0.1
 40
0.1
 40
0.1
 40
0.1
 40
0.2
 40
0.2
 40
0.2
 40
0.2
 40
0.3
 40
0.3
 40
0.3
 40
0.3
 40
0.4
 40
0.4
 40
0.4
 40
0.4
 40
0.5
 40
0.5
 40
0.5
 40
0.5
 40
0.6
 40
0.6
 40
0.6
 40
0.6
 40
0.7
 40
0.7
 40
0.7
 40
0.7
 40
0.8
 40
0.8
 40
0.8
 40
0.8
 40
1.0
 40
1.0
 40
1.0
 40
1.0
 10
-143.8058
 20
125.3292
 30
0.0
 10
-143.8058
 20
125.3292
 30
0.0
 10
-132.835
 20
125.3292
 30
0.0
 10
-132.835
 20
125.3292
 30
0.0
 10
-132.835
 20
125.3292
 30
0.0
 10
-132.5078
 20
124.4352
 30
0.0
 10
-132.2183
 20
123.5285
 30
0.0
 10
-131.9677
 20
122.61
 30
0.0
 10
-131.9677
 20
122.61
 30
0.0
 10
-130.9455
 20
118.8637
 30
0.0
 10
-132.3678
 20
114.8736
 30
0.0
 10
-135.5258
 20
112.6138
 30
0.0
 10
-135.5258
 20
112.6138
 30
0.0
 10
-136.9975
 20
111.1077
 30
0.0
 10
-139.0449
 20
110.3026
 30
0.0
 10
-141.1477
 20
110.4014
 30
0.0
 10
-141.1477
 20
110.4014
 30
0.0
 10
-143.2417
 20
110.4999
 30
0.0
 10
-145.2076
 20
111.4427
 30
0.0
 10
-146.5959
 20
113.0129
 30
0.0
 10
-146.5959
 20
113.0129
 30
0.0
 10
-147.0954
 20
113.5773
 30
0.0
 10
-147.3337
 20
114.3268
 30
0.0
 10
-147.2527
 20
115.0763
 30
0.0
 10
-147.2527
 20
115.0763
 30
0.0
 10
-147.0516
 20
116.9387
 30
0.0
 10
-146.1964
 20
118.6698
 30
0.0
 10
-144.8408
 20
119.9622
 30
0.0
 10
-144.8408
 20
119.9622
 30
0.0
 10
-144.6098
 20
120.1889
 30
0.0
 10
-144.4307
 20
120.4634
 30
0.0
 10
-144.3158
 20
120.7662
 30
0.0
 10
-144.3158
 20
120.7662
 30
0.0
 10
-143.763
 20
122.2196
 30
0.0
 10
-143.5874
 20
123.7892
 30
0.0
 10
-143.8058
 20
125.3292
 30
0.0
  0
SPLINE
  5
45
330
1F
100
AcDbEntity
  8
layer 1
 62
     7
100
AcDbSpline
210
0.0
220
0.0
230
1.0
 70
    11
 71
     3
 72
    24
 73
    20
 74
     0
 42
0.0000000001
 43
0.0000000001
 12
1.0
 22
0.0
 32
0.0
 13
1.0
 23
0.0
 33
0.0
 40
0.0
 40
0.0
 40
0.0
 40
0.0
 40
0.1666666666666667
 40
0.1666666666666667
 40
0.1666666666666667
 40
0.1666666666666667
 40
0.3333333333333333
 40
0.3333333333333333
 40
0.3333333333333333
 40
0.3333333333333333
 40
0.5
 40
0.5
 40
0.5
 40
0.5
 40
0.6666666666666666
 40
0.6666666666666666
 40
0.6666666666666666
 40
0.6666666666666666
 40
1.0
 40
1.0
 40
1.0
 40
1.0
 10
-72.141
 20
48.0296
 30
0.0
 10
-75.5901
 20
44.761
 30
0.0
 10
-77.3162
 20
40.0741
 30
0.0
 10
-76.8062
 20
35.3499
 30
0.0
 10
-76.8062
 20
35.3499
 30
0.0
 10
-76.5607
 20
33.0709
 30
0.0
 10
-75.5439
 20
30.9451
 30
0.0
 10
-73.9227
 20
29.3249
 30
0.0
 10
-73.9227
 20
29.3249
 30
0.0
 10
-73.6639
 20
29.096
 30
0.0
 10
-73.3872
 20
28.8889
 30
0.0
 10
-73.0944
 20
28.7056
 30
0.0
 10
-73.0944
 20
28.7056
 30
0.0
 10
-72.7998
 20
28.5215
 30
0.0
 10
-72.4781
 20
28.3861
 30
0.0
 10
-72.141
 20
28.3043
 30
0.0
 10
-72.141
 20
28.3043
 30
0.0
 10
-72.141
 20
28.3043
 30
0.0
 10
-72.141
 20
48.0296
 30
0.0
 10
-72.141
 20
48.0296
 30
0.0
  0
SPLINE
  5
46
330
1F
100
AcDbEntity
  8
layer 1
 62
     7
100
AcDbSpline
210
0.0
220
0.0
230
1.0
 70
    11
 71
     3
 72
   328
 73
   324
 74
     0
 42
0.0000000001
 43
0.0000000001
 12
1.0
 22
0.0
 32
0.0
 13
1.0
 23
0.0
 33
0.0
 40
0.0
 40
0.0
 40
0.0
 40
0.0
 40
0.0121951219512195
 40
0.0121951219512195
 40
0.0121951219512195
 40
0.0121951219512195
 40
0.024390243902439
 40
0.024390243902439
 40
0.024390243902439
 40
0.024390243902439
 40
0.0365853658536585
 40
0.0365853658536585
 40
0.0365853658536585
 40
0.0365853658536585
 40
0.0487804878048781
 40
0.0487804878048781
 40
0.0487804878048781
 40
0.0487804878048781
 40
0.0609756097560976
 40
0.0609756097560976
 40
0.0609756097560976
 40
0.0609756097560976
 40
0.0731707317073171
 40
0.0731707317073171
 40
0.0731707317073171
 40
0.0731707317073171
 40
0.0853658536585366
 40
0.0853658536585366
 40
0.0853658536585366
 40
0.0853658536585366
 40
0.0975609756097561
 40
0.0975609756097561
 40
0.0975609756097561
 40
0.0975609756097561
 40
0.1097560975609756
 40
0.1097560975609756
 40
0.1097560975609756
 40
0.1097560975609756
 40
0.1219512195121951
 40
0.1219512195121951
 40
0.1219512195121951
 40
0.1219512195121951
 40
0.1341463414634146
 40
0.1341463414634146
 40
0.1341463414634146
 40
0.1341463414634146
 40
0.1463414634146341
 40
0.1463414634146341
 40
0.1463414634146341
 40
0.1463414634146341
 40
0.1585365853658537
 40
0.1585365853658537
 40
0.1585365853658537
 40
0.1585365853658537
 40
0.1707317073170732
 40
0.1707317073170732
 40
0.1707317073170732
 40
0.1707317073170732
 40
0.1829268292682927
 40
0.1829268292682927
 40
0.1829268292682927
 40
0.1829268292682927
 40
0.1951219512195122
 40
0.1951219512195122
 40
0.1951219512195122
 40
0.1951219512195122
 40
0.2073170731707317
 40
0.2073170731707317
 40
0.2073170731707317
 40
0.2073170731707317
 40
0.2195121951219512
 40
0.2195121951219512
 40
0.2195121951219512
 40
0.2195121951219512
 40
0.2317073170731707
 40
0.2317073170731707
 40
0.2317073170731707
 40
0.2317073170731707
 40
0.2439024390243902
 40
0.2439024390243902
 40
0.2439024390243902
 40
0.2439024390243902
 40
0.2560975609756098
 40
0.2560975609756098
 40
0.2560975609756098
 40
0.2560975609756098
 40
0.2682926829268293
 40
0.2682926829268293
 40
0.2682926829268293
 40
0.2682926829268293
 40
0.2804878048780488
 40
0.2804878048780488
 40
0.2804878048780488
 40
0.2804878048780488
 40
0.2926829268292683
 40
0.2926829268292683
 40
0.2926829268292683
 40
0.2926829268292683
 40
0.3048780487804878
 40
0.3048780487804878
 40
0.3048780487804878
 40
0.3048780487804878
 40
0.3170731707317073
 40
0.3170731707317073
 40
0.3170731707317073
 40
0.3170731707317073
 40
0.3292682926829268
 40
0.3292682926829268
 40
0.3292682926829268
 40
0.3292682926829268
 40
0.3414634146341464
 40
0.3414634146341464
 40
0.3414634146341464
 40
0.3414634146341464
 40
0.3536585365853658
 40
0.3536585365853658
 40
0.3536585365853658
 40
0.3536585365853658
 40
0.3658536585365854
 40
0.3658536585365854
 40
0.3658536585365854
 40
0.3658536585365854
 40
0.3780487804878049
 40
0.3780487804878049
 40
0.3780487804878049
 40
0.3780487804878049
 40
0.3902439024390244
 40
0.3902439024390244
 40
0.3902439024390244
 40
0.3902439024390244
 40
0.4024390243902439
 40
0.4024390243902439
 40
0.4024390243902439
 40
0.4024390243902439
 40
0.4146341463414634
 40
0.4146341463414634
 40
0.4146341463414634
 40
0.4146341463414634
 40
0.4268292682926829
 40
0.4268292682926829
 40
0.4268292682926829
 40
0.4268292682926829
 40
0.4390243902439024
 40
0.4390243902439024
 40
0.4390243902439024
 40
0.4390243902439024
 40
0.451219512195122
 40
0.451219512195122
 40
0.451219512195122
 40
0.451219512195122
 40
0.4634146341463415
 40
0.4634146341463415
 40
0.4634146341463415
 40
0.4634146341463415
 40
0.475609756097561
 40
0.475609756097561
 40
0.475609756097561
 40
0.475609756097561
 40
0.4878048780487805
 40
0.4878048780487805
 40
0.4878048780487805
 40
0.4878048780487805
 40
0.5
 40
0.5
 40
0.5
 40
0.5
 40
0.5121951219512195
 40
0.5121951219512195
 40
0.5121951219512195
 40
0.5121951219512195
 40
0.524390243902439
 40
0.524390243902439
 40
0.524390243902439
 40
0.524390243902439
 40
0.5365853658536586
 40
0.5365853658536586
 40
0.5365853658536586
 40
0.5365853658536586
 40
0.5487804878048781
 40
0.5487804878048781
 40
0.5487804878048781
 40
0.5487804878048781
 40
0.5609756097560976
 40
0.5609756097560976
 40
0.5609756097560976
 40
0.5609756097560976
 40
0.573170731707317
 40
0.573170731707317
 40
0.573170731707317
 40
0.573170731707317
 40
0.5853658536585366
 40
0.5853658536585366
 40
0.5853658536585366
 40
0.5853658536585366
 40
0.5975609756097561
 40
0.5975609756097561
 40
0.5975609756097561
 40
0.5975609756097561
 40
0.6097560975609756
 40
0.6097560975609756
 40
0.6097560975609756
 40
0.6097560975609756
 40
0.6219512195121951
 40
0.6219512195121951
 40
0.6219512195121951
 40
0.6219512195121951
 40
0.6341463414634146
 40
0.6341463414634146
 40
0.6341463414634146
 40
0.6341463414634146
 40
0.6463414634146342
 40
0.6463414634146342
 40
0.6463414634146342
 40
0.6463414634146342
 40
0.6585365853658537
 40
0.6585365853658537
 40
0.6585365853658537
 40
0.6585365853658537
 40
0.6707317073170732
 40
0.6707317073170732
 40
0.6707317073170732
 40
0.6707317073170732
 40
0.6829268292682927
 40
0.6829268292682927
 40
0.6829268292682927
 40
0.6829268292682927
 40
0.6951219512195121
 40
0.6951219512195121
 40
0.6951219512195121
 40
0.6951219512195121
 40
0.7073170731707317
 40
0.7073170731707317
 40
0.7073170731707317
 40
0.7073170731707317
 40
0.7195121951219512
 40
0.7195121951219512
 40
0.7195121951219512
 40
0.7195121951219512
 40
0.7317073170731707
 40
0.7317073170731707
 40
0.7317073170731707
 40
0.7317073170731707
 40
0.7439024390243902
 40
0.7439024390243902
 40
0.7439024390243902
 40
0.7439024390243902
 40
0.7560975609756098
 40
0.7560975609756098
 40
0.7560975609756098
 40
0.7560975609756098
 40
0.7682926829268293
 40
0.7682926829268293
 40
0.7682926829268293
 40
0.7682926829268293
 40
0.7804878048780488
 40
0.7804878048780488
 40
0.7804878048780488
 40
0.7804878048780488
 40
0.7926829268292683
 40
0.7926829268292683
 40
0.7926829268292683
 40
0.7926829268292683
 40
0.8048780487804879
 40
0.8048780487804879
 40
0.8048780487804879
 40
0.8048780487804879
 40
0.8170731707317073
 40
0.8170731707317073
 40
0.8170731707317073
 40
0.8170731707317073
 40
0.8292682926829268
 40
0.8292682926829268
 40
0.8292682926829268
 40
0.8292682926829268
 40
0.8414634146341463
 40
0.8414634146341463
 40
0.8414634146341463
 40
0.8414634146341463
 40
0.8536585365853658
 40
0.8536585365853658
 40
0.8536585365853658
 40
0.8536585365853658
 40
0.8658536585365854
 40
0.8658536585365854
 40
0.8658536585365854
 40
0.8658536585365854
 40
0.8780487804878049
 40
0.8780487804878049
 40
0.8780487804878049
 40
0.8780487804878049
 40
0.8902439024390244
 40
0.8902439024390244
 40
0.8902439024390244
 40
0.8902439024390244
 40
0.9024390243902439
 40
0.9024390243902439
 40
0.9024390243902439
 40
0.9024390243902439
 40
0.9146341463414634
 40
0.9146341463414634
 40
0.9146341463414634
 40
0.9146341463414634
 40
0.926829268292683
 40
0.926829268292683
 40
0.926829268292683
 40
0.926829268292683
 40
0.9390243902439024
 40
0.9390243902439024
 40
0.9390243902439024
 40
0.9390243902439024
 40
0.9512195121951219
 40
0.9512195121951219
 40
0.9512195121951219
 40
0.9512195121951219
 40
0.9634146341463414
 40
0.9634146341463414
 40
0.9634146341463414
 40
0.9634146341463414
 40
0.975609756097561
 40
0.975609756097561
 40
0.975609756097561
 40
0.975609756097561
 40
1.0
 40
1.0
 40
1.0
 40
1.0
 10
-72.141
 20
92.9832
 30
0.0
 10
-75.91
 20
90.7309
 30
0.0
 10
-80.1877
 20
89.4623
 30
0.0
 10
-84.575
 20
89.2951
 30
0.0
 10
-84.575
 20
89.2951
 30
0.0
 10
-88.9383
 20
89.1289
 30
0.0
 10
-93.2919
 20
89.8435
 30
0.0
 10
-97.3732
 20
91.3948
 30
0.0
 10
-97.3732
 20
91.3948
 30
0.0
 10
-100.5507
 20
92.6615
 30
0.0
 10
-103.4185
 20
94.5994
 30
0.0
 10
-105.7798
 20
97.074
 30
0.0
 10
-105.7798
 20
97.074
 30
0.0
 10
-108.1678
 20
99.5769
 30
0.0
 10
-109.7367
 20
102.7504
 30
0.0
 10
-110.2757
 20
106.168
 30
0.0
 10
-110.2757
 20
106.168
 30
0.0
 10
-110.6468
 20
108.5186
 30
0.0
 10
-110.6984
 20
110.9094
 30
0.0
 10
-110.4302
 20
113.2739
 30
0.0
 10
-110.4302
 20
113.2739
 30
0.0
 10
-109.9329
 20
117.5837
 30
0.0
 10
-108.42
 20
121.7156
 30
0.0
 10
-106.0193
 20
125.3292
 30
0.0
 10
-106.0193
 20
125.3292
 30
0.0
 10
-106.0193
 20
125.3292
 30
0.0
 10
-110.3808
 20
125.3292
 30
0.0
 10
-110.3808
 20
125.3292
 30
0.0
 10
-110.3808
 20
125.3292
 30
0.0
 10
-111.5313
 20
123.2107
 30
0.0
 10
-112.3797
 20
120.9422
 30
0.0
 10
-112.902
 20
118.5888
 30
0.0
 10
-112.902
 20
118.5888
 30
0.0
 10
-113.5026
 20
115.6697
 30
0.0
 10
-113.6877
 20
112.6811
 30
0.0
 10
-113.4497
 20
109.7104
 30
0.0
 10
-113.4497
 20
109.7104
 30
0.0
 10
-113.2064
 20
106.6736
 30
0.0
 10
-112.5431
 20
103.6862
 30
0.0
 10
-111.4769
 20
100.832
 30
0.0
 10
-111.4769
 20
100.832
 30
0.0
 10
-111.3831
 20
100.5874
 30
0.0
 10
-111.2836
 20
100.3453
 30
0.0
 10
-111.1785
 20
100.1054
 30
0.0
 10
-111.1785
 20
100.1054
 30
0.0
 10
-111.073
 20
99.8653
 30
0.0
 10
-110.953
 20
99.632
 30
0.0
 10
-110.819
 20
99.4069
 30
0.0
 10
-110.819
 20
99.4069
 30
0.0
 10
-112.5553
 20
101.0892
 30
0.0
 10
-114.0399
 20
103.0138
 30
0.0
 10
-115.2255
 20
105.1207
 30
0.0
 10
-115.2255
 20
105.1207
 30
0.0
 10
-118.758
 20
111.3983
 30
0.0
 10
-121.1976
 20
118.2331
 30
0.0
 10
-122.4383
 20
125.3292
 30
0.0
 10
-122.4383
 20
125.3292
 30
0.0
 10
-122.4383
 20
125.3292
 30
0.0
 10
-124.6301
 20
125.3292
 30
0.0
 10
-124.6301
 20
125.3292
 30
0.0
 10
-124.6301
 20
125.3292
 30
0.0
 10
-124.7011
 20
121.6395
 30
0.0
 10
-124.005
 20
117.9765
 30
0.0
 10
-122.5843
 20
114.5708
 30
0.0
 10
-122.5843
 20
114.5708
 30
0.0
 10
-121.1792
 20
111.201
 30
0.0
 10
-119.8302
 20
107.8085
 30
0.0
 10
-118.538
 20
104.3939
 30
0.0
 10
-118.538
 20
104.3939
 30
0.0
 10
-117.7951
 20
102.4311
 30
0.0
 10
-116.8674
 20
100.543
 30
0.0
 10
-115.7662
 20
98.7557
 30
0.0
 10
-115.7662
 20
98.7557
 30
0.0
 10
-111.5141
 20
91.9954
 30
0.0
 10
-104.7325
 20
87.2266
 30
0.0
 10
-96.9309
 20
85.5176
 30
0.0
 10
-96.9309
 20
85.5176
 30
0.0
 10
-95.2663
 20
85.1531
 30
0.0
 10
-93.5541
 20
85.0581
 30
0.0
 10
-91.859
 20
85.2377
 30
0.0
 10
-91.859
 20
85.2377
 30
0.0
 10
-94.5425
 20
84.9259
 30
0.0
 10
-97.1305
 20
84.057
 30
0.0
 10
-99.4578
 20
82.6852
 30
0.0
 10
-99.4578
 20
82.6852
 30
0.0
 10
-101.7923
 20
81.3091
 30
0.0
 10
-103.7658
 20
79.3977
 30
0.0
 10
-105.216
 20
77.1082
 30
0.0
 10
-105.216
 20
77.1082
 30
0.0
 10
-107.5149
 20
73.478
 30
0.0
 10
-108.8691
 20
69.3316
 30
0.0
 10
-109.1534
 20
65.0441
 30
0.0
 10
-109.1534
 20
65.0441
 30
0.0
 10
-109.4408
 20
60.7049
 30
0.0
 10
-108.2779
 20
56.3958
 30
0.0
 10
-105.8443
 20
52.7921
 30
0.0
 10
-105.8443
 20
52.7921
 30
0.0
 10
-104.5464
 20
50.8693
 30
0.0
 10
-103.2526
 20
48.9434
 30
0.0
 10
-101.9629
 20
47.0156
 30
0.0
 10
-101.9629
 20
47.0156
 30
0.0
 10
-100.7346
 20
45.1794
 30
0.0
 10
-99.8824
 20
43.1175
 30
0.0
 10
-99.4556
 20
40.9502
 30
0.0
 10
-99.4556
 20
40.9502
 30
0.0
 10
-99.1449
 20
39.3724
 30
0.0
 10
-99.24
 20
37.7405
 30
0.0
 10
-99.7323
 20
36.21
 30
0.0
 10
-99.7323
 20
36.21
 30
0.0
 10
-100.5646
 20
33.6192
 30
0.0
 10
-102.5024
 20
31.529
 30
0.0
 10
-105.021
 20
30.5006
 30
0.0
 10
-105.021
 20
30.5006
 30
0.0
 10
-107.4177
 20
29.5534
 30
0.0
 10
-110.1075
 20
29.6761
 30
0.0
 10
-112.4087
 20
30.8368
 30
0.0
 10
-112.4087
 20
30.8368
 30
0.0
 10
-113.3231
 20
31.2979
 30
0.0
 10
-114.111
 20
31.9769
 30
0.0
 10
-114.7032
 20
32.8124
 30
0.0
 10
-114.7032
 20
32.8124
 30
0.0
 10
-115.301
 20
33.6564
 30
0.0
 10
-115.6173
 20
34.6681
 30
0.0
 10
-115.6079
 20
35.702
 30
0.0
 10
-115.6079
 20
35.702
 30
0.0
 10
-114.1233
 20
36.2588
 30
0.0
 10
-112.5636
 20
36.5909
 30
0.0
 10
-110.9808
 20
36.6878
 30
0.0
 10
-110.9808
 20
36.6878
 30
0.0
 10
-109.2456
 20
36.7943
 30
0.0
 10
-107.7689
 20
37.9861
 30
0.0
 10
-107.3011
 20
39.6607
 30
0.0
 10
-107.3011
 20
39.6607
 30
0.0
 10
-106.7361
 20
41.6786
 30
0.0
 10
-106.8239
 20
43.8226
 30
0.0
 10
-107.5527
 20
45.7878
 30
0.0
 10
-107.5527
 20
45.7878
 30
0.0
 10
-108.3123
 20
47.834
 30
0.0
 10
-110.0741
 20
49.3413
 30
0.0
 10
-112.2135
 20
49.7725
 30
0.0
 10
-112.2135
 20
49.7725
 30
0.0
 10
-115.2222
 20
50.3792
 30
0.0
 10
-118.3463
 20
49.8941
 30
0.0
 10
-121.0287
 20
48.4023
 30
0.0
 10
-121.0287
 20
48.4023
 30
0.0
 10
-123.7233
 20
46.9039
 30
0.0
 10
-125.7423
 20
44.4343
 30
0.0
 10
-126.6741
 20
41.4953
 30
0.0
 10
-126.6741
 20
41.4953
 30
0.0
 10
-127.3091
 20
39.4885
 30
0.0
 10
-127.4441
 20
37.3577
 30
0.0
 10
-127.068
 20
35.287
 30
0.0
 10
-127.068
 20
35.287
 30
0.0
 10
-127.6603
 20
36.3022
 30
0.0
 10
-128.4426
 20
37.1922
 30
0.0
 10
-129.3738
 20
37.9095
 30
0.0
 10
-129.3738
 20
37.9095
 30
0.0
 10
-130.2977
 20
38.6213
 30
0.0
 10
-131.2887
 20
39.2418
 30
0.0
 10
-132.3328
 20
39.7624
 30
0.0
 10
-132.3328
 20
39.7624
 30
0.0
 10
-135.0051
 20
41.0941
 30
0.0
 10
-138.1248
 20
41.1869
 30
0.0
 10
-140.8706
 20
40.0146
 30
0.0
 10
-140.8706
 20
40.0146
 30
0.0
 10
-143.5335
 20
38.8779
 30
0.0
 10
-145.8548
 20
37.0706
 30
0.0
 10
-147.6098
 20
34.767
 30
0.0
 10
-147.6098
 20
34.767
 30
0.0
 10
-149.1022
 20
32.808
 30
0.0
 10
-149.9072
 20
30.4134
 30
0.0
 10
-149.9001
 20
27.9505
 30
0.0
 10
-149.9001
 20
27.9505
 30
0.0
 10
-149.8929
 20
25.417
 30
0.0
 10
-148.6861
 20
23.0384
 30
0.0
 10
-146.6449
 20
21.5378
 30
0.0
 10
-146.6449
 20
21.5378
 30
0.0
 10
-144.2135
 20
19.7504
 30
0.0
 10
-141.0457
 20
19.3154
 30
0.0
 10
-138.2236
 20
20.3832
 30
0.0
 10
-138.2236
 20
20.3832
 30
0.0
 10
-135.3379
 20
21.4751
 30
0.0
 10
-133.3707
 20
24.1641
 30
0.0
 10
-133.2067
 20
27.2448
 30
0.0
 10
-133.2067
 20
27.2448
 30
0.0
 10
-133.1362
 20
28.5555
 30
0.0
 10
-133.4229
 20
29.8606
 30
0.0
 10
-134.0362
 20
31.0212
 30
0.0
 10
-134.0362
 20
31.0212
 30
0.0
 10
-134.6846
 20
32.2474
 30
0.0
 10
-135.952
 20
33.0192
 30
0.0
 10
-137.3387
 20
33.0309
 30
0.0
 10
-137.3387
 20
33.0309
 30
0.0
 10
-138.0864
 20
33.0369
 30
0.0
 10
-138.8337
 20
32.9947
 30
0.0
 10
-139.5766
 20
32.9047
 30
0.0
 10
-139.5766
 20
32.9047
 30
0.0
 10
-140.3233
 20
32.8141
 30
0.0
 10
-141.0495
 20
32.599
 30
0.0
 10
-141.7256
 20
32.2691
 30
0.0
 10
-141.7256
 20
32.2691
 30
0.0
 10
-142.0596
 20
33.2107
 30
0.0
 10
-141.8824
 20
34.2592
 30
0.0
 10
-141.2585
 20
35.0403
 30
0.0
 10
-141.2585
 20
35.0403
 30
0.0
 10
-140.6617
 20
35.7866
 30
0.0
 10
-139.8633
 20
36.3472
 30
0.0
 10
-138.9583
 20
36.6548
 30
0.0
 10
-138.9583
 20
36.6548
 30
0.0
 10
-137.1526
 20
37.2689
 30
0.0
 10
-135.1579
 20
36.941
 30
0.0
 10
-133.6424
 20
35.7826
 30
0.0
 10
-133.6424
 20
35.7826
 30
0.0
 10
-131.1533
 20
33.8802
 30
0.0
 10
-128.8113
 20
31.7919
 30
0.0
 10
-126.6373
 20
29.5355
 30
0.0
 10
-126.6373
 20
29.5355
 30
0.0
 10
-126.0723
 20
28.9489
 30
0.0
 10
-125.4823
 20
28.3861
 30
0.0
 10
-124.8701
 20
27.8494
 30
0.0
 10
-124.8701
 20
27.8494
 30
0.0
 10
-120.6115
 20
24.1647
 30
0.0
 10
-115.2528
 20
22.0006
 30
0.0
 10
-109.63
 20
21.6955
 30
0.0
 10
-109.63
 20
21.6955
 30
0.0
 10
-105.5449
 20
21.4767
 30
0.0
 10
-101.5468
 20
22.9279
 30
0.0
 10
-98.5533
 20
25.7158
 30
0.0
 10
-98.5533
 20
25.7158
 30
0.0
 10
-95.5597
 20
28.5039
 30
0.0
 10
-93.829
 20
32.3692
 30
0.0
 10
-93.7581
 20
36.4587
 30
0.0
 10
-93.7581
 20
36.4587
 30
0.0
 10
-93.7346
 20
39.5179
 30
0.0
 10
-94.6197
 20
42.5131
 30
0.0
 10
-96.3014
 20
45.0683
 30
0.0
 10
-96.3014
 20
45.0683
 30
0.0
 10
-95.7898
 20
44.9015
 30
0.0
 10
-95.2703
 20
44.7582
 30
0.0
 10
-94.7453
 20
44.6393
 30
0.0
 10
-94.7453
 20
44.6393
 30
0.0
 10
-94.2208
 20
44.5199
 30
0.0
 10
-93.6958
 20
44.4022
 30
0.0
 10
-93.1707
 20
44.286
 30
0.0
 10
-93.1707
 20
44.286
 30
0.0
 10
-89.4877
 20
42.7609
 30
0.0
 10
-85.3673
 20
42.6843
 30
0.0
 10
-81.6304
 20
44.072
 30
0.0
 10
-81.6304
 20
44.072
 30
0.0
 10
-77.9663
 20
45.4334
 30
0.0
 10
-74.7044
 20
47.6912
 30
0.0
 10
-72.141
 20
50.6426
 30
0.0
 10
-72.141
 20
50.6426
 30
0.0
 10
-72.141
 20
50.6426
 30
0.0
 10
-72.141
 20
72.9801
 30
0.0
 10
-72.141
 20
72.9801
 30
0.0
 10
-72.141
 20
72.9801
 30
0.0
 10
-72.6837
 20
74.1047
 30
0.0
 10
-73.5538
 20
75.0375
 30
0.0
 10
-74.6379
 20
75.657
 30
0.0
 10
-74.6379
 20
75.657
 30
0.0
 10
-78.4025
 20
77.8087
 30
0.0
 10
-82.53
 20
79.2478
 30
0.0
 10
-86.8169
 20
79.9017
 30
0.0
 10
-86.8169
 20
79.9017
 30
0.0
 10
-89.7549
 20
80.35
 30
0.0
 10
-92.7568
 20
79.8205
 30
0.0
 10
-95.3636
 20
78.3932
 30
0.0
 10
-95.3636
 20
78.3932
 30
0.0
 10
-98.022
 20
76.9376
 30
0.0
 10
-99.9177
 20
74.4041
 30
0.0
 10
-100.5617
 20
71.4429
 30
0.0
 10
-100.5617
 20
71.4429
 30
0.0
 10
-101.294
 20
68.0771
 30
0.0
 10
-101.2074
 20
64.5863
 30
0.0
 10
-100.3078
 20
61.2616
 30
0.0
 10
-100.3078
 20
61.2616
 30
0.0
 10
-99.5773
 20
58.5908
 30
0.0
 10
-97.3644
 20
56.5862
 30
0.0
 10
-94.6348
 20
56.1223
 30
0.0
 10
-94.6348
 20
56.1223
 30
0.0
 10
-91.905
 20
55.6585
 30
0.0
 10
-89.1776
 20
56.7858
 30
0.0
 10
-87.6058
 20
59.0653
 30
0.0
 10
-87.6058
 20
59.0653
 30
0.0
 10
-86.4842
 20
60.6826
 30
0.0
 10
-85.2918
 20
62.25
 30
0.0
 10
-84.0335
 20
63.7623
 30
0.0
 10
-84.0335
 20
63.7623
 30
0.0
 10
-82.6
 20
65.4868
 30
0.0
 10
-80.1103
 20
65.8862
 30
0.0
 10
-78.207
 20
64.7013
 30
0.0
 10
-78.207
 20
64.7013
 30
0.0
 10
-76.2573
 20
63.4884
 30
0.0
 10
-74.9334
 20
61.4854
 30
0.0
 10
-74.5822
 20
59.216
 30
0.0
 10
-74.5822
 20
59.216
 30
0.0
 10
-74.2306
 20
56.9467
 30
0.0
 10
-74.8957
 20
54.6273
 30
0.0
 10
-76.3873
 20
52.8811
 30
0.0
 10
-76.3873
 20
52.8811
 30
0.0
 10
-80.9754
 20
47.5167
 30
0.0
 10
-88.4665
 20
45.6484
 30
0.0
 10
-95.0409
 20
48.2184
 30
0.0
 10
-95.0409
 20
48.2184
 30
0.0
 10
-99.2229
 20
49.8541
 30
0.0
 10
-102.6196
 20
53.0344
 30
0.0
 10
-104.5297
 20
57.098
 30
0.0
 10
-104.5297
 20
57.098
 30
0.0
 10
-106.4566
 20
61.1971
 30
0.0
 10
-106.5384
 20
65.9274
 30
0.0
 10
-104.757
 20
70.0915
 30
0.0
 10
-104.757
 20
70.0915
 30
0.0
 10
-102.6101
 20
75.1103
 30
0.0
 10
-98.8433
 20
79.2683
 30
0.0
 10
-94.0619
 20
81.9013
 30
0.0
 10
-94.0619
 20
81.9013
 30
0.0
 10
-87.3048
 20
85.6221
 30
0.0
 10
-79.831
 20
87.8662
 30
0.0
 10
-72.141
 20
88.4833
 30
0.0
 10
-72.141
 20
88.4833
 30
0.0
 10
-72.141
 20
88.4833
 30
0.0
 10
-72.141
 20
92.9832
 30
0.0
 10
-72.141
 20
92.9832
 30
0.0
  0
SPLINE
  5
47
330
1F
100
AcDbEntity
  8
layer 1
 62
     7
100
AcDbSpline
210
0.0
220
0.0
230
1.0
 70
    11
 71
     3
 72
    24
 73
    20
 74
     0
 42
0.0000000001
 43
0.0000000001
 12
1.0
 22
0.0
 32
0.0
 13
1.0
 23
0.0
 33
0.0
 40
0.0
 40
0.0
 40
0.0
 40
0.0
 40
0.1666666666666667
 40
0.1666666666666667
 40
0.1666666666666667
 40
0.1666666666666667
 40
0.3333333333333333
 40
0.3333333333333333
 40
0.3333333333333333
 40
0.3333333333333333
 40
0.5
 40
0.5
 40
0.5
 40
0.5
 40
0.6666666666666666
 40
0.6666666666666666
 40
0.6666666666666666
 40
0.6666666666666666
 40
1.0
 40
1.0
 40
1.0
 40
1.0
 10
-180.7005
 20
40.0307
 30
0.0
 10
-180.7005
 20
40.0307
 30
0.0
 10
-180.7005
 20
55.0667
 30
0.0
 10
-180.7005
 20
55.0667
 30
0.0
 10
-180.7005
 20
55.0667
 30
0.0
 10
-179.0954
 20
55.2112
 30
0.0
 10
-177.477
 20
55.074
 30
0.0
 10
-175.9185
 20
54.6616
 30
0.0
 10
-175.9185
 20
54.6616
 30
0.0
 10
-174.2507
 20
54.2206
 30
0.0
 10
-172.9688
 20
52.8805
 30
0.0
 10
-172.6005
 20
51.1942
 30
0.0
 10
-172.6005
 20
51.1942
 30
0.0
 10
-171.71
 20
47.1185
 30
0.0
 10
-173.7527
 20
42.9636
 30
0.0
 10
-177.5208
 20
41.173
 30
0.0
 10
-177.5208
 20
41.173
 30
0.0
 10
-178.5404
 20
40.6892
 30
0.0
 10
-179.606
 20
40.3064
 30
0.0
 10
-180.7005
 20
40.0307
 30
0.0
  0
SPLINE
  5
48
330
1F
100
AcDbEntity
  8
layer 1
 62
     7
100
AcDbSpline
210
0.0
220
0.0
230
1.0
 70
    11
 71
     3
 72
    76
 73
    72
 74
     0
 42
0.0000000001
 43
0.0000000001
 12
1.0
 22
0.0
 32
0.0
 13
1.0
 23
0.0
 33
0.0
 40
0.0
 40
0.0
 40
0.0
 40
0.0
 40
0.0526315789473684
 40
0.0526315789473684
 40
0.0526315789473684
 40
0.0526315789473684
 40
0.1052631578947368
 40
0.1052631578947368
 40
0.1052631578947368
 40
0.1052631578947368
 40
0.1578947368421053
 40
0.1578947368421053
 40
0.1578947368421053
 40
0.1578947368421053
 40
0.2105263157894737
 40
0.2105263157894737
 40
0.2105263157894737
 40
0.2105263157894737
 40
0.2631578947368421
 40
0.2631578947368421
 40
0.2631578947368421
 40
0.2631578947368421
 40
0.3157894736842105
 40
0.3157894736842105
 40
0.3157894736842105
 40
0.3157894736842105
 40
0.3684210526315789
 40
0.3684210526315789
 40
0.3684210526315789
 40
0.3684210526315789
 40
0.4210526315789473
 40
0.4210526315789473
 40
0.4210526315789473
 40
0.4210526315789473
 40
0.4736842105263158
 40
0.4736842105263158
 40
0.4736842105263158
 40
0.4736842105263158
 40
0.5263157894736842
 40
0.5263157894736842
 40
0.5263157894736842
 40
0.5263157894736842
 40
0.5789473684210527
 40
0.5789473684210527
 40
0.5789473684210527
 40
0.5789473684210527
 40
0.631578947368421
 40
0.631578947368421
 40
0.631578947368421
 40
0.631578947368421
 40
0.6842105263157895
 40
0.6842105263157895
 40
0.6842105263157895
 40
0.6842105263157895
 40
0.7368421052631579
 40
0.7368421052631579
 40
0.7368421052631579
 40
0.7368421052631579
 40
0.7894736842105263
 40
0.7894736842105263
 40
0.7894736842105263
 40
0.7894736842105263
 40
0.8421052631578947
 40
0.8421052631578947
 40
0.8421052631578947
 40
0.8421052631578947
 40
0.8947368421052632
 40
0.8947368421052632
 40
0.8947368421052632
 40
0.8947368421052632
 40
1.0
 40
1.0
 40
1.0
 40
1.0
 10
-180.7005
 20
22.004
 30
0.0
 10
-180.7005
 20
22.004
 30
0.0
 10
-180.7005
 20
24.9615
 30
0.0
 10
-180.7005
 20
24.9615
 30
0.0
 10
-180.7005
 20
24.9615
 30
0.0
 10
-178.4614
 20
22.6406
 30
0.0
 10
-175.6751
 20
20.9211
 30
0.0
 10
-172.5961
 20
19.9616
 30
0.0
 10
-172.5961
 20
19.9616
 30
0.0
 10
-169.4281
 20
18.9744
 30
0.0
 10
-165.9928
 20
19.3743
 30
0.0
 10
-163.1376
 20
21.0656
 30
0.0
 10
-163.1376
 20
21.0656
 30
0.0
 10
-162.0802
 20
21.6923
 30
0.0
 10
-161.3848
 20
22.7834
 30
0.0
 10
-161.2636
 20
24.0064
 30
0.0
 10
-161.2636
 20
24.0064
 30
0.0
 10
-161.1897
 20
24.7525
 30
0.0
 10
-161.6687
 20
25.4409
 30
0.0
 10
-162.3947
 20
25.6298
 30
0.0
 10
-162.3947
 20
25.6298
 30
0.0
 10
-163.0204
 20
25.7869
 30
0.0
 10
-163.6787
 20
25.5597
 30
0.0
 10
-164.0732
 20
25.0491
 30
0.0
 10
-164.0732
 20
25.0491
 30
0.0
 10
-164.4377
 20
24.5787
 30
0.0
 10
-164.8689
 20
24.1635
 30
0.0
 10
-165.3528
 20
23.8169
 30
0.0
 10
-165.3528
 20
23.8169
 30
0.0
 10
-167.2424
 20
22.4907
 30
0.0
 10
-169.8348
 20
22.8351
 30
0.0
 10
-171.3175
 20
24.6042
 30
0.0
 10
-171.3175
 20
24.6042
 30
0.0
 10
-172.6899
 20
26.2427
 30
0.0
 10
-173.1278
 20
28.4711
 30
0.0
 10
-172.48
 20
30.5078
 30
0.0
 10
-172.48
 20
30.5078
 30
0.0
 10
-171.7081
 20
32.9324
 30
0.0
 10
-170.0775
 20
34.9937
 30
0.0
 10
-167.8963
 20
36.3038
 30
0.0
 10
-167.8963
 20
36.3038
 30
0.0
 10
-165.6666
 20
37.6433
 30
0.0
 10
-162.932
 20
37.8478
 30
0.0
 10
-160.5273
 20
36.8556
 30
0.0
 10
-160.5273
 20
36.8556
 30
0.0
 10
-157.1833
 20
35.4765
 30
0.0
 10
-154.7103
 20
32.5647
 30
0.0
 10
-153.8876
 20
29.0422
 30
0.0
 10
-153.8876
 20
29.0422
 30
0.0
 10
-153.0614
 20
25.508
 30
0.0
 10
-154.0514
 20
21.7912
 30
0.0
 10
-156.5232
 20
19.1331
 30
0.0
 10
-156.5232
 20
19.1331
 30
0.0
 10
-159.4324
 20
16.0053
 30
0.0
 10
-163.7398
 20
14.5768
 30
0.0
 10
-167.9423
 20
15.3424
 30
0.0
 10
-167.9423
 20
15.3424
 30
0.0
 10
-170.703
 20
15.8457
 30
0.0
 10
-173.3756
 20
16.7542
 30
0.0
 10
-175.8713
 20
18.0376
 30
0.0
 10
-175.8713
 20
18.0376
 30
0.0
 10
-176.8074
 20
18.5187
 30
0.0
 10
-177.7065
 20
19.0704
 30
0.0
 10
-178.5592
 20
19.6877
 30
0.0
 10
-178.5592
 20
19.6877
 30
0.0
 10
-179.4193
 20
20.3099
 30
0.0
 10
-180.1477
 20
21.0971
 30
0.0
 10
-180.7005
 20
22.004
 30
0.0
 10
-180.7005
 20
22.004
 30
0.0
 10
-180.7005
 20
22.004
 30
0.0
 10
-180.7005
 20
22.004
 30
0.0
 10
-180.7005
 20
22.004
 30
0.0
  0
SPLINE
  5
49
330
1F
100
AcDbEntity
  8
layer 1
 62
     7
100
AcDbSpline
210
0.0
220
0.0
230
1.0
 70
    11
 71
     3
 72
   648
 73
   644
 74
     0
 42
0.0000000001
 43
0.0000000001
 12
1.0
 22
0.0
 32
0.0
 13
1.0
 23
0.0
 33
0.0
 40
0.0
 40
0.0
 40
0.0
 40
0.0
 40
0.0061728395061728
 40
0.0061728395061728
 40
0.0061728395061728
 40
0.0061728395061728
 40
0.0123456790123457
 40
0.0123456790123457
 40
0.0123456790123457
 40
0.0123456790123457
 40
0.0185185185185185
 40
0.0185185185185185
 40
0.0185185185185185
 40
0.0185185185185185
 40
0.0246913580246914
 40
0.0246913580246914
 40
0.0246913580246914
 40
0.0246913580246914
 40
0.0308641975308642
 40
0.0308641975308642
 40
0.0308641975308642
 40
0.0308641975308642
 40
0.037037037037037
 40
0.037037037037037
 40
0.037037037037037
 40
0.037037037037037
 40
0.0432098765432099
 40
0.0432098765432099
 40
0.0432098765432099
 40
0.0432098765432099
 40
0.0493827160493827
 40
0.0493827160493827
 40
0.0493827160493827
 40
0.0493827160493827
 40
0.0555555555555556
 40
0.0555555555555556
 40
0.0555555555555556
 40
0.0555555555555556
 40
0.0617283950617284
 40
0.0617283950617284
 40
0.0617283950617284
 40
0.0617283950617284
 40
0.0679012345679012
 40
0.0679012345679012
 40
0.0679012345679012
 40
0.0679012345679012
 40
0.0740740740740741
 40
0.0740740740740741
 40
0.0740740740740741
 40
0.0740740740740741
 40
0.0802469135802469
 40
0.0802469135802469
 40
0.0802469135802469
 40
0.0802469135802469
 40
0.0864197530864197
 40
0.0864197530864197
 40
0.0864197530864197
 40
0.0864197530864197
 40
0.0925925925925926
 40
0.0925925925925926
 40
0.0925925925925926
 40
0.0925925925925926
 40
0.0987654320987654
 40
0.0987654320987654
 40
0.0987654320987654
 40
0.0987654320987654
 40
0.1049382716049383
 40
0.1049382716049383
 40
0.1049382716049383
 40
0.1049382716049383
 40
0.1111111111111111
 40
0.1111111111111111
 40
0.1111111111111111
 40
0.1111111111111111
 40
0.1172839506172839
 40
0.1172839506172839
 40
0.1172839506172839
 40
0.1172839506172839
 40
0.1234567901234568
 40
0.1234567901234568
 40
0.1234567901234568
 40
0.1234567901234568
 40
0.1296296296296296
 40
0.1296296296296296
 40
0.1296296296296296
 40
0.1296296296296296
 40
0.1358024691358025
 40
0.1358024691358025
 40
0.1358024691358025
 40
0.1358024691358025
 40
0.1419753086419753
 40
0.1419753086419753
 40
0.1419753086419753
 40
0.1419753086419753
 40
0.1481481481481481
 40
0.1481481481481481
 40
0.1481481481481481
 40
0.1481481481481481
 40
0.154320987654321
 40
0.154320987654321
 40
0.154320987654321
 40
0.154320987654321
 40
0.1604938271604938
 40
0.1604938271604938
 40
0.1604938271604938
 40
0.1604938271604938
 40
0.1666666666666667
 40
0.1666666666666667
 40
0.1666666666666667
 40
0.1666666666666667
 40
0.1728395061728395
 40
0.1728395061728395
 40
0.1728395061728395
 40
0.1728395061728395
 40
0.1790123456790123
 40
0.1790123456790123
 40
0.1790123456790123
 40
0.1790123456790123
 40
0.1851851851851852
 40
0.1851851851851852
 40
0.1851851851851852
 40
0.1851851851851852
 40
0.191358024691358
 40
0.191358024691358
 40
0.191358024691358
 40
0.191358024691358
 40
0.1975308641975309
 40
0.1975308641975309
 40
0.1975308641975309
 40
0.1975308641975309
 40
0.2037037037037037
 40
0.2037037037037037
 40
0.2037037037037037
 40
0.2037037037037037
 40
0.2098765432098765
 40
0.2098765432098765
 40
0.2098765432098765
 40
0.2098765432098765
 40
0.2160493827160494
 40
0.2160493827160494
 40
0.2160493827160494
 40
0.2160493827160494
 40
0.2222222222222222
 40
0.2222222222222222
 40
0.2222222222222222
 40
0.2222222222222222
 40
0.228395061728395
 40
0.228395061728395
 40
0.228395061728395
 40
0.228395061728395
 40
0.2345679012345679
 40
0.2345679012345679
 40
0.2345679012345679
 40
0.2345679012345679
 40
0.2407407407407407
 40
0.2407407407407407
 40
0.2407407407407407
 40
0.2407407407407407
 40
0.2469135802469136
 40
0.2469135802469136
 40
0.2469135802469136
 40
0.2469135802469136
 40
0.2530864197530864
 40
0.2530864197530864
 40
0.2530864197530864
 40
0.2530864197530864
 40
0.2592592592592592
 40
0.2592592592592592
 40
0.2592592592592592
 40
0.2592592592592592
 40
0.2654320987654321
 40
0.2654320987654321
 40
0.2654320987654321
 40
0.2654320987654321
 40
0.2716049382716049
 40
0.2716049382716049
 40
0.2716049382716049
 40
0.2716049382716049
 40
0.2777777777777778
 40
0.2777777777777778
 40
0.2777777777777778
 40
0.2777777777777778
 40
0.2839506172839506
 40
0.2839506172839506
 40
0.2839506172839506
 40
0.2839506172839506
 40
0.2901234567901235
 40
0.2901234567901235
 40
0.2901234567901235
 40
0.2901234567901235
 40
0.2962962962962963
 40
0.2962962962962963
 40
0.2962962962962963
 40
0.2962962962962963
 40
0.3024691358024691
 40
0.3024691358024691
 40
0.3024691358024691
 40
0.3024691358024691
 40
0.308641975308642
 40
0.308641975308642
 40
0.308641975308642
 40
0.308641975308642
 40
0.3148148148148148
 40
0.3148148148148148
 40
0.3148148148148148
 40
0.3148148148148148
 40
0.3209876543209876
 40
0.3209876543209876
 40
0.3209876543209876
 40
0.3209876543209876
 40
0.3271604938271605
 40
0.3271604938271605
 40
0.3271604938271605
 40
0.3271604938271605
 40
0.3333333333333333
 40
0.3333333333333333
 40
0.3333333333333333
 40
0.3333333333333333
 40
0.3395061728395062
 40
0.3395061728395062
 40
0.3395061728395062
 40
0.3395061728395062
 40
0.345679012345679
 40
0.345679012345679
 40
0.345679012345679
 40
0.345679012345679
 40
0.3518518518518519
 40
0.3518518518518519
 40
0.3518518518518519
 40
0.3518518518518519
 40
0.3580246913580247
 40
0.3580246913580247
 40
0.3580246913580247
 40
0.3580246913580247
 40
0.3641975308641975
 40
0.3641975308641975
 40
0.3641975308641975
 40
0.3641975308641975
 40
0.3703703703703703
 40
0.3703703703703703
 40
0.3703703703703703
 40
0.3703703703703703
 40
0.3765432098765432
 40
0.3765432098765432
 40
0.3765432098765432
 40
0.3765432098765432
 40
0.382716049382716
 40
0.382716049382716
 40
0.382716049382716
 40
0.382716049382716
 40
0.3888888888888889
 40
0.3888888888888889
 40
0.3888888888888889
 40
0.3888888888888889
 40
0.3950617283950617
 40
0.3950617283950617
 40
0.3950617283950617
 40
0.3950617283950617
 40
0.4012345679012346
 40
0.4012345679012346
 40
0.4012345679012346
 40
0.4012345679012346
 40
0.4074074074074074
 40
0.4074074074074074
 40
0.4074074074074074
 40
0.4074074074074074
 40
0.4135802469135803
 40
0.4135802469135803
 40
0.4135802469135803
 40
0.4135802469135803
 40
0.4197530864197531
 40
0.4197530864197531
 40
0.4197530864197531
 40
0.4197530864197531
 40
0.4259259259259259
 40
0.4259259259259259
 40
0.4259259259259259
 40
0.4259259259259259
 40
0.4320987654320987
 40
0.4320987654320987
 40
0.4320987654320987
 40
0.4320987654320987
 40
0.4382716049382716
 40
0.4382716049382716
 40
0.4382716049382716
 40
0.4382716049382716
 40
0.4444444444444444
 40
0.4444444444444444
 40
0.4444444444444444
 40
0.4444444444444444
 40
0.4506172839506173
 40
0.4506172839506173
 40
0.4506172839506173
 40
0.4506172839506173
 40
0.4567901234567901
 40
0.4567901234567901
 40
0.4567901234567901
 40
0.4567901234567901
 40
0.462962962962963
 40
0.462962962962963
 40
0.462962962962963
 40
0.462962962962963
 40
0.4691358024691358
 40
0.4691358024691358
 40
0.4691358024691358
 40
0.4691358024691358
 40
0.4753086419753086
 40
0.4753086419753086
 40
0.4753086419753086
 40
0.4753086419753086
 40
0.4814814814814815
 40
0.4814814814814815
 40
0.4814814814814815
 40
0.4814814814814815
 40
0.4876543209876543
 40
0.4876543209876543
 40
0.4876543209876543
 40
0.4876543209876543
 40
0.4938271604938271
 40
0.4938271604938271
 40
0.4938271604938271
 40
0.4938271604938271
 40
0.5
 40
0.5
 40
0.5
 40
0.5
 40
0.5061728395061729
 40
0.5061728395061729
 40
0.5061728395061729
 40
0.5061728395061729
 40
0.5123456790123457
 40
0.5123456790123457
 40
0.5123456790123457
 40
0.5123456790123457
 40
0.5185185185185185
 40
0.5185185185185185
 40
0.5185185185185185
 40
0.5185185185185185
 40
0.5246913580246914
 40
0.5246913580246914
 40
0.5246913580246914
 40
0.5246913580246914
 40
0.5308641975308642
 40
0.5308641975308642
 40
0.5308641975308642
 40
0.5308641975308642
 40
0.5370370370370371
 40
0.5370370370370371
 40
0.5370370370370371
 40
0.5370370370370371
 40
0.5432098765432098
 40
0.5432098765432098
 40
0.5432098765432098
 40
0.5432098765432098
 40
0.5493827160493827
 40
0.5493827160493827
 40
0.5493827160493827
 40
0.5493827160493827
 40
0.5555555555555556
 40
0.5555555555555556
 40
0.5555555555555556
 40
0.5555555555555556
 40
0.5617283950617284
 40
0.5617283950617284
 40
0.5617283950617284
 40
0.5617283950617284
 40
0.5679012345679012
 40
0.5679012345679012
 40
0.5679012345679012
 40
0.5679012345679012
 40
0.5740740740740741
 40
0.5740740740740741
 40
0.5740740740740741
 40
0.5740740740740741
 40
0.5802469135802469
 40
0.5802469135802469
 40
0.5802469135802469
 40
0.5802469135802469
 40
0.5864197530864198
 40
0.5864197530864198
 40
0.5864197530864198
 40
0.5864197530864198
 40
0.5925925925925926
 40
0.5925925925925926
 40
0.5925925925925926
 40
0.5925925925925926
 40
0.5987654320987654
 40
0.5987654320987654
 40
0.5987654320987654
 40
0.5987654320987654
 40
0.6049382716049383
 40
0.6049382716049383
 40
0.6049382716049383
 40
0.6049382716049383
 40
0.6111111111111112
 40
0.6111111111111112
 40
0.6111111111111112
 40
0.6111111111111112
 40
0.6172839506172839
 40
0.6172839506172839
 40
0.6172839506172839
 40
0.6172839506172839
 40
0.6234567901234568
 40
0.6234567901234568
 40
0.6234567901234568
 40
0.6234567901234568
 40
0.6296296296296297
 40
0.6296296296296297
 40
0.6296296296296297
 40
0.6296296296296297
 40
0.6358024691358025
 40
0.6358024691358025
 40
0.6358024691358025
 40
0.6358024691358025
 40
0.6419753086419753
 40
0.6419753086419753
 40
0.6419753086419753
 40
0.6419753086419753
 40
0.6481481481481481
 40
0.6481481481481481
 40
0.6481481481481481
 40
0.6481481481481481
 40
0.654320987654321
 40
0.654320987654321
 40
0.654320987654321
 40
0.654320987654321
 40
0.6604938271604939
 40
0.6604938271604939
 40
0.6604938271604939
 40
0.6604938271604939
 40
0.6666666666666666
 40
0.6666666666666666
 40
0.6666666666666666
 40
0.6666666666666666
 40
0.6728395061728395
 40
0.6728395061728395
 40
0.6728395061728395
 40
0.6728395061728395
 40
0.6790123456790124
 40
0.6790123456790124
 40
0.6790123456790124
 40
0.6790123456790124
 40
0.6851851851851852
 40
0.6851851851851852
 40
0.6851851851851852
 40
0.6851851851851852
 40
0.691358024691358
 40
0.691358024691358
 40
0.691358024691358
 40
0.691358024691358
 40
0.6975308641975309
 40
0.6975308641975309
 40
0.6975308641975309
 40
0.6975308641975309
 40
0.7037037037037037
 40
0.7037037037037037
 40
0.7037037037037037
 40
0.7037037037037037
 40
0.7098765432098766
 40
0.7098765432098766
 40
0.7098765432098766
 40
0.7098765432098766
 40
0.7160493827160493
 40
0.7160493827160493
 40
0.7160493827160493
 40
0.7160493827160493
 40
0.7222222222222222
 40
0.7222222222222222
 40
0.7222222222222222
 40
0.7222222222222222
 40
0.7283950617283951
 40
0.7283950617283951
 40
0.7283950617283951
 40
0.7283950617283951
 40
0.7345679012345679
 40
0.7345679012345679
 40
0.7345679012345679
 40
0.7345679012345679
 40
0.7407407407407407
 40
0.7407407407407407
 40
0.7407407407407407
 40
0.7407407407407407
 40
0.7469135802469136
 40
0.7469135802469136
 40
0.7469135802469136
 40
0.7469135802469136
 40
0.7530864197530864
 40
0.7530864197530864
 40
0.7530864197530864
 40
0.7530864197530864
 40
0.7592592592592593
 40
0.7592592592592593
 40
0.7592592592592593
 40
0.7592592592592593
 40
0.7654320987654321
 40
0.7654320987654321
 40
0.7654320987654321
 40
0.7654320987654321
 40
0.7716049382716049
 40
0.7716049382716049
 40
0.7716049382716049
 40
0.7716049382716049
 40
0.7777777777777778
 40
0.7777777777777778
 40
0.7777777777777778
 40
0.7777777777777778
 40
0.7839506172839507
 40
0.7839506172839507
 40
0.7839506172839507
 40
0.7839506172839507
 40
0.7901234567901234
 40
0.7901234567901234
 40
0.7901234567901234
 40
0.7901234567901234
 40
0.7962962962962963
 40
0.7962962962962963
 40
0.7962962962962963
 40
0.7962962962962963
 40
0.8024691358024691
 40
0.8024691358024691
 40
0.8024691358024691
 40
0.8024691358024691
 40
0.808641975308642
 40
0.808641975308642
 40
0.808641975308642
 40
0.808641975308642
 40
0.8148148148148148
 40
0.8148148148148148
 40
0.8148148148148148
 40
0.8148148148148148
 40
0.8209876543209876
 40
0.8209876543209876
 40
0.8209876543209876
 40
0.8209876543209876
 40
0.8271604938271605
 40
0.8271604938271605
 40
0.8271604938271605
 40
0.8271604938271605
 40
0.8333333333333334
 40
0.8333333333333334
 40
0.8333333333333334
 40
0.8333333333333334
 40
0.8395061728395061
 40
0.8395061728395061
 40
0.8395061728395061
 40
0.8395061728395061
 40
0.845679012345679
 40
0.845679012345679
 40
0.845679012345679
 40
0.845679012345679
 40
0.8518518518518519
 40
0.8518518518518519
 40
0.8518518518518519
 40
0.8518518518518519
 40
0.8580246913580247
 40
0.8580246913580247
 40
0.8580246913580247
 40
0.8580246913580247
 40
0.8641975308641975
 40
0.8641975308641975
 40
0.8641975308641975
 40
0.8641975308641975
 40
0.8703703703703703
 40
0.8703703703703703
 40
0.8703703703703703
 40
0.8703703703703703
 40
0.8765432098765432
 40
0.8765432098765432
 40
0.8765432098765432
 40
0.8765432098765432
 40
0.8827160493827161
 40
0.8827160493827161
 40
0.8827160493827161
 40
0.8827160493827161
 40
0.8888888888888888
 40
0.8888888888888888
 40
0.8888888888888888
 40
0.8888888888888888
 40
0.8950617283950617
 40
0.8950617283950617
 40
0.8950617283950617
 40
0.8950617283950617
 40
0.9012345679012346
 40
0.9012345679012346
 40
0.9012345679012346
 40
0.9012345679012346
 40
0.9074074074074074
 40
0.9074074074074074
 40
0.9074074074074074
 40
0.9074074074074074
 40
0.9135802469135802
 40
0.9135802469135802
 40
0.9135802469135802
 40
0.9135802469135802
 40
0.9197530864197531
 40
0.9197530864197531
 40
0.9197530864197531
 40
0.9197530864197531
 40
0.9259259259259259
 40
0.9259259259259259
 40
0.9259259259259259
 40
0.9259259259259259
 40
0.9320987654320988
 40
0.9320987654320988
 40
0.9320987654320988
 40
0.9320987654320988
 40
0.9382716049382716
 40
0.9382716049382716
 40
0.9382716049382716
 40
0.9382716049382716
 40
0.9444444444444444
 40
0.9444444444444444
 40
0.9444444444444444
 40
0.9444444444444444
 40
0.9506172839506173
 40
0.9506172839506173
 40
0.9506172839506173
 40
0.9506172839506173
 40
0.9567901234567902
 40
0.9567901234567902
 40
0.9567901234567902
 40
0.9567901234567902
 40
0.9629629629629629
 40
0.9629629629629629
 40
0.9629629629629629
 40
0.9629629629629629
 40
0.9691358024691358
 40
0.9691358024691358
 40
0.9691358024691358
 40
0.9691358024691358
 40
0.9753086419753086
 40
0.9753086419753086
 40
0.9753086419753086
 40
0.9753086419753086
 40
0.9814814814814815
 40
0.9814814814814815
 40
0.9814814814814815
 40
0.9814814814814815
 40
0.9876543209876543
 40
0.9876543209876543
 40
0.9876543209876543
 40
0.9876543209876543
 40
1.0
 40
1.0
 40
1.0
 40
1.0
 10
-134.9636
 20
-108.8032
 30
0.0
 10
-132.6656
 20
-106.1718
 30
0.0
 10
-130.3361
 20
-103.5684
 30
0.0
 10
-127.9746
 20
-100.9932
 30
0.0
 10
-127.9746
 20
-100.9932
 30
0.0
 10
-125.29
 20
-98.1629
 30
0.0
 10
-122.5582
 20
-95.3773
 30
0.0
 10
-119.7802
 20
-92.6382
 30
0.0
 10
-119.7802
 20
-92.6382
 30
0.0
 10
-115.1943
 20
-88.1162
 30
0.0
 10
-111.5559
 20
-82.7286
 30
0.0
 10
-109.0734
 20
-76.7859
 30
0.0
 10
-109.0734
 20
-76.7859
 30
0.0
 10
-108.2194
 20
-74.6714
 30
0.0
 10
-107.5555
 20
-72.4846
 30
0.0
 10
-107.0899
 20
-70.2517
 30
0.0
 10
-107.0899
 20
-70.2517
 30
0.0
 10
-106.6238
 20
-68.0138
 30
0.0
 10
-106.4527
 20
-65.7247
 30
0.0
 10
-106.5828
 20
-63.4424
 30
0.0
 10
-106.5828
 20
-63.4424
 30
0.0
 10
-106.9445
 20
-58.022
 30
0.0
 10
-109.0951
 20
-52.8783
 30
0.0
 10
-112.7004
 20
-48.8147
 30
0.0
 10
-112.7004
 20
-48.8147
 30
0.0
 10
-115.0639
 20
-46.1522
 30
0.0
 10
-118.9097
 20
-45.395
 30
0.0
 10
-122.1037
 20
-46.9674
 30
0.0
 10
-122.1037
 20
-46.9674
 30
0.0
 10
-122.9048
 20
-47.3619
 30
0.0
 10
-123.581
 20
-47.9701
 30
0.0
 10
-124.0578
 20
-48.7259
 30
0.0
 10
-124.0578
 20
-48.7259
 30
0.0
 10
-124.5351
 20
-49.4826
 30
0.0
 10
-124.7834
 20
-50.3603
 30
0.0
 10
-124.774
 20
-51.2549
 30
0.0
 10
-124.774
 20
-51.2549
 30
0.0
 10
-124.7617
 20
-52.3583
 30
0.0
 10
-123.9405
 20
-53.2834
 30
0.0
 10
-122.846
 20
-53.4233
 30
0.0
 10
-122.846
 20
-53.4233
 30
0.0
 10
-121.8849
 20
-53.5472
 30
0.0
 10
-120.9153
 20
-53.5906
 30
0.0
 10
-119.9476
 20
-53.5533
 30
0.0
 10
-119.9476
 20
-53.5533
 30
0.0
 10
-118.113
 20
-53.4817
 30
0.0
 10
-116.5217
 20
-54.8124
 30
0.0
 10
-116.2627
 20
-56.6297
 30
0.0
 10
-116.2627
 20
-56.6297
 30
0.0
 10
-116.0216
 20
-58.3287
 30
0.0
 10
-116.715
 20
-60.0276
 30
0.0
 10
-118.0752
 20
-61.0743
 30
0.0
 10
-118.0752
 20
-61.0743
 30
0.0
 10
-120.7425
 20
-63.1261
 30
0.0
 10
-124.1432
 20
-63.9823
 30
0.0
 10
-127.4646
 20
-63.4406
 30
0.0
 10
-127.4646
 20
-63.4406
 30
0.0
 10
-130.9544
 20
-62.8717
 30
0.0
 10
-133.7368
 20
-60.2115
 30
0.0
 10
-134.4668
 20
-56.7525
 30
0.0
 10
-134.4668
 20
-56.7525
 30
0.0
 10
-135.1751
 20
-53.3949
 30
0.0
 10
-134.3334
 20
-49.8941
 30
0.0
 10
-132.1783
 20
-47.224
 30
0.0
 10
-132.1783
 20
-47.224
 30
0.0
 10
-127.9163
 20
-41.9409
 30
0.0
 10
-120.6031
 20
-40.2268
 30
0.0
 10
-114.4321
 20
-43.0555
 30
0.0
 10
-114.4321
 20
-43.0555
 30
0.0
 10
-112.8982
 20
-43.7594
 30
0.0
 10
-111.492
 20
-44.7145
 30
0.0
 10
-110.2718
 20
-45.8811
 30
0.0
 10
-110.2718
 20
-45.8811
 30
0.0
 10
-109.0539
 20
-47.0458
 30
0.0
 10
-108.0078
 20
-48.3774
 30
0.0
 10
-107.1645
 20
-49.8359
 30
0.0
 10
-107.1645
 20
-49.8359
 30
0.0
 10
-107.829
 20
-47.1028
 30
0.0
 10
-108.9563
 20
-44.5039
 30
0.0
 10
-110.4975
 20
-42.1504
 30
0.0
 10
-110.4975
 20
-42.1504
 30
0.0
 10
-112.0363
 20
-39.8002
 30
0.0
 10
-113.9266
 20
-37.7006
 30
0.0
 10
-116.1028
 20
-35.9245
 30
0.0
 10
-116.1028
 20
-35.9245
 30
0.0
 10
-120.3364
 20
-32.5496
 30
0.0
 10
-125.5201
 20
-30.5919
 30
0.0
 10
-130.9276
 20
-30.3256
 30
0.0
 10
-130.9276
 20
-30.3256
 30
0.0
 10
-136.2942
 20
-30.0624
 30
0.0
 10
-141.6344
 20
-31.2001
 30
0.0
 10
-146.4265
 20
-33.6303
 30
0.0
 10
-146.4265
 20
-33.6303
 30
0.0
 10
-148.9855
 20
-34.9276
 30
0.0
 10
-150.9024
 20
-37.2123
 30
0.0
 10
-151.7341
 20
-39.958
 30
0.0
 10
-151.7341
 20
-39.958
 30
0.0
 10
-152.2435
 20
-41.6409
 30
0.0
 10
-151.9451
 20
-43.4632
 30
0.0
 10
-150.9252
 20
-44.8949
 30
0.0
 10
-150.9252
 20
-44.8949
 30
0.0
 10
-150.2178
 20
-45.8833
 30
0.0
 10
-149.0327
 20
-46.414
 30
0.0
 10
-147.8244
 20
-46.2828
 30
0.0
 10
-147.8244
 20
-46.2828
 30
0.0
 10
-146.616
 20
-46.1512
 30
0.0
 10
-145.5771
 20
-45.391
 30
0.0
 10
-145.0986
 20
-44.2732
 30
0.0
 10
-145.0986
 20
-44.2732
 30
0.0
 10
-144.5676
 20
-43.0392
 30
0.0
 10
-143.4835
 20
-42.1275
 30
0.0
 10
-142.1768
 20
-41.8153
 30
0.0
 10
-142.1768
 20
-41.8153
 30
0.0
 10
-140.0888
 20
-41.3159
 30
0.0
 10
-137.9493
 20
-42.4281
 30
0.0
 10
-137.1548
 20
-44.4221
 30
0.0
 10
-137.1548
 20
-44.4221
 30
0.0
 10
-136.4459
 20
-46.2028
 30
0.0
 10
-136.203
 20
-48.1357
 30
0.0
 10
-136.4503
 20
-50.0364
 30
0.0
 10
-136.4503
 20
-50.0364
 30
0.0
 10
-136.852
 20
-53.1233
 30
0.0
 10
-138.2988
 20
-55.9819
 30
0.0
 10
-140.5483
 20
-58.1341
 30
0.0
 10
-140.5483
 20
-58.1341
 30
0.0
 10
-144.0268
 20
-61.4055
 30
0.0
 10
-148.9338
 20
-62.6845
 30
0.0
 10
-153.5681
 20
-61.5327
 30
0.0
 10
-153.5681
 20
-61.5327
 30
0.0
 10
-158.225
 20
-60.3754
 30
0.0
 10
-161.9269
 20
-56.8403
 30
0.0
 10
-163.3022
 20
-52.2427
 30
0.0
 10
-163.3022
 20
-52.2427
 30
0.0
 10
-163.7032
 20
-50.9004
 30
0.0
 10
-164.0382
 20
-49.5393
 30
0.0
 10
-164.3055
 20
-48.164
 30
0.0
 10
-164.3055
 20
-48.164
 30
0.0
 10
-164.5733
 20
-46.7874
 30
0.0
 10
-164.7204
 20
-45.3894
 30
0.0
 10
-164.7449
 20
-43.9866
 30
0.0
 10
-164.7449
 20
-43.9866
 30
0.0
 10
-164.7867
 20
-44.7
 30
0.0
 10
-164.9055
 20
-45.4067
 30
0.0
 10
-165.1006
 20
-46.0945
 30
0.0
 10
-165.1006
 20
-46.0945
 30
0.0
 10
-166.3161
 20
-50.3798
 30
0.0
 10
-168.2873
 20
-54.4151
 30
0.0
 10
-170.9192
 20
-58.0086
 30
0.0
 10
-170.9192
 20
-58.0086
 30
0.0
 10
-172.0043
 20
-59.4893
 30
0.0
 10
-173.5755
 20
-60.5432
 30
0.0
 10
-175.3572
 20
-60.9849
 30
0.0
 10
-175.3572
 20
-60.9849
 30
0.0
 10
-177.108
 20
-61.4189
 30
0.0
 10
-178.9354
 20
-61.4523
 30
0.0
 10
-180.7005
 20
-61.0828
 30
0.0
 10
-180.7005
 20
-61.0828
 30
0.0
 10
-180.7005
 20
-61.0828
 30
0.0
 10
-180.7005
 20
-58.1398
 30
0.0
 10
-180.7005
 20
-58.1398
 30
0.0
 10
-180.7005
 20
-58.1398
 30
0.0
 10
-176.8219
 20
-59.3227
 30
0.0
 10
-172.6594
 20
-57.5341
 30
0.0
 10
-170.8566
 20
-53.9017
 30
0.0
 10
-170.8566
 20
-53.9017
 30
0.0
 10
-169.8219
 20
-51.8204
 30
0.0
 10
-168.9514
 20
-49.662
 30
0.0
 10
-168.2536
 20
-47.4457
 30
0.0
 10
-168.2536
 20
-47.4457
 30
0.0
 10
-167.2352
 20
-44.2127
 30
0.0
 10
-165.7982
 20
-41.1264
 30
0.0
 10
-163.9793
 20
-38.2668
 30
0.0
 10
-163.9793
 20
-38.2668
 30
0.0
 10
-162.1487
 20
-35.3882
 30
0.0
 10
-159.7374
 20
-32.9226
 30
0.0
 10
-156.9006
 20
-31.0273
 30
0.0
 10
-156.9006
 20
-31.0273
 30
0.0
 10
-159.4718
 20
-32.7643
 30
0.0
 10
-162.5536
 20
-33.5859
 30
0.0
 10
-165.6483
 20
-33.3609
 30
0.0
 10
-165.6483
 20
-33.3609
 30
0.0
 10
-168.6952
 20
-33.1386
 30
0.0
 10
-171.6549
 20
-32.2342
 30
0.0
 10
-174.3061
 20
-30.7146
 30
0.0
 10
-174.3061
 20
-30.7146
 30
0.0
 10
-175.7945
 20
-29.8617
 30
0.0
 10
-177.103
 20
-28.7255
 30
0.0
 10
-178.1564
 20
-27.371
 30
0.0
 10
-178.1564
 20
-27.371
 30
0.0
 10
-179.2049
 20
-26.0227
 30
0.0
 10
-180.0615
 20
-24.5347
 30
0.0
 10
-180.7005
 20
-22.9513
 30
0.0
 10
-180.7005
 20
-22.9513
 30
0.0
 10
-180.7005
 20
-22.9513
 30
0.0
 10
-180.7005
 20
-2.5511
 30
0.0
 10
-180.7005
 20
-2.5511
 30
0.0
 10
-180.7005
 20
-2.5511
 30
0.0
 10
-178.548
 20
-3.2206
 30
0.0
 10
-176.9469
 20
-5.0367
 30
0.0
 10
-176.5502
 20
-7.2557
 30
0.0
 10
-176.5502
 20
-7.2557
 30
0.0
 10
-176.1807
 20
-9.3232
 30
0.0
 10
-176.0828
 20
-11.4299
 30
0.0
 10
-176.2579
 20
-13.5229
 30
0.0
 10
-176.2579
 20
-13.5229
 30
0.0
 10
-174.785
 20
-12.4595
 30
0.0
 10
-173.0926
 20
-11.7383
 30
0.0
 10
-171.3055
 20
-11.4122
 30
0.0
 10
-171.3055
 20
-11.4122
 30
0.0
 10
-169.5358
 20
-11.0893
 30
0.0
 10
-167.7367
 20
-10.951
 30
0.0
 10
-165.9383
 20
-10.9999
 30
0.0
 10
-165.9383
 20
-10.9999
 30
0.0
 10
-162.9953
 20
-11.0788
 30
0.0
 10
-160.3236
 20
-12.745
 30
0.0
 10
-158.9546
 20
-15.3513
 30
0.0
 10
-158.9546
 20
-15.3513
 30
0.0
 10
-157.5711
 20
-17.9848
 30
0.0
 10
-157.8418
 20
-21.1846
 30
0.0
 10
-159.6446
 20
-23.5507
 30
0.0
 10
-159.6446
 20
-23.5507
 30
0.0
 10
-160.3391
 20
-24.4613
 30
0.0
 10
-161.3392
 20
-25.0919
 30
0.0
 10
-162.4604
 20
-25.3254
 30
0.0
 10
-162.4604
 20
-25.3254
 30
0.0
 10
-163.4999
 20
-25.5426
 30
0.0
 10
-164.5799
 20
-25.4693
 30
0.0
 10
-165.581
 20
-25.1154
 30
0.0
 10
-165.581
 20
-25.1154
 30
0.0
 10
-166.6729
 20
-24.7292
 30
0.0
 10
-167.3791
 20
-23.668
 30
0.0
 10
-167.3158
 20
-22.5124
 30
0.0
 10
-167.3158
 20
-22.5124
 30
0.0
 10
-167.2973
 20
-22.1756
 30
0.0
 10
-167.279
 20
-21.8395
 30
0.0
 10
-167.2607
 20
-21.5035
 30
0.0
 10
-167.2607
 20
-21.5035
 30
0.0
 10
-167.2501
 20
-21.3106
 30
0.0
 10
-167.3228
 20
-21.1223
 30
0.0
 10
-167.4596
 20
-20.9861
 30
0.0
 10
-167.4596
 20
-20.9861
 30
0.0
 10
-167.5969
 20
-20.8506
 30
0.0
 10
-167.784
 20
-20.7789
 30
0.0
 10
-167.9769
 20
-20.7905
 30
0.0
 10
-167.9769
 20
-20.7905
 30
0.0
 10
-169.2452
 20
-20.8679
 30
0.0
 10
-170.3958
 20
-21.5612
 30
0.0
 10
-171.0559
 20
-22.6468
 30
0.0
 10
-171.0559
 20
-22.6468
 30
0.0
 10
-171.7166
 20
-23.7329
 30
0.0
 10
-171.807
 20
-25.0642
 30
0.0
 10
-171.2914
 20
-26.2254
 30
0.0
 10
-171.2914
 20
-26.2254
 30
0.0
 10
-169.9831
 20
-29.1829
 30
0.0
 10
-166.9957
 20
-31.0317
 30
0.0
 10
-163.7655
 20
-30.8784
 30
0.0
 10
-163.7655
 20
-30.8784
 30
0.0
 10
-162.966
 20
-30.8406
 30
0.0
 10
-162.1771
 20
-30.6863
 30
0.0
 10
-161.4225
 20
-30.4195
 30
0.0
 10
-161.4225
 20
-30.4195
 30
0.0
 10
-157.3167
 20
-28.9683
 30
0.0
 10
-153.0809
 20
-27.9139
 30
0.0
 10
-148.7739
 20
-27.2711
 30
0.0
 10
-148.7739
 20
-27.2711
 30
0.0
 10
-146.4321
 20
-26.9211
 30
0.0
 10
-144.0791
 20
-26.6532
 30
0.0
 10
-141.719
 20
-26.4694
 30
0.0
 10
-141.719
 20
-26.4694
 30
0.0
 10
-143.0456
 20
-25.8316
 30
0.0
 10
-144.2891
 20
-25.032
 30
0.0
 10
-145.4191
 20
-24.0886
 30
0.0
 10
-145.4191
 20
-24.0886
 30
0.0
 10
-146.546
 20
-23.1486
 30
0.0
 10
-147.64
 20
-22.1706
 30
0.0
 10
-148.6999
 20
-21.1563
 30
0.0
 10
-148.6999
 20
-21.1563
 30
0.0
 10
-150.515
 20
-19.4199
 30
0.0
 10
-151.8613
 20
-17.251
 30
0.0
 10
-152.6131
 20
-14.8541
 30
0.0
 10
-152.6131
 20
-14.8541
 30
0.0
 10
-153.3559
 20
-12.485
 30
0.0
 10
-153.7898
 20
-10.0293
 30
0.0
 10
-153.9047
 20
-7.5491
 30
0.0
 10
-153.9047
 20
-7.5491
 30
0.0
 10
-153.9393
 20
-6.5585
 30
0.0
 10
-153.9686
 20
-5.5684
 30
0.0
 10
-153.9937
 20
-4.5778
 30
0.0
 10
-153.9937
 20
-4.5778
 30
0.0
 10
-154.018
 20
-3.6038
 30
0.0
 10
-154.0602
 20
-2.6304
 30
0.0
 10
-154.1197
 20
-1.6583
 30
0.0
 10
-154.1197
 20
-1.6583
 30
0.0
 10
-154.3086
 20
0.9126
 30
0.0
 10
-154.9898
 20
3.4215
 30
0.0
 10
-156.1283
 20
5.7346
 30
0.0
 10
-156.1283
 20
5.7346
 30
0.0
 10
-156.9805
 20
7.4657
 30
0.0
 10
-158.7418
 20
8.5608
 30
0.0
 10
-160.6718
 20
8.557
 30
0.0
 10
-160.6718
 20
8.557
 30
0.0
 10
-161.7175
 20
8.5552
 30
0.0
 10
-162.7614
 20
8.6498
 30
0.0
 10
-163.7904
 20
8.8391
 30
0.0
 10
-163.7904
 20
8.8391
 30
0.0
 10
-164.1644
 20
8.9074
 30
0.0
 10
-164.5478
 20
8.7802
 30
0.0
 10
-164.8066
 20
8.5013
 30
0.0
 10
-164.8066
 20
8.5013
 30
0.0
 10
-165.0656
 20
8.2224
 30
0.0
 10
-165.1649
 20
7.8342
 30
0.0
 10
-165.0694
 20
7.4663
 30
0.0
 10
-165.0694
 20
7.4663
 30
0.0
 10
-164.7616
 20
6.2795
 30
0.0
 10
-163.7326
 20
5.4223
 30
0.0
 10
-162.5104
 20
5.3351
 30
0.0
 10
-162.5104
 20
5.3351
 30
0.0
 10
-160.6363
 20
5.2017
 30
0.0
 10
-159.1957
 20
3.6188
 30
0.0
 10
-159.2345
 20
1.7404
 30
0.0
 10
-159.2345
 20
1.7404
 30
0.0
 10
-159.2707
 20
0.0274
 30
0.0
 10
-159.7545
 20
-1.647
 30
0.0
 10
-160.6369
 20
-3.1155
 30
0.0
 10
-160.6369
 20
-3.1155
 30
0.0
 10
-161.5513
 20
-4.6379
 30
0.0
 10
-163.1221
 20
-5.6496
 30
0.0
 10
-164.8856
 20
-5.8535
 30
0.0
 10
-164.8856
 20
-5.8535
 30
0.0
 10
-165.7394
 20
-5.9524
 30
0.0
 10
-166.6028
 20
-5.9436
 30
0.0
 10
-167.4552
 20
-5.8278
 30
0.0
 10
-167.4552
 20
-5.8278
 30
0.0
 10
-169.9632
 20
-5.4868
 30
0.0
 10
-172.27
 20
-4.2645
 30
0.0
 10
-173.9611
 20
-2.3805
 30
0.0
 10
-173.9611
 20
-2.3805
 30
0.0
 10
-174.9168
 20
-1.2966
 30
0.0
 10
-175.6157
 20
-0.0108
 30
0.0
 10
-176.0063
 20
1.381
 30
0.0
 10
-176.0063
 20
1.381
 30
0.0
 10
-176.5368
 20
3.3066
 30
0.0
 10
-176.4329
 20
5.354
 30
0.0
 10
-175.7101
 20
7.2169
 30
0.0
 10
-175.7101
 20
7.2169
 30
0.0
 10
-174.9813
 20
9.0947
 30
0.0
 10
-173.5789
 20
10.6359
 30
0.0
 10
-171.7777
 20
11.5388
 30
0.0
 10
-171.7777
 20
11.5388
 30
0.0
 10
-170.3387
 20
12.2593
 30
0.0
 10
-168.8001
 20
12.7605
 30
0.0
 10
-167.2129
 20
13.0261
 30
0.0
 10
-167.2129
 20
13.0261
 30
0.0
 10
-164.4933
 20
13.48
 30
0.0
 10
-161.6992
 20
13.1583
 30
0.0
 10
-159.1539
 20
12.0984
 30
0.0
 10
-159.1539
 20
12.0984
 30
0.0
 10
-156.9182
 20
11.1349
 30
0.0
 10
-154.9615
 20
9.6214
 30
0.0
 10
-153.4653
 20
7.7014
 30
0.0
 10
-153.4653
 20
7.7014
 30
0.0
 10
-151.9514
 20
5.7579
 30
0.0
 10
-151.1313
 20
3.3626
 30
0.0
 10
-151.1357
 20
0.8993
 30
0.0
 10
-151.1357
 20
0.8993
 30
0.0
 10
-151.1373
 20
-0.272
 30
0.0
 10
-151.1323
 20
-1.4427
 30
0.0
 10
-151.1201
 20
-2.6138
 30
0.0
 10
-151.1201
 20
-2.6138
 30
0.0
 10
-151.1012
 20
-3.5166
 30
0.0
 10
-151.0724
 20
-4.4194
 30
0.0
 10
-151.0347
 20
-5.3223
 30
0.0
 10
-151.0347
 20
-5.3223
 30
0.0
 10
-150.9963
 20
-6.2203
 30
0.0
 10
-150.9686
 20
-7.1191
 30
0.0
 10
-150.9507
 20
-8.0175
 30
0.0
 10
-150.9507
 20
-8.0175
 30
0.0
 10
-150.9434
 20
-7.4452
 30
0.0
 10
-150.8657
 20
-6.8757
 30
0.0
 10
-150.7202
 20
-6.3217
 30
0.0
 10
-150.7202
 20
-6.3217
 30
0.0
 10
-150.5739
 20
-5.7696
 30
0.0
 10
-150.3862
 20
-5.229
 30
0.0
 10
-150.1578
 20
-4.705
 30
0.0
 10
-150.1578
 20
-4.705
 30
0.0
 10
-148.9545
 20
-2.0437
 30
0.0
 10
-146.9465
 20
0.1753
 30
0.0
 10
-144.4191
 20
1.6392
 30
0.0
 10
-144.4191
 20
1.6392
 30
0.0
 10
-141.9157
 20
3.09
 30
0.0
 10
-139.032
 20
3.7561
 30
0.0
 10
-136.1453
 20
3.5521
 30
0.0
 10
-136.1453
 20
3.5521
 30
0.0
 10
-135.1818
 20
3.4772
 30
0.0
 10
-134.2257
 20
3.3277
 30
0.0
 10
-133.2851
 20
3.106
 30
0.0
 10
-133.2851
 20
3.106
 30
0.0
 10
-132.3451
 20
2.8844
 30
0.0
 10
-131.3932
 20
2.7148
 30
0.0
 10
-130.4349
 20
2.5983
 30
0.0
 10
-130.4349
 20
2.5983
 30
0.0
 10
-126.9685
 20
2.2042
 30
0.0
 10
-123.4633
 20
2.8044
 30
0.0
 10
-120.3264
 20
4.3306
 30
0.0
 10
-120.3264
 20
4.3306
 30
0.0
 10
-119.5614
 20
4.7027
 30
0.0
 10
-118.9573
 20
5.3389
 30
0.0
 10
-118.6258
 20
6.123
 30
0.0
 10
-118.6258
 20
6.123
 30
0.0
 10
-118.3573
 20
6.7586
 30
0.0
 10
-118.2701
 20
7.4562
 30
0.0
 10
-118.3746
 20
8.1386
 30
0.0
 10
-118.3746
 20
8.1386
 30
0.0
 10
-118.4773
 20
8.8098
 30
0.0
 10
-118.5169
 20
9.4887
 30
0.0
 10
-118.4918
 20
10.1671
 30
0.0
 10
-118.4918
 20
10.1671
 30
0.0
 10
-118.5346
 20
10.7665
 30
0.0
 10
-119.0385
 20
11.2283
 30
0.0
 10
-119.6397
 20
11.2176
 30
0.0
 10
-119.6397
 20
11.2176
 30
0.0
 10
-120.2408
 20
11.2072
 30
0.0
 10
-120.6943
 20
10.9699
 30
0.0
 10
-120.7158
 20
10.3687
 30
0.0
 10
-120.7158
 20
10.3687
 30
0.0
 10
-120.8171
 20
9.6742
 30
0.0
 10
-120.9754
 20
8.9886
 30
0.0
 10
-121.1892
 20
8.3197
 30
0.0
 10
-121.1892
 20
8.3197
 30
0.0
 10
-121.4838
 20
7.3979
 30
0.0
 10
-122.2498
 20
6.7041
 30
0.0
 10
-123.196
 20
6.5007
 30
0.0
 10
-123.196
 20
6.5007
 30
0.0
 10
-125.6835
 20
5.959
 30
0.0
 10
-128.2613
 20
6.8958
 30
0.0
 10
-129.8209
 20
8.908
 30
0.0
 10
-129.8209
 20
8.908
 30
0.0
 10
-131.3806
 20
10.9205
 30
0.0
 10
-131.6277
 20
13.6834
 30
0.0
 10
-130.4826
 20
15.9569
 30
0.0
 10
-130.4826
 20
15.9569
 30
0.0
 10
-129.0486
 20
18.7859
 30
0.0
 10
-126.1434
 20
20.5695
 30
0.0
 10
-122.9722
 20
20.5711
 30
0.0
 10
-122.9722
 20
20.5711
 30
0.0
 10
-121.2553
 20
20.5721
 30
0.0
 10
-119.5646
 20
20.1421
 30
0.0
 10
-118.0573
 20
19.3204
 30
0.0
 10
-118.0573
 20
19.3204
 30
0.0
 10
-116.5268
 20
18.4865
 30
0.0
 10
-115.3388
 20
17.1386
 30
0.0
 10
-114.7032
 20
15.5162
 30
0.0
 10
-114.7032
 20
15.5162
 30
0.0
 10
-113.8309
 20
13.2906
 30
0.0
 10
-113.6326
 20
10.856
 30
0.0
 10
-114.1321
 20
8.5186
 30
0.0
 10
-114.1321
 20
8.5186
 30
0.0
 10
-114.6411
 20
6.1368
 30
0.0
 10
-116.0911
 20
4.0605
 30
0.0
 10
-118.1508
 20
2.761
 30
0.0
 10
-118.1508
 20
2.761
 30
0.0
 10
-119.4647
 20
1.9325
 30
0.0
 10
-120.898
 20
1.3114
 30
0.0
 10
-122.4011
 20
0.9186
 30
0.0
 10
-122.4011
 20
0.9186
 30
0.0
 10
-123.6323
 20
0.6103
 30
0.0
 10
-124.8889
 20
0.4124
 30
0.0
 10
-126.1551
 20
0.327
 30
0.0
 10
-126.1551
 20
0.327
 30
0.0
 10
-127.4296
 20
0.2408
 30
0.0
 10
-128.7098
 20
0.3919
 30
0.0
 10
-129.9298
 20
0.7725
 30
0.0
 10
-129.9298
 20
0.7725
 30
0.0
 10
-128.2686
 20
-0.0202
 30
0.0
 10
-126.784
 20
-1.1409
 30
0.0
 10
-125.5657
 20
-2.5205
 30
0.0
 10
-125.5657
 20
-2.5205
 30
0.0
 10
-124.3573
 20
-3.8889
 30
0.0
 10
-123.2728
 20
-5.3628
 30
0.0
 10
-122.3255
 20
-6.9236
 30
0.0
 10
-122.3255
 20
-6.9236
 30
0.0
 10
-121.3088
 20
-8.598
 30
0.0
 10
-120.8187
 20
-10.5409
 30
0.0
 10
-120.9187
 20
-12.4979
 30
0.0
 10
-120.9187
 20
-12.4979
 30
0.0
 10
-121.0821
 20
-15.4781
 30
0.0
 10
-122.606
 20
-18.2199
 30
0.0
 10
-125.0495
 20
-19.9333
 30
0.0
 10
-125.0495
 20
-19.9333
 30
0.0
 10
-125.9218
 20
-20.5456
 30
0.0
 10
-126.8996
 20
-20.9923
 30
0.0
 10
-127.9336
 20
-21.2523
 30
0.0
 10
-127.9336
 20
-21.2523
 30
0.0
 10
-132.205
 20
-22.3273
 30
0.0
 10
-136.7336
 20
-21.1629
 30
0.0
 10
-139.96
 20
-18.1638
 30
0.0
 10
-139.96
 20
-18.1638
 30
0.0
 10
-141.075
 20
-17.1264
 30
0.0
 10
-141.8229
 20
-15.7535
 30
0.0
 10
-142.0889
 20
-14.2535
 30
0.0
 10
-142.0889
 20
-14.2535
 30
0.0
 10
-142.2778
 20
-13.1883
 30
0.0
 10
-142.264
 20
-12.0966
 30
0.0
 10
-142.049
 20
-11.0366
 30
0.0
 10
-142.049
 20
-11.0366
 30
0.0
 10
-141.8116
 20
-9.8688
 30
0.0
 10
-140.8288
 20
-8.9987
 30
0.0
 10
-139.6417
 20
-8.9026
 30
0.0
 10
-139.6417
 20
-8.9026
 30
0.0
 10
-138.3199
 20
-8.7959
 30
0.0
 10
-136.9969
 20
-8.7031
 30
0.0
 10
-135.6735
 20
-8.6237
 30
0.0
 10
-135.6735
 20
-8.6237
 30
0.0
 10
-135.1619
 20
-8.592
 30
0.0
 10
-134.6879
 20
-8.3414
 30
0.0
 10
-134.374
 20
-7.9359
 30
0.0
 10
-134.374
 20
-7.9359
 30
0.0
 10
-134.0601
 20
-7.5302
 30
0.0
 10
-133.9357
 20
-7.012
 30
0.0
 10
-134.034
 20
-6.5086
 30
0.0
 10
-134.034
 20
-6.5086
 30
0.0
 10
-134.2802
 20
-5.2435
 30
0.0
 10
-135.1279
 20
-4.1795
 30
0.0
 10
-136.3064
 20
-3.6583
 30
0.0
 10
-136.3064
 20
-3.6583
 30
0.0
 10
-138.7049
 20
-2.5983
 30
0.0
 10
-141.4612
 20
-2.7349
 30
0.0
 10
-143.7413
 20
-4.03
 30
0.0
 10
-143.7413
 20
-4.03
 30
0.0
 10
-146.7992
 20
-5.7667
 30
0.0
 10
-148.5434
 20
-9.1416
 30
0.0
 10
-148.1865
 20
-12.64
 30
0.0
 10
-148.1865
 20
-12.64
 30
0.0
 10
-147.6777
 20
-17.6275
 30
0.0
 10
-144.3548
 20
-21.8768
 30
0.0
 10
-139.6348
 20
-23.567
 30
0.0
 10
-139.6348
 20
-23.567
 30
0.0
 10
-135.4229
 20
-25.0758
 30
0.0
 10
-131.0643
 20
-26.1366
 30
0.0
 10
-126.6301
 20
-26.7304
 30
0.0
 10
-126.6301
 20
-26.7304
 30
0.0
 10
-123.2067
 20
-27.1893
 30
0.0
 10
-119.8815
 20
-28.2077
 30
0.0
 10
-116.7878
 20
-29.7439
 30
0.0
 10
-116.7878
 20
-29.7439
 30
0.0
 10
-111.368
 20
-32.4357
 30
0.0
 10
-107.0644
 20
-36.9495
 30
0.0
 10
-104.631
 20
-42.4898
 30
0.0
 10
-104.631
 20
-42.4898
 30
0.0
 10
-102.2424
 20
-47.9279
 30
0.0
 10
-101.0635
 20
-53.8227
 30
0.0
 10
-101.1756
 20
-59.7616
 30
0.0
 10
-101.1756
 20
-59.7616
 30
0.0
 10
-100.2107
 20
-56.6458
 30
0.0
 10
-98.5877
 20
-53.7723
 30
0.0
 10
-96.4187
 20
-51.3365
 30
0.0
 10
-96.4187
 20
-51.3365
 30
0.0
 10
-94.253
 20
-48.9047
 30
0.0
 10
-91.6235
 20
-46.9274
 30
0.0
 10
-88.6865
 20
-45.521
 30
0.0
 10
-88.6865
 20
-45.521
 30
0.0
 10
-85.4847
 20
-43.9883
 30
0.0
 10
-81.87
 20
-43.5337
 30
0.0
 10
-78.3886
 20
-44.2256
 30
0.0
 10
-78.3886
 20
-44.2256
 30
0.0
 10
-76.1051
 20
-44.6789
 30
0.0
 10
-73.7495
 20
-43.936
 30
0.0
 10
-72.141
 20
-42.2525
 30
0.0
 10
-72.141
 20
-42.2525
 30
0.0
 10
-72.141
 20
-42.2525
 30
0.0
 10
-72.141
 20
-67.1504
 30
0.0
 10
-72.141
 20
-67.1504
 30
0.0
 10
-72.141
 20
-67.1504
 30
0.0
 10
-74.8989
 20
-70.005
 30
0.0
 10
-78.8275
 20
-71.4212
 30
0.0
 10
-82.7728
 20
-70.9862
 30
0.0
 10
-82.7728
 20
-70.9862
 30
0.0
 10
-85.4158
 20
-70.695
 30
0.0
 10
-87.7592
 20
-69.1488
 30
0.0
 10
-89.0687
 20
-66.8347
 30
0.0
 10
-89.0687
 20
-66.8347
 30
0.0
 10
-90.1216
 20
-64.9752
 30
0.0
 10
-90.6895
 20
-62.8796
 30
0.0
 10
-90.7206
 20
-60.7428
 30
0.0
 10
-90.7206
 20
-60.7428
 30
0.0
 10
-90.7439
 20
-59.1626
 30
0.0
 10
-89.8037
 20
-57.7264
 30
0.0
 10
-88.3475
 20
-57.113
 30
0.0
 10
-88.3475
 20
-57.113
 30
0.0
 10
-86.8292
 20
-56.4742
 30
0.0
 10
-85.163
 20
-56.2664
 30
0.0
 10
-83.534
 20
-56.5119
 30
0.0
 10
-83.534
 20
-56.5119
 30
0.0
 10
-81.9345
 20
-56.7535
 30
0.0
 10
-80.3309
 20
-56.9631
 30
0.0
 10
-78.723
 20
-57.1403
 30
0.0
 10
-78.723
 20
-57.1403
 30
0.0
 10
-77.2796
 20
-57.2996
 30
0.0
 10
-75.8596
 20
-56.693
 30
0.0
 10
-74.9779
 20
-55.539
 30
0.0
 10
-74.9779
 20
-55.539
 30
0.0
 10
-74.0782
 20
-54.3623
 30
0.0
 10
-73.9677
 20
-52.7638
 30
0.0
 10
-74.6983
 20
-51.4753
 30
0.0
 10
-74.6983
 20
-51.4753
 30
0.0
 10
-76.3873
 20
-48.4974
 30
0.0
 10
-79.7816
 20
-46.9262
 30
0.0
 10
-83.1439
 20
-47.5696
 30
0.0
 10
-83.1439
 20
-47.5696
 30
0.0
 10
-87.3975
 20
-48.383
 30
0.0
 10
-91.2473
 20
-50.6137
 30
0.0
 10
-94.0669
 20
-53.9011
 30
0.0
 10
-94.0669
 20
-53.9011
 30
0.0
 10
-95.3897
 20
-55.4435
 30
0.0
 10
-96.5443
 20
-57.122
 30
0.0
 10
-97.5104
 20
-58.9098
 30
0.0
 10
-97.5104
 20
-58.9098
 30
0.0
 10
-98.4744
 20
-60.6921
 30
0.0
 10
-99.3882
 20
-62.5012
 30
0.0
 10
-100.2529
 20
-64.334
 30
0.0
 10
-100.2529
 20
-64.334
 30
0.0
 10
-101.1989
 20
-66.3414
 30
0.0
 10
-101.7995
 20
-68.4937
 30
0.0
 10
-102.029
 20
-70.7016
 30
0.0
 10
-102.029
 20
-70.7016
 30
0.0
 10
-102.577
 20
-75.9776
 30
0.0
 10
-104.3376
 20
-81.0574
 30
0.0
 10
-107.1711
 20
-85.541
 30
0.0
 10
-107.1711
 20
-85.541
 30
0.0
 10
-109.9835
 20
-89.9914
 30
0.0
 10
-113.1282
 20
-94.2233
 30
0.0
 10
-116.5772
 20
-98.2003
 30
0.0
 10
-116.5772
 20
-98.2003
 30
0.0
 10
-120.0336
 20
-102.185
 30
0.0
 10
-123.954
 20
-105.7452
 30
0.0
 10
-128.2519
 20
-108.8032
 30
0.0
 10
-128.2519
 20
-108.8032
 30
0.0
 10
-128.2519
 20
-108.8032
 30
0.0
 10
-134.9636
 20
-108.8032
 30
0.0
 10
-134.9636
 20
-108.8032
 30
0.0
 10
-134.9636
 20
-108.8032
 30
0.0
 10
-134.9636
 20
-108.8032
 30
0.0
 10
-134.9636
 20
-108.8032
 30
0.0
 10
-134.9636
 20
-108.8032
 30
0.0
  0
SPLINE
  5
4A
330
1F
100
AcDbEntity
  8
layer 1
 62
     7
100
AcDbSpline
210
0.0
220
0.0
230
1.0
 70
    11
 71
     3
 72
   284
 73
   280
 74
     0
 42
0.0000000001
 43
0.0000000001
 12
1.0
 22
0.0
 32
0.0
 13
1.0
 23
0.0
 33
0.0
 40
0.0
 40
0.0
 40
0.0
 40
0.0
 40
0.0140845070422535
 40
0.0140845070422535
 40
0.0140845070422535
 40
0.0140845070422535
 40
0.028169014084507
 40
0.028169014084507
 40
0.028169014084507
 40
0.028169014084507
 40
0.0422535211267606
 40
0.0422535211267606
 40
0.0422535211267606
 40
0.0422535211267606
 40
0.0563380281690141
 40
0.0563380281690141
 40
0.0563380281690141
 40
0.0563380281690141
 40
0.0704225352112676
 40
0.0704225352112676
 40
0.0704225352112676
 40
0.0704225352112676
 40
0.0845070422535211
 40
0.0845070422535211
 40
0.0845070422535211
 40
0.0845070422535211
 40
0.0985915492957746
 40
0.0985915492957746
 40
0.0985915492957746
 40
0.0985915492957746
 40
0.1126760563380282
 40
0.1126760563380282
 40
0.1126760563380282
 40
0.1126760563380282
 40
0.1267605633802817
 40
0.1267605633802817
 40
0.1267605633802817
 40
0.1267605633802817
 40
0.1408450704225352
 40
0.1408450704225352
 40
0.1408450704225352
 40
0.1408450704225352
 40
0.1549295774647887
 40
0.1549295774647887
 40
0.1549295774647887
 40
0.1549295774647887
 40
0.1690140845070423
 40
0.1690140845070423
 40
0.1690140845070423
 40
0.1690140845070423
 40
0.1830985915492958
 40
0.1830985915492958
 40
0.1830985915492958
 40
0.1830985915492958
 40
0.1971830985915493
 40
0.1971830985915493
 40
0.1971830985915493
 40
0.1971830985915493
 40
0.2112676056338028
 40
0.2112676056338028
 40
0.2112676056338028
 40
0.2112676056338028
 40
0.2253521126760563
 40
0.2253521126760563
 40
0.2253521126760563
 40
0.2253521126760563
 40
0.2394366197183098
 40
0.2394366197183098
 40
0.2394366197183098
 40
0.2394366197183098
 40
0.2535211267605634
 40
0.2535211267605634
 40
0.2535211267605634
 40
0.2535211267605634
 40
0.2676056338028169
 40
0.2676056338028169
 40
0.2676056338028169
 40
0.2676056338028169
 40
0.2816901408450704
 40
0.2816901408450704
 40
0.2816901408450704
 40
0.2816901408450704
 40
0.2957746478873239
 40
0.2957746478873239
 40
0.2957746478873239
 40
0.2957746478873239
 40
0.3098591549295774
 40
0.3098591549295774
 40
0.3098591549295774
 40
0.3098591549295774
 40
0.323943661971831
 40
0.323943661971831
 40
0.323943661971831
 40
0.323943661971831
 40
0.3380281690140845
 40
0.3380281690140845
 40
0.3380281690140845
 40
0.3380281690140845
 40
0.352112676056338
 40
0.352112676056338
 40
0.352112676056338
 40
0.352112676056338
 40
0.3661971830985916
 40
0.3661971830985916
 40
0.3661971830985916
 40
0.3661971830985916
 40
0.3802816901408451
 40
0.3802816901408451
 40
0.3802816901408451
 40
0.3802816901408451
 40
0.3943661971830986
 40
0.3943661971830986
 40
0.3943661971830986
 40
0.3943661971830986
 40
0.4084507042253521
 40
0.4084507042253521
 40
0.4084507042253521
 40
0.4084507042253521
 40
0.4225352112676056
 40
0.4225352112676056
 40
0.4225352112676056
 40
0.4225352112676056
 40
0.4366197183098591
 40
0.4366197183098591
 40
0.4366197183098591
 40
0.4366197183098591
 40
0.4507042253521127
 40
0.4507042253521127
 40
0.4507042253521127
 40
0.4507042253521127
 40
0.4647887323943662
 40
0.4647887323943662
 40
0.4647887323943662
 40
0.4647887323943662
 40
0.4788732394366197
 40
0.4788732394366197
 40
0.4788732394366197
 40
0.4788732394366197
 40
0.4929577464788732
 40
0.4929577464788732
 40
0.4929577464788732
 40
0.4929577464788732
 40
0.5070422535211268
 40
0.5070422535211268
 40
0.5070422535211268
 40
0.5070422535211268
 40
0.5211267605633803
 40
0.5211267605633803
 40
0.5211267605633803
 40
0.5211267605633803
 40
0.5352112676056338
 40
0.5352112676056338
 40
0.5352112676056338
 40
0.5352112676056338
 40
0.5492957746478874
 40
0.5492957746478874
 40
0.5492957746478874
 40
0.5492957746478874
 40
0.5633802816901409
 40
0.5633802816901409
 40
0.5633802816901409
 40
0.5633802816901409
 40
0.5774647887323944
 40
0.5774647887323944
 40
0.5774647887323944
 40
0.5774647887323944
 40
0.5915492957746479
 40
0.5915492957746479
 40
0.5915492957746479
 40
0.5915492957746479
 40
0.6056338028169014
 40
0.6056338028169014
 40
0.6056338028169014
 40
0.6056338028169014
 40
0.6197183098591549
 40
0.6197183098591549
 40
0.6197183098591549
 40
0.6197183098591549
 40
0.6338028169014085
 40
0.6338028169014085
 40
0.6338028169014085
 40
0.6338028169014085
 40
0.647887323943662
 40
0.647887323943662
 40
0.647887323943662
 40
0.647887323943662
 40
0.6619718309859155
 40
0.6619718309859155
 40
0.6619718309859155
 40
0.6619718309859155
 40
0.676056338028169
 40
0.676056338028169
 40
0.676056338028169
 40
0.676056338028169
 40
0.6901408450704225
 40
0.6901408450704225
 40
0.6901408450704225
 40
0.6901408450704225
 40
0.704225352112676
 40
0.704225352112676
 40
0.704225352112676
 40
0.704225352112676
 40
0.7183098591549296
 40
0.7183098591549296
 40
0.7183098591549296
 40
0.7183098591549296
 40
0.7323943661971831
 40
0.7323943661971831
 40
0.7323943661971831
 40
0.7323943661971831
 40
0.7464788732394366
 40
0.7464788732394366
 40
0.7464788732394366
 40
0.7464788732394366
 40
0.7605633802816901
 40
0.7605633802816901
 40
0.7605633802816901
 40
0.7605633802816901
 40
0.7746478873239436
 40
0.7746478873239436
 40
0.7746478873239436
 40
0.7746478873239436
 40
0.7887323943661971
 40
0.7887323943661971
 40
0.7887323943661971
 40
0.7887323943661971
 40
0.8028169014084507
 40
0.8028169014084507
 40
0.8028169014084507
 40
0.8028169014084507
 40
0.8169014084507042
 40
0.8169014084507042
 40
0.8169014084507042
 40
0.8169014084507042
 40
0.8309859154929577
 40
0.8309859154929577
 40
0.8309859154929577
 40
0.8309859154929577
 40
0.8450704225352113
 40
0.8450704225352113
 40
0.8450704225352113
 40
0.8450704225352113
 40
0.8591549295774648
 40
0.8591549295774648
 40
0.8591549295774648
 40
0.8591549295774648
 40
0.8732394366197183
 40
0.8732394366197183
 40
0.8732394366197183
 40
0.8732394366197183
 40
0.8873239436619719
 40
0.8873239436619719
 40
0.8873239436619719
 40
0.8873239436619719
 40
0.9014084507042254
 40
0.9014084507042254
 40
0.9014084507042254
 40
0.9014084507042254
 40
0.9154929577464789
 40
0.9154929577464789
 40
0.9154929577464789
 40
0.9154929577464789
 40
0.9295774647887324
 40
0.9295774647887324
 40
0.9295774647887324
 40
0.9295774647887324
 40
0.9436619718309859
 40
0.9436619718309859
 40
0.9436619718309859
 40
0.9436619718309859
 40
0.9577464788732394
 40
0.9577464788732394
 40
0.9577464788732394
 40
0.9577464788732394
 40
0.971830985915493
 40
0.971830985915493
 40
0.971830985915493
 40
0.971830985915493
 40
1.0
 40
1.0
 40
1.0
 40
1.0
 10
-72.141
 20
-21.2595
 30
0.0
 10
-72.141
 20
-21.2595
 30
0.0
 10
-72.141
 20
-6.3668
 30
0.0
 10
-72.141
 20
-6.3668
 30
0.0
 10
-72.141
 20
-6.3668
 30
0.0
 10
-73.3649
 20
-7.2746
 30
0.0
 10
-74.5217
 20
-8.2693
 30
0.0
 10
-75.6028
 20
-9.3431
 30
0.0
 10
-75.6028
 20
-9.3431
 30
0.0
 10
-76.7351
 20
-10.4682
 30
0.0
 10
-78.3103
 20
-11.0326
 30
0.0
 10
-79.8997
 20
-10.8843
 30
0.0
 10
-79.8997
 20
-10.8843
 30
0.0
 10
-80.3671
 20
-10.8411
 30
0.0
 10
-80.8116
 20
-10.6611
 30
0.0
 10
-81.1777
 20
-10.3671
 30
0.0
 10
-81.1777
 20
-10.3671
 30
0.0
 10
-81.2728
 20
-10.2903
 30
0.0
 10
-81.361
 20
-10.2059
 30
0.0
 10
-81.4415
 20
-10.1143
 30
0.0
 10
-81.4415
 20
-10.1143
 30
0.0
 10
-81.9644
 20
-8.9215
 30
0.0
 10
-81.5977
 20
-7.5248
 30
0.0
 10
-80.5582
 20
-6.7407
 30
0.0
 10
-80.5582
 20
-6.7407
 30
0.0
 10
-79.073
 20
-5.6219
 30
0.0
 10
-77.4508
 20
-4.6973
 30
0.0
 10
-75.7312
 20
-3.99
 30
0.0
 10
-75.7312
 20
-3.99
 30
0.0
 10
-75.0739
 20
-3.7193
 30
0.0
 10
-74.4349
 20
-3.4061
 30
0.0
 10
-73.8188
 20
-3.0522
 30
0.0
 10
-73.8188
 20
-3.0522
 30
0.0
 10
-73.1999
 20
-2.6966
 30
0.0
 10
-72.6349
 20
-2.2549
 30
0.0
 10
-72.141
 20
-1.7399
 30
0.0
 10
-72.141
 20
-1.7399
 30
0.0
 10
-72.141
 20
-1.7399
 30
0.0
 10
-72.141
 20
7.9353
 30
0.0
 10
-72.141
 20
7.9353
 30
0.0
 10
-72.141
 20
7.9353
 30
0.0
 10
-72.5971
 20
8.5363
 30
0.0
 10
-73.1033
 20
9.0987
 30
0.0
 10
-73.6539
 20
9.6147
 30
0.0
 10
-73.6539
 20
9.6147
 30
0.0
 10
-74.205
 20
10.132
 30
0.0
 10
-74.8073
 20
10.5909
 30
0.0
 10
-75.4517
 20
10.985
 30
0.0
 10
-75.4517
 20
10.985
 30
0.0
 10
-77.0986
 20
11.6738
 30
0.0
 10
-78.8659
 20
12.0254
 30
0.0
 10
-80.6504
 20
12.0188
 30
0.0
 10
-80.6504
 20
12.0188
 30
0.0
 10
-84.6058
 20
12.0021
 30
0.0
 10
-87.8092
 20
8.8126
 30
0.0
 10
-87.8331
 20
4.8572
 30
0.0
 10
-87.8331
 20
4.8572
 30
0.0
 10
-87.8441
 20
3.1376
 30
0.0
 10
-87.5498
 20
1.431
 30
0.0
 10
-86.963
 20
-0.1854
 30
0.0
 10
-86.963
 20
-0.1854
 30
0.0
 10
-86.3469
 20
-1.8827
 30
0.0
 10
-86.5913
 20
-3.775
 30
0.0
 10
-87.6171
 20
-5.2606
 30
0.0
 10
-87.6171
 20
-5.2606
 30
0.0
 10
-87.8837
 20
-5.6474
 30
0.0
 10
-88.2581
 20
-5.9468
 30
0.0
 10
-88.6937
 20
-6.1218
 30
0.0
 10
-88.6937
 20
-6.1218
 30
0.0
 10
-88.8282
 20
-6.1757
 30
0.0
 10
-88.967
 20
-6.2156
 30
0.0
 10
-89.1093
 20
-6.2418
 30
0.0
 10
-89.1093
 20
-6.2418
 30
0.0
 10
-90.4172
 20
-6.1753
 30
0.0
 10
-91.5001
 20
-5.1995
 30
0.0
 10
-91.7044
 20
-3.9066
 30
0.0
 10
-91.7044
 20
-3.9066
 30
0.0
 10
-91.9968
 20
-2.0527
 30
0.0
 10
-92.045
 20
-0.1675
 30
0.0
 10
-91.8479
 20
1.6986
 30
0.0
 10
-91.8479
 20
1.6986
 30
0.0
 10
-91.6423
 20
3.6482
 30
0.0
 10
-91.9833
 20
5.615
 30
0.0
 10
-92.8351
 20
7.3807
 30
0.0
 10
-92.8351
 20
7.3807
 30
0.0
 10
-93.7297
 20
9.236
 30
0.0
 10
-95.5386
 20
10.477
 30
0.0
 10
-97.5916
 20
10.6422
 30
0.0
 10
-97.5916
 20
10.6422
 30
0.0
 10
-98.8527
 20
10.7438
 30
0.0
 10
-100.1211
 20
10.6659
 30
0.0
 10
-101.3607
 20
10.4115
 30
0.0
 10
-101.3607
 20
10.4115
 30
0.0
 10
-102.6019
 20
10.1571
 30
0.0
 10
-103.7931
 20
9.7025
 30
0.0
 10
-104.8886
 20
9.0658
 30
0.0
 10
-104.8886
 20
9.0658
 30
0.0
 10
-106.2777
 20
7.9447
 30
0.0
 10
-107.4271
 20
6.5574
 30
0.0
 10
-108.2707
 20
4.9838
 30
0.0
 10
-108.2707
 20
4.9838
 30
0.0
 10
-110.1368
 20
1.4965
 30
0.0
 10
-108.854
 20
-2.8388
 30
0.0
 10
-105.386
 20
-4.7401
 30
0.0
 10
-105.386
 20
-4.7401
 30
0.0
 10
-103.8787
 20
-5.5678
 30
0.0
 10
-102.2368
 20
-6.1208
 30
0.0
 10
-100.5362
 20
-6.373
 30
0.0
 10
-100.5362
 20
-6.373
 30
0.0
 10
-98.7501
 20
-6.638
 30
0.0
 10
-97.2016
 20
-7.7524
 30
0.0
 10
-96.382
 20
-9.3616
 30
0.0
 10
-96.382
 20
-9.3616
 30
0.0
 10
-96.1692
 20
-9.7799
 30
0.0
 10
-96.0838
 20
-10.2516
 30
0.0
 10
-96.137
 20
-10.7183
 30
0.0
 10
-96.137
 20
-10.7183
 30
0.0
 10
-96.1465
 20
-10.8033
 30
0.0
 10
-96.1609
 20
-10.8883
 30
0.0
 10
-96.1808
 20
-10.9715
 30
0.0
 10
-96.1808
 20
-10.9715
 30
0.0
 10
-96.9715
 20
-11.9734
 30
0.0
 10
-98.3327
 20
-12.3283
 30
0.0
 10
-99.5128
 20
-11.8422
 30
0.0
 10
-99.5128
 20
-11.8422
 30
0.0
 10
-101.2168
 20
-11.1399
 30
0.0
 10
-102.8258
 20
-10.226
 30
0.0
 10
-104.3021
 20
-9.1221
 30
0.0
 10
-104.3021
 20
-9.1221
 30
0.0
 10
-105.872
 20
-7.9486
 30
0.0
 10
-107.7372
 20
-7.2364
 30
0.0
 10
-109.6901
 20
-7.0646
 30
0.0
 10
-109.6901
 20
-7.0646
 30
0.0
 10
-111.7413
 20
-6.8852
 30
0.0
 10
-113.7333
 20
-7.8053
 30
0.0
 10
-114.9249
 20
-9.4854
 30
0.0
 10
-114.9249
 20
-9.4854
 30
0.0
 10
-115.6567
 20
-10.5172
 30
0.0
 10
-116.239
 20
-11.6471
 30
0.0
 10
-116.654
 20
-12.8423
 30
0.0
 10
-116.654
 20
-12.8423
 30
0.0
 10
-117.0695
 20
-14.0391
 30
0.0
 10
-117.2879
 20
-15.2952
 30
0.0
 10
-117.3006
 20
-16.5619
 30
0.0
 10
-117.3006
 20
-16.5619
 30
0.0
 10
-117.0478
 20
-18.3288
 30
0.0
 10
-116.4434
 20
-20.0266
 30
0.0
 10
-115.5223
 20
-21.5557
 30
0.0
 10
-115.5223
 20
-21.5557
 30
0.0
 10
-113.4793
 20
-24.9426
 30
0.0
 10
-109.0979
 20
-26.057
 30
0.0
 10
-105.6904
 20
-24.0492
 30
0.0
 10
-105.6904
 20
-24.0492
 30
0.0
 10
-104.2086
 20
-23.1769
 30
0.0
 10
-102.8941
 20
-22.0484
 30
0.0
 10
-101.8074
 20
-20.7162
 30
0.0
 10
-101.8074
 20
-20.7162
 30
0.0
 10
-100.6668
 20
-19.3166
 30
0.0
 10
-98.9172
 20
-18.5561
 30
0.0
 10
-97.1154
 20
-18.6744
 30
0.0
 10
-97.1154
 20
-18.6744
 30
0.0
 10
-96.647
 20
-18.705
 30
0.0
 10
-96.1975
 20
-18.8728
 30
0.0
 10
-95.8237
 20
-19.1567
 30
0.0
 10
-95.8237
 20
-19.1567
 30
0.0
 10
-95.7576
 20
-19.2071
 30
0.0
 10
-95.6947
 20
-19.261
 30
0.0
 10
-95.6349
 20
-19.3188
 30
0.0
 10
-95.6349
 20
-19.3188
 30
0.0
 10
-95.1847
 20
-20.5066
 30
0.0
 10
-95.5764
 20
-21.8501
 30
0.0
 10
-96.5931
 20
-22.6113
 30
0.0
 10
-96.5931
 20
-22.6113
 30
0.0
 10
-98.0711
 20
-23.7175
 30
0.0
 10
-99.6828
 20
-24.6325
 30
0.0
 10
-101.3896
 20
-25.3348
 30
0.0
 10
-101.3896
 20
-25.3348
 30
0.0
 10
-103.2025
 20
-26.0809
 30
0.0
 10
-104.7705
 20
-27.3171
 30
0.0
 10
-105.9188
 20
-28.9056
 30
0.0
 10
-105.9188
 20
-28.9056
 30
0.0
 10
-107.1255
 20
-30.5746
 30
0.0
 10
-107.3572
 20
-32.7564
 30
0.0
 10
-106.5261
 20
-34.6404
 30
0.0
 10
-106.5261
 20
-34.6404
 30
0.0
 10
-106.0155
 20
-35.7983
 30
0.0
 10
-105.3438
 20
-36.8771
 30
0.0
 10
-104.5309
 20
-37.8467
 30
0.0
 10
-104.5309
 20
-37.8467
 30
0.0
 10
-103.7163
 20
-38.8174
 30
0.0
 10
-102.7502
 20
-39.6491
 30
0.0
 10
-101.6691
 20
-40.3096
 30
0.0
 10
-101.6691
 20
-40.3096
 30
0.0
 10
-100.0222
 20
-40.9986
 30
0.0
 10
-98.2549
 20
-41.3509
 30
0.0
 10
-96.4698
 20
-41.3443
 30
0.0
 10
-96.4698
 20
-41.3443
 30
0.0
 10
-92.5146
 20
-41.3276
 30
0.0
 10
-89.3104
 20
-38.1372
 30
0.0
 10
-89.2877
 20
-34.1821
 30
0.0
 10
-89.2877
 20
-34.1821
 30
0.0
 10
-89.2765
 20
-32.4624
 30
0.0
 10
-89.5704
 20
-30.7556
 30
0.0
 10
-90.1572
 20
-29.1395
 30
0.0
 10
-90.1572
 20
-29.1395
 30
0.0
 10
-90.7739
 20
-27.4421
 30
0.0
 10
-90.5293
 20
-25.5505
 30
0.0
 10
-89.5037
 20
-24.0641
 30
0.0
 10
-89.5037
 20
-24.0641
 30
0.0
 10
-89.2371
 20
-23.6781
 30
0.0
 10
-88.8627
 20
-23.3785
 30
0.0
 10
-88.4271
 20
-23.203
 30
0.0
 10
-88.4271
 20
-23.203
 30
0.0
 10
-88.2943
 20
-23.1502
 30
0.0
 10
-88.157
 20
-23.1102
 30
0.0
 10
-88.0166
 20
-23.0841
 30
0.0
 10
-88.0166
 20
-23.0841
 30
0.0
 10
-86.7102
 20
-23.1536
 30
0.0
 10
-85.6302
 20
-24.1308
 30
0.0
 10
-85.4284
 20
-25.4237
 30
0.0
 10
-85.4284
 20
-25.4237
 30
0.0
 10
-85.1397
 20
-27.2777
 30
0.0
 10
-85.0941
 20
-29.1622
 30
0.0
 10
-85.294
 20
-31.0279
 30
0.0
 10
-85.294
 20
-31.0279
 30
0.0
 10
-85.5024
 20
-32.9771
 30
0.0
 10
-85.1636
 20
-34.9443
 30
0.0
 10
-84.314
 20
-36.7111
 30
0.0
 10
-84.314
 20
-36.7111
 30
0.0
 10
-83.4216
 20
-38.5672
 30
0.0
 10
-81.6144
 20
-39.8107
 30
0.0
 10
-79.5619
 20
-39.9785
 30
0.0
 10
-79.5619
 20
-39.9785
 30
0.0
 10
-78.3008
 20
-40.0819
 30
0.0
 10
-77.0325
 20
-40.0058
 30
0.0
 10
-75.7929
 20
-39.753
 30
0.0
 10
-75.7929
 20
-39.753
 30
0.0
 10
-74.5511
 20
-39.4996
 30
0.0
 10
-73.3595
 20
-39.0469
 30
0.0
 10
-72.2631
 20
-38.4111
 30
0.0
 10
-72.2631
 20
-38.4111
 30
0.0
 10
-72.2631
 20
-38.4111
 30
0.0
 10
-72.141
 20
-38.3119
 30
0.0
 10
-72.141
 20
-38.3119
 30
0.0
 10
-72.141
 20
-38.3119
 30
0.0
 10
-72.141
 20
-38.3119
 30
0.0
 10
-72.141
 20
-24.4041
 30
0.0
 10
-72.141
 20
-24.4041
 30
0.0
 10
-72.141
 20
-24.4041
 30
0.0
 10
-73.6221
 20
-23.6948
 30
0.0
 10
-75.1923
 20
-23.1886
 30
0.0
 10
-76.809
 20
-22.899
 30
0.0
 10
-76.809
 20
-22.899
 30
0.0
 10
-78.507
 20
-22.5952
 30
0.0
 10
-79.9648
 20
-21.5111
 30
0.0
 10
-80.7455
 20
-19.9733
 30
0.0
 10
-80.7455
 20
-19.9733
 30
0.0
 10
-80.9577
 20
-19.555
 30
0.0
 10
-81.0427
 20
-19.0827
 30
0.0
 10
-80.9894
 20
-18.6166
 30
0.0
 10
-80.9894
 20
-18.6166
 30
0.0
 10
-80.9894
 20
-18.6166
 30
0.0
 10
-80.9677
 20
-18.4743
 30
0.0
 10
-80.9677
 20
-18.4743
 30
0.0
 10
-80.9677
 20
-18.4743
 30
0.0
 10
-80.9677
 20
-18.4743
 30
0.0
 10
-80.8665
 20
-18.372
 30
0.0
 10
-80.8665
 20
-18.372
 30
0.0
 10
-80.8665
 20
-18.372
 30
0.0
 10
-79.957
 20
-17.5164
 30
0.0
 10
-78.6159
 20
-17.3032
 30
0.0
 10
-77.4852
 20
-17.8331
 30
0.0
 10
-77.4852
 20
-17.8331
 30
0.0
 10
-75.8602
 20
-18.5943
 30
0.0
 10
-74.33
 20
-19.5455
 30
0.0
 10
-72.9276
 20
-20.6656
 30
0.0
 10
-72.9276
 20
-20.6656
 30
0.0
 10
-72.671
 20
-20.8705
 30
0.0
 10
-72.4088
 20
-21.0684
 30
0.0
 10
-72.141
 20
-21.2595
 30
0.0
  0
SPLINE
  5
4B
330
1F
100
AcDbEntity
  8
layer 1
 62
     7
100
AcDbSpline
210
0.0
220
0.0
230
1.0
 70
    11
 71
     3
 72
   188
 73
   184
 74
     0
 42
0.0000000001
 43
0.0000000001
 12
1.0
 22
0.0
 32
0.0
 13
1.0
 23
0.0
 33
0.0
 40
0.0
 40
0.0
 40
0.0
 40
0.0
 40
0.0212765957446809
 40
0.0212765957446809
 40
0.0212765957446809
 40
0.0212765957446809
 40
0.0425531914893617
 40
0.0425531914893617
 40
0.0425531914893617
 40
0.0425531914893617
 40
0.0638297872340425
 40
0.0638297872340425
 40
0.0638297872340425
 40
0.0638297872340425
 40
0.0851063829787234
 40
0.0851063829787234
 40
0.0851063829787234
 40
0.0851063829787234
 40
0.1063829787234043
 40
0.1063829787234043
 40
0.1063829787234043
 40
0.1063829787234043
 40
0.1276595744680851
 40
0.1276595744680851
 40
0.1276595744680851
 40
0.1276595744680851
 40
0.148936170212766
 40
0.148936170212766
 40
0.148936170212766
 40
0.148936170212766
 40
0.1702127659574468
 40
0.1702127659574468
 40
0.1702127659574468
 40
0.1702127659574468
 40
0.1914893617021277
 40
0.1914893617021277
 40
0.1914893617021277
 40
0.1914893617021277
 40
0.2127659574468085
 40
0.2127659574468085
 40
0.2127659574468085
 40
0.2127659574468085
 40
0.2340425531914894
 40
0.2340425531914894
 40
0.2340425531914894
 40
0.2340425531914894
 40
0.2553191489361702
 40
0.2553191489361702
 40
0.2553191489361702
 40
0.2553191489361702
 40
0.2765957446808511
 40
0.2765957446808511
 40
0.2765957446808511
 40
0.2765957446808511
 40
0.2978723404255319
 40
0.2978723404255319
 40
0.2978723404255319
 40
0.2978723404255319
 40
0.3191489361702128
 40
0.3191489361702128
 40
0.3191489361702128
 40
0.3191489361702128
 40
0.3404255319148936
 40
0.3404255319148936
 40
0.3404255319148936
 40
0.3404255319148936
 40
0.3617021276595745
 40
0.3617021276595745
 40
0.3617021276595745
 40
0.3617021276595745
 40
0.3829787234042553
 40
0.3829787234042553
 40
0.3829787234042553
 40
0.3829787234042553
 40
0.4042553191489361
 40
0.4042553191489361
 40
0.4042553191489361
 40
0.4042553191489361
 40
0.425531914893617
 40
0.425531914893617
 40
0.425531914893617
 40
0.425531914893617
 40
0.4468085106382979
 40
0.4468085106382979
 40
0.4468085106382979
 40
0.4468085106382979
 40
0.4680851063829787
 40
0.4680851063829787
 40
0.4680851063829787
 40
0.4680851063829787
 40
0.4893617021276596
 40
0.4893617021276596
 40
0.4893617021276596
 40
0.4893617021276596
 40
0.5106382978723404
 40
0.5106382978723404
 40
0.5106382978723404
 40
0.5106382978723404
 40
0.5319148936170213
 40
0.5319148936170213
 40
0.5319148936170213
 40
0.5319148936170213
 40
0.5531914893617021
 40
0.5531914893617021
 40
0.5531914893617021
 40
0.5531914893617021
 40
0.574468085106383
 40
0.574468085106383
 40
0.574468085106383
 40
0.574468085106383
 40
0.5957446808510638
 40
0.5957446808510638
 40
0.5957446808510638
 40
0.5957446808510638
 40
0.6170212765957447
 40
0.6170212765957447
 40
0.6170212765957447
 40
0.6170212765957447
 40
0.6382978723404256
 40
0.6382978723404256
 40
0.6382978723404256
 40
0.6382978723404256
 40
0.6595744680851063
 40
0.6595744680851063
 40
0.6595744680851063
 40
0.6595744680851063
 40
0.6808510638297872
 40
0.6808510638297872
 40
0.6808510638297872
 40
0.6808510638297872
 40
0.7021276595744681
 40
0.7021276595744681
 40
0.7021276595744681
 40
0.7021276595744681
 40
0.723404255319149
 40
0.723404255319149
 40
0.723404255319149
 40
0.723404255319149
 40
0.7446808510638298
 40
0.7446808510638298
 40
0.7446808510638298
 40
0.7446808510638298
 40
0.7659574468085106
 40
0.7659574468085106
 40
0.7659574468085106
 40
0.7659574468085106
 40
0.7872340425531915
 40
0.7872340425531915
 40
0.7872340425531915
 40
0.7872340425531915
 40
0.8085106382978723
 40
0.8085106382978723
 40
0.8085106382978723
 40
0.8085106382978723
 40
0.8297872340425532
 40
0.8297872340425532
 40
0.8297872340425532
 40
0.8297872340425532
 40
0.851063829787234
 40
0.851063829787234
 40
0.851063829787234
 40
0.851063829787234
 40
0.8723404255319149
 40
0.8723404255319149
 40
0.8723404255319149
 40
0.8723404255319149
 40
0.8936170212765957
 40
0.8936170212765957
 40
0.8936170212765957
 40
0.8936170212765957
 40
0.9148936170212766
 40
0.9148936170212766
 40
0.9148936170212766
 40
0.9148936170212766
 40
0.9361702127659575
 40
0.9361702127659575
 40
0.9361702127659575
 40
0.9361702127659575
 40
0.9574468085106383
 40
0.9574468085106383
 40
0.9574468085106383
 40
0.9574468085106383
 40
1.0
 40
1.0
 40
1.0
 40
1.0
 10
-149.9767
 20
-108.8032
 30
0.0
 10
-149.9767
 20
-108.8032
 30
0.0
 10
-180.7005
 20
-108.8032
 30
0.0
 10
-180.7005
 20
-108.8032
 30
0.0
 10
-180.7005
 20
-108.8032
 30
0.0
 10
-180.7005
 20
-108.8032
 30
0.0
 10
-180.7005
 20
-66.9338
 30
0.0
 10
-180.7005
 20
-66.9338
 30
0.0
 10
-180.7005
 20
-66.9338
 30
0.0
 10
-179.1126
 20
-67.7066
 30
0.0
 10
-177.7235
 20
-68.8355
 30
0.0
 10
-176.6425
 20
-70.2316
 30
0.0
 10
-176.6425
 20
-70.2316
 30
0.0
 10
-175.5323
 20
-71.6657
 30
0.0
 10
-175.0484
 20
-73.4891
 30
0.0
 10
-175.3006
 20
-75.2853
 30
0.0
 10
-175.3006
 20
-75.2853
 30
0.0
 10
-175.564
 20
-77.1627
 30
0.0
 10
-175.7658
 20
-79.0477
 30
0.0
 10
-175.9052
 20
-80.938
 30
0.0
 10
-175.9052
 20
-80.938
 30
0.0
 10
-176.0463
 20
-82.8564
 30
0.0
 10
-175.7189
 20
-84.7794
 30
0.0
 10
-174.9505
 20
-86.5429
 30
0.0
 10
-174.9505
 20
-86.5429
 30
0.0
 10
-174.7156
 20
-87.079
 30
0.0
 10
-174.194
 20
-87.4328
 30
0.0
 10
-173.6088
 20
-87.4539
 30
0.0
 10
-173.6088
 20
-87.4539
 30
0.0
 10
-173.0239
 20
-87.475
 30
0.0
 10
-172.4822
 20
-87.1662
 30
0.0
 10
-172.2087
 20
-86.6484
 30
0.0
 10
-172.2087
 20
-86.6484
 30
0.0
 10
-171.7765
 20
-85.8327
 30
0.0
 10
-171.502
 20
-84.9438
 30
0.0
 10
-171.3999
 20
-84.0265
 30
0.0
 10
-171.3999
 20
-84.0265
 30
0.0
 10
-171.2815
 20
-82.9631
 30
0.0
 10
-171.2671
 20
-81.8913
 30
0.0
 10
-171.3577
 20
-80.8251
 30
0.0
 10
-171.3577
 20
-80.8251
 30
0.0
 10
-171.4487
 20
-79.7506
 30
0.0
 10
-171.7604
 20
-78.7061
 30
0.0
 10
-172.2726
 20
-77.7571
 30
0.0
 10
-172.2726
 20
-77.7571
 30
0.0
 10
-172.865
 20
-76.661
 30
0.0
 10
-173.2472
 20
-75.4631
 30
0.0
 10
-173.3995
 20
-74.2263
 30
0.0
 10
-173.3995
 20
-74.2263
 30
0.0
 10
-173.5528
 20
-72.9801
 30
0.0
 10
-173.3834
 20
-71.7152
 30
0.0
 10
-172.9078
 20
-70.5533
 30
0.0
 10
-172.9078
 20
-70.5533
 30
0.0
 10
-171.8466
 20
-67.9598
 30
0.0
 10
-169.722
 20
-65.9457
 30
0.0
 10
-167.0762
 20
-65.023
 30
0.0
 10
-167.0762
 20
-65.023
 30
0.0
 10
-165.2489
 20
-64.4041
 30
0.0
 10
-163.2748
 20
-64.3597
 30
0.0
 10
-161.4213
 20
-64.8952
 30
0.0
 10
-161.4213
 20
-64.8952
 30
0.0
 10
-158.1723
 20
-65.8342
 30
0.0
 10
-155.2092
 20
-67.5742
 30
0.0
 10
-152.8064
 20
-69.9539
 30
0.0
 10
-152.8064
 20
-69.9539
 30
0.0
 10
-151.5191
 20
-71.2289
 30
0.0
 10
-150.8474
 20
-73.0008
 30
0.0
 10
-150.9657
 20
-74.8087
 30
0.0
 10
-150.9657
 20
-74.8087
 30
0.0
 10
-151.0813
 20
-76.5681
 30
0.0
 10
-151.6807
 20
-78.2629
 30
0.0
 10
-152.6981
 20
-79.7028
 30
0.0
 10
-152.6981
 20
-79.7028
 30
0.0
 10
-149.0944
 20
-75.0854
 30
0.0
 10
-144.7691
 20
-71.0768
 30
0.0
 10
-139.8922
 20
-67.8332
 30
0.0
 10
-139.8922
 20
-67.8332
 30
0.0
 10
-136.4186
 20
-65.522
 30
0.0
 10
-132.0605
 20
-64.968
 30
0.0
 10
-128.1181
 20
-66.3326
 30
0.0
 10
-128.1181
 20
-66.3326
 30
0.0
 10
-123.84
 20
-67.8137
 30
0.0
 10
-120.2637
 20
-70.8361
 30
0.0
 10
-118.0879
 20
-74.8071
 30
0.0
 10
-118.0879
 20
-74.8071
 30
0.0
 10
-115.7455
 20
-79.0783
 30
0.0
 10
-116.5456
 20
-84.3926
 30
0.0
 10
-120.0348
 20
-87.7923
 30
0.0
 10
-120.0348
 20
-87.7923
 30
0.0
 10
-123.4604
 20
-91.1286
 30
0.0
 10
-128.533
 20
-92.1381
 30
0.0
 10
-132.9772
 20
-90.373
 30
0.0
 10
-132.9772
 20
-90.373
 30
0.0
 10
-134.8824
 20
-89.6179
 30
0.0
 10
-136.3537
 20
-88.0545
 30
0.0
 10
-136.9915
 20
-86.1072
 30
0.0
 10
-136.9915
 20
-86.1072
 30
0.0
 10
-137.6292
 20
-84.1593
 30
0.0
 10
-137.3614
 20
-82.0181
 30
0.0
 10
-136.2719
 20
-80.2823
 30
0.0
 10
-136.2719
 20
-80.2823
 30
0.0
 10
-135.5224
 20
-79.0889
 30
0.0
 10
-134.0545
 20
-78.5595
 30
0.0
 10
-132.715
 20
-78.9973
 30
0.0
 10
-132.715
 20
-78.9973
 30
0.0
 10
-130.2905
 20
-79.7896
 30
0.0
 10
-127.6674
 20
-78.5783
 30
0.0
 10
-126.7034
 20
-76.2165
 30
0.0
 10
-126.7034
 20
-76.2165
 30
0.0
 10
-126.1129
 20
-74.7715
 30
0.0
 10
-126.5041
 20
-73.1119
 30
0.0
 10
-127.6796
 20
-72.0841
 30
0.0
 10
-127.6796
 20
-72.0841
 30
0.0
 10
-128.7842
 20
-71.1178
 30
0.0
 10
-130.2165
 20
-70.6116
 30
0.0
 10
-131.6828
 20
-70.6689
 30
0.0
 10
-131.6828
 20
-70.6689
 30
0.0
 10
-134.3107
 20
-70.7718
 30
0.0
 10
-136.9131
 20
-71.2185
 30
0.0
 10
-139.4243
 20
-71.9985
 30
0.0
 10
-139.4243
 20
-71.9985
 30
0.0
 10
-141.9718
 20
-72.789
 30
0.0
 10
-144.2547
 20
-74.2581
 30
0.0
 10
-146.0292
 20
-76.2492
 30
0.0
 10
-146.0292
 20
-76.2492
 30
0.0
 10
-147.0188
 20
-77.3598
 30
0.0
 10
-147.9611
 20
-78.5116
 30
0.0
 10
-148.8532
 20
-79.7018
 30
0.0
 10
-148.8532
 20
-79.7018
 30
0.0
 10
-149.7456
 20
-80.8912
 30
0.0
 10
-150.6585
 20
-82.0647
 30
0.0
 10
-151.5925
 20
-83.2219
 30
0.0
 10
-151.5925
 20
-83.2219
 30
0.0
 10
-148.3189
 20
-81.8147
 30
0.0
 10
-144.5153
 20
-82.5409
 30
0.0
 10
-141.9873
 20
-85.0515
 30
0.0
 10
-141.9873
 20
-85.0515
 30
0.0
 10
-137.6321
 20
-89.3757
 30
0.0
 10
-136.8309
 20
-96.1372
 30
0.0
 10
-140.045
 20
-101.3655
 30
0.0
 10
-140.045
 20
-101.3655
 30
0.0
 10
-141.1911
 20
-103.2295
 30
0.0
 10
-143.123
 20
-104.4729
 30
0.0
 10
-145.2942
 20
-104.7462
 30
0.0
 10
-145.2942
 20
-104.7462
 30
0.0
 10
-147.4605
 20
-105.019
 30
0.0
 10
-149.6377
 20
-104.3162
 30
0.0
 10
-151.2368
 20
-102.83
 30
0.0
 10
-151.2368
 20
-102.83
 30
0.0
 10
-152.2592
 20
-101.8787
 30
0.0
 10
-153.2559
 20
-100.9016
 30
0.0
 10
-154.2258
 20
-99.8976
 30
0.0
 10
-154.2258
 20
-99.8976
 30
0.0
 10
-155.2205
 20
-98.8692
 30
0.0
 10
-156.5127
 20
-98.1796
 30
0.0
 10
-157.9211
 20
-97.928
 30
0.0
 10
-157.9211
 20
-97.928
 30
0.0
 10
-159.1617
 20
-97.7058
 30
0.0
 10
-160.4102
 20
-97.533
 30
0.0
 10
-161.6647
 20
-97.4108
 30
0.0
 10
-161.6647
 20
-97.4108
 30
0.0
 10
-162.6748
 20
-97.3141
 30
0.0
 10
-163.6592
 20
-97.7697
 30
0.0
 10
-164.2399
 20
-98.602
 30
0.0
 10
-164.2399
 20
-98.602
 30
0.0
 10
-164.8205
 20
-99.4343
 30
0.0
 10
-164.9127
 20
-100.5053
 30
0.0
 10
-164.4726
 20
-101.4198
 30
0.0
 10
-164.4726
 20
-101.4198
 30
0.0
 10
-163.7943
 20
-102.8394
 30
0.0
 10
-162.4753
 20
-103.8445
 30
0.0
 10
-160.9268
 20
-104.1216
 30
0.0
 10
-160.9268
 20
-104.1216
 30
0.0
 10
-159.0279
 20
-104.4618
 30
0.0
 10
-157.1467
 20
-104.8957
 30
0.0
 10
-155.2904
 20
-105.4217
 30
0.0
 10
-155.2904
 20
-105.4217
 30
0.0
 10
-154.2531
 20
-105.7157
 30
0.0
 10
-153.2613
 20
-106.153
 30
0.0
 10
-152.3446
 20
-106.7208
 30
0.0
 10
-152.3446
 20
-106.7208
 30
0.0
 10
-151.4446
 20
-107.278
 30
0.0
 10
-150.6446
 20
-107.9819
 30
0.0
 10
-149.9767
 20
-108.8032
 30
0.0
  0
SPLINE
  5
4C
330
1F
100
AcDbEntity
  8
layer 1
 62
     7
100
AcDbSpline
210
0.0
220
0.0
230
1.0
 70
    11
 71
     3
 72
    72
 73
    68
 74
     0
 42
0.0000000001
 43
0.0000000001
 12
1.0
 22
0.0
 32
0.0
 13
1.0
 23
0.0
 33
0.0
 40
0.0
 40
0.0
 40
0.0
 40
0.0
 40
0.0555555555555556
 40
0.0555555555555556
 40
0.0555555555555556
 40
0.0555555555555556
 40
0.1111111111111111
 40
0.1111111111111111
 40
0.1111111111111111
 40
0.1111111111111111
 40
0.1666666666666667
 40
0.1666666666666667
 40
0.1666666666666667
 40
0.1666666666666667
 40
0.2222222222222222
 40
0.2222222222222222
 40
0.2222222222222222
 40
0.2222222222222222
 40
0.2777777777777778
 40
0.2777777777777778
 40
0.2777777777777778
 40
0.2777777777777778
 40
0.3333333333333333
 40
0.3333333333333333
 40
0.3333333333333333
 40
0.3333333333333333
 40
0.3888888888888889
 40
0.3888888888888889
 40
0.3888888888888889
 40
0.3888888888888889
 40
0.4444444444444444
 40
0.4444444444444444
 40
0.4444444444444444
 40
0.4444444444444444
 40
0.5
 40
0.5
 40
0.5
 40
0.5
 40
0.5555555555555556
 40
0.5555555555555556
 40
0.5555555555555556
 40
0.5555555555555556
 40
0.6111111111111112
 40
0.6111111111111112
 40
0.6111111111111112
 40
0.6111111111111112
 40
0.6666666666666666
 40
0.6666666666666666
 40
0.6666666666666666
 40
0.6666666666666666
 40
0.7222222222222222
 40
0.7222222222222222
 40
0.7222222222222222
 40
0.7222222222222222
 40
0.7777777777777778
 40
0.7777777777777778
 40
0.7777777777777778
 40
0.7777777777777778
 40
0.8333333333333334
 40
0.8333333333333334
 40
0.8333333333333334
 40
0.8333333333333334
 40
0.8888888888888888
 40
0.8888888888888888
 40
0.8888888888888888
 40
0.8888888888888888
 40
1.0
 40
1.0
 40
1.0
 40
1.0
 10
-72.141
 20
-95.1066
 30
0.0
 10
-73.7093
 20
-98.2375
 30
0.0
 10
-75.7917
 20
-101.0842
 30
0.0
 10
-78.2996
 20
-103.5279
 30
0.0
 10
-78.2996
 20
-103.5279
 30
0.0
 10
-80.8265
 20
-105.9902
 30
0.0
 10
-83.9167
 20
-107.8015
 30
0.0
 10
-87.3004
 20
-108.8032
 30
0.0
 10
-87.3004
 20
-108.8032
 30
0.0
 10
-87.3004
 20
-108.8032
 30
0.0
 10
-101.6997
 20
-108.8032
 30
0.0
 10
-101.6997
 20
-108.8032
 30
0.0
 10
-101.6997
 20
-108.8032
 30
0.0
 10
-95.0875
 20
-107.4458
 30
0.0
 10
-88.9515
 20
-104.374
 30
0.0
 10
-83.9045
 20
-99.8914
 30
0.0
 10
-83.9045
 20
-99.8914
 30
0.0
 10
-82.1328
 20
-98.3174
 30
0.0
 10
-81.3977
 20
-95.8828
 30
0.0
 10
-82.005
 20
-93.5915
 30
0.0
 10
-82.005
 20
-93.5915
 30
0.0
 10
-82.4599
 20
-91.8749
 30
0.0
 10
-83.6167
 20
-90.4303
 30
0.0
 10
-85.1935
 20
-89.6124
 30
0.0
 10
-85.1935
 20
-89.6124
 30
0.0
 10
-86.8065
 20
-88.7757
 30
0.0
 10
-88.7375
 20
-88.8402
 30
0.0
 10
-90.29
 20
-89.7841
 30
0.0
 10
-90.29
 20
-89.7841
 30
0.0
 10
-90.8412
 20
-90.119
 30
0.0
 10
-91.3311
 20
-90.5452
 30
0.0
 10
-91.7394
 20
-91.0448
 30
0.0
 10
-91.7394
 20
-91.0448
 30
0.0
 10
-92.8896
 20
-92.452
 30
0.0
 10
-94.7264
 20
-93.106
 30
0.0
 10
-96.5075
 20
-92.7449
 30
0.0
 10
-96.5075
 20
-92.7449
 30
0.0
 10
-98.8795
 20
-92.2649
 30
0.0
 10
-100.8967
 20
-90.7158
 30
0.0
 10
-101.9718
 20
-88.5479
 30
0.0
 10
-101.9718
 20
-88.5479
 30
0.0
 10
-103.0474
 20
-86.3799
 30
0.0
 10
-103.0536
 20
-83.8221
 30
0.0
 10
-102.0001
 20
-81.6429
 30
0.0
 10
-102.0001
 20
-81.6429
 30
0.0
 10
-99.9145
 20
-77.3387
 30
0.0
 10
-95.7275
 20
-74.4353
 30
0.0
 10
-90.9662
 20
-73.9858
 30
0.0
 10
-90.9662
 20
-73.9858
 30
0.0
 10
-88.2398
 20
-73.7292
 30
0.0
 10
-85.4897
 20
-74.0586
 30
0.0
 10
-82.9016
 20
-74.9513
 30
0.0
 10
-82.9016
 20
-74.9513
 30
0.0
 10
-80.3199
 20
-75.8415
 30
0.0
 10
-77.9275
 20
-77.2099
 30
0.0
 10
-75.8511
 20
-78.9834
 30
0.0
 10
-75.8511
 20
-78.9834
 30
0.0
 10
-74.999
 20
-79.7113
 30
0.0
 10
-74.2289
 20
-80.5291
 30
0.0
 10
-73.5532
 20
-81.4225
 30
0.0
 10
-73.5532
 20
-81.4225
 30
0.0
 10
-72.8722
 20
-82.3237
 30
0.0
 10
-72.3903
 20
-83.3604
 30
0.0
 10
-72.141
 20
-84.4615
 30
0.0
 10
-72.141
 20
-84.4615
 30
0.0
 10
-72.141
 20
-84.4615
 30
0.0
 10
-72.141
 20
-95.1066
 30
0.0
 10
-72.141
 20
-95.1066
 30
0.0
  0
SPLINE
  5
4D
330
1F
100
AcDbEntity
  8
layer 1
 62
     7
100
AcDbSpline
210
0.0
220
0.0
230
1.0
 70
    11
 71
     3
 72
    64
 73
    60
 74
     0
 42
0.0000000001
 43
0.0000000001
 12
1.0
 22
0.0
 32
0.0
 13
1.0
 23
0.0
 33
0.0
 40
0.0
 40
0.0
 40
0.0
 40
0.0
 40
0.0625
 40
0.0625
 40
0.0625
 40
0.0625
 40
0.125
 40
0.125
 40
0.125
 40
0.125
 40
0.1875
 40
0.1875
 40
0.1875
 40
0.1875
 40
0.25
 40
0.25
 40
0.25
 40
0.25
 40
0.3125
 40
0.3125
 40
0.3125
 40
0.3125
 40
0.375
 40
0.375
 40
0.375
 40
0.375
 40
0.4375
 40
0.4375
 40
0.4375
 40
0.4375
 40
0.5
 40
0.5
 40
0.5
 40
0.5
 40
0.5625
 40
0.5625
 40
0.5625
 40
0.5625
 40
0.625
 40
0.625
 40
0.625
 40
0.625
 40
0.6875
 40
0.6875
 40
0.6875
 40
0.6875
 40
0.75
 40
0.75
 40
0.75
 40
0.75
 40
0.8125
 40
0.8125
 40
0.8125
 40
0.8125
 40
0.875
 40
0.875
 40
0.875
 40
0.875
 40
1.0
 40
1.0
 40
1.0
 40
1.0
 10
-72.141
 20
115.3436
 30
0.0
 10
-73.4394
 20
114.1056
 30
0.0
 10
-75.0235
 20
113.2072
 30
0.0
 10
-76.7524
 20
112.7277
 30
0.0
 10
-76.7524
 20
112.7277
 30
0.0
 10
-78.512
 20
112.24
 30
0.0
 10
-80.391
 20
112.4155
 30
0.0
 10
-82.0305
 20
113.2194
 30
0.0
 10
-82.0305
 20
113.2194
 30
0.0
 10
-84.1123
 20
114.2396
 30
0.0
 10
-85.2275
 20
116.5537
 30
0.0
 10
-84.7324
 20
118.8183
 30
0.0
 10
-84.7324
 20
118.8183
 30
0.0
 10
-84.474
 20
119.9982
 30
0.0
 10
-84.5668
 20
121.2272
 30
0.0
 10
-84.9996
 20
122.3546
 30
0.0
 10
-84.9996
 20
122.3546
 30
0.0
 10
-85.2974
 20
123.1319
 30
0.0
 10
-85.8158
 20
123.8046
 30
0.0
 10
-86.4914
 20
124.2907
 30
0.0
 10
-86.4914
 20
124.2907
 30
0.0
 10
-87.1581
 20
124.7708
 30
0.0
 10
-87.908
 20
125.1224
 30
0.0
 10
-88.7038
 20
125.3292
 30
0.0
 10
-88.7038
 20
125.3292
 30
0.0
 10
-88.7038
 20
125.3292
 30
0.0
 10
-93.778
 20
125.3292
 30
0.0
 10
-93.778
 20
125.3292
 30
0.0
 10
-93.778
 20
125.3292
 30
0.0
 10
-96.4854
 20
124.6974
 30
0.0
 10
-98.8911
 20
123.1546
 30
0.0
 10
-100.5935
 20
120.9567
 30
0.0
 10
-100.5935
 20
120.9567
 30
0.0
 10
-102.2679
 20
118.7944
 30
0.0
 10
-103.4232
 20
116.2776
 30
0.0
 10
-103.9703
 20
113.5972
 30
0.0
 10
-103.9703
 20
113.5972
 30
0.0
 10
-104.7243
 20
109.9053
 30
0.0
 10
-103.773
 20
106.0723
 30
0.0
 10
-101.3786
 20
103.1627
 30
0.0
 10
-101.3786
 20
103.1627
 30
0.0
 10
-96.6609
 20
97.4313
 30
0.0
 10
-89.2487
 20
94.6548
 30
0.0
 10
-81.9282
 20
95.885
 30
0.0
 10
-81.9282
 20
95.885
 30
0.0
 10
-79.2569
 20
96.3333
 30
0.0
 10
-76.7246
 20
97.3834
 30
0.0
 10
-74.5199
 20
98.9568
 30
0.0
 10
-74.5199
 20
98.9568
 30
0.0
 10
-74.07
 20
99.2892
 30
0.0
 10
-73.641
 20
99.649
 30
0.0
 10
-73.2355
 20
100.0353
 30
0.0
 10
-73.2355
 20
100.0353
 30
0.0
 10
-72.83
 20
100.4215
 30
0.0
 10
-72.4633
 20
100.8471
 30
0.0
 10
-72.141
 20
101.306
 30
0.0
 10
-72.141
 20
101.306
 30
0.0
 10
-72.141
 20
101.306
 30
0.0
 10
-72.141
 20
115.3436
 30
0.0
 10
-72.141
 20
115.3436
 30
0.0
  0
SPLINE
  5
4E
330
1F
100
AcDbEntity
  8
layer 1
 62
     7
100
AcDbSpline
210
0.0
220
0.0
230
1.0
 70
    11
 71
     3
 72
    92
 73
    88
 74
     0
 42
0.0000000001
 43
0.0000000001
 12
1.0
 22
0.0
 32
0.0
 13
1.0
 23
0.0
 33
0.0
 40
0.0
 40
0.0
 40
0.0
 40
0.0
 40
0.0434782608695652
 40
0.0434782608695652
 40
0.0434782608695652
 40
0.0434782608695652
 40
0.0869565217391304
 40
0.0869565217391304
 40
0.0869565217391304
 40
0.0869565217391304
 40
0.1304347826086956
 40
0.1304347826086956
 40
0.1304347826086956
 40
0.1304347826086956
 40
0.1739130434782609
 40
0.1739130434782609
 40
0.1739130434782609
 40
0.1739130434782609
 40
0.2173913043478261
 40
0.2173913043478261
 40
0.2173913043478261
 40
0.2173913043478261
 40
0.2608695652173913
 40
0.2608695652173913
 40
0.2608695652173913
 40
0.2608695652173913
 40
0.3043478260869565
 40
0.3043478260869565
 40
0.3043478260869565
 40
0.3043478260869565
 40
0.3478260869565217
 40
0.3478260869565217
 40
0.3478260869565217
 40
0.3478260869565217
 40
0.391304347826087
 40
0.391304347826087
 40
0.391304347826087
 40
0.391304347826087
 40
0.4347826086956522
 40
0.4347826086956522
 40
0.4347826086956522
 40
0.4347826086956522
 40
0.4782608695652174
 40
0.4782608695652174
 40
0.4782608695652174
 40
0.4782608695652174
 40
0.5217391304347826
 40
0.5217391304347826
 40
0.5217391304347826
 40
0.5217391304347826
 40
0.5652173913043478
 40
0.5652173913043478
 40
0.5652173913043478
 40
0.5652173913043478
 40
0.6086956521739131
 40
0.6086956521739131
 40
0.6086956521739131
 40
0.6086956521739131
 40
0.6521739130434783
 40
0.6521739130434783
 40
0.6521739130434783
 40
0.6521739130434783
 40
0.6956521739130435
 40
0.6956521739130435
 40
0.6956521739130435
 40
0.6956521739130435
 40
0.7391304347826086
 40
0.7391304347826086
 40
0.7391304347826086
 40
0.7391304347826086
 40
0.782608695652174
 40
0.782608695652174
 40
0.782608695652174
 40
0.782608695652174
 40
0.8260869565217391
 40
0.8260869565217391
 40
0.8260869565217391
 40
0.8260869565217391
 40
0.8695652173913043
 40
0.8695652173913043
 40
0.8695652173913043
 40
0.8695652173913043
 40
0.9130434782608695
 40
0.9130434782608695
 40
0.9130434782608695
 40
0.9130434782608695
 40
1.0
 40
1.0
 40
1.0
 40
1.0
 10
-72.141
 20
23.3746
 30
0.0
 10
-72.141
 20
23.3746
 30
0.0
 10
-72.141
 20
27.2198
 30
0.0
 10
-72.141
 20
27.2198
 30
0.0
 10
-72.141
 20
27.2198
 30
0.0
 10
-72.5187
 20
27.4292
 30
0.0
 10
-72.8993
 20
27.6332
 30
0.0
 10
-73.2827
 20
27.8321
 30
0.0
 10
-73.2827
 20
27.8321
 30
0.0
 10
-73.6667
 20
28.031
 30
0.0
 10
-74.0499
 20
28.231
 30
0.0
 10
-74.4327
 20
28.4315
 30
0.0
 10
-74.4327
 20
28.4315
 30
0.0
 10
-76.6613
 20
29.6223
 30
0.0
 10
-78.903
 20
30.788
 30
0.0
 10
-81.1576
 20
31.9279
 30
0.0
 10
-81.1576
 20
31.9279
 30
0.0
 10
-83.8518
 20
33.2891
 30
0.0
 10
-87.043
 20
33.223
 30
0.0
 10
-89.6771
 20
31.7485
 30
0.0
 10
-89.6771
 20
31.7485
 30
0.0
 10
-91.5256
 20
30.714
 30
0.0
 10
-92.899
 20
29.0034
 30
0.0
 10
-93.5091
 20
26.9749
 30
0.0
 10
-93.5091
 20
26.9749
 30
0.0
 10
-94.1069
 20
24.9864
 30
0.0
 10
-94.167
 20
22.8757
 30
0.0
 10
-93.6823
 20
20.856
 30
0.0
 10
-93.6823
 20
20.856
 30
0.0
 10
-93.1317
 20
18.5649
 30
0.0
 10
-91.3172
 20
16.7936
 30
0.0
 10
-89.0126
 20
16.3025
 30
0.0
 10
-89.0126
 20
16.3025
 30
0.0
 10
-86.8459
 20
15.8397
 30
0.0
 10
-84.5951
 20
15.9796
 30
0.0
 10
-82.5021
 20
16.7076
 30
0.0
 10
-82.5021
 20
16.7076
 30
0.0
 10
-80.7037
 20
17.3331
 30
0.0
 10
-79.2965
 20
18.7538
 30
0.0
 10
-78.6903
 20
20.5594
 30
0.0
 10
-78.6903
 20
20.5594
 30
0.0
 10
-78.048
 20
22.4728
 30
0.0
 10
-78.7787
 20
24.5769
 30
0.0
 10
-80.4704
 20
25.678
 30
0.0
 10
-80.4704
 20
25.678
 30
0.0
 10
-81.0927
 20
26.0825
 30
0.0
 10
-81.8272
 20
26.278
 30
0.0
 10
-82.5684
 20
26.2354
 30
0.0
 10
-82.5684
 20
26.2354
 30
0.0
 10
-83.3656
 20
26.1892
 30
0.0
 10
-84.0445
 20
25.6402
 30
0.0
 10
-84.2551
 20
24.8702
 30
0.0
 10
-84.2551
 20
24.8702
 30
0.0
 10
-84.3496
 20
24.5252
 30
0.0
 10
-84.4846
 20
24.1924
 30
0.0
 10
-84.6562
 20
23.879
 30
0.0
 10
-84.6562
 20
23.879
 30
0.0
 10
-84.8363
 20
23.5518
 30
0.0
 10
-85.1519
 20
23.3202
 30
0.0
 10
-85.518
 20
23.2468
 30
0.0
 10
-85.518
 20
23.2468
 30
0.0
 10
-86.663
 20
23.0173
 30
0.0
 10
-87.8514
 20
23.3123
 30
0.0
 10
-88.7564
 20
24.0502
 30
0.0
 10
-88.7564
 20
24.0502
 30
0.0
 10
-89.6982
 20
24.818
 30
0.0
 10
-90.0816
 20
26.0803
 30
0.0
 10
-89.7272
 20
27.2425
 30
0.0
 10
-89.7272
 20
27.2425
 30
0.0
 10
-89.1631
 20
29.0944
 30
0.0
 10
-87.298
 20
30.2295
 30
0.0
 10
-85.3935
 20
29.8839
 30
0.0
 10
-85.3935
 20
29.8839
 30
0.0
 10
-83.3567
 20
29.5134
 30
0.0
 10
-81.4066
 20
28.7645
 30
0.0
 10
-79.6453
 20
27.6772
 30
0.0
 10
-79.6453
 20
27.6772
 30
0.0
 10
-79.1599
 20
27.3754
 30
0.0
 10
-78.677
 20
27.0699
 30
0.0
 10
-78.1963
 20
26.7603
 30
0.0
 10
-78.1963
 20
26.7603
 30
0.0
 10
-76.7045
 20
25.7992
 30
0.0
 10
-75.1724
 20
24.902
 30
0.0
 10
-73.6044
 20
24.0697
 30
0.0
 10
-73.6044
 20
24.0697
 30
0.0
 10
-73.1244
 20
23.8223
 30
0.0
 10
-72.6361
 20
23.5906
 30
0.0
 10
-72.141
 20
23.3746
 30
0.0
  0
ENDSEC
  0
SECTION
  2
OBJECTS
  0
DICTIONARY
  5
C
330
0
100
AcDbDictionary
281
     1
  3
ACAD_GROUP
350
D
  3
ACAD_LAYOUT
350
1A
  3
ACAD_MATERIAL
350
3B
  3
ACAD_MLEADERSTYLE
350
71
  3
ACAD_MLINESTYLE
350
17
  3
ACAD_PLOTSETTINGS
350
19
  3
ACAD_PLOTSTYLENAME
350
E
  3
ACAD_TABLESTYLE
350
70
  3
ACAD_VISUALSTYLE
350
2A
  0
DICTIONARY
  5
D
102
{ACAD_REACTORS
330
C
102
}
330
C
100
AcDbDictionary
281
     1
  0
DICTIONARY
  5
1A
102
{ACAD_REACTORS
330
C
102
}
330
C
100
AcDbDictionary
281
     1
  3
Layout1
350
1E
  3
Layout2
350
26
  3
Model
350
22
  0
DICTIONARY
  5
3B
102
{ACAD_REACTORS
330
C
102
}
330
C
100
AcDbDictionary
281
     1
  3
ByBlock
350
3D
  3
ByLayer
350
3C
  3
Global
350
3E
  0
DICTIONARY
  5
71
102
{ACAD_REACTORS
330
C
102
}
330
C
100
AcDbDictionary
281
     1
  0
DICTIONARY
  5
17
102
{ACAD_REACTORS
330
C
102
}
330
C
100
AcDbDictionary
281
     1
  3
Standard
350
18
  0
DICTIONARY
  5
19
102
{ACAD_REACTORS
330
C
102
}
330
C
100
AcDbDictionary
281
     1
  0
ACDBDICTIONARYWDFLT
  5
E
102
{ACAD_REACTORS
330
C
102
}
330
C
100
AcDbDictionary
281
     1
  3
Normal
350
F
100
AcDbDictionaryWithDefault
340
F
  0
DICTIONARY
  5
70
102
{ACAD_REACTORS
330
C
102
}
330
C
100
AcDbDictionary
281
     1
  0
DICTIONARY
  5
2A
102
{ACAD_REACTORS
330
C
102
}
330
C
100
AcDbDictionary
281
     1
  3
2dWireframe
350
2F
  3
3D Hidden
350
31
  3
3dWireframe
350
30
  3
Basic
350
32
  3
Brighten
350
36
  3
ColorChange
350
3A
  3
Conceptual
350
34
  3
Dim
350
35
  3
Facepattern
350
39
  3
Flat
350
2B
  3
FlatWithEdges
350
2C
  3
Gouraud
350
2D
  3
GouraudWithEdges
350
2E
  3
Linepattern
350
38
  3
Realistic
350
33
  3
Thicken
350
37
  0
LAYOUT
  5
1E
102
{ACAD_REACTORS
330
1A
102
}
330
1A
100
AcDbPlotSettings
  1

  2
none_device
  4

  6

 40
0.0
 41
0.0
 42
0.0
 43
0.0
 44
0.0
 45
0.0
 46
0.0
 47
0.0
 48
0.0
 49
0.0
140
0.0
141
0.0
142
1.0
143
1.0
 70
   688
 72
     0
 73
     0
 74
     5
  7

 75
    16
 76
     0
 77
     2
 78
   300
147
1.0
148
0.0
149
0.0
100
AcDbLayout
  1
Layout1
 70
     1
 71
     1
 10
0.0
 20
0.0
 11
12.0
 21
9.0
 12
0.0
 22
0.0
 32
0.0
 14
1.000000000000000E+20
 24
1.000000000000000E+20
 34
1.000000000000000E+20
 15
-1.000000000000000E+20
 25
-1.000000000000000E+20
 35
-1.000000000000000E+20
146
0.0
 13
0.0
 23
0.0
 33
0.0
 16
1.0
 26
0.0
 36
0.0
 17
0.0
 27
1.0
 37
0.0
 76
     0
330
1B
  0
LAYOUT
  5
26
102
{ACAD_REACTORS
330
1A
102
}
330
1A
100
AcDbPlotSettings
  1

  2
none_device
  4

  6

 40
0.0
 41
0.0
 42
0.0
 43
0.0
 44
0.0
 45
0.0
 46
0.0
 47
0.0
 48
0.0
 49
0.0
140
0.0
141
0.0
142
1.0
143
1.0
 70
   688
 72
     0
 73
     0
 74
     5
  7

 75
    16
 76
     0
 77
     2
 78
   300
147
1.0
148
0.0
149
0.0
100
AcDbLayout
  1
Layout2
 70
     1
 71
     2
 10
0.0
 20
0.0
 11
0.0
 21
0.0
 12
0.0
 22
0.0
 32
0.0
 14
0.0
 24
0.0
 34
0.0
 15
0.0
 25
0.0
 35
0.0
146
0.0
 13
0.0
 23
0.0
 33
0.0
 16
1.0
 26
0.0
 36
0.0
 17
0.0
 27
1.0
 37
0.0
 76
     0
330
23
  0
LAYOUT
  5
22
102
{ACAD_REACTORS
330
1A
102
}
330
1A
100
AcDbPlotSettings
  1

  2
none_device
  4

  6

 40
0.0
 41
0.0
 42
0.0
 43
0.0
 44
0.0
 45
0.0
 46
0.0
 47
0.0
 48
0.0
 49
0.0
140
0.0
141
0.0
142
1.0
143
1.0
 70
  1712
 72
     0
 73
     0
 74
     0
  7

 75
     0
 76
     0
 77
     2
 78
   300
147
1.0
148
0.0
149
0.0
100
AcDbLayout
  1
Model
 70
     1
 71
     0
 10
0.0
 20
0.0
 11
12.0
 21
9.0
 12
0.0
 22
0.0
 32
0.0
 14
-187.0426
 24
-115.1453
 34
0.0
 15
-65.7988
 25
131.6707
 35
0.0
146
0.0
 13
0.0
 23
0.0
 33
0.0
 16
1.0
 26
0.0
 36
0.0
 17
0.0
 27
1.0
 37
0.0
 76
     0
330
1F
331
29
  0
MATERIAL
  5
3D
102
{ACAD_REACTORS
330
3B
102
}
330
3B
100
AcDbMaterial
  1
ByBlock
 72
     1
 94
      127
  0
MATERIAL
  5
3C
102
{ACAD_REACTORS
330
3B
102
}
330
3B
100
AcDbMaterial
  1
ByLayer
 72
     1
 94
      127
  0
MATERIAL
  5
3E
102
{ACAD_REACTORS
330
3B
102
}
330
3B
100
AcDbMaterial
  1
Global
 72
     1
 94
      127
  0
MLINESTYLE
  5
18
102
{ACAD_REACTORS
330
17
102
}
330
17
100
AcDbMlineStyle
  2
Standard
 70
     0
  3

 62
   256
 51
90.0
 52
90.0
 71
     2
 49
0.5
 62
   256
  6
BYLAYER
 49
-0.5
 62
   256
  6
BYLAYER
  0
ACDBPLACEHOLDER
  5
F
102
{ACAD_REACTORS
330
E
102
}
330
E
  0
VISUALSTYLE
  5
2F
102
{ACAD_REACTORS
330
2A
102
}
102
{ACAD_XDICTIONARY
360
58
102
}
330
2A
100
AcDbVisualStyle
  2
2dWireframe
 70
     4
 71
     0
 72
     2
 73
     0
 90
        0
 40
-0.6
 41
-30.0
 62
     5
 63
     7
421
 16777215
 74
     1
 91
        4
 64
     7
 65
   257
 75
     1
175
     1
 42
1.0
 92
        0
 66
   257
 43
1.0
 76
     1
 77
     6
 78
     2
 67
     7
 79
     5
170
     0
171
     0
290
     0
174
     0
 93
        1
 44
0.0
173
     0
291
     0
 45
0.0
  0
VISUALSTYLE
  5
31
102
{ACAD_REACTORS
330
2A
102
}
102
{ACAD_XDICTIONARY
360
5C
102
}
330
2A
100
AcDbVisualStyle
  2
3D Hidden
 70
     6
 71
     1
 72
     2
 73
     2
 90
        0
 40
-0.6
 41
-30.0
 62
     5
 63
     7
421
 16777215
 74
     2
 91
        2
 64
     7
 65
   257
 75
     2
175
     1
 42
40.0
 92
        0
 66
   257
 43
1.0
 76
     1
 77
     6
 78
     2
 67
     7
 79
     3
170
     0
171
     0
290
     0
174
     0
 93
        1
 44
0.0
173
     0
291
     0
 45
0.0
  0
VISUALSTYLE
  5
30
102
{ACAD_REACTORS
330
2A
102
}
102
{ACAD_XDICTIONARY
360
5A
102
}
330
2A
100
AcDbVisualStyle
  2
3dWireframe
 70
     5
 71
     0
 72
     2
 73
     0
 90
        0
 40
-0.6
 41
-30.0
 62
     5
 63
     7
421
 16777215
 74
     1
 91
        4
 64
     7
 65
   257
 75
     1
175
     1
 42
1.0
 92
        0
 66
   257
 43
1.0
 76
     1
 77
     6
 78
     2
 67
     7
 79
     5
170
     0
171
     0
290
     0
174
     0
 93
        1
 44
0.0
173
     0
291
     0
 45
0.0
  0
VISUALSTYLE
  5
32
102
{ACAD_REACTORS
330
2A
102
}
102
{ACAD_XDICTIONARY
360
5E
102
}
330
2A
100
AcDbVisualStyle
  2
Basic
 70
     7
 71
     1
 72
     0
 73
     1
 90
        0
 40
-0.6
 41
-30.0
 62
     5
 63
     7
421
 16777215
 74
     0
 91
        4
 64
     7
 65
   257
 75
     1
175
     1
 42
1.0
 92
        8
 66
     7
 43
1.0
 76
     1
 77
     6
 78
     2
 67
     7
 79
     5
170
     0
171
     0
290
     0
174
     0
 93
        1
 44
0.0
173
     0
291
     1
 45
0.0
  0
VISUALSTYLE
  5
36
102
{ACAD_REACTORS
330
2A
102
}
102
{ACAD_XDICTIONARY
360
66
102
}
330
2A
100
AcDbVisualStyle
  2
Brighten
 70
    12
 71
     2
 72
     2
 73
     0
 90
        0
 40
-0.6
 41
-30.0
 62
     5
 63
     7
421
 16777215
 74
     1
 91
        4
 64
     7
 65
   257
 75
     1
175
     1
 42
1.0
 92
        8
 66
     7
 43
1.0
 76
     1
 77
     6
 78
     2
 67
     7
 79
     5
170
     0
171
     0
290
     0
174
     0
 93
        1
 44
50.0
173
     0
291
     1
 45
0.0
  0
VISUALSTYLE
  5
3A
102
{ACAD_REACTORS
330
2A
102
}
102
{ACAD_XDICTIONARY
360
6E
102
}
330
2A
100
AcDbVisualStyle
  2
ColorChange
 70
    16
 71
     2
 72
     2
 73
     3
 90
        0
 40
-0.6
 41
-30.0
 62
     5
 63
     8
421
  8421504
 74
     1
 91
        4
 64
     7
 65
   257
 75
     1
175
     1
 42
1.0
 92
        8
 66
     8
424
  8421504
 43
1.0
 76
     1
 77
     6
 78
     2
 67
     7
 79
     5
170
     0
171
     0
290
     0
174
     0
 93
        1
 44
0.0
173
     0
291
     1
 45
0.0
  0
VISUALSTYLE
  5
34
102
{ACAD_REACTORS
330
2A
102
}
102
{ACAD_XDICTIONARY
360
62
102
}
330
2A
100
AcDbVisualStyle
  2
Conceptual
 70
     9
 71
     3
 72
     2
 73
     0
 90
        0
 40
-0.6
 41
-30.0
 62
     5
 63
     7
421
 16777215
 74
     2
 91
        2
 64
     7
 65
   257
 75
     1
175
     1
 42
40.0
 92
        8
 66
     7
 43
1.0
 76
     1
 77
     6
 78
     2
 67
     7
 79
     3
170
     0
171
     0
290
     0
174
     0
 93
        1
 44
0.0
173
     0
291
     0
 45
0.0
  0
VISUALSTYLE
  5
35
102
{ACAD_REACTORS
330
2A
102
}
102
{ACAD_XDICTIONARY
360
64
102
}
330
2A
100
AcDbVisualStyle
  2
Dim
 70
    11
 71
     2
 72
     2
 73
     0
 90
        0
 40
-0.6
 41
-30.0
 62
     5
 63
     7
421
 16777215
 74
     1
 91
        4
 64
     7
 65
   257
 75
     1
175
     1
 42
1.0
 92
        8
 66
     7
 43
1.0
 76
     1
 77
     6
 78
     2
 67
     7
 79
     5
170
     0
171
     0
290
     0
174
     0
 93
        1
 44
-50.0
173
     0
291
     1
 45
0.0
  0
VISUALSTYLE
  5
39
102
{ACAD_REACTORS
330
2A
102
}
102
{ACAD_XDICTIONARY
360
6C
102
}
330
2A
100
AcDbVisualStyle
  2
Facepattern
 70
    15
 71
     2
 72
     2
 73
     0
 90
        0
 40
-0.6
 41
-30.0
 62
     5
 63
     7
421
 16777215
 74
     1
 91
        4
 64
     7
 65
   257
 75
     1
175
     1
 42
1.0
 92
        8
 66
     7
 43
1.0
 76
     1
 77
     6
 78
     2
 67
     7
 79
     5
170
     0
171
     0
290
     0
174
     0
 93
        1
 44
0.0
173
     0
291
     1
 45
0.0
  0
VISUALSTYLE
  5
2B
102
{ACAD_REACTORS
330
2A
102
}
102
{ACAD_XDICTIONARY
360
50
102
}
330
2A
100
AcDbVisualStyle
  2
Flat
 70
     0
 71
     2
 72
     1
 73
     1
 90
        2
 40
-0.6
 41
30.0
 62
     5
 63
     7
421
 16777215
 74
     0
 91
        4
 64
     7
 65
   257
 75
     1
175
     1
 42
1.0
 92
        8
 66
     7
 43
1.0
 76
     1
 77
     6
 78
     2
 67
     7
 79
     5
170
     0
171
     0
290
     0
174
     0
 93
       13
 44
0.0
173
     0
291
     1
 45
0.0
  0
VISUALSTYLE
  5
2C
102
{ACAD_REACTORS
330
2A
102
}
102
{ACAD_XDICTIONARY
360
52
102
}
330
2A
100
AcDbVisualStyle
  2
FlatWithEdges
 70
     1
 71
     2
 72
     1
 73
     1
 90
        2
 40
-0.6
 41
30.0
 62
     5
 63
     7
421
 16777215
 74
     1
 91
        4
 64
     7
 65
   257
 75
     1
175
     1
 42
1.0
 92
        0
 66
   257
 43
1.0
 76
     1
 77
     6
 78
     2
 67
     7
 79
     5
170
     0
171
     0
290
     0
174
     0
 93
       13
 44
0.0
173
     0
291
     1
 45
0.0
  0
VISUALSTYLE
  5
2D
102
{ACAD_REACTORS
330
2A
102
}
102
{ACAD_XDICTIONARY
360
54
102
}
330
2A
100
AcDbVisualStyle
  2
Gouraud
 70
     2
 71
     2
 72
     2
 73
     1
 90
        2
 40
-0.6
 41
30.0
 62
     5
 63
     7
421
 16777215
 74
     0
 91
        4
 64
     7
 65
   257
 75
     1
175
     1
 42
1.0
 92
        0
 66
     7
 43
1.0
 76
     1
 77
     6
 78
     2
 67
     7
 79
     5
170
     0
171
     0
290
     0
174
     0
 93
       13
 44
0.0
173
     0
291
     1
 45
0.0
  0
VISUALSTYLE
  5
2E
102
{ACAD_REACTORS
330
2A
102
}
102
{ACAD_XDICTIONARY
360
56
102
}
330
2A
100
AcDbVisualStyle
  2
GouraudWithEdges
 70
     3
 71
     2
 72
     2
 73
     1
 90
        2
 40
-0.6
 41
30.0
 62
     5
 63
     7
421
 16777215
 74
     1
 91
        4
 64
     7
 65
   257
 75
     1
175
     1
 42
1.0
 92
        0
 66
   257
 43
1.0
 76
     1
 77
     6
 78
     2
 67
     7
 79
     5
170
     0
171
     0
290
     0
174
     0
 93
       13
 44
0.0
173
     0
291
     1
 45
0.0
  0
VISUALSTYLE
  5
38
102
{ACAD_REACTORS
330
2A
102
}
102
{ACAD_XDICTIONARY
360
6A
102
}
330
2A
100
AcDbVisualStyle
  2
Linepattern
 70
    14
 71
     2
 72
     2
 73
     0
 90
        0
 40
-0.6
 41
-30.0
 62
     5
 63
     7
421
 16777215
 74
     1
 91
        4
 64
     7
 65
   257
 75
     7
175
     7
 42
1.0
 92
        8
 66
     7
 43
1.0
 76
     1
 77
     6
 78
     2
 67
     7
 79
     5
170
     0
171
     0
290
     0
174
     0
 93
        1
 44
0.0
173
     0
291
     1
 45
0.0
  0
VISUALSTYLE
  5
33
102
{ACAD_REACTORS
330
2A
102
}
102
{ACAD_XDICTIONARY
360
60
102
}
330
2A
100
AcDbVisualStyle
  2
Realistic
 70
     8
 71
     2
 72
     2
 73
     0
 90
        0
 40
-0.6
 41
-30.0
 62
     5
 63
     7
421
 16777215
 74
     1
 91
        0
 64
     7
 65
   257
 75
     1
175
     1
 42
1.0
 92
        8
 66
     8
424
  7895160
 43
1.0
 76
     1
 77
     6
 78
     2
 67
     7
 79
     5
170
     0
171
     0
290
     0
174
     0
 93
       13
 44
0.0
173
     0
291
     0
 45
0.0
  0
VISUALSTYLE
  5
37
102
{ACAD_REACTORS
330
2A
102
}
102
{ACAD_XDICTIONARY
360
68
102
}
330
2A
100
AcDbVisualStyle
  2
Thicken
 70
    13
 71
     2
 72
     2
 73
     0
 90
        0
 40
-0.6
 41
-30.0
 62
     5
 63
     7
421
 16777215
 74
     1
 91
        4
 64
     7
 65
   257
 75
     1
175
     1
 42
1.0
 92
       12
 66
     7
 43
1.0
 76
     1
 77
     6
 78
     2
 67
     7
 79
     5
170
     0
171
     0
290
     0
174
     0
 93
        1
 44
0.0
173
     0
291
     1
 45
0.0
  0
DICTIONARY
  5
58
330
2F
100
AcDbDictionary
280
     1
281
     1
  3
ACAD_XREC_ROUNDTRIP
360
59
  0
DICTIONARY
  5
5C
330
31
100
AcDbDictionary
280
     1
281
     1
  3
ACAD_XREC_ROUNDTRIP
360
5D
  0
DICTIONARY
  5
5A
330
30
100
AcDbDictionary
280
     1
281
     1
  3
ACAD_XREC_ROUNDTRIP
360
5B
  0
DICTIONARY
  5
5E
330
32
100
AcDbDictionary
280
     1
281
     1
  3
ACAD_XREC_ROUNDTRIP
360
5F
  0
DICTIONARY
  5
66
330
36
100
AcDbDictionary
280
     1
281
     1
  3
ACAD_XREC_ROUNDTRIP
360
67
  0
DICTIONARY
  5
6E
330
3A
100
AcDbDictionary
280
     1
281
     1
  3
ACAD_XREC_ROUNDTRIP
360
6F
  0
DICTIONARY
  5
62
330
34
100
AcDbDictionary
280
     1
281
     1
  3
ACAD_XREC_ROUNDTRIP
360
63
  0
DICTIONARY
  5
64
330
35
100
AcDbDictionary
280
     1
281
     1
  3
ACAD_XREC_ROUNDTRIP
360
65
  0
DICTIONARY
  5
6C
330
39
100
AcDbDictionary
280
     1
281
     1
  3
ACAD_XREC_ROUNDTRIP
360
6D
  0
DICTIONARY
  5
50
330
2B
100
AcDbDictionary
280
     1
281
     1
  3
ACAD_XREC_ROUNDTRIP
360
51
  0
DICTIONARY
  5
52
330
2C
100
AcDbDictionary
280
     1
281
     1
  3
ACAD_XREC_ROUNDTRIP
360
53
  0
DICTIONARY
  5
54
330
2D
100
AcDbDictionary
280
     1
281
     1
  3
ACAD_XREC_ROUNDTRIP
360
55
  0
DICTIONARY
  5
56
330
2E
100
AcDbDictionary
280
     1
281
     1
  3
ACAD_XREC_ROUNDTRIP
360
57
  0
DICTIONARY
  5
6A
330
38
100
AcDbDictionary
280
     1
281
     1
  3
ACAD_XREC_ROUNDTRIP
360
6B
  0
DICTIONARY
  5
60
330
33
100
AcDbDictionary
280
     1
281
     1
  3
ACAD_XREC_ROUNDTRIP
360
61
  0
DICTIONARY
  5
68
330
37
100
AcDbDictionary
280
     1
281
     1
  3
ACAD_XREC_ROUNDTRIP
360
69
  0
XRECORD
  5
59
102
{ACAD_REACTORS
330
58
102
}
330
58
100
AcDbXrecord
280
     1
102
RTVSPropertyOp0
 70
     1
102
RTVSPropertyOp1
 70
     1
102
RTVSPropertyOp2
 70
     1
102
RTVSPropertyOp3
 70
     1
102
RTVSPropertyOp4
 70
     1
102
RTVSPropertyOp5
 70
     1
102
RTVSPropertyOp6
 70
     1
102
RTVSPropertyOp7
 70
     1
102
RTVSPropertyOp8
 70
     1
102
RTVSPropertyOp9
 70
     1
102
RTVSPropertyOp10
 70
     1
102
RTVSPropertyOp11
 70
     1
102
RTVSPropertyOp12
 70
     1
102
RTVSPropertyOp13
 70
     1
102
RTVSPropertyOp14
 70
     1
102
RTVSPropertyOp15
 70
     1
102
RTVSPropertyOp16
 70
     1
102
RTVSPropertyOp17
 70
     1
102
RTVSPropertyOp18
 70
     1
102
RTVSPropertyOp19
 70
     1
102
RTVSPropertyOp20
 70
     1
102
RTVSPropertyOp21
 70
     1
102
RTVSPropertyOp22
 70
     1
102
RTVSPropertyOp23
 70
     1
102
RTVSPropertyOp24
 70
     1
102
RTVSPropertyOp25
 70
     1
102
RTVSPropertyOp26
 70
     1
102
RTVSPropertyOp27
 70
     1
102
RTVSPropertyOp28
 70
     1
102
RTVSPropertyOp29
 70
     1
102
RTVSPropertyOp30
 70
     1
102
RTVSPropertyOp31
 70
     1
102
RTVSPropertyOp32
 70
     1
  0
XRECORD
  5
5D
102
{ACAD_REACTORS
330
5C
102
}
330
5C
100
AcDbXrecord
280
     1
102
RTVSPropertyOp0
 70
     1
102
RTVSPropertyOp1
 70
     1
102
RTVSPropertyOp2
 70
     1
102
RTVSPropertyOp3
 70
     1
102
RTVSPropertyOp4
 70
     1
102
RTVSPropertyOp5
 70
     1
102
RTVSPropertyOp6
 70
     1
102
RTVSPropertyOp7
 70
     1
102
RTVSPropertyOp8
 70
     1
102
RTVSPropertyOp9
 70
     1
102
RTVSPropertyOp10
 70
     1
102
RTVSPropertyOp11
 70
     1
102
RTVSPropertyOp12
 70
     1
102
RTVSPropertyOp13
 70
     1
102
RTVSPropertyOp14
 70
     1
102
RTVSPropertyOp15
 70
     1
102
RTVSPropertyOp16
 70
     1
102
RTVSPropertyOp17
 70
     1
102
RTVSPropertyOp18
 70
     1
102
RTVSPropertyOp19
 70
     1
102
RTVSPropertyOp20
 70
     1
102
RTVSPropertyOp21
 70
     1
102
RTVSPropertyOp22
 70
     1
102
RTVSPropertyOp23
 70
     1
102
RTVSPropertyOp24
 70
     1
102
RTVSPropertyOp25
 70
     1
102
RTVSPropertyOp26
 70
     1
102
RTVSPropertyOp27
 70
     1
102
RTVSPropertyOp28
 70
     1
102
RTVSPropertyOp29
 70
     1
102
RTVSPropertyOp30
 70
     1
102
RTVSPropertyOp31
 70
     1
102
RTVSPropertyOp32
 70
     1
  0
XRECORD
  5
5B
102
{ACAD_REACTORS
330
5A
102
}
330
5A
100
AcDbXrecord
280
     1
102
RTVSPropertyOp0
 70
     1
102
RTVSPropertyOp1
 70
     1
102
RTVSPropertyOp2
 70
     1
102
RTVSPropertyOp3
 70
     1
102
RTVSPropertyOp4
 70
     1
102
RTVSPropertyOp5
 70
     1
102
RTVSPropertyOp6
 70
     1
102
RTVSPropertyOp7
 70
     1
102
RTVSPropertyOp8
 70
     1
102
RTVSPropertyOp9
 70
     1
102
RTVSPropertyOp10
 70
     1
102
RTVSPropertyOp11
 70
     1
102
RTVSPropertyOp12
 70
     1
102
RTVSPropertyOp13
 70
     1
102
RTVSPropertyOp14
 70
     1
102
RTVSPropertyOp15
 70
     1
102
RTVSPropertyOp16
 70
     1
102
RTVSPropertyOp17
 70
     1
102
RTVSPropertyOp18
 70
     1
102
RTVSPropertyOp19
 70
     1
102
RTVSPropertyOp20
 70
     1
102
RTVSPropertyOp21
 70
     1
102
RTVSPropertyOp22
 70
     1
102
RTVSPropertyOp23
 70
     1
102
RTVSPropertyOp24
 70
     1
102
RTVSPropertyOp25
 70
     1
102
RTVSPropertyOp26
 70
     1
102
RTVSPropertyOp27
 70
     1
102
RTVSPropertyOp28
 70
     1
102
RTVSPropertyOp29
 70
     1
102
RTVSPropertyOp30
 70
     1
102
RTVSPropertyOp31
 70
     1
102
RTVSPropertyOp32
 70
     1
  0
XRECORD
  5
5F
102
{ACAD_REACTORS
330
5E
102
}
330
5E
100
AcDbXrecord
280
     1
102
RTVSPropertyOp0
 70
     1
102
RTVSPropertyOp1
 70
     1
102
RTVSPropertyOp2
 70
     1
102
RTVSPropertyOp3
 70
     1
102
RTVSPropertyOp4
 70
     1
102
RTVSPropertyOp5
 70
     1
102
RTVSPropertyOp6
 70
     1
102
RTVSPropertyOp7
 70
     1
102
RTVSPropertyOp8
 70
     1
102
RTVSPropertyOp9
 70
     1
102
RTVSPropertyOp10
 70
     1
102
RTVSPropertyOp11
 70
     1
102
RTVSPropertyOp12
 70
     1
102
RTVSPropertyOp13
 70
     1
102
RTVSPropertyOp14
 70
     1
102
RTVSPropertyOp15
 70
     1
102
RTVSPropertyOp16
 70
     1
102
RTVSPropertyOp17
 70
     1
102
RTVSPropertyOp18
 70
     1
102
RTVSPropertyOp19
 70
     1
102
RTVSPropertyOp20
 70
     1
102
RTVSPropertyOp21
 70
     1
102
RTVSPropertyOp22
 70
     1
102
RTVSPropertyOp23
 70
     1
102
RTVSPropertyOp24
 70
     1
102
RTVSPropertyOp25
 70
     1
102
RTVSPropertyOp26
 70
     1
102
RTVSPropertyOp27
 70
     1
102
RTVSPropertyOp28
 70
     1
102
RTVSPropertyOp29
 70
     1
102
RTVSPropertyOp30
 70
     1
102
RTVSPropertyOp31
 70
     1
102
RTVSPropertyOp32
 70
     1
  0
XRECORD
  5
67
102
{ACAD_REACTORS
330
66
102
}
330
66
100
AcDbXrecord
280
     1
102
RTVSPropertyOp0
 70
     1
102
RTVSPropertyOp1
 70
     1
102
RTVSPropertyOp2
 70
     1
102
RTVSPropertyOp3
 70
     1
102
RTVSPropertyOp4
 70
     1
102
RTVSPropertyOp5
 70
     1
102
RTVSPropertyOp6
 70
     1
102
RTVSPropertyOp7
 70
     1
102
RTVSPropertyOp8
 70
     1
102
RTVSPropertyOp9
 70
     1
102
RTVSPropertyOp10
 70
     1
102
RTVSPropertyOp11
 70
     1
102
RTVSPropertyOp12
 70
     1
102
RTVSPropertyOp13
 70
     1
102
RTVSPropertyOp14
 70
     1
102
RTVSPropertyOp15
 70
     1
102
RTVSPropertyOp16
 70
     1
102
RTVSPropertyOp17
 70
     1
102
RTVSPropertyOp18
 70
     1
102
RTVSPropertyOp19
 70
     1
102
RTVSPropertyOp20
 70
     1
102
RTVSPropertyOp21
 70
     1
102
RTVSPropertyOp22
 70
     1
102
RTVSPropertyOp23
 70
     1
102
RTVSPropertyOp24
 70
     1
102
RTVSPropertyOp25
 70
     1
102
RTVSPropertyOp26
 70
     1
102
RTVSPropertyOp27
 70
     1
102
RTVSPropertyOp28
 70
     1
102
RTVSPropertyOp29
 70
     1
102
RTVSPropertyOp30
 70
     1
102
RTVSPropertyOp31
 70
     1
102
RTVSPropertyOp32
 70
     1
  0
XRECORD
  5
6F
102
{ACAD_REACTORS
330
6E
102
}
330
6E
100
AcDbXrecord
280
     1
102
RTVSPropertyOp0
 70
     1
102
RTVSPropertyOp1
 70
     1
102
RTVSPropertyOp2
 70
     1
102
RTVSPropertyOp3
 70
     1
102
RTVSPropertyOp4
 70
     1
102
RTVSPropertyOp5
 70
     1
102
RTVSPropertyOp6
 70
     1
102
RTVSPropertyOp7
 70
     1
102
RTVSPropertyOp8
 70
     1
102
RTVSPropertyOp9
 70
     1
102
RTVSPropertyOp10
 70
     1
102
RTVSPropertyOp11
 70
     1
102
RTVSPropertyOp12
 70
     1
102
RTVSPropertyOp13
 70
     1
102
RTVSPropertyOp14
 70
     1
102
RTVSPropertyOp15
 70
     1
102
RTVSPropertyOp16
 70
     1
102
RTVSPropertyOp17
 70
     1
102
RTVSPropertyOp18
 70
     1
102
RTVSPropertyOp19
 70
     1
102
RTVSPropertyOp20
 70
     1
102
RTVSPropertyOp21
 70
     1
102
RTVSPropertyOp22
 70
     1
102
RTVSPropertyOp23
 70
     1
102
RTVSPropertyOp24
 70
     1
102
RTVSPropertyOp25
 70
     1
102
RTVSPropertyOp26
 70
     1
102
RTVSPropertyOp27
 70
     1
102
RTVSPropertyOp28
 70
     1
102
RTVSPropertyOp29
 70
     1
102
RTVSPropertyOp30
 70
     1
102
RTVSPropertyOp31
 70
     1
102
RTVSPropertyOp32
 70
     1
  0
XRECORD
  5
63
102
{ACAD_REACTORS
330
62
102
}
330
62
100
AcDbXrecord
280
     1
102
RTVSPropertyOp0
 70
     1
102
RTVSPropertyOp1
 70
     1
102
RTVSPropertyOp2
 70
     1
102
RTVSPropertyOp3
 70
     1
102
RTVSPropertyOp4
 70
     1
102
RTVSPropertyOp5
 70
     1
102
RTVSPropertyOp6
 70
     1
102
RTVSPropertyOp7
 70
     1
102
RTVSPropertyOp8
 70
     1
102
RTVSPropertyOp9
 70
     1
102
RTVSPropertyOp10
 70
     1
102
RTVSPropertyOp11
 70
     1
102
RTVSPropertyOp12
 70
     1
102
RTVSPropertyOp13
 70
     1
102
RTVSPropertyOp14
 70
     1
102
RTVSPropertyOp15
 70
     1
102
RTVSPropertyOp16
 70
     1
102
RTVSPropertyOp17
 70
     1
102
RTVSPropertyOp18
 70
     1
102
RTVSPropertyOp19
 70
     1
102
RTVSPropertyOp20
 70
     1
102
RTVSPropertyOp21
 70
     1
102
RTVSPropertyOp22
 70
     1
102
RTVSPropertyOp23
 70
     1
102
RTVSPropertyOp24
 70
     1
102
RTVSPropertyOp25
 70
     1
102
RTVSPropertyOp26
 70
     1
102
RTVSPropertyOp27
 70
     1
102
RTVSPropertyOp28
 70
     1
102
RTVSPropertyOp29
 70
     1
102
RTVSPropertyOp30
 70
     1
102
RTVSPropertyOp31
 70
     1
102
RTVSPropertyOp32
 70
     1
  0
XRECORD
  5
65
102
{ACAD_REACTORS
330
64
102
}
330
64
100
AcDbXrecord
280
     1
102
RTVSPropertyOp0
 70
     1
102
RTVSPropertyOp1
 70
     1
102
RTVSPropertyOp2
 70
     1
102
RTVSPropertyOp3
 70
     1
102
RTVSPropertyOp4
 70
     1
102
RTVSPropertyOp5
 70
     1
102
RTVSPropertyOp6
 70
     1
102
RTVSPropertyOp7
 70
     1
102
RTVSPropertyOp8
 70
     1
102
RTVSPropertyOp9
 70
     1
102
RTVSPropertyOp10
 70
     1
102
RTVSPropertyOp11
 70
     1
102
RTVSPropertyOp12
 70
     1
102
RTVSPropertyOp13
 70
     1
102
RTVSPropertyOp14
 70
     1
102
RTVSPropertyOp15
 70
     1
102
RTVSPropertyOp16
 70
     1
102
RTVSPropertyOp17
 70
     1
102
RTVSPropertyOp18
 70
     1
102
RTVSPropertyOp19
 70
     1
102
RTVSPropertyOp20
 70
     1
102
RTVSPropertyOp21
 70
     1
102
RTVSPropertyOp22
 70
     1
102
RTVSPropertyOp23
 70
     1
102
RTVSPropertyOp24
 70
     1
102
RTVSPropertyOp25
 70
     1
102
RTVSPropertyOp26
 70
     1
102
RTVSPropertyOp27
 70
     1
102
RTVSPropertyOp28
 70
     1
102
RTVSPropertyOp29
 70
     1
102
RTVSPropertyOp30
 70
     1
102
RTVSPropertyOp31
 70
     1
102
RTVSPropertyOp32
 70
     1
  0
XRECORD
  5
6D
102
{ACAD_REACTORS
330
6C
102
}
330
6C
100
AcDbXrecord
280
     1
102
RTVSPropertyOp0
 70
     1
102
RTVSPropertyOp1
 70
     1
102
RTVSPropertyOp2
 70
     1
102
RTVSPropertyOp3
 70
     1
102
RTVSPropertyOp4
 70
     1
102
RTVSPropertyOp5
 70
     1
102
RTVSPropertyOp6
 70
     1
102
RTVSPropertyOp7
 70
     1
102
RTVSPropertyOp8
 70
     1
102
RTVSPropertyOp9
 70
     1
102
RTVSPropertyOp10
 70
     1
102
RTVSPropertyOp11
 70
     1
102
RTVSPropertyOp12
 70
     1
102
RTVSPropertyOp13
 70
     1
102
RTVSPropertyOp14
 70
     1
102
RTVSPropertyOp15
 70
     1
102
RTVSPropertyOp16
 70
     1
102
RTVSPropertyOp17
 70
     1
102
RTVSPropertyOp18
 70
     1
102
RTVSPropertyOp19
 70
     1
102
RTVSPropertyOp20
 70
     1
102
RTVSPropertyOp21
 70
     1
102
RTVSPropertyOp22
 70
     1
102
RTVSPropertyOp23
 70
     1
102
RTVSPropertyOp24
 70
     1
102
RTVSPropertyOp25
 70
     1
102
RTVSPropertyOp26
 70
     1
102
RTVSPropertyOp27
 70
     1
102
RTVSPropertyOp28
 70
     1
102
RTVSPropertyOp29
 70
     1
102
RTVSPropertyOp30
 70
     1
102
RTVSPropertyOp31
 70
     1
102
RTVSPropertyOp32
 70
     1
  0
XRECORD
  5
51
102
{ACAD_REACTORS
330
50
102
}
330
50
100
AcDbXrecord
280
     1
102
RTVSPropertyOp0
 70
     1
102
RTVSPropertyOp1
 70
     1
102
RTVSPropertyOp2
 70
     1
102
RTVSPropertyOp3
 70
     1
102
RTVSPropertyOp4
 70
     1
102
RTVSPropertyOp5
 70
     1
102
RTVSPropertyOp6
 70
     1
102
RTVSPropertyOp7
 70
     1
102
RTVSPropertyOp8
 70
     1
102
RTVSPropertyOp9
 70
     1
102
RTVSPropertyOp10
 70
     1
102
RTVSPropertyOp11
 70
     1
102
RTVSPropertyOp12
 70
     1
102
RTVSPropertyOp13
 70
     1
102
RTVSPropertyOp14
 70
     1
102
RTVSPropertyOp15
 70
     1
102
RTVSPropertyOp16
 70
     1
102
RTVSPropertyOp17
 70
     1
102
RTVSPropertyOp18
 70
     1
102
RTVSPropertyOp19
 70
     1
102
RTVSPropertyOp20
 70
     1
102
RTVSPropertyOp21
 70
     1
102
RTVSPropertyOp22
 70
     1
102
RTVSPropertyOp23
 70
     1
102
RTVSPropertyOp24
 70
     1
102
RTVSPropertyOp25
 70
     1
102
RTVSPropertyOp26
 70
     1
102
RTVSPropertyOp27
 70
     1
102
RTVSPropertyOp28
 70
     1
102
RTVSPropertyOp29
 70
     1
102
RTVSPropertyOp30
 70
     1
102
RTVSPropertyOp31
 70
     1
102
RTVSPropertyOp32
 70
     1
  0
XRECORD
  5
53
102
{ACAD_REACTORS
330
52
102
}
330
52
100
AcDbXrecord
280
     1
102
RTVSPropertyOp0
 70
     1
102
RTVSPropertyOp1
 70
     1
102
RTVSPropertyOp2
 70
     1
102
RTVSPropertyOp3
 70
     1
102
RTVSPropertyOp4
 70
     1
102
RTVSPropertyOp5
 70
     1
102
RTVSPropertyOp6
 70
     1
102
RTVSPropertyOp7
 70
     1
102
RTVSPropertyOp8
 70
     1
102
RTVSPropertyOp9
 70
     1
102
RTVSPropertyOp10
 70
     1
102
RTVSPropertyOp11
 70
     1
102
RTVSPropertyOp12
 70
     1
102
RTVSPropertyOp13
 70
     1
102
RTVSPropertyOp14
 70
     1
102
RTVSPropertyOp15
 70
     1
102
RTVSPropertyOp16
 70
     1
102
RTVSPropertyOp17
 70
     1
102
RTVSPropertyOp18
 70
     1
102
RTVSPropertyOp19
 70
     1
102
RTVSPropertyOp20
 70
     1
102
RTVSPropertyOp21
 70
     1
102
RTVSPropertyOp22
 70
     1
102
RTVSPropertyOp23
 70
     1
102
RTVSPropertyOp24
 70
     1
102
RTVSPropertyOp25
 70
     1
102
RTVSPropertyOp26
 70
     1
102
RTVSPropertyOp27
 70
     1
102
RTVSPropertyOp28
 70
     1
102
RTVSPropertyOp29
 70
     1
102
RTVSPropertyOp30
 70
     1
102
RTVSPropertyOp31
 70
     1
102
RTVSPropertyOp32
 70
     1
  0
XRECORD
  5
55
102
{ACAD_REACTORS
330
54
102
}
330
54
100
AcDbXrecord
280
     1
102
RTVSPropertyOp0
 70
     1
102
RTVSPropertyOp1
 70
     1
102
RTVSPropertyOp2
 70
     1
102
RTVSPropertyOp3
 70
     1
102
RTVSPropertyOp4
 70
     1
102
RTVSPropertyOp5
 70
     1
102
RTVSPropertyOp6
 70
     1
102
RTVSPropertyOp7
 70
     1
102
RTVSPropertyOp8
 70
     1
102
RTVSPropertyOp9
 70
     1
102
RTVSPropertyOp10
 70
     1
102
RTVSPropertyOp11
 70
     1
102
RTVSPropertyOp12
 70
     1
102
RTVSPropertyOp13
 70
     1
102
RTVSPropertyOp14
 70
     1
102
RTVSPropertyOp15
 70
     1
102
RTVSPropertyOp16
 70
     1
102
RTVSPropertyOp17
 70
     1
102
RTVSPropertyOp18
 70
     1
102
RTVSPropertyOp19
 70
     1
102
RTVSPropertyOp20
 70
     1
102
RTVSPropertyOp21
 70
     1
102
RTVSPropertyOp22
 70
     1
102
RTVSPropertyOp23
 70
     1
102
RTVSPropertyOp24
 70
     1
102
RTVSPropertyOp25
 70
     1
102
RTVSPropertyOp26
 70
     1
102
RTVSPropertyOp27
 70
     1
102
RTVSPropertyOp28
 70
     1
102
RTVSPropertyOp29
 70
     1
102
RTVSPropertyOp30
 70
     1
102
RTVSPropertyOp31
 70
     1
102
RTVSPropertyOp32
 70
     1
  0
XRECORD
  5
57
102
{ACAD_REACTORS
330
56
102
}
330
56
100
AcDbXrecord
280
     1
102
RTVSPropertyOp0
 70
     1
102
RTVSPropertyOp1
 70
     1
102
RTVSPropertyOp2
 70
     1
102
RTVSPropertyOp3
 70
     1
102
RTVSPropertyOp4
 70
     1
102
RTVSPropertyOp5
 70
     1
102
RTVSPropertyOp6
 70
     1
102
RTVSPropertyOp7
 70
     1
102
RTVSPropertyOp8
 70
     1
102
RTVSPropertyOp9
 70
     1
102
RTVSPropertyOp10
 70
     1
102
RTVSPropertyOp11
 70
     1
102
RTVSPropertyOp12
 70
     1
102
RTVSPropertyOp13
 70
     1
102
RTVSPropertyOp14
 70
     1
102
RTVSPropertyOp15
 70
     1
102
RTVSPropertyOp16
 70
     1
102
RTVSPropertyOp17
 70
     1
102
RTVSPropertyOp18
 70
     1
102
RTVSPropertyOp19
 70
     1
102
RTVSPropertyOp20
 70
     1
102
RTVSPropertyOp21
 70
     1
102
RTVSPropertyOp22
 70
     1
102
RTVSPropertyOp23
 70
     1
102
RTVSPropertyOp24
 70
     1
102
RTVSPropertyOp25
 70
     1
102
RTVSPropertyOp26
 70
     1
102
RTVSPropertyOp27
 70
     1
102
RTVSPropertyOp28
 70
     1
102
RTVSPropertyOp29
 70
     1
102
RTVSPropertyOp30
 70
     1
102
RTVSPropertyOp31
 70
     1
102
RTVSPropertyOp32
 70
     1
  0
XRECORD
  5
6B
102
{ACAD_REACTORS
330
6A
102
}
330
6A
100
AcDbXrecord
280
     1
102
RTVSPropertyOp0
 70
     1
102
RTVSPropertyOp1
 70
     1
102
RTVSPropertyOp2
 70
     1
102
RTVSPropertyOp3
 70
     1
102
RTVSPropertyOp4
 70
     1
102
RTVSPropertyOp5
 70
     1
102
RTVSPropertyOp6
 70
     1
102
RTVSPropertyOp7
 70
     1
102
RTVSPropertyOp8
 70
     1
102
RTVSPropertyOp9
 70
     1
102
RTVSPropertyOp10
 70
     1
102
RTVSPropertyOp11
 70
     1
102
RTVSPropertyOp12
 70
     1
102
RTVSPropertyOp13
 70
     1
102
RTVSPropertyOp14
 70
     1
102
RTVSPropertyOp15
 70
     1
102
RTVSPropertyOp16
 70
     1
102
RTVSPropertyOp17
 70
     1
102
RTVSPropertyOp18
 70
     1
102
RTVSPropertyOp19
 70
     1
102
RTVSPropertyOp20
 70
     1
102
RTVSPropertyOp21
 70
     1
102
RTVSPropertyOp22
 70
     1
102
RTVSPropertyOp23
 70
     1
102
RTVSPropertyOp24
 70
     1
102
RTVSPropertyOp25
 70
     1
102
RTVSPropertyOp26
 70
     1
102
RTVSPropertyOp27
 70
     1
102
RTVSPropertyOp28
 70
     1
102
RTVSPropertyOp29
 70
     1
102
RTVSPropertyOp30
 70
     1
102
RTVSPropertyOp31
 70
     1
102
RTVSPropertyOp32
 70
     1
  0
XRECORD
  5
61
102
{ACAD_REACTORS
330
60
102
}
330
60
100
AcDbXrecord
280
     1
102
RTVSPropertyOp0
 70
     1
102
RTVSPropertyOp1
 70
     1
102
RTVSPropertyOp2
 70
     1
102
RTVSPropertyOp3
 70
     1
102
RTVSPropertyOp4
 70
     1
102
RTVSPropertyOp5
 70
     1
102
RTVSPropertyOp6
 70
     1
102
RTVSPropertyOp7
 70
     1
102
RTVSPropertyOp8
 70
     1
102
RTVSPropertyOp9
 70
     1
102
RTVSPropertyOp10
 70
     1
102
RTVSPropertyOp11
 70
     1
102
RTVSPropertyOp12
 70
     1
102
RTVSPropertyOp13
 70
     1
102
RTVSPropertyOp14
 70
     1
102
RTVSPropertyOp15
 70
     1
102
RTVSPropertyOp16
 70
     1
102
RTVSPropertyOp17
 70
     1
102
RTVSPropertyOp18
 70
     1
102
RTVSPropertyOp19
 70
     1
102
RTVSPropertyOp20
 70
     1
102
RTVSPropertyOp21
 70
     1
102
RTVSPropertyOp22
 70
     1
102
RTVSPropertyOp23
 70
     1
102
RTVSPropertyOp24
 70
     1
102
RTVSPropertyOp25
 70
     1
102
RTVSPropertyOp26
 70
     1
102
RTVSPropertyOp27
 70
     1
102
RTVSPropertyOp28
 70
     1
102
RTVSPropertyOp29
 70
     1
102
RTVSPropertyOp30
 70
     1
102
RTVSPropertyOp31
 70
     1
102
RTVSPropertyOp32
 70
     1
  0
XRECORD
  5
69
102
{ACAD_REACTORS
330
68
102
}
330
68
100
AcDbXrecord
280
     1
102
RTVSPropertyOp0
 70
     1
102
RTVSPropertyOp1
 70
     1
102
RTVSPropertyOp2
 70
     1
102
RTVSPropertyOp3
 70
     1
102
RTVSPropertyOp4
 70
     1
102
RTVSPropertyOp5
 70
     1
102
RTVSPropertyOp6
 70
     1
102
RTVSPropertyOp7
 70
     1
102
RTVSPropertyOp8
 70
     1
102
RTVSPropertyOp9
 70
     1
102
RTVSPropertyOp10
 70
     1
102
RTVSPropertyOp11
 70
     1
102
RTVSPropertyOp12
 70
     1
102
RTVSPropertyOp13
 70
     1
102
RTVSPropertyOp14
 70
     1
102
RTVSPropertyOp15
 70
     1
102
RTVSPropertyOp16
 70
     1
102
RTVSPropertyOp17
 70
     1
102
RTVSPropertyOp18
 70
     1
102
RTVSPropertyOp19
 70
     1
102
RTVSPropertyOp20
 70
     1
102
RTVSPropertyOp21
 70
     1
102
RTVSPropertyOp22
 70
     1
102
RTVSPropertyOp23
 70
     1
102
RTVSPropertyOp24
 70
     1
102
RTVSPropertyOp25
 70
     1
102
RTVSPropertyOp26
 70
     1
102
RTVSPropertyOp27
 70
     1
102
RTVSPropertyOp28
 70
     1
102
RTVSPropertyOp29
 70
     1
102
RTVSPropertyOp30
 70
     1
102
RTVSPropertyOp31
 70
     1
102
RTVSPropertyOp32
 70
     1
  0
ENDSEC
  0
EOF
