  0
SECTION
  2
HEADER
  9
$ACADVER
  1
AC1021
  9
$ACADMAINTVER
 70
    25
  9
$DWGCODEPAGE
  3
ANSI_1252
  9
$INSBASE
 10
0.0
 20
0.0
 30
0.0
  9
$EXTMIN
 10
-28.4068
 20
-114.8782
 30
0.0
  9
$EXTMAX
 10
56.2939
 20
131.9298
 30
0.0
  9
$LIMMIN
 10
0.0
 20
0.0
  9
$LIMMAX
 10
12.0
 20
9.0
  9
$ORTHOMODE
 70
     0
  9
$REGENMODE
 70
     1
  9
$FILLMODE
 70
     1
  9
$QTEXTMODE
 70
     0
  9
$MIRRTEXT
 70
     1
  9
$LTSCALE
 40
1.0
  9
$ATTMODE
 70
     1
  9
$TEXTSIZE
 40
0.2
  9
$TRACEWID
 40
0.05
  9
$TEXTSTYLE
  7
Standard
  9
$CLAYER
  8
0
  9
$CELTYPE
  6
ByLayer
  9
$CECOLOR
 62
   256
  9
$CELTSCALE
 40
1.0
  9
$DISPSILH
 70
     0
  9
$DIMSCALE
 40
1.0
  9
$DIMASZ
 40
0.18
  9
$DIMEXO
 40
0.0625
  9
$DIMDLI
 40
0.38
  9
$DIMRND
 40
0.0
  9
$DIMDLE
 40
0.0
  9
$DIMEXE
 40
0.18
  9
$DIMTP
 40
0.0
  9
$DIMTM
 40
0.0
  9
$DIMTXT
 40
0.18
  9
$DIMCEN
 40
0.09
  9
$DIMTSZ
 40
0.0
  9
$DIMTOL
 70
     0
  9
$DIMLIM
 70
     0
  9
$DIMTIH
 70
     1
  9
$DIMTOH
 70
     1
  9
$DIMSE1
 70
     0
  9
$DIMSE2
 70
     0
  9
$DIMTAD
 70
     0
  9
$DIMZIN
 70
     0
  9
$DIMBLK
  1

  9
$DIMASO
 70
     1
  9
$DIMSHO
 70
     1
  9
$DIMPOST
  1

  9
$DIMAPOST
  1

  9
$DIMALT
 70
     0
  9
$DIMALTD
 70
     2
  9
$DIMALTF
 40
25.4
  9
$DIMLFAC
 40
1.0
  9
$DIMTOFL
 70
     0
  9
$DIMTVP
 40
0.0
  9
$DIMTIX
 70
     0
  9
$DIMSOXD
 70
     0
  9
$DIMSAH
 70
     0
  9
$DIMBLK1
  1

  9
$DIMBLK2
  1

  9
$DIMSTYLE
  2
Standard
  9
$DIMCLRD
 70
     0
  9
$DIMCLRE
 70
     0
  9
$DIMCLRT
 70
     0
  9
$DIMTFAC
 40
1.0
  9
$DIMGAP
 40
0.09
  9
$DIMJUST
 70
     0
  9
$DIMSD1
 70
     0
  9
$DIMSD2
 70
     0
  9
$DIMTOLJ
 70
     1
  9
$DIMTZIN
 70
     0
  9
$DIMALTZ
 70
     0
  9
$DIMALTTZ
 70
     0
  9
$DIMUPT
 70
     0
  9
$DIMDEC
 70
     4
  9
$DIMTDEC
 70
     4
  9
$DIMALTU
 70
     2
  9
$DIMALTTD
 70
     2
  9
$DIMTXSTY
  7
Standard
  9
$DIMAUNIT
 70
     0
  9
$DIMADEC
 70
     0
  9
$DIMALTRND
 40
0.0
  9
$DIMAZIN
 70
     0
  9
$DIMDSEP
 70
    46
  9
$DIMATFIT
 70
     3
  9
$DIMFRAC
 70
     0
  9
$DIMLDRBLK
  1

  9
$DIMLUNIT
 70
     2
  9
$DIMLWD
 70
    -2
  9
$DIMLWE
 70
    -2
  9
$DIMTMOVE
 70
     0
  9
$DIMFXL
 40
1.0
  9
$DIMFXLON
 70
     0
  9
$DIMJOGANG
 40
0.7853981633974483
  9
$DIMTFILL
 70
     0
  9
$DIMTFILLCLR
 70
     0
  9
$DIMARCSYM
 70
     0
  9
$DIMLTYPE
  6

  9
$DIMLTEX1
  6

  9
$DIMLTEX2
  6

  9
$LUNITS
 70
     2
  9
$LUPREC
 70
     4
  9
$SKETCHINC
 40
0.1
  9
$FILLETRAD
 40
0.5
  9
$AUNITS
 70
     0
  9
$AUPREC
 70
     0
  9
$MENU
  1
.
  9
$ELEVATION
 40
0.0
  9
$PELEVATION
 40
0.0
  9
$THICKNESS
 40
0.0
  9
$LIMCHECK
 70
     0
  9
$CHAMFERA
 40
0.5
  9
$CHAMFERB
 40
0.5
  9
$CHAMFERC
 40
1.0
  9
$CHAMFERD
 40
0.0
  9
$SKPOLY
 70
     0
  9
$TDCREATE
 40
2458493.674251123
  9
$TDUCREATE
 40
2458493.674251123
  9
$TDUPDATE
 40
2458493.674251343
  9
$TDUUPDATE
 40
2458493.674251343
  9
$TDINDWG
 40
0.0000000116
  9
$TDUSRTIMER
 40
0.0000000116
  9
$USRTIMER
 70
     1
  9
$ANGBASE
 50
0.0
  9
$ANGDIR
 70
     0
  9
$PDMODE
 70
     0
  9
$PDSIZE
 40
0.0
  9
$PLINEWID
 40
0.0
  9
$SPLFRAME
 70
     0
  9
$SPLINETYPE
 70
     6
  9
$SPLINESEGS
 70
     8
  9
$HANDSEED
  5
8B
  9
$SURFTAB1
 70
     6
  9
$SURFTAB2
 70
     6
  9
$SURFTYPE
 70
     6
  9
$SURFU
 70
     6
  9
$SURFV
 70
     6
  9
$UCSBASE
  2

  9
$UCSNAME
  2

  9
$UCSORG
 10
0.0
 20
0.0
 30
0.0
  9
$UCSXDIR
 10
1.0
 20
0.0
 30
0.0
  9
$UCSYDIR
 10
0.0
 20
1.0
 30
0.0
  9
$UCSORTHOREF
  2

  9
$UCSORTHOVIEW
 70
     0
  9
$UCSORGTOP
 10
0.0
 20
0.0
 30
0.0
  9
$UCSORGBOTTOM
 10
0.0
 20
0.0
 30
0.0
  9
$UCSORGLEFT
 10
0.0
 20
0.0
 30
0.0
  9
$UCSORGRIGHT
 10
0.0
 20
0.0
 30
0.0
  9
$UCSORGFRONT
 10
0.0
 20
0.0
 30
0.0
  9
$UCSORGBACK
 10
0.0
 20
0.0
 30
0.0
  9
$PUCSBASE
  2

  9
$PUCSNAME
  2

  9
$PUCSORG
 10
0.0
 20
0.0
 30
0.0
  9
$PUCSXDIR
 10
1.0
 20
0.0
 30
0.0
  9
$PUCSYDIR
 10
0.0
 20
1.0
 30
0.0
  9
$PUCSORTHOREF
  2

  9
$PUCSORTHOVIEW
 70
     0
  9
$PUCSORGTOP
 10
0.0
 20
0.0
 30
0.0
  9
$PUCSORGBOTTOM
 10
0.0
 20
0.0
 30
0.0
  9
$PUCSORGLEFT
 10
0.0
 20
0.0
 30
0.0
  9
$PUCSORGRIGHT
 10
0.0
 20
0.0
 30
0.0
  9
$PUCSORGFRONT
 10
0.0
 20
0.0
 30
0.0
  9
$PUCSORGBACK
 10
0.0
 20
0.0
 30
0.0
  9
$USERI1
 70
     0
  9
$USERI2
 70
     0
  9
$USERI3
 70
     0
  9
$USERI4
 70
     0
  9
$USERI5
 70
     0
  9
$USERR1
 40
0.0
  9
$USERR2
 40
0.0
  9
$USERR3
 40
0.0
  9
$USERR4
 40
0.0
  9
$USERR5
 40
0.0
  9
$WORLDVIEW
 70
     1
  9
$SHADEDGE
 70
     3
  9
$SHADEDIF
 70
    70
  9
$TILEMODE
 70
     1
  9
$MAXACTVP
 70
    64
  9
$PINSBASE
 10
0.0
 20
0.0
 30
0.0
  9
$PLIMCHECK
 70
     0
  9
$PEXTMIN
 10
1.000000000000000E+20
 20
1.000000000000000E+20
 30
1.000000000000000E+20
  9
$PEXTMAX
 10
-1.000000000000000E+20
 20
-1.000000000000000E+20
 30
-1.000000000000000E+20
  9
$PLIMMIN
 10
0.0
 20
0.0
  9
$PLIMMAX
 10
12.0
 20
9.0
  9
$UNITMODE
 70
     0
  9
$VISRETAIN
 70
     1
  9
$PLINEGEN
 70
     0
  9
$PSLTSCALE
 70
     1
  9
$TREEDEPTH
 70
  3020
  9
$CMLSTYLE
  2
Standard
  9
$CMLJUST
 70
     0
  9
$CMLSCALE
 40
1.0
  9
$PROXYGRAPHICS
 70
     1
  9
$MEASUREMENT
 70
     0
  9
$CELWEIGHT
370
    -1
  9
$ENDCAPS
280
     0
  9
$JOINSTYLE
280
     0
  9
$LWDISPLAY
290
     0
  9
$INSUNITS
 70
     4
  9
$HYPERLINKBASE
  1

  9
$STYLESHEET
  1

  9
$XEDIT
290
     1
  9
$CEPSNTYPE
380
     0
  9
$PSTYLEMODE
290
     1
  9
$FINGERPRINTGUID
  2
{4A773844-D809-45C9-A466-91820D4DC3BB}
  9
$VERSIONGUID
  2
{FAEB1C32-E019-11D5-929B-00C0DF256EC4}
  9
$EXTNAMES
290
     1
  9
$PSVPSCALE
 40
0.0
  9
$OLESTARTUP
290
     0
  9
$SORTENTS
280
   127
  9
$INDEXCTL
280
     0
  9
$HIDETEXT
280
     1
  9
$XCLIPFRAME
290
     0
  9
$HALOGAP
280
     0
  9
$OBSCOLOR
 70
   257
  9
$OBSLTYPE
280
     0
  9
$INTERSECTIONDISPLAY
280
     0
  9
$INTERSECTIONCOLOR
 70
   257
  9
$DIMASSOC
280
     2
  9
$PROJECTNAME
  1

  9
$CAMERADISPLAY
290
     0
  9
$LENSLENGTH
 40
50.0
  9
$CAMERAHEIGHT
 40
0.0
  9
$STEPSPERSEC
 40
2.0
  9
$STEPSIZE
 40
6.0
  9
$3DDWFPREC
 40
2.0
  9
$PSOLWIDTH
 40
0.25
  9
$PSOLHEIGHT
 40
4.0
  9
$LOFTANG1
 40
1.570796326794897
  9
$LOFTANG2
 40
1.570796326794897
  9
$LOFTMAG1
 40
0.0
  9
$LOFTMAG2
 40
0.0
  9
$LOFTPARAM
 70
     7
  9
$LOFTNORMALS
280
     1
  9
$LATITUDE
 40
37.795
  9
$LONGITUDE
 40
-122.394
  9
$NORTHDIRECTION
 40
0.0
  9
$TIMEZONE
 70
 -8000
  9
$LIGHTGLYPHDISPLAY
280
     1
  9
$TILEMODELIGHTSYNCH
280
     1
  9
$SOLIDHIST
280
     1
  9
$SHOWHIST
280
     1
  9
$DWFFRAME
280
     2
  9
$DGNFRAME
280
     2
  9
$REALWORLDSCALE
290
     1
  9
$INTERFERECOLOR
 62
   256
  9
$CSHADOW
280
     0
  9
$SHADOWPLANELOCATION
 40
0.0
  0
ENDSEC
  0
SECTION
  2
CLASSES
  0
CLASS
  1
ACDBDICTIONARYWDFLT
  2
AcDbDictionaryWithDefault
  3
ObjectDBX Classes
 90
        0
 91
        4
280
     0
281
     0
  0
CLASS
  1
VISUALSTYLE
  2
AcDbVisualStyle
  3
ObjectDBX Classes
 90
     4095
 91
        4
280
     0
281
     0
  0
CLASS
  1
MATERIAL
  2
AcDbMaterial
  3
ObjectDBX Classes
 90
     1153
 91
        4
280
     0
281
     0
  0
ENDSEC
  0
SECTION
  2
TABLES
  0
TABLE
  2
VPORT
  5
8
330
0
100
AcDbSymbolTable
 70
     1
  0
VPORT
  5
29
330
8
100
AcDbSymbolTableRecord
100
AcDbViewportTableRecord
  2
*Active
 70
     0
 10
0.0
 20
0.0
 11
1.0
 21
1.0
 12
10.42990654205607
 22
4.5
 13
0.0
 23
0.0
 14
0.5
 24
0.5
 15
0.5
 25
0.5
 16
0.0
 26
0.0
 36
1.0
 17
0.0
 27
0.0
 37
0.0
 40
9.0
 41
1.972972972850329
 42
50.0
 43
0.0
 44
0.0
 50
0.0
 51
0.0
 71
     0
 72
   100
 73
     1
 74
     3
 75
     0
 76
     0
 77
     0
 78
     0
281
     0
 65
     1
110
0.0
120
0.0
130
0.0
111
1.0
121
0.0
131
0.0
112
0.0
122
1.0
132
0.0
 79
     0
146
0.0
 60
     3
 61
     5
292
     1
282
     1
141
0.0
142
0.0
 63
   250
  0
ENDTAB
  0
TABLE
  2
LTYPE
  5
5
330
0
100
AcDbSymbolTable
 70
     1
  0
LTYPE
  5
14
330
5
100
AcDbSymbolTableRecord
100
AcDbLinetypeTableRecord
  2
ByBlock
 70
     0
  3

 72
    65
 73
     0
 40
0.0
  0
LTYPE
  5
15
330
5
100
AcDbSymbolTableRecord
100
AcDbLinetypeTableRecord
  2
ByLayer
 70
     0
  3

 72
    65
 73
     0
 40
0.0
  0
LTYPE
  5
16
330
5
100
AcDbSymbolTableRecord
100
AcDbLinetypeTableRecord
  2
Continuous
 70
     0
  3
Solid line
 72
    65
 73
     0
 40
0.0
  0
ENDTAB
  0
TABLE
  2
LAYER
  5
2
330
0
100
AcDbSymbolTable
 70
     3
  0
LAYER
  5
10
330
2
100
AcDbSymbolTableRecord
100
AcDbLayerTableRecord
  2
0
 70
     0
 62
     7
  6
Continuous
370
    -3
390
F
347
3E
  0
LAYER
  5
40
330
2
100
AcDbSymbolTableRecord
100
AcDbLayerTableRecord
  2
layer 1
 70
     0
 62
     7
  6
Continuous
370
    -3
390
F
347
3E
  0
LAYER
  5
68
330
2
100
AcDbSymbolTableRecord
100
AcDbLayerTableRecord
  2
Master Guides
 70
     0
 62
     7
  6
Continuous
370
    -3
390
F
347
3E
  0
ENDTAB
  0
TABLE
  2
STYLE
  5
3
330
0
100
AcDbSymbolTable
 70
     1
  0
STYLE
  5
11
330
3
100
AcDbSymbolTableRecord
100
AcDbTextStyleTableRecord
  2
Standard
 70
     0
 40
0.0
 41
1.0
 50
0.0
 71
     0
 42
0.2
  3
txt
  4

  0
ENDTAB
  0
TABLE
  2
VIEW
  5
6
330
0
100
AcDbSymbolTable
 70
     0
  0
ENDTAB
  0
TABLE
  2
UCS
  5
7
330
0
100
AcDbSymbolTable
 70
     0
  0
ENDTAB
  0
TABLE
  2
APPID
  5
9
330
0
100
AcDbSymbolTable
 70
     2
  0
APPID
  5
12
330
9
100
AcDbSymbolTableRecord
100
AcDbRegAppTableRecord
  2
ACAD
 70
     0
  0
APPID
  5
3F
330
9
100
AcDbSymbolTableRecord
100
AcDbRegAppTableRecord
  2
ODA
 70
     0
  0
ENDTAB
  0
TABLE
  2
DIMSTYLE
  5
A
330
0
100
AcDbSymbolTable
 70
     1
100
AcDbDimStyleTable
  0
DIMSTYLE
105
27
330
A
100
AcDbSymbolTableRecord
100
AcDbDimStyleTableRecord
  2
Standard
 70
     0
178
     0
340
11
  0
ENDTAB
  0
TABLE
  2
BLOCK_RECORD
  5
1
330
0
100
AcDbSymbolTable
 70
     1
  0
BLOCK_RECORD
  5
1F
330
1
100
AcDbSymbolTableRecord
100
AcDbBlockTableRecord
  2
*Model_Space
340
22
 70
     0
280
     1
281
     0
  0
BLOCK_RECORD
  5
1B
330
1
100
AcDbSymbolTableRecord
100
AcDbBlockTableRecord
  2
*Paper_Space
340
1E
 70
     0
280
     1
281
     0
  0
BLOCK_RECORD
  5
23
330
1
100
AcDbSymbolTableRecord
100
AcDbBlockTableRecord
  2
*Paper_Space0
340
26
 70
     0
280
     1
281
     0
  0
ENDTAB
  0
ENDSEC
  0
SECTION
  2
BLOCKS
  0
BLOCK
  5
20
330
1F
100
AcDbEntity
  8
0
100
AcDbBlockBegin
  2
*Model_Space
 70
     0
 10
0.0
 20
0.0
 30
0.0
  3
*Model_Space
  1

  0
ENDBLK
  5
21
330
1F
100
AcDbEntity
  8
0
100
AcDbBlockEnd
  0
BLOCK
  5
1C
330
1B
100
AcDbEntity
 67
     1
  8
0
100
AcDbBlockBegin
  2
*Paper_Space
 70
     0
 10
0.0
 20
0.0
 30
0.0
  3
*Paper_Space
  1

  0
ENDBLK
  5
1D
330
1B
100
AcDbEntity
 67
     1
  8
0
100
AcDbBlockEnd
  0
BLOCK
  5
24
330
23
100
AcDbEntity
  8
0
100
AcDbBlockBegin
  2
*Paper_Space0
 70
     0
 10
0.0
 20
0.0
 30
0.0
  3
*Paper_Space0
  1

  0
ENDBLK
  5
25
330
23
100
AcDbEntity
  8
0
100
AcDbBlockEnd
  0
ENDSEC
  0
SECTION
  2
ENTITIES
  0
SPLINE
  5
41
330
1F
100
AcDbEntity
  8
layer 1
 62
   250
100
AcDbSpline
210
0.0
220
0.0
230
1.0
 70
    11
 71
     3
 72
    20
 73
    16
 74
     0
 42
0.0000000001
 43
0.0000000001
 12
1.0
 22
0.0
 32
0.0
 13
1.0
 23
0.0
 33
0.0
 40
0.0
 40
0.0
 40
0.0
 40
0.0
 40
0.2
 40
0.2
 40
0.2
 40
0.2
 40
0.4
 40
0.4
 40
0.4
 40
0.4
 40
0.6
 40
0.6
 40
0.6
 40
0.6
 40
1.0
 40
1.0
 40
1.0
 40
1.0
 10
-28.4068
 20
131.9298
 30
0.0
 10
-28.4068
 20
131.9298
 30
0.0
 10
56.2939
 20
131.9298
 30
0.0
 10
56.2939
 20
131.9298
 30
0.0
 10
56.2939
 20
131.9298
 30
0.0
 10
56.2939
 20
131.9298
 30
0.0
 10
56.2939
 20
-114.8782
 30
0.0
 10
56.2939
 20
-114.8782
 30
0.0
 10
56.2939
 20
-114.8782
 30
0.0
 10
56.2939
 20
-114.8782
 30
0.0
 10
-28.4068
 20
-114.8782
 30
0.0
 10
-28.4068
 20
-114.8782
 30
0.0
 10
-28.4068
 20
-114.8782
 30
0.0
 10
-28.4068
 20
-114.8782
 30
0.0
 10
-28.4068
 20
131.9298
 30
0.0
 10
-28.4068
 20
131.9298
 30
0.0
  0
SPLINE
  5
42
330
1F
100
AcDbEntity
  8
layer 1
 62
     7
100
AcDbSpline
210
0.0
220
0.0
230
1.0
 70
    11
 71
     3
 72
    16
 73
    12
 74
     0
 42
0.0000000001
 43
0.0000000001
 12
1.0
 22
0.0
 32
0.0
 13
1.0
 23
0.0
 33
0.0
 40
0.0
 40
0.0
 40
0.0
 40
0.0
 40
0.25
 40
0.25
 40
0.25
 40
0.25
 40
0.5
 40
0.5
 40
0.5
 40
0.5
 40
1.0
 40
1.0
 40
1.0
 40
1.0
 10
-20.5972
 20
127.8164
 30
0.0
 10
-18.9554
 20
123.3897
 30
0.0
 10
-19.7675
 20
118.2463
 30
0.0
 10
-24.0786
 20
115.2582
 30
0.0
 10
-24.0786
 20
115.2582
 30
0.0
 10
-24.1581
 20
119.4443
 30
0.0
 10
-24.2377
 20
123.6303
 30
0.0
 10
-24.3173
 20
127.8164
 30
0.0
 10
-24.3173
 20
127.8164
 30
0.0
 10
-24.3173
 20
127.8164
 30
0.0
 10
-20.5972
 20
127.8164
 30
0.0
 10
-20.5972
 20
127.8164
 30
0.0
  0
SPLINE
  5
43
330
1F
100
AcDbEntity
  8
layer 1
 62
     7
100
AcDbSpline
210
0.0
220
0.0
230
1.0
 70
    11
 71
     3
 72
    20
 73
    16
 74
     0
 42
0.0000000001
 43
0.0000000001
 12
1.0
 22
0.0
 32
0.0
 13
1.0
 23
0.0
 33
0.0
 40
0.0
 40
0.0
 40
0.0
 40
0.0
 40
0.2
 40
0.2
 40
0.2
 40
0.2
 40
0.4
 40
0.4
 40
0.4
 40
0.4
 40
0.6
 40
0.6
 40
0.6
 40
0.6
 40
1.0
 40
1.0
 40
1.0
 40
1.0
 10
1.5131
 20
127.8164
 30
0.0
 10
0.5569
 20
126.2686
 30
0.0
 10
-0.9171
 20
125.2081
 30
0.0
 10
-2.8763
 20
124.5129
 30
0.0
 10
-2.8763
 20
124.5129
 30
0.0
 10
-5.9547
 20
123.4205
 30
0.0
 10
-8.946
 20
123.7702
 30
0.0
 10
-11.8721
 20
125.1912
 30
0.0
 10
-11.8721
 20
125.1912
 30
0.0
 10
-13.4238
 20
125.5965
 30
0.0
 10
-14.6169
 20
126.566
 30
0.0
 10
-15.6306
 20
127.8164
 30
0.0
 10
-15.6306
 20
127.8164
 30
0.0
 10
-15.6306
 20
127.8164
 30
0.0
 10
1.5131
 20
127.8164
 30
0.0
 10
1.5131
 20
127.8164
 30
0.0
  0
SPLINE
  5
44
330
1F
100
AcDbEntity
  8
layer 1
 62
     7
100
AcDbSpline
210
0.0
220
0.0
230
1.0
 70
    11
 71
     3
 72
    24
 73
    20
 74
     0
 42
0.0000000001
 43
0.0000000001
 12
1.0
 22
0.0
 32
0.0
 13
1.0
 23
0.0
 33
0.0
 40
0.0
 40
0.0
 40
0.0
 40
0.0
 40
0.1666666666666667
 40
0.1666666666666667
 40
0.1666666666666667
 40
0.1666666666666667
 40
0.3333333333333333
 40
0.3333333333333333
 40
0.3333333333333333
 40
0.3333333333333333
 40
0.5
 40
0.5
 40
0.5
 40
0.5
 40
0.6666666666666666
 40
0.6666666666666666
 40
0.6666666666666666
 40
0.6666666666666666
 40
1.0
 40
1.0
 40
1.0
 40
1.0
 10
51.4757
 20
118.827
 30
0.0
 10
51.4755
 20
120.0823
 30
0.0
 10
51.4755
 20
121.3373
 30
0.0
 10
51.4757
 20
122.5924
 30
0.0
 10
51.4757
 20
122.5924
 30
0.0
 10
47.7378
 20
123.0017
 30
0.0
 10
45.739
 20
125.1545
 30
0.0
 10
45.171
 20
127.8164
 30
0.0
 10
45.171
 20
127.8164
 30
0.0
 10
45.171
 20
127.8164
 30
0.0
 10
40.6596
 20
127.8164
 30
0.0
 10
40.6596
 20
127.8164
 30
0.0
 10
40.6596
 20
127.8164
 30
0.0
 10
40.9946
 20
127.1725
 30
0.0
 10
41.2961
 20
126.4826
 30
0.0
 10
41.5605
 20
125.7418
 30
0.0
 10
41.5605
 20
125.7418
 30
0.0
 10
44.57
 20
122.9285
 30
0.0
 10
47.6062
 20
120.1614
 30
0.0
 10
51.4757
 20
118.827
 30
0.0
  0
SPLINE
  5
45
330
1F
100
AcDbEntity
  8
layer 1
 62
     7
100
AcDbSpline
210
0.0
220
0.0
230
1.0
 70
    11
 71
     3
 72
    68
 73
    64
 74
     0
 42
0.0000000001
 43
0.0000000001
 12
1.0
 22
0.0
 32
0.0
 13
1.0
 23
0.0
 33
0.0
 40
0.0
 40
0.0
 40
0.0
 40
0.0
 40
0.0588235294117647
 40
0.0588235294117647
 40
0.0588235294117647
 40
0.0588235294117647
 40
0.1176470588235294
 40
0.1176470588235294
 40
0.1176470588235294
 40
0.1176470588235294
 40
0.1764705882352941
 40
0.1764705882352941
 40
0.1764705882352941
 40
0.1764705882352941
 40
0.2352941176470588
 40
0.2352941176470588
 40
0.2352941176470588
 40
0.2352941176470588
 40
0.2941176470588235
 40
0.2941176470588235
 40
0.2941176470588235
 40
0.2941176470588235
 40
0.3529411764705883
 40
0.3529411764705883
 40
0.3529411764705883
 40
0.3529411764705883
 40
0.4117647058823529
 40
0.4117647058823529
 40
0.4117647058823529
 40
0.4117647058823529
 40
0.4705882352941176
 40
0.4705882352941176
 40
0.4705882352941176
 40
0.4705882352941176
 40
0.5294117647058824
 40
0.5294117647058824
 40
0.5294117647058824
 40
0.5294117647058824
 40
0.5882352941176471
 40
0.5882352941176471
 40
0.5882352941176471
 40
0.5882352941176471
 40
0.6470588235294118
 40
0.6470588235294118
 40
0.6470588235294118
 40
0.6470588235294118
 40
0.7058823529411765
 40
0.7058823529411765
 40
0.7058823529411765
 40
0.7058823529411765
 40
0.7647058823529411
 40
0.7647058823529411
 40
0.7647058823529411
 40
0.7647058823529411
 40
0.8235294117647058
 40
0.8235294117647058
 40
0.8235294117647058
 40
0.8235294117647058
 40
0.8823529411764706
 40
0.8823529411764706
 40
0.8823529411764706
 40
0.8823529411764706
 40
1.0
 40
1.0
 40
1.0
 40
1.0
 10
50.4953
 20
49.5994
 30
0.0
 10
46.4395
 20
53.2607
 30
0.0
 10
41.0851
 20
55.0303
 30
0.0
 10
36.384
 20
50.99
 30
0.0
 10
36.384
 20
50.99
 30
0.0
 10
34.6146
 20
49.4692
 30
0.0
 10
32.504
 20
47.2202
 30
0.0
 10
31.6636
 20
44.7051
 30
0.0
 10
31.6636
 20
44.7051
 30
0.0
 10
30.3728
 20
40.8417
 30
0.0
 10
32.0803
 20
36.2391
 30
0.0
 10
35.5524
 20
34.6605
 30
0.0
 10
35.5524
 20
34.6605
 30
0.0
 10
37.6643
 20
33.7005
 30
0.0
 10
40.0001
 20
33.9443
 30
0.0
 10
41.6522
 20
35.7708
 30
0.0
 10
41.6522
 20
35.7708
 30
0.0
 10
42.8979
 20
37.1483
 30
0.0
 10
43.3794
 20
38.922
 30
0.0
 10
42.6938
 20
40.2642
 30
0.0
 10
42.6938
 20
40.2642
 30
0.0
 10
41.868
 20
41.881
 30
0.0
 10
40.4233
 20
41.8639
 30
0.0
 10
38.9245
 20
42.0873
 30
0.0
 10
38.9245
 20
42.0873
 30
0.0
 10
37.6649
 20
42.2752
 30
0.0
 10
36.6064
 20
42.7283
 30
0.0
 10
37.6535
 20
44.7726
 30
0.0
 10
37.6535
 20
44.7726
 30
0.0
 10
40.1931
 20
49.7315
 30
0.0
 10
48.1094
 20
46.6638
 30
0.0
 10
48.799
 20
41.3719
 30
0.0
 10
48.799
 20
41.3719
 30
0.0
 10
49.4294
 20
36.5358
 30
0.0
 10
47.6244
 20
33.2464
 30
0.0
 10
43.6935
 20
30.7897
 30
0.0
 10
43.6935
 20
30.7897
 30
0.0
 10
41.7748
 20
29.5908
 30
0.0
 10
39.6155
 20
29.0129
 30
0.0
 10
37.1355
 20
29.2621
 30
0.0
 10
37.1355
 20
29.2621
 30
0.0
 10
32.81
 20
29.6967
 30
0.0
 10
29.4466
 20
32.0043
 30
0.0
 10
27.5418
 20
35.4971
 30
0.0
 10
27.5418
 20
35.4971
 30
0.0
 10
23.5972
 20
42.7308
 30
0.0
 10
26.3218
 20
51.9265
 30
0.0
 10
33.5874
 20
55.7367
 30
0.0
 10
33.5874
 20
55.7367
 30
0.0
 10
39.5505
 20
58.8638
 30
0.0
 10
44.7469
 20
57.9801
 30
0.0
 10
50.4979
 20
56.1031
 30
0.0
 10
50.4979
 20
56.1031
 30
0.0
 10
52.8823
 20
55.3252
 30
0.0
 10
52.3006
 20
55.4761
 30
0.0
 10
52.0916
 20
52.9736
 30
0.0
 10
52.0916
 20
52.9736
 30
0.0
 10
52.0014
 20
51.8941
 30
0.0
 10
51.9112
 20
50.8146
 30
0.0
 10
51.821
 20
49.7353
 30
0.0
 10
51.821
 20
49.7353
 30
0.0
 10
51.6547
 20
47.7413
 30
0.0
 10
51.686
 20
48.5245
 30
0.0
 10
50.4953
 20
49.5994
 30
0.0
  0
SPLINE
  5
46
330
1F
100
AcDbEntity
  8
layer 1
 62
     7
100
AcDbSpline
210
0.0
220
0.0
230
1.0
 70
    11
 71
     3
 72
    20
 73
    16
 74
     0
 42
0.0000000001
 43
0.0000000001
 12
1.0
 22
0.0
 32
0.0
 13
1.0
 23
0.0
 33
0.0
 40
0.0
 40
0.0
 40
0.0
 40
0.0
 40
0.2
 40
0.2
 40
0.2
 40
0.2
 40
0.4
 40
0.4
 40
0.4
 40
0.4
 40
0.6
 40
0.6
 40
0.6
 40
0.6
 40
1.0
 40
1.0
 40
1.0
 40
1.0
 10
51.8331
 20
34.4568
 30
0.0
 10
51.9084
 20
33.4728
 30
0.0
 10
51.9837
 20
32.4888
 30
0.0
 10
52.059
 20
31.5048
 30
0.0
 10
52.059
 20
31.5048
 30
0.0
 10
50.2775
 20
30.1327
 30
0.0
 10
49.3241
 20
27.6211
 30
0.0
 10
48.7471
 20
24.5912
 30
0.0
 10
48.7471
 20
24.5912
 30
0.0
 10
45.6309
 20
25.0041
 30
0.0
 10
44.278
 20
25.9627
 30
0.0
 10
43.1769
 20
26.9994
 30
0.0
 10
43.1769
 20
26.9994
 30
0.0
 10
46.5641
 20
28.1388
 30
0.0
 10
49.4496
 20
30.6246
 30
0.0
 10
51.8331
 20
34.4568
 30
0.0
  0
SPLINE
  5
47
330
1F
100
AcDbEntity
  8
layer 1
 62
     7
100
AcDbSpline
210
0.0
220
0.0
230
1.0
 70
    11
 71
     3
 72
    36
 73
    32
 74
     0
 42
0.0000000001
 43
0.0000000001
 12
1.0
 22
0.0
 32
0.0
 13
1.0
 23
0.0
 33
0.0
 40
0.0
 40
0.0
 40
0.0
 40
0.0
 40
0.1111111111111111
 40
0.1111111111111111
 40
0.1111111111111111
 40
0.1111111111111111
 40
0.2222222222222222
 40
0.2222222222222222
 40
0.2222222222222222
 40
0.2222222222222222
 40
0.3333333333333333
 40
0.3333333333333333
 40
0.3333333333333333
 40
0.3333333333333333
 40
0.4444444444444444
 40
0.4444444444444444
 40
0.4444444444444444
 40
0.4444444444444444
 40
0.5555555555555556
 40
0.5555555555555556
 40
0.5555555555555556
 40
0.5555555555555556
 40
0.6666666666666666
 40
0.6666666666666666
 40
0.6666666666666666
 40
0.6666666666666666
 40
0.7777777777777778
 40
0.7777777777777778
 40
0.7777777777777778
 40
0.7777777777777778
 40
1.0
 40
1.0
 40
1.0
 40
1.0
 10
52.2424
 20
105.684
 30
0.0
 10
52.2007
 20
103.4446
 30
0.0
 10
52.1588
 20
101.2054
 30
0.0
 10
52.1173
 20
98.9662
 30
0.0
 10
52.1173
 20
98.9662
 30
0.0
 10
47.6889
 20
101.141
 30
0.0
 10
39.8583
 20
107.4544
 30
0.0
 10
41.6408
 20
113.4162
 30
0.0
 10
41.6408
 20
113.4162
 30
0.0
 10
42.4833
 20
116.2346
 30
0.0
 10
44.6337
 20
118.312
 30
0.0
 10
47.6869
 20
117.6799
 30
0.0
 10
47.6869
 20
117.6799
 30
0.0
 10
48.9582
 20
117.4166
 30
0.0
 10
50.2643
 20
116.5837
 30
0.0
 10
51.6165
 20
114.9857
 30
0.0
 10
51.6165
 20
114.9857
 30
0.0
 10
51.7707
 20
113.376
 30
0.0
 10
51.3118
 20
112.5578
 30
0.0
 10
50.2395
 20
112.5312
 30
0.0
 10
50.2395
 20
112.5312
 30
0.0
 10
49.7387
 20
113.0811
 30
0.0
 10
49.2381
 20
113.4356
 30
0.0
 10
48.7373
 20
113.6575
 30
0.0
 10
48.7373
 20
113.6575
 30
0.0
 10
46.2866
 20
114.7431
 30
0.0
 10
44.9527
 20
113.3156
 30
0.0
 10
44.8175
 20
110.7392
 30
0.0
 10
44.8175
 20
110.7392
 30
0.0
 10
44.5923
 20
106.4514
 30
0.0
 10
48.6572
 20
105.0623
 30
0.0
 10
52.2424
 20
105.684
 30
0.0
  0
SPLINE
  5
48
330
1F
100
AcDbEntity
  8
layer 1
 62
     7
100
AcDbSpline
210
0.0
220
0.0
230
1.0
 70
    11
 71
     3
 72
    56
 73
    52
 74
     0
 42
0.0000000001
 43
0.0000000001
 12
1.0
 22
0.0
 32
0.0
 13
1.0
 23
0.0
 33
0.0
 40
0.0
 40
0.0
 40
0.0
 40
0.0
 40
0.0714285714285714
 40
0.0714285714285714
 40
0.0714285714285714
 40
0.0714285714285714
 40
0.1428571428571428
 40
0.1428571428571428
 40
0.1428571428571428
 40
0.1428571428571428
 40
0.2142857142857143
 40
0.2142857142857143
 40
0.2142857142857143
 40
0.2142857142857143
 40
0.2857142857142857
 40
0.2857142857142857
 40
0.2857142857142857
 40
0.2857142857142857
 40
0.3571428571428572
 40
0.3571428571428572
 40
0.3571428571428572
 40
0.3571428571428572
 40
0.4285714285714285
 40
0.4285714285714285
 40
0.4285714285714285
 40
0.4285714285714285
 40
0.5
 40
0.5
 40
0.5
 40
0.5
 40
0.5714285714285714
 40
0.5714285714285714
 40
0.5714285714285714
 40
0.5714285714285714
 40
0.6428571428571429
 40
0.6428571428571429
 40
0.6428571428571429
 40
0.6428571428571429
 40
0.7142857142857143
 40
0.7142857142857143
 40
0.7142857142857143
 40
0.7142857142857143
 40
0.7857142857142857
 40
0.7857142857142857
 40
0.7857142857142857
 40
0.7857142857142857
 40
0.8571428571428571
 40
0.8571428571428571
 40
0.8571428571428571
 40
0.8571428571428571
 40
1.0
 40
1.0
 40
1.0
 40
1.0
 10
45.3574
 20
95.4781
 30
0.0
 10
45.1487
 20
96.77
 30
0.0
 10
44.94
 20
98.0618
 30
0.0
 10
44.7313
 20
99.3537
 30
0.0
 10
44.7313
 20
99.3537
 30
0.0
 10
40.5133
 20
102.1353
 30
0.0
 10
37.9828
 20
105.5698
 30
0.0
 10
36.2189
 20
109.3013
 30
0.0
 10
36.2189
 20
109.3013
 30
0.0
 10
33.7331
 20
106.1045
 30
0.0
 10
30.7357
 20
104.7664
 30
0.0
 10
27.4433
 20
104.5043
 30
0.0
 10
27.4433
 20
104.5043
 30
0.0
 10
25.1428
 20
104.3212
 30
0.0
 10
23.0338
 20
103.6192
 30
0.0
 10
21.1521
 20
102.508
 30
0.0
 10
21.1521
 20
102.508
 30
0.0
 10
18.4986
 20
100.9413
 30
0.0
 10
15.8127
 20
98.4192
 30
0.0
 10
15.2496
 20
95.1713
 30
0.0
 10
15.2496
 20
95.1713
 30
0.0
 10
14.3056
 20
89.7281
 30
0.0
 10
18.8346
 20
85.5562
 30
0.0
 10
23.8884
 20
86.2521
 30
0.0
 10
23.8884
 20
86.2521
 30
0.0
 10
25.5367
 20
86.479
 30
0.0
 10
27.1848
 20
87.2623
 30
0.0
 10
28.8331
 20
89.0186
 30
0.0
 10
28.8331
 20
89.0186
 30
0.0
 10
29.4932
 20
91.1448
 30
0.0
 10
29.4257
 20
92.62
 30
0.0
 10
28.6302
 20
93.4443
 30
0.0
 10
28.6302
 20
93.4443
 30
0.0
 10
25.7545
 20
96.4242
 30
0.0
 10
25.5471
 20
92.9948
 30
0.0
 10
25.1356
 20
91.2238
 30
0.0
 10
25.1356
 20
91.2238
 30
0.0
 10
24.3784
 20
87.9661
 30
0.0
 10
21.8844
 20
89.2523
 30
0.0
 10
20.4714
 20
91.2396
 30
0.0
 10
20.4714
 20
91.2396
 30
0.0
 10
17.998
 20
94.7189
 30
0.0
 10
22.3289
 20
99.4143
 30
0.0
 10
25.6266
 20
100.0602
 30
0.0
 10
25.6266
 20
100.0602
 30
0.0
 10
30.4097
 20
100.9972
 30
0.0
 10
34.1397
 20
98.4535
 30
0.0
 10
35.4677
 20
93.5403
 30
0.0
 10
35.4677
 20
93.5403
 30
0.0
 10
38.7644
 20
96.8206
 30
0.0
 10
42.0608
 20
96.6346
 30
0.0
 10
45.3574
 20
95.4781
 30
0.0
  0
SPLINE
  5
49
330
1F
100
AcDbEntity
  8
layer 1
 62
     7
100
AcDbSpline
210
0.0
220
0.0
230
1.0
 70
    11
 71
     3
 72
    68
 73
    64
 74
     0
 42
0.0000000001
 43
0.0000000001
 12
1.0
 22
0.0
 32
0.0
 13
1.0
 23
0.0
 33
0.0
 40
0.0
 40
0.0
 40
0.0
 40
0.0
 40
0.0588235294117647
 40
0.0588235294117647
 40
0.0588235294117647
 40
0.0588235294117647
 40
0.1176470588235294
 40
0.1176470588235294
 40
0.1176470588235294
 40
0.1176470588235294
 40
0.1764705882352941
 40
0.1764705882352941
 40
0.1764705882352941
 40
0.1764705882352941
 40
0.2352941176470588
 40
0.2352941176470588
 40
0.2352941176470588
 40
0.2352941176470588
 40
0.2941176470588235
 40
0.2941176470588235
 40
0.2941176470588235
 40
0.2941176470588235
 40
0.3529411764705883
 40
0.3529411764705883
 40
0.3529411764705883
 40
0.3529411764705883
 40
0.4117647058823529
 40
0.4117647058823529
 40
0.4117647058823529
 40
0.4117647058823529
 40
0.4705882352941176
 40
0.4705882352941176
 40
0.4705882352941176
 40
0.4705882352941176
 40
0.5294117647058824
 40
0.5294117647058824
 40
0.5294117647058824
 40
0.5294117647058824
 40
0.5882352941176471
 40
0.5882352941176471
 40
0.5882352941176471
 40
0.5882352941176471
 40
0.6470588235294118
 40
0.6470588235294118
 40
0.6470588235294118
 40
0.6470588235294118
 40
0.7058823529411765
 40
0.7058823529411765
 40
0.7058823529411765
 40
0.7058823529411765
 40
0.7647058823529411
 40
0.7647058823529411
 40
0.7647058823529411
 40
0.7647058823529411
 40
0.8235294117647058
 40
0.8235294117647058
 40
0.8235294117647058
 40
0.8235294117647058
 40
0.8823529411764706
 40
0.8823529411764706
 40
0.8823529411764706
 40
0.8823529411764706
 40
1.0
 40
1.0
 40
1.0
 40
1.0
 10
10.6778
 20
37.5223
 30
0.0
 10
8.928
 20
36.985
 30
0.0
 10
8.5242
 20
35.5502
 30
0.0
 10
8.5762
 20
33.7353
 30
0.0
 10
8.5762
 20
33.7353
 30
0.0
 10
8.792
 20
26.2001
 30
0.0
 10
24.3045
 20
25.6801
 30
0.0
 10
24.1112
 20
35.8689
 30
0.0
 10
24.1112
 20
35.8689
 30
0.0
 10
24.0847
 20
37.2678
 30
0.0
 10
23.6955
 20
38.6132
 30
0.0
 10
23.0684
 20
39.9236
 30
0.0
 10
23.0684
 20
39.9236
 30
0.0
 10
22.1577
 20
43.3934
 30
0.0
 10
20.1327
 20
44.8507
 30
0.0
 10
17.9484
 20
46.0204
 30
0.0
 10
17.9484
 20
46.0204
 30
0.0
 10
11.6902
 20
48.271
 30
0.0
 10
8.657
 20
52.3141
 30
0.0
 10
6.5268
 20
56.8591
 30
0.0
 10
6.5268
 20
56.8591
 30
0.0
 10
3.8904
 20
55.3409
 30
0.0
 10
1.5711
 20
55.2957
 30
0.0
 10
-0.4312
 20
56.7235
 30
0.0
 10
-0.4312
 20
56.7235
 30
0.0
 10
-1.4112
 20
57.9551
 30
0.0
 10
-3.1522
 20
58.8373
 30
0.0
 10
-1.0877
 20
61.4655
 30
0.0
 10
-1.0877
 20
61.4655
 30
0.0
 10
-0.6063
 20
61.8267
 30
0.0
 10
-0.1249
 20
62.188
 30
0.0
 10
0.3565
 20
62.5494
 30
0.0
 10
0.3565
 20
62.5494
 30
0.0
 10
0.4065
 20
63.689
 30
0.0
 10
-0.3051
 20
63.9303
 30
0.0
 10
-1.3704
 20
63.7544
 30
0.0
 10
-1.3704
 20
63.7544
 30
0.0
 10
-3.6364
 20
63.3805
 30
0.0
 10
-4.046
 20
62.8569
 30
0.0
 10
-4.4696
 20
60.5075
 30
0.0
 10
-4.4696
 20
60.5075
 30
0.0
 10
-5.3452
 20
55.6513
 30
0.0
 10
-1.8779
 20
52.5615
 30
0.0
 10
0.1819
 20
48.7572
 30
0.0
 10
0.1819
 20
48.7572
 30
0.0
 10
1.6753
 20
45.9993
 30
0.0
 10
2.6656
 20
43.0104
 30
0.0
 10
2.8508
 20
39.6525
 30
0.0
 10
2.8508
 20
39.6525
 30
0.0
 10
7.5762
 20
43.6572
 30
0.0
 10
12.5142
 20
45.7971
 30
0.0
 10
18.2108
 20
41.2784
 30
0.0
 10
18.2108
 20
41.2784
 30
0.0
 10
20.6844
 20
38.2978
 30
0.0
 10
21.6413
 20
35.3172
 30
0.0
 10
19.2612
 20
32.3364
 30
0.0
 10
19.2612
 20
32.3364
 30
0.0
 10
14.6573
 20
30.9564
 30
0.0
 10
13.43
 20
32.1898
 30
0.0
 10
13.2275
 20
34.2162
 30
0.0
 10
13.2275
 20
34.2162
 30
0.0
 10
13.0724
 20
35.7703
 30
0.0
 10
13.1204
 20
38.2725
 30
0.0
 10
10.6778
 20
37.5223
 30
0.0
  0
SPLINE
  5
4A
330
1F
100
AcDbEntity
  8
layer 1
 62
     7
100
AcDbSpline
210
0.0
220
0.0
230
1.0
 70
    11
 71
     3
 72
    20
 73
    16
 74
     0
 42
0.0000000001
 43
0.0000000001
 12
1.0
 22
0.0
 32
0.0
 13
1.0
 23
0.0
 33
0.0
 40
0.0
 40
0.0
 40
0.0
 40
0.0
 40
0.2
 40
0.2
 40
0.2
 40
0.2
 40
0.4
 40
0.4
 40
0.4
 40
0.4
 40
0.6
 40
0.6
 40
0.6
 40
0.6
 40
1.0
 40
1.0
 40
1.0
 40
1.0
 10
1.9409
 20
33.7591
 30
0.0
 10
2.911
 20
29.1997
 30
0.0
 10
6.4485
 20
25.3973
 30
0.0
 10
12.8965
 20
22.4529
 30
0.0
 10
12.8965
 20
22.4529
 30
0.0
 10
10.9564
 20
21.2163
 30
0.0
 10
9.0164
 20
19.9798
 30
0.0
 10
7.0764
 20
18.7431
 30
0.0
 10
7.0764
 20
18.7431
 30
0.0
 10
5.7152
 20
23.9168
 30
0.0
 10
2.0063
 20
27.2734
 30
0.0
 10
-4.0505
 20
28.8126
 30
0.0
 10
-4.0505
 20
28.8126
 30
0.0
 10
-2.0533
 20
30.4616
 30
0.0
 10
-0.0562
 20
32.1103
 30
0.0
 10
1.9409
 20
33.7591
 30
0.0
  0
SPLINE
  5
4B
330
1F
100
AcDbEntity
  8
layer 1
 62
     7
100
AcDbSpline
210
0.0
220
0.0
230
1.0
 70
    11
 71
     3
 72
    12
 73
     8
 74
     0
 42
0.0000000001
 43
0.0000000001
 12
1.0
 22
0.0
 32
0.0
 13
1.0
 23
0.0
 33
0.0
 40
0.0
 40
0.0
 40
0.0
 40
0.0
 40
0.3333333333333333
 40
0.3333333333333333
 40
0.3333333333333333
 40
0.3333333333333333
 40
1.0
 40
1.0
 40
1.0
 40
1.0
 10
-24.4209
 20
16.4466
 30
0.0
 10
-18.9615
 20
11.8606
 30
0.0
 10
-17.7447
 20
2.8176
 30
0.0
 10
-24.0786
 20
-1.5727
 30
0.0
 10
-24.0786
 20
-1.5727
 30
0.0
 10
-24.1926
 20
4.4337
 30
0.0
 10
-24.3068
 20
10.4402
 30
0.0
 10
-24.4209
 20
16.4466
 30
0.0
  0
SPLINE
  5
4C
330
1F
100
AcDbEntity
  8
layer 1
 62
     7
100
AcDbSpline
210
0.0
220
0.0
230
1.0
 70
    11
 71
     3
 72
    52
 73
    48
 74
     0
 42
0.0000000001
 43
0.0000000001
 12
1.0
 22
0.0
 32
0.0
 13
1.0
 23
0.0
 33
0.0
 40
0.0
 40
0.0
 40
0.0
 40
0.0
 40
0.0769230769230769
 40
0.0769230769230769
 40
0.0769230769230769
 40
0.0769230769230769
 40
0.1538461538461539
 40
0.1538461538461539
 40
0.1538461538461539
 40
0.1538461538461539
 40
0.2307692307692308
 40
0.2307692307692308
 40
0.2307692307692308
 40
0.2307692307692308
 40
0.3076923076923077
 40
0.3076923076923077
 40
0.3076923076923077
 40
0.3076923076923077
 40
0.3846153846153846
 40
0.3846153846153846
 40
0.3846153846153846
 40
0.3846153846153846
 40
0.4615384615384616
 40
0.4615384615384616
 40
0.4615384615384616
 40
0.4615384615384616
 40
0.5384615384615384
 40
0.5384615384615384
 40
0.5384615384615384
 40
0.5384615384615384
 40
0.6153846153846154
 40
0.6153846153846154
 40
0.6153846153846154
 40
0.6153846153846154
 40
0.6923076923076923
 40
0.6923076923076923
 40
0.6923076923076923
 40
0.6923076923076923
 40
0.7692307692307693
 40
0.7692307692307693
 40
0.7692307692307693
 40
0.7692307692307693
 40
0.8461538461538461
 40
0.8461538461538461
 40
0.8461538461538461
 40
0.8461538461538461
 40
1.0
 40
1.0
 40
1.0
 40
1.0
 10
-23.9231
 20
53.2956
 30
0.0
 10
-18.1035
 20
54.8903
 30
0.0
 10
-12.1978
 20
54.621
 30
0.0
 10
-6.103
 20
50.2516
 30
0.0
 10
-6.103
 20
50.2516
 30
0.0
 10
-3.9293
 20
48.019
 30
0.0
 10
-2.6074
 20
45.5775
 30
0.0
 10
-2.3823
 20
42.8539
 30
0.0
 10
-2.3823
 20
42.8539
 30
0.0
 10
-1.7247
 20
34.8935
 30
0.0
 10
-7.912
 20
29.2293
 30
0.0
 10
-15.4575
 20
30.4113
 30
0.0
 10
-15.4575
 20
30.4113
 30
0.0
 10
-19.5808
 20
31.0572
 30
0.0
 10
-21.1289
 20
32.5014
 30
0.0
 10
-23.6773
 20
36.0468
 30
0.0
 10
-23.6773
 20
36.0468
 30
0.0
 10
-23.8241
 20
37.9294
 30
0.0
 10
-23.8673
 20
39.7763
 30
0.0
 10
-23.1856
 20
41.3736
 30
0.0
 10
-23.1856
 20
41.3736
 30
0.0
 10
-20.883
 20
43.5983
 30
0.0
 10
-18.6819
 20
44.9837
 30
0.0
 10
-16.8999
 20
44.1965
 30
0.0
 10
-16.8999
 20
44.1965
 30
0.0
 10
-13.7759
 20
42.8162
 30
0.0
 10
-13.2584
 20
41.4264
 30
0.0
 10
-15.7221
 20
40.9213
 30
0.0
 10
-15.7221
 20
40.9213
 30
0.0
 10
-18.8728
 20
40.2752
 30
0.0
 10
-18.9549
 20
37.2561
 30
0.0
 10
-16.8792
 20
35.4784
 30
0.0
 10
-16.8792
 20
35.4784
 30
0.0
 10
-15.1533
 20
34.0002
 30
0.0
 10
-12.4216
 20
34.3588
 30
0.0
 10
-8.6838
 20
36.5541
 30
0.0
 10
-8.6838
 20
36.5541
 30
0.0
 10
-7.1822
 20
41.415
 30
0.0
 10
-8.4576
 20
45.0956
 30
0.0
 10
-11.6333
 20
47.9687
 30
0.0
 10
-11.6333
 20
47.9687
 30
0.0
 10
-15.9941
 20
51.5854
 30
0.0
 10
-20.0857
 20
49.9256
 30
0.0
 10
-24.1688
 20
48.0956
 30
0.0
 10
-24.1688
 20
48.0956
 30
0.0
 10
-24.0869
 20
49.8288
 30
0.0
 10
-24.005
 20
51.5621
 30
0.0
 10
-23.9231
 20
53.2956
 30
0.0
  0
SPLINE
  5
4D
330
1F
100
AcDbEntity
  8
layer 1
 62
     7
100
AcDbSpline
210
0.0
220
0.0
230
1.0
 70
    11
 71
     3
 72
    32
 73
    28
 74
     0
 42
0.0000000001
 43
0.0000000001
 12
1.0
 22
0.0
 32
0.0
 13
1.0
 23
0.0
 33
0.0
 40
0.0
 40
0.0
 40
0.0
 40
0.0
 40
0.125
 40
0.125
 40
0.125
 40
0.125
 40
0.25
 40
0.25
 40
0.25
 40
0.25
 40
0.375
 40
0.375
 40
0.375
 40
0.375
 40
0.5
 40
0.5
 40
0.5
 40
0.5
 40
0.625
 40
0.625
 40
0.625
 40
0.625
 40
0.75
 40
0.75
 40
0.75
 40
0.75
 40
1.0
 40
1.0
 40
1.0
 40
1.0
 10
-23.469
 20
95.4942
 30
0.0
 10
-21.1983
 20
95.0384
 30
0.0
 10
-18.9276
 20
94.5827
 30
0.0
 10
-16.6569
 20
94.1271
 30
0.0
 10
-16.6569
 20
94.1271
 30
0.0
 10
-20.6737
 20
89.9033
 30
0.0
 10
-22.6289
 20
84.3705
 30
0.0
 10
-22.5229
 20
77.5284
 30
0.0
 10
-22.5229
 20
77.5284
 30
0.0
 10
-19.2902
 20
68.871
 30
0.0
 10
-13.4161
 20
66.0849
 30
0.0
 10
-6.0603
 20
66.5928
 30
0.0
 10
-6.0603
 20
66.5928
 30
0.0
 10
-8.0192
 20
64.6771
 30
0.0
 10
-9.3436
 20
61.9431
 30
0.0
 10
-10.034
 20
58.391
 30
0.0
 10
-10.034
 20
58.391
 30
0.0
 10
-13.6924
 20
59.1721
 30
0.0
 10
-17.3507
 20
59.9532
 30
0.0
 10
-21.0091
 20
60.7343
 30
0.0
 10
-21.0091
 20
60.7343
 30
0.0
 10
-20.1784
 20
65.3614
 30
0.0
 10
-21.2506
 20
69.0067
 30
0.0
 10
-24.2259
 20
71.67
 30
0.0
 10
-24.2259
 20
71.67
 30
0.0
 10
-23.9735
 20
79.6114
 30
0.0
 10
-23.7212
 20
87.5527
 30
0.0
 10
-23.469
 20
95.4942
 30
0.0
  0
SPLINE
  5
4E
330
1F
100
AcDbEntity
  8
layer 1
 62
     7
100
AcDbSpline
210
0.0
220
0.0
230
1.0
 70
    11
 71
     3
 72
    52
 73
    48
 74
     0
 42
0.0000000001
 43
0.0000000001
 12
1.0
 22
0.0
 32
0.0
 13
1.0
 23
0.0
 33
0.0
 40
0.0
 40
0.0
 40
0.0
 40
0.0
 40
0.0769230769230769
 40
0.0769230769230769
 40
0.0769230769230769
 40
0.0769230769230769
 40
0.1538461538461539
 40
0.1538461538461539
 40
0.1538461538461539
 40
0.1538461538461539
 40
0.2307692307692308
 40
0.2307692307692308
 40
0.2307692307692308
 40
0.2307692307692308
 40
0.3076923076923077
 40
0.3076923076923077
 40
0.3076923076923077
 40
0.3076923076923077
 40
0.3846153846153846
 40
0.3846153846153846
 40
0.3846153846153846
 40
0.3846153846153846
 40
0.4615384615384616
 40
0.4615384615384616
 40
0.4615384615384616
 40
0.4615384615384616
 40
0.5384615384615384
 40
0.5384615384615384
 40
0.5384615384615384
 40
0.5384615384615384
 40
0.6153846153846154
 40
0.6153846153846154
 40
0.6153846153846154
 40
0.6153846153846154
 40
0.6923076923076923
 40
0.6923076923076923
 40
0.6923076923076923
 40
0.6923076923076923
 40
0.7692307692307693
 40
0.7692307692307693
 40
0.7692307692307693
 40
0.7692307692307693
 40
0.8461538461538461
 40
0.8461538461538461
 40
0.8461538461538461
 40
0.8461538461538461
 40
1.0
 40
1.0
 40
1.0
 40
1.0
 10
42.0519
 20
61.4324
 30
0.0
 10
41.3702
 20
63.6913
 30
0.0
 10
40.6884
 20
65.9502
 30
0.0
 10
40.0066
 20
68.2092
 30
0.0
 10
40.0066
 20
68.2092
 30
0.0
 10
45.6645
 20
69.1448
 30
0.0
 10
48.7052
 20
72.3315
 30
0.0
 10
50.5562
 20
76.5412
 30
0.0
 10
50.5562
 20
76.5412
 30
0.0
 10
51.8541
 20
82.9566
 30
0.0
 10
47.3533
 20
87.3761
 30
0.0
 10
41.1622
 20
87.3266
 30
0.0
 10
41.1622
 20
87.3266
 30
0.0
 10
39.3241
 20
87.3121
 30
0.0
 10
38.2054
 20
86.0937
 30
0.0
 10
37.6621
 20
84.5746
 30
0.0
 10
37.6621
 20
84.5746
 30
0.0
 10
36.6248
 20
81.6747
 30
0.0
 10
37.6851
 20
77.6786
 30
0.0
 10
39.8428
 20
78.8687
 30
0.0
 10
39.8428
 20
78.8687
 30
0.0
 10
40.6429
 20
79.3098
 30
0.0
 10
41.5266
 20
80.1113
 30
0.0
 10
42.296
 20
80.5325
 30
0.0
 10
42.296
 20
80.5325
 30
0.0
 10
45.8849
 20
82.4975
 30
0.0
 10
46.6579
 20
77.0026
 30
0.0
 10
43.2594
 20
75.1738
 30
0.0
 10
43.2594
 20
75.1738
 30
0.0
 10
38.7432
 20
72.7434
 30
0.0
 10
33.5388
 20
76.0381
 30
0.0
 10
32.5007
 20
81.1026
 30
0.0
 10
32.5007
 20
81.1026
 30
0.0
 10
31.4614
 20
86.1737
 30
0.0
 10
34.0124
 20
89.5369
 30
0.0
 10
38.6559
 20
91.119
 30
0.0
 10
38.6559
 20
91.119
 30
0.0
 10
42.4676
 20
92.4176
 30
0.0
 10
46.865
 20
91.2986
 30
0.0
 10
51.8478
 20
87.7616
 30
0.0
 10
51.8478
 20
87.7616
 30
0.0
 10
51.9913
 20
81.9477
 30
0.0
 10
52.135
 20
76.1338
 30
0.0
 10
52.2784
 20
70.32
 30
0.0
 10
52.2784
 20
70.32
 30
0.0
 10
49.9103
 20
67.0506
 30
0.0
 10
46.6402
 20
64.0471
 30
0.0
 10
42.0519
 20
61.4324
 30
0.0
  0
SPLINE
  5
4F
330
1F
100
AcDbEntity
  8
layer 1
 62
     7
100
AcDbSpline
210
0.0
220
0.0
230
1.0
 70
    11
 71
     3
 72
    60
 73
    56
 74
     0
 42
0.0000000001
 43
0.0000000001
 12
1.0
 22
0.0
 32
0.0
 13
1.0
 23
0.0
 33
0.0
 40
0.0
 40
0.0
 40
0.0
 40
0.0
 40
0.0666666666666667
 40
0.0666666666666667
 40
0.0666666666666667
 40
0.0666666666666667
 40
0.1333333333333333
 40
0.1333333333333333
 40
0.1333333333333333
 40
0.1333333333333333
 40
0.2
 40
0.2
 40
0.2
 40
0.2
 40
0.2666666666666667
 40
0.2666666666666667
 40
0.2666666666666667
 40
0.2666666666666667
 40
0.3333333333333333
 40
0.3333333333333333
 40
0.3333333333333333
 40
0.3333333333333333
 40
0.4
 40
0.4
 40
0.4
 40
0.4
 40
0.4666666666666667
 40
0.4666666666666667
 40
0.4666666666666667
 40
0.4666666666666667
 40
0.5333333333333333
 40
0.5333333333333333
 40
0.5333333333333333
 40
0.5333333333333333
 40
0.6
 40
0.6
 40
0.6
 40
0.6
 40
0.6666666666666666
 40
0.6666666666666666
 40
0.6666666666666666
 40
0.6666666666666666
 40
0.7333333333333333
 40
0.7333333333333333
 40
0.7333333333333333
 40
0.7333333333333333
 40
0.8
 40
0.8
 40
0.8
 40
0.8
 40
0.8666666666666667
 40
0.8666666666666667
 40
0.8666666666666667
 40
0.8666666666666667
 40
1.0
 40
1.0
 40
1.0
 40
1.0
 10
18.0218
 20
75.4821
 30
0.0
 10
18.0018
 20
77.4585
 30
0.0
 10
18.2792
 20
79.4348
 30
0.0
 10
19.2106
 20
81.4114
 30
0.0
 10
19.2106
 20
81.4114
 30
0.0
 10
20.1894
 20
81.1647
 30
0.0
 10
21.1521
 20
80.9254
 30
0.0
 10
22.058
 20
80.5838
 30
0.0
 10
22.058
 20
80.5838
 30
0.0
 10
25.6199
 20
79.2405
 30
0.0
 10
28.6299
 20
77.2621
 30
0.0
 10
30.9295
 20
74.1463
 30
0.0
 10
30.9295
 20
74.1463
 30
0.0
 10
33.7443
 20
70.3327
 30
0.0
 10
35.4596
 20
65.6558
 30
0.0
 10
34.1375
 20
61.4676
 30
0.0
 10
34.1375
 20
61.4676
 30
0.0
 10
32.6936
 20
56.8933
 30
0.0
 10
27.6035
 20
53.268
 30
0.0
 10
22.9746
 20
53.4546
 30
0.0
 10
22.9746
 20
53.4546
 30
0.0
 10
17.5229
 20
53.6742
 30
0.0
 10
11.9821
 20
56.5787
 30
0.0
 10
11.8784
 20
62.8258
 30
0.0
 10
11.8784
 20
62.8258
 30
0.0
 10
11.8564
 20
64.1588
 30
0.0
 10
12.2329
 20
65.3575
 30
0.0
 10
12.9529
 20
66.4848
 30
0.0
 10
12.9529
 20
66.4848
 30
0.0
 10
13.2801
 20
66.9973
 30
0.0
 10
13.6784
 20
67.4951
 30
0.0
 10
14.1423
 20
67.9841
 30
0.0
 10
14.1423
 20
67.9841
 30
0.0
 10
16.2319
 20
70.1859
 30
0.0
 10
18.8413
 20
70.0277
 30
0.0
 10
21.2363
 20
68.5575
 30
0.0
 10
21.2363
 20
68.5575
 30
0.0
 10
23.2329
 20
67.3317
 30
0.0
 10
23.9977
 20
65.4855
 30
0.0
 10
19.4869
 20
65.0978
 30
0.0
 10
19.4869
 20
65.0978
 30
0.0
 10
17.4992
 20
64.9268
 30
0.0
 10
15.4485
 20
64.2027
 30
0.0
 10
16.1384
 20
61.5893
 30
0.0
 10
16.1384
 20
61.5893
 30
0.0
 10
17.1931
 20
57.5952
 30
0.0
 10
19.6651
 20
57.1613
 30
0.0
 10
23.1924
 20
58.1309
 30
0.0
 10
23.1924
 20
58.1309
 30
0.0
 10
26.0032
 20
58.9037
 30
0.0
 10
27.6146
 20
60.8368
 30
0.0
 10
28.0268
 20
63.9301
 30
0.0
 10
28.0268
 20
63.9301
 30
0.0
 10
28.796
 20
73.1212
 30
0.0
 10
24.5491
 20
75.7849
 30
0.0
 10
18.0218
 20
75.4821
 30
0.0
  0
SPLINE
  5
50
330
1F
100
AcDbEntity
  8
layer 1
 62
     7
100
AcDbSpline
210
0.0
220
0.0
230
1.0
 70
    11
 71
     3
 72
    64
 73
    60
 74
     0
 42
0.0000000001
 43
0.0000000001
 12
1.0
 22
0.0
 32
0.0
 13
1.0
 23
0.0
 33
0.0
 40
0.0
 40
0.0
 40
0.0
 40
0.0
 40
0.0625
 40
0.0625
 40
0.0625
 40
0.0625
 40
0.125
 40
0.125
 40
0.125
 40
0.125
 40
0.1875
 40
0.1875
 40
0.1875
 40
0.1875
 40
0.25
 40
0.25
 40
0.25
 40
0.25
 40
0.3125
 40
0.3125
 40
0.3125
 40
0.3125
 40
0.375
 40
0.375
 40
0.375
 40
0.375
 40
0.4375
 40
0.4375
 40
0.4375
 40
0.4375
 40
0.5
 40
0.5
 40
0.5
 40
0.5
 40
0.5625
 40
0.5625
 40
0.5625
 40
0.5625
 40
0.625
 40
0.625
 40
0.625
 40
0.625
 40
0.6875
 40
0.6875
 40
0.6875
 40
0.6875
 40
0.75
 40
0.75
 40
0.75
 40
0.75
 40
0.8125
 40
0.8125
 40
0.8125
 40
0.8125
 40
0.875
 40
0.875
 40
0.875
 40
0.875
 40
1.0
 40
1.0
 40
1.0
 40
1.0
 10
2.7321
 20
68.9817
 30
0.0
 10
4.2909
 20
67.9214
 30
0.0
 10
5.8496
 20
66.8611
 30
0.0
 10
7.4082
 20
65.801
 30
0.0
 10
7.4082
 20
65.801
 30
0.0
 10
10.2202
 20
69.491
 30
0.0
 10
11.5974
 20
73.1813
 30
0.0
 10
11.7802
 20
76.8714
 30
0.0
 10
11.7802
 20
76.8714
 30
0.0
 10
12.1591
 20
84.5223
 30
0.0
 10
8.8001
 20
89.5907
 30
0.0
 10
1.7445
 20
91.838
 30
0.0
 10
1.7445
 20
91.838
 30
0.0
 10
-2.6509
 20
93.2381
 30
0.0
 10
-6.5656
 20
93.158
 30
0.0
 10
-10.7672
 20
91.3565
 30
0.0
 10
-10.7672
 20
91.3565
 30
0.0
 10
-16.5575
 20
88.8736
 30
0.0
 10
-18.6125
 20
84.9173
 30
0.0
 10
-17.8271
 20
80.648
 30
0.0
 10
-17.8271
 20
80.648
 30
0.0
 10
-17.0352
 20
76.3435
 30
0.0
 10
-14.6444
 20
74.1547
 30
0.0
 10
-10.8635
 20
72.4475
 30
0.0
 10
-10.8635
 20
72.4475
 30
0.0
 10
-8.7247
 20
71.4819
 30
0.0
 10
-6.4269
 20
71.1994
 30
0.0
 10
-3.783
 20
72.4056
 30
0.0
 10
-3.783
 20
72.4056
 30
0.0
 10
-1.1253
 20
73.6182
 30
0.0
 10
0.0724
 20
75.0419
 30
0.0
 10
0.6443
 20
78.0583
 30
0.0
 10
0.6443
 20
78.0583
 30
0.0
 10
0.9109
 20
79.4636
 30
0.0
 10
0.6794
 20
80.5753
 30
0.0
 10
-0.0501
 20
81.3932
 30
0.0
 10
-0.0501
 20
81.3932
 30
0.0
 10
-1.3705
 20
82.8738
 30
0.0
 10
-4.0394
 20
83.4769
 30
0.0
 10
-5.1202
 20
81.3843
 30
0.0
 10
-5.1202
 20
81.3843
 30
0.0
 10
-5.9579
 20
79.7618
 30
0.0
 10
-4.8259
 20
76.6849
 30
0.0
 10
-8.0452
 20
76.8561
 30
0.0
 10
-8.0452
 20
76.8561
 30
0.0
 10
-9.1611
 20
76.9156
 30
0.0
 10
-10.3698
 20
77.6033
 30
0.0
 10
-11.2103
 20
78.5574
 30
0.0
 10
-11.2103
 20
78.5574
 30
0.0
 10
-13.7541
 20
81.4452
 30
0.0
 10
-12.639
 20
84.5067
 30
0.0
 10
-9.7355
 20
86.501
 30
0.0
 10
-9.7355
 20
86.501
 30
0.0
 10
-5.6962
 20
89.2758
 30
0.0
 10
0.2003
 20
88.9961
 30
0.0
 10
3.7064
 20
85.6865
 30
0.0
 10
3.7064
 20
85.6865
 30
0.0
 10
9.5988
 20
80.1241
 30
0.0
 10
6.3851
 20
73.3463
 30
0.0
 10
2.7321
 20
68.9817
 30
0.0
  0
SPLINE
  5
51
330
1F
100
AcDbEntity
  8
layer 1
 62
     7
100
AcDbSpline
210
0.0
220
0.0
230
1.0
 70
    11
 71
     3
 72
    44
 73
    40
 74
     0
 42
0.0000000001
 43
0.0000000001
 12
1.0
 22
0.0
 32
0.0
 13
1.0
 23
0.0
 33
0.0
 40
0.0
 40
0.0
 40
0.0
 40
0.0
 40
0.0909090909090909
 40
0.0909090909090909
 40
0.0909090909090909
 40
0.0909090909090909
 40
0.1818181818181818
 40
0.1818181818181818
 40
0.1818181818181818
 40
0.1818181818181818
 40
0.2727272727272727
 40
0.2727272727272727
 40
0.2727272727272727
 40
0.2727272727272727
 40
0.3636363636363636
 40
0.3636363636363636
 40
0.3636363636363636
 40
0.3636363636363636
 40
0.4545454545454545
 40
0.4545454545454545
 40
0.4545454545454545
 40
0.4545454545454545
 40
0.5454545454545454
 40
0.5454545454545454
 40
0.5454545454545454
 40
0.5454545454545454
 40
0.6363636363636364
 40
0.6363636363636364
 40
0.6363636363636364
 40
0.6363636363636364
 40
0.7272727272727273
 40
0.7272727272727273
 40
0.7272727272727273
 40
0.7272727272727273
 40
0.8181818181818182
 40
0.8181818181818182
 40
0.8181818181818182
 40
0.8181818181818182
 40
1.0
 40
1.0
 40
1.0
 40
1.0
 10
7.7198
 20
94.4498
 30
0.0
 10
8.2787
 20
98.8515
 30
0.0
 10
10.6776
 20
102.462
 30
0.0
 10
14.9168
 20
105.2812
 30
0.0
 10
14.9168
 20
105.2812
 30
0.0
 10
12.9676
 20
106.2095
 30
0.0
 10
11.0185
 20
107.1379
 30
0.0
 10
9.0694
 20
108.0664
 30
0.0
 10
9.0694
 20
108.0664
 30
0.0
 10
8.0741
 20
104.7265
 30
0.0
 10
6.3386
 20
103.1329
 30
0.0
 10
4.2882
 20
102.2822
 30
0.0
 10
4.2882
 20
102.2822
 30
0.0
 10
1.0248
 20
100.9284
 30
0.0
 10
-4.9002
 20
101.1781
 30
0.0
 10
-5.091
 20
105.8921
 30
0.0
 10
-5.091
 20
105.8921
 30
0.0
 10
-5.2049
 20
108.709
 30
0.0
 10
-3.9793
 20
109.431
 30
0.0
 10
-1.5726
 20
108.5622
 30
0.0
 10
-1.5726
 20
108.5622
 30
0.0
 10
-0.6055
 20
108.213
 30
0.0
 10
0.084
 20
107.5297
 30
0.0
 10
0.3731
 20
106.3644
 30
0.0
 10
0.3731
 20
106.3644
 30
0.0
 10
6.5553
 20
108.6575
 30
0.0
 10
1.9082
 20
112.6918
 30
0.0
 10
-1.4263
 20
113.2128
 30
0.0
 10
-1.4263
 20
113.2128
 30
0.0
 10
-4.674
 20
113.7202
 30
0.0
 10
-7.9552
 20
112.1466
 30
0.0
 10
-9.2228
 20
109.6137
 30
0.0
 10
-9.2228
 20
109.6137
 30
0.0
 10
-7.7435
 20
105.7969
 30
0.0
 10
-7.6065
 20
101.9801
 30
0.0
 10
-10.4223
 20
98.1634
 30
0.0
 10
-10.4223
 20
98.1634
 30
0.0
 10
-4.7213
 20
98.3555
 30
0.0
 10
1.0953
 20
98.0709
 30
0.0
 10
7.7198
 20
94.4498
 30
0.0
  0
SPLINE
  5
52
330
1F
100
AcDbEntity
  8
layer 1
 62
     7
100
AcDbSpline
210
0.0
220
0.0
230
1.0
 70
    11
 71
     3
 72
    48
 73
    44
 74
     0
 42
0.0000000001
 43
0.0000000001
 12
1.0
 22
0.0
 32
0.0
 13
1.0
 23
0.0
 33
0.0
 40
0.0
 40
0.0
 40
0.0
 40
0.0
 40
0.0833333333333333
 40
0.0833333333333333
 40
0.0833333333333333
 40
0.0833333333333333
 40
0.1666666666666667
 40
0.1666666666666667
 40
0.1666666666666667
 40
0.1666666666666667
 40
0.25
 40
0.25
 40
0.25
 40
0.25
 40
0.3333333333333333
 40
0.3333333333333333
 40
0.3333333333333333
 40
0.3333333333333333
 40
0.4166666666666667
 40
0.4166666666666667
 40
0.4166666666666667
 40
0.4166666666666667
 40
0.5
 40
0.5
 40
0.5
 40
0.5
 40
0.5833333333333334
 40
0.5833333333333334
 40
0.5833333333333334
 40
0.5833333333333334
 40
0.6666666666666666
 40
0.6666666666666666
 40
0.6666666666666666
 40
0.6666666666666666
 40
0.75
 40
0.75
 40
0.75
 40
0.75
 40
0.8333333333333334
 40
0.8333333333333334
 40
0.8333333333333334
 40
0.8333333333333334
 40
1.0
 40
1.0
 40
1.0
 40
1.0
 10
35.6585
 20
127.8164
 30
0.0
 10
36.1811
 20
126.8764
 30
0.0
 10
36.6132
 20
125.8549
 30
0.0
 10
36.9384
 20
124.7542
 30
0.0
 10
36.9384
 20
124.7542
 30
0.0
 10
39.0016
 20
117.7672
 30
0.0
 10
35.0692
 20
110.0604
 30
0.0
 10
28.1342
 20
108.1694
 30
0.0
 10
28.1342
 20
108.1694
 30
0.0
 10
18.954
 20
105.6663
 30
0.0
 10
4.9252
 20
114.4851
 30
0.0
 10
13.5993
 20
124.2918
 30
0.0
 10
13.5993
 20
124.2918
 30
0.0
 10
15.402
 20
126.33
 30
0.0
 10
18.0937
 20
127.1611
 30
0.0
 10
21.8812
 20
126.5042
 30
0.0
 10
21.8812
 20
126.5042
 30
0.0
 10
24.3607
 20
126.0741
 30
0.0
 10
26.3782
 20
125.2224
 30
0.0
 10
26.9894
 20
122.3634
 30
0.0
 10
26.9894
 20
122.3634
 30
0.0
 10
27.7523
 20
118.7938
 30
0.0
 10
24.6735
 20
115.9972
 30
0.0
 10
22.3777
 20
119.4266
 30
0.0
 10
22.3777
 20
119.4266
 30
0.0
 10
18.865
 20
124.6734
 30
0.0
 10
15.0538
 20
117.9021
 30
0.0
 10
19.7148
 20
113.1726
 30
0.0
 10
19.7148
 20
113.1726
 30
0.0
 10
22.6011
 20
111.9261
 30
0.0
 10
25.1155
 20
111.9844
 30
0.0
 10
27.3788
 20
112.9245
 30
0.0
 10
27.3788
 20
112.9245
 30
0.0
 10
31.7253
 20
114.7302
 30
0.0
 10
33.1593
 20
117.5521
 30
0.0
 10
32.3497
 20
122.3788
 30
0.0
 10
32.3497
 20
122.3788
 30
0.0
 10
31.9668
 20
124.6623
 30
0.0
 10
30.9983
 20
126.4607
 30
0.0
 10
29.6576
 20
127.8164
 30
0.0
 10
29.6576
 20
127.8164
 30
0.0
 10
29.6576
 20
127.8164
 30
0.0
 10
35.6585
 20
127.8164
 30
0.0
 10
35.6585
 20
127.8164
 30
0.0
  0
SPLINE
  5
53
330
1F
100
AcDbEntity
  8
layer 1
 62
     7
100
AcDbSpline
210
0.0
220
0.0
230
1.0
 70
    11
 71
     3
 72
    64
 73
    60
 74
     0
 42
0.0000000001
 43
0.0000000001
 12
1.0
 22
0.0
 32
0.0
 13
1.0
 23
0.0
 33
0.0
 40
0.0
 40
0.0
 40
0.0
 40
0.0
 40
0.0625
 40
0.0625
 40
0.0625
 40
0.0625
 40
0.125
 40
0.125
 40
0.125
 40
0.125
 40
0.1875
 40
0.1875
 40
0.1875
 40
0.1875
 40
0.25
 40
0.25
 40
0.25
 40
0.25
 40
0.3125
 40
0.3125
 40
0.3125
 40
0.3125
 40
0.375
 40
0.375
 40
0.375
 40
0.375
 40
0.4375
 40
0.4375
 40
0.4375
 40
0.4375
 40
0.5
 40
0.5
 40
0.5
 40
0.5
 40
0.5625
 40
0.5625
 40
0.5625
 40
0.5625
 40
0.625
 40
0.625
 40
0.625
 40
0.625
 40
0.6875
 40
0.6875
 40
0.6875
 40
0.6875
 40
0.75
 40
0.75
 40
0.75
 40
0.75
 40
0.8125
 40
0.8125
 40
0.8125
 40
0.8125
 40
0.875
 40
0.875
 40
0.875
 40
0.875
 40
1.0
 40
1.0
 40
1.0
 40
1.0
 10
-11.912
 20
104.1726
 30
0.0
 10
-10.7034
 20
103.3395
 30
0.0
 10
-10.9308
 20
100.9517
 30
0.0
 10
-12.4456
 20
99.4916
 30
0.0
 10
-12.4456
 20
99.4916
 30
0.0
 10
-15.705
 20
96.3496
 30
0.0
 10
-19.8977
 20
97.9072
 30
0.0
 10
-23.1669
 20
100.1749
 30
0.0
 10
-23.1669
 20
100.1749
 30
0.0
 10
-23.3667
 20
103.0633
 30
0.0
 10
-23.5666
 20
105.9516
 30
0.0
 10
-23.7667
 20
108.8401
 30
0.0
 10
-23.7667
 20
108.8401
 30
0.0
 10
-20.1411
 20
112.1052
 30
0.0
 10
-16.4138
 20
115.1863
 30
0.0
 10
-13.721
 20
120.1355
 30
0.0
 10
-13.721
 20
120.1355
 30
0.0
 10
-10.1267
 20
119.9388
 30
0.0
 10
-6.6405
 20
119.8454
 30
0.0
 10
-3.4333
 20
120.4667
 30
0.0
 10
-3.4333
 20
120.4667
 30
0.0
 10
1.0981
 20
121.3443
 30
0.0
 10
3.55
 20
123.4692
 30
0.0
 10
5.7763
 20
126.0879
 30
0.0
 10
5.7763
 20
126.0879
 30
0.0
 10
6.2825
 20
126.6835
 30
0.0
 10
6.7552
 20
127.2604
 30
0.0
 10
7.2111
 20
127.8164
 30
0.0
 10
7.2111
 20
127.8164
 30
0.0
 10
7.2111
 20
127.8164
 30
0.0
 10
11.3086
 20
127.8164
 30
0.0
 10
11.3086
 20
127.8164
 30
0.0
 10
11.3086
 20
127.8164
 30
0.0
 10
8.0908
 20
125.1553
 30
0.0
 10
6.3825
 20
121.3029
 30
0.0
 10
5.7707
 20
116.422
 30
0.0
 10
5.7707
 20
116.422
 30
0.0
 10
-4.1675
 20
119.1138
 30
0.0
 10
-9.9649
 20
116.7412
 30
0.0
 10
-11.6217
 20
109.3043
 30
0.0
 10
-11.6217
 20
109.3043
 30
0.0
 10
-13.0761
 20
109.6444
 30
0.0
 10
-14.9469
 20
109.7791
 30
0.0
 10
-16.5687
 20
109.3231
 30
0.0
 10
-16.5687
 20
109.3231
 30
0.0
 10
-19.367
 20
108.5364
 30
0.0
 10
-21.6375
 20
105.1598
 30
0.0
 10
-18.8609
 20
102.9609
 30
0.0
 10
-18.8609
 20
102.9609
 30
0.0
 10
-18.1074
 20
102.3642
 30
0.0
 10
-17.1824
 20
102.0628
 30
0.0
 10
-16.5399
 20
102.7587
 30
0.0
 10
-16.5399
 20
102.7587
 30
0.0
 10
-16.1297
 20
103.203
 30
0.0
 10
-15.826
 20
103.9603
 30
0.0
 10
-15.1576
 20
104.3639
 30
0.0
 10
-15.1576
 20
104.3639
 30
0.0
 10
-14.2982
 20
104.8829
 30
0.0
 10
-13.1484
 20
105.0247
 30
0.0
 10
-11.912
 20
104.1726
 30
0.0
  0
SPLINE
  5
54
330
1F
100
AcDbEntity
  8
layer 1
 62
     7
100
AcDbSpline
210
0.0
220
0.0
230
1.0
 70
    11
 71
     3
 72
    64
 73
    60
 74
     0
 42
0.0000000001
 43
0.0000000001
 12
1.0
 22
0.0
 32
0.0
 13
1.0
 23
0.0
 33
0.0
 40
0.0
 40
0.0
 40
0.0
 40
0.0
 40
0.0625
 40
0.0625
 40
0.0625
 40
0.0625
 40
0.125
 40
0.125
 40
0.125
 40
0.125
 40
0.1875
 40
0.1875
 40
0.1875
 40
0.1875
 40
0.25
 40
0.25
 40
0.25
 40
0.25
 40
0.3125
 40
0.3125
 40
0.3125
 40
0.3125
 40
0.375
 40
0.375
 40
0.375
 40
0.375
 40
0.4375
 40
0.4375
 40
0.4375
 40
0.4375
 40
0.5
 40
0.5
 40
0.5
 40
0.5
 40
0.5625
 40
0.5625
 40
0.5625
 40
0.5625
 40
0.625
 40
0.625
 40
0.625
 40
0.625
 40
0.6875
 40
0.6875
 40
0.6875
 40
0.6875
 40
0.75
 40
0.75
 40
0.75
 40
0.75
 40
0.8125
 40
0.8125
 40
0.8125
 40
0.8125
 40
0.875
 40
0.875
 40
0.875
 40
0.875
 40
1.0
 40
1.0
 40
1.0
 40
1.0
 10
-24.3063
 20
29.3687
 30
0.0
 10
-20.8794
 20
27.1711
 30
0.0
 10
-17.2744
 20
25.3781
 30
0.0
 10
-12.4224
 20
26.4162
 30
0.0
 10
-12.4224
 20
26.4162
 30
0.0
 10
-13.5141
 20
24.7585
 30
0.0
 10
-14.2044
 20
22.9124
 30
0.0
 10
-14.3889
 20
20.8293
 30
0.0
 10
-14.3889
 20
20.8293
 30
0.0
 10
-14.8101
 20
16.0738
 30
0.0
 10
-13.5126
 20
13.6282
 30
0.0
 10
-8.9421
 20
12.1796
 30
0.0
 10
-8.9421
 20
12.1796
 30
0.0
 10
-5.8922
 20
11.213
 30
0.0
 10
-2.6019
 20
11.6021
 30
0.0
 10
-2.2319
 20
15.0734
 30
0.0
 10
-2.2319
 20
15.0734
 30
0.0
 10
-2.0892
 20
16.4117
 30
0.0
 10
-2.5768
 20
17.3772
 30
0.0
 10
-3.3993
 20
18.1265
 30
0.0
 10
-3.3993
 20
18.1265
 30
0.0
 10
-4.072
 20
18.1818
 30
0.0
 10
-4.6283
 20
18.0567
 30
0.0
 10
-5.0679
 20
17.751
 30
0.0
 10
-5.0679
 20
17.751
 30
0.0
 10
-6.1578
 20
16.9931
 30
0.0
 10
-6.7221
 20
14.0977
 30
0.0
 10
-8.9885
 20
17.0578
 30
0.0
 10
-8.9885
 20
17.0578
 30
0.0
 10
-9.5066
 20
17.7346
 30
0.0
 10
-9.5445
 20
18.7214
 30
0.0
 10
-8.9446
 20
20.1195
 30
0.0
 10
-8.9446
 20
20.1195
 30
0.0
 10
-7.5322
 20
23.4109
 30
0.0
 10
-5.2211
 20
23.7998
 30
0.0
 10
-1.9769
 20
22.324
 30
0.0
 10
-1.9769
 20
22.324
 30
0.0
 10
1.5616
 20
20.7141
 30
0.0
 10
3.2372
 20
18.878
 30
0.0
 10
2.706
 20
14.6062
 30
0.0
 10
2.706
 20
14.6062
 30
0.0
 10
2.2515
 20
10.9517
 30
0.0
 10
0.3423
 20
8.824
 30
0.0
 10
-2.8763
 20
7.682
 30
0.0
 10
-2.8763
 20
7.682
 30
0.0
 10
-5.9547
 20
6.5894
 30
0.0
 10
-8.946
 20
6.9393
 30
0.0
 10
-11.8721
 20
8.3603
 30
0.0
 10
-11.8721
 20
8.3603
 30
0.0
 10
-16.64
 20
9.6053
 30
0.0
 10
-18.0245
 20
16.1755
 30
0.0
 10
-21.2049
 20
19.8653
 30
0.0
 10
-21.2049
 20
19.8653
 30
0.0
 10
-22.1522
 20
20.9643
 30
0.0
 10
-23.1899
 20
22.0102
 30
0.0
 10
-24.3063
 20
23.0094
 30
0.0
 10
-24.3063
 20
23.0094
 30
0.0
 10
-24.3063
 20
25.1293
 30
0.0
 10
-24.3063
 20
27.2491
 30
0.0
 10
-24.3063
 20
29.3687
 30
0.0
  0
SPLINE
  5
55
330
1F
100
AcDbEntity
  8
layer 1
 62
     7
100
AcDbSpline
210
0.0
220
0.0
230
1.0
 70
    11
 71
     3
 72
    48
 73
    44
 74
     0
 42
0.0000000001
 43
0.0000000001
 12
1.0
 22
0.0
 32
0.0
 13
1.0
 23
0.0
 33
0.0
 40
0.0
 40
0.0
 40
0.0
 40
0.0
 40
0.0833333333333333
 40
0.0833333333333333
 40
0.0833333333333333
 40
0.0833333333333333
 40
0.1666666666666667
 40
0.1666666666666667
 40
0.1666666666666667
 40
0.1666666666666667
 40
0.25
 40
0.25
 40
0.25
 40
0.25
 40
0.3333333333333333
 40
0.3333333333333333
 40
0.3333333333333333
 40
0.3333333333333333
 40
0.4166666666666667
 40
0.4166666666666667
 40
0.4166666666666667
 40
0.4166666666666667
 40
0.5
 40
0.5
 40
0.5
 40
0.5
 40
0.5833333333333334
 40
0.5833333333333334
 40
0.5833333333333334
 40
0.5833333333333334
 40
0.6666666666666666
 40
0.6666666666666666
 40
0.6666666666666666
 40
0.6666666666666666
 40
0.75
 40
0.75
 40
0.75
 40
0.75
 40
0.8333333333333334
 40
0.8333333333333334
 40
0.8333333333333334
 40
0.8333333333333334
 40
1.0
 40
1.0
 40
1.0
 40
1.0
 10
51.4757
 20
1.9961
 30
0.0
 10
51.4755
 20
3.2513
 30
0.0
 10
51.4755
 20
4.5064
 30
0.0
 10
51.4757
 20
5.7615
 30
0.0
 10
51.4757
 20
5.7615
 30
0.0
 10
43.205
 20
6.6672
 30
0.0
 10
43.4468
 20
16.108
 30
0.0
 10
48.8695
 20
20.7149
 30
0.0
 10
48.8695
 20
20.7149
 30
0.0
 10
44.2708
 20
21.1619
 30
0.0
 10
40.7136
 20
22.8183
 30
0.0
 10
37.6237
 20
25.017
 30
0.0
 10
37.6237
 20
25.017
 30
0.0
 10
35.6362
 20
26.4312
 30
0.0
 10
34.3217
 20
27.8622
 30
0.0
 10
31.9392
 20
28.6364
 30
0.0
 10
31.9392
 20
28.6364
 30
0.0
 10
29.2847
 20
29.4991
 30
0.0
 10
25.9875
 20
29.6431
 30
0.0
 10
24.8114
 20
27.4177
 30
0.0
 10
24.8114
 20
27.4177
 30
0.0
 10
24.3318
 20
26.5103
 30
0.0
 10
24.3553
 20
25.4148
 30
0.0
 10
26.0401
 20
24.265
 30
0.0
 10
26.0401
 20
24.265
 30
0.0
 10
26.4851
 20
24.9198
 30
0.0
 10
26.8651
 20
25.528
 30
0.0
 10
27.2522
 20
25.9851
 30
0.0
 10
27.2522
 20
25.9851
 30
0.0
 10
28.6592
 20
27.6453
 30
0.0
 10
31.1458
 20
26.3353
 30
0.0
 10
31.6833
 20
24.517
 30
0.0
 10
31.6833
 20
24.517
 30
0.0
 10
32.0979
 20
23.1147
 30
0.0
 10
31.9478
 20
21.0811
 30
0.0
 10
31.4609
 20
18.671
 30
0.0
 10
31.4609
 20
18.671
 30
0.0
 10
35.9063
 20
16.9019
 30
0.0
 10
39.6725
 20
14.1984
 30
0.0
 10
41.5605
 20
8.9107
 30
0.0
 10
41.5605
 20
8.9107
 30
0.0
 10
44.57
 20
6.0974
 30
0.0
 10
47.6062
 20
3.3304
 30
0.0
 10
51.4757
 20
1.9961
 30
0.0
  0
SPLINE
  5
56
330
1F
100
AcDbEntity
  8
layer 1
 62
     7
100
AcDbSpline
210
0.0
220
0.0
230
1.0
 70
    11
 71
     3
 72
    48
 73
    44
 74
     0
 42
0.0000000001
 43
0.0000000001
 12
1.0
 22
0.0
 32
0.0
 13
1.0
 23
0.0
 33
0.0
 40
0.0
 40
0.0
 40
0.0
 40
0.0
 40
0.0833333333333333
 40
0.0833333333333333
 40
0.0833333333333333
 40
0.0833333333333333
 40
0.1666666666666667
 40
0.1666666666666667
 40
0.1666666666666667
 40
0.1666666666666667
 40
0.25
 40
0.25
 40
0.25
 40
0.25
 40
0.3333333333333333
 40
0.3333333333333333
 40
0.3333333333333333
 40
0.3333333333333333
 40
0.4166666666666667
 40
0.4166666666666667
 40
0.4166666666666667
 40
0.4166666666666667
 40
0.5
 40
0.5
 40
0.5
 40
0.5
 40
0.5833333333333334
 40
0.5833333333333334
 40
0.5833333333333334
 40
0.5833333333333334
 40
0.6666666666666666
 40
0.6666666666666666
 40
0.6666666666666666
 40
0.6666666666666666
 40
0.75
 40
0.75
 40
0.75
 40
0.75
 40
0.8333333333333334
 40
0.8333333333333334
 40
0.8333333333333334
 40
0.8333333333333334
 40
1.0
 40
1.0
 40
1.0
 40
1.0
 10
49.8911
 20
-110.7648
 30
0.0
 10
43.2642
 20
-108.8873
 30
0.0
 10
43.8195
 20
-100.4062
 30
0.0
 10
48.8695
 20
-96.116
 30
0.0
 10
48.8695
 20
-96.116
 30
0.0
 10
44.2708
 20
-95.669
 30
0.0
 10
40.7136
 20
-94.0128
 30
0.0
 10
37.6237
 20
-91.814
 30
0.0
 10
37.6237
 20
-91.814
 30
0.0
 10
35.6362
 20
-90.3997
 30
0.0
 10
34.3217
 20
-88.9687
 30
0.0
 10
31.9392
 20
-88.1945
 30
0.0
 10
31.9392
 20
-88.1945
 30
0.0
 10
29.2847
 20
-87.3319
 30
0.0
 10
25.9875
 20
-87.188
 30
0.0
 10
24.8114
 20
-89.4132
 30
0.0
 10
24.8114
 20
-89.4132
 30
0.0
 10
24.3318
 20
-90.3206
 30
0.0
 10
24.3553
 20
-91.4161
 30
0.0
 10
26.0401
 20
-92.5659
 30
0.0
 10
26.0401
 20
-92.5659
 30
0.0
 10
26.4851
 20
-91.9111
 30
0.0
 10
26.8651
 20
-91.3029
 30
0.0
 10
27.2522
 20
-90.8459
 30
0.0
 10
27.2522
 20
-90.8459
 30
0.0
 10
28.6592
 20
-89.1857
 30
0.0
 10
31.1458
 20
-90.4958
 30
0.0
 10
31.6833
 20
-92.3139
 30
0.0
 10
31.6833
 20
-92.3139
 30
0.0
 10
32.0979
 20
-93.7163
 30
0.0
 10
31.9478
 20
-95.7498
 30
0.0
 10
31.4609
 20
-98.16
 30
0.0
 10
31.4609
 20
-98.16
 30
0.0
 10
35.9063
 20
-99.9291
 30
0.0
 10
39.6725
 20
-102.6325
 30
0.0
 10
41.5605
 20
-107.9202
 30
0.0
 10
41.5605
 20
-107.9202
 30
0.0
 10
42.6011
 20
-108.893
 30
0.0
 10
43.6452
 20
-109.8604
 30
0.0
 10
44.7255
 20
-110.7648
 30
0.0
 10
44.7255
 20
-110.7648
 30
0.0
 10
44.7255
 20
-110.7648
 30
0.0
 10
49.8911
 20
-110.7648
 30
0.0
 10
49.8911
 20
-110.7648
 30
0.0
  0
SPLINE
  5
57
330
1F
100
AcDbEntity
  8
layer 1
 62
     7
100
AcDbSpline
210
0.0
220
0.0
230
1.0
 70
    11
 71
     3
 72
    64
 73
    60
 74
     0
 42
0.0000000001
 43
0.0000000001
 12
1.0
 22
0.0
 32
0.0
 13
1.0
 23
0.0
 33
0.0
 40
0.0
 40
0.0
 40
0.0
 40
0.0
 40
0.0625
 40
0.0625
 40
0.0625
 40
0.0625
 40
0.125
 40
0.125
 40
0.125
 40
0.125
 40
0.1875
 40
0.1875
 40
0.1875
 40
0.1875
 40
0.25
 40
0.25
 40
0.25
 40
0.25
 40
0.3125
 40
0.3125
 40
0.3125
 40
0.3125
 40
0.375
 40
0.375
 40
0.375
 40
0.375
 40
0.4375
 40
0.4375
 40
0.4375
 40
0.4375
 40
0.5
 40
0.5
 40
0.5
 40
0.5
 40
0.5625
 40
0.5625
 40
0.5625
 40
0.5625
 40
0.625
 40
0.625
 40
0.625
 40
0.625
 40
0.6875
 40
0.6875
 40
0.6875
 40
0.6875
 40
0.75
 40
0.75
 40
0.75
 40
0.75
 40
0.8125
 40
0.8125
 40
0.8125
 40
0.8125
 40
0.875
 40
0.875
 40
0.875
 40
0.875
 40
1.0
 40
1.0
 40
1.0
 40
1.0
 10
-24.3063
 20
-87.4623
 30
0.0
 10
-20.8794
 20
-89.6598
 30
0.0
 10
-17.2744
 20
-91.4529
 30
0.0
 10
-12.4224
 20
-90.4148
 30
0.0
 10
-12.4224
 20
-90.4148
 30
0.0
 10
-13.5141
 20
-92.0725
 30
0.0
 10
-14.2044
 20
-93.9185
 30
0.0
 10
-14.3889
 20
-96.0017
 30
0.0
 10
-14.3889
 20
-96.0017
 30
0.0
 10
-14.8101
 20
-100.7572
 30
0.0
 10
-13.5126
 20
-103.2028
 30
0.0
 10
-8.9421
 20
-104.6513
 30
0.0
 10
-8.9421
 20
-104.6513
 30
0.0
 10
-5.8922
 20
-105.6179
 30
0.0
 10
-2.6019
 20
-105.229
 30
0.0
 10
-2.2319
 20
-101.7576
 30
0.0
 10
-2.2319
 20
-101.7576
 30
0.0
 10
-2.0892
 20
-100.4192
 30
0.0
 10
-2.5768
 20
-99.4538
 30
0.0
 10
-3.3993
 20
-98.7046
 30
0.0
 10
-3.3993
 20
-98.7046
 30
0.0
 10
-4.072
 20
-98.6492
 30
0.0
 10
-4.6283
 20
-98.7743
 30
0.0
 10
-5.0679
 20
-99.0801
 30
0.0
 10
-5.0679
 20
-99.0801
 30
0.0
 10
-6.1578
 20
-99.8379
 30
0.0
 10
-6.7221
 20
-102.7333
 30
0.0
 10
-8.9885
 20
-99.7732
 30
0.0
 10
-8.9885
 20
-99.7732
 30
0.0
 10
-9.5066
 20
-99.0963
 30
0.0
 10
-9.5445
 20
-98.1095
 30
0.0
 10
-8.9446
 20
-96.7115
 30
0.0
 10
-8.9446
 20
-96.7115
 30
0.0
 10
-7.5322
 20
-93.42
 30
0.0
 10
-5.2211
 20
-93.0311
 30
0.0
 10
-1.9769
 20
-94.507
 30
0.0
 10
-1.9769
 20
-94.507
 30
0.0
 10
1.5616
 20
-96.1169
 30
0.0
 10
3.2372
 20
-97.9531
 30
0.0
 10
2.706
 20
-102.2247
 30
0.0
 10
2.706
 20
-102.2247
 30
0.0
 10
2.2515
 20
-105.8792
 30
0.0
 10
0.3423
 20
-108.0071
 30
0.0
 10
-2.8763
 20
-109.1491
 30
0.0
 10
-2.8763
 20
-109.1491
 30
0.0
 10
-5.9547
 20
-110.2415
 30
0.0
 10
-8.946
 20
-109.8917
 30
0.0
 10
-11.8721
 20
-108.4706
 30
0.0
 10
-11.8721
 20
-108.4706
 30
0.0
 10
-16.64
 20
-107.2256
 30
0.0
 10
-18.0245
 20
-100.6554
 30
0.0
 10
-21.2049
 20
-96.9656
 30
0.0
 10
-21.2049
 20
-96.9656
 30
0.0
 10
-22.1522
 20
-95.8666
 30
0.0
 10
-23.1899
 20
-94.8207
 30
0.0
 10
-24.3063
 20
-93.8215
 30
0.0
 10
-24.3063
 20
-93.8215
 30
0.0
 10
-24.3063
 20
-91.7018
 30
0.0
 10
-24.3063
 20
-89.582
 30
0.0
 10
-24.3063
 20
-87.4623
 30
0.0
  0
SPLINE
  5
58
330
1F
100
AcDbEntity
  8
layer 1
 62
     7
100
AcDbSpline
210
0.0
220
0.0
230
1.0
 70
    11
 71
     3
 72
   104
 73
   100
 74
     0
 42
0.0000000001
 43
0.0000000001
 12
1.0
 22
0.0
 32
0.0
 13
1.0
 23
0.0
 33
0.0
 40
0.0
 40
0.0
 40
0.0
 40
0.0
 40
0.0384615384615385
 40
0.0384615384615385
 40
0.0384615384615385
 40
0.0384615384615385
 40
0.0769230769230769
 40
0.0769230769230769
 40
0.0769230769230769
 40
0.0769230769230769
 40
0.1153846153846154
 40
0.1153846153846154
 40
0.1153846153846154
 40
0.1153846153846154
 40
0.1538461538461539
 40
0.1538461538461539
 40
0.1538461538461539
 40
0.1538461538461539
 40
0.1923076923076923
 40
0.1923076923076923
 40
0.1923076923076923
 40
0.1923076923076923
 40
0.2307692307692308
 40
0.2307692307692308
 40
0.2307692307692308
 40
0.2307692307692308
 40
0.2692307692307692
 40
0.2692307692307692
 40
0.2692307692307692
 40
0.2692307692307692
 40
0.3076923076923077
 40
0.3076923076923077
 40
0.3076923076923077
 40
0.3076923076923077
 40
0.3461538461538461
 40
0.3461538461538461
 40
0.3461538461538461
 40
0.3461538461538461
 40
0.3846153846153846
 40
0.3846153846153846
 40
0.3846153846153846
 40
0.3846153846153846
 40
0.4230769230769231
 40
0.4230769230769231
 40
0.4230769230769231
 40
0.4230769230769231
 40
0.4615384615384616
 40
0.4615384615384616
 40
0.4615384615384616
 40
0.4615384615384616
 40
0.5
 40
0.5
 40
0.5
 40
0.5
 40
0.5384615384615384
 40
0.5384615384615384
 40
0.5384615384615384
 40
0.5384615384615384
 40
0.5769230769230769
 40
0.5769230769230769
 40
0.5769230769230769
 40
0.5769230769230769
 40
0.6153846153846154
 40
0.6153846153846154
 40
0.6153846153846154
 40
0.6153846153846154
 40
0.6538461538461539
 40
0.6538461538461539
 40
0.6538461538461539
 40
0.6538461538461539
 40
0.6923076923076923
 40
0.6923076923076923
 40
0.6923076923076923
 40
0.6923076923076923
 40
0.7307692307692307
 40
0.7307692307692307
 40
0.7307692307692307
 40
0.7307692307692307
 40
0.7692307692307693
 40
0.7692307692307693
 40
0.7692307692307693
 40
0.7692307692307693
 40
0.8076923076923077
 40
0.8076923076923077
 40
0.8076923076923077
 40
0.8076923076923077
 40
0.8461538461538461
 40
0.8461538461538461
 40
0.8461538461538461
 40
0.8461538461538461
 40
0.8846153846153846
 40
0.8846153846153846
 40
0.8846153846153846
 40
0.8846153846153846
 40
0.9230769230769231
 40
0.9230769230769231
 40
0.9230769230769231
 40
0.9230769230769231
 40
1.0
 40
1.0
 40
1.0
 40
1.0
 10
-11.912
 20
-12.6583
 30
0.0
 10
-10.7034
 20
-13.4914
 30
0.0
 10
-10.9308
 20
-15.8792
 30
0.0
 10
-12.4456
 20
-17.3393
 30
0.0
 10
-12.4456
 20
-17.3393
 30
0.0
 10
-15.705
 20
-20.4813
 30
0.0
 10
-19.8977
 20
-18.9237
 30
0.0
 10
-23.1669
 20
-16.656
 30
0.0
 10
-23.1669
 20
-16.656
 30
0.0
 10
-23.3667
 20
-13.7678
 30
0.0
 10
-23.5666
 20
-10.8793
 30
0.0
 10
-23.7667
 20
-7.9909
 30
0.0
 10
-23.7667
 20
-7.9909
 30
0.0
 10
-20.418
 20
-4.2258
 30
0.0
 10
-17.0695
 20
-0.4606
 30
0.0
 10
-13.721
 20
3.3046
 30
0.0
 10
-13.721
 20
3.3046
 30
0.0
 10
-10.1267
 20
3.1077
 30
0.0
 10
-6.6405
 20
3.0145
 30
0.0
 10
-3.4333
 20
3.6358
 30
0.0
 10
-3.4333
 20
3.6358
 30
0.0
 10
1.0981
 20
4.5132
 30
0.0
 10
3.55
 20
6.6382
 30
0.0
 10
5.7763
 20
9.2569
 30
0.0
 10
5.7763
 20
9.2569
 30
0.0
 10
9.1723
 20
13.2515
 30
0.0
 10
11.0595
 20
16.4186
 30
0.0
 10
16.4725
 20
17.9249
 30
0.0
 10
16.4725
 20
17.9249
 30
0.0
 10
21.2143
 20
19.2445
 30
0.0
 10
26.6778
 20
18.6906
 30
0.0
 10
30.5259
 20
16.3268
 30
0.0
 10
30.5259
 20
16.3268
 30
0.0
 10
33.4731
 20
14.5163
 30
0.0
 10
35.8288
 20
11.6805
 30
0.0
 10
36.9384
 20
7.9233
 30
0.0
 10
36.9384
 20
7.9233
 30
0.0
 10
39.0016
 20
0.9363
 30
0.0
 10
35.0692
 20
-6.7705
 30
0.0
 10
28.1342
 20
-8.6616
 30
0.0
 10
28.1342
 20
-8.6616
 30
0.0
 10
18.954
 20
-11.1646
 30
0.0
 10
4.9252
 20
-2.3458
 30
0.0
 10
13.5993
 20
7.4609
 30
0.0
 10
13.5993
 20
7.4609
 30
0.0
 10
15.402
 20
9.499
 30
0.0
 10
18.0937
 20
10.3301
 30
0.0
 10
21.8812
 20
9.6733
 30
0.0
 10
21.8812
 20
9.6733
 30
0.0
 10
24.3607
 20
9.2432
 30
0.0
 10
26.3782
 20
8.3914
 30
0.0
 10
26.9894
 20
5.5324
 30
0.0
 10
26.9894
 20
5.5324
 30
0.0
 10
27.7523
 20
1.9628
 30
0.0
 10
24.6735
 20
-0.8338
 30
0.0
 10
22.3777
 20
2.5957
 30
0.0
 10
22.3777
 20
2.5957
 30
0.0
 10
18.865
 20
7.8425
 30
0.0
 10
15.0538
 20
1.0712
 30
0.0
 10
19.7148
 20
-3.6583
 30
0.0
 10
19.7148
 20
-3.6583
 30
0.0
 10
22.6011
 20
-4.9048
 30
0.0
 10
25.1155
 20
-4.8467
 30
0.0
 10
27.3788
 20
-3.9066
 30
0.0
 10
27.3788
 20
-3.9066
 30
0.0
 10
31.7253
 20
-2.1009
 30
0.0
 10
33.1593
 20
0.7212
 30
0.0
 10
32.3497
 20
5.5477
 30
0.0
 10
32.3497
 20
5.5477
 30
0.0
 10
30.6697
 20
15.5655
 30
0.0
 10
17.7501
 20
16.273
 30
0.0
 10
11.3478
 20
11.0181
 30
0.0
 10
11.3478
 20
11.0181
 30
0.0
 10
8.1046
 20
8.356
 30
0.0
 10
6.385
 20
4.4918
 30
0.0
 10
5.7707
 20
-0.409
 30
0.0
 10
5.7707
 20
-0.409
 30
0.0
 10
-4.1675
 20
2.2829
 30
0.0
 10
-9.9649
 20
-0.0897
 30
0.0
 10
-11.6217
 20
-7.5267
 30
0.0
 10
-11.6217
 20
-7.5267
 30
0.0
 10
-13.0761
 20
-7.1866
 30
0.0
 10
-14.9469
 20
-7.0519
 30
0.0
 10
-16.5687
 20
-7.508
 30
0.0
 10
-16.5687
 20
-7.508
 30
0.0
 10
-19.367
 20
-8.2945
 30
0.0
 10
-21.6375
 20
-11.6712
 30
0.0
 10
-18.8609
 20
-13.8702
 30
0.0
 10
-18.8609
 20
-13.8702
 30
0.0
 10
-18.1074
 20
-14.4668
 30
0.0
 10
-17.1824
 20
-14.7681
 30
0.0
 10
-16.5399
 20
-14.0723
 30
0.0
 10
-16.5399
 20
-14.0723
 30
0.0
 10
-16.1297
 20
-13.6281
 30
0.0
 10
-15.826
 20
-12.8706
 30
0.0
 10
-15.1576
 20
-12.467
 30
0.0
 10
-15.1576
 20
-12.467
 30
0.0
 10
-14.2982
 20
-11.948
 30
0.0
 10
-13.1484
 20
-11.8062
 30
0.0
 10
-11.912
 20
-12.6583
 30
0.0
  0
SPLINE
  5
59
330
1F
100
AcDbEntity
  8
layer 1
 62
     7
100
AcDbSpline
210
0.0
220
0.0
230
1.0
 70
    11
 71
     3
 72
    44
 73
    40
 74
     0
 42
0.0000000001
 43
0.0000000001
 12
1.0
 22
0.0
 32
0.0
 13
1.0
 23
0.0
 33
0.0
 40
0.0
 40
0.0
 40
0.0
 40
0.0
 40
0.0909090909090909
 40
0.0909090909090909
 40
0.0909090909090909
 40
0.0909090909090909
 40
0.1818181818181818
 40
0.1818181818181818
 40
0.1818181818181818
 40
0.1818181818181818
 40
0.2727272727272727
 40
0.2727272727272727
 40
0.2727272727272727
 40
0.2727272727272727
 40
0.3636363636363636
 40
0.3636363636363636
 40
0.3636363636363636
 40
0.3636363636363636
 40
0.4545454545454545
 40
0.4545454545454545
 40
0.4545454545454545
 40
0.4545454545454545
 40
0.5454545454545454
 40
0.5454545454545454
 40
0.5454545454545454
 40
0.5454545454545454
 40
0.6363636363636364
 40
0.6363636363636364
 40
0.6363636363636364
 40
0.6363636363636364
 40
0.7272727272727273
 40
0.7272727272727273
 40
0.7272727272727273
 40
0.7272727272727273
 40
0.8181818181818182
 40
0.8181818181818182
 40
0.8181818181818182
 40
0.8181818181818182
 40
1.0
 40
1.0
 40
1.0
 40
1.0
 10
7.7198
 20
-22.3811
 30
0.0
 10
8.2787
 20
-17.9795
 30
0.0
 10
10.6776
 20
-14.369
 30
0.0
 10
14.9168
 20
-11.5499
 30
0.0
 10
14.9168
 20
-11.5499
 30
0.0
 10
12.9676
 20
-10.6215
 30
0.0
 10
11.0185
 20
-9.6931
 30
0.0
 10
9.0694
 20
-8.7645
 30
0.0
 10
9.0694
 20
-8.7645
 30
0.0
 10
8.0741
 20
-12.1044
 30
0.0
 10
6.3386
 20
-13.6981
 30
0.0
 10
4.2882
 20
-14.5489
 30
0.0
 10
4.2882
 20
-14.5489
 30
0.0
 10
1.0248
 20
-15.9026
 30
0.0
 10
-4.9002
 20
-15.6528
 30
0.0
 10
-5.091
 20
-10.939
 30
0.0
 10
-5.091
 20
-10.939
 30
0.0
 10
-5.2049
 20
-8.1219
 30
0.0
 10
-3.9793
 20
-7.4001
 30
0.0
 10
-1.5726
 20
-8.2689
 30
0.0
 10
-1.5726
 20
-8.2689
 30
0.0
 10
-0.6055
 20
-8.6181
 30
0.0
 10
0.084
 20
-9.3012
 30
0.0
 10
0.3731
 20
-10.4666
 30
0.0
 10
0.3731
 20
-10.4666
 30
0.0
 10
6.5553
 20
-8.1736
 30
0.0
 10
1.9082
 20
-4.1391
 30
0.0
 10
-1.4263
 20
-3.6181
 30
0.0
 10
-1.4263
 20
-3.6181
 30
0.0
 10
-4.674
 20
-3.1107
 30
0.0
 10
-7.9552
 20
-4.6845
 30
0.0
 10
-9.2228
 20
-7.2172
 30
0.0
 10
-9.2228
 20
-7.2172
 30
0.0
 10
-7.7435
 20
-11.034
 30
0.0
 10
-7.6065
 20
-14.8509
 30
0.0
 10
-10.4223
 20
-18.6676
 30
0.0
 10
-10.4223
 20
-18.6676
 30
0.0
 10
-4.7213
 20
-18.4754
 30
0.0
 10
1.0953
 20
-18.7601
 30
0.0
 10
7.7198
 20
-22.3811
 30
0.0
  0
SPLINE
  5
5A
330
1F
100
AcDbEntity
  8
layer 1
 62
     7
100
AcDbSpline
210
0.0
220
0.0
230
1.0
 70
    11
 71
     3
 72
    64
 73
    60
 74
     0
 42
0.0000000001
 43
0.0000000001
 12
1.0
 22
0.0
 32
0.0
 13
1.0
 23
0.0
 33
0.0
 40
0.0
 40
0.0
 40
0.0
 40
0.0
 40
0.0625
 40
0.0625
 40
0.0625
 40
0.0625
 40
0.125
 40
0.125
 40
0.125
 40
0.125
 40
0.1875
 40
0.1875
 40
0.1875
 40
0.1875
 40
0.25
 40
0.25
 40
0.25
 40
0.25
 40
0.3125
 40
0.3125
 40
0.3125
 40
0.3125
 40
0.375
 40
0.375
 40
0.375
 40
0.375
 40
0.4375
 40
0.4375
 40
0.4375
 40
0.4375
 40
0.5
 40
0.5
 40
0.5
 40
0.5
 40
0.5625
 40
0.5625
 40
0.5625
 40
0.5625
 40
0.625
 40
0.625
 40
0.625
 40
0.625
 40
0.6875
 40
0.6875
 40
0.6875
 40
0.6875
 40
0.75
 40
0.75
 40
0.75
 40
0.75
 40
0.8125
 40
0.8125
 40
0.8125
 40
0.8125
 40
0.875
 40
0.875
 40
0.875
 40
0.875
 40
1.0
 40
1.0
 40
1.0
 40
1.0
 10
2.7321
 20
-47.8493
 30
0.0
 10
4.2909
 20
-48.9096
 30
0.0
 10
5.8496
 20
-49.9698
 30
0.0
 10
7.4082
 20
-51.03
 30
0.0
 10
7.4082
 20
-51.03
 30
0.0
 10
10.2202
 20
-47.3399
 30
0.0
 10
11.5974
 20
-43.6496
 30
0.0
 10
11.7802
 20
-39.9596
 30
0.0
 10
11.7802
 20
-39.9596
 30
0.0
 10
12.1591
 20
-32.3087
 30
0.0
 10
8.8001
 20
-27.2404
 30
0.0
 10
1.7445
 20
-24.9929
 30
0.0
 10
1.7445
 20
-24.9929
 30
0.0
 10
-2.6509
 20
-23.5928
 30
0.0
 10
-6.5656
 20
-23.6729
 30
0.0
 10
-10.7672
 20
-25.4745
 30
0.0
 10
-10.7672
 20
-25.4745
 30
0.0
 10
-16.5575
 20
-27.9573
 30
0.0
 10
-18.6125
 20
-31.9136
 30
0.0
 10
-17.8271
 20
-36.1829
 30
0.0
 10
-17.8271
 20
-36.1829
 30
0.0
 10
-17.0352
 20
-40.4875
 30
0.0
 10
-14.6444
 20
-42.6762
 30
0.0
 10
-10.8635
 20
-44.3834
 30
0.0
 10
-10.8635
 20
-44.3834
 30
0.0
 10
-8.7247
 20
-45.3491
 30
0.0
 10
-6.4269
 20
-45.6315
 30
0.0
 10
-3.783
 20
-44.4253
 30
0.0
 10
-3.783
 20
-44.4253
 30
0.0
 10
-1.1253
 20
-43.2128
 30
0.0
 10
0.0724
 20
-41.7891
 30
0.0
 10
0.6443
 20
-38.7728
 30
0.0
 10
0.6443
 20
-38.7728
 30
0.0
 10
0.9109
 20
-37.3673
 30
0.0
 10
0.6794
 20
-36.2556
 30
0.0
 10
-0.0501
 20
-35.4377
 30
0.0
 10
-0.0501
 20
-35.4377
 30
0.0
 10
-1.3705
 20
-33.9571
 30
0.0
 10
-4.0394
 20
-33.3541
 30
0.0
 10
-5.1202
 20
-35.4467
 30
0.0
 10
-5.1202
 20
-35.4467
 30
0.0
 10
-5.9579
 20
-37.0693
 30
0.0
 10
-4.8259
 20
-40.1461
 30
0.0
 10
-8.0452
 20
-39.9748
 30
0.0
 10
-8.0452
 20
-39.9748
 30
0.0
 10
-9.1611
 20
-39.9154
 30
0.0
 10
-10.3698
 20
-39.2276
 30
0.0
 10
-11.2103
 20
-38.2736
 30
0.0
 10
-11.2103
 20
-38.2736
 30
0.0
 10
-13.7541
 20
-35.3858
 30
0.0
 10
-12.639
 20
-32.3242
 30
0.0
 10
-9.7355
 20
-30.3299
 30
0.0
 10
-9.7355
 20
-30.3299
 30
0.0
 10
-5.6962
 20
-27.5553
 30
0.0
 10
0.2003
 20
-27.835
 30
0.0
 10
3.7064
 20
-31.1445
 30
0.0
 10
3.7064
 20
-31.1445
 30
0.0
 10
9.5988
 20
-36.7069
 30
0.0
 10
6.3851
 20
-43.4847
 30
0.0
 10
2.7321
 20
-47.8493
 30
0.0
  0
SPLINE
  5
5B
330
1F
100
AcDbEntity
  8
layer 1
 62
     7
100
AcDbSpline
210
0.0
220
0.0
230
1.0
 70
    11
 71
     3
 72
    60
 73
    56
 74
     0
 42
0.0000000001
 43
0.0000000001
 12
1.0
 22
0.0
 32
0.0
 13
1.0
 23
0.0
 33
0.0
 40
0.0
 40
0.0
 40
0.0
 40
0.0
 40
0.0666666666666667
 40
0.0666666666666667
 40
0.0666666666666667
 40
0.0666666666666667
 40
0.1333333333333333
 40
0.1333333333333333
 40
0.1333333333333333
 40
0.1333333333333333
 40
0.2
 40
0.2
 40
0.2
 40
0.2
 40
0.2666666666666667
 40
0.2666666666666667
 40
0.2666666666666667
 40
0.2666666666666667
 40
0.3333333333333333
 40
0.3333333333333333
 40
0.3333333333333333
 40
0.3333333333333333
 40
0.4
 40
0.4
 40
0.4
 40
0.4
 40
0.4666666666666667
 40
0.4666666666666667
 40
0.4666666666666667
 40
0.4666666666666667
 40
0.5333333333333333
 40
0.5333333333333333
 40
0.5333333333333333
 40
0.5333333333333333
 40
0.6
 40
0.6
 40
0.6
 40
0.6
 40
0.6666666666666666
 40
0.6666666666666666
 40
0.6666666666666666
 40
0.6666666666666666
 40
0.7333333333333333
 40
0.7333333333333333
 40
0.7333333333333333
 40
0.7333333333333333
 40
0.8
 40
0.8
 40
0.8
 40
0.8
 40
0.8666666666666667
 40
0.8666666666666667
 40
0.8666666666666667
 40
0.8666666666666667
 40
1.0
 40
1.0
 40
1.0
 40
1.0
 10
18.0218
 20
-41.3488
 30
0.0
 10
18.0018
 20
-39.3726
 30
0.0
 10
18.2792
 20
-37.3961
 30
0.0
 10
19.2106
 20
-35.4195
 30
0.0
 10
19.2106
 20
-35.4195
 30
0.0
 10
20.1894
 20
-35.6663
 30
0.0
 10
21.1521
 20
-35.9056
 30
0.0
 10
22.058
 20
-36.2471
 30
0.0
 10
22.058
 20
-36.2471
 30
0.0
 10
25.6199
 20
-37.5904
 30
0.0
 10
28.6299
 20
-39.5688
 30
0.0
 10
30.9295
 20
-42.6847
 30
0.0
 10
30.9295
 20
-42.6847
 30
0.0
 10
33.7443
 20
-46.4982
 30
0.0
 10
35.4596
 20
-51.1751
 30
0.0
 10
34.1375
 20
-55.3633
 30
0.0
 10
34.1375
 20
-55.3633
 30
0.0
 10
32.6936
 20
-59.9376
 30
0.0
 10
27.6035
 20
-63.563
 30
0.0
 10
22.9746
 20
-63.3765
 30
0.0
 10
22.9746
 20
-63.3765
 30
0.0
 10
17.5229
 20
-63.1567
 30
0.0
 10
11.9821
 20
-60.2522
 30
0.0
 10
11.8784
 20
-54.0051
 30
0.0
 10
11.8784
 20
-54.0051
 30
0.0
 10
11.8564
 20
-52.6723
 30
0.0
 10
12.2329
 20
-51.4736
 30
0.0
 10
12.9529
 20
-50.3462
 30
0.0
 10
12.9529
 20
-50.3462
 30
0.0
 10
13.2801
 20
-49.8336
 30
0.0
 10
13.6784
 20
-49.3359
 30
0.0
 10
14.1423
 20
-48.847
 30
0.0
 10
14.1423
 20
-48.847
 30
0.0
 10
16.2319
 20
-46.645
 30
0.0
 10
18.8413
 20
-46.8034
 30
0.0
 10
21.2363
 20
-48.2734
 30
0.0
 10
21.2363
 20
-48.2734
 30
0.0
 10
23.2329
 20
-49.4992
 30
0.0
 10
23.9977
 20
-51.3454
 30
0.0
 10
19.4869
 20
-51.7331
 30
0.0
 10
19.4869
 20
-51.7331
 30
0.0
 10
17.4992
 20
-51.9041
 30
0.0
 10
15.4485
 20
-52.6283
 30
0.0
 10
16.1384
 20
-55.2417
 30
0.0
 10
16.1384
 20
-55.2417
 30
0.0
 10
17.1931
 20
-59.2358
 30
0.0
 10
19.6651
 20
-59.6697
 30
0.0
 10
23.1924
 20
-58.7001
 30
0.0
 10
23.1924
 20
-58.7001
 30
0.0
 10
26.0032
 20
-57.9272
 30
0.0
 10
27.6146
 20
-55.9942
 30
0.0
 10
28.0268
 20
-52.9008
 30
0.0
 10
28.0268
 20
-52.9008
 30
0.0
 10
28.796
 20
-43.7097
 30
0.0
 10
24.5491
 20
-41.046
 30
0.0
 10
18.0218
 20
-41.3488
 30
0.0
  0
SPLINE
  5
5C
330
1F
100
AcDbEntity
  8
layer 1
 62
     7
100
AcDbSpline
210
0.0
220
0.0
230
1.0
 70
    11
 71
     3
 72
    52
 73
    48
 74
     0
 42
0.0000000001
 43
0.0000000001
 12
1.0
 22
0.0
 32
0.0
 13
1.0
 23
0.0
 33
0.0
 40
0.0
 40
0.0
 40
0.0
 40
0.0
 40
0.0769230769230769
 40
0.0769230769230769
 40
0.0769230769230769
 40
0.0769230769230769
 40
0.1538461538461539
 40
0.1538461538461539
 40
0.1538461538461539
 40
0.1538461538461539
 40
0.2307692307692308
 40
0.2307692307692308
 40
0.2307692307692308
 40
0.2307692307692308
 40
0.3076923076923077
 40
0.3076923076923077
 40
0.3076923076923077
 40
0.3076923076923077
 40
0.3846153846153846
 40
0.3846153846153846
 40
0.3846153846153846
 40
0.3846153846153846
 40
0.4615384615384616
 40
0.4615384615384616
 40
0.4615384615384616
 40
0.4615384615384616
 40
0.5384615384615384
 40
0.5384615384615384
 40
0.5384615384615384
 40
0.5384615384615384
 40
0.6153846153846154
 40
0.6153846153846154
 40
0.6153846153846154
 40
0.6153846153846154
 40
0.6923076923076923
 40
0.6923076923076923
 40
0.6923076923076923
 40
0.6923076923076923
 40
0.7692307692307693
 40
0.7692307692307693
 40
0.7692307692307693
 40
0.7692307692307693
 40
0.8461538461538461
 40
0.8461538461538461
 40
0.8461538461538461
 40
0.8461538461538461
 40
1.0
 40
1.0
 40
1.0
 40
1.0
 10
42.0519
 20
-55.3986
 30
0.0
 10
41.3702
 20
-53.1396
 30
0.0
 10
40.6884
 20
-50.8807
 30
0.0
 10
40.0066
 20
-48.6218
 30
0.0
 10
40.0066
 20
-48.6218
 30
0.0
 10
45.6645
 20
-47.6861
 30
0.0
 10
48.7052
 20
-44.4994
 30
0.0
 10
50.5562
 20
-40.2897
 30
0.0
 10
50.5562
 20
-40.2897
 30
0.0
 10
51.8541
 20
-33.8745
 30
0.0
 10
47.3533
 20
-29.4548
 30
0.0
 10
41.1622
 20
-29.5043
 30
0.0
 10
41.1622
 20
-29.5043
 30
0.0
 10
39.3241
 20
-29.5189
 30
0.0
 10
38.2054
 20
-30.7372
 30
0.0
 10
37.6621
 20
-32.2564
 30
0.0
 10
37.6621
 20
-32.2564
 30
0.0
 10
36.6248
 20
-35.1564
 30
0.0
 10
37.6851
 20
-39.1523
 30
0.0
 10
39.8428
 20
-37.9623
 30
0.0
 10
39.8428
 20
-37.9623
 30
0.0
 10
40.6429
 20
-37.5211
 30
0.0
 10
41.5266
 20
-36.7196
 30
0.0
 10
42.296
 20
-36.2984
 30
0.0
 10
42.296
 20
-36.2984
 30
0.0
 10
45.8849
 20
-34.3334
 30
0.0
 10
46.6579
 20
-39.8283
 30
0.0
 10
43.2594
 20
-41.6572
 30
0.0
 10
43.2594
 20
-41.6572
 30
0.0
 10
38.7432
 20
-44.0875
 30
0.0
 10
33.5388
 20
-40.7928
 30
0.0
 10
32.5007
 20
-35.7283
 30
0.0
 10
32.5007
 20
-35.7283
 30
0.0
 10
31.4614
 20
-30.6573
 30
0.0
 10
34.0124
 20
-27.294
 30
0.0
 10
38.6559
 20
-25.7119
 30
0.0
 10
38.6559
 20
-25.7119
 30
0.0
 10
42.4676
 20
-24.4133
 30
0.0
 10
46.865
 20
-25.5325
 30
0.0
 10
51.8478
 20
-29.0694
 30
0.0
 10
51.8478
 20
-29.0694
 30
0.0
 10
51.9913
 20
-34.8834
 30
0.0
 10
52.135
 20
-40.6972
 30
0.0
 10
52.2784
 20
-46.511
 30
0.0
 10
52.2784
 20
-46.511
 30
0.0
 10
49.9103
 20
-49.7804
 30
0.0
 10
46.6402
 20
-52.7838
 30
0.0
 10
42.0519
 20
-55.3986
 30
0.0
  0
SPLINE
  5
5D
330
1F
100
AcDbEntity
  8
layer 1
 62
     7
100
AcDbSpline
210
0.0
220
0.0
230
1.0
 70
    11
 71
     3
 72
    32
 73
    28
 74
     0
 42
0.0000000001
 43
0.0000000001
 12
1.0
 22
0.0
 32
0.0
 13
1.0
 23
0.0
 33
0.0
 40
0.0
 40
0.0
 40
0.0
 40
0.0
 40
0.125
 40
0.125
 40
0.125
 40
0.125
 40
0.25
 40
0.25
 40
0.25
 40
0.25
 40
0.375
 40
0.375
 40
0.375
 40
0.375
 40
0.5
 40
0.5
 40
0.5
 40
0.5
 40
0.625
 40
0.625
 40
0.625
 40
0.625
 40
0.75
 40
0.75
 40
0.75
 40
0.75
 40
1.0
 40
1.0
 40
1.0
 40
1.0
 10
-23.469
 20
-21.3369
 30
0.0
 10
-21.1983
 20
-21.7925
 30
0.0
 10
-18.9276
 20
-22.2482
 30
0.0
 10
-16.6569
 20
-22.7038
 30
0.0
 10
-16.6569
 20
-22.7038
 30
0.0
 10
-20.6737
 20
-26.9276
 30
0.0
 10
-22.6289
 20
-32.4606
 30
0.0
 10
-22.5229
 20
-39.3026
 30
0.0
 10
-22.5229
 20
-39.3026
 30
0.0
 10
-19.2902
 20
-47.96
 30
0.0
 10
-13.4161
 20
-50.746
 30
0.0
 10
-6.0603
 20
-50.2381
 30
0.0
 10
-6.0603
 20
-50.2381
 30
0.0
 10
-8.0192
 20
-52.1538
 30
0.0
 10
-9.3436
 20
-54.8879
 30
0.0
 10
-10.034
 20
-58.4399
 30
0.0
 10
-10.034
 20
-58.4399
 30
0.0
 10
-13.6924
 20
-57.6588
 30
0.0
 10
-17.3507
 20
-56.8777
 30
0.0
 10
-21.0091
 20
-56.0966
 30
0.0
 10
-21.0091
 20
-56.0966
 30
0.0
 10
-20.1784
 20
-51.4695
 30
0.0
 10
-21.2506
 20
-47.8243
 30
0.0
 10
-24.2259
 20
-45.1609
 30
0.0
 10
-24.2259
 20
-45.1609
 30
0.0
 10
-23.9735
 20
-37.2196
 30
0.0
 10
-23.7212
 20
-29.2782
 30
0.0
 10
-23.469
 20
-21.3369
 30
0.0
  0
SPLINE
  5
5E
330
1F
100
AcDbEntity
  8
layer 1
 62
     7
100
AcDbSpline
210
0.0
220
0.0
230
1.0
 70
    11
 71
     3
 72
    52
 73
    48
 74
     0
 42
0.0000000001
 43
0.0000000001
 12
1.0
 22
0.0
 32
0.0
 13
1.0
 23
0.0
 33
0.0
 40
0.0
 40
0.0
 40
0.0
 40
0.0
 40
0.0769230769230769
 40
0.0769230769230769
 40
0.0769230769230769
 40
0.0769230769230769
 40
0.1538461538461539
 40
0.1538461538461539
 40
0.1538461538461539
 40
0.1538461538461539
 40
0.2307692307692308
 40
0.2307692307692308
 40
0.2307692307692308
 40
0.2307692307692308
 40
0.3076923076923077
 40
0.3076923076923077
 40
0.3076923076923077
 40
0.3076923076923077
 40
0.3846153846153846
 40
0.3846153846153846
 40
0.3846153846153846
 40
0.3846153846153846
 40
0.4615384615384616
 40
0.4615384615384616
 40
0.4615384615384616
 40
0.4615384615384616
 40
0.5384615384615384
 40
0.5384615384615384
 40
0.5384615384615384
 40
0.5384615384615384
 40
0.6153846153846154
 40
0.6153846153846154
 40
0.6153846153846154
 40
0.6153846153846154
 40
0.6923076923076923
 40
0.6923076923076923
 40
0.6923076923076923
 40
0.6923076923076923
 40
0.7692307692307693
 40
0.7692307692307693
 40
0.7692307692307693
 40
0.7692307692307693
 40
0.8461538461538461
 40
0.8461538461538461
 40
0.8461538461538461
 40
0.8461538461538461
 40
1.0
 40
1.0
 40
1.0
 40
1.0
 10
-23.9231
 20
-63.5355
 30
0.0
 10
-18.1035
 20
-61.9408
 30
0.0
 10
-12.1978
 20
-62.2099
 30
0.0
 10
-6.103
 20
-66.5793
 30
0.0
 10
-6.103
 20
-66.5793
 30
0.0
 10
-3.9293
 20
-68.812
 30
0.0
 10
-2.6074
 20
-71.2534
 30
0.0
 10
-2.3823
 20
-73.977
 30
0.0
 10
-2.3823
 20
-73.977
 30
0.0
 10
-1.7247
 20
-81.9374
 30
0.0
 10
-7.912
 20
-87.6016
 30
0.0
 10
-15.4575
 20
-86.4197
 30
0.0
 10
-15.4575
 20
-86.4197
 30
0.0
 10
-19.5808
 20
-85.7739
 30
0.0
 10
-21.1289
 20
-84.3295
 30
0.0
 10
-23.6773
 20
-80.7843
 30
0.0
 10
-23.6773
 20
-80.7843
 30
0.0
 10
-23.8241
 20
-78.9015
 30
0.0
 10
-23.8673
 20
-77.0546
 30
0.0
 10
-23.1856
 20
-75.4573
 30
0.0
 10
-23.1856
 20
-75.4573
 30
0.0
 10
-20.883
 20
-73.2328
 30
0.0
 10
-18.6819
 20
-71.8472
 30
0.0
 10
-16.8999
 20
-72.6344
 30
0.0
 10
-16.8999
 20
-72.6344
 30
0.0
 10
-13.7759
 20
-74.0148
 30
0.0
 10
-13.2584
 20
-75.4045
 30
0.0
 10
-15.7221
 20
-75.9096
 30
0.0
 10
-15.7221
 20
-75.9096
 30
0.0
 10
-18.8728
 20
-76.5559
 30
0.0
 10
-18.9549
 20
-79.575
 30
0.0
 10
-16.8792
 20
-81.3526
 30
0.0
 10
-16.8792
 20
-81.3526
 30
0.0
 10
-15.1533
 20
-82.8307
 30
0.0
 10
-12.4216
 20
-82.4721
 30
0.0
 10
-8.6838
 20
-80.2769
 30
0.0
 10
-8.6838
 20
-80.2769
 30
0.0
 10
-7.1822
 20
-75.416
 30
0.0
 10
-8.4576
 20
-71.7353
 30
0.0
 10
-11.6333
 20
-68.8623
 30
0.0
 10
-11.6333
 20
-68.8623
 30
0.0
 10
-15.9941
 20
-65.2455
 30
0.0
 10
-20.0857
 20
-66.9054
 30
0.0
 10
-24.1688
 20
-68.7353
 30
0.0
 10
-24.1688
 20
-68.7353
 30
0.0
 10
-24.0869
 20
-67.0022
 30
0.0
 10
-24.005
 20
-65.2688
 30
0.0
 10
-23.9231
 20
-63.5355
 30
0.0
  0
SPLINE
  5
5F
330
1F
100
AcDbEntity
  8
layer 1
 62
     7
100
AcDbSpline
210
0.0
220
0.0
230
1.0
 70
    11
 71
     3
 72
    16
 73
    12
 74
     0
 42
0.0000000001
 43
0.0000000001
 12
1.0
 22
0.0
 32
0.0
 13
1.0
 23
0.0
 33
0.0
 40
0.0
 40
0.0
 40
0.0
 40
0.0
 40
0.25
 40
0.25
 40
0.25
 40
0.25
 40
0.5
 40
0.5
 40
0.5
 40
0.5
 40
1.0
 40
1.0
 40
1.0
 40
1.0
 10
-24.4209
 20
-100.3845
 30
0.0
 10
-21.3413
 20
-102.9714
 30
0.0
 10
-19.6121
 20
-106.9766
 30
0.0
 10
-19.8264
 20
-110.7648
 30
0.0
 10
-19.8264
 20
-110.7648
 30
0.0
 10
-19.8264
 20
-110.7648
 30
0.0
 10
-24.2238
 20
-110.7648
 30
0.0
 10
-24.2238
 20
-110.7648
 30
0.0
 10
-24.2238
 20
-110.7648
 30
0.0
 10
-24.2895
 20
-107.3046
 30
0.0
 10
-24.3552
 20
-103.8445
 30
0.0
 10
-24.4209
 20
-100.3845
 30
0.0
  0
SPLINE
  5
60
330
1F
100
AcDbEntity
  8
layer 1
 62
     7
100
AcDbSpline
210
0.0
220
0.0
230
1.0
 70
    11
 71
     3
 72
    20
 73
    16
 74
     0
 42
0.0000000001
 43
0.0000000001
 12
1.0
 22
0.0
 32
0.0
 13
1.0
 23
0.0
 33
0.0
 40
0.0
 40
0.0
 40
0.0
 40
0.0
 40
0.2
 40
0.2
 40
0.2
 40
0.2
 40
0.4
 40
0.4
 40
0.4
 40
0.4
 40
0.6
 40
0.6
 40
0.6
 40
0.6
 40
1.0
 40
1.0
 40
1.0
 40
1.0
 10
1.9409
 20
-83.0718
 30
0.0
 10
2.911
 20
-87.6312
 30
0.0
 10
6.4485
 20
-91.4337
 30
0.0
 10
12.8965
 20
-94.3781
 30
0.0
 10
12.8965
 20
-94.3781
 30
0.0
 10
10.9564
 20
-95.6146
 30
0.0
 10
9.0164
 20
-96.8511
 30
0.0
 10
7.0764
 20
-98.0878
 30
0.0
 10
7.0764
 20
-98.0878
 30
0.0
 10
5.7152
 20
-92.9141
 30
0.0
 10
2.0063
 20
-89.5575
 30
0.0
 10
-4.0505
 20
-88.0183
 30
0.0
 10
-4.0505
 20
-88.0183
 30
0.0
 10
-2.0533
 20
-86.3695
 30
0.0
 10
-0.0562
 20
-84.7206
 30
0.0
 10
1.9409
 20
-83.0718
 30
0.0
  0
SPLINE
  5
61
330
1F
100
AcDbEntity
  8
layer 1
 62
     7
100
AcDbSpline
210
0.0
220
0.0
230
1.0
 70
    11
 71
     3
 72
    68
 73
    64
 74
     0
 42
0.0000000001
 43
0.0000000001
 12
1.0
 22
0.0
 32
0.0
 13
1.0
 23
0.0
 33
0.0
 40
0.0
 40
0.0
 40
0.0
 40
0.0
 40
0.0588235294117647
 40
0.0588235294117647
 40
0.0588235294117647
 40
0.0588235294117647
 40
0.1176470588235294
 40
0.1176470588235294
 40
0.1176470588235294
 40
0.1176470588235294
 40
0.1764705882352941
 40
0.1764705882352941
 40
0.1764705882352941
 40
0.1764705882352941
 40
0.2352941176470588
 40
0.2352941176470588
 40
0.2352941176470588
 40
0.2352941176470588
 40
0.2941176470588235
 40
0.2941176470588235
 40
0.2941176470588235
 40
0.2941176470588235
 40
0.3529411764705883
 40
0.3529411764705883
 40
0.3529411764705883
 40
0.3529411764705883
 40
0.4117647058823529
 40
0.4117647058823529
 40
0.4117647058823529
 40
0.4117647058823529
 40
0.4705882352941176
 40
0.4705882352941176
 40
0.4705882352941176
 40
0.4705882352941176
 40
0.5294117647058824
 40
0.5294117647058824
 40
0.5294117647058824
 40
0.5294117647058824
 40
0.5882352941176471
 40
0.5882352941176471
 40
0.5882352941176471
 40
0.5882352941176471
 40
0.6470588235294118
 40
0.6470588235294118
 40
0.6470588235294118
 40
0.6470588235294118
 40
0.7058823529411765
 40
0.7058823529411765
 40
0.7058823529411765
 40
0.7058823529411765
 40
0.7647058823529411
 40
0.7647058823529411
 40
0.7647058823529411
 40
0.7647058823529411
 40
0.8235294117647058
 40
0.8235294117647058
 40
0.8235294117647058
 40
0.8235294117647058
 40
0.8823529411764706
 40
0.8823529411764706
 40
0.8823529411764706
 40
0.8823529411764706
 40
1.0
 40
1.0
 40
1.0
 40
1.0
 10
10.6778
 20
-79.3086
 30
0.0
 10
8.928
 20
-79.8461
 30
0.0
 10
8.5242
 20
-81.2807
 30
0.0
 10
8.5762
 20
-83.0958
 30
0.0
 10
8.5762
 20
-83.0958
 30
0.0
 10
8.792
 20
-90.6309
 30
0.0
 10
24.3045
 20
-91.151
 30
0.0
 10
24.1112
 20
-80.962
 30
0.0
 10
24.1112
 20
-80.962
 30
0.0
 10
24.0847
 20
-79.5631
 30
0.0
 10
23.6955
 20
-78.2177
 30
0.0
 10
23.0684
 20
-76.9074
 30
0.0
 10
23.0684
 20
-76.9074
 30
0.0
 10
22.1577
 20
-73.4375
 30
0.0
 10
20.1327
 20
-71.9802
 30
0.0
 10
17.9484
 20
-70.8106
 30
0.0
 10
17.9484
 20
-70.8106
 30
0.0
 10
11.6902
 20
-68.5599
 30
0.0
 10
8.657
 20
-64.5168
 30
0.0
 10
6.5268
 20
-59.9718
 30
0.0
 10
6.5268
 20
-59.9718
 30
0.0
 10
3.8904
 20
-61.49
 30
0.0
 10
1.5711
 20
-61.5352
 30
0.0
 10
-0.4312
 20
-60.1074
 30
0.0
 10
-0.4312
 20
-60.1074
 30
0.0
 10
-1.4112
 20
-58.8758
 30
0.0
 10
-3.1522
 20
-57.9936
 30
0.0
 10
-1.0877
 20
-55.3655
 30
0.0
 10
-1.0877
 20
-55.3655
 30
0.0
 10
-0.6063
 20
-55.0042
 30
0.0
 10
-0.1249
 20
-54.6429
 30
0.0
 10
0.3565
 20
-54.2817
 30
0.0
 10
0.3565
 20
-54.2817
 30
0.0
 10
0.4065
 20
-53.1419
 30
0.0
 10
-0.3051
 20
-52.9008
 30
0.0
 10
-1.3704
 20
-53.0766
 30
0.0
 10
-1.3704
 20
-53.0766
 30
0.0
 10
-3.6364
 20
-53.4504
 30
0.0
 10
-4.046
 20
-53.974
 30
0.0
 10
-4.4696
 20
-56.3235
 30
0.0
 10
-4.4696
 20
-56.3235
 30
0.0
 10
-5.3452
 20
-61.1796
 30
0.0
 10
-1.8779
 20
-64.2696
 30
0.0
 10
0.1819
 20
-68.0737
 30
0.0
 10
0.1819
 20
-68.0737
 30
0.0
 10
1.6753
 20
-70.8317
 30
0.0
 10
2.6656
 20
-73.8205
 30
0.0
 10
2.8508
 20
-77.1784
 30
0.0
 10
2.8508
 20
-77.1784
 30
0.0
 10
7.5762
 20
-73.1738
 30
0.0
 10
12.5142
 20
-71.0338
 30
0.0
 10
18.2108
 20
-75.5525
 30
0.0
 10
18.2108
 20
-75.5525
 30
0.0
 10
20.6844
 20
-78.5331
 30
0.0
 10
21.6413
 20
-81.5137
 30
0.0
 10
19.2612
 20
-84.4945
 30
0.0
 10
19.2612
 20
-84.4945
 30
0.0
 10
14.6573
 20
-85.8746
 30
0.0
 10
13.43
 20
-84.6413
 30
0.0
 10
13.2275
 20
-82.6147
 30
0.0
 10
13.2275
 20
-82.6147
 30
0.0
 10
13.0724
 20
-81.0606
 30
0.0
 10
13.1204
 20
-78.5584
 30
0.0
 10
10.6778
 20
-79.3086
 30
0.0
  0
SPLINE
  5
62
330
1F
100
AcDbEntity
  8
layer 1
 62
     7
100
AcDbSpline
210
0.0
220
0.0
230
1.0
 70
    11
 71
     3
 72
    56
 73
    52
 74
     0
 42
0.0000000001
 43
0.0000000001
 12
1.0
 22
0.0
 32
0.0
 13
1.0
 23
0.0
 33
0.0
 40
0.0
 40
0.0
 40
0.0
 40
0.0
 40
0.0714285714285714
 40
0.0714285714285714
 40
0.0714285714285714
 40
0.0714285714285714
 40
0.1428571428571428
 40
0.1428571428571428
 40
0.1428571428571428
 40
0.1428571428571428
 40
0.2142857142857143
 40
0.2142857142857143
 40
0.2142857142857143
 40
0.2142857142857143
 40
0.2857142857142857
 40
0.2857142857142857
 40
0.2857142857142857
 40
0.2857142857142857
 40
0.3571428571428572
 40
0.3571428571428572
 40
0.3571428571428572
 40
0.3571428571428572
 40
0.4285714285714285
 40
0.4285714285714285
 40
0.4285714285714285
 40
0.4285714285714285
 40
0.5
 40
0.5
 40
0.5
 40
0.5
 40
0.5714285714285714
 40
0.5714285714285714
 40
0.5714285714285714
 40
0.5714285714285714
 40
0.6428571428571429
 40
0.6428571428571429
 40
0.6428571428571429
 40
0.6428571428571429
 40
0.7142857142857143
 40
0.7142857142857143
 40
0.7142857142857143
 40
0.7142857142857143
 40
0.7857142857142857
 40
0.7857142857142857
 40
0.7857142857142857
 40
0.7857142857142857
 40
0.8571428571428571
 40
0.8571428571428571
 40
0.8571428571428571
 40
0.8571428571428571
 40
1.0
 40
1.0
 40
1.0
 40
1.0
 10
45.3574
 20
-21.353
 30
0.0
 10
45.1487
 20
-20.061
 30
0.0
 10
44.94
 20
-18.7692
 30
0.0
 10
44.7313
 20
-17.4772
 30
0.0
 10
44.7313
 20
-17.4772
 30
0.0
 10
40.5133
 20
-14.6956
 30
0.0
 10
37.9828
 20
-11.2611
 30
0.0
 10
36.2189
 20
-7.5296
 30
0.0
 10
36.2189
 20
-7.5296
 30
0.0
 10
33.7331
 20
-10.7264
 30
0.0
 10
30.7357
 20
-12.0645
 30
0.0
 10
27.4433
 20
-12.3267
 30
0.0
 10
27.4433
 20
-12.3267
 30
0.0
 10
25.1428
 20
-12.5097
 30
0.0
 10
23.0338
 20
-13.2117
 30
0.0
 10
21.1521
 20
-14.323
 30
0.0
 10
21.1521
 20
-14.323
 30
0.0
 10
18.4986
 20
-15.8897
 30
0.0
 10
15.8127
 20
-18.4117
 30
0.0
 10
15.2496
 20
-21.6596
 30
0.0
 10
15.2496
 20
-21.6596
 30
0.0
 10
14.3056
 20
-27.1029
 30
0.0
 10
18.8346
 20
-31.2749
 30
0.0
 10
23.8884
 20
-30.579
 30
0.0
 10
23.8884
 20
-30.579
 30
0.0
 10
25.5367
 20
-30.3519
 30
0.0
 10
27.1848
 20
-29.5687
 30
0.0
 10
28.8331
 20
-27.8123
 30
0.0
 10
28.8331
 20
-27.8123
 30
0.0
 10
29.4932
 20
-25.6861
 30
0.0
 10
29.4257
 20
-24.2109
 30
0.0
 10
28.6302
 20
-23.3866
 30
0.0
 10
28.6302
 20
-23.3866
 30
0.0
 10
25.7545
 20
-20.4067
 30
0.0
 10
25.5471
 20
-23.8361
 30
0.0
 10
25.1356
 20
-25.6072
 30
0.0
 10
25.1356
 20
-25.6072
 30
0.0
 10
24.3784
 20
-28.8648
 30
0.0
 10
21.8844
 20
-27.5788
 30
0.0
 10
20.4714
 20
-25.5913
 30
0.0
 10
20.4714
 20
-25.5913
 30
0.0
 10
17.998
 20
-22.112
 30
0.0
 10
22.3289
 20
-17.4168
 30
0.0
 10
25.6266
 20
-16.7707
 30
0.0
 10
25.6266
 20
-16.7707
 30
0.0
 10
30.4097
 20
-15.8337
 30
0.0
 10
34.1397
 20
-18.3775
 30
0.0
 10
35.4677
 20
-23.2907
 30
0.0
 10
35.4677
 20
-23.2907
 30
0.0
 10
38.7644
 20
-20.0105
 30
0.0
 10
42.0608
 20
-20.1963
 30
0.0
 10
45.3574
 20
-21.353
 30
0.0
  0
SPLINE
  5
63
330
1F
100
AcDbEntity
  8
layer 1
 62
     7
100
AcDbSpline
210
0.0
220
0.0
230
1.0
 70
    11
 71
     3
 72
    36
 73
    32
 74
     0
 42
0.0000000001
 43
0.0000000001
 12
1.0
 22
0.0
 32
0.0
 13
1.0
 23
0.0
 33
0.0
 40
0.0
 40
0.0
 40
0.0
 40
0.0
 40
0.1111111111111111
 40
0.1111111111111111
 40
0.1111111111111111
 40
0.1111111111111111
 40
0.2222222222222222
 40
0.2222222222222222
 40
0.2222222222222222
 40
0.2222222222222222
 40
0.3333333333333333
 40
0.3333333333333333
 40
0.3333333333333333
 40
0.3333333333333333
 40
0.4444444444444444
 40
0.4444444444444444
 40
0.4444444444444444
 40
0.4444444444444444
 40
0.5555555555555556
 40
0.5555555555555556
 40
0.5555555555555556
 40
0.5555555555555556
 40
0.6666666666666666
 40
0.6666666666666666
 40
0.6666666666666666
 40
0.6666666666666666
 40
0.7777777777777778
 40
0.7777777777777778
 40
0.7777777777777778
 40
0.7777777777777778
 40
1.0
 40
1.0
 40
1.0
 40
1.0
 10
52.2424
 20
-11.1469
 30
0.0
 10
52.2007
 20
-13.3863
 30
0.0
 10
52.1588
 20
-15.6255
 30
0.0
 10
52.1173
 20
-17.8648
 30
0.0
 10
52.1173
 20
-17.8648
 30
0.0
 10
47.6889
 20
-15.6901
 30
0.0
 10
39.8583
 20
-9.3765
 30
0.0
 10
41.6408
 20
-3.4147
 30
0.0
 10
41.6408
 20
-3.4147
 30
0.0
 10
42.4833
 20
-0.5963
 30
0.0
 10
44.6337
 20
1.4809
 30
0.0
 10
47.6869
 20
0.8489
 30
0.0
 10
47.6869
 20
0.8489
 30
0.0
 10
48.9582
 20
0.5856
 30
0.0
 10
50.2643
 20
-0.2473
 30
0.0
 10
51.6165
 20
-1.8452
 30
0.0
 10
51.6165
 20
-1.8452
 30
0.0
 10
51.7707
 20
-3.455
 30
0.0
 10
51.3118
 20
-4.2731
 30
0.0
 10
50.2395
 20
-4.2998
 30
0.0
 10
50.2395
 20
-4.2998
 30
0.0
 10
49.7387
 20
-3.7499
 30
0.0
 10
49.2381
 20
-3.3954
 30
0.0
 10
48.7373
 20
-3.1735
 30
0.0
 10
48.7373
 20
-3.1735
 30
0.0
 10
46.2866
 20
-2.0879
 30
0.0
 10
44.9527
 20
-3.5154
 30
0.0
 10
44.8175
 20
-6.0917
 30
0.0
 10
44.8175
 20
-6.0917
 30
0.0
 10
44.5923
 20
-10.3795
 30
0.0
 10
48.6572
 20
-11.7686
 30
0.0
 10
52.2424
 20
-11.1469
 30
0.0
  0
SPLINE
  5
64
330
1F
100
AcDbEntity
  8
layer 1
 62
     7
100
AcDbSpline
210
0.0
220
0.0
230
1.0
 70
    11
 71
     3
 72
    20
 73
    16
 74
     0
 42
0.0000000001
 43
0.0000000001
 12
1.0
 22
0.0
 32
0.0
 13
1.0
 23
0.0
 33
0.0
 40
0.0
 40
0.0
 40
0.0
 40
0.0
 40
0.2
 40
0.2
 40
0.2
 40
0.2
 40
0.4
 40
0.4
 40
0.4
 40
0.4
 40
0.6
 40
0.6
 40
0.6
 40
0.6
 40
1.0
 40
1.0
 40
1.0
 40
1.0
 10
51.8331
 20
-82.3741
 30
0.0
 10
51.9084
 20
-83.3581
 30
0.0
 10
51.9837
 20
-84.3421
 30
0.0
 10
52.059
 20
-85.3261
 30
0.0
 10
52.059
 20
-85.3261
 30
0.0
 10
50.2775
 20
-86.6982
 30
0.0
 10
49.3241
 20
-89.2098
 30
0.0
 10
48.7471
 20
-92.2398
 30
0.0
 10
48.7471
 20
-92.2398
 30
0.0
 10
45.6309
 20
-91.8269
 30
0.0
 10
44.278
 20
-90.8682
 30
0.0
 10
43.1769
 20
-89.8316
 30
0.0
 10
43.1769
 20
-89.8316
 30
0.0
 10
46.5641
 20
-88.6922
 30
0.0
 10
49.4496
 20
-86.2064
 30
0.0
 10
51.8331
 20
-82.3741
 30
0.0
  0
SPLINE
  5
65
330
1F
100
AcDbEntity
  8
layer 1
 62
     7
100
AcDbSpline
210
0.0
220
0.0
230
1.0
 70
    11
 71
     3
 72
    68
 73
    64
 74
     0
 42
0.0000000001
 43
0.0000000001
 12
1.0
 22
0.0
 32
0.0
 13
1.0
 23
0.0
 33
0.0
 40
0.0
 40
0.0
 40
0.0
 40
0.0
 40
0.0588235294117647
 40
0.0588235294117647
 40
0.0588235294117647
 40
0.0588235294117647
 40
0.1176470588235294
 40
0.1176470588235294
 40
0.1176470588235294
 40
0.1176470588235294
 40
0.1764705882352941
 40
0.1764705882352941
 40
0.1764705882352941
 40
0.1764705882352941
 40
0.2352941176470588
 40
0.2352941176470588
 40
0.2352941176470588
 40
0.2352941176470588
 40
0.2941176470588235
 40
0.2941176470588235
 40
0.2941176470588235
 40
0.2941176470588235
 40
0.3529411764705883
 40
0.3529411764705883
 40
0.3529411764705883
 40
0.3529411764705883
 40
0.4117647058823529
 40
0.4117647058823529
 40
0.4117647058823529
 40
0.4117647058823529
 40
0.4705882352941176
 40
0.4705882352941176
 40
0.4705882352941176
 40
0.4705882352941176
 40
0.5294117647058824
 40
0.5294117647058824
 40
0.5294117647058824
 40
0.5294117647058824
 40
0.5882352941176471
 40
0.5882352941176471
 40
0.5882352941176471
 40
0.5882352941176471
 40
0.6470588235294118
 40
0.6470588235294118
 40
0.6470588235294118
 40
0.6470588235294118
 40
0.7058823529411765
 40
0.7058823529411765
 40
0.7058823529411765
 40
0.7058823529411765
 40
0.7647058823529411
 40
0.7647058823529411
 40
0.7647058823529411
 40
0.7647058823529411
 40
0.8235294117647058
 40
0.8235294117647058
 40
0.8235294117647058
 40
0.8235294117647058
 40
0.8823529411764706
 40
0.8823529411764706
 40
0.8823529411764706
 40
0.8823529411764706
 40
1.0
 40
1.0
 40
1.0
 40
1.0
 10
50.4953
 20
-67.2315
 30
0.0
 10
46.4395
 20
-63.5702
 30
0.0
 10
41.0851
 20
-61.8007
 30
0.0
 10
36.384
 20
-65.8409
 30
0.0
 10
36.384
 20
-65.8409
 30
0.0
 10
34.6146
 20
-67.3618
 30
0.0
 10
32.504
 20
-69.6108
 30
0.0
 10
31.6636
 20
-72.1259
 30
0.0
 10
31.6636
 20
-72.1259
 30
0.0
 10
30.3728
 20
-75.9892
 30
0.0
 10
32.0803
 20
-80.5918
 30
0.0
 10
35.5524
 20
-82.1704
 30
0.0
 10
35.5524
 20
-82.1704
 30
0.0
 10
37.6643
 20
-83.1304
 30
0.0
 10
40.0001
 20
-82.8866
 30
0.0
 10
41.6522
 20
-81.0601
 30
0.0
 10
41.6522
 20
-81.0601
 30
0.0
 10
42.8979
 20
-79.6826
 30
0.0
 10
43.3794
 20
-77.9091
 30
0.0
 10
42.6938
 20
-76.5668
 30
0.0
 10
42.6938
 20
-76.5668
 30
0.0
 10
41.868
 20
-74.9499
 30
0.0
 10
40.4233
 20
-74.967
 30
0.0
 10
38.9245
 20
-74.7436
 30
0.0
 10
38.9245
 20
-74.7436
 30
0.0
 10
37.6649
 20
-74.5558
 30
0.0
 10
36.6064
 20
-74.1026
 30
0.0
 10
37.6535
 20
-72.0584
 30
0.0
 10
37.6535
 20
-72.0584
 30
0.0
 10
40.1931
 20
-67.0995
 30
0.0
 10
48.1094
 20
-70.1671
 30
0.0
 10
48.799
 20
-75.459
 30
0.0
 10
48.799
 20
-75.459
 30
0.0
 10
49.4294
 20
-80.2951
 30
0.0
 10
47.6244
 20
-83.5845
 30
0.0
 10
43.6935
 20
-86.0412
 30
0.0
 10
43.6935
 20
-86.0412
 30
0.0
 10
41.7748
 20
-87.2402
 30
0.0
 10
39.6155
 20
-87.8181
 30
0.0
 10
37.1355
 20
-87.569
 30
0.0
 10
37.1355
 20
-87.569
 30
0.0
 10
32.81
 20
-87.1343
 30
0.0
 10
29.4466
 20
-84.8267
 30
0.0
 10
27.5418
 20
-81.334
 30
0.0
 10
27.5418
 20
-81.334
 30
0.0
 10
23.5972
 20
-74.1002
 30
0.0
 10
26.3218
 20
-64.9044
 30
0.0
 10
33.5874
 20
-61.0942
 30
0.0
 10
33.5874
 20
-61.0942
 30
0.0
 10
39.5505
 20
-57.9671
 30
0.0
 10
44.7469
 20
-58.8508
 30
0.0
 10
50.4979
 20
-60.7278
 30
0.0
 10
50.4979
 20
-60.7278
 30
0.0
 10
52.8823
 20
-61.5058
 30
0.0
 10
52.3006
 20
-61.3548
 30
0.0
 10
52.0916
 20
-63.8575
 30
0.0
 10
52.0916
 20
-63.8575
 30
0.0
 10
52.0014
 20
-64.9369
 30
0.0
 10
51.9112
 20
-66.0163
 30
0.0
 10
51.821
 20
-67.0957
 30
0.0
 10
51.821
 20
-67.0957
 30
0.0
 10
51.6547
 20
-69.0896
 30
0.0
 10
51.686
 20
-68.3064
 30
0.0
 10
50.4953
 20
-67.2315
 30
0.0
  0
SPLINE
  5
66
330
1F
100
AcDbEntity
  8
layer 1
 62
     7
100
AcDbSpline
210
0.0
220
0.0
230
1.0
 70
    11
 71
     3
 72
    20
 73
    16
 74
     0
 42
0.0000000001
 43
0.0000000001
 12
1.0
 22
0.0
 32
0.0
 13
1.0
 23
0.0
 33
0.0
 40
0.0
 40
0.0
 40
0.0
 40
0.0
 40
0.2
 40
0.2
 40
0.2
 40
0.2
 40
0.4
 40
0.4
 40
0.4
 40
0.4
 40
0.6
 40
0.6
 40
0.6
 40
0.6
 40
1.0
 40
1.0
 40
1.0
 40
1.0
 10
12.5112
 20
-110.7648
 30
0.0
 10
12.8245
 20
-110.3029
 30
0.0
 10
13.1857
 20
-109.8376
 30
0.0
 10
13.5993
 20
-109.3701
 30
0.0
 10
13.5993
 20
-109.3701
 30
0.0
 10
15.402
 20
-107.3319
 30
0.0
 10
18.0937
 20
-106.5008
 30
0.0
 10
21.8812
 20
-107.1576
 30
0.0
 10
21.8812
 20
-107.1576
 30
0.0
 10
24.1992
 20
-107.5598
 30
0.0
 10
26.1131
 20
-108.3305
 30
0.0
 10
26.852
 20
-110.7648
 30
0.0
 10
26.852
 20
-110.7648
 30
0.0
 10
26.852
 20
-110.7648
 30
0.0
 10
12.5112
 20
-110.7648
 30
0.0
 10
12.5112
 20
-110.7648
 30
0.0
  0
SPLINE
  5
67
330
1F
100
AcDbEntity
  8
layer 1
 62
     7
100
AcDbSpline
210
0.0
220
0.0
230
1.0
 70
    11
 71
     3
 72
    40
 73
    36
 74
     0
 42
0.0000000001
 43
0.0000000001
 12
1.0
 22
0.0
 32
0.0
 13
1.0
 23
0.0
 33
0.0
 40
0.0
 40
0.0
 40
0.0
 40
0.0
 40
0.1
 40
0.1
 40
0.1
 40
0.1
 40
0.2
 40
0.2
 40
0.2
 40
0.2
 40
0.3
 40
0.3
 40
0.3
 40
0.3
 40
0.4
 40
0.4
 40
0.4
 40
0.4
 40
0.5
 40
0.5
 40
0.5
 40
0.5
 40
0.6
 40
0.6
 40
0.6
 40
0.6
 40
0.7
 40
0.7
 40
0.7
 40
0.7
 40
0.8
 40
0.8
 40
0.8
 40
0.8
 40
1.0
 40
1.0
 40
1.0
 40
1.0
 10
2.4311
 20
-110.7648
 30
0.0
 10
3.7083
 20
-109.85
 30
0.0
 10
4.7657
 20
-108.7629
 30
0.0
 10
5.7763
 20
-107.574
 30
0.0
 10
5.7763
 20
-107.574
 30
0.0
 10
9.1723
 20
-103.5794
 30
0.0
 10
11.0595
 20
-100.4123
 30
0.0
 10
16.4725
 20
-98.906
 30
0.0
 10
16.4725
 20
-98.906
 30
0.0
 10
21.2143
 20
-97.5864
 30
0.0
 10
26.6778
 20
-98.1403
 30
0.0
 10
30.5259
 20
-100.5041
 30
0.0
 10
30.5259
 20
-100.5041
 30
0.0
 10
33.4731
 20
-102.3146
 30
0.0
 10
35.8288
 20
-105.1504
 30
0.0
 10
36.9384
 20
-108.9078
 30
0.0
 10
36.9384
 20
-108.9078
 30
0.0
 10
37.12
 20
-109.5226
 30
0.0
 10
37.2542
 20
-110.1432
 30
0.0
 10
37.3449
 20
-110.7648
 30
0.0
 10
37.3449
 20
-110.7648
 30
0.0
 10
37.3449
 20
-110.7648
 30
0.0
 10
32.2501
 20
-110.7648
 30
0.0
 10
32.2501
 20
-110.7648
 30
0.0
 10
32.2501
 20
-110.7648
 30
0.0
 10
30.2171
 20
-101.2432
 30
0.0
 10
17.6377
 20
-100.6501
 30
0.0
 10
11.3478
 20
-105.8129
 30
0.0
 10
11.3478
 20
-105.8129
 30
0.0
 10
9.7044
 20
-107.1619
 30
0.0
 10
8.4523
 20
-108.8198
 30
0.0
 10
7.5368
 20
-110.7648
 30
0.0
 10
7.5368
 20
-110.7648
 30
0.0
 10
7.5368
 20
-110.7648
 30
0.0
 10
2.4311
 20
-110.7648
 30
0.0
 10
2.4311
 20
-110.7648
 30
0.0
  0
ENDSEC
  0
SECTION
  2
OBJECTS
  0
DICTIONARY
  5
C
330
0
100
AcDbDictionary
281
     1
  3
ACAD_GROUP
350
D
  3
ACAD_LAYOUT
350
1A
  3
ACAD_MATERIAL
350
3B
  3
ACAD_MLEADERSTYLE
350
8A
  3
ACAD_MLINESTYLE
350
17
  3
ACAD_PLOTSETTINGS
350
19
  3
ACAD_PLOTSTYLENAME
350
E
  3
ACAD_TABLESTYLE
350
89
  3
ACAD_VISUALSTYLE
350
2A
  0
DICTIONARY
  5
D
102
{ACAD_REACTORS
330
C
102
}
330
C
100
AcDbDictionary
281
     1
  0
DICTIONARY
  5
1A
102
{ACAD_REACTORS
330
C
102
}
330
C
100
AcDbDictionary
281
     1
  3
Layout1
350
1E
  3
Layout2
350
26
  3
Model
350
22
  0
DICTIONARY
  5
3B
102
{ACAD_REACTORS
330
C
102
}
330
C
100
AcDbDictionary
281
     1
  3
ByBlock
350
3D
  3
ByLayer
350
3C
  3
Global
350
3E
  0
DICTIONARY
  5
8A
102
{ACAD_REACTORS
330
C
102
}
330
C
100
AcDbDictionary
281
     1
  0
DICTIONARY
  5
17
102
{ACAD_REACTORS
330
C
102
}
330
C
100
AcDbDictionary
281
     1
  3
Standard
350
18
  0
DICTIONARY
  5
19
102
{ACAD_REACTORS
330
C
102
}
330
C
100
AcDbDictionary
281
     1
  0
ACDBDICTIONARYWDFLT
  5
E
102
{ACAD_REACTORS
330
C
102
}
330
C
100
AcDbDictionary
281
     1
  3
Normal
350
F
100
AcDbDictionaryWithDefault
340
F
  0
DICTIONARY
  5
89
102
{ACAD_REACTORS
330
C
102
}
330
C
100
AcDbDictionary
281
     1
  0
DICTIONARY
  5
2A
102
{ACAD_REACTORS
330
C
102
}
330
C
100
AcDbDictionary
281
     1
  3
2dWireframe
350
2F
  3
3D Hidden
350
31
  3
3dWireframe
350
30
  3
Basic
350
32
  3
Brighten
350
36
  3
ColorChange
350
3A
  3
Conceptual
350
34
  3
Dim
350
35
  3
Facepattern
350
39
  3
Flat
350
2B
  3
FlatWithEdges
350
2C
  3
Gouraud
350
2D
  3
GouraudWithEdges
350
2E
  3
Linepattern
350
38
  3
Realistic
350
33
  3
Thicken
350
37
  0
LAYOUT
  5
1E
102
{ACAD_REACTORS
330
1A
102
}
330
1A
100
AcDbPlotSettings
  1

  2
none_device
  4

  6

 40
0.0
 41
0.0
 42
0.0
 43
0.0
 44
0.0
 45
0.0
 46
0.0
 47
0.0
 48
0.0
 49
0.0
140
0.0
141
0.0
142
1.0
143
1.0
 70
   688
 72
     0
 73
     0
 74
     5
  7

 75
    16
 76
     0
 77
     2
 78
   300
147
1.0
148
0.0
149
0.0
100
AcDbLayout
  1
Layout1
 70
     1
 71
     1
 10
0.0
 20
0.0
 11
12.0
 21
9.0
 12
0.0
 22
0.0
 32
0.0
 14
1.000000000000000E+20
 24
1.000000000000000E+20
 34
1.000000000000000E+20
 15
-1.000000000000000E+20
 25
-1.000000000000000E+20
 35
-1.000000000000000E+20
146
0.0
 13
0.0
 23
0.0
 33
0.0
 16
1.0
 26
0.0
 36
0.0
 17
0.0
 27
1.0
 37
0.0
 76
     0
330
1B
  0
LAYOUT
  5
26
102
{ACAD_REACTORS
330
1A
102
}
330
1A
100
AcDbPlotSettings
  1

  2
none_device
  4

  6

 40
0.0
 41
0.0
 42
0.0
 43
0.0
 44
0.0
 45
0.0
 46
0.0
 47
0.0
 48
0.0
 49
0.0
140
0.0
141
0.0
142
1.0
143
1.0
 70
   688
 72
     0
 73
     0
 74
     5
  7

 75
    16
 76
     0
 77
     2
 78
   300
147
1.0
148
0.0
149
0.0
100
AcDbLayout
  1
Layout2
 70
     1
 71
     2
 10
0.0
 20
0.0
 11
0.0
 21
0.0
 12
0.0
 22
0.0
 32
0.0
 14
0.0
 24
0.0
 34
0.0
 15
0.0
 25
0.0
 35
0.0
146
0.0
 13
0.0
 23
0.0
 33
0.0
 16
1.0
 26
0.0
 36
0.0
 17
0.0
 27
1.0
 37
0.0
 76
     0
330
23
  0
LAYOUT
  5
22
102
{ACAD_REACTORS
330
1A
102
}
330
1A
100
AcDbPlotSettings
  1

  2
none_device
  4

  6

 40
0.0
 41
0.0
 42
0.0
 43
0.0
 44
0.0
 45
0.0
 46
0.0
 47
0.0
 48
0.0
 49
0.0
140
0.0
141
0.0
142
1.0
143
1.0
 70
  1712
 72
     0
 73
     0
 74
     0
  7

 75
     0
 76
     0
 77
     2
 78
   300
147
1.0
148
0.0
149
0.0
100
AcDbLayout
  1
Model
 70
     1
 71
     0
 10
0.0
 20
0.0
 11
12.0
 21
9.0
 12
0.0
 22
0.0
 32
0.0
 14
-28.4068
 24
-114.8782
 34
0.0
 15
56.2939
 25
131.9298
 35
0.0
146
0.0
 13
0.0
 23
0.0
 33
0.0
 16
1.0
 26
0.0
 36
0.0
 17
0.0
 27
1.0
 37
0.0
 76
     0
330
1F
331
29
  0
MATERIAL
  5
3D
102
{ACAD_REACTORS
330
3B
102
}
330
3B
100
AcDbMaterial
  1
ByBlock
 72
     1
 94
      127
  0
MATERIAL
  5
3C
102
{ACAD_REACTORS
330
3B
102
}
330
3B
100
AcDbMaterial
  1
ByLayer
 72
     1
 94
      127
  0
MATERIAL
  5
3E
102
{ACAD_REACTORS
330
3B
102
}
330
3B
100
AcDbMaterial
  1
Global
 72
     1
 94
      127
  0
MLINESTYLE
  5
18
102
{ACAD_REACTORS
330
17
102
}
330
17
100
AcDbMlineStyle
  2
Standard
 70
     0
  3

 62
   256
 51
90.0
 52
90.0
 71
     2
 49
0.5
 62
   256
  6
BYLAYER
 49
-0.5
 62
   256
  6
BYLAYER
  0
ACDBPLACEHOLDER
  5
F
102
{ACAD_REACTORS
330
E
102
}
330
E
  0
VISUALSTYLE
  5
2F
102
{ACAD_REACTORS
330
2A
102
}
102
{ACAD_XDICTIONARY
360
71
102
}
330
2A
100
AcDbVisualStyle
  2
2dWireframe
 70
     4
 71
     0
 72
     2
 73
     0
 90
        0
 40
-0.6
 41
-30.0
 62
     5
 63
     7
421
 16777215
 74
     1
 91
        4
 64
     7
 65
   257
 75
     1
175
     1
 42
1.0
 92
        0
 66
   257
 43
1.0
 76
     1
 77
     6
 78
     2
 67
     7
 79
     5
170
     0
171
     0
290
     0
174
     0
 93
        1
 44
0.0
173
     0
291
     0
 45
0.0
  0
VISUALSTYLE
  5
31
102
{ACAD_REACTORS
330
2A
102
}
102
{ACAD_XDICTIONARY
360
75
102
}
330
2A
100
AcDbVisualStyle
  2
3D Hidden
 70
     6
 71
     1
 72
     2
 73
     2
 90
        0
 40
-0.6
 41
-30.0
 62
     5
 63
     7
421
 16777215
 74
     2
 91
        2
 64
     7
 65
   257
 75
     2
175
     1
 42
40.0
 92
        0
 66
   257
 43
1.0
 76
     1
 77
     6
 78
     2
 67
     7
 79
     3
170
     0
171
     0
290
     0
174
     0
 93
        1
 44
0.0
173
     0
291
     0
 45
0.0
  0
VISUALSTYLE
  5
30
102
{ACAD_REACTORS
330
2A
102
}
102
{ACAD_XDICTIONARY
360
73
102
}
330
2A
100
AcDbVisualStyle
  2
3dWireframe
 70
     5
 71
     0
 72
     2
 73
     0
 90
        0
 40
-0.6
 41
-30.0
 62
     5
 63
     7
421
 16777215
 74
     1
 91
        4
 64
     7
 65
   257
 75
     1
175
     1
 42
1.0
 92
        0
 66
   257
 43
1.0
 76
     1
 77
     6
 78
     2
 67
     7
 79
     5
170
     0
171
     0
290
     0
174
     0
 93
        1
 44
0.0
173
     0
291
     0
 45
0.0
  0
VISUALSTYLE
  5
32
102
{ACAD_REACTORS
330
2A
102
}
102
{ACAD_XDICTIONARY
360
77
102
}
330
2A
100
AcDbVisualStyle
  2
Basic
 70
     7
 71
     1
 72
     0
 73
     1
 90
        0
 40
-0.6
 41
-30.0
 62
     5
 63
     7
421
 16777215
 74
     0
 91
        4
 64
     7
 65
   257
 75
     1
175
     1
 42
1.0
 92
        8
 66
     7
 43
1.0
 76
     1
 77
     6
 78
     2
 67
     7
 79
     5
170
     0
171
     0
290
     0
174
     0
 93
        1
 44
0.0
173
     0
291
     1
 45
0.0
  0
VISUALSTYLE
  5
36
102
{ACAD_REACTORS
330
2A
102
}
102
{ACAD_XDICTIONARY
360
7F
102
}
330
2A
100
AcDbVisualStyle
  2
Brighten
 70
    12
 71
     2
 72
     2
 73
     0
 90
        0
 40
-0.6
 41
-30.0
 62
     5
 63
     7
421
 16777215
 74
     1
 91
        4
 64
     7
 65
   257
 75
     1
175
     1
 42
1.0
 92
        8
 66
     7
 43
1.0
 76
     1
 77
     6
 78
     2
 67
     7
 79
     5
170
     0
171
     0
290
     0
174
     0
 93
        1
 44
50.0
173
     0
291
     1
 45
0.0
  0
VISUALSTYLE
  5
3A
102
{ACAD_REACTORS
330
2A
102
}
102
{ACAD_XDICTIONARY
360
87
102
}
330
2A
100
AcDbVisualStyle
  2
ColorChange
 70
    16
 71
     2
 72
     2
 73
     3
 90
        0
 40
-0.6
 41
-30.0
 62
     5
 63
     8
421
  8421504
 74
     1
 91
        4
 64
     7
 65
   257
 75
     1
175
     1
 42
1.0
 92
        8
 66
     8
424
  8421504
 43
1.0
 76
     1
 77
     6
 78
     2
 67
     7
 79
     5
170
     0
171
     0
290
     0
174
     0
 93
        1
 44
0.0
173
     0
291
     1
 45
0.0
  0
VISUALSTYLE
  5
34
102
{ACAD_REACTORS
330
2A
102
}
102
{ACAD_XDICTIONARY
360
7B
102
}
330
2A
100
AcDbVisualStyle
  2
Conceptual
 70
     9
 71
     3
 72
     2
 73
     0
 90
        0
 40
-0.6
 41
-30.0
 62
     5
 63
     7
421
 16777215
 74
     2
 91
        2
 64
     7
 65
   257
 75
     1
175
     1
 42
40.0
 92
        8
 66
     7
 43
1.0
 76
     1
 77
     6
 78
     2
 67
     7
 79
     3
170
     0
171
     0
290
     0
174
     0
 93
        1
 44
0.0
173
     0
291
     0
 45
0.0
  0
VISUALSTYLE
  5
35
102
{ACAD_REACTORS
330
2A
102
}
102
{ACAD_XDICTIONARY
360
7D
102
}
330
2A
100
AcDbVisualStyle
  2
Dim
 70
    11
 71
     2
 72
     2
 73
     0
 90
        0
 40
-0.6
 41
-30.0
 62
     5
 63
     7
421
 16777215
 74
     1
 91
        4
 64
     7
 65
   257
 75
     1
175
     1
 42
1.0
 92
        8
 66
     7
 43
1.0
 76
     1
 77
     6
 78
     2
 67
     7
 79
     5
170
     0
171
     0
290
     0
174
     0
 93
        1
 44
-50.0
173
     0
291
     1
 45
0.0
  0
VISUALSTYLE
  5
39
102
{ACAD_REACTORS
330
2A
102
}
102
{ACAD_XDICTIONARY
360
85
102
}
330
2A
100
AcDbVisualStyle
  2
Facepattern
 70
    15
 71
     2
 72
     2
 73
     0
 90
        0
 40
-0.6
 41
-30.0
 62
     5
 63
     7
421
 16777215
 74
     1
 91
        4
 64
     7
 65
   257
 75
     1
175
     1
 42
1.0
 92
        8
 66
     7
 43
1.0
 76
     1
 77
     6
 78
     2
 67
     7
 79
     5
170
     0
171
     0
290
     0
174
     0
 93
        1
 44
0.0
173
     0
291
     1
 45
0.0
  0
VISUALSTYLE
  5
2B
102
{ACAD_REACTORS
330
2A
102
}
102
{ACAD_XDICTIONARY
360
69
102
}
330
2A
100
AcDbVisualStyle
  2
Flat
 70
     0
 71
     2
 72
     1
 73
     1
 90
        2
 40
-0.6
 41
30.0
 62
     5
 63
     7
421
 16777215
 74
     0
 91
        4
 64
     7
 65
   257
 75
     1
175
     1
 42
1.0
 92
        8
 66
     7
 43
1.0
 76
     1
 77
     6
 78
     2
 67
     7
 79
     5
170
     0
171
     0
290
     0
174
     0
 93
       13
 44
0.0
173
     0
291
     1
 45
0.0
  0
VISUALSTYLE
  5
2C
102
{ACAD_REACTORS
330
2A
102
}
102
{ACAD_XDICTIONARY
360
6B
102
}
330
2A
100
AcDbVisualStyle
  2
FlatWithEdges
 70
     1
 71
     2
 72
     1
 73
     1
 90
        2
 40
-0.6
 41
30.0
 62
     5
 63
     7
421
 16777215
 74
     1
 91
        4
 64
     7
 65
   257
 75
     1
175
     1
 42
1.0
 92
        0
 66
   257
 43
1.0
 76
     1
 77
     6
 78
     2
 67
     7
 79
     5
170
     0
171
     0
290
     0
174
     0
 93
       13
 44
0.0
173
     0
291
     1
 45
0.0
  0
VISUALSTYLE
  5
2D
102
{ACAD_REACTORS
330
2A
102
}
102
{ACAD_XDICTIONARY
360
6D
102
}
330
2A
100
AcDbVisualStyle
  2
Gouraud
 70
     2
 71
     2
 72
     2
 73
     1
 90
        2
 40
-0.6
 41
30.0
 62
     5
 63
     7
421
 16777215
 74
     0
 91
        4
 64
     7
 65
   257
 75
     1
175
     1
 42
1.0
 92
        0
 66
     7
 43
1.0
 76
     1
 77
     6
 78
     2
 67
     7
 79
     5
170
     0
171
     0
290
     0
174
     0
 93
       13
 44
0.0
173
     0
291
     1
 45
0.0
  0
VISUALSTYLE
  5
2E
102
{ACAD_REACTORS
330
2A
102
}
102
{ACAD_XDICTIONARY
360
6F
102
}
330
2A
100
AcDbVisualStyle
  2
GouraudWithEdges
 70
     3
 71
     2
 72
     2
 73
     1
 90
        2
 40
-0.6
 41
30.0
 62
     5
 63
     7
421
 16777215
 74
     1
 91
        4
 64
     7
 65
   257
 75
     1
175
     1
 42
1.0
 92
        0
 66
   257
 43
1.0
 76
     1
 77
     6
 78
     2
 67
     7
 79
     5
170
     0
171
     0
290
     0
174
     0
 93
       13
 44
0.0
173
     0
291
     1
 45
0.0
  0
VISUALSTYLE
  5
38
102
{ACAD_REACTORS
330
2A
102
}
102
{ACAD_XDICTIONARY
360
83
102
}
330
2A
100
AcDbVisualStyle
  2
Linepattern
 70
    14
 71
     2
 72
     2
 73
     0
 90
        0
 40
-0.6
 41
-30.0
 62
     5
 63
     7
421
 16777215
 74
     1
 91
        4
 64
     7
 65
   257
 75
     7
175
     7
 42
1.0
 92
        8
 66
     7
 43
1.0
 76
     1
 77
     6
 78
     2
 67
     7
 79
     5
170
     0
171
     0
290
     0
174
     0
 93
        1
 44
0.0
173
     0
291
     1
 45
0.0
  0
VISUALSTYLE
  5
33
102
{ACAD_REACTORS
330
2A
102
}
102
{ACAD_XDICTIONARY
360
79
102
}
330
2A
100
AcDbVisualStyle
  2
Realistic
 70
     8
 71
     2
 72
     2
 73
     0
 90
        0
 40
-0.6
 41
-30.0
 62
     5
 63
     7
421
 16777215
 74
     1
 91
        0
 64
     7
 65
   257
 75
     1
175
     1
 42
1.0
 92
        8
 66
     8
424
  7895160
 43
1.0
 76
     1
 77
     6
 78
     2
 67
     7
 79
     5
170
     0
171
     0
290
     0
174
     0
 93
       13
 44
0.0
173
     0
291
     0
 45
0.0
  0
VISUALSTYLE
  5
37
102
{ACAD_REACTORS
330
2A
102
}
102
{ACAD_XDICTIONARY
360
81
102
}
330
2A
100
AcDbVisualStyle
  2
Thicken
 70
    13
 71
     2
 72
     2
 73
     0
 90
        0
 40
-0.6
 41
-30.0
 62
     5
 63
     7
421
 16777215
 74
     1
 91
        4
 64
     7
 65
   257
 75
     1
175
     1
 42
1.0
 92
       12
 66
     7
 43
1.0
 76
     1
 77
     6
 78
     2
 67
     7
 79
     5
170
     0
171
     0
290
     0
174
     0
 93
        1
 44
0.0
173
     0
291
     1
 45
0.0
  0
DICTIONARY
  5
71
330
2F
100
AcDbDictionary
280
     1
281
     1
  3
ACAD_XREC_ROUNDTRIP
360
72
  0
DICTIONARY
  5
75
330
31
100
AcDbDictionary
280
     1
281
     1
  3
ACAD_XREC_ROUNDTRIP
360
76
  0
DICTIONARY
  5
73
330
30
100
AcDbDictionary
280
     1
281
     1
  3
ACAD_XREC_ROUNDTRIP
360
74
  0
DICTIONARY
  5
77
330
32
100
AcDbDictionary
280
     1
281
     1
  3
ACAD_XREC_ROUNDTRIP
360
78
  0
DICTIONARY
  5
7F
330
36
100
AcDbDictionary
280
     1
281
     1
  3
ACAD_XREC_ROUNDTRIP
360
80
  0
DICTIONARY
  5
87
330
3A
100
AcDbDictionary
280
     1
281
     1
  3
ACAD_XREC_ROUNDTRIP
360
88
  0
DICTIONARY
  5
7B
330
34
100
AcDbDictionary
280
     1
281
     1
  3
ACAD_XREC_ROUNDTRIP
360
7C
  0
DICTIONARY
  5
7D
330
35
100
AcDbDictionary
280
     1
281
     1
  3
ACAD_XREC_ROUNDTRIP
360
7E
  0
DICTIONARY
  5
85
330
39
100
AcDbDictionary
280
     1
281
     1
  3
ACAD_XREC_ROUNDTRIP
360
86
  0
DICTIONARY
  5
69
330
2B
100
AcDbDictionary
280
     1
281
     1
  3
ACAD_XREC_ROUNDTRIP
360
6A
  0
DICTIONARY
  5
6B
330
2C
100
AcDbDictionary
280
     1
281
     1
  3
ACAD_XREC_ROUNDTRIP
360
6C
  0
DICTIONARY
  5
6D
330
2D
100
AcDbDictionary
280
     1
281
     1
  3
ACAD_XREC_ROUNDTRIP
360
6E
  0
DICTIONARY
  5
6F
330
2E
100
AcDbDictionary
280
     1
281
     1
  3
ACAD_XREC_ROUNDTRIP
360
70
  0
DICTIONARY
  5
83
330
38
100
AcDbDictionary
280
     1
281
     1
  3
ACAD_XREC_ROUNDTRIP
360
84
  0
DICTIONARY
  5
79
330
33
100
AcDbDictionary
280
     1
281
     1
  3
ACAD_XREC_ROUNDTRIP
360
7A
  0
DICTIONARY
  5
81
330
37
100
AcDbDictionary
280
     1
281
     1
  3
ACAD_XREC_ROUNDTRIP
360
82
  0
XRECORD
  5
72
102
{ACAD_REACTORS
330
71
102
}
330
71
100
AcDbXrecord
280
     1
102
RTVSPropertyOp0
 70
     1
102
RTVSPropertyOp1
 70
     1
102
RTVSPropertyOp2
 70
     1
102
RTVSPropertyOp3
 70
     1
102
RTVSPropertyOp4
 70
     1
102
RTVSPropertyOp5
 70
     1
102
RTVSPropertyOp6
 70
     1
102
RTVSPropertyOp7
 70
     1
102
RTVSPropertyOp8
 70
     1
102
RTVSPropertyOp9
 70
     1
102
RTVSPropertyOp10
 70
     1
102
RTVSPropertyOp11
 70
     1
102
RTVSPropertyOp12
 70
     1
102
RTVSPropertyOp13
 70
     1
102
RTVSPropertyOp14
 70
     1
102
RTVSPropertyOp15
 70
     1
102
RTVSPropertyOp16
 70
     1
102
RTVSPropertyOp17
 70
     1
102
RTVSPropertyOp18
 70
     1
102
RTVSPropertyOp19
 70
     1
102
RTVSPropertyOp20
 70
     1
102
RTVSPropertyOp21
 70
     1
102
RTVSPropertyOp22
 70
     1
102
RTVSPropertyOp23
 70
     1
102
RTVSPropertyOp24
 70
     1
102
RTVSPropertyOp25
 70
     1
102
RTVSPropertyOp26
 70
     1
102
RTVSPropertyOp27
 70
     1
102
RTVSPropertyOp28
 70
     1
102
RTVSPropertyOp29
 70
     1
102
RTVSPropertyOp30
 70
     1
102
RTVSPropertyOp31
 70
     1
102
RTVSPropertyOp32
 70
     1
  0
XRECORD
  5
76
102
{ACAD_REACTORS
330
75
102
}
330
75
100
AcDbXrecord
280
     1
102
RTVSPropertyOp0
 70
     1
102
RTVSPropertyOp1
 70
     1
102
RTVSPropertyOp2
 70
     1
102
RTVSPropertyOp3
 70
     1
102
RTVSPropertyOp4
 70
     1
102
RTVSPropertyOp5
 70
     1
102
RTVSPropertyOp6
 70
     1
102
RTVSPropertyOp7
 70
     1
102
RTVSPropertyOp8
 70
     1
102
RTVSPropertyOp9
 70
     1
102
RTVSPropertyOp10
 70
     1
102
RTVSPropertyOp11
 70
     1
102
RTVSPropertyOp12
 70
     1
102
RTVSPropertyOp13
 70
     1
102
RTVSPropertyOp14
 70
     1
102
RTVSPropertyOp15
 70
     1
102
RTVSPropertyOp16
 70
     1
102
RTVSPropertyOp17
 70
     1
102
RTVSPropertyOp18
 70
     1
102
RTVSPropertyOp19
 70
     1
102
RTVSPropertyOp20
 70
     1
102
RTVSPropertyOp21
 70
     1
102
RTVSPropertyOp22
 70
     1
102
RTVSPropertyOp23
 70
     1
102
RTVSPropertyOp24
 70
     1
102
RTVSPropertyOp25
 70
     1
102
RTVSPropertyOp26
 70
     1
102
RTVSPropertyOp27
 70
     1
102
RTVSPropertyOp28
 70
     1
102
RTVSPropertyOp29
 70
     1
102
RTVSPropertyOp30
 70
     1
102
RTVSPropertyOp31
 70
     1
102
RTVSPropertyOp32
 70
     1
  0
XRECORD
  5
74
102
{ACAD_REACTORS
330
73
102
}
330
73
100
AcDbXrecord
280
     1
102
RTVSPropertyOp0
 70
     1
102
RTVSPropertyOp1
 70
     1
102
RTVSPropertyOp2
 70
     1
102
RTVSPropertyOp3
 70
     1
102
RTVSPropertyOp4
 70
     1
102
RTVSPropertyOp5
 70
     1
102
RTVSPropertyOp6
 70
     1
102
RTVSPropertyOp7
 70
     1
102
RTVSPropertyOp8
 70
     1
102
RTVSPropertyOp9
 70
     1
102
RTVSPropertyOp10
 70
     1
102
RTVSPropertyOp11
 70
     1
102
RTVSPropertyOp12
 70
     1
102
RTVSPropertyOp13
 70
     1
102
RTVSPropertyOp14
 70
     1
102
RTVSPropertyOp15
 70
     1
102
RTVSPropertyOp16
 70
     1
102
RTVSPropertyOp17
 70
     1
102
RTVSPropertyOp18
 70
     1
102
RTVSPropertyOp19
 70
     1
102
RTVSPropertyOp20
 70
     1
102
RTVSPropertyOp21
 70
     1
102
RTVSPropertyOp22
 70
     1
102
RTVSPropertyOp23
 70
     1
102
RTVSPropertyOp24
 70
     1
102
RTVSPropertyOp25
 70
     1
102
RTVSPropertyOp26
 70
     1
102
RTVSPropertyOp27
 70
     1
102
RTVSPropertyOp28
 70
     1
102
RTVSPropertyOp29
 70
     1
102
RTVSPropertyOp30
 70
     1
102
RTVSPropertyOp31
 70
     1
102
RTVSPropertyOp32
 70
     1
  0
XRECORD
  5
78
102
{ACAD_REACTORS
330
77
102
}
330
77
100
AcDbXrecord
280
     1
102
RTVSPropertyOp0
 70
     1
102
RTVSPropertyOp1
 70
     1
102
RTVSPropertyOp2
 70
     1
102
RTVSPropertyOp3
 70
     1
102
RTVSPropertyOp4
 70
     1
102
RTVSPropertyOp5
 70
     1
102
RTVSPropertyOp6
 70
     1
102
RTVSPropertyOp7
 70
     1
102
RTVSPropertyOp8
 70
     1
102
RTVSPropertyOp9
 70
     1
102
RTVSPropertyOp10
 70
     1
102
RTVSPropertyOp11
 70
     1
102
RTVSPropertyOp12
 70
     1
102
RTVSPropertyOp13
 70
     1
102
RTVSPropertyOp14
 70
     1
102
RTVSPropertyOp15
 70
     1
102
RTVSPropertyOp16
 70
     1
102
RTVSPropertyOp17
 70
     1
102
RTVSPropertyOp18
 70
     1
102
RTVSPropertyOp19
 70
     1
102
RTVSPropertyOp20
 70
     1
102
RTVSPropertyOp21
 70
     1
102
RTVSPropertyOp22
 70
     1
102
RTVSPropertyOp23
 70
     1
102
RTVSPropertyOp24
 70
     1
102
RTVSPropertyOp25
 70
     1
102
RTVSPropertyOp26
 70
     1
102
RTVSPropertyOp27
 70
     1
102
RTVSPropertyOp28
 70
     1
102
RTVSPropertyOp29
 70
     1
102
RTVSPropertyOp30
 70
     1
102
RTVSPropertyOp31
 70
     1
102
RTVSPropertyOp32
 70
     1
  0
XRECORD
  5
80
102
{ACAD_REACTORS
330
7F
102
}
330
7F
100
AcDbXrecord
280
     1
102
RTVSPropertyOp0
 70
     1
102
RTVSPropertyOp1
 70
     1
102
RTVSPropertyOp2
 70
     1
102
RTVSPropertyOp3
 70
     1
102
RTVSPropertyOp4
 70
     1
102
RTVSPropertyOp5
 70
     1
102
RTVSPropertyOp6
 70
     1
102
RTVSPropertyOp7
 70
     1
102
RTVSPropertyOp8
 70
     1
102
RTVSPropertyOp9
 70
     1
102
RTVSPropertyOp10
 70
     1
102
RTVSPropertyOp11
 70
     1
102
RTVSPropertyOp12
 70
     1
102
RTVSPropertyOp13
 70
     1
102
RTVSPropertyOp14
 70
     1
102
RTVSPropertyOp15
 70
     1
102
RTVSPropertyOp16
 70
     1
102
RTVSPropertyOp17
 70
     1
102
RTVSPropertyOp18
 70
     1
102
RTVSPropertyOp19
 70
     1
102
RTVSPropertyOp20
 70
     1
102
RTVSPropertyOp21
 70
     1
102
RTVSPropertyOp22
 70
     1
102
RTVSPropertyOp23
 70
     1
102
RTVSPropertyOp24
 70
     1
102
RTVSPropertyOp25
 70
     1
102
RTVSPropertyOp26
 70
     1
102
RTVSPropertyOp27
 70
     1
102
RTVSPropertyOp28
 70
     1
102
RTVSPropertyOp29
 70
     1
102
RTVSPropertyOp30
 70
     1
102
RTVSPropertyOp31
 70
     1
102
RTVSPropertyOp32
 70
     1
  0
XRECORD
  5
88
102
{ACAD_REACTORS
330
87
102
}
330
87
100
AcDbXrecord
280
     1
102
RTVSPropertyOp0
 70
     1
102
RTVSPropertyOp1
 70
     1
102
RTVSPropertyOp2
 70
     1
102
RTVSPropertyOp3
 70
     1
102
RTVSPropertyOp4
 70
     1
102
RTVSPropertyOp5
 70
     1
102
RTVSPropertyOp6
 70
     1
102
RTVSPropertyOp7
 70
     1
102
RTVSPropertyOp8
 70
     1
102
RTVSPropertyOp9
 70
     1
102
RTVSPropertyOp10
 70
     1
102
RTVSPropertyOp11
 70
     1
102
RTVSPropertyOp12
 70
     1
102
RTVSPropertyOp13
 70
     1
102
RTVSPropertyOp14
 70
     1
102
RTVSPropertyOp15
 70
     1
102
RTVSPropertyOp16
 70
     1
102
RTVSPropertyOp17
 70
     1
102
RTVSPropertyOp18
 70
     1
102
RTVSPropertyOp19
 70
     1
102
RTVSPropertyOp20
 70
     1
102
RTVSPropertyOp21
 70
     1
102
RTVSPropertyOp22
 70
     1
102
RTVSPropertyOp23
 70
     1
102
RTVSPropertyOp24
 70
     1
102
RTVSPropertyOp25
 70
     1
102
RTVSPropertyOp26
 70
     1
102
RTVSPropertyOp27
 70
     1
102
RTVSPropertyOp28
 70
     1
102
RTVSPropertyOp29
 70
     1
102
RTVSPropertyOp30
 70
     1
102
RTVSPropertyOp31
 70
     1
102
RTVSPropertyOp32
 70
     1
  0
XRECORD
  5
7C
102
{ACAD_REACTORS
330
7B
102
}
330
7B
100
AcDbXrecord
280
     1
102
RTVSPropertyOp0
 70
     1
102
RTVSPropertyOp1
 70
     1
102
RTVSPropertyOp2
 70
     1
102
RTVSPropertyOp3
 70
     1
102
RTVSPropertyOp4
 70
     1
102
RTVSPropertyOp5
 70
     1
102
RTVSPropertyOp6
 70
     1
102
RTVSPropertyOp7
 70
     1
102
RTVSPropertyOp8
 70
     1
102
RTVSPropertyOp9
 70
     1
102
RTVSPropertyOp10
 70
     1
102
RTVSPropertyOp11
 70
     1
102
RTVSPropertyOp12
 70
     1
102
RTVSPropertyOp13
 70
     1
102
RTVSPropertyOp14
 70
     1
102
RTVSPropertyOp15
 70
     1
102
RTVSPropertyOp16
 70
     1
102
RTVSPropertyOp17
 70
     1
102
RTVSPropertyOp18
 70
     1
102
RTVSPropertyOp19
 70
     1
102
RTVSPropertyOp20
 70
     1
102
RTVSPropertyOp21
 70
     1
102
RTVSPropertyOp22
 70
     1
102
RTVSPropertyOp23
 70
     1
102
RTVSPropertyOp24
 70
     1
102
RTVSPropertyOp25
 70
     1
102
RTVSPropertyOp26
 70
     1
102
RTVSPropertyOp27
 70
     1
102
RTVSPropertyOp28
 70
     1
102
RTVSPropertyOp29
 70
     1
102
RTVSPropertyOp30
 70
     1
102
RTVSPropertyOp31
 70
     1
102
RTVSPropertyOp32
 70
     1
  0
XRECORD
  5
7E
102
{ACAD_REACTORS
330
7D
102
}
330
7D
100
AcDbXrecord
280
     1
102
RTVSPropertyOp0
 70
     1
102
RTVSPropertyOp1
 70
     1
102
RTVSPropertyOp2
 70
     1
102
RTVSPropertyOp3
 70
     1
102
RTVSPropertyOp4
 70
     1
102
RTVSPropertyOp5
 70
     1
102
RTVSPropertyOp6
 70
     1
102
RTVSPropertyOp7
 70
     1
102
RTVSPropertyOp8
 70
     1
102
RTVSPropertyOp9
 70
     1
102
RTVSPropertyOp10
 70
     1
102
RTVSPropertyOp11
 70
     1
102
RTVSPropertyOp12
 70
     1
102
RTVSPropertyOp13
 70
     1
102
RTVSPropertyOp14
 70
     1
102
RTVSPropertyOp15
 70
     1
102
RTVSPropertyOp16
 70
     1
102
RTVSPropertyOp17
 70
     1
102
RTVSPropertyOp18
 70
     1
102
RTVSPropertyOp19
 70
     1
102
RTVSPropertyOp20
 70
     1
102
RTVSPropertyOp21
 70
     1
102
RTVSPropertyOp22
 70
     1
102
RTVSPropertyOp23
 70
     1
102
RTVSPropertyOp24
 70
     1
102
RTVSPropertyOp25
 70
     1
102
RTVSPropertyOp26
 70
     1
102
RTVSPropertyOp27
 70
     1
102
RTVSPropertyOp28
 70
     1
102
RTVSPropertyOp29
 70
     1
102
RTVSPropertyOp30
 70
     1
102
RTVSPropertyOp31
 70
     1
102
RTVSPropertyOp32
 70
     1
  0
XRECORD
  5
86
102
{ACAD_REACTORS
330
85
102
}
330
85
100
AcDbXrecord
280
     1
102
RTVSPropertyOp0
 70
     1
102
RTVSPropertyOp1
 70
     1
102
RTVSPropertyOp2
 70
     1
102
RTVSPropertyOp3
 70
     1
102
RTVSPropertyOp4
 70
     1
102
RTVSPropertyOp5
 70
     1
102
RTVSPropertyOp6
 70
     1
102
RTVSPropertyOp7
 70
     1
102
RTVSPropertyOp8
 70
     1
102
RTVSPropertyOp9
 70
     1
102
RTVSPropertyOp10
 70
     1
102
RTVSPropertyOp11
 70
     1
102
RTVSPropertyOp12
 70
     1
102
RTVSPropertyOp13
 70
     1
102
RTVSPropertyOp14
 70
     1
102
RTVSPropertyOp15
 70
     1
102
RTVSPropertyOp16
 70
     1
102
RTVSPropertyOp17
 70
     1
102
RTVSPropertyOp18
 70
     1
102
RTVSPropertyOp19
 70
     1
102
RTVSPropertyOp20
 70
     1
102
RTVSPropertyOp21
 70
     1
102
RTVSPropertyOp22
 70
     1
102
RTVSPropertyOp23
 70
     1
102
RTVSPropertyOp24
 70
     1
102
RTVSPropertyOp25
 70
     1
102
RTVSPropertyOp26
 70
     1
102
RTVSPropertyOp27
 70
     1
102
RTVSPropertyOp28
 70
     1
102
RTVSPropertyOp29
 70
     1
102
RTVSPropertyOp30
 70
     1
102
RTVSPropertyOp31
 70
     1
102
RTVSPropertyOp32
 70
     1
  0
XRECORD
  5
6A
102
{ACAD_REACTORS
330
69
102
}
330
69
100
AcDbXrecord
280
     1
102
RTVSPropertyOp0
 70
     1
102
RTVSPropertyOp1
 70
     1
102
RTVSPropertyOp2
 70
     1
102
RTVSPropertyOp3
 70
     1
102
RTVSPropertyOp4
 70
     1
102
RTVSPropertyOp5
 70
     1
102
RTVSPropertyOp6
 70
     1
102
RTVSPropertyOp7
 70
     1
102
RTVSPropertyOp8
 70
     1
102
RTVSPropertyOp9
 70
     1
102
RTVSPropertyOp10
 70
     1
102
RTVSPropertyOp11
 70
     1
102
RTVSPropertyOp12
 70
     1
102
RTVSPropertyOp13
 70
     1
102
RTVSPropertyOp14
 70
     1
102
RTVSPropertyOp15
 70
     1
102
RTVSPropertyOp16
 70
     1
102
RTVSPropertyOp17
 70
     1
102
RTVSPropertyOp18
 70
     1
102
RTVSPropertyOp19
 70
     1
102
RTVSPropertyOp20
 70
     1
102
RTVSPropertyOp21
 70
     1
102
RTVSPropertyOp22
 70
     1
102
RTVSPropertyOp23
 70
     1
102
RTVSPropertyOp24
 70
     1
102
RTVSPropertyOp25
 70
     1
102
RTVSPropertyOp26
 70
     1
102
RTVSPropertyOp27
 70
     1
102
RTVSPropertyOp28
 70
     1
102
RTVSPropertyOp29
 70
     1
102
RTVSPropertyOp30
 70
     1
102
RTVSPropertyOp31
 70
     1
102
RTVSPropertyOp32
 70
     1
  0
XRECORD
  5
6C
102
{ACAD_REACTORS
330
6B
102
}
330
6B
100
AcDbXrecord
280
     1
102
RTVSPropertyOp0
 70
     1
102
RTVSPropertyOp1
 70
     1
102
RTVSPropertyOp2
 70
     1
102
RTVSPropertyOp3
 70
     1
102
RTVSPropertyOp4
 70
     1
102
RTVSPropertyOp5
 70
     1
102
RTVSPropertyOp6
 70
     1
102
RTVSPropertyOp7
 70
     1
102
RTVSPropertyOp8
 70
     1
102
RTVSPropertyOp9
 70
     1
102
RTVSPropertyOp10
 70
     1
102
RTVSPropertyOp11
 70
     1
102
RTVSPropertyOp12
 70
     1
102
RTVSPropertyOp13
 70
     1
102
RTVSPropertyOp14
 70
     1
102
RTVSPropertyOp15
 70
     1
102
RTVSPropertyOp16
 70
     1
102
RTVSPropertyOp17
 70
     1
102
RTVSPropertyOp18
 70
     1
102
RTVSPropertyOp19
 70
     1
102
RTVSPropertyOp20
 70
     1
102
RTVSPropertyOp21
 70
     1
102
RTVSPropertyOp22
 70
     1
102
RTVSPropertyOp23
 70
     1
102
RTVSPropertyOp24
 70
     1
102
RTVSPropertyOp25
 70
     1
102
RTVSPropertyOp26
 70
     1
102
RTVSPropertyOp27
 70
     1
102
RTVSPropertyOp28
 70
     1
102
RTVSPropertyOp29
 70
     1
102
RTVSPropertyOp30
 70
     1
102
RTVSPropertyOp31
 70
     1
102
RTVSPropertyOp32
 70
     1
  0
XRECORD
  5
6E
102
{ACAD_REACTORS
330
6D
102
}
330
6D
100
AcDbXrecord
280
     1
102
RTVSPropertyOp0
 70
     1
102
RTVSPropertyOp1
 70
     1
102
RTVSPropertyOp2
 70
     1
102
RTVSPropertyOp3
 70
     1
102
RTVSPropertyOp4
 70
     1
102
RTVSPropertyOp5
 70
     1
102
RTVSPropertyOp6
 70
     1
102
RTVSPropertyOp7
 70
     1
102
RTVSPropertyOp8
 70
     1
102
RTVSPropertyOp9
 70
     1
102
RTVSPropertyOp10
 70
     1
102
RTVSPropertyOp11
 70
     1
102
RTVSPropertyOp12
 70
     1
102
RTVSPropertyOp13
 70
     1
102
RTVSPropertyOp14
 70
     1
102
RTVSPropertyOp15
 70
     1
102
RTVSPropertyOp16
 70
     1
102
RTVSPropertyOp17
 70
     1
102
RTVSPropertyOp18
 70
     1
102
RTVSPropertyOp19
 70
     1
102
RTVSPropertyOp20
 70
     1
102
RTVSPropertyOp21
 70
     1
102
RTVSPropertyOp22
 70
     1
102
RTVSPropertyOp23
 70
     1
102
RTVSPropertyOp24
 70
     1
102
RTVSPropertyOp25
 70
     1
102
RTVSPropertyOp26
 70
     1
102
RTVSPropertyOp27
 70
     1
102
RTVSPropertyOp28
 70
     1
102
RTVSPropertyOp29
 70
     1
102
RTVSPropertyOp30
 70
     1
102
RTVSPropertyOp31
 70
     1
102
RTVSPropertyOp32
 70
     1
  0
XRECORD
  5
70
102
{ACAD_REACTORS
330
6F
102
}
330
6F
100
AcDbXrecord
280
     1
102
RTVSPropertyOp0
 70
     1
102
RTVSPropertyOp1
 70
     1
102
RTVSPropertyOp2
 70
     1
102
RTVSPropertyOp3
 70
     1
102
RTVSPropertyOp4
 70
     1
102
RTVSPropertyOp5
 70
     1
102
RTVSPropertyOp6
 70
     1
102
RTVSPropertyOp7
 70
     1
102
RTVSPropertyOp8
 70
     1
102
RTVSPropertyOp9
 70
     1
102
RTVSPropertyOp10
 70
     1
102
RTVSPropertyOp11
 70
     1
102
RTVSPropertyOp12
 70
     1
102
RTVSPropertyOp13
 70
     1
102
RTVSPropertyOp14
 70
     1
102
RTVSPropertyOp15
 70
     1
102
RTVSPropertyOp16
 70
     1
102
RTVSPropertyOp17
 70
     1
102
RTVSPropertyOp18
 70
     1
102
RTVSPropertyOp19
 70
     1
102
RTVSPropertyOp20
 70
     1
102
RTVSPropertyOp21
 70
     1
102
RTVSPropertyOp22
 70
     1
102
RTVSPropertyOp23
 70
     1
102
RTVSPropertyOp24
 70
     1
102
RTVSPropertyOp25
 70
     1
102
RTVSPropertyOp26
 70
     1
102
RTVSPropertyOp27
 70
     1
102
RTVSPropertyOp28
 70
     1
102
RTVSPropertyOp29
 70
     1
102
RTVSPropertyOp30
 70
     1
102
RTVSPropertyOp31
 70
     1
102
RTVSPropertyOp32
 70
     1
  0
XRECORD
  5
84
102
{ACAD_REACTORS
330
83
102
}
330
83
100
AcDbXrecord
280
     1
102
RTVSPropertyOp0
 70
     1
102
RTVSPropertyOp1
 70
     1
102
RTVSPropertyOp2
 70
     1
102
RTVSPropertyOp3
 70
     1
102
RTVSPropertyOp4
 70
     1
102
RTVSPropertyOp5
 70
     1
102
RTVSPropertyOp6
 70
     1
102
RTVSPropertyOp7
 70
     1
102
RTVSPropertyOp8
 70
     1
102
RTVSPropertyOp9
 70
     1
102
RTVSPropertyOp10
 70
     1
102
RTVSPropertyOp11
 70
     1
102
RTVSPropertyOp12
 70
     1
102
RTVSPropertyOp13
 70
     1
102
RTVSPropertyOp14
 70
     1
102
RTVSPropertyOp15
 70
     1
102
RTVSPropertyOp16
 70
     1
102
RTVSPropertyOp17
 70
     1
102
RTVSPropertyOp18
 70
     1
102
RTVSPropertyOp19
 70
     1
102
RTVSPropertyOp20
 70
     1
102
RTVSPropertyOp21
 70
     1
102
RTVSPropertyOp22
 70
     1
102
RTVSPropertyOp23
 70
     1
102
RTVSPropertyOp24
 70
     1
102
RTVSPropertyOp25
 70
     1
102
RTVSPropertyOp26
 70
     1
102
RTVSPropertyOp27
 70
     1
102
RTVSPropertyOp28
 70
     1
102
RTVSPropertyOp29
 70
     1
102
RTVSPropertyOp30
 70
     1
102
RTVSPropertyOp31
 70
     1
102
RTVSPropertyOp32
 70
     1
  0
XRECORD
  5
7A
102
{ACAD_REACTORS
330
79
102
}
330
79
100
AcDbXrecord
280
     1
102
RTVSPropertyOp0
 70
     1
102
RTVSPropertyOp1
 70
     1
102
RTVSPropertyOp2
 70
     1
102
RTVSPropertyOp3
 70
     1
102
RTVSPropertyOp4
 70
     1
102
RTVSPropertyOp5
 70
     1
102
RTVSPropertyOp6
 70
     1
102
RTVSPropertyOp7
 70
     1
102
RTVSPropertyOp8
 70
     1
102
RTVSPropertyOp9
 70
     1
102
RTVSPropertyOp10
 70
     1
102
RTVSPropertyOp11
 70
     1
102
RTVSPropertyOp12
 70
     1
102
RTVSPropertyOp13
 70
     1
102
RTVSPropertyOp14
 70
     1
102
RTVSPropertyOp15
 70
     1
102
RTVSPropertyOp16
 70
     1
102
RTVSPropertyOp17
 70
     1
102
RTVSPropertyOp18
 70
     1
102
RTVSPropertyOp19
 70
     1
102
RTVSPropertyOp20
 70
     1
102
RTVSPropertyOp21
 70
     1
102
RTVSPropertyOp22
 70
     1
102
RTVSPropertyOp23
 70
     1
102
RTVSPropertyOp24
 70
     1
102
RTVSPropertyOp25
 70
     1
102
RTVSPropertyOp26
 70
     1
102
RTVSPropertyOp27
 70
     1
102
RTVSPropertyOp28
 70
     1
102
RTVSPropertyOp29
 70
     1
102
RTVSPropertyOp30
 70
     1
102
RTVSPropertyOp31
 70
     1
102
RTVSPropertyOp32
 70
     1
  0
XRECORD
  5
82
102
{ACAD_REACTORS
330
81
102
}
330
81
100
AcDbXrecord
280
     1
102
RTVSPropertyOp0
 70
     1
102
RTVSPropertyOp1
 70
     1
102
RTVSPropertyOp2
 70
     1
102
RTVSPropertyOp3
 70
     1
102
RTVSPropertyOp4
 70
     1
102
RTVSPropertyOp5
 70
     1
102
RTVSPropertyOp6
 70
     1
102
RTVSPropertyOp7
 70
     1
102
RTVSPropertyOp8
 70
     1
102
RTVSPropertyOp9
 70
     1
102
RTVSPropertyOp10
 70
     1
102
RTVSPropertyOp11
 70
     1
102
RTVSPropertyOp12
 70
     1
102
RTVSPropertyOp13
 70
     1
102
RTVSPropertyOp14
 70
     1
102
RTVSPropertyOp15
 70
     1
102
RTVSPropertyOp16
 70
     1
102
RTVSPropertyOp17
 70
     1
102
RTVSPropertyOp18
 70
     1
102
RTVSPropertyOp19
 70
     1
102
RTVSPropertyOp20
 70
     1
102
RTVSPropertyOp21
 70
     1
102
RTVSPropertyOp22
 70
     1
102
RTVSPropertyOp23
 70
     1
102
RTVSPropertyOp24
 70
     1
102
RTVSPropertyOp25
 70
     1
102
RTVSPropertyOp26
 70
     1
102
RTVSPropertyOp27
 70
     1
102
RTVSPropertyOp28
 70
     1
102
RTVSPropertyOp29
 70
     1
102
RTVSPropertyOp30
 70
     1
102
RTVSPropertyOp31
 70
     1
102
RTVSPropertyOp32
 70
     1
  0
ENDSEC
  0
EOF
