  0
SECTION
  2
HEADER
  9
$ACADVER
  1
AC1021
  9
$ACADMAINTVER
 70
    25
  9
$DWGCODEPAGE
  3
ANSI_1252
  9
$INSBASE
 10
0.0
 20
0.0
 30
0.0
  9
$EXTMIN
 10
13.5749
 20
-115.1172
 30
0.0
  9
$EXTMAX
 10
196.451
 20
131.933
 30
0.0
  9
$LIMMIN
 10
0.0
 20
0.0
  9
$LIMMAX
 10
12.0
 20
9.0
  9
$ORTHOMODE
 70
     0
  9
$REGENMODE
 70
     1
  9
$FILLMODE
 70
     1
  9
$QTEXTMODE
 70
     0
  9
$MIRRTEXT
 70
     1
  9
$LTSCALE
 40
1.0
  9
$ATTMODE
 70
     1
  9
$TEXTSIZE
 40
0.2
  9
$TRACEWID
 40
0.05
  9
$TEXTSTYLE
  7
Standard
  9
$CLAYER
  8
0
  9
$CELTYPE
  6
ByLayer
  9
$CECOLOR
 62
   256
  9
$CELTSCALE
 40
1.0
  9
$DISPSILH
 70
     0
  9
$DIMSCALE
 40
1.0
  9
$DIMASZ
 40
0.18
  9
$DIMEXO
 40
0.0625
  9
$DIMDLI
 40
0.38
  9
$DIMRND
 40
0.0
  9
$DIMDLE
 40
0.0
  9
$DIMEXE
 40
0.18
  9
$DIMTP
 40
0.0
  9
$DIMTM
 40
0.0
  9
$DIMTXT
 40
0.18
  9
$DIMCEN
 40
0.09
  9
$DIMTSZ
 40
0.0
  9
$DIMTOL
 70
     0
  9
$DIMLIM
 70
     0
  9
$DIMTIH
 70
     1
  9
$DIMTOH
 70
     1
  9
$DIMSE1
 70
     0
  9
$DIMSE2
 70
     0
  9
$DIMTAD
 70
     0
  9
$DIMZIN
 70
     0
  9
$DIMBLK
  1

  9
$DIMASO
 70
     1
  9
$DIMSHO
 70
     1
  9
$DIMPOST
  1

  9
$DIMAPOST
  1

  9
$DIMALT
 70
     0
  9
$DIMALTD
 70
     2
  9
$DIMALTF
 40
25.4
  9
$DIMLFAC
 40
1.0
  9
$DIMTOFL
 70
     0
  9
$DIMTVP
 40
0.0
  9
$DIMTIX
 70
     0
  9
$DIMSOXD
 70
     0
  9
$DIMSAH
 70
     0
  9
$DIMBLK1
  1

  9
$DIMBLK2
  1

  9
$DIMSTYLE
  2
Standard
  9
$DIMCLRD
 70
     0
  9
$DIMCLRE
 70
     0
  9
$DIMCLRT
 70
     0
  9
$DIMTFAC
 40
1.0
  9
$DIMGAP
 40
0.09
  9
$DIMJUST
 70
     0
  9
$DIMSD1
 70
     0
  9
$DIMSD2
 70
     0
  9
$DIMTOLJ
 70
     1
  9
$DIMTZIN
 70
     0
  9
$DIMALTZ
 70
     0
  9
$DIMALTTZ
 70
     0
  9
$DIMUPT
 70
     0
  9
$DIMDEC
 70
     4
  9
$DIMTDEC
 70
     4
  9
$DIMALTU
 70
     2
  9
$DIMALTTD
 70
     2
  9
$DIMTXSTY
  7
Standard
  9
$DIMAUNIT
 70
     0
  9
$DIMADEC
 70
     0
  9
$DIMALTRND
 40
0.0
  9
$DIMAZIN
 70
     0
  9
$DIMDSEP
 70
    46
  9
$DIMATFIT
 70
     3
  9
$DIMFRAC
 70
     0
  9
$DIMLDRBLK
  1

  9
$DIMLUNIT
 70
     2
  9
$DIMLWD
 70
    -2
  9
$DIMLWE
 70
    -2
  9
$DIMTMOVE
 70
     0
  9
$DIMFXL
 40
1.0
  9
$DIMFXLON
 70
     0
  9
$DIMJOGANG
 40
0.7853981633974483
  9
$DIMTFILL
 70
     0
  9
$DIMTFILLCLR
 70
     0
  9
$DIMARCSYM
 70
     0
  9
$DIMLTYPE
  6

  9
$DIMLTEX1
  6

  9
$DIMLTEX2
  6

  9
$LUNITS
 70
     2
  9
$LUPREC
 70
     4
  9
$SKETCHINC
 40
0.1
  9
$FILLETRAD
 40
0.5
  9
$AUNITS
 70
     0
  9
$AUPREC
 70
     0
  9
$MENU
  1
.
  9
$ELEVATION
 40
0.0
  9
$PELEVATION
 40
0.0
  9
$THICKNESS
 40
0.0
  9
$LIMCHECK
 70
     0
  9
$CHAMFERA
 40
0.5
  9
$CHAMFERB
 40
0.5
  9
$CHAMFERC
 40
1.0
  9
$CHAMFERD
 40
0.0
  9
$SKPOLY
 70
     0
  9
$TDCREATE
 40
2458493.672545683
  9
$TDUCREATE
 40
2458493.672545683
  9
$TDUPDATE
 40
2458493.672545799
  9
$TDUUPDATE
 40
2458493.672545799
  9
$TDINDWG
 40
0.0000000116
  9
$TDUSRTIMER
 40
0.0000000116
  9
$USRTIMER
 70
     1
  9
$ANGBASE
 50
0.0
  9
$ANGDIR
 70
     0
  9
$PDMODE
 70
     0
  9
$PDSIZE
 40
0.0
  9
$PLINEWID
 40
0.0
  9
$SPLFRAME
 70
     0
  9
$SPLINETYPE
 70
     6
  9
$SPLINESEGS
 70
     8
  9
$HANDSEED
  5
C5
  9
$SURFTAB1
 70
     6
  9
$SURFTAB2
 70
     6
  9
$SURFTYPE
 70
     6
  9
$SURFU
 70
     6
  9
$SURFV
 70
     6
  9
$UCSBASE
  2

  9
$UCSNAME
  2

  9
$UCSORG
 10
0.0
 20
0.0
 30
0.0
  9
$UCSXDIR
 10
1.0
 20
0.0
 30
0.0
  9
$UCSYDIR
 10
0.0
 20
1.0
 30
0.0
  9
$UCSORTHOREF
  2

  9
$UCSORTHOVIEW
 70
     0
  9
$UCSORGTOP
 10
0.0
 20
0.0
 30
0.0
  9
$UCSORGBOTTOM
 10
0.0
 20
0.0
 30
0.0
  9
$UCSORGLEFT
 10
0.0
 20
0.0
 30
0.0
  9
$UCSORGRIGHT
 10
0.0
 20
0.0
 30
0.0
  9
$UCSORGFRONT
 10
0.0
 20
0.0
 30
0.0
  9
$UCSORGBACK
 10
0.0
 20
0.0
 30
0.0
  9
$PUCSBASE
  2

  9
$PUCSNAME
  2

  9
$PUCSORG
 10
0.0
 20
0.0
 30
0.0
  9
$PUCSXDIR
 10
1.0
 20
0.0
 30
0.0
  9
$PUCSYDIR
 10
0.0
 20
1.0
 30
0.0
  9
$PUCSORTHOREF
  2

  9
$PUCSORTHOVIEW
 70
     0
  9
$PUCSORGTOP
 10
0.0
 20
0.0
 30
0.0
  9
$PUCSORGBOTTOM
 10
0.0
 20
0.0
 30
0.0
  9
$PUCSORGLEFT
 10
0.0
 20
0.0
 30
0.0
  9
$PUCSORGRIGHT
 10
0.0
 20
0.0
 30
0.0
  9
$PUCSORGFRONT
 10
0.0
 20
0.0
 30
0.0
  9
$PUCSORGBACK
 10
0.0
 20
0.0
 30
0.0
  9
$USERI1
 70
     0
  9
$USERI2
 70
     0
  9
$USERI3
 70
     0
  9
$USERI4
 70
     0
  9
$USERI5
 70
     0
  9
$USERR1
 40
0.0
  9
$USERR2
 40
0.0
  9
$USERR3
 40
0.0
  9
$USERR4
 40
0.0
  9
$USERR5
 40
0.0
  9
$WORLDVIEW
 70
     1
  9
$SHADEDGE
 70
     3
  9
$SHADEDIF
 70
    70
  9
$TILEMODE
 70
     1
  9
$MAXACTVP
 70
    64
  9
$PINSBASE
 10
0.0
 20
0.0
 30
0.0
  9
$PLIMCHECK
 70
     0
  9
$PEXTMIN
 10
1.000000000000000E+20
 20
1.000000000000000E+20
 30
1.000000000000000E+20
  9
$PEXTMAX
 10
-1.000000000000000E+20
 20
-1.000000000000000E+20
 30
-1.000000000000000E+20
  9
$PLIMMIN
 10
0.0
 20
0.0
  9
$PLIMMAX
 10
12.0
 20
9.0
  9
$UNITMODE
 70
     0
  9
$VISRETAIN
 70
     1
  9
$PLINEGEN
 70
     0
  9
$PSLTSCALE
 70
     1
  9
$TREEDEPTH
 70
  3020
  9
$CMLSTYLE
  2
Standard
  9
$CMLJUST
 70
     0
  9
$CMLSCALE
 40
1.0
  9
$PROXYGRAPHICS
 70
     1
  9
$MEASUREMENT
 70
     0
  9
$CELWEIGHT
370
    -1
  9
$ENDCAPS
280
     0
  9
$JOINSTYLE
280
     0
  9
$LWDISPLAY
290
     0
  9
$INSUNITS
 70
     4
  9
$HYPERLINKBASE
  1

  9
$STYLESHEET
  1

  9
$XEDIT
290
     1
  9
$CEPSNTYPE
380
     0
  9
$PSTYLEMODE
290
     1
  9
$FINGERPRINTGUID
  2
{71ECF304-B890-4A23-93A4-F7B39F75BBE8}
  9
$VERSIONGUID
  2
{FAEB1C32-E019-11D5-929B-00C0DF256EC4}
  9
$EXTNAMES
290
     1
  9
$PSVPSCALE
 40
0.0
  9
$OLESTARTUP
290
     0
  9
$SORTENTS
280
   127
  9
$INDEXCTL
280
     0
  9
$HIDETEXT
280
     1
  9
$XCLIPFRAME
290
     0
  9
$HALOGAP
280
     0
  9
$OBSCOLOR
 70
   257
  9
$OBSLTYPE
280
     0
  9
$INTERSECTIONDISPLAY
280
     0
  9
$INTERSECTIONCOLOR
 70
   257
  9
$DIMASSOC
280
     2
  9
$PROJECTNAME
  1

  9
$CAMERADISPLAY
290
     0
  9
$LENSLENGTH
 40
50.0
  9
$CAMERAHEIGHT
 40
0.0
  9
$STEPSPERSEC
 40
2.0
  9
$STEPSIZE
 40
6.0
  9
$3DDWFPREC
 40
2.0
  9
$PSOLWIDTH
 40
0.25
  9
$PSOLHEIGHT
 40
4.0
  9
$LOFTANG1
 40
1.570796326794897
  9
$LOFTANG2
 40
1.570796326794897
  9
$LOFTMAG1
 40
0.0
  9
$LOFTMAG2
 40
0.0
  9
$LOFTPARAM
 70
     7
  9
$LOFTNORMALS
280
     1
  9
$LATITUDE
 40
37.795
  9
$LONGITUDE
 40
-122.394
  9
$NORTHDIRECTION
 40
0.0
  9
$TIMEZONE
 70
 -8000
  9
$LIGHTGLYPHDISPLAY
280
     1
  9
$TILEMODELIGHTSYNCH
280
     1
  9
$SOLIDHIST
280
     1
  9
$SHOWHIST
280
     1
  9
$DWFFRAME
280
     2
  9
$DGNFRAME
280
     2
  9
$REALWORLDSCALE
290
     1
  9
$INTERFERECOLOR
 62
   256
  9
$CSHADOW
280
     0
  9
$SHADOWPLANELOCATION
 40
0.0
  0
ENDSEC
  0
SECTION
  2
CLASSES
  0
CLASS
  1
ACDBDICTIONARYWDFLT
  2
AcDbDictionaryWithDefault
  3
ObjectDBX Classes
 90
        0
 91
        4
280
     0
281
     0
  0
CLASS
  1
VISUALSTYLE
  2
AcDbVisualStyle
  3
ObjectDBX Classes
 90
     4095
 91
        4
280
     0
281
     0
  0
CLASS
  1
MATERIAL
  2
AcDbMaterial
  3
ObjectDBX Classes
 90
     1153
 91
        4
280
     0
281
     0
  0
ENDSEC
  0
SECTION
  2
TABLES
  0
TABLE
  2
VPORT
  5
8
330
0
100
AcDbSymbolTable
 70
     1
  0
VPORT
  5
29
330
8
100
AcDbSymbolTableRecord
100
AcDbViewportTableRecord
  2
*Active
 70
     0
 10
0.0
 20
0.0
 11
1.0
 21
1.0
 12
10.42990654205607
 22
4.5
 13
0.0
 23
0.0
 14
0.5
 24
0.5
 15
0.5
 25
0.5
 16
0.0
 26
0.0
 36
1.0
 17
0.0
 27
0.0
 37
0.0
 40
9.0
 41
1.972972972850329
 42
50.0
 43
0.0
 44
0.0
 50
0.0
 51
0.0
 71
     0
 72
   100
 73
     1
 74
     3
 75
     0
 76
     0
 77
     0
 78
     0
281
     0
 65
     1
110
0.0
120
0.0
130
0.0
111
1.0
121
0.0
131
0.0
112
0.0
122
1.0
132
0.0
 79
     0
146
0.0
 60
     3
 61
     5
292
     1
282
     1
141
0.0
142
0.0
 63
   250
  0
ENDTAB
  0
TABLE
  2
LTYPE
  5
5
330
0
100
AcDbSymbolTable
 70
     1
  0
LTYPE
  5
14
330
5
100
AcDbSymbolTableRecord
100
AcDbLinetypeTableRecord
  2
ByBlock
 70
     0
  3

 72
    65
 73
     0
 40
0.0
  0
LTYPE
  5
15
330
5
100
AcDbSymbolTableRecord
100
AcDbLinetypeTableRecord
  2
ByLayer
 70
     0
  3

 72
    65
 73
     0
 40
0.0
  0
LTYPE
  5
16
330
5
100
AcDbSymbolTableRecord
100
AcDbLinetypeTableRecord
  2
Continuous
 70
     0
  3
Solid line
 72
    65
 73
     0
 40
0.0
  0
ENDTAB
  0
TABLE
  2
LAYER
  5
2
330
0
100
AcDbSymbolTable
 70
     3
  0
LAYER
  5
10
330
2
100
AcDbSymbolTableRecord
100
AcDbLayerTableRecord
  2
0
 70
     0
 62
     7
  6
Continuous
370
    -3
390
F
347
3E
  0
LAYER
  5
40
330
2
100
AcDbSymbolTableRecord
100
AcDbLayerTableRecord
  2
layer 1
 70
     0
 62
     7
  6
Continuous
370
    -3
390
F
347
3E
  0
LAYER
  5
A2
330
2
100
AcDbSymbolTableRecord
100
AcDbLayerTableRecord
  2
Master Guides
 70
     0
 62
     7
  6
Continuous
370
    -3
390
F
347
3E
  0
ENDTAB
  0
TABLE
  2
STYLE
  5
3
330
0
100
AcDbSymbolTable
 70
     1
  0
STYLE
  5
11
330
3
100
AcDbSymbolTableRecord
100
AcDbTextStyleTableRecord
  2
Standard
 70
     0
 40
0.0
 41
1.0
 50
0.0
 71
     0
 42
0.2
  3
txt
  4

  0
ENDTAB
  0
TABLE
  2
VIEW
  5
6
330
0
100
AcDbSymbolTable
 70
     0
  0
ENDTAB
  0
TABLE
  2
UCS
  5
7
330
0
100
AcDbSymbolTable
 70
     0
  0
ENDTAB
  0
TABLE
  2
APPID
  5
9
330
0
100
AcDbSymbolTable
 70
     2
  0
APPID
  5
12
330
9
100
AcDbSymbolTableRecord
100
AcDbRegAppTableRecord
  2
ACAD
 70
     0
  0
APPID
  5
3F
330
9
100
AcDbSymbolTableRecord
100
AcDbRegAppTableRecord
  2
ODA
 70
     0
  0
ENDTAB
  0
TABLE
  2
DIMSTYLE
  5
A
330
0
100
AcDbSymbolTable
 70
     1
100
AcDbDimStyleTable
  0
DIMSTYLE
105
27
330
A
100
AcDbSymbolTableRecord
100
AcDbDimStyleTableRecord
  2
Standard
 70
     0
178
     0
340
11
  0
ENDTAB
  0
TABLE
  2
BLOCK_RECORD
  5
1
330
0
100
AcDbSymbolTable
 70
     1
  0
BLOCK_RECORD
  5
1F
330
1
100
AcDbSymbolTableRecord
100
AcDbBlockTableRecord
  2
*Model_Space
340
22
 70
     0
280
     1
281
     0
  0
BLOCK_RECORD
  5
1B
330
1
100
AcDbSymbolTableRecord
100
AcDbBlockTableRecord
  2
*Paper_Space
340
1E
 70
     0
280
     1
281
     0
  0
BLOCK_RECORD
  5
23
330
1
100
AcDbSymbolTableRecord
100
AcDbBlockTableRecord
  2
*Paper_Space0
340
26
 70
     0
280
     1
281
     0
  0
ENDTAB
  0
ENDSEC
  0
SECTION
  2
BLOCKS
  0
BLOCK
  5
20
330
1F
100
AcDbEntity
  8
0
100
AcDbBlockBegin
  2
*Model_Space
 70
     0
 10
0.0
 20
0.0
 30
0.0
  3
*Model_Space
  1

  0
ENDBLK
  5
21
330
1F
100
AcDbEntity
  8
0
100
AcDbBlockEnd
  0
BLOCK
  5
1C
330
1B
100
AcDbEntity
 67
     1
  8
0
100
AcDbBlockBegin
  2
*Paper_Space
 70
     0
 10
0.0
 20
0.0
 30
0.0
  3
*Paper_Space
  1

  0
ENDBLK
  5
1D
330
1B
100
AcDbEntity
 67
     1
  8
0
100
AcDbBlockEnd
  0
BLOCK
  5
24
330
23
100
AcDbEntity
  8
0
100
AcDbBlockBegin
  2
*Paper_Space0
 70
     0
 10
0.0
 20
0.0
 30
0.0
  3
*Paper_Space0
  1

  0
ENDBLK
  5
25
330
23
100
AcDbEntity
  8
0
100
AcDbBlockEnd
  0
ENDSEC
  0
SECTION
  2
ENTITIES
  0
SPLINE
  5
41
330
1F
100
AcDbEntity
  8
layer 1
 62
   250
100
AcDbSpline
210
0.0
220
0.0
230
1.0
 70
    11
 71
     3
 72
    20
 73
    16
 74
     0
 42
0.0000000001
 43
0.0000000001
 12
1.0
 22
0.0
 32
0.0
 13
1.0
 23
0.0
 33
0.0
 40
0.0
 40
0.0
 40
0.0
 40
0.0
 40
0.2
 40
0.2
 40
0.2
 40
0.2
 40
0.4
 40
0.4
 40
0.4
 40
0.4
 40
0.6
 40
0.6
 40
0.6
 40
0.6
 40
1.0
 40
1.0
 40
1.0
 40
1.0
 10
13.5749
 20
131.9085
 30
0.0
 10
13.5749
 20
131.9085
 30
0.0
 10
120.6195
 20
131.9085
 30
0.0
 10
120.6195
 20
131.9085
 30
0.0
 10
120.6195
 20
131.9085
 30
0.0
 10
120.6195
 20
131.9085
 30
0.0
 10
120.6195
 20
-115.1172
 30
0.0
 10
120.6195
 20
-115.1172
 30
0.0
 10
120.6195
 20
-115.1172
 30
0.0
 10
120.6195
 20
-115.1172
 30
0.0
 10
13.5749
 20
-115.1172
 30
0.0
 10
13.5749
 20
-115.1172
 30
0.0
 10
13.5749
 20
-115.1172
 30
0.0
 10
13.5749
 20
-115.1172
 30
0.0
 10
13.5749
 20
131.9085
 30
0.0
 10
13.5749
 20
131.9085
 30
0.0
  0
SPLINE
  5
42
330
1F
100
AcDbEntity
  8
layer 1
 62
     7
100
AcDbSpline
210
0.0
220
0.0
230
1.0
 70
    11
 71
     3
 72
    24
 73
    20
 74
     0
 42
0.0000000001
 43
0.0000000001
 12
1.0
 22
0.0
 32
0.0
 13
1.0
 23
0.0
 33
0.0
 40
0.0
 40
0.0
 40
0.0
 40
0.0
 40
0.1666666666666667
 40
0.1666666666666667
 40
0.1666666666666667
 40
0.1666666666666667
 40
0.3333333333333333
 40
0.3333333333333333
 40
0.3333333333333333
 40
0.3333333333333333
 40
0.5
 40
0.5
 40
0.5
 40
0.5
 40
0.6666666666666666
 40
0.6666666666666666
 40
0.6666666666666666
 40
0.6666666666666666
 40
1.0
 40
1.0
 40
1.0
 40
1.0
 10
114.934
 20
105.8057
 30
0.0
 10
114.934
 20
105.8057
 30
0.0
 10
116.4344
 20
105.8057
 30
0.0
 10
116.4344
 20
105.8057
 30
0.0
 10
116.4344
 20
105.8057
 30
0.0
 10
116.4344
 20
105.8057
 30
0.0
 10
116.4344
 20
127.2808
 30
0.0
 10
116.4344
 20
127.2808
 30
0.0
 10
116.4344
 20
127.2808
 30
0.0
 10
116.4344
 20
127.2808
 30
0.0
 10
109.5227
 20
127.2808
 30
0.0
 10
109.5227
 20
127.2808
 30
0.0
 10
109.5227
 20
127.2808
 30
0.0
 10
109.5227
 20
127.2808
 30
0.0
 10
108.1069
 20
124.03
 30
0.0
 10
108.1069
 20
124.03
 30
0.0
 10
108.1069
 20
124.03
 30
0.0
 10
108.1069
 20
124.03
 30
0.0
 10
114.934
 20
105.8057
 30
0.0
 10
114.934
 20
105.8057
 30
0.0
  0
SPLINE
  5
43
330
1F
100
AcDbEntity
  8
layer 1
 62
     7
100
AcDbSpline
210
0.0
220
0.0
230
1.0
 70
    11
 71
     3
 72
    16
 73
    12
 74
     0
 42
0.0000000001
 43
0.0000000001
 12
1.0
 22
0.0
 32
0.0
 13
1.0
 23
0.0
 33
0.0
 40
0.0
 40
0.0
 40
0.0
 40
0.0
 40
0.25
 40
0.25
 40
0.25
 40
0.25
 40
0.5
 40
0.5
 40
0.5
 40
0.5
 40
1.0
 40
1.0
 40
1.0
 40
1.0
 10
116.4344
 20
88.06
 30
0.0
 10
116.4344
 20
88.06
 30
0.0
 10
116.4344
 20
96.6058
 30
0.0
 10
116.4344
 20
96.6058
 30
0.0
 10
116.4344
 20
96.6058
 30
0.0
 10
116.4344
 20
96.6058
 30
0.0
 10
113.9862
 20
88.9339
 30
0.0
 10
113.9862
 20
88.9339
 30
0.0
 10
113.9862
 20
88.9339
 30
0.0
 10
113.9862
 20
88.9339
 30
0.0
 10
116.4344
 20
88.06
 30
0.0
 10
116.4344
 20
88.06
 30
0.0
  0
SPLINE
  5
44
330
1F
100
AcDbEntity
  8
layer 1
 62
     7
100
AcDbSpline
210
0.0
220
0.0
230
1.0
 70
    11
 71
     3
 72
    28
 73
    24
 74
     0
 42
0.0000000001
 43
0.0000000001
 12
1.0
 22
0.0
 32
0.0
 13
1.0
 23
0.0
 33
0.0
 40
0.0
 40
0.0
 40
0.0
 40
0.0
 40
0.1428571428571428
 40
0.1428571428571428
 40
0.1428571428571428
 40
0.1428571428571428
 40
0.2857142857142857
 40
0.2857142857142857
 40
0.2857142857142857
 40
0.2857142857142857
 40
0.4285714285714285
 40
0.4285714285714285
 40
0.4285714285714285
 40
0.4285714285714285
 40
0.5714285714285714
 40
0.5714285714285714
 40
0.5714285714285714
 40
0.5714285714285714
 40
0.7142857142857143
 40
0.7142857142857143
 40
0.7142857142857143
 40
0.7142857142857143
 40
1.0
 40
1.0
 40
1.0
 40
1.0
 10
114.4533
 20
33.819
 30
0.0
 10
114.4533
 20
33.819
 30
0.0
 10
115.2711
 20
32.7396
 30
0.0
 10
115.2711
 20
32.7396
 30
0.0
 10
115.2711
 20
32.7396
 30
0.0
 10
115.2711
 20
32.7396
 30
0.0
 10
116.4344
 20
85.5703
 30
0.0
 10
116.4344
 20
85.5703
 30
0.0
 10
116.4344
 20
85.5703
 30
0.0
 10
116.4344
 20
85.5703
 30
0.0
 10
113.1303
 20
84.2833
 30
0.0
 10
113.1303
 20
84.2833
 30
0.0
 10
113.1303
 20
84.2833
 30
0.0
 10
113.1303
 20
84.2833
 30
0.0
 10
108.7915
 20
68.423
 30
0.0
 10
108.7915
 20
68.423
 30
0.0
 10
108.7915
 20
68.423
 30
0.0
 10
108.7915
 20
68.423
 30
0.0
 10
108.7915
 20
64.7098
 30
0.0
 10
108.7915
 20
64.7098
 30
0.0
 10
108.7915
 20
64.7098
 30
0.0
 10
108.7915
 20
64.7098
 30
0.0
 10
114.4533
 20
33.819
 30
0.0
 10
114.4533
 20
33.819
 30
0.0
  0
SPLINE
  5
45
330
1F
100
AcDbEntity
  8
layer 1
 62
     7
100
AcDbSpline
210
0.0
220
0.0
230
1.0
 70
    11
 71
     3
 72
    28
 73
    24
 74
     0
 42
0.0000000001
 43
0.0000000001
 12
1.0
 22
0.0
 32
0.0
 13
1.0
 23
0.0
 33
0.0
 40
0.0
 40
0.0
 40
0.0
 40
0.0
 40
0.1428571428571428
 40
0.1428571428571428
 40
0.1428571428571428
 40
0.1428571428571428
 40
0.2857142857142857
 40
0.2857142857142857
 40
0.2857142857142857
 40
0.2857142857142857
 40
0.4285714285714285
 40
0.4285714285714285
 40
0.4285714285714285
 40
0.4285714285714285
 40
0.5714285714285714
 40
0.5714285714285714
 40
0.5714285714285714
 40
0.5714285714285714
 40
0.7142857142857143
 40
0.7142857142857143
 40
0.7142857142857143
 40
0.7142857142857143
 40
1.0
 40
1.0
 40
1.0
 40
1.0
 10
112.879
 20
92.2348
 30
0.0
 10
112.879
 20
92.2348
 30
0.0
 10
114.1516
 20
98.8987
 30
0.0
 10
114.1516
 20
98.8987
 30
0.0
 10
114.1516
 20
98.8987
 30
0.0
 10
114.1516
 20
98.8987
 30
0.0
 10
112.8215
 20
106.0086
 30
0.0
 10
112.8215
 20
106.0086
 30
0.0
 10
112.8215
 20
106.0086
 30
0.0
 10
112.8215
 20
106.0086
 30
0.0
 10
107.0115
 20
121.515
 30
0.0
 10
107.0115
 20
121.515
 30
0.0
 10
107.0115
 20
121.515
 30
0.0
 10
107.0115
 20
121.515
 30
0.0
 10
101.1853
 20
108.1373
 30
0.0
 10
101.1853
 20
108.1373
 30
0.0
 10
101.1853
 20
108.1373
 30
0.0
 10
101.1853
 20
108.1373
 30
0.0
 10
103.7154
 20
98.812
 30
0.0
 10
103.7154
 20
98.812
 30
0.0
 10
103.7154
 20
98.812
 30
0.0
 10
103.7154
 20
98.812
 30
0.0
 10
112.879
 20
92.2348
 30
0.0
 10
112.879
 20
92.2348
 30
0.0
  0
SPLINE
  5
46
330
1F
100
AcDbEntity
  8
layer 1
 62
     7
100
AcDbSpline
210
0.0
220
0.0
230
1.0
 70
    11
 71
     3
 72
    24
 73
    20
 74
     0
 42
0.0000000001
 43
0.0000000001
 12
1.0
 22
0.0
 32
0.0
 13
1.0
 23
0.0
 33
0.0
 40
0.0
 40
0.0
 40
0.0
 40
0.0
 40
0.1666666666666667
 40
0.1666666666666667
 40
0.1666666666666667
 40
0.1666666666666667
 40
0.3333333333333333
 40
0.3333333333333333
 40
0.3333333333333333
 40
0.3333333333333333
 40
0.5
 40
0.5
 40
0.5
 40
0.5
 40
0.6666666666666666
 40
0.6666666666666666
 40
0.6666666666666666
 40
0.6666666666666666
 40
1.0
 40
1.0
 40
1.0
 40
1.0
 10
107.1896
 20
74.1493
 30
0.0
 10
107.1896
 20
74.1493
 30
0.0
 10
108.5393
 20
73.8572
 30
0.0
 10
108.5393
 20
73.8572
 30
0.0
 10
108.5393
 20
73.8572
 30
0.0
 10
108.5393
 20
73.8572
 30
0.0
 10
112.3257
 20
85.7808
 30
0.0
 10
112.3257
 20
85.7808
 30
0.0
 10
112.3257
 20
85.7808
 30
0.0
 10
112.3257
 20
85.7808
 30
0.0
 10
104.6778
 20
91.5721
 30
0.0
 10
104.6778
 20
91.5721
 30
0.0
 10
104.6778
 20
91.5721
 30
0.0
 10
104.6778
 20
91.5721
 30
0.0
 10
104.528
 20
90.3554
 30
0.0
 10
104.528
 20
90.3554
 30
0.0
 10
104.528
 20
90.3554
 30
0.0
 10
104.528
 20
90.3554
 30
0.0
 10
107.1896
 20
74.1493
 30
0.0
 10
107.1896
 20
74.1493
 30
0.0
  0
SPLINE
  5
47
330
1F
100
AcDbEntity
  8
layer 1
 62
     7
100
AcDbSpline
210
0.0
220
0.0
230
1.0
 70
    11
 71
     3
 72
    28
 73
    24
 74
     0
 42
0.0000000001
 43
0.0000000001
 12
1.0
 22
0.0
 32
0.0
 13
1.0
 23
0.0
 33
0.0
 40
0.0
 40
0.0
 40
0.0
 40
0.0
 40
0.1428571428571428
 40
0.1428571428571428
 40
0.1428571428571428
 40
0.1428571428571428
 40
0.2857142857142857
 40
0.2857142857142857
 40
0.2857142857142857
 40
0.2857142857142857
 40
0.4285714285714285
 40
0.4285714285714285
 40
0.4285714285714285
 40
0.4285714285714285
 40
0.5714285714285714
 40
0.5714285714285714
 40
0.5714285714285714
 40
0.5714285714285714
 40
0.7142857142857143
 40
0.7142857142857143
 40
0.7142857142857143
 40
0.7142857142857143
 40
1.0
 40
1.0
 40
1.0
 40
1.0
 10
106.5511
 20
61.0583
 30
0.0
 10
106.5511
 20
61.0583
 30
0.0
 10
107.1148
 20
61.8748
 30
0.0
 10
107.1148
 20
61.8748
 30
0.0
 10
107.1148
 20
61.8748
 30
0.0
 10
107.1148
 20
61.8748
 30
0.0
 10
103.9633
 20
85.4626
 30
0.0
 10
103.9633
 20
85.4626
 30
0.0
 10
103.9633
 20
85.4626
 30
0.0
 10
103.9633
 20
85.4626
 30
0.0
 10
103.3744
 20
85.441
 30
0.0
 10
103.3744
 20
85.441
 30
0.0
 10
103.3744
 20
85.441
 30
0.0
 10
103.3744
 20
85.441
 30
0.0
 10
103.0622
 20
85.1851
 30
0.0
 10
103.0622
 20
85.1851
 30
0.0
 10
103.0622
 20
85.1851
 30
0.0
 10
103.0622
 20
85.1851
 30
0.0
 10
103.1261
 20
66.8321
 30
0.0
 10
103.1261
 20
66.8321
 30
0.0
 10
103.1261
 20
66.8321
 30
0.0
 10
103.1261
 20
66.8321
 30
0.0
 10
106.5511
 20
61.0583
 30
0.0
 10
106.5511
 20
61.0583
 30
0.0
  0
SPLINE
  5
48
330
1F
100
AcDbEntity
  8
layer 1
 62
     7
100
AcDbSpline
210
0.0
220
0.0
230
1.0
 70
    11
 71
     3
 72
    24
 73
    20
 74
     0
 42
0.0000000001
 43
0.0000000001
 12
1.0
 22
0.0
 32
0.0
 13
1.0
 23
0.0
 33
0.0
 40
0.0
 40
0.0
 40
0.0
 40
0.0
 40
0.1666666666666667
 40
0.1666666666666667
 40
0.1666666666666667
 40
0.1666666666666667
 40
0.3333333333333333
 40
0.3333333333333333
 40
0.3333333333333333
 40
0.3333333333333333
 40
0.5
 40
0.5
 40
0.5
 40
0.5
 40
0.6666666666666666
 40
0.6666666666666666
 40
0.6666666666666666
 40
0.6666666666666666
 40
1.0
 40
1.0
 40
1.0
 40
1.0
 10
112.4863
 20
18.0857
 30
0.0
 10
112.4863
 20
18.0857
 30
0.0
 10
113.9262
 20
18.1957
 30
0.0
 10
113.9262
 20
18.1957
 30
0.0
 10
113.9262
 20
18.1957
 30
0.0
 10
113.9262
 20
18.1957
 30
0.0
 10
109.098
 20
49.2045
 30
0.0
 10
109.098
 20
49.2045
 30
0.0
 10
109.098
 20
49.2045
 30
0.0
 10
109.098
 20
49.2045
 30
0.0
 10
103.0837
 20
62.8395
 30
0.0
 10
103.0837
 20
62.8395
 30
0.0
 10
103.0837
 20
62.8395
 30
0.0
 10
103.0837
 20
62.8395
 30
0.0
 10
102.9142
 20
32.2705
 30
0.0
 10
102.9142
 20
32.2705
 30
0.0
 10
102.9142
 20
32.2705
 30
0.0
 10
102.9142
 20
32.2705
 30
0.0
 10
112.4863
 20
18.0857
 30
0.0
 10
112.4863
 20
18.0857
 30
0.0
  0
SPLINE
  5
49
330
1F
100
AcDbEntity
  8
layer 1
 62
     7
100
AcDbSpline
210
0.0
220
0.0
230
1.0
 70
    11
 71
     3
 72
    28
 73
    24
 74
     0
 42
0.0000000001
 43
0.0000000001
 12
1.0
 22
0.0
 32
0.0
 13
1.0
 23
0.0
 33
0.0
 40
0.0
 40
0.0
 40
0.0
 40
0.0
 40
0.1428571428571428
 40
0.1428571428571428
 40
0.1428571428571428
 40
0.1428571428571428
 40
0.2857142857142857
 40
0.2857142857142857
 40
0.2857142857142857
 40
0.2857142857142857
 40
0.4285714285714285
 40
0.4285714285714285
 40
0.4285714285714285
 40
0.4285714285714285
 40
0.5714285714285714
 40
0.5714285714285714
 40
0.5714285714285714
 40
0.5714285714285714
 40
0.7142857142857143
 40
0.7142857142857143
 40
0.7142857142857143
 40
0.7142857142857143
 40
1.0
 40
1.0
 40
1.0
 40
1.0
 10
102.992
 20
0.2771
 30
0.0
 10
102.992
 20
0.2771
 30
0.0
 10
116.4344
 20
-2.8115
 30
0.0
 10
116.4344
 20
-2.8115
 30
0.0
 10
116.4344
 20
-2.8115
 30
0.0
 10
116.4344
 20
-2.8115
 30
0.0
 10
116.4344
 20
10.0068
 30
0.0
 10
116.4344
 20
10.0068
 30
0.0
 10
116.4344
 20
10.0068
 30
0.0
 10
116.4344
 20
10.0068
 30
0.0
 10
103.9701
 20
27.9625
 30
0.0
 10
103.9701
 20
27.9625
 30
0.0
 10
103.9701
 20
27.9625
 30
0.0
 10
103.9701
 20
27.9625
 30
0.0
 10
103.1293
 20
28.1488
 30
0.0
 10
103.1293
 20
28.1488
 30
0.0
 10
103.1293
 20
28.1488
 30
0.0
 10
103.1293
 20
28.1488
 30
0.0
 10
102.5993
 20
27.4936
 30
0.0
 10
102.5993
 20
27.4936
 30
0.0
 10
102.5993
 20
27.4936
 30
0.0
 10
102.5993
 20
27.4936
 30
0.0
 10
102.992
 20
0.2771
 30
0.0
 10
102.992
 20
0.2771
 30
0.0
  0
SPLINE
  5
4A
330
1F
100
AcDbEntity
  8
layer 1
 62
     7
100
AcDbSpline
210
0.0
220
0.0
230
1.0
 70
    11
 71
     3
 72
    20
 73
    16
 74
     0
 42
0.0000000001
 43
0.0000000001
 12
1.0
 22
0.0
 32
0.0
 13
1.0
 23
0.0
 33
0.0
 40
0.0
 40
0.0
 40
0.0
 40
0.0
 40
0.2
 40
0.2
 40
0.2
 40
0.2
 40
0.4
 40
0.4
 40
0.4
 40
0.4
 40
0.6
 40
0.6
 40
0.6
 40
0.6
 40
1.0
 40
1.0
 40
1.0
 40
1.0
 10
116.4344
 20
-18.2754
 30
0.0
 10
116.4344
 20
-18.2754
 30
0.0
 10
116.4344
 20
-5.5427
 30
0.0
 10
116.4344
 20
-5.5427
 30
0.0
 10
116.4344
 20
-5.5427
 30
0.0
 10
116.4344
 20
-5.5427
 30
0.0
 10
102.9902
 20
-2.0263
 30
0.0
 10
102.9902
 20
-2.0263
 30
0.0
 10
102.9902
 20
-2.0263
 30
0.0
 10
102.9902
 20
-2.0263
 30
0.0
 10
102.9902
 20
-9.9688
 30
0.0
 10
102.9902
 20
-9.9688
 30
0.0
 10
102.9902
 20
-9.9688
 30
0.0
 10
102.9902
 20
-9.9688
 30
0.0
 10
116.4344
 20
-18.2754
 30
0.0
 10
116.4344
 20
-18.2754
 30
0.0
  0
SPLINE
  5
4B
330
1F
100
AcDbEntity
  8
layer 1
 62
     7
100
AcDbSpline
210
0.0
220
0.0
230
1.0
 70
    11
 71
     3
 72
    36
 73
    32
 74
     0
 42
0.0000000001
 43
0.0000000001
 12
1.0
 22
0.0
 32
0.0
 13
1.0
 23
0.0
 33
0.0
 40
0.0
 40
0.0
 40
0.0
 40
0.0
 40
0.1111111111111111
 40
0.1111111111111111
 40
0.1111111111111111
 40
0.1111111111111111
 40
0.2222222222222222
 40
0.2222222222222222
 40
0.2222222222222222
 40
0.2222222222222222
 40
0.3333333333333333
 40
0.3333333333333333
 40
0.3333333333333333
 40
0.3333333333333333
 40
0.4444444444444444
 40
0.4444444444444444
 40
0.4444444444444444
 40
0.4444444444444444
 40
0.5555555555555556
 40
0.5555555555555556
 40
0.5555555555555556
 40
0.5555555555555556
 40
0.6666666666666666
 40
0.6666666666666666
 40
0.6666666666666666
 40
0.6666666666666666
 40
0.7777777777777778
 40
0.7777777777777778
 40
0.7777777777777778
 40
0.7777777777777778
 40
1.0
 40
1.0
 40
1.0
 40
1.0
 10
113.791
 20
-62.6218
 30
0.0
 10
113.791
 20
-62.6218
 30
0.0
 10
114.4462
 20
-63.2143
 30
0.0
 10
114.4462
 20
-63.2143
 30
0.0
 10
114.4462
 20
-63.2143
 30
0.0
 10
114.4462
 20
-63.2143
 30
0.0
 10
115.0253
 20
-62.1408
 30
0.0
 10
115.0253
 20
-62.1408
 30
0.0
 10
115.0253
 20
-62.1408
 30
0.0
 10
115.0253
 20
-62.1408
 30
0.0
 10
116.4344
 20
-22.8874
 30
0.0
 10
116.4344
 20
-22.8874
 30
0.0
 10
116.4344
 20
-22.8874
 30
0.0
 10
116.4344
 20
-22.8874
 30
0.0
 10
103.5938
 20
-14.1859
 30
0.0
 10
103.5938
 20
-14.1859
 30
0.0
 10
103.5938
 20
-14.1859
 30
0.0
 10
103.5938
 20
-14.1859
 30
0.0
 10
102.8159
 20
-14.5576
 30
0.0
 10
102.8159
 20
-14.5576
 30
0.0
 10
102.8159
 20
-14.5576
 30
0.0
 10
102.8159
 20
-14.5576
 30
0.0
 10
102.8152
 20
-43.4519
 30
0.0
 10
102.8152
 20
-43.4519
 30
0.0
 10
102.8152
 20
-43.4519
 30
0.0
 10
102.8152
 20
-43.4519
 30
0.0
 10
103.7464
 20
-46.1289
 30
0.0
 10
103.7464
 20
-46.1289
 30
0.0
 10
103.7464
 20
-46.1289
 30
0.0
 10
103.7464
 20
-46.1289
 30
0.0
 10
113.791
 20
-62.6218
 30
0.0
 10
113.791
 20
-62.6218
 30
0.0
  0
SPLINE
  5
4C
330
1F
100
AcDbEntity
  8
layer 1
 62
     7
100
AcDbSpline
210
0.0
220
0.0
230
1.0
 70
    11
 71
     3
 72
    48
 73
    44
 74
     0
 42
0.0000000001
 43
0.0000000001
 12
1.0
 22
0.0
 32
0.0
 13
1.0
 23
0.0
 33
0.0
 40
0.0
 40
0.0
 40
0.0
 40
0.0
 40
0.0833333333333333
 40
0.0833333333333333
 40
0.0833333333333333
 40
0.0833333333333333
 40
0.1666666666666667
 40
0.1666666666666667
 40
0.1666666666666667
 40
0.1666666666666667
 40
0.25
 40
0.25
 40
0.25
 40
0.25
 40
0.3333333333333333
 40
0.3333333333333333
 40
0.3333333333333333
 40
0.3333333333333333
 40
0.4166666666666667
 40
0.4166666666666667
 40
0.4166666666666667
 40
0.4166666666666667
 40
0.5
 40
0.5
 40
0.5
 40
0.5
 40
0.5833333333333334
 40
0.5833333333333334
 40
0.5833333333333334
 40
0.5833333333333334
 40
0.6666666666666666
 40
0.6666666666666666
 40
0.6666666666666666
 40
0.6666666666666666
 40
0.75
 40
0.75
 40
0.75
 40
0.75
 40
0.8333333333333334
 40
0.8333333333333334
 40
0.8333333333333334
 40
0.8333333333333334
 40
1.0
 40
1.0
 40
1.0
 40
1.0
 10
103.3909
 20
-111.2933
 30
0.0
 10
103.3909
 20
-111.2933
 30
0.0
 10
109.7988
 20
-111.2933
 30
0.0
 10
109.7988
 20
-111.2933
 30
0.0
 10
109.7988
 20
-111.2933
 30
0.0
 10
109.7988
 20
-111.2933
 30
0.0
 10
113.3185
 20
-80.542
 30
0.0
 10
113.3185
 20
-80.542
 30
0.0
 10
113.3185
 20
-80.542
 30
0.0
 10
113.3185
 20
-80.542
 30
0.0
 10
113.8688
 20
-71.967
 30
0.0
 10
113.8688
 20
-71.967
 30
0.0
 10
113.8688
 20
-71.967
 30
0.0
 10
113.8688
 20
-71.967
 30
0.0
 10
113.0982
 20
-67.1077
 30
0.0
 10
113.0982
 20
-67.1077
 30
0.0
 10
113.0982
 20
-67.1077
 30
0.0
 10
113.0982
 20
-67.1077
 30
0.0
 10
105.9419
 20
-53.2445
 30
0.0
 10
105.9419
 20
-53.2445
 30
0.0
 10
105.9419
 20
-53.2445
 30
0.0
 10
105.9419
 20
-53.2445
 30
0.0
 10
104.07
 20
-51.958
 30
0.0
 10
104.07
 20
-51.958
 30
0.0
 10
104.07
 20
-51.958
 30
0.0
 10
104.07
 20
-51.958
 30
0.0
 10
102.859
 20
-52.9585
 30
0.0
 10
102.859
 20
-52.9585
 30
0.0
 10
102.859
 20
-52.9585
 30
0.0
 10
102.859
 20
-52.9585
 30
0.0
 10
102.9669
 20
-56.5315
 30
0.0
 10
102.9669
 20
-56.5315
 30
0.0
 10
102.9669
 20
-56.5315
 30
0.0
 10
102.9669
 20
-56.5315
 30
0.0
 10
102.9669
 20
-69.7409
 30
0.0
 10
102.9669
 20
-69.7409
 30
0.0
 10
102.9669
 20
-69.7409
 30
0.0
 10
102.9669
 20
-69.7409
 30
0.0
 10
102.9669
 20
-86.1764
 30
0.0
 10
102.9669
 20
-86.1764
 30
0.0
 10
102.9669
 20
-86.1764
 30
0.0
 10
102.9669
 20
-86.1764
 30
0.0
 10
103.3909
 20
-111.2933
 30
0.0
 10
103.3909
 20
-111.2933
 30
0.0
  0
SPLINE
  5
4D
330
1F
100
AcDbEntity
  8
layer 1
 62
     7
100
AcDbSpline
210
0.0
220
0.0
230
1.0
 70
    11
 71
     3
 72
    36
 73
    32
 74
     0
 42
0.0000000001
 43
0.0000000001
 12
1.0
 22
0.0
 32
0.0
 13
1.0
 23
0.0
 33
0.0
 40
0.0
 40
0.0
 40
0.0
 40
0.0
 40
0.1111111111111111
 40
0.1111111111111111
 40
0.1111111111111111
 40
0.1111111111111111
 40
0.2222222222222222
 40
0.2222222222222222
 40
0.2222222222222222
 40
0.2222222222222222
 40
0.3333333333333333
 40
0.3333333333333333
 40
0.3333333333333333
 40
0.3333333333333333
 40
0.4444444444444444
 40
0.4444444444444444
 40
0.4444444444444444
 40
0.4444444444444444
 40
0.5555555555555556
 40
0.5555555555555556
 40
0.5555555555555556
 40
0.5555555555555556
 40
0.6666666666666666
 40
0.6666666666666666
 40
0.6666666666666666
 40
0.6666666666666666
 40
0.7777777777777778
 40
0.7777777777777778
 40
0.7777777777777778
 40
0.7777777777777778
 40
1.0
 40
1.0
 40
1.0
 40
1.0
 10
87.944
 20
92.7352
 30
0.0
 10
87.944
 20
92.7352
 30
0.0
 10
89.2873
 20
92.6579
 30
0.0
 10
89.2873
 20
92.6579
 30
0.0
 10
89.2873
 20
92.6579
 30
0.0
 10
89.2873
 20
92.6579
 30
0.0
 10
90.3922
 20
93.5879
 30
0.0
 10
90.3922
 20
93.5879
 30
0.0
 10
90.3922
 20
93.5879
 30
0.0
 10
90.3922
 20
93.5879
 30
0.0
 10
106.8656
 20
127.2808
 30
0.0
 10
106.8656
 20
127.2808
 30
0.0
 10
106.8656
 20
127.2808
 30
0.0
 10
106.8656
 20
127.2808
 30
0.0
 10
99.9837
 20
127.2808
 30
0.0
 10
99.9837
 20
127.2808
 30
0.0
 10
99.9837
 20
127.2808
 30
0.0
 10
99.9837
 20
127.2808
 30
0.0
 10
84.4285
 20
105.3858
 30
0.0
 10
84.4285
 20
105.3858
 30
0.0
 10
84.4285
 20
105.3858
 30
0.0
 10
84.4285
 20
105.3858
 30
0.0
 10
83.818
 20
101.9173
 30
0.0
 10
83.818
 20
101.9173
 30
0.0
 10
83.818
 20
101.9173
 30
0.0
 10
83.818
 20
101.9173
 30
0.0
 10
84.3022
 20
99.4009
 30
0.0
 10
84.3022
 20
99.4009
 30
0.0
 10
84.3022
 20
99.4009
 30
0.0
 10
84.3022
 20
99.4009
 30
0.0
 10
87.944
 20
92.7352
 30
0.0
 10
87.944
 20
92.7352
 30
0.0
  0
SPLINE
  5
4E
330
1F
100
AcDbEntity
  8
layer 1
 62
     7
100
AcDbSpline
210
0.0
220
0.0
230
1.0
 70
    11
 71
     3
 72
    28
 73
    24
 74
     0
 42
0.0000000001
 43
0.0000000001
 12
1.0
 22
0.0
 32
0.0
 13
1.0
 23
0.0
 33
0.0
 40
0.0
 40
0.0
 40
0.0
 40
0.0
 40
0.1428571428571428
 40
0.1428571428571428
 40
0.1428571428571428
 40
0.1428571428571428
 40
0.2857142857142857
 40
0.2857142857142857
 40
0.2857142857142857
 40
0.2857142857142857
 40
0.4285714285714285
 40
0.4285714285714285
 40
0.4285714285714285
 40
0.4285714285714285
 40
0.5714285714285714
 40
0.5714285714285714
 40
0.5714285714285714
 40
0.5714285714285714
 40
0.7142857142857143
 40
0.7142857142857143
 40
0.7142857142857143
 40
0.7142857142857143
 40
1.0
 40
1.0
 40
1.0
 40
1.0
 10
87.199
 20
81.1931
 30
0.0
 10
87.199
 20
81.1931
 30
0.0
 10
99.2977
 20
81.0367
 30
0.0
 10
99.2977
 20
81.0367
 30
0.0
 10
99.2977
 20
81.0367
 30
0.0
 10
99.2977
 20
81.0367
 30
0.0
 10
100.321
 20
82.1305
 30
0.0
 10
100.321
 20
82.1305
 30
0.0
 10
100.321
 20
82.1305
 30
0.0
 10
100.321
 20
82.1305
 30
0.0
 10
100.2608
 20
105.9621
 30
0.0
 10
100.2608
 20
105.9621
 30
0.0
 10
100.2608
 20
105.9621
 30
0.0
 10
100.2608
 20
105.9621
 30
0.0
 10
99.8279
 20
106.483
 30
0.0
 10
99.8279
 20
106.483
 30
0.0
 10
99.8279
 20
106.483
 30
0.0
 10
99.8279
 20
106.483
 30
0.0
 10
98.8762
 20
106.1181
 30
0.0
 10
98.8762
 20
106.1181
 30
0.0
 10
98.8762
 20
106.1181
 30
0.0
 10
98.8762
 20
106.1181
 30
0.0
 10
87.199
 20
81.1931
 30
0.0
 10
87.199
 20
81.1931
 30
0.0
  0
SPLINE
  5
4F
330
1F
100
AcDbEntity
  8
layer 1
 62
     7
100
AcDbSpline
210
0.0
220
0.0
230
1.0
 70
    11
 71
     3
 72
    40
 73
    36
 74
     0
 42
0.0000000001
 43
0.0000000001
 12
1.0
 22
0.0
 32
0.0
 13
1.0
 23
0.0
 33
0.0
 40
0.0
 40
0.0
 40
0.0
 40
0.0
 40
0.1
 40
0.1
 40
0.1
 40
0.1
 40
0.2
 40
0.2
 40
0.2
 40
0.2
 40
0.3
 40
0.3
 40
0.3
 40
0.3
 40
0.4
 40
0.4
 40
0.4
 40
0.4
 40
0.5
 40
0.5
 40
0.5
 40
0.5
 40
0.6
 40
0.6
 40
0.6
 40
0.6
 40
0.7
 40
0.7
 40
0.7
 40
0.7
 40
0.8
 40
0.8
 40
0.8
 40
0.8
 40
1.0
 40
1.0
 40
1.0
 40
1.0
 10
93.4662
 20
38.0167
 30
0.0
 10
93.4662
 20
38.0167
 30
0.0
 10
94.7887
 20
36.7571
 30
0.0
 10
94.7887
 20
36.7571
 30
0.0
 10
94.7887
 20
36.7571
 30
0.0
 10
94.7887
 20
36.7571
 30
0.0
 10
95.4195
 20
38.9791
 30
0.0
 10
95.4195
 20
38.9791
 30
0.0
 10
95.4195
 20
38.9791
 30
0.0
 10
95.4195
 20
38.9791
 30
0.0
 10
100.4097
 20
76.6566
 30
0.0
 10
100.4097
 20
76.6566
 30
0.0
 10
100.4097
 20
76.6566
 30
0.0
 10
100.4097
 20
76.6566
 30
0.0
 10
100.1857
 20
78.3205
 30
0.0
 10
100.1857
 20
78.3205
 30
0.0
 10
100.1857
 20
78.3205
 30
0.0
 10
100.1857
 20
78.3205
 30
0.0
 10
99.3857
 20
78.9463
 30
0.0
 10
99.3857
 20
78.9463
 30
0.0
 10
99.3857
 20
78.9463
 30
0.0
 10
99.3857
 20
78.9463
 30
0.0
 10
85.8313
 20
78.7947
 30
0.0
 10
85.8313
 20
78.7947
 30
0.0
 10
85.8313
 20
78.7947
 30
0.0
 10
85.8313
 20
78.7947
 30
0.0
 10
82.1723
 20
70.7193
 30
0.0
 10
82.1723
 20
70.7193
 30
0.0
 10
82.1723
 20
70.7193
 30
0.0
 10
82.1723
 20
70.7193
 30
0.0
 10
82.2553
 20
67.9165
 30
0.0
 10
82.2553
 20
67.9165
 30
0.0
 10
82.2553
 20
67.9165
 30
0.0
 10
82.2553
 20
67.9165
 30
0.0
 10
93.4662
 20
38.0167
 30
0.0
 10
93.4662
 20
38.0167
 30
0.0
  0
SPLINE
  5
50
330
1F
100
AcDbEntity
  8
layer 1
 62
     7
100
AcDbSpline
210
0.0
220
0.0
230
1.0
 70
    11
 71
     3
 72
    32
 73
    28
 74
     0
 42
0.0000000001
 43
0.0000000001
 12
1.0
 22
0.0
 32
0.0
 13
1.0
 23
0.0
 33
0.0
 40
0.0
 40
0.0
 40
0.0
 40
0.0
 40
0.125
 40
0.125
 40
0.125
 40
0.125
 40
0.25
 40
0.25
 40
0.25
 40
0.25
 40
0.375
 40
0.375
 40
0.375
 40
0.375
 40
0.5
 40
0.5
 40
0.5
 40
0.5
 40
0.625
 40
0.625
 40
0.625
 40
0.625
 40
0.75
 40
0.75
 40
0.75
 40
0.75
 40
1.0
 40
1.0
 40
1.0
 40
1.0
 10
96.9512
 20
-55.6302
 30
0.0
 10
96.9512
 20
-55.6302
 30
0.0
 10
99.0502
 20
-52.073
 30
0.0
 10
99.0502
 20
-52.073
 30
0.0
 10
99.0502
 20
-52.073
 30
0.0
 10
99.0502
 20
-52.073
 30
0.0
 10
100.1579
 20
-48.5912
 30
0.0
 10
100.1579
 20
-48.5912
 30
0.0
 10
100.1579
 20
-48.5912
 30
0.0
 10
100.1579
 20
-48.5912
 30
0.0
 10
99.8801
 20
56.2552
 30
0.0
 10
99.8801
 20
56.2552
 30
0.0
 10
99.8801
 20
56.2552
 30
0.0
 10
99.8801
 20
56.2552
 30
0.0
 10
96.5233
 20
24.5428
 30
0.0
 10
96.5233
 20
24.5428
 30
0.0
 10
96.5233
 20
24.5428
 30
0.0
 10
96.5233
 20
24.5428
 30
0.0
 10
93.474
 20
-8.0995
 30
0.0
 10
93.474
 20
-8.0995
 30
0.0
 10
93.474
 20
-8.0995
 30
0.0
 10
93.474
 20
-8.0995
 30
0.0
 10
88.9632
 20
-65.3943
 30
0.0
 10
88.9632
 20
-65.3943
 30
0.0
 10
88.9632
 20
-65.3943
 30
0.0
 10
88.9632
 20
-65.3943
 30
0.0
 10
96.9512
 20
-55.6302
 30
0.0
 10
96.9512
 20
-55.6302
 30
0.0
  0
SPLINE
  5
51
330
1F
100
AcDbEntity
  8
layer 1
 62
     7
100
AcDbSpline
210
0.0
220
0.0
230
1.0
 70
    11
 71
     3
 72
    36
 73
    32
 74
     0
 42
0.0000000001
 43
0.0000000001
 12
1.0
 22
0.0
 32
0.0
 13
1.0
 23
0.0
 33
0.0
 40
0.0
 40
0.0
 40
0.0
 40
0.0
 40
0.1111111111111111
 40
0.1111111111111111
 40
0.1111111111111111
 40
0.1111111111111111
 40
0.2222222222222222
 40
0.2222222222222222
 40
0.2222222222222222
 40
0.2222222222222222
 40
0.3333333333333333
 40
0.3333333333333333
 40
0.3333333333333333
 40
0.3333333333333333
 40
0.4444444444444444
 40
0.4444444444444444
 40
0.4444444444444444
 40
0.4444444444444444
 40
0.5555555555555556
 40
0.5555555555555556
 40
0.5555555555555556
 40
0.5555555555555556
 40
0.6666666666666666
 40
0.6666666666666666
 40
0.6666666666666666
 40
0.6666666666666666
 40
0.7777777777777778
 40
0.7777777777777778
 40
0.7777777777777778
 40
0.7777777777777778
 40
1.0
 40
1.0
 40
1.0
 40
1.0
 10
86.2673
 20
-111.2933
 30
0.0
 10
86.2673
 20
-111.2933
 30
0.0
 10
98.595
 20
-111.2933
 30
0.0
 10
98.595
 20
-111.2933
 30
0.0
 10
98.595
 20
-111.2933
 30
0.0
 10
98.595
 20
-111.2933
 30
0.0
 10
100.3511
 20
-58.4627
 30
0.0
 10
100.3511
 20
-58.4627
 30
0.0
 10
100.3511
 20
-58.4627
 30
0.0
 10
100.3511
 20
-58.4627
 30
0.0
 10
98.9629
 20
-57.2793
 30
0.0
 10
98.9629
 20
-57.2793
 30
0.0
 10
98.9629
 20
-57.2793
 30
0.0
 10
98.9629
 20
-57.2793
 30
0.0
 10
96.9849
 20
-59.3656
 30
0.0
 10
96.9849
 20
-59.3656
 30
0.0
 10
96.9849
 20
-59.3656
 30
0.0
 10
96.9849
 20
-59.3656
 30
0.0
 10
87.7132
 20
-76.0554
 30
0.0
 10
87.7132
 20
-76.0554
 30
0.0
 10
87.7132
 20
-76.0554
 30
0.0
 10
87.7132
 20
-76.0554
 30
0.0
 10
87.466
 20
-80.8697
 30
0.0
 10
87.466
 20
-80.8697
 30
0.0
 10
87.466
 20
-80.8697
 30
0.0
 10
87.466
 20
-80.8697
 30
0.0
 10
87.095
 20
-90.1776
 30
0.0
 10
87.095
 20
-90.1776
 30
0.0
 10
87.095
 20
-90.1776
 30
0.0
 10
87.095
 20
-90.1776
 30
0.0
 10
86.2673
 20
-111.2933
 30
0.0
 10
86.2673
 20
-111.2933
 30
0.0
  0
SPLINE
  5
52
330
1F
100
AcDbEntity
  8
layer 1
 62
     7
100
AcDbSpline
210
0.0
220
0.0
230
1.0
 70
    11
 71
     3
 72
    24
 73
    20
 74
     0
 42
0.0000000001
 43
0.0000000001
 12
1.0
 22
0.0
 32
0.0
 13
1.0
 23
0.0
 33
0.0
 40
0.0
 40
0.0
 40
0.0
 40
0.0
 40
0.1666666666666667
 40
0.1666666666666667
 40
0.1666666666666667
 40
0.1666666666666667
 40
0.3333333333333333
 40
0.3333333333333333
 40
0.3333333333333333
 40
0.3333333333333333
 40
0.5
 40
0.5
 40
0.5
 40
0.5
 40
0.6666666666666666
 40
0.6666666666666666
 40
0.6666666666666666
 40
0.6666666666666666
 40
1.0
 40
1.0
 40
1.0
 40
1.0
 10
82.0526
 20
105.4595
 30
0.0
 10
82.0526
 20
105.4595
 30
0.0
 10
89.0412
 20
114.5191
 30
0.0
 10
89.0412
 20
114.5191
 30
0.0
 10
89.0412
 20
114.5191
 30
0.0
 10
89.0412
 20
114.5191
 30
0.0
 10
96.6878
 20
127.2808
 30
0.0
 10
96.6878
 20
127.2808
 30
0.0
 10
96.6878
 20
127.2808
 30
0.0
 10
96.6878
 20
127.2808
 30
0.0
 10
72.6543
 20
127.2808
 30
0.0
 10
72.6543
 20
127.2808
 30
0.0
 10
72.6543
 20
127.2808
 30
0.0
 10
72.6543
 20
127.2808
 30
0.0
 10
77.1788
 20
116.0644
 30
0.0
 10
77.1788
 20
116.0644
 30
0.0
 10
77.1788
 20
116.0644
 30
0.0
 10
77.1788
 20
116.0644
 30
0.0
 10
82.0526
 20
105.4595
 30
0.0
 10
82.0526
 20
105.4595
 30
0.0
  0
SPLINE
  5
53
330
1F
100
AcDbEntity
  8
layer 1
 62
     7
100
AcDbSpline
210
0.0
220
0.0
230
1.0
 70
    11
 71
     3
 72
    56
 73
    52
 74
     0
 42
0.0000000001
 43
0.0000000001
 12
1.0
 22
0.0
 32
0.0
 13
1.0
 23
0.0
 33
0.0
 40
0.0
 40
0.0
 40
0.0
 40
0.0
 40
0.0714285714285714
 40
0.0714285714285714
 40
0.0714285714285714
 40
0.0714285714285714
 40
0.1428571428571428
 40
0.1428571428571428
 40
0.1428571428571428
 40
0.1428571428571428
 40
0.2142857142857143
 40
0.2142857142857143
 40
0.2142857142857143
 40
0.2142857142857143
 40
0.2857142857142857
 40
0.2857142857142857
 40
0.2857142857142857
 40
0.2857142857142857
 40
0.3571428571428572
 40
0.3571428571428572
 40
0.3571428571428572
 40
0.3571428571428572
 40
0.4285714285714285
 40
0.4285714285714285
 40
0.4285714285714285
 40
0.4285714285714285
 40
0.5
 40
0.5
 40
0.5
 40
0.5
 40
0.5714285714285714
 40
0.5714285714285714
 40
0.5714285714285714
 40
0.5714285714285714
 40
0.6428571428571429
 40
0.6428571428571429
 40
0.6428571428571429
 40
0.6428571428571429
 40
0.7142857142857143
 40
0.7142857142857143
 40
0.7142857142857143
 40
0.7142857142857143
 40
0.7857142857142857
 40
0.7857142857142857
 40
0.7857142857142857
 40
0.7857142857142857
 40
0.8571428571428571
 40
0.8571428571428571
 40
0.8571428571428571
 40
0.8571428571428571
 40
1.0
 40
1.0
 40
1.0
 40
1.0
 10
79.538
 20
75.2308
 30
0.0
 10
79.538
 20
75.2308
 30
0.0
 10
81.5005
 20
75.3218
 30
0.0
 10
81.5005
 20
75.3218
 30
0.0
 10
81.5005
 20
75.3218
 30
0.0
 10
81.5005
 20
75.3218
 30
0.0
 10
84.7247
 20
81.6905
 30
0.0
 10
84.7247
 20
81.6905
 30
0.0
 10
84.7247
 20
81.6905
 30
0.0
 10
84.7247
 20
81.6905
 30
0.0
 10
86.5472
 20
85.6941
 30
0.0
 10
86.5472
 20
85.6941
 30
0.0
 10
86.5472
 20
85.6941
 30
0.0
 10
86.5472
 20
85.6941
 30
0.0
 10
86.2666
 20
89.8794
 30
0.0
 10
86.2666
 20
89.8794
 30
0.0
 10
86.2666
 20
89.8794
 30
0.0
 10
86.2666
 20
89.8794
 30
0.0
 10
84.5843
 20
94.7017
 30
0.0
 10
84.5843
 20
94.7017
 30
0.0
 10
84.5843
 20
94.7017
 30
0.0
 10
84.5843
 20
94.7017
 30
0.0
 10
82.7546
 20
98.591
 30
0.0
 10
82.7546
 20
98.591
 30
0.0
 10
82.7546
 20
98.591
 30
0.0
 10
82.7546
 20
98.591
 30
0.0
 10
81.991
 20
99.7058
 30
0.0
 10
81.991
 20
99.7058
 30
0.0
 10
81.991
 20
99.7058
 30
0.0
 10
81.991
 20
99.7058
 30
0.0
 10
81.0478
 20
100.2458
 30
0.0
 10
81.0478
 20
100.2458
 30
0.0
 10
81.0478
 20
100.2458
 30
0.0
 10
81.0478
 20
100.2458
 30
0.0
 10
74.7018
 20
91.7901
 30
0.0
 10
74.7018
 20
91.7901
 30
0.0
 10
74.7018
 20
91.7901
 30
0.0
 10
74.7018
 20
91.7901
 30
0.0
 10
74.7018
 20
88.2417
 30
0.0
 10
74.7018
 20
88.2417
 30
0.0
 10
74.7018
 20
88.2417
 30
0.0
 10
74.7018
 20
88.2417
 30
0.0
 10
76.4542
 20
83.2372
 30
0.0
 10
76.4542
 20
83.2372
 30
0.0
 10
76.4542
 20
83.2372
 30
0.0
 10
76.4542
 20
83.2372
 30
0.0
 10
78.5567
 20
77.5054
 30
0.0
 10
78.5567
 20
77.5054
 30
0.0
 10
78.5567
 20
77.5054
 30
0.0
 10
78.5567
 20
77.5054
 30
0.0
 10
79.538
 20
75.2308
 30
0.0
 10
79.538
 20
75.2308
 30
0.0
  0
SPLINE
  5
54
330
1F
100
AcDbEntity
  8
layer 1
 62
     7
100
AcDbSpline
210
0.0
220
0.0
230
1.0
 70
    11
 71
     3
 72
    52
 73
    48
 74
     0
 42
0.0000000001
 43
0.0000000001
 12
1.0
 22
0.0
 32
0.0
 13
1.0
 23
0.0
 33
0.0
 40
0.0
 40
0.0
 40
0.0
 40
0.0
 40
0.0769230769230769
 40
0.0769230769230769
 40
0.0769230769230769
 40
0.0769230769230769
 40
0.1538461538461539
 40
0.1538461538461539
 40
0.1538461538461539
 40
0.1538461538461539
 40
0.2307692307692308
 40
0.2307692307692308
 40
0.2307692307692308
 40
0.2307692307692308
 40
0.3076923076923077
 40
0.3076923076923077
 40
0.3076923076923077
 40
0.3076923076923077
 40
0.3846153846153846
 40
0.3846153846153846
 40
0.3846153846153846
 40
0.3846153846153846
 40
0.4615384615384616
 40
0.4615384615384616
 40
0.4615384615384616
 40
0.4615384615384616
 40
0.5384615384615384
 40
0.5384615384615384
 40
0.5384615384615384
 40
0.5384615384615384
 40
0.6153846153846154
 40
0.6153846153846154
 40
0.6153846153846154
 40
0.6153846153846154
 40
0.6923076923076923
 40
0.6923076923076923
 40
0.6923076923076923
 40
0.6923076923076923
 40
0.7692307692307693
 40
0.7692307692307693
 40
0.7692307692307693
 40
0.7692307692307693
 40
0.8461538461538461
 40
0.8461538461538461
 40
0.8461538461538461
 40
0.8461538461538461
 40
1.0
 40
1.0
 40
1.0
 40
1.0
 10
72.5161
 20
94.281
 30
0.0
 10
72.5161
 20
94.281
 30
0.0
 10
74.3383
 20
94.099
 30
0.0
 10
74.3383
 20
94.099
 30
0.0
 10
74.3383
 20
94.099
 30
0.0
 10
74.3383
 20
94.099
 30
0.0
 10
75.6704
 20
96.1006
 30
0.0
 10
75.6704
 20
96.1006
 30
0.0
 10
75.6704
 20
96.1006
 30
0.0
 10
75.6704
 20
96.1006
 30
0.0
 10
77.6328
 20
99.012
 30
0.0
 10
77.6328
 20
99.012
 30
0.0
 10
77.6328
 20
99.012
 30
0.0
 10
77.6328
 20
99.012
 30
0.0
 10
79.5953
 20
102.2874
 30
0.0
 10
79.5953
 20
102.2874
 30
0.0
 10
79.5953
 20
102.2874
 30
0.0
 10
79.5953
 20
102.2874
 30
0.0
 10
79.7355
 20
105.4722
 30
0.0
 10
79.7355
 20
105.4722
 30
0.0
 10
79.7355
 20
105.4722
 30
0.0
 10
79.7355
 20
105.4722
 30
0.0
 10
76.5812
 20
115.0256
 30
0.0
 10
76.5812
 20
115.0256
 30
0.0
 10
76.5812
 20
115.0256
 30
0.0
 10
76.5812
 20
115.0256
 30
0.0
 10
72.4461
 20
122.4865
 30
0.0
 10
72.4461
 20
122.4865
 30
0.0
 10
72.4461
 20
122.4865
 30
0.0
 10
72.4461
 20
122.4865
 30
0.0
 10
67.2591
 20
124.4882
 30
0.0
 10
67.2591
 20
124.4882
 30
0.0
 10
67.2591
 20
124.4882
 30
0.0
 10
67.2591
 20
124.4882
 30
0.0
 10
60.3202
 20
124.2152
 30
0.0
 10
60.3202
 20
124.2152
 30
0.0
 10
60.3202
 20
124.2152
 30
0.0
 10
60.3202
 20
124.2152
 30
0.0
 10
64.1753
 20
116.9363
 30
0.0
 10
64.1753
 20
116.9363
 30
0.0
 10
64.1753
 20
116.9363
 30
0.0
 10
64.1753
 20
116.9363
 30
0.0
 10
70.6937
 20
98.1935
 30
0.0
 10
70.6937
 20
98.1935
 30
0.0
 10
70.6937
 20
98.1935
 30
0.0
 10
70.6937
 20
98.1935
 30
0.0
 10
72.5161
 20
94.281
 30
0.0
 10
72.5161
 20
94.281
 30
0.0
  0
SPLINE
  5
55
330
1F
100
AcDbEntity
  8
layer 1
 62
     7
100
AcDbSpline
210
0.0
220
0.0
230
1.0
 70
    11
 71
     3
 72
    48
 73
    44
 74
     0
 42
0.0000000001
 43
0.0000000001
 12
1.0
 22
0.0
 32
0.0
 13
1.0
 23
0.0
 33
0.0
 40
0.0
 40
0.0
 40
0.0
 40
0.0
 40
0.0833333333333333
 40
0.0833333333333333
 40
0.0833333333333333
 40
0.0833333333333333
 40
0.1666666666666667
 40
0.1666666666666667
 40
0.1666666666666667
 40
0.1666666666666667
 40
0.25
 40
0.25
 40
0.25
 40
0.25
 40
0.3333333333333333
 40
0.3333333333333333
 40
0.3333333333333333
 40
0.3333333333333333
 40
0.4166666666666667
 40
0.4166666666666667
 40
0.4166666666666667
 40
0.4166666666666667
 40
0.5
 40
0.5
 40
0.5
 40
0.5
 40
0.5833333333333334
 40
0.5833333333333334
 40
0.5833333333333334
 40
0.5833333333333334
 40
0.6666666666666666
 40
0.6666666666666666
 40
0.6666666666666666
 40
0.6666666666666666
 40
0.75
 40
0.75
 40
0.75
 40
0.75
 40
0.8333333333333334
 40
0.8333333333333334
 40
0.8333333333333334
 40
0.8333333333333334
 40
1.0
 40
1.0
 40
1.0
 40
1.0
 10
67.1088
 20
99.121
 30
0.0
 10
67.1088
 20
99.121
 30
0.0
 10
67.4799
 20
100.6116
 30
0.0
 10
67.4799
 20
100.6116
 30
0.0
 10
67.4799
 20
100.6116
 30
0.0
 10
67.4799
 20
100.6116
 30
0.0
 10
67.2931
 20
101.6627
 30
0.0
 10
67.2931
 20
101.6627
 30
0.0
 10
67.2931
 20
101.6627
 30
0.0
 10
67.2931
 20
101.6627
 30
0.0
 10
63.4307
 20
111.8524
 30
0.0
 10
63.4307
 20
111.8524
 30
0.0
 10
63.4307
 20
111.8524
 30
0.0
 10
63.4307
 20
111.8524
 30
0.0
 10
56.916
 20
128.0847
 30
0.0
 10
56.916
 20
128.0847
 30
0.0
 10
56.916
 20
128.0847
 30
0.0
 10
56.916
 20
128.0847
 30
0.0
 10
49.9983
 20
122.3529
 30
0.0
 10
49.9983
 20
122.3529
 30
0.0
 10
49.9983
 20
122.3529
 30
0.0
 10
49.9983
 20
122.3529
 30
0.0
 10
51.272
 20
118.2558
 30
0.0
 10
51.272
 20
118.2558
 30
0.0
 10
51.272
 20
118.2558
 30
0.0
 10
51.272
 20
118.2558
 30
0.0
 10
52.6743
 20
115.8984
 30
0.0
 10
52.6743
 20
115.8984
 30
0.0
 10
52.6743
 20
115.8984
 30
0.0
 10
52.6743
 20
115.8984
 30
0.0
 10
57.1096
 20
109.5891
 30
0.0
 10
57.1096
 20
109.5891
 30
0.0
 10
57.1096
 20
109.5891
 30
0.0
 10
57.1096
 20
109.5891
 30
0.0
 10
61.1636
 20
103.2361
 30
0.0
 10
61.1636
 20
103.2361
 30
0.0
 10
61.1636
 20
103.2361
 30
0.0
 10
61.1636
 20
103.2361
 30
0.0
 10
64.5918
 20
100.1797
 30
0.0
 10
64.5918
 20
100.1797
 30
0.0
 10
64.5918
 20
100.1797
 30
0.0
 10
64.5918
 20
100.1797
 30
0.0
 10
67.1088
 20
99.121
 30
0.0
 10
67.1088
 20
99.121
 30
0.0
  0
SPLINE
  5
56
330
1F
100
AcDbEntity
  8
layer 1
 62
     7
100
AcDbSpline
210
0.0
220
0.0
230
1.0
 70
    11
 71
     3
 72
    56
 73
    52
 74
     0
 42
0.0000000001
 43
0.0000000001
 12
1.0
 22
0.0
 32
0.0
 13
1.0
 23
0.0
 33
0.0
 40
0.0
 40
0.0
 40
0.0
 40
0.0
 40
0.0714285714285714
 40
0.0714285714285714
 40
0.0714285714285714
 40
0.0714285714285714
 40
0.1428571428571428
 40
0.1428571428571428
 40
0.1428571428571428
 40
0.1428571428571428
 40
0.2142857142857143
 40
0.2142857142857143
 40
0.2142857142857143
 40
0.2142857142857143
 40
0.2857142857142857
 40
0.2857142857142857
 40
0.2857142857142857
 40
0.2857142857142857
 40
0.3571428571428572
 40
0.3571428571428572
 40
0.3571428571428572
 40
0.3571428571428572
 40
0.4285714285714285
 40
0.4285714285714285
 40
0.4285714285714285
 40
0.4285714285714285
 40
0.5
 40
0.5
 40
0.5
 40
0.5
 40
0.5714285714285714
 40
0.5714285714285714
 40
0.5714285714285714
 40
0.5714285714285714
 40
0.6428571428571429
 40
0.6428571428571429
 40
0.6428571428571429
 40
0.6428571428571429
 40
0.7142857142857143
 40
0.7142857142857143
 40
0.7142857142857143
 40
0.7142857142857143
 40
0.7857142857142857
 40
0.7857142857142857
 40
0.7857142857142857
 40
0.7857142857142857
 40
0.8571428571428571
 40
0.8571428571428571
 40
0.8571428571428571
 40
0.8571428571428571
 40
1.0
 40
1.0
 40
1.0
 40
1.0
 10
60.7487
 20
79.3361
 30
0.0
 10
60.7487
 20
79.3361
 30
0.0
 10
62.2412
 20
79.3361
 30
0.0
 10
62.2412
 20
79.3361
 30
0.0
 10
62.2412
 20
79.3361
 30
0.0
 10
62.2412
 20
79.3361
 30
0.0
 10
63.1737
 20
80.5466
 30
0.0
 10
63.1737
 20
80.5466
 30
0.0
 10
63.1737
 20
80.5466
 30
0.0
 10
63.1737
 20
80.5466
 30
0.0
 10
69.2667
 20
88.4561
 30
0.0
 10
69.2667
 20
88.4561
 30
0.0
 10
69.2667
 20
88.4561
 30
0.0
 10
69.2667
 20
88.4561
 30
0.0
 10
69.8886
 20
91.523
 30
0.0
 10
69.8886
 20
91.523
 30
0.0
 10
69.8886
 20
91.523
 30
0.0
 10
69.8886
 20
91.523
 30
0.0
 10
69.3288
 20
94.3478
 30
0.0
 10
69.3288
 20
94.3478
 30
0.0
 10
69.3288
 20
94.3478
 30
0.0
 10
69.3288
 20
94.3478
 30
0.0
 10
68.1476
 20
95.8005
 30
0.0
 10
68.1476
 20
95.8005
 30
0.0
 10
68.1476
 20
95.8005
 30
0.0
 10
68.1476
 20
95.8005
 30
0.0
 10
54.5314
 20
102.1766
 30
0.0
 10
54.5314
 20
102.1766
 30
0.0
 10
54.5314
 20
102.1766
 30
0.0
 10
54.5314
 20
102.1766
 30
0.0
 10
53.7241
 20
102.0869
 30
0.0
 10
53.7241
 20
102.0869
 30
0.0
 10
53.7241
 20
102.0869
 30
0.0
 10
53.7241
 20
102.0869
 30
0.0
 10
53.0395
 20
101.2887
 30
0.0
 10
53.0395
 20
101.2887
 30
0.0
 10
53.0395
 20
101.2887
 30
0.0
 10
53.0395
 20
101.2887
 30
0.0
 10
54.4071
 20
88.6174
 30
0.0
 10
54.4071
 20
88.6174
 30
0.0
 10
54.4071
 20
88.6174
 30
0.0
 10
54.4071
 20
88.6174
 30
0.0
 10
54.78
 20
85.9541
 30
0.0
 10
54.78
 20
85.9541
 30
0.0
 10
54.78
 20
85.9541
 30
0.0
 10
54.78
 20
85.9541
 30
0.0
 10
59.6919
 20
80.6273
 30
0.0
 10
59.6919
 20
80.6273
 30
0.0
 10
59.6919
 20
80.6273
 30
0.0
 10
59.6919
 20
80.6273
 30
0.0
 10
60.7487
 20
79.3361
 30
0.0
 10
60.7487
 20
79.3361
 30
0.0
  0
SPLINE
  5
57
330
1F
100
AcDbEntity
  8
layer 1
 62
     7
100
AcDbSpline
210
0.0
220
0.0
230
1.0
 70
    11
 71
     3
 72
    56
 73
    52
 74
     0
 42
0.0000000001
 43
0.0000000001
 12
1.0
 22
0.0
 32
0.0
 13
1.0
 23
0.0
 33
0.0
 40
0.0
 40
0.0
 40
0.0
 40
0.0
 40
0.0714285714285714
 40
0.0714285714285714
 40
0.0714285714285714
 40
0.0714285714285714
 40
0.1428571428571428
 40
0.1428571428571428
 40
0.1428571428571428
 40
0.1428571428571428
 40
0.2142857142857143
 40
0.2142857142857143
 40
0.2142857142857143
 40
0.2142857142857143
 40
0.2857142857142857
 40
0.2857142857142857
 40
0.2857142857142857
 40
0.2857142857142857
 40
0.3571428571428572
 40
0.3571428571428572
 40
0.3571428571428572
 40
0.3571428571428572
 40
0.4285714285714285
 40
0.4285714285714285
 40
0.4285714285714285
 40
0.4285714285714285
 40
0.5
 40
0.5
 40
0.5
 40
0.5
 40
0.5714285714285714
 40
0.5714285714285714
 40
0.5714285714285714
 40
0.5714285714285714
 40
0.6428571428571429
 40
0.6428571428571429
 40
0.6428571428571429
 40
0.6428571428571429
 40
0.7142857142857143
 40
0.7142857142857143
 40
0.7142857142857143
 40
0.7142857142857143
 40
0.7857142857142857
 40
0.7857142857142857
 40
0.7857142857142857
 40
0.7857142857142857
 40
0.8571428571428571
 40
0.8571428571428571
 40
0.8571428571428571
 40
0.8571428571428571
 40
1.0
 40
1.0
 40
1.0
 40
1.0
 10
74.9787
 20
41.0952
 30
0.0
 10
74.9787
 20
41.0952
 30
0.0
 10
76.9651
 20
40.8188
 30
0.0
 10
76.9651
 20
40.8188
 30
0.0
 10
76.9651
 20
40.8188
 30
0.0
 10
76.9651
 20
40.8188
 30
0.0
 10
78.2417
 20
41.7397
 30
0.0
 10
78.2417
 20
41.7397
 30
0.0
 10
78.2417
 20
41.7397
 30
0.0
 10
78.2417
 20
41.7397
 30
0.0
 10
82.1431
 20
51.4078
 30
0.0
 10
82.1431
 20
51.4078
 30
0.0
 10
82.1431
 20
51.4078
 30
0.0
 10
82.1431
 20
51.4078
 30
0.0
 10
82.6394
 20
56.0116
 30
0.0
 10
82.6394
 20
56.0116
 30
0.0
 10
82.6394
 20
56.0116
 30
0.0
 10
82.6394
 20
56.0116
 30
0.0
 10
79.3061
 20
67.4526
 30
0.0
 10
79.3061
 20
67.4526
 30
0.0
 10
79.3061
 20
67.4526
 30
0.0
 10
79.3061
 20
67.4526
 30
0.0
 10
73.767
 20
84.3971
 30
0.0
 10
73.767
 20
84.3971
 30
0.0
 10
73.767
 20
84.3971
 30
0.0
 10
73.767
 20
84.3971
 30
0.0
 10
72.3482
 20
85.5018
 30
0.0
 10
72.3482
 20
85.5018
 30
0.0
 10
72.3482
 20
85.5018
 30
0.0
 10
72.3482
 20
85.5018
 30
0.0
 10
70.4332
 20
85.1338
 30
0.0
 10
70.4332
 20
85.1338
 30
0.0
 10
70.4332
 20
85.1338
 30
0.0
 10
70.4332
 20
85.1338
 30
0.0
 10
57.1691
 20
65.9814
 30
0.0
 10
57.1691
 20
65.9814
 30
0.0
 10
57.1691
 20
65.9814
 30
0.0
 10
57.1691
 20
65.9814
 30
0.0
 10
56.6017
 20
63.1273
 30
0.0
 10
56.6017
 20
63.1273
 30
0.0
 10
56.6017
 20
63.1273
 30
0.0
 10
56.6017
 20
63.1273
 30
0.0
 10
57.1691
 20
59.2601
 30
0.0
 10
57.1691
 20
59.2601
 30
0.0
 10
57.1691
 20
59.2601
 30
0.0
 10
57.1691
 20
59.2601
 30
0.0
 10
58.8775
 20
56.7483
 30
0.0
 10
58.8775
 20
56.7483
 30
0.0
 10
58.8775
 20
56.7483
 30
0.0
 10
58.8775
 20
56.7483
 30
0.0
 10
74.9787
 20
41.0952
 30
0.0
 10
74.9787
 20
41.0952
 30
0.0
  0
SPLINE
  5
58
330
1F
100
AcDbEntity
  8
layer 1
 62
     7
100
AcDbSpline
210
0.0
220
0.0
230
1.0
 70
    11
 71
     3
 72
    48
 73
    44
 74
     0
 42
0.0000000001
 43
0.0000000001
 12
1.0
 22
0.0
 32
0.0
 13
1.0
 23
0.0
 33
0.0
 40
0.0
 40
0.0
 40
0.0
 40
0.0
 40
0.0833333333333333
 40
0.0833333333333333
 40
0.0833333333333333
 40
0.0833333333333333
 40
0.1666666666666667
 40
0.1666666666666667
 40
0.1666666666666667
 40
0.1666666666666667
 40
0.25
 40
0.25
 40
0.25
 40
0.25
 40
0.3333333333333333
 40
0.3333333333333333
 40
0.3333333333333333
 40
0.3333333333333333
 40
0.4166666666666667
 40
0.4166666666666667
 40
0.4166666666666667
 40
0.4166666666666667
 40
0.5
 40
0.5
 40
0.5
 40
0.5
 40
0.5833333333333334
 40
0.5833333333333334
 40
0.5833333333333334
 40
0.5833333333333334
 40
0.6666666666666666
 40
0.6666666666666666
 40
0.6666666666666666
 40
0.6666666666666666
 40
0.75
 40
0.75
 40
0.75
 40
0.75
 40
0.8333333333333334
 40
0.8333333333333334
 40
0.8333333333333334
 40
0.8333333333333334
 40
1.0
 40
1.0
 40
1.0
 40
1.0
 10
87.578
 20
-1.6951
 30
0.0
 10
87.578
 20
-1.6951
 30
0.0
 10
90.5031
 20
-1.312
 30
0.0
 10
90.5031
 20
-1.312
 30
0.0
 10
90.5031
 20
-1.312
 30
0.0
 10
90.5031
 20
-1.312
 30
0.0
 10
91.083
 20
1.7937
 30
0.0
 10
91.083
 20
1.7937
 30
0.0
 10
91.083
 20
1.7937
 30
0.0
 10
91.083
 20
1.7937
 30
0.0
 10
93.838
 20
24.2864
 30
0.0
 10
93.838
 20
24.2864
 30
0.0
 10
93.838
 20
24.2864
 30
0.0
 10
93.838
 20
24.2864
 30
0.0
 10
93.4028
 20
27.7935
 30
0.0
 10
93.4028
 20
27.7935
 30
0.0
 10
93.4028
 20
27.7935
 30
0.0
 10
93.4028
 20
27.7935
 30
0.0
 10
86.7328
 20
47.9336
 30
0.0
 10
86.7328
 20
47.9336
 30
0.0
 10
86.7328
 20
47.9336
 30
0.0
 10
86.7328
 20
47.9336
 30
0.0
 10
84.7754
 20
48.6866
 30
0.0
 10
84.7754
 20
48.6866
 30
0.0
 10
84.7754
 20
48.6866
 30
0.0
 10
84.7754
 20
48.6866
 30
0.0
 10
83.3979
 20
46.8042
 30
0.0
 10
83.3979
 20
46.8042
 30
0.0
 10
83.3979
 20
46.8042
 30
0.0
 10
83.3979
 20
46.8042
 30
0.0
 10
73.5481
 20
20.0993
 30
0.0
 10
73.5481
 20
20.0993
 30
0.0
 10
73.5481
 20
20.0993
 30
0.0
 10
73.5481
 20
20.0993
 30
0.0
 10
73.4776
 20
16.16
 30
0.0
 10
73.4776
 20
16.16
 30
0.0
 10
73.4776
 20
16.16
 30
0.0
 10
73.4776
 20
16.16
 30
0.0
 10
74.8516
 20
13.4254
 30
0.0
 10
74.8516
 20
13.4254
 30
0.0
 10
74.8516
 20
13.4254
 30
0.0
 10
74.8516
 20
13.4254
 30
0.0
 10
87.578
 20
-1.6951
 30
0.0
 10
87.578
 20
-1.6951
 30
0.0
  0
SPLINE
  5
59
330
1F
100
AcDbEntity
  8
layer 1
 62
     7
100
AcDbSpline
210
0.0
220
0.0
230
1.0
 70
    11
 71
     3
 72
    52
 73
    48
 74
     0
 42
0.0000000001
 43
0.0000000001
 12
1.0
 22
0.0
 32
0.0
 13
1.0
 23
0.0
 33
0.0
 40
0.0
 40
0.0
 40
0.0
 40
0.0
 40
0.0769230769230769
 40
0.0769230769230769
 40
0.0769230769230769
 40
0.0769230769230769
 40
0.1538461538461539
 40
0.1538461538461539
 40
0.1538461538461539
 40
0.1538461538461539
 40
0.2307692307692308
 40
0.2307692307692308
 40
0.2307692307692308
 40
0.2307692307692308
 40
0.3076923076923077
 40
0.3076923076923077
 40
0.3076923076923077
 40
0.3076923076923077
 40
0.3846153846153846
 40
0.3846153846153846
 40
0.3846153846153846
 40
0.3846153846153846
 40
0.4615384615384616
 40
0.4615384615384616
 40
0.4615384615384616
 40
0.4615384615384616
 40
0.5384615384615384
 40
0.5384615384615384
 40
0.5384615384615384
 40
0.5384615384615384
 40
0.6153846153846154
 40
0.6153846153846154
 40
0.6153846153846154
 40
0.6153846153846154
 40
0.6923076923076923
 40
0.6923076923076923
 40
0.6923076923076923
 40
0.6923076923076923
 40
0.7692307692307693
 40
0.7692307692307693
 40
0.7692307692307693
 40
0.7692307692307693
 40
0.8461538461538461
 40
0.8461538461538461
 40
0.8461538461538461
 40
0.8461538461538461
 40
1.0
 40
1.0
 40
1.0
 40
1.0
 10
68.3926
 20
21.0161
 30
0.0
 10
68.3926
 20
21.0161
 30
0.0
 10
70.9261
 20
21.362
 30
0.0
 10
70.9261
 20
21.362
 30
0.0
 10
70.9261
 20
21.362
 30
0.0
 10
70.9261
 20
21.362
 30
0.0
 10
72.6146
 20
24.6504
 30
0.0
 10
72.6146
 20
24.6504
 30
0.0
 10
72.6146
 20
24.6504
 30
0.0
 10
72.6146
 20
24.6504
 30
0.0
 10
74.8368
 20
29.67
 30
0.0
 10
74.8368
 20
29.67
 30
0.0
 10
74.8368
 20
29.67
 30
0.0
 10
74.8368
 20
29.67
 30
0.0
 10
75.2813
 20
35.3817
 30
0.0
 10
75.2813
 20
35.3817
 30
0.0
 10
75.2813
 20
35.3817
 30
0.0
 10
75.2813
 20
35.3817
 30
0.0
 10
74.2062
 20
37.2547
 30
0.0
 10
74.2062
 20
37.2547
 30
0.0
 10
74.2062
 20
37.2547
 30
0.0
 10
74.2062
 20
37.2547
 30
0.0
 10
60.3401
 20
52.4856
 30
0.0
 10
60.3401
 20
52.4856
 30
0.0
 10
60.3401
 20
52.4856
 30
0.0
 10
60.3401
 20
52.4856
 30
0.0
 10
58.74
 20
52.4281
 30
0.0
 10
58.74
 20
52.4281
 30
0.0
 10
58.74
 20
52.4281
 30
0.0
 10
58.74
 20
52.4281
 30
0.0
 10
57.6483
 20
51.3417
 30
0.0
 10
57.6483
 20
51.3417
 30
0.0
 10
57.6483
 20
51.3417
 30
0.0
 10
57.6483
 20
51.3417
 30
0.0
 10
57.6709
 20
50.218
 30
0.0
 10
57.6709
 20
50.218
 30
0.0
 10
57.6709
 20
50.218
 30
0.0
 10
57.6709
 20
50.218
 30
0.0
 10
60.5257
 20
35.0353
 30
0.0
 10
60.5257
 20
35.0353
 30
0.0
 10
60.5257
 20
35.0353
 30
0.0
 10
60.5257
 20
35.0353
 30
0.0
 10
61.5036
 20
31.2855
 30
0.0
 10
61.5036
 20
31.2855
 30
0.0
 10
61.5036
 20
31.2855
 30
0.0
 10
61.5036
 20
31.2855
 30
0.0
 10
68.3926
 20
21.0161
 30
0.0
 10
68.3926
 20
21.0161
 30
0.0
  0
SPLINE
  5
5A
330
1F
100
AcDbEntity
  8
layer 1
 62
     7
100
AcDbSpline
210
0.0
220
0.0
230
1.0
 70
    11
 71
     3
 72
    36
 73
    32
 74
     0
 42
0.0000000001
 43
0.0000000001
 12
1.0
 22
0.0
 32
0.0
 13
1.0
 23
0.0
 33
0.0
 40
0.0
 40
0.0
 40
0.0
 40
0.0
 40
0.1111111111111111
 40
0.1111111111111111
 40
0.1111111111111111
 40
0.1111111111111111
 40
0.2222222222222222
 40
0.2222222222222222
 40
0.2222222222222222
 40
0.2222222222222222
 40
0.3333333333333333
 40
0.3333333333333333
 40
0.3333333333333333
 40
0.3333333333333333
 40
0.4444444444444444
 40
0.4444444444444444
 40
0.4444444444444444
 40
0.4444444444444444
 40
0.5555555555555556
 40
0.5555555555555556
 40
0.5555555555555556
 40
0.5555555555555556
 40
0.6666666666666666
 40
0.6666666666666666
 40
0.6666666666666666
 40
0.6666666666666666
 40
0.7777777777777778
 40
0.7777777777777778
 40
0.7777777777777778
 40
0.7777777777777778
 40
1.0
 40
1.0
 40
1.0
 40
1.0
 10
80.0651
 20
-29.0042
 30
0.0
 10
80.0651
 20
-29.0042
 30
0.0
 10
82.5249
 20
-28.2527
 30
0.0
 10
82.5249
 20
-28.2527
 30
0.0
 10
82.5249
 20
-28.2527
 30
0.0
 10
82.5249
 20
-28.2527
 30
0.0
 10
88.6754
 20
-21.2085
 30
0.0
 10
88.6754
 20
-21.2085
 30
0.0
 10
88.6754
 20
-21.2085
 30
0.0
 10
88.6754
 20
-21.2085
 30
0.0
 10
89.4711
 20
-14.5398
 30
0.0
 10
89.4711
 20
-14.5398
 30
0.0
 10
89.4711
 20
-14.5398
 30
0.0
 10
89.4711
 20
-14.5398
 30
0.0
 10
89.2544
 20
-10.219
 30
0.0
 10
89.2544
 20
-10.219
 30
0.0
 10
89.2544
 20
-10.219
 30
0.0
 10
89.2544
 20
-10.219
 30
0.0
 10
78.9074
 20
3.1183
 30
0.0
 10
78.9074
 20
3.1183
 30
0.0
 10
78.9074
 20
3.1183
 30
0.0
 10
78.9074
 20
3.1183
 30
0.0
 10
76.8079
 20
3.1395
 30
0.0
 10
76.8079
 20
3.1395
 30
0.0
 10
76.8079
 20
3.1395
 30
0.0
 10
76.8079
 20
3.1395
 30
0.0
 10
79.4862
 20
-25.5288
 30
0.0
 10
79.4862
 20
-25.5288
 30
0.0
 10
79.4862
 20
-25.5288
 30
0.0
 10
79.4862
 20
-25.5288
 30
0.0
 10
80.0651
 20
-29.0042
 30
0.0
 10
80.0651
 20
-29.0042
 30
0.0
  0
SPLINE
  5
5B
330
1F
100
AcDbEntity
  8
layer 1
 62
     7
100
AcDbSpline
210
0.0
220
0.0
230
1.0
 70
    11
 71
     3
 72
    28
 73
    24
 74
     0
 42
0.0000000001
 43
0.0000000001
 12
1.0
 22
0.0
 32
0.0
 13
1.0
 23
0.0
 33
0.0
 40
0.0
 40
0.0
 40
0.0
 40
0.0
 40
0.1428571428571428
 40
0.1428571428571428
 40
0.1428571428571428
 40
0.1428571428571428
 40
0.2857142857142857
 40
0.2857142857142857
 40
0.2857142857142857
 40
0.2857142857142857
 40
0.4285714285714285
 40
0.4285714285714285
 40
0.4285714285714285
 40
0.4285714285714285
 40
0.5714285714285714
 40
0.5714285714285714
 40
0.5714285714285714
 40
0.5714285714285714
 40
0.7142857142857143
 40
0.7142857142857143
 40
0.7142857142857143
 40
0.7142857142857143
 40
1.0
 40
1.0
 40
1.0
 40
1.0
 10
63.293
 20
1.4861
 30
0.0
 10
63.293
 20
1.4861
 30
0.0
 10
67.9319
 20
12.1275
 30
0.0
 10
67.9319
 20
12.1275
 30
0.0
 10
67.9319
 20
12.1275
 30
0.0
 10
67.9319
 20
12.1275
 30
0.0
 10
67.8049
 20
16.1698
 30
0.0
 10
67.8049
 20
16.1698
 30
0.0
 10
67.8049
 20
16.1698
 30
0.0
 10
67.8049
 20
16.1698
 30
0.0
 10
62.2124
 20
24.5015
 30
0.0
 10
62.2124
 20
24.5015
 30
0.0
 10
62.2124
 20
24.5015
 30
0.0
 10
62.2124
 20
24.5015
 30
0.0
 10
61.4879
 20
24.519
 30
0.0
 10
61.4879
 20
24.519
 30
0.0
 10
61.4879
 20
24.519
 30
0.0
 10
61.4879
 20
24.519
 30
0.0
 10
60.9754
 20
24.0513
 30
0.0
 10
60.9754
 20
24.0513
 30
0.0
 10
60.9754
 20
24.0513
 30
0.0
 10
60.9754
 20
24.0513
 30
0.0
 10
63.293
 20
1.4861
 30
0.0
 10
63.293
 20
1.4861
 30
0.0
  0
SPLINE
  5
5C
330
1F
100
AcDbEntity
  8
layer 1
 62
     7
100
AcDbSpline
210
0.0
220
0.0
230
1.0
 70
    11
 71
     3
 72
    52
 73
    48
 74
     0
 42
0.0000000001
 43
0.0000000001
 12
1.0
 22
0.0
 32
0.0
 13
1.0
 23
0.0
 33
0.0
 40
0.0
 40
0.0
 40
0.0
 40
0.0
 40
0.0769230769230769
 40
0.0769230769230769
 40
0.0769230769230769
 40
0.0769230769230769
 40
0.1538461538461539
 40
0.1538461538461539
 40
0.1538461538461539
 40
0.1538461538461539
 40
0.2307692307692308
 40
0.2307692307692308
 40
0.2307692307692308
 40
0.2307692307692308
 40
0.3076923076923077
 40
0.3076923076923077
 40
0.3076923076923077
 40
0.3076923076923077
 40
0.3846153846153846
 40
0.3846153846153846
 40
0.3846153846153846
 40
0.3846153846153846
 40
0.4615384615384616
 40
0.4615384615384616
 40
0.4615384615384616
 40
0.4615384615384616
 40
0.5384615384615384
 40
0.5384615384615384
 40
0.5384615384615384
 40
0.5384615384615384
 40
0.6153846153846154
 40
0.6153846153846154
 40
0.6153846153846154
 40
0.6153846153846154
 40
0.6923076923076923
 40
0.6923076923076923
 40
0.6923076923076923
 40
0.6923076923076923
 40
0.7692307692307693
 40
0.7692307692307693
 40
0.7692307692307693
 40
0.7692307692307693
 40
0.8461538461538461
 40
0.8461538461538461
 40
0.8461538461538461
 40
0.8461538461538461
 40
1.0
 40
1.0
 40
1.0
 40
1.0
 10
66.5389
 20
-40.9082
 30
0.0
 10
66.5389
 20
-40.9082
 30
0.0
 10
68.1556
 20
-41.8078
 30
0.0
 10
68.1556
 20
-41.8078
 30
0.0
 10
68.1556
 20
-41.8078
 30
0.0
 10
68.1556
 20
-41.8078
 30
0.0
 10
75.6615
 20
-32.6636
 30
0.0
 10
75.6615
 20
-32.6636
 30
0.0
 10
75.6615
 20
-32.6636
 30
0.0
 10
75.6615
 20
-32.6636
 30
0.0
 10
76.4699
 20
-29.2161
 30
0.0
 10
76.4699
 20
-29.2161
 30
0.0
 10
76.4699
 20
-29.2161
 30
0.0
 10
76.4699
 20
-29.2161
 30
0.0
 10
74.3914
 20
5.5615
 30
0.0
 10
74.3914
 20
5.5615
 30
0.0
 10
74.3914
 20
5.5615
 30
0.0
 10
74.3914
 20
5.5615
 30
0.0
 10
72.7268
 20
9.0109
 30
0.0
 10
72.7268
 20
9.0109
 30
0.0
 10
72.7268
 20
9.0109
 30
0.0
 10
72.7268
 20
9.0109
 30
0.0
 10
71.1986
 20
10.316
 30
0.0
 10
71.1986
 20
10.316
 30
0.0
 10
71.1986
 20
10.316
 30
0.0
 10
71.1986
 20
10.316
 30
0.0
 10
69.55
 20
9.8462
 30
0.0
 10
69.55
 20
9.8462
 30
0.0
 10
69.55
 20
9.8462
 30
0.0
 10
69.55
 20
9.8462
 30
0.0
 10
68.625
 20
8.4888
 30
0.0
 10
68.625
 20
8.4888
 30
0.0
 10
68.625
 20
8.4888
 30
0.0
 10
68.625
 20
8.4888
 30
0.0
 10
65.1788
 20
-2.7351
 30
0.0
 10
65.1788
 20
-2.7351
 30
0.0
 10
65.1788
 20
-2.7351
 30
0.0
 10
65.1788
 20
-2.7351
 30
0.0
 10
63.799
 20
-6.0709
 30
0.0
 10
63.799
 20
-6.0709
 30
0.0
 10
63.799
 20
-6.0709
 30
0.0
 10
63.799
 20
-6.0709
 30
0.0
 10
63.6706
 20
-11.4866
 30
0.0
 10
63.6706
 20
-11.4866
 30
0.0
 10
63.6706
 20
-11.4866
 30
0.0
 10
63.6706
 20
-11.4866
 30
0.0
 10
66.5389
 20
-40.9082
 30
0.0
 10
66.5389
 20
-40.9082
 30
0.0
  0
SPLINE
  5
5D
330
1F
100
AcDbEntity
  8
layer 1
 62
     7
100
AcDbSpline
210
0.0
220
0.0
230
1.0
 70
    11
 71
     3
 72
    48
 73
    44
 74
     0
 42
0.0000000001
 43
0.0000000001
 12
1.0
 22
0.0
 32
0.0
 13
1.0
 23
0.0
 33
0.0
 40
0.0
 40
0.0
 40
0.0
 40
0.0
 40
0.0833333333333333
 40
0.0833333333333333
 40
0.0833333333333333
 40
0.0833333333333333
 40
0.1666666666666667
 40
0.1666666666666667
 40
0.1666666666666667
 40
0.1666666666666667
 40
0.25
 40
0.25
 40
0.25
 40
0.25
 40
0.3333333333333333
 40
0.3333333333333333
 40
0.3333333333333333
 40
0.3333333333333333
 40
0.4166666666666667
 40
0.4166666666666667
 40
0.4166666666666667
 40
0.4166666666666667
 40
0.5
 40
0.5
 40
0.5
 40
0.5
 40
0.5833333333333334
 40
0.5833333333333334
 40
0.5833333333333334
 40
0.5833333333333334
 40
0.6666666666666666
 40
0.6666666666666666
 40
0.6666666666666666
 40
0.6666666666666666
 40
0.75
 40
0.75
 40
0.75
 40
0.75
 40
0.8333333333333334
 40
0.8333333333333334
 40
0.8333333333333334
 40
0.8333333333333334
 40
1.0
 40
1.0
 40
1.0
 40
1.0
 10
72.7318
 20
-89.6579
 30
0.0
 10
72.7318
 20
-89.6579
 30
0.0
 10
74.5068
 20
-90.9578
 30
0.0
 10
74.5068
 20
-90.9578
 30
0.0
 10
74.5068
 20
-90.9578
 30
0.0
 10
74.5068
 20
-90.9578
 30
0.0
 10
76.7657
 20
-89.5452
 30
0.0
 10
76.7657
 20
-89.5452
 30
0.0
 10
76.7657
 20
-89.5452
 30
0.0
 10
76.7657
 20
-89.5452
 30
0.0
 10
81.3401
 20
-79.7048
 30
0.0
 10
81.3401
 20
-79.7048
 30
0.0
 10
81.3401
 20
-79.7048
 30
0.0
 10
81.3401
 20
-79.7048
 30
0.0
 10
81.9937
 20
-75.633
 30
0.0
 10
81.9937
 20
-75.633
 30
0.0
 10
81.9937
 20
-75.633
 30
0.0
 10
81.9937
 20
-75.633
 30
0.0
 10
87.5914
 20
-30.8257
 30
0.0
 10
87.5914
 20
-30.8257
 30
0.0
 10
87.5914
 20
-30.8257
 30
0.0
 10
87.5914
 20
-30.8257
 30
0.0
 10
85.3396
 20
-30.9201
 30
0.0
 10
85.3396
 20
-30.9201
 30
0.0
 10
85.3396
 20
-30.9201
 30
0.0
 10
85.3396
 20
-30.9201
 30
0.0
 10
73.0171
 20
-43.6957
 30
0.0
 10
73.0171
 20
-43.6957
 30
0.0
 10
73.0171
 20
-43.6957
 30
0.0
 10
73.0171
 20
-43.6957
 30
0.0
 10
69.739
 20
-48.8247
 30
0.0
 10
69.739
 20
-48.8247
 30
0.0
 10
69.739
 20
-48.8247
 30
0.0
 10
69.739
 20
-48.8247
 30
0.0
 10
69.0841
 20
-53.8324
 30
0.0
 10
69.0841
 20
-53.8324
 30
0.0
 10
69.0841
 20
-53.8324
 30
0.0
 10
69.0841
 20
-53.8324
 30
0.0
 10
72.3218
 20
-87.2352
 30
0.0
 10
72.3218
 20
-87.2352
 30
0.0
 10
72.3218
 20
-87.2352
 30
0.0
 10
72.3218
 20
-87.2352
 30
0.0
 10
72.7318
 20
-89.6579
 30
0.0
 10
72.7318
 20
-89.6579
 30
0.0
  0
SPLINE
  5
5E
330
1F
100
AcDbEntity
  8
layer 1
 62
     7
100
AcDbSpline
210
0.0
220
0.0
230
1.0
 70
    11
 71
     3
 72
    32
 73
    28
 74
     0
 42
0.0000000001
 43
0.0000000001
 12
1.0
 22
0.0
 32
0.0
 13
1.0
 23
0.0
 33
0.0
 40
0.0
 40
0.0
 40
0.0
 40
0.0
 40
0.125
 40
0.125
 40
0.125
 40
0.125
 40
0.25
 40
0.25
 40
0.25
 40
0.25
 40
0.375
 40
0.375
 40
0.375
 40
0.375
 40
0.5
 40
0.5
 40
0.5
 40
0.5
 40
0.625
 40
0.625
 40
0.625
 40
0.625
 40
0.75
 40
0.75
 40
0.75
 40
0.75
 40
1.0
 40
1.0
 40
1.0
 40
1.0
 10
74.2254
 20
-111.2933
 30
0.0
 10
74.2254
 20
-111.2933
 30
0.0
 10
78.0611
 20
-111.2933
 30
0.0
 10
78.0611
 20
-111.2933
 30
0.0
 10
78.0611
 20
-111.2933
 30
0.0
 10
78.0611
 20
-111.2933
 30
0.0
 10
78.0611
 20
-107.3548
 30
0.0
 10
78.0611
 20
-107.3548
 30
0.0
 10
78.0611
 20
-107.3548
 30
0.0
 10
78.0611
 20
-107.3548
 30
0.0
 10
79.1736
 20
-98.8493
 30
0.0
 10
79.1736
 20
-98.8493
 30
0.0
 10
79.1736
 20
-98.8493
 30
0.0
 10
79.1736
 20
-98.8493
 30
0.0
 10
81.3987
 20
-90.023
 30
0.0
 10
81.3987
 20
-90.023
 30
0.0
 10
81.3987
 20
-90.023
 30
0.0
 10
81.3987
 20
-90.023
 30
0.0
 10
76.8246
 20
-96.6027
 30
0.0
 10
76.8246
 20
-96.6027
 30
0.0
 10
76.8246
 20
-96.6027
 30
0.0
 10
76.8246
 20
-96.6027
 30
0.0
 10
75.2175
 20
-103.3428
 30
0.0
 10
75.2175
 20
-103.3428
 30
0.0
 10
75.2175
 20
-103.3428
 30
0.0
 10
75.2175
 20
-103.3428
 30
0.0
 10
74.2254
 20
-111.2933
 30
0.0
 10
74.2254
 20
-111.2933
 30
0.0
  0
SPLINE
  5
5F
330
1F
100
AcDbEntity
  8
layer 1
 62
     7
100
AcDbSpline
210
0.0
220
0.0
230
1.0
 70
    11
 71
     3
 72
    20
 73
    16
 74
     0
 42
0.0000000001
 43
0.0000000001
 12
1.0
 22
0.0
 32
0.0
 13
1.0
 23
0.0
 33
0.0
 40
0.0
 40
0.0
 40
0.0
 40
0.0
 40
0.2
 40
0.2
 40
0.2
 40
0.2
 40
0.4
 40
0.4
 40
0.4
 40
0.4
 40
0.6
 40
0.6
 40
0.6
 40
0.6
 40
1.0
 40
1.0
 40
1.0
 40
1.0
 10
56.4339
 20
104.687
 30
0.0
 10
56.4339
 20
104.687
 30
0.0
 10
57.2503
 20
105.3935
 30
0.0
 10
57.2503
 20
105.3935
 30
0.0
 10
57.2503
 20
105.3935
 30
0.0
 10
57.2503
 20
105.3935
 30
0.0
 10
51.4184
 20
114.1752
 30
0.0
 10
51.4184
 20
114.1752
 30
0.0
 10
51.4184
 20
114.1752
 30
0.0
 10
51.4184
 20
114.1752
 30
0.0
 10
51.4572
 20
108.018
 30
0.0
 10
51.4572
 20
108.018
 30
0.0
 10
51.4572
 20
108.018
 30
0.0
 10
51.4572
 20
108.018
 30
0.0
 10
56.4339
 20
104.687
 30
0.0
 10
56.4339
 20
104.687
 30
0.0
  0
SPLINE
  5
60
330
1F
100
AcDbEntity
  8
layer 1
 62
     7
100
AcDbSpline
210
0.0
220
0.0
230
1.0
 70
    11
 71
     3
 72
    36
 73
    32
 74
     0
 42
0.0000000001
 43
0.0000000001
 12
1.0
 22
0.0
 32
0.0
 13
1.0
 23
0.0
 33
0.0
 40
0.0
 40
0.0
 40
0.0
 40
0.0
 40
0.1111111111111111
 40
0.1111111111111111
 40
0.1111111111111111
 40
0.1111111111111111
 40
0.2222222222222222
 40
0.2222222222222222
 40
0.2222222222222222
 40
0.2222222222222222
 40
0.3333333333333333
 40
0.3333333333333333
 40
0.3333333333333333
 40
0.3333333333333333
 40
0.4444444444444444
 40
0.4444444444444444
 40
0.4444444444444444
 40
0.4444444444444444
 40
0.5555555555555556
 40
0.5555555555555556
 40
0.5555555555555556
 40
0.5555555555555556
 40
0.6666666666666666
 40
0.6666666666666666
 40
0.6666666666666666
 40
0.6666666666666666
 40
0.7777777777777778
 40
0.7777777777777778
 40
0.7777777777777778
 40
0.7777777777777778
 40
1.0
 40
1.0
 40
1.0
 40
1.0
 10
47.0885
 20
108.601
 30
0.0
 10
47.0885
 20
108.601
 30
0.0
 10
49.3479
 20
108.4732
 30
0.0
 10
49.3479
 20
108.4732
 30
0.0
 10
49.3479
 20
108.4732
 30
0.0
 10
49.3479
 20
108.4732
 30
0.0
 10
49.5933
 20
110.7687
 30
0.0
 10
49.5933
 20
110.7687
 30
0.0
 10
49.5933
 20
110.7687
 30
0.0
 10
49.5933
 20
110.7687
 30
0.0
 10
47.9695
 20
127.2808
 30
0.0
 10
47.9695
 20
127.2808
 30
0.0
 10
47.9695
 20
127.2808
 30
0.0
 10
47.9695
 20
127.2808
 30
0.0
 10
45.5329
 20
127.2808
 30
0.0
 10
45.5329
 20
127.2808
 30
0.0
 10
45.5329
 20
127.2808
 30
0.0
 10
45.5329
 20
127.2808
 30
0.0
 10
44.8784
 20
121.863
 30
0.0
 10
44.8784
 20
121.863
 30
0.0
 10
44.8784
 20
121.863
 30
0.0
 10
44.8784
 20
121.863
 30
0.0
 10
44.7308
 20
110.7053
 30
0.0
 10
44.7308
 20
110.7053
 30
0.0
 10
44.7308
 20
110.7053
 30
0.0
 10
44.7308
 20
110.7053
 30
0.0
 10
45.4184
 20
110.3223
 30
0.0
 10
45.4184
 20
110.3223
 30
0.0
 10
45.4184
 20
110.3223
 30
0.0
 10
45.4184
 20
110.3223
 30
0.0
 10
47.0885
 20
108.601
 30
0.0
 10
47.0885
 20
108.601
 30
0.0
  0
SPLINE
  5
61
330
1F
100
AcDbEntity
  8
layer 1
 62
     7
100
AcDbSpline
210
0.0
220
0.0
230
1.0
 70
    11
 71
     3
 72
    32
 73
    28
 74
     0
 42
0.0000000001
 43
0.0000000001
 12
1.0
 22
0.0
 32
0.0
 13
1.0
 23
0.0
 33
0.0
 40
0.0
 40
0.0
 40
0.0
 40
0.0
 40
0.125
 40
0.125
 40
0.125
 40
0.125
 40
0.25
 40
0.25
 40
0.25
 40
0.25
 40
0.375
 40
0.375
 40
0.375
 40
0.375
 40
0.5
 40
0.5
 40
0.5
 40
0.5
 40
0.625
 40
0.625
 40
0.625
 40
0.625
 40
0.75
 40
0.75
 40
0.75
 40
0.75
 40
1.0
 40
1.0
 40
1.0
 40
1.0
 10
51.6586
 20
89.6327
 30
0.0
 10
51.6586
 20
89.6327
 30
0.0
 10
50.4795
 20
103.7873
 30
0.0
 10
50.4795
 20
103.7873
 30
0.0
 10
50.4795
 20
103.7873
 30
0.0
 10
50.4795
 20
103.7873
 30
0.0
 10
49.3499
 20
105.7001
 30
0.0
 10
49.3499
 20
105.7001
 30
0.0
 10
49.3499
 20
105.7001
 30
0.0
 10
49.3499
 20
105.7001
 30
0.0
 10
47.8274
 20
106.3375
 30
0.0
 10
47.8274
 20
106.3375
 30
0.0
 10
47.8274
 20
106.3375
 30
0.0
 10
47.8274
 20
106.3375
 30
0.0
 10
45.961
 20
105.2538
 30
0.0
 10
45.961
 20
105.2538
 30
0.0
 10
45.961
 20
105.2538
 30
0.0
 10
45.961
 20
105.2538
 30
0.0
 10
45.7151
 20
96.9011
 30
0.0
 10
45.7151
 20
96.9011
 30
0.0
 10
45.7151
 20
96.9011
 30
0.0
 10
45.7151
 20
96.9011
 30
0.0
 10
46.4027
 20
94.6698
 30
0.0
 10
46.4027
 20
94.6698
 30
0.0
 10
46.4027
 20
94.6698
 30
0.0
 10
46.4027
 20
94.6698
 30
0.0
 10
51.6586
 20
89.6327
 30
0.0
 10
51.6586
 20
89.6327
 30
0.0
  0
SPLINE
  5
62
330
1F
100
AcDbEntity
  8
layer 1
 62
     7
100
AcDbSpline
210
0.0
220
0.0
230
1.0
 70
    11
 71
     3
 72
    28
 73
    24
 74
     0
 42
0.0000000001
 43
0.0000000001
 12
1.0
 22
0.0
 32
0.0
 13
1.0
 23
0.0
 33
0.0
 40
0.0
 40
0.0
 40
0.0
 40
0.0
 40
0.1428571428571428
 40
0.1428571428571428
 40
0.1428571428571428
 40
0.1428571428571428
 40
0.2857142857142857
 40
0.2857142857142857
 40
0.2857142857142857
 40
0.2857142857142857
 40
0.4285714285714285
 40
0.4285714285714285
 40
0.4285714285714285
 40
0.4285714285714285
 40
0.5714285714285714
 40
0.5714285714285714
 40
0.5714285714285714
 40
0.5714285714285714
 40
0.7142857142857143
 40
0.7142857142857143
 40
0.7142857142857143
 40
0.7142857142857143
 40
1.0
 40
1.0
 40
1.0
 40
1.0
 10
56.3256
 20
71.767
 30
0.0
 10
56.3256
 20
71.767
 30
0.0
 10
57.2715
 20
71.949
 30
0.0
 10
57.2715
 20
71.949
 30
0.0
 10
57.2715
 20
71.949
 30
0.0
 10
57.2715
 20
71.949
 30
0.0
 10
59.7594
 20
75.4972
 30
0.0
 10
59.7594
 20
75.4972
 30
0.0
 10
59.7594
 20
75.4972
 30
0.0
 10
59.7594
 20
75.4972
 30
0.0
 10
59.5843
 20
76.5886
 30
0.0
 10
59.5843
 20
76.5886
 30
0.0
 10
59.5843
 20
76.5886
 30
0.0
 10
59.5843
 20
76.5886
 30
0.0
 10
56.0466
 20
80.7639
 30
0.0
 10
56.0466
 20
80.7639
 30
0.0
 10
56.0466
 20
80.7639
 30
0.0
 10
56.0466
 20
80.7639
 30
0.0
 10
55.3442
 20
80.7281
 30
0.0
 10
55.3442
 20
80.7281
 30
0.0
 10
55.3442
 20
80.7281
 30
0.0
 10
55.3442
 20
80.7281
 30
0.0
 10
56.3256
 20
71.767
 30
0.0
 10
56.3256
 20
71.767
 30
0.0
  0
SPLINE
  5
63
330
1F
100
AcDbEntity
  8
layer 1
 62
     7
100
AcDbSpline
210
0.0
220
0.0
230
1.0
 70
    11
 71
     3
 72
    40
 73
    36
 74
     0
 42
0.0000000001
 43
0.0000000001
 12
1.0
 22
0.0
 32
0.0
 13
1.0
 23
0.0
 33
0.0
 40
0.0
 40
0.0
 40
0.0
 40
0.0
 40
0.1
 40
0.1
 40
0.1
 40
0.1
 40
0.2
 40
0.2
 40
0.2
 40
0.2
 40
0.3
 40
0.3
 40
0.3
 40
0.3
 40
0.4
 40
0.4
 40
0.4
 40
0.4
 40
0.5
 40
0.5
 40
0.5
 40
0.5
 40
0.6
 40
0.6
 40
0.6
 40
0.6
 40
0.7
 40
0.7
 40
0.7
 40
0.7
 40
0.8
 40
0.8
 40
0.8
 40
0.8
 40
1.0
 40
1.0
 40
1.0
 40
1.0
 10
45.8362
 20
60.2756
 30
0.0
 10
45.8362
 20
60.2756
 30
0.0
 10
46.8835
 20
59.3693
 30
0.0
 10
46.8835
 20
59.3693
 30
0.0
 10
46.8835
 20
59.3693
 30
0.0
 10
46.8835
 20
59.3693
 30
0.0
 10
48.4892
 20
59.3693
 30
0.0
 10
48.4892
 20
59.3693
 30
0.0
 10
48.4892
 20
59.3693
 30
0.0
 10
48.4892
 20
59.3693
 30
0.0
 10
53.795
 20
67.0727
 30
0.0
 10
53.795
 20
67.0727
 30
0.0
 10
53.795
 20
67.0727
 30
0.0
 10
53.795
 20
67.0727
 30
0.0
 10
53.9346
 20
72.1472
 30
0.0
 10
53.9346
 20
72.1472
 30
0.0
 10
53.9346
 20
72.1472
 30
0.0
 10
53.9346
 20
72.1472
 30
0.0
 10
52.8176
 20
82.6598
 30
0.0
 10
52.8176
 20
82.6598
 30
0.0
 10
52.8176
 20
82.6598
 30
0.0
 10
52.8176
 20
82.6598
 30
0.0
 10
48.559
 20
88.9129
 30
0.0
 10
48.559
 20
88.9129
 30
0.0
 10
48.559
 20
88.9129
 30
0.0
 10
48.559
 20
88.9129
 30
0.0
 10
47.0231
 20
89.91
 30
0.0
 10
47.0231
 20
89.91
 30
0.0
 10
47.0231
 20
89.91
 30
0.0
 10
47.0231
 20
89.91
 30
0.0
 10
45.8362
 20
89.0037
 30
0.0
 10
45.8362
 20
89.0037
 30
0.0
 10
45.8362
 20
89.0037
 30
0.0
 10
45.8362
 20
89.0037
 30
0.0
 10
45.8362
 20
60.2756
 30
0.0
 10
45.8362
 20
60.2756
 30
0.0
  0
SPLINE
  5
64
330
1F
100
AcDbEntity
  8
layer 1
 62
     7
100
AcDbSpline
210
0.0
220
0.0
230
1.0
 70
    11
 71
     3
 72
    40
 73
    36
 74
     0
 42
0.0000000001
 43
0.0000000001
 12
1.0
 22
0.0
 32
0.0
 13
1.0
 23
0.0
 33
0.0
 40
0.0
 40
0.0
 40
0.0
 40
0.0
 40
0.1
 40
0.1
 40
0.1
 40
0.1
 40
0.2
 40
0.2
 40
0.2
 40
0.2
 40
0.3
 40
0.3
 40
0.3
 40
0.3
 40
0.4
 40
0.4
 40
0.4
 40
0.4
 40
0.5
 40
0.5
 40
0.5
 40
0.5
 40
0.6
 40
0.6
 40
0.6
 40
0.6
 40
0.7
 40
0.7
 40
0.7
 40
0.7
 40
0.8
 40
0.8
 40
0.8
 40
0.8
 40
1.0
 40
1.0
 40
1.0
 40
1.0
 10
55.8678
 20
35.6914
 30
0.0
 10
55.8678
 20
35.6914
 30
0.0
 10
56.6998
 20
36.4383
 30
0.0
 10
56.6998
 20
36.4383
 30
0.0
 10
56.6998
 20
36.4383
 30
0.0
 10
56.6998
 20
36.4383
 30
0.0
 10
56.6998
 20
37.6851
 30
0.0
 10
56.6998
 20
37.6851
 30
0.0
 10
56.6998
 20
37.6851
 30
0.0
 10
56.6998
 20
37.6851
 30
0.0
 10
53.3382
 20
57.4064
 30
0.0
 10
53.3382
 20
57.4064
 30
0.0
 10
53.3382
 20
57.4064
 30
0.0
 10
53.3382
 20
57.4064
 30
0.0
 10
52.509
 20
58.5962
 30
0.0
 10
52.509
 20
58.5962
 30
0.0
 10
52.509
 20
58.5962
 30
0.0
 10
52.509
 20
58.5962
 30
0.0
 10
51.3968
 20
58.4934
 30
0.0
 10
51.3968
 20
58.4934
 30
0.0
 10
51.3968
 20
58.4934
 30
0.0
 10
51.3968
 20
58.4934
 30
0.0
 10
50.6316
 20
57.4064
 30
0.0
 10
50.6316
 20
57.4064
 30
0.0
 10
50.6316
 20
57.4064
 30
0.0
 10
50.6316
 20
57.4064
 30
0.0
 10
45.9578
 20
50.7656
 30
0.0
 10
45.9578
 20
50.7656
 30
0.0
 10
45.9578
 20
50.7656
 30
0.0
 10
45.9578
 20
50.7656
 30
0.0
 10
46.2634
 20
48.0455
 30
0.0
 10
46.2634
 20
48.0455
 30
0.0
 10
46.2634
 20
48.0455
 30
0.0
 10
46.2634
 20
48.0455
 30
0.0
 10
55.8678
 20
35.6914
 30
0.0
 10
55.8678
 20
35.6914
 30
0.0
  0
SPLINE
  5
65
330
1F
100
AcDbEntity
  8
layer 1
 62
     7
100
AcDbSpline
210
0.0
220
0.0
230
1.0
 70
    11
 71
     3
 72
    44
 73
    40
 74
     0
 42
0.0000000001
 43
0.0000000001
 12
1.0
 22
0.0
 32
0.0
 13
1.0
 23
0.0
 33
0.0
 40
0.0
 40
0.0
 40
0.0
 40
0.0
 40
0.0909090909090909
 40
0.0909090909090909
 40
0.0909090909090909
 40
0.0909090909090909
 40
0.1818181818181818
 40
0.1818181818181818
 40
0.1818181818181818
 40
0.1818181818181818
 40
0.2727272727272727
 40
0.2727272727272727
 40
0.2727272727272727
 40
0.2727272727272727
 40
0.3636363636363636
 40
0.3636363636363636
 40
0.3636363636363636
 40
0.3636363636363636
 40
0.4545454545454545
 40
0.4545454545454545
 40
0.4545454545454545
 40
0.4545454545454545
 40
0.5454545454545454
 40
0.5454545454545454
 40
0.5454545454545454
 40
0.5454545454545454
 40
0.6363636363636364
 40
0.6363636363636364
 40
0.6363636363636364
 40
0.6363636363636364
 40
0.7272727272727273
 40
0.7272727272727273
 40
0.7272727272727273
 40
0.7272727272727273
 40
0.8181818181818182
 40
0.8181818181818182
 40
0.8181818181818182
 40
0.8181818181818182
 40
1.0
 40
1.0
 40
1.0
 40
1.0
 10
45.9348
 20
4.5427
 30
0.0
 10
45.9348
 20
4.5427
 30
0.0
 10
47.1873
 20
3.5078
 30
0.0
 10
47.1873
 20
3.5078
 30
0.0
 10
47.1873
 20
3.5078
 30
0.0
 10
47.1873
 20
3.5078
 30
0.0
 10
49.425
 20
9.1817
 30
0.0
 10
49.425
 20
9.1817
 30
0.0
 10
49.425
 20
9.1817
 30
0.0
 10
49.425
 20
9.1817
 30
0.0
 10
54.3925
 20
21.9748
 30
0.0
 10
54.3925
 20
21.9748
 30
0.0
 10
54.3925
 20
21.9748
 30
0.0
 10
54.3925
 20
21.9748
 30
0.0
 10
54.8735
 20
27.383
 30
0.0
 10
54.8735
 20
27.383
 30
0.0
 10
54.8735
 20
27.383
 30
0.0
 10
54.8735
 20
27.383
 30
0.0
 10
54.0721
 20
32.1674
 30
0.0
 10
54.0721
 20
32.1674
 30
0.0
 10
54.0721
 20
32.1674
 30
0.0
 10
54.0721
 20
32.1674
 30
0.0
 10
50.4667
 20
36.9519
 30
0.0
 10
50.4667
 20
36.9519
 30
0.0
 10
50.4667
 20
36.9519
 30
0.0
 10
50.4667
 20
36.9519
 30
0.0
 10
47.3419
 20
41.1119
 30
0.0
 10
47.3419
 20
41.1119
 30
0.0
 10
47.3419
 20
41.1119
 30
0.0
 10
47.3419
 20
41.1119
 30
0.0
 10
46.439
 20
41.69
 30
0.0
 10
46.439
 20
41.69
 30
0.0
 10
46.439
 20
41.69
 30
0.0
 10
46.439
 20
41.69
 30
0.0
 10
45.7069
 20
40.7616
 30
0.0
 10
45.7069
 20
40.7616
 30
0.0
 10
45.7069
 20
40.7616
 30
0.0
 10
45.7069
 20
40.7616
 30
0.0
 10
45.9348
 20
4.5427
 30
0.0
 10
45.9348
 20
4.5427
 30
0.0
  0
SPLINE
  5
66
330
1F
100
AcDbEntity
  8
layer 1
 62
     7
100
AcDbSpline
210
0.0
220
0.0
230
1.0
 70
    11
 71
     3
 72
    44
 73
    40
 74
     0
 42
0.0000000001
 43
0.0000000001
 12
1.0
 22
0.0
 32
0.0
 13
1.0
 23
0.0
 33
0.0
 40
0.0
 40
0.0
 40
0.0
 40
0.0
 40
0.0909090909090909
 40
0.0909090909090909
 40
0.0909090909090909
 40
0.0909090909090909
 40
0.1818181818181818
 40
0.1818181818181818
 40
0.1818181818181818
 40
0.1818181818181818
 40
0.2727272727272727
 40
0.2727272727272727
 40
0.2727272727272727
 40
0.2727272727272727
 40
0.3636363636363636
 40
0.3636363636363636
 40
0.3636363636363636
 40
0.3636363636363636
 40
0.4545454545454545
 40
0.4545454545454545
 40
0.4545454545454545
 40
0.4545454545454545
 40
0.5454545454545454
 40
0.5454545454545454
 40
0.5454545454545454
 40
0.5454545454545454
 40
0.6363636363636364
 40
0.6363636363636364
 40
0.6363636363636364
 40
0.6363636363636364
 40
0.7272727272727273
 40
0.7272727272727273
 40
0.7272727272727273
 40
0.7272727272727273
 40
0.8181818181818182
 40
0.8181818181818182
 40
0.8181818181818182
 40
0.8181818181818182
 40
1.0
 40
1.0
 40
1.0
 40
1.0
 10
60.9672
 20
-28.8258
 30
0.0
 10
60.9672
 20
-28.8258
 30
0.0
 10
61.6035
 20
-22.6913
 30
0.0
 10
61.6035
 20
-22.6913
 30
0.0
 10
61.6035
 20
-22.6913
 30
0.0
 10
61.6035
 20
-22.6913
 30
0.0
 10
58.1699
 20
18.9832
 30
0.0
 10
58.1699
 20
18.9832
 30
0.0
 10
58.1699
 20
18.9832
 30
0.0
 10
58.1699
 20
18.9832
 30
0.0
 10
57.2328
 20
19.6347
 30
0.0
 10
57.2328
 20
19.6347
 30
0.0
 10
57.2328
 20
19.6347
 30
0.0
 10
57.2328
 20
19.6347
 30
0.0
 10
56.441
 20
18.9492
 30
0.0
 10
56.441
 20
18.9492
 30
0.0
 10
56.441
 20
18.9492
 30
0.0
 10
56.441
 20
18.9492
 30
0.0
 10
47.0917
 20
-5.6424
 30
0.0
 10
47.0917
 20
-5.6424
 30
0.0
 10
47.0917
 20
-5.6424
 30
0.0
 10
47.0917
 20
-5.6424
 30
0.0
 10
47.2135
 20
-9.5077
 30
0.0
 10
47.2135
 20
-9.5077
 30
0.0
 10
47.2135
 20
-9.5077
 30
0.0
 10
47.2135
 20
-9.5077
 30
0.0
 10
48.2564
 20
-12.0684
 30
0.0
 10
48.2564
 20
-12.0684
 30
0.0
 10
48.2564
 20
-12.0684
 30
0.0
 10
48.2564
 20
-12.0684
 30
0.0
 10
54.6441
 20
-20.5902
 30
0.0
 10
54.6441
 20
-20.5902
 30
0.0
 10
54.6441
 20
-20.5902
 30
0.0
 10
54.6441
 20
-20.5902
 30
0.0
 10
57.7192
 20
-24.1618
 30
0.0
 10
57.7192
 20
-24.1618
 30
0.0
 10
57.7192
 20
-24.1618
 30
0.0
 10
57.7192
 20
-24.1618
 30
0.0
 10
60.9672
 20
-28.8258
 30
0.0
 10
60.9672
 20
-28.8258
 30
0.0
  0
SPLINE
  5
67
330
1F
100
AcDbEntity
  8
layer 1
 62
     7
100
AcDbSpline
210
0.0
220
0.0
230
1.0
 70
    11
 71
     3
 72
    76
 73
    72
 74
     0
 42
0.0000000001
 43
0.0000000001
 12
1.0
 22
0.0
 32
0.0
 13
1.0
 23
0.0
 33
0.0
 40
0.0
 40
0.0
 40
0.0
 40
0.0
 40
0.0526315789473684
 40
0.0526315789473684
 40
0.0526315789473684
 40
0.0526315789473684
 40
0.1052631578947368
 40
0.1052631578947368
 40
0.1052631578947368
 40
0.1052631578947368
 40
0.1578947368421053
 40
0.1578947368421053
 40
0.1578947368421053
 40
0.1578947368421053
 40
0.2105263157894737
 40
0.2105263157894737
 40
0.2105263157894737
 40
0.2105263157894737
 40
0.2631578947368421
 40
0.2631578947368421
 40
0.2631578947368421
 40
0.2631578947368421
 40
0.3157894736842105
 40
0.3157894736842105
 40
0.3157894736842105
 40
0.3157894736842105
 40
0.3684210526315789
 40
0.3684210526315789
 40
0.3684210526315789
 40
0.3684210526315789
 40
0.4210526315789473
 40
0.4210526315789473
 40
0.4210526315789473
 40
0.4210526315789473
 40
0.4736842105263158
 40
0.4736842105263158
 40
0.4736842105263158
 40
0.4736842105263158
 40
0.5263157894736842
 40
0.5263157894736842
 40
0.5263157894736842
 40
0.5263157894736842
 40
0.5789473684210527
 40
0.5789473684210527
 40
0.5789473684210527
 40
0.5789473684210527
 40
0.631578947368421
 40
0.631578947368421
 40
0.631578947368421
 40
0.631578947368421
 40
0.6842105263157895
 40
0.6842105263157895
 40
0.6842105263157895
 40
0.6842105263157895
 40
0.7368421052631579
 40
0.7368421052631579
 40
0.7368421052631579
 40
0.7368421052631579
 40
0.7894736842105263
 40
0.7894736842105263
 40
0.7894736842105263
 40
0.7894736842105263
 40
0.8421052631578947
 40
0.8421052631578947
 40
0.8421052631578947
 40
0.8421052631578947
 40
0.8947368421052632
 40
0.8947368421052632
 40
0.8947368421052632
 40
0.8947368421052632
 40
1.0
 40
1.0
 40
1.0
 40
1.0
 10
56.2127
 20
-70.8643
 30
0.0
 10
56.2127
 20
-70.8643
 30
0.0
 10
58.205
 20
-70.2006
 30
0.0
 10
58.205
 20
-70.2006
 30
0.0
 10
58.205
 20
-70.2006
 30
0.0
 10
58.205
 20
-70.2006
 30
0.0
 10
59.0481
 20
-68.4138
 30
0.0
 10
59.0481
 20
-68.4138
 30
0.0
 10
59.0481
 20
-68.4138
 30
0.0
 10
59.0481
 20
-68.4138
 30
0.0
 10
60.2509
 20
-66.3722
 30
0.0
 10
60.2509
 20
-66.3722
 30
0.0
 10
60.2509
 20
-66.3722
 30
0.0
 10
60.2509
 20
-66.3722
 30
0.0
 10
61.3609
 20
-64.6914
 30
0.0
 10
61.3609
 20
-64.6914
 30
0.0
 10
61.3609
 20
-64.6914
 30
0.0
 10
61.3609
 20
-64.6914
 30
0.0
 10
62.9333
 20
-62.1696
 30
0.0
 10
62.9333
 20
-62.1696
 30
0.0
 10
62.9333
 20
-62.1696
 30
0.0
 10
62.9333
 20
-62.1696
 30
0.0
 10
64.6907
 20
-58.6871
 30
0.0
 10
64.6907
 20
-58.6871
 30
0.0
 10
64.6907
 20
-58.6871
 30
0.0
 10
64.6907
 20
-58.6871
 30
0.0
 10
65.7083
 20
-55.8052
 30
0.0
 10
65.7083
 20
-55.8052
 30
0.0
 10
65.7083
 20
-55.8052
 30
0.0
 10
65.7083
 20
-55.8052
 30
0.0
 10
65.5234
 20
-50.8606
 30
0.0
 10
65.5234
 20
-50.8606
 30
0.0
 10
65.5234
 20
-50.8606
 30
0.0
 10
65.5234
 20
-50.8606
 30
0.0
 10
64.5058
 20
-44.9767
 30
0.0
 10
64.5058
 20
-44.9767
 30
0.0
 10
64.5058
 20
-44.9767
 30
0.0
 10
64.5058
 20
-44.9767
 30
0.0
 10
61.2683
 20
-39.8132
 30
0.0
 10
61.2683
 20
-39.8132
 30
0.0
 10
61.2683
 20
-39.8132
 30
0.0
 10
61.2683
 20
-39.8132
 30
0.0
 10
47.9177
 20
-21.8815
 30
0.0
 10
47.9177
 20
-21.8815
 30
0.0
 10
47.9177
 20
-21.8815
 30
0.0
 10
47.9177
 20
-21.8815
 30
0.0
 10
46.3621
 20
-22.3041
 30
0.0
 10
46.3621
 20
-22.3041
 30
0.0
 10
46.3621
 20
-22.3041
 30
0.0
 10
46.3621
 20
-22.3041
 30
0.0
 10
45.4602
 20
-23.1374
 30
0.0
 10
45.4602
 20
-23.1374
 30
0.0
 10
45.4602
 20
-23.1374
 30
0.0
 10
45.4602
 20
-23.1374
 30
0.0
 10
45.5322
 20
-60.5973
 30
0.0
 10
45.5322
 20
-60.5973
 30
0.0
 10
45.5322
 20
-60.5973
 30
0.0
 10
45.5322
 20
-60.5973
 30
0.0
 10
47.4374
 20
-63.7445
 30
0.0
 10
47.4374
 20
-63.7445
 30
0.0
 10
47.4374
 20
-63.7445
 30
0.0
 10
47.4374
 20
-63.7445
 30
0.0
 10
51.594
 20
-68.2414
 30
0.0
 10
51.594
 20
-68.2414
 30
0.0
 10
51.594
 20
-68.2414
 30
0.0
 10
51.594
 20
-68.2414
 30
0.0
 10
53.9033
 20
-70.4146
 30
0.0
 10
53.9033
 20
-70.4146
 30
0.0
 10
53.9033
 20
-70.4146
 30
0.0
 10
53.9033
 20
-70.4146
 30
0.0
 10
56.2127
 20
-70.8643
 30
0.0
 10
56.2127
 20
-70.8643
 30
0.0
  0
SPLINE
  5
68
330
1F
100
AcDbEntity
  8
layer 1
 62
     7
100
AcDbSpline
210
0.0
220
0.0
230
1.0
 70
    11
 71
     3
 72
    36
 73
    32
 74
     0
 42
0.0000000001
 43
0.0000000001
 12
1.0
 22
0.0
 32
0.0
 13
1.0
 23
0.0
 33
0.0
 40
0.0
 40
0.0
 40
0.0
 40
0.0
 40
0.1111111111111111
 40
0.1111111111111111
 40
0.1111111111111111
 40
0.1111111111111111
 40
0.2222222222222222
 40
0.2222222222222222
 40
0.2222222222222222
 40
0.2222222222222222
 40
0.3333333333333333
 40
0.3333333333333333
 40
0.3333333333333333
 40
0.3333333333333333
 40
0.4444444444444444
 40
0.4444444444444444
 40
0.4444444444444444
 40
0.4444444444444444
 40
0.5555555555555556
 40
0.5555555555555556
 40
0.5555555555555556
 40
0.5555555555555556
 40
0.6666666666666666
 40
0.6666666666666666
 40
0.6666666666666666
 40
0.6666666666666666
 40
0.7777777777777778
 40
0.7777777777777778
 40
0.7777777777777778
 40
0.7777777777777778
 40
1.0
 40
1.0
 40
1.0
 40
1.0
 10
65.7692
 20
-83.1222
 30
0.0
 10
65.7692
 20
-83.1222
 30
0.0
 10
67.489
 20
-82.5906
 30
0.0
 10
67.489
 20
-82.5906
 30
0.0
 10
67.489
 20
-82.5906
 30
0.0
 10
67.489
 20
-82.5906
 30
0.0
 10
68.2259
 20
-80.5707
 30
0.0
 10
68.2259
 20
-80.5707
 30
0.0
 10
68.2259
 20
-80.5707
 30
0.0
 10
68.2259
 20
-80.5707
 30
0.0
 10
66.3426
 20
-61.4357
 30
0.0
 10
66.3426
 20
-61.4357
 30
0.0
 10
66.3426
 20
-61.4357
 30
0.0
 10
66.3426
 20
-61.4357
 30
0.0
 10
65.7569
 20
-61.5312
 30
0.0
 10
65.7569
 20
-61.5312
 30
0.0
 10
65.7569
 20
-61.5312
 30
0.0
 10
65.7569
 20
-61.5312
 30
0.0
 10
59.7909
 20
-74.8302
 30
0.0
 10
59.7909
 20
-74.8302
 30
0.0
 10
59.7909
 20
-74.8302
 30
0.0
 10
59.7909
 20
-74.8302
 30
0.0
 10
59.873
 20
-77.7003
 30
0.0
 10
59.873
 20
-77.7003
 30
0.0
 10
59.873
 20
-77.7003
 30
0.0
 10
59.873
 20
-77.7003
 30
0.0
 10
63.4763
 20
-81.4211
 30
0.0
 10
63.4763
 20
-81.4211
 30
0.0
 10
63.4763
 20
-81.4211
 30
0.0
 10
63.4763
 20
-81.4211
 30
0.0
 10
65.7692
 20
-83.1222
 30
0.0
 10
65.7692
 20
-83.1222
 30
0.0
  0
SPLINE
  5
69
330
1F
100
AcDbEntity
  8
layer 1
 62
     7
100
AcDbSpline
210
0.0
220
0.0
230
1.0
 70
    11
 71
     3
 72
    52
 73
    48
 74
     0
 42
0.0000000001
 43
0.0000000001
 12
1.0
 22
0.0
 32
0.0
 13
1.0
 23
0.0
 33
0.0
 40
0.0
 40
0.0
 40
0.0
 40
0.0
 40
0.0769230769230769
 40
0.0769230769230769
 40
0.0769230769230769
 40
0.0769230769230769
 40
0.1538461538461539
 40
0.1538461538461539
 40
0.1538461538461539
 40
0.1538461538461539
 40
0.2307692307692308
 40
0.2307692307692308
 40
0.2307692307692308
 40
0.2307692307692308
 40
0.3076923076923077
 40
0.3076923076923077
 40
0.3076923076923077
 40
0.3076923076923077
 40
0.3846153846153846
 40
0.3846153846153846
 40
0.3846153846153846
 40
0.3846153846153846
 40
0.4615384615384616
 40
0.4615384615384616
 40
0.4615384615384616
 40
0.4615384615384616
 40
0.5384615384615384
 40
0.5384615384615384
 40
0.5384615384615384
 40
0.5384615384615384
 40
0.6153846153846154
 40
0.6153846153846154
 40
0.6153846153846154
 40
0.6153846153846154
 40
0.6923076923076923
 40
0.6923076923076923
 40
0.6923076923076923
 40
0.6923076923076923
 40
0.7692307692307693
 40
0.7692307692307693
 40
0.7692307692307693
 40
0.7692307692307693
 40
0.8461538461538461
 40
0.8461538461538461
 40
0.8461538461538461
 40
0.8461538461538461
 40
1.0
 40
1.0
 40
1.0
 40
1.0
 10
45.275
 20
-111.2933
 30
0.0
 10
45.275
 20
-111.2933
 30
0.0
 10
68.4854
 20
-111.2933
 30
0.0
 10
68.4854
 20
-111.2933
 30
0.0
 10
68.4854
 20
-111.2933
 30
0.0
 10
68.4854
 20
-111.2933
 30
0.0
 10
68.4854
 20
-103.0727
 30
0.0
 10
68.4854
 20
-103.0727
 30
0.0
 10
68.4854
 20
-103.0727
 30
0.0
 10
68.4854
 20
-103.0727
 30
0.0
 10
66.9588
 20
-94.6036
 30
0.0
 10
66.9588
 20
-94.6036
 30
0.0
 10
66.9588
 20
-94.6036
 30
0.0
 10
66.9588
 20
-94.6036
 30
0.0
 10
63.2104
 20
-87.9363
 30
0.0
 10
63.2104
 20
-87.9363
 30
0.0
 10
63.2104
 20
-87.9363
 30
0.0
 10
63.2104
 20
-87.9363
 30
0.0
 10
59.5546
 20
-83.7838
 30
0.0
 10
59.5546
 20
-83.7838
 30
0.0
 10
59.5546
 20
-83.7838
 30
0.0
 10
59.5546
 20
-83.7838
 30
0.0
 10
57.3803
 20
-83.972
 30
0.0
 10
57.3803
 20
-83.972
 30
0.0
 10
57.3803
 20
-83.972
 30
0.0
 10
57.3803
 20
-83.972
 30
0.0
 10
55.2984
 20
-84.1521
 30
0.0
 10
55.2984
 20
-84.1521
 30
0.0
 10
55.2984
 20
-84.1521
 30
0.0
 10
55.2984
 20
-84.1521
 30
0.0
 10
52.2403
 20
-89.2647
 30
0.0
 10
52.2403
 20
-89.2647
 30
0.0
 10
52.2403
 20
-89.2647
 30
0.0
 10
52.2403
 20
-89.2647
 30
0.0
 10
49.8845
 20
-94.9639
 30
0.0
 10
49.8845
 20
-94.9639
 30
0.0
 10
49.8845
 20
-94.9639
 30
0.0
 10
49.8845
 20
-94.9639
 30
0.0
 10
46.8306
 20
-102.3519
 30
0.0
 10
46.8306
 20
-102.3519
 30
0.0
 10
46.8306
 20
-102.3519
 30
0.0
 10
46.8306
 20
-102.3519
 30
0.0
 10
45.7202
 20
-107.3972
 30
0.0
 10
45.7202
 20
-107.3972
 30
0.0
 10
45.7202
 20
-107.3972
 30
0.0
 10
45.7202
 20
-107.3972
 30
0.0
 10
45.275
 20
-111.2933
 30
0.0
 10
45.275
 20
-111.2933
 30
0.0
  0
SPLINE
  5
6A
330
1F
100
AcDbEntity
  8
layer 1
 62
     7
100
AcDbSpline
210
0.0
220
0.0
230
1.0
 70
    11
 71
     3
 72
    44
 73
    40
 74
     0
 42
0.0000000001
 43
0.0000000001
 12
1.0
 22
0.0
 32
0.0
 13
1.0
 23
0.0
 33
0.0
 40
0.0
 40
0.0
 40
0.0
 40
0.0
 40
0.0909090909090909
 40
0.0909090909090909
 40
0.0909090909090909
 40
0.0909090909090909
 40
0.1818181818181818
 40
0.1818181818181818
 40
0.1818181818181818
 40
0.1818181818181818
 40
0.2727272727272727
 40
0.2727272727272727
 40
0.2727272727272727
 40
0.2727272727272727
 40
0.3636363636363636
 40
0.3636363636363636
 40
0.3636363636363636
 40
0.3636363636363636
 40
0.4545454545454545
 40
0.4545454545454545
 40
0.4545454545454545
 40
0.4545454545454545
 40
0.5454545454545454
 40
0.5454545454545454
 40
0.5454545454545454
 40
0.5454545454545454
 40
0.6363636363636364
 40
0.6363636363636364
 40
0.6363636363636364
 40
0.6363636363636364
 40
0.7272727272727273
 40
0.7272727272727273
 40
0.7272727272727273
 40
0.7272727272727273
 40
0.8181818181818182
 40
0.8181818181818182
 40
0.8181818181818182
 40
0.8181818181818182
 40
1.0
 40
1.0
 40
1.0
 40
1.0
 10
46.4559
 20
-89.2577
 30
0.0
 10
46.4559
 20
-89.2577
 30
0.0
 10
47.7227
 20
-88.5682
 30
0.0
 10
47.7227
 20
-88.5682
 30
0.0
 10
47.7227
 20
-88.5682
 30
0.0
 10
47.7227
 20
-88.5682
 30
0.0
 10
52.3808
 20
-80.2938
 30
0.0
 10
52.3808
 20
-80.2938
 30
0.0
 10
52.3808
 20
-80.2938
 30
0.0
 10
52.3808
 20
-80.2938
 30
0.0
 10
53.1161
 20
-78.0662
 30
0.0
 10
53.1161
 20
-78.0662
 30
0.0
 10
53.1161
 20
-78.0662
 30
0.0
 10
53.1161
 20
-78.0662
 30
0.0
 10
52.9925
 20
-74.7059
 30
0.0
 10
52.9925
 20
-74.7059
 30
0.0
 10
52.9925
 20
-74.7059
 30
0.0
 10
52.9925
 20
-74.7059
 30
0.0
 10
49.5194
 20
-70.6748
 30
0.0
 10
49.5194
 20
-70.6748
 30
0.0
 10
49.5194
 20
-70.6748
 30
0.0
 10
49.5194
 20
-70.6748
 30
0.0
 10
47.5581
 20
-67.9698
 30
0.0
 10
47.5581
 20
-67.9698
 30
0.0
 10
47.5581
 20
-67.9698
 30
0.0
 10
47.5581
 20
-67.9698
 30
0.0
 10
46.325
 20
-68.0117
 30
0.0
 10
46.325
 20
-68.0117
 30
0.0
 10
46.325
 20
-68.0117
 30
0.0
 10
46.325
 20
-68.0117
 30
0.0
 10
45.4412
 20
-68.9265
 30
0.0
 10
45.4412
 20
-68.9265
 30
0.0
 10
45.4412
 20
-68.9265
 30
0.0
 10
45.4412
 20
-68.9265
 30
0.0
 10
45.4061
 20
-88.0994
 30
0.0
 10
45.4061
 20
-88.0994
 30
0.0
 10
45.4061
 20
-88.0994
 30
0.0
 10
45.4061
 20
-88.0994
 30
0.0
 10
46.4559
 20
-89.2577
 30
0.0
 10
46.4559
 20
-89.2577
 30
0.0
  0
SPLINE
  5
6B
330
1F
100
AcDbEntity
  8
layer 1
 62
     7
100
AcDbSpline
210
0.0
220
0.0
230
1.0
 70
    11
 71
     3
 72
    20
 73
    16
 74
     0
 42
0.0000000001
 43
0.0000000001
 12
1.0
 22
0.0
 32
0.0
 13
1.0
 23
0.0
 33
0.0
 40
0.0
 40
0.0
 40
0.0
 40
0.0
 40
0.2
 40
0.2
 40
0.2
 40
0.2
 40
0.4
 40
0.4
 40
0.4
 40
0.4
 40
0.6
 40
0.6
 40
0.6
 40
0.6
 40
1.0
 40
1.0
 40
1.0
 40
1.0
 10
42.2258
 20
110.5775
 30
0.0
 10
42.2258
 20
110.5775
 30
0.0
 10
42.8925
 20
127.2808
 30
0.0
 10
42.8925
 20
127.2808
 30
0.0
 10
42.8925
 20
127.2808
 30
0.0
 10
42.8925
 20
127.2808
 30
0.0
 10
41.2317
 20
127.2808
 30
0.0
 10
41.2317
 20
127.2808
 30
0.0
 10
41.2317
 20
127.2808
 30
0.0
 10
41.2317
 20
127.2808
 30
0.0
 10
35.2511
 20
117.3997
 30
0.0
 10
35.2511
 20
117.3997
 30
0.0
 10
35.2511
 20
117.3997
 30
0.0
 10
35.2511
 20
117.3997
 30
0.0
 10
42.2258
 20
110.5775
 30
0.0
 10
42.2258
 20
110.5775
 30
0.0
  0
SPLINE
  5
6C
330
1F
100
AcDbEntity
  8
layer 1
 62
     7
100
AcDbSpline
210
0.0
220
0.0
230
1.0
 70
    11
 71
     3
 72
    24
 73
    20
 74
     0
 42
0.0000000001
 43
0.0000000001
 12
1.0
 22
0.0
 32
0.0
 13
1.0
 23
0.0
 33
0.0
 40
0.0
 40
0.0
 40
0.0
 40
0.0
 40
0.1666666666666667
 40
0.1666666666666667
 40
0.1666666666666667
 40
0.1666666666666667
 40
0.3333333333333333
 40
0.3333333333333333
 40
0.3333333333333333
 40
0.3333333333333333
 40
0.5
 40
0.5
 40
0.5
 40
0.5
 40
0.6666666666666666
 40
0.6666666666666666
 40
0.6666666666666666
 40
0.6666666666666666
 40
1.0
 40
1.0
 40
1.0
 40
1.0
 10
29.1955
 20
114.211
 30
0.0
 10
29.1955
 20
114.211
 30
0.0
 10
30.227
 20
114.3385
 30
0.0
 10
30.227
 20
114.3385
 30
0.0
 10
30.227
 20
114.3385
 30
0.0
 10
30.227
 20
114.3385
 30
0.0
 10
33.6652
 20
120.3957
 30
0.0
 10
33.6652
 20
120.3957
 30
0.0
 10
33.6652
 20
120.3957
 30
0.0
 10
33.6652
 20
120.3957
 30
0.0
 10
36.082
 20
127.2808
 30
0.0
 10
36.082
 20
127.2808
 30
0.0
 10
36.082
 20
127.2808
 30
0.0
 10
36.082
 20
127.2808
 30
0.0
 10
23.1942
 20
127.2808
 30
0.0
 10
23.1942
 20
127.2808
 30
0.0
 10
23.1942
 20
127.2808
 30
0.0
 10
23.1942
 20
127.2808
 30
0.0
 10
29.1955
 20
114.211
 30
0.0
 10
29.1955
 20
114.211
 30
0.0
  0
SPLINE
  5
6D
330
1F
100
AcDbEntity
  8
layer 1
 62
     7
100
AcDbSpline
210
0.0
220
0.0
230
1.0
 70
    11
 71
     3
 72
    44
 73
    40
 74
     0
 42
0.0000000001
 43
0.0000000001
 12
1.0
 22
0.0
 32
0.0
 13
1.0
 23
0.0
 33
0.0
 40
0.0
 40
0.0
 40
0.0
 40
0.0
 40
0.0909090909090909
 40
0.0909090909090909
 40
0.0909090909090909
 40
0.0909090909090909
 40
0.1818181818181818
 40
0.1818181818181818
 40
0.1818181818181818
 40
0.1818181818181818
 40
0.2727272727272727
 40
0.2727272727272727
 40
0.2727272727272727
 40
0.2727272727272727
 40
0.3636363636363636
 40
0.3636363636363636
 40
0.3636363636363636
 40
0.3636363636363636
 40
0.4545454545454545
 40
0.4545454545454545
 40
0.4545454545454545
 40
0.4545454545454545
 40
0.5454545454545454
 40
0.5454545454545454
 40
0.5454545454545454
 40
0.5454545454545454
 40
0.6363636363636364
 40
0.6363636363636364
 40
0.6363636363636364
 40
0.6363636363636364
 40
0.7272727272727273
 40
0.7272727272727273
 40
0.7272727272727273
 40
0.7272727272727273
 40
0.8181818181818182
 40
0.8181818181818182
 40
0.8181818181818182
 40
0.8181818181818182
 40
1.0
 40
1.0
 40
1.0
 40
1.0
 10
39.1772
 20
93.0175
 30
0.0
 10
39.1772
 20
93.0175
 30
0.0
 10
40.8963
 20
93.2727
 30
0.0
 10
40.8963
 20
93.2727
 30
0.0
 10
40.8963
 20
93.2727
 30
0.0
 10
40.8963
 20
93.2727
 30
0.0
 10
42.5663
 20
94.8027
 30
0.0
 10
42.5663
 20
94.8027
 30
0.0
 10
42.5663
 20
94.8027
 30
0.0
 10
42.5663
 20
94.8027
 30
0.0
 10
42.6646
 20
104.8768
 30
0.0
 10
42.6646
 20
104.8768
 30
0.0
 10
42.6646
 20
104.8768
 30
0.0
 10
42.6646
 20
104.8768
 30
0.0
 10
41.5348
 20
107.4908
 30
0.0
 10
41.5348
 20
107.4908
 30
0.0
 10
41.5348
 20
107.4908
 30
0.0
 10
41.5348
 20
107.4908
 30
0.0
 10
35.2448
 20
114.5248
 30
0.0
 10
35.2448
 20
114.5248
 30
0.0
 10
35.2448
 20
114.5248
 30
0.0
 10
35.2448
 20
114.5248
 30
0.0
 10
33.7218
 20
115.2263
 30
0.0
 10
33.7218
 20
115.2263
 30
0.0
 10
33.7218
 20
115.2263
 30
0.0
 10
33.7218
 20
115.2263
 30
0.0
 10
28.5647
 20
107.2561
 30
0.0
 10
28.5647
 20
107.2561
 30
0.0
 10
28.5647
 20
107.2561
 30
0.0
 10
28.5647
 20
107.2561
 30
0.0
 10
28.3189
 20
105.0884
 30
0.0
 10
28.3189
 20
105.0884
 30
0.0
 10
28.3189
 20
105.0884
 30
0.0
 10
28.3189
 20
105.0884
 30
0.0
 10
29.0591
 20
103.2829
 30
0.0
 10
29.0591
 20
103.2829
 30
0.0
 10
29.0591
 20
103.2829
 30
0.0
 10
29.0591
 20
103.2829
 30
0.0
 10
39.1772
 20
93.0175
 30
0.0
 10
39.1772
 20
93.0175
 30
0.0
  0
SPLINE
  5
6E
330
1F
100
AcDbEntity
  8
layer 1
 62
     7
100
AcDbSpline
210
0.0
220
0.0
230
1.0
 70
    11
 71
     3
 72
    28
 73
    24
 74
     0
 42
0.0000000001
 43
0.0000000001
 12
1.0
 22
0.0
 32
0.0
 13
1.0
 23
0.0
 33
0.0
 40
0.0
 40
0.0
 40
0.0
 40
0.0
 40
0.1428571428571428
 40
0.1428571428571428
 40
0.1428571428571428
 40
0.1428571428571428
 40
0.2857142857142857
 40
0.2857142857142857
 40
0.2857142857142857
 40
0.2857142857142857
 40
0.4285714285714285
 40
0.4285714285714285
 40
0.4285714285714285
 40
0.4285714285714285
 40
0.5714285714285714
 40
0.5714285714285714
 40
0.5714285714285714
 40
0.5714285714285714
 40
0.7142857142857143
 40
0.7142857142857143
 40
0.7142857142857143
 40
0.7142857142857143
 40
1.0
 40
1.0
 40
1.0
 40
1.0
 10
17.76
 20
96.6674
 30
0.0
 10
17.76
 20
96.6674
 30
0.0
 10
18.3881
 20
96.486
 30
0.0
 10
18.3881
 20
96.486
 30
0.0
 10
18.3881
 20
96.486
 30
0.0
 10
18.3881
 20
96.486
 30
0.0
 10
27.3227
 20
110.1946
 30
0.0
 10
27.3227
 20
110.1946
 30
0.0
 10
27.3227
 20
110.1946
 30
0.0
 10
27.3227
 20
110.1946
 30
0.0
 10
27.3925
 20
113.4575
 30
0.0
 10
27.3925
 20
113.4575
 30
0.0
 10
27.3925
 20
113.4575
 30
0.0
 10
27.3925
 20
113.4575
 30
0.0
 10
21.1877
 20
127.2808
 30
0.0
 10
21.1877
 20
127.2808
 30
0.0
 10
21.1877
 20
127.2808
 30
0.0
 10
21.1877
 20
127.2808
 30
0.0
 10
17.76
 20
127.2808
 30
0.0
 10
17.76
 20
127.2808
 30
0.0
 10
17.76
 20
127.2808
 30
0.0
 10
17.76
 20
127.2808
 30
0.0
 10
17.76
 20
96.6674
 30
0.0
 10
17.76
 20
96.6674
 30
0.0
  0
SPLINE
  5
6F
330
1F
100
AcDbEntity
  8
layer 1
 62
     7
100
AcDbSpline
210
0.0
220
0.0
230
1.0
 70
    11
 71
     3
 72
    44
 73
    40
 74
     0
 42
0.0000000001
 43
0.0000000001
 12
1.0
 22
0.0
 32
0.0
 13
1.0
 23
0.0
 33
0.0
 40
0.0
 40
0.0
 40
0.0
 40
0.0
 40
0.0909090909090909
 40
0.0909090909090909
 40
0.0909090909090909
 40
0.0909090909090909
 40
0.1818181818181818
 40
0.1818181818181818
 40
0.1818181818181818
 40
0.1818181818181818
 40
0.2727272727272727
 40
0.2727272727272727
 40
0.2727272727272727
 40
0.2727272727272727
 40
0.3636363636363636
 40
0.3636363636363636
 40
0.3636363636363636
 40
0.3636363636363636
 40
0.4545454545454545
 40
0.4545454545454545
 40
0.4545454545454545
 40
0.4545454545454545
 40
0.5454545454545454
 40
0.5454545454545454
 40
0.5454545454545454
 40
0.5454545454545454
 40
0.6363636363636364
 40
0.6363636363636364
 40
0.6363636363636364
 40
0.6363636363636364
 40
0.7272727272727273
 40
0.7272727272727273
 40
0.7272727272727273
 40
0.7272727272727273
 40
0.8181818181818182
 40
0.8181818181818182
 40
0.8181818181818182
 40
0.8181818181818182
 40
1.0
 40
1.0
 40
1.0
 40
1.0
 10
40.9006
 20
65.7467
 30
0.0
 10
40.9006
 20
65.7467
 30
0.0
 10
42.2087
 20
65.9926
 30
0.0
 10
42.2087
 20
65.9926
 30
0.0
 10
42.2087
 20
65.9926
 30
0.0
 10
42.2087
 20
65.9926
 30
0.0
 10
42.4183
 20
84.1173
 30
0.0
 10
42.4183
 20
84.1173
 30
0.0
 10
42.4183
 20
84.1173
 30
0.0
 10
42.4183
 20
84.1173
 30
0.0
 10
41.3013
 20
86.4738
 30
0.0
 10
41.3013
 20
86.4738
 30
0.0
 10
41.3013
 20
86.4738
 30
0.0
 10
41.3013
 20
86.4738
 30
0.0
 10
28.3093
 20
101.0746
 30
0.0
 10
28.3093
 20
101.0746
 30
0.0
 10
28.3093
 20
101.0746
 30
0.0
 10
28.3093
 20
101.0746
 30
0.0
 10
27.1922
 20
102.2527
 30
0.0
 10
27.1922
 20
102.2527
 30
0.0
 10
27.1922
 20
102.2527
 30
0.0
 10
27.1922
 20
102.2527
 30
0.0
 10
25.5165
 20
102.4338
 30
0.0
 10
25.5165
 20
102.4338
 30
0.0
 10
25.5165
 20
102.4338
 30
0.0
 10
25.5165
 20
102.4338
 30
0.0
 10
19.3032
 20
92.9183
 30
0.0
 10
19.3032
 20
92.9183
 30
0.0
 10
19.3032
 20
92.9183
 30
0.0
 10
19.3032
 20
92.9183
 30
0.0
 10
19.5828
 20
90.6528
 30
0.0
 10
19.5828
 20
90.6528
 30
0.0
 10
19.5828
 20
90.6528
 30
0.0
 10
19.5828
 20
90.6528
 30
0.0
 10
39.8283
 20
66.9995
 30
0.0
 10
39.8283
 20
66.9995
 30
0.0
 10
39.8283
 20
66.9995
 30
0.0
 10
39.8283
 20
66.9995
 30
0.0
 10
40.9006
 20
65.7467
 30
0.0
 10
40.9006
 20
65.7467
 30
0.0
  0
SPLINE
  5
70
330
1F
100
AcDbEntity
  8
layer 1
 62
     7
100
AcDbSpline
210
0.0
220
0.0
230
1.0
 70
    11
 71
     3
 72
    44
 73
    40
 74
     0
 42
0.0000000001
 43
0.0000000001
 12
1.0
 22
0.0
 32
0.0
 13
1.0
 23
0.0
 33
0.0
 40
0.0
 40
0.0
 40
0.0
 40
0.0
 40
0.0909090909090909
 40
0.0909090909090909
 40
0.0909090909090909
 40
0.0909090909090909
 40
0.1818181818181818
 40
0.1818181818181818
 40
0.1818181818181818
 40
0.1818181818181818
 40
0.2727272727272727
 40
0.2727272727272727
 40
0.2727272727272727
 40
0.2727272727272727
 40
0.3636363636363636
 40
0.3636363636363636
 40
0.3636363636363636
 40
0.3636363636363636
 40
0.4545454545454545
 40
0.4545454545454545
 40
0.4545454545454545
 40
0.4545454545454545
 40
0.5454545454545454
 40
0.5454545454545454
 40
0.5454545454545454
 40
0.5454545454545454
 40
0.6363636363636364
 40
0.6363636363636364
 40
0.6363636363636364
 40
0.6363636363636364
 40
0.7272727272727273
 40
0.7272727272727273
 40
0.7272727272727273
 40
0.7272727272727273
 40
0.8181818181818182
 40
0.8181818181818182
 40
0.8181818181818182
 40
0.8181818181818182
 40
1.0
 40
1.0
 40
1.0
 40
1.0
 10
18.2446
 20
41.8563
 30
0.0
 10
18.2446
 20
41.8563
 30
0.0
 10
29.5043
 20
27.2767
 30
0.0
 10
29.5043
 20
27.2767
 30
0.0
 10
29.5043
 20
27.2767
 30
0.0
 10
29.5043
 20
27.2767
 30
0.0
 10
31.9479
 20
27.2767
 30
0.0
 10
31.9479
 20
27.2767
 30
0.0
 10
31.9479
 20
27.2767
 30
0.0
 10
31.9479
 20
27.2767
 30
0.0
 10
39.3758
 20
35.8542
 30
0.0
 10
39.3758
 20
35.8542
 30
0.0
 10
39.3758
 20
35.8542
 30
0.0
 10
39.3758
 20
35.8542
 30
0.0
 10
41.0915
 20
39.7362
 30
0.0
 10
41.0915
 20
39.7362
 30
0.0
 10
41.0915
 20
39.7362
 30
0.0
 10
41.0915
 20
39.7362
 30
0.0
 10
42.0719
 20
44.3811
 30
0.0
 10
42.0719
 20
44.3811
 30
0.0
 10
42.0719
 20
44.3811
 30
0.0
 10
42.0719
 20
44.3811
 30
0.0
 10
41.9207
 20
56.6532
 30
0.0
 10
41.9207
 20
56.6532
 30
0.0
 10
41.9207
 20
56.6532
 30
0.0
 10
41.9207
 20
56.6532
 30
0.0
 10
39.8408
 20
60.7671
 30
0.0
 10
39.8408
 20
60.7671
 30
0.0
 10
39.8408
 20
60.7671
 30
0.0
 10
39.8408
 20
60.7671
 30
0.0
 10
35.8799
 20
65.7807
 30
0.0
 10
35.8799
 20
65.7807
 30
0.0
 10
35.8799
 20
65.7807
 30
0.0
 10
35.8799
 20
65.7807
 30
0.0
 10
17.8688
 20
88.1316
 30
0.0
 10
17.8688
 20
88.1316
 30
0.0
 10
17.8688
 20
88.1316
 30
0.0
 10
17.8688
 20
88.1316
 30
0.0
 10
18.2446
 20
41.8563
 30
0.0
 10
18.2446
 20
41.8563
 30
0.0
  0
SPLINE
  5
71
330
1F
100
AcDbEntity
  8
layer 1
 62
     7
100
AcDbSpline
210
0.0
220
0.0
230
1.0
 70
    11
 71
     3
 72
    36
 73
    32
 74
     0
 42
0.0000000001
 43
0.0000000001
 12
1.0
 22
0.0
 32
0.0
 13
1.0
 23
0.0
 33
0.0
 40
0.0
 40
0.0
 40
0.0
 40
0.0
 40
0.1111111111111111
 40
0.1111111111111111
 40
0.1111111111111111
 40
0.1111111111111111
 40
0.2222222222222222
 40
0.2222222222222222
 40
0.2222222222222222
 40
0.2222222222222222
 40
0.3333333333333333
 40
0.3333333333333333
 40
0.3333333333333333
 40
0.3333333333333333
 40
0.4444444444444444
 40
0.4444444444444444
 40
0.4444444444444444
 40
0.4444444444444444
 40
0.5555555555555556
 40
0.5555555555555556
 40
0.5555555555555556
 40
0.5555555555555556
 40
0.6666666666666666
 40
0.6666666666666666
 40
0.6666666666666666
 40
0.6666666666666666
 40
0.7777777777777778
 40
0.7777777777777778
 40
0.7777777777777778
 40
0.7777777777777778
 40
1.0
 40
1.0
 40
1.0
 40
1.0
 10
38.3847
 20
16.0615
 30
0.0
 10
38.3847
 20
16.0615
 30
0.0
 10
39.8223
 20
15.188
 30
0.0
 10
39.8223
 20
15.188
 30
0.0
 10
39.8223
 20
15.188
 30
0.0
 10
39.8223
 20
15.188
 30
0.0
 10
41.3827
 20
15.8629
 30
0.0
 10
41.3827
 20
15.8629
 30
0.0
 10
41.3827
 20
15.8629
 30
0.0
 10
41.3827
 20
15.8629
 30
0.0
 10
41.8112
 20
17.0542
 30
0.0
 10
41.8112
 20
17.0542
 30
0.0
 10
41.8112
 20
17.0542
 30
0.0
 10
41.8112
 20
17.0542
 30
0.0
 10
41.7497
 20
31.0388
 30
0.0
 10
41.7497
 20
31.0388
 30
0.0
 10
41.7497
 20
31.0388
 30
0.0
 10
41.7497
 20
31.0388
 30
0.0
 10
40.0365
 20
31.3166
 30
0.0
 10
40.0365
 20
31.3166
 30
0.0
 10
40.0365
 20
31.3166
 30
0.0
 10
40.0365
 20
31.3166
 30
0.0
 10
34.4076
 20
23.2497
 30
0.0
 10
34.4076
 20
23.2497
 30
0.0
 10
34.4076
 20
23.2497
 30
0.0
 10
34.4076
 20
23.2497
 30
0.0
 10
34.2851
 20
21.383
 30
0.0
 10
34.2851
 20
21.383
 30
0.0
 10
34.2851
 20
21.383
 30
0.0
 10
34.2851
 20
21.383
 30
0.0
 10
38.3847
 20
16.0615
 30
0.0
 10
38.3847
 20
16.0615
 30
0.0
  0
SPLINE
  5
72
330
1F
100
AcDbEntity
  8
layer 1
 62
     7
100
AcDbSpline
210
0.0
220
0.0
230
1.0
 70
    11
 71
     3
 72
    32
 73
    28
 74
     0
 42
0.0000000001
 43
0.0000000001
 12
1.0
 22
0.0
 32
0.0
 13
1.0
 23
0.0
 33
0.0
 40
0.0
 40
0.0
 40
0.0
 40
0.0
 40
0.125
 40
0.125
 40
0.125
 40
0.125
 40
0.25
 40
0.25
 40
0.25
 40
0.25
 40
0.375
 40
0.375
 40
0.375
 40
0.375
 40
0.5
 40
0.5
 40
0.5
 40
0.5
 40
0.625
 40
0.625
 40
0.625
 40
0.625
 40
0.75
 40
0.75
 40
0.75
 40
0.75
 40
1.0
 40
1.0
 40
1.0
 40
1.0
 10
17.9
 20
11.4825
 30
0.0
 10
17.9
 20
11.4825
 30
0.0
 10
18.9409
 20
11.3024
 30
0.0
 10
18.9409
 20
11.3024
 30
0.0
 10
18.9409
 20
11.3024
 30
0.0
 10
18.9409
 20
11.3024
 30
0.0
 10
24.9092
 20
17.6987
 30
0.0
 10
24.9092
 20
17.6987
 30
0.0
 10
24.9092
 20
17.6987
 30
0.0
 10
24.9092
 20
17.6987
 30
0.0
 10
26.0193
 20
19.8607
 30
0.0
 10
26.0193
 20
19.8607
 30
0.0
 10
26.0193
 20
19.8607
 30
0.0
 10
26.0193
 20
19.8607
 30
0.0
 10
26.0193
 20
22.5632
 30
0.0
 10
26.0193
 20
22.5632
 30
0.0
 10
26.0193
 20
22.5632
 30
0.0
 10
26.0193
 20
22.5632
 30
0.0
 10
20.8839
 20
28.8693
 30
0.0
 10
20.8839
 20
28.8693
 30
0.0
 10
20.8839
 20
28.8693
 30
0.0
 10
20.8839
 20
28.8693
 30
0.0
 10
18.1082
 20
28.1486
 30
0.0
 10
18.1082
 20
28.1486
 30
0.0
 10
18.1082
 20
28.1486
 30
0.0
 10
18.1082
 20
28.1486
 30
0.0
 10
17.9
 20
11.4825
 30
0.0
 10
17.9
 20
11.4825
 30
0.0
  0
SPLINE
  5
73
330
1F
100
AcDbEntity
  8
layer 1
 62
     7
100
AcDbSpline
210
0.0
220
0.0
230
1.0
 70
    11
 71
     3
 72
    56
 73
    52
 74
     0
 42
0.0000000001
 43
0.0000000001
 12
1.0
 22
0.0
 32
0.0
 13
1.0
 23
0.0
 33
0.0
 40
0.0
 40
0.0
 40
0.0
 40
0.0
 40
0.0714285714285714
 40
0.0714285714285714
 40
0.0714285714285714
 40
0.0714285714285714
 40
0.1428571428571428
 40
0.1428571428571428
 40
0.1428571428571428
 40
0.1428571428571428
 40
0.2142857142857143
 40
0.2142857142857143
 40
0.2142857142857143
 40
0.2142857142857143
 40
0.2857142857142857
 40
0.2857142857142857
 40
0.2857142857142857
 40
0.2857142857142857
 40
0.3571428571428572
 40
0.3571428571428572
 40
0.3571428571428572
 40
0.3571428571428572
 40
0.4285714285714285
 40
0.4285714285714285
 40
0.4285714285714285
 40
0.4285714285714285
 40
0.5
 40
0.5
 40
0.5
 40
0.5
 40
0.5714285714285714
 40
0.5714285714285714
 40
0.5714285714285714
 40
0.5714285714285714
 40
0.6428571428571429
 40
0.6428571428571429
 40
0.6428571428571429
 40
0.6428571428571429
 40
0.7142857142857143
 40
0.7142857142857143
 40
0.7142857142857143
 40
0.7142857142857143
 40
0.7857142857142857
 40
0.7857142857142857
 40
0.7857142857142857
 40
0.7857142857142857
 40
0.8571428571428571
 40
0.8571428571428571
 40
0.8571428571428571
 40
0.8571428571428571
 40
1.0
 40
1.0
 40
1.0
 40
1.0
 10
36.9082
 20
-34.2005
 30
0.0
 10
36.9082
 20
-34.2005
 30
0.0
 10
38.5872
 20
-35.7214
 30
0.0
 10
38.5872
 20
-35.7214
 30
0.0
 10
38.5872
 20
-35.7214
 30
0.0
 10
38.5872
 20
-35.7214
 30
0.0
 10
40.8301
 20
-34.1038
 30
0.0
 10
40.8301
 20
-34.1038
 30
0.0
 10
40.8301
 20
-34.1038
 30
0.0
 10
40.8301
 20
-34.1038
 30
0.0
 10
41.1127
 20
-3.6893
 30
0.0
 10
41.1127
 20
-3.6893
 30
0.0
 10
41.1127
 20
-3.6893
 30
0.0
 10
41.1127
 20
-3.6893
 30
0.0
 10
39.8659
 20
0.9638
 30
0.0
 10
39.8659
 20
0.9638
 30
0.0
 10
39.8659
 20
0.9638
 30
0.0
 10
39.8659
 20
0.9638
 30
0.0
 10
37.4503
 20
6.6288
 30
0.0
 10
37.4503
 20
6.6288
 30
0.0
 10
37.4503
 20
6.6288
 30
0.0
 10
37.4503
 20
6.6288
 30
0.0
 10
32.3074
 20
13.6083
 30
0.0
 10
32.3074
 20
13.6083
 30
0.0
 10
32.3074
 20
13.6083
 30
0.0
 10
32.3074
 20
13.6083
 30
0.0
 10
29.736
 20
15.2266
 30
0.0
 10
29.736
 20
15.2266
 30
0.0
 10
29.736
 20
15.2266
 30
0.0
 10
29.736
 20
15.2266
 30
0.0
 10
27.6322
 20
15.0245
 30
0.0
 10
27.6322
 20
15.0245
 30
0.0
 10
27.6322
 20
15.0245
 30
0.0
 10
27.6322
 20
15.0245
 30
0.0
 10
24.3588
 20
10.7758
 30
0.0
 10
24.3588
 20
10.7758
 30
0.0
 10
24.3588
 20
10.7758
 30
0.0
 10
24.3588
 20
10.7758
 30
0.0
 10
20.0732
 20
5.2125
 30
0.0
 10
20.0732
 20
5.2125
 30
0.0
 10
20.0732
 20
5.2125
 30
0.0
 10
20.0732
 20
5.2125
 30
0.0
 10
18.9026
 20
2.6685
 30
0.0
 10
18.9026
 20
2.6685
 30
0.0
 10
18.9026
 20
2.6685
 30
0.0
 10
18.9026
 20
2.6685
 30
0.0
 10
19.2141
 20
-0.6698
 30
0.0
 10
19.2141
 20
-0.6698
 30
0.0
 10
19.2141
 20
-0.6698
 30
0.0
 10
19.2141
 20
-0.6698
 30
0.0
 10
36.9082
 20
-34.2005
 30
0.0
 10
36.9082
 20
-34.2005
 30
0.0
  0
SPLINE
  5
74
330
1F
100
AcDbEntity
  8
layer 1
 62
     7
100
AcDbSpline
210
0.0
220
0.0
230
1.0
 70
    11
 71
     3
 72
    52
 73
    48
 74
     0
 42
0.0000000001
 43
0.0000000001
 12
1.0
 22
0.0
 32
0.0
 13
1.0
 23
0.0
 33
0.0
 40
0.0
 40
0.0
 40
0.0
 40
0.0
 40
0.0769230769230769
 40
0.0769230769230769
 40
0.0769230769230769
 40
0.0769230769230769
 40
0.1538461538461539
 40
0.1538461538461539
 40
0.1538461538461539
 40
0.1538461538461539
 40
0.2307692307692308
 40
0.2307692307692308
 40
0.2307692307692308
 40
0.2307692307692308
 40
0.3076923076923077
 40
0.3076923076923077
 40
0.3076923076923077
 40
0.3076923076923077
 40
0.3846153846153846
 40
0.3846153846153846
 40
0.3846153846153846
 40
0.3846153846153846
 40
0.4615384615384616
 40
0.4615384615384616
 40
0.4615384615384616
 40
0.4615384615384616
 40
0.5384615384615384
 40
0.5384615384615384
 40
0.5384615384615384
 40
0.5384615384615384
 40
0.6153846153846154
 40
0.6153846153846154
 40
0.6153846153846154
 40
0.6153846153846154
 40
0.6923076923076923
 40
0.6923076923076923
 40
0.6923076923076923
 40
0.6923076923076923
 40
0.7692307692307693
 40
0.7692307692307693
 40
0.7692307692307693
 40
0.7692307692307693
 40
0.8461538461538461
 40
0.8461538461538461
 40
0.8461538461538461
 40
0.8461538461538461
 40
1.0
 40
1.0
 40
1.0
 40
1.0
 10
33.2691
 20
-70.6458
 30
0.0
 10
33.2691
 20
-70.6458
 30
0.0
 10
35.1398
 20
-71.029
 30
0.0
 10
35.1398
 20
-71.029
 30
0.0
 10
35.1398
 20
-71.029
 30
0.0
 10
35.1398
 20
-71.029
 30
0.0
 10
37.1084
 20
-70.0068
 30
0.0
 10
37.1084
 20
-70.0068
 30
0.0
 10
37.1084
 20
-70.0068
 30
0.0
 10
37.1084
 20
-70.0068
 30
0.0
 10
38.4868
 20
-68.601
 30
0.0
 10
38.4868
 20
-68.601
 30
0.0
 10
38.4868
 20
-68.601
 30
0.0
 10
38.4868
 20
-68.601
 30
0.0
 10
38.979
 20
-57.2278
 30
0.0
 10
38.979
 20
-57.2278
 30
0.0
 10
38.979
 20
-57.2278
 30
0.0
 10
38.979
 20
-57.2278
 30
0.0
 10
37.3053
 20
-48.9214
 30
0.0
 10
37.3053
 20
-48.9214
 30
0.0
 10
37.3053
 20
-48.9214
 30
0.0
 10
37.3053
 20
-48.9214
 30
0.0
 10
32.974
 20
-39.0819
 30
0.0
 10
32.974
 20
-39.0819
 30
0.0
 10
32.974
 20
-39.0819
 30
0.0
 10
32.974
 20
-39.0819
 30
0.0
 10
22.0406
 20
-16.9205
 30
0.0
 10
22.0406
 20
-16.9205
 30
0.0
 10
22.0406
 20
-16.9205
 30
0.0
 10
22.0406
 20
-16.9205
 30
0.0
 10
20.3671
 20
-14.1092
 30
0.0
 10
20.3671
 20
-14.1092
 30
0.0
 10
20.3671
 20
-14.1092
 30
0.0
 10
20.3671
 20
-14.1092
 30
0.0
 10
17.9062
 20
-14.3649
 30
0.0
 10
17.9062
 20
-14.3649
 30
0.0
 10
17.9062
 20
-14.3649
 30
0.0
 10
17.9062
 20
-14.3649
 30
0.0
 10
17.8136
 20
-56.8444
 30
0.0
 10
17.8136
 20
-56.8444
 30
0.0
 10
17.8136
 20
-56.8444
 30
0.0
 10
17.8136
 20
-56.8444
 30
0.0
 10
19.6843
 20
-59.7836
 30
0.0
 10
19.6843
 20
-59.7836
 30
0.0
 10
19.6843
 20
-59.7836
 30
0.0
 10
19.6843
 20
-59.7836
 30
0.0
 10
33.2691
 20
-70.6458
 30
0.0
 10
33.2691
 20
-70.6458
 30
0.0
  0
SPLINE
  5
75
330
1F
100
AcDbEntity
  8
layer 1
 62
     7
100
AcDbSpline
210
0.0
220
0.0
230
1.0
 70
    11
 71
     3
 72
    84
 73
    80
 74
     0
 42
0.0000000001
 43
0.0000000001
 12
1.0
 22
0.0
 32
0.0
 13
1.0
 23
0.0
 33
0.0
 40
0.0
 40
0.0
 40
0.0
 40
0.0
 40
0.0476190476190476
 40
0.0476190476190476
 40
0.0476190476190476
 40
0.0476190476190476
 40
0.0952380952380952
 40
0.0952380952380952
 40
0.0952380952380952
 40
0.0952380952380952
 40
0.1428571428571428
 40
0.1428571428571428
 40
0.1428571428571428
 40
0.1428571428571428
 40
0.1904761904761905
 40
0.1904761904761905
 40
0.1904761904761905
 40
0.1904761904761905
 40
0.2380952380952381
 40
0.2380952380952381
 40
0.2380952380952381
 40
0.2380952380952381
 40
0.2857142857142857
 40
0.2857142857142857
 40
0.2857142857142857
 40
0.2857142857142857
 40
0.3333333333333333
 40
0.3333333333333333
 40
0.3333333333333333
 40
0.3333333333333333
 40
0.3809523809523809
 40
0.3809523809523809
 40
0.3809523809523809
 40
0.3809523809523809
 40
0.4285714285714285
 40
0.4285714285714285
 40
0.4285714285714285
 40
0.4285714285714285
 40
0.4761904761904762
 40
0.4761904761904762
 40
0.4761904761904762
 40
0.4761904761904762
 40
0.5238095238095238
 40
0.5238095238095238
 40
0.5238095238095238
 40
0.5238095238095238
 40
0.5714285714285714
 40
0.5714285714285714
 40
0.5714285714285714
 40
0.5714285714285714
 40
0.6190476190476191
 40
0.6190476190476191
 40
0.6190476190476191
 40
0.6190476190476191
 40
0.6666666666666666
 40
0.6666666666666666
 40
0.6666666666666666
 40
0.6666666666666666
 40
0.7142857142857143
 40
0.7142857142857143
 40
0.7142857142857143
 40
0.7142857142857143
 40
0.7619047619047619
 40
0.7619047619047619
 40
0.7619047619047619
 40
0.7619047619047619
 40
0.8095238095238095
 40
0.8095238095238095
 40
0.8095238095238095
 40
0.8095238095238095
 40
0.8571428571428571
 40
0.8571428571428571
 40
0.8571428571428571
 40
0.8571428571428571
 40
0.9047619047619048
 40
0.9047619047619048
 40
0.9047619047619048
 40
0.9047619047619048
 40
1.0
 40
1.0
 40
1.0
 40
1.0
 10
26.407
 20
-110.8347
 30
0.0
 10
26.407
 20
-110.8347
 30
0.0
 10
26.4565
 20
-110.9104
 30
0.0
 10
26.4565
 20
-110.9104
 30
0.0
 10
26.4565
 20
-110.9104
 30
0.0
 10
26.4565
 20
-110.9104
 30
0.0
 10
26.5101
 20
-110.9802
 30
0.0
 10
26.5101
 20
-110.9802
 30
0.0
 10
26.5101
 20
-110.9802
 30
0.0
 10
26.5101
 20
-110.9802
 30
0.0
 10
26.5676
 20
-111.0438
 30
0.0
 10
26.5676
 20
-111.0438
 30
0.0
 10
26.5676
 20
-111.0438
 30
0.0
 10
26.5676
 20
-111.0438
 30
0.0
 10
26.6289
 20
-111.1002
 30
0.0
 10
26.6289
 20
-111.1002
 30
0.0
 10
26.6289
 20
-111.1002
 30
0.0
 10
26.6289
 20
-111.1002
 30
0.0
 10
26.6935
 20
-111.1501
 30
0.0
 10
26.6935
 20
-111.1501
 30
0.0
 10
26.6935
 20
-111.1501
 30
0.0
 10
26.6935
 20
-111.1501
 30
0.0
 10
26.7608
 20
-111.193
 30
0.0
 10
26.7608
 20
-111.193
 30
0.0
 10
26.7608
 20
-111.193
 30
0.0
 10
26.7608
 20
-111.193
 30
0.0
 10
26.8308
 20
-111.2286
 30
0.0
 10
26.8308
 20
-111.2286
 30
0.0
 10
26.8308
 20
-111.2286
 30
0.0
 10
26.8308
 20
-111.2286
 30
0.0
 10
26.9026
 20
-111.2566
 30
0.0
 10
26.9026
 20
-111.2566
 30
0.0
 10
26.9026
 20
-111.2566
 30
0.0
 10
26.9026
 20
-111.2566
 30
0.0
 10
26.9765
 20
-111.2767
 30
0.0
 10
26.9765
 20
-111.2767
 30
0.0
 10
26.9765
 20
-111.2767
 30
0.0
 10
26.9765
 20
-111.2767
 30
0.0
 10
27.0518
 20
-111.289
 30
0.0
 10
27.0518
 20
-111.289
 30
0.0
 10
27.0518
 20
-111.289
 30
0.0
 10
27.0518
 20
-111.289
 30
0.0
 10
27.1284
 20
-111.2933
 30
0.0
 10
27.1284
 20
-111.2933
 30
0.0
 10
27.1284
 20
-111.2933
 30
0.0
 10
27.1284
 20
-111.2933
 30
0.0
 10
39.8901
 20
-111.2933
 30
0.0
 10
39.8901
 20
-111.2933
 30
0.0
 10
39.8901
 20
-111.2933
 30
0.0
 10
39.8901
 20
-111.2933
 30
0.0
 10
39.8901
 20
-88.477
 30
0.0
 10
39.8901
 20
-88.477
 30
0.0
 10
39.8901
 20
-88.477
 30
0.0
 10
39.8901
 20
-88.477
 30
0.0
 10
39.6123
 20
-83.7918
 30
0.0
 10
39.6123
 20
-83.7918
 30
0.0
 10
39.6123
 20
-83.7918
 30
0.0
 10
39.6123
 20
-83.7918
 30
0.0
 10
37.3912
 20
-79.8277
 30
0.0
 10
37.3912
 20
-79.8277
 30
0.0
 10
37.3912
 20
-79.8277
 30
0.0
 10
37.3912
 20
-79.8277
 30
0.0
 10
24.3429
 20
-69.1961
 30
0.0
 10
24.3429
 20
-69.1961
 30
0.0
 10
24.3429
 20
-69.1961
 30
0.0
 10
24.3429
 20
-69.1961
 30
0.0
 10
18.7425
 20
-66.6742
 30
0.0
 10
18.7425
 20
-66.6742
 30
0.0
 10
18.7425
 20
-66.6742
 30
0.0
 10
18.7425
 20
-66.6742
 30
0.0
 10
18.7903
 20
-71.3585
 30
0.0
 10
18.7903
 20
-71.3585
 30
0.0
 10
18.7903
 20
-71.3585
 30
0.0
 10
18.7903
 20
-71.3585
 30
0.0
 10
19.0679
 20
-98.5679
 30
0.0
 10
19.0679
 20
-98.5679
 30
0.0
 10
19.0679
 20
-98.5679
 30
0.0
 10
19.0679
 20
-98.5679
 30
0.0
 10
26.407
 20
-110.8347
 30
0.0
 10
26.407
 20
-110.8347
 30
0.0
  0
SPLINE
  5
76
330
1F
100
AcDbEntity
  8
layer 1
 62
   250
100
AcDbSpline
210
0.0
220
0.0
230
1.0
 70
    11
 71
     3
 72
    20
 73
    16
 74
     0
 42
0.0000000001
 43
0.0000000001
 12
1.0
 22
0.0
 32
0.0
 13
1.0
 23
0.0
 33
0.0
 40
0.0
 40
0.0
 40
0.0
 40
0.0
 40
0.2
 40
0.2
 40
0.2
 40
0.2
 40
0.4
 40
0.4
 40
0.4
 40
0.4
 40
0.6
 40
0.6
 40
0.6
 40
0.6
 40
1.0
 40
1.0
 40
1.0
 40
1.0
 10
125.879
 20
131.933
 30
0.0
 10
125.879
 20
131.933
 30
0.0
 10
196.451
 20
131.933
 30
0.0
 10
196.451
 20
131.933
 30
0.0
 10
196.451
 20
131.933
 30
0.0
 10
196.451
 20
131.933
 30
0.0
 10
196.451
 20
-115.0695
 30
0.0
 10
196.451
 20
-115.0695
 30
0.0
 10
196.451
 20
-115.0695
 30
0.0
 10
196.451
 20
-115.0695
 30
0.0
 10
125.879
 20
-115.0695
 30
0.0
 10
125.879
 20
-115.0695
 30
0.0
 10
125.879
 20
-115.0695
 30
0.0
 10
125.879
 20
-115.0695
 30
0.0
 10
125.879
 20
131.933
 30
0.0
 10
125.879
 20
131.933
 30
0.0
  0
SPLINE
  5
77
330
1F
100
AcDbEntity
  8
layer 1
 62
     7
100
AcDbSpline
210
0.0
220
0.0
230
1.0
 70
    11
 71
     3
 72
    56
 73
    52
 74
     0
 42
0.0000000001
 43
0.0000000001
 12
1.0
 22
0.0
 32
0.0
 13
1.0
 23
0.0
 33
0.0
 40
0.0
 40
0.0
 40
0.0
 40
0.0
 40
0.0714285714285714
 40
0.0714285714285714
 40
0.0714285714285714
 40
0.0714285714285714
 40
0.1428571428571428
 40
0.1428571428571428
 40
0.1428571428571428
 40
0.1428571428571428
 40
0.2142857142857143
 40
0.2142857142857143
 40
0.2142857142857143
 40
0.2142857142857143
 40
0.2857142857142857
 40
0.2857142857142857
 40
0.2857142857142857
 40
0.2857142857142857
 40
0.3571428571428572
 40
0.3571428571428572
 40
0.3571428571428572
 40
0.3571428571428572
 40
0.4285714285714285
 40
0.4285714285714285
 40
0.4285714285714285
 40
0.4285714285714285
 40
0.5
 40
0.5
 40
0.5
 40
0.5
 40
0.5714285714285714
 40
0.5714285714285714
 40
0.5714285714285714
 40
0.5714285714285714
 40
0.6428571428571429
 40
0.6428571428571429
 40
0.6428571428571429
 40
0.6428571428571429
 40
0.7142857142857143
 40
0.7142857142857143
 40
0.7142857142857143
 40
0.7142857142857143
 40
0.7857142857142857
 40
0.7857142857142857
 40
0.7857142857142857
 40
0.7857142857142857
 40
0.8571428571428571
 40
0.8571428571428571
 40
0.8571428571428571
 40
0.8571428571428571
 40
1.0
 40
1.0
 40
1.0
 40
1.0
 10
142.1013
 20
129.1262
 30
0.0
 10
142.1013
 20
129.1262
 30
0.0
 10
152.1284
 20
129.1262
 30
0.0
 10
152.1284
 20
129.1262
 30
0.0
 10
152.1284
 20
129.1262
 30
0.0
 10
150.0481
 20
123.6329
 30
0.0
 10
152.1248
 20
117.1736
 30
0.0
 10
156.7294
 20
113.8014
 30
0.0
 10
156.7294
 20
113.8014
 30
0.0
 10
156.7294
 20
113.8014
 30
0.0
 10
156.7294
 20
111.9798
 30
0.0
 10
151.4113
 20
111.7186
 30
0.0
 10
151.4113
 20
111.7186
 30
0.0
 10
146.093
 20
111.4576
 30
0.0
 10
143.0379
 20
115.9054
 30
0.0
 10
143.0379
 20
115.9054
 30
0.0
 10
143.0379
 20
115.9054
 30
0.0
 10
143.0379
 20
115.9054
 30
0.0
 10
140.3223
 20
110.503
 30
0.0
 10
143.0379
 20
106.3009
 30
0.0
 10
143.0379
 20
106.3009
 30
0.0
 10
143.8452
 20
105.052
 30
0.0
 10
144.9519
 20
103.9883
 30
0.0
 10
146.2698
 20
103.2155
 30
0.0
 10
146.2698
 20
103.2155
 30
0.0
 10
146.2072
 20
103.0961
 30
0.0
 10
146.1429
 20
102.9698
 30
0.0
 10
146.0767
 20
102.8365
 30
0.0
 10
146.0767
 20
102.8365
 30
0.0
 10
145.9038
 20
102.4885
 30
0.0
 10
145.7582
 20
102.0114
 30
0.0
 10
145.6466
 20
101.4665
 30
0.0
 10
145.6466
 20
101.4665
 30
0.0
 10
142.7936
 20
103.7672
 30
0.0
 10
139.679
 20
107.0511
 30
0.0
 10
136.9297
 20
111.7854
 30
0.0
 10
136.9297
 20
111.7854
 30
0.0
 10
131.6631
 20
120.8541
 30
0.0
 10
129.1098
 20
128.1525
 30
0.0
 10
129.1098
 20
128.1525
 30
0.0
 10
129.1098
 20
128.1525
 30
0.0
 10
129.1098
 20
128.1525
 30
0.0
 10
133.4187
 20
125.0322
 30
0.0
 10
140.2811
 20
125.3568
 30
0.0
 10
140.2811
 20
125.3568
 30
0.0
 10
147.1434
 20
125.6812
 30
0.0
 10
147.8747
 20
127.5651
 30
0.0
 10
147.8747
 20
127.5651
 30
0.0
 10
147.8747
 20
127.5651
 30
0.0
 10
145.7564
 20
128.0409
 30
0.0
 10
143.8499
 20
128.5592
 30
0.0
 10
142.1013
 20
129.1262
 30
0.0
  0
SPLINE
  5
78
330
1F
100
AcDbEntity
  8
layer 1
 62
     7
100
AcDbSpline
210
0.0
220
0.0
230
1.0
 70
    11
 71
     3
 72
    28
 73
    24
 74
     0
 42
0.0000000001
 43
0.0000000001
 12
1.0
 22
0.0
 32
0.0
 13
1.0
 23
0.0
 33
0.0
 40
0.0
 40
0.0
 40
0.0
 40
0.0
 40
0.1428571428571428
 40
0.1428571428571428
 40
0.1428571428571428
 40
0.1428571428571428
 40
0.2857142857142857
 40
0.2857142857142857
 40
0.2857142857142857
 40
0.2857142857142857
 40
0.4285714285714285
 40
0.4285714285714285
 40
0.4285714285714285
 40
0.4285714285714285
 40
0.5714285714285714
 40
0.5714285714285714
 40
0.5714285714285714
 40
0.5714285714285714
 40
0.7142857142857143
 40
0.7142857142857143
 40
0.7142857142857143
 40
0.7142857142857143
 40
1.0
 40
1.0
 40
1.0
 40
1.0
 10
154.8469
 20
129.1262
 30
0.0
 10
154.8469
 20
129.1262
 30
0.0
 10
164.9228
 20
129.1262
 30
0.0
 10
164.9228
 20
129.1262
 30
0.0
 10
164.9228
 20
129.1262
 30
0.0
 10
162.2248
 20
127.4454
 30
0.0
 10
160.1635
 20
124.725
 30
0.0
 10
159.8977
 20
121.4704
 30
0.0
 10
159.8977
 20
121.4704
 30
0.0
 10
159.8977
 20
121.4704
 30
0.0
 10
165.1028
 20
123.4418
 30
0.0
 10
166.1213
 20
120.7173
 30
0.0
 10
166.1213
 20
120.7173
 30
0.0
 10
167.1396
 20
117.9928
 30
0.0
 10
166.0854
 20
114.8465
 30
0.0
 10
162.274
 20
115.0303
 30
0.0
 10
162.274
 20
115.0303
 30
0.0
 10
156.5779
 20
115.3047
 30
0.0
 10
152.2101
 20
122.5399
 30
0.0
 10
154.5528
 20
128.4549
 30
0.0
 10
154.5528
 20
128.4549
 30
0.0
 10
154.6415
 20
128.6786
 30
0.0
 10
154.7394
 20
128.9025
 30
0.0
 10
154.8469
 20
129.1262
 30
0.0
  0
SPLINE
  5
79
330
1F
100
AcDbEntity
  8
layer 1
 62
     7
100
AcDbSpline
210
0.0
220
0.0
230
1.0
 70
    11
 71
     3
 72
    76
 73
    72
 74
     0
 42
0.0000000001
 43
0.0000000001
 12
1.0
 22
0.0
 32
0.0
 13
1.0
 23
0.0
 33
0.0
 40
0.0
 40
0.0
 40
0.0
 40
0.0
 40
0.0526315789473684
 40
0.0526315789473684
 40
0.0526315789473684
 40
0.0526315789473684
 40
0.1052631578947368
 40
0.1052631578947368
 40
0.1052631578947368
 40
0.1052631578947368
 40
0.1578947368421053
 40
0.1578947368421053
 40
0.1578947368421053
 40
0.1578947368421053
 40
0.2105263157894737
 40
0.2105263157894737
 40
0.2105263157894737
 40
0.2105263157894737
 40
0.2631578947368421
 40
0.2631578947368421
 40
0.2631578947368421
 40
0.2631578947368421
 40
0.3157894736842105
 40
0.3157894736842105
 40
0.3157894736842105
 40
0.3157894736842105
 40
0.3684210526315789
 40
0.3684210526315789
 40
0.3684210526315789
 40
0.3684210526315789
 40
0.4210526315789473
 40
0.4210526315789473
 40
0.4210526315789473
 40
0.4210526315789473
 40
0.4736842105263158
 40
0.4736842105263158
 40
0.4736842105263158
 40
0.4736842105263158
 40
0.5263157894736842
 40
0.5263157894736842
 40
0.5263157894736842
 40
0.5263157894736842
 40
0.5789473684210527
 40
0.5789473684210527
 40
0.5789473684210527
 40
0.5789473684210527
 40
0.631578947368421
 40
0.631578947368421
 40
0.631578947368421
 40
0.631578947368421
 40
0.6842105263157895
 40
0.6842105263157895
 40
0.6842105263157895
 40
0.6842105263157895
 40
0.7368421052631579
 40
0.7368421052631579
 40
0.7368421052631579
 40
0.7368421052631579
 40
0.7894736842105263
 40
0.7894736842105263
 40
0.7894736842105263
 40
0.7894736842105263
 40
0.8421052631578947
 40
0.8421052631578947
 40
0.8421052631578947
 40
0.8421052631578947
 40
0.8947368421052632
 40
0.8947368421052632
 40
0.8947368421052632
 40
0.8947368421052632
 40
1.0
 40
1.0
 40
1.0
 40
1.0
 10
176.3217
 20
129.1262
 30
0.0
 10
176.3217
 20
129.1262
 30
0.0
 10
183.7381
 20
129.1262
 30
0.0
 10
183.7381
 20
129.1262
 30
0.0
 10
183.7381
 20
129.1262
 30
0.0
 10
187.7441
 20
122.8137
 30
0.0
 10
187.3205
 20
113.3435
 30
0.0
 10
183.2384
 20
106.8288
 30
0.0
 10
183.2384
 20
106.8288
 30
0.0
 10
180.3124
 20
102.1591
 30
0.0
 10
175.7526
 20
99.9169
 30
0.0
 10
176.0931
 20
100.401
 30
0.0
 10
176.0931
 20
100.401
 30
0.0
 10
176.4332
 20
100.8848
 30
0.0
 10
179.6316
 20
103.6312
 30
0.0
 10
178.4747
 20
107.6726
 30
0.0
 10
178.4747
 20
107.6726
 30
0.0
 10
177.3178
 20
111.7138
 30
0.0
 10
170.4446
 20
113.2715
 30
0.0
 10
167.7905
 20
108.8696
 30
0.0
 10
167.7905
 20
108.8696
 30
0.0
 10
165.1363
 20
104.4674
 30
0.0
 10
167.1779
 20
102.8895
 30
0.0
 10
169.1516
 20
102.0909
 30
0.0
 10
169.1516
 20
102.0909
 30
0.0
 10
171.1249
 20
101.2925
 30
0.0
 10
172.214
 20
101.6662
 30
0.0
 10
172.214
 20
101.6662
 30
0.0
 10
172.214
 20
101.6662
 30
0.0
 10
172.214
 20
101.6662
 30
0.0
 10
173.507
 20
99.8003
 30
0.0
 10
167.5862
 20
97.5644
 30
0.0
 10
167.5862
 20
97.5644
 30
0.0
 10
161.6656
 20
95.3283
 30
0.0
 10
155.8815
 20
95.5667
 30
0.0
 10
152.3425
 20
97.266
 30
0.0
 10
152.3425
 20
97.266
 30
0.0
 10
151.6233
 20
97.6114
 30
0.0
 10
150.7767
 20
98.0419
 30
0.0
 10
149.8407
 20
98.5845
 30
0.0
 10
149.8407
 20
98.5845
 30
0.0
 10
149.3114
 20
99.597
 30
0.0
 10
148.4579
 20
100.3796
 30
0.0
 10
148.2085
 20
100.8789
 30
0.0
 10
148.2085
 20
100.8789
 30
0.0
 10
148.059
 20
101.1789
 30
0.0
 10
147.9011
 20
101.8183
 30
0.0
 10
147.7623
 20
102.5026
 30
0.0
 10
147.7623
 20
102.5026
 30
0.0
 10
150.6863
 20
101.3971
 30
0.0
 10
154.3301
 20
101.6152
 30
0.0
 10
157.9742
 20
104.0131
 30
0.0
 10
157.9742
 20
104.0131
 30
0.0
 10
164.0845
 20
108.0337
 30
0.0
 10
158.9925
 20
113.4599
 30
0.0
 10
158.9925
 20
113.4599
 30
0.0
 10
158.9925
 20
113.4599
 30
0.0
 10
158.9925
 20
113.4599
 30
0.0
 10
161.595
 20
111.9615
 30
0.0
 10
164.6503
 20
113.1438
 30
0.0
 10
164.6503
 20
113.1438
 30
0.0
 10
167.7054
 20
114.3263
 30
0.0
 10
167.9316
 20
115.2938
 30
0.0
 10
167.9316
 20
115.2938
 30
0.0
 10
167.9316
 20
115.2938
 30
0.0
 10
167.9316
 20
115.2938
 30
0.0
 10
172.0054
 20
113.5033
 30
0.0
 10
175.8525
 20
116.1267
 30
0.0
 10
175.8525
 20
116.1267
 30
0.0
 10
179.3203
 20
118.4917
 30
0.0
 10
180.3047
 20
125.6806
 30
0.0
 10
176.3217
 20
129.1262
 30
0.0
  0
SPLINE
  5
7A
330
1F
100
AcDbEntity
  8
layer 1
 62
     7
100
AcDbSpline
210
0.0
220
0.0
230
1.0
 70
    11
 71
     3
 72
    32
 73
    28
 74
     0
 42
0.0000000001
 43
0.0000000001
 12
1.0
 22
0.0
 32
0.0
 13
1.0
 23
0.0
 33
0.0
 40
0.0
 40
0.0
 40
0.0
 40
0.0
 40
0.125
 40
0.125
 40
0.125
 40
0.125
 40
0.25
 40
0.25
 40
0.25
 40
0.25
 40
0.375
 40
0.375
 40
0.375
 40
0.375
 40
0.5
 40
0.5
 40
0.5
 40
0.5
 40
0.625
 40
0.625
 40
0.625
 40
0.625
 40
0.75
 40
0.75
 40
0.75
 40
0.75
 40
1.0
 40
1.0
 40
1.0
 40
1.0
 10
186.553
 20
129.1262
 30
0.0
 10
186.553
 20
129.1262
 30
0.0
 10
193.5106
 20
129.1262
 30
0.0
 10
193.5106
 20
129.1262
 30
0.0
 10
193.5106
 20
129.1262
 30
0.0
 10
193.5106
 20
129.1262
 30
0.0
 10
193.5106
 20
112.5791
 30
0.0
 10
193.5106
 20
112.5791
 30
0.0
 10
193.5106
 20
112.5791
 30
0.0
 10
191.4151
 20
111.716
 30
0.0
 10
190.0238
 20
109.2231
 30
0.0
 10
188.8831
 20
106.432
 30
0.0
 10
188.8831
 20
106.432
 30
0.0
 10
187.493
 20
103.0313
 30
0.0
 10
181.1732
 20
96.5328
 30
0.0
 10
177.528
 20
95.1582
 30
0.0
 10
177.528
 20
95.1582
 30
0.0
 10
173.5355
 20
93.6525
 30
0.0
 10
168.5361
 20
93.4084
 30
0.0
 10
166.4959
 20
94.8627
 30
0.0
 10
166.4959
 20
94.8627
 30
0.0
 10
166.2334
 20
95.0499
 30
0.0
 10
171.7078
 20
95.7285
 30
0.0
 10
179.0916
 20
100.3187
 30
0.0
 10
179.0916
 20
100.3187
 30
0.0
 10
189.6462
 20
108.7601
 30
0.0
 10
191.2523
 20
120.8016
 30
0.0
 10
186.553
 20
129.1262
 30
0.0
  0
SPLINE
  5
7B
330
1F
100
AcDbEntity
  8
layer 1
 62
     7
100
AcDbSpline
210
0.0
220
0.0
230
1.0
 70
    11
 71
     3
 72
    56
 73
    52
 74
     0
 42
0.0000000001
 43
0.0000000001
 12
1.0
 22
0.0
 32
0.0
 13
1.0
 23
0.0
 33
0.0
 40
0.0
 40
0.0
 40
0.0
 40
0.0
 40
0.0714285714285714
 40
0.0714285714285714
 40
0.0714285714285714
 40
0.0714285714285714
 40
0.1428571428571428
 40
0.1428571428571428
 40
0.1428571428571428
 40
0.1428571428571428
 40
0.2142857142857143
 40
0.2142857142857143
 40
0.2142857142857143
 40
0.2142857142857143
 40
0.2857142857142857
 40
0.2857142857142857
 40
0.2857142857142857
 40
0.2857142857142857
 40
0.3571428571428572
 40
0.3571428571428572
 40
0.3571428571428572
 40
0.3571428571428572
 40
0.4285714285714285
 40
0.4285714285714285
 40
0.4285714285714285
 40
0.4285714285714285
 40
0.5
 40
0.5
 40
0.5
 40
0.5
 40
0.5714285714285714
 40
0.5714285714285714
 40
0.5714285714285714
 40
0.5714285714285714
 40
0.6428571428571429
 40
0.6428571428571429
 40
0.6428571428571429
 40
0.6428571428571429
 40
0.7142857142857143
 40
0.7142857142857143
 40
0.7142857142857143
 40
0.7142857142857143
 40
0.7857142857142857
 40
0.7857142857142857
 40
0.7857142857142857
 40
0.7857142857142857
 40
0.8571428571428571
 40
0.8571428571428571
 40
0.8571428571428571
 40
0.8571428571428571
 40
1.0
 40
1.0
 40
1.0
 40
1.0
 10
193.5106
 20
99.8076
 30
0.0
 10
193.5106
 20
99.8076
 30
0.0
 10
193.5106
 20
46.0566
 30
0.0
 10
193.5106
 20
46.0566
 30
0.0
 10
193.5106
 20
46.0566
 30
0.0
 10
192.7632
 20
45.796
 30
0.0
 10
191.9634
 20
45.6271
 30
0.0
 10
191.1113
 20
45.586
 30
0.0
 10
191.1113
 20
45.586
 30
0.0
 10
183.6899
 20
45.2281
 30
0.0
 10
179.8991
 20
49.5624
 30
0.0
 10
178.3524
 20
54.3297
 30
0.0
 10
178.3524
 20
54.3297
 30
0.0
 10
176.8218
 20
59.0453
 30
0.0
 10
177.0917
 20
65.2695
 30
0.0
 10
181.6323
 20
68.0724
 30
0.0
 10
181.6323
 20
68.0724
 30
0.0
 10
182.4275
 20
68.5632
 30
0.0
 10
184.2472
 20
70.2688
 30
0.0
 10
184.1335
 20
71.0305
 30
0.0
 10
184.1335
 20
71.0305
 30
0.0
 10
184.0197
 20
71.7922
 30
0.0
 10
188.1694
 20
70.0491
 30
0.0
 10
190.7841
 20
71.7882
 30
0.0
 10
190.7841
 20
71.7882
 30
0.0
 10
193.3989
 20
73.5271
 30
0.0
 10
191.9779
 20
78.2442
 30
0.0
 10
190.3863
 20
79.6742
 30
0.0
 10
190.3863
 20
79.6742
 30
0.0
 10
190.3863
 20
79.6742
 30
0.0
 10
189.761
 20
75.7319
 30
0.0
 10
186.7482
 20
75.4316
 30
0.0
 10
186.7482
 20
75.4316
 30
0.0
 10
183.7355
 20
75.1314
 30
0.0
 10
183.1672
 20
77.1515
 30
0.0
 10
182.0872
 20
78.1692
 30
0.0
 10
182.0872
 20
78.1692
 30
0.0
 10
181.0071
 20
79.1869
 30
0.0
 10
180.9349
 20
80.6806
 30
0.0
 10
177.5611
 20
85.1747
 30
0.0
 10
177.5611
 20
85.1747
 30
0.0
 10
174.1872
 20
89.6687
 30
0.0
 10
168.0986
 20
91.3644
 30
0.0
 10
168.6513
 20
91.5841
 30
0.0
 10
168.6513
 20
91.5841
 30
0.0
 10
169.2036
 20
91.8041
 30
0.0
 10
175.1698
 20
92.0918
 30
0.0
 10
182.4618
 20
95.3002
 30
0.0
 10
182.4618
 20
95.3002
 30
0.0
 10
186.1548
 20
96.9249
 30
0.0
 10
189.8727
 20
98.5064
 30
0.0
 10
193.5106
 20
99.8076
 30
0.0
  0
SPLINE
  5
7C
330
1F
100
AcDbEntity
  8
layer 1
 62
     7
100
AcDbSpline
210
0.0
220
0.0
230
1.0
 70
    11
 71
     3
 72
    16
 73
    12
 74
     0
 42
0.0000000001
 43
0.0000000001
 12
1.0
 22
0.0
 32
0.0
 13
1.0
 23
0.0
 33
0.0
 40
0.0
 40
0.0
 40
0.0
 40
0.0
 40
0.25
 40
0.25
 40
0.25
 40
0.25
 40
0.5
 40
0.5
 40
0.5
 40
0.5
 40
1.0
 40
1.0
 40
1.0
 40
1.0
 10
193.5106
 20
45.0345
 30
0.0
 10
193.5106
 20
45.0345
 30
0.0
 10
193.5106
 20
43.1901
 30
0.0
 10
193.5106
 20
43.1901
 30
0.0
 10
193.5106
 20
43.1901
 30
0.0
 10
191.8024
 20
43.7713
 30
0.0
 10
190.6163
 20
44.141
 30
0.0
 10
191.3009
 20
44.4013
 30
0.0
 10
191.3009
 20
44.4013
 30
0.0
 10
191.7968
 20
44.5901
 30
0.0
 10
192.543
 20
44.7202
 30
0.0
 10
193.5106
 20
45.0345
 30
0.0
  0
SPLINE
  5
7D
330
1F
100
AcDbEntity
  8
layer 1
 62
     7
100
AcDbSpline
210
0.0
220
0.0
230
1.0
 70
    11
 71
     3
 72
    68
 73
    64
 74
     0
 42
0.0000000001
 43
0.0000000001
 12
1.0
 22
0.0
 32
0.0
 13
1.0
 23
0.0
 33
0.0
 40
0.0
 40
0.0
 40
0.0
 40
0.0
 40
0.0588235294117647
 40
0.0588235294117647
 40
0.0588235294117647
 40
0.0588235294117647
 40
0.1176470588235294
 40
0.1176470588235294
 40
0.1176470588235294
 40
0.1176470588235294
 40
0.1764705882352941
 40
0.1764705882352941
 40
0.1764705882352941
 40
0.1764705882352941
 40
0.2352941176470588
 40
0.2352941176470588
 40
0.2352941176470588
 40
0.2352941176470588
 40
0.2941176470588235
 40
0.2941176470588235
 40
0.2941176470588235
 40
0.2941176470588235
 40
0.3529411764705883
 40
0.3529411764705883
 40
0.3529411764705883
 40
0.3529411764705883
 40
0.4117647058823529
 40
0.4117647058823529
 40
0.4117647058823529
 40
0.4117647058823529
 40
0.4705882352941176
 40
0.4705882352941176
 40
0.4705882352941176
 40
0.4705882352941176
 40
0.5294117647058824
 40
0.5294117647058824
 40
0.5294117647058824
 40
0.5294117647058824
 40
0.5882352941176471
 40
0.5882352941176471
 40
0.5882352941176471
 40
0.5882352941176471
 40
0.6470588235294118
 40
0.6470588235294118
 40
0.6470588235294118
 40
0.6470588235294118
 40
0.7058823529411765
 40
0.7058823529411765
 40
0.7058823529411765
 40
0.7058823529411765
 40
0.7647058823529411
 40
0.7647058823529411
 40
0.7647058823529411
 40
0.7647058823529411
 40
0.8235294117647058
 40
0.8235294117647058
 40
0.8235294117647058
 40
0.8235294117647058
 40
0.8823529411764706
 40
0.8823529411764706
 40
0.8823529411764706
 40
0.8823529411764706
 40
1.0
 40
1.0
 40
1.0
 40
1.0
 10
193.5106
 20
38.705
 30
0.0
 10
193.5106
 20
38.705
 30
0.0
 10
193.5106
 20
20.4392
 30
0.0
 10
193.5106
 20
20.4392
 30
0.0
 10
193.5106
 20
20.4392
 30
0.0
 10
188.4482
 20
26.2009
 30
0.0
 10
180.2583
 20
29.1684
 30
0.0
 10
171.6729
 20
28.2665
 30
0.0
 10
171.6729
 20
28.2665
 30
0.0
 10
172.878
 20
29.381
 30
0.0
 10
174.2913
 20
31.0255
 30
0.0
 10
175.4629
 20
33.3314
 30
0.0
 10
175.4629
 20
33.3314
 30
0.0
 10
178.0856
 20
38.4936
 30
0.0
 10
179.0944
 20
46.8673
 30
0.0
 10
179.0944
 20
48.1219
 30
0.0
 10
179.0944
 20
48.1219
 30
0.0
 10
179.0944
 20
49.3768
 30
0.0
 10
181.2129
 20
47.695
 30
0.0
 10
182.5241
 20
46.2533
 30
0.0
 10
182.5241
 20
46.2533
 30
0.0
 10
183.8357
 20
44.8116
 30
0.0
 10
187.6689
 20
40.3873
 30
0.0
 10
187.5682
 20
37.5569
 30
0.0
 10
187.5682
 20
37.5569
 30
0.0
 10
187.4672
 20
34.7265
 30
0.0
 10
184.1383
 20
33.5204
 30
0.0
 10
183.4321
 20
34.6713
 30
0.0
 10
183.4321
 20
34.6713
 30
0.0
 10
182.726
 20
35.8223
 30
0.0
 10
183.4321
 20
36.812
 30
0.0
 10
183.4321
 20
36.812
 30
0.0
 10
183.4321
 20
36.812
 30
0.0
 10
183.4321
 20
36.812
 30
0.0
 10
185.0461
 20
37.587
 30
0.0
 10
185.0461
 20
35.6678
 30
0.0
 10
185.0461
 20
35.6678
 30
0.0
 10
185.0461
 20
35.6678
 30
0.0
 10
186.862
 20
36.272
 30
0.0
 10
185.853
 20
37.1993
 30
0.0
 10
185.853
 20
37.1993
 30
0.0
 10
184.8445
 20
38.1268
 30
0.0
 10
183.6338
 20
38.339
 30
0.0
 10
182.625
 20
36.6827
 30
0.0
 10
182.625
 20
36.6827
 30
0.0
 10
181.6163
 20
35.0265
 30
0.0
 10
182.1207
 20
32.4222
 30
0.0
 10
185.6516
 20
33.4579
 30
0.0
 10
185.6516
 20
33.4579
 30
0.0
 10
189.1822
 20
34.4934
 30
0.0
 10
189.4848
 20
37.8912
 30
0.0
 10
188.2743
 20
40.4656
 30
0.0
 10
188.2743
 20
40.4656
 30
0.0
 10
187.0637
 20
43.04
 30
0.0
 10
185.5506
 20
44.7999
 30
0.0
 10
185.5506
 20
44.7999
 30
0.0
 10
185.5506
 20
44.7999
 30
0.0
 10
185.5506
 20
44.7999
 30
0.0
 10
188.476
 20
44.65
 30
0.0
 10
190.1909
 20
42.7191
 30
0.0
 10
190.1909
 20
42.7191
 30
0.0
 10
191.0669
 20
41.733
 30
0.0
 10
192.2585
 20
40.0755
 30
0.0
 10
193.5106
 20
38.705
 30
0.0
  0
SPLINE
  5
7E
330
1F
100
AcDbEntity
  8
layer 1
 62
     7
100
AcDbSpline
210
0.0
220
0.0
230
1.0
 70
    11
 71
     3
 72
   136
 73
   132
 74
     0
 42
0.0000000001
 43
0.0000000001
 12
1.0
 22
0.0
 32
0.0
 13
1.0
 23
0.0
 33
0.0
 40
0.0
 40
0.0
 40
0.0
 40
0.0
 40
0.0294117647058824
 40
0.0294117647058824
 40
0.0294117647058824
 40
0.0294117647058824
 40
0.0588235294117647
 40
0.0588235294117647
 40
0.0588235294117647
 40
0.0588235294117647
 40
0.0882352941176471
 40
0.0882352941176471
 40
0.0882352941176471
 40
0.0882352941176471
 40
0.1176470588235294
 40
0.1176470588235294
 40
0.1176470588235294
 40
0.1176470588235294
 40
0.1470588235294118
 40
0.1470588235294118
 40
0.1470588235294118
 40
0.1470588235294118
 40
0.1764705882352941
 40
0.1764705882352941
 40
0.1764705882352941
 40
0.1764705882352941
 40
0.2058823529411765
 40
0.2058823529411765
 40
0.2058823529411765
 40
0.2058823529411765
 40
0.2352941176470588
 40
0.2352941176470588
 40
0.2352941176470588
 40
0.2352941176470588
 40
0.2647058823529412
 40
0.2647058823529412
 40
0.2647058823529412
 40
0.2647058823529412
 40
0.2941176470588235
 40
0.2941176470588235
 40
0.2941176470588235
 40
0.2941176470588235
 40
0.3235294117647059
 40
0.3235294117647059
 40
0.3235294117647059
 40
0.3235294117647059
 40
0.3529411764705883
 40
0.3529411764705883
 40
0.3529411764705883
 40
0.3529411764705883
 40
0.3823529411764706
 40
0.3823529411764706
 40
0.3823529411764706
 40
0.3823529411764706
 40
0.4117647058823529
 40
0.4117647058823529
 40
0.4117647058823529
 40
0.4117647058823529
 40
0.4411764705882353
 40
0.4411764705882353
 40
0.4411764705882353
 40
0.4411764705882353
 40
0.4705882352941176
 40
0.4705882352941176
 40
0.4705882352941176
 40
0.4705882352941176
 40
0.5
 40
0.5
 40
0.5
 40
0.5
 40
0.5294117647058824
 40
0.5294117647058824
 40
0.5294117647058824
 40
0.5294117647058824
 40
0.5588235294117647
 40
0.5588235294117647
 40
0.5588235294117647
 40
0.5588235294117647
 40
0.5882352941176471
 40
0.5882352941176471
 40
0.5882352941176471
 40
0.5882352941176471
 40
0.6176470588235294
 40
0.6176470588235294
 40
0.6176470588235294
 40
0.6176470588235294
 40
0.6470588235294118
 40
0.6470588235294118
 40
0.6470588235294118
 40
0.6470588235294118
 40
0.6764705882352942
 40
0.6764705882352942
 40
0.6764705882352942
 40
0.6764705882352942
 40
0.7058823529411765
 40
0.7058823529411765
 40
0.7058823529411765
 40
0.7058823529411765
 40
0.7352941176470589
 40
0.7352941176470589
 40
0.7352941176470589
 40
0.7352941176470589
 40
0.7647058823529411
 40
0.7647058823529411
 40
0.7647058823529411
 40
0.7647058823529411
 40
0.7941176470588235
 40
0.7941176470588235
 40
0.7941176470588235
 40
0.7941176470588235
 40
0.8235294117647058
 40
0.8235294117647058
 40
0.8235294117647058
 40
0.8235294117647058
 40
0.8529411764705882
 40
0.8529411764705882
 40
0.8529411764705882
 40
0.8529411764705882
 40
0.8823529411764706
 40
0.8823529411764706
 40
0.8823529411764706
 40
0.8823529411764706
 40
0.9117647058823529
 40
0.9117647058823529
 40
0.9117647058823529
 40
0.9117647058823529
 40
0.9411764705882353
 40
0.9411764705882353
 40
0.9411764705882353
 40
0.9411764705882353
 40
1.0
 40
1.0
 40
1.0
 40
1.0
 10
193.5106
 20
15.6789
 30
0.0
 10
193.5106
 20
15.6789
 30
0.0
 10
193.5106
 20
-3.8755
 30
0.0
 10
193.5106
 20
-3.8755
 30
0.0
 10
193.5106
 20
-3.8755
 30
0.0
 10
191.3578
 20
-7.8614
 30
0.0
 10
188.1466
 20
-10.0291
 30
0.0
 10
185.0562
 20
-10.9524
 30
0.0
 10
185.0562
 20
-10.9524
 30
0.0
 10
177.6115
 20
-13.1768
 30
0.0
 10
168.9997
 20
-7.7805
 30
0.0
 10
169.0515
 20
-1.3699
 30
0.0
 10
169.0515
 20
-1.3699
 30
0.0
 10
169.086
 20
2.9196
 30
0.0
 10
173.0326
 20
3.8871
 30
0.0
 10
176.3183
 20
2.5579
 30
0.0
 10
176.3183
 20
2.5579
 30
0.0
 10
179.6043
 20
1.2288
 30
0.0
 10
176.8203
 20
-4.477
 30
0.0
 10
176.8203
 20
-4.477
 30
0.0
 10
176.8203
 20
-4.477
 30
0.0
 10
185.3955
 20
-4.3163
 30
0.0
 10
191.5456
 20
5.1519
 30
0.0
 10
188.4843
 20
11.6924
 30
0.0
 10
188.4843
 20
11.6924
 30
0.0
 10
185.4233
 20
18.2325
 30
0.0
 10
174.8251
 20
17.9295
 30
0.0
 10
171.3308
 20
13.7916
 30
0.0
 10
171.3308
 20
13.7916
 30
0.0
 10
167.8367
 20
9.6542
 30
0.0
 10
169.7632
 20
4.9605
 30
0.0
 10
169.7632
 20
4.9605
 30
0.0
 10
169.7632
 20
4.9605
 30
0.0
 10
169.7632
 20
4.9605
 30
0.0
 10
168.5559
 20
4.7729
 30
0.0
 10
166.8909
 20
1.4254
 30
0.0
 10
166.8909
 20
1.4254
 30
0.0
 10
165.2256
 20
-1.9218
 30
0.0
 10
166.8929
 20
-4.9448
 30
0.0
 10
166.8929
 20
-4.9448
 30
0.0
 10
166.8929
 20
-4.9448
 30
0.0
 10
166.8929
 20
-4.9448
 30
0.0
 10
160.5589
 20
1.1402
 30
0.0
 10
155.189
 20
-5.4413
 30
0.0
 10
155.189
 20
-5.4413
 30
0.0
 10
149.8197
 20
-12.0227
 30
0.0
 10
151.9957
 20
-19.0234
 30
0.0
 10
156.9848
 20
-22.3581
 30
0.0
 10
156.9848
 20
-22.3581
 30
0.0
 10
161.9742
 20
-25.693
 30
0.0
 10
168.8133
 20
-23.0153
 30
0.0
 10
168.8133
 20
-23.0153
 30
0.0
 10
168.8133
 20
-23.0153
 30
0.0
 10
168.8133
 20
-23.0153
 30
0.0
 10
163.5444
 20
-19.2828
 30
0.0
 10
164.2301
 20
-13.3329
 30
0.0
 10
164.2301
 20
-13.3329
 30
0.0
 10
164.9154
 20
-7.3829
 30
0.0
 10
167.1587
 20
-7.5077
 30
0.0
 10
167.1587
 20
-7.5077
 30
0.0
 10
167.1587
 20
-7.5077
 30
0.0
 10
172.5924
 20
-15.1493
 30
0.0
 10
185.9918
 20
-17.53
 30
0.0
 10
193.5106
 20
-8.6709
 30
0.0
 10
193.5106
 20
-8.6709
 30
0.0
 10
193.5106
 20
-8.6709
 30
0.0
 10
193.5106
 20
-41.6018
 30
0.0
 10
193.5106
 20
-41.6018
 30
0.0
 10
193.5106
 20
-41.6018
 30
0.0
 10
188.6495
 20
-35.0101
 30
0.0
 10
185.436
 20
-28.9452
 30
0.0
 10
183.5035
 20
-18.3853
 30
0.0
 10
183.5035
 20
-18.3853
 30
0.0
 10
183.5035
 20
-18.3853
 30
0.0
 10
181.1338
 20
-19.0771
 30
0.0
 10
180.2644
 20
-26.7553
 30
0.0
 10
180.2644
 20
-26.7553
 30
0.0
 10
179.3952
 20
-34.4337
 30
0.0
 10
182.9433
 20
-39.4821
 30
0.0
 10
182.9433
 20
-39.4821
 30
0.0
 10
182.9433
 20
-39.4821
 30
0.0
 10
182.9433
 20
-39.4821
 30
0.0
 10
174.1295
 20
-36.1177
 30
0.0
 10
163.3215
 20
-29.5875
 30
0.0
 10
163.3215
 20
-29.5875
 30
0.0
 10
152.5133
 20
-23.0575
 30
0.0
 10
148.3455
 20
-15.3861
 30
0.0
 10
146.4947
 20
-11.299
 30
0.0
 10
146.4947
 20
-11.299
 30
0.0
 10
144.897
 20
-7.7706
 30
0.0
 10
144.7548
 20
-2.438
 30
0.0
 10
146.7785
 20
3.1306
 30
0.0
 10
146.7785
 20
3.1306
 30
0.0
 10
146.9116
 20
3.4017
 30
0.0
 10
147.0202
 20
3.6819
 30
0.0
 10
147.1
 20
3.9724
 30
0.0
 10
147.1
 20
3.9724
 30
0.0
 10
147.3421
 20
4.5758
 30
0.0
 10
147.6102
 20
5.1809
 30
0.0
 10
147.9047
 20
5.7861
 30
0.0
 10
147.9047
 20
5.7861
 30
0.0
 10
151.0635
 20
12.2766
 30
0.0
 10
153.2728
 20
10.6983
 30
0.0
 10
153.2728
 20
10.6983
 30
0.0
 10
153.2728
 20
10.6983
 30
0.0
 10
153.2728
 20
10.6983
 30
0.0
 10
152.7385
 20
9.5017
 30
0.0
 10
153.5867
 20
7.2327
 30
0.0
 10
153.5867
 20
7.2327
 30
0.0
 10
154.4348
 20
4.9637
 30
0.0
 10
156.2386
 20
2.5646
 30
0.0
 10
161.8417
 20
5.2417
 30
0.0
 10
161.8417
 20
5.2417
 30
0.0
 10
167.4446
 20
7.9188
 30
0.0
 10
165.9962
 20
15.738
 30
0.0
 10
161.0983
 20
17.3125
 30
0.0
 10
161.0983
 20
17.3125
 30
0.0
 10
156.2005
 20
18.8873
 30
0.0
 10
152.5993
 20
15.4862
 30
0.0
 10
151.98
 20
15.1375
 30
0.0
 10
151.98
 20
15.1375
 30
0.0
 10
151.3607
 20
14.7887
 30
0.0
 10
154.4344
 20
19.7519
 30
0.0
 10
160.3854
 20
22.7157
 30
0.0
 10
160.3854
 20
22.7157
 30
0.0
 10
169.2331
 20
27.1225
 30
0.0
 10
181.9308
 20
26.6374
 30
0.0
 10
189.3017
 20
20.7186
 30
0.0
 10
189.3017
 20
20.7186
 30
0.0
 10
190.9921
 20
19.3612
 30
0.0
 10
192.4183
 20
17.6469
 30
0.0
 10
193.5106
 20
15.6789
 30
0.0
  0
SPLINE
  5
7F
330
1F
100
AcDbEntity
  8
layer 1
 62
     7
100
AcDbSpline
210
0.0
220
0.0
230
1.0
 70
    11
 71
     3
 72
    60
 73
    56
 74
     0
 42
0.0000000001
 43
0.0000000001
 12
1.0
 22
0.0
 32
0.0
 13
1.0
 23
0.0
 33
0.0
 40
0.0
 40
0.0
 40
0.0
 40
0.0
 40
0.0666666666666667
 40
0.0666666666666667
 40
0.0666666666666667
 40
0.0666666666666667
 40
0.1333333333333333
 40
0.1333333333333333
 40
0.1333333333333333
 40
0.1333333333333333
 40
0.2
 40
0.2
 40
0.2
 40
0.2
 40
0.2666666666666667
 40
0.2666666666666667
 40
0.2666666666666667
 40
0.2666666666666667
 40
0.3333333333333333
 40
0.3333333333333333
 40
0.3333333333333333
 40
0.3333333333333333
 40
0.4
 40
0.4
 40
0.4
 40
0.4
 40
0.4666666666666667
 40
0.4666666666666667
 40
0.4666666666666667
 40
0.4666666666666667
 40
0.5333333333333333
 40
0.5333333333333333
 40
0.5333333333333333
 40
0.5333333333333333
 40
0.6
 40
0.6
 40
0.6
 40
0.6
 40
0.6666666666666666
 40
0.6666666666666666
 40
0.6666666666666666
 40
0.6666666666666666
 40
0.7333333333333333
 40
0.7333333333333333
 40
0.7333333333333333
 40
0.7333333333333333
 40
0.8
 40
0.8
 40
0.8
 40
0.8
 40
0.8666666666666667
 40
0.8666666666666667
 40
0.8666666666666667
 40
0.8666666666666667
 40
1.0
 40
1.0
 40
1.0
 40
1.0
 10
193.5106
 20
-46.7698
 30
0.0
 10
193.5106
 20
-46.7698
 30
0.0
 10
193.5106
 20
-56.2172
 30
0.0
 10
193.5106
 20
-56.2172
 30
0.0
 10
193.5106
 20
-56.2172
 30
0.0
 10
192.8986
 20
-56.7655
 30
0.0
 10
192.2612
 20
-57.3868
 30
0.0
 10
192.2612
 20
-57.3868
 30
0.0
 10
192.2612
 20
-57.3868
 30
0.0
 10
192.2612
 20
-57.3868
 30
0.0
 10
192.15
 20
-54.5469
 30
0.0
 10
192.6933
 20
-53.5617
 30
0.0
 10
192.6933
 20
-53.5617
 30
0.0
 10
193.2367
 20
-52.5767
 30
0.0
 10
193.0675
 20
-49.7856
 30
0.0
 10
192.5335
 20
-48.7092
 30
0.0
 10
192.5335
 20
-48.7092
 30
0.0
 10
191.9997
 20
-47.633
 30
0.0
 10
191.6166
 20
-47.1926
 30
0.0
 10
191.6166
 20
-47.1926
 30
0.0
 10
191.6166
 20
-47.1926
 30
0.0
 10
191.6166
 20
-47.1926
 30
0.0
 10
191.284
 20
-49.5403
 30
0.0
 10
190.9933
 20
-50.1221
 30
0.0
 10
190.9933
 20
-50.1221
 30
0.0
 10
190.7028
 20
-50.704
 30
0.0
 10
189.2738
 20
-51.8178
 30
0.0
 10
189.53
 20
-53.3037
 30
0.0
 10
189.53
 20
-53.3037
 30
0.0
 10
189.7858
 20
-54.7898
 30
0.0
 10
190.9241
 20
-56.2331
 30
0.0
 10
191.1224
 20
-57.6803
 30
0.0
 10
191.1224
 20
-57.6803
 30
0.0
 10
191.3211
 20
-59.1275
 30
0.0
 10
190.088
 20
-59.513
 30
0.0
 10
190.088
 20
-59.513
 30
0.0
 10
190.088
 20
-59.513
 30
0.0
 10
190.088
 20
-59.513
 30
0.0
 10
189.5556
 20
-58.4759
 30
0.0
 10
188.6858
 20
-57.4844
 30
0.0
 10
188.6858
 20
-57.4844
 30
0.0
 10
187.6332
 20
-54.8493
 30
0.0
 10
184.6164
 20
-49.1358
 30
0.0
 10
184.738
 20
-46.8773
 30
0.0
 10
184.738
 20
-46.8773
 30
0.0
 10
184.7838
 20
-46.0295
 30
0.0
 10
184.7025
 20
-45.3836
 30
0.0
 10
184.614
 20
-44.642
 30
0.0
 10
184.614
 20
-44.642
 30
0.0
 10
184.614
 20
-44.642
 30
0.0
 10
187.4105
 20
-46.274
 30
0.0
 10
187.4105
 20
-46.274
 30
0.0
 10
187.4105
 20
-46.274
 30
0.0
 10
187.4105
 20
-46.274
 30
0.0
 10
193.5106
 20
-46.7698
 30
0.0
 10
193.5106
 20
-46.7698
 30
0.0
  0
SPLINE
  5
80
330
1F
100
AcDbEntity
  8
layer 1
 62
     7
100
AcDbSpline
210
0.0
220
0.0
230
1.0
 70
    11
 71
     3
 72
    16
 73
    12
 74
     0
 42
0.0000000001
 43
0.0000000001
 12
1.0
 22
0.0
 32
0.0
 13
1.0
 23
0.0
 33
0.0
 40
0.0
 40
0.0
 40
0.0
 40
0.0
 40
0.25
 40
0.25
 40
0.25
 40
0.25
 40
0.5
 40
0.5
 40
0.5
 40
0.5
 40
1.0
 40
1.0
 40
1.0
 40
1.0
 10
193.5106
 20
-57.1915
 30
0.0
 10
193.5106
 20
-57.1915
 30
0.0
 10
193.5106
 20
-66.9098
 30
0.0
 10
193.5106
 20
-66.9098
 30
0.0
 10
193.5106
 20
-66.9098
 30
0.0
 10
192.147
 20
-65.764
 30
0.0
 10
191.1609
 20
-63.8981
 30
0.0
 10
190.9481
 20
-62.3968
 30
0.0
 10
190.9481
 20
-62.3968
 30
0.0
 10
190.6344
 20
-60.1849
 30
0.0
 10
191.7952
 20
-58.374
 30
0.0
 10
193.5106
 20
-57.1915
 30
0.0
  0
SPLINE
  5
81
330
1F
100
AcDbEntity
  8
layer 1
 62
     7
100
AcDbSpline
210
0.0
220
0.0
230
1.0
 70
    11
 71
     3
 72
   108
 73
   104
 74
     0
 42
0.0000000001
 43
0.0000000001
 12
1.0
 22
0.0
 32
0.0
 13
1.0
 23
0.0
 33
0.0
 40
0.0
 40
0.0
 40
0.0
 40
0.0
 40
0.037037037037037
 40
0.037037037037037
 40
0.037037037037037
 40
0.037037037037037
 40
0.0740740740740741
 40
0.0740740740740741
 40
0.0740740740740741
 40
0.0740740740740741
 40
0.1111111111111111
 40
0.1111111111111111
 40
0.1111111111111111
 40
0.1111111111111111
 40
0.1481481481481481
 40
0.1481481481481481
 40
0.1481481481481481
 40
0.1481481481481481
 40
0.1851851851851852
 40
0.1851851851851852
 40
0.1851851851851852
 40
0.1851851851851852
 40
0.2222222222222222
 40
0.2222222222222222
 40
0.2222222222222222
 40
0.2222222222222222
 40
0.2592592592592592
 40
0.2592592592592592
 40
0.2592592592592592
 40
0.2592592592592592
 40
0.2962962962962963
 40
0.2962962962962963
 40
0.2962962962962963
 40
0.2962962962962963
 40
0.3333333333333333
 40
0.3333333333333333
 40
0.3333333333333333
 40
0.3333333333333333
 40
0.3703703703703703
 40
0.3703703703703703
 40
0.3703703703703703
 40
0.3703703703703703
 40
0.4074074074074074
 40
0.4074074074074074
 40
0.4074074074074074
 40
0.4074074074074074
 40
0.4444444444444444
 40
0.4444444444444444
 40
0.4444444444444444
 40
0.4444444444444444
 40
0.4814814814814815
 40
0.4814814814814815
 40
0.4814814814814815
 40
0.4814814814814815
 40
0.5185185185185185
 40
0.5185185185185185
 40
0.5185185185185185
 40
0.5185185185185185
 40
0.5555555555555556
 40
0.5555555555555556
 40
0.5555555555555556
 40
0.5555555555555556
 40
0.5925925925925926
 40
0.5925925925925926
 40
0.5925925925925926
 40
0.5925925925925926
 40
0.6296296296296297
 40
0.6296296296296297
 40
0.6296296296296297
 40
0.6296296296296297
 40
0.6666666666666666
 40
0.6666666666666666
 40
0.6666666666666666
 40
0.6666666666666666
 40
0.7037037037037037
 40
0.7037037037037037
 40
0.7037037037037037
 40
0.7037037037037037
 40
0.7407407407407407
 40
0.7407407407407407
 40
0.7407407407407407
 40
0.7407407407407407
 40
0.7777777777777778
 40
0.7777777777777778
 40
0.7777777777777778
 40
0.7777777777777778
 40
0.8148148148148148
 40
0.8148148148148148
 40
0.8148148148148148
 40
0.8148148148148148
 40
0.8518518518518519
 40
0.8518518518518519
 40
0.8518518518518519
 40
0.8518518518518519
 40
0.8888888888888888
 40
0.8888888888888888
 40
0.8888888888888888
 40
0.8888888888888888
 40
0.9259259259259259
 40
0.9259259259259259
 40
0.9259259259259259
 40
0.9259259259259259
 40
1.0
 40
1.0
 40
1.0
 40
1.0
 10
193.5106
 20
-69.0313
 30
0.0
 10
193.5106
 20
-69.0313
 30
0.0
 10
193.5106
 20
-83.2997
 30
0.0
 10
193.5106
 20
-83.2997
 30
0.0
 10
193.5106
 20
-83.2997
 30
0.0
 10
190.5872
 20
-83.7766
 30
0.0
 10
187.6322
 20
-83.3746
 30
0.0
 10
185.4045
 20
-81.4679
 30
0.0
 10
185.4045
 20
-81.4679
 30
0.0
 10
184.7112
 20
-80.8744
 30
0.0
 10
182.5455
 20
-79.6669
 30
0.0
 10
181.8177
 20
-79.9668
 30
0.0
 10
181.8177
 20
-79.9668
 30
0.0
 10
181.09
 20
-80.2664
 30
0.0
 10
181.7507
 20
-76.0576
 30
0.0
 10
179.3465
 20
-74.1386
 30
0.0
 10
179.3465
 20
-74.1386
 30
0.0
 10
177.4062
 20
-72.5896
 30
0.0
 10
174.2173
 20
-73.9226
 30
0.0
 10
172.5278
 20
-75.4466
 30
0.0
 10
172.5278
 20
-75.4466
 30
0.0
 10
167.2786
 20
-76.9145
 30
0.0
 10
162.7987
 20
-82.7597
 30
0.0
 10
162.3633
 20
-84.7029
 30
0.0
 10
162.3633
 20
-84.7029
 30
0.0
 10
162.0448
 20
-85.0652
 30
0.0
 10
161.387
 20
-83.2235
 30
0.0
 10
161.2085
 20
-81.3164
 30
0.0
 10
161.2085
 20
-81.3164
 30
0.0
 10
161.0305
 20
-79.4095
 30
0.0
 10
162.0541
 20
-77.3839
 30
0.0
 10
162.7722
 20
-75.8968
 30
0.0
 10
162.7722
 20
-75.8968
 30
0.0
 10
163.4902
 20
-74.4097
 30
0.0
 10
164.3058
 20
-73.2916
 30
0.0
 10
163.4192
 20
-69.7922
 30
0.0
 10
163.4192
 20
-69.7922
 30
0.0
 10
162.8792
 20
-67.6604
 30
0.0
 10
163.2739
 20
-64.6442
 30
0.0
 10
163.6649
 20
-62.6125
 30
0.0
 10
163.6649
 20
-62.6125
 30
0.0
 10
167.5604
 20
-61.7146
 30
0.0
 10
170.4709
 20
-58.0591
 30
0.0
 10
168.3725
 20
-53.3105
 30
0.0
 10
168.3725
 20
-53.3105
 30
0.0
 10
169.2407
 20
-53.2807
 30
0.0
 10
170.0884
 20
-53.1516
 30
0.0
 10
170.7271
 20
-52.8407
 30
0.0
 10
170.7271
 20
-52.8407
 30
0.0
 10
172.8125
 20
-51.8248
 30
0.0
 10
175.8688
 20
-50.0559
 30
0.0
 10
175.8688
 20
-50.0559
 30
0.0
 10
175.8688
 20
-50.0559
 30
0.0
 10
175.8688
 20
-50.0559
 30
0.0
 10
174.281
 20
-57.0584
 30
0.0
 10
172.3092
 20
-59.1396
 30
0.0
 10
172.3092
 20
-59.1396
 30
0.0
 10
170.3379
 20
-61.2212
 30
0.0
 10
168.9238
 20
-68.1391
 30
0.0
 10
169.5232
 20
-71.0861
 30
0.0
 10
169.5232
 20
-71.0861
 30
0.0
 10
170.1227
 20
-74.0331
 30
0.0
 10
170.77
 20
-75.3373
 30
0.0
 10
170.77
 20
-75.3373
 30
0.0
 10
170.77
 20
-75.3373
 30
0.0
 10
170.77
 20
-75.3373
 30
0.0
 10
173.1189
 20
-69.8017
 30
0.0
 10
174.2096
 20
-68.5545
 30
0.0
 10
174.2096
 20
-68.5545
 30
0.0
 10
175.2348
 20
-67.3822
 30
0.0
 10
179.0216
 20
-65.6613
 30
0.0
 10
179.7629
 20
-62.3196
 30
0.0
 10
179.7629
 20
-62.3196
 30
0.0
 10
180.8643
 20
-62.6615
 30
0.0
 10
182.0523
 20
-63.1339
 30
0.0
 10
182.8568
 20
-63.7425
 30
0.0
 10
182.8568
 20
-63.7425
 30
0.0
 10
184.7536
 20
-65.1776
 30
0.0
 10
185.6551
 20
-65.0253
 30
0.0
 10
186.7559
 20
-65.0265
 30
0.0
 10
186.7559
 20
-65.0265
 30
0.0
 10
187.8567
 20
-65.0275
 30
0.0
 10
189.3686
 20
-65.0037
 30
0.0
 10
190.4842
 20
-65.6165
 30
0.0
 10
190.4842
 20
-65.6165
 30
0.0
 10
191.5999
 20
-66.229
 30
0.0
 10
192.5466
 20
-67.0907
 30
0.0
 10
192.2398
 20
-67.1704
 30
0.0
 10
192.2398
 20
-67.1704
 30
0.0
 10
191.9332
 20
-67.2499
 30
0.0
 10
188.2749
 20
-67.4212
 30
0.0
 10
186.2126
 20
-69.3519
 30
0.0
 10
186.2126
 20
-69.3519
 30
0.0
 10
184.1504
 20
-71.2826
 30
0.0
 10
182.2239
 20
-71.6727
 30
0.0
 10
184.8508
 20
-76.9629
 30
0.0
 10
184.8508
 20
-76.9629
 30
0.0
 10
187.0252
 20
-75.2723
 30
0.0
 10
185.8326
 20
-70.5985
 30
0.0
 10
187.6104
 20
-69.7271
 30
0.0
 10
187.6104
 20
-69.7271
 30
0.0
 10
189.7319
 20
-68.6874
 30
0.0
 10
191.6033
 20
-68.8435
 30
0.0
 10
193.5106
 20
-69.0313
 30
0.0
  0
SPLINE
  5
82
330
1F
100
AcDbEntity
  8
layer 1
 62
     7
100
AcDbSpline
210
0.0
220
0.0
230
1.0
 70
    11
 71
     3
 72
    72
 73
    68
 74
     0
 42
0.0000000001
 43
0.0000000001
 12
1.0
 22
0.0
 32
0.0
 13
1.0
 23
0.0
 33
0.0
 40
0.0
 40
0.0
 40
0.0
 40
0.0
 40
0.0555555555555556
 40
0.0555555555555556
 40
0.0555555555555556
 40
0.0555555555555556
 40
0.1111111111111111
 40
0.1111111111111111
 40
0.1111111111111111
 40
0.1111111111111111
 40
0.1666666666666667
 40
0.1666666666666667
 40
0.1666666666666667
 40
0.1666666666666667
 40
0.2222222222222222
 40
0.2222222222222222
 40
0.2222222222222222
 40
0.2222222222222222
 40
0.2777777777777778
 40
0.2777777777777778
 40
0.2777777777777778
 40
0.2777777777777778
 40
0.3333333333333333
 40
0.3333333333333333
 40
0.3333333333333333
 40
0.3333333333333333
 40
0.3888888888888889
 40
0.3888888888888889
 40
0.3888888888888889
 40
0.3888888888888889
 40
0.4444444444444444
 40
0.4444444444444444
 40
0.4444444444444444
 40
0.4444444444444444
 40
0.5
 40
0.5
 40
0.5
 40
0.5
 40
0.5555555555555556
 40
0.5555555555555556
 40
0.5555555555555556
 40
0.5555555555555556
 40
0.6111111111111112
 40
0.6111111111111112
 40
0.6111111111111112
 40
0.6111111111111112
 40
0.6666666666666666
 40
0.6666666666666666
 40
0.6666666666666666
 40
0.6666666666666666
 40
0.7222222222222222
 40
0.7222222222222222
 40
0.7222222222222222
 40
0.7222222222222222
 40
0.7777777777777778
 40
0.7777777777777778
 40
0.7777777777777778
 40
0.7777777777777778
 40
0.8333333333333334
 40
0.8333333333333334
 40
0.8333333333333334
 40
0.8333333333333334
 40
0.8888888888888888
 40
0.8888888888888888
 40
0.8888888888888888
 40
0.8888888888888888
 40
1.0
 40
1.0
 40
1.0
 40
1.0
 10
193.5106
 20
-84.6644
 30
0.0
 10
193.5106
 20
-84.6644
 30
0.0
 10
193.5106
 20
-97.2486
 30
0.0
 10
193.5106
 20
-97.2486
 30
0.0
 10
193.5106
 20
-97.2486
 30
0.0
 10
192.542
 20
-99.2773
 30
0.0
 10
191.9854
 20
-101.6442
 30
0.0
 10
190.5437
 20
-101.958
 30
0.0
 10
190.5437
 20
-101.958
 30
0.0
 10
188.2634
 20
-102.4539
 30
0.0
 10
185.8917
 20
-102.7664
 30
0.0
 10
183.5811
 20
-101.5042
 30
0.0
 10
183.5811
 20
-101.5042
 30
0.0
 10
182.2484
 20
-100.7765
 30
0.0
 10
179.7786
 20
-99.3171
 30
0.0
 10
177.8522
 20
-97.1507
 30
0.0
 10
177.8522
 20
-97.1507
 30
0.0
 10
178.322
 20
-96.9581
 30
0.0
 10
178.6502
 20
-96.7096
 30
0.0
 10
178.863
 20
-96.4356
 30
0.0
 10
178.863
 20
-96.4356
 30
0.0
 10
178.863
 20
-96.4356
 30
0.0
 10
178.1318
 20
-95.0367
 30
0.0
 10
175.5791
 20
-93.8463
 30
0.0
 10
175.5791
 20
-93.8463
 30
0.0
 10
173.0267
 20
-92.6559
 30
0.0
 10
169.9278
 20
-93.5935
 30
0.0
 10
169.9278
 20
-93.5935
 30
0.0
 10
169.9278
 20
-93.5935
 30
0.0
 10
170.3732
 20
-93.0725
 30
0.0
 10
179.8942
 20
-86.539
 30
0.0
 10
182.3432
 20
-89.3079
 30
0.0
 10
182.3432
 20
-89.3079
 30
0.0
 10
182.8957
 20
-89.9324
 30
0.0
 10
180.9388
 20
-95.0161
 30
0.0
 10
179.5134
 20
-95.1218
 30
0.0
 10
179.5134
 20
-95.1218
 30
0.0
 10
182.142
 20
-96.3701
 30
0.0
 10
185.017
 20
-93.8088
 30
0.0
 10
183.9277
 20
-89.8124
 30
0.0
 10
183.9277
 20
-89.8124
 30
0.0
 10
186.5152
 20
-91.095
 30
0.0
 10
186.5138
 20
-98.4962
 30
0.0
 10
182.8146
 20
-99.7988
 30
0.0
 10
182.8146
 20
-99.7988
 30
0.0
 10
192.3176
 20
-101.5318
 30
0.0
 10
189.0265
 20
-85.1324
 30
0.0
 10
177.6436
 20
-87.2188
 30
0.0
 10
177.6436
 20
-87.2188
 30
0.0
 10
175.379
 20
-87.6338
 30
0.0
 10
173.6835
 20
-88.2478
 30
0.0
 10
173.6835
 20
-88.2478
 30
0.0
 10
173.6835
 20
-88.2478
 30
0.0
 10
173.6835
 20
-88.2478
 30
0.0
 10
179.9677
 20
-82.7813
 30
0.0
 10
182.5118
 20
-83.3272
 30
0.0
 10
182.5118
 20
-83.3272
 30
0.0
 10
184.5878
 20
-83.7726
 30
0.0
 10
184.6926
 20
-87.9394
 30
0.0
 10
189.7509
 20
-87.2459
 30
0.0
 10
189.7509
 20
-87.2459
 30
0.0
 10
189.7509
 20
-87.2459
 30
0.0
 10
186.0563
 20
-83.6616
 30
0.0
 10
186.0563
 20
-83.6616
 30
0.0
 10
186.0563
 20
-83.6616
 30
0.0
 10
188.9682
 20
-84.7965
 30
0.0
 10
191.3832
 20
-84.9738
 30
0.0
 10
193.5106
 20
-84.6644
 30
0.0
  0
SPLINE
  5
83
330
1F
100
AcDbEntity
  8
layer 1
 62
     7
100
AcDbSpline
210
0.0
220
0.0
230
1.0
 70
    11
 71
     3
 72
    28
 73
    24
 74
     0
 42
0.0000000001
 43
0.0000000001
 12
1.0
 22
0.0
 32
0.0
 13
1.0
 23
0.0
 33
0.0
 40
0.0
 40
0.0
 40
0.0
 40
0.0
 40
0.1428571428571428
 40
0.1428571428571428
 40
0.1428571428571428
 40
0.1428571428571428
 40
0.2857142857142857
 40
0.2857142857142857
 40
0.2857142857142857
 40
0.2857142857142857
 40
0.4285714285714285
 40
0.4285714285714285
 40
0.4285714285714285
 40
0.4285714285714285
 40
0.5714285714285714
 40
0.5714285714285714
 40
0.5714285714285714
 40
0.5714285714285714
 40
0.7142857142857143
 40
0.7142857142857143
 40
0.7142857142857143
 40
0.7142857142857143
 40
1.0
 40
1.0
 40
1.0
 40
1.0
 10
193.5106
 20
-102.0137
 30
0.0
 10
193.5106
 20
-102.0137
 30
0.0
 10
193.5106
 20
-109.3517
 30
0.0
 10
193.5106
 20
-109.3517
 30
0.0
 10
193.5106
 20
-109.3517
 30
0.0
 10
192.1351
 20
-107.8793
 30
0.0
 10
191.1785
 20
-107.7873
 30
0.0
 10
190.0845
 20
-107.5186
 30
0.0
 10
190.0845
 20
-107.5186
 30
0.0
 10
188.8379
 20
-107.213
 30
0.0
 10
187.1182
 20
-106.8218
 30
0.0
 10
186.0404
 20
-105.8191
 30
0.0
 10
186.0404
 20
-105.8191
 30
0.0
 10
184.9628
 20
-104.8165
 30
0.0
 10
184.152
 20
-103.5787
 30
0.0
 10
184.5236
 20
-103.5733
 30
0.0
 10
184.5236
 20
-103.5733
 30
0.0
 10
184.8952
 20
-103.568
 30
0.0
 10
189.0911
 20
-104.386
 30
0.0
 10
192.0132
 20
-102.7694
 30
0.0
 10
192.0132
 20
-102.7694
 30
0.0
 10
192.5385
 20
-102.4791
 30
0.0
 10
193.0432
 20
-102.2433
 30
0.0
 10
193.5106
 20
-102.0137
 30
0.0
  0
SPLINE
  5
84
330
1F
100
AcDbEntity
  8
layer 1
 62
     7
100
AcDbSpline
210
0.0
220
0.0
230
1.0
 70
    11
 71
     3
 72
    24
 73
    20
 74
     0
 42
0.0000000001
 43
0.0000000001
 12
1.0
 22
0.0
 32
0.0
 13
1.0
 23
0.0
 33
0.0
 40
0.0
 40
0.0
 40
0.0
 40
0.0
 40
0.1666666666666667
 40
0.1666666666666667
 40
0.1666666666666667
 40
0.1666666666666667
 40
0.3333333333333333
 40
0.3333333333333333
 40
0.3333333333333333
 40
0.3333333333333333
 40
0.5
 40
0.5
 40
0.5
 40
0.5
 40
0.6666666666666666
 40
0.6666666666666666
 40
0.6666666666666666
 40
0.6666666666666666
 40
1.0
 40
1.0
 40
1.0
 40
1.0
 10
190.8021
 20
-112.2627
 30
0.0
 10
190.8021
 20
-112.2627
 30
0.0
 10
185.6613
 20
-112.2627
 30
0.0
 10
185.6613
 20
-112.2627
 30
0.0
 10
185.6613
 20
-112.2627
 30
0.0
 10
185.6599
 20
-111.7399
 30
0.0
 10
185.6448
 20
-111.167
 30
0.0
 10
185.6379
 20
-110.5699
 30
0.0
 10
185.6379
 20
-110.5699
 30
0.0
 10
185.6147
 20
-108.568
 30
0.0
 10
185.2085
 20
-106.5713
 30
0.0
 10
185.2085
 20
-106.5713
 30
0.0
 10
185.2085
 20
-106.5713
 30
0.0
 10
185.2085
 20
-106.5713
 30
0.0
 10
186.8953
 20
-107.8432
 30
0.0
 10
187.7232
 20
-109.2659
 30
0.0
 10
187.7232
 20
-109.2659
 30
0.0
 10
188.2374
 20
-110.1499
 30
0.0
 10
189.486
 20
-111.3269
 30
0.0
 10
190.8021
 20
-112.2627
 30
0.0
  0
SPLINE
  5
85
330
1F
100
AcDbEntity
  8
layer 1
 62
     7
100
AcDbSpline
210
0.0
220
0.0
230
1.0
 70
    11
 71
     3
 72
    64
 73
    60
 74
     0
 42
0.0000000001
 43
0.0000000001
 12
1.0
 22
0.0
 32
0.0
 13
1.0
 23
0.0
 33
0.0
 40
0.0
 40
0.0
 40
0.0
 40
0.0
 40
0.0625
 40
0.0625
 40
0.0625
 40
0.0625
 40
0.125
 40
0.125
 40
0.125
 40
0.125
 40
0.1875
 40
0.1875
 40
0.1875
 40
0.1875
 40
0.25
 40
0.25
 40
0.25
 40
0.25
 40
0.3125
 40
0.3125
 40
0.3125
 40
0.3125
 40
0.375
 40
0.375
 40
0.375
 40
0.375
 40
0.4375
 40
0.4375
 40
0.4375
 40
0.4375
 40
0.5
 40
0.5
 40
0.5
 40
0.5
 40
0.5625
 40
0.5625
 40
0.5625
 40
0.5625
 40
0.625
 40
0.625
 40
0.625
 40
0.625
 40
0.6875
 40
0.6875
 40
0.6875
 40
0.6875
 40
0.75
 40
0.75
 40
0.75
 40
0.75
 40
0.8125
 40
0.8125
 40
0.8125
 40
0.8125
 40
0.875
 40
0.875
 40
0.875
 40
0.875
 40
1.0
 40
1.0
 40
1.0
 40
1.0
 10
183.3114
 20
-112.2627
 30
0.0
 10
183.3114
 20
-112.2627
 30
0.0
 10
170.9842
 20
-112.2627
 30
0.0
 10
170.9842
 20
-112.2627
 30
0.0
 10
170.9842
 20
-112.2627
 30
0.0
 10
170.3793
 20
-111.1599
 30
0.0
 10
169.9784
 20
-109.766
 30
0.0
 10
169.8925
 20
-108.1635
 30
0.0
 10
169.8925
 20
-108.1635
 30
0.0
 10
169.8925
 20
-108.1635
 30
0.0
 10
168.521
 20
-108.4659
 30
0.0
 10
169.1262
 20
-111.0986
 30
0.0
 10
169.1262
 20
-111.0986
 30
0.0
 10
169.2248
 20
-111.5273
 30
0.0
 10
169.3614
 20
-111.9136
 30
0.0
 10
169.5244
 20
-112.2627
 30
0.0
 10
169.5244
 20
-112.2627
 30
0.0
 10
169.5244
 20
-112.2627
 30
0.0
 10
167.6574
 20
-112.2627
 30
0.0
 10
167.6574
 20
-112.2627
 30
0.0
 10
167.6574
 20
-112.2627
 30
0.0
 10
167.8928
 20
-109.7912
 30
0.0
 10
167.7593
 20
-107.1924
 30
0.0
 10
167.1269
 20
-104.4808
 30
0.0
 10
167.1269
 20
-104.4808
 30
0.0
 10
166.3704
 20
-101.2369
 30
0.0
 10
169.5522
 20
-96.8879
 30
0.0
 10
173.0358
 20
-97.3751
 30
0.0
 10
173.0358
 20
-97.3751
 30
0.0
 10
174.4707
 20
-97.5758
 30
0.0
 10
175.6027
 20
-97.5921
 30
0.0
 10
176.4831
 20
-97.4842
 30
0.0
 10
176.4831
 20
-97.4842
 30
0.0
 10
177.7717
 20
-99.3405
 30
0.0
 10
178.6734
 20
-100.1508
 30
0.0
 10
178.6734
 20
-100.1508
 30
0.0
 10
178.6734
 20
-100.1508
 30
0.0
 10
178.6734
 20
-100.1508
 30
0.0
 10
178.6492
 20
-102.5495
 30
0.0
 10
177.7257
 20
-103.1658
 30
0.0
 10
177.7257
 20
-103.1658
 30
0.0
 10
176.802
 20
-103.7818
 30
0.0
 10
176.3663
 20
-103.9523
 30
0.0
 10
176.3663
 20
-103.9523
 30
0.0
 10
176.3663
 20
-103.9523
 30
0.0
 10
176.3663
 20
-103.9523
 30
0.0
 10
179.2971
 20
-105.0598
 30
0.0
 10
179.6768
 20
-103.7945
 30
0.0
 10
179.6768
 20
-103.7945
 30
0.0
 10
180.0566
 20
-102.5291
 30
0.0
 10
180.0768
 20
-101.5427
 30
0.0
 10
180.0768
 20
-101.5427
 30
0.0
 10
180.0768
 20
-101.5427
 30
0.0
 10
183.2307
 20
-102.0038
 30
0.0
 10
184.8851
 20
-106.4914
 30
0.0
 10
184.5375
 20
-109.3379
 30
0.0
 10
184.5375
 20
-109.3379
 30
0.0
 10
184.3981
 20
-110.4807
 30
0.0
 10
183.9572
 20
-111.4552
 30
0.0
 10
183.3114
 20
-112.2627
 30
0.0
  0
SPLINE
  5
86
330
1F
100
AcDbEntity
  8
layer 1
 62
     7
100
AcDbSpline
210
0.0
220
0.0
230
1.0
 70
    11
 71
     3
 72
    72
 73
    68
 74
     0
 42
0.0000000001
 43
0.0000000001
 12
1.0
 22
0.0
 32
0.0
 13
1.0
 23
0.0
 33
0.0
 40
0.0
 40
0.0
 40
0.0
 40
0.0
 40
0.0555555555555556
 40
0.0555555555555556
 40
0.0555555555555556
 40
0.0555555555555556
 40
0.1111111111111111
 40
0.1111111111111111
 40
0.1111111111111111
 40
0.1111111111111111
 40
0.1666666666666667
 40
0.1666666666666667
 40
0.1666666666666667
 40
0.1666666666666667
 40
0.2222222222222222
 40
0.2222222222222222
 40
0.2222222222222222
 40
0.2222222222222222
 40
0.2777777777777778
 40
0.2777777777777778
 40
0.2777777777777778
 40
0.2777777777777778
 40
0.3333333333333333
 40
0.3333333333333333
 40
0.3333333333333333
 40
0.3333333333333333
 40
0.3888888888888889
 40
0.3888888888888889
 40
0.3888888888888889
 40
0.3888888888888889
 40
0.4444444444444444
 40
0.4444444444444444
 40
0.4444444444444444
 40
0.4444444444444444
 40
0.5
 40
0.5
 40
0.5
 40
0.5
 40
0.5555555555555556
 40
0.5555555555555556
 40
0.5555555555555556
 40
0.5555555555555556
 40
0.6111111111111112
 40
0.6111111111111112
 40
0.6111111111111112
 40
0.6111111111111112
 40
0.6666666666666666
 40
0.6666666666666666
 40
0.6666666666666666
 40
0.6666666666666666
 40
0.7222222222222222
 40
0.7222222222222222
 40
0.7222222222222222
 40
0.7222222222222222
 40
0.7777777777777778
 40
0.7777777777777778
 40
0.7777777777777778
 40
0.7777777777777778
 40
0.8333333333333334
 40
0.8333333333333334
 40
0.8333333333333334
 40
0.8333333333333334
 40
0.8888888888888888
 40
0.8888888888888888
 40
0.8888888888888888
 40
0.8888888888888888
 40
1.0
 40
1.0
 40
1.0
 40
1.0
 10
164.1236
 20
-112.2627
 30
0.0
 10
164.1236
 20
-112.2627
 30
0.0
 10
155.888
 20
-112.2627
 30
0.0
 10
155.888
 20
-112.2627
 30
0.0
 10
155.888
 20
-112.2627
 30
0.0
 10
155.8547
 20
-112.2353
 30
0.0
 10
155.8222
 20
-112.2079
 30
0.0
 10
155.7885
 20
-112.1806
 30
0.0
 10
155.7885
 20
-112.1806
 30
0.0
 10
152.1083
 20
-109.2131
 30
0.0
 10
149.0806
 20
-110.8242
 30
0.0
 10
147.4472
 20
-112.2627
 30
0.0
 10
147.4472
 20
-112.2627
 30
0.0
 10
147.4472
 20
-112.2627
 30
0.0
 10
146.3028
 20
-112.2627
 30
0.0
 10
146.3028
 20
-112.2627
 30
0.0
 10
146.3028
 20
-112.2627
 30
0.0
 10
146.2996
 20
-111.2444
 30
0.0
 10
146.0523
 20
-109.8271
 30
0.0
 10
144.9872
 20
-108.4925
 30
0.0
 10
144.9872
 20
-108.4925
 30
0.0
 10
143.0228
 20
-106.0305
 30
0.0
 10
142.0023
 20
-106.0757
 30
0.0
 10
142.0023
 20
-106.0757
 30
0.0
 10
142.0023
 20
-106.0757
 30
0.0
 10
142.0023
 20
-106.0757
 30
0.0
 10
142.7299
 20
-101.9236
 30
0.0
 10
139.1283
 20
-99.1166
 30
0.0
 10
139.1283
 20
-99.1166
 30
0.0
 10
136.7286
 20
-97.2466
 30
0.0
 10
132.0599
 20
-97.2863
 30
0.0
 10
128.8194
 20
-99.2499
 30
0.0
 10
128.8194
 20
-99.2499
 30
0.0
 10
128.8194
 20
-99.2499
 30
0.0
 10
128.8194
 20
-91.9928
 30
0.0
 10
128.8194
 20
-91.9928
 30
0.0
 10
128.8194
 20
-91.9928
 30
0.0
 10
134.0594
 20
-89.2948
 30
0.0
 10
140.8206
 20
-88.5155
 30
0.0
 10
146.463
 20
-90.025
 30
0.0
 10
146.463
 20
-90.025
 30
0.0
 10
151.8608
 20
-91.469
 30
0.0
 10
155.2679
 20
-95.0197
 30
0.0
 10
154.6988
 20
-94.8364
 30
0.0
 10
154.6988
 20
-94.8364
 30
0.0
 10
154.1298
 20
-94.6532
 30
0.0
 10
150.5737
 20
-92.4659
 30
0.0
 10
146.855
 20
-94.5576
 30
0.0
 10
146.855
 20
-94.5576
 30
0.0
 10
143.1366
 20
-96.6495
 30
0.0
 10
143.3635
 20
-103.2773
 30
0.0
 10
148.425
 20
-104.5442
 30
0.0
 10
148.425
 20
-104.5442
 30
0.0
 10
153.4867
 20
-105.8108
 30
0.0
 10
154.528
 20
-103.5541
 30
0.0
 10
154.8116
 20
-101.5602
 30
0.0
 10
154.8116
 20
-101.5602
 30
0.0
 10
155.0956
 20
-99.5664
 30
0.0
 10
154.4432
 20
-98.6768
 30
0.0
 10
154.4432
 20
-98.6768
 30
0.0
 10
154.4432
 20
-98.6768
 30
0.0
 10
154.4432
 20
-98.6768
 30
0.0
 10
155.964
 20
-97.0235
 30
0.0
 10
159.7159
 20
-101.8086
 30
0.0
 10
159.7159
 20
-101.8086
 30
0.0
 10
162.4539
 20
-105.3002
 30
0.0
 10
163.8628
 20
-109.0658
 30
0.0
 10
164.1236
 20
-112.2627
 30
0.0
  0
SPLINE
  5
87
330
1F
100
AcDbEntity
  8
layer 1
 62
     7
100
AcDbSpline
210
0.0
220
0.0
230
1.0
 70
    11
 71
     3
 72
    20
 73
    16
 74
     0
 42
0.0000000001
 43
0.0000000001
 12
1.0
 22
0.0
 32
0.0
 13
1.0
 23
0.0
 33
0.0
 40
0.0
 40
0.0
 40
0.0
 40
0.0
 40
0.2
 40
0.2
 40
0.2
 40
0.2
 40
0.4
 40
0.4
 40
0.4
 40
0.4
 40
0.6
 40
0.6
 40
0.6
 40
0.6
 40
1.0
 40
1.0
 40
1.0
 40
1.0
 10
143.8729
 20
-112.2627
 30
0.0
 10
143.8729
 20
-112.2627
 30
0.0
 10
136.4462
 20
-112.2627
 30
0.0
 10
136.4462
 20
-112.2627
 30
0.0
 10
136.4462
 20
-112.2627
 30
0.0
 10
136.0425
 20
-111.1038
 30
0.0
 10
135.9778
 20
-109.8489
 30
0.0
 10
137.0788
 20
-109.1166
 30
0.0
 10
137.0788
 20
-109.1166
 30
0.0
 10
139.5243
 20
-107.4903
 30
0.0
 10
142.9241
 20
-107.6324
 30
0.0
 10
143.726
 20
-111.1321
 30
0.0
 10
143.726
 20
-111.1321
 30
0.0
 10
143.8119
 20
-111.5067
 30
0.0
 10
143.8591
 20
-111.8845
 30
0.0
 10
143.8729
 20
-112.2627
 30
0.0
  0
SPLINE
  5
88
330
1F
100
AcDbEntity
  8
layer 1
 62
     7
100
AcDbSpline
210
0.0
220
0.0
230
1.0
 70
    11
 71
     3
 72
    16
 73
    12
 74
     0
 42
0.0000000001
 43
0.0000000001
 12
1.0
 22
0.0
 32
0.0
 13
1.0
 23
0.0
 33
0.0
 40
0.0
 40
0.0
 40
0.0
 40
0.0
 40
0.25
 40
0.25
 40
0.25
 40
0.25
 40
0.5
 40
0.5
 40
0.5
 40
0.5
 40
1.0
 40
1.0
 40
1.0
 40
1.0
 10
128.9015
 20
-112.2627
 30
0.0
 10
128.9015
 20
-112.2627
 30
0.0
 10
128.8194
 20
-112.2627
 30
0.0
 10
128.8194
 20
-112.2627
 30
0.0
 10
128.8194
 20
-112.2627
 30
0.0
 10
128.8194
 20
-112.2627
 30
0.0
 10
128.8194
 20
-112.1913
 30
0.0
 10
128.8194
 20
-112.1913
 30
0.0
 10
128.8194
 20
-112.1913
 30
0.0
 10
128.8464
 20
-112.2153
 30
0.0
 10
128.8742
 20
-112.2389
 30
0.0
 10
128.9015
 20
-112.2627
 30
0.0
  0
SPLINE
  5
89
330
1F
100
AcDbEntity
  8
layer 1
 62
     7
100
AcDbSpline
210
0.0
220
0.0
230
1.0
 70
    11
 71
     3
 72
   124
 73
   120
 74
     0
 42
0.0000000001
 43
0.0000000001
 12
1.0
 22
0.0
 32
0.0
 13
1.0
 23
0.0
 33
0.0
 40
0.0
 40
0.0
 40
0.0
 40
0.0
 40
0.032258064516129
 40
0.032258064516129
 40
0.032258064516129
 40
0.032258064516129
 40
0.0645161290322581
 40
0.0645161290322581
 40
0.0645161290322581
 40
0.0645161290322581
 40
0.0967741935483871
 40
0.0967741935483871
 40
0.0967741935483871
 40
0.0967741935483871
 40
0.1290322580645161
 40
0.1290322580645161
 40
0.1290322580645161
 40
0.1290322580645161
 40
0.1612903225806452
 40
0.1612903225806452
 40
0.1612903225806452
 40
0.1612903225806452
 40
0.1935483870967742
 40
0.1935483870967742
 40
0.1935483870967742
 40
0.1935483870967742
 40
0.2258064516129032
 40
0.2258064516129032
 40
0.2258064516129032
 40
0.2258064516129032
 40
0.2580645161290323
 40
0.2580645161290323
 40
0.2580645161290323
 40
0.2580645161290323
 40
0.2903225806451613
 40
0.2903225806451613
 40
0.2903225806451613
 40
0.2903225806451613
 40
0.3225806451612903
 40
0.3225806451612903
 40
0.3225806451612903
 40
0.3225806451612903
 40
0.3548387096774194
 40
0.3548387096774194
 40
0.3548387096774194
 40
0.3548387096774194
 40
0.3870967741935484
 40
0.3870967741935484
 40
0.3870967741935484
 40
0.3870967741935484
 40
0.4193548387096774
 40
0.4193548387096774
 40
0.4193548387096774
 40
0.4193548387096774
 40
0.4516129032258064
 40
0.4516129032258064
 40
0.4516129032258064
 40
0.4516129032258064
 40
0.4838709677419355
 40
0.4838709677419355
 40
0.4838709677419355
 40
0.4838709677419355
 40
0.5161290322580645
 40
0.5161290322580645
 40
0.5161290322580645
 40
0.5161290322580645
 40
0.5483870967741935
 40
0.5483870967741935
 40
0.5483870967741935
 40
0.5483870967741935
 40
0.5806451612903226
 40
0.5806451612903226
 40
0.5806451612903226
 40
0.5806451612903226
 40
0.6129032258064516
 40
0.6129032258064516
 40
0.6129032258064516
 40
0.6129032258064516
 40
0.6451612903225806
 40
0.6451612903225806
 40
0.6451612903225806
 40
0.6451612903225806
 40
0.6774193548387096
 40
0.6774193548387096
 40
0.6774193548387096
 40
0.6774193548387096
 40
0.7096774193548387
 40
0.7096774193548387
 40
0.7096774193548387
 40
0.7096774193548387
 40
0.7419354838709677
 40
0.7419354838709677
 40
0.7419354838709677
 40
0.7419354838709677
 40
0.7741935483870968
 40
0.7741935483870968
 40
0.7741935483870968
 40
0.7741935483870968
 40
0.8064516129032258
 40
0.8064516129032258
 40
0.8064516129032258
 40
0.8064516129032258
 40
0.8387096774193549
 40
0.8387096774193549
 40
0.8387096774193549
 40
0.8387096774193549
 40
0.8709677419354839
 40
0.8709677419354839
 40
0.8709677419354839
 40
0.8709677419354839
 40
0.9032258064516129
 40
0.9032258064516129
 40
0.9032258064516129
 40
0.9032258064516129
 40
0.9354838709677419
 40
0.9354838709677419
 40
0.9354838709677419
 40
0.9354838709677419
 40
1.0
 40
1.0
 40
1.0
 40
1.0
 10
128.8194
 20
-89.2859
 30
0.0
 10
128.8194
 20
-89.2859
 30
0.0
 10
128.8194
 20
-54.4432
 30
0.0
 10
128.8194
 20
-54.4432
 30
0.0
 10
128.8194
 20
-54.4432
 30
0.0
 10
128.8194
 20
-54.4432
 30
0.0
 10
128.8537
 20
-54.4041
 30
0.0
 10
128.8537
 20
-54.4041
 30
0.0
 10
128.8537
 20
-54.4041
 30
0.0
 10
130.0005
 20
-53.0685
 30
0.0
 10
132.0143
 20
-52.0461
 30
0.0
 10
132.0143
 20
-52.0461
 30
0.0
 10
132.0143
 20
-52.0461
 30
0.0
 10
132.0143
 20
-52.0461
 30
0.0
 10
138.3718
 20
-47.725
 30
0.0
 10
138.3718
 20
-47.725
 30
0.0
 10
138.3718
 20
-47.725
 30
0.0
 10
138.3718
 20
-47.725
 30
0.0
 10
138.1969
 20
-48.7584
 30
0.0
 10
138.3418
 20
-50.1485
 30
0.0
 10
138.3418
 20
-50.1485
 30
0.0
 10
138.487
 20
-51.5384
 30
0.0
 10
141.7669
 20
-50.9128
 30
0.0
 10
141.7669
 20
-50.9128
 30
0.0
 10
141.7669
 20
-50.9128
 30
0.0
 10
141.7669
 20
-50.9128
 30
0.0
 10
141.3459
 20
-50.6556
 30
0.0
 10
140.5039
 20
-49.8453
 30
0.0
 10
140.5039
 20
-49.8453
 30
0.0
 10
139.6621
 20
-49.0346
 30
0.0
 10
140.1135
 20
-46.5259
 30
0.0
 10
140.1135
 20
-46.5259
 30
0.0
 10
140.1135
 20
-46.5259
 30
0.0
 10
140.1135
 20
-46.5259
 30
0.0
 10
141.3856
 20
-45.7376
 30
0.0
 10
143.3222
 20
-43.7409
 30
0.0
 10
143.3222
 20
-43.7409
 30
0.0
 10
146.3168
 20
-44.8585
 30
0.0
 10
150.7674
 20
-45.781
 30
0.0
 10
155.5733
 20
-46.0287
 30
0.0
 10
155.5733
 20
-46.0287
 30
0.0
 10
152.1662
 20
-46.5417
 30
0.0
 10
149.0376
 20
-48.2545
 30
0.0
 10
147.0468
 20
-49.714
 30
0.0
 10
147.0468
 20
-49.714
 30
0.0
 10
143.302
 20
-52.4595
 30
0.0
 10
141.1885
 20
-56.6122
 30
0.0
 10
141.1227
 20
-62.5003
 30
0.0
 10
141.1227
 20
-62.5003
 30
0.0
 10
141.1227
 20
-62.5003
 30
0.0
 10
139.0492
 20
-60.1791
 30
0.0
 10
135.7615
 20
-60.7951
 30
0.0
 10
135.7615
 20
-60.7951
 30
0.0
 10
132.4738
 20
-61.411
 30
0.0
 10
131.6048
 20
-61.9347
 30
0.0
 10
131.6048
 20
-61.9347
 30
0.0
 10
131.6048
 20
-61.9347
 30
0.0
 10
131.6048
 20
-61.9347
 30
0.0
 10
134.3119
 20
-63.2572
 30
0.0
 10
134.7993
 20
-66.11
 30
0.0
 10
134.7993
 20
-66.11
 30
0.0
 10
135.2867
 20
-68.9626
 30
0.0
 10
134.8832
 20
-72.0467
 30
0.0
 10
136.2043
 20
-74.1463
 30
0.0
 10
136.2043
 20
-74.1463
 30
0.0
 10
137.5254
 20
-76.2462
 30
0.0
 10
139.0982
 20
-75.7778
 30
0.0
 10
139.4226
 20
-76.2297
 30
0.0
 10
139.4226
 20
-76.2297
 30
0.0
 10
139.7474
 20
-76.6817
 30
0.0
 10
136.5256
 20
-78.303
 30
0.0
 10
137.3949
 20
-80.9504
 30
0.0
 10
137.3949
 20
-80.9504
 30
0.0
 10
138.2645
 20
-83.5977
 30
0.0
 10
141.6601
 20
-84.4296
 30
0.0
 10
145.3997
 20
-84.81
 30
0.0
 10
145.3997
 20
-84.81
 30
0.0
 10
148.1414
 20
-85.0888
 30
0.0
 10
153.2236
 20
-87.3383
 30
0.0
 10
156.6499
 20
-89.6803
 30
0.0
 10
156.6499
 20
-89.6803
 30
0.0
 10
155.7036
 20
-90.5713
 30
0.0
 10
155.0871
 20
-92.431
 30
0.0
 10
155.0871
 20
-92.431
 30
0.0
 10
155.0871
 20
-92.431
 30
0.0
 10
155.0871
 20
-92.431
 30
0.0
 10
155.6387
 20
-92.1449
 30
0.0
 10
157.083
 20
-91.7522
 30
0.0
 10
157.083
 20
-91.7522
 30
0.0
 10
157.833
 20
-91.5484
 30
0.0
 10
158.8989
 20
-91.988
 30
0.0
 10
159.7508
 20
-92.458
 30
0.0
 10
159.7508
 20
-92.458
 30
0.0
 10
160.4155
 20
-93.3442
 30
0.0
 10
161.0053
 20
-94.3129
 30
0.0
 10
161.4917
 20
-95.2963
 30
0.0
 10
161.4917
 20
-95.2963
 30
0.0
 10
161.7094
 20
-96.2254
 30
0.0
 10
162.0595
 20
-97.4723
 30
0.0
 10
162.6185
 20
-99.002
 30
0.0
 10
162.6185
 20
-99.002
 30
0.0
 10
162.6496
 20
-99.0867
 30
0.0
 10
162.6807
 20
-99.1696
 30
0.0
 10
162.7123
 20
-99.2521
 30
0.0
 10
162.7123
 20
-99.2521
 30
0.0
 10
162.7123
 20
-99.2521
 30
0.0
 10
162.8368
 20
-99.2511
 30
0.0
 10
162.8368
 20
-99.2511
 30
0.0
 10
162.8368
 20
-99.2511
 30
0.0
 10
163.0226
 20
-100.3636
 30
0.0
 10
162.9899
 20
-101.3561
 30
0.0
 10
162.6831
 20
-102.0984
 30
0.0
 10
162.6831
 20
-102.0984
 30
0.0
 10
162.5649
 20
-102.3843
 30
0.0
 10
160.4762
 20
-97.6014
 30
0.0
 10
154.0059
 20
-92.0992
 30
0.0
 10
154.0059
 20
-92.0992
 30
0.0
 10
145.3392
 20
-86.347
 30
0.0
 10
135.9041
 20
-86.087
 30
0.0
 10
128.8194
 20
-89.2859
 30
0.0
  0
SPLINE
  5
8A
330
1F
100
AcDbEntity
  8
layer 1
 62
     7
100
AcDbSpline
210
0.0
220
0.0
230
1.0
 70
    11
 71
     3
 72
    20
 73
    16
 74
     0
 42
0.0000000001
 43
0.0000000001
 12
1.0
 22
0.0
 32
0.0
 13
1.0
 23
0.0
 33
0.0
 40
0.0
 40
0.0
 40
0.0
 40
0.0
 40
0.2
 40
0.2
 40
0.2
 40
0.2
 40
0.4
 40
0.4
 40
0.4
 40
0.4
 40
0.6
 40
0.6
 40
0.6
 40
0.6
 40
1.0
 40
1.0
 40
1.0
 40
1.0
 10
128.8194
 20
-51.9503
 30
0.0
 10
128.8194
 20
-51.9503
 30
0.0
 10
128.8194
 20
-48.3939
 30
0.0
 10
128.8194
 20
-48.3939
 30
0.0
 10
128.8194
 20
-48.3939
 30
0.0
 10
130.9885
 20
-49.0162
 30
0.0
 10
133.0691
 20
-48.9916
 30
0.0
 10
133.3253
 20
-49.04
 30
0.0
 10
133.3253
 20
-49.04
 30
0.0
 10
133.7124
 20
-49.1128
 30
0.0
 10
132.6198
 20
-50.2584
 30
0.0
 10
131.2953
 20
-51.1101
 30
0.0
 10
131.2953
 20
-51.1101
 30
0.0
 10
130.5754
 20
-51.5729
 30
0.0
 10
129.6934
 20
-51.8127
 30
0.0
 10
128.8194
 20
-51.9503
 30
0.0
  0
SPLINE
  5
8B
330
1F
100
AcDbEntity
  8
layer 1
 62
     7
100
AcDbSpline
210
0.0
220
0.0
230
1.0
 70
    11
 71
     3
 72
    36
 73
    32
 74
     0
 42
0.0000000001
 43
0.0000000001
 12
1.0
 22
0.0
 32
0.0
 13
1.0
 23
0.0
 33
0.0
 40
0.0
 40
0.0
 40
0.0
 40
0.0
 40
0.1111111111111111
 40
0.1111111111111111
 40
0.1111111111111111
 40
0.1111111111111111
 40
0.2222222222222222
 40
0.2222222222222222
 40
0.2222222222222222
 40
0.2222222222222222
 40
0.3333333333333333
 40
0.3333333333333333
 40
0.3333333333333333
 40
0.3333333333333333
 40
0.4444444444444444
 40
0.4444444444444444
 40
0.4444444444444444
 40
0.4444444444444444
 40
0.5555555555555556
 40
0.5555555555555556
 40
0.5555555555555556
 40
0.5555555555555556
 40
0.6666666666666666
 40
0.6666666666666666
 40
0.6666666666666666
 40
0.6666666666666666
 40
0.7777777777777778
 40
0.7777777777777778
 40
0.7777777777777778
 40
0.7777777777777778
 40
1.0
 40
1.0
 40
1.0
 40
1.0
 10
128.8194
 20
-46.813
 30
0.0
 10
128.8194
 20
-46.813
 30
0.0
 10
128.8194
 20
-38.2133
 30
0.0
 10
128.8194
 20
-38.2133
 30
0.0
 10
128.8194
 20
-38.2133
 30
0.0
 10
136.2491
 20
-37.9405
 30
0.0
 10
144.642
 20
-35.2511
 30
0.0
 10
150.8535
 20
-28.5133
 30
0.0
 10
150.8535
 20
-28.5133
 30
0.0
 10
150.8535
 20
-28.5133
 30
0.0
 10
154.7041
 20
-29.0233
 30
0.0
 10
157.948
 20
-29.8947
 30
0.0
 10
157.948
 20
-29.8947
 30
0.0
 10
161.1923
 20
-30.7656
 30
0.0
 10
164.8413
 20
-33.9934
 30
0.0
 10
164.8413
 20
-33.9934
 30
0.0
 10
164.8413
 20
-33.9934
 30
0.0
 10
157.0628
 20
-34.6851
 30
0.0
 10
150.9695
 20
-35.069
 30
0.0
 10
143.1947
 20
-42.1566
 30
0.0
 10
143.1947
 20
-42.1566
 30
0.0
 10
143.1947
 20
-42.1566
 30
0.0
 10
143.1567
 20
-42.0918
 30
0.0
 10
143.1567
 20
-42.0918
 30
0.0
 10
143.1567
 20
-42.0918
 30
0.0
 10
140.5099
 20
-44.9335
 30
0.0
 10
136.6084
 20
-46.413
 30
0.0
 10
134.7208
 20
-47.0504
 30
0.0
 10
134.7208
 20
-47.0504
 30
0.0
 10
132.6172
 20
-47.7605
 30
0.0
 10
130.6696
 20
-47.4383
 30
0.0
 10
128.8194
 20
-46.813
 30
0.0
  0
SPLINE
  5
8C
330
1F
100
AcDbEntity
  8
layer 1
 62
     7
100
AcDbSpline
210
0.0
220
0.0
230
1.0
 70
    11
 71
     3
 72
    24
 73
    20
 74
     0
 42
0.0000000001
 43
0.0000000001
 12
1.0
 22
0.0
 32
0.0
 13
1.0
 23
0.0
 33
0.0
 40
0.0
 40
0.0
 40
0.0
 40
0.0
 40
0.1666666666666667
 40
0.1666666666666667
 40
0.1666666666666667
 40
0.1666666666666667
 40
0.3333333333333333
 40
0.3333333333333333
 40
0.3333333333333333
 40
0.3333333333333333
 40
0.5
 40
0.5
 40
0.5
 40
0.5
 40
0.6666666666666666
 40
0.6666666666666666
 40
0.6666666666666666
 40
0.6666666666666666
 40
1.0
 40
1.0
 40
1.0
 40
1.0
 10
128.8194
 20
-23.7653
 30
0.0
 10
128.8194
 20
-23.7653
 30
0.0
 10
128.8194
 20
-17.3446
 30
0.0
 10
128.8194
 20
-17.3446
 30
0.0
 10
128.8194
 20
-17.3446
 30
0.0
 10
133.3763
 20
-16.5678
 30
0.0
 10
139.6112
 20
-17.7437
 30
0.0
 10
141.2295
 20
-21.6958
 30
0.0
 10
141.2295
 20
-21.6958
 30
0.0
 10
141.2295
 20
-21.6958
 30
0.0
 10
139.631
 20
-22.0696
 30
0.0
 10
137.7033
 20
-23.0736
 30
0.0
 10
137.7033
 20
-23.0736
 30
0.0
 10
137.4899
 20
-23.1846
 30
0.0
 10
137.3348
 20
-23.332
 30
0.0
 10
137.2276
 20
-23.5061
 30
0.0
 10
137.2276
 20
-23.5061
 30
0.0
 10
134.3621
 20
-23.3228
 30
0.0
 10
131.5923
 20
-23.3998
 30
0.0
 10
128.8194
 20
-23.7653
 30
0.0
  0
SPLINE
  5
8D
330
1F
100
AcDbEntity
  8
layer 1
 62
     7
100
AcDbSpline
210
0.0
220
0.0
230
1.0
 70
    11
 71
     3
 72
    16
 73
    12
 74
     0
 42
0.0000000001
 43
0.0000000001
 12
1.0
 22
0.0
 32
0.0
 13
1.0
 23
0.0
 33
0.0
 40
0.0
 40
0.0
 40
0.0
 40
0.0
 40
0.25
 40
0.25
 40
0.25
 40
0.25
 40
0.5
 40
0.5
 40
0.5
 40
0.5
 40
1.0
 40
1.0
 40
1.0
 40
1.0
 10
128.8194
 20
-15.9951
 30
0.0
 10
128.8194
 20
-15.9951
 30
0.0
 10
128.8194
 20
-14.2597
 30
0.0
 10
128.8194
 20
-14.2597
 30
0.0
 10
128.8194
 20
-14.2597
 30
0.0
 10
130.2252
 20
-15.0387
 30
0.0
 10
131.255
 20
-15.8365
 30
0.0
 10
131.255
 20
-15.8365
 30
0.0
 10
131.255
 20
-15.8365
 30
0.0
 10
131.255
 20
-15.8365
 30
0.0
 10
130.2556
 20
-15.8638
 30
0.0
 10
128.8194
 20
-15.9951
 30
0.0
  0
SPLINE
  5
8E
330
1F
100
AcDbEntity
  8
layer 1
 62
     7
100
AcDbSpline
210
0.0
220
0.0
230
1.0
 70
    11
 71
     3
 72
    32
 73
    28
 74
     0
 42
0.0000000001
 43
0.0000000001
 12
1.0
 22
0.0
 32
0.0
 13
1.0
 23
0.0
 33
0.0
 40
0.0
 40
0.0
 40
0.0
 40
0.0
 40
0.125
 40
0.125
 40
0.125
 40
0.125
 40
0.25
 40
0.25
 40
0.25
 40
0.25
 40
0.375
 40
0.375
 40
0.375
 40
0.375
 40
0.5
 40
0.5
 40
0.5
 40
0.5
 40
0.625
 40
0.625
 40
0.625
 40
0.625
 40
0.75
 40
0.75
 40
0.75
 40
0.75
 40
1.0
 40
1.0
 40
1.0
 40
1.0
 10
128.8194
 20
-10.412
 30
0.0
 10
128.8194
 20
-10.412
 30
0.0
 10
128.8194
 20
7.1613
 30
0.0
 10
128.8194
 20
7.1613
 30
0.0
 10
128.8194
 20
7.1613
 30
0.0
 10
129.5155
 20
7.316
 30
0.0
 10
130.2907
 20
7.5387
 30
0.0
 10
131.1517
 20
7.8417
 30
0.0
 10
131.1517
 20
7.8417
 30
0.0
 10
134.4188
 20
8.9913
 30
0.0
 10
138.2972
 20
6.2269
 30
0.0
 10
139.5219
 20
2.9878
 30
0.0
 10
139.5219
 20
2.9878
 30
0.0
 10
136.082
 20
1.5505
 30
0.0
 10
136.1714
 20
-1.082
 30
0.0
 10
135.0726
 20
-4.4185
 30
0.0
 10
135.0726
 20
-4.4185
 30
0.0
 10
133.4598
 20
-9.3158
 30
0.0
 10
136.2535
 20
-15.2546
 30
0.0
 10
136.3743
 20
-15.8075
 30
0.0
 10
136.3743
 20
-15.8075
 30
0.0
 10
136.4944
 20
-16.3606
 30
0.0
 10
134.1973
 20
-15.5892
 30
0.0
 10
132.1896
 20
-14.3404
 30
0.0
 10
132.1896
 20
-14.3404
 30
0.0
 10
130.7093
 20
-13.4191
 30
0.0
 10
129.6484
 20
-11.8638
 30
0.0
 10
128.8194
 20
-10.412
 30
0.0
  0
SPLINE
  5
8F
330
1F
100
AcDbEntity
  8
layer 1
 62
     7
100
AcDbSpline
210
0.0
220
0.0
230
1.0
 70
    11
 71
     3
 72
    16
 73
    12
 74
     0
 42
0.0000000001
 43
0.0000000001
 12
1.0
 22
0.0
 32
0.0
 13
1.0
 23
0.0
 33
0.0
 40
0.0
 40
0.0
 40
0.0
 40
0.0
 40
0.25
 40
0.25
 40
0.25
 40
0.25
 40
0.5
 40
0.5
 40
0.5
 40
0.5
 40
1.0
 40
1.0
 40
1.0
 40
1.0
 10
128.8194
 20
12.2516
 30
0.0
 10
128.8194
 20
12.2516
 30
0.0
 10
128.8194
 20
15.0039
 30
0.0
 10
128.8194
 20
15.0039
 30
0.0
 10
128.8194
 20
15.0039
 30
0.0
 10
131.4367
 20
14.151
 30
0.0
 10
133.5581
 20
13.2025
 30
0.0
 10
133.8151
 20
13.0048
 30
0.0
 10
133.8151
 20
13.0048
 30
0.0
 10
133.8151
 20
13.0048
 30
0.0
 10
131.229
 20
13.2509
 30
0.0
 10
128.8194
 20
12.2516
 30
0.0
  0
SPLINE
  5
90
330
1F
100
AcDbEntity
  8
layer 1
 62
     7
100
AcDbSpline
210
0.0
220
0.0
230
1.0
 70
    11
 71
     3
 72
    32
 73
    28
 74
     0
 42
0.0000000001
 43
0.0000000001
 12
1.0
 22
0.0
 32
0.0
 13
1.0
 23
0.0
 33
0.0
 40
0.0
 40
0.0
 40
0.0
 40
0.0
 40
0.125
 40
0.125
 40
0.125
 40
0.125
 40
0.25
 40
0.25
 40
0.25
 40
0.25
 40
0.375
 40
0.375
 40
0.375
 40
0.375
 40
0.5
 40
0.5
 40
0.5
 40
0.5
 40
0.625
 40
0.625
 40
0.625
 40
0.625
 40
0.75
 40
0.75
 40
0.75
 40
0.75
 40
1.0
 40
1.0
 40
1.0
 40
1.0
 10
128.8194
 20
20.9602
 30
0.0
 10
128.8194
 20
20.9602
 30
0.0
 10
128.8194
 20
31.9714
 30
0.0
 10
128.8194
 20
31.9714
 30
0.0
 10
128.8194
 20
31.9714
 30
0.0
 10
129.1143
 20
31.5157
 30
0.0
 10
129.4134
 20
31.1241
 30
0.0
 10
129.7045
 20
30.825
 30
0.0
 10
129.7045
 20
30.825
 30
0.0
 10
131.2518
 20
29.2364
 30
0.0
 10
132.2442
 20
26.6711
 30
0.0
 10
132.2442
 20
26.6711
 30
0.0
 10
132.2442
 20
26.6711
 30
0.0
 10
132.2442
 20
26.6711
 30
0.0
 10
136.8026
 20
18.3877
 30
0.0
 10
136.8026
 20
18.3877
 30
0.0
 10
136.8026
 20
18.3877
 30
0.0
 10
136.8026
 20
18.3877
 30
0.0
 10
135.4849
 20
18.7707
 30
0.0
 10
133.648
 20
18.8333
 30
0.0
 10
133.648
 20
18.8333
 30
0.0
 10
133.222
 20
18.848
 30
0.0
 10
132.9087
 20
18.644
 30
0.0
 10
132.6788
 20
18.3217
 30
0.0
 10
132.6788
 20
18.3217
 30
0.0
 10
131.0837
 20
19.5215
 30
0.0
 10
129.8276
 20
20.3474
 30
0.0
 10
128.8194
 20
20.9602
 30
0.0
  0
SPLINE
  5
91
330
1F
100
AcDbEntity
  8
layer 1
 62
     7
100
AcDbSpline
210
0.0
220
0.0
230
1.0
 70
    11
 71
     3
 72
    28
 73
    24
 74
     0
 42
0.0000000001
 43
0.0000000001
 12
1.0
 22
0.0
 32
0.0
 13
1.0
 23
0.0
 33
0.0
 40
0.0
 40
0.0
 40
0.0
 40
0.0
 40
0.1428571428571428
 40
0.1428571428571428
 40
0.1428571428571428
 40
0.1428571428571428
 40
0.2857142857142857
 40
0.2857142857142857
 40
0.2857142857142857
 40
0.2857142857142857
 40
0.4285714285714285
 40
0.4285714285714285
 40
0.4285714285714285
 40
0.4285714285714285
 40
0.5714285714285714
 40
0.5714285714285714
 40
0.5714285714285714
 40
0.5714285714285714
 40
0.7142857142857143
 40
0.7142857142857143
 40
0.7142857142857143
 40
0.7142857142857143
 40
1.0
 40
1.0
 40
1.0
 40
1.0
 10
128.8194
 20
45.6451
 30
0.0
 10
128.8194
 20
45.6451
 30
0.0
 10
128.8194
 20
51.064
 30
0.0
 10
128.8194
 20
51.064
 30
0.0
 10
128.8194
 20
51.064
 30
0.0
 10
129.8873
 20
51.009
 30
0.0
 10
130.9421
 20
50.8671
 30
0.0
 10
131.9314
 20
50.6045
 30
0.0
 10
131.9314
 20
50.6045
 30
0.0
 10
136.2739
 20
49.4522
 30
0.0
 10
136.6346
 20
44.5352
 30
0.0
 10
135.4613
 20
43.0061
 30
0.0
 10
135.4613
 20
43.0061
 30
0.0
 10
134.2875
 20
41.4769
 30
0.0
 10
129.6041
 20
42.9898
 30
0.0
 10
129.6041
 20
42.9898
 30
0.0
 10
129.6041
 20
42.9898
 30
0.0
 10
129.6041
 20
42.9898
 30
0.0
 10
129.5641
 20
42.9311
 30
0.0
 10
129.5141
 20
42.823
 30
0.0
 10
129.5141
 20
42.823
 30
0.0
 10
129.2127
 20
43.8227
 30
0.0
 10
128.9852
 20
44.8108
 30
0.0
 10
128.8194
 20
45.6451
 30
0.0
  0
SPLINE
  5
92
330
1F
100
AcDbEntity
  8
layer 1
 62
     7
100
AcDbSpline
210
0.0
220
0.0
230
1.0
 70
    11
 71
     3
 72
    16
 73
    12
 74
     0
 42
0.0000000001
 43
0.0000000001
 12
1.0
 22
0.0
 32
0.0
 13
1.0
 23
0.0
 33
0.0
 40
0.0
 40
0.0
 40
0.0
 40
0.0
 40
0.25
 40
0.25
 40
0.25
 40
0.25
 40
0.5
 40
0.5
 40
0.5
 40
0.5
 40
1.0
 40
1.0
 40
1.0
 40
1.0
 10
128.8194
 20
52.4067
 30
0.0
 10
128.8194
 20
52.4067
 30
0.0
 10
128.8194
 20
52.6415
 30
0.0
 10
128.8194
 20
52.6415
 30
0.0
 10
128.8194
 20
52.6415
 30
0.0
 10
128.9319
 20
52.5548
 30
0.0
 10
129.0469
 20
52.47
 30
0.0
 10
129.1661
 20
52.3873
 30
0.0
 10
129.1661
 20
52.3873
 30
0.0
 10
129.1661
 20
52.3873
 30
0.0
 10
128.8194
 20
52.4067
 30
0.0
 10
128.8194
 20
52.4067
 30
0.0
  0
SPLINE
  5
93
330
1F
100
AcDbEntity
  8
layer 1
 62
     7
100
AcDbSpline
210
0.0
220
0.0
230
1.0
 70
    11
 71
     3
 72
    92
 73
    88
 74
     0
 42
0.0000000001
 43
0.0000000001
 12
1.0
 22
0.0
 32
0.0
 13
1.0
 23
0.0
 33
0.0
 40
0.0
 40
0.0
 40
0.0
 40
0.0
 40
0.0434782608695652
 40
0.0434782608695652
 40
0.0434782608695652
 40
0.0434782608695652
 40
0.0869565217391304
 40
0.0869565217391304
 40
0.0869565217391304
 40
0.0869565217391304
 40
0.1304347826086956
 40
0.1304347826086956
 40
0.1304347826086956
 40
0.1304347826086956
 40
0.1739130434782609
 40
0.1739130434782609
 40
0.1739130434782609
 40
0.1739130434782609
 40
0.2173913043478261
 40
0.2173913043478261
 40
0.2173913043478261
 40
0.2173913043478261
 40
0.2608695652173913
 40
0.2608695652173913
 40
0.2608695652173913
 40
0.2608695652173913
 40
0.3043478260869565
 40
0.3043478260869565
 40
0.3043478260869565
 40
0.3043478260869565
 40
0.3478260869565217
 40
0.3478260869565217
 40
0.3478260869565217
 40
0.3478260869565217
 40
0.391304347826087
 40
0.391304347826087
 40
0.391304347826087
 40
0.391304347826087
 40
0.4347826086956522
 40
0.4347826086956522
 40
0.4347826086956522
 40
0.4347826086956522
 40
0.4782608695652174
 40
0.4782608695652174
 40
0.4782608695652174
 40
0.4782608695652174
 40
0.5217391304347826
 40
0.5217391304347826
 40
0.5217391304347826
 40
0.5217391304347826
 40
0.5652173913043478
 40
0.5652173913043478
 40
0.5652173913043478
 40
0.5652173913043478
 40
0.6086956521739131
 40
0.6086956521739131
 40
0.6086956521739131
 40
0.6086956521739131
 40
0.6521739130434783
 40
0.6521739130434783
 40
0.6521739130434783
 40
0.6521739130434783
 40
0.6956521739130435
 40
0.6956521739130435
 40
0.6956521739130435
 40
0.6956521739130435
 40
0.7391304347826086
 40
0.7391304347826086
 40
0.7391304347826086
 40
0.7391304347826086
 40
0.782608695652174
 40
0.782608695652174
 40
0.782608695652174
 40
0.782608695652174
 40
0.8260869565217391
 40
0.8260869565217391
 40
0.8260869565217391
 40
0.8260869565217391
 40
0.8695652173913043
 40
0.8695652173913043
 40
0.8695652173913043
 40
0.8695652173913043
 40
0.9130434782608695
 40
0.9130434782608695
 40
0.9130434782608695
 40
0.9130434782608695
 40
1.0
 40
1.0
 40
1.0
 40
1.0
 10
128.8194
 20
54.9686
 30
0.0
 10
128.8194
 20
54.9686
 30
0.0
 10
128.8194
 20
64.2147
 30
0.0
 10
128.8194
 20
64.2147
 30
0.0
 10
128.8194
 20
64.2147
 30
0.0
 10
129.1318
 20
64.7109
 30
0.0
 10
129.4715
 20
65.1835
 30
0.0
 10
129.8237
 20
65.6205
 30
0.0
 10
129.8237
 20
65.6205
 30
0.0
 10
130.4247
 20
66.2008
 30
0.0
 10
131.1644
 20
66.9381
 30
0.0
 10
131.9542
 20
67.7789
 30
0.0
 10
131.9542
 20
67.7789
 30
0.0
 10
138.6197
 20
73.2826
 30
0.0
 10
147.63
 20
70.4026
 30
0.0
 10
152.9061
 20
64.6472
 30
0.0
 10
152.9061
 20
64.6472
 30
0.0
 10
160.1202
 20
56.7775
 30
0.0
 10
157.6831
 20
46.0225
 30
0.0
 10
152.4302
 20
34.7007
 30
0.0
 10
152.4302
 20
34.7007
 30
0.0
 10
144.2682
 20
38.9741
 30
0.0
 10
143.424
 20
36.1776
 30
0.0
 10
140.0998
 20
33.3338
 30
0.0
 10
140.0998
 20
33.3338
 30
0.0
 10
136.7481
 20
30.4659
 30
0.0
 10
136.1024
 20
25.0524
 30
0.0
 10
135.9417
 20
24.6054
 30
0.0
 10
135.9417
 20
24.6054
 30
0.0
 10
135.7811
 20
24.158
 30
0.0
 10
134.4723
 20
25.6497
 30
0.0
 10
133.5863
 20
27.3672
 30
0.0
 10
133.5863
 20
27.3672
 30
0.0
 10
132.7001
 20
29.0847
 30
0.0
 10
132.89
 20
31.3263
 30
0.0
 10
132.9985
 20
32.9606
 30
0.0
 10
132.9985
 20
32.9606
 30
0.0
 10
133.107
 20
34.5948
 30
0.0
 10
133.4455
 20
35.9181
 30
0.0
 10
131.2975
 20
38.8774
 30
0.0
 10
131.2975
 20
38.8774
 30
0.0
 10
131.2556
 20
38.9349
 30
0.0
 10
131.2144
 20
38.9942
 30
0.0
 10
131.1735
 20
39.0541
 30
0.0
 10
131.1735
 20
39.0541
 30
0.0
 10
131.4121
 20
38.8807
 30
0.0
 10
131.6794
 20
38.7056
 30
0.0
 10
131.9788
 20
38.5303
 30
0.0
 10
131.9788
 20
38.5303
 30
0.0
 10
135.8478
 20
36.2657
 30
0.0
 10
138.9883
 20
37.5715
 30
0.0
 10
138.7513
 20
43.3928
 30
0.0
 10
138.7513
 20
43.3928
 30
0.0
 10
138.5144
 20
49.2138
 30
0.0
 10
134.5072
 20
50.803
 30
0.0
 10
134.5072
 20
50.803
 30
0.0
 10
134.5072
 20
50.803
 30
0.0
 10
134.5072
 20
50.803
 30
0.0
 10
134.3248
 20
50.8131
 30
0.0
 10
138.5062
 20
52.1753
 30
0.0
 10
138.5062
 20
52.1753
 30
0.0
 10
142.6875
 20
53.5374
 30
0.0
 10
143.4442
 20
58.7338
 30
0.0
 10
141.316
 20
61.4714
 30
0.0
 10
141.316
 20
61.4714
 30
0.0
 10
139.1878
 20
64.2086
 30
0.0
 10
135.848
 20
65.3054
 30
0.0
 10
133.7509
 20
61.8914
 30
0.0
 10
133.7509
 20
61.8914
 30
0.0
 10
131.6538
 20
58.4776
 30
0.0
 10
132.8062
 20
57.5027
 30
0.0
 10
135.1287
 20
56.6903
 30
0.0
 10
135.1287
 20
56.6903
 30
0.0
 10
137.4514
 20
55.878
 30
0.0
 10
139.2043
 20
58.286
 30
0.0
 10
139.6161
 20
58.9466
 30
0.0
 10
139.6161
 20
58.9466
 30
0.0
 10
140.028
 20
59.6069
 30
0.0
 10
141.3682
 20
57.8244
 30
0.0
 10
140.6269
 20
55.9294
 30
0.0
 10
140.6269
 20
55.9294
 30
0.0
 10
139.8856
 20
54.0346
 30
0.0
 10
135.3778
 20
52.8045
 30
0.0
 10
133.9341
 20
52.657
 30
0.0
 10
133.9341
 20
52.657
 30
0.0
 10
132.8357
 20
52.5447
 30
0.0
 10
130.5598
 20
52.7623
 30
0.0
 10
128.8194
 20
54.9686
 30
0.0
  0
SPLINE
  5
94
330
1F
100
AcDbEntity
  8
layer 1
 62
     7
100
AcDbSpline
210
0.0
220
0.0
230
1.0
 70
    11
 71
     3
 72
    20
 73
    16
 74
     0
 42
0.0000000001
 43
0.0000000001
 12
1.0
 22
0.0
 32
0.0
 13
1.0
 23
0.0
 33
0.0
 40
0.0
 40
0.0
 40
0.0
 40
0.0
 40
0.2
 40
0.2
 40
0.2
 40
0.2
 40
0.4
 40
0.4
 40
0.4
 40
0.4
 40
0.6
 40
0.6
 40
0.6
 40
0.6
 40
1.0
 40
1.0
 40
1.0
 40
1.0
 10
128.8194
 20
66.3178
 30
0.0
 10
128.8194
 20
66.3178
 30
0.0
 10
128.8194
 20
74.1151
 30
0.0
 10
128.8194
 20
74.1151
 30
0.0
 10
128.8194
 20
74.1151
 30
0.0
 10
129.0764
 20
73.5097
 30
0.0
 10
129.3632
 20
72.9568
 30
0.0
 10
129.6771
 20
72.4684
 30
0.0
 10
129.6771
 20
72.4684
 30
0.0
 10
130.1836
 20
71.6801
 30
0.0
 10
129.7414
 20
68.9171
 30
0.0
 10
129.1972
 20
66.776
 30
0.0
 10
129.1972
 20
66.776
 30
0.0
 10
129.0701
 20
66.6269
 30
0.0
 10
128.9442
 20
66.4744
 30
0.0
 10
128.8194
 20
66.3178
 30
0.0
  0
SPLINE
  5
95
330
1F
100
AcDbEntity
  8
layer 1
 62
     7
100
AcDbSpline
210
0.0
220
0.0
230
1.0
 70
    11
 71
     3
 72
    24
 73
    20
 74
     0
 42
0.0000000001
 43
0.0000000001
 12
1.0
 22
0.0
 32
0.0
 13
1.0
 23
0.0
 33
0.0
 40
0.0
 40
0.0
 40
0.0
 40
0.0
 40
0.1666666666666667
 40
0.1666666666666667
 40
0.1666666666666667
 40
0.1666666666666667
 40
0.3333333333333333
 40
0.3333333333333333
 40
0.3333333333333333
 40
0.3333333333333333
 40
0.5
 40
0.5
 40
0.5
 40
0.5
 40
0.6666666666666666
 40
0.6666666666666666
 40
0.6666666666666666
 40
0.6666666666666666
 40
1.0
 40
1.0
 40
1.0
 40
1.0
 10
128.8194
 20
90.0247
 30
0.0
 10
128.8194
 20
90.0247
 30
0.0
 10
128.8194
 20
100.5154
 30
0.0
 10
128.8194
 20
100.5154
 30
0.0
 10
128.8194
 20
100.5154
 30
0.0
 10
131.8025
 20
104.6613
 30
0.0
 10
132.3491
 20
108.5733
 30
0.0
 10
133.0917
 20
113.2327
 30
0.0
 10
133.0917
 20
113.2327
 30
0.0
 10
133.0917
 20
113.2327
 30
0.0
 10
135.7783
 20
110.1205
 30
0.0
 10
136.3919
 20
107.4523
 30
0.0
 10
136.3919
 20
107.4523
 30
0.0
 10
137.0059
 20
104.7839
 30
0.0
 10
137.2686
 20
101.6428
 30
0.0
 10
137.2686
 20
101.6428
 30
0.0
 10
137.2686
 20
101.6428
 30
0.0
 10
132.9428
 20
98.4148
 30
0.0
 10
130.2677
 20
94.2575
 30
0.0
 10
128.8194
 20
90.0247
 30
0.0
  0
SPLINE
  5
96
330
1F
100
AcDbEntity
  8
layer 1
 62
     7
100
AcDbSpline
210
0.0
220
0.0
230
1.0
 70
    11
 71
     3
 72
    28
 73
    24
 74
     0
 42
0.0000000001
 43
0.0000000001
 12
1.0
 22
0.0
 32
0.0
 13
1.0
 23
0.0
 33
0.0
 40
0.0
 40
0.0
 40
0.0
 40
0.0
 40
0.1428571428571428
 40
0.1428571428571428
 40
0.1428571428571428
 40
0.1428571428571428
 40
0.2857142857142857
 40
0.2857142857142857
 40
0.2857142857142857
 40
0.2857142857142857
 40
0.4285714285714285
 40
0.4285714285714285
 40
0.4285714285714285
 40
0.4285714285714285
 40
0.5714285714285714
 40
0.5714285714285714
 40
0.5714285714285714
 40
0.5714285714285714
 40
0.7142857142857143
 40
0.7142857142857143
 40
0.7142857142857143
 40
0.7142857142857143
 40
1.0
 40
1.0
 40
1.0
 40
1.0
 10
140.077
 20
-2.5752
 30
0.0
 10
141.2646
 20
-13.6357
 30
0.0
 10
148.6073
 20
-21.6787
 30
0.0
 10
155.4525
 20
-27.2253
 30
0.0
 10
155.4525
 20
-27.2253
 30
0.0
 10
153.9688
 20
-26.7815
 30
0.0
 10
152.5343
 20
-26.373
 30
0.0
 10
151.1408
 20
-26.001
 30
0.0
 10
151.1408
 20
-26.001
 30
0.0
 10
151.1408
 20
-26.001
 30
0.0
 10
152.1841
 20
-24.713
 30
0.0
 10
152.1841
 20
-24.713
 30
0.0
 10
152.1841
 20
-24.713
 30
0.0
 10
146.5217
 20
-22.8832
 30
0.0
 10
142.0979
 20
-18.6018
 30
0.0
 10
140.0706
 20
-16.4849
 30
0.0
 10
140.0706
 20
-16.4849
 30
0.0
 10
137.2113
 20
-13.4971
 30
0.0
 10
136.8932
 20
-9.8707
 30
0.0
 10
136.9055
 20
-6.3155
 30
0.0
 10
136.9055
 20
-6.3155
 30
0.0
 10
136.9105
 20
-4.9265
 30
0.0
 10
138.3091
 20
-3.7655
 30
0.0
 10
140.077
 20
-2.5752
 30
0.0
  0
SPLINE
  5
97
330
1F
100
AcDbEntity
  8
layer 1
 62
     7
100
AcDbSpline
210
0.0
220
0.0
230
1.0
 70
    11
 71
     3
 72
    16
 73
    12
 74
     0
 42
0.0000000001
 43
0.0000000001
 12
1.0
 22
0.0
 32
0.0
 13
1.0
 23
0.0
 33
0.0
 40
0.0
 40
0.0
 40
0.0
 40
0.0
 40
0.25
 40
0.25
 40
0.25
 40
0.25
 40
0.5
 40
0.5
 40
0.5
 40
0.5
 40
1.0
 40
1.0
 40
1.0
 40
1.0
 10
148.0722
 20
-25.2268
 30
0.0
 10
145.8853
 20
-24.7104
 30
0.0
 10
143.7968
 20
-24.2979
 30
0.0
 10
141.7747
 20
-23.9969
 30
0.0
 10
141.7747
 20
-23.9969
 30
0.0
 10
142.8995
 20
-23.5348
 30
0.0
 10
143.9846
 20
-23.2923
 30
0.0
 10
143.9846
 20
-23.2923
 30
0.0
 10
143.9846
 20
-23.2923
 30
0.0
 10
143.9846
 20
-23.2923
 30
0.0
 10
145.2982
 20
-24.1401
 30
0.0
 10
148.0722
 20
-25.2268
 30
0.0
  0
SPLINE
  5
98
330
1F
100
AcDbEntity
  8
layer 1
 62
     7
100
AcDbSpline
210
0.0
220
0.0
230
1.0
 70
    11
 71
     3
 72
    64
 73
    60
 74
     0
 42
0.0000000001
 43
0.0000000001
 12
1.0
 22
0.0
 32
0.0
 13
1.0
 23
0.0
 33
0.0
 40
0.0
 40
0.0
 40
0.0
 40
0.0
 40
0.0625
 40
0.0625
 40
0.0625
 40
0.0625
 40
0.125
 40
0.125
 40
0.125
 40
0.125
 40
0.1875
 40
0.1875
 40
0.1875
 40
0.1875
 40
0.25
 40
0.25
 40
0.25
 40
0.25
 40
0.3125
 40
0.3125
 40
0.3125
 40
0.3125
 40
0.375
 40
0.375
 40
0.375
 40
0.375
 40
0.4375
 40
0.4375
 40
0.4375
 40
0.4375
 40
0.5
 40
0.5
 40
0.5
 40
0.5
 40
0.5625
 40
0.5625
 40
0.5625
 40
0.5625
 40
0.625
 40
0.625
 40
0.625
 40
0.625
 40
0.6875
 40
0.6875
 40
0.6875
 40
0.6875
 40
0.75
 40
0.75
 40
0.75
 40
0.75
 40
0.8125
 40
0.8125
 40
0.8125
 40
0.8125
 40
0.875
 40
0.875
 40
0.875
 40
0.875
 40
1.0
 40
1.0
 40
1.0
 40
1.0
 10
187.1872
 20
-56.1869
 30
0.0
 10
187.1248
 20
-56.1496
 30
0.0
 10
187.0617
 20
-56.1139
 30
0.0
 10
186.9978
 20
-56.0802
 30
0.0
 10
186.9978
 20
-56.0802
 30
0.0
 10
185.1768
 20
-55.1198
 30
0.0
 10
183.7318
 20
-56.7431
 30
0.0
 10
184.2299
 20
-58.0501
 30
0.0
 10
184.2299
 20
-58.0501
 30
0.0
 10
185.0697
 20
-60.2547
 30
0.0
 10
187.872
 20
-58.9284
 30
0.0
 10
186.9594
 20
-57.5663
 30
0.0
 10
186.9594
 20
-57.5663
 30
0.0
 10
186.9594
 20
-57.5663
 30
0.0
 10
186.3068
 20
-57.1726
 30
0.0
 10
186.1505
 20
-57.72
 30
0.0
 10
186.1505
 20
-57.72
 30
0.0
 10
186.1017
 20
-57.8909
 30
0.0
 10
186.0079
 20
-58.0083
 30
0.0
 10
185.9026
 20
-58.0878
 30
0.0
 10
185.9026
 20
-58.0878
 30
0.0
 10
185.6208
 20
-58.2994
 30
0.0
 10
185.0215
 20
-58.1794
 30
0.0
 10
185.0158
 20
-57.7222
 30
0.0
 10
185.0158
 20
-57.7222
 30
0.0
 10
184.9849
 20
-55.2999
 30
0.0
 10
188.643
 20
-56.8996
 30
0.0
 10
189.1802
 20
-59.4409
 30
0.0
 10
189.1802
 20
-59.4409
 30
0.0
 10
189.3097
 20
-60.0536
 30
0.0
 10
189.5379
 20
-60.7977
 30
0.0
 10
189.7626
 20
-61.5986
 30
0.0
 10
189.7626
 20
-61.5986
 30
0.0
 10
190.2268
 20
-63.2523
 30
0.0
 10
191.0066
 20
-64.8248
 30
0.0
 10
191.0066
 20
-64.8248
 30
0.0
 10
191.0066
 20
-64.8248
 30
0.0
 10
191.0066
 20
-64.8248
 30
0.0
 10
189.3265
 20
-64.1123
 30
0.0
 10
188.3245
 20
-63.101
 30
0.0
 10
188.3245
 20
-63.101
 30
0.0
 10
187.3227
 20
-62.0896
 30
0.0
 10
184.5763
 20
-60.8343
 30
0.0
 10
182.8838
 20
-60.6178
 30
0.0
 10
182.8838
 20
-60.6178
 30
0.0
 10
182.1751
 20
-60.5272
 30
0.0
 10
181.0158
 20
-60.69
 30
0.0
 10
179.9079
 20
-60.9101
 30
0.0
 10
179.9079
 20
-60.9101
 30
0.0
 10
179.9838
 20
-57.3275
 30
0.0
 10
178.4093
 20
-53.433
 30
0.0
 10
178.842
 20
-50.0186
 30
0.0
 10
178.842
 20
-50.0186
 30
0.0
 10
179.3046
 20
-46.366
 30
0.0
 10
182.5679
 20
-46.1596
 30
0.0
 10
182.5679
 20
-46.1596
 30
0.0
 10
182.5679
 20
-46.1596
 30
0.0
 10
182.5679
 20
-46.1596
 30
0.0
 10
184.543
 20
-52.5129
 30
0.0
 10
187.1872
 20
-56.1869
 30
0.0
  0
SPLINE
  5
99
330
1F
100
AcDbEntity
  8
layer 1
 62
     7
100
AcDbSpline
210
0.0
220
0.0
230
1.0
 70
    11
 71
     3
 72
    28
 73
    24
 74
     0
 42
0.0000000001
 43
0.0000000001
 12
1.0
 22
0.0
 32
0.0
 13
1.0
 23
0.0
 33
0.0
 40
0.0
 40
0.0
 40
0.0
 40
0.0
 40
0.1428571428571428
 40
0.1428571428571428
 40
0.1428571428571428
 40
0.1428571428571428
 40
0.2857142857142857
 40
0.2857142857142857
 40
0.2857142857142857
 40
0.2857142857142857
 40
0.4285714285714285
 40
0.4285714285714285
 40
0.4285714285714285
 40
0.4285714285714285
 40
0.5714285714285714
 40
0.5714285714285714
 40
0.5714285714285714
 40
0.5714285714285714
 40
0.7142857142857143
 40
0.7142857142857143
 40
0.7142857142857143
 40
0.7142857142857143
 40
1.0
 40
1.0
 40
1.0
 40
1.0
 10
167.0559
 20
-51.0778
 30
0.0
 10
166.645
 20
-50.5195
 30
0.0
 10
166.1669
 20
-49.9516
 30
0.0
 10
165.6131
 20
-49.3751
 30
0.0
 10
165.6131
 20
-49.3751
 30
0.0
 10
163.7692
 20
-47.4571
 30
0.0
 10
161.7283
 20
-46.4539
 30
0.0
 10
159.6671
 20
-46.0676
 30
0.0
 10
159.6671
 20
-46.0676
 30
0.0
 10
160.3318
 20
-46.045
 30
0.0
 10
160.9975
 20
-46.0081
 30
0.0
 10
161.6613
 20
-45.9548
 30
0.0
 10
161.6613
 20
-45.9548
 30
0.0
 10
171.1023
 20
-45.196
 30
0.0
 10
180.12
 20
-42.0192
 30
0.0
 10
180.3364
 20
-42.1455
 30
0.0
 10
180.3364
 20
-42.1455
 30
0.0
 10
180.3364
 20
-42.1455
 30
0.0
 10
181.1663
 20
-42.63
 30
0.0
 10
181.1663
 20
-42.63
 30
0.0
 10
181.1663
 20
-42.63
 30
0.0
 10
178.6702
 20
-47.6927
 30
0.0
 10
172.9103
 20
-50.5128
 30
0.0
 10
167.0559
 20
-51.0778
 30
0.0
  0
SPLINE
  5
9A
330
1F
100
AcDbEntity
  8
layer 1
 62
     7
100
AcDbSpline
210
0.0
220
0.0
230
1.0
 70
    11
 71
     3
 72
    32
 73
    28
 74
     0
 42
0.0000000001
 43
0.0000000001
 12
1.0
 22
0.0
 32
0.0
 13
1.0
 23
0.0
 33
0.0
 40
0.0
 40
0.0
 40
0.0
 40
0.0
 40
0.125
 40
0.125
 40
0.125
 40
0.125
 40
0.25
 40
0.25
 40
0.25
 40
0.25
 40
0.375
 40
0.375
 40
0.375
 40
0.375
 40
0.5
 40
0.5
 40
0.5
 40
0.5
 40
0.625
 40
0.625
 40
0.625
 40
0.625
 40
0.75
 40
0.75
 40
0.75
 40
0.75
 40
1.0
 40
1.0
 40
1.0
 40
1.0
 10
174.1453
 20
-76.7199
 30
0.0
 10
175.1973
 20
-76.9813
 30
0.0
 10
176.2842
 20
-77.5465
 30
0.0
 10
176.7671
 20
-78.7353
 30
0.0
 10
176.7671
 20
-78.7353
 30
0.0
 10
177.8439
 20
-81.3864
 30
0.0
 10
175.9828
 20
-82.4232
 30
0.0
 10
175.2501
 20
-83.6644
 30
0.0
 10
175.2501
 20
-83.6644
 30
0.0
 10
174.5171
 20
-84.9055
 30
0.0
 10
173.0513
 20
-85.3567
 30
0.0
 10
169.4552
 20
-89.5734
 30
0.0
 10
169.4552
 20
-89.5734
 30
0.0
 10
165.8594
 20
-93.7902
 30
0.0
 10
165.7467
 20
-99.7429
 30
0.0
 10
165.3854
 20
-99.2993
 30
0.0
 10
165.3854
 20
-99.2993
 30
0.0
 10
165.2044
 20
-99.0768
 30
0.0
 10
164.6541
 20
-97.6246
 30
0.0
 10
163.5103
 20
-95.5035
 30
0.0
 10
163.5103
 20
-95.5035
 30
0.0
 10
163.0817
 20
-92.2047
 30
0.0
 10
163.512
 20
-89.0963
 30
0.0
 10
163.8101
 20
-87.3744
 30
0.0
 10
163.8101
 20
-87.3744
 30
0.0
 10
164.3197
 20
-84.431
 30
0.0
 10
170.0051
 20
-77.4374
 30
0.0
 10
174.1453
 20
-76.7199
 30
0.0
  0
SPLINE
  5
9B
330
1F
100
AcDbEntity
  8
layer 1
 62
     7
100
AcDbSpline
210
0.0
220
0.0
230
1.0
 70
    11
 71
     3
 72
    76
 73
    72
 74
     0
 42
0.0000000001
 43
0.0000000001
 12
1.0
 22
0.0
 32
0.0
 13
1.0
 23
0.0
 33
0.0
 40
0.0
 40
0.0
 40
0.0
 40
0.0
 40
0.0526315789473684
 40
0.0526315789473684
 40
0.0526315789473684
 40
0.0526315789473684
 40
0.1052631578947368
 40
0.1052631578947368
 40
0.1052631578947368
 40
0.1052631578947368
 40
0.1578947368421053
 40
0.1578947368421053
 40
0.1578947368421053
 40
0.1578947368421053
 40
0.2105263157894737
 40
0.2105263157894737
 40
0.2105263157894737
 40
0.2105263157894737
 40
0.2631578947368421
 40
0.2631578947368421
 40
0.2631578947368421
 40
0.2631578947368421
 40
0.3157894736842105
 40
0.3157894736842105
 40
0.3157894736842105
 40
0.3157894736842105
 40
0.3684210526315789
 40
0.3684210526315789
 40
0.3684210526315789
 40
0.3684210526315789
 40
0.4210526315789473
 40
0.4210526315789473
 40
0.4210526315789473
 40
0.4210526315789473
 40
0.4736842105263158
 40
0.4736842105263158
 40
0.4736842105263158
 40
0.4736842105263158
 40
0.5263157894736842
 40
0.5263157894736842
 40
0.5263157894736842
 40
0.5263157894736842
 40
0.5789473684210527
 40
0.5789473684210527
 40
0.5789473684210527
 40
0.5789473684210527
 40
0.631578947368421
 40
0.631578947368421
 40
0.631578947368421
 40
0.631578947368421
 40
0.6842105263157895
 40
0.6842105263157895
 40
0.6842105263157895
 40
0.6842105263157895
 40
0.7368421052631579
 40
0.7368421052631579
 40
0.7368421052631579
 40
0.7368421052631579
 40
0.7894736842105263
 40
0.7894736842105263
 40
0.7894736842105263
 40
0.7894736842105263
 40
0.8421052631578947
 40
0.8421052631578947
 40
0.8421052631578947
 40
0.8421052631578947
 40
0.8947368421052632
 40
0.8947368421052632
 40
0.8947368421052632
 40
0.8947368421052632
 40
1.0
 40
1.0
 40
1.0
 40
1.0
 10
160.3051
 20
-90.4543
 30
0.0
 10
159.6552
 20
-89.576
 30
0.0
 10
158.931
 20
-88.669
 30
0.0
 10
158.1241
 20
-87.7502
 30
0.0
 10
158.1241
 20
-87.7502
 30
0.0
 10
148.2761
 20
-76.5375
 30
0.0
 10
138.9595
 20
-64.828
 30
0.0
 10
145.011
 20
-54.5298
 30
0.0
 10
145.011
 20
-54.5298
 30
0.0
 10
148.5819
 20
-48.4532
 30
0.0
 10
156.1361
 20
-44.9912
 30
0.0
 10
163.3104
 20
-49.6367
 30
0.0
 10
163.3104
 20
-49.6367
 30
0.0
 10
168.8548
 20
-53.2268
 30
0.0
 10
167.4323
 20
-58.282
 30
0.0
 10
164.1541
 20
-60.452
 30
0.0
 10
164.1541
 20
-60.452
 30
0.0
 10
164.1541
 20
-60.452
 30
0.0
 10
164.1654
 20
-60.411
 30
0.0
 10
164.1654
 20
-60.411
 30
0.0
 10
164.1654
 20
-60.411
 30
0.0
 10
164.1654
 20
-60.411
 30
0.0
 10
164.0863
 20
-60.4962
 30
0.0
 10
164.0863
 20
-60.4962
 30
0.0
 10
164.0863
 20
-60.4962
 30
0.0
 10
161.9006
 20
-61.9056
 30
0.0
 10
158.9189
 20
-62.0398
 30
0.0
 10
156.618
 20
-59.6356
 30
0.0
 10
156.618
 20
-59.6356
 30
0.0
 10
155.3972
 20
-58.3599
 30
0.0
 10
156.4443
 20
-56.5319
 30
0.0
 10
156.9
 20
-57.0039
 30
0.0
 10
156.9
 20
-57.0039
 30
0.0
 10
157.3555
 20
-57.4761
 30
0.0
 10
159.2223
 20
-59.1555
 30
0.0
 10
160.9737
 20
-58.1102
 30
0.0
 10
160.9737
 20
-58.1102
 30
0.0
 10
162.7252
 20
-57.0646
 30
0.0
 10
163.4912
 20
-56.0784
 30
0.0
 10
161.1615
 20
-53.6333
 30
0.0
 10
161.1615
 20
-53.6333
 30
0.0
 10
158.832
 20
-51.1882
 30
0.0
 10
156.3005
 20
-52.6333
 30
0.0
 10
155.0551
 20
-55.2201
 30
0.0
 10
155.0551
 20
-55.2201
 30
0.0
 10
153.81
 20
-57.807
 30
0.0
 10
155.2253
 20
-61.0138
 30
0.0
 10
159.0282
 20
-62.3549
 30
0.0
 10
159.0282
 20
-62.3549
 30
0.0
 10
160.0274
 20
-62.7073
 30
0.0
 10
161.059
 20
-62.8531
 30
0.0
 10
162.0638
 20
-62.8204
 30
0.0
 10
162.0638
 20
-62.8204
 30
0.0
 10
160.7368
 20
-64.4258
 30
0.0
 10
159.1955
 20
-66.4739
 30
0.0
 10
158.771
 20
-67.7855
 30
0.0
 10
158.771
 20
-67.7855
 30
0.0
 10
157.9851
 20
-70.2124
 30
0.0
 10
158.0497
 20
-74.7416
 30
0.0
 10
158.8931
 20
-76.7558
 30
0.0
 10
158.8931
 20
-76.7558
 30
0.0
 10
159.7369
 20
-78.7698
 30
0.0
 10
159.6941
 20
-81.504
 30
0.0
 10
159.6941
 20
-81.504
 30
0.0
 10
159.6941
 20
-81.504
 30
0.0
 10
159.6941
 20
-81.504
 30
0.0
 10
160.8189
 20
-90.7988
 30
0.0
 10
160.8189
 20
-90.7988
 30
0.0
 10
160.8189
 20
-90.7988
 30
0.0
 10
160.8189
 20
-90.7988
 30
0.0
 10
160.6364
 20
-90.6623
 30
0.0
 10
160.3051
 20
-90.4543
 30
0.0
  0
SPLINE
  5
9C
330
1F
100
AcDbEntity
  8
layer 1
 62
     7
100
AcDbSpline
210
0.0
220
0.0
230
1.0
 70
    11
 71
     3
 72
    24
 73
    20
 74
     0
 42
0.0000000001
 43
0.0000000001
 12
1.0
 22
0.0
 32
0.0
 13
1.0
 23
0.0
 33
0.0
 40
0.0
 40
0.0
 40
0.0
 40
0.0
 40
0.1666666666666667
 40
0.1666666666666667
 40
0.1666666666666667
 40
0.1666666666666667
 40
0.3333333333333333
 40
0.3333333333333333
 40
0.3333333333333333
 40
0.3333333333333333
 40
0.5
 40
0.5
 40
0.5
 40
0.5
 40
0.6666666666666666
 40
0.6666666666666666
 40
0.6666666666666666
 40
0.6666666666666666
 40
1.0
 40
1.0
 40
1.0
 40
1.0
 10
152.1994
 20
34.2051
 30
0.0
 10
150.3995
 20
30.3786
 30
0.0
 10
148.29
 20
26.4917
 30
0.0
 10
146.1338
 20
22.633
 30
0.0
 10
146.1338
 20
22.633
 30
0.0
 10
144.1756
 20
19.1288
 30
0.0
 10
142.9316
 20
15.874
 30
0.0
 10
142.1259
 20
13.2764
 30
0.0
 10
142.1259
 20
13.2764
 30
0.0
 10
139.7524
 20
16.647
 30
0.0
 10
138.7426
 20
20.5774
 30
0.0
 10
138.2998
 20
22.6108
 30
0.0
 10
138.2998
 20
22.6108
 30
0.0
 10
137.5778
 20
25.9273
 30
0.0
 10
138.9712
 20
28.6673
 30
0.0
 10
140.571
 20
31.221
 30
0.0
 10
140.571
 20
31.221
 30
0.0
 10
142.0961
 20
33.6562
 30
0.0
 10
148.989
 20
31.7297
 30
0.0
 10
152.1994
 20
34.2051
 30
0.0
  0
SPLINE
  5
9D
330
1F
100
AcDbEntity
  8
layer 1
 62
     7
100
AcDbSpline
210
0.0
220
0.0
230
1.0
 70
    11
 71
     3
 72
    20
 73
    16
 74
     0
 42
0.0000000001
 43
0.0000000001
 12
1.0
 22
0.0
 32
0.0
 13
1.0
 23
0.0
 33
0.0
 40
0.0
 40
0.0
 40
0.0
 40
0.0
 40
0.2
 40
0.2
 40
0.2
 40
0.2
 40
0.4
 40
0.4
 40
0.4
 40
0.4
 40
0.6
 40
0.6
 40
0.6
 40
0.6
 40
1.0
 40
1.0
 40
1.0
 40
1.0
 10
141.5734
 20
11.3602
 30
0.0
 10
140.9759
 20
9.1212
 30
0.0
 10
140.7496
 20
7.6583
 30
0.0
 10
140.6128
 20
7.39
 30
0.0
 10
140.6128
 20
7.39
 30
0.0
 10
140.3344
 20
6.8442
 30
0.0
 10
138.9455
 20
12.4483
 30
0.0
 10
134.7801
 20
16.5554
 30
0.0
 10
134.7801
 20
16.5554
 30
0.0
 10
136.1964
 20
16.6795
 30
0.0
 10
138.0713
 20
16.1156
 30
0.0
 10
138.0713
 20
16.1156
 30
0.0
 10
138.0713
 20
16.1156
 30
0.0
 10
138.0713
 20
16.1156
 30
0.0
 10
138.9812
 20
14.2735
 30
0.0
 10
141.5734
 20
11.3602
 30
0.0
  0
SPLINE
  5
9E
330
1F
100
AcDbEntity
  8
layer 1
 62
     7
100
AcDbSpline
210
0.0
220
0.0
230
1.0
 70
    11
 71
     3
 72
    24
 73
    20
 74
     0
 42
0.0000000001
 43
0.0000000001
 12
1.0
 22
0.0
 32
0.0
 13
1.0
 23
0.0
 33
0.0
 40
0.0
 40
0.0
 40
0.0
 40
0.0
 40
0.1666666666666667
 40
0.1666666666666667
 40
0.1666666666666667
 40
0.1666666666666667
 40
0.3333333333333333
 40
0.3333333333333333
 40
0.3333333333333333
 40
0.3333333333333333
 40
0.5
 40
0.5
 40
0.5
 40
0.5
 40
0.6666666666666666
 40
0.6666666666666666
 40
0.6666666666666666
 40
0.6666666666666666
 40
1.0
 40
1.0
 40
1.0
 40
1.0
 10
136.6554
 20
73.7512
 30
0.0
 10
138.5021
 20
75.1433
 30
0.0
 10
140.5192
 20
76.5057
 30
0.0
 10
142.2284
 20
77.7486
 30
0.0
 10
142.2284
 20
77.7486
 30
0.0
 10
145.2303
 20
79.9318
 30
0.0
 10
147.0573
 20
81.6386
 30
0.0
 10
147.3119
 20
83.4255
 30
0.0
 10
147.3119
 20
83.4255
 30
0.0
 10
147.9497
 20
87.9064
 30
0.0
 10
144.8171
 20
91.4884
 30
0.0
 10
140.9479
 20
92.725
 30
0.0
 10
140.9479
 20
92.725
 30
0.0
 10
141.3894
 20
86.4524
 30
0.0
 10
140.3497
 20
80.9764
 30
0.0
 10
137.2868
 20
74.8899
 30
0.0
 10
137.2868
 20
74.8899
 30
0.0
 10
137.0971
 20
74.5131
 30
0.0
 10
136.8851
 20
74.1328
 30
0.0
 10
136.6554
 20
73.7512
 30
0.0
  0
SPLINE
  5
9F
330
1F
100
AcDbEntity
  8
layer 1
 62
     7
100
AcDbSpline
210
0.0
220
0.0
230
1.0
 70
    11
 71
     3
 72
    28
 73
    24
 74
     0
 42
0.0000000001
 43
0.0000000001
 12
1.0
 22
0.0
 32
0.0
 13
1.0
 23
0.0
 33
0.0
 40
0.0
 40
0.0
 40
0.0
 40
0.0
 40
0.1428571428571428
 40
0.1428571428571428
 40
0.1428571428571428
 40
0.1428571428571428
 40
0.2857142857142857
 40
0.2857142857142857
 40
0.2857142857142857
 40
0.2857142857142857
 40
0.4285714285714285
 40
0.4285714285714285
 40
0.4285714285714285
 40
0.4285714285714285
 40
0.5714285714285714
 40
0.5714285714285714
 40
0.5714285714285714
 40
0.5714285714285714
 40
0.7142857142857143
 40
0.7142857142857143
 40
0.7142857142857143
 40
0.7142857142857143
 40
1.0
 40
1.0
 40
1.0
 40
1.0
 10
140.854
 20
93.8466
 30
0.0
 10
141.3765
 20
93.8179
 30
0.0
 10
143.281
 20
93.6671
 30
0.0
 10
144.1093
 20
92.9699
 30
0.0
 10
144.1093
 20
92.9699
 30
0.0
 10
145.0739
 20
92.1576
 30
0.0
 10
146.4475
 20
90.8181
 30
0.0
 10
146.4475
 20
90.8181
 30
0.0
 10
146.4475
 20
90.8181
 30
0.0
 10
146.4475
 20
90.8181
 30
0.0
 10
146.6036
 20
94.7517
 30
0.0
 10
145.8516
 20
96.116
 30
0.0
 10
145.8516
 20
96.116
 30
0.0
 10
145.5857
 20
96.5989
 30
0.0
 10
145.4433
 20
97.3953
 30
0.0
 10
145.4033
 20
98.2886
 30
0.0
 10
145.4033
 20
98.2886
 30
0.0
 10
142.7482
 20
100.4712
 30
0.0
 10
140.5113
 20
102.9296
 30
0.0
 10
138.6395
 20
105.3011
 30
0.0
 10
138.6395
 20
105.3011
 30
0.0
 10
139.7514
 20
101.0675
 30
0.0
 10
140.5186
 20
97.3259
 30
0.0
 10
140.854
 20
93.8466
 30
0.0
  0
SPLINE
  5
A0
330
1F
100
AcDbEntity
  8
layer 1
 62
     7
100
AcDbSpline
210
0.0
220
0.0
230
1.0
 70
    11
 71
     3
 72
    24
 73
    20
 74
     0
 42
0.0000000001
 43
0.0000000001
 12
1.0
 22
0.0
 32
0.0
 13
1.0
 23
0.0
 33
0.0
 40
0.0
 40
0.0
 40
0.0
 40
0.0
 40
0.1666666666666667
 40
0.1666666666666667
 40
0.1666666666666667
 40
0.1666666666666667
 40
0.3333333333333333
 40
0.3333333333333333
 40
0.3333333333333333
 40
0.3333333333333333
 40
0.5
 40
0.5
 40
0.5
 40
0.5
 40
0.6666666666666666
 40
0.6666666666666666
 40
0.6666666666666666
 40
0.6666666666666666
 40
1.0
 40
1.0
 40
1.0
 40
1.0
 10
149.8673
 20
95.1733
 30
0.0
 10
149.2682
 20
93.5682
 30
0.0
 10
148.2418
 20
91.9917
 30
0.0
 10
148.0242
 20
90.4112
 30
0.0
 10
148.0242
 20
90.4112
 30
0.0
 10
147.7484
 20
88.4071
 30
0.0
 10
149.4556
 20
87.8723
 30
0.0
 10
149.4556
 20
87.8723
 30
0.0
 10
149.4556
 20
87.8723
 30
0.0
 10
149.4556
 20
87.8723
 30
0.0
 10
151.2152
 20
91.2954
 30
0.0
 10
153.7378
 20
92.6243
 30
0.0
 10
153.7378
 20
92.6243
 30
0.0
 10
154.0402
 20
92.7837
 30
0.0
 10
154.3351
 20
92.8914
 30
0.0
 10
154.6189
 20
92.9546
 30
0.0
 10
154.6189
 20
92.9546
 30
0.0
 10
152.9295
 20
93.5624
 30
0.0
 10
151.3474
 20
94.3146
 30
0.0
 10
149.8673
 20
95.1733
 30
0.0
  0
SPLINE
  5
A1
330
1F
100
AcDbEntity
  8
layer 1
 62
     7
100
AcDbSpline
210
0.0
220
0.0
230
1.0
 70
    11
 71
     3
 72
   208
 73
   204
 74
     0
 42
0.0000000001
 43
0.0000000001
 12
1.0
 22
0.0
 32
0.0
 13
1.0
 23
0.0
 33
0.0
 40
0.0
 40
0.0
 40
0.0
 40
0.0
 40
0.0192307692307692
 40
0.0192307692307692
 40
0.0192307692307692
 40
0.0192307692307692
 40
0.0384615384615385
 40
0.0384615384615385
 40
0.0384615384615385
 40
0.0384615384615385
 40
0.0576923076923077
 40
0.0576923076923077
 40
0.0576923076923077
 40
0.0576923076923077
 40
0.0769230769230769
 40
0.0769230769230769
 40
0.0769230769230769
 40
0.0769230769230769
 40
0.0961538461538462
 40
0.0961538461538462
 40
0.0961538461538462
 40
0.0961538461538462
 40
0.1153846153846154
 40
0.1153846153846154
 40
0.1153846153846154
 40
0.1153846153846154
 40
0.1346153846153846
 40
0.1346153846153846
 40
0.1346153846153846
 40
0.1346153846153846
 40
0.1538461538461539
 40
0.1538461538461539
 40
0.1538461538461539
 40
0.1538461538461539
 40
0.1730769230769231
 40
0.1730769230769231
 40
0.1730769230769231
 40
0.1730769230769231
 40
0.1923076923076923
 40
0.1923076923076923
 40
0.1923076923076923
 40
0.1923076923076923
 40
0.2115384615384615
 40
0.2115384615384615
 40
0.2115384615384615
 40
0.2115384615384615
 40
0.2307692307692308
 40
0.2307692307692308
 40
0.2307692307692308
 40
0.2307692307692308
 40
0.25
 40
0.25
 40
0.25
 40
0.25
 40
0.2692307692307692
 40
0.2692307692307692
 40
0.2692307692307692
 40
0.2692307692307692
 40
0.2884615384615384
 40
0.2884615384615384
 40
0.2884615384615384
 40
0.2884615384615384
 40
0.3076923076923077
 40
0.3076923076923077
 40
0.3076923076923077
 40
0.3076923076923077
 40
0.3269230769230769
 40
0.3269230769230769
 40
0.3269230769230769
 40
0.3269230769230769
 40
0.3461538461538461
 40
0.3461538461538461
 40
0.3461538461538461
 40
0.3461538461538461
 40
0.3653846153846154
 40
0.3653846153846154
 40
0.3653846153846154
 40
0.3653846153846154
 40
0.3846153846153846
 40
0.3846153846153846
 40
0.3846153846153846
 40
0.3846153846153846
 40
0.4038461538461539
 40
0.4038461538461539
 40
0.4038461538461539
 40
0.4038461538461539
 40
0.4230769230769231
 40
0.4230769230769231
 40
0.4230769230769231
 40
0.4230769230769231
 40
0.4423076923076923
 40
0.4423076923076923
 40
0.4423076923076923
 40
0.4423076923076923
 40
0.4615384615384616
 40
0.4615384615384616
 40
0.4615384615384616
 40
0.4615384615384616
 40
0.4807692307692308
 40
0.4807692307692308
 40
0.4807692307692308
 40
0.4807692307692308
 40
0.5
 40
0.5
 40
0.5
 40
0.5
 40
0.5192307692307693
 40
0.5192307692307693
 40
0.5192307692307693
 40
0.5192307692307693
 40
0.5384615384615384
 40
0.5384615384615384
 40
0.5384615384615384
 40
0.5384615384615384
 40
0.5576923076923077
 40
0.5576923076923077
 40
0.5576923076923077
 40
0.5576923076923077
 40
0.5769230769230769
 40
0.5769230769230769
 40
0.5769230769230769
 40
0.5769230769230769
 40
0.5961538461538461
 40
0.5961538461538461
 40
0.5961538461538461
 40
0.5961538461538461
 40
0.6153846153846154
 40
0.6153846153846154
 40
0.6153846153846154
 40
0.6153846153846154
 40
0.6346153846153846
 40
0.6346153846153846
 40
0.6346153846153846
 40
0.6346153846153846
 40
0.6538461538461539
 40
0.6538461538461539
 40
0.6538461538461539
 40
0.6538461538461539
 40
0.6730769230769231
 40
0.6730769230769231
 40
0.6730769230769231
 40
0.6730769230769231
 40
0.6923076923076923
 40
0.6923076923076923
 40
0.6923076923076923
 40
0.6923076923076923
 40
0.7115384615384616
 40
0.7115384615384616
 40
0.7115384615384616
 40
0.7115384615384616
 40
0.7307692307692307
 40
0.7307692307692307
 40
0.7307692307692307
 40
0.7307692307692307
 40
0.75
 40
0.75
 40
0.75
 40
0.75
 40
0.7692307692307693
 40
0.7692307692307693
 40
0.7692307692307693
 40
0.7692307692307693
 40
0.7884615384615384
 40
0.7884615384615384
 40
0.7884615384615384
 40
0.7884615384615384
 40
0.8076923076923077
 40
0.8076923076923077
 40
0.8076923076923077
 40
0.8076923076923077
 40
0.8269230769230769
 40
0.8269230769230769
 40
0.8269230769230769
 40
0.8269230769230769
 40
0.8461538461538461
 40
0.8461538461538461
 40
0.8461538461538461
 40
0.8461538461538461
 40
0.8653846153846154
 40
0.8653846153846154
 40
0.8653846153846154
 40
0.8653846153846154
 40
0.8846153846153846
 40
0.8846153846153846
 40
0.8846153846153846
 40
0.8846153846153846
 40
0.9038461538461539
 40
0.9038461538461539
 40
0.9038461538461539
 40
0.9038461538461539
 40
0.9230769230769231
 40
0.9230769230769231
 40
0.9230769230769231
 40
0.9230769230769231
 40
0.9423076923076923
 40
0.9423076923076923
 40
0.9423076923076923
 40
0.9423076923076923
 40
0.9615384615384616
 40
0.9615384615384616
 40
0.9615384615384616
 40
0.9615384615384616
 40
1.0
 40
1.0
 40
1.0
 40
1.0
 10
157.11
 20
92.189
 30
0.0
 10
157.6583
 20
91.5651
 30
0.0
 10
157.8726
 20
90.6876
 30
0.0
 10
157.57
 20
89.8942
 30
0.0
 10
157.57
 20
89.8942
 30
0.0
 10
156.4052
 20
86.8413
 30
0.0
 10
152.5252
 20
88.6806
 30
0.0
 10
153.7904
 20
90.5663
 30
0.0
 10
153.7904
 20
90.5663
 30
0.0
 10
153.7904
 20
90.5663
 30
0.0
 10
154.694
 20
91.1116
 30
0.0
 10
154.91
 20
90.3529
 30
0.0
 10
154.91
 20
90.3529
 30
0.0
 10
154.9778
 20
90.1157
 30
0.0
 10
155.1071
 20
89.9535
 30
0.0
 10
155.2534
 20
89.8434
 30
0.0
 10
155.2534
 20
89.8434
 30
0.0
 10
155.6431
 20
89.5495
 30
0.0
 10
156.4734
 20
89.7151
 30
0.0
 10
156.4819
 20
90.3489
 30
0.0
 10
156.4819
 20
90.3489
 30
0.0
 10
156.5262
 20
93.7042
 30
0.0
 10
151.4589
 20
91.4911
 30
0.0
 10
150.7131
 20
87.9714
 30
0.0
 10
150.7131
 20
87.9714
 30
0.0
 10
150.5332
 20
87.1227
 30
0.0
 10
150.2163
 20
86.0929
 30
0.0
 10
149.9046
 20
84.9838
 30
0.0
 10
149.9046
 20
84.9838
 30
0.0
 10
149.2609
 20
82.6932
 30
0.0
 10
148.1797
 20
80.5162
 30
0.0
 10
148.1797
 20
80.5162
 30
0.0
 10
148.1797
 20
80.5162
 30
0.0
 10
148.1797
 20
80.5162
 30
0.0
 10
150.507
 20
81.5019
 30
0.0
 10
151.8952
 20
82.9018
 30
0.0
 10
151.8952
 20
82.9018
 30
0.0
 10
153.2837
 20
84.3018
 30
0.0
 10
157.0882
 20
86.0386
 30
0.0
 10
159.4323
 20
86.3374
 30
0.0
 10
159.4323
 20
86.3374
 30
0.0
 10
161.7765
 20
86.6363
 30
0.0
 10
167.6756
 20
84.9294
 30
0.0
 10
167.6756
 20
84.9294
 30
0.0
 10
167.6756
 20
84.9294
 30
0.0
 10
167.6756
 20
84.9294
 30
0.0
 10
162.0955
 20
83.996
 30
0.0
 10
159.4674
 20
82.0098
 30
0.0
 10
159.4674
 20
82.0098
 30
0.0
 10
156.8397
 20
80.0234
 30
0.0
 10
155.5908
 20
80.2352
 30
0.0
 10
154.0664
 20
80.2342
 30
0.0
 10
154.0664
 20
80.2342
 30
0.0
 10
152.5416
 20
80.2334
 30
0.0
 10
150.4481
 20
80.2671
 30
0.0
 10
148.9025
 20
79.4197
 30
0.0
 10
148.9025
 20
79.4197
 30
0.0
 10
147.357
 20
78.5718
 30
0.0
 10
146.045
 20
77.3794
 30
0.0
 10
146.4697
 20
77.2689
 30
0.0
 10
146.4697
 20
77.2689
 30
0.0
 10
146.8943
 20
77.1583
 30
0.0
 10
151.961
 20
76.9185
 30
0.0
 10
154.8156
 20
74.2434
 30
0.0
 10
154.8156
 20
74.2434
 30
0.0
 10
157.6704
 20
71.5681
 30
0.0
 10
160.3382
 20
71.0263
 30
0.0
 10
156.6961
 20
63.7015
 30
0.0
 10
156.6961
 20
63.7015
 30
0.0
 10
153.6856
 20
66.0443
 30
0.0
 10
155.3409
 20
72.5162
 30
0.0
 10
152.8793
 20
73.7248
 30
0.0
 10
152.8793
 20
73.7248
 30
0.0
 10
150.4156
 20
74.9343
 30
0.0
 10
147.7908
 20
75.9585
 30
0.0
 10
144.7504
 20
75.1596
 30
0.0
 10
144.7504
 20
75.1596
 30
0.0
 10
142.9254
 20
74.6799
 30
0.0
 10
138.9877
 20
73.4202
 30
0.0
 10
135.891
 20
71.2458
 30
0.0
 10
135.891
 20
71.2458
 30
0.0
 10
140.7401
 20
72.7139
 30
0.0
 10
145.8568
 20
71.3755
 30
0.0
 10
149.2752
 20
69.8101
 30
0.0
 10
149.2752
 20
69.8101
 30
0.0
 10
154.373
 20
67.4755
 30
0.0
 10
157.9234
 20
63.108
 30
0.0
 10
159.5235
 20
56.2245
 30
0.0
 10
159.5235
 20
56.2245
 30
0.0
 10
159.5235
 20
56.2245
 30
0.0
 10
161.3527
 20
59.433
 30
0.0
 10
165.364
 20
59.486
 30
0.0
 10
165.364
 20
59.486
 30
0.0
 10
169.3755
 20
59.5389
 30
0.0
 10
170.529
 20
59.13
 30
0.0
 10
170.529
 20
59.13
 30
0.0
 10
170.529
 20
59.13
 30
0.0
 10
170.529
 20
59.13
 30
0.0
 10
167.6994
 20
56.9427
 30
0.0
 10
167.866
 20
53.4855
 30
0.0
 10
167.866
 20
53.4855
 30
0.0
 10
168.0326
 20
50.0282
 30
0.0
 10
169.3031
 20
46.5097
 30
0.0
 10
168.2985
 20
43.738
 30
0.0
 10
168.2985
 20
43.738
 30
0.0
 10
167.2937
 20
40.9667
 30
0.0
 10
165.3301
 20
41.1446
 30
0.0
 10
165.0663
 20
40.5386
 30
0.0
 10
165.0663
 20
40.5386
 30
0.0
 10
164.8026
 20
39.9325
 30
0.0
 10
168.9971
 20
38.7925
 30
0.0
 10
168.663
 20
35.4854
 30
0.0
 10
168.663
 20
35.4854
 30
0.0
 10
168.3291
 20
32.1786
 30
0.0
 10
164.5656
 20
30.404
 30
0.0
 10
160.2826
 20
29.077
 30
0.0
 10
160.2826
 20
29.077
 30
0.0
 10
155.9995
 20
27.7499
 30
0.0
 10
147.5642
 20
21.1029
 30
0.0
 10
145.6218
 20
17.1065
 30
0.0
 10
145.6218
 20
17.1065
 30
0.0
 10
143.4942
 20
12.7293
 30
0.0
 10
142.8515
 20
7.1361
 30
0.0
 10
144.503
 20
4.7472
 30
0.0
 10
144.503
 20
4.7472
 30
0.0
 10
144.7155
 20
4.44
 30
0.0
 10
145.926
 20
10.5365
 30
0.0
 10
152.0841
 20
18.5079
 30
0.0
 10
152.0841
 20
18.5079
 30
0.0
 10
157.597
 20
24.0944
 30
0.0
 10
164.0492
 20
27.1494
 30
0.0
 10
170.3648
 20
28.0997
 30
0.0
 10
170.3648
 20
28.0997
 30
0.0
 10
170.7777
 20
28.7692
 30
0.0
 10
171.2723
 20
29.6691
 30
0.0
 10
171.8311
 20
30.868
 30
0.0
 10
171.8311
 20
30.868
 30
0.0
 10
173.5462
 20
34.547
 30
0.0
 10
172.6382
 20
36.0164
 30
0.0
 10
172.4365
 20
39.1397
 30
0.0
 10
172.4365
 20
39.1397
 30
0.0
 10
172.2347
 20
42.263
 30
0.0
 10
176.2684
 20
46.1196
 30
0.0
 10
176.7161
 20
47.2147
 30
0.0
 10
176.7161
 20
47.2147
 30
0.0
 10
179.3225
 20
53.5918
 30
0.0
 10
172.3683
 20
59.5256
 30
0.0
 10
179.2033
 20
68.0478
 30
0.0
 10
179.2033
 20
68.0478
 30
0.0
 10
179.2033
 20
68.0478
 30
0.0
 10
174.5324
 20
65.545
 30
0.0
 10
174.5324
 20
65.545
 30
0.0
 10
174.5324
 20
65.545
 30
0.0
 10
175.1708
 20
70.4675
 30
0.0
 10
179.4815
 20
69.4526
 30
0.0
 10
180.4938
 20
71.2782
 30
0.0
 10
180.4938
 20
71.2782
 30
0.0
 10
181.7344
 20
73.5148
 30
0.0
 10
177.7941
 20
80.8606
 30
0.0
 10
177.7941
 20
80.8606
 30
0.0
 10
177.7941
 20
80.8606
 30
0.0
 10
177.7941
 20
80.8606
 30
0.0
 10
177.9724
 20
79.1088
 30
0.0
 10
177.7941
 20
76.8769
 30
0.0
 10
177.7941
 20
76.8769
 30
0.0
 10
176.8982
 20
65.659
 30
0.0
 10
159.1626
 20
66.9571
 30
0.0
 10
163.4821
 20
75.3942
 30
0.0
 10
163.4821
 20
75.3942
 30
0.0
 10
163.8331
 20
71.5818
 30
0.0
 10
171.4403
 20
69.6037
 30
0.0
 10
173.4495
 20
71.6843
 30
0.0
 10
173.4495
 20
71.6843
 30
0.0
 10
169.0509
 20
71.7315
 30
0.0
 10
167.1862
 20
75.1084
 30
0.0
 10
169.1715
 20
77.2366
 30
0.0
 10
169.1715
 20
77.2366
 30
0.0
 10
168.8992
 20
75.8737
 30
0.0
 10
173.602
 20
72.6827
 30
0.0
 10
174.3916
 20
73.0333
 30
0.0
 10
174.3916
 20
73.0333
 30
0.0
 10
177.8919
 20
74.5877
 30
0.0
 10
173.7192
 20
85.2499
 30
0.0
 10
173.3027
 20
85.8059
 30
0.0
 10
173.3027
 20
85.8059
 30
0.0
 10
173.3027
 20
85.8059
 30
0.0
 10
173.4388
 20
82.6533
 30
0.0
 10
171.5333
 20
80.5806
 30
0.0
 10
171.5333
 20
80.5806
 30
0.0
 10
169.6279
 20
78.5079
 30
0.0
 10
167.9947
 20
78.1968
 30
0.0
 10
167.9947
 20
78.1968
 30
0.0
 10
167.9947
 20
78.1968
 30
0.0
 10
167.3141
 20
79.0216
 30
0.0
 10
167.1541
 20
80.773
 30
0.0
 10
168.5855
 20
83.9054
 30
0.0
 10
168.5855
 20
83.9054
 30
0.0
 10
170.017
 20
87.0378
 30
0.0
 10
166.3964
 20
91.1792
 30
0.0
 10
162.8602
 20
91.3373
 30
0.0
 10
162.8602
 20
91.3373
 30
0.0
 10
160.8278
 20
91.4281
 30
0.0
 10
158.9134
 20
91.7259
 30
0.0
 10
157.11
 20
92.189
 30
0.0
  0
ENDSEC
  0
SECTION
  2
OBJECTS
  0
DICTIONARY
  5
C
330
0
100
AcDbDictionary
281
     1
  3
ACAD_GROUP
350
D
  3
ACAD_LAYOUT
350
1A
  3
ACAD_MATERIAL
350
3B
  3
ACAD_MLEADERSTYLE
350
C4
  3
ACAD_MLINESTYLE
350
17
  3
ACAD_PLOTSETTINGS
350
19
  3
ACAD_PLOTSTYLENAME
350
E
  3
ACAD_TABLESTYLE
350
C3
  3
ACAD_VISUALSTYLE
350
2A
  0
DICTIONARY
  5
D
102
{ACAD_REACTORS
330
C
102
}
330
C
100
AcDbDictionary
281
     1
  0
DICTIONARY
  5
1A
102
{ACAD_REACTORS
330
C
102
}
330
C
100
AcDbDictionary
281
     1
  3
Layout1
350
1E
  3
Layout2
350
26
  3
Model
350
22
  0
DICTIONARY
  5
3B
102
{ACAD_REACTORS
330
C
102
}
330
C
100
AcDbDictionary
281
     1
  3
ByBlock
350
3D
  3
ByLayer
350
3C
  3
Global
350
3E
  0
DICTIONARY
  5
C4
102
{ACAD_REACTORS
330
C
102
}
330
C
100
AcDbDictionary
281
     1
  0
DICTIONARY
  5
17
102
{ACAD_REACTORS
330
C
102
}
330
C
100
AcDbDictionary
281
     1
  3
Standard
350
18
  0
DICTIONARY
  5
19
102
{ACAD_REACTORS
330
C
102
}
330
C
100
AcDbDictionary
281
     1
  0
ACDBDICTIONARYWDFLT
  5
E
102
{ACAD_REACTORS
330
C
102
}
330
C
100
AcDbDictionary
281
     1
  3
Normal
350
F
100
AcDbDictionaryWithDefault
340
F
  0
DICTIONARY
  5
C3
102
{ACAD_REACTORS
330
C
102
}
330
C
100
AcDbDictionary
281
     1
  0
DICTIONARY
  5
2A
102
{ACAD_REACTORS
330
C
102
}
330
C
100
AcDbDictionary
281
     1
  3
2dWireframe
350
2F
  3
3D Hidden
350
31
  3
3dWireframe
350
30
  3
Basic
350
32
  3
Brighten
350
36
  3
ColorChange
350
3A
  3
Conceptual
350
34
  3
Dim
350
35
  3
Facepattern
350
39
  3
Flat
350
2B
  3
FlatWithEdges
350
2C
  3
Gouraud
350
2D
  3
GouraudWithEdges
350
2E
  3
Linepattern
350
38
  3
Realistic
350
33
  3
Thicken
350
37
  0
LAYOUT
  5
1E
102
{ACAD_REACTORS
330
1A
102
}
330
1A
100
AcDbPlotSettings
  1

  2
none_device
  4

  6

 40
0.0
 41
0.0
 42
0.0
 43
0.0
 44
0.0
 45
0.0
 46
0.0
 47
0.0
 48
0.0
 49
0.0
140
0.0
141
0.0
142
1.0
143
1.0
 70
   688
 72
     0
 73
     0
 74
     5
  7

 75
    16
 76
     0
 77
     2
 78
   300
147
1.0
148
0.0
149
0.0
100
AcDbLayout
  1
Layout1
 70
     1
 71
     1
 10
0.0
 20
0.0
 11
12.0
 21
9.0
 12
0.0
 22
0.0
 32
0.0
 14
1.000000000000000E+20
 24
1.000000000000000E+20
 34
1.000000000000000E+20
 15
-1.000000000000000E+20
 25
-1.000000000000000E+20
 35
-1.000000000000000E+20
146
0.0
 13
0.0
 23
0.0
 33
0.0
 16
1.0
 26
0.0
 36
0.0
 17
0.0
 27
1.0
 37
0.0
 76
     0
330
1B
  0
LAYOUT
  5
26
102
{ACAD_REACTORS
330
1A
102
}
330
1A
100
AcDbPlotSettings
  1

  2
none_device
  4

  6

 40
0.0
 41
0.0
 42
0.0
 43
0.0
 44
0.0
 45
0.0
 46
0.0
 47
0.0
 48
0.0
 49
0.0
140
0.0
141
0.0
142
1.0
143
1.0
 70
   688
 72
     0
 73
     0
 74
     5
  7

 75
    16
 76
     0
 77
     2
 78
   300
147
1.0
148
0.0
149
0.0
100
AcDbLayout
  1
Layout2
 70
     1
 71
     2
 10
0.0
 20
0.0
 11
0.0
 21
0.0
 12
0.0
 22
0.0
 32
0.0
 14
0.0
 24
0.0
 34
0.0
 15
0.0
 25
0.0
 35
0.0
146
0.0
 13
0.0
 23
0.0
 33
0.0
 16
1.0
 26
0.0
 36
0.0
 17
0.0
 27
1.0
 37
0.0
 76
     0
330
23
  0
LAYOUT
  5
22
102
{ACAD_REACTORS
330
1A
102
}
330
1A
100
AcDbPlotSettings
  1

  2
none_device
  4

  6

 40
0.0
 41
0.0
 42
0.0
 43
0.0
 44
0.0
 45
0.0
 46
0.0
 47
0.0
 48
0.0
 49
0.0
140
0.0
141
0.0
142
1.0
143
1.0
 70
  1712
 72
     0
 73
     0
 74
     0
  7

 75
     0
 76
     0
 77
     2
 78
   300
147
1.0
148
0.0
149
0.0
100
AcDbLayout
  1
Model
 70
     1
 71
     0
 10
0.0
 20
0.0
 11
12.0
 21
9.0
 12
0.0
 22
0.0
 32
0.0
 14
13.5749
 24
-115.1172
 34
0.0
 15
196.451
 25
131.933
 35
0.0
146
0.0
 13
0.0
 23
0.0
 33
0.0
 16
1.0
 26
0.0
 36
0.0
 17
0.0
 27
1.0
 37
0.0
 76
     0
330
1F
331
29
  0
MATERIAL
  5
3D
102
{ACAD_REACTORS
330
3B
102
}
330
3B
100
AcDbMaterial
  1
ByBlock
 72
     1
 94
      127
  0
MATERIAL
  5
3C
102
{ACAD_REACTORS
330
3B
102
}
330
3B
100
AcDbMaterial
  1
ByLayer
 72
     1
 94
      127
  0
MATERIAL
  5
3E
102
{ACAD_REACTORS
330
3B
102
}
330
3B
100
AcDbMaterial
  1
Global
 72
     1
 94
      127
  0
MLINESTYLE
  5
18
102
{ACAD_REACTORS
330
17
102
}
330
17
100
AcDbMlineStyle
  2
Standard
 70
     0
  3

 62
   256
 51
90.0
 52
90.0
 71
     2
 49
0.5
 62
   256
  6
BYLAYER
 49
-0.5
 62
   256
  6
BYLAYER
  0
ACDBPLACEHOLDER
  5
F
102
{ACAD_REACTORS
330
E
102
}
330
E
  0
VISUALSTYLE
  5
2F
102
{ACAD_REACTORS
330
2A
102
}
102
{ACAD_XDICTIONARY
360
AB
102
}
330
2A
100
AcDbVisualStyle
  2
2dWireframe
 70
     4
 71
     0
 72
     2
 73
     0
 90
        0
 40
-0.6
 41
-30.0
 62
     5
 63
     7
421
 16777215
 74
     1
 91
        4
 64
     7
 65
   257
 75
     1
175
     1
 42
1.0
 92
        0
 66
   257
 43
1.0
 76
     1
 77
     6
 78
     2
 67
     7
 79
     5
170
     0
171
     0
290
     0
174
     0
 93
        1
 44
0.0
173
     0
291
     0
 45
0.0
  0
VISUALSTYLE
  5
31
102
{ACAD_REACTORS
330
2A
102
}
102
{ACAD_XDICTIONARY
360
AF
102
}
330
2A
100
AcDbVisualStyle
  2
3D Hidden
 70
     6
 71
     1
 72
     2
 73
     2
 90
        0
 40
-0.6
 41
-30.0
 62
     5
 63
     7
421
 16777215
 74
     2
 91
        2
 64
     7
 65
   257
 75
     2
175
     1
 42
40.0
 92
        0
 66
   257
 43
1.0
 76
     1
 77
     6
 78
     2
 67
     7
 79
     3
170
     0
171
     0
290
     0
174
     0
 93
        1
 44
0.0
173
     0
291
     0
 45
0.0
  0
VISUALSTYLE
  5
30
102
{ACAD_REACTORS
330
2A
102
}
102
{ACAD_XDICTIONARY
360
AD
102
}
330
2A
100
AcDbVisualStyle
  2
3dWireframe
 70
     5
 71
     0
 72
     2
 73
     0
 90
        0
 40
-0.6
 41
-30.0
 62
     5
 63
     7
421
 16777215
 74
     1
 91
        4
 64
     7
 65
   257
 75
     1
175
     1
 42
1.0
 92
        0
 66
   257
 43
1.0
 76
     1
 77
     6
 78
     2
 67
     7
 79
     5
170
     0
171
     0
290
     0
174
     0
 93
        1
 44
0.0
173
     0
291
     0
 45
0.0
  0
VISUALSTYLE
  5
32
102
{ACAD_REACTORS
330
2A
102
}
102
{ACAD_XDICTIONARY
360
B1
102
}
330
2A
100
AcDbVisualStyle
  2
Basic
 70
     7
 71
     1
 72
     0
 73
     1
 90
        0
 40
-0.6
 41
-30.0
 62
     5
 63
     7
421
 16777215
 74
     0
 91
        4
 64
     7
 65
   257
 75
     1
175
     1
 42
1.0
 92
        8
 66
     7
 43
1.0
 76
     1
 77
     6
 78
     2
 67
     7
 79
     5
170
     0
171
     0
290
     0
174
     0
 93
        1
 44
0.0
173
     0
291
     1
 45
0.0
  0
VISUALSTYLE
  5
36
102
{ACAD_REACTORS
330
2A
102
}
102
{ACAD_XDICTIONARY
360
B9
102
}
330
2A
100
AcDbVisualStyle
  2
Brighten
 70
    12
 71
     2
 72
     2
 73
     0
 90
        0
 40
-0.6
 41
-30.0
 62
     5
 63
     7
421
 16777215
 74
     1
 91
        4
 64
     7
 65
   257
 75
     1
175
     1
 42
1.0
 92
        8
 66
     7
 43
1.0
 76
     1
 77
     6
 78
     2
 67
     7
 79
     5
170
     0
171
     0
290
     0
174
     0
 93
        1
 44
50.0
173
     0
291
     1
 45
0.0
  0
VISUALSTYLE
  5
3A
102
{ACAD_REACTORS
330
2A
102
}
102
{ACAD_XDICTIONARY
360
C1
102
}
330
2A
100
AcDbVisualStyle
  2
ColorChange
 70
    16
 71
     2
 72
     2
 73
     3
 90
        0
 40
-0.6
 41
-30.0
 62
     5
 63
     8
421
  8421504
 74
     1
 91
        4
 64
     7
 65
   257
 75
     1
175
     1
 42
1.0
 92
        8
 66
     8
424
  8421504
 43
1.0
 76
     1
 77
     6
 78
     2
 67
     7
 79
     5
170
     0
171
     0
290
     0
174
     0
 93
        1
 44
0.0
173
     0
291
     1
 45
0.0
  0
VISUALSTYLE
  5
34
102
{ACAD_REACTORS
330
2A
102
}
102
{ACAD_XDICTIONARY
360
B5
102
}
330
2A
100
AcDbVisualStyle
  2
Conceptual
 70
     9
 71
     3
 72
     2
 73
     0
 90
        0
 40
-0.6
 41
-30.0
 62
     5
 63
     7
421
 16777215
 74
     2
 91
        2
 64
     7
 65
   257
 75
     1
175
     1
 42
40.0
 92
        8
 66
     7
 43
1.0
 76
     1
 77
     6
 78
     2
 67
     7
 79
     3
170
     0
171
     0
290
     0
174
     0
 93
        1
 44
0.0
173
     0
291
     0
 45
0.0
  0
VISUALSTYLE
  5
35
102
{ACAD_REACTORS
330
2A
102
}
102
{ACAD_XDICTIONARY
360
B7
102
}
330
2A
100
AcDbVisualStyle
  2
Dim
 70
    11
 71
     2
 72
     2
 73
     0
 90
        0
 40
-0.6
 41
-30.0
 62
     5
 63
     7
421
 16777215
 74
     1
 91
        4
 64
     7
 65
   257
 75
     1
175
     1
 42
1.0
 92
        8
 66
     7
 43
1.0
 76
     1
 77
     6
 78
     2
 67
     7
 79
     5
170
     0
171
     0
290
     0
174
     0
 93
        1
 44
-50.0
173
     0
291
     1
 45
0.0
  0
VISUALSTYLE
  5
39
102
{ACAD_REACTORS
330
2A
102
}
102
{ACAD_XDICTIONARY
360
BF
102
}
330
2A
100
AcDbVisualStyle
  2
Facepattern
 70
    15
 71
     2
 72
     2
 73
     0
 90
        0
 40
-0.6
 41
-30.0
 62
     5
 63
     7
421
 16777215
 74
     1
 91
        4
 64
     7
 65
   257
 75
     1
175
     1
 42
1.0
 92
        8
 66
     7
 43
1.0
 76
     1
 77
     6
 78
     2
 67
     7
 79
     5
170
     0
171
     0
290
     0
174
     0
 93
        1
 44
0.0
173
     0
291
     1
 45
0.0
  0
VISUALSTYLE
  5
2B
102
{ACAD_REACTORS
330
2A
102
}
102
{ACAD_XDICTIONARY
360
A3
102
}
330
2A
100
AcDbVisualStyle
  2
Flat
 70
     0
 71
     2
 72
     1
 73
     1
 90
        2
 40
-0.6
 41
30.0
 62
     5
 63
     7
421
 16777215
 74
     0
 91
        4
 64
     7
 65
   257
 75
     1
175
     1
 42
1.0
 92
        8
 66
     7
 43
1.0
 76
     1
 77
     6
 78
     2
 67
     7
 79
     5
170
     0
171
     0
290
     0
174
     0
 93
       13
 44
0.0
173
     0
291
     1
 45
0.0
  0
VISUALSTYLE
  5
2C
102
{ACAD_REACTORS
330
2A
102
}
102
{ACAD_XDICTIONARY
360
A5
102
}
330
2A
100
AcDbVisualStyle
  2
FlatWithEdges
 70
     1
 71
     2
 72
     1
 73
     1
 90
        2
 40
-0.6
 41
30.0
 62
     5
 63
     7
421
 16777215
 74
     1
 91
        4
 64
     7
 65
   257
 75
     1
175
     1
 42
1.0
 92
        0
 66
   257
 43
1.0
 76
     1
 77
     6
 78
     2
 67
     7
 79
     5
170
     0
171
     0
290
     0
174
     0
 93
       13
 44
0.0
173
     0
291
     1
 45
0.0
  0
VISUALSTYLE
  5
2D
102
{ACAD_REACTORS
330
2A
102
}
102
{ACAD_XDICTIONARY
360
A7
102
}
330
2A
100
AcDbVisualStyle
  2
Gouraud
 70
     2
 71
     2
 72
     2
 73
     1
 90
        2
 40
-0.6
 41
30.0
 62
     5
 63
     7
421
 16777215
 74
     0
 91
        4
 64
     7
 65
   257
 75
     1
175
     1
 42
1.0
 92
        0
 66
     7
 43
1.0
 76
     1
 77
     6
 78
     2
 67
     7
 79
     5
170
     0
171
     0
290
     0
174
     0
 93
       13
 44
0.0
173
     0
291
     1
 45
0.0
  0
VISUALSTYLE
  5
2E
102
{ACAD_REACTORS
330
2A
102
}
102
{ACAD_XDICTIONARY
360
A9
102
}
330
2A
100
AcDbVisualStyle
  2
GouraudWithEdges
 70
     3
 71
     2
 72
     2
 73
     1
 90
        2
 40
-0.6
 41
30.0
 62
     5
 63
     7
421
 16777215
 74
     1
 91
        4
 64
     7
 65
   257
 75
     1
175
     1
 42
1.0
 92
        0
 66
   257
 43
1.0
 76
     1
 77
     6
 78
     2
 67
     7
 79
     5
170
     0
171
     0
290
     0
174
     0
 93
       13
 44
0.0
173
     0
291
     1
 45
0.0
  0
VISUALSTYLE
  5
38
102
{ACAD_REACTORS
330
2A
102
}
102
{ACAD_XDICTIONARY
360
BD
102
}
330
2A
100
AcDbVisualStyle
  2
Linepattern
 70
    14
 71
     2
 72
     2
 73
     0
 90
        0
 40
-0.6
 41
-30.0
 62
     5
 63
     7
421
 16777215
 74
     1
 91
        4
 64
     7
 65
   257
 75
     7
175
     7
 42
1.0
 92
        8
 66
     7
 43
1.0
 76
     1
 77
     6
 78
     2
 67
     7
 79
     5
170
     0
171
     0
290
     0
174
     0
 93
        1
 44
0.0
173
     0
291
     1
 45
0.0
  0
VISUALSTYLE
  5
33
102
{ACAD_REACTORS
330
2A
102
}
102
{ACAD_XDICTIONARY
360
B3
102
}
330
2A
100
AcDbVisualStyle
  2
Realistic
 70
     8
 71
     2
 72
     2
 73
     0
 90
        0
 40
-0.6
 41
-30.0
 62
     5
 63
     7
421
 16777215
 74
     1
 91
        0
 64
     7
 65
   257
 75
     1
175
     1
 42
1.0
 92
        8
 66
     8
424
  7895160
 43
1.0
 76
     1
 77
     6
 78
     2
 67
     7
 79
     5
170
     0
171
     0
290
     0
174
     0
 93
       13
 44
0.0
173
     0
291
     0
 45
0.0
  0
VISUALSTYLE
  5
37
102
{ACAD_REACTORS
330
2A
102
}
102
{ACAD_XDICTIONARY
360
BB
102
}
330
2A
100
AcDbVisualStyle
  2
Thicken
 70
    13
 71
     2
 72
     2
 73
     0
 90
        0
 40
-0.6
 41
-30.0
 62
     5
 63
     7
421
 16777215
 74
     1
 91
        4
 64
     7
 65
   257
 75
     1
175
     1
 42
1.0
 92
       12
 66
     7
 43
1.0
 76
     1
 77
     6
 78
     2
 67
     7
 79
     5
170
     0
171
     0
290
     0
174
     0
 93
        1
 44
0.0
173
     0
291
     1
 45
0.0
  0
DICTIONARY
  5
AB
330
2F
100
AcDbDictionary
280
     1
281
     1
  3
ACAD_XREC_ROUNDTRIP
360
AC
  0
DICTIONARY
  5
AF
330
31
100
AcDbDictionary
280
     1
281
     1
  3
ACAD_XREC_ROUNDTRIP
360
B0
  0
DICTIONARY
  5
AD
330
30
100
AcDbDictionary
280
     1
281
     1
  3
ACAD_XREC_ROUNDTRIP
360
AE
  0
DICTIONARY
  5
B1
330
32
100
AcDbDictionary
280
     1
281
     1
  3
ACAD_XREC_ROUNDTRIP
360
B2
  0
DICTIONARY
  5
B9
330
36
100
AcDbDictionary
280
     1
281
     1
  3
ACAD_XREC_ROUNDTRIP
360
BA
  0
DICTIONARY
  5
C1
330
3A
100
AcDbDictionary
280
     1
281
     1
  3
ACAD_XREC_ROUNDTRIP
360
C2
  0
DICTIONARY
  5
B5
330
34
100
AcDbDictionary
280
     1
281
     1
  3
ACAD_XREC_ROUNDTRIP
360
B6
  0
DICTIONARY
  5
B7
330
35
100
AcDbDictionary
280
     1
281
     1
  3
ACAD_XREC_ROUNDTRIP
360
B8
  0
DICTIONARY
  5
BF
330
39
100
AcDbDictionary
280
     1
281
     1
  3
ACAD_XREC_ROUNDTRIP
360
C0
  0
DICTIONARY
  5
A3
330
2B
100
AcDbDictionary
280
     1
281
     1
  3
ACAD_XREC_ROUNDTRIP
360
A4
  0
DICTIONARY
  5
A5
330
2C
100
AcDbDictionary
280
     1
281
     1
  3
ACAD_XREC_ROUNDTRIP
360
A6
  0
DICTIONARY
  5
A7
330
2D
100
AcDbDictionary
280
     1
281
     1
  3
ACAD_XREC_ROUNDTRIP
360
A8
  0
DICTIONARY
  5
A9
330
2E
100
AcDbDictionary
280
     1
281
     1
  3
ACAD_XREC_ROUNDTRIP
360
AA
  0
DICTIONARY
  5
BD
330
38
100
AcDbDictionary
280
     1
281
     1
  3
ACAD_XREC_ROUNDTRIP
360
BE
  0
DICTIONARY
  5
B3
330
33
100
AcDbDictionary
280
     1
281
     1
  3
ACAD_XREC_ROUNDTRIP
360
B4
  0
DICTIONARY
  5
BB
330
37
100
AcDbDictionary
280
     1
281
     1
  3
ACAD_XREC_ROUNDTRIP
360
BC
  0
XRECORD
  5
AC
102
{ACAD_REACTORS
330
AB
102
}
330
AB
100
AcDbXrecord
280
     1
102
RTVSPropertyOp0
 70
     1
102
RTVSPropertyOp1
 70
     1
102
RTVSPropertyOp2
 70
     1
102
RTVSPropertyOp3
 70
     1
102
RTVSPropertyOp4
 70
     1
102
RTVSPropertyOp5
 70
     1
102
RTVSPropertyOp6
 70
     1
102
RTVSPropertyOp7
 70
     1
102
RTVSPropertyOp8
 70
     1
102
RTVSPropertyOp9
 70
     1
102
RTVSPropertyOp10
 70
     1
102
RTVSPropertyOp11
 70
     1
102
RTVSPropertyOp12
 70
     1
102
RTVSPropertyOp13
 70
     1
102
RTVSPropertyOp14
 70
     1
102
RTVSPropertyOp15
 70
     1
102
RTVSPropertyOp16
 70
     1
102
RTVSPropertyOp17
 70
     1
102
RTVSPropertyOp18
 70
     1
102
RTVSPropertyOp19
 70
     1
102
RTVSPropertyOp20
 70
     1
102
RTVSPropertyOp21
 70
     1
102
RTVSPropertyOp22
 70
     1
102
RTVSPropertyOp23
 70
     1
102
RTVSPropertyOp24
 70
     1
102
RTVSPropertyOp25
 70
     1
102
RTVSPropertyOp26
 70
     1
102
RTVSPropertyOp27
 70
     1
102
RTVSPropertyOp28
 70
     1
102
RTVSPropertyOp29
 70
     1
102
RTVSPropertyOp30
 70
     1
102
RTVSPropertyOp31
 70
     1
102
RTVSPropertyOp32
 70
     1
  0
XRECORD
  5
B0
102
{ACAD_REACTORS
330
AF
102
}
330
AF
100
AcDbXrecord
280
     1
102
RTVSPropertyOp0
 70
     1
102
RTVSPropertyOp1
 70
     1
102
RTVSPropertyOp2
 70
     1
102
RTVSPropertyOp3
 70
     1
102
RTVSPropertyOp4
 70
     1
102
RTVSPropertyOp5
 70
     1
102
RTVSPropertyOp6
 70
     1
102
RTVSPropertyOp7
 70
     1
102
RTVSPropertyOp8
 70
     1
102
RTVSPropertyOp9
 70
     1
102
RTVSPropertyOp10
 70
     1
102
RTVSPropertyOp11
 70
     1
102
RTVSPropertyOp12
 70
     1
102
RTVSPropertyOp13
 70
     1
102
RTVSPropertyOp14
 70
     1
102
RTVSPropertyOp15
 70
     1
102
RTVSPropertyOp16
 70
     1
102
RTVSPropertyOp17
 70
     1
102
RTVSPropertyOp18
 70
     1
102
RTVSPropertyOp19
 70
     1
102
RTVSPropertyOp20
 70
     1
102
RTVSPropertyOp21
 70
     1
102
RTVSPropertyOp22
 70
     1
102
RTVSPropertyOp23
 70
     1
102
RTVSPropertyOp24
 70
     1
102
RTVSPropertyOp25
 70
     1
102
RTVSPropertyOp26
 70
     1
102
RTVSPropertyOp27
 70
     1
102
RTVSPropertyOp28
 70
     1
102
RTVSPropertyOp29
 70
     1
102
RTVSPropertyOp30
 70
     1
102
RTVSPropertyOp31
 70
     1
102
RTVSPropertyOp32
 70
     1
  0
XRECORD
  5
AE
102
{ACAD_REACTORS
330
AD
102
}
330
AD
100
AcDbXrecord
280
     1
102
RTVSPropertyOp0
 70
     1
102
RTVSPropertyOp1
 70
     1
102
RTVSPropertyOp2
 70
     1
102
RTVSPropertyOp3
 70
     1
102
RTVSPropertyOp4
 70
     1
102
RTVSPropertyOp5
 70
     1
102
RTVSPropertyOp6
 70
     1
102
RTVSPropertyOp7
 70
     1
102
RTVSPropertyOp8
 70
     1
102
RTVSPropertyOp9
 70
     1
102
RTVSPropertyOp10
 70
     1
102
RTVSPropertyOp11
 70
     1
102
RTVSPropertyOp12
 70
     1
102
RTVSPropertyOp13
 70
     1
102
RTVSPropertyOp14
 70
     1
102
RTVSPropertyOp15
 70
     1
102
RTVSPropertyOp16
 70
     1
102
RTVSPropertyOp17
 70
     1
102
RTVSPropertyOp18
 70
     1
102
RTVSPropertyOp19
 70
     1
102
RTVSPropertyOp20
 70
     1
102
RTVSPropertyOp21
 70
     1
102
RTVSPropertyOp22
 70
     1
102
RTVSPropertyOp23
 70
     1
102
RTVSPropertyOp24
 70
     1
102
RTVSPropertyOp25
 70
     1
102
RTVSPropertyOp26
 70
     1
102
RTVSPropertyOp27
 70
     1
102
RTVSPropertyOp28
 70
     1
102
RTVSPropertyOp29
 70
     1
102
RTVSPropertyOp30
 70
     1
102
RTVSPropertyOp31
 70
     1
102
RTVSPropertyOp32
 70
     1
  0
XRECORD
  5
B2
102
{ACAD_REACTORS
330
B1
102
}
330
B1
100
AcDbXrecord
280
     1
102
RTVSPropertyOp0
 70
     1
102
RTVSPropertyOp1
 70
     1
102
RTVSPropertyOp2
 70
     1
102
RTVSPropertyOp3
 70
     1
102
RTVSPropertyOp4
 70
     1
102
RTVSPropertyOp5
 70
     1
102
RTVSPropertyOp6
 70
     1
102
RTVSPropertyOp7
 70
     1
102
RTVSPropertyOp8
 70
     1
102
RTVSPropertyOp9
 70
     1
102
RTVSPropertyOp10
 70
     1
102
RTVSPropertyOp11
 70
     1
102
RTVSPropertyOp12
 70
     1
102
RTVSPropertyOp13
 70
     1
102
RTVSPropertyOp14
 70
     1
102
RTVSPropertyOp15
 70
     1
102
RTVSPropertyOp16
 70
     1
102
RTVSPropertyOp17
 70
     1
102
RTVSPropertyOp18
 70
     1
102
RTVSPropertyOp19
 70
     1
102
RTVSPropertyOp20
 70
     1
102
RTVSPropertyOp21
 70
     1
102
RTVSPropertyOp22
 70
     1
102
RTVSPropertyOp23
 70
     1
102
RTVSPropertyOp24
 70
     1
102
RTVSPropertyOp25
 70
     1
102
RTVSPropertyOp26
 70
     1
102
RTVSPropertyOp27
 70
     1
102
RTVSPropertyOp28
 70
     1
102
RTVSPropertyOp29
 70
     1
102
RTVSPropertyOp30
 70
     1
102
RTVSPropertyOp31
 70
     1
102
RTVSPropertyOp32
 70
     1
  0
XRECORD
  5
BA
102
{ACAD_REACTORS
330
B9
102
}
330
B9
100
AcDbXrecord
280
     1
102
RTVSPropertyOp0
 70
     1
102
RTVSPropertyOp1
 70
     1
102
RTVSPropertyOp2
 70
     1
102
RTVSPropertyOp3
 70
     1
102
RTVSPropertyOp4
 70
     1
102
RTVSPropertyOp5
 70
     1
102
RTVSPropertyOp6
 70
     1
102
RTVSPropertyOp7
 70
     1
102
RTVSPropertyOp8
 70
     1
102
RTVSPropertyOp9
 70
     1
102
RTVSPropertyOp10
 70
     1
102
RTVSPropertyOp11
 70
     1
102
RTVSPropertyOp12
 70
     1
102
RTVSPropertyOp13
 70
     1
102
RTVSPropertyOp14
 70
     1
102
RTVSPropertyOp15
 70
     1
102
RTVSPropertyOp16
 70
     1
102
RTVSPropertyOp17
 70
     1
102
RTVSPropertyOp18
 70
     1
102
RTVSPropertyOp19
 70
     1
102
RTVSPropertyOp20
 70
     1
102
RTVSPropertyOp21
 70
     1
102
RTVSPropertyOp22
 70
     1
102
RTVSPropertyOp23
 70
     1
102
RTVSPropertyOp24
 70
     1
102
RTVSPropertyOp25
 70
     1
102
RTVSPropertyOp26
 70
     1
102
RTVSPropertyOp27
 70
     1
102
RTVSPropertyOp28
 70
     1
102
RTVSPropertyOp29
 70
     1
102
RTVSPropertyOp30
 70
     1
102
RTVSPropertyOp31
 70
     1
102
RTVSPropertyOp32
 70
     1
  0
XRECORD
  5
C2
102
{ACAD_REACTORS
330
C1
102
}
330
C1
100
AcDbXrecord
280
     1
102
RTVSPropertyOp0
 70
     1
102
RTVSPropertyOp1
 70
     1
102
RTVSPropertyOp2
 70
     1
102
RTVSPropertyOp3
 70
     1
102
RTVSPropertyOp4
 70
     1
102
RTVSPropertyOp5
 70
     1
102
RTVSPropertyOp6
 70
     1
102
RTVSPropertyOp7
 70
     1
102
RTVSPropertyOp8
 70
     1
102
RTVSPropertyOp9
 70
     1
102
RTVSPropertyOp10
 70
     1
102
RTVSPropertyOp11
 70
     1
102
RTVSPropertyOp12
 70
     1
102
RTVSPropertyOp13
 70
     1
102
RTVSPropertyOp14
 70
     1
102
RTVSPropertyOp15
 70
     1
102
RTVSPropertyOp16
 70
     1
102
RTVSPropertyOp17
 70
     1
102
RTVSPropertyOp18
 70
     1
102
RTVSPropertyOp19
 70
     1
102
RTVSPropertyOp20
 70
     1
102
RTVSPropertyOp21
 70
     1
102
RTVSPropertyOp22
 70
     1
102
RTVSPropertyOp23
 70
     1
102
RTVSPropertyOp24
 70
     1
102
RTVSPropertyOp25
 70
     1
102
RTVSPropertyOp26
 70
     1
102
RTVSPropertyOp27
 70
     1
102
RTVSPropertyOp28
 70
     1
102
RTVSPropertyOp29
 70
     1
102
RTVSPropertyOp30
 70
     1
102
RTVSPropertyOp31
 70
     1
102
RTVSPropertyOp32
 70
     1
  0
XRECORD
  5
B6
102
{ACAD_REACTORS
330
B5
102
}
330
B5
100
AcDbXrecord
280
     1
102
RTVSPropertyOp0
 70
     1
102
RTVSPropertyOp1
 70
     1
102
RTVSPropertyOp2
 70
     1
102
RTVSPropertyOp3
 70
     1
102
RTVSPropertyOp4
 70
     1
102
RTVSPropertyOp5
 70
     1
102
RTVSPropertyOp6
 70
     1
102
RTVSPropertyOp7
 70
     1
102
RTVSPropertyOp8
 70
     1
102
RTVSPropertyOp9
 70
     1
102
RTVSPropertyOp10
 70
     1
102
RTVSPropertyOp11
 70
     1
102
RTVSPropertyOp12
 70
     1
102
RTVSPropertyOp13
 70
     1
102
RTVSPropertyOp14
 70
     1
102
RTVSPropertyOp15
 70
     1
102
RTVSPropertyOp16
 70
     1
102
RTVSPropertyOp17
 70
     1
102
RTVSPropertyOp18
 70
     1
102
RTVSPropertyOp19
 70
     1
102
RTVSPropertyOp20
 70
     1
102
RTVSPropertyOp21
 70
     1
102
RTVSPropertyOp22
 70
     1
102
RTVSPropertyOp23
 70
     1
102
RTVSPropertyOp24
 70
     1
102
RTVSPropertyOp25
 70
     1
102
RTVSPropertyOp26
 70
     1
102
RTVSPropertyOp27
 70
     1
102
RTVSPropertyOp28
 70
     1
102
RTVSPropertyOp29
 70
     1
102
RTVSPropertyOp30
 70
     1
102
RTVSPropertyOp31
 70
     1
102
RTVSPropertyOp32
 70
     1
  0
XRECORD
  5
B8
102
{ACAD_REACTORS
330
B7
102
}
330
B7
100
AcDbXrecord
280
     1
102
RTVSPropertyOp0
 70
     1
102
RTVSPropertyOp1
 70
     1
102
RTVSPropertyOp2
 70
     1
102
RTVSPropertyOp3
 70
     1
102
RTVSPropertyOp4
 70
     1
102
RTVSPropertyOp5
 70
     1
102
RTVSPropertyOp6
 70
     1
102
RTVSPropertyOp7
 70
     1
102
RTVSPropertyOp8
 70
     1
102
RTVSPropertyOp9
 70
     1
102
RTVSPropertyOp10
 70
     1
102
RTVSPropertyOp11
 70
     1
102
RTVSPropertyOp12
 70
     1
102
RTVSPropertyOp13
 70
     1
102
RTVSPropertyOp14
 70
     1
102
RTVSPropertyOp15
 70
     1
102
RTVSPropertyOp16
 70
     1
102
RTVSPropertyOp17
 70
     1
102
RTVSPropertyOp18
 70
     1
102
RTVSPropertyOp19
 70
     1
102
RTVSPropertyOp20
 70
     1
102
RTVSPropertyOp21
 70
     1
102
RTVSPropertyOp22
 70
     1
102
RTVSPropertyOp23
 70
     1
102
RTVSPropertyOp24
 70
     1
102
RTVSPropertyOp25
 70
     1
102
RTVSPropertyOp26
 70
     1
102
RTVSPropertyOp27
 70
     1
102
RTVSPropertyOp28
 70
     1
102
RTVSPropertyOp29
 70
     1
102
RTVSPropertyOp30
 70
     1
102
RTVSPropertyOp31
 70
     1
102
RTVSPropertyOp32
 70
     1
  0
XRECORD
  5
C0
102
{ACAD_REACTORS
330
BF
102
}
330
BF
100
AcDbXrecord
280
     1
102
RTVSPropertyOp0
 70
     1
102
RTVSPropertyOp1
 70
     1
102
RTVSPropertyOp2
 70
     1
102
RTVSPropertyOp3
 70
     1
102
RTVSPropertyOp4
 70
     1
102
RTVSPropertyOp5
 70
     1
102
RTVSPropertyOp6
 70
     1
102
RTVSPropertyOp7
 70
     1
102
RTVSPropertyOp8
 70
     1
102
RTVSPropertyOp9
 70
     1
102
RTVSPropertyOp10
 70
     1
102
RTVSPropertyOp11
 70
     1
102
RTVSPropertyOp12
 70
     1
102
RTVSPropertyOp13
 70
     1
102
RTVSPropertyOp14
 70
     1
102
RTVSPropertyOp15
 70
     1
102
RTVSPropertyOp16
 70
     1
102
RTVSPropertyOp17
 70
     1
102
RTVSPropertyOp18
 70
     1
102
RTVSPropertyOp19
 70
     1
102
RTVSPropertyOp20
 70
     1
102
RTVSPropertyOp21
 70
     1
102
RTVSPropertyOp22
 70
     1
102
RTVSPropertyOp23
 70
     1
102
RTVSPropertyOp24
 70
     1
102
RTVSPropertyOp25
 70
     1
102
RTVSPropertyOp26
 70
     1
102
RTVSPropertyOp27
 70
     1
102
RTVSPropertyOp28
 70
     1
102
RTVSPropertyOp29
 70
     1
102
RTVSPropertyOp30
 70
     1
102
RTVSPropertyOp31
 70
     1
102
RTVSPropertyOp32
 70
     1
  0
XRECORD
  5
A4
102
{ACAD_REACTORS
330
A3
102
}
330
A3
100
AcDbXrecord
280
     1
102
RTVSPropertyOp0
 70
     1
102
RTVSPropertyOp1
 70
     1
102
RTVSPropertyOp2
 70
     1
102
RTVSPropertyOp3
 70
     1
102
RTVSPropertyOp4
 70
     1
102
RTVSPropertyOp5
 70
     1
102
RTVSPropertyOp6
 70
     1
102
RTVSPropertyOp7
 70
     1
102
RTVSPropertyOp8
 70
     1
102
RTVSPropertyOp9
 70
     1
102
RTVSPropertyOp10
 70
     1
102
RTVSPropertyOp11
 70
     1
102
RTVSPropertyOp12
 70
     1
102
RTVSPropertyOp13
 70
     1
102
RTVSPropertyOp14
 70
     1
102
RTVSPropertyOp15
 70
     1
102
RTVSPropertyOp16
 70
     1
102
RTVSPropertyOp17
 70
     1
102
RTVSPropertyOp18
 70
     1
102
RTVSPropertyOp19
 70
     1
102
RTVSPropertyOp20
 70
     1
102
RTVSPropertyOp21
 70
     1
102
RTVSPropertyOp22
 70
     1
102
RTVSPropertyOp23
 70
     1
102
RTVSPropertyOp24
 70
     1
102
RTVSPropertyOp25
 70
     1
102
RTVSPropertyOp26
 70
     1
102
RTVSPropertyOp27
 70
     1
102
RTVSPropertyOp28
 70
     1
102
RTVSPropertyOp29
 70
     1
102
RTVSPropertyOp30
 70
     1
102
RTVSPropertyOp31
 70
     1
102
RTVSPropertyOp32
 70
     1
  0
XRECORD
  5
A6
102
{ACAD_REACTORS
330
A5
102
}
330
A5
100
AcDbXrecord
280
     1
102
RTVSPropertyOp0
 70
     1
102
RTVSPropertyOp1
 70
     1
102
RTVSPropertyOp2
 70
     1
102
RTVSPropertyOp3
 70
     1
102
RTVSPropertyOp4
 70
     1
102
RTVSPropertyOp5
 70
     1
102
RTVSPropertyOp6
 70
     1
102
RTVSPropertyOp7
 70
     1
102
RTVSPropertyOp8
 70
     1
102
RTVSPropertyOp9
 70
     1
102
RTVSPropertyOp10
 70
     1
102
RTVSPropertyOp11
 70
     1
102
RTVSPropertyOp12
 70
     1
102
RTVSPropertyOp13
 70
     1
102
RTVSPropertyOp14
 70
     1
102
RTVSPropertyOp15
 70
     1
102
RTVSPropertyOp16
 70
     1
102
RTVSPropertyOp17
 70
     1
102
RTVSPropertyOp18
 70
     1
102
RTVSPropertyOp19
 70
     1
102
RTVSPropertyOp20
 70
     1
102
RTVSPropertyOp21
 70
     1
102
RTVSPropertyOp22
 70
     1
102
RTVSPropertyOp23
 70
     1
102
RTVSPropertyOp24
 70
     1
102
RTVSPropertyOp25
 70
     1
102
RTVSPropertyOp26
 70
     1
102
RTVSPropertyOp27
 70
     1
102
RTVSPropertyOp28
 70
     1
102
RTVSPropertyOp29
 70
     1
102
RTVSPropertyOp30
 70
     1
102
RTVSPropertyOp31
 70
     1
102
RTVSPropertyOp32
 70
     1
  0
XRECORD
  5
A8
102
{ACAD_REACTORS
330
A7
102
}
330
A7
100
AcDbXrecord
280
     1
102
RTVSPropertyOp0
 70
     1
102
RTVSPropertyOp1
 70
     1
102
RTVSPropertyOp2
 70
     1
102
RTVSPropertyOp3
 70
     1
102
RTVSPropertyOp4
 70
     1
102
RTVSPropertyOp5
 70
     1
102
RTVSPropertyOp6
 70
     1
102
RTVSPropertyOp7
 70
     1
102
RTVSPropertyOp8
 70
     1
102
RTVSPropertyOp9
 70
     1
102
RTVSPropertyOp10
 70
     1
102
RTVSPropertyOp11
 70
     1
102
RTVSPropertyOp12
 70
     1
102
RTVSPropertyOp13
 70
     1
102
RTVSPropertyOp14
 70
     1
102
RTVSPropertyOp15
 70
     1
102
RTVSPropertyOp16
 70
     1
102
RTVSPropertyOp17
 70
     1
102
RTVSPropertyOp18
 70
     1
102
RTVSPropertyOp19
 70
     1
102
RTVSPropertyOp20
 70
     1
102
RTVSPropertyOp21
 70
     1
102
RTVSPropertyOp22
 70
     1
102
RTVSPropertyOp23
 70
     1
102
RTVSPropertyOp24
 70
     1
102
RTVSPropertyOp25
 70
     1
102
RTVSPropertyOp26
 70
     1
102
RTVSPropertyOp27
 70
     1
102
RTVSPropertyOp28
 70
     1
102
RTVSPropertyOp29
 70
     1
102
RTVSPropertyOp30
 70
     1
102
RTVSPropertyOp31
 70
     1
102
RTVSPropertyOp32
 70
     1
  0
XRECORD
  5
AA
102
{ACAD_REACTORS
330
A9
102
}
330
A9
100
AcDbXrecord
280
     1
102
RTVSPropertyOp0
 70
     1
102
RTVSPropertyOp1
 70
     1
102
RTVSPropertyOp2
 70
     1
102
RTVSPropertyOp3
 70
     1
102
RTVSPropertyOp4
 70
     1
102
RTVSPropertyOp5
 70
     1
102
RTVSPropertyOp6
 70
     1
102
RTVSPropertyOp7
 70
     1
102
RTVSPropertyOp8
 70
     1
102
RTVSPropertyOp9
 70
     1
102
RTVSPropertyOp10
 70
     1
102
RTVSPropertyOp11
 70
     1
102
RTVSPropertyOp12
 70
     1
102
RTVSPropertyOp13
 70
     1
102
RTVSPropertyOp14
 70
     1
102
RTVSPropertyOp15
 70
     1
102
RTVSPropertyOp16
 70
     1
102
RTVSPropertyOp17
 70
     1
102
RTVSPropertyOp18
 70
     1
102
RTVSPropertyOp19
 70
     1
102
RTVSPropertyOp20
 70
     1
102
RTVSPropertyOp21
 70
     1
102
RTVSPropertyOp22
 70
     1
102
RTVSPropertyOp23
 70
     1
102
RTVSPropertyOp24
 70
     1
102
RTVSPropertyOp25
 70
     1
102
RTVSPropertyOp26
 70
     1
102
RTVSPropertyOp27
 70
     1
102
RTVSPropertyOp28
 70
     1
102
RTVSPropertyOp29
 70
     1
102
RTVSPropertyOp30
 70
     1
102
RTVSPropertyOp31
 70
     1
102
RTVSPropertyOp32
 70
     1
  0
XRECORD
  5
BE
102
{ACAD_REACTORS
330
BD
102
}
330
BD
100
AcDbXrecord
280
     1
102
RTVSPropertyOp0
 70
     1
102
RTVSPropertyOp1
 70
     1
102
RTVSPropertyOp2
 70
     1
102
RTVSPropertyOp3
 70
     1
102
RTVSPropertyOp4
 70
     1
102
RTVSPropertyOp5
 70
     1
102
RTVSPropertyOp6
 70
     1
102
RTVSPropertyOp7
 70
     1
102
RTVSPropertyOp8
 70
     1
102
RTVSPropertyOp9
 70
     1
102
RTVSPropertyOp10
 70
     1
102
RTVSPropertyOp11
 70
     1
102
RTVSPropertyOp12
 70
     1
102
RTVSPropertyOp13
 70
     1
102
RTVSPropertyOp14
 70
     1
102
RTVSPropertyOp15
 70
     1
102
RTVSPropertyOp16
 70
     1
102
RTVSPropertyOp17
 70
     1
102
RTVSPropertyOp18
 70
     1
102
RTVSPropertyOp19
 70
     1
102
RTVSPropertyOp20
 70
     1
102
RTVSPropertyOp21
 70
     1
102
RTVSPropertyOp22
 70
     1
102
RTVSPropertyOp23
 70
     1
102
RTVSPropertyOp24
 70
     1
102
RTVSPropertyOp25
 70
     1
102
RTVSPropertyOp26
 70
     1
102
RTVSPropertyOp27
 70
     1
102
RTVSPropertyOp28
 70
     1
102
RTVSPropertyOp29
 70
     1
102
RTVSPropertyOp30
 70
     1
102
RTVSPropertyOp31
 70
     1
102
RTVSPropertyOp32
 70
     1
  0
XRECORD
  5
B4
102
{ACAD_REACTORS
330
B3
102
}
330
B3
100
AcDbXrecord
280
     1
102
RTVSPropertyOp0
 70
     1
102
RTVSPropertyOp1
 70
     1
102
RTVSPropertyOp2
 70
     1
102
RTVSPropertyOp3
 70
     1
102
RTVSPropertyOp4
 70
     1
102
RTVSPropertyOp5
 70
     1
102
RTVSPropertyOp6
 70
     1
102
RTVSPropertyOp7
 70
     1
102
RTVSPropertyOp8
 70
     1
102
RTVSPropertyOp9
 70
     1
102
RTVSPropertyOp10
 70
     1
102
RTVSPropertyOp11
 70
     1
102
RTVSPropertyOp12
 70
     1
102
RTVSPropertyOp13
 70
     1
102
RTVSPropertyOp14
 70
     1
102
RTVSPropertyOp15
 70
     1
102
RTVSPropertyOp16
 70
     1
102
RTVSPropertyOp17
 70
     1
102
RTVSPropertyOp18
 70
     1
102
RTVSPropertyOp19
 70
     1
102
RTVSPropertyOp20
 70
     1
102
RTVSPropertyOp21
 70
     1
102
RTVSPropertyOp22
 70
     1
102
RTVSPropertyOp23
 70
     1
102
RTVSPropertyOp24
 70
     1
102
RTVSPropertyOp25
 70
     1
102
RTVSPropertyOp26
 70
     1
102
RTVSPropertyOp27
 70
     1
102
RTVSPropertyOp28
 70
     1
102
RTVSPropertyOp29
 70
     1
102
RTVSPropertyOp30
 70
     1
102
RTVSPropertyOp31
 70
     1
102
RTVSPropertyOp32
 70
     1
  0
XRECORD
  5
BC
102
{ACAD_REACTORS
330
BB
102
}
330
BB
100
AcDbXrecord
280
     1
102
RTVSPropertyOp0
 70
     1
102
RTVSPropertyOp1
 70
     1
102
RTVSPropertyOp2
 70
     1
102
RTVSPropertyOp3
 70
     1
102
RTVSPropertyOp4
 70
     1
102
RTVSPropertyOp5
 70
     1
102
RTVSPropertyOp6
 70
     1
102
RTVSPropertyOp7
 70
     1
102
RTVSPropertyOp8
 70
     1
102
RTVSPropertyOp9
 70
     1
102
RTVSPropertyOp10
 70
     1
102
RTVSPropertyOp11
 70
     1
102
RTVSPropertyOp12
 70
     1
102
RTVSPropertyOp13
 70
     1
102
RTVSPropertyOp14
 70
     1
102
RTVSPropertyOp15
 70
     1
102
RTVSPropertyOp16
 70
     1
102
RTVSPropertyOp17
 70
     1
102
RTVSPropertyOp18
 70
     1
102
RTVSPropertyOp19
 70
     1
102
RTVSPropertyOp20
 70
     1
102
RTVSPropertyOp21
 70
     1
102
RTVSPropertyOp22
 70
     1
102
RTVSPropertyOp23
 70
     1
102
RTVSPropertyOp24
 70
     1
102
RTVSPropertyOp25
 70
     1
102
RTVSPropertyOp26
 70
     1
102
RTVSPropertyOp27
 70
     1
102
RTVSPropertyOp28
 70
     1
102
RTVSPropertyOp29
 70
     1
102
RTVSPropertyOp30
 70
     1
102
RTVSPropertyOp31
 70
     1
102
RTVSPropertyOp32
 70
     1
  0
ENDSEC
  0
EOF
