  0
SECTION
  2
HEADER
  9
$ACADVER
  1
AC1021
  9
$ACADMAINTVER
 70
    25
  9
$DWGCODEPAGE
  3
ANSI_1252
  9
$INSBASE
 10
0.0
 20
0.0
 30
0.0
  9
$EXTMIN
 10
-187.5775
 20
-115.1061
 30
0.0
  9
$EXTMAX
 10
8.3154
 20
131.9081
 30
0.0
  9
$LIMMIN
 10
0.0
 20
0.0
  9
$LIMMAX
 10
12.0
 20
9.0
  9
$ORTHOMODE
 70
     0
  9
$REGENMODE
 70
     1
  9
$FILLMODE
 70
     1
  9
$QTEXTMODE
 70
     0
  9
$MIRRTEXT
 70
     1
  9
$LTSCALE
 40
1.0
  9
$ATTMODE
 70
     1
  9
$TEXTSIZE
 40
0.2
  9
$TRACEWID
 40
0.05
  9
$TEXTSTYLE
  7
Standard
  9
$CLAYER
  8
0
  9
$CELTYPE
  6
ByLayer
  9
$CECOLOR
 62
   256
  9
$CELTSCALE
 40
1.0
  9
$DISPSILH
 70
     0
  9
$DIMSCALE
 40
1.0
  9
$DIMASZ
 40
0.18
  9
$DIMEXO
 40
0.0625
  9
$DIMDLI
 40
0.38
  9
$DIMRND
 40
0.0
  9
$DIMDLE
 40
0.0
  9
$DIMEXE
 40
0.18
  9
$DIMTP
 40
0.0
  9
$DIMTM
 40
0.0
  9
$DIMTXT
 40
0.18
  9
$DIMCEN
 40
0.09
  9
$DIMTSZ
 40
0.0
  9
$DIMTOL
 70
     0
  9
$DIMLIM
 70
     0
  9
$DIMTIH
 70
     1
  9
$DIMTOH
 70
     1
  9
$DIMSE1
 70
     0
  9
$DIMSE2
 70
     0
  9
$DIMTAD
 70
     0
  9
$DIMZIN
 70
     0
  9
$DIMBLK
  1

  9
$DIMASO
 70
     1
  9
$DIMSHO
 70
     1
  9
$DIMPOST
  1

  9
$DIMAPOST
  1

  9
$DIMALT
 70
     0
  9
$DIMALTD
 70
     2
  9
$DIMALTF
 40
25.4
  9
$DIMLFAC
 40
1.0
  9
$DIMTOFL
 70
     0
  9
$DIMTVP
 40
0.0
  9
$DIMTIX
 70
     0
  9
$DIMSOXD
 70
     0
  9
$DIMSAH
 70
     0
  9
$DIMBLK1
  1

  9
$DIMBLK2
  1

  9
$DIMSTYLE
  2
Standard
  9
$DIMCLRD
 70
     0
  9
$DIMCLRE
 70
     0
  9
$DIMCLRT
 70
     0
  9
$DIMTFAC
 40
1.0
  9
$DIMGAP
 40
0.09
  9
$DIMJUST
 70
     0
  9
$DIMSD1
 70
     0
  9
$DIMSD2
 70
     0
  9
$DIMTOLJ
 70
     1
  9
$DIMTZIN
 70
     0
  9
$DIMALTZ
 70
     0
  9
$DIMALTTZ
 70
     0
  9
$DIMUPT
 70
     0
  9
$DIMDEC
 70
     4
  9
$DIMTDEC
 70
     4
  9
$DIMALTU
 70
     2
  9
$DIMALTTD
 70
     2
  9
$DIMTXSTY
  7
Standard
  9
$DIMAUNIT
 70
     0
  9
$DIMADEC
 70
     0
  9
$DIMALTRND
 40
0.0
  9
$DIMAZIN
 70
     0
  9
$DIMDSEP
 70
    46
  9
$DIMATFIT
 70
     3
  9
$DIMFRAC
 70
     0
  9
$DIMLDRBLK
  1

  9
$DIMLUNIT
 70
     2
  9
$DIMLWD
 70
    -2
  9
$DIMLWE
 70
    -2
  9
$DIMTMOVE
 70
     0
  9
$DIMFXL
 40
1.0
  9
$DIMFXLON
 70
     0
  9
$DIMJOGANG
 40
0.7853981633974483
  9
$DIMTFILL
 70
     0
  9
$DIMTFILLCLR
 70
     0
  9
$DIMARCSYM
 70
     0
  9
$DIMLTYPE
  6

  9
$DIMLTEX1
  6

  9
$DIMLTEX2
  6

  9
$LUNITS
 70
     2
  9
$LUPREC
 70
     4
  9
$SKETCHINC
 40
0.1
  9
$FILLETRAD
 40
0.5
  9
$AUNITS
 70
     0
  9
$AUPREC
 70
     0
  9
$MENU
  1
.
  9
$ELEVATION
 40
0.0
  9
$PELEVATION
 40
0.0
  9
$THICKNESS
 40
0.0
  9
$LIMCHECK
 70
     0
  9
$CHAMFERA
 40
0.5
  9
$CHAMFERB
 40
0.5
  9
$CHAMFERC
 40
1.0
  9
$CHAMFERD
 40
0.0
  9
$SKPOLY
 70
     0
  9
$TDCREATE
 40
2458493.672432628
  9
$TDUCREATE
 40
2458493.672432628
  9
$TDUPDATE
 40
2458493.67243272
  9
$TDUUPDATE
 40
2458493.67243272
  9
$TDINDWG
 40
0.0000000116
  9
$TDUSRTIMER
 40
0.0000000116
  9
$USRTIMER
 70
     1
  9
$ANGBASE
 50
0.0
  9
$ANGDIR
 70
     0
  9
$PDMODE
 70
     0
  9
$PDSIZE
 40
0.0
  9
$PLINEWID
 40
0.0
  9
$SPLFRAME
 70
     0
  9
$SPLINETYPE
 70
     6
  9
$SPLINESEGS
 70
     8
  9
$HANDSEED
  5
C1
  9
$SURFTAB1
 70
     6
  9
$SURFTAB2
 70
     6
  9
$SURFTYPE
 70
     6
  9
$SURFU
 70
     6
  9
$SURFV
 70
     6
  9
$UCSBASE
  2

  9
$UCSNAME
  2

  9
$UCSORG
 10
0.0
 20
0.0
 30
0.0
  9
$UCSXDIR
 10
1.0
 20
0.0
 30
0.0
  9
$UCSYDIR
 10
0.0
 20
1.0
 30
0.0
  9
$UCSORTHOREF
  2

  9
$UCSORTHOVIEW
 70
     0
  9
$UCSORGTOP
 10
0.0
 20
0.0
 30
0.0
  9
$UCSORGBOTTOM
 10
0.0
 20
0.0
 30
0.0
  9
$UCSORGLEFT
 10
0.0
 20
0.0
 30
0.0
  9
$UCSORGRIGHT
 10
0.0
 20
0.0
 30
0.0
  9
$UCSORGFRONT
 10
0.0
 20
0.0
 30
0.0
  9
$UCSORGBACK
 10
0.0
 20
0.0
 30
0.0
  9
$PUCSBASE
  2

  9
$PUCSNAME
  2

  9
$PUCSORG
 10
0.0
 20
0.0
 30
0.0
  9
$PUCSXDIR
 10
1.0
 20
0.0
 30
0.0
  9
$PUCSYDIR
 10
0.0
 20
1.0
 30
0.0
  9
$PUCSORTHOREF
  2

  9
$PUCSORTHOVIEW
 70
     0
  9
$PUCSORGTOP
 10
0.0
 20
0.0
 30
0.0
  9
$PUCSORGBOTTOM
 10
0.0
 20
0.0
 30
0.0
  9
$PUCSORGLEFT
 10
0.0
 20
0.0
 30
0.0
  9
$PUCSORGRIGHT
 10
0.0
 20
0.0
 30
0.0
  9
$PUCSORGFRONT
 10
0.0
 20
0.0
 30
0.0
  9
$PUCSORGBACK
 10
0.0
 20
0.0
 30
0.0
  9
$USERI1
 70
     0
  9
$USERI2
 70
     0
  9
$USERI3
 70
     0
  9
$USERI4
 70
     0
  9
$USERI5
 70
     0
  9
$USERR1
 40
0.0
  9
$USERR2
 40
0.0
  9
$USERR3
 40
0.0
  9
$USERR4
 40
0.0
  9
$USERR5
 40
0.0
  9
$WORLDVIEW
 70
     1
  9
$SHADEDGE
 70
     3
  9
$SHADEDIF
 70
    70
  9
$TILEMODE
 70
     1
  9
$MAXACTVP
 70
    64
  9
$PINSBASE
 10
0.0
 20
0.0
 30
0.0
  9
$PLIMCHECK
 70
     0
  9
$PEXTMIN
 10
1.000000000000000E+20
 20
1.000000000000000E+20
 30
1.000000000000000E+20
  9
$PEXTMAX
 10
-1.000000000000000E+20
 20
-1.000000000000000E+20
 30
-1.000000000000000E+20
  9
$PLIMMIN
 10
0.0
 20
0.0
  9
$PLIMMAX
 10
12.0
 20
9.0
  9
$UNITMODE
 70
     0
  9
$VISRETAIN
 70
     1
  9
$PLINEGEN
 70
     0
  9
$PSLTSCALE
 70
     1
  9
$TREEDEPTH
 70
  3020
  9
$CMLSTYLE
  2
Standard
  9
$CMLJUST
 70
     0
  9
$CMLSCALE
 40
1.0
  9
$PROXYGRAPHICS
 70
     1
  9
$MEASUREMENT
 70
     0
  9
$CELWEIGHT
370
    -1
  9
$ENDCAPS
280
     0
  9
$JOINSTYLE
280
     0
  9
$LWDISPLAY
290
     0
  9
$INSUNITS
 70
     4
  9
$HYPERLINKBASE
  1

  9
$STYLESHEET
  1

  9
$XEDIT
290
     1
  9
$CEPSNTYPE
380
     0
  9
$PSTYLEMODE
290
     1
  9
$FINGERPRINTGUID
  2
{3F22E0FC-3AD5-4457-A011-2FBAB797A1E0}
  9
$VERSIONGUID
  2
{FAEB1C32-E019-11D5-929B-00C0DF256EC4}
  9
$EXTNAMES
290
     1
  9
$PSVPSCALE
 40
0.0
  9
$OLESTARTUP
290
     0
  9
$SORTENTS
280
   127
  9
$INDEXCTL
280
     0
  9
$HIDETEXT
280
     1
  9
$XCLIPFRAME
290
     0
  9
$HALOGAP
280
     0
  9
$OBSCOLOR
 70
   257
  9
$OBSLTYPE
280
     0
  9
$INTERSECTIONDISPLAY
280
     0
  9
$INTERSECTIONCOLOR
 70
   257
  9
$DIMASSOC
280
     2
  9
$PROJECTNAME
  1

  9
$CAMERADISPLAY
290
     0
  9
$LENSLENGTH
 40
50.0
  9
$CAMERAHEIGHT
 40
0.0
  9
$STEPSPERSEC
 40
2.0
  9
$STEPSIZE
 40
6.0
  9
$3DDWFPREC
 40
2.0
  9
$PSOLWIDTH
 40
0.25
  9
$PSOLHEIGHT
 40
4.0
  9
$LOFTANG1
 40
1.570796326794897
  9
$LOFTANG2
 40
1.570796326794897
  9
$LOFTMAG1
 40
0.0
  9
$LOFTMAG2
 40
0.0
  9
$LOFTPARAM
 70
     7
  9
$LOFTNORMALS
280
     1
  9
$LATITUDE
 40
37.795
  9
$LONGITUDE
 40
-122.394
  9
$NORTHDIRECTION
 40
0.0
  9
$TIMEZONE
 70
 -8000
  9
$LIGHTGLYPHDISPLAY
280
     1
  9
$TILEMODELIGHTSYNCH
280
     1
  9
$SOLIDHIST
280
     1
  9
$SHOWHIST
280
     1
  9
$DWFFRAME
280
     2
  9
$DGNFRAME
280
     2
  9
$REALWORLDSCALE
290
     1
  9
$INTERFERECOLOR
 62
   256
  9
$CSHADOW
280
     0
  9
$SHADOWPLANELOCATION
 40
0.0
  0
ENDSEC
  0
SECTION
  2
CLASSES
  0
CLASS
  1
ACDBDICTIONARYWDFLT
  2
AcDbDictionaryWithDefault
  3
ObjectDBX Classes
 90
        0
 91
        4
280
     0
281
     0
  0
CLASS
  1
VISUALSTYLE
  2
AcDbVisualStyle
  3
ObjectDBX Classes
 90
     4095
 91
        4
280
     0
281
     0
  0
CLASS
  1
MATERIAL
  2
AcDbMaterial
  3
ObjectDBX Classes
 90
     1153
 91
        4
280
     0
281
     0
  0
ENDSEC
  0
SECTION
  2
TABLES
  0
TABLE
  2
VPORT
  5
8
330
0
100
AcDbSymbolTable
 70
     1
  0
VPORT
  5
29
330
8
100
AcDbSymbolTableRecord
100
AcDbViewportTableRecord
  2
*Active
 70
     0
 10
0.0
 20
0.0
 11
1.0
 21
1.0
 12
10.42990654205607
 22
4.5
 13
0.0
 23
0.0
 14
0.5
 24
0.5
 15
0.5
 25
0.5
 16
0.0
 26
0.0
 36
1.0
 17
0.0
 27
0.0
 37
0.0
 40
9.0
 41
1.972972972850329
 42
50.0
 43
0.0
 44
0.0
 50
0.0
 51
0.0
 71
     0
 72
   100
 73
     1
 74
     3
 75
     0
 76
     0
 77
     0
 78
     0
281
     0
 65
     1
110
0.0
120
0.0
130
0.0
111
1.0
121
0.0
131
0.0
112
0.0
122
1.0
132
0.0
 79
     0
146
0.0
 60
     3
 61
     5
292
     1
282
     1
141
0.0
142
0.0
 63
   250
  0
ENDTAB
  0
TABLE
  2
LTYPE
  5
5
330
0
100
AcDbSymbolTable
 70
     1
  0
LTYPE
  5
14
330
5
100
AcDbSymbolTableRecord
100
AcDbLinetypeTableRecord
  2
ByBlock
 70
     0
  3

 72
    65
 73
     0
 40
0.0
  0
LTYPE
  5
15
330
5
100
AcDbSymbolTableRecord
100
AcDbLinetypeTableRecord
  2
ByLayer
 70
     0
  3

 72
    65
 73
     0
 40
0.0
  0
LTYPE
  5
16
330
5
100
AcDbSymbolTableRecord
100
AcDbLinetypeTableRecord
  2
Continuous
 70
     0
  3
Solid line
 72
    65
 73
     0
 40
0.0
  0
ENDTAB
  0
TABLE
  2
LAYER
  5
2
330
0
100
AcDbSymbolTable
 70
     3
  0
LAYER
  5
10
330
2
100
AcDbSymbolTableRecord
100
AcDbLayerTableRecord
  2
0
 70
     0
 62
     7
  6
Continuous
370
    -3
390
F
347
3E
  0
LAYER
  5
40
330
2
100
AcDbSymbolTableRecord
100
AcDbLayerTableRecord
  2
layer 1
 70
     0
 62
     7
  6
Continuous
370
    -3
390
F
347
3E
  0
LAYER
  5
9E
330
2
100
AcDbSymbolTableRecord
100
AcDbLayerTableRecord
  2
Master Guides
 70
     0
 62
     7
  6
Continuous
370
    -3
390
F
347
3E
  0
ENDTAB
  0
TABLE
  2
STYLE
  5
3
330
0
100
AcDbSymbolTable
 70
     1
  0
STYLE
  5
11
330
3
100
AcDbSymbolTableRecord
100
AcDbTextStyleTableRecord
  2
Standard
 70
     0
 40
0.0
 41
1.0
 50
0.0
 71
     0
 42
0.2
  3
txt
  4

  0
ENDTAB
  0
TABLE
  2
VIEW
  5
6
330
0
100
AcDbSymbolTable
 70
     0
  0
ENDTAB
  0
TABLE
  2
UCS
  5
7
330
0
100
AcDbSymbolTable
 70
     0
  0
ENDTAB
  0
TABLE
  2
APPID
  5
9
330
0
100
AcDbSymbolTable
 70
     2
  0
APPID
  5
12
330
9
100
AcDbSymbolTableRecord
100
AcDbRegAppTableRecord
  2
ACAD
 70
     0
  0
APPID
  5
3F
330
9
100
AcDbSymbolTableRecord
100
AcDbRegAppTableRecord
  2
ODA
 70
     0
  0
ENDTAB
  0
TABLE
  2
DIMSTYLE
  5
A
330
0
100
AcDbSymbolTable
 70
     1
100
AcDbDimStyleTable
  0
DIMSTYLE
105
27
330
A
100
AcDbSymbolTableRecord
100
AcDbDimStyleTableRecord
  2
Standard
 70
     0
178
     0
340
11
  0
ENDTAB
  0
TABLE
  2
BLOCK_RECORD
  5
1
330
0
100
AcDbSymbolTable
 70
     1
  0
BLOCK_RECORD
  5
1F
330
1
100
AcDbSymbolTableRecord
100
AcDbBlockTableRecord
  2
*Model_Space
340
22
 70
     0
280
     1
281
     0
  0
BLOCK_RECORD
  5
1B
330
1
100
AcDbSymbolTableRecord
100
AcDbBlockTableRecord
  2
*Paper_Space
340
1E
 70
     0
280
     1
281
     0
  0
BLOCK_RECORD
  5
23
330
1
100
AcDbSymbolTableRecord
100
AcDbBlockTableRecord
  2
*Paper_Space0
340
26
 70
     0
280
     1
281
     0
  0
ENDTAB
  0
ENDSEC
  0
SECTION
  2
BLOCKS
  0
BLOCK
  5
20
330
1F
100
AcDbEntity
  8
0
100
AcDbBlockBegin
  2
*Model_Space
 70
     0
 10
0.0
 20
0.0
 30
0.0
  3
*Model_Space
  1

  0
ENDBLK
  5
21
330
1F
100
AcDbEntity
  8
0
100
AcDbBlockEnd
  0
BLOCK
  5
1C
330
1B
100
AcDbEntity
 67
     1
  8
0
100
AcDbBlockBegin
  2
*Paper_Space
 70
     0
 10
0.0
 20
0.0
 30
0.0
  3
*Paper_Space
  1

  0
ENDBLK
  5
1D
330
1B
100
AcDbEntity
 67
     1
  8
0
100
AcDbBlockEnd
  0
BLOCK
  5
24
330
23
100
AcDbEntity
  8
0
100
AcDbBlockBegin
  2
*Paper_Space0
 70
     0
 10
0.0
 20
0.0
 30
0.0
  3
*Paper_Space0
  1

  0
ENDBLK
  5
25
330
23
100
AcDbEntity
  8
0
100
AcDbBlockEnd
  0
ENDSEC
  0
SECTION
  2
ENTITIES
  0
SPLINE
  5
41
330
1F
100
AcDbEntity
  8
layer 1
 62
   250
100
AcDbSpline
210
0.0
220
0.0
230
1.0
 70
    11
 71
     3
 72
    20
 73
    16
 74
     0
 42
0.0000000001
 43
0.0000000001
 12
1.0
 22
0.0
 32
0.0
 13
1.0
 23
0.0
 33
0.0
 40
0.0
 40
0.0
 40
0.0
 40
0.0
 40
0.2
 40
0.2
 40
0.2
 40
0.2
 40
0.4
 40
0.4
 40
0.4
 40
0.4
 40
0.6
 40
0.6
 40
0.6
 40
0.6
 40
1.0
 40
1.0
 40
1.0
 40
1.0
 10
-187.5775
 20
131.9037
 30
0.0
 10
-187.5775
 20
131.9037
 30
0.0
 10
-92.8905
 20
131.9037
 30
0.0
 10
-92.8905
 20
131.9037
 30
0.0
 10
-92.8905
 20
131.9037
 30
0.0
 10
-92.8905
 20
131.9037
 30
0.0
 10
-92.8905
 20
-115.1061
 30
0.0
 10
-92.8905
 20
-115.1061
 30
0.0
 10
-92.8905
 20
-115.1061
 30
0.0
 10
-92.8905
 20
-115.1061
 30
0.0
 10
-187.5775
 20
-115.1061
 30
0.0
 10
-187.5775
 20
-115.1061
 30
0.0
 10
-187.5775
 20
-115.1061
 30
0.0
 10
-187.5775
 20
-115.1061
 30
0.0
 10
-187.5775
 20
131.9037
 30
0.0
 10
-187.5775
 20
131.9037
 30
0.0
  0
SPLINE
  5
42
330
1F
100
AcDbEntity
  8
layer 1
 62
     7
100
AcDbSpline
210
0.0
220
0.0
230
1.0
 70
    11
 71
     3
 72
    28
 73
    24
 74
     0
 42
0.0000000001
 43
0.0000000001
 12
1.0
 22
0.0
 32
0.0
 13
1.0
 23
0.0
 33
0.0
 40
0.0
 40
0.0
 40
0.0
 40
0.0
 40
0.1428571428571428
 40
0.1428571428571428
 40
0.1428571428571428
 40
0.1428571428571428
 40
0.2857142857142857
 40
0.2857142857142857
 40
0.2857142857142857
 40
0.2857142857142857
 40
0.4285714285714285
 40
0.4285714285714285
 40
0.4285714285714285
 40
0.4285714285714285
 40
0.5714285714285714
 40
0.5714285714285714
 40
0.5714285714285714
 40
0.5714285714285714
 40
0.7142857142857143
 40
0.7142857142857143
 40
0.7142857142857143
 40
0.7142857142857143
 40
1.0
 40
1.0
 40
1.0
 40
1.0
 10
-139.9951
 20
119.5443
 30
0.0
 10
-139.7674
 20
117.3087
 30
0.0
 10
-139.4724
 20
115.9293
 30
0.0
 10
-138.7642
 20
113.8218
 30
0.0
 10
-138.7642
 20
113.8218
 30
0.0
 10
-138.545
 20
112.5183
 30
0.0
 10
-139.0562
 20
111.5897
 30
0.0
 10
-139.7782
 20
110.8735
 30
0.0
 10
-139.7782
 20
110.8735
 30
0.0
 10
-140.1921
 20
110.4641
 30
0.0
 10
-141.4583
 20
109.4621
 30
0.0
 10
-142.5941
 20
108.7184
 30
0.0
 10
-142.5941
 20
108.7184
 30
0.0
 10
-145.0467
 20
107.1119
 30
0.0
 10
-144.8345
 20
108.2355
 30
0.0
 10
-144.6398
 20
110.8702
 30
0.0
 10
-144.6398
 20
110.8702
 30
0.0
 10
-144.4101
 20
113.9822
 30
0.0
 10
-143.0063
 20
117.2081
 30
0.0
 10
-141.8419
 20
119.7342
 30
0.0
 10
-141.8419
 20
119.7342
 30
0.0
 10
-140.6315
 20
122.364
 30
0.0
 10
-140.3032
 20
122.5715
 30
0.0
 10
-139.9951
 20
119.5443
 30
0.0
  0
SPLINE
  5
43
330
1F
100
AcDbEntity
  8
layer 1
 62
     7
100
AcDbSpline
210
0.0
220
0.0
230
1.0
 70
    11
 71
     3
 72
    24
 73
    20
 74
     0
 42
0.0000000001
 43
0.0000000001
 12
1.0
 22
0.0
 32
0.0
 13
1.0
 23
0.0
 33
0.0
 40
0.0
 40
0.0
 40
0.0
 40
0.0
 40
0.1666666666666667
 40
0.1666666666666667
 40
0.1666666666666667
 40
0.1666666666666667
 40
0.3333333333333333
 40
0.3333333333333333
 40
0.3333333333333333
 40
0.3333333333333333
 40
0.5
 40
0.5
 40
0.5
 40
0.5
 40
0.6666666666666666
 40
0.6666666666666666
 40
0.6666666666666666
 40
0.6666666666666666
 40
1.0
 40
1.0
 40
1.0
 40
1.0
 10
-184.4898
 20
128.867
 30
0.0
 10
-184.4898
 20
128.867
 30
0.0
 10
-176.663
 20
128.867
 30
0.0
 10
-176.663
 20
128.867
 30
0.0
 10
-176.663
 20
128.867
 30
0.0
 10
-175.4819
 20
126.3356
 30
0.0
 10
-174.9484
 20
116.4318
 30
0.0
 10
-175.4566
 20
110.7113
 30
0.0
 10
-175.4566
 20
110.7113
 30
0.0
 10
-175.583
 20
107.985
 30
0.0
 10
-175.7311
 20
105.2629
 30
0.0
 10
-178.5756
 20
107.3614
 30
0.0
 10
-178.5756
 20
107.3614
 30
0.0
 10
-178.5756
 20
107.3614
 30
0.0
 10
-184.4898
 20
112.6444
 30
0.0
 10
-184.4898
 20
112.6444
 30
0.0
 10
-184.4898
 20
112.6444
 30
0.0
 10
-184.4898
 20
112.6444
 30
0.0
 10
-184.4898
 20
128.867
 30
0.0
 10
-184.4898
 20
128.867
 30
0.0
  0
SPLINE
  5
44
330
1F
100
AcDbEntity
  8
layer 1
 62
     7
100
AcDbSpline
210
0.0
220
0.0
230
1.0
 70
    11
 71
     3
 72
    32
 73
    28
 74
     0
 42
0.0000000001
 43
0.0000000001
 12
1.0
 22
0.0
 32
0.0
 13
1.0
 23
0.0
 33
0.0
 40
0.0
 40
0.0
 40
0.0
 40
0.0
 40
0.125
 40
0.125
 40
0.125
 40
0.125
 40
0.25
 40
0.25
 40
0.25
 40
0.25
 40
0.375
 40
0.375
 40
0.375
 40
0.375
 40
0.5
 40
0.5
 40
0.5
 40
0.5
 40
0.625
 40
0.625
 40
0.625
 40
0.625
 40
0.75
 40
0.75
 40
0.75
 40
0.75
 40
1.0
 40
1.0
 40
1.0
 40
1.0
 10
-172.9885
 20
128.867
 30
0.0
 10
-172.9885
 20
128.867
 30
0.0
 10
-153.0414
 20
128.867
 30
0.0
 10
-153.0414
 20
128.867
 30
0.0
 10
-153.0414
 20
128.867
 30
0.0
 10
-152.5574
 20
125.1614
 30
0.0
 10
-152.4869
 20
121.0858
 30
0.0
 10
-152.8377
 20
117.4328
 30
0.0
 10
-152.8377
 20
117.4328
 30
0.0
 10
-153.5902
 20
109.5943
 30
0.0
 10
-155.7863
 20
105.2809
 30
0.0
 10
-158.8812
 20
97.5777
 30
0.0
 10
-158.8812
 20
97.5777
 30
0.0
 10
-159.4173
 20
96.2442
 30
0.0
 10
-159.9845
 20
94.1127
 30
0.0
 10
-161.2475
 20
93.6272
 30
0.0
 10
-161.2475
 20
93.6272
 30
0.0
 10
-164.4428
 20
92.3985
 30
0.0
 10
-168.6941
 20
97.7442
 30
0.0
 10
-170.1228
 20
100.3054
 30
0.0
 10
-170.1228
 20
100.3054
 30
0.0
 10
-171.654
 20
103.052
 30
0.0
 10
-172.7721
 20
107.8974
 30
0.0
 10
-172.1049
 20
112.7228
 30
0.0
 10
-172.1049
 20
112.7228
 30
0.0
 10
-171.942
 20
115.0733
 30
0.0
 10
-171.654
 20
122.7854
 30
0.0
 10
-172.9885
 20
128.867
 30
0.0
  0
SPLINE
  5
45
330
1F
100
AcDbEntity
  8
layer 1
 62
     7
100
AcDbSpline
210
0.0
220
0.0
230
1.0
 70
    11
 71
     3
 72
    20
 73
    16
 74
     0
 42
0.0000000001
 43
0.0000000001
 12
1.0
 22
0.0
 32
0.0
 13
1.0
 23
0.0
 33
0.0
 40
0.0
 40
0.0
 40
0.0
 40
0.0
 40
0.2
 40
0.2
 40
0.2
 40
0.2
 40
0.4
 40
0.4
 40
0.4
 40
0.4
 40
0.6
 40
0.6
 40
0.6
 40
0.6
 40
1.0
 40
1.0
 40
1.0
 40
1.0
 10
-150.0313
 20
128.867
 30
0.0
 10
-150.0313
 20
128.867
 30
0.0
 10
-141.0844
 20
128.867
 30
0.0
 10
-141.0844
 20
128.867
 30
0.0
 10
-141.0844
 20
128.867
 30
0.0
 10
-142.2928
 20
126.1554
 30
0.0
 10
-143.3306
 20
121.5455
 30
0.0
 10
-144.9967
 20
118.5731
 30
0.0
 10
-144.9967
 20
118.5731
 30
0.0
 10
-147.1282
 20
114.7705
 30
0.0
 10
-148.4019
 20
117.9177
 30
0.0
 10
-149.1049
 20
121.1776
 30
0.0
 10
-149.1049
 20
121.1776
 30
0.0
 10
-149.6181
 20
123.5597
 30
0.0
 10
-149.8271
 20
126.6399
 30
0.0
 10
-150.0313
 20
128.867
 30
0.0
  0
SPLINE
  5
46
330
1F
100
AcDbEntity
  8
layer 1
 62
     7
100
AcDbSpline
210
0.0
220
0.0
230
1.0
 70
    11
 71
     3
 72
    20
 73
    16
 74
     0
 42
0.0000000001
 43
0.0000000001
 12
1.0
 22
0.0
 32
0.0
 13
1.0
 23
0.0
 33
0.0
 40
0.0
 40
0.0
 40
0.0
 40
0.0
 40
0.2
 40
0.2
 40
0.2
 40
0.2
 40
0.4
 40
0.4
 40
0.4
 40
0.4
 40
0.6
 40
0.6
 40
0.6
 40
0.6
 40
1.0
 40
1.0
 40
1.0
 40
1.0
 10
-138.4326
 20
128.867
 30
0.0
 10
-138.4326
 20
128.867
 30
0.0
 10
-130.9069
 20
128.867
 30
0.0
 10
-130.9069
 20
128.867
 30
0.0
 10
-130.9069
 20
128.867
 30
0.0
 10
-131.2287
 20
125.8358
 30
0.0
 10
-132.3463
 20
122.1601
 30
0.0
 10
-133.6886
 20
119.7157
 30
0.0
 10
-133.6886
 20
119.7157
 30
0.0
 10
-134.7694
 20
117.7478
 30
0.0
 10
-135.8975
 20
116.6443
 30
0.0
 10
-137.1319
 20
119.4955
 30
0.0
 10
-137.1319
 20
119.4955
 30
0.0
 10
-138.2274
 20
122.0254
 30
0.0
 10
-138.1959
 20
126.5913
 30
0.0
 10
-138.4326
 20
128.867
 30
0.0
  0
SPLINE
  5
47
330
1F
100
AcDbEntity
  8
layer 1
 62
     7
100
AcDbSpline
210
0.0
220
0.0
230
1.0
 70
    11
 71
     3
 72
    20
 73
    16
 74
     0
 42
0.0000000001
 43
0.0000000001
 12
1.0
 22
0.0
 32
0.0
 13
1.0
 23
0.0
 33
0.0
 40
0.0
 40
0.0
 40
0.0
 40
0.0
 40
0.2
 40
0.2
 40
0.2
 40
0.2
 40
0.4
 40
0.4
 40
0.4
 40
0.4
 40
0.6
 40
0.6
 40
0.6
 40
0.6
 40
1.0
 40
1.0
 40
1.0
 40
1.0
 10
-127.9486
 20
128.867
 30
0.0
 10
-127.9486
 20
128.867
 30
0.0
 10
-121.1944
 20
128.867
 30
0.0
 10
-121.1944
 20
128.867
 30
0.0
 10
-121.1944
 20
128.867
 30
0.0
 10
-122.7606
 20
127.6446
 30
0.0
 10
-123.914
 20
125.5778
 30
0.0
 10
-125.6722
 20
124.4322
 30
0.0
 10
-125.6722
 20
124.4322
 30
0.0
 10
-127.2489
 20
123.405
 30
0.0
 10
-128.374
 20
122.9588
 30
0.0
 10
-128.4253
 20
125.1847
 30
0.0
 10
-128.4253
 20
125.1847
 30
0.0
 10
-128.4536
 20
126.3971
 30
0.0
 10
-128.2211
 20
127.6999
 30
0.0
 10
-127.9486
 20
128.867
 30
0.0
  0
SPLINE
  5
48
330
1F
100
AcDbEntity
  8
layer 1
 62
     7
100
AcDbSpline
210
0.0
220
0.0
230
1.0
 70
    11
 71
     3
 72
    28
 73
    24
 74
     0
 42
0.0000000001
 43
0.0000000001
 12
1.0
 22
0.0
 32
0.0
 13
1.0
 23
0.0
 33
0.0
 40
0.0
 40
0.0
 40
0.0
 40
0.0
 40
0.1428571428571428
 40
0.1428571428571428
 40
0.1428571428571428
 40
0.1428571428571428
 40
0.2857142857142857
 40
0.2857142857142857
 40
0.2857142857142857
 40
0.2857142857142857
 40
0.4285714285714285
 40
0.4285714285714285
 40
0.4285714285714285
 40
0.4285714285714285
 40
0.5714285714285714
 40
0.5714285714285714
 40
0.5714285714285714
 40
0.5714285714285714
 40
0.7142857142857143
 40
0.7142857142857143
 40
0.7142857142857143
 40
0.7142857142857143
 40
1.0
 40
1.0
 40
1.0
 40
1.0
 10
-116.0066
 20
128.867
 30
0.0
 10
-116.0066
 20
128.867
 30
0.0
 10
-108.284
 20
128.867
 30
0.0
 10
-108.284
 20
128.867
 30
0.0
 10
-108.284
 20
128.867
 30
0.0
 10
-108.4984
 20
125.8033
 30
0.0
 10
-110.0539
 20
115.0012
 30
0.0
 10
-110.7866
 20
113.5693
 30
0.0
 10
-110.7866
 20
113.5693
 30
0.0
 10
-112.0258
 20
111.1473
 30
0.0
 10
-118.1299
 20
107.0268
 30
0.0
 10
-120.8453
 20
105.9498
 30
0.0
 10
-120.8453
 20
105.9498
 30
0.0
 10
-123.0967
 20
107.1176
 30
0.0
 10
-122.6425
 20
113.4795
 30
0.0
 10
-123.2959
 20
115.8272
 30
0.0
 10
-123.2959
 20
115.8272
 30
0.0
 10
-123.667
 20
117.1613
 30
0.0
 10
-124.5718
 20
118.8754
 30
0.0
 10
-124.7333
 20
120.3426
 30
0.0
 10
-124.7333
 20
120.3426
 30
0.0
 10
-121.9408
 20
123.3434
 30
0.0
 10
-118.9762
 20
126.0788
 30
0.0
 10
-116.0066
 20
128.867
 30
0.0
  0
SPLINE
  5
49
330
1F
100
AcDbEntity
  8
layer 1
 62
     7
100
AcDbSpline
210
0.0
220
0.0
230
1.0
 70
    11
 71
     3
 72
    24
 73
    20
 74
     0
 42
0.0000000001
 43
0.0000000001
 12
1.0
 22
0.0
 32
0.0
 13
1.0
 23
0.0
 33
0.0
 40
0.0
 40
0.0
 40
0.0
 40
0.0
 40
0.1666666666666667
 40
0.1666666666666667
 40
0.1666666666666667
 40
0.1666666666666667
 40
0.3333333333333333
 40
0.3333333333333333
 40
0.3333333333333333
 40
0.3333333333333333
 40
0.5
 40
0.5
 40
0.5
 40
0.5
 40
0.6666666666666666
 40
0.6666666666666666
 40
0.6666666666666666
 40
0.6666666666666666
 40
1.0
 40
1.0
 40
1.0
 40
1.0
 10
-105.0619
 20
128.867
 30
0.0
 10
-105.0619
 20
128.867
 30
0.0
 10
-95.9782
 20
128.867
 30
0.0
 10
-95.9782
 20
128.867
 30
0.0
 10
-95.9782
 20
128.867
 30
0.0
 10
-95.9782
 20
128.867
 30
0.0
 10
-95.9782
 20
122.6936
 30
0.0
 10
-95.9782
 20
122.6936
 30
0.0
 10
-95.9782
 20
122.6936
 30
0.0
 10
-99.6585
 20
122.6408
 30
0.0
 10
-102.4667
 20
121.1181
 30
0.0
 10
-105.0166
 20
118.3349
 30
0.0
 10
-105.0166
 20
118.3349
 30
0.0
 10
-107.263
 20
115.8828
 30
0.0
 10
-106.8023
 20
117.7183
 30
0.0
 10
-106.446
 20
119.5611
 30
0.0
 10
-106.446
 20
119.5611
 30
0.0
 10
-105.8792
 20
122.4894
 30
0.0
 10
-105.7083
 20
126.3321
 30
0.0
 10
-105.0619
 20
128.867
 30
0.0
  0
SPLINE
  5
4A
330
1F
100
AcDbEntity
  8
layer 1
 62
     7
100
AcDbSpline
210
0.0
220
0.0
230
1.0
 70
    11
 71
     3
 72
    32
 73
    28
 74
     0
 42
0.0000000001
 43
0.0000000001
 12
1.0
 22
0.0
 32
0.0
 13
1.0
 23
0.0
 33
0.0
 40
0.0
 40
0.0
 40
0.0
 40
0.0
 40
0.125
 40
0.125
 40
0.125
 40
0.125
 40
0.25
 40
0.25
 40
0.25
 40
0.25
 40
0.375
 40
0.375
 40
0.375
 40
0.375
 40
0.5
 40
0.5
 40
0.5
 40
0.5
 40
0.625
 40
0.625
 40
0.625
 40
0.625
 40
0.75
 40
0.75
 40
0.75
 40
0.75
 40
1.0
 40
1.0
 40
1.0
 40
1.0
 10
-95.9782
 20
118.8294
 30
0.0
 10
-95.9782
 20
118.8294
 30
0.0
 10
-95.9782
 20
106.6179
 30
0.0
 10
-95.9782
 20
106.6179
 30
0.0
 10
-95.9782
 20
106.6179
 30
0.0
 10
-101.1011
 20
105.9022
 30
0.0
 10
-105.694
 20
106.2135
 30
0.0
 10
-110.8712
 20
106.443
 30
0.0
 10
-110.8712
 20
106.443
 30
0.0
 10
-111.6582
 20
107.5481
 30
0.0
 10
-111.5208
 20
108.1249
 30
0.0
 10
-110.7196
 20
109.3478
 30
0.0
 10
-110.7196
 20
109.3478
 30
0.0
 10
-110.2123
 20
110.1205
 30
0.0
 10
-108.7249
 20
110.4836
 30
0.0
 10
-107.3486
 20
111.4791
 30
0.0
 10
-107.3486
 20
111.4791
 30
0.0
 10
-105.7891
 20
112.6079
 30
0.0
 10
-104.3029
 20
114.3771
 30
0.0
 10
-103.2757
 20
115.3455
 30
0.0
 10
-103.2757
 20
115.3455
 30
0.0
 10
-101.7407
 20
116.7927
 30
0.0
 10
-100.1327
 20
118.0416
 30
0.0
 10
-98.0154
 20
118.6575
 30
0.0
 10
-98.0154
 20
118.6575
 30
0.0
 10
-97.2419
 20
118.8827
 30
0.0
 10
-96.5044
 20
118.8797
 30
0.0
 10
-95.9782
 20
118.8294
 30
0.0
  0
SPLINE
  5
4B
330
1F
100
AcDbEntity
  8
layer 1
 62
     7
100
AcDbSpline
210
0.0
220
0.0
230
1.0
 70
    11
 71
     3
 72
    36
 73
    32
 74
     0
 42
0.0000000001
 43
0.0000000001
 12
1.0
 22
0.0
 32
0.0
 13
1.0
 23
0.0
 33
0.0
 40
0.0
 40
0.0
 40
0.0
 40
0.0
 40
0.1111111111111111
 40
0.1111111111111111
 40
0.1111111111111111
 40
0.1111111111111111
 40
0.2222222222222222
 40
0.2222222222222222
 40
0.2222222222222222
 40
0.2222222222222222
 40
0.3333333333333333
 40
0.3333333333333333
 40
0.3333333333333333
 40
0.3333333333333333
 40
0.4444444444444444
 40
0.4444444444444444
 40
0.4444444444444444
 40
0.4444444444444444
 40
0.5555555555555556
 40
0.5555555555555556
 40
0.5555555555555556
 40
0.5555555555555556
 40
0.6666666666666666
 40
0.6666666666666666
 40
0.6666666666666666
 40
0.6666666666666666
 40
0.7777777777777778
 40
0.7777777777777778
 40
0.7777777777777778
 40
0.7777777777777778
 40
1.0
 40
1.0
 40
1.0
 40
1.0
 10
-95.9782
 20
102.7302
 30
0.0
 10
-95.9782
 20
102.7302
 30
0.0
 10
-95.9782
 20
86.8845
 30
0.0
 10
-95.9782
 20
86.8845
 30
0.0
 10
-95.9782
 20
86.8845
 30
0.0
 10
-99.159
 20
84.9356
 30
0.0
 10
-113.2427
 20
75.1457
 30
0.0
 10
-116.1961
 20
73.4273
 30
0.0
 10
-116.1961
 20
73.4273
 30
0.0
 10
-117.0006
 20
72.9596
 30
0.0
 10
-118.8361
 20
71.2895
 30
0.0
 10
-120.5372
 20
70.0373
 30
0.0
 10
-120.5372
 20
70.0373
 30
0.0
 10
-126.4319
 20
65.6972
 30
0.0
 10
-122.3027
 20
72.6301
 30
0.0
 10
-121.2674
 20
75.0877
 30
0.0
 10
-121.2674
 20
75.0877
 30
0.0
 10
-118.2463
 20
82.2596
 30
0.0
 10
-118.7102
 20
89.6767
 30
0.0
 10
-120.5065
 20
97.0367
 30
0.0
 10
-120.5065
 20
97.0367
 30
0.0
 10
-120.8718
 20
98.5324
 30
0.0
 10
-120.789
 20
100.6209
 30
0.0
 10
-119.6616
 20
101.187
 30
0.0
 10
-119.6616
 20
101.187
 30
0.0
 10
-118.3434
 20
101.9442
 30
0.0
 10
-114.7204
 20
101.6204
 30
0.0
 10
-110.65
 20
101.8173
 30
0.0
 10
-110.65
 20
101.8173
 30
0.0
 10
-104.912
 20
102.0948
 30
0.0
 10
-98.2864
 20
102.6564
 30
0.0
 10
-95.9782
 20
102.7302
 30
0.0
  0
SPLINE
  5
4C
330
1F
100
AcDbEntity
  8
layer 1
 62
     7
100
AcDbSpline
210
0.0
220
0.0
230
1.0
 70
    11
 71
     3
 72
    28
 73
    24
 74
     0
 42
0.0000000001
 43
0.0000000001
 12
1.0
 22
0.0
 32
0.0
 13
1.0
 23
0.0
 33
0.0
 40
0.0
 40
0.0
 40
0.0
 40
0.0
 40
0.1428571428571428
 40
0.1428571428571428
 40
0.1428571428571428
 40
0.1428571428571428
 40
0.2857142857142857
 40
0.2857142857142857
 40
0.2857142857142857
 40
0.2857142857142857
 40
0.4285714285714285
 40
0.4285714285714285
 40
0.4285714285714285
 40
0.4285714285714285
 40
0.5714285714285714
 40
0.5714285714285714
 40
0.5714285714285714
 40
0.5714285714285714
 40
0.7142857142857143
 40
0.7142857142857143
 40
0.7142857142857143
 40
0.7142857142857143
 40
1.0
 40
1.0
 40
1.0
 40
1.0
 10
-95.9782
 20
80.9636
 30
0.0
 10
-95.9782
 20
80.9636
 30
0.0
 10
-95.9782
 20
68.1653
 30
0.0
 10
-95.9782
 20
68.1653
 30
0.0
 10
-95.9782
 20
68.1653
 30
0.0
 10
-100.9414
 20
68.069
 30
0.0
 10
-103.5504
 20
69.1277
 30
0.0
 10
-106.1374
 20
71.4902
 30
0.0
 10
-106.1374
 20
71.4902
 30
0.0
 10
-106.6484
 20
71.9579
 30
0.0
 10
-107.0521
 20
71.9124
 30
0.0
 10
-107.1516
 20
72.8748
 30
0.0
 10
-107.1516
 20
72.8748
 30
0.0
 10
-106.4002
 20
74.0897
 30
0.0
 10
-104.8937
 20
74.8022
 30
0.0
 10
-103.3653
 20
75.9435
 30
0.0
 10
-103.3653
 20
75.9435
 30
0.0
 10
-101.6892
 20
77.1957
 30
0.0
 10
-99.8547
 20
78.7042
 30
0.0
 10
-98.2073
 20
79.7932
 30
0.0
 10
-98.2073
 20
79.7932
 30
0.0
 10
-96.9857
 20
80.6015
 30
0.0
 10
-96.3283
 20
81.0266
 30
0.0
 10
-95.9782
 20
80.9636
 30
0.0
  0
SPLINE
  5
4D
330
1F
100
AcDbEntity
  8
layer 1
 62
     7
100
AcDbSpline
210
0.0
220
0.0
230
1.0
 70
    11
 71
     3
 72
    28
 73
    24
 74
     0
 42
0.0000000001
 43
0.0000000001
 12
1.0
 22
0.0
 32
0.0
 13
1.0
 23
0.0
 33
0.0
 40
0.0
 40
0.0
 40
0.0
 40
0.0
 40
0.1428571428571428
 40
0.1428571428571428
 40
0.1428571428571428
 40
0.1428571428571428
 40
0.2857142857142857
 40
0.2857142857142857
 40
0.2857142857142857
 40
0.2857142857142857
 40
0.4285714285714285
 40
0.4285714285714285
 40
0.4285714285714285
 40
0.4285714285714285
 40
0.5714285714285714
 40
0.5714285714285714
 40
0.5714285714285714
 40
0.5714285714285714
 40
0.7142857142857143
 40
0.7142857142857143
 40
0.7142857142857143
 40
0.7142857142857143
 40
1.0
 40
1.0
 40
1.0
 40
1.0
 10
-95.9782
 20
59.3789
 30
0.0
 10
-95.9782
 20
59.3789
 30
0.0
 10
-95.9782
 20
48.2952
 30
0.0
 10
-95.9782
 20
48.2952
 30
0.0
 10
-95.9782
 20
48.2952
 30
0.0
 10
-98.5254
 20
47.3278
 30
0.0
 10
-102.0743
 20
44.3893
 30
0.0
 10
-104.9315
 20
41.3326
 30
0.0
 10
-104.9315
 20
41.3326
 30
0.0
 10
-108.5387
 20
37.4751
 30
0.0
 10
-109.9045
 20
33.9505
 30
0.0
 10
-112.0543
 20
29.0688
 30
0.0
 10
-112.0543
 20
29.0688
 30
0.0
 10
-113.5193
 20
29.6847
 30
0.0
 10
-119.3106
 20
34.6296
 30
0.0
 10
-119.5768
 20
36.1691
 30
0.0
 10
-119.5768
 20
36.1691
 30
0.0
 10
-116.1836
 20
41.4917
 30
0.0
 10
-110.934
 20
48.5034
 30
0.0
 10
-106.3917
 20
52.677
 30
0.0
 10
-106.3917
 20
52.677
 30
0.0
 10
-104.7203
 20
54.2134
 30
0.0
 10
-98.4415
 20
58.9567
 30
0.0
 10
-95.9782
 20
59.3789
 30
0.0
  0
SPLINE
  5
4E
330
1F
100
AcDbEntity
  8
layer 1
 62
     7
100
AcDbSpline
210
0.0
220
0.0
230
1.0
 70
    11
 71
     3
 72
    24
 73
    20
 74
     0
 42
0.0000000001
 43
0.0000000001
 12
1.0
 22
0.0
 32
0.0
 13
1.0
 23
0.0
 33
0.0
 40
0.0
 40
0.0
 40
0.0
 40
0.0
 40
0.1666666666666667
 40
0.1666666666666667
 40
0.1666666666666667
 40
0.1666666666666667
 40
0.3333333333333333
 40
0.3333333333333333
 40
0.3333333333333333
 40
0.3333333333333333
 40
0.5
 40
0.5
 40
0.5
 40
0.5
 40
0.6666666666666666
 40
0.6666666666666666
 40
0.6666666666666666
 40
0.6666666666666666
 40
1.0
 40
1.0
 40
1.0
 40
1.0
 10
-95.9782
 20
43.2794
 30
0.0
 10
-95.9782
 20
43.2794
 30
0.0
 10
-95.9782
 20
22.3056
 30
0.0
 10
-95.9782
 20
22.3056
 30
0.0
 10
-95.9782
 20
22.3056
 30
0.0
 10
-100.6234
 20
23.028
 30
0.0
 10
-105.3502
 20
24.7059
 30
0.0
 10
-108.7577
 20
26.9473
 30
0.0
 10
-108.7577
 20
26.9473
 30
0.0
 10
-108.6463
 20
28.1599
 30
0.0
 10
-107.9507
 20
28.8756
 30
0.0
 10
-107.5751
 20
29.8065
 30
0.0
 10
-107.5751
 20
29.8065
 30
0.0
 10
-105.6697
 20
34.5125
 30
0.0
 10
-103.2839
 20
38.0832
 30
0.0
 10
-99.6292
 20
40.8734
 30
0.0
 10
-99.6292
 20
40.8734
 30
0.0
 10
-98.6425
 20
41.6266
 30
0.0
 10
-97.391
 20
42.9226
 30
0.0
 10
-95.9782
 20
43.2794
 30
0.0
  0
SPLINE
  5
4F
330
1F
100
AcDbEntity
  8
layer 1
 62
     7
100
AcDbSpline
210
0.0
220
0.0
230
1.0
 70
    11
 71
     3
 72
    28
 73
    24
 74
     0
 42
0.0000000001
 43
0.0000000001
 12
1.0
 22
0.0
 32
0.0
 13
1.0
 23
0.0
 33
0.0
 40
0.0
 40
0.0
 40
0.0
 40
0.0
 40
0.1428571428571428
 40
0.1428571428571428
 40
0.1428571428571428
 40
0.1428571428571428
 40
0.2857142857142857
 40
0.2857142857142857
 40
0.2857142857142857
 40
0.2857142857142857
 40
0.4285714285714285
 40
0.4285714285714285
 40
0.4285714285714285
 40
0.4285714285714285
 40
0.5714285714285714
 40
0.5714285714285714
 40
0.5714285714285714
 40
0.5714285714285714
 40
0.7142857142857143
 40
0.7142857142857143
 40
0.7142857142857143
 40
0.7142857142857143
 40
1.0
 40
1.0
 40
1.0
 40
1.0
 10
-95.9782
 20
18.3298
 30
0.0
 10
-95.9782
 20
18.3298
 30
0.0
 10
-95.9782
 20
2.0472
 30
0.0
 10
-95.9782
 20
2.0472
 30
0.0
 10
-95.9782
 20
2.0472
 30
0.0
 10
-102.4997
 20
2.0121
 30
0.0
 10
-109.0282
 20
1.4644
 30
0.0
 10
-115.4076
 20
0.9559
 30
0.0
 10
-115.4076
 20
0.9559
 30
0.0
 10
-116.5859
 20
0.862
 30
0.0
 10
-116.6765
 20
1.7359
 30
0.0
 10
-116.084
 20
4.444
 30
0.0
 10
-116.084
 20
4.444
 30
0.0
 10
-115.1874
 20
8.5459
 30
0.0
 10
-113.7465
 20
11.6018
 30
0.0
 10
-112.3927
 20
15.2353
 30
0.0
 10
-112.3927
 20
15.2353
 30
0.0
 10
-111.7165
 20
17.6021
 30
0.0
 10
-111.0396
 20
19.9696
 30
0.0
 10
-110.364
 20
22.3364
 30
0.0
 10
-110.364
 20
22.3364
 30
0.0
 10
-105.2819
 20
20.1508
 30
0.0
 10
-101.4124
 20
18.8943
 30
0.0
 10
-95.9782
 20
18.3298
 30
0.0
  0
SPLINE
  5
50
330
1F
100
AcDbEntity
  8
layer 1
 62
     7
100
AcDbSpline
210
0.0
220
0.0
230
1.0
 70
    11
 71
     3
 72
    16
 73
    12
 74
     0
 42
0.0000000001
 43
0.0000000001
 12
1.0
 22
0.0
 32
0.0
 13
1.0
 23
0.0
 33
0.0
 40
0.0
 40
0.0
 40
0.0
 40
0.0
 40
0.25
 40
0.25
 40
0.25
 40
0.25
 40
0.5
 40
0.5
 40
0.5
 40
0.5
 40
1.0
 40
1.0
 40
1.0
 40
1.0
 10
-95.9782
 20
-4.7238
 30
0.0
 10
-95.9782
 20
-4.7238
 30
0.0
 10
-95.9782
 20
-13.272
 30
0.0
 10
-95.9782
 20
-13.272
 30
0.0
 10
-95.9782
 20
-13.272
 30
0.0
 10
-100.8799
 20
-12.0231
 30
0.0
 10
-105.8859
 20
-10.9976
 30
0.0
 10
-110.7534
 20
-9.7572
 30
0.0
 10
-110.7534
 20
-9.7572
 30
0.0
 10
-107.9389
 20
-7.5438
 30
0.0
 10
-97.6485
 20
-4.691
 30
0.0
 10
-95.9782
 20
-4.7238
 30
0.0
  0
SPLINE
  5
51
330
1F
100
AcDbEntity
  8
layer 1
 62
     7
100
AcDbSpline
210
0.0
220
0.0
230
1.0
 70
    11
 71
     3
 72
    28
 73
    24
 74
     0
 42
0.0000000001
 43
0.0000000001
 12
1.0
 22
0.0
 32
0.0
 13
1.0
 23
0.0
 33
0.0
 40
0.0
 40
0.0
 40
0.0
 40
0.0
 40
0.1428571428571428
 40
0.1428571428571428
 40
0.1428571428571428
 40
0.1428571428571428
 40
0.2857142857142857
 40
0.2857142857142857
 40
0.2857142857142857
 40
0.2857142857142857
 40
0.4285714285714285
 40
0.4285714285714285
 40
0.4285714285714285
 40
0.4285714285714285
 40
0.5714285714285714
 40
0.5714285714285714
 40
0.5714285714285714
 40
0.5714285714285714
 40
0.7142857142857143
 40
0.7142857142857143
 40
0.7142857142857143
 40
0.7142857142857143
 40
1.0
 40
1.0
 40
1.0
 40
1.0
 10
-95.9782
 20
-17.0984
 30
0.0
 10
-95.9782
 20
-17.0984
 30
0.0
 10
-95.9782
 20
-22.1132
 30
0.0
 10
-95.9782
 20
-22.1132
 30
0.0
 10
-95.9782
 20
-22.1132
 30
0.0
 10
-103.5257
 20
-22.122
 30
0.0
 10
-112.1725
 20
-27.5369
 30
0.0
 10
-116.8717
 20
-31.1524
 30
0.0
 10
-116.8717
 20
-31.1524
 30
0.0
 10
-118.2062
 20
-32.1789
 30
0.0
 10
-122.2817
 20
-36.7708
 30
0.0
 10
-123.9725
 20
-35.671
 30
0.0
 10
-123.9725
 20
-35.671
 30
0.0
 10
-124.4435
 20
-33.5122
 30
0.0
 10
-123.8674
 20
-30.7655
 30
0.0
 10
-123.4655
 20
-28.9393
 30
0.0
 10
-123.4655
 20
-28.9393
 30
0.0
 10
-121.7859
 20
-21.3165
 30
0.0
 10
-118.9217
 20
-16.2519
 30
0.0
 10
-113.9587
 20
-12.2811
 30
0.0
 10
-113.9587
 20
-12.2811
 30
0.0
 10
-107.8703
 20
-13.0055
 30
0.0
 10
-101.7948
 20
-15.2617
 30
0.0
 10
-95.9782
 20
-17.0984
 30
0.0
  0
SPLINE
  5
52
330
1F
100
AcDbEntity
  8
layer 1
 62
     7
100
AcDbSpline
210
0.0
220
0.0
230
1.0
 70
    11
 71
     3
 72
    48
 73
    44
 74
     0
 42
0.0000000001
 43
0.0000000001
 12
1.0
 22
0.0
 32
0.0
 13
1.0
 23
0.0
 33
0.0
 40
0.0
 40
0.0
 40
0.0
 40
0.0
 40
0.0833333333333333
 40
0.0833333333333333
 40
0.0833333333333333
 40
0.0833333333333333
 40
0.1666666666666667
 40
0.1666666666666667
 40
0.1666666666666667
 40
0.1666666666666667
 40
0.25
 40
0.25
 40
0.25
 40
0.25
 40
0.3333333333333333
 40
0.3333333333333333
 40
0.3333333333333333
 40
0.3333333333333333
 40
0.4166666666666667
 40
0.4166666666666667
 40
0.4166666666666667
 40
0.4166666666666667
 40
0.5
 40
0.5
 40
0.5
 40
0.5
 40
0.5833333333333334
 40
0.5833333333333334
 40
0.5833333333333334
 40
0.5833333333333334
 40
0.6666666666666666
 40
0.6666666666666666
 40
0.6666666666666666
 40
0.6666666666666666
 40
0.75
 40
0.75
 40
0.75
 40
0.75
 40
0.8333333333333334
 40
0.8333333333333334
 40
0.8333333333333334
 40
0.8333333333333334
 40
1.0
 40
1.0
 40
1.0
 40
1.0
 10
-95.9782
 20
-27.4839
 30
0.0
 10
-95.9782
 20
-27.4839
 30
0.0
 10
-95.9782
 20
-37.0611
 30
0.0
 10
-95.9782
 20
-37.0611
 30
0.0
 10
-95.9782
 20
-37.0611
 30
0.0
 10
-98.8249
 20
-37.1774
 30
0.0
 10
-101.3874
 20
-38.7617
 30
0.0
 10
-103.6017
 20
-39.7294
 30
0.0
 10
-103.6017
 20
-39.7294
 30
0.0
 10
-108.9276
 20
-42.0574
 30
0.0
 10
-113.3919
 20
-44.8553
 30
0.0
 10
-117.5491
 20
-48.3982
 30
0.0
 10
-117.5491
 20
-48.3982
 30
0.0
 10
-119.1259
 20
-50.0886
 30
0.0
 10
-120.7044
 20
-51.7797
 30
0.0
 10
-122.2817
 20
-53.4703
 30
0.0
 10
-122.2817
 20
-53.4703
 30
0.0
 10
-124.4427
 20
-53.0309
 30
0.0
 10
-126.3118
 20
-51.9801
 30
0.0
 10
-128.7056
 20
-51.5332
 30
0.0
 10
-128.7056
 20
-51.5332
 30
0.0
 10
-129.9633
 20
-51.2995
 30
0.0
 10
-131.4187
 20
-51.4193
 30
0.0
 10
-132.6724
 20
-51.302
 30
0.0
 10
-132.6724
 20
-51.302
 30
0.0
 10
-134.5779
 20
-51.1228
 30
0.0
 10
-135.5414
 20
-50.277
 30
0.0
 10
-133.6423
 20
-48.5821
 30
0.0
 10
-133.6423
 20
-48.5821
 30
0.0
 10
-131.0093
 20
-46.2304
 30
0.0
 10
-126.3313
 20
-44.6333
 30
0.0
 10
-123.6525
 20
-42.5541
 30
0.0
 10
-123.6525
 20
-42.5541
 30
0.0
 10
-118.7763
 20
-38.7712
 30
0.0
 10
-113.7635
 20
-35.2729
 30
0.0
 10
-108.251
 20
-32.4437
 30
0.0
 10
-108.251
 20
-32.4437
 30
0.0
 10
-105.5256
 20
-31.0446
 30
0.0
 10
-101.7873
 20
-29.634
 30
0.0
 10
-98.7433
 20
-28.423
 30
0.0
 10
-98.7433
 20
-28.423
 30
0.0
 10
-97.5554
 20
-27.9498
 30
0.0
 10
-96.554
 20
-27.5745
 30
0.0
 10
-95.9782
 20
-27.4839
 30
0.0
  0
SPLINE
  5
53
330
1F
100
AcDbEntity
  8
layer 1
 62
     7
100
AcDbSpline
210
0.0
220
0.0
230
1.0
 70
    11
 71
     3
 72
    40
 73
    36
 74
     0
 42
0.0000000001
 43
0.0000000001
 12
1.0
 22
0.0
 32
0.0
 13
1.0
 23
0.0
 33
0.0
 40
0.0
 40
0.0
 40
0.0
 40
0.0
 40
0.1
 40
0.1
 40
0.1
 40
0.1
 40
0.2
 40
0.2
 40
0.2
 40
0.2
 40
0.3
 40
0.3
 40
0.3
 40
0.3
 40
0.4
 40
0.4
 40
0.4
 40
0.4
 40
0.5
 40
0.5
 40
0.5
 40
0.5
 40
0.6
 40
0.6
 40
0.6
 40
0.6
 40
0.7
 40
0.7
 40
0.7
 40
0.7
 40
0.8
 40
0.8
 40
0.8
 40
0.8
 40
1.0
 40
1.0
 40
1.0
 40
1.0
 10
-95.9782
 20
-40.0247
 30
0.0
 10
-95.9782
 20
-40.0247
 30
0.0
 10
-95.9782
 20
-46.6565
 30
0.0
 10
-95.9782
 20
-46.6565
 30
0.0
 10
-95.9782
 20
-46.6565
 30
0.0
 10
-99.8777
 20
-46.9338
 30
0.0
 10
-105.6457
 20
-53.0001
 30
0.0
 10
-107.4059
 20
-55.6834
 30
0.0
 10
-107.4059
 20
-55.6834
 30
0.0
 10
-108.0255
 20
-56.6674
 30
0.0
 10
-108.6448
 20
-57.6508
 30
0.0
 10
-109.2649
 20
-58.635
 30
0.0
 10
-109.2649
 20
-58.635
 30
0.0
 10
-112.3389
 20
-58.2822
 30
0.0
 10
-114.9233
 20
-56.5548
 30
0.0
 10
-117.6329
 20
-55.6834
 30
0.0
 10
-117.6329
 20
-55.6834
 30
0.0
 10
-117.6049
 20
-55.53
 30
0.0
 10
-117.5769
 20
-55.3761
 30
0.0
 10
-117.5491
 20
-55.2222
 30
0.0
 10
-117.5491
 20
-55.2222
 30
0.0
 10
-115.3225
 20
-53.1635
 30
0.0
 10
-113.0966
 20
-51.103
 30
0.0
 10
-110.8712
 20
-49.0433
 30
0.0
 10
-110.8712
 20
-49.0433
 30
0.0
 10
-108.0698
 20
-46.8895
 30
0.0
 10
-105.1097
 20
-44.6982
 30
0.0
 10
-101.996
 20
-42.9567
 30
0.0
 10
-101.996
 20
-42.9567
 30
0.0
 10
-100.0241
 20
-41.9733
 30
0.0
 10
-98.0514
 20
-40.9898
 30
0.0
 10
-96.079
 20
-40.0062
 30
0.0
 10
-96.079
 20
-40.0062
 30
0.0
 10
-96.0458
 20
-40.0119
 30
0.0
 10
-96.012
 20
-40.0182
 30
0.0
 10
-95.9782
 20
-40.0247
 30
0.0
  0
SPLINE
  5
54
330
1F
100
AcDbEntity
  8
layer 1
 62
     7
100
AcDbSpline
210
0.0
220
0.0
230
1.0
 70
    11
 71
     3
 72
    16
 73
    12
 74
     0
 42
0.0000000001
 43
0.0000000001
 12
1.0
 22
0.0
 32
0.0
 13
1.0
 23
0.0
 33
0.0
 40
0.0
 40
0.0
 40
0.0
 40
0.0
 40
0.25
 40
0.25
 40
0.25
 40
0.25
 40
0.5
 40
0.5
 40
0.5
 40
0.5
 40
1.0
 40
1.0
 40
1.0
 40
1.0
 10
-95.9782
 20
-51.9273
 30
0.0
 10
-95.9782
 20
-51.9273
 30
0.0
 10
-95.9782
 20
-58.8657
 30
0.0
 10
-95.9782
 20
-58.8657
 30
0.0
 10
-95.9782
 20
-58.8657
 30
0.0
 10
-97.6433
 20
-59.185
 30
0.0
 10
-101.3701
 20
-59.6397
 30
0.0
 10
-102.5875
 20
-59.2806
 30
0.0
 10
-102.5875
 20
-59.2806
 30
0.0
 10
-102.5875
 20
-57.6886
 30
0.0
 10
-97.2001
 20
-51.4987
 30
0.0
 10
-95.9782
 20
-51.9273
 30
0.0
  0
SPLINE
  5
55
330
1F
100
AcDbEntity
  8
layer 1
 62
     7
100
AcDbSpline
210
0.0
220
0.0
230
1.0
 70
    11
 71
     3
 72
    28
 73
    24
 74
     0
 42
0.0000000001
 43
0.0000000001
 12
1.0
 22
0.0
 32
0.0
 13
1.0
 23
0.0
 33
0.0
 40
0.0
 40
0.0
 40
0.0
 40
0.0
 40
0.1428571428571428
 40
0.1428571428571428
 40
0.1428571428571428
 40
0.1428571428571428
 40
0.2857142857142857
 40
0.2857142857142857
 40
0.2857142857142857
 40
0.2857142857142857
 40
0.4285714285714285
 40
0.4285714285714285
 40
0.4285714285714285
 40
0.4285714285714285
 40
0.5714285714285714
 40
0.5714285714285714
 40
0.5714285714285714
 40
0.5714285714285714
 40
0.7142857142857143
 40
0.7142857142857143
 40
0.7142857142857143
 40
0.7142857142857143
 40
1.0
 40
1.0
 40
1.0
 40
1.0
 10
-95.9782
 20
-62.8536
 30
0.0
 10
-95.9782
 20
-62.8536
 30
0.0
 10
-95.9782
 20
-84.6484
 30
0.0
 10
-95.9782
 20
-84.6484
 30
0.0
 10
-95.9782
 20
-84.6484
 30
0.0
 10
-101.5826
 20
-85.2147
 30
0.0
 10
-105.211
 20
-95.8802
 30
0.0
 10
-107.5308
 20
-103.8774
 30
0.0
 10
-107.5308
 20
-103.8774
 30
0.0
 10
-108.6236
 20
-107.6457
 30
0.0
 10
-109.8462
 20
-110.8218
 30
0.0
 10
-110.0747
 20
-112.0697
 30
0.0
 10
-110.0747
 20
-112.0697
 30
0.0
 10
-110.0747
 20
-112.0697
 30
0.0
 10
-115.302
 20
-112.0697
 30
0.0
 10
-115.302
 20
-112.0697
 30
0.0
 10
-115.302
 20
-112.0697
 30
0.0
 10
-117.4335
 20
-105.5195
 30
0.0
 10
-110.1212
 20
-69.4774
 30
0.0
 10
-105.2318
 20
-63.2942
 30
0.0
 10
-105.2318
 20
-63.2942
 30
0.0
 10
-103.118
 20
-62.7732
 30
0.0
 10
-98.5634
 20
-63.1085
 30
0.0
 10
-95.9782
 20
-62.8536
 30
0.0
  0
SPLINE
  5
56
330
1F
100
AcDbEntity
  8
layer 1
 62
     7
100
AcDbSpline
210
0.0
220
0.0
230
1.0
 70
    11
 71
     3
 72
    24
 73
    20
 74
     0
 42
0.0000000001
 43
0.0000000001
 12
1.0
 22
0.0
 32
0.0
 13
1.0
 23
0.0
 33
0.0
 40
0.0
 40
0.0
 40
0.0
 40
0.0
 40
0.1666666666666667
 40
0.1666666666666667
 40
0.1666666666666667
 40
0.1666666666666667
 40
0.3333333333333333
 40
0.3333333333333333
 40
0.3333333333333333
 40
0.3333333333333333
 40
0.5
 40
0.5
 40
0.5
 40
0.5
 40
0.6666666666666666
 40
0.6666666666666666
 40
0.6666666666666666
 40
0.6666666666666666
 40
1.0
 40
1.0
 40
1.0
 40
1.0
 10
-95.9782
 20
-102.4423
 30
0.0
 10
-95.9782
 20
-102.4423
 30
0.0
 10
-95.9782
 20
-112.0697
 30
0.0
 10
-95.9782
 20
-112.0697
 30
0.0
 10
-95.9782
 20
-112.0697
 30
0.0
 10
-95.9782
 20
-112.0697
 30
0.0
 10
-105.3051
 20
-112.0697
 30
0.0
 10
-105.3051
 20
-112.0697
 30
0.0
 10
-105.3051
 20
-112.0697
 30
0.0
 10
-105.3402
 20
-110.4437
 30
0.0
 10
-103.086
 20
-100.851
 30
0.0
 10
-99.1277
 20
-93.6296
 30
0.0
 10
-99.1277
 20
-93.6296
 30
0.0
 10
-97.5529
 20
-90.9725
 30
0.0
 10
-96.1131
 20
-92.7089
 30
0.0
 10
-96.0981
 20
-93.8217
 30
0.0
 10
-96.0981
 20
-93.8217
 30
0.0
 10
-96.0981
 20
-93.8217
 30
0.0
 10
-95.9782
 20
-102.4423
 30
0.0
 10
-95.9782
 20
-102.4423
 30
0.0
  0
SPLINE
  5
57
330
1F
100
AcDbEntity
  8
layer 1
 62
     7
100
AcDbSpline
210
0.0
220
0.0
230
1.0
 70
    11
 71
     3
 72
    36
 73
    32
 74
     0
 42
0.0000000001
 43
0.0000000001
 12
1.0
 22
0.0
 32
0.0
 13
1.0
 23
0.0
 33
0.0
 40
0.0
 40
0.0
 40
0.0
 40
0.0
 40
0.1111111111111111
 40
0.1111111111111111
 40
0.1111111111111111
 40
0.1111111111111111
 40
0.2222222222222222
 40
0.2222222222222222
 40
0.2222222222222222
 40
0.2222222222222222
 40
0.3333333333333333
 40
0.3333333333333333
 40
0.3333333333333333
 40
0.3333333333333333
 40
0.4444444444444444
 40
0.4444444444444444
 40
0.4444444444444444
 40
0.4444444444444444
 40
0.5555555555555556
 40
0.5555555555555556
 40
0.5555555555555556
 40
0.5555555555555556
 40
0.6666666666666666
 40
0.6666666666666666
 40
0.6666666666666666
 40
0.6666666666666666
 40
0.7777777777777778
 40
0.7777777777777778
 40
0.7777777777777778
 40
0.7777777777777778
 40
1.0
 40
1.0
 40
1.0
 40
1.0
 10
-121.6123
 20
-112.0697
 30
0.0
 10
-121.6123
 20
-112.0697
 30
0.0
 10
-122.7063
 20
-112.0697
 30
0.0
 10
-122.7063
 20
-112.0697
 30
0.0
 10
-122.7063
 20
-112.0697
 30
0.0
 10
-127.2945
 20
-94.2294
 30
0.0
 10
-130.9615
 20
-90.4325
 30
0.0
 10
-132.34
 20
-87.8695
 30
0.0
 10
-132.34
 20
-87.8695
 30
0.0
 10
-132.2487
 20
-86.771
 30
0.0
 10
-130.181
 20
-83.6437
 30
0.0
 10
-129.6357
 20
-82.2441
 30
0.0
 10
-129.6357
 20
-82.2441
 30
0.0
 10
-126.6954
 20
-74.6836
 30
0.0
 10
-124.9985
 20
-66.8386
 30
0.0
 10
-121.0983
 20
-59.6054
 30
0.0
 10
-121.0983
 20
-59.6054
 30
0.0
 10
-119.6301
 20
-60.402
 30
0.0
 10
-118.1197
 20
-61.2643
 30
0.0
 10
-116.3187
 20
-61.7437
 30
0.0
 10
-116.3187
 20
-61.7437
 30
0.0
 10
-114.1526
 20
-62.3215
 30
0.0
 10
-111.405
 20
-62.7607
 30
0.0
 10
-111.2736
 20
-62.557
 30
0.0
 10
-111.2736
 20
-62.557
 30
0.0
 10
-111.2578
 20
-62.6238
 30
0.0
 10
-116.1375
 20
-73.5243
 30
0.0
 10
-119.0408
 20
-85.8744
 30
0.0
 10
-119.0408
 20
-85.8744
 30
0.0
 10
-121.4273
 20
-96.0256
 30
0.0
 10
-122.0106
 20
-107.4418
 30
0.0
 10
-121.6123
 20
-112.0697
 30
0.0
  0
SPLINE
  5
58
330
1F
100
AcDbEntity
  8
layer 1
 62
     7
100
AcDbSpline
210
0.0
220
0.0
230
1.0
 70
    11
 71
     3
 72
    20
 73
    16
 74
     0
 42
0.0000000001
 43
0.0000000001
 12
1.0
 22
0.0
 32
0.0
 13
1.0
 23
0.0
 33
0.0
 40
0.0
 40
0.0
 40
0.0
 40
0.0
 40
0.2
 40
0.2
 40
0.2
 40
0.2
 40
0.4
 40
0.4
 40
0.4
 40
0.4
 40
0.6
 40
0.6
 40
0.6
 40
0.6
 40
1.0
 40
1.0
 40
1.0
 40
1.0
 10
-128.8782
 20
-112.0697
 30
0.0
 10
-128.8782
 20
-112.0697
 30
0.0
 10
-148.2015
 20
-112.0697
 30
0.0
 10
-148.2015
 20
-112.0697
 30
0.0
 10
-148.2015
 20
-112.0697
 30
0.0
 10
-146.7464
 20
-110.2172
 30
0.0
 10
-144.7059
 20
-107.2341
 30
0.0
 10
-142.9665
 20
-103.3526
 30
0.0
 10
-142.9665
 20
-103.3526
 30
0.0
 10
-140.7018
 20
-98.3018
 30
0.0
 10
-138.8778
 20
-93.554
 30
0.0
 10
-138.257
 20
-93.1258
 30
0.0
 10
-138.257
 20
-93.1258
 30
0.0
 10
-134.9991
 20
-93.0873
 30
0.0
 10
-129.3722
 20
-108.2188
 30
0.0
 10
-128.8782
 20
-112.0697
 30
0.0
  0
SPLINE
  5
59
330
1F
100
AcDbEntity
  8
layer 1
 62
     7
100
AcDbSpline
210
0.0
220
0.0
230
1.0
 70
    11
 71
     3
 72
    32
 73
    28
 74
     0
 42
0.0000000001
 43
0.0000000001
 12
1.0
 22
0.0
 32
0.0
 13
1.0
 23
0.0
 33
0.0
 40
0.0
 40
0.0
 40
0.0
 40
0.0
 40
0.125
 40
0.125
 40
0.125
 40
0.125
 40
0.25
 40
0.25
 40
0.25
 40
0.25
 40
0.375
 40
0.375
 40
0.375
 40
0.375
 40
0.5
 40
0.5
 40
0.5
 40
0.5
 40
0.625
 40
0.625
 40
0.625
 40
0.625
 40
0.75
 40
0.75
 40
0.75
 40
0.75
 40
1.0
 40
1.0
 40
1.0
 40
1.0
 10
-151.9616
 20
-112.0697
 30
0.0
 10
-151.9616
 20
-112.0697
 30
0.0
 10
-161.1895
 20
-112.0697
 30
0.0
 10
-161.1895
 20
-112.0697
 30
0.0
 10
-161.1895
 20
-112.0697
 30
0.0
 10
-161.209
 20
-111.9954
 30
0.0
 10
-161.2282
 20
-111.9213
 30
0.0
 10
-161.2475
 20
-111.8468
 30
0.0
 10
-161.2475
 20
-111.8468
 30
0.0
 10
-160.7916
 20
-111.4421
 30
0.0
 10
-160.9732
 20
-111.0475
 30
0.0
 10
-160.6559
 20
-110.4639
 30
0.0
 10
-160.6559
 20
-110.4639
 30
0.0
 10
-159.0331
 20
-107.4773
 30
0.0
 10
-157.7304
 20
-102.0819
 30
0.0
 10
-156.1356
 20
-99.7222
 30
0.0
 10
-156.1356
 20
-99.7222
 30
0.0
 10
-155.4217
 20
-98.6651
 30
0.0
 10
-149.9121
 20
-95.3312
 30
0.0
 10
-148.3171
 20
-95.0895
 30
0.0
 10
-148.3171
 20
-95.0895
 30
0.0
 10
-147.8774
 20
-95.0234
 30
0.0
 10
-147.951
 20
-96.5111
 30
0.0
 10
-147.978
 20
-97.2385
 30
0.0
 10
-147.978
 20
-97.2385
 30
0.0
 10
-148.0524
 20
-99.1669
 30
0.0
 10
-150.0988
 20
-108.8454
 30
0.0
 10
-151.9616
 20
-112.0697
 30
0.0
  0
SPLINE
  5
5A
330
1F
100
AcDbEntity
  8
layer 1
 62
     7
100
AcDbSpline
210
0.0
220
0.0
230
1.0
 70
    11
 71
     3
 72
    24
 73
    20
 74
     0
 42
0.0000000001
 43
0.0000000001
 12
1.0
 22
0.0
 32
0.0
 13
1.0
 23
0.0
 33
0.0
 40
0.0
 40
0.0
 40
0.0
 40
0.0
 40
0.1666666666666667
 40
0.1666666666666667
 40
0.1666666666666667
 40
0.1666666666666667
 40
0.3333333333333333
 40
0.3333333333333333
 40
0.3333333333333333
 40
0.3333333333333333
 40
0.5
 40
0.5
 40
0.5
 40
0.5
 40
0.6666666666666666
 40
0.6666666666666666
 40
0.6666666666666666
 40
0.6666666666666666
 40
1.0
 40
1.0
 40
1.0
 40
1.0
 10
-169.9031
 20
-112.0697
 30
0.0
 10
-169.9031
 20
-112.0697
 30
0.0
 10
-175.6118
 20
-112.0697
 30
0.0
 10
-175.6118
 20
-112.0697
 30
0.0
 10
-175.6118
 20
-112.0697
 30
0.0
 10
-175.5247
 20
-108.2446
 30
0.0
 10
-174.323
 20
-99.5597
 30
0.0
 10
-172.5689
 20
-92.7873
 30
0.0
 10
-172.5689
 20
-92.7873
 30
0.0
 10
-171.5118
 20
-88.7051
 30
0.0
 10
-169.9406
 20
-85.6604
 30
0.0
 10
-169.1083
 20
-83.903
 30
0.0
 10
-169.1083
 20
-83.903
 30
0.0
 10
-166.9167
 20
-79.273
 30
0.0
 10
-163.2036
 20
-75.7724
 30
0.0
 10
-160.487
 20
-71.7301
 30
0.0
 10
-160.487
 20
-71.7301
 30
0.0
 10
-158.3285
 20
-77.4521
 30
0.0
 10
-165.4931
 20
-106.2394
 30
0.0
 10
-169.9031
 20
-112.0697
 30
0.0
  0
SPLINE
  5
5B
330
1F
100
AcDbEntity
  8
layer 1
 62
     7
100
AcDbSpline
210
0.0
220
0.0
230
1.0
 70
    11
 71
     3
 72
    36
 73
    32
 74
     0
 42
0.0000000001
 43
0.0000000001
 12
1.0
 22
0.0
 32
0.0
 13
1.0
 23
0.0
 33
0.0
 40
0.0
 40
0.0
 40
0.0
 40
0.0
 40
0.1111111111111111
 40
0.1111111111111111
 40
0.1111111111111111
 40
0.1111111111111111
 40
0.2222222222222222
 40
0.2222222222222222
 40
0.2222222222222222
 40
0.2222222222222222
 40
0.3333333333333333
 40
0.3333333333333333
 40
0.3333333333333333
 40
0.3333333333333333
 40
0.4444444444444444
 40
0.4444444444444444
 40
0.4444444444444444
 40
0.4444444444444444
 40
0.5555555555555556
 40
0.5555555555555556
 40
0.5555555555555556
 40
0.5555555555555556
 40
0.6666666666666666
 40
0.6666666666666666
 40
0.6666666666666666
 40
0.6666666666666666
 40
0.7777777777777778
 40
0.7777777777777778
 40
0.7777777777777778
 40
0.7777777777777778
 40
1.0
 40
1.0
 40
1.0
 40
1.0
 10
-184.4898
 20
-87.1383
 30
0.0
 10
-184.4898
 20
-87.1383
 30
0.0
 10
-184.4898
 20
-76.0074
 30
0.0
 10
-184.4898
 20
-76.0074
 30
0.0
 10
-184.4898
 20
-76.0074
 30
0.0
 10
-183.3142
 20
-66.2426
 30
0.0
 10
-180.7132
 20
-56.4111
 30
0.0
 10
-177.3922
 20
-47.6602
 30
0.0
 10
-177.3922
 20
-47.6602
 30
0.0
 10
-176.3625
 20
-44.9481
 30
0.0
 10
-172.942
 20
-37.26
 30
0.0
 10
-169.4471
 20
-38.2542
 30
0.0
 10
-169.4471
 20
-38.2542
 30
0.0
 10
-169.306
 20
-38.3153
 30
0.0
 10
-169.1653
 20
-38.3761
 30
0.0
 10
-169.024
 20
-38.4384
 30
0.0
 10
-169.024
 20
-38.4384
 30
0.0
 10
-170.0945
 20
-41.5734
 30
0.0
 10
-171.1658
 20
-44.7094
 30
0.0
 10
-172.236
 20
-47.8447
 30
0.0
 10
-172.236
 20
-47.8447
 30
0.0
 10
-174.1847
 20
-53.1072
 30
0.0
 10
-175.107
 20
-58.3768
 30
0.0
 10
-177.0542
 20
-63.7066
 30
0.0
 10
-177.0542
 20
-63.7066
 30
0.0
 10
-178.7433
 20
-68.3321
 30
0.0
 10
-179.6629
 20
-71.6207
 30
0.0
 10
-180.9484
 20
-76.1368
 30
0.0
 10
-180.9484
 20
-76.1368
 30
0.0
 10
-182.0625
 20
-80.051
 30
0.0
 10
-183.7196
 20
-84.988
 30
0.0
 10
-184.4898
 20
-87.1383
 30
0.0
  0
SPLINE
  5
5C
330
1F
100
AcDbEntity
  8
layer 1
 62
     7
100
AcDbSpline
210
0.0
220
0.0
230
1.0
 70
    11
 71
     3
 72
    16
 73
    12
 74
     0
 42
0.0000000001
 43
0.0000000001
 12
1.0
 22
0.0
 32
0.0
 13
1.0
 23
0.0
 33
0.0
 40
0.0
 40
0.0
 40
0.0
 40
0.0
 40
0.25
 40
0.25
 40
0.25
 40
0.25
 40
0.5
 40
0.5
 40
0.5
 40
0.5
 40
1.0
 40
1.0
 40
1.0
 40
1.0
 10
-184.4898
 20
-29.5979
 30
0.0
 10
-184.4898
 20
-29.5979
 30
0.0
 10
-184.4898
 20
16.4495
 30
0.0
 10
-184.4898
 20
16.4495
 30
0.0
 10
-184.4898
 20
16.4495
 30
0.0
 10
-182.2444
 20
7.8317
 30
0.0
 10
-176.5642
 20
-7.3901
 30
0.0
 10
-177.7303
 20
-14.6453
 30
0.0
 10
-177.7303
 20
-14.6453
 30
0.0
 10
-178.7408
 20
-20.9359
 30
0.0
 10
-182.12
 20
-24.7112
 30
0.0
 10
-184.4898
 20
-29.5979
 30
0.0
  0
SPLINE
  5
5D
330
1F
100
AcDbEntity
  8
layer 1
 62
     7
100
AcDbSpline
210
0.0
220
0.0
230
1.0
 70
    11
 71
     3
 72
    40
 73
    36
 74
     0
 42
0.0000000001
 43
0.0000000001
 12
1.0
 22
0.0
 32
0.0
 13
1.0
 23
0.0
 33
0.0
 40
0.0
 40
0.0
 40
0.0
 40
0.0
 40
0.1
 40
0.1
 40
0.1
 40
0.1
 40
0.2
 40
0.2
 40
0.2
 40
0.2
 40
0.3
 40
0.3
 40
0.3
 40
0.3
 40
0.4
 40
0.4
 40
0.4
 40
0.4
 40
0.5
 40
0.5
 40
0.5
 40
0.5
 40
0.6
 40
0.6
 40
0.6
 40
0.6
 40
0.7
 40
0.7
 40
0.7
 40
0.7
 40
0.8
 40
0.8
 40
0.8
 40
0.8
 40
1.0
 40
1.0
 40
1.0
 40
1.0
 10
-184.4898
 20
32.4135
 30
0.0
 10
-184.4898
 20
32.4135
 30
0.0
 10
-184.4898
 20
73.3878
 30
0.0
 10
-184.4898
 20
73.3878
 30
0.0
 10
-184.4898
 20
73.3878
 30
0.0
 10
-183.1475
 20
73.0485
 30
0.0
 10
-181.9664
 20
72.2815
 30
0.0
 10
-180.8015
 20
71.3458
 30
0.0
 10
-180.8015
 20
71.3458
 30
0.0
 10
-173.0368
 20
65.1099
 30
0.0
 10
-171.3044
 20
55.7829
 30
0.0
 10
-169.3628
 20
45.8534
 30
0.0
 10
-169.3628
 20
45.8534
 30
0.0
 10
-168.7319
 20
42.6321
 30
0.0
 10
-169.2001
 20
37.0945
 30
0.0
 10
-169.7279
 20
31.4166
 30
0.0
 10
-169.7279
 20
31.4166
 30
0.0
 10
-169.9333
 20
29.212
 30
0.0
 10
-170.1218
 20
26.9638
 30
0.0
 10
-170.3525
 20
24.9016
 30
0.0
 10
-170.3525
 20
24.9016
 30
0.0
 10
-170.7188
 20
21.6347
 30
0.0
 10
-171.5026
 20
12.4509
 30
0.0
 10
-172.8191
 20
7.5872
 30
0.0
 10
-172.8191
 20
7.5872
 30
0.0
 10
-173.7182
 20
4.2618
 30
0.0
 10
-174.9003
 20
3.3792
 30
0.0
 10
-175.9118
 20
7.4686
 30
0.0
 10
-175.9118
 20
7.4686
 30
0.0
 10
-176.9466
 20
11.6496
 30
0.0
 10
-177.8499
 20
15.6052
 30
0.0
 10
-179.1539
 20
19.3935
 30
0.0
 10
-179.1539
 20
19.3935
 30
0.0
 10
-180.6311
 20
23.6884
 30
0.0
 10
-182.5537
 20
27.8016
 30
0.0
 10
-184.4898
 20
32.4135
 30
0.0
  0
SPLINE
  5
5E
330
1F
100
AcDbEntity
  8
layer 1
 62
     7
100
AcDbSpline
210
0.0
220
0.0
230
1.0
 70
    11
 71
     3
 72
    16
 73
    12
 74
     0
 42
0.0000000001
 43
0.0000000001
 12
1.0
 22
0.0
 32
0.0
 13
1.0
 23
0.0
 33
0.0
 40
0.0
 40
0.0
 40
0.0
 40
0.0
 40
0.25
 40
0.25
 40
0.25
 40
0.25
 40
0.5
 40
0.5
 40
0.5
 40
0.5
 40
1.0
 40
1.0
 40
1.0
 40
1.0
 10
-184.4898
 20
76.2556
 30
0.0
 10
-184.4898
 20
76.2556
 30
0.0
 10
-184.4898
 20
88.1247
 30
0.0
 10
-184.4898
 20
88.1247
 30
0.0
 10
-184.4898
 20
88.1247
 30
0.0
 10
-180.6421
 20
86.7536
 30
0.0
 10
-174.2617
 20
77.2958
 30
0.0
 10
-175.3638
 20
73.0585
 30
0.0
 10
-175.3638
 20
73.0585
 30
0.0
 10
-177.6995
 20
74.5932
 30
0.0
 10
-181.6598
 20
75.2794
 30
0.0
 10
-184.4898
 20
76.2556
 30
0.0
  0
SPLINE
  5
5F
330
1F
100
AcDbEntity
  8
layer 1
 62
     7
100
AcDbSpline
210
0.0
220
0.0
230
1.0
 70
    11
 71
     3
 72
    24
 73
    20
 74
     0
 42
0.0000000001
 43
0.0000000001
 12
1.0
 22
0.0
 32
0.0
 13
1.0
 23
0.0
 33
0.0
 40
0.0
 40
0.0
 40
0.0
 40
0.0
 40
0.1666666666666667
 40
0.1666666666666667
 40
0.1666666666666667
 40
0.1666666666666667
 40
0.3333333333333333
 40
0.3333333333333333
 40
0.3333333333333333
 40
0.3333333333333333
 40
0.5
 40
0.5
 40
0.5
 40
0.5
 40
0.6666666666666666
 40
0.6666666666666666
 40
0.6666666666666666
 40
0.6666666666666666
 40
1.0
 40
1.0
 40
1.0
 40
1.0
 10
-184.4898
 20
91.1418
 30
0.0
 10
-184.4898
 20
91.1418
 30
0.0
 10
-184.4898
 20
103.0357
 30
0.0
 10
-184.4898
 20
103.0357
 30
0.0
 10
-184.4898
 20
103.0357
 30
0.0
 10
-182.9964
 20
101.4069
 30
0.0
 10
-180.7467
 20
98.335
 30
0.0
 10
-180.0122
 20
96.299
 30
0.0
 10
-180.0122
 20
96.299
 30
0.0
 10
-179.3133
 20
94.3624
 30
0.0
 10
-178.929
 20
91.9949
 30
0.0
 10
-178.46
 20
89.8949
 30
0.0
 10
-178.46
 20
89.8949
 30
0.0
 10
-177.8544
 20
87.187
 30
0.0
 10
-177.0482
 20
85.6901
 30
0.0
 10
-180.018
 20
87.7583
 30
0.0
 10
-180.018
 20
87.7583
 30
0.0
 10
-181.5725
 20
88.8416
 30
0.0
 10
-183.6693
 20
90.4011
 30
0.0
 10
-184.4898
 20
91.1418
 30
0.0
  0
SPLINE
  5
60
330
1F
100
AcDbEntity
  8
layer 1
 62
     7
100
AcDbSpline
210
0.0
220
0.0
230
1.0
 70
    11
 71
     3
 72
    40
 73
    36
 74
     0
 42
0.0000000001
 43
0.0000000001
 12
1.0
 22
0.0
 32
0.0
 13
1.0
 23
0.0
 33
0.0
 40
0.0
 40
0.0
 40
0.0
 40
0.0
 40
0.1
 40
0.1
 40
0.1
 40
0.1
 40
0.2
 40
0.2
 40
0.2
 40
0.2
 40
0.3
 40
0.3
 40
0.3
 40
0.3
 40
0.4
 40
0.4
 40
0.4
 40
0.4
 40
0.5
 40
0.5
 40
0.5
 40
0.5
 40
0.6
 40
0.6
 40
0.6
 40
0.6
 40
0.7
 40
0.7
 40
0.7
 40
0.7
 40
0.8
 40
0.8
 40
0.8
 40
0.8
 40
1.0
 40
1.0
 40
1.0
 40
1.0
 10
-184.4898
 20
106.3447
 30
0.0
 10
-184.4898
 20
106.3447
 30
0.0
 10
-184.4898
 20
109.1218
 30
0.0
 10
-184.4898
 20
109.1218
 30
0.0
 10
-184.4898
 20
109.1218
 30
0.0
 10
-182.4999
 20
107.8639
 30
0.0
 10
-177.2423
 20
102.6579
 30
0.0
 10
-176.4451
 20
101.7635
 30
0.0
 10
-176.4451
 20
101.7635
 30
0.0
 10
-176.2184
 20
101.5083
 30
0.0
 10
-175.2224
 20
98.8487
 30
0.0
 10
-173.0105
 20
96.0122
 30
0.0
 10
-173.0105
 20
96.0122
 30
0.0
 10
-170.1651
 20
92.365
 30
0.0
 10
-165.9788
 20
88.3587
 30
0.0
 10
-165.8967
 20
88.0909
 30
0.0
 10
-165.8967
 20
88.0909
 30
0.0
 10
-165.8967
 20
85.3563
 30
0.0
 10
-165.9968
 20
82.7057
 30
0.0
 10
-166.1505
 20
79.9751
 30
0.0
 10
-166.1505
 20
79.9751
 30
0.0
 10
-166.3161
 20
78.9727
 30
0.0
 10
-167.8694
 20
67.1433
 30
0.0
 10
-170.0384
 20
68.5397
 30
0.0
 10
-170.0384
 20
68.5397
 30
0.0
 10
-171.6237
 20
74.3237
 30
0.0
 10
-173.1769
 20
80.4944
 30
0.0
 10
-175.0693
 20
86.1856
 30
0.0
 10
-175.0693
 20
86.1856
 30
0.0
 10
-176.4201
 20
90.2515
 30
0.0
 10
-177.3647
 20
94.2933
 30
0.0
 10
-178.7445
 20
98.4206
 30
0.0
 10
-178.7445
 20
98.4206
 30
0.0
 10
-180.5017
 20
101.53
 30
0.0
 10
-182.2194
 20
103.823
 30
0.0
 10
-184.4898
 20
106.3447
 30
0.0
  0
SPLINE
  5
61
330
1F
100
AcDbEntity
  8
layer 1
 62
     7
100
AcDbSpline
210
0.0
220
0.0
230
1.0
 70
    11
 71
     3
 72
    28
 73
    24
 74
     0
 42
0.0000000001
 43
0.0000000001
 12
1.0
 22
0.0
 32
0.0
 13
1.0
 23
0.0
 33
0.0
 40
0.0
 40
0.0
 40
0.0
 40
0.0
 40
0.1428571428571428
 40
0.1428571428571428
 40
0.1428571428571428
 40
0.1428571428571428
 40
0.2857142857142857
 40
0.2857142857142857
 40
0.2857142857142857
 40
0.2857142857142857
 40
0.4285714285714285
 40
0.4285714285714285
 40
0.4285714285714285
 40
0.4285714285714285
 40
0.5714285714285714
 40
0.5714285714285714
 40
0.5714285714285714
 40
0.5714285714285714
 40
0.7142857142857143
 40
0.7142857142857143
 40
0.7142857142857143
 40
0.7142857142857143
 40
1.0
 40
1.0
 40
1.0
 40
1.0
 10
-148.7801
 20
115.561
 30
0.0
 10
-148.0248
 20
113.8361
 30
0.0
 10
-147.9027
 20
111.2108
 30
0.0
 10
-147.8084
 20
109.9476
 30
0.0
 10
-147.8084
 20
109.9476
 30
0.0
 10
-148.0874
 20
108.1091
 30
0.0
 10
-150.0543
 20
103.4309
 30
0.0
 10
-151.5277
 20
103.2157
 30
0.0
 10
-151.5277
 20
103.2157
 30
0.0
 10
-151.64
 20
103.3077
 30
0.0
 10
-151.7532
 20
103.4003
 30
0.0
 10
-151.8658
 20
103.4922
 30
0.0
 10
-151.8658
 20
103.4922
 30
0.0
 10
-152.2747
 20
105.1698
 30
0.0
 10
-151.9956
 20
106.6765
 30
0.0
 10
-151.576
 20
108.1201
 30
0.0
 10
-151.576
 20
108.1201
 30
0.0
 10
-150.8553
 20
110.6007
 30
0.0
 10
-150.1431
 20
112.9002
 30
0.0
 10
-150.3095
 20
115.4684
 30
0.0
 10
-150.3095
 20
115.4684
 30
0.0
 10
-150.4649
 20
117.8842
 30
0.0
 10
-149.5555
 20
117.3319
 30
0.0
 10
-148.7801
 20
115.561
 30
0.0
  0
SPLINE
  5
62
330
1F
100
AcDbEntity
  8
layer 1
 62
     7
100
AcDbSpline
210
0.0
220
0.0
230
1.0
 70
    11
 71
     3
 72
    40
 73
    36
 74
     0
 42
0.0000000001
 43
0.0000000001
 12
1.0
 22
0.0
 32
0.0
 13
1.0
 23
0.0
 33
0.0
 40
0.0
 40
0.0
 40
0.0
 40
0.0
 40
0.1
 40
0.1
 40
0.1
 40
0.1
 40
0.2
 40
0.2
 40
0.2
 40
0.2
 40
0.3
 40
0.3
 40
0.3
 40
0.3
 40
0.4
 40
0.4
 40
0.4
 40
0.4
 40
0.5
 40
0.5
 40
0.5
 40
0.5
 40
0.6
 40
0.6
 40
0.6
 40
0.6
 40
0.7
 40
0.7
 40
0.7
 40
0.7
 40
0.8
 40
0.8
 40
0.8
 40
0.8
 40
1.0
 40
1.0
 40
1.0
 40
1.0
 10
-126.4859
 20
114.4497
 30
0.0
 10
-125.8433
 20
111.7363
 30
0.0
 10
-126.1806
 20
108.4552
 30
0.0
 10
-125.6631
 20
105.0599
 30
0.0
 10
-125.6631
 20
105.0599
 30
0.0
 10
-125.5265
 20
104.1633
 30
0.0
 10
-125.2718
 20
102.5235
 30
0.0
 10
-125.5783
 20
101.5553
 30
0.0
 10
-125.5783
 20
101.5553
 30
0.0
 10
-126.1161
 20
99.8594
 30
0.0
 10
-128.3547
 20
98.4363
 30
0.0
 10
-129.466
 20
97.2212
 30
0.0
 10
-129.466
 20
97.2212
 30
0.0
 10
-132.6619
 20
93.7276
 30
0.0
 10
-132.7329
 20
92.6763
 30
0.0
 10
-136.8206
 20
89.9352
 30
0.0
 10
-136.8206
 20
89.9352
 30
0.0
 10
-137.801
 20
89.278
 30
0.0
 10
-139.2099
 20
88.5131
 30
0.0
 10
-140.6232
 20
88.3677
 30
0.0
 10
-140.6232
 20
88.3677
 30
0.0
 10
-140.6518
 20
88.3989
 30
0.0
 10
-140.6803
 20
88.4287
 30
0.0
 10
-140.7083
 20
88.4605
 30
0.0
 10
-140.7083
 20
88.4605
 30
0.0
 10
-140.5925
 20
91.9173
 30
0.0
 10
-138.9174
 20
100.0241
 30
0.0
 10
-137.4957
 20
103.1231
 30
0.0
 10
-137.4957
 20
103.1231
 30
0.0
 10
-135.5701
 20
107.3251
 30
0.0
 10
-132.7509
 20
110.932
 30
0.0
 10
-130.1792
 20
114.5913
 30
0.0
 10
-130.1792
 20
114.5913
 30
0.0
 10
-128.4726
 20
117.0199
 30
0.0
 10
-127.5064
 20
118.7631
 30
0.0
 10
-126.4859
 20
114.4497
 30
0.0
  0
SPLINE
  5
63
330
1F
100
AcDbEntity
  8
layer 1
 62
     7
100
AcDbSpline
210
0.0
220
0.0
230
1.0
 70
    11
 71
     3
 72
    44
 73
    40
 74
     0
 42
0.0000000001
 43
0.0000000001
 12
1.0
 22
0.0
 32
0.0
 13
1.0
 23
0.0
 33
0.0
 40
0.0
 40
0.0
 40
0.0
 40
0.0
 40
0.0909090909090909
 40
0.0909090909090909
 40
0.0909090909090909
 40
0.0909090909090909
 40
0.1818181818181818
 40
0.1818181818181818
 40
0.1818181818181818
 40
0.1818181818181818
 40
0.2727272727272727
 40
0.2727272727272727
 40
0.2727272727272727
 40
0.2727272727272727
 40
0.3636363636363636
 40
0.3636363636363636
 40
0.3636363636363636
 40
0.3636363636363636
 40
0.4545454545454545
 40
0.4545454545454545
 40
0.4545454545454545
 40
0.4545454545454545
 40
0.5454545454545454
 40
0.5454545454545454
 40
0.5454545454545454
 40
0.5454545454545454
 40
0.6363636363636364
 40
0.6363636363636364
 40
0.6363636363636364
 40
0.6363636363636364
 40
0.7272727272727273
 40
0.7272727272727273
 40
0.7272727272727273
 40
0.7272727272727273
 40
0.8181818181818182
 40
0.8181818181818182
 40
0.8181818181818182
 40
0.8181818181818182
 40
1.0
 40
1.0
 40
1.0
 40
1.0
 10
-143.2805
 20
102.1574
 30
0.0
 10
-145.3473
 20
98.8953
 30
0.0
 10
-146.7123
 20
94.739
 30
0.0
 10
-148.3824
 20
90.2565
 30
0.0
 10
-148.3824
 20
90.2565
 30
0.0
 10
-151.5707
 20
81.699
 30
0.0
 10
-154.5736
 20
71.9477
 30
0.0
 10
-156.5986
 20
64.9435
 30
0.0
 10
-156.5986
 20
64.9435
 30
0.0
 10
-157.896
 20
60.4559
 30
0.0
 10
-159.0919
 20
55.0885
 30
0.0
 10
-161.4459
 20
51.4142
 30
0.0
 10
-161.4459
 20
51.4142
 30
0.0
 10
-163.8267
 20
47.6994
 30
0.0
 10
-164.5955
 20
48.9899
 30
0.0
 10
-164.7038
 20
53.1409
 30
0.0
 10
-164.7038
 20
53.1409
 30
0.0
 10
-164.8167
 20
57.4771
 30
0.0
 10
-163.7489
 20
63.3637
 30
0.0
 10
-163.1921
 20
66.1424
 30
0.0
 10
-163.1921
 20
66.1424
 30
0.0
 10
-162.235
 20
70.9227
 30
0.0
 10
-162.1824
 20
75.7771
 30
0.0
 10
-160.8256
 20
80.1598
 30
0.0
 10
-160.8256
 20
80.1598
 30
0.0
 10
-159.6803
 20
83.8561
 30
0.0
 10
-156.2837
 20
92.4055
 30
0.0
 10
-153.8942
 20
95.3771
 30
0.0
 10
-153.8942
 20
95.3771
 30
0.0
 10
-151.5587
 20
98.2794
 30
0.0
 10
-148.2541
 20
100.2288
 30
0.0
 10
-145.3913
 20
102.5983
 30
0.0
 10
-145.3913
 20
102.5983
 30
0.0
 10
-145.0094
 20
102.9146
 30
0.0
 10
-144.0638
 20
103.8583
 30
0.0
 10
-143.3301
 20
104.145
 30
0.0
 10
-143.3301
 20
104.145
 30
0.0
 10
-142.5964
 20
104.4318
 30
0.0
 10
-142.0739
 20
104.0617
 30
0.0
 10
-143.2805
 20
102.1574
 30
0.0
  0
SPLINE
  5
64
330
1F
100
AcDbEntity
  8
layer 1
 62
     7
100
AcDbSpline
210
0.0
220
0.0
230
1.0
 70
    11
 71
     3
 72
    48
 73
    44
 74
     0
 42
0.0000000001
 43
0.0000000001
 12
1.0
 22
0.0
 32
0.0
 13
1.0
 23
0.0
 33
0.0
 40
0.0
 40
0.0
 40
0.0
 40
0.0
 40
0.0833333333333333
 40
0.0833333333333333
 40
0.0833333333333333
 40
0.0833333333333333
 40
0.1666666666666667
 40
0.1666666666666667
 40
0.1666666666666667
 40
0.1666666666666667
 40
0.25
 40
0.25
 40
0.25
 40
0.25
 40
0.3333333333333333
 40
0.3333333333333333
 40
0.3333333333333333
 40
0.3333333333333333
 40
0.4166666666666667
 40
0.4166666666666667
 40
0.4166666666666667
 40
0.4166666666666667
 40
0.5
 40
0.5
 40
0.5
 40
0.5
 40
0.5833333333333334
 40
0.5833333333333334
 40
0.5833333333333334
 40
0.5833333333333334
 40
0.6666666666666666
 40
0.6666666666666666
 40
0.6666666666666666
 40
0.6666666666666666
 40
0.75
 40
0.75
 40
0.75
 40
0.75
 40
0.8333333333333334
 40
0.8333333333333334
 40
0.8333333333333334
 40
0.8333333333333334
 40
1.0
 40
1.0
 40
1.0
 40
1.0
 10
-123.5331
 20
89.9029
 30
0.0
 10
-123.4137
 20
85.7096
 30
0.0
 10
-124.7548
 20
79.5913
 30
0.0
 10
-125.24
 20
78.1311
 30
0.0
 10
-125.24
 20
78.1311
 30
0.0
 10
-126.7086
 20
73.7119
 30
0.0
 10
-128.7856
 20
69.8061
 30
0.0
 10
-130.9034
 20
66.1424
 30
0.0
 10
-130.9034
 20
66.1424
 30
0.0
 10
-131.6797
 20
64.7978
 30
0.0
 10
-132.4001
 20
63.0356
 30
0.0
 10
-133.5239
 20
62.0847
 30
0.0
 10
-133.5239
 20
62.0847
 30
0.0
 10
-135.7298
 20
60.2157
 30
0.0
 10
-138.0931
 20
58.8248
 30
0.0
 10
-140.7083
 20
57.3812
 30
0.0
 10
-140.7083
 20
57.3812
 30
0.0
 10
-142.9322
 20
56.1533
 30
0.0
 10
-146.9318
 20
53.8013
 30
0.0
 10
-150.1754
 20
54.8906
 30
0.0
 10
-150.1754
 20
54.8906
 30
0.0
 10
-151.4826
 20
58.4422
 30
0.0
 10
-148.761
 20
64.2998
 30
0.0
 10
-147.724
 20
67.1568
 30
0.0
 10
-147.724
 20
67.1568
 30
0.0
 10
-146.7661
 20
70.0766
 30
0.0
 10
-145.808
 20
72.9979
 30
0.0
 10
-144.8498
 20
75.918
 30
0.0
 10
-144.8498
 20
75.918
 30
0.0
 10
-144.0748
 20
77.1314
 30
0.0
 10
-142.3111
 20
77.7104
 30
0.0
 10
-141.1305
 20
78.5
 30
0.0
 10
-141.1305
 20
78.5
 30
0.0
 10
-138.585
 20
80.2033
 30
0.0
 10
-136.0393
 20
82.17
 30
0.0
 10
-133.8618
 20
84.3103
 30
0.0
 10
-133.8618
 20
84.3103
 30
0.0
 10
-131.7184
 20
86.415
 30
0.0
 10
-130.0654
 20
89.0406
 30
0.0
 10
-128.1223
 20
91.3623
 30
0.0
 10
-128.1223
 20
91.3623
 30
0.0
 10
-125.6411
 20
94.3294
 30
0.0
 10
-123.6918
 20
95.508
 30
0.0
 10
-123.5331
 20
89.9029
 30
0.0
  0
SPLINE
  5
65
330
1F
100
AcDbEntity
  8
layer 1
 62
     7
100
AcDbSpline
210
0.0
220
0.0
230
1.0
 70
    11
 71
     3
 72
    48
 73
    44
 74
     0
 42
0.0000000001
 43
0.0000000001
 12
1.0
 22
0.0
 32
0.0
 13
1.0
 23
0.0
 33
0.0
 40
0.0
 40
0.0
 40
0.0
 40
0.0
 40
0.0833333333333333
 40
0.0833333333333333
 40
0.0833333333333333
 40
0.0833333333333333
 40
0.1666666666666667
 40
0.1666666666666667
 40
0.1666666666666667
 40
0.1666666666666667
 40
0.25
 40
0.25
 40
0.25
 40
0.25
 40
0.3333333333333333
 40
0.3333333333333333
 40
0.3333333333333333
 40
0.3333333333333333
 40
0.4166666666666667
 40
0.4166666666666667
 40
0.4166666666666667
 40
0.4166666666666667
 40
0.5
 40
0.5
 40
0.5
 40
0.5
 40
0.5833333333333334
 40
0.5833333333333334
 40
0.5833333333333334
 40
0.5833333333333334
 40
0.6666666666666666
 40
0.6666666666666666
 40
0.6666666666666666
 40
0.6666666666666666
 40
0.75
 40
0.75
 40
0.75
 40
0.75
 40
0.8333333333333334
 40
0.8333333333333334
 40
0.8333333333333334
 40
0.8333333333333334
 40
1.0
 40
1.0
 40
1.0
 40
1.0
 10
-110.663
 20
68.9435
 30
0.0
 10
-107.1189
 20
68.5049
 30
0.0
 10
-104.954
 20
67.1578
 30
0.0
 10
-102.5875
 20
65.1279
 30
0.0
 10
-102.5875
 20
65.1279
 30
0.0
 10
-102.5875
 20
65.035
 30
0.0
 10
-102.5875
 20
64.9435
 30
0.0
 10
-102.5875
 20
64.8509
 30
0.0
 10
-102.5875
 20
64.8509
 30
0.0
 10
-102.6436
 20
64.7896
 30
0.0
 10
-102.7001
 20
64.7283
 30
0.0
 10
-102.7559
 20
64.6669
 30
0.0
 10
-102.7559
 20
64.6669
 30
0.0
 10
-104.8449
 20
64.6004
 30
0.0
 10
-108.2452
 20
61.2509
 30
0.0
 10
-109.6876
 20
60.0555
 30
0.0
 10
-109.6876
 20
60.0555
 30
0.0
 10
-115.7359
 20
55.0432
 30
0.0
 10
-121.124
 20
49.1839
 30
0.0
 10
-125.8323
 20
42.7179
 30
0.0
 10
-125.8323
 20
42.7179
 30
0.0
 10
-126.9684
 20
42.9854
 30
0.0
 10
-127.8004
 20
44.1378
 30
0.0
 10
-128.7056
 20
44.7461
 30
0.0
 10
-128.7056
 20
44.7461
 30
0.0
 10
-130.953
 20
46.257
 30
0.0
 10
-136.8121
 20
47.5545
 30
0.0
 10
-137.0733
 20
50.8337
 30
0.0
 10
-137.0733
 20
50.8337
 30
0.0
 10
-135.5646
 20
52.2057
 30
0.0
 10
-133.7414
 20
53.2518
 30
0.0
 10
-132.1711
 20
54.6146
 30
0.0
 10
-132.1711
 20
54.6146
 30
0.0
 10
-129.3234
 20
57.0849
 30
0.0
 10
-127.6408
 20
60.9171
 30
0.0
 10
-124.5638
 20
63.1913
 30
0.0
 10
-124.5638
 20
63.1913
 30
0.0
 10
-122.1293
 20
64.9908
 30
0.0
 10
-119.3493
 20
66.1431
 30
0.0
 10
-116.6523
 20
67.558
 30
0.0
 10
-116.6523
 20
67.558
 30
0.0
 10
-114.0875
 20
68.9028
 30
0.0
 10
-113.6651
 20
69.3152
 30
0.0
 10
-110.663
 20
68.9435
 30
0.0
  0
SPLINE
  5
66
330
1F
100
AcDbEntity
  8
layer 1
 62
     7
100
AcDbSpline
210
0.0
220
0.0
230
1.0
 70
    11
 71
     3
 72
    28
 73
    24
 74
     0
 42
0.0000000001
 43
0.0000000001
 12
1.0
 22
0.0
 32
0.0
 13
1.0
 23
0.0
 33
0.0
 40
0.0
 40
0.0
 40
0.0
 40
0.0
 40
0.1428571428571428
 40
0.1428571428571428
 40
0.1428571428571428
 40
0.1428571428571428
 40
0.2857142857142857
 40
0.2857142857142857
 40
0.2857142857142857
 40
0.2857142857142857
 40
0.4285714285714285
 40
0.4285714285714285
 40
0.4285714285714285
 40
0.4285714285714285
 40
0.5714285714285714
 40
0.5714285714285714
 40
0.5714285714285714
 40
0.5714285714285714
 40
0.7142857142857143
 40
0.7142857142857143
 40
0.7142857142857143
 40
0.7142857142857143
 40
1.0
 40
1.0
 40
1.0
 40
1.0
 10
-143.5988
 20
43.4479
 30
0.0
 10
-143.6749
 20
41.3701
 30
0.0
 10
-143.9604
 20
38.8682
 30
0.0
 10
-144.0045
 20
38.66
 30
0.0
 10
-144.0045
 20
38.66
 30
0.0
 10
-144.272
 20
37.3945
 30
0.0
 10
-145.2474
 20
36.2212
 30
0.0
 10
-145.8645
 20
35.2477
 30
0.0
 10
-145.8645
 20
35.2477
 30
0.0
 10
-146.3883
 20
34.4214
 30
0.0
 10
-147.4398
 20
32.4626
 30
0.0
 10
-148.5694
 20
33.219
 30
0.0
 10
-148.5694
 20
33.219
 30
0.0
 10
-149.0406
 20
35.1937
 30
0.0
 10
-146.7516
 20
37.9491
 30
0.0
 10
-146.4831
 20
41.5963
 30
0.0
 10
-146.4831
 20
41.5963
 30
0.0
 10
-146.2629
 20
44.5799
 30
0.0
 10
-147.4468
 20
46.6855
 30
0.0
 10
-144.9679
 20
46.1552
 30
0.0
 10
-144.9679
 20
46.1552
 30
0.0
 10
-143.2265
 20
45.7816
 30
0.0
 10
-143.5293
 20
45.3522
 30
0.0
 10
-143.5988
 20
43.4479
 30
0.0
  0
SPLINE
  5
67
330
1F
100
AcDbEntity
  8
layer 1
 62
     7
100
AcDbSpline
210
0.0
220
0.0
230
1.0
 70
    11
 71
     3
 72
    32
 73
    28
 74
     0
 42
0.0000000001
 43
0.0000000001
 12
1.0
 22
0.0
 32
0.0
 13
1.0
 23
0.0
 33
0.0
 40
0.0
 40
0.0
 40
0.0
 40
0.0
 40
0.125
 40
0.125
 40
0.125
 40
0.125
 40
0.25
 40
0.25
 40
0.25
 40
0.25
 40
0.375
 40
0.375
 40
0.375
 40
0.375
 40
0.5
 40
0.5
 40
0.5
 40
0.5
 40
0.625
 40
0.625
 40
0.625
 40
0.625
 40
0.75
 40
0.75
 40
0.75
 40
0.75
 40
1.0
 40
1.0
 40
1.0
 40
1.0
 10
-148.7555
 20
42.8398
 30
0.0
 10
-149.514
 20
37.5189
 30
0.0
 10
-152.3322
 20
32.1323
 30
0.0
 10
-152.873
 20
26.662
 30
0.0
 10
-152.873
 20
26.662
 30
0.0
 10
-153.5231
 20
20.0822
 30
0.0
 10
-151.7739
 20
11.4642
 30
0.0
 10
-156.0921
 20
7.9493
 30
0.0
 10
-156.0921
 20
7.9493
 30
0.0
 10
-156.2042
 20
7.9493
 30
0.0
 10
-156.3173
 20
7.9493
 30
0.0
 10
-156.4299
 20
7.9493
 30
0.0
 10
-156.4299
 20
7.9493
 30
0.0
 10
-158.582
 20
12.4319
 30
0.0
 10
-158.6458
 20
20.0457
 30
0.0
 10
-157.3593
 20
25.7486
 30
0.0
 10
-157.3593
 20
25.7486
 30
0.0
 10
-156.4009
 20
30.001
 30
0.0
 10
-155.5425
 20
34.1947
 30
0.0
 10
-154.1685
 20
38.2476
 30
0.0
 10
-154.1685
 20
38.2476
 30
0.0
 10
-152.9458
 20
41.8523
 30
0.0
 10
-152.5749
 20
43.1641
 30
0.0
 10
-151.2206
 20
44.4651
 30
0.0
 10
-151.2206
 20
44.4651
 30
0.0
 10
-149.0741
 20
46.5248
 30
0.0
 10
-148.3987
 20
45.3442
 30
0.0
 10
-148.7555
 20
42.8398
 30
0.0
  0
SPLINE
  5
68
330
1F
100
AcDbEntity
  8
layer 1
 62
     7
100
AcDbSpline
210
0.0
220
0.0
230
1.0
 70
    11
 71
     3
 72
    36
 73
    32
 74
     0
 42
0.0000000001
 43
0.0000000001
 12
1.0
 22
0.0
 32
0.0
 13
1.0
 23
0.0
 33
0.0
 40
0.0
 40
0.0
 40
0.0
 40
0.0
 40
0.1111111111111111
 40
0.1111111111111111
 40
0.1111111111111111
 40
0.1111111111111111
 40
0.2222222222222222
 40
0.2222222222222222
 40
0.2222222222222222
 40
0.2222222222222222
 40
0.3333333333333333
 40
0.3333333333333333
 40
0.3333333333333333
 40
0.3333333333333333
 40
0.4444444444444444
 40
0.4444444444444444
 40
0.4444444444444444
 40
0.4444444444444444
 40
0.5555555555555556
 40
0.5555555555555556
 40
0.5555555555555556
 40
0.5555555555555556
 40
0.6666666666666666
 40
0.6666666666666666
 40
0.6666666666666666
 40
0.6666666666666666
 40
0.7777777777777778
 40
0.7777777777777778
 40
0.7777777777777778
 40
0.7777777777777778
 40
1.0
 40
1.0
 40
1.0
 40
1.0
 10
-137.6852
 20
43.5124
 30
0.0
 10
-134.4376
 20
41.991
 30
0.0
 10
-130.2808
 20
38.383
 30
0.0
 10
-130.1344
 20
36.2712
 30
0.0
 10
-130.1344
 20
36.2712
 30
0.0
 10
-133.2407
 20
34.5493
 30
0.0
 10
-136.9845
 20
24.2965
 30
0.0
 10
-140.5437
 20
16.1897
 30
0.0
 10
-140.5437
 20
16.1897
 30
0.0
 10
-142.978
 20
10.6449
 30
0.0
 10
-146.1963
 20
4.2428
 30
0.0
 10
-149.6464
 20
-0.4855
 30
0.0
 10
-149.6464
 20
-0.4855
 30
0.0
 10
-151.2151
 20
-2.6343
 30
0.0
 10
-152.8304
 20
-4.7869
 30
0.0
 10
-154.443
 20
-5.3332
 30
0.0
 10
-154.443
 20
-5.3332
 30
0.0
 10
-155.9812
 20
-4.8279
 30
0.0
 10
-150.1111
 20
13.4511
 30
0.0
 10
-150.0906
 20
15.7891
 30
0.0
 10
-150.0906
 20
15.7891
 30
0.0
 10
-150.055
 20
19.7897
 30
0.0
 10
-150.1296
 20
24.6966
 30
0.0
 10
-148.8221
 20
27.685
 30
0.0
 10
-148.8221
 20
27.685
 30
0.0
 10
-147.3785
 20
30.9869
 30
0.0
 10
-144.3446
 20
32.2656
 30
0.0
 10
-142.9054
 20
34.8784
 30
0.0
 10
-142.9054
 20
34.8784
 30
0.0
 10
-141.0609
 20
38.2283
 30
0.0
 10
-143.3646
 20
46.1745
 30
0.0
 10
-137.6852
 20
43.5124
 30
0.0
  0
SPLINE
  5
69
330
1F
100
AcDbEntity
  8
layer 1
 62
     7
100
AcDbSpline
210
0.0
220
0.0
230
1.0
 70
    11
 71
     3
 72
    44
 73
    40
 74
     0
 42
0.0000000001
 43
0.0000000001
 12
1.0
 22
0.0
 32
0.0
 13
1.0
 23
0.0
 33
0.0
 40
0.0
 40
0.0
 40
0.0
 40
0.0
 40
0.0909090909090909
 40
0.0909090909090909
 40
0.0909090909090909
 40
0.0909090909090909
 40
0.1818181818181818
 40
0.1818181818181818
 40
0.1818181818181818
 40
0.1818181818181818
 40
0.2727272727272727
 40
0.2727272727272727
 40
0.2727272727272727
 40
0.2727272727272727
 40
0.3636363636363636
 40
0.3636363636363636
 40
0.3636363636363636
 40
0.3636363636363636
 40
0.4545454545454545
 40
0.4545454545454545
 40
0.4545454545454545
 40
0.4545454545454545
 40
0.5454545454545454
 40
0.5454545454545454
 40
0.5454545454545454
 40
0.5454545454545454
 40
0.6363636363636364
 40
0.6363636363636364
 40
0.6363636363636364
 40
0.6363636363636364
 40
0.7272727272727273
 40
0.7272727272727273
 40
0.7272727272727273
 40
0.7272727272727273
 40
0.8181818181818182
 40
0.8181818181818182
 40
0.8181818181818182
 40
0.8181818181818182
 40
1.0
 40
1.0
 40
1.0
 40
1.0
 10
-122.8735
 20
31.0057
 30
0.0
 10
-121.3027
 20
29.768
 30
0.0
 10
-119.6081
 20
27.979
 30
0.0
 10
-117.8016
 20
26.671
 30
0.0
 10
-117.8016
 20
26.671
 30
0.0
 10
-116.4215
 20
25.7792
 30
0.0
 10
-115.041
 20
24.8883
 30
0.0
 10
-113.6601
 20
23.9965
 30
0.0
 10
-113.6601
 20
23.9965
 30
0.0
 10
-114.2332
 20
21.7986
 30
0.0
 10
-115.5189
 20
18.3002
 30
0.0
 10
-116.2809
 20
16.1572
 30
0.0
 10
-116.2809
 20
16.1572
 30
0.0
 10
-118.1049
 20
11.0248
 30
0.0
 10
-120.6894
 20
3.2783
 30
0.0
 10
-124.3106
 20
0.2036
 30
0.0
 10
-124.3106
 20
0.2036
 30
0.0
 10
-127.7692
 20
-2.7344
 30
0.0
 10
-132.1559
 20
-4.3189
 30
0.0
 10
-136.5663
 20
-6.2525
 30
0.0
 10
-136.5663
 20
-6.2525
 30
0.0
 10
-138.6759
 20
-7.1769
 30
0.0
 10
-143.3138
 20
-9.7026
 30
0.0
 10
-145.5269
 20
-9.8495
 30
0.0
 10
-145.5269
 20
-9.8495
 30
0.0
 10
-145.5269
 20
-9.7572
 30
0.0
 10
-145.5269
 20
-9.6643
 30
0.0
 10
-145.5269
 20
-9.573
 30
0.0
 10
-145.5269
 20
-9.573
 30
0.0
 10
-143.0013
 20
-4.5489
 30
0.0
 10
-139.2176
 20
-0.1932
 30
0.0
 10
-136.1434
 20
4.3534
 30
0.0
 10
-136.1434
 20
4.3534
 30
0.0
 10
-133.0325
 20
8.954
 30
0.0
 10
-131.7682
 20
12.7722
 30
0.0
 10
-129.7198
 20
17.8173
 30
0.0
 10
-129.7198
 20
17.8173
 30
0.0
 10
-127.8355
 20
22.4615
 30
0.0
 10
-125.3731
 20
26.9153
 30
0.0
 10
-122.8735
 20
31.0057
 30
0.0
  0
SPLINE
  5
6A
330
1F
100
AcDbEntity
  8
layer 1
 62
     7
100
AcDbSpline
210
0.0
220
0.0
230
1.0
 70
    11
 71
     3
 72
    32
 73
    28
 74
     0
 42
0.0000000001
 43
0.0000000001
 12
1.0
 22
0.0
 32
0.0
 13
1.0
 23
0.0
 33
0.0
 40
0.0
 40
0.0
 40
0.0
 40
0.0
 40
0.125
 40
0.125
 40
0.125
 40
0.125
 40
0.25
 40
0.25
 40
0.25
 40
0.25
 40
0.375
 40
0.375
 40
0.375
 40
0.375
 40
0.5
 40
0.5
 40
0.5
 40
0.5
 40
0.625
 40
0.625
 40
0.625
 40
0.625
 40
0.75
 40
0.75
 40
0.75
 40
0.75
 40
1.0
 40
1.0
 40
1.0
 40
1.0
 10
-161.5853
 20
1.6503
 30
0.0
 10
-161.2
 20
-0.8519
 30
0.0
 10
-161.1739
 20
-4.1976
 30
0.0
 10
-161.4169
 20
-5.9753
 30
0.0
 10
-161.4169
 20
-5.9753
 30
0.0
 10
-162.023
 20
-10.4115
 30
0.0
 10
-161.3974
 20
-15.6718
 30
0.0
 10
-162.262
 20
-19.9937
 30
0.0
 10
-162.262
 20
-19.9937
 30
0.0
 10
-162.7242
 20
-22.3034
 30
0.0
 10
-163.9704
 20
-24.243
 30
0.0
 10
-164.7977
 20
-26.2647
 30
0.0
 10
-164.7977
 20
-26.2647
 30
0.0
 10
-167.8168
 20
-34.108
 30
0.0
 10
-169.3728
 20
-29.918
 30
0.0
 10
-169.1701
 20
-23.3487
 30
0.0
 10
-169.1701
 20
-23.3487
 30
0.0
 10
-168.9729
 20
-16.9728
 30
0.0
 10
-167.4212
 20
-9.314
 30
0.0
 10
-166.0659
 20
-3.6701
 30
0.0
 10
-166.0659
 20
-3.6701
 30
0.0
 10
-165.6172
 20
-1.8045
 30
0.0
 10
-165.2979
 20
0.3168
 30
0.0
 10
-164.6893
 20
2.0987
 30
0.0
 10
-164.6893
 20
2.0987
 30
0.0
 10
-163.3858
 20
5.9169
 30
0.0
 10
-162.1797
 20
5.5122
 30
0.0
 10
-161.5853
 20
1.6503
 30
0.0
  0
SPLINE
  5
6B
330
1F
100
AcDbEntity
  8
layer 1
 62
     7
100
AcDbSpline
210
0.0
220
0.0
230
1.0
 70
    11
 71
     3
 72
    24
 73
    20
 74
     0
 42
0.0000000001
 43
0.0000000001
 12
1.0
 22
0.0
 32
0.0
 13
1.0
 23
0.0
 33
0.0
 40
0.0
 40
0.0
 40
0.0
 40
0.0
 40
0.1666666666666667
 40
0.1666666666666667
 40
0.1666666666666667
 40
0.1666666666666667
 40
0.3333333333333333
 40
0.3333333333333333
 40
0.3333333333333333
 40
0.3333333333333333
 40
0.5
 40
0.5
 40
0.5
 40
0.5
 40
0.6666666666666666
 40
0.6666666666666666
 40
0.6666666666666666
 40
0.6666666666666666
 40
1.0
 40
1.0
 40
1.0
 40
1.0
 10
-96.3903
 20
-1.7052
 30
0.0
 10
-103.4101
 20
-2.7004
 30
0.0
 10
-109.8775
 20
-4.7724
 30
0.0
 10
-115.6065
 20
-8.8851
 30
0.0
 10
-115.6065
 20
-8.8851
 30
0.0
 10
-117.0536
 20
-8.8903
 30
0.0
 10
-125.3178
 20
-7.0003
 30
0.0
 10
-126.0012
 20
-6.0686
 30
0.0
 10
-126.0012
 20
-6.0686
 30
0.0
 10
-126.0012
 20
-6.0373
 30
0.0
 10
-126.0012
 20
-6.0063
 30
0.0
 10
-126.0012
 20
-5.9753
 30
0.0
 10
-126.0012
 20
-5.9753
 30
0.0
 10
-124.9515
 20
-4.4471
 30
0.0
 10
-120.4884
 20
-2.8338
 30
0.0
 10
-113.9494
 20
-1.823
 30
0.0
 10
-113.9494
 20
-1.823
 30
0.0
 10
-106.5373
 20
-0.6772
 30
0.0
 10
-97.7326
 20
-0.7112
 30
0.0
 10
-96.3903
 20
-1.7052
 30
0.0
  0
SPLINE
  5
6C
330
1F
100
AcDbEntity
  8
layer 1
 62
     7
100
AcDbSpline
210
0.0
220
0.0
230
1.0
 70
    11
 71
     3
 72
    40
 73
    36
 74
     0
 42
0.0000000001
 43
0.0000000001
 12
1.0
 22
0.0
 32
0.0
 13
1.0
 23
0.0
 33
0.0
 40
0.0
 40
0.0
 40
0.0
 40
0.0
 40
0.1
 40
0.1
 40
0.1
 40
0.1
 40
0.2
 40
0.2
 40
0.2
 40
0.2
 40
0.3
 40
0.3
 40
0.3
 40
0.3
 40
0.4
 40
0.4
 40
0.4
 40
0.4
 40
0.5
 40
0.5
 40
0.5
 40
0.5
 40
0.6
 40
0.6
 40
0.6
 40
0.6
 40
0.7
 40
0.7
 40
0.7
 40
0.7
 40
0.8
 40
0.8
 40
0.8
 40
0.8
 40
1.0
 40
1.0
 40
1.0
 40
1.0
 10
-118.1402
 20
-11.6938
 30
0.0
 10
-121.873
 20
-13.7537
 30
0.0
 10
-126.0365
 20
-22.6365
 30
0.0
 10
-127.2684
 20
-26.5417
 30
0.0
 10
-127.2684
 20
-26.5417
 30
0.0
 10
-128.2331
 20
-29.5967
 30
0.0
 10
-129.2598
 20
-32.252
 30
0.0
 10
-130.3116
 20
-34.9335
 30
0.0
 10
-130.3116
 20
-34.9335
 30
0.0
 10
-130.5371
 20
-35.7328
 30
0.0
 10
-130.7625
 20
-36.5323
 30
0.0
 10
-130.9882
 20
-37.3316
 30
0.0
 10
-130.9882
 20
-37.3316
 30
0.0
 10
-132.8811
 20
-41.1232
 30
0.0
 10
-137.279
 20
-43.2755
 30
0.0
 10
-140.6232
 20
-45.5392
 30
0.0
 10
-140.6232
 20
-45.5392
 30
0.0
 10
-142.0651
 20
-46.5149
 30
0.0
 10
-149.236
 20
-51.2394
 30
0.0
 10
-151.0207
 20
-50.4271
 30
0.0
 10
-151.0207
 20
-50.4271
 30
0.0
 10
-151.0552
 20
-48.2778
 30
0.0
 10
-147.1768
 20
-36.997
 30
0.0
 10
-146.2872
 20
-34.0117
 30
0.0
 10
-146.2872
 20
-34.0117
 30
0.0
 10
-145.1829
 20
-30.3081
 30
0.0
 10
-143.2953
 20
-24.184
 30
0.0
 10
-144.2415
 20
-18.5916
 30
0.0
 10
-144.2415
 20
-18.5916
 30
0.0
 10
-141.3767
 20
-15.7584
 30
0.0
 10
-136.6424
 20
-12.951
 30
0.0
 10
-132.2562
 20
-11.1407
 30
0.0
 10
-132.2562
 20
-11.1407
 30
0.0
 10
-130.4963
 20
-10.4143
 30
0.0
 10
-121.3853
 20
-10.4508
 30
0.0
 10
-118.1402
 20
-11.6938
 30
0.0
  0
SPLINE
  5
6D
330
1F
100
AcDbEntity
  8
layer 1
 62
     7
100
AcDbSpline
210
0.0
220
0.0
230
1.0
 70
    11
 71
     3
 72
    32
 73
    28
 74
     0
 42
0.0000000001
 43
0.0000000001
 12
1.0
 22
0.0
 32
0.0
 13
1.0
 23
0.0
 33
0.0
 40
0.0
 40
0.0
 40
0.0
 40
0.0
 40
0.125
 40
0.125
 40
0.125
 40
0.125
 40
0.25
 40
0.25
 40
0.25
 40
0.25
 40
0.375
 40
0.375
 40
0.375
 40
0.375
 40
0.5
 40
0.5
 40
0.5
 40
0.5
 40
0.625
 40
0.625
 40
0.625
 40
0.625
 40
0.75
 40
0.75
 40
0.75
 40
0.75
 40
1.0
 40
1.0
 40
1.0
 40
1.0
 10
-148.3777
 20
-26.3921
 30
0.0
 10
-149.3749
 20
-36.2573
 30
0.0
 10
-155.1432
 20
-49.2953
 30
0.0
 10
-159.1347
 20
-54.8541
 30
0.0
 10
-159.1347
 20
-54.8541
 30
0.0
 10
-160.4703
 20
-56.7137
 30
0.0
 10
-162.2572
 20
-59.4308
 30
0.0
 10
-164.1218
 20
-60.664
 30
0.0
 10
-164.1218
 20
-60.664
 30
0.0
 10
-164.15
 20
-60.664
 30
0.0
 10
-164.1778
 20
-60.664
 30
0.0
 10
-164.2061
 20
-60.664
 30
0.0
 10
-164.2061
 20
-60.664
 30
0.0
 10
-164.2344
 20
-60.5716
 30
0.0
 10
-164.2621
 20
-60.4793
 30
0.0
 10
-164.2909
 20
-60.3867
 30
0.0
 10
-164.2909
 20
-60.3867
 30
0.0
 10
-160.1477
 20
-48.216
 30
0.0
 10
-158.0001
 20
-42.0579
 30
0.0
 10
-153.8942
 20
-29.6767
 30
0.0
 10
-153.8942
 20
-29.6767
 30
0.0
 10
-152.7121
 20
-28.664
 30
0.0
 10
-151.566
 20
-27.6618
 30
0.0
 10
-150.514
 20
-26.4804
 30
0.0
 10
-150.514
 20
-26.4804
 30
0.0
 10
-148.7463
 20
-24.4963
 30
0.0
 10
-147.9375
 20
-22.0377
 30
0.0
 10
-148.3777
 20
-26.3921
 30
0.0
  0
SPLINE
  5
6E
330
1F
100
AcDbEntity
  8
layer 1
 62
     7
100
AcDbSpline
210
0.0
220
0.0
230
1.0
 70
    11
 71
     3
 72
    36
 73
    32
 74
     0
 42
0.0000000001
 43
0.0000000001
 12
1.0
 22
0.0
 32
0.0
 13
1.0
 23
0.0
 33
0.0
 40
0.0
 40
0.0
 40
0.0
 40
0.0
 40
0.1111111111111111
 40
0.1111111111111111
 40
0.1111111111111111
 40
0.1111111111111111
 40
0.2222222222222222
 40
0.2222222222222222
 40
0.2222222222222222
 40
0.2222222222222222
 40
0.3333333333333333
 40
0.3333333333333333
 40
0.3333333333333333
 40
0.3333333333333333
 40
0.4444444444444444
 40
0.4444444444444444
 40
0.4444444444444444
 40
0.4444444444444444
 40
0.5555555555555556
 40
0.5555555555555556
 40
0.5555555555555556
 40
0.5555555555555556
 40
0.6666666666666666
 40
0.6666666666666666
 40
0.6666666666666666
 40
0.6666666666666666
 40
0.7777777777777778
 40
0.7777777777777778
 40
0.7777777777777778
 40
0.7777777777777778
 40
1.0
 40
1.0
 40
1.0
 40
1.0
 10
-125.4094
 20
-57.7829
 30
0.0
 10
-125.4094
 20
-57.9053
 30
0.0
 10
-125.4094
 20
-58.2349
 30
0.0
 10
-125.4094
 20
-58.3582
 30
0.0
 10
-125.4094
 20
-58.3582
 30
0.0
 10
-128.0737
 20
-60.4995
 30
0.0
 10
-132.4281
 20
-71.4195
 30
0.0
 10
-133.8618
 20
-75.4194
 30
0.0
 10
-133.8618
 20
-75.4194
 30
0.0
 10
-134.6558
 20
-77.6342
 30
0.0
 10
-135.2729
 20
-81.4399
 30
0.0
 10
-137.6654
 20
-81.7825
 30
0.0
 10
-137.6654
 20
-81.7825
 30
0.0
 10
-139.332
 20
-79.4635
 30
0.0
 10
-145.2557
 20
-75.6641
 30
0.0
 10
-147.977
 20
-74.4049
 30
0.0
 10
-147.977
 20
-74.4049
 30
0.0
 10
-149.3489
 20
-73.7708
 30
0.0
 10
-151.5319
 20
-73.459
 30
0.0
 10
-152.5417
 20
-72.3759
 30
0.0
 10
-152.5417
 20
-72.3759
 30
0.0
 10
-152.5429
 20
-69.9201
 30
0.0
 10
-152.8792
 20
-66.3091
 30
0.0
 10
-152.6265
 20
-64.1686
 30
0.0
 10
-152.6265
 20
-64.1686
 30
0.0
 10
-150.2547
 20
-62.5898
 30
0.0
 10
-147.5937
 20
-58.1846
 30
0.0
 10
-145.3565
 20
-57.2512
 30
0.0
 10
-145.3565
 20
-57.2512
 30
0.0
 10
-142.0796
 20
-55.8841
 30
0.0
 10
-128.7591
 20
-55.8258
 30
0.0
 10
-125.4094
 20
-57.7829
 30
0.0
  0
SPLINE
  5
6F
330
1F
100
AcDbEntity
  8
layer 1
 62
     7
100
AcDbSpline
210
0.0
220
0.0
230
1.0
 70
    11
 71
     3
 72
    28
 73
    24
 74
     0
 42
0.0000000001
 43
0.0000000001
 12
1.0
 22
0.0
 32
0.0
 13
1.0
 23
0.0
 33
0.0
 40
0.0
 40
0.0
 40
0.0
 40
0.0
 40
0.1428571428571428
 40
0.1428571428571428
 40
0.1428571428571428
 40
0.1428571428571428
 40
0.2857142857142857
 40
0.2857142857142857
 40
0.2857142857142857
 40
0.2857142857142857
 40
0.4285714285714285
 40
0.4285714285714285
 40
0.4285714285714285
 40
0.4285714285714285
 40
0.5714285714285714
 40
0.5714285714285714
 40
0.5714285714285714
 40
0.5714285714285714
 40
0.7142857142857143
 40
0.7142857142857143
 40
0.7142857142857143
 40
0.7142857142857143
 40
1.0
 40
1.0
 40
1.0
 40
1.0
 10
-149.3206
 20
-78.5684
 30
0.0
 10
-146.5104
 20
-80.1461
 30
0.0
 10
-142.1489
 20
-83.7606
 30
0.0
 10
-141.976
 20
-85.0108
 30
0.0
 10
-141.976
 20
-85.0108
 30
0.0
 10
-142.0321
 20
-85.0108
 30
0.0
 10
-142.0886
 20
-85.0108
 30
0.0
 10
-142.1454
 20
-85.0108
 30
0.0
 10
-142.1454
 20
-85.0108
 30
0.0
 10
-145.327
 20
-86.5878
 30
0.0
 10
-150.04
 20
-87.3858
 30
0.0
 10
-153.6407
 20
-88.2381
 30
0.0
 10
-153.6407
 20
-88.2381
 30
0.0
 10
-153.7533
 20
-88.0855
 30
0.0
 10
-153.8662
 20
-87.9306
 30
0.0
 10
-153.9785
 20
-87.7772
 30
0.0
 10
-153.9785
 20
-87.7772
 30
0.0
 10
-153.5534
 20
-85.1747
 30
0.0
 10
-153.5133
 20
-82.4461
 30
0.0
 10
-153.2551
 20
-80.305
 30
0.0
 10
-153.2551
 20
-80.305
 30
0.0
 10
-152.6953
 20
-75.6688
 30
0.0
 10
-151.9356
 20
-77.098
 30
0.0
 10
-149.3206
 20
-78.5684
 30
0.0
  0
SPLINE
  5
70
330
1F
100
AcDbEntity
  8
layer 1
 62
     7
100
AcDbSpline
210
0.0
220
0.0
230
1.0
 70
    11
 71
     3
 72
    20
 73
    16
 74
     0
 42
0.0000000001
 43
0.0000000001
 12
1.0
 22
0.0
 32
0.0
 13
1.0
 23
0.0
 33
0.0
 40
0.0
 40
0.0
 40
0.0
 40
0.0
 40
0.2
 40
0.2
 40
0.2
 40
0.2
 40
0.4
 40
0.4
 40
0.4
 40
0.4
 40
0.6
 40
0.6
 40
0.6
 40
0.6
 40
1.0
 40
1.0
 40
1.0
 40
1.0
 10
-142.7645
 20
-93.2464
 30
0.0
 10
-142.3389
 20
-93.1213
 30
0.0
 10
-143.4925
 20
-104.6739
 30
0.0
 10
-147.2168
 20
-103.9157
 30
0.0
 10
-147.2168
 20
-103.9157
 30
0.0
 10
-147.2729
 20
-103.7923
 30
0.0
 10
-147.3294
 20
-103.6699
 30
0.0
 10
-147.386
 20
-103.5471
 30
0.0
 10
-147.386
 20
-103.5471
 30
0.0
 10
-146.9668
 20
-101.3835
 30
0.0
 10
-146.1025
 20
-96.2821
 30
0.0
 10
-145.9488
 20
-94.5094
 30
0.0
 10
-145.9488
 20
-94.5094
 30
0.0
 10
-145.3953
 20
-94.2892
 30
0.0
 10
-142.8151
 20
-93.2072
 30
0.0
 10
-142.7645
 20
-93.2464
 30
0.0
  0
SPLINE
  5
71
330
1F
100
AcDbEntity
  8
layer 1
 62
   250
100
AcDbSpline
210
0.0
220
0.0
230
1.0
 70
    11
 71
     3
 72
    20
 73
    16
 74
     0
 42
0.0000000001
 43
0.0000000001
 12
1.0
 22
0.0
 32
0.0
 13
1.0
 23
0.0
 33
0.0
 40
0.0
 40
0.0
 40
0.0
 40
0.0
 40
0.2
 40
0.2
 40
0.2
 40
0.2
 40
0.4
 40
0.4
 40
0.4
 40
0.4
 40
0.6
 40
0.6
 40
0.6
 40
0.6
 40
1.0
 40
1.0
 40
1.0
 40
1.0
 10
-87.6311
 20
131.9081
 30
0.0
 10
-87.6311
 20
131.9081
 30
0.0
 10
8.3154
 20
131.9081
 30
0.0
 10
8.3154
 20
131.9081
 30
0.0
 10
8.3154
 20
131.9081
 30
0.0
 10
8.3154
 20
131.9081
 30
0.0
 10
8.3154
 20
-114.9302
 30
0.0
 10
8.3154
 20
-114.9302
 30
0.0
 10
8.3154
 20
-114.9302
 30
0.0
 10
8.3154
 20
-114.9302
 30
0.0
 10
-87.6311
 20
-114.9302
 30
0.0
 10
-87.6311
 20
-114.9302
 30
0.0
 10
-87.6311
 20
-114.9302
 30
0.0
 10
-87.6311
 20
-114.9302
 30
0.0
 10
-87.6311
 20
131.9081
 30
0.0
 10
-87.6311
 20
131.9081
 30
0.0
  0
SPLINE
  5
72
330
1F
100
AcDbEntity
  8
layer 1
 62
     7
100
AcDbSpline
210
0.0
220
0.0
230
1.0
 70
    11
 71
     3
 72
    28
 73
    24
 74
     0
 42
0.0000000001
 43
0.0000000001
 12
1.0
 22
0.0
 32
0.0
 13
1.0
 23
0.0
 33
0.0
 40
0.0
 40
0.0
 40
0.0
 40
0.0
 40
0.1428571428571428
 40
0.1428571428571428
 40
0.1428571428571428
 40
0.1428571428571428
 40
0.2857142857142857
 40
0.2857142857142857
 40
0.2857142857142857
 40
0.2857142857142857
 40
0.4285714285714285
 40
0.4285714285714285
 40
0.4285714285714285
 40
0.4285714285714285
 40
0.5714285714285714
 40
0.5714285714285714
 40
0.5714285714285714
 40
0.5714285714285714
 40
0.7142857142857143
 40
0.7142857142857143
 40
0.7142857142857143
 40
0.7142857142857143
 40
1.0
 40
1.0
 40
1.0
 40
1.0
 10
-81.0465
 20
122.4757
 30
0.0
 10
-78.5369
 20
122.4691
 30
0.0
 10
-76.0388
 20
122.1257
 30
0.0
 10
-73.6201
 20
121.4556
 30
0.0
 10
-73.6201
 20
121.4556
 30
0.0
 10
-71.6292
 20
120.8777
 30
0.0
 10
-69.7225
 20
120.0385
 30
0.0
 10
-67.9514
 20
118.9611
 30
0.0
 10
-67.9514
 20
118.9611
 30
0.0
 10
-68.2514
 20
119.8357
 30
0.0
 10
-68.377
 20
120.7615
 30
0.0
 10
-68.321
 20
121.6848
 30
0.0
 10
-68.321
 20
121.6848
 30
0.0
 10
-68.2641
 20
122.6281
 30
0.0
 10
-67.8741
 20
123.5209
 30
0.0
 10
-67.2211
 20
124.2035
 30
0.0
 10
-67.2211
 20
124.2035
 30
0.0
 10
-67.2211
 20
124.2035
 30
0.0
 10
-81.0465
 20
124.2035
 30
0.0
 10
-81.0465
 20
124.2035
 30
0.0
 10
-81.0465
 20
124.2035
 30
0.0
 10
-81.0465
 20
124.2035
 30
0.0
 10
-81.0465
 20
122.4757
 30
0.0
 10
-81.0465
 20
122.4757
 30
0.0
  0
SPLINE
  5
73
330
1F
100
AcDbEntity
  8
layer 1
 62
     7
100
AcDbSpline
210
0.0
220
0.0
230
1.0
 70
    11
 71
     3
 72
    40
 73
    36
 74
     0
 42
0.0000000001
 43
0.0000000001
 12
1.0
 22
0.0
 32
0.0
 13
1.0
 23
0.0
 33
0.0
 40
0.0
 40
0.0
 40
0.0
 40
0.0
 40
0.1
 40
0.1
 40
0.1
 40
0.1
 40
0.2
 40
0.2
 40
0.2
 40
0.2
 40
0.3
 40
0.3
 40
0.3
 40
0.3
 40
0.4
 40
0.4
 40
0.4
 40
0.4
 40
0.5
 40
0.5
 40
0.5
 40
0.5
 40
0.6
 40
0.6
 40
0.6
 40
0.6
 40
0.7
 40
0.7
 40
0.7
 40
0.7
 40
0.8
 40
0.8
 40
0.8
 40
0.8
 40
1.0
 40
1.0
 40
1.0
 40
1.0
 10
-66.1275
 20
124.2035
 30
0.0
 10
-65.2869
 20
123.4859
 30
0.0
 10
-64.7696
 20
122.4597
 30
0.0
 10
-64.6923
 20
121.3569
 30
0.0
 10
-64.6923
 20
121.3569
 30
0.0
 10
-64.6126
 20
120.2171
 30
0.0
 10
-65.1639
 20
119.1244
 30
0.0
 10
-66.1275
 20
118.5103
 30
0.0
 10
-66.1275
 20
118.5103
 30
0.0
 10
-63.4356
 20
117.7847
 30
0.0
 10
-60.8233
 20
116.7896
 30
0.0
 10
-58.3311
 20
115.5405
 30
0.0
 10
-58.3311
 20
115.5405
 30
0.0
 10
-57.6567
 20
115.2025
 30
0.0
 10
-57.0299
 20
114.7762
 30
0.0
 10
-56.4678
 20
114.2726
 30
0.0
 10
-56.4678
 20
114.2726
 30
0.0
 10
-56.5234
 20
114.9268
 30
0.0
 10
-56.5306
 20
115.5837
 30
0.0
 10
-56.4899
 20
116.2389
 30
0.0
 10
-56.4899
 20
116.2389
 30
0.0
 10
-56.357
 20
118.3949
 30
0.0
 10
-57.195
 20
120.4959
 30
0.0
 10
-58.7766
 20
121.9674
 30
0.0
 10
-58.7766
 20
121.9674
 30
0.0
 10
-59.2409
 20
122.3999
 30
0.0
 10
-59.7263
 20
122.8094
 30
0.0
 10
-60.2309
 20
123.1947
 30
0.0
 10
-60.2309
 20
123.1947
 30
0.0
 10
-60.7363
 20
123.5807
 30
0.0
 10
-61.2764
 20
123.9185
 30
0.0
 10
-61.8446
 20
124.2035
 30
0.0
 10
-61.8446
 20
124.2035
 30
0.0
 10
-61.8446
 20
124.2035
 30
0.0
 10
-66.1275
 20
124.2035
 30
0.0
 10
-66.1275
 20
124.2035
 30
0.0
  0
SPLINE
  5
74
330
1F
100
AcDbEntity
  8
layer 1
 62
     7
100
AcDbSpline
210
0.0
220
0.0
230
1.0
 70
    11
 71
     3
 72
    24
 73
    20
 74
     0
 42
0.0000000001
 43
0.0000000001
 12
1.0
 22
0.0
 32
0.0
 13
1.0
 23
0.0
 33
0.0
 40
0.0
 40
0.0
 40
0.0
 40
0.0
 40
0.1666666666666667
 40
0.1666666666666667
 40
0.1666666666666667
 40
0.1666666666666667
 40
0.3333333333333333
 40
0.3333333333333333
 40
0.3333333333333333
 40
0.3333333333333333
 40
0.5
 40
0.5
 40
0.5
 40
0.5
 40
0.6666666666666666
 40
0.6666666666666666
 40
0.6666666666666666
 40
0.6666666666666666
 40
1.0
 40
1.0
 40
1.0
 40
1.0
 10
-50.2715
 20
124.2035
 30
0.0
 10
-50.2715
 20
124.2035
 30
0.0
 10
-58.2452
 20
124.2035
 30
0.0
 10
-58.2452
 20
124.2035
 30
0.0
 10
-58.2452
 20
124.2035
 30
0.0
 10
-57.5961
 20
123.6885
 30
0.0
 10
-57.0004
 20
123.109
 30
0.0
 10
-56.4678
 20
122.4742
 30
0.0
 10
-56.4678
 20
122.4742
 30
0.0
 10
-55.9277
 20
121.8249
 30
0.0
 10
-55.4548
 20
121.1226
 30
0.0
 10
-55.0556
 20
120.3784
 30
0.0
 10
-55.0556
 20
120.3784
 30
0.0
 10
-55.047
 20
120.3952
 30
0.0
 10
-55.0368
 20
120.4115
 30
0.0
 10
-55.0259
 20
120.4271
 30
0.0
 10
-55.0259
 20
120.4271
 30
0.0
 10
-53.8436
 20
122.1227
 30
0.0
 10
-52.1904
 20
123.4356
 30
0.0
 10
-50.2715
 20
124.2035
 30
0.0
  0
SPLINE
  5
75
330
1F
100
AcDbEntity
  8
layer 1
 62
     7
100
AcDbSpline
210
0.0
220
0.0
230
1.0
 70
    11
 71
     3
 72
    60
 73
    56
 74
     0
 42
0.0000000001
 43
0.0000000001
 12
1.0
 22
0.0
 32
0.0
 13
1.0
 23
0.0
 33
0.0
 40
0.0
 40
0.0
 40
0.0
 40
0.0
 40
0.0666666666666667
 40
0.0666666666666667
 40
0.0666666666666667
 40
0.0666666666666667
 40
0.1333333333333333
 40
0.1333333333333333
 40
0.1333333333333333
 40
0.1333333333333333
 40
0.2
 40
0.2
 40
0.2
 40
0.2
 40
0.2666666666666667
 40
0.2666666666666667
 40
0.2666666666666667
 40
0.2666666666666667
 40
0.3333333333333333
 40
0.3333333333333333
 40
0.3333333333333333
 40
0.3333333333333333
 40
0.4
 40
0.4
 40
0.4
 40
0.4
 40
0.4666666666666667
 40
0.4666666666666667
 40
0.4666666666666667
 40
0.4666666666666667
 40
0.5333333333333333
 40
0.5333333333333333
 40
0.5333333333333333
 40
0.5333333333333333
 40
0.6
 40
0.6
 40
0.6
 40
0.6
 40
0.6666666666666666
 40
0.6666666666666666
 40
0.6666666666666666
 40
0.6666666666666666
 40
0.7333333333333333
 40
0.7333333333333333
 40
0.7333333333333333
 40
0.7333333333333333
 40
0.8
 40
0.8
 40
0.8
 40
0.8
 40
0.8666666666666667
 40
0.8666666666666667
 40
0.8666666666666667
 40
0.8666666666666667
 40
1.0
 40
1.0
 40
1.0
 40
1.0
 10
-33.4845
 20
124.2035
 30
0.0
 10
-33.4845
 20
124.2035
 30
0.0
 10
-48.1299
 20
124.2035
 30
0.0
 10
-48.1299
 20
124.2035
 30
0.0
 10
-48.1299
 20
124.2035
 30
0.0
 10
-51.0213
 20
122.4971
 30
0.0
 10
-53.2475
 20
119.8623
 30
0.0
 10
-54.4474
 20
116.7264
 30
0.0
 10
-54.4474
 20
116.7264
 30
0.0
 10
-54.7916
 20
115.826
 30
0.0
 10
-54.8452
 20
114.8407
 30
0.0
 10
-54.5999
 20
113.9084
 30
0.0
 10
-54.5999
 20
113.9084
 30
0.0
 10
-53.7032
 20
113.5855
 30
0.0
 10
-52.8652
 20
113.1173
 30
0.0
 10
-52.12
 20
112.5226
 30
0.0
 10
-52.12
 20
112.5226
 30
0.0
 10
-51.3782
 20
111.9306
 30
0.0
 10
-50.6976
 20
111.2648
 30
0.0
 10
-50.0894
 20
110.5365
 30
0.0
 10
-50.0894
 20
110.5365
 30
0.0
 10
-48.1264
 20
110.7084
 30
0.0
 10
-46.1867
 20
111.0818
 30
0.0
 10
-44.3002
 20
111.6509
 30
0.0
 10
-44.3002
 20
111.6509
 30
0.0
 10
-42.3974
 20
112.2249
 30
0.0
 10
-40.6384
 20
113.1942
 30
0.0
 10
-39.1368
 20
114.4961
 30
0.0
 10
-39.1368
 20
114.4961
 30
0.0
 10
-39.3918
 20
115.4593
 30
0.0
 10
-39.8413
 20
116.3593
 30
0.0
 10
-40.4585
 20
117.1418
 30
0.0
 10
-40.4585
 20
117.1418
 30
0.0
 10
-41.7847
 20
118.8248
 30
0.0
 10
-43.2441
 20
120.3974
 30
0.0
 10
-44.8233
 20
121.8456
 30
0.0
 10
-44.8233
 20
121.8456
 30
0.0
 10
-43.6734
 20
121.8481
 30
0.0
 10
-42.5422
 20
121.5474
 30
0.0
 10
-41.5445
 20
120.9749
 30
0.0
 10
-41.5445
 20
120.9749
 30
0.0
 10
-39.5233
 20
119.814
 30
0.0
 10
-37.8132
 20
118.1794
 30
0.0
 10
-36.5619
 20
116.2125
 30
0.0
 10
-36.5619
 20
116.2125
 30
0.0
 10
-35.8121
 20
116.8719
 30
0.0
 10
-35.178
 20
117.6515
 30
0.0
 10
-34.6846
 20
118.5197
 30
0.0
 10
-34.6846
 20
118.5197
 30
0.0
 10
-34.2046
 20
119.3808
 30
0.0
 10
-33.844
 20
120.3033
 30
0.0
 10
-33.6126
 20
121.2618
 30
0.0
 10
-33.6126
 20
121.2618
 30
0.0
 10
-33.3797
 20
122.225
 30
0.0
 10
-33.3361
 20
123.224
 30
0.0
 10
-33.4845
 20
124.2035
 30
0.0
  0
SPLINE
  5
76
330
1F
100
AcDbEntity
  8
layer 1
 62
     7
100
AcDbSpline
210
0.0
220
0.0
230
1.0
 70
    11
 71
     3
 72
   160
 73
   156
 74
     0
 42
0.0000000001
 43
0.0000000001
 12
1.0
 22
0.0
 32
0.0
 13
1.0
 23
0.0
 33
0.0
 40
0.0
 40
0.0
 40
0.0
 40
0.0
 40
0.025
 40
0.025
 40
0.025
 40
0.025
 40
0.05
 40
0.05
 40
0.05
 40
0.05
 40
0.075
 40
0.075
 40
0.075
 40
0.075
 40
0.1
 40
0.1
 40
0.1
 40
0.1
 40
0.125
 40
0.125
 40
0.125
 40
0.125
 40
0.15
 40
0.15
 40
0.15
 40
0.15
 40
0.175
 40
0.175
 40
0.175
 40
0.175
 40
0.2
 40
0.2
 40
0.2
 40
0.2
 40
0.225
 40
0.225
 40
0.225
 40
0.225
 40
0.25
 40
0.25
 40
0.25
 40
0.25
 40
0.275
 40
0.275
 40
0.275
 40
0.275
 40
0.3
 40
0.3
 40
0.3
 40
0.3
 40
0.325
 40
0.325
 40
0.325
 40
0.325
 40
0.35
 40
0.35
 40
0.35
 40
0.35
 40
0.375
 40
0.375
 40
0.375
 40
0.375
 40
0.4
 40
0.4
 40
0.4
 40
0.4
 40
0.425
 40
0.425
 40
0.425
 40
0.425
 40
0.45
 40
0.45
 40
0.45
 40
0.45
 40
0.475
 40
0.475
 40
0.475
 40
0.475
 40
0.5
 40
0.5
 40
0.5
 40
0.5
 40
0.525
 40
0.525
 40
0.525
 40
0.525
 40
0.55
 40
0.55
 40
0.55
 40
0.55
 40
0.575
 40
0.575
 40
0.575
 40
0.575
 40
0.6
 40
0.6
 40
0.6
 40
0.6
 40
0.625
 40
0.625
 40
0.625
 40
0.625
 40
0.65
 40
0.65
 40
0.65
 40
0.65
 40
0.675
 40
0.675
 40
0.675
 40
0.675
 40
0.7
 40
0.7
 40
0.7
 40
0.7
 40
0.725
 40
0.725
 40
0.725
 40
0.725
 40
0.75
 40
0.75
 40
0.75
 40
0.75
 40
0.775
 40
0.775
 40
0.775
 40
0.775
 40
0.8
 40
0.8
 40
0.8
 40
0.8
 40
0.825
 40
0.825
 40
0.825
 40
0.825
 40
0.85
 40
0.85
 40
0.85
 40
0.85
 40
0.875
 40
0.875
 40
0.875
 40
0.875
 40
0.9
 40
0.9
 40
0.9
 40
0.9
 40
0.925
 40
0.925
 40
0.925
 40
0.925
 40
0.95
 40
0.95
 40
0.95
 40
0.95
 40
1.0
 40
1.0
 40
1.0
 40
1.0
 10
1.7312
 20
107.4834
 30
0.0
 10
1.7312
 20
107.4834
 30
0.0
 10
1.7312
 20
124.2035
 30
0.0
 10
1.7312
 20
124.2035
 30
0.0
 10
1.7312
 20
124.2035
 30
0.0
 10
1.7312
 20
124.2035
 30
0.0
 10
-31.2753
 20
124.2035
 30
0.0
 10
-31.2753
 20
124.2035
 30
0.0
 10
-31.2753
 20
124.2035
 30
0.0
 10
-31.1548
 20
123.4034
 30
0.0
 10
-31.0754
 20
122.5976
 30
0.0
 10
-31.0365
 20
121.7893
 30
0.0
 10
-31.0365
 20
121.7893
 30
0.0
 10
-30.997
 20
120.9706
 30
0.0
 10
-31.1497
 20
120.1535
 30
0.0
 10
-31.482
 20
119.4044
 30
0.0
 10
-31.482
 20
119.4044
 30
0.0
 10
-29.4172
 20
120.0448
 30
0.0
 10
-27.1976
 20
119.9892
 30
0.0
 10
-25.1669
 20
119.2474
 30
0.0
 10
-25.1669
 20
119.2474
 30
0.0
 10
-23.061
 20
118.478
 30
0.0
 10
-21.4905
 20
116.6869
 30
0.0
 10
-21.0016
 20
114.4987
 30
0.0
 10
-21.0016
 20
114.4987
 30
0.0
 10
-20.7874
 20
113.5421
 30
0.0
 10
-20.6918
 20
112.5625
 30
0.0
 10
-20.7157
 20
111.5824
 30
0.0
 10
-20.7157
 20
111.5824
 30
0.0
 10
-22.4385
 20
111.2019
 30
0.0
 10
-24.2178
 20
111.1471
 30
0.0
 10
-25.9606
 20
111.4209
 30
0.0
 10
-25.9606
 20
111.4209
 30
0.0
 10
-27.0349
 20
111.5983
 30
0.0
 10
-28.0708
 20
111.9607
 30
0.0
 10
-29.0213
 20
112.4915
 30
0.0
 10
-29.0213
 20
112.4915
 30
0.0
 10
-29.9808
 20
113.0273
 30
0.0
 10
-30.7854
 20
113.8032
 30
0.0
 10
-31.3557
 20
114.7425
 30
0.0
 10
-31.3557
 20
114.7425
 30
0.0
 10
-31.7922
 20
115.4611
 30
0.0
 10
-32.1484
 20
116.2258
 30
0.0
 10
-32.4182
 20
117.0222
 30
0.0
 10
-32.4182
 20
117.0222
 30
0.0
 10
-32.9885
 20
115.6295
 30
0.0
 10
-33.8618
 20
114.3801
 30
0.0
 10
-34.9732
 20
113.3653
 30
0.0
 10
-34.9732
 20
113.3653
 30
0.0
 10
-36.0769
 20
112.3579
 30
0.0
 10
-37.3139
 20
111.5073
 30
0.0
 10
-38.6493
 20
110.8373
 30
0.0
 10
-38.6493
 20
110.8373
 30
0.0
 10
-39.9633
 20
110.2038
 30
0.0
 10
-41.3599
 20
109.7583
 30
0.0
 10
-42.7976
 20
109.5135
 30
0.0
 10
-42.7976
 20
109.5135
 30
0.0
 10
-44.2288
 20
109.2698
 30
0.0
 10
-45.669
 20
109.0793
 30
0.0
 10
-47.1143
 20
108.9418
 30
0.0
 10
-47.1143
 20
108.9418
 30
0.0
 10
-47.2757
 20
108.9265
 30
0.0
 10
-47.4378
 20
108.9185
 30
0.0
 10
-47.5999
 20
108.9181
 30
0.0
 10
-47.5999
 20
108.9181
 30
0.0
 10
-44.5922
 20
107.3876
 30
0.0
 10
-41.6969
 20
105.6452
 30
0.0
 10
-38.9362
 20
103.7043
 30
0.0
 10
-38.9362
 20
103.7043
 30
0.0
 10
-36.168
 20
101.7581
 30
0.0
 10
-33.6582
 20
99.4668
 30
0.0
 10
-31.4681
 20
96.8872
 30
0.0
 10
-31.4681
 20
96.8872
 30
0.0
 10
-30.7768
 20
97.2877
 30
0.0
 10
-30.0741
 20
97.6683
 30
0.0
 10
-29.3612
 20
98.0287
 30
0.0
 10
-29.3612
 20
98.0287
 30
0.0
 10
-28.8697
 20
98.2756
 30
0.0
 10
-28.372
 20
98.5095
 30
0.0
 10
-27.8688
 20
98.7312
 30
0.0
 10
-27.8688
 20
98.7312
 30
0.0
 10
-27.8195
 20
99.2916
 30
0.0
 10
-27.8803
 20
99.8562
 30
0.0
 10
-28.0477
 20
100.3934
 30
0.0
 10
-28.0477
 20
100.3934
 30
0.0
 10
-29.0947
 20
103.7512
 30
0.0
 10
-31.3925
 20
106.5753
 30
0.0
 10
-34.4681
 20
108.2819
 30
0.0
 10
-34.4681
 20
108.2819
 30
0.0
 10
-34.9087
 20
108.5264
 30
0.0
 10
-35.3677
 20
108.7364
 30
0.0
 10
-35.8408
 20
108.9105
 30
0.0
 10
-35.8408
 20
108.9105
 30
0.0
 10
-36.3149
 20
109.0848
 30
0.0
 10
-36.8083
 20
109.2
 30
0.0
 10
-37.3107
 20
109.2545
 30
0.0
 10
-37.3107
 20
109.2545
 30
0.0
 10
-36.449
 20
109.659
 30
0.0
 10
-35.5128
 20
109.8798
 30
0.0
 10
-34.5615
 20
109.9034
 30
0.0
 10
-34.5615
 20
109.9034
 30
0.0
 10
-33.6183
 20
109.9271
 30
0.0
 10
-32.6748
 20
109.8639
 30
0.0
 10
-31.7431
 20
109.7151
 30
0.0
 10
-31.7431
 20
109.7151
 30
0.0
 10
-29.724
 20
109.393
 30
0.0
 10
-27.8535
 20
108.4509
 30
0.0
 10
-26.392
 20
107.0205
 30
0.0
 10
-26.392
 20
107.0205
 30
0.0
 10
-24.9569
 20
105.6155
 30
0.0
 10
-23.7412
 20
104.0022
 30
0.0
 10
-22.786
 20
102.2359
 30
0.0
 10
-22.786
 20
102.2359
 30
0.0
 10
-22.5331
 20
101.7687
 30
0.0
 10
-22.3205
 20
101.2811
 30
0.0
 10
-22.1496
 20
100.7783
 30
0.0
 10
-22.1496
 20
100.7783
 30
0.0
 10
-21.3407
 20
101.1853
 30
0.0
 10
-20.5128
 20
101.5532
 30
0.0
 10
-19.6687
 20
101.8812
 30
0.0
 10
-19.6687
 20
101.8812
 30
0.0
 10
-19.1931
 20
102.0615
 30
0.0
 10
-18.7102
 20
102.2224
 30
0.0
 10
-18.2217
 20
102.3633
 30
0.0
 10
-18.2217
 20
102.3633
 30
0.0
 10
-18.3924
 20
103.7798
 30
0.0
 10
-18.3449
 20
105.2149
 30
0.0
 10
-18.0809
 20
106.6174
 30
0.0
 10
-18.0809
 20
106.6174
 30
0.0
 10
-17.8178
 20
108.0126
 30
0.0
 10
-17.4809
 20
109.3926
 30
0.0
 10
-17.0705
 20
110.752
 30
0.0
 10
-17.0705
 20
110.752
 30
0.0
 10
-16.555
 20
112.461
 30
0.0
 10
-15.806
 20
114.0905
 30
0.0
 10
-14.8449
 20
115.5947
 30
0.0
 10
-14.8449
 20
115.5947
 30
0.0
 10
-13.6169
 20
117.5154
 30
0.0
 10
-12.0247
 20
119.178
 30
0.0
 10
-10.1587
 20
120.4877
 30
0.0
 10
-10.1587
 20
120.4877
 30
0.0
 10
-10.6095
 20
119.5699
 30
0.0
 10
-11.0558
 20
118.6495
 30
0.0
 10
-11.4965
 20
117.727
 30
0.0
 10
-11.4965
 20
117.727
 30
0.0
 10
-13.5744
 20
113.3774
 30
0.0
 10
-14.3313
 20
108.517
 30
0.0
 10
-13.6732
 20
103.7419
 30
0.0
 10
-13.6732
 20
103.7419
 30
0.0
 10
-12.2264
 20
104.5805
 30
0.0
 10
-10.6788
 20
105.2317
 30
0.0
 10
-9.0678
 20
105.6796
 30
0.0
 10
-9.0678
 20
105.6796
 30
0.0
 10
-5.542
 20
106.6602
 30
0.0
 10
-1.9215
 20
107.2649
 30
0.0
 10
1.7312
 20
107.4834
 30
0.0
  0
SPLINE
  5
77
330
1F
100
AcDbEntity
  8
layer 1
 62
     7
100
AcDbSpline
210
0.0
220
0.0
230
1.0
 70
    11
 71
     3
 72
    36
 73
    32
 74
     0
 42
0.0000000001
 43
0.0000000001
 12
1.0
 22
0.0
 32
0.0
 13
1.0
 23
0.0
 33
0.0
 40
0.0
 40
0.0
 40
0.0
 40
0.0
 40
0.1111111111111111
 40
0.1111111111111111
 40
0.1111111111111111
 40
0.1111111111111111
 40
0.2222222222222222
 40
0.2222222222222222
 40
0.2222222222222222
 40
0.2222222222222222
 40
0.3333333333333333
 40
0.3333333333333333
 40
0.3333333333333333
 40
0.3333333333333333
 40
0.4444444444444444
 40
0.4444444444444444
 40
0.4444444444444444
 40
0.4444444444444444
 40
0.5555555555555556
 40
0.5555555555555556
 40
0.5555555555555556
 40
0.5555555555555556
 40
0.6666666666666666
 40
0.6666666666666666
 40
0.6666666666666666
 40
0.6666666666666666
 40
0.7777777777777778
 40
0.7777777777777778
 40
0.7777777777777778
 40
0.7777777777777778
 40
1.0
 40
1.0
 40
1.0
 40
1.0
 10
-81.0465
 20
115.4763
 30
0.0
 10
-81.0465
 20
115.4763
 30
0.0
 10
-81.0465
 20
120.4572
 30
0.0
 10
-81.0465
 20
120.4572
 30
0.0
 10
-81.0465
 20
120.4572
 30
0.0
 10
-75.5229
 20
119.8623
 30
0.0
 10
-70.171
 20
118.1743
 30
0.0
 10
-65.3055
 20
115.4928
 30
0.0
 10
-65.3055
 20
115.4928
 30
0.0
 10
-64.3249
 20
114.9526
 30
0.0
 10
-63.4172
 20
114.2894
 30
0.0
 10
-62.6042
 20
113.5196
 30
0.0
 10
-62.6042
 20
113.5196
 30
0.0
 10
-63.3853
 20
112.2806
 30
0.0
 10
-64.0481
 20
110.9715
 30
0.0
 10
-64.5846
 20
109.6089
 30
0.0
 10
-64.5846
 20
109.6089
 30
0.0
 10
-65.1205
 20
108.2489
 30
0.0
 10
-65.6018
 20
106.8685
 30
0.0
 10
-66.0287
 20
105.4703
 30
0.0
 10
-66.0287
 20
105.4703
 30
0.0
 10
-67.5732
 20
106.9751
 30
0.0
 10
-69.2066
 20
108.386
 30
0.0
 10
-70.9204
 20
109.6951
 30
0.0
 10
-70.9204
 20
109.6951
 30
0.0
 10
-72.7688
 20
111.1072
 30
0.0
 10
-74.7153
 20
112.3849
 30
0.0
 10
-76.7458
 20
113.5196
 30
0.0
 10
-76.7458
 20
113.5196
 30
0.0
 10
-78.1318
 20
114.2716
 30
0.0
 10
-79.5689
 20
114.9256
 30
0.0
 10
-81.0465
 20
115.4763
 30
0.0
  0
SPLINE
  5
78
330
1F
100
AcDbEntity
  8
layer 1
 62
     7
100
AcDbSpline
210
0.0
220
0.0
230
1.0
 70
    11
 71
     3
 72
    76
 73
    72
 74
     0
 42
0.0000000001
 43
0.0000000001
 12
1.0
 22
0.0
 32
0.0
 13
1.0
 23
0.0
 33
0.0
 40
0.0
 40
0.0
 40
0.0
 40
0.0
 40
0.0526315789473684
 40
0.0526315789473684
 40
0.0526315789473684
 40
0.0526315789473684
 40
0.1052631578947368
 40
0.1052631578947368
 40
0.1052631578947368
 40
0.1052631578947368
 40
0.1578947368421053
 40
0.1578947368421053
 40
0.1578947368421053
 40
0.1578947368421053
 40
0.2105263157894737
 40
0.2105263157894737
 40
0.2105263157894737
 40
0.2105263157894737
 40
0.2631578947368421
 40
0.2631578947368421
 40
0.2631578947368421
 40
0.2631578947368421
 40
0.3157894736842105
 40
0.3157894736842105
 40
0.3157894736842105
 40
0.3157894736842105
 40
0.3684210526315789
 40
0.3684210526315789
 40
0.3684210526315789
 40
0.3684210526315789
 40
0.4210526315789473
 40
0.4210526315789473
 40
0.4210526315789473
 40
0.4210526315789473
 40
0.4736842105263158
 40
0.4736842105263158
 40
0.4736842105263158
 40
0.4736842105263158
 40
0.5263157894736842
 40
0.5263157894736842
 40
0.5263157894736842
 40
0.5263157894736842
 40
0.5789473684210527
 40
0.5789473684210527
 40
0.5789473684210527
 40
0.5789473684210527
 40
0.631578947368421
 40
0.631578947368421
 40
0.631578947368421
 40
0.631578947368421
 40
0.6842105263157895
 40
0.6842105263157895
 40
0.6842105263157895
 40
0.6842105263157895
 40
0.7368421052631579
 40
0.7368421052631579
 40
0.7368421052631579
 40
0.7368421052631579
 40
0.7894736842105263
 40
0.7894736842105263
 40
0.7894736842105263
 40
0.7894736842105263
 40
0.8421052631578947
 40
0.8421052631578947
 40
0.8421052631578947
 40
0.8421052631578947
 40
0.8947368421052632
 40
0.8947368421052632
 40
0.8947368421052632
 40
0.8947368421052632
 40
1.0
 40
1.0
 40
1.0
 40
1.0
 10
-81.0465
 20
83.4487
 30
0.0
 10
-81.0465
 20
83.4487
 30
0.0
 10
-81.0465
 20
113.8298
 30
0.0
 10
-81.0465
 20
113.8298
 30
0.0
 10
-81.0465
 20
113.8298
 30
0.0
 10
-80.0422
 20
113.4318
 30
0.0
 10
-79.0907
 20
112.9112
 30
0.0
 10
-78.2144
 20
112.2797
 30
0.0
 10
-78.2144
 20
112.2797
 30
0.0
 10
-74.0615
 20
109.2885
 30
0.0
 10
-70.7024
 20
105.3256
 30
0.0
 10
-68.4304
 20
100.7398
 30
0.0
 10
-68.4304
 20
100.7398
 30
0.0
 10
-68.0781
 20
100.0289
 30
0.0
 10
-67.9182
 20
99.2376
 30
0.0
 10
-67.9663
 20
98.4457
 30
0.0
 10
-67.9663
 20
98.4457
 30
0.0
 10
-68.0136
 20
97.6663
 30
0.0
 10
-68.0965
 20
96.8897
 30
0.0
 10
-68.2144
 20
96.1182
 30
0.0
 10
-68.2144
 20
96.1182
 30
0.0
 10
-68.7626
 20
92.1349
 30
0.0
 10
-68.3787
 20
88.0803
 30
0.0
 10
-67.0913
 20
84.2707
 30
0.0
 10
-67.0913
 20
84.2707
 30
0.0
 10
-66.8167
 20
83.4577
 30
0.0
 10
-66.4682
 20
82.672
 30
0.0
 10
-66.0498
 20
81.9228
 30
0.0
 10
-66.0498
 20
81.9228
 30
0.0
 10
-67.2448
 20
82.3241
 30
0.0
 10
-68.4431
 20
82.7141
 30
0.0
 10
-69.6453
 20
83.0931
 30
0.0
 10
-69.6453
 20
83.0931
 30
0.0
 10
-70.6458
 20
83.4088
 30
0.0
 10
-71.6491
 20
83.7152
 30
0.0
 10
-72.6552
 20
84.0131
 30
0.0
 10
-72.6552
 20
84.0131
 30
0.0
 10
-72.634
 20
84.0469
 30
0.0
 10
-72.6135
 20
84.0809
 30
0.0
 10
-72.5939
 20
84.1158
 30
0.0
 10
-72.5939
 20
84.1158
 30
0.0
 10
-70.9955
 20
86.9629
 30
0.0
 10
-70.6247
 20
90.3356
 30
0.0
 10
-71.5684
 20
93.4615
 30
0.0
 10
-71.5684
 20
93.4615
 30
0.0
 10
-71.9583
 20
94.7534
 30
0.0
 10
-72.6127
 20
95.949
 30
0.0
 10
-73.4914
 20
96.9732
 30
0.0
 10
-73.4914
 20
96.9732
 30
0.0
 10
-74.1186
 20
96.2846
 30
0.0
 10
-74.6623
 20
95.525
 30
0.0
 10
-75.1118
 20
94.7087
 30
0.0
 10
-75.1118
 20
94.7087
 30
0.0
 10
-75.5594
 20
93.8959
 30
0.0
 10
-75.9952
 20
93.0762
 30
0.0
 10
-76.4186
 20
92.2503
 30
0.0
 10
-76.4186
 20
92.2503
 30
0.0
 10
-77.0922
 20
90.9366
 30
0.0
 10
-77.4201
 20
89.4739
 30
0.0
 10
-77.3718
 20
87.9981
 30
0.0
 10
-77.3718
 20
87.9981
 30
0.0
 10
-77.3237
 20
86.5272
 30
0.0
 10
-76.9363
 20
85.0874
 30
0.0
 10
-76.2387
 20
83.7907
 30
0.0
 10
-76.2387
 20
83.7907
 30
0.0
 10
-77.0407
 20
83.8952
 30
0.0
 10
-77.8526
 20
83.9002
 30
0.0
 10
-78.6558
 20
83.8064
 30
0.0
 10
-78.6558
 20
83.8064
 30
0.0
 10
-79.4565
 20
83.7125
 30
0.0
 10
-80.2534
 20
83.593
 30
0.0
 10
-81.0465
 20
83.4487
 30
0.0
  0
SPLINE
  5
79
330
1F
100
AcDbEntity
  8
layer 1
 62
     7
100
AcDbSpline
210
0.0
220
0.0
230
1.0
 70
    11
 71
     3
 72
   120
 73
   116
 74
     0
 42
0.0000000001
 43
0.0000000001
 12
1.0
 22
0.0
 32
0.0
 13
1.0
 23
0.0
 33
0.0
 40
0.0
 40
0.0
 40
0.0
 40
0.0
 40
0.0333333333333333
 40
0.0333333333333333
 40
0.0333333333333333
 40
0.0333333333333333
 40
0.0666666666666667
 40
0.0666666666666667
 40
0.0666666666666667
 40
0.0666666666666667
 40
0.1
 40
0.1
 40
0.1
 40
0.1
 40
0.1333333333333333
 40
0.1333333333333333
 40
0.1333333333333333
 40
0.1333333333333333
 40
0.1666666666666667
 40
0.1666666666666667
 40
0.1666666666666667
 40
0.1666666666666667
 40
0.2
 40
0.2
 40
0.2
 40
0.2
 40
0.2333333333333333
 40
0.2333333333333333
 40
0.2333333333333333
 40
0.2333333333333333
 40
0.2666666666666667
 40
0.2666666666666667
 40
0.2666666666666667
 40
0.2666666666666667
 40
0.3
 40
0.3
 40
0.3
 40
0.3
 40
0.3333333333333333
 40
0.3333333333333333
 40
0.3333333333333333
 40
0.3333333333333333
 40
0.3666666666666666
 40
0.3666666666666666
 40
0.3666666666666666
 40
0.3666666666666666
 40
0.4
 40
0.4
 40
0.4
 40
0.4
 40
0.4333333333333333
 40
0.4333333333333333
 40
0.4333333333333333
 40
0.4333333333333333
 40
0.4666666666666667
 40
0.4666666666666667
 40
0.4666666666666667
 40
0.4666666666666667
 40
0.5
 40
0.5
 40
0.5
 40
0.5
 40
0.5333333333333333
 40
0.5333333333333333
 40
0.5333333333333333
 40
0.5333333333333333
 40
0.5666666666666667
 40
0.5666666666666667
 40
0.5666666666666667
 40
0.5666666666666667
 40
0.6
 40
0.6
 40
0.6
 40
0.6
 40
0.6333333333333333
 40
0.6333333333333333
 40
0.6333333333333333
 40
0.6333333333333333
 40
0.6666666666666666
 40
0.6666666666666666
 40
0.6666666666666666
 40
0.6666666666666666
 40
0.7
 40
0.7
 40
0.7
 40
0.7
 40
0.7333333333333333
 40
0.7333333333333333
 40
0.7333333333333333
 40
0.7333333333333333
 40
0.7666666666666667
 40
0.7666666666666667
 40
0.7666666666666667
 40
0.7666666666666667
 40
0.8
 40
0.8
 40
0.8
 40
0.8
 40
0.8333333333333334
 40
0.8333333333333334
 40
0.8333333333333334
 40
0.8333333333333334
 40
0.8666666666666667
 40
0.8666666666666667
 40
0.8666666666666667
 40
0.8666666666666667
 40
0.9
 40
0.9
 40
0.9
 40
0.9
 40
0.9333333333333333
 40
0.9333333333333333
 40
0.9333333333333333
 40
0.9333333333333333
 40
1.0
 40
1.0
 40
1.0
 40
1.0
 10
-60.7282
 20
112.3642
 30
0.0
 10
-58.486
 20
110.3847
 30
0.0
 10
-56.2746
 20
108.3707
 30
0.0
 10
-54.0947
 20
106.3229
 30
0.0
 10
-54.0947
 20
106.3229
 30
0.0
 10
-52.185
 20
104.4604
 30
0.0
 10
-50.283
 20
102.5903
 30
0.0
 10
-48.3891
 20
100.7126
 30
0.0
 10
-48.3891
 20
100.7126
 30
0.0
 10
-46.4949
 20
98.8353
 30
0.0
 10
-44.5666
 20
96.9932
 30
0.0
 10
-42.6042
 20
95.1876
 30
0.0
 10
-42.6042
 20
95.1876
 30
0.0
 10
-41.5627
 20
94.251
 30
0.0
 10
-40.4963
 20
93.3426
 30
0.0
 10
-39.4057
 20
92.4633
 30
0.0
 10
-39.4057
 20
92.4633
 30
0.0
 10
-44.4338
 20
89.5207
 30
0.0
 10
-49.2494
 20
86.2319
 30
0.0
 10
-53.8198
 20
82.619
 30
0.0
 10
-53.8198
 20
82.619
 30
0.0
 10
-55.9195
 20
80.959
 30
0.0
 10
-57.7328
 20
78.9667
 30
0.0
 10
-59.1883
 20
76.7203
 30
0.0
 10
-59.1883
 20
76.7203
 30
0.0
 10
-59.5468
 20
77.4619
 30
0.0
 10
-59.8994
 20
78.2059
 30
0.0
 10
-60.2465
 20
78.9528
 30
0.0
 10
-60.2465
 20
78.9528
 30
0.0
 10
-60.5949
 20
79.702
 30
0.0
 10
-60.9551
 20
80.4456
 30
0.0
 10
-61.3269
 20
81.1835
 30
0.0
 10
-61.3269
 20
81.1835
 30
0.0
 10
-61.9838
 20
82.4506
 30
0.0
 10
-62.6459
 20
83.715
 30
0.0
 10
-63.3133
 20
84.9763
 30
0.0
 10
-63.3133
 20
84.9763
 30
0.0
 10
-63.9969
 20
86.2681
 30
0.0
 10
-64.2613
 20
87.7413
 30
0.0
 10
-64.0702
 20
89.1903
 30
0.0
 10
-64.0702
 20
89.1903
 30
0.0
 10
-63.9232
 20
89.877
 30
0.0
 10
-63.6286
 20
90.5241
 30
0.0
 10
-63.2075
 20
91.086
 30
0.0
 10
-63.2075
 20
91.086
 30
0.0
 10
-61.4484
 20
93.4343
 30
0.0
 10
-59.3817
 20
95.5361
 30
0.0
 10
-57.064
 20
97.3348
 30
0.0
 10
-57.064
 20
97.3348
 30
0.0
 10
-56.92
 20
97.0548
 30
0.0
 10
-56.8025
 20
96.7612
 30
0.0
 10
-56.7139
 20
96.4591
 30
0.0
 10
-56.7139
 20
96.4591
 30
0.0
 10
-56.5365
 20
95.8399
 30
0.0
 10
-56.4346
 20
95.2017
 30
0.0
 10
-56.41
 20
94.5583
 30
0.0
 10
-56.41
 20
94.5583
 30
0.0
 10
-56.3595
 20
93.2458
 30
0.0
 10
-55.6408
 20
92.051
 30
0.0
 10
-54.5039
 20
91.3931
 30
0.0
 10
-54.5039
 20
91.3931
 30
0.0
 10
-52.7005
 20
90.3489
 30
0.0
 10
-50.5486
 20
90.0935
 30
0.0
 10
-48.5512
 20
90.6871
 30
0.0
 10
-48.5512
 20
90.6871
 30
0.0
 10
-47.6449
 20
90.9566
 30
0.0
 10
-46.9514
 20
91.6868
 30
0.0
 10
-46.7296
 20
92.6058
 30
0.0
 10
-46.7296
 20
92.6058
 30
0.0
 10
-46.6383
 20
92.9853
 30
0.0
 10
-46.66
 20
93.3833
 30
0.0
 10
-46.7928
 20
93.7507
 30
0.0
 10
-46.7928
 20
93.7507
 30
0.0
 10
-47.1491
 20
94.7362
 30
0.0
 10
-47.7157
 20
95.632
 30
0.0
 10
-48.4536
 20
96.3761
 30
0.0
 10
-48.4536
 20
96.3761
 30
0.0
 10
-49.2332
 20
97.1618
 30
0.0
 10
-50.2439
 20
97.6765
 30
0.0
 10
-51.3379
 20
97.8445
 30
0.0
 10
-51.3379
 20
97.8445
 30
0.0
 10
-52.4042
 20
98.0086
 30
0.0
 10
-53.4656
 20
98.2044
 30
0.0
 10
-54.5201
 20
98.4322
 30
0.0
 10
-54.5201
 20
98.4322
 30
0.0
 10
-53.9786
 20
98.7013
 30
0.0
 10
-53.4372
 20
98.9716
 30
0.0
 10
-52.8972
 20
99.2438
 30
0.0
 10
-52.8972
 20
99.2438
 30
0.0
 10
-52.0203
 20
99.6864
 30
0.0
 10
-51.1453
 20
100.1317
 30
0.0
 10
-50.2719
 20
100.5806
 30
0.0
 10
-50.2719
 20
100.5806
 30
0.0
 10
-51.8179
 20
100.8937
 30
0.0
 10
-53.4138
 20
100.8614
 30
0.0
 10
-54.9457
 20
100.4863
 30
0.0
 10
-54.9457
 20
100.4863
 30
0.0
 10
-56.4622
 20
100.1151
 30
0.0
 10
-57.9462
 20
99.6254
 30
0.0
 10
-59.3852
 20
99.0207
 30
0.0
 10
-59.3852
 20
99.0207
 30
0.0
 10
-60.5949
 20
98.5124
 30
0.0
 10
-61.6672
 20
97.7262
 30
0.0
 10
-62.5154
 20
96.725
 30
0.0
 10
-62.5154
 20
96.725
 30
0.0
 10
-63.3536
 20
95.7354
 30
0.0
 10
-64.0974
 20
94.6699
 30
0.0
 10
-64.7373
 20
93.5421
 30
0.0
 10
-64.7373
 20
93.5421
 30
0.0
 10
-64.7729
 20
93.8209
 30
0.0
 10
-64.7935
 20
94.1022
 30
0.0
 10
-64.7985
 20
94.3834
 30
0.0
 10
-64.7985
 20
94.3834
 30
0.0
 10
-64.9165
 20
100.6168
 30
0.0
 10
-63.5187
 20
106.7887
 30
0.0
 10
-60.7282
 20
112.3642
 30
0.0
  0
SPLINE
  5
7A
330
1F
100
AcDbEntity
  8
layer 1
 62
     7
100
AcDbSpline
210
0.0
220
0.0
230
1.0
 70
    11
 71
     3
 72
    36
 73
    32
 74
     0
 42
0.0000000001
 43
0.0000000001
 12
1.0
 22
0.0
 32
0.0
 13
1.0
 23
0.0
 33
0.0
 40
0.0
 40
0.0
 40
0.0
 40
0.0
 40
0.1111111111111111
 40
0.1111111111111111
 40
0.1111111111111111
 40
0.1111111111111111
 40
0.2222222222222222
 40
0.2222222222222222
 40
0.2222222222222222
 40
0.2222222222222222
 40
0.3333333333333333
 40
0.3333333333333333
 40
0.3333333333333333
 40
0.3333333333333333
 40
0.4444444444444444
 40
0.4444444444444444
 40
0.4444444444444444
 40
0.4444444444444444
 40
0.5555555555555556
 40
0.5555555555555556
 40
0.5555555555555556
 40
0.5555555555555556
 40
0.6666666666666666
 40
0.6666666666666666
 40
0.6666666666666666
 40
0.6666666666666666
 40
0.7777777777777778
 40
0.7777777777777778
 40
0.7777777777777778
 40
0.7777777777777778
 40
1.0
 40
1.0
 40
1.0
 40
1.0
 10
-28.8181
 20
85.4251
 30
0.0
 10
-25.0171
 20
85.7294
 30
0.0
 10
-21.1964
 20
85.1232
 30
0.0
 10
-17.676
 20
83.6575
 30
0.0
 10
-17.676
 20
83.6575
 30
0.0
 10
-14.1706
 20
82.1982
 30
0.0
 10
-10.988
 20
80.0582
 30
0.0
 10
-8.3135
 20
77.3628
 30
0.0
 10
-8.3135
 20
77.3628
 30
0.0
 10
-5.604
 20
74.4954
 30
0.0
 10
-3.5638
 20
71.0608
 30
0.0
 10
-2.3416
 20
67.3096
 30
0.0
 10
-2.3416
 20
67.3096
 30
0.0
 10
-3.4325
 20
67.2412
 30
0.0
 10
-4.5096
 20
67.03
 30
0.0
 10
-5.5457
 20
66.6817
 30
0.0
 10
-5.5457
 20
66.6817
 30
0.0
 10
-6.5854
 20
66.332
 30
0.0
 10
-7.5554
 20
65.8037
 30
0.0
 10
-8.4134
 20
65.12
 30
0.0
 10
-8.4134
 20
65.12
 30
0.0
 10
-9.3899
 20
68.7706
 30
0.0
 10
-11.0511
 20
72.201
 30
0.0
 10
-13.3092
 20
75.2304
 30
0.0
 10
-13.3092
 20
75.2304
 30
0.0
 10
-15.5763
 20
78.2716
 30
0.0
 10
-18.4994
 20
80.7601
 30
0.0
 10
-21.8643
 20
82.5117
 30
0.0
 10
-21.8643
 20
82.5117
 30
0.0
 10
-24.0973
 20
83.6743
 30
0.0
 10
-26.4231
 20
84.6487
 30
0.0
 10
-28.8181
 20
85.4251
 30
0.0
  0
SPLINE
  5
7B
330
1F
100
AcDbEntity
  8
layer 1
 62
     7
100
AcDbSpline
210
0.0
220
0.0
230
1.0
 70
    11
 71
     3
 72
    40
 73
    36
 74
     0
 42
0.0000000001
 43
0.0000000001
 12
1.0
 22
0.0
 32
0.0
 13
1.0
 23
0.0
 33
0.0
 40
0.0
 40
0.0
 40
0.0
 40
0.0
 40
0.1
 40
0.1
 40
0.1
 40
0.1
 40
0.2
 40
0.2
 40
0.2
 40
0.2
 40
0.3
 40
0.3
 40
0.3
 40
0.3
 40
0.4
 40
0.4
 40
0.4
 40
0.4
 40
0.5
 40
0.5
 40
0.5
 40
0.5
 40
0.6
 40
0.6
 40
0.6
 40
0.6
 40
0.7
 40
0.7
 40
0.7
 40
0.7
 40
0.8
 40
0.8
 40
0.8
 40
0.8
 40
1.0
 40
1.0
 40
1.0
 40
1.0
 10
-81.0465
 20
72.0768
 30
0.0
 10
-81.0465
 20
72.0768
 30
0.0
 10
-81.0465
 20
80.7243
 30
0.0
 10
-81.0465
 20
80.7243
 30
0.0
 10
-81.0465
 20
80.7243
 30
0.0
 10
-79.3491
 20
81.0994
 30
0.0
 10
-77.6161
 20
81.2905
 30
0.0
 10
-75.878
 20
81.2946
 30
0.0
 10
-75.878
 20
81.2946
 30
0.0
 10
-74.1339
 20
81.2981
 30
0.0
 10
-72.3997
 20
81.0247
 30
0.0
 10
-70.7415
 20
80.4841
 30
0.0
 10
-70.7415
 20
80.4841
 30
0.0
 10
-67.7061
 20
79.4445
 30
0.0
 10
-65.0311
 20
77.5554
 30
0.0
 10
-63.0352
 20
75.044
 30
0.0
 10
-63.0352
 20
75.044
 30
0.0
 10
-62.6619
 20
74.5745
 30
0.0
 10
-62.3462
 20
74.0623
 30
0.0
 10
-62.0941
 20
73.5182
 30
0.0
 10
-62.0941
 20
73.5182
 30
0.0
 10
-63.468
 20
72.4059
 30
0.0
 10
-64.7217
 20
71.1541
 30
0.0
 10
-65.8355
 20
69.7815
 30
0.0
 10
-65.8355
 20
69.7815
 30
0.0
 10
-66.9465
 20
68.4129
 30
0.0
 10
-68.0218
 20
67.0159
 30
0.0
 10
-69.0601
 20
65.5911
 30
0.0
 10
-69.0601
 20
65.5911
 30
0.0
 10
-69.9042
 20
67.2799
 30
0.0
 10
-71.2646
 20
68.654
 30
0.0
 10
-72.945
 20
69.5146
 30
0.0
 10
-72.945
 20
69.5146
 30
0.0
 10
-75.4841
 20
70.8143
 30
0.0
 10
-78.2216
 20
71.6807
 30
0.0
 10
-81.0465
 20
72.0768
 30
0.0
  0
SPLINE
  5
7C
330
1F
100
AcDbEntity
  8
layer 1
 62
     7
100
AcDbSpline
210
0.0
220
0.0
230
1.0
 70
    11
 71
     3
 72
    32
 73
    28
 74
     0
 42
0.0000000001
 43
0.0000000001
 12
1.0
 22
0.0
 32
0.0
 13
1.0
 23
0.0
 33
0.0
 40
0.0
 40
0.0
 40
0.0
 40
0.0
 40
0.125
 40
0.125
 40
0.125
 40
0.125
 40
0.25
 40
0.25
 40
0.25
 40
0.25
 40
0.375
 40
0.375
 40
0.375
 40
0.375
 40
0.5
 40
0.5
 40
0.5
 40
0.5
 40
0.625
 40
0.625
 40
0.625
 40
0.625
 40
0.75
 40
0.75
 40
0.75
 40
0.75
 40
1.0
 40
1.0
 40
1.0
 40
1.0
 10
-81.0465
 20
63.3663
 30
0.0
 10
-81.0465
 20
63.3663
 30
0.0
 10
-81.0465
 20
69.0264
 30
0.0
 10
-81.0465
 20
69.0264
 30
0.0
 10
-81.0465
 20
69.0264
 30
0.0
 10
-79.0516
 20
68.5398
 30
0.0
 10
-77.2228
 20
67.5256
 30
0.0
 10
-75.7533
 20
66.0914
 30
0.0
 10
-75.7533
 20
66.0914
 30
0.0
 10
-72.3788
 20
62.7983
 30
0.0
 10
-69.5977
 20
58.9455
 30
0.0
 10
-67.5342
 20
54.7058
 30
0.0
 10
-67.5342
 20
54.7058
 30
0.0
 10
-68.3774
 20
55.3397
 30
0.0
 10
-69.2185
 20
55.9763
 30
0.0
 10
-70.0577
 20
56.6154
 30
0.0
 10
-70.0577
 20
56.6154
 30
0.0
 10
-71.0702
 20
57.414
 30
0.0
 10
-72.0675
 20
58.2324
 30
0.0
 10
-73.0485
 20
59.0693
 30
0.0
 10
-73.0485
 20
59.0693
 30
0.0
 10
-74.0314
 20
59.9081
 30
0.0
 10
-75.084
 20
60.6611
 30
0.0
 10
-76.1951
 20
61.3208
 30
0.0
 10
-76.1951
 20
61.3208
 30
0.0
 10
-77.7217
 20
62.2001
 30
0.0
 10
-79.3509
 20
62.8871
 30
0.0
 10
-81.0465
 20
63.3663
 30
0.0
  0
SPLINE
  5
7D
330
1F
100
AcDbEntity
  8
layer 1
 62
     7
100
AcDbSpline
210
0.0
220
0.0
230
1.0
 70
    11
 71
     3
 72
   232
 73
   228
 74
     0
 42
0.0000000001
 43
0.0000000001
 12
1.0
 22
0.0
 32
0.0
 13
1.0
 23
0.0
 33
0.0
 40
0.0
 40
0.0
 40
0.0
 40
0.0
 40
0.0172413793103448
 40
0.0172413793103448
 40
0.0172413793103448
 40
0.0172413793103448
 40
0.0344827586206897
 40
0.0344827586206897
 40
0.0344827586206897
 40
0.0344827586206897
 40
0.0517241379310345
 40
0.0517241379310345
 40
0.0517241379310345
 40
0.0517241379310345
 40
0.0689655172413793
 40
0.0689655172413793
 40
0.0689655172413793
 40
0.0689655172413793
 40
0.0862068965517241
 40
0.0862068965517241
 40
0.0862068965517241
 40
0.0862068965517241
 40
0.103448275862069
 40
0.103448275862069
 40
0.103448275862069
 40
0.103448275862069
 40
0.1206896551724138
 40
0.1206896551724138
 40
0.1206896551724138
 40
0.1206896551724138
 40
0.1379310344827586
 40
0.1379310344827586
 40
0.1379310344827586
 40
0.1379310344827586
 40
0.1551724137931035
 40
0.1551724137931035
 40
0.1551724137931035
 40
0.1551724137931035
 40
0.1724137931034483
 40
0.1724137931034483
 40
0.1724137931034483
 40
0.1724137931034483
 40
0.1896551724137931
 40
0.1896551724137931
 40
0.1896551724137931
 40
0.1896551724137931
 40
0.2068965517241379
 40
0.2068965517241379
 40
0.2068965517241379
 40
0.2068965517241379
 40
0.2241379310344828
 40
0.2241379310344828
 40
0.2241379310344828
 40
0.2241379310344828
 40
0.2413793103448276
 40
0.2413793103448276
 40
0.2413793103448276
 40
0.2413793103448276
 40
0.2586206896551724
 40
0.2586206896551724
 40
0.2586206896551724
 40
0.2586206896551724
 40
0.2758620689655172
 40
0.2758620689655172
 40
0.2758620689655172
 40
0.2758620689655172
 40
0.293103448275862
 40
0.293103448275862
 40
0.293103448275862
 40
0.293103448275862
 40
0.3103448275862069
 40
0.3103448275862069
 40
0.3103448275862069
 40
0.3103448275862069
 40
0.3275862068965517
 40
0.3275862068965517
 40
0.3275862068965517
 40
0.3275862068965517
 40
0.3448275862068966
 40
0.3448275862068966
 40
0.3448275862068966
 40
0.3448275862068966
 40
0.3620689655172414
 40
0.3620689655172414
 40
0.3620689655172414
 40
0.3620689655172414
 40
0.3793103448275862
 40
0.3793103448275862
 40
0.3793103448275862
 40
0.3793103448275862
 40
0.396551724137931
 40
0.396551724137931
 40
0.396551724137931
 40
0.396551724137931
 40
0.4137931034482759
 40
0.4137931034482759
 40
0.4137931034482759
 40
0.4137931034482759
 40
0.4310344827586207
 40
0.4310344827586207
 40
0.4310344827586207
 40
0.4310344827586207
 40
0.4482758620689655
 40
0.4482758620689655
 40
0.4482758620689655
 40
0.4482758620689655
 40
0.4655172413793103
 40
0.4655172413793103
 40
0.4655172413793103
 40
0.4655172413793103
 40
0.4827586206896552
 40
0.4827586206896552
 40
0.4827586206896552
 40
0.4827586206896552
 40
0.5
 40
0.5
 40
0.5
 40
0.5
 40
0.5172413793103449
 40
0.5172413793103449
 40
0.5172413793103449
 40
0.5172413793103449
 40
0.5344827586206896
 40
0.5344827586206896
 40
0.5344827586206896
 40
0.5344827586206896
 40
0.5517241379310345
 40
0.5517241379310345
 40
0.5517241379310345
 40
0.5517241379310345
 40
0.5689655172413793
 40
0.5689655172413793
 40
0.5689655172413793
 40
0.5689655172413793
 40
0.5862068965517241
 40
0.5862068965517241
 40
0.5862068965517241
 40
0.5862068965517241
 40
0.603448275862069
 40
0.603448275862069
 40
0.603448275862069
 40
0.603448275862069
 40
0.6206896551724138
 40
0.6206896551724138
 40
0.6206896551724138
 40
0.6206896551724138
 40
0.6379310344827587
 40
0.6379310344827587
 40
0.6379310344827587
 40
0.6379310344827587
 40
0.6551724137931034
 40
0.6551724137931034
 40
0.6551724137931034
 40
0.6551724137931034
 40
0.6724137931034483
 40
0.6724137931034483
 40
0.6724137931034483
 40
0.6724137931034483
 40
0.6896551724137931
 40
0.6896551724137931
 40
0.6896551724137931
 40
0.6896551724137931
 40
0.7068965517241379
 40
0.7068965517241379
 40
0.7068965517241379
 40
0.7068965517241379
 40
0.7241379310344828
 40
0.7241379310344828
 40
0.7241379310344828
 40
0.7241379310344828
 40
0.7413793103448276
 40
0.7413793103448276
 40
0.7413793103448276
 40
0.7413793103448276
 40
0.7586206896551724
 40
0.7586206896551724
 40
0.7586206896551724
 40
0.7586206896551724
 40
0.7758620689655172
 40
0.7758620689655172
 40
0.7758620689655172
 40
0.7758620689655172
 40
0.7931034482758621
 40
0.7931034482758621
 40
0.7931034482758621
 40
0.7931034482758621
 40
0.8103448275862069
 40
0.8103448275862069
 40
0.8103448275862069
 40
0.8103448275862069
 40
0.8275862068965517
 40
0.8275862068965517
 40
0.8275862068965517
 40
0.8275862068965517
 40
0.8448275862068966
 40
0.8448275862068966
 40
0.8448275862068966
 40
0.8448275862068966
 40
0.8620689655172413
 40
0.8620689655172413
 40
0.8620689655172413
 40
0.8620689655172413
 40
0.8793103448275862
 40
0.8793103448275862
 40
0.8793103448275862
 40
0.8793103448275862
 40
0.896551724137931
 40
0.896551724137931
 40
0.896551724137931
 40
0.896551724137931
 40
0.9137931034482759
 40
0.9137931034482759
 40
0.9137931034482759
 40
0.9137931034482759
 40
0.9310344827586207
 40
0.9310344827586207
 40
0.9310344827586207
 40
0.9310344827586207
 40
0.9482758620689655
 40
0.9482758620689655
 40
0.9482758620689655
 40
0.9482758620689655
 40
0.9655172413793104
 40
0.9655172413793104
 40
0.9655172413793104
 40
0.9655172413793104
 40
1.0
 40
1.0
 40
1.0
 40
1.0
 10
-63.1723
 20
59.1106
 30
0.0
 10
-60.3725
 20
64.0455
 30
0.0
 10
-57.0593
 20
68.6718
 30
0.0
 10
-53.289
 20
72.9117
 30
0.0
 10
-53.289
 20
72.9117
 30
0.0
 10
-48.7249
 20
77.964
 30
0.0
 10
-43.6272
 20
82.5087
 30
0.0
 10
-38.087
 20
86.4662
 30
0.0
 10
-38.087
 20
86.4662
 30
0.0
 10
-36.3464
 20
85.696
 30
0.0
 10
-34.6541
 20
84.8206
 30
0.0
 10
-33.0202
 20
83.8455
 30
0.0
 10
-33.0202
 20
83.8455
 30
0.0
 10
-30.0258
 20
82.0118
 30
0.0
 10
-27.1643
 20
79.9678
 30
0.0
 10
-24.4588
 20
77.7303
 30
0.0
 10
-24.4588
 20
77.7303
 30
0.0
 10
-26.488
 20
76.6634
 30
0.0
 10
-28.3923
 20
75.3744
 30
0.0
 10
-30.1373
 20
73.8864
 30
0.0
 10
-30.1373
 20
73.8864
 30
0.0
 10
-32.3965
 20
71.9141
 30
0.0
 10
-34.4194
 20
69.6863
 30
0.0
 10
-36.1651
 20
67.2473
 30
0.0
 10
-36.1651
 20
67.2473
 30
0.0
 10
-36.5458
 20
68.1389
 30
0.0
 10
-37.0962
 20
68.948
 30
0.0
 10
-37.7856
 20
69.6299
 30
0.0
 10
-37.7856
 20
69.6299
 30
0.0
 10
-38.4701
 20
70.3072
 30
0.0
 10
-39.2233
 20
70.9115
 30
0.0
 10
-40.0329
 20
71.4333
 30
0.0
 10
-40.0329
 20
71.4333
 30
0.0
 10
-41.5895
 20
72.4364
 30
0.0
 10
-43.4115
 20
72.9471
 30
0.0
 10
-45.2626
 20
72.899
 30
0.0
 10
-45.2626
 20
72.899
 30
0.0
 10
-47.0869
 20
72.8514
 30
0.0
 10
-48.8878
 20
72.4759
 30
0.0
 10
-50.5791
 20
71.7899
 30
0.0
 10
-50.5791
 20
71.7899
 30
0.0
 10
-50.4447
 20
71.4406
 30
0.0
 10
-50.2597
 20
71.1134
 30
0.0
 10
-50.0301
 20
70.8181
 30
0.0
 10
-50.0301
 20
70.8181
 30
0.0
 10
-47.9232
 20
68.1095
 30
0.0
 10
-44.9342
 20
66.2279
 30
0.0
 10
-41.5813
 20
65.4998
 30
0.0
 10
-41.5813
 20
65.4998
 30
0.0
 10
-40.7763
 20
65.3314
 30
0.0
 10
-39.9574
 20
65.2409
 30
0.0
 10
-39.1351
 20
65.2287
 30
0.0
 10
-39.1351
 20
65.2287
 30
0.0
 10
-38.3115
 20
65.2168
 30
0.0
 10
-37.4899
 20
65.3079
 30
0.0
 10
-36.6892
 20
65.4998
 30
0.0
 10
-36.6892
 20
65.4998
 30
0.0
 10
-38.5151
 20
63.7388
 30
0.0
 10
-39.997
 20
61.654
 30
0.0
 10
-41.0603
 20
59.3507
 30
0.0
 10
-41.0603
 20
59.3507
 30
0.0
 10
-41.6179
 20
58.1079
 30
0.0
 10
-42.0409
 20
56.8093
 30
0.0
 10
-42.3216
 20
55.4764
 30
0.0
 10
-42.3216
 20
55.4764
 30
0.0
 10
-42.6028
 20
54.1447
 30
0.0
 10
-42.7657
 20
52.7912
 30
0.0
 10
-42.8089
 20
51.4311
 30
0.0
 10
-42.8089
 20
51.4311
 30
0.0
 10
-43.9392
 20
52.576
 30
0.0
 10
-44.4678
 20
54.1856
 30
0.0
 10
-44.2382
 20
55.7782
 30
0.0
 10
-44.2382
 20
55.7782
 30
0.0
 10
-44.0162
 20
57.3156
 30
0.0
 10
-43.3794
 20
58.7642
 30
0.0
 10
-42.3974
 20
59.968
 30
0.0
 10
-42.3974
 20
59.968
 30
0.0
 10
-43.0722
 20
59.8888
 30
0.0
 10
-43.7023
 20
59.5913
 30
0.0
 10
-44.1914
 20
59.1198
 30
0.0
 10
-44.1914
 20
59.1198
 30
0.0
 10
-44.6774
 20
58.6514
 30
0.0
 10
-45.0189
 20
58.0535
 30
0.0
 10
-45.1748
 20
57.3966
 30
0.0
 10
-45.1748
 20
57.3966
 30
0.0
 10
-45.9835
 20
60.5668
 30
0.0
 10
-48.4219
 20
63.0612
 30
0.0
 10
-51.5738
 20
63.9387
 30
0.0
 10
-51.5738
 20
63.9387
 30
0.0
 10
-52.7073
 20
64.2548
 30
0.0
 10
-53.873
 20
64.441
 30
0.0
 10
-55.0488
 20
64.4936
 30
0.0
 10
-55.0488
 20
64.4936
 30
0.0
 10
-54.6312
 20
64.2878
 30
0.0
 10
-54.2348
 20
64.0414
 30
0.0
 10
-53.8653
 20
63.7582
 30
0.0
 10
-53.8653
 20
63.7582
 30
0.0
 10
-52.2231
 20
62.4997
 30
0.0
 10
-50.6929
 20
61.1005
 30
0.0
 10
-49.293
 20
59.5768
 30
0.0
 10
-49.293
 20
59.5768
 30
0.0
 10
-47.3791
 20
57.4938
 30
0.0
 10
-46.2174
 20
54.8277
 30
0.0
 10
-45.9942
 20
52.0073
 30
0.0
 10
-45.9942
 20
52.0073
 30
0.0
 10
-45.829
 20
49.9158
 30
0.0
 10
-45.465
 20
47.8455
 30
0.0
 10
-44.9074
 20
45.823
 30
0.0
 10
-44.9074
 20
45.823
 30
0.0
 10
-44.5476
 20
44.5182
 30
0.0
 10
-43.9994
 20
43.2731
 30
0.0
 10
-43.2801
 20
42.1265
 30
0.0
 10
-43.2801
 20
42.1265
 30
0.0
 10
-42.3855
 20
40.7015
 30
0.0
 10
-41.213
 20
39.4716
 30
0.0
 10
-39.8319
 20
38.5103
 30
0.0
 10
-39.8319
 20
38.5103
 30
0.0
 10
-40.5371
 20
37.2555
 30
0.0
 10
-41.6018
 20
36.2393
 30
0.0
 10
-42.8883
 20
35.5935
 30
0.0
 10
-42.8883
 20
35.5935
 30
0.0
 10
-44.1562
 20
34.9565
 30
0.0
 10
-45.3047
 20
34.1074
 30
0.0
 10
-46.2849
 20
33.0814
 30
0.0
 10
-46.2849
 20
33.0814
 30
0.0
 10
-46.8915
 20
32.4465
 30
0.0
 10
-47.4792
 20
31.7943
 30
0.0
 10
-48.0484
 20
31.1256
 30
0.0
 10
-48.0484
 20
31.1256
 30
0.0
 10
-48.8275
 20
31.2567
 30
0.0
 10
-49.5742
 20
31.5379
 30
0.0
 10
-50.2464
 20
31.9535
 30
0.0
 10
-50.2464
 20
31.9535
 30
0.0
 10
-50.4895
 20
32.1037
 30
0.0
 10
-50.6585
 20
32.3486
 30
0.0
 10
-50.7125
 20
32.629
 30
0.0
 10
-50.7125
 20
32.629
 30
0.0
 10
-50.7667
 20
32.9095
 30
0.0
 10
-50.6998
 20
33.2011
 30
0.0
 10
-50.53
 20
33.4309
 30
0.0
 10
-50.53
 20
33.4309
 30
0.0
 10
-50.142
 20
33.9546
 30
0.0
 10
-49.7548
 20
34.4787
 30
0.0
 10
-49.3685
 20
35.0037
 30
0.0
 10
-49.3685
 20
35.0037
 30
0.0
 10
-48.3646
 20
36.3678
 30
0.0
 10
-47.7386
 20
37.9715
 30
0.0
 10
-47.5524
 20
39.6552
 30
0.0
 10
-47.5524
 20
39.6552
 30
0.0
 10
-47.2909
 20
42.0226
 30
0.0
 10
-47.1618
 20
44.4028
 30
0.0
 10
-47.165
 20
46.7847
 30
0.0
 10
-47.165
 20
46.7847
 30
0.0
 10
-47.1665
 20
47.6321
 30
0.0
 10
-47.2608
 20
48.4768
 30
0.0
 10
-47.4472
 20
49.3035
 30
0.0
 10
-47.4472
 20
49.3035
 30
0.0
 10
-47.6351
 20
50.1382
 30
0.0
 10
-48.0098
 20
50.9193
 30
0.0
 10
-48.5432
 20
51.5886
 30
0.0
 10
-48.5432
 20
51.5886
 30
0.0
 10
-48.9552
 20
51.4472
 30
0.0
 10
-49.3423
 20
51.2414
 30
0.0
 10
-49.6906
 20
50.9796
 30
0.0
 10
-49.6906
 20
50.9796
 30
0.0
 10
-52.209
 20
49.0811
 30
0.0
 10
-53.897
 20
46.2856
 30
0.0
 10
-54.4016
 20
43.1722
 30
0.0
 10
-54.4016
 20
43.1722
 30
0.0
 10
-54.4128
 20
43.0983
 30
0.0
 10
-54.4216
 20
43.0236
 30
0.0
 10
-54.428
 20
42.9489
 30
0.0
 10
-54.428
 20
42.9489
 30
0.0
 10
-54.7038
 20
39.7016
 30
0.0
 10
-54.1853
 20
36.4378
 30
0.0
 10
-52.9164
 20
33.4359
 30
0.0
 10
-52.9164
 20
33.4359
 30
0.0
 10
-53.4239
 20
33.7892
 30
0.0
 10
-53.9471
 20
34.1197
 30
0.0
 10
-54.4843
 20
34.4261
 30
0.0
 10
-54.4843
 20
34.4261
 30
0.0
 10
-55.6347
 20
35.0672
 30
0.0
 10
-56.8191
 20
35.6459
 30
0.0
 10
-58.0323
 20
36.1587
 30
0.0
 10
-58.0323
 20
36.1587
 30
0.0
 10
-57.7225
 20
37.7067
 30
0.0
 10
-57.5842
 20
39.2838
 30
0.0
 10
-57.6198
 20
40.8621
 30
0.0
 10
-57.6198
 20
40.8621
 30
0.0
 10
-57.7158
 20
43.2927
 30
0.0
 10
-58.1036
 20
45.7022
 30
0.0
 10
-58.7748
 20
48.0403
 30
0.0
 10
-58.7748
 20
48.0403
 30
0.0
 10
-57.7152
 20
48.2971
 30
0.0
 10
-56.7186
 20
48.7655
 30
0.0
 10
-55.8453
 20
49.4185
 30
0.0
 10
-55.8453
 20
49.4185
 30
0.0
 10
-54.9799
 20
50.0653
 30
0.0
 10
-54.1644
 20
50.7768
 30
0.0
 10
-53.4061
 20
51.5469
 30
0.0
 10
-53.4061
 20
51.5469
 30
0.0
 10
-52.3622
 20
52.6075
 30
0.0
 10
-51.6995
 20
53.984
 30
0.0
 10
-51.5222
 20
55.4619
 30
0.0
 10
-51.5222
 20
55.4619
 30
0.0
 10
-51.3463
 20
56.9264
 30
0.0
 10
-51.5716
 20
58.4104
 30
0.0
 10
-52.1738
 20
59.7571
 30
0.0
 10
-52.1738
 20
59.7571
 30
0.0
 10
-53.014
 20
59.9048
 30
0.0
 10
-53.8767
 20
59.8506
 30
0.0
 10
-54.6918
 20
59.5993
 30
0.0
 10
-54.6918
 20
59.5993
 30
0.0
 10
-56.8674
 20
58.9285
 30
0.0
 10
-58.7733
 20
57.5863
 30
0.0
 10
-60.1374
 20
55.7637
 30
0.0
 10
-60.1374
 20
55.7637
 30
0.0
 10
-60.4761
 20
55.3113
 30
0.0
 10
-60.766
 20
54.8246
 30
0.0
 10
-61.0026
 20
54.3112
 30
0.0
 10
-61.0026
 20
54.3112
 30
0.0
 10
-61.1157
 20
55.0186
 30
0.0
 10
-61.3095
 20
55.7107
 30
0.0
 10
-61.5802
 20
56.3743
 30
0.0
 10
-61.5802
 20
56.3743
 30
0.0
 10
-61.9965
 20
57.3483
 30
0.0
 10
-62.5312
 20
58.2673
 30
0.0
 10
-63.1723
 20
59.1106
 30
0.0
  0
SPLINE
  5
7E
330
1F
100
AcDbEntity
  8
layer 1
 62
     7
100
AcDbSpline
210
0.0
220
0.0
230
1.0
 70
    11
 71
     3
 72
    96
 73
    92
 74
     0
 42
0.0000000001
 43
0.0000000001
 12
1.0
 22
0.0
 32
0.0
 13
1.0
 23
0.0
 33
0.0
 40
0.0
 40
0.0
 40
0.0
 40
0.0
 40
0.0416666666666667
 40
0.0416666666666667
 40
0.0416666666666667
 40
0.0416666666666667
 40
0.0833333333333333
 40
0.0833333333333333
 40
0.0833333333333333
 40
0.0833333333333333
 40
0.125
 40
0.125
 40
0.125
 40
0.125
 40
0.1666666666666667
 40
0.1666666666666667
 40
0.1666666666666667
 40
0.1666666666666667
 40
0.2083333333333333
 40
0.2083333333333333
 40
0.2083333333333333
 40
0.2083333333333333
 40
0.25
 40
0.25
 40
0.25
 40
0.25
 40
0.2916666666666667
 40
0.2916666666666667
 40
0.2916666666666667
 40
0.2916666666666667
 40
0.3333333333333333
 40
0.3333333333333333
 40
0.3333333333333333
 40
0.3333333333333333
 40
0.375
 40
0.375
 40
0.375
 40
0.375
 40
0.4166666666666667
 40
0.4166666666666667
 40
0.4166666666666667
 40
0.4166666666666667
 40
0.4583333333333333
 40
0.4583333333333333
 40
0.4583333333333333
 40
0.4583333333333333
 40
0.5
 40
0.5
 40
0.5
 40
0.5
 40
0.5416666666666666
 40
0.5416666666666666
 40
0.5416666666666666
 40
0.5416666666666666
 40
0.5833333333333334
 40
0.5833333333333334
 40
0.5833333333333334
 40
0.5833333333333334
 40
0.625
 40
0.625
 40
0.625
 40
0.625
 40
0.6666666666666666
 40
0.6666666666666666
 40
0.6666666666666666
 40
0.6666666666666666
 40
0.7083333333333334
 40
0.7083333333333334
 40
0.7083333333333334
 40
0.7083333333333334
 40
0.75
 40
0.75
 40
0.75
 40
0.75
 40
0.7916666666666666
 40
0.7916666666666666
 40
0.7916666666666666
 40
0.7916666666666666
 40
0.8333333333333334
 40
0.8333333333333334
 40
0.8333333333333334
 40
0.8333333333333334
 40
0.875
 40
0.875
 40
0.875
 40
0.875
 40
0.9166666666666666
 40
0.9166666666666666
 40
0.9166666666666666
 40
0.9166666666666666
 40
1.0
 40
1.0
 40
1.0
 40
1.0
 10
-81.0465
 20
29.6158
 30
0.0
 10
-81.0465
 20
29.6158
 30
0.0
 10
-81.0465
 20
59.242
 30
0.0
 10
-81.0465
 20
59.242
 30
0.0
 10
-81.0465
 20
59.242
 30
0.0
 10
-75.2635
 20
56.6547
 30
0.0
 10
-70.2355
 20
52.6304
 30
0.0
 10
-66.4423
 20
47.556
 30
0.0
 10
-66.4423
 20
47.556
 30
0.0
 10
-64.9583
 20
45.571
 30
0.0
 10
-64.2591
 20
43.1063
 30
0.0
 10
-64.4786
 20
40.6372
 30
0.0
 10
-64.4786
 20
40.6372
 30
0.0
 10
-64.5357
 20
39.994
 30
0.0
 10
-64.6832
 20
39.3621
 30
0.0
 10
-64.9165
 20
38.7599
 30
0.0
 10
-64.9165
 20
38.7599
 30
0.0
 10
-66.6023
 20
39.611
 30
0.0
 10
-68.4372
 20
40.1242
 30
0.0
 10
-70.32
 20
40.2719
 30
0.0
 10
-70.32
 20
40.2719
 30
0.0
 10
-72.1913
 20
40.4189
 30
0.0
 10
-74.0725
 20
40.3464
 30
0.0
 10
-75.9267
 20
40.0554
 30
0.0
 10
-75.9267
 20
40.0554
 30
0.0
 10
-73.0387
 20
38.8626
 30
0.0
 10
-70.1455
 20
37.6821
 30
0.0
 10
-67.2477
 20
36.5137
 30
0.0
 10
-67.2477
 20
36.5137
 30
0.0
 10
-64.3474
 20
35.3444
 30
0.0
 10
-61.5148
 20
34.0131
 30
0.0
 10
-58.7639
 20
32.5263
 30
0.0
 10
-58.7639
 20
32.5263
 30
0.0
 10
-54.9918
 20
30.4216
 30
0.0
 10
-51.4152
 20
27.9827
 30
0.0
 10
-48.0777
 20
25.2404
 30
0.0
 10
-48.0777
 20
25.2404
 30
0.0
 10
-50.894
 20
25.7628
 30
0.0
 10
-53.7779
 20
25.7945
 30
0.0
 10
-56.6048
 20
25.3333
 30
0.0
 10
-56.6048
 20
25.3333
 30
0.0
 10
-58.2147
 20
25.0624
 30
0.0
 10
-59.7928
 20
24.6314
 30
0.0
 10
-61.3167
 20
24.0462
 30
0.0
 10
-61.3167
 20
24.0462
 30
0.0
 10
-62.8393
 20
23.4618
 30
0.0
 10
-64.311
 20
22.7537
 30
0.0
 10
-65.7183
 20
21.9295
 30
0.0
 10
-65.7183
 20
21.9295
 30
0.0
 10
-65.2906
 20
24.6822
 30
0.0
 10
-65.2932
 20
27.4834
 30
0.0
 10
-65.7256
 20
30.2356
 30
0.0
 10
-65.7256
 20
30.2356
 30
0.0
 10
-65.9583
 20
31.7149
 30
0.0
 10
-66.6909
 20
33.069
 30
0.0
 10
-67.8028
 20
34.0725
 30
0.0
 10
-67.8028
 20
34.0725
 30
0.0
 10
-68.3762
 20
34.5906
 30
0.0
 10
-69.0028
 20
35.0473
 30
0.0
 10
-69.6713
 20
35.4355
 30
0.0
 10
-69.6713
 20
35.4355
 30
0.0
 10
-70.9552
 20
36.1802
 30
0.0
 10
-72.3726
 20
36.6653
 30
0.0
 10
-73.8441
 20
36.8626
 30
0.0
 10
-73.8441
 20
36.8626
 30
0.0
 10
-72.8965
 20
36.2139
 30
0.0
 10
-72.0772
 20
35.3944
 30
0.0
 10
-71.4283
 20
34.4473
 30
0.0
 10
-71.4283
 20
34.4473
 30
0.0
 10
-71.0732
 20
33.9184
 30
0.0
 10
-70.7763
 20
33.3528
 30
0.0
 10
-70.5424
 20
32.76
 30
0.0
 10
-70.5424
 20
32.76
 30
0.0
 10
-70.309
 20
32.1682
 30
0.0
 10
-70.1278
 20
31.5567
 30
0.0
 10
-70.0008
 20
30.9334
 30
0.0
 10
-70.0008
 20
30.9334
 30
0.0
 10
-70.3327
 20
31.2711
 30
0.0
 10
-70.71
 20
31.5608
 30
0.0
 10
-71.1217
 20
31.7939
 30
0.0
 10
-71.1217
 20
31.7939
 30
0.0
 10
-71.5328
 20
32.0264
 30
0.0
 10
-71.9665
 20
32.2165
 30
0.0
 10
-72.4164
 20
32.3609
 30
0.0
 10
-72.4164
 20
32.3609
 30
0.0
 10
-73.9669
 20
32.8518
 30
0.0
 10
-75.6267
 20
32.8786
 30
0.0
 10
-77.1919
 20
32.4368
 30
0.0
 10
-77.1919
 20
32.4368
 30
0.0
 10
-78.7745
 20
31.9899
 30
0.0
 10
-80.1423
 20
30.9893
 30
0.0
 10
-81.0465
 20
29.6158
 30
0.0
  0
SPLINE
  5
7F
330
1F
100
AcDbEntity
  8
layer 1
 62
     7
100
AcDbSpline
210
0.0
220
0.0
230
1.0
 70
    11
 71
     3
 72
    44
 73
    40
 74
     0
 42
0.0000000001
 43
0.0000000001
 12
1.0
 22
0.0
 32
0.0
 13
1.0
 23
0.0
 33
0.0
 40
0.0
 40
0.0
 40
0.0
 40
0.0
 40
0.0909090909090909
 40
0.0909090909090909
 40
0.0909090909090909
 40
0.0909090909090909
 40
0.1818181818181818
 40
0.1818181818181818
 40
0.1818181818181818
 40
0.1818181818181818
 40
0.2727272727272727
 40
0.2727272727272727
 40
0.2727272727272727
 40
0.2727272727272727
 40
0.3636363636363636
 40
0.3636363636363636
 40
0.3636363636363636
 40
0.3636363636363636
 40
0.4545454545454545
 40
0.4545454545454545
 40
0.4545454545454545
 40
0.4545454545454545
 40
0.5454545454545454
 40
0.5454545454545454
 40
0.5454545454545454
 40
0.5454545454545454
 40
0.6363636363636364
 40
0.6363636363636364
 40
0.6363636363636364
 40
0.6363636363636364
 40
0.7272727272727273
 40
0.7272727272727273
 40
0.7272727272727273
 40
0.7272727272727273
 40
0.8181818181818182
 40
0.8181818181818182
 40
0.8181818181818182
 40
0.8181818181818182
 40
1.0
 40
1.0
 40
1.0
 40
1.0
 10
-81.0465
 20
10.1843
 30
0.0
 10
-81.0465
 20
10.1843
 30
0.0
 10
-81.0465
 20
28.0113
 30
0.0
 10
-81.0465
 20
28.0113
 30
0.0
 10
-81.0465
 20
28.0113
 30
0.0
 10
-79.5787
 20
26.6364
 30
0.0
 10
-77.6705
 20
25.8297
 30
0.0
 10
-75.6615
 20
25.7356
 30
0.0
 10
-75.6615
 20
25.7356
 30
0.0
 10
-73.6761
 20
25.6431
 30
0.0
 10
-71.7058
 20
26.1086
 30
0.0
 10
-69.9721
 20
27.0808
 30
0.0
 10
-69.9721
 20
27.0808
 30
0.0
 10
-69.4603
 20
27.3681
 30
0.0
 10
-68.9833
 20
27.7128
 30
0.0
 10
-68.5501
 20
28.1085
 30
0.0
 10
-68.5501
 20
28.1085
 30
0.0
 10
-68.2551
 20
26.9401
 30
0.0
 10
-68.1804
 20
25.7262
 30
0.0
 10
-68.3294
 20
24.5301
 30
0.0
 10
-68.3294
 20
24.5301
 30
0.0
 10
-68.4779
 20
23.3439
 30
0.0
 10
-68.6813
 20
22.165
 30
0.0
 10
-68.9396
 20
20.9972
 30
0.0
 10
-68.9396
 20
20.9972
 30
0.0
 10
-70.3341
 20
20.245
 30
0.0
 10
-71.6706
 20
19.3904
 30
0.0
 10
-72.9389
 20
18.4403
 30
0.0
 10
-72.9389
 20
18.4403
 30
0.0
 10
-74.2049
 20
17.4917
 30
0.0
 10
-75.4622
 20
16.5311
 30
0.0
 10
-76.7102
 20
15.5581
 30
0.0
 10
-76.7102
 20
15.5581
 30
0.0
 10
-78.3071
 20
14.3131
 30
0.0
 10
-79.6552
 20
12.7792
 30
0.0
 10
-80.6847
 20
11.035
 30
0.0
 10
-80.6847
 20
11.035
 30
0.0
 10
-80.8419
 20
10.7689
 30
0.0
 10
-80.9638
 20
10.4825
 30
0.0
 10
-81.0465
 20
10.1843
 30
0.0
  0
SPLINE
  5
80
330
1F
100
AcDbEntity
  8
layer 1
 62
     7
100
AcDbSpline
210
0.0
220
0.0
230
1.0
 70
    11
 71
     3
 72
    92
 73
    88
 74
     0
 42
0.0000000001
 43
0.0000000001
 12
1.0
 22
0.0
 32
0.0
 13
1.0
 23
0.0
 33
0.0
 40
0.0
 40
0.0
 40
0.0
 40
0.0
 40
0.0434782608695652
 40
0.0434782608695652
 40
0.0434782608695652
 40
0.0434782608695652
 40
0.0869565217391304
 40
0.0869565217391304
 40
0.0869565217391304
 40
0.0869565217391304
 40
0.1304347826086956
 40
0.1304347826086956
 40
0.1304347826086956
 40
0.1304347826086956
 40
0.1739130434782609
 40
0.1739130434782609
 40
0.1739130434782609
 40
0.1739130434782609
 40
0.2173913043478261
 40
0.2173913043478261
 40
0.2173913043478261
 40
0.2173913043478261
 40
0.2608695652173913
 40
0.2608695652173913
 40
0.2608695652173913
 40
0.2608695652173913
 40
0.3043478260869565
 40
0.3043478260869565
 40
0.3043478260869565
 40
0.3043478260869565
 40
0.3478260869565217
 40
0.3478260869565217
 40
0.3478260869565217
 40
0.3478260869565217
 40
0.391304347826087
 40
0.391304347826087
 40
0.391304347826087
 40
0.391304347826087
 40
0.4347826086956522
 40
0.4347826086956522
 40
0.4347826086956522
 40
0.4347826086956522
 40
0.4782608695652174
 40
0.4782608695652174
 40
0.4782608695652174
 40
0.4782608695652174
 40
0.5217391304347826
 40
0.5217391304347826
 40
0.5217391304347826
 40
0.5217391304347826
 40
0.5652173913043478
 40
0.5652173913043478
 40
0.5652173913043478
 40
0.5652173913043478
 40
0.6086956521739131
 40
0.6086956521739131
 40
0.6086956521739131
 40
0.6086956521739131
 40
0.6521739130434783
 40
0.6521739130434783
 40
0.6521739130434783
 40
0.6521739130434783
 40
0.6956521739130435
 40
0.6956521739130435
 40
0.6956521739130435
 40
0.6956521739130435
 40
0.7391304347826086
 40
0.7391304347826086
 40
0.7391304347826086
 40
0.7391304347826086
 40
0.782608695652174
 40
0.782608695652174
 40
0.782608695652174
 40
0.782608695652174
 40
0.8260869565217391
 40
0.8260869565217391
 40
0.8260869565217391
 40
0.8260869565217391
 40
0.8695652173913043
 40
0.8695652173913043
 40
0.8695652173913043
 40
0.8695652173913043
 40
0.9130434782608695
 40
0.9130434782608695
 40
0.9130434782608695
 40
0.9130434782608695
 40
1.0
 40
1.0
 40
1.0
 40
1.0
 10
-81.0465
 20
-14.9191
 30
0.0
 10
-81.0465
 20
-14.9191
 30
0.0
 10
-81.0465
 20
-11.7246
 30
0.0
 10
-81.0465
 20
-11.7246
 30
0.0
 10
-81.0465
 20
-11.7246
 30
0.0
 10
-80.1732
 20
-9.981
 30
0.0
 10
-78.9591
 20
-8.4295
 30
0.0
 10
-77.4769
 20
-7.1626
 30
0.0
 10
-77.4769
 20
-7.1626
 30
0.0
 10
-75.996
 20
-5.8974
 30
0.0
 10
-74.2888
 20
-4.9229
 30
0.0
 10
-72.4459
 20
-4.2917
 30
0.0
 10
-72.4459
 20
-4.2917
 30
0.0
 10
-71.0016
 20
-3.7966
 30
0.0
 10
-69.4012
 20
-4.1204
 30
0.0
 10
-68.2612
 20
-5.137
 30
0.0
 10
-68.2612
 20
-5.137
 30
0.0
 10
-66.5493
 20
-6.6647
 30
0.0
 10
-64.8643
 20
-8.2224
 30
0.0
 10
-63.2068
 20
-9.8091
 30
0.0
 10
-63.2068
 20
-9.8091
 30
0.0
 10
-61.7356
 20
-11.2178
 30
0.0
 10
-60.6199
 20
-12.9573
 30
0.0
 10
-59.9528
 20
-14.8817
 30
0.0
 10
-59.9528
 20
-14.8817
 30
0.0
 10
-59.7594
 20
-15.4405
 30
0.0
 10
-59.6541
 20
-16.0256
 30
0.0
 10
-59.641
 20
-16.6165
 30
0.0
 10
-59.641
 20
-16.6165
 30
0.0
 10
-59.998
 20
-16.7408
 30
0.0
 10
-60.3412
 20
-16.9008
 30
0.0
 10
-60.6659
 20
-17.0946
 30
0.0
 10
-60.6659
 20
-17.0946
 30
0.0
 10
-60.9913
 20
-17.2887
 30
0.0
 10
-61.2854
 20
-17.5314
 30
0.0
 10
-61.5377
 20
-17.8144
 30
0.0
 10
-61.5377
 20
-17.8144
 30
0.0
 10
-61.915
 20
-18.246
 30
0.0
 10
-62.188
 20
-18.7584
 30
0.0
 10
-62.3365
 20
-19.3119
 30
0.0
 10
-62.3365
 20
-19.3119
 30
0.0
 10
-63.1788
 20
-18.8935
 30
0.0
 10
-64.0456
 20
-18.5268
 30
0.0
 10
-64.9325
 20
-18.2137
 30
0.0
 10
-64.9325
 20
-18.2137
 30
0.0
 10
-65.3909
 20
-18.0571
 30
0.0
 10
-65.8576
 20
-17.9235
 30
0.0
 10
-66.3299
 20
-17.8144
 30
0.0
 10
-66.3299
 20
-17.8144
 30
0.0
 10
-65.9407
 20
-17.078
 30
0.0
 10
-65.6892
 20
-16.2769
 30
0.0
 10
-65.5883
 20
-15.4503
 30
0.0
 10
-65.5883
 20
-15.4503
 30
0.0
 10
-65.4883
 20
-14.6284
 30
0.0
 10
-65.4658
 20
-13.7992
 30
0.0
 10
-65.5216
 20
-12.9731
 30
0.0
 10
-65.5216
 20
-12.9731
 30
0.0
 10
-65.6029
 20
-11.7691
 30
0.0
 10
-66.06
 20
-10.6213
 30
0.0
 10
-66.829
 20
-9.6912
 30
0.0
 10
-66.829
 20
-9.6912
 30
0.0
 10
-67.5886
 20
-8.7724
 30
0.0
 10
-68.5436
 20
-8.0348
 30
0.0
 10
-69.6245
 20
-7.5312
 30
0.0
 10
-69.6245
 20
-7.5312
 30
0.0
 10
-69.8056
 20
-7.7696
 30
0.0
 10
-69.9615
 20
-8.0264
 30
0.0
 10
-70.0896
 20
-8.2971
 30
0.0
 10
-70.0896
 20
-8.2971
 30
0.0
 10
-70.2169
 20
-8.5674
 30
0.0
 10
-70.3286
 20
-8.8451
 30
0.0
 10
-70.4231
 20
-9.1289
 30
0.0
 10
-70.4231
 20
-9.1289
 30
0.0
 10
-70.9323
 20
-10.7087
 30
0.0
 10
-71.0354
 20
-12.3905
 30
0.0
 10
-70.7227
 20
-14.0206
 30
0.0
 10
-70.7227
 20
-14.0206
 30
0.0
 10
-70.5126
 20
-15.116
 30
0.0
 10
-70.1066
 20
-16.1641
 30
0.0
 10
-69.5244
 20
-17.1158
 30
0.0
 10
-69.5244
 20
-17.1158
 30
0.0
 10
-70.5385
 20
-16.1318
 30
0.0
 10
-71.8336
 20
-15.4894
 30
0.0
 10
-73.2302
 20
-15.2776
 30
0.0
 10
-73.2302
 20
-15.2776
 30
0.0
 10
-75.816
 20
-14.8854
 30
0.0
 10
-78.4356
 20
-14.7654
 30
0.0
 10
-81.0465
 20
-14.9191
 30
0.0
  0
SPLINE
  5
81
330
1F
100
AcDbEntity
  8
layer 1
 62
     7
100
AcDbSpline
210
0.0
220
0.0
230
1.0
 70
    11
 71
     3
 72
   108
 73
   104
 74
     0
 42
0.0000000001
 43
0.0000000001
 12
1.0
 22
0.0
 32
0.0
 13
1.0
 23
0.0
 33
0.0
 40
0.0
 40
0.0
 40
0.0
 40
0.0
 40
0.037037037037037
 40
0.037037037037037
 40
0.037037037037037
 40
0.037037037037037
 40
0.0740740740740741
 40
0.0740740740740741
 40
0.0740740740740741
 40
0.0740740740740741
 40
0.1111111111111111
 40
0.1111111111111111
 40
0.1111111111111111
 40
0.1111111111111111
 40
0.1481481481481481
 40
0.1481481481481481
 40
0.1481481481481481
 40
0.1481481481481481
 40
0.1851851851851852
 40
0.1851851851851852
 40
0.1851851851851852
 40
0.1851851851851852
 40
0.2222222222222222
 40
0.2222222222222222
 40
0.2222222222222222
 40
0.2222222222222222
 40
0.2592592592592592
 40
0.2592592592592592
 40
0.2592592592592592
 40
0.2592592592592592
 40
0.2962962962962963
 40
0.2962962962962963
 40
0.2962962962962963
 40
0.2962962962962963
 40
0.3333333333333333
 40
0.3333333333333333
 40
0.3333333333333333
 40
0.3333333333333333
 40
0.3703703703703703
 40
0.3703703703703703
 40
0.3703703703703703
 40
0.3703703703703703
 40
0.4074074074074074
 40
0.4074074074074074
 40
0.4074074074074074
 40
0.4074074074074074
 40
0.4444444444444444
 40
0.4444444444444444
 40
0.4444444444444444
 40
0.4444444444444444
 40
0.4814814814814815
 40
0.4814814814814815
 40
0.4814814814814815
 40
0.4814814814814815
 40
0.5185185185185185
 40
0.5185185185185185
 40
0.5185185185185185
 40
0.5185185185185185
 40
0.5555555555555556
 40
0.5555555555555556
 40
0.5555555555555556
 40
0.5555555555555556
 40
0.5925925925925926
 40
0.5925925925925926
 40
0.5925925925925926
 40
0.5925925925925926
 40
0.6296296296296297
 40
0.6296296296296297
 40
0.6296296296296297
 40
0.6296296296296297
 40
0.6666666666666666
 40
0.6666666666666666
 40
0.6666666666666666
 40
0.6666666666666666
 40
0.7037037037037037
 40
0.7037037037037037
 40
0.7037037037037037
 40
0.7037037037037037
 40
0.7407407407407407
 40
0.7407407407407407
 40
0.7407407407407407
 40
0.7407407407407407
 40
0.7777777777777778
 40
0.7777777777777778
 40
0.7777777777777778
 40
0.7777777777777778
 40
0.8148148148148148
 40
0.8148148148148148
 40
0.8148148148148148
 40
0.8148148148148148
 40
0.8518518518518519
 40
0.8518518518518519
 40
0.8518518518518519
 40
0.8518518518518519
 40
0.8888888888888888
 40
0.8888888888888888
 40
0.8888888888888888
 40
0.8888888888888888
 40
0.9259259259259259
 40
0.9259259259259259
 40
0.9259259259259259
 40
0.9259259259259259
 40
1.0
 40
1.0
 40
1.0
 40
1.0
 10
-22.0049
 20
75.9042
 30
0.0
 10
-19.8369
 20
74.2905
 30
0.0
 10
-17.9158
 20
72.369
 30
0.0
 10
-16.3021
 20
70.201
 30
0.0
 10
-16.3021
 20
70.201
 30
0.0
 10
-14.6415
 20
67.9062
 30
0.0
 10
-13.3239
 20
65.3809
 30
0.0
 10
-12.3914
 20
62.706
 30
0.0
 10
-12.3914
 20
62.706
 30
0.0
 10
-12.9633
 20
62.1921
 30
0.0
 10
-13.507
 20
61.6482
 30
0.0
 10
-14.0207
 20
61.0765
 30
0.0
 10
-14.0207
 20
61.0765
 30
0.0
 10
-15.0188
 20
59.941
 30
0.0
 10
-15.9442
 20
58.7439
 30
0.0
 10
-16.7909
 20
57.4916
 30
0.0
 10
-16.7909
 20
57.4916
 30
0.0
 10
-18.6776
 20
59.0349
 30
0.0
 10
-21.1655
 20
59.6277
 30
0.0
 10
-23.5452
 20
59.0994
 30
0.0
 10
-23.5452
 20
59.0994
 30
0.0
 10
-25.82
 20
58.5948
 30
0.0
 10
-27.9961
 20
57.7216
 30
0.0
 10
-29.9892
 20
56.5143
 30
0.0
 10
-29.9892
 20
56.5143
 30
0.0
 10
-28.4854
 20
56.4381
 30
0.0
 10
-27.0261
 20
55.9771
 30
0.0
 10
-25.7517
 20
55.1752
 30
0.0
 10
-25.7517
 20
55.1752
 30
0.0
 10
-24.4893
 20
54.3816
 30
0.0
 10
-23.3669
 20
53.384
 30
0.0
 10
-22.4295
 20
52.2242
 30
0.0
 10
-22.4295
 20
52.2242
 30
0.0
 10
-21.3522
 20
50.8914
 30
0.0
 10
-20.6746
 20
49.2792
 30
0.0
 10
-20.4755
 20
47.5772
 30
0.0
 10
-20.4755
 20
47.5772
 30
0.0
 10
-20.4424
 20
47.2959
 30
0.0
 10
-20.4639
 20
47.0108
 30
0.0
 10
-20.5383
 20
46.7376
 30
0.0
 10
-20.5383
 20
46.7376
 30
0.0
 10
-22.8093
 20
46.6165
 30
0.0
 10
-25.0377
 20
46.0802
 30
0.0
 10
-27.1147
 20
45.1548
 30
0.0
 10
-27.1147
 20
45.1548
 30
0.0
 10
-29.1817
 20
44.2338
 30
0.0
 10
-31.1308
 20
43.0696
 30
0.0
 10
-32.9219
 20
41.6865
 30
0.0
 10
-32.9219
 20
41.6865
 30
0.0
 10
-34.443
 20
41.7107
 30
0.0
 10
-35.9282
 20
42.1558
 30
0.0
 10
-37.2124
 20
42.9714
 30
0.0
 10
-37.2124
 20
42.9714
 30
0.0
 10
-38.4799
 20
43.7764
 30
0.0
 10
-39.6162
 20
44.772
 30
0.0
 10
-40.5804
 20
45.9232
 30
0.0
 10
-40.5804
 20
45.9232
 30
0.0
 10
-40.5536
 20
46.5529
 30
0.0
 10
-40.4765
 20
47.1801
 30
0.0
 10
-40.3504
 20
47.798
 30
0.0
 10
-40.3504
 20
47.798
 30
0.0
 10
-39.7212
 20
50.8706
 30
0.0
 10
-38.855
 20
53.8907
 30
0.0
 10
-37.7598
 20
56.83
 30
0.0
 10
-37.7598
 20
56.83
 30
0.0
 10
-36.6133
 20
59.9062
 30
0.0
 10
-34.965
 20
62.7725
 30
0.0
 10
-32.8831
 20
65.3105
 30
0.0
 10
-32.8831
 20
65.3105
 30
0.0
 10
-32.1793
 20
66.1685
 30
0.0
 10
-31.3709
 20
66.9357
 30
0.0
 10
-30.478
 20
67.594
 30
0.0
 10
-30.478
 20
67.594
 30
0.0
 10
-28.8156
 20
65.7552
 30
0.0
 10
-26.6288
 20
64.4734
 30
0.0
 10
-24.2121
 20
63.9225
 30
0.0
 10
-24.2121
 20
63.9225
 30
0.0
 10
-21.8296
 20
63.3798
 30
0.0
 10
-19.3666
 20
63.2984
 30
0.0
 10
-16.9538
 20
63.6835
 30
0.0
 10
-16.9538
 20
63.6835
 30
0.0
 10
-16.6712
 20
64.5736
 30
0.0
 10
-16.7791
 20
65.5409
 30
0.0
 10
-17.2516
 20
66.3461
 30
0.0
 10
-17.2516
 20
66.3461
 30
0.0
 10
-18.4085
 20
68.3186
 30
0.0
 10
-20.2883
 20
69.7602
 30
0.0
 10
-22.4936
 20
70.3641
 30
0.0
 10
-22.4936
 20
70.3641
 30
0.0
 10
-23.5671
 20
70.6581
 30
0.0
 10
-24.6844
 20
70.7557
 30
0.0
 10
-25.7924
 20
70.6512
 30
0.0
 10
-25.7924
 20
70.6512
 30
0.0
 10
-26.897
 20
70.5474
 30
0.0
 10
-27.9809
 20
70.2863
 30
0.0
 10
-29.0111
 20
69.8752
 30
0.0
 10
-29.0111
 20
69.8752
 30
0.0
 10
-28.3683
 20
71.3365
 30
0.0
 10
-27.382
 20
72.6215
 30
0.0
 10
-26.137
 20
73.6204
 30
0.0
 10
-26.137
 20
73.6204
 30
0.0
 10
-24.9006
 20
74.6126
 30
0.0
 10
-23.5028
 20
75.3853
 30
0.0
 10
-22.0049
 20
75.9042
 30
0.0
  0
SPLINE
  5
82
330
1F
100
AcDbEntity
  8
layer 1
 62
     7
100
AcDbSpline
210
0.0
220
0.0
230
1.0
 70
    11
 71
     3
 72
    32
 73
    28
 74
     0
 42
0.0000000001
 43
0.0000000001
 12
1.0
 22
0.0
 32
0.0
 13
1.0
 23
0.0
 33
0.0
 40
0.0
 40
0.0
 40
0.0
 40
0.0
 40
0.125
 40
0.125
 40
0.125
 40
0.125
 40
0.25
 40
0.25
 40
0.25
 40
0.25
 40
0.375
 40
0.375
 40
0.375
 40
0.375
 40
0.5
 40
0.5
 40
0.5
 40
0.5
 40
0.625
 40
0.625
 40
0.625
 40
0.625
 40
0.75
 40
0.75
 40
0.75
 40
0.75
 40
1.0
 40
1.0
 40
1.0
 40
1.0
 10
-20.7219
 20
56.3989
 30
0.0
 10
-19.2029
 20
55.6898
 30
0.0
 10
-17.8998
 20
54.5883
 30
0.0
 10
-16.9475
 20
53.2087
 30
0.0
 10
-16.9475
 20
53.2087
 30
0.0
 10
-16.0076
 20
51.8473
 30
0.0
 10
-15.2527
 20
50.3668
 30
0.0
 10
-14.7023
 20
48.8065
 30
0.0
 10
-14.7023
 20
48.8065
 30
0.0
 10
-15.2799
 20
48.7573
 30
0.0
 10
-15.8494
 20
48.6393
 30
0.0
 10
-16.3993
 20
48.4557
 30
0.0
 10
-16.3993
 20
48.4557
 30
0.0
 10
-16.9563
 20
48.2697
 30
0.0
 10
-17.4554
 20
47.9431
 30
0.0
 10
-17.8491
 20
47.5071
 30
0.0
 10
-17.8491
 20
47.5071
 30
0.0
 10
-18.1251
 20
48.2969
 30
0.0
 10
-18.3762
 20
49.0952
 30
0.0
 10
-18.6015
 20
49.901
 30
0.0
 10
-18.6015
 20
49.901
 30
0.0
 10
-18.739
 20
50.4251
 30
0.0
 10
-18.8612
 20
50.9534
 30
0.0
 10
-18.9686
 20
51.4845
 30
0.0
 10
-18.9686
 20
51.4845
 30
0.0
 10
-19.3146
 20
53.1982
 30
0.0
 10
-19.9048
 20
54.8527
 30
0.0
 10
-20.7219
 20
56.3989
 30
0.0
  0
SPLINE
  5
83
330
1F
100
AcDbEntity
  8
layer 1
 62
     7
100
AcDbSpline
210
0.0
220
0.0
230
1.0
 70
    11
 71
     3
 72
    44
 73
    40
 74
     0
 42
0.0000000001
 43
0.0000000001
 12
1.0
 22
0.0
 32
0.0
 13
1.0
 23
0.0
 33
0.0
 40
0.0
 40
0.0
 40
0.0
 40
0.0
 40
0.0909090909090909
 40
0.0909090909090909
 40
0.0909090909090909
 40
0.0909090909090909
 40
0.1818181818181818
 40
0.1818181818181818
 40
0.1818181818181818
 40
0.1818181818181818
 40
0.2727272727272727
 40
0.2727272727272727
 40
0.2727272727272727
 40
0.2727272727272727
 40
0.3636363636363636
 40
0.3636363636363636
 40
0.3636363636363636
 40
0.3636363636363636
 40
0.4545454545454545
 40
0.4545454545454545
 40
0.4545454545454545
 40
0.4545454545454545
 40
0.5454545454545454
 40
0.5454545454545454
 40
0.5454545454545454
 40
0.5454545454545454
 40
0.6363636363636364
 40
0.6363636363636364
 40
0.6363636363636364
 40
0.6363636363636364
 40
0.7272727272727273
 40
0.7272727272727273
 40
0.7272727272727273
 40
0.7272727272727273
 40
0.8181818181818182
 40
0.8181818181818182
 40
0.8181818181818182
 40
0.8181818181818182
 40
1.0
 40
1.0
 40
1.0
 40
1.0
 10
1.7312
 20
0.0383
 30
0.0
 10
-1.0495
 20
0.3602
 30
0.0
 10
-3.8642
 20
0.174
 30
0.0
 10
-6.5778
 20
-0.5117
 30
0.0
 10
-6.5778
 20
-0.5117
 30
0.0
 10
-9.283
 20
-1.1946
 30
0.0
 10
-11.8757
 20
-2.2627
 30
0.0
 10
-14.2771
 20
-3.6829
 30
0.0
 10
-14.2771
 20
-3.6829
 30
0.0
 10
-14.5079
 20
-2.7158
 30
0.0
 10
-14.8512
 20
-1.7792
 30
0.0
 10
-15.3006
 20
-0.8921
 30
0.0
 10
-15.3006
 20
-0.8921
 30
0.0
 10
-15.9342
 20
0.3162
 30
0.0
 10
-16.7154
 20
1.4407
 30
0.0
 10
-17.6264
 20
2.4569
 30
0.0
 10
-17.6264
 20
2.4569
 30
0.0
 10
-17.167
 20
4.1217
 30
0.0
 10
-16.0508
 20
5.53
 30
0.0
 10
-14.5347
 20
6.3575
 30
0.0
 10
-14.5347
 20
6.3575
 30
0.0
 10
-11.5626
 20
7.9802
 30
0.0
 10
-8.2908
 20
8.9833
 30
0.0
 10
-4.9199
 20
9.3058
 30
0.0
 10
-4.9199
 20
9.3058
 30
0.0
 10
-3.0617
 20
9.4839
 30
0.0
 10
-1.1866
 20
9.3496
 30
0.0
 10
0.627
 20
8.9091
 30
0.0
 10
0.627
 20
8.9091
 30
0.0
 10
1.0111
 20
8.816
 30
0.0
 10
1.3823
 20
8.6748
 30
0.0
 10
1.7312
 20
8.4889
 30
0.0
 10
1.7312
 20
8.4889
 30
0.0
 10
1.7312
 20
8.4889
 30
0.0
 10
1.7312
 20
0.0383
 30
0.0
 10
1.7312
 20
0.0383
 30
0.0
 10
1.7312
 20
0.0383
 30
0.0
 10
1.7312
 20
0.0383
 30
0.0
 10
1.7312
 20
0.0383
 30
0.0
 10
1.7312
 20
0.0383
 30
0.0
  0
SPLINE
  5
84
330
1F
100
AcDbEntity
  8
layer 1
 62
     7
100
AcDbSpline
210
0.0
220
0.0
230
1.0
 70
    11
 71
     3
 72
   224
 73
   220
 74
     0
 42
0.0000000001
 43
0.0000000001
 12
1.0
 22
0.0
 32
0.0
 13
1.0
 23
0.0
 33
0.0
 40
0.0
 40
0.0
 40
0.0
 40
0.0
 40
0.0178571428571429
 40
0.0178571428571429
 40
0.0178571428571429
 40
0.0178571428571429
 40
0.0357142857142857
 40
0.0357142857142857
 40
0.0357142857142857
 40
0.0357142857142857
 40
0.0535714285714286
 40
0.0535714285714286
 40
0.0535714285714286
 40
0.0535714285714286
 40
0.0714285714285714
 40
0.0714285714285714
 40
0.0714285714285714
 40
0.0714285714285714
 40
0.0892857142857143
 40
0.0892857142857143
 40
0.0892857142857143
 40
0.0892857142857143
 40
0.1071428571428571
 40
0.1071428571428571
 40
0.1071428571428571
 40
0.1071428571428571
 40
0.125
 40
0.125
 40
0.125
 40
0.125
 40
0.1428571428571428
 40
0.1428571428571428
 40
0.1428571428571428
 40
0.1428571428571428
 40
0.1607142857142857
 40
0.1607142857142857
 40
0.1607142857142857
 40
0.1607142857142857
 40
0.1785714285714286
 40
0.1785714285714286
 40
0.1785714285714286
 40
0.1785714285714286
 40
0.1964285714285714
 40
0.1964285714285714
 40
0.1964285714285714
 40
0.1964285714285714
 40
0.2142857142857143
 40
0.2142857142857143
 40
0.2142857142857143
 40
0.2142857142857143
 40
0.2321428571428572
 40
0.2321428571428572
 40
0.2321428571428572
 40
0.2321428571428572
 40
0.25
 40
0.25
 40
0.25
 40
0.25
 40
0.2678571428571428
 40
0.2678571428571428
 40
0.2678571428571428
 40
0.2678571428571428
 40
0.2857142857142857
 40
0.2857142857142857
 40
0.2857142857142857
 40
0.2857142857142857
 40
0.3035714285714285
 40
0.3035714285714285
 40
0.3035714285714285
 40
0.3035714285714285
 40
0.3214285714285715
 40
0.3214285714285715
 40
0.3214285714285715
 40
0.3214285714285715
 40
0.3392857142857143
 40
0.3392857142857143
 40
0.3392857142857143
 40
0.3392857142857143
 40
0.3571428571428572
 40
0.3571428571428572
 40
0.3571428571428572
 40
0.3571428571428572
 40
0.375
 40
0.375
 40
0.375
 40
0.375
 40
0.3928571428571428
 40
0.3928571428571428
 40
0.3928571428571428
 40
0.3928571428571428
 40
0.4107142857142857
 40
0.4107142857142857
 40
0.4107142857142857
 40
0.4107142857142857
 40
0.4285714285714285
 40
0.4285714285714285
 40
0.4285714285714285
 40
0.4285714285714285
 40
0.4464285714285715
 40
0.4464285714285715
 40
0.4464285714285715
 40
0.4464285714285715
 40
0.4642857142857143
 40
0.4642857142857143
 40
0.4642857142857143
 40
0.4642857142857143
 40
0.4821428571428572
 40
0.4821428571428572
 40
0.4821428571428572
 40
0.4821428571428572
 40
0.5
 40
0.5
 40
0.5
 40
0.5
 40
0.5178571428571429
 40
0.5178571428571429
 40
0.5178571428571429
 40
0.5178571428571429
 40
0.5357142857142857
 40
0.5357142857142857
 40
0.5357142857142857
 40
0.5357142857142857
 40
0.5535714285714286
 40
0.5535714285714286
 40
0.5535714285714286
 40
0.5535714285714286
 40
0.5714285714285714
 40
0.5714285714285714
 40
0.5714285714285714
 40
0.5714285714285714
 40
0.5892857142857143
 40
0.5892857142857143
 40
0.5892857142857143
 40
0.5892857142857143
 40
0.6071428571428571
 40
0.6071428571428571
 40
0.6071428571428571
 40
0.6071428571428571
 40
0.625
 40
0.625
 40
0.625
 40
0.625
 40
0.6428571428571429
 40
0.6428571428571429
 40
0.6428571428571429
 40
0.6428571428571429
 40
0.6607142857142857
 40
0.6607142857142857
 40
0.6607142857142857
 40
0.6607142857142857
 40
0.6785714285714286
 40
0.6785714285714286
 40
0.6785714285714286
 40
0.6785714285714286
 40
0.6964285714285714
 40
0.6964285714285714
 40
0.6964285714285714
 40
0.6964285714285714
 40
0.7142857142857143
 40
0.7142857142857143
 40
0.7142857142857143
 40
0.7142857142857143
 40
0.7321428571428571
 40
0.7321428571428571
 40
0.7321428571428571
 40
0.7321428571428571
 40
0.75
 40
0.75
 40
0.75
 40
0.75
 40
0.7678571428571429
 40
0.7678571428571429
 40
0.7678571428571429
 40
0.7678571428571429
 40
0.7857142857142857
 40
0.7857142857142857
 40
0.7857142857142857
 40
0.7857142857142857
 40
0.8035714285714286
 40
0.8035714285714286
 40
0.8035714285714286
 40
0.8035714285714286
 40
0.8214285714285714
 40
0.8214285714285714
 40
0.8214285714285714
 40
0.8214285714285714
 40
0.8392857142857143
 40
0.8392857142857143
 40
0.8392857142857143
 40
0.8392857142857143
 40
0.8571428571428571
 40
0.8571428571428571
 40
0.8571428571428571
 40
0.8571428571428571
 40
0.875
 40
0.875
 40
0.875
 40
0.875
 40
0.8928571428571429
 40
0.8928571428571429
 40
0.8928571428571429
 40
0.8928571428571429
 40
0.9107142857142857
 40
0.9107142857142857
 40
0.9107142857142857
 40
0.9107142857142857
 40
0.9285714285714286
 40
0.9285714285714286
 40
0.9285714285714286
 40
0.9285714285714286
 40
0.9464285714285714
 40
0.9464285714285714
 40
0.9464285714285714
 40
0.9464285714285714
 40
0.9642857142857143
 40
0.9642857142857143
 40
0.9642857142857143
 40
0.9642857142857143
 40
1.0
 40
1.0
 40
1.0
 40
1.0
 10
-67.9909
 20
-2.9368
 30
0.0
 10
-68.1753
 20
0.3674
 30
0.0
 10
-67.7149
 20
3.6769
 30
0.0
 10
-66.6367
 20
6.8059
 30
0.0
 10
-66.6367
 20
6.8059
 30
0.0
 10
-65.5499
 20
9.9598
 30
0.0
 10
-63.6429
 20
12.7694
 30
0.0
 10
-61.1135
 20
14.945
 30
0.0
 10
-61.1135
 20
14.945
 30
0.0
 10
-60.9402
 20
15.0918
 30
0.0
 10
-60.7621
 20
15.2327
 30
0.0
 10
-60.5792
 20
15.3676
 30
0.0
 10
-60.5792
 20
15.3676
 30
0.0
 10
-60.3964
 20
15.5029
 30
0.0
 10
-60.2008
 20
15.6205
 30
0.0
 10
-59.9958
 20
15.7189
 30
0.0
 10
-59.9958
 20
15.7189
 30
0.0
 10
-57.6882
 20
15.1141
 30
0.0
 10
-55.42
 20
14.3674
 30
0.0
 10
-53.2041
 20
13.4834
 30
0.0
 10
-53.2041
 20
13.4834
 30
0.0
 10
-50.1608
 20
12.2486
 30
0.0
 10
-47.2023
 20
10.8123
 30
0.0
 10
-44.3491
 20
9.1853
 30
0.0
 10
-44.3491
 20
9.1853
 30
0.0
 10
-47.9627
 20
10.5614
 30
0.0
 10
-51.9395
 20
10.6404
 30
0.0
 10
-55.6046
 20
9.4077
 30
0.0
 10
-55.6046
 20
9.4077
 30
0.0
 10
-55.7235
 20
9.3678
 30
0.0
 10
-55.8403
 20
9.322
 30
0.0
 10
-55.9552
 20
9.2713
 30
0.0
 10
-55.9552
 20
9.2713
 30
0.0
 10
-54.7665
 20
9.3152
 30
0.0
 10
-53.5771
 20
9.2074
 30
0.0
 10
-52.4157
 20
8.9498
 30
0.0
 10
-52.4157
 20
8.9498
 30
0.0
 10
-51.2229
 20
8.6858
 30
0.0
 10
-50.1619
 20
8.007
 30
0.0
 10
-49.4215
 20
7.0359
 30
0.0
 10
-49.4215
 20
7.0359
 30
0.0
 10
-50.1281
 20
6.7703
 30
0.0
 10
-50.6139
 20
6.1169
 30
0.0
 10
-50.6636
 20
5.3638
 30
0.0
 10
-50.6636
 20
5.3638
 30
0.0
 10
-50.7622
 20
3.8729
 30
0.0
 10
-50.4391
 20
2.3848
 30
0.0
 10
-49.7301
 20
1.0693
 30
0.0
 10
-49.7301
 20
1.0693
 30
0.0
 10
-49.3493
 20
0.3619
 30
0.0
 10
-48.718
 20
-0.1774
 30
0.0
 10
-47.9598
 20
-0.4438
 30
0.0
 10
-47.9598
 20
-0.4438
 30
0.0
 10
-47.161
 20
-0.7239
 30
0.0
 10
-46.2946
 20
-0.7477
 30
0.0
 10
-45.4816
 20
-0.5113
 30
0.0
 10
-45.4816
 20
-0.5113
 30
0.0
 10
-44.609
 20
-0.2572
 30
0.0
 10
-43.9882
 20
0.5135
 30
0.0
 10
-43.9276
 20
1.4206
 30
0.0
 10
-43.9276
 20
1.4206
 30
0.0
 10
-43.9039
 20
1.7728
 30
0.0
 10
-43.9012
 20
2.1264
 30
0.0
 10
-43.9192
 20
2.479
 30
0.0
 10
-43.9192
 20
2.479
 30
0.0
 10
-43.9824
 20
3.7164
 30
0.0
 10
-44.2437
 20
4.9355
 30
0.0
 10
-44.6931
 20
6.0901
 30
0.0
 10
-44.6931
 20
6.0901
 30
0.0
 10
-43.9581
 20
6.2233
 30
0.0
 10
-43.204
 20
6.2059
 30
0.0
 10
-42.4759
 20
6.0387
 30
0.0
 10
-42.4759
 20
6.0387
 30
0.0
 10
-40.1769
 20
5.5108
 30
0.0
 10
-38.121
 20
4.224
 30
0.0
 10
-36.6409
 20
2.3873
 30
0.0
 10
-36.6409
 20
2.3873
 30
0.0
 10
-35.0698
 20
0.4378
 30
0.0
 10
-33.8538
 20
-1.7745
 30
0.0
 10
-33.05
 20
-4.1458
 30
0.0
 10
-33.05
 20
-4.1458
 30
0.0
 10
-32.7851
 20
-4.9276
 30
0.0
 10
-32.6379
 20
-5.7443
 30
0.0
 10
-32.6138
 20
-6.5692
 30
0.0
 10
-32.6138
 20
-6.5692
 30
0.0
 10
-33.2854
 20
-6.657
 30
0.0
 10
-33.9369
 20
-6.8561
 30
0.0
 10
-34.5432
 20
-7.1583
 30
0.0
 10
-34.5432
 20
-7.1583
 30
0.0
 10
-35.1551
 20
-7.4634
 30
0.0
 10
-35.6763
 20
-7.923
 30
0.0
 10
-36.0555
 20
-8.4923
 30
0.0
 10
-36.0555
 20
-8.4923
 30
0.0
 10
-36.1465
 20
-7.2897
 30
0.0
 10
-36.4809
 20
-6.1186
 30
0.0
 10
-37.0393
 20
-5.0496
 30
0.0
 10
-37.0393
 20
-5.0496
 30
0.0
 10
-37.5943
 20
-3.987
 30
0.0
 10
-38.2839
 20
-3.001
 30
0.0
 10
-39.0922
 20
-2.1154
 30
0.0
 10
-39.0922
 20
-2.1154
 30
0.0
 10
-38.827
 20
-4.3403
 30
0.0
 10
-38.6064
 20
-6.5702
 30
0.0
 10
-38.431
 20
-8.8038
 30
0.0
 10
-38.431
 20
-8.8038
 30
0.0
 10
-38.252
 20
-11.0803
 30
0.0
 10
-38.7111
 20
-13.3625
 30
0.0
 10
-39.755
 20
-15.3931
 30
0.0
 10
-39.755
 20
-15.3931
 30
0.0
 10
-40.7247
 20
-17.2785
 30
0.0
 10
-41.9705
 20
-19.0097
 30
0.0
 10
-43.4502
 20
-20.5283
 30
0.0
 10
-43.4502
 20
-20.5283
 30
0.0
 10
-44.9256
 20
-22.0421
 30
0.0
 10
-46.5518
 20
-23.4021
 30
0.0
 10
-48.303
 20
-24.5863
 30
0.0
 10
-48.303
 20
-24.5863
 30
0.0
 10
-49.0045
 20
-24.2016
 30
0.0
 10
-49.7131
 20
-23.8306
 30
0.0
 10
-50.4289
 20
-23.4729
 30
0.0
 10
-50.4289
 20
-23.4729
 30
0.0
 10
-51.9307
 20
-22.7295
 30
0.0
 10
-53.4494
 20
-22.0208
 30
0.0
 10
-54.9834
 20
-21.3474
 30
0.0
 10
-54.9834
 20
-21.3474
 30
0.0
 10
-52.829
 20
-19.6635
 30
0.0
 10
-50.4223
 20
-18.3285
 30
0.0
 10
-47.8528
 20
-17.3925
 30
0.0
 10
-47.8528
 20
-17.3925
 30
0.0
 10
-47.0253
 20
-17.0907
 30
0.0
 10
-46.13
 20
-17.0233
 30
0.0
 10
-45.2665
 20
-17.1973
 30
0.0
 10
-45.2665
 20
-17.1973
 30
0.0
 10
-45.7161
 20
-16.4191
 30
0.0
 10
-46.3539
 20
-15.7673
 30
0.0
 10
-47.1217
 20
-15.3004
 30
0.0
 10
-47.1217
 20
-15.3004
 30
0.0
 10
-47.8796
 20
-14.8397
 30
0.0
 10
-48.6824
 20
-14.4581
 30
0.0
 10
-49.5179
 20
-14.1606
 30
0.0
 10
-49.5179
 20
-14.1606
 30
0.0
 10
-48.8334
 20
-13.8235
 30
0.0
 10
-48.2817
 20
-13.268
 30
0.0
 10
-47.949
 20
-12.5818
 30
0.0
 10
-47.949
 20
-12.5818
 30
0.0
 10
-47.6232
 20
-11.9084
 30
0.0
 10
-47.4192
 20
-11.1828
 30
0.0
 10
-47.3474
 20
-10.4385
 30
0.0
 10
-47.3474
 20
-10.4385
 30
0.0
 10
-47.2311
 20
-9.2367
 30
0.0
 10
-47.4722
 20
-8.0276
 30
0.0
 10
-48.0415
 20
-6.9625
 30
0.0
 10
-48.0415
 20
-6.9625
 30
0.0
 10
-48.6067
 20
-5.9039
 30
0.0
 10
-49.4272
 20
-5.0034
 30
0.0
 10
-50.4289
 20
-4.3422
 30
0.0
 10
-50.4289
 20
-4.3422
 30
0.0
 10
-50.8482
 20
-4.6011
 30
0.0
 10
-51.2233
 20
-4.9258
 30
0.0
 10
-51.5396
 20
-5.3038
 30
0.0
 10
-51.5396
 20
-5.3038
 30
0.0
 10
-51.8542
 20
-5.6793
 30
0.0
 10
-52.1619
 20
-6.0605
 30
0.0
 10
-52.4619
 20
-6.4476
 30
0.0
 10
-52.4619
 20
-6.4476
 30
0.0
 10
-53.3013
 20
-7.5312
 30
0.0
 10
-53.6132
 20
-8.9319
 30
0.0
 10
-53.3115
 20
-10.2695
 30
0.0
 10
-53.3115
 20
-10.2695
 30
0.0
 10
-53.022
 20
-11.554
 30
0.0
 10
-52.4901
 20
-12.7715
 30
0.0
 10
-51.7447
 20
-13.8569
 30
0.0
 10
-51.7447
 20
-13.8569
 30
0.0
 10
-52.6547
 20
-13.6308
 30
0.0
 10
-53.5992
 20
-13.5782
 30
0.0
 10
-54.5285
 20
-13.7012
 30
0.0
 10
-54.5285
 20
-13.7012
 30
0.0
 10
-55.455
 20
-13.8239
 30
0.0
 10
-56.3583
 20
-14.0806
 30
0.0
 10
-57.2104
 20
-14.4642
 30
0.0
 10
-57.2104
 20
-14.4642
 30
0.0
 10
-57.3603
 20
-13.1534
 30
0.0
 10
-57.8279
 20
-11.9002
 30
0.0
 10
-58.5738
 20
-10.8118
 30
0.0
 10
-58.5738
 20
-10.8118
 30
0.0
 10
-59.3127
 20
-9.7328
 30
0.0
 10
-60.2194
 20
-8.7792
 30
0.0
 10
-61.2594
 20
-7.9862
 30
0.0
 10
-61.2594
 20
-7.9862
 30
0.0
 10
-60.6729
 20
-6.2514
 30
0.0
 10
-59.5053
 20
-4.7713
 30
0.0
 10
-57.9552
 20
-3.7958
 30
0.0
 10
-57.9552
 20
-3.7958
 30
0.0
 10
-56.424
 20
-2.8322
 30
0.0
 10
-54.6656
 20
-2.2877
 30
0.0
 10
-52.8579
 20
-2.2167
 30
0.0
 10
-52.8579
 20
-2.2167
 30
0.0
 10
-53.6107
 20
-1.6155
 30
0.0
 10
-54.5133
 20
-1.2328
 30
0.0
 10
-55.4685
 20
-1.1101
 30
0.0
 10
-55.4685
 20
-1.1101
 30
0.0
 10
-56.4092
 20
-0.9891
 30
0.0
 10
-57.3606
 20
-0.9807
 30
0.0
 10
-58.3035
 20
-1.0855
 30
0.0
 10
-58.3035
 20
-1.0855
 30
0.0
 10
-59.5472
 20
-1.2238
 30
0.0
 10
-60.7138
 20
-1.7546
 30
0.0
 10
-61.6353
 20
-2.6016
 30
0.0
 10
-61.6353
 20
-2.6016
 30
0.0
 10
-62.5537
 20
-3.4461
 30
0.0
 10
-63.1984
 20
-4.5452
 30
0.0
 10
-63.486
 20
-5.7595
 30
0.0
 10
-63.486
 20
-5.7595
 30
0.0
 10
-64.0303
 20
-5.034
 30
0.0
 10
-64.7289
 20
-4.4394
 30
0.0
 10
-65.5321
 20
-4.0189
 30
0.0
 10
-65.5321
 20
-4.0189
 30
0.0
 10
-66.3266
 20
-3.6031
 30
0.0
 10
-67.148
 20
-3.2415
 30
0.0
 10
-67.9909
 20
-2.9368
 30
0.0
  0
SPLINE
  5
85
330
1F
100
AcDbEntity
  8
layer 1
 62
     7
100
AcDbSpline
210
0.0
220
0.0
230
1.0
 70
    11
 71
     3
 72
   152
 73
   148
 74
     0
 42
0.0000000001
 43
0.0000000001
 12
1.0
 22
0.0
 32
0.0
 13
1.0
 23
0.0
 33
0.0
 40
0.0
 40
0.0
 40
0.0
 40
0.0
 40
0.0263157894736842
 40
0.0263157894736842
 40
0.0263157894736842
 40
0.0263157894736842
 40
0.0526315789473684
 40
0.0526315789473684
 40
0.0526315789473684
 40
0.0526315789473684
 40
0.0789473684210526
 40
0.0789473684210526
 40
0.0789473684210526
 40
0.0789473684210526
 40
0.1052631578947368
 40
0.1052631578947368
 40
0.1052631578947368
 40
0.1052631578947368
 40
0.131578947368421
 40
0.131578947368421
 40
0.131578947368421
 40
0.131578947368421
 40
0.1578947368421053
 40
0.1578947368421053
 40
0.1578947368421053
 40
0.1578947368421053
 40
0.1842105263157895
 40
0.1842105263157895
 40
0.1842105263157895
 40
0.1842105263157895
 40
0.2105263157894737
 40
0.2105263157894737
 40
0.2105263157894737
 40
0.2105263157894737
 40
0.2368421052631579
 40
0.2368421052631579
 40
0.2368421052631579
 40
0.2368421052631579
 40
0.2631578947368421
 40
0.2631578947368421
 40
0.2631578947368421
 40
0.2631578947368421
 40
0.2894736842105263
 40
0.2894736842105263
 40
0.2894736842105263
 40
0.2894736842105263
 40
0.3157894736842105
 40
0.3157894736842105
 40
0.3157894736842105
 40
0.3157894736842105
 40
0.3421052631578947
 40
0.3421052631578947
 40
0.3421052631578947
 40
0.3421052631578947
 40
0.3684210526315789
 40
0.3684210526315789
 40
0.3684210526315789
 40
0.3684210526315789
 40
0.3947368421052632
 40
0.3947368421052632
 40
0.3947368421052632
 40
0.3947368421052632
 40
0.4210526315789473
 40
0.4210526315789473
 40
0.4210526315789473
 40
0.4210526315789473
 40
0.4473684210526316
 40
0.4473684210526316
 40
0.4473684210526316
 40
0.4473684210526316
 40
0.4736842105263158
 40
0.4736842105263158
 40
0.4736842105263158
 40
0.4736842105263158
 40
0.5
 40
0.5
 40
0.5
 40
0.5
 40
0.5263157894736842
 40
0.5263157894736842
 40
0.5263157894736842
 40
0.5263157894736842
 40
0.5526315789473685
 40
0.5526315789473685
 40
0.5526315789473685
 40
0.5526315789473685
 40
0.5789473684210527
 40
0.5789473684210527
 40
0.5789473684210527
 40
0.5789473684210527
 40
0.6052631578947368
 40
0.6052631578947368
 40
0.6052631578947368
 40
0.6052631578947368
 40
0.631578947368421
 40
0.631578947368421
 40
0.631578947368421
 40
0.631578947368421
 40
0.6578947368421053
 40
0.6578947368421053
 40
0.6578947368421053
 40
0.6578947368421053
 40
0.6842105263157895
 40
0.6842105263157895
 40
0.6842105263157895
 40
0.6842105263157895
 40
0.7105263157894737
 40
0.7105263157894737
 40
0.7105263157894737
 40
0.7105263157894737
 40
0.7368421052631579
 40
0.7368421052631579
 40
0.7368421052631579
 40
0.7368421052631579
 40
0.7631578947368421
 40
0.7631578947368421
 40
0.7631578947368421
 40
0.7631578947368421
 40
0.7894736842105263
 40
0.7894736842105263
 40
0.7894736842105263
 40
0.7894736842105263
 40
0.8157894736842105
 40
0.8157894736842105
 40
0.8157894736842105
 40
0.8157894736842105
 40
0.8421052631578947
 40
0.8421052631578947
 40
0.8421052631578947
 40
0.8421052631578947
 40
0.868421052631579
 40
0.868421052631579
 40
0.868421052631579
 40
0.868421052631579
 40
0.8947368421052632
 40
0.8947368421052632
 40
0.8947368421052632
 40
0.8947368421052632
 40
0.9210526315789473
 40
0.9210526315789473
 40
0.9210526315789473
 40
0.9210526315789473
 40
0.9473684210526315
 40
0.9473684210526315
 40
0.9473684210526315
 40
0.9473684210526315
 40
1.0
 40
1.0
 40
1.0
 40
1.0
 10
-45.4693
 20
23.2604
 30
0.0
 10
-43.1719
 20
22.0731
 30
0.0
 10
-41.0136
 20
20.634
 30
0.0
 10
-39.0338
 20
18.9703
 30
0.0
 10
-39.0338
 20
18.9703
 30
0.0
 10
-37.778
 20
17.8835
 30
0.0
 10
-36.6004
 20
16.7085
 30
0.0
 10
-35.5113
 20
15.4544
 30
0.0
 10
-35.5113
 20
15.4544
 30
0.0
 10
-32.5751
 20
12.0733
 30
0.0
 10
-29.5568
 20
8.7648
 30
0.0
 10
-26.4591
 20
5.531
 30
0.0
 10
-26.4591
 20
5.531
 30
0.0
 10
-24.8436
 20
3.8453
 30
0.0
 10
-23.389
 20
2.0118
 30
0.0
 10
-22.1138
 20
0.0557
 30
0.0
 10
-22.1138
 20
0.0557
 30
0.0
 10
-20.8328
 20
-1.9091
 30
0.0
 10
-19.8819
 20
-4.0707
 30
0.0
 10
-19.2987
 20
-6.3423
 30
0.0
 10
-19.2987
 20
-6.3423
 30
0.0
 10
-21.7549
 20
-7.2095
 30
0.0
 10
-23.8994
 20
-8.7825
 30
0.0
 10
-25.4636
 20
-10.8654
 30
0.0
 10
-25.4636
 20
-10.8654
 30
0.0
 10
-28.5443
 20
-14.9687
 30
0.0
 10
-30.1623
 20
-19.9823
 30
0.0
 10
-30.0588
 20
-25.1122
 30
0.0
 10
-30.0588
 20
-25.1122
 30
0.0
 10
-30.0117
 20
-27.4617
 30
0.0
 10
-29.7125
 20
-29.7986
 30
0.0
 10
-29.1664
 20
-32.0841
 30
0.0
 10
-29.1664
 20
-32.0841
 30
0.0
 10
-29.1664
 20
-32.0841
 30
0.0
 10
-32.9142
 20
-33.9266
 30
0.0
 10
-32.9142
 20
-33.9266
 30
0.0
 10
-32.9142
 20
-33.9266
 30
0.0
 10
-34.048
 20
-33.3181
 30
0.0
 10
-35.1735
 20
-32.6956
 30
0.0
 10
-36.2908
 20
-32.0586
 30
0.0
 10
-36.2908
 20
-32.0586
 30
0.0
 10
-38.926
 20
-30.5445
 30
0.0
 10
-41.5365
 20
-28.9877
 30
0.0
 10
-44.1214
 20
-27.3887
 30
0.0
 10
-44.1214
 20
-27.3887
 30
0.0
 10
-43.6004
 20
-26.809
 30
0.0
 10
-43.0737
 20
-26.234
 30
0.0
 10
-42.5412
 20
-25.6647
 30
0.0
 10
-42.5412
 20
-25.6647
 30
0.0
 10
-42.2259
 20
-25.3383
 30
0.0
 10
-41.9015
 20
-25.0213
 30
0.0
 10
-41.5688
 20
-24.7129
 30
0.0
 10
-41.5688
 20
-24.7129
 30
0.0
 10
-39.7202
 20
-23.001
 30
0.0
 10
-38.2419
 20
-20.9295
 30
0.0
 10
-37.2247
 20
-18.6244
 30
0.0
 10
-37.2247
 20
-18.6244
 30
0.0
 10
-36.1647
 20
-19.1026
 30
0.0
 10
-34.9791
 20
-19.2274
 30
0.0
 10
-33.8426
 20
-18.9792
 30
0.0
 10
-33.8426
 20
-18.9792
 30
0.0
 10
-32.6915
 20
-18.7283
 30
0.0
 10
-31.6866
 20
-18.0332
 30
0.0
 10
-31.0467
 20
-17.0438
 30
0.0
 10
-31.0467
 20
-17.0438
 30
0.0
 10
-31.4947
 20
-16.1565
 30
0.0
 10
-32.2929
 20
-15.4978
 30
0.0
 10
-33.249
 20
-15.2259
 30
0.0
 10
-33.249
 20
-15.2259
 30
0.0
 10
-34.1686
 20
-14.9644
 30
0.0
 10
-35.1191
 20
-14.827
 30
0.0
 10
-36.0755
 20
-14.8168
 30
0.0
 10
-36.0755
 20
-14.8168
 30
0.0
 10
-36.3061
 20
-13.798
 30
0.0
 10
-36.3319
 20
-12.7429
 30
0.0
 10
-36.1508
 20
-11.714
 30
0.0
 10
-36.1508
 20
-11.714
 30
0.0
 10
-35.9626
 20
-10.6434
 30
0.0
 10
-35.3034
 20
-9.7137
 30
0.0
 10
-34.3562
 20
-9.1811
 30
0.0
 10
-34.3562
 20
-9.1811
 30
0.0
 10
-32.5986
 20
-8.1933
 30
0.0
 10
-30.7954
 20
-7.2889
 30
0.0
 10
-28.9525
 20
-6.4708
 30
0.0
 10
-28.9525
 20
-6.4708
 30
0.0
 10
-28.2367
 20
-6.153
 30
0.0
 10
-27.4407
 20
-6.0592
 30
0.0
 10
-26.6701
 20
-6.2006
 30
0.0
 10
-26.6701
 20
-6.2006
 30
0.0
 10
-26.8774
 20
-5.5878
 30
0.0
 10
-27.3388
 20
-5.0946
 30
0.0
 10
-27.9363
 20
-4.8472
 30
0.0
 10
-27.9363
 20
-4.8472
 30
0.0
 10
-28.513
 20
-4.6084
 30
0.0
 10
-29.132
 20
-4.4887
 30
0.0
 10
-29.7559
 20
-4.4951
 30
0.0
 10
-29.7559
 20
-4.4951
 30
0.0
 10
-30.3168
 20
-1.5128
 30
0.0
 10
-31.5168
 20
1.3117
 30
0.0
 10
-33.2756
 20
3.7851
 30
0.0
 10
-33.2756
 20
3.7851
 30
0.0
 10
-34.3914
 20
5.3225
 30
0.0
 10
-35.7149
 20
6.6974
 30
0.0
 10
-37.2086
 20
7.871
 30
0.0
 10
-37.2086
 20
7.871
 30
0.0
 10
-38.6989
 20
9.0419
 30
0.0
 10
-40.2999
 20
10.0636
 30
0.0
 10
-41.9893
 20
10.9222
 30
0.0
 10
-41.9893
 20
10.9222
 30
0.0
 10
-41.4863
 20
11.2781
 30
0.0
 10
-41.0632
 20
11.7356
 30
0.0
 10
-40.7472
 20
12.2644
 30
0.0
 10
-40.7472
 20
12.2644
 30
0.0
 10
-40.4341
 20
12.7891
 30
0.0
 10
-40.1696
 20
13.3413
 30
0.0
 10
-39.9567
 20
13.9141
 30
0.0
 10
-39.9567
 20
13.9141
 30
0.0
 10
-39.4963
 20
15.154
 30
0.0
 10
-39.649
 20
16.5375
 30
0.0
 10
-40.3703
 20
17.6466
 30
0.0
 10
-40.3703
 20
17.6466
 30
0.0
 10
-41.1223
 20
18.8027
 30
0.0
 10
-42.5197
 20
19.3593
 30
0.0
 10
-43.8601
 20
19.0346
 30
0.0
 10
-43.8601
 20
19.0346
 30
0.0
 10
-45.3864
 20
18.6652
 30
0.0
 10
-46.5589
 20
17.4452
 30
0.0
 10
-46.8657
 20
15.9052
 30
0.0
 10
-46.8657
 20
15.9052
 30
0.0
 10
-47.0282
 20
15.0893
 30
0.0
 10
-47.0971
 20
14.2575
 30
0.0
 10
-47.0711
 20
13.4257
 30
0.0
 10
-47.0711
 20
13.4257
 30
0.0
 10
-47.9029
 20
14.0968
 30
0.0
 10
-48.8414
 20
14.6236
 30
0.0
 10
-49.8477
 20
14.9839
 30
0.0
 10
-49.8477
 20
14.9839
 30
0.0
 10
-52.608
 20
15.9717
 30
0.0
 10
-55.4841
 20
16.5974
 30
0.0
 10
-58.4052
 20
16.8456
 30
0.0
 10
-58.4052
 20
16.8456
 30
0.0
 10
-57.5052
 20
17.922
 30
0.0
 10
-56.4125
 20
18.822
 30
0.0
 10
-55.1837
 20
19.4993
 30
0.0
 10
-55.1837
 20
19.4993
 30
0.0
 10
-52.1292
 20
21.1824
 30
0.0
 10
-48.8614
 20
22.4478
 30
0.0
 10
-45.4693
 20
23.2604
 30
0.0
  0
SPLINE
  5
86
330
1F
100
AcDbEntity
  8
layer 1
 62
     7
100
AcDbSpline
210
0.0
220
0.0
230
1.0
 70
    11
 71
     3
 72
    44
 73
    40
 74
     0
 42
0.0000000001
 43
0.0000000001
 12
1.0
 22
0.0
 32
0.0
 13
1.0
 23
0.0
 33
0.0
 40
0.0
 40
0.0
 40
0.0
 40
0.0
 40
0.0909090909090909
 40
0.0909090909090909
 40
0.0909090909090909
 40
0.0909090909090909
 40
0.1818181818181818
 40
0.1818181818181818
 40
0.1818181818181818
 40
0.1818181818181818
 40
0.2727272727272727
 40
0.2727272727272727
 40
0.2727272727272727
 40
0.2727272727272727
 40
0.3636363636363636
 40
0.3636363636363636
 40
0.3636363636363636
 40
0.3636363636363636
 40
0.4545454545454545
 40
0.4545454545454545
 40
0.4545454545454545
 40
0.4545454545454545
 40
0.5454545454545454
 40
0.5454545454545454
 40
0.5454545454545454
 40
0.5454545454545454
 40
0.6363636363636364
 40
0.6363636363636364
 40
0.6363636363636364
 40
0.6363636363636364
 40
0.7272727272727273
 40
0.7272727272727273
 40
0.7272727272727273
 40
0.7272727272727273
 40
0.8181818181818182
 40
0.8181818181818182
 40
0.8181818181818182
 40
0.8181818181818182
 40
1.0
 40
1.0
 40
1.0
 40
1.0
 10
-57.619
 20
-40.7521
 30
0.0
 10
-57.7141
 20
-41.3224
 30
0.0
 10
-57.661
 20
-41.9076
 30
0.0
 10
-57.4645
 20
-42.4513
 30
0.0
 10
-57.4645
 20
-42.4513
 30
0.0
 10
-57.2703
 20
-42.9881
 30
0.0
 10
-57.0153
 20
-43.5005
 30
0.0
 10
-56.7037
 20
-43.9789
 30
0.0
 10
-56.7037
 20
-43.9789
 30
0.0
 10
-56.1279
 20
-44.8623
 30
0.0
 10
-55.2367
 20
-45.4917
 30
0.0
 10
-54.2111
 20
-45.7373
 30
0.0
 10
-54.2111
 20
-45.7373
 30
0.0
 10
-53.2092
 20
-45.9775
 30
0.0
 10
-52.1666
 20
-45.9869
 30
0.0
 10
-51.1605
 20
-45.7645
 30
0.0
 10
-51.1605
 20
-45.7645
 30
0.0
 10
-51.9333
 20
-46.3925
 30
0.0
 10
-52.6545
 20
-47.0809
 30
0.0
 10
-53.3179
 20
-47.8235
 30
0.0
 10
-53.3179
 20
-47.8235
 30
0.0
 10
-56.0082
 20
-50.8338
 30
0.0
 10
-58.5071
 20
-54.0091
 30
0.0
 10
-60.8002
 20
-57.3321
 30
0.0
 10
-60.8002
 20
-57.3321
 30
0.0
 10
-61.4038
 20
-56.3091
 30
0.0
 10
-61.9175
 20
-55.2362
 30
0.0
 10
-62.3355
 20
-54.1241
 30
0.0
 10
-62.3355
 20
-54.1241
 30
0.0
 10
-62.729
 20
-53.0768
 30
0.0
 10
-63.1248
 20
-52.0303
 30
0.0
 10
-63.522
 20
-50.984
 30
0.0
 10
-63.522
 20
-50.984
 30
0.0
 10
-64.1391
 20
-49.3613
 30
0.0
 10
-63.9091
 20
-47.537
 30
0.0
 10
-62.9101
 20
-46.1175
 30
0.0
 10
-62.9101
 20
-46.1175
 30
0.0
 10
-61.4546
 20
-44.0497
 30
0.0
 10
-59.6661
 20
-42.2365
 30
0.0
 10
-57.619
 20
-40.7521
 30
0.0
  0
SPLINE
  5
87
330
1F
100
AcDbEntity
  8
layer 1
 62
     7
100
AcDbSpline
210
0.0
220
0.0
230
1.0
 70
    11
 71
     3
 72
    52
 73
    48
 74
     0
 42
0.0000000001
 43
0.0000000001
 12
1.0
 22
0.0
 32
0.0
 13
1.0
 23
0.0
 33
0.0
 40
0.0
 40
0.0
 40
0.0
 40
0.0
 40
0.0769230769230769
 40
0.0769230769230769
 40
0.0769230769230769
 40
0.0769230769230769
 40
0.1538461538461539
 40
0.1538461538461539
 40
0.1538461538461539
 40
0.1538461538461539
 40
0.2307692307692308
 40
0.2307692307692308
 40
0.2307692307692308
 40
0.2307692307692308
 40
0.3076923076923077
 40
0.3076923076923077
 40
0.3076923076923077
 40
0.3076923076923077
 40
0.3846153846153846
 40
0.3846153846153846
 40
0.3846153846153846
 40
0.3846153846153846
 40
0.4615384615384616
 40
0.4615384615384616
 40
0.4615384615384616
 40
0.4615384615384616
 40
0.5384615384615384
 40
0.5384615384615384
 40
0.5384615384615384
 40
0.5384615384615384
 40
0.6153846153846154
 40
0.6153846153846154
 40
0.6153846153846154
 40
0.6153846153846154
 40
0.6923076923076923
 40
0.6923076923076923
 40
0.6923076923076923
 40
0.6923076923076923
 40
0.7692307692307693
 40
0.7692307692307693
 40
0.7692307692307693
 40
0.7692307692307693
 40
0.8461538461538461
 40
0.8461538461538461
 40
0.8461538461538461
 40
0.8461538461538461
 40
1.0
 40
1.0
 40
1.0
 40
1.0
 10
-27.497
 20
-46.8894
 30
0.0
 10
-25.6627
 20
-47.052
 30
0.0
 10
-23.8468
 20
-47.3796
 30
0.0
 10
-22.0718
 20
-47.8685
 30
0.0
 10
-22.0718
 20
-47.8685
 30
0.0
 10
-20.2993
 20
-48.3572
 30
0.0
 10
-18.5493
 20
-48.9242
 30
0.0
 10
-16.8274
 20
-49.5688
 30
0.0
 10
-16.8274
 20
-49.5688
 30
0.0
 10
-13.364
 20
-50.8647
 30
0.0
 10
-10.2794
 20
-53.0084
 30
0.0
 10
-7.8564
 20
-55.8016
 30
0.0
 10
-7.8564
 20
-55.8016
 30
0.0
 10
-5.4593
 20
-58.5656
 30
0.0
 10
-3.4585
 20
-61.6506
 30
0.0
 10
-1.9121
 20
-64.9664
 30
0.0
 10
-1.9121
 20
-64.9664
 30
0.0
 10
-2.3641
 20
-65.1391
 30
0.0
 10
-2.819
 20
-65.3045
 30
0.0
 10
-3.2765
 20
-65.4626
 30
0.0
 10
-3.2765
 20
-65.4626
 30
0.0
 10
-4.7755
 20
-65.9709
 30
0.0
 10
-6.2858
 20
-66.4469
 30
0.0
 10
-7.8054
 20
-66.8895
 30
0.0
 10
-7.8054
 20
-66.8895
 30
0.0
 10
-7.9573
 20
-66.5676
 30
0.0
 10
-8.1115
 20
-66.247
 30
0.0
 10
-8.2679
 20
-65.9271
 30
0.0
 10
-8.2679
 20
-65.9271
 30
0.0
 10
-8.4242
 20
-65.6071
 30
0.0
 10
-8.5803
 20
-65.2867
 30
0.0
 10
-8.7359
 20
-64.9664
 30
0.0
 10
-8.7359
 20
-64.9664
 30
0.0
 10
-9.5507
 20
-63.27
 30
0.0
 10
-10.3952
 20
-61.5878
 30
0.0
 10
-11.269
 20
-59.9214
 30
0.0
 10
-11.269
 20
-59.9214
 30
0.0
 10
-12.1491
 20
-58.2435
 30
0.0
 10
-13.3003
 20
-56.7231
 30
0.0
 10
-14.6765
 20
-55.4208
 30
0.0
 10
-14.6765
 20
-55.4208
 30
0.0
 10
-15.6162
 20
-54.5315
 30
0.0
 10
-16.5986
 20
-53.689
 30
0.0
 10
-17.6201
 20
-52.8951
 30
0.0
 10
-17.6201
 20
-52.8951
 30
0.0
 10
-20.6736
 20
-50.524
 30
0.0
 10
-23.9868
 20
-48.5096
 30
0.0
 10
-27.497
 20
-46.8894
 30
0.0
  0
SPLINE
  5
88
330
1F
100
AcDbEntity
  8
layer 1
 62
     7
100
AcDbSpline
210
0.0
220
0.0
230
1.0
 70
    11
 71
     3
 72
    88
 73
    84
 74
     0
 42
0.0000000001
 43
0.0000000001
 12
1.0
 22
0.0
 32
0.0
 13
1.0
 23
0.0
 33
0.0
 40
0.0
 40
0.0
 40
0.0
 40
0.0
 40
0.0454545454545455
 40
0.0454545454545455
 40
0.0454545454545455
 40
0.0454545454545455
 40
0.0909090909090909
 40
0.0909090909090909
 40
0.0909090909090909
 40
0.0909090909090909
 40
0.1363636363636364
 40
0.1363636363636364
 40
0.1363636363636364
 40
0.1363636363636364
 40
0.1818181818181818
 40
0.1818181818181818
 40
0.1818181818181818
 40
0.1818181818181818
 40
0.2272727272727273
 40
0.2272727272727273
 40
0.2272727272727273
 40
0.2272727272727273
 40
0.2727272727272727
 40
0.2727272727272727
 40
0.2727272727272727
 40
0.2727272727272727
 40
0.3181818181818182
 40
0.3181818181818182
 40
0.3181818181818182
 40
0.3181818181818182
 40
0.3636363636363636
 40
0.3636363636363636
 40
0.3636363636363636
 40
0.3636363636363636
 40
0.4090909090909091
 40
0.4090909090909091
 40
0.4090909090909091
 40
0.4090909090909091
 40
0.4545454545454545
 40
0.4545454545454545
 40
0.4545454545454545
 40
0.4545454545454545
 40
0.5
 40
0.5
 40
0.5
 40
0.5
 40
0.5454545454545454
 40
0.5454545454545454
 40
0.5454545454545454
 40
0.5454545454545454
 40
0.5909090909090909
 40
0.5909090909090909
 40
0.5909090909090909
 40
0.5909090909090909
 40
0.6363636363636364
 40
0.6363636363636364
 40
0.6363636363636364
 40
0.6363636363636364
 40
0.6818181818181818
 40
0.6818181818181818
 40
0.6818181818181818
 40
0.6818181818181818
 40
0.7272727272727273
 40
0.7272727272727273
 40
0.7272727272727273
 40
0.7272727272727273
 40
0.7727272727272727
 40
0.7727272727272727
 40
0.7727272727272727
 40
0.7727272727272727
 40
0.8181818181818182
 40
0.8181818181818182
 40
0.8181818181818182
 40
0.8181818181818182
 40
0.8636363636363636
 40
0.8636363636363636
 40
0.8636363636363636
 40
0.8636363636363636
 40
0.9090909090909091
 40
0.9090909090909091
 40
0.9090909090909091
 40
0.9090909090909091
 40
1.0
 40
1.0
 40
1.0
 40
1.0
 10
-56.6638
 20
-65.2167
 30
0.0
 10
-55.1268
 20
-62.8384
 30
0.0
 10
-53.4801
 20
-60.5329
 30
0.0
 10
-51.7287
 20
-58.3077
 30
0.0
 10
-51.7287
 20
-58.3077
 30
0.0
 10
-48.0615
 20
-53.7463
 30
0.0
 10
-44.1402
 20
-49.3936
 30
0.0
 10
-39.9846
 20
-45.2722
 30
0.0
 10
-39.9846
 20
-45.2722
 30
0.0
 10
-36.8644
 20
-45.9601
 30
0.0
 10
-33.8694
 20
-47.1288
 30
0.0
 10
-31.1079
 20
-48.7361
 30
0.0
 10
-31.1079
 20
-48.7361
 30
0.0
 10
-28.3552
 20
-50.338
 30
0.0
 10
-25.7789
 20
-52.2269
 30
0.0
 10
-23.4226
 20
-54.3698
 30
0.0
 10
-23.4226
 20
-54.3698
 30
0.0
 10
-25.9058
 20
-55.5489
 30
0.0
 10
-28.1977
 20
-57.0928
 30
0.0
 10
-30.2231
 20
-58.9517
 30
0.0
 10
-30.2231
 20
-58.9517
 30
0.0
 10
-32.2395
 20
-60.8014
 30
0.0
 10
-34.136
 20
-62.7771
 30
0.0
 10
-35.9024
 20
-64.867
 30
0.0
 10
-35.9024
 20
-64.867
 30
0.0
 10
-37.52
 20
-62.3152
 30
0.0
 10
-40.0257
 20
-60.4561
 30
0.0
 10
-42.9368
 20
-59.6495
 30
0.0
 10
-42.9368
 20
-59.6495
 30
0.0
 10
-45.8515
 20
-58.8424
 30
0.0
 10
-48.9615
 20
-59.1639
 30
0.0
 10
-51.6485
 20
-60.5515
 30
0.0
 10
-51.6485
 20
-60.5515
 30
0.0
 10
-50.1269
 20
-62.0652
 30
0.0
 10
-48.5054
 20
-63.4749
 30
0.0
 10
-46.7941
 20
-64.7704
 30
0.0
 10
-46.7941
 20
-64.7704
 30
0.0
 10
-45.0432
 20
-66.0964
 30
0.0
 10
-42.9231
 20
-66.8425
 30
0.0
 10
-40.7272
 20
-66.9053
 30
0.0
 10
-40.7272
 20
-66.9053
 30
0.0
 10
-39.385
 20
-66.9439
 30
0.0
 10
-38.0424
 20
-66.847
 30
0.0
 10
-36.7189
 20
-66.6163
 30
0.0
 10
-36.7189
 20
-66.6163
 30
0.0
 10
-37.9618
 20
-67.468
 30
0.0
 10
-38.9395
 20
-68.6518
 30
0.0
 10
-39.5407
 20
-70.0331
 30
0.0
 10
-39.5407
 20
-70.0331
 30
0.0
 10
-40.8393
 20
-73.018
 30
0.0
 10
-41.8097
 20
-76.1347
 30
0.0
 10
-42.434
 20
-79.3296
 30
0.0
 10
-42.434
 20
-79.3296
 30
0.0
 10
-43.1295
 20
-77.8528
 30
0.0
 10
-43.3624
 20
-76.1992
 30
0.0
 10
-43.1023
 20
-74.5879
 30
0.0
 10
-43.1023
 20
-74.5879
 30
0.0
 10
-42.8465
 20
-73.0055
 30
0.0
 10
-42.3865
 20
-71.4628
 30
0.0
 10
-41.7342
 20
-69.9987
 30
0.0
 10
-41.7342
 20
-69.9987
 30
0.0
 10
-42.9198
 20
-70.4714
 30
0.0
 10
-43.892
 20
-71.3584
 30
0.0
 10
-44.4707
 20
-72.4956
 30
0.0
 10
-44.4707
 20
-72.4956
 30
0.0
 10
-45.0363
 20
-73.6073
 30
0.0
 10
-45.3747
 20
-74.82
 30
0.0
 10
-45.4666
 20
-76.0639
 30
0.0
 10
-45.4666
 20
-76.0639
 30
0.0
 10
-45.4273
 20
-73.6878
 30
0.0
 10
-46.5675
 20
-71.4487
 30
0.0
 10
-48.5134
 20
-70.0852
 30
0.0
 10
-48.5134
 20
-70.0852
 30
0.0
 10
-50.3458
 20
-68.8002
 30
0.0
 10
-52.2299
 20
-67.5918
 30
0.0
 10
-54.1622
 20
-66.4627
 30
0.0
 10
-54.1622
 20
-66.4627
 30
0.0
 10
-54.9674
 20
-65.9924
 30
0.0
 10
-55.8029
 20
-65.5758
 30
0.0
 10
-56.6638
 20
-65.2167
 30
0.0
 10
-56.6638
 20
-65.2167
 30
0.0
 10
-56.6638
 20
-65.2167
 30
0.0
 10
-56.6638
 20
-65.2167
 30
0.0
 10
-56.6638
 20
-65.2167
 30
0.0
  0
SPLINE
  5
89
330
1F
100
AcDbEntity
  8
layer 1
 62
     7
100
AcDbSpline
210
0.0
220
0.0
230
1.0
 70
    11
 71
     3
 72
   152
 73
   148
 74
     0
 42
0.0000000001
 43
0.0000000001
 12
1.0
 22
0.0
 32
0.0
 13
1.0
 23
0.0
 33
0.0
 40
0.0
 40
0.0
 40
0.0
 40
0.0
 40
0.0263157894736842
 40
0.0263157894736842
 40
0.0263157894736842
 40
0.0263157894736842
 40
0.0526315789473684
 40
0.0526315789473684
 40
0.0526315789473684
 40
0.0526315789473684
 40
0.0789473684210526
 40
0.0789473684210526
 40
0.0789473684210526
 40
0.0789473684210526
 40
0.1052631578947368
 40
0.1052631578947368
 40
0.1052631578947368
 40
0.1052631578947368
 40
0.131578947368421
 40
0.131578947368421
 40
0.131578947368421
 40
0.131578947368421
 40
0.1578947368421053
 40
0.1578947368421053
 40
0.1578947368421053
 40
0.1578947368421053
 40
0.1842105263157895
 40
0.1842105263157895
 40
0.1842105263157895
 40
0.1842105263157895
 40
0.2105263157894737
 40
0.2105263157894737
 40
0.2105263157894737
 40
0.2105263157894737
 40
0.2368421052631579
 40
0.2368421052631579
 40
0.2368421052631579
 40
0.2368421052631579
 40
0.2631578947368421
 40
0.2631578947368421
 40
0.2631578947368421
 40
0.2631578947368421
 40
0.2894736842105263
 40
0.2894736842105263
 40
0.2894736842105263
 40
0.2894736842105263
 40
0.3157894736842105
 40
0.3157894736842105
 40
0.3157894736842105
 40
0.3157894736842105
 40
0.3421052631578947
 40
0.3421052631578947
 40
0.3421052631578947
 40
0.3421052631578947
 40
0.3684210526315789
 40
0.3684210526315789
 40
0.3684210526315789
 40
0.3684210526315789
 40
0.3947368421052632
 40
0.3947368421052632
 40
0.3947368421052632
 40
0.3947368421052632
 40
0.4210526315789473
 40
0.4210526315789473
 40
0.4210526315789473
 40
0.4210526315789473
 40
0.4473684210526316
 40
0.4473684210526316
 40
0.4473684210526316
 40
0.4473684210526316
 40
0.4736842105263158
 40
0.4736842105263158
 40
0.4736842105263158
 40
0.4736842105263158
 40
0.5
 40
0.5
 40
0.5
 40
0.5
 40
0.5263157894736842
 40
0.5263157894736842
 40
0.5263157894736842
 40
0.5263157894736842
 40
0.5526315789473685
 40
0.5526315789473685
 40
0.5526315789473685
 40
0.5526315789473685
 40
0.5789473684210527
 40
0.5789473684210527
 40
0.5789473684210527
 40
0.5789473684210527
 40
0.6052631578947368
 40
0.6052631578947368
 40
0.6052631578947368
 40
0.6052631578947368
 40
0.631578947368421
 40
0.631578947368421
 40
0.631578947368421
 40
0.631578947368421
 40
0.6578947368421053
 40
0.6578947368421053
 40
0.6578947368421053
 40
0.6578947368421053
 40
0.6842105263157895
 40
0.6842105263157895
 40
0.6842105263157895
 40
0.6842105263157895
 40
0.7105263157894737
 40
0.7105263157894737
 40
0.7105263157894737
 40
0.7105263157894737
 40
0.7368421052631579
 40
0.7368421052631579
 40
0.7368421052631579
 40
0.7368421052631579
 40
0.7631578947368421
 40
0.7631578947368421
 40
0.7631578947368421
 40
0.7631578947368421
 40
0.7894736842105263
 40
0.7894736842105263
 40
0.7894736842105263
 40
0.7894736842105263
 40
0.8157894736842105
 40
0.8157894736842105
 40
0.8157894736842105
 40
0.8157894736842105
 40
0.8421052631578947
 40
0.8421052631578947
 40
0.8421052631578947
 40
0.8421052631578947
 40
0.868421052631579
 40
0.868421052631579
 40
0.868421052631579
 40
0.868421052631579
 40
0.8947368421052632
 40
0.8947368421052632
 40
0.8947368421052632
 40
0.8947368421052632
 40
0.9210526315789473
 40
0.9210526315789473
 40
0.9210526315789473
 40
0.9210526315789473
 40
0.9473684210526315
 40
0.9473684210526315
 40
0.9473684210526315
 40
0.9473684210526315
 40
1.0
 40
1.0
 40
1.0
 40
1.0
 10
-57.1934
 20
-66.6646
 30
0.0
 10
-56.7266
 20
-66.8353
 30
0.0
 10
-56.2811
 20
-67.0606
 30
0.0
 10
-55.8665
 20
-67.335
 30
0.0
 10
-55.8665
 20
-67.335
 30
0.0
 10
-53.2673
 20
-69.0553
 30
0.0
 10
-50.8686
 20
-71.0625
 30
0.0
 10
-48.7166
 20
-73.3178
 30
0.0
 10
-48.7166
 20
-73.3178
 30
0.0
 10
-46.7147
 20
-75.4157
 30
0.0
 10
-45.6011
 20
-78.208
 30
0.0
 10
-45.608
 20
-81.1076
 30
0.0
 10
-45.608
 20
-81.1076
 30
0.0
 10
-45.6156
 20
-84.358
 30
0.0
 10
-44.6086
 20
-87.5279
 30
0.0
 10
-42.7254
 20
-90.1775
 30
0.0
 10
-42.7254
 20
-90.1775
 30
0.0
 10
-41.7812
 20
-91.5064
 30
0.0
 10
-40.7417
 20
-92.7652
 30
0.0
 10
-39.615
 20
-93.9439
 30
0.0
 10
-39.615
 20
-93.9439
 30
0.0
 10
-41.6519
 20
-95.1207
 30
0.0
 10
-43.6157
 20
-96.4199
 30
0.0
 10
-45.4951
 20
-97.835
 30
0.0
 10
-45.4951
 20
-97.835
 30
0.0
 10
-46.9451
 20
-98.9363
 30
0.0
 10
-48.3306
 20
-100.1201
 30
0.0
 10
-49.6452
 20
-101.38
 30
0.0
 10
-49.6452
 20
-101.38
 30
0.0
 10
-47.9232
 20
-96.9882
 30
0.0
 10
-47.0138
 20
-92.3216
 30
0.0
 10
-46.9618
 20
-87.6043
 30
0.0
 10
-46.9618
 20
-87.6043
 30
0.0
 10
-46.9612
 20
-87.5558
 30
0.0
 10
-46.9621
 20
-87.5071
 30
0.0
 10
-46.9647
 20
-87.4586
 30
0.0
 10
-46.9647
 20
-87.4586
 30
0.0
 10
-47.1309
 20
-84.9758
 30
0.0
 10
-47.7458
 20
-82.5448
 30
0.0
 10
-48.7808
 20
-80.2818
 30
0.0
 10
-48.7808
 20
-80.2818
 30
0.0
 10
-49.0914
 20
-80.4571
 30
0.0
 10
-49.383
 20
-80.6632
 30
0.0
 10
-49.6515
 20
-80.8975
 30
0.0
 10
-49.6515
 20
-80.8975
 30
0.0
 10
-52.5126
 20
-83.3952
 30
0.0
 10
-54.2281
 20
-86.9507
 30
0.0
 10
-54.4012
 20
-90.7445
 30
0.0
 10
-54.4012
 20
-90.7445
 30
0.0
 10
-54.4865
 20
-92.6165
 30
0.0
 10
-54.2223
 20
-94.4874
 30
0.0
 10
-53.6213
 20
-96.2624
 30
0.0
 10
-53.6213
 20
-96.2624
 30
0.0
 10
-53.0242
 20
-98.0269
 30
0.0
 10
-52.2481
 20
-99.7251
 30
0.0
 10
-51.3053
 20
-101.3313
 30
0.0
 10
-51.3053
 20
-101.3313
 30
0.0
 10
-51.0982
 20
-101.6843
 30
0.0
 10
-50.8609
 20
-102.0188
 30
0.0
 10
-50.5965
 20
-102.3311
 30
0.0
 10
-50.5965
 20
-102.3311
 30
0.0
 10
-51.4686
 20
-102.5224
 30
0.0
 10
-52.2841
 20
-102.9141
 30
0.0
 10
-52.9784
 20
-103.4754
 30
0.0
 10
-52.9784
 20
-103.4754
 30
0.0
 10
-53.6778
 20
-104.0406
 30
0.0
 10
-54.1996
 20
-104.7955
 30
0.0
 10
-54.4802
 20
-105.6498
 30
0.0
 10
-54.4802
 20
-105.6498
 30
0.0
 10
-56.0982
 20
-104.0127
 30
0.0
 10
-58.0154
 20
-102.7027
 30
0.0
 10
-60.1286
 20
-101.7905
 30
0.0
 10
-60.1286
 20
-101.7905
 30
0.0
 10
-62.2303
 20
-100.8833
 30
0.0
 10
-64.4365
 20
-100.2416
 30
0.0
 10
-66.697
 20
-99.8806
 30
0.0
 10
-66.697
 20
-99.8806
 30
0.0
 10
-66.2875
 20
-99.5426
 30
0.0
 10
-65.9239
 20
-99.1522
 30
0.0
 10
-65.6157
 20
-98.7198
 30
0.0
 10
-65.6157
 20
-98.7198
 30
0.0
 10
-63.7745
 20
-96.1357
 30
0.0
 10
-62.788
 20
-93.0423
 30
0.0
 10
-62.7947
 20
-89.8699
 30
0.0
 10
-62.7947
 20
-89.8699
 30
0.0
 10
-62.807
 20
-88.6514
 30
0.0
 10
-62.7943
 20
-87.4328
 30
0.0
 10
-62.7558
 20
-86.2146
 30
0.0
 10
-62.7558
 20
-86.2146
 30
0.0
 10
-62.729
 20
-85.3472
 30
0.0
 10
-62.2643
 20
-84.5514
 30
0.0
 10
-61.5221
 20
-84.1008
 30
0.0
 10
-61.5221
 20
-84.1008
 30
0.0
 10
-61.2004
 20
-83.9052
 30
0.0
 10
-60.8245
 20
-83.8161
 30
0.0
 10
-60.449
 20
-83.8454
 30
0.0
 10
-60.449
 20
-83.8454
 30
0.0
 10
-58.6438
 20
-83.9862
 30
0.0
 10
-56.8477
 20
-83.4898
 30
0.0
 10
-55.3717
 20
-82.4414
 30
0.0
 10
-55.3717
 20
-82.4414
 30
0.0
 10
-53.2555
 20
-80.9382
 30
0.0
 10
-51.7823
 20
-78.6965
 30
0.0
 10
-51.2429
 20
-76.1576
 30
0.0
 10
-51.2429
 20
-76.1576
 30
0.0
 10
-50.9708
 20
-74.8756
 30
0.0
 10
-51.1224
 20
-73.5406
 30
0.0
 10
-51.6761
 20
-72.3529
 30
0.0
 10
-51.6761
 20
-72.3529
 30
0.0
 10
-52.8405
 20
-72.0219
 30
0.0
 10
-54.0762
 20
-72.044
 30
0.0
 10
-55.2279
 20
-72.4162
 30
0.0
 10
-55.2279
 20
-72.4162
 30
0.0
 10
-56.3624
 20
-72.7827
 30
0.0
 10
-57.4285
 20
-73.3333
 30
0.0
 10
-58.3841
 20
-74.0465
 30
0.0
 10
-58.3841
 20
-74.0465
 30
0.0
 10
-60.0514
 20
-75.2912
 30
0.0
 10
-61.0758
 20
-77.2135
 30
0.0
 10
-61.1771
 20
-79.2914
 30
0.0
 10
-61.1771
 20
-79.2914
 30
0.0
 10
-61.2311
 20
-80.3925
 30
0.0
 10
-61.4063
 20
-81.4844
 30
0.0
 10
-61.6995
 20
-82.5474
 30
0.0
 10
-61.6995
 20
-82.5474
 30
0.0
 10
-61.7984
 20
-82.9064
 30
0.0
 10
-62.0963
 20
-83.1767
 30
0.0
 10
-62.4634
 20
-83.2407
 30
0.0
 10
-62.4634
 20
-83.2407
 30
0.0
 10
-62.6687
 20
-83.2759
 30
0.0
 10
-62.8803
 20
-83.2407
 30
0.0
 10
-63.0628
 20
-83.1406
 30
0.0
 10
-63.0628
 20
-83.1406
 30
0.0
 10
-63.8932
 20
-80.7731
 30
0.0
 10
-63.5398
 20
-78.1495
 30
0.0
 10
-62.1149
 20
-76.0846
 30
0.0
 10
-62.1149
 20
-76.0846
 30
0.0
 10
-61.0588
 20
-74.5548
 30
0.0
 10
-60.0754
 20
-72.9763
 30
0.0
 10
-59.1674
 20
-71.3541
 30
0.0
 10
-59.1674
 20
-71.3541
 30
0.0
 10
-58.7524
 20
-70.6122
 30
0.0
 10
-58.3858
 20
-69.845
 30
0.0
 10
-58.0696
 20
-69.0559
 30
0.0
 10
-58.0696
 20
-69.0559
 30
0.0
 10
-57.7536
 20
-68.2677
 30
0.0
 10
-57.4616
 20
-67.4701
 30
0.0
 10
-57.1934
 20
-66.6646
 30
0.0
  0
SPLINE
  5
8A
330
1F
100
AcDbEntity
  8
layer 1
 62
     7
100
AcDbSpline
210
0.0
220
0.0
230
1.0
 70
    11
 71
     3
 72
    48
 73
    44
 74
     0
 42
0.0000000001
 43
0.0000000001
 12
1.0
 22
0.0
 32
0.0
 13
1.0
 23
0.0
 33
0.0
 40
0.0
 40
0.0
 40
0.0
 40
0.0
 40
0.0833333333333333
 40
0.0833333333333333
 40
0.0833333333333333
 40
0.0833333333333333
 40
0.1666666666666667
 40
0.1666666666666667
 40
0.1666666666666667
 40
0.1666666666666667
 40
0.25
 40
0.25
 40
0.25
 40
0.25
 40
0.3333333333333333
 40
0.3333333333333333
 40
0.3333333333333333
 40
0.3333333333333333
 40
0.4166666666666667
 40
0.4166666666666667
 40
0.4166666666666667
 40
0.4166666666666667
 40
0.5
 40
0.5
 40
0.5
 40
0.5
 40
0.5833333333333334
 40
0.5833333333333334
 40
0.5833333333333334
 40
0.5833333333333334
 40
0.6666666666666666
 40
0.6666666666666666
 40
0.6666666666666666
 40
0.6666666666666666
 40
0.75
 40
0.75
 40
0.75
 40
0.75
 40
0.8333333333333334
 40
0.8333333333333334
 40
0.8333333333333334
 40
0.8333333333333334
 40
1.0
 40
1.0
 40
1.0
 40
1.0
 10
-81.0465
 20
-62.1335
 30
0.0
 10
-81.0465
 20
-62.1335
 30
0.0
 10
-81.0465
 20
-56.8729
 30
0.0
 10
-81.0465
 20
-56.8729
 30
0.0
 10
-81.0465
 20
-56.8729
 30
0.0
 10
-80.2802
 20
-56.6549
 30
0.0
 10
-79.4923
 20
-56.5236
 30
0.0
 10
-78.6968
 20
-56.4812
 30
0.0
 10
-78.6968
 20
-56.4812
 30
0.0
 10
-76.0541
 20
-56.34
 30
0.0
 10
-73.4032
 20
-56.497
 30
0.0
 10
-70.7952
 20
-56.9488
 30
0.0
 10
-70.7952
 20
-56.9488
 30
0.0
 10
-68.4859
 20
-57.3486
 30
0.0
 10
-66.3698
 20
-58.4948
 30
0.0
 10
-64.7725
 20
-60.2104
 30
0.0
 10
-64.7725
 20
-60.2104
 30
0.0
 10
-64.3503
 20
-60.664
 30
0.0
 10
-64.0207
 20
-61.1953
 30
0.0
 10
-63.8029
 20
-61.775
 30
0.0
 10
-63.8029
 20
-61.775
 30
0.0
 10
-64.5392
 20
-62.7347
 30
0.0
 10
-65.2333
 20
-63.7261
 30
0.0
 10
-65.8822
 20
-64.7466
 30
0.0
 10
-65.8822
 20
-64.7466
 30
0.0
 10
-66.8509
 20
-66.2869
 30
0.0
 10
-67.7433
 20
-67.8732
 30
0.0
 10
-68.5565
 20
-69.5006
 30
0.0
 10
-68.5565
 20
-69.5006
 30
0.0
 10
-69.4073
 20
-67.7471
 30
0.0
 10
-70.8572
 20
-66.3569
 30
0.0
 10
-72.6458
 20
-65.5821
 30
0.0
 10
-72.6458
 20
-65.5821
 30
0.0
 10
-73.9002
 20
-65.0386
 30
0.0
 10
-75.1616
 20
-64.5125
 30
0.0
 10
-76.4305
 20
-64.004
 30
0.0
 10
-76.4305
 20
-64.004
 30
0.0
 10
-77.1995
 20
-63.685
 30
0.0
 10
-77.9679
 20
-63.3646
 30
0.0
 10
-78.736
 20
-63.0429
 30
0.0
 10
-78.736
 20
-63.0429
 30
0.0
 10
-79.4993
 20
-62.723
 30
0.0
 10
-80.2697
 20
-62.4196
 30
0.0
 10
-81.0465
 20
-62.1335
 30
0.0
  0
SPLINE
  5
8B
330
1F
100
AcDbEntity
  8
layer 1
 62
     7
100
AcDbSpline
210
0.0
220
0.0
230
1.0
 70
    11
 71
     3
 72
    32
 73
    28
 74
     0
 42
0.0000000001
 43
0.0000000001
 12
1.0
 22
0.0
 32
0.0
 13
1.0
 23
0.0
 33
0.0
 40
0.0
 40
0.0
 40
0.0
 40
0.0
 40
0.125
 40
0.125
 40
0.125
 40
0.125
 40
0.25
 40
0.25
 40
0.25
 40
0.25
 40
0.375
 40
0.375
 40
0.375
 40
0.375
 40
0.5
 40
0.5
 40
0.5
 40
0.5
 40
0.625
 40
0.625
 40
0.625
 40
0.625
 40
0.75
 40
0.75
 40
0.75
 40
0.75
 40
1.0
 40
1.0
 40
1.0
 40
1.0
 10
-81.0465
 20
-82.4175
 30
0.0
 10
-81.0465
 20
-82.4175
 30
0.0
 10
-81.0465
 20
-64.576
 30
0.0
 10
-81.0465
 20
-64.576
 30
0.0
 10
-81.0465
 20
-64.576
 30
0.0
 10
-77.2562
 20
-65.6245
 30
0.0
 10
-73.9311
 20
-67.9274
 30
0.0
 10
-71.6155
 20
-71.1055
 30
0.0
 10
-71.6155
 20
-71.1055
 30
0.0
 10
-69.3314
 20
-74.2405
 30
0.0
 10
-67.8376
 20
-77.8821
 30
0.0
 10
-67.261
 20
-81.7177
 30
0.0
 10
-67.261
 20
-81.7177
 30
0.0
 10
-67.6954
 20
-81.2955
 30
0.0
 10
-68.2109
 20
-80.9667
 30
0.0
 10
-68.7767
 20
-80.7512
 30
0.0
 10
-68.7767
 20
-80.7512
 30
0.0
 10
-71.6214
 20
-79.6691
 30
0.0
 10
-74.7494
 20
-79.5985
 30
0.0
 10
-77.6396
 20
-80.5517
 30
0.0
 10
-77.6396
 20
-80.5517
 30
0.0
 10
-78.259
 20
-80.7561
 30
0.0
 10
-78.8604
 20
-81.0096
 30
0.0
 10
-79.4391
 20
-81.3096
 30
0.0
 10
-79.4391
 20
-81.3096
 30
0.0
 10
-80.0187
 20
-81.6108
 30
0.0
 10
-80.5589
 20
-81.9829
 30
0.0
 10
-81.0465
 20
-82.4175
 30
0.0
  0
SPLINE
  5
8C
330
1F
100
AcDbEntity
  8
layer 1
 62
     7
100
AcDbSpline
210
0.0
220
0.0
230
1.0
 70
    11
 71
     3
 72
    36
 73
    32
 74
     0
 42
0.0000000001
 43
0.0000000001
 12
1.0
 22
0.0
 32
0.0
 13
1.0
 23
0.0
 33
0.0
 40
0.0
 40
0.0
 40
0.0
 40
0.0
 40
0.1111111111111111
 40
0.1111111111111111
 40
0.1111111111111111
 40
0.1111111111111111
 40
0.2222222222222222
 40
0.2222222222222222
 40
0.2222222222222222
 40
0.2222222222222222
 40
0.3333333333333333
 40
0.3333333333333333
 40
0.3333333333333333
 40
0.3333333333333333
 40
0.4444444444444444
 40
0.4444444444444444
 40
0.4444444444444444
 40
0.4444444444444444
 40
0.5555555555555556
 40
0.5555555555555556
 40
0.5555555555555556
 40
0.5555555555555556
 40
0.6666666666666666
 40
0.6666666666666666
 40
0.6666666666666666
 40
0.6666666666666666
 40
0.7777777777777778
 40
0.7777777777777778
 40
0.7777777777777778
 40
0.7777777777777778
 40
1.0
 40
1.0
 40
1.0
 40
1.0
 10
-81.0465
 20
-97.8102
 30
0.0
 10
-81.0465
 20
-97.8102
 30
0.0
 10
-81.0465
 20
-84.8663
 30
0.0
 10
-81.0465
 20
-84.8663
 30
0.0
 10
-81.0465
 20
-84.8663
 30
0.0
 10
-78.9028
 20
-83.4261
 30
0.0
 10
-76.2743
 20
-82.8928
 30
0.0
 10
-73.7384
 20
-83.3825
 30
0.0
 10
-73.7384
 20
-83.3825
 30
0.0
 10
-71.2676
 20
-83.8595
 30
0.0
 10
-68.9342
 20
-84.8851
 30
0.0
 10
-66.9113
 20
-86.3822
 30
0.0
 10
-66.9113
 20
-86.3822
 30
0.0
 10
-66.8951
 20
-86.453
 30
0.0
 10
-66.8808
 20
-86.5238
 30
0.0
 10
-66.8683
 20
-86.5948
 30
0.0
 10
-66.8683
 20
-86.5948
 30
0.0
 10
-66.2163
 20
-90.2831
 30
0.0
 10
-66.9109
 20
-94.0849
 30
0.0
 10
-68.8237
 20
-97.3052
 30
0.0
 10
-68.8237
 20
-97.3052
 30
0.0
 10
-69.1501
 20
-97.8552
 30
0.0
 10
-69.5248
 20
-98.3754
 30
0.0
 10
-69.9435
 20
-98.8599
 30
0.0
 10
-69.9435
 20
-98.8599
 30
0.0
 10
-71.6485
 20
-98.0163
 30
0.0
 10
-73.5135
 20
-97.5475
 30
0.0
 10
-75.4143
 20
-97.485
 30
0.0
 10
-75.4143
 20
-97.485
 30
0.0
 10
-77.2979
 20
-97.4228
 30
0.0
 10
-79.1829
 20
-97.5317
 30
0.0
 10
-81.0465
 20
-97.8102
 30
0.0
  0
SPLINE
  5
8D
330
1F
100
AcDbEntity
  8
layer 1
 62
     7
100
AcDbSpline
210
0.0
220
0.0
230
1.0
 70
    11
 71
     3
 72
    20
 73
    16
 74
     0
 42
0.0000000001
 43
0.0000000001
 12
1.0
 22
0.0
 32
0.0
 13
1.0
 23
0.0
 33
0.0
 40
0.0
 40
0.0
 40
0.0
 40
0.0
 40
0.2
 40
0.2
 40
0.2
 40
0.2
 40
0.4
 40
0.4
 40
0.4
 40
0.4
 40
0.6
 40
0.6
 40
0.6
 40
0.6
 40
1.0
 40
1.0
 40
1.0
 40
1.0
 10
-60.8915
 20
-107.2259
 30
0.0
 10
-60.8915
 20
-107.2259
 30
0.0
 10
-81.0465
 20
-107.2259
 30
0.0
 10
-81.0465
 20
-107.2259
 30
0.0
 10
-81.0465
 20
-107.2259
 30
0.0
 10
-81.0465
 20
-107.2259
 30
0.0
 10
-81.0465
 20
-99.6865
 30
0.0
 10
-81.0465
 20
-99.6865
 30
0.0
 10
-81.0465
 20
-99.6865
 30
0.0
 10
-77.3364
 20
-99.2702
 30
0.0
 10
-73.5791
 20
-99.7808
 30
0.0
 10
-70.1143
 20
-101.171
 30
0.0
 10
-70.1143
 20
-101.171
 30
0.0
 10
-66.6676
 20
-102.5543
 30
0.0
 10
-63.531
 20
-104.6133
 30
0.0
 10
-60.8915
 20
-107.2259
 30
0.0
  0
SPLINE
  5
8E
330
1F
100
AcDbEntity
  8
layer 1
 62
     7
100
AcDbSpline
210
0.0
220
0.0
230
1.0
 70
    11
 71
     3
 72
   132
 73
   128
 74
     0
 42
0.0000000001
 43
0.0000000001
 12
1.0
 22
0.0
 32
0.0
 13
1.0
 23
0.0
 33
0.0
 40
0.0
 40
0.0
 40
0.0
 40
0.0
 40
0.0303030303030303
 40
0.0303030303030303
 40
0.0303030303030303
 40
0.0303030303030303
 40
0.0606060606060606
 40
0.0606060606060606
 40
0.0606060606060606
 40
0.0606060606060606
 40
0.0909090909090909
 40
0.0909090909090909
 40
0.0909090909090909
 40
0.0909090909090909
 40
0.1212121212121212
 40
0.1212121212121212
 40
0.1212121212121212
 40
0.1212121212121212
 40
0.1515151515151515
 40
0.1515151515151515
 40
0.1515151515151515
 40
0.1515151515151515
 40
0.1818181818181818
 40
0.1818181818181818
 40
0.1818181818181818
 40
0.1818181818181818
 40
0.2121212121212121
 40
0.2121212121212121
 40
0.2121212121212121
 40
0.2121212121212121
 40
0.2424242424242424
 40
0.2424242424242424
 40
0.2424242424242424
 40
0.2424242424242424
 40
0.2727272727272727
 40
0.2727272727272727
 40
0.2727272727272727
 40
0.2727272727272727
 40
0.303030303030303
 40
0.303030303030303
 40
0.303030303030303
 40
0.303030303030303
 40
0.3333333333333333
 40
0.3333333333333333
 40
0.3333333333333333
 40
0.3333333333333333
 40
0.3636363636363636
 40
0.3636363636363636
 40
0.3636363636363636
 40
0.3636363636363636
 40
0.3939393939393939
 40
0.3939393939393939
 40
0.3939393939393939
 40
0.3939393939393939
 40
0.4242424242424243
 40
0.4242424242424243
 40
0.4242424242424243
 40
0.4242424242424243
 40
0.4545454545454545
 40
0.4545454545454545
 40
0.4545454545454545
 40
0.4545454545454545
 40
0.4848484848484849
 40
0.4848484848484849
 40
0.4848484848484849
 40
0.4848484848484849
 40
0.5151515151515151
 40
0.5151515151515151
 40
0.5151515151515151
 40
0.5151515151515151
 40
0.5454545454545454
 40
0.5454545454545454
 40
0.5454545454545454
 40
0.5454545454545454
 40
0.5757575757575758
 40
0.5757575757575758
 40
0.5757575757575758
 40
0.5757575757575758
 40
0.6060606060606061
 40
0.6060606060606061
 40
0.6060606060606061
 40
0.6060606060606061
 40
0.6363636363636364
 40
0.6363636363636364
 40
0.6363636363636364
 40
0.6363636363636364
 40
0.6666666666666666
 40
0.6666666666666666
 40
0.6666666666666666
 40
0.6666666666666666
 40
0.696969696969697
 40
0.696969696969697
 40
0.696969696969697
 40
0.696969696969697
 40
0.7272727272727273
 40
0.7272727272727273
 40
0.7272727272727273
 40
0.7272727272727273
 40
0.7575757575757576
 40
0.7575757575757576
 40
0.7575757575757576
 40
0.7575757575757576
 40
0.7878787878787878
 40
0.7878787878787878
 40
0.7878787878787878
 40
0.7878787878787878
 40
0.8181818181818182
 40
0.8181818181818182
 40
0.8181818181818182
 40
0.8181818181818182
 40
0.8484848484848485
 40
0.8484848484848485
 40
0.8484848484848485
 40
0.8484848484848485
 40
0.8787878787878788
 40
0.8787878787878788
 40
0.8787878787878788
 40
0.8787878787878788
 40
0.9090909090909091
 40
0.9090909090909091
 40
0.9090909090909091
 40
0.9090909090909091
 40
0.9393939393939394
 40
0.9393939393939394
 40
0.9393939393939394
 40
0.9393939393939394
 40
1.0
 40
1.0
 40
1.0
 40
1.0
 10
-29.5179
 20
-61.6068
 30
0.0
 10
-28.6759
 20
-60.2673
 30
0.0
 10
-27.5373
 20
-59.1389
 30
0.0
 10
-26.1902
 20
-58.3092
 30
0.0
 10
-26.1902
 20
-58.3092
 30
0.0
 10
-24.8589
 20
-57.489
 30
0.0
 10
-23.4688
 20
-56.7673
 30
0.0
 10
-22.0319
 20
-56.1511
 30
0.0
 10
-22.0319
 20
-56.1511
 30
0.0
 10
-20.736
 20
-56.9277
 30
0.0
 10
-19.5309
 20
-57.8477
 30
0.0
 10
-18.4396
 20
-58.8924
 30
0.0
 10
-18.4396
 20
-58.8924
 30
0.0
 10
-17.351
 20
-59.935
 30
0.0
 10
-16.3068
 20
-61.0226
 30
0.0
 10
-15.31
 20
-62.1527
 30
0.0
 10
-15.31
 20
-62.1527
 30
0.0
 10
-14.5017
 20
-63.0687
 30
0.0
 10
-13.8066
 20
-64.0791
 30
0.0
 10
-13.2404
 20
-65.1612
 30
0.0
 10
-13.2404
 20
-65.1612
 30
0.0
 10
-12.6672
 20
-66.256
 30
0.0
 10
-12.3748
 20
-67.4764
 30
0.0
 10
-12.3889
 20
-68.7124
 30
0.0
 10
-12.3889
 20
-68.7124
 30
0.0
 10
-12.8538
 20
-69.8769
 30
0.0
 10
-13.4835
 20
-70.9692
 30
0.0
 10
-14.259
 20
-71.9549
 30
0.0
 10
-14.259
 20
-71.9549
 30
0.0
 10
-15.0321
 20
-72.9376
 30
0.0
 10
-15.8926
 20
-73.848
 30
0.0
 10
-16.8296
 20
-74.6757
 30
0.0
 10
-16.8296
 20
-74.6757
 30
0.0
 10
-17.9187
 20
-74.1942
 30
0.0
 10
-19.0636
 20
-73.8513
 30
0.0
 10
-20.2383
 20
-73.6558
 30
0.0
 10
-20.2383
 20
-73.6558
 30
0.0
 10
-21.4082
 20
-73.461
 30
0.0
 10
-22.5853
 20
-73.3112
 30
0.0
 10
-23.7674
 20
-73.2075
 30
0.0
 10
-23.7674
 20
-73.2075
 30
0.0
 10
-24.7185
 20
-73.124
 30
0.0
 10
-25.675
 20
-73.2785
 30
0.0
 10
-26.5512
 20
-73.6577
 30
0.0
 10
-26.5512
 20
-73.6577
 30
0.0
 10
-27.4389
 20
-74.0414
 30
0.0
 10
-28.171
 20
-74.7127
 30
0.0
 10
-28.6296
 20
-75.5636
 30
0.0
 10
-28.6296
 20
-75.5636
 30
0.0
 10
-27.6083
 20
-75.5732
 30
0.0
 10
-26.5944
 20
-75.7472
 30
0.0
 10
-25.6283
 20
-76.0787
 30
0.0
 10
-25.6283
 20
-76.0787
 30
0.0
 10
-24.6676
 20
-76.4085
 30
0.0
 10
-23.7238
 20
-76.7852
 30
0.0
 10
-22.7997
 20
-77.2074
 30
0.0
 10
-22.7997
 20
-77.2074
 30
0.0
 10
-21.6437
 20
-77.7358
 30
0.0
 10
-20.7016
 20
-78.6433
 30
0.0
 10
-20.1295
 20
-79.7784
 30
0.0
 10
-20.1295
 20
-79.7784
 30
0.0
 10
-19.561
 20
-80.9059
 30
0.0
 10
-19.34
 20
-82.1773
 30
0.0
 10
-19.4943
 20
-83.4304
 30
0.0
 10
-19.4943
 20
-83.4304
 30
0.0
 10
-22.1746
 20
-83.8139
 30
0.0
 10
-24.7725
 20
-84.6377
 30
0.0
 10
-27.1839
 20
-85.8696
 30
0.0
 10
-27.1839
 20
-85.8696
 30
0.0
 10
-29.5992
 20
-87.1039
 30
0.0
 10
-31.766
 20
-88.7707
 30
0.0
 10
-33.5778
 20
-90.7893
 30
0.0
 10
-33.5778
 20
-90.7893
 30
0.0
 10
-35.911
 20
-90.3616
 30
0.0
 10
-38.0173
 20
-89.1165
 30
0.0
 10
-39.5174
 20
-87.2787
 30
0.0
 10
-39.5174
 20
-87.2787
 30
0.0
 10
-40.6351
 20
-85.9095
 30
0.0
 10
-40.9762
 20
-84.0635
 30
0.0
 10
-40.4233
 20
-82.3849
 30
0.0
 10
-40.4233
 20
-82.3849
 30
0.0
 10
-39.6494
 20
-80.0366
 30
0.0
 10
-38.9076
 20
-77.6783
 30
0.0
 10
-38.1981
 20
-75.3097
 30
0.0
 10
-38.1981
 20
-75.3097
 30
0.0
 10
-37.484
 20
-72.9275
 30
0.0
 10
-36.4062
 20
-70.6692
 30
0.0
 10
-35.0034
 20
-68.6158
 30
0.0
 10
-35.0034
 20
-68.6158
 30
0.0
 10
-34.0069
 20
-67.1578
 30
0.0
 10
-32.9381
 20
-65.7499
 30
0.0
 10
-31.8016
 20
-64.3983
 30
0.0
 10
-31.8016
 20
-64.3983
 30
0.0
 10
-31.6383
 20
-64.5823
 30
0.0
 10
-31.4603
 20
-64.7522
 30
0.0
 10
-31.2694
 20
-64.9073
 30
0.0
 10
-31.2694
 20
-64.9073
 30
0.0
 10
-28.4275
 20
-67.2108
 30
0.0
 10
-24.9248
 20
-68.5444
 30
0.0
 10
-21.2707
 20
-68.7124
 30
0.0
 10
-21.2707
 20
-68.7124
 30
0.0
 10
-20.4559
 20
-68.7498
 30
0.0
 10
-19.6396
 20
-68.7201
 30
0.0
 10
-18.8295
 20
-68.6238
 30
0.0
 10
-18.8295
 20
-68.6238
 30
0.0
 10
-18.0189
 20
-68.5276
 30
0.0
 10
-17.2207
 20
-68.3446
 30
0.0
 10
-16.4492
 20
-68.0778
 30
0.0
 10
-16.4492
 20
-68.0778
 30
0.0
 10
-16.5202
 20
-67.7666
 30
0.0
 10
-16.636
 20
-67.4674
 30
0.0
 10
-16.7922
 20
-67.1891
 30
0.0
 10
-16.7922
 20
-67.1891
 30
0.0
 10
-17.5143
 20
-65.9034
 30
0.0
 10
-18.3936
 20
-64.7135
 30
0.0
 10
-19.41
 20
-63.6459
 30
0.0
 10
-19.41
 20
-63.6459
 30
0.0
 10
-20.6728
 20
-62.3197
 30
0.0
 10
-22.4526
 20
-61.6154
 30
0.0
 10
-24.281
 20
-61.7195
 30
0.0
 10
-24.281
 20
-61.7195
 30
0.0
 10
-26.0267
 20
-61.8186
 30
0.0
 10
-27.7777
 20
-61.7809
 30
0.0
 10
-29.5177
 20
-61.607
 30
0.0
 10
-29.5177
 20
-61.607
 30
0.0
 10
-29.5177
 20
-61.607
 30
0.0
 10
-29.5179
 20
-61.6068
 30
0.0
 10
-29.5179
 20
-61.6068
 30
0.0
  0
SPLINE
  5
8F
330
1F
100
AcDbEntity
  8
layer 1
 62
     7
100
AcDbSpline
210
0.0
220
0.0
230
1.0
 70
    11
 71
     3
 72
    36
 73
    32
 74
     0
 42
0.0000000001
 43
0.0000000001
 12
1.0
 22
0.0
 32
0.0
 13
1.0
 23
0.0
 33
0.0
 40
0.0
 40
0.0
 40
0.0
 40
0.0
 40
0.1111111111111111
 40
0.1111111111111111
 40
0.1111111111111111
 40
0.1111111111111111
 40
0.2222222222222222
 40
0.2222222222222222
 40
0.2222222222222222
 40
0.2222222222222222
 40
0.3333333333333333
 40
0.3333333333333333
 40
0.3333333333333333
 40
0.3333333333333333
 40
0.4444444444444444
 40
0.4444444444444444
 40
0.4444444444444444
 40
0.4444444444444444
 40
0.5555555555555556
 40
0.5555555555555556
 40
0.5555555555555556
 40
0.5555555555555556
 40
0.6666666666666666
 40
0.6666666666666666
 40
0.6666666666666666
 40
0.6666666666666666
 40
0.7777777777777778
 40
0.7777777777777778
 40
0.7777777777777778
 40
0.7777777777777778
 40
1.0
 40
1.0
 40
1.0
 40
1.0
 10
-27.2496
 20
-93.8655
 30
0.0
 10
-29.1105
 20
-94.7213
 30
0.0
 10
-30.9053
 20
-95.7146
 30
0.0
 10
-32.6185
 20
-96.8374
 30
0.0
 10
-32.6185
 20
-96.8374
 30
0.0
 10
-34.7452
 20
-98.2802
 30
0.0
 10
-36.7508
 20
-99.8923
 30
0.0
 10
-38.6178
 20
-101.6581
 30
0.0
 10
-38.6178
 20
-101.6581
 30
0.0
 10
-40.4824
 20
-103.4228
 30
0.0
 10
-42.2556
 20
-105.2808
 30
0.0
 10
-43.9309
 20
-107.2259
 30
0.0
 10
-43.9309
 20
-107.2259
 30
0.0
 10
-43.9309
 20
-107.2259
 30
0.0
 10
-37.4119
 20
-107.2259
 30
0.0
 10
-37.4119
 20
-107.2259
 30
0.0
 10
-37.4119
 20
-107.2259
 30
0.0
 10
-37.4119
 20
-107.2259
 30
0.0
 10
-30.893
 20
-107.2259
 30
0.0
 10
-30.893
 20
-107.2259
 30
0.0
 10
-30.893
 20
-107.2259
 30
0.0
 10
-30.6553
 20
-104.703
 30
0.0
 10
-29.8629
 20
-102.2627
 30
0.0
 10
-28.5736
 20
-100.0812
 30
0.0
 10
-28.5736
 20
-100.0812
 30
0.0
 10
-27.296
 20
-97.9195
 30
0.0
 10
-25.7916
 20
-95.8998
 30
0.0
 10
-24.0858
 20
-94.0573
 30
0.0
 10
-24.0858
 20
-94.0573
 30
0.0
 10
-25.1081
 20
-93.7297
 30
0.0
 10
-26.1953
 20
-93.6638
 30
0.0
 10
-27.2496
 20
-93.8655
 30
0.0
  0
SPLINE
  5
90
330
1F
100
AcDbEntity
  8
layer 1
 62
     7
100
AcDbSpline
210
0.0
220
0.0
230
1.0
 70
    11
 71
     3
 72
    56
 73
    52
 74
     0
 42
0.0000000001
 43
0.0000000001
 12
1.0
 22
0.0
 32
0.0
 13
1.0
 23
0.0
 33
0.0
 40
0.0
 40
0.0
 40
0.0
 40
0.0
 40
0.0714285714285714
 40
0.0714285714285714
 40
0.0714285714285714
 40
0.0714285714285714
 40
0.1428571428571428
 40
0.1428571428571428
 40
0.1428571428571428
 40
0.1428571428571428
 40
0.2142857142857143
 40
0.2142857142857143
 40
0.2142857142857143
 40
0.2142857142857143
 40
0.2857142857142857
 40
0.2857142857142857
 40
0.2857142857142857
 40
0.2857142857142857
 40
0.3571428571428572
 40
0.3571428571428572
 40
0.3571428571428572
 40
0.3571428571428572
 40
0.4285714285714285
 40
0.4285714285714285
 40
0.4285714285714285
 40
0.4285714285714285
 40
0.5
 40
0.5
 40
0.5
 40
0.5
 40
0.5714285714285714
 40
0.5714285714285714
 40
0.5714285714285714
 40
0.5714285714285714
 40
0.6428571428571429
 40
0.6428571428571429
 40
0.6428571428571429
 40
0.6428571428571429
 40
0.7142857142857143
 40
0.7142857142857143
 40
0.7142857142857143
 40
0.7142857142857143
 40
0.7857142857142857
 40
0.7857142857142857
 40
0.7857142857142857
 40
0.7857142857142857
 40
0.8571428571428571
 40
0.8571428571428571
 40
0.8571428571428571
 40
0.8571428571428571
 40
1.0
 40
1.0
 40
1.0
 40
1.0
 10
-21.2097
 20
-93.1944
 30
0.0
 10
-19.6619
 20
-93.0304
 30
0.0
 10
-18.1016
 20
-93.0173
 30
0.0
 10
-16.5515
 20
-93.1551
 30
0.0
 10
-16.5515
 20
-93.1551
 30
0.0
 10
-14.9871
 20
-93.2942
 30
0.0
 10
-13.47
 20
-93.7653
 30
0.0
 10
-12.102
 20
-94.5367
 30
0.0
 10
-12.102
 20
-94.5367
 30
0.0
 10
-13.2437
 20
-94.8699
 30
0.0
 10
-14.2547
 20
-95.5455
 30
0.0
 10
-14.9994
 20
-96.4725
 30
0.0
 10
-14.9994
 20
-96.4725
 30
0.0
 10
-15.7312
 20
-97.3833
 30
0.0
 10
-16.3199
 20
-98.4001
 30
0.0
 10
-16.7459
 20
-99.488
 30
0.0
 10
-16.7459
 20
-99.488
 30
0.0
 10
-16.8957
 20
-99.8716
 30
0.0
 10
-17.0099
 20
-100.2678
 30
0.0
 10
-17.0872
 20
-100.6722
 30
0.0
 10
-17.0872
 20
-100.6722
 30
0.0
 10
-17.3745
 20
-100.7055
 30
0.0
 10
-17.6616
 20
-100.7393
 30
0.0
 10
-17.9485
 20
-100.7741
 30
0.0
 10
-17.9485
 20
-100.7741
 30
0.0
 10
-18.2362
 20
-100.8086
 30
0.0
 10
-18.5244
 20
-100.8387
 30
0.0
 10
-18.8129
 20
-100.8641
 30
0.0
 10
-18.8129
 20
-100.8641
 30
0.0
 10
-19.4876
 20
-100.9175
 30
0.0
 10
-20.1594
 20
-100.9987
 30
0.0
 10
-20.8273
 20
-101.1076
 30
0.0
 10
-20.8273
 20
-101.1076
 30
0.0
 10
-21.5058
 20
-101.2179
 30
0.0
 10
-22.1443
 20
-101.4997
 30
0.0
 10
-22.6833
 20
-101.9267
 30
0.0
 10
-22.6833
 20
-101.9267
 30
0.0
 10
-23.1191
 20
-102.272
 30
0.0
 10
-23.5243
 20
-102.654
 30
0.0
 10
-23.8943
 20
-103.069
 30
0.0
 10
-23.8943
 20
-103.069
 30
0.0
 10
-24.0332
 20
-102.6209
 30
0.0
 10
-24.1003
 20
-102.1533
 30
0.0
 10
-24.0922
 20
-101.6843
 30
0.0
 10
-24.0922
 20
-101.6843
 30
0.0
 10
-24.0463
 20
-98.879
 30
0.0
 10
-23.2098
 20
-96.1425
 30
0.0
 10
-21.6802
 20
-93.7904
 30
0.0
 10
-21.6802
 20
-93.7904
 30
0.0
 10
-21.5422
 20
-93.5778
 30
0.0
 10
-21.3845
 20
-93.3783
 30
0.0
 10
-21.2097
 20
-93.1944
 30
0.0
  0
SPLINE
  5
91
330
1F
100
AcDbEntity
  8
layer 1
 62
     7
100
AcDbSpline
210
0.0
220
0.0
230
1.0
 70
    11
 71
     3
 72
    76
 73
    72
 74
     0
 42
0.0000000001
 43
0.0000000001
 12
1.0
 22
0.0
 32
0.0
 13
1.0
 23
0.0
 33
0.0
 40
0.0
 40
0.0
 40
0.0
 40
0.0
 40
0.0526315789473684
 40
0.0526315789473684
 40
0.0526315789473684
 40
0.0526315789473684
 40
0.1052631578947368
 40
0.1052631578947368
 40
0.1052631578947368
 40
0.1052631578947368
 40
0.1578947368421053
 40
0.1578947368421053
 40
0.1578947368421053
 40
0.1578947368421053
 40
0.2105263157894737
 40
0.2105263157894737
 40
0.2105263157894737
 40
0.2105263157894737
 40
0.2631578947368421
 40
0.2631578947368421
 40
0.2631578947368421
 40
0.2631578947368421
 40
0.3157894736842105
 40
0.3157894736842105
 40
0.3157894736842105
 40
0.3157894736842105
 40
0.3684210526315789
 40
0.3684210526315789
 40
0.3684210526315789
 40
0.3684210526315789
 40
0.4210526315789473
 40
0.4210526315789473
 40
0.4210526315789473
 40
0.4210526315789473
 40
0.4736842105263158
 40
0.4736842105263158
 40
0.4736842105263158
 40
0.4736842105263158
 40
0.5263157894736842
 40
0.5263157894736842
 40
0.5263157894736842
 40
0.5263157894736842
 40
0.5789473684210527
 40
0.5789473684210527
 40
0.5789473684210527
 40
0.5789473684210527
 40
0.631578947368421
 40
0.631578947368421
 40
0.631578947368421
 40
0.631578947368421
 40
0.6842105263157895
 40
0.6842105263157895
 40
0.6842105263157895
 40
0.6842105263157895
 40
0.7368421052631579
 40
0.7368421052631579
 40
0.7368421052631579
 40
0.7368421052631579
 40
0.7894736842105263
 40
0.7894736842105263
 40
0.7894736842105263
 40
0.7894736842105263
 40
0.8421052631578947
 40
0.8421052631578947
 40
0.8421052631578947
 40
0.8421052631578947
 40
0.8947368421052632
 40
0.8947368421052632
 40
0.8947368421052632
 40
0.8947368421052632
 40
1.0
 40
1.0
 40
1.0
 40
1.0
 10
1.7312
 20
105.9996
 30
0.0
 10
1.7312
 20
105.9996
 30
0.0
 10
1.7312
 20
89.2758
 30
0.0
 10
1.7312
 20
89.2758
 30
0.0
 10
1.7312
 20
89.2758
 30
0.0
 10
1.3379
 20
90.1256
 30
0.0
 10
0.7598
 20
90.876
 30
0.0
 10
0.0385
 20
91.4733
 30
0.0
 10
0.0385
 20
91.4733
 30
0.0
 10
-0.6871
 20
92.0735
 30
0.0
 10
-1.5613
 20
92.466
 30
0.0
 10
-2.4922
 20
92.6084
 30
0.0
 10
-2.4922
 20
92.6084
 30
0.0
 10
-3.217
 20
92.7189
 30
0.0
 10
-3.9545
 20
92.7193
 30
0.0
 10
-4.6793
 20
92.6084
 30
0.0
 10
-4.6793
 20
92.6084
 30
0.0
 10
-4.3318
 20
93.2409
 30
0.0
 10
-3.8522
 20
93.7912
 30
0.0
 10
-3.2731
 20
94.2227
 30
0.0
 10
-3.2731
 20
94.2227
 30
0.0
 10
-2.9072
 20
94.4896
 30
0.0
 10
-2.5063
 20
94.7059
 30
0.0
 10
-2.0819
 20
94.8639
 30
0.0
 10
-2.0819
 20
94.8639
 30
0.0
 10
-1.6581
 20
95.0222
 30
0.0
 10
-1.22
 20
95.1385
 30
0.0
 10
-0.7737
 20
95.2119
 30
0.0
 10
-0.7737
 20
95.2119
 30
0.0
 10
-2.1329
 20
95.5649
 30
0.0
 10
-3.5471
 20
95.6531
 30
0.0
 10
-4.9394
 20
95.4724
 30
0.0
 10
-4.9394
 20
95.4724
 30
0.0
 10
-6.3071
 20
95.2784
 30
0.0
 10
-7.6268
 20
94.8346
 30
0.0
 10
-8.8337
 20
94.1634
 30
0.0
 10
-8.8337
 20
94.1634
 30
0.0
 10
-10.0357
 20
93.4949
 30
0.0
 10
-11.1472
 20
92.6761
 30
0.0
 10
-12.1413
 20
91.726
 30
0.0
 10
-12.1413
 20
91.726
 30
0.0
 10
-12.8313
 20
91.0665
 30
0.0
 10
-13.4215
 20
90.3108
 30
0.0
 10
-13.894
 20
89.4819
 30
0.0
 10
-13.894
 20
89.4819
 30
0.0
 10
-14.3734
 20
88.641
 30
0.0
 10
-14.6102
 20
87.6848
 30
0.0
 10
-14.5783
 20
86.7177
 30
0.0
 10
-14.5783
 20
86.7177
 30
0.0
 10
-15.6986
 20
87.543
 30
0.0
 10
-16.9686
 20
88.1419
 30
0.0
 10
-18.3185
 20
88.4806
 30
0.0
 10
-18.3185
 20
88.4806
 30
0.0
 10
-22.999
 20
89.6564
 30
0.0
 10
-27.8179
 20
90.1821
 30
0.0
 10
-32.6422
 20
90.0421
 30
0.0
 10
-32.6422
 20
90.0421
 30
0.0
 10
-30.5875
 20
91.4997
 30
0.0
 10
-28.4764
 20
92.8763
 30
0.0
 10
-26.3144
 20
94.1689
 30
0.0
 10
-26.3144
 20
94.1689
 30
0.0
 10
-21.5392
 20
97.0239
 30
0.0
 10
-16.5749
 20
99.5521
 30
0.0
 10
-11.4577
 20
101.7349
 30
0.0
 10
-11.4577
 20
101.7349
 30
0.0
 10
-7.1788
 20
103.4962
 30
0.0
 10
-2.769
 20
104.9222
 30
0.0
 10
1.7312
 20
105.9994
 30
0.0
 10
1.7312
 20
105.9994
 30
0.0
 10
1.7312
 20
105.9994
 30
0.0
 10
1.7312
 20
105.9996
 30
0.0
 10
1.7312
 20
105.9996
 30
0.0
  0
SPLINE
  5
92
330
1F
100
AcDbEntity
  8
layer 1
 62
     7
100
AcDbSpline
210
0.0
220
0.0
230
1.0
 70
    11
 71
     3
 72
    48
 73
    44
 74
     0
 42
0.0000000001
 43
0.0000000001
 12
1.0
 22
0.0
 32
0.0
 13
1.0
 23
0.0
 33
0.0
 40
0.0
 40
0.0
 40
0.0
 40
0.0
 40
0.0833333333333333
 40
0.0833333333333333
 40
0.0833333333333333
 40
0.0833333333333333
 40
0.1666666666666667
 40
0.1666666666666667
 40
0.1666666666666667
 40
0.1666666666666667
 40
0.25
 40
0.25
 40
0.25
 40
0.25
 40
0.3333333333333333
 40
0.3333333333333333
 40
0.3333333333333333
 40
0.3333333333333333
 40
0.4166666666666667
 40
0.4166666666666667
 40
0.4166666666666667
 40
0.4166666666666667
 40
0.5
 40
0.5
 40
0.5
 40
0.5
 40
0.5833333333333334
 40
0.5833333333333334
 40
0.5833333333333334
 40
0.5833333333333334
 40
0.6666666666666666
 40
0.6666666666666666
 40
0.6666666666666666
 40
0.6666666666666666
 40
0.75
 40
0.75
 40
0.75
 40
0.75
 40
0.8333333333333334
 40
0.8333333333333334
 40
0.8333333333333334
 40
0.8333333333333334
 40
1.0
 40
1.0
 40
1.0
 40
1.0
 10
1.7312
 20
71.8225
 30
0.0
 10
0.6368
 20
73.8522
 30
0.0
 10
-0.6646
 20
75.763
 30
0.0
 10
-2.1531
 20
77.5243
 30
0.0
 10
-2.1531
 20
77.5243
 30
0.0
 10
-3.2976
 20
78.8051
 30
0.0
 10
-4.543
 20
79.9915
 30
0.0
 10
-5.8784
 20
81.0722
 30
0.0
 10
-5.8784
 20
81.0722
 30
0.0
 10
-7.2507
 20
82.1829
 30
0.0
 10
-8.7033
 20
83.1907
 30
0.0
 10
-10.2243
 20
84.0878
 30
0.0
 10
-10.2243
 20
84.0878
 30
0.0
 10
-10.2186
 20
86.43
 30
0.0
 10
-9.4312
 20
88.7045
 30
0.0
 10
-7.9892
 20
90.5504
 30
0.0
 10
-7.9892
 20
90.5504
 30
0.0
 10
-7.7184
 20
90.8975
 30
0.0
 10
-7.3951
 20
91.2006
 30
0.0
 10
-7.0311
 20
91.4496
 30
0.0
 10
-7.0311
 20
91.4496
 30
0.0
 10
-6.6503
 20
90.7197
 30
0.0
 10
-6.1536
 20
90.0565
 30
0.0
 10
-5.5602
 20
89.4856
 30
0.0
 10
-5.5602
 20
89.4856
 30
0.0
 10
-4.9703
 20
88.9179
 30
0.0
 10
-4.3416
 20
88.3918
 30
0.0
 10
-3.6788
 20
87.9107
 30
0.0
 10
-3.6788
 20
87.9107
 30
0.0
 10
-2.8941
 20
87.3416
 30
0.0
 10
-1.944
 20
87.048
 30
0.0
 10
-0.9751
 20
87.0756
 30
0.0
 10
-0.9751
 20
87.0756
 30
0.0
 10
-0.0149
 20
87.103
 30
0.0
 10
0.9198
 20
87.3879
 30
0.0
 10
1.7312
 20
87.9017
 30
0.0
 10
1.7312
 20
87.9017
 30
0.0
 10
1.7312
 20
87.9017
 30
0.0
 10
1.7312
 20
71.8221
 30
0.0
 10
1.7312
 20
71.8221
 30
0.0
 10
1.7312
 20
71.8221
 30
0.0
 10
1.7312
 20
71.8221
 30
0.0
 10
1.7312
 20
71.8225
 30
0.0
 10
1.7312
 20
71.8225
 30
0.0
  0
SPLINE
  5
93
330
1F
100
AcDbEntity
  8
layer 1
 62
     7
100
AcDbSpline
210
0.0
220
0.0
230
1.0
 70
    11
 71
     3
 72
    40
 73
    36
 74
     0
 42
0.0000000001
 43
0.0000000001
 12
1.0
 22
0.0
 32
0.0
 13
1.0
 23
0.0
 33
0.0
 40
0.0
 40
0.0
 40
0.0
 40
0.0
 40
0.1
 40
0.1
 40
0.1
 40
0.1
 40
0.2
 40
0.2
 40
0.2
 40
0.2
 40
0.3
 40
0.3
 40
0.3
 40
0.3
 40
0.4
 40
0.4
 40
0.4
 40
0.4
 40
0.5
 40
0.5
 40
0.5
 40
0.5
 40
0.6
 40
0.6
 40
0.6
 40
0.6
 40
0.7
 40
0.7
 40
0.7
 40
0.7
 40
0.8
 40
0.8
 40
0.8
 40
0.8
 40
1.0
 40
1.0
 40
1.0
 40
1.0
 10
1.7312
 20
64.1431
 30
0.0
 10
-3.5929
 20
62.8531
 30
0.0
 10
-8.3589
 20
59.8892
 30
0.0
 10
-11.8688
 20
55.6835
 30
0.0
 10
-11.8688
 20
55.6835
 30
0.0
 10
-12.8489
 20
54.5085
 30
0.0
 10
-13.486
 20
53.0869
 30
0.0
 10
-13.7094
 20
51.5733
 30
0.0
 10
-13.7094
 20
51.5733
 30
0.0
 10
-13.7802
 20
51.0946
 30
0.0
 10
-13.7139
 20
50.6062
 30
0.0
 10
-13.5179
 20
50.164
 30
0.0
 10
-13.5179
 20
50.164
 30
0.0
 10
-13.3249
 20
49.7283
 30
0.0
 10
-13.0716
 20
49.3221
 30
0.0
 10
-12.7655
 20
48.9567
 30
0.0
 10
-12.7655
 20
48.9567
 30
0.0
 10
-11.2557
 20
49.4805
 30
0.0
 10
-9.6925
 20
49.8357
 30
0.0
 10
-8.1046
 20
50.016
 30
0.0
 10
-8.1046
 20
50.016
 30
0.0
 10
-6.5205
 20
50.1955
 30
0.0
 10
-4.9257
 20
50.2761
 30
0.0
 10
-3.3312
 20
50.2565
 30
0.0
 10
-3.3312
 20
50.2565
 30
0.0
 10
-1.6295
 20
50.2227
 30
0.0
 10
0.0657
 20
50.0295
 30
0.0
 10
1.7312
 20
49.679
 30
0.0
 10
1.7312
 20
49.679
 30
0.0
 10
1.7312
 20
49.679
 30
0.0
 10
1.7312
 20
64.1431
 30
0.0
 10
1.7312
 20
64.1431
 30
0.0
 10
1.7312
 20
64.1431
 30
0.0
 10
1.7312
 20
64.1431
 30
0.0
 10
1.7312
 20
64.1431
 30
0.0
 10
1.7312
 20
64.1431
 30
0.0
  0
SPLINE
  5
94
330
1F
100
AcDbEntity
  8
layer 1
 62
     7
100
AcDbSpline
210
0.0
220
0.0
230
1.0
 70
    11
 71
     3
 72
   156
 73
   152
 74
     0
 42
0.0000000001
 43
0.0000000001
 12
1.0
 22
0.0
 32
0.0
 13
1.0
 23
0.0
 33
0.0
 40
0.0
 40
0.0
 40
0.0
 40
0.0
 40
0.0256410256410256
 40
0.0256410256410256
 40
0.0256410256410256
 40
0.0256410256410256
 40
0.0512820512820513
 40
0.0512820512820513
 40
0.0512820512820513
 40
0.0512820512820513
 40
0.0769230769230769
 40
0.0769230769230769
 40
0.0769230769230769
 40
0.0769230769230769
 40
0.1025641025641026
 40
0.1025641025641026
 40
0.1025641025641026
 40
0.1025641025641026
 40
0.1282051282051282
 40
0.1282051282051282
 40
0.1282051282051282
 40
0.1282051282051282
 40
0.1538461538461539
 40
0.1538461538461539
 40
0.1538461538461539
 40
0.1538461538461539
 40
0.1794871794871795
 40
0.1794871794871795
 40
0.1794871794871795
 40
0.1794871794871795
 40
0.2051282051282051
 40
0.2051282051282051
 40
0.2051282051282051
 40
0.2051282051282051
 40
0.2307692307692308
 40
0.2307692307692308
 40
0.2307692307692308
 40
0.2307692307692308
 40
0.2564102564102564
 40
0.2564102564102564
 40
0.2564102564102564
 40
0.2564102564102564
 40
0.282051282051282
 40
0.282051282051282
 40
0.282051282051282
 40
0.282051282051282
 40
0.3076923076923077
 40
0.3076923076923077
 40
0.3076923076923077
 40
0.3076923076923077
 40
0.3333333333333333
 40
0.3333333333333333
 40
0.3333333333333333
 40
0.3333333333333333
 40
0.358974358974359
 40
0.358974358974359
 40
0.358974358974359
 40
0.358974358974359
 40
0.3846153846153846
 40
0.3846153846153846
 40
0.3846153846153846
 40
0.3846153846153846
 40
0.4102564102564102
 40
0.4102564102564102
 40
0.4102564102564102
 40
0.4102564102564102
 40
0.4358974358974359
 40
0.4358974358974359
 40
0.4358974358974359
 40
0.4358974358974359
 40
0.4615384615384616
 40
0.4615384615384616
 40
0.4615384615384616
 40
0.4615384615384616
 40
0.4871794871794872
 40
0.4871794871794872
 40
0.4871794871794872
 40
0.4871794871794872
 40
0.5128205128205128
 40
0.5128205128205128
 40
0.5128205128205128
 40
0.5128205128205128
 40
0.5384615384615384
 40
0.5384615384615384
 40
0.5384615384615384
 40
0.5384615384615384
 40
0.5641025641025641
 40
0.5641025641025641
 40
0.5641025641025641
 40
0.5641025641025641
 40
0.5897435897435898
 40
0.5897435897435898
 40
0.5897435897435898
 40
0.5897435897435898
 40
0.6153846153846154
 40
0.6153846153846154
 40
0.6153846153846154
 40
0.6153846153846154
 40
0.6410256410256411
 40
0.6410256410256411
 40
0.6410256410256411
 40
0.6410256410256411
 40
0.6666666666666666
 40
0.6666666666666666
 40
0.6666666666666666
 40
0.6666666666666666
 40
0.6923076923076923
 40
0.6923076923076923
 40
0.6923076923076923
 40
0.6923076923076923
 40
0.717948717948718
 40
0.717948717948718
 40
0.717948717948718
 40
0.717948717948718
 40
0.7435897435897436
 40
0.7435897435897436
 40
0.7435897435897436
 40
0.7435897435897436
 40
0.7692307692307693
 40
0.7692307692307693
 40
0.7692307692307693
 40
0.7692307692307693
 40
0.7948717948717948
 40
0.7948717948717948
 40
0.7948717948717948
 40
0.7948717948717948
 40
0.8205128205128205
 40
0.8205128205128205
 40
0.8205128205128205
 40
0.8205128205128205
 40
0.8461538461538461
 40
0.8461538461538461
 40
0.8461538461538461
 40
0.8461538461538461
 40
0.8717948717948718
 40
0.8717948717948718
 40
0.8717948717948718
 40
0.8717948717948718
 40
0.8974358974358975
 40
0.8974358974358975
 40
0.8974358974358975
 40
0.8974358974358975
 40
0.9230769230769231
 40
0.9230769230769231
 40
0.9230769230769231
 40
0.9230769230769231
 40
0.9487179487179487
 40
0.9487179487179487
 40
0.9487179487179487
 40
0.9487179487179487
 40
1.0
 40
1.0
 40
1.0
 40
1.0
 10
1.7312
 20
36.6109
 30
0.0
 10
-2.4905
 20
37.1253
 30
0.0
 10
-6.7581
 20
36.1765
 30
0.0
 10
-10.3629
 20
33.921
 30
0.0
 10
-10.3629
 20
33.921
 30
0.0
 10
-10.9846
 20
33.5316
 30
0.0
 10
-11.5532
 20
33.064
 30
0.0
 10
-12.0544
 20
32.5289
 30
0.0
 10
-12.0544
 20
32.5289
 30
0.0
 10
-12.1978
 20
32.3761
 30
0.0
 10
-12.3234
 20
32.2075
 30
0.0
 10
-12.4288
 20
32.0264
 30
0.0
 10
-12.4288
 20
32.0264
 30
0.0
 10
-12.6901
 20
34.1553
 30
0.0
 10
-13.3644
 20
36.2113
 30
0.0
 10
-14.415
 20
38.0812
 30
0.0
 10
-14.415
 20
38.0812
 30
0.0
 10
-14.964
 20
39.0581
 30
0.0
 10
-15.7844
 20
39.8539
 30
0.0
 10
-16.7782
 20
40.372
 30
0.0
 10
-16.7782
 20
40.372
 30
0.0
 10
-16.5656
 20
39.8653
 30
0.0
 10
-16.3839
 20
39.3458
 30
0.0
 10
-16.2347
 20
38.8168
 30
0.0
 10
-16.2347
 20
38.8168
 30
0.0
 10
-15.2012
 20
35.1539
 30
0.0
 10
-14.6726
 20
31.3658
 30
0.0
 10
-14.6624
 20
27.5601
 30
0.0
 10
-14.6624
 20
27.5601
 30
0.0
 10
-14.6835
 20
25.7428
 30
0.0
 10
-14.8801
 20
23.932
 30
0.0
 10
-15.2501
 20
22.1529
 30
0.0
 10
-15.2501
 20
22.1529
 30
0.0
 10
-16.0428
 20
23.4225
 30
0.0
 10
-16.9907
 20
24.5878
 30
0.0
 10
-18.0725
 20
25.6225
 30
0.0
 10
-18.0725
 20
25.6225
 30
0.0
 10
-19.1511
 20
26.6542
 30
0.0
 10
-20.2967
 20
27.6129
 30
0.0
 10
-21.5024
 20
28.4928
 30
0.0
 10
-21.5024
 20
28.4928
 30
0.0
 10
-22.5904
 20
29.2868
 30
0.0
 10
-23.7774
 20
29.9356
 30
0.0
 10
-25.0341
 20
30.4216
 30
0.0
 10
-25.0341
 20
30.4216
 30
0.0
 10
-26.2979
 20
30.9109
 30
0.0
 10
-27.6482
 20
31.1374
 30
0.0
 10
-29.0027
 20
31.0861
 30
0.0
 10
-29.0027
 20
31.0861
 30
0.0
 10
-28.2994
 20
30.6316
 30
0.0
 10
-27.666
 20
30.0773
 30
0.0
 10
-27.1223
 20
29.4406
 30
0.0
 10
-27.1223
 20
29.4406
 30
0.0
 10
-26.5911
 20
28.8014
 30
0.0
 10
-26.1554
 20
28.0889
 30
0.0
 10
-25.8289
 20
27.325
 30
0.0
 10
-25.8289
 20
27.325
 30
0.0
 10
-26.3901
 20
27.8687
 30
0.0
 10
-27.1113
 20
28.217
 30
0.0
 10
-27.8862
 20
28.3176
 30
0.0
 10
-27.8862
 20
28.3176
 30
0.0
 10
-28.6478
 20
28.4169
 30
0.0
 10
-29.4211
 20
28.3729
 30
0.0
 10
-30.1666
 20
28.1883
 30
0.0
 10
-30.1666
 20
28.1883
 30
0.0
 10
-31.0039
 20
27.9812
 30
0.0
 10
-31.7005
 20
27.404
 30
0.0
 10
-32.0588
 20
26.6198
 30
0.0
 10
-32.0588
 20
26.6198
 30
0.0
 10
-32.3752
 20
25.9282
 30
0.0
 10
-32.4173
 20
25.1432
 30
0.0
 10
-32.1767
 20
24.4221
 30
0.0
 10
-32.1767
 20
24.4221
 30
0.0
 10
-31.943
 20
23.7216
 30
0.0
 10
-31.5996
 20
23.0631
 30
0.0
 10
-31.1591
 20
22.4703
 30
0.0
 10
-31.1591
 20
22.4703
 30
0.0
 10
-30.1993
 20
21.1789
 30
0.0
 10
-28.594
 20
20.5398
 30
0.0
 10
-27.009
 20
20.8194
 30
0.0
 10
-27.009
 20
20.8194
 30
0.0
 10
-25.4789
 20
21.0897
 30
0.0
 10
-24.1308
 20
21.9843
 30
0.0
 10
-23.2884
 20
23.2901
 30
0.0
 10
-23.2884
 20
23.2901
 30
0.0
 10
-23.0406
 20
23.674
 30
0.0
 10
-22.7979
 20
24.0615
 30
0.0
 10
-22.5611
 20
24.4522
 30
0.0
 10
-22.5611
 20
24.4522
 30
0.0
 10
-22.3235
 20
24.8436
 30
0.0
 10
-22.1193
 20
25.2539
 30
0.0
 10
-21.9501
 20
25.6795
 30
0.0
 10
-21.9501
 20
25.6795
 30
0.0
 10
-21.6542
 20
25.3714
 30
0.0
 10
-21.362
 20
25.0595
 30
0.0
 10
-21.0747
 20
24.7431
 30
0.0
 10
-21.0747
 20
24.7431
 30
0.0
 10
-20.7843
 20
24.4231
 30
0.0
 10
-20.4882
 20
24.1082
 30
0.0
 10
-20.187
 20
23.7984
 30
0.0
 10
-20.187
 20
23.7984
 30
0.0
 10
-19.2594
 20
22.8716
 30
0.0
 10
-18.3109
 20
21.9661
 30
0.0
 10
-17.3416
 20
21.0831
 30
0.0
 10
-17.3416
 20
21.0831
 30
0.0
 10
-16.3242
 20
20.157
 30
0.0
 10
-15.7715
 20
18.8252
 30
0.0
 10
-15.8324
 20
17.4511
 30
0.0
 10
-15.8324
 20
17.4511
 30
0.0
 10
-15.9241
 20
15.3795
 30
0.0
 10
-16.3915
 20
13.3413
 30
0.0
 10
-17.211
 20
11.4364
 30
0.0
 10
-17.211
 20
11.4364
 30
0.0
 10
-18.0279
 20
9.5375
 30
0.0
 10
-19.1094
 20
7.7633
 30
0.0
 10
-20.4221
 20
6.167
 30
0.0
 10
-20.4221
 20
6.167
 30
0.0
 10
-21.064
 20
7.9315
 30
0.0
 10
-22.0328
 20
9.5586
 30
0.0
 10
-23.2794
 20
10.9629
 30
0.0
 10
-23.2794
 20
10.9629
 30
0.0
 10
-27.366
 20
15.5686
 30
0.0
 10
-31.7936
 20
19.8588
 30
0.0
 10
-36.5257
 20
23.7984
 30
0.0
 10
-36.5257
 20
23.7984
 30
0.0
 10
-38.5184
 20
25.4375
 30
0.0
 10
-40.5978
 20
26.9677
 30
0.0
 10
-42.7555
 20
28.3829
 30
0.0
 10
-42.7555
 20
28.3829
 30
0.0
 10
-41.0012
 20
30.0867
 30
0.0
 10
-39.1572
 20
31.6957
 30
0.0
 10
-37.2309
 20
33.2022
 30
0.0
 10
-37.2309
 20
33.2022
 30
0.0
 10
-33.3895
 20
36.207
 30
0.0
 10
-29.2996
 20
38.8811
 30
0.0
 10
-25.0062
 20
41.1952
 30
0.0
 10
-25.0062
 20
41.1952
 30
0.0
 10
-19.5614
 20
44.0795
 30
0.0
 10
-13.7098
 20
46.1248
 30
0.0
 10
-7.6536
 20
47.2611
 30
0.0
 10
-7.6536
 20
47.2611
 30
0.0
 10
-4.5567
 20
47.842
 30
0.0
 10
-1.3825
 20
47.8922
 30
0.0
 10
1.7312
 20
47.4101
 30
0.0
 10
1.7312
 20
47.4101
 30
0.0
 10
1.7312
 20
47.4101
 30
0.0
 10
1.7312
 20
36.6109
 30
0.0
 10
1.7312
 20
36.6109
 30
0.0
 10
1.7312
 20
36.6109
 30
0.0
 10
1.7312
 20
36.6109
 30
0.0
 10
1.7312
 20
36.6109
 30
0.0
 10
1.7312
 20
36.6109
 30
0.0
  0
SPLINE
  5
95
330
1F
100
AcDbEntity
  8
layer 1
 62
     7
100
AcDbSpline
210
0.0
220
0.0
230
1.0
 70
    11
 71
     3
 72
    72
 73
    68
 74
     0
 42
0.0000000001
 43
0.0000000001
 12
1.0
 22
0.0
 32
0.0
 13
1.0
 23
0.0
 33
0.0
 40
0.0
 40
0.0
 40
0.0
 40
0.0
 40
0.0555555555555556
 40
0.0555555555555556
 40
0.0555555555555556
 40
0.0555555555555556
 40
0.1111111111111111
 40
0.1111111111111111
 40
0.1111111111111111
 40
0.1111111111111111
 40
0.1666666666666667
 40
0.1666666666666667
 40
0.1666666666666667
 40
0.1666666666666667
 40
0.2222222222222222
 40
0.2222222222222222
 40
0.2222222222222222
 40
0.2222222222222222
 40
0.2777777777777778
 40
0.2777777777777778
 40
0.2777777777777778
 40
0.2777777777777778
 40
0.3333333333333333
 40
0.3333333333333333
 40
0.3333333333333333
 40
0.3333333333333333
 40
0.3888888888888889
 40
0.3888888888888889
 40
0.3888888888888889
 40
0.3888888888888889
 40
0.4444444444444444
 40
0.4444444444444444
 40
0.4444444444444444
 40
0.4444444444444444
 40
0.5
 40
0.5
 40
0.5
 40
0.5
 40
0.5555555555555556
 40
0.5555555555555556
 40
0.5555555555555556
 40
0.5555555555555556
 40
0.6111111111111112
 40
0.6111111111111112
 40
0.6111111111111112
 40
0.6111111111111112
 40
0.6666666666666666
 40
0.6666666666666666
 40
0.6666666666666666
 40
0.6666666666666666
 40
0.7222222222222222
 40
0.7222222222222222
 40
0.7222222222222222
 40
0.7222222222222222
 40
0.7777777777777778
 40
0.7777777777777778
 40
0.7777777777777778
 40
0.7777777777777778
 40
0.8333333333333334
 40
0.8333333333333334
 40
0.8333333333333334
 40
0.8333333333333334
 40
0.8888888888888888
 40
0.8888888888888888
 40
0.8888888888888888
 40
0.8888888888888888
 40
1.0
 40
1.0
 40
1.0
 40
1.0
 10
1.7312
 20
10.284
 30
0.0
 10
1.0946
 20
10.6277
 30
0.0
 10
0.4441
 20
10.9441
 30
0.0
 10
-0.2194
 20
11.2324
 30
0.0
 10
-0.2194
 20
11.2324
 30
0.0
 10
-1.5628
 20
11.8019
 30
0.0
 10
-2.9336
 20
12.3029
 30
0.0
 10
-4.3283
 20
12.7336
 30
0.0
 10
-4.3283
 20
12.7336
 30
0.0
 10
-3.1089
 20
14.7717
 30
0.0
 10
-2.6289
 20
17.1659
 30
0.0
 10
-2.97
 20
19.5163
 30
0.0
 10
-2.97
 20
19.5163
 30
0.0
 10
-3.3125
 20
21.8798
 30
0.0
 10
-4.5295
 20
24.0267
 30
0.0
 10
-6.3822
 20
25.5336
 30
0.0
 10
-6.3822
 20
25.5336
 30
0.0
 10
-6.8803
 20
24.3212
 30
0.0
 10
-7.468
 20
23.1476
 30
0.0
 10
-8.1398
 20
22.0224
 30
0.0
 10
-8.1398
 20
22.0224
 30
0.0
 10
-9.1807
 20
20.2789
 30
0.0
 10
-9.4392
 20
18.1796
 30
0.0
 10
-8.8511
 20
16.2358
 30
0.0
 10
-8.8511
 20
16.2358
 30
0.0
 10
-8.5022
 20
15.0811
 30
0.0
 10
-8.0459
 20
13.9616
 30
0.0
 10
-7.4886
 20
12.8914
 30
0.0
 10
-7.4886
 20
12.8914
 30
0.0
 10
-8.5711
 20
13.0129
 30
0.0
 10
-9.6663
 20
12.8543
 30
0.0
 10
-10.6694
 20
12.4299
 30
0.0
 10
-10.6694
 20
12.4299
 30
0.0
 10
-11.6619
 20
12.0106
 30
0.0
 10
-12.5866
 20
11.4475
 30
0.0
 10
-13.4145
 20
10.7583
 30
0.0
 10
-13.4145
 20
10.7583
 30
0.0
 10
-12.4419
 20
13.3125
 30
0.0
 10
-11.8694
 20
16.0011
 30
0.0
 10
-11.7171
 20
18.7301
 30
0.0
 10
-11.7171
 20
18.7301
 30
0.0
 10
-11.5655
 20
21.4463
 30
0.0
 10
-11.6076
 20
24.1696
 30
0.0
 10
-11.843
 20
26.8799
 30
0.0
 10
-11.843
 20
26.8799
 30
0.0
 10
-11.8774
 20
27.2755
 30
0.0
 10
-11.9271
 20
27.67
 30
0.0
 10
-11.9924
 20
28.0621
 30
0.0
 10
-11.9924
 20
28.0621
 30
0.0
 10
-10.8166
 20
29.093
 30
0.0
 10
-9.563
 20
30.0324
 30
0.0
 10
-8.2433
 20
30.871
 30
0.0
 10
-8.2433
 20
30.871
 30
0.0
 10
-6.9232
 20
31.7102
 30
0.0
 10
-5.534
 20
32.4358
 30
0.0
 10
-4.0912
 20
33.0401
 30
0.0
 10
-4.0912
 20
33.0401
 30
0.0
 10
-2.227
 20
33.8001
 30
0.0
 10
-0.2679
 20
34.3051
 30
0.0
 10
1.7312
 20
34.5411
 30
0.0
 10
1.7312
 20
34.5411
 30
0.0
 10
1.7312
 20
34.5411
 30
0.0
 10
1.7312
 20
10.284
 30
0.0
 10
1.7312
 20
10.284
 30
0.0
 10
1.7312
 20
10.284
 30
0.0
 10
1.7312
 20
10.284
 30
0.0
 10
1.7312
 20
10.284
 30
0.0
 10
1.7312
 20
10.284
 30
0.0
  0
SPLINE
  5
96
330
1F
100
AcDbEntity
  8
layer 1
 62
     7
100
AcDbSpline
210
0.0
220
0.0
230
1.0
 70
    11
 71
     3
 72
    68
 73
    64
 74
     0
 42
0.0000000001
 43
0.0000000001
 12
1.0
 22
0.0
 32
0.0
 13
1.0
 23
0.0
 33
0.0
 40
0.0
 40
0.0
 40
0.0
 40
0.0
 40
0.0588235294117647
 40
0.0588235294117647
 40
0.0588235294117647
 40
0.0588235294117647
 40
0.1176470588235294
 40
0.1176470588235294
 40
0.1176470588235294
 40
0.1176470588235294
 40
0.1764705882352941
 40
0.1764705882352941
 40
0.1764705882352941
 40
0.1764705882352941
 40
0.2352941176470588
 40
0.2352941176470588
 40
0.2352941176470588
 40
0.2352941176470588
 40
0.2941176470588235
 40
0.2941176470588235
 40
0.2941176470588235
 40
0.2941176470588235
 40
0.3529411764705883
 40
0.3529411764705883
 40
0.3529411764705883
 40
0.3529411764705883
 40
0.4117647058823529
 40
0.4117647058823529
 40
0.4117647058823529
 40
0.4117647058823529
 40
0.4705882352941176
 40
0.4705882352941176
 40
0.4705882352941176
 40
0.4705882352941176
 40
0.5294117647058824
 40
0.5294117647058824
 40
0.5294117647058824
 40
0.5294117647058824
 40
0.5882352941176471
 40
0.5882352941176471
 40
0.5882352941176471
 40
0.5882352941176471
 40
0.6470588235294118
 40
0.6470588235294118
 40
0.6470588235294118
 40
0.6470588235294118
 40
0.7058823529411765
 40
0.7058823529411765
 40
0.7058823529411765
 40
0.7058823529411765
 40
0.7647058823529411
 40
0.7647058823529411
 40
0.7647058823529411
 40
0.7647058823529411
 40
0.8235294117647058
 40
0.8235294117647058
 40
0.8235294117647058
 40
0.8235294117647058
 40
0.8823529411764706
 40
0.8823529411764706
 40
0.8823529411764706
 40
0.8823529411764706
 40
1.0
 40
1.0
 40
1.0
 40
1.0
 10
1.7312
 20
-2.4422
 30
0.0
 10
1.7312
 20
-2.4422
 30
0.0
 10
1.7312
 20
-21.1362
 30
0.0
 10
1.7312
 20
-21.1362
 30
0.0
 10
1.7312
 20
-21.1362
 30
0.0
 10
-2.5262
 20
-21.8778
 30
0.0
 10
-6.7409
 20
-22.8461
 30
0.0
 10
-10.8955
 20
-24.0373
 30
0.0
 10
-10.8955
 20
-24.0373
 30
0.0
 10
-15.0583
 20
-25.2315
 30
0.0
 10
-19.0832
 20
-26.8597
 30
0.0
 10
-22.9053
 20
-28.8964
 30
0.0
 10
-22.9053
 20
-28.8964
 30
0.0
 10
-23.8003
 20
-27.1184
 30
0.0
 10
-24.1562
 20
-25.1163
 30
0.0
 10
-23.9297
 20
-23.1389
 30
0.0
 10
-23.9297
 20
-23.1389
 30
0.0
 10
-23.7074
 20
-21.1968
 30
0.0
 10
-23.2808
 20
-19.2833
 30
0.0
 10
-22.6579
 20
-17.4308
 30
0.0
 10
-22.6579
 20
-17.4308
 30
0.0
 10
-22.351
 20
-16.5183
 30
0.0
 10
-21.6106
 20
-15.817
 30
0.0
 10
-20.683
 20
-15.559
 30
0.0
 10
-20.683
 20
-15.559
 30
0.0
 10
-18.792
 20
-15.0333
 30
0.0
 10
-16.8184
 20
-14.8635
 30
0.0
 10
-14.8652
 20
-15.0583
 30
0.0
 10
-14.8652
 20
-15.0583
 30
0.0
 10
-13.2535
 20
-15.2191
 30
0.0
 10
-11.6437
 20
-15.4057
 30
0.0
 10
-10.0383
 20
-15.6171
 30
0.0
 10
-10.0383
 20
-15.6171
 30
0.0
 10
-8.4308
 20
-15.8289
 30
0.0
 10
-6.8379
 20
-16.1408
 30
0.0
 10
-5.2692
 20
-16.5508
 30
0.0
 10
-5.2692
 20
-16.5508
 30
0.0
 10
-6.1659
 20
-15.4107
 30
0.0
 10
-7.1839
 20
-14.3717
 30
0.0
 10
-8.3057
 20
-13.4525
 30
0.0
 10
-8.3057
 20
-13.4525
 30
0.0
 10
-9.4361
 20
-12.5258
 30
0.0
 10
-10.7427
 20
-11.8403
 30
0.0
 10
-12.1473
 20
-11.4365
 30
0.0
 10
-12.1473
 20
-11.4365
 30
0.0
 10
-13.9957
 20
-10.9348
 30
0.0
 10
-15.943
 20
-10.9348
 30
0.0
 10
-17.791
 20
-11.4365
 30
0.0
 10
-17.791
 20
-11.4365
 30
0.0
 10
-15.5366
 20
-8.8013
 30
0.0
 10
-12.7779
 20
-6.6426
 30
0.0
 10
-9.6784
 20
-5.0875
 30
0.0
 10
-9.6784
 20
-5.0875
 30
0.0
 10
-7.9077
 20
-4.2243
 30
0.0
 10
-6.0394
 20
-3.5756
 30
0.0
 10
-4.1145
 20
-3.1566
 30
0.0
 10
-4.1145
 20
-3.1566
 30
0.0
 10
-2.1926
 20
-2.7379
 30
0.0
 10
-0.2353
 20
-2.4989
 30
0.0
 10
1.7312
 20
-2.4422
 30
0.0
 10
1.7312
 20
-2.4422
 30
0.0
 10
1.7312
 20
-2.4422
 30
0.0
 10
1.7312
 20
-2.4422
 30
0.0
 10
1.7312
 20
-2.4422
 30
0.0
  0
SPLINE
  5
97
330
1F
100
AcDbEntity
  8
layer 1
 62
     7
100
AcDbSpline
210
0.0
220
0.0
230
1.0
 70
    11
 71
     3
 72
    60
 73
    56
 74
     0
 42
0.0000000001
 43
0.0000000001
 12
1.0
 22
0.0
 32
0.0
 13
1.0
 23
0.0
 33
0.0
 40
0.0
 40
0.0
 40
0.0
 40
0.0
 40
0.0666666666666667
 40
0.0666666666666667
 40
0.0666666666666667
 40
0.0666666666666667
 40
0.1333333333333333
 40
0.1333333333333333
 40
0.1333333333333333
 40
0.1333333333333333
 40
0.2
 40
0.2
 40
0.2
 40
0.2
 40
0.2666666666666667
 40
0.2666666666666667
 40
0.2666666666666667
 40
0.2666666666666667
 40
0.3333333333333333
 40
0.3333333333333333
 40
0.3333333333333333
 40
0.3333333333333333
 40
0.4
 40
0.4
 40
0.4
 40
0.4
 40
0.4666666666666667
 40
0.4666666666666667
 40
0.4666666666666667
 40
0.4666666666666667
 40
0.5333333333333333
 40
0.5333333333333333
 40
0.5333333333333333
 40
0.5333333333333333
 40
0.6
 40
0.6
 40
0.6
 40
0.6
 40
0.6666666666666666
 40
0.6666666666666666
 40
0.6666666666666666
 40
0.6666666666666666
 40
0.7333333333333333
 40
0.7333333333333333
 40
0.7333333333333333
 40
0.7333333333333333
 40
0.8
 40
0.8
 40
0.8
 40
0.8
 40
0.8666666666666667
 40
0.8666666666666667
 40
0.8666666666666667
 40
0.8666666666666667
 40
1.0
 40
1.0
 40
1.0
 40
1.0
 10
-81.0465
 20
4.551
 30
0.0
 10
-76.7908
 20
11.3413
 30
0.0
 10
-70.7579
 20
16.842
 30
0.0
 10
-63.6057
 20
20.4566
 30
0.0
 10
-63.6057
 20
20.4566
 30
0.0
 10
-60.2907
 20
22.1319
 30
0.0
 10
-56.5623
 20
22.8186
 30
0.0
 10
-52.8677
 20
22.4359
 30
0.0
 10
-52.8677
 20
22.4359
 30
0.0
 10
-55.5066
 20
21.8748
 30
0.0
 10
-58.0238
 20
20.8484
 30
0.0
 10
-60.3029
 20
19.4039
 30
0.0
 10
-60.3029
 20
19.4039
 30
0.0
 10
-62.5702
 20
17.967
 30
0.0
 10
-64.6767
 20
16.2913
 30
0.0
 10
-66.5867
 20
14.4052
 30
0.0
 10
-66.5867
 20
14.4052
 30
0.0
 10
-68.447
 20
12.5685
 30
0.0
 10
-69.9267
 20
10.3842
 30
0.0
 10
-70.9429
 20
7.9759
 30
0.0
 10
-70.9429
 20
7.9759
 30
0.0
 10
-72.0319
 20
5.3933
 30
0.0
 10
-72.4887
 20
2.589
 30
0.0
 10
-72.2746
 20
-0.2054
 30
0.0
 10
-72.2746
 20
-0.2054
 30
0.0
 10
-72.8715
 20
0.3526
 30
0.0
 10
-73.5947
 20
0.757
 30
0.0
 10
-74.3823
 20
0.9739
 30
0.0
 10
-74.3823
 20
0.9739
 30
0.0
 10
-74.9635
 20
1.1296
 30
0.0
 10
-75.5667
 20
1.1836
 30
0.0
 10
-76.1661
 20
1.1335
 30
0.0
 10
-76.1661
 20
1.1335
 30
0.0
 10
-76.7628
 20
1.0838
 30
0.0
 10
-77.3523
 20
0.9725
 30
0.0
 10
-77.9259
 20
0.8008
 30
0.0
 10
-77.9259
 20
0.8008
 30
0.0
 10
-77.1158
 20
0.6127
 30
0.0
 10
-76.367
 20
0.2205
 30
0.0
 10
-75.7507
 20
-0.3382
 30
0.0
 10
-75.7507
 20
-0.3382
 30
0.0
 10
-75.1282
 20
-0.9026
 30
0.0
 10
-74.7081
 20
-1.6566
 30
0.0
 10
-74.5554
 20
-2.4829
 30
0.0
 10
-74.5554
 20
-2.4829
 30
0.0
 10
-75.7028
 20
-2.5609
 30
0.0
 10
-76.7861
 20
-3.0375
 30
0.0
 10
-77.6183
 20
-3.831
 30
0.0
 10
-77.6183
 20
-3.831
 30
0.0
 10
-79.016
 20
-5.1626
 30
0.0
 10
-80.1754
 20
-6.7233
 30
0.0
 10
-81.0465
 20
-8.4461
 30
0.0
 10
-81.0465
 20
-8.4461
 30
0.0
 10
-81.0465
 20
-8.4461
 30
0.0
 10
-81.0465
 20
4.551
 30
0.0
 10
-81.0465
 20
4.551
 30
0.0
  0
SPLINE
  5
98
330
1F
100
AcDbEntity
  8
layer 1
 62
     7
100
AcDbSpline
210
0.0
220
0.0
230
1.0
 70
    11
 71
     3
 72
    96
 73
    92
 74
     0
 42
0.0000000001
 43
0.0000000001
 12
1.0
 22
0.0
 32
0.0
 13
1.0
 23
0.0
 33
0.0
 40
0.0
 40
0.0
 40
0.0
 40
0.0
 40
0.0416666666666667
 40
0.0416666666666667
 40
0.0416666666666667
 40
0.0416666666666667
 40
0.0833333333333333
 40
0.0833333333333333
 40
0.0833333333333333
 40
0.0833333333333333
 40
0.125
 40
0.125
 40
0.125
 40
0.125
 40
0.1666666666666667
 40
0.1666666666666667
 40
0.1666666666666667
 40
0.1666666666666667
 40
0.2083333333333333
 40
0.2083333333333333
 40
0.2083333333333333
 40
0.2083333333333333
 40
0.25
 40
0.25
 40
0.25
 40
0.25
 40
0.2916666666666667
 40
0.2916666666666667
 40
0.2916666666666667
 40
0.2916666666666667
 40
0.3333333333333333
 40
0.3333333333333333
 40
0.3333333333333333
 40
0.3333333333333333
 40
0.375
 40
0.375
 40
0.375
 40
0.375
 40
0.4166666666666667
 40
0.4166666666666667
 40
0.4166666666666667
 40
0.4166666666666667
 40
0.4583333333333333
 40
0.4583333333333333
 40
0.4583333333333333
 40
0.4583333333333333
 40
0.5
 40
0.5
 40
0.5
 40
0.5
 40
0.5416666666666666
 40
0.5416666666666666
 40
0.5416666666666666
 40
0.5416666666666666
 40
0.5833333333333334
 40
0.5833333333333334
 40
0.5833333333333334
 40
0.5833333333333334
 40
0.625
 40
0.625
 40
0.625
 40
0.625
 40
0.6666666666666666
 40
0.6666666666666666
 40
0.6666666666666666
 40
0.6666666666666666
 40
0.7083333333333334
 40
0.7083333333333334
 40
0.7083333333333334
 40
0.7083333333333334
 40
0.75
 40
0.75
 40
0.75
 40
0.75
 40
0.7916666666666666
 40
0.7916666666666666
 40
0.7916666666666666
 40
0.7916666666666666
 40
0.8333333333333334
 40
0.8333333333333334
 40
0.8333333333333334
 40
0.8333333333333334
 40
0.875
 40
0.875
 40
0.875
 40
0.875
 40
0.9166666666666666
 40
0.9166666666666666
 40
0.9166666666666666
 40
0.9166666666666666
 40
1.0
 40
1.0
 40
1.0
 40
1.0
 10
-81.0465
 20
-16.4434
 30
0.0
 10
-79.0149
 20
-16.8023
 30
0.0
 10
-77.0094
 20
-17.2963
 30
0.0
 10
-75.0437
 20
-17.9221
 30
0.0
 10
-75.0437
 20
-17.9221
 30
0.0
 10
-67.5487
 20
-20.3073
 30
0.0
 10
-60.4681
 20
-23.8443
 30
0.0
 10
-54.0592
 20
-28.4041
 30
0.0
 10
-54.0592
 20
-28.4041
 30
0.0
 10
-49.7823
 20
-31.4821
 30
0.0
 10
-45.8792
 20
-35.0507
 30
0.0
 10
-42.4313
 20
-39.0352
 30
0.0
 10
-42.4313
 20
-39.0352
 30
0.0
 10
-43.2423
 20
-39.3772
 30
0.0
 10
-44.0039
 20
-39.8259
 30
0.0
 10
-44.696
 20
-40.3702
 30
0.0
 10
-44.696
 20
-40.3702
 30
0.0
 10
-45.3915
 20
-40.9168
 30
0.0
 10
-45.9759
 20
-41.5911
 30
0.0
 10
-46.4177
 20
-42.3574
 30
0.0
 10
-46.4177
 20
-42.3574
 30
0.0
 10
-46.8305
 20
-41.659
 30
0.0
 10
-47.3142
 20
-41.005
 30
0.0
 10
-47.8604
 20
-40.4054
 30
0.0
 10
-47.8604
 20
-40.4054
 30
0.0
 10
-48.4086
 20
-39.8042
 30
0.0
 10
-49.0417
 20
-39.2865
 30
0.0
 10
-49.7399
 20
-38.8689
 30
0.0
 10
-49.7399
 20
-38.8689
 30
0.0
 10
-50.9088
 20
-38.196
 30
0.0
 10
-52.2151
 20
-37.7984
 30
0.0
 10
-53.5606
 20
-37.7062
 30
0.0
 10
-53.5606
 20
-37.7062
 30
0.0
 10
-52.9898
 20
-37.4622
 30
0.0
 10
-52.4441
 20
-37.1627
 30
0.0
 10
-51.9315
 20
-36.8121
 30
0.0
 10
-51.9315
 20
-36.8121
 30
0.0
 10
-51.4177
 20
-36.46
 30
0.0
 10
-50.9589
 20
-36.0339
 30
0.0
 10
-50.5707
 20
-35.5467
 30
0.0
 10
-50.5707
 20
-35.5467
 30
0.0
 10
-51.9943
 20
-35.4853
 30
0.0
 10
-53.4181
 20
-35.6443
 30
0.0
 10
-54.7929
 20
-36.0182
 30
0.0
 10
-54.7929
 20
-36.0182
 30
0.0
 10
-56.1622
 20
-36.3904
 30
0.0
 10
-57.4964
 20
-36.8792
 30
0.0
 10
-58.7825
 20
-37.4784
 30
0.0
 10
-58.7825
 20
-37.4784
 30
0.0
 10
-60.0905
 20
-38.0886
 30
0.0
 10
-61.2981
 20
-38.8932
 30
0.0
 10
-62.3648
 20
-39.8654
 30
0.0
 10
-62.3648
 20
-39.8654
 30
0.0
 10
-63.5463
 20
-40.9428
 30
0.0
 10
-64.5056
 20
-42.2404
 30
0.0
 10
-65.1885
 20
-43.6861
 30
0.0
 10
-65.1885
 20
-43.6861
 30
0.0
 10
-64.9266
 20
-40.8425
 30
0.0
 10
-64.9822
 20
-37.9783
 30
0.0
 10
-65.3551
 20
-35.147
 30
0.0
 10
-65.3551
 20
-35.147
 30
0.0
 10
-65.6837
 20
-32.654
 30
0.0
 10
-65.218
 20
-30.1193
 30
0.0
 10
-64.0258
 20
-27.9056
 30
0.0
 10
-64.0258
 20
-27.9056
 30
0.0
 10
-64.7882
 20
-28.4644
 30
0.0
 10
-65.4604
 20
-29.1366
 30
0.0
 10
-66.0193
 20
-29.8991
 30
0.0
 10
-66.0193
 20
-29.8991
 30
0.0
 10
-66.5955
 20
-30.7117
 30
0.0
 10
-67.0433
 20
-31.608
 30
0.0
 10
-67.3482
 20
-32.5568
 30
0.0
 10
-67.3482
 20
-32.5568
 30
0.0
 10
-67.7269
 20
-31.4854
 30
0.0
 10
-68.2649
 20
-30.478
 30
0.0
 10
-68.9447
 20
-29.5678
 30
0.0
 10
-68.9447
 20
-29.5678
 30
0.0
 10
-69.6232
 20
-28.6592
 30
0.0
 10
-70.4117
 20
-27.8385
 30
0.0
 10
-71.2926
 20
-27.1249
 30
0.0
 10
-71.2926
 20
-27.1249
 30
0.0
 10
-72.521
 20
-26.1531
 30
0.0
 10
-73.8225
 20
-25.2788
 30
0.0
 10
-75.1869
 20
-24.51
 30
0.0
 10
-75.1869
 20
-24.51
 30
0.0
 10
-77.065
 20
-23.4635
 30
0.0
 10
-79.0244
 20
-22.5703
 30
0.0
 10
-81.0465
 20
-21.8397
 30
0.0
 10
-81.0465
 20
-21.8397
 30
0.0
 10
-81.0465
 20
-21.8397
 30
0.0
 10
-81.0465
 20
-16.4434
 30
0.0
 10
-81.0465
 20
-16.4434
 30
0.0
  0
SPLINE
  5
99
330
1F
100
AcDbEntity
  8
layer 1
 62
     7
100
AcDbSpline
210
0.0
220
0.0
230
1.0
 70
    11
 71
     3
 72
    72
 73
    68
 74
     0
 42
0.0000000001
 43
0.0000000001
 12
1.0
 22
0.0
 32
0.0
 13
1.0
 23
0.0
 33
0.0
 40
0.0
 40
0.0
 40
0.0
 40
0.0
 40
0.0555555555555556
 40
0.0555555555555556
 40
0.0555555555555556
 40
0.0555555555555556
 40
0.1111111111111111
 40
0.1111111111111111
 40
0.1111111111111111
 40
0.1111111111111111
 40
0.1666666666666667
 40
0.1666666666666667
 40
0.1666666666666667
 40
0.1666666666666667
 40
0.2222222222222222
 40
0.2222222222222222
 40
0.2222222222222222
 40
0.2222222222222222
 40
0.2777777777777778
 40
0.2777777777777778
 40
0.2777777777777778
 40
0.2777777777777778
 40
0.3333333333333333
 40
0.3333333333333333
 40
0.3333333333333333
 40
0.3333333333333333
 40
0.3888888888888889
 40
0.3888888888888889
 40
0.3888888888888889
 40
0.3888888888888889
 40
0.4444444444444444
 40
0.4444444444444444
 40
0.4444444444444444
 40
0.4444444444444444
 40
0.5
 40
0.5
 40
0.5
 40
0.5
 40
0.5555555555555556
 40
0.5555555555555556
 40
0.5555555555555556
 40
0.5555555555555556
 40
0.6111111111111112
 40
0.6111111111111112
 40
0.6111111111111112
 40
0.6111111111111112
 40
0.6666666666666666
 40
0.6666666666666666
 40
0.6666666666666666
 40
0.6666666666666666
 40
0.7222222222222222
 40
0.7222222222222222
 40
0.7222222222222222
 40
0.7222222222222222
 40
0.7777777777777778
 40
0.7777777777777778
 40
0.7777777777777778
 40
0.7777777777777778
 40
0.8333333333333334
 40
0.8333333333333334
 40
0.8333333333333334
 40
0.8333333333333334
 40
0.8888888888888888
 40
0.8888888888888888
 40
0.8888888888888888
 40
0.8888888888888888
 40
1.0
 40
1.0
 40
1.0
 40
1.0
 10
-81.0465
 20
-23.966
 30
0.0
 10
-79.6984
 20
-24.4565
 30
0.0
 10
-78.4266
 20
-25.1351
 30
0.0
 10
-77.2686
 20
-25.9815
 30
0.0
 10
-77.2686
 20
-25.9815
 30
0.0
 10
-73.9739
 20
-28.3895
 30
0.0
 10
-71.1391
 20
-31.3722
 30
0.0
 10
-68.9009
 20
-34.7846
 30
0.0
 10
-68.9009
 20
-34.7846
 30
0.0
 10
-68.0167
 20
-36.1323
 30
0.0
 10
-67.6097
 20
-37.7385
 30
0.0
 10
-67.7451
 20
-39.345
 30
0.0
 10
-67.7451
 20
-39.345
 30
0.0
 10
-68.0777
 20
-43.293
 30
0.0
 10
-67.8818
 20
-47.2667
 30
0.0
 10
-67.1625
 20
-51.1629
 30
0.0
 10
-67.1625
 20
-51.1629
 30
0.0
 10
-67.0308
 20
-51.8758
 30
0.0
 10
-66.8888
 20
-52.5871
 30
0.0
 10
-66.7369
 20
-53.2963
 30
0.0
 10
-66.7369
 20
-53.2963
 30
0.0
 10
-66.5849
 20
-54.0056
 30
0.0
 10
-66.4054
 20
-54.7087
 30
0.0
 10
-66.1983
 20
-55.404
 30
0.0
 10
-66.1983
 20
-55.404
 30
0.0
 10
-67.0504
 20
-54.8106
 30
0.0
 10
-67.9534
 20
-54.2943
 30
0.0
 10
-68.8976
 20
-53.8619
 30
0.0
 10
-68.8976
 20
-53.8619
 30
0.0
 10
-70.0769
 20
-53.3313
 30
0.0
 10
-71.3032
 20
-52.9118
 30
0.0
 10
-72.5605
 20
-52.6086
 30
0.0
 10
-72.5605
 20
-52.6086
 30
0.0
 10
-71.4717
 20
-50.6699
 30
0.0
 10
-70.8359
 20
-48.5108
 30
0.0
 10
-70.7002
 20
-46.2916
 30
0.0
 10
-70.7002
 20
-46.2916
 30
0.0
 10
-70.64
 20
-45.3082
 30
0.0
 10
-70.8788
 20
-44.3305
 30
0.0
 10
-71.3855
 20
-43.4859
 30
0.0
 10
-71.3855
 20
-43.4859
 30
0.0
 10
-71.7373
 20
-42.8997
 30
0.0
 10
-72.1218
 20
-42.3341
 30
0.0
 10
-72.538
 20
-41.7918
 30
0.0
 10
-72.538
 20
-41.7918
 30
0.0
 10
-72.954
 20
-41.2487
 30
0.0
 10
-73.4126
 20
-40.7402
 30
0.0
 10
-73.91
 20
-40.27
 30
0.0
 10
-73.91
 20
-40.27
 30
0.0
 10
-74.5716
 20
-40.7594
 30
0.0
 10
-75.0803
 20
-41.4272
 30
0.0
 10
-75.3756
 20
-42.1955
 30
0.0
 10
-75.3756
 20
-42.1955
 30
0.0
 10
-76.7272
 20
-45.7111
 30
0.0
 10
-76.8901
 20
-49.5708
 30
0.0
 10
-75.8377
 20
-53.1871
 30
0.0
 10
-75.8377
 20
-53.1871
 30
0.0
 10
-76.7603
 20
-52.9974
 30
0.0
 10
-77.7133
 20
-53.0166
 30
0.0
 10
-78.627
 20
-53.2435
 30
0.0
 10
-78.627
 20
-53.2435
 30
0.0
 10
-79.5478
 20
-53.4715
 30
0.0
 10
-80.3858
 20
-53.9526
 30
0.0
 10
-81.0465
 20
-54.6332
 30
0.0
 10
-81.0465
 20
-54.6332
 30
0.0
 10
-81.0465
 20
-54.6332
 30
0.0
 10
-81.0465
 20
-23.966
 30
0.0
 10
-81.0465
 20
-23.966
 30
0.0
  0
SPLINE
  5
9A
330
1F
100
AcDbEntity
  8
layer 1
 62
     7
100
AcDbSpline
210
0.0
220
0.0
230
1.0
 70
    11
 71
     3
 72
    72
 73
    68
 74
     0
 42
0.0000000001
 43
0.0000000001
 12
1.0
 22
0.0
 32
0.0
 13
1.0
 23
0.0
 33
0.0
 40
0.0
 40
0.0
 40
0.0
 40
0.0
 40
0.0555555555555556
 40
0.0555555555555556
 40
0.0555555555555556
 40
0.0555555555555556
 40
0.1111111111111111
 40
0.1111111111111111
 40
0.1111111111111111
 40
0.1111111111111111
 40
0.1666666666666667
 40
0.1666666666666667
 40
0.1666666666666667
 40
0.1666666666666667
 40
0.2222222222222222
 40
0.2222222222222222
 40
0.2222222222222222
 40
0.2222222222222222
 40
0.2777777777777778
 40
0.2777777777777778
 40
0.2777777777777778
 40
0.2777777777777778
 40
0.3333333333333333
 40
0.3333333333333333
 40
0.3333333333333333
 40
0.3333333333333333
 40
0.3888888888888889
 40
0.3888888888888889
 40
0.3888888888888889
 40
0.3888888888888889
 40
0.4444444444444444
 40
0.4444444444444444
 40
0.4444444444444444
 40
0.4444444444444444
 40
0.5
 40
0.5
 40
0.5
 40
0.5
 40
0.5555555555555556
 40
0.5555555555555556
 40
0.5555555555555556
 40
0.5555555555555556
 40
0.6111111111111112
 40
0.6111111111111112
 40
0.6111111111111112
 40
0.6111111111111112
 40
0.6666666666666666
 40
0.6666666666666666
 40
0.6666666666666666
 40
0.6666666666666666
 40
0.7222222222222222
 40
0.7222222222222222
 40
0.7222222222222222
 40
0.7222222222222222
 40
0.7777777777777778
 40
0.7777777777777778
 40
0.7777777777777778
 40
0.7777777777777778
 40
0.8333333333333334
 40
0.8333333333333334
 40
0.8333333333333334
 40
0.8333333333333334
 40
0.8888888888888888
 40
0.8888888888888888
 40
0.8888888888888888
 40
0.8888888888888888
 40
1.0
 40
1.0
 40
1.0
 40
1.0
 10
1.7312
 20
-41.4527
 30
0.0
 10
1.3735
 20
-40.9835
 30
0.0
 10
0.9348
 20
-40.5828
 30
0.0
 10
0.4357
 20
-40.2692
 30
0.0
 10
0.4357
 20
-40.2692
 30
0.0
 10
-0.0685
 20
-39.9522
 30
0.0
 10
-0.6479
 20
-39.7762
 30
0.0
 10
-1.2431
 20
-39.7588
 30
0.0
 10
-1.2431
 20
-39.7588
 30
0.0
 10
-1.9831
 20
-39.7375
 30
0.0
 10
-2.7232
 20
-39.7308
 30
0.0
 10
-3.4632
 20
-39.7392
 30
0.0
 10
-3.4632
 20
-39.7392
 30
0.0
 10
-4.2037
 20
-39.7476
 30
0.0
 10
-4.9434
 20
-39.7889
 30
0.0
 10
-5.6799
 20
-39.8636
 30
0.0
 10
-5.6799
 20
-39.8636
 30
0.0
 10
-4.8864
 20
-38.9878
 30
0.0
 10
-3.9023
 20
-38.3055
 30
0.0
 10
-2.8038
 20
-37.8701
 30
0.0
 10
-2.8038
 20
-37.8701
 30
0.0
 10
-1.7166
 20
-37.4393
 30
0.0
 10
-0.5887
 20
-37.1185
 30
0.0
 10
0.5623
 20
-36.9128
 30
0.0
 10
0.5623
 20
-36.9128
 30
0.0
 10
-2.1922
 20
-36.2519
 30
0.0
 10
-5.0765
 20
-36.3912
 30
0.0
 10
-7.7541
 20
-37.3151
 30
0.0
 10
-7.7541
 20
-37.3151
 30
0.0
 10
-9.0436
 20
-37.7602
 30
0.0
 10
-10.1967
 20
-38.5286
 30
0.0
 10
-11.1038
 20
-39.5474
 30
0.0
 10
-11.1038
 20
-39.5474
 30
0.0
 10
-11.81
 20
-40.3402
 30
0.0
 10
-12.4792
 20
-41.1654
 30
0.0
 10
-13.1102
 20
-42.02
 30
0.0
 10
-13.1102
 20
-42.02
 30
0.0
 10
-13.7421
 20
-42.8757
 30
0.0
 10
-14.2942
 20
-43.7874
 30
0.0
 10
-14.7596
 20
-44.744
 30
0.0
 10
-14.7596
 20
-44.744
 30
0.0
 10
-17.3514
 20
-43.2345
 30
0.0
 10
-20.2553
 20
-42.3439
 30
0.0
 10
-23.2474
 20
-42.1407
 30
0.0
 10
-23.2474
 20
-42.1407
 30
0.0
 10
-27.4139
 20
-41.8581
 30
0.0
 10
-31.5953
 20
-41.8937
 30
0.0
 10
-35.7557
 20
-42.2471
 30
0.0
 10
-35.7557
 20
-42.2471
 30
0.0
 10
-33.7331
 20
-40.6919
 30
0.0
 10
-31.6506
 20
-39.2151
 30
0.0
 10
-29.5136
 20
-37.8208
 30
0.0
 10
-29.5136
 20
-37.8208
 30
0.0
 10
-26.0335
 20
-35.5498
 30
0.0
 10
-22.4342
 20
-33.4662
 30
0.0
 10
-18.7317
 20
-31.5787
 30
0.0
 10
-18.7317
 20
-31.5787
 30
0.0
 10
-12.1112
 20
-28.347
 30
0.0
 10
-5.2729
 20
-25.5785
 30
0.0
 10
1.7312
 20
-23.2938
 30
0.0
 10
1.7312
 20
-23.2938
 30
0.0
 10
1.7312
 20
-23.2938
 30
0.0
 10
1.7312
 20
-41.4529
 30
0.0
 10
1.7312
 20
-41.4529
 30
0.0
 10
1.7312
 20
-41.4529
 30
0.0
 10
1.7312
 20
-41.4529
 30
0.0
 10
1.7312
 20
-41.4527
 30
0.0
 10
1.7312
 20
-41.4527
 30
0.0
  0
SPLINE
  5
9B
330
1F
100
AcDbEntity
  8
layer 1
 62
     7
100
AcDbSpline
210
0.0
220
0.0
230
1.0
 70
    11
 71
     3
 72
    44
 73
    40
 74
     0
 42
0.0000000001
 43
0.0000000001
 12
1.0
 22
0.0
 32
0.0
 13
1.0
 23
0.0
 33
0.0
 40
0.0
 40
0.0
 40
0.0
 40
0.0
 40
0.0909090909090909
 40
0.0909090909090909
 40
0.0909090909090909
 40
0.0909090909090909
 40
0.1818181818181818
 40
0.1818181818181818
 40
0.1818181818181818
 40
0.1818181818181818
 40
0.2727272727272727
 40
0.2727272727272727
 40
0.2727272727272727
 40
0.2727272727272727
 40
0.3636363636363636
 40
0.3636363636363636
 40
0.3636363636363636
 40
0.3636363636363636
 40
0.4545454545454545
 40
0.4545454545454545
 40
0.4545454545454545
 40
0.4545454545454545
 40
0.5454545454545454
 40
0.5454545454545454
 40
0.5454545454545454
 40
0.5454545454545454
 40
0.6363636363636364
 40
0.6363636363636364
 40
0.6363636363636364
 40
0.6363636363636364
 40
0.7272727272727273
 40
0.7272727272727273
 40
0.7272727272727273
 40
0.7272727272727273
 40
0.8181818181818182
 40
0.8181818181818182
 40
0.8181818181818182
 40
0.8181818181818182
 40
1.0
 40
1.0
 40
1.0
 40
1.0
 10
1.7312
 20
-44.4643
 30
0.0
 10
1.7312
 20
-44.4643
 30
0.0
 10
1.7312
 20
-59.5022
 30
0.0
 10
1.7312
 20
-59.5022
 30
0.0
 10
1.7312
 20
-59.5022
 30
0.0
 10
-0.531
 20
-55.9682
 30
0.0
 10
-3.2025
 20
-52.7148
 30
0.0
 10
-6.2287
 20
-49.808
 30
0.0
 10
-6.2287
 20
-49.808
 30
0.0
 10
-7.1084
 20
-48.9635
 30
0.0
 10
-8.1903
 20
-48.3602
 30
0.0
 10
-9.3714
 20
-48.056
 30
0.0
 10
-9.3714
 20
-48.056
 30
0.0
 10
-10.1089
 20
-46.925
 30
0.0
 10
-10.2765
 20
-45.5134
 30
0.0
 10
-9.8263
 20
-44.2406
 30
0.0
 10
-9.8263
 20
-44.2406
 30
0.0
 10
-9.3892
 20
-43.0053
 30
0.0
 10
-8.5857
 20
-41.9318
 30
0.0
 10
-7.5238
 20
-41.1642
 30
0.0
 10
-7.5238
 20
-41.1642
 30
0.0
 10
-7.3556
 20
-41.0427
 30
0.0
 10
-7.1715
 20
-40.9444
 30
0.0
 10
-6.9771
 20
-40.8726
 30
0.0
 10
-6.9771
 20
-40.8726
 30
0.0
 10
-6.4149
 20
-41.8941
 30
0.0
 10
-5.6251
 20
-42.772
 30
0.0
 10
-4.6682
 20
-43.4379
 30
0.0
 10
-4.6682
 20
-43.4379
 30
0.0
 10
-3.7408
 20
-44.0675
 30
0.0
 10
-2.6895
 20
-44.4901
 30
0.0
 10
-1.5849
 20
-44.6777
 30
0.0
 10
-1.5849
 20
-44.6777
 30
0.0
 10
-0.4778
 20
-44.8652
 30
0.0
 10
0.6571
 20
-44.7923
 30
0.0
 10
1.7312
 20
-44.4643
 30
0.0
 10
1.7312
 20
-44.4643
 30
0.0
 10
1.7312
 20
-44.4643
 30
0.0
 10
1.7312
 20
-44.4643
 30
0.0
 10
1.7312
 20
-44.4643
 30
0.0
  0
SPLINE
  5
9C
330
1F
100
AcDbEntity
  8
layer 1
 62
     7
100
AcDbSpline
210
0.0
220
0.0
230
1.0
 70
    11
 71
     3
 72
    36
 73
    32
 74
     0
 42
0.0000000001
 43
0.0000000001
 12
1.0
 22
0.0
 32
0.0
 13
1.0
 23
0.0
 33
0.0
 40
0.0
 40
0.0
 40
0.0
 40
0.0
 40
0.1111111111111111
 40
0.1111111111111111
 40
0.1111111111111111
 40
0.1111111111111111
 40
0.2222222222222222
 40
0.2222222222222222
 40
0.2222222222222222
 40
0.2222222222222222
 40
0.3333333333333333
 40
0.3333333333333333
 40
0.3333333333333333
 40
0.3333333333333333
 40
0.4444444444444444
 40
0.4444444444444444
 40
0.4444444444444444
 40
0.4444444444444444
 40
0.5555555555555556
 40
0.5555555555555556
 40
0.5555555555555556
 40
0.5555555555555556
 40
0.6666666666666666
 40
0.6666666666666666
 40
0.6666666666666666
 40
0.6666666666666666
 40
0.7777777777777778
 40
0.7777777777777778
 40
0.7777777777777778
 40
0.7777777777777778
 40
1.0
 40
1.0
 40
1.0
 40
1.0
 10
1.7312
 20
-76.0236
 30
0.0
 10
-0.8713
 20
-76.439
 30
0.0
 10
-3.4408
 20
-77.0369
 30
0.0
 10
-5.9592
 20
-77.8135
 30
0.0
 10
-5.9592
 20
-77.8135
 30
0.0
 10
-8.5022
 20
-78.6015
 30
0.0
 10
-10.9864
 20
-79.5676
 30
0.0
 10
-13.3935
 20
-80.7045
 30
0.0
 10
-13.3935
 20
-80.7045
 30
0.0
 10
-13.7954
 20
-79.3006
 30
0.0
 10
-13.4141
 20
-77.7875
 30
0.0
 10
-12.3965
 20
-76.7402
 30
0.0
 10
-12.3965
 20
-76.7402
 30
0.0
 10
-11.4462
 20
-75.7625
 30
0.0
 10
-10.446
 20
-74.8341
 30
0.0
 10
-9.4009
 20
-73.9583
 30
0.0
 10
-9.4009
 20
-73.9583
 30
0.0
 10
-8.2235
 20
-72.972
 30
0.0
 10
-7.0483
 20
-71.9838
 30
0.0
 10
-5.8743
 20
-70.993
 30
0.0
 10
-5.8743
 20
-70.993
 30
0.0
 10
-3.7275
 20
-69.181
 30
0.0
 10
-1.0682
 20
-68.0815
 30
0.0
 10
1.7312
 20
-67.8468
 30
0.0
 10
1.7312
 20
-67.8468
 30
0.0
 10
1.7312
 20
-67.8468
 30
0.0
 10
1.7312
 20
-76.0236
 30
0.0
 10
1.7312
 20
-76.0236
 30
0.0
 10
1.7312
 20
-76.0236
 30
0.0
 10
1.7312
 20
-76.0236
 30
0.0
 10
1.7312
 20
-76.0236
 30
0.0
 10
1.7312
 20
-76.0236
 30
0.0
  0
SPLINE
  5
9D
330
1F
100
AcDbEntity
  8
layer 1
 62
     7
100
AcDbSpline
210
0.0
220
0.0
230
1.0
 70
    11
 71
     3
 72
    80
 73
    76
 74
     0
 42
0.0000000001
 43
0.0000000001
 12
1.0
 22
0.0
 32
0.0
 13
1.0
 23
0.0
 33
0.0
 40
0.0
 40
0.0
 40
0.0
 40
0.0
 40
0.05
 40
0.05
 40
0.05
 40
0.05
 40
0.1
 40
0.1
 40
0.1
 40
0.1
 40
0.15
 40
0.15
 40
0.15
 40
0.15
 40
0.2
 40
0.2
 40
0.2
 40
0.2
 40
0.25
 40
0.25
 40
0.25
 40
0.25
 40
0.3
 40
0.3
 40
0.3
 40
0.3
 40
0.35
 40
0.35
 40
0.35
 40
0.35
 40
0.4
 40
0.4
 40
0.4
 40
0.4
 40
0.45
 40
0.45
 40
0.45
 40
0.45
 40
0.5
 40
0.5
 40
0.5
 40
0.5
 40
0.55
 40
0.55
 40
0.55
 40
0.55
 40
0.6
 40
0.6
 40
0.6
 40
0.6
 40
0.65
 40
0.65
 40
0.65
 40
0.65
 40
0.7
 40
0.7
 40
0.7
 40
0.7
 40
0.75
 40
0.75
 40
0.75
 40
0.75
 40
0.8
 40
0.8
 40
0.8
 40
0.8
 40
0.85
 40
0.85
 40
0.85
 40
0.85
 40
0.9
 40
0.9
 40
0.9
 40
0.9
 40
1.0
 40
1.0
 40
1.0
 40
1.0
 10
1.7312
 20
-78.5428
 30
0.0
 10
1.7312
 20
-78.5428
 30
0.0
 10
1.7312
 20
-107.2259
 30
0.0
 10
1.7312
 20
-107.2259
 30
0.0
 10
1.7312
 20
-107.2259
 30
0.0
 10
1.7312
 20
-107.2259
 30
0.0
 10
-22.4563
 20
-107.2259
 30
0.0
 10
-22.4563
 20
-107.2259
 30
0.0
 10
-22.4563
 20
-107.2259
 30
0.0
 10
-22.7046
 20
-106.5002
 30
0.0
 10
-22.7127
 20
-105.713
 30
0.0
 10
-22.4791
 20
-104.9823
 30
0.0
 10
-22.4791
 20
-104.9823
 30
0.0
 10
-22.2407
 20
-104.2356
 30
0.0
 10
-21.6865
 20
-103.6305
 30
0.0
 10
-20.9634
 20
-103.3278
 30
0.0
 10
-20.9634
 20
-103.3278
 30
0.0
 10
-20.3978
 20
-103.0905
 30
0.0
 10
-19.8301
 20
-102.859
 30
0.0
 10
-19.2602
 20
-102.6333
 30
0.0
 10
-19.2602
 20
-102.6333
 30
0.0
 10
-18.687
 20
-102.4062
 30
0.0
 10
-18.0844
 20
-102.2627
 30
0.0
 10
-17.4711
 20
-102.2063
 30
0.0
 10
-17.4711
 20
-102.2063
 30
0.0
 10
-15.3702
 20
-103.2331
 30
0.0
 10
-12.9955
 20
-103.5531
 30
0.0
 10
-10.6985
 20
-103.1181
 30
0.0
 10
-10.6985
 20
-103.1181
 30
0.0
 10
-8.4351
 20
-102.6892
 30
0.0
 10
-6.2883
 20
-101.7896
 30
0.0
 10
-4.3959
 20
-100.4759
 30
0.0
 10
-4.3959
 20
-100.4759
 30
0.0
 10
-3.4325
 20
-99.807
 30
0.0
 10
-2.6195
 20
-98.9443
 30
0.0
 10
-2.009
 20
-97.9424
 30
0.0
 10
-2.009
 20
-97.9424
 30
0.0
 10
-1.3855
 20
-96.9186
 30
0.0
 10
-1.1529
 20
-95.7048
 30
0.0
 10
-1.3546
 20
-94.5228
 30
0.0
 10
-1.3546
 20
-94.5228
 30
0.0
 10
-1.9346
 20
-94.0675
 30
0.0
 10
-2.5658
 20
-93.6812
 30
0.0
 10
-3.2358
 20
-93.3722
 30
0.0
 10
-3.2358
 20
-93.3722
 30
0.0
 10
-3.9138
 20
-93.0591
 30
0.0
 10
-4.659
 20
-92.9208
 30
0.0
 10
-5.4041
 20
-92.9695
 30
0.0
 10
-5.4041
 20
-92.9695
 30
0.0
 10
-6.0978
 20
-93.0147
 30
0.0
 10
-6.7917
 20
-93.0532
 30
0.0
 10
-7.4858
 20
-93.0841
 30
0.0
 10
-7.4858
 20
-93.0841
 30
0.0
 10
-8.1899
 20
-93.1156
 30
0.0
 10
-8.891
 20
-92.9803
 30
0.0
 10
-9.5333
 20
-92.6901
 30
0.0
 10
-9.5333
 20
-92.6901
 30
0.0
 10
-11.4315
 20
-91.8311
 30
0.0
 10
-13.4327
 20
-91.2209
 30
0.0
 10
-15.4874
 20
-90.8745
 30
0.0
 10
-15.4874
 20
-90.8745
 30
0.0
 10
-17.545
 20
-90.528
 30
0.0
 10
-19.6421
 20
-90.4881
 30
0.0
 10
-21.7111
 20
-90.757
 30
0.0
 10
-21.7111
 20
-90.757
 30
0.0
 10
-18.1615
 20
-88.1164
 30
0.0
 10
-14.365
 20
-85.8229
 30
0.0
 10
-10.3756
 20
-83.9099
 30
0.0
 10
-10.3756
 20
-83.9099
 30
0.0
 10
-6.3945
 20
-82.0011
 30
0.0
 10
-2.3569
 20
-80.211
 30
0.0
 10
1.7312
 20
-78.5432
 30
0.0
 10
1.7312
 20
-78.5432
 30
0.0
 10
1.7312
 20
-78.5432
 30
0.0
 10
1.7312
 20
-78.5428
 30
0.0
 10
1.7312
 20
-78.5428
 30
0.0
  0
ENDSEC
  0
SECTION
  2
OBJECTS
  0
DICTIONARY
  5
C
330
0
100
AcDbDictionary
281
     1
  3
ACAD_GROUP
350
D
  3
ACAD_LAYOUT
350
1A
  3
ACAD_MATERIAL
350
3B
  3
ACAD_MLEADERSTYLE
350
C0
  3
ACAD_MLINESTYLE
350
17
  3
ACAD_PLOTSETTINGS
350
19
  3
ACAD_PLOTSTYLENAME
350
E
  3
ACAD_TABLESTYLE
350
BF
  3
ACAD_VISUALSTYLE
350
2A
  0
DICTIONARY
  5
D
102
{ACAD_REACTORS
330
C
102
}
330
C
100
AcDbDictionary
281
     1
  0
DICTIONARY
  5
1A
102
{ACAD_REACTORS
330
C
102
}
330
C
100
AcDbDictionary
281
     1
  3
Layout1
350
1E
  3
Layout2
350
26
  3
Model
350
22
  0
DICTIONARY
  5
3B
102
{ACAD_REACTORS
330
C
102
}
330
C
100
AcDbDictionary
281
     1
  3
ByBlock
350
3D
  3
ByLayer
350
3C
  3
Global
350
3E
  0
DICTIONARY
  5
C0
102
{ACAD_REACTORS
330
C
102
}
330
C
100
AcDbDictionary
281
     1
  0
DICTIONARY
  5
17
102
{ACAD_REACTORS
330
C
102
}
330
C
100
AcDbDictionary
281
     1
  3
Standard
350
18
  0
DICTIONARY
  5
19
102
{ACAD_REACTORS
330
C
102
}
330
C
100
AcDbDictionary
281
     1
  0
ACDBDICTIONARYWDFLT
  5
E
102
{ACAD_REACTORS
330
C
102
}
330
C
100
AcDbDictionary
281
     1
  3
Normal
350
F
100
AcDbDictionaryWithDefault
340
F
  0
DICTIONARY
  5
BF
102
{ACAD_REACTORS
330
C
102
}
330
C
100
AcDbDictionary
281
     1
  0
DICTIONARY
  5
2A
102
{ACAD_REACTORS
330
C
102
}
330
C
100
AcDbDictionary
281
     1
  3
2dWireframe
350
2F
  3
3D Hidden
350
31
  3
3dWireframe
350
30
  3
Basic
350
32
  3
Brighten
350
36
  3
ColorChange
350
3A
  3
Conceptual
350
34
  3
Dim
350
35
  3
Facepattern
350
39
  3
Flat
350
2B
  3
FlatWithEdges
350
2C
  3
Gouraud
350
2D
  3
GouraudWithEdges
350
2E
  3
Linepattern
350
38
  3
Realistic
350
33
  3
Thicken
350
37
  0
LAYOUT
  5
1E
102
{ACAD_REACTORS
330
1A
102
}
330
1A
100
AcDbPlotSettings
  1

  2
none_device
  4

  6

 40
0.0
 41
0.0
 42
0.0
 43
0.0
 44
0.0
 45
0.0
 46
0.0
 47
0.0
 48
0.0
 49
0.0
140
0.0
141
0.0
142
1.0
143
1.0
 70
   688
 72
     0
 73
     0
 74
     5
  7

 75
    16
 76
     0
 77
     2
 78
   300
147
1.0
148
0.0
149
0.0
100
AcDbLayout
  1
Layout1
 70
     1
 71
     1
 10
0.0
 20
0.0
 11
12.0
 21
9.0
 12
0.0
 22
0.0
 32
0.0
 14
1.000000000000000E+20
 24
1.000000000000000E+20
 34
1.000000000000000E+20
 15
-1.000000000000000E+20
 25
-1.000000000000000E+20
 35
-1.000000000000000E+20
146
0.0
 13
0.0
 23
0.0
 33
0.0
 16
1.0
 26
0.0
 36
0.0
 17
0.0
 27
1.0
 37
0.0
 76
     0
330
1B
  0
LAYOUT
  5
26
102
{ACAD_REACTORS
330
1A
102
}
330
1A
100
AcDbPlotSettings
  1

  2
none_device
  4

  6

 40
0.0
 41
0.0
 42
0.0
 43
0.0
 44
0.0
 45
0.0
 46
0.0
 47
0.0
 48
0.0
 49
0.0
140
0.0
141
0.0
142
1.0
143
1.0
 70
   688
 72
     0
 73
     0
 74
     5
  7

 75
    16
 76
     0
 77
     2
 78
   300
147
1.0
148
0.0
149
0.0
100
AcDbLayout
  1
Layout2
 70
     1
 71
     2
 10
0.0
 20
0.0
 11
0.0
 21
0.0
 12
0.0
 22
0.0
 32
0.0
 14
0.0
 24
0.0
 34
0.0
 15
0.0
 25
0.0
 35
0.0
146
0.0
 13
0.0
 23
0.0
 33
0.0
 16
1.0
 26
0.0
 36
0.0
 17
0.0
 27
1.0
 37
0.0
 76
     0
330
23
  0
LAYOUT
  5
22
102
{ACAD_REACTORS
330
1A
102
}
330
1A
100
AcDbPlotSettings
  1

  2
none_device
  4

  6

 40
0.0
 41
0.0
 42
0.0
 43
0.0
 44
0.0
 45
0.0
 46
0.0
 47
0.0
 48
0.0
 49
0.0
140
0.0
141
0.0
142
1.0
143
1.0
 70
  1712
 72
     0
 73
     0
 74
     0
  7

 75
     0
 76
     0
 77
     2
 78
   300
147
1.0
148
0.0
149
0.0
100
AcDbLayout
  1
Model
 70
     1
 71
     0
 10
0.0
 20
0.0
 11
12.0
 21
9.0
 12
0.0
 22
0.0
 32
0.0
 14
-187.5775
 24
-115.1061
 34
0.0
 15
8.3154
 25
131.9081
 35
0.0
146
0.0
 13
0.0
 23
0.0
 33
0.0
 16
1.0
 26
0.0
 36
0.0
 17
0.0
 27
1.0
 37
0.0
 76
     0
330
1F
331
29
  0
MATERIAL
  5
3D
102
{ACAD_REACTORS
330
3B
102
}
330
3B
100
AcDbMaterial
  1
ByBlock
 72
     1
 94
      127
  0
MATERIAL
  5
3C
102
{ACAD_REACTORS
330
3B
102
}
330
3B
100
AcDbMaterial
  1
ByLayer
 72
     1
 94
      127
  0
MATERIAL
  5
3E
102
{ACAD_REACTORS
330
3B
102
}
330
3B
100
AcDbMaterial
  1
Global
 72
     1
 94
      127
  0
MLINESTYLE
  5
18
102
{ACAD_REACTORS
330
17
102
}
330
17
100
AcDbMlineStyle
  2
Standard
 70
     0
  3

 62
   256
 51
90.0
 52
90.0
 71
     2
 49
0.5
 62
   256
  6
BYLAYER
 49
-0.5
 62
   256
  6
BYLAYER
  0
ACDBPLACEHOLDER
  5
F
102
{ACAD_REACTORS
330
E
102
}
330
E
  0
VISUALSTYLE
  5
2F
102
{ACAD_REACTORS
330
2A
102
}
102
{ACAD_XDICTIONARY
360
A7
102
}
330
2A
100
AcDbVisualStyle
  2
2dWireframe
 70
     4
 71
     0
 72
     2
 73
     0
 90
        0
 40
-0.6
 41
-30.0
 62
     5
 63
     7
421
 16777215
 74
     1
 91
        4
 64
     7
 65
   257
 75
     1
175
     1
 42
1.0
 92
        0
 66
   257
 43
1.0
 76
     1
 77
     6
 78
     2
 67
     7
 79
     5
170
     0
171
     0
290
     0
174
     0
 93
        1
 44
0.0
173
     0
291
     0
 45
0.0
  0
VISUALSTYLE
  5
31
102
{ACAD_REACTORS
330
2A
102
}
102
{ACAD_XDICTIONARY
360
AB
102
}
330
2A
100
AcDbVisualStyle
  2
3D Hidden
 70
     6
 71
     1
 72
     2
 73
     2
 90
        0
 40
-0.6
 41
-30.0
 62
     5
 63
     7
421
 16777215
 74
     2
 91
        2
 64
     7
 65
   257
 75
     2
175
     1
 42
40.0
 92
        0
 66
   257
 43
1.0
 76
     1
 77
     6
 78
     2
 67
     7
 79
     3
170
     0
171
     0
290
     0
174
     0
 93
        1
 44
0.0
173
     0
291
     0
 45
0.0
  0
VISUALSTYLE
  5
30
102
{ACAD_REACTORS
330
2A
102
}
102
{ACAD_XDICTIONARY
360
A9
102
}
330
2A
100
AcDbVisualStyle
  2
3dWireframe
 70
     5
 71
     0
 72
     2
 73
     0
 90
        0
 40
-0.6
 41
-30.0
 62
     5
 63
     7
421
 16777215
 74
     1
 91
        4
 64
     7
 65
   257
 75
     1
175
     1
 42
1.0
 92
        0
 66
   257
 43
1.0
 76
     1
 77
     6
 78
     2
 67
     7
 79
     5
170
     0
171
     0
290
     0
174
     0
 93
        1
 44
0.0
173
     0
291
     0
 45
0.0
  0
VISUALSTYLE
  5
32
102
{ACAD_REACTORS
330
2A
102
}
102
{ACAD_XDICTIONARY
360
AD
102
}
330
2A
100
AcDbVisualStyle
  2
Basic
 70
     7
 71
     1
 72
     0
 73
     1
 90
        0
 40
-0.6
 41
-30.0
 62
     5
 63
     7
421
 16777215
 74
     0
 91
        4
 64
     7
 65
   257
 75
     1
175
     1
 42
1.0
 92
        8
 66
     7
 43
1.0
 76
     1
 77
     6
 78
     2
 67
     7
 79
     5
170
     0
171
     0
290
     0
174
     0
 93
        1
 44
0.0
173
     0
291
     1
 45
0.0
  0
VISUALSTYLE
  5
36
102
{ACAD_REACTORS
330
2A
102
}
102
{ACAD_XDICTIONARY
360
B5
102
}
330
2A
100
AcDbVisualStyle
  2
Brighten
 70
    12
 71
     2
 72
     2
 73
     0
 90
        0
 40
-0.6
 41
-30.0
 62
     5
 63
     7
421
 16777215
 74
     1
 91
        4
 64
     7
 65
   257
 75
     1
175
     1
 42
1.0
 92
        8
 66
     7
 43
1.0
 76
     1
 77
     6
 78
     2
 67
     7
 79
     5
170
     0
171
     0
290
     0
174
     0
 93
        1
 44
50.0
173
     0
291
     1
 45
0.0
  0
VISUALSTYLE
  5
3A
102
{ACAD_REACTORS
330
2A
102
}
102
{ACAD_XDICTIONARY
360
BD
102
}
330
2A
100
AcDbVisualStyle
  2
ColorChange
 70
    16
 71
     2
 72
     2
 73
     3
 90
        0
 40
-0.6
 41
-30.0
 62
     5
 63
     8
421
  8421504
 74
     1
 91
        4
 64
     7
 65
   257
 75
     1
175
     1
 42
1.0
 92
        8
 66
     8
424
  8421504
 43
1.0
 76
     1
 77
     6
 78
     2
 67
     7
 79
     5
170
     0
171
     0
290
     0
174
     0
 93
        1
 44
0.0
173
     0
291
     1
 45
0.0
  0
VISUALSTYLE
  5
34
102
{ACAD_REACTORS
330
2A
102
}
102
{ACAD_XDICTIONARY
360
B1
102
}
330
2A
100
AcDbVisualStyle
  2
Conceptual
 70
     9
 71
     3
 72
     2
 73
     0
 90
        0
 40
-0.6
 41
-30.0
 62
     5
 63
     7
421
 16777215
 74
     2
 91
        2
 64
     7
 65
   257
 75
     1
175
     1
 42
40.0
 92
        8
 66
     7
 43
1.0
 76
     1
 77
     6
 78
     2
 67
     7
 79
     3
170
     0
171
     0
290
     0
174
     0
 93
        1
 44
0.0
173
     0
291
     0
 45
0.0
  0
VISUALSTYLE
  5
35
102
{ACAD_REACTORS
330
2A
102
}
102
{ACAD_XDICTIONARY
360
B3
102
}
330
2A
100
AcDbVisualStyle
  2
Dim
 70
    11
 71
     2
 72
     2
 73
     0
 90
        0
 40
-0.6
 41
-30.0
 62
     5
 63
     7
421
 16777215
 74
     1
 91
        4
 64
     7
 65
   257
 75
     1
175
     1
 42
1.0
 92
        8
 66
     7
 43
1.0
 76
     1
 77
     6
 78
     2
 67
     7
 79
     5
170
     0
171
     0
290
     0
174
     0
 93
        1
 44
-50.0
173
     0
291
     1
 45
0.0
  0
VISUALSTYLE
  5
39
102
{ACAD_REACTORS
330
2A
102
}
102
{ACAD_XDICTIONARY
360
BB
102
}
330
2A
100
AcDbVisualStyle
  2
Facepattern
 70
    15
 71
     2
 72
     2
 73
     0
 90
        0
 40
-0.6
 41
-30.0
 62
     5
 63
     7
421
 16777215
 74
     1
 91
        4
 64
     7
 65
   257
 75
     1
175
     1
 42
1.0
 92
        8
 66
     7
 43
1.0
 76
     1
 77
     6
 78
     2
 67
     7
 79
     5
170
     0
171
     0
290
     0
174
     0
 93
        1
 44
0.0
173
     0
291
     1
 45
0.0
  0
VISUALSTYLE
  5
2B
102
{ACAD_REACTORS
330
2A
102
}
102
{ACAD_XDICTIONARY
360
9F
102
}
330
2A
100
AcDbVisualStyle
  2
Flat
 70
     0
 71
     2
 72
     1
 73
     1
 90
        2
 40
-0.6
 41
30.0
 62
     5
 63
     7
421
 16777215
 74
     0
 91
        4
 64
     7
 65
   257
 75
     1
175
     1
 42
1.0
 92
        8
 66
     7
 43
1.0
 76
     1
 77
     6
 78
     2
 67
     7
 79
     5
170
     0
171
     0
290
     0
174
     0
 93
       13
 44
0.0
173
     0
291
     1
 45
0.0
  0
VISUALSTYLE
  5
2C
102
{ACAD_REACTORS
330
2A
102
}
102
{ACAD_XDICTIONARY
360
A1
102
}
330
2A
100
AcDbVisualStyle
  2
FlatWithEdges
 70
     1
 71
     2
 72
     1
 73
     1
 90
        2
 40
-0.6
 41
30.0
 62
     5
 63
     7
421
 16777215
 74
     1
 91
        4
 64
     7
 65
   257
 75
     1
175
     1
 42
1.0
 92
        0
 66
   257
 43
1.0
 76
     1
 77
     6
 78
     2
 67
     7
 79
     5
170
     0
171
     0
290
     0
174
     0
 93
       13
 44
0.0
173
     0
291
     1
 45
0.0
  0
VISUALSTYLE
  5
2D
102
{ACAD_REACTORS
330
2A
102
}
102
{ACAD_XDICTIONARY
360
A3
102
}
330
2A
100
AcDbVisualStyle
  2
Gouraud
 70
     2
 71
     2
 72
     2
 73
     1
 90
        2
 40
-0.6
 41
30.0
 62
     5
 63
     7
421
 16777215
 74
     0
 91
        4
 64
     7
 65
   257
 75
     1
175
     1
 42
1.0
 92
        0
 66
     7
 43
1.0
 76
     1
 77
     6
 78
     2
 67
     7
 79
     5
170
     0
171
     0
290
     0
174
     0
 93
       13
 44
0.0
173
     0
291
     1
 45
0.0
  0
VISUALSTYLE
  5
2E
102
{ACAD_REACTORS
330
2A
102
}
102
{ACAD_XDICTIONARY
360
A5
102
}
330
2A
100
AcDbVisualStyle
  2
GouraudWithEdges
 70
     3
 71
     2
 72
     2
 73
     1
 90
        2
 40
-0.6
 41
30.0
 62
     5
 63
     7
421
 16777215
 74
     1
 91
        4
 64
     7
 65
   257
 75
     1
175
     1
 42
1.0
 92
        0
 66
   257
 43
1.0
 76
     1
 77
     6
 78
     2
 67
     7
 79
     5
170
     0
171
     0
290
     0
174
     0
 93
       13
 44
0.0
173
     0
291
     1
 45
0.0
  0
VISUALSTYLE
  5
38
102
{ACAD_REACTORS
330
2A
102
}
102
{ACAD_XDICTIONARY
360
B9
102
}
330
2A
100
AcDbVisualStyle
  2
Linepattern
 70
    14
 71
     2
 72
     2
 73
     0
 90
        0
 40
-0.6
 41
-30.0
 62
     5
 63
     7
421
 16777215
 74
     1
 91
        4
 64
     7
 65
   257
 75
     7
175
     7
 42
1.0
 92
        8
 66
     7
 43
1.0
 76
     1
 77
     6
 78
     2
 67
     7
 79
     5
170
     0
171
     0
290
     0
174
     0
 93
        1
 44
0.0
173
     0
291
     1
 45
0.0
  0
VISUALSTYLE
  5
33
102
{ACAD_REACTORS
330
2A
102
}
102
{ACAD_XDICTIONARY
360
AF
102
}
330
2A
100
AcDbVisualStyle
  2
Realistic
 70
     8
 71
     2
 72
     2
 73
     0
 90
        0
 40
-0.6
 41
-30.0
 62
     5
 63
     7
421
 16777215
 74
     1
 91
        0
 64
     7
 65
   257
 75
     1
175
     1
 42
1.0
 92
        8
 66
     8
424
  7895160
 43
1.0
 76
     1
 77
     6
 78
     2
 67
     7
 79
     5
170
     0
171
     0
290
     0
174
     0
 93
       13
 44
0.0
173
     0
291
     0
 45
0.0
  0
VISUALSTYLE
  5
37
102
{ACAD_REACTORS
330
2A
102
}
102
{ACAD_XDICTIONARY
360
B7
102
}
330
2A
100
AcDbVisualStyle
  2
Thicken
 70
    13
 71
     2
 72
     2
 73
     0
 90
        0
 40
-0.6
 41
-30.0
 62
     5
 63
     7
421
 16777215
 74
     1
 91
        4
 64
     7
 65
   257
 75
     1
175
     1
 42
1.0
 92
       12
 66
     7
 43
1.0
 76
     1
 77
     6
 78
     2
 67
     7
 79
     5
170
     0
171
     0
290
     0
174
     0
 93
        1
 44
0.0
173
     0
291
     1
 45
0.0
  0
DICTIONARY
  5
A7
330
2F
100
AcDbDictionary
280
     1
281
     1
  3
ACAD_XREC_ROUNDTRIP
360
A8
  0
DICTIONARY
  5
AB
330
31
100
AcDbDictionary
280
     1
281
     1
  3
ACAD_XREC_ROUNDTRIP
360
AC
  0
DICTIONARY
  5
A9
330
30
100
AcDbDictionary
280
     1
281
     1
  3
ACAD_XREC_ROUNDTRIP
360
AA
  0
DICTIONARY
  5
AD
330
32
100
AcDbDictionary
280
     1
281
     1
  3
ACAD_XREC_ROUNDTRIP
360
AE
  0
DICTIONARY
  5
B5
330
36
100
AcDbDictionary
280
     1
281
     1
  3
ACAD_XREC_ROUNDTRIP
360
B6
  0
DICTIONARY
  5
BD
330
3A
100
AcDbDictionary
280
     1
281
     1
  3
ACAD_XREC_ROUNDTRIP
360
BE
  0
DICTIONARY
  5
B1
330
34
100
AcDbDictionary
280
     1
281
     1
  3
ACAD_XREC_ROUNDTRIP
360
B2
  0
DICTIONARY
  5
B3
330
35
100
AcDbDictionary
280
     1
281
     1
  3
ACAD_XREC_ROUNDTRIP
360
B4
  0
DICTIONARY
  5
BB
330
39
100
AcDbDictionary
280
     1
281
     1
  3
ACAD_XREC_ROUNDTRIP
360
BC
  0
DICTIONARY
  5
9F
330
2B
100
AcDbDictionary
280
     1
281
     1
  3
ACAD_XREC_ROUNDTRIP
360
A0
  0
DICTIONARY
  5
A1
330
2C
100
AcDbDictionary
280
     1
281
     1
  3
ACAD_XREC_ROUNDTRIP
360
A2
  0
DICTIONARY
  5
A3
330
2D
100
AcDbDictionary
280
     1
281
     1
  3
ACAD_XREC_ROUNDTRIP
360
A4
  0
DICTIONARY
  5
A5
330
2E
100
AcDbDictionary
280
     1
281
     1
  3
ACAD_XREC_ROUNDTRIP
360
A6
  0
DICTIONARY
  5
B9
330
38
100
AcDbDictionary
280
     1
281
     1
  3
ACAD_XREC_ROUNDTRIP
360
BA
  0
DICTIONARY
  5
AF
330
33
100
AcDbDictionary
280
     1
281
     1
  3
ACAD_XREC_ROUNDTRIP
360
B0
  0
DICTIONARY
  5
B7
330
37
100
AcDbDictionary
280
     1
281
     1
  3
ACAD_XREC_ROUNDTRIP
360
B8
  0
XRECORD
  5
A8
102
{ACAD_REACTORS
330
A7
102
}
330
A7
100
AcDbXrecord
280
     1
102
RTVSPropertyOp0
 70
     1
102
RTVSPropertyOp1
 70
     1
102
RTVSPropertyOp2
 70
     1
102
RTVSPropertyOp3
 70
     1
102
RTVSPropertyOp4
 70
     1
102
RTVSPropertyOp5
 70
     1
102
RTVSPropertyOp6
 70
     1
102
RTVSPropertyOp7
 70
     1
102
RTVSPropertyOp8
 70
     1
102
RTVSPropertyOp9
 70
     1
102
RTVSPropertyOp10
 70
     1
102
RTVSPropertyOp11
 70
     1
102
RTVSPropertyOp12
 70
     1
102
RTVSPropertyOp13
 70
     1
102
RTVSPropertyOp14
 70
     1
102
RTVSPropertyOp15
 70
     1
102
RTVSPropertyOp16
 70
     1
102
RTVSPropertyOp17
 70
     1
102
RTVSPropertyOp18
 70
     1
102
RTVSPropertyOp19
 70
     1
102
RTVSPropertyOp20
 70
     1
102
RTVSPropertyOp21
 70
     1
102
RTVSPropertyOp22
 70
     1
102
RTVSPropertyOp23
 70
     1
102
RTVSPropertyOp24
 70
     1
102
RTVSPropertyOp25
 70
     1
102
RTVSPropertyOp26
 70
     1
102
RTVSPropertyOp27
 70
     1
102
RTVSPropertyOp28
 70
     1
102
RTVSPropertyOp29
 70
     1
102
RTVSPropertyOp30
 70
     1
102
RTVSPropertyOp31
 70
     1
102
RTVSPropertyOp32
 70
     1
  0
XRECORD
  5
AC
102
{ACAD_REACTORS
330
AB
102
}
330
AB
100
AcDbXrecord
280
     1
102
RTVSPropertyOp0
 70
     1
102
RTVSPropertyOp1
 70
     1
102
RTVSPropertyOp2
 70
     1
102
RTVSPropertyOp3
 70
     1
102
RTVSPropertyOp4
 70
     1
102
RTVSPropertyOp5
 70
     1
102
RTVSPropertyOp6
 70
     1
102
RTVSPropertyOp7
 70
     1
102
RTVSPropertyOp8
 70
     1
102
RTVSPropertyOp9
 70
     1
102
RTVSPropertyOp10
 70
     1
102
RTVSPropertyOp11
 70
     1
102
RTVSPropertyOp12
 70
     1
102
RTVSPropertyOp13
 70
     1
102
RTVSPropertyOp14
 70
     1
102
RTVSPropertyOp15
 70
     1
102
RTVSPropertyOp16
 70
     1
102
RTVSPropertyOp17
 70
     1
102
RTVSPropertyOp18
 70
     1
102
RTVSPropertyOp19
 70
     1
102
RTVSPropertyOp20
 70
     1
102
RTVSPropertyOp21
 70
     1
102
RTVSPropertyOp22
 70
     1
102
RTVSPropertyOp23
 70
     1
102
RTVSPropertyOp24
 70
     1
102
RTVSPropertyOp25
 70
     1
102
RTVSPropertyOp26
 70
     1
102
RTVSPropertyOp27
 70
     1
102
RTVSPropertyOp28
 70
     1
102
RTVSPropertyOp29
 70
     1
102
RTVSPropertyOp30
 70
     1
102
RTVSPropertyOp31
 70
     1
102
RTVSPropertyOp32
 70
     1
  0
XRECORD
  5
AA
102
{ACAD_REACTORS
330
A9
102
}
330
A9
100
AcDbXrecord
280
     1
102
RTVSPropertyOp0
 70
     1
102
RTVSPropertyOp1
 70
     1
102
RTVSPropertyOp2
 70
     1
102
RTVSPropertyOp3
 70
     1
102
RTVSPropertyOp4
 70
     1
102
RTVSPropertyOp5
 70
     1
102
RTVSPropertyOp6
 70
     1
102
RTVSPropertyOp7
 70
     1
102
RTVSPropertyOp8
 70
     1
102
RTVSPropertyOp9
 70
     1
102
RTVSPropertyOp10
 70
     1
102
RTVSPropertyOp11
 70
     1
102
RTVSPropertyOp12
 70
     1
102
RTVSPropertyOp13
 70
     1
102
RTVSPropertyOp14
 70
     1
102
RTVSPropertyOp15
 70
     1
102
RTVSPropertyOp16
 70
     1
102
RTVSPropertyOp17
 70
     1
102
RTVSPropertyOp18
 70
     1
102
RTVSPropertyOp19
 70
     1
102
RTVSPropertyOp20
 70
     1
102
RTVSPropertyOp21
 70
     1
102
RTVSPropertyOp22
 70
     1
102
RTVSPropertyOp23
 70
     1
102
RTVSPropertyOp24
 70
     1
102
RTVSPropertyOp25
 70
     1
102
RTVSPropertyOp26
 70
     1
102
RTVSPropertyOp27
 70
     1
102
RTVSPropertyOp28
 70
     1
102
RTVSPropertyOp29
 70
     1
102
RTVSPropertyOp30
 70
     1
102
RTVSPropertyOp31
 70
     1
102
RTVSPropertyOp32
 70
     1
  0
XRECORD
  5
AE
102
{ACAD_REACTORS
330
AD
102
}
330
AD
100
AcDbXrecord
280
     1
102
RTVSPropertyOp0
 70
     1
102
RTVSPropertyOp1
 70
     1
102
RTVSPropertyOp2
 70
     1
102
RTVSPropertyOp3
 70
     1
102
RTVSPropertyOp4
 70
     1
102
RTVSPropertyOp5
 70
     1
102
RTVSPropertyOp6
 70
     1
102
RTVSPropertyOp7
 70
     1
102
RTVSPropertyOp8
 70
     1
102
RTVSPropertyOp9
 70
     1
102
RTVSPropertyOp10
 70
     1
102
RTVSPropertyOp11
 70
     1
102
RTVSPropertyOp12
 70
     1
102
RTVSPropertyOp13
 70
     1
102
RTVSPropertyOp14
 70
     1
102
RTVSPropertyOp15
 70
     1
102
RTVSPropertyOp16
 70
     1
102
RTVSPropertyOp17
 70
     1
102
RTVSPropertyOp18
 70
     1
102
RTVSPropertyOp19
 70
     1
102
RTVSPropertyOp20
 70
     1
102
RTVSPropertyOp21
 70
     1
102
RTVSPropertyOp22
 70
     1
102
RTVSPropertyOp23
 70
     1
102
RTVSPropertyOp24
 70
     1
102
RTVSPropertyOp25
 70
     1
102
RTVSPropertyOp26
 70
     1
102
RTVSPropertyOp27
 70
     1
102
RTVSPropertyOp28
 70
     1
102
RTVSPropertyOp29
 70
     1
102
RTVSPropertyOp30
 70
     1
102
RTVSPropertyOp31
 70
     1
102
RTVSPropertyOp32
 70
     1
  0
XRECORD
  5
B6
102
{ACAD_REACTORS
330
B5
102
}
330
B5
100
AcDbXrecord
280
     1
102
RTVSPropertyOp0
 70
     1
102
RTVSPropertyOp1
 70
     1
102
RTVSPropertyOp2
 70
     1
102
RTVSPropertyOp3
 70
     1
102
RTVSPropertyOp4
 70
     1
102
RTVSPropertyOp5
 70
     1
102
RTVSPropertyOp6
 70
     1
102
RTVSPropertyOp7
 70
     1
102
RTVSPropertyOp8
 70
     1
102
RTVSPropertyOp9
 70
     1
102
RTVSPropertyOp10
 70
     1
102
RTVSPropertyOp11
 70
     1
102
RTVSPropertyOp12
 70
     1
102
RTVSPropertyOp13
 70
     1
102
RTVSPropertyOp14
 70
     1
102
RTVSPropertyOp15
 70
     1
102
RTVSPropertyOp16
 70
     1
102
RTVSPropertyOp17
 70
     1
102
RTVSPropertyOp18
 70
     1
102
RTVSPropertyOp19
 70
     1
102
RTVSPropertyOp20
 70
     1
102
RTVSPropertyOp21
 70
     1
102
RTVSPropertyOp22
 70
     1
102
RTVSPropertyOp23
 70
     1
102
RTVSPropertyOp24
 70
     1
102
RTVSPropertyOp25
 70
     1
102
RTVSPropertyOp26
 70
     1
102
RTVSPropertyOp27
 70
     1
102
RTVSPropertyOp28
 70
     1
102
RTVSPropertyOp29
 70
     1
102
RTVSPropertyOp30
 70
     1
102
RTVSPropertyOp31
 70
     1
102
RTVSPropertyOp32
 70
     1
  0
XRECORD
  5
BE
102
{ACAD_REACTORS
330
BD
102
}
330
BD
100
AcDbXrecord
280
     1
102
RTVSPropertyOp0
 70
     1
102
RTVSPropertyOp1
 70
     1
102
RTVSPropertyOp2
 70
     1
102
RTVSPropertyOp3
 70
     1
102
RTVSPropertyOp4
 70
     1
102
RTVSPropertyOp5
 70
     1
102
RTVSPropertyOp6
 70
     1
102
RTVSPropertyOp7
 70
     1
102
RTVSPropertyOp8
 70
     1
102
RTVSPropertyOp9
 70
     1
102
RTVSPropertyOp10
 70
     1
102
RTVSPropertyOp11
 70
     1
102
RTVSPropertyOp12
 70
     1
102
RTVSPropertyOp13
 70
     1
102
RTVSPropertyOp14
 70
     1
102
RTVSPropertyOp15
 70
     1
102
RTVSPropertyOp16
 70
     1
102
RTVSPropertyOp17
 70
     1
102
RTVSPropertyOp18
 70
     1
102
RTVSPropertyOp19
 70
     1
102
RTVSPropertyOp20
 70
     1
102
RTVSPropertyOp21
 70
     1
102
RTVSPropertyOp22
 70
     1
102
RTVSPropertyOp23
 70
     1
102
RTVSPropertyOp24
 70
     1
102
RTVSPropertyOp25
 70
     1
102
RTVSPropertyOp26
 70
     1
102
RTVSPropertyOp27
 70
     1
102
RTVSPropertyOp28
 70
     1
102
RTVSPropertyOp29
 70
     1
102
RTVSPropertyOp30
 70
     1
102
RTVSPropertyOp31
 70
     1
102
RTVSPropertyOp32
 70
     1
  0
XRECORD
  5
B2
102
{ACAD_REACTORS
330
B1
102
}
330
B1
100
AcDbXrecord
280
     1
102
RTVSPropertyOp0
 70
     1
102
RTVSPropertyOp1
 70
     1
102
RTVSPropertyOp2
 70
     1
102
RTVSPropertyOp3
 70
     1
102
RTVSPropertyOp4
 70
     1
102
RTVSPropertyOp5
 70
     1
102
RTVSPropertyOp6
 70
     1
102
RTVSPropertyOp7
 70
     1
102
RTVSPropertyOp8
 70
     1
102
RTVSPropertyOp9
 70
     1
102
RTVSPropertyOp10
 70
     1
102
RTVSPropertyOp11
 70
     1
102
RTVSPropertyOp12
 70
     1
102
RTVSPropertyOp13
 70
     1
102
RTVSPropertyOp14
 70
     1
102
RTVSPropertyOp15
 70
     1
102
RTVSPropertyOp16
 70
     1
102
RTVSPropertyOp17
 70
     1
102
RTVSPropertyOp18
 70
     1
102
RTVSPropertyOp19
 70
     1
102
RTVSPropertyOp20
 70
     1
102
RTVSPropertyOp21
 70
     1
102
RTVSPropertyOp22
 70
     1
102
RTVSPropertyOp23
 70
     1
102
RTVSPropertyOp24
 70
     1
102
RTVSPropertyOp25
 70
     1
102
RTVSPropertyOp26
 70
     1
102
RTVSPropertyOp27
 70
     1
102
RTVSPropertyOp28
 70
     1
102
RTVSPropertyOp29
 70
     1
102
RTVSPropertyOp30
 70
     1
102
RTVSPropertyOp31
 70
     1
102
RTVSPropertyOp32
 70
     1
  0
XRECORD
  5
B4
102
{ACAD_REACTORS
330
B3
102
}
330
B3
100
AcDbXrecord
280
     1
102
RTVSPropertyOp0
 70
     1
102
RTVSPropertyOp1
 70
     1
102
RTVSPropertyOp2
 70
     1
102
RTVSPropertyOp3
 70
     1
102
RTVSPropertyOp4
 70
     1
102
RTVSPropertyOp5
 70
     1
102
RTVSPropertyOp6
 70
     1
102
RTVSPropertyOp7
 70
     1
102
RTVSPropertyOp8
 70
     1
102
RTVSPropertyOp9
 70
     1
102
RTVSPropertyOp10
 70
     1
102
RTVSPropertyOp11
 70
     1
102
RTVSPropertyOp12
 70
     1
102
RTVSPropertyOp13
 70
     1
102
RTVSPropertyOp14
 70
     1
102
RTVSPropertyOp15
 70
     1
102
RTVSPropertyOp16
 70
     1
102
RTVSPropertyOp17
 70
     1
102
RTVSPropertyOp18
 70
     1
102
RTVSPropertyOp19
 70
     1
102
RTVSPropertyOp20
 70
     1
102
RTVSPropertyOp21
 70
     1
102
RTVSPropertyOp22
 70
     1
102
RTVSPropertyOp23
 70
     1
102
RTVSPropertyOp24
 70
     1
102
RTVSPropertyOp25
 70
     1
102
RTVSPropertyOp26
 70
     1
102
RTVSPropertyOp27
 70
     1
102
RTVSPropertyOp28
 70
     1
102
RTVSPropertyOp29
 70
     1
102
RTVSPropertyOp30
 70
     1
102
RTVSPropertyOp31
 70
     1
102
RTVSPropertyOp32
 70
     1
  0
XRECORD
  5
BC
102
{ACAD_REACTORS
330
BB
102
}
330
BB
100
AcDbXrecord
280
     1
102
RTVSPropertyOp0
 70
     1
102
RTVSPropertyOp1
 70
     1
102
RTVSPropertyOp2
 70
     1
102
RTVSPropertyOp3
 70
     1
102
RTVSPropertyOp4
 70
     1
102
RTVSPropertyOp5
 70
     1
102
RTVSPropertyOp6
 70
     1
102
RTVSPropertyOp7
 70
     1
102
RTVSPropertyOp8
 70
     1
102
RTVSPropertyOp9
 70
     1
102
RTVSPropertyOp10
 70
     1
102
RTVSPropertyOp11
 70
     1
102
RTVSPropertyOp12
 70
     1
102
RTVSPropertyOp13
 70
     1
102
RTVSPropertyOp14
 70
     1
102
RTVSPropertyOp15
 70
     1
102
RTVSPropertyOp16
 70
     1
102
RTVSPropertyOp17
 70
     1
102
RTVSPropertyOp18
 70
     1
102
RTVSPropertyOp19
 70
     1
102
RTVSPropertyOp20
 70
     1
102
RTVSPropertyOp21
 70
     1
102
RTVSPropertyOp22
 70
     1
102
RTVSPropertyOp23
 70
     1
102
RTVSPropertyOp24
 70
     1
102
RTVSPropertyOp25
 70
     1
102
RTVSPropertyOp26
 70
     1
102
RTVSPropertyOp27
 70
     1
102
RTVSPropertyOp28
 70
     1
102
RTVSPropertyOp29
 70
     1
102
RTVSPropertyOp30
 70
     1
102
RTVSPropertyOp31
 70
     1
102
RTVSPropertyOp32
 70
     1
  0
XRECORD
  5
A0
102
{ACAD_REACTORS
330
9F
102
}
330
9F
100
AcDbXrecord
280
     1
102
RTVSPropertyOp0
 70
     1
102
RTVSPropertyOp1
 70
     1
102
RTVSPropertyOp2
 70
     1
102
RTVSPropertyOp3
 70
     1
102
RTVSPropertyOp4
 70
     1
102
RTVSPropertyOp5
 70
     1
102
RTVSPropertyOp6
 70
     1
102
RTVSPropertyOp7
 70
     1
102
RTVSPropertyOp8
 70
     1
102
RTVSPropertyOp9
 70
     1
102
RTVSPropertyOp10
 70
     1
102
RTVSPropertyOp11
 70
     1
102
RTVSPropertyOp12
 70
     1
102
RTVSPropertyOp13
 70
     1
102
RTVSPropertyOp14
 70
     1
102
RTVSPropertyOp15
 70
     1
102
RTVSPropertyOp16
 70
     1
102
RTVSPropertyOp17
 70
     1
102
RTVSPropertyOp18
 70
     1
102
RTVSPropertyOp19
 70
     1
102
RTVSPropertyOp20
 70
     1
102
RTVSPropertyOp21
 70
     1
102
RTVSPropertyOp22
 70
     1
102
RTVSPropertyOp23
 70
     1
102
RTVSPropertyOp24
 70
     1
102
RTVSPropertyOp25
 70
     1
102
RTVSPropertyOp26
 70
     1
102
RTVSPropertyOp27
 70
     1
102
RTVSPropertyOp28
 70
     1
102
RTVSPropertyOp29
 70
     1
102
RTVSPropertyOp30
 70
     1
102
RTVSPropertyOp31
 70
     1
102
RTVSPropertyOp32
 70
     1
  0
XRECORD
  5
A2
102
{ACAD_REACTORS
330
A1
102
}
330
A1
100
AcDbXrecord
280
     1
102
RTVSPropertyOp0
 70
     1
102
RTVSPropertyOp1
 70
     1
102
RTVSPropertyOp2
 70
     1
102
RTVSPropertyOp3
 70
     1
102
RTVSPropertyOp4
 70
     1
102
RTVSPropertyOp5
 70
     1
102
RTVSPropertyOp6
 70
     1
102
RTVSPropertyOp7
 70
     1
102
RTVSPropertyOp8
 70
     1
102
RTVSPropertyOp9
 70
     1
102
RTVSPropertyOp10
 70
     1
102
RTVSPropertyOp11
 70
     1
102
RTVSPropertyOp12
 70
     1
102
RTVSPropertyOp13
 70
     1
102
RTVSPropertyOp14
 70
     1
102
RTVSPropertyOp15
 70
     1
102
RTVSPropertyOp16
 70
     1
102
RTVSPropertyOp17
 70
     1
102
RTVSPropertyOp18
 70
     1
102
RTVSPropertyOp19
 70
     1
102
RTVSPropertyOp20
 70
     1
102
RTVSPropertyOp21
 70
     1
102
RTVSPropertyOp22
 70
     1
102
RTVSPropertyOp23
 70
     1
102
RTVSPropertyOp24
 70
     1
102
RTVSPropertyOp25
 70
     1
102
RTVSPropertyOp26
 70
     1
102
RTVSPropertyOp27
 70
     1
102
RTVSPropertyOp28
 70
     1
102
RTVSPropertyOp29
 70
     1
102
RTVSPropertyOp30
 70
     1
102
RTVSPropertyOp31
 70
     1
102
RTVSPropertyOp32
 70
     1
  0
XRECORD
  5
A4
102
{ACAD_REACTORS
330
A3
102
}
330
A3
100
AcDbXrecord
280
     1
102
RTVSPropertyOp0
 70
     1
102
RTVSPropertyOp1
 70
     1
102
RTVSPropertyOp2
 70
     1
102
RTVSPropertyOp3
 70
     1
102
RTVSPropertyOp4
 70
     1
102
RTVSPropertyOp5
 70
     1
102
RTVSPropertyOp6
 70
     1
102
RTVSPropertyOp7
 70
     1
102
RTVSPropertyOp8
 70
     1
102
RTVSPropertyOp9
 70
     1
102
RTVSPropertyOp10
 70
     1
102
RTVSPropertyOp11
 70
     1
102
RTVSPropertyOp12
 70
     1
102
RTVSPropertyOp13
 70
     1
102
RTVSPropertyOp14
 70
     1
102
RTVSPropertyOp15
 70
     1
102
RTVSPropertyOp16
 70
     1
102
RTVSPropertyOp17
 70
     1
102
RTVSPropertyOp18
 70
     1
102
RTVSPropertyOp19
 70
     1
102
RTVSPropertyOp20
 70
     1
102
RTVSPropertyOp21
 70
     1
102
RTVSPropertyOp22
 70
     1
102
RTVSPropertyOp23
 70
     1
102
RTVSPropertyOp24
 70
     1
102
RTVSPropertyOp25
 70
     1
102
RTVSPropertyOp26
 70
     1
102
RTVSPropertyOp27
 70
     1
102
RTVSPropertyOp28
 70
     1
102
RTVSPropertyOp29
 70
     1
102
RTVSPropertyOp30
 70
     1
102
RTVSPropertyOp31
 70
     1
102
RTVSPropertyOp32
 70
     1
  0
XRECORD
  5
A6
102
{ACAD_REACTORS
330
A5
102
}
330
A5
100
AcDbXrecord
280
     1
102
RTVSPropertyOp0
 70
     1
102
RTVSPropertyOp1
 70
     1
102
RTVSPropertyOp2
 70
     1
102
RTVSPropertyOp3
 70
     1
102
RTVSPropertyOp4
 70
     1
102
RTVSPropertyOp5
 70
     1
102
RTVSPropertyOp6
 70
     1
102
RTVSPropertyOp7
 70
     1
102
RTVSPropertyOp8
 70
     1
102
RTVSPropertyOp9
 70
     1
102
RTVSPropertyOp10
 70
     1
102
RTVSPropertyOp11
 70
     1
102
RTVSPropertyOp12
 70
     1
102
RTVSPropertyOp13
 70
     1
102
RTVSPropertyOp14
 70
     1
102
RTVSPropertyOp15
 70
     1
102
RTVSPropertyOp16
 70
     1
102
RTVSPropertyOp17
 70
     1
102
RTVSPropertyOp18
 70
     1
102
RTVSPropertyOp19
 70
     1
102
RTVSPropertyOp20
 70
     1
102
RTVSPropertyOp21
 70
     1
102
RTVSPropertyOp22
 70
     1
102
RTVSPropertyOp23
 70
     1
102
RTVSPropertyOp24
 70
     1
102
RTVSPropertyOp25
 70
     1
102
RTVSPropertyOp26
 70
     1
102
RTVSPropertyOp27
 70
     1
102
RTVSPropertyOp28
 70
     1
102
RTVSPropertyOp29
 70
     1
102
RTVSPropertyOp30
 70
     1
102
RTVSPropertyOp31
 70
     1
102
RTVSPropertyOp32
 70
     1
  0
XRECORD
  5
BA
102
{ACAD_REACTORS
330
B9
102
}
330
B9
100
AcDbXrecord
280
     1
102
RTVSPropertyOp0
 70
     1
102
RTVSPropertyOp1
 70
     1
102
RTVSPropertyOp2
 70
     1
102
RTVSPropertyOp3
 70
     1
102
RTVSPropertyOp4
 70
     1
102
RTVSPropertyOp5
 70
     1
102
RTVSPropertyOp6
 70
     1
102
RTVSPropertyOp7
 70
     1
102
RTVSPropertyOp8
 70
     1
102
RTVSPropertyOp9
 70
     1
102
RTVSPropertyOp10
 70
     1
102
RTVSPropertyOp11
 70
     1
102
RTVSPropertyOp12
 70
     1
102
RTVSPropertyOp13
 70
     1
102
RTVSPropertyOp14
 70
     1
102
RTVSPropertyOp15
 70
     1
102
RTVSPropertyOp16
 70
     1
102
RTVSPropertyOp17
 70
     1
102
RTVSPropertyOp18
 70
     1
102
RTVSPropertyOp19
 70
     1
102
RTVSPropertyOp20
 70
     1
102
RTVSPropertyOp21
 70
     1
102
RTVSPropertyOp22
 70
     1
102
RTVSPropertyOp23
 70
     1
102
RTVSPropertyOp24
 70
     1
102
RTVSPropertyOp25
 70
     1
102
RTVSPropertyOp26
 70
     1
102
RTVSPropertyOp27
 70
     1
102
RTVSPropertyOp28
 70
     1
102
RTVSPropertyOp29
 70
     1
102
RTVSPropertyOp30
 70
     1
102
RTVSPropertyOp31
 70
     1
102
RTVSPropertyOp32
 70
     1
  0
XRECORD
  5
B0
102
{ACAD_REACTORS
330
AF
102
}
330
AF
100
AcDbXrecord
280
     1
102
RTVSPropertyOp0
 70
     1
102
RTVSPropertyOp1
 70
     1
102
RTVSPropertyOp2
 70
     1
102
RTVSPropertyOp3
 70
     1
102
RTVSPropertyOp4
 70
     1
102
RTVSPropertyOp5
 70
     1
102
RTVSPropertyOp6
 70
     1
102
RTVSPropertyOp7
 70
     1
102
RTVSPropertyOp8
 70
     1
102
RTVSPropertyOp9
 70
     1
102
RTVSPropertyOp10
 70
     1
102
RTVSPropertyOp11
 70
     1
102
RTVSPropertyOp12
 70
     1
102
RTVSPropertyOp13
 70
     1
102
RTVSPropertyOp14
 70
     1
102
RTVSPropertyOp15
 70
     1
102
RTVSPropertyOp16
 70
     1
102
RTVSPropertyOp17
 70
     1
102
RTVSPropertyOp18
 70
     1
102
RTVSPropertyOp19
 70
     1
102
RTVSPropertyOp20
 70
     1
102
RTVSPropertyOp21
 70
     1
102
RTVSPropertyOp22
 70
     1
102
RTVSPropertyOp23
 70
     1
102
RTVSPropertyOp24
 70
     1
102
RTVSPropertyOp25
 70
     1
102
RTVSPropertyOp26
 70
     1
102
RTVSPropertyOp27
 70
     1
102
RTVSPropertyOp28
 70
     1
102
RTVSPropertyOp29
 70
     1
102
RTVSPropertyOp30
 70
     1
102
RTVSPropertyOp31
 70
     1
102
RTVSPropertyOp32
 70
     1
  0
XRECORD
  5
B8
102
{ACAD_REACTORS
330
B7
102
}
330
B7
100
AcDbXrecord
280
     1
102
RTVSPropertyOp0
 70
     1
102
RTVSPropertyOp1
 70
     1
102
RTVSPropertyOp2
 70
     1
102
RTVSPropertyOp3
 70
     1
102
RTVSPropertyOp4
 70
     1
102
RTVSPropertyOp5
 70
     1
102
RTVSPropertyOp6
 70
     1
102
RTVSPropertyOp7
 70
     1
102
RTVSPropertyOp8
 70
     1
102
RTVSPropertyOp9
 70
     1
102
RTVSPropertyOp10
 70
     1
102
RTVSPropertyOp11
 70
     1
102
RTVSPropertyOp12
 70
     1
102
RTVSPropertyOp13
 70
     1
102
RTVSPropertyOp14
 70
     1
102
RTVSPropertyOp15
 70
     1
102
RTVSPropertyOp16
 70
     1
102
RTVSPropertyOp17
 70
     1
102
RTVSPropertyOp18
 70
     1
102
RTVSPropertyOp19
 70
     1
102
RTVSPropertyOp20
 70
     1
102
RTVSPropertyOp21
 70
     1
102
RTVSPropertyOp22
 70
     1
102
RTVSPropertyOp23
 70
     1
102
RTVSPropertyOp24
 70
     1
102
RTVSPropertyOp25
 70
     1
102
RTVSPropertyOp26
 70
     1
102
RTVSPropertyOp27
 70
     1
102
RTVSPropertyOp28
 70
     1
102
RTVSPropertyOp29
 70
     1
102
RTVSPropertyOp30
 70
     1
102
RTVSPropertyOp31
 70
     1
102
RTVSPropertyOp32
 70
     1
  0
ENDSEC
  0
EOF
