  0
SECTION
  2
HEADER
  9
$ACADVER
  1
AC1021
  9
$ACADMAINTVER
 70
    25
  9
$DWGCODEPAGE
  3
ANSI_1252
  9
$INSBASE
 10
0.0
 20
0.0
 30
0.0
  9
$EXTMIN
 10
67.9046
 20
-114.9261
 30
0.0
  9
$EXTMAX
 10
196.2662
 20
131.755
 30
0.0
  9
$LIMMIN
 10
0.0
 20
0.0
  9
$LIMMAX
 10
12.0
 20
9.0
  9
$ORTHOMODE
 70
     0
  9
$REGENMODE
 70
     1
  9
$FILLMODE
 70
     1
  9
$QTEXTMODE
 70
     0
  9
$MIRRTEXT
 70
     1
  9
$LTSCALE
 40
1.0
  9
$ATTMODE
 70
     1
  9
$TEXTSIZE
 40
0.2
  9
$TRACEWID
 40
0.05
  9
$TEXTSTYLE
  7
Standard
  9
$CLAYER
  8
0
  9
$CELTYPE
  6
ByLayer
  9
$CECOLOR
 62
   256
  9
$CELTSCALE
 40
1.0
  9
$DISPSILH
 70
     0
  9
$DIMSCALE
 40
1.0
  9
$DIMASZ
 40
0.18
  9
$DIMEXO
 40
0.0625
  9
$DIMDLI
 40
0.38
  9
$DIMRND
 40
0.0
  9
$DIMDLE
 40
0.0
  9
$DIMEXE
 40
0.18
  9
$DIMTP
 40
0.0
  9
$DIMTM
 40
0.0
  9
$DIMTXT
 40
0.18
  9
$DIMCEN
 40
0.09
  9
$DIMTSZ
 40
0.0
  9
$DIMTOL
 70
     0
  9
$DIMLIM
 70
     0
  9
$DIMTIH
 70
     1
  9
$DIMTOH
 70
     1
  9
$DIMSE1
 70
     0
  9
$DIMSE2
 70
     0
  9
$DIMTAD
 70
     0
  9
$DIMZIN
 70
     0
  9
$DIMBLK
  1

  9
$DIMASO
 70
     1
  9
$DIMSHO
 70
     1
  9
$DIMPOST
  1

  9
$DIMAPOST
  1

  9
$DIMALT
 70
     0
  9
$DIMALTD
 70
     2
  9
$DIMALTF
 40
25.4
  9
$DIMLFAC
 40
1.0
  9
$DIMTOFL
 70
     0
  9
$DIMTVP
 40
0.0
  9
$DIMTIX
 70
     0
  9
$DIMSOXD
 70
     0
  9
$DIMSAH
 70
     0
  9
$DIMBLK1
  1

  9
$DIMBLK2
  1

  9
$DIMSTYLE
  2
Standard
  9
$DIMCLRD
 70
     0
  9
$DIMCLRE
 70
     0
  9
$DIMCLRT
 70
     0
  9
$DIMTFAC
 40
1.0
  9
$DIMGAP
 40
0.09
  9
$DIMJUST
 70
     0
  9
$DIMSD1
 70
     0
  9
$DIMSD2
 70
     0
  9
$DIMTOLJ
 70
     1
  9
$DIMTZIN
 70
     0
  9
$DIMALTZ
 70
     0
  9
$DIMALTTZ
 70
     0
  9
$DIMUPT
 70
     0
  9
$DIMDEC
 70
     4
  9
$DIMTDEC
 70
     4
  9
$DIMALTU
 70
     2
  9
$DIMALTTD
 70
     2
  9
$DIMTXSTY
  7
Standard
  9
$DIMAUNIT
 70
     0
  9
$DIMADEC
 70
     0
  9
$DIMALTRND
 40
0.0
  9
$DIMAZIN
 70
     0
  9
$DIMDSEP
 70
    46
  9
$DIMATFIT
 70
     3
  9
$DIMFRAC
 70
     0
  9
$DIMLDRBLK
  1

  9
$DIMLUNIT
 70
     2
  9
$DIMLWD
 70
    -2
  9
$DIMLWE
 70
    -2
  9
$DIMTMOVE
 70
     0
  9
$DIMFXL
 40
1.0
  9
$DIMFXLON
 70
     0
  9
$DIMJOGANG
 40
0.7853981633974483
  9
$DIMTFILL
 70
     0
  9
$DIMTFILLCLR
 70
     0
  9
$DIMARCSYM
 70
     0
  9
$DIMLTYPE
  6

  9
$DIMLTEX1
  6

  9
$DIMLTEX2
  6

  9
$LUNITS
 70
     2
  9
$LUPREC
 70
     4
  9
$SKETCHINC
 40
0.1
  9
$FILLETRAD
 40
0.5
  9
$AUNITS
 70
     0
  9
$AUPREC
 70
     0
  9
$MENU
  1
.
  9
$ELEVATION
 40
0.0
  9
$PELEVATION
 40
0.0
  9
$THICKNESS
 40
0.0
  9
$LIMCHECK
 70
     0
  9
$CHAMFERA
 40
0.5
  9
$CHAMFERB
 40
0.5
  9
$CHAMFERC
 40
1.0
  9
$CHAMFERD
 40
0.0
  9
$SKPOLY
 70
     0
  9
$TDCREATE
 40
2458493.670308738
  9
$TDUCREATE
 40
2458493.670308738
  9
$TDUPDATE
 40
2458493.67030897
  9
$TDUUPDATE
 40
2458493.67030897
  9
$TDINDWG
 40
0.0000000116
  9
$TDUSRTIMER
 40
0.0000000116
  9
$USRTIMER
 70
     1
  9
$ANGBASE
 50
0.0
  9
$ANGDIR
 70
     0
  9
$PDMODE
 70
     0
  9
$PDSIZE
 40
0.0
  9
$PLINEWID
 40
0.0
  9
$SPLFRAME
 70
     0
  9
$SPLINETYPE
 70
     6
  9
$SPLINESEGS
 70
     8
  9
$HANDSEED
  5
DD
  9
$SURFTAB1
 70
     6
  9
$SURFTAB2
 70
     6
  9
$SURFTYPE
 70
     6
  9
$SURFU
 70
     6
  9
$SURFV
 70
     6
  9
$UCSBASE
  2

  9
$UCSNAME
  2

  9
$UCSORG
 10
0.0
 20
0.0
 30
0.0
  9
$UCSXDIR
 10
1.0
 20
0.0
 30
0.0
  9
$UCSYDIR
 10
0.0
 20
1.0
 30
0.0
  9
$UCSORTHOREF
  2

  9
$UCSORTHOVIEW
 70
     0
  9
$UCSORGTOP
 10
0.0
 20
0.0
 30
0.0
  9
$UCSORGBOTTOM
 10
0.0
 20
0.0
 30
0.0
  9
$UCSORGLEFT
 10
0.0
 20
0.0
 30
0.0
  9
$UCSORGRIGHT
 10
0.0
 20
0.0
 30
0.0
  9
$UCSORGFRONT
 10
0.0
 20
0.0
 30
0.0
  9
$UCSORGBACK
 10
0.0
 20
0.0
 30
0.0
  9
$PUCSBASE
  2

  9
$PUCSNAME
  2

  9
$PUCSORG
 10
0.0
 20
0.0
 30
0.0
  9
$PUCSXDIR
 10
1.0
 20
0.0
 30
0.0
  9
$PUCSYDIR
 10
0.0
 20
1.0
 30
0.0
  9
$PUCSORTHOREF
  2

  9
$PUCSORTHOVIEW
 70
     0
  9
$PUCSORGTOP
 10
0.0
 20
0.0
 30
0.0
  9
$PUCSORGBOTTOM
 10
0.0
 20
0.0
 30
0.0
  9
$PUCSORGLEFT
 10
0.0
 20
0.0
 30
0.0
  9
$PUCSORGRIGHT
 10
0.0
 20
0.0
 30
0.0
  9
$PUCSORGFRONT
 10
0.0
 20
0.0
 30
0.0
  9
$PUCSORGBACK
 10
0.0
 20
0.0
 30
0.0
  9
$USERI1
 70
     0
  9
$USERI2
 70
     0
  9
$USERI3
 70
     0
  9
$USERI4
 70
     0
  9
$USERI5
 70
     0
  9
$USERR1
 40
0.0
  9
$USERR2
 40
0.0
  9
$USERR3
 40
0.0
  9
$USERR4
 40
0.0
  9
$USERR5
 40
0.0
  9
$WORLDVIEW
 70
     1
  9
$SHADEDGE
 70
     3
  9
$SHADEDIF
 70
    70
  9
$TILEMODE
 70
     1
  9
$MAXACTVP
 70
    64
  9
$PINSBASE
 10
0.0
 20
0.0
 30
0.0
  9
$PLIMCHECK
 70
     0
  9
$PEXTMIN
 10
1.000000000000000E+20
 20
1.000000000000000E+20
 30
1.000000000000000E+20
  9
$PEXTMAX
 10
-1.000000000000000E+20
 20
-1.000000000000000E+20
 30
-1.000000000000000E+20
  9
$PLIMMIN
 10
0.0
 20
0.0
  9
$PLIMMAX
 10
12.0
 20
9.0
  9
$UNITMODE
 70
     0
  9
$VISRETAIN
 70
     1
  9
$PLINEGEN
 70
     0
  9
$PSLTSCALE
 70
     1
  9
$TREEDEPTH
 70
  3020
  9
$CMLSTYLE
  2
Standard
  9
$CMLJUST
 70
     0
  9
$CMLSCALE
 40
1.0
  9
$PROXYGRAPHICS
 70
     1
  9
$MEASUREMENT
 70
     0
  9
$CELWEIGHT
370
    -1
  9
$ENDCAPS
280
     0
  9
$JOINSTYLE
280
     0
  9
$LWDISPLAY
290
     0
  9
$INSUNITS
 70
     4
  9
$HYPERLINKBASE
  1

  9
$STYLESHEET
  1

  9
$XEDIT
290
     1
  9
$CEPSNTYPE
380
     0
  9
$PSTYLEMODE
290
     1
  9
$FINGERPRINTGUID
  2
{CD406660-099B-460D-A2FD-15C98DA5C0BA}
  9
$VERSIONGUID
  2
{FAEB1C32-E019-11D5-929B-00C0DF256EC4}
  9
$EXTNAMES
290
     1
  9
$PSVPSCALE
 40
0.0
  9
$OLESTARTUP
290
     0
  9
$SORTENTS
280
   127
  9
$INDEXCTL
280
     0
  9
$HIDETEXT
280
     1
  9
$XCLIPFRAME
290
     0
  9
$HALOGAP
280
     0
  9
$OBSCOLOR
 70
   257
  9
$OBSLTYPE
280
     0
  9
$INTERSECTIONDISPLAY
280
     0
  9
$INTERSECTIONCOLOR
 70
   257
  9
$DIMASSOC
280
     2
  9
$PROJECTNAME
  1

  9
$CAMERADISPLAY
290
     0
  9
$LENSLENGTH
 40
50.0
  9
$CAMERAHEIGHT
 40
0.0
  9
$STEPSPERSEC
 40
2.0
  9
$STEPSIZE
 40
6.0
  9
$3DDWFPREC
 40
2.0
  9
$PSOLWIDTH
 40
0.25
  9
$PSOLHEIGHT
 40
4.0
  9
$LOFTANG1
 40
1.570796326794897
  9
$LOFTANG2
 40
1.570796326794897
  9
$LOFTMAG1
 40
0.0
  9
$LOFTMAG2
 40
0.0
  9
$LOFTPARAM
 70
     7
  9
$LOFTNORMALS
280
     1
  9
$LATITUDE
 40
37.795
  9
$LONGITUDE
 40
-122.394
  9
$NORTHDIRECTION
 40
0.0
  9
$TIMEZONE
 70
 -8000
  9
$LIGHTGLYPHDISPLAY
280
     1
  9
$TILEMODELIGHTSYNCH
280
     1
  9
$SOLIDHIST
280
     1
  9
$SHOWHIST
280
     1
  9
$DWFFRAME
280
     2
  9
$DGNFRAME
280
     2
  9
$REALWORLDSCALE
290
     1
  9
$INTERFERECOLOR
 62
   256
  9
$CSHADOW
280
     0
  9
$SHADOWPLANELOCATION
 40
0.0
  0
ENDSEC
  0
SECTION
  2
CLASSES
  0
CLASS
  1
ACDBDICTIONARYWDFLT
  2
AcDbDictionaryWithDefault
  3
ObjectDBX Classes
 90
        0
 91
        4
280
     0
281
     0
  0
CLASS
  1
VISUALSTYLE
  2
AcDbVisualStyle
  3
ObjectDBX Classes
 90
     4095
 91
        4
280
     0
281
     0
  0
CLASS
  1
MATERIAL
  2
AcDbMaterial
  3
ObjectDBX Classes
 90
     1153
 91
        4
280
     0
281
     0
  0
ENDSEC
  0
SECTION
  2
TABLES
  0
TABLE
  2
VPORT
  5
8
330
0
100
AcDbSymbolTable
 70
     1
  0
VPORT
  5
29
330
8
100
AcDbSymbolTableRecord
100
AcDbViewportTableRecord
  2
*Active
 70
     0
 10
0.0
 20
0.0
 11
1.0
 21
1.0
 12
10.42990654205607
 22
4.5
 13
0.0
 23
0.0
 14
0.5
 24
0.5
 15
0.5
 25
0.5
 16
0.0
 26
0.0
 36
1.0
 17
0.0
 27
0.0
 37
0.0
 40
9.0
 41
1.972972972850329
 42
50.0
 43
0.0
 44
0.0
 50
0.0
 51
0.0
 71
     0
 72
   100
 73
     1
 74
     3
 75
     0
 76
     0
 77
     0
 78
     0
281
     0
 65
     1
110
0.0
120
0.0
130
0.0
111
1.0
121
0.0
131
0.0
112
0.0
122
1.0
132
0.0
 79
     0
146
0.0
 60
     3
 61
     5
292
     1
282
     1
141
0.0
142
0.0
 63
   250
  0
ENDTAB
  0
TABLE
  2
LTYPE
  5
5
330
0
100
AcDbSymbolTable
 70
     1
  0
LTYPE
  5
14
330
5
100
AcDbSymbolTableRecord
100
AcDbLinetypeTableRecord
  2
ByBlock
 70
     0
  3

 72
    65
 73
     0
 40
0.0
  0
LTYPE
  5
15
330
5
100
AcDbSymbolTableRecord
100
AcDbLinetypeTableRecord
  2
ByLayer
 70
     0
  3

 72
    65
 73
     0
 40
0.0
  0
LTYPE
  5
16
330
5
100
AcDbSymbolTableRecord
100
AcDbLinetypeTableRecord
  2
Continuous
 70
     0
  3
Solid line
 72
    65
 73
     0
 40
0.0
  0
ENDTAB
  0
TABLE
  2
LAYER
  5
2
330
0
100
AcDbSymbolTable
 70
     3
  0
LAYER
  5
10
330
2
100
AcDbSymbolTableRecord
100
AcDbLayerTableRecord
  2
0
 70
     0
 62
     7
  6
Continuous
370
    -3
390
F
347
3E
  0
LAYER
  5
40
330
2
100
AcDbSymbolTableRecord
100
AcDbLayerTableRecord
  2
layer 1
 70
     0
 62
     7
  6
Continuous
370
    -3
390
F
347
3E
  0
LAYER
  5
BA
330
2
100
AcDbSymbolTableRecord
100
AcDbLayerTableRecord
  2
Master Guides
 70
     0
 62
     7
  6
Continuous
370
    -3
390
F
347
3E
  0
ENDTAB
  0
TABLE
  2
STYLE
  5
3
330
0
100
AcDbSymbolTable
 70
     1
  0
STYLE
  5
11
330
3
100
AcDbSymbolTableRecord
100
AcDbTextStyleTableRecord
  2
Standard
 70
     0
 40
0.0
 41
1.0
 50
0.0
 71
     0
 42
0.2
  3
txt
  4

  0
ENDTAB
  0
TABLE
  2
VIEW
  5
6
330
0
100
AcDbSymbolTable
 70
     0
  0
ENDTAB
  0
TABLE
  2
UCS
  5
7
330
0
100
AcDbSymbolTable
 70
     0
  0
ENDTAB
  0
TABLE
  2
APPID
  5
9
330
0
100
AcDbSymbolTable
 70
     2
  0
APPID
  5
12
330
9
100
AcDbSymbolTableRecord
100
AcDbRegAppTableRecord
  2
ACAD
 70
     0
  0
APPID
  5
3F
330
9
100
AcDbSymbolTableRecord
100
AcDbRegAppTableRecord
  2
ODA
 70
     0
  0
ENDTAB
  0
TABLE
  2
DIMSTYLE
  5
A
330
0
100
AcDbSymbolTable
 70
     1
100
AcDbDimStyleTable
  0
DIMSTYLE
105
27
330
A
100
AcDbSymbolTableRecord
100
AcDbDimStyleTableRecord
  2
Standard
 70
     0
178
     0
340
11
  0
ENDTAB
  0
TABLE
  2
BLOCK_RECORD
  5
1
330
0
100
AcDbSymbolTable
 70
     1
  0
BLOCK_RECORD
  5
1F
330
1
100
AcDbSymbolTableRecord
100
AcDbBlockTableRecord
  2
*Model_Space
340
22
 70
     0
280
     1
281
     0
  0
BLOCK_RECORD
  5
1B
330
1
100
AcDbSymbolTableRecord
100
AcDbBlockTableRecord
  2
*Paper_Space
340
1E
 70
     0
280
     1
281
     0
  0
BLOCK_RECORD
  5
23
330
1
100
AcDbSymbolTableRecord
100
AcDbBlockTableRecord
  2
*Paper_Space0
340
26
 70
     0
280
     1
281
     0
  0
ENDTAB
  0
ENDSEC
  0
SECTION
  2
BLOCKS
  0
BLOCK
  5
20
330
1F
100
AcDbEntity
  8
0
100
AcDbBlockBegin
  2
*Model_Space
 70
     0
 10
0.0
 20
0.0
 30
0.0
  3
*Model_Space
  1

  0
ENDBLK
  5
21
330
1F
100
AcDbEntity
  8
0
100
AcDbBlockEnd
  0
BLOCK
  5
1C
330
1B
100
AcDbEntity
 67
     1
  8
0
100
AcDbBlockBegin
  2
*Paper_Space
 70
     0
 10
0.0
 20
0.0
 30
0.0
  3
*Paper_Space
  1

  0
ENDBLK
  5
1D
330
1B
100
AcDbEntity
 67
     1
  8
0
100
AcDbBlockEnd
  0
BLOCK
  5
24
330
23
100
AcDbEntity
  8
0
100
AcDbBlockBegin
  2
*Paper_Space0
 70
     0
 10
0.0
 20
0.0
 30
0.0
  3
*Paper_Space0
  1

  0
ENDBLK
  5
25
330
23
100
AcDbEntity
  8
0
100
AcDbBlockEnd
  0
ENDSEC
  0
SECTION
  2
ENTITIES
  0
LWPOLYLINE
  5
41
330
1F
100
AcDbEntity
  8
layer 1
100
AcDbPolyline
 90
        5
 70
     1
 43
0.0
 10
67.9046
 20
-114.9261
 10
196.2662
 20
-114.9261
 10
196.2662
 20
131.7549
 10
67.9046
 20
131.7549
 10
67.9046
 20
-114.9261
  0
SPLINE
  5
42
330
1F
100
AcDbEntity
  8
layer 1
 62
     7
100
AcDbSpline
210
0.0
220
0.0
230
1.0
 70
    11
 71
     3
 72
    12
 73
     8
 74
     0
 42
0.0000000001
 43
0.0000000001
 12
1.0
 22
0.0
 32
0.0
 13
1.0
 23
0.0
 33
0.0
 40
0.0
 40
0.0
 40
0.0
 40
0.0
 40
0.3333333333333333
 40
0.3333333333333333
 40
0.3333333333333333
 40
0.3333333333333333
 40
1.0
 40
1.0
 40
1.0
 40
1.0
 10
110.3375
 20
7.6755
 30
0.0
 10
112.1838
 20
4.5536
 30
0.0
 10
120.2329
 20
4.0214
 30
0.0
 10
122.6137
 20
7.6755
 30
0.0
 10
122.6137
 20
7.6755
 30
0.0
 10
120.2329
 20
11.3296
 30
0.0
 10
112.1838
 20
10.7974
 30
0.0
 10
110.3375
 20
7.6755
 30
0.0
  0
SPLINE
  5
43
330
1F
100
AcDbEntity
  8
layer 1
 62
     7
100
AcDbSpline
210
0.0
220
0.0
230
1.0
 70
    11
 71
     3
 72
    24
 73
    20
 74
     0
 42
0.0000000001
 43
0.0000000001
 12
1.0
 22
0.0
 32
0.0
 13
1.0
 23
0.0
 33
0.0
 40
0.0
 40
0.0
 40
0.0
 40
0.0
 40
0.1666666666666667
 40
0.1666666666666667
 40
0.1666666666666667
 40
0.1666666666666667
 40
0.3333333333333333
 40
0.3333333333333333
 40
0.3333333333333333
 40
0.3333333333333333
 40
0.5
 40
0.5
 40
0.5
 40
0.5
 40
0.6666666666666666
 40
0.6666666666666666
 40
0.6666666666666666
 40
0.6666666666666666
 40
1.0
 40
1.0
 40
1.0
 40
1.0
 10
128.6469
 20
9.4543
 30
0.0
 10
128.3414
 20
10.1217
 30
0.0
 10
126.7982
 20
10.7137
 30
0.0
 10
125.773
 20
10.7247
 30
0.0
 10
125.773
 20
10.7247
 30
0.0
 10
125.0081
 20
10.7329
 30
0.0
 10
124.9705
 20
10.1546
 30
0.0
 10
125.3244
 20
9.8038
 30
0.0
 10
125.3244
 20
9.8038
 30
0.0
 10
126.1479
 20
8.9877
 30
0.0
 10
127.6869
 20
8.5464
 30
0.0
 10
128.4159
 20
8.8124
 30
0.0
 10
128.4159
 20
8.8124
 30
0.0
 10
128.5609
 20
8.8653
 30
0.0
 10
128.8105
 20
9.0967
 30
0.0
 10
128.6469
 20
9.4544
 30
0.0
 10
128.6469
 20
9.4544
 30
0.0
 10
128.6469
 20
9.4544
 30
0.0
 10
128.6469
 20
9.4543
 30
0.0
 10
128.6469
 20
9.4543
 30
0.0
  0
SPLINE
  5
44
330
1F
100
AcDbEntity
  8
layer 1
 62
     7
100
AcDbSpline
210
0.0
220
0.0
230
1.0
 70
    11
 71
     3
 72
    20
 73
    16
 74
     0
 42
0.0000000001
 43
0.0000000001
 12
1.0
 22
0.0
 32
0.0
 13
1.0
 23
0.0
 33
0.0
 40
0.0
 40
0.0
 40
0.0
 40
0.0
 40
0.2
 40
0.2
 40
0.2
 40
0.2
 40
0.4
 40
0.4
 40
0.4
 40
0.4
 40
0.6
 40
0.6
 40
0.6
 40
0.6
 40
1.0
 40
1.0
 40
1.0
 40
1.0
 10
130.4881
 20
11.1562
 30
0.0
 10
130.5446
 20
12.3282
 30
0.0
 10
129.7384
 20
13.6245
 30
0.0
 10
128.4887
 20
13.8726
 30
0.0
 10
128.4887
 20
13.8726
 30
0.0
 10
127.8992
 20
13.9824
 30
0.0
 10
127.7675
 20
13.8995
 30
0.0
 10
127.7312
 20
13.3672
 30
0.0
 10
127.7312
 20
13.3672
 30
0.0
 10
127.7571
 20
12.1748
 30
0.0
 10
128.7579
 20
10.8107
 30
0.0
 10
129.9214
 20
10.6846
 30
0.0
 10
129.9214
 20
10.6846
 30
0.0
 10
130.3842
 20
10.6301
 30
0.0
 10
130.4423
 20
10.7612
 30
0.0
 10
130.4881
 20
11.1562
 30
0.0
  0
SPLINE
  5
45
330
1F
100
AcDbEntity
  8
layer 1
 62
     7
100
AcDbSpline
210
0.0
220
0.0
230
1.0
 70
    11
 71
     3
 72
    48
 73
    44
 74
     0
 42
0.0000000001
 43
0.0000000001
 12
1.0
 22
0.0
 32
0.0
 13
1.0
 23
0.0
 33
0.0
 40
0.0
 40
0.0
 40
0.0
 40
0.0
 40
0.0833333333333333
 40
0.0833333333333333
 40
0.0833333333333333
 40
0.0833333333333333
 40
0.1666666666666667
 40
0.1666666666666667
 40
0.1666666666666667
 40
0.1666666666666667
 40
0.25
 40
0.25
 40
0.25
 40
0.25
 40
0.3333333333333333
 40
0.3333333333333333
 40
0.3333333333333333
 40
0.3333333333333333
 40
0.4166666666666667
 40
0.4166666666666667
 40
0.4166666666666667
 40
0.4166666666666667
 40
0.5
 40
0.5
 40
0.5
 40
0.5
 40
0.5833333333333334
 40
0.5833333333333334
 40
0.5833333333333334
 40
0.5833333333333334
 40
0.6666666666666666
 40
0.6666666666666666
 40
0.6666666666666666
 40
0.6666666666666666
 40
0.75
 40
0.75
 40
0.75
 40
0.75
 40
0.8333333333333334
 40
0.8333333333333334
 40
0.8333333333333334
 40
0.8333333333333334
 40
1.0
 40
1.0
 40
1.0
 40
1.0
 10
81.3073
 20
12.3744
 30
0.0
 10
83.9569
 20
13.6081
 30
0.0
 10
86.1908
 20
16.5331
 30
0.0
 10
85.999
 20
19.078
 30
0.0
 10
85.999
 20
19.078
 30
0.0
 10
85.9429
 20
19.8222
 30
0.0
 10
85.476
 20
20.4571
 30
0.0
 10
84.8369
 20
21.237
 30
0.0
 10
84.8369
 20
21.237
 30
0.0
 10
82.4105
 20
24.4865
 30
0.0
 10
81.6395
 20
27.2945
 30
0.0
 10
81.0162
 20
30.9967
 30
0.0
 10
81.0162
 20
30.9967
 30
0.0
 10
78.5736
 20
28.7367
 30
0.0
 10
74.8207
 20
28.1947
 30
0.0
 10
72.3998
 20
29.182
 30
0.0
 10
72.3998
 20
29.182
 30
0.0
 10
72.3998
 20
29.182
 30
0.0
 10
72.3998
 20
22.5277
 30
0.0
 10
72.3998
 20
22.5277
 30
0.0
 10
72.3998
 20
22.5277
 30
0.0
 10
78.6228
 20
27.6847
 30
0.0
 10
84.4621
 20
21.6949
 30
0.0
 10
81.5894
 20
17.2041
 30
0.0
 10
81.5894
 20
17.2041
 30
0.0
 10
80.1079
 20
15.3216
 30
0.0
 10
78.8961
 20
16.3952
 30
0.0
 10
78.9122
 20
18.093
 30
0.0
 10
78.9122
 20
18.093
 30
0.0
 10
78.7972
 20
19.7102
 30
0.0
 10
78.4371
 20
20.3003
 30
0.0
 10
77.3026
 20
20.7317
 30
0.0
 10
77.3026
 20
20.7317
 30
0.0
 10
75.1524
 20
21.5491
 30
0.0
 10
72.7827
 20
17.9645
 30
0.0
 10
73.6219
 20
15.1638
 30
0.0
 10
73.6219
 20
15.1638
 30
0.0
 10
74.5703
 20
11.9982
 30
0.0
 10
77.9025
 20
10.7889
 30
0.0
 10
81.3073
 20
12.3745
 30
0.0
 10
81.3073
 20
12.3745
 30
0.0
 10
81.3073
 20
12.3745
 30
0.0
 10
81.3073
 20
12.3744
 30
0.0
 10
81.3073
 20
12.3744
 30
0.0
  0
SPLINE
  5
46
330
1F
100
AcDbEntity
  8
layer 1
 62
     7
100
AcDbSpline
210
0.0
220
0.0
230
1.0
 70
    11
 71
     3
 72
    12
 73
     8
 74
     0
 42
0.0000000001
 43
0.0000000001
 12
1.0
 22
0.0
 32
0.0
 13
1.0
 23
0.0
 33
0.0
 40
0.0
 40
0.0
 40
0.0
 40
0.0
 40
0.3333333333333333
 40
0.3333333333333333
 40
0.3333333333333333
 40
0.3333333333333333
 40
1.0
 40
1.0
 40
1.0
 40
1.0
 10
125.8228
 20
12.4162
 30
0.0
 10
124.9685
 20
17.4754
 30
0.0
 10
119.997
 20
19.8299
 30
0.0
 10
116.6016
 20
19.1207
 30
0.0
 10
116.6016
 20
19.1207
 30
0.0
 10
116.9006
 20
15.0357
 30
0.0
 10
121.4343
 20
11.0224
 30
0.0
 10
125.8228
 20
12.4162
 30
0.0
  0
SPLINE
  5
47
330
1F
100
AcDbEntity
  8
layer 1
 62
     7
100
AcDbSpline
210
0.0
220
0.0
230
1.0
 70
    11
 71
     3
 72
    12
 73
     8
 74
     0
 42
0.0000000001
 43
0.0000000001
 12
1.0
 22
0.0
 32
0.0
 13
1.0
 23
0.0
 33
0.0
 40
0.0
 40
0.0
 40
0.0
 40
0.0
 40
0.3333333333333333
 40
0.3333333333333333
 40
0.3333333333333333
 40
0.3333333333333333
 40
1.0
 40
1.0
 40
1.0
 40
1.0
 10
119.0563
 20
38.9443
 30
0.0
 10
116.7012
 20
30.8091
 30
0.0
 10
120.2525
 20
23.7171
 30
0.0
 10
125.0848
 20
20.5716
 30
0.0
 10
125.0848
 20
20.5716
 30
0.0
 10
126.7649
 20
29.1622
 30
0.0
 10
124.353
 20
35.2146
 30
0.0
 10
119.0563
 20
38.9443
 30
0.0
  0
SPLINE
  5
48
330
1F
100
AcDbEntity
  8
layer 1
 62
     7
100
AcDbSpline
210
0.0
220
0.0
230
1.0
 70
    11
 71
     3
 72
    60
 73
    56
 74
     0
 42
0.0000000001
 43
0.0000000001
 12
1.0
 22
0.0
 32
0.0
 13
1.0
 23
0.0
 33
0.0
 40
0.0
 40
0.0
 40
0.0
 40
0.0
 40
0.0666666666666667
 40
0.0666666666666667
 40
0.0666666666666667
 40
0.0666666666666667
 40
0.1333333333333333
 40
0.1333333333333333
 40
0.1333333333333333
 40
0.1333333333333333
 40
0.2
 40
0.2
 40
0.2
 40
0.2
 40
0.2666666666666667
 40
0.2666666666666667
 40
0.2666666666666667
 40
0.2666666666666667
 40
0.3333333333333333
 40
0.3333333333333333
 40
0.3333333333333333
 40
0.3333333333333333
 40
0.4
 40
0.4
 40
0.4
 40
0.4
 40
0.4666666666666667
 40
0.4666666666666667
 40
0.4666666666666667
 40
0.4666666666666667
 40
0.5333333333333333
 40
0.5333333333333333
 40
0.5333333333333333
 40
0.5333333333333333
 40
0.6
 40
0.6
 40
0.6
 40
0.6
 40
0.6666666666666666
 40
0.6666666666666666
 40
0.6666666666666666
 40
0.6666666666666666
 40
0.7333333333333333
 40
0.7333333333333333
 40
0.7333333333333333
 40
0.7333333333333333
 40
0.8
 40
0.8
 40
0.8
 40
0.8
 40
0.8666666666666667
 40
0.8666666666666667
 40
0.8666666666666667
 40
0.8666666666666667
 40
1.0
 40
1.0
 40
1.0
 40
1.0
 10
104.6471
 20
27.4963
 30
0.0
 10
105.6036
 20
30.7722
 30
0.0
 10
105.1682
 20
33.4138
 30
0.0
 10
103.3263
 20
35.5093
 30
0.0
 10
103.3263
 20
35.5093
 30
0.0
 10
100.4628
 20
38.767
 30
0.0
 10
94.4437
 20
37.2017
 30
0.0
 10
94.4437
 20
33.1993
 30
0.0
 10
94.4437
 20
33.1993
 30
0.0
 10
94.4437
 20
31.0154
 30
0.0
 10
96.9166
 20
29.4978
 30
0.0
 10
98.7554
 20
30.5532
 30
0.0
 10
98.7554
 20
30.5532
 30
0.0
 10
100.7944
 20
31.7234
 30
0.0
 10
102.5538
 20
30.6545
 30
0.0
 10
101.4247
 20
28.9312
 30
0.0
 10
101.4247
 20
28.9312
 30
0.0
 10
100.1988
 20
27.0603
 30
0.0
 10
96.4399
 20
26.3332
 30
0.0
 10
93.9565
 20
27.4866
 30
0.0
 10
93.9565
 20
27.4866
 30
0.0
 10
89.6886
 20
29.4687
 30
0.0
 10
88.612
 20
34.4703
 30
0.0
 10
91.714
 20
37.9039
 30
0.0
 10
91.714
 20
37.9039
 30
0.0
 10
94.9685
 20
41.5891
 30
0.0
 10
99.5937
 20
41.6181
 30
0.0
 10
102.8985
 20
40.836
 30
0.0
 10
102.8985
 20
40.836
 30
0.0
 10
106.2199
 20
44.609
 30
0.0
 10
112.8906
 20
42.1819
 30
0.0
 10
113.9056
 20
37.9271
 30
0.0
 10
113.9056
 20
37.9271
 30
0.0
 10
114.2674
 20
39.1399
 30
0.0
 10
114.4953
 20
39.7247
 30
0.0
 10
114.9024
 20
40.6327
 30
0.0
 10
114.9024
 20
40.6327
 30
0.0
 10
113.7545
 20
41.9047
 30
0.0
 10
111.9465
 20
42.8788
 30
0.0
 10
110.4418
 20
43.6235
 30
0.0
 10
110.4418
 20
43.6235
 30
0.0
 10
100.0582
 20
48.0658
 30
0.0
 10
85.3946
 20
43.9639
 30
0.0
 10
85.4278
 20
32.9173
 30
0.0
 10
85.4278
 20
32.9173
 30
0.0
 10
85.5414
 20
27.405
 30
0.0
 10
88.3529
 20
23.2661
 30
0.0
 10
92.8677
 20
21.6242
 30
0.0
 10
92.8677
 20
21.6242
 30
0.0
 10
97.8078
 20
20.2528
 30
0.0
 10
103.2018
 20
22.8973
 30
0.0
 10
104.647
 20
27.4962
 30
0.0
 10
104.647
 20
27.4962
 30
0.0
 10
104.647
 20
27.4962
 30
0.0
 10
104.6471
 20
27.4963
 30
0.0
 10
104.6471
 20
27.4963
 30
0.0
  0
SPLINE
  5
49
330
1F
100
AcDbEntity
  8
layer 1
 62
     7
100
AcDbSpline
210
0.0
220
0.0
230
1.0
 70
    11
 71
     3
 72
    20
 73
    16
 74
     0
 42
0.0000000001
 43
0.0000000001
 12
1.0
 22
0.0
 32
0.0
 13
1.0
 23
0.0
 33
0.0
 40
0.0
 40
0.0
 40
0.0
 40
0.0
 40
0.2
 40
0.2
 40
0.2
 40
0.2
 40
0.4
 40
0.4
 40
0.4
 40
0.4
 40
0.6
 40
0.6
 40
0.6
 40
0.6
 40
1.0
 40
1.0
 40
1.0
 40
1.0
 10
78.0028
 20
34.3074
 30
0.0
 10
79.1322
 20
38.2127
 30
0.0
 10
80.342
 20
39.6543
 30
0.0
 10
83.231
 20
41.8118
 30
0.0
 10
83.231
 20
41.8118
 30
0.0
 10
79.0842
 20
41.0922
 30
0.0
 10
75.0825
 20
43.5492
 30
0.0
 10
72.3998
 20
47.0222
 30
0.0
 10
72.3998
 20
47.0222
 30
0.0
 10
72.3998
 20
47.0222
 30
0.0
 10
72.3998
 20
34.113
 30
0.0
 10
72.3998
 20
34.113
 30
0.0
 10
72.3998
 20
34.113
 30
0.0
 10
72.9236
 20
31.2329
 30
0.0
 10
77.51
 20
31.3922
 30
0.0
 10
78.0028
 20
34.3074
 30
0.0
  0
SPLINE
  5
4A
330
1F
100
AcDbEntity
  8
layer 1
 62
     7
100
AcDbSpline
210
0.0
220
0.0
230
1.0
 70
    11
 71
     3
 72
    20
 73
    16
 74
     0
 42
0.0000000001
 43
0.0000000001
 12
1.0
 22
0.0
 32
0.0
 13
1.0
 23
0.0
 33
0.0
 40
0.0
 40
0.0
 40
0.0
 40
0.0
 40
0.2
 40
0.2
 40
0.2
 40
0.2
 40
0.4
 40
0.4
 40
0.4
 40
0.4
 40
0.6
 40
0.6
 40
0.6
 40
0.6
 40
1.0
 40
1.0
 40
1.0
 40
1.0
 10
127.3416
 20
33.3565
 30
0.0
 10
125.4257
 20
36.5138
 30
0.0
 10
121.9358
 20
42.6981
 30
0.0
 10
120.9635
 20
44.7108
 30
0.0
 10
120.9635
 20
44.7108
 30
0.0
 10
120.2573
 20
43.8807
 30
0.0
 10
119.7331
 20
42.8421
 30
0.0
 10
119.3201
 20
42.1441
 30
0.0
 10
119.3201
 20
42.1441
 30
0.0
 10
122.236
 20
39.4095
 30
0.0
 10
123.7449
 20
37.6069
 30
0.0
 10
127.3416
 20
33.3566
 30
0.0
 10
127.3416
 20
33.3566
 30
0.0
 10
127.3416
 20
33.3566
 30
0.0
 10
127.3416
 20
33.3565
 30
0.0
 10
127.3416
 20
33.3565
 30
0.0
  0
SPLINE
  5
4B
330
1F
100
AcDbEntity
  8
layer 1
 62
     7
100
AcDbSpline
210
0.0
220
0.0
230
1.0
 70
    11
 71
     3
 72
    32
 73
    28
 74
     0
 42
0.0000000001
 43
0.0000000001
 12
1.0
 22
0.0
 32
0.0
 13
1.0
 23
0.0
 33
0.0
 40
0.0
 40
0.0
 40
0.0
 40
0.0
 40
0.125
 40
0.125
 40
0.125
 40
0.125
 40
0.25
 40
0.25
 40
0.25
 40
0.25
 40
0.375
 40
0.375
 40
0.375
 40
0.375
 40
0.5
 40
0.5
 40
0.5
 40
0.5
 40
0.625
 40
0.625
 40
0.625
 40
0.625
 40
0.75
 40
0.75
 40
0.75
 40
0.75
 40
1.0
 40
1.0
 40
1.0
 40
1.0
 10
126.0676
 20
46.5836
 30
0.0
 10
126.6437
 20
47.385
 30
0.0
 10
128.3114
 20
46.4962
 30
0.0
 10
129.3058
 20
45.9241
 30
0.0
 10
129.3058
 20
45.9241
 30
0.0
 10
128.3191
 20
48.8792
 30
0.0
 10
128.4035
 20
50.9314
 30
0.0
 10
129.4313
 20
52.7276
 30
0.0
 10
129.4313
 20
52.7276
 30
0.0
 10
126.5626
 20
50.5062
 30
0.0
 10
124.6839
 20
48.8668
 30
0.0
 10
122.5816
 20
46.4382
 30
0.0
 10
122.5816
 20
46.4382
 30
0.0
 10
125.3157
 20
43.3883
 30
0.0
 10
127.5935
 20
39.5793
 30
0.0
 10
129.0351
 20
35.4763
 30
0.0
 10
129.0351
 20
35.4763
 30
0.0
 10
128.759
 20
38.1713
 30
0.0
 10
128.661
 20
40.0996
 30
0.0
 10
129.2198
 20
42.411
 30
0.0
 10
129.2198
 20
42.411
 30
0.0
 10
127.9338
 20
43.0708
 30
0.0
 10
125.7265
 20
45.2407
 30
0.0
 10
126.0677
 20
46.5836
 30
0.0
 10
126.0677
 20
46.5836
 30
0.0
 10
126.0677
 20
46.5836
 30
0.0
 10
126.0676
 20
46.5836
 30
0.0
 10
126.0676
 20
46.5836
 30
0.0
  0
SPLINE
  5
4C
330
1F
100
AcDbEntity
  8
layer 1
 62
     7
100
AcDbSpline
210
0.0
220
0.0
230
1.0
 70
    11
 71
     3
 72
    40
 73
    36
 74
     0
 42
0.0000000001
 43
0.0000000001
 12
1.0
 22
0.0
 32
0.0
 13
1.0
 23
0.0
 33
0.0
 40
0.0
 40
0.0
 40
0.0
 40
0.0
 40
0.1
 40
0.1
 40
0.1
 40
0.1
 40
0.2
 40
0.2
 40
0.2
 40
0.2
 40
0.3
 40
0.3
 40
0.3
 40
0.3
 40
0.4
 40
0.4
 40
0.4
 40
0.4
 40
0.5
 40
0.5
 40
0.5
 40
0.5
 40
0.6
 40
0.6
 40
0.6
 40
0.6
 40
0.7
 40
0.7
 40
0.7
 40
0.7
 40
0.8
 40
0.8
 40
0.8
 40
0.8
 40
1.0
 40
1.0
 40
1.0
 40
1.0
 10
101.5894
 20
47.9375
 30
0.0
 10
99.4912
 20
49.7278
 30
0.0
 10
96.7057
 20
51.4795
 30
0.0
 10
95.1613
 20
53.9898
 30
0.0
 10
95.1613
 20
53.9898
 30
0.0
 10
90.4917
 20
47.2591
 30
0.0
 10
80.5494
 20
49.0831
 30
0.0
 10
80.4772
 20
56.5513
 30
0.0
 10
80.4772
 20
56.5513
 30
0.0
 10
80.5939
 20
61.7584
 30
0.0
 10
86.1222
 20
62.2894
 30
0.0
 10
88.0689
 20
59.9058
 30
0.0
 10
88.0689
 20
59.9058
 30
0.0
 10
89.0042
 20
58.6476
 30
0.0
 10
88.4853
 20
57.8495
 30
0.0
 10
86.821
 20
57.9861
 30
0.0
 10
86.821
 20
57.9861
 30
0.0
 10
82.1362
 20
56.9196
 30
0.0
 10
86.9475
 20
51.972
 30
0.0
 10
89.9157
 20
54.3806
 30
0.0
 10
89.9157
 20
54.3806
 30
0.0
 10
92.638
 20
56.6713
 30
0.0
 10
92.4641
 20
61.2781
 30
0.0
 10
89.5716
 20
63.4948
 30
0.0
 10
89.5716
 20
63.4948
 30
0.0
 10
84.5812
 20
66.9143
 30
0.0
 10
78.4684
 20
64.7365
 30
0.0
 10
75.623
 20
59.1527
 30
0.0
 10
75.623
 20
59.1527
 30
0.0
 10
72.8924
 20
52.6535
 30
0.0
 10
78.2552
 20
45.8453
 30
0.0
 10
84.5605
 20
45.7151
 30
0.0
 10
84.5605
 20
45.7151
 30
0.0
 10
91.0214
 20
45.9358
 30
0.0
 10
95.9344
 20
48.729
 30
0.0
 10
101.5894
 20
47.9375
 30
0.0
  0
SPLINE
  5
4D
330
1F
100
AcDbEntity
  8
layer 1
 62
     7
100
AcDbSpline
210
0.0
220
0.0
230
1.0
 70
    11
 71
     3
 72
    76
 73
    72
 74
     0
 42
0.0000000001
 43
0.0000000001
 12
1.0
 22
0.0
 32
0.0
 13
1.0
 23
0.0
 33
0.0
 40
0.0
 40
0.0
 40
0.0
 40
0.0
 40
0.0526315789473684
 40
0.0526315789473684
 40
0.0526315789473684
 40
0.0526315789473684
 40
0.1052631578947368
 40
0.1052631578947368
 40
0.1052631578947368
 40
0.1052631578947368
 40
0.1578947368421053
 40
0.1578947368421053
 40
0.1578947368421053
 40
0.1578947368421053
 40
0.2105263157894737
 40
0.2105263157894737
 40
0.2105263157894737
 40
0.2105263157894737
 40
0.2631578947368421
 40
0.2631578947368421
 40
0.2631578947368421
 40
0.2631578947368421
 40
0.3157894736842105
 40
0.3157894736842105
 40
0.3157894736842105
 40
0.3157894736842105
 40
0.3684210526315789
 40
0.3684210526315789
 40
0.3684210526315789
 40
0.3684210526315789
 40
0.4210526315789473
 40
0.4210526315789473
 40
0.4210526315789473
 40
0.4210526315789473
 40
0.4736842105263158
 40
0.4736842105263158
 40
0.4736842105263158
 40
0.4736842105263158
 40
0.5263157894736842
 40
0.5263157894736842
 40
0.5263157894736842
 40
0.5263157894736842
 40
0.5789473684210527
 40
0.5789473684210527
 40
0.5789473684210527
 40
0.5789473684210527
 40
0.631578947368421
 40
0.631578947368421
 40
0.631578947368421
 40
0.631578947368421
 40
0.6842105263157895
 40
0.6842105263157895
 40
0.6842105263157895
 40
0.6842105263157895
 40
0.7368421052631579
 40
0.7368421052631579
 40
0.7368421052631579
 40
0.7368421052631579
 40
0.7894736842105263
 40
0.7894736842105263
 40
0.7894736842105263
 40
0.7894736842105263
 40
0.8421052631578947
 40
0.8421052631578947
 40
0.8421052631578947
 40
0.8421052631578947
 40
0.8947368421052632
 40
0.8947368421052632
 40
0.8947368421052632
 40
0.8947368421052632
 40
1.0
 40
1.0
 40
1.0
 40
1.0
 10
119.0886
 20
46.9524
 30
0.0
 10
112.7591
 20
52.0869
 30
0.0
 10
112.1223
 20
60.0027
 30
0.0
 10
116.1391
 20
65.0235
 30
0.0
 10
116.1391
 20
65.0235
 30
0.0
 10
114.5522
 20
64.7768
 30
0.0
 10
113.0786
 20
65.2917
 30
0.0
 10
111.9811
 20
66.1336
 30
0.0
 10
111.9811
 20
66.1336
 30
0.0
 10
111.9707
 20
62.6211
 30
0.0
 10
108.6398
 20
59.0039
 30
0.0
 10
104.873
 20
58.9747
 30
0.0
 10
104.873
 20
58.9747
 30
0.0
 10
100.7151
 20
58.9425
 30
0.0
 10
98.6838
 20
63.0785
 30
0.0
 10
100.5899
 20
65.5925
 30
0.0
 10
100.5899
 20
65.5925
 30
0.0
 10
101.1324
 20
66.3079
 30
0.0
 10
101.9589
 20
66.4947
 30
0.0
 10
102.6662
 20
66.4947
 30
0.0
 10
102.6662
 20
66.4947
 30
0.0
 10
104.4067
 20
66.4947
 30
0.0
 10
105.1486
 20
65.3038
 30
0.0
 10
103.7816
 20
64.7041
 30
0.0
 10
103.7816
 20
64.7041
 30
0.0
 10
102.0868
 20
63.9605
 30
0.0
 10
103.2025
 20
61.6227
 30
0.0
 10
105.2522
 20
61.6227
 30
0.0
 10
105.2522
 20
61.6227
 30
0.0
 10
108.0673
 20
61.6227
 30
0.0
 10
109.3236
 20
65.1577
 30
0.0
 10
107.3845
 20
67.6228
 30
0.0
 10
107.3845
 20
67.6228
 30
0.0
 10
105.8656
 20
69.5537
 30
0.0
 10
103.4563
 20
70.5999
 30
0.0
 10
100.4923
 20
68.7931
 30
0.0
 10
100.4923
 20
68.7931
 30
0.0
 10
96.7851
 20
65.8503
 30
0.0
 10
96.421
 20
61.9643
 30
0.0
 10
97.8298
 20
57.7938
 30
0.0
 10
97.8298
 20
57.7938
 30
0.0
 10
99.0933
 20
54.8549
 30
0.0
 10
100.8997
 20
52.6821
 30
0.0
 10
103.2985
 20
50.7823
 30
0.0
 10
103.2985
 20
50.7823
 30
0.0
 10
102.883
 20
52.9051
 30
0.0
 10
103.7112
 20
55.3093
 30
0.0
 10
105.3331
 20
56.2883
 30
0.0
 10
105.3331
 20
56.2883
 30
0.0
 10
106.2624
 20
56.8212
 30
0.0
 10
107.0934
 20
56.8549
 30
0.0
 10
107.7261
 20
56.4542
 30
0.0
 10
107.7261
 20
56.4542
 30
0.0
 10
108.6203
 20
55.3908
 30
0.0
 10
106.8004
 20
53.924
 30
0.0
 10
106.786
 20
52.3876
 30
0.0
 10
106.786
 20
52.3876
 30
0.0
 10
106.44
 20
50.3023
 30
0.0
 10
107.215
 20
50.0301
 30
0.0
 10
108.5027
 20
49.6015
 30
0.0
 10
108.5027
 20
49.6015
 30
0.0
 10
111.9363
 20
48.7536
 30
0.0
 10
114.6074
 20
46.6332
 30
0.0
 10
117.4295
 20
44.1364
 30
0.0
 10
117.4295
 20
44.1364
 30
0.0
 10
117.9774
 20
45.5471
 30
0.0
 10
118.3916
 20
46.1358
 30
0.0
 10
119.0886
 20
46.9527
 30
0.0
 10
119.0886
 20
46.9527
 30
0.0
 10
119.0886
 20
46.9527
 30
0.0
 10
119.0886
 20
46.9524
 30
0.0
 10
119.0886
 20
46.9524
 30
0.0
  0
SPLINE
  5
4E
330
1F
100
AcDbEntity
  8
layer 1
 62
     7
100
AcDbSpline
210
0.0
220
0.0
230
1.0
 70
    11
 71
     3
 72
    56
 73
    52
 74
     0
 42
0.0000000001
 43
0.0000000001
 12
1.0
 22
0.0
 32
0.0
 13
1.0
 23
0.0
 33
0.0
 40
0.0
 40
0.0
 40
0.0
 40
0.0
 40
0.0714285714285714
 40
0.0714285714285714
 40
0.0714285714285714
 40
0.0714285714285714
 40
0.1428571428571428
 40
0.1428571428571428
 40
0.1428571428571428
 40
0.1428571428571428
 40
0.2142857142857143
 40
0.2142857142857143
 40
0.2142857142857143
 40
0.2142857142857143
 40
0.2857142857142857
 40
0.2857142857142857
 40
0.2857142857142857
 40
0.2857142857142857
 40
0.3571428571428572
 40
0.3571428571428572
 40
0.3571428571428572
 40
0.3571428571428572
 40
0.4285714285714285
 40
0.4285714285714285
 40
0.4285714285714285
 40
0.4285714285714285
 40
0.5
 40
0.5
 40
0.5
 40
0.5
 40
0.5714285714285714
 40
0.5714285714285714
 40
0.5714285714285714
 40
0.5714285714285714
 40
0.6428571428571429
 40
0.6428571428571429
 40
0.6428571428571429
 40
0.6428571428571429
 40
0.7142857142857143
 40
0.7142857142857143
 40
0.7142857142857143
 40
0.7142857142857143
 40
0.7857142857142857
 40
0.7857142857142857
 40
0.7857142857142857
 40
0.7857142857142857
 40
0.8571428571428571
 40
0.8571428571428571
 40
0.8571428571428571
 40
0.8571428571428571
 40
1.0
 40
1.0
 40
1.0
 40
1.0
 10
127.2605
 20
54.6465
 30
0.0
 10
127.2605
 20
54.6465
 30
0.0
 10
129.2823
 20
55.8747
 30
0.0
 10
129.2823
 20
55.8747
 30
0.0
 10
129.2823
 20
55.8747
 30
0.0
 10
129.2823
 20
55.8747
 30
0.0
 10
127.9761
 20
56.9597
 30
0.0
 10
127.9761
 20
56.9597
 30
0.0
 10
127.9761
 20
56.9597
 30
0.0
 10
126.4466
 20
58.2303
 30
0.0
 10
124.8448
 20
60.6109
 30
0.0
 10
124.1524
 20
62.6427
 30
0.0
 10
124.1524
 20
62.6427
 30
0.0
 10
123.8284
 20
63.5937
 30
0.0
 10
123.4716
 20
64.0843
 30
0.0
 10
123.1005
 20
64.0892
 30
0.0
 10
123.1005
 20
64.0892
 30
0.0
 10
122.7917
 20
64.0932
 30
0.0
 10
121.9344
 20
64.1967
 30
0.0
 10
121.1955
 20
64.3191
 30
0.0
 10
121.1955
 20
64.3191
 30
0.0
 10
119.9247
 20
64.5295
 30
0.0
 10
119.8031
 20
64.4774
 30
0.0
 10
118.9471
 20
63.355
 30
0.0
 10
118.9471
 20
63.355
 30
0.0
 10
117.7983
 20
61.8488
 30
0.0
 10
117.2122
 20
60.2113
 30
0.0
 10
117.1941
 20
58.457
 30
0.0
 10
117.1941
 20
58.457
 30
0.0
 10
117.1793
 20
57.0286
 30
0.0
 10
118.1696
 20
53.7541
 30
0.0
 10
119.1402
 20
52.0223
 30
0.0
 10
119.1402
 20
52.0223
 30
0.0
 10
119.4462
 20
51.4762
 30
0.0
 10
119.9419
 20
50.5552
 30
0.0
 10
120.2416
 20
49.9757
 30
0.0
 10
120.2416
 20
49.9757
 30
0.0
 10
120.2416
 20
49.9757
 30
0.0
 10
120.7865
 20
48.9219
 30
0.0
 10
120.7865
 20
48.9219
 30
0.0
 10
120.7865
 20
48.9219
 30
0.0
 10
120.7865
 20
48.9219
 30
0.0
 10
123.0125
 20
51.1701
 30
0.0
 10
123.0125
 20
51.1701
 30
0.0
 10
123.0125
 20
51.1701
 30
0.0
 10
124.2368
 20
52.4066
 30
0.0
 10
126.1484
 20
53.971
 30
0.0
 10
127.2603
 20
54.6465
 30
0.0
 10
127.2603
 20
54.6465
 30
0.0
 10
127.2603
 20
54.6465
 30
0.0
 10
127.2605
 20
54.6465
 30
0.0
 10
127.2605
 20
54.6465
 30
0.0
  0
SPLINE
  5
4F
330
1F
100
AcDbEntity
  8
layer 1
 62
     7
100
AcDbSpline
210
0.0
220
0.0
230
1.0
 70
    11
 71
     3
 72
    16
 73
    12
 74
     0
 42
0.0000000001
 43
0.0000000001
 12
1.0
 22
0.0
 32
0.0
 13
1.0
 23
0.0
 33
0.0
 40
0.0
 40
0.0
 40
0.0
 40
0.0
 40
0.25
 40
0.25
 40
0.25
 40
0.25
 40
0.5
 40
0.5
 40
0.5
 40
0.5
 40
1.0
 40
1.0
 40
1.0
 40
1.0
 10
78.8533
 20
67.6076
 30
0.0
 10
76.1689
 20
68.5014
 30
0.0
 10
73.2618
 20
71.3828
 30
0.0
 10
72.3997
 20
75.3133
 30
0.0
 10
72.3997
 20
75.3133
 30
0.0
 10
72.3997
 20
75.3133
 30
0.0
 10
72.3997
 20
62.8098
 30
0.0
 10
72.3997
 20
62.8098
 30
0.0
 10
72.3997
 20
62.8098
 30
0.0
 10
74.2332
 20
65.0182
 30
0.0
 10
76.3373
 20
66.5317
 30
0.0
 10
78.8533
 20
67.6076
 30
0.0
  0
SPLINE
  5
50
330
1F
100
AcDbEntity
  8
layer 1
 62
     7
100
AcDbSpline
210
0.0
220
0.0
230
1.0
 70
    11
 71
     3
 72
    28
 73
    24
 74
     0
 42
0.0000000001
 43
0.0000000001
 12
1.0
 22
0.0
 32
0.0
 13
1.0
 23
0.0
 33
0.0
 40
0.0
 40
0.0
 40
0.0
 40
0.0
 40
0.1428571428571428
 40
0.1428571428571428
 40
0.1428571428571428
 40
0.1428571428571428
 40
0.2857142857142857
 40
0.2857142857142857
 40
0.2857142857142857
 40
0.2857142857142857
 40
0.4285714285714285
 40
0.4285714285714285
 40
0.4285714285714285
 40
0.4285714285714285
 40
0.5714285714285714
 40
0.5714285714285714
 40
0.5714285714285714
 40
0.5714285714285714
 40
0.7142857142857143
 40
0.7142857142857143
 40
0.7142857142857143
 40
0.7142857142857143
 40
1.0
 40
1.0
 40
1.0
 40
1.0
 10
106.8445
 20
72.2739
 30
0.0
 10
105.8493
 20
75.8501
 30
0.0
 10
106.7782
 20
78.0579
 30
0.0
 10
109.0216
 20
81.4529
 30
0.0
 10
109.0216
 20
81.4529
 30
0.0
 10
104.971
 20
80.3341
 30
0.0
 10
101.1108
 20
79.9351
 30
0.0
 10
96.8694
 20
81.1734
 30
0.0
 10
96.8694
 20
81.1734
 30
0.0
 10
99.6271
 20
72.5208
 30
0.0
 10
92.8068
 20
68.1033
 30
0.0
 10
90.1563
 20
67.928
 30
0.0
 10
90.1563
 20
67.928
 30
0.0
 10
91.8575
 20
67.4643
 30
0.0
 10
93.3886
 20
66.0222
 30
0.0
 10
94.3736
 20
64.5225
 30
0.0
 10
94.3736
 20
64.5225
 30
0.0
 10
95.0417
 20
70.8079
 30
0.0
 10
102.1015
 20
74.1261
 30
0.0
 10
106.8445
 20
72.274
 30
0.0
 10
106.8445
 20
72.274
 30
0.0
 10
106.8445
 20
72.274
 30
0.0
 10
106.8445
 20
72.2739
 30
0.0
 10
106.8445
 20
72.2739
 30
0.0
  0
SPLINE
  5
51
330
1F
100
AcDbEntity
  8
layer 1
 62
     7
100
AcDbSpline
210
0.0
220
0.0
230
1.0
 70
    11
 71
     3
 72
    20
 73
    16
 74
     0
 42
0.0000000001
 43
0.0000000001
 12
1.0
 22
0.0
 32
0.0
 13
1.0
 23
0.0
 33
0.0
 40
0.0
 40
0.0
 40
0.0
 40
0.0
 40
0.2
 40
0.2
 40
0.2
 40
0.2
 40
0.4
 40
0.4
 40
0.4
 40
0.4
 40
0.6
 40
0.6
 40
0.6
 40
0.6
 40
1.0
 40
1.0
 40
1.0
 40
1.0
 10
122.9938
 20
67.7127
 30
0.0
 10
122.976
 20
68.0253
 30
0.0
 10
122.8619
 20
68.6378
 30
0.0
 10
122.7401
 20
69.0738
 30
0.0
 10
122.7401
 20
69.0738
 30
0.0
 10
122.5189
 20
69.8661
 30
0.0
 10
122.5184
 20
69.866
 30
0.0
 10
121.8203
 20
68.7634
 30
0.0
 10
121.8203
 20
68.7634
 30
0.0
 10
121.0209
 20
67.5008
 30
0.0
 10
121.1118
 20
67.1443
 30
0.0
 10
122.2333
 20
67.1443
 30
0.0
 10
122.2333
 20
67.1443
 30
0.0
 10
122.7842
 20
67.1443
 30
0.0
 10
123.0163
 20
67.3178
 30
0.0
 10
122.9938
 20
67.7127
 30
0.0
  0
SPLINE
  5
52
330
1F
100
AcDbEntity
  8
layer 1
 62
     7
100
AcDbSpline
210
0.0
220
0.0
230
1.0
 70
    11
 71
     3
 72
    72
 73
    68
 74
     0
 42
0.0000000001
 43
0.0000000001
 12
1.0
 22
0.0
 32
0.0
 13
1.0
 23
0.0
 33
0.0
 40
0.0
 40
0.0
 40
0.0
 40
0.0
 40
0.0555555555555556
 40
0.0555555555555556
 40
0.0555555555555556
 40
0.0555555555555556
 40
0.1111111111111111
 40
0.1111111111111111
 40
0.1111111111111111
 40
0.1111111111111111
 40
0.1666666666666667
 40
0.1666666666666667
 40
0.1666666666666667
 40
0.1666666666666667
 40
0.2222222222222222
 40
0.2222222222222222
 40
0.2222222222222222
 40
0.2222222222222222
 40
0.2777777777777778
 40
0.2777777777777778
 40
0.2777777777777778
 40
0.2777777777777778
 40
0.3333333333333333
 40
0.3333333333333333
 40
0.3333333333333333
 40
0.3333333333333333
 40
0.3888888888888889
 40
0.3888888888888889
 40
0.3888888888888889
 40
0.3888888888888889
 40
0.4444444444444444
 40
0.4444444444444444
 40
0.4444444444444444
 40
0.4444444444444444
 40
0.5
 40
0.5
 40
0.5
 40
0.5
 40
0.5555555555555556
 40
0.5555555555555556
 40
0.5555555555555556
 40
0.5555555555555556
 40
0.6111111111111112
 40
0.6111111111111112
 40
0.6111111111111112
 40
0.6111111111111112
 40
0.6666666666666666
 40
0.6666666666666666
 40
0.6666666666666666
 40
0.6666666666666666
 40
0.7222222222222222
 40
0.7222222222222222
 40
0.7222222222222222
 40
0.7222222222222222
 40
0.7777777777777778
 40
0.7777777777777778
 40
0.7777777777777778
 40
0.7777777777777778
 40
0.8333333333333334
 40
0.8333333333333334
 40
0.8333333333333334
 40
0.8333333333333334
 40
0.8888888888888888
 40
0.8888888888888888
 40
0.8888888888888888
 40
0.8888888888888888
 40
1.0
 40
1.0
 40
1.0
 40
1.0
 10
130.812
 20
74.9218
 30
0.0
 10
131.3001
 20
75.8339
 30
0.0
 10
130.9637
 20
76.3377
 30
0.0
 10
130.1555
 20
75.9051
 30
0.0
 10
130.1555
 20
75.9051
 30
0.0
 10
128.5809
 20
75.0624
 30
0.0
 10
128.0224
 20
71.7975
 30
0.0
 10
129.1975
 20
70.3036
 30
0.0
 10
129.1975
 20
70.3036
 30
0.0
 10
130.106
 20
69.1487
 30
0.0
 10
130.0252
 20
68.8724
 30
0.0
 10
128.5609
 20
68.1253
 30
0.0
 10
128.5609
 20
68.1253
 30
0.0
 10
128.5609
 20
68.1253
 30
0.0
 10
128.5609
 20
68.1253
 30
0.0
 10
128.5609
 20
68.1253
 30
0.0
 10
128.5609
 20
68.1253
 30
0.0
 10
126.562
 20
67.1055
 30
0.0
 10
125.6863
 20
67.2421
 30
0.0
 10
125.0912
 20
68.6666
 30
0.0
 10
125.0912
 20
68.6666
 30
0.0
 10
123.2963
 20
72.9624
 30
0.0
 10
124.6586
 20
77.0838
 30
0.0
 10
130.1651
 20
81.8643
 30
0.0
 10
130.1651
 20
81.8643
 30
0.0
 10
130.1651
 20
81.8643
 30
0.0
 10
132.2948
 20
83.7133
 30
0.0
 10
132.2948
 20
83.7133
 30
0.0
 10
132.2948
 20
83.7133
 30
0.0
 10
132.2948
 20
83.7133
 30
0.0
 10
134.4246
 20
81.8643
 30
0.0
 10
134.4246
 20
81.8643
 30
0.0
 10
134.4246
 20
81.8643
 30
0.0
 10
139.7755
 20
76.9102
 30
0.0
 10
141.2933
 20
72.9624
 30
0.0
 10
139.4985
 20
68.6666
 30
0.0
 10
139.4985
 20
68.6666
 30
0.0
 10
138.9033
 20
67.2421
 30
0.0
 10
138.0277
 20
67.1055
 30
0.0
 10
136.0288
 20
68.1253
 30
0.0
 10
136.0288
 20
68.1253
 30
0.0
 10
136.0288
 20
68.1253
 30
0.0
 10
136.0288
 20
68.1253
 30
0.0
 10
136.0288
 20
68.1253
 30
0.0
 10
136.0288
 20
68.1253
 30
0.0
 10
134.5644
 20
68.8724
 30
0.0
 10
134.4836
 20
69.1487
 30
0.0
 10
135.3922
 20
70.3036
 30
0.0
 10
135.3922
 20
70.3036
 30
0.0
 10
136.5672
 20
71.7974
 30
0.0
 10
136.0088
 20
75.0624
 30
0.0
 10
134.4342
 20
75.9051
 30
0.0
 10
134.4342
 20
75.9051
 30
0.0
 10
133.6259
 20
76.3377
 30
0.0
 10
133.2895
 20
75.8339
 30
0.0
 10
133.7776
 20
74.9218
 30
0.0
 10
133.7776
 20
74.9218
 30
0.0
 10
134.2677
 20
72.861
 30
0.0
 10
133.9957
 20
71.2786
 30
0.0
 10
132.2949
 20
70.3526
 30
0.0
 10
132.2949
 20
70.3526
 30
0.0
 10
130.5941
 20
71.2787
 30
0.0
 10
130.3221
 20
72.8611
 30
0.0
 10
130.8123
 20
74.9218
 30
0.0
 10
130.8123
 20
74.9218
 30
0.0
 10
130.8123
 20
74.9218
 30
0.0
 10
130.812
 20
74.9218
 30
0.0
 10
130.812
 20
74.9218
 30
0.0
  0
SPLINE
  5
53
330
1F
100
AcDbEntity
  8
layer 1
 62
     7
100
AcDbSpline
210
0.0
220
0.0
230
1.0
 70
    11
 71
     3
 72
    36
 73
    32
 74
     0
 42
0.0000000001
 43
0.0000000001
 12
1.0
 22
0.0
 32
0.0
 13
1.0
 23
0.0
 33
0.0
 40
0.0
 40
0.0
 40
0.0
 40
0.0
 40
0.1111111111111111
 40
0.1111111111111111
 40
0.1111111111111111
 40
0.1111111111111111
 40
0.2222222222222222
 40
0.2222222222222222
 40
0.2222222222222222
 40
0.2222222222222222
 40
0.3333333333333333
 40
0.3333333333333333
 40
0.3333333333333333
 40
0.3333333333333333
 40
0.4444444444444444
 40
0.4444444444444444
 40
0.4444444444444444
 40
0.4444444444444444
 40
0.5555555555555556
 40
0.5555555555555556
 40
0.5555555555555556
 40
0.5555555555555556
 40
0.6666666666666666
 40
0.6666666666666666
 40
0.6666666666666666
 40
0.6666666666666666
 40
0.7777777777777778
 40
0.7777777777777778
 40
0.7777777777777778
 40
0.7777777777777778
 40
1.0
 40
1.0
 40
1.0
 40
1.0
 10
119.4533
 20
74.9395
 30
0.0
 10
117.4866
 20
76.6965
 30
0.0
 10
114.8505
 20
74.2808
 30
0.0
 10
116.2485
 20
72.7527
 30
0.0
 10
116.2485
 20
72.7527
 30
0.0
 10
116.8442
 20
71.8743
 30
0.0
 10
115.9098
 20
71.1685
 30
0.0
 10
115.1872
 20
71.423
 30
0.0
 10
115.1872
 20
71.423
 30
0.0
 10
114.2431
 20
71.7743
 30
0.0
 10
113.1221
 20
73.0429
 30
0.0
 10
112.9573
 20
74.3835
 30
0.0
 10
112.9573
 20
74.3835
 30
0.0
 10
112.5632
 20
80.0586
 30
0.0
 10
120.4837
 20
80.0695
 30
0.0
 10
122.4941
 20
76.2796
 30
0.0
 10
122.4941
 20
76.2796
 30
0.0
 10
122.8694
 20
78.9418
 30
0.0
 10
125.4537
 20
82.5351
 30
0.0
 10
127.8831
 20
84.1624
 30
0.0
 10
127.8831
 20
84.1624
 30
0.0
 10
120.2128
 20
85.6204
 30
0.0
 10
112.2848
 20
82.6085
 30
0.0
 10
110.6894
 20
75.7794
 30
0.0
 10
110.6894
 20
75.7794
 30
0.0
 10
110.0921
 20
72.9021
 30
0.0
 10
110.8292
 20
70.7111
 30
0.0
 10
112.8408
 20
69.3848
 30
0.0
 10
112.8408
 20
69.3848
 30
0.0
 10
119.1156
 20
66.7747
 30
0.0
 10
121.788
 20
72.3294
 30
0.0
 10
119.4533
 20
74.9395
 30
0.0
  0
SPLINE
  5
54
330
1F
100
AcDbEntity
  8
layer 1
 62
     7
100
AcDbSpline
210
0.0
220
0.0
230
1.0
 70
    11
 71
     3
 72
    48
 73
    44
 74
     0
 42
0.0000000001
 43
0.0000000001
 12
1.0
 22
0.0
 32
0.0
 13
1.0
 23
0.0
 33
0.0
 40
0.0
 40
0.0
 40
0.0
 40
0.0
 40
0.0833333333333333
 40
0.0833333333333333
 40
0.0833333333333333
 40
0.0833333333333333
 40
0.1666666666666667
 40
0.1666666666666667
 40
0.1666666666666667
 40
0.1666666666666667
 40
0.25
 40
0.25
 40
0.25
 40
0.25
 40
0.3333333333333333
 40
0.3333333333333333
 40
0.3333333333333333
 40
0.3333333333333333
 40
0.4166666666666667
 40
0.4166666666666667
 40
0.4166666666666667
 40
0.4166666666666667
 40
0.5
 40
0.5
 40
0.5
 40
0.5
 40
0.5833333333333334
 40
0.5833333333333334
 40
0.5833333333333334
 40
0.5833333333333334
 40
0.6666666666666666
 40
0.6666666666666666
 40
0.6666666666666666
 40
0.6666666666666666
 40
0.75
 40
0.75
 40
0.75
 40
0.75
 40
0.8333333333333334
 40
0.8333333333333334
 40
0.8333333333333334
 40
0.8333333333333334
 40
1.0
 40
1.0
 40
1.0
 40
1.0
 10
93.4473
 20
74.7314
 30
0.0
 10
95.3738
 20
79.4358
 30
0.0
 10
91.1412
 20
82.9981
 30
0.0
 10
86.4117
 20
80.9879
 30
0.0
 10
86.4117
 20
80.9879
 30
0.0
 10
84.7488
 20
80.2381
 30
0.0
 10
84.0888
 20
78.8348
 30
0.0
 10
84.8515
 20
77.6708
 30
0.0
 10
84.8515
 20
77.6708
 30
0.0
 10
85.5939
 20
76.5378
 30
0.0
 10
86.5691
 20
76.3826
 30
0.0
 10
87.6984
 20
77.2174
 30
0.0
 10
87.6984
 20
77.2174
 30
0.0
 10
88.49
 20
77.8026
 30
0.0
 10
88.7791
 20
77.4924
 30
0.0
 10
89.0074
 20
77.1321
 30
0.0
 10
89.0074
 20
77.1321
 30
0.0
 10
89.4104
 20
76.496
 30
0.0
 10
89.1895
 20
75.4597
 30
0.0
 10
88.727
 20
74.8727
 30
0.0
 10
88.727
 20
74.8727
 30
0.0
 10
86.8481
 20
72.4883
 30
0.0
 10
83.0012
 20
72.9069
 30
0.0
 10
81.6112
 20
75.5948
 30
0.0
 10
81.6112
 20
75.5948
 30
0.0
 10
79.1767
 20
79.8629
 30
0.0
 10
81.6356
 20
83.4844
 30
0.0
 10
85.8818
 20
84.6834
 30
0.0
 10
85.8818
 20
84.6834
 30
0.0
 10
84.4435
 20
85.0554
 30
0.0
 10
83.0425
 20
86.0204
 30
0.0
 10
81.9841
 20
86.5911
 30
0.0
 10
81.9841
 20
86.5911
 30
0.0
 10
77.9872
 20
85.1233
 30
0.0
 10
76.6502
 20
81.4491
 30
0.0
 10
76.5589
 20
78.2847
 30
0.0
 10
76.5589
 20
78.2847
 30
0.0
 10
76.5798
 20
74.9033
 30
0.0
 10
79.4782
 20
71.2559
 30
0.0
 10
83.7816
 20
70.0962
 30
0.0
 10
83.7816
 20
70.0962
 30
0.0
 10
87.5864
 20
69.1032
 30
0.0
 10
91.7489
 20
71.3572
 30
0.0
 10
93.4473
 20
74.7314
 30
0.0
  0
SPLINE
  5
55
330
1F
100
AcDbEntity
  8
layer 1
 62
     7
100
AcDbSpline
210
0.0
220
0.0
230
1.0
 70
    11
 71
     3
 72
    20
 73
    16
 74
     0
 42
0.0000000001
 43
0.0000000001
 12
1.0
 22
0.0
 32
0.0
 13
1.0
 23
0.0
 33
0.0
 40
0.0
 40
0.0
 40
0.0
 40
0.0
 40
0.2
 40
0.2
 40
0.2
 40
0.2
 40
0.4
 40
0.4
 40
0.4
 40
0.4
 40
0.6
 40
0.6
 40
0.6
 40
0.6
 40
1.0
 40
1.0
 40
1.0
 40
1.0
 10
78.6133
 20
89.0508
 30
0.0
 10
75.7304
 20
90.7207
 30
0.0
 10
74.0045
 20
93.2356
 30
0.0
 10
72.3998
 20
96.1215
 30
0.0
 10
72.3998
 20
96.1215
 30
0.0
 10
72.3998
 20
96.1215
 30
0.0
 10
72.3998
 20
82.2733
 30
0.0
 10
72.3998
 20
82.2733
 30
0.0
 10
72.3998
 20
82.2733
 30
0.0
 10
74.2077
 20
85.8293
 30
0.0
 10
76.0944
 20
88.1305
 30
0.0
 10
78.6134
 20
89.0508
 30
0.0
 10
78.6134
 20
89.0508
 30
0.0
 10
78.6134
 20
89.0508
 30
0.0
 10
78.6133
 20
89.0508
 30
0.0
 10
78.6133
 20
89.0508
 30
0.0
  0
SPLINE
  5
56
330
1F
100
AcDbEntity
  8
layer 1
 62
     7
100
AcDbSpline
210
0.0
220
0.0
230
1.0
 70
    11
 71
     3
 72
    36
 73
    32
 74
     0
 42
0.0000000001
 43
0.0000000001
 12
1.0
 22
0.0
 32
0.0
 13
1.0
 23
0.0
 33
0.0
 40
0.0
 40
0.0
 40
0.0
 40
0.0
 40
0.1111111111111111
 40
0.1111111111111111
 40
0.1111111111111111
 40
0.1111111111111111
 40
0.2222222222222222
 40
0.2222222222222222
 40
0.2222222222222222
 40
0.2222222222222222
 40
0.3333333333333333
 40
0.3333333333333333
 40
0.3333333333333333
 40
0.3333333333333333
 40
0.4444444444444444
 40
0.4444444444444444
 40
0.4444444444444444
 40
0.4444444444444444
 40
0.5555555555555556
 40
0.5555555555555556
 40
0.5555555555555556
 40
0.5555555555555556
 40
0.6666666666666666
 40
0.6666666666666666
 40
0.6666666666666666
 40
0.6666666666666666
 40
0.7777777777777778
 40
0.7777777777777778
 40
0.7777777777777778
 40
0.7777777777777778
 40
1.0
 40
1.0
 40
1.0
 40
1.0
 10
107.7984
 20
85.2411
 30
0.0
 10
103.0922
 20
86.0869
 30
0.0
 10
100.1246
 20
87.1905
 30
0.0
 10
97.6918
 20
90.205
 30
0.0
 10
97.6918
 20
90.205
 30
0.0
 10
96.9665
 20
88.9408
 30
0.0
 10
95.5403
 20
88.8755
 30
0.0
 10
94.6217
 20
89.2248
 30
0.0
 10
94.6217
 20
89.2248
 30
0.0
 10
93.4514
 20
89.6698
 30
0.0
 10
93.5407
 20
90.53
 30
0.0
 10
94.7571
 20
90.53
 30
0.0
 10
94.7571
 20
90.53
 30
0.0
 10
95.3821
 20
90.53
 30
0.0
 10
95.84
 20
90.7541
 30
0.0
 10
96.0618
 20
91.1684
 30
0.0
 10
96.0618
 20
91.1684
 30
0.0
 10
96.8429
 20
94.1116
 30
0.0
 10
92.7286
 20
93.9581
 30
0.0
 10
91.4955
 20
91.8542
 30
0.0
 10
91.4955
 20
91.8542
 30
0.0
 10
90.3078
 20
89.8376
 30
0.0
 10
91.2199
 20
87.4143
 30
0.0
 10
93.2067
 20
86.6007
 30
0.0
 10
93.2067
 20
86.6007
 30
0.0
 10
95.8903
 20
85.2663
 30
0.0
 10
101.5527
 20
84.6284
 30
0.0
 10
107.7984
 20
85.2412
 30
0.0
 10
107.7984
 20
85.2412
 30
0.0
 10
107.7984
 20
85.2412
 30
0.0
 10
107.7984
 20
85.2411
 30
0.0
 10
107.7984
 20
85.2411
 30
0.0
  0
SPLINE
  5
57
330
1F
100
AcDbEntity
  8
layer 1
 62
     7
100
AcDbSpline
210
0.0
220
0.0
230
1.0
 70
    11
 71
     3
 72
    20
 73
    16
 74
     0
 42
0.0000000001
 43
0.0000000001
 12
1.0
 22
0.0
 32
0.0
 13
1.0
 23
0.0
 33
0.0
 40
0.0
 40
0.0
 40
0.0
 40
0.0
 40
0.2
 40
0.2
 40
0.2
 40
0.2
 40
0.4
 40
0.4
 40
0.4
 40
0.4
 40
0.6
 40
0.6
 40
0.6
 40
0.6
 40
1.0
 40
1.0
 40
1.0
 40
1.0
 10
130.1042
 20
95.7784
 30
0.0
 10
128.4716
 20
91.4662
 30
0.0
 10
125.5018
 20
88.2714
 30
0.0
 10
121.4538
 20
86.5087
 30
0.0
 10
121.4538
 20
86.5087
 30
0.0
 10
121.4538
 20
86.5087
 30
0.0
 10
126.4462
 20
87.3289
 30
0.0
 10
130.0724
 20
86.4698
 30
0.0
 10
130.0724
 20
86.4698
 30
0.0
 10
130.0724
 20
86.4698
 30
0.0
 10
130.1041
 20
95.7783
 30
0.0
 10
130.1041
 20
95.7783
 30
0.0
 10
130.1041
 20
95.7783
 30
0.0
 10
130.1041
 20
95.7783
 30
0.0
 10
130.1042
 20
95.7784
 30
0.0
 10
130.1042
 20
95.7784
 30
0.0
  0
SPLINE
  5
58
330
1F
100
AcDbEntity
  8
layer 1
 62
     7
100
AcDbSpline
210
0.0
220
0.0
230
1.0
 70
    11
 71
     3
 72
    60
 73
    56
 74
     0
 42
0.0000000001
 43
0.0000000001
 12
1.0
 22
0.0
 32
0.0
 13
1.0
 23
0.0
 33
0.0
 40
0.0
 40
0.0
 40
0.0
 40
0.0
 40
0.0666666666666667
 40
0.0666666666666667
 40
0.0666666666666667
 40
0.0666666666666667
 40
0.1333333333333333
 40
0.1333333333333333
 40
0.1333333333333333
 40
0.1333333333333333
 40
0.2
 40
0.2
 40
0.2
 40
0.2
 40
0.2666666666666667
 40
0.2666666666666667
 40
0.2666666666666667
 40
0.2666666666666667
 40
0.3333333333333333
 40
0.3333333333333333
 40
0.3333333333333333
 40
0.3333333333333333
 40
0.4
 40
0.4
 40
0.4
 40
0.4
 40
0.4666666666666667
 40
0.4666666666666667
 40
0.4666666666666667
 40
0.4666666666666667
 40
0.5333333333333333
 40
0.5333333333333333
 40
0.5333333333333333
 40
0.5333333333333333
 40
0.6
 40
0.6
 40
0.6
 40
0.6
 40
0.6666666666666666
 40
0.6666666666666666
 40
0.6666666666666666
 40
0.6666666666666666
 40
0.7333333333333333
 40
0.7333333333333333
 40
0.7333333333333333
 40
0.7333333333333333
 40
0.8
 40
0.8
 40
0.8
 40
0.8
 40
0.8666666666666667
 40
0.8666666666666667
 40
0.8666666666666667
 40
0.8666666666666667
 40
1.0
 40
1.0
 40
1.0
 40
1.0
 10
94.9437
 20
96.5863
 30
0.0
 10
94.9437
 20
96.5863
 30
0.0
 10
94.9454
 20
99.2995
 30
0.0
 10
94.9454
 20
99.2995
 30
0.0
 10
94.9454
 20
99.2995
 30
0.0
 10
92.774
 20
97.5529
 30
0.0
 10
89.8481
 20
96.9649
 30
0.0
 10
87.5661
 20
97.107
 30
0.0
 10
87.5661
 20
97.107
 30
0.0
 10
78.5978
 20
98.0961
 30
0.0
 10
76.4434
 20
107.5529
 30
0.0
 10
82.327
 20
112.1993
 30
0.0
 10
82.327
 20
112.1993
 30
0.0
 10
84.5872
 20
113.9802
 30
0.0
 10
87.6323
 20
113.6598
 30
0.0
 10
89.2257
 20
112.1496
 30
0.0
 10
89.2257
 20
112.1496
 30
0.0
 10
90.5256
 20
110.9042
 30
0.0
 10
90.612
 20
109.0799
 30
0.0
 10
89.4275
 20
107.8952
 30
0.0
 10
89.4275
 20
107.8952
 30
0.0
 10
88.5102
 20
106.978
 30
0.0
 10
87.6231
 20
107.1334
 30
0.0
 10
87.6231
 20
108.2114
 30
0.0
 10
87.6231
 20
108.2114
 30
0.0
 10
87.6231
 20
109.189
 30
0.0
 10
86.3245
 20
109.8901
 30
0.0
 10
85.4152
 20
109.4035
 30
0.0
 10
85.4152
 20
109.4035
 30
0.0
 10
83.4695
 20
108.3622
 30
0.0
 10
82.8464
 20
105.8964
 30
0.0
 10
84.0359
 20
103.9455
 30
0.0
 10
84.0359
 20
103.9455
 30
0.0
 10
86.2523
 20
100.8221
 30
0.0
 10
90.1396
 20
100.5733
 30
0.0
 10
93.1016
 20
103.0731
 30
0.0
 10
93.1016
 20
103.0731
 30
0.0
 10
97.6349
 20
107.2649
 30
0.0
 10
95.9759
 20
113.4566
 30
0.0
 10
91.5106
 20
115.6941
 30
0.0
 10
91.5106
 20
115.6941
 30
0.0
 10
86.0308
 20
118.3439
 30
0.0
 10
82.5905
 20
116.9993
 30
0.0
 10
78.5299
 20
113.3773
 30
0.0
 10
78.5299
 20
113.3773
 30
0.0
 10
74.2622
 20
109.4261
 30
0.0
 10
73.3361
 20
103.5233
 30
0.0
 10
76.154
 20
98.234
 30
0.0
 10
76.154
 20
98.234
 30
0.0
 10
78.8918
 20
93.2008
 30
0.0
 10
82.7023
 20
90.1527
 30
0.0
 10
87.372
 20
88.2562
 30
0.0
 10
87.372
 20
88.2562
 30
0.0
 10
86.1054
 20
94.6081
 30
0.0
 10
90.9658
 20
97.264
 30
0.0
 10
94.9437
 20
96.5863
 30
0.0
  0
SPLINE
  5
59
330
1F
100
AcDbEntity
  8
layer 1
 62
     7
100
AcDbSpline
210
0.0
220
0.0
230
1.0
 70
    11
 71
     3
 72
    44
 73
    40
 74
     0
 42
0.0000000001
 43
0.0000000001
 12
1.0
 22
0.0
 32
0.0
 13
1.0
 23
0.0
 33
0.0
 40
0.0
 40
0.0
 40
0.0
 40
0.0
 40
0.0909090909090909
 40
0.0909090909090909
 40
0.0909090909090909
 40
0.0909090909090909
 40
0.1818181818181818
 40
0.1818181818181818
 40
0.1818181818181818
 40
0.1818181818181818
 40
0.2727272727272727
 40
0.2727272727272727
 40
0.2727272727272727
 40
0.2727272727272727
 40
0.3636363636363636
 40
0.3636363636363636
 40
0.3636363636363636
 40
0.3636363636363636
 40
0.4545454545454545
 40
0.4545454545454545
 40
0.4545454545454545
 40
0.4545454545454545
 40
0.5454545454545454
 40
0.5454545454545454
 40
0.5454545454545454
 40
0.5454545454545454
 40
0.6363636363636364
 40
0.6363636363636364
 40
0.6363636363636364
 40
0.6363636363636364
 40
0.7272727272727273
 40
0.7272727272727273
 40
0.7272727272727273
 40
0.7272727272727273
 40
0.8181818181818182
 40
0.8181818181818182
 40
0.8181818181818182
 40
0.8181818181818182
 40
1.0
 40
1.0
 40
1.0
 40
1.0
 10
116.9546
 20
88.7409
 30
0.0
 10
123.1686
 20
91.1159
 30
0.0
 10
125.4768
 20
93.6846
 30
0.0
 10
128.2231
 20
98.3733
 30
0.0
 10
128.2231
 20
98.3733
 30
0.0
 10
127.5604
 20
99.2511
 30
0.0
 10
127.332
 20
100.779
 30
0.0
 10
127.3004
 20
101.9217
 30
0.0
 10
127.3004
 20
101.9217
 30
0.0
 10
125.0625
 20
99.3991
 30
0.0
 10
119.7279
 20
97.9595
 30
0.0
 10
114.8229
 20
100.0978
 30
0.0
 10
114.8229
 20
100.0978
 30
0.0
 10
115.5835
 20
95.4932
 30
0.0
 10
112.3306
 20
91.8742
 30
0.0
 10
108.1495
 20
91.8291
 30
0.0
 10
108.1495
 20
91.8291
 30
0.0
 10
105.6311
 20
92.101
 30
0.0
 10
102.5251
 20
94.3217
 30
0.0
 10
103.5996
 20
96.6065
 30
0.0
 10
103.5996
 20
96.6065
 30
0.0
 10
104.1691
 20
97.7949
 30
0.0
 10
104.9521
 20
97.9077
 30
0.0
 10
105.425
 20
96.8697
 30
0.0
 10
105.425
 20
96.8697
 30
0.0
 10
106.7547
 20
95.0209
 30
0.0
 10
108.5421
 20
95.3096
 30
0.0
 10
109.7538
 20
96.8147
 30
0.0
 10
109.7538
 20
96.8147
 30
0.0
 10
111.2988
 20
99.0648
 30
0.0
 10
109.7644
 20
102.0227
 30
0.0
 10
107.3205
 20
103.0658
 30
0.0
 10
107.3205
 20
103.0658
 30
0.0
 10
101.5802
 20
105.5524
 30
0.0
 10
96.8215
 20
99.8912
 30
0.0
 10
99.1424
 20
94.7735
 30
0.0
 10
99.1424
 20
94.7735
 30
0.0
 10
102.3576
 20
88.5399
 30
0.0
 10
110.5095
 20
87.1711
 30
0.0
 10
116.9546
 20
88.7409
 30
0.0
  0
SPLINE
  5
5A
330
1F
100
AcDbEntity
  8
layer 1
 62
     7
100
AcDbSpline
210
0.0
220
0.0
230
1.0
 70
    11
 71
     3
 72
    68
 73
    64
 74
     0
 42
0.0000000001
 43
0.0000000001
 12
1.0
 22
0.0
 32
0.0
 13
1.0
 23
0.0
 33
0.0
 40
0.0
 40
0.0
 40
0.0
 40
0.0
 40
0.0588235294117647
 40
0.0588235294117647
 40
0.0588235294117647
 40
0.0588235294117647
 40
0.1176470588235294
 40
0.1176470588235294
 40
0.1176470588235294
 40
0.1176470588235294
 40
0.1764705882352941
 40
0.1764705882352941
 40
0.1764705882352941
 40
0.1764705882352941
 40
0.2352941176470588
 40
0.2352941176470588
 40
0.2352941176470588
 40
0.2352941176470588
 40
0.2941176470588235
 40
0.2941176470588235
 40
0.2941176470588235
 40
0.2941176470588235
 40
0.3529411764705883
 40
0.3529411764705883
 40
0.3529411764705883
 40
0.3529411764705883
 40
0.4117647058823529
 40
0.4117647058823529
 40
0.4117647058823529
 40
0.4117647058823529
 40
0.4705882352941176
 40
0.4705882352941176
 40
0.4705882352941176
 40
0.4705882352941176
 40
0.5294117647058824
 40
0.5294117647058824
 40
0.5294117647058824
 40
0.5294117647058824
 40
0.5882352941176471
 40
0.5882352941176471
 40
0.5882352941176471
 40
0.5882352941176471
 40
0.6470588235294118
 40
0.6470588235294118
 40
0.6470588235294118
 40
0.6470588235294118
 40
0.7058823529411765
 40
0.7058823529411765
 40
0.7058823529411765
 40
0.7058823529411765
 40
0.7647058823529411
 40
0.7647058823529411
 40
0.7647058823529411
 40
0.7647058823529411
 40
0.8235294117647058
 40
0.8235294117647058
 40
0.8235294117647058
 40
0.8235294117647058
 40
0.8823529411764706
 40
0.8823529411764706
 40
0.8823529411764706
 40
0.8823529411764706
 40
1.0
 40
1.0
 40
1.0
 40
1.0
 10
122.0563
 20
103.2284
 30
0.0
 10
124.0945
 20
103.6656
 30
0.0
 10
125.7657
 20
105.2063
 30
0.0
 10
126.2823
 20
107.1246
 30
0.0
 10
126.2823
 20
107.1246
 30
0.0
 10
127.1495
 20
110.2585
 30
0.0
 10
123.266
 20
109.4796
 30
0.0
 10
122.0166
 20
109.187
 30
0.0
 10
122.0166
 20
109.187
 30
0.0
 10
120.9936
 20
108.9435
 30
0.0
 10
120.616
 20
109.6161
 30
0.0
 10
121.0842
 20
110.8475
 30
0.0
 10
121.0842
 20
110.8475
 30
0.0
 10
123.5486
 20
114.1379
 30
0.0
 10
128.1346
 20
113.3843
 30
0.0
 10
129.9252
 20
110.3427
 30
0.0
 10
129.9252
 20
110.3427
 30
0.0
 10
130.4456
 20
112.1523
 30
0.0
 10
129.9916
 20
113.9715
 30
0.0
 10
129.1572
 20
115.5851
 30
0.0
 10
129.1572
 20
115.5851
 30
0.0
 10
127.4005
 20
114.7063
 30
0.0
 10
124.7417
 20
114.7461
 30
0.0
 10
123.3511
 20
115.474
 30
0.0
 10
123.3511
 20
115.474
 30
0.0
 10
123.3511
 20
116.0001
 30
0.0
 10
124.8916
 20
117.0936
 30
0.0
 10
125.9647
 20
117.3293
 30
0.0
 10
125.9647
 20
117.3293
 30
0.0
 10
127.0803
 20
117.5743
 30
0.0
 10
127.1904
 20
117.9724
 30
0.0
 10
126.2777
 20
118.4609
 30
0.0
 10
126.2777
 20
118.4609
 30
0.0
 10
125.335
 20
118.9654
 30
0.0
 10
124.5823
 20
120.5385
 30
0.0
 10
125.0567
 20
121.0128
 30
0.0
 10
125.0567
 20
121.0128
 30
0.0
 10
126.4968
 20
121.5019
 30
0.0
 10
128.2246
 20
120.9345
 30
0.0
 10
129.7023
 20
120.3829
 30
0.0
 10
129.7023
 20
120.3829
 30
0.0
 10
129.5982
 20
122.5926
 30
0.0
 10
129.8283
 20
124.0951
 30
0.0
 10
130.8442
 20
126.1383
 30
0.0
 10
130.8442
 20
126.1383
 30
0.0
 10
130.8442
 20
126.1383
 30
0.0
 10
113.759
 20
126.1383
 30
0.0
 10
113.759
 20
126.1383
 30
0.0
 10
113.759
 20
126.1383
 30
0.0
 10
119.7372
 20
120.4861
 30
0.0
 10
116.3748
 20
111.0143
 30
0.0
 10
108.1857
 20
111.0066
 30
0.0
 10
108.1857
 20
111.0066
 30
0.0
 10
106.4998
 20
111.0138
 30
0.0
 10
106.4572
 20
110.3794
 30
0.0
 10
107.2595
 20
109.338
 30
0.0
 10
107.2595
 20
109.338
 30
0.0
 10
111.3361
 20
104.7612
 30
0.0
 10
117.1237
 20
102.1786
 30
0.0
 10
122.0562
 20
103.2284
 30
0.0
 10
122.0562
 20
103.2284
 30
0.0
 10
122.0562
 20
103.2284
 30
0.0
 10
122.0563
 20
103.2284
 30
0.0
 10
122.0563
 20
103.2284
 30
0.0
  0
SPLINE
  5
5B
330
1F
100
AcDbEntity
  8
layer 1
 62
     7
100
AcDbSpline
210
0.0
220
0.0
230
1.0
 70
    11
 71
     3
 72
    28
 73
    24
 74
     0
 42
0.0000000001
 43
0.0000000001
 12
1.0
 22
0.0
 32
0.0
 13
1.0
 23
0.0
 33
0.0
 40
0.0
 40
0.0
 40
0.0
 40
0.0
 40
0.1428571428571428
 40
0.1428571428571428
 40
0.1428571428571428
 40
0.1428571428571428
 40
0.2857142857142857
 40
0.2857142857142857
 40
0.2857142857142857
 40
0.2857142857142857
 40
0.4285714285714285
 40
0.4285714285714285
 40
0.4285714285714285
 40
0.4285714285714285
 40
0.5714285714285714
 40
0.5714285714285714
 40
0.5714285714285714
 40
0.5714285714285714
 40
0.7142857142857143
 40
0.7142857142857143
 40
0.7142857142857143
 40
0.7142857142857143
 40
1.0
 40
1.0
 40
1.0
 40
1.0
 10
104.1822
 20
106.7405
 30
0.0
 10
103.1058
 20
107.5416
 30
0.0
 10
102.5975
 20
108.2697
 30
0.0
 10
102.3514
 20
109.3751
 30
0.0
 10
102.3514
 20
109.3751
 30
0.0
 10
102.1934
 20
110.1651
 30
0.0
 10
101.6796
 20
110.5701
 30
0.0
 10
99.5532
 20
111.5813
 30
0.0
 10
99.5532
 20
111.5813
 30
0.0
 10
100.082
 20
109.244
 30
0.0
 10
99.8881
 20
107.1947
 30
0.0
 10
98.8692
 20
105.6273
 30
0.0
 10
98.8692
 20
105.6273
 30
0.0
 10
98.7562
 20
104.9331
 30
0.0
 10
99.0651
 20
104.898
 30
0.0
 10
99.8878
 20
105.3248
 30
0.0
 10
99.8878
 20
105.3248
 30
0.0
 10
101.2915
 20
106.0253
 30
0.0
 10
102.5295
 20
106.5789
 30
0.0
 10
104.1823
 20
106.7403
 30
0.0
 10
104.1823
 20
106.7403
 30
0.0
 10
104.1823
 20
106.7403
 30
0.0
 10
104.1822
 20
106.7405
 30
0.0
 10
104.1822
 20
106.7405
 30
0.0
  0
SPLINE
  5
5C
330
1F
100
AcDbEntity
  8
layer 1
 62
     7
100
AcDbSpline
210
0.0
220
0.0
230
1.0
 70
    11
 71
     3
 72
    48
 73
    44
 74
     0
 42
0.0000000001
 43
0.0000000001
 12
1.0
 22
0.0
 32
0.0
 13
1.0
 23
0.0
 33
0.0
 40
0.0
 40
0.0
 40
0.0
 40
0.0
 40
0.0833333333333333
 40
0.0833333333333333
 40
0.0833333333333333
 40
0.0833333333333333
 40
0.1666666666666667
 40
0.1666666666666667
 40
0.1666666666666667
 40
0.1666666666666667
 40
0.25
 40
0.25
 40
0.25
 40
0.25
 40
0.3333333333333333
 40
0.3333333333333333
 40
0.3333333333333333
 40
0.3333333333333333
 40
0.4166666666666667
 40
0.4166666666666667
 40
0.4166666666666667
 40
0.4166666666666667
 40
0.5
 40
0.5
 40
0.5
 40
0.5
 40
0.5833333333333334
 40
0.5833333333333334
 40
0.5833333333333334
 40
0.5833333333333334
 40
0.6666666666666666
 40
0.6666666666666666
 40
0.6666666666666666
 40
0.6666666666666666
 40
0.75
 40
0.75
 40
0.75
 40
0.75
 40
0.8333333333333334
 40
0.8333333333333334
 40
0.8333333333333334
 40
0.8333333333333334
 40
1.0
 40
1.0
 40
1.0
 40
1.0
 10
109.3226
 20
114.5774
 30
0.0
 10
114.9921
 20
116.7867
 30
0.0
 10
112.5917
 20
126.1384
 30
0.0
 10
107.1833
 20
123.154
 30
0.0
 10
107.1833
 20
123.154
 30
0.0
 10
105.8855
 20
122.245
 30
0.0
 10
106.5826
 20
119.762
 30
0.0
 10
108.1357
 20
119.762
 30
0.0
 10
108.1357
 20
119.762
 30
0.0
 10
108.9298
 20
119.762
 30
0.0
 10
108.897
 20
119.035
 30
0.0
 10
108.0691
 20
118.2858
 30
0.0
 10
108.0691
 20
118.2858
 30
0.0
 10
106.5694
 20
116.9286
 30
0.0
 10
103.4024
 20
117.1604
 30
0.0
 10
102.5522
 20
120.2841
 30
0.0
 10
102.5522
 20
120.2841
 30
0.0
 10
102.0636
 20
123.1742
 30
0.0
 10
102.6878
 20
124.6823
 30
0.0
 10
105.0165
 20
126.1384
 30
0.0
 10
105.0165
 20
126.1384
 30
0.0
 10
105.0165
 20
126.1384
 30
0.0
 10
98.0993
 20
126.1384
 30
0.0
 10
98.0993
 20
126.1384
 30
0.0
 10
98.0993
 20
126.1384
 30
0.0
 10
97.7994
 20
123.2645
 30
0.0
 10
95.9232
 20
121.8714
 30
0.0
 10
93.8789
 20
121.5531
 30
0.0
 10
93.8789
 20
121.5531
 30
0.0
 10
92.7749
 20
121.4058
 30
0.0
 10
92.5596
 20
120.6981
 30
0.0
 10
93.5064
 20
120.2299
 30
0.0
 10
93.5064
 20
120.2299
 30
0.0
 10
94.0797
 20
119.9464
 30
0.0
 10
96.1757
 20
118.6334
 30
0.0
 10
98.1756
 20
117.3348
 30
0.0
 10
98.1756
 20
117.3348
 30
0.0
 10
103.4427
 20
113.9151
 30
0.0
 10
105.4906
 20
113.4085
 30
0.0
 10
109.3225
 20
114.5773
 30
0.0
 10
109.3225
 20
114.5773
 30
0.0
 10
109.3225
 20
114.5773
 30
0.0
 10
109.3226
 20
114.5774
 30
0.0
 10
109.3226
 20
114.5774
 30
0.0
  0
SPLINE
  5
5D
330
1F
100
AcDbEntity
  8
layer 1
 62
     7
100
AcDbSpline
210
0.0
220
0.0
230
1.0
 70
    11
 71
     3
 72
    28
 73
    24
 74
     0
 42
0.0000000001
 43
0.0000000001
 12
1.0
 22
0.0
 32
0.0
 13
1.0
 23
0.0
 33
0.0
 40
0.0
 40
0.0
 40
0.0
 40
0.0
 40
0.1428571428571428
 40
0.1428571428571428
 40
0.1428571428571428
 40
0.1428571428571428
 40
0.2857142857142857
 40
0.2857142857142857
 40
0.2857142857142857
 40
0.2857142857142857
 40
0.4285714285714285
 40
0.4285714285714285
 40
0.4285714285714285
 40
0.4285714285714285
 40
0.5714285714285714
 40
0.5714285714285714
 40
0.5714285714285714
 40
0.5714285714285714
 40
0.7142857142857143
 40
0.7142857142857143
 40
0.7142857142857143
 40
0.7142857142857143
 40
1.0
 40
1.0
 40
1.0
 40
1.0
 10
74.2532
 20
116.8674
 30
0.0
 10
79.7862
 20
122.441
 30
0.0
 10
85.9988
 20
120.6065
 30
0.0
 10
91.6638
 20
122.7737
 30
0.0
 10
91.6638
 20
122.7737
 30
0.0
 10
94.8355
 20
123.738
 30
0.0
 10
95.9384
 20
126.4405
 30
0.0
 10
93.0012
 20
126.1383
 30
0.0
 10
93.0012
 20
126.1383
 30
0.0
 10
85.6422
 20
126.1383
 30
0.0
 10
79.8956
 20
126.1383
 30
0.0
 10
72.3998
 20
126.1383
 30
0.0
 10
72.3998
 20
126.1383
 30
0.0
 10
72.3998
 20
126.1383
 30
0.0
 10
72.3998
 20
115.5395
 30
0.0
 10
72.3998
 20
115.5395
 30
0.0
 10
72.3998
 20
115.5395
 30
0.0
 10
72.5064
 20
115.5395
 30
0.0
 10
73.4236
 20
116.1369
 30
0.0
 10
74.2532
 20
116.8672
 30
0.0
 10
74.2532
 20
116.8672
 30
0.0
 10
74.2532
 20
116.8672
 30
0.0
 10
74.2532
 20
116.8674
 30
0.0
 10
74.2532
 20
116.8674
 30
0.0
  0
SPLINE
  5
5E
330
1F
100
AcDbEntity
  8
layer 1
 62
     7
100
AcDbSpline
210
0.0
220
0.0
230
1.0
 70
    11
 71
     3
 72
    20
 73
    16
 74
     0
 42
0.0000000001
 43
0.0000000001
 12
1.0
 22
0.0
 32
0.0
 13
1.0
 23
0.0
 33
0.0
 40
0.0
 40
0.0
 40
0.0
 40
0.0
 40
0.2
 40
0.2
 40
0.2
 40
0.2
 40
0.4
 40
0.4
 40
0.4
 40
0.4
 40
0.6
 40
0.6
 40
0.6
 40
0.6
 40
1.0
 40
1.0
 40
1.0
 40
1.0
 10
134.353
 20
7.7277
 30
0.0
 10
134.353
 20
6.5906
 30
0.0
 10
133.4312
 20
5.6688
 30
0.0
 10
132.2941
 20
5.6688
 30
0.0
 10
132.2941
 20
5.6688
 30
0.0
 10
131.157
 20
5.6688
 30
0.0
 10
130.2352
 20
6.5906
 30
0.0
 10
130.2352
 20
7.7277
 30
0.0
 10
130.2352
 20
7.7277
 30
0.0
 10
130.2352
 20
8.8648
 30
0.0
 10
131.157
 20
9.7866
 30
0.0
 10
132.2941
 20
9.7866
 30
0.0
 10
132.2941
 20
9.7866
 30
0.0
 10
133.4312
 20
9.7866
 30
0.0
 10
134.353
 20
8.8648
 30
0.0
 10
134.353
 20
7.7277
 30
0.0
  0
SPLINE
  5
5F
330
1F
100
AcDbEntity
  8
layer 1
 62
     7
100
AcDbSpline
210
0.0
220
0.0
230
1.0
 70
    11
 71
     3
 72
    24
 73
    20
 74
     0
 42
0.0000000001
 43
0.0000000001
 12
1.0
 22
0.0
 32
0.0
 13
1.0
 23
0.0
 33
0.0
 40
0.0
 40
0.0
 40
0.0
 40
0.0
 40
0.1666666666666667
 40
0.1666666666666667
 40
0.1666666666666667
 40
0.1666666666666667
 40
0.3333333333333333
 40
0.3333333333333333
 40
0.3333333333333333
 40
0.3333333333333333
 40
0.5
 40
0.5
 40
0.5
 40
0.5
 40
0.6666666666666666
 40
0.6666666666666666
 40
0.6666666666666666
 40
0.6666666666666666
 40
1.0
 40
1.0
 40
1.0
 40
1.0
 10
187.7662
 20
8.8563
 30
0.0
 10
189.5047
 20
8.9362
 30
0.0
 10
191.1184
 20
9.6767
 30
0.0
 10
192.1897
 20
10.6896
 30
0.0
 10
192.1897
 20
10.6896
 30
0.0
 10
192.1897
 20
8.6802
 30
0.0
 10
192.1897
 20
6.6708
 30
0.0
 10
192.1897
 20
4.6614
 30
0.0
 10
192.1897
 20
4.6614
 30
0.0
 10
191.1184
 20
5.6742
 30
0.0
 10
189.5047
 20
6.4146
 30
0.0
 10
187.7662
 20
6.4947
 30
0.0
 10
187.7662
 20
6.4947
 30
0.0
 10
187.0793
 20
6.6414
 30
0.0
 10
186.6825
 20
6.8606
 30
0.0
 10
186.7106
 20
7.6755
 30
0.0
 10
186.7106
 20
7.6755
 30
0.0
 10
186.6825
 20
8.4905
 30
0.0
 10
187.0793
 20
8.7097
 30
0.0
 10
187.7662
 20
8.8563
 30
0.0
  0
SPLINE
  5
60
330
1F
100
AcDbEntity
  8
layer 1
 62
     7
100
AcDbSpline
210
0.0
220
0.0
230
1.0
 70
    11
 71
     3
 72
    12
 73
     8
 74
     0
 42
0.0000000001
 43
0.0000000001
 12
1.0
 22
0.0
 32
0.0
 13
1.0
 23
0.0
 33
0.0
 40
0.0
 40
0.0
 40
0.0
 40
0.0
 40
0.3333333333333333
 40
0.3333333333333333
 40
0.3333333333333333
 40
0.3333333333333333
 40
1.0
 40
1.0
 40
1.0
 40
1.0
 10
141.9757
 20
7.6755
 30
0.0
 10
144.3565
 20
4.0214
 30
0.0
 10
152.4056
 20
4.5536
 30
0.0
 10
154.2519
 20
7.6755
 30
0.0
 10
154.2519
 20
7.6755
 30
0.0
 10
152.4056
 20
10.7974
 30
0.0
 10
144.3565
 20
11.3296
 30
0.0
 10
141.9757
 20
7.6755
 30
0.0
  0
SPLINE
  5
61
330
1F
100
AcDbEntity
  8
layer 1
 62
     7
100
AcDbSpline
210
0.0
220
0.0
230
1.0
 70
    11
 71
     3
 72
    24
 73
    20
 74
     0
 42
0.0000000001
 43
0.0000000001
 12
1.0
 22
0.0
 32
0.0
 13
1.0
 23
0.0
 33
0.0
 40
0.0
 40
0.0
 40
0.0
 40
0.0
 40
0.1666666666666667
 40
0.1666666666666667
 40
0.1666666666666667
 40
0.1666666666666667
 40
0.3333333333333333
 40
0.3333333333333333
 40
0.3333333333333333
 40
0.3333333333333333
 40
0.5
 40
0.5
 40
0.5
 40
0.5
 40
0.6666666666666666
 40
0.6666666666666666
 40
0.6666666666666666
 40
0.6666666666666666
 40
1.0
 40
1.0
 40
1.0
 40
1.0
 10
135.9425
 20
9.4543
 30
0.0
 10
136.248
 20
10.1217
 30
0.0
 10
137.7913
 20
10.7137
 30
0.0
 10
138.8164
 20
10.7247
 30
0.0
 10
138.8164
 20
10.7247
 30
0.0
 10
139.5813
 20
10.7329
 30
0.0
 10
139.6189
 20
10.1546
 30
0.0
 10
139.265
 20
9.8038
 30
0.0
 10
139.265
 20
9.8038
 30
0.0
 10
138.4415
 20
8.9877
 30
0.0
 10
136.9025
 20
8.5464
 30
0.0
 10
136.1735
 20
8.8124
 30
0.0
 10
136.1735
 20
8.8124
 30
0.0
 10
136.0285
 20
8.8653
 30
0.0
 10
135.7789
 20
9.0967
 30
0.0
 10
135.9425
 20
9.4544
 30
0.0
 10
135.9425
 20
9.4544
 30
0.0
 10
135.9425
 20
9.4544
 30
0.0
 10
135.9425
 20
9.4543
 30
0.0
 10
135.9425
 20
9.4543
 30
0.0
  0
SPLINE
  5
62
330
1F
100
AcDbEntity
  8
layer 1
 62
     7
100
AcDbSpline
210
0.0
220
0.0
230
1.0
 70
    11
 71
     3
 72
    20
 73
    16
 74
     0
 42
0.0000000001
 43
0.0000000001
 12
1.0
 22
0.0
 32
0.0
 13
1.0
 23
0.0
 33
0.0
 40
0.0
 40
0.0
 40
0.0
 40
0.0
 40
0.2
 40
0.2
 40
0.2
 40
0.2
 40
0.4
 40
0.4
 40
0.4
 40
0.4
 40
0.6
 40
0.6
 40
0.6
 40
0.6
 40
1.0
 40
1.0
 40
1.0
 40
1.0
 10
134.1015
 20
11.1562
 30
0.0
 10
134.0449
 20
12.3282
 30
0.0
 10
134.8512
 20
13.6245
 30
0.0
 10
136.1009
 20
13.8726
 30
0.0
 10
136.1009
 20
13.8726
 30
0.0
 10
136.6903
 20
13.9824
 30
0.0
 10
136.8221
 20
13.8995
 30
0.0
 10
136.8583
 20
13.3672
 30
0.0
 10
136.8583
 20
13.3672
 30
0.0
 10
136.8324
 20
12.1748
 30
0.0
 10
135.8316
 20
10.8107
 30
0.0
 10
134.6681
 20
10.6846
 30
0.0
 10
134.6681
 20
10.6846
 30
0.0
 10
134.2053
 20
10.6301
 30
0.0
 10
134.1473
 20
10.7612
 30
0.0
 10
134.1015
 20
11.1562
 30
0.0
  0
SPLINE
  5
63
330
1F
100
AcDbEntity
  8
layer 1
 62
     7
100
AcDbSpline
210
0.0
220
0.0
230
1.0
 70
    11
 71
     3
 72
    48
 73
    44
 74
     0
 42
0.0000000001
 43
0.0000000001
 12
1.0
 22
0.0
 32
0.0
 13
1.0
 23
0.0
 33
0.0
 40
0.0
 40
0.0
 40
0.0
 40
0.0
 40
0.0833333333333333
 40
0.0833333333333333
 40
0.0833333333333333
 40
0.0833333333333333
 40
0.1666666666666667
 40
0.1666666666666667
 40
0.1666666666666667
 40
0.1666666666666667
 40
0.25
 40
0.25
 40
0.25
 40
0.25
 40
0.3333333333333333
 40
0.3333333333333333
 40
0.3333333333333333
 40
0.3333333333333333
 40
0.4166666666666667
 40
0.4166666666666667
 40
0.4166666666666667
 40
0.4166666666666667
 40
0.5
 40
0.5
 40
0.5
 40
0.5
 40
0.5833333333333334
 40
0.5833333333333334
 40
0.5833333333333334
 40
0.5833333333333334
 40
0.6666666666666666
 40
0.6666666666666666
 40
0.6666666666666666
 40
0.6666666666666666
 40
0.75
 40
0.75
 40
0.75
 40
0.75
 40
0.8333333333333334
 40
0.8333333333333334
 40
0.8333333333333334
 40
0.8333333333333334
 40
1.0
 40
1.0
 40
1.0
 40
1.0
 10
183.2821
 20
12.3744
 30
0.0
 10
180.6325
 20
13.6081
 30
0.0
 10
178.3986
 20
16.5332
 30
0.0
 10
178.5906
 20
19.078
 30
0.0
 10
178.5906
 20
19.078
 30
0.0
 10
178.6467
 20
19.8222
 30
0.0
 10
179.1135
 20
20.4571
 30
0.0
 10
179.7526
 20
21.237
 30
0.0
 10
179.7526
 20
21.237
 30
0.0
 10
182.1791
 20
24.4865
 30
0.0
 10
182.95
 20
27.2945
 30
0.0
 10
183.5734
 20
30.9967
 30
0.0
 10
183.5734
 20
30.9967
 30
0.0
 10
186.0159
 20
28.7367
 30
0.0
 10
189.7688
 20
28.1947
 30
0.0
 10
192.1897
 20
29.182
 30
0.0
 10
192.1897
 20
29.182
 30
0.0
 10
192.1897
 20
29.182
 30
0.0
 10
192.1897
 20
22.5277
 30
0.0
 10
192.1897
 20
22.5277
 30
0.0
 10
192.1897
 20
22.5277
 30
0.0
 10
185.9667
 20
27.6847
 30
0.0
 10
180.1274
 20
21.6949
 30
0.0
 10
183.0001
 20
17.2041
 30
0.0
 10
183.0001
 20
17.2041
 30
0.0
 10
184.4817
 20
15.3216
 30
0.0
 10
185.6934
 20
16.3952
 30
0.0
 10
185.6773
 20
18.093
 30
0.0
 10
185.6773
 20
18.093
 30
0.0
 10
185.7924
 20
19.7102
 30
0.0
 10
186.1524
 20
20.3003
 30
0.0
 10
187.287
 20
20.7317
 30
0.0
 10
187.287
 20
20.7317
 30
0.0
 10
189.4371
 20
21.5491
 30
0.0
 10
191.8068
 20
17.9645
 30
0.0
 10
190.9677
 20
15.1638
 30
0.0
 10
190.9677
 20
15.1638
 30
0.0
 10
190.0192
 20
11.9982
 30
0.0
 10
186.687
 20
10.7889
 30
0.0
 10
183.2822
 20
12.3745
 30
0.0
 10
183.2822
 20
12.3745
 30
0.0
 10
183.2822
 20
12.3745
 30
0.0
 10
183.2821
 20
12.3744
 30
0.0
 10
183.2821
 20
12.3744
 30
0.0
  0
SPLINE
  5
64
330
1F
100
AcDbEntity
  8
layer 1
 62
     7
100
AcDbSpline
210
0.0
220
0.0
230
1.0
 70
    11
 71
     3
 72
    12
 73
     8
 74
     0
 42
0.0000000001
 43
0.0000000001
 12
1.0
 22
0.0
 32
0.0
 13
1.0
 23
0.0
 33
0.0
 40
0.0
 40
0.0
 40
0.0
 40
0.0
 40
0.3333333333333333
 40
0.3333333333333333
 40
0.3333333333333333
 40
0.3333333333333333
 40
1.0
 40
1.0
 40
1.0
 40
1.0
 10
138.7666
 20
12.4162
 30
0.0
 10
139.6209
 20
17.4754
 30
0.0
 10
144.5924
 20
19.8299
 30
0.0
 10
147.9878
 20
19.1207
 30
0.0
 10
147.9878
 20
19.1207
 30
0.0
 10
147.6888
 20
15.0357
 30
0.0
 10
143.1551
 20
11.0224
 30
0.0
 10
138.7666
 20
12.4162
 30
0.0
  0
SPLINE
  5
65
330
1F
100
AcDbEntity
  8
layer 1
 62
     7
100
AcDbSpline
210
0.0
220
0.0
230
1.0
 70
    11
 71
     3
 72
    24
 73
    20
 74
     0
 42
0.0000000001
 43
0.0000000001
 12
1.0
 22
0.0
 32
0.0
 13
1.0
 23
0.0
 33
0.0
 40
0.0
 40
0.0
 40
0.0
 40
0.0
 40
0.1666666666666667
 40
0.1666666666666667
 40
0.1666666666666667
 40
0.1666666666666667
 40
0.3333333333333333
 40
0.3333333333333333
 40
0.3333333333333333
 40
0.3333333333333333
 40
0.5
 40
0.5
 40
0.5
 40
0.5
 40
0.6666666666666666
 40
0.6666666666666666
 40
0.6666666666666666
 40
0.6666666666666666
 40
1.0
 40
1.0
 40
1.0
 40
1.0
 10
134.2456
 20
14.8772
 30
0.0
 10
137.2798
 20
17.674
 30
0.0
 10
137.1501
 20
21.7249
 30
0.0
 10
133.9357
 20
24.5472
 30
0.0
 10
133.9357
 20
24.5472
 30
0.0
 10
132.6872
 20
25.8082
 30
0.0
 10
131.6918
 20
25.4512
 30
0.0
 10
130.6538
 20
24.5472
 30
0.0
 10
130.6538
 20
24.5472
 30
0.0
 10
127.4394
 20
21.7249
 30
0.0
 10
127.3096
 20
17.6741
 30
0.0
 10
130.3439
 20
14.8772
 30
0.0
 10
130.3439
 20
14.8772
 30
0.0
 10
131.8334
 20
13.2951
 30
0.0
 10
132.9889
 20
13.7286
 30
0.0
 10
134.2457
 20
14.8772
 30
0.0
 10
134.2457
 20
14.8772
 30
0.0
 10
134.2457
 20
14.8772
 30
0.0
 10
134.2456
 20
14.8772
 30
0.0
 10
134.2456
 20
14.8772
 30
0.0
  0
SPLINE
  5
66
330
1F
100
AcDbEntity
  8
layer 1
 62
     7
100
AcDbSpline
210
0.0
220
0.0
230
1.0
 70
    11
 71
     3
 72
    12
 73
     8
 74
     0
 42
0.0000000001
 43
0.0000000001
 12
1.0
 22
0.0
 32
0.0
 13
1.0
 23
0.0
 33
0.0
 40
0.0
 40
0.0
 40
0.0
 40
0.0
 40
0.3333333333333333
 40
0.3333333333333333
 40
0.3333333333333333
 40
0.3333333333333333
 40
1.0
 40
1.0
 40
1.0
 40
1.0
 10
145.5332
 20
38.9443
 30
0.0
 10
147.8883
 20
30.8091
 30
0.0
 10
144.337
 20
23.7171
 30
0.0
 10
139.5047
 20
20.5716
 30
0.0
 10
139.5047
 20
20.5716
 30
0.0
 10
137.8246
 20
29.1622
 30
0.0
 10
140.2365
 20
35.2146
 30
0.0
 10
145.5332
 20
38.9443
 30
0.0
  0
SPLINE
  5
67
330
1F
100
AcDbEntity
  8
layer 1
 62
     7
100
AcDbSpline
210
0.0
220
0.0
230
1.0
 70
    11
 71
     3
 72
    60
 73
    56
 74
     0
 42
0.0000000001
 43
0.0000000001
 12
1.0
 22
0.0
 32
0.0
 13
1.0
 23
0.0
 33
0.0
 40
0.0
 40
0.0
 40
0.0
 40
0.0
 40
0.0666666666666667
 40
0.0666666666666667
 40
0.0666666666666667
 40
0.0666666666666667
 40
0.1333333333333333
 40
0.1333333333333333
 40
0.1333333333333333
 40
0.1333333333333333
 40
0.2
 40
0.2
 40
0.2
 40
0.2
 40
0.2666666666666667
 40
0.2666666666666667
 40
0.2666666666666667
 40
0.2666666666666667
 40
0.3333333333333333
 40
0.3333333333333333
 40
0.3333333333333333
 40
0.3333333333333333
 40
0.4
 40
0.4
 40
0.4
 40
0.4
 40
0.4666666666666667
 40
0.4666666666666667
 40
0.4666666666666667
 40
0.4666666666666667
 40
0.5333333333333333
 40
0.5333333333333333
 40
0.5333333333333333
 40
0.5333333333333333
 40
0.6
 40
0.6
 40
0.6
 40
0.6
 40
0.6666666666666666
 40
0.6666666666666666
 40
0.6666666666666666
 40
0.6666666666666666
 40
0.7333333333333333
 40
0.7333333333333333
 40
0.7333333333333333
 40
0.7333333333333333
 40
0.8
 40
0.8
 40
0.8
 40
0.8
 40
0.8666666666666667
 40
0.8666666666666667
 40
0.8666666666666667
 40
0.8666666666666667
 40
1.0
 40
1.0
 40
1.0
 40
1.0
 10
159.9424
 20
27.4963
 30
0.0
 10
158.9859
 20
30.7722
 30
0.0
 10
159.4213
 20
33.4138
 30
0.0
 10
161.2632
 20
35.5093
 30
0.0
 10
161.2632
 20
35.5093
 30
0.0
 10
164.1266
 20
38.7671
 30
0.0
 10
170.1457
 20
37.2017
 30
0.0
 10
170.1457
 20
33.1993
 30
0.0
 10
170.1457
 20
33.1993
 30
0.0
 10
170.1457
 20
31.0154
 30
0.0
 10
167.6728
 20
29.4978
 30
0.0
 10
165.834
 20
30.5532
 30
0.0
 10
165.834
 20
30.5532
 30
0.0
 10
163.795
 20
31.7234
 30
0.0
 10
162.0356
 20
30.6545
 30
0.0
 10
163.1647
 20
28.9312
 30
0.0
 10
163.1647
 20
28.9312
 30
0.0
 10
164.3906
 20
27.0603
 30
0.0
 10
168.1495
 20
26.3332
 30
0.0
 10
170.6329
 20
27.4866
 30
0.0
 10
170.6329
 20
27.4866
 30
0.0
 10
174.9008
 20
29.4687
 30
0.0
 10
175.9774
 20
34.4703
 30
0.0
 10
172.8754
 20
37.9039
 30
0.0
 10
172.8754
 20
37.9039
 30
0.0
 10
169.6209
 20
41.5891
 30
0.0
 10
164.9957
 20
41.6181
 30
0.0
 10
161.6909
 20
40.836
 30
0.0
 10
161.6909
 20
40.836
 30
0.0
 10
158.3695
 20
44.609
 30
0.0
 10
151.6988
 20
42.1819
 30
0.0
 10
150.6838
 20
37.9271
 30
0.0
 10
150.6838
 20
37.9271
 30
0.0
 10
150.322
 20
39.1399
 30
0.0
 10
150.0941
 20
39.7247
 30
0.0
 10
149.687
 20
40.6327
 30
0.0
 10
149.687
 20
40.6327
 30
0.0
 10
150.8349
 20
41.9047
 30
0.0
 10
152.6429
 20
42.8788
 30
0.0
 10
154.1476
 20
43.6235
 30
0.0
 10
154.1476
 20
43.6235
 30
0.0
 10
164.5312
 20
48.0658
 30
0.0
 10
179.1948
 20
43.9639
 30
0.0
 10
179.1616
 20
32.9173
 30
0.0
 10
179.1616
 20
32.9173
 30
0.0
 10
179.048
 20
27.405
 30
0.0
 10
176.2365
 20
23.2661
 30
0.0
 10
171.7217
 20
21.6242
 30
0.0
 10
171.7217
 20
21.6242
 30
0.0
 10
166.7816
 20
20.2528
 30
0.0
 10
161.3876
 20
22.8973
 30
0.0
 10
159.9424
 20
27.4962
 30
0.0
 10
159.9424
 20
27.4962
 30
0.0
 10
159.9424
 20
27.4962
 30
0.0
 10
159.9424
 20
27.4963
 30
0.0
 10
159.9424
 20
27.4963
 30
0.0
  0
SPLINE
  5
68
330
1F
100
AcDbEntity
  8
layer 1
 62
     7
100
AcDbSpline
210
0.0
220
0.0
230
1.0
 70
    11
 71
     3
 72
    28
 73
    24
 74
     0
 42
0.0000000001
 43
0.0000000001
 12
1.0
 22
0.0
 32
0.0
 13
1.0
 23
0.0
 33
0.0
 40
0.0
 40
0.0
 40
0.0
 40
0.0
 40
0.1428571428571428
 40
0.1428571428571428
 40
0.1428571428571428
 40
0.1428571428571428
 40
0.2857142857142857
 40
0.2857142857142857
 40
0.2857142857142857
 40
0.2857142857142857
 40
0.4285714285714285
 40
0.4285714285714285
 40
0.4285714285714285
 40
0.4285714285714285
 40
0.5714285714285714
 40
0.5714285714285714
 40
0.5714285714285714
 40
0.5714285714285714
 40
0.7142857142857143
 40
0.7142857142857143
 40
0.7142857142857143
 40
0.7142857142857143
 40
1.0
 40
1.0
 40
1.0
 40
1.0
 10
134.2361
 20
27.9955
 30
0.0
 10
135.1811
 20
27.2807
 30
0.0
 10
135.392
 20
27.404
 30
0.0
 10
135.392
 20
28.6715
 30
0.0
 10
135.392
 20
28.6715
 30
0.0
 10
135.392
 20
30.9481
 30
0.0
 10
133.8681
 20
32.3611
 30
0.0
 10
132.2947
 20
32.376
 30
0.0
 10
132.2947
 20
32.376
 30
0.0
 10
130.7213
 20
32.3611
 30
0.0
 10
129.1974
 20
30.9481
 30
0.0
 10
129.1974
 20
28.6715
 30
0.0
 10
129.1974
 20
28.6715
 30
0.0
 10
129.1974
 20
27.404
 30
0.0
 10
129.4083
 20
27.2807
 30
0.0
 10
130.3533
 20
27.9955
 30
0.0
 10
130.3533
 20
27.9955
 30
0.0
 10
131.5243
 20
28.5486
 30
0.0
 10
133.1333
 20
28.7964
 30
0.0
 10
134.236
 20
27.9955
 30
0.0
 10
134.236
 20
27.9955
 30
0.0
 10
134.236
 20
27.9955
 30
0.0
 10
134.2361
 20
27.9955
 30
0.0
 10
134.2361
 20
27.9955
 30
0.0
  0
SPLINE
  5
69
330
1F
100
AcDbEntity
  8
layer 1
 62
     7
100
AcDbSpline
210
0.0
220
0.0
230
1.0
 70
    11
 71
     3
 72
    20
 73
    16
 74
     0
 42
0.0000000001
 43
0.0000000001
 12
1.0
 22
0.0
 32
0.0
 13
1.0
 23
0.0
 33
0.0
 40
0.0
 40
0.0
 40
0.0
 40
0.0
 40
0.2
 40
0.2
 40
0.2
 40
0.2
 40
0.4
 40
0.4
 40
0.4
 40
0.4
 40
0.6
 40
0.6
 40
0.6
 40
0.6
 40
1.0
 40
1.0
 40
1.0
 40
1.0
 10
186.5867
 20
34.3074
 30
0.0
 10
185.4574
 20
38.2126
 30
0.0
 10
184.2476
 20
39.6543
 30
0.0
 10
181.3585
 20
41.8118
 30
0.0
 10
181.3585
 20
41.8118
 30
0.0
 10
185.5054
 20
41.0922
 30
0.0
 10
189.5071
 20
43.5491
 30
0.0
 10
192.1897
 20
47.0222
 30
0.0
 10
192.1897
 20
47.0222
 30
0.0
 10
192.1897
 20
47.0222
 30
0.0
 10
192.1897
 20
34.113
 30
0.0
 10
192.1897
 20
34.113
 30
0.0
 10
192.1897
 20
34.113
 30
0.0
 10
191.6659
 20
31.2329
 30
0.0
 10
187.0795
 20
31.3922
 30
0.0
 10
186.5867
 20
34.3074
 30
0.0
  0
SPLINE
  5
6A
330
1F
100
AcDbEntity
  8
layer 1
 62
     7
100
AcDbSpline
210
0.0
220
0.0
230
1.0
 70
    11
 71
     3
 72
    20
 73
    16
 74
     0
 42
0.0000000001
 43
0.0000000001
 12
1.0
 22
0.0
 32
0.0
 13
1.0
 23
0.0
 33
0.0
 40
0.0
 40
0.0
 40
0.0
 40
0.0
 40
0.2
 40
0.2
 40
0.2
 40
0.2
 40
0.4
 40
0.4
 40
0.4
 40
0.4
 40
0.6
 40
0.6
 40
0.6
 40
0.6
 40
1.0
 40
1.0
 40
1.0
 40
1.0
 10
137.2479
 20
33.3565
 30
0.0
 10
139.1638
 20
36.5138
 30
0.0
 10
142.6537
 20
42.6981
 30
0.0
 10
143.626
 20
44.7108
 30
0.0
 10
143.626
 20
44.7108
 30
0.0
 10
144.3322
 20
43.8807
 30
0.0
 10
144.8564
 20
42.8421
 30
0.0
 10
145.2694
 20
42.1441
 30
0.0
 10
145.2694
 20
42.1441
 30
0.0
 10
142.3535
 20
39.4095
 30
0.0
 10
140.8446
 20
37.6069
 30
0.0
 10
137.2479
 20
33.3566
 30
0.0
 10
137.2479
 20
33.3566
 30
0.0
 10
137.2479
 20
33.3566
 30
0.0
 10
137.2479
 20
33.3565
 30
0.0
 10
137.2479
 20
33.3565
 30
0.0
  0
SPLINE
  5
6B
330
1F
100
AcDbEntity
  8
layer 1
 62
     7
100
AcDbSpline
210
0.0
220
0.0
230
1.0
 70
    11
 71
     3
 72
    32
 73
    28
 74
     0
 42
0.0000000001
 43
0.0000000001
 12
1.0
 22
0.0
 32
0.0
 13
1.0
 23
0.0
 33
0.0
 40
0.0
 40
0.0
 40
0.0
 40
0.0
 40
0.125
 40
0.125
 40
0.125
 40
0.125
 40
0.25
 40
0.25
 40
0.25
 40
0.25
 40
0.375
 40
0.375
 40
0.375
 40
0.375
 40
0.5
 40
0.5
 40
0.5
 40
0.5
 40
0.625
 40
0.625
 40
0.625
 40
0.625
 40
0.75
 40
0.75
 40
0.75
 40
0.75
 40
1.0
 40
1.0
 40
1.0
 40
1.0
 10
138.5218
 20
46.5836
 30
0.0
 10
137.9457
 20
47.385
 30
0.0
 10
136.278
 20
46.4962
 30
0.0
 10
135.2836
 20
45.9241
 30
0.0
 10
135.2836
 20
45.9241
 30
0.0
 10
136.2703
 20
48.8792
 30
0.0
 10
136.1859
 20
50.9314
 30
0.0
 10
135.1581
 20
52.7276
 30
0.0
 10
135.1581
 20
52.7276
 30
0.0
 10
138.0268
 20
50.5062
 30
0.0
 10
139.9055
 20
48.8668
 30
0.0
 10
142.0078
 20
46.4382
 30
0.0
 10
142.0078
 20
46.4382
 30
0.0
 10
139.2737
 20
43.3883
 30
0.0
 10
136.9959
 20
39.5793
 30
0.0
 10
135.5543
 20
35.4763
 30
0.0
 10
135.5543
 20
35.4763
 30
0.0
 10
135.8304
 20
38.1713
 30
0.0
 10
135.9284
 20
40.0996
 30
0.0
 10
135.3696
 20
42.411
 30
0.0
 10
135.3696
 20
42.411
 30
0.0
 10
136.6556
 20
43.0708
 30
0.0
 10
138.8629
 20
45.2407
 30
0.0
 10
138.5217
 20
46.5836
 30
0.0
 10
138.5217
 20
46.5836
 30
0.0
 10
138.5217
 20
46.5836
 30
0.0
 10
138.5218
 20
46.5836
 30
0.0
 10
138.5218
 20
46.5836
 30
0.0
  0
SPLINE
  5
6C
330
1F
100
AcDbEntity
  8
layer 1
 62
     7
100
AcDbSpline
210
0.0
220
0.0
230
1.0
 70
    11
 71
     3
 72
    44
 73
    40
 74
     0
 42
0.0000000001
 43
0.0000000001
 12
1.0
 22
0.0
 32
0.0
 13
1.0
 23
0.0
 33
0.0
 40
0.0
 40
0.0
 40
0.0
 40
0.0
 40
0.0909090909090909
 40
0.0909090909090909
 40
0.0909090909090909
 40
0.0909090909090909
 40
0.1818181818181818
 40
0.1818181818181818
 40
0.1818181818181818
 40
0.1818181818181818
 40
0.2727272727272727
 40
0.2727272727272727
 40
0.2727272727272727
 40
0.2727272727272727
 40
0.3636363636363636
 40
0.3636363636363636
 40
0.3636363636363636
 40
0.3636363636363636
 40
0.4545454545454545
 40
0.4545454545454545
 40
0.4545454545454545
 40
0.4545454545454545
 40
0.5454545454545454
 40
0.5454545454545454
 40
0.5454545454545454
 40
0.5454545454545454
 40
0.6363636363636364
 40
0.6363636363636364
 40
0.6363636363636364
 40
0.6363636363636364
 40
0.7272727272727273
 40
0.7272727272727273
 40
0.7272727272727273
 40
0.7272727272727273
 40
0.8181818181818182
 40
0.8181818181818182
 40
0.8181818181818182
 40
0.8181818181818182
 40
1.0
 40
1.0
 40
1.0
 40
1.0
 10
163.0001
 20
47.9375
 30
0.0
 10
165.0983
 20
49.7279
 30
0.0
 10
167.8837
 20
51.4795
 30
0.0
 10
169.4281
 20
53.9899
 30
0.0
 10
169.4281
 20
53.9899
 30
0.0
 10
174.0978
 20
47.2593
 30
0.0
 10
184.04
 20
49.0832
 30
0.0
 10
184.1122
 20
56.5513
 30
0.0
 10
184.1122
 20
56.5513
 30
0.0
 10
183.9955
 20
61.7584
 30
0.0
 10
178.4672
 20
62.2894
 30
0.0
 10
176.5205
 20
59.9058
 30
0.0
 10
176.5205
 20
59.9058
 30
0.0
 10
175.5852
 20
58.6476
 30
0.0
 10
176.1041
 20
57.8495
 30
0.0
 10
177.7684
 20
57.9861
 30
0.0
 10
177.7684
 20
57.9861
 30
0.0
 10
182.4532
 20
56.9196
 30
0.0
 10
177.6419
 20
51.972
 30
0.0
 10
174.6737
 20
54.3806
 30
0.0
 10
174.6737
 20
54.3806
 30
0.0
 10
171.9514
 20
56.6713
 30
0.0
 10
172.1253
 20
61.2781
 30
0.0
 10
175.0178
 20
63.4948
 30
0.0
 10
175.0178
 20
63.4948
 30
0.0
 10
180.0082
 20
66.9143
 30
0.0
 10
186.121
 20
64.7365
 30
0.0
 10
188.9664
 20
59.1527
 30
0.0
 10
188.9664
 20
59.1527
 30
0.0
 10
191.697
 20
52.6535
 30
0.0
 10
186.3342
 20
45.8453
 30
0.0
 10
180.0289
 20
45.7151
 30
0.0
 10
180.0289
 20
45.7151
 30
0.0
 10
173.5682
 20
45.9357
 30
0.0
 10
168.6553
 20
48.729
 30
0.0
 10
163.0003
 20
47.9374
 30
0.0
 10
163.0003
 20
47.9374
 30
0.0
 10
163.0003
 20
47.9374
 30
0.0
 10
163.0001
 20
47.9375
 30
0.0
 10
163.0001
 20
47.9375
 30
0.0
  0
SPLINE
  5
6D
330
1F
100
AcDbEntity
  8
layer 1
 62
     7
100
AcDbSpline
210
0.0
220
0.0
230
1.0
 70
    11
 71
     3
 72
    76
 73
    72
 74
     0
 42
0.0000000001
 43
0.0000000001
 12
1.0
 22
0.0
 32
0.0
 13
1.0
 23
0.0
 33
0.0
 40
0.0
 40
0.0
 40
0.0
 40
0.0
 40
0.0526315789473684
 40
0.0526315789473684
 40
0.0526315789473684
 40
0.0526315789473684
 40
0.1052631578947368
 40
0.1052631578947368
 40
0.1052631578947368
 40
0.1052631578947368
 40
0.1578947368421053
 40
0.1578947368421053
 40
0.1578947368421053
 40
0.1578947368421053
 40
0.2105263157894737
 40
0.2105263157894737
 40
0.2105263157894737
 40
0.2105263157894737
 40
0.2631578947368421
 40
0.2631578947368421
 40
0.2631578947368421
 40
0.2631578947368421
 40
0.3157894736842105
 40
0.3157894736842105
 40
0.3157894736842105
 40
0.3157894736842105
 40
0.3684210526315789
 40
0.3684210526315789
 40
0.3684210526315789
 40
0.3684210526315789
 40
0.4210526315789473
 40
0.4210526315789473
 40
0.4210526315789473
 40
0.4210526315789473
 40
0.4736842105263158
 40
0.4736842105263158
 40
0.4736842105263158
 40
0.4736842105263158
 40
0.5263157894736842
 40
0.5263157894736842
 40
0.5263157894736842
 40
0.5263157894736842
 40
0.5789473684210527
 40
0.5789473684210527
 40
0.5789473684210527
 40
0.5789473684210527
 40
0.631578947368421
 40
0.631578947368421
 40
0.631578947368421
 40
0.631578947368421
 40
0.6842105263157895
 40
0.6842105263157895
 40
0.6842105263157895
 40
0.6842105263157895
 40
0.7368421052631579
 40
0.7368421052631579
 40
0.7368421052631579
 40
0.7368421052631579
 40
0.7894736842105263
 40
0.7894736842105263
 40
0.7894736842105263
 40
0.7894736842105263
 40
0.8421052631578947
 40
0.8421052631578947
 40
0.8421052631578947
 40
0.8421052631578947
 40
0.8947368421052632
 40
0.8947368421052632
 40
0.8947368421052632
 40
0.8947368421052632
 40
1.0
 40
1.0
 40
1.0
 40
1.0
 10
145.5008
 20
46.9524
 30
0.0
 10
151.8303
 20
52.0869
 30
0.0
 10
152.4671
 20
60.0027
 30
0.0
 10
148.4503
 20
65.0235
 30
0.0
 10
148.4503
 20
65.0235
 30
0.0
 10
150.0372
 20
64.7768
 30
0.0
 10
151.5108
 20
65.2917
 30
0.0
 10
152.6083
 20
66.1336
 30
0.0
 10
152.6083
 20
66.1336
 30
0.0
 10
152.6187
 20
62.6211
 30
0.0
 10
155.9496
 20
59.0039
 30
0.0
 10
159.7164
 20
58.9747
 30
0.0
 10
159.7164
 20
58.9747
 30
0.0
 10
163.8743
 20
58.9425
 30
0.0
 10
165.9056
 20
63.0785
 30
0.0
 10
163.9995
 20
65.5925
 30
0.0
 10
163.9995
 20
65.5925
 30
0.0
 10
163.457
 20
66.3079
 30
0.0
 10
162.6305
 20
66.4947
 30
0.0
 10
161.9232
 20
66.4947
 30
0.0
 10
161.9232
 20
66.4947
 30
0.0
 10
160.1827
 20
66.4947
 30
0.0
 10
159.4408
 20
65.3038
 30
0.0
 10
160.8078
 20
64.7041
 30
0.0
 10
160.8078
 20
64.7041
 30
0.0
 10
162.5026
 20
63.9605
 30
0.0
 10
161.3869
 20
61.6227
 30
0.0
 10
159.3372
 20
61.6227
 30
0.0
 10
159.3372
 20
61.6227
 30
0.0
 10
156.5221
 20
61.6227
 30
0.0
 10
155.2658
 20
65.1577
 30
0.0
 10
157.2049
 20
67.6228
 30
0.0
 10
157.2049
 20
67.6228
 30
0.0
 10
158.7238
 20
69.5537
 30
0.0
 10
161.1331
 20
70.5999
 30
0.0
 10
164.0971
 20
68.7931
 30
0.0
 10
164.0971
 20
68.7931
 30
0.0
 10
167.8043
 20
65.8503
 30
0.0
 10
168.1684
 20
61.9643
 30
0.0
 10
166.7596
 20
57.7938
 30
0.0
 10
166.7596
 20
57.7938
 30
0.0
 10
165.4961
 20
54.8549
 30
0.0
 10
163.6897
 20
52.6821
 30
0.0
 10
161.2909
 20
50.7823
 30
0.0
 10
161.2909
 20
50.7823
 30
0.0
 10
161.7064
 20
52.9051
 30
0.0
 10
160.8782
 20
55.3093
 30
0.0
 10
159.2563
 20
56.2883
 30
0.0
 10
159.2563
 20
56.2883
 30
0.0
 10
158.327
 20
56.8212
 30
0.0
 10
157.496
 20
56.8549
 30
0.0
 10
156.8633
 20
56.4542
 30
0.0
 10
156.8633
 20
56.4542
 30
0.0
 10
155.9691
 20
55.3908
 30
0.0
 10
157.789
 20
53.924
 30
0.0
 10
157.8034
 20
52.3876
 30
0.0
 10
157.8034
 20
52.3876
 30
0.0
 10
158.1494
 20
50.3023
 30
0.0
 10
157.7135
 20
50.1148
 30
0.0
 10
156.0867
 20
49.6015
 30
0.0
 10
156.0867
 20
49.6015
 30
0.0
 10
152.3989
 20
48.4145
 30
0.0
 10
150.4905
 20
47.2264
 30
0.0
 10
147.1599
 20
44.1364
 30
0.0
 10
147.1599
 20
44.1364
 30
0.0
 10
146.612
 20
45.5471
 30
0.0
 10
146.1978
 20
46.1358
 30
0.0
 10
145.5008
 20
46.9527
 30
0.0
 10
145.5008
 20
46.9527
 30
0.0
 10
145.5008
 20
46.9527
 30
0.0
 10
145.5008
 20
46.9524
 30
0.0
 10
145.5008
 20
46.9524
 30
0.0
  0
SPLINE
  5
6E
330
1F
100
AcDbEntity
  8
layer 1
 62
     7
100
AcDbSpline
210
0.0
220
0.0
230
1.0
 70
    11
 71
     3
 72
    56
 73
    52
 74
     0
 42
0.0000000001
 43
0.0000000001
 12
1.0
 22
0.0
 32
0.0
 13
1.0
 23
0.0
 33
0.0
 40
0.0
 40
0.0
 40
0.0
 40
0.0
 40
0.0714285714285714
 40
0.0714285714285714
 40
0.0714285714285714
 40
0.0714285714285714
 40
0.1428571428571428
 40
0.1428571428571428
 40
0.1428571428571428
 40
0.1428571428571428
 40
0.2142857142857143
 40
0.2142857142857143
 40
0.2142857142857143
 40
0.2142857142857143
 40
0.2857142857142857
 40
0.2857142857142857
 40
0.2857142857142857
 40
0.2857142857142857
 40
0.3571428571428572
 40
0.3571428571428572
 40
0.3571428571428572
 40
0.3571428571428572
 40
0.4285714285714285
 40
0.4285714285714285
 40
0.4285714285714285
 40
0.4285714285714285
 40
0.5
 40
0.5
 40
0.5
 40
0.5
 40
0.5714285714285714
 40
0.5714285714285714
 40
0.5714285714285714
 40
0.5714285714285714
 40
0.6428571428571429
 40
0.6428571428571429
 40
0.6428571428571429
 40
0.6428571428571429
 40
0.7142857142857143
 40
0.7142857142857143
 40
0.7142857142857143
 40
0.7142857142857143
 40
0.7857142857142857
 40
0.7857142857142857
 40
0.7857142857142857
 40
0.7857142857142857
 40
0.8571428571428571
 40
0.8571428571428571
 40
0.8571428571428571
 40
0.8571428571428571
 40
1.0
 40
1.0
 40
1.0
 40
1.0
 10
137.3291
 20
54.6465
 30
0.0
 10
137.3291
 20
54.6465
 30
0.0
 10
135.3072
 20
55.8747
 30
0.0
 10
135.3072
 20
55.8747
 30
0.0
 10
135.3072
 20
55.8747
 30
0.0
 10
135.3072
 20
55.8747
 30
0.0
 10
136.6134
 20
56.9597
 30
0.0
 10
136.6134
 20
56.9597
 30
0.0
 10
136.6134
 20
56.9597
 30
0.0
 10
138.143
 20
58.2303
 30
0.0
 10
139.7447
 20
60.6109
 30
0.0
 10
140.4371
 20
62.6427
 30
0.0
 10
140.4371
 20
62.6427
 30
0.0
 10
140.7612
 20
63.5937
 30
0.0
 10
141.1179
 20
64.0843
 30
0.0
 10
141.489
 20
64.0892
 30
0.0
 10
141.489
 20
64.0892
 30
0.0
 10
141.7979
 20
64.0932
 30
0.0
 10
142.6551
 20
64.1967
 30
0.0
 10
143.394
 20
64.3191
 30
0.0
 10
143.394
 20
64.3191
 30
0.0
 10
144.6648
 20
64.5295
 30
0.0
 10
144.7864
 20
64.4774
 30
0.0
 10
145.6424
 20
63.355
 30
0.0
 10
145.6424
 20
63.355
 30
0.0
 10
146.7912
 20
61.8488
 30
0.0
 10
147.3773
 20
60.2113
 30
0.0
 10
147.3955
 20
58.457
 30
0.0
 10
147.3955
 20
58.457
 30
0.0
 10
147.4102
 20
57.0286
 30
0.0
 10
146.4199
 20
53.7541
 30
0.0
 10
145.4493
 20
52.0223
 30
0.0
 10
145.4493
 20
52.0223
 30
0.0
 10
145.1433
 20
51.4762
 30
0.0
 10
144.6476
 20
50.5552
 30
0.0
 10
144.3479
 20
49.9757
 30
0.0
 10
144.3479
 20
49.9757
 30
0.0
 10
144.3479
 20
49.9757
 30
0.0
 10
143.803
 20
48.9219
 30
0.0
 10
143.803
 20
48.9219
 30
0.0
 10
143.803
 20
48.9219
 30
0.0
 10
143.803
 20
48.9219
 30
0.0
 10
141.577
 20
51.1701
 30
0.0
 10
141.577
 20
51.1701
 30
0.0
 10
141.577
 20
51.1701
 30
0.0
 10
140.3527
 20
52.4066
 30
0.0
 10
138.4411
 20
53.971
 30
0.0
 10
137.3292
 20
54.6465
 30
0.0
 10
137.3292
 20
54.6465
 30
0.0
 10
137.3292
 20
54.6465
 30
0.0
 10
137.3291
 20
54.6465
 30
0.0
 10
137.3291
 20
54.6465
 30
0.0
  0
SPLINE
  5
6F
330
1F
100
AcDbEntity
  8
layer 1
 62
     7
100
AcDbSpline
210
0.0
220
0.0
230
1.0
 70
    11
 71
     3
 72
    20
 73
    16
 74
     0
 42
0.0000000001
 43
0.0000000001
 12
1.0
 22
0.0
 32
0.0
 13
1.0
 23
0.0
 33
0.0
 40
0.0
 40
0.0
 40
0.0
 40
0.0
 40
0.2
 40
0.2
 40
0.2
 40
0.2
 40
0.4
 40
0.4
 40
0.4
 40
0.4
 40
0.6
 40
0.6
 40
0.6
 40
0.6
 40
1.0
 40
1.0
 40
1.0
 40
1.0
 10
137.9874
 20
63.8084
 30
0.0
 10
135.6468
 20
64.4107
 30
0.0
 10
133.3574
 20
65.6286
 30
0.0
 10
132.2947
 20
67.7387
 30
0.0
 10
132.2947
 20
67.7387
 30
0.0
 10
131.2321
 20
65.6285
 30
0.0
 10
128.9426
 20
64.4107
 30
0.0
 10
126.602
 20
63.8084
 30
0.0
 10
126.602
 20
63.8084
 30
0.0
 10
127.2147
 20
61.4366
 30
0.0
 10
129.9854
 20
57.7358
 30
0.0
 10
132.2947
 20
56.7506
 30
0.0
 10
132.2947
 20
56.7506
 30
0.0
 10
134.604
 20
57.7358
 30
0.0
 10
137.3747
 20
61.4366
 30
0.0
 10
137.9874
 20
63.8084
 30
0.0
  0
SPLINE
  5
70
330
1F
100
AcDbEntity
  8
layer 1
 62
     7
100
AcDbSpline
210
0.0
220
0.0
230
1.0
 70
    11
 71
     3
 72
    16
 73
    12
 74
     0
 42
0.0000000001
 43
0.0000000001
 12
1.0
 22
0.0
 32
0.0
 13
1.0
 23
0.0
 33
0.0
 40
0.0
 40
0.0
 40
0.0
 40
0.0
 40
0.25
 40
0.25
 40
0.25
 40
0.25
 40
0.5
 40
0.5
 40
0.5
 40
0.5
 40
1.0
 40
1.0
 40
1.0
 40
1.0
 10
185.7361
 20
67.6076
 30
0.0
 10
188.4205
 20
68.5014
 30
0.0
 10
191.3276
 20
71.3828
 30
0.0
 10
192.1897
 20
75.3133
 30
0.0
 10
192.1897
 20
75.3133
 30
0.0
 10
192.1897
 20
75.3133
 30
0.0
 10
192.1897
 20
62.8098
 30
0.0
 10
192.1897
 20
62.8098
 30
0.0
 10
192.1897
 20
62.8098
 30
0.0
 10
190.3562
 20
65.0182
 30
0.0
 10
188.2522
 20
66.5317
 30
0.0
 10
185.7361
 20
67.6076
 30
0.0
  0
SPLINE
  5
71
330
1F
100
AcDbEntity
  8
layer 1
 62
     7
100
AcDbSpline
210
0.0
220
0.0
230
1.0
 70
    11
 71
     3
 72
    28
 73
    24
 74
     0
 42
0.0000000001
 43
0.0000000001
 12
1.0
 22
0.0
 32
0.0
 13
1.0
 23
0.0
 33
0.0
 40
0.0
 40
0.0
 40
0.0
 40
0.0
 40
0.1428571428571428
 40
0.1428571428571428
 40
0.1428571428571428
 40
0.1428571428571428
 40
0.2857142857142857
 40
0.2857142857142857
 40
0.2857142857142857
 40
0.2857142857142857
 40
0.4285714285714285
 40
0.4285714285714285
 40
0.4285714285714285
 40
0.4285714285714285
 40
0.5714285714285714
 40
0.5714285714285714
 40
0.5714285714285714
 40
0.5714285714285714
 40
0.7142857142857143
 40
0.7142857142857143
 40
0.7142857142857143
 40
0.7142857142857143
 40
1.0
 40
1.0
 40
1.0
 40
1.0
 10
157.745
 20
72.2739
 30
0.0
 10
158.7403
 20
75.8501
 30
0.0
 10
157.8113
 20
78.0579
 30
0.0
 10
155.5679
 20
81.4529
 30
0.0
 10
155.5679
 20
81.4529
 30
0.0
 10
159.6185
 20
80.3341
 30
0.0
 10
163.4788
 20
79.9351
 30
0.0
 10
167.7201
 20
81.1734
 30
0.0
 10
167.7201
 20
81.1734
 30
0.0
 10
164.9624
 20
72.5208
 30
0.0
 10
171.7827
 20
68.1033
 30
0.0
 10
174.4332
 20
67.928
 30
0.0
 10
174.4332
 20
67.928
 30
0.0
 10
172.732
 20
67.4643
 30
0.0
 10
171.2009
 20
66.0222
 30
0.0
 10
170.2159
 20
64.5225
 30
0.0
 10
170.2159
 20
64.5225
 30
0.0
 10
169.5479
 20
70.8079
 30
0.0
 10
162.488
 20
74.1261
 30
0.0
 10
157.745
 20
72.274
 30
0.0
 10
157.745
 20
72.274
 30
0.0
 10
157.745
 20
72.274
 30
0.0
 10
157.745
 20
72.2739
 30
0.0
 10
157.745
 20
72.2739
 30
0.0
  0
SPLINE
  5
72
330
1F
100
AcDbEntity
  8
layer 1
 62
     7
100
AcDbSpline
210
0.0
220
0.0
230
1.0
 70
    11
 71
     3
 72
    20
 73
    16
 74
     0
 42
0.0000000001
 43
0.0000000001
 12
1.0
 22
0.0
 32
0.0
 13
1.0
 23
0.0
 33
0.0
 40
0.0
 40
0.0
 40
0.0
 40
0.0
 40
0.2
 40
0.2
 40
0.2
 40
0.2
 40
0.4
 40
0.4
 40
0.4
 40
0.4
 40
0.6
 40
0.6
 40
0.6
 40
0.6
 40
1.0
 40
1.0
 40
1.0
 40
1.0
 10
141.5957
 20
67.7127
 30
0.0
 10
141.6135
 20
68.0253
 30
0.0
 10
141.7277
 20
68.6378
 30
0.0
 10
141.8494
 20
69.0738
 30
0.0
 10
141.8494
 20
69.0738
 30
0.0
 10
142.0706
 20
69.8661
 30
0.0
 10
142.0711
 20
69.866
 30
0.0
 10
142.7693
 20
68.7634
 30
0.0
 10
142.7693
 20
68.7634
 30
0.0
 10
143.5687
 20
67.5008
 30
0.0
 10
143.4777
 20
67.1443
 30
0.0
 10
142.3562
 20
67.1443
 30
0.0
 10
142.3562
 20
67.1443
 30
0.0
 10
141.8054
 20
67.1443
 30
0.0
 10
141.5732
 20
67.3178
 30
0.0
 10
141.5957
 20
67.7127
 30
0.0
  0
SPLINE
  5
73
330
1F
100
AcDbEntity
  8
layer 1
 62
     7
100
AcDbSpline
210
0.0
220
0.0
230
1.0
 70
    11
 71
     3
 72
    36
 73
    32
 74
     0
 42
0.0000000001
 43
0.0000000001
 12
1.0
 22
0.0
 32
0.0
 13
1.0
 23
0.0
 33
0.0
 40
0.0
 40
0.0
 40
0.0
 40
0.0
 40
0.1111111111111111
 40
0.1111111111111111
 40
0.1111111111111111
 40
0.1111111111111111
 40
0.2222222222222222
 40
0.2222222222222222
 40
0.2222222222222222
 40
0.2222222222222222
 40
0.3333333333333333
 40
0.3333333333333333
 40
0.3333333333333333
 40
0.3333333333333333
 40
0.4444444444444444
 40
0.4444444444444444
 40
0.4444444444444444
 40
0.4444444444444444
 40
0.5555555555555556
 40
0.5555555555555556
 40
0.5555555555555556
 40
0.5555555555555556
 40
0.6666666666666666
 40
0.6666666666666666
 40
0.6666666666666666
 40
0.6666666666666666
 40
0.7777777777777778
 40
0.7777777777777778
 40
0.7777777777777778
 40
0.7777777777777778
 40
1.0
 40
1.0
 40
1.0
 40
1.0
 10
145.1361
 20
74.9395
 30
0.0
 10
147.1028
 20
76.6965
 30
0.0
 10
149.7389
 20
74.2808
 30
0.0
 10
148.3409
 20
72.7527
 30
0.0
 10
148.3409
 20
72.7527
 30
0.0
 10
147.7452
 20
71.8743
 30
0.0
 10
148.6796
 20
71.1685
 30
0.0
 10
149.4022
 20
71.423
 30
0.0
 10
149.4022
 20
71.423
 30
0.0
 10
150.3463
 20
71.7743
 30
0.0
 10
151.4673
 20
73.0429
 30
0.0
 10
151.6321
 20
74.3835
 30
0.0
 10
151.6321
 20
74.3835
 30
0.0
 10
152.0262
 20
80.0586
 30
0.0
 10
144.1057
 20
80.0695
 30
0.0
 10
142.0953
 20
76.2796
 30
0.0
 10
142.0953
 20
76.2796
 30
0.0
 10
141.72
 20
78.9418
 30
0.0
 10
139.1357
 20
82.5351
 30
0.0
 10
136.7063
 20
84.1624
 30
0.0
 10
136.7063
 20
84.1624
 30
0.0
 10
144.3766
 20
85.6204
 30
0.0
 10
152.3046
 20
82.6085
 30
0.0
 10
153.9
 20
75.7794
 30
0.0
 10
153.9
 20
75.7794
 30
0.0
 10
154.4973
 20
72.9021
 30
0.0
 10
153.7602
 20
70.7111
 30
0.0
 10
151.7486
 20
69.3848
 30
0.0
 10
151.7486
 20
69.3848
 30
0.0
 10
145.4739
 20
66.7748
 30
0.0
 10
142.8016
 20
72.3294
 30
0.0
 10
145.1361
 20
74.9395
 30
0.0
  0
SPLINE
  5
74
330
1F
100
AcDbEntity
  8
layer 1
 62
     7
100
AcDbSpline
210
0.0
220
0.0
230
1.0
 70
    11
 71
     3
 72
    48
 73
    44
 74
     0
 42
0.0000000001
 43
0.0000000001
 12
1.0
 22
0.0
 32
0.0
 13
1.0
 23
0.0
 33
0.0
 40
0.0
 40
0.0
 40
0.0
 40
0.0
 40
0.0833333333333333
 40
0.0833333333333333
 40
0.0833333333333333
 40
0.0833333333333333
 40
0.1666666666666667
 40
0.1666666666666667
 40
0.1666666666666667
 40
0.1666666666666667
 40
0.25
 40
0.25
 40
0.25
 40
0.25
 40
0.3333333333333333
 40
0.3333333333333333
 40
0.3333333333333333
 40
0.3333333333333333
 40
0.4166666666666667
 40
0.4166666666666667
 40
0.4166666666666667
 40
0.4166666666666667
 40
0.5
 40
0.5
 40
0.5
 40
0.5
 40
0.5833333333333334
 40
0.5833333333333334
 40
0.5833333333333334
 40
0.5833333333333334
 40
0.6666666666666666
 40
0.6666666666666666
 40
0.6666666666666666
 40
0.6666666666666666
 40
0.75
 40
0.75
 40
0.75
 40
0.75
 40
0.8333333333333334
 40
0.8333333333333334
 40
0.8333333333333334
 40
0.8333333333333334
 40
1.0
 40
1.0
 40
1.0
 40
1.0
 10
171.1423
 20
74.7314
 30
0.0
 10
169.2157
 20
79.4358
 30
0.0
 10
173.4483
 20
82.9981
 30
0.0
 10
178.1778
 20
80.9879
 30
0.0
 10
178.1778
 20
80.9879
 30
0.0
 10
179.8407
 20
80.2381
 30
0.0
 10
180.5007
 20
78.8348
 30
0.0
 10
179.738
 20
77.6708
 30
0.0
 10
179.738
 20
77.6708
 30
0.0
 10
178.9957
 20
76.5378
 30
0.0
 10
178.0205
 20
76.3826
 30
0.0
 10
176.8911
 20
77.2174
 30
0.0
 10
176.8911
 20
77.2174
 30
0.0
 10
176.0995
 20
77.8026
 30
0.0
 10
175.8104
 20
77.4924
 30
0.0
 10
175.5821
 20
77.1321
 30
0.0
 10
175.5821
 20
77.1321
 30
0.0
 10
175.1791
 20
76.496
 30
0.0
 10
175.4
 20
75.4597
 30
0.0
 10
175.8625
 20
74.8727
 30
0.0
 10
175.8625
 20
74.8727
 30
0.0
 10
177.7414
 20
72.4883
 30
0.0
 10
181.5883
 20
72.9069
 30
0.0
 10
182.9784
 20
75.5948
 30
0.0
 10
182.9784
 20
75.5948
 30
0.0
 10
185.4128
 20
79.8629
 30
0.0
 10
182.9539
 20
83.4844
 30
0.0
 10
178.7077
 20
84.6834
 30
0.0
 10
178.7077
 20
84.6834
 30
0.0
 10
180.146
 20
85.0554
 30
0.0
 10
181.547
 20
86.0204
 30
0.0
 10
182.6054
 20
86.5911
 30
0.0
 10
182.6054
 20
86.5911
 30
0.0
 10
186.6023
 20
85.1233
 30
0.0
 10
187.9393
 20
81.4491
 30
0.0
 10
188.0306
 20
78.2847
 30
0.0
 10
188.0306
 20
78.2847
 30
0.0
 10
188.0098
 20
74.9033
 30
0.0
 10
185.1113
 20
71.2559
 30
0.0
 10
180.808
 20
70.0962
 30
0.0
 10
180.808
 20
70.0962
 30
0.0
 10
177.0032
 20
69.1032
 30
0.0
 10
172.8406
 20
71.3572
 30
0.0
 10
171.1423
 20
74.7314
 30
0.0
  0
SPLINE
  5
75
330
1F
100
AcDbEntity
  8
layer 1
 62
     7
100
AcDbSpline
210
0.0
220
0.0
230
1.0
 70
    11
 71
     3
 72
    16
 73
    12
 74
     0
 42
0.0000000001
 43
0.0000000001
 12
1.0
 22
0.0
 32
0.0
 13
1.0
 23
0.0
 33
0.0
 40
0.0
 40
0.0
 40
0.0
 40
0.0
 40
0.25
 40
0.25
 40
0.25
 40
0.25
 40
0.5
 40
0.5
 40
0.5
 40
0.5
 40
1.0
 40
1.0
 40
1.0
 40
1.0
 10
185.9761
 20
89.0508
 30
0.0
 10
188.859
 20
90.7207
 30
0.0
 10
190.5849
 20
93.2356
 30
0.0
 10
192.1897
 20
96.1215
 30
0.0
 10
192.1897
 20
96.1215
 30
0.0
 10
192.1897
 20
96.1215
 30
0.0
 10
192.1897
 20
82.2733
 30
0.0
 10
192.1897
 20
82.2733
 30
0.0
 10
192.1897
 20
82.2733
 30
0.0
 10
190.3818
 20
85.8293
 30
0.0
 10
188.4952
 20
88.1305
 30
0.0
 10
185.9761
 20
89.0508
 30
0.0
  0
SPLINE
  5
76
330
1F
100
AcDbEntity
  8
layer 1
 62
     7
100
AcDbSpline
210
0.0
220
0.0
230
1.0
 70
    11
 71
     3
 72
    36
 73
    32
 74
     0
 42
0.0000000001
 43
0.0000000001
 12
1.0
 22
0.0
 32
0.0
 13
1.0
 23
0.0
 33
0.0
 40
0.0
 40
0.0
 40
0.0
 40
0.0
 40
0.1111111111111111
 40
0.1111111111111111
 40
0.1111111111111111
 40
0.1111111111111111
 40
0.2222222222222222
 40
0.2222222222222222
 40
0.2222222222222222
 40
0.2222222222222222
 40
0.3333333333333333
 40
0.3333333333333333
 40
0.3333333333333333
 40
0.3333333333333333
 40
0.4444444444444444
 40
0.4444444444444444
 40
0.4444444444444444
 40
0.4444444444444444
 40
0.5555555555555556
 40
0.5555555555555556
 40
0.5555555555555556
 40
0.5555555555555556
 40
0.6666666666666666
 40
0.6666666666666666
 40
0.6666666666666666
 40
0.6666666666666666
 40
0.7777777777777778
 40
0.7777777777777778
 40
0.7777777777777778
 40
0.7777777777777778
 40
1.0
 40
1.0
 40
1.0
 40
1.0
 10
156.791
 20
85.2411
 30
0.0
 10
161.4972
 20
86.0869
 30
0.0
 10
164.4649
 20
87.1905
 30
0.0
 10
166.8977
 20
90.2051
 30
0.0
 10
166.8977
 20
90.2051
 30
0.0
 10
167.623
 20
88.941
 30
0.0
 10
169.0492
 20
88.8757
 30
0.0
 10
169.9678
 20
89.2249
 30
0.0
 10
169.9678
 20
89.2249
 30
0.0
 10
171.1381
 20
89.6698
 30
0.0
 10
171.0487
 20
90.53
 30
0.0
 10
169.8324
 20
90.53
 30
0.0
 10
169.8324
 20
90.53
 30
0.0
 10
169.2075
 20
90.53
 30
0.0
 10
168.7496
 20
90.7541
 30
0.0
 10
168.5277
 20
91.1684
 30
0.0
 10
168.5277
 20
91.1684
 30
0.0
 10
167.7466
 20
94.1116
 30
0.0
 10
171.8609
 20
93.9581
 30
0.0
 10
173.094
 20
91.8542
 30
0.0
 10
173.094
 20
91.8542
 30
0.0
 10
174.2817
 20
89.8376
 30
0.0
 10
173.3696
 20
87.4143
 30
0.0
 10
171.3829
 20
86.6007
 30
0.0
 10
171.3829
 20
86.6007
 30
0.0
 10
168.6992
 20
85.2663
 30
0.0
 10
163.0368
 20
84.6284
 30
0.0
 10
156.7911
 20
85.2412
 30
0.0
 10
156.7911
 20
85.2412
 30
0.0
 10
156.7911
 20
85.2412
 30
0.0
 10
156.791
 20
85.2411
 30
0.0
 10
156.791
 20
85.2411
 30
0.0
  0
SPLINE
  5
77
330
1F
100
AcDbEntity
  8
layer 1
 62
     7
100
AcDbSpline
210
0.0
220
0.0
230
1.0
 70
    11
 71
     3
 72
    20
 73
    16
 74
     0
 42
0.0000000001
 43
0.0000000001
 12
1.0
 22
0.0
 32
0.0
 13
1.0
 23
0.0
 33
0.0
 40
0.0
 40
0.0
 40
0.0
 40
0.0
 40
0.2
 40
0.2
 40
0.2
 40
0.2
 40
0.4
 40
0.4
 40
0.4
 40
0.4
 40
0.6
 40
0.6
 40
0.6
 40
0.6
 40
1.0
 40
1.0
 40
1.0
 40
1.0
 10
134.4853
 20
95.7784
 30
0.0
 10
136.1179
 20
91.4662
 30
0.0
 10
139.0877
 20
88.2714
 30
0.0
 10
143.1357
 20
86.5087
 30
0.0
 10
143.1357
 20
86.5087
 30
0.0
 10
143.1357
 20
86.5087
 30
0.0
 10
137.4378
 20
87.4229
 30
0.0
 10
134.5171
 20
86.4698
 30
0.0
 10
134.5171
 20
86.4698
 30
0.0
 10
134.5171
 20
86.4698
 30
0.0
 10
134.4855
 20
95.7783
 30
0.0
 10
134.4855
 20
95.7783
 30
0.0
 10
134.4855
 20
95.7783
 30
0.0
 10
134.4855
 20
95.7783
 30
0.0
 10
134.4853
 20
95.7784
 30
0.0
 10
134.4853
 20
95.7784
 30
0.0
  0
SPLINE
  5
78
330
1F
100
AcDbEntity
  8
layer 1
 62
     7
100
AcDbSpline
210
0.0
220
0.0
230
1.0
 70
    11
 71
     3
 72
    60
 73
    56
 74
     0
 42
0.0000000001
 43
0.0000000001
 12
1.0
 22
0.0
 32
0.0
 13
1.0
 23
0.0
 33
0.0
 40
0.0
 40
0.0
 40
0.0
 40
0.0
 40
0.0666666666666667
 40
0.0666666666666667
 40
0.0666666666666667
 40
0.0666666666666667
 40
0.1333333333333333
 40
0.1333333333333333
 40
0.1333333333333333
 40
0.1333333333333333
 40
0.2
 40
0.2
 40
0.2
 40
0.2
 40
0.2666666666666667
 40
0.2666666666666667
 40
0.2666666666666667
 40
0.2666666666666667
 40
0.3333333333333333
 40
0.3333333333333333
 40
0.3333333333333333
 40
0.3333333333333333
 40
0.4
 40
0.4
 40
0.4
 40
0.4
 40
0.4666666666666667
 40
0.4666666666666667
 40
0.4666666666666667
 40
0.4666666666666667
 40
0.5333333333333333
 40
0.5333333333333333
 40
0.5333333333333333
 40
0.5333333333333333
 40
0.6
 40
0.6
 40
0.6
 40
0.6
 40
0.6666666666666666
 40
0.6666666666666666
 40
0.6666666666666666
 40
0.6666666666666666
 40
0.7333333333333333
 40
0.7333333333333333
 40
0.7333333333333333
 40
0.7333333333333333
 40
0.8
 40
0.8
 40
0.8
 40
0.8
 40
0.8666666666666667
 40
0.8666666666666667
 40
0.8666666666666667
 40
0.8666666666666667
 40
1.0
 40
1.0
 40
1.0
 40
1.0
 10
169.6458
 20
96.5863
 30
0.0
 10
169.6458
 20
96.5863
 30
0.0
 10
169.6441
 20
99.2995
 30
0.0
 10
169.6441
 20
99.2995
 30
0.0
 10
169.6441
 20
99.2995
 30
0.0
 10
171.8155
 20
97.5529
 30
0.0
 10
174.7414
 20
96.9649
 30
0.0
 10
177.0234
 20
97.107
 30
0.0
 10
177.0234
 20
97.107
 30
0.0
 10
185.9917
 20
98.0961
 30
0.0
 10
188.1462
 20
107.5529
 30
0.0
 10
182.2625
 20
112.1993
 30
0.0
 10
182.2625
 20
112.1993
 30
0.0
 10
180.0023
 20
113.9802
 30
0.0
 10
176.9573
 20
113.6598
 30
0.0
 10
175.3638
 20
112.1496
 30
0.0
 10
175.3638
 20
112.1496
 30
0.0
 10
174.0639
 20
110.9042
 30
0.0
 10
173.9775
 20
109.0799
 30
0.0
 10
175.162
 20
107.8952
 30
0.0
 10
175.162
 20
107.8952
 30
0.0
 10
176.0793
 20
106.978
 30
0.0
 10
176.9665
 20
107.1334
 30
0.0
 10
176.9665
 20
108.2114
 30
0.0
 10
176.9665
 20
108.2114
 30
0.0
 10
176.9665
 20
109.189
 30
0.0
 10
178.265
 20
109.8901
 30
0.0
 10
179.1743
 20
109.4035
 30
0.0
 10
179.1743
 20
109.4035
 30
0.0
 10
181.12
 20
108.3622
 30
0.0
 10
181.7431
 20
105.8964
 30
0.0
 10
180.5536
 20
103.9455
 30
0.0
 10
180.5536
 20
103.9455
 30
0.0
 10
178.3372
 20
100.8221
 30
0.0
 10
174.4499
 20
100.5733
 30
0.0
 10
171.488
 20
103.0731
 30
0.0
 10
171.488
 20
103.0731
 30
0.0
 10
166.9546
 20
107.2649
 30
0.0
 10
168.6137
 20
113.4566
 30
0.0
 10
173.0789
 20
115.6941
 30
0.0
 10
173.0789
 20
115.6941
 30
0.0
 10
178.5588
 20
118.3439
 30
0.0
 10
181.999
 20
116.9993
 30
0.0
 10
186.0596
 20
113.3773
 30
0.0
 10
186.0596
 20
113.3773
 30
0.0
 10
190.3273
 20
109.4261
 30
0.0
 10
191.2534
 20
103.5233
 30
0.0
 10
188.4355
 20
98.234
 30
0.0
 10
188.4355
 20
98.234
 30
0.0
 10
185.6977
 20
93.2008
 30
0.0
 10
181.8873
 20
90.1527
 30
0.0
 10
177.2175
 20
88.2562
 30
0.0
 10
177.2175
 20
88.2562
 30
0.0
 10
178.4841
 20
94.6081
 30
0.0
 10
173.6237
 20
97.264
 30
0.0
 10
169.6458
 20
96.5863
 30
0.0
  0
SPLINE
  5
79
330
1F
100
AcDbEntity
  8
layer 1
 62
     7
100
AcDbSpline
210
0.0
220
0.0
230
1.0
 70
    11
 71
     3
 72
    44
 73
    40
 74
     0
 42
0.0000000001
 43
0.0000000001
 12
1.0
 22
0.0
 32
0.0
 13
1.0
 23
0.0
 33
0.0
 40
0.0
 40
0.0
 40
0.0
 40
0.0
 40
0.0909090909090909
 40
0.0909090909090909
 40
0.0909090909090909
 40
0.0909090909090909
 40
0.1818181818181818
 40
0.1818181818181818
 40
0.1818181818181818
 40
0.1818181818181818
 40
0.2727272727272727
 40
0.2727272727272727
 40
0.2727272727272727
 40
0.2727272727272727
 40
0.3636363636363636
 40
0.3636363636363636
 40
0.3636363636363636
 40
0.3636363636363636
 40
0.4545454545454545
 40
0.4545454545454545
 40
0.4545454545454545
 40
0.4545454545454545
 40
0.5454545454545454
 40
0.5454545454545454
 40
0.5454545454545454
 40
0.5454545454545454
 40
0.6363636363636364
 40
0.6363636363636364
 40
0.6363636363636364
 40
0.6363636363636364
 40
0.7272727272727273
 40
0.7272727272727273
 40
0.7272727272727273
 40
0.7272727272727273
 40
0.8181818181818182
 40
0.8181818181818182
 40
0.8181818181818182
 40
0.8181818181818182
 40
1.0
 40
1.0
 40
1.0
 40
1.0
 10
147.6348
 20
88.7409
 30
0.0
 10
141.4208
 20
91.1159
 30
0.0
 10
139.1126
 20
93.6846
 30
0.0
 10
136.3663
 20
98.3733
 30
0.0
 10
136.3663
 20
98.3733
 30
0.0
 10
137.029
 20
99.2511
 30
0.0
 10
137.2574
 20
100.779
 30
0.0
 10
137.289
 20
101.9217
 30
0.0
 10
137.289
 20
101.9217
 30
0.0
 10
139.5269
 20
99.3991
 30
0.0
 10
144.8615
 20
97.9595
 30
0.0
 10
149.7665
 20
100.0978
 30
0.0
 10
149.7665
 20
100.0978
 30
0.0
 10
149.0059
 20
95.4932
 30
0.0
 10
152.2588
 20
91.8742
 30
0.0
 10
156.4399
 20
91.8291
 30
0.0
 10
156.4399
 20
91.8291
 30
0.0
 10
158.9583
 20
92.101
 30
0.0
 10
162.0643
 20
94.3217
 30
0.0
 10
160.9898
 20
96.6065
 30
0.0
 10
160.9898
 20
96.6065
 30
0.0
 10
160.4203
 20
97.7949
 30
0.0
 10
159.6373
 20
97.9077
 30
0.0
 10
159.1644
 20
96.8697
 30
0.0
 10
159.1644
 20
96.8697
 30
0.0
 10
157.8347
 20
95.0209
 30
0.0
 10
156.0473
 20
95.3096
 30
0.0
 10
154.8356
 20
96.8147
 30
0.0
 10
154.8356
 20
96.8147
 30
0.0
 10
153.2906
 20
99.0648
 30
0.0
 10
154.825
 20
102.0227
 30
0.0
 10
157.2689
 20
103.0658
 30
0.0
 10
157.2689
 20
103.0658
 30
0.0
 10
163.0092
 20
105.5524
 30
0.0
 10
167.7679
 20
99.8912
 30
0.0
 10
165.447
 20
94.7735
 30
0.0
 10
165.447
 20
94.7735
 30
0.0
 10
162.2318
 20
88.5399
 30
0.0
 10
154.0799
 20
87.1711
 30
0.0
 10
147.6348
 20
88.7409
 30
0.0
  0
SPLINE
  5
7A
330
1F
100
AcDbEntity
  8
layer 1
 62
     7
100
AcDbSpline
210
0.0
220
0.0
230
1.0
 70
    11
 71
     3
 72
    68
 73
    64
 74
     0
 42
0.0000000001
 43
0.0000000001
 12
1.0
 22
0.0
 32
0.0
 13
1.0
 23
0.0
 33
0.0
 40
0.0
 40
0.0
 40
0.0
 40
0.0
 40
0.0588235294117647
 40
0.0588235294117647
 40
0.0588235294117647
 40
0.0588235294117647
 40
0.1176470588235294
 40
0.1176470588235294
 40
0.1176470588235294
 40
0.1176470588235294
 40
0.1764705882352941
 40
0.1764705882352941
 40
0.1764705882352941
 40
0.1764705882352941
 40
0.2352941176470588
 40
0.2352941176470588
 40
0.2352941176470588
 40
0.2352941176470588
 40
0.2941176470588235
 40
0.2941176470588235
 40
0.2941176470588235
 40
0.2941176470588235
 40
0.3529411764705883
 40
0.3529411764705883
 40
0.3529411764705883
 40
0.3529411764705883
 40
0.4117647058823529
 40
0.4117647058823529
 40
0.4117647058823529
 40
0.4117647058823529
 40
0.4705882352941176
 40
0.4705882352941176
 40
0.4705882352941176
 40
0.4705882352941176
 40
0.5294117647058824
 40
0.5294117647058824
 40
0.5294117647058824
 40
0.5294117647058824
 40
0.5882352941176471
 40
0.5882352941176471
 40
0.5882352941176471
 40
0.5882352941176471
 40
0.6470588235294118
 40
0.6470588235294118
 40
0.6470588235294118
 40
0.6470588235294118
 40
0.7058823529411765
 40
0.7058823529411765
 40
0.7058823529411765
 40
0.7058823529411765
 40
0.7647058823529411
 40
0.7647058823529411
 40
0.7647058823529411
 40
0.7647058823529411
 40
0.8235294117647058
 40
0.8235294117647058
 40
0.8235294117647058
 40
0.8235294117647058
 40
0.8823529411764706
 40
0.8823529411764706
 40
0.8823529411764706
 40
0.8823529411764706
 40
1.0
 40
1.0
 40
1.0
 40
1.0
 10
142.5332
 20
103.2284
 30
0.0
 10
140.495
 20
103.6656
 30
0.0
 10
138.8238
 20
105.2063
 30
0.0
 10
138.3072
 20
107.1246
 30
0.0
 10
138.3072
 20
107.1246
 30
0.0
 10
137.44
 20
110.2585
 30
0.0
 10
141.3235
 20
109.4796
 30
0.0
 10
142.573
 20
109.187
 30
0.0
 10
142.573
 20
109.187
 30
0.0
 10
143.5959
 20
108.9435
 30
0.0
 10
143.9735
 20
109.6161
 30
0.0
 10
143.5053
 20
110.8475
 30
0.0
 10
143.5053
 20
110.8475
 30
0.0
 10
141.0409
 20
114.1379
 30
0.0
 10
136.4549
 20
113.3843
 30
0.0
 10
134.6643
 20
110.3427
 30
0.0
 10
134.6643
 20
110.3427
 30
0.0
 10
134.1439
 20
112.1523
 30
0.0
 10
134.5979
 20
113.9715
 30
0.0
 10
135.4323
 20
115.5851
 30
0.0
 10
135.4323
 20
115.5851
 30
0.0
 10
137.189
 20
114.7063
 30
0.0
 10
139.8478
 20
114.7461
 30
0.0
 10
141.2385
 20
115.474
 30
0.0
 10
141.2385
 20
115.474
 30
0.0
 10
141.2385
 20
116.0001
 30
0.0
 10
139.6979
 20
117.0936
 30
0.0
 10
138.6248
 20
117.3293
 30
0.0
 10
138.6248
 20
117.3293
 30
0.0
 10
137.5093
 20
117.5743
 30
0.0
 10
137.3992
 20
117.9724
 30
0.0
 10
138.3119
 20
118.4609
 30
0.0
 10
138.3119
 20
118.4609
 30
0.0
 10
139.2545
 20
118.9654
 30
0.0
 10
140.0072
 20
120.5385
 30
0.0
 10
139.5328
 20
121.0128
 30
0.0
 10
139.5328
 20
121.0128
 30
0.0
 10
138.0927
 20
121.5019
 30
0.0
 10
136.3649
 20
120.9345
 30
0.0
 10
134.8873
 20
120.3829
 30
0.0
 10
134.8873
 20
120.3829
 30
0.0
 10
134.9914
 20
122.5926
 30
0.0
 10
134.7612
 20
124.0951
 30
0.0
 10
133.7453
 20
126.1383
 30
0.0
 10
133.7453
 20
126.1383
 30
0.0
 10
133.7453
 20
126.1383
 30
0.0
 10
150.8305
 20
126.1383
 30
0.0
 10
150.8305
 20
126.1383
 30
0.0
 10
150.8305
 20
126.1383
 30
0.0
 10
144.8524
 20
120.4861
 30
0.0
 10
148.2147
 20
111.0143
 30
0.0
 10
156.4038
 20
111.0066
 30
0.0
 10
156.4038
 20
111.0066
 30
0.0
 10
158.0898
 20
111.0138
 30
0.0
 10
158.1324
 20
110.3794
 30
0.0
 10
157.33
 20
109.338
 30
0.0
 10
157.33
 20
109.338
 30
0.0
 10
153.2534
 20
104.7612
 30
0.0
 10
147.4658
 20
102.1786
 30
0.0
 10
142.5333
 20
103.2284
 30
0.0
 10
142.5333
 20
103.2284
 30
0.0
 10
142.5333
 20
103.2284
 30
0.0
 10
142.5332
 20
103.2284
 30
0.0
 10
142.5332
 20
103.2284
 30
0.0
  0
SPLINE
  5
7B
330
1F
100
AcDbEntity
  8
layer 1
 62
     7
100
AcDbSpline
210
0.0
220
0.0
230
1.0
 70
    11
 71
     3
 72
    28
 73
    24
 74
     0
 42
0.0000000001
 43
0.0000000001
 12
1.0
 22
0.0
 32
0.0
 13
1.0
 23
0.0
 33
0.0
 40
0.0
 40
0.0
 40
0.0
 40
0.0
 40
0.1428571428571428
 40
0.1428571428571428
 40
0.1428571428571428
 40
0.1428571428571428
 40
0.2857142857142857
 40
0.2857142857142857
 40
0.2857142857142857
 40
0.2857142857142857
 40
0.4285714285714285
 40
0.4285714285714285
 40
0.4285714285714285
 40
0.4285714285714285
 40
0.5714285714285714
 40
0.5714285714285714
 40
0.5714285714285714
 40
0.5714285714285714
 40
0.7142857142857143
 40
0.7142857142857143
 40
0.7142857142857143
 40
0.7142857142857143
 40
1.0
 40
1.0
 40
1.0
 40
1.0
 10
160.4073
 20
106.7405
 30
0.0
 10
161.4837
 20
107.5416
 30
0.0
 10
161.992
 20
108.2697
 30
0.0
 10
162.2382
 20
109.3751
 30
0.0
 10
162.2382
 20
109.3751
 30
0.0
 10
162.3962
 20
110.1651
 30
0.0
 10
162.9099
 20
110.5701
 30
0.0
 10
165.0363
 20
111.5813
 30
0.0
 10
165.0363
 20
111.5813
 30
0.0
 10
164.5075
 20
109.244
 30
0.0
 10
164.7014
 20
107.1947
 30
0.0
 10
165.7204
 20
105.6273
 30
0.0
 10
165.7204
 20
105.6273
 30
0.0
 10
165.8333
 20
104.9331
 30
0.0
 10
165.5244
 20
104.898
 30
0.0
 10
164.7017
 20
105.3248
 30
0.0
 10
164.7017
 20
105.3248
 30
0.0
 10
163.2981
 20
106.0253
 30
0.0
 10
162.06
 20
106.5789
 30
0.0
 10
160.4072
 20
106.7403
 30
0.0
 10
160.4072
 20
106.7403
 30
0.0
 10
160.4072
 20
106.7403
 30
0.0
 10
160.4073
 20
106.7405
 30
0.0
 10
160.4073
 20
106.7405
 30
0.0
  0
SPLINE
  5
7C
330
1F
100
AcDbEntity
  8
layer 1
 62
     7
100
AcDbSpline
210
0.0
220
0.0
230
1.0
 70
    11
 71
     3
 72
    48
 73
    44
 74
     0
 42
0.0000000001
 43
0.0000000001
 12
1.0
 22
0.0
 32
0.0
 13
1.0
 23
0.0
 33
0.0
 40
0.0
 40
0.0
 40
0.0
 40
0.0
 40
0.0833333333333333
 40
0.0833333333333333
 40
0.0833333333333333
 40
0.0833333333333333
 40
0.1666666666666667
 40
0.1666666666666667
 40
0.1666666666666667
 40
0.1666666666666667
 40
0.25
 40
0.25
 40
0.25
 40
0.25
 40
0.3333333333333333
 40
0.3333333333333333
 40
0.3333333333333333
 40
0.3333333333333333
 40
0.4166666666666667
 40
0.4166666666666667
 40
0.4166666666666667
 40
0.4166666666666667
 40
0.5
 40
0.5
 40
0.5
 40
0.5
 40
0.5833333333333334
 40
0.5833333333333334
 40
0.5833333333333334
 40
0.5833333333333334
 40
0.6666666666666666
 40
0.6666666666666666
 40
0.6666666666666666
 40
0.6666666666666666
 40
0.75
 40
0.75
 40
0.75
 40
0.75
 40
0.8333333333333334
 40
0.8333333333333334
 40
0.8333333333333334
 40
0.8333333333333334
 40
1.0
 40
1.0
 40
1.0
 40
1.0
 10
155.2669
 20
114.5774
 30
0.0
 10
149.5973
 20
116.7867
 30
0.0
 10
151.9978
 20
126.1384
 30
0.0
 10
157.4062
 20
123.154
 30
0.0
 10
157.4062
 20
123.154
 30
0.0
 10
158.704
 20
122.245
 30
0.0
 10
158.0068
 20
119.762
 30
0.0
 10
156.4537
 20
119.762
 30
0.0
 10
156.4537
 20
119.762
 30
0.0
 10
155.6596
 20
119.762
 30
0.0
 10
155.6924
 20
119.035
 30
0.0
 10
156.5203
 20
118.2858
 30
0.0
 10
156.5203
 20
118.2858
 30
0.0
 10
158.02
 20
116.9286
 30
0.0
 10
161.187
 20
117.1604
 30
0.0
 10
162.0372
 20
120.2841
 30
0.0
 10
162.0372
 20
120.2841
 30
0.0
 10
162.5258
 20
123.1742
 30
0.0
 10
161.9016
 20
124.6823
 30
0.0
 10
159.5729
 20
126.1384
 30
0.0
 10
159.5729
 20
126.1384
 30
0.0
 10
159.5729
 20
126.1384
 30
0.0
 10
166.4901
 20
126.1384
 30
0.0
 10
166.4901
 20
126.1384
 30
0.0
 10
166.4901
 20
126.1384
 30
0.0
 10
166.79
 20
123.2645
 30
0.0
 10
168.6662
 20
121.8714
 30
0.0
 10
170.7105
 20
121.5531
 30
0.0
 10
170.7105
 20
121.5531
 30
0.0
 10
171.8145
 20
121.4058
 30
0.0
 10
172.0298
 20
120.6981
 30
0.0
 10
171.083
 20
120.2299
 30
0.0
 10
171.083
 20
120.2299
 30
0.0
 10
170.5097
 20
119.9464
 30
0.0
 10
168.4137
 20
118.6334
 30
0.0
 10
166.4138
 20
117.3348
 30
0.0
 10
166.4138
 20
117.3348
 30
0.0
 10
161.1467
 20
113.9151
 30
0.0
 10
159.0988
 20
113.4085
 30
0.0
 10
155.2669
 20
114.5773
 30
0.0
 10
155.2669
 20
114.5773
 30
0.0
 10
155.2669
 20
114.5773
 30
0.0
 10
155.2669
 20
114.5774
 30
0.0
 10
155.2669
 20
114.5774
 30
0.0
  0
SPLINE
  5
7D
330
1F
100
AcDbEntity
  8
layer 1
 62
     7
100
AcDbSpline
210
0.0
220
0.0
230
1.0
 70
    11
 71
     3
 72
    28
 73
    24
 74
     0
 42
0.0000000001
 43
0.0000000001
 12
1.0
 22
0.0
 32
0.0
 13
1.0
 23
0.0
 33
0.0
 40
0.0
 40
0.0
 40
0.0
 40
0.0
 40
0.1428571428571428
 40
0.1428571428571428
 40
0.1428571428571428
 40
0.1428571428571428
 40
0.2857142857142857
 40
0.2857142857142857
 40
0.2857142857142857
 40
0.2857142857142857
 40
0.4285714285714285
 40
0.4285714285714285
 40
0.4285714285714285
 40
0.4285714285714285
 40
0.5714285714285714
 40
0.5714285714285714
 40
0.5714285714285714
 40
0.5714285714285714
 40
0.7142857142857143
 40
0.7142857142857143
 40
0.7142857142857143
 40
0.7142857142857143
 40
1.0
 40
1.0
 40
1.0
 40
1.0
 10
190.3363
 20
116.8674
 30
0.0
 10
184.8033
 20
122.441
 30
0.0
 10
178.5906
 20
120.6065
 30
0.0
 10
172.9257
 20
122.7737
 30
0.0
 10
172.9257
 20
122.7737
 30
0.0
 10
169.754
 20
123.738
 30
0.0
 10
168.6511
 20
126.4405
 30
0.0
 10
171.5884
 20
126.1383
 30
0.0
 10
171.5884
 20
126.1383
 30
0.0
 10
178.9473
 20
126.1383
 30
0.0
 10
184.6939
 20
126.1383
 30
0.0
 10
192.1897
 20
126.1383
 30
0.0
 10
192.1897
 20
126.1383
 30
0.0
 10
192.1897
 20
126.1383
 30
0.0
 10
192.1897
 20
115.5395
 30
0.0
 10
192.1897
 20
115.5395
 30
0.0
 10
192.1897
 20
115.5395
 30
0.0
 10
192.0832
 20
115.5395
 30
0.0
 10
191.1659
 20
116.1369
 30
0.0
 10
190.3363
 20
116.8672
 30
0.0
 10
190.3363
 20
116.8672
 30
0.0
 10
190.3363
 20
116.8672
 30
0.0
 10
190.3363
 20
116.8674
 30
0.0
 10
190.3363
 20
116.8674
 30
0.0
  0
SPLINE
  5
7E
330
1F
100
AcDbEntity
  8
layer 1
 62
     7
100
AcDbSpline
210
0.0
220
0.0
230
1.0
 70
    11
 71
     3
 72
   136
 73
   132
 74
     0
 42
0.0000000001
 43
0.0000000001
 12
1.0
 22
0.0
 32
0.0
 13
1.0
 23
0.0
 33
0.0
 40
0.0
 40
0.0
 40
0.0
 40
0.0
 40
0.0294117647058824
 40
0.0294117647058824
 40
0.0294117647058824
 40
0.0294117647058824
 40
0.0588235294117647
 40
0.0588235294117647
 40
0.0588235294117647
 40
0.0588235294117647
 40
0.0882352941176471
 40
0.0882352941176471
 40
0.0882352941176471
 40
0.0882352941176471
 40
0.1176470588235294
 40
0.1176470588235294
 40
0.1176470588235294
 40
0.1176470588235294
 40
0.1470588235294118
 40
0.1470588235294118
 40
0.1470588235294118
 40
0.1470588235294118
 40
0.1764705882352941
 40
0.1764705882352941
 40
0.1764705882352941
 40
0.1764705882352941
 40
0.2058823529411765
 40
0.2058823529411765
 40
0.2058823529411765
 40
0.2058823529411765
 40
0.2352941176470588
 40
0.2352941176470588
 40
0.2352941176470588
 40
0.2352941176470588
 40
0.2647058823529412
 40
0.2647058823529412
 40
0.2647058823529412
 40
0.2647058823529412
 40
0.2941176470588235
 40
0.2941176470588235
 40
0.2941176470588235
 40
0.2941176470588235
 40
0.3235294117647059
 40
0.3235294117647059
 40
0.3235294117647059
 40
0.3235294117647059
 40
0.3529411764705883
 40
0.3529411764705883
 40
0.3529411764705883
 40
0.3529411764705883
 40
0.3823529411764706
 40
0.3823529411764706
 40
0.3823529411764706
 40
0.3823529411764706
 40
0.4117647058823529
 40
0.4117647058823529
 40
0.4117647058823529
 40
0.4117647058823529
 40
0.4411764705882353
 40
0.4411764705882353
 40
0.4411764705882353
 40
0.4411764705882353
 40
0.4705882352941176
 40
0.4705882352941176
 40
0.4705882352941176
 40
0.4705882352941176
 40
0.5
 40
0.5
 40
0.5
 40
0.5
 40
0.5294117647058824
 40
0.5294117647058824
 40
0.5294117647058824
 40
0.5294117647058824
 40
0.5588235294117647
 40
0.5588235294117647
 40
0.5588235294117647
 40
0.5588235294117647
 40
0.5882352941176471
 40
0.5882352941176471
 40
0.5882352941176471
 40
0.5882352941176471
 40
0.6176470588235294
 40
0.6176470588235294
 40
0.6176470588235294
 40
0.6176470588235294
 40
0.6470588235294118
 40
0.6470588235294118
 40
0.6470588235294118
 40
0.6470588235294118
 40
0.6764705882352942
 40
0.6764705882352942
 40
0.6764705882352942
 40
0.6764705882352942
 40
0.7058823529411765
 40
0.7058823529411765
 40
0.7058823529411765
 40
0.7058823529411765
 40
0.7352941176470589
 40
0.7352941176470589
 40
0.7352941176470589
 40
0.7352941176470589
 40
0.7647058823529411
 40
0.7647058823529411
 40
0.7647058823529411
 40
0.7647058823529411
 40
0.7941176470588235
 40
0.7941176470588235
 40
0.7941176470588235
 40
0.7941176470588235
 40
0.8235294117647058
 40
0.8235294117647058
 40
0.8235294117647058
 40
0.8235294117647058
 40
0.8529411764705882
 40
0.8529411764705882
 40
0.8529411764705882
 40
0.8529411764705882
 40
0.8823529411764706
 40
0.8823529411764706
 40
0.8823529411764706
 40
0.8823529411764706
 40
0.9117647058823529
 40
0.9117647058823529
 40
0.9117647058823529
 40
0.9117647058823529
 40
0.9411764705882353
 40
0.9411764705882353
 40
0.9411764705882353
 40
0.9411764705882353
 40
1.0
 40
1.0
 40
1.0
 40
1.0
 10
115.8805
 20
2.6246
 30
0.0
 10
113.5722
 20
0.6377
 30
0.0
 10
112.0471
 20
-2.6518
 30
0.0
 10
111.9829
 20
-5.6432
 30
0.0
 10
111.9829
 20
-5.6432
 30
0.0
 10
111.9829
 20
-6.6257
 30
0.0
 10
112.1893
 20
-7.0513
 30
0.0
 10
113.3184
 20
-7.2248
 30
0.0
 10
113.3184
 20
-7.2248
 30
0.0
 10
115.0832
 20
-7.6445
 30
0.0
 10
116.4338
 20
-7.4924
 30
0.0
 10
118.227
 20
-7.2277
 30
0.0
 10
118.227
 20
-7.2277
 30
0.0
 10
115.1372
 20
-9.9109
 30
0.0
 10
113.1233
 20
-14.104
 30
0.0
 10
112.282
 20
-17.8517
 30
0.0
 10
112.282
 20
-17.8517
 30
0.0
 10
111.773
 20
-20.2951
 30
0.0
 10
111.3304
 20
-21.1952
 30
0.0
 10
109.996
 20
-22.4999
 30
0.0
 10
109.996
 20
-22.4999
 30
0.0
 10
108.0739
 20
-24.6112
 30
0.0
 10
106.119
 20
-24.2585
 30
0.0
 10
107.7567
 20
-21.8048
 30
0.0
 10
107.7567
 20
-21.8048
 30
0.0
 10
112.4712
 20
-14.1295
 30
0.0
 10
107.925
 20
-4.6931
 30
0.0
 10
100.9482
 20
-3.1306
 30
0.0
 10
100.9482
 20
-3.1306
 30
0.0
 10
105.7377
 20
-1.8309
 30
0.0
 10
106.7913
 20
1.6015
 30
0.0
 10
104.9574
 20
4.3592
 30
0.0
 10
104.9574
 20
4.3592
 30
0.0
 10
103.9339
 20
5.8205
 30
0.0
 10
100.7807
 20
6.5265
 30
0.0
 10
99.4907
 20
5.5832
 30
0.0
 10
99.4907
 20
5.5832
 30
0.0
 10
98.8692
 20
5.1287
 30
0.0
 10
99.0506
 20
4.5054
 30
0.0
 10
99.7718
 20
4.3971
 30
0.0
 10
99.7718
 20
4.3971
 30
0.0
 10
100.8077
 20
4.2417
 30
0.0
 10
101.3458
 20
3.1889
 30
0.0
 10
101.3458
 20
2.2859
 30
0.0
 10
101.3458
 20
2.2859
 30
0.0
 10
101.3458
 20
1.1755
 30
0.0
 10
100.6337
 20
0.4482
 30
0.0
 10
98.359
 20
-0.7642
 30
0.0
 10
98.359
 20
-0.7642
 30
0.0
 10
95.2788
 20
-2.6896
 30
0.0
 10
91.652
 20
-1.5192
 30
0.0
 10
89.1658
 20
-3.3269
 30
0.0
 10
89.1658
 20
-3.3269
 30
0.0
 10
89.6044
 20
1.5092
 30
0.0
 10
86.3804
 20
4.9337
 30
0.0
 10
82.0685
 20
6.1619
 30
0.0
 10
82.0685
 20
6.1619
 30
0.0
 10
80.927
 20
6.3975
 30
0.0
 10
80.2698
 20
6.6783
 30
0.0
 10
80.1861
 20
7.6754
 30
0.0
 10
80.1861
 20
7.6754
 30
0.0
 10
80.2698
 20
8.6724
 30
0.0
 10
80.9269
 20
8.9533
 30
0.0
 10
82.0685
 20
9.1889
 30
0.0
 10
82.0685
 20
9.1889
 30
0.0
 10
86.3804
 20
10.4171
 30
0.0
 10
89.6044
 20
13.8416
 30
0.0
 10
89.1658
 20
18.6777
 30
0.0
 10
89.1658
 20
18.6777
 30
0.0
 10
91.6519
 20
16.8699
 30
0.0
 10
95.2788
 20
18.0403
 30
0.0
 10
98.359
 20
16.115
 30
0.0
 10
98.359
 20
16.115
 30
0.0
 10
100.6336
 20
14.9026
 30
0.0
 10
101.3458
 20
14.1754
 30
0.0
 10
101.3458
 20
13.0649
 30
0.0
 10
101.3458
 20
13.0649
 30
0.0
 10
101.3458
 20
12.162
 30
0.0
 10
100.8077
 20
11.1091
 30
0.0
 10
99.7718
 20
10.9537
 30
0.0
 10
99.7718
 20
10.9537
 30
0.0
 10
99.0506
 20
10.8454
 30
0.0
 10
98.869
 20
10.222
 30
0.0
 10
99.4907
 20
9.7676
 30
0.0
 10
99.4907
 20
9.7676
 30
0.0
 10
100.7807
 20
8.8243
 30
0.0
 10
103.9339
 20
9.5303
 30
0.0
 10
104.9574
 20
10.9916
 30
0.0
 10
104.9574
 20
10.9916
 30
0.0
 10
106.7913
 20
13.7494
 30
0.0
 10
105.7377
 20
17.1816
 30
0.0
 10
100.9482
 20
18.4814
 30
0.0
 10
100.9482
 20
18.4814
 30
0.0
 10
107.925
 20
20.0439
 30
0.0
 10
112.4712
 20
29.4801
 30
0.0
 10
107.7567
 20
37.1555
 30
0.0
 10
107.7567
 20
37.1555
 30
0.0
 10
106.119
 20
39.6094
 30
0.0
 10
108.074
 20
39.9619
 30
0.0
 10
109.996
 20
37.8506
 30
0.0
 10
109.996
 20
37.8506
 30
0.0
 10
111.3304
 20
36.5459
 30
0.0
 10
111.773
 20
35.6458
 30
0.0
 10
112.282
 20
33.2024
 30
0.0
 10
112.282
 20
33.2024
 30
0.0
 10
113.1233
 20
29.4546
 30
0.0
 10
115.1372
 20
25.2615
 30
0.0
 10
118.227
 20
22.5785
 30
0.0
 10
118.227
 20
22.5785
 30
0.0
 10
116.4338
 20
22.8432
 30
0.0
 10
115.0833
 20
22.9953
 30
0.0
 10
113.3184
 20
22.5755
 30
0.0
 10
113.3184
 20
22.5755
 30
0.0
 10
112.1893
 20
22.4021
 30
0.0
 10
111.9829
 20
21.9765
 30
0.0
 10
111.9829
 20
20.9939
 30
0.0
 10
111.9829
 20
20.9939
 30
0.0
 10
112.0471
 20
18.0026
 30
0.0
 10
113.5722
 20
14.713
 30
0.0
 10
115.8805
 20
12.7262
 30
0.0
 10
115.8805
 20
12.7262
 30
0.0
 10
110.9289
 20
12.5073
 30
0.0
 10
107.8882
 20
11.3073
 30
0.0
 10
105.3775
 20
7.6753
 30
0.0
 10
105.3775
 20
7.6753
 30
0.0
 10
107.8881
 20
4.0432
 30
0.0
 10
110.9288
 20
2.8432
 30
0.0
 10
115.8805
 20
2.6243
 30
0.0
 10
115.8805
 20
2.6243
 30
0.0
 10
115.8805
 20
2.6243
 30
0.0
 10
115.8805
 20
2.6246
 30
0.0
 10
115.8805
 20
2.6246
 30
0.0
  0
SPLINE
  5
7F
330
1F
100
AcDbEntity
  8
layer 1
 62
     7
100
AcDbSpline
210
0.0
220
0.0
230
1.0
 70
    11
 71
     3
 72
    24
 73
    20
 74
     0
 42
0.0000000001
 43
0.0000000001
 12
1.0
 22
0.0
 32
0.0
 13
1.0
 23
0.0
 33
0.0
 40
0.0
 40
0.0
 40
0.0
 40
0.0
 40
0.1666666666666667
 40
0.1666666666666667
 40
0.1666666666666667
 40
0.1666666666666667
 40
0.3333333333333333
 40
0.3333333333333333
 40
0.3333333333333333
 40
0.3333333333333333
 40
0.5
 40
0.5
 40
0.5
 40
0.5
 40
0.6666666666666666
 40
0.6666666666666666
 40
0.6666666666666666
 40
0.6666666666666666
 40
1.0
 40
1.0
 40
1.0
 40
1.0
 10
72.3998
 20
4.6614
 30
0.0
 10
73.4711
 20
5.6742
 30
0.0
 10
75.0848
 20
6.4146
 30
0.0
 10
76.8233
 20
6.4947
 30
0.0
 10
76.8233
 20
6.4947
 30
0.0
 10
77.5103
 20
6.6414
 30
0.0
 10
77.9069
 20
6.8606
 30
0.0
 10
77.8789
 20
7.6755
 30
0.0
 10
77.8789
 20
7.6755
 30
0.0
 10
77.907
 20
8.4905
 30
0.0
 10
77.5103
 20
8.7097
 30
0.0
 10
76.8233
 20
8.8563
 30
0.0
 10
76.8233
 20
8.8563
 30
0.0
 10
75.0848
 20
8.9362
 30
0.0
 10
73.4711
 20
9.6767
 30
0.0
 10
72.3998
 20
10.6896
 30
0.0
 10
72.3998
 20
10.6896
 30
0.0
 10
72.3998
 20
10.6896
 30
0.0
 10
72.3998
 20
4.6614
 30
0.0
 10
72.3998
 20
4.6614
 30
0.0
  0
SPLINE
  5
80
330
1F
100
AcDbEntity
  8
layer 1
 62
     7
100
AcDbSpline
210
0.0
220
0.0
230
1.0
 70
    11
 71
     3
 72
    24
 73
    20
 74
     0
 42
0.0000000001
 43
0.0000000001
 12
1.0
 22
0.0
 32
0.0
 13
1.0
 23
0.0
 33
0.0
 40
0.0
 40
0.0
 40
0.0
 40
0.0
 40
0.1666666666666667
 40
0.1666666666666667
 40
0.1666666666666667
 40
0.1666666666666667
 40
0.3333333333333333
 40
0.3333333333333333
 40
0.3333333333333333
 40
0.3333333333333333
 40
0.5
 40
0.5
 40
0.5
 40
0.5
 40
0.6666666666666666
 40
0.6666666666666666
 40
0.6666666666666666
 40
0.6666666666666666
 40
1.0
 40
1.0
 40
1.0
 40
1.0
 10
128.6469
 20
5.8966
 30
0.0
 10
128.3414
 20
5.2292
 30
0.0
 10
126.7982
 20
4.6372
 30
0.0
 10
125.773
 20
4.6262
 30
0.0
 10
125.773
 20
4.6262
 30
0.0
 10
125.0081
 20
4.6179
 30
0.0
 10
124.9705
 20
5.1963
 30
0.0
 10
125.3244
 20
5.5471
 30
0.0
 10
125.3244
 20
5.5471
 30
0.0
 10
126.1479
 20
6.3632
 30
0.0
 10
127.6869
 20
6.8045
 30
0.0
 10
128.4159
 20
6.5385
 30
0.0
 10
128.4159
 20
6.5385
 30
0.0
 10
128.5609
 20
6.4856
 30
0.0
 10
128.8105
 20
6.2542
 30
0.0
 10
128.6469
 20
5.8965
 30
0.0
 10
128.6469
 20
5.8965
 30
0.0
 10
128.6469
 20
5.8965
 30
0.0
 10
128.6469
 20
5.8966
 30
0.0
 10
128.6469
 20
5.8966
 30
0.0
  0
SPLINE
  5
81
330
1F
100
AcDbEntity
  8
layer 1
 62
     7
100
AcDbSpline
210
0.0
220
0.0
230
1.0
 70
    11
 71
     3
 72
    20
 73
    16
 74
     0
 42
0.0000000001
 43
0.0000000001
 12
1.0
 22
0.0
 32
0.0
 13
1.0
 23
0.0
 33
0.0
 40
0.0
 40
0.0
 40
0.0
 40
0.0
 40
0.2
 40
0.2
 40
0.2
 40
0.2
 40
0.4
 40
0.4
 40
0.4
 40
0.4
 40
0.6
 40
0.6
 40
0.6
 40
0.6
 40
1.0
 40
1.0
 40
1.0
 40
1.0
 10
130.4881
 20
4.1948
 30
0.0
 10
130.5446
 20
3.0228
 30
0.0
 10
129.7384
 20
1.7265
 30
0.0
 10
128.4887
 20
1.4784
 30
0.0
 10
128.4887
 20
1.4784
 30
0.0
 10
127.8992
 20
1.3686
 30
0.0
 10
127.7675
 20
1.4515
 30
0.0
 10
127.7312
 20
1.9838
 30
0.0
 10
127.7312
 20
1.9838
 30
0.0
 10
127.7571
 20
3.1762
 30
0.0
 10
128.7579
 20
4.5403
 30
0.0
 10
129.9214
 20
4.6664
 30
0.0
 10
129.9214
 20
4.6664
 30
0.0
 10
130.3842
 20
4.7209
 30
0.0
 10
130.4423
 20
4.5898
 30
0.0
 10
130.4881
 20
4.1948
 30
0.0
  0
SPLINE
  5
82
330
1F
100
AcDbEntity
  8
layer 1
 62
     7
100
AcDbSpline
210
0.0
220
0.0
230
1.0
 70
    11
 71
     3
 72
    48
 73
    44
 74
     0
 42
0.0000000001
 43
0.0000000001
 12
1.0
 22
0.0
 32
0.0
 13
1.0
 23
0.0
 33
0.0
 40
0.0
 40
0.0
 40
0.0
 40
0.0
 40
0.0833333333333333
 40
0.0833333333333333
 40
0.0833333333333333
 40
0.0833333333333333
 40
0.1666666666666667
 40
0.1666666666666667
 40
0.1666666666666667
 40
0.1666666666666667
 40
0.25
 40
0.25
 40
0.25
 40
0.25
 40
0.3333333333333333
 40
0.3333333333333333
 40
0.3333333333333333
 40
0.3333333333333333
 40
0.4166666666666667
 40
0.4166666666666667
 40
0.4166666666666667
 40
0.4166666666666667
 40
0.5
 40
0.5
 40
0.5
 40
0.5
 40
0.5833333333333334
 40
0.5833333333333334
 40
0.5833333333333334
 40
0.5833333333333334
 40
0.6666666666666666
 40
0.6666666666666666
 40
0.6666666666666666
 40
0.6666666666666666
 40
0.75
 40
0.75
 40
0.75
 40
0.75
 40
0.8333333333333334
 40
0.8333333333333334
 40
0.8333333333333334
 40
0.8333333333333334
 40
1.0
 40
1.0
 40
1.0
 40
1.0
 10
81.3073
 20
2.9766
 30
0.0
 10
83.9569
 20
1.7429
 30
0.0
 10
86.1908
 20
-1.1822
 30
0.0
 10
85.9988
 20
-3.727
 30
0.0
 10
85.9988
 20
-3.727
 30
0.0
 10
85.9427
 20
-4.4712
 30
0.0
 10
85.4759
 20
-5.1061
 30
0.0
 10
84.8368
 20
-5.886
 30
0.0
 10
84.8368
 20
-5.886
 30
0.0
 10
82.4103
 20
-9.1355
 30
0.0
 10
81.6394
 20
-11.9435
 30
0.0
 10
81.016
 20
-15.6457
 30
0.0
 10
81.016
 20
-15.6457
 30
0.0
 10
78.5735
 20
-13.3857
 30
0.0
 10
74.8206
 20
-12.8437
 30
0.0
 10
72.3997
 20
-13.831
 30
0.0
 10
72.3997
 20
-13.831
 30
0.0
 10
72.3997
 20
-13.831
 30
0.0
 10
72.3997
 20
-7.1767
 30
0.0
 10
72.3997
 20
-7.1767
 30
0.0
 10
72.3997
 20
-7.1767
 30
0.0
 10
78.6227
 20
-12.3337
 30
0.0
 10
84.462
 20
-6.3439
 30
0.0
 10
81.5893
 20
-1.8531
 30
0.0
 10
81.5893
 20
-1.8531
 30
0.0
 10
80.1077
 20
0.0294
 30
0.0
 10
78.896
 20
-1.0442
 30
0.0
 10
78.9121
 20
-2.742
 30
0.0
 10
78.9121
 20
-2.742
 30
0.0
 10
78.797
 20
-4.3592
 30
0.0
 10
78.437
 20
-4.9493
 30
0.0
 10
77.3024
 20
-5.3807
 30
0.0
 10
77.3024
 20
-5.3807
 30
0.0
 10
75.1523
 20
-6.1981
 30
0.0
 10
72.7826
 20
-2.6135
 30
0.0
 10
73.6217
 20
0.1872
 30
0.0
 10
73.6217
 20
0.1872
 30
0.0
 10
74.5702
 20
3.3528
 30
0.0
 10
77.9024
 20
4.5621
 30
0.0
 10
81.3072
 20
2.9765
 30
0.0
 10
81.3072
 20
2.9765
 30
0.0
 10
81.3072
 20
2.9765
 30
0.0
 10
81.3073
 20
2.9766
 30
0.0
 10
81.3073
 20
2.9766
 30
0.0
  0
SPLINE
  5
83
330
1F
100
AcDbEntity
  8
layer 1
 62
     7
100
AcDbSpline
210
0.0
220
0.0
230
1.0
 70
    11
 71
     3
 72
    12
 73
     8
 74
     0
 42
0.0000000001
 43
0.0000000001
 12
1.0
 22
0.0
 32
0.0
 13
1.0
 23
0.0
 33
0.0
 40
0.0
 40
0.0
 40
0.0
 40
0.0
 40
0.3333333333333333
 40
0.3333333333333333
 40
0.3333333333333333
 40
0.3333333333333333
 40
1.0
 40
1.0
 40
1.0
 40
1.0
 10
125.8228
 20
2.9348
 30
0.0
 10
124.9685
 20
-2.1244
 30
0.0
 10
119.997
 20
-4.4789
 30
0.0
 10
116.6016
 20
-3.7697
 30
0.0
 10
116.6016
 20
-3.7697
 30
0.0
 10
116.9006
 20
0.3153
 30
0.0
 10
121.4343
 20
4.3286
 30
0.0
 10
125.8228
 20
2.9348
 30
0.0
  0
SPLINE
  5
84
330
1F
100
AcDbEntity
  8
layer 1
 62
     7
100
AcDbSpline
210
0.0
220
0.0
230
1.0
 70
    11
 71
     3
 72
    12
 73
     8
 74
     0
 42
0.0000000001
 43
0.0000000001
 12
1.0
 22
0.0
 32
0.0
 13
1.0
 23
0.0
 33
0.0
 40
0.0
 40
0.0
 40
0.0
 40
0.0
 40
0.3333333333333333
 40
0.3333333333333333
 40
0.3333333333333333
 40
0.3333333333333333
 40
1.0
 40
1.0
 40
1.0
 40
1.0
 10
119.0563
 20
-23.5933
 30
0.0
 10
116.7012
 20
-15.4581
 30
0.0
 10
120.2525
 20
-8.3661
 30
0.0
 10
125.0848
 20
-5.2206
 30
0.0
 10
125.0848
 20
-5.2206
 30
0.0
 10
126.7649
 20
-13.8112
 30
0.0
 10
124.353
 20
-19.8636
 30
0.0
 10
119.0563
 20
-23.5933
 30
0.0
  0
SPLINE
  5
85
330
1F
100
AcDbEntity
  8
layer 1
 62
     7
100
AcDbSpline
210
0.0
220
0.0
230
1.0
 70
    11
 71
     3
 72
    60
 73
    56
 74
     0
 42
0.0000000001
 43
0.0000000001
 12
1.0
 22
0.0
 32
0.0
 13
1.0
 23
0.0
 33
0.0
 40
0.0
 40
0.0
 40
0.0
 40
0.0
 40
0.0666666666666667
 40
0.0666666666666667
 40
0.0666666666666667
 40
0.0666666666666667
 40
0.1333333333333333
 40
0.1333333333333333
 40
0.1333333333333333
 40
0.1333333333333333
 40
0.2
 40
0.2
 40
0.2
 40
0.2
 40
0.2666666666666667
 40
0.2666666666666667
 40
0.2666666666666667
 40
0.2666666666666667
 40
0.3333333333333333
 40
0.3333333333333333
 40
0.3333333333333333
 40
0.3333333333333333
 40
0.4
 40
0.4
 40
0.4
 40
0.4
 40
0.4666666666666667
 40
0.4666666666666667
 40
0.4666666666666667
 40
0.4666666666666667
 40
0.5333333333333333
 40
0.5333333333333333
 40
0.5333333333333333
 40
0.5333333333333333
 40
0.6
 40
0.6
 40
0.6
 40
0.6
 40
0.6666666666666666
 40
0.6666666666666666
 40
0.6666666666666666
 40
0.6666666666666666
 40
0.7333333333333333
 40
0.7333333333333333
 40
0.7333333333333333
 40
0.7333333333333333
 40
0.8
 40
0.8
 40
0.8
 40
0.8
 40
0.8666666666666667
 40
0.8666666666666667
 40
0.8666666666666667
 40
0.8666666666666667
 40
1.0
 40
1.0
 40
1.0
 40
1.0
 10
104.6471
 20
-12.1453
 30
0.0
 10
105.6036
 20
-15.4212
 30
0.0
 10
105.1682
 20
-18.0628
 30
0.0
 10
103.3263
 20
-20.1583
 30
0.0
 10
103.3263
 20
-20.1583
 30
0.0
 10
100.4628
 20
-23.4161
 30
0.0
 10
94.4437
 20
-21.8507
 30
0.0
 10
94.4437
 20
-17.8483
 30
0.0
 10
94.4437
 20
-17.8483
 30
0.0
 10
94.4437
 20
-15.6644
 30
0.0
 10
96.9166
 20
-14.1468
 30
0.0
 10
98.7554
 20
-15.2022
 30
0.0
 10
98.7554
 20
-15.2022
 30
0.0
 10
100.7944
 20
-16.3724
 30
0.0
 10
102.5538
 20
-15.3035
 30
0.0
 10
101.4247
 20
-13.5802
 30
0.0
 10
101.4247
 20
-13.5802
 30
0.0
 10
100.1988
 20
-11.7093
 30
0.0
 10
96.4399
 20
-10.9822
 30
0.0
 10
93.9565
 20
-12.1356
 30
0.0
 10
93.9565
 20
-12.1356
 30
0.0
 10
89.6886
 20
-14.1177
 30
0.0
 10
88.612
 20
-19.1193
 30
0.0
 10
91.714
 20
-22.5529
 30
0.0
 10
91.714
 20
-22.5529
 30
0.0
 10
94.9685
 20
-26.2381
 30
0.0
 10
99.5937
 20
-26.2671
 30
0.0
 10
102.8985
 20
-25.485
 30
0.0
 10
102.8985
 20
-25.485
 30
0.0
 10
106.2199
 20
-29.258
 30
0.0
 10
112.8906
 20
-26.8309
 30
0.0
 10
113.9056
 20
-22.5761
 30
0.0
 10
113.9056
 20
-22.5761
 30
0.0
 10
114.2674
 20
-23.7889
 30
0.0
 10
114.4953
 20
-24.3737
 30
0.0
 10
114.9024
 20
-25.2817
 30
0.0
 10
114.9024
 20
-25.2817
 30
0.0
 10
113.7545
 20
-26.5537
 30
0.0
 10
111.9465
 20
-27.5278
 30
0.0
 10
110.4418
 20
-28.2725
 30
0.0
 10
110.4418
 20
-28.2725
 30
0.0
 10
100.0582
 20
-32.7148
 30
0.0
 10
85.3946
 20
-28.6129
 30
0.0
 10
85.4278
 20
-17.5663
 30
0.0
 10
85.4278
 20
-17.5663
 30
0.0
 10
85.5414
 20
-12.054
 30
0.0
 10
88.3529
 20
-7.9151
 30
0.0
 10
92.8677
 20
-6.2732
 30
0.0
 10
92.8677
 20
-6.2732
 30
0.0
 10
97.8078
 20
-4.9018
 30
0.0
 10
103.2018
 20
-7.5463
 30
0.0
 10
104.647
 20
-12.1452
 30
0.0
 10
104.647
 20
-12.1452
 30
0.0
 10
104.647
 20
-12.1452
 30
0.0
 10
104.6471
 20
-12.1453
 30
0.0
 10
104.6471
 20
-12.1453
 30
0.0
  0
SPLINE
  5
86
330
1F
100
AcDbEntity
  8
layer 1
 62
     7
100
AcDbSpline
210
0.0
220
0.0
230
1.0
 70
    11
 71
     3
 72
    20
 73
    16
 74
     0
 42
0.0000000001
 43
0.0000000001
 12
1.0
 22
0.0
 32
0.0
 13
1.0
 23
0.0
 33
0.0
 40
0.0
 40
0.0
 40
0.0
 40
0.0
 40
0.2
 40
0.2
 40
0.2
 40
0.2
 40
0.4
 40
0.4
 40
0.4
 40
0.4
 40
0.6
 40
0.6
 40
0.6
 40
0.6
 40
1.0
 40
1.0
 40
1.0
 40
1.0
 10
78.0028
 20
-18.9565
 30
0.0
 10
79.1322
 20
-22.8617
 30
0.0
 10
80.342
 20
-24.3034
 30
0.0
 10
83.231
 20
-26.4609
 30
0.0
 10
83.231
 20
-26.4609
 30
0.0
 10
79.0842
 20
-25.7413
 30
0.0
 10
75.0825
 20
-28.1982
 30
0.0
 10
72.3998
 20
-31.6713
 30
0.0
 10
72.3998
 20
-31.6713
 30
0.0
 10
72.3998
 20
-31.6713
 30
0.0
 10
72.3998
 20
-18.7621
 30
0.0
 10
72.3998
 20
-18.7621
 30
0.0
 10
72.3998
 20
-18.7621
 30
0.0
 10
72.9236
 20
-15.882
 30
0.0
 10
77.51
 20
-16.0414
 30
0.0
 10
78.0028
 20
-18.9565
 30
0.0
  0
SPLINE
  5
87
330
1F
100
AcDbEntity
  8
layer 1
 62
     7
100
AcDbSpline
210
0.0
220
0.0
230
1.0
 70
    11
 71
     3
 72
    20
 73
    16
 74
     0
 42
0.0000000001
 43
0.0000000001
 12
1.0
 22
0.0
 32
0.0
 13
1.0
 23
0.0
 33
0.0
 40
0.0
 40
0.0
 40
0.0
 40
0.0
 40
0.2
 40
0.2
 40
0.2
 40
0.2
 40
0.4
 40
0.4
 40
0.4
 40
0.4
 40
0.6
 40
0.6
 40
0.6
 40
0.6
 40
1.0
 40
1.0
 40
1.0
 40
1.0
 10
127.3416
 20
-18.0056
 30
0.0
 10
125.4257
 20
-21.1629
 30
0.0
 10
121.9358
 20
-27.3473
 30
0.0
 10
120.9635
 20
-29.3599
 30
0.0
 10
120.9635
 20
-29.3599
 30
0.0
 10
120.2573
 20
-28.5298
 30
0.0
 10
119.7331
 20
-27.4912
 30
0.0
 10
119.3201
 20
-26.7932
 30
0.0
 10
119.3201
 20
-26.7932
 30
0.0
 10
122.236
 20
-24.0587
 30
0.0
 10
123.7449
 20
-22.2561
 30
0.0
 10
127.3416
 20
-18.0058
 30
0.0
 10
127.3416
 20
-18.0058
 30
0.0
 10
127.3416
 20
-18.0058
 30
0.0
 10
127.3416
 20
-18.0056
 30
0.0
 10
127.3416
 20
-18.0056
 30
0.0
  0
SPLINE
  5
88
330
1F
100
AcDbEntity
  8
layer 1
 62
     7
100
AcDbSpline
210
0.0
220
0.0
230
1.0
 70
    11
 71
     3
 72
    32
 73
    28
 74
     0
 42
0.0000000001
 43
0.0000000001
 12
1.0
 22
0.0
 32
0.0
 13
1.0
 23
0.0
 33
0.0
 40
0.0
 40
0.0
 40
0.0
 40
0.0
 40
0.125
 40
0.125
 40
0.125
 40
0.125
 40
0.25
 40
0.25
 40
0.25
 40
0.25
 40
0.375
 40
0.375
 40
0.375
 40
0.375
 40
0.5
 40
0.5
 40
0.5
 40
0.5
 40
0.625
 40
0.625
 40
0.625
 40
0.625
 40
0.75
 40
0.75
 40
0.75
 40
0.75
 40
1.0
 40
1.0
 40
1.0
 40
1.0
 10
126.0676
 20
-31.2326
 30
0.0
 10
126.6437
 20
-32.034
 30
0.0
 10
128.3114
 20
-31.1452
 30
0.0
 10
129.3058
 20
-30.5731
 30
0.0
 10
129.3058
 20
-30.5731
 30
0.0
 10
128.3191
 20
-33.5282
 30
0.0
 10
128.4035
 20
-35.5804
 30
0.0
 10
129.4313
 20
-37.3766
 30
0.0
 10
129.4313
 20
-37.3766
 30
0.0
 10
126.5626
 20
-35.1552
 30
0.0
 10
124.6839
 20
-33.5158
 30
0.0
 10
122.5816
 20
-31.0872
 30
0.0
 10
122.5816
 20
-31.0872
 30
0.0
 10
125.3157
 20
-28.0373
 30
0.0
 10
127.5935
 20
-24.2283
 30
0.0
 10
129.0351
 20
-20.1253
 30
0.0
 10
129.0351
 20
-20.1253
 30
0.0
 10
128.759
 20
-22.8203
 30
0.0
 10
128.661
 20
-24.7486
 30
0.0
 10
129.2198
 20
-27.06
 30
0.0
 10
129.2198
 20
-27.06
 30
0.0
 10
127.9338
 20
-27.7198
 30
0.0
 10
125.7265
 20
-29.8897
 30
0.0
 10
126.0677
 20
-31.2326
 30
0.0
 10
126.0677
 20
-31.2326
 30
0.0
 10
126.0677
 20
-31.2326
 30
0.0
 10
126.0676
 20
-31.2326
 30
0.0
 10
126.0676
 20
-31.2326
 30
0.0
  0
SPLINE
  5
89
330
1F
100
AcDbEntity
  8
layer 1
 62
     7
100
AcDbSpline
210
0.0
220
0.0
230
1.0
 70
    11
 71
     3
 72
    44
 73
    40
 74
     0
 42
0.0000000001
 43
0.0000000001
 12
1.0
 22
0.0
 32
0.0
 13
1.0
 23
0.0
 33
0.0
 40
0.0
 40
0.0
 40
0.0
 40
0.0
 40
0.0909090909090909
 40
0.0909090909090909
 40
0.0909090909090909
 40
0.0909090909090909
 40
0.1818181818181818
 40
0.1818181818181818
 40
0.1818181818181818
 40
0.1818181818181818
 40
0.2727272727272727
 40
0.2727272727272727
 40
0.2727272727272727
 40
0.2727272727272727
 40
0.3636363636363636
 40
0.3636363636363636
 40
0.3636363636363636
 40
0.3636363636363636
 40
0.4545454545454545
 40
0.4545454545454545
 40
0.4545454545454545
 40
0.4545454545454545
 40
0.5454545454545454
 40
0.5454545454545454
 40
0.5454545454545454
 40
0.5454545454545454
 40
0.6363636363636364
 40
0.6363636363636364
 40
0.6363636363636364
 40
0.6363636363636364
 40
0.7272727272727273
 40
0.7272727272727273
 40
0.7272727272727273
 40
0.7272727272727273
 40
0.8181818181818182
 40
0.8181818181818182
 40
0.8181818181818182
 40
0.8181818181818182
 40
1.0
 40
1.0
 40
1.0
 40
1.0
 10
101.5894
 20
-32.5865
 30
0.0
 10
99.4912
 20
-34.3769
 30
0.0
 10
96.7058
 20
-36.1285
 30
0.0
 10
95.1615
 20
-38.6389
 30
0.0
 10
95.1615
 20
-38.6389
 30
0.0
 10
90.4917
 20
-31.9081
 30
0.0
 10
80.5494
 20
-33.7322
 30
0.0
 10
80.4772
 20
-41.2003
 30
0.0
 10
80.4772
 20
-41.2003
 30
0.0
 10
80.5939
 20
-46.4074
 30
0.0
 10
86.1222
 20
-46.9384
 30
0.0
 10
88.0689
 20
-44.5548
 30
0.0
 10
88.0689
 20
-44.5548
 30
0.0
 10
89.0042
 20
-43.2966
 30
0.0
 10
88.4853
 20
-42.4985
 30
0.0
 10
86.821
 20
-42.6351
 30
0.0
 10
86.821
 20
-42.6351
 30
0.0
 10
82.1362
 20
-41.5686
 30
0.0
 10
86.9475
 20
-36.621
 30
0.0
 10
89.9157
 20
-39.0296
 30
0.0
 10
89.9157
 20
-39.0296
 30
0.0
 10
92.638
 20
-41.3203
 30
0.0
 10
92.4641
 20
-45.9271
 30
0.0
 10
89.5716
 20
-48.1438
 30
0.0
 10
89.5716
 20
-48.1438
 30
0.0
 10
84.5812
 20
-51.5632
 30
0.0
 10
78.4684
 20
-49.3855
 30
0.0
 10
75.623
 20
-43.8017
 30
0.0
 10
75.623
 20
-43.8017
 30
0.0
 10
72.8924
 20
-37.3025
 30
0.0
 10
78.2552
 20
-30.4943
 30
0.0
 10
84.5605
 20
-30.3641
 30
0.0
 10
84.5605
 20
-30.3641
 30
0.0
 10
91.0212
 20
-30.5847
 30
0.0
 10
95.9341
 20
-33.378
 30
0.0
 10
101.5892
 20
-32.5864
 30
0.0
 10
101.5892
 20
-32.5864
 30
0.0
 10
101.5892
 20
-32.5864
 30
0.0
 10
101.5894
 20
-32.5865
 30
0.0
 10
101.5894
 20
-32.5865
 30
0.0
  0
SPLINE
  5
8A
330
1F
100
AcDbEntity
  8
layer 1
 62
     7
100
AcDbSpline
210
0.0
220
0.0
230
1.0
 70
    11
 71
     3
 72
    76
 73
    72
 74
     0
 42
0.0000000001
 43
0.0000000001
 12
1.0
 22
0.0
 32
0.0
 13
1.0
 23
0.0
 33
0.0
 40
0.0
 40
0.0
 40
0.0
 40
0.0
 40
0.0526315789473684
 40
0.0526315789473684
 40
0.0526315789473684
 40
0.0526315789473684
 40
0.1052631578947368
 40
0.1052631578947368
 40
0.1052631578947368
 40
0.1052631578947368
 40
0.1578947368421053
 40
0.1578947368421053
 40
0.1578947368421053
 40
0.1578947368421053
 40
0.2105263157894737
 40
0.2105263157894737
 40
0.2105263157894737
 40
0.2105263157894737
 40
0.2631578947368421
 40
0.2631578947368421
 40
0.2631578947368421
 40
0.2631578947368421
 40
0.3157894736842105
 40
0.3157894736842105
 40
0.3157894736842105
 40
0.3157894736842105
 40
0.3684210526315789
 40
0.3684210526315789
 40
0.3684210526315789
 40
0.3684210526315789
 40
0.4210526315789473
 40
0.4210526315789473
 40
0.4210526315789473
 40
0.4210526315789473
 40
0.4736842105263158
 40
0.4736842105263158
 40
0.4736842105263158
 40
0.4736842105263158
 40
0.5263157894736842
 40
0.5263157894736842
 40
0.5263157894736842
 40
0.5263157894736842
 40
0.5789473684210527
 40
0.5789473684210527
 40
0.5789473684210527
 40
0.5789473684210527
 40
0.631578947368421
 40
0.631578947368421
 40
0.631578947368421
 40
0.631578947368421
 40
0.6842105263157895
 40
0.6842105263157895
 40
0.6842105263157895
 40
0.6842105263157895
 40
0.7368421052631579
 40
0.7368421052631579
 40
0.7368421052631579
 40
0.7368421052631579
 40
0.7894736842105263
 40
0.7894736842105263
 40
0.7894736842105263
 40
0.7894736842105263
 40
0.8421052631578947
 40
0.8421052631578947
 40
0.8421052631578947
 40
0.8421052631578947
 40
0.8947368421052632
 40
0.8947368421052632
 40
0.8947368421052632
 40
0.8947368421052632
 40
1.0
 40
1.0
 40
1.0
 40
1.0
 10
119.0886
 20
-31.6015
 30
0.0
 10
112.7591
 20
-36.736
 30
0.0
 10
112.1223
 20
-44.6518
 30
0.0
 10
116.1391
 20
-49.6726
 30
0.0
 10
116.1391
 20
-49.6726
 30
0.0
 10
114.5522
 20
-49.4259
 30
0.0
 10
113.0786
 20
-49.9409
 30
0.0
 10
111.9811
 20
-50.7827
 30
0.0
 10
111.9811
 20
-50.7827
 30
0.0
 10
111.9707
 20
-47.2702
 30
0.0
 10
108.6398
 20
-43.653
 30
0.0
 10
104.873
 20
-43.6238
 30
0.0
 10
104.873
 20
-43.6238
 30
0.0
 10
100.7151
 20
-43.5916
 30
0.0
 10
98.6838
 20
-47.7276
 30
0.0
 10
100.5899
 20
-50.2416
 30
0.0
 10
100.5899
 20
-50.2416
 30
0.0
 10
101.1324
 20
-50.9571
 30
0.0
 10
101.9589
 20
-51.1438
 30
0.0
 10
102.6662
 20
-51.1438
 30
0.0
 10
102.6662
 20
-51.1438
 30
0.0
 10
104.4067
 20
-51.1438
 30
0.0
 10
105.1486
 20
-49.9529
 30
0.0
 10
103.7816
 20
-49.3532
 30
0.0
 10
103.7816
 20
-49.3532
 30
0.0
 10
102.0868
 20
-48.6097
 30
0.0
 10
103.2025
 20
-46.2718
 30
0.0
 10
105.2522
 20
-46.2718
 30
0.0
 10
105.2522
 20
-46.2718
 30
0.0
 10
108.0673
 20
-46.2718
 30
0.0
 10
109.3236
 20
-49.8068
 30
0.0
 10
107.3845
 20
-52.2719
 30
0.0
 10
107.3845
 20
-52.2719
 30
0.0
 10
105.8656
 20
-54.2028
 30
0.0
 10
103.4563
 20
-55.249
 30
0.0
 10
100.4923
 20
-53.4422
 30
0.0
 10
100.4923
 20
-53.4422
 30
0.0
 10
96.7851
 20
-50.4994
 30
0.0
 10
96.421
 20
-46.6135
 30
0.0
 10
97.8298
 20
-42.443
 30
0.0
 10
97.8298
 20
-42.443
 30
0.0
 10
99.0933
 20
-39.504
 30
0.0
 10
100.8997
 20
-37.3313
 30
0.0
 10
103.2985
 20
-35.4314
 30
0.0
 10
103.2985
 20
-35.4314
 30
0.0
 10
102.883
 20
-37.5542
 30
0.0
 10
103.7112
 20
-39.9584
 30
0.0
 10
105.3331
 20
-40.9374
 30
0.0
 10
105.3331
 20
-40.9374
 30
0.0
 10
106.2624
 20
-41.4703
 30
0.0
 10
107.0934
 20
-41.504
 30
0.0
 10
107.7261
 20
-41.1033
 30
0.0
 10
107.7261
 20
-41.1033
 30
0.0
 10
108.6203
 20
-40.04
 30
0.0
 10
106.8004
 20
-38.5731
 30
0.0
 10
106.786
 20
-37.0368
 30
0.0
 10
106.786
 20
-37.0368
 30
0.0
 10
106.44
 20
-34.9515
 30
0.0
 10
107.215
 20
-34.6792
 30
0.0
 10
108.5027
 20
-34.2506
 30
0.0
 10
108.5027
 20
-34.2506
 30
0.0
 10
111.9363
 20
-33.4027
 30
0.0
 10
114.6074
 20
-31.2823
 30
0.0
 10
117.4295
 20
-28.7855
 30
0.0
 10
117.4295
 20
-28.7855
 30
0.0
 10
117.9774
 20
-30.1962
 30
0.0
 10
118.3916
 20
-30.7849
 30
0.0
 10
119.0886
 20
-31.6018
 30
0.0
 10
119.0886
 20
-31.6018
 30
0.0
 10
119.0886
 20
-31.6018
 30
0.0
 10
119.0886
 20
-31.6015
 30
0.0
 10
119.0886
 20
-31.6015
 30
0.0
  0
SPLINE
  5
8B
330
1F
100
AcDbEntity
  8
layer 1
 62
     7
100
AcDbSpline
210
0.0
220
0.0
230
1.0
 70
    11
 71
     3
 72
    56
 73
    52
 74
     0
 42
0.0000000001
 43
0.0000000001
 12
1.0
 22
0.0
 32
0.0
 13
1.0
 23
0.0
 33
0.0
 40
0.0
 40
0.0
 40
0.0
 40
0.0
 40
0.0714285714285714
 40
0.0714285714285714
 40
0.0714285714285714
 40
0.0714285714285714
 40
0.1428571428571428
 40
0.1428571428571428
 40
0.1428571428571428
 40
0.1428571428571428
 40
0.2142857142857143
 40
0.2142857142857143
 40
0.2142857142857143
 40
0.2142857142857143
 40
0.2857142857142857
 40
0.2857142857142857
 40
0.2857142857142857
 40
0.2857142857142857
 40
0.3571428571428572
 40
0.3571428571428572
 40
0.3571428571428572
 40
0.3571428571428572
 40
0.4285714285714285
 40
0.4285714285714285
 40
0.4285714285714285
 40
0.4285714285714285
 40
0.5
 40
0.5
 40
0.5
 40
0.5
 40
0.5714285714285714
 40
0.5714285714285714
 40
0.5714285714285714
 40
0.5714285714285714
 40
0.6428571428571429
 40
0.6428571428571429
 40
0.6428571428571429
 40
0.6428571428571429
 40
0.7142857142857143
 40
0.7142857142857143
 40
0.7142857142857143
 40
0.7142857142857143
 40
0.7857142857142857
 40
0.7857142857142857
 40
0.7857142857142857
 40
0.7857142857142857
 40
0.8571428571428571
 40
0.8571428571428571
 40
0.8571428571428571
 40
0.8571428571428571
 40
1.0
 40
1.0
 40
1.0
 40
1.0
 10
127.2605
 20
-39.2957
 30
0.0
 10
127.2605
 20
-39.2957
 30
0.0
 10
129.2823
 20
-40.5239
 30
0.0
 10
129.2823
 20
-40.5239
 30
0.0
 10
129.2823
 20
-40.5239
 30
0.0
 10
129.2823
 20
-40.5239
 30
0.0
 10
127.9761
 20
-41.6088
 30
0.0
 10
127.9761
 20
-41.6088
 30
0.0
 10
127.9761
 20
-41.6088
 30
0.0
 10
126.4466
 20
-42.8794
 30
0.0
 10
124.8448
 20
-45.26
 30
0.0
 10
124.1524
 20
-47.2918
 30
0.0
 10
124.1524
 20
-47.2918
 30
0.0
 10
123.8284
 20
-48.2429
 30
0.0
 10
123.4716
 20
-48.7334
 30
0.0
 10
123.1005
 20
-48.7383
 30
0.0
 10
123.1005
 20
-48.7383
 30
0.0
 10
122.7917
 20
-48.7424
 30
0.0
 10
121.9344
 20
-48.8458
 30
0.0
 10
121.1955
 20
-48.9682
 30
0.0
 10
121.1955
 20
-48.9682
 30
0.0
 10
119.9247
 20
-49.1786
 30
0.0
 10
119.8031
 20
-49.1265
 30
0.0
 10
118.9471
 20
-48.0041
 30
0.0
 10
118.9471
 20
-48.0041
 30
0.0
 10
117.7983
 20
-46.498
 30
0.0
 10
117.2122
 20
-44.8605
 30
0.0
 10
117.1941
 20
-43.1061
 30
0.0
 10
117.1941
 20
-43.1061
 30
0.0
 10
117.1793
 20
-41.6777
 30
0.0
 10
118.1696
 20
-38.4032
 30
0.0
 10
119.1402
 20
-36.6714
 30
0.0
 10
119.1402
 20
-36.6714
 30
0.0
 10
119.4462
 20
-36.1253
 30
0.0
 10
119.9419
 20
-35.2043
 30
0.0
 10
120.2416
 20
-34.6248
 30
0.0
 10
120.2416
 20
-34.6248
 30
0.0
 10
120.2416
 20
-34.6248
 30
0.0
 10
120.7865
 20
-33.571
 30
0.0
 10
120.7865
 20
-33.571
 30
0.0
 10
120.7865
 20
-33.571
 30
0.0
 10
120.7865
 20
-33.571
 30
0.0
 10
123.0125
 20
-35.8192
 30
0.0
 10
123.0125
 20
-35.8192
 30
0.0
 10
123.0125
 20
-35.8192
 30
0.0
 10
124.2368
 20
-37.0557
 30
0.0
 10
126.1484
 20
-38.6201
 30
0.0
 10
127.2603
 20
-39.2957
 30
0.0
 10
127.2603
 20
-39.2957
 30
0.0
 10
127.2603
 20
-39.2957
 30
0.0
 10
127.2605
 20
-39.2957
 30
0.0
 10
127.2605
 20
-39.2957
 30
0.0
  0
SPLINE
  5
8C
330
1F
100
AcDbEntity
  8
layer 1
 62
     7
100
AcDbSpline
210
0.0
220
0.0
230
1.0
 70
    11
 71
     3
 72
    16
 73
    12
 74
     0
 42
0.0000000001
 43
0.0000000001
 12
1.0
 22
0.0
 32
0.0
 13
1.0
 23
0.0
 33
0.0
 40
0.0
 40
0.0
 40
0.0
 40
0.0
 40
0.25
 40
0.25
 40
0.25
 40
0.25
 40
0.5
 40
0.5
 40
0.5
 40
0.5
 40
1.0
 40
1.0
 40
1.0
 40
1.0
 10
78.8533
 20
-52.2566
 30
0.0
 10
76.1689
 20
-53.1504
 30
0.0
 10
73.2618
 20
-56.0318
 30
0.0
 10
72.3997
 20
-59.9623
 30
0.0
 10
72.3997
 20
-59.9623
 30
0.0
 10
72.3997
 20
-59.9623
 30
0.0
 10
72.3997
 20
-47.4588
 30
0.0
 10
72.3997
 20
-47.4588
 30
0.0
 10
72.3997
 20
-47.4588
 30
0.0
 10
74.2332
 20
-49.6674
 30
0.0
 10
76.3373
 20
-51.1807
 30
0.0
 10
78.8533
 20
-52.2566
 30
0.0
  0
SPLINE
  5
8D
330
1F
100
AcDbEntity
  8
layer 1
 62
     7
100
AcDbSpline
210
0.0
220
0.0
230
1.0
 70
    11
 71
     3
 72
    28
 73
    24
 74
     0
 42
0.0000000001
 43
0.0000000001
 12
1.0
 22
0.0
 32
0.0
 13
1.0
 23
0.0
 33
0.0
 40
0.0
 40
0.0
 40
0.0
 40
0.0
 40
0.1428571428571428
 40
0.1428571428571428
 40
0.1428571428571428
 40
0.1428571428571428
 40
0.2857142857142857
 40
0.2857142857142857
 40
0.2857142857142857
 40
0.2857142857142857
 40
0.4285714285714285
 40
0.4285714285714285
 40
0.4285714285714285
 40
0.4285714285714285
 40
0.5714285714285714
 40
0.5714285714285714
 40
0.5714285714285714
 40
0.5714285714285714
 40
0.7142857142857143
 40
0.7142857142857143
 40
0.7142857142857143
 40
0.7142857142857143
 40
1.0
 40
1.0
 40
1.0
 40
1.0
 10
106.8445
 20
-56.9229
 30
0.0
 10
105.8493
 20
-60.4991
 30
0.0
 10
106.7782
 20
-62.7069
 30
0.0
 10
109.0216
 20
-66.1019
 30
0.0
 10
109.0216
 20
-66.1019
 30
0.0
 10
104.971
 20
-64.9831
 30
0.0
 10
101.1108
 20
-64.5841
 30
0.0
 10
96.8694
 20
-65.8224
 30
0.0
 10
96.8694
 20
-65.8224
 30
0.0
 10
99.6271
 20
-57.1698
 30
0.0
 10
92.8068
 20
-52.7523
 30
0.0
 10
90.1563
 20
-52.577
 30
0.0
 10
90.1563
 20
-52.577
 30
0.0
 10
91.8575
 20
-52.1133
 30
0.0
 10
93.3886
 20
-50.6712
 30
0.0
 10
94.3736
 20
-49.1715
 30
0.0
 10
94.3736
 20
-49.1715
 30
0.0
 10
95.0417
 20
-55.4569
 30
0.0
 10
102.1015
 20
-58.7751
 30
0.0
 10
106.8445
 20
-56.923
 30
0.0
 10
106.8445
 20
-56.923
 30
0.0
 10
106.8445
 20
-56.923
 30
0.0
 10
106.8445
 20
-56.9229
 30
0.0
 10
106.8445
 20
-56.9229
 30
0.0
  0
SPLINE
  5
8E
330
1F
100
AcDbEntity
  8
layer 1
 62
     7
100
AcDbSpline
210
0.0
220
0.0
230
1.0
 70
    11
 71
     3
 72
    20
 73
    16
 74
     0
 42
0.0000000001
 43
0.0000000001
 12
1.0
 22
0.0
 32
0.0
 13
1.0
 23
0.0
 33
0.0
 40
0.0
 40
0.0
 40
0.0
 40
0.0
 40
0.2
 40
0.2
 40
0.2
 40
0.2
 40
0.4
 40
0.4
 40
0.4
 40
0.4
 40
0.6
 40
0.6
 40
0.6
 40
0.6
 40
1.0
 40
1.0
 40
1.0
 40
1.0
 10
122.9938
 20
-52.3617
 30
0.0
 10
122.976
 20
-52.6743
 30
0.0
 10
122.8619
 20
-53.2868
 30
0.0
 10
122.7401
 20
-53.7228
 30
0.0
 10
122.7401
 20
-53.7228
 30
0.0
 10
122.5189
 20
-54.5151
 30
0.0
 10
122.5184
 20
-54.515
 30
0.0
 10
121.8203
 20
-53.4124
 30
0.0
 10
121.8203
 20
-53.4124
 30
0.0
 10
121.0209
 20
-52.1498
 30
0.0
 10
121.1118
 20
-51.7933
 30
0.0
 10
122.2333
 20
-51.7933
 30
0.0
 10
122.2333
 20
-51.7933
 30
0.0
 10
122.7842
 20
-51.7933
 30
0.0
 10
123.0163
 20
-51.9668
 30
0.0
 10
122.9938
 20
-52.3617
 30
0.0
  0
SPLINE
  5
8F
330
1F
100
AcDbEntity
  8
layer 1
 62
     7
100
AcDbSpline
210
0.0
220
0.0
230
1.0
 70
    11
 71
     3
 72
    72
 73
    68
 74
     0
 42
0.0000000001
 43
0.0000000001
 12
1.0
 22
0.0
 32
0.0
 13
1.0
 23
0.0
 33
0.0
 40
0.0
 40
0.0
 40
0.0
 40
0.0
 40
0.0555555555555556
 40
0.0555555555555556
 40
0.0555555555555556
 40
0.0555555555555556
 40
0.1111111111111111
 40
0.1111111111111111
 40
0.1111111111111111
 40
0.1111111111111111
 40
0.1666666666666667
 40
0.1666666666666667
 40
0.1666666666666667
 40
0.1666666666666667
 40
0.2222222222222222
 40
0.2222222222222222
 40
0.2222222222222222
 40
0.2222222222222222
 40
0.2777777777777778
 40
0.2777777777777778
 40
0.2777777777777778
 40
0.2777777777777778
 40
0.3333333333333333
 40
0.3333333333333333
 40
0.3333333333333333
 40
0.3333333333333333
 40
0.3888888888888889
 40
0.3888888888888889
 40
0.3888888888888889
 40
0.3888888888888889
 40
0.4444444444444444
 40
0.4444444444444444
 40
0.4444444444444444
 40
0.4444444444444444
 40
0.5
 40
0.5
 40
0.5
 40
0.5
 40
0.5555555555555556
 40
0.5555555555555556
 40
0.5555555555555556
 40
0.5555555555555556
 40
0.6111111111111112
 40
0.6111111111111112
 40
0.6111111111111112
 40
0.6111111111111112
 40
0.6666666666666666
 40
0.6666666666666666
 40
0.6666666666666666
 40
0.6666666666666666
 40
0.7222222222222222
 40
0.7222222222222222
 40
0.7222222222222222
 40
0.7222222222222222
 40
0.7777777777777778
 40
0.7777777777777778
 40
0.7777777777777778
 40
0.7777777777777778
 40
0.8333333333333334
 40
0.8333333333333334
 40
0.8333333333333334
 40
0.8333333333333334
 40
0.8888888888888888
 40
0.8888888888888888
 40
0.8888888888888888
 40
0.8888888888888888
 40
1.0
 40
1.0
 40
1.0
 40
1.0
 10
130.812
 20
-59.5708
 30
0.0
 10
131.3001
 20
-60.4829
 30
0.0
 10
130.9637
 20
-60.9867
 30
0.0
 10
130.1555
 20
-60.5541
 30
0.0
 10
130.1555
 20
-60.5541
 30
0.0
 10
128.5809
 20
-59.7114
 30
0.0
 10
128.0224
 20
-56.4465
 30
0.0
 10
129.1975
 20
-54.9526
 30
0.0
 10
129.1975
 20
-54.9526
 30
0.0
 10
130.106
 20
-53.7977
 30
0.0
 10
130.0252
 20
-53.5214
 30
0.0
 10
128.5609
 20
-52.7743
 30
0.0
 10
128.5609
 20
-52.7743
 30
0.0
 10
128.5609
 20
-52.7743
 30
0.0
 10
128.5609
 20
-52.7743
 30
0.0
 10
128.5609
 20
-52.7743
 30
0.0
 10
128.5609
 20
-52.7743
 30
0.0
 10
126.562
 20
-51.7545
 30
0.0
 10
125.6863
 20
-51.8911
 30
0.0
 10
125.0912
 20
-53.3156
 30
0.0
 10
125.0912
 20
-53.3156
 30
0.0
 10
123.2963
 20
-57.6114
 30
0.0
 10
124.6586
 20
-61.7328
 30
0.0
 10
130.1651
 20
-66.5133
 30
0.0
 10
130.1651
 20
-66.5133
 30
0.0
 10
130.1651
 20
-66.5133
 30
0.0
 10
132.2948
 20
-68.3623
 30
0.0
 10
132.2948
 20
-68.3623
 30
0.0
 10
132.2948
 20
-68.3623
 30
0.0
 10
132.2948
 20
-68.3623
 30
0.0
 10
134.4246
 20
-66.5133
 30
0.0
 10
134.4246
 20
-66.5133
 30
0.0
 10
134.4246
 20
-66.5133
 30
0.0
 10
139.7755
 20
-61.5592
 30
0.0
 10
141.2933
 20
-57.6114
 30
0.0
 10
139.4985
 20
-53.3156
 30
0.0
 10
139.4985
 20
-53.3156
 30
0.0
 10
138.9033
 20
-51.8911
 30
0.0
 10
138.0277
 20
-51.7545
 30
0.0
 10
136.0288
 20
-52.7743
 30
0.0
 10
136.0288
 20
-52.7743
 30
0.0
 10
136.0288
 20
-52.7743
 30
0.0
 10
136.0288
 20
-52.7743
 30
0.0
 10
136.0288
 20
-52.7743
 30
0.0
 10
136.0288
 20
-52.7743
 30
0.0
 10
134.5644
 20
-53.5214
 30
0.0
 10
134.4836
 20
-53.7977
 30
0.0
 10
135.3922
 20
-54.9526
 30
0.0
 10
135.3922
 20
-54.9526
 30
0.0
 10
136.5672
 20
-56.4464
 30
0.0
 10
136.0088
 20
-59.7114
 30
0.0
 10
134.4342
 20
-60.5541
 30
0.0
 10
134.4342
 20
-60.5541
 30
0.0
 10
133.6259
 20
-60.9867
 30
0.0
 10
133.2895
 20
-60.4829
 30
0.0
 10
133.7776
 20
-59.5708
 30
0.0
 10
133.7776
 20
-59.5708
 30
0.0
 10
134.2677
 20
-57.51
 30
0.0
 10
133.9957
 20
-55.9276
 30
0.0
 10
132.2949
 20
-55.0016
 30
0.0
 10
132.2949
 20
-55.0016
 30
0.0
 10
130.5941
 20
-55.9277
 30
0.0
 10
130.3221
 20
-57.5101
 30
0.0
 10
130.8123
 20
-59.5708
 30
0.0
 10
130.8123
 20
-59.5708
 30
0.0
 10
130.8123
 20
-59.5708
 30
0.0
 10
130.812
 20
-59.5708
 30
0.0
 10
130.812
 20
-59.5708
 30
0.0
  0
SPLINE
  5
90
330
1F
100
AcDbEntity
  8
layer 1
 62
     7
100
AcDbSpline
210
0.0
220
0.0
230
1.0
 70
    11
 71
     3
 72
    36
 73
    32
 74
     0
 42
0.0000000001
 43
0.0000000001
 12
1.0
 22
0.0
 32
0.0
 13
1.0
 23
0.0
 33
0.0
 40
0.0
 40
0.0
 40
0.0
 40
0.0
 40
0.1111111111111111
 40
0.1111111111111111
 40
0.1111111111111111
 40
0.1111111111111111
 40
0.2222222222222222
 40
0.2222222222222222
 40
0.2222222222222222
 40
0.2222222222222222
 40
0.3333333333333333
 40
0.3333333333333333
 40
0.3333333333333333
 40
0.3333333333333333
 40
0.4444444444444444
 40
0.4444444444444444
 40
0.4444444444444444
 40
0.4444444444444444
 40
0.5555555555555556
 40
0.5555555555555556
 40
0.5555555555555556
 40
0.5555555555555556
 40
0.6666666666666666
 40
0.6666666666666666
 40
0.6666666666666666
 40
0.6666666666666666
 40
0.7777777777777778
 40
0.7777777777777778
 40
0.7777777777777778
 40
0.7777777777777778
 40
1.0
 40
1.0
 40
1.0
 40
1.0
 10
119.4533
 20
-59.5885
 30
0.0
 10
117.4866
 20
-61.3455
 30
0.0
 10
114.8505
 20
-58.9298
 30
0.0
 10
116.2485
 20
-57.4017
 30
0.0
 10
116.2485
 20
-57.4017
 30
0.0
 10
116.8442
 20
-56.5233
 30
0.0
 10
115.9098
 20
-55.8175
 30
0.0
 10
115.1872
 20
-56.072
 30
0.0
 10
115.1872
 20
-56.072
 30
0.0
 10
114.2431
 20
-56.4233
 30
0.0
 10
113.1221
 20
-57.6919
 30
0.0
 10
112.9573
 20
-59.0325
 30
0.0
 10
112.9573
 20
-59.0325
 30
0.0
 10
112.5632
 20
-64.7076
 30
0.0
 10
120.4837
 20
-64.7185
 30
0.0
 10
122.4941
 20
-60.9286
 30
0.0
 10
122.4941
 20
-60.9286
 30
0.0
 10
122.8694
 20
-63.5908
 30
0.0
 10
125.4537
 20
-67.1841
 30
0.0
 10
127.8831
 20
-68.8114
 30
0.0
 10
127.8831
 20
-68.8114
 30
0.0
 10
120.2128
 20
-70.2694
 30
0.0
 10
112.2848
 20
-67.2575
 30
0.0
 10
110.6894
 20
-60.4284
 30
0.0
 10
110.6894
 20
-60.4284
 30
0.0
 10
110.0921
 20
-57.5511
 30
0.0
 10
110.8292
 20
-55.3601
 30
0.0
 10
112.8408
 20
-54.0338
 30
0.0
 10
112.8408
 20
-54.0338
 30
0.0
 10
119.1155
 20
-51.4238
 30
0.0
 10
121.7879
 20
-56.9784
 30
0.0
 10
119.4533
 20
-59.5885
 30
0.0
  0
SPLINE
  5
91
330
1F
100
AcDbEntity
  8
layer 1
 62
     7
100
AcDbSpline
210
0.0
220
0.0
230
1.0
 70
    11
 71
     3
 72
    48
 73
    44
 74
     0
 42
0.0000000001
 43
0.0000000001
 12
1.0
 22
0.0
 32
0.0
 13
1.0
 23
0.0
 33
0.0
 40
0.0
 40
0.0
 40
0.0
 40
0.0
 40
0.0833333333333333
 40
0.0833333333333333
 40
0.0833333333333333
 40
0.0833333333333333
 40
0.1666666666666667
 40
0.1666666666666667
 40
0.1666666666666667
 40
0.1666666666666667
 40
0.25
 40
0.25
 40
0.25
 40
0.25
 40
0.3333333333333333
 40
0.3333333333333333
 40
0.3333333333333333
 40
0.3333333333333333
 40
0.4166666666666667
 40
0.4166666666666667
 40
0.4166666666666667
 40
0.4166666666666667
 40
0.5
 40
0.5
 40
0.5
 40
0.5
 40
0.5833333333333334
 40
0.5833333333333334
 40
0.5833333333333334
 40
0.5833333333333334
 40
0.6666666666666666
 40
0.6666666666666666
 40
0.6666666666666666
 40
0.6666666666666666
 40
0.75
 40
0.75
 40
0.75
 40
0.75
 40
0.8333333333333334
 40
0.8333333333333334
 40
0.8333333333333334
 40
0.8333333333333334
 40
1.0
 40
1.0
 40
1.0
 40
1.0
 10
93.4473
 20
-59.3806
 30
0.0
 10
95.3738
 20
-64.0849
 30
0.0
 10
91.1412
 20
-67.6472
 30
0.0
 10
86.4117
 20
-65.637
 30
0.0
 10
86.4117
 20
-65.637
 30
0.0
 10
84.7488
 20
-64.8872
 30
0.0
 10
84.0888
 20
-63.4839
 30
0.0
 10
84.8515
 20
-62.3199
 30
0.0
 10
84.8515
 20
-62.3199
 30
0.0
 10
85.5939
 20
-61.187
 30
0.0
 10
86.5691
 20
-61.0317
 30
0.0
 10
87.6984
 20
-61.8666
 30
0.0
 10
87.6984
 20
-61.8666
 30
0.0
 10
88.49
 20
-62.4518
 30
0.0
 10
88.7791
 20
-62.1415
 30
0.0
 10
89.0074
 20
-61.7812
 30
0.0
 10
89.0074
 20
-61.7812
 30
0.0
 10
89.4104
 20
-61.1451
 30
0.0
 10
89.1895
 20
-60.1088
 30
0.0
 10
88.727
 20
-59.5219
 30
0.0
 10
88.727
 20
-59.5219
 30
0.0
 10
86.8481
 20
-57.1374
 30
0.0
 10
83.0012
 20
-57.556
 30
0.0
 10
81.6112
 20
-60.2439
 30
0.0
 10
81.6112
 20
-60.2439
 30
0.0
 10
79.1767
 20
-64.512
 30
0.0
 10
81.6356
 20
-68.1336
 30
0.0
 10
85.8818
 20
-69.3325
 30
0.0
 10
85.8818
 20
-69.3325
 30
0.0
 10
84.4435
 20
-69.7045
 30
0.0
 10
83.0425
 20
-70.6695
 30
0.0
 10
81.9841
 20
-71.2402
 30
0.0
 10
81.9841
 20
-71.2402
 30
0.0
 10
77.9872
 20
-69.7724
 30
0.0
 10
76.6502
 20
-66.0982
 30
0.0
 10
76.5589
 20
-62.9338
 30
0.0
 10
76.5589
 20
-62.9338
 30
0.0
 10
76.5798
 20
-59.5524
 30
0.0
 10
79.4782
 20
-55.905
 30
0.0
 10
83.7816
 20
-54.7453
 30
0.0
 10
83.7816
 20
-54.7453
 30
0.0
 10
87.5864
 20
-53.7523
 30
0.0
 10
91.7489
 20
-56.0063
 30
0.0
 10
93.4473
 20
-59.3806
 30
0.0
  0
SPLINE
  5
92
330
1F
100
AcDbEntity
  8
layer 1
 62
     7
100
AcDbSpline
210
0.0
220
0.0
230
1.0
 70
    11
 71
     3
 72
    16
 73
    12
 74
     0
 42
0.0000000001
 43
0.0000000001
 12
1.0
 22
0.0
 32
0.0
 13
1.0
 23
0.0
 33
0.0
 40
0.0
 40
0.0
 40
0.0
 40
0.0
 40
0.25
 40
0.25
 40
0.25
 40
0.25
 40
0.5
 40
0.5
 40
0.5
 40
0.5
 40
1.0
 40
1.0
 40
1.0
 40
1.0
 10
78.6133
 20
-73.6998
 30
0.0
 10
75.7304
 20
-75.3697
 30
0.0
 10
74.0045
 20
-77.8846
 30
0.0
 10
72.3997
 20
-80.7705
 30
0.0
 10
72.3997
 20
-80.7705
 30
0.0
 10
72.3997
 20
-80.7705
 30
0.0
 10
72.3997
 20
-66.9223
 30
0.0
 10
72.3997
 20
-66.9223
 30
0.0
 10
72.3997
 20
-66.9223
 30
0.0
 10
74.2076
 20
-70.4783
 30
0.0
 10
76.0942
 20
-72.7795
 30
0.0
 10
78.6133
 20
-73.6998
 30
0.0
  0
SPLINE
  5
93
330
1F
100
AcDbEntity
  8
layer 1
 62
     7
100
AcDbSpline
210
0.0
220
0.0
230
1.0
 70
    11
 71
     3
 72
    36
 73
    32
 74
     0
 42
0.0000000001
 43
0.0000000001
 12
1.0
 22
0.0
 32
0.0
 13
1.0
 23
0.0
 33
0.0
 40
0.0
 40
0.0
 40
0.0
 40
0.0
 40
0.1111111111111111
 40
0.1111111111111111
 40
0.1111111111111111
 40
0.1111111111111111
 40
0.2222222222222222
 40
0.2222222222222222
 40
0.2222222222222222
 40
0.2222222222222222
 40
0.3333333333333333
 40
0.3333333333333333
 40
0.3333333333333333
 40
0.3333333333333333
 40
0.4444444444444444
 40
0.4444444444444444
 40
0.4444444444444444
 40
0.4444444444444444
 40
0.5555555555555556
 40
0.5555555555555556
 40
0.5555555555555556
 40
0.5555555555555556
 40
0.6666666666666666
 40
0.6666666666666666
 40
0.6666666666666666
 40
0.6666666666666666
 40
0.7777777777777778
 40
0.7777777777777778
 40
0.7777777777777778
 40
0.7777777777777778
 40
1.0
 40
1.0
 40
1.0
 40
1.0
 10
107.7984
 20
-69.8901
 30
0.0
 10
103.0922
 20
-70.7359
 30
0.0
 10
100.1245
 20
-71.8395
 30
0.0
 10
97.6917
 20
-74.8541
 30
0.0
 10
97.6917
 20
-74.8541
 30
0.0
 10
96.9664
 20
-73.59
 30
0.0
 10
95.5402
 20
-73.5247
 30
0.0
 10
94.6216
 20
-73.8739
 30
0.0
 10
94.6216
 20
-73.8739
 30
0.0
 10
93.4513
 20
-74.3188
 30
0.0
 10
93.5406
 20
-75.179
 30
0.0
 10
94.757
 20
-75.179
 30
0.0
 10
94.757
 20
-75.179
 30
0.0
 10
95.3819
 20
-75.179
 30
0.0
 10
95.8398
 20
-75.4031
 30
0.0
 10
96.0617
 20
-75.8174
 30
0.0
 10
96.0617
 20
-75.8174
 30
0.0
 10
96.8428
 20
-78.7606
 30
0.0
 10
92.7285
 20
-78.6071
 30
0.0
 10
91.4954
 20
-76.5032
 30
0.0
 10
91.4954
 20
-76.5032
 30
0.0
 10
90.3077
 20
-74.4866
 30
0.0
 10
91.2198
 20
-72.0633
 30
0.0
 10
93.2065
 20
-71.2497
 30
0.0
 10
93.2065
 20
-71.2497
 30
0.0
 10
95.8902
 20
-69.9153
 30
0.0
 10
101.5526
 20
-69.2774
 30
0.0
 10
107.7983
 20
-69.8902
 30
0.0
 10
107.7983
 20
-69.8902
 30
0.0
 10
107.7983
 20
-69.8902
 30
0.0
 10
107.7984
 20
-69.8901
 30
0.0
 10
107.7984
 20
-69.8901
 30
0.0
  0
SPLINE
  5
94
330
1F
100
AcDbEntity
  8
layer 1
 62
     7
100
AcDbSpline
210
0.0
220
0.0
230
1.0
 70
    11
 71
     3
 72
    16
 73
    12
 74
     0
 42
0.0000000001
 43
0.0000000001
 12
1.0
 22
0.0
 32
0.0
 13
1.0
 23
0.0
 33
0.0
 40
0.0
 40
0.0
 40
0.0
 40
0.0
 40
0.25
 40
0.25
 40
0.25
 40
0.25
 40
0.5
 40
0.5
 40
0.5
 40
0.5
 40
1.0
 40
1.0
 40
1.0
 40
1.0
 10
130.1042
 20
-80.4274
 30
0.0
 10
128.4716
 20
-76.1152
 30
0.0
 10
125.5018
 20
-72.9204
 30
0.0
 10
121.4538
 20
-71.1577
 30
0.0
 10
121.4538
 20
-71.1577
 30
0.0
 10
121.4538
 20
-71.1577
 30
0.0
 10
125.8226
 20
-72.0556
 30
0.0
 10
130.0724
 20
-71.1188
 30
0.0
 10
130.0724
 20
-71.1188
 30
0.0
 10
130.0724
 20
-71.1188
 30
0.0
 10
130.1042
 20
-80.4274
 30
0.0
 10
130.1042
 20
-80.4274
 30
0.0
  0
SPLINE
  5
95
330
1F
100
AcDbEntity
  8
layer 1
 62
     7
100
AcDbSpline
210
0.0
220
0.0
230
1.0
 70
    11
 71
     3
 72
    64
 73
    60
 74
     0
 42
0.0000000001
 43
0.0000000001
 12
1.0
 22
0.0
 32
0.0
 13
1.0
 23
0.0
 33
0.0
 40
0.0
 40
0.0
 40
0.0
 40
0.0
 40
0.0625
 40
0.0625
 40
0.0625
 40
0.0625
 40
0.125
 40
0.125
 40
0.125
 40
0.125
 40
0.1875
 40
0.1875
 40
0.1875
 40
0.1875
 40
0.25
 40
0.25
 40
0.25
 40
0.25
 40
0.3125
 40
0.3125
 40
0.3125
 40
0.3125
 40
0.375
 40
0.375
 40
0.375
 40
0.375
 40
0.4375
 40
0.4375
 40
0.4375
 40
0.4375
 40
0.5
 40
0.5
 40
0.5
 40
0.5
 40
0.5625
 40
0.5625
 40
0.5625
 40
0.5625
 40
0.625
 40
0.625
 40
0.625
 40
0.625
 40
0.6875
 40
0.6875
 40
0.6875
 40
0.6875
 40
0.75
 40
0.75
 40
0.75
 40
0.75
 40
0.8125
 40
0.8125
 40
0.8125
 40
0.8125
 40
0.875
 40
0.875
 40
0.875
 40
0.875
 40
1.0
 40
1.0
 40
1.0
 40
1.0
 10
94.9437
 20
-81.2354
 30
0.0
 10
94.9437
 20
-81.2354
 30
0.0
 10
94.9453
 20
-83.9486
 30
0.0
 10
94.9453
 20
-83.9486
 30
0.0
 10
94.9453
 20
-83.9486
 30
0.0
 10
92.7739
 20
-82.202
 30
0.0
 10
89.848
 20
-81.614
 30
0.0
 10
87.566
 20
-81.7562
 30
0.0
 10
87.566
 20
-81.7562
 30
0.0
 10
78.5977
 20
-82.7452
 30
0.0
 10
76.4432
 20
-92.202
 30
0.0
 10
82.3269
 20
-96.8484
 30
0.0
 10
82.3269
 20
-96.8484
 30
0.0
 10
84.5871
 20
-98.6293
 30
0.0
 10
87.6321
 20
-98.3089
 30
0.0
 10
89.2256
 20
-96.7987
 30
0.0
 10
89.2256
 20
-96.7987
 30
0.0
 10
90.5255
 20
-95.5533
 30
0.0
 10
90.6119
 20
-93.729
 30
0.0
 10
89.4274
 20
-92.5444
 30
0.0
 10
89.4274
 20
-92.5444
 30
0.0
 10
88.5101
 20
-91.6271
 30
0.0
 10
87.6229
 20
-91.7825
 30
0.0
 10
87.6229
 20
-92.8605
 30
0.0
 10
87.6229
 20
-92.8605
 30
0.0
 10
87.6229
 20
-93.8381
 30
0.0
 10
86.3244
 20
-94.5392
 30
0.0
 10
85.4151
 20
-94.0526
 30
0.0
 10
85.4151
 20
-94.0526
 30
0.0
 10
83.4694
 20
-93.0113
 30
0.0
 10
82.8463
 20
-90.5455
 30
0.0
 10
84.0358
 20
-88.5946
 30
0.0
 10
84.0358
 20
-88.5946
 30
0.0
 10
86.2522
 20
-85.4712
 30
0.0
 10
90.1395
 20
-85.2224
 30
0.0
 10
93.1014
 20
-87.7223
 30
0.0
 10
93.1014
 20
-87.7223
 30
0.0
 10
97.6348
 20
-91.914
 30
0.0
 10
95.9757
 20
-98.1057
 30
0.0
 10
91.5105
 20
-100.3433
 30
0.0
 10
91.5105
 20
-100.3433
 30
0.0
 10
86.0306
 20
-102.993
 30
0.0
 10
82.5904
 20
-101.6484
 30
0.0
 10
78.5298
 20
-98.0264
 30
0.0
 10
78.5298
 20
-98.0264
 30
0.0
 10
74.2621
 20
-94.0752
 30
0.0
 10
73.336
 20
-88.1724
 30
0.0
 10
76.1539
 20
-82.8831
 30
0.0
 10
76.1539
 20
-82.8831
 30
0.0
 10
78.8917
 20
-77.85
 30
0.0
 10
82.7021
 20
-74.8018
 30
0.0
 10
87.3719
 20
-72.9053
 30
0.0
 10
87.3719
 20
-72.9053
 30
0.0
 10
86.1053
 20
-79.2573
 30
0.0
 10
90.9657
 20
-81.9132
 30
0.0
 10
94.9436
 20
-81.2354
 30
0.0
 10
94.9436
 20
-81.2354
 30
0.0
 10
94.9436
 20
-81.2354
 30
0.0
 10
94.9437
 20
-81.2354
 30
0.0
 10
94.9437
 20
-81.2354
 30
0.0
  0
SPLINE
  5
96
330
1F
100
AcDbEntity
  8
layer 1
 62
     7
100
AcDbSpline
210
0.0
220
0.0
230
1.0
 70
    11
 71
     3
 72
    44
 73
    40
 74
     0
 42
0.0000000001
 43
0.0000000001
 12
1.0
 22
0.0
 32
0.0
 13
1.0
 23
0.0
 33
0.0
 40
0.0
 40
0.0
 40
0.0
 40
0.0
 40
0.0909090909090909
 40
0.0909090909090909
 40
0.0909090909090909
 40
0.0909090909090909
 40
0.1818181818181818
 40
0.1818181818181818
 40
0.1818181818181818
 40
0.1818181818181818
 40
0.2727272727272727
 40
0.2727272727272727
 40
0.2727272727272727
 40
0.2727272727272727
 40
0.3636363636363636
 40
0.3636363636363636
 40
0.3636363636363636
 40
0.3636363636363636
 40
0.4545454545454545
 40
0.4545454545454545
 40
0.4545454545454545
 40
0.4545454545454545
 40
0.5454545454545454
 40
0.5454545454545454
 40
0.5454545454545454
 40
0.5454545454545454
 40
0.6363636363636364
 40
0.6363636363636364
 40
0.6363636363636364
 40
0.6363636363636364
 40
0.7272727272727273
 40
0.7272727272727273
 40
0.7272727272727273
 40
0.7272727272727273
 40
0.8181818181818182
 40
0.8181818181818182
 40
0.8181818181818182
 40
0.8181818181818182
 40
1.0
 40
1.0
 40
1.0
 40
1.0
 10
116.9546
 20
-73.3899
 30
0.0
 10
123.1686
 20
-75.7649
 30
0.0
 10
125.4768
 20
-78.3336
 30
0.0
 10
128.2231
 20
-83.0223
 30
0.0
 10
128.2231
 20
-83.0223
 30
0.0
 10
127.5604
 20
-83.9001
 30
0.0
 10
127.332
 20
-85.428
 30
0.0
 10
127.3004
 20
-86.5707
 30
0.0
 10
127.3004
 20
-86.5707
 30
0.0
 10
125.0625
 20
-84.0481
 30
0.0
 10
119.7279
 20
-82.6085
 30
0.0
 10
114.8229
 20
-84.7468
 30
0.0
 10
114.8229
 20
-84.7468
 30
0.0
 10
115.5835
 20
-80.1422
 30
0.0
 10
112.3306
 20
-76.5232
 30
0.0
 10
108.1495
 20
-76.4781
 30
0.0
 10
108.1495
 20
-76.4781
 30
0.0
 10
105.6311
 20
-76.75
 30
0.0
 10
102.5251
 20
-78.9707
 30
0.0
 10
103.5996
 20
-81.2555
 30
0.0
 10
103.5996
 20
-81.2555
 30
0.0
 10
104.1691
 20
-82.4439
 30
0.0
 10
104.9521
 20
-82.5567
 30
0.0
 10
105.425
 20
-81.5187
 30
0.0
 10
105.425
 20
-81.5187
 30
0.0
 10
106.7547
 20
-79.6699
 30
0.0
 10
108.5421
 20
-79.9586
 30
0.0
 10
109.7538
 20
-81.4637
 30
0.0
 10
109.7538
 20
-81.4637
 30
0.0
 10
111.2988
 20
-83.7138
 30
0.0
 10
109.7644
 20
-86.6717
 30
0.0
 10
107.3205
 20
-87.7148
 30
0.0
 10
107.3205
 20
-87.7148
 30
0.0
 10
101.5802
 20
-90.2014
 30
0.0
 10
96.8215
 20
-84.5402
 30
0.0
 10
99.1424
 20
-79.4225
 30
0.0
 10
99.1424
 20
-79.4225
 30
0.0
 10
102.3576
 20
-73.1889
 30
0.0
 10
110.5095
 20
-71.8201
 30
0.0
 10
116.9546
 20
-73.3899
 30
0.0
  0
SPLINE
  5
97
330
1F
100
AcDbEntity
  8
layer 1
 62
     7
100
AcDbSpline
210
0.0
220
0.0
230
1.0
 70
    11
 71
     3
 72
    68
 73
    64
 74
     0
 42
0.0000000001
 43
0.0000000001
 12
1.0
 22
0.0
 32
0.0
 13
1.0
 23
0.0
 33
0.0
 40
0.0
 40
0.0
 40
0.0
 40
0.0
 40
0.0588235294117647
 40
0.0588235294117647
 40
0.0588235294117647
 40
0.0588235294117647
 40
0.1176470588235294
 40
0.1176470588235294
 40
0.1176470588235294
 40
0.1176470588235294
 40
0.1764705882352941
 40
0.1764705882352941
 40
0.1764705882352941
 40
0.1764705882352941
 40
0.2352941176470588
 40
0.2352941176470588
 40
0.2352941176470588
 40
0.2352941176470588
 40
0.2941176470588235
 40
0.2941176470588235
 40
0.2941176470588235
 40
0.2941176470588235
 40
0.3529411764705883
 40
0.3529411764705883
 40
0.3529411764705883
 40
0.3529411764705883
 40
0.4117647058823529
 40
0.4117647058823529
 40
0.4117647058823529
 40
0.4117647058823529
 40
0.4705882352941176
 40
0.4705882352941176
 40
0.4705882352941176
 40
0.4705882352941176
 40
0.5294117647058824
 40
0.5294117647058824
 40
0.5294117647058824
 40
0.5294117647058824
 40
0.5882352941176471
 40
0.5882352941176471
 40
0.5882352941176471
 40
0.5882352941176471
 40
0.6470588235294118
 40
0.6470588235294118
 40
0.6470588235294118
 40
0.6470588235294118
 40
0.7058823529411765
 40
0.7058823529411765
 40
0.7058823529411765
 40
0.7058823529411765
 40
0.7647058823529411
 40
0.7647058823529411
 40
0.7647058823529411
 40
0.7647058823529411
 40
0.8235294117647058
 40
0.8235294117647058
 40
0.8235294117647058
 40
0.8235294117647058
 40
0.8823529411764706
 40
0.8823529411764706
 40
0.8823529411764706
 40
0.8823529411764706
 40
1.0
 40
1.0
 40
1.0
 40
1.0
 10
122.0563
 20
-87.8774
 30
0.0
 10
124.0945
 20
-88.3146
 30
0.0
 10
125.7657
 20
-89.8553
 30
0.0
 10
126.2823
 20
-91.7736
 30
0.0
 10
126.2823
 20
-91.7736
 30
0.0
 10
127.1495
 20
-94.9075
 30
0.0
 10
123.266
 20
-94.1286
 30
0.0
 10
122.0166
 20
-93.836
 30
0.0
 10
122.0166
 20
-93.836
 30
0.0
 10
120.9936
 20
-93.5925
 30
0.0
 10
120.616
 20
-94.2651
 30
0.0
 10
121.0842
 20
-95.4965
 30
0.0
 10
121.0842
 20
-95.4965
 30
0.0
 10
123.5486
 20
-98.7869
 30
0.0
 10
128.1346
 20
-98.0333
 30
0.0
 10
129.9252
 20
-94.9917
 30
0.0
 10
129.9252
 20
-94.9917
 30
0.0
 10
130.4456
 20
-96.8013
 30
0.0
 10
129.9916
 20
-98.6205
 30
0.0
 10
129.1572
 20
-100.2341
 30
0.0
 10
129.1572
 20
-100.2341
 30
0.0
 10
127.4005
 20
-99.3553
 30
0.0
 10
124.7417
 20
-99.3951
 30
0.0
 10
123.3511
 20
-100.123
 30
0.0
 10
123.3511
 20
-100.123
 30
0.0
 10
123.3511
 20
-100.6491
 30
0.0
 10
124.8916
 20
-101.7426
 30
0.0
 10
125.9647
 20
-101.9783
 30
0.0
 10
125.9647
 20
-101.9783
 30
0.0
 10
127.0803
 20
-102.2233
 30
0.0
 10
127.1904
 20
-102.6214
 30
0.0
 10
126.2777
 20
-103.1099
 30
0.0
 10
126.2777
 20
-103.1099
 30
0.0
 10
125.335
 20
-103.6144
 30
0.0
 10
124.5823
 20
-105.1875
 30
0.0
 10
125.0567
 20
-105.6618
 30
0.0
 10
125.0567
 20
-105.6618
 30
0.0
 10
126.4968
 20
-106.1509
 30
0.0
 10
128.2246
 20
-105.5835
 30
0.0
 10
129.7023
 20
-105.0319
 30
0.0
 10
129.7023
 20
-105.0319
 30
0.0
 10
129.5982
 20
-107.2416
 30
0.0
 10
129.8283
 20
-108.7441
 30
0.0
 10
130.8442
 20
-110.7873
 30
0.0
 10
130.8442
 20
-110.7873
 30
0.0
 10
130.8442
 20
-110.7873
 30
0.0
 10
113.759
 20
-110.7873
 30
0.0
 10
113.759
 20
-110.7873
 30
0.0
 10
113.759
 20
-110.7873
 30
0.0
 10
119.7372
 20
-105.1351
 30
0.0
 10
116.3748
 20
-95.6633
 30
0.0
 10
108.1857
 20
-95.6556
 30
0.0
 10
108.1857
 20
-95.6556
 30
0.0
 10
106.4998
 20
-95.6628
 30
0.0
 10
106.4572
 20
-95.0284
 30
0.0
 10
107.2595
 20
-93.987
 30
0.0
 10
107.2595
 20
-93.987
 30
0.0
 10
111.3361
 20
-89.4102
 30
0.0
 10
117.1237
 20
-86.8276
 30
0.0
 10
122.0562
 20
-87.8774
 30
0.0
 10
122.0562
 20
-87.8774
 30
0.0
 10
122.0562
 20
-87.8774
 30
0.0
 10
122.0563
 20
-87.8774
 30
0.0
 10
122.0563
 20
-87.8774
 30
0.0
  0
SPLINE
  5
98
330
1F
100
AcDbEntity
  8
layer 1
 62
     7
100
AcDbSpline
210
0.0
220
0.0
230
1.0
 70
    11
 71
     3
 72
    28
 73
    24
 74
     0
 42
0.0000000001
 43
0.0000000001
 12
1.0
 22
0.0
 32
0.0
 13
1.0
 23
0.0
 33
0.0
 40
0.0
 40
0.0
 40
0.0
 40
0.0
 40
0.1428571428571428
 40
0.1428571428571428
 40
0.1428571428571428
 40
0.1428571428571428
 40
0.2857142857142857
 40
0.2857142857142857
 40
0.2857142857142857
 40
0.2857142857142857
 40
0.4285714285714285
 40
0.4285714285714285
 40
0.4285714285714285
 40
0.4285714285714285
 40
0.5714285714285714
 40
0.5714285714285714
 40
0.5714285714285714
 40
0.5714285714285714
 40
0.7142857142857143
 40
0.7142857142857143
 40
0.7142857142857143
 40
0.7142857142857143
 40
1.0
 40
1.0
 40
1.0
 40
1.0
 10
104.1822
 20
-91.3895
 30
0.0
 10
103.1058
 20
-92.1906
 30
0.0
 10
102.5975
 20
-92.9187
 30
0.0
 10
102.3514
 20
-94.0241
 30
0.0
 10
102.3514
 20
-94.0241
 30
0.0
 10
102.1934
 20
-94.8141
 30
0.0
 10
101.6796
 20
-95.2191
 30
0.0
 10
99.5532
 20
-96.2303
 30
0.0
 10
99.5532
 20
-96.2303
 30
0.0
 10
100.082
 20
-93.893
 30
0.0
 10
99.8881
 20
-91.8437
 30
0.0
 10
98.8692
 20
-90.2763
 30
0.0
 10
98.8692
 20
-90.2763
 30
0.0
 10
98.7562
 20
-89.5821
 30
0.0
 10
99.0651
 20
-89.547
 30
0.0
 10
99.8878
 20
-89.9738
 30
0.0
 10
99.8878
 20
-89.9738
 30
0.0
 10
101.2915
 20
-90.6743
 30
0.0
 10
102.5295
 20
-91.2279
 30
0.0
 10
104.1823
 20
-91.3893
 30
0.0
 10
104.1823
 20
-91.3893
 30
0.0
 10
104.1823
 20
-91.3893
 30
0.0
 10
104.1822
 20
-91.3895
 30
0.0
 10
104.1822
 20
-91.3895
 30
0.0
  0
SPLINE
  5
99
330
1F
100
AcDbEntity
  8
layer 1
 62
     7
100
AcDbSpline
210
0.0
220
0.0
230
1.0
 70
    11
 71
     3
 72
    48
 73
    44
 74
     0
 42
0.0000000001
 43
0.0000000001
 12
1.0
 22
0.0
 32
0.0
 13
1.0
 23
0.0
 33
0.0
 40
0.0
 40
0.0
 40
0.0
 40
0.0
 40
0.0833333333333333
 40
0.0833333333333333
 40
0.0833333333333333
 40
0.0833333333333333
 40
0.1666666666666667
 40
0.1666666666666667
 40
0.1666666666666667
 40
0.1666666666666667
 40
0.25
 40
0.25
 40
0.25
 40
0.25
 40
0.3333333333333333
 40
0.3333333333333333
 40
0.3333333333333333
 40
0.3333333333333333
 40
0.4166666666666667
 40
0.4166666666666667
 40
0.4166666666666667
 40
0.4166666666666667
 40
0.5
 40
0.5
 40
0.5
 40
0.5
 40
0.5833333333333334
 40
0.5833333333333334
 40
0.5833333333333334
 40
0.5833333333333334
 40
0.6666666666666666
 40
0.6666666666666666
 40
0.6666666666666666
 40
0.6666666666666666
 40
0.75
 40
0.75
 40
0.75
 40
0.75
 40
0.8333333333333334
 40
0.8333333333333334
 40
0.8333333333333334
 40
0.8333333333333334
 40
1.0
 40
1.0
 40
1.0
 40
1.0
 10
109.3226
 20
-99.2264
 30
0.0
 10
114.9921
 20
-101.4357
 30
0.0
 10
112.5917
 20
-110.7874
 30
0.0
 10
107.1833
 20
-107.803
 30
0.0
 10
107.1833
 20
-107.803
 30
0.0
 10
105.8855
 20
-106.894
 30
0.0
 10
106.5828
 20
-104.411
 30
0.0
 10
108.1358
 20
-104.411
 30
0.0
 10
108.1358
 20
-104.411
 30
0.0
 10
108.9299
 20
-104.411
 30
0.0
 10
108.8971
 20
-103.684
 30
0.0
 10
108.0692
 20
-102.9348
 30
0.0
 10
108.0692
 20
-102.9348
 30
0.0
 10
106.5695
 20
-101.5776
 30
0.0
 10
103.4026
 20
-101.8094
 30
0.0
 10
102.5523
 20
-104.9331
 30
0.0
 10
102.5523
 20
-104.9331
 30
0.0
 10
102.0637
 20
-107.8232
 30
0.0
 10
102.688
 20
-109.3313
 30
0.0
 10
105.0166
 20
-110.7874
 30
0.0
 10
105.0166
 20
-110.7874
 30
0.0
 10
105.0166
 20
-110.7874
 30
0.0
 10
98.0995
 20
-110.7874
 30
0.0
 10
98.0995
 20
-110.7874
 30
0.0
 10
98.0995
 20
-110.7874
 30
0.0
 10
97.7996
 20
-107.9135
 30
0.0
 10
95.9233
 20
-106.5204
 30
0.0
 10
93.879
 20
-106.2021
 30
0.0
 10
93.879
 20
-106.2021
 30
0.0
 10
92.775
 20
-106.0548
 30
0.0
 10
92.5597
 20
-105.3471
 30
0.0
 10
93.5066
 20
-104.8789
 30
0.0
 10
93.5066
 20
-104.8789
 30
0.0
 10
94.0798
 20
-104.5954
 30
0.0
 10
96.1758
 20
-103.2824
 30
0.0
 10
98.1757
 20
-101.9838
 30
0.0
 10
98.1757
 20
-101.9838
 30
0.0
 10
103.4428
 20
-98.5641
 30
0.0
 10
105.4907
 20
-98.0575
 30
0.0
 10
109.3226
 20
-99.2263
 30
0.0
 10
109.3226
 20
-99.2263
 30
0.0
 10
109.3226
 20
-99.2263
 30
0.0
 10
109.3226
 20
-99.2264
 30
0.0
 10
109.3226
 20
-99.2264
 30
0.0
  0
SPLINE
  5
9A
330
1F
100
AcDbEntity
  8
layer 1
 62
     7
100
AcDbSpline
210
0.0
220
0.0
230
1.0
 70
    11
 71
     3
 72
    24
 73
    20
 74
     0
 42
0.0000000001
 43
0.0000000001
 12
1.0
 22
0.0
 32
0.0
 13
1.0
 23
0.0
 33
0.0
 40
0.0
 40
0.0
 40
0.0
 40
0.0
 40
0.1666666666666667
 40
0.1666666666666667
 40
0.1666666666666667
 40
0.1666666666666667
 40
0.3333333333333333
 40
0.3333333333333333
 40
0.3333333333333333
 40
0.3333333333333333
 40
0.5
 40
0.5
 40
0.5
 40
0.5
 40
0.6666666666666666
 40
0.6666666666666666
 40
0.6666666666666666
 40
0.6666666666666666
 40
1.0
 40
1.0
 40
1.0
 40
1.0
 10
74.2532
 20
-101.5164
 30
0.0
 10
79.7862
 20
-107.09
 30
0.0
 10
85.9988
 20
-105.2555
 30
0.0
 10
91.6638
 20
-107.4228
 30
0.0
 10
91.6638
 20
-107.4228
 30
0.0
 10
94.8355
 20
-108.3872
 30
0.0
 10
95.9384
 20
-111.0896
 30
0.0
 10
93.0012
 20
-110.7874
 30
0.0
 10
93.0012
 20
-110.7874
 30
0.0
 10
85.6422
 20
-110.7874
 30
0.0
 10
79.8956
 20
-110.7874
 30
0.0
 10
72.3998
 20
-110.7874
 30
0.0
 10
72.3998
 20
-110.7874
 30
0.0
 10
72.3998
 20
-110.7874
 30
0.0
 10
72.3998
 20
-100.1886
 30
0.0
 10
72.3998
 20
-100.1886
 30
0.0
 10
72.3998
 20
-100.1886
 30
0.0
 10
72.5064
 20
-100.1886
 30
0.0
 10
73.4236
 20
-100.7861
 30
0.0
 10
74.2532
 20
-101.5164
 30
0.0
  0
SPLINE
  5
9B
330
1F
100
AcDbEntity
  8
layer 1
 62
     7
100
AcDbSpline
210
0.0
220
0.0
230
1.0
 70
    11
 71
     3
 72
    20
 73
    16
 74
     0
 42
0.0000000001
 43
0.0000000001
 12
1.0
 22
0.0
 32
0.0
 13
1.0
 23
0.0
 33
0.0
 40
0.0
 40
0.0
 40
0.0
 40
0.0
 40
0.2
 40
0.2
 40
0.2
 40
0.2
 40
0.4
 40
0.4
 40
0.4
 40
0.4
 40
0.6
 40
0.6
 40
0.6
 40
0.6
 40
1.0
 40
1.0
 40
1.0
 40
1.0
 10
134.353
 20
7.6233
 30
0.0
 10
134.353
 20
8.7604
 30
0.0
 10
133.4312
 20
9.6822
 30
0.0
 10
132.2941
 20
9.6822
 30
0.0
 10
132.2941
 20
9.6822
 30
0.0
 10
131.157
 20
9.6822
 30
0.0
 10
130.2352
 20
8.7604
 30
0.0
 10
130.2352
 20
7.6233
 30
0.0
 10
130.2352
 20
7.6233
 30
0.0
 10
130.2352
 20
6.4862
 30
0.0
 10
131.157
 20
5.5644
 30
0.0
 10
132.2941
 20
5.5644
 30
0.0
 10
132.2941
 20
5.5644
 30
0.0
 10
133.4312
 20
5.5644
 30
0.0
 10
134.353
 20
6.4862
 30
0.0
 10
134.353
 20
7.6233
 30
0.0
  0
SPLINE
  5
9C
330
1F
100
AcDbEntity
  8
layer 1
 62
     7
100
AcDbSpline
210
0.0
220
0.0
230
1.0
 70
    11
 71
     3
 72
   136
 73
   132
 74
     0
 42
0.0000000001
 43
0.0000000001
 12
1.0
 22
0.0
 32
0.0
 13
1.0
 23
0.0
 33
0.0
 40
0.0
 40
0.0
 40
0.0
 40
0.0
 40
0.0294117647058824
 40
0.0294117647058824
 40
0.0294117647058824
 40
0.0294117647058824
 40
0.0588235294117647
 40
0.0588235294117647
 40
0.0588235294117647
 40
0.0588235294117647
 40
0.0882352941176471
 40
0.0882352941176471
 40
0.0882352941176471
 40
0.0882352941176471
 40
0.1176470588235294
 40
0.1176470588235294
 40
0.1176470588235294
 40
0.1176470588235294
 40
0.1470588235294118
 40
0.1470588235294118
 40
0.1470588235294118
 40
0.1470588235294118
 40
0.1764705882352941
 40
0.1764705882352941
 40
0.1764705882352941
 40
0.1764705882352941
 40
0.2058823529411765
 40
0.2058823529411765
 40
0.2058823529411765
 40
0.2058823529411765
 40
0.2352941176470588
 40
0.2352941176470588
 40
0.2352941176470588
 40
0.2352941176470588
 40
0.2647058823529412
 40
0.2647058823529412
 40
0.2647058823529412
 40
0.2647058823529412
 40
0.2941176470588235
 40
0.2941176470588235
 40
0.2941176470588235
 40
0.2941176470588235
 40
0.3235294117647059
 40
0.3235294117647059
 40
0.3235294117647059
 40
0.3235294117647059
 40
0.3529411764705883
 40
0.3529411764705883
 40
0.3529411764705883
 40
0.3529411764705883
 40
0.3823529411764706
 40
0.3823529411764706
 40
0.3823529411764706
 40
0.3823529411764706
 40
0.4117647058823529
 40
0.4117647058823529
 40
0.4117647058823529
 40
0.4117647058823529
 40
0.4411764705882353
 40
0.4411764705882353
 40
0.4411764705882353
 40
0.4411764705882353
 40
0.4705882352941176
 40
0.4705882352941176
 40
0.4705882352941176
 40
0.4705882352941176
 40
0.5
 40
0.5
 40
0.5
 40
0.5
 40
0.5294117647058824
 40
0.5294117647058824
 40
0.5294117647058824
 40
0.5294117647058824
 40
0.5588235294117647
 40
0.5588235294117647
 40
0.5588235294117647
 40
0.5588235294117647
 40
0.5882352941176471
 40
0.5882352941176471
 40
0.5882352941176471
 40
0.5882352941176471
 40
0.6176470588235294
 40
0.6176470588235294
 40
0.6176470588235294
 40
0.6176470588235294
 40
0.6470588235294118
 40
0.6470588235294118
 40
0.6470588235294118
 40
0.6470588235294118
 40
0.6764705882352942
 40
0.6764705882352942
 40
0.6764705882352942
 40
0.6764705882352942
 40
0.7058823529411765
 40
0.7058823529411765
 40
0.7058823529411765
 40
0.7058823529411765
 40
0.7352941176470589
 40
0.7352941176470589
 40
0.7352941176470589
 40
0.7352941176470589
 40
0.7647058823529411
 40
0.7647058823529411
 40
0.7647058823529411
 40
0.7647058823529411
 40
0.7941176470588235
 40
0.7941176470588235
 40
0.7941176470588235
 40
0.7941176470588235
 40
0.8235294117647058
 40
0.8235294117647058
 40
0.8235294117647058
 40
0.8235294117647058
 40
0.8529411764705882
 40
0.8529411764705882
 40
0.8529411764705882
 40
0.8529411764705882
 40
0.8823529411764706
 40
0.8823529411764706
 40
0.8823529411764706
 40
0.8823529411764706
 40
0.9117647058823529
 40
0.9117647058823529
 40
0.9117647058823529
 40
0.9117647058823529
 40
0.9411764705882353
 40
0.9411764705882353
 40
0.9411764705882353
 40
0.9411764705882353
 40
1.0
 40
1.0
 40
1.0
 40
1.0
 10
182.5211
 20
6.162
 30
0.0
 10
178.2092
 20
4.9338
 30
0.0
 10
174.9851
 20
1.5093
 30
0.0
 10
175.4237
 20
-3.3268
 30
0.0
 10
175.4237
 20
-3.3268
 30
0.0
 10
172.9376
 20
-1.5191
 30
0.0
 10
169.3107
 20
-2.6894
 30
0.0
 10
166.2305
 20
-0.7641
 30
0.0
 10
166.2305
 20
-0.7641
 30
0.0
 10
163.9559
 20
0.4483
 30
0.0
 10
163.2437
 20
1.1755
 30
0.0
 10
163.2437
 20
2.286
 30
0.0
 10
163.2437
 20
2.286
 30
0.0
 10
163.2437
 20
3.1889
 30
0.0
 10
163.7819
 20
4.2418
 30
0.0
 10
164.8177
 20
4.3972
 30
0.0
 10
164.8177
 20
4.3972
 30
0.0
 10
165.5389
 20
4.5055
 30
0.0
 10
165.7205
 20
5.1289
 30
0.0
 10
165.0988
 20
5.5833
 30
0.0
 10
165.0988
 20
5.5833
 30
0.0
 10
163.8089
 20
6.5266
 30
0.0
 10
160.6557
 20
5.8206
 30
0.0
 10
159.6321
 20
4.3593
 30
0.0
 10
159.6321
 20
4.3593
 30
0.0
 10
157.7982
 20
1.6015
 30
0.0
 10
158.8518
 20
-1.8307
 30
0.0
 10
163.6413
 20
-3.1305
 30
0.0
 10
163.6413
 20
-3.1305
 30
0.0
 10
156.6645
 20
-4.693
 30
0.0
 10
152.1184
 20
-14.1293
 30
0.0
 10
156.8328
 20
-21.8047
 30
0.0
 10
156.8328
 20
-21.8047
 30
0.0
 10
158.4706
 20
-24.2585
 30
0.0
 10
156.5155
 20
-24.6111
 30
0.0
 10
154.5936
 20
-22.4997
 30
0.0
 10
154.5936
 20
-22.4997
 30
0.0
 10
153.2592
 20
-21.195
 30
0.0
 10
152.8165
 20
-20.295
 30
0.0
 10
152.3075
 20
-17.8516
 30
0.0
 10
152.3075
 20
-17.8516
 30
0.0
 10
151.4663
 20
-14.1037
 30
0.0
 10
149.4523
 20
-9.9106
 30
0.0
 10
146.3626
 20
-7.2276
 30
0.0
 10
146.3626
 20
-7.2276
 30
0.0
 10
148.1557
 20
-7.4923
 30
0.0
 10
149.5062
 20
-7.6444
 30
0.0
 10
151.2711
 20
-7.2247
 30
0.0
 10
151.2711
 20
-7.2247
 30
0.0
 10
152.4002
 20
-7.0512
 30
0.0
 10
152.6066
 20
-6.6256
 30
0.0
 10
152.6066
 20
-5.643
 30
0.0
 10
152.6066
 20
-5.643
 30
0.0
 10
152.5424
 20
-2.6518
 30
0.0
 10
151.0173
 20
0.6378
 30
0.0
 10
148.709
 20
2.6247
 30
0.0
 10
148.709
 20
2.6247
 30
0.0
 10
153.6606
 20
2.8436
 30
0.0
 10
156.7013
 20
4.0435
 30
0.0
 10
159.212
 20
7.6756
 30
0.0
 10
159.212
 20
7.6756
 30
0.0
 10
156.7015
 20
11.3077
 30
0.0
 10
153.6607
 20
12.5077
 30
0.0
 10
148.709
 20
12.7266
 30
0.0
 10
148.709
 20
12.7266
 30
0.0
 10
151.0173
 20
14.7134
 30
0.0
 10
152.5424
 20
18.0029
 30
0.0
 10
152.6066
 20
20.9943
 30
0.0
 10
152.6066
 20
20.9943
 30
0.0
 10
152.6066
 20
21.9768
 30
0.0
 10
152.4002
 20
22.4024
 30
0.0
 10
151.2711
 20
22.5759
 30
0.0
 10
151.2711
 20
22.5759
 30
0.0
 10
149.5063
 20
22.9956
 30
0.0
 10
148.1557
 20
22.8435
 30
0.0
 10
146.3626
 20
22.5789
 30
0.0
 10
146.3626
 20
22.5789
 30
0.0
 10
149.4523
 20
25.262
 30
0.0
 10
151.4663
 20
29.4551
 30
0.0
 10
152.3075
 20
33.2028
 30
0.0
 10
152.3075
 20
33.2028
 30
0.0
 10
152.8165
 20
35.6462
 30
0.0
 10
153.2592
 20
36.5463
 30
0.0
 10
154.5936
 20
37.851
 30
0.0
 10
154.5936
 20
37.851
 30
0.0
 10
156.5156
 20
39.9623
 30
0.0
 10
158.4706
 20
39.6096
 30
0.0
 10
156.8328
 20
37.1559
 30
0.0
 10
156.8328
 20
37.1559
 30
0.0
 10
152.1184
 20
29.4806
 30
0.0
 10
156.6645
 20
20.0442
 30
0.0
 10
163.6413
 20
18.4818
 30
0.0
 10
163.6413
 20
18.4818
 30
0.0
 10
158.8518
 20
17.182
 30
0.0
 10
157.7982
 20
13.7496
 30
0.0
 10
159.6321
 20
10.992
 30
0.0
 10
159.6321
 20
10.992
 30
0.0
 10
160.6557
 20
9.5306
 30
0.0
 10
163.8089
 20
8.8247
 30
0.0
 10
165.0988
 20
9.7679
 30
0.0
 10
165.0988
 20
9.7679
 30
0.0
 10
165.7204
 20
10.2224
 30
0.0
 10
165.5389
 20
10.8458
 30
0.0
 10
164.8177
 20
10.954
 30
0.0
 10
164.8177
 20
10.954
 30
0.0
 10
163.7819
 20
11.1094
 30
0.0
 10
163.2437
 20
12.1622
 30
0.0
 10
163.2437
 20
13.0652
 30
0.0
 10
163.2437
 20
13.0652
 30
0.0
 10
163.2437
 20
14.1756
 30
0.0
 10
163.9558
 20
14.903
 30
0.0
 10
166.2305
 20
16.1153
 30
0.0
 10
166.2305
 20
16.1153
 30
0.0
 10
169.3107
 20
18.0407
 30
0.0
 10
172.9375
 20
16.8703
 30
0.0
 10
175.4237
 20
18.6781
 30
0.0
 10
175.4237
 20
18.6781
 30
0.0
 10
174.9851
 20
13.8419
 30
0.0
 10
178.2092
 20
10.4175
 30
0.0
 10
182.5211
 20
9.1892
 30
0.0
 10
182.5211
 20
9.1892
 30
0.0
 10
183.6625
 20
8.9537
 30
0.0
 10
184.3197
 20
8.6728
 30
0.0
 10
184.4035
 20
7.6757
 30
0.0
 10
184.4035
 20
7.6757
 30
0.0
 10
184.3197
 20
6.6787
 30
0.0
 10
183.6626
 20
6.3978
 30
0.0
 10
182.5211
 20
6.1622
 30
0.0
 10
182.5211
 20
6.1622
 30
0.0
 10
182.5211
 20
6.1622
 30
0.0
 10
182.5211
 20
6.162
 30
0.0
 10
182.5211
 20
6.162
 30
0.0
  0
SPLINE
  5
9D
330
1F
100
AcDbEntity
  8
layer 1
 62
     7
100
AcDbSpline
210
0.0
220
0.0
230
1.0
 70
    11
 71
     3
 72
    24
 73
    20
 74
     0
 42
0.0000000001
 43
0.0000000001
 12
1.0
 22
0.0
 32
0.0
 13
1.0
 23
0.0
 33
0.0
 40
0.0
 40
0.0
 40
0.0
 40
0.0
 40
0.1666666666666667
 40
0.1666666666666667
 40
0.1666666666666667
 40
0.1666666666666667
 40
0.3333333333333333
 40
0.3333333333333333
 40
0.3333333333333333
 40
0.3333333333333333
 40
0.5
 40
0.5
 40
0.5
 40
0.5
 40
0.6666666666666666
 40
0.6666666666666666
 40
0.6666666666666666
 40
0.6666666666666666
 40
1.0
 40
1.0
 40
1.0
 40
1.0
 10
135.9425
 20
5.8966
 30
0.0
 10
136.248
 20
5.2292
 30
0.0
 10
137.7913
 20
4.6372
 30
0.0
 10
138.8164
 20
4.6262
 30
0.0
 10
138.8164
 20
4.6262
 30
0.0
 10
139.5813
 20
4.6179
 30
0.0
 10
139.6189
 20
5.1963
 30
0.0
 10
139.265
 20
5.5471
 30
0.0
 10
139.265
 20
5.5471
 30
0.0
 10
138.4415
 20
6.3632
 30
0.0
 10
136.9025
 20
6.8045
 30
0.0
 10
136.1735
 20
6.5385
 30
0.0
 10
136.1735
 20
6.5385
 30
0.0
 10
136.0285
 20
6.4856
 30
0.0
 10
135.7789
 20
6.2542
 30
0.0
 10
135.9425
 20
5.8965
 30
0.0
 10
135.9425
 20
5.8965
 30
0.0
 10
135.9425
 20
5.8965
 30
0.0
 10
135.9425
 20
5.8966
 30
0.0
 10
135.9425
 20
5.8966
 30
0.0
  0
SPLINE
  5
9E
330
1F
100
AcDbEntity
  8
layer 1
 62
     7
100
AcDbSpline
210
0.0
220
0.0
230
1.0
 70
    11
 71
     3
 72
    20
 73
    16
 74
     0
 42
0.0000000001
 43
0.0000000001
 12
1.0
 22
0.0
 32
0.0
 13
1.0
 23
0.0
 33
0.0
 40
0.0
 40
0.0
 40
0.0
 40
0.0
 40
0.2
 40
0.2
 40
0.2
 40
0.2
 40
0.4
 40
0.4
 40
0.4
 40
0.4
 40
0.6
 40
0.6
 40
0.6
 40
0.6
 40
1.0
 40
1.0
 40
1.0
 40
1.0
 10
134.1015
 20
4.1948
 30
0.0
 10
134.0449
 20
3.0228
 30
0.0
 10
134.8512
 20
1.7265
 30
0.0
 10
136.1009
 20
1.4784
 30
0.0
 10
136.1009
 20
1.4784
 30
0.0
 10
136.6903
 20
1.3686
 30
0.0
 10
136.8221
 20
1.4515
 30
0.0
 10
136.8583
 20
1.9838
 30
0.0
 10
136.8583
 20
1.9838
 30
0.0
 10
136.8324
 20
3.1762
 30
0.0
 10
135.8316
 20
4.5403
 30
0.0
 10
134.6681
 20
4.6664
 30
0.0
 10
134.6681
 20
4.6664
 30
0.0
 10
134.2053
 20
4.7209
 30
0.0
 10
134.1473
 20
4.5898
 30
0.0
 10
134.1015
 20
4.1948
 30
0.0
  0
SPLINE
  5
9F
330
1F
100
AcDbEntity
  8
layer 1
 62
     7
100
AcDbSpline
210
0.0
220
0.0
230
1.0
 70
    11
 71
     3
 72
    48
 73
    44
 74
     0
 42
0.0000000001
 43
0.0000000001
 12
1.0
 22
0.0
 32
0.0
 13
1.0
 23
0.0
 33
0.0
 40
0.0
 40
0.0
 40
0.0
 40
0.0
 40
0.0833333333333333
 40
0.0833333333333333
 40
0.0833333333333333
 40
0.0833333333333333
 40
0.1666666666666667
 40
0.1666666666666667
 40
0.1666666666666667
 40
0.1666666666666667
 40
0.25
 40
0.25
 40
0.25
 40
0.25
 40
0.3333333333333333
 40
0.3333333333333333
 40
0.3333333333333333
 40
0.3333333333333333
 40
0.4166666666666667
 40
0.4166666666666667
 40
0.4166666666666667
 40
0.4166666666666667
 40
0.5
 40
0.5
 40
0.5
 40
0.5
 40
0.5833333333333334
 40
0.5833333333333334
 40
0.5833333333333334
 40
0.5833333333333334
 40
0.6666666666666666
 40
0.6666666666666666
 40
0.6666666666666666
 40
0.6666666666666666
 40
0.75
 40
0.75
 40
0.75
 40
0.75
 40
0.8333333333333334
 40
0.8333333333333334
 40
0.8333333333333334
 40
0.8333333333333334
 40
1.0
 40
1.0
 40
1.0
 40
1.0
 10
183.2821
 20
2.9766
 30
0.0
 10
180.6325
 20
1.7429
 30
0.0
 10
178.3986
 20
-1.1822
 30
0.0
 10
178.5906
 20
-3.727
 30
0.0
 10
178.5906
 20
-3.727
 30
0.0
 10
178.6467
 20
-4.4712
 30
0.0
 10
179.1135
 20
-5.1061
 30
0.0
 10
179.7526
 20
-5.886
 30
0.0
 10
179.7526
 20
-5.886
 30
0.0
 10
182.1791
 20
-9.1355
 30
0.0
 10
182.95
 20
-11.9435
 30
0.0
 10
183.5734
 20
-15.6457
 30
0.0
 10
183.5734
 20
-15.6457
 30
0.0
 10
186.0159
 20
-13.3857
 30
0.0
 10
189.7688
 20
-12.8437
 30
0.0
 10
192.1897
 20
-13.831
 30
0.0
 10
192.1897
 20
-13.831
 30
0.0
 10
192.1897
 20
-13.831
 30
0.0
 10
192.1897
 20
-7.1767
 30
0.0
 10
192.1897
 20
-7.1767
 30
0.0
 10
192.1897
 20
-7.1767
 30
0.0
 10
185.9667
 20
-12.3337
 30
0.0
 10
180.1274
 20
-6.3439
 30
0.0
 10
183.0001
 20
-1.8531
 30
0.0
 10
183.0001
 20
-1.8531
 30
0.0
 10
184.4817
 20
0.0294
 30
0.0
 10
185.6934
 20
-1.0442
 30
0.0
 10
185.6773
 20
-2.742
 30
0.0
 10
185.6773
 20
-2.742
 30
0.0
 10
185.7924
 20
-4.3592
 30
0.0
 10
186.1524
 20
-4.9493
 30
0.0
 10
187.287
 20
-5.3807
 30
0.0
 10
187.287
 20
-5.3807
 30
0.0
 10
189.4371
 20
-6.1981
 30
0.0
 10
191.8068
 20
-2.6135
 30
0.0
 10
190.9677
 20
0.1872
 30
0.0
 10
190.9677
 20
0.1872
 30
0.0
 10
190.0192
 20
3.3528
 30
0.0
 10
186.687
 20
4.5621
 30
0.0
 10
183.2822
 20
2.9765
 30
0.0
 10
183.2822
 20
2.9765
 30
0.0
 10
183.2822
 20
2.9765
 30
0.0
 10
183.2821
 20
2.9766
 30
0.0
 10
183.2821
 20
2.9766
 30
0.0
  0
SPLINE
  5
A0
330
1F
100
AcDbEntity
  8
layer 1
 62
     7
100
AcDbSpline
210
0.0
220
0.0
230
1.0
 70
    11
 71
     3
 72
    12
 73
     8
 74
     0
 42
0.0000000001
 43
0.0000000001
 12
1.0
 22
0.0
 32
0.0
 13
1.0
 23
0.0
 33
0.0
 40
0.0
 40
0.0
 40
0.0
 40
0.0
 40
0.3333333333333333
 40
0.3333333333333333
 40
0.3333333333333333
 40
0.3333333333333333
 40
1.0
 40
1.0
 40
1.0
 40
1.0
 10
138.7666
 20
2.9348
 30
0.0
 10
139.6209
 20
-2.1244
 30
0.0
 10
144.5924
 20
-4.4789
 30
0.0
 10
147.9878
 20
-3.7697
 30
0.0
 10
147.9878
 20
-3.7697
 30
0.0
 10
147.6888
 20
0.3153
 30
0.0
 10
143.1551
 20
4.3286
 30
0.0
 10
138.7666
 20
2.9348
 30
0.0
  0
SPLINE
  5
A1
330
1F
100
AcDbEntity
  8
layer 1
 62
     7
100
AcDbSpline
210
0.0
220
0.0
230
1.0
 70
    11
 71
     3
 72
    24
 73
    20
 74
     0
 42
0.0000000001
 43
0.0000000001
 12
1.0
 22
0.0
 32
0.0
 13
1.0
 23
0.0
 33
0.0
 40
0.0
 40
0.0
 40
0.0
 40
0.0
 40
0.1666666666666667
 40
0.1666666666666667
 40
0.1666666666666667
 40
0.1666666666666667
 40
0.3333333333333333
 40
0.3333333333333333
 40
0.3333333333333333
 40
0.3333333333333333
 40
0.5
 40
0.5
 40
0.5
 40
0.5
 40
0.6666666666666666
 40
0.6666666666666666
 40
0.6666666666666666
 40
0.6666666666666666
 40
1.0
 40
1.0
 40
1.0
 40
1.0
 10
134.2456
 20
0.4738
 30
0.0
 10
137.2798
 20
-2.323
 30
0.0
 10
137.1501
 20
-6.3739
 30
0.0
 10
133.9357
 20
-9.1962
 30
0.0
 10
133.9357
 20
-9.1962
 30
0.0
 10
132.6872
 20
-10.4572
 30
0.0
 10
131.6918
 20
-10.1002
 30
0.0
 10
130.6538
 20
-9.1962
 30
0.0
 10
130.6538
 20
-9.1962
 30
0.0
 10
127.4394
 20
-6.3739
 30
0.0
 10
127.3096
 20
-2.3231
 30
0.0
 10
130.3439
 20
0.4738
 30
0.0
 10
130.3439
 20
0.4738
 30
0.0
 10
131.8334
 20
2.0559
 30
0.0
 10
132.9889
 20
1.6224
 30
0.0
 10
134.2457
 20
0.4738
 30
0.0
 10
134.2457
 20
0.4738
 30
0.0
 10
134.2457
 20
0.4738
 30
0.0
 10
134.2456
 20
0.4738
 30
0.0
 10
134.2456
 20
0.4738
 30
0.0
  0
SPLINE
  5
A2
330
1F
100
AcDbEntity
  8
layer 1
 62
     7
100
AcDbSpline
210
0.0
220
0.0
230
1.0
 70
    11
 71
     3
 72
    12
 73
     8
 74
     0
 42
0.0000000001
 43
0.0000000001
 12
1.0
 22
0.0
 32
0.0
 13
1.0
 23
0.0
 33
0.0
 40
0.0
 40
0.0
 40
0.0
 40
0.0
 40
0.3333333333333333
 40
0.3333333333333333
 40
0.3333333333333333
 40
0.3333333333333333
 40
1.0
 40
1.0
 40
1.0
 40
1.0
 10
145.5332
 20
-23.5933
 30
0.0
 10
147.8883
 20
-15.4581
 30
0.0
 10
144.337
 20
-8.3661
 30
0.0
 10
139.5047
 20
-5.2206
 30
0.0
 10
139.5047
 20
-5.2206
 30
0.0
 10
137.8246
 20
-13.8112
 30
0.0
 10
140.2365
 20
-19.8636
 30
0.0
 10
145.5332
 20
-23.5933
 30
0.0
  0
SPLINE
  5
A3
330
1F
100
AcDbEntity
  8
layer 1
 62
     7
100
AcDbSpline
210
0.0
220
0.0
230
1.0
 70
    11
 71
     3
 72
    60
 73
    56
 74
     0
 42
0.0000000001
 43
0.0000000001
 12
1.0
 22
0.0
 32
0.0
 13
1.0
 23
0.0
 33
0.0
 40
0.0
 40
0.0
 40
0.0
 40
0.0
 40
0.0666666666666667
 40
0.0666666666666667
 40
0.0666666666666667
 40
0.0666666666666667
 40
0.1333333333333333
 40
0.1333333333333333
 40
0.1333333333333333
 40
0.1333333333333333
 40
0.2
 40
0.2
 40
0.2
 40
0.2
 40
0.2666666666666667
 40
0.2666666666666667
 40
0.2666666666666667
 40
0.2666666666666667
 40
0.3333333333333333
 40
0.3333333333333333
 40
0.3333333333333333
 40
0.3333333333333333
 40
0.4
 40
0.4
 40
0.4
 40
0.4
 40
0.4666666666666667
 40
0.4666666666666667
 40
0.4666666666666667
 40
0.4666666666666667
 40
0.5333333333333333
 40
0.5333333333333333
 40
0.5333333333333333
 40
0.5333333333333333
 40
0.6
 40
0.6
 40
0.6
 40
0.6
 40
0.6666666666666666
 40
0.6666666666666666
 40
0.6666666666666666
 40
0.6666666666666666
 40
0.7333333333333333
 40
0.7333333333333333
 40
0.7333333333333333
 40
0.7333333333333333
 40
0.8
 40
0.8
 40
0.8
 40
0.8
 40
0.8666666666666667
 40
0.8666666666666667
 40
0.8666666666666667
 40
0.8666666666666667
 40
1.0
 40
1.0
 40
1.0
 40
1.0
 10
159.9424
 20
-12.1453
 30
0.0
 10
158.9859
 20
-15.4212
 30
0.0
 10
159.4213
 20
-18.0628
 30
0.0
 10
161.2632
 20
-20.1583
 30
0.0
 10
161.2632
 20
-20.1583
 30
0.0
 10
164.1266
 20
-23.4161
 30
0.0
 10
170.1457
 20
-21.8507
 30
0.0
 10
170.1457
 20
-17.8483
 30
0.0
 10
170.1457
 20
-17.8483
 30
0.0
 10
170.1457
 20
-15.6644
 30
0.0
 10
167.6728
 20
-14.1468
 30
0.0
 10
165.834
 20
-15.2022
 30
0.0
 10
165.834
 20
-15.2022
 30
0.0
 10
163.795
 20
-16.3724
 30
0.0
 10
162.0356
 20
-15.3035
 30
0.0
 10
163.1647
 20
-13.5802
 30
0.0
 10
163.1647
 20
-13.5802
 30
0.0
 10
164.3906
 20
-11.7093
 30
0.0
 10
168.1495
 20
-10.9822
 30
0.0
 10
170.6329
 20
-12.1356
 30
0.0
 10
170.6329
 20
-12.1356
 30
0.0
 10
174.9008
 20
-14.1177
 30
0.0
 10
175.9774
 20
-19.1193
 30
0.0
 10
172.8754
 20
-22.5529
 30
0.0
 10
172.8754
 20
-22.5529
 30
0.0
 10
169.6209
 20
-26.2381
 30
0.0
 10
164.9957
 20
-26.2671
 30
0.0
 10
161.6909
 20
-25.485
 30
0.0
 10
161.6909
 20
-25.485
 30
0.0
 10
158.3695
 20
-29.258
 30
0.0
 10
151.6988
 20
-26.8309
 30
0.0
 10
150.6838
 20
-22.5761
 30
0.0
 10
150.6838
 20
-22.5761
 30
0.0
 10
150.322
 20
-23.7889
 30
0.0
 10
150.0941
 20
-24.3737
 30
0.0
 10
149.687
 20
-25.2817
 30
0.0
 10
149.687
 20
-25.2817
 30
0.0
 10
150.8349
 20
-26.5537
 30
0.0
 10
152.6429
 20
-27.5278
 30
0.0
 10
154.1476
 20
-28.2725
 30
0.0
 10
154.1476
 20
-28.2725
 30
0.0
 10
164.5312
 20
-32.7148
 30
0.0
 10
179.1948
 20
-28.6129
 30
0.0
 10
179.1616
 20
-17.5663
 30
0.0
 10
179.1616
 20
-17.5663
 30
0.0
 10
179.048
 20
-12.054
 30
0.0
 10
176.2365
 20
-7.9151
 30
0.0
 10
171.7217
 20
-6.2732
 30
0.0
 10
171.7217
 20
-6.2732
 30
0.0
 10
166.7816
 20
-4.9018
 30
0.0
 10
161.3876
 20
-7.5463
 30
0.0
 10
159.9424
 20
-12.1452
 30
0.0
 10
159.9424
 20
-12.1452
 30
0.0
 10
159.9424
 20
-12.1452
 30
0.0
 10
159.9424
 20
-12.1453
 30
0.0
 10
159.9424
 20
-12.1453
 30
0.0
  0
SPLINE
  5
A4
330
1F
100
AcDbEntity
  8
layer 1
 62
     7
100
AcDbSpline
210
0.0
220
0.0
230
1.0
 70
    11
 71
     3
 72
    28
 73
    24
 74
     0
 42
0.0000000001
 43
0.0000000001
 12
1.0
 22
0.0
 32
0.0
 13
1.0
 23
0.0
 33
0.0
 40
0.0
 40
0.0
 40
0.0
 40
0.0
 40
0.1428571428571428
 40
0.1428571428571428
 40
0.1428571428571428
 40
0.1428571428571428
 40
0.2857142857142857
 40
0.2857142857142857
 40
0.2857142857142857
 40
0.2857142857142857
 40
0.4285714285714285
 40
0.4285714285714285
 40
0.4285714285714285
 40
0.4285714285714285
 40
0.5714285714285714
 40
0.5714285714285714
 40
0.5714285714285714
 40
0.5714285714285714
 40
0.7142857142857143
 40
0.7142857142857143
 40
0.7142857142857143
 40
0.7142857142857143
 40
1.0
 40
1.0
 40
1.0
 40
1.0
 10
134.2361
 20
-12.6445
 30
0.0
 10
135.1811
 20
-11.9297
 30
0.0
 10
135.392
 20
-12.053
 30
0.0
 10
135.392
 20
-13.3205
 30
0.0
 10
135.392
 20
-13.3205
 30
0.0
 10
135.392
 20
-15.5971
 30
0.0
 10
133.8681
 20
-17.0101
 30
0.0
 10
132.2947
 20
-17.025
 30
0.0
 10
132.2947
 20
-17.025
 30
0.0
 10
130.7214
 20
-17.0101
 30
0.0
 10
129.1974
 20
-15.5971
 30
0.0
 10
129.1974
 20
-13.3205
 30
0.0
 10
129.1974
 20
-13.3205
 30
0.0
 10
129.1974
 20
-12.053
 30
0.0
 10
129.4083
 20
-11.9297
 30
0.0
 10
130.3533
 20
-12.6445
 30
0.0
 10
130.3533
 20
-12.6445
 30
0.0
 10
131.5243
 20
-13.1976
 30
0.0
 10
133.1333
 20
-13.4454
 30
0.0
 10
134.236
 20
-12.6445
 30
0.0
 10
134.236
 20
-12.6445
 30
0.0
 10
134.236
 20
-12.6445
 30
0.0
 10
134.2361
 20
-12.6445
 30
0.0
 10
134.2361
 20
-12.6445
 30
0.0
  0
SPLINE
  5
A5
330
1F
100
AcDbEntity
  8
layer 1
 62
     7
100
AcDbSpline
210
0.0
220
0.0
230
1.0
 70
    11
 71
     3
 72
    20
 73
    16
 74
     0
 42
0.0000000001
 43
0.0000000001
 12
1.0
 22
0.0
 32
0.0
 13
1.0
 23
0.0
 33
0.0
 40
0.0
 40
0.0
 40
0.0
 40
0.0
 40
0.2
 40
0.2
 40
0.2
 40
0.2
 40
0.4
 40
0.4
 40
0.4
 40
0.4
 40
0.6
 40
0.6
 40
0.6
 40
0.6
 40
1.0
 40
1.0
 40
1.0
 40
1.0
 10
186.5867
 20
-18.9565
 30
0.0
 10
185.4574
 20
-22.8617
 30
0.0
 10
184.2476
 20
-24.3034
 30
0.0
 10
181.3585
 20
-26.4609
 30
0.0
 10
181.3585
 20
-26.4609
 30
0.0
 10
185.5054
 20
-25.7413
 30
0.0
 10
189.5071
 20
-28.1982
 30
0.0
 10
192.1897
 20
-31.6713
 30
0.0
 10
192.1897
 20
-31.6713
 30
0.0
 10
192.1897
 20
-31.6713
 30
0.0
 10
192.1897
 20
-18.7621
 30
0.0
 10
192.1897
 20
-18.7621
 30
0.0
 10
192.1897
 20
-18.7621
 30
0.0
 10
191.6659
 20
-15.882
 30
0.0
 10
187.0795
 20
-16.0414
 30
0.0
 10
186.5867
 20
-18.9565
 30
0.0
  0
SPLINE
  5
A6
330
1F
100
AcDbEntity
  8
layer 1
 62
     7
100
AcDbSpline
210
0.0
220
0.0
230
1.0
 70
    11
 71
     3
 72
    20
 73
    16
 74
     0
 42
0.0000000001
 43
0.0000000001
 12
1.0
 22
0.0
 32
0.0
 13
1.0
 23
0.0
 33
0.0
 40
0.0
 40
0.0
 40
0.0
 40
0.0
 40
0.2
 40
0.2
 40
0.2
 40
0.2
 40
0.4
 40
0.4
 40
0.4
 40
0.4
 40
0.6
 40
0.6
 40
0.6
 40
0.6
 40
1.0
 40
1.0
 40
1.0
 40
1.0
 10
137.2479
 20
-18.0056
 30
0.0
 10
139.1638
 20
-21.1629
 30
0.0
 10
142.6537
 20
-27.3473
 30
0.0
 10
143.626
 20
-29.3599
 30
0.0
 10
143.626
 20
-29.3599
 30
0.0
 10
144.3322
 20
-28.5298
 30
0.0
 10
144.8564
 20
-27.4912
 30
0.0
 10
145.2694
 20
-26.7932
 30
0.0
 10
145.2694
 20
-26.7932
 30
0.0
 10
142.3535
 20
-24.0587
 30
0.0
 10
140.8446
 20
-22.2561
 30
0.0
 10
137.2479
 20
-18.0058
 30
0.0
 10
137.2479
 20
-18.0058
 30
0.0
 10
137.2479
 20
-18.0058
 30
0.0
 10
137.2479
 20
-18.0056
 30
0.0
 10
137.2479
 20
-18.0056
 30
0.0
  0
SPLINE
  5
A7
330
1F
100
AcDbEntity
  8
layer 1
 62
     7
100
AcDbSpline
210
0.0
220
0.0
230
1.0
 70
    11
 71
     3
 72
    32
 73
    28
 74
     0
 42
0.0000000001
 43
0.0000000001
 12
1.0
 22
0.0
 32
0.0
 13
1.0
 23
0.0
 33
0.0
 40
0.0
 40
0.0
 40
0.0
 40
0.0
 40
0.125
 40
0.125
 40
0.125
 40
0.125
 40
0.25
 40
0.25
 40
0.25
 40
0.25
 40
0.375
 40
0.375
 40
0.375
 40
0.375
 40
0.5
 40
0.5
 40
0.5
 40
0.5
 40
0.625
 40
0.625
 40
0.625
 40
0.625
 40
0.75
 40
0.75
 40
0.75
 40
0.75
 40
1.0
 40
1.0
 40
1.0
 40
1.0
 10
138.5218
 20
-31.2326
 30
0.0
 10
137.9457
 20
-32.034
 30
0.0
 10
136.278
 20
-31.1452
 30
0.0
 10
135.2836
 20
-30.5731
 30
0.0
 10
135.2836
 20
-30.5731
 30
0.0
 10
136.2703
 20
-33.5282
 30
0.0
 10
136.1859
 20
-35.5804
 30
0.0
 10
135.1581
 20
-37.3766
 30
0.0
 10
135.1581
 20
-37.3766
 30
0.0
 10
138.0268
 20
-35.1552
 30
0.0
 10
139.9055
 20
-33.5158
 30
0.0
 10
142.0078
 20
-31.0872
 30
0.0
 10
142.0078
 20
-31.0872
 30
0.0
 10
139.2737
 20
-28.0373
 30
0.0
 10
136.9959
 20
-24.2283
 30
0.0
 10
135.5543
 20
-20.1253
 30
0.0
 10
135.5543
 20
-20.1253
 30
0.0
 10
135.8304
 20
-22.8203
 30
0.0
 10
135.9284
 20
-24.7486
 30
0.0
 10
135.3696
 20
-27.06
 30
0.0
 10
135.3696
 20
-27.06
 30
0.0
 10
136.6556
 20
-27.7198
 30
0.0
 10
138.8629
 20
-29.8897
 30
0.0
 10
138.5217
 20
-31.2326
 30
0.0
 10
138.5217
 20
-31.2326
 30
0.0
 10
138.5217
 20
-31.2326
 30
0.0
 10
138.5218
 20
-31.2326
 30
0.0
 10
138.5218
 20
-31.2326
 30
0.0
  0
SPLINE
  5
A8
330
1F
100
AcDbEntity
  8
layer 1
 62
     7
100
AcDbSpline
210
0.0
220
0.0
230
1.0
 70
    11
 71
     3
 72
    44
 73
    40
 74
     0
 42
0.0000000001
 43
0.0000000001
 12
1.0
 22
0.0
 32
0.0
 13
1.0
 23
0.0
 33
0.0
 40
0.0
 40
0.0
 40
0.0
 40
0.0
 40
0.0909090909090909
 40
0.0909090909090909
 40
0.0909090909090909
 40
0.0909090909090909
 40
0.1818181818181818
 40
0.1818181818181818
 40
0.1818181818181818
 40
0.1818181818181818
 40
0.2727272727272727
 40
0.2727272727272727
 40
0.2727272727272727
 40
0.2727272727272727
 40
0.3636363636363636
 40
0.3636363636363636
 40
0.3636363636363636
 40
0.3636363636363636
 40
0.4545454545454545
 40
0.4545454545454545
 40
0.4545454545454545
 40
0.4545454545454545
 40
0.5454545454545454
 40
0.5454545454545454
 40
0.5454545454545454
 40
0.5454545454545454
 40
0.6363636363636364
 40
0.6363636363636364
 40
0.6363636363636364
 40
0.6363636363636364
 40
0.7272727272727273
 40
0.7272727272727273
 40
0.7272727272727273
 40
0.7272727272727273
 40
0.8181818181818182
 40
0.8181818181818182
 40
0.8181818181818182
 40
0.8181818181818182
 40
1.0
 40
1.0
 40
1.0
 40
1.0
 10
163.0001
 20
-32.5865
 30
0.0
 10
165.0983
 20
-34.3769
 30
0.0
 10
167.8837
 20
-36.1285
 30
0.0
 10
169.4281
 20
-38.6389
 30
0.0
 10
169.4281
 20
-38.6389
 30
0.0
 10
174.0978
 20
-31.9083
 30
0.0
 10
184.04
 20
-33.7322
 30
0.0
 10
184.1122
 20
-41.2003
 30
0.0
 10
184.1122
 20
-41.2003
 30
0.0
 10
183.9955
 20
-46.4074
 30
0.0
 10
178.4672
 20
-46.9384
 30
0.0
 10
176.5205
 20
-44.5548
 30
0.0
 10
176.5205
 20
-44.5548
 30
0.0
 10
175.5852
 20
-43.2966
 30
0.0
 10
176.1041
 20
-42.4985
 30
0.0
 10
177.7684
 20
-42.6351
 30
0.0
 10
177.7684
 20
-42.6351
 30
0.0
 10
182.4532
 20
-41.5686
 30
0.0
 10
177.6419
 20
-36.621
 30
0.0
 10
174.6737
 20
-39.0296
 30
0.0
 10
174.6737
 20
-39.0296
 30
0.0
 10
171.9514
 20
-41.3203
 30
0.0
 10
172.1253
 20
-45.9271
 30
0.0
 10
175.0178
 20
-48.1438
 30
0.0
 10
175.0178
 20
-48.1438
 30
0.0
 10
180.0082
 20
-51.5632
 30
0.0
 10
186.121
 20
-49.3855
 30
0.0
 10
188.9664
 20
-43.8017
 30
0.0
 10
188.9664
 20
-43.8017
 30
0.0
 10
191.697
 20
-37.3025
 30
0.0
 10
186.3342
 20
-30.4943
 30
0.0
 10
180.0289
 20
-30.3641
 30
0.0
 10
180.0289
 20
-30.3641
 30
0.0
 10
173.5682
 20
-30.5847
 30
0.0
 10
168.6553
 20
-33.378
 30
0.0
 10
163.0003
 20
-32.5864
 30
0.0
 10
163.0003
 20
-32.5864
 30
0.0
 10
163.0003
 20
-32.5864
 30
0.0
 10
163.0001
 20
-32.5865
 30
0.0
 10
163.0001
 20
-32.5865
 30
0.0
  0
SPLINE
  5
A9
330
1F
100
AcDbEntity
  8
layer 1
 62
     7
100
AcDbSpline
210
0.0
220
0.0
230
1.0
 70
    11
 71
     3
 72
    76
 73
    72
 74
     0
 42
0.0000000001
 43
0.0000000001
 12
1.0
 22
0.0
 32
0.0
 13
1.0
 23
0.0
 33
0.0
 40
0.0
 40
0.0
 40
0.0
 40
0.0
 40
0.0526315789473684
 40
0.0526315789473684
 40
0.0526315789473684
 40
0.0526315789473684
 40
0.1052631578947368
 40
0.1052631578947368
 40
0.1052631578947368
 40
0.1052631578947368
 40
0.1578947368421053
 40
0.1578947368421053
 40
0.1578947368421053
 40
0.1578947368421053
 40
0.2105263157894737
 40
0.2105263157894737
 40
0.2105263157894737
 40
0.2105263157894737
 40
0.2631578947368421
 40
0.2631578947368421
 40
0.2631578947368421
 40
0.2631578947368421
 40
0.3157894736842105
 40
0.3157894736842105
 40
0.3157894736842105
 40
0.3157894736842105
 40
0.3684210526315789
 40
0.3684210526315789
 40
0.3684210526315789
 40
0.3684210526315789
 40
0.4210526315789473
 40
0.4210526315789473
 40
0.4210526315789473
 40
0.4210526315789473
 40
0.4736842105263158
 40
0.4736842105263158
 40
0.4736842105263158
 40
0.4736842105263158
 40
0.5263157894736842
 40
0.5263157894736842
 40
0.5263157894736842
 40
0.5263157894736842
 40
0.5789473684210527
 40
0.5789473684210527
 40
0.5789473684210527
 40
0.5789473684210527
 40
0.631578947368421
 40
0.631578947368421
 40
0.631578947368421
 40
0.631578947368421
 40
0.6842105263157895
 40
0.6842105263157895
 40
0.6842105263157895
 40
0.6842105263157895
 40
0.7368421052631579
 40
0.7368421052631579
 40
0.7368421052631579
 40
0.7368421052631579
 40
0.7894736842105263
 40
0.7894736842105263
 40
0.7894736842105263
 40
0.7894736842105263
 40
0.8421052631578947
 40
0.8421052631578947
 40
0.8421052631578947
 40
0.8421052631578947
 40
0.8947368421052632
 40
0.8947368421052632
 40
0.8947368421052632
 40
0.8947368421052632
 40
1.0
 40
1.0
 40
1.0
 40
1.0
 10
145.5008
 20
-31.6015
 30
0.0
 10
151.8303
 20
-36.736
 30
0.0
 10
152.4671
 20
-44.6518
 30
0.0
 10
148.4503
 20
-49.6726
 30
0.0
 10
148.4503
 20
-49.6726
 30
0.0
 10
150.0372
 20
-49.4259
 30
0.0
 10
151.5108
 20
-49.9409
 30
0.0
 10
152.6083
 20
-50.7827
 30
0.0
 10
152.6083
 20
-50.7827
 30
0.0
 10
152.6187
 20
-47.2702
 30
0.0
 10
155.9496
 20
-43.653
 30
0.0
 10
159.7164
 20
-43.6238
 30
0.0
 10
159.7164
 20
-43.6238
 30
0.0
 10
163.8743
 20
-43.5916
 30
0.0
 10
165.9056
 20
-47.7276
 30
0.0
 10
163.9995
 20
-50.2416
 30
0.0
 10
163.9995
 20
-50.2416
 30
0.0
 10
163.457
 20
-50.9571
 30
0.0
 10
162.6305
 20
-51.1438
 30
0.0
 10
161.9232
 20
-51.1438
 30
0.0
 10
161.9232
 20
-51.1438
 30
0.0
 10
160.1827
 20
-51.1438
 30
0.0
 10
159.4408
 20
-49.9529
 30
0.0
 10
160.8078
 20
-49.3532
 30
0.0
 10
160.8078
 20
-49.3532
 30
0.0
 10
162.5026
 20
-48.6097
 30
0.0
 10
161.3869
 20
-46.2718
 30
0.0
 10
159.3372
 20
-46.2718
 30
0.0
 10
159.3372
 20
-46.2718
 30
0.0
 10
156.5221
 20
-46.2718
 30
0.0
 10
155.2658
 20
-49.8068
 30
0.0
 10
157.2049
 20
-52.2719
 30
0.0
 10
157.2049
 20
-52.2719
 30
0.0
 10
158.7238
 20
-54.2028
 30
0.0
 10
161.1331
 20
-55.249
 30
0.0
 10
164.0971
 20
-53.4422
 30
0.0
 10
164.0971
 20
-53.4422
 30
0.0
 10
167.8043
 20
-50.4994
 30
0.0
 10
168.1684
 20
-46.6135
 30
0.0
 10
166.7596
 20
-42.443
 30
0.0
 10
166.7596
 20
-42.443
 30
0.0
 10
165.4961
 20
-39.504
 30
0.0
 10
163.6897
 20
-37.3313
 30
0.0
 10
161.2909
 20
-35.4314
 30
0.0
 10
161.2909
 20
-35.4314
 30
0.0
 10
161.7064
 20
-37.5542
 30
0.0
 10
160.8782
 20
-39.9584
 30
0.0
 10
159.2563
 20
-40.9374
 30
0.0
 10
159.2563
 20
-40.9374
 30
0.0
 10
158.327
 20
-41.4703
 30
0.0
 10
157.496
 20
-41.504
 30
0.0
 10
156.8633
 20
-41.1033
 30
0.0
 10
156.8633
 20
-41.1033
 30
0.0
 10
155.9691
 20
-40.04
 30
0.0
 10
157.789
 20
-38.5731
 30
0.0
 10
157.8034
 20
-37.0368
 30
0.0
 10
157.8034
 20
-37.0368
 30
0.0
 10
158.1494
 20
-34.9515
 30
0.0
 10
157.7135
 20
-34.7639
 30
0.0
 10
156.0867
 20
-34.2506
 30
0.0
 10
156.0867
 20
-34.2506
 30
0.0
 10
152.3989
 20
-33.0637
 30
0.0
 10
150.4905
 20
-31.8755
 30
0.0
 10
147.1599
 20
-28.7855
 30
0.0
 10
147.1599
 20
-28.7855
 30
0.0
 10
146.612
 20
-30.1962
 30
0.0
 10
146.1978
 20
-30.7849
 30
0.0
 10
145.5008
 20
-31.6018
 30
0.0
 10
145.5008
 20
-31.6018
 30
0.0
 10
145.5008
 20
-31.6018
 30
0.0
 10
145.5008
 20
-31.6015
 30
0.0
 10
145.5008
 20
-31.6015
 30
0.0
  0
SPLINE
  5
AA
330
1F
100
AcDbEntity
  8
layer 1
 62
     7
100
AcDbSpline
210
0.0
220
0.0
230
1.0
 70
    11
 71
     3
 72
    56
 73
    52
 74
     0
 42
0.0000000001
 43
0.0000000001
 12
1.0
 22
0.0
 32
0.0
 13
1.0
 23
0.0
 33
0.0
 40
0.0
 40
0.0
 40
0.0
 40
0.0
 40
0.0714285714285714
 40
0.0714285714285714
 40
0.0714285714285714
 40
0.0714285714285714
 40
0.1428571428571428
 40
0.1428571428571428
 40
0.1428571428571428
 40
0.1428571428571428
 40
0.2142857142857143
 40
0.2142857142857143
 40
0.2142857142857143
 40
0.2142857142857143
 40
0.2857142857142857
 40
0.2857142857142857
 40
0.2857142857142857
 40
0.2857142857142857
 40
0.3571428571428572
 40
0.3571428571428572
 40
0.3571428571428572
 40
0.3571428571428572
 40
0.4285714285714285
 40
0.4285714285714285
 40
0.4285714285714285
 40
0.4285714285714285
 40
0.5
 40
0.5
 40
0.5
 40
0.5
 40
0.5714285714285714
 40
0.5714285714285714
 40
0.5714285714285714
 40
0.5714285714285714
 40
0.6428571428571429
 40
0.6428571428571429
 40
0.6428571428571429
 40
0.6428571428571429
 40
0.7142857142857143
 40
0.7142857142857143
 40
0.7142857142857143
 40
0.7142857142857143
 40
0.7857142857142857
 40
0.7857142857142857
 40
0.7857142857142857
 40
0.7857142857142857
 40
0.8571428571428571
 40
0.8571428571428571
 40
0.8571428571428571
 40
0.8571428571428571
 40
1.0
 40
1.0
 40
1.0
 40
1.0
 10
137.3291
 20
-39.2957
 30
0.0
 10
137.3291
 20
-39.2957
 30
0.0
 10
135.3072
 20
-40.5239
 30
0.0
 10
135.3072
 20
-40.5239
 30
0.0
 10
135.3072
 20
-40.5239
 30
0.0
 10
135.3072
 20
-40.5239
 30
0.0
 10
136.6134
 20
-41.6088
 30
0.0
 10
136.6134
 20
-41.6088
 30
0.0
 10
136.6134
 20
-41.6088
 30
0.0
 10
138.143
 20
-42.8794
 30
0.0
 10
139.7447
 20
-45.26
 30
0.0
 10
140.4371
 20
-47.2918
 30
0.0
 10
140.4371
 20
-47.2918
 30
0.0
 10
140.7612
 20
-48.2429
 30
0.0
 10
141.1179
 20
-48.7334
 30
0.0
 10
141.489
 20
-48.7383
 30
0.0
 10
141.489
 20
-48.7383
 30
0.0
 10
141.7979
 20
-48.7424
 30
0.0
 10
142.6551
 20
-48.8458
 30
0.0
 10
143.394
 20
-48.9682
 30
0.0
 10
143.394
 20
-48.9682
 30
0.0
 10
144.6648
 20
-49.1786
 30
0.0
 10
144.7864
 20
-49.1265
 30
0.0
 10
145.6424
 20
-48.0041
 30
0.0
 10
145.6424
 20
-48.0041
 30
0.0
 10
146.7912
 20
-46.498
 30
0.0
 10
147.3773
 20
-44.8605
 30
0.0
 10
147.3955
 20
-43.1061
 30
0.0
 10
147.3955
 20
-43.1061
 30
0.0
 10
147.4102
 20
-41.6777
 30
0.0
 10
146.4199
 20
-38.4032
 30
0.0
 10
145.4493
 20
-36.6714
 30
0.0
 10
145.4493
 20
-36.6714
 30
0.0
 10
145.1433
 20
-36.1253
 30
0.0
 10
144.6476
 20
-35.2043
 30
0.0
 10
144.3479
 20
-34.6248
 30
0.0
 10
144.3479
 20
-34.6248
 30
0.0
 10
144.3479
 20
-34.6248
 30
0.0
 10
143.803
 20
-33.571
 30
0.0
 10
143.803
 20
-33.571
 30
0.0
 10
143.803
 20
-33.571
 30
0.0
 10
143.803
 20
-33.571
 30
0.0
 10
141.577
 20
-35.8192
 30
0.0
 10
141.577
 20
-35.8192
 30
0.0
 10
141.577
 20
-35.8192
 30
0.0
 10
140.3527
 20
-37.0557
 30
0.0
 10
138.4411
 20
-38.6201
 30
0.0
 10
137.3292
 20
-39.2957
 30
0.0
 10
137.3292
 20
-39.2957
 30
0.0
 10
137.3292
 20
-39.2957
 30
0.0
 10
137.3291
 20
-39.2957
 30
0.0
 10
137.3291
 20
-39.2957
 30
0.0
  0
SPLINE
  5
AB
330
1F
100
AcDbEntity
  8
layer 1
 62
     7
100
AcDbSpline
210
0.0
220
0.0
230
1.0
 70
    11
 71
     3
 72
    20
 73
    16
 74
     0
 42
0.0000000001
 43
0.0000000001
 12
1.0
 22
0.0
 32
0.0
 13
1.0
 23
0.0
 33
0.0
 40
0.0
 40
0.0
 40
0.0
 40
0.0
 40
0.2
 40
0.2
 40
0.2
 40
0.2
 40
0.4
 40
0.4
 40
0.4
 40
0.4
 40
0.6
 40
0.6
 40
0.6
 40
0.6
 40
1.0
 40
1.0
 40
1.0
 40
1.0
 10
137.9874
 20
-48.4574
 30
0.0
 10
135.6468
 20
-49.0597
 30
0.0
 10
133.3574
 20
-50.2776
 30
0.0
 10
132.2947
 20
-52.3877
 30
0.0
 10
132.2947
 20
-52.3877
 30
0.0
 10
131.2321
 20
-50.2775
 30
0.0
 10
128.9426
 20
-49.0597
 30
0.0
 10
126.602
 20
-48.4574
 30
0.0
 10
126.602
 20
-48.4574
 30
0.0
 10
127.2147
 20
-46.0856
 30
0.0
 10
129.9854
 20
-42.3848
 30
0.0
 10
132.2947
 20
-41.3996
 30
0.0
 10
132.2947
 20
-41.3996
 30
0.0
 10
134.604
 20
-42.3848
 30
0.0
 10
137.3747
 20
-46.0856
 30
0.0
 10
137.9874
 20
-48.4574
 30
0.0
  0
SPLINE
  5
AC
330
1F
100
AcDbEntity
  8
layer 1
 62
     7
100
AcDbSpline
210
0.0
220
0.0
230
1.0
 70
    11
 71
     3
 72
    16
 73
    12
 74
     0
 42
0.0000000001
 43
0.0000000001
 12
1.0
 22
0.0
 32
0.0
 13
1.0
 23
0.0
 33
0.0
 40
0.0
 40
0.0
 40
0.0
 40
0.0
 40
0.25
 40
0.25
 40
0.25
 40
0.25
 40
0.5
 40
0.5
 40
0.5
 40
0.5
 40
1.0
 40
1.0
 40
1.0
 40
1.0
 10
185.7361
 20
-52.2566
 30
0.0
 10
188.4205
 20
-53.1504
 30
0.0
 10
191.3276
 20
-56.0318
 30
0.0
 10
192.1897
 20
-59.9623
 30
0.0
 10
192.1897
 20
-59.9623
 30
0.0
 10
192.1897
 20
-59.9623
 30
0.0
 10
192.1897
 20
-47.4588
 30
0.0
 10
192.1897
 20
-47.4588
 30
0.0
 10
192.1897
 20
-47.4588
 30
0.0
 10
190.3562
 20
-49.6672
 30
0.0
 10
188.2522
 20
-51.1807
 30
0.0
 10
185.7361
 20
-52.2566
 30
0.0
  0
SPLINE
  5
AD
330
1F
100
AcDbEntity
  8
layer 1
 62
     7
100
AcDbSpline
210
0.0
220
0.0
230
1.0
 70
    11
 71
     3
 72
    28
 73
    24
 74
     0
 42
0.0000000001
 43
0.0000000001
 12
1.0
 22
0.0
 32
0.0
 13
1.0
 23
0.0
 33
0.0
 40
0.0
 40
0.0
 40
0.0
 40
0.0
 40
0.1428571428571428
 40
0.1428571428571428
 40
0.1428571428571428
 40
0.1428571428571428
 40
0.2857142857142857
 40
0.2857142857142857
 40
0.2857142857142857
 40
0.2857142857142857
 40
0.4285714285714285
 40
0.4285714285714285
 40
0.4285714285714285
 40
0.4285714285714285
 40
0.5714285714285714
 40
0.5714285714285714
 40
0.5714285714285714
 40
0.5714285714285714
 40
0.7142857142857143
 40
0.7142857142857143
 40
0.7142857142857143
 40
0.7142857142857143
 40
1.0
 40
1.0
 40
1.0
 40
1.0
 10
157.745
 20
-56.9229
 30
0.0
 10
158.7403
 20
-60.4991
 30
0.0
 10
157.8113
 20
-62.7069
 30
0.0
 10
155.5679
 20
-66.1019
 30
0.0
 10
155.5679
 20
-66.1019
 30
0.0
 10
159.6185
 20
-64.9831
 30
0.0
 10
163.4788
 20
-64.5841
 30
0.0
 10
167.7201
 20
-65.8224
 30
0.0
 10
167.7201
 20
-65.8224
 30
0.0
 10
164.9624
 20
-57.1698
 30
0.0
 10
171.7827
 20
-52.7523
 30
0.0
 10
174.4332
 20
-52.577
 30
0.0
 10
174.4332
 20
-52.577
 30
0.0
 10
172.732
 20
-52.1133
 30
0.0
 10
171.2009
 20
-50.6712
 30
0.0
 10
170.2159
 20
-49.1715
 30
0.0
 10
170.2159
 20
-49.1715
 30
0.0
 10
169.5479
 20
-55.4569
 30
0.0
 10
162.488
 20
-58.7751
 30
0.0
 10
157.745
 20
-56.923
 30
0.0
 10
157.745
 20
-56.923
 30
0.0
 10
157.745
 20
-56.923
 30
0.0
 10
157.745
 20
-56.9229
 30
0.0
 10
157.745
 20
-56.9229
 30
0.0
  0
SPLINE
  5
AE
330
1F
100
AcDbEntity
  8
layer 1
 62
     7
100
AcDbSpline
210
0.0
220
0.0
230
1.0
 70
    11
 71
     3
 72
    20
 73
    16
 74
     0
 42
0.0000000001
 43
0.0000000001
 12
1.0
 22
0.0
 32
0.0
 13
1.0
 23
0.0
 33
0.0
 40
0.0
 40
0.0
 40
0.0
 40
0.0
 40
0.2
 40
0.2
 40
0.2
 40
0.2
 40
0.4
 40
0.4
 40
0.4
 40
0.4
 40
0.6
 40
0.6
 40
0.6
 40
0.6
 40
1.0
 40
1.0
 40
1.0
 40
1.0
 10
141.5957
 20
-52.3617
 30
0.0
 10
141.6135
 20
-52.6743
 30
0.0
 10
141.7277
 20
-53.2868
 30
0.0
 10
141.8494
 20
-53.7228
 30
0.0
 10
141.8494
 20
-53.7228
 30
0.0
 10
142.0706
 20
-54.5151
 30
0.0
 10
142.0711
 20
-54.515
 30
0.0
 10
142.7693
 20
-53.4124
 30
0.0
 10
142.7693
 20
-53.4124
 30
0.0
 10
143.5687
 20
-52.1498
 30
0.0
 10
143.4777
 20
-51.7933
 30
0.0
 10
142.3562
 20
-51.7933
 30
0.0
 10
142.3562
 20
-51.7933
 30
0.0
 10
141.8054
 20
-51.7933
 30
0.0
 10
141.5732
 20
-51.9668
 30
0.0
 10
141.5957
 20
-52.3617
 30
0.0
  0
SPLINE
  5
AF
330
1F
100
AcDbEntity
  8
layer 1
 62
     7
100
AcDbSpline
210
0.0
220
0.0
230
1.0
 70
    11
 71
     3
 72
    36
 73
    32
 74
     0
 42
0.0000000001
 43
0.0000000001
 12
1.0
 22
0.0
 32
0.0
 13
1.0
 23
0.0
 33
0.0
 40
0.0
 40
0.0
 40
0.0
 40
0.0
 40
0.1111111111111111
 40
0.1111111111111111
 40
0.1111111111111111
 40
0.1111111111111111
 40
0.2222222222222222
 40
0.2222222222222222
 40
0.2222222222222222
 40
0.2222222222222222
 40
0.3333333333333333
 40
0.3333333333333333
 40
0.3333333333333333
 40
0.3333333333333333
 40
0.4444444444444444
 40
0.4444444444444444
 40
0.4444444444444444
 40
0.4444444444444444
 40
0.5555555555555556
 40
0.5555555555555556
 40
0.5555555555555556
 40
0.5555555555555556
 40
0.6666666666666666
 40
0.6666666666666666
 40
0.6666666666666666
 40
0.6666666666666666
 40
0.7777777777777778
 40
0.7777777777777778
 40
0.7777777777777778
 40
0.7777777777777778
 40
1.0
 40
1.0
 40
1.0
 40
1.0
 10
145.1361
 20
-59.5885
 30
0.0
 10
147.1028
 20
-61.3455
 30
0.0
 10
149.7389
 20
-58.9298
 30
0.0
 10
148.3409
 20
-57.4017
 30
0.0
 10
148.3409
 20
-57.4017
 30
0.0
 10
147.7452
 20
-56.5233
 30
0.0
 10
148.6796
 20
-55.8175
 30
0.0
 10
149.4022
 20
-56.072
 30
0.0
 10
149.4022
 20
-56.072
 30
0.0
 10
150.3463
 20
-56.4233
 30
0.0
 10
151.4673
 20
-57.6919
 30
0.0
 10
151.6321
 20
-59.0325
 30
0.0
 10
151.6321
 20
-59.0325
 30
0.0
 10
152.0262
 20
-64.7076
 30
0.0
 10
144.1057
 20
-64.7185
 30
0.0
 10
142.0953
 20
-60.9286
 30
0.0
 10
142.0953
 20
-60.9286
 30
0.0
 10
141.72
 20
-63.5908
 30
0.0
 10
139.1357
 20
-67.1841
 30
0.0
 10
136.7063
 20
-68.8114
 30
0.0
 10
136.7063
 20
-68.8114
 30
0.0
 10
144.3766
 20
-70.2694
 30
0.0
 10
152.3046
 20
-67.2575
 30
0.0
 10
153.9
 20
-60.4284
 30
0.0
 10
153.9
 20
-60.4284
 30
0.0
 10
154.4973
 20
-57.5511
 30
0.0
 10
153.7602
 20
-55.3601
 30
0.0
 10
151.7486
 20
-54.0338
 30
0.0
 10
151.7486
 20
-54.0338
 30
0.0
 10
145.4739
 20
-51.4238
 30
0.0
 10
142.8016
 20
-56.9784
 30
0.0
 10
145.1361
 20
-59.5885
 30
0.0
  0
SPLINE
  5
B0
330
1F
100
AcDbEntity
  8
layer 1
 62
     7
100
AcDbSpline
210
0.0
220
0.0
230
1.0
 70
    11
 71
     3
 72
    48
 73
    44
 74
     0
 42
0.0000000001
 43
0.0000000001
 12
1.0
 22
0.0
 32
0.0
 13
1.0
 23
0.0
 33
0.0
 40
0.0
 40
0.0
 40
0.0
 40
0.0
 40
0.0833333333333333
 40
0.0833333333333333
 40
0.0833333333333333
 40
0.0833333333333333
 40
0.1666666666666667
 40
0.1666666666666667
 40
0.1666666666666667
 40
0.1666666666666667
 40
0.25
 40
0.25
 40
0.25
 40
0.25
 40
0.3333333333333333
 40
0.3333333333333333
 40
0.3333333333333333
 40
0.3333333333333333
 40
0.4166666666666667
 40
0.4166666666666667
 40
0.4166666666666667
 40
0.4166666666666667
 40
0.5
 40
0.5
 40
0.5
 40
0.5
 40
0.5833333333333334
 40
0.5833333333333334
 40
0.5833333333333334
 40
0.5833333333333334
 40
0.6666666666666666
 40
0.6666666666666666
 40
0.6666666666666666
 40
0.6666666666666666
 40
0.75
 40
0.75
 40
0.75
 40
0.75
 40
0.8333333333333334
 40
0.8333333333333334
 40
0.8333333333333334
 40
0.8333333333333334
 40
1.0
 40
1.0
 40
1.0
 40
1.0
 10
171.1423
 20
-59.3806
 30
0.0
 10
169.2157
 20
-64.0849
 30
0.0
 10
173.4483
 20
-67.6472
 30
0.0
 10
178.1778
 20
-65.637
 30
0.0
 10
178.1778
 20
-65.637
 30
0.0
 10
179.8407
 20
-64.8872
 30
0.0
 10
180.5007
 20
-63.4839
 30
0.0
 10
179.738
 20
-62.3199
 30
0.0
 10
179.738
 20
-62.3199
 30
0.0
 10
178.9957
 20
-61.187
 30
0.0
 10
178.0205
 20
-61.0317
 30
0.0
 10
176.8911
 20
-61.8666
 30
0.0
 10
176.8911
 20
-61.8666
 30
0.0
 10
176.0995
 20
-62.4518
 30
0.0
 10
175.8104
 20
-62.1415
 30
0.0
 10
175.5821
 20
-61.7812
 30
0.0
 10
175.5821
 20
-61.7812
 30
0.0
 10
175.1791
 20
-61.1451
 30
0.0
 10
175.4
 20
-60.1088
 30
0.0
 10
175.8625
 20
-59.5219
 30
0.0
 10
175.8625
 20
-59.5219
 30
0.0
 10
177.7414
 20
-57.1374
 30
0.0
 10
181.5883
 20
-57.556
 30
0.0
 10
182.9784
 20
-60.2439
 30
0.0
 10
182.9784
 20
-60.2439
 30
0.0
 10
185.4128
 20
-64.512
 30
0.0
 10
182.9539
 20
-68.1336
 30
0.0
 10
178.7077
 20
-69.3325
 30
0.0
 10
178.7077
 20
-69.3325
 30
0.0
 10
180.146
 20
-69.7045
 30
0.0
 10
181.547
 20
-70.6695
 30
0.0
 10
182.6054
 20
-71.2402
 30
0.0
 10
182.6054
 20
-71.2402
 30
0.0
 10
186.6023
 20
-69.7724
 30
0.0
 10
187.9393
 20
-66.0982
 30
0.0
 10
188.0306
 20
-62.9338
 30
0.0
 10
188.0306
 20
-62.9338
 30
0.0
 10
188.0098
 20
-59.5524
 30
0.0
 10
185.1113
 20
-55.905
 30
0.0
 10
180.808
 20
-54.7453
 30
0.0
 10
180.808
 20
-54.7453
 30
0.0
 10
177.0032
 20
-53.7523
 30
0.0
 10
172.8406
 20
-56.0063
 30
0.0
 10
171.1423
 20
-59.3806
 30
0.0
  0
SPLINE
  5
B1
330
1F
100
AcDbEntity
  8
layer 1
 62
     7
100
AcDbSpline
210
0.0
220
0.0
230
1.0
 70
    11
 71
     3
 72
    16
 73
    12
 74
     0
 42
0.0000000001
 43
0.0000000001
 12
1.0
 22
0.0
 32
0.0
 13
1.0
 23
0.0
 33
0.0
 40
0.0
 40
0.0
 40
0.0
 40
0.0
 40
0.25
 40
0.25
 40
0.25
 40
0.25
 40
0.5
 40
0.5
 40
0.5
 40
0.5
 40
1.0
 40
1.0
 40
1.0
 40
1.0
 10
185.9761
 20
-73.6998
 30
0.0
 10
188.859
 20
-75.3697
 30
0.0
 10
190.5849
 20
-77.8846
 30
0.0
 10
192.1897
 20
-80.7705
 30
0.0
 10
192.1897
 20
-80.7705
 30
0.0
 10
192.1897
 20
-80.7705
 30
0.0
 10
192.1897
 20
-66.9223
 30
0.0
 10
192.1897
 20
-66.9223
 30
0.0
 10
192.1897
 20
-66.9223
 30
0.0
 10
190.3818
 20
-70.4783
 30
0.0
 10
188.4952
 20
-72.7795
 30
0.0
 10
185.9761
 20
-73.6998
 30
0.0
  0
SPLINE
  5
B2
330
1F
100
AcDbEntity
  8
layer 1
 62
     7
100
AcDbSpline
210
0.0
220
0.0
230
1.0
 70
    11
 71
     3
 72
    36
 73
    32
 74
     0
 42
0.0000000001
 43
0.0000000001
 12
1.0
 22
0.0
 32
0.0
 13
1.0
 23
0.0
 33
0.0
 40
0.0
 40
0.0
 40
0.0
 40
0.0
 40
0.1111111111111111
 40
0.1111111111111111
 40
0.1111111111111111
 40
0.1111111111111111
 40
0.2222222222222222
 40
0.2222222222222222
 40
0.2222222222222222
 40
0.2222222222222222
 40
0.3333333333333333
 40
0.3333333333333333
 40
0.3333333333333333
 40
0.3333333333333333
 40
0.4444444444444444
 40
0.4444444444444444
 40
0.4444444444444444
 40
0.4444444444444444
 40
0.5555555555555556
 40
0.5555555555555556
 40
0.5555555555555556
 40
0.5555555555555556
 40
0.6666666666666666
 40
0.6666666666666666
 40
0.6666666666666666
 40
0.6666666666666666
 40
0.7777777777777778
 40
0.7777777777777778
 40
0.7777777777777778
 40
0.7777777777777778
 40
1.0
 40
1.0
 40
1.0
 40
1.0
 10
156.791
 20
-69.8901
 30
0.0
 10
161.4972
 20
-70.7359
 30
0.0
 10
164.4649
 20
-71.8395
 30
0.0
 10
166.8977
 20
-74.8541
 30
0.0
 10
166.8977
 20
-74.8541
 30
0.0
 10
167.623
 20
-73.59
 30
0.0
 10
169.0492
 20
-73.5247
 30
0.0
 10
169.9678
 20
-73.8739
 30
0.0
 10
169.9678
 20
-73.8739
 30
0.0
 10
171.1381
 20
-74.3188
 30
0.0
 10
171.0488
 20
-75.179
 30
0.0
 10
169.8324
 20
-75.179
 30
0.0
 10
169.8324
 20
-75.179
 30
0.0
 10
169.2075
 20
-75.179
 30
0.0
 10
168.7496
 20
-75.4031
 30
0.0
 10
168.5277
 20
-75.8174
 30
0.0
 10
168.5277
 20
-75.8174
 30
0.0
 10
167.7466
 20
-78.7606
 30
0.0
 10
171.8609
 20
-78.6071
 30
0.0
 10
173.094
 20
-76.5032
 30
0.0
 10
173.094
 20
-76.5032
 30
0.0
 10
174.2817
 20
-74.4866
 30
0.0
 10
173.3696
 20
-72.0633
 30
0.0
 10
171.3829
 20
-71.2497
 30
0.0
 10
171.3829
 20
-71.2497
 30
0.0
 10
168.6992
 20
-69.9153
 30
0.0
 10
163.0368
 20
-69.2774
 30
0.0
 10
156.7911
 20
-69.8902
 30
0.0
 10
156.7911
 20
-69.8902
 30
0.0
 10
156.7911
 20
-69.8902
 30
0.0
 10
156.791
 20
-69.8901
 30
0.0
 10
156.791
 20
-69.8901
 30
0.0
  0
SPLINE
  5
B3
330
1F
100
AcDbEntity
  8
layer 1
 62
     7
100
AcDbSpline
210
0.0
220
0.0
230
1.0
 70
    11
 71
     3
 72
    16
 73
    12
 74
     0
 42
0.0000000001
 43
0.0000000001
 12
1.0
 22
0.0
 32
0.0
 13
1.0
 23
0.0
 33
0.0
 40
0.0
 40
0.0
 40
0.0
 40
0.0
 40
0.25
 40
0.25
 40
0.25
 40
0.25
 40
0.5
 40
0.5
 40
0.5
 40
0.5
 40
1.0
 40
1.0
 40
1.0
 40
1.0
 10
134.4853
 20
-80.4274
 30
0.0
 10
136.1179
 20
-76.1152
 30
0.0
 10
139.0877
 20
-72.9204
 30
0.0
 10
143.1357
 20
-71.1577
 30
0.0
 10
143.1357
 20
-71.1577
 30
0.0
 10
143.1357
 20
-71.1577
 30
0.0
 10
138.598
 20
-72.2245
 30
0.0
 10
134.5171
 20
-71.1188
 30
0.0
 10
134.5171
 20
-71.1188
 30
0.0
 10
134.5171
 20
-71.1188
 30
0.0
 10
134.4853
 20
-80.4274
 30
0.0
 10
134.4853
 20
-80.4274
 30
0.0
  0
SPLINE
  5
B4
330
1F
100
AcDbEntity
  8
layer 1
 62
     7
100
AcDbSpline
210
0.0
220
0.0
230
1.0
 70
    11
 71
     3
 72
    64
 73
    60
 74
     0
 42
0.0000000001
 43
0.0000000001
 12
1.0
 22
0.0
 32
0.0
 13
1.0
 23
0.0
 33
0.0
 40
0.0
 40
0.0
 40
0.0
 40
0.0
 40
0.0625
 40
0.0625
 40
0.0625
 40
0.0625
 40
0.125
 40
0.125
 40
0.125
 40
0.125
 40
0.1875
 40
0.1875
 40
0.1875
 40
0.1875
 40
0.25
 40
0.25
 40
0.25
 40
0.25
 40
0.3125
 40
0.3125
 40
0.3125
 40
0.3125
 40
0.375
 40
0.375
 40
0.375
 40
0.375
 40
0.4375
 40
0.4375
 40
0.4375
 40
0.4375
 40
0.5
 40
0.5
 40
0.5
 40
0.5
 40
0.5625
 40
0.5625
 40
0.5625
 40
0.5625
 40
0.625
 40
0.625
 40
0.625
 40
0.625
 40
0.6875
 40
0.6875
 40
0.6875
 40
0.6875
 40
0.75
 40
0.75
 40
0.75
 40
0.75
 40
0.8125
 40
0.8125
 40
0.8125
 40
0.8125
 40
0.875
 40
0.875
 40
0.875
 40
0.875
 40
1.0
 40
1.0
 40
1.0
 40
1.0
 10
169.6458
 20
-81.2354
 30
0.0
 10
169.6458
 20
-81.2354
 30
0.0
 10
169.6442
 20
-83.9486
 30
0.0
 10
169.6442
 20
-83.9486
 30
0.0
 10
169.6442
 20
-83.9486
 30
0.0
 10
171.8156
 20
-82.202
 30
0.0
 10
174.7416
 20
-81.614
 30
0.0
 10
177.0235
 20
-81.7562
 30
0.0
 10
177.0235
 20
-81.7562
 30
0.0
 10
185.9918
 20
-82.7452
 30
0.0
 10
188.1463
 20
-92.202
 30
0.0
 10
182.2627
 20
-96.8484
 30
0.0
 10
182.2627
 20
-96.8484
 30
0.0
 10
180.0024
 20
-98.6293
 30
0.0
 10
176.9574
 20
-98.3089
 30
0.0
 10
175.364
 20
-96.7987
 30
0.0
 10
175.364
 20
-96.7987
 30
0.0
 10
174.0641
 20
-95.5533
 30
0.0
 10
173.9776
 20
-93.729
 30
0.0
 10
175.1621
 20
-92.5444
 30
0.0
 10
175.1621
 20
-92.5444
 30
0.0
 10
176.0794
 20
-91.6271
 30
0.0
 10
176.9666
 20
-91.7825
 30
0.0
 10
176.9666
 20
-92.8605
 30
0.0
 10
176.9666
 20
-92.8605
 30
0.0
 10
176.9666
 20
-93.8381
 30
0.0
 10
178.2651
 20
-94.5392
 30
0.0
 10
179.1744
 20
-94.0526
 30
0.0
 10
179.1744
 20
-94.0526
 30
0.0
 10
181.1201
 20
-93.0113
 30
0.0
 10
181.7433
 20
-90.5455
 30
0.0
 10
180.5537
 20
-88.5946
 30
0.0
 10
180.5537
 20
-88.5946
 30
0.0
 10
178.3373
 20
-85.4712
 30
0.0
 10
174.45
 20
-85.2224
 30
0.0
 10
171.4881
 20
-87.7223
 30
0.0
 10
171.4881
 20
-87.7223
 30
0.0
 10
166.9547
 20
-91.914
 30
0.0
 10
168.6138
 20
-98.1057
 30
0.0
 10
173.079
 20
-100.3433
 30
0.0
 10
173.079
 20
-100.3433
 30
0.0
 10
178.5589
 20
-102.993
 30
0.0
 10
181.9991
 20
-101.6484
 30
0.0
 10
186.0597
 20
-98.0264
 30
0.0
 10
186.0597
 20
-98.0264
 30
0.0
 10
190.3275
 20
-94.0752
 30
0.0
 10
191.2536
 20
-88.1724
 30
0.0
 10
188.4356
 20
-82.8831
 30
0.0
 10
188.4356
 20
-82.8831
 30
0.0
 10
185.6978
 20
-77.85
 30
0.0
 10
181.8874
 20
-74.8018
 30
0.0
 10
177.2176
 20
-72.9053
 30
0.0
 10
177.2176
 20
-72.9053
 30
0.0
 10
178.4843
 20
-79.2573
 30
0.0
 10
173.6238
 20
-81.9132
 30
0.0
 10
169.646
 20
-81.2354
 30
0.0
 10
169.646
 20
-81.2354
 30
0.0
 10
169.646
 20
-81.2354
 30
0.0
 10
169.6458
 20
-81.2354
 30
0.0
 10
169.6458
 20
-81.2354
 30
0.0
  0
SPLINE
  5
B5
330
1F
100
AcDbEntity
  8
layer 1
 62
     7
100
AcDbSpline
210
0.0
220
0.0
230
1.0
 70
    11
 71
     3
 72
    44
 73
    40
 74
     0
 42
0.0000000001
 43
0.0000000001
 12
1.0
 22
0.0
 32
0.0
 13
1.0
 23
0.0
 33
0.0
 40
0.0
 40
0.0
 40
0.0
 40
0.0
 40
0.0909090909090909
 40
0.0909090909090909
 40
0.0909090909090909
 40
0.0909090909090909
 40
0.1818181818181818
 40
0.1818181818181818
 40
0.1818181818181818
 40
0.1818181818181818
 40
0.2727272727272727
 40
0.2727272727272727
 40
0.2727272727272727
 40
0.2727272727272727
 40
0.3636363636363636
 40
0.3636363636363636
 40
0.3636363636363636
 40
0.3636363636363636
 40
0.4545454545454545
 40
0.4545454545454545
 40
0.4545454545454545
 40
0.4545454545454545
 40
0.5454545454545454
 40
0.5454545454545454
 40
0.5454545454545454
 40
0.5454545454545454
 40
0.6363636363636364
 40
0.6363636363636364
 40
0.6363636363636364
 40
0.6363636363636364
 40
0.7272727272727273
 40
0.7272727272727273
 40
0.7272727272727273
 40
0.7272727272727273
 40
0.8181818181818182
 40
0.8181818181818182
 40
0.8181818181818182
 40
0.8181818181818182
 40
1.0
 40
1.0
 40
1.0
 40
1.0
 10
147.6348
 20
-73.3899
 30
0.0
 10
141.4208
 20
-75.7649
 30
0.0
 10
139.1126
 20
-78.3336
 30
0.0
 10
136.3663
 20
-83.0223
 30
0.0
 10
136.3663
 20
-83.0223
 30
0.0
 10
137.029
 20
-83.9001
 30
0.0
 10
137.2574
 20
-85.428
 30
0.0
 10
137.289
 20
-86.5707
 30
0.0
 10
137.289
 20
-86.5707
 30
0.0
 10
139.5269
 20
-84.0481
 30
0.0
 10
144.8615
 20
-82.6085
 30
0.0
 10
149.7665
 20
-84.7468
 30
0.0
 10
149.7665
 20
-84.7468
 30
0.0
 10
149.0059
 20
-80.1422
 30
0.0
 10
152.2588
 20
-76.5232
 30
0.0
 10
156.4399
 20
-76.4781
 30
0.0
 10
156.4399
 20
-76.4781
 30
0.0
 10
158.9583
 20
-76.75
 30
0.0
 10
162.0643
 20
-78.9707
 30
0.0
 10
160.9898
 20
-81.2555
 30
0.0
 10
160.9898
 20
-81.2555
 30
0.0
 10
160.4203
 20
-82.4439
 30
0.0
 10
159.6373
 20
-82.5567
 30
0.0
 10
159.1644
 20
-81.5187
 30
0.0
 10
159.1644
 20
-81.5187
 30
0.0
 10
157.8347
 20
-79.6699
 30
0.0
 10
156.0473
 20
-79.9586
 30
0.0
 10
154.8356
 20
-81.4637
 30
0.0
 10
154.8356
 20
-81.4637
 30
0.0
 10
153.2906
 20
-83.7138
 30
0.0
 10
154.825
 20
-86.6717
 30
0.0
 10
157.2689
 20
-87.7148
 30
0.0
 10
157.2689
 20
-87.7148
 30
0.0
 10
163.0092
 20
-90.2014
 30
0.0
 10
167.7679
 20
-84.5402
 30
0.0
 10
165.447
 20
-79.4225
 30
0.0
 10
165.447
 20
-79.4225
 30
0.0
 10
162.2318
 20
-73.1889
 30
0.0
 10
154.0799
 20
-71.8201
 30
0.0
 10
147.6348
 20
-73.3899
 30
0.0
  0
SPLINE
  5
B6
330
1F
100
AcDbEntity
  8
layer 1
 62
     7
100
AcDbSpline
210
0.0
220
0.0
230
1.0
 70
    11
 71
     3
 72
    68
 73
    64
 74
     0
 42
0.0000000001
 43
0.0000000001
 12
1.0
 22
0.0
 32
0.0
 13
1.0
 23
0.0
 33
0.0
 40
0.0
 40
0.0
 40
0.0
 40
0.0
 40
0.0588235294117647
 40
0.0588235294117647
 40
0.0588235294117647
 40
0.0588235294117647
 40
0.1176470588235294
 40
0.1176470588235294
 40
0.1176470588235294
 40
0.1176470588235294
 40
0.1764705882352941
 40
0.1764705882352941
 40
0.1764705882352941
 40
0.1764705882352941
 40
0.2352941176470588
 40
0.2352941176470588
 40
0.2352941176470588
 40
0.2352941176470588
 40
0.2941176470588235
 40
0.2941176470588235
 40
0.2941176470588235
 40
0.2941176470588235
 40
0.3529411764705883
 40
0.3529411764705883
 40
0.3529411764705883
 40
0.3529411764705883
 40
0.4117647058823529
 40
0.4117647058823529
 40
0.4117647058823529
 40
0.4117647058823529
 40
0.4705882352941176
 40
0.4705882352941176
 40
0.4705882352941176
 40
0.4705882352941176
 40
0.5294117647058824
 40
0.5294117647058824
 40
0.5294117647058824
 40
0.5294117647058824
 40
0.5882352941176471
 40
0.5882352941176471
 40
0.5882352941176471
 40
0.5882352941176471
 40
0.6470588235294118
 40
0.6470588235294118
 40
0.6470588235294118
 40
0.6470588235294118
 40
0.7058823529411765
 40
0.7058823529411765
 40
0.7058823529411765
 40
0.7058823529411765
 40
0.7647058823529411
 40
0.7647058823529411
 40
0.7647058823529411
 40
0.7647058823529411
 40
0.8235294117647058
 40
0.8235294117647058
 40
0.8235294117647058
 40
0.8235294117647058
 40
0.8823529411764706
 40
0.8823529411764706
 40
0.8823529411764706
 40
0.8823529411764706
 40
1.0
 40
1.0
 40
1.0
 40
1.0
 10
142.5332
 20
-87.8774
 30
0.0
 10
140.495
 20
-88.3146
 30
0.0
 10
138.8238
 20
-89.8553
 30
0.0
 10
138.3072
 20
-91.7736
 30
0.0
 10
138.3072
 20
-91.7736
 30
0.0
 10
137.44
 20
-94.9075
 30
0.0
 10
141.3235
 20
-94.1286
 30
0.0
 10
142.573
 20
-93.836
 30
0.0
 10
142.573
 20
-93.836
 30
0.0
 10
143.5959
 20
-93.5925
 30
0.0
 10
143.9735
 20
-94.2651
 30
0.0
 10
143.5053
 20
-95.4965
 30
0.0
 10
143.5053
 20
-95.4965
 30
0.0
 10
141.0409
 20
-98.7869
 30
0.0
 10
136.4549
 20
-98.0333
 30
0.0
 10
134.6643
 20
-94.9917
 30
0.0
 10
134.6643
 20
-94.9917
 30
0.0
 10
134.1439
 20
-96.8013
 30
0.0
 10
134.5979
 20
-98.6205
 30
0.0
 10
135.4323
 20
-100.2341
 30
0.0
 10
135.4323
 20
-100.2341
 30
0.0
 10
137.189
 20
-99.3553
 30
0.0
 10
139.8478
 20
-99.3951
 30
0.0
 10
141.2385
 20
-100.123
 30
0.0
 10
141.2385
 20
-100.123
 30
0.0
 10
141.2385
 20
-100.6491
 30
0.0
 10
139.6979
 20
-101.7426
 30
0.0
 10
138.6248
 20
-101.9783
 30
0.0
 10
138.6248
 20
-101.9783
 30
0.0
 10
137.5093
 20
-102.2233
 30
0.0
 10
137.3992
 20
-102.6214
 30
0.0
 10
138.3119
 20
-103.1099
 30
0.0
 10
138.3119
 20
-103.1099
 30
0.0
 10
139.2545
 20
-103.6144
 30
0.0
 10
140.0072
 20
-105.1875
 30
0.0
 10
139.5328
 20
-105.6618
 30
0.0
 10
139.5328
 20
-105.6618
 30
0.0
 10
138.0927
 20
-106.1509
 30
0.0
 10
136.3649
 20
-105.5835
 30
0.0
 10
134.8873
 20
-105.0319
 30
0.0
 10
134.8873
 20
-105.0319
 30
0.0
 10
134.9914
 20
-107.2416
 30
0.0
 10
134.7612
 20
-108.7441
 30
0.0
 10
133.7453
 20
-110.7873
 30
0.0
 10
133.7453
 20
-110.7873
 30
0.0
 10
133.7453
 20
-110.7873
 30
0.0
 10
150.8305
 20
-110.7873
 30
0.0
 10
150.8305
 20
-110.7873
 30
0.0
 10
150.8305
 20
-110.7873
 30
0.0
 10
144.8524
 20
-105.1351
 30
0.0
 10
148.2147
 20
-95.6633
 30
0.0
 10
156.4038
 20
-95.6556
 30
0.0
 10
156.4038
 20
-95.6556
 30
0.0
 10
158.0898
 20
-95.6628
 30
0.0
 10
158.1324
 20
-95.0284
 30
0.0
 10
157.33
 20
-93.987
 30
0.0
 10
157.33
 20
-93.987
 30
0.0
 10
153.2534
 20
-89.4102
 30
0.0
 10
147.4658
 20
-86.8276
 30
0.0
 10
142.5333
 20
-87.8774
 30
0.0
 10
142.5333
 20
-87.8774
 30
0.0
 10
142.5333
 20
-87.8774
 30
0.0
 10
142.5332
 20
-87.8774
 30
0.0
 10
142.5332
 20
-87.8774
 30
0.0
  0
SPLINE
  5
B7
330
1F
100
AcDbEntity
  8
layer 1
 62
     7
100
AcDbSpline
210
0.0
220
0.0
230
1.0
 70
    11
 71
     3
 72
    28
 73
    24
 74
     0
 42
0.0000000001
 43
0.0000000001
 12
1.0
 22
0.0
 32
0.0
 13
1.0
 23
0.0
 33
0.0
 40
0.0
 40
0.0
 40
0.0
 40
0.0
 40
0.1428571428571428
 40
0.1428571428571428
 40
0.1428571428571428
 40
0.1428571428571428
 40
0.2857142857142857
 40
0.2857142857142857
 40
0.2857142857142857
 40
0.2857142857142857
 40
0.4285714285714285
 40
0.4285714285714285
 40
0.4285714285714285
 40
0.4285714285714285
 40
0.5714285714285714
 40
0.5714285714285714
 40
0.5714285714285714
 40
0.5714285714285714
 40
0.7142857142857143
 40
0.7142857142857143
 40
0.7142857142857143
 40
0.7142857142857143
 40
1.0
 40
1.0
 40
1.0
 40
1.0
 10
160.4073
 20
-91.3895
 30
0.0
 10
161.4837
 20
-92.1906
 30
0.0
 10
161.992
 20
-92.9187
 30
0.0
 10
162.2382
 20
-94.0241
 30
0.0
 10
162.2382
 20
-94.0241
 30
0.0
 10
162.3962
 20
-94.8141
 30
0.0
 10
162.9099
 20
-95.2191
 30
0.0
 10
165.0363
 20
-96.2303
 30
0.0
 10
165.0363
 20
-96.2303
 30
0.0
 10
164.5075
 20
-93.893
 30
0.0
 10
164.7014
 20
-91.8437
 30
0.0
 10
165.7204
 20
-90.2763
 30
0.0
 10
165.7204
 20
-90.2763
 30
0.0
 10
165.8333
 20
-89.5821
 30
0.0
 10
165.5244
 20
-89.547
 30
0.0
 10
164.7017
 20
-89.9738
 30
0.0
 10
164.7017
 20
-89.9738
 30
0.0
 10
163.2981
 20
-90.6743
 30
0.0
 10
162.06
 20
-91.2279
 30
0.0
 10
160.4072
 20
-91.3893
 30
0.0
 10
160.4072
 20
-91.3893
 30
0.0
 10
160.4072
 20
-91.3893
 30
0.0
 10
160.4073
 20
-91.3895
 30
0.0
 10
160.4073
 20
-91.3895
 30
0.0
  0
SPLINE
  5
B8
330
1F
100
AcDbEntity
  8
layer 1
 62
     7
100
AcDbSpline
210
0.0
220
0.0
230
1.0
 70
    11
 71
     3
 72
    48
 73
    44
 74
     0
 42
0.0000000001
 43
0.0000000001
 12
1.0
 22
0.0
 32
0.0
 13
1.0
 23
0.0
 33
0.0
 40
0.0
 40
0.0
 40
0.0
 40
0.0
 40
0.0833333333333333
 40
0.0833333333333333
 40
0.0833333333333333
 40
0.0833333333333333
 40
0.1666666666666667
 40
0.1666666666666667
 40
0.1666666666666667
 40
0.1666666666666667
 40
0.25
 40
0.25
 40
0.25
 40
0.25
 40
0.3333333333333333
 40
0.3333333333333333
 40
0.3333333333333333
 40
0.3333333333333333
 40
0.4166666666666667
 40
0.4166666666666667
 40
0.4166666666666667
 40
0.4166666666666667
 40
0.5
 40
0.5
 40
0.5
 40
0.5
 40
0.5833333333333334
 40
0.5833333333333334
 40
0.5833333333333334
 40
0.5833333333333334
 40
0.6666666666666666
 40
0.6666666666666666
 40
0.6666666666666666
 40
0.6666666666666666
 40
0.75
 40
0.75
 40
0.75
 40
0.75
 40
0.8333333333333334
 40
0.8333333333333334
 40
0.8333333333333334
 40
0.8333333333333334
 40
1.0
 40
1.0
 40
1.0
 40
1.0
 10
155.2669
 20
-99.2264
 30
0.0
 10
149.5974
 20
-101.4357
 30
0.0
 10
151.9978
 20
-110.7874
 30
0.0
 10
157.4062
 20
-107.803
 30
0.0
 10
157.4062
 20
-107.803
 30
0.0
 10
158.704
 20
-106.894
 30
0.0
 10
158.0068
 20
-104.411
 30
0.0
 10
156.4537
 20
-104.411
 30
0.0
 10
156.4537
 20
-104.411
 30
0.0
 10
155.6596
 20
-104.411
 30
0.0
 10
155.6924
 20
-103.684
 30
0.0
 10
156.5203
 20
-102.9348
 30
0.0
 10
156.5203
 20
-102.9348
 30
0.0
 10
158.02
 20
-101.5776
 30
0.0
 10
161.187
 20
-101.8094
 30
0.0
 10
162.0372
 20
-104.9331
 30
0.0
 10
162.0372
 20
-104.9331
 30
0.0
 10
162.5258
 20
-107.8232
 30
0.0
 10
161.9016
 20
-109.3313
 30
0.0
 10
159.5729
 20
-110.7874
 30
0.0
 10
159.5729
 20
-110.7874
 30
0.0
 10
159.5729
 20
-110.7874
 30
0.0
 10
166.4901
 20
-110.7874
 30
0.0
 10
166.4901
 20
-110.7874
 30
0.0
 10
166.4901
 20
-110.7874
 30
0.0
 10
166.79
 20
-107.9135
 30
0.0
 10
168.6662
 20
-106.5204
 30
0.0
 10
170.7105
 20
-106.2021
 30
0.0
 10
170.7105
 20
-106.2021
 30
0.0
 10
171.8145
 20
-106.0548
 30
0.0
 10
172.0298
 20
-105.3471
 30
0.0
 10
171.083
 20
-104.8789
 30
0.0
 10
171.083
 20
-104.8789
 30
0.0
 10
170.5097
 20
-104.5954
 30
0.0
 10
168.4137
 20
-103.2824
 30
0.0
 10
166.4138
 20
-101.9838
 30
0.0
 10
166.4138
 20
-101.9838
 30
0.0
 10
161.1467
 20
-98.5641
 30
0.0
 10
159.0988
 20
-98.0575
 30
0.0
 10
155.2669
 20
-99.2263
 30
0.0
 10
155.2669
 20
-99.2263
 30
0.0
 10
155.2669
 20
-99.2263
 30
0.0
 10
155.2669
 20
-99.2264
 30
0.0
 10
155.2669
 20
-99.2264
 30
0.0
  0
SPLINE
  5
B9
330
1F
100
AcDbEntity
  8
layer 1
 62
     7
100
AcDbSpline
210
0.0
220
0.0
230
1.0
 70
    11
 71
     3
 72
    24
 73
    20
 74
     0
 42
0.0000000001
 43
0.0000000001
 12
1.0
 22
0.0
 32
0.0
 13
1.0
 23
0.0
 33
0.0
 40
0.0
 40
0.0
 40
0.0
 40
0.0
 40
0.1666666666666667
 40
0.1666666666666667
 40
0.1666666666666667
 40
0.1666666666666667
 40
0.3333333333333333
 40
0.3333333333333333
 40
0.3333333333333333
 40
0.3333333333333333
 40
0.5
 40
0.5
 40
0.5
 40
0.5
 40
0.6666666666666666
 40
0.6666666666666666
 40
0.6666666666666666
 40
0.6666666666666666
 40
1.0
 40
1.0
 40
1.0
 40
1.0
 10
190.3363
 20
-101.5164
 30
0.0
 10
184.8033
 20
-107.09
 30
0.0
 10
178.5907
 20
-105.2555
 30
0.0
 10
172.9257
 20
-107.4228
 30
0.0
 10
172.9257
 20
-107.4228
 30
0.0
 10
169.754
 20
-108.3872
 30
0.0
 10
168.6511
 20
-111.0896
 30
0.0
 10
171.5884
 20
-110.7874
 30
0.0
 10
171.5884
 20
-110.7874
 30
0.0
 10
178.9473
 20
-110.7874
 30
0.0
 10
184.6939
 20
-110.7874
 30
0.0
 10
192.1897
 20
-110.7874
 30
0.0
 10
192.1897
 20
-110.7874
 30
0.0
 10
192.1897
 20
-110.7874
 30
0.0
 10
192.1897
 20
-100.1886
 30
0.0
 10
192.1897
 20
-100.1886
 30
0.0
 10
192.1897
 20
-100.1886
 30
0.0
 10
192.0832
 20
-100.1886
 30
0.0
 10
191.1659
 20
-100.7861
 30
0.0
 10
190.3363
 20
-101.5164
 30
0.0
  0
ENDSEC
  0
SECTION
  2
OBJECTS
  0
DICTIONARY
  5
C
330
0
100
AcDbDictionary
281
     1
  3
ACAD_GROUP
350
D
  3
ACAD_LAYOUT
350
1A
  3
ACAD_MATERIAL
350
3B
  3
ACAD_MLEADERSTYLE
350
DC
  3
ACAD_MLINESTYLE
350
17
  3
ACAD_PLOTSETTINGS
350
19
  3
ACAD_PLOTSTYLENAME
350
E
  3
ACAD_TABLESTYLE
350
DB
  3
ACAD_VISUALSTYLE
350
2A
  0
DICTIONARY
  5
D
102
{ACAD_REACTORS
330
C
102
}
330
C
100
AcDbDictionary
281
     1
  0
DICTIONARY
  5
1A
102
{ACAD_REACTORS
330
C
102
}
330
C
100
AcDbDictionary
281
     1
  3
Layout1
350
1E
  3
Layout2
350
26
  3
Model
350
22
  0
DICTIONARY
  5
3B
102
{ACAD_REACTORS
330
C
102
}
330
C
100
AcDbDictionary
281
     1
  3
ByBlock
350
3D
  3
ByLayer
350
3C
  3
Global
350
3E
  0
DICTIONARY
  5
DC
102
{ACAD_REACTORS
330
C
102
}
330
C
100
AcDbDictionary
281
     1
  0
DICTIONARY
  5
17
102
{ACAD_REACTORS
330
C
102
}
330
C
100
AcDbDictionary
281
     1
  3
Standard
350
18
  0
DICTIONARY
  5
19
102
{ACAD_REACTORS
330
C
102
}
330
C
100
AcDbDictionary
281
     1
  0
ACDBDICTIONARYWDFLT
  5
E
102
{ACAD_REACTORS
330
C
102
}
330
C
100
AcDbDictionary
281
     1
  3
Normal
350
F
100
AcDbDictionaryWithDefault
340
F
  0
DICTIONARY
  5
DB
102
{ACAD_REACTORS
330
C
102
}
330
C
100
AcDbDictionary
281
     1
  0
DICTIONARY
  5
2A
102
{ACAD_REACTORS
330
C
102
}
330
C
100
AcDbDictionary
281
     1
  3
2dWireframe
350
2F
  3
3D Hidden
350
31
  3
3dWireframe
350
30
  3
Basic
350
32
  3
Brighten
350
36
  3
ColorChange
350
3A
  3
Conceptual
350
34
  3
Dim
350
35
  3
Facepattern
350
39
  3
Flat
350
2B
  3
FlatWithEdges
350
2C
  3
Gouraud
350
2D
  3
GouraudWithEdges
350
2E
  3
Linepattern
350
38
  3
Realistic
350
33
  3
Thicken
350
37
  0
LAYOUT
  5
1E
102
{ACAD_REACTORS
330
1A
102
}
330
1A
100
AcDbPlotSettings
  1

  2
none_device
  4

  6

 40
0.0
 41
0.0
 42
0.0
 43
0.0
 44
0.0
 45
0.0
 46
0.0
 47
0.0
 48
0.0
 49
0.0
140
0.0
141
0.0
142
1.0
143
1.0
 70
   688
 72
     0
 73
     0
 74
     5
  7

 75
    16
 76
     0
 77
     2
 78
   300
147
1.0
148
0.0
149
0.0
100
AcDbLayout
  1
Layout1
 70
     1
 71
     1
 10
0.0
 20
0.0
 11
12.0
 21
9.0
 12
0.0
 22
0.0
 32
0.0
 14
1.000000000000000E+20
 24
1.000000000000000E+20
 34
1.000000000000000E+20
 15
-1.000000000000000E+20
 25
-1.000000000000000E+20
 35
-1.000000000000000E+20
146
0.0
 13
0.0
 23
0.0
 33
0.0
 16
1.0
 26
0.0
 36
0.0
 17
0.0
 27
1.0
 37
0.0
 76
     0
330
1B
  0
LAYOUT
  5
26
102
{ACAD_REACTORS
330
1A
102
}
330
1A
100
AcDbPlotSettings
  1

  2
none_device
  4

  6

 40
0.0
 41
0.0
 42
0.0
 43
0.0
 44
0.0
 45
0.0
 46
0.0
 47
0.0
 48
0.0
 49
0.0
140
0.0
141
0.0
142
1.0
143
1.0
 70
   688
 72
     0
 73
     0
 74
     5
  7

 75
    16
 76
     0
 77
     2
 78
   300
147
1.0
148
0.0
149
0.0
100
AcDbLayout
  1
Layout2
 70
     1
 71
     2
 10
0.0
 20
0.0
 11
0.0
 21
0.0
 12
0.0
 22
0.0
 32
0.0
 14
0.0
 24
0.0
 34
0.0
 15
0.0
 25
0.0
 35
0.0
146
0.0
 13
0.0
 23
0.0
 33
0.0
 16
1.0
 26
0.0
 36
0.0
 17
0.0
 27
1.0
 37
0.0
 76
     0
330
23
  0
LAYOUT
  5
22
102
{ACAD_REACTORS
330
1A
102
}
330
1A
100
AcDbPlotSettings
  1

  2
none_device
  4

  6

 40
0.0
 41
0.0
 42
0.0
 43
0.0
 44
0.0
 45
0.0
 46
0.0
 47
0.0
 48
0.0
 49
0.0
140
0.0
141
0.0
142
1.0
143
1.0
 70
  1712
 72
     0
 73
     0
 74
     0
  7

 75
     0
 76
     0
 77
     2
 78
   300
147
1.0
148
0.0
149
0.0
100
AcDbLayout
  1
Model
 70
     1
 71
     0
 10
0.0
 20
0.0
 11
12.0
 21
9.0
 12
0.0
 22
0.0
 32
0.0
 14
67.9046
 24
-114.9261
 34
0.0
 15
196.2662
 25
131.755
 35
0.0
146
0.0
 13
0.0
 23
0.0
 33
0.0
 16
1.0
 26
0.0
 36
0.0
 17
0.0
 27
1.0
 37
0.0
 76
     0
330
1F
331
29
  0
MATERIAL
  5
3D
102
{ACAD_REACTORS
330
3B
102
}
330
3B
100
AcDbMaterial
  1
ByBlock
 72
     1
 94
      127
  0
MATERIAL
  5
3C
102
{ACAD_REACTORS
330
3B
102
}
330
3B
100
AcDbMaterial
  1
ByLayer
 72
     1
 94
      127
  0
MATERIAL
  5
3E
102
{ACAD_REACTORS
330
3B
102
}
330
3B
100
AcDbMaterial
  1
Global
 72
     1
 94
      127
  0
MLINESTYLE
  5
18
102
{ACAD_REACTORS
330
17
102
}
330
17
100
AcDbMlineStyle
  2
Standard
 70
     0
  3

 62
   256
 51
90.0
 52
90.0
 71
     2
 49
0.5
 62
   256
  6
BYLAYER
 49
-0.5
 62
   256
  6
BYLAYER
  0
ACDBPLACEHOLDER
  5
F
102
{ACAD_REACTORS
330
E
102
}
330
E
  0
VISUALSTYLE
  5
2F
102
{ACAD_REACTORS
330
2A
102
}
102
{ACAD_XDICTIONARY
360
C3
102
}
330
2A
100
AcDbVisualStyle
  2
2dWireframe
 70
     4
 71
     0
 72
     2
 73
     0
 90
        0
 40
-0.6
 41
-30.0
 62
     5
 63
     7
421
 16777215
 74
     1
 91
        4
 64
     7
 65
   257
 75
     1
175
     1
 42
1.0
 92
        0
 66
   257
 43
1.0
 76
     1
 77
     6
 78
     2
 67
     7
 79
     5
170
     0
171
     0
290
     0
174
     0
 93
        1
 44
0.0
173
     0
291
     0
 45
0.0
  0
VISUALSTYLE
  5
31
102
{ACAD_REACTORS
330
2A
102
}
102
{ACAD_XDICTIONARY
360
C7
102
}
330
2A
100
AcDbVisualStyle
  2
3D Hidden
 70
     6
 71
     1
 72
     2
 73
     2
 90
        0
 40
-0.6
 41
-30.0
 62
     5
 63
     7
421
 16777215
 74
     2
 91
        2
 64
     7
 65
   257
 75
     2
175
     1
 42
40.0
 92
        0
 66
   257
 43
1.0
 76
     1
 77
     6
 78
     2
 67
     7
 79
     3
170
     0
171
     0
290
     0
174
     0
 93
        1
 44
0.0
173
     0
291
     0
 45
0.0
  0
VISUALSTYLE
  5
30
102
{ACAD_REACTORS
330
2A
102
}
102
{ACAD_XDICTIONARY
360
C5
102
}
330
2A
100
AcDbVisualStyle
  2
3dWireframe
 70
     5
 71
     0
 72
     2
 73
     0
 90
        0
 40
-0.6
 41
-30.0
 62
     5
 63
     7
421
 16777215
 74
     1
 91
        4
 64
     7
 65
   257
 75
     1
175
     1
 42
1.0
 92
        0
 66
   257
 43
1.0
 76
     1
 77
     6
 78
     2
 67
     7
 79
     5
170
     0
171
     0
290
     0
174
     0
 93
        1
 44
0.0
173
     0
291
     0
 45
0.0
  0
VISUALSTYLE
  5
32
102
{ACAD_REACTORS
330
2A
102
}
102
{ACAD_XDICTIONARY
360
C9
102
}
330
2A
100
AcDbVisualStyle
  2
Basic
 70
     7
 71
     1
 72
     0
 73
     1
 90
        0
 40
-0.6
 41
-30.0
 62
     5
 63
     7
421
 16777215
 74
     0
 91
        4
 64
     7
 65
   257
 75
     1
175
     1
 42
1.0
 92
        8
 66
     7
 43
1.0
 76
     1
 77
     6
 78
     2
 67
     7
 79
     5
170
     0
171
     0
290
     0
174
     0
 93
        1
 44
0.0
173
     0
291
     1
 45
0.0
  0
VISUALSTYLE
  5
36
102
{ACAD_REACTORS
330
2A
102
}
102
{ACAD_XDICTIONARY
360
D1
102
}
330
2A
100
AcDbVisualStyle
  2
Brighten
 70
    12
 71
     2
 72
     2
 73
     0
 90
        0
 40
-0.6
 41
-30.0
 62
     5
 63
     7
421
 16777215
 74
     1
 91
        4
 64
     7
 65
   257
 75
     1
175
     1
 42
1.0
 92
        8
 66
     7
 43
1.0
 76
     1
 77
     6
 78
     2
 67
     7
 79
     5
170
     0
171
     0
290
     0
174
     0
 93
        1
 44
50.0
173
     0
291
     1
 45
0.0
  0
VISUALSTYLE
  5
3A
102
{ACAD_REACTORS
330
2A
102
}
102
{ACAD_XDICTIONARY
360
D9
102
}
330
2A
100
AcDbVisualStyle
  2
ColorChange
 70
    16
 71
     2
 72
     2
 73
     3
 90
        0
 40
-0.6
 41
-30.0
 62
     5
 63
     8
421
  8421504
 74
     1
 91
        4
 64
     7
 65
   257
 75
     1
175
     1
 42
1.0
 92
        8
 66
     8
424
  8421504
 43
1.0
 76
     1
 77
     6
 78
     2
 67
     7
 79
     5
170
     0
171
     0
290
     0
174
     0
 93
        1
 44
0.0
173
     0
291
     1
 45
0.0
  0
VISUALSTYLE
  5
34
102
{ACAD_REACTORS
330
2A
102
}
102
{ACAD_XDICTIONARY
360
CD
102
}
330
2A
100
AcDbVisualStyle
  2
Conceptual
 70
     9
 71
     3
 72
     2
 73
     0
 90
        0
 40
-0.6
 41
-30.0
 62
     5
 63
     7
421
 16777215
 74
     2
 91
        2
 64
     7
 65
   257
 75
     1
175
     1
 42
40.0
 92
        8
 66
     7
 43
1.0
 76
     1
 77
     6
 78
     2
 67
     7
 79
     3
170
     0
171
     0
290
     0
174
     0
 93
        1
 44
0.0
173
     0
291
     0
 45
0.0
  0
VISUALSTYLE
  5
35
102
{ACAD_REACTORS
330
2A
102
}
102
{ACAD_XDICTIONARY
360
CF
102
}
330
2A
100
AcDbVisualStyle
  2
Dim
 70
    11
 71
     2
 72
     2
 73
     0
 90
        0
 40
-0.6
 41
-30.0
 62
     5
 63
     7
421
 16777215
 74
     1
 91
        4
 64
     7
 65
   257
 75
     1
175
     1
 42
1.0
 92
        8
 66
     7
 43
1.0
 76
     1
 77
     6
 78
     2
 67
     7
 79
     5
170
     0
171
     0
290
     0
174
     0
 93
        1
 44
-50.0
173
     0
291
     1
 45
0.0
  0
VISUALSTYLE
  5
39
102
{ACAD_REACTORS
330
2A
102
}
102
{ACAD_XDICTIONARY
360
D7
102
}
330
2A
100
AcDbVisualStyle
  2
Facepattern
 70
    15
 71
     2
 72
     2
 73
     0
 90
        0
 40
-0.6
 41
-30.0
 62
     5
 63
     7
421
 16777215
 74
     1
 91
        4
 64
     7
 65
   257
 75
     1
175
     1
 42
1.0
 92
        8
 66
     7
 43
1.0
 76
     1
 77
     6
 78
     2
 67
     7
 79
     5
170
     0
171
     0
290
     0
174
     0
 93
        1
 44
0.0
173
     0
291
     1
 45
0.0
  0
VISUALSTYLE
  5
2B
102
{ACAD_REACTORS
330
2A
102
}
102
{ACAD_XDICTIONARY
360
BB
102
}
330
2A
100
AcDbVisualStyle
  2
Flat
 70
     0
 71
     2
 72
     1
 73
     1
 90
        2
 40
-0.6
 41
30.0
 62
     5
 63
     7
421
 16777215
 74
     0
 91
        4
 64
     7
 65
   257
 75
     1
175
     1
 42
1.0
 92
        8
 66
     7
 43
1.0
 76
     1
 77
     6
 78
     2
 67
     7
 79
     5
170
     0
171
     0
290
     0
174
     0
 93
       13
 44
0.0
173
     0
291
     1
 45
0.0
  0
VISUALSTYLE
  5
2C
102
{ACAD_REACTORS
330
2A
102
}
102
{ACAD_XDICTIONARY
360
BD
102
}
330
2A
100
AcDbVisualStyle
  2
FlatWithEdges
 70
     1
 71
     2
 72
     1
 73
     1
 90
        2
 40
-0.6
 41
30.0
 62
     5
 63
     7
421
 16777215
 74
     1
 91
        4
 64
     7
 65
   257
 75
     1
175
     1
 42
1.0
 92
        0
 66
   257
 43
1.0
 76
     1
 77
     6
 78
     2
 67
     7
 79
     5
170
     0
171
     0
290
     0
174
     0
 93
       13
 44
0.0
173
     0
291
     1
 45
0.0
  0
VISUALSTYLE
  5
2D
102
{ACAD_REACTORS
330
2A
102
}
102
{ACAD_XDICTIONARY
360
BF
102
}
330
2A
100
AcDbVisualStyle
  2
Gouraud
 70
     2
 71
     2
 72
     2
 73
     1
 90
        2
 40
-0.6
 41
30.0
 62
     5
 63
     7
421
 16777215
 74
     0
 91
        4
 64
     7
 65
   257
 75
     1
175
     1
 42
1.0
 92
        0
 66
     7
 43
1.0
 76
     1
 77
     6
 78
     2
 67
     7
 79
     5
170
     0
171
     0
290
     0
174
     0
 93
       13
 44
0.0
173
     0
291
     1
 45
0.0
  0
VISUALSTYLE
  5
2E
102
{ACAD_REACTORS
330
2A
102
}
102
{ACAD_XDICTIONARY
360
C1
102
}
330
2A
100
AcDbVisualStyle
  2
GouraudWithEdges
 70
     3
 71
     2
 72
     2
 73
     1
 90
        2
 40
-0.6
 41
30.0
 62
     5
 63
     7
421
 16777215
 74
     1
 91
        4
 64
     7
 65
   257
 75
     1
175
     1
 42
1.0
 92
        0
 66
   257
 43
1.0
 76
     1
 77
     6
 78
     2
 67
     7
 79
     5
170
     0
171
     0
290
     0
174
     0
 93
       13
 44
0.0
173
     0
291
     1
 45
0.0
  0
VISUALSTYLE
  5
38
102
{ACAD_REACTORS
330
2A
102
}
102
{ACAD_XDICTIONARY
360
D5
102
}
330
2A
100
AcDbVisualStyle
  2
Linepattern
 70
    14
 71
     2
 72
     2
 73
     0
 90
        0
 40
-0.6
 41
-30.0
 62
     5
 63
     7
421
 16777215
 74
     1
 91
        4
 64
     7
 65
   257
 75
     7
175
     7
 42
1.0
 92
        8
 66
     7
 43
1.0
 76
     1
 77
     6
 78
     2
 67
     7
 79
     5
170
     0
171
     0
290
     0
174
     0
 93
        1
 44
0.0
173
     0
291
     1
 45
0.0
  0
VISUALSTYLE
  5
33
102
{ACAD_REACTORS
330
2A
102
}
102
{ACAD_XDICTIONARY
360
CB
102
}
330
2A
100
AcDbVisualStyle
  2
Realistic
 70
     8
 71
     2
 72
     2
 73
     0
 90
        0
 40
-0.6
 41
-30.0
 62
     5
 63
     7
421
 16777215
 74
     1
 91
        0
 64
     7
 65
   257
 75
     1
175
     1
 42
1.0
 92
        8
 66
     8
424
  7895160
 43
1.0
 76
     1
 77
     6
 78
     2
 67
     7
 79
     5
170
     0
171
     0
290
     0
174
     0
 93
       13
 44
0.0
173
     0
291
     0
 45
0.0
  0
VISUALSTYLE
  5
37
102
{ACAD_REACTORS
330
2A
102
}
102
{ACAD_XDICTIONARY
360
D3
102
}
330
2A
100
AcDbVisualStyle
  2
Thicken
 70
    13
 71
     2
 72
     2
 73
     0
 90
        0
 40
-0.6
 41
-30.0
 62
     5
 63
     7
421
 16777215
 74
     1
 91
        4
 64
     7
 65
   257
 75
     1
175
     1
 42
1.0
 92
       12
 66
     7
 43
1.0
 76
     1
 77
     6
 78
     2
 67
     7
 79
     5
170
     0
171
     0
290
     0
174
     0
 93
        1
 44
0.0
173
     0
291
     1
 45
0.0
  0
DICTIONARY
  5
C3
330
2F
100
AcDbDictionary
280
     1
281
     1
  3
ACAD_XREC_ROUNDTRIP
360
C4
  0
DICTIONARY
  5
C7
330
31
100
AcDbDictionary
280
     1
281
     1
  3
ACAD_XREC_ROUNDTRIP
360
C8
  0
DICTIONARY
  5
C5
330
30
100
AcDbDictionary
280
     1
281
     1
  3
ACAD_XREC_ROUNDTRIP
360
C6
  0
DICTIONARY
  5
C9
330
32
100
AcDbDictionary
280
     1
281
     1
  3
ACAD_XREC_ROUNDTRIP
360
CA
  0
DICTIONARY
  5
D1
330
36
100
AcDbDictionary
280
     1
281
     1
  3
ACAD_XREC_ROUNDTRIP
360
D2
  0
DICTIONARY
  5
D9
330
3A
100
AcDbDictionary
280
     1
281
     1
  3
ACAD_XREC_ROUNDTRIP
360
DA
  0
DICTIONARY
  5
CD
330
34
100
AcDbDictionary
280
     1
281
     1
  3
ACAD_XREC_ROUNDTRIP
360
CE
  0
DICTIONARY
  5
CF
330
35
100
AcDbDictionary
280
     1
281
     1
  3
ACAD_XREC_ROUNDTRIP
360
D0
  0
DICTIONARY
  5
D7
330
39
100
AcDbDictionary
280
     1
281
     1
  3
ACAD_XREC_ROUNDTRIP
360
D8
  0
DICTIONARY
  5
BB
330
2B
100
AcDbDictionary
280
     1
281
     1
  3
ACAD_XREC_ROUNDTRIP
360
BC
  0
DICTIONARY
  5
BD
330
2C
100
AcDbDictionary
280
     1
281
     1
  3
ACAD_XREC_ROUNDTRIP
360
BE
  0
DICTIONARY
  5
BF
330
2D
100
AcDbDictionary
280
     1
281
     1
  3
ACAD_XREC_ROUNDTRIP
360
C0
  0
DICTIONARY
  5
C1
330
2E
100
AcDbDictionary
280
     1
281
     1
  3
ACAD_XREC_ROUNDTRIP
360
C2
  0
DICTIONARY
  5
D5
330
38
100
AcDbDictionary
280
     1
281
     1
  3
ACAD_XREC_ROUNDTRIP
360
D6
  0
DICTIONARY
  5
CB
330
33
100
AcDbDictionary
280
     1
281
     1
  3
ACAD_XREC_ROUNDTRIP
360
CC
  0
DICTIONARY
  5
D3
330
37
100
AcDbDictionary
280
     1
281
     1
  3
ACAD_XREC_ROUNDTRIP
360
D4
  0
XRECORD
  5
C4
102
{ACAD_REACTORS
330
C3
102
}
330
C3
100
AcDbXrecord
280
     1
102
RTVSPropertyOp0
 70
     1
102
RTVSPropertyOp1
 70
     1
102
RTVSPropertyOp2
 70
     1
102
RTVSPropertyOp3
 70
     1
102
RTVSPropertyOp4
 70
     1
102
RTVSPropertyOp5
 70
     1
102
RTVSPropertyOp6
 70
     1
102
RTVSPropertyOp7
 70
     1
102
RTVSPropertyOp8
 70
     1
102
RTVSPropertyOp9
 70
     1
102
RTVSPropertyOp10
 70
     1
102
RTVSPropertyOp11
 70
     1
102
RTVSPropertyOp12
 70
     1
102
RTVSPropertyOp13
 70
     1
102
RTVSPropertyOp14
 70
     1
102
RTVSPropertyOp15
 70
     1
102
RTVSPropertyOp16
 70
     1
102
RTVSPropertyOp17
 70
     1
102
RTVSPropertyOp18
 70
     1
102
RTVSPropertyOp19
 70
     1
102
RTVSPropertyOp20
 70
     1
102
RTVSPropertyOp21
 70
     1
102
RTVSPropertyOp22
 70
     1
102
RTVSPropertyOp23
 70
     1
102
RTVSPropertyOp24
 70
     1
102
RTVSPropertyOp25
 70
     1
102
RTVSPropertyOp26
 70
     1
102
RTVSPropertyOp27
 70
     1
102
RTVSPropertyOp28
 70
     1
102
RTVSPropertyOp29
 70
     1
102
RTVSPropertyOp30
 70
     1
102
RTVSPropertyOp31
 70
     1
102
RTVSPropertyOp32
 70
     1
  0
XRECORD
  5
C8
102
{ACAD_REACTORS
330
C7
102
}
330
C7
100
AcDbXrecord
280
     1
102
RTVSPropertyOp0
 70
     1
102
RTVSPropertyOp1
 70
     1
102
RTVSPropertyOp2
 70
     1
102
RTVSPropertyOp3
 70
     1
102
RTVSPropertyOp4
 70
     1
102
RTVSPropertyOp5
 70
     1
102
RTVSPropertyOp6
 70
     1
102
RTVSPropertyOp7
 70
     1
102
RTVSPropertyOp8
 70
     1
102
RTVSPropertyOp9
 70
     1
102
RTVSPropertyOp10
 70
     1
102
RTVSPropertyOp11
 70
     1
102
RTVSPropertyOp12
 70
     1
102
RTVSPropertyOp13
 70
     1
102
RTVSPropertyOp14
 70
     1
102
RTVSPropertyOp15
 70
     1
102
RTVSPropertyOp16
 70
     1
102
RTVSPropertyOp17
 70
     1
102
RTVSPropertyOp18
 70
     1
102
RTVSPropertyOp19
 70
     1
102
RTVSPropertyOp20
 70
     1
102
RTVSPropertyOp21
 70
     1
102
RTVSPropertyOp22
 70
     1
102
RTVSPropertyOp23
 70
     1
102
RTVSPropertyOp24
 70
     1
102
RTVSPropertyOp25
 70
     1
102
RTVSPropertyOp26
 70
     1
102
RTVSPropertyOp27
 70
     1
102
RTVSPropertyOp28
 70
     1
102
RTVSPropertyOp29
 70
     1
102
RTVSPropertyOp30
 70
     1
102
RTVSPropertyOp31
 70
     1
102
RTVSPropertyOp32
 70
     1
  0
XRECORD
  5
C6
102
{ACAD_REACTORS
330
C5
102
}
330
C5
100
AcDbXrecord
280
     1
102
RTVSPropertyOp0
 70
     1
102
RTVSPropertyOp1
 70
     1
102
RTVSPropertyOp2
 70
     1
102
RTVSPropertyOp3
 70
     1
102
RTVSPropertyOp4
 70
     1
102
RTVSPropertyOp5
 70
     1
102
RTVSPropertyOp6
 70
     1
102
RTVSPropertyOp7
 70
     1
102
RTVSPropertyOp8
 70
     1
102
RTVSPropertyOp9
 70
     1
102
RTVSPropertyOp10
 70
     1
102
RTVSPropertyOp11
 70
     1
102
RTVSPropertyOp12
 70
     1
102
RTVSPropertyOp13
 70
     1
102
RTVSPropertyOp14
 70
     1
102
RTVSPropertyOp15
 70
     1
102
RTVSPropertyOp16
 70
     1
102
RTVSPropertyOp17
 70
     1
102
RTVSPropertyOp18
 70
     1
102
RTVSPropertyOp19
 70
     1
102
RTVSPropertyOp20
 70
     1
102
RTVSPropertyOp21
 70
     1
102
RTVSPropertyOp22
 70
     1
102
RTVSPropertyOp23
 70
     1
102
RTVSPropertyOp24
 70
     1
102
RTVSPropertyOp25
 70
     1
102
RTVSPropertyOp26
 70
     1
102
RTVSPropertyOp27
 70
     1
102
RTVSPropertyOp28
 70
     1
102
RTVSPropertyOp29
 70
     1
102
RTVSPropertyOp30
 70
     1
102
RTVSPropertyOp31
 70
     1
102
RTVSPropertyOp32
 70
     1
  0
XRECORD
  5
CA
102
{ACAD_REACTORS
330
C9
102
}
330
C9
100
AcDbXrecord
280
     1
102
RTVSPropertyOp0
 70
     1
102
RTVSPropertyOp1
 70
     1
102
RTVSPropertyOp2
 70
     1
102
RTVSPropertyOp3
 70
     1
102
RTVSPropertyOp4
 70
     1
102
RTVSPropertyOp5
 70
     1
102
RTVSPropertyOp6
 70
     1
102
RTVSPropertyOp7
 70
     1
102
RTVSPropertyOp8
 70
     1
102
RTVSPropertyOp9
 70
     1
102
RTVSPropertyOp10
 70
     1
102
RTVSPropertyOp11
 70
     1
102
RTVSPropertyOp12
 70
     1
102
RTVSPropertyOp13
 70
     1
102
RTVSPropertyOp14
 70
     1
102
RTVSPropertyOp15
 70
     1
102
RTVSPropertyOp16
 70
     1
102
RTVSPropertyOp17
 70
     1
102
RTVSPropertyOp18
 70
     1
102
RTVSPropertyOp19
 70
     1
102
RTVSPropertyOp20
 70
     1
102
RTVSPropertyOp21
 70
     1
102
RTVSPropertyOp22
 70
     1
102
RTVSPropertyOp23
 70
     1
102
RTVSPropertyOp24
 70
     1
102
RTVSPropertyOp25
 70
     1
102
RTVSPropertyOp26
 70
     1
102
RTVSPropertyOp27
 70
     1
102
RTVSPropertyOp28
 70
     1
102
RTVSPropertyOp29
 70
     1
102
RTVSPropertyOp30
 70
     1
102
RTVSPropertyOp31
 70
     1
102
RTVSPropertyOp32
 70
     1
  0
XRECORD
  5
D2
102
{ACAD_REACTORS
330
D1
102
}
330
D1
100
AcDbXrecord
280
     1
102
RTVSPropertyOp0
 70
     1
102
RTVSPropertyOp1
 70
     1
102
RTVSPropertyOp2
 70
     1
102
RTVSPropertyOp3
 70
     1
102
RTVSPropertyOp4
 70
     1
102
RTVSPropertyOp5
 70
     1
102
RTVSPropertyOp6
 70
     1
102
RTVSPropertyOp7
 70
     1
102
RTVSPropertyOp8
 70
     1
102
RTVSPropertyOp9
 70
     1
102
RTVSPropertyOp10
 70
     1
102
RTVSPropertyOp11
 70
     1
102
RTVSPropertyOp12
 70
     1
102
RTVSPropertyOp13
 70
     1
102
RTVSPropertyOp14
 70
     1
102
RTVSPropertyOp15
 70
     1
102
RTVSPropertyOp16
 70
     1
102
RTVSPropertyOp17
 70
     1
102
RTVSPropertyOp18
 70
     1
102
RTVSPropertyOp19
 70
     1
102
RTVSPropertyOp20
 70
     1
102
RTVSPropertyOp21
 70
     1
102
RTVSPropertyOp22
 70
     1
102
RTVSPropertyOp23
 70
     1
102
RTVSPropertyOp24
 70
     1
102
RTVSPropertyOp25
 70
     1
102
RTVSPropertyOp26
 70
     1
102
RTVSPropertyOp27
 70
     1
102
RTVSPropertyOp28
 70
     1
102
RTVSPropertyOp29
 70
     1
102
RTVSPropertyOp30
 70
     1
102
RTVSPropertyOp31
 70
     1
102
RTVSPropertyOp32
 70
     1
  0
XRECORD
  5
DA
102
{ACAD_REACTORS
330
D9
102
}
330
D9
100
AcDbXrecord
280
     1
102
RTVSPropertyOp0
 70
     1
102
RTVSPropertyOp1
 70
     1
102
RTVSPropertyOp2
 70
     1
102
RTVSPropertyOp3
 70
     1
102
RTVSPropertyOp4
 70
     1
102
RTVSPropertyOp5
 70
     1
102
RTVSPropertyOp6
 70
     1
102
RTVSPropertyOp7
 70
     1
102
RTVSPropertyOp8
 70
     1
102
RTVSPropertyOp9
 70
     1
102
RTVSPropertyOp10
 70
     1
102
RTVSPropertyOp11
 70
     1
102
RTVSPropertyOp12
 70
     1
102
RTVSPropertyOp13
 70
     1
102
RTVSPropertyOp14
 70
     1
102
RTVSPropertyOp15
 70
     1
102
RTVSPropertyOp16
 70
     1
102
RTVSPropertyOp17
 70
     1
102
RTVSPropertyOp18
 70
     1
102
RTVSPropertyOp19
 70
     1
102
RTVSPropertyOp20
 70
     1
102
RTVSPropertyOp21
 70
     1
102
RTVSPropertyOp22
 70
     1
102
RTVSPropertyOp23
 70
     1
102
RTVSPropertyOp24
 70
     1
102
RTVSPropertyOp25
 70
     1
102
RTVSPropertyOp26
 70
     1
102
RTVSPropertyOp27
 70
     1
102
RTVSPropertyOp28
 70
     1
102
RTVSPropertyOp29
 70
     1
102
RTVSPropertyOp30
 70
     1
102
RTVSPropertyOp31
 70
     1
102
RTVSPropertyOp32
 70
     1
  0
XRECORD
  5
CE
102
{ACAD_REACTORS
330
CD
102
}
330
CD
100
AcDbXrecord
280
     1
102
RTVSPropertyOp0
 70
     1
102
RTVSPropertyOp1
 70
     1
102
RTVSPropertyOp2
 70
     1
102
RTVSPropertyOp3
 70
     1
102
RTVSPropertyOp4
 70
     1
102
RTVSPropertyOp5
 70
     1
102
RTVSPropertyOp6
 70
     1
102
RTVSPropertyOp7
 70
     1
102
RTVSPropertyOp8
 70
     1
102
RTVSPropertyOp9
 70
     1
102
RTVSPropertyOp10
 70
     1
102
RTVSPropertyOp11
 70
     1
102
RTVSPropertyOp12
 70
     1
102
RTVSPropertyOp13
 70
     1
102
RTVSPropertyOp14
 70
     1
102
RTVSPropertyOp15
 70
     1
102
RTVSPropertyOp16
 70
     1
102
RTVSPropertyOp17
 70
     1
102
RTVSPropertyOp18
 70
     1
102
RTVSPropertyOp19
 70
     1
102
RTVSPropertyOp20
 70
     1
102
RTVSPropertyOp21
 70
     1
102
RTVSPropertyOp22
 70
     1
102
RTVSPropertyOp23
 70
     1
102
RTVSPropertyOp24
 70
     1
102
RTVSPropertyOp25
 70
     1
102
RTVSPropertyOp26
 70
     1
102
RTVSPropertyOp27
 70
     1
102
RTVSPropertyOp28
 70
     1
102
RTVSPropertyOp29
 70
     1
102
RTVSPropertyOp30
 70
     1
102
RTVSPropertyOp31
 70
     1
102
RTVSPropertyOp32
 70
     1
  0
XRECORD
  5
D0
102
{ACAD_REACTORS
330
CF
102
}
330
CF
100
AcDbXrecord
280
     1
102
RTVSPropertyOp0
 70
     1
102
RTVSPropertyOp1
 70
     1
102
RTVSPropertyOp2
 70
     1
102
RTVSPropertyOp3
 70
     1
102
RTVSPropertyOp4
 70
     1
102
RTVSPropertyOp5
 70
     1
102
RTVSPropertyOp6
 70
     1
102
RTVSPropertyOp7
 70
     1
102
RTVSPropertyOp8
 70
     1
102
RTVSPropertyOp9
 70
     1
102
RTVSPropertyOp10
 70
     1
102
RTVSPropertyOp11
 70
     1
102
RTVSPropertyOp12
 70
     1
102
RTVSPropertyOp13
 70
     1
102
RTVSPropertyOp14
 70
     1
102
RTVSPropertyOp15
 70
     1
102
RTVSPropertyOp16
 70
     1
102
RTVSPropertyOp17
 70
     1
102
RTVSPropertyOp18
 70
     1
102
RTVSPropertyOp19
 70
     1
102
RTVSPropertyOp20
 70
     1
102
RTVSPropertyOp21
 70
     1
102
RTVSPropertyOp22
 70
     1
102
RTVSPropertyOp23
 70
     1
102
RTVSPropertyOp24
 70
     1
102
RTVSPropertyOp25
 70
     1
102
RTVSPropertyOp26
 70
     1
102
RTVSPropertyOp27
 70
     1
102
RTVSPropertyOp28
 70
     1
102
RTVSPropertyOp29
 70
     1
102
RTVSPropertyOp30
 70
     1
102
RTVSPropertyOp31
 70
     1
102
RTVSPropertyOp32
 70
     1
  0
XRECORD
  5
D8
102
{ACAD_REACTORS
330
D7
102
}
330
D7
100
AcDbXrecord
280
     1
102
RTVSPropertyOp0
 70
     1
102
RTVSPropertyOp1
 70
     1
102
RTVSPropertyOp2
 70
     1
102
RTVSPropertyOp3
 70
     1
102
RTVSPropertyOp4
 70
     1
102
RTVSPropertyOp5
 70
     1
102
RTVSPropertyOp6
 70
     1
102
RTVSPropertyOp7
 70
     1
102
RTVSPropertyOp8
 70
     1
102
RTVSPropertyOp9
 70
     1
102
RTVSPropertyOp10
 70
     1
102
RTVSPropertyOp11
 70
     1
102
RTVSPropertyOp12
 70
     1
102
RTVSPropertyOp13
 70
     1
102
RTVSPropertyOp14
 70
     1
102
RTVSPropertyOp15
 70
     1
102
RTVSPropertyOp16
 70
     1
102
RTVSPropertyOp17
 70
     1
102
RTVSPropertyOp18
 70
     1
102
RTVSPropertyOp19
 70
     1
102
RTVSPropertyOp20
 70
     1
102
RTVSPropertyOp21
 70
     1
102
RTVSPropertyOp22
 70
     1
102
RTVSPropertyOp23
 70
     1
102
RTVSPropertyOp24
 70
     1
102
RTVSPropertyOp25
 70
     1
102
RTVSPropertyOp26
 70
     1
102
RTVSPropertyOp27
 70
     1
102
RTVSPropertyOp28
 70
     1
102
RTVSPropertyOp29
 70
     1
102
RTVSPropertyOp30
 70
     1
102
RTVSPropertyOp31
 70
     1
102
RTVSPropertyOp32
 70
     1
  0
XRECORD
  5
BC
102
{ACAD_REACTORS
330
BB
102
}
330
BB
100
AcDbXrecord
280
     1
102
RTVSPropertyOp0
 70
     1
102
RTVSPropertyOp1
 70
     1
102
RTVSPropertyOp2
 70
     1
102
RTVSPropertyOp3
 70
     1
102
RTVSPropertyOp4
 70
     1
102
RTVSPropertyOp5
 70
     1
102
RTVSPropertyOp6
 70
     1
102
RTVSPropertyOp7
 70
     1
102
RTVSPropertyOp8
 70
     1
102
RTVSPropertyOp9
 70
     1
102
RTVSPropertyOp10
 70
     1
102
RTVSPropertyOp11
 70
     1
102
RTVSPropertyOp12
 70
     1
102
RTVSPropertyOp13
 70
     1
102
RTVSPropertyOp14
 70
     1
102
RTVSPropertyOp15
 70
     1
102
RTVSPropertyOp16
 70
     1
102
RTVSPropertyOp17
 70
     1
102
RTVSPropertyOp18
 70
     1
102
RTVSPropertyOp19
 70
     1
102
RTVSPropertyOp20
 70
     1
102
RTVSPropertyOp21
 70
     1
102
RTVSPropertyOp22
 70
     1
102
RTVSPropertyOp23
 70
     1
102
RTVSPropertyOp24
 70
     1
102
RTVSPropertyOp25
 70
     1
102
RTVSPropertyOp26
 70
     1
102
RTVSPropertyOp27
 70
     1
102
RTVSPropertyOp28
 70
     1
102
RTVSPropertyOp29
 70
     1
102
RTVSPropertyOp30
 70
     1
102
RTVSPropertyOp31
 70
     1
102
RTVSPropertyOp32
 70
     1
  0
XRECORD
  5
BE
102
{ACAD_REACTORS
330
BD
102
}
330
BD
100
AcDbXrecord
280
     1
102
RTVSPropertyOp0
 70
     1
102
RTVSPropertyOp1
 70
     1
102
RTVSPropertyOp2
 70
     1
102
RTVSPropertyOp3
 70
     1
102
RTVSPropertyOp4
 70
     1
102
RTVSPropertyOp5
 70
     1
102
RTVSPropertyOp6
 70
     1
102
RTVSPropertyOp7
 70
     1
102
RTVSPropertyOp8
 70
     1
102
RTVSPropertyOp9
 70
     1
102
RTVSPropertyOp10
 70
     1
102
RTVSPropertyOp11
 70
     1
102
RTVSPropertyOp12
 70
     1
102
RTVSPropertyOp13
 70
     1
102
RTVSPropertyOp14
 70
     1
102
RTVSPropertyOp15
 70
     1
102
RTVSPropertyOp16
 70
     1
102
RTVSPropertyOp17
 70
     1
102
RTVSPropertyOp18
 70
     1
102
RTVSPropertyOp19
 70
     1
102
RTVSPropertyOp20
 70
     1
102
RTVSPropertyOp21
 70
     1
102
RTVSPropertyOp22
 70
     1
102
RTVSPropertyOp23
 70
     1
102
RTVSPropertyOp24
 70
     1
102
RTVSPropertyOp25
 70
     1
102
RTVSPropertyOp26
 70
     1
102
RTVSPropertyOp27
 70
     1
102
RTVSPropertyOp28
 70
     1
102
RTVSPropertyOp29
 70
     1
102
RTVSPropertyOp30
 70
     1
102
RTVSPropertyOp31
 70
     1
102
RTVSPropertyOp32
 70
     1
  0
XRECORD
  5
C0
102
{ACAD_REACTORS
330
BF
102
}
330
BF
100
AcDbXrecord
280
     1
102
RTVSPropertyOp0
 70
     1
102
RTVSPropertyOp1
 70
     1
102
RTVSPropertyOp2
 70
     1
102
RTVSPropertyOp3
 70
     1
102
RTVSPropertyOp4
 70
     1
102
RTVSPropertyOp5
 70
     1
102
RTVSPropertyOp6
 70
     1
102
RTVSPropertyOp7
 70
     1
102
RTVSPropertyOp8
 70
     1
102
RTVSPropertyOp9
 70
     1
102
RTVSPropertyOp10
 70
     1
102
RTVSPropertyOp11
 70
     1
102
RTVSPropertyOp12
 70
     1
102
RTVSPropertyOp13
 70
     1
102
RTVSPropertyOp14
 70
     1
102
RTVSPropertyOp15
 70
     1
102
RTVSPropertyOp16
 70
     1
102
RTVSPropertyOp17
 70
     1
102
RTVSPropertyOp18
 70
     1
102
RTVSPropertyOp19
 70
     1
102
RTVSPropertyOp20
 70
     1
102
RTVSPropertyOp21
 70
     1
102
RTVSPropertyOp22
 70
     1
102
RTVSPropertyOp23
 70
     1
102
RTVSPropertyOp24
 70
     1
102
RTVSPropertyOp25
 70
     1
102
RTVSPropertyOp26
 70
     1
102
RTVSPropertyOp27
 70
     1
102
RTVSPropertyOp28
 70
     1
102
RTVSPropertyOp29
 70
     1
102
RTVSPropertyOp30
 70
     1
102
RTVSPropertyOp31
 70
     1
102
RTVSPropertyOp32
 70
     1
  0
XRECORD
  5
C2
102
{ACAD_REACTORS
330
C1
102
}
330
C1
100
AcDbXrecord
280
     1
102
RTVSPropertyOp0
 70
     1
102
RTVSPropertyOp1
 70
     1
102
RTVSPropertyOp2
 70
     1
102
RTVSPropertyOp3
 70
     1
102
RTVSPropertyOp4
 70
     1
102
RTVSPropertyOp5
 70
     1
102
RTVSPropertyOp6
 70
     1
102
RTVSPropertyOp7
 70
     1
102
RTVSPropertyOp8
 70
     1
102
RTVSPropertyOp9
 70
     1
102
RTVSPropertyOp10
 70
     1
102
RTVSPropertyOp11
 70
     1
102
RTVSPropertyOp12
 70
     1
102
RTVSPropertyOp13
 70
     1
102
RTVSPropertyOp14
 70
     1
102
RTVSPropertyOp15
 70
     1
102
RTVSPropertyOp16
 70
     1
102
RTVSPropertyOp17
 70
     1
102
RTVSPropertyOp18
 70
     1
102
RTVSPropertyOp19
 70
     1
102
RTVSPropertyOp20
 70
     1
102
RTVSPropertyOp21
 70
     1
102
RTVSPropertyOp22
 70
     1
102
RTVSPropertyOp23
 70
     1
102
RTVSPropertyOp24
 70
     1
102
RTVSPropertyOp25
 70
     1
102
RTVSPropertyOp26
 70
     1
102
RTVSPropertyOp27
 70
     1
102
RTVSPropertyOp28
 70
     1
102
RTVSPropertyOp29
 70
     1
102
RTVSPropertyOp30
 70
     1
102
RTVSPropertyOp31
 70
     1
102
RTVSPropertyOp32
 70
     1
  0
XRECORD
  5
D6
102
{ACAD_REACTORS
330
D5
102
}
330
D5
100
AcDbXrecord
280
     1
102
RTVSPropertyOp0
 70
     1
102
RTVSPropertyOp1
 70
     1
102
RTVSPropertyOp2
 70
     1
102
RTVSPropertyOp3
 70
     1
102
RTVSPropertyOp4
 70
     1
102
RTVSPropertyOp5
 70
     1
102
RTVSPropertyOp6
 70
     1
102
RTVSPropertyOp7
 70
     1
102
RTVSPropertyOp8
 70
     1
102
RTVSPropertyOp9
 70
     1
102
RTVSPropertyOp10
 70
     1
102
RTVSPropertyOp11
 70
     1
102
RTVSPropertyOp12
 70
     1
102
RTVSPropertyOp13
 70
     1
102
RTVSPropertyOp14
 70
     1
102
RTVSPropertyOp15
 70
     1
102
RTVSPropertyOp16
 70
     1
102
RTVSPropertyOp17
 70
     1
102
RTVSPropertyOp18
 70
     1
102
RTVSPropertyOp19
 70
     1
102
RTVSPropertyOp20
 70
     1
102
RTVSPropertyOp21
 70
     1
102
RTVSPropertyOp22
 70
     1
102
RTVSPropertyOp23
 70
     1
102
RTVSPropertyOp24
 70
     1
102
RTVSPropertyOp25
 70
     1
102
RTVSPropertyOp26
 70
     1
102
RTVSPropertyOp27
 70
     1
102
RTVSPropertyOp28
 70
     1
102
RTVSPropertyOp29
 70
     1
102
RTVSPropertyOp30
 70
     1
102
RTVSPropertyOp31
 70
     1
102
RTVSPropertyOp32
 70
     1
  0
XRECORD
  5
CC
102
{ACAD_REACTORS
330
CB
102
}
330
CB
100
AcDbXrecord
280
     1
102
RTVSPropertyOp0
 70
     1
102
RTVSPropertyOp1
 70
     1
102
RTVSPropertyOp2
 70
     1
102
RTVSPropertyOp3
 70
     1
102
RTVSPropertyOp4
 70
     1
102
RTVSPropertyOp5
 70
     1
102
RTVSPropertyOp6
 70
     1
102
RTVSPropertyOp7
 70
     1
102
RTVSPropertyOp8
 70
     1
102
RTVSPropertyOp9
 70
     1
102
RTVSPropertyOp10
 70
     1
102
RTVSPropertyOp11
 70
     1
102
RTVSPropertyOp12
 70
     1
102
RTVSPropertyOp13
 70
     1
102
RTVSPropertyOp14
 70
     1
102
RTVSPropertyOp15
 70
     1
102
RTVSPropertyOp16
 70
     1
102
RTVSPropertyOp17
 70
     1
102
RTVSPropertyOp18
 70
     1
102
RTVSPropertyOp19
 70
     1
102
RTVSPropertyOp20
 70
     1
102
RTVSPropertyOp21
 70
     1
102
RTVSPropertyOp22
 70
     1
102
RTVSPropertyOp23
 70
     1
102
RTVSPropertyOp24
 70
     1
102
RTVSPropertyOp25
 70
     1
102
RTVSPropertyOp26
 70
     1
102
RTVSPropertyOp27
 70
     1
102
RTVSPropertyOp28
 70
     1
102
RTVSPropertyOp29
 70
     1
102
RTVSPropertyOp30
 70
     1
102
RTVSPropertyOp31
 70
     1
102
RTVSPropertyOp32
 70
     1
  0
XRECORD
  5
D4
102
{ACAD_REACTORS
330
D3
102
}
330
D3
100
AcDbXrecord
280
     1
102
RTVSPropertyOp0
 70
     1
102
RTVSPropertyOp1
 70
     1
102
RTVSPropertyOp2
 70
     1
102
RTVSPropertyOp3
 70
     1
102
RTVSPropertyOp4
 70
     1
102
RTVSPropertyOp5
 70
     1
102
RTVSPropertyOp6
 70
     1
102
RTVSPropertyOp7
 70
     1
102
RTVSPropertyOp8
 70
     1
102
RTVSPropertyOp9
 70
     1
102
RTVSPropertyOp10
 70
     1
102
RTVSPropertyOp11
 70
     1
102
RTVSPropertyOp12
 70
     1
102
RTVSPropertyOp13
 70
     1
102
RTVSPropertyOp14
 70
     1
102
RTVSPropertyOp15
 70
     1
102
RTVSPropertyOp16
 70
     1
102
RTVSPropertyOp17
 70
     1
102
RTVSPropertyOp18
 70
     1
102
RTVSPropertyOp19
 70
     1
102
RTVSPropertyOp20
 70
     1
102
RTVSPropertyOp21
 70
     1
102
RTVSPropertyOp22
 70
     1
102
RTVSPropertyOp23
 70
     1
102
RTVSPropertyOp24
 70
     1
102
RTVSPropertyOp25
 70
     1
102
RTVSPropertyOp26
 70
     1
102
RTVSPropertyOp27
 70
     1
102
RTVSPropertyOp28
 70
     1
102
RTVSPropertyOp29
 70
     1
102
RTVSPropertyOp30
 70
     1
102
RTVSPropertyOp31
 70
     1
102
RTVSPropertyOp32
 70
     1
  0
ENDSEC
  0
EOF
