  0
SECTION
  2
HEADER
  9
$ACADVER
  1
AC1021
  9
$ACADMAINTVER
 70
    25
  9
$DWGCODEPAGE
  3
ANSI_1252
  9
$INSBASE
 10
0.0
 20
0.0
 30
0.0
  9
$EXTMIN
 10
-187.4506
 20
-114.9604
 30
0.0
  9
$EXTMAX
 10
-8.3413
 20
131.8174
 30
0.0
  9
$LIMMIN
 10
0.0
 20
0.0
  9
$LIMMAX
 10
12.0
 20
9.0
  9
$ORTHOMODE
 70
     0
  9
$REGENMODE
 70
     1
  9
$FILLMODE
 70
     1
  9
$QTEXTMODE
 70
     0
  9
$MIRRTEXT
 70
     1
  9
$LTSCALE
 40
1.0
  9
$ATTMODE
 70
     1
  9
$TEXTSIZE
 40
0.2
  9
$TRACEWID
 40
0.05
  9
$TEXTSTYLE
  7
Standard
  9
$CLAYER
  8
0
  9
$CELTYPE
  6
ByLayer
  9
$CECOLOR
 62
   256
  9
$CELTSCALE
 40
1.0
  9
$DISPSILH
 70
     0
  9
$DIMSCALE
 40
1.0
  9
$DIMASZ
 40
0.18
  9
$DIMEXO
 40
0.0625
  9
$DIMDLI
 40
0.38
  9
$DIMRND
 40
0.0
  9
$DIMDLE
 40
0.0
  9
$DIMEXE
 40
0.18
  9
$DIMTP
 40
0.0
  9
$DIMTM
 40
0.0
  9
$DIMTXT
 40
0.18
  9
$DIMCEN
 40
0.09
  9
$DIMTSZ
 40
0.0
  9
$DIMTOL
 70
     0
  9
$DIMLIM
 70
     0
  9
$DIMTIH
 70
     1
  9
$DIMTOH
 70
     1
  9
$DIMSE1
 70
     0
  9
$DIMSE2
 70
     0
  9
$DIMTAD
 70
     0
  9
$DIMZIN
 70
     0
  9
$DIMBLK
  1

  9
$DIMASO
 70
     1
  9
$DIMSHO
 70
     1
  9
$DIMPOST
  1

  9
$DIMAPOST
  1

  9
$DIMALT
 70
     0
  9
$DIMALTD
 70
     2
  9
$DIMALTF
 40
25.4
  9
$DIMLFAC
 40
1.0
  9
$DIMTOFL
 70
     0
  9
$DIMTVP
 40
0.0
  9
$DIMTIX
 70
     0
  9
$DIMSOXD
 70
     0
  9
$DIMSAH
 70
     0
  9
$DIMBLK1
  1

  9
$DIMBLK2
  1

  9
$DIMSTYLE
  2
Standard
  9
$DIMCLRD
 70
     0
  9
$DIMCLRE
 70
     0
  9
$DIMCLRT
 70
     0
  9
$DIMTFAC
 40
1.0
  9
$DIMGAP
 40
0.09
  9
$DIMJUST
 70
     0
  9
$DIMSD1
 70
     0
  9
$DIMSD2
 70
     0
  9
$DIMTOLJ
 70
     1
  9
$DIMTZIN
 70
     0
  9
$DIMALTZ
 70
     0
  9
$DIMALTTZ
 70
     0
  9
$DIMUPT
 70
     0
  9
$DIMDEC
 70
     4
  9
$DIMTDEC
 70
     4
  9
$DIMALTU
 70
     2
  9
$DIMALTTD
 70
     2
  9
$DIMTXSTY
  7
Standard
  9
$DIMAUNIT
 70
     0
  9
$DIMADEC
 70
     0
  9
$DIMALTRND
 40
0.0
  9
$DIMAZIN
 70
     0
  9
$DIMDSEP
 70
    46
  9
$DIMATFIT
 70
     3
  9
$DIMFRAC
 70
     0
  9
$DIMLDRBLK
  1

  9
$DIMLUNIT
 70
     2
  9
$DIMLWD
 70
    -2
  9
$DIMLWE
 70
    -2
  9
$DIMTMOVE
 70
     0
  9
$DIMFXL
 40
1.0
  9
$DIMFXLON
 70
     0
  9
$DIMJOGANG
 40
0.7853981633974483
  9
$DIMTFILL
 70
     0
  9
$DIMTFILLCLR
 70
     0
  9
$DIMARCSYM
 70
     0
  9
$DIMLTYPE
  6

  9
$DIMLTEX1
  6

  9
$DIMLTEX2
  6

  9
$LUNITS
 70
     2
  9
$LUPREC
 70
     4
  9
$SKETCHINC
 40
0.1
  9
$FILLETRAD
 40
0.5
  9
$AUNITS
 70
     0
  9
$AUPREC
 70
     0
  9
$MENU
  1
.
  9
$ELEVATION
 40
0.0
  9
$PELEVATION
 40
0.0
  9
$THICKNESS
 40
0.0
  9
$LIMCHECK
 70
     0
  9
$CHAMFERA
 40
0.5
  9
$CHAMFERB
 40
0.5
  9
$CHAMFERC
 40
1.0
  9
$CHAMFERD
 40
0.0
  9
$SKPOLY
 70
     0
  9
$TDCREATE
 40
2458493.668777859
  9
$TDUCREATE
 40
2458493.668777859
  9
$TDUPDATE
 40
2458493.668778148
  9
$TDUUPDATE
 40
2458493.668778148
  9
$TDINDWG
 40
0.0000000116
  9
$TDUSRTIMER
 40
0.0000000116
  9
$USRTIMER
 70
     1
  9
$ANGBASE
 50
0.0
  9
$ANGDIR
 70
     0
  9
$PDMODE
 70
     0
  9
$PDSIZE
 40
0.0
  9
$PLINEWID
 40
0.0
  9
$SPLFRAME
 70
     0
  9
$SPLINETYPE
 70
     6
  9
$SPLINESEGS
 70
     8
  9
$HANDSEED
  5
DF
  9
$SURFTAB1
 70
     6
  9
$SURFTAB2
 70
     6
  9
$SURFTYPE
 70
     6
  9
$SURFU
 70
     6
  9
$SURFV
 70
     6
  9
$UCSBASE
  2

  9
$UCSNAME
  2

  9
$UCSORG
 10
0.0
 20
0.0
 30
0.0
  9
$UCSXDIR
 10
1.0
 20
0.0
 30
0.0
  9
$UCSYDIR
 10
0.0
 20
1.0
 30
0.0
  9
$UCSORTHOREF
  2

  9
$UCSORTHOVIEW
 70
     0
  9
$UCSORGTOP
 10
0.0
 20
0.0
 30
0.0
  9
$UCSORGBOTTOM
 10
0.0
 20
0.0
 30
0.0
  9
$UCSORGLEFT
 10
0.0
 20
0.0
 30
0.0
  9
$UCSORGRIGHT
 10
0.0
 20
0.0
 30
0.0
  9
$UCSORGFRONT
 10
0.0
 20
0.0
 30
0.0
  9
$UCSORGBACK
 10
0.0
 20
0.0
 30
0.0
  9
$PUCSBASE
  2

  9
$PUCSNAME
  2

  9
$PUCSORG
 10
0.0
 20
0.0
 30
0.0
  9
$PUCSXDIR
 10
1.0
 20
0.0
 30
0.0
  9
$PUCSYDIR
 10
0.0
 20
1.0
 30
0.0
  9
$PUCSORTHOREF
  2

  9
$PUCSORTHOVIEW
 70
     0
  9
$PUCSORGTOP
 10
0.0
 20
0.0
 30
0.0
  9
$PUCSORGBOTTOM
 10
0.0
 20
0.0
 30
0.0
  9
$PUCSORGLEFT
 10
0.0
 20
0.0
 30
0.0
  9
$PUCSORGRIGHT
 10
0.0
 20
0.0
 30
0.0
  9
$PUCSORGFRONT
 10
0.0
 20
0.0
 30
0.0
  9
$PUCSORGBACK
 10
0.0
 20
0.0
 30
0.0
  9
$USERI1
 70
     0
  9
$USERI2
 70
     0
  9
$USERI3
 70
     0
  9
$USERI4
 70
     0
  9
$USERI5
 70
     0
  9
$USERR1
 40
0.0
  9
$USERR2
 40
0.0
  9
$USERR3
 40
0.0
  9
$USERR4
 40
0.0
  9
$USERR5
 40
0.0
  9
$WORLDVIEW
 70
     1
  9
$SHADEDGE
 70
     3
  9
$SHADEDIF
 70
    70
  9
$TILEMODE
 70
     1
  9
$MAXACTVP
 70
    64
  9
$PINSBASE
 10
0.0
 20
0.0
 30
0.0
  9
$PLIMCHECK
 70
     0
  9
$PEXTMIN
 10
1.000000000000000E+20
 20
1.000000000000000E+20
 30
1.000000000000000E+20
  9
$PEXTMAX
 10
-1.000000000000000E+20
 20
-1.000000000000000E+20
 30
-1.000000000000000E+20
  9
$PLIMMIN
 10
0.0
 20
0.0
  9
$PLIMMAX
 10
12.0
 20
9.0
  9
$UNITMODE
 70
     0
  9
$VISRETAIN
 70
     1
  9
$PLINEGEN
 70
     0
  9
$PSLTSCALE
 70
     1
  9
$TREEDEPTH
 70
  3020
  9
$CMLSTYLE
  2
Standard
  9
$CMLJUST
 70
     0
  9
$CMLSCALE
 40
1.0
  9
$PROXYGRAPHICS
 70
     1
  9
$MEASUREMENT
 70
     0
  9
$CELWEIGHT
370
    -1
  9
$ENDCAPS
280
     0
  9
$JOINSTYLE
280
     0
  9
$LWDISPLAY
290
     0
  9
$INSUNITS
 70
     4
  9
$HYPERLINKBASE
  1

  9
$STYLESHEET
  1

  9
$XEDIT
290
     1
  9
$CEPSNTYPE
380
     0
  9
$PSTYLEMODE
290
     1
  9
$FINGERPRINTGUID
  2
{85C56205-783B-43E5-ABFE-2F971E845521}
  9
$VERSIONGUID
  2
{FAEB1C32-E019-11D5-929B-00C0DF256EC4}
  9
$EXTNAMES
290
     1
  9
$PSVPSCALE
 40
0.0
  9
$OLESTARTUP
290
     0
  9
$SORTENTS
280
   127
  9
$INDEXCTL
280
     0
  9
$HIDETEXT
280
     1
  9
$XCLIPFRAME
290
     0
  9
$HALOGAP
280
     0
  9
$OBSCOLOR
 70
   257
  9
$OBSLTYPE
280
     0
  9
$INTERSECTIONDISPLAY
280
     0
  9
$INTERSECTIONCOLOR
 70
   257
  9
$DIMASSOC
280
     2
  9
$PROJECTNAME
  1

  9
$CAMERADISPLAY
290
     0
  9
$LENSLENGTH
 40
50.0
  9
$CAMERAHEIGHT
 40
0.0
  9
$STEPSPERSEC
 40
2.0
  9
$STEPSIZE
 40
6.0
  9
$3DDWFPREC
 40
2.0
  9
$PSOLWIDTH
 40
0.25
  9
$PSOLHEIGHT
 40
4.0
  9
$LOFTANG1
 40
1.570796326794897
  9
$LOFTANG2
 40
1.570796326794897
  9
$LOFTMAG1
 40
0.0
  9
$LOFTMAG2
 40
0.0
  9
$LOFTPARAM
 70
     7
  9
$LOFTNORMALS
280
     1
  9
$LATITUDE
 40
37.795
  9
$LONGITUDE
 40
-122.394
  9
$NORTHDIRECTION
 40
0.0
  9
$TIMEZONE
 70
 -8000
  9
$LIGHTGLYPHDISPLAY
280
     1
  9
$TILEMODELIGHTSYNCH
280
     1
  9
$SOLIDHIST
280
     1
  9
$SHOWHIST
280
     1
  9
$DWFFRAME
280
     2
  9
$DGNFRAME
280
     2
  9
$REALWORLDSCALE
290
     1
  9
$INTERFERECOLOR
 62
   256
  9
$CSHADOW
280
     0
  9
$SHADOWPLANELOCATION
 40
0.0
  0
ENDSEC
  0
SECTION
  2
CLASSES
  0
CLASS
  1
ACDBDICTIONARYWDFLT
  2
AcDbDictionaryWithDefault
  3
ObjectDBX Classes
 90
        0
 91
        4
280
     0
281
     0
  0
CLASS
  1
VISUALSTYLE
  2
AcDbVisualStyle
  3
ObjectDBX Classes
 90
     4095
 91
        4
280
     0
281
     0
  0
CLASS
  1
MATERIAL
  2
AcDbMaterial
  3
ObjectDBX Classes
 90
     1153
 91
        4
280
     0
281
     0
  0
ENDSEC
  0
SECTION
  2
TABLES
  0
TABLE
  2
VPORT
  5
8
330
0
100
AcDbSymbolTable
 70
     1
  0
VPORT
  5
29
330
8
100
AcDbSymbolTableRecord
100
AcDbViewportTableRecord
  2
*Active
 70
     0
 10
0.0
 20
0.0
 11
1.0
 21
1.0
 12
10.42990654205607
 22
4.5
 13
0.0
 23
0.0
 14
0.5
 24
0.5
 15
0.5
 25
0.5
 16
0.0
 26
0.0
 36
1.0
 17
0.0
 27
0.0
 37
0.0
 40
9.0
 41
1.972972972850329
 42
50.0
 43
0.0
 44
0.0
 50
0.0
 51
0.0
 71
     0
 72
   100
 73
     1
 74
     3
 75
     0
 76
     0
 77
     0
 78
     0
281
     0
 65
     1
110
0.0
120
0.0
130
0.0
111
1.0
121
0.0
131
0.0
112
0.0
122
1.0
132
0.0
 79
     0
146
0.0
 60
     3
 61
     5
292
     1
282
     1
141
0.0
142
0.0
 63
   250
  0
ENDTAB
  0
TABLE
  2
LTYPE
  5
5
330
0
100
AcDbSymbolTable
 70
     1
  0
LTYPE
  5
14
330
5
100
AcDbSymbolTableRecord
100
AcDbLinetypeTableRecord
  2
ByBlock
 70
     0
  3

 72
    65
 73
     0
 40
0.0
  0
LTYPE
  5
15
330
5
100
AcDbSymbolTableRecord
100
AcDbLinetypeTableRecord
  2
ByLayer
 70
     0
  3

 72
    65
 73
     0
 40
0.0
  0
LTYPE
  5
16
330
5
100
AcDbSymbolTableRecord
100
AcDbLinetypeTableRecord
  2
Continuous
 70
     0
  3
Solid line
 72
    65
 73
     0
 40
0.0
  0
ENDTAB
  0
TABLE
  2
LAYER
  5
2
330
0
100
AcDbSymbolTable
 70
     3
  0
LAYER
  5
10
330
2
100
AcDbSymbolTableRecord
100
AcDbLayerTableRecord
  2
0
 70
     0
 62
     7
  6
Continuous
370
    -3
390
F
347
3E
  0
LAYER
  5
40
330
2
100
AcDbSymbolTableRecord
100
AcDbLayerTableRecord
  2
layer 1
 70
     0
 62
     7
  6
Continuous
370
    -3
390
F
347
3E
  0
LAYER
  5
BC
330
2
100
AcDbSymbolTableRecord
100
AcDbLayerTableRecord
  2
Master Guides
 70
     0
 62
     7
  6
Continuous
370
    -3
390
F
347
3E
  0
ENDTAB
  0
TABLE
  2
STYLE
  5
3
330
0
100
AcDbSymbolTable
 70
     1
  0
STYLE
  5
11
330
3
100
AcDbSymbolTableRecord
100
AcDbTextStyleTableRecord
  2
Standard
 70
     0
 40
0.0
 41
1.0
 50
0.0
 71
     0
 42
0.2
  3
txt
  4

  0
ENDTAB
  0
TABLE
  2
VIEW
  5
6
330
0
100
AcDbSymbolTable
 70
     0
  0
ENDTAB
  0
TABLE
  2
UCS
  5
7
330
0
100
AcDbSymbolTable
 70
     0
  0
ENDTAB
  0
TABLE
  2
APPID
  5
9
330
0
100
AcDbSymbolTable
 70
     2
  0
APPID
  5
12
330
9
100
AcDbSymbolTableRecord
100
AcDbRegAppTableRecord
  2
ACAD
 70
     0
  0
APPID
  5
3F
330
9
100
AcDbSymbolTableRecord
100
AcDbRegAppTableRecord
  2
ODA
 70
     0
  0
ENDTAB
  0
TABLE
  2
DIMSTYLE
  5
A
330
0
100
AcDbSymbolTable
 70
     1
100
AcDbDimStyleTable
  0
DIMSTYLE
105
27
330
A
100
AcDbSymbolTableRecord
100
AcDbDimStyleTableRecord
  2
Standard
 70
     0
178
     0
340
11
  0
ENDTAB
  0
TABLE
  2
BLOCK_RECORD
  5
1
330
0
100
AcDbSymbolTable
 70
     1
  0
BLOCK_RECORD
  5
1F
330
1
100
AcDbSymbolTableRecord
100
AcDbBlockTableRecord
  2
*Model_Space
340
22
 70
     0
280
     1
281
     0
  0
BLOCK_RECORD
  5
1B
330
1
100
AcDbSymbolTableRecord
100
AcDbBlockTableRecord
  2
*Paper_Space
340
1E
 70
     0
280
     1
281
     0
  0
BLOCK_RECORD
  5
23
330
1
100
AcDbSymbolTableRecord
100
AcDbBlockTableRecord
  2
*Paper_Space0
340
26
 70
     0
280
     1
281
     0
  0
ENDTAB
  0
ENDSEC
  0
SECTION
  2
BLOCKS
  0
BLOCK
  5
20
330
1F
100
AcDbEntity
  8
0
100
AcDbBlockBegin
  2
*Model_Space
 70
     0
 10
0.0
 20
0.0
 30
0.0
  3
*Model_Space
  1

  0
ENDBLK
  5
21
330
1F
100
AcDbEntity
  8
0
100
AcDbBlockEnd
  0
BLOCK
  5
1C
330
1B
100
AcDbEntity
 67
     1
  8
0
100
AcDbBlockBegin
  2
*Paper_Space
 70
     0
 10
0.0
 20
0.0
 30
0.0
  3
*Paper_Space
  1

  0
ENDBLK
  5
1D
330
1B
100
AcDbEntity
 67
     1
  8
0
100
AcDbBlockEnd
  0
BLOCK
  5
24
330
23
100
AcDbEntity
  8
0
100
AcDbBlockBegin
  2
*Paper_Space0
 70
     0
 10
0.0
 20
0.0
 30
0.0
  3
*Paper_Space0
  1

  0
ENDBLK
  5
25
330
23
100
AcDbEntity
  8
0
100
AcDbBlockEnd
  0
ENDSEC
  0
SECTION
  2
ENTITIES
  0
SPLINE
  5
41
330
1F
100
AcDbEntity
  8
layer 1
 62
   250
100
AcDbSpline
210
0.0
220
0.0
230
1.0
 70
    11
 71
     3
 72
    20
 73
    16
 74
     0
 42
0.0000000001
 43
0.0000000001
 12
1.0
 22
0.0
 32
0.0
 13
1.0
 23
0.0
 33
0.0
 40
0.0
 40
0.0
 40
0.0
 40
0.0
 40
0.2
 40
0.2
 40
0.2
 40
0.2
 40
0.4
 40
0.4
 40
0.4
 40
0.4
 40
0.6
 40
0.6
 40
0.6
 40
0.6
 40
1.0
 40
1.0
 40
1.0
 40
1.0
 10
-187.4506
 20
-114.9604
 30
0.0
 10
-187.4506
 20
-114.9604
 30
0.0
 10
-187.4506
 20
131.7278
 30
0.0
 10
-187.4506
 20
131.7278
 30
0.0
 10
-187.4506
 20
131.7278
 30
0.0
 10
-187.4506
 20
131.7278
 30
0.0
 10
-90.3682
 20
131.7278
 30
0.0
 10
-90.3682
 20
131.7278
 30
0.0
 10
-90.3682
 20
131.7278
 30
0.0
 10
-90.3682
 20
131.7278
 30
0.0
 10
-90.3682
 20
-114.9604
 30
0.0
 10
-90.3682
 20
-114.9604
 30
0.0
 10
-90.3682
 20
-114.9604
 30
0.0
 10
-90.3682
 20
-114.9604
 30
0.0
 10
-187.4506
 20
-114.9604
 30
0.0
 10
-187.4506
 20
-114.9604
 30
0.0
  0
SPLINE
  5
42
330
1F
100
AcDbEntity
  8
layer 1
 62
     7
100
AcDbSpline
210
0.0
220
0.0
230
1.0
 70
    11
 71
     3
 72
    20
 73
    16
 74
     0
 42
0.0000000001
 43
0.0000000001
 12
1.0
 22
0.0
 32
0.0
 13
1.0
 23
0.0
 33
0.0
 40
0.0
 40
0.0
 40
0.0
 40
0.0
 40
0.2
 40
0.2
 40
0.2
 40
0.2
 40
0.4
 40
0.4
 40
0.4
 40
0.4
 40
0.6
 40
0.6
 40
0.6
 40
0.6
 40
1.0
 40
1.0
 40
1.0
 40
1.0
 10
-163.6598
 20
-58.1668
 30
0.0
 10
-161.4401
 20
-55.4855
 30
0.0
 10
-158.7215
 20
-52.6416
 30
0.0
 10
-154.9876
 20
-49.0105
 30
0.0
 10
-154.9876
 20
-49.0105
 30
0.0
 10
-159.2015
 20
-44.1543
 30
0.0
 10
-161.1851
 20
-40.9966
 30
0.0
 10
-163.305
 20
-35.5349
 30
0.0
 10
-163.305
 20
-35.5349
 30
0.0
 10
-162.7744
 20
-46.9024
 30
0.0
 10
-166.5765
 20
-54.7085
 30
0.0
 10
-170.5986
 20
-58.9572
 30
0.0
 10
-170.5986
 20
-58.9572
 30
0.0
 10
-167.8566
 20
-57.9506
 30
0.0
 10
-165.9691
 20
-57.6373
 30
0.0
 10
-163.6598
 20
-58.1668
 30
0.0
  0
SPLINE
  5
43
330
1F
100
AcDbEntity
  8
layer 1
 62
     7
100
AcDbSpline
210
0.0
220
0.0
230
1.0
 70
    11
 71
     3
 72
    20
 73
    16
 74
     0
 42
0.0000000001
 43
0.0000000001
 12
1.0
 22
0.0
 32
0.0
 13
1.0
 23
0.0
 33
0.0
 40
0.0
 40
0.0
 40
0.0
 40
0.0
 40
0.2
 40
0.2
 40
0.2
 40
0.2
 40
0.4
 40
0.4
 40
0.4
 40
0.4
 40
0.6
 40
0.6
 40
0.6
 40
0.6
 40
1.0
 40
1.0
 40
1.0
 40
1.0
 10
-170.3103
 20
-6.6624
 30
0.0
 10
-166.8709
 20
-5.918
 30
0.0
 10
-163.5612
 20
-8.2211
 30
0.0
 10
-163.1909
 20
-11.1361
 30
0.0
 10
-163.1909
 20
-11.1361
 30
0.0
 10
-162.1635
 20
-8.7655
 30
0.0
 10
-158.95
 20
-4.5214
 30
0.0
 10
-152.1214
 20
-4.7258
 30
0.0
 10
-152.1214
 20
-4.7258
 30
0.0
 10
-153.1276
 20
-3.334
 30
0.0
 10
-153.8912
 20
-3.0591
 30
0.0
 10
-155.8185
 20
0.6862
 30
0.0
 10
-155.8185
 20
0.6862
 30
0.0
 10
-161.0672
 20
0.7075
 30
0.0
 10
-167.0648
 20
-3.1564
 30
0.0
 10
-170.3103
 20
-6.6624
 30
0.0
  0
SPLINE
  5
44
330
1F
100
AcDbEntity
  8
layer 1
 62
     7
100
AcDbSpline
210
0.0
220
0.0
230
1.0
 70
    11
 71
     3
 72
    16
 73
    12
 74
     0
 42
0.0000000001
 43
0.0000000001
 12
1.0
 22
0.0
 32
0.0
 13
1.0
 23
0.0
 33
0.0
 40
0.0
 40
0.0
 40
0.0
 40
0.0
 40
0.25
 40
0.25
 40
0.25
 40
0.25
 40
0.5
 40
0.5
 40
0.5
 40
0.5
 40
1.0
 40
1.0
 40
1.0
 40
1.0
 10
-171.6616
 20
-15.685
 30
0.0
 10
-170.6195
 20
-24.2247
 30
0.0
 10
-166.2201
 20
-25.4818
 30
0.0
 10
-165.0217
 20
-28.8326
 30
0.0
 10
-165.0217
 20
-28.8326
 30
0.0
 10
-166.6967
 20
-23.8903
 30
0.0
 10
-166.6215
 20
-20.5615
 30
0.0
 10
-165.5464
 20
-16.6252
 30
0.0
 10
-165.5464
 20
-16.6252
 30
0.0
 10
-167.9236
 20
-17.9124
 30
0.0
 10
-169.9905
 20
-17.545
 30
0.0
 10
-171.6616
 20
-15.685
 30
0.0
  0
SPLINE
  5
45
330
1F
100
AcDbEntity
  8
layer 1
 62
     7
100
AcDbSpline
210
0.0
220
0.0
230
1.0
 70
    11
 71
     3
 72
    24
 73
    20
 74
     0
 42
0.0000000001
 43
0.0000000001
 12
1.0
 22
0.0
 32
0.0
 13
1.0
 23
0.0
 33
0.0
 40
0.0
 40
0.0
 40
0.0
 40
0.0
 40
0.1666666666666667
 40
0.1666666666666667
 40
0.1666666666666667
 40
0.1666666666666667
 40
0.3333333333333333
 40
0.3333333333333333
 40
0.3333333333333333
 40
0.3333333333333333
 40
0.5
 40
0.5
 40
0.5
 40
0.5
 40
0.6666666666666666
 40
0.6666666666666666
 40
0.6666666666666666
 40
0.6666666666666666
 40
1.0
 40
1.0
 40
1.0
 40
1.0
 10
-181.5351
 20
-30.374
 30
0.0
 10
-180.5801
 20
-28.0168
 30
0.0
 10
-176.0708
 20
-26.2663
 30
0.0
 10
-172.9545
 20
-27.3071
 30
0.0
 10
-172.9545
 20
-27.3071
 30
0.0
 10
-174.4044
 20
-24.1252
 30
0.0
 10
-178.8029
 20
-15.7378
 30
0.0
 10
-175.488
 20
-9.4473
 30
0.0
 10
-175.488
 20
-9.4473
 30
0.0
 10
-176.0788
 20
-6.5913
 30
0.0
 10
-176.0822
 20
-4.039
 30
0.0
 10
-174.8303
 20
-2.2414
 30
0.0
 10
-174.8303
 20
-2.2414
 30
0.0
 10
-177.2313
 20
-1.5034
 30
0.0
 10
-180.6537
 20
1.6047
 30
0.0
 10
-181.535
 20
5.1755
 30
0.0
 10
-181.535
 20
5.1755
 30
0.0
 10
-181.535
 20
5.1755
 30
0.0
 10
-181.5351
 20
-30.374
 30
0.0
 10
-181.5351
 20
-30.374
 30
0.0
  0
SPLINE
  5
46
330
1F
100
AcDbEntity
  8
layer 1
 62
     7
100
AcDbSpline
210
0.0
220
0.0
230
1.0
 70
    11
 71
     3
 72
    20
 73
    16
 74
     0
 42
0.0000000001
 43
0.0000000001
 12
1.0
 22
0.0
 32
0.0
 13
1.0
 23
0.0
 33
0.0
 40
0.0
 40
0.0
 40
0.0
 40
0.0
 40
0.2
 40
0.2
 40
0.2
 40
0.2
 40
0.4
 40
0.4
 40
0.4
 40
0.4
 40
0.6
 40
0.6
 40
0.6
 40
0.6
 40
1.0
 40
1.0
 40
1.0
 40
1.0
 10
-181.5351
 20
-53.345
 30
0.0
 10
-178.3782
 20
-51.7218
 30
0.0
 10
-174.511
 20
-51.8063
 30
0.0
 10
-172.4957
 20
-53.8104
 30
0.0
 10
-172.4957
 20
-53.8104
 30
0.0
 10
-169.3582
 20
-50.3992
 30
0.0
 10
-167.3342
 20
-40.6814
 30
0.0
 10
-170.1207
 20
-35.6753
 30
0.0
 10
-170.1207
 20
-35.6753
 30
0.0
 10
-171.2539
 20
-42.2206
 30
0.0
 10
-178.1548
 20
-43.1677
 30
0.0
 10
-181.5351
 20
-39.2649
 30
0.0
 10
-181.5351
 20
-39.2649
 30
0.0
 10
-181.5351
 20
-39.2649
 30
0.0
 10
-181.5351
 20
-53.345
 30
0.0
 10
-181.5351
 20
-53.345
 30
0.0
  0
SPLINE
  5
47
330
1F
100
AcDbEntity
  8
layer 1
 62
     7
100
AcDbSpline
210
0.0
220
0.0
230
1.0
 70
    11
 71
     3
 72
    16
 73
    12
 74
     0
 42
0.0000000001
 43
0.0000000001
 12
1.0
 22
0.0
 32
0.0
 13
1.0
 23
0.0
 33
0.0
 40
0.0
 40
0.0
 40
0.0
 40
0.0
 40
0.25
 40
0.25
 40
0.25
 40
0.25
 40
0.5
 40
0.5
 40
0.5
 40
0.5
 40
1.0
 40
1.0
 40
1.0
 40
1.0
 10
-181.5351
 20
-71.4198
 30
0.0
 10
-180.7178
 20
-66.9982
 30
0.0
 10
-179.4197
 20
-65.1101
 30
0.0
 10
-176.7621
 20
-62.1139
 30
0.0
 10
-176.7621
 20
-62.1139
 30
0.0
 10
-176.2749
 20
-58.4376
 30
0.0
 10
-177.0129
 20
-54.9124
 30
0.0
 10
-181.5351
 20
-54.7248
 30
0.0
 10
-181.5351
 20
-54.7248
 30
0.0
 10
-181.5351
 20
-54.7248
 30
0.0
 10
-181.5351
 20
-71.4198
 30
0.0
 10
-181.5351
 20
-71.4198
 30
0.0
  0
SPLINE
  5
48
330
1F
100
AcDbEntity
  8
layer 1
 62
     7
100
AcDbSpline
210
0.0
220
0.0
230
1.0
 70
    11
 71
     3
 72
    40
 73
    36
 74
     0
 42
0.0000000001
 43
0.0000000001
 12
1.0
 22
0.0
 32
0.0
 13
1.0
 23
0.0
 33
0.0
 40
0.0
 40
0.0
 40
0.0
 40
0.0
 40
0.1
 40
0.1
 40
0.1
 40
0.1
 40
0.2
 40
0.2
 40
0.2
 40
0.2
 40
0.3
 40
0.3
 40
0.3
 40
0.3
 40
0.4
 40
0.4
 40
0.4
 40
0.4
 40
0.5
 40
0.5
 40
0.5
 40
0.5
 40
0.6
 40
0.6
 40
0.6
 40
0.6
 40
0.7
 40
0.7
 40
0.7
 40
0.7
 40
0.8
 40
0.8
 40
0.8
 40
0.8
 40
1.0
 40
1.0
 40
1.0
 40
1.0
 10
-181.5351
 20
-108.9844
 30
0.0
 10
-181.5351
 20
-108.9844
 30
0.0
 10
-142.4935
 20
-108.9844
 30
0.0
 10
-142.4935
 20
-108.9844
 30
0.0
 10
-142.4935
 20
-108.9844
 30
0.0
 10
-143.3688
 20
-106.0494
 30
0.0
 10
-145.8358
 20
-105.8861
 30
0.0
 10
-148.2899
 20
-102.9341
 30
0.0
 10
-148.2899
 20
-102.9341
 30
0.0
 10
-149.7841
 20
-101.1368
 30
0.0
 10
-150.2163
 20
-100.1844
 30
0.0
 10
-150.6697
 20
-96.8657
 30
0.0
 10
-150.6697
 20
-96.8657
 30
0.0
 10
-153.2822
 20
-98.7425
 30
0.0
 10
-161.1482
 20
-99.9688
 30
0.0
 10
-168.0414
 20
-97.8838
 30
0.0
 10
-168.0414
 20
-97.8838
 30
0.0
 10
-169.3148
 20
-97.4773
 30
0.0
 10
-169.6528
 20
-97.4204
 30
0.0
 10
-170.5223
 20
-98.1352
 30
0.0
 10
-170.5223
 20
-98.1352
 30
0.0
 10
-171.882
 20
-99.2996
 30
0.0
 10
-173.1364
 20
-101.2897
 30
0.0
 10
-174.1315
 20
-104.495
 30
0.0
 10
-174.1315
 20
-104.495
 30
0.0
 10
-177.6248
 20
-102.4856
 30
0.0
 10
-181.5351
 20
-95.5882
 30
0.0
 10
-175.6083
 20
-91.6284
 30
0.0
 10
-175.6083
 20
-91.6284
 30
0.0
 10
-178.8807
 20
-89.053
 30
0.0
 10
-180.993
 20
-84.937
 30
0.0
 10
-181.5351
 20
-81.7382
 30
0.0
 10
-181.5351
 20
-81.7382
 30
0.0
 10
-181.5351
 20
-81.7382
 30
0.0
 10
-181.5351
 20
-108.9844
 30
0.0
 10
-181.5351
 20
-108.9844
 30
0.0
  0
SPLINE
  5
49
330
1F
100
AcDbEntity
  8
layer 1
 62
     7
100
AcDbSpline
210
0.0
220
0.0
230
1.0
 70
    11
 71
     3
 72
    28
 73
    24
 74
     0
 42
0.0000000001
 43
0.0000000001
 12
1.0
 22
0.0
 32
0.0
 13
1.0
 23
0.0
 33
0.0
 40
0.0
 40
0.0
 40
0.0
 40
0.0
 40
0.1428571428571428
 40
0.1428571428571428
 40
0.1428571428571428
 40
0.1428571428571428
 40
0.2857142857142857
 40
0.2857142857142857
 40
0.2857142857142857
 40
0.2857142857142857
 40
0.4285714285714285
 40
0.4285714285714285
 40
0.4285714285714285
 40
0.4285714285714285
 40
0.5714285714285714
 40
0.5714285714285714
 40
0.5714285714285714
 40
0.5714285714285714
 40
0.7142857142857143
 40
0.7142857142857143
 40
0.7142857142857143
 40
0.7142857142857143
 40
1.0
 40
1.0
 40
1.0
 40
1.0
 10
-162.5332
 20
-72.8121
 30
0.0
 10
-172.9206
 20
-73.7888
 30
0.0
 10
-170.9867
 20
-83.8659
 30
0.0
 10
-165.6528
 20
-86.3515
 30
0.0
 10
-165.6528
 20
-86.3515
 30
0.0
 10
-158.263
 20
-89.6168
 30
0.0
 10
-153.0582
 20
-86.1836
 30
0.0
 10
-150.5396
 20
-84.2238
 30
0.0
 10
-150.5396
 20
-84.2238
 30
0.0
 10
-141.1492
 20
-75.0615
 30
0.0
 10
-145.2344
 20
-60.9451
 30
0.0
 10
-151.1342
 20
-55.1577
 30
0.0
 10
-151.1342
 20
-55.1577
 30
0.0
 10
-153.8704
 20
-57.2541
 30
0.0
 10
-154.921
 20
-58.6761
 30
0.0
 10
-157.2038
 20
-60.812
 30
0.0
 10
-157.2038
 20
-60.812
 30
0.0
 10
-148.3926
 20
-64.1643
 30
0.0
 10
-150.1472
 20
-73.2422
 30
0.0
 10
-152.7877
 20
-76.0538
 30
0.0
 10
-152.7877
 20
-76.0538
 30
0.0
 10
-155.9284
 20
-79.3981
 30
0.0
 10
-162.2523
 20
-79.3696
 30
0.0
 10
-162.5332
 20
-72.8121
 30
0.0
  0
SPLINE
  5
4A
330
1F
100
AcDbEntity
  8
layer 1
 62
     7
100
AcDbSpline
210
0.0
220
0.0
230
1.0
 70
    11
 71
     3
 72
    16
 73
    12
 74
     0
 42
0.0000000001
 43
0.0000000001
 12
1.0
 22
0.0
 32
0.0
 13
1.0
 23
0.0
 33
0.0
 40
0.0
 40
0.0
 40
0.0
 40
0.0
 40
0.25
 40
0.25
 40
0.25
 40
0.25
 40
0.5
 40
0.5
 40
0.5
 40
0.5
 40
1.0
 40
1.0
 40
1.0
 40
1.0
 10
-158.9542
 20
-20.135
 30
0.0
 10
-160.894
 20
-28.6746
 30
0.0
 10
-153.6504
 20
-40.9417
 30
0.0
 10
-150.6627
 20
-43.9255
 30
0.0
 10
-150.6627
 20
-43.9255
 30
0.0
 10
-145.9152
 20
-38.7539
 30
0.0
 10
-140.014
 20
-28.819
 30
0.0
 10
-141.9206
 20
-19.5612
 30
0.0
 10
-141.9206
 20
-19.5612
 30
0.0
 10
-146.087
 20
-7.2694
 30
0.0
 10
-158.2465
 20
-13.5998
 30
0.0
 10
-158.9542
 20
-20.135
 30
0.0
  0
SPLINE
  5
4B
330
1F
100
AcDbEntity
  8
layer 1
 62
     7
100
AcDbSpline
210
0.0
220
0.0
230
1.0
 70
    11
 71
     3
 72
    20
 73
    16
 74
     0
 42
0.0000000001
 43
0.0000000001
 12
1.0
 22
0.0
 32
0.0
 13
1.0
 23
0.0
 33
0.0
 40
0.0
 40
0.0
 40
0.0
 40
0.0
 40
0.2
 40
0.2
 40
0.2
 40
0.2
 40
0.4
 40
0.4
 40
0.4
 40
0.4
 40
0.6
 40
0.6
 40
0.6
 40
0.6
 40
1.0
 40
1.0
 40
1.0
 40
1.0
 10
-138.9434
 20
-80.9103
 30
0.0
 10
-136.6351
 20
-80.9103
 30
0.0
 10
-134.7639
 20
-82.7816
 30
0.0
 10
-134.7639
 20
-85.0898
 30
0.0
 10
-134.7639
 20
-85.0898
 30
0.0
 10
-134.7639
 20
-87.3982
 30
0.0
 10
-136.6352
 20
-89.2694
 30
0.0
 10
-138.9434
 20
-89.2694
 30
0.0
 10
-138.9434
 20
-89.2694
 30
0.0
 10
-141.2518
 20
-89.2694
 30
0.0
 10
-143.123
 20
-87.3981
 30
0.0
 10
-143.123
 20
-85.0898
 30
0.0
 10
-143.123
 20
-85.0898
 30
0.0
 10
-143.123
 20
-82.7815
 30
0.0
 10
-141.2517
 20
-80.9103
 30
0.0
 10
-138.9434
 20
-80.9103
 30
0.0
  0
SPLINE
  5
4C
330
1F
100
AcDbEntity
  8
layer 1
 62
     7
100
AcDbSpline
210
0.0
220
0.0
230
1.0
 70
    11
 71
     3
 72
    20
 73
    16
 74
     0
 42
0.0000000001
 43
0.0000000001
 12
1.0
 22
0.0
 32
0.0
 13
1.0
 23
0.0
 33
0.0
 40
0.0
 40
0.0
 40
0.0
 40
0.0
 40
0.2
 40
0.2
 40
0.2
 40
0.2
 40
0.4
 40
0.4
 40
0.4
 40
0.4
 40
0.6
 40
0.6
 40
0.6
 40
0.6
 40
1.0
 40
1.0
 40
1.0
 40
1.0
 10
-138.9024
 20
16.0569
 30
0.0
 10
-134.6648
 20
16.0569
 30
0.0
 10
-131.2299
 20
12.6217
 30
0.0
 10
-131.2299
 20
8.3844
 30
0.0
 10
-131.2299
 20
8.3844
 30
0.0
 10
-131.2299
 20
4.1469
 30
0.0
 10
-134.6651
 20
0.712
 30
0.0
 10
-138.9024
 20
0.712
 30
0.0
 10
-138.9024
 20
0.712
 30
0.0
 10
-143.1399
 20
0.712
 30
0.0
 10
-146.5748
 20
4.1471
 30
0.0
 10
-146.5748
 20
8.3844
 30
0.0
 10
-146.5748
 20
8.3844
 30
0.0
 10
-146.5748
 20
12.622
 30
0.0
 10
-143.1397
 20
16.0569
 30
0.0
 10
-138.9024
 20
16.0569
 30
0.0
  0
SPLINE
  5
4D
330
1F
100
AcDbEntity
  8
layer 1
 62
     7
100
AcDbSpline
210
0.0
220
0.0
230
1.0
 70
    11
 71
     3
 72
    20
 73
    16
 74
     0
 42
0.0000000001
 43
0.0000000001
 12
1.0
 22
0.0
 32
0.0
 13
1.0
 23
0.0
 33
0.0
 40
0.0
 40
0.0
 40
0.0
 40
0.0
 40
0.2
 40
0.2
 40
0.2
 40
0.2
 40
0.4
 40
0.4
 40
0.4
 40
0.4
 40
0.6
 40
0.6
 40
0.6
 40
0.6
 40
1.0
 40
1.0
 40
1.0
 40
1.0
 10
-157.5682
 20
9.7454
 30
0.0
 10
-163.3869
 20
8.9032
 30
0.0
 10
-170.0092
 20
11.9807
 30
0.0
 10
-170.9206
 20
13.6841
 30
0.0
 10
-170.9206
 20
13.6841
 30
0.0
 10
-175.4495
 20
11.4346
 30
0.0
 10
-175.3061
 20
5.1636
 30
0.0
 10
-170.9206
 20
3.0575
 30
0.0
 10
-170.9206
 20
3.0575
 30
0.0
 10
-170.0092
 20
4.7609
 30
0.0
 10
-163.3869
 20
7.8384
 30
0.0
 10
-157.5682
 20
6.9962
 30
0.0
 10
-157.5682
 20
6.9962
 30
0.0
 10
-157.5682
 20
6.9962
 30
0.0
 10
-157.5682
 20
9.7454
 30
0.0
 10
-157.5682
 20
9.7454
 30
0.0
  0
SPLINE
  5
4E
330
1F
100
AcDbEntity
  8
layer 1
 62
     7
100
AcDbSpline
210
0.0
220
0.0
230
1.0
 70
    11
 71
     3
 72
    20
 73
    16
 74
     0
 42
0.0000000001
 43
0.0000000001
 12
1.0
 22
0.0
 32
0.0
 13
1.0
 23
0.0
 33
0.0
 40
0.0
 40
0.0
 40
0.0
 40
0.0
 40
0.2
 40
0.2
 40
0.2
 40
0.2
 40
0.4
 40
0.4
 40
0.4
 40
0.4
 40
0.6
 40
0.6
 40
0.6
 40
0.6
 40
1.0
 40
1.0
 40
1.0
 40
1.0
 10
-114.1589
 20
-58.1668
 30
0.0
 10
-116.3786
 20
-55.4855
 30
0.0
 10
-119.0972
 20
-52.6416
 30
0.0
 10
-122.8311
 20
-49.0105
 30
0.0
 10
-122.8311
 20
-49.0105
 30
0.0
 10
-118.6172
 20
-44.1543
 30
0.0
 10
-116.6336
 20
-40.9966
 30
0.0
 10
-114.5137
 20
-35.5349
 30
0.0
 10
-114.5137
 20
-35.5349
 30
0.0
 10
-115.0443
 20
-46.9024
 30
0.0
 10
-111.2422
 20
-54.7085
 30
0.0
 10
-107.2201
 20
-58.9572
 30
0.0
 10
-107.2201
 20
-58.9572
 30
0.0
 10
-109.9621
 20
-57.9506
 30
0.0
 10
-111.8496
 20
-57.6373
 30
0.0
 10
-114.1589
 20
-58.1668
 30
0.0
  0
SPLINE
  5
4F
330
1F
100
AcDbEntity
  8
layer 1
 62
     7
100
AcDbSpline
210
0.0
220
0.0
230
1.0
 70
    11
 71
     3
 72
    20
 73
    16
 74
     0
 42
0.0000000001
 43
0.0000000001
 12
1.0
 22
0.0
 32
0.0
 13
1.0
 23
0.0
 33
0.0
 40
0.0
 40
0.0
 40
0.0
 40
0.0
 40
0.2
 40
0.2
 40
0.2
 40
0.2
 40
0.4
 40
0.4
 40
0.4
 40
0.4
 40
0.6
 40
0.6
 40
0.6
 40
0.6
 40
1.0
 40
1.0
 40
1.0
 40
1.0
 10
-107.5084
 20
-6.6624
 30
0.0
 10
-110.9479
 20
-5.918
 30
0.0
 10
-114.2575
 20
-8.2211
 30
0.0
 10
-114.6279
 20
-11.1361
 30
0.0
 10
-114.6279
 20
-11.1361
 30
0.0
 10
-115.6553
 20
-8.7655
 30
0.0
 10
-118.8688
 20
-4.5214
 30
0.0
 10
-125.6974
 20
-4.7258
 30
0.0
 10
-125.6974
 20
-4.7258
 30
0.0
 10
-124.6911
 20
-3.334
 30
0.0
 10
-123.9275
 20
-3.0591
 30
0.0
 10
-122.0002
 20
0.6862
 30
0.0
 10
-122.0002
 20
0.6862
 30
0.0
 10
-116.7515
 20
0.7075
 30
0.0
 10
-110.7539
 20
-3.1564
 30
0.0
 10
-107.5084
 20
-6.6624
 30
0.0
  0
SPLINE
  5
50
330
1F
100
AcDbEntity
  8
layer 1
 62
     7
100
AcDbSpline
210
0.0
220
0.0
230
1.0
 70
    11
 71
     3
 72
    16
 73
    12
 74
     0
 42
0.0000000001
 43
0.0000000001
 12
1.0
 22
0.0
 32
0.0
 13
1.0
 23
0.0
 33
0.0
 40
0.0
 40
0.0
 40
0.0
 40
0.0
 40
0.25
 40
0.25
 40
0.25
 40
0.25
 40
0.5
 40
0.5
 40
0.5
 40
0.5
 40
1.0
 40
1.0
 40
1.0
 40
1.0
 10
-106.1571
 20
-15.685
 30
0.0
 10
-107.1992
 20
-24.2247
 30
0.0
 10
-111.5986
 20
-25.4818
 30
0.0
 10
-112.797
 20
-28.8326
 30
0.0
 10
-112.797
 20
-28.8326
 30
0.0
 10
-111.122
 20
-23.8903
 30
0.0
 10
-111.1972
 20
-20.5615
 30
0.0
 10
-112.2723
 20
-16.6252
 30
0.0
 10
-112.2723
 20
-16.6252
 30
0.0
 10
-109.8951
 20
-17.9124
 30
0.0
 10
-107.8282
 20
-17.545
 30
0.0
 10
-106.1571
 20
-15.685
 30
0.0
  0
SPLINE
  5
51
330
1F
100
AcDbEntity
  8
layer 1
 62
     7
100
AcDbSpline
210
0.0
220
0.0
230
1.0
 70
    11
 71
     3
 72
    24
 73
    20
 74
     0
 42
0.0000000001
 43
0.0000000001
 12
1.0
 22
0.0
 32
0.0
 13
1.0
 23
0.0
 33
0.0
 40
0.0
 40
0.0
 40
0.0
 40
0.0
 40
0.1666666666666667
 40
0.1666666666666667
 40
0.1666666666666667
 40
0.1666666666666667
 40
0.3333333333333333
 40
0.3333333333333333
 40
0.3333333333333333
 40
0.3333333333333333
 40
0.5
 40
0.5
 40
0.5
 40
0.5
 40
0.6666666666666666
 40
0.6666666666666666
 40
0.6666666666666666
 40
0.6666666666666666
 40
1.0
 40
1.0
 40
1.0
 40
1.0
 10
-96.2836
 20
-30.374
 30
0.0
 10
-97.2386
 20
-28.0168
 30
0.0
 10
-101.7479
 20
-26.2663
 30
0.0
 10
-104.8643
 20
-27.3071
 30
0.0
 10
-104.8643
 20
-27.3071
 30
0.0
 10
-103.4143
 20
-24.1252
 30
0.0
 10
-99.0158
 20
-15.7378
 30
0.0
 10
-102.3308
 20
-9.4473
 30
0.0
 10
-102.3308
 20
-9.4473
 30
0.0
 10
-101.7399
 20
-6.5913
 30
0.0
 10
-101.7365
 20
-4.039
 30
0.0
 10
-102.9884
 20
-2.2414
 30
0.0
 10
-102.9884
 20
-2.2414
 30
0.0
 10
-100.5874
 20
-1.5034
 30
0.0
 10
-97.165
 20
1.6047
 30
0.0
 10
-96.2837
 20
5.1755
 30
0.0
 10
-96.2837
 20
5.1755
 30
0.0
 10
-96.2837
 20
5.1755
 30
0.0
 10
-96.2836
 20
-30.374
 30
0.0
 10
-96.2836
 20
-30.374
 30
0.0
  0
SPLINE
  5
52
330
1F
100
AcDbEntity
  8
layer 1
 62
     7
100
AcDbSpline
210
0.0
220
0.0
230
1.0
 70
    11
 71
     3
 72
    20
 73
    16
 74
     0
 42
0.0000000001
 43
0.0000000001
 12
1.0
 22
0.0
 32
0.0
 13
1.0
 23
0.0
 33
0.0
 40
0.0
 40
0.0
 40
0.0
 40
0.0
 40
0.2
 40
0.2
 40
0.2
 40
0.2
 40
0.4
 40
0.4
 40
0.4
 40
0.4
 40
0.6
 40
0.6
 40
0.6
 40
0.6
 40
1.0
 40
1.0
 40
1.0
 40
1.0
 10
-96.2836
 20
-53.345
 30
0.0
 10
-99.4405
 20
-51.7218
 30
0.0
 10
-103.3077
 20
-51.8063
 30
0.0
 10
-105.323
 20
-53.8104
 30
0.0
 10
-105.323
 20
-53.8104
 30
0.0
 10
-108.4606
 20
-50.3992
 30
0.0
 10
-110.4845
 20
-40.6814
 30
0.0
 10
-107.698
 20
-35.6753
 30
0.0
 10
-107.698
 20
-35.6753
 30
0.0
 10
-106.5648
 20
-42.2206
 30
0.0
 10
-99.6639
 20
-43.1677
 30
0.0
 10
-96.2836
 20
-39.2649
 30
0.0
 10
-96.2836
 20
-39.2649
 30
0.0
 10
-96.2836
 20
-39.2649
 30
0.0
 10
-96.2836
 20
-53.345
 30
0.0
 10
-96.2836
 20
-53.345
 30
0.0
  0
SPLINE
  5
53
330
1F
100
AcDbEntity
  8
layer 1
 62
     7
100
AcDbSpline
210
0.0
220
0.0
230
1.0
 70
    11
 71
     3
 72
    16
 73
    12
 74
     0
 42
0.0000000001
 43
0.0000000001
 12
1.0
 22
0.0
 32
0.0
 13
1.0
 23
0.0
 33
0.0
 40
0.0
 40
0.0
 40
0.0
 40
0.0
 40
0.25
 40
0.25
 40
0.25
 40
0.25
 40
0.5
 40
0.5
 40
0.5
 40
0.5
 40
1.0
 40
1.0
 40
1.0
 40
1.0
 10
-96.2836
 20
-71.4198
 30
0.0
 10
-97.1009
 20
-66.9982
 30
0.0
 10
-98.399
 20
-65.1101
 30
0.0
 10
-101.0566
 20
-62.1139
 30
0.0
 10
-101.0566
 20
-62.1139
 30
0.0
 10
-101.5438
 20
-58.4376
 30
0.0
 10
-100.8058
 20
-54.9124
 30
0.0
 10
-96.2836
 20
-54.7248
 30
0.0
 10
-96.2836
 20
-54.7248
 30
0.0
 10
-96.2836
 20
-54.7248
 30
0.0
 10
-96.2836
 20
-71.4198
 30
0.0
 10
-96.2836
 20
-71.4198
 30
0.0
  0
SPLINE
  5
54
330
1F
100
AcDbEntity
  8
layer 1
 62
     7
100
AcDbSpline
210
0.0
220
0.0
230
1.0
 70
    11
 71
     3
 72
    40
 73
    36
 74
     0
 42
0.0000000001
 43
0.0000000001
 12
1.0
 22
0.0
 32
0.0
 13
1.0
 23
0.0
 33
0.0
 40
0.0
 40
0.0
 40
0.0
 40
0.0
 40
0.1
 40
0.1
 40
0.1
 40
0.1
 40
0.2
 40
0.2
 40
0.2
 40
0.2
 40
0.3
 40
0.3
 40
0.3
 40
0.3
 40
0.4
 40
0.4
 40
0.4
 40
0.4
 40
0.5
 40
0.5
 40
0.5
 40
0.5
 40
0.6
 40
0.6
 40
0.6
 40
0.6
 40
0.7
 40
0.7
 40
0.7
 40
0.7
 40
0.8
 40
0.8
 40
0.8
 40
0.8
 40
1.0
 40
1.0
 40
1.0
 40
1.0
 10
-96.2836
 20
-108.9844
 30
0.0
 10
-96.2836
 20
-108.9844
 30
0.0
 10
-135.3252
 20
-108.9844
 30
0.0
 10
-135.3252
 20
-108.9844
 30
0.0
 10
-135.3252
 20
-108.9844
 30
0.0
 10
-134.4499
 20
-106.0494
 30
0.0
 10
-131.9829
 20
-105.8861
 30
0.0
 10
-129.5288
 20
-102.9341
 30
0.0
 10
-129.5288
 20
-102.9341
 30
0.0
 10
-128.0347
 20
-101.1368
 30
0.0
 10
-127.6024
 20
-100.1844
 30
0.0
 10
-127.149
 20
-96.8657
 30
0.0
 10
-127.149
 20
-96.8657
 30
0.0
 10
-124.5365
 20
-98.7425
 30
0.0
 10
-116.6705
 20
-99.9688
 30
0.0
 10
-109.7773
 20
-97.8838
 30
0.0
 10
-109.7773
 20
-97.8838
 30
0.0
 10
-108.5039
 20
-97.4773
 30
0.0
 10
-108.1659
 20
-97.4204
 30
0.0
 10
-107.2964
 20
-98.1352
 30
0.0
 10
-107.2964
 20
-98.1352
 30
0.0
 10
-105.9367
 20
-99.2996
 30
0.0
 10
-104.6823
 20
-101.2897
 30
0.0
 10
-103.6872
 20
-104.495
 30
0.0
 10
-103.6872
 20
-104.495
 30
0.0
 10
-100.1939
 20
-102.4856
 30
0.0
 10
-96.2836
 20
-95.5882
 30
0.0
 10
-102.2104
 20
-91.6284
 30
0.0
 10
-102.2104
 20
-91.6284
 30
0.0
 10
-98.938
 20
-89.053
 30
0.0
 10
-96.8257
 20
-84.937
 30
0.0
 10
-96.2836
 20
-81.7382
 30
0.0
 10
-96.2836
 20
-81.7382
 30
0.0
 10
-96.2836
 20
-81.7382
 30
0.0
 10
-96.2836
 20
-108.9844
 30
0.0
 10
-96.2836
 20
-108.9844
 30
0.0
  0
SPLINE
  5
55
330
1F
100
AcDbEntity
  8
layer 1
 62
     7
100
AcDbSpline
210
0.0
220
0.0
230
1.0
 70
    11
 71
     3
 72
    28
 73
    24
 74
     0
 42
0.0000000001
 43
0.0000000001
 12
1.0
 22
0.0
 32
0.0
 13
1.0
 23
0.0
 33
0.0
 40
0.0
 40
0.0
 40
0.0
 40
0.0
 40
0.1428571428571428
 40
0.1428571428571428
 40
0.1428571428571428
 40
0.1428571428571428
 40
0.2857142857142857
 40
0.2857142857142857
 40
0.2857142857142857
 40
0.2857142857142857
 40
0.4285714285714285
 40
0.4285714285714285
 40
0.4285714285714285
 40
0.4285714285714285
 40
0.5714285714285714
 40
0.5714285714285714
 40
0.5714285714285714
 40
0.5714285714285714
 40
0.7142857142857143
 40
0.7142857142857143
 40
0.7142857142857143
 40
0.7142857142857143
 40
1.0
 40
1.0
 40
1.0
 40
1.0
 10
-115.2855
 20
-72.8121
 30
0.0
 10
-104.8981
 20
-73.7888
 30
0.0
 10
-106.8321
 20
-83.8659
 30
0.0
 10
-112.1659
 20
-86.3515
 30
0.0
 10
-112.1659
 20
-86.3515
 30
0.0
 10
-119.5557
 20
-89.6168
 30
0.0
 10
-124.7605
 20
-86.1836
 30
0.0
 10
-127.2791
 20
-84.2238
 30
0.0
 10
-127.2791
 20
-84.2238
 30
0.0
 10
-136.6695
 20
-75.0615
 30
0.0
 10
-132.5843
 20
-60.9451
 30
0.0
 10
-126.6845
 20
-55.1577
 30
0.0
 10
-126.6845
 20
-55.1577
 30
0.0
 10
-123.9484
 20
-57.2541
 30
0.0
 10
-122.8977
 20
-58.6761
 30
0.0
 10
-120.6149
 20
-60.812
 30
0.0
 10
-120.6149
 20
-60.812
 30
0.0
 10
-129.4261
 20
-64.1643
 30
0.0
 10
-127.6715
 20
-73.2422
 30
0.0
 10
-125.031
 20
-76.0538
 30
0.0
 10
-125.031
 20
-76.0538
 30
0.0
 10
-121.8903
 20
-79.3981
 30
0.0
 10
-115.5664
 20
-79.3696
 30
0.0
 10
-115.2855
 20
-72.8121
 30
0.0
  0
SPLINE
  5
56
330
1F
100
AcDbEntity
  8
layer 1
 62
     7
100
AcDbSpline
210
0.0
220
0.0
230
1.0
 70
    11
 71
     3
 72
    16
 73
    12
 74
     0
 42
0.0000000001
 43
0.0000000001
 12
1.0
 22
0.0
 32
0.0
 13
1.0
 23
0.0
 33
0.0
 40
0.0
 40
0.0
 40
0.0
 40
0.0
 40
0.25
 40
0.25
 40
0.25
 40
0.25
 40
0.5
 40
0.5
 40
0.5
 40
0.5
 40
1.0
 40
1.0
 40
1.0
 40
1.0
 10
-118.8645
 20
-20.135
 30
0.0
 10
-116.9247
 20
-28.6746
 30
0.0
 10
-124.1683
 20
-40.9417
 30
0.0
 10
-127.156
 20
-43.9255
 30
0.0
 10
-127.156
 20
-43.9255
 30
0.0
 10
-131.9035
 20
-38.7539
 30
0.0
 10
-137.8047
 20
-28.819
 30
0.0
 10
-135.8981
 20
-19.5612
 30
0.0
 10
-135.8981
 20
-19.5612
 30
0.0
 10
-131.7317
 20
-7.2694
 30
0.0
 10
-119.5723
 20
-13.5998
 30
0.0
 10
-118.8645
 20
-20.135
 30
0.0
  0
SPLINE
  5
57
330
1F
100
AcDbEntity
  8
layer 1
 62
     7
100
AcDbSpline
210
0.0
220
0.0
230
1.0
 70
    11
 71
     3
 72
    20
 73
    16
 74
     0
 42
0.0000000001
 43
0.0000000001
 12
1.0
 22
0.0
 32
0.0
 13
1.0
 23
0.0
 33
0.0
 40
0.0
 40
0.0
 40
0.0
 40
0.0
 40
0.2
 40
0.2
 40
0.2
 40
0.2
 40
0.4
 40
0.4
 40
0.4
 40
0.4
 40
0.6
 40
0.6
 40
0.6
 40
0.6
 40
1.0
 40
1.0
 40
1.0
 40
1.0
 10
-120.2505
 20
9.7454
 30
0.0
 10
-114.4318
 20
8.9032
 30
0.0
 10
-107.8095
 20
11.9807
 30
0.0
 10
-106.8981
 20
13.6841
 30
0.0
 10
-106.8981
 20
13.6841
 30
0.0
 10
-102.3692
 20
11.4346
 30
0.0
 10
-102.5126
 20
5.1636
 30
0.0
 10
-106.8981
 20
3.0575
 30
0.0
 10
-106.8981
 20
3.0575
 30
0.0
 10
-107.8095
 20
4.7609
 30
0.0
 10
-114.4318
 20
7.8384
 30
0.0
 10
-120.2505
 20
6.9962
 30
0.0
 10
-120.2505
 20
6.9962
 30
0.0
 10
-120.2505
 20
6.9962
 30
0.0
 10
-120.2505
 20
9.7454
 30
0.0
 10
-120.2505
 20
9.7454
 30
0.0
  0
SPLINE
  5
58
330
1F
100
AcDbEntity
  8
layer 1
 62
     7
100
AcDbSpline
210
0.0
220
0.0
230
1.0
 70
    11
 71
     3
 72
    20
 73
    16
 74
     0
 42
0.0000000001
 43
0.0000000001
 12
1.0
 22
0.0
 32
0.0
 13
1.0
 23
0.0
 33
0.0
 40
0.0
 40
0.0
 40
0.0
 40
0.0
 40
0.2
 40
0.2
 40
0.2
 40
0.2
 40
0.4
 40
0.4
 40
0.4
 40
0.4
 40
0.6
 40
0.6
 40
0.6
 40
0.6
 40
1.0
 40
1.0
 40
1.0
 40
1.0
 10
-138.9434
 20
-66.6336
 30
0.0
 10
-138.9434
 20
-62.8699
 30
0.0
 10
-136.397
 20
-55.6491
 30
0.0
 10
-130.9508
 20
-49.5867
 30
0.0
 10
-130.9508
 20
-49.5867
 30
0.0
 10
-135.6037
 20
-45.4829
 30
0.0
 10
-138.3095
 20
-39.2902
 30
0.0
 10
-138.9434
 20
-35.6175
 30
0.0
 10
-138.9434
 20
-35.6175
 30
0.0
 10
-139.5774
 20
-39.2902
 30
0.0
 10
-142.215
 20
-45.4829
 30
0.0
 10
-146.8679
 20
-49.5867
 30
0.0
 10
-146.8679
 20
-49.5867
 30
0.0
 10
-141.4217
 20
-55.6491
 30
0.0
 10
-138.9434
 20
-62.8699
 30
0.0
 10
-138.9434
 20
-66.6336
 30
0.0
  0
SPLINE
  5
59
330
1F
100
AcDbEntity
  8
layer 1
 62
     7
100
AcDbSpline
210
0.0
220
0.0
230
1.0
 70
    11
 71
     3
 72
    20
 73
    16
 74
     0
 42
0.0000000001
 43
0.0000000001
 12
1.0
 22
0.0
 32
0.0
 13
1.0
 23
0.0
 33
0.0
 40
0.0
 40
0.0
 40
0.0
 40
0.0
 40
0.2
 40
0.2
 40
0.2
 40
0.2
 40
0.4
 40
0.4
 40
0.4
 40
0.4
 40
0.6
 40
0.6
 40
0.6
 40
0.6
 40
1.0
 40
1.0
 40
1.0
 40
1.0
 10
-163.6598
 20
74.9341
 30
0.0
 10
-161.4401
 20
72.2528
 30
0.0
 10
-158.7215
 20
69.409
 30
0.0
 10
-154.9876
 20
65.7779
 30
0.0
 10
-154.9876
 20
65.7779
 30
0.0
 10
-159.2015
 20
60.9216
 30
0.0
 10
-161.1851
 20
57.764
 30
0.0
 10
-163.305
 20
52.3023
 30
0.0
 10
-163.305
 20
52.3023
 30
0.0
 10
-162.7744
 20
63.6697
 30
0.0
 10
-166.5765
 20
71.4759
 30
0.0
 10
-170.5986
 20
75.7245
 30
0.0
 10
-170.5986
 20
75.7245
 30
0.0
 10
-167.8566
 20
74.7179
 30
0.0
 10
-165.9691
 20
74.4046
 30
0.0
 10
-163.6598
 20
74.9341
 30
0.0
  0
SPLINE
  5
5A
330
1F
100
AcDbEntity
  8
layer 1
 62
     7
100
AcDbSpline
210
0.0
220
0.0
230
1.0
 70
    11
 71
     3
 72
    20
 73
    16
 74
     0
 42
0.0000000001
 43
0.0000000001
 12
1.0
 22
0.0
 32
0.0
 13
1.0
 23
0.0
 33
0.0
 40
0.0
 40
0.0
 40
0.0
 40
0.0
 40
0.2
 40
0.2
 40
0.2
 40
0.2
 40
0.4
 40
0.4
 40
0.4
 40
0.4
 40
0.6
 40
0.6
 40
0.6
 40
0.6
 40
1.0
 40
1.0
 40
1.0
 40
1.0
 10
-170.3103
 20
23.4298
 30
0.0
 10
-166.8709
 20
22.6854
 30
0.0
 10
-163.5612
 20
24.9885
 30
0.0
 10
-163.1909
 20
27.9035
 30
0.0
 10
-163.1909
 20
27.9035
 30
0.0
 10
-162.1635
 20
25.5329
 30
0.0
 10
-158.95
 20
21.2887
 30
0.0
 10
-152.1214
 20
21.4932
 30
0.0
 10
-152.1214
 20
21.4932
 30
0.0
 10
-153.1276
 20
20.1013
 30
0.0
 10
-153.8912
 20
19.8264
 30
0.0
 10
-155.8185
 20
16.0812
 30
0.0
 10
-155.8185
 20
16.0812
 30
0.0
 10
-161.0672
 20
16.0598
 30
0.0
 10
-167.0648
 20
19.9238
 30
0.0
 10
-170.3103
 20
23.4298
 30
0.0
  0
SPLINE
  5
5B
330
1F
100
AcDbEntity
  8
layer 1
 62
     7
100
AcDbSpline
210
0.0
220
0.0
230
1.0
 70
    11
 71
     3
 72
    16
 73
    12
 74
     0
 42
0.0000000001
 43
0.0000000001
 12
1.0
 22
0.0
 32
0.0
 13
1.0
 23
0.0
 33
0.0
 40
0.0
 40
0.0
 40
0.0
 40
0.0
 40
0.25
 40
0.25
 40
0.25
 40
0.25
 40
0.5
 40
0.5
 40
0.5
 40
0.5
 40
1.0
 40
1.0
 40
1.0
 40
1.0
 10
-171.6616
 20
32.4524
 30
0.0
 10
-170.6195
 20
40.992
 30
0.0
 10
-166.2201
 20
42.2491
 30
0.0
 10
-165.0217
 20
45.6
 30
0.0
 10
-165.0217
 20
45.6
 30
0.0
 10
-166.6967
 20
40.6577
 30
0.0
 10
-166.6215
 20
37.3288
 30
0.0
 10
-165.5464
 20
33.3925
 30
0.0
 10
-165.5464
 20
33.3925
 30
0.0
 10
-167.9236
 20
34.6798
 30
0.0
 10
-169.9905
 20
34.3124
 30
0.0
 10
-171.6616
 20
32.4524
 30
0.0
  0
SPLINE
  5
5C
330
1F
100
AcDbEntity
  8
layer 1
 62
     7
100
AcDbSpline
210
0.0
220
0.0
230
1.0
 70
    11
 71
     3
 72
    24
 73
    20
 74
     0
 42
0.0000000001
 43
0.0000000001
 12
1.0
 22
0.0
 32
0.0
 13
1.0
 23
0.0
 33
0.0
 40
0.0
 40
0.0
 40
0.0
 40
0.0
 40
0.1666666666666667
 40
0.1666666666666667
 40
0.1666666666666667
 40
0.1666666666666667
 40
0.3333333333333333
 40
0.3333333333333333
 40
0.3333333333333333
 40
0.3333333333333333
 40
0.5
 40
0.5
 40
0.5
 40
0.5
 40
0.6666666666666666
 40
0.6666666666666666
 40
0.6666666666666666
 40
0.6666666666666666
 40
1.0
 40
1.0
 40
1.0
 40
1.0
 10
-181.5351
 20
47.1413
 30
0.0
 10
-180.5801
 20
44.7842
 30
0.0
 10
-176.0708
 20
43.0336
 30
0.0
 10
-172.9545
 20
44.0744
 30
0.0
 10
-172.9545
 20
44.0744
 30
0.0
 10
-174.4044
 20
40.8926
 30
0.0
 10
-178.8029
 20
32.5052
 30
0.0
 10
-175.488
 20
26.2147
 30
0.0
 10
-175.488
 20
26.2147
 30
0.0
 10
-176.0788
 20
23.3587
 30
0.0
 10
-176.0822
 20
20.8063
 30
0.0
 10
-174.8303
 20
19.0088
 30
0.0
 10
-174.8303
 20
19.0088
 30
0.0
 10
-177.2313
 20
18.2707
 30
0.0
 10
-180.6537
 20
15.1627
 30
0.0
 10
-181.535
 20
11.5919
 30
0.0
 10
-181.535
 20
11.5919
 30
0.0
 10
-181.535
 20
11.5919
 30
0.0
 10
-181.5351
 20
47.1413
 30
0.0
 10
-181.5351
 20
47.1413
 30
0.0
  0
SPLINE
  5
5D
330
1F
100
AcDbEntity
  8
layer 1
 62
     7
100
AcDbSpline
210
0.0
220
0.0
230
1.0
 70
    11
 71
     3
 72
    20
 73
    16
 74
     0
 42
0.0000000001
 43
0.0000000001
 12
1.0
 22
0.0
 32
0.0
 13
1.0
 23
0.0
 33
0.0
 40
0.0
 40
0.0
 40
0.0
 40
0.0
 40
0.2
 40
0.2
 40
0.2
 40
0.2
 40
0.4
 40
0.4
 40
0.4
 40
0.4
 40
0.6
 40
0.6
 40
0.6
 40
0.6
 40
1.0
 40
1.0
 40
1.0
 40
1.0
 10
-181.5351
 20
70.1123
 30
0.0
 10
-178.3782
 20
68.4891
 30
0.0
 10
-174.511
 20
68.5737
 30
0.0
 10
-172.4957
 20
70.5778
 30
0.0
 10
-172.4957
 20
70.5778
 30
0.0
 10
-169.3582
 20
67.1665
 30
0.0
 10
-167.3342
 20
57.4488
 30
0.0
 10
-170.1207
 20
52.4427
 30
0.0
 10
-170.1207
 20
52.4427
 30
0.0
 10
-171.2539
 20
58.9879
 30
0.0
 10
-178.1548
 20
59.935
 30
0.0
 10
-181.5351
 20
56.0323
 30
0.0
 10
-181.5351
 20
56.0323
 30
0.0
 10
-181.5351
 20
56.0323
 30
0.0
 10
-181.5351
 20
70.1123
 30
0.0
 10
-181.5351
 20
70.1123
 30
0.0
  0
SPLINE
  5
5E
330
1F
100
AcDbEntity
  8
layer 1
 62
     7
100
AcDbSpline
210
0.0
220
0.0
230
1.0
 70
    11
 71
     3
 72
    16
 73
    12
 74
     0
 42
0.0000000001
 43
0.0000000001
 12
1.0
 22
0.0
 32
0.0
 13
1.0
 23
0.0
 33
0.0
 40
0.0
 40
0.0
 40
0.0
 40
0.0
 40
0.25
 40
0.25
 40
0.25
 40
0.25
 40
0.5
 40
0.5
 40
0.5
 40
0.5
 40
1.0
 40
1.0
 40
1.0
 40
1.0
 10
-181.5351
 20
88.1872
 30
0.0
 10
-180.7178
 20
83.7656
 30
0.0
 10
-179.4197
 20
81.8775
 30
0.0
 10
-176.7621
 20
78.8812
 30
0.0
 10
-176.7621
 20
78.8812
 30
0.0
 10
-176.2749
 20
75.205
 30
0.0
 10
-177.0129
 20
71.6797
 30
0.0
 10
-181.5351
 20
71.4922
 30
0.0
 10
-181.5351
 20
71.4922
 30
0.0
 10
-181.5351
 20
71.4922
 30
0.0
 10
-181.5351
 20
88.1872
 30
0.0
 10
-181.5351
 20
88.1872
 30
0.0
  0
SPLINE
  5
5F
330
1F
100
AcDbEntity
  8
layer 1
 62
     7
100
AcDbSpline
210
0.0
220
0.0
230
1.0
 70
    11
 71
     3
 72
    40
 73
    36
 74
     0
 42
0.0000000001
 43
0.0000000001
 12
1.0
 22
0.0
 32
0.0
 13
1.0
 23
0.0
 33
0.0
 40
0.0
 40
0.0
 40
0.0
 40
0.0
 40
0.1
 40
0.1
 40
0.1
 40
0.1
 40
0.2
 40
0.2
 40
0.2
 40
0.2
 40
0.3
 40
0.3
 40
0.3
 40
0.3
 40
0.4
 40
0.4
 40
0.4
 40
0.4
 40
0.5
 40
0.5
 40
0.5
 40
0.5
 40
0.6
 40
0.6
 40
0.6
 40
0.6
 40
0.7
 40
0.7
 40
0.7
 40
0.7
 40
0.8
 40
0.8
 40
0.8
 40
0.8
 40
1.0
 40
1.0
 40
1.0
 40
1.0
 10
-181.5351
 20
125.7518
 30
0.0
 10
-181.5351
 20
125.7518
 30
0.0
 10
-142.4935
 20
125.7518
 30
0.0
 10
-142.4935
 20
125.7518
 30
0.0
 10
-142.4935
 20
125.7518
 30
0.0
 10
-143.3688
 20
122.8168
 30
0.0
 10
-145.8358
 20
122.6535
 30
0.0
 10
-148.2899
 20
119.7014
 30
0.0
 10
-148.2899
 20
119.7014
 30
0.0
 10
-149.7841
 20
117.9041
 30
0.0
 10
-150.2163
 20
116.9517
 30
0.0
 10
-150.6697
 20
113.633
 30
0.0
 10
-150.6697
 20
113.633
 30
0.0
 10
-153.2822
 20
115.5098
 30
0.0
 10
-161.1482
 20
116.7361
 30
0.0
 10
-168.0414
 20
114.6511
 30
0.0
 10
-168.0414
 20
114.6511
 30
0.0
 10
-169.3148
 20
114.2447
 30
0.0
 10
-169.6528
 20
114.1878
 30
0.0
 10
-170.5223
 20
114.9026
 30
0.0
 10
-170.5223
 20
114.9026
 30
0.0
 10
-171.882
 20
116.0669
 30
0.0
 10
-173.1364
 20
118.0571
 30
0.0
 10
-174.1315
 20
121.2623
 30
0.0
 10
-174.1315
 20
121.2623
 30
0.0
 10
-177.6248
 20
119.2529
 30
0.0
 10
-181.5351
 20
112.3556
 30
0.0
 10
-175.6083
 20
108.3958
 30
0.0
 10
-175.6083
 20
108.3958
 30
0.0
 10
-178.8807
 20
105.8204
 30
0.0
 10
-180.993
 20
101.7043
 30
0.0
 10
-181.5351
 20
98.5055
 30
0.0
 10
-181.5351
 20
98.5055
 30
0.0
 10
-181.5351
 20
98.5055
 30
0.0
 10
-181.5351
 20
125.7518
 30
0.0
 10
-181.5351
 20
125.7518
 30
0.0
  0
SPLINE
  5
60
330
1F
100
AcDbEntity
  8
layer 1
 62
     7
100
AcDbSpline
210
0.0
220
0.0
230
1.0
 70
    11
 71
     3
 72
    28
 73
    24
 74
     0
 42
0.0000000001
 43
0.0000000001
 12
1.0
 22
0.0
 32
0.0
 13
1.0
 23
0.0
 33
0.0
 40
0.0
 40
0.0
 40
0.0
 40
0.0
 40
0.1428571428571428
 40
0.1428571428571428
 40
0.1428571428571428
 40
0.1428571428571428
 40
0.2857142857142857
 40
0.2857142857142857
 40
0.2857142857142857
 40
0.2857142857142857
 40
0.4285714285714285
 40
0.4285714285714285
 40
0.4285714285714285
 40
0.4285714285714285
 40
0.5714285714285714
 40
0.5714285714285714
 40
0.5714285714285714
 40
0.5714285714285714
 40
0.7142857142857143
 40
0.7142857142857143
 40
0.7142857142857143
 40
0.7142857142857143
 40
1.0
 40
1.0
 40
1.0
 40
1.0
 10
-162.5332
 20
89.5795
 30
0.0
 10
-172.9206
 20
90.5562
 30
0.0
 10
-170.9867
 20
100.6332
 30
0.0
 10
-165.6528
 20
103.1189
 30
0.0
 10
-165.6528
 20
103.1189
 30
0.0
 10
-158.263
 20
106.3841
 30
0.0
 10
-153.0582
 20
102.951
 30
0.0
 10
-150.5396
 20
100.9912
 30
0.0
 10
-150.5396
 20
100.9912
 30
0.0
 10
-141.1492
 20
91.8288
 30
0.0
 10
-145.2344
 20
77.7124
 30
0.0
 10
-151.1342
 20
71.9251
 30
0.0
 10
-151.1342
 20
71.9251
 30
0.0
 10
-153.8704
 20
74.0215
 30
0.0
 10
-154.921
 20
75.4434
 30
0.0
 10
-157.2038
 20
77.5793
 30
0.0
 10
-157.2038
 20
77.5793
 30
0.0
 10
-148.3926
 20
80.9317
 30
0.0
 10
-150.1472
 20
90.0095
 30
0.0
 10
-152.7877
 20
92.8212
 30
0.0
 10
-152.7877
 20
92.8212
 30
0.0
 10
-155.9284
 20
96.1654
 30
0.0
 10
-162.2523
 20
96.137
 30
0.0
 10
-162.5332
 20
89.5795
 30
0.0
  0
SPLINE
  5
61
330
1F
100
AcDbEntity
  8
layer 1
 62
     7
100
AcDbSpline
210
0.0
220
0.0
230
1.0
 70
    11
 71
     3
 72
    16
 73
    12
 74
     0
 42
0.0000000001
 43
0.0000000001
 12
1.0
 22
0.0
 32
0.0
 13
1.0
 23
0.0
 33
0.0
 40
0.0
 40
0.0
 40
0.0
 40
0.0
 40
0.25
 40
0.25
 40
0.25
 40
0.25
 40
0.5
 40
0.5
 40
0.5
 40
0.5
 40
1.0
 40
1.0
 40
1.0
 40
1.0
 10
-158.9542
 20
36.9023
 30
0.0
 10
-160.894
 20
45.4419
 30
0.0
 10
-153.6504
 20
57.7091
 30
0.0
 10
-150.6627
 20
60.6929
 30
0.0
 10
-150.6627
 20
60.6929
 30
0.0
 10
-145.9152
 20
55.5212
 30
0.0
 10
-140.014
 20
45.5863
 30
0.0
 10
-141.9206
 20
36.3286
 30
0.0
 10
-141.9206
 20
36.3286
 30
0.0
 10
-146.087
 20
24.0368
 30
0.0
 10
-158.2465
 20
30.3671
 30
0.0
 10
-158.9542
 20
36.9023
 30
0.0
  0
SPLINE
  5
62
330
1F
100
AcDbEntity
  8
layer 1
 62
     7
100
AcDbSpline
210
0.0
220
0.0
230
1.0
 70
    11
 71
     3
 72
    20
 73
    16
 74
     0
 42
0.0000000001
 43
0.0000000001
 12
1.0
 22
0.0
 32
0.0
 13
1.0
 23
0.0
 33
0.0
 40
0.0
 40
0.0
 40
0.0
 40
0.0
 40
0.2
 40
0.2
 40
0.2
 40
0.2
 40
0.4
 40
0.4
 40
0.4
 40
0.4
 40
0.6
 40
0.6
 40
0.6
 40
0.6
 40
1.0
 40
1.0
 40
1.0
 40
1.0
 10
-138.9434
 20
97.6776
 30
0.0
 10
-136.6351
 20
97.6776
 30
0.0
 10
-134.7639
 20
99.5489
 30
0.0
 10
-134.7639
 20
101.8572
 30
0.0
 10
-134.7639
 20
101.8572
 30
0.0
 10
-134.7639
 20
104.1656
 30
0.0
 10
-136.6352
 20
106.0367
 30
0.0
 10
-138.9434
 20
106.0367
 30
0.0
 10
-138.9434
 20
106.0367
 30
0.0
 10
-141.2518
 20
106.0367
 30
0.0
 10
-143.123
 20
104.1654
 30
0.0
 10
-143.123
 20
101.8572
 30
0.0
 10
-143.123
 20
101.8572
 30
0.0
 10
-143.123
 20
99.5488
 30
0.0
 10
-141.2517
 20
97.6776
 30
0.0
 10
-138.9434
 20
97.6776
 30
0.0
  0
SPLINE
  5
63
330
1F
100
AcDbEntity
  8
layer 1
 62
     7
100
AcDbSpline
210
0.0
220
0.0
230
1.0
 70
    11
 71
     3
 72
    20
 73
    16
 74
     0
 42
0.0000000001
 43
0.0000000001
 12
1.0
 22
0.0
 32
0.0
 13
1.0
 23
0.0
 33
0.0
 40
0.0
 40
0.0
 40
0.0
 40
0.0
 40
0.2
 40
0.2
 40
0.2
 40
0.2
 40
0.4
 40
0.4
 40
0.4
 40
0.4
 40
0.6
 40
0.6
 40
0.6
 40
0.6
 40
1.0
 40
1.0
 40
1.0
 40
1.0
 10
-114.1589
 20
74.9341
 30
0.0
 10
-116.3786
 20
72.2528
 30
0.0
 10
-119.0972
 20
69.409
 30
0.0
 10
-122.8311
 20
65.7779
 30
0.0
 10
-122.8311
 20
65.7779
 30
0.0
 10
-118.6172
 20
60.9216
 30
0.0
 10
-116.6336
 20
57.764
 30
0.0
 10
-114.5137
 20
52.3023
 30
0.0
 10
-114.5137
 20
52.3023
 30
0.0
 10
-115.0443
 20
63.6697
 30
0.0
 10
-111.2422
 20
71.4759
 30
0.0
 10
-107.2201
 20
75.7245
 30
0.0
 10
-107.2201
 20
75.7245
 30
0.0
 10
-109.9621
 20
74.7179
 30
0.0
 10
-111.8496
 20
74.4046
 30
0.0
 10
-114.1589
 20
74.9341
 30
0.0
  0
SPLINE
  5
64
330
1F
100
AcDbEntity
  8
layer 1
 62
     7
100
AcDbSpline
210
0.0
220
0.0
230
1.0
 70
    11
 71
     3
 72
    20
 73
    16
 74
     0
 42
0.0000000001
 43
0.0000000001
 12
1.0
 22
0.0
 32
0.0
 13
1.0
 23
0.0
 33
0.0
 40
0.0
 40
0.0
 40
0.0
 40
0.0
 40
0.2
 40
0.2
 40
0.2
 40
0.2
 40
0.4
 40
0.4
 40
0.4
 40
0.4
 40
0.6
 40
0.6
 40
0.6
 40
0.6
 40
1.0
 40
1.0
 40
1.0
 40
1.0
 10
-107.5084
 20
23.4298
 30
0.0
 10
-110.9479
 20
22.6854
 30
0.0
 10
-114.2575
 20
24.9885
 30
0.0
 10
-114.6279
 20
27.9035
 30
0.0
 10
-114.6279
 20
27.9035
 30
0.0
 10
-115.6553
 20
25.5329
 30
0.0
 10
-118.8688
 20
21.2887
 30
0.0
 10
-125.6974
 20
21.4932
 30
0.0
 10
-125.6974
 20
21.4932
 30
0.0
 10
-124.6911
 20
20.1013
 30
0.0
 10
-123.9275
 20
19.8264
 30
0.0
 10
-122.0002
 20
16.0812
 30
0.0
 10
-122.0002
 20
16.0812
 30
0.0
 10
-116.7515
 20
16.0598
 30
0.0
 10
-110.7539
 20
19.9238
 30
0.0
 10
-107.5084
 20
23.4298
 30
0.0
  0
SPLINE
  5
65
330
1F
100
AcDbEntity
  8
layer 1
 62
     7
100
AcDbSpline
210
0.0
220
0.0
230
1.0
 70
    11
 71
     3
 72
    16
 73
    12
 74
     0
 42
0.0000000001
 43
0.0000000001
 12
1.0
 22
0.0
 32
0.0
 13
1.0
 23
0.0
 33
0.0
 40
0.0
 40
0.0
 40
0.0
 40
0.0
 40
0.25
 40
0.25
 40
0.25
 40
0.25
 40
0.5
 40
0.5
 40
0.5
 40
0.5
 40
1.0
 40
1.0
 40
1.0
 40
1.0
 10
-106.1571
 20
32.4524
 30
0.0
 10
-107.1992
 20
40.992
 30
0.0
 10
-111.5986
 20
42.2491
 30
0.0
 10
-112.797
 20
45.6
 30
0.0
 10
-112.797
 20
45.6
 30
0.0
 10
-111.122
 20
40.6577
 30
0.0
 10
-111.1972
 20
37.3288
 30
0.0
 10
-112.2723
 20
33.3925
 30
0.0
 10
-112.2723
 20
33.3925
 30
0.0
 10
-109.8951
 20
34.6798
 30
0.0
 10
-107.8282
 20
34.3124
 30
0.0
 10
-106.1571
 20
32.4524
 30
0.0
  0
SPLINE
  5
66
330
1F
100
AcDbEntity
  8
layer 1
 62
     7
100
AcDbSpline
210
0.0
220
0.0
230
1.0
 70
    11
 71
     3
 72
    24
 73
    20
 74
     0
 42
0.0000000001
 43
0.0000000001
 12
1.0
 22
0.0
 32
0.0
 13
1.0
 23
0.0
 33
0.0
 40
0.0
 40
0.0
 40
0.0
 40
0.0
 40
0.1666666666666667
 40
0.1666666666666667
 40
0.1666666666666667
 40
0.1666666666666667
 40
0.3333333333333333
 40
0.3333333333333333
 40
0.3333333333333333
 40
0.3333333333333333
 40
0.5
 40
0.5
 40
0.5
 40
0.5
 40
0.6666666666666666
 40
0.6666666666666666
 40
0.6666666666666666
 40
0.6666666666666666
 40
1.0
 40
1.0
 40
1.0
 40
1.0
 10
-96.2836
 20
47.1413
 30
0.0
 10
-97.2386
 20
44.7842
 30
0.0
 10
-101.7479
 20
43.0336
 30
0.0
 10
-104.8643
 20
44.0744
 30
0.0
 10
-104.8643
 20
44.0744
 30
0.0
 10
-103.4143
 20
40.8926
 30
0.0
 10
-99.0158
 20
32.5052
 30
0.0
 10
-102.3308
 20
26.2147
 30
0.0
 10
-102.3308
 20
26.2147
 30
0.0
 10
-101.7399
 20
23.3587
 30
0.0
 10
-101.7365
 20
20.8063
 30
0.0
 10
-102.9884
 20
19.0088
 30
0.0
 10
-102.9884
 20
19.0088
 30
0.0
 10
-100.5874
 20
18.2707
 30
0.0
 10
-97.165
 20
15.1627
 30
0.0
 10
-96.2837
 20
11.5919
 30
0.0
 10
-96.2837
 20
11.5919
 30
0.0
 10
-96.2837
 20
11.5919
 30
0.0
 10
-96.2836
 20
47.1413
 30
0.0
 10
-96.2836
 20
47.1413
 30
0.0
  0
SPLINE
  5
67
330
1F
100
AcDbEntity
  8
layer 1
 62
     7
100
AcDbSpline
210
0.0
220
0.0
230
1.0
 70
    11
 71
     3
 72
    20
 73
    16
 74
     0
 42
0.0000000001
 43
0.0000000001
 12
1.0
 22
0.0
 32
0.0
 13
1.0
 23
0.0
 33
0.0
 40
0.0
 40
0.0
 40
0.0
 40
0.0
 40
0.2
 40
0.2
 40
0.2
 40
0.2
 40
0.4
 40
0.4
 40
0.4
 40
0.4
 40
0.6
 40
0.6
 40
0.6
 40
0.6
 40
1.0
 40
1.0
 40
1.0
 40
1.0
 10
-96.2836
 20
70.1123
 30
0.0
 10
-99.4405
 20
68.4891
 30
0.0
 10
-103.3077
 20
68.5737
 30
0.0
 10
-105.323
 20
70.5778
 30
0.0
 10
-105.323
 20
70.5778
 30
0.0
 10
-108.4606
 20
67.1665
 30
0.0
 10
-110.4845
 20
57.4488
 30
0.0
 10
-107.698
 20
52.4427
 30
0.0
 10
-107.698
 20
52.4427
 30
0.0
 10
-106.5648
 20
58.9879
 30
0.0
 10
-99.6639
 20
59.935
 30
0.0
 10
-96.2836
 20
56.0323
 30
0.0
 10
-96.2836
 20
56.0323
 30
0.0
 10
-96.2836
 20
56.0323
 30
0.0
 10
-96.2836
 20
70.1123
 30
0.0
 10
-96.2836
 20
70.1123
 30
0.0
  0
SPLINE
  5
68
330
1F
100
AcDbEntity
  8
layer 1
 62
     7
100
AcDbSpline
210
0.0
220
0.0
230
1.0
 70
    11
 71
     3
 72
    16
 73
    12
 74
     0
 42
0.0000000001
 43
0.0000000001
 12
1.0
 22
0.0
 32
0.0
 13
1.0
 23
0.0
 33
0.0
 40
0.0
 40
0.0
 40
0.0
 40
0.0
 40
0.25
 40
0.25
 40
0.25
 40
0.25
 40
0.5
 40
0.5
 40
0.5
 40
0.5
 40
1.0
 40
1.0
 40
1.0
 40
1.0
 10
-96.2836
 20
88.1872
 30
0.0
 10
-97.1009
 20
83.7656
 30
0.0
 10
-98.399
 20
81.8775
 30
0.0
 10
-101.0566
 20
78.8812
 30
0.0
 10
-101.0566
 20
78.8812
 30
0.0
 10
-101.5438
 20
75.205
 30
0.0
 10
-100.8058
 20
71.6797
 30
0.0
 10
-96.2836
 20
71.4922
 30
0.0
 10
-96.2836
 20
71.4922
 30
0.0
 10
-96.2836
 20
71.4922
 30
0.0
 10
-96.2836
 20
88.1872
 30
0.0
 10
-96.2836
 20
88.1872
 30
0.0
  0
SPLINE
  5
69
330
1F
100
AcDbEntity
  8
layer 1
 62
     7
100
AcDbSpline
210
0.0
220
0.0
230
1.0
 70
    11
 71
     3
 72
    40
 73
    36
 74
     0
 42
0.0000000001
 43
0.0000000001
 12
1.0
 22
0.0
 32
0.0
 13
1.0
 23
0.0
 33
0.0
 40
0.0
 40
0.0
 40
0.0
 40
0.0
 40
0.1
 40
0.1
 40
0.1
 40
0.1
 40
0.2
 40
0.2
 40
0.2
 40
0.2
 40
0.3
 40
0.3
 40
0.3
 40
0.3
 40
0.4
 40
0.4
 40
0.4
 40
0.4
 40
0.5
 40
0.5
 40
0.5
 40
0.5
 40
0.6
 40
0.6
 40
0.6
 40
0.6
 40
0.7
 40
0.7
 40
0.7
 40
0.7
 40
0.8
 40
0.8
 40
0.8
 40
0.8
 40
1.0
 40
1.0
 40
1.0
 40
1.0
 10
-96.2836
 20
125.7518
 30
0.0
 10
-96.2836
 20
125.7518
 30
0.0
 10
-135.3252
 20
125.7518
 30
0.0
 10
-135.3252
 20
125.7518
 30
0.0
 10
-135.3252
 20
125.7518
 30
0.0
 10
-134.4499
 20
122.8168
 30
0.0
 10
-131.9829
 20
122.6535
 30
0.0
 10
-129.5288
 20
119.7014
 30
0.0
 10
-129.5288
 20
119.7014
 30
0.0
 10
-128.0347
 20
117.9041
 30
0.0
 10
-127.6024
 20
116.9517
 30
0.0
 10
-127.149
 20
113.633
 30
0.0
 10
-127.149
 20
113.633
 30
0.0
 10
-124.5365
 20
115.5098
 30
0.0
 10
-116.6705
 20
116.7361
 30
0.0
 10
-109.7773
 20
114.6511
 30
0.0
 10
-109.7773
 20
114.6511
 30
0.0
 10
-108.5039
 20
114.2447
 30
0.0
 10
-108.1659
 20
114.1878
 30
0.0
 10
-107.2964
 20
114.9026
 30
0.0
 10
-107.2964
 20
114.9026
 30
0.0
 10
-105.9367
 20
116.0669
 30
0.0
 10
-104.6823
 20
118.0571
 30
0.0
 10
-103.6872
 20
121.2623
 30
0.0
 10
-103.6872
 20
121.2623
 30
0.0
 10
-100.1939
 20
119.2529
 30
0.0
 10
-96.2836
 20
112.3556
 30
0.0
 10
-102.2104
 20
108.3958
 30
0.0
 10
-102.2104
 20
108.3958
 30
0.0
 10
-98.938
 20
105.8204
 30
0.0
 10
-96.8257
 20
101.7043
 30
0.0
 10
-96.2836
 20
98.5055
 30
0.0
 10
-96.2836
 20
98.5055
 30
0.0
 10
-96.2836
 20
98.5055
 30
0.0
 10
-96.2836
 20
125.7518
 30
0.0
 10
-96.2836
 20
125.7518
 30
0.0
  0
SPLINE
  5
6A
330
1F
100
AcDbEntity
  8
layer 1
 62
     7
100
AcDbSpline
210
0.0
220
0.0
230
1.0
 70
    11
 71
     3
 72
    28
 73
    24
 74
     0
 42
0.0000000001
 43
0.0000000001
 12
1.0
 22
0.0
 32
0.0
 13
1.0
 23
0.0
 33
0.0
 40
0.0
 40
0.0
 40
0.0
 40
0.0
 40
0.1428571428571428
 40
0.1428571428571428
 40
0.1428571428571428
 40
0.1428571428571428
 40
0.2857142857142857
 40
0.2857142857142857
 40
0.2857142857142857
 40
0.2857142857142857
 40
0.4285714285714285
 40
0.4285714285714285
 40
0.4285714285714285
 40
0.4285714285714285
 40
0.5714285714285714
 40
0.5714285714285714
 40
0.5714285714285714
 40
0.5714285714285714
 40
0.7142857142857143
 40
0.7142857142857143
 40
0.7142857142857143
 40
0.7142857142857143
 40
1.0
 40
1.0
 40
1.0
 40
1.0
 10
-115.2855
 20
89.5795
 30
0.0
 10
-104.8981
 20
90.5562
 30
0.0
 10
-106.8321
 20
100.6332
 30
0.0
 10
-112.1659
 20
103.1189
 30
0.0
 10
-112.1659
 20
103.1189
 30
0.0
 10
-119.5557
 20
106.3841
 30
0.0
 10
-124.7605
 20
102.951
 30
0.0
 10
-127.2791
 20
100.9912
 30
0.0
 10
-127.2791
 20
100.9912
 30
0.0
 10
-136.6695
 20
91.8288
 30
0.0
 10
-132.5843
 20
77.7124
 30
0.0
 10
-126.6845
 20
71.9251
 30
0.0
 10
-126.6845
 20
71.9251
 30
0.0
 10
-123.9484
 20
74.0215
 30
0.0
 10
-122.8977
 20
75.4434
 30
0.0
 10
-120.6149
 20
77.5793
 30
0.0
 10
-120.6149
 20
77.5793
 30
0.0
 10
-129.4261
 20
80.9317
 30
0.0
 10
-127.6715
 20
90.0095
 30
0.0
 10
-125.031
 20
92.8212
 30
0.0
 10
-125.031
 20
92.8212
 30
0.0
 10
-121.8903
 20
96.1654
 30
0.0
 10
-115.5664
 20
96.137
 30
0.0
 10
-115.2855
 20
89.5795
 30
0.0
  0
SPLINE
  5
6B
330
1F
100
AcDbEntity
  8
layer 1
 62
     7
100
AcDbSpline
210
0.0
220
0.0
230
1.0
 70
    11
 71
     3
 72
    16
 73
    12
 74
     0
 42
0.0000000001
 43
0.0000000001
 12
1.0
 22
0.0
 32
0.0
 13
1.0
 23
0.0
 33
0.0
 40
0.0
 40
0.0
 40
0.0
 40
0.0
 40
0.25
 40
0.25
 40
0.25
 40
0.25
 40
0.5
 40
0.5
 40
0.5
 40
0.5
 40
1.0
 40
1.0
 40
1.0
 40
1.0
 10
-118.8645
 20
36.9023
 30
0.0
 10
-116.9247
 20
45.4419
 30
0.0
 10
-124.1683
 20
57.7091
 30
0.0
 10
-127.156
 20
60.6929
 30
0.0
 10
-127.156
 20
60.6929
 30
0.0
 10
-131.9035
 20
55.5212
 30
0.0
 10
-137.8047
 20
45.5863
 30
0.0
 10
-135.8981
 20
36.3286
 30
0.0
 10
-135.8981
 20
36.3286
 30
0.0
 10
-131.7317
 20
24.0368
 30
0.0
 10
-119.5723
 20
30.3671
 30
0.0
 10
-118.8645
 20
36.9023
 30
0.0
  0
SPLINE
  5
6C
330
1F
100
AcDbEntity
  8
layer 1
 62
     7
100
AcDbSpline
210
0.0
220
0.0
230
1.0
 70
    11
 71
     3
 72
    20
 73
    16
 74
     0
 42
0.0000000001
 43
0.0000000001
 12
1.0
 22
0.0
 32
0.0
 13
1.0
 23
0.0
 33
0.0
 40
0.0
 40
0.0
 40
0.0
 40
0.0
 40
0.2
 40
0.2
 40
0.2
 40
0.2
 40
0.4
 40
0.4
 40
0.4
 40
0.4
 40
0.6
 40
0.6
 40
0.6
 40
0.6
 40
1.0
 40
1.0
 40
1.0
 40
1.0
 10
-138.9434
 20
83.401
 30
0.0
 10
-138.9434
 20
79.6373
 30
0.0
 10
-136.397
 20
72.4165
 30
0.0
 10
-130.9508
 20
66.354
 30
0.0
 10
-130.9508
 20
66.354
 30
0.0
 10
-135.6037
 20
62.2502
 30
0.0
 10
-138.3095
 20
56.0575
 30
0.0
 10
-138.9434
 20
52.3848
 30
0.0
 10
-138.9434
 20
52.3848
 30
0.0
 10
-139.5774
 20
56.0575
 30
0.0
 10
-142.215
 20
62.2502
 30
0.0
 10
-146.8679
 20
66.354
 30
0.0
 10
-146.8679
 20
66.354
 30
0.0
 10
-141.4217
 20
72.4165
 30
0.0
 10
-138.9434
 20
79.6373
 30
0.0
 10
-138.9434
 20
83.401
 30
0.0
  0
SPLINE
  5
6D
330
1F
100
AcDbEntity
  8
layer 1
100
AcDbSpline
210
0.0
220
0.0
230
1.0
 70
    11
 71
     3
 72
    36
 73
    32
 74
     0
 42
0.0000000001
 43
0.0000000001
 12
1.0
 22
0.0
 32
0.0
 13
1.0
 23
0.0
 33
0.0
 40
0.0
 40
0.0
 40
0.0
 40
0.0
 40
0.1111111111111111
 40
0.1111111111111111
 40
0.1111111111111111
 40
0.1111111111111111
 40
0.2222222222222222
 40
0.2222222222222222
 40
0.2222222222222222
 40
0.2222222222222222
 40
0.3333333333333333
 40
0.3333333333333333
 40
0.3333333333333333
 40
0.3333333333333333
 40
0.4444444444444444
 40
0.4444444444444444
 40
0.4444444444444444
 40
0.4444444444444444
 40
0.5555555555555556
 40
0.5555555555555556
 40
0.5555555555555556
 40
0.5555555555555556
 40
0.6666666666666666
 40
0.6666666666666666
 40
0.6666666666666666
 40
0.6666666666666666
 40
0.7777777777777778
 40
0.7777777777777778
 40
0.7777777777777778
 40
0.7777777777777778
 40
1.0
 40
1.0
 40
1.0
 40
1.0
 10
-80.4568
 20
8.4716
 30
0.0
 10
-80.4568
 20
8.4716
 30
0.0
 10
-80.4568
 20
131.8174
 30
0.0
 10
-80.4568
 20
131.8174
 30
0.0
 10
-80.4568
 20
131.8174
 30
0.0
 10
-80.4568
 20
131.8174
 30
0.0
 10
-44.3991
 20
131.8174
 30
0.0
 10
-44.3991
 20
131.8174
 30
0.0
 10
-44.3991
 20
131.8174
 30
0.0
 10
-44.3991
 20
131.8174
 30
0.0
 10
-8.3413
 20
131.8174
 30
0.0
 10
-8.3413
 20
131.8174
 30
0.0
 10
-8.3413
 20
131.8174
 30
0.0
 10
-8.3413
 20
131.8174
 30
0.0
 10
-8.3413
 20
8.4716
 30
0.0
 10
-8.3413
 20
8.4716
 30
0.0
 10
-8.3413
 20
8.4716
 30
0.0
 10
-8.3413
 20
8.4716
 30
0.0
 10
-8.3413
 20
-114.8742
 30
0.0
 10
-8.3413
 20
-114.8742
 30
0.0
 10
-8.3413
 20
-114.8742
 30
0.0
 10
-8.3413
 20
-114.8742
 30
0.0
 10
-44.3991
 20
-114.8742
 30
0.0
 10
-44.3991
 20
-114.8742
 30
0.0
 10
-44.3991
 20
-114.8742
 30
0.0
 10
-44.3991
 20
-114.8742
 30
0.0
 10
-80.4568
 20
-114.8742
 30
0.0
 10
-80.4568
 20
-114.8742
 30
0.0
 10
-80.4568
 20
-114.8742
 30
0.0
 10
-80.4568
 20
-114.8742
 30
0.0
 10
-80.4568
 20
8.4716
 30
0.0
 10
-80.4568
 20
8.4716
 30
0.0
  0
SPLINE
  5
6E
330
1F
100
AcDbEntity
  8
layer 1
 62
     7
100
AcDbSpline
210
0.0
220
0.0
230
1.0
 70
    11
 71
     3
 72
    36
 73
    32
 74
     0
 42
0.0000000001
 43
0.0000000001
 12
1.0
 22
0.0
 32
0.0
 13
1.0
 23
0.0
 33
0.0
 40
0.0
 40
0.0
 40
0.0
 40
0.0
 40
0.1111111111111111
 40
0.1111111111111111
 40
0.1111111111111111
 40
0.1111111111111111
 40
0.2222222222222222
 40
0.2222222222222222
 40
0.2222222222222222
 40
0.2222222222222222
 40
0.3333333333333333
 40
0.3333333333333333
 40
0.3333333333333333
 40
0.3333333333333333
 40
0.4444444444444444
 40
0.4444444444444444
 40
0.4444444444444444
 40
0.4444444444444444
 40
0.5555555555555556
 40
0.5555555555555556
 40
0.5555555555555556
 40
0.5555555555555556
 40
0.6666666666666666
 40
0.6666666666666666
 40
0.6666666666666666
 40
0.6666666666666666
 40
0.7777777777777778
 40
0.7777777777777778
 40
0.7777777777777778
 40
0.7777777777777778
 40
1.0
 40
1.0
 40
1.0
 40
1.0
 10
-69.2328
 20
-107.1538
 30
0.0
 10
-69.2328
 20
-107.1538
 30
0.0
 10
-69.2328
 20
-102.3625
 30
0.0
 10
-69.2328
 20
-102.3625
 30
0.0
 10
-69.2328
 20
-102.3625
 30
0.0
 10
-69.2328
 20
-102.3625
 30
0.0
 10
-73.3484
 20
-102.3625
 30
0.0
 10
-73.3484
 20
-102.3625
 30
0.0
 10
-73.3484
 20
-102.3625
 30
0.0
 10
-73.3484
 20
-102.3625
 30
0.0
 10
-77.464
 20
-102.3625
 30
0.0
 10
-77.464
 20
-102.3625
 30
0.0
 10
-77.464
 20
-102.3625
 30
0.0
 10
-77.464
 20
-102.3625
 30
0.0
 10
-77.464
 20
-107.1538
 30
0.0
 10
-77.464
 20
-107.1538
 30
0.0
 10
-77.464
 20
-107.1538
 30
0.0
 10
-77.464
 20
-107.1538
 30
0.0
 10
-77.464
 20
-111.9452
 30
0.0
 10
-77.464
 20
-111.9452
 30
0.0
 10
-77.464
 20
-111.9452
 30
0.0
 10
-77.464
 20
-111.9452
 30
0.0
 10
-73.3484
 20
-111.9452
 30
0.0
 10
-73.3484
 20
-111.9452
 30
0.0
 10
-73.3484
 20
-111.9452
 30
0.0
 10
-73.3484
 20
-111.9452
 30
0.0
 10
-69.2328
 20
-111.9452
 30
0.0
 10
-69.2328
 20
-111.9452
 30
0.0
 10
-69.2328
 20
-111.9452
 30
0.0
 10
-69.2328
 20
-111.9452
 30
0.0
 10
-69.2328
 20
-107.1538
 30
0.0
 10
-69.2328
 20
-107.1538
 30
0.0
  0
SPLINE
  5
6F
330
1F
100
AcDbEntity
  8
layer 1
 62
     7
100
AcDbSpline
210
0.0
220
0.0
230
1.0
 70
    11
 71
     3
 72
    36
 73
    32
 74
     0
 42
0.0000000001
 43
0.0000000001
 12
1.0
 22
0.0
 32
0.0
 13
1.0
 23
0.0
 33
0.0
 40
0.0
 40
0.0
 40
0.0
 40
0.0
 40
0.1111111111111111
 40
0.1111111111111111
 40
0.1111111111111111
 40
0.1111111111111111
 40
0.2222222222222222
 40
0.2222222222222222
 40
0.2222222222222222
 40
0.2222222222222222
 40
0.3333333333333333
 40
0.3333333333333333
 40
0.3333333333333333
 40
0.3333333333333333
 40
0.4444444444444444
 40
0.4444444444444444
 40
0.4444444444444444
 40
0.4444444444444444
 40
0.5555555555555556
 40
0.5555555555555556
 40
0.5555555555555556
 40
0.5555555555555556
 40
0.6666666666666666
 40
0.6666666666666666
 40
0.6666666666666666
 40
0.6666666666666666
 40
0.7777777777777778
 40
0.7777777777777778
 40
0.7777777777777778
 40
0.7777777777777778
 40
1.0
 40
1.0
 40
1.0
 40
1.0
 10
-69.2328
 20
-94.0084
 30
0.0
 10
-69.2328
 20
-94.0084
 30
0.0
 10
-69.2328
 20
-89.2171
 30
0.0
 10
-69.2328
 20
-89.2171
 30
0.0
 10
-69.2328
 20
-89.2171
 30
0.0
 10
-69.2328
 20
-89.2171
 30
0.0
 10
-73.3484
 20
-89.2171
 30
0.0
 10
-73.3484
 20
-89.2171
 30
0.0
 10
-73.3484
 20
-89.2171
 30
0.0
 10
-73.3484
 20
-89.2171
 30
0.0
 10
-77.464
 20
-89.2171
 30
0.0
 10
-77.464
 20
-89.2171
 30
0.0
 10
-77.464
 20
-89.2171
 30
0.0
 10
-77.464
 20
-89.2171
 30
0.0
 10
-77.464
 20
-94.0084
 30
0.0
 10
-77.464
 20
-94.0084
 30
0.0
 10
-77.464
 20
-94.0084
 30
0.0
 10
-77.464
 20
-94.0084
 30
0.0
 10
-77.464
 20
-98.7997
 30
0.0
 10
-77.464
 20
-98.7997
 30
0.0
 10
-77.464
 20
-98.7997
 30
0.0
 10
-77.464
 20
-98.7997
 30
0.0
 10
-73.3484
 20
-98.7997
 30
0.0
 10
-73.3484
 20
-98.7997
 30
0.0
 10
-73.3484
 20
-98.7997
 30
0.0
 10
-73.3484
 20
-98.7997
 30
0.0
 10
-69.2328
 20
-98.7997
 30
0.0
 10
-69.2328
 20
-98.7997
 30
0.0
 10
-69.2328
 20
-98.7997
 30
0.0
 10
-69.2328
 20
-98.7997
 30
0.0
 10
-69.2328
 20
-94.0084
 30
0.0
 10
-69.2328
 20
-94.0084
 30
0.0
  0
SPLINE
  5
70
330
1F
100
AcDbEntity
  8
layer 1
 62
     7
100
AcDbSpline
210
0.0
220
0.0
230
1.0
 70
    11
 71
     3
 72
    36
 73
    32
 74
     0
 42
0.0000000001
 43
0.0000000001
 12
1.0
 22
0.0
 32
0.0
 13
1.0
 23
0.0
 33
0.0
 40
0.0
 40
0.0
 40
0.0
 40
0.0
 40
0.1111111111111111
 40
0.1111111111111111
 40
0.1111111111111111
 40
0.1111111111111111
 40
0.2222222222222222
 40
0.2222222222222222
 40
0.2222222222222222
 40
0.2222222222222222
 40
0.3333333333333333
 40
0.3333333333333333
 40
0.3333333333333333
 40
0.3333333333333333
 40
0.4444444444444444
 40
0.4444444444444444
 40
0.4444444444444444
 40
0.4444444444444444
 40
0.5555555555555556
 40
0.5555555555555556
 40
0.5555555555555556
 40
0.5555555555555556
 40
0.6666666666666666
 40
0.6666666666666666
 40
0.6666666666666666
 40
0.6666666666666666
 40
0.7777777777777778
 40
0.7777777777777778
 40
0.7777777777777778
 40
0.7777777777777778
 40
1.0
 40
1.0
 40
1.0
 40
1.0
 10
-69.2328
 20
-80.863
 30
0.0
 10
-69.2328
 20
-80.863
 30
0.0
 10
-69.2328
 20
-76.0716
 30
0.0
 10
-69.2328
 20
-76.0716
 30
0.0
 10
-69.2328
 20
-76.0716
 30
0.0
 10
-69.2328
 20
-76.0716
 30
0.0
 10
-73.3484
 20
-76.0716
 30
0.0
 10
-73.3484
 20
-76.0716
 30
0.0
 10
-73.3484
 20
-76.0716
 30
0.0
 10
-73.3484
 20
-76.0716
 30
0.0
 10
-77.464
 20
-76.0716
 30
0.0
 10
-77.464
 20
-76.0716
 30
0.0
 10
-77.464
 20
-76.0716
 30
0.0
 10
-77.464
 20
-76.0716
 30
0.0
 10
-77.464
 20
-80.863
 30
0.0
 10
-77.464
 20
-80.863
 30
0.0
 10
-77.464
 20
-80.863
 30
0.0
 10
-77.464
 20
-80.863
 30
0.0
 10
-77.464
 20
-85.6543
 30
0.0
 10
-77.464
 20
-85.6543
 30
0.0
 10
-77.464
 20
-85.6543
 30
0.0
 10
-77.464
 20
-85.6543
 30
0.0
 10
-73.3484
 20
-85.6543
 30
0.0
 10
-73.3484
 20
-85.6543
 30
0.0
 10
-73.3484
 20
-85.6543
 30
0.0
 10
-73.3484
 20
-85.6543
 30
0.0
 10
-69.2328
 20
-85.6543
 30
0.0
 10
-69.2328
 20
-85.6543
 30
0.0
 10
-69.2328
 20
-85.6543
 30
0.0
 10
-69.2328
 20
-85.6543
 30
0.0
 10
-69.2328
 20
-80.863
 30
0.0
 10
-69.2328
 20
-80.863
 30
0.0
  0
SPLINE
  5
71
330
1F
100
AcDbEntity
  8
layer 1
 62
     7
100
AcDbSpline
210
0.0
220
0.0
230
1.0
 70
    11
 71
     3
 72
    36
 73
    32
 74
     0
 42
0.0000000001
 43
0.0000000001
 12
1.0
 22
0.0
 32
0.0
 13
1.0
 23
0.0
 33
0.0
 40
0.0
 40
0.0
 40
0.0
 40
0.0
 40
0.1111111111111111
 40
0.1111111111111111
 40
0.1111111111111111
 40
0.1111111111111111
 40
0.2222222222222222
 40
0.2222222222222222
 40
0.2222222222222222
 40
0.2222222222222222
 40
0.3333333333333333
 40
0.3333333333333333
 40
0.3333333333333333
 40
0.3333333333333333
 40
0.4444444444444444
 40
0.4444444444444444
 40
0.4444444444444444
 40
0.4444444444444444
 40
0.5555555555555556
 40
0.5555555555555556
 40
0.5555555555555556
 40
0.5555555555555556
 40
0.6666666666666666
 40
0.6666666666666666
 40
0.6666666666666666
 40
0.6666666666666666
 40
0.7777777777777778
 40
0.7777777777777778
 40
0.7777777777777778
 40
0.7777777777777778
 40
1.0
 40
1.0
 40
1.0
 40
1.0
 10
-57.6176
 20
-80.863
 30
0.0
 10
-57.6176
 20
-80.863
 30
0.0
 10
-57.6176
 20
-76.0716
 30
0.0
 10
-57.6176
 20
-76.0716
 30
0.0
 10
-57.6176
 20
-76.0716
 30
0.0
 10
-57.6176
 20
-76.0716
 30
0.0
 10
-61.7332
 20
-76.0716
 30
0.0
 10
-61.7332
 20
-76.0716
 30
0.0
 10
-61.7332
 20
-76.0716
 30
0.0
 10
-61.7332
 20
-76.0716
 30
0.0
 10
-65.8488
 20
-76.0716
 30
0.0
 10
-65.8488
 20
-76.0716
 30
0.0
 10
-65.8488
 20
-76.0716
 30
0.0
 10
-65.8488
 20
-76.0716
 30
0.0
 10
-65.8488
 20
-80.863
 30
0.0
 10
-65.8488
 20
-80.863
 30
0.0
 10
-65.8488
 20
-80.863
 30
0.0
 10
-65.8488
 20
-80.863
 30
0.0
 10
-65.8488
 20
-85.6543
 30
0.0
 10
-65.8488
 20
-85.6543
 30
0.0
 10
-65.8488
 20
-85.6543
 30
0.0
 10
-65.8488
 20
-85.6543
 30
0.0
 10
-61.7332
 20
-85.6543
 30
0.0
 10
-61.7332
 20
-85.6543
 30
0.0
 10
-61.7332
 20
-85.6543
 30
0.0
 10
-61.7332
 20
-85.6543
 30
0.0
 10
-57.6176
 20
-85.6543
 30
0.0
 10
-57.6176
 20
-85.6543
 30
0.0
 10
-57.6176
 20
-85.6543
 30
0.0
 10
-57.6176
 20
-85.6543
 30
0.0
 10
-57.6176
 20
-80.863
 30
0.0
 10
-57.6176
 20
-80.863
 30
0.0
  0
SPLINE
  5
72
330
1F
100
AcDbEntity
  8
layer 1
 62
     7
100
AcDbSpline
210
0.0
220
0.0
230
1.0
 70
    11
 71
     3
 72
    36
 73
    32
 74
     0
 42
0.0000000001
 43
0.0000000001
 12
1.0
 22
0.0
 32
0.0
 13
1.0
 23
0.0
 33
0.0
 40
0.0
 40
0.0
 40
0.0
 40
0.0
 40
0.1111111111111111
 40
0.1111111111111111
 40
0.1111111111111111
 40
0.1111111111111111
 40
0.2222222222222222
 40
0.2222222222222222
 40
0.2222222222222222
 40
0.2222222222222222
 40
0.3333333333333333
 40
0.3333333333333333
 40
0.3333333333333333
 40
0.3333333333333333
 40
0.4444444444444444
 40
0.4444444444444444
 40
0.4444444444444444
 40
0.4444444444444444
 40
0.5555555555555556
 40
0.5555555555555556
 40
0.5555555555555556
 40
0.5555555555555556
 40
0.6666666666666666
 40
0.6666666666666666
 40
0.6666666666666666
 40
0.6666666666666666
 40
0.7777777777777778
 40
0.7777777777777778
 40
0.7777777777777778
 40
0.7777777777777778
 40
1.0
 40
1.0
 40
1.0
 40
1.0
 10
-46.0024
 20
-80.863
 30
0.0
 10
-46.0024
 20
-80.863
 30
0.0
 10
-46.0024
 20
-76.0716
 30
0.0
 10
-46.0024
 20
-76.0716
 30
0.0
 10
-46.0024
 20
-76.0716
 30
0.0
 10
-46.0024
 20
-76.0716
 30
0.0
 10
-50.118
 20
-76.0716
 30
0.0
 10
-50.118
 20
-76.0716
 30
0.0
 10
-50.118
 20
-76.0716
 30
0.0
 10
-50.118
 20
-76.0716
 30
0.0
 10
-54.2336
 20
-76.0716
 30
0.0
 10
-54.2336
 20
-76.0716
 30
0.0
 10
-54.2336
 20
-76.0716
 30
0.0
 10
-54.2336
 20
-76.0716
 30
0.0
 10
-54.2336
 20
-80.863
 30
0.0
 10
-54.2336
 20
-80.863
 30
0.0
 10
-54.2336
 20
-80.863
 30
0.0
 10
-54.2336
 20
-80.863
 30
0.0
 10
-54.2336
 20
-85.6543
 30
0.0
 10
-54.2336
 20
-85.6543
 30
0.0
 10
-54.2336
 20
-85.6543
 30
0.0
 10
-54.2336
 20
-85.6543
 30
0.0
 10
-50.118
 20
-85.6543
 30
0.0
 10
-50.118
 20
-85.6543
 30
0.0
 10
-50.118
 20
-85.6543
 30
0.0
 10
-50.118
 20
-85.6543
 30
0.0
 10
-46.0024
 20
-85.6543
 30
0.0
 10
-46.0024
 20
-85.6543
 30
0.0
 10
-46.0024
 20
-85.6543
 30
0.0
 10
-46.0024
 20
-85.6543
 30
0.0
 10
-46.0024
 20
-80.863
 30
0.0
 10
-46.0024
 20
-80.863
 30
0.0
  0
SPLINE
  5
73
330
1F
100
AcDbEntity
  8
layer 1
 62
     7
100
AcDbSpline
210
0.0
220
0.0
230
1.0
 70
    11
 71
     3
 72
    28
 73
    24
 74
     0
 42
0.0000000001
 43
0.0000000001
 12
1.0
 22
0.0
 32
0.0
 13
1.0
 23
0.0
 33
0.0
 40
0.0
 40
0.0
 40
0.0
 40
0.0
 40
0.1428571428571428
 40
0.1428571428571428
 40
0.1428571428571428
 40
0.1428571428571428
 40
0.2857142857142857
 40
0.2857142857142857
 40
0.2857142857142857
 40
0.2857142857142857
 40
0.4285714285714285
 40
0.4285714285714285
 40
0.4285714285714285
 40
0.4285714285714285
 40
0.5714285714285714
 40
0.5714285714285714
 40
0.5714285714285714
 40
0.5714285714285714
 40
0.7142857142857143
 40
0.7142857142857143
 40
0.7142857142857143
 40
0.7142857142857143
 40
1.0
 40
1.0
 40
1.0
 40
1.0
 10
-68.4477
 20
-72.5302
 30
0.0
 10
-72.7563
 20
-70.797
 30
0.0
 10
-74.4901
 20
-67.423
 30
0.0
 10
-73.8799
 20
-62.9641
 30
0.0
 10
-73.8799
 20
-62.9641
 30
0.0
 10
-72.8265
 20
-57.5071
 30
0.0
 10
-66.3044
 20
-56.2655
 30
0.0
 10
-63.6385
 20
-59.6895
 30
0.0
 10
-63.6385
 20
-59.6895
 30
0.0
 10
-64.1503
 20
-58.2727
 30
0.0
 10
-64.6249
 20
-56.676
 30
0.0
 10
-64.7001
 20
-55.3994
 30
0.0
 10
-64.7001
 20
-55.3994
 30
0.0
 10
-70.9706
 20
-55.123
 30
0.0
 10
-74.7517
 20
-57.4723
 30
0.0
 10
-77.4641
 20
-62.1756
 30
0.0
 10
-77.4641
 20
-62.1756
 30
0.0
 10
-77.4641
 20
-62.1756
 30
0.0
 10
-77.4881
 20
-72.5302
 30
0.0
 10
-77.4881
 20
-72.5302
 30
0.0
 10
-77.4881
 20
-72.5302
 30
0.0
 10
-77.4881
 20
-72.5302
 30
0.0
 10
-68.4477
 20
-72.5302
 30
0.0
 10
-68.4477
 20
-72.5302
 30
0.0
  0
SPLINE
  5
74
330
1F
100
AcDbEntity
  8
layer 1
 62
     7
100
AcDbSpline
210
0.0
220
0.0
230
1.0
 70
    11
 71
     3
 72
    20
 73
    16
 74
     0
 42
0.0000000001
 43
0.0000000001
 12
1.0
 22
0.0
 32
0.0
 13
1.0
 23
0.0
 33
0.0
 40
0.0
 40
0.0
 40
0.0
 40
0.0
 40
0.2
 40
0.2
 40
0.2
 40
0.2
 40
0.4
 40
0.4
 40
0.4
 40
0.4
 40
0.6
 40
0.6
 40
0.6
 40
0.6
 40
1.0
 40
1.0
 40
1.0
 40
1.0
 10
-46.0024
 20
-64.0133
 30
0.0
 10
-47.8616
 20
-68.8067
 30
0.0
 10
-53.8146
 20
-69.5128
 30
0.0
 10
-56.1771
 20
-68.1568
 30
0.0
 10
-56.1771
 20
-68.1568
 30
0.0
 10
-58.0472
 20
-70.8896
 30
0.0
 10
-60.3819
 20
-71.9087
 30
0.0
 10
-62.1073
 20
-72.5302
 30
0.0
 10
-62.1073
 20
-72.5302
 30
0.0
 10
-62.1073
 20
-72.5302
 30
0.0
 10
-46.0024
 20
-72.5302
 30
0.0
 10
-46.0024
 20
-72.5302
 30
0.0
 10
-46.0024
 20
-72.5302
 30
0.0
 10
-46.0024
 20
-72.5302
 30
0.0
 10
-46.0024
 20
-64.0133
 30
0.0
 10
-46.0024
 20
-64.0133
 30
0.0
  0
SPLINE
  5
75
330
1F
100
AcDbEntity
  8
layer 1
 62
     7
100
AcDbSpline
210
0.0
220
0.0
230
1.0
 70
    11
 71
     3
 72
    28
 73
    24
 74
     0
 42
0.0000000001
 43
0.0000000001
 12
1.0
 22
0.0
 32
0.0
 13
1.0
 23
0.0
 33
0.0
 40
0.0
 40
0.0
 40
0.0
 40
0.0
 40
0.1428571428571428
 40
0.1428571428571428
 40
0.1428571428571428
 40
0.1428571428571428
 40
0.2857142857142857
 40
0.2857142857142857
 40
0.2857142857142857
 40
0.2857142857142857
 40
0.4285714285714285
 40
0.4285714285714285
 40
0.4285714285714285
 40
0.4285714285714285
 40
0.5714285714285714
 40
0.5714285714285714
 40
0.5714285714285714
 40
0.5714285714285714
 40
0.7142857142857143
 40
0.7142857142857143
 40
0.7142857142857143
 40
0.7142857142857143
 40
1.0
 40
1.0
 40
1.0
 40
1.0
 10
-59.3349
 20
-65.9994
 30
0.0
 10
-61.1467
 20
-64.7764
 30
0.0
 10
-62.4309
 20
-62.9439
 30
0.0
 10
-63.0287
 20
-61.1208
 30
0.0
 10
-63.0287
 20
-61.1208
 30
0.0
 10
-62.3833
 20
-65.9381
 30
0.0
 10
-67.1569
 20
-66.2948
 30
0.0
 10
-67.9777
 20
-64.9958
 30
0.0
 10
-67.9777
 20
-64.9958
 30
0.0
 10
-66.8646
 20
-64.4202
 30
0.0
 10
-66.7491
 20
-62.6137
 30
0.0
 10
-67.824
 20
-62.1011
 30
0.0
 10
-67.824
 20
-62.1011
 30
0.0
 10
-71.1142
 20
-61.6081
 30
0.0
 10
-70.9932
 20
-65.7739
 30
0.0
 10
-68.9101
 20
-67.4777
 30
0.0
 10
-68.9101
 20
-67.4777
 30
0.0
 10
-66.638
 20
-69.4691
 30
0.0
 10
-62.4114
 20
-69.3364
 30
0.0
 10
-59.3348
 20
-65.9994
 30
0.0
 10
-59.3348
 20
-65.9994
 30
0.0
 10
-59.3348
 20
-65.9994
 30
0.0
 10
-59.3349
 20
-65.9994
 30
0.0
 10
-59.3349
 20
-65.9994
 30
0.0
  0
SPLINE
  5
76
330
1F
100
AcDbEntity
  8
layer 1
 62
     7
100
AcDbSpline
210
0.0
220
0.0
230
1.0
 70
    11
 71
     3
 72
    52
 73
    48
 74
     0
 42
0.0000000001
 43
0.0000000001
 12
1.0
 22
0.0
 32
0.0
 13
1.0
 23
0.0
 33
0.0
 40
0.0
 40
0.0
 40
0.0
 40
0.0
 40
0.0769230769230769
 40
0.0769230769230769
 40
0.0769230769230769
 40
0.0769230769230769
 40
0.1538461538461539
 40
0.1538461538461539
 40
0.1538461538461539
 40
0.1538461538461539
 40
0.2307692307692308
 40
0.2307692307692308
 40
0.2307692307692308
 40
0.2307692307692308
 40
0.3076923076923077
 40
0.3076923076923077
 40
0.3076923076923077
 40
0.3076923076923077
 40
0.3846153846153846
 40
0.3846153846153846
 40
0.3846153846153846
 40
0.3846153846153846
 40
0.4615384615384616
 40
0.4615384615384616
 40
0.4615384615384616
 40
0.4615384615384616
 40
0.5384615384615384
 40
0.5384615384615384
 40
0.5384615384615384
 40
0.5384615384615384
 40
0.6153846153846154
 40
0.6153846153846154
 40
0.6153846153846154
 40
0.6153846153846154
 40
0.6923076923076923
 40
0.6923076923076923
 40
0.6923076923076923
 40
0.6923076923076923
 40
0.7692307692307693
 40
0.7692307692307693
 40
0.7692307692307693
 40
0.7692307692307693
 40
0.8461538461538461
 40
0.8461538461538461
 40
0.8461538461538461
 40
0.8461538461538461
 40
1.0
 40
1.0
 40
1.0
 40
1.0
 10
-50.511
 20
-60.1006
 30
0.0
 10
-50.511
 20
-58.2507
 30
0.0
 10
-52.4366
 20
-56.8957
 30
0.0
 10
-54.086
 20
-57.5849
 30
0.0
 10
-54.086
 20
-57.5849
 30
0.0
 10
-54.7326
 20
-57.8551
 30
0.0
 10
-54.8407
 20
-57.6594
 30
0.0
 10
-54.4312
 20
-56.9607
 30
0.0
 10
-54.4312
 20
-56.9607
 30
0.0
 10
-51.726
 20
-53.2811
 30
0.0
 10
-47.3725
 20
-54.1457
 30
0.0
 10
-45.9827
 20
-57.6432
 30
0.0
 10
-45.9827
 20
-57.6432
 30
0.0
 10
-45.9827
 20
-57.6432
 30
0.0
 10
-46.0034
 20
-49.658
 30
0.0
 10
-46.0034
 20
-49.658
 30
0.0
 10
-46.0034
 20
-49.658
 30
0.0
 10
-48.6275
 20
-54.5223
 30
0.0
 10
-55.2353
 20
-52.7507
 30
0.0
 10
-54.5878
 20
-47.5034
 30
0.0
 10
-54.5878
 20
-47.5034
 30
0.0
 10
-53.3397
 20
-49.0578
 30
0.0
 10
-51.0526
 20
-49.106
 30
0.0
 10
-49.9145
 20
-47.672
 30
0.0
 10
-49.9145
 20
-47.672
 30
0.0
 10
-48.9897
 20
-46.4272
 30
0.0
 10
-49.1424
 20
-45.2921
 30
0.0
 10
-50.4117
 20
-43.9773
 30
0.0
 10
-50.4117
 20
-43.9773
 30
0.0
 10
-52.1567
 20
-42.1698
 30
0.0
 10
-55.8076
 20
-42.1915
 30
0.0
 10
-57.8635
 20
-44.3316
 30
0.0
 10
-57.8635
 20
-44.3316
 30
0.0
 10
-59.2333
 20
-45.5064
 30
0.0
 10
-60.8636
 20
-49.5891
 30
0.0
 10
-60.9137
 20
-51.145
 30
0.0
 10
-60.9137
 20
-51.145
 30
0.0
 10
-56.2787
 20
-53.1957
 30
0.0
 10
-54.8627
 20
-58.1487
 30
0.0
 10
-55.9164
 20
-61.8064
 30
0.0
 10
-55.9164
 20
-61.8064
 30
0.0
 10
-54.2413
 20
-63.6724
 30
0.0
 10
-50.5646
 20
-62.8705
 30
0.0
 10
-50.511
 20
-60.1006
 30
0.0
 10
-50.511
 20
-60.1006
 30
0.0
 10
-50.511
 20
-60.1006
 30
0.0
 10
-50.511
 20
-60.1006
 30
0.0
 10
-50.511
 20
-60.1006
 30
0.0
  0
SPLINE
  5
77
330
1F
100
AcDbEntity
  8
layer 1
 62
     7
100
AcDbSpline
210
0.0
220
0.0
230
1.0
 70
    11
 71
     3
 72
    12
 73
     8
 74
     0
 42
0.0000000001
 43
0.0000000001
 12
1.0
 22
0.0
 32
0.0
 13
1.0
 23
0.0
 33
0.0
 40
0.0
 40
0.0
 40
0.0
 40
0.0
 40
0.3333333333333333
 40
0.3333333333333333
 40
0.3333333333333333
 40
0.3333333333333333
 40
1.0
 40
1.0
 40
1.0
 40
1.0
 10
-60.7262
 20
-55.1158
 30
0.0
 10
-60.9492
 20
-56.9835
 30
0.0
 10
-59.4177
 20
-60.2309
 30
0.0
 10
-57.5454
 20
-60.9935
 30
0.0
 10
-57.5454
 20
-60.9935
 30
0.0
 10
-56.6445
 20
-58.3718
 30
0.0
 10
-58.4562
 20
-55.3351
 30
0.0
 10
-60.7262
 20
-55.1158
 30
0.0
  0
SPLINE
  5
78
330
1F
100
AcDbEntity
  8
layer 1
 62
     7
100
AcDbSpline
210
0.0
220
0.0
230
1.0
 70
    11
 71
     3
 72
    24
 73
    20
 74
     0
 42
0.0000000001
 43
0.0000000001
 12
1.0
 22
0.0
 32
0.0
 13
1.0
 23
0.0
 33
0.0
 40
0.0
 40
0.0
 40
0.0
 40
0.0
 40
0.1666666666666667
 40
0.1666666666666667
 40
0.1666666666666667
 40
0.1666666666666667
 40
0.3333333333333333
 40
0.3333333333333333
 40
0.3333333333333333
 40
0.3333333333333333
 40
0.5
 40
0.5
 40
0.5
 40
0.5
 40
0.6666666666666666
 40
0.6666666666666666
 40
0.6666666666666666
 40
0.6666666666666666
 40
1.0
 40
1.0
 40
1.0
 40
1.0
 10
-64.4778
 20
-50.4825
 30
0.0
 10
-64.2472
 20
-47.1279
 30
0.0
 10
-62.8219
 20
-44.7839
 30
0.0
 10
-61.4114
 20
-42.2046
 30
0.0
 10
-61.4114
 20
-42.2046
 30
0.0
 10
-69.9386
 20
-44.1233
 30
0.0
 10
-74.5328
 20
-41.1284
 30
0.0
 10
-77.3883
 20
-34.336
 30
0.0
 10
-77.3883
 20
-34.336
 30
0.0
 10
-77.3883
 20
-34.336
 30
0.0
 10
-77.4641
 20
-56.1844
 30
0.0
 10
-77.4641
 20
-56.1844
 30
0.0
 10
-77.4641
 20
-56.1844
 30
0.0
 10
-74.3782
 20
-51.4797
 30
0.0
 10
-69.3022
 20
-50.721
 30
0.0
 10
-64.4778
 20
-50.4824
 30
0.0
 10
-64.4778
 20
-50.4824
 30
0.0
 10
-64.4778
 20
-50.4824
 30
0.0
 10
-64.4778
 20
-50.4825
 30
0.0
 10
-64.4778
 20
-50.4825
 30
0.0
  0
SPLINE
  5
79
330
1F
100
AcDbEntity
  8
layer 1
 62
     7
100
AcDbSpline
210
0.0
220
0.0
230
1.0
 70
    11
 71
     3
 72
    64
 73
    60
 74
     0
 42
0.0000000001
 43
0.0000000001
 12
1.0
 22
0.0
 32
0.0
 13
1.0
 23
0.0
 33
0.0
 40
0.0
 40
0.0
 40
0.0
 40
0.0
 40
0.0625
 40
0.0625
 40
0.0625
 40
0.0625
 40
0.125
 40
0.125
 40
0.125
 40
0.125
 40
0.1875
 40
0.1875
 40
0.1875
 40
0.1875
 40
0.25
 40
0.25
 40
0.25
 40
0.25
 40
0.3125
 40
0.3125
 40
0.3125
 40
0.3125
 40
0.375
 40
0.375
 40
0.375
 40
0.375
 40
0.4375
 40
0.4375
 40
0.4375
 40
0.4375
 40
0.5
 40
0.5
 40
0.5
 40
0.5
 40
0.5625
 40
0.5625
 40
0.5625
 40
0.5625
 40
0.625
 40
0.625
 40
0.625
 40
0.625
 40
0.6875
 40
0.6875
 40
0.6875
 40
0.6875
 40
0.75
 40
0.75
 40
0.75
 40
0.75
 40
0.8125
 40
0.8125
 40
0.8125
 40
0.8125
 40
0.875
 40
0.875
 40
0.875
 40
0.875
 40
1.0
 40
1.0
 40
1.0
 40
1.0
 10
-46.0024
 20
-31.4351
 30
0.0
 10
-46.0024
 20
-28.1958
 30
0.0
 10
-50.5397
 20
-15.9703
 30
0.0
 10
-56.1486
 20
-10.3965
 30
0.0
 10
-56.1486
 20
-10.3965
 30
0.0
 10
-58.0033
 20
-8.5533
 30
0.0
 10
-58.5502
 20
-8.2162
 30
0.0
 10
-59.7038
 20
-8.2043
 30
0.0
 10
-59.7038
 20
-8.2043
 30
0.0
 10
-60.6979
 20
-8.1941
 30
0.0
 10
-61.0695
 20
-8.3689
 30
0.0
 10
-62.6601
 20
-9.5953
 30
0.0
 10
-62.6601
 20
-9.5953
 30
0.0
 10
-65.0402
 20
-11.4302
 30
0.0
 10
-68.6347
 20
-15.281
 30
0.0
 10
-69.5523
 20
-16.9788
 30
0.0
 10
-69.5523
 20
-16.9788
 30
0.0
 10
-70.8574
 20
-20.4154
 30
0.0
 10
-67.5423
 20
-23.6585
 30
0.0
 10
-64.8842
 20
-22.114
 30
0.0
 10
-64.8842
 20
-22.114
 30
0.0
 10
-63.6212
 20
-21.3687
 30
0.0
 10
-63.6472
 20
-19.7202
 30
0.0
 10
-64.9358
 20
-18.8443
 30
0.0
 10
-64.9358
 20
-18.8443
 30
0.0
 10
-65.5208
 20
-18.5218
 30
0.0
 10
-66.0708
 20
-18.5178
 30
0.0
 10
-66.7031
 20
-18.7659
 30
0.0
 10
-66.7031
 20
-18.7659
 30
0.0
 10
-66.802
 20
-18.0488
 30
0.0
 10
-66.6758
 20
-17.4982
 30
0.0
 10
-66.452
 20
-17.0165
 30
0.0
 10
-66.452
 20
-17.0165
 30
0.0
 10
-63.6832
 20
-12.6391
 30
0.0
 10
-57.3969
 20
-13.6285
 30
0.0
 10
-56.941
 20
-18.305
 30
0.0
 10
-56.941
 20
-18.305
 30
0.0
 10
-56.9757
 20
-21.59
 30
0.0
 10
-57.7887
 20
-23.4335
 30
0.0
 10
-61.2331
 20
-25.3329
 30
0.0
 10
-61.2331
 20
-25.3329
 30
0.0
 10
-61.3084
 20
-25.3329
 30
0.0
 10
-61.3701
 20
-25.3755
 30
0.0
 10
-61.3701
 20
-25.4277
 30
0.0
 10
-61.3701
 20
-25.4277
 30
0.0
 10
-54.8712
 20
-26.0635
 30
0.0
 10
-53.8737
 20
-34.157
 30
0.0
 10
-57.2452
 20
-38.6011
 30
0.0
 10
-57.2452
 20
-38.6011
 30
0.0
 10
-52.4609
 20
-36.5807
 30
0.0
 10
-47.4994
 20
-38.8458
 30
0.0
 10
-46.0024
 20
-43.3717
 30
0.0
 10
-46.0024
 20
-43.3717
 30
0.0
 10
-46.0241
 20
-39.1504
 30
0.0
 10
-46.0024
 20
-35.9071
 30
0.0
 10
-46.0024
 20
-31.4351
 30
0.0
 10
-46.0024
 20
-31.4351
 30
0.0
 10
-46.0024
 20
-31.4351
 30
0.0
 10
-46.0024
 20
-31.4351
 30
0.0
 10
-46.0024
 20
-31.4351
 30
0.0
  0
SPLINE
  5
7A
330
1F
100
AcDbEntity
  8
layer 1
 62
     7
100
AcDbSpline
210
0.0
220
0.0
230
1.0
 70
    11
 71
     3
 72
    36
 73
    32
 74
     0
 42
0.0000000001
 43
0.0000000001
 12
1.0
 22
0.0
 32
0.0
 13
1.0
 23
0.0
 33
0.0
 40
0.0
 40
0.0
 40
0.0
 40
0.0
 40
0.1111111111111111
 40
0.1111111111111111
 40
0.1111111111111111
 40
0.1111111111111111
 40
0.2222222222222222
 40
0.2222222222222222
 40
0.2222222222222222
 40
0.2222222222222222
 40
0.3333333333333333
 40
0.3333333333333333
 40
0.3333333333333333
 40
0.3333333333333333
 40
0.4444444444444444
 40
0.4444444444444444
 40
0.4444444444444444
 40
0.4444444444444444
 40
0.5555555555555556
 40
0.5555555555555556
 40
0.5555555555555556
 40
0.5555555555555556
 40
0.6666666666666666
 40
0.6666666666666666
 40
0.6666666666666666
 40
0.6666666666666666
 40
0.7777777777777778
 40
0.7777777777777778
 40
0.7777777777777778
 40
0.7777777777777778
 40
1.0
 40
1.0
 40
1.0
 40
1.0
 10
-62.2721
 20
-33.678
 30
0.0
 10
-62.0963
 20
-30.8239
 30
0.0
 10
-65.6494
 20
-30.4587
 30
0.0
 10
-66.8505
 20
-32.7655
 30
0.0
 10
-66.8505
 20
-32.7655
 30
0.0
 10
-68.2486
 20
-30.0834
 30
0.0
 10
-67.314
 20
-27.8171
 30
0.0
 10
-65.3015
 20
-26.2771
 30
0.0
 10
-65.3015
 20
-26.2771
 30
0.0
 10
-67.6043
 20
-25.837
 30
0.0
 10
-69.5993
 20
-25.0651
 30
0.0
 10
-71.0944
 20
-23.6604
 30
0.0
 10
-71.0944
 20
-23.6604
 30
0.0
 10
-72.2904
 20
-22.3553
 30
0.0
 10
-72.5937
 20
-23.0523
 30
0.0
 10
-72.9405
 20
-24.2885
 30
0.0
 10
-72.9405
 20
-24.2885
 30
0.0
 10
-73.3154
 20
-26.4933
 30
0.0
 10
-73.4353
 20
-28.6821
 30
0.0
 10
-72.8922
 20
-30.6402
 30
0.0
 10
-72.8922
 20
-30.6402
 30
0.0
 10
-71.9415
 20
-34.0395
 30
0.0
 10
-69.6796
 20
-36.969
 30
0.0
 10
-67.5887
 20
-37.5092
 30
0.0
 10
-67.5887
 20
-37.5092
 30
0.0
 10
-63.7823
 20
-37.993
 30
0.0
 10
-62.3437
 20
-35.8321
 30
0.0
 10
-62.272
 20
-33.678
 30
0.0
 10
-62.272
 20
-33.678
 30
0.0
 10
-62.272
 20
-33.678
 30
0.0
 10
-62.2721
 20
-33.678
 30
0.0
 10
-62.2721
 20
-33.678
 30
0.0
  0
SPLINE
  5
7B
330
1F
100
AcDbEntity
  8
layer 1
 62
     7
100
AcDbSpline
210
0.0
220
0.0
230
1.0
 70
    11
 71
     3
 72
    72
 73
    68
 74
     0
 42
0.0000000001
 43
0.0000000001
 12
1.0
 22
0.0
 32
0.0
 13
1.0
 23
0.0
 33
0.0
 40
0.0
 40
0.0
 40
0.0
 40
0.0
 40
0.0555555555555556
 40
0.0555555555555556
 40
0.0555555555555556
 40
0.0555555555555556
 40
0.1111111111111111
 40
0.1111111111111111
 40
0.1111111111111111
 40
0.1111111111111111
 40
0.1666666666666667
 40
0.1666666666666667
 40
0.1666666666666667
 40
0.1666666666666667
 40
0.2222222222222222
 40
0.2222222222222222
 40
0.2222222222222222
 40
0.2222222222222222
 40
0.2777777777777778
 40
0.2777777777777778
 40
0.2777777777777778
 40
0.2777777777777778
 40
0.3333333333333333
 40
0.3333333333333333
 40
0.3333333333333333
 40
0.3333333333333333
 40
0.3888888888888889
 40
0.3888888888888889
 40
0.3888888888888889
 40
0.3888888888888889
 40
0.4444444444444444
 40
0.4444444444444444
 40
0.4444444444444444
 40
0.4444444444444444
 40
0.5
 40
0.5
 40
0.5
 40
0.5
 40
0.5555555555555556
 40
0.5555555555555556
 40
0.5555555555555556
 40
0.5555555555555556
 40
0.6111111111111112
 40
0.6111111111111112
 40
0.6111111111111112
 40
0.6111111111111112
 40
0.6666666666666666
 40
0.6666666666666666
 40
0.6666666666666666
 40
0.6666666666666666
 40
0.7222222222222222
 40
0.7222222222222222
 40
0.7222222222222222
 40
0.7222222222222222
 40
0.7777777777777778
 40
0.7777777777777778
 40
0.7777777777777778
 40
0.7777777777777778
 40
0.8333333333333334
 40
0.8333333333333334
 40
0.8333333333333334
 40
0.8333333333333334
 40
0.8888888888888888
 40
0.8888888888888888
 40
0.8888888888888888
 40
0.8888888888888888
 40
1.0
 40
1.0
 40
1.0
 40
1.0
 10
-73.8364
 20
-17.4087
 30
0.0
 10
-75.2749
 20
-7.7538
 30
0.0
 10
-67.5085
 20
-3.5363
 30
0.0
 10
-60.2547
 20
-3.3122
 30
0.0
 10
-60.2547
 20
-3.3122
 30
0.0
 10
-57.7474
 20
0.8911
 30
0.0
 10
-55.5647
 20
5.7313
 30
0.0
 10
-54.499
 20
9.865
 30
0.0
 10
-54.499
 20
9.865
 30
0.0
 10
-53.3381
 20
14.4814
 30
0.0
 10
-52.7837
 20
20.9136
 30
0.0
 10
-53.3802
 20
22.8439
 30
0.0
 10
-53.3802
 20
22.8439
 30
0.0
 10
-53.8543
 20
24.1467
 30
0.0
 10
-54.4908
 20
24.9565
 30
0.0
 10
-55.3776
 20
25.8731
 30
0.0
 10
-55.3776
 20
25.8731
 30
0.0
 10
-59.0454
 20
22.877
 30
0.0
 10
-66.7837
 20
22.9768
 30
0.0
 10
-69.8806
 20
26.5301
 30
0.0
 10
-69.8806
 20
26.5301
 30
0.0
 10
-72.4566
 20
25.4339
 30
0.0
 10
-72.0544
 20
22.3456
 30
0.0
 10
-71.3484
 20
20.7123
 30
0.0
 10
-71.3484
 20
20.7123
 30
0.0
 10
-69.0316
 20
17.1221
 30
0.0
 10
-64.3567
 20
17.4101
 30
0.0
 10
-62.6555
 20
21.1062
 30
0.0
 10
-62.6555
 20
21.1062
 30
0.0
 10
-61.3361
 20
20.1627
 30
0.0
 10
-60.7492
 20
18.4323
 30
0.0
 10
-61.4901
 20
16.2845
 30
0.0
 10
-61.4901
 20
16.2845
 30
0.0
 10
-63.0786
 20
13.3363
 30
0.0
 10
-66.4914
 20
12.6426
 30
0.0
 10
-69.6015
 20
13.413
 30
0.0
 10
-69.6015
 20
13.413
 30
0.0
 10
-73.7105
 20
14.5204
 30
0.0
 10
-76.4774
 20
18.1238
 30
0.0
 10
-76.4805
 20
22.3719
 30
0.0
 10
-76.4805
 20
22.3719
 30
0.0
 10
-76.4818
 20
24.3502
 30
0.0
 10
-75.8934
 20
26.2665
 30
0.0
 10
-74.8297
 20
27.747
 30
0.0
 10
-74.8297
 20
27.747
 30
0.0
 10
-74.8297
 20
27.747
 30
0.0
 10
-74.4034
 20
28.3404
 30
0.0
 10
-74.4034
 20
28.3404
 30
0.0
 10
-74.4034
 20
28.3404
 30
0.0
 10
-78.2565
 20
35.2432
 30
0.0
 10
-77.4882
 20
44.8502
 30
0.0
 10
-71.5304
 20
48.5108
 30
0.0
 10
-71.5304
 20
48.5108
 30
0.0
 10
-73.8733
 20
48.6072
 30
0.0
 10
-76.411
 20
49.8656
 30
0.0
 10
-77.4881
 20
51.5236
 30
0.0
 10
-77.4881
 20
51.5236
 30
0.0
 10
-77.4881
 20
51.5236
 30
0.0
 10
-77.4491
 20
-25.0256
 30
0.0
 10
-77.4491
 20
-25.0256
 30
0.0
 10
-77.4491
 20
-25.0256
 30
0.0
 10
-76.6192
 20
-22.2055
 30
0.0
 10
-75.3501
 20
-19.6509
 30
0.0
 10
-73.8364
 20
-17.4086
 30
0.0
 10
-73.8364
 20
-17.4086
 30
0.0
 10
-73.8364
 20
-17.4086
 30
0.0
 10
-73.8364
 20
-17.4087
 30
0.0
 10
-73.8364
 20
-17.4087
 30
0.0
  0
SPLINE
  5
7C
330
1F
100
AcDbEntity
  8
layer 1
 62
     7
100
AcDbSpline
210
0.0
220
0.0
230
1.0
 70
    11
 71
     3
 72
    32
 73
    28
 74
     0
 42
0.0000000001
 43
0.0000000001
 12
1.0
 22
0.0
 32
0.0
 13
1.0
 23
0.0
 33
0.0
 40
0.0
 40
0.0
 40
0.0
 40
0.0
 40
0.125
 40
0.125
 40
0.125
 40
0.125
 40
0.25
 40
0.25
 40
0.25
 40
0.25
 40
0.375
 40
0.375
 40
0.375
 40
0.375
 40
0.5
 40
0.5
 40
0.5
 40
0.5
 40
0.625
 40
0.625
 40
0.625
 40
0.625
 40
0.75
 40
0.75
 40
0.75
 40
0.75
 40
1.0
 40
1.0
 40
1.0
 40
1.0
 10
-45.9952
 20
-4.8366
 30
0.0
 10
-46.9116
 20
-6.8301
 30
0.0
 10
-49.3343
 20
-7.3273
 30
0.0
 10
-50.8068
 20
-6.5849
 30
0.0
 10
-50.8068
 20
-6.5849
 30
0.0
 10
-51.9045
 20
-5.997
 30
0.0
 10
-53.001
 20
-3.788
 30
0.0
 10
-52.2394
 20
-2.77
 30
0.0
 10
-52.2394
 20
-2.77
 30
0.0
 10
-51.2147
 20
-3.2913
 30
0.0
 10
-50.1261
 20
-4.1404
 30
0.0
 10
-49.4894
 20
-2.9106
 30
0.0
 10
-49.4894
 20
-2.9106
 30
0.0
 10
-48.9027
 20
-1.2328
 30
0.0
 10
-50.7825
 20
0.5653
 30
0.0
 10
-52.6364
 20
0.4666
 30
0.0
 10
-52.6364
 20
0.4666
 30
0.0
 10
-54.418
 20
0.2793
 30
0.0
 10
-55.3081
 20
-0.8357
 30
0.0
 10
-57.6835
 20
-3.7919
 30
0.0
 10
-57.6835
 20
-3.7919
 30
0.0
 10
-53.027
 20
-6.2526
 30
0.0
 10
-48.2082
 20
-11.2207
 30
0.0
 10
-45.9905
 20
-15.4288
 30
0.0
 10
-45.9905
 20
-15.4288
 30
0.0
 10
-45.9905
 20
-15.4288
 30
0.0
 10
-45.9952
 20
-4.8366
 30
0.0
 10
-45.9952
 20
-4.8366
 30
0.0
  0
SPLINE
  5
7D
330
1F
100
AcDbEntity
  8
layer 1
 62
     7
100
AcDbSpline
210
0.0
220
0.0
230
1.0
 70
    11
 71
     3
 72
    12
 73
     8
 74
     0
 42
0.0000000001
 43
0.0000000001
 12
1.0
 22
0.0
 32
0.0
 13
1.0
 23
0.0
 33
0.0
 40
0.0
 40
0.0
 40
0.0
 40
0.0
 40
0.3333333333333333
 40
0.3333333333333333
 40
0.3333333333333333
 40
0.3333333333333333
 40
1.0
 40
1.0
 40
1.0
 40
1.0
 10
-63.2156
 20
-6.8566
 30
0.0
 10
-67.3645
 20
-6.9269
 30
0.0
 10
-71.6878
 20
-10.1097
 30
0.0
 10
-71.8692
 20
-14.4602
 30
0.0
 10
-71.8692
 20
-14.4602
 30
0.0
 10
-68.8513
 20
-10.4135
 30
0.0
 10
-67.0296
 20
-8.8297
 30
0.0
 10
-63.2156
 20
-6.8566
 30
0.0
  0
SPLINE
  5
7E
330
1F
100
AcDbEntity
  8
layer 1
 62
     7
100
AcDbSpline
210
0.0
220
0.0
230
1.0
 70
    11
 71
     3
 72
    24
 73
    20
 74
     0
 42
0.0000000001
 43
0.0000000001
 12
1.0
 22
0.0
 32
0.0
 13
1.0
 23
0.0
 33
0.0
 40
0.0
 40
0.0
 40
0.0
 40
0.0
 40
0.1666666666666667
 40
0.1666666666666667
 40
0.1666666666666667
 40
0.1666666666666667
 40
0.3333333333333333
 40
0.3333333333333333
 40
0.3333333333333333
 40
0.3333333333333333
 40
0.5
 40
0.5
 40
0.5
 40
0.5
 40
0.6666666666666666
 40
0.6666666666666666
 40
0.6666666666666666
 40
0.6666666666666666
 40
1.0
 40
1.0
 40
1.0
 40
1.0
 10
-45.9975
 20
36.5858
 30
0.0
 10
-46.9743
 20
32.7867
 30
0.0
 10
-49.7297
 20
29.4355
 30
0.0
 10
-52.0333
 20
27.8225
 30
0.0
 10
-52.0333
 20
27.8225
 30
0.0
 10
-49.9745
 20
25.308
 30
0.0
 10
-48.5198
 20
21.4291
 30
0.0
 10
-49.2637
 20
16.9291
 30
0.0
 10
-49.2637
 20
16.9291
 30
0.0
 10
-50.1252
 20
11.9671
 30
0.0
 10
-51.5226
 20
7.5836
 30
0.0
 10
-53.0161
 20
3.1237
 30
0.0
 10
-53.0161
 20
3.1237
 30
0.0
 10
-48.8038
 20
3.8029
 30
0.0
 10
-47.0182
 20
2.222
 30
0.0
 10
-46.0075
 20
-0.0248
 30
0.0
 10
-46.0075
 20
-0.0248
 30
0.0
 10
-46.0075
 20
-0.0248
 30
0.0
 10
-45.9975
 20
36.5858
 30
0.0
 10
-45.9975
 20
36.5858
 30
0.0
  0
SPLINE
  5
7F
330
1F
100
AcDbEntity
  8
layer 1
 62
     7
100
AcDbSpline
210
0.0
220
0.0
230
1.0
 70
    11
 71
     3
 72
    12
 73
     8
 74
     0
 42
0.0000000001
 43
0.0000000001
 12
1.0
 22
0.0
 32
0.0
 13
1.0
 23
0.0
 33
0.0
 40
0.0
 40
0.0
 40
0.0
 40
0.0
 40
0.3333333333333333
 40
0.3333333333333333
 40
0.3333333333333333
 40
0.3333333333333333
 40
1.0
 40
1.0
 40
1.0
 40
1.0
 10
-58.1235
 20
29.1062
 30
0.0
 10
-60.351
 20
31.1539
 30
0.0
 10
-67.0792
 20
30.812
 30
0.0
 10
-68.1881
 20
28.3538
 30
0.0
 10
-68.1881
 20
28.3538
 30
0.0
 10
-66.4068
 20
26.2805
 30
0.0
 10
-59.4847
 20
26.975
 30
0.0
 10
-58.1235
 20
29.1062
 30
0.0
  0
SPLINE
  5
80
330
1F
100
AcDbEntity
  8
layer 1
 62
     7
100
AcDbSpline
210
0.0
220
0.0
230
1.0
 70
    11
 71
     3
 72
    64
 73
    60
 74
     0
 42
0.0000000001
 43
0.0000000001
 12
1.0
 22
0.0
 32
0.0
 13
1.0
 23
0.0
 33
0.0
 40
0.0
 40
0.0
 40
0.0
 40
0.0
 40
0.0625
 40
0.0625
 40
0.0625
 40
0.0625
 40
0.125
 40
0.125
 40
0.125
 40
0.125
 40
0.1875
 40
0.1875
 40
0.1875
 40
0.1875
 40
0.25
 40
0.25
 40
0.25
 40
0.25
 40
0.3125
 40
0.3125
 40
0.3125
 40
0.3125
 40
0.375
 40
0.375
 40
0.375
 40
0.375
 40
0.4375
 40
0.4375
 40
0.4375
 40
0.4375
 40
0.5
 40
0.5
 40
0.5
 40
0.5
 40
0.5625
 40
0.5625
 40
0.5625
 40
0.5625
 40
0.625
 40
0.625
 40
0.625
 40
0.625
 40
0.6875
 40
0.6875
 40
0.6875
 40
0.6875
 40
0.75
 40
0.75
 40
0.75
 40
0.75
 40
0.8125
 40
0.8125
 40
0.8125
 40
0.8125
 40
0.875
 40
0.875
 40
0.875
 40
0.875
 40
1.0
 40
1.0
 40
1.0
 40
1.0
 10
-56.4892
 20
31.2196
 30
0.0
 10
-55.1181
 20
30.3029
 30
0.0
 10
-55.2229
 20
30.2852
 30
0.0
 10
-54.0102
 20
31.6398
 30
0.0
 10
-54.0102
 20
31.6398
 30
0.0
 10
-51.4441
 20
34.5059
 30
0.0
 10
-50.0528
 20
37.4449
 30
0.0
 10
-49.5034
 20
41.1603
 30
0.0
 10
-49.5034
 20
41.1603
 30
0.0
 10
-49.1223
 20
43.7371
 30
0.0
 10
-49.448
 20
46.7887
 30
0.0
 10
-50.3788
 20
49.3626
 30
0.0
 10
-50.3788
 20
49.3626
 30
0.0
 10
-50.645
 20
50.0985
 30
0.0
 10
-51.1027
 20
51.1431
 30
0.0
 10
-51.2248
 20
51.293
 30
0.0
 10
-51.2248
 20
51.293
 30
0.0
 10
-57.1085
 20
50.3492
 30
0.0
 10
-63.6499
 20
55.0349
 30
0.0
 10
-64.2858
 20
61.3779
 30
0.0
 10
-64.2858
 20
61.3779
 30
0.0
 10
-64.8167
 20
61.7688
 30
0.0
 10
-66.3004
 20
62.6558
 30
0.0
 10
-66.3463
 20
62.6099
 30
0.0
 10
-66.3463
 20
62.6099
 30
0.0
 10
-64.2365
 20
57.5943
 30
0.0
 10
-64.3442
 20
53.4765
 30
0.0
 10
-67.9785
 20
50.1558
 30
0.0
 10
-67.9785
 20
50.1558
 30
0.0
 10
-64.7733
 20
50.3385
 30
0.0
 10
-61.2811
 20
49.7006
 30
0.0
 10
-59.1878
 20
47.8327
 30
0.0
 10
-59.1878
 20
47.8327
 30
0.0
 10
-56.1432
 20
44.9116
 30
0.0
 10
-55.8756
 20
40.3265
 30
0.0
 10
-58.5542
 20
37.5538
 30
0.0
 10
-58.5542
 20
37.5538
 30
0.0
 10
-60.8577
 20
35.2462
 30
0.0
 10
-66.6821
 20
35.961
 30
0.0
 10
-68.359
 20
37.6223
 30
0.0
 10
-68.359
 20
37.6223
 30
0.0
 10
-65.2122
 20
38.1441
 30
0.0
 10
-62.8997
 20
40.9652
 30
0.0
 10
-64.2343
 20
43.8609
 30
0.0
 10
-64.2343
 20
43.8609
 30
0.0
 10
-65.4547
 20
46.3508
 30
0.0
 10
-68.294
 20
47.3669
 30
0.0
 10
-70.658
 20
45.613
 30
0.0
 10
-70.658
 20
45.613
 30
0.0
 10
-74.5931
 20
42.2933
 30
0.0
 10
-74.8221
 20
34.064
 30
0.0
 10
-71.5426
 20
30.4654
 30
0.0
 10
-71.5426
 20
30.4654
 30
0.0
 10
-67.2209
 20
33.8875
 30
0.0
 10
-60.1705
 20
33.5769
 30
0.0
 10
-56.4893
 20
31.2196
 30
0.0
 10
-56.4893
 20
31.2196
 30
0.0
 10
-56.4893
 20
31.2196
 30
0.0
 10
-56.4892
 20
31.2196
 30
0.0
 10
-56.4892
 20
31.2196
 30
0.0
  0
SPLINE
  5
81
330
1F
100
AcDbEntity
  8
layer 1
 62
     7
100
AcDbSpline
210
0.0
220
0.0
230
1.0
 70
    11
 71
     3
 72
    16
 73
    12
 74
     0
 42
0.0000000001
 43
0.0000000001
 12
1.0
 22
0.0
 32
0.0
 13
1.0
 23
0.0
 33
0.0
 40
0.0
 40
0.0
 40
0.0
 40
0.0
 40
0.25
 40
0.25
 40
0.25
 40
0.25
 40
0.5
 40
0.5
 40
0.5
 40
0.5
 40
1.0
 40
1.0
 40
1.0
 40
1.0
 10
-46.0024
 20
56.0435
 30
0.0
 10
-46.4931
 20
54.1785
 30
0.0
 10
-46.9881
 20
52.8888
 30
0.0
 10
-48.3113
 20
51.772
 30
0.0
 10
-48.3113
 20
51.772
 30
0.0
 10
-47.246
 20
50.3923
 30
0.0
 10
-46.5108
 20
48.9196
 30
0.0
 10
-46.0035
 20
46.537
 30
0.0
 10
-46.0035
 20
46.537
 30
0.0
 10
-46.0035
 20
46.537
 30
0.0
 10
-46.0024
 20
56.0435
 30
0.0
 10
-46.0024
 20
56.0435
 30
0.0
  0
SPLINE
  5
82
330
1F
100
AcDbEntity
  8
layer 1
 62
     7
100
AcDbSpline
210
0.0
220
0.0
230
1.0
 70
    11
 71
     3
 72
    48
 73
    44
 74
     0
 42
0.0000000001
 43
0.0000000001
 12
1.0
 22
0.0
 32
0.0
 13
1.0
 23
0.0
 33
0.0
 40
0.0
 40
0.0
 40
0.0
 40
0.0
 40
0.0833333333333333
 40
0.0833333333333333
 40
0.0833333333333333
 40
0.0833333333333333
 40
0.1666666666666667
 40
0.1666666666666667
 40
0.1666666666666667
 40
0.1666666666666667
 40
0.25
 40
0.25
 40
0.25
 40
0.25
 40
0.3333333333333333
 40
0.3333333333333333
 40
0.3333333333333333
 40
0.3333333333333333
 40
0.4166666666666667
 40
0.4166666666666667
 40
0.4166666666666667
 40
0.4166666666666667
 40
0.5
 40
0.5
 40
0.5
 40
0.5
 40
0.5833333333333334
 40
0.5833333333333334
 40
0.5833333333333334
 40
0.5833333333333334
 40
0.6666666666666666
 40
0.6666666666666666
 40
0.6666666666666666
 40
0.6666666666666666
 40
0.75
 40
0.75
 40
0.75
 40
0.75
 40
0.8333333333333334
 40
0.8333333333333334
 40
0.8333333333333334
 40
0.8333333333333334
 40
1.0
 40
1.0
 40
1.0
 40
1.0
 10
-70.517
 20
52.6691
 30
0.0
 10
-69.2607
 20
53.3898
 30
0.0
 10
-68.4549
 20
54.6587
 30
0.0
 10
-68.2265
 20
56.2765
 30
0.0
 10
-68.2265
 20
56.2765
 30
0.0
 10
-67.9143
 20
58.4877
 30
0.0
 10
-68.8784
 20
62.0935
 30
0.0
 10
-70.059
 20
63.1301
 30
0.0
 10
-70.059
 20
63.1301
 30
0.0
 10
-71.7817
 20
64.5356
 30
0.0
 10
-73.9373
 20
64.5134
 30
0.0
 10
-74.7568
 20
62.5825
 30
0.0
 10
-74.7568
 20
62.5825
 30
0.0
 10
-75.057
 20
61.79
 30
0.0
 10
-74.4042
 20
60.9051
 30
0.0
 10
-73.4362
 20
60.7925
 30
0.0
 10
-73.4362
 20
60.7925
 30
0.0
 10
-72.8878
 20
60.7287
 30
0.0
 10
-72.8583
 20
60.7062
 30
0.0
 10
-72.8824
 20
60.3714
 30
0.0
 10
-72.8824
 20
60.3714
 30
0.0
 10
-73.5349
 20
57.9632
 30
0.0
 10
-76.8172
 20
58.0197
 30
0.0
 10
-77.464
 20
59.4483
 30
0.0
 10
-77.464
 20
59.4483
 30
0.0
 10
-77.464
 20
59.4483
 30
0.0
 10
-77.464
 20
55.7157
 30
0.0
 10
-77.464
 20
55.7157
 30
0.0
 10
-77.464
 20
55.7157
 30
0.0
 10
-75.7053
 20
58.1308
 30
0.0
 10
-73.0112
 20
58.4298
 30
0.0
 10
-70.7674
 20
56.6388
 30
0.0
 10
-70.7674
 20
56.6388
 30
0.0
 10
-69.9056
 20
55.7646
 30
0.0
 10
-69.8338
 20
55.0079
 30
0.0
 10
-70.6663
 20
55.5729
 30
0.0
 10
-70.6663
 20
55.5729
 30
0.0
 10
-71.7723
 20
56.3234
 30
0.0
 10
-73.328
 20
55.4582
 30
0.0
 10
-73.328
 20
54.0925
 30
0.0
 10
-73.328
 20
54.0925
 30
0.0
 10
-73.1184
 20
52.4696
 30
0.0
 10
-71.6716
 20
52.0256
 30
0.0
 10
-70.517
 20
52.6691
 30
0.0
  0
SPLINE
  5
83
330
1F
100
AcDbEntity
  8
layer 1
 62
     7
100
AcDbSpline
210
0.0
220
0.0
230
1.0
 70
    11
 71
     3
 72
    12
 73
     8
 74
     0
 42
0.0000000001
 43
0.0000000001
 12
1.0
 22
0.0
 32
0.0
 13
1.0
 23
0.0
 33
0.0
 40
0.0
 40
0.0
 40
0.0
 40
0.0
 40
0.3333333333333333
 40
0.3333333333333333
 40
0.3333333333333333
 40
0.3333333333333333
 40
1.0
 40
1.0
 40
1.0
 40
1.0
 10
-60.222
 20
59.6429
 30
0.0
 10
-59.738
 20
56.7215
 30
0.0
 10
-55.9915
 20
54.846
 30
0.0
 10
-53.245
 20
55.1368
 30
0.0
 10
-53.245
 20
55.1368
 30
0.0
 10
-53.9848
 20
57.2675
 30
0.0
 10
-57.9058
 20
60.3401
 30
0.0
 10
-60.222
 20
59.6429
 30
0.0
  0
SPLINE
  5
84
330
1F
100
AcDbEntity
  8
layer 1
 62
     7
100
AcDbSpline
210
0.0
220
0.0
230
1.0
 70
    11
 71
     3
 72
    32
 73
    28
 74
     0
 42
0.0000000001
 43
0.0000000001
 12
1.0
 22
0.0
 32
0.0
 13
1.0
 23
0.0
 33
0.0
 40
0.0
 40
0.0
 40
0.0
 40
0.0
 40
0.125
 40
0.125
 40
0.125
 40
0.125
 40
0.25
 40
0.25
 40
0.25
 40
0.25
 40
0.375
 40
0.375
 40
0.375
 40
0.375
 40
0.5
 40
0.5
 40
0.5
 40
0.5
 40
0.625
 40
0.625
 40
0.625
 40
0.625
 40
0.75
 40
0.75
 40
0.75
 40
0.75
 40
1.0
 40
1.0
 40
1.0
 40
1.0
 10
-55.0424
 20
62.3163
 30
0.0
 10
-55.5777
 20
61.9531
 30
0.0
 10
-55.7189
 20
61.9413
 30
0.0
 10
-55.7189
 20
62.2597
 30
0.0
 10
-55.7189
 20
62.2597
 30
0.0
 10
-53.0424
 20
67.2227
 30
0.0
 10
-46.4626
 20
65.4345
 30
0.0
 10
-46.0024
 20
60.051
 30
0.0
 10
-46.0024
 20
60.051
 30
0.0
 10
-46.0024
 20
60.051
 30
0.0
 10
-46.0024
 20
80.3304
 30
0.0
 10
-46.0024
 20
80.3304
 30
0.0
 10
-46.0024
 20
80.3304
 30
0.0
 10
-51.9662
 20
80.3304
 30
0.0
 10
-62.0876
 20
73.221
 30
0.0
 10
-61.1088
 20
63.5733
 30
0.0
 10
-61.1088
 20
63.5733
 30
0.0
 10
-56.6985
 20
62.548
 30
0.0
 10
-52.91
 20
59.9105
 30
0.0
 10
-51.0171
 20
56.7409
 30
0.0
 10
-51.0171
 20
56.7409
 30
0.0
 10
-47.4671
 20
60.9497
 30
0.0
 10
-51.4234
 20
64.626
 30
0.0
 10
-55.0424
 20
62.3163
 30
0.0
 10
-55.0424
 20
62.3163
 30
0.0
 10
-55.0424
 20
62.3163
 30
0.0
 10
-55.0424
 20
62.3163
 30
0.0
 10
-55.0424
 20
62.3163
 30
0.0
  0
SPLINE
  5
85
330
1F
100
AcDbEntity
  8
layer 1
 62
     7
100
AcDbSpline
210
0.0
220
0.0
230
1.0
 70
    11
 71
     3
 72
    20
 73
    16
 74
     0
 42
0.0000000001
 43
0.0000000001
 12
1.0
 22
0.0
 32
0.0
 13
1.0
 23
0.0
 33
0.0
 40
0.0
 40
0.0
 40
0.0
 40
0.0
 40
0.2
 40
0.2
 40
0.2
 40
0.2
 40
0.4
 40
0.4
 40
0.4
 40
0.4
 40
0.6
 40
0.6
 40
0.6
 40
0.6
 40
1.0
 40
1.0
 40
1.0
 40
1.0
 10
-77.4881
 20
63.9761
 30
0.0
 10
-76.0289
 20
67.446
 30
0.0
 10
-72.214
 20
68.3305
 30
0.0
 10
-69.2981
 20
66.1172
 30
0.0
 10
-69.2981
 20
66.1172
 30
0.0
 10
-71.9112
 20
70.7241
 30
0.0
 10
-72.3797
 20
75.9772
 30
0.0
 10
-69.4551
 20
80.3219
 30
0.0
 10
-69.4551
 20
80.3219
 30
0.0
 10
-69.4551
 20
80.3219
 30
0.0
 10
-77.4881
 20
80.3304
 30
0.0
 10
-77.4881
 20
80.3304
 30
0.0
 10
-77.4881
 20
80.3304
 30
0.0
 10
-77.4881
 20
80.3304
 30
0.0
 10
-77.4881
 20
63.9761
 30
0.0
 10
-77.4881
 20
63.9761
 30
0.0
  0
SPLINE
  5
86
330
1F
100
AcDbEntity
  8
layer 1
 62
     7
100
AcDbSpline
210
0.0
220
0.0
230
1.0
 70
    11
 71
     3
 72
    24
 73
    20
 74
     0
 42
0.0000000001
 43
0.0000000001
 12
1.0
 22
0.0
 32
0.0
 13
1.0
 23
0.0
 33
0.0
 40
0.0
 40
0.0
 40
0.0
 40
0.0
 40
0.1666666666666667
 40
0.1666666666666667
 40
0.1666666666666667
 40
0.1666666666666667
 40
0.3333333333333333
 40
0.3333333333333333
 40
0.3333333333333333
 40
0.3333333333333333
 40
0.5
 40
0.5
 40
0.5
 40
0.5
 40
0.6666666666666666
 40
0.6666666666666666
 40
0.6666666666666666
 40
0.6666666666666666
 40
1.0
 40
1.0
 40
1.0
 40
1.0
 10
-58.023
 20
80.3219
 30
0.0
 10
-58.023
 20
80.3219
 30
0.0
 10
-60.4881
 20
80.3219
 30
0.0
 10
-60.4881
 20
80.3219
 30
0.0
 10
-60.4881
 20
80.3219
 30
0.0
 10
-63.1392
 20
78.5353
 30
0.0
 10
-65.2184
 20
75.1167
 30
0.0
 10
-65.9744
 20
72.4549
 30
0.0
 10
-65.9744
 20
72.4549
 30
0.0
 10
-66.5314
 20
69.4658
 30
0.0
 10
-66.1239
 20
67.4431
 30
0.0
 10
-64.6258
 20
65.3999
 30
0.0
 10
-64.6258
 20
65.3999
 30
0.0
 10
-64.4138
 20
70.7095
 30
0.0
 10
-62.3222
 20
77.2505
 30
0.0
 10
-58.023
 20
80.3219
 30
0.0
 10
-58.023
 20
80.3219
 30
0.0
 10
-58.023
 20
80.3219
 30
0.0
 10
-58.023
 20
80.3219
 30
0.0
 10
-58.023
 20
80.3219
 30
0.0
  0
SPLINE
  5
87
330
1F
100
AcDbEntity
  8
layer 1
 62
     7
100
AcDbSpline
210
0.0
220
0.0
230
1.0
 70
    11
 71
     3
 72
    36
 73
    32
 74
     0
 42
0.0000000001
 43
0.0000000001
 12
1.0
 22
0.0
 32
0.0
 13
1.0
 23
0.0
 33
0.0
 40
0.0
 40
0.0
 40
0.0
 40
0.0
 40
0.1111111111111111
 40
0.1111111111111111
 40
0.1111111111111111
 40
0.1111111111111111
 40
0.2222222222222222
 40
0.2222222222222222
 40
0.2222222222222222
 40
0.2222222222222222
 40
0.3333333333333333
 40
0.3333333333333333
 40
0.3333333333333333
 40
0.3333333333333333
 40
0.4444444444444444
 40
0.4444444444444444
 40
0.4444444444444444
 40
0.4444444444444444
 40
0.5555555555555556
 40
0.5555555555555556
 40
0.5555555555555556
 40
0.5555555555555556
 40
0.6666666666666666
 40
0.6666666666666666
 40
0.6666666666666666
 40
0.6666666666666666
 40
0.7777777777777778
 40
0.7777777777777778
 40
0.7777777777777778
 40
0.7777777777777778
 40
1.0
 40
1.0
 40
1.0
 40
1.0
 10
-69.2328
 20
88.0003
 30
0.0
 10
-69.2328
 20
88.0003
 30
0.0
 10
-69.2328
 20
92.1159
 30
0.0
 10
-69.2328
 20
92.1159
 30
0.0
 10
-69.2328
 20
92.1159
 30
0.0
 10
-69.2328
 20
92.1159
 30
0.0
 10
-73.3484
 20
92.1159
 30
0.0
 10
-73.3484
 20
92.1159
 30
0.0
 10
-73.3484
 20
92.1159
 30
0.0
 10
-73.3484
 20
92.1159
 30
0.0
 10
-77.464
 20
92.1159
 30
0.0
 10
-77.464
 20
92.1159
 30
0.0
 10
-77.464
 20
92.1159
 30
0.0
 10
-77.464
 20
92.1159
 30
0.0
 10
-77.464
 20
88.0003
 30
0.0
 10
-77.464
 20
88.0003
 30
0.0
 10
-77.464
 20
88.0003
 30
0.0
 10
-77.464
 20
88.0003
 30
0.0
 10
-77.464
 20
83.8847
 30
0.0
 10
-77.464
 20
83.8847
 30
0.0
 10
-77.464
 20
83.8847
 30
0.0
 10
-77.464
 20
83.8847
 30
0.0
 10
-73.3484
 20
83.8847
 30
0.0
 10
-73.3484
 20
83.8847
 30
0.0
 10
-73.3484
 20
83.8847
 30
0.0
 10
-73.3484
 20
83.8847
 30
0.0
 10
-69.2328
 20
83.8847
 30
0.0
 10
-69.2328
 20
83.8847
 30
0.0
 10
-69.2328
 20
83.8847
 30
0.0
 10
-69.2328
 20
83.8847
 30
0.0
 10
-69.2328
 20
88.0003
 30
0.0
 10
-69.2328
 20
88.0003
 30
0.0
  0
SPLINE
  5
88
330
1F
100
AcDbEntity
  8
layer 1
 62
     7
100
AcDbSpline
210
0.0
220
0.0
230
1.0
 70
    11
 71
     3
 72
    16
 73
    12
 74
     0
 42
0.0000000001
 43
0.0000000001
 12
1.0
 22
0.0
 32
0.0
 13
1.0
 23
0.0
 33
0.0
 40
0.0
 40
0.0
 40
0.0
 40
0.0
 40
0.25
 40
0.25
 40
0.25
 40
0.25
 40
0.5
 40
0.5
 40
0.5
 40
0.5
 40
1.0
 40
1.0
 40
1.0
 40
1.0
 10
-71.2975
 20
95.6821
 30
0.0
 10
-74.4035
 20
97.0768
 30
0.0
 10
-76.393
 20
98.986
 30
0.0
 10
-77.4881
 20
101.6986
 30
0.0
 10
-77.4881
 20
101.6986
 30
0.0
 10
-77.4881
 20
101.6986
 30
0.0
 10
-77.4641
 20
95.6787
 30
0.0
 10
-77.4641
 20
95.6787
 30
0.0
 10
-77.4641
 20
95.6787
 30
0.0
 10
-77.4641
 20
95.6787
 30
0.0
 10
-71.2975
 20
95.6821
 30
0.0
 10
-71.2975
 20
95.6821
 30
0.0
  0
SPLINE
  5
89
330
1F
100
AcDbEntity
  8
layer 1
 62
     7
100
AcDbSpline
210
0.0
220
0.0
230
1.0
 70
    11
 71
     3
 72
    28
 73
    24
 74
     0
 42
0.0000000001
 43
0.0000000001
 12
1.0
 22
0.0
 32
0.0
 13
1.0
 23
0.0
 33
0.0
 40
0.0
 40
0.0
 40
0.0
 40
0.0
 40
0.1428571428571428
 40
0.1428571428571428
 40
0.1428571428571428
 40
0.1428571428571428
 40
0.2857142857142857
 40
0.2857142857142857
 40
0.2857142857142857
 40
0.2857142857142857
 40
0.4285714285714285
 40
0.4285714285714285
 40
0.4285714285714285
 40
0.4285714285714285
 40
0.5714285714285714
 40
0.5714285714285714
 40
0.5714285714285714
 40
0.5714285714285714
 40
0.7142857142857143
 40
0.7142857142857143
 40
0.7142857142857143
 40
0.7142857142857143
 40
1.0
 40
1.0
 40
1.0
 40
1.0
 10
-46.0024
 20
116.0725
 30
0.0
 10
-47.1952
 20
113.5158
 30
0.0
 10
-50.0897
 20
110.0271
 30
0.0
 10
-53.0585
 20
109.811
 30
0.0
 10
-53.0585
 20
109.811
 30
0.0
 10
-53.4156
 20
109.8046
 30
0.0
 10
-53.9832
 20
109.3369
 30
0.0
 10
-54.2316
 20
108.8444
 30
0.0
 10
-54.2316
 20
108.8444
 30
0.0
 10
-54.3565
 20
108.5967
 30
0.0
 10
-54.4974
 20
108.0762
 30
0.0
 10
-54.5447
 20
107.6878
 30
0.0
 10
-54.5447
 20
107.6878
 30
0.0
 10
-56.0307
 20
100.6792
 30
0.0
 10
-59.1756
 20
97.5968
 30
0.0
 10
-64.6869
 20
95.6821
 30
0.0
 10
-64.6869
 20
95.6821
 30
0.0
 10
-64.6869
 20
95.6821
 30
0.0
 10
-46.0025
 20
95.6821
 30
0.0
 10
-46.0025
 20
95.6821
 30
0.0
 10
-46.0025
 20
95.6821
 30
0.0
 10
-46.0025
 20
95.6821
 30
0.0
 10
-46.0024
 20
116.0725
 30
0.0
 10
-46.0024
 20
116.0725
 30
0.0
  0
SPLINE
  5
8A
330
1F
100
AcDbEntity
  8
layer 1
 62
     7
100
AcDbSpline
210
0.0
220
0.0
230
1.0
 70
    11
 71
     3
 72
    48
 73
    44
 74
     0
 42
0.0000000001
 43
0.0000000001
 12
1.0
 22
0.0
 32
0.0
 13
1.0
 23
0.0
 33
0.0
 40
0.0
 40
0.0
 40
0.0
 40
0.0
 40
0.0833333333333333
 40
0.0833333333333333
 40
0.0833333333333333
 40
0.0833333333333333
 40
0.1666666666666667
 40
0.1666666666666667
 40
0.1666666666666667
 40
0.1666666666666667
 40
0.25
 40
0.25
 40
0.25
 40
0.25
 40
0.3333333333333333
 40
0.3333333333333333
 40
0.3333333333333333
 40
0.3333333333333333
 40
0.4166666666666667
 40
0.4166666666666667
 40
0.4166666666666667
 40
0.4166666666666667
 40
0.5
 40
0.5
 40
0.5
 40
0.5
 40
0.5833333333333334
 40
0.5833333333333334
 40
0.5833333333333334
 40
0.5833333333333334
 40
0.6666666666666666
 40
0.6666666666666666
 40
0.6666666666666666
 40
0.6666666666666666
 40
0.75
 40
0.75
 40
0.75
 40
0.75
 40
0.8333333333333334
 40
0.8333333333333334
 40
0.8333333333333334
 40
0.8333333333333334
 40
1.0
 40
1.0
 40
1.0
 40
1.0
 10
-67.9683
 20
99.914
 30
0.0
 10
-62.9691
 20
101.5155
 30
0.0
 10
-59.1919
 20
105.645
 30
0.0
 10
-57.8583
 20
109.7164
 30
0.0
 10
-57.8583
 20
109.7164
 30
0.0
 10
-57.5965
 20
110.5604
 30
0.0
 10
-57.6303
 20
110.612
 30
0.0
 10
-58.6139
 20
110.8688
 30
0.0
 10
-58.6139
 20
110.8688
 30
0.0
 10
-60.7476
 20
111.4017
 30
0.0
 10
-61.3695
 20
112.064
 30
0.0
 10
-62.6068
 20
113.7383
 30
0.0
 10
-62.6068
 20
113.7383
 30
0.0
 10
-62.8386
 20
110.517
 30
0.0
 10
-66.3721
 20
109.0322
 30
0.0
 10
-69.3427
 20
109.6841
 30
0.0
 10
-69.3427
 20
109.6841
 30
0.0
 10
-67.1716
 20
107.9284
 30
0.0
 10
-66.4579
 20
105.1193
 30
0.0
 10
-67.873
 20
103.0811
 30
0.0
 10
-67.873
 20
103.0811
 30
0.0
 10
-69.171
 20
101.2893
 30
0.0
 10
-72.131
 20
101.3645
 30
0.0
 10
-73.3792
 20
103.221
 30
0.0
 10
-73.3792
 20
103.221
 30
0.0
 10
-73.9097
 20
104.01
 30
0.0
 10
-73.9065
 20
104.2785
 30
0.0
 10
-73.3666
 20
104.2785
 30
0.0
 10
-73.3666
 20
104.2785
 30
0.0
 10
-72.3222
 20
104.4445
 30
0.0
 10
-71.5853
 20
105.3803
 30
0.0
 10
-71.8091
 20
106.2304
 30
0.0
 10
-71.8091
 20
106.2304
 30
0.0
 10
-72.2141
 20
107.7345
 30
0.0
 10
-74.4634
 20
107.7019
 30
0.0
 10
-75.3481
 20
106.1791
 30
0.0
 10
-75.3481
 20
106.1791
 30
0.0
 10
-76.9608
 20
102.3358
 30
0.0
 10
-71.768
 20
98.6709
 30
0.0
 10
-67.9683
 20
99.914
 30
0.0
 10
-67.9683
 20
99.914
 30
0.0
 10
-67.9683
 20
99.914
 30
0.0
 10
-67.9683
 20
99.914
 30
0.0
 10
-67.9683
 20
99.914
 30
0.0
  0
SPLINE
  5
8B
330
1F
100
AcDbEntity
  8
layer 1
 62
     7
100
AcDbSpline
210
0.0
220
0.0
230
1.0
 70
    11
 71
     3
 72
    80
 73
    76
 74
     0
 42
0.0000000001
 43
0.0000000001
 12
1.0
 22
0.0
 32
0.0
 13
1.0
 23
0.0
 33
0.0
 40
0.0
 40
0.0
 40
0.0
 40
0.0
 40
0.05
 40
0.05
 40
0.05
 40
0.05
 40
0.1
 40
0.1
 40
0.1
 40
0.1
 40
0.15
 40
0.15
 40
0.15
 40
0.15
 40
0.2
 40
0.2
 40
0.2
 40
0.2
 40
0.25
 40
0.25
 40
0.25
 40
0.25
 40
0.3
 40
0.3
 40
0.3
 40
0.3
 40
0.35
 40
0.35
 40
0.35
 40
0.35
 40
0.4
 40
0.4
 40
0.4
 40
0.4
 40
0.45
 40
0.45
 40
0.45
 40
0.45
 40
0.5
 40
0.5
 40
0.5
 40
0.5
 40
0.55
 40
0.55
 40
0.55
 40
0.55
 40
0.6
 40
0.6
 40
0.6
 40
0.6
 40
0.65
 40
0.65
 40
0.65
 40
0.65
 40
0.7
 40
0.7
 40
0.7
 40
0.7
 40
0.75
 40
0.75
 40
0.75
 40
0.75
 40
0.8
 40
0.8
 40
0.8
 40
0.8
 40
0.85
 40
0.85
 40
0.85
 40
0.85
 40
0.9
 40
0.9
 40
0.9
 40
0.9
 40
1.0
 40
1.0
 40
1.0
 40
1.0
 10
-70.6457
 20
110.3098
 30
0.0
 10
-73.1233
 20
111.8815
 30
0.0
 10
-74.4861
 20
114.9197
 30
0.0
 10
-73.7107
 20
118.104
 30
0.0
 10
-73.7107
 20
118.104
 30
0.0
 10
-72.525
 20
122.4267
 30
0.0
 10
-68.9366
 20
124.3832
 30
0.0
 10
-65.0742
 20
125.4615
 30
0.0
 10
-65.0742
 20
125.4615
 30
0.0
 10
-62.2158
 20
126.2215
 30
0.0
 10
-59.4062
 20
126.2123
 30
0.0
 10
-56.5788
 20
125.3286
 30
0.0
 10
-56.5788
 20
125.3286
 30
0.0
 10
-54.002
 20
124.5233
 30
0.0
 10
-52.3371
 20
122.5619
 30
0.0
 10
-52.1021
 20
120.6671
 30
0.0
 10
-52.1021
 20
120.6671
 30
0.0
 10
-51.9978
 20
119.5141
 30
0.0
 10
-52.511
 20
117.8939
 30
0.0
 10
-53.8538
 20
117.4716
 30
0.0
 10
-53.8538
 20
117.4716
 30
0.0
 10
-53.9113
 20
118.9239
 30
0.0
 10
-54.3912
 20
119.848
 30
0.0
 10
-55.4058
 20
120.7515
 30
0.0
 10
-55.4058
 20
120.7515
 30
0.0
 10
-56.125
 20
121.3722
 30
0.0
 10
-57.5655
 20
121.2184
 30
0.0
 10
-57.2321
 20
120.1663
 30
0.0
 10
-57.2321
 20
120.1663
 30
0.0
 10
-57.1864
 20
120.0432
 30
0.0
 10
-56.8498
 20
119.6107
 30
0.0
 10
-56.4842
 20
119.2053
 30
0.0
 10
-56.4842
 20
119.2053
 30
0.0
 10
-54.8839
 20
117.2738
 30
0.0
 10
-54.429
 20
115.7781
 30
0.0
 10
-54.1131
 20
113.4519
 30
0.0
 10
-54.1131
 20
113.4519
 30
0.0
 10
-54.0613
 20
112.9897
 30
0.0
 10
-53.7812
 20
113.1179
 30
0.0
 10
-53.583
 20
113.1441
 30
0.0
 10
-53.583
 20
113.1441
 30
0.0
 10
-52.7846
 20
113.2497
 30
0.0
 10
-50.7232
 20
114.2656
 30
0.0
 10
-49.8257
 20
115.3118
 30
0.0
 10
-49.8257
 20
115.3118
 30
0.0
 10
-48.7895
 20
116.5197
 30
0.0
 10
-48.1052
 20
118.2889
 30
0.0
 10
-48.1059
 20
119.7581
 30
0.0
 10
-48.1059
 20
119.7581
 30
0.0
 10
-48.107
 20
122.0767
 30
0.0
 10
-49.5086
 20
124.8404
 30
0.0
 10
-51.5751
 20
126.5987
 30
0.0
 10
-51.5751
 20
126.5987
 30
0.0
 10
-52.5324
 20
127.4131
 30
0.0
 10
-54.2522
 20
128.2874
 30
0.0
 10
-55.5235
 20
128.6059
 30
0.0
 10
-55.5235
 20
128.6059
 30
0.0
 10
-56.4544
 20
128.8391
 30
0.0
 10
-56.937
 20
128.8494
 30
0.0
 10
-66.9797
 20
128.8494
 30
0.0
 10
-66.9797
 20
128.8494
 30
0.0
 10
-66.9797
 20
128.8494
 30
0.0
 10
-77.4881
 20
128.895
 30
0.0
 10
-77.4881
 20
128.895
 30
0.0
 10
-77.4881
 20
128.895
 30
0.0
 10
-77.4881
 20
128.895
 30
0.0
 10
-77.4881
 20
107.7286
 30
0.0
 10
-77.4881
 20
107.7286
 30
0.0
 10
-77.4881
 20
107.7286
 30
0.0
 10
-75.9278
 20
110.7702
 30
0.0
 10
-73.1312
 20
111.2332
 30
0.0
 10
-70.6457
 20
110.3098
 30
0.0
 10
-70.6457
 20
110.3098
 30
0.0
 10
-70.6457
 20
110.3098
 30
0.0
 10
-70.6457
 20
110.3098
 30
0.0
 10
-70.6457
 20
110.3098
 30
0.0
  0
SPLINE
  5
8C
330
1F
100
AcDbEntity
  8
layer 1
 62
     7
100
AcDbSpline
210
0.0
220
0.0
230
1.0
 70
    11
 71
     3
 72
    40
 73
    36
 74
     0
 42
0.0000000001
 43
0.0000000001
 12
1.0
 22
0.0
 32
0.0
 13
1.0
 23
0.0
 33
0.0
 40
0.0
 40
0.0
 40
0.0
 40
0.0
 40
0.1
 40
0.1
 40
0.1
 40
0.1
 40
0.2
 40
0.2
 40
0.2
 40
0.2
 40
0.3
 40
0.3
 40
0.3
 40
0.3
 40
0.4
 40
0.4
 40
0.4
 40
0.4
 40
0.5
 40
0.5
 40
0.5
 40
0.5
 40
0.6
 40
0.6
 40
0.6
 40
0.6
 40
0.7
 40
0.7
 40
0.7
 40
0.7
 40
0.8
 40
0.8
 40
0.8
 40
0.8
 40
1.0
 40
1.0
 40
1.0
 40
1.0
 10
-65.9158
 20
114.5717
 30
0.0
 10
-65.9158
 20
115.3838
 30
0.0
 10
-66.6563
 20
116.0725
 30
0.0
 10
-67.5295
 20
116.0725
 30
0.0
 10
-67.5295
 20
116.0725
 30
0.0
 10
-68.2368
 20
116.0725
 30
0.0
 10
-68.116
 20
116.2558
 30
0.0
 10
-67.7279
 20
116.717
 30
0.0
 10
-67.7279
 20
116.717
 30
0.0
 10
-66.7341
 20
117.5639
 30
0.0
 10
-64.6677
 20
117.7057
 30
0.0
 10
-63.8347
 20
116.7572
 30
0.0
 10
-63.8347
 20
116.7572
 30
0.0
 10
-63.5558
 20
116.4211
 30
0.0
 10
-63.4587
 20
116.5442
 30
0.0
 10
-63.4587
 20
117.2336
 30
0.0
 10
-63.4587
 20
117.2336
 30
0.0
 10
-63.4587
 20
118.202
 30
0.0
 10
-63.2457
 20
119.0796
 30
0.0
 10
-62.7596
 20
120.1142
 30
0.0
 10
-62.7596
 20
120.1142
 30
0.0
 10
-61.7965
 20
122.4798
 30
0.0
 10
-63.5908
 20
122.7043
 30
0.0
 10
-65.1503
 20
122.4657
 30
0.0
 10
-65.1503
 20
122.4657
 30
0.0
 10
-68.0565
 20
121.6005
 30
0.0
 10
-71.3129
 20
119.3478
 30
0.0
 10
-71.3187
 20
116.509
 30
0.0
 10
-71.3187
 20
116.509
 30
0.0
 10
-71.3117
 20
114.5784
 30
0.0
 10
-69.7576
 20
113.0235
 30
0.0
 10
-67.8181
 20
113.0066
 30
0.0
 10
-67.8181
 20
113.0066
 30
0.0
 10
-66.908
 20
112.9788
 30
0.0
 10
-65.9451
 20
113.6874
 30
0.0
 10
-65.9158
 20
114.5717
 30
0.0
  0
SPLINE
  5
8D
330
1F
100
AcDbEntity
  8
layer 1
 62
     7
100
AcDbSpline
210
0.0
220
0.0
230
1.0
 70
    11
 71
     3
 72
    12
 73
     8
 74
     0
 42
0.0000000001
 43
0.0000000001
 12
1.0
 22
0.0
 32
0.0
 13
1.0
 23
0.0
 33
0.0
 40
0.0
 40
0.0
 40
0.0
 40
0.0
 40
0.3333333333333333
 40
0.3333333333333333
 40
0.3333333333333333
 40
0.3333333333333333
 40
1.0
 40
1.0
 40
1.0
 40
1.0
 10
-59.0956
 20
119.4954
 30
0.0
 10
-60.3536
 20
118.1118
 30
0.0
 10
-59.3143
 20
114.0854
 30
0.0
 10
-57.2881
 20
113.5712
 30
0.0
 10
-57.2881
 20
113.5712
 30
0.0
 10
-57.0321
 20
115.1447
 30
0.0
 10
-57.9524
 20
118.6281
 30
0.0
 10
-59.0956
 20
119.4954
 30
0.0
  0
SPLINE
  5
8E
330
1F
100
AcDbEntity
  8
layer 1
 62
     7
100
AcDbSpline
210
0.0
220
0.0
230
1.0
 70
    11
 71
     3
 72
    16
 73
    12
 74
     0
 42
0.0000000001
 43
0.0000000001
 12
1.0
 22
0.0
 32
0.0
 13
1.0
 23
0.0
 33
0.0
 40
0.0
 40
0.0
 40
0.0
 40
0.0
 40
0.25
 40
0.25
 40
0.25
 40
0.25
 40
0.5
 40
0.5
 40
0.5
 40
0.5
 40
1.0
 40
1.0
 40
1.0
 40
1.0
 10
-46.0024
 20
128.895
 30
0.0
 10
-46.0024
 20
128.895
 30
0.0
 10
-50.8975
 20
128.895
 30
0.0
 10
-50.8975
 20
128.895
 30
0.0
 10
-50.8975
 20
128.895
 30
0.0
 10
-48.4751
 20
127.5855
 30
0.0
 10
-46.8423
 20
125.5869
 30
0.0
 10
-46.0024
 20
123.2737
 30
0.0
 10
-46.0024
 20
123.2737
 30
0.0
 10
-46.0024
 20
123.2737
 30
0.0
 10
-46.0024
 20
128.895
 30
0.0
 10
-46.0024
 20
128.895
 30
0.0
  0
SPLINE
  5
8F
330
1F
100
AcDbEntity
  8
layer 1
 62
     7
100
AcDbSpline
210
0.0
220
0.0
230
1.0
 70
    11
 71
     3
 72
    36
 73
    32
 74
     0
 42
0.0000000001
 43
0.0000000001
 12
1.0
 22
0.0
 32
0.0
 13
1.0
 23
0.0
 33
0.0
 40
0.0
 40
0.0
 40
0.0
 40
0.0
 40
0.1111111111111111
 40
0.1111111111111111
 40
0.1111111111111111
 40
0.1111111111111111
 40
0.2222222222222222
 40
0.2222222222222222
 40
0.2222222222222222
 40
0.2222222222222222
 40
0.3333333333333333
 40
0.3333333333333333
 40
0.3333333333333333
 40
0.3333333333333333
 40
0.4444444444444444
 40
0.4444444444444444
 40
0.4444444444444444
 40
0.4444444444444444
 40
0.5555555555555556
 40
0.5555555555555556
 40
0.5555555555555556
 40
0.5555555555555556
 40
0.6666666666666666
 40
0.6666666666666666
 40
0.6666666666666666
 40
0.6666666666666666
 40
0.7777777777777778
 40
0.7777777777777778
 40
0.7777777777777778
 40
0.7777777777777778
 40
1.0
 40
1.0
 40
1.0
 40
1.0
 10
-46.0024
 20
88.0003
 30
0.0
 10
-46.0024
 20
88.0003
 30
0.0
 10
-46.0024
 20
92.1159
 30
0.0
 10
-46.0024
 20
92.1159
 30
0.0
 10
-46.0024
 20
92.1159
 30
0.0
 10
-46.0024
 20
92.1159
 30
0.0
 10
-50.118
 20
92.1159
 30
0.0
 10
-50.118
 20
92.1159
 30
0.0
 10
-50.118
 20
92.1159
 30
0.0
 10
-50.118
 20
92.1159
 30
0.0
 10
-54.2336
 20
92.1159
 30
0.0
 10
-54.2336
 20
92.1159
 30
0.0
 10
-54.2336
 20
92.1159
 30
0.0
 10
-54.2336
 20
92.1159
 30
0.0
 10
-54.2336
 20
88.0003
 30
0.0
 10
-54.2336
 20
88.0003
 30
0.0
 10
-54.2336
 20
88.0003
 30
0.0
 10
-54.2336
 20
88.0003
 30
0.0
 10
-54.2336
 20
83.8847
 30
0.0
 10
-54.2336
 20
83.8847
 30
0.0
 10
-54.2336
 20
83.8847
 30
0.0
 10
-54.2336
 20
83.8847
 30
0.0
 10
-50.118
 20
83.8847
 30
0.0
 10
-50.118
 20
83.8847
 30
0.0
 10
-50.118
 20
83.8847
 30
0.0
 10
-50.118
 20
83.8847
 30
0.0
 10
-46.0024
 20
83.8847
 30
0.0
 10
-46.0024
 20
83.8847
 30
0.0
 10
-46.0024
 20
83.8847
 30
0.0
 10
-46.0024
 20
83.8847
 30
0.0
 10
-46.0024
 20
88.0003
 30
0.0
 10
-46.0024
 20
88.0003
 30
0.0
  0
SPLINE
  5
90
330
1F
100
AcDbEntity
  8
layer 1
 62
     7
100
AcDbSpline
210
0.0
220
0.0
230
1.0
 70
    11
 71
     3
 72
    36
 73
    32
 74
     0
 42
0.0000000001
 43
0.0000000001
 12
1.0
 22
0.0
 32
0.0
 13
1.0
 23
0.0
 33
0.0
 40
0.0
 40
0.0
 40
0.0
 40
0.0
 40
0.1111111111111111
 40
0.1111111111111111
 40
0.1111111111111111
 40
0.1111111111111111
 40
0.2222222222222222
 40
0.2222222222222222
 40
0.2222222222222222
 40
0.2222222222222222
 40
0.3333333333333333
 40
0.3333333333333333
 40
0.3333333333333333
 40
0.3333333333333333
 40
0.4444444444444444
 40
0.4444444444444444
 40
0.4444444444444444
 40
0.4444444444444444
 40
0.5555555555555556
 40
0.5555555555555556
 40
0.5555555555555556
 40
0.5555555555555556
 40
0.6666666666666666
 40
0.6666666666666666
 40
0.6666666666666666
 40
0.6666666666666666
 40
0.7777777777777778
 40
0.7777777777777778
 40
0.7777777777777778
 40
0.7777777777777778
 40
1.0
 40
1.0
 40
1.0
 40
1.0
 10
-57.6176
 20
88.0003
 30
0.0
 10
-57.6176
 20
88.0003
 30
0.0
 10
-57.6176
 20
92.1159
 30
0.0
 10
-57.6176
 20
92.1159
 30
0.0
 10
-57.6176
 20
92.1159
 30
0.0
 10
-57.6176
 20
92.1159
 30
0.0
 10
-61.7332
 20
92.1159
 30
0.0
 10
-61.7332
 20
92.1159
 30
0.0
 10
-61.7332
 20
92.1159
 30
0.0
 10
-61.7332
 20
92.1159
 30
0.0
 10
-65.8488
 20
92.1159
 30
0.0
 10
-65.8488
 20
92.1159
 30
0.0
 10
-65.8488
 20
92.1159
 30
0.0
 10
-65.8488
 20
92.1159
 30
0.0
 10
-65.8488
 20
88.0003
 30
0.0
 10
-65.8488
 20
88.0003
 30
0.0
 10
-65.8488
 20
88.0003
 30
0.0
 10
-65.8488
 20
88.0003
 30
0.0
 10
-65.8488
 20
83.8847
 30
0.0
 10
-65.8488
 20
83.8847
 30
0.0
 10
-65.8488
 20
83.8847
 30
0.0
 10
-65.8488
 20
83.8847
 30
0.0
 10
-61.7332
 20
83.8847
 30
0.0
 10
-61.7332
 20
83.8847
 30
0.0
 10
-61.7332
 20
83.8847
 30
0.0
 10
-61.7332
 20
83.8847
 30
0.0
 10
-57.6176
 20
83.8847
 30
0.0
 10
-57.6176
 20
83.8847
 30
0.0
 10
-57.6176
 20
83.8847
 30
0.0
 10
-57.6176
 20
83.8847
 30
0.0
 10
-57.6176
 20
88.0003
 30
0.0
 10
-57.6176
 20
88.0003
 30
0.0
  0
SPLINE
  5
91
330
1F
100
AcDbEntity
  8
layer 1
 62
     7
100
AcDbSpline
210
0.0
220
0.0
230
1.0
 70
    11
 71
     3
 72
    36
 73
    32
 74
     0
 42
0.0000000001
 43
0.0000000001
 12
1.0
 22
0.0
 32
0.0
 13
1.0
 23
0.0
 33
0.0
 40
0.0
 40
0.0
 40
0.0
 40
0.0
 40
0.1111111111111111
 40
0.1111111111111111
 40
0.1111111111111111
 40
0.1111111111111111
 40
0.2222222222222222
 40
0.2222222222222222
 40
0.2222222222222222
 40
0.2222222222222222
 40
0.3333333333333333
 40
0.3333333333333333
 40
0.3333333333333333
 40
0.3333333333333333
 40
0.4444444444444444
 40
0.4444444444444444
 40
0.4444444444444444
 40
0.4444444444444444
 40
0.5555555555555556
 40
0.5555555555555556
 40
0.5555555555555556
 40
0.5555555555555556
 40
0.6666666666666666
 40
0.6666666666666666
 40
0.6666666666666666
 40
0.6666666666666666
 40
0.7777777777777778
 40
0.7777777777777778
 40
0.7777777777777778
 40
0.7777777777777778
 40
1.0
 40
1.0
 40
1.0
 40
1.0
 10
-57.6176
 20
-93.985
 30
0.0
 10
-57.6176
 20
-93.985
 30
0.0
 10
-57.6176
 20
-89.1936
 30
0.0
 10
-57.6176
 20
-89.1936
 30
0.0
 10
-57.6176
 20
-89.1936
 30
0.0
 10
-57.6176
 20
-89.1936
 30
0.0
 10
-61.7332
 20
-89.1936
 30
0.0
 10
-61.7332
 20
-89.1936
 30
0.0
 10
-61.7332
 20
-89.1936
 30
0.0
 10
-61.7332
 20
-89.1936
 30
0.0
 10
-65.8488
 20
-89.1936
 30
0.0
 10
-65.8488
 20
-89.1936
 30
0.0
 10
-65.8488
 20
-89.1936
 30
0.0
 10
-65.8488
 20
-89.1936
 30
0.0
 10
-65.8488
 20
-93.985
 30
0.0
 10
-65.8488
 20
-93.985
 30
0.0
 10
-65.8488
 20
-93.985
 30
0.0
 10
-65.8488
 20
-93.985
 30
0.0
 10
-65.8488
 20
-98.7763
 30
0.0
 10
-65.8488
 20
-98.7763
 30
0.0
 10
-65.8488
 20
-98.7763
 30
0.0
 10
-65.8488
 20
-98.7763
 30
0.0
 10
-61.7332
 20
-98.7763
 30
0.0
 10
-61.7332
 20
-98.7763
 30
0.0
 10
-61.7332
 20
-98.7763
 30
0.0
 10
-61.7332
 20
-98.7763
 30
0.0
 10
-57.6176
 20
-98.7763
 30
0.0
 10
-57.6176
 20
-98.7763
 30
0.0
 10
-57.6176
 20
-98.7763
 30
0.0
 10
-57.6176
 20
-98.7763
 30
0.0
 10
-57.6176
 20
-93.985
 30
0.0
 10
-57.6176
 20
-93.985
 30
0.0
  0
SPLINE
  5
92
330
1F
100
AcDbEntity
  8
layer 1
 62
     7
100
AcDbSpline
210
0.0
220
0.0
230
1.0
 70
    11
 71
     3
 72
    36
 73
    32
 74
     0
 42
0.0000000001
 43
0.0000000001
 12
1.0
 22
0.0
 32
0.0
 13
1.0
 23
0.0
 33
0.0
 40
0.0
 40
0.0
 40
0.0
 40
0.0
 40
0.1111111111111111
 40
0.1111111111111111
 40
0.1111111111111111
 40
0.1111111111111111
 40
0.2222222222222222
 40
0.2222222222222222
 40
0.2222222222222222
 40
0.2222222222222222
 40
0.3333333333333333
 40
0.3333333333333333
 40
0.3333333333333333
 40
0.3333333333333333
 40
0.4444444444444444
 40
0.4444444444444444
 40
0.4444444444444444
 40
0.4444444444444444
 40
0.5555555555555556
 40
0.5555555555555556
 40
0.5555555555555556
 40
0.5555555555555556
 40
0.6666666666666666
 40
0.6666666666666666
 40
0.6666666666666666
 40
0.6666666666666666
 40
0.7777777777777778
 40
0.7777777777777778
 40
0.7777777777777778
 40
0.7777777777777778
 40
1.0
 40
1.0
 40
1.0
 40
1.0
 10
-46.0024
 20
-93.985
 30
0.0
 10
-46.0024
 20
-93.985
 30
0.0
 10
-46.0024
 20
-89.1936
 30
0.0
 10
-46.0024
 20
-89.1936
 30
0.0
 10
-46.0024
 20
-89.1936
 30
0.0
 10
-46.0024
 20
-89.1936
 30
0.0
 10
-50.118
 20
-89.1936
 30
0.0
 10
-50.118
 20
-89.1936
 30
0.0
 10
-50.118
 20
-89.1936
 30
0.0
 10
-50.118
 20
-89.1936
 30
0.0
 10
-54.2336
 20
-89.1936
 30
0.0
 10
-54.2336
 20
-89.1936
 30
0.0
 10
-54.2336
 20
-89.1936
 30
0.0
 10
-54.2336
 20
-89.1936
 30
0.0
 10
-54.2336
 20
-93.985
 30
0.0
 10
-54.2336
 20
-93.985
 30
0.0
 10
-54.2336
 20
-93.985
 30
0.0
 10
-54.2336
 20
-93.985
 30
0.0
 10
-54.2336
 20
-98.7763
 30
0.0
 10
-54.2336
 20
-98.7763
 30
0.0
 10
-54.2336
 20
-98.7763
 30
0.0
 10
-54.2336
 20
-98.7763
 30
0.0
 10
-50.118
 20
-98.7763
 30
0.0
 10
-50.118
 20
-98.7763
 30
0.0
 10
-50.118
 20
-98.7763
 30
0.0
 10
-50.118
 20
-98.7763
 30
0.0
 10
-46.0024
 20
-98.7763
 30
0.0
 10
-46.0024
 20
-98.7763
 30
0.0
 10
-46.0024
 20
-98.7763
 30
0.0
 10
-46.0024
 20
-98.7763
 30
0.0
 10
-46.0024
 20
-93.985
 30
0.0
 10
-46.0024
 20
-93.985
 30
0.0
  0
SPLINE
  5
93
330
1F
100
AcDbEntity
  8
layer 1
 62
     7
100
AcDbSpline
210
0.0
220
0.0
230
1.0
 70
    11
 71
     3
 72
    36
 73
    32
 74
     0
 42
0.0000000001
 43
0.0000000001
 12
1.0
 22
0.0
 32
0.0
 13
1.0
 23
0.0
 33
0.0
 40
0.0
 40
0.0
 40
0.0
 40
0.0
 40
0.1111111111111111
 40
0.1111111111111111
 40
0.1111111111111111
 40
0.1111111111111111
 40
0.2222222222222222
 40
0.2222222222222222
 40
0.2222222222222222
 40
0.2222222222222222
 40
0.3333333333333333
 40
0.3333333333333333
 40
0.3333333333333333
 40
0.3333333333333333
 40
0.4444444444444444
 40
0.4444444444444444
 40
0.4444444444444444
 40
0.4444444444444444
 40
0.5555555555555556
 40
0.5555555555555556
 40
0.5555555555555556
 40
0.5555555555555556
 40
0.6666666666666666
 40
0.6666666666666666
 40
0.6666666666666666
 40
0.6666666666666666
 40
0.7777777777777778
 40
0.7777777777777778
 40
0.7777777777777778
 40
0.7777777777777778
 40
1.0
 40
1.0
 40
1.0
 40
1.0
 10
-57.6176
 20
-107.1605
 30
0.0
 10
-57.6176
 20
-107.1605
 30
0.0
 10
-57.6176
 20
-102.3691
 30
0.0
 10
-57.6176
 20
-102.3691
 30
0.0
 10
-57.6176
 20
-102.3691
 30
0.0
 10
-57.6176
 20
-102.3691
 30
0.0
 10
-61.7332
 20
-102.3691
 30
0.0
 10
-61.7332
 20
-102.3691
 30
0.0
 10
-61.7332
 20
-102.3691
 30
0.0
 10
-61.7332
 20
-102.3691
 30
0.0
 10
-65.8488
 20
-102.3691
 30
0.0
 10
-65.8488
 20
-102.3691
 30
0.0
 10
-65.8488
 20
-102.3691
 30
0.0
 10
-65.8488
 20
-102.3691
 30
0.0
 10
-65.8488
 20
-107.1605
 30
0.0
 10
-65.8488
 20
-107.1605
 30
0.0
 10
-65.8488
 20
-107.1605
 30
0.0
 10
-65.8488
 20
-107.1605
 30
0.0
 10
-65.8488
 20
-111.9518
 30
0.0
 10
-65.8488
 20
-111.9518
 30
0.0
 10
-65.8488
 20
-111.9518
 30
0.0
 10
-65.8488
 20
-111.9518
 30
0.0
 10
-61.7332
 20
-111.9518
 30
0.0
 10
-61.7332
 20
-111.9518
 30
0.0
 10
-61.7332
 20
-111.9518
 30
0.0
 10
-61.7332
 20
-111.9518
 30
0.0
 10
-57.6176
 20
-111.9518
 30
0.0
 10
-57.6176
 20
-111.9518
 30
0.0
 10
-57.6176
 20
-111.9518
 30
0.0
 10
-57.6176
 20
-111.9518
 30
0.0
 10
-57.6176
 20
-107.1605
 30
0.0
 10
-57.6176
 20
-107.1605
 30
0.0
  0
SPLINE
  5
94
330
1F
100
AcDbEntity
  8
layer 1
 62
     7
100
AcDbSpline
210
0.0
220
0.0
230
1.0
 70
    11
 71
     3
 72
    36
 73
    32
 74
     0
 42
0.0000000001
 43
0.0000000001
 12
1.0
 22
0.0
 32
0.0
 13
1.0
 23
0.0
 33
0.0
 40
0.0
 40
0.0
 40
0.0
 40
0.0
 40
0.1111111111111111
 40
0.1111111111111111
 40
0.1111111111111111
 40
0.1111111111111111
 40
0.2222222222222222
 40
0.2222222222222222
 40
0.2222222222222222
 40
0.2222222222222222
 40
0.3333333333333333
 40
0.3333333333333333
 40
0.3333333333333333
 40
0.3333333333333333
 40
0.4444444444444444
 40
0.4444444444444444
 40
0.4444444444444444
 40
0.4444444444444444
 40
0.5555555555555556
 40
0.5555555555555556
 40
0.5555555555555556
 40
0.5555555555555556
 40
0.6666666666666666
 40
0.6666666666666666
 40
0.6666666666666666
 40
0.6666666666666666
 40
0.7777777777777778
 40
0.7777777777777778
 40
0.7777777777777778
 40
0.7777777777777778
 40
1.0
 40
1.0
 40
1.0
 40
1.0
 10
-46.0024
 20
-107.1605
 30
0.0
 10
-46.0024
 20
-107.1605
 30
0.0
 10
-46.0024
 20
-102.3691
 30
0.0
 10
-46.0024
 20
-102.3691
 30
0.0
 10
-46.0024
 20
-102.3691
 30
0.0
 10
-46.0024
 20
-102.3691
 30
0.0
 10
-50.118
 20
-102.3691
 30
0.0
 10
-50.118
 20
-102.3691
 30
0.0
 10
-50.118
 20
-102.3691
 30
0.0
 10
-50.118
 20
-102.3691
 30
0.0
 10
-54.2336
 20
-102.3691
 30
0.0
 10
-54.2336
 20
-102.3691
 30
0.0
 10
-54.2336
 20
-102.3691
 30
0.0
 10
-54.2336
 20
-102.3691
 30
0.0
 10
-54.2336
 20
-107.1605
 30
0.0
 10
-54.2336
 20
-107.1605
 30
0.0
 10
-54.2336
 20
-107.1605
 30
0.0
 10
-54.2336
 20
-107.1605
 30
0.0
 10
-54.2336
 20
-111.9518
 30
0.0
 10
-54.2336
 20
-111.9518
 30
0.0
 10
-54.2336
 20
-111.9518
 30
0.0
 10
-54.2336
 20
-111.9518
 30
0.0
 10
-50.118
 20
-111.9518
 30
0.0
 10
-50.118
 20
-111.9518
 30
0.0
 10
-50.118
 20
-111.9518
 30
0.0
 10
-50.118
 20
-111.9518
 30
0.0
 10
-46.0024
 20
-111.9518
 30
0.0
 10
-46.0024
 20
-111.9518
 30
0.0
 10
-46.0024
 20
-111.9518
 30
0.0
 10
-46.0024
 20
-111.9518
 30
0.0
 10
-46.0024
 20
-107.1605
 30
0.0
 10
-46.0024
 20
-107.1605
 30
0.0
  0
SPLINE
  5
95
330
1F
100
AcDbEntity
  8
layer 1
 62
     7
100
AcDbSpline
210
0.0
220
0.0
230
1.0
 70
    11
 71
     3
 72
    36
 73
    32
 74
     0
 42
0.0000000001
 43
0.0000000001
 12
1.0
 22
0.0
 32
0.0
 13
1.0
 23
0.0
 33
0.0
 40
0.0
 40
0.0
 40
0.0
 40
0.0
 40
0.1111111111111111
 40
0.1111111111111111
 40
0.1111111111111111
 40
0.1111111111111111
 40
0.2222222222222222
 40
0.2222222222222222
 40
0.2222222222222222
 40
0.2222222222222222
 40
0.3333333333333333
 40
0.3333333333333333
 40
0.3333333333333333
 40
0.3333333333333333
 40
0.4444444444444444
 40
0.4444444444444444
 40
0.4444444444444444
 40
0.4444444444444444
 40
0.5555555555555556
 40
0.5555555555555556
 40
0.5555555555555556
 40
0.5555555555555556
 40
0.6666666666666666
 40
0.6666666666666666
 40
0.6666666666666666
 40
0.6666666666666666
 40
0.7777777777777778
 40
0.7777777777777778
 40
0.7777777777777778
 40
0.7777777777777778
 40
1.0
 40
1.0
 40
1.0
 40
1.0
 10
-19.5652
 20
-107.1538
 30
0.0
 10
-19.5652
 20
-107.1538
 30
0.0
 10
-19.5652
 20
-102.3625
 30
0.0
 10
-19.5652
 20
-102.3625
 30
0.0
 10
-19.5652
 20
-102.3625
 30
0.0
 10
-19.5652
 20
-102.3625
 30
0.0
 10
-15.4496
 20
-102.3625
 30
0.0
 10
-15.4496
 20
-102.3625
 30
0.0
 10
-15.4496
 20
-102.3625
 30
0.0
 10
-15.4496
 20
-102.3625
 30
0.0
 10
-11.334
 20
-102.3625
 30
0.0
 10
-11.334
 20
-102.3625
 30
0.0
 10
-11.334
 20
-102.3625
 30
0.0
 10
-11.334
 20
-102.3625
 30
0.0
 10
-11.334
 20
-107.1538
 30
0.0
 10
-11.334
 20
-107.1538
 30
0.0
 10
-11.334
 20
-107.1538
 30
0.0
 10
-11.334
 20
-107.1538
 30
0.0
 10
-11.334
 20
-111.9452
 30
0.0
 10
-11.334
 20
-111.9452
 30
0.0
 10
-11.334
 20
-111.9452
 30
0.0
 10
-11.334
 20
-111.9452
 30
0.0
 10
-15.4496
 20
-111.9452
 30
0.0
 10
-15.4496
 20
-111.9452
 30
0.0
 10
-15.4496
 20
-111.9452
 30
0.0
 10
-15.4496
 20
-111.9452
 30
0.0
 10
-19.5652
 20
-111.9452
 30
0.0
 10
-19.5652
 20
-111.9452
 30
0.0
 10
-19.5652
 20
-111.9452
 30
0.0
 10
-19.5652
 20
-111.9452
 30
0.0
 10
-19.5652
 20
-107.1538
 30
0.0
 10
-19.5652
 20
-107.1538
 30
0.0
  0
SPLINE
  5
96
330
1F
100
AcDbEntity
  8
layer 1
 62
     7
100
AcDbSpline
210
0.0
220
0.0
230
1.0
 70
    11
 71
     3
 72
    36
 73
    32
 74
     0
 42
0.0000000001
 43
0.0000000001
 12
1.0
 22
0.0
 32
0.0
 13
1.0
 23
0.0
 33
0.0
 40
0.0
 40
0.0
 40
0.0
 40
0.0
 40
0.1111111111111111
 40
0.1111111111111111
 40
0.1111111111111111
 40
0.1111111111111111
 40
0.2222222222222222
 40
0.2222222222222222
 40
0.2222222222222222
 40
0.2222222222222222
 40
0.3333333333333333
 40
0.3333333333333333
 40
0.3333333333333333
 40
0.3333333333333333
 40
0.4444444444444444
 40
0.4444444444444444
 40
0.4444444444444444
 40
0.4444444444444444
 40
0.5555555555555556
 40
0.5555555555555556
 40
0.5555555555555556
 40
0.5555555555555556
 40
0.6666666666666666
 40
0.6666666666666666
 40
0.6666666666666666
 40
0.6666666666666666
 40
0.7777777777777778
 40
0.7777777777777778
 40
0.7777777777777778
 40
0.7777777777777778
 40
1.0
 40
1.0
 40
1.0
 40
1.0
 10
-19.5652
 20
-94.0084
 30
0.0
 10
-19.5652
 20
-94.0084
 30
0.0
 10
-19.5652
 20
-89.2171
 30
0.0
 10
-19.5652
 20
-89.2171
 30
0.0
 10
-19.5652
 20
-89.2171
 30
0.0
 10
-19.5652
 20
-89.2171
 30
0.0
 10
-15.4496
 20
-89.2171
 30
0.0
 10
-15.4496
 20
-89.2171
 30
0.0
 10
-15.4496
 20
-89.2171
 30
0.0
 10
-15.4496
 20
-89.2171
 30
0.0
 10
-11.334
 20
-89.2171
 30
0.0
 10
-11.334
 20
-89.2171
 30
0.0
 10
-11.334
 20
-89.2171
 30
0.0
 10
-11.334
 20
-89.2171
 30
0.0
 10
-11.334
 20
-94.0084
 30
0.0
 10
-11.334
 20
-94.0084
 30
0.0
 10
-11.334
 20
-94.0084
 30
0.0
 10
-11.334
 20
-94.0084
 30
0.0
 10
-11.334
 20
-98.7997
 30
0.0
 10
-11.334
 20
-98.7997
 30
0.0
 10
-11.334
 20
-98.7997
 30
0.0
 10
-11.334
 20
-98.7997
 30
0.0
 10
-15.4496
 20
-98.7997
 30
0.0
 10
-15.4496
 20
-98.7997
 30
0.0
 10
-15.4496
 20
-98.7997
 30
0.0
 10
-15.4496
 20
-98.7997
 30
0.0
 10
-19.5652
 20
-98.7997
 30
0.0
 10
-19.5652
 20
-98.7997
 30
0.0
 10
-19.5652
 20
-98.7997
 30
0.0
 10
-19.5652
 20
-98.7997
 30
0.0
 10
-19.5652
 20
-94.0084
 30
0.0
 10
-19.5652
 20
-94.0084
 30
0.0
  0
SPLINE
  5
97
330
1F
100
AcDbEntity
  8
layer 1
 62
     7
100
AcDbSpline
210
0.0
220
0.0
230
1.0
 70
    11
 71
     3
 72
    36
 73
    32
 74
     0
 42
0.0000000001
 43
0.0000000001
 12
1.0
 22
0.0
 32
0.0
 13
1.0
 23
0.0
 33
0.0
 40
0.0
 40
0.0
 40
0.0
 40
0.0
 40
0.1111111111111111
 40
0.1111111111111111
 40
0.1111111111111111
 40
0.1111111111111111
 40
0.2222222222222222
 40
0.2222222222222222
 40
0.2222222222222222
 40
0.2222222222222222
 40
0.3333333333333333
 40
0.3333333333333333
 40
0.3333333333333333
 40
0.3333333333333333
 40
0.4444444444444444
 40
0.4444444444444444
 40
0.4444444444444444
 40
0.4444444444444444
 40
0.5555555555555556
 40
0.5555555555555556
 40
0.5555555555555556
 40
0.5555555555555556
 40
0.6666666666666666
 40
0.6666666666666666
 40
0.6666666666666666
 40
0.6666666666666666
 40
0.7777777777777778
 40
0.7777777777777778
 40
0.7777777777777778
 40
0.7777777777777778
 40
1.0
 40
1.0
 40
1.0
 40
1.0
 10
-19.5652
 20
-80.863
 30
0.0
 10
-19.5652
 20
-80.863
 30
0.0
 10
-19.5652
 20
-76.0716
 30
0.0
 10
-19.5652
 20
-76.0716
 30
0.0
 10
-19.5652
 20
-76.0716
 30
0.0
 10
-19.5652
 20
-76.0716
 30
0.0
 10
-15.4496
 20
-76.0716
 30
0.0
 10
-15.4496
 20
-76.0716
 30
0.0
 10
-15.4496
 20
-76.0716
 30
0.0
 10
-15.4496
 20
-76.0716
 30
0.0
 10
-11.334
 20
-76.0716
 30
0.0
 10
-11.334
 20
-76.0716
 30
0.0
 10
-11.334
 20
-76.0716
 30
0.0
 10
-11.334
 20
-76.0716
 30
0.0
 10
-11.334
 20
-80.863
 30
0.0
 10
-11.334
 20
-80.863
 30
0.0
 10
-11.334
 20
-80.863
 30
0.0
 10
-11.334
 20
-80.863
 30
0.0
 10
-11.334
 20
-85.6543
 30
0.0
 10
-11.334
 20
-85.6543
 30
0.0
 10
-11.334
 20
-85.6543
 30
0.0
 10
-11.334
 20
-85.6543
 30
0.0
 10
-15.4496
 20
-85.6543
 30
0.0
 10
-15.4496
 20
-85.6543
 30
0.0
 10
-15.4496
 20
-85.6543
 30
0.0
 10
-15.4496
 20
-85.6543
 30
0.0
 10
-19.5652
 20
-85.6543
 30
0.0
 10
-19.5652
 20
-85.6543
 30
0.0
 10
-19.5652
 20
-85.6543
 30
0.0
 10
-19.5652
 20
-85.6543
 30
0.0
 10
-19.5652
 20
-80.863
 30
0.0
 10
-19.5652
 20
-80.863
 30
0.0
  0
SPLINE
  5
98
330
1F
100
AcDbEntity
  8
layer 1
 62
     7
100
AcDbSpline
210
0.0
220
0.0
230
1.0
 70
    11
 71
     3
 72
    36
 73
    32
 74
     0
 42
0.0000000001
 43
0.0000000001
 12
1.0
 22
0.0
 32
0.0
 13
1.0
 23
0.0
 33
0.0
 40
0.0
 40
0.0
 40
0.0
 40
0.0
 40
0.1111111111111111
 40
0.1111111111111111
 40
0.1111111111111111
 40
0.1111111111111111
 40
0.2222222222222222
 40
0.2222222222222222
 40
0.2222222222222222
 40
0.2222222222222222
 40
0.3333333333333333
 40
0.3333333333333333
 40
0.3333333333333333
 40
0.3333333333333333
 40
0.4444444444444444
 40
0.4444444444444444
 40
0.4444444444444444
 40
0.4444444444444444
 40
0.5555555555555556
 40
0.5555555555555556
 40
0.5555555555555556
 40
0.5555555555555556
 40
0.6666666666666666
 40
0.6666666666666666
 40
0.6666666666666666
 40
0.6666666666666666
 40
0.7777777777777778
 40
0.7777777777777778
 40
0.7777777777777778
 40
0.7777777777777778
 40
1.0
 40
1.0
 40
1.0
 40
1.0
 10
-31.1804
 20
-80.863
 30
0.0
 10
-31.1804
 20
-80.863
 30
0.0
 10
-31.1804
 20
-76.0716
 30
0.0
 10
-31.1804
 20
-76.0716
 30
0.0
 10
-31.1804
 20
-76.0716
 30
0.0
 10
-31.1804
 20
-76.0716
 30
0.0
 10
-27.0648
 20
-76.0716
 30
0.0
 10
-27.0648
 20
-76.0716
 30
0.0
 10
-27.0648
 20
-76.0716
 30
0.0
 10
-27.0648
 20
-76.0716
 30
0.0
 10
-22.9492
 20
-76.0716
 30
0.0
 10
-22.9492
 20
-76.0716
 30
0.0
 10
-22.9492
 20
-76.0716
 30
0.0
 10
-22.9492
 20
-76.0716
 30
0.0
 10
-22.9492
 20
-80.863
 30
0.0
 10
-22.9492
 20
-80.863
 30
0.0
 10
-22.9492
 20
-80.863
 30
0.0
 10
-22.9492
 20
-80.863
 30
0.0
 10
-22.9492
 20
-85.6543
 30
0.0
 10
-22.9492
 20
-85.6543
 30
0.0
 10
-22.9492
 20
-85.6543
 30
0.0
 10
-22.9492
 20
-85.6543
 30
0.0
 10
-27.0648
 20
-85.6543
 30
0.0
 10
-27.0648
 20
-85.6543
 30
0.0
 10
-27.0648
 20
-85.6543
 30
0.0
 10
-27.0648
 20
-85.6543
 30
0.0
 10
-31.1804
 20
-85.6543
 30
0.0
 10
-31.1804
 20
-85.6543
 30
0.0
 10
-31.1804
 20
-85.6543
 30
0.0
 10
-31.1804
 20
-85.6543
 30
0.0
 10
-31.1804
 20
-80.863
 30
0.0
 10
-31.1804
 20
-80.863
 30
0.0
  0
SPLINE
  5
99
330
1F
100
AcDbEntity
  8
layer 1
 62
     7
100
AcDbSpline
210
0.0
220
0.0
230
1.0
 70
    11
 71
     3
 72
    36
 73
    32
 74
     0
 42
0.0000000001
 43
0.0000000001
 12
1.0
 22
0.0
 32
0.0
 13
1.0
 23
0.0
 33
0.0
 40
0.0
 40
0.0
 40
0.0
 40
0.0
 40
0.1111111111111111
 40
0.1111111111111111
 40
0.1111111111111111
 40
0.1111111111111111
 40
0.2222222222222222
 40
0.2222222222222222
 40
0.2222222222222222
 40
0.2222222222222222
 40
0.3333333333333333
 40
0.3333333333333333
 40
0.3333333333333333
 40
0.3333333333333333
 40
0.4444444444444444
 40
0.4444444444444444
 40
0.4444444444444444
 40
0.4444444444444444
 40
0.5555555555555556
 40
0.5555555555555556
 40
0.5555555555555556
 40
0.5555555555555556
 40
0.6666666666666666
 40
0.6666666666666666
 40
0.6666666666666666
 40
0.6666666666666666
 40
0.7777777777777778
 40
0.7777777777777778
 40
0.7777777777777778
 40
0.7777777777777778
 40
1.0
 40
1.0
 40
1.0
 40
1.0
 10
-42.7956
 20
-80.863
 30
0.0
 10
-42.7956
 20
-80.863
 30
0.0
 10
-42.7956
 20
-76.0716
 30
0.0
 10
-42.7956
 20
-76.0716
 30
0.0
 10
-42.7956
 20
-76.0716
 30
0.0
 10
-42.7956
 20
-76.0716
 30
0.0
 10
-38.68
 20
-76.0716
 30
0.0
 10
-38.68
 20
-76.0716
 30
0.0
 10
-38.68
 20
-76.0716
 30
0.0
 10
-38.68
 20
-76.0716
 30
0.0
 10
-34.5644
 20
-76.0716
 30
0.0
 10
-34.5644
 20
-76.0716
 30
0.0
 10
-34.5644
 20
-76.0716
 30
0.0
 10
-34.5644
 20
-76.0716
 30
0.0
 10
-34.5644
 20
-80.863
 30
0.0
 10
-34.5644
 20
-80.863
 30
0.0
 10
-34.5644
 20
-80.863
 30
0.0
 10
-34.5644
 20
-80.863
 30
0.0
 10
-34.5644
 20
-85.6543
 30
0.0
 10
-34.5644
 20
-85.6543
 30
0.0
 10
-34.5644
 20
-85.6543
 30
0.0
 10
-34.5644
 20
-85.6543
 30
0.0
 10
-38.68
 20
-85.6543
 30
0.0
 10
-38.68
 20
-85.6543
 30
0.0
 10
-38.68
 20
-85.6543
 30
0.0
 10
-38.68
 20
-85.6543
 30
0.0
 10
-42.7956
 20
-85.6543
 30
0.0
 10
-42.7956
 20
-85.6543
 30
0.0
 10
-42.7956
 20
-85.6543
 30
0.0
 10
-42.7956
 20
-85.6543
 30
0.0
 10
-42.7956
 20
-80.863
 30
0.0
 10
-42.7956
 20
-80.863
 30
0.0
  0
SPLINE
  5
9A
330
1F
100
AcDbEntity
  8
layer 1
 62
     7
100
AcDbSpline
210
0.0
220
0.0
230
1.0
 70
    11
 71
     3
 72
    28
 73
    24
 74
     0
 42
0.0000000001
 43
0.0000000001
 12
1.0
 22
0.0
 32
0.0
 13
1.0
 23
0.0
 33
0.0
 40
0.0
 40
0.0
 40
0.0
 40
0.0
 40
0.1428571428571428
 40
0.1428571428571428
 40
0.1428571428571428
 40
0.1428571428571428
 40
0.2857142857142857
 40
0.2857142857142857
 40
0.2857142857142857
 40
0.2857142857142857
 40
0.4285714285714285
 40
0.4285714285714285
 40
0.4285714285714285
 40
0.4285714285714285
 40
0.5714285714285714
 40
0.5714285714285714
 40
0.5714285714285714
 40
0.5714285714285714
 40
0.7142857142857143
 40
0.7142857142857143
 40
0.7142857142857143
 40
0.7142857142857143
 40
1.0
 40
1.0
 40
1.0
 40
1.0
 10
-20.3505
 20
-72.5302
 30
0.0
 10
-16.0418
 20
-70.797
 30
0.0
 10
-14.308
 20
-67.423
 30
0.0
 10
-14.9182
 20
-62.9641
 30
0.0
 10
-14.9182
 20
-62.9641
 30
0.0
 10
-15.9716
 20
-57.5071
 30
0.0
 10
-22.4937
 20
-56.2655
 30
0.0
 10
-25.1596
 20
-59.6895
 30
0.0
 10
-25.1596
 20
-59.6895
 30
0.0
 10
-24.6478
 20
-58.2727
 30
0.0
 10
-24.1732
 20
-56.676
 30
0.0
 10
-24.098
 20
-55.3994
 30
0.0
 10
-24.098
 20
-55.3994
 30
0.0
 10
-17.8275
 20
-55.123
 30
0.0
 10
-14.0465
 20
-57.4723
 30
0.0
 10
-11.334
 20
-62.1756
 30
0.0
 10
-11.334
 20
-62.1756
 30
0.0
 10
-11.334
 20
-62.1756
 30
0.0
 10
-11.31
 20
-72.5302
 30
0.0
 10
-11.31
 20
-72.5302
 30
0.0
 10
-11.31
 20
-72.5302
 30
0.0
 10
-11.31
 20
-72.5302
 30
0.0
 10
-20.3505
 20
-72.5302
 30
0.0
 10
-20.3505
 20
-72.5302
 30
0.0
  0
SPLINE
  5
9B
330
1F
100
AcDbEntity
  8
layer 1
 62
     7
100
AcDbSpline
210
0.0
220
0.0
230
1.0
 70
    11
 71
     3
 72
    20
 73
    16
 74
     0
 42
0.0000000001
 43
0.0000000001
 12
1.0
 22
0.0
 32
0.0
 13
1.0
 23
0.0
 33
0.0
 40
0.0
 40
0.0
 40
0.0
 40
0.0
 40
0.2
 40
0.2
 40
0.2
 40
0.2
 40
0.4
 40
0.4
 40
0.4
 40
0.4
 40
0.6
 40
0.6
 40
0.6
 40
0.6
 40
1.0
 40
1.0
 40
1.0
 40
1.0
 10
-42.7956
 20
-64.0133
 30
0.0
 10
-40.9365
 20
-68.8067
 30
0.0
 10
-34.9835
 20
-69.5128
 30
0.0
 10
-32.621
 20
-68.1568
 30
0.0
 10
-32.621
 20
-68.1568
 30
0.0
 10
-30.7509
 20
-70.8896
 30
0.0
 10
-28.4162
 20
-71.9087
 30
0.0
 10
-26.6908
 20
-72.5302
 30
0.0
 10
-26.6908
 20
-72.5302
 30
0.0
 10
-26.6908
 20
-72.5302
 30
0.0
 10
-42.7956
 20
-72.5302
 30
0.0
 10
-42.7956
 20
-72.5302
 30
0.0
 10
-42.7956
 20
-72.5302
 30
0.0
 10
-42.7956
 20
-72.5302
 30
0.0
 10
-42.7956
 20
-64.0133
 30
0.0
 10
-42.7956
 20
-64.0133
 30
0.0
  0
SPLINE
  5
9C
330
1F
100
AcDbEntity
  8
layer 1
 62
     7
100
AcDbSpline
210
0.0
220
0.0
230
1.0
 70
    11
 71
     3
 72
    28
 73
    24
 74
     0
 42
0.0000000001
 43
0.0000000001
 12
1.0
 22
0.0
 32
0.0
 13
1.0
 23
0.0
 33
0.0
 40
0.0
 40
0.0
 40
0.0
 40
0.0
 40
0.1428571428571428
 40
0.1428571428571428
 40
0.1428571428571428
 40
0.1428571428571428
 40
0.2857142857142857
 40
0.2857142857142857
 40
0.2857142857142857
 40
0.2857142857142857
 40
0.4285714285714285
 40
0.4285714285714285
 40
0.4285714285714285
 40
0.4285714285714285
 40
0.5714285714285714
 40
0.5714285714285714
 40
0.5714285714285714
 40
0.5714285714285714
 40
0.7142857142857143
 40
0.7142857142857143
 40
0.7142857142857143
 40
0.7142857142857143
 40
1.0
 40
1.0
 40
1.0
 40
1.0
 10
-29.4632
 20
-65.9994
 30
0.0
 10
-27.6514
 20
-64.7764
 30
0.0
 10
-26.3672
 20
-62.9439
 30
0.0
 10
-25.7694
 20
-61.1208
 30
0.0
 10
-25.7694
 20
-61.1208
 30
0.0
 10
-26.4148
 20
-65.9381
 30
0.0
 10
-21.6412
 20
-66.2948
 30
0.0
 10
-20.8204
 20
-64.9958
 30
0.0
 10
-20.8204
 20
-64.9958
 30
0.0
 10
-21.9335
 20
-64.4202
 30
0.0
 10
-22.049
 20
-62.6137
 30
0.0
 10
-20.9741
 20
-62.1011
 30
0.0
 10
-20.9741
 20
-62.1011
 30
0.0
 10
-17.6839
 20
-61.6081
 30
0.0
 10
-17.8049
 20
-65.7739
 30
0.0
 10
-19.8879
 20
-67.4777
 30
0.0
 10
-19.8879
 20
-67.4777
 30
0.0
 10
-22.1601
 20
-69.4691
 30
0.0
 10
-26.3867
 20
-69.3364
 30
0.0
 10
-29.4632
 20
-65.9994
 30
0.0
 10
-29.4632
 20
-65.9994
 30
0.0
 10
-29.4632
 20
-65.9994
 30
0.0
 10
-29.4632
 20
-65.9994
 30
0.0
 10
-29.4632
 20
-65.9994
 30
0.0
  0
SPLINE
  5
9D
330
1F
100
AcDbEntity
  8
layer 1
 62
     7
100
AcDbSpline
210
0.0
220
0.0
230
1.0
 70
    11
 71
     3
 72
    52
 73
    48
 74
     0
 42
0.0000000001
 43
0.0000000001
 12
1.0
 22
0.0
 32
0.0
 13
1.0
 23
0.0
 33
0.0
 40
0.0
 40
0.0
 40
0.0
 40
0.0
 40
0.0769230769230769
 40
0.0769230769230769
 40
0.0769230769230769
 40
0.0769230769230769
 40
0.1538461538461539
 40
0.1538461538461539
 40
0.1538461538461539
 40
0.1538461538461539
 40
0.2307692307692308
 40
0.2307692307692308
 40
0.2307692307692308
 40
0.2307692307692308
 40
0.3076923076923077
 40
0.3076923076923077
 40
0.3076923076923077
 40
0.3076923076923077
 40
0.3846153846153846
 40
0.3846153846153846
 40
0.3846153846153846
 40
0.3846153846153846
 40
0.4615384615384616
 40
0.4615384615384616
 40
0.4615384615384616
 40
0.4615384615384616
 40
0.5384615384615384
 40
0.5384615384615384
 40
0.5384615384615384
 40
0.5384615384615384
 40
0.6153846153846154
 40
0.6153846153846154
 40
0.6153846153846154
 40
0.6153846153846154
 40
0.6923076923076923
 40
0.6923076923076923
 40
0.6923076923076923
 40
0.6923076923076923
 40
0.7692307692307693
 40
0.7692307692307693
 40
0.7692307692307693
 40
0.7692307692307693
 40
0.8461538461538461
 40
0.8461538461538461
 40
0.8461538461538461
 40
0.8461538461538461
 40
1.0
 40
1.0
 40
1.0
 40
1.0
 10
-38.2872
 20
-60.1006
 30
0.0
 10
-38.2872
 20
-58.2507
 30
0.0
 10
-36.3615
 20
-56.8957
 30
0.0
 10
-34.7121
 20
-57.5849
 30
0.0
 10
-34.7121
 20
-57.5849
 30
0.0
 10
-34.0656
 20
-57.8551
 30
0.0
 10
-33.9574
 20
-57.6594
 30
0.0
 10
-34.3669
 20
-56.9607
 30
0.0
 10
-34.3669
 20
-56.9607
 30
0.0
 10
-37.0721
 20
-53.2811
 30
0.0
 10
-41.4256
 20
-54.1457
 30
0.0
 10
-42.8155
 20
-57.6432
 30
0.0
 10
-42.8155
 20
-57.6432
 30
0.0
 10
-42.8155
 20
-57.6432
 30
0.0
 10
-42.7947
 20
-49.658
 30
0.0
 10
-42.7947
 20
-49.658
 30
0.0
 10
-42.7947
 20
-49.658
 30
0.0
 10
-40.1706
 20
-54.5223
 30
0.0
 10
-33.5628
 20
-52.7507
 30
0.0
 10
-34.2103
 20
-47.5034
 30
0.0
 10
-34.2103
 20
-47.5034
 30
0.0
 10
-35.4584
 20
-49.0578
 30
0.0
 10
-37.7455
 20
-49.106
 30
0.0
 10
-38.8836
 20
-47.672
 30
0.0
 10
-38.8836
 20
-47.672
 30
0.0
 10
-39.8084
 20
-46.4272
 30
0.0
 10
-39.6557
 20
-45.2921
 30
0.0
 10
-38.3864
 20
-43.9773
 30
0.0
 10
-38.3864
 20
-43.9773
 30
0.0
 10
-36.6414
 20
-42.1698
 30
0.0
 10
-32.9905
 20
-42.1915
 30
0.0
 10
-30.9347
 20
-44.3316
 30
0.0
 10
-30.9347
 20
-44.3316
 30
0.0
 10
-29.5648
 20
-45.5064
 30
0.0
 10
-27.9346
 20
-49.5891
 30
0.0
 10
-27.8845
 20
-51.145
 30
0.0
 10
-27.8845
 20
-51.145
 30
0.0
 10
-32.5195
 20
-53.1957
 30
0.0
 10
-33.9354
 20
-58.1487
 30
0.0
 10
-32.8817
 20
-61.8064
 30
0.0
 10
-32.8817
 20
-61.8064
 30
0.0
 10
-34.5568
 20
-63.6724
 30
0.0
 10
-38.2335
 20
-62.8705
 30
0.0
 10
-38.2871
 20
-60.1006
 30
0.0
 10
-38.2871
 20
-60.1006
 30
0.0
 10
-38.2871
 20
-60.1006
 30
0.0
 10
-38.2872
 20
-60.1006
 30
0.0
 10
-38.2872
 20
-60.1006
 30
0.0
  0
SPLINE
  5
9E
330
1F
100
AcDbEntity
  8
layer 1
 62
     7
100
AcDbSpline
210
0.0
220
0.0
230
1.0
 70
    11
 71
     3
 72
    12
 73
     8
 74
     0
 42
0.0000000001
 43
0.0000000001
 12
1.0
 22
0.0
 32
0.0
 13
1.0
 23
0.0
 33
0.0
 40
0.0
 40
0.0
 40
0.0
 40
0.0
 40
0.3333333333333333
 40
0.3333333333333333
 40
0.3333333333333333
 40
0.3333333333333333
 40
1.0
 40
1.0
 40
1.0
 40
1.0
 10
-28.0719
 20
-55.1158
 30
0.0
 10
-27.8489
 20
-56.9835
 30
0.0
 10
-29.3804
 20
-60.2309
 30
0.0
 10
-31.2527
 20
-60.9935
 30
0.0
 10
-31.2527
 20
-60.9935
 30
0.0
 10
-32.1536
 20
-58.3718
 30
0.0
 10
-30.3418
 20
-55.3351
 30
0.0
 10
-28.0719
 20
-55.1158
 30
0.0
  0
SPLINE
  5
9F
330
1F
100
AcDbEntity
  8
layer 1
 62
     7
100
AcDbSpline
210
0.0
220
0.0
230
1.0
 70
    11
 71
     3
 72
    24
 73
    20
 74
     0
 42
0.0000000001
 43
0.0000000001
 12
1.0
 22
0.0
 32
0.0
 13
1.0
 23
0.0
 33
0.0
 40
0.0
 40
0.0
 40
0.0
 40
0.0
 40
0.1666666666666667
 40
0.1666666666666667
 40
0.1666666666666667
 40
0.1666666666666667
 40
0.3333333333333333
 40
0.3333333333333333
 40
0.3333333333333333
 40
0.3333333333333333
 40
0.5
 40
0.5
 40
0.5
 40
0.5
 40
0.6666666666666666
 40
0.6666666666666666
 40
0.6666666666666666
 40
0.6666666666666666
 40
1.0
 40
1.0
 40
1.0
 40
1.0
 10
-24.3204
 20
-50.4825
 30
0.0
 10
-24.5509
 20
-47.1279
 30
0.0
 10
-25.9762
 20
-44.7839
 30
0.0
 10
-27.3867
 20
-42.2046
 30
0.0
 10
-27.3867
 20
-42.2046
 30
0.0
 10
-18.8595
 20
-44.1233
 30
0.0
 10
-14.2653
 20
-41.1284
 30
0.0
 10
-11.4098
 20
-34.336
 30
0.0
 10
-11.4098
 20
-34.336
 30
0.0
 10
-11.4098
 20
-34.336
 30
0.0
 10
-11.334
 20
-56.1844
 30
0.0
 10
-11.334
 20
-56.1844
 30
0.0
 10
-11.334
 20
-56.1844
 30
0.0
 10
-14.4199
 20
-51.4797
 30
0.0
 10
-19.4959
 20
-50.721
 30
0.0
 10
-24.3204
 20
-50.4824
 30
0.0
 10
-24.3204
 20
-50.4824
 30
0.0
 10
-24.3204
 20
-50.4824
 30
0.0
 10
-24.3204
 20
-50.4825
 30
0.0
 10
-24.3204
 20
-50.4825
 30
0.0
  0
SPLINE
  5
A0
330
1F
100
AcDbEntity
  8
layer 1
 62
     7
100
AcDbSpline
210
0.0
220
0.0
230
1.0
 70
    11
 71
     3
 72
    64
 73
    60
 74
     0
 42
0.0000000001
 43
0.0000000001
 12
1.0
 22
0.0
 32
0.0
 13
1.0
 23
0.0
 33
0.0
 40
0.0
 40
0.0
 40
0.0
 40
0.0
 40
0.0625
 40
0.0625
 40
0.0625
 40
0.0625
 40
0.125
 40
0.125
 40
0.125
 40
0.125
 40
0.1875
 40
0.1875
 40
0.1875
 40
0.1875
 40
0.25
 40
0.25
 40
0.25
 40
0.25
 40
0.3125
 40
0.3125
 40
0.3125
 40
0.3125
 40
0.375
 40
0.375
 40
0.375
 40
0.375
 40
0.4375
 40
0.4375
 40
0.4375
 40
0.4375
 40
0.5
 40
0.5
 40
0.5
 40
0.5
 40
0.5625
 40
0.5625
 40
0.5625
 40
0.5625
 40
0.625
 40
0.625
 40
0.625
 40
0.625
 40
0.6875
 40
0.6875
 40
0.6875
 40
0.6875
 40
0.75
 40
0.75
 40
0.75
 40
0.75
 40
0.8125
 40
0.8125
 40
0.8125
 40
0.8125
 40
0.875
 40
0.875
 40
0.875
 40
0.875
 40
1.0
 40
1.0
 40
1.0
 40
1.0
 10
-42.7956
 20
-31.4351
 30
0.0
 10
-42.7956
 20
-28.1958
 30
0.0
 10
-38.2584
 20
-15.9703
 30
0.0
 10
-32.6495
 20
-10.3965
 30
0.0
 10
-32.6495
 20
-10.3965
 30
0.0
 10
-30.7948
 20
-8.5533
 30
0.0
 10
-30.2479
 20
-8.2162
 30
0.0
 10
-29.0942
 20
-8.2043
 30
0.0
 10
-29.0942
 20
-8.2043
 30
0.0
 10
-28.1001
 20
-8.1941
 30
0.0
 10
-27.7286
 20
-8.3689
 30
0.0
 10
-26.138
 20
-9.5953
 30
0.0
 10
-26.138
 20
-9.5953
 30
0.0
 10
-23.7579
 20
-11.4302
 30
0.0
 10
-20.1634
 20
-15.281
 30
0.0
 10
-19.2458
 20
-16.9788
 30
0.0
 10
-19.2458
 20
-16.9788
 30
0.0
 10
-17.9407
 20
-20.4154
 30
0.0
 10
-21.2558
 20
-23.6585
 30
0.0
 10
-23.9138
 20
-22.114
 30
0.0
 10
-23.9138
 20
-22.114
 30
0.0
 10
-25.1769
 20
-21.3687
 30
0.0
 10
-25.1509
 20
-19.7202
 30
0.0
 10
-23.8623
 20
-18.8443
 30
0.0
 10
-23.8623
 20
-18.8443
 30
0.0
 10
-23.2773
 20
-18.5218
 30
0.0
 10
-22.7272
 20
-18.5178
 30
0.0
 10
-22.095
 20
-18.7659
 30
0.0
 10
-22.095
 20
-18.7659
 30
0.0
 10
-21.996
 20
-18.0488
 30
0.0
 10
-22.1223
 20
-17.4982
 30
0.0
 10
-22.3461
 20
-17.0165
 30
0.0
 10
-22.3461
 20
-17.0165
 30
0.0
 10
-25.1149
 20
-12.6391
 30
0.0
 10
-31.4012
 20
-13.6285
 30
0.0
 10
-31.8571
 20
-18.305
 30
0.0
 10
-31.8571
 20
-18.305
 30
0.0
 10
-31.8224
 20
-21.59
 30
0.0
 10
-31.0093
 20
-23.4335
 30
0.0
 10
-27.565
 20
-25.3329
 30
0.0
 10
-27.565
 20
-25.3329
 30
0.0
 10
-27.4896
 20
-25.3329
 30
0.0
 10
-27.428
 20
-25.3755
 30
0.0
 10
-27.428
 20
-25.4277
 30
0.0
 10
-27.428
 20
-25.4277
 30
0.0
 10
-33.9269
 20
-26.0635
 30
0.0
 10
-34.9243
 20
-34.157
 30
0.0
 10
-31.5528
 20
-38.6011
 30
0.0
 10
-31.5528
 20
-38.6011
 30
0.0
 10
-36.3372
 20
-36.5807
 30
0.0
 10
-41.2986
 20
-38.8458
 30
0.0
 10
-42.7957
 20
-43.3717
 30
0.0
 10
-42.7957
 20
-43.3717
 30
0.0
 10
-42.774
 20
-39.1504
 30
0.0
 10
-42.7957
 20
-35.9071
 30
0.0
 10
-42.7957
 20
-31.4351
 30
0.0
 10
-42.7957
 20
-31.4351
 30
0.0
 10
-42.7957
 20
-31.4351
 30
0.0
 10
-42.7956
 20
-31.4351
 30
0.0
 10
-42.7956
 20
-31.4351
 30
0.0
  0
SPLINE
  5
A1
330
1F
100
AcDbEntity
  8
layer 1
 62
     7
100
AcDbSpline
210
0.0
220
0.0
230
1.0
 70
    11
 71
     3
 72
    36
 73
    32
 74
     0
 42
0.0000000001
 43
0.0000000001
 12
1.0
 22
0.0
 32
0.0
 13
1.0
 23
0.0
 33
0.0
 40
0.0
 40
0.0
 40
0.0
 40
0.0
 40
0.1111111111111111
 40
0.1111111111111111
 40
0.1111111111111111
 40
0.1111111111111111
 40
0.2222222222222222
 40
0.2222222222222222
 40
0.2222222222222222
 40
0.2222222222222222
 40
0.3333333333333333
 40
0.3333333333333333
 40
0.3333333333333333
 40
0.3333333333333333
 40
0.4444444444444444
 40
0.4444444444444444
 40
0.4444444444444444
 40
0.4444444444444444
 40
0.5555555555555556
 40
0.5555555555555556
 40
0.5555555555555556
 40
0.5555555555555556
 40
0.6666666666666666
 40
0.6666666666666666
 40
0.6666666666666666
 40
0.6666666666666666
 40
0.7777777777777778
 40
0.7777777777777778
 40
0.7777777777777778
 40
0.7777777777777778
 40
1.0
 40
1.0
 40
1.0
 40
1.0
 10
-26.5261
 20
-33.678
 30
0.0
 10
-26.7019
 20
-30.8239
 30
0.0
 10
-23.1487
 20
-30.4587
 30
0.0
 10
-21.9476
 20
-32.7655
 30
0.0
 10
-21.9476
 20
-32.7655
 30
0.0
 10
-20.5495
 20
-30.0834
 30
0.0
 10
-21.4841
 20
-27.8171
 30
0.0
 10
-23.4966
 20
-26.2771
 30
0.0
 10
-23.4966
 20
-26.2771
 30
0.0
 10
-21.1938
 20
-25.837
 30
0.0
 10
-19.1988
 20
-25.0651
 30
0.0
 10
-17.7037
 20
-23.6604
 30
0.0
 10
-17.7037
 20
-23.6604
 30
0.0
 10
-16.5077
 20
-22.3553
 30
0.0
 10
-16.2044
 20
-23.0523
 30
0.0
 10
-15.8576
 20
-24.2885
 30
0.0
 10
-15.8576
 20
-24.2885
 30
0.0
 10
-15.4827
 20
-26.4933
 30
0.0
 10
-15.3628
 20
-28.6821
 30
0.0
 10
-15.9059
 20
-30.6402
 30
0.0
 10
-15.9059
 20
-30.6402
 30
0.0
 10
-16.8566
 20
-34.0395
 30
0.0
 10
-19.1185
 20
-36.969
 30
0.0
 10
-21.2094
 20
-37.5092
 30
0.0
 10
-21.2094
 20
-37.5092
 30
0.0
 10
-25.0158
 20
-37.993
 30
0.0
 10
-26.4545
 20
-35.8321
 30
0.0
 10
-26.5261
 20
-33.678
 30
0.0
 10
-26.5261
 20
-33.678
 30
0.0
 10
-26.5261
 20
-33.678
 30
0.0
 10
-26.5261
 20
-33.678
 30
0.0
 10
-26.5261
 20
-33.678
 30
0.0
  0
SPLINE
  5
A2
330
1F
100
AcDbEntity
  8
layer 1
 62
     7
100
AcDbSpline
210
0.0
220
0.0
230
1.0
 70
    11
 71
     3
 72
    68
 73
    64
 74
     0
 42
0.0000000001
 43
0.0000000001
 12
1.0
 22
0.0
 32
0.0
 13
1.0
 23
0.0
 33
0.0
 40
0.0
 40
0.0
 40
0.0
 40
0.0
 40
0.0588235294117647
 40
0.0588235294117647
 40
0.0588235294117647
 40
0.0588235294117647
 40
0.1176470588235294
 40
0.1176470588235294
 40
0.1176470588235294
 40
0.1176470588235294
 40
0.1764705882352941
 40
0.1764705882352941
 40
0.1764705882352941
 40
0.1764705882352941
 40
0.2352941176470588
 40
0.2352941176470588
 40
0.2352941176470588
 40
0.2352941176470588
 40
0.2941176470588235
 40
0.2941176470588235
 40
0.2941176470588235
 40
0.2941176470588235
 40
0.3529411764705883
 40
0.3529411764705883
 40
0.3529411764705883
 40
0.3529411764705883
 40
0.4117647058823529
 40
0.4117647058823529
 40
0.4117647058823529
 40
0.4117647058823529
 40
0.4705882352941176
 40
0.4705882352941176
 40
0.4705882352941176
 40
0.4705882352941176
 40
0.5294117647058824
 40
0.5294117647058824
 40
0.5294117647058824
 40
0.5294117647058824
 40
0.5882352941176471
 40
0.5882352941176471
 40
0.5882352941176471
 40
0.5882352941176471
 40
0.6470588235294118
 40
0.6470588235294118
 40
0.6470588235294118
 40
0.6470588235294118
 40
0.7058823529411765
 40
0.7058823529411765
 40
0.7058823529411765
 40
0.7058823529411765
 40
0.7647058823529411
 40
0.7647058823529411
 40
0.7647058823529411
 40
0.7647058823529411
 40
0.8235294117647058
 40
0.8235294117647058
 40
0.8235294117647058
 40
0.8235294117647058
 40
0.8823529411764706
 40
0.8823529411764706
 40
0.8823529411764706
 40
0.8823529411764706
 40
1.0
 40
1.0
 40
1.0
 40
1.0
 10
-14.9617
 20
-17.4087
 30
0.0
 10
-13.5232
 20
-7.7538
 30
0.0
 10
-21.2896
 20
-3.5363
 30
0.0
 10
-28.5434
 20
-3.3122
 30
0.0
 10
-28.5434
 20
-3.3122
 30
0.0
 10
-31.0507
 20
0.8911
 30
0.0
 10
-33.2334
 20
5.7313
 30
0.0
 10
-34.2991
 20
9.865
 30
0.0
 10
-34.2991
 20
9.865
 30
0.0
 10
-35.46
 20
14.4814
 30
0.0
 10
-36.0144
 20
20.9136
 30
0.0
 10
-35.4179
 20
22.8439
 30
0.0
 10
-35.4179
 20
22.8439
 30
0.0
 10
-34.9438
 20
24.1467
 30
0.0
 10
-34.3073
 20
24.9565
 30
0.0
 10
-33.4205
 20
25.8731
 30
0.0
 10
-33.4205
 20
25.8731
 30
0.0
 10
-29.7527
 20
22.877
 30
0.0
 10
-22.0144
 20
22.9768
 30
0.0
 10
-18.9175
 20
26.5301
 30
0.0
 10
-18.9175
 20
26.5301
 30
0.0
 10
-16.3415
 20
25.4339
 30
0.0
 10
-16.7437
 20
22.3456
 30
0.0
 10
-17.4497
 20
20.7123
 30
0.0
 10
-17.4497
 20
20.7123
 30
0.0
 10
-19.7665
 20
17.1221
 30
0.0
 10
-24.4414
 20
17.4101
 30
0.0
 10
-26.1426
 20
21.1062
 30
0.0
 10
-26.1426
 20
21.1062
 30
0.0
 10
-27.462
 20
20.1627
 30
0.0
 10
-28.0489
 20
18.4323
 30
0.0
 10
-27.308
 20
16.2845
 30
0.0
 10
-27.308
 20
16.2845
 30
0.0
 10
-25.7195
 20
13.3363
 30
0.0
 10
-22.3067
 20
12.6426
 30
0.0
 10
-19.1966
 20
13.413
 30
0.0
 10
-19.1966
 20
13.413
 30
0.0
 10
-15.0876
 20
14.5204
 30
0.0
 10
-12.3207
 20
18.1238
 30
0.0
 10
-12.3177
 20
22.3719
 30
0.0
 10
-12.3177
 20
22.3719
 30
0.0
 10
-12.3163
 20
24.3502
 30
0.0
 10
-12.9048
 20
26.2665
 30
0.0
 10
-13.9684
 20
27.747
 30
0.0
 10
-13.9684
 20
27.747
 30
0.0
 10
-13.9684
 20
27.747
 30
0.0
 10
-14.3947
 20
28.3404
 30
0.0
 10
-14.3947
 20
28.3404
 30
0.0
 10
-14.3947
 20
28.3404
 30
0.0
 10
-10.5416
 20
35.2432
 30
0.0
 10
-11.3099
 20
44.8502
 30
0.0
 10
-17.2677
 20
48.5108
 30
0.0
 10
-17.2677
 20
48.5108
 30
0.0
 10
-14.9248
 20
48.6072
 30
0.0
 10
-12.3871
 20
49.8656
 30
0.0
 10
-11.31
 20
51.5236
 30
0.0
 10
-11.31
 20
51.5236
 30
0.0
 10
-11.31
 20
51.5236
 30
0.0
 10
-11.349
 20
-25.0257
 30
0.0
 10
-11.349
 20
-25.0257
 30
0.0
 10
-11.349
 20
-25.0257
 30
0.0
 10
-12.1789
 20
-22.2055
 30
0.0
 10
-13.448
 20
-19.6509
 30
0.0
 10
-14.9617
 20
-17.4087
 30
0.0
  0
SPLINE
  5
A3
330
1F
100
AcDbEntity
  8
layer 1
 62
     7
100
AcDbSpline
210
0.0
220
0.0
230
1.0
 70
    11
 71
     3
 72
    32
 73
    28
 74
     0
 42
0.0000000001
 43
0.0000000001
 12
1.0
 22
0.0
 32
0.0
 13
1.0
 23
0.0
 33
0.0
 40
0.0
 40
0.0
 40
0.0
 40
0.0
 40
0.125
 40
0.125
 40
0.125
 40
0.125
 40
0.25
 40
0.25
 40
0.25
 40
0.25
 40
0.375
 40
0.375
 40
0.375
 40
0.375
 40
0.5
 40
0.5
 40
0.5
 40
0.5
 40
0.625
 40
0.625
 40
0.625
 40
0.625
 40
0.75
 40
0.75
 40
0.75
 40
0.75
 40
1.0
 40
1.0
 40
1.0
 40
1.0
 10
-42.803
 20
-4.8366
 30
0.0
 10
-41.8866
 20
-6.8301
 30
0.0
 10
-39.4638
 20
-7.3273
 30
0.0
 10
-37.9913
 20
-6.5849
 30
0.0
 10
-37.9913
 20
-6.5849
 30
0.0
 10
-36.8936
 20
-5.997
 30
0.0
 10
-35.7971
 20
-3.788
 30
0.0
 10
-36.5587
 20
-2.77
 30
0.0
 10
-36.5587
 20
-2.77
 30
0.0
 10
-37.5835
 20
-3.2913
 30
0.0
 10
-38.672
 20
-4.1404
 30
0.0
 10
-39.3087
 20
-2.9106
 30
0.0
 10
-39.3087
 20
-2.9106
 30
0.0
 10
-39.8955
 20
-1.2328
 30
0.0
 10
-38.0156
 20
0.5653
 30
0.0
 10
-36.1617
 20
0.4666
 30
0.0
 10
-36.1617
 20
0.4666
 30
0.0
 10
-34.3801
 20
0.2793
 30
0.0
 10
-33.4901
 20
-0.8357
 30
0.0
 10
-31.1146
 20
-3.7919
 30
0.0
 10
-31.1146
 20
-3.7919
 30
0.0
 10
-35.7711
 20
-6.2526
 30
0.0
 10
-40.59
 20
-11.2207
 30
0.0
 10
-42.8077
 20
-15.4288
 30
0.0
 10
-42.8077
 20
-15.4288
 30
0.0
 10
-42.8077
 20
-15.4288
 30
0.0
 10
-42.803
 20
-4.8366
 30
0.0
 10
-42.803
 20
-4.8366
 30
0.0
  0
SPLINE
  5
A4
330
1F
100
AcDbEntity
  8
layer 1
 62
     7
100
AcDbSpline
210
0.0
220
0.0
230
1.0
 70
    11
 71
     3
 72
    12
 73
     8
 74
     0
 42
0.0000000001
 43
0.0000000001
 12
1.0
 22
0.0
 32
0.0
 13
1.0
 23
0.0
 33
0.0
 40
0.0
 40
0.0
 40
0.0
 40
0.0
 40
0.3333333333333333
 40
0.3333333333333333
 40
0.3333333333333333
 40
0.3333333333333333
 40
1.0
 40
1.0
 40
1.0
 40
1.0
 10
-25.5824
 20
-6.8566
 30
0.0
 10
-21.4336
 20
-6.9269
 30
0.0
 10
-17.1103
 20
-10.1097
 30
0.0
 10
-16.9289
 20
-14.4602
 30
0.0
 10
-16.9289
 20
-14.4602
 30
0.0
 10
-19.9468
 20
-10.4135
 30
0.0
 10
-21.7684
 20
-8.8297
 30
0.0
 10
-25.5824
 20
-6.8566
 30
0.0
  0
SPLINE
  5
A5
330
1F
100
AcDbEntity
  8
layer 1
 62
     7
100
AcDbSpline
210
0.0
220
0.0
230
1.0
 70
    11
 71
     3
 72
    24
 73
    20
 74
     0
 42
0.0000000001
 43
0.0000000001
 12
1.0
 22
0.0
 32
0.0
 13
1.0
 23
0.0
 33
0.0
 40
0.0
 40
0.0
 40
0.0
 40
0.0
 40
0.1666666666666667
 40
0.1666666666666667
 40
0.1666666666666667
 40
0.1666666666666667
 40
0.3333333333333333
 40
0.3333333333333333
 40
0.3333333333333333
 40
0.3333333333333333
 40
0.5
 40
0.5
 40
0.5
 40
0.5
 40
0.6666666666666666
 40
0.6666666666666666
 40
0.6666666666666666
 40
0.6666666666666666
 40
1.0
 40
1.0
 40
1.0
 40
1.0
 10
-42.8006
 20
36.5858
 30
0.0
 10
-41.8238
 20
32.7867
 30
0.0
 10
-39.0684
 20
29.4355
 30
0.0
 10
-36.7648
 20
27.8225
 30
0.0
 10
-36.7648
 20
27.8225
 30
0.0
 10
-38.8236
 20
25.308
 30
0.0
 10
-40.2784
 20
21.4291
 30
0.0
 10
-39.5344
 20
16.9291
 30
0.0
 10
-39.5344
 20
16.9291
 30
0.0
 10
-38.6729
 20
11.9671
 30
0.0
 10
-37.2756
 20
7.5836
 30
0.0
 10
-35.782
 20
3.1237
 30
0.0
 10
-35.782
 20
3.1237
 30
0.0
 10
-39.9944
 20
3.8029
 30
0.0
 10
-41.7799
 20
2.222
 30
0.0
 10
-42.7906
 20
-0.0248
 30
0.0
 10
-42.7906
 20
-0.0248
 30
0.0
 10
-42.7906
 20
-0.0248
 30
0.0
 10
-42.8006
 20
36.5858
 30
0.0
 10
-42.8006
 20
36.5858
 30
0.0
  0
SPLINE
  5
A6
330
1F
100
AcDbEntity
  8
layer 1
 62
     7
100
AcDbSpline
210
0.0
220
0.0
230
1.0
 70
    11
 71
     3
 72
    12
 73
     8
 74
     0
 42
0.0000000001
 43
0.0000000001
 12
1.0
 22
0.0
 32
0.0
 13
1.0
 23
0.0
 33
0.0
 40
0.0
 40
0.0
 40
0.0
 40
0.0
 40
0.3333333333333333
 40
0.3333333333333333
 40
0.3333333333333333
 40
0.3333333333333333
 40
1.0
 40
1.0
 40
1.0
 40
1.0
 10
-30.6745
 20
29.1062
 30
0.0
 10
-28.4471
 20
31.1539
 30
0.0
 10
-21.7189
 20
30.812
 30
0.0
 10
-20.61
 20
28.3538
 30
0.0
 10
-20.61
 20
28.3538
 30
0.0
 10
-22.3912
 20
26.2805
 30
0.0
 10
-29.3134
 20
26.975
 30
0.0
 10
-30.6745
 20
29.1062
 30
0.0
  0
SPLINE
  5
A7
330
1F
100
AcDbEntity
  8
layer 1
 62
     7
100
AcDbSpline
210
0.0
220
0.0
230
1.0
 70
    11
 71
     3
 72
    64
 73
    60
 74
     0
 42
0.0000000001
 43
0.0000000001
 12
1.0
 22
0.0
 32
0.0
 13
1.0
 23
0.0
 33
0.0
 40
0.0
 40
0.0
 40
0.0
 40
0.0
 40
0.0625
 40
0.0625
 40
0.0625
 40
0.0625
 40
0.125
 40
0.125
 40
0.125
 40
0.125
 40
0.1875
 40
0.1875
 40
0.1875
 40
0.1875
 40
0.25
 40
0.25
 40
0.25
 40
0.25
 40
0.3125
 40
0.3125
 40
0.3125
 40
0.3125
 40
0.375
 40
0.375
 40
0.375
 40
0.375
 40
0.4375
 40
0.4375
 40
0.4375
 40
0.4375
 40
0.5
 40
0.5
 40
0.5
 40
0.5
 40
0.5625
 40
0.5625
 40
0.5625
 40
0.5625
 40
0.625
 40
0.625
 40
0.625
 40
0.625
 40
0.6875
 40
0.6875
 40
0.6875
 40
0.6875
 40
0.75
 40
0.75
 40
0.75
 40
0.75
 40
0.8125
 40
0.8125
 40
0.8125
 40
0.8125
 40
0.875
 40
0.875
 40
0.875
 40
0.875
 40
1.0
 40
1.0
 40
1.0
 40
1.0
 10
-32.3089
 20
31.2196
 30
0.0
 10
-33.68
 20
30.3029
 30
0.0
 10
-33.5752
 20
30.2852
 30
0.0
 10
-34.788
 20
31.6398
 30
0.0
 10
-34.788
 20
31.6398
 30
0.0
 10
-37.354
 20
34.5059
 30
0.0
 10
-38.7453
 20
37.4449
 30
0.0
 10
-39.2948
 20
41.1603
 30
0.0
 10
-39.2948
 20
41.1603
 30
0.0
 10
-39.6758
 20
43.7371
 30
0.0
 10
-39.3501
 20
46.7887
 30
0.0
 10
-38.4193
 20
49.3626
 30
0.0
 10
-38.4193
 20
49.3626
 30
0.0
 10
-38.1532
 20
50.0985
 30
0.0
 10
-37.6954
 20
51.1431
 30
0.0
 10
-37.5733
 20
51.293
 30
0.0
 10
-37.5733
 20
51.293
 30
0.0
 10
-31.6896
 20
50.3492
 30
0.0
 10
-25.1482
 20
55.0349
 30
0.0
 10
-24.5124
 20
61.3779
 30
0.0
 10
-24.5124
 20
61.3779
 30
0.0
 10
-23.9814
 20
61.7688
 30
0.0
 10
-22.4977
 20
62.6558
 30
0.0
 10
-22.4518
 20
62.6099
 30
0.0
 10
-22.4518
 20
62.6099
 30
0.0
 10
-24.5617
 20
57.5943
 30
0.0
 10
-24.4539
 20
53.4765
 30
0.0
 10
-20.8197
 20
50.1558
 30
0.0
 10
-20.8197
 20
50.1558
 30
0.0
 10
-24.0248
 20
50.3385
 30
0.0
 10
-27.517
 20
49.7006
 30
0.0
 10
-29.6103
 20
47.8327
 30
0.0
 10
-29.6103
 20
47.8327
 30
0.0
 10
-32.655
 20
44.9116
 30
0.0
 10
-32.9225
 20
40.3265
 30
0.0
 10
-30.2439
 20
37.5538
 30
0.0
 10
-30.2439
 20
37.5538
 30
0.0
 10
-27.9405
 20
35.2462
 30
0.0
 10
-22.116
 20
35.961
 30
0.0
 10
-20.4391
 20
37.6223
 30
0.0
 10
-20.4391
 20
37.6223
 30
0.0
 10
-23.5859
 20
38.1441
 30
0.0
 10
-25.8984
 20
40.9652
 30
0.0
 10
-24.5638
 20
43.8609
 30
0.0
 10
-24.5638
 20
43.8609
 30
0.0
 10
-23.3434
 20
46.3508
 30
0.0
 10
-20.5042
 20
47.3669
 30
0.0
 10
-18.1401
 20
45.613
 30
0.0
 10
-18.1401
 20
45.613
 30
0.0
 10
-14.205
 20
42.2933
 30
0.0
 10
-13.976
 20
34.064
 30
0.0
 10
-17.2555
 20
30.4654
 30
0.0
 10
-17.2555
 20
30.4654
 30
0.0
 10
-21.5772
 20
33.8875
 30
0.0
 10
-28.6276
 20
33.5769
 30
0.0
 10
-32.3088
 20
31.2196
 30
0.0
 10
-32.3088
 20
31.2196
 30
0.0
 10
-32.3088
 20
31.2196
 30
0.0
 10
-32.3089
 20
31.2196
 30
0.0
 10
-32.3089
 20
31.2196
 30
0.0
  0
SPLINE
  5
A8
330
1F
100
AcDbEntity
  8
layer 1
 62
     7
100
AcDbSpline
210
0.0
220
0.0
230
1.0
 70
    11
 71
     3
 72
    16
 73
    12
 74
     0
 42
0.0000000001
 43
0.0000000001
 12
1.0
 22
0.0
 32
0.0
 13
1.0
 23
0.0
 33
0.0
 40
0.0
 40
0.0
 40
0.0
 40
0.0
 40
0.25
 40
0.25
 40
0.25
 40
0.25
 40
0.5
 40
0.5
 40
0.5
 40
0.5
 40
1.0
 40
1.0
 40
1.0
 40
1.0
 10
-42.7956
 20
56.0435
 30
0.0
 10
-42.3049
 20
54.1785
 30
0.0
 10
-41.8099
 20
52.8888
 30
0.0
 10
-40.4867
 20
51.772
 30
0.0
 10
-40.4867
 20
51.772
 30
0.0
 10
-41.5521
 20
50.3923
 30
0.0
 10
-42.2873
 20
48.9196
 30
0.0
 10
-42.7946
 20
46.537
 30
0.0
 10
-42.7946
 20
46.537
 30
0.0
 10
-42.7946
 20
46.537
 30
0.0
 10
-42.7956
 20
56.0435
 30
0.0
 10
-42.7956
 20
56.0435
 30
0.0
  0
SPLINE
  5
A9
330
1F
100
AcDbEntity
  8
layer 1
 62
     7
100
AcDbSpline
210
0.0
220
0.0
230
1.0
 70
    11
 71
     3
 72
    48
 73
    44
 74
     0
 42
0.0000000001
 43
0.0000000001
 12
1.0
 22
0.0
 32
0.0
 13
1.0
 23
0.0
 33
0.0
 40
0.0
 40
0.0
 40
0.0
 40
0.0
 40
0.0833333333333333
 40
0.0833333333333333
 40
0.0833333333333333
 40
0.0833333333333333
 40
0.1666666666666667
 40
0.1666666666666667
 40
0.1666666666666667
 40
0.1666666666666667
 40
0.25
 40
0.25
 40
0.25
 40
0.25
 40
0.3333333333333333
 40
0.3333333333333333
 40
0.3333333333333333
 40
0.3333333333333333
 40
0.4166666666666667
 40
0.4166666666666667
 40
0.4166666666666667
 40
0.4166666666666667
 40
0.5
 40
0.5
 40
0.5
 40
0.5
 40
0.5833333333333334
 40
0.5833333333333334
 40
0.5833333333333334
 40
0.5833333333333334
 40
0.6666666666666666
 40
0.6666666666666666
 40
0.6666666666666666
 40
0.6666666666666666
 40
0.75
 40
0.75
 40
0.75
 40
0.75
 40
0.8333333333333334
 40
0.8333333333333334
 40
0.8333333333333334
 40
0.8333333333333334
 40
1.0
 40
1.0
 40
1.0
 40
1.0
 10
-18.2811
 20
52.6691
 30
0.0
 10
-19.5374
 20
53.3898
 30
0.0
 10
-20.3431
 20
54.6587
 30
0.0
 10
-20.5716
 20
56.2765
 30
0.0
 10
-20.5716
 20
56.2765
 30
0.0
 10
-20.8838
 20
58.4877
 30
0.0
 10
-19.9197
 20
62.0935
 30
0.0
 10
-18.7391
 20
63.1301
 30
0.0
 10
-18.7391
 20
63.1301
 30
0.0
 10
-17.0164
 20
64.5356
 30
0.0
 10
-14.8608
 20
64.5134
 30
0.0
 10
-14.0413
 20
62.5825
 30
0.0
 10
-14.0413
 20
62.5825
 30
0.0
 10
-13.741
 20
61.79
 30
0.0
 10
-14.3938
 20
60.9051
 30
0.0
 10
-15.3619
 20
60.7925
 30
0.0
 10
-15.3619
 20
60.7925
 30
0.0
 10
-15.9102
 20
60.7287
 30
0.0
 10
-15.9397
 20
60.7062
 30
0.0
 10
-15.9157
 20
60.3714
 30
0.0
 10
-15.9157
 20
60.3714
 30
0.0
 10
-15.2632
 20
57.9632
 30
0.0
 10
-11.9808
 20
58.0197
 30
0.0
 10
-11.334
 20
59.4483
 30
0.0
 10
-11.334
 20
59.4483
 30
0.0
 10
-11.334
 20
59.4483
 30
0.0
 10
-11.334
 20
55.7157
 30
0.0
 10
-11.334
 20
55.7157
 30
0.0
 10
-11.334
 20
55.7157
 30
0.0
 10
-13.0928
 20
58.1308
 30
0.0
 10
-15.7869
 20
58.4298
 30
0.0
 10
-18.0307
 20
56.6388
 30
0.0
 10
-18.0307
 20
56.6388
 30
0.0
 10
-18.8925
 20
55.7646
 30
0.0
 10
-18.9643
 20
55.0079
 30
0.0
 10
-18.1318
 20
55.5729
 30
0.0
 10
-18.1318
 20
55.5729
 30
0.0
 10
-17.0258
 20
56.3234
 30
0.0
 10
-15.4701
 20
55.4582
 30
0.0
 10
-15.4701
 20
54.0925
 30
0.0
 10
-15.4701
 20
54.0925
 30
0.0
 10
-15.6797
 20
52.4696
 30
0.0
 10
-17.1265
 20
52.0256
 30
0.0
 10
-18.2811
 20
52.6691
 30
0.0
  0
SPLINE
  5
AA
330
1F
100
AcDbEntity
  8
layer 1
 62
     7
100
AcDbSpline
210
0.0
220
0.0
230
1.0
 70
    11
 71
     3
 72
    12
 73
     8
 74
     0
 42
0.0000000001
 43
0.0000000001
 12
1.0
 22
0.0
 32
0.0
 13
1.0
 23
0.0
 33
0.0
 40
0.0
 40
0.0
 40
0.0
 40
0.0
 40
0.3333333333333333
 40
0.3333333333333333
 40
0.3333333333333333
 40
0.3333333333333333
 40
1.0
 40
1.0
 40
1.0
 40
1.0
 10
-28.576
 20
59.6429
 30
0.0
 10
-29.0601
 20
56.7215
 30
0.0
 10
-32.8066
 20
54.846
 30
0.0
 10
-35.553
 20
55.1368
 30
0.0
 10
-35.553
 20
55.1368
 30
0.0
 10
-34.8133
 20
57.2675
 30
0.0
 10
-30.8923
 20
60.3401
 30
0.0
 10
-28.576
 20
59.6429
 30
0.0
  0
SPLINE
  5
AB
330
1F
100
AcDbEntity
  8
layer 1
 62
     7
100
AcDbSpline
210
0.0
220
0.0
230
1.0
 70
    11
 71
     3
 72
    32
 73
    28
 74
     0
 42
0.0000000001
 43
0.0000000001
 12
1.0
 22
0.0
 32
0.0
 13
1.0
 23
0.0
 33
0.0
 40
0.0
 40
0.0
 40
0.0
 40
0.0
 40
0.125
 40
0.125
 40
0.125
 40
0.125
 40
0.25
 40
0.25
 40
0.25
 40
0.25
 40
0.375
 40
0.375
 40
0.375
 40
0.375
 40
0.5
 40
0.5
 40
0.5
 40
0.5
 40
0.625
 40
0.625
 40
0.625
 40
0.625
 40
0.75
 40
0.75
 40
0.75
 40
0.75
 40
1.0
 40
1.0
 40
1.0
 40
1.0
 10
-33.7557
 20
62.3163
 30
0.0
 10
-33.2204
 20
61.9531
 30
0.0
 10
-33.0792
 20
61.9413
 30
0.0
 10
-33.0792
 20
62.2597
 30
0.0
 10
-33.0792
 20
62.2597
 30
0.0
 10
-35.7557
 20
67.2227
 30
0.0
 10
-42.3354
 20
65.4345
 30
0.0
 10
-42.7956
 20
60.051
 30
0.0
 10
-42.7956
 20
60.051
 30
0.0
 10
-42.7956
 20
60.051
 30
0.0
 10
-42.7956
 20
80.3304
 30
0.0
 10
-42.7956
 20
80.3304
 30
0.0
 10
-42.7956
 20
80.3304
 30
0.0
 10
-36.8319
 20
80.3304
 30
0.0
 10
-26.7105
 20
73.221
 30
0.0
 10
-27.6893
 20
63.5733
 30
0.0
 10
-27.6893
 20
63.5733
 30
0.0
 10
-32.0996
 20
62.548
 30
0.0
 10
-35.8881
 20
59.9105
 30
0.0
 10
-37.7809
 20
56.7409
 30
0.0
 10
-37.7809
 20
56.7409
 30
0.0
 10
-41.3309
 20
60.9497
 30
0.0
 10
-37.3747
 20
64.626
 30
0.0
 10
-33.7557
 20
62.3163
 30
0.0
 10
-33.7557
 20
62.3163
 30
0.0
 10
-33.7557
 20
62.3163
 30
0.0
 10
-33.7557
 20
62.3163
 30
0.0
 10
-33.7557
 20
62.3163
 30
0.0
  0
SPLINE
  5
AC
330
1F
100
AcDbEntity
  8
layer 1
 62
     7
100
AcDbSpline
210
0.0
220
0.0
230
1.0
 70
    11
 71
     3
 72
    20
 73
    16
 74
     0
 42
0.0000000001
 43
0.0000000001
 12
1.0
 22
0.0
 32
0.0
 13
1.0
 23
0.0
 33
0.0
 40
0.0
 40
0.0
 40
0.0
 40
0.0
 40
0.2
 40
0.2
 40
0.2
 40
0.2
 40
0.4
 40
0.4
 40
0.4
 40
0.4
 40
0.6
 40
0.6
 40
0.6
 40
0.6
 40
1.0
 40
1.0
 40
1.0
 40
1.0
 10
-11.31
 20
63.9761
 30
0.0
 10
-12.7692
 20
67.446
 30
0.0
 10
-16.5841
 20
68.3305
 30
0.0
 10
-19.5
 20
66.1172
 30
0.0
 10
-19.5
 20
66.1172
 30
0.0
 10
-16.887
 20
70.7241
 30
0.0
 10
-16.4184
 20
75.9771
 30
0.0
 10
-19.343
 20
80.3219
 30
0.0
 10
-19.343
 20
80.3219
 30
0.0
 10
-19.343
 20
80.3219
 30
0.0
 10
-11.31
 20
80.3304
 30
0.0
 10
-11.31
 20
80.3304
 30
0.0
 10
-11.31
 20
80.3304
 30
0.0
 10
-11.31
 20
80.3304
 30
0.0
 10
-11.31
 20
63.9761
 30
0.0
 10
-11.31
 20
63.9761
 30
0.0
  0
SPLINE
  5
AD
330
1F
100
AcDbEntity
  8
layer 1
 62
     7
100
AcDbSpline
210
0.0
220
0.0
230
1.0
 70
    11
 71
     3
 72
    20
 73
    16
 74
     0
 42
0.0000000001
 43
0.0000000001
 12
1.0
 22
0.0
 32
0.0
 13
1.0
 23
0.0
 33
0.0
 40
0.0
 40
0.0
 40
0.0
 40
0.0
 40
0.2
 40
0.2
 40
0.2
 40
0.2
 40
0.4
 40
0.4
 40
0.4
 40
0.4
 40
0.6
 40
0.6
 40
0.6
 40
0.6
 40
1.0
 40
1.0
 40
1.0
 40
1.0
 10
-30.7751
 20
80.3219
 30
0.0
 10
-30.7751
 20
80.3219
 30
0.0
 10
-28.31
 20
80.3219
 30
0.0
 10
-28.31
 20
80.3219
 30
0.0
 10
-28.31
 20
80.3219
 30
0.0
 10
-25.6589
 20
78.5353
 30
0.0
 10
-23.5797
 20
75.1167
 30
0.0
 10
-22.8238
 20
72.4549
 30
0.0
 10
-22.8238
 20
72.4549
 30
0.0
 10
-22.2668
 20
69.4658
 30
0.0
 10
-22.6742
 20
67.4431
 30
0.0
 10
-24.1723
 20
65.3999
 30
0.0
 10
-24.1723
 20
65.3999
 30
0.0
 10
-24.3842
 20
70.7094
 30
0.0
 10
-26.4759
 20
77.2504
 30
0.0
 10
-30.7751
 20
80.3219
 30
0.0
  0
SPLINE
  5
AE
330
1F
100
AcDbEntity
  8
layer 1
 62
     7
100
AcDbSpline
210
0.0
220
0.0
230
1.0
 70
    11
 71
     3
 72
    36
 73
    32
 74
     0
 42
0.0000000001
 43
0.0000000001
 12
1.0
 22
0.0
 32
0.0
 13
1.0
 23
0.0
 33
0.0
 40
0.0
 40
0.0
 40
0.0
 40
0.0
 40
0.1111111111111111
 40
0.1111111111111111
 40
0.1111111111111111
 40
0.1111111111111111
 40
0.2222222222222222
 40
0.2222222222222222
 40
0.2222222222222222
 40
0.2222222222222222
 40
0.3333333333333333
 40
0.3333333333333333
 40
0.3333333333333333
 40
0.3333333333333333
 40
0.4444444444444444
 40
0.4444444444444444
 40
0.4444444444444444
 40
0.4444444444444444
 40
0.5555555555555556
 40
0.5555555555555556
 40
0.5555555555555556
 40
0.5555555555555556
 40
0.6666666666666666
 40
0.6666666666666666
 40
0.6666666666666666
 40
0.6666666666666666
 40
0.7777777777777778
 40
0.7777777777777778
 40
0.7777777777777778
 40
0.7777777777777778
 40
1.0
 40
1.0
 40
1.0
 40
1.0
 10
-19.5652
 20
88.0003
 30
0.0
 10
-19.5652
 20
88.0003
 30
0.0
 10
-19.5652
 20
92.1159
 30
0.0
 10
-19.5652
 20
92.1159
 30
0.0
 10
-19.5652
 20
92.1159
 30
0.0
 10
-19.5652
 20
92.1159
 30
0.0
 10
-15.4496
 20
92.1159
 30
0.0
 10
-15.4496
 20
92.1159
 30
0.0
 10
-15.4496
 20
92.1159
 30
0.0
 10
-15.4496
 20
92.1159
 30
0.0
 10
-11.334
 20
92.1159
 30
0.0
 10
-11.334
 20
92.1159
 30
0.0
 10
-11.334
 20
92.1159
 30
0.0
 10
-11.334
 20
92.1159
 30
0.0
 10
-11.334
 20
88.0003
 30
0.0
 10
-11.334
 20
88.0003
 30
0.0
 10
-11.334
 20
88.0003
 30
0.0
 10
-11.334
 20
88.0003
 30
0.0
 10
-11.334
 20
83.8847
 30
0.0
 10
-11.334
 20
83.8847
 30
0.0
 10
-11.334
 20
83.8847
 30
0.0
 10
-11.334
 20
83.8847
 30
0.0
 10
-15.4496
 20
83.8847
 30
0.0
 10
-15.4496
 20
83.8847
 30
0.0
 10
-15.4496
 20
83.8847
 30
0.0
 10
-15.4496
 20
83.8847
 30
0.0
 10
-19.5652
 20
83.8847
 30
0.0
 10
-19.5652
 20
83.8847
 30
0.0
 10
-19.5652
 20
83.8847
 30
0.0
 10
-19.5652
 20
83.8847
 30
0.0
 10
-19.5652
 20
88.0003
 30
0.0
 10
-19.5652
 20
88.0003
 30
0.0
  0
SPLINE
  5
AF
330
1F
100
AcDbEntity
  8
layer 1
 62
     7
100
AcDbSpline
210
0.0
220
0.0
230
1.0
 70
    11
 71
     3
 72
    16
 73
    12
 74
     0
 42
0.0000000001
 43
0.0000000001
 12
1.0
 22
0.0
 32
0.0
 13
1.0
 23
0.0
 33
0.0
 40
0.0
 40
0.0
 40
0.0
 40
0.0
 40
0.25
 40
0.25
 40
0.25
 40
0.25
 40
0.5
 40
0.5
 40
0.5
 40
0.5
 40
1.0
 40
1.0
 40
1.0
 40
1.0
 10
-17.5006
 20
95.6821
 30
0.0
 10
-14.3946
 20
97.0768
 30
0.0
 10
-12.4051
 20
98.9859
 30
0.0
 10
-11.31
 20
101.6986
 30
0.0
 10
-11.31
 20
101.6986
 30
0.0
 10
-11.31
 20
101.6986
 30
0.0
 10
-11.334
 20
95.6787
 30
0.0
 10
-11.334
 20
95.6787
 30
0.0
 10
-11.334
 20
95.6787
 30
0.0
 10
-11.334
 20
95.6787
 30
0.0
 10
-17.5006
 20
95.6821
 30
0.0
 10
-17.5006
 20
95.6821
 30
0.0
  0
SPLINE
  5
B0
330
1F
100
AcDbEntity
  8
layer 1
 62
     7
100
AcDbSpline
210
0.0
220
0.0
230
1.0
 70
    11
 71
     3
 72
    28
 73
    24
 74
     0
 42
0.0000000001
 43
0.0000000001
 12
1.0
 22
0.0
 32
0.0
 13
1.0
 23
0.0
 33
0.0
 40
0.0
 40
0.0
 40
0.0
 40
0.0
 40
0.1428571428571428
 40
0.1428571428571428
 40
0.1428571428571428
 40
0.1428571428571428
 40
0.2857142857142857
 40
0.2857142857142857
 40
0.2857142857142857
 40
0.2857142857142857
 40
0.4285714285714285
 40
0.4285714285714285
 40
0.4285714285714285
 40
0.4285714285714285
 40
0.5714285714285714
 40
0.5714285714285714
 40
0.5714285714285714
 40
0.5714285714285714
 40
0.7142857142857143
 40
0.7142857142857143
 40
0.7142857142857143
 40
0.7142857142857143
 40
1.0
 40
1.0
 40
1.0
 40
1.0
 10
-42.7956
 20
116.0725
 30
0.0
 10
-41.6029
 20
113.5158
 30
0.0
 10
-38.7084
 20
110.0271
 30
0.0
 10
-35.7396
 20
109.811
 30
0.0
 10
-35.7396
 20
109.811
 30
0.0
 10
-35.3824
 20
109.8046
 30
0.0
 10
-34.8148
 20
109.3369
 30
0.0
 10
-34.5665
 20
108.8444
 30
0.0
 10
-34.5665
 20
108.8444
 30
0.0
 10
-34.4416
 20
108.5967
 30
0.0
 10
-34.3007
 20
108.0762
 30
0.0
 10
-34.2533
 20
107.6878
 30
0.0
 10
-34.2533
 20
107.6878
 30
0.0
 10
-32.7673
 20
100.6792
 30
0.0
 10
-29.6225
 20
97.5968
 30
0.0
 10
-24.1111
 20
95.6821
 30
0.0
 10
-24.1111
 20
95.6821
 30
0.0
 10
-24.1111
 20
95.6821
 30
0.0
 10
-42.7956
 20
95.6821
 30
0.0
 10
-42.7956
 20
95.6821
 30
0.0
 10
-42.7956
 20
95.6821
 30
0.0
 10
-42.7956
 20
95.6821
 30
0.0
 10
-42.7956
 20
116.0725
 30
0.0
 10
-42.7956
 20
116.0725
 30
0.0
  0
SPLINE
  5
B1
330
1F
100
AcDbEntity
  8
layer 1
 62
     7
100
AcDbSpline
210
0.0
220
0.0
230
1.0
 70
    11
 71
     3
 72
    48
 73
    44
 74
     0
 42
0.0000000001
 43
0.0000000001
 12
1.0
 22
0.0
 32
0.0
 13
1.0
 23
0.0
 33
0.0
 40
0.0
 40
0.0
 40
0.0
 40
0.0
 40
0.0833333333333333
 40
0.0833333333333333
 40
0.0833333333333333
 40
0.0833333333333333
 40
0.1666666666666667
 40
0.1666666666666667
 40
0.1666666666666667
 40
0.1666666666666667
 40
0.25
 40
0.25
 40
0.25
 40
0.25
 40
0.3333333333333333
 40
0.3333333333333333
 40
0.3333333333333333
 40
0.3333333333333333
 40
0.4166666666666667
 40
0.4166666666666667
 40
0.4166666666666667
 40
0.4166666666666667
 40
0.5
 40
0.5
 40
0.5
 40
0.5
 40
0.5833333333333334
 40
0.5833333333333334
 40
0.5833333333333334
 40
0.5833333333333334
 40
0.6666666666666666
 40
0.6666666666666666
 40
0.6666666666666666
 40
0.6666666666666666
 40
0.75
 40
0.75
 40
0.75
 40
0.75
 40
0.8333333333333334
 40
0.8333333333333334
 40
0.8333333333333334
 40
0.8333333333333334
 40
1.0
 40
1.0
 40
1.0
 40
1.0
 10
-20.8298
 20
99.914
 30
0.0
 10
-25.829
 20
101.5155
 30
0.0
 10
-29.6062
 20
105.645
 30
0.0
 10
-30.9398
 20
109.7164
 30
0.0
 10
-30.9398
 20
109.7164
 30
0.0
 10
-31.2016
 20
110.5604
 30
0.0
 10
-31.1678
 20
110.612
 30
0.0
 10
-30.1842
 20
110.8688
 30
0.0
 10
-30.1842
 20
110.8688
 30
0.0
 10
-28.0505
 20
111.4017
 30
0.0
 10
-27.4285
 20
112.064
 30
0.0
 10
-26.1912
 20
113.7383
 30
0.0
 10
-26.1912
 20
113.7383
 30
0.0
 10
-25.9594
 20
110.517
 30
0.0
 10
-22.426
 20
109.0322
 30
0.0
 10
-19.4554
 20
109.6841
 30
0.0
 10
-19.4554
 20
109.6841
 30
0.0
 10
-21.6264
 20
107.9284
 30
0.0
 10
-22.3402
 20
105.1193
 30
0.0
 10
-20.925
 20
103.0811
 30
0.0
 10
-20.925
 20
103.0811
 30
0.0
 10
-19.627
 20
101.2893
 30
0.0
 10
-16.6671
 20
101.3645
 30
0.0
 10
-15.4189
 20
103.221
 30
0.0
 10
-15.4189
 20
103.221
 30
0.0
 10
-14.8884
 20
104.01
 30
0.0
 10
-14.8915
 20
104.2785
 30
0.0
 10
-15.4314
 20
104.2785
 30
0.0
 10
-15.4314
 20
104.2785
 30
0.0
 10
-16.4759
 20
104.4445
 30
0.0
 10
-17.2128
 20
105.3803
 30
0.0
 10
-16.989
 20
106.2304
 30
0.0
 10
-16.989
 20
106.2304
 30
0.0
 10
-16.5839
 20
107.7345
 30
0.0
 10
-14.3347
 20
107.7019
 30
0.0
 10
-13.45
 20
106.1791
 30
0.0
 10
-13.45
 20
106.1791
 30
0.0
 10
-11.8373
 20
102.3358
 30
0.0
 10
-17.0301
 20
98.6709
 30
0.0
 10
-20.8297
 20
99.914
 30
0.0
 10
-20.8297
 20
99.914
 30
0.0
 10
-20.8297
 20
99.914
 30
0.0
 10
-20.8298
 20
99.914
 30
0.0
 10
-20.8298
 20
99.914
 30
0.0
  0
SPLINE
  5
B2
330
1F
100
AcDbEntity
  8
layer 1
 62
     7
100
AcDbSpline
210
0.0
220
0.0
230
1.0
 70
    11
 71
     3
 72
    80
 73
    76
 74
     0
 42
0.0000000001
 43
0.0000000001
 12
1.0
 22
0.0
 32
0.0
 13
1.0
 23
0.0
 33
0.0
 40
0.0
 40
0.0
 40
0.0
 40
0.0
 40
0.05
 40
0.05
 40
0.05
 40
0.05
 40
0.1
 40
0.1
 40
0.1
 40
0.1
 40
0.15
 40
0.15
 40
0.15
 40
0.15
 40
0.2
 40
0.2
 40
0.2
 40
0.2
 40
0.25
 40
0.25
 40
0.25
 40
0.25
 40
0.3
 40
0.3
 40
0.3
 40
0.3
 40
0.35
 40
0.35
 40
0.35
 40
0.35
 40
0.4
 40
0.4
 40
0.4
 40
0.4
 40
0.45
 40
0.45
 40
0.45
 40
0.45
 40
0.5
 40
0.5
 40
0.5
 40
0.5
 40
0.55
 40
0.55
 40
0.55
 40
0.55
 40
0.6
 40
0.6
 40
0.6
 40
0.6
 40
0.65
 40
0.65
 40
0.65
 40
0.65
 40
0.7
 40
0.7
 40
0.7
 40
0.7
 40
0.75
 40
0.75
 40
0.75
 40
0.75
 40
0.8
 40
0.8
 40
0.8
 40
0.8
 40
0.85
 40
0.85
 40
0.85
 40
0.85
 40
0.9
 40
0.9
 40
0.9
 40
0.9
 40
1.0
 40
1.0
 40
1.0
 40
1.0
 10
-18.1524
 20
110.3098
 30
0.0
 10
-15.6748
 20
111.8815
 30
0.0
 10
-14.3119
 20
114.9197
 30
0.0
 10
-15.0874
 20
118.104
 30
0.0
 10
-15.0874
 20
118.104
 30
0.0
 10
-16.273
 20
122.4267
 30
0.0
 10
-19.8615
 20
124.3832
 30
0.0
 10
-23.7238
 20
125.4615
 30
0.0
 10
-23.7238
 20
125.4615
 30
0.0
 10
-26.5823
 20
126.2215
 30
0.0
 10
-29.3919
 20
126.2123
 30
0.0
 10
-32.2192
 20
125.3286
 30
0.0
 10
-32.2192
 20
125.3286
 30
0.0
 10
-34.7961
 20
124.5233
 30
0.0
 10
-36.4609
 20
122.5619
 30
0.0
 10
-36.6959
 20
120.6671
 30
0.0
 10
-36.6959
 20
120.6671
 30
0.0
 10
-36.8002
 20
119.5141
 30
0.0
 10
-36.2871
 20
117.8939
 30
0.0
 10
-34.9443
 20
117.4716
 30
0.0
 10
-34.9443
 20
117.4716
 30
0.0
 10
-34.8868
 20
118.9239
 30
0.0
 10
-34.4069
 20
119.848
 30
0.0
 10
-33.3922
 20
120.7515
 30
0.0
 10
-33.3922
 20
120.7515
 30
0.0
 10
-32.673
 20
121.3722
 30
0.0
 10
-31.2326
 20
121.2184
 30
0.0
 10
-31.566
 20
120.1663
 30
0.0
 10
-31.566
 20
120.1663
 30
0.0
 10
-31.6117
 20
120.0432
 30
0.0
 10
-31.9482
 20
119.6107
 30
0.0
 10
-32.3139
 20
119.2053
 30
0.0
 10
-32.3139
 20
119.2053
 30
0.0
 10
-33.9141
 20
117.2738
 30
0.0
 10
-34.369
 20
115.7781
 30
0.0
 10
-34.685
 20
113.4519
 30
0.0
 10
-34.685
 20
113.4519
 30
0.0
 10
-34.7367
 20
112.9897
 30
0.0
 10
-35.0169
 20
113.1179
 30
0.0
 10
-35.2151
 20
113.1441
 30
0.0
 10
-35.2151
 20
113.1441
 30
0.0
 10
-36.0134
 20
113.2497
 30
0.0
 10
-38.0749
 20
114.2656
 30
0.0
 10
-38.9723
 20
115.3118
 30
0.0
 10
-38.9723
 20
115.3118
 30
0.0
 10
-40.0085
 20
116.5197
 30
0.0
 10
-40.6929
 20
118.2889
 30
0.0
 10
-40.6922
 20
119.7581
 30
0.0
 10
-40.6922
 20
119.7581
 30
0.0
 10
-40.6911
 20
122.0767
 30
0.0
 10
-39.2895
 20
124.8404
 30
0.0
 10
-37.223
 20
126.5987
 30
0.0
 10
-37.223
 20
126.5987
 30
0.0
 10
-36.2657
 20
127.4131
 30
0.0
 10
-34.5459
 20
128.2874
 30
0.0
 10
-33.2746
 20
128.6059
 30
0.0
 10
-33.2746
 20
128.6059
 30
0.0
 10
-32.3437
 20
128.8391
 30
0.0
 10
-31.8611
 20
128.8493
 30
0.0
 10
-21.8184
 20
128.8493
 30
0.0
 10
-21.8184
 20
128.8493
 30
0.0
 10
-21.8184
 20
128.8493
 30
0.0
 10
-11.31
 20
128.8949
 30
0.0
 10
-11.31
 20
128.8949
 30
0.0
 10
-11.31
 20
128.8949
 30
0.0
 10
-11.31
 20
128.8949
 30
0.0
 10
-11.31
 20
107.7286
 30
0.0
 10
-11.31
 20
107.7286
 30
0.0
 10
-11.31
 20
107.7286
 30
0.0
 10
-12.8703
 20
110.7701
 30
0.0
 10
-15.6669
 20
111.2332
 30
0.0
 10
-18.1524
 20
110.3097
 30
0.0
 10
-18.1524
 20
110.3097
 30
0.0
 10
-18.1524
 20
110.3097
 30
0.0
 10
-18.1524
 20
110.3098
 30
0.0
 10
-18.1524
 20
110.3098
 30
0.0
  0
SPLINE
  5
B3
330
1F
100
AcDbEntity
  8
layer 1
 62
     7
100
AcDbSpline
210
0.0
220
0.0
230
1.0
 70
    11
 71
     3
 72
    40
 73
    36
 74
     0
 42
0.0000000001
 43
0.0000000001
 12
1.0
 22
0.0
 32
0.0
 13
1.0
 23
0.0
 33
0.0
 40
0.0
 40
0.0
 40
0.0
 40
0.0
 40
0.1
 40
0.1
 40
0.1
 40
0.1
 40
0.2
 40
0.2
 40
0.2
 40
0.2
 40
0.3
 40
0.3
 40
0.3
 40
0.3
 40
0.4
 40
0.4
 40
0.4
 40
0.4
 40
0.5
 40
0.5
 40
0.5
 40
0.5
 40
0.6
 40
0.6
 40
0.6
 40
0.6
 40
0.7
 40
0.7
 40
0.7
 40
0.7
 40
0.8
 40
0.8
 40
0.8
 40
0.8
 40
1.0
 40
1.0
 40
1.0
 40
1.0
 10
-22.8823
 20
114.5717
 30
0.0
 10
-22.8823
 20
115.3838
 30
0.0
 10
-22.1418
 20
116.0725
 30
0.0
 10
-21.2686
 20
116.0725
 30
0.0
 10
-21.2686
 20
116.0725
 30
0.0
 10
-20.5614
 20
116.0725
 30
0.0
 10
-20.6821
 20
116.2558
 30
0.0
 10
-21.0702
 20
116.717
 30
0.0
 10
-21.0702
 20
116.717
 30
0.0
 10
-22.064
 20
117.5639
 30
0.0
 10
-24.1304
 20
117.7057
 30
0.0
 10
-24.9634
 20
116.7572
 30
0.0
 10
-24.9634
 20
116.7572
 30
0.0
 10
-25.2423
 20
116.4211
 30
0.0
 10
-25.3394
 20
116.5442
 30
0.0
 10
-25.3394
 20
117.2336
 30
0.0
 10
-25.3394
 20
117.2336
 30
0.0
 10
-25.3394
 20
118.202
 30
0.0
 10
-25.5524
 20
119.0796
 30
0.0
 10
-26.0386
 20
120.1142
 30
0.0
 10
-26.0386
 20
120.1142
 30
0.0
 10
-27.0016
 20
122.4798
 30
0.0
 10
-25.2074
 20
122.7043
 30
0.0
 10
-23.6479
 20
122.4657
 30
0.0
 10
-23.6479
 20
122.4657
 30
0.0
 10
-20.7417
 20
121.6005
 30
0.0
 10
-17.4853
 20
119.3478
 30
0.0
 10
-17.4795
 20
116.509
 30
0.0
 10
-17.4795
 20
116.509
 30
0.0
 10
-17.4865
 20
114.5784
 30
0.0
 10
-19.0405
 20
113.0235
 30
0.0
 10
-20.98
 20
113.0066
 30
0.0
 10
-20.98
 20
113.0066
 30
0.0
 10
-21.8901
 20
112.9788
 30
0.0
 10
-22.853
 20
113.6874
 30
0.0
 10
-22.8823
 20
114.5717
 30
0.0
  0
SPLINE
  5
B4
330
1F
100
AcDbEntity
  8
layer 1
 62
     7
100
AcDbSpline
210
0.0
220
0.0
230
1.0
 70
    11
 71
     3
 72
    12
 73
     8
 74
     0
 42
0.0000000001
 43
0.0000000001
 12
1.0
 22
0.0
 32
0.0
 13
1.0
 23
0.0
 33
0.0
 40
0.0
 40
0.0
 40
0.0
 40
0.0
 40
0.3333333333333333
 40
0.3333333333333333
 40
0.3333333333333333
 40
0.3333333333333333
 40
1.0
 40
1.0
 40
1.0
 40
1.0
 10
-29.7025
 20
119.4954
 30
0.0
 10
-28.4444
 20
118.1118
 30
0.0
 10
-29.4838
 20
114.0854
 30
0.0
 10
-31.51
 20
113.5712
 30
0.0
 10
-31.51
 20
113.5712
 30
0.0
 10
-31.766
 20
115.1447
 30
0.0
 10
-30.8456
 20
118.6281
 30
0.0
 10
-29.7025
 20
119.4954
 30
0.0
  0
SPLINE
  5
B5
330
1F
100
AcDbEntity
  8
layer 1
 62
     7
100
AcDbSpline
210
0.0
220
0.0
230
1.0
 70
    11
 71
     3
 72
    16
 73
    12
 74
     0
 42
0.0000000001
 43
0.0000000001
 12
1.0
 22
0.0
 32
0.0
 13
1.0
 23
0.0
 33
0.0
 40
0.0
 40
0.0
 40
0.0
 40
0.0
 40
0.25
 40
0.25
 40
0.25
 40
0.25
 40
0.5
 40
0.5
 40
0.5
 40
0.5
 40
1.0
 40
1.0
 40
1.0
 40
1.0
 10
-42.7956
 20
128.895
 30
0.0
 10
-42.7956
 20
128.895
 30
0.0
 10
-37.9006
 20
128.895
 30
0.0
 10
-37.9006
 20
128.895
 30
0.0
 10
-37.9006
 20
128.895
 30
0.0
 10
-40.323
 20
127.5855
 30
0.0
 10
-41.9557
 20
125.5869
 30
0.0
 10
-42.7956
 20
123.2737
 30
0.0
 10
-42.7956
 20
123.2737
 30
0.0
 10
-42.7956
 20
123.2737
 30
0.0
 10
-42.7956
 20
128.895
 30
0.0
 10
-42.7956
 20
128.895
 30
0.0
  0
SPLINE
  5
B6
330
1F
100
AcDbEntity
  8
layer 1
 62
     7
100
AcDbSpline
210
0.0
220
0.0
230
1.0
 70
    11
 71
     3
 72
    36
 73
    32
 74
     0
 42
0.0000000001
 43
0.0000000001
 12
1.0
 22
0.0
 32
0.0
 13
1.0
 23
0.0
 33
0.0
 40
0.0
 40
0.0
 40
0.0
 40
0.0
 40
0.1111111111111111
 40
0.1111111111111111
 40
0.1111111111111111
 40
0.1111111111111111
 40
0.2222222222222222
 40
0.2222222222222222
 40
0.2222222222222222
 40
0.2222222222222222
 40
0.3333333333333333
 40
0.3333333333333333
 40
0.3333333333333333
 40
0.3333333333333333
 40
0.4444444444444444
 40
0.4444444444444444
 40
0.4444444444444444
 40
0.4444444444444444
 40
0.5555555555555556
 40
0.5555555555555556
 40
0.5555555555555556
 40
0.5555555555555556
 40
0.6666666666666666
 40
0.6666666666666666
 40
0.6666666666666666
 40
0.6666666666666666
 40
0.7777777777777778
 40
0.7777777777777778
 40
0.7777777777777778
 40
0.7777777777777778
 40
1.0
 40
1.0
 40
1.0
 40
1.0
 10
-42.7956
 20
88.0003
 30
0.0
 10
-42.7956
 20
88.0003
 30
0.0
 10
-42.7956
 20
92.1159
 30
0.0
 10
-42.7956
 20
92.1159
 30
0.0
 10
-42.7956
 20
92.1159
 30
0.0
 10
-42.7956
 20
92.1159
 30
0.0
 10
-38.68
 20
92.1159
 30
0.0
 10
-38.68
 20
92.1159
 30
0.0
 10
-38.68
 20
92.1159
 30
0.0
 10
-38.68
 20
92.1159
 30
0.0
 10
-34.5644
 20
92.1159
 30
0.0
 10
-34.5644
 20
92.1159
 30
0.0
 10
-34.5644
 20
92.1159
 30
0.0
 10
-34.5644
 20
92.1159
 30
0.0
 10
-34.5644
 20
88.0003
 30
0.0
 10
-34.5644
 20
88.0003
 30
0.0
 10
-34.5644
 20
88.0003
 30
0.0
 10
-34.5644
 20
88.0003
 30
0.0
 10
-34.5644
 20
83.8847
 30
0.0
 10
-34.5644
 20
83.8847
 30
0.0
 10
-34.5644
 20
83.8847
 30
0.0
 10
-34.5644
 20
83.8847
 30
0.0
 10
-38.68
 20
83.8847
 30
0.0
 10
-38.68
 20
83.8847
 30
0.0
 10
-38.68
 20
83.8847
 30
0.0
 10
-38.68
 20
83.8847
 30
0.0
 10
-42.7956
 20
83.8847
 30
0.0
 10
-42.7956
 20
83.8847
 30
0.0
 10
-42.7956
 20
83.8847
 30
0.0
 10
-42.7956
 20
83.8847
 30
0.0
 10
-42.7956
 20
88.0003
 30
0.0
 10
-42.7956
 20
88.0003
 30
0.0
  0
SPLINE
  5
B7
330
1F
100
AcDbEntity
  8
layer 1
 62
     7
100
AcDbSpline
210
0.0
220
0.0
230
1.0
 70
    11
 71
     3
 72
    36
 73
    32
 74
     0
 42
0.0000000001
 43
0.0000000001
 12
1.0
 22
0.0
 32
0.0
 13
1.0
 23
0.0
 33
0.0
 40
0.0
 40
0.0
 40
0.0
 40
0.0
 40
0.1111111111111111
 40
0.1111111111111111
 40
0.1111111111111111
 40
0.1111111111111111
 40
0.2222222222222222
 40
0.2222222222222222
 40
0.2222222222222222
 40
0.2222222222222222
 40
0.3333333333333333
 40
0.3333333333333333
 40
0.3333333333333333
 40
0.3333333333333333
 40
0.4444444444444444
 40
0.4444444444444444
 40
0.4444444444444444
 40
0.4444444444444444
 40
0.5555555555555556
 40
0.5555555555555556
 40
0.5555555555555556
 40
0.5555555555555556
 40
0.6666666666666666
 40
0.6666666666666666
 40
0.6666666666666666
 40
0.6666666666666666
 40
0.7777777777777778
 40
0.7777777777777778
 40
0.7777777777777778
 40
0.7777777777777778
 40
1.0
 40
1.0
 40
1.0
 40
1.0
 10
-31.1804
 20
88.0003
 30
0.0
 10
-31.1804
 20
88.0003
 30
0.0
 10
-31.1804
 20
92.1159
 30
0.0
 10
-31.1804
 20
92.1159
 30
0.0
 10
-31.1804
 20
92.1159
 30
0.0
 10
-31.1804
 20
92.1159
 30
0.0
 10
-27.0648
 20
92.1159
 30
0.0
 10
-27.0648
 20
92.1159
 30
0.0
 10
-27.0648
 20
92.1159
 30
0.0
 10
-27.0648
 20
92.1159
 30
0.0
 10
-22.9492
 20
92.1159
 30
0.0
 10
-22.9492
 20
92.1159
 30
0.0
 10
-22.9492
 20
92.1159
 30
0.0
 10
-22.9492
 20
92.1159
 30
0.0
 10
-22.9492
 20
88.0003
 30
0.0
 10
-22.9492
 20
88.0003
 30
0.0
 10
-22.9492
 20
88.0003
 30
0.0
 10
-22.9492
 20
88.0003
 30
0.0
 10
-22.9492
 20
83.8847
 30
0.0
 10
-22.9492
 20
83.8847
 30
0.0
 10
-22.9492
 20
83.8847
 30
0.0
 10
-22.9492
 20
83.8847
 30
0.0
 10
-27.0648
 20
83.8847
 30
0.0
 10
-27.0648
 20
83.8847
 30
0.0
 10
-27.0648
 20
83.8847
 30
0.0
 10
-27.0648
 20
83.8847
 30
0.0
 10
-31.1804
 20
83.8847
 30
0.0
 10
-31.1804
 20
83.8847
 30
0.0
 10
-31.1804
 20
83.8847
 30
0.0
 10
-31.1804
 20
83.8847
 30
0.0
 10
-31.1804
 20
88.0003
 30
0.0
 10
-31.1804
 20
88.0003
 30
0.0
  0
SPLINE
  5
B8
330
1F
100
AcDbEntity
  8
layer 1
 62
     7
100
AcDbSpline
210
0.0
220
0.0
230
1.0
 70
    11
 71
     3
 72
    36
 73
    32
 74
     0
 42
0.0000000001
 43
0.0000000001
 12
1.0
 22
0.0
 32
0.0
 13
1.0
 23
0.0
 33
0.0
 40
0.0
 40
0.0
 40
0.0
 40
0.0
 40
0.1111111111111111
 40
0.1111111111111111
 40
0.1111111111111111
 40
0.1111111111111111
 40
0.2222222222222222
 40
0.2222222222222222
 40
0.2222222222222222
 40
0.2222222222222222
 40
0.3333333333333333
 40
0.3333333333333333
 40
0.3333333333333333
 40
0.3333333333333333
 40
0.4444444444444444
 40
0.4444444444444444
 40
0.4444444444444444
 40
0.4444444444444444
 40
0.5555555555555556
 40
0.5555555555555556
 40
0.5555555555555556
 40
0.5555555555555556
 40
0.6666666666666666
 40
0.6666666666666666
 40
0.6666666666666666
 40
0.6666666666666666
 40
0.7777777777777778
 40
0.7777777777777778
 40
0.7777777777777778
 40
0.7777777777777778
 40
1.0
 40
1.0
 40
1.0
 40
1.0
 10
-31.1804
 20
-93.985
 30
0.0
 10
-31.1804
 20
-93.985
 30
0.0
 10
-31.1804
 20
-89.1936
 30
0.0
 10
-31.1804
 20
-89.1936
 30
0.0
 10
-31.1804
 20
-89.1936
 30
0.0
 10
-31.1804
 20
-89.1936
 30
0.0
 10
-27.0648
 20
-89.1936
 30
0.0
 10
-27.0648
 20
-89.1936
 30
0.0
 10
-27.0648
 20
-89.1936
 30
0.0
 10
-27.0648
 20
-89.1936
 30
0.0
 10
-22.9492
 20
-89.1936
 30
0.0
 10
-22.9492
 20
-89.1936
 30
0.0
 10
-22.9492
 20
-89.1936
 30
0.0
 10
-22.9492
 20
-89.1936
 30
0.0
 10
-22.9492
 20
-93.985
 30
0.0
 10
-22.9492
 20
-93.985
 30
0.0
 10
-22.9492
 20
-93.985
 30
0.0
 10
-22.9492
 20
-93.985
 30
0.0
 10
-22.9492
 20
-98.7763
 30
0.0
 10
-22.9492
 20
-98.7763
 30
0.0
 10
-22.9492
 20
-98.7763
 30
0.0
 10
-22.9492
 20
-98.7763
 30
0.0
 10
-27.0648
 20
-98.7763
 30
0.0
 10
-27.0648
 20
-98.7763
 30
0.0
 10
-27.0648
 20
-98.7763
 30
0.0
 10
-27.0648
 20
-98.7763
 30
0.0
 10
-31.1804
 20
-98.7763
 30
0.0
 10
-31.1804
 20
-98.7763
 30
0.0
 10
-31.1804
 20
-98.7763
 30
0.0
 10
-31.1804
 20
-98.7763
 30
0.0
 10
-31.1804
 20
-93.985
 30
0.0
 10
-31.1804
 20
-93.985
 30
0.0
  0
SPLINE
  5
B9
330
1F
100
AcDbEntity
  8
layer 1
 62
     7
100
AcDbSpline
210
0.0
220
0.0
230
1.0
 70
    11
 71
     3
 72
    36
 73
    32
 74
     0
 42
0.0000000001
 43
0.0000000001
 12
1.0
 22
0.0
 32
0.0
 13
1.0
 23
0.0
 33
0.0
 40
0.0
 40
0.0
 40
0.0
 40
0.0
 40
0.1111111111111111
 40
0.1111111111111111
 40
0.1111111111111111
 40
0.1111111111111111
 40
0.2222222222222222
 40
0.2222222222222222
 40
0.2222222222222222
 40
0.2222222222222222
 40
0.3333333333333333
 40
0.3333333333333333
 40
0.3333333333333333
 40
0.3333333333333333
 40
0.4444444444444444
 40
0.4444444444444444
 40
0.4444444444444444
 40
0.4444444444444444
 40
0.5555555555555556
 40
0.5555555555555556
 40
0.5555555555555556
 40
0.5555555555555556
 40
0.6666666666666666
 40
0.6666666666666666
 40
0.6666666666666666
 40
0.6666666666666666
 40
0.7777777777777778
 40
0.7777777777777778
 40
0.7777777777777778
 40
0.7777777777777778
 40
1.0
 40
1.0
 40
1.0
 40
1.0
 10
-42.7956
 20
-93.985
 30
0.0
 10
-42.7956
 20
-93.985
 30
0.0
 10
-42.7956
 20
-89.1936
 30
0.0
 10
-42.7956
 20
-89.1936
 30
0.0
 10
-42.7956
 20
-89.1936
 30
0.0
 10
-42.7956
 20
-89.1936
 30
0.0
 10
-38.68
 20
-89.1936
 30
0.0
 10
-38.68
 20
-89.1936
 30
0.0
 10
-38.68
 20
-89.1936
 30
0.0
 10
-38.68
 20
-89.1936
 30
0.0
 10
-34.5644
 20
-89.1936
 30
0.0
 10
-34.5644
 20
-89.1936
 30
0.0
 10
-34.5644
 20
-89.1936
 30
0.0
 10
-34.5644
 20
-89.1936
 30
0.0
 10
-34.5644
 20
-93.985
 30
0.0
 10
-34.5644
 20
-93.985
 30
0.0
 10
-34.5644
 20
-93.985
 30
0.0
 10
-34.5644
 20
-93.985
 30
0.0
 10
-34.5644
 20
-98.7763
 30
0.0
 10
-34.5644
 20
-98.7763
 30
0.0
 10
-34.5644
 20
-98.7763
 30
0.0
 10
-34.5644
 20
-98.7763
 30
0.0
 10
-38.68
 20
-98.7763
 30
0.0
 10
-38.68
 20
-98.7763
 30
0.0
 10
-38.68
 20
-98.7763
 30
0.0
 10
-38.68
 20
-98.7763
 30
0.0
 10
-42.7956
 20
-98.7763
 30
0.0
 10
-42.7956
 20
-98.7763
 30
0.0
 10
-42.7956
 20
-98.7763
 30
0.0
 10
-42.7956
 20
-98.7763
 30
0.0
 10
-42.7956
 20
-93.985
 30
0.0
 10
-42.7956
 20
-93.985
 30
0.0
  0
SPLINE
  5
BA
330
1F
100
AcDbEntity
  8
layer 1
 62
     7
100
AcDbSpline
210
0.0
220
0.0
230
1.0
 70
    11
 71
     3
 72
    36
 73
    32
 74
     0
 42
0.0000000001
 43
0.0000000001
 12
1.0
 22
0.0
 32
0.0
 13
1.0
 23
0.0
 33
0.0
 40
0.0
 40
0.0
 40
0.0
 40
0.0
 40
0.1111111111111111
 40
0.1111111111111111
 40
0.1111111111111111
 40
0.1111111111111111
 40
0.2222222222222222
 40
0.2222222222222222
 40
0.2222222222222222
 40
0.2222222222222222
 40
0.3333333333333333
 40
0.3333333333333333
 40
0.3333333333333333
 40
0.3333333333333333
 40
0.4444444444444444
 40
0.4444444444444444
 40
0.4444444444444444
 40
0.4444444444444444
 40
0.5555555555555556
 40
0.5555555555555556
 40
0.5555555555555556
 40
0.5555555555555556
 40
0.6666666666666666
 40
0.6666666666666666
 40
0.6666666666666666
 40
0.6666666666666666
 40
0.7777777777777778
 40
0.7777777777777778
 40
0.7777777777777778
 40
0.7777777777777778
 40
1.0
 40
1.0
 40
1.0
 40
1.0
 10
-31.1804
 20
-107.1605
 30
0.0
 10
-31.1804
 20
-107.1605
 30
0.0
 10
-31.1804
 20
-102.3691
 30
0.0
 10
-31.1804
 20
-102.3691
 30
0.0
 10
-31.1804
 20
-102.3691
 30
0.0
 10
-31.1804
 20
-102.3691
 30
0.0
 10
-27.0648
 20
-102.3691
 30
0.0
 10
-27.0648
 20
-102.3691
 30
0.0
 10
-27.0648
 20
-102.3691
 30
0.0
 10
-27.0648
 20
-102.3691
 30
0.0
 10
-22.9492
 20
-102.3691
 30
0.0
 10
-22.9492
 20
-102.3691
 30
0.0
 10
-22.9492
 20
-102.3691
 30
0.0
 10
-22.9492
 20
-102.3691
 30
0.0
 10
-22.9492
 20
-107.1605
 30
0.0
 10
-22.9492
 20
-107.1605
 30
0.0
 10
-22.9492
 20
-107.1605
 30
0.0
 10
-22.9492
 20
-107.1605
 30
0.0
 10
-22.9492
 20
-111.9518
 30
0.0
 10
-22.9492
 20
-111.9518
 30
0.0
 10
-22.9492
 20
-111.9518
 30
0.0
 10
-22.9492
 20
-111.9518
 30
0.0
 10
-27.0648
 20
-111.9518
 30
0.0
 10
-27.0648
 20
-111.9518
 30
0.0
 10
-27.0648
 20
-111.9518
 30
0.0
 10
-27.0648
 20
-111.9518
 30
0.0
 10
-31.1804
 20
-111.9518
 30
0.0
 10
-31.1804
 20
-111.9518
 30
0.0
 10
-31.1804
 20
-111.9518
 30
0.0
 10
-31.1804
 20
-111.9518
 30
0.0
 10
-31.1804
 20
-107.1605
 30
0.0
 10
-31.1804
 20
-107.1605
 30
0.0
  0
SPLINE
  5
BB
330
1F
100
AcDbEntity
  8
layer 1
 62
     7
100
AcDbSpline
210
0.0
220
0.0
230
1.0
 70
    11
 71
     3
 72
    36
 73
    32
 74
     0
 42
0.0000000001
 43
0.0000000001
 12
1.0
 22
0.0
 32
0.0
 13
1.0
 23
0.0
 33
0.0
 40
0.0
 40
0.0
 40
0.0
 40
0.0
 40
0.1111111111111111
 40
0.1111111111111111
 40
0.1111111111111111
 40
0.1111111111111111
 40
0.2222222222222222
 40
0.2222222222222222
 40
0.2222222222222222
 40
0.2222222222222222
 40
0.3333333333333333
 40
0.3333333333333333
 40
0.3333333333333333
 40
0.3333333333333333
 40
0.4444444444444444
 40
0.4444444444444444
 40
0.4444444444444444
 40
0.4444444444444444
 40
0.5555555555555556
 40
0.5555555555555556
 40
0.5555555555555556
 40
0.5555555555555556
 40
0.6666666666666666
 40
0.6666666666666666
 40
0.6666666666666666
 40
0.6666666666666666
 40
0.7777777777777778
 40
0.7777777777777778
 40
0.7777777777777778
 40
0.7777777777777778
 40
1.0
 40
1.0
 40
1.0
 40
1.0
 10
-42.7956
 20
-107.1605
 30
0.0
 10
-42.7956
 20
-107.1605
 30
0.0
 10
-42.7956
 20
-102.3691
 30
0.0
 10
-42.7956
 20
-102.3691
 30
0.0
 10
-42.7956
 20
-102.3691
 30
0.0
 10
-42.7956
 20
-102.3691
 30
0.0
 10
-38.68
 20
-102.3691
 30
0.0
 10
-38.68
 20
-102.3691
 30
0.0
 10
-38.68
 20
-102.3691
 30
0.0
 10
-38.68
 20
-102.3691
 30
0.0
 10
-34.5644
 20
-102.3691
 30
0.0
 10
-34.5644
 20
-102.3691
 30
0.0
 10
-34.5644
 20
-102.3691
 30
0.0
 10
-34.5644
 20
-102.3691
 30
0.0
 10
-34.5644
 20
-107.1605
 30
0.0
 10
-34.5644
 20
-107.1605
 30
0.0
 10
-34.5644
 20
-107.1605
 30
0.0
 10
-34.5644
 20
-107.1605
 30
0.0
 10
-34.5644
 20
-111.9518
 30
0.0
 10
-34.5644
 20
-111.9518
 30
0.0
 10
-34.5644
 20
-111.9518
 30
0.0
 10
-34.5644
 20
-111.9518
 30
0.0
 10
-38.68
 20
-111.9518
 30
0.0
 10
-38.68
 20
-111.9518
 30
0.0
 10
-38.68
 20
-111.9518
 30
0.0
 10
-38.68
 20
-111.9518
 30
0.0
 10
-42.7956
 20
-111.9518
 30
0.0
 10
-42.7956
 20
-111.9518
 30
0.0
 10
-42.7956
 20
-111.9518
 30
0.0
 10
-42.7956
 20
-111.9518
 30
0.0
 10
-42.7956
 20
-107.1605
 30
0.0
 10
-42.7956
 20
-107.1605
 30
0.0
  0
ENDSEC
  0
SECTION
  2
OBJECTS
  0
DICTIONARY
  5
C
330
0
100
AcDbDictionary
281
     1
  3
ACAD_GROUP
350
D
  3
ACAD_LAYOUT
350
1A
  3
ACAD_MATERIAL
350
3B
  3
ACAD_MLEADERSTYLE
350
DE
  3
ACAD_MLINESTYLE
350
17
  3
ACAD_PLOTSETTINGS
350
19
  3
ACAD_PLOTSTYLENAME
350
E
  3
ACAD_TABLESTYLE
350
DD
  3
ACAD_VISUALSTYLE
350
2A
  0
DICTIONARY
  5
D
102
{ACAD_REACTORS
330
C
102
}
330
C
100
AcDbDictionary
281
     1
  0
DICTIONARY
  5
1A
102
{ACAD_REACTORS
330
C
102
}
330
C
100
AcDbDictionary
281
     1
  3
Layout1
350
1E
  3
Layout2
350
26
  3
Model
350
22
  0
DICTIONARY
  5
3B
102
{ACAD_REACTORS
330
C
102
}
330
C
100
AcDbDictionary
281
     1
  3
ByBlock
350
3D
  3
ByLayer
350
3C
  3
Global
350
3E
  0
DICTIONARY
  5
DE
102
{ACAD_REACTORS
330
C
102
}
330
C
100
AcDbDictionary
281
     1
  0
DICTIONARY
  5
17
102
{ACAD_REACTORS
330
C
102
}
330
C
100
AcDbDictionary
281
     1
  3
Standard
350
18
  0
DICTIONARY
  5
19
102
{ACAD_REACTORS
330
C
102
}
330
C
100
AcDbDictionary
281
     1
  0
ACDBDICTIONARYWDFLT
  5
E
102
{ACAD_REACTORS
330
C
102
}
330
C
100
AcDbDictionary
281
     1
  3
Normal
350
F
100
AcDbDictionaryWithDefault
340
F
  0
DICTIONARY
  5
DD
102
{ACAD_REACTORS
330
C
102
}
330
C
100
AcDbDictionary
281
     1
  0
DICTIONARY
  5
2A
102
{ACAD_REACTORS
330
C
102
}
330
C
100
AcDbDictionary
281
     1
  3
2dWireframe
350
2F
  3
3D Hidden
350
31
  3
3dWireframe
350
30
  3
Basic
350
32
  3
Brighten
350
36
  3
ColorChange
350
3A
  3
Conceptual
350
34
  3
Dim
350
35
  3
Facepattern
350
39
  3
Flat
350
2B
  3
FlatWithEdges
350
2C
  3
Gouraud
350
2D
  3
GouraudWithEdges
350
2E
  3
Linepattern
350
38
  3
Realistic
350
33
  3
Thicken
350
37
  0
LAYOUT
  5
1E
102
{ACAD_REACTORS
330
1A
102
}
330
1A
100
AcDbPlotSettings
  1

  2
none_device
  4

  6

 40
0.0
 41
0.0
 42
0.0
 43
0.0
 44
0.0
 45
0.0
 46
0.0
 47
0.0
 48
0.0
 49
0.0
140
0.0
141
0.0
142
1.0
143
1.0
 70
   688
 72
     0
 73
     0
 74
     5
  7

 75
    16
 76
     0
 77
     2
 78
   300
147
1.0
148
0.0
149
0.0
100
AcDbLayout
  1
Layout1
 70
     1
 71
     1
 10
0.0
 20
0.0
 11
12.0
 21
9.0
 12
0.0
 22
0.0
 32
0.0
 14
1.000000000000000E+20
 24
1.000000000000000E+20
 34
1.000000000000000E+20
 15
-1.000000000000000E+20
 25
-1.000000000000000E+20
 35
-1.000000000000000E+20
146
0.0
 13
0.0
 23
0.0
 33
0.0
 16
1.0
 26
0.0
 36
0.0
 17
0.0
 27
1.0
 37
0.0
 76
     0
330
1B
  0
LAYOUT
  5
26
102
{ACAD_REACTORS
330
1A
102
}
330
1A
100
AcDbPlotSettings
  1

  2
none_device
  4

  6

 40
0.0
 41
0.0
 42
0.0
 43
0.0
 44
0.0
 45
0.0
 46
0.0
 47
0.0
 48
0.0
 49
0.0
140
0.0
141
0.0
142
1.0
143
1.0
 70
   688
 72
     0
 73
     0
 74
     5
  7

 75
    16
 76
     0
 77
     2
 78
   300
147
1.0
148
0.0
149
0.0
100
AcDbLayout
  1
Layout2
 70
     1
 71
     2
 10
0.0
 20
0.0
 11
0.0
 21
0.0
 12
0.0
 22
0.0
 32
0.0
 14
0.0
 24
0.0
 34
0.0
 15
0.0
 25
0.0
 35
0.0
146
0.0
 13
0.0
 23
0.0
 33
0.0
 16
1.0
 26
0.0
 36
0.0
 17
0.0
 27
1.0
 37
0.0
 76
     0
330
23
  0
LAYOUT
  5
22
102
{ACAD_REACTORS
330
1A
102
}
330
1A
100
AcDbPlotSettings
  1

  2
none_device
  4

  6

 40
0.0
 41
0.0
 42
0.0
 43
0.0
 44
0.0
 45
0.0
 46
0.0
 47
0.0
 48
0.0
 49
0.0
140
0.0
141
0.0
142
1.0
143
1.0
 70
  1712
 72
     0
 73
     0
 74
     0
  7

 75
     0
 76
     0
 77
     2
 78
   300
147
1.0
148
0.0
149
0.0
100
AcDbLayout
  1
Model
 70
     1
 71
     0
 10
0.0
 20
0.0
 11
12.0
 21
9.0
 12
0.0
 22
0.0
 32
0.0
 14
-187.4506
 24
-114.9604
 34
0.0
 15
-8.3413
 25
131.8174
 35
0.0
146
0.0
 13
0.0
 23
0.0
 33
0.0
 16
1.0
 26
0.0
 36
0.0
 17
0.0
 27
1.0
 37
0.0
 76
     0
330
1F
331
29
  0
MATERIAL
  5
3D
102
{ACAD_REACTORS
330
3B
102
}
330
3B
100
AcDbMaterial
  1
ByBlock
 72
     1
 94
      127
  0
MATERIAL
  5
3C
102
{ACAD_REACTORS
330
3B
102
}
330
3B
100
AcDbMaterial
  1
ByLayer
 72
     1
 94
      127
  0
MATERIAL
  5
3E
102
{ACAD_REACTORS
330
3B
102
}
330
3B
100
AcDbMaterial
  1
Global
 72
     1
 94
      127
  0
MLINESTYLE
  5
18
102
{ACAD_REACTORS
330
17
102
}
330
17
100
AcDbMlineStyle
  2
Standard
 70
     0
  3

 62
   256
 51
90.0
 52
90.0
 71
     2
 49
0.5
 62
   256
  6
BYLAYER
 49
-0.5
 62
   256
  6
BYLAYER
  0
ACDBPLACEHOLDER
  5
F
102
{ACAD_REACTORS
330
E
102
}
330
E
  0
VISUALSTYLE
  5
2F
102
{ACAD_REACTORS
330
2A
102
}
102
{ACAD_XDICTIONARY
360
C5
102
}
330
2A
100
AcDbVisualStyle
  2
2dWireframe
 70
     4
 71
     0
 72
     2
 73
     0
 90
        0
 40
-0.6
 41
-30.0
 62
     5
 63
     7
421
 16777215
 74
     1
 91
        4
 64
     7
 65
   257
 75
     1
175
     1
 42
1.0
 92
        0
 66
   257
 43
1.0
 76
     1
 77
     6
 78
     2
 67
     7
 79
     5
170
     0
171
     0
290
     0
174
     0
 93
        1
 44
0.0
173
     0
291
     0
 45
0.0
  0
VISUALSTYLE
  5
31
102
{ACAD_REACTORS
330
2A
102
}
102
{ACAD_XDICTIONARY
360
C9
102
}
330
2A
100
AcDbVisualStyle
  2
3D Hidden
 70
     6
 71
     1
 72
     2
 73
     2
 90
        0
 40
-0.6
 41
-30.0
 62
     5
 63
     7
421
 16777215
 74
     2
 91
        2
 64
     7
 65
   257
 75
     2
175
     1
 42
40.0
 92
        0
 66
   257
 43
1.0
 76
     1
 77
     6
 78
     2
 67
     7
 79
     3
170
     0
171
     0
290
     0
174
     0
 93
        1
 44
0.0
173
     0
291
     0
 45
0.0
  0
VISUALSTYLE
  5
30
102
{ACAD_REACTORS
330
2A
102
}
102
{ACAD_XDICTIONARY
360
C7
102
}
330
2A
100
AcDbVisualStyle
  2
3dWireframe
 70
     5
 71
     0
 72
     2
 73
     0
 90
        0
 40
-0.6
 41
-30.0
 62
     5
 63
     7
421
 16777215
 74
     1
 91
        4
 64
     7
 65
   257
 75
     1
175
     1
 42
1.0
 92
        0
 66
   257
 43
1.0
 76
     1
 77
     6
 78
     2
 67
     7
 79
     5
170
     0
171
     0
290
     0
174
     0
 93
        1
 44
0.0
173
     0
291
     0
 45
0.0
  0
VISUALSTYLE
  5
32
102
{ACAD_REACTORS
330
2A
102
}
102
{ACAD_XDICTIONARY
360
CB
102
}
330
2A
100
AcDbVisualStyle
  2
Basic
 70
     7
 71
     1
 72
     0
 73
     1
 90
        0
 40
-0.6
 41
-30.0
 62
     5
 63
     7
421
 16777215
 74
     0
 91
        4
 64
     7
 65
   257
 75
     1
175
     1
 42
1.0
 92
        8
 66
     7
 43
1.0
 76
     1
 77
     6
 78
     2
 67
     7
 79
     5
170
     0
171
     0
290
     0
174
     0
 93
        1
 44
0.0
173
     0
291
     1
 45
0.0
  0
VISUALSTYLE
  5
36
102
{ACAD_REACTORS
330
2A
102
}
102
{ACAD_XDICTIONARY
360
D3
102
}
330
2A
100
AcDbVisualStyle
  2
Brighten
 70
    12
 71
     2
 72
     2
 73
     0
 90
        0
 40
-0.6
 41
-30.0
 62
     5
 63
     7
421
 16777215
 74
     1
 91
        4
 64
     7
 65
   257
 75
     1
175
     1
 42
1.0
 92
        8
 66
     7
 43
1.0
 76
     1
 77
     6
 78
     2
 67
     7
 79
     5
170
     0
171
     0
290
     0
174
     0
 93
        1
 44
50.0
173
     0
291
     1
 45
0.0
  0
VISUALSTYLE
  5
3A
102
{ACAD_REACTORS
330
2A
102
}
102
{ACAD_XDICTIONARY
360
DB
102
}
330
2A
100
AcDbVisualStyle
  2
ColorChange
 70
    16
 71
     2
 72
     2
 73
     3
 90
        0
 40
-0.6
 41
-30.0
 62
     5
 63
     8
421
  8421504
 74
     1
 91
        4
 64
     7
 65
   257
 75
     1
175
     1
 42
1.0
 92
        8
 66
     8
424
  8421504
 43
1.0
 76
     1
 77
     6
 78
     2
 67
     7
 79
     5
170
     0
171
     0
290
     0
174
     0
 93
        1
 44
0.0
173
     0
291
     1
 45
0.0
  0
VISUALSTYLE
  5
34
102
{ACAD_REACTORS
330
2A
102
}
102
{ACAD_XDICTIONARY
360
CF
102
}
330
2A
100
AcDbVisualStyle
  2
Conceptual
 70
     9
 71
     3
 72
     2
 73
     0
 90
        0
 40
-0.6
 41
-30.0
 62
     5
 63
     7
421
 16777215
 74
     2
 91
        2
 64
     7
 65
   257
 75
     1
175
     1
 42
40.0
 92
        8
 66
     7
 43
1.0
 76
     1
 77
     6
 78
     2
 67
     7
 79
     3
170
     0
171
     0
290
     0
174
     0
 93
        1
 44
0.0
173
     0
291
     0
 45
0.0
  0
VISUALSTYLE
  5
35
102
{ACAD_REACTORS
330
2A
102
}
102
{ACAD_XDICTIONARY
360
D1
102
}
330
2A
100
AcDbVisualStyle
  2
Dim
 70
    11
 71
     2
 72
     2
 73
     0
 90
        0
 40
-0.6
 41
-30.0
 62
     5
 63
     7
421
 16777215
 74
     1
 91
        4
 64
     7
 65
   257
 75
     1
175
     1
 42
1.0
 92
        8
 66
     7
 43
1.0
 76
     1
 77
     6
 78
     2
 67
     7
 79
     5
170
     0
171
     0
290
     0
174
     0
 93
        1
 44
-50.0
173
     0
291
     1
 45
0.0
  0
VISUALSTYLE
  5
39
102
{ACAD_REACTORS
330
2A
102
}
102
{ACAD_XDICTIONARY
360
D9
102
}
330
2A
100
AcDbVisualStyle
  2
Facepattern
 70
    15
 71
     2
 72
     2
 73
     0
 90
        0
 40
-0.6
 41
-30.0
 62
     5
 63
     7
421
 16777215
 74
     1
 91
        4
 64
     7
 65
   257
 75
     1
175
     1
 42
1.0
 92
        8
 66
     7
 43
1.0
 76
     1
 77
     6
 78
     2
 67
     7
 79
     5
170
     0
171
     0
290
     0
174
     0
 93
        1
 44
0.0
173
     0
291
     1
 45
0.0
  0
VISUALSTYLE
  5
2B
102
{ACAD_REACTORS
330
2A
102
}
102
{ACAD_XDICTIONARY
360
BD
102
}
330
2A
100
AcDbVisualStyle
  2
Flat
 70
     0
 71
     2
 72
     1
 73
     1
 90
        2
 40
-0.6
 41
30.0
 62
     5
 63
     7
421
 16777215
 74
     0
 91
        4
 64
     7
 65
   257
 75
     1
175
     1
 42
1.0
 92
        8
 66
     7
 43
1.0
 76
     1
 77
     6
 78
     2
 67
     7
 79
     5
170
     0
171
     0
290
     0
174
     0
 93
       13
 44
0.0
173
     0
291
     1
 45
0.0
  0
VISUALSTYLE
  5
2C
102
{ACAD_REACTORS
330
2A
102
}
102
{ACAD_XDICTIONARY
360
BF
102
}
330
2A
100
AcDbVisualStyle
  2
FlatWithEdges
 70
     1
 71
     2
 72
     1
 73
     1
 90
        2
 40
-0.6
 41
30.0
 62
     5
 63
     7
421
 16777215
 74
     1
 91
        4
 64
     7
 65
   257
 75
     1
175
     1
 42
1.0
 92
        0
 66
   257
 43
1.0
 76
     1
 77
     6
 78
     2
 67
     7
 79
     5
170
     0
171
     0
290
     0
174
     0
 93
       13
 44
0.0
173
     0
291
     1
 45
0.0
  0
VISUALSTYLE
  5
2D
102
{ACAD_REACTORS
330
2A
102
}
102
{ACAD_XDICTIONARY
360
C1
102
}
330
2A
100
AcDbVisualStyle
  2
Gouraud
 70
     2
 71
     2
 72
     2
 73
     1
 90
        2
 40
-0.6
 41
30.0
 62
     5
 63
     7
421
 16777215
 74
     0
 91
        4
 64
     7
 65
   257
 75
     1
175
     1
 42
1.0
 92
        0
 66
     7
 43
1.0
 76
     1
 77
     6
 78
     2
 67
     7
 79
     5
170
     0
171
     0
290
     0
174
     0
 93
       13
 44
0.0
173
     0
291
     1
 45
0.0
  0
VISUALSTYLE
  5
2E
102
{ACAD_REACTORS
330
2A
102
}
102
{ACAD_XDICTIONARY
360
C3
102
}
330
2A
100
AcDbVisualStyle
  2
GouraudWithEdges
 70
     3
 71
     2
 72
     2
 73
     1
 90
        2
 40
-0.6
 41
30.0
 62
     5
 63
     7
421
 16777215
 74
     1
 91
        4
 64
     7
 65
   257
 75
     1
175
     1
 42
1.0
 92
        0
 66
   257
 43
1.0
 76
     1
 77
     6
 78
     2
 67
     7
 79
     5
170
     0
171
     0
290
     0
174
     0
 93
       13
 44
0.0
173
     0
291
     1
 45
0.0
  0
VISUALSTYLE
  5
38
102
{ACAD_REACTORS
330
2A
102
}
102
{ACAD_XDICTIONARY
360
D7
102
}
330
2A
100
AcDbVisualStyle
  2
Linepattern
 70
    14
 71
     2
 72
     2
 73
     0
 90
        0
 40
-0.6
 41
-30.0
 62
     5
 63
     7
421
 16777215
 74
     1
 91
        4
 64
     7
 65
   257
 75
     7
175
     7
 42
1.0
 92
        8
 66
     7
 43
1.0
 76
     1
 77
     6
 78
     2
 67
     7
 79
     5
170
     0
171
     0
290
     0
174
     0
 93
        1
 44
0.0
173
     0
291
     1
 45
0.0
  0
VISUALSTYLE
  5
33
102
{ACAD_REACTORS
330
2A
102
}
102
{ACAD_XDICTIONARY
360
CD
102
}
330
2A
100
AcDbVisualStyle
  2
Realistic
 70
     8
 71
     2
 72
     2
 73
     0
 90
        0
 40
-0.6
 41
-30.0
 62
     5
 63
     7
421
 16777215
 74
     1
 91
        0
 64
     7
 65
   257
 75
     1
175
     1
 42
1.0
 92
        8
 66
     8
424
  7895160
 43
1.0
 76
     1
 77
     6
 78
     2
 67
     7
 79
     5
170
     0
171
     0
290
     0
174
     0
 93
       13
 44
0.0
173
     0
291
     0
 45
0.0
  0
VISUALSTYLE
  5
37
102
{ACAD_REACTORS
330
2A
102
}
102
{ACAD_XDICTIONARY
360
D5
102
}
330
2A
100
AcDbVisualStyle
  2
Thicken
 70
    13
 71
     2
 72
     2
 73
     0
 90
        0
 40
-0.6
 41
-30.0
 62
     5
 63
     7
421
 16777215
 74
     1
 91
        4
 64
     7
 65
   257
 75
     1
175
     1
 42
1.0
 92
       12
 66
     7
 43
1.0
 76
     1
 77
     6
 78
     2
 67
     7
 79
     5
170
     0
171
     0
290
     0
174
     0
 93
        1
 44
0.0
173
     0
291
     1
 45
0.0
  0
DICTIONARY
  5
C5
330
2F
100
AcDbDictionary
280
     1
281
     1
  3
ACAD_XREC_ROUNDTRIP
360
C6
  0
DICTIONARY
  5
C9
330
31
100
AcDbDictionary
280
     1
281
     1
  3
ACAD_XREC_ROUNDTRIP
360
CA
  0
DICTIONARY
  5
C7
330
30
100
AcDbDictionary
280
     1
281
     1
  3
ACAD_XREC_ROUNDTRIP
360
C8
  0
DICTIONARY
  5
CB
330
32
100
AcDbDictionary
280
     1
281
     1
  3
ACAD_XREC_ROUNDTRIP
360
CC
  0
DICTIONARY
  5
D3
330
36
100
AcDbDictionary
280
     1
281
     1
  3
ACAD_XREC_ROUNDTRIP
360
D4
  0
DICTIONARY
  5
DB
330
3A
100
AcDbDictionary
280
     1
281
     1
  3
ACAD_XREC_ROUNDTRIP
360
DC
  0
DICTIONARY
  5
CF
330
34
100
AcDbDictionary
280
     1
281
     1
  3
ACAD_XREC_ROUNDTRIP
360
D0
  0
DICTIONARY
  5
D1
330
35
100
AcDbDictionary
280
     1
281
     1
  3
ACAD_XREC_ROUNDTRIP
360
D2
  0
DICTIONARY
  5
D9
330
39
100
AcDbDictionary
280
     1
281
     1
  3
ACAD_XREC_ROUNDTRIP
360
DA
  0
DICTIONARY
  5
BD
330
2B
100
AcDbDictionary
280
     1
281
     1
  3
ACAD_XREC_ROUNDTRIP
360
BE
  0
DICTIONARY
  5
BF
330
2C
100
AcDbDictionary
280
     1
281
     1
  3
ACAD_XREC_ROUNDTRIP
360
C0
  0
DICTIONARY
  5
C1
330
2D
100
AcDbDictionary
280
     1
281
     1
  3
ACAD_XREC_ROUNDTRIP
360
C2
  0
DICTIONARY
  5
C3
330
2E
100
AcDbDictionary
280
     1
281
     1
  3
ACAD_XREC_ROUNDTRIP
360
C4
  0
DICTIONARY
  5
D7
330
38
100
AcDbDictionary
280
     1
281
     1
  3
ACAD_XREC_ROUNDTRIP
360
D8
  0
DICTIONARY
  5
CD
330
33
100
AcDbDictionary
280
     1
281
     1
  3
ACAD_XREC_ROUNDTRIP
360
CE
  0
DICTIONARY
  5
D5
330
37
100
AcDbDictionary
280
     1
281
     1
  3
ACAD_XREC_ROUNDTRIP
360
D6
  0
XRECORD
  5
C6
102
{ACAD_REACTORS
330
C5
102
}
330
C5
100
AcDbXrecord
280
     1
102
RTVSPropertyOp0
 70
     1
102
RTVSPropertyOp1
 70
     1
102
RTVSPropertyOp2
 70
     1
102
RTVSPropertyOp3
 70
     1
102
RTVSPropertyOp4
 70
     1
102
RTVSPropertyOp5
 70
     1
102
RTVSPropertyOp6
 70
     1
102
RTVSPropertyOp7
 70
     1
102
RTVSPropertyOp8
 70
     1
102
RTVSPropertyOp9
 70
     1
102
RTVSPropertyOp10
 70
     1
102
RTVSPropertyOp11
 70
     1
102
RTVSPropertyOp12
 70
     1
102
RTVSPropertyOp13
 70
     1
102
RTVSPropertyOp14
 70
     1
102
RTVSPropertyOp15
 70
     1
102
RTVSPropertyOp16
 70
     1
102
RTVSPropertyOp17
 70
     1
102
RTVSPropertyOp18
 70
     1
102
RTVSPropertyOp19
 70
     1
102
RTVSPropertyOp20
 70
     1
102
RTVSPropertyOp21
 70
     1
102
RTVSPropertyOp22
 70
     1
102
RTVSPropertyOp23
 70
     1
102
RTVSPropertyOp24
 70
     1
102
RTVSPropertyOp25
 70
     1
102
RTVSPropertyOp26
 70
     1
102
RTVSPropertyOp27
 70
     1
102
RTVSPropertyOp28
 70
     1
102
RTVSPropertyOp29
 70
     1
102
RTVSPropertyOp30
 70
     1
102
RTVSPropertyOp31
 70
     1
102
RTVSPropertyOp32
 70
     1
  0
XRECORD
  5
CA
102
{ACAD_REACTORS
330
C9
102
}
330
C9
100
AcDbXrecord
280
     1
102
RTVSPropertyOp0
 70
     1
102
RTVSPropertyOp1
 70
     1
102
RTVSPropertyOp2
 70
     1
102
RTVSPropertyOp3
 70
     1
102
RTVSPropertyOp4
 70
     1
102
RTVSPropertyOp5
 70
     1
102
RTVSPropertyOp6
 70
     1
102
RTVSPropertyOp7
 70
     1
102
RTVSPropertyOp8
 70
     1
102
RTVSPropertyOp9
 70
     1
102
RTVSPropertyOp10
 70
     1
102
RTVSPropertyOp11
 70
     1
102
RTVSPropertyOp12
 70
     1
102
RTVSPropertyOp13
 70
     1
102
RTVSPropertyOp14
 70
     1
102
RTVSPropertyOp15
 70
     1
102
RTVSPropertyOp16
 70
     1
102
RTVSPropertyOp17
 70
     1
102
RTVSPropertyOp18
 70
     1
102
RTVSPropertyOp19
 70
     1
102
RTVSPropertyOp20
 70
     1
102
RTVSPropertyOp21
 70
     1
102
RTVSPropertyOp22
 70
     1
102
RTVSPropertyOp23
 70
     1
102
RTVSPropertyOp24
 70
     1
102
RTVSPropertyOp25
 70
     1
102
RTVSPropertyOp26
 70
     1
102
RTVSPropertyOp27
 70
     1
102
RTVSPropertyOp28
 70
     1
102
RTVSPropertyOp29
 70
     1
102
RTVSPropertyOp30
 70
     1
102
RTVSPropertyOp31
 70
     1
102
RTVSPropertyOp32
 70
     1
  0
XRECORD
  5
C8
102
{ACAD_REACTORS
330
C7
102
}
330
C7
100
AcDbXrecord
280
     1
102
RTVSPropertyOp0
 70
     1
102
RTVSPropertyOp1
 70
     1
102
RTVSPropertyOp2
 70
     1
102
RTVSPropertyOp3
 70
     1
102
RTVSPropertyOp4
 70
     1
102
RTVSPropertyOp5
 70
     1
102
RTVSPropertyOp6
 70
     1
102
RTVSPropertyOp7
 70
     1
102
RTVSPropertyOp8
 70
     1
102
RTVSPropertyOp9
 70
     1
102
RTVSPropertyOp10
 70
     1
102
RTVSPropertyOp11
 70
     1
102
RTVSPropertyOp12
 70
     1
102
RTVSPropertyOp13
 70
     1
102
RTVSPropertyOp14
 70
     1
102
RTVSPropertyOp15
 70
     1
102
RTVSPropertyOp16
 70
     1
102
RTVSPropertyOp17
 70
     1
102
RTVSPropertyOp18
 70
     1
102
RTVSPropertyOp19
 70
     1
102
RTVSPropertyOp20
 70
     1
102
RTVSPropertyOp21
 70
     1
102
RTVSPropertyOp22
 70
     1
102
RTVSPropertyOp23
 70
     1
102
RTVSPropertyOp24
 70
     1
102
RTVSPropertyOp25
 70
     1
102
RTVSPropertyOp26
 70
     1
102
RTVSPropertyOp27
 70
     1
102
RTVSPropertyOp28
 70
     1
102
RTVSPropertyOp29
 70
     1
102
RTVSPropertyOp30
 70
     1
102
RTVSPropertyOp31
 70
     1
102
RTVSPropertyOp32
 70
     1
  0
XRECORD
  5
CC
102
{ACAD_REACTORS
330
CB
102
}
330
CB
100
AcDbXrecord
280
     1
102
RTVSPropertyOp0
 70
     1
102
RTVSPropertyOp1
 70
     1
102
RTVSPropertyOp2
 70
     1
102
RTVSPropertyOp3
 70
     1
102
RTVSPropertyOp4
 70
     1
102
RTVSPropertyOp5
 70
     1
102
RTVSPropertyOp6
 70
     1
102
RTVSPropertyOp7
 70
     1
102
RTVSPropertyOp8
 70
     1
102
RTVSPropertyOp9
 70
     1
102
RTVSPropertyOp10
 70
     1
102
RTVSPropertyOp11
 70
     1
102
RTVSPropertyOp12
 70
     1
102
RTVSPropertyOp13
 70
     1
102
RTVSPropertyOp14
 70
     1
102
RTVSPropertyOp15
 70
     1
102
RTVSPropertyOp16
 70
     1
102
RTVSPropertyOp17
 70
     1
102
RTVSPropertyOp18
 70
     1
102
RTVSPropertyOp19
 70
     1
102
RTVSPropertyOp20
 70
     1
102
RTVSPropertyOp21
 70
     1
102
RTVSPropertyOp22
 70
     1
102
RTVSPropertyOp23
 70
     1
102
RTVSPropertyOp24
 70
     1
102
RTVSPropertyOp25
 70
     1
102
RTVSPropertyOp26
 70
     1
102
RTVSPropertyOp27
 70
     1
102
RTVSPropertyOp28
 70
     1
102
RTVSPropertyOp29
 70
     1
102
RTVSPropertyOp30
 70
     1
102
RTVSPropertyOp31
 70
     1
102
RTVSPropertyOp32
 70
     1
  0
XRECORD
  5
D4
102
{ACAD_REACTORS
330
D3
102
}
330
D3
100
AcDbXrecord
280
     1
102
RTVSPropertyOp0
 70
     1
102
RTVSPropertyOp1
 70
     1
102
RTVSPropertyOp2
 70
     1
102
RTVSPropertyOp3
 70
     1
102
RTVSPropertyOp4
 70
     1
102
RTVSPropertyOp5
 70
     1
102
RTVSPropertyOp6
 70
     1
102
RTVSPropertyOp7
 70
     1
102
RTVSPropertyOp8
 70
     1
102
RTVSPropertyOp9
 70
     1
102
RTVSPropertyOp10
 70
     1
102
RTVSPropertyOp11
 70
     1
102
RTVSPropertyOp12
 70
     1
102
RTVSPropertyOp13
 70
     1
102
RTVSPropertyOp14
 70
     1
102
RTVSPropertyOp15
 70
     1
102
RTVSPropertyOp16
 70
     1
102
RTVSPropertyOp17
 70
     1
102
RTVSPropertyOp18
 70
     1
102
RTVSPropertyOp19
 70
     1
102
RTVSPropertyOp20
 70
     1
102
RTVSPropertyOp21
 70
     1
102
RTVSPropertyOp22
 70
     1
102
RTVSPropertyOp23
 70
     1
102
RTVSPropertyOp24
 70
     1
102
RTVSPropertyOp25
 70
     1
102
RTVSPropertyOp26
 70
     1
102
RTVSPropertyOp27
 70
     1
102
RTVSPropertyOp28
 70
     1
102
RTVSPropertyOp29
 70
     1
102
RTVSPropertyOp30
 70
     1
102
RTVSPropertyOp31
 70
     1
102
RTVSPropertyOp32
 70
     1
  0
XRECORD
  5
DC
102
{ACAD_REACTORS
330
DB
102
}
330
DB
100
AcDbXrecord
280
     1
102
RTVSPropertyOp0
 70
     1
102
RTVSPropertyOp1
 70
     1
102
RTVSPropertyOp2
 70
     1
102
RTVSPropertyOp3
 70
     1
102
RTVSPropertyOp4
 70
     1
102
RTVSPropertyOp5
 70
     1
102
RTVSPropertyOp6
 70
     1
102
RTVSPropertyOp7
 70
     1
102
RTVSPropertyOp8
 70
     1
102
RTVSPropertyOp9
 70
     1
102
RTVSPropertyOp10
 70
     1
102
RTVSPropertyOp11
 70
     1
102
RTVSPropertyOp12
 70
     1
102
RTVSPropertyOp13
 70
     1
102
RTVSPropertyOp14
 70
     1
102
RTVSPropertyOp15
 70
     1
102
RTVSPropertyOp16
 70
     1
102
RTVSPropertyOp17
 70
     1
102
RTVSPropertyOp18
 70
     1
102
RTVSPropertyOp19
 70
     1
102
RTVSPropertyOp20
 70
     1
102
RTVSPropertyOp21
 70
     1
102
RTVSPropertyOp22
 70
     1
102
RTVSPropertyOp23
 70
     1
102
RTVSPropertyOp24
 70
     1
102
RTVSPropertyOp25
 70
     1
102
RTVSPropertyOp26
 70
     1
102
RTVSPropertyOp27
 70
     1
102
RTVSPropertyOp28
 70
     1
102
RTVSPropertyOp29
 70
     1
102
RTVSPropertyOp30
 70
     1
102
RTVSPropertyOp31
 70
     1
102
RTVSPropertyOp32
 70
     1
  0
XRECORD
  5
D0
102
{ACAD_REACTORS
330
CF
102
}
330
CF
100
AcDbXrecord
280
     1
102
RTVSPropertyOp0
 70
     1
102
RTVSPropertyOp1
 70
     1
102
RTVSPropertyOp2
 70
     1
102
RTVSPropertyOp3
 70
     1
102
RTVSPropertyOp4
 70
     1
102
RTVSPropertyOp5
 70
     1
102
RTVSPropertyOp6
 70
     1
102
RTVSPropertyOp7
 70
     1
102
RTVSPropertyOp8
 70
     1
102
RTVSPropertyOp9
 70
     1
102
RTVSPropertyOp10
 70
     1
102
RTVSPropertyOp11
 70
     1
102
RTVSPropertyOp12
 70
     1
102
RTVSPropertyOp13
 70
     1
102
RTVSPropertyOp14
 70
     1
102
RTVSPropertyOp15
 70
     1
102
RTVSPropertyOp16
 70
     1
102
RTVSPropertyOp17
 70
     1
102
RTVSPropertyOp18
 70
     1
102
RTVSPropertyOp19
 70
     1
102
RTVSPropertyOp20
 70
     1
102
RTVSPropertyOp21
 70
     1
102
RTVSPropertyOp22
 70
     1
102
RTVSPropertyOp23
 70
     1
102
RTVSPropertyOp24
 70
     1
102
RTVSPropertyOp25
 70
     1
102
RTVSPropertyOp26
 70
     1
102
RTVSPropertyOp27
 70
     1
102
RTVSPropertyOp28
 70
     1
102
RTVSPropertyOp29
 70
     1
102
RTVSPropertyOp30
 70
     1
102
RTVSPropertyOp31
 70
     1
102
RTVSPropertyOp32
 70
     1
  0
XRECORD
  5
D2
102
{ACAD_REACTORS
330
D1
102
}
330
D1
100
AcDbXrecord
280
     1
102
RTVSPropertyOp0
 70
     1
102
RTVSPropertyOp1
 70
     1
102
RTVSPropertyOp2
 70
     1
102
RTVSPropertyOp3
 70
     1
102
RTVSPropertyOp4
 70
     1
102
RTVSPropertyOp5
 70
     1
102
RTVSPropertyOp6
 70
     1
102
RTVSPropertyOp7
 70
     1
102
RTVSPropertyOp8
 70
     1
102
RTVSPropertyOp9
 70
     1
102
RTVSPropertyOp10
 70
     1
102
RTVSPropertyOp11
 70
     1
102
RTVSPropertyOp12
 70
     1
102
RTVSPropertyOp13
 70
     1
102
RTVSPropertyOp14
 70
     1
102
RTVSPropertyOp15
 70
     1
102
RTVSPropertyOp16
 70
     1
102
RTVSPropertyOp17
 70
     1
102
RTVSPropertyOp18
 70
     1
102
RTVSPropertyOp19
 70
     1
102
RTVSPropertyOp20
 70
     1
102
RTVSPropertyOp21
 70
     1
102
RTVSPropertyOp22
 70
     1
102
RTVSPropertyOp23
 70
     1
102
RTVSPropertyOp24
 70
     1
102
RTVSPropertyOp25
 70
     1
102
RTVSPropertyOp26
 70
     1
102
RTVSPropertyOp27
 70
     1
102
RTVSPropertyOp28
 70
     1
102
RTVSPropertyOp29
 70
     1
102
RTVSPropertyOp30
 70
     1
102
RTVSPropertyOp31
 70
     1
102
RTVSPropertyOp32
 70
     1
  0
XRECORD
  5
DA
102
{ACAD_REACTORS
330
D9
102
}
330
D9
100
AcDbXrecord
280
     1
102
RTVSPropertyOp0
 70
     1
102
RTVSPropertyOp1
 70
     1
102
RTVSPropertyOp2
 70
     1
102
RTVSPropertyOp3
 70
     1
102
RTVSPropertyOp4
 70
     1
102
RTVSPropertyOp5
 70
     1
102
RTVSPropertyOp6
 70
     1
102
RTVSPropertyOp7
 70
     1
102
RTVSPropertyOp8
 70
     1
102
RTVSPropertyOp9
 70
     1
102
RTVSPropertyOp10
 70
     1
102
RTVSPropertyOp11
 70
     1
102
RTVSPropertyOp12
 70
     1
102
RTVSPropertyOp13
 70
     1
102
RTVSPropertyOp14
 70
     1
102
RTVSPropertyOp15
 70
     1
102
RTVSPropertyOp16
 70
     1
102
RTVSPropertyOp17
 70
     1
102
RTVSPropertyOp18
 70
     1
102
RTVSPropertyOp19
 70
     1
102
RTVSPropertyOp20
 70
     1
102
RTVSPropertyOp21
 70
     1
102
RTVSPropertyOp22
 70
     1
102
RTVSPropertyOp23
 70
     1
102
RTVSPropertyOp24
 70
     1
102
RTVSPropertyOp25
 70
     1
102
RTVSPropertyOp26
 70
     1
102
RTVSPropertyOp27
 70
     1
102
RTVSPropertyOp28
 70
     1
102
RTVSPropertyOp29
 70
     1
102
RTVSPropertyOp30
 70
     1
102
RTVSPropertyOp31
 70
     1
102
RTVSPropertyOp32
 70
     1
  0
XRECORD
  5
BE
102
{ACAD_REACTORS
330
BD
102
}
330
BD
100
AcDbXrecord
280
     1
102
RTVSPropertyOp0
 70
     1
102
RTVSPropertyOp1
 70
     1
102
RTVSPropertyOp2
 70
     1
102
RTVSPropertyOp3
 70
     1
102
RTVSPropertyOp4
 70
     1
102
RTVSPropertyOp5
 70
     1
102
RTVSPropertyOp6
 70
     1
102
RTVSPropertyOp7
 70
     1
102
RTVSPropertyOp8
 70
     1
102
RTVSPropertyOp9
 70
     1
102
RTVSPropertyOp10
 70
     1
102
RTVSPropertyOp11
 70
     1
102
RTVSPropertyOp12
 70
     1
102
RTVSPropertyOp13
 70
     1
102
RTVSPropertyOp14
 70
     1
102
RTVSPropertyOp15
 70
     1
102
RTVSPropertyOp16
 70
     1
102
RTVSPropertyOp17
 70
     1
102
RTVSPropertyOp18
 70
     1
102
RTVSPropertyOp19
 70
     1
102
RTVSPropertyOp20
 70
     1
102
RTVSPropertyOp21
 70
     1
102
RTVSPropertyOp22
 70
     1
102
RTVSPropertyOp23
 70
     1
102
RTVSPropertyOp24
 70
     1
102
RTVSPropertyOp25
 70
     1
102
RTVSPropertyOp26
 70
     1
102
RTVSPropertyOp27
 70
     1
102
RTVSPropertyOp28
 70
     1
102
RTVSPropertyOp29
 70
     1
102
RTVSPropertyOp30
 70
     1
102
RTVSPropertyOp31
 70
     1
102
RTVSPropertyOp32
 70
     1
  0
XRECORD
  5
C0
102
{ACAD_REACTORS
330
BF
102
}
330
BF
100
AcDbXrecord
280
     1
102
RTVSPropertyOp0
 70
     1
102
RTVSPropertyOp1
 70
     1
102
RTVSPropertyOp2
 70
     1
102
RTVSPropertyOp3
 70
     1
102
RTVSPropertyOp4
 70
     1
102
RTVSPropertyOp5
 70
     1
102
RTVSPropertyOp6
 70
     1
102
RTVSPropertyOp7
 70
     1
102
RTVSPropertyOp8
 70
     1
102
RTVSPropertyOp9
 70
     1
102
RTVSPropertyOp10
 70
     1
102
RTVSPropertyOp11
 70
     1
102
RTVSPropertyOp12
 70
     1
102
RTVSPropertyOp13
 70
     1
102
RTVSPropertyOp14
 70
     1
102
RTVSPropertyOp15
 70
     1
102
RTVSPropertyOp16
 70
     1
102
RTVSPropertyOp17
 70
     1
102
RTVSPropertyOp18
 70
     1
102
RTVSPropertyOp19
 70
     1
102
RTVSPropertyOp20
 70
     1
102
RTVSPropertyOp21
 70
     1
102
RTVSPropertyOp22
 70
     1
102
RTVSPropertyOp23
 70
     1
102
RTVSPropertyOp24
 70
     1
102
RTVSPropertyOp25
 70
     1
102
RTVSPropertyOp26
 70
     1
102
RTVSPropertyOp27
 70
     1
102
RTVSPropertyOp28
 70
     1
102
RTVSPropertyOp29
 70
     1
102
RTVSPropertyOp30
 70
     1
102
RTVSPropertyOp31
 70
     1
102
RTVSPropertyOp32
 70
     1
  0
XRECORD
  5
C2
102
{ACAD_REACTORS
330
C1
102
}
330
C1
100
AcDbXrecord
280
     1
102
RTVSPropertyOp0
 70
     1
102
RTVSPropertyOp1
 70
     1
102
RTVSPropertyOp2
 70
     1
102
RTVSPropertyOp3
 70
     1
102
RTVSPropertyOp4
 70
     1
102
RTVSPropertyOp5
 70
     1
102
RTVSPropertyOp6
 70
     1
102
RTVSPropertyOp7
 70
     1
102
RTVSPropertyOp8
 70
     1
102
RTVSPropertyOp9
 70
     1
102
RTVSPropertyOp10
 70
     1
102
RTVSPropertyOp11
 70
     1
102
RTVSPropertyOp12
 70
     1
102
RTVSPropertyOp13
 70
     1
102
RTVSPropertyOp14
 70
     1
102
RTVSPropertyOp15
 70
     1
102
RTVSPropertyOp16
 70
     1
102
RTVSPropertyOp17
 70
     1
102
RTVSPropertyOp18
 70
     1
102
RTVSPropertyOp19
 70
     1
102
RTVSPropertyOp20
 70
     1
102
RTVSPropertyOp21
 70
     1
102
RTVSPropertyOp22
 70
     1
102
RTVSPropertyOp23
 70
     1
102
RTVSPropertyOp24
 70
     1
102
RTVSPropertyOp25
 70
     1
102
RTVSPropertyOp26
 70
     1
102
RTVSPropertyOp27
 70
     1
102
RTVSPropertyOp28
 70
     1
102
RTVSPropertyOp29
 70
     1
102
RTVSPropertyOp30
 70
     1
102
RTVSPropertyOp31
 70
     1
102
RTVSPropertyOp32
 70
     1
  0
XRECORD
  5
C4
102
{ACAD_REACTORS
330
C3
102
}
330
C3
100
AcDbXrecord
280
     1
102
RTVSPropertyOp0
 70
     1
102
RTVSPropertyOp1
 70
     1
102
RTVSPropertyOp2
 70
     1
102
RTVSPropertyOp3
 70
     1
102
RTVSPropertyOp4
 70
     1
102
RTVSPropertyOp5
 70
     1
102
RTVSPropertyOp6
 70
     1
102
RTVSPropertyOp7
 70
     1
102
RTVSPropertyOp8
 70
     1
102
RTVSPropertyOp9
 70
     1
102
RTVSPropertyOp10
 70
     1
102
RTVSPropertyOp11
 70
     1
102
RTVSPropertyOp12
 70
     1
102
RTVSPropertyOp13
 70
     1
102
RTVSPropertyOp14
 70
     1
102
RTVSPropertyOp15
 70
     1
102
RTVSPropertyOp16
 70
     1
102
RTVSPropertyOp17
 70
     1
102
RTVSPropertyOp18
 70
     1
102
RTVSPropertyOp19
 70
     1
102
RTVSPropertyOp20
 70
     1
102
RTVSPropertyOp21
 70
     1
102
RTVSPropertyOp22
 70
     1
102
RTVSPropertyOp23
 70
     1
102
RTVSPropertyOp24
 70
     1
102
RTVSPropertyOp25
 70
     1
102
RTVSPropertyOp26
 70
     1
102
RTVSPropertyOp27
 70
     1
102
RTVSPropertyOp28
 70
     1
102
RTVSPropertyOp29
 70
     1
102
RTVSPropertyOp30
 70
     1
102
RTVSPropertyOp31
 70
     1
102
RTVSPropertyOp32
 70
     1
  0
XRECORD
  5
D8
102
{ACAD_REACTORS
330
D7
102
}
330
D7
100
AcDbXrecord
280
     1
102
RTVSPropertyOp0
 70
     1
102
RTVSPropertyOp1
 70
     1
102
RTVSPropertyOp2
 70
     1
102
RTVSPropertyOp3
 70
     1
102
RTVSPropertyOp4
 70
     1
102
RTVSPropertyOp5
 70
     1
102
RTVSPropertyOp6
 70
     1
102
RTVSPropertyOp7
 70
     1
102
RTVSPropertyOp8
 70
     1
102
RTVSPropertyOp9
 70
     1
102
RTVSPropertyOp10
 70
     1
102
RTVSPropertyOp11
 70
     1
102
RTVSPropertyOp12
 70
     1
102
RTVSPropertyOp13
 70
     1
102
RTVSPropertyOp14
 70
     1
102
RTVSPropertyOp15
 70
     1
102
RTVSPropertyOp16
 70
     1
102
RTVSPropertyOp17
 70
     1
102
RTVSPropertyOp18
 70
     1
102
RTVSPropertyOp19
 70
     1
102
RTVSPropertyOp20
 70
     1
102
RTVSPropertyOp21
 70
     1
102
RTVSPropertyOp22
 70
     1
102
RTVSPropertyOp23
 70
     1
102
RTVSPropertyOp24
 70
     1
102
RTVSPropertyOp25
 70
     1
102
RTVSPropertyOp26
 70
     1
102
RTVSPropertyOp27
 70
     1
102
RTVSPropertyOp28
 70
     1
102
RTVSPropertyOp29
 70
     1
102
RTVSPropertyOp30
 70
     1
102
RTVSPropertyOp31
 70
     1
102
RTVSPropertyOp32
 70
     1
  0
XRECORD
  5
CE
102
{ACAD_REACTORS
330
CD
102
}
330
CD
100
AcDbXrecord
280
     1
102
RTVSPropertyOp0
 70
     1
102
RTVSPropertyOp1
 70
     1
102
RTVSPropertyOp2
 70
     1
102
RTVSPropertyOp3
 70
     1
102
RTVSPropertyOp4
 70
     1
102
RTVSPropertyOp5
 70
     1
102
RTVSPropertyOp6
 70
     1
102
RTVSPropertyOp7
 70
     1
102
RTVSPropertyOp8
 70
     1
102
RTVSPropertyOp9
 70
     1
102
RTVSPropertyOp10
 70
     1
102
RTVSPropertyOp11
 70
     1
102
RTVSPropertyOp12
 70
     1
102
RTVSPropertyOp13
 70
     1
102
RTVSPropertyOp14
 70
     1
102
RTVSPropertyOp15
 70
     1
102
RTVSPropertyOp16
 70
     1
102
RTVSPropertyOp17
 70
     1
102
RTVSPropertyOp18
 70
     1
102
RTVSPropertyOp19
 70
     1
102
RTVSPropertyOp20
 70
     1
102
RTVSPropertyOp21
 70
     1
102
RTVSPropertyOp22
 70
     1
102
RTVSPropertyOp23
 70
     1
102
RTVSPropertyOp24
 70
     1
102
RTVSPropertyOp25
 70
     1
102
RTVSPropertyOp26
 70
     1
102
RTVSPropertyOp27
 70
     1
102
RTVSPropertyOp28
 70
     1
102
RTVSPropertyOp29
 70
     1
102
RTVSPropertyOp30
 70
     1
102
RTVSPropertyOp31
 70
     1
102
RTVSPropertyOp32
 70
     1
  0
XRECORD
  5
D6
102
{ACAD_REACTORS
330
D5
102
}
330
D5
100
AcDbXrecord
280
     1
102
RTVSPropertyOp0
 70
     1
102
RTVSPropertyOp1
 70
     1
102
RTVSPropertyOp2
 70
     1
102
RTVSPropertyOp3
 70
     1
102
RTVSPropertyOp4
 70
     1
102
RTVSPropertyOp5
 70
     1
102
RTVSPropertyOp6
 70
     1
102
RTVSPropertyOp7
 70
     1
102
RTVSPropertyOp8
 70
     1
102
RTVSPropertyOp9
 70
     1
102
RTVSPropertyOp10
 70
     1
102
RTVSPropertyOp11
 70
     1
102
RTVSPropertyOp12
 70
     1
102
RTVSPropertyOp13
 70
     1
102
RTVSPropertyOp14
 70
     1
102
RTVSPropertyOp15
 70
     1
102
RTVSPropertyOp16
 70
     1
102
RTVSPropertyOp17
 70
     1
102
RTVSPropertyOp18
 70
     1
102
RTVSPropertyOp19
 70
     1
102
RTVSPropertyOp20
 70
     1
102
RTVSPropertyOp21
 70
     1
102
RTVSPropertyOp22
 70
     1
102
RTVSPropertyOp23
 70
     1
102
RTVSPropertyOp24
 70
     1
102
RTVSPropertyOp25
 70
     1
102
RTVSPropertyOp26
 70
     1
102
RTVSPropertyOp27
 70
     1
102
RTVSPropertyOp28
 70
     1
102
RTVSPropertyOp29
 70
     1
102
RTVSPropertyOp30
 70
     1
102
RTVSPropertyOp31
 70
     1
102
RTVSPropertyOp32
 70
     1
  0
ENDSEC
  0
EOF
